  0
SECTION
  2
HEADER
  9
$ACADVER
  1
AC1009
  9
$DWGCODEPAGE
  3
ansi_1252
  9
$INSBASE
 10
0.0
 20
0.0
 30
0.0
  9
$EXTMIN
 10
-0.00005
 20
-0.00005
 30
0.0
  9
$EXTMAX
 10
403.5
 20
286.2908
 30
0.0001
  9
$LIMMIN
 10
0.0
 20
0.0
  9
$LIMMAX
 10
12.0
 20
9.0
  9
$ORTHOMODE
 70
     0
  9
$REGENMODE
 70
     1
  9
$FILLMODE
 70
     1
  9
$QTEXTMODE
 70
     0
  9
$MIRRTEXT
 70
     1
  9
$DRAGMODE
 70
     2
  9
$LTSCALE
 40
1.0
  9
$OSMODE
 70
    37
  9
$ATTMODE
 70
     1
  9
$TEXTSIZE
 40
0.2
  9
$TRACEWID
 40
0.05
  9
$TEXTSTYLE
  7
STANDARD
  9
$CLAYER
  8
DEFAULT
  9
$CELTYPE
  6
BYLAYER
  9
$CECOLOR
 62
   256
  9
$DIMSCALE
 40
1.0
  9
$DIMASZ
 40
0.18
  9
$DIMEXO
 40
0.0625
  9
$DIMDLI
 40
0.38
  9
$DIMRND
 40
0.0
  9
$DIMDLE
 40
0.0
  9
$DIMEXE
 40
0.18
  9
$DIMTP
 40
0.0
  9
$DIMTM
 40
0.0
  9
$DIMTXT
 40
0.18
  9
$DIMCEN
 40
0.09
  9
$DIMTSZ
 40
0.0
  9
$DIMTOL
 70
     0
  9
$DIMLIM
 70
     0
  9
$DIMTIH
 70
     1
  9
$DIMTOH
 70
     1
  9
$DIMSE1
 70
     0
  9
$DIMSE2
 70
     0
  9
$DIMTAD
 70
     0
  9
$DIMZIN
 70
     0
  9
$DIMBLK
  1

  9
$DIMASO
 70
     1
  9
$DIMSHO
 70
     1
  9
$DIMPOST
  1

  9
$DIMAPOST
  1

  9
$DIMALT
 70
     0
  9
$DIMALTD
 70
     2
  9
$DIMALTF
 40
25.4
  9
$DIMLFAC
 40
1.0
  9
$DIMTOFL
 70
     0
  9
$DIMTVP
 40
0.0
  9
$DIMTIX
 70
     0
  9
$DIMSOXD
 70
     0
  9
$DIMSAH
 70
     0
  9
$DIMBLK1
  1

  9
$DIMBLK2
  1

  9
$DIMSTYLE
  2
STANDARD
  9
$DIMCLRD
 70
     0
  9
$DIMCLRE
 70
     0
  9
$DIMCLRT
 70
     0
  9
$DIMTFAC
 40
1.0
  9
$DIMGAP
 40
0.09
  9
$LUNITS
 70
     2
  9
$LUPREC
 70
     4
  9
$SKETCHINC
 40
0.1
  9
$FILLETRAD
 40
0.5
  9
$AUNITS
 70
     0
  9
$AUPREC
 70
     0
  9
$MENU
  1
.
  9
$ELEVATION
 40
0.0
  9
$PELEVATION
 40
0.0
  9
$THICKNESS
 40
0.0
  9
$LIMCHECK
 70
     0
  9
$CHAMFERA
 40
0.5
  9
$CHAMFERB
 40
0.5
  9
$SKPOLY
 70
     0
  9
$TDCREATE
 40
2456078.086955023
  9
$TDUPDATE
 40
2456078.086955035
  9
$TDINDWG
 40
0.0000000116
  9
$TDUSRTIMER
 40
0.0000000116
  9
$USRTIMER
 70
     1
  9
$ANGBASE
 50
0.0
  9
$ANGDIR
 70
     0
  9
$PDMODE
 70
     0
  9
$PDSIZE
 40
0.0
  9
$PLINEWID
 40
0.0
  9
$COORDS
 70
     1
  9
$SPLFRAME
 70
     0
  9
$SPLINETYPE
 70
     6
  9
$SPLINESEGS
 70
     8
  9
$ATTDIA
 70
     0
  9
$ATTREQ
 70
     1
  9
$HANDLING
 70
     1
  9
$HANDSEED
  5
713
  9
$SURFTAB1
 70
     6
  9
$SURFTAB2
 70
     6
  9
$SURFTYPE
 70
     6
  9
$SURFU
 70
     6
  9
$SURFV
 70
     6
  9
$UCSNAME
  2

  9
$UCSORG
 10
0.0
 20
0.0
 30
0.0
  9
$UCSXDIR
 10
1.0
 20
0.0
 30
0.0
  9
$UCSYDIR
 10
0.0
 20
1.0
 30
0.0
  9
$PUCSNAME
  2

  9
$PUCSORG
 10
0.0
 20
0.0
 30
0.0
  9
$PUCSXDIR
 10
1.0
 20
0.0
 30
0.0
  9
$PUCSYDIR
 10
0.0
 20
1.0
 30
0.0
  9
$USERI1
 70
     0
  9
$USERI2
 70
     0
  9
$USERI3
 70
     0
  9
$USERI4
 70
     0
  9
$USERI5
 70
     0
  9
$USERR1
 40
0.0
  9
$USERR2
 40
0.0
  9
$USERR3
 40
0.0
  9
$USERR4
 40
0.0
  9
$USERR5
 40
0.0
  9
$WORLDVIEW
 70
     1
  9
$SHADEDGE
 70
     3
  9
$SHADEDIF
 70
    70
  9
$TILEMODE
 70
     1
  9
$MAXACTVP
 70
    64
  9
$PLIMCHECK
 70
     0
  9
$PEXTMIN
 10
1.000000000000000E 20
 20
1.000000000000000E 20
 30
1.000000000000000E 20
  9
$PEXTMAX
 10
-1.000000000000000E 20
 20
-1.000000000000000E 20
 30
-1.000000000000000E 20
  9
$PLIMMIN
 10
0.0
 20
0.0
  9
$PLIMMAX
 10
12.0
 20
9.0
  9
$UNITMODE
 70
     0
  9
$VISRETAIN
 70
     1
  9
$PLINEGEN
 70
     0
  9
$PSLTSCALE
 70
     1
  0
ENDSEC
  0
SECTION
  2
TABLES
  0
TABLE
  2
VPORT
 70
     1
  0
VPORT
  2
*ACTIVE
 70
     0
 10
0.0
 20
0.0
 11
1.0
 21
1.0
 12
0.0
 22
0.0
 13
0.0
 23
0.0
 14
0.5
 24
0.5
 15
0.5
 25
0.5
 16
0.0
 26
0.0
 36
1.0
 17
201.749975
 27
143.145375
 37
0.0
 40
292.016667
 41
1.409406028868893
 42
50.0
 43
0.0
 44
0.0
 50
0.0
 51
0.0
 71
     0
 72
   100
 73
     1
 74
     3
 75
     0
 76
     0
 77
     0
 78
     0
  0
ENDTAB
  0
TABLE
  2
LTYPE
 70
     1
  0
LTYPE
  2
CONTINUOUS
 70
     0
  3
Solid line
 72
    65
 73
     0
 40
0.0
  0
ENDTAB
  0
TABLE
  2
LAYER
 70
     3
  0
LAYER
  2
0
 70
     0
 62
     7
  6
CONTINUOUS
  0
LAYER
  2
DEFAULT
 70
     0
 62
     7
  6
CONTINUOUS
  0
LAYER
  2
LAYER_1
 70
     0
 62
     7
  6
CONTINUOUS
  0
ENDTAB
  0
TABLE
  2
STYLE
 70
     1
  0
STYLE
  2
STANDARD
 70
     0
 40
0.0
 41
1.0
 50
0.0
 71
     0
 42
0.2
  3
txt
  4

  0
ENDTAB
  0
TABLE
  2
VIEW
 70
     0
  0
ENDTAB
  0
TABLE
  2
UCS
 70
     0
  0
ENDTAB
  0
TABLE
  2
APPID
 70
     1
  0
APPID
  2
ACAD
 70
     0
  0
ENDTAB
  0
TABLE
  2
DIMSTYLE
 70
     1
  0
DIMSTYLE
  2
STANDARD
 70
     0
  3

  4

  5

  6

  7

 40
1.0
 41
0.18
 42
0.0625
 43
0.38
 44
0.18
 45
0.0
 46
0.0
 47
0.0
 48
0.0
140
0.18
141
0.09
142
0.0
143
25.4
144
1.0
145
0.0
146
1.0
147
0.09
 71
     0
 72
     0
 73
     1
 74
     1
 75
     0
 76
     0
 77
     0
 78
     0
170
     0
171
     2
172
     0
173
     0
174
     0
175
     0
176
     0
177
     0
178
     0
  0
ENDTAB
  0
ENDSEC
  0
SECTION
  2
BLOCKS
  0
BLOCK
  8
0
  2
$MODEL_SPACE
 70
     0
 10
0.0
 20
0.0
 30
0.0
  3
$MODEL_SPACE
  1

  0
ENDBLK
  5
21
  8
0
  0
BLOCK
 67
     1
  8
0
  2
$PAPER_SPACE
 70
     0
 10
0.0
 20
0.0
 30
0.0
  3
$PAPER_SPACE
  1

  0
ENDBLK
  5
1D
 67
     1
  8
0
  0
ENDSEC
  0
SECTION
  2
ENTITIES
  0
LINE
  5
5E
  8
DEFAULT
 10
-0.00005
 20
-0.00005
 30
0.0
 11
0.00005
 21
-0.00005
 31
0.0
  0
LINE
  5
5F
  8
DEFAULT
 10
0.00005
 20
-0.00005
 30
0.0
 11
0.00005
 21
0.00005
 31
0.0
  0
LINE
  5
60
  8
DEFAULT
 10
0.00005
 20
0.00005
 30
0.0
 11
-0.00005
 21
0.00005
 31
0.0
  0
LINE
  5
61
  8
DEFAULT
 10
-0.00005
 20
0.00005
 30
0.0
 11
-0.00005
 21
-0.00005
 31
0.0
  0
LINE
  5
62
  8
DEFAULT
 10
-0.00005
 20
-0.00005
 30
0.0001
 11
0.00005
 21
-0.00005
 31
0.0001
  0
LINE
  5
63
  8
DEFAULT
 10
0.00005
 20
-0.00005
 30
0.0001
 11
0.00005
 21
0.00005
 31
0.0001
  0
LINE
  5
64
  8
DEFAULT
 10
0.00005
 20
0.00005
 30
0.0001
 11
-0.00005
 21
0.00005
 31
0.0001
  0
LINE
  5
65
  8
DEFAULT
 10
-0.00005
 20
0.00005
 30
0.0001
 11
-0.00005
 21
-0.00005
 31
0.0001
  0
LINE
  5
66
  8
DEFAULT
 10
-0.00005
 20
-0.00005
 30
0.0
 11
-0.00005
 21
-0.00005
 31
0.0001
  0
LINE
  5
67
  8
DEFAULT
 10
0.00005
 20
-0.00005
 30
0.0
 11
0.00005
 21
-0.00005
 31
0.0001
  0
LINE
  5
68
  8
DEFAULT
 10
0.00005
 20
0.00005
 30
0.0
 11
0.00005
 21
0.00005
 31
0.0001
  0
LINE
  5
69
  8
DEFAULT
 10
-0.00005
 20
0.00005
 30
0.0
 11
-0.00005
 21
0.00005
 31
0.0001
  0
LINE
  5
6A
  8
DEFAULT
 10
-0.00005
 20
-0.00005
 30
0.00005
 11
0.00005
 21
-0.00005
 31
0.00005
  0
LINE
  5
6B
  8
DEFAULT
 10
0.0
 20
-0.00005
 30
0.0
 11
0.0
 21
-0.00005
 31
0.0001
  0
LINE
  5
6C
  8
DEFAULT
 10
0.00005
 20
-0.00005
 30
0.00005
 11
0.00005
 21
0.00005
 31
0.00005
  0
LINE
  5
6D
  8
DEFAULT
 10
0.00005
 20
0.0
 30
0.0
 11
0.00005
 21
0.0
 31
0.0001
  0
LINE
  5
6E
  8
DEFAULT
 10
0.00005
 20
0.00005
 30
0.00005
 11
-0.00005
 21
0.00005
 31
0.00005
  0
LINE
  5
6F
  8
DEFAULT
 10
0.0
 20
0.00005
 30
0.0
 11
0.0
 21
0.00005
 31
0.0001
  0
LINE
  5
70
  8
DEFAULT
 10
-0.00005
 20
0.00005
 30
0.00005
 11
-0.00005
 21
-0.00005
 31
0.00005
  0
LINE
  5
71
  8
DEFAULT
 10
-0.00005
 20
0.0
 30
0.0
 11
-0.00005
 21
0.0
 31
0.0001
  0
LINE
  5
72
  8
DEFAULT
 10
0.0
 20
-0.00005
 30
0.0
 11
0.0
 21
0.00005
 31
0.0
  0
LINE
  5
73
  8
DEFAULT
 10
-0.00005
 20
0.0
 30
0.0
 11
0.00005
 21
0.0
 31
0.0
  0
LINE
  5
74
  8
DEFAULT
 10
-0.00005
 20
0.0
 30
0.0001
 11
0.00005
 21
0.0
 31
0.0001
  0
LINE
  5
75
  8
DEFAULT
 10
0.0
 20
-0.00005
 30
0.0001
 11
0.0
 21
0.00005
 31
0.0001
  0
POLYLINE
  5
77
  8
LAYER_1
 66
     1
 10
0.0
 20
0.0
 30
0.0
  0
VERTEX
  5
79
  8
LAYER_1
 10
111.7572
 20
255.0869
 30
0.0
  0
VERTEX
  5
7A
  8
LAYER_1
 10
113.739
 20
264.0682
 30
0.0
  0
VERTEX
  5
7B
  8
LAYER_1
 10
113.739
 20
264.1432
 30
0.0
  0
VERTEX
  5
7C
  8
LAYER_1
 10
112.2034
 20
264.1432
 30
0.0
  0
VERTEX
  5
7D
  8
LAYER_1
 10
111.009
 20
257.9182
 30
0.0
  0
VERTEX
  5
7E
  8
LAYER_1
 10
109.8147
 20
264.1432
 30
0.0
  0
VERTEX
  5
7F
  8
LAYER_1
 10
108.2659
 20
264.1432
 30
0.0
  0
VERTEX
  5
80
  8
LAYER_1
 10
108.2659
 20
264.0682
 30
0.0
  0
VERTEX
  5
81
  8
LAYER_1
 10
110.2478
 20
255.0869
 30
0.0
  0
VERTEX
  5
82
  8
LAYER_1
 10
110.2478
 20
249.8182
 30
0.0
  0
VERTEX
  5
83
  8
LAYER_1
 10
111.7572
 20
249.8182
 30
0.0
  0
VERTEX
  5
84
  8
LAYER_1
 10
111.7572
 20
255.0869
 30
0.0
  0
SEQEND
  5
78
  8
LAYER_1
  0
POLYLINE
  5
85
  8
LAYER_1
 66
     1
 10
0.0
 20
0.0
 30
0.0
  0
VERTEX
  5
87
  8
LAYER_1
 10
105.129
 20
260.8244
 30
0.0
  0
VERTEX
  5
88
  8
LAYER_1
 10
105.864
 20
254.3557
 30
0.0
  0
VERTEX
  5
89
  8
LAYER_1
 10
104.394
 20
254.3557
 30
0.0
  0
VERTEX
  5
8A
  8
LAYER_1
 10
105.129
 20
260.8244
 30
0.0
  0
SEQEND
  5
86
  8
LAYER_1
  0
POLYLINE
  5
8B
  8
LAYER_1
 66
     1
 10
0.0
 20
0.0
 30
0.0
  0
VERTEX
  5
8D
  8
LAYER_1
 10
106.3759
 20
249.8182
 30
0.0
  0
VERTEX
  5
8E
  8
LAYER_1
 10
107.859
 20
249.8182
 30
0.0
  0
VERTEX
  5
8F
  8
LAYER_1
 10
107.859
 20
249.8557
 30
0.0
  0
VERTEX
  5
90
  8
LAYER_1
 10
105.9297
 20
264.1619
 30
0.0
  0
VERTEX
  5
91
  8
LAYER_1
 10
104.3547
 20
264.1619
 30
0.0
  0
VERTEX
  5
92
  8
LAYER_1
 10
102.4122
 20
249.8557
 30
0.0
  0
VERTEX
  5
93
  8
LAYER_1
 10
102.4122
 20
249.8182
 30
0.0
  0
VERTEX
  5
94
  8
LAYER_1
 10
103.8953
 20
249.8182
 30
0.0
  0
VERTEX
  5
95
  8
LAYER_1
 10
104.1972
 20
252.5369
 30
0.0
  0
VERTEX
  5
96
  8
LAYER_1
 10
106.074
 20
252.5369
 30
0.0
  0
VERTEX
  5
97
  8
LAYER_1
 10
106.3759
 20
249.8182
 30
0.0
  0
SEQEND
  5
8C
  8
LAYER_1
  0
POLYLINE
  5
98
  8
LAYER_1
 66
     1
 10
0.0
 20
0.0
 30
0.0
  0
VERTEX
  5
9A
  8
LAYER_1
 10
100.4697
 20
249.7994
 30
0.0
  0
VERTEX
  5
9B
  8
LAYER_1
 10
101.9397
 20
264.1432
 30
0.0
  0
VERTEX
  5
9C
  8
LAYER_1
 10
100.4172
 20
264.1432
 30
0.0
  0
VERTEX
  5
9D
  8
LAYER_1
 10
99.64279
 20
255.6494
 30
0.0
 42
0.0248999999999993
  0
VERTEX
  5
9E
  8
LAYER_1
 10
99.61654000000001
 20
255.0963
 30
0.0
 42
-0.0134000000000022
  0
VERTEX
  5
9F
  8
LAYER_1
 10
99.59029000000001
 20
254.3369
 30
0.0
 42
-0.0134000000000101
  0
VERTEX
  5
A0
  8
LAYER_1
 10
99.56404
 20
255.0963
 30
0.0
 42
0.024899999999998
  0
VERTEX
  5
A1
  8
LAYER_1
 10
99.53779
 20
255.6494
 30
0.0
  0
VERTEX
  5
A2
  8
LAYER_1
 10
98.67154
 20
264.1432
 30
0.0
  0
VERTEX
  5
A3
  8
LAYER_1
 10
97.43779
 20
264.1432
 30
0.0
  0
VERTEX
  5
A4
  8
LAYER_1
 10
96.57153999999998
 20
255.6494
 30
0.0
 42
0.0265999999999933
  0
VERTEX
  5
A5
  8
LAYER_1
 10
96.54528999999998
 20
255.1057
 30
0.0
 42
-0.0135000000000088
  0
VERTEX
  5
A6
  8
LAYER_1
 10
96.51904
 20
254.3369
 30
0.0
 42
-0.0134999999999956
  0
VERTEX
  5
A7
  8
LAYER_1
 10
96.49279
 20
255.1057
 30
0.0
 42
0.0266000000000038
  0
VERTEX
  5
A8
  8
LAYER_1
 10
96.46654
 20
255.6494
 30
0.0
  0
VERTEX
  5
A9
  8
LAYER_1
 10
95.69216
 20
264.1432
 30
0.0
  0
VERTEX
  5
AA
  8
LAYER_1
 10
94.16966
 20
264.1432
 30
0.0
  0
VERTEX
  5
AB
  8
LAYER_1
 10
95.63966
 20
249.7994
 30
0.0
  0
VERTEX
  5
AC
  8
LAYER_1
 10
97.10966
 20
249.7994
 30
0.0
  0
VERTEX
  5
AD
  8
LAYER_1
 10
98.00215999999999
 20
257.9182
 30
0.0
 42
0.0285000000000008
  0
VERTEX
  5
AE
  8
LAYER_1
 10
98.02841
 20
258.4525
 30
0.0
 42
-0.0134999999999914
  0
VERTEX
  5
AF
  8
LAYER_1
 10
98.05466
 20
259.2307000000001
 30
0.0
 42
-0.0135000000000165
  0
VERTEX
  5
B0
  8
LAYER_1
 10
98.08090999999999
 20
258.4525
 30
0.0
 42
0.0284999999999799
  0
VERTEX
  5
B1
  8
LAYER_1
 10
98.10716
 20
257.9182
 30
0.0
  0
VERTEX
  5
B2
  8
LAYER_1
 10
98.99966
 20
249.7994
 30
0.0
  0
VERTEX
  5
B3
  8
LAYER_1
 10
100.4697
 20
249.7994
 30
0.0
  0
SEQEND
  5
99
  8
LAYER_1
  0
POLYLINE
  5
B4
  8
LAYER_1
 66
     1
 10
0.0
 20
0.0
 30
0.0
  0
VERTEX
  5
B6
  8
LAYER_1
 10
92.05654
 20
249.8182
 30
0.0
  0
VERTEX
  5
B7
  8
LAYER_1
 10
93.61841
 20
249.8182
 30
0.0
  0
VERTEX
  5
B8
  8
LAYER_1
 10
93.61841
 20
249.8932
 30
0.0
  0
VERTEX
  5
B9
  8
LAYER_1
 10
91.96466
 20
256.3057
 30
0.0
  0
VERTEX
  5
BA
  8
LAYER_1
 10
92.47654
 20
256.3057
 30
0.0
 42
0.1954000000000092
  0
VERTEX
  5
BB
  8
LAYER_1
 10
93.05232
 20
256.5383
 30
0.0
 42
0.1429999999999859
  0
VERTEX
  5
BC
  8
LAYER_1
 10
93.31825999999997
 20
257.0803
 30
0.0
 42
0.0531000000000206
  0
VERTEX
  5
BD
  8
LAYER_1
 10
93.36904
 20
257.6182
 30
0.0
  0
VERTEX
  5
BE
  8
LAYER_1
 10
93.36904000000003
 20
262.8307
 30
0.0
 42
0.0915999999999807
  0
VERTEX
  5
BF
  8
LAYER_1
 10
93.25079999999998
 20
263.6077999999999
 30
0.0
 42
0.1932000000000463
  0
VERTEX
  5
C0
  8
LAYER_1
 10
92.86399000000002
 20
264.059
 30
0.0
 42
0.1154999999999169
  0
VERTEX
  5
C1
  8
LAYER_1
 10
92.46340999999998
 20
264.1431999999999
 30
0.0
  0
VERTEX
  5
C2
  8
LAYER_1
 10
88.48654
 20
264.1432
 30
0.0
  0
VERTEX
  5
C3
  8
LAYER_1
 10
88.48654
 20
249.8182
 30
0.0
  0
VERTEX
  5
C4
  8
LAYER_1
 10
89.98279
 20
249.8182
 30
0.0
  0
VERTEX
  5
C5
  8
LAYER_1
 10
89.98279
 20
262.3244
 30
0.0
  0
VERTEX
  5
C6
  8
LAYER_1
 10
91.87279
 20
262.3244
 30
0.0
  0
VERTEX
  5
C7
  8
LAYER_1
 10
91.87279
 20
257.7802
 30
0.0
  0
VERTEX
  5
C8
  8
LAYER_1
 10
90.40279
 20
257.7802
 30
0.0
  0
VERTEX
  5
C9
  8
LAYER_1
 10
90.40279
 20
256.4844
 30
0.0
  0
VERTEX
  5
CA
  8
LAYER_1
 10
92.05654
 20
249.8182
 30
0.0
  0
SEQEND
  5
B5
  8
LAYER_1
  0
POLYLINE
  5
CB
  8
LAYER_1
 66
     1
 10
0.0
 20
0.0
 30
0.0
  0
VERTEX
  5
CD
  8
LAYER_1
 10
85.78279
 20
262.3244
 30
0.0
  0
VERTEX
  5
CE
  8
LAYER_1
 10
85.78279
 20
251.6369
 30
0.0
  0
VERTEX
  5
CF
  8
LAYER_1
 10
83.72216
 20
251.6369
 30
0.0
  0
VERTEX
  5
D0
  8
LAYER_1
 10
83.72216
 20
262.3244
 30
0.0
  0
VERTEX
  5
D1
  8
LAYER_1
 10
85.78279
 20
262.3244
 30
0.0
  0
SEQEND
  5
CC
  8
LAYER_1
  0
POLYLINE
  5
D2
  8
LAYER_1
 66
     1
 10
0.0
 20
0.0
 30
0.0
  0
VERTEX
  5
D4
  8
LAYER_1
 10
87.27904
 20
251.1307
 30
0.0
  0
VERTEX
  5
D5
  8
LAYER_1
 10
87.27903999999997
 20
262.8307
 30
0.0
 42
0.0979
  0
VERTEX
  5
D6
  8
LAYER_1
 10
87.15095
 20
263.6068
 30
0.0
 42
0.0539000000000022
  0
VERTEX
  5
D7
  8
LAYER_1
 10
87.04279
 20
263.8057
 30
0.0
 42
0.2602000000000035
  0
VERTEX
  5
D8
  8
LAYER_1
 10
86.37341
 20
264.1432
 30
0.0
  0
VERTEX
  5
D9
  8
LAYER_1
 10
83.11841
 20
264.1432
 30
0.0
 42
0.1936999999999606
  0
VERTEX
  5
DA
  8
LAYER_1
 10
82.56372999999998
 20
263.9487999999999
 30
0.0
 42
0.1477000000000145
  0
VERTEX
  5
DB
  8
LAYER_1
 10
82.29
 20
263.4398
 30
0.0
 42
0.0604000000000139
  0
VERTEX
  5
DC
  8
LAYER_1
 10
82.22591
 20
262.8307
 30
0.0
  0
VERTEX
  5
DD
  8
LAYER_1
 10
82.22591
 20
251.1307
 30
0.0
 42
0.09030000000001
  0
VERTEX
  5
DE
  8
LAYER_1
 10
82.34242999999998
 20
250.3535
 30
0.0
 42
0.1897999999999942
  0
VERTEX
  5
DF
  8
LAYER_1
 10
82.71701000000002
 20
249.9057
 30
0.0
 42
0.1197999999999963
  0
VERTEX
  5
E0
  8
LAYER_1
 10
83.11841
 20
249.8182
 30
0.0
  0
VERTEX
  5
E1
  8
LAYER_1
 10
86.37341
 20
249.8182
 30
0.0
 42
0.2510000000000071
  0
VERTEX
  5
E2
  8
LAYER_1
 10
87.02688
 20
250.1336
 30
0.0
  0
VERTEX
  5
E3
  8
LAYER_1
 10
87.04278999999997
 20
250.1557
 30
0.0
 42
0.1233000000000114
  0
VERTEX
  5
E4
  8
LAYER_1
 10
87.26061
 20
250.798
 30
0.0
 42
0.0296000000000059
  0
VERTEX
  5
E5
  8
LAYER_1
 10
87.27904
 20
251.1307
 30
0.0
  0
SEQEND
  5
D3
  8
LAYER_1
  0
POLYLINE
  5
E6
  8
LAYER_1
 66
     1
 10
0.0
 20
0.0
 30
0.0
  0
VERTEX
  5
E8
  8
LAYER_1
 10
79.71063
 20
249.8182
 30
0.0
  0
VERTEX
  5
E9
  8
LAYER_1
 10
81.01841
 20
249.8182
 30
0.0
  0
VERTEX
  5
EA
  8
LAYER_1
 10
81.01841
 20
264.1432
 30
0.0
  0
VERTEX
  5
EB
  8
LAYER_1
 10
79.54841
 20
264.1432
 30
0.0
  0
VERTEX
  5
EC
  8
LAYER_1
 10
79.54841
 20
256.3432
 30
0.0
  0
VERTEX
  5
ED
  8
LAYER_1
 10
79.55496999999998
 20
256.015
 30
0.0
 42
0.0339999999999726
  0
VERTEX
  5
EE
  8
LAYER_1
 10
79.58779000000001
 20
255.6869
 30
0.0
  0
VERTEX
  5
EF
  8
LAYER_1
 10
79.64029
 20
255.3119
 30
0.0
  0
VERTEX
  5
F0
  8
LAYER_1
 10
77.24682
 20
264.1432
 30
0.0
  0
VERTEX
  5
F1
  8
LAYER_1
 10
75.93904
 20
264.1432
 30
0.0
  0
VERTEX
  5
F2
  8
LAYER_1
 10
75.93904
 20
249.8182
 30
0.0
  0
VERTEX
  5
F3
  8
LAYER_1
 10
77.40904
 20
249.8182
 30
0.0
  0
VERTEX
  5
F4
  8
LAYER_1
 10
77.40904
 20
257.8057
 30
0.0
 42
0.0183000000000284
  0
VERTEX
  5
F5
  8
LAYER_1
 10
77.39591
 20
258.1338
 30
0.0
 42
0.0247999999999852
  0
VERTEX
  5
F6
  8
LAYER_1
 10
77.35654000000001
 20
258.4619
 30
0.0
 42
-0.0172999999999942
  0
VERTEX
  5
F7
  8
LAYER_1
 10
77.31716
 20
258.8369
 30
0.0
  0
VERTEX
  5
F8
  8
LAYER_1
 10
79.71063
 20
249.8182
 30
0.0
  0
SEQEND
  5
E7
  8
LAYER_1
  0
POLYLINE
  5
F9
  8
LAYER_1
 66
     1
 10
0.0
 20
0.0
 30
0.0
  0
VERTEX
  5
FB
  8
LAYER_1
 10
403.5
 20
11.385
 30
0.0
 42
-0.414199999999999
  0
VERTEX
  5
FC
  8
LAYER_1
 10
392.115
 20
0.0
 30
0.0
  0
VERTEX
  5
FD
  8
LAYER_1
 10
11.385
 20
0.0000000000000018
 30
0.0
 42
-0.4141999999999997
  0
VERTEX
  5
FE
  8
LAYER_1
 10
0.0
 20
11.385
 30
0.0
  0
VERTEX
  5
FF
  8
LAYER_1
 10
-0.000000000000016
 20
263.3017
 30
0.0
 42
-0.414200000000001
  0
VERTEX
  5
100
  8
LAYER_1
 10
11.385
 20
274.6867
 30
0.0
  0
VERTEX
  5
101
  8
LAYER_1
 10
155.4000000000001
 20
274.6867
 30
0.0
 42
-0.4197000000000042
  0
VERTEX
  5
102
  8
LAYER_1
 10
166.785
 20
286.2907999999999
 30
0.0
  0
VERTEX
  5
103
  8
LAYER_1
 10
236.715
 20
286.2908
 30
0.0
 42
-0.4196999999999895
  0
VERTEX
  5
104
  8
LAYER_1
 10
248.1
 20
274.6867
 30
0.0
  0
VERTEX
  5
105
  8
LAYER_1
 10
392.115
 20
274.6867
 30
0.0
 42
-0.4141999999999936
  0
VERTEX
  5
106
  8
LAYER_1
 10
403.5
 20
263.3017
 30
0.0
  0
VERTEX
  5
107
  8
LAYER_1
 10
403.5
 20
11.385
 30
0.0
  0
SEQEND
  5
FA
  8
LAYER_1
  0
POLYLINE
  5
108
  8
LAYER_1
 66
     1
 10
0.0
 20
0.0
 30
0.0
  0
VERTEX
  5
10A
  8
LAYER_1
 10
173.0935
 20
264.556
 30
0.0
 42
0.1284999999999989
  0
VERTEX
  5
10B
  8
LAYER_1
 10
173.4612
 20
263.1831
 30
0.0
 42
0.0787999999999696
  0
VERTEX
  5
10C
  8
LAYER_1
 10
174.4316
 20
261.9660000000001
 30
0.0
 42
0.0541000000000032
  0
VERTEX
  5
10D
  8
LAYER_1
 10
176.1629
 20
260.6884999999999
 30
0.0
 42
0.0398999999999967
  0
VERTEX
  5
10E
  8
LAYER_1
 10
179.0253
 20
259.3055000000001
 30
0.0
 42
0.0315000000000042
  0
VERTEX
  5
10F
  8
LAYER_1
 10
183.5127
 20
257.8738
 30
0.0
 42
0.0271999999999978
  0
VERTEX
  5
110
  8
LAYER_1
 10
190.2479
 20
256.5606000000001
 30
0.0
 42
0.0295000000000024
  0
VERTEX
  5
111
  8
LAYER_1
 10
200.8493
 20
255.7114
 30
0.0
  0
VERTEX
  5
112
  8
LAYER_1
 10
201.6919
 20
255.696
 30
0.0
 42
0.0301000000000028
  0
VERTEX
  5
113
  8
LAYER_1
 10
212.6574
 20
256.1859
 30
0.0
 42
0.0271999999999993
  0
VERTEX
  5
114
  8
LAYER_1
 10
219.5568
 20
257.2882
 30
0.0
 42
0.031499999999998
  0
VERTEX
  5
115
  8
LAYER_1
 10
224.1991
 20
258.5962
 30
0.0
 42
0.0392999999999908
  0
VERTEX
  5
116
  8
LAYER_1
 10
227.1344
 20
259.8893
 30
0.0
 42
0.0536000000000003
  0
VERTEX
  5
117
  8
LAYER_1
 10
228.944
 20
261.1227
 30
0.0
 42
0.0775999999999905
  0
VERTEX
  5
118
  8
LAYER_1
 10
229.9728
 20
262.3107000000001
 30
0.0
 42
0.1260000000000284
  0
VERTEX
  5
119
  8
LAYER_1
 10
230.4039
 20
263.6575
 30
0.0
  0
VERTEX
  5
11A
  8
LAYER_1
 10
230.4065
 20
263.754
 30
0.0
 42
0.1284999999999905
  0
VERTEX
  5
11B
  8
LAYER_1
 10
230.0388
 20
265.127
 30
0.0
 42
0.0787999999999835
  0
VERTEX
  5
11C
  8
LAYER_1
 10
229.0684
 20
266.344
 30
0.0
 42
0.0540999999999929
  0
VERTEX
  5
11D
  8
LAYER_1
 10
227.3371
 20
267.6216
 30
0.0
 42
0.0399000000000013
  0
VERTEX
  5
11E
  8
LAYER_1
 10
224.4747
 20
269.0045
 30
0.0
 42
0.031499999999996
  0
VERTEX
  5
11F
  8
LAYER_1
 10
219.9873
 20
270.4363
 30
0.0
 42
0.0271999999999901
  0
VERTEX
  5
120
  8
LAYER_1
 10
213.2521
 20
271.7493999999999
 30
0.0
 42
0.0295000000000023
  0
VERTEX
  5
121
  8
LAYER_1
 10
202.6507
 20
272.5986
 30
0.0
  0
VERTEX
  5
122
  8
LAYER_1
 10
201.8081
 20
272.6141
 30
0.0
 42
0.0301000000000027
  0
VERTEX
  5
123
  8
LAYER_1
 10
190.8426
 20
272.1242
 30
0.0
 42
0.0272000000000031
  0
VERTEX
  5
124
  8
LAYER_1
 10
183.9432
 20
271.0218
 30
0.0
 42
0.0315000000000039
  0
VERTEX
  5
125
  8
LAYER_1
 10
179.3009
 20
269.7138
 30
0.0
 42
0.0392999999999802
  0
VERTEX
  5
126
  8
LAYER_1
 10
176.3656
 20
268.4207
 30
0.0
 42
0.0536000000000151
  0
VERTEX
  5
127
  8
LAYER_1
 10
174.556
 20
267.1874000000001
 30
0.0
 42
0.077599999999983
  0
VERTEX
  5
128
  8
LAYER_1
 10
173.5272
 20
265.9993000000001
 30
0.0
 42
0.1259999999999965
  0
VERTEX
  5
129
  8
LAYER_1
 10
173.0961
 20
264.6526
 30
0.0
  0
VERTEX
  5
12A
  8
LAYER_1
 10
173.0935
 20
264.556
 30
0.0
  0
SEQEND
  5
109
  8
LAYER_1
  0
POLYLINE
  5
12B
  8
LAYER_1
 66
     1
 10
0.0
 20
0.0
 30
0.0
  0
VERTEX
  5
12D
  8
LAYER_1
 10
139.1819
 20
240.5871
 30
0.0
  0
VERTEX
  5
12E
  8
LAYER_1
 10
140.3292
 20
229.6432
 30
0.0
  0
VERTEX
  5
12F
  8
LAYER_1
 10
137.131
 20
229.308
 30
0.0
  0
VERTEX
  5
130
  8
LAYER_1
 10
135.9837
 20
240.2518
 30
0.0
  0
VERTEX
  5
131
  8
LAYER_1
 10
122.6707
 20
238.8564
 30
0.0
 42
0.0149999999999996
  0
VERTEX
  5
132
  8
LAYER_1
 10
123.0021
 20
232.572
 30
0.0
 42
0.0262999999999942
  0
VERTEX
  5
133
  8
LAYER_1
 10
123.7784
 20
226.8862
 30
0.0
  0
VERTEX
  5
134
  8
LAYER_1
 10
124.0061
 20
225.1477
 30
0.0
  0
VERTEX
  5
135
  8
LAYER_1
 10
124.385
 20
224.6779
 30
0.0
  0
VERTEX
  5
136
  8
LAYER_1
 10
132.0359
 20
218.9474
 30
0.0
  0
VERTEX
  5
137
  8
LAYER_1
 10
138.1877
 20
219.2277
 30
0.0
  0
VERTEX
  5
138
  8
LAYER_1
 10
142.8792
 20
218.817
 30
0.0
  0
VERTEX
  5
139
  8
LAYER_1
 10
147.531
 20
216.5734
 30
0.0
  0
VERTEX
  5
13A
  8
LAYER_1
 10
152.0229
 20
215.3009
 30
0.0
  0
VERTEX
  5
13B
  8
LAYER_1
 10
155.678
 20
215.7469
 30
0.0
  0
VERTEX
  5
13C
  8
LAYER_1
 10
158.833
 20
215.4572
 30
0.0
  0
VERTEX
  5
13D
  8
LAYER_1
 10
161.5898
 20
215.8377
 30
0.0
 42
0.0127999999999985
  0
VERTEX
  5
13E
  8
LAYER_1
 10
168.9546
 20
215.8831
 30
0.0
  0
VERTEX
  5
13F
  8
LAYER_1
 10
170.9551
 20
216.0773
 30
0.0
 42
0.0107000000000058
  0
VERTEX
  5
140
  8
LAYER_1
 10
180.4337
 20
219.0484
 30
0.0
  0
VERTEX
  5
141
  8
LAYER_1
 10
182.4476
 20
221.7729
 30
0.0
 42
0.0663999999999958
  0
VERTEX
  5
142
  8
LAYER_1
 10
203.2678
 20
225.1279
 30
0.0
  0
VERTEX
  5
143
  8
LAYER_1
 10
207.2686
 20
230.5092
 30
0.0
 42
-0.0592000000000037
  0
VERTEX
  5
144
  8
LAYER_1
 10
226.598
 20
230.7916
 30
0.0
 42
-0.0179000000000043
  0
VERTEX
  5
145
  8
LAYER_1
 10
232.0517
 20
230.726
 30
0.0
  0
VERTEX
  5
146
  8
LAYER_1
 10
247.2006
 20
227.988
 30
0.0
 42
0.1164000000000002
  0
VERTEX
  5
147
  8
LAYER_1
 10
252.0468
 20
228.5329
 30
0.0
  0
VERTEX
  5
148
  8
LAYER_1
 10
252.5529
 20
228.6854
 30
0.0
 42
0.0101999999999894
  0
VERTEX
  5
149
  8
LAYER_1
 10
265.3604
 20
232.9572
 30
0.0
 42
-0.0598999999999906
  0
VERTEX
  5
14A
  8
LAYER_1
 10
266.5363
 20
233.1629
 30
0.0
  0
VERTEX
  5
14B
  8
LAYER_1
 10
266.8326
 20
233.1702
 30
0.0
 42
0.0603000000000157
  0
VERTEX
  5
14C
  8
LAYER_1
 10
267.9307
 20
233.2897
 30
0.0
  0
VERTEX
  5
14D
  8
LAYER_1
 10
271.1371
 20
233.6268
 30
0.0
 42
0.0915999999999803
  0
VERTEX
  5
14E
  8
LAYER_1
 10
271.8651
 20
234.0773
 30
0.0
 42
0.0480000000000012
  0
VERTEX
  5
14F
  8
LAYER_1
 10
272.8598999999999
 20
235.1558
 30
0.0
 42
0.0191000000000083
  0
VERTEX
  5
150
  8
LAYER_1
 10
274.241
 20
237.1111
 30
0.0
  0
VERTEX
  5
151
  8
LAYER_1
 10
274.5103
 20
237.5167
 30
0.0
 42
-0.0144000000000061
  0
VERTEX
  5
152
  8
LAYER_1
 10
275.941
 20
239.5903
 30
0.0
 42
-0.042699999999998
  0
VERTEX
  5
153
  8
LAYER_1
 10
276.9594
 20
240.7638
 30
0.0
 42
-0.0833999999999854
  0
VERTEX
  5
154
  8
LAYER_1
 10
277.6848
 20
241.2721
 30
0.0
  0
VERTEX
  5
155
  8
LAYER_1
 10
277.7002
 20
241.2786
 30
0.0
 42
-0.0154999999999967
  0
VERTEX
  5
156
  8
LAYER_1
 10
286.5551
 20
244.8632
 30
0.0
 42
0.0111000000000062
  0
VERTEX
  5
157
  8
LAYER_1
 10
296.42
 20
245.3184999999999
 30
0.0
  0
VERTEX
  5
158
  8
LAYER_1
 10
299.6
 20
245.6676
 30
0.0
  0
VERTEX
  5
159
  8
LAYER_1
 10
305.0568
 20
245.622
 30
0.0
  0
VERTEX
  5
15A
  8
LAYER_1
 10
308.7719
 20
245.1498
 30
0.0
  0
VERTEX
  5
15B
  8
LAYER_1
 10
315.4851
 20
242.8701
 30
0.0
  0
VERTEX
  5
15C
  8
LAYER_1
 10
317.3644
 20
242.8766
 30
0.0
 42
0.0090000000000002
  0
VERTEX
  5
15D
  8
LAYER_1
 10
325.3126
 20
245.3774999999999
 30
0.0
  0
VERTEX
  5
15E
  8
LAYER_1
 10
330.3695
 20
248.07
 30
0.0
  0
VERTEX
  5
15F
  8
LAYER_1
 10
336.049
 20
251.9453
 30
0.0
  0
VERTEX
  5
160
  8
LAYER_1
 10
341.2332
 20
252.8126
 30
0.0
 42
-0.0321000000000132
  0
VERTEX
  5
161
  8
LAYER_1
 10
346.1102999999999
 20
253.8486
 30
0.0
 42
0.0633999999999992
  0
VERTEX
  5
162
  8
LAYER_1
 10
349.9761
 20
255.2027
 30
0.0
 42
-0.0982000000000078
  0
VERTEX
  5
163
  8
LAYER_1
 10
352.8207
 20
258.4318
 30
0.0
 42
-0.052099999999988
  0
VERTEX
  5
164
  8
LAYER_1
 10
352.8707
 20
262.9166
 30
0.0
  0
VERTEX
  5
165
  8
LAYER_1
 10
352.8507
 20
262.9864
 30
0.0
  0
VERTEX
  5
166
  8
LAYER_1
 10
269.0047
 20
254.1967
 30
0.0
  0
VERTEX
  5
167
  8
LAYER_1
 10
270.1579
 20
243.1967
 30
0.0
  0
VERTEX
  5
168
  8
LAYER_1
 10
266.9597
 20
242.8614
 30
0.0
  0
VERTEX
  5
169
  8
LAYER_1
 10
265.8065
 20
253.8614
 30
0.0
  0
VERTEX
  5
16A
  8
LAYER_1
 10
205.4421
 20
247.5332
 30
0.0
  0
VERTEX
  5
16B
  8
LAYER_1
 10
206.5952
 20
236.5333
 30
0.0
  0
VERTEX
  5
16C
  8
LAYER_1
 10
203.397
 20
236.198
 30
0.0
  0
VERTEX
  5
16D
  8
LAYER_1
 10
202.2439
 20
247.198
 30
0.0
  0
VERTEX
  5
16E
  8
LAYER_1
 10
139.1819
 20
240.5871
 30
0.0
  0
SEQEND
  5
12C
  8
LAYER_1
  0
POLYLINE
  5
16F
  8
LAYER_1
 66
     1
 10
0.0
 20
0.0
 30
0.0
  0
VERTEX
  5
171
  8
LAYER_1
 10
383.0416
 20
251.5932
 30
0.0
  0
VERTEX
  5
172
  8
LAYER_1
 10
357.077
 20
233.5067
 30
0.0
  0
VERTEX
  5
173
  8
LAYER_1
 10
355.2562
 20
236.1206
 30
0.0
  0
VERTEX
  5
174
  8
LAYER_1
 10
381.2223
 20
254.2082
 30
0.0
  0
VERTEX
  5
175
  8
LAYER_1
 10
378.0284
 20
258.7857
 30
0.0
  0
VERTEX
  5
176
  8
LAYER_1
 10
377.2841
 20
258.5508
 30
0.0
  0
VERTEX
  5
177
  8
LAYER_1
 10
374.1628
 20
258.0021
 30
0.0
 42
-0.0120999999999973
  0
VERTEX
  5
178
  8
LAYER_1
 10
370.6258
 20
255.9797
 30
0.0
  0
VERTEX
  5
179
  8
LAYER_1
 10
365.4012
 20
252.6845
 30
0.0
  0
VERTEX
  5
17A
  8
LAYER_1
 10
364.5993
 20
251.6441
 30
0.0
  0
VERTEX
  5
17B
  8
LAYER_1
 10
357.4767
 20
244.0421
 30
0.0
  0
VERTEX
  5
17C
  8
LAYER_1
 10
353.4711
 20
239.4679
 30
0.0
  0
VERTEX
  5
17D
  8
LAYER_1
 10
347.285
 20
235.7226
 30
0.0
  0
VERTEX
  5
17E
  8
LAYER_1
 10
343.476
 20
233.0124
 30
0.0
  0
VERTEX
  5
17F
  8
LAYER_1
 10
341.0213
 20
231.8738
 30
0.0
  0
VERTEX
  5
180
  8
LAYER_1
 10
336.8604
 20
230.2664
 30
0.0
  0
VERTEX
  5
181
  8
LAYER_1
 10
332.0106
 20
229.0903
 30
0.0
  0
VERTEX
  5
182
  8
LAYER_1
 10
331.4531
 20
228.2592
 30
0.0
  0
VERTEX
  5
183
  8
LAYER_1
 10
327.748
 20
226.4854
 30
0.0
  0
VERTEX
  5
184
  8
LAYER_1
 10
337.4782
 20
212.5169
 30
0.0
  0
VERTEX
  5
185
  8
LAYER_1
 10
341.7212
 20
215.8168
 30
0.0
  0
VERTEX
  5
186
  8
LAYER_1
 10
342.0777
 20
218.275
 30
0.0
  0
VERTEX
  5
187
  8
LAYER_1
 10
344.0233
 20
219.3369
 30
0.0
  0
VERTEX
  5
188
  8
LAYER_1
 10
345.605
 20
219.0455
 30
0.0
  0
VERTEX
  5
189
  8
LAYER_1
 10
346.5441
 20
220.6929
 30
0.0
  0
VERTEX
  5
18A
  8
LAYER_1
 10
348.2541
 20
221.087
 30
0.0
  0
VERTEX
  5
18B
  8
LAYER_1
 10
350.3594
 20
224.5877
 30
0.0
  0
VERTEX
  5
18C
  8
LAYER_1
 10
355.3088
 20
227.3609
 30
0.0
  0
VERTEX
  5
18D
  8
LAYER_1
 10
359.8977
 20
231.0238
 30
0.0
  0
VERTEX
  5
18E
  8
LAYER_1
 10
364.0468
 20
232.6168
 30
0.0
 42
0.0099999999999986
  0
VERTEX
  5
18F
  8
LAYER_1
 10
370.1972
 20
235.6729
 30
0.0
  0
VERTEX
  5
190
  8
LAYER_1
 10
373.7324
 20
237.0179
 30
0.0
  0
VERTEX
  5
191
  8
LAYER_1
 10
376.569
 20
238.723
 30
0.0
  0
VERTEX
  5
192
  8
LAYER_1
 10
386.1376
 20
247.1671
 30
0.0
  0
VERTEX
  5
193
  8
LAYER_1
 10
383.0416
 20
251.5932
 30
0.0
  0
SEQEND
  5
170
  8
LAYER_1
  0
POLYLINE
  5
194
  8
LAYER_1
 66
     1
 10
0.0
 20
0.0
 30
0.0
  0
VERTEX
  5
196
  8
LAYER_1
 10
63.78027
 20
230.864
 30
0.0
  0
VERTEX
  5
197
  8
LAYER_1
 10
41.34106
 20
208.5534
 30
0.0
  0
VERTEX
  5
198
  8
LAYER_1
 10
39.09501
 20
210.8124
 30
0.0
  0
VERTEX
  5
199
  8
LAYER_1
 10
61.53552
 20
233.1243
 30
0.0
  0
VERTEX
  5
19A
  8
LAYER_1
 10
57.59702
 20
237.0794
 30
0.0
  0
VERTEX
  5
19B
  8
LAYER_1
 10
56.90459
 20
236.7192
 30
0.0
  0
VERTEX
  5
19C
  8
LAYER_1
 10
53.92556
 20
235.6381
 30
0.0
 42
-0.0121000000000026
  0
VERTEX
  5
19D
  8
LAYER_1
 10
50.79235
 20
233.0336
 30
0.0
  0
VERTEX
  5
19E
  8
LAYER_1
 10
46.21745
 20
228.8833
 30
0.0
  0
VERTEX
  5
19F
  8
LAYER_1
 10
45.60793
 20
227.7197
 30
0.0
  0
VERTEX
  5
1A0
  8
LAYER_1
 10
39.90981
 20
218.9988
 30
0.0
  0
VERTEX
  5
1A1
  8
LAYER_1
 10
36.757
 20
213.8
 30
0.0
  0
VERTEX
  5
1A2
  8
LAYER_1
 10
31.31319
 20
209.0397
 30
0.0
  0
VERTEX
  5
1A3
  8
LAYER_1
 10
28.03123
 20
205.7107
 30
0.0
  0
VERTEX
  5
1A4
  8
LAYER_1
 10
25.81085
 20
204.1641
 30
0.0
  0
VERTEX
  5
1A5
  8
LAYER_1
 10
21.99126
 20
201.8603
 30
0.0
  0
VERTEX
  5
1A6
  8
LAYER_1
 10
17.41853
 20
199.8619
 30
0.0
  0
VERTEX
  5
1A7
  8
LAYER_1
 10
17.01341
 20
198.9468
 30
0.0
  0
VERTEX
  5
1A8
  8
LAYER_1
 10
13.67155
 20
196.5581
 30
0.0
  0
VERTEX
  5
1A9
  8
LAYER_1
 10
25.67425
 20
184.4861
 30
0.0
  0
VERTEX
  5
1AA
  8
LAYER_1
 10
29.28149
 20
188.4711
 30
0.0
  0
VERTEX
  5
1AB
  8
LAYER_1
 10
29.20685
 20
190.9539
 30
0.0
  0
VERTEX
  5
1AC
  8
LAYER_1
 10
30.93908
 20
192.3367
 30
0.0
  0
VERTEX
  5
1AD
  8
LAYER_1
 10
32.54734
 20
192.3238
 30
0.0
  0
VERTEX
  5
1AE
  8
LAYER_1
 10
33.18689
 20
194.1088
 30
0.0
  0
VERTEX
  5
1AF
  8
LAYER_1
 10
34.80278
 20
194.7933
 30
0.0
  0
VERTEX
  5
1B0
  8
LAYER_1
 10
36.2699
 20
198.6056
 30
0.0
  0
VERTEX
  5
1B1
  8
LAYER_1
 10
40.66412
 20
202.1943
 30
0.0
  0
VERTEX
  5
1B2
  8
LAYER_1
 10
44.54918
 20
206.5967
 30
0.0
  0
VERTEX
  5
1B3
  8
LAYER_1
 10
48.35963
 20
208.8843
 30
0.0
 42
0.0099999999999966
  0
VERTEX
  5
1B4
  8
LAYER_1
 10
53.88766000000001
 20
212.9595
 30
0.0
  0
VERTEX
  5
1B5
  8
LAYER_1
 10
57.13641
 20
214.8966
 30
0.0
  0
VERTEX
  5
1B6
  8
LAYER_1
 10
59.63487
 20
217.0672
 30
0.0
  0
VERTEX
  5
1B7
  8
LAYER_1
 10
67.59611
 20
227.0412
 30
0.0
  0
VERTEX
  5
1B8
  8
LAYER_1
 10
63.78027
 20
230.864
 30
0.0
  0
SEQEND
  5
195
  8
LAYER_1
  0
POLYLINE
  5
1B9
  8
LAYER_1
 66
     1
 10
0.0
 20
0.0
 30
0.0
  0
VERTEX
  5
1BB
  8
LAYER_1
 10
279.0788
 20
64.30569
 30
0.0
  0
VERTEX
  5
1BC
  8
LAYER_1
 10
301.0371
 20
41.5216
 30
0.0
  0
VERTEX
  5
1BD
  8
LAYER_1
 10
298.7434
 20
39.31101
 30
0.0
  0
VERTEX
  5
1BE
  8
LAYER_1
 10
276.7838
 20
62.09643
 30
0.0
  0
VERTEX
  5
1BF
  8
LAYER_1
 10
272.7678
 20
58.22003
 30
0.0
  0
VERTEX
  5
1C0
  8
LAYER_1
 10
273.1172
 20
57.52207
 30
0.0
  0
VERTEX
  5
1C1
  8
LAYER_1
 10
274.1517
 20
54.52655000000001
 30
0.0
 42
-0.0120999999999917
  0
VERTEX
  5
1C2
  8
LAYER_1
 10
276.7071
 20
51.35314999999999
 30
0.0
  0
VERTEX
  5
1C3
  8
LAYER_1
 10
280.7857
 20
46.71414
 30
0.0
  0
VERTEX
  5
1C4
  8
LAYER_1
 10
281.9396
 20
46.08656
 30
0.0
  0
VERTEX
  5
1C5
  8
LAYER_1
 10
290.5706
 20
40.25327
 30
0.0
  0
VERTEX
  5
1C6
  8
LAYER_1
 10
295.7198
 20
37.01984
 30
0.0
  0
VERTEX
  5
1C7
  8
LAYER_1
 10
300.3946
 20
31.50252
 30
0.0
  0
VERTEX
  5
1C8
  8
LAYER_1
 10
303.6721
 20
28.16909
 30
0.0
  0
VERTEX
  5
1C9
  8
LAYER_1
 10
305.1839
 20
25.92489
 30
0.0
  0
VERTEX
  5
1CA
  8
LAYER_1
 10
307.428
 20
22.06987
 30
0.0
  0
VERTEX
  5
1CB
  8
LAYER_1
 10
309.3548
 20
17.46656
 30
0.0
  0
VERTEX
  5
1CC
  8
LAYER_1
 10
310.2635
 20
17.04723
 30
0.0
  0
VERTEX
  5
1CD
  8
LAYER_1
 10
312.5999
 20
13.66855
 30
0.0
  0
VERTEX
  5
1CE
  8
LAYER_1
 10
324.8574
 20
25.48172
 30
0.0
  0
VERTEX
  5
1CF
  8
LAYER_1
 10
320.9291
 20
29.15061
 30
0.0
  0
VERTEX
  5
1D0
  8
LAYER_1
 10
318.4455
 20
29.11465
 30
0.0
  0
VERTEX
  5
1D1
  8
LAYER_1
 10
317.0897
 20
30.86822
 30
0.0
  0
VERTEX
  5
1D2
  8
LAYER_1
 10
317.1278
 20
32.47609
 30
0.0
  0
VERTEX
  5
1D3
  8
LAYER_1
 10
315.3529
 20
33.14336
 30
0.0
  0
VERTEX
  5
1D4
  8
LAYER_1
 10
314.6937
 20
34.76973
 30
0.0
  0
VERTEX
  5
1D5
  8
LAYER_1
 10
310.9047
 20
36.29607
 30
0.0
  0
VERTEX
  5
1D6
  8
LAYER_1
 10
307.3849
 20
40.74567
 30
0.0
  0
VERTEX
  5
1D7
  8
LAYER_1
 10
303.0436
 20
44.69884
 30
0.0
  0
VERTEX
  5
1D8
  8
LAYER_1
 10
300.8156
 20
48.54446999999999
 30
0.0
 42
0.009999999999992
  0
VERTEX
  5
1D9
  8
LAYER_1
 10
296.827
 20
54.13533000000002
 30
0.0
  0
VERTEX
  5
1DA
  8
LAYER_1
 10
294.9408
 20
57.41386
 30
0.0
  0
VERTEX
  5
1DB
  8
LAYER_1
 10
292.8094
 20
59.94583
 30
0.0
  0
VERTEX
  5
1DC
  8
LAYER_1
 10
282.9606
 20
68.06151
 30
0.0
  0
VERTEX
  5
1DD
  8
LAYER_1
 10
279.0788
 20
64.30569
 30
0.0
  0
SEQEND
  5
1BA
  8
LAYER_1
  0
POLYLINE
  5
1DE
  8
LAYER_1
 66
     1
 10
0.0
 20
0.0
 30
0.0
  0
VERTEX
  5
1E0
  8
LAYER_1
 10
245.6133
 20
110.9876
 30
0.0
  0
VERTEX
  5
1E1
  8
LAYER_1
 10
238.1278
 20
110.9686
 30
0.0
  0
VERTEX
  5
1E2
  8
LAYER_1
 10
233.5596
 20
109.927
 30
0.0
  0
VERTEX
  5
1E3
  8
LAYER_1
 10
221.7225
 20
106.9674
 30
0.0
  0
VERTEX
  5
1E4
  8
LAYER_1
 10
221.1352
 20
106.9757
 30
0.0
  0
VERTEX
  5
1E5
  8
LAYER_1
 10
208.1885
 20
104.5296
 30
0.0
  0
VERTEX
  5
1E6
  8
LAYER_1
 10
207.4831
 20
104.4427
 30
0.0
  0
VERTEX
  5
1E7
  8
LAYER_1
 10
202.6571
 20
103.617
 30
0.0
  0
VERTEX
  5
1E8
  8
LAYER_1
 10
201.4634
 20
103.4643
 30
0.0
  0
VERTEX
  5
1E9
  8
LAYER_1
 10
195.4915
 20
102.9102
 30
0.0
  0
VERTEX
  5
1EA
  8
LAYER_1
 10
179.6413
 20
100.8717
 30
0.0
  0
VERTEX
  5
1EB
  8
LAYER_1
 10
164.035
 20
98.90447
 30
0.0
  0
VERTEX
  5
1EC
  8
LAYER_1
 10
167.0309
 20
55.89846
 30
0.0
  0
VERTEX
  5
1ED
  8
LAYER_1
 10
163.8229
 20
55.675
 30
0.0
  0
VERTEX
  5
1EE
  8
LAYER_1
 10
160.8326
 20
98.6019
 30
0.0
  0
VERTEX
  5
1EF
  8
LAYER_1
 10
154.5152
 20
98.17526
 30
0.0
  0
VERTEX
  5
1F0
  8
LAYER_1
 10
139.6015
 20
97.23687
 30
0.0
  0
VERTEX
  5
1F1
  8
LAYER_1
 10
132.3208
 20
97.18999
 30
0.0
  0
VERTEX
  5
1F2
  8
LAYER_1
 10
121.4865
 20
97.08237
 30
0.0
  0
VERTEX
  5
1F3
  8
LAYER_1
 10
107.668
 20
96.02551
 30
0.0
  0
VERTEX
  5
1F4
  8
LAYER_1
 10
100.6384
 20
96.18069
 30
0.0
  0
VERTEX
  5
1F5
  8
LAYER_1
 10
90.82429
 20
98.10463
 30
0.0
  0
VERTEX
  5
1F6
  8
LAYER_1
 10
84.94485
 20
99.27052
 30
0.0
  0
VERTEX
  5
1F7
  8
LAYER_1
 10
83.48681
 20
99.68055
 30
0.0
  0
VERTEX
  5
1F8
  8
LAYER_1
 10
73.24055
 20
102.9233
 30
0.0
  0
VERTEX
  5
1F9
  8
LAYER_1
 10
69.21845
 20
105.3595
 30
0.0
  0
VERTEX
  5
1FA
  8
LAYER_1
 10
65.83558
 20
107.3633
 30
0.0
  0
VERTEX
  5
1FB
  8
LAYER_1
 10
64.58258
 20
107.8729
 30
0.0
  0
VERTEX
  5
1FC
  8
LAYER_1
 10
61.9052
 20
108.9567
 30
0.0
  0
VERTEX
  5
1FD
  8
LAYER_1
 10
61.55783
 20
109.2779
 30
0.0
  0
VERTEX
  5
1FE
  8
LAYER_1
 10
38.09603
 20
90.7976
 30
0.0
  0
VERTEX
  5
1FF
  8
LAYER_1
 10
36.10623
 20
93.32377
 30
0.0
  0
VERTEX
  5
200
  8
LAYER_1
 10
59.0361
 20
111.3851
 30
0.0
  0
VERTEX
  5
201
  8
LAYER_1
 10
54.77429
 20
112.2281
 30
0.0
  0
VERTEX
  5
202
  8
LAYER_1
 10
48.5907
 20
109.9626
 30
0.0
  0
VERTEX
  5
203
  8
LAYER_1
 10
44.86638
 20
106.558
 30
0.0
  0
VERTEX
  5
204
  8
LAYER_1
 10
44.4399
 20
106.1606
 30
0.0
  0
VERTEX
  5
205
  8
LAYER_1
 10
40.13318
 20
103.1429
 30
0.0
  0
VERTEX
  5
206
  8
LAYER_1
 10
36.11024
 20
100.3749
 30
0.0
  0
VERTEX
  5
207
  8
LAYER_1
 10
32.86888
 20
95.45245
 30
0.0
  0
VERTEX
  5
208
  8
LAYER_1
 10
29.23586
 20
91.71923
 30
0.0
  0
VERTEX
  5
209
  8
LAYER_1
 10
23.71093
 20
86.31923
 30
0.0
  0
VERTEX
  5
20A
  8
LAYER_1
 10
20.64558
 20
83.43583
 30
0.0
  0
VERTEX
  5
20B
  8
LAYER_1
 10
14.62393
 20
79.78946
 30
0.0
  0
VERTEX
  5
20C
  8
LAYER_1
 10
13.08983
 20
76.58787
 30
0.0
  0
VERTEX
  5
20D
  8
LAYER_1
 10
15.66585
 20
71.31633
 30
0.0
  0
VERTEX
  5
20E
  8
LAYER_1
 10
17.27373
 20
70.67854
 30
0.0
 42
0.0136000000000033
  0
VERTEX
  5
20F
  8
LAYER_1
 10
17.42975
 20
69.13267
 30
0.0
  0
VERTEX
  5
210
  8
LAYER_1
 10
20.00318
 20
67.36727
 30
0.0
  0
VERTEX
  5
211
  8
LAYER_1
 10
26.95132
 20
67.72003
 30
0.0
  0
VERTEX
  5
212
  8
LAYER_1
 10
32.74918
 20
68.36808
 30
0.0
 42
-0.0058999999999982
  0
VERTEX
  5
213
  8
LAYER_1
 10
35.48825
 20
67.94137000000003
 30
0.0
  0
VERTEX
  5
214
  8
LAYER_1
 10
45.42401
 20
66.31705
 30
0.0
  0
VERTEX
  5
215
  8
LAYER_1
 10
53.5162
 20
66.35196
 30
0.0
  0
VERTEX
  5
216
  8
LAYER_1
 10
59.53679
 20
64.90956
 30
0.0
  0
VERTEX
  5
217
  8
LAYER_1
 10
64.65029
 20
60.00084
 30
0.0
  0
VERTEX
  5
218
  8
LAYER_1
 10
70.15314
 20
53.95383
 30
0.0
  0
VERTEX
  5
219
  8
LAYER_1
 10
76.62596
 20
46.8358
 30
0.0
  0
VERTEX
  5
21A
  8
LAYER_1
 10
81.3151
 20
40.68297
 30
0.0
  0
VERTEX
  5
21B
  8
LAYER_1
 10
85.92474
 20
34.51859
 30
0.0
  0
VERTEX
  5
21C
  8
LAYER_1
 10
87.80968
 20
30.47228
 30
0.0
  0
VERTEX
  5
21D
  8
LAYER_1
 10
92.37653
 20
20.10627
 30
0.0
  0
VERTEX
  5
21E
  8
LAYER_1
 10
96.07705
 20
17.24875
 30
0.0
  0
VERTEX
  5
21F
  8
LAYER_1
 10
101.5328
 20
13.1508
 30
0.0
  0
VERTEX
  5
220
  8
LAYER_1
 10
102.898
 20
13.3319
 30
0.0
  0
VERTEX
  5
221
  8
LAYER_1
 10
100.1129
 20
53.31217
 30
0.0
  0
VERTEX
  5
222
  8
LAYER_1
 10
103.3209
 20
53.53564
 30
0.0
  0
VERTEX
  5
223
  8
LAYER_1
 10
106.092
 20
13.75562000000001
 30
0.0
 42
0.0072000000000015
  0
VERTEX
  5
224
  8
LAYER_1
 10
108.9911
 20
14.17088
 30
0.0
  0
VERTEX
  5
225
  8
LAYER_1
 10
124.3119
 20
16.47877
 30
0.0
  0
VERTEX
  5
226
  8
LAYER_1
 10
132.2181
 20
17.03371
 30
0.0
  0
VERTEX
  5
227
  8
LAYER_1
 10
140.0832
 20
17.53076
 30
0.0
  0
VERTEX
  5
228
  8
LAYER_1
 10
147.4723
 20
16.30285
 30
0.0
  0
VERTEX
  5
229
  8
LAYER_1
 10
162.1452
 20
13.6435
 30
0.0
  0
VERTEX
  5
22A
  8
LAYER_1
 10
167.0974
 20
12.9457
 30
0.0
  0
VERTEX
  5
22B
  8
LAYER_1
 10
176.5803
 20
13.5908
 30
0.0
  0
VERTEX
  5
22C
  8
LAYER_1
 10
185.9969
 20
14.27245
 30
0.0
  0
VERTEX
  5
22D
  8
LAYER_1
 10
201.475
 20
18.12706
 30
0.0
  0
VERTEX
  5
22E
  8
LAYER_1
 10
202.1751
 20
17.97083
 30
0.0
  0
VERTEX
  5
22F
  8
LAYER_1
 10
201.6143
 20
18.14261
 30
0.0
  0
VERTEX
  5
230
  8
LAYER_1
 10
204.9323
 20
17.1992
 30
0.0
  0
VERTEX
  5
231
  8
LAYER_1
 10
212.1252
 20
15.10525
 30
0.0
  0
VERTEX
  5
232
  8
LAYER_1
 10
215.1738
 20
15.39465
 30
0.0
  0
VERTEX
  5
233
  8
LAYER_1
 10
233.423
 20
17.63155
 30
0.0
  0
VERTEX
  5
234
  8
LAYER_1
 10
230.3057
 20
62.38149
 30
0.0
  0
VERTEX
  5
235
  8
LAYER_1
 10
233.5136
 20
62.60495
 30
0.0
  0
VERTEX
  5
236
  8
LAYER_1
 10
236.6197
 20
18.01643
 30
0.0
  0
VERTEX
  5
237
  8
LAYER_1
 10
236.656
 20
18.02081
 30
0.0
 42
0.008099999999999
  0
VERTEX
  5
238
  8
LAYER_1
 10
238.3942
 20
20.25153
 30
0.0
  0
VERTEX
  5
239
  8
LAYER_1
 10
249.2313
 20
34.6924
 30
0.0
  0
VERTEX
  5
23A
  8
LAYER_1
 10
248.7529
 20
39.40583
 30
0.0
  0
VERTEX
  5
23B
  8
LAYER_1
 10
247.1654
 20
53.58008
 30
0.0
  0
VERTEX
  5
23C
  8
LAYER_1
 10
247.2769
 20
54.21248
 30
0.0
  0
VERTEX
  5
23D
  8
LAYER_1
 10
246.7665
 20
57.26695
 30
0.0
  0
VERTEX
  5
23E
  8
LAYER_1
 10
246.5111
 20
59.63896
 30
0.0
  0
VERTEX
  5
23F
  8
LAYER_1
 10
245.5936
 20
64.99023
 30
0.0
  0
VERTEX
  5
240
  8
LAYER_1
 10
244.6444
 20
72.39454999999998
 30
0.0
 42
-0.0097000000000047
  0
VERTEX
  5
241
  8
LAYER_1
 10
244.5254
 20
73.92495
 30
0.0
  0
VERTEX
  5
242
  8
LAYER_1
 10
245.4568
 20
86.84718
 30
0.0
 42
-0.0178999999999992
  0
VERTEX
  5
243
  8
LAYER_1
 10
244.5917
 20
93.2168
 30
0.0
 42
-0.0252999999999967
  0
VERTEX
  5
244
  8
LAYER_1
 10
244.385
 20
97.37142
 30
0.0
 42
-0.0371999999999964
  0
VERTEX
  5
245
  8
LAYER_1
 10
244.58
 20
100.0327
 30
0.0
 42
-0.0564999999999965
  0
VERTEX
  5
246
  8
LAYER_1
 10
245.0171
 20
101.6955
 30
0.0
 42
-0.0904000000000146
  0
VERTEX
  5
247
  8
LAYER_1
 10
245.6393
 20
102.7197
 30
0.0
 42
-0.215599999999998
  0
VERTEX
  5
248
  8
LAYER_1
 10
247.0721
 20
103.3509
 30
0.0
 42
-0.4072000000000028
  0
VERTEX
  5
249
  8
LAYER_1
 10
253.6234
 20
97.1077
 30
0.0
  0
VERTEX
  5
24A
  8
LAYER_1
 10
257.9803
 20
67.22208
 30
0.0
  0
VERTEX
  5
24B
  8
LAYER_1
 10
259.3447
 20
52.82664
 30
0.0
  0
VERTEX
  5
24C
  8
LAYER_1
 10
259.3735
 20
52.24293
 30
0.0
 42
0.039200000000011
  0
VERTEX
  5
24D
  8
LAYER_1
 10
259.8588999999999
 20
49.24641
 30
0.0
 42
0.0094999999999967
  0
VERTEX
  5
24E
  8
LAYER_1
 10
260.4546
 20
46.95815
 30
0.0
 42
-0.0149000000000054
  0
VERTEX
  5
24F
  8
LAYER_1
 10
261.182
 20
44.08026
 30
0.0
 42
-0.0457999999999978
  0
VERTEX
  5
250
  8
LAYER_1
 10
261.5712
 20
41.00496
 30
0.0
 42
-0.1046999999999996
  0
VERTEX
  5
251
  8
LAYER_1
 10
260.6547
 20
35.98013
 30
0.0
  0
VERTEX
  5
252
  8
LAYER_1
 10
260.5786
 20
35.79492
 30
0.0
 42
0.0816000000000014
  0
VERTEX
  5
253
  8
LAYER_1
 10
260.7628
 20
33.70049
 30
0.0
 42
0.1198999999999952
  0
VERTEX
  5
254
  8
LAYER_1
 10
261.9865
 20
31.47975000000001
 30
0.0
 42
0.0518999999999946
  0
VERTEX
  5
255
  8
LAYER_1
 10
263.4663
 20
30.17412000000001
 30
0.0
 42
0.012300000000012
  0
VERTEX
  5
256
  8
LAYER_1
 10
264.8163
 20
29.24962000000001
 30
0.0
 42
-0.0201999999999863
  0
VERTEX
  5
257
  8
LAYER_1
 10
266.5145999999999
 20
28.06029999999999
 30
0.0
 42
-0.0568000000000109
  0
VERTEX
  5
258
  8
LAYER_1
 10
267.85
 20
26.77603
 30
0.0
 42
-0.0273000000000079
  0
VERTEX
  5
259
  8
LAYER_1
 10
269.5121
 20
25.51716000000001
 30
0.0
 42
-0.0052999999999826
  0
VERTEX
  5
25A
  8
LAYER_1
 10
271.0043
 20
24.24537000000002
 30
0.0
 42
0.0125000000000064
  0
VERTEX
  5
25B
  8
LAYER_1
 10
273.1692
 20
22.43399999999999
 30
0.0
 42
0.0377999999999861
  0
VERTEX
  5
25C
  8
LAYER_1
 10
274.4845
 20
21.53427
 30
0.0
 42
0.0783000000000086
  0
VERTEX
  5
25D
  8
LAYER_1
 10
275.2221
 20
21.24188000000004
 30
0.0
 42
0.1689000000000656
  0
VERTEX
  5
25E
  8
LAYER_1
 10
275.6744
 20
21.28738999999998
 30
0.0
 42
0.1197999999999647
  0
VERTEX
  5
25F
  8
LAYER_1
 10
275.8514
 20
21.44611000000002
 30
0.0
 42
0.1678000000000284
  0
VERTEX
  5
260
  8
LAYER_1
 10
276.6129
 20
21.54604999999999
 30
0.0
 42
0.138700000000026
  0
VERTEX
  5
261
  8
LAYER_1
 10
277.1403000000001
 20
22.07761
 30
0.0
 42
0.0718999999999743
  0
VERTEX
  5
262
  8
LAYER_1
 10
277.5224
 20
23.07117
 30
0.0
 42
0.0340000000000008
  0
VERTEX
  5
263
  8
LAYER_1
 10
277.8027
 20
24.79926
 30
0.0
 42
0.0049000000000112
  0
VERTEX
  5
264
  8
LAYER_1
 10
277.9154
 20
25.9975
 30
0.0
 42
-0.0170999999999858
  0
VERTEX
  5
265
  8
LAYER_1
 10
278.1501000000001
 20
28.12992
 30
0.0
 42
-0.038700000000019
  0
VERTEX
  5
266
  8
LAYER_1
 10
278.411
 20
29.27555
 30
0.0
  0
VERTEX
  5
267
  8
LAYER_1
 10
278.9545
 20
35.4971
 30
0.0
  0
VERTEX
  5
268
  8
LAYER_1
 10
270.7802
 20
48.78163
 30
0.0
  0
VERTEX
  5
269
  8
LAYER_1
 10
267.8717
 20
53.37522000000001
 30
0.0
 42
-0.0076000000000102
  0
VERTEX
  5
26A
  8
LAYER_1
 10
264.1337
 20
67.31311999999997
 30
0.0
  0
VERTEX
  5
26B
  8
LAYER_1
 10
264.0021
 20
67.98814
 30
0.0
  0
VERTEX
  5
26C
  8
LAYER_1
 10
261.8234
 20
82.5636
 30
0.0
  0
VERTEX
  5
26D
  8
LAYER_1
 10
259.3862
 20
102.3868
 30
0.0
 42
0.3787000000000074
  0
VERTEX
  5
26E
  8
LAYER_1
 10
249.5817
 20
111.0006
 30
0.0
  0
VERTEX
  5
26F
  8
LAYER_1
 10
245.6133
 20
110.9876
 30
0.0
  0
SEQEND
  5
1DF
  8
LAYER_1
  0
POLYLINE
  5
270
  8
LAYER_1
 66
     1
 10
0.0
 20
0.0
 30
0.0
  0
VERTEX
  5
272
  8
LAYER_1
 10
72.86754
 20
23.28502
 30
0.0
  0
VERTEX
  5
273
  8
LAYER_1
 10
41.22913
 20
22.74417
 30
0.0
  0
VERTEX
  5
274
  8
LAYER_1
 10
41.17468
 20
25.92927
 30
0.0
  0
VERTEX
  5
275
  8
LAYER_1
 10
72.81494
 20
26.47016
 30
0.0
  0
VERTEX
  5
276
  8
LAYER_1
 10
72.71524
 20
32.05091
 30
0.0
  0
VERTEX
  5
277
  8
LAYER_1
 10
71.96636
 20
32.27089
 30
0.0
  0
VERTEX
  5
278
  8
LAYER_1
 10
69.0692
 20
33.55536
 30
0.0
 42
-0.0121000000000035
  0
VERTEX
  5
279
  8
LAYER_1
 10
65.00538
 20
33.84814000000001
 30
0.0
  0
VERTEX
  5
27A
  8
LAYER_1
 10
58.8309
 20
34.02509
 30
0.0
  0
VERTEX
  5
27B
  8
LAYER_1
 10
57.58521
 20
33.60836
 30
0.0
  0
VERTEX
  5
27C
  8
LAYER_1
 10
47.43417
 20
31.26783
 30
0.0
  0
VERTEX
  5
27D
  8
LAYER_1
 10
41.55871
 20
29.70343
 30
0.0
  0
VERTEX
  5
27E
  8
LAYER_1
 10
34.33511
 20
30.04261
 30
0.0
  0
VERTEX
  5
27F
  8
LAYER_1
 10
29.66206
 20
29.91604
 30
0.0
  0
VERTEX
  5
280
  8
LAYER_1
 10
26.9894
 20
30.33917
 30
0.0
  0
VERTEX
  5
281
  8
LAYER_1
 10
22.63896
 20
31.32432
 30
0.0
  0
VERTEX
  5
282
  8
LAYER_1
 10
17.95712
 20
33.05158
 30
0.0
  0
VERTEX
  5
283
  8
LAYER_1
 10
17.03094
 20
32.67239
 30
0.0
  0
VERTEX
  5
284
  8
LAYER_1
 10
12.96614
 20
33.2653
 30
0.0
  0
VERTEX
  5
285
  8
LAYER_1
 10
13.25705
 20
16.24434
 30
0.0
  0
VERTEX
  5
286
  8
LAYER_1
 10
18.61915
 20
16.61857
 30
0.0
  0
VERTEX
  5
287
  8
LAYER_1
 10
20.28553
 20
18.4606
 30
0.0
  0
VERTEX
  5
288
  8
LAYER_1
 10
22.49273
 20
18.25759
 30
0.0
  0
VERTEX
  5
289
  8
LAYER_1
 10
23.64343
 20
17.13394
 30
0.0
  0
VERTEX
  5
28A
  8
LAYER_1
 10
25.34139
 20
17.97804
 30
0.0
  0
VERTEX
  5
28B
  8
LAYER_1
 10
26.98078
 20
17.35199
 30
0.0
  0
VERTEX
  5
28C
  8
LAYER_1
 10
30.6801
 20
19.08454
 30
0.0
  0
VERTEX
  5
28D
  8
LAYER_1
 10
36.33508
 20
18.62772
 30
0.0
  0
VERTEX
  5
28E
  8
LAYER_1
 10
42.18673
 20
19.11047
 30
0.0
  0
VERTEX
  5
28F
  8
LAYER_1
 10
46.51933
 20
18.11995000000001
 30
0.0
 42
0.0099999999999962
  0
VERTEX
  5
290
  8
LAYER_1
 10
53.32900999999998
 20
17.22842
 30
0.0
  0
VERTEX
  5
291
  8
LAYER_1
 10
57.01374
 20
16.37434
 30
0.0
  0
VERTEX
  5
292
  8
LAYER_1
 10
60.31924
 20
16.20848
 30
0.0
  0
VERTEX
  5
293
  8
LAYER_1
 10
72.97042
 20
17.88461
 30
0.0
  0
VERTEX
  5
294
  8
LAYER_1
 10
72.86754
 20
23.28502
 30
0.0
  0
SEQEND
  5
271
  8
LAYER_1
  0
POLYLINE
  5
295
  8
LAYER_1
 66
     1
 10
0.0
 20
0.0
 30
0.0
  0
VERTEX
  5
297
  8
LAYER_1
 10
331.075
 20
198.1743
 30
0.0
  0
VERTEX
  5
298
  8
LAYER_1
 10
359.6277
 20
194.1206
 30
0.0
  0
VERTEX
  5
299
  8
LAYER_1
 10
359.178
 20
190.9365
 30
0.0
  0
VERTEX
  5
29A
  8
LAYER_1
 10
330.5766
 20
194.9971
 30
0.0
  0
VERTEX
  5
29B
  8
LAYER_1
 10
330.5905
 20
194.0266
 30
0.0
  0
VERTEX
  5
29C
  8
LAYER_1
 10
330.723
 20
192.3901
 30
0.0
  0
VERTEX
  5
29D
  8
LAYER_1
 10
331.8284
 20
189.8572
 30
0.0
  0
VERTEX
  5
29E
  8
LAYER_1
 10
332.8885
 20
187.6612
 30
0.0
  0
VERTEX
  5
29F
  8
LAYER_1
 10
335.5783
 20
186.6682
 30
0.0
  0
VERTEX
  5
2A0
  8
LAYER_1
 10
337.1459
 20
186.2676
 30
0.0
  0
VERTEX
  5
2A1
  8
LAYER_1
 10
338.822
 20
186.0355
 30
0.0
  0
VERTEX
  5
2A2
  8
LAYER_1
 10
344.6686
 20
185.3513
 30
0.0
  0
VERTEX
  5
2A3
  8
LAYER_1
 10
348.1885
 20
183.0581
 30
0.0
  0
VERTEX
  5
2A4
  8
LAYER_1
 10
355.5273
 20
178.1002
 30
0.0
  0
VERTEX
  5
2A5
  8
LAYER_1
 10
358.3485
 20
176.9386
 30
0.0
  0
VERTEX
  5
2A6
  8
LAYER_1
 10
361.2586
 20
176.1382
 30
0.0
  0
VERTEX
  5
2A7
  8
LAYER_1
 10
364.2962
 20
175.7435
 30
0.0
  0
VERTEX
  5
2A8
  8
LAYER_1
 10
367.1542
 20
175.7341
 30
0.0
  0
VERTEX
  5
2A9
  8
LAYER_1
 10
372.8621
 20
175.6992
 30
0.0
  0
VERTEX
  5
2AA
  8
LAYER_1
 10
373.5732
 20
176.0398
 30
0.0
  0
VERTEX
  5
2AB
  8
LAYER_1
 10
374.751
 20
175.918
 30
0.0
 42
0.0954999999999986
  0
VERTEX
  5
2AC
  8
LAYER_1
 10
377.4082
 20
160.3557
 30
0.0
 42
0.1063999999999925
  0
VERTEX
  5
2AD
  8
LAYER_1
 10
380.0878
 20
155.9920999999999
 30
0.0
 42
0.2398000000000027
  0
VERTEX
  5
2AE
  8
LAYER_1
 10
381.9497
 20
155.2998
 30
0.0
 42
0.2466000000000264
  0
VERTEX
  5
2AF
  8
LAYER_1
 10
382.6958000000001
 20
156.6156
 30
0.0
 42
0.0576999999999946
  0
VERTEX
  5
2B0
  8
LAYER_1
 10
382.6267
 20
162.0938
 30
0.0
  0
VERTEX
  5
2B1
  8
LAYER_1
 10
382.4636
 20
163.8893
 30
0.0
 42
-0.0396999999999956
  0
VERTEX
  5
2B2
  8
LAYER_1
 10
382.1238000000001
 20
171.5598
 30
0.0
 42
-0.1523000000000123
  0
VERTEX
  5
2B3
  8
LAYER_1
 10
382.9528
 20
174.228
 30
0.0
  0
VERTEX
  5
2B4
  8
LAYER_1
 10
383.8815
 20
175.0669
 30
0.0
  0
VERTEX
  5
2B5
  8
LAYER_1
 10
384.9645
 20
176.4809
 30
0.0
  0
VERTEX
  5
2B6
  8
LAYER_1
 10
385.0579
 20
178.0201
 30
0.0
  0
VERTEX
  5
2B7
  8
LAYER_1
 10
386.2761
 20
178.5232
 30
0.0
  0
VERTEX
  5
2B8
  8
LAYER_1
 10
387.6615
 20
182.7588
 30
0.0
  0
VERTEX
  5
2B9
  8
LAYER_1
 10
390.1836
 20
186.0587
 30
0.0
  0
VERTEX
  5
2BA
  8
LAYER_1
 10
388.9457
 20
190.293
 30
0.0
  0
VERTEX
  5
2BB
  8
LAYER_1
 10
388.9775
 20
195.2736
 30
0.0
  0
VERTEX
  5
2BC
  8
LAYER_1
 10
387.2309
 20
200.2214
 30
0.0
  0
VERTEX
  5
2BD
  8
LAYER_1
 10
386.3731
 20
201.2554
 30
0.0
  0
VERTEX
  5
2BE
  8
LAYER_1
 10
386.0796
 20
202.5675
 30
0.0
 42
-0.1431000000000025
  0
VERTEX
  5
2BF
  8
LAYER_1
 10
385.8459
 20
206.3136
 30
0.0
 42
-0.0454000000000008
  0
VERTEX
  5
2C0
  8
LAYER_1
 10
388.1729
 20
214.1378
 30
0.0
  0
VERTEX
  5
2C1
  8
LAYER_1
 10
388.3953
 20
214.7455
 30
0.0
 42
0.042899999999992
  0
VERTEX
  5
2C2
  8
LAYER_1
 10
390.2071999999999
 20
220.5307
 30
0.0
 42
0.2084000000000176
  0
VERTEX
  5
2C3
  8
LAYER_1
 10
390.0141
 20
222.0069000000001
 30
0.0
 42
0.4137999999999831
  0
VERTEX
  5
2C4
  8
LAYER_1
 10
388.7066
 20
222.3753
 30
0.0
 42
0.1180999999999996
  0
VERTEX
  5
2C5
  8
LAYER_1
 10
385.7959
 20
220.0169
 30
0.0
 42
0.0960000000000022
  0
VERTEX
  5
2C6
  8
LAYER_1
 10
379.7454
 20
208.6981
 30
0.0
 42
0.0415000000000085
  0
VERTEX
  5
2C7
  8
LAYER_1
 10
378.2223
 20
202.2572
 30
0.0
  0
VERTEX
  5
2C8
  8
LAYER_1
 10
378.2347
 20
201.6347
 30
0.0
  0
VERTEX
  5
2C9
  8
LAYER_1
 10
372.909
 20
203.5221
 30
0.0
  0
VERTEX
  5
2CA
  8
LAYER_1
 10
368.7065
 20
204.9768
 30
0.0
  0
VERTEX
  5
2CB
  8
LAYER_1
 10
367.6896
 20
205.1935
 30
0.0
  0
VERTEX
  5
2CC
  8
LAYER_1
 10
362.544
 20
205.5838
 30
0.0
  0
VERTEX
  5
2CD
  8
LAYER_1
 10
361.5072
 20
205.5362
 30
0.0
  0
VERTEX
  5
2CE
  8
LAYER_1
 10
356.2539
 20
204.3214
 30
0.0
  0
VERTEX
  5
2CF
  8
LAYER_1
 10
347.8412
 20
202.3299
 30
0.0
  0
VERTEX
  5
2D0
  8
LAYER_1
 10
343.739
 20
203.257
 30
0.0
  0
VERTEX
  5
2D1
  8
LAYER_1
 10
341.0327
 20
203.7434
 30
0.0
  0
VERTEX
  5
2D2
  8
LAYER_1
 10
339.8051
 20
204.0614
 30
0.0
  0
VERTEX
  5
2D3
  8
LAYER_1
 10
336.1368
 20
204.403
 30
0.0
  0
VERTEX
  5
2D4
  8
LAYER_1
 10
332.9003
 20
201.592
 30
0.0
  0
VERTEX
  5
2D5
  8
LAYER_1
 10
331.962
 20
200.5402
 30
0.0
  0
VERTEX
  5
2D6
  8
LAYER_1
 10
331.5154
 20
199.4448
 30
0.0
  0
VERTEX
  5
2D7
  8
LAYER_1
 10
331.075
 20
198.1743
 30
0.0
  0
SEQEND
  5
296
  8
LAYER_1
  0
POLYLINE
  5
2D8
  8
LAYER_1
 66
     1
 10
0.0
 20
0.0
 30
0.0
  0
VERTEX
  5
2DA
  8
LAYER_1
 10
110.745
 20
220.2917
 30
0.0
  0
VERTEX
  5
2DB
  8
LAYER_1
 10
116.9009
 20
229.2994
 30
0.0
  0
VERTEX
  5
2DC
  8
LAYER_1
 10
110.6821
 20
232.8672
 30
0.0
  0
VERTEX
  5
2DD
  8
LAYER_1
 10
92.17305
 20
236.601
 30
0.0
 42
0.1644999999999928
  0
VERTEX
  5
2DE
  8
LAYER_1
 10
91.2769
 20
235.8667
 30
0.0
 42
0.0731000000000043
  0
VERTEX
  5
2DF
  8
LAYER_1
 10
90.81873999999999
 20
234.8147
 30
0.0
 42
0.0206999999999964
  0
VERTEX
  5
2E0
  8
LAYER_1
 10
90.52154
 20
233.553
 30
0.0
 42
-0.0262999999999954
  0
VERTEX
  5
2E1
  8
LAYER_1
 10
90.18198999999998
 20
232.1544
 30
0.0
 42
-0.08010000000001
  0
VERTEX
  5
2E2
  8
LAYER_1
 10
89.72034
 20
231.1908
 30
0.0
 42
-0.1755000000000085
  0
VERTEX
  5
2E3
  8
LAYER_1
 10
88.79907
 20
230.5475
 30
0.0
  0
VERTEX
  5
2E4
  8
LAYER_1
 10
86.08128
 20
228.2898
 30
0.0
  0
VERTEX
  5
2E5
  8
LAYER_1
 10
84.90475
 20
228.1295
 30
0.0
  0
VERTEX
  5
2E6
  8
LAYER_1
 10
83.2346
 20
227.8924
 30
0.0
 42
0.1349999999999958
  0
VERTEX
  5
2E7
  8
LAYER_1
 10
81.87395
 20
227.198
 30
0.0
 42
0.0167000000000004
  0
VERTEX
  5
2E8
  8
LAYER_1
 10
81.43764000000002
 20
226.7831
 30
0.0
 42
-0.0446000000000081
  0
VERTEX
  5
2E9
  8
LAYER_1
 10
80.66722000000003
 20
226.1042
 30
0.0
 42
-0.0905999999999817
  0
VERTEX
  5
2EA
  8
LAYER_1
 10
79.70332
 20
225.6627
 30
0.0
 42
0.1080999999999926
  0
VERTEX
  5
2EB
  8
LAYER_1
 10
74.69271999999997
 20
218.8594
 30
0.0
 42
0.0199999999999983
  0
VERTEX
  5
2EC
  8
LAYER_1
 10
74.07183
 20
217.3051
 30
0.0
  0
VERTEX
  5
2ED
  8
LAYER_1
 10
73.47882000000001
 20
211.9815
 30
0.0
 42
-0.1029000000000009
  0
VERTEX
  5
2EE
  8
LAYER_1
 10
72.80479
 20
210.1773
 30
0.0
  0
VERTEX
  5
2EF
  8
LAYER_1
 10
72.58037
 20
209.8178
 30
0.0
 42
0.0416999999999991
  0
VERTEX
  5
2F0
  8
LAYER_1
 10
72.0243
 20
208.822
 30
0.0
 42
0.079399999999994
  0
VERTEX
  5
2F1
  8
LAYER_1
 10
71.7035
 20
207.5232
 30
0.0
  0
VERTEX
  5
2F2
  8
LAYER_1
 10
68.35401
 20
202.3523
 30
0.0
  0
VERTEX
  5
2F3
  8
LAYER_1
 10
48.19738
 20
189.8948
 30
0.0
  0
VERTEX
  5
2F4
  8
LAYER_1
 10
44.27543
 20
186.4554
 30
0.0
  0
VERTEX
  5
2F5
  8
LAYER_1
 10
30.48721
 20
171.0299
 30
0.0
  0
VERTEX
  5
2F6
  8
LAYER_1
 10
29.72902
 20
159.8188
 30
0.0
  0
VERTEX
  5
2F7
  8
LAYER_1
 10
29.83476
 20
154.5874
 30
0.0
  0
VERTEX
  5
2F8
  8
LAYER_1
 10
30.74544
 20
143.9966
 30
0.0
  0
VERTEX
  5
2F9
  8
LAYER_1
 10
30.20612
 20
143.6624
 30
0.0
  0
VERTEX
  5
2FA
  8
LAYER_1
 10
29.53723
 20
142.7815
 30
0.0
  0
VERTEX
  5
2FB
  8
LAYER_1
 10
25.06813
 20
140.7707
 30
0.0
  0
VERTEX
  5
2FC
  8
LAYER_1
 10
20.37528
 20
139.7016
 30
0.0
  0
VERTEX
  5
2FD
  8
LAYER_1
 10
16.75601
 20
135.5263
 30
0.0
  0
VERTEX
  5
2FE
  8
LAYER_1
 10
14.17003
 20
131.8855
 30
0.0
  0
VERTEX
  5
2FF
  8
LAYER_1
 10
13.0023
 20
127.0481
 30
0.0
  0
VERTEX
  5
300
  8
LAYER_1
 10
13.76724
 20
125.0189
 30
0.0
 42
0.0198999999999984
  0
VERTEX
  5
301
  8
LAYER_1
 10
18.38549999999999
 20
116.794
 30
0.0
  0
VERTEX
  5
302
  8
LAYER_1
 10
18.19488
 20
113.218
 30
0.0
  0
VERTEX
  5
303
  8
LAYER_1
 10
18.34625
 20
110.061
 30
0.0
  0
VERTEX
  5
304
  8
LAYER_1
 10
19.32687
 20
106.8334
 30
0.0
  0
VERTEX
  5
305
  8
LAYER_1
 10
19.81773
 20
105.9571
 30
0.0
  0
VERTEX
  5
306
  8
LAYER_1
 10
21.62557
 20
103.735
 30
0.0
  0
VERTEX
  5
307
  8
LAYER_1
 10
27.67241
 20
98.73581
 30
0.0
  0
VERTEX
  5
308
  8
LAYER_1
 10
35.27872
 20
109.8657
 30
0.0
  0
VERTEX
  5
309
  8
LAYER_1
 10
23.81395
 20
117.6992
 30
0.0
  0
VERTEX
  5
30A
  8
LAYER_1
 10
25.62837
 20
120.3542
 30
0.0
  0
VERTEX
  5
30B
  8
LAYER_1
 10
37.09314
 20
112.5207
 30
0.0
  0
VERTEX
  5
30C
  8
LAYER_1
 10
72.86982
 20
164.8709
 30
0.0
  0
VERTEX
  5
30D
  8
LAYER_1
 10
58.42261
 20
174.7364
 30
0.0
  0
VERTEX
  5
30E
  8
LAYER_1
 10
60.23703
 20
177.3913
 30
0.0
  0
VERTEX
  5
30F
  8
LAYER_1
 10
74.68424
 20
167.5258
 30
0.0
  0
VERTEX
  5
310
  8
LAYER_1
 10
108.9306
 20
217.6367
 30
0.0
  0
VERTEX
  5
311
  8
LAYER_1
 10
102.5293
 20
222.0114
 30
0.0
  0
VERTEX
  5
312
  8
LAYER_1
 10
104.3437
 20
224.6664
 30
0.0
  0
VERTEX
  5
313
  8
LAYER_1
 10
110.745
 20
220.2917
 30
0.0
  0
SEQEND
  5
2D9
  8
LAYER_1
  0
POLYLINE
  5
314
  8
LAYER_1
 66
     1
 10
0.0
 20
0.0
 30
0.0
  0
VERTEX
  5
316
  8
LAYER_1
 10
193.3898
 20
156.1607
 30
0.0
  0
VERTEX
  5
317
  8
LAYER_1
 10
164.972
 20
153.1739
 30
0.0
  0
VERTEX
  5
318
  8
LAYER_1
 10
164.639
 20
156.342
 30
0.0
  0
VERTEX
  5
319
  8
LAYER_1
 10
193.2259
 20
159.3466
 30
0.0
  0
VERTEX
  5
31A
  8
LAYER_1
 10
192.843
 20
166.7895
 30
0.0
  0
VERTEX
  5
31B
  8
LAYER_1
 10
188.6095
 20
164.8467
 30
0.0
  0
VERTEX
  5
31C
  8
LAYER_1
 10
188.1136
 20
164.0454
 30
0.0
  0
VERTEX
  5
31D
  8
LAYER_1
 10
186.4077
 20
164.4154
 30
0.0
  0
VERTEX
  5
31E
  8
LAYER_1
 10
183.0946
 20
162.6247
 30
0.0
  0
VERTEX
  5
31F
  8
LAYER_1
 10
172.0099
 20
160.9828
 30
0.0
  0
VERTEX
  5
320
  8
LAYER_1
 10
166.0245
 20
159.601
 30
0.0
  0
VERTEX
  5
321
  8
LAYER_1
 10
155.9687
 20
160.833
 30
0.0
  0
VERTEX
  5
322
  8
LAYER_1
 10
154.0076
 20
161.0141
 30
0.0
  0
VERTEX
  5
323
  8
LAYER_1
 10
143.8853
 20
160.8105
 30
0.0
  0
VERTEX
  5
324
  8
LAYER_1
 10
142.7606
 20
161.106
 30
0.0
  0
VERTEX
  5
325
  8
LAYER_1
 10
134.0847
 20
163.0965
 30
0.0
  0
VERTEX
  5
326
  8
LAYER_1
 10
133.1434
 20
163.0612
 30
0.0
  0
VERTEX
  5
327
  8
LAYER_1
 10
133.9191
 20
148.4473
 30
0.0
  0
VERTEX
  5
328
  8
LAYER_1
 10
130.7079
 20
148.2767
 30
0.0
  0
VERTEX
  5
329
  8
LAYER_1
 10
129.93
 20
162.932
 30
0.0
  0
VERTEX
  5
32A
  8
LAYER_1
 10
129.0026
 20
162.8923
 30
0.0
  0
VERTEX
  5
32B
  8
LAYER_1
 10
123.2902
 20
162.7958
 30
0.0
  0
VERTEX
  5
32C
  8
LAYER_1
 10
120.5035
 20
162.9879
 30
0.0
  0
VERTEX
  5
32D
  8
LAYER_1
 10
116.5101
 20
163.7326
 30
0.0
  0
VERTEX
  5
32E
  8
LAYER_1
 10
113.4822
 20
164.1321
 30
0.0
  0
VERTEX
  5
32F
  8
LAYER_1
 10
110.4983
 20
163.4436
 30
0.0
  0
VERTEX
  5
330
  8
LAYER_1
 10
105.4846
 20
163.0501
 30
0.0
  0
VERTEX
  5
331
  8
LAYER_1
 10
95.32739
 20
162.4412
 30
0.0
  0
VERTEX
  5
332
  8
LAYER_1
 10
91.884
 20
160.5729
 30
0.0
  0
VERTEX
  5
333
  8
LAYER_1
 10
90.87303
 20
160.0431
 30
0.0
  0
VERTEX
  5
334
  8
LAYER_1
 10
89.17496
 20
159.0379
 30
0.0
  0
VERTEX
  5
335
  8
LAYER_1
 10
85.96906
 20
157.1018
 30
0.0
  0
VERTEX
  5
336
  8
LAYER_1
 10
84.25656
 20
155.9454
 30
0.0
  0
VERTEX
  5
337
  8
LAYER_1
 10
81.71455
 20
154.1192
 30
0.0
  0
VERTEX
  5
338
  8
LAYER_1
 10
78.93324
 20
151.7846
 30
0.0
  0
VERTEX
  5
339
  8
LAYER_1
 10
79.41902
 20
142.6306
 30
0.0
  0
VERTEX
  5
33A
  8
LAYER_1
 10
76.20782
 20
142.4601
 30
0.0
  0
VERTEX
  5
33B
  8
LAYER_1
 10
75.85144
 20
149.1777
 30
0.0
  0
VERTEX
  5
33C
  8
LAYER_1
 10
71.05825
 20
145.1352
 30
0.0
  0
VERTEX
  5
33D
  8
LAYER_1
 10
63.70101
 20
140.6709
 30
0.0
  0
VERTEX
  5
33E
  8
LAYER_1
 10
62.52652
 20
136.6862
 30
0.0
  0
VERTEX
  5
33F
  8
LAYER_1
 10
61.84923
 20
134.2566
 30
0.0
  0
VERTEX
  5
340
  8
LAYER_1
 10
59.559
 20
132.0763
 30
0.0
  0
VERTEX
  5
341
  8
LAYER_1
 10
106.0699
 20
134.5461
 30
0.0
  0
VERTEX
  5
342
  8
LAYER_1
 10
106.2405
 20
131.3349
 30
0.0
  0
VERTEX
  5
343
  8
LAYER_1
 10
59.61699
 20
128.8924
 30
0.0
  0
VERTEX
  5
344
  8
LAYER_1
 10
61.99987
 20
127.3462
 30
0.0
  0
VERTEX
  5
345
  8
LAYER_1
 10
62.3138
 20
126.5506
 30
0.0
  0
VERTEX
  5
346
  8
LAYER_1
 10
63.70351
 20
123.4092
 30
0.0
  0
VERTEX
  5
347
  8
LAYER_1
 10
64.75877
 20
120.7583
 30
0.0
  0
VERTEX
  5
348
  8
LAYER_1
 10
72.294
 20
117.29
 30
0.0
  0
VERTEX
  5
349
  8
LAYER_1
 10
77.7424
 20
113.5716
 30
0.0
  0
VERTEX
  5
34A
  8
LAYER_1
 10
77.38842
 20
120.2439
 30
0.0
  0
VERTEX
  5
34B
  8
LAYER_1
 10
80.59961
 20
120.4145
 30
0.0
  0
VERTEX
  5
34C
  8
LAYER_1
 10
81.08209
 20
111.3226
 30
0.0
  0
VERTEX
  5
34D
  8
LAYER_1
 10
84.12806
 20
109.2717
 30
0.0
  0
VERTEX
  5
34E
  8
LAYER_1
 10
88.55765
 20
106.818
 30
0.0
  0
VERTEX
  5
34F
  8
LAYER_1
 10
93.7304
 20
104.4252
 30
0.0
  0
VERTEX
  5
350
  8
LAYER_1
 10
97.27707
 20
102.9501
 30
0.0
  0
VERTEX
  5
351
  8
LAYER_1
 10
98.51442
 20
102.4599
 30
0.0
  0
VERTEX
  5
352
  8
LAYER_1
 10
108.1912
 20
102.9174
 30
0.0
  0
VERTEX
  5
353
  8
LAYER_1
 10
113.3484
 20
103.1129
 30
0.0
  0
VERTEX
  5
354
  8
LAYER_1
 10
116.7462
 20
102.701
 30
0.0
  0
VERTEX
  5
355
  8
LAYER_1
 10
119.7137
 20
103.4202
 30
0.0
  0
VERTEX
  5
356
  8
LAYER_1
 10
123.6054
 20
104.5835
 30
0.0
  0
VERTEX
  5
357
  8
LAYER_1
 10
126.3559
 20
105.0696
 30
0.0
  0
VERTEX
  5
358
  8
LAYER_1
 10
128.034
 20
105.2087
 30
0.0
  0
VERTEX
  5
359
  8
LAYER_1
 10
132.9727
 20
105.6375
 30
0.0
  0
VERTEX
  5
35A
  8
LAYER_1
 10
132.195
 20
120.2893
 30
0.0
  0
VERTEX
  5
35B
  8
LAYER_1
 10
135.4062
 20
120.4599
 30
0.0
  0
VERTEX
  5
35C
  8
LAYER_1
 10
136.1817
 20
105.8494
 30
0.0
  0
VERTEX
  5
35D
  8
LAYER_1
 10
137.1215
 20
105.914
 30
0.0
  0
VERTEX
  5
35E
  8
LAYER_1
 10
145.5365
 20
108.8121
 30
0.0
  0
VERTEX
  5
35F
  8
LAYER_1
 10
146.6235
 20
109.2251
 30
0.0
  0
VERTEX
  5
360
  8
LAYER_1
 10
156.7104
 20
110.0948
 30
0.0
  0
VERTEX
  5
361
  8
LAYER_1
 10
158.6414
 20
110.4826
 30
0.0
  0
VERTEX
  5
362
  8
LAYER_1
 10
168.4049
 20
112.7759
 30
0.0
  0
VERTEX
  5
363
  8
LAYER_1
 10
174.6102
 20
112.0338
 30
0.0
  0
VERTEX
  5
364
  8
LAYER_1
 10
186.1532
 20
111.5956
 30
0.0
  0
VERTEX
  5
365
  8
LAYER_1
 10
189.6385
 20
110.1632
 30
0.0
  0
VERTEX
  5
366
  8
LAYER_1
 10
191.2916
 20
110.7114
 30
0.0
  0
VERTEX
  5
367
  8
LAYER_1
 10
191.8697
 20
109.967
 30
0.0
  0
VERTEX
  5
368
  8
LAYER_1
 10
195.8982
 20
108.8113
 30
0.0
  0
VERTEX
  5
369
  8
LAYER_1
 10
195.5085
 20
116.2962
 30
0.0
  0
VERTEX
  5
36A
  8
LAYER_1
 10
166.7377
 20
116.2962
 30
0.0
  0
VERTEX
  5
36B
  8
LAYER_1
 10
166.7377
 20
119.4818
 30
0.0
  0
VERTEX
  5
36C
  8
LAYER_1
 10
195.3427
 20
119.4818
 30
0.0
  0
VERTEX
  5
36D
  8
LAYER_1
 10
195.0329
 20
125.4316
 30
0.0
  0
VERTEX
  5
36E
  8
LAYER_1
 10
191.2032
 20
124.01
 30
0.0
  0
VERTEX
  5
36F
  8
LAYER_1
 10
189.329
 20
122.2048
 30
0.0
  0
VERTEX
  5
370
  8
LAYER_1
 10
187.3592
 20
122.5236
 30
0.0
  0
VERTEX
  5
371
  8
LAYER_1
 10
186.1572
 20
123.8707
 30
0.0
  0
VERTEX
  5
372
  8
LAYER_1
 10
169.4013
 20
122.9681
 30
0.0
  0
VERTEX
  5
373
  8
LAYER_1
 10
168.2922
 20
122.6171
 30
0.0
  0
VERTEX
  5
374
  8
LAYER_1
 10
166.4787
 20
123.1768
 30
0.0
  0
VERTEX
  5
375
  8
LAYER_1
 10
157.2633
 20
124.2886
 30
0.0
  0
VERTEX
  5
376
  8
LAYER_1
 10
155.0741
 20
124.6324
 30
0.0
  0
VERTEX
  5
377
  8
LAYER_1
 10
146.9178
 20
123.799
 30
0.0
  0
VERTEX
  5
378
  8
LAYER_1
 10
144.7808
 20
123.7225
 30
0.0
 42
-0.2389999999999964
  0
VERTEX
  5
379
  8
LAYER_1
 10
144.2501
 20
125.2304
 30
0.0
 42
-0.122799999999997
  0
VERTEX
  5
37A
  8
LAYER_1
 10
145.1661
 20
127.4547
 30
0.0
  0
VERTEX
  5
37B
  8
LAYER_1
 10
145.3181
 20
127.6972
 30
0.0
 42
0.0773999999999927
  0
VERTEX
  5
37C
  8
LAYER_1
 10
146.2992
 20
129.6607
 30
0.0
 42
-0.2591999999999907
  0
VERTEX
  5
37D
  8
LAYER_1
 10
147.553
 20
130.9012
 30
0.0
  0
VERTEX
  5
37E
  8
LAYER_1
 10
148.2054
 20
131.1342
 30
0.0
 42
0.1384000000000019
  0
VERTEX
  5
37F
  8
LAYER_1
 10
149.9735
 20
132.1002
 30
0.0
 42
0.1830000000000022
  0
VERTEX
  5
380
  8
LAYER_1
 10
150.4372
 20
133.6205
 30
0.0
  0
VERTEX
  5
381
  8
LAYER_1
 10
150.3171
 20
134.9887
 30
0.0
 42
0.0170000000000058
  0
VERTEX
  5
382
  8
LAYER_1
 10
150.1535
 20
136.6873
 30
0.0
 42
0.3635999999999985
  0
VERTEX
  5
383
  8
LAYER_1
 10
148.8598
 20
138.4464
 30
0.0
  0
VERTEX
  5
384
  8
LAYER_1
 10
148.1961
 20
138.6505
 30
0.0
 42
-0.1479999999999996
  0
VERTEX
  5
385
  8
LAYER_1
 10
146.373
 20
139.5732
 30
0.0
 42
-0.1170000000000107
  0
VERTEX
  5
386
  8
LAYER_1
 10
145.8995
 20
140.5036
 30
0.0
  0
VERTEX
  5
387
  8
LAYER_1
 10
143.8976
 20
143.689
 30
0.0
 42
-0.0647999999999994
  0
VERTEX
  5
388
  8
LAYER_1
 10
143.4459
 20
145.9315
 30
0.0
 42
-0.211899999999931
  0
VERTEX
  5
389
  8
LAYER_1
 10
143.5839
 20
146.199
 30
0.0
  0
VERTEX
  5
38A
  8
LAYER_1
 10
145.7162
 20
146.3485
 30
0.0
  0
VERTEX
  5
38B
  8
LAYER_1
 10
152.078
 20
146.3678
 30
0.0
  0
VERTEX
  5
38C
  8
LAYER_1
 10
153.9138
 20
146.3846
 30
0.0
  0
VERTEX
  5
38D
  8
LAYER_1
 10
156.0543
 20
146.9583
 30
0.0
  0
VERTEX
  5
38E
  8
LAYER_1
 10
165.1171
 20
149.0451
 30
0.0
  0
VERTEX
  5
38F
  8
LAYER_1
 10
166.4929
 20
149.6813
 30
0.0
  0
VERTEX
  5
390
  8
LAYER_1
 10
167.9756
 20
149.557
 30
0.0
  0
VERTEX
  5
391
  8
LAYER_1
 10
184.3928
 20
150.4138
 30
0.0
  0
VERTEX
  5
392
  8
LAYER_1
 10
185.4481
 20
151.8841
 30
0.0
  0
VERTEX
  5
393
  8
LAYER_1
 10
187.3728
 20
152.4084
 30
0.0
  0
VERTEX
  5
394
  8
LAYER_1
 10
189.4277
 20
150.8118
 30
0.0
  0
VERTEX
  5
395
  8
LAYER_1
 10
193.7178
 20
149.7853
 30
0.0
  0
VERTEX
  5
396
  8
LAYER_1
 10
193.3898
 20
156.1607
 30
0.0
  0
SEQEND
  5
315
  8
LAYER_1
  0
POLYLINE
  5
397
  8
LAYER_1
 66
     1
 10
0.0
 20
0.0
 30
0.0
  0
VERTEX
  5
399
  8
LAYER_1
 10
286.6551
 20
195.4362
 30
0.0
  0
VERTEX
  5
39A
  8
LAYER_1
 10
292.6872
 20
200.149
 30
0.0
  0
VERTEX
  5
39B
  8
LAYER_1
 10
294.667
 20
197.615
 30
0.0
  0
VERTEX
  5
39C
  8
LAYER_1
 10
288.6349
 20
192.9022
 30
0.0
  0
VERTEX
  5
39D
  8
LAYER_1
 10
326.0027
 20
145.0737
 30
0.0
  0
VERTEX
  5
39E
  8
LAYER_1
 10
339.781
 20
155.8384
 30
0.0
  0
VERTEX
  5
39F
  8
LAYER_1
 10
341.7608
 20
153.3044
 30
0.0
  0
VERTEX
  5
3A0
  8
LAYER_1
 10
327.9825
 20
142.5397
 30
0.0
  0
VERTEX
  5
3A1
  8
LAYER_1
 10
367.02
 20
92.57389
 30
0.0
  0
VERTEX
  5
3A2
  8
LAYER_1
 10
377.9597
 20
101.1209
 30
0.0
  0
VERTEX
  5
3A3
  8
LAYER_1
 10
379.9395
 20
98.58687
 30
0.0
  0
VERTEX
  5
3A4
  8
LAYER_1
 10
368.9998
 20
90.03987
 30
0.0
  0
VERTEX
  5
3A5
  8
LAYER_1
 10
377.2734
 20
79.45019999999997
 30
0.0
 42
0.0741999999999972
  0
VERTEX
  5
3A6
  8
LAYER_1
 10
382.7467
 20
84.33617999999998
 30
0.0
 42
0.0983999999999967
  0
VERTEX
  5
3A7
  8
LAYER_1
 10
386.5248
 20
92.23616000000001
 30
0.0
 42
0.0310000000000073
  0
VERTEX
  5
3A8
  8
LAYER_1
 10
388.0272
 20
99.29485
 30
0.0
  0
VERTEX
  5
3A9
  8
LAYER_1
 10
388.0066
 20
103.2275
 30
0.0
  0
VERTEX
  5
3AA
  8
LAYER_1
 10
390.1896
 20
108.1847
 30
0.0
  0
VERTEX
  5
3AB
  8
LAYER_1
 10
388.6375
 20
113.3935
 30
0.0
 42
0.0235000000000077
  0
VERTEX
  5
3AC
  8
LAYER_1
 10
382.4382
 20
120.611
 30
0.0
  0
VERTEX
  5
3AD
  8
LAYER_1
 10
377.2021
 20
121.5757
 30
0.0
  0
VERTEX
  5
3AE
  8
LAYER_1
 10
372.6087
 20
123.3208
 30
0.0
  0
VERTEX
  5
3AF
  8
LAYER_1
 10
371.8991
 20
124.1432
 30
0.0
  0
VERTEX
  5
3B0
  8
LAYER_1
 10
371.3487
 20
124.4369
 30
0.0
  0
VERTEX
  5
3B1
  8
LAYER_1
 10
371.5676
 20
135.1967
 30
0.0
  0
VERTEX
  5
3B2
  8
LAYER_1
 10
371.3182
 20
140.3842
 30
0.0
  0
VERTEX
  5
3B3
  8
LAYER_1
 10
369.8608
 20
151.4183
 30
0.0
  0
VERTEX
  5
3B4
  8
LAYER_1
 10
355.0568
 20
165.9952
 30
0.0
  0
VERTEX
  5
3B5
  8
LAYER_1
 10
350.8796
 20
169.1687
 30
0.0
  0
VERTEX
  5
3B6
  8
LAYER_1
 10
330.4942
 20
180.8401
 30
0.0
  0
VERTEX
  5
3B7
  8
LAYER_1
 10
326.8197
 20
185.7895
 30
0.0
 42
0.0884999999999939
  0
VERTEX
  5
3B8
  8
LAYER_1
 10
326.5532
 20
186.6301
 30
0.0
 42
0.1380999999999853
  0
VERTEX
  5
3B9
  8
LAYER_1
 10
325.9431
 20
187.2308
 30
0.0
  0
VERTEX
  5
3BA
  8
LAYER_1
 10
325.7471
 20
187.3434
 30
0.0
 42
-0.0692000000000165
  0
VERTEX
  5
3BB
  8
LAYER_1
 10
325.1671999999999
 20
187.7449
 30
0.0
 42
-0.1191999999999723
  0
VERTEX
  5
3BC
  8
LAYER_1
 10
324.7163
 20
188.4977
 30
0.0
 42
-0.0276000000000039
  0
VERTEX
  5
3BD
  8
LAYER_1
 10
324.6155
 20
188.858
 30
0.0
  0
VERTEX
  5
3BE
  8
LAYER_1
 10
323.6872
 20
194.1353
 30
0.0
 42
0.0089999999999943
  0
VERTEX
  5
3BF
  8
LAYER_1
 10
320.9369
 20
198.2769
 30
0.0
 42
0.0238999999999952
  0
VERTEX
  5
3C0
  8
LAYER_1
 10
319.0733
 20
200.7274
 30
0.0
 42
0.0541999999999895
  0
VERTEX
  5
3C1
  8
LAYER_1
 10
316.8600999999999
 20
202.8523
 30
0.0
 42
0.0345999999999999
  0
VERTEX
  5
3C2
  8
LAYER_1
 10
314.6704
 20
204.2713
 30
0.0
 42
0.0076000000000013
  0
VERTEX
  5
3C3
  8
LAYER_1
 10
313.362
 20
204.984
 30
0.0
  0
VERTEX
  5
3C4
  8
LAYER_1
 10
311.0395
 20
204.73
 30
0.0
  0
VERTEX
  5
3C5
  8
LAYER_1
 10
310.0452
 20
204.9889
 30
0.0
  0
VERTEX
  5
3C6
  8
LAYER_1
 10
305.3667
 20
210.8992
 30
0.0
 42
0.0651000000000116
  0
VERTEX
  5
3C7
  8
LAYER_1
 10
303.8738
 20
211.0728
 30
0.0
 42
0.0390000000000073
  0
VERTEX
  5
3C8
  8
LAYER_1
 10
301.5825
 20
210.8685
 30
0.0
 42
0.0203999999999834
  0
VERTEX
  5
3C9
  8
LAYER_1
 10
298.2151
 20
210.1659999999999
 30
0.0
 42
0.0040000000000049
  0
VERTEX
  5
3CA
  8
LAYER_1
 10
295.4853
 20
209.4689
 30
0.0
 42
-0.0092000000000088
  0
VERTEX
  5
3CB
  8
LAYER_1
 10
291.4598
 20
208.4696999999999
 30
0.0
 42
-0.0265999999999827
  0
VERTEX
  5
3CC
  8
LAYER_1
 10
288.5508
 20
207.9619
 30
0.0
 42
-0.047199999999996
  0
VERTEX
  5
3CD
  8
LAYER_1
 10
286.6331
 20
207.9085
 30
0.0
 42
-0.0381999999999822
  0
VERTEX
  5
3CE
  8
LAYER_1
 10
285.8911
 20
208.0235
 30
0.0
  0
VERTEX
  5
3CF
  8
LAYER_1
 10
279.9121
 20
204.067
 30
0.0
  0
VERTEX
  5
3D0
  8
LAYER_1
 10
286.6551
 20
195.4362
 30
0.0
  0
SEQEND
  5
398
  8
LAYER_1
  0
POLYLINE
  5
3D1
  8
LAYER_1
 66
     1
 10
0.0
 20
0.0
 30
0.0
  0
VERTEX
  5
3D3
  8
LAYER_1
 10
211.5103
 20
158.1976
 30
0.0
  0
VERTEX
  5
3D4
  8
LAYER_1
 10
211.2753
 20
157.5009
 30
0.0
  0
VERTEX
  5
3D5
  8
LAYER_1
 10
210.851
 20
156.5428
 30
0.0
  0
VERTEX
  5
3D6
  8
LAYER_1
 10
208.8629
 20
151.9168
 30
0.0
  0
VERTEX
  5
3D7
  8
LAYER_1
 10
207.9976
 20
150.0522
 30
0.0
  0
VERTEX
  5
3D8
  8
LAYER_1
 10
206.2648
 20
146.4945
 30
0.0
  0
VERTEX
  5
3D9
  8
LAYER_1
 10
207.5424
 20
142.3021
 30
0.0
  0
VERTEX
  5
3DA
  8
LAYER_1
 10
207.7452
 20
141.3945
 30
0.0
  0
VERTEX
  5
3DB
  8
LAYER_1
 10
207.8719
 20
137.3962
 30
0.0
  0
VERTEX
  5
3DC
  8
LAYER_1
 10
209.2215
 20
134.4774
 30
0.0
  0
VERTEX
  5
3DD
  8
LAYER_1
 10
211.508
 20
132.3832
 30
0.0
  0
VERTEX
  5
3DE
  8
LAYER_1
 10
212.3146
 20
131.6686
 30
0.0
  0
VERTEX
  5
3DF
  8
LAYER_1
 10
212.8693
 20
130.9344
 30
0.0
  0
VERTEX
  5
3E0
  8
LAYER_1
 10
215.1668
 20
127.4026
 30
0.0
  0
VERTEX
  5
3E1
  8
LAYER_1
 10
219.0083
 20
126.443
 30
0.0
  0
VERTEX
  5
3E2
  8
LAYER_1
 10
220.9934
 20
125.9075
 30
0.0
  0
VERTEX
  5
3E3
  8
LAYER_1
 10
225.8095
 20
124.4578
 30
0.0
  0
VERTEX
  5
3E4
  8
LAYER_1
 10
226.6352
 20
124.2168
 30
0.0
  0
VERTEX
  5
3E5
  8
LAYER_1
 10
227.508
 20
123.8904
 30
0.0
  0
VERTEX
  5
3E6
  8
LAYER_1
 10
224.1324
 20
131.1293
 30
0.0
  0
VERTEX
  5
3E7
  8
LAYER_1
 10
227.0469
 20
132.4883
 30
0.0
  0
VERTEX
  5
3E8
  8
LAYER_1
 10
231.8408
 20
122.2077
 30
0.0
  0
VERTEX
  5
3E9
  8
LAYER_1
 10
232.7974
 20
121.8808
 30
0.0
  0
VERTEX
  5
3EA
  8
LAYER_1
 10
236.3388
 20
120.7394
 30
0.0
  0
VERTEX
  5
3EB
  8
LAYER_1
 10
241.4503
 20
120.0057
 30
0.0
  0
VERTEX
  5
3EC
  8
LAYER_1
 10
248.0053
 20
118.9019
 30
0.0
  0
VERTEX
  5
3ED
  8
LAYER_1
 10
253.6821
 20
118.7149
 30
0.0
  0
VERTEX
  5
3EE
  8
LAYER_1
 10
269.5791
 20
120.8616
 30
0.0
  0
VERTEX
  5
3EF
  8
LAYER_1
 10
274.1677
 20
123.6627
 30
0.0
  0
VERTEX
  5
3F0
  8
LAYER_1
 10
276.4397
 20
125.0576
 30
0.0
  0
VERTEX
  5
3F1
  8
LAYER_1
 10
281.2395
 20
127.6238
 30
0.0
  0
VERTEX
  5
3F2
  8
LAYER_1
 10
284.3385
 20
131.5234
 30
0.0
  0
VERTEX
  5
3F3
  8
LAYER_1
 10
276.4294
 20
148.4846
 30
0.0
  0
VERTEX
  5
3F4
  8
LAYER_1
 10
279.3438
 20
149.8436
 30
0.0
  0
VERTEX
  5
3F5
  8
LAYER_1
 10
286.5531
 20
134.3833
 30
0.0
  0
VERTEX
  5
3F6
  8
LAYER_1
 10
289.1995
 20
138.7537
 30
0.0
  0
VERTEX
  5
3F7
  8
LAYER_1
 10
290.3766
 20
140.8691
 30
0.0
  0
VERTEX
  5
3F8
  8
LAYER_1
 10
291.4097
 20
149.3077
 30
0.0
  0
VERTEX
  5
3F9
  8
LAYER_1
 10
292.1917
 20
154.2971
 30
0.0
  0
VERTEX
  5
3FA
  8
LAYER_1
 10
292.6315
 20
156.7757
 30
0.0
  0
VERTEX
  5
3FB
  8
LAYER_1
 10
290.4449
 20
161.6544
 30
0.0
  0
VERTEX
  5
3FC
  8
LAYER_1
 10
287.8167
 20
168.3594
 30
0.0
  0
VERTEX
  5
3FD
  8
LAYER_1
 10
286.9132
 20
170.7056
 30
0.0
  0
VERTEX
  5
3FE
  8
LAYER_1
 10
247.4057
 20
152.2829
 30
0.0
  0
VERTEX
  5
3FF
  8
LAYER_1
 10
246.0466
 20
155.1974
 30
0.0
  0
VERTEX
  5
400
  8
LAYER_1
 10
285.5583
 20
173.6219
 30
0.0
  0
VERTEX
  5
401
  8
LAYER_1
 10
282.0561
 20
179.9694
 30
0.0
  0
VERTEX
  5
402
  8
LAYER_1
 10
280.6904
 20
182.6257
 30
0.0
  0
VERTEX
  5
403
  8
LAYER_1
 10
279.8943
 20
184.2714
 30
0.0
  0
VERTEX
  5
404
  8
LAYER_1
 10
278.5581
 20
186.9555
 30
0.0
  0
VERTEX
  5
405
  8
LAYER_1
 10
276.3771
 20
188.2114
 30
0.0
  0
VERTEX
  5
406
  8
LAYER_1
 10
272.0526
 20
190.8191
 30
0.0
  0
VERTEX
  5
407
  8
LAYER_1
 10
264.9239
 20
195.4517
 30
0.0
  0
VERTEX
  5
408
  8
LAYER_1
 10
262.5542
 20
195.9084
 30
0.0
  0
VERTEX
  5
409
  8
LAYER_1
 10
257.498
 20
196.6921
 30
0.0
  0
VERTEX
  5
40A
  8
LAYER_1
 10
264.7195
 20
181.2057
 30
0.0
  0
VERTEX
  5
40B
  8
LAYER_1
 10
261.8051
 20
179.8466
 30
0.0
  0
VERTEX
  5
40C
  8
LAYER_1
 10
253.8839
 20
196.8336
 30
0.0
  0
VERTEX
  5
40D
  8
LAYER_1
 10
248.9046
 20
196.9662
 30
0.0
  0
VERTEX
  5
40E
  8
LAYER_1
 10
243.8536
 20
194.9388
 30
0.0
  0
VERTEX
  5
40F
  8
LAYER_1
 10
238.0075
 20
192.9727
 30
0.0
  0
VERTEX
  5
410
  8
LAYER_1
 10
236.2293
 20
192.3804
 30
0.0
  0
VERTEX
  5
411
  8
LAYER_1
 10
224.7389
 20
181.9224
 30
0.0
  0
VERTEX
  5
412
  8
LAYER_1
 10
222.1454
 20
178.743
 30
0.0
  0
VERTEX
  5
413
  8
LAYER_1
 10
220.9118
 20
177.2019
 30
0.0
  0
VERTEX
  5
414
  8
LAYER_1
 10
217.6536
 20
171.6746
 30
0.0
  0
VERTEX
  5
415
  8
LAYER_1
 10
217.0548
 20
170.6775
 30
0.0
  0
VERTEX
  5
416
  8
LAYER_1
 10
214.5512
 20
166.6453
 30
0.0
  0
VERTEX
  5
417
  8
LAYER_1
 10
213.0051
 20
162.601
 30
0.0
  0
VERTEX
  5
418
  8
LAYER_1
 10
217.8017
 20
152.3146
 30
0.0
  0
VERTEX
  5
419
  8
LAYER_1
 10
214.8873
 20
150.9556
 30
0.0
  0
VERTEX
  5
41A
  8
LAYER_1
 10
211.5103
 20
158.1976
 30
0.0
  0
SEQEND
  5
3D2
  8
LAYER_1
  0
POLYLINE
  5
41B
  8
LAYER_1
 66
     1
 10
0.0
 20
0.0
 30
0.0
  0
VERTEX
  5
41D
  8
LAYER_1
 10
274.6967
 20
102.8605
 30
0.0
  0
VERTEX
  5
41E
  8
LAYER_1
 10
296.2654
 20
84.11111
 30
0.0
  0
VERTEX
  5
41F
  8
LAYER_1
 10
294.1755
 20
81.70694
 30
0.0
  0
VERTEX
  5
420
  8
LAYER_1
 10
272.3551
 20
100.6751
 30
0.0
  0
VERTEX
  5
421
  8
LAYER_1
 10
266.661
 20
95.36058
 30
0.0
  0
VERTEX
  5
422
  8
LAYER_1
 10
270.2779
 20
92.55828
 30
0.0
  0
VERTEX
  5
423
  8
LAYER_1
 10
271.2775
 20
91.75001
 30
0.0
  0
VERTEX
  5
424
  8
LAYER_1
 10
275.9749
 20
90.06193
 30
0.0
  0
VERTEX
  5
425
  8
LAYER_1
 10
279.9393
 20
88.01836
 30
0.0
  0
VERTEX
  5
426
  8
LAYER_1
 10
282.2586
 20
86.62368
 30
0.0
  0
VERTEX
  5
427
  8
LAYER_1
 10
285.7558
 20
83.52167
 30
0.0
  0
VERTEX
  5
428
  8
LAYER_1
 10
291.5058
 20
79.13621
 30
0.0
  0
VERTEX
  5
429
  8
LAYER_1
 10
294.9024
 20
74.30185
 30
0.0
  0
VERTEX
  5
42A
  8
LAYER_1
 10
301.268
 20
65.83972
 30
0.0
  0
VERTEX
  5
42B
  8
LAYER_1
 10
301.9539
 20
64.71957
 30
0.0
  0
VERTEX
  5
42C
  8
LAYER_1
 10
306.7966
 20
60.8842
 30
0.0
  0
VERTEX
  5
42D
  8
LAYER_1
 10
308.402
 20
59.75659
 30
0.0
  0
VERTEX
  5
42E
  8
LAYER_1
 10
310.1004
 20
58.49298
 30
0.0
  0
VERTEX
  5
42F
  8
LAYER_1
 10
313.1434
 20
57.6147
 30
0.0
  0
VERTEX
  5
430
  8
LAYER_1
 10
313.3426
 20
57.18623
 30
0.0
  0
VERTEX
  5
431
  8
LAYER_1
 10
324.723
 20
67.79864
 30
0.0
  0
VERTEX
  5
432
  8
LAYER_1
 10
326.9161
 20
65.44681
 30
0.0
  0
VERTEX
  5
433
  8
LAYER_1
 10
314.7686
 20
54.11907
 30
0.0
 42
0.1444999999999995
  0
VERTEX
  5
434
  8
LAYER_1
 10
323.5525
 20
35.81954
 30
0.0
 42
0.0748000000000063
  0
VERTEX
  5
435
  8
LAYER_1
 10
335.7075
 20
25.86644000000002
 30
0.0
 42
0.0491999999999895
  0
VERTEX
  5
436
  8
LAYER_1
 10
351.8365
 20
18.24594999999999
 30
0.0
  0
VERTEX
  5
437
  8
LAYER_1
 10
360.2312
 20
26.07421
 30
0.0
  0
VERTEX
  5
438
  8
LAYER_1
 10
362.4243
 20
23.72238
 30
0.0
  0
VERTEX
  5
439
  8
LAYER_1
 10
354.5965
 20
16.42281
 30
0.0
  0
VERTEX
  5
43A
  8
LAYER_1
 10
360.5937
 20
16.07731
 30
0.0
  0
VERTEX
  5
43B
  8
LAYER_1
 10
368.8516
 20
13.0781
 30
0.0
  0
VERTEX
  5
43C
  8
LAYER_1
 10
370.3627
 20
14.00665
 30
0.0
  0
VERTEX
  5
43D
  8
LAYER_1
 10
374.7935
 20
16.76837
 30
0.0
  0
VERTEX
  5
43E
  8
LAYER_1
 10
379.3306
 20
19.83398
 30
0.0
  0
VERTEX
  5
43F
  8
LAYER_1
 10
349.2148
 20
52.12921
 30
0.0
  0
VERTEX
  5
440
  8
LAYER_1
 10
351.5666
 20
54.32232
 30
0.0
  0
VERTEX
  5
441
  8
LAYER_1
 10
381.6933
 20
22.0154
 30
0.0
  0
VERTEX
  5
442
  8
LAYER_1
 10
385.0783
 20
26.3678
 30
0.0
  0
VERTEX
  5
443
  8
LAYER_1
 10
388.124
 20
30.56992
 30
0.0
  0
VERTEX
  5
444
  8
LAYER_1
 10
389.1535
 20
32.00959
 30
0.0
  0
VERTEX
  5
445
  8
LAYER_1
 10
386.4104
 20
40.57514
 30
0.0
  0
VERTEX
  5
446
  8
LAYER_1
 10
386.8799
 20
46.52752
 30
0.0
  0
VERTEX
  5
447
  8
LAYER_1
 10
378.9848
 20
39.1653
 30
0.0
  0
VERTEX
  5
448
  8
LAYER_1
 10
376.7917
 20
41.51713
 30
0.0
  0
VERTEX
  5
449
  8
LAYER_1
 10
385.1854999999999
 20
49.34442
 30
0.0
 42
0.0509000000000024
  0
VERTEX
  5
44A
  8
LAYER_1
 10
378.3185
 20
67.06634
 30
0.0
 42
0.073599999999993
  0
VERTEX
  5
44B
  8
LAYER_1
 10
369.6559999999999
 20
79.29128
 30
0.0
 42
0.1251000000000042
  0
VERTEX
  5
44C
  8
LAYER_1
 10
355.9382
 20
87.85942000000003
 30
0.0
 42
0.0316000000000107
  0
VERTEX
  5
44D
  8
LAYER_1
 10
351.9861000000001
 20
88.82491000000002
 30
0.0
  0
VERTEX
  5
44E
  8
LAYER_1
 10
339.8821
 20
77.53774
 30
0.0
  0
VERTEX
  5
44F
  8
LAYER_1
 10
337.689
 20
79.88957
 30
0.0
  0
VERTEX
  5
450
  8
LAYER_1
 10
349.0262
 20
90.46169
 30
0.0
  0
VERTEX
  5
451
  8
LAYER_1
 10
348.6105
 20
90.69153
 30
0.0
  0
VERTEX
  5
452
  8
LAYER_1
 10
347.9457
 20
93.79014
 30
0.0
  0
VERTEX
  5
453
  8
LAYER_1
 10
346.8031
 20
95.57303
 30
0.0
  0
VERTEX
  5
454
  8
LAYER_1
 10
345.7926
 20
97.24915
 30
0.0
  0
VERTEX
  5
455
  8
LAYER_1
 10
342.3047
 20
102.3472
 30
0.0
  0
VERTEX
  5
456
  8
LAYER_1
 10
341.2351
 20
103.1096
 30
0.0
  0
VERTEX
  5
457
  8
LAYER_1
 10
333.3724
 20
109.9434
 30
0.0
  0
VERTEX
  5
458
  8
LAYER_1
 10
328.6519
 20
113.7755
 30
0.0
  0
VERTEX
  5
459
  8
LAYER_1
 10
324.6782
 20
119.8175
 30
0.0
  0
VERTEX
  5
45A
  8
LAYER_1
 10
321.8277
 20
123.5226
 30
0.0
  0
VERTEX
  5
45B
  8
LAYER_1
 10
320.5982
 20
125.9331
 30
0.0
  0
VERTEX
  5
45C
  8
LAYER_1
 10
318.8366
 20
130.0311
 30
0.0
  0
VERTEX
  5
45D
  8
LAYER_1
 10
317.4804
 20
134.8336
 30
0.0
  0
VERTEX
  5
45E
  8
LAYER_1
 10
316.629
 20
135.3597
 30
0.0
  0
VERTEX
  5
45F
  8
LAYER_1
 10
314.1755
 20
139.7161
 30
0.0
  0
VERTEX
  5
460
  8
LAYER_1
 10
308.1094
 20
134.0406
 30
0.0
  0
VERTEX
  5
461
  8
LAYER_1
 10
325.5199
 20
110.9361
 30
0.0
  0
VERTEX
  5
462
  8
LAYER_1
 10
322.9758
 20
109.019
 30
0.0
  0
VERTEX
  5
463
  8
LAYER_1
 10
305.77
 20
131.8518
 30
0.0
  0
VERTEX
  5
464
  8
LAYER_1
 10
301.6739
 20
128.0194
 30
0.0
  0
VERTEX
  5
465
  8
LAYER_1
 10
302.2074
 20
127.3641
 30
0.0
  0
VERTEX
  5
466
  8
LAYER_1
 10
304.5786
 20
124.6343
 30
0.0
  0
VERTEX
  5
467
  8
LAYER_1
 10
307.0484
 20
124.3697
 30
0.0
  0
VERTEX
  5
468
  8
LAYER_1
 10
308.1822
 20
122.4652
 30
0.0
  0
VERTEX
  5
469
  8
LAYER_1
 10
307.9501
 20
120.8737
 30
0.0
  0
VERTEX
  5
46A
  8
LAYER_1
 10
309.6313
 20
119.9968
 30
0.0
  0
VERTEX
  5
46B
  8
LAYER_1
 10
310.0891
 20
118.3026
 30
0.0
  0
VERTEX
  5
46C
  8
LAYER_1
 10
313.6658
 20
116.3295
 30
0.0
  0
VERTEX
  5
46D
  8
LAYER_1
 10
316.6219
 20
111.4871
 30
0.0
  0
VERTEX
  5
46E
  8
LAYER_1
 10
320.4536
 20
107.0381
 30
0.0
  0
VERTEX
  5
46F
  8
LAYER_1
 10
322.2004
 20
102.9514
 30
0.0
  0
VERTEX
  5
470
  8
LAYER_1
 10
324.6361
 20
98.40307
 30
0.0
  0
VERTEX
  5
471
  8
LAYER_1
 10
325.4839
 20
96.91939
 30
0.0
  0
VERTEX
  5
472
  8
LAYER_1
 10
326.96
 20
93.4369
 30
0.0
  0
VERTEX
  5
473
  8
LAYER_1
 10
328.1739
 20
91.58136
 30
0.0
  0
VERTEX
  5
474
  8
LAYER_1
 10
328.684
 20
90.8269
 30
0.0
  0
VERTEX
  5
475
  8
LAYER_1
 10
329.2221
 20
89.81655
 30
0.0
  0
VERTEX
  5
476
  8
LAYER_1
 10
324.7562
 20
83.12399
 30
0.0
  0
VERTEX
  5
477
  8
LAYER_1
 10
322.2355
 20
80.77338
 30
0.0
  0
VERTEX
  5
478
  8
LAYER_1
 10
315.1291
 20
76.91974
 30
0.0
  0
VERTEX
  5
479
  8
LAYER_1
 10
306.5571
 20
81.54418
 30
0.0
  0
VERTEX
  5
47A
  8
LAYER_1
 10
302.5284
 20
84.13549
 30
0.0
  0
VERTEX
  5
47B
  8
LAYER_1
 10
298.2349
 20
86.3188
 30
0.0
  0
VERTEX
  5
47C
  8
LAYER_1
 10
294.1887
 20
90.30436
 30
0.0
  0
VERTEX
  5
47D
  8
LAYER_1
 10
289.4322
 20
93.73231
 30
0.0
  0
VERTEX
  5
47E
  8
LAYER_1
 10
287.7124
 20
97.45089
 30
0.0
  0
VERTEX
  5
47F
  8
LAYER_1
 10
286.0546
 20
98.02852
 30
0.0
  0
VERTEX
  5
480
  8
LAYER_1
 10
285.3052
 20
99.75697
 30
0.0
  0
VERTEX
  5
481
  8
LAYER_1
 10
283.7014
 20
99.63644
 30
0.0
  0
VERTEX
  5
482
  8
LAYER_1
 10
281.8806
 20
100.9003
 30
0.0
  0
VERTEX
  5
483
  8
LAYER_1
 10
281.789
 20
103.3826
 30
0.0
  0
VERTEX
  5
484
  8
LAYER_1
 10
279.2306
 20
105.939
 30
0.0
  0
VERTEX
  5
485
  8
LAYER_1
 10
278.6142
 20
106.5168
 30
0.0
  0
VERTEX
  5
486
  8
LAYER_1
 10
274.6967
 20
102.8605
 30
0.0
  0
SEQEND
  5
41C
  8
LAYER_1
  0
POLYLINE
  5
487
  8
LAYER_1
 66
     1
 10
0.0
 20
0.0
 30
0.0
  0
VERTEX
  5
489
  8
LAYER_1
 10
111.739
 20
172.259
 30
0.0
  0
VERTEX
  5
48A
  8
LAYER_1
 10
173.2497
 20
187.6523
 30
0.0
  0
VERTEX
  5
48B
  8
LAYER_1
 10
170.5348
 20
198.5007
 30
0.0
  0
VERTEX
  5
48C
  8
LAYER_1
 10
173.6543
 20
199.2814
 30
0.0
  0
VERTEX
  5
48D
  8
LAYER_1
 10
176.3692
 20
188.433
 30
0.0
  0
VERTEX
  5
48E
  8
LAYER_1
 10
235.2487
 20
203.1678
 30
0.0
  0
VERTEX
  5
48F
  8
LAYER_1
 10
232.5339
 20
214.0162
 30
0.0
  0
VERTEX
  5
490
  8
LAYER_1
 10
235.6534
 20
214.7969
 30
0.0
  0
VERTEX
  5
491
  8
LAYER_1
 10
238.3682
 20
203.9485
 30
0.0
  0
VERTEX
  5
492
  8
LAYER_1
 10
320.1578
 20
224.4167
 30
0.0
 42
-0.0709000000000097
  0
VERTEX
  5
493
  8
LAYER_1
 10
318.7005999999999
 20
228.6419
 30
0.0
 42
-0.0972000000000061
  0
VERTEX
  5
494
  8
LAYER_1
 10
314.7903
 20
230.7447
 30
0.0
  0
VERTEX
  5
495
  8
LAYER_1
 10
312.988
 20
230.8796
 30
0.0
 42
0.0373999999999888
  0
VERTEX
  5
496
  8
LAYER_1
 10
307.5749
 20
230.1603
 30
0.0
  0
VERTEX
  5
497
  8
LAYER_1
 10
305.7609
 20
229.995
 30
0.0
  0
VERTEX
  5
498
  8
LAYER_1
 10
301.1183
 20
229.1319
 30
0.0
  0
VERTEX
  5
499
  8
LAYER_1
 10
300.3066
 20
229.1038
 30
0.0
  0
VERTEX
  5
49A
  8
LAYER_1
 10
294.2322
 20
230.6312
 30
0.0
  0
VERTEX
  5
49B
  8
LAYER_1
 10
288.2538
 20
231.5255
 30
0.0
  0
VERTEX
  5
49C
  8
LAYER_1
 10
283.2575
 20
231.3367
 30
0.0
  0
VERTEX
  5
49D
  8
LAYER_1
 10
279.9338
 20
231.1529
 30
0.0
  0
VERTEX
  5
49E
  8
LAYER_1
 10
278.53
 20
230.8066
 30
0.0
  0
VERTEX
  5
49F
  8
LAYER_1
 10
272.6357
 20
226.0733
 30
0.0
  0
VERTEX
  5
4A0
  8
LAYER_1
 10
269.3072
 20
224.3568
 30
0.0
  0
VERTEX
  5
4A1
  8
LAYER_1
 10
264.1963
 20
222.4446
 30
0.0
 42
0.0209000000000051
  0
VERTEX
  5
4A2
  8
LAYER_1
 10
256.7383
 20
220.3754
 30
0.0
  0
VERTEX
  5
4A3
  8
LAYER_1
 10
251.6652
 20
218.7313
 30
0.0
  0
VERTEX
  5
4A4
  8
LAYER_1
 10
250.9816
 20
218.6283
 30
0.0
 42
-0.0068000000000156
  0
VERTEX
  5
4A5
  8
LAYER_1
 10
242.2634
 20
218.4991999999999
 30
0.0
 42
-0.0632999999999887
  0
VERTEX
  5
4A6
  8
LAYER_1
 10
240.3228
 20
219.3141
 30
0.0
 42
-0.0325000000000024
  0
VERTEX
  5
4A7
  8
LAYER_1
 10
238.2737
 20
220.6801
 30
0.0
 42
-0.0051000000000065
  0
VERTEX
  5
4A8
  8
LAYER_1
 10
237.0728
 20
221.6039
 30
0.0
 42
0.0158999999999981
  0
VERTEX
  5
4A9
  8
LAYER_1
 10
235.0986
 20
223.079
 30
0.0
 42
0.0472000000000097
  0
VERTEX
  5
4AA
  8
LAYER_1
 10
233.455
 20
224.0142
 30
0.0
  0
VERTEX
  5
4AB
  8
LAYER_1
 10
233.3645
 20
224.0523
 30
0.0
  0
VERTEX
  5
4AC
  8
LAYER_1
 10
230.2361
 20
223.2723
 30
0.0
  0
VERTEX
  5
4AD
  8
LAYER_1
 10
227.6687
 20
222.6331
 30
0.0
  0
VERTEX
  5
4AE
  8
LAYER_1
 10
214.7636
 20
222.2183
 30
0.0
  0
VERTEX
  5
4AF
  8
LAYER_1
 10
213.6952
 20
222.1259
 30
0.0
  0
VERTEX
  5
4B0
  8
LAYER_1
 10
209.7021
 20
221.4286999999999
 30
0.0
 42
0.0096000000000032
  0
VERTEX
  5
4B1
  8
LAYER_1
 10
203.279
 20
218.6172
 30
0.0
 42
-0.0117999999999912
  0
VERTEX
  5
4B2
  8
LAYER_1
 10
192.8587
 20
212.1479000000001
 30
0.0
 42
-0.050800000000018
  0
VERTEX
  5
4B3
  8
LAYER_1
 10
188.6532
 20
210.9886
 30
0.0
 42
-0.0855000000000001
  0
VERTEX
  5
4B4
  8
LAYER_1
 10
180.8616
 20
207.8183
 30
0.0
  0
VERTEX
  5
4B5
  8
LAYER_1
 10
179.1275
 20
207.3807
 30
0.0
 42
0.0279000000000016
  0
VERTEX
  5
4B6
  8
LAYER_1
 10
172.0904
 20
205.3271
 30
0.0
  0
VERTEX
  5
4B7
  8
LAYER_1
 10
166.1116
 20
208.6807
 30
0.0
  0
VERTEX
  5
4B8
  8
LAYER_1
 10
155.3486
 20
208.0961
 30
0.0
  0
VERTEX
  5
4B9
  8
LAYER_1
 10
145.9484
 20
204.7561
 30
0.0
  0
VERTEX
  5
4BA
  8
LAYER_1
 10
143.117
 20
206.6302
 30
0.0
 42
0.0106999999999978
  0
VERTEX
  5
4BB
  8
LAYER_1
 10
133.2002
 20
206.1725
 30
0.0
 42
0.0309999999999991
  0
VERTEX
  5
4BC
  8
LAYER_1
 10
127.9217
 20
204.534
 30
0.0
  0
VERTEX
  5
4BD
  8
LAYER_1
 10
124.3141
 20
203.1866
 30
0.0
  0
VERTEX
  5
4BE
  8
LAYER_1
 10
121.5957
 20
202.5997
 30
0.0
  0
VERTEX
  5
4BF
  8
LAYER_1
 10
118.727
 20
201.2447
 30
0.0
  0
VERTEX
  5
4C0
  8
LAYER_1
 10
114.9951
 20
200.2021
 30
0.0
  0
VERTEX
  5
4C1
  8
LAYER_1
 10
111.6044
 20
198.2449
 30
0.0
 42
0.0187999999999958
  0
VERTEX
  5
4C2
  8
LAYER_1
 10
106.6479
 20
194.6079
 30
0.0
 42
0.0271999999999959
  0
VERTEX
  5
4C3
  8
LAYER_1
 10
98.20765000000002
 20
191.5138
 30
0.0
  0
VERTEX
  5
4C4
  8
LAYER_1
 10
92.40585
 20
182.156
 30
0.0
  0
VERTEX
  5
4C5
  8
LAYER_1
 10
92.2027
 20
181.579
 30
0.0
 42
0.0193999999999974
  0
VERTEX
  5
4C6
  8
LAYER_1
 10
92.47431
 20
178.2159
 30
0.0
 42
0.0506999999999985
  0
VERTEX
  5
4C7
  8
LAYER_1
 10
93.54223
 20
173.6044
 30
0.0
 42
0.0217000000000007
  0
VERTEX
  5
4C8
  8
LAYER_1
 10
95.01147999999998
 20
169.842
 30
0.0
 42
0.0046999999999985
  0
VERTEX
  5
4C9
  8
LAYER_1
 10
95.7212
 20
168.2495
 30
0.0
  0
VERTEX
  5
4CA
  8
LAYER_1
 10
108.6195
 20
171.4784
 30
0.0
  0
VERTEX
  5
4CB
  8
LAYER_1
 10
105.9209
 20
182.2618
 30
0.0
  0
VERTEX
  5
4CC
  8
LAYER_1
 10
109.0404
 20
183.0425
 30
0.0
  0
VERTEX
  5
4CD
  8
LAYER_1
 10
111.739
 20
172.259
 30
0.0
  0
SEQEND
  5
488
  8
LAYER_1
  0
POLYLINE
  5
4CE
  8
LAYER_1
 66
     1
 10
0.0
 20
0.0
 30
0.0
  0
VERTEX
  5
4D0
  8
LAYER_1
 10
166.5615
 20
249.8796
 30
0.0
  0
VERTEX
  5
4D1
  8
LAYER_1
 10
168.0845
 20
249.8796
 30
0.0
  0
VERTEX
  5
4D2
  8
LAYER_1
 10
168.0845
 20
258.3295
 30
0.0
 42
0.0971999999999787
  0
VERTEX
  5
4D3
  8
LAYER_1
 10
167.9714
 20
259.0312
 30
0.0
 42
0.2303000000000207
  0
VERTEX
  5
4D4
  8
LAYER_1
 10
167.5349
 20
259.4547
 30
0.0
 42
0.0779999999999976
  0
VERTEX
  5
4D5
  8
LAYER_1
 10
167.255
 20
259.495
 30
0.0
 42
0.0352000000000098
  0
VERTEX
  5
4D6
  8
LAYER_1
 10
167.0103
 20
259.4756
 30
0.0
 42
0.0340999999999958
  0
VERTEX
  5
4D7
  8
LAYER_1
 10
166.7383
 20
259.4173
 30
0.0
  0
VERTEX
  5
4D8
  8
LAYER_1
 10
165.1338
 20
259.1065
 30
0.0
  0
VERTEX
  5
4D9
  8
LAYER_1
 10
165.1338
 20
259.4562
 30
0.0
  0
VERTEX
  5
4DA
  8
LAYER_1
 10
163.6109
 20
259.4562
 30
0.0
  0
VERTEX
  5
4DB
  8
LAYER_1
 10
163.6109
 20
249.8796
 30
0.0
  0
VERTEX
  5
4DC
  8
LAYER_1
 10
165.1338
 20
249.8796
 30
0.0
  0
VERTEX
  5
4DD
  8
LAYER_1
 10
165.1338
 20
257.6108
 30
0.0
  0
VERTEX
  5
4DE
  8
LAYER_1
 10
166.5615
 20
257.6496
 30
0.0
  0
VERTEX
  5
4DF
  8
LAYER_1
 10
166.5615
 20
249.8796
 30
0.0
  0
SEQEND
  5
4CF
  8
LAYER_1
  0
POLYLINE
  5
4E0
  8
LAYER_1
 66
     1
 10
0.0
 20
0.0
 30
0.0
  0
VERTEX
  5
4E2
  8
LAYER_1
 10
161.0546
 20
257.8633
 30
0.0
  0
VERTEX
  5
4E3
  8
LAYER_1
 10
161.0546
 20
255.5712
 30
0.0
  0
VERTEX
  5
4E4
  8
LAYER_1
 10
159.6268
 20
255.5712
 30
0.0
  0
VERTEX
  5
4E5
  8
LAYER_1
 10
159.6268
 20
257.8633
 30
0.0
  0
VERTEX
  5
4E6
  8
LAYER_1
 10
161.0546
 20
257.8633
 30
0.0
  0
SEQEND
  5
4E1
  8
LAYER_1
  0
POLYLINE
  5
4E7
  8
LAYER_1
 66
     1
 10
0.0
 20
0.0
 30
0.0
  0
VERTEX
  5
4E9
  8
LAYER_1
 10
162.5095
 20
251.0646
 30
0.0
  0
VERTEX
  5
4EA
  8
LAYER_1
 10
162.5095
 20
253.0653
 30
0.0
  0
VERTEX
  5
4EB
  8
LAYER_1
 10
161.0546
 20
253.0653
 30
0.0
  0
VERTEX
  5
4EC
  8
LAYER_1
 10
161.0546
 20
251.4725
 30
0.0
  0
VERTEX
  5
4ED
  8
LAYER_1
 10
159.6268
 20
251.4725
 30
0.0
  0
VERTEX
  5
4EE
  8
LAYER_1
 10
159.6268
 20
254.1531
 30
0.0
  0
VERTEX
  5
4EF
  8
LAYER_1
 10
162.088
 20
254.1531
 30
0.0
  0
VERTEX
  5
4F0
  8
LAYER_1
 10
162.5095
 20
254.7553
 30
0.0
  0
VERTEX
  5
4F1
  8
LAYER_1
 10
162.5095
 20
258.2712
 30
0.0
 42
0.0985999999999959
  0
VERTEX
  5
4F2
  8
LAYER_1
 10
162.3928
 20
258.9846000000001
 30
0.0
 42
0.2400999999999557
  0
VERTEX
  5
4F3
  8
LAYER_1
 10
161.9176
 20
259.4224
 30
0.0
 42
0.0686000000000021
  0
VERTEX
  5
4F4
  8
LAYER_1
 10
161.6528
 20
259.4562
 30
0.0
  0
VERTEX
  5
4F5
  8
LAYER_1
 10
159.0285
 20
259.4562
 30
0.0
 42
0.184600000000028
  0
VERTEX
  5
4F6
  8
LAYER_1
 10
158.4961
 20
259.2808
 30
0.0
 42
0.157799999999929
  0
VERTEX
  5
4F7
  8
LAYER_1
 10
158.2259
 20
258.7917
 30
0.0
 42
0.0590000000000174
  0
VERTEX
  5
4F8
  8
LAYER_1
 10
158.1719
 20
258.2712
 30
0.0
  0
VERTEX
  5
4F9
  8
LAYER_1
 10
158.1719
 20
251.0646
 30
0.0
 42
0.0986000000000024
  0
VERTEX
  5
4FA
  8
LAYER_1
 10
158.2886
 20
250.3512
 30
0.0
 42
0.2400999999999966
  0
VERTEX
  5
4FB
  8
LAYER_1
 10
158.7637
 20
249.9134
 30
0.0
 42
0.0685999999999895
  0
VERTEX
  5
4FC
  8
LAYER_1
 10
159.0285
 20
249.8796
 30
0.0
  0
VERTEX
  5
4FD
  8
LAYER_1
 10
161.6528
 20
249.8796
 30
0.0
 42
0.1846000000000071
  0
VERTEX
  5
4FE
  8
LAYER_1
 10
162.1852
 20
250.0551
 30
0.0
 42
0.1578000000000077
  0
VERTEX
  5
4FF
  8
LAYER_1
 10
162.4555
 20
250.5441
 30
0.0
 42
0.0589999999999782
  0
VERTEX
  5
500
  8
LAYER_1
 10
162.5095
 20
251.0646
 30
0.0
  0
SEQEND
  5
4E8
  8
LAYER_1
  0
POLYLINE
  5
501
  8
LAYER_1
 66
     1
 10
0.0
 20
0.0
 30
0.0
  0
VERTEX
  5
503
  8
LAYER_1
 10
157.1113
 20
251.0646
 30
0.0
  0
VERTEX
  5
504
  8
LAYER_1
 10
157.1113
 20
253.4344
 30
0.0
 42
0.0968999999999787
  0
VERTEX
  5
505
  8
LAYER_1
 10
157.0118
 20
254.0685
 30
0.0
  0
VERTEX
  5
506
  8
LAYER_1
 10
156.9957
 20
254.1046
 30
0.0
 42
0.1368999999999966
  0
VERTEX
  5
507
  8
LAYER_1
 10
156.649
 20
254.5028
 30
0.0
  0
VERTEX
  5
508
  8
LAYER_1
 10
154.3238
 20
256.4453
 30
0.0
  0
VERTEX
  5
509
  8
LAYER_1
 10
154.3238
 20
257.8245
 30
0.0
  0
VERTEX
  5
50A
  8
LAYER_1
 10
155.6564
 20
257.8245
 30
0.0
  0
VERTEX
  5
50B
  8
LAYER_1
 10
155.6564
 20
256.3482
 30
0.0
  0
VERTEX
  5
50C
  8
LAYER_1
 10
157.0977
 20
256.3482
 30
0.0
  0
VERTEX
  5
50D
  8
LAYER_1
 10
157.0977
 20
258.2712
 30
0.0
 42
0.0972000000000291
  0
VERTEX
  5
50E
  8
LAYER_1
 10
156.9828
 20
258.9846
 30
0.0
 42
0.2273999999999856
  0
VERTEX
  5
50F
  8
LAYER_1
 10
156.5459
 20
259.413
 30
0.0
 42
0.080400000000097
  0
VERTEX
  5
510
  8
LAYER_1
 10
156.2546
 20
259.4562000000001
 30
0.0
  0
VERTEX
  5
511
  8
LAYER_1
 10
153.7255
 20
259.4562
 30
0.0
 42
0.1846000000000136
  0
VERTEX
  5
512
  8
LAYER_1
 10
153.1931
 20
259.2808
 30
0.0
 42
0.1578000000000098
  0
VERTEX
  5
513
  8
LAYER_1
 10
152.9229
 20
258.7916999999999
 30
0.0
 42
0.0589999999999822
  0
VERTEX
  5
514
  8
LAYER_1
 10
152.8689
 20
258.2712
 30
0.0
  0
VERTEX
  5
515
  8
LAYER_1
 10
152.8689
 20
256.0374
 30
0.0
 42
0.1021000000000073
  0
VERTEX
  5
516
  8
LAYER_1
 10
152.97
 20
255.4271
 30
0.0
  0
VERTEX
  5
517
  8
LAYER_1
 10
152.9844
 20
255.3963
 30
0.0
 42
0.1176000000000288
  0
VERTEX
  5
518
  8
LAYER_1
 10
153.3312
 20
254.9884
 30
0.0
  0
VERTEX
  5
519
  8
LAYER_1
 10
155.6564
 20
253.0265
 30
0.0
  0
VERTEX
  5
51A
  8
LAYER_1
 10
155.6564
 20
251.5113
 30
0.0
  0
VERTEX
  5
51B
  8
LAYER_1
 10
154.3238
 20
251.5113
 30
0.0
  0
VERTEX
  5
51C
  8
LAYER_1
 10
154.3238
 20
253.1236
 30
0.0
  0
VERTEX
  5
51D
  8
LAYER_1
 10
152.8689
 20
253.1236
 30
0.0
  0
VERTEX
  5
51E
  8
LAYER_1
 10
152.8689
 20
251.0646
 30
0.0
 42
0.0972000000000058
  0
VERTEX
  5
51F
  8
LAYER_1
 10
152.9837
 20
250.3512
 30
0.0
 42
0.2274000000000193
  0
VERTEX
  5
520
  8
LAYER_1
 10
153.4206
 20
249.9229
 30
0.0
 42
0.0804000000000477
  0
VERTEX
  5
521
  8
LAYER_1
 10
153.7119
 20
249.8796
 30
0.0
  0
VERTEX
  5
522
  8
LAYER_1
 10
156.2682
 20
249.8796
 30
0.0
 42
0.1893000000000132
  0
VERTEX
  5
523
  8
LAYER_1
 10
156.7962
 20
250.0587
 30
0.0
 42
0.1547999999999704
  0
VERTEX
  5
524
  8
LAYER_1
 10
157.0588
 20
250.547
 30
0.0
 42
0.0576000000000058
  0
VERTEX
  5
525
  8
LAYER_1
 10
157.1113
 20
251.0646
 30
0.0
  0
SEQEND
  5
502
  8
LAYER_1
  0
POLYLINE
  5
526
  8
LAYER_1
 66
     1
 10
0.0
 20
0.0
 30
0.0
  0
VERTEX
  5
528
  8
LAYER_1
 10
149.823
 20
246.3831
 30
0.0
  0
VERTEX
  5
529
  8
LAYER_1
 10
152.1482
 20
259.4562
 30
0.0
  0
VERTEX
  5
52A
  8
LAYER_1
 10
150.5981
 20
259.4562
 30
0.0
  0
VERTEX
  5
52B
  8
LAYER_1
 10
149.7142
 20
253.1625
 30
0.0
  0
VERTEX
  5
52C
  8
LAYER_1
 10
148.8304
 20
259.4562
 30
0.0
  0
VERTEX
  5
52D
  8
LAYER_1
 10
147.2667
 20
259.4562
 30
0.0
  0
VERTEX
  5
52E
  8
LAYER_1
 10
148.9664
 20
249.9573
 30
0.0
  0
VERTEX
  5
52F
  8
LAYER_1
 10
148.2729
 20
246.3831
 30
0.0
  0
VERTEX
  5
530
  8
LAYER_1
 10
149.823
 20
246.3831
 30
0.0
  0
SEQEND
  5
527
  8
LAYER_1
  0
POLYLINE
  5
531
  8
LAYER_1
 66
     1
 10
0.0
 20
0.0
 30
0.0
  0
VERTEX
  5
533
  8
LAYER_1
 10
144.9551
 20
249.8796
 30
0.0
  0
VERTEX
  5
534
  8
LAYER_1
 10
146.4508
 20
249.8796
 30
0.0
  0
VERTEX
  5
535
  8
LAYER_1
 10
146.4508
 20
264.7203
 30
0.0
  0
VERTEX
  5
536
  8
LAYER_1
 10
144.9823
 20
264.7203
 30
0.0
  0
VERTEX
  5
537
  8
LAYER_1
 10
143.3506
 20
256.523
 30
0.0
 42
0.0421999999999817
  0
VERTEX
  5
538
  8
LAYER_1
 10
143.3234
 20
256.1345
 30
0.0
 42
0.024899999999908
  0
VERTEX
  5
539
  8
LAYER_1
 10
143.3098
 20
255.8431
 30
0.0
 42
-0.0217999999999941
  0
VERTEX
  5
53A
  8
LAYER_1
 10
143.2962000000001
 20
256.1345
 30
0.0
 42
-0.0290000000001153
  0
VERTEX
  5
53B
  8
LAYER_1
 10
143.2826
 20
256.3579
 30
0.0
 42
0.053999999999802
  0
VERTEX
  5
53C
  8
LAYER_1
 10
143.269
 20
256.523
 30
0.0
  0
VERTEX
  5
53D
  8
LAYER_1
 10
141.6373
 20
264.7203
 30
0.0
  0
VERTEX
  5
53E
  8
LAYER_1
 10
140.1688
 20
264.7203
 30
0.0
  0
VERTEX
  5
53F
  8
LAYER_1
 10
140.1688
 20
249.8796
 30
0.0
  0
VERTEX
  5
540
  8
LAYER_1
 10
141.6645
 20
249.8796
 30
0.0
  0
VERTEX
  5
541
  8
LAYER_1
 10
141.6645
 20
257.2029
 30
0.0
 42
0.0124000000000029
  0
VERTEX
  5
542
  8
LAYER_1
 10
141.6509
 20
257.6885
 30
0.0
 42
0.0143000000000278
  0
VERTEX
  5
543
  8
LAYER_1
 10
141.6101
 20
258.213
 30
0.0
 42
-0.012300000000044
  0
VERTEX
  5
544
  8
LAYER_1
 10
141.5693
 20
258.8151
 30
0.0
  0
VERTEX
  5
545
  8
LAYER_1
 10
142.9155
 20
251.2394
 30
0.0
  0
VERTEX
  5
546
  8
LAYER_1
 10
143.7042
 20
251.2394
 30
0.0
  0
VERTEX
  5
547
  8
LAYER_1
 10
145.0503
 20
258.8151
 30
0.0
  0
VERTEX
  5
548
  8
LAYER_1
 10
144.9959
 20
258.213
 30
0.0
 42
0.0205999999999965
  0
VERTEX
  5
549
  8
LAYER_1
 10
144.9619
 20
257.6885
 30
0.0
  0
VERTEX
  5
54A
  8
LAYER_1
 10
144.9551
 20
249.8796
 30
0.0
  0
SEQEND
  5
532
  8
LAYER_1
  0
POLYLINE
  5
54B
  8
LAYER_1
 66
     1
 10
0.0
 20
0.0
 30
0.0
  0
VERTEX
  5
54D
  8
LAYER_1
 10
195.2522
 20
44.3033
 30
0.0
  0
VERTEX
  5
54E
  8
LAYER_1
 10
193.1174
 20
44.3033
 30
0.0
  0
VERTEX
  5
54F
  8
LAYER_1
 10
193.1174
 20
33.23105
 30
0.0
  0
VERTEX
  5
550
  8
LAYER_1
 10
195.2522
 20
33.23105
 30
0.0
  0
VERTEX
  5
551
  8
LAYER_1
 10
195.2522
 20
44.3033
 30
0.0
  0
SEQEND
  5
54C
  8
LAYER_1
  0
POLYLINE
  5
552
  8
LAYER_1
 66
     1
 10
0.0
 20
0.0
 30
0.0
  0
VERTEX
  5
554
  8
LAYER_1
 10
196.8023
 20
32.70658
 30
0.0
 42
-0.0964999999999999
  0
VERTEX
  5
555
  8
LAYER_1
 10
196.6724
 20
31.90923
 30
0.0
 42
-0.0554000000000612
  0
VERTEX
  5
556
  8
LAYER_1
 10
196.5576
 20
31.69648
 30
0.0
 42
-0.2601999999999909
  0
VERTEX
  5
557
  8
LAYER_1
 10
195.8641
 20
31.34683
 30
0.0
  0
VERTEX
  5
558
  8
LAYER_1
 10
192.4919
 20
31.34683000000001
 30
0.0
 42
-0.1913000000000016
  0
VERTEX
  5
559
  8
LAYER_1
 10
191.9217
 20
31.54406
 30
0.0
 42
-0.1478999999999946
  0
VERTEX
  5
55A
  8
LAYER_1
 10
191.637
 20
32.06253
 30
0.0
 42
-0.0623000000000001
  0
VERTEX
  5
55B
  8
LAYER_1
 10
191.5673
 20
32.70658000000001
 30
0.0
  0
VERTEX
  5
55C
  8
LAYER_1
 10
191.5673
 20
44.82778
 30
0.0
 42
-0.0889999999999812
  0
VERTEX
  5
55D
  8
LAYER_1
 10
191.6854
 20
45.62608000000001
 30
0.0
 42
-0.1843000000000348
  0
VERTEX
  5
55E
  8
LAYER_1
 10
192.0603
 20
46.08852000000001
 30
0.0
 42
-0.1261999999999628
  0
VERTEX
  5
55F
  8
LAYER_1
 10
192.4919
 20
46.18753
 30
0.0
  0
VERTEX
  5
560
  8
LAYER_1
 10
195.8641
 20
46.18753
 30
0.0
 42
-0.23780000000002
  0
VERTEX
  5
561
  8
LAYER_1
 10
196.5171
 20
45.89163000000001
 30
0.0
  0
VERTEX
  5
562
  8
LAYER_1
 10
196.5576
 20
45.83787999999999
 30
0.0
 42
-0.1223999999999827
  0
VERTEX
  5
563
  8
LAYER_1
 10
196.7822
 20
45.1814
 30
0.0
 42
-0.0305000000000415
  0
VERTEX
  5
564
  8
LAYER_1
 10
196.8023
 20
44.82778
 30
0.0
  0
VERTEX
  5
565
  8
LAYER_1
 10
196.8023
 20
32.70658
 30
0.0
  0
SEQEND
  5
553
  8
LAYER_1
  0
POLYLINE
  5
566
  8
LAYER_1
 66
     1
 10
0.0
 20
0.0
 30
0.0
  0
VERTEX
  5
568
  8
LAYER_1
 10
188.9615
 20
31.34683
 30
0.0
  0
VERTEX
  5
569
  8
LAYER_1
 10
186.4818
 20
40.69025000000001
 30
0.0
 42
0.0173000000000333
  0
VERTEX
  5
56A
  8
LAYER_1
 10
186.5226
 20
40.30175
 30
0.0
 42
-0.0248000000000399
  0
VERTEX
  5
56B
  8
LAYER_1
 10
186.5634
 20
39.96181
 30
0.0
 42
-0.0183000000000005
  0
VERTEX
  5
56C
  8
LAYER_1
 10
186.577
 20
39.62188
 30
0.0
  0
VERTEX
  5
56D
  8
LAYER_1
 10
186.577
 20
31.34683
 30
0.0
  0
VERTEX
  5
56E
  8
LAYER_1
 10
185.0541
 20
31.34683
 30
0.0
  0
VERTEX
  5
56F
  8
LAYER_1
 10
185.0541
 20
46.18753
 30
0.0
  0
VERTEX
  5
570
  8
LAYER_1
 10
186.409
 20
46.18753
 30
0.0
  0
VERTEX
  5
571
  8
LAYER_1
 10
188.8886
 20
37.03835
 30
0.0
  0
VERTEX
  5
572
  8
LAYER_1
 10
188.8342
 20
37.42685
 30
0.0
 42
-0.0340000000000001
  0
VERTEX
  5
573
  8
LAYER_1
 10
188.8002
 20
37.76679
 30
0.0
  0
VERTEX
  5
574
  8
LAYER_1
 10
188.7934
 20
46.18753
 30
0.0
  0
VERTEX
  5
575
  8
LAYER_1
 10
190.3163
 20
46.18753
 30
0.0
  0
VERTEX
  5
576
  8
LAYER_1
 10
190.3163
 20
31.34683
 30
0.0
  0
VERTEX
  5
577
  8
LAYER_1
 10
188.9615
 20
31.34683
 30
0.0
  0
SEQEND
  5
567
  8
LAYER_1
  0
POLYLINE
  5
578
  8
LAYER_1
 66
     1
 10
0.0
 20
0.0
 30
0.0
  0
VERTEX
  5
57A
  8
LAYER_1
 10
182.4298
 20
31.34683
 30
0.0
  0
VERTEX
  5
57B
  8
LAYER_1
 10
182.4298
 20
33.63898
 30
0.0
  0
VERTEX
  5
57C
  8
LAYER_1
 10
183.9255
 20
33.63898
 30
0.0
  0
VERTEX
  5
57D
  8
LAYER_1
 10
183.9255
 20
31.34683
 30
0.0
  0
VERTEX
  5
57E
  8
LAYER_1
 10
182.4298
 20
31.34683
 30
0.0
  0
SEQEND
  5
579
  8
LAYER_1
  0
POLYLINE
  5
57F
  8
LAYER_1
 66
     1
 10
0.0
 20
0.0
 30
0.0
  0
VERTEX
  5
581
  8
LAYER_1
 10
179.887
 20
44.3033
 30
0.0
  0
VERTEX
  5
582
  8
LAYER_1
 10
177.9834
 20
44.3033
 30
0.0
  0
VERTEX
  5
583
  8
LAYER_1
 10
177.9834
 20
38.61178
 30
0.0
  0
VERTEX
  5
584
  8
LAYER_1
 10
179.887
 20
38.61178
 30
0.0
  0
VERTEX
  5
585
  8
LAYER_1
 10
179.887
 20
44.3033
 30
0.0
  0
SEQEND
  5
580
  8
LAYER_1
  0
POLYLINE
  5
586
  8
LAYER_1
 66
     1
 10
0.0
 20
0.0
 30
0.0
  0
VERTEX
  5
588
  8
LAYER_1
 10
181.4508
 20
38.10673
 30
0.0
 42
-0.097299999999998
  0
VERTEX
  5
589
  8
LAYER_1
 10
181.3166
 20
37.29393000000001
 30
0.0
 42
-0.0514000000000005
  0
VERTEX
  5
58A
  8
LAYER_1
 10
181.206
 20
37.08690999999998
 30
0.0
 42
-0.2568999999999851
  0
VERTEX
  5
58B
  8
LAYER_1
 10
180.5258
 20
36.72786
 30
0.0
  0
VERTEX
  5
58C
  8
LAYER_1
 10
177.9834
 20
36.72755
 30
0.0
  0
VERTEX
  5
58D
  8
LAYER_1
 10
177.9834
 20
31.34683
 30
0.0
  0
VERTEX
  5
58E
  8
LAYER_1
 10
176.4333
 20
31.34683
 30
0.0
  0
VERTEX
  5
58F
  8
LAYER_1
 10
176.4333
 20
46.18753
 30
0.0
  0
VERTEX
  5
590
  8
LAYER_1
 10
180.4989
 20
46.18752999999999
 30
0.0
 42
-0.1823999999999969
  0
VERTEX
  5
591
  8
LAYER_1
 10
181.0766
 20
45.9983
 30
0.0
 42
-0.1534000000000165
  0
VERTEX
  5
592
  8
LAYER_1
 10
181.3772
 20
45.47864000000001
 30
0.0
 42
-0.0650999999999557
  0
VERTEX
  5
593
  8
LAYER_1
 10
181.4508
 20
44.82778
 30
0.0
  0
VERTEX
  5
594
  8
LAYER_1
 10
181.4508
 20
38.10673
 30
0.0
  0
SEQEND
  5
587
  8
LAYER_1
  0
POLYLINE
  5
595
  8
LAYER_1
 66
     1
 10
0.0
 20
0.0
 30
0.0
  0
VERTEX
  5
597
  8
LAYER_1
 10
173.605
 20
31.34683
 30
0.0
  0
VERTEX
  5
598
  8
LAYER_1
 10
173.605
 20
46.18753
 30
0.0
  0
VERTEX
  5
599
  8
LAYER_1
 10
175.1551
 20
46.18753
 30
0.0
  0
VERTEX
  5
59A
  8
LAYER_1
 10
175.1551
 20
31.34683
 30
0.0
  0
VERTEX
  5
59B
  8
LAYER_1
 10
173.605
 20
31.34683
 30
0.0
  0
SEQEND
  5
596
  8
LAYER_1
  0
POLYLINE
  5
59C
  8
LAYER_1
 66
     1
 10
0.0
 20
0.0
 30
0.0
  0
VERTEX
  5
59E
  8
LAYER_1
 10
170.8175
 20
43.05585
 30
0.0
 42
0.1062000000000018
  0
VERTEX
  5
59F
  8
LAYER_1
 10
170.6848
 20
43.79249
 30
0.0
 42
0.0560999999999832
  0
VERTEX
  5
5A0
  8
LAYER_1
 10
170.5728
 20
43.98173
 30
0.0
 42
0.2476999999999891
  0
VERTEX
  5
5A1
  8
LAYER_1
 10
169.9065
 20
44.3033
 30
0.0
  0
VERTEX
  5
5A2
  8
LAYER_1
 10
168.7507
 20
44.3033
 30
0.0
  0
VERTEX
  5
5A3
  8
LAYER_1
 10
168.7507
 20
33.23105
 30
0.0
  0
VERTEX
  5
5A4
  8
LAYER_1
 10
169.8657
 20
33.23105
 30
0.0
 42
0.1823000000000067
  0
VERTEX
  5
5A5
  8
LAYER_1
 10
170.4422
 20
33.41996
 30
0.0
 42
0.0646999999998843
  0
VERTEX
  5
5A6
  8
LAYER_1
 10
170.5796
 20
33.5722
 30
0.0
 42
0.1313000000000021
  0
VERTEX
  5
5A7
  8
LAYER_1
 10
170.8079
 20
34.27277
 30
0.0
 42
0.0223000000000615
  0
VERTEX
  5
5A8
  8
LAYER_1
 10
170.8175
 20
34.49823
 30
0.0
  0
VERTEX
  5
5A9
  8
LAYER_1
 10
170.8175
 20
43.05585
 30
0.0
  0
SEQEND
  5
59D
  8
LAYER_1
  0
POLYLINE
  5
5AA
  8
LAYER_1
 66
     1
 10
0.0
 20
0.0
 30
0.0
  0
VERTEX
  5
5AC
  8
LAYER_1
 10
172.3812
 20
34.14403
 30
0.0
 42
-0.0827999999999998
  0
VERTEX
  5
5AD
  8
LAYER_1
 10
172.1779
 20
32.76501999999999
 30
0.0
 42
-0.071599999999997
  0
VERTEX
  5
5AE
  8
LAYER_1
 10
171.8441
 20
32.10440000000001
 30
0.0
 42
-0.1745000000000158
  0
VERTEX
  5
5AF
  8
LAYER_1
 10
170.9128
 20
31.41989
 30
0.0
 42
-0.0707000000000035
  0
VERTEX
  5
5B0
  8
LAYER_1
 10
170.3688
 20
31.34683
 30
0.0
  0
VERTEX
  5
5B1
  8
LAYER_1
 10
167.2006
 20
31.34683
 30
0.0
  0
VERTEX
  5
5B2
  8
LAYER_1
 10
167.2006
 20
46.18753
 30
0.0
  0
VERTEX
  5
5B3
  8
LAYER_1
 10
170.3688
 20
46.18753
 30
0.0
 42
-0.158199999999998
  0
VERTEX
  5
5B4
  8
LAYER_1
 10
171.402
 20
45.88216
 30
0.0
 42
-0.0886000000000064
  0
VERTEX
  5
5B5
  8
LAYER_1
 10
171.8509
 20
45.42024000000001
 30
0.0
 42
-0.1100999999999987
  0
VERTEX
  5
5B6
  8
LAYER_1
 10
172.315
 20
44.21301999999999
 30
0.0
 42
-0.0420999999999827
  0
VERTEX
  5
5B7
  8
LAYER_1
 10
172.3812
 20
43.3709
 30
0.0
  0
VERTEX
  5
5B8
  8
LAYER_1
 10
172.3812
 20
34.14403
 30
0.0
  0
SEQEND
  5
5AB
  8
LAYER_1
  0
POLYLINE
  5
5B9
  8
LAYER_1
 66
     1
 10
0.0
 20
0.0
 30
0.0
  0
VERTEX
  5
5BB
  8
LAYER_1
 10
164.5948
 20
31.34683
 30
0.0
  0
VERTEX
  5
5BC
  8
LAYER_1
 10
162.1151
 20
40.69025
 30
0.0
 42
0.0173000000000048
  0
VERTEX
  5
5BD
  8
LAYER_1
 10
162.1559
 20
40.30175
 30
0.0
 42
-0.0248000000000015
  0
VERTEX
  5
5BE
  8
LAYER_1
 10
162.1967
 20
39.96181
 30
0.0
 42
-0.0183000000000005
  0
VERTEX
  5
5BF
  8
LAYER_1
 10
162.2103
 20
39.62188
 30
0.0
  0
VERTEX
  5
5C0
  8
LAYER_1
 10
162.2103
 20
31.34683
 30
0.0
  0
VERTEX
  5
5C1
  8
LAYER_1
 10
160.6874
 20
31.34683
 30
0.0
  0
VERTEX
  5
5C2
  8
LAYER_1
 10
160.6874
 20
46.18753
 30
0.0
  0
VERTEX
  5
5C3
  8
LAYER_1
 10
162.0422
 20
46.18753
 30
0.0
  0
VERTEX
  5
5C4
  8
LAYER_1
 10
164.5219
 20
37.03835
 30
0.0
  0
VERTEX
  5
5C5
  8
LAYER_1
 10
164.4675
 20
37.42685
 30
0.0
 42
-0.0339999999999543
  0
VERTEX
  5
5C6
  8
LAYER_1
 10
164.4335
 20
37.76679
 30
0.0
  0
VERTEX
  5
5C7
  8
LAYER_1
 10
164.4267
 20
46.18753
 30
0.0
  0
VERTEX
  5
5C8
  8
LAYER_1
 10
165.9496
 20
46.18753
 30
0.0
  0
VERTEX
  5
5C9
  8
LAYER_1
 10
165.9496
 20
31.34683
 30
0.0
  0
VERTEX
  5
5CA
  8
LAYER_1
 10
164.5948
 20
31.34683
 30
0.0
  0
SEQEND
  5
5BA
  8
LAYER_1
  0
POLYLINE
  5
5CB
  8
LAYER_1
 66
     1
 10
0.0
 20
0.0
 30
0.0
  0
VERTEX
  5
5CD
  8
LAYER_1
 10
155.3164
 20
31.34683
 30
0.0
  0
VERTEX
  5
5CE
  8
LAYER_1
 10
155.3164
 20
46.18753
 30
0.0
  0
VERTEX
  5
5CF
  8
LAYER_1
 10
159.586
 20
46.18753
 30
0.0
  0
VERTEX
  5
5D0
  8
LAYER_1
 10
159.586
 20
44.2256
 30
0.0
  0
VERTEX
  5
5D1
  8
LAYER_1
 10
156.8665
 20
44.2256
 30
0.0
  0
VERTEX
  5
5D2
  8
LAYER_1
 10
156.8665
 20
39.89383
 30
0.0
  0
VERTEX
  5
5D3
  8
LAYER_1
 10
159.2053
 20
39.89383
 30
0.0
  0
VERTEX
  5
5D4
  8
LAYER_1
 10
159.2053
 20
37.97075
 30
0.0
  0
VERTEX
  5
5D5
  8
LAYER_1
 10
156.8665
 20
37.97075
 30
0.0
  0
VERTEX
  5
5D6
  8
LAYER_1
 10
156.8665
 20
33.30875
 30
0.0
  0
VERTEX
  5
5D7
  8
LAYER_1
 10
159.6268
 20
33.30875
 30
0.0
  0
VERTEX
  5
5D8
  8
LAYER_1
 10
159.6268
 20
31.34683
 30
0.0
  0
VERTEX
  5
5D9
  8
LAYER_1
 10
155.3164
 20
31.34683
 30
0.0
  0
SEQEND
  5
5CC
  8
LAYER_1
  0
POLYLINE
  5
5DA
  8
LAYER_1
 66
     1
 10
0.0
 20
0.0
 30
0.0
  0
VERTEX
  5
5DC
  8
LAYER_1
 10
152.7464
 20
31.34683
 30
0.0
  0
VERTEX
  5
5DD
  8
LAYER_1
 10
151.0332
 20
38.25302
 30
0.0
  0
VERTEX
  5
5DE
  8
LAYER_1
 10
151.0332
 20
39.59547
 30
0.0
  0
VERTEX
  5
5DF
  8
LAYER_1
 10
152.5561
 20
39.59547
 30
0.0
  0
VERTEX
  5
5E0
  8
LAYER_1
 10
152.5561
 20
44.3033
 30
0.0
  0
VERTEX
  5
5E1
  8
LAYER_1
 10
150.598
 20
44.3033
 30
0.0
  0
VERTEX
  5
5E2
  8
LAYER_1
 10
150.598
 20
31.34683
 30
0.0
  0
VERTEX
  5
5E3
  8
LAYER_1
 10
149.0479
 20
31.34683
 30
0.0
  0
VERTEX
  5
5E4
  8
LAYER_1
 10
149.0479
 20
46.18753
 30
0.0
  0
VERTEX
  5
5E5
  8
LAYER_1
 10
153.168
 20
46.18753000000001
 30
0.0
 42
-0.1868000000000015
  0
VERTEX
  5
5E6
  8
LAYER_1
 10
153.742
 20
45.99431000000001
 30
0.0
 42
-0.150700000000002
  0
VERTEX
  5
5E7
  8
LAYER_1
 10
154.0346
 20
45.47524000000001
 30
0.0
 42
-0.0637000000000002
  0
VERTEX
  5
5E8
  8
LAYER_1
 10
154.1062
 20
44.82778
 30
0.0
  0
VERTEX
  5
5E9
  8
LAYER_1
 10
154.1062
 20
39.42763
 30
0.0
 42
-0.0930000000000041
  0
VERTEX
  5
5EA
  8
LAYER_1
 10
153.9828
 20
38.63376999999999
 30
0.0
 42
-0.1977999999999988
  0
VERTEX
  5
5EB
  8
LAYER_1
 10
153.5571
 20
38.15314000000001
 30
0.0
 42
-0.0996000000000084
  0
VERTEX
  5
5EC
  8
LAYER_1
 10
153.1816
 20
38.06788
 30
0.0
  0
VERTEX
  5
5ED
  8
LAYER_1
 10
152.6513
 20
38.06788
 30
0.0
  0
VERTEX
  5
5EE
  8
LAYER_1
 10
154.3645
 20
31.42453
 30
0.0
  0
VERTEX
  5
5EF
  8
LAYER_1
 10
154.3645
 20
31.34683
 30
0.0
  0
VERTEX
  5
5F0
  8
LAYER_1
 10
152.7464
 20
31.34683
 30
0.0
  0
SEQEND
  5
5DB
  8
LAYER_1
  0
POLYLINE
  5
5F1
  8
LAYER_1
 66
     1
 10
0.0
 20
0.0
 30
0.0
  0
VERTEX
  5
5F3
  8
LAYER_1
 10
143.6769
 20
31.34683
 30
0.0
  0
VERTEX
  5
5F4
  8
LAYER_1
 10
143.6769
 20
46.18753
 30
0.0
  0
VERTEX
  5
5F5
  8
LAYER_1
 10
147.9465
 20
46.18753
 30
0.0
  0
VERTEX
  5
5F6
  8
LAYER_1
 10
147.9465
 20
44.2256
 30
0.0
  0
VERTEX
  5
5F7
  8
LAYER_1
 10
145.227
 20
44.2256
 30
0.0
  0
VERTEX
  5
5F8
  8
LAYER_1
 10
145.227
 20
39.89383
 30
0.0
  0
VERTEX
  5
5F9
  8
LAYER_1
 10
147.5658
 20
39.89383
 30
0.0
  0
VERTEX
  5
5FA
  8
LAYER_1
 10
147.5658
 20
37.97075
 30
0.0
  0
VERTEX
  5
5FB
  8
LAYER_1
 10
145.227
 20
37.97075
 30
0.0
  0
VERTEX
  5
5FC
  8
LAYER_1
 10
145.227
 20
33.30875
 30
0.0
  0
VERTEX
  5
5FD
  8
LAYER_1
 10
147.9873
 20
33.30875
 30
0.0
  0
VERTEX
  5
5FE
  8
LAYER_1
 10
147.9873
 20
31.34683
 30
0.0
  0
VERTEX
  5
5FF
  8
LAYER_1
 10
143.6769
 20
31.34683
 30
0.0
  0
SEQEND
  5
5F2
  8
LAYER_1
  0
POLYLINE
  5
600
  8
LAYER_1
 66
     1
 10
0.0
 20
0.0
 30
0.0
  0
VERTEX
  5
602
  8
LAYER_1
 10
142.4395
 20
32.70445
 30
0.0
 42
-0.0966000000000012
  0
VERTEX
  5
603
  8
LAYER_1
 10
142.3096
 20
31.90847
 30
0.0
 42
-0.0553999999999908
  0
VERTEX
  5
604
  8
LAYER_1
 10
142.1948
 20
31.69602000000001
 30
0.0
 42
-0.2599999999999902
  0
VERTEX
  5
605
  8
LAYER_1
 10
141.5013
 20
31.34683
 30
0.0
  0
VERTEX
  5
606
  8
LAYER_1
 10
138.3739
 20
31.34683000000001
 30
0.0
 42
-0.2526000000000135
  0
VERTEX
  5
607
  8
LAYER_1
 10
137.6969
 20
31.67705
 30
0.0
  0
VERTEX
  5
608
  8
LAYER_1
 10
137.6804
 20
31.70012
 30
0.0
 42
-0.1213999999999982
  0
VERTEX
  5
609
  8
LAYER_1
 10
137.4558
 20
32.36349
 30
0.0
 42
-0.0302000000000437
  0
VERTEX
  5
60A
  8
LAYER_1
 10
137.4357
 20
32.72084
 30
0.0
  0
VERTEX
  5
60B
  8
LAYER_1
 10
137.4357
 20
36.26135
 30
0.0
  0
VERTEX
  5
60C
  8
LAYER_1
 10
138.9858
 20
36.26135
 30
0.0
  0
VERTEX
  5
60D
  8
LAYER_1
 10
138.9858
 20
33.23105
 30
0.0
  0
VERTEX
  5
60E
  8
LAYER_1
 10
140.8894
 20
33.23105
 30
0.0
  0
VERTEX
  5
60F
  8
LAYER_1
 10
140.8894
 20
36.14055
 30
0.0
  0
VERTEX
  5
610
  8
LAYER_1
 10
137.7756
 20
40.3494
 30
0.0
 42
-0.0898999999999968
  0
VERTEX
  5
611
  8
LAYER_1
 10
137.5104
 20
40.85369
 30
0.0
 42
-0.0694000000000013
  0
VERTEX
  5
612
  8
LAYER_1
 10
137.4357
 20
41.53251
 30
0.0
  0
VERTEX
  5
613
  8
LAYER_1
 10
137.4357
 20
44.8299
 30
0.0
 42
-0.0966000000000189
  0
VERTEX
  5
614
  8
LAYER_1
 10
137.5656
 20
45.62588
 30
0.0
 42
-0.0553999999999397
  0
VERTEX
  5
615
  8
LAYER_1
 10
137.6804
 20
45.83832999999999
 30
0.0
 42
-0.2600000000000199
  0
VERTEX
  5
616
  8
LAYER_1
 10
138.3739
 20
46.18753
 30
0.0
  0
VERTEX
  5
617
  8
LAYER_1
 10
141.5013
 20
46.18752999999998
 30
0.0
 42
-0.2526000000000291
  0
VERTEX
  5
618
  8
LAYER_1
 10
142.1783
 20
45.85731
 30
0.0
  0
VERTEX
  5
619
  8
LAYER_1
 10
142.1948
 20
45.83423000000001
 30
0.0
 42
-0.1238000000000185
  0
VERTEX
  5
61A
  8
LAYER_1
 10
142.4225
 20
45.15433
 30
0.0
 42
-0.0280999999999563
  0
VERTEX
  5
61B
  8
LAYER_1
 10
142.4395
 20
44.83324
 30
0.0
  0
VERTEX
  5
61C
  8
LAYER_1
 10
142.4395
 20
41.5061
 30
0.0
  0
VERTEX
  5
61D
  8
LAYER_1
 10
140.8894
 20
41.5061
 30
0.0
  0
VERTEX
  5
61E
  8
LAYER_1
 10
140.8894
 20
44.3033
 30
0.0
  0
VERTEX
  5
61F
  8
LAYER_1
 10
138.9858
 20
44.3033
 30
0.0
  0
VERTEX
  5
620
  8
LAYER_1
 10
138.9858
 20
41.6266
 30
0.0
  0
VERTEX
  5
621
  8
LAYER_1
 10
142.0996
 20
37.43717
 30
0.0
 42
-0.080600000000006
  0
VERTEX
  5
622
  8
LAYER_1
 10
142.3648
 20
36.91345
 30
0.0
 42
-0.0694000000000006
  0
VERTEX
  5
623
  8
LAYER_1
 10
142.4395
 20
36.23464
 30
0.0
  0
VERTEX
  5
624
  8
LAYER_1
 10
142.4395
 20
32.70445
 30
0.0
  0
SEQEND
  5
601
  8
LAYER_1
  0
POLYLINE
  5
625
  8
LAYER_1
 66
     1
 10
0.0
 20
0.0
 30
0.0
  0
VERTEX
  5
627
  8
LAYER_1
 10
56.83653
 20
257.5719
 30
0.0
  0
VERTEX
  5
628
  8
LAYER_1
 10
56.83653
 20
251.6862
 30
0.0
  0
VERTEX
  5
629
  8
LAYER_1
 10
55.91594
 20
251.6862
 30
0.0
 42
-0.3463000000000133
  0
VERTEX
  5
62A
  8
LAYER_1
 10
55.48407
 20
251.9866
 30
0.0
 42
-0.0883999999999921
  0
VERTEX
  5
62B
  8
LAYER_1
 10
55.42239
 20
252.4049
 30
0.0
  0
VERTEX
  5
62C
  8
LAYER_1
 10
55.42238999999997
 20
256.9892
 30
0.0
 42
-0.1194999999999883
  0
VERTEX
  5
62D
  8
LAYER_1
 10
55.51351999999999
 20
257.4657000000001
 30
0.0
 42
-0.3004999999999288
  0
VERTEX
  5
62E
  8
LAYER_1
 10
55.90276
 20
257.6885
 30
0.0
  0
VERTEX
  5
62F
  8
LAYER_1
 10
56.05605
 20
257.6885
 30
0.0
 42
-0.0706000000001835
  0
VERTEX
  5
630
  8
LAYER_1
 10
56.20956
 20
257.6691000000001
 30
0.0
  0
VERTEX
  5
631
  8
LAYER_1
 10
56.83653
 20
257.5719
 30
0.0
  0
SEQEND
  5
626
  8
LAYER_1
  0
POLYLINE
  5
632
  8
LAYER_1
 66
     1
 10
0.0
 20
0.0
 30
0.0
  0
VERTEX
  5
634
  8
LAYER_1
 10
58.35945
 20
247.5681
 30
0.0
  0
VERTEX
  5
635
  8
LAYER_1
 10
58.35945
 20
259.4562
 30
0.0
  0
VERTEX
  5
636
  8
LAYER_1
 10
56.83653
 20
259.4562
 30
0.0
  0
VERTEX
  5
637
  8
LAYER_1
 10
56.83653
 20
259.1065
 30
0.0
  0
VERTEX
  5
638
  8
LAYER_1
 10
55.68605
 20
259.4173
 30
0.0
 42
0.0375000000000078
  0
VERTEX
  5
639
  8
LAYER_1
 10
55.40189
 20
259.4756
 30
0.0
 42
0.0324000000000002
  0
VERTEX
  5
63A
  8
LAYER_1
 10
55.11751
 20
259.495
 30
0.0
 42
0.2610000000000198
  0
VERTEX
  5
63B
  8
LAYER_1
 10
54.22431999999999
 20
259.0288
 30
0.0
 42
0.1181999999999851
  0
VERTEX
  5
63C
  8
LAYER_1
 10
53.93079999999998
 20
258.2105
 30
0.0
 42
0.0346999999999595
  0
VERTEX
  5
63D
  8
LAYER_1
 10
53.89947000000001
 20
257.7273000000001
 30
0.0
  0
VERTEX
  5
63E
  8
LAYER_1
 10
53.89946999999999
 20
251.861
 30
0.0
 42
0.0973999999999993
  0
VERTEX
  5
63F
  8
LAYER_1
 10
54.08113999999999
 20
250.8022
 30
0.0
 42
0.0548999999999855
  0
VERTEX
  5
640
  8
LAYER_1
 10
54.26489999999999
 20
250.4624
 30
0.0
 42
0.2575000000000035
  0
VERTEX
  5
641
  8
LAYER_1
 10
55.26232999999999
 20
249.938
 30
0.0
  0
VERTEX
  5
642
  8
LAYER_1
 10
56.83653
 20
249.9379
 30
0.0
  0
VERTEX
  5
643
  8
LAYER_1
 10
56.83653
 20
247.9566
 30
0.0
  0
VERTEX
  5
644
  8
LAYER_1
 10
55.49038
 20
247.9566
 30
0.0
  0
VERTEX
  5
645
  8
LAYER_1
 10
55.49038
 20
249.1026
 30
0.0
  0
VERTEX
  5
646
  8
LAYER_1
 10
54.02185
 20
249.1026
 30
0.0
  0
VERTEX
  5
647
  8
LAYER_1
 10
54.02185000000001
 20
247.5681
 30
0.0
 42
0.0986000000000011
  0
VERTEX
  5
648
  8
LAYER_1
 10
54.13858
 20
246.8547
 30
0.0
 42
0.2401000000000011
  0
VERTEX
  5
649
  8
LAYER_1
 10
54.61369
 20
246.4169
 30
0.0
 42
0.0685999999999973
  0
VERTEX
  5
64A
  8
LAYER_1
 10
54.87849
 20
246.3831
 30
0.0
  0
VERTEX
  5
64B
  8
LAYER_1
 10
57.50684
 20
246.3831
 30
0.0
 42
0.1876000000000072
  0
VERTEX
  5
64C
  8
LAYER_1
 10
58.04081
 20
246.5622
 30
0.0
 42
0.155700000000022
  0
VERTEX
  5
64D
  8
LAYER_1
 10
58.30634999999999
 20
247.0505
 30
0.0
 42
0.0581999999999951
  0
VERTEX
  5
64E
  8
LAYER_1
 10
58.35945
 20
247.5681
 30
0.0
  0
SEQEND
  5
633
  8
LAYER_1
  0
POLYLINE
  5
64F
  8
LAYER_1
 66
     1
 10
0.0
 20
0.0
 30
0.0
  0
VERTEX
  5
651
  8
LAYER_1
 10
51.38393
 20
254.1726
 30
0.0
  0
VERTEX
  5
652
  8
LAYER_1
 10
51.38393
 20
251.6085
 30
0.0
  0
VERTEX
  5
653
  8
LAYER_1
 10
49.929
 20
251.5308
 30
0.0
  0
VERTEX
  5
654
  8
LAYER_1
 10
49.929
 20
254.1726
 30
0.0
  0
VERTEX
  5
655
  8
LAYER_1
 10
51.38393
 20
254.1726
 30
0.0
  0
SEQEND
  5
650
  8
LAYER_1
  0
POLYLINE
  5
656
  8
LAYER_1
 66
     1
 10
0.0
 20
0.0
 30
0.0
  0
VERTEX
  5
658
  8
LAYER_1
 10
51.37033
 20
249.8796
 30
0.0
  0
VERTEX
  5
659
  8
LAYER_1
 10
52.82526
 20
249.8796
 30
0.0
  0
VERTEX
  5
65A
  8
LAYER_1
 10
52.82525999999999
 20
258.2712
 30
0.0
 42
0.097200000000019
  0
VERTEX
  5
65B
  8
LAYER_1
 10
52.71039000000003
 20
258.9846
 30
0.0
 42
0.2274000000000133
  0
VERTEX
  5
65C
  8
LAYER_1
 10
52.27348
 20
259.4130000000001
 30
0.0
 42
0.0803999999998959
  0
VERTEX
  5
65D
  8
LAYER_1
 10
51.98221999999999
 20
259.4562
 30
0.0
  0
VERTEX
  5
65E
  8
LAYER_1
 10
49.41229
 20
259.4562
 30
0.0
 42
0.1845999999999997
  0
VERTEX
  5
65F
  8
LAYER_1
 10
48.87989999999999
 20
259.2808
 30
0.0
 42
0.1577999999999819
  0
VERTEX
  5
660
  8
LAYER_1
 10
48.60968
 20
258.7917
 30
0.0
 42
0.0590000000000183
  0
VERTEX
  5
661
  8
LAYER_1
 10
48.55564999999999
 20
258.2712000000001
 30
0.0
  0
VERTEX
  5
662
  8
LAYER_1
 10
48.55565
 20
256.4841
 30
0.0
  0
VERTEX
  5
663
  8
LAYER_1
 10
49.929
 20
256.4841
 30
0.0
  0
VERTEX
  5
664
  8
LAYER_1
 10
49.929
 20
257.8439
 30
0.0
  0
VERTEX
  5
665
  8
LAYER_1
 10
51.38393
 20
257.8439
 30
0.0
  0
VERTEX
  5
666
  8
LAYER_1
 10
51.38393
 20
255.6489
 30
0.0
  0
VERTEX
  5
667
  8
LAYER_1
 10
49.33071
 20
255.6489
 30
0.0
 42
0.1846000000000096
  0
VERTEX
  5
668
  8
LAYER_1
 10
48.79832
 20
255.4735
 30
0.0
 42
0.1578000000000011
  0
VERTEX
  5
669
  8
LAYER_1
 10
48.52809000000001
 20
254.9844
 30
0.0
 42
0.0590000000000191
  0
VERTEX
  5
66A
  8
LAYER_1
 10
48.47406
 20
254.4639
 30
0.0
  0
VERTEX
  5
66B
  8
LAYER_1
 10
48.47405999999999
 20
251.0063
 30
0.0
 42
0.0971999999999904
  0
VERTEX
  5
66C
  8
LAYER_1
 10
48.58709000000001
 20
250.3046
 30
0.0
 42
0.2302999999999987
  0
VERTEX
  5
66D
  8
LAYER_1
 10
49.02358
 20
249.8811
 30
0.0
 42
0.0779999999999932
  0
VERTEX
  5
66E
  8
LAYER_1
 10
49.30351
 20
249.8408
 30
0.0
 42
0.0471999999999974
  0
VERTEX
  5
66F
  8
LAYER_1
 10
49.51427
 20
249.8602
 30
0.0
 42
0.0159999999999919
  0
VERTEX
  5
670
  8
LAYER_1
 10
49.76583
 20
249.9185
 30
0.0
  0
VERTEX
  5
671
  8
LAYER_1
 10
51.37033
 20
250.2099
 30
0.0
  0
VERTEX
  5
672
  8
LAYER_1
 10
51.37033
 20
249.8796
 30
0.0
  0
SEQEND
  5
657
  8
LAYER_1
  0
POLYLINE
  5
673
  8
LAYER_1
 66
     1
 10
0.0
 20
0.0
 30
0.0
  0
VERTEX
  5
675
  8
LAYER_1
 10
45.82255
 20
261.5887
 30
0.0
  0
VERTEX
  5
676
  8
LAYER_1
 10
45.82254999999999
 20
253.0311
 30
0.0
 42
-0.1119000000000075
  0
VERTEX
  5
677
  8
LAYER_1
 10
45.67365999999999
 20
252.2583
 30
0.0
 42
-0.0403999999999841
  0
VERTEX
  5
678
  8
LAYER_1
 10
45.5846
 20
252.105
 30
0.0
 42
-0.2361000000000242
  0
VERTEX
  5
679
  8
LAYER_1
 10
44.96671
 20
251.7675
 30
0.0
  0
VERTEX
  5
67A
  8
LAYER_1
 10
44.87073
 20
251.7639
 30
0.0
  0
VERTEX
  5
67B
  8
LAYER_1
 10
43.75573
 20
251.7639
 30
0.0
  0
VERTEX
  5
67C
  8
LAYER_1
 10
43.75573
 20
262.8361
 30
0.0
  0
VERTEX
  5
67D
  8
LAYER_1
 10
44.91152
 20
262.8360999999999
 30
0.0
 42
-0.2477000000000127
  0
VERTEX
  5
67E
  8
LAYER_1
 10
45.57780000000002
 20
262.5145
 30
0.0
 42
-0.1334999999999428
  0
VERTEX
  5
67F
  8
LAYER_1
 10
45.80553999999998
 20
261.8876999999999
 30
0.0
 42
-0.0303000000000402
  0
VERTEX
  5
680
  8
LAYER_1
 10
45.82255
 20
261.5887
 30
0.0
  0
SEQEND
  5
674
  8
LAYER_1
  0
POLYLINE
  5
681
  8
LAYER_1
 66
     1
 10
0.0
 20
0.0
 30
0.0
  0
VERTEX
  5
683
  8
LAYER_1
 10
47.38627
 20
252.6768
 30
0.0
  0
VERTEX
  5
684
  8
LAYER_1
 10
47.38626999999998
 20
261.9037
 30
0.0
 42
0.0827000000000016
  0
VERTEX
  5
685
  8
LAYER_1
 10
47.18041000000002
 20
263.3015
 30
0.0
 42
0.0687999999999938
  0
VERTEX
  5
686
  8
LAYER_1
 10
46.85596
 20
263.9531
 30
0.0
 42
0.1787000000000028
  0
VERTEX
  5
687
  8
LAYER_1
 10
45.91794
 20
264.6482
 30
0.0
 42
0.0699999999999489
  0
VERTEX
  5
688
  8
LAYER_1
 10
45.37384
 20
264.7203
 30
0.0
  0
VERTEX
  5
689
  8
LAYER_1
 10
42.20562
 20
264.7203
 30
0.0
  0
VERTEX
  5
68A
  8
LAYER_1
 10
42.20562
 20
249.8796
 30
0.0
  0
VERTEX
  5
68B
  8
LAYER_1
 10
45.37384
 20
249.8796
 30
0.0
 42
0.1632999999999976
  0
VERTEX
  5
68C
  8
LAYER_1
 10
46.42987000000001
 20
250.204
 30
0.0
 42
0.0807999999999928
  0
VERTEX
  5
68D
  8
LAYER_1
 10
46.84916
 20
250.6372
 30
0.0
 42
0.1113999999999988
  0
VERTEX
  5
68E
  8
LAYER_1
 10
47.31614
 20
251.8188
 30
0.0
 42
0.0439000000000019
  0
VERTEX
  5
68F
  8
LAYER_1
 10
47.38627000000001
 20
252.6768
 30
0.0
  0
SEQEND
  5
682
  8
LAYER_1
  0
POLYLINE
  5
690
  8
LAYER_1
 66
     1
 10
0.0
 20
0.0
 30
0.0
  0
VERTEX
  5
692
  8
LAYER_1
 10
36.69183
 20
249.8796
 30
0.0
  0
VERTEX
  5
693
  8
LAYER_1
 10
38.18756
 20
249.8796
 30
0.0
  0
VERTEX
  5
694
  8
LAYER_1
 10
38.18756
 20
264.7203
 30
0.0
  0
VERTEX
  5
695
  8
LAYER_1
 10
36.69183
 20
264.7203
 30
0.0
  0
VERTEX
  5
696
  8
LAYER_1
 10
36.69183
 20
249.8796
 30
0.0
  0
SEQEND
  5
691
  8
LAYER_1
  0
POLYLINE
  5
697
  8
LAYER_1
 66
     1
 10
0.0
 20
0.0
 30
0.0
  0
VERTEX
  5
699
  8
LAYER_1
 10
34.02672
 20
249.8796
 30
0.0
  0
VERTEX
  5
69A
  8
LAYER_1
 10
35.52244
 20
249.8796
 30
0.0
  0
VERTEX
  5
69B
  8
LAYER_1
 10
35.52244
 20
259.4562
 30
0.0
  0
VERTEX
  5
69C
  8
LAYER_1
 10
34.02672
 20
259.4562
 30
0.0
  0
VERTEX
  5
69D
  8
LAYER_1
 10
34.02672
 20
249.8796
 30
0.0
  0
SEQEND
  5
698
  8
LAYER_1
  0
POLYLINE
  5
69E
  8
LAYER_1
 66
     1
 10
0.0
 20
0.0
 30
0.0
  0
VERTEX
  5
6A0
  8
LAYER_1
 10
34.01312
 20
260.8353
 30
0.0
  0
VERTEX
  5
6A1
  8
LAYER_1
 10
35.53604
 20
260.8353
 30
0.0
  0
VERTEX
  5
6A2
  8
LAYER_1
 10
35.53604
 20
263.0692
 30
0.0
  0
VERTEX
  5
6A3
  8
LAYER_1
 10
34.01312
 20
263.0692
 30
0.0
  0
VERTEX
  5
6A4
  8
LAYER_1
 10
34.01312
 20
260.8353
 30
0.0
  0
SEQEND
  5
69F
  8
LAYER_1
  0
POLYLINE
  5
6A5
  8
LAYER_1
 66
     1
 10
0.0
 20
0.0
 30
0.0
  0
VERTEX
  5
6A7
  8
LAYER_1
 10
31.46444
 20
249.8796
 30
0.0
  0
VERTEX
  5
6A8
  8
LAYER_1
 10
33.15648
 20
249.8796
 30
0.0
  0
VERTEX
  5
6A9
  8
LAYER_1
 10
33.15648
 20
251.725
 30
0.0
  0
VERTEX
  5
6AA
  8
LAYER_1
 10
32.13667
 20
251.725
 30
0.0
  0
VERTEX
  5
6AB
  8
LAYER_1
 10
32.13667
 20
257.6108
 30
0.0
  0
VERTEX
  5
6AC
  8
LAYER_1
 10
33.11569
 20
257.6108
 30
0.0
  0
VERTEX
  5
6AD
  8
LAYER_1
 10
33.11569
 20
259.4562
 30
0.0
  0
VERTEX
  5
6AE
  8
LAYER_1
 10
32.13667
 20
259.4562
 30
0.0
  0
VERTEX
  5
6AF
  8
LAYER_1
 10
32.13667
 20
262.0591
 30
0.0
  0
VERTEX
  5
6B0
  8
LAYER_1
 10
30.61375
 20
262.0591
 30
0.0
  0
VERTEX
  5
6B1
  8
LAYER_1
 10
30.61375
 20
259.4562
 30
0.0
  0
VERTEX
  5
6B2
  8
LAYER_1
 10
29.89308
 20
259.4562
 30
0.0
  0
VERTEX
  5
6B3
  8
LAYER_1
 10
29.89308
 20
257.6108
 30
0.0
  0
VERTEX
  5
6B4
  8
LAYER_1
 10
30.61375
 20
257.6108
 30
0.0
  0
VERTEX
  5
6B5
  8
LAYER_1
 10
30.61375
 20
251.0646
 30
0.0
 42
0.0980000000000036
  0
VERTEX
  5
6B6
  8
LAYER_1
 10
30.72966999999999
 20
250.3512
 30
0.0
 42
0.2331000000000069
  0
VERTEX
  5
6B7
  8
LAYER_1
 10
31.18419
 20
249.9185
 30
0.0
 42
0.0749000000000483
  0
VERTEX
  5
6B8
  8
LAYER_1
 10
31.46444
 20
249.8796
 30
0.0
  0
SEQEND
  5
6A6
  8
LAYER_1
  0
POLYLINE
  5
6B9
  8
LAYER_1
 66
     1
 10
0.0
 20
0.0
 30
0.0
  0
VERTEX
  5
6BB
  8
LAYER_1
 10
26.37813
 20
251.0646
 30
0.0
  0
VERTEX
  5
6BC
  8
LAYER_1
 10
26.37813
 20
253.4344
 30
0.0
 42
0.0968999999999988
  0
VERTEX
  5
6BD
  8
LAYER_1
 10
26.27865
 20
254.0685
 30
0.0
  0
VERTEX
  5
6BE
  8
LAYER_1
 10
26.26255000000002
 20
254.1046
 30
0.0
 42
0.1368999999999818
  0
VERTEX
  5
6BF
  8
LAYER_1
 10
25.91581
 20
254.5028
 30
0.0
  0
VERTEX
  5
6C0
  8
LAYER_1
 10
23.59064
 20
256.4453
 30
0.0
  0
VERTEX
  5
6C1
  8
LAYER_1
 10
23.59064
 20
257.8245
 30
0.0
  0
VERTEX
  5
6C2
  8
LAYER_1
 10
24.92319
 20
257.8245
 30
0.0
  0
VERTEX
  5
6C3
  8
LAYER_1
 10
24.92319
 20
256.3482
 30
0.0
  0
VERTEX
  5
6C4
  8
LAYER_1
 10
26.36453
 20
256.3482
 30
0.0
  0
VERTEX
  5
6C5
  8
LAYER_1
 10
26.36453000000002
 20
258.2712
 30
0.0
 42
0.0971999999999723
  0
VERTEX
  5
6C6
  8
LAYER_1
 10
26.24965
 20
258.9846
 30
0.0
 42
0.2274000000000019
  0
VERTEX
  5
6C7
  8
LAYER_1
 10
25.81275
 20
259.413
 30
0.0
 42
0.0804000000001024
  0
VERTEX
  5
6C8
  8
LAYER_1
 10
25.52148
 20
259.4562000000001
 30
0.0
  0
VERTEX
  5
6C9
  8
LAYER_1
 10
22.99235
 20
259.4562
 30
0.0
 42
0.1846000000000021
  0
VERTEX
  5
6CA
  8
LAYER_1
 10
22.45995999999999
 20
259.2808
 30
0.0
 42
0.1577999999999809
  0
VERTEX
  5
6CB
  8
LAYER_1
 10
22.18974000000001
 20
258.7917
 30
0.0
 42
0.0590000000000264
  0
VERTEX
  5
6CC
  8
LAYER_1
 10
22.13571
 20
258.2712
 30
0.0
  0
VERTEX
  5
6CD
  8
LAYER_1
 10
22.13571000000002
 20
256.0374
 30
0.0
 42
0.1021000000000129
  0
VERTEX
  5
6CE
  8
LAYER_1
 10
22.23687
 20
255.4271
 30
0.0
  0
VERTEX
  5
6CF
  8
LAYER_1
 10
22.25128999999999
 20
255.3963
 30
0.0
 42
0.1175999999999717
  0
VERTEX
  5
6D0
  8
LAYER_1
 10
22.59802000000001
 20
254.9884
 30
0.0
  0
VERTEX
  5
6D1
  8
LAYER_1
 10
24.92319
 20
253.0265
 30
0.0
  0
VERTEX
  5
6D2
  8
LAYER_1
 10
24.92319
 20
251.5113
 30
0.0
  0
VERTEX
  5
6D3
  8
LAYER_1
 10
23.59064
 20
251.5113
 30
0.0
  0
VERTEX
  5
6D4
  8
LAYER_1
 10
23.59064
 20
253.1236
 30
0.0
  0
VERTEX
  5
6D5
  8
LAYER_1
 10
22.13571
 20
253.1236
 30
0.0
  0
VERTEX
  5
6D6
  8
LAYER_1
 10
22.13571
 20
251.0646
 30
0.0
 42
0.0972000000000077
  0
VERTEX
  5
6D7
  8
LAYER_1
 10
22.25057999999999
 20
250.3512
 30
0.0
 42
0.2274000000000053
  0
VERTEX
  5
6D8
  8
LAYER_1
 10
22.68749
 20
249.9229
 30
0.0
 42
0.0804000000000015
  0
VERTEX
  5
6D9
  8
LAYER_1
 10
22.97875
 20
249.8796
 30
0.0
  0
VERTEX
  5
6DA
  8
LAYER_1
 10
25.53508
 20
249.8796
 30
0.0
 42
0.1893000000000283
  0
VERTEX
  5
6DB
  8
LAYER_1
 10
26.06306000000001
 20
250.0587
 30
0.0
 42
0.1547999999999977
  0
VERTEX
  5
6DC
  8
LAYER_1
 10
26.32563
 20
250.547
 30
0.0
 42
0.0575999999999966
  0
VERTEX
  5
6DD
  8
LAYER_1
 10
26.37813
 20
251.0646
 30
0.0
  0
SEQEND
  5
6BA
  8
LAYER_1
  0
POLYLINE
  5
6DE
  8
LAYER_1
 66
     1
 10
0.0
 20
0.0
 30
0.0
  0
VERTEX
  5
6E0
  8
LAYER_1
 10
19.57938
 20
257.6496
 30
0.0
  0
VERTEX
  5
6E1
  8
LAYER_1
 10
19.57938
 20
251.6862
 30
0.0
  0
VERTEX
  5
6E2
  8
LAYER_1
 10
18.13804
 20
251.6862
 30
0.0
  0
VERTEX
  5
6E3
  8
LAYER_1
 10
18.13804
 20
257.6496
 30
0.0
  0
VERTEX
  5
6E4
  8
LAYER_1
 10
19.57938
 20
257.6496
 30
0.0
  0
SEQEND
  5
6DF
  8
LAYER_1
  0
POLYLINE
  5
6E5
  8
LAYER_1
 66
     1
 10
0.0
 20
0.0
 30
0.0
  0
VERTEX
  5
6E7
  8
LAYER_1
 10
21.0615
 20
251.0646
 30
0.0
  0
VERTEX
  5
6E8
  8
LAYER_1
 10
21.06149999999999
 20
258.2712
 30
0.0
 42
0.097199999999992
  0
VERTEX
  5
6E9
  8
LAYER_1
 10
20.94663000000003
 20
258.9846
 30
0.0
 42
0.2274000000000133
  0
VERTEX
  5
6EA
  8
LAYER_1
 10
20.50972
 20
259.4130000000001
 30
0.0
 42
0.080399999999899
  0
VERTEX
  5
6EB
  8
LAYER_1
 10
20.21846
 20
259.4562
 30
0.0
  0
VERTEX
  5
6EC
  8
LAYER_1
 10
17.49896
 20
259.4562
 30
0.0
 42
0.1846000000000021
  0
VERTEX
  5
6ED
  8
LAYER_1
 10
16.96656999999999
 20
259.2808
 30
0.0
 42
0.1577999999999799
  0
VERTEX
  5
6EE
  8
LAYER_1
 10
16.69635000000001
 20
258.7917
 30
0.0
 42
0.0590000000000193
  0
VERTEX
  5
6EF
  8
LAYER_1
 10
16.64232
 20
258.2712000000001
 30
0.0
  0
VERTEX
  5
6F0
  8
LAYER_1
 10
16.64232000000001
 20
251.0646
 30
0.0
 42
0.0986000000000031
  0
VERTEX
  5
6F1
  8
LAYER_1
 10
16.75905
 20
250.3512
 30
0.0
 42
0.2401000000000078
  0
VERTEX
  5
6F2
  8
LAYER_1
 10
17.23416
 20
249.9134
 30
0.0
 42
0.0685999999999994
  0
VERTEX
  5
6F3
  8
LAYER_1
 10
17.49896
 20
249.8796
 30
0.0
  0
VERTEX
  5
6F4
  8
LAYER_1
 10
20.21846
 20
249.8796
 30
0.0
 42
0.1893000000000283
  0
VERTEX
  5
6F5
  8
LAYER_1
 10
20.74644000000001
 20
250.0587
 30
0.0
 42
0.1547999999999977
  0
VERTEX
  5
6F6
  8
LAYER_1
 10
21.00901
 20
250.547
 30
0.0
 42
0.0576000000000022
  0
VERTEX
  5
6F7
  8
LAYER_1
 10
21.0615
 20
251.0646
 30
0.0
  0
SEQEND
  5
6E6
  8
LAYER_1
  0
POLYLINE
  5
6F8
  8
LAYER_1
 66
     1
 10
0.0
 20
0.0
 30
0.0
  0
VERTEX
  5
6FA
  8
LAYER_1
 10
14.15398
 20
249.8796
 30
0.0
  0
VERTEX
  5
6FB
  8
LAYER_1
 10
15.77208
 20
249.8796
 30
0.0
  0
VERTEX
  5
6FC
  8
LAYER_1
 10
15.77208
 20
249.9573
 30
0.0
  0
VERTEX
  5
6FD
  8
LAYER_1
 10
14.05879
 20
256.6007
 30
0.0
  0
VERTEX
  5
6FE
  8
LAYER_1
 10
14.5891
 20
256.6007
 30
0.0
 42
0.1910000000000081
  0
VERTEX
  5
6FF
  8
LAYER_1
 10
15.17695000000001
 20
256.833
 30
0.0
 42
0.1442000000000006
  0
VERTEX
  5
700
  8
LAYER_1
 10
15.45652999999998
 20
257.3827
 30
0.0
 42
0.0560000000000207
  0
VERTEX
  5
701
  8
LAYER_1
 10
15.51373
 20
257.9603999999999
 30
0.0
  0
VERTEX
  5
702
  8
LAYER_1
 10
15.51373000000003
 20
263.3606
 30
0.0
 42
0.0901999999999846
  0
VERTEX
  5
703
  8
LAYER_1
 10
15.39387000000001
 20
264.1589
 30
0.0
 42
0.1877999999999882
  0
VERTEX
  5
704
  8
LAYER_1
 10
15.00661
 20
264.625
 30
0.0
 42
0.1218000000000695
  0
VERTEX
  5
705
  8
LAYER_1
 10
14.5755
 20
264.7203000000001
 30
0.0
  0
VERTEX
  5
706
  8
LAYER_1
 10
10.45546
 20
264.7203
 30
0.0
  0
VERTEX
  5
707
  8
LAYER_1
 10
10.45546
 20
249.8796
 30
0.0
  0
VERTEX
  5
708
  8
LAYER_1
 10
12.00557
 20
249.8796
 30
0.0
  0
VERTEX
  5
709
  8
LAYER_1
 10
12.00557
 20
262.8361
 30
0.0
  0
VERTEX
  5
70A
  8
LAYER_1
 10
13.96361
 20
262.8361
 30
0.0
  0
VERTEX
  5
70B
  8
LAYER_1
 10
13.96361
 20
258.1283
 30
0.0
  0
VERTEX
  5
70C
  8
LAYER_1
 10
12.44069
 20
258.1283
 30
0.0
  0
VERTEX
  5
70D
  8
LAYER_1
 10
12.44069
 20
256.7858
 30
0.0
  0
VERTEX
  5
70E
  8
LAYER_1
 10
14.15398
 20
249.8796
 30
0.0
  0
SEQEND
  5
6F9
  8
LAYER_1
  0
ENDSEC
  0
EOF
