  0
SECTION
  2
HEADER
  9
$ACADVER
  1
AC1024
  9
$ACADMAINTVER
 70
     6
  9
$DWGCODEPAGE
  3
ANSI_1256
  9
$INSBASE
 10
0.0
 20
0.0
 30
0.0
  9
$EXTMIN
 10
1.000000000000000E+20
 20
1.000000000000000E+20
 30
1.000000000000000E+20
  9
$EXTMAX
 10
-1.000000000000000E+20
 20
-1.000000000000000E+20
 30
-1.000000000000000E+20
  9
$LIMMIN
 10
0.0
 20
0.0
  9
$LIMMAX
 10
12.0
 20
9.0
  9
$ORTHOMODE
 70
     0
  9
$REGENMODE
 70
     1
  9
$FILLMODE
 70
     1
  9
$QTEXTMODE
 70
     0
  9
$MIRRTEXT
 70
     1
  9
$LTSCALE
 40
1.0
  9
$ATTMODE
 70
     1
  9
$TEXTSIZE
 40
0.2
  9
$TRACEWID
 40
0.05
  9
$TEXTSTYLE
  7
Standard
  9
$CLAYER
  8
0
  9
$CELTYPE
  6
ByLayer
  9
$CECOLOR
 62
   256
  9
$CELTSCALE
 40
1.0
  9
$DISPSILH
 70
     0
  9
$DIMSCALE
 40
1.0
  9
$DIMASZ
 40
0.18
  9
$DIMEXO
 40
0.0625
  9
$DIMDLI
 40
0.38
  9
$DIMRND
 40
0.0
  9
$DIMDLE
 40
0.0
  9
$DIMEXE
 40
0.18
  9
$DIMTP
 40
0.0
  9
$DIMTM
 40
0.0
  9
$DIMTXT
 40
0.18
  9
$DIMCEN
 40
0.09
  9
$DIMTSZ
 40
0.0
  9
$DIMTOL
 70
     0
  9
$DIMLIM
 70
     0
  9
$DIMTIH
 70
     1
  9
$DIMTOH
 70
     1
  9
$DIMSE1
 70
     0
  9
$DIMSE2
 70
     0
  9
$DIMTAD
 70
     0
  9
$DIMZIN
 70
     0
  9
$DIMBLK
  1

  9
$DIMASO
 70
     1
  9
$DIMSHO
 70
     1
  9
$DIMPOST
  1

  9
$DIMAPOST
  1

  9
$DIMALT
 70
     0
  9
$DIMALTD
 70
     2
  9
$DIMALTF
 40
25.4
  9
$DIMLFAC
 40
1.0
  9
$DIMTOFL
 70
     0
  9
$DIMTVP
 40
0.0
  9
$DIMTIX
 70
     0
  9
$DIMSOXD
 70
     0
  9
$DIMSAH
 70
     0
  9
$DIMBLK1
  1

  9
$DIMBLK2
  1

  9
$DIMSTYLE
  2
Standard
  9
$DIMCLRD
 70
     0
  9
$DIMCLRE
 70
     0
  9
$DIMCLRT
 70
     0
  9
$DIMTFAC
 40
1.0
  9
$DIMGAP
 40
0.09
  9
$DIMJUST
 70
     0
  9
$DIMSD1
 70
     0
  9
$DIMSD2
 70
     0
  9
$DIMTOLJ
 70
     1
  9
$DIMTZIN
 70
     0
  9
$DIMALTZ
 70
     0
  9
$DIMALTTZ
 70
     0
  9
$DIMUPT
 70
     0
  9
$DIMDEC
 70
     4
  9
$DIMTDEC
 70
     4
  9
$DIMALTU
 70
     2
  9
$DIMALTTD
 70
     2
  9
$DIMTXSTY
  7
Standard
  9
$DIMAUNIT
 70
     0
  9
$DIMADEC
 70
     0
  9
$DIMALTRND
 40
0.0
  9
$DIMAZIN
 70
     0
  9
$DIMDSEP
 70
    46
  9
$DIMATFIT
 70
     3
  9
$DIMFRAC
 70
     0
  9
$DIMLDRBLK
  1

  9
$DIMLUNIT
 70
     2
  9
$DIMLWD
 70
    -2
  9
$DIMLWE
 70
    -2
  9
$DIMTMOVE
 70
     0
  9
$DIMFXL
 40
1.0
  9
$DIMFXLON
 70
     0
  9
$DIMJOGANG
 40
0.7853981633974483
  9
$DIMTFILL
 70
     0
  9
$DIMTFILLCLR
 70
     0
  9
$DIMARCSYM
 70
     0
  9
$DIMLTYPE
  6

  9
$DIMLTEX1
  6

  9
$DIMLTEX2
  6

  9
$DIMTXTDIRECTION
 70
     0
  9
$LUNITS
 70
     2
  9
$LUPREC
 70
     4
  9
$SKETCHINC
 40
0.1
  9
$FILLETRAD
 40
0.5
  9
$AUNITS
 70
     0
  9
$AUPREC
 70
     0
  9
$MENU
  1
.
  9
$ELEVATION
 40
0.0
  9
$PELEVATION
 40
0.0
  9
$THICKNESS
 40
0.0
  9
$LIMCHECK
 70
     0
  9
$CHAMFERA
 40
0.5
  9
$CHAMFERB
 40
0.5
  9
$CHAMFERC
 40
1.0
  9
$CHAMFERD
 40
0.0
  9
$SKPOLY
 70
     0
  9
$TDCREATE
 40
2457816.95232515
  9
$TDUCREATE
 40
2457816.82732515
  9
$TDUPDATE
 40
2457816.952325208
  9
$TDUUPDATE
 40
2457816.827325208
  9
$TDINDWG
 40
0.0000000116
  9
$TDUSRTIMER
 40
0.0000000116
  9
$USRTIMER
 70
     1
  9
$ANGBASE
 50
0.0
  9
$ANGDIR
 70
     0
  9
$PDMODE
 70
     0
  9
$PDSIZE
 40
0.0
  9
$PLINEWID
 40
0.0
  9
$SPLFRAME
 70
     0
  9
$SPLINETYPE
 70
     6
  9
$SPLINESEGS
 70
     8
  9
$HANDSEED
  5
F1
  9
$SURFTAB1
 70
     6
  9
$SURFTAB2
 70
     6
  9
$SURFTYPE
 70
     6
  9
$SURFU
 70
     6
  9
$SURFV
 70
     6
  9
$UCSBASE
  2

  9
$UCSNAME
  2

  9
$UCSORG
 10
0.0
 20
0.0
 30
0.0
  9
$UCSXDIR
 10
1.0
 20
0.0
 30
0.0
  9
$UCSYDIR
 10
0.0
 20
1.0
 30
0.0
  9
$UCSORTHOREF
  2

  9
$UCSORTHOVIEW
 70
     0
  9
$UCSORGTOP
 10
0.0
 20
0.0
 30
0.0
  9
$UCSORGBOTTOM
 10
0.0
 20
0.0
 30
0.0
  9
$UCSORGLEFT
 10
0.0
 20
0.0
 30
0.0
  9
$UCSORGRIGHT
 10
0.0
 20
0.0
 30
0.0
  9
$UCSORGFRONT
 10
0.0
 20
0.0
 30
0.0
  9
$UCSORGBACK
 10
0.0
 20
0.0
 30
0.0
  9
$PUCSBASE
  2

  9
$PUCSNAME
  2

  9
$PUCSORG
 10
0.0
 20
0.0
 30
0.0
  9
$PUCSXDIR
 10
1.0
 20
0.0
 30
0.0
  9
$PUCSYDIR
 10
0.0
 20
1.0
 30
0.0
  9
$PUCSORTHOREF
  2

  9
$PUCSORTHOVIEW
 70
     0
  9
$PUCSORGTOP
 10
0.0
 20
0.0
 30
0.0
  9
$PUCSORGBOTTOM
 10
0.0
 20
0.0
 30
0.0
  9
$PUCSORGLEFT
 10
0.0
 20
0.0
 30
0.0
  9
$PUCSORGRIGHT
 10
0.0
 20
0.0
 30
0.0
  9
$PUCSORGFRONT
 10
0.0
 20
0.0
 30
0.0
  9
$PUCSORGBACK
 10
0.0
 20
0.0
 30
0.0
  9
$USERI1
 70
     0
  9
$USERI2
 70
     0
  9
$USERI3
 70
     0
  9
$USERI4
 70
     0
  9
$USERI5
 70
     0
  9
$USERR1
 40
0.0
  9
$USERR2
 40
0.0
  9
$USERR3
 40
0.0
  9
$USERR4
 40
0.0
  9
$USERR5
 40
0.0
  9
$WORLDVIEW
 70
     1
  9
$SHADEDGE
 70
     3
  9
$SHADEDIF
 70
    70
  9
$TILEMODE
 70
     1
  9
$MAXACTVP
 70
    64
  9
$PINSBASE
 10
0.0
 20
0.0
 30
0.0
  9
$PLIMCHECK
 70
     0
  9
$PEXTMIN
 10
1.000000000000000E+20
 20
1.000000000000000E+20
 30
1.000000000000000E+20
  9
$PEXTMAX
 10
-1.000000000000000E+20
 20
-1.000000000000000E+20
 30
-1.000000000000000E+20
  9
$PLIMMIN
 10
0.0
 20
0.0
  9
$PLIMMAX
 10
12.0
 20
9.0
  9
$UNITMODE
 70
     0
  9
$VISRETAIN
 70
     1
  9
$PLINEGEN
 70
     0
  9
$PSLTSCALE
 70
     1
  9
$TREEDEPTH
 70
  3020
  9
$CMLSTYLE
  2
Standard
  9
$CMLJUST
 70
     0
  9
$CMLSCALE
 40
1.0
  9
$PROXYGRAPHICS
 70
     1
  9
$MEASUREMENT
 70
     0
  9
$CELWEIGHT
370
    -1
  9
$ENDCAPS
280
     0
  9
$JOINSTYLE
280
     0
  9
$LWDISPLAY
290
     1
  9
$INSUNITS
 70
     1
  9
$HYPERLINKBASE
  1

  9
$STYLESHEET
  1

  9
$XEDIT
290
     1
  9
$CEPSNTYPE
380
     0
  9
$PSTYLEMODE
290
     1
  9
$FINGERPRINTGUID
  2
{74C32CC6-D86D-4155-BB6A-604C9D1F1894}
  9
$VERSIONGUID
  2
{FAEB1C32-E019-11D5-929B-00C0DF256EC4}
  9
$EXTNAMES
290
     1
  9
$PSVPSCALE
 40
0.0
  9
$OLESTARTUP
290
     0
  9
$SORTENTS
280
   127
  9
$INDEXCTL
280
     0
  9
$HIDETEXT
280
     1
  9
$XCLIPFRAME
280
     2
  9
$HALOGAP
280
     0
  9
$OBSCOLOR
 70
   257
  9
$OBSLTYPE
280
     0
  9
$INTERSECTIONDISPLAY
280
     0
  9
$INTERSECTIONCOLOR
 70
   257
  9
$DIMASSOC
280
     2
  9
$PROJECTNAME
  1

  9
$CAMERADISPLAY
290
     0
  9
$LENSLENGTH
 40
50.0
  9
$CAMERAHEIGHT
 40
0.0
  9
$STEPSPERSEC
 40
2.0
  9
$STEPSIZE
 40
6.0
  9
$3DDWFPREC
 40
2.0
  9
$PSOLWIDTH
 40
0.25
  9
$PSOLHEIGHT
 40
4.0
  9
$LOFTANG1
 40
1.570796326794897
  9
$LOFTANG2
 40
1.570796326794897
  9
$LOFTMAG1
 40
0.0
  9
$LOFTMAG2
 40
0.0
  9
$LOFTPARAM
 70
     7
  9
$LOFTNORMALS
280
     1
  9
$LATITUDE
 40
37.795
  9
$LONGITUDE
 40
-122.394
  9
$NORTHDIRECTION
 40
0.0
  9
$TIMEZONE
 70
 -8000
  9
$LIGHTGLYPHDISPLAY
280
     1
  9
$TILEMODELIGHTSYNCH
280
     1
  9
$CMATERIAL
347
3C
  9
$SOLIDHIST
280
     1
  9
$SHOWHIST
280
     1
  9
$DWFFRAME
280
     2
  9
$DGNFRAME
280
     2
  9
$REALWORLDSCALE
290
     1
  9
$INTERFERECOLOR
 62
   256
  9
$CSHADOW
280
     0
  9
$SHADOWPLANELOCATION
 40
0.0
  0
ENDSEC
  0
SECTION
  2
CLASSES
  0
CLASS
  1
ACDBDICTIONARYWDFLT
  2
AcDbDictionaryWithDefault
  3
ObjectDBX Classes
 90
        0
 91
        4
280
     0
281
     0
  0
CLASS
  1
VISUALSTYLE
  2
AcDbVisualStyle
  3
ObjectDBX Classes
 90
     4095
 91
        4
280
     0
281
     0
  0
CLASS
  1
MATERIAL
  2
AcDbMaterial
  3
ObjectDBX Classes
 90
     1153
 91
        4
280
     0
281
     0
  0
CLASS
  1
SUN
  2
AcDbSun
  3
SCENEOE
 90
     1024
 91
        4
280
     0
281
     0
  0
ENDSEC
  0
SECTION
  2
TABLES
  0
TABLE
  2
VPORT
  5
8
330
0
100
AcDbSymbolTable
 70
     1
  0
VPORT
  5
29
330
8
100
AcDbSymbolTableRecord
100
AcDbViewportTableRecord
  2
*Active
 70
     0
 10
0.0
 20
0.0
 11
1.0
 21
1.0
 12
0.0
 22
0.0
 13
0.0
 23
0.0
 14
0.5
 24
0.5
 15
0.5
 25
0.5
 16
0.0
 26
0.0
 36
1.0
 17
10.50007777515277
 27
-14.85000416295415
 37
0.0
 40
29.70000832590831
 41
0.7070757462376334
 42
50.0
 43
0.0
 44
0.0
 50
0.0
 51
0.0
 71
     0
 72
   100
 73
     1
 74
     3
 75
     0
 76
     0
 77
     0
 78
     0
281
     0
 65
     1
110
0.0
120
0.0
130
0.0
111
1.0
121
0.0
131
0.0
112
0.0
122
1.0
132
0.0
 79
     0
146
0.0
 60
     3
 61
     5
292
     1
282
     1
141
0.0
142
0.0
 63
   250
361
3F
  0
ENDTAB
  0
TABLE
  2
LTYPE
  5
5
330
0
100
AcDbSymbolTable
 70
     1
  0
LTYPE
  5
14
330
5
100
AcDbSymbolTableRecord
100
AcDbLinetypeTableRecord
  2
ByBlock
 70
     0
  3

 72
    65
 73
     0
 40
0.0
  0
LTYPE
  5
15
330
5
100
AcDbSymbolTableRecord
100
AcDbLinetypeTableRecord
  2
ByLayer
 70
     0
  3

 72
    65
 73
     0
 40
0.0
  0
LTYPE
  5
16
330
5
100
AcDbSymbolTableRecord
100
AcDbLinetypeTableRecord
  2
Continuous
 70
     0
  3
Solid line
 72
    65
 73
     0
 40
0.0
  0
ENDTAB
  0
TABLE
  2
LAYER
  5
2
330
0
100
AcDbSymbolTable
 70
     2
  0
LAYER
  5
10
330
2
100
AcDbSymbolTableRecord
100
AcDbLayerTableRecord
  2
0
 70
     0
 62
     7
  6
Continuous
370
    -3
390
F
347
3E
  0
LAYER
  5
40
330
2
100
AcDbSymbolTableRecord
100
AcDbLayerTableRecord
  2
Layer 1
 70
     0
 62
     7
  6
Continuous
370
    -3
390
F
347
3E
  0
ENDTAB
  0
TABLE
  2
STYLE
  5
3
330
0
100
AcDbSymbolTable
 70
     1
  0
STYLE
  5
11
330
3
100
AcDbSymbolTableRecord
100
AcDbTextStyleTableRecord
  2
Standard
 70
     0
 40
0.0
 41
1.0
 50
0.0
 71
     0
 42
0.2
  3
txt
  4

  0
ENDTAB
  0
TABLE
  2
VIEW
  5
6
330
0
100
AcDbSymbolTable
 70
     0
  0
ENDTAB
  0
TABLE
  2
UCS
  5
7
330
0
100
AcDbSymbolTable
 70
     0
  0
ENDTAB
  0
TABLE
  2
APPID
  5
9
330
0
100
AcDbSymbolTable
 70
     1
  0
APPID
  5
12
330
9
100
AcDbSymbolTableRecord
100
AcDbRegAppTableRecord
  2
ACAD
 70
     0
  0
ENDTAB
  0
TABLE
  2
DIMSTYLE
  5
A
330
0
100
AcDbSymbolTable
 70
     1
100
AcDbDimStyleTable
  0
DIMSTYLE
105
27
330
A
100
AcDbSymbolTableRecord
100
AcDbDimStyleTableRecord
  2
Standard
 70
     0
178
     0
340
11
  0
ENDTAB
  0
TABLE
  2
BLOCK_RECORD
  5
1
330
0
100
AcDbSymbolTable
 70
     2
  0
BLOCK_RECORD
  5
1F
330
1
100
AcDbSymbolTableRecord
100
AcDbBlockTableRecord
  2
*Model_Space
340
22
 70
     0
280
     1
281
     0
  0
BLOCK_RECORD
  5
1B
330
1
100
AcDbSymbolTableRecord
100
AcDbBlockTableRecord
  2
*Paper_Space
340
1E
 70
     0
280
     1
281
     0
  0
BLOCK_RECORD
  5
23
330
1
100
AcDbSymbolTableRecord
100
AcDbBlockTableRecord
  2
*Paper_Space0
340
26
 70
     0
280
     1
281
     0
  0
BLOCK_RECORD
  5
49
330
1
100
AcDbSymbolTableRecord
100
AcDbBlockTableRecord
  2
block 2
340
0
102
{BLKREFS
331
4A
102
}
 70
     0
280
     1
281
     0
  0
ENDTAB
  0
ENDSEC
  0
SECTION
  2
BLOCKS
  0
BLOCK
  5
20
330
1F
100
AcDbEntity
  8
0
100
AcDbBlockBegin
  2
*Model_Space
 70
     0
 10
0.0
 20
0.0
 30
0.0
  3
*Model_Space
  1

  0
ENDBLK
  5
21
330
1F
100
AcDbEntity
  8
0
100
AcDbBlockEnd
  0
BLOCK
  5
1C
330
1B
100
AcDbEntity
 67
     1
  8
0
100
AcDbBlockBegin
  2
*Paper_Space
 70
     0
 10
0.0
 20
0.0
 30
0.0
  3
*Paper_Space
  1

  0
ENDBLK
  5
1D
330
1B
100
AcDbEntity
 67
     1
  8
0
100
AcDbBlockEnd
  0
BLOCK
  5
24
330
23
100
AcDbEntity
  8
0
100
AcDbBlockBegin
  2
*Paper_Space0
 70
     0
 10
0.0
 20
0.0
 30
0.0
  3
*Paper_Space0
  1

  0
ENDBLK
  5
25
330
23
100
AcDbEntity
  8
0
100
AcDbBlockEnd
  0
BLOCK
  5
4B
330
49
100
AcDbEntity
  8
0
100
AcDbBlockBegin
  2
block 2
 70
     0
 10
0.0
 20
0.0
 30
0.0
  3
block 2
  1

  0
SPLINE
  5
4D
330
49
100
AcDbEntity
  8
Layer 1
370
     0
100
AcDbSpline
210
0.0
220
0.0
230
1.0
 70
    11
 71
     3
 72
    26
 73
    22
 74
     0
 42
0.0000000001
 43
0.0000000001
 12
1.0
 22
0.0
 32
0.0
 13
1.0
 23
0.0
 33
0.0
 40
0.0
 40
0.0
 40
0.0
 40
0.0
 40
1.0
 40
1.0
 40
1.0
 40
2.0
 40
2.0
 40
2.0
 40
3.0
 40
3.0
 40
3.0
 40
4.0
 40
4.0
 40
4.0
 40
5.0
 40
5.0
 40
5.0
 40
6.0
 40
6.0
 40
6.0
 40
7.0
 40
7.0
 40
7.0
 40
7.0
 10
8.171296807178516
 20
-13.52648430152088
 30
0.0
 10
8.171296807178516
 20
-13.52648430152088
 30
0.0
 10
8.207319607873194
 20
-12.72197362023512
 30
0.0
 10
9.059857758542163
 20
-13.05818789249018
 30
0.0
 10
9.456108566183486
 20
-13.28632936534673
 30
0.0
 10
9.336035495410963
 20
-13.62254363760182
 30
0.0
 10
9.336035495410963
 20
-13.62254363760182
 30
0.0
 10
9.336035495410963
 20
-13.62254363760182
 30
0.0
 10
9.660240701662994
 20
-13.95875790985692
 30
0.0
 10
9.660240701662994
 20
-13.95875790985692
 30
0.0
 10
9.660240701662994
 20
-13.95875790985692
 30
0.0
 10
9.888382174519517
 20
-13.07019256117873
 30
0.0
 10
9.42008576548884
 20
-12.80602828762753
 30
0.0
 10
8.951789356458132
 20
-12.54185961676176
 30
0.0
 10
8.615579481517608
 20
-12.45780494936935
 30
0.0
 10
8.159287741175424
 20
-12.83004202231912
 30
0.0
 10
8.159287741175424
 20
-12.83004202231912
 30
0.0
 10
7.883114401621162
 20
-13.10621536187341
 30
0.0
 10
8.01519653839678
 20
-13.39439776743073
 30
0.0
 10
8.111260271792256
 20
-13.54449570186821
 30
0.0
 10
8.171296807178516
 20
-13.52648430152088
 30
0.0
 10
8.171296807178516
 20
-13.52648430152088
 30
0.0
  0
SPLINE
  5
4E
330
49
100
AcDbEntity
  8
Layer 1
370
     0
100
AcDbSpline
210
0.0
220
0.0
230
1.0
 70
    11
 71
     3
 72
    20
 73
    16
 74
     0
 42
0.0000000001
 43
0.0000000001
 12
1.0
 22
0.0
 32
0.0
 13
1.0
 23
0.0
 33
0.0
 40
0.0
 40
0.0
 40
0.0
 40
0.0
 40
1.0
 40
1.0
 40
1.0
 40
2.0
 40
2.0
 40
2.0
 40
3.0
 40
3.0
 40
3.0
 40
4.0
 40
4.0
 40
4.0
 40
5.0
 40
5.0
 40
5.0
 40
5.0
 10
9.294005963057486
 20
-13.77263717472476
 30
0.0
 10
9.294005963057486
 20
-13.77263717472476
 30
0.0
 10
9.029841689506286
 20
-14.21091751471959
 30
0.0
 10
8.705636483254255
 20
-14.30697685080053
 30
0.0
 10
8.975807488464286
 20
-14.36101105184253
 30
0.0
 10
9.233969427671225
 20
-14.63118205705253
 30
0.0
 10
9.119898691242962
 20
-14.97339866365189
 30
0.0
 10
9.31802409506364
 20
-14.79928699452283
 30
0.0
 10
9.53416089923164
 20
-14.13286518167144
 30
0.0
 10
9.53416089923164
 20
-14.10885144697986
 30
0.0
 10
9.53416089923164
 20
-14.08483771228824
 30
0.0
 10
9.31802409506364
 20
-13.7666348403805
 30
0.0
 10
9.31802409506364
 20
-13.7666348403805
 30
0.0
 10
9.31802409506364
 20
-13.7666348403805
 30
0.0
 10
9.294005963057486
 20
-13.77263717472476
 30
0.0
 10
9.294005963057486
 20
-13.77263717472476
 30
0.0
  0
SPLINE
  5
4F
330
49
100
AcDbEntity
  8
Layer 1
370
     0
100
AcDbSpline
210
0.0
220
0.0
230
1.0
 70
    11
 71
     3
 72
    17
 73
    13
 74
     0
 42
0.0000000001
 43
0.0000000001
 12
1.0
 22
0.0
 32
0.0
 13
1.0
 23
0.0
 33
0.0
 40
0.0
 40
0.0
 40
0.0
 40
0.0
 40
1.0
 40
1.0
 40
1.0
 40
2.0
 40
2.0
 40
2.0
 40
3.0
 40
3.0
 40
3.0
 40
4.0
 40
4.0
 40
4.0
 40
4.0
 10
6.850462247478838
 20
-11.89344920425773
 30
0.0
 10
6.622316377307778
 20
-12.5298505507587
 30
0.0
 10
7.294740524503393
 20
-12.95011949040618
 30
0.0
 10
7.294740524503393
 20
-12.95011949040618
 30
0.0
 10
7.318758656509547
 20
-12.55386868276482
 30
0.0
 10
7.666977597453163
 20
-12.22966347651282
 30
0.0
 10
7.666977597453163
 20
-12.22966347651282
 30
0.0
 10
6.946521583559777
 20
-12.08557227373415
 30
0.0
 10
7.39080425789887
 20
-11.47318466192479
 30
0.0
 10
7.39080425789887
 20
-11.47318466192479
 30
0.0
 10
6.922507848868193
 20
-11.55723493200264
 30
0.0
 10
6.850462247478838
 20
-11.89344920425773
 30
0.0
 10
6.850462247478838
 20
-11.89344920425773
 30
0.0
  0
SPLINE
  5
50
330
49
100
AcDbEntity
  8
Layer 1
370
     0
100
AcDbSpline
210
0.0
220
0.0
230
1.0
 70
    11
 71
     3
 72
    20
 73
    16
 74
     0
 42
0.0000000001
 43
0.0000000001
 12
1.0
 22
0.0
 32
0.0
 13
1.0
 23
0.0
 33
0.0
 40
0.0
 40
0.0
 40
0.0
 40
0.0
 40
1.0
 40
1.0
 40
1.0
 40
2.0
 40
2.0
 40
2.0
 40
3.0
 40
3.0
 40
3.0
 40
4.0
 40
4.0
 40
4.0
 40
5.0
 40
5.0
 40
5.0
 40
5.0
 10
6.610307311304684
 20
-13.34637029804753
 30
0.0
 10
7.81106880023184
 20
-13.88671230846756
 30
0.0
 10
7.498872659982869
 20
-14.65519579174415
 30
0.0
 10
7.606941062066869
 20
-14.52311365496853
 30
0.0
 10
7.715009464150901
 20
-14.39103151819292
 30
0.0
 10
8.099251205789162
 20
-14.23493124941118
 30
0.0
 10
8.099251205789162
 20
-14.23493124941118
 30
0.0
 10
7.270726789811809
 20
-13.99478071055156
 30
0.0
 10
7.258717723808715
 20
-13.14223816256805
 30
0.0
 10
7.258717723808715
 20
-13.14223816256805
 30
0.0
 10
7.258717723808715
 20
-13.14223816256805
 30
0.0
 10
6.574284510610039
 20
-12.91409668971153
 30
0.0
 10
6.442202373834423
 20
-12.32572281259376
 30
0.0
 10
6.418676741056519
 20
-12.2209304098405
 30
0.0
 10
6.009928765498391
 20
-12.80602828762753
 30
0.0
 10
6.610307311304684
 20
-13.34637029804753
 30
0.0
  0
SPLINE
  5
51
330
49
100
AcDbEntity
  8
Layer 1
370
     0
100
AcDbSpline
210
0.0
220
0.0
230
1.0
 70
    11
 71
     3
 72
    17
 73
    13
 74
     0
 42
0.0000000001
 43
0.0000000001
 12
1.0
 22
0.0
 32
0.0
 13
1.0
 23
0.0
 33
0.0
 40
0.0
 40
0.0
 40
0.0
 40
0.0
 40
1.0
 40
1.0
 40
1.0
 40
2.0
 40
2.0
 40
2.0
 40
3.0
 40
3.0
 40
3.0
 40
4.0
 40
4.0
 40
4.0
 40
4.0
 10
5.349509286991299
 20
-13.44242963412847
 30
0.0
 10
5.565646091159299
 20
-13.25030656465205
 30
0.0
 10
6.130006233585484
 20
-13.21428376395741
 30
0.0
 10
6.130006233585484
 20
-13.21428376395741
 30
0.0
 10
6.021937831501485
 20
-13.07019256117873
 30
0.0
 10
6.069965300884685
 20
-12.7459873549267
 30
0.0
 10
6.069965300884685
 20
-12.7459873549267
 30
0.0
 10
5.937883164109069
 20
-12.95011949040618
 30
0.0
 10
5.409550219692099
 20
-13.22629282996047
 30
0.0
 10
5.409550219692099
 20
-13.22629282996047
 30
0.0
 10
5.385532087685976
 20
-13.34637029804753
 30
0.0
 10
5.349509286991299
 20
-13.44242963412847
 30
0.0
 10
5.349509286991299
 20
-13.44242963412847
 30
0.0
  0
SPLINE
  5
52
330
49
100
AcDbEntity
  8
Layer 1
370
     0
100
AcDbSpline
210
0.0
220
0.0
230
1.0
 70
    11
 71
     3
 72
    26
 73
    22
 74
     0
 42
0.0000000001
 43
0.0000000001
 12
1.0
 22
0.0
 32
0.0
 13
1.0
 23
0.0
 33
0.0
 40
0.0
 40
0.0
 40
0.0
 40
0.0
 40
1.0
 40
1.0
 40
1.0
 40
2.0
 40
2.0
 40
2.0
 40
3.0
 40
3.0
 40
3.0
 40
4.0
 40
4.0
 40
4.0
 40
5.0
 40
5.0
 40
5.0
 40
6.0
 40
6.0
 40
6.0
 40
7.0
 40
7.0
 40
7.0
 40
7.0
 10
5.82981476202507
 20
-15.12349220077482
 30
0.0
 10
6.21405650366333
 20
-15.17152406747253
 30
0.0
 10
6.286102105052684
 20
-14.91936446260989
 30
0.0
 10
6.286102105052684
 20
-14.91936446260989
 30
0.0
 10
6.130006233585484
 20
-15.05144659938547
 30
0.0
 10
6.021937831501485
 20
-14.97940099799618
 30
0.0
 10
6.021937831501485
 20
-14.97940099799618
 30
0.0
 10
6.021937831501485
 20
-14.97940099799618
 30
0.0
 10
5.289472751605038
 20
-14.77527325983121
 30
0.0
 10
5.589664223165453
 20
-14.15087658201876
 30
0.0
 10
6.250079304358008
 20
-13.46644336882009
 30
0.0
 10
7.054589985643776
 20
-14.0908400466325
 30
0.0
 10
7.054589985643776
 20
-14.0908400466325
 30
0.0
 10
6.742393845394838
 20
-13.39439776743073
 30
0.0
 10
6.021937831501485
 20
-13.52648430152088
 30
0.0
 10
6.021937831501485
 20
-13.52648430152088
 30
0.0
 10
6.021937831501485
 20
-13.52648430152088
 30
0.0
 10
5.349509286991299
 20
-13.57451177090408
 30
0.0
 10
5.169395283517945
 20
-14.15087658201876
 30
0.0
 10
4.989281280044622
 20
-14.72724139313347
 30
0.0
 10
5.445573020386776
 20
-15.07546473139166
 30
0.0
 10
5.82981476202507
 20
-15.12349220077482
 30
0.0
  0
SPLINE
  5
53
330
49
100
AcDbEntity
  8
Layer 1
370
     0
100
AcDbSpline
210
0.0
220
0.0
230
1.0
 70
    11
 71
     3
 72
    17
 73
    13
 74
     0
 42
0.0000000001
 43
0.0000000001
 12
1.0
 22
0.0
 32
0.0
 13
1.0
 23
0.0
 33
0.0
 40
0.0
 40
0.0
 40
0.0
 40
0.0
 40
1.0
 40
1.0
 40
1.0
 40
2.0
 40
2.0
 40
2.0
 40
3.0
 40
3.0
 40
3.0
 40
4.0
 40
4.0
 40
4.0
 40
4.0
 10
6.130006233585484
 20
-14.17489471402492
 30
0.0
 10
5.96421428356215
 20
-14.17489471402492
 30
0.0
 10
5.82981476202507
 20
-14.309294235562
 30
0.0
 10
5.82981476202507
 20
-14.47508178827079
 30
0.0
 10
5.82981476202507
 20
-14.64087373829413
 30
0.0
 10
5.96421428356215
 20
-14.77527325983121
 30
0.0
 10
6.130006233585484
 20
-14.77527325983121
 30
0.0
 10
6.295793786294249
 20
-14.77527325983121
 30
0.0
 10
6.430193307831362
 20
-14.64087373829413
 30
0.0
 10
6.430193307831362
 20
-14.47508178827079
 30
0.0
 10
6.430193307831362
 20
-14.309294235562
 30
0.0
 10
6.295793786294249
 20
-14.17489471402492
 30
0.0
 10
6.130006233585484
 20
-14.17489471402492
 30
0.0
  0
SPLINE
  5
54
330
49
100
AcDbEntity
  8
Layer 1
370
     0
100
AcDbSpline
210
0.0
220
0.0
230
1.0
 70
    11
 71
     3
 72
    17
 73
    13
 74
     0
 42
0.0000000001
 43
0.0000000001
 12
1.0
 22
0.0
 32
0.0
 13
1.0
 23
0.0
 33
0.0
 40
0.0
 40
0.0
 40
0.0
 40
0.0
 40
1.0
 40
1.0
 40
1.0
 40
2.0
 40
2.0
 40
2.0
 40
3.0
 40
3.0
 40
3.0
 40
4.0
 40
4.0
 40
4.0
 40
4.0
 10
6.6943619786971
 20
-14.88334166191521
 30
0.0
 10
6.6943619786971
 20
-14.88334166191521
 30
0.0
 10
6.406179573139745
 20
-15.55576580911082
 30
0.0
 10
5.649700758551715
 20
-15.38766087164059
 30
0.0
 10
5.649700758551715
 20
-15.38766087164059
 30
0.0
 10
5.457577689075299
 20
-15.57978394111701
 30
0.0
 10
5.385532087685976
 20
-15.57978394111701
 30
0.0
 10
5.385532087685976
 20
-15.57978394111701
 30
0.0
 10
5.685723559246392
 20
-15.97603474875836
 30
0.0
 10
5.541632356467715
 20
-16.62444516126236
 30
0.0
 10
5.541632356467715
 20
-16.62444516126236
 30
0.0
 10
6.682352912694038
 20
-15.92800288206059
 30
0.0
 10
6.6943619786971
 20
-14.88334166191521
 30
0.0
  0
SPLINE
  5
55
330
49
100
AcDbEntity
  8
Layer 1
370
     0
100
AcDbSpline
210
0.0
220
0.0
230
1.0
 70
    11
 71
     3
 72
    23
 73
    19
 74
     0
 42
0.0000000001
 43
0.0000000001
 12
1.0
 22
0.0
 32
0.0
 13
1.0
 23
0.0
 33
0.0
 40
0.0
 40
0.0
 40
0.0
 40
0.0
 40
1.0
 40
1.0
 40
1.0
 40
2.0
 40
2.0
 40
2.0
 40
3.0
 40
3.0
 40
3.0
 40
4.0
 40
4.0
 40
4.0
 40
5.0
 40
5.0
 40
5.0
 40
6.0
 40
6.0
 40
6.0
 40
6.0
 10
6.634325443310838
 20
-14.15087658201876
 30
0.0
 10
6.634325443310838
 20
-14.15087658201876
 30
0.0
 10
7.678986663456223
 20
-15.3276243362543
 30
0.0
 10
6.093983432890807
 20
-16.54039049386995
 30
0.0
 10
4.472957401630714
 20
-17.83721131887801
 30
0.0
 10
4.532993937017006
 20
-18.13740279043843
 30
0.0
 10
4.436934600936068
 20
-18.46160799669049
 30
0.0
 10
4.436934600936068
 20
-18.46160799669049
 30
0.0
 10
4.328866198852069
 20
-19.32615521336249
 30
0.0
 10
4.797162607882745
 20
-19.61433761891984
 30
0.0
 10
4.797162607882745
 20
-19.61433761891984
 30
0.0
 10
4.545003003020068
 20
-18.76179507093637
 30
0.0
 10
4.905231009966744
 20
-18.08937092374072
 30
0.0
 10
5.265459016913422
 20
-17.41694677654507
 30
0.0
 10
6.356626235611911
 20
-16.80268590874255
 30
0.0
 10
6.622316377307778
 20
-16.58842236056772
 30
0.0
 10
6.994553450257516
 20
-16.2882308890073
 30
0.0
 10
8.291374275265577
 20
-14.61917299104947
 30
0.0
 10
6.634325443310838
 20
-14.15087658201876
 30
0.0
  0
SPLINE
  5
56
330
49
100
AcDbEntity
  8
Layer 1
370
     0
100
AcDbSpline
210
0.0
220
0.0
230
1.0
 70
    11
 71
     3
 72
    20
 73
    16
 74
     0
 42
0.0000000001
 43
0.0000000001
 12
1.0
 22
0.0
 32
0.0
 13
1.0
 23
0.0
 33
0.0
 40
0.0
 40
0.0
 40
0.0
 40
0.0
 40
1.0
 40
1.0
 40
1.0
 40
2.0
 40
2.0
 40
2.0
 40
3.0
 40
3.0
 40
3.0
 40
4.0
 40
4.0
 40
4.0
 40
5.0
 40
5.0
 40
5.0
 40
5.0
 10
5.121367814134777
 20
-15.39966993764366
 30
0.0
 10
5.229436216218776
 20
-15.33962900494283
 30
0.0
 10
5.313486486296622
 20
-15.20754686816724
 30
0.0
 10
5.313486486296622
 20
-15.20754686816724
 30
0.0
 10
4.881212877960623
 20
-15.03944193069695
 30
0.0
 10
4.881212877960623
 20
-14.37902245218985
 30
0.0
 10
4.881212877960623
 20
-14.37902245218985
 30
0.0
 10
4.654219104198472
 20
-14.76491758409438
 30
0.0
 10
4.052442212369113
 20
-15.00072797350508
 30
0.0
 10
3.936419068286004
 20
-15.30932711046198
 30
0.0
 10
3.936419068286004
 20
-15.30932711046198
 30
0.0
 10
3.936419068286004
 20
-15.35594304187853
 30
0.0
 10
3.936419068286004
 20
-15.35594304187853
 30
0.0
 10
4.577943286223647
 20
-15.03388372512105
 30
0.0
 10
5.121367814134777
 20
-15.39966993764366
 30
0.0
 10
5.121367814134777
 20
-15.39966993764366
 30
0.0
  0
SPLINE
  5
57
330
49
100
AcDbEntity
  8
Layer 1
370
     0
100
AcDbSpline
210
0.0
220
0.0
230
1.0
 70
    11
 71
     3
 72
    26
 73
    22
 74
     0
 42
0.0000000001
 43
0.0000000001
 12
1.0
 22
0.0
 32
0.0
 13
1.0
 23
0.0
 33
0.0
 40
0.0
 40
0.0
 40
0.0
 40
0.0
 40
1.0
 40
1.0
 40
1.0
 40
2.0
 40
2.0
 40
2.0
 40
3.0
 40
3.0
 40
3.0
 40
4.0
 40
4.0
 40
4.0
 40
5.0
 40
5.0
 40
5.0
 40
6.0
 40
6.0
 40
6.0
 40
7.0
 40
7.0
 40
7.0
 40
7.0
 10
4.881212877960623
 20
-15.96402568275524
 30
0.0
 10
4.557007671708591
 20
-15.51974300841618
 30
0.0
 10
4.100720328680976
 20
-15.81993447997659
 30
0.0
 10
4.100720328680976
 20
-15.81993447997659
 30
0.0
 10
4.100720328680976
 20
-15.81993447997659
 30
0.0
 10
4.01666566128856
 20
-15.95201661675218
 30
0.0
 10
4.148752195378714
 20
-15.90398914736901
 30
0.0
 10
4.665076073792591
 20
-15.73587981258418
 30
0.0
 10
4.665076073792591
 20
-16.27622182300424
 30
0.0
 10
4.665076073792591
 20
-16.27622182300424
 30
0.0
 10
4.675449338787569
 20
-16.83632976227224
 30
0.0
 10
4.094845516458315
 20
-16.83195883162152
 30
0.0
 10
3.936419068286004
 20
-16.82038509975771
 30
0.0
 10
3.936419068286004
 20
-16.82038509975771
 30
0.0
 10
3.936419068286004
 20
-17.83857448638477
 30
0.0
 10
3.936419068286004
 20
-17.83857448638477
 30
0.0
 10
4.091864137201588
 20
-17.46187853649359
 30
0.0
 10
4.308999131769701
 20
-17.24192046599212
 30
0.0
 10
4.376893668235237
 20
-17.12876437098772
 30
0.0
 10
4.448939269624591
 20
-17.00868690290066
 30
0.0
 10
5.205418084212623
 20
-16.40830835709436
 30
0.0
 10
4.881212877960623
 20
-15.96402568275524
 30
0.0
  0
SPLINE
  5
58
330
49
100
AcDbEntity
  8
Layer 1
370
     0
100
AcDbSpline
210
0.0
220
0.0
230
1.0
 70
    11
 71
     3
 72
    23
 73
    19
 74
     0
 42
0.0000000001
 43
0.0000000001
 12
1.0
 22
0.0
 32
0.0
 13
1.0
 23
0.0
 33
0.0
 40
0.0
 40
0.0
 40
0.0
 40
0.0
 40
1.0
 40
1.0
 40
1.0
 40
2.0
 40
2.0
 40
2.0
 40
3.0
 40
3.0
 40
3.0
 40
4.0
 40
4.0
 40
4.0
 40
5.0
 40
5.0
 40
5.0
 40
6.0
 40
6.0
 40
6.0
 40
6.0
 10
6.190042768971746
 20
-17.2128146410656
 30
0.0
 10
6.802430380781099
 20
-17.16478717168236
 30
0.0
 10
7.06659905164687
 20
-17.36891490984737
 30
0.0
 10
7.06659905164687
 20
-17.36891490984737
 30
0.0
 10
7.06659905164687
 20
-17.36891490984737
 30
0.0
 10
7.258717723808715
 20
-17.40493771054201
 30
0.0
 10
7.138644653036192
 20
-17.30887837446107
 30
0.0
 10
7.018567184949132
 20
-17.2128146410656
 30
0.0
 10
6.982544384254454
 20
-16.97266410220601
 30
0.0
 10
7.150649321724716
 20
-16.7205044973433
 30
0.0
 10
7.318758656509547
 20
-16.46834489248066
 30
0.0
 10
7.847091600926485
 20
-16.52838142786689
 30
0.0
 10
7.847091600926485
 20
-16.52838142786689
 30
0.0
 10
7.763036933534069
 20
-16.44433115778901
 30
0.0
 10
7.498872659982869
 20
-16.01205754945301
 30
0.0
 10
7.498872659982869
 20
-16.01205754945301
 30
0.0
 10
7.210690254425547
 20
-16.54039049386995
 30
0.0
 10
6.6943619786971
 20
-16.96065503620289
 30
0.0
 10
6.190042768971746
 20
-17.2128146410656
 30
0.0
  0
SPLINE
  5
59
330
49
100
AcDbEntity
  8
Layer 1
370
     0
100
AcDbSpline
210
0.0
220
0.0
230
1.0
 70
    11
 71
     3
 72
    26
 73
    22
 74
     0
 42
0.0000000001
 43
0.0000000001
 12
1.0
 22
0.0
 32
0.0
 13
1.0
 23
0.0
 33
0.0
 40
0.0
 40
0.0
 40
0.0
 40
0.0
 40
1.0
 40
1.0
 40
1.0
 40
2.0
 40
2.0
 40
2.0
 40
3.0
 40
3.0
 40
3.0
 40
4.0
 40
4.0
 40
4.0
 40
5.0
 40
5.0
 40
5.0
 40
6.0
 40
6.0
 40
6.0
 40
7.0
 40
7.0
 40
7.0
 40
7.0
 10
7.751032264845546
 20
-15.5437611404223
 30
0.0
 10
7.955160003010485
 20
-16.32425368970195
 30
0.0
 10
8.483492947427456
 20
-16.66046796195701
 30
0.0
 10
8.483492947427456
 20
-16.66046796195701
 30
0.0
 10
8.375424545343455
 20
-15.86796634667436
 30
0.0
 10
8.951789356458132
 20
-15.42368367233524
 30
0.0
 10
8.951789356458132
 20
-15.42368367233524
 30
0.0
 10
8.99982122315587
 20
-15.30360620424818
 30
0.0
 10
8.843720954374131
 20
-15.39966993764366
 30
0.0
 10
8.843720954374131
 20
-15.39966993764366
 30
0.0
 10
8.843720954374131
 20
-15.39966993764366
 30
0.0
 10
8.303378943954101
 20
-15.61580674181165
 30
0.0
 10
8.1472830724869
 20
-15.17152406747253
 30
0.0
 10
8.13527400648384
 20
-14.67921392375027
 30
0.0
 10
8.56754761481987
 20
-14.75125952513959
 30
0.0
 10
8.56754761481987
 20
-14.75125952513959
 30
0.0
 10
8.56754761481987
 20
-14.75125952513959
 30
0.0
 10
8.651602282212254
 20
-14.69121859243879
 30
0.0
 10
8.543533880128255
 20
-14.66720485774721
 30
0.0
 10
8.279365209262517
 20
-14.48709085427386
 30
0.0
 10
7.54690012936607
 20
-14.76326419382815
 30
0.0
 10
7.751032264845546
 20
-15.5437611404223
 30
0.0
  0
SPLINE
  5
5A
330
49
100
AcDbEntity
  8
Layer 1
370
     0
100
AcDbSpline
210
0.0
220
0.0
230
1.0
 70
    11
 71
     3
 72
    17
 73
    13
 74
     0
 42
0.0000000001
 43
0.0000000001
 12
1.0
 22
0.0
 32
0.0
 13
1.0
 23
0.0
 33
0.0
 40
0.0
 40
0.0
 40
0.0
 40
0.0
 40
1.0
 40
1.0
 40
1.0
 40
2.0
 40
2.0
 40
2.0
 40
3.0
 40
3.0
 40
3.0
 40
4.0
 40
4.0
 40
4.0
 40
4.0
 10
9.071866824545225
 20
-16.48035395848372
 30
0.0
 10
8.867739086380286
 20
-17.33289210915266
 30
0.0
 10
9.300012694716285
 20
-17.63308358071307
 30
0.0
 10
9.300012694716285
 20
-17.63308358071307
 30
0.0
 10
9.312017363404841
 20
-16.87660476612507
 30
0.0
 10
9.48012669818964
 20
-16.81656383342424
 30
0.0
 10
9.6482316356599
 20
-16.60042702925624
 30
0.0
 10
9.288003628713223
 20
-16.42031302578289
 30
0.0
 10
9.360049230102579
 20
-15.85595728067124
 30
0.0
 10
9.360049230102579
 20
-15.85595728067124
 30
0.0
 10
9.360049230102579
 20
-15.85595728067124
 30
0.0
 10
9.275994562710164
 20
-15.62781141050018
 30
0.0
 10
9.071866824545225
 20
-16.48035395848372
 30
0.0
  0
SPLINE
  5
5B
330
49
100
AcDbEntity
  8
Layer 1
370
     0
100
AcDbSpline
210
0.0
220
0.0
230
1.0
 70
    11
 71
     3
 72
    26
 73
    22
 74
     0
 42
0.0000000001
 43
0.0000000001
 12
1.0
 22
0.0
 32
0.0
 13
1.0
 23
0.0
 33
0.0
 40
0.0
 40
0.0
 40
0.0
 40
0.0
 40
1.0
 40
1.0
 40
1.0
 40
2.0
 40
2.0
 40
2.0
 40
3.0
 40
3.0
 40
3.0
 40
4.0
 40
4.0
 40
4.0
 40
5.0
 40
5.0
 40
5.0
 40
6.0
 40
6.0
 40
6.0
 40
7.0
 40
7.0
 40
7.0
 40
7.0
 10
15.30381134472286
 20
-12.80602828762753
 30
0.0
 10
14.83551493569215
 20
-12.54185961676176
 30
0.0
 10
14.49930066343709
 20
-12.45780494936935
 30
0.0
 10
14.04301332040944
 20
-12.83004202231912
 30
0.0
 10
14.04301332040944
 20
-12.83004202231912
 30
0.0
 10
13.76683998085521
 20
-13.10621536187341
 30
0.0
 10
13.8989221176308
 20
-13.39439776743073
 30
0.0
 10
13.99498145371174
 20
-13.54449570186821
 30
0.0
 10
14.05502238641257
 20
-13.52648430152088
 30
0.0
 10
14.05502238641257
 20
-13.52648430152088
 30
0.0
 10
14.05502238641257
 20
-13.52648430152088
 30
0.0
 10
14.09104518710721
 20
-12.72197362023512
 30
0.0
 10
14.94358333777615
 20
-13.05818789249018
 30
0.0
 10
15.3398341454175
 20
-13.28632936534673
 30
0.0
 10
15.21975667733044
 20
-13.62254363760182
 30
0.0
 10
15.21975667733044
 20
-13.62254363760182
 30
0.0
 10
15.21975667733044
 20
-13.62254363760182
 30
0.0
 10
15.54396188358244
 20
-13.95875790985692
 30
0.0
 10
15.54396188358244
 20
-13.95875790985692
 30
0.0
 10
15.54396188358244
 20
-13.95875790985692
 30
0.0
 10
15.77210775375357
 20
-13.07019256117873
 30
0.0
 10
15.30381134472286
 20
-12.80602828762753
 30
0.0
  0
SPLINE
  5
5C
330
49
100
AcDbEntity
  8
Layer 1
370
     0
100
AcDbSpline
210
0.0
220
0.0
230
1.0
 70
    11
 71
     3
 72
    20
 73
    16
 74
     0
 42
0.0000000001
 43
0.0000000001
 12
1.0
 22
0.0
 32
0.0
 13
1.0
 23
0.0
 33
0.0
 40
0.0
 40
0.0
 40
0.0
 40
0.0
 40
1.0
 40
1.0
 40
1.0
 40
2.0
 40
2.0
 40
2.0
 40
3.0
 40
3.0
 40
3.0
 40
4.0
 40
4.0
 40
4.0
 40
5.0
 40
5.0
 40
5.0
 40
5.0
 10
15.00361987316244
 20
-14.97339866365189
 30
0.0
 10
15.20174527698315
 20
-14.79928699452283
 30
0.0
 10
15.41788208115115
 20
-14.13286518167144
 30
0.0
 10
15.41788208115115
 20
-14.10885144697986
 30
0.0
 10
15.41788208115115
 20
-14.08483771228824
 30
0.0
 10
15.20174527698315
 20
-13.7666348403805
 30
0.0
 10
15.20174527698315
 20
-13.7666348403805
 30
0.0
 10
15.20174527698315
 20
-13.7666348403805
 30
0.0
 10
15.1777315422915
 20
-13.77263717472476
 30
0.0
 10
15.1777315422915
 20
-13.77263717472476
 30
0.0
 10
15.1777315422915
 20
-13.77263717472476
 30
0.0
 10
14.9135628714258
 20
-14.21091751471959
 30
0.0
 10
14.58935766517373
 20
-14.30697685080053
 30
0.0
 10
14.8595286703838
 20
-14.36101105184253
 30
0.0
 10
15.11769500690527
 20
-14.63118205705253
 30
0.0
 10
15.00361987316244
 20
-14.97339866365189
 30
0.0
  0
SPLINE
  5
5D
330
49
100
AcDbEntity
  8
Layer 1
370
     0
100
AcDbSpline
210
0.0
220
0.0
230
1.0
 70
    11
 71
     3
 72
    17
 73
    13
 74
     0
 42
0.0000000001
 43
0.0000000001
 12
1.0
 22
0.0
 32
0.0
 13
1.0
 23
0.0
 33
0.0
 40
0.0
 40
0.0
 40
0.0
 40
0.0
 40
1.0
 40
1.0
 40
1.0
 40
2.0
 40
2.0
 40
2.0
 40
3.0
 40
3.0
 40
3.0
 40
4.0
 40
4.0
 40
4.0
 40
4.0
 10
12.73418342939832
 20
-11.89344920425773
 30
0.0
 10
12.50604195654179
 20
-12.5298505507587
 30
0.0
 10
13.17846610373744
 20
-12.95011949040618
 30
0.0
 10
13.17846610373744
 20
-12.95011949040618
 30
0.0
 10
13.20247983842903
 20
-12.55386868276482
 30
0.0
 10
13.55070317668715
 20
-12.22966347651282
 30
0.0
 10
13.55070317668715
 20
-12.22966347651282
 30
0.0
 10
12.83024716279379
 20
-12.08557227373415
 30
0.0
 10
13.27452543981838
 20
-11.47318466192479
 30
0.0
 10
13.27452543981838
 20
-11.47318466192479
 30
0.0
 10
12.80622903078767
 20
-11.55723493200264
 30
0.0
 10
12.73418342939832
 20
-11.89344920425773
 30
0.0
 10
12.73418342939832
 20
-11.89344920425773
 30
0.0
  0
SPLINE
  5
5E
330
49
100
AcDbEntity
  8
Layer 1
370
     0
100
AcDbSpline
210
0.0
220
0.0
230
1.0
 70
    11
 71
     3
 72
    20
 73
    16
 74
     0
 42
0.0000000001
 43
0.0000000001
 12
1.0
 22
0.0
 32
0.0
 13
1.0
 23
0.0
 33
0.0
 40
0.0
 40
0.0
 40
0.0
 40
0.0
 40
1.0
 40
1.0
 40
1.0
 40
2.0
 40
2.0
 40
2.0
 40
3.0
 40
3.0
 40
3.0
 40
4.0
 40
4.0
 40
4.0
 40
5.0
 40
5.0
 40
5.0
 40
5.0
 10
13.14244330304273
 20
-13.14223816256805
 30
0.0
 10
13.14244330304273
 20
-13.14223816256805
 30
0.0
 10
12.45801008984403
 20
-12.91409668971153
 30
0.0
 10
12.32592795306844
 20
-12.32572281259376
 30
0.0
 10
12.30240232029057
 20
-12.2209304098405
 30
0.0
 10
11.89365434473244
 20
-12.80602828762753
 30
0.0
 10
12.49403289053874
 20
-13.34637029804753
 30
0.0
 10
13.69479437946586
 20
-13.88671230846756
 30
0.0
 10
13.38259384190238
 20
-14.65519579174415
 30
0.0
 10
13.49066224398638
 20
-14.52311365496853
 30
0.0
 10
13.59873064607038
 20
-14.39103151819292
 30
0.0
 10
13.98297678502321
 20
-14.23493124941118
 30
0.0
 10
13.98297678502321
 20
-14.23493124941118
 30
0.0
 10
13.15445236904579
 20
-13.99478071055156
 30
0.0
 10
13.14244330304273
 20
-13.14223816256805
 30
0.0
 10
13.14244330304273
 20
-13.14223816256805
 30
0.0
  0
SPLINE
  5
5F
330
49
100
AcDbEntity
  8
Layer 1
370
     0
100
AcDbSpline
210
0.0
220
0.0
230
1.0
 70
    11
 71
     3
 72
    17
 73
    13
 74
     0
 42
0.0000000001
 43
0.0000000001
 12
1.0
 22
0.0
 32
0.0
 13
1.0
 23
0.0
 33
0.0
 40
0.0
 40
0.0
 40
0.0
 40
0.0
 40
1.0
 40
1.0
 40
1.0
 40
2.0
 40
2.0
 40
2.0
 40
3.0
 40
3.0
 40
3.0
 40
4.0
 40
4.0
 40
4.0
 40
4.0
 10
11.23323486622532
 20
-13.44242963412847
 30
0.0
 10
11.44937167039332
 20
-13.25030656465205
 30
0.0
 10
12.01372741550496
 20
-13.21428376395741
 30
0.0
 10
12.01372741550496
 20
-13.21428376395741
 30
0.0
 10
11.90565901342097
 20
-13.07019256117873
 30
0.0
 10
11.95369088011867
 20
-12.7459873549267
 30
0.0
 10
11.95369088011867
 20
-12.7459873549267
 30
0.0
 10
11.82160874334309
 20
-12.95011949040618
 30
0.0
 10
11.29327140161161
 20
-13.22629282996047
 30
0.0
 10
11.29327140161161
 20
-13.22629282996047
 30
0.0
 10
11.26925766692003
 20
-13.34637029804753
 30
0.0
 10
11.23323486622532
 20
-13.44242963412847
 30
0.0
 10
11.23323486622532
 20
-13.44242963412847
 30
0.0
  0
SPLINE
  5
60
330
49
100
AcDbEntity
  8
Layer 1
370
     0
100
AcDbSpline
210
0.0
220
0.0
230
1.0
 70
    11
 71
     3
 72
    26
 73
    22
 74
     0
 42
0.0000000001
 43
0.0000000001
 12
1.0
 22
0.0
 32
0.0
 13
1.0
 23
0.0
 33
0.0
 40
0.0
 40
0.0
 40
0.0
 40
0.0
 40
1.0
 40
1.0
 40
1.0
 40
2.0
 40
2.0
 40
2.0
 40
3.0
 40
3.0
 40
3.0
 40
4.0
 40
4.0
 40
4.0
 40
5.0
 40
5.0
 40
5.0
 40
6.0
 40
6.0
 40
6.0
 40
7.0
 40
7.0
 40
7.0
 40
7.0
 10
11.71354034125909
 20
-15.12349220077482
 30
0.0
 10
12.09778208289738
 20
-15.17152406747253
 30
0.0
 10
12.16982768428674
 20
-14.91936446260989
 30
0.0
 10
12.16982768428674
 20
-14.91936446260989
 30
0.0
 10
12.01372741550496
 20
-15.05144659938547
 30
0.0
 10
11.90565901342097
 20
-14.97940099799618
 30
0.0
 10
11.90565901342097
 20
-14.97940099799618
 30
0.0
 10
11.90565901342097
 20
-14.97940099799618
 30
0.0
 10
11.17319833083902
 20
-14.77527325983121
 30
0.0
 10
11.47338540508497
 20
-14.15087658201876
 30
0.0
 10
12.13380488359203
 20
-13.46644336882009
 30
0.0
 10
12.9383155648778
 20
-14.0908400466325
 30
0.0
 10
12.9383155648778
 20
-14.0908400466325
 30
0.0
 10
12.62611502731432
 20
-13.39439776743073
 30
0.0
 10
11.90565901342097
 20
-13.52648430152088
 30
0.0
 10
11.90565901342097
 20
-13.52648430152088
 30
0.0
 10
11.90565901342097
 20
-13.52648430152088
 30
0.0
 10
11.23323486622532
 20
-13.57451177090408
 30
0.0
 10
11.05312086275196
 20
-14.15087658201876
 30
0.0
 10
10.87300685927861
 20
-14.72724139313347
 30
0.0
 10
11.32929420230626
 20
-15.07546473139166
 30
0.0
 10
11.71354034125909
 20
-15.12349220077482
 30
0.0
  0
SPLINE
  5
61
330
49
100
AcDbEntity
  8
Layer 1
370
     0
100
AcDbSpline
210
0.0
220
0.0
230
1.0
 70
    11
 71
     3
 72
    17
 73
    13
 74
     0
 42
0.0000000001
 43
0.0000000001
 12
1.0
 22
0.0
 32
0.0
 13
1.0
 23
0.0
 33
0.0
 40
0.0
 40
0.0
 40
0.0
 40
0.0
 40
1.0
 40
1.0
 40
1.0
 40
2.0
 40
2.0
 40
2.0
 40
3.0
 40
3.0
 40
3.0
 40
4.0
 40
4.0
 40
4.0
 40
4.0
 10
12.01372741550496
 20
-14.17489471402492
 30
0.0
 10
11.84793986279617
 20
-14.17489471402492
 30
0.0
 10
11.71354034125909
 20
-14.309294235562
 30
0.0
 10
11.71354034125909
 20
-14.47508178827079
 30
0.0
 10
11.71354034125909
 20
-14.64087373829413
 30
0.0
 10
11.84793986279617
 20
-14.77527325983121
 30
0.0
 10
12.01372741550496
 20
-14.77527325983121
 30
0.0
 10
12.1795193655283
 20
-14.77527325983121
 30
0.0
 10
12.31391888706538
 20
-14.64087373829413
 30
0.0
 10
12.31391888706538
 20
-14.47508178827079
 30
0.0
 10
12.31391888706538
 20
-14.309294235562
 30
0.0
 10
12.1795193655283
 20
-14.17489471402492
 30
0.0
 10
12.01372741550496
 20
-14.17489471402492
 30
0.0
  0
SPLINE
  5
62
330
49
100
AcDbEntity
  8
Layer 1
370
     0
100
AcDbSpline
210
0.0
220
0.0
230
1.0
 70
    11
 71
     3
 72
    17
 73
    13
 74
     0
 42
0.0000000001
 43
0.0000000001
 12
1.0
 22
0.0
 32
0.0
 13
1.0
 23
0.0
 33
0.0
 40
0.0
 40
0.0
 40
0.0
 40
0.0
 40
1.0
 40
1.0
 40
1.0
 40
2.0
 40
2.0
 40
2.0
 40
3.0
 40
3.0
 40
3.0
 40
4.0
 40
4.0
 40
4.0
 40
4.0
 10
12.57808755793115
 20
-14.88334166191521
 30
0.0
 10
12.57808755793115
 20
-14.88334166191521
 30
0.0
 10
12.2899051523738
 20
-15.55576580911082
 30
0.0
 10
11.53342633778573
 20
-15.38766087164059
 30
0.0
 10
11.53342633778573
 20
-15.38766087164059
 30
0.0
 10
11.34130326830932
 20
-15.57978394111701
 30
0.0
 10
11.26925766692003
 20
-15.57978394111701
 30
0.0
 10
11.26925766692003
 20
-15.57978394111701
 30
0.0
 10
11.56944913848044
 20
-15.97603474875836
 30
0.0
 10
11.42535793570173
 20
-16.62444516126236
 30
0.0
 10
11.42535793570173
 20
-16.62444516126236
 30
0.0
 10
12.56607849192802
 20
-15.92800288206059
 30
0.0
 10
12.57808755793115
 20
-14.88334166191521
 30
0.0
  0
SPLINE
  5
63
330
49
100
AcDbEntity
  8
Layer 1
370
     0
100
AcDbSpline
210
0.0
220
0.0
230
1.0
 70
    11
 71
     3
 72
    23
 73
    19
 74
     0
 42
0.0000000001
 43
0.0000000001
 12
1.0
 22
0.0
 32
0.0
 13
1.0
 23
0.0
 33
0.0
 40
0.0
 40
0.0
 40
0.0
 40
0.0
 40
1.0
 40
1.0
 40
1.0
 40
2.0
 40
2.0
 40
2.0
 40
3.0
 40
3.0
 40
3.0
 40
4.0
 40
4.0
 40
4.0
 40
5.0
 40
5.0
 40
5.0
 40
6.0
 40
6.0
 40
6.0
 40
6.0
 10
12.51804662523032
 20
-14.15087658201876
 30
0.0
 10
12.51804662523032
 20
-14.15087658201876
 30
0.0
 10
13.56270784537574
 20
-15.3276243362543
 30
0.0
 10
11.97770461481032
 20
-16.54039049386995
 30
0.0
 10
10.35667858355023
 20
-17.83721131887801
 30
0.0
 10
10.41671951625102
 20
-18.13740279043843
 30
0.0
 10
10.32065578285555
 20
-18.46160799669049
 30
0.0
 10
10.32065578285555
 20
-18.46160799669049
 30
0.0
 10
10.21258738077155
 20
-19.32615521336249
 30
0.0
 10
10.68088378980226
 20
-19.61433761891984
 30
0.0
 10
10.68088378980226
 20
-19.61433761891984
 30
0.0
 10
10.42872418493955
 20
-18.76179507093637
 30
0.0
 10
10.78895219188626
 20
-18.08937092374072
 30
0.0
 10
11.1491801988329
 20
-17.41694677654507
 30
0.0
 10
12.2403518148459
 20
-16.80268590874255
 30
0.0
 10
12.50604195654179
 20
-16.58842236056772
 30
0.0
 10
12.87827463217703
 20
-16.2882308890073
 30
0.0
 10
14.17509545718509
 20
-14.61917299104947
 30
0.0
 10
12.51804662523032
 20
-14.15087658201876
 30
0.0
  0
SPLINE
  5
64
330
49
100
AcDbEntity
  8
Layer 1
370
     0
100
AcDbSpline
210
0.0
220
0.0
230
1.0
 70
    11
 71
     3
 72
    17
 73
    13
 74
     0
 42
0.0000000001
 43
0.0000000001
 12
1.0
 22
0.0
 32
0.0
 13
1.0
 23
0.0
 33
0.0
 40
0.0
 40
0.0
 40
0.0
 40
0.0
 40
1.0
 40
1.0
 40
1.0
 40
2.0
 40
2.0
 40
2.0
 40
3.0
 40
3.0
 40
3.0
 40
4.0
 40
4.0
 40
4.0
 40
4.0
 10
10.76493845719461
 20
-14.37902245218985
 30
0.0
 10
10.52478791833503
 20
-14.78728232583427
 30
0.0
 10
9.864368439827933
 20
-15.02743286469389
 30
0.0
 10
9.804331904441671
 20
-15.36364713694895
 30
0.0
 10
10.4527423169457
 20
-15.02743286469389
 30
0.0
 10
11.00508899605426
 20
-15.39966993764366
 30
0.0
 10
11.00508899605426
 20
-15.39966993764366
 30
0.0
 10
11.11315739813826
 20
-15.33962900494283
 30
0.0
 10
11.19721206553067
 20
-15.20754686816724
 30
0.0
 10
11.19721206553067
 20
-15.20754686816724
 30
0.0
 10
10.76493845719461
 20
-15.03944193069695
 30
0.0
 10
10.76493845719461
 20
-14.37902245218985
 30
0.0
 10
10.76493845719461
 20
-14.37902245218985
 30
0.0
  0
SPLINE
  5
65
330
49
100
AcDbEntity
  8
Layer 1
370
     0
100
AcDbSpline
210
0.0
220
0.0
230
1.0
 70
    11
 71
     3
 72
    32
 73
    28
 74
     0
 42
0.0000000001
 43
0.0000000001
 12
1.0
 22
0.0
 32
0.0
 13
1.0
 23
0.0
 33
0.0
 40
0.0
 40
0.0
 40
0.0
 40
0.0
 40
1.0
 40
1.0
 40
1.0
 40
2.0
 40
2.0
 40
2.0
 40
3.0
 40
3.0
 40
3.0
 40
4.0
 40
4.0
 40
4.0
 40
5.0
 40
5.0
 40
5.0
 40
6.0
 40
6.0
 40
6.0
 40
7.0
 40
7.0
 40
7.0
 40
8.0
 40
8.0
 40
8.0
 40
9.0
 40
9.0
 40
9.0
 40
9.0
 10
10.26061924746929
 20
-17.12876437098772
 30
0.0
 10
10.33266484885861
 20
-17.00868690290066
 30
0.0
 10
11.08914366344667
 20
-16.40830835709436
 30
0.0
 10
10.76493845719461
 20
-15.96402568275524
 30
0.0
 10
10.44073325094261
 20
-15.51974300841618
 30
0.0
 10
9.984445907914994
 20
-15.81993447997659
 30
0.0
 10
9.984445907914994
 20
-15.81993447997659
 30
0.0
 10
9.984445907914994
 20
-15.81993447997659
 30
0.0
 10
9.90039124052261
 20
-15.95201661675218
 30
0.0
 10
10.03247337729819
 20
-15.90398914736901
 30
0.0
 10
10.54880165302661
 20
-15.73587981258418
 30
0.0
 10
10.54880165302661
 20
-16.27622182300424
 30
0.0
 10
10.54880165302661
 20
-16.27622182300424
 30
0.0
 10
10.56081071902967
 20
-16.92463223550824
 30
0.0
 10
9.780313772435518
 20
-16.81656383342424
 30
0.0
 10
9.780313772435518
 20
-16.81656383342424
 30
0.0
 10
9.780313772435518
 20
-16.81656383342424
 30
0.0
 10
9.657237335833578
 20
-16.86459570012195
 30
0.0
 10
9.531157533402256
 20
-17.32388640897901
 30
0.0
 10
9.405077730970902
 20
-17.90925692026736
 30
0.0
 10
9.810334238785932
 20
-18.19743932582472
 30
0.0
 10
9.783317138264932
 20
-18.09837662391437
 30
0.0
 10
9.756300037743934
 20
-17.99931392200401
 30
0.0
 10
9.792322838438578
 20
-17.90925692026736
 30
0.0
 10
9.792322838438578
 20
-17.90925692026736
 30
0.0
 10
9.948423107220316
 20
-17.48899237793443
 30
0.0
 10
10.18857364607993
 20
-17.24883744176024
 30
0.0
 10
10.26061924746929
 20
-17.12876437098772
 30
0.0
  0
SPLINE
  5
66
330
49
100
AcDbEntity
  8
Layer 1
370
     0
100
AcDbSpline
210
0.0
220
0.0
230
1.0
 70
    11
 71
     3
 72
    23
 73
    19
 74
     0
 42
0.0000000001
 43
0.0000000001
 12
1.0
 22
0.0
 32
0.0
 13
1.0
 23
0.0
 33
0.0
 40
0.0
 40
0.0
 40
0.0
 40
0.0
 40
1.0
 40
1.0
 40
1.0
 40
2.0
 40
2.0
 40
2.0
 40
3.0
 40
3.0
 40
3.0
 40
4.0
 40
4.0
 40
4.0
 40
5.0
 40
5.0
 40
5.0
 40
6.0
 40
6.0
 40
6.0
 40
6.0
 10
12.0737683482058
 20
-17.2128146410656
 30
0.0
 10
12.68615596001515
 20
-17.16478717168236
 30
0.0
 10
12.95032023356632
 20
-17.36891490984737
 30
0.0
 10
12.95032023356632
 20
-17.36891490984737
 30
0.0
 10
12.95032023356632
 20
-17.36891490984737
 30
0.0
 10
13.14244330304273
 20
-17.40493771054201
 30
0.0
 10
13.02236583495567
 20
-17.30887837446107
 30
0.0
 10
12.90229276418315
 20
-17.2128146410656
 30
0.0
 10
12.86626996348844
 20
-16.97266410220601
 30
0.0
 10
13.03437490095873
 20
-16.7205044973433
 30
0.0
 10
13.20247983842903
 20
-16.46834489248066
 30
0.0
 10
13.7308171801605
 20
-16.52838142786689
 30
0.0
 10
13.7308171801605
 20
-16.52838142786689
 30
0.0
 10
13.64676251276809
 20
-16.44433115778901
 30
0.0
 10
13.38259384190238
 20
-16.01205754945301
 30
0.0
 10
13.38259384190238
 20
-16.01205754945301
 30
0.0
 10
13.09441143634503
 20
-16.54039049386995
 30
0.0
 10
12.57808755793115
 20
-16.96065503620289
 30
0.0
 10
12.0737683482058
 20
-17.2128146410656
 30
0.0
  0
SPLINE
  5
67
330
49
100
AcDbEntity
  8
Layer 1
370
     0
100
AcDbSpline
210
0.0
220
0.0
230
1.0
 70
    11
 71
     3
 72
    26
 73
    22
 74
     0
 42
0.0000000001
 43
0.0000000001
 12
1.0
 22
0.0
 32
0.0
 13
1.0
 23
0.0
 33
0.0
 40
0.0
 40
0.0
 40
0.0
 40
0.0
 40
1.0
 40
1.0
 40
1.0
 40
2.0
 40
2.0
 40
2.0
 40
3.0
 40
3.0
 40
3.0
 40
4.0
 40
4.0
 40
4.0
 40
5.0
 40
5.0
 40
5.0
 40
6.0
 40
6.0
 40
6.0
 40
7.0
 40
7.0
 40
7.0
 40
7.0
 10
14.83551493569215
 20
-15.42368367233524
 30
0.0
 10
14.88354680238992
 20
-15.30360620424818
 30
0.0
 10
14.72744653360815
 20
-15.39966993764366
 30
0.0
 10
14.72744653360815
 20
-15.39966993764366
 30
0.0
 10
14.72744653360815
 20
-15.39966993764366
 30
0.0
 10
14.18710452318815
 20
-15.61580674181165
 30
0.0
 10
14.03100425440638
 20
-15.17152406747253
 30
0.0
 10
14.01899958571786
 20
-14.67921392375027
 30
0.0
 10
14.45127319405386
 20
-14.75125952513959
 30
0.0
 10
14.45127319405386
 20
-14.75125952513959
 30
0.0
 10
14.45127319405386
 20
-14.75125952513959
 30
0.0
 10
14.53532346413173
 20
-14.69121859243879
 30
0.0
 10
14.42725506204773
 20
-14.66720485774721
 30
0.0
 10
14.16309078849657
 20
-14.48709085427386
 30
0.0
 10
13.43062570860009
 20
-14.76326419382815
 30
0.0
 10
13.63475344676503
 20
-15.5437611404223
 30
0.0
 10
13.8388855822445
 20
-16.32425368970195
 30
0.0
 10
14.3672185266615
 20
-16.66046796195701
 30
0.0
 10
14.3672185266615
 20
-16.66046796195701
 30
0.0
 10
14.25915012457744
 20
-15.86796634667436
 30
0.0
 10
14.83551493569215
 20
-15.42368367233524
 30
0.0
 10
14.83551493569215
 20
-15.42368367233524
 30
0.0
  0
SPLINE
  5
68
330
49
100
AcDbEntity
  8
Layer 1
370
     0
100
AcDbSpline
210
0.0
220
0.0
230
1.0
 70
    11
 71
     3
 72
    17
 73
    13
 74
     0
 42
0.0000000001
 43
0.0000000001
 12
1.0
 22
0.0
 32
0.0
 13
1.0
 23
0.0
 33
0.0
 40
0.0
 40
0.0
 40
0.0
 40
0.0
 40
1.0
 40
1.0
 40
1.0
 40
2.0
 40
2.0
 40
2.0
 40
3.0
 40
3.0
 40
3.0
 40
4.0
 40
4.0
 40
4.0
 40
4.0
 10
15.24377480933657
 20
-15.85595728067124
 30
0.0
 10
15.24377480933657
 20
-15.85595728067124
 30
0.0
 10
15.15972014194421
 20
-15.62781141050018
 30
0.0
 10
14.95559240377927
 20
-16.48035395848372
 30
0.0
 10
14.75146026829973
 20
-17.33289210915266
 30
0.0
 10
15.1837338766358
 20
-17.63308358071307
 30
0.0
 10
15.1837338766358
 20
-17.63308358071307
 30
0.0
 10
15.19574294263886
 20
-16.87660476612507
 30
0.0
 10
15.36384788010915
 20
-16.81656383342424
 30
0.0
 10
15.53195721489392
 20
-16.60042702925624
 30
0.0
 10
15.17172920794727
 20
-16.42031302578289
 30
0.0
 10
15.24377480933657
 20
-15.85595728067124
 30
0.0
 10
15.24377480933657
 20
-15.85595728067124
 30
0.0
  0
SPLINE
  5
69
330
49
100
AcDbEntity
  8
Layer 1
370
     0
100
AcDbSpline
210
0.0
220
0.0
230
1.0
 70
    11
 71
     3
 72
    14
 73
    10
 74
     0
 42
0.0000000001
 43
0.0000000001
 12
1.0
 22
0.0
 32
0.0
 13
1.0
 23
0.0
 33
0.0
 40
0.0
 40
0.0
 40
0.0
 40
0.0
 40
1.0
 40
1.0
 40
1.0
 40
2.0
 40
2.0
 40
2.0
 40
3.0
 40
3.0
 40
3.0
 40
3.0
 10
17.08910345786159
 20
-14.84555993540539
 30
0.0
 10
17.08910345786159
 20
-14.84555993540539
 30
0.0
 10
17.08910345786159
 20
-13.90324181381563
 30
0.0
 10
17.08910345786159
 20
-13.90324181381563
 30
0.0
 10
17.03633568340652
 20
-13.97267541036945
 30
0.0
 10
16.9912192362474
 20
-14.05370912267429
 30
0.0
 10
16.96086017667763
 20
-14.15087658201876
 30
0.0
 10
16.868841972657
 20
-14.44533835273627
 30
0.0
 10
16.94337645407483
 20
-14.67980316389835
 30
0.0
 10
17.08910345786159
 20
-14.84555993540539
 30
0.0
  0
SPLINE
  5
6A
330
49
100
AcDbEntity
  8
Layer 1
370
     0
100
AcDbSpline
210
0.0
220
0.0
230
1.0
 70
    11
 71
     3
 72
    20
 73
    16
 74
     0
 42
0.0000000001
 43
0.0000000001
 12
1.0
 22
0.0
 32
0.0
 13
1.0
 23
0.0
 33
0.0
 40
0.0
 40
0.0
 40
0.0
 40
0.0
 40
1.0
 40
1.0
 40
1.0
 40
2.0
 40
2.0
 40
2.0
 40
3.0
 40
3.0
 40
3.0
 40
4.0
 40
4.0
 40
4.0
 40
5.0
 40
5.0
 40
5.0
 40
5.0
 10
16.22839069946661
 20
-18.46160799669049
 30
0.0
 10
16.22839069946661
 20
-18.46160799669049
 30
0.0
 10
16.12032229738261
 20
-19.32615521336249
 30
0.0
 10
16.58861870641332
 20
-19.61433761891984
 30
0.0
 10
16.58861870641332
 20
-19.61433761891984
 30
0.0
 10
16.33645910155061
 20
-18.76179507093637
 30
0.0
 10
16.69668710849732
 20
-18.08937092374072
 30
0.0
 10
16.78853821456545
 20
-17.91792842453613
 30
0.0
 10
16.92802103170839
 20
-17.75032478092322
 30
0.0
 10
17.08910345786159
 20
-17.5921094038487
 30
0.0
 10
17.08910345786159
 20
-17.5921094038487
 30
0.0
 10
17.08910345786159
 20
-17.21725592874892
 30
0.0
 10
17.08910345786159
 20
-17.21725592874892
 30
0.0
 10
16.28336592581973
 20
-17.96001951929313
 30
0.0
 10
16.30487758853929
 20
-18.20349003062887
 30
0.0
 10
16.22839069946661
 20
-18.46160799669049
 30
0.0
  0
SPLINE
  5
6B
330
49
100
AcDbEntity
  8
Layer 1
370
     0
100
AcDbSpline
210
0.0
220
0.0
230
1.0
 70
    11
 71
     3
 72
    20
 73
    16
 74
     0
 42
0.0000000001
 43
0.0000000001
 12
1.0
 22
0.0
 32
0.0
 13
1.0
 23
0.0
 33
0.0
 40
0.0
 40
0.0
 40
0.0
 40
0.0
 40
1.0
 40
1.0
 40
1.0
 40
2.0
 40
2.0
 40
2.0
 40
3.0
 40
3.0
 40
3.0
 40
4.0
 40
4.0
 40
4.0
 40
5.0
 40
5.0
 40
5.0
 40
5.0
 10
16.67267777112028
 20
-14.37902245218985
 30
0.0
 10
16.43253162957517
 20
-14.78728232583427
 30
0.0
 10
15.77210775375357
 20
-15.02743286469389
 30
0.0
 10
15.71207121836727
 20
-15.36364713694895
 30
0.0
 10
16.36048602818587
 20
-15.02743286469389
 30
0.0
 10
16.91282391266532
 20
-15.39966993764366
 30
0.0
 10
16.91282391266532
 20
-15.39966993764366
 30
0.0
 10
16.99308369761149
 20
-15.3550811682291
 30
0.0
 10
17.059931673217
 20
-15.27094295186046
 30
0.0
 10
17.08910345786159
 20
-15.23049645274064
 30
0.0
 10
17.08910345786159
 20
-15.23049645274064
 30
0.0
 10
17.08910345786159
 20
-15.19983837578222
 30
0.0
 10
17.08910345786159
 20
-15.19983837578222
 30
0.0
 10
16.67349567162433
 20
-15.02146570886596
 30
0.0
 10
16.67267777112028
 20
-14.37902245218985
 30
0.0
 10
16.67267777112028
 20
-14.37902245218985
 30
0.0
  0
SPLINE
  5
6C
330
49
100
AcDbEntity
  8
Layer 1
370
     0
100
AcDbSpline
210
0.0
220
0.0
230
1.0
 70
    11
 71
     3
 72
    32
 73
    28
 74
     0
 42
0.0000000001
 43
0.0000000001
 12
1.0
 22
0.0
 32
0.0
 13
1.0
 23
0.0
 33
0.0
 40
0.0
 40
0.0
 40
0.0
 40
0.0
 40
1.0
 40
1.0
 40
1.0
 40
2.0
 40
2.0
 40
2.0
 40
3.0
 40
3.0
 40
3.0
 40
4.0
 40
4.0
 40
4.0
 40
5.0
 40
5.0
 40
5.0
 40
6.0
 40
6.0
 40
6.0
 40
7.0
 40
7.0
 40
7.0
 40
8.0
 40
8.0
 40
8.0
 40
9.0
 40
9.0
 40
9.0
 40
9.0
 10
15.43889684732786
 20
-17.32388640897901
 30
0.0
 10
15.3128170448965
 20
-17.90925692026736
 30
0.0
 10
15.71807355271157
 20
-18.19743932582472
 30
0.0
 10
15.69105645219057
 20
-18.09837662391437
 30
0.0
 10
15.66403935166957
 20
-17.99931392200401
 30
0.0
 10
15.70006215236421
 20
-17.90925692026736
 30
0.0
 10
15.70006215236421
 20
-17.90925692026736
 30
0.0
 10
15.85616242114598
 20
-17.48899237793443
 30
0.0
 10
16.09631296000557
 20
-17.24883744176024
 30
0.0
 10
16.16835856139492
 20
-17.12876437098772
 30
0.0
 10
16.24040416278421
 20
-17.00868690290066
 30
0.0
 10
16.99688297737228
 20
-16.40830835709436
 30
0.0
 10
16.67267777112028
 20
-15.96402568275524
 30
0.0
 10
16.34847256486828
 20
-15.51974300841618
 30
0.0
 10
15.89218522184063
 20
-15.81993447997659
 30
0.0
 10
15.89218522184063
 20
-15.81993447997659
 30
0.0
 10
15.89218522184063
 20
-15.81993447997659
 30
0.0
 10
15.80813055444821
 20
-15.95201661675218
 30
0.0
 10
15.94020829390926
 20
-15.90398914736901
 30
0.0
 10
16.45654096695228
 20
-15.73587981258418
 30
0.0
 10
16.45654096695228
 20
-16.27622182300424
 30
0.0
 10
16.45654096695228
 20
-16.27622182300424
 30
0.0
 10
16.46855443026988
 20
-16.92463223550824
 30
0.0
 10
15.68805308636115
 20
-16.81656383342424
 30
0.0
 10
15.68805308636115
 20
-16.81656383342424
 30
0.0
 10
15.68805308636115
 20
-16.81656383342424
 30
0.0
 10
15.56497664975921
 20
-16.86459570012195
 30
0.0
 10
15.43889684732786
 20
-17.32388640897901
 30
0.0
  0
SPLINE
  5
6D
330
49
100
AcDbEntity
  8
Layer 1
370
     0
100
AcDbSpline
210
0.0
220
0.0
230
1.0
 70
    11
 71
     3
 72
    26
 73
    22
 74
     0
 42
0.0000000001
 43
0.0000000001
 12
1.0
 22
0.0
 32
0.0
 13
1.0
 23
0.0
 33
0.0
 40
0.0
 40
0.0
 40
0.0
 40
0.0
 40
1.0
 40
1.0
 40
1.0
 40
2.0
 40
2.0
 40
2.0
 40
3.0
 40
3.0
 40
3.0
 40
4.0
 40
4.0
 40
4.0
 40
5.0
 40
5.0
 40
5.0
 40
6.0
 40
6.0
 40
6.0
 40
7.0
 40
7.0
 40
7.0
 40
7.0
 10
8.01519653839678
 20
-2.767671562503557
 30
0.0
 10
8.111260271792256
 20
-2.917769496941033
 30
0.0
 10
8.171296807178516
 20
-2.899758096593679
 30
0.0
 10
8.171296807178516
 20
-2.899758096593679
 30
0.0
 10
8.171296807178516
 20
-2.899758096593679
 30
0.0
 10
8.207319607873194
 20
-2.095247415307909
 30
0.0
 10
9.059857758542163
 20
-2.431461687563002
 30
0.0
 10
9.456108566183486
 20
-2.659603160419557
 30
0.0
 10
9.336035495410963
 20
-2.995817432674617
 30
0.0
 10
9.336035495410963
 20
-2.995817432674617
 30
0.0
 10
9.336035495410963
 20
-2.995817432674617
 30
0.0
 10
9.660240701662994
 20
-3.33203170492971
 30
0.0
 10
9.660240701662994
 20
-3.33203170492971
 30
0.0
 10
9.660240701662994
 20
-3.33203170492971
 30
0.0
 10
9.85257044492266
 20
-2.58157721125863
 30
0.0
 10
9.519975162532296
 20
-2.255098593390514
 30
0.0
 10
9.519975162532296
 20
-2.255098593390514
 30
0.0
 10
8.11509473006931
 20
-2.255098593390514
 30
0.0
 10
8.11509473006931
 20
-2.255098593390514
 30
0.0
 10
8.043049128679987
 20
-2.348198536787416
 30
0.0
 10
7.917488209364111
 20
-2.554485356390485
 30
0.0
 10
8.01519653839678
 20
-2.767671562503557
 30
0.0
  0
SPLINE
  5
6E
330
49
100
AcDbEntity
  8
Layer 1
370
     0
100
AcDbSpline
210
0.0
220
0.0
230
1.0
 70
    11
 71
     3
 72
    20
 73
    16
 74
     0
 42
0.0000000001
 43
0.0000000001
 12
1.0
 22
0.0
 32
0.0
 13
1.0
 23
0.0
 33
0.0
 40
0.0
 40
0.0
 40
0.0
 40
0.0
 40
1.0
 40
1.0
 40
1.0
 40
2.0
 40
2.0
 40
2.0
 40
3.0
 40
3.0
 40
3.0
 40
4.0
 40
4.0
 40
4.0
 40
5.0
 40
5.0
 40
5.0
 40
5.0
 10
9.119898691242962
 20
-4.346672458724679
 30
0.0
 10
9.31802409506364
 20
-4.172560789595619
 30
0.0
 10
9.53416089923164
 20
-3.506138976744265
 30
0.0
 10
9.53416089923164
 20
-3.482125242052649
 30
0.0
 10
9.53416089923164
 20
-3.458111507361064
 30
0.0
 10
9.31802409506364
 20
-3.139908635453295
 30
0.0
 10
9.31802409506364
 20
-3.139908635453295
 30
0.0
 10
9.31802409506364
 20
-3.139908635453295
 30
0.0
 10
9.294005963057486
 20
-3.145910969797556
 30
0.0
 10
9.294005963057486
 20
-3.145910969797556
 30
0.0
 10
9.294005963057486
 20
-3.145910969797556
 30
0.0
 10
9.029841689506286
 20
-3.584191309792387
 30
0.0
 10
8.705636483254255
 20
-3.680250645873326
 30
0.0
 10
8.975807488464286
 20
-3.734284846915326
 30
0.0
 10
9.233969427671225
 20
-4.004455852125357
 30
0.0
 10
9.119898691242962
 20
-4.346672458724679
 30
0.0
  0
SPLINE
  5
6F
330
49
100
AcDbEntity
  8
Layer 1
370
     0
100
AcDbSpline
210
0.0
220
0.0
230
1.0
 70
    11
 71
     3
 72
    14
 73
    10
 74
     0
 42
0.0000000001
 43
0.0000000001
 12
1.0
 22
0.0
 32
0.0
 13
1.0
 23
0.0
 33
0.0
 40
0.0
 40
0.0
 40
0.0
 40
0.0
 40
1.0
 40
1.0
 40
1.0
 40
2.0
 40
2.0
 40
2.0
 40
3.0
 40
3.0
 40
3.0
 40
3.0
 10
7.3023127001377
 20
-2.255098593390514
 30
0.0
 10
7.3023127001377
 20
-2.255098593390514
 30
0.0
 10
7.202243013198188
 20
-2.255098593390514
 30
0.0
 10
7.202243013198188
 20
-2.255098593390514
 30
0.0
 10
7.256796097355666
 20
-2.299546648739828
 30
0.0
 10
7.294740524503393
 20
-2.323393285479002
 30
0.0
 10
7.294740524503393
 20
-2.323393285479002
 30
0.0
 10
7.296138870526459
 20
-2.300346959985733
 30
0.0
 10
7.298856410910876
 20
-2.277608446510153
 30
0.0
 10
7.3023127001377
 20
-2.255098593390514
 30
0.0
  0
SPLINE
  5
70
330
49
100
AcDbEntity
  8
Layer 1
370
     0
100
AcDbSpline
210
0.0
220
0.0
230
1.0
 70
    11
 71
     3
 72
    23
 73
    19
 74
     0
 42
0.0000000001
 43
0.0000000001
 12
1.0
 22
0.0
 32
0.0
 13
1.0
 23
0.0
 33
0.0
 40
0.0
 40
0.0
 40
0.0
 40
0.0
 40
1.0
 40
1.0
 40
1.0
 40
2.0
 40
2.0
 40
2.0
 40
3.0
 40
3.0
 40
3.0
 40
4.0
 40
4.0
 40
4.0
 40
5.0
 40
5.0
 40
5.0
 40
6.0
 40
6.0
 40
6.0
 40
6.0
 10
6.610307311304684
 20
-2.719644093120356
 30
0.0
 10
7.81106880023184
 20
-3.259986103540387
 30
0.0
 10
7.498872659982869
 20
-4.028469586816941
 30
0.0
 10
7.606941062066869
 20
-3.896387450041325
 30
0.0
 10
7.715009464150901
 20
-3.764305313265742
 30
0.0
 10
8.099251205789162
 20
-3.608205044484003
 30
0.0
 10
8.099251205789162
 20
-3.608205044484003
 30
0.0
 10
7.270726789811809
 20
-3.368054505624387
 30
0.0
 10
7.258717723808715
 20
-2.51551195764088
 30
0.0
 10
7.258717723808715
 20
-2.51551195764088
 30
0.0
 10
7.258717723808715
 20
-2.51551195764088
 30
0.0
 10
7.025519339233589
 20
-2.436931946848172
 30
0.0
 10
6.805046782931177
 20
-2.255098593390514
 30
0.0
 10
6.805046782931177
 20
-2.255098593390514
 30
0.0
 10
6.308633944745014
 20
-2.255098593390514
 30
0.0
 10
6.308633944745014
 20
-2.255098593390514
 30
0.0
 10
6.346846608079555
 20
-2.401727046657553
 30
0.0
 10
6.435729526834601
 20
-2.562523647365815
 30
0.0
 10
6.610307311304684
 20
-2.719644093120356
 30
0.0
  0
SPLINE
  5
71
330
49
100
AcDbEntity
  8
Layer 1
370
     0
100
AcDbSpline
210
0.0
220
0.0
230
1.0
 70
    11
 71
     3
 72
    20
 73
    16
 74
     0
 42
0.0000000001
 43
0.0000000001
 12
1.0
 22
0.0
 32
0.0
 13
1.0
 23
0.0
 33
0.0
 40
0.0
 40
0.0
 40
0.0
 40
0.0
 40
1.0
 40
1.0
 40
1.0
 40
2.0
 40
2.0
 40
2.0
 40
3.0
 40
3.0
 40
3.0
 40
4.0
 40
4.0
 40
4.0
 40
5.0
 40
5.0
 40
5.0
 40
5.0
 10
5.349509286991299
 20
-2.815703429201295
 30
0.0
 10
5.565646091159299
 20
-2.623580359724879
 30
0.0
 10
6.130006233585484
 20
-2.587557559030202
 30
0.0
 10
6.130006233585484
 20
-2.587557559030202
 30
0.0
 10
6.067599545663271
 20
-2.504347176029072
 30
0.0
 10
6.057327418902666
 20
-2.361315726054039
 30
0.0
 10
6.059719558011308
 20
-2.255098593390514
 30
0.0
 10
6.059719558011308
 20
-2.255098593390514
 30
0.0
 10
5.941242712416027
 20
-2.255098593390514
 30
0.0
 10
5.941242712416027
 20
-2.255098593390514
 30
0.0
 10
5.737550308390344
 20
-2.427820711125616
 30
0.0
 10
5.409550219692099
 20
-2.599566625033263
 30
0.0
 10
5.409550219692099
 20
-2.599566625033263
 30
0.0
 10
5.385532087685976
 20
-2.719644093120356
 30
0.0
 10
5.349509286991299
 20
-2.815703429201295
 30
0.0
 10
5.349509286991299
 20
-2.815703429201295
 30
0.0
  0
SPLINE
  5
72
330
49
100
AcDbEntity
  8
Layer 1
370
     0
100
AcDbSpline
210
0.0
220
0.0
230
1.0
 70
    11
 71
     3
 72
    26
 73
    22
 74
     0
 42
0.0000000001
 43
0.0000000001
 12
1.0
 22
0.0
 32
0.0
 13
1.0
 23
0.0
 33
0.0
 40
0.0
 40
0.0
 40
0.0
 40
0.0
 40
1.0
 40
1.0
 40
1.0
 40
2.0
 40
2.0
 40
2.0
 40
3.0
 40
3.0
 40
3.0
 40
4.0
 40
4.0
 40
4.0
 40
5.0
 40
5.0
 40
5.0
 40
6.0
 40
6.0
 40
6.0
 40
7.0
 40
7.0
 40
7.0
 40
7.0
 10
5.82981476202507
 20
-4.496765995847618
 30
0.0
 10
6.21405650366333
 20
-4.544797862545389
 30
0.0
 10
6.286102105052684
 20
-4.29263825768268
 30
0.0
 10
6.286102105052684
 20
-4.29263825768268
 30
0.0
 10
6.130006233585484
 20
-4.424720394458296
 30
0.0
 10
6.021937831501485
 20
-4.352674793068973
 30
0.0
 10
6.021937831501485
 20
-4.352674793068973
 30
0.0
 10
6.021937831501485
 20
-4.352674793068973
 30
0.0
 10
5.289472751605038
 20
-4.148547054904035
 30
0.0
 10
5.589664223165453
 20
-3.524150377091587
 30
0.0
 10
6.250079304358008
 20
-2.839717163892879
 30
0.0
 10
7.054589985643776
 20
-3.464113841705326
 30
0.0
 10
7.054589985643776
 20
-3.464113841705326
 30
0.0
 10
6.742393845394838
 20
-2.767671562503557
 30
0.0
 10
6.021937831501485
 20
-2.899758096593679
 30
0.0
 10
6.021937831501485
 20
-2.899758096593679
 30
0.0
 10
6.021937831501485
 20
-2.899758096593679
 30
0.0
 10
5.349509286991299
 20
-2.947785565976879
 30
0.0
 10
5.169395283517945
 20
-3.524150377091587
 30
0.0
 10
4.989281280044622
 20
-4.100515188206296
 30
0.0
 10
5.445573020386776
 20
-4.448738526464449
 30
0.0
 10
5.82981476202507
 20
-4.496765995847618
 30
0.0
  0
SPLINE
  5
73
330
49
100
AcDbEntity
  8
Layer 1
370
     0
100
AcDbSpline
210
0.0
220
0.0
230
1.0
 70
    11
 71
     3
 72
    17
 73
    13
 74
     0
 42
0.0000000001
 43
0.0000000001
 12
1.0
 22
0.0
 32
0.0
 13
1.0
 23
0.0
 33
0.0
 40
0.0
 40
0.0
 40
0.0
 40
0.0
 40
1.0
 40
1.0
 40
1.0
 40
2.0
 40
2.0
 40
2.0
 40
3.0
 40
3.0
 40
3.0
 40
4.0
 40
4.0
 40
4.0
 40
4.0
 10
6.130006233585484
 20
-3.548168509097742
 30
0.0
 10
5.96421428356215
 20
-3.548168509097742
 30
0.0
 10
5.82981476202507
 20
-3.682568030634822
 30
0.0
 10
5.82981476202507
 20
-3.848355583343619
 30
0.0
 10
5.82981476202507
 20
-4.014147533366922
 30
0.0
 10
5.96421428356215
 20
-4.148547054904035
 30
0.0
 10
6.130006233585484
 20
-4.148547054904035
 30
0.0
 10
6.295793786294249
 20
-4.148547054904035
 30
0.0
 10
6.430193307831362
 20
-4.014147533366922
 30
0.0
 10
6.430193307831362
 20
-3.848355583343619
 30
0.0
 10
6.430193307831362
 20
-3.682568030634822
 30
0.0
 10
6.295793786294249
 20
-3.548168509097742
 30
0.0
 10
6.130006233585484
 20
-3.548168509097742
 30
0.0
  0
SPLINE
  5
74
330
49
100
AcDbEntity
  8
Layer 1
370
     0
100
AcDbSpline
210
0.0
220
0.0
230
1.0
 70
    11
 71
     3
 72
    17
 73
    13
 74
     0
 42
0.0000000001
 43
0.0000000001
 12
1.0
 22
0.0
 32
0.0
 13
1.0
 23
0.0
 33
0.0
 40
0.0
 40
0.0
 40
0.0
 40
0.0
 40
1.0
 40
1.0
 40
1.0
 40
2.0
 40
2.0
 40
2.0
 40
3.0
 40
3.0
 40
3.0
 40
4.0
 40
4.0
 40
4.0
 40
4.0
 10
6.6943619786971
 20
-4.256615456988034
 30
0.0
 10
6.6943619786971
 20
-4.256615456988034
 30
0.0
 10
6.406179573139745
 20
-4.929039604183649
 30
0.0
 10
5.649700758551715
 20
-4.760934666713388
 30
0.0
 10
5.649700758551715
 20
-4.760934666713388
 30
0.0
 10
5.457577689075299
 20
-4.953057736189804
 30
0.0
 10
5.385532087685976
 20
-4.953057736189804
 30
0.0
 10
5.385532087685976
 20
-4.953057736189804
 30
0.0
 10
5.685723559246392
 20
-5.349308543831158
 30
0.0
 10
5.541632356467715
 20
-5.997718956335189
 30
0.0
 10
5.541632356467715
 20
-5.997718956335189
 30
0.0
 10
6.682352912694038
 20
-5.301276677133419
 30
0.0
 10
6.6943619786971
 20
-4.256615456988034
 30
0.0
  0
SPLINE
  5
75
330
49
100
AcDbEntity
  8
Layer 1
370
     0
100
AcDbSpline
210
0.0
220
0.0
230
1.0
 70
    11
 71
     3
 72
    23
 73
    19
 74
     0
 42
0.0000000001
 43
0.0000000001
 12
1.0
 22
0.0
 32
0.0
 13
1.0
 23
0.0
 33
0.0
 40
0.0
 40
0.0
 40
0.0
 40
0.0
 40
1.0
 40
1.0
 40
1.0
 40
2.0
 40
2.0
 40
2.0
 40
3.0
 40
3.0
 40
3.0
 40
4.0
 40
4.0
 40
4.0
 40
5.0
 40
5.0
 40
5.0
 40
6.0
 40
6.0
 40
6.0
 40
6.0
 10
6.634325443310838
 20
-3.524150377091587
 30
0.0
 10
6.634325443310838
 20
-3.524150377091587
 30
0.0
 10
7.678986663456223
 20
-4.700898131327127
 30
0.0
 10
6.093983432890807
 20
-5.913664288942774
 30
0.0
 10
4.472957401630714
 20
-7.210485113950836
 30
0.0
 10
4.532993937017006
 20
-7.510676585511251
 30
0.0
 10
4.436934600936068
 20
-7.834881791763283
 30
0.0
 10
4.436934600936068
 20
-7.834881791763283
 30
0.0
 10
4.328866198852069
 20
-8.699429008435313
 30
0.0
 10
4.797162607882745
 20
-8.987611413992667
 30
0.0
 10
4.797162607882745
 20
-8.987611413992667
 30
0.0
 10
4.545003003020068
 20
-8.13506886600916
 30
0.0
 10
4.905231009966744
 20
-7.462644718813513
 30
0.0
 10
5.265459016913422
 20
-6.790220571617898
 30
0.0
 10
6.356626235611911
 20
-6.175959703815379
 30
0.0
 10
6.622316377307778
 20
-5.961696155640512
 30
0.0
 10
6.994553450257516
 20
-5.661504684080096
 30
0.0
 10
8.291374275265577
 20
-3.992446786122264
 30
0.0
 10
6.634325443310838
 20
-3.524150377091587
 30
0.0
  0
SPLINE
  5
76
330
49
100
AcDbEntity
  8
Layer 1
370
     0
100
AcDbSpline
210
0.0
220
0.0
230
1.0
 70
    11
 71
     3
 72
    20
 73
    16
 74
     0
 42
0.0000000001
 43
0.0000000001
 12
1.0
 22
0.0
 32
0.0
 13
1.0
 23
0.0
 33
0.0
 40
0.0
 40
0.0
 40
0.0
 40
0.0
 40
1.0
 40
1.0
 40
1.0
 40
2.0
 40
2.0
 40
2.0
 40
3.0
 40
3.0
 40
3.0
 40
4.0
 40
4.0
 40
4.0
 40
5.0
 40
5.0
 40
5.0
 40
5.0
 10
5.121367814134777
 20
-4.772943732716449
 30
0.0
 10
5.229436216218776
 20
-4.71290280001565
 30
0.0
 10
5.313486486296622
 20
-4.580820663240034
 30
0.0
 10
5.313486486296622
 20
-4.580820663240034
 30
0.0
 10
4.881212877960623
 20
-4.412715725769773
 30
0.0
 10
4.881212877960623
 20
-3.75229624726268
 30
0.0
 10
4.881212877960623
 20
-3.75229624726268
 30
0.0
 10
4.654219104198472
 20
-4.138191379167209
 30
0.0
 10
4.052442212369113
 20
-4.374001768577873
 30
0.0
 10
3.936419068286004
 20
-4.682600905534806
 30
0.0
 10
3.936419068286004
 20
-4.682600905534806
 30
0.0
 10
3.936419068286004
 20
-4.729216836951326
 30
0.0
 10
3.936419068286004
 20
-4.729216836951326
 30
0.0
 10
4.577943286223647
 20
-4.407157520193843
 30
0.0
 10
5.121367814134777
 20
-4.772943732716449
 30
0.0
 10
5.121367814134777
 20
-4.772943732716449
 30
0.0
  0
SPLINE
  5
77
330
49
100
AcDbEntity
  8
Layer 1
370
     0
100
AcDbSpline
210
0.0
220
0.0
230
1.0
 70
    11
 71
     3
 72
    26
 73
    22
 74
     0
 42
0.0000000001
 43
0.0000000001
 12
1.0
 22
0.0
 32
0.0
 13
1.0
 23
0.0
 33
0.0
 40
0.0
 40
0.0
 40
0.0
 40
0.0
 40
1.0
 40
1.0
 40
1.0
 40
2.0
 40
2.0
 40
2.0
 40
3.0
 40
3.0
 40
3.0
 40
4.0
 40
4.0
 40
4.0
 40
5.0
 40
5.0
 40
5.0
 40
6.0
 40
6.0
 40
6.0
 40
7.0
 40
7.0
 40
7.0
 40
7.0
 10
4.881212877960623
 20
-5.337299477828065
 30
0.0
 10
4.557007671708591
 20
-4.893016803488972
 30
0.0
 10
4.100720328680976
 20
-5.193208275049388
 30
0.0
 10
4.100720328680976
 20
-5.193208275049388
 30
0.0
 10
4.100720328680976
 20
-5.193208275049388
 30
0.0
 10
4.01666566128856
 20
-5.325290411825003
 30
0.0
 10
4.148752195378714
 20
-5.277262942441803
 30
0.0
 10
4.665076073792591
 20
-5.109153607657004
 30
0.0
 10
4.665076073792591
 20
-5.649495618077035
 30
0.0
 10
4.665076073792591
 20
-5.649495618077035
 30
0.0
 10
4.675449338787569
 20
-6.209603557345029
 30
0.0
 10
4.094845516458315
 20
-6.205232626694312
 30
0.0
 10
3.936419068286004
 20
-6.193658894830508
 30
0.0
 10
3.936419068286004
 20
-6.193658894830508
 30
0.0
 10
3.936419068286004
 20
-7.211848281457598
 30
0.0
 10
3.936419068286004
 20
-7.211848281457598
 30
0.0
 10
4.091864137201588
 20
-6.835152331566385
 30
0.0
 10
4.308999131769701
 20
-6.615194261064912
 30
0.0
 10
4.376893668235237
 20
-6.502038166060543
 30
0.0
 10
4.448939269624591
 20
-6.38196069797345
 30
0.0
 10
5.205418084212623
 20
-5.781582152167157
 30
0.0
 10
4.881212877960623
 20
-5.337299477828065
 30
0.0
  0
SPLINE
  5
78
330
49
100
AcDbEntity
  8
Layer 1
370
     0
100
AcDbSpline
210
0.0
220
0.0
230
1.0
 70
    11
 71
     3
 72
    23
 73
    19
 74
     0
 42
0.0000000001
 43
0.0000000001
 12
1.0
 22
0.0
 32
0.0
 13
1.0
 23
0.0
 33
0.0
 40
0.0
 40
0.0
 40
0.0
 40
0.0
 40
1.0
 40
1.0
 40
1.0
 40
2.0
 40
2.0
 40
2.0
 40
3.0
 40
3.0
 40
3.0
 40
4.0
 40
4.0
 40
4.0
 40
5.0
 40
5.0
 40
5.0
 40
6.0
 40
6.0
 40
6.0
 40
6.0
 10
6.190042768971746
 20
-6.586088436138389
 30
0.0
 10
6.802430380781099
 20
-6.538060966755221
 30
0.0
 10
7.06659905164687
 20
-6.742188704920159
 30
0.0
 10
7.06659905164687
 20
-6.742188704920159
 30
0.0
 10
7.06659905164687
 20
-6.742188704920159
 30
0.0
 10
7.258717723808715
 20
-6.778211505614804
 30
0.0
 10
7.138644653036192
 20
-6.682152169533865
 30
0.0
 10
7.018567184949132
 20
-6.586088436138389
 30
0.0
 10
6.982544384254454
 20
-6.345937897278804
 30
0.0
 10
7.150649321724716
 20
-6.093778292416128
 30
0.0
 10
7.318758656509547
 20
-5.841618687553451
 30
0.0
 10
7.847091600926485
 20
-5.901655222939712
 30
0.0
 10
7.847091600926485
 20
-5.901655222939712
 30
0.0
 10
7.763036933534069
 20
-5.817604952861834
 30
0.0
 10
7.498872659982869
 20
-5.385331344525803
 30
0.0
 10
7.498872659982869
 20
-5.385331344525803
 30
0.0
 10
7.210690254425547
 20
-5.913664288942774
 30
0.0
 10
6.6943619786971
 20
-6.333928831275744
 30
0.0
 10
6.190042768971746
 20
-6.586088436138389
 30
0.0
  0
SPLINE
  5
79
330
49
100
AcDbEntity
  8
Layer 1
370
     0
100
AcDbSpline
210
0.0
220
0.0
230
1.0
 70
    11
 71
     3
 72
    26
 73
    22
 74
     0
 42
0.0000000001
 43
0.0000000001
 12
1.0
 22
0.0
 32
0.0
 13
1.0
 23
0.0
 33
0.0
 40
0.0
 40
0.0
 40
0.0
 40
0.0
 40
1.0
 40
1.0
 40
1.0
 40
2.0
 40
2.0
 40
2.0
 40
3.0
 40
3.0
 40
3.0
 40
4.0
 40
4.0
 40
4.0
 40
5.0
 40
5.0
 40
5.0
 40
6.0
 40
6.0
 40
6.0
 40
7.0
 40
7.0
 40
7.0
 40
7.0
 10
8.483492947427456
 20
-6.033741757029834
 30
0.0
 10
8.375424545343455
 20
-5.241240141747158
 30
0.0
 10
8.951789356458132
 20
-4.796957467408066
 30
0.0
 10
8.951789356458132
 20
-4.796957467408066
 30
0.0
 10
8.99982122315587
 20
-4.676879999320972
 30
0.0
 10
8.843720954374131
 20
-4.772943732716449
 30
0.0
 10
8.843720954374131
 20
-4.772943732716449
 30
0.0
 10
8.843720954374131
 20
-4.772943732716449
 30
0.0
 10
8.303378943954101
 20
-4.989080536884449
 30
0.0
 10
8.1472830724869
 20
-4.544797862545389
 30
0.0
 10
8.13527400648384
 20
-4.052487718823095
 30
0.0
 10
8.56754761481987
 20
-4.124533320212418
 30
0.0
 10
8.56754761481987
 20
-4.124533320212418
 30
0.0
 10
8.56754761481987
 20
-4.124533320212418
 30
0.0
 10
8.651602282212254
 20
-4.064492387511619
 30
0.0
 10
8.543533880128255
 20
-4.040478652820003
 30
0.0
 10
8.279365209262517
 20
-3.86036464934668
 30
0.0
 10
7.54690012936607
 20
-4.136537988900941
 30
0.0
 10
7.751032264845546
 20
-4.917034935495127
 30
0.0
 10
7.955160003010485
 20
-5.697527484774773
 30
0.0
 10
8.483492947427456
 20
-6.033741757029834
 30
0.0
 10
8.483492947427456
 20
-6.033741757029834
 30
0.0
  0
SPLINE
  5
7A
330
49
100
AcDbEntity
  8
Layer 1
370
     0
100
AcDbSpline
210
0.0
220
0.0
230
1.0
 70
    11
 71
     3
 72
    17
 73
    13
 74
     0
 42
0.0000000001
 43
0.0000000001
 12
1.0
 22
0.0
 32
0.0
 13
1.0
 23
0.0
 33
0.0
 40
0.0
 40
0.0
 40
0.0
 40
0.0
 40
1.0
 40
1.0
 40
1.0
 40
2.0
 40
2.0
 40
2.0
 40
3.0
 40
3.0
 40
3.0
 40
4.0
 40
4.0
 40
4.0
 40
4.0
 10
9.360049230102579
 20
-5.229231075744065
 30
0.0
 10
9.360049230102579
 20
-5.229231075744065
 30
0.0
 10
9.275994562710164
 20
-5.001085205573004
 30
0.0
 10
9.071866824545225
 20
-5.853627753556512
 30
0.0
 10
8.867739086380286
 20
-6.706165904225482
 30
0.0
 10
9.300012694716285
 20
-7.006357375785897
 30
0.0
 10
9.300012694716285
 20
-7.006357375785897
 30
0.0
 10
9.312017363404841
 20
-6.249878561197866
 30
0.0
 10
9.48012669818964
 20
-6.189837628497035
 30
0.0
 10
9.6482316356599
 20
-5.973700824329034
 30
0.0
 10
9.288003628713223
 20
-5.793586820855713
 30
0.0
 10
9.360049230102579
 20
-5.229231075744065
 30
0.0
 10
9.360049230102579
 20
-5.229231075744065
 30
0.0
  0
SPLINE
  5
7B
330
49
100
AcDbEntity
  8
Layer 1
370
     0
100
AcDbSpline
210
0.0
220
0.0
230
1.0
 70
    11
 71
     3
 72
    26
 73
    22
 74
     0
 42
0.0000000001
 43
0.0000000001
 12
1.0
 22
0.0
 32
0.0
 13
1.0
 23
0.0
 33
0.0
 40
0.0
 40
0.0
 40
0.0
 40
0.0
 40
1.0
 40
1.0
 40
1.0
 40
2.0
 40
2.0
 40
2.0
 40
3.0
 40
3.0
 40
3.0
 40
4.0
 40
4.0
 40
4.0
 40
5.0
 40
5.0
 40
5.0
 40
6.0
 40
6.0
 40
6.0
 40
7.0
 40
7.0
 40
7.0
 40
7.0
 10
13.8989221176308
 20
-2.767671562503557
 30
0.0
 10
13.99498145371174
 20
-2.917769496941033
 30
0.0
 10
14.05502238641257
 20
-2.899758096593679
 30
0.0
 10
14.05502238641257
 20
-2.899758096593679
 30
0.0
 10
14.05502238641257
 20
-2.899758096593679
 30
0.0
 10
14.09104518710721
 20
-2.095247415307909
 30
0.0
 10
14.94358333777615
 20
-2.431461687563002
 30
0.0
 10
15.3398341454175
 20
-2.659603160419557
 30
0.0
 10
15.21975667733044
 20
-2.995817432674617
 30
0.0
 10
15.21975667733044
 20
-2.995817432674617
 30
0.0
 10
15.21975667733044
 20
-2.995817432674617
 30
0.0
 10
15.54396188358244
 20
-3.33203170492971
 30
0.0
 10
15.54396188358244
 20
-3.33203170492971
 30
0.0
 10
15.54396188358244
 20
-3.33203170492971
 30
0.0
 10
15.73629602415668
 20
-2.58157721125863
 30
0.0
 10
15.40370074176635
 20
-2.255098593390514
 30
0.0
 10
15.40370074176635
 20
-2.255098593390514
 30
0.0
 10
13.99882030930336
 20
-2.255098593390514
 30
0.0
 10
13.99882030930336
 20
-2.255098593390514
 30
0.0
 10
13.92677470791401
 20
-2.348198536787416
 30
0.0
 10
13.80121378859813
 20
-2.554485356390485
 30
0.0
 10
13.8989221176308
 20
-2.767671562503557
 30
0.0
  0
SPLINE
  5
7C
330
49
100
AcDbEntity
  8
Layer 1
370
     0
100
AcDbSpline
210
0.0
220
0.0
230
1.0
 70
    11
 71
     3
 72
    20
 73
    16
 74
     0
 42
0.0000000001
 43
0.0000000001
 12
1.0
 22
0.0
 32
0.0
 13
1.0
 23
0.0
 33
0.0
 40
0.0
 40
0.0
 40
0.0
 40
0.0
 40
1.0
 40
1.0
 40
1.0
 40
2.0
 40
2.0
 40
2.0
 40
3.0
 40
3.0
 40
3.0
 40
4.0
 40
4.0
 40
4.0
 40
5.0
 40
5.0
 40
5.0
 40
5.0
 10
15.00361987316244
 20
-4.346672458724679
 30
0.0
 10
15.20174527698315
 20
-4.172560789595619
 30
0.0
 10
15.41788208115115
 20
-3.506138976744265
 30
0.0
 10
15.41788208115115
 20
-3.482125242052649
 30
0.0
 10
15.41788208115115
 20
-3.458111507361064
 30
0.0
 10
15.20174527698315
 20
-3.139908635453295
 30
0.0
 10
15.20174527698315
 20
-3.139908635453295
 30
0.0
 10
15.20174527698315
 20
-3.139908635453295
 30
0.0
 10
15.1777315422915
 20
-3.145910969797556
 30
0.0
 10
15.1777315422915
 20
-3.145910969797556
 30
0.0
 10
15.1777315422915
 20
-3.145910969797556
 30
0.0
 10
14.9135628714258
 20
-3.584191309792387
 30
0.0
 10
14.58935766517373
 20
-3.680250645873326
 30
0.0
 10
14.8595286703838
 20
-3.734284846915326
 30
0.0
 10
15.11769500690527
 20
-4.004455852125357
 30
0.0
 10
15.00361987316244
 20
-4.346672458724679
 30
0.0
  0
SPLINE
  5
7D
330
49
100
AcDbEntity
  8
Layer 1
370
     0
100
AcDbSpline
210
0.0
220
0.0
230
1.0
 70
    11
 71
     3
 72
    14
 73
    10
 74
     0
 42
0.0000000001
 43
0.0000000001
 12
1.0
 22
0.0
 32
0.0
 13
1.0
 23
0.0
 33
0.0
 40
0.0
 40
0.0
 40
0.0
 40
0.0
 40
1.0
 40
1.0
 40
1.0
 40
2.0
 40
2.0
 40
2.0
 40
3.0
 40
3.0
 40
3.0
 40
3.0
 10
13.18603827937172
 20
-2.255098593390514
 30
0.0
 10
13.18603827937172
 20
-2.255098593390514
 30
0.0
 10
13.08596859243218
 20
-2.255098593390514
 30
0.0
 10
13.08596859243218
 20
-2.255098593390514
 30
0.0
 10
13.14052167658965
 20
-2.299546648739828
 30
0.0
 10
13.17846610373744
 20
-2.323393285479002
 30
0.0
 10
13.17846610373744
 20
-2.323393285479002
 30
0.0
 10
13.17986444976051
 20
-2.300346959985733
 30
0.0
 10
13.18258199014489
 20
-2.277608446510153
 30
0.0
 10
13.18603827937172
 20
-2.255098593390514
 30
0.0
  0
SPLINE
  5
7E
330
49
100
AcDbEntity
  8
Layer 1
370
     0
100
AcDbSpline
210
0.0
220
0.0
230
1.0
 70
    11
 71
     3
 72
    23
 73
    19
 74
     0
 42
0.0000000001
 43
0.0000000001
 12
1.0
 22
0.0
 32
0.0
 13
1.0
 23
0.0
 33
0.0
 40
0.0
 40
0.0
 40
0.0
 40
0.0
 40
1.0
 40
1.0
 40
1.0
 40
2.0
 40
2.0
 40
2.0
 40
3.0
 40
3.0
 40
3.0
 40
4.0
 40
4.0
 40
4.0
 40
5.0
 40
5.0
 40
5.0
 40
6.0
 40
6.0
 40
6.0
 40
6.0
 10
12.49403289053874
 20
-2.719644093120356
 30
0.0
 10
13.69479437946586
 20
-3.259986103540387
 30
0.0
 10
13.38259384190238
 20
-4.028469586816941
 30
0.0
 10
13.49066224398638
 20
-3.896387450041325
 30
0.0
 10
13.59873064607038
 20
-3.764305313265742
 30
0.0
 10
13.98297678502321
 20
-3.608205044484003
 30
0.0
 10
13.98297678502321
 20
-3.608205044484003
 30
0.0
 10
13.15445236904579
 20
-3.368054505624387
 30
0.0
 10
13.14244330304273
 20
-2.51551195764088
 30
0.0
 10
13.14244330304273
 20
-2.51551195764088
 30
0.0
 10
13.14244330304273
 20
-2.51551195764088
 30
0.0
 10
12.90924491846758
 20
-2.436931946848172
 30
0.0
 10
12.68877236216523
 20
-2.255098593390514
 30
0.0
 10
12.68877236216523
 20
-2.255098593390514
 30
0.0
 10
12.19235952397903
 20
-2.255098593390514
 30
0.0
 10
12.19235952397903
 20
-2.255098593390514
 30
0.0
 10
12.23057218731357
 20
-2.401727046657553
 30
0.0
 10
12.31945510606865
 20
-2.562523647365815
 30
0.0
 10
12.49403289053874
 20
-2.719644093120356
 30
0.0
  0
SPLINE
  5
7F
330
49
100
AcDbEntity
  8
Layer 1
370
     0
100
AcDbSpline
210
0.0
220
0.0
230
1.0
 70
    11
 71
     3
 72
    20
 73
    16
 74
     0
 42
0.0000000001
 43
0.0000000001
 12
1.0
 22
0.0
 32
0.0
 13
1.0
 23
0.0
 33
0.0
 40
0.0
 40
0.0
 40
0.0
 40
0.0
 40
1.0
 40
1.0
 40
1.0
 40
2.0
 40
2.0
 40
2.0
 40
3.0
 40
3.0
 40
3.0
 40
4.0
 40
4.0
 40
4.0
 40
5.0
 40
5.0
 40
5.0
 40
5.0
 10
11.23323486622532
 20
-2.815703429201295
 30
0.0
 10
11.44937167039332
 20
-2.623580359724879
 30
0.0
 10
12.01372741550496
 20
-2.587557559030202
 30
0.0
 10
12.01372741550496
 20
-2.587557559030202
 30
0.0
 10
11.95132072758278
 20
-2.504347176029072
 30
0.0
 10
11.94104420350761
 20
-2.361315726054039
 30
0.0
 10
11.94344073993079
 20
-2.255098593390514
 30
0.0
 10
11.94344073993079
 20
-2.255098593390514
 30
0.0
 10
11.82496829165008
 20
-2.255098593390514
 30
0.0
 10
11.82496829165008
 20
-2.255098593390514
 30
0.0
 10
11.62127588762439
 20
-2.427820711125616
 30
0.0
 10
11.29327140161161
 20
-2.599566625033263
 30
0.0
 10
11.29327140161161
 20
-2.599566625033263
 30
0.0
 10
11.26925766692003
 20
-2.719644093120356
 30
0.0
 10
11.23323486622532
 20
-2.815703429201295
 30
0.0
 10
11.23323486622532
 20
-2.815703429201295
 30
0.0
  0
SPLINE
  5
80
330
49
100
AcDbEntity
  8
Layer 1
370
     0
100
AcDbSpline
210
0.0
220
0.0
230
1.0
 70
    11
 71
     3
 72
    26
 73
    22
 74
     0
 42
0.0000000001
 43
0.0000000001
 12
1.0
 22
0.0
 32
0.0
 13
1.0
 23
0.0
 33
0.0
 40
0.0
 40
0.0
 40
0.0
 40
0.0
 40
1.0
 40
1.0
 40
1.0
 40
2.0
 40
2.0
 40
2.0
 40
3.0
 40
3.0
 40
3.0
 40
4.0
 40
4.0
 40
4.0
 40
5.0
 40
5.0
 40
5.0
 40
6.0
 40
6.0
 40
6.0
 40
7.0
 40
7.0
 40
7.0
 40
7.0
 10
11.71354034125909
 20
-4.496765995847618
 30
0.0
 10
12.09778208289738
 20
-4.544797862545389
 30
0.0
 10
12.16982768428674
 20
-4.29263825768268
 30
0.0
 10
12.16982768428674
 20
-4.29263825768268
 30
0.0
 10
12.01372741550496
 20
-4.424720394458296
 30
0.0
 10
11.90565901342097
 20
-4.352674793068973
 30
0.0
 10
11.90565901342097
 20
-4.352674793068973
 30
0.0
 10
11.90565901342097
 20
-4.352674793068973
 30
0.0
 10
11.17319833083902
 20
-4.148547054904035
 30
0.0
 10
11.47338540508497
 20
-3.524150377091587
 30
0.0
 10
12.13380488359203
 20
-2.839717163892879
 30
0.0
 10
12.9383155648778
 20
-3.464113841705326
 30
0.0
 10
12.9383155648778
 20
-3.464113841705326
 30
0.0
 10
12.62611502731432
 20
-2.767671562503557
 30
0.0
 10
11.90565901342097
 20
-2.899758096593679
 30
0.0
 10
11.90565901342097
 20
-2.899758096593679
 30
0.0
 10
11.90565901342097
 20
-2.899758096593679
 30
0.0
 10
11.23323486622532
 20
-2.947785565976879
 30
0.0
 10
11.05312086275196
 20
-3.524150377091587
 30
0.0
 10
10.87300685927861
 20
-4.100515188206296
 30
0.0
 10
11.32929420230626
 20
-4.448738526464449
 30
0.0
 10
11.71354034125909
 20
-4.496765995847618
 30
0.0
  0
SPLINE
  5
81
330
49
100
AcDbEntity
  8
Layer 1
370
     0
100
AcDbSpline
210
0.0
220
0.0
230
1.0
 70
    11
 71
     3
 72
    17
 73
    13
 74
     0
 42
0.0000000001
 43
0.0000000001
 12
1.0
 22
0.0
 32
0.0
 13
1.0
 23
0.0
 33
0.0
 40
0.0
 40
0.0
 40
0.0
 40
0.0
 40
1.0
 40
1.0
 40
1.0
 40
2.0
 40
2.0
 40
2.0
 40
3.0
 40
3.0
 40
3.0
 40
4.0
 40
4.0
 40
4.0
 40
4.0
 10
12.01372741550496
 20
-3.548168509097742
 30
0.0
 10
11.84793986279617
 20
-3.548168509097742
 30
0.0
 10
11.71354034125909
 20
-3.682568030634822
 30
0.0
 10
11.71354034125909
 20
-3.848355583343619
 30
0.0
 10
11.71354034125909
 20
-4.014147533366922
 30
0.0
 10
11.84793986279617
 20
-4.148547054904035
 30
0.0
 10
12.01372741550496
 20
-4.148547054904035
 30
0.0
 10
12.1795193655283
 20
-4.148547054904035
 30
0.0
 10
12.31391888706538
 20
-4.014147533366922
 30
0.0
 10
12.31391888706538
 20
-3.848355583343619
 30
0.0
 10
12.31391888706538
 20
-3.682568030634822
 30
0.0
 10
12.1795193655283
 20
-3.548168509097742
 30
0.0
 10
12.01372741550496
 20
-3.548168509097742
 30
0.0
  0
SPLINE
  5
82
330
49
100
AcDbEntity
  8
Layer 1
370
     0
100
AcDbSpline
210
0.0
220
0.0
230
1.0
 70
    11
 71
     3
 72
    17
 73
    13
 74
     0
 42
0.0000000001
 43
0.0000000001
 12
1.0
 22
0.0
 32
0.0
 13
1.0
 23
0.0
 33
0.0
 40
0.0
 40
0.0
 40
0.0
 40
0.0
 40
1.0
 40
1.0
 40
1.0
 40
2.0
 40
2.0
 40
2.0
 40
3.0
 40
3.0
 40
3.0
 40
4.0
 40
4.0
 40
4.0
 40
4.0
 10
11.53342633778573
 20
-4.760934666713388
 30
0.0
 10
11.53342633778573
 20
-4.760934666713388
 30
0.0
 10
11.34130326830932
 20
-4.953057736189804
 30
0.0
 10
11.26925766692003
 20
-4.953057736189804
 30
0.0
 10
11.26925766692003
 20
-4.953057736189804
 30
0.0
 10
11.56944913848044
 20
-5.349308543831158
 30
0.0
 10
11.42535793570173
 20
-5.997718956335189
 30
0.0
 10
11.42535793570173
 20
-5.997718956335189
 30
0.0
 10
12.56607849192802
 20
-5.301276677133419
 30
0.0
 10
12.57808755793115
 20
-4.256615456988034
 30
0.0
 10
12.57808755793115
 20
-4.256615456988034
 30
0.0
 10
12.2899051523738
 20
-4.929039604183649
 30
0.0
 10
11.53342633778573
 20
-4.760934666713388
 30
0.0
  0
SPLINE
  5
83
330
49
100
AcDbEntity
  8
Layer 1
370
     0
100
AcDbSpline
210
0.0
220
0.0
230
1.0
 70
    11
 71
     3
 72
    23
 73
    19
 74
     0
 42
0.0000000001
 43
0.0000000001
 12
1.0
 22
0.0
 32
0.0
 13
1.0
 23
0.0
 33
0.0
 40
0.0
 40
0.0
 40
0.0
 40
0.0
 40
1.0
 40
1.0
 40
1.0
 40
2.0
 40
2.0
 40
2.0
 40
3.0
 40
3.0
 40
3.0
 40
4.0
 40
4.0
 40
4.0
 40
5.0
 40
5.0
 40
5.0
 40
6.0
 40
6.0
 40
6.0
 40
6.0
 10
11.97770461481032
 20
-5.913664288942774
 30
0.0
 10
10.35667858355023
 20
-7.210485113950836
 30
0.0
 10
10.41671951625102
 20
-7.510676585511251
 30
0.0
 10
10.32065578285555
 20
-7.834881791763283
 30
0.0
 10
10.32065578285555
 20
-7.834881791763283
 30
0.0
 10
10.21258738077155
 20
-8.699429008435313
 30
0.0
 10
10.68088378980226
 20
-8.987611413992667
 30
0.0
 10
10.68088378980226
 20
-8.987611413992667
 30
0.0
 10
10.42872418493955
 20
-8.13506886600916
 30
0.0
 10
10.78895219188626
 20
-7.462644718813513
 30
0.0
 10
11.1491801988329
 20
-6.790220571617898
 30
0.0
 10
12.2403518148459
 20
-6.175959703815379
 30
0.0
 10
12.50604195654179
 20
-5.961696155640512
 30
0.0
 10
12.87827463217703
 20
-5.661504684080096
 30
0.0
 10
14.17509545718509
 20
-3.992446786122264
 30
0.0
 10
12.51804662523032
 20
-3.524150377091587
 30
0.0
 10
12.51804662523032
 20
-3.524150377091587
 30
0.0
 10
13.56270784537574
 20
-4.700898131327127
 30
0.0
 10
11.97770461481032
 20
-5.913664288942774
 30
0.0
  0
SPLINE
  5
84
330
49
100
AcDbEntity
  8
Layer 1
370
     0
100
AcDbSpline
210
0.0
220
0.0
230
1.0
 70
    11
 71
     3
 72
    17
 73
    13
 74
     0
 42
0.0000000001
 43
0.0000000001
 12
1.0
 22
0.0
 32
0.0
 13
1.0
 23
0.0
 33
0.0
 40
0.0
 40
0.0
 40
0.0
 40
0.0
 40
1.0
 40
1.0
 40
1.0
 40
2.0
 40
2.0
 40
2.0
 40
3.0
 40
3.0
 40
3.0
 40
4.0
 40
4.0
 40
4.0
 40
4.0
 10
11.00508899605426
 20
-4.772943732716449
 30
0.0
 10
11.11315739813826
 20
-4.71290280001565
 30
0.0
 10
11.19721206553067
 20
-4.580820663240034
 30
0.0
 10
11.19721206553067
 20
-4.580820663240034
 30
0.0
 10
10.76493845719461
 20
-4.412715725769773
 30
0.0
 10
10.76493845719461
 20
-3.75229624726268
 30
0.0
 10
10.76493845719461
 20
-3.75229624726268
 30
0.0
 10
10.52478791833503
 20
-4.160556120907096
 30
0.0
 10
9.864368439827933
 20
-4.400706659766711
 30
0.0
 10
9.804331904441671
 20
-4.736920932021772
 30
0.0
 10
10.4527423169457
 20
-4.400706659766711
 30
0.0
 10
11.00508899605426
 20
-4.772943732716449
 30
0.0
 10
11.00508899605426
 20
-4.772943732716449
 30
0.0
  0
SPLINE
  5
85
330
49
100
AcDbEntity
  8
Layer 1
370
     0
100
AcDbSpline
210
0.0
220
0.0
230
1.0
 70
    11
 71
     3
 72
    32
 73
    28
 74
     0
 42
0.0000000001
 43
0.0000000001
 12
1.0
 22
0.0
 32
0.0
 13
1.0
 23
0.0
 33
0.0
 40
0.0
 40
0.0
 40
0.0
 40
0.0
 40
1.0
 40
1.0
 40
1.0
 40
2.0
 40
2.0
 40
2.0
 40
3.0
 40
3.0
 40
3.0
 40
4.0
 40
4.0
 40
4.0
 40
5.0
 40
5.0
 40
5.0
 40
6.0
 40
6.0
 40
6.0
 40
7.0
 40
7.0
 40
7.0
 40
8.0
 40
8.0
 40
8.0
 40
9.0
 40
9.0
 40
9.0
 40
9.0
 10
9.783317138264932
 20
-7.47165041898719
 30
0.0
 10
9.756300037743934
 20
-7.372587717076835
 30
0.0
 10
9.792322838438578
 20
-7.282530715340158
 30
0.0
 10
9.792322838438578
 20
-7.282530715340158
 30
0.0
 10
9.948423107220316
 20
-6.86226617300722
 30
0.0
 10
10.18857364607993
 20
-6.622111236833065
 30
0.0
 10
10.26061924746929
 20
-6.502038166060543
 30
0.0
 10
10.33266484885861
 20
-6.38196069797345
 30
0.0
 10
11.08914366344667
 20
-5.781582152167157
 30
0.0
 10
10.76493845719461
 20
-5.337299477828065
 30
0.0
 10
10.44073325094261
 20
-4.893016803488972
 30
0.0
 10
9.984445907914994
 20
-5.193208275049388
 30
0.0
 10
9.984445907914994
 20
-5.193208275049388
 30
0.0
 10
9.984445907914994
 20
-5.193208275049388
 30
0.0
 10
9.90039124052261
 20
-5.325290411825003
 30
0.0
 10
10.03247337729819
 20
-5.277262942441803
 30
0.0
 10
10.54880165302661
 20
-5.109153607657004
 30
0.0
 10
10.54880165302661
 20
-5.649495618077035
 30
0.0
 10
10.54880165302661
 20
-5.649495618077035
 30
0.0
 10
10.56081071902967
 20
-6.297906030581067
 30
0.0
 10
9.780313772435518
 20
-6.189837628497035
 30
0.0
 10
9.780313772435518
 20
-6.189837628497035
 30
0.0
 10
9.780313772435518
 20
-6.189837628497035
 30
0.0
 10
9.657237335833578
 20
-6.237869495194805
 30
0.0
 10
9.531157533402256
 20
-6.697160204051804
 30
0.0
 10
9.405077730970902
 20
-7.282530715340158
 30
0.0
 10
9.810334238785932
 20
-7.570713120897512
 30
0.0
 10
9.783317138264932
 20
-7.47165041898719
 30
0.0
  0
SPLINE
  5
86
330
49
100
AcDbEntity
  8
Layer 1
370
     0
100
AcDbSpline
210
0.0
220
0.0
230
1.0
 70
    11
 71
     3
 72
    23
 73
    19
 74
     0
 42
0.0000000001
 43
0.0000000001
 12
1.0
 22
0.0
 32
0.0
 13
1.0
 23
0.0
 33
0.0
 40
0.0
 40
0.0
 40
0.0
 40
0.0
 40
1.0
 40
1.0
 40
1.0
 40
2.0
 40
2.0
 40
2.0
 40
3.0
 40
3.0
 40
3.0
 40
4.0
 40
4.0
 40
4.0
 40
5.0
 40
5.0
 40
5.0
 40
6.0
 40
6.0
 40
6.0
 40
6.0
 10
12.0737683482058
 20
-6.586088436138389
 30
0.0
 10
12.68615596001515
 20
-6.538060966755221
 30
0.0
 10
12.95032023356632
 20
-6.742188704920159
 30
0.0
 10
12.95032023356632
 20
-6.742188704920159
 30
0.0
 10
12.95032023356632
 20
-6.742188704920159
 30
0.0
 10
13.14244330304273
 20
-6.778211505614804
 30
0.0
 10
13.02236583495567
 20
-6.682152169533865
 30
0.0
 10
12.90229276418315
 20
-6.586088436138389
 30
0.0
 10
12.86626996348844
 20
-6.345937897278804
 30
0.0
 10
13.03437490095873
 20
-6.093778292416128
 30
0.0
 10
13.20247983842903
 20
-5.841618687553451
 30
0.0
 10
13.7308171801605
 20
-5.901655222939712
 30
0.0
 10
13.7308171801605
 20
-5.901655222939712
 30
0.0
 10
13.64676251276809
 20
-5.817604952861834
 30
0.0
 10
13.38259384190238
 20
-5.385331344525803
 30
0.0
 10
13.38259384190238
 20
-5.385331344525803
 30
0.0
 10
13.09441143634503
 20
-5.913664288942774
 30
0.0
 10
12.57808755793115
 20
-6.333928831275744
 30
0.0
 10
12.0737683482058
 20
-6.586088436138389
 30
0.0
  0
SPLINE
  5
87
330
49
100
AcDbEntity
  8
Layer 1
370
     0
100
AcDbSpline
210
0.0
220
0.0
230
1.0
 70
    11
 71
     3
 72
    26
 73
    22
 74
     0
 42
0.0000000001
 43
0.0000000001
 12
1.0
 22
0.0
 32
0.0
 13
1.0
 23
0.0
 33
0.0
 40
0.0
 40
0.0
 40
0.0
 40
0.0
 40
1.0
 40
1.0
 40
1.0
 40
2.0
 40
2.0
 40
2.0
 40
3.0
 40
3.0
 40
3.0
 40
4.0
 40
4.0
 40
4.0
 40
5.0
 40
5.0
 40
5.0
 40
6.0
 40
6.0
 40
6.0
 40
7.0
 40
7.0
 40
7.0
 40
7.0
 10
14.3672185266615
 20
-6.033741757029834
 30
0.0
 10
14.25915012457744
 20
-5.241240141747158
 30
0.0
 10
14.83551493569215
 20
-4.796957467408066
 30
0.0
 10
14.83551493569215
 20
-4.796957467408066
 30
0.0
 10
14.88354680238992
 20
-4.676879999320972
 30
0.0
 10
14.72744653360815
 20
-4.772943732716449
 30
0.0
 10
14.72744653360815
 20
-4.772943732716449
 30
0.0
 10
14.72744653360815
 20
-4.772943732716449
 30
0.0
 10
14.18710452318815
 20
-4.989080536884449
 30
0.0
 10
14.03100425440638
 20
-4.544797862545389
 30
0.0
 10
14.01899958571786
 20
-4.052487718823095
 30
0.0
 10
14.45127319405386
 20
-4.124533320212418
 30
0.0
 10
14.45127319405386
 20
-4.124533320212418
 30
0.0
 10
14.45127319405386
 20
-4.124533320212418
 30
0.0
 10
14.53532346413173
 20
-4.064492387511619
 30
0.0
 10
14.42725506204773
 20
-4.040478652820003
 30
0.0
 10
14.16309078849657
 20
-3.86036464934668
 30
0.0
 10
13.43062570860009
 20
-4.136537988900941
 30
0.0
 10
13.63475344676503
 20
-4.917034935495127
 30
0.0
 10
13.8388855822445
 20
-5.697527484774773
 30
0.0
 10
14.3672185266615
 20
-6.033741757029834
 30
0.0
 10
14.3672185266615
 20
-6.033741757029834
 30
0.0
  0
SPLINE
  5
88
330
49
100
AcDbEntity
  8
Layer 1
370
     0
100
AcDbSpline
210
0.0
220
0.0
230
1.0
 70
    11
 71
     3
 72
    17
 73
    13
 74
     0
 42
0.0000000001
 43
0.0000000001
 12
1.0
 22
0.0
 32
0.0
 13
1.0
 23
0.0
 33
0.0
 40
0.0
 40
0.0
 40
0.0
 40
0.0
 40
1.0
 40
1.0
 40
1.0
 40
2.0
 40
2.0
 40
2.0
 40
3.0
 40
3.0
 40
3.0
 40
4.0
 40
4.0
 40
4.0
 40
4.0
 10
15.24377480933657
 20
-5.229231075744065
 30
0.0
 10
15.24377480933657
 20
-5.229231075744065
 30
0.0
 10
15.15972014194421
 20
-5.001085205573004
 30
0.0
 10
14.95559240377927
 20
-5.853627753556512
 30
0.0
 10
14.75146026829973
 20
-6.706165904225482
 30
0.0
 10
15.1837338766358
 20
-7.006357375785897
 30
0.0
 10
15.1837338766358
 20
-7.006357375785897
 30
0.0
 10
15.19574294263886
 20
-6.249878561197866
 30
0.0
 10
15.36384788010915
 20
-6.189837628497035
 30
0.0
 10
15.53195721489392
 20
-5.973700824329034
 30
0.0
 10
15.17172920794727
 20
-5.793586820855713
 30
0.0
 10
15.24377480933657
 20
-5.229231075744065
 30
0.0
 10
15.24377480933657
 20
-5.229231075744065
 30
0.0
  0
SPLINE
  5
89
330
49
100
AcDbEntity
  8
Layer 1
370
     0
100
AcDbSpline
210
0.0
220
0.0
230
1.0
 70
    11
 71
     3
 72
    14
 73
    10
 74
     0
 42
0.0000000001
 43
0.0000000001
 12
1.0
 22
0.0
 32
0.0
 13
1.0
 23
0.0
 33
0.0
 40
0.0
 40
0.0
 40
0.0
 40
0.0
 40
1.0
 40
1.0
 40
1.0
 40
2.0
 40
2.0
 40
2.0
 40
3.0
 40
3.0
 40
3.0
 40
3.0
 10
17.08910345786159
 20
-4.218833730478179
 30
0.0
 10
17.08910345786159
 20
-4.218833730478179
 30
0.0
 10
17.08910345786159
 20
-3.276515608888423
 30
0.0
 10
17.08910345786159
 20
-3.276515608888423
 30
0.0
 10
17.03633568340652
 20
-3.345949205442239
 30
0.0
 10
16.9912192362474
 20
-3.426982917747087
 30
0.0
 10
16.96086017667763
 20
-3.524150377091587
 30
0.0
 10
16.868841972657
 20
-3.818612147809094
 30
0.0
 10
16.94337645407483
 20
-4.053076958971181
 30
0.0
 10
17.08910345786159
 20
-4.218833730478179
 30
0.0
  0
SPLINE
  5
8A
330
49
100
AcDbEntity
  8
Layer 1
370
     0
100
AcDbSpline
210
0.0
220
0.0
230
1.0
 70
    11
 71
     3
 72
    20
 73
    16
 74
     0
 42
0.0000000001
 43
0.0000000001
 12
1.0
 22
0.0
 32
0.0
 13
1.0
 23
0.0
 33
0.0
 40
0.0
 40
0.0
 40
0.0
 40
0.0
 40
1.0
 40
1.0
 40
1.0
 40
2.0
 40
2.0
 40
2.0
 40
3.0
 40
3.0
 40
3.0
 40
4.0
 40
4.0
 40
4.0
 40
5.0
 40
5.0
 40
5.0
 40
5.0
 10
16.22839069946661
 20
-7.834881791763283
 30
0.0
 10
16.22839069946661
 20
-7.834881791763283
 30
0.0
 10
16.12032229738261
 20
-8.699429008435313
 30
0.0
 10
16.58861870641332
 20
-8.987611413992667
 30
0.0
 10
16.58861870641332
 20
-8.987611413992667
 30
0.0
 10
16.33645910155061
 20
-8.13506886600916
 30
0.0
 10
16.69668710849732
 20
-7.462644718813513
 30
0.0
 10
16.78853821456545
 20
-7.291202219608952
 30
0.0
 10
16.92802103170839
 20
-7.123598575996016
 30
0.0
 10
17.08910345786159
 20
-6.965383198921526
 30
0.0
 10
17.08910345786159
 20
-6.965383198921526
 30
0.0
 10
17.08910345786159
 20
-6.590529723821712
 30
0.0
 10
17.08910345786159
 20
-6.590529723821712
 30
0.0
 10
16.28336592581973
 20
-7.333293314365959
 30
0.0
 10
16.30487758853929
 20
-7.576763825701692
 30
0.0
 10
16.22839069946661
 20
-7.834881791763283
 30
0.0
  0
SPLINE
  5
8B
330
49
100
AcDbEntity
  8
Layer 1
370
     0
100
AcDbSpline
210
0.0
220
0.0
230
1.0
 70
    11
 71
     3
 72
    20
 73
    16
 74
     0
 42
0.0000000001
 43
0.0000000001
 12
1.0
 22
0.0
 32
0.0
 13
1.0
 23
0.0
 33
0.0
 40
0.0
 40
0.0
 40
0.0
 40
0.0
 40
1.0
 40
1.0
 40
1.0
 40
2.0
 40
2.0
 40
2.0
 40
3.0
 40
3.0
 40
3.0
 40
4.0
 40
4.0
 40
4.0
 40
5.0
 40
5.0
 40
5.0
 40
5.0
 10
16.67267777112028
 20
-3.75229624726268
 30
0.0
 10
16.43253162957517
 20
-4.160556120907096
 30
0.0
 10
15.77210775375357
 20
-4.400706659766711
 30
0.0
 10
15.71207121836727
 20
-4.736920932021772
 30
0.0
 10
16.36048602818587
 20
-4.400706659766711
 30
0.0
 10
16.91282391266532
 20
-4.772943732716449
 30
0.0
 10
16.91282391266532
 20
-4.772943732716449
 30
0.0
 10
16.99308369761149
 20
-4.728354963301921
 30
0.0
 10
17.059931673217
 20
-4.644216746933284
 30
0.0
 10
17.08910345786159
 20
-4.603770247813467
 30
0.0
 10
17.08910345786159
 20
-4.603770247813467
 30
0.0
 10
17.08910345786159
 20
-4.57311217085505
 30
0.0
 10
17.08910345786159
 20
-4.57311217085505
 30
0.0
 10
16.67349567162433
 20
-4.394739503938753
 30
0.0
 10
16.67267777112028
 20
-3.75229624726268
 30
0.0
 10
16.67267777112028
 20
-3.75229624726268
 30
0.0
  0
SPLINE
  5
8C
330
49
100
AcDbEntity
  8
Layer 1
370
     0
100
AcDbSpline
210
0.0
220
0.0
230
1.0
 70
    11
 71
     3
 72
    32
 73
    28
 74
     0
 42
0.0000000001
 43
0.0000000001
 12
1.0
 22
0.0
 32
0.0
 13
1.0
 23
0.0
 33
0.0
 40
0.0
 40
0.0
 40
0.0
 40
0.0
 40
1.0
 40
1.0
 40
1.0
 40
2.0
 40
2.0
 40
2.0
 40
3.0
 40
3.0
 40
3.0
 40
4.0
 40
4.0
 40
4.0
 40
5.0
 40
5.0
 40
5.0
 40
6.0
 40
6.0
 40
6.0
 40
7.0
 40
7.0
 40
7.0
 40
8.0
 40
8.0
 40
8.0
 40
9.0
 40
9.0
 40
9.0
 40
9.0
 10
15.69105645219057
 20
-7.47165041898719
 30
0.0
 10
15.66403935166957
 20
-7.372587717076835
 30
0.0
 10
15.70006215236421
 20
-7.282530715340158
 30
0.0
 10
15.70006215236421
 20
-7.282530715340158
 30
0.0
 10
15.85616242114598
 20
-6.86226617300722
 30
0.0
 10
16.09631296000557
 20
-6.622111236833065
 30
0.0
 10
16.16835856139492
 20
-6.502038166060543
 30
0.0
 10
16.24040416278421
 20
-6.38196069797345
 30
0.0
 10
16.99688297737228
 20
-5.781582152167157
 30
0.0
 10
16.67267777112028
 20
-5.337299477828065
 30
0.0
 10
16.34847256486828
 20
-4.893016803488972
 30
0.0
 10
15.89218522184063
 20
-5.193208275049388
 30
0.0
 10
15.89218522184063
 20
-5.193208275049388
 30
0.0
 10
15.89218522184063
 20
-5.193208275049388
 30
0.0
 10
15.80813055444821
 20
-5.325290411825003
 30
0.0
 10
15.94020829390926
 20
-5.277262942441803
 30
0.0
 10
16.45654096695228
 20
-5.109153607657004
 30
0.0
 10
16.45654096695228
 20
-5.649495618077035
 30
0.0
 10
16.45654096695228
 20
-5.649495618077035
 30
0.0
 10
16.46855443026988
 20
-6.297906030581067
 30
0.0
 10
15.68805308636115
 20
-6.189837628497035
 30
0.0
 10
15.68805308636115
 20
-6.189837628497035
 30
0.0
 10
15.68805308636115
 20
-6.189837628497035
 30
0.0
 10
15.56497664975921
 20
-6.237869495194805
 30
0.0
 10
15.43889684732786
 20
-6.697160204051804
 30
0.0
 10
15.3128170448965
 20
-7.282530715340158
 30
0.0
 10
15.71807355271157
 20
-7.570713120897512
 30
0.0
 10
15.69105645219057
 20
-7.47165041898719
 30
0.0
  0
SPLINE
  5
8D
330
49
100
AcDbEntity
  8
Layer 1
370
     0
100
AcDbSpline
210
0.0
220
0.0
230
1.0
 70
    11
 71
     3
 72
    26
 73
    22
 74
     0
 42
0.0000000001
 43
0.0000000001
 12
1.0
 22
0.0
 32
0.0
 13
1.0
 23
0.0
 33
0.0
 40
0.0
 40
0.0
 40
0.0
 40
0.0
 40
1.0
 40
1.0
 40
1.0
 40
2.0
 40
2.0
 40
2.0
 40
3.0
 40
3.0
 40
3.0
 40
4.0
 40
4.0
 40
4.0
 40
5.0
 40
5.0
 40
5.0
 40
6.0
 40
6.0
 40
6.0
 40
7.0
 40
7.0
 40
7.0
 40
7.0
 10
9.42008576548884
 20
-23.57684569533338
 30
0.0
 10
8.951789356458132
 20
-23.31267702446761
 30
0.0
 10
8.615579481517608
 20
-23.2286223570752
 30
0.0
 10
8.159287741175424
 20
-23.60085943002497
 30
0.0
 10
8.159287741175424
 20
-23.60085943002497
 30
0.0
 10
7.883114401621162
 20
-23.87703276957926
 30
0.0
 10
8.01519653839678
 20
-24.16521517513662
 30
0.0
 10
8.111260271792256
 20
-24.31531310957409
 30
0.0
 10
8.171296807178516
 20
-24.29730170922674
 30
0.0
 10
8.171296807178516
 20
-24.29730170922674
 30
0.0
 10
8.171296807178516
 20
-24.29730170922674
 30
0.0
 10
8.207319607873194
 20
-23.49279102794097
 30
0.0
 10
9.059857758542163
 20
-23.82900530019603
 30
0.0
 10
9.456108566183486
 20
-24.05714677305262
 30
0.0
 10
9.336035495410963
 20
-24.39336104530767
 30
0.0
 10
9.336035495410963
 20
-24.39336104530767
 30
0.0
 10
9.336035495410963
 20
-24.39336104530767
 30
0.0
 10
9.660240701662994
 20
-24.72957531756274
 30
0.0
 10
9.660240701662994
 20
-24.72957531756274
 30
0.0
 10
9.660240701662994
 20
-24.72957531756274
 30
0.0
 10
9.888382174519517
 20
-23.84100996888462
 30
0.0
 10
9.42008576548884
 20
-23.57684569533338
 30
0.0
  0
SPLINE
  5
8E
330
49
100
AcDbEntity
  8
Layer 1
370
     0
100
AcDbSpline
210
0.0
220
0.0
230
1.0
 70
    11
 71
     3
 72
    20
 73
    16
 74
     0
 42
0.0000000001
 43
0.0000000001
 12
1.0
 22
0.0
 32
0.0
 13
1.0
 23
0.0
 33
0.0
 40
0.0
 40
0.0
 40
0.0
 40
0.0
 40
1.0
 40
1.0
 40
1.0
 40
2.0
 40
2.0
 40
2.0
 40
3.0
 40
3.0
 40
3.0
 40
4.0
 40
4.0
 40
4.0
 40
5.0
 40
5.0
 40
5.0
 40
5.0
 10
9.294005963057486
 20
-24.54345458243061
 30
0.0
 10
9.294005963057486
 20
-24.54345458243061
 30
0.0
 10
9.029841689506286
 20
-24.98173492242545
 30
0.0
 10
8.705636483254255
 20
-25.07779425850638
 30
0.0
 10
8.975807488464286
 20
-25.13182845954838
 30
0.0
 10
9.233969427671225
 20
-25.40199946475838
 30
0.0
 10
9.119898691242962
 20
-25.74421607135774
 30
0.0
 10
9.31802409506364
 20
-25.57010440222868
 30
0.0
 10
9.53416089923164
 20
-24.90368258937732
 30
0.0
 10
9.53416089923164
 20
-24.87966885468574
 30
0.0
 10
9.53416089923164
 20
-24.85565511999409
 30
0.0
 10
9.31802409506364
 20
-24.53745224808632
 30
0.0
 10
9.31802409506364
 20
-24.53745224808632
 30
0.0
 10
9.31802409506364
 20
-24.53745224808632
 30
0.0
 10
9.294005963057486
 20
-24.54345458243061
 30
0.0
 10
9.294005963057486
 20
-24.54345458243061
 30
0.0
  0
SPLINE
  5
8F
330
49
100
AcDbEntity
  8
Layer 1
370
     0
100
AcDbSpline
210
0.0
220
0.0
230
1.0
 70
    11
 71
     3
 72
    17
 73
    13
 74
     0
 42
0.0000000001
 43
0.0000000001
 12
1.0
 22
0.0
 32
0.0
 13
1.0
 23
0.0
 33
0.0
 40
0.0
 40
0.0
 40
0.0
 40
0.0
 40
1.0
 40
1.0
 40
1.0
 40
2.0
 40
2.0
 40
2.0
 40
3.0
 40
3.0
 40
3.0
 40
4.0
 40
4.0
 40
4.0
 40
4.0
 10
7.294740524503393
 20
-23.72093689811203
 30
0.0
 10
7.318758656509547
 20
-23.32468609047067
 30
0.0
 10
7.666977597453163
 20
-23.00048088421867
 30
0.0
 10
7.666977597453163
 20
-23.00048088421867
 30
0.0
 10
6.946521583559777
 20
-22.85638968144003
 30
0.0
 10
7.39080425789887
 20
-22.24400206963061
 30
0.0
 10
7.39080425789887
 20
-22.24400206963061
 30
0.0
 10
6.922507848868193
 20
-22.32805233970849
 30
0.0
 10
6.850462247478838
 20
-22.66426661196362
 30
0.0
 10
6.850462247478838
 20
-22.66426661196362
 30
0.0
 10
6.622316377307778
 20
-23.30066795846455
 30
0.0
 10
7.294740524503393
 20
-23.72093689811203
 30
0.0
 10
7.294740524503393
 20
-23.72093689811203
 30
0.0
  0
SPLINE
  5
90
330
49
100
AcDbEntity
  8
Layer 1
370
     0
100
AcDbSpline
210
0.0
220
0.0
230
1.0
 70
    11
 71
     3
 72
    20
 73
    16
 74
     0
 42
0.0000000001
 43
0.0000000001
 12
1.0
 22
0.0
 32
0.0
 13
1.0
 23
0.0
 33
0.0
 40
0.0
 40
0.0
 40
0.0
 40
0.0
 40
1.0
 40
1.0
 40
1.0
 40
2.0
 40
2.0
 40
2.0
 40
3.0
 40
3.0
 40
3.0
 40
4.0
 40
4.0
 40
4.0
 40
5.0
 40
5.0
 40
5.0
 40
5.0
 10
7.258717723808715
 20
-23.9130555702739
 30
0.0
 10
7.258717723808715
 20
-23.9130555702739
 30
0.0
 10
6.574284510610039
 20
-23.68491409741738
 30
0.0
 10
6.442202373834423
 20
-23.09654022029961
 30
0.0
 10
6.418676741056519
 20
-22.99174781754638
 30
0.0
 10
6.009928765498391
 20
-23.57684569533338
 30
0.0
 10
6.610307311304684
 20
-24.11718770575338
 30
0.0
 10
7.81106880023184
 20
-24.65752971617345
 30
0.0
 10
7.498872659982869
 20
-25.42601319945003
 30
0.0
 10
7.606941062066869
 20
-25.29393106267439
 30
0.0
 10
7.715009464150901
 20
-25.1618489258988
 30
0.0
 10
8.099251205789162
 20
-25.00574865711703
 30
0.0
 10
8.099251205789162
 20
-25.00574865711703
 30
0.0
 10
7.270726789811809
 20
-24.76559811825745
 30
0.0
 10
7.258717723808715
 20
-23.9130555702739
 30
0.0
 10
7.258717723808715
 20
-23.9130555702739
 30
0.0
  0
SPLINE
  5
91
330
49
100
AcDbEntity
  8
Layer 1
370
     0
100
AcDbSpline
210
0.0
220
0.0
230
1.0
 70
    11
 71
     3
 72
    17
 73
    13
 74
     0
 42
0.0000000001
 43
0.0000000001
 12
1.0
 22
0.0
 32
0.0
 13
1.0
 23
0.0
 33
0.0
 40
0.0
 40
0.0
 40
0.0
 40
0.0
 40
1.0
 40
1.0
 40
1.0
 40
2.0
 40
2.0
 40
2.0
 40
3.0
 40
3.0
 40
3.0
 40
4.0
 40
4.0
 40
4.0
 40
4.0
 10
5.349509286991299
 20
-24.21324704183432
 30
0.0
 10
5.565646091159299
 20
-24.02112397235791
 30
0.0
 10
6.130006233585484
 20
-23.98510117166326
 30
0.0
 10
6.130006233585484
 20
-23.98510117166326
 30
0.0
 10
6.021937831501485
 20
-23.84100996888462
 30
0.0
 10
6.069965300884685
 20
-23.51680476263255
 30
0.0
 10
6.069965300884685
 20
-23.51680476263255
 30
0.0
 10
5.937883164109069
 20
-23.72093689811203
 30
0.0
 10
5.409550219692099
 20
-23.99711023766632
 30
0.0
 10
5.409550219692099
 20
-23.99711023766632
 30
0.0
 10
5.385532087685976
 20
-24.11718770575338
 30
0.0
 10
5.349509286991299
 20
-24.21324704183432
 30
0.0
 10
5.349509286991299
 20
-24.21324704183432
 30
0.0
  0
SPLINE
  5
92
330
49
100
AcDbEntity
  8
Layer 1
370
     0
100
AcDbSpline
210
0.0
220
0.0
230
1.0
 70
    11
 71
     3
 72
    26
 73
    22
 74
     0
 42
0.0000000001
 43
0.0000000001
 12
1.0
 22
0.0
 32
0.0
 13
1.0
 23
0.0
 33
0.0
 40
0.0
 40
0.0
 40
0.0
 40
0.0
 40
1.0
 40
1.0
 40
1.0
 40
2.0
 40
2.0
 40
2.0
 40
3.0
 40
3.0
 40
3.0
 40
4.0
 40
4.0
 40
4.0
 40
5.0
 40
5.0
 40
5.0
 40
6.0
 40
6.0
 40
6.0
 40
7.0
 40
7.0
 40
7.0
 40
7.0
 10
6.021937831501485
 20
-24.29730170922674
 30
0.0
 10
6.021937831501485
 20
-24.29730170922674
 30
0.0
 10
5.349509286991299
 20
-24.34532917860997
 30
0.0
 10
5.169395283517945
 20
-24.92169398972461
 30
0.0
 10
4.989281280044622
 20
-25.49805880083932
 30
0.0
 10
5.445573020386776
 20
-25.84628213909751
 30
0.0
 10
5.82981476202507
 20
-25.89430960848068
 30
0.0
 10
6.21405650366333
 20
-25.94234147517845
 30
0.0
 10
6.286102105052684
 20
-25.69018187031574
 30
0.0
 10
6.286102105052684
 20
-25.69018187031574
 30
0.0
 10
6.130006233585484
 20
-25.82226400709132
 30
0.0
 10
6.021937831501485
 20
-25.75021840570203
 30
0.0
 10
6.021937831501485
 20
-25.75021840570203
 30
0.0
 10
6.021937831501485
 20
-25.75021840570203
 30
0.0
 10
5.289472751605038
 20
-25.54609066753709
 30
0.0
 10
5.589664223165453
 20
-24.92169398972461
 30
0.0
 10
6.250079304358008
 20
-24.2372607765259
 30
0.0
 10
7.054589985643776
 20
-24.86165745433838
 30
0.0
 10
7.054589985643776
 20
-24.86165745433838
 30
0.0
 10
6.742393845394838
 20
-24.16521517513662
 30
0.0
 10
6.021937831501485
 20
-24.29730170922674
 30
0.0
 10
6.021937831501485
 20
-24.29730170922674
 30
0.0
  0
SPLINE
  5
93
330
49
100
AcDbEntity
  8
Layer 1
370
     0
100
AcDbSpline
210
0.0
220
0.0
230
1.0
 70
    11
 71
     3
 72
    17
 73
    13
 74
     0
 42
0.0000000001
 43
0.0000000001
 12
1.0
 22
0.0
 32
0.0
 13
1.0
 23
0.0
 33
0.0
 40
0.0
 40
0.0
 40
0.0
 40
0.0
 40
1.0
 40
1.0
 40
1.0
 40
2.0
 40
2.0
 40
2.0
 40
3.0
 40
3.0
 40
3.0
 40
4.0
 40
4.0
 40
4.0
 40
4.0
 10
6.130006233585484
 20
-24.9457121217308
 30
0.0
 10
5.96421428356215
 20
-24.9457121217308
 30
0.0
 10
5.82981476202507
 20
-25.08011164326788
 30
0.0
 10
5.82981476202507
 20
-25.24589919597668
 30
0.0
 10
5.82981476202507
 20
-25.41169114599995
 30
0.0
 10
5.96421428356215
 20
-25.54609066753709
 30
0.0
 10
6.130006233585484
 20
-25.54609066753709
 30
0.0
 10
6.295793786294249
 20
-25.54609066753709
 30
0.0
 10
6.430193307831362
 20
-25.41169114599995
 30
0.0
 10
6.430193307831362
 20
-25.24589919597668
 30
0.0
 10
6.430193307831362
 20
-25.08011164326788
 30
0.0
 10
6.295793786294249
 20
-24.9457121217308
 30
0.0
 10
6.130006233585484
 20
-24.9457121217308
 30
0.0
  0
SPLINE
  5
94
330
49
100
AcDbEntity
  8
Layer 1
370
     0
100
AcDbSpline
210
0.0
220
0.0
230
1.0
 70
    11
 71
     3
 72
    17
 73
    13
 74
     0
 42
0.0000000001
 43
0.0000000001
 12
1.0
 22
0.0
 32
0.0
 13
1.0
 23
0.0
 33
0.0
 40
0.0
 40
0.0
 40
0.0
 40
0.0
 40
1.0
 40
1.0
 40
1.0
 40
2.0
 40
2.0
 40
2.0
 40
3.0
 40
3.0
 40
3.0
 40
4.0
 40
4.0
 40
4.0
 40
4.0
 10
5.649700758551715
 20
-26.15847827934645
 30
0.0
 10
5.649700758551715
 20
-26.15847827934645
 30
0.0
 10
5.457577689075299
 20
-26.35060134882286
 30
0.0
 10
5.385532087685976
 20
-26.35060134882286
 30
0.0
 10
5.385532087685976
 20
-26.35060134882286
 30
0.0
 10
5.685723559246392
 20
-26.74685215646422
 30
0.0
 10
5.541632356467715
 20
-27.39526256896821
 30
0.0
 10
5.541632356467715
 20
-27.39526256896821
 30
0.0
 10
6.682352912694038
 20
-26.69882028976645
 30
0.0
 10
6.6943619786971
 20
-25.65415906962109
 30
0.0
 10
6.6943619786971
 20
-25.65415906962109
 30
0.0
 10
6.406179573139745
 20
-26.32658321681674
 30
0.0
 10
5.649700758551715
 20
-26.15847827934645
 30
0.0
  0
SPLINE
  5
95
330
49
100
AcDbEntity
  8
Layer 1
370
     0
100
AcDbSpline
210
0.0
220
0.0
230
1.0
 70
    11
 71
     3
 72
    20
 73
    16
 74
     0
 42
0.0000000001
 43
0.0000000001
 12
1.0
 22
0.0
 32
0.0
 13
1.0
 23
0.0
 33
0.0
 40
0.0
 40
0.0
 40
0.0
 40
0.0
 40
1.0
 40
1.0
 40
1.0
 40
2.0
 40
2.0
 40
2.0
 40
3.0
 40
3.0
 40
3.0
 40
4.0
 40
4.0
 40
4.0
 40
5.0
 40
5.0
 40
5.0
 40
5.0
 10
6.634325443310838
 20
-24.92169398972461
 30
0.0
 10
6.634325443310838
 20
-24.92169398972461
 30
0.0
 10
7.678986663456223
 20
-26.09844174396015
 30
0.0
 10
6.093983432890807
 20
-27.3112079015758
 30
0.0
 10
6.00674950708749
 20
-27.38099328329265
 30
0.0
 10
5.925320036474227
 20
-27.44733996504089
 30
0.0
 10
5.847535939612888
 20
-27.51151437340733
 30
0.0
 10
5.847535939612888
 20
-27.51151437340733
 30
0.0
 10
6.408118788850979
 20
-27.51151437340733
 30
0.0
 10
6.408118788850979
 20
-27.51151437340733
 30
0.0
 10
6.500013868064517
 20
-27.4492483995503
 30
0.0
 10
6.574618706514923
 20
-27.39770307853678
 30
0.0
 10
6.622316377307778
 20
-27.35923976827357
 30
0.0
 10
6.994553450257516
 20
-27.05904829671315
 30
0.0
 10
8.291374275265577
 20
-25.38999039875532
 30
0.0
 10
6.634325443310838
 20
-24.92169398972461
 30
0.0
  0
SPLINE
  5
96
330
49
100
AcDbEntity
  8
Layer 1
370
     0
100
AcDbSpline
210
0.0
220
0.0
230
1.0
 70
    11
 71
     3
 72
    20
 73
    16
 74
     0
 42
0.0000000001
 43
0.0000000001
 12
1.0
 22
0.0
 32
0.0
 13
1.0
 23
0.0
 33
0.0
 40
0.0
 40
0.0
 40
0.0
 40
0.0
 40
1.0
 40
1.0
 40
1.0
 40
2.0
 40
2.0
 40
2.0
 40
3.0
 40
3.0
 40
3.0
 40
4.0
 40
4.0
 40
4.0
 40
5.0
 40
5.0
 40
5.0
 40
5.0
 10
5.121367814134777
 20
-26.17048734534951
 30
0.0
 10
5.229436216218776
 20
-26.11044641264868
 30
0.0
 10
5.313486486296622
 20
-25.97836427587309
 30
0.0
 10
5.313486486296622
 20
-25.97836427587309
 30
0.0
 10
4.881212877960623
 20
-25.8102593384028
 30
0.0
 10
4.881212877960623
 20
-25.14983985989574
 30
0.0
 10
4.881212877960623
 20
-25.14983985989574
 30
0.0
 10
4.654219104198472
 20
-25.5357349918003
 30
0.0
 10
4.052442212369113
 20
-25.77154538121093
 30
0.0
 10
3.936419068286004
 20
-26.0801445181679
 30
0.0
 10
3.936419068286004
 20
-26.0801445181679
 30
0.0
 10
3.936419068286004
 20
-26.12676044958438
 30
0.0
 10
3.936419068286004
 20
-26.12676044958438
 30
0.0
 10
4.577943286223647
 20
-25.8047011328269
 30
0.0
 10
5.121367814134777
 20
-26.17048734534951
 30
0.0
 10
5.121367814134777
 20
-26.17048734534951
 30
0.0
  0
SPLINE
  5
97
330
49
100
AcDbEntity
  8
Layer 1
370
     0
100
AcDbSpline
210
0.0
220
0.0
230
1.0
 70
    11
 71
     3
 72
    23
 73
    19
 74
     0
 42
0.0000000001
 43
0.0000000001
 12
1.0
 22
0.0
 32
0.0
 13
1.0
 23
0.0
 33
0.0
 40
0.0
 40
0.0
 40
0.0
 40
0.0
 40
1.0
 40
1.0
 40
1.0
 40
2.0
 40
2.0
 40
2.0
 40
3.0
 40
3.0
 40
3.0
 40
4.0
 40
4.0
 40
4.0
 40
5.0
 40
5.0
 40
5.0
 40
6.0
 40
6.0
 40
6.0
 40
6.0
 10
4.881212877960623
 20
-26.73484309046115
 30
0.0
 10
4.557007671708591
 20
-26.29056041612203
 30
0.0
 10
4.100720328680976
 20
-26.59075188768245
 30
0.0
 10
4.100720328680976
 20
-26.59075188768245
 30
0.0
 10
4.100720328680976
 20
-26.59075188768245
 30
0.0
 10
4.01666566128856
 20
-26.72283402445803
 30
0.0
 10
4.148752195378714
 20
-26.67480655507486
 30
0.0
 10
4.665076073792591
 20
-26.50669722029003
 30
0.0
 10
4.665076073792591
 20
-27.04703923071009
 30
0.0
 10
4.665076073792591
 20
-27.04703923071009
 30
0.0
 10
4.669759213775501
 20
-27.29996396830234
 30
0.0
 10
4.553731672377855
 20
-27.43748118584682
 30
0.0
 10
4.410612276112063
 20
-27.51151437340733
 30
0.0
 10
4.410612276112063
 20
-27.51151437340733
 30
0.0
 10
4.722839197562767
 20
-27.51151437340733
 30
0.0
 10
4.722839197562767
 20
-27.51151437340733
 30
0.0
 10
4.907460448437482
 20
-27.27731779843206
 30
0.0
 10
5.06155114447538
 20
-26.981976564807
 30
0.0
 10
4.881212877960623
 20
-26.73484309046115
 30
0.0
  0
SPLINE
  5
98
330
49
100
AcDbEntity
  8
Layer 1
370
     0
100
AcDbSpline
210
0.0
220
0.0
230
1.0
 70
    11
 71
     3
 72
    20
 73
    16
 74
     0
 42
0.0000000001
 43
0.0000000001
 12
1.0
 22
0.0
 32
0.0
 13
1.0
 23
0.0
 33
0.0
 40
0.0
 40
0.0
 40
0.0
 40
0.0
 40
1.0
 40
1.0
 40
1.0
 40
2.0
 40
2.0
 40
2.0
 40
3.0
 40
3.0
 40
3.0
 40
4.0
 40
4.0
 40
4.0
 40
5.0
 40
5.0
 40
5.0
 40
5.0
 10
7.847091600926485
 20
-27.29919883557274
 30
0.0
 10
7.763036933534069
 20
-27.21514856549486
 30
0.0
 10
7.498872659982869
 20
-26.78287495715886
 30
0.0
 10
7.498872659982869
 20
-26.78287495715886
 30
0.0
 10
7.34880110943262
 20
-27.0580105304822
 30
0.0
 10
7.136591107146972
 20
-27.30347302530362
 30
0.0
 10
6.89669121521602
 20
-27.51151437340733
 30
0.0
 10
6.89669121521602
 20
-27.51151437340733
 30
0.0
 10
7.138152153807942
 20
-27.51151437340733
 30
0.0
 10
7.138152153807942
 20
-27.51151437340733
 30
0.0
 10
7.142364781135293
 20
-27.5047776875352
 30
0.0
 10
7.146146471637893
 20
-27.49807618017944
 30
0.0
 10
7.150649321724716
 20
-27.49132190504915
 30
0.0
 10
7.318758656509547
 20
-27.23916230018651
 30
0.0
 10
7.847091600926485
 20
-27.29919883557274
 30
0.0
 10
7.847091600926485
 20
-27.29919883557274
 30
0.0
  0
SPLINE
  5
99
330
49
100
AcDbEntity
  8
Layer 1
370
     0
100
AcDbSpline
210
0.0
220
0.0
230
1.0
 70
    11
 71
     3
 72
    26
 73
    22
 74
     0
 42
0.0000000001
 43
0.0000000001
 12
1.0
 22
0.0
 32
0.0
 13
1.0
 23
0.0
 33
0.0
 40
0.0
 40
0.0
 40
0.0
 40
0.0
 40
1.0
 40
1.0
 40
1.0
 40
2.0
 40
2.0
 40
2.0
 40
3.0
 40
3.0
 40
3.0
 40
4.0
 40
4.0
 40
4.0
 40
5.0
 40
5.0
 40
5.0
 40
6.0
 40
6.0
 40
6.0
 40
7.0
 40
7.0
 40
7.0
 40
7.0
 10
8.843720954374131
 20
-26.17048734534951
 30
0.0
 10
8.843720954374131
 20
-26.17048734534951
 30
0.0
 10
8.303378943954101
 20
-26.38662414951751
 30
0.0
 10
8.1472830724869
 20
-25.94234147517845
 30
0.0
 10
8.13527400648384
 20
-25.45003133145615
 30
0.0
 10
8.56754761481987
 20
-25.52207693284544
 30
0.0
 10
8.56754761481987
 20
-25.52207693284544
 30
0.0
 10
8.56754761481987
 20
-25.52207693284544
 30
0.0
 10
8.651602282212254
 20
-25.46203600014468
 30
0.0
 10
8.543533880128255
 20
-25.43802226545309
 30
0.0
 10
8.279365209262517
 20
-25.25790826197974
 30
0.0
 10
7.54690012936607
 20
-25.53408160153403
 30
0.0
 10
7.751032264845546
 20
-26.31457854812815
 30
0.0
 10
7.955160003010485
 20
-27.0950710974078
 30
0.0
 10
8.483492947427456
 20
-27.43128536966292
 30
0.0
 10
8.483492947427456
 20
-27.43128536966292
 30
0.0
 10
8.375424545343455
 20
-26.63878375438022
 30
0.0
 10
8.951789356458132
 20
-26.19450108004109
 30
0.0
 10
8.951789356458132
 20
-26.19450108004109
 30
0.0
 10
8.99982122315587
 20
-26.07442361195403
 30
0.0
 10
8.843720954374131
 20
-26.17048734534951
 30
0.0
 10
8.843720954374131
 20
-26.17048734534951
 30
0.0
  0
SPLINE
  5
9A
330
49
100
AcDbEntity
  8
Layer 1
370
     0
100
AcDbSpline
210
0.0
220
0.0
230
1.0
 70
    11
 71
     3
 72
    20
 73
    16
 74
     0
 42
0.0000000001
 43
0.0000000001
 12
1.0
 22
0.0
 32
0.0
 13
1.0
 23
0.0
 33
0.0
 40
0.0
 40
0.0
 40
0.0
 40
0.0
 40
1.0
 40
1.0
 40
1.0
 40
2.0
 40
2.0
 40
2.0
 40
3.0
 40
3.0
 40
3.0
 40
4.0
 40
4.0
 40
4.0
 40
5.0
 40
5.0
 40
5.0
 40
5.0
 10
9.360049230102579
 20
-26.62677468837716
 30
0.0
 10
9.360049230102579
 20
-26.62677468837716
 30
0.0
 10
9.275994562710164
 20
-26.39862881820603
 30
0.0
 10
9.071866824545225
 20
-27.25117136618957
 30
0.0
 10
9.049427328458192
 20
-27.34489133093632
 30
0.0
 10
9.035813242648782
 20
-27.43080606237829
 30
0.0
 10
9.027335220219658
 20
-27.51151437340733
 30
0.0
 10
9.027335220219658
 20
-27.51151437340733
 30
0.0
 10
9.529592089426748
 20
-27.51151437340733
 30
0.0
 10
9.529592089426748
 20
-27.51151437340733
 30
0.0
 10
9.567725601099607
 20
-27.46591861896358
 30
0.0
 10
9.607952234492526
 20
-27.42303600758974
 30
0.0
 10
9.6482316356599
 20
-27.37124443696209
 30
0.0
 10
9.288003628713223
 20
-27.19113043348874
 30
0.0
 10
9.360049230102579
 20
-26.62677468837716
 30
0.0
 10
9.360049230102579
 20
-26.62677468837716
 30
0.0
  0
SPLINE
  5
9B
330
49
100
AcDbEntity
  8
Layer 1
370
     0
100
AcDbSpline
210
0.0
220
0.0
230
1.0
 70
    11
 71
     3
 72
    26
 73
    22
 74
     0
 42
0.0000000001
 43
0.0000000001
 12
1.0
 22
0.0
 32
0.0
 13
1.0
 23
0.0
 33
0.0
 40
0.0
 40
0.0
 40
0.0
 40
0.0
 40
1.0
 40
1.0
 40
1.0
 40
2.0
 40
2.0
 40
2.0
 40
3.0
 40
3.0
 40
3.0
 40
4.0
 40
4.0
 40
4.0
 40
5.0
 40
5.0
 40
5.0
 40
6.0
 40
6.0
 40
6.0
 40
7.0
 40
7.0
 40
7.0
 40
7.0
 10
15.30381134472286
 20
-23.57684569533338
 30
0.0
 10
14.83551493569215
 20
-23.31267702446761
 30
0.0
 10
14.49930066343709
 20
-23.2286223570752
 30
0.0
 10
14.04301332040944
 20
-23.60085943002497
 30
0.0
 10
14.04301332040944
 20
-23.60085943002497
 30
0.0
 10
13.76683998085521
 20
-23.87703276957926
 30
0.0
 10
13.8989221176308
 20
-24.16521517513662
 30
0.0
 10
13.99498145371174
 20
-24.31531310957409
 30
0.0
 10
14.05502238641257
 20
-24.29730170922674
 30
0.0
 10
14.05502238641257
 20
-24.29730170922674
 30
0.0
 10
14.05502238641257
 20
-24.29730170922674
 30
0.0
 10
14.09104518710721
 20
-23.49279102794097
 30
0.0
 10
14.94358333777615
 20
-23.82900530019603
 30
0.0
 10
15.3398341454175
 20
-24.05714677305262
 30
0.0
 10
15.21975667733044
 20
-24.39336104530767
 30
0.0
 10
15.21975667733044
 20
-24.39336104530767
 30
0.0
 10
15.21975667733044
 20
-24.39336104530767
 30
0.0
 10
15.54396188358244
 20
-24.72957531756274
 30
0.0
 10
15.54396188358244
 20
-24.72957531756274
 30
0.0
 10
15.54396188358244
 20
-24.72957531756274
 30
0.0
 10
15.77210775375357
 20
-23.84100996888462
 30
0.0
 10
15.30381134472286
 20
-23.57684569533338
 30
0.0
  0
SPLINE
  5
9C
330
49
100
AcDbEntity
  8
Layer 1
370
     0
100
AcDbSpline
210
0.0
220
0.0
230
1.0
 70
    11
 71
     3
 72
    20
 73
    16
 74
     0
 42
0.0000000001
 43
0.0000000001
 12
1.0
 22
0.0
 32
0.0
 13
1.0
 23
0.0
 33
0.0
 40
0.0
 40
0.0
 40
0.0
 40
0.0
 40
1.0
 40
1.0
 40
1.0
 40
2.0
 40
2.0
 40
2.0
 40
3.0
 40
3.0
 40
3.0
 40
4.0
 40
4.0
 40
4.0
 40
5.0
 40
5.0
 40
5.0
 40
5.0
 10
15.1777315422915
 20
-24.54345458243061
 30
0.0
 10
15.1777315422915
 20
-24.54345458243061
 30
0.0
 10
14.9135628714258
 20
-24.98173492242545
 30
0.0
 10
14.58935766517373
 20
-25.07779425850638
 30
0.0
 10
14.8595286703838
 20
-25.13182845954838
 30
0.0
 10
15.11769500690527
 20
-25.40199946475838
 30
0.0
 10
15.00361987316244
 20
-25.74421607135774
 30
0.0
 10
15.20174527698315
 20
-25.57010440222868
 30
0.0
 10
15.41788208115115
 20
-24.90368258937732
 30
0.0
 10
15.41788208115115
 20
-24.87966885468574
 30
0.0
 10
15.41788208115115
 20
-24.85565511999409
 30
0.0
 10
15.20174527698315
 20
-24.53745224808632
 30
0.0
 10
15.20174527698315
 20
-24.53745224808632
 30
0.0
 10
15.20174527698315
 20
-24.53745224808632
 30
0.0
 10
15.1777315422915
 20
-24.54345458243061
 30
0.0
 10
15.1777315422915
 20
-24.54345458243061
 30
0.0
  0
SPLINE
  5
9D
330
49
100
AcDbEntity
  8
Layer 1
370
     0
100
AcDbSpline
210
0.0
220
0.0
230
1.0
 70
    11
 71
     3
 72
    17
 73
    13
 74
     0
 42
0.0000000001
 43
0.0000000001
 12
1.0
 22
0.0
 32
0.0
 13
1.0
 23
0.0
 33
0.0
 40
0.0
 40
0.0
 40
0.0
 40
0.0
 40
1.0
 40
1.0
 40
1.0
 40
2.0
 40
2.0
 40
2.0
 40
3.0
 40
3.0
 40
3.0
 40
4.0
 40
4.0
 40
4.0
 40
4.0
 10
13.17846610373744
 20
-23.72093689811203
 30
0.0
 10
13.20247983842903
 20
-23.32468609047067
 30
0.0
 10
13.55070317668715
 20
-23.00048088421867
 30
0.0
 10
13.55070317668715
 20
-23.00048088421867
 30
0.0
 10
12.83024716279379
 20
-22.85638968144003
 30
0.0
 10
13.27452543981838
 20
-22.24400206963061
 30
0.0
 10
13.27452543981838
 20
-22.24400206963061
 30
0.0
 10
12.80622903078767
 20
-22.32805233970849
 30
0.0
 10
12.73418342939832
 20
-22.66426661196362
 30
0.0
 10
12.73418342939832
 20
-22.66426661196362
 30
0.0
 10
12.50604195654179
 20
-23.30066795846455
 30
0.0
 10
13.17846610373744
 20
-23.72093689811203
 30
0.0
 10
13.17846610373744
 20
-23.72093689811203
 30
0.0
  0
SPLINE
  5
9E
330
49
100
AcDbEntity
  8
Layer 1
370
     0
100
AcDbSpline
210
0.0
220
0.0
230
1.0
 70
    11
 71
     3
 72
    20
 73
    16
 74
     0
 42
0.0000000001
 43
0.0000000001
 12
1.0
 22
0.0
 32
0.0
 13
1.0
 23
0.0
 33
0.0
 40
0.0
 40
0.0
 40
0.0
 40
0.0
 40
1.0
 40
1.0
 40
1.0
 40
2.0
 40
2.0
 40
2.0
 40
3.0
 40
3.0
 40
3.0
 40
4.0
 40
4.0
 40
4.0
 40
5.0
 40
5.0
 40
5.0
 40
5.0
 10
13.14244330304273
 20
-23.9130555702739
 30
0.0
 10
13.14244330304273
 20
-23.9130555702739
 30
0.0
 10
12.45801008984403
 20
-23.68491409741738
 30
0.0
 10
12.32592795306844
 20
-23.09654022029961
 30
0.0
 10
12.30240232029057
 20
-22.99174781754638
 30
0.0
 10
11.89365434473244
 20
-23.57684569533338
 30
0.0
 10
12.49403289053874
 20
-24.11718770575338
 30
0.0
 10
13.69479437946586
 20
-24.65752971617345
 30
0.0
 10
13.38259384190238
 20
-25.42601319945003
 30
0.0
 10
13.49066224398638
 20
-25.29393106267439
 30
0.0
 10
13.59873064607038
 20
-25.1618489258988
 30
0.0
 10
13.98297678502321
 20
-25.00574865711703
 30
0.0
 10
13.98297678502321
 20
-25.00574865711703
 30
0.0
 10
13.15445236904579
 20
-24.76559811825745
 30
0.0
 10
13.14244330304273
 20
-23.9130555702739
 30
0.0
 10
13.14244330304273
 20
-23.9130555702739
 30
0.0
  0
SPLINE
  5
9F
330
49
100
AcDbEntity
  8
Layer 1
370
     0
100
AcDbSpline
210
0.0
220
0.0
230
1.0
 70
    11
 71
     3
 72
    17
 73
    13
 74
     0
 42
0.0000000001
 43
0.0000000001
 12
1.0
 22
0.0
 32
0.0
 13
1.0
 23
0.0
 33
0.0
 40
0.0
 40
0.0
 40
0.0
 40
0.0
 40
1.0
 40
1.0
 40
1.0
 40
2.0
 40
2.0
 40
2.0
 40
3.0
 40
3.0
 40
3.0
 40
4.0
 40
4.0
 40
4.0
 40
4.0
 10
11.95369088011867
 20
-23.51680476263255
 30
0.0
 10
11.82160874334309
 20
-23.72093689811203
 30
0.0
 10
11.29327140161161
 20
-23.99711023766632
 30
0.0
 10
11.29327140161161
 20
-23.99711023766632
 30
0.0
 10
11.26925766692003
 20
-24.11718770575338
 30
0.0
 10
11.23323486622532
 20
-24.21324704183432
 30
0.0
 10
11.23323486622532
 20
-24.21324704183432
 30
0.0
 10
11.44937167039332
 20
-24.02112397235791
 30
0.0
 10
12.01372741550496
 20
-23.98510117166326
 30
0.0
 10
12.01372741550496
 20
-23.98510117166326
 30
0.0
 10
11.90565901342097
 20
-23.84100996888462
 30
0.0
 10
11.95369088011867
 20
-23.51680476263255
 30
0.0
 10
11.95369088011867
 20
-23.51680476263255
 30
0.0
  0
SPLINE
  5
A0
330
49
100
AcDbEntity
  8
Layer 1
370
     0
100
AcDbSpline
210
0.0
220
0.0
230
1.0
 70
    11
 71
     3
 72
    26
 73
    22
 74
     0
 42
0.0000000001
 43
0.0000000001
 12
1.0
 22
0.0
 32
0.0
 13
1.0
 23
0.0
 33
0.0
 40
0.0
 40
0.0
 40
0.0
 40
0.0
 40
1.0
 40
1.0
 40
1.0
 40
2.0
 40
2.0
 40
2.0
 40
3.0
 40
3.0
 40
3.0
 40
4.0
 40
4.0
 40
4.0
 40
5.0
 40
5.0
 40
5.0
 40
6.0
 40
6.0
 40
6.0
 40
7.0
 40
7.0
 40
7.0
 40
7.0
 10
11.90565901342097
 20
-24.29730170922674
 30
0.0
 10
11.90565901342097
 20
-24.29730170922674
 30
0.0
 10
11.23323486622532
 20
-24.34532917860997
 30
0.0
 10
11.05312086275196
 20
-24.92169398972461
 30
0.0
 10
10.87300685927861
 20
-25.49805880083932
 30
0.0
 10
11.32929420230626
 20
-25.84628213909751
 30
0.0
 10
11.71354034125909
 20
-25.89430960848068
 30
0.0
 10
12.09778208289738
 20
-25.94234147517845
 30
0.0
 10
12.16982768428674
 20
-25.69018187031574
 30
0.0
 10
12.16982768428674
 20
-25.69018187031574
 30
0.0
 10
12.01372741550496
 20
-25.82226400709132
 30
0.0
 10
11.90565901342097
 20
-25.75021840570203
 30
0.0
 10
11.90565901342097
 20
-25.75021840570203
 30
0.0
 10
11.90565901342097
 20
-25.75021840570203
 30
0.0
 10
11.17319833083902
 20
-25.54609066753709
 30
0.0
 10
11.47338540508497
 20
-24.92169398972461
 30
0.0
 10
12.13380488359203
 20
-24.2372607765259
 30
0.0
 10
12.9383155648778
 20
-24.86165745433838
 30
0.0
 10
12.9383155648778
 20
-24.86165745433838
 30
0.0
 10
12.62611502731432
 20
-24.16521517513662
 30
0.0
 10
11.90565901342097
 20
-24.29730170922674
 30
0.0
 10
11.90565901342097
 20
-24.29730170922674
 30
0.0
  0
SPLINE
  5
A1
330
49
100
AcDbEntity
  8
Layer 1
370
     0
100
AcDbSpline
210
0.0
220
0.0
230
1.0
 70
    11
 71
     3
 72
    17
 73
    13
 74
     0
 42
0.0000000001
 43
0.0000000001
 12
1.0
 22
0.0
 32
0.0
 13
1.0
 23
0.0
 33
0.0
 40
0.0
 40
0.0
 40
0.0
 40
0.0
 40
1.0
 40
1.0
 40
1.0
 40
2.0
 40
2.0
 40
2.0
 40
3.0
 40
3.0
 40
3.0
 40
4.0
 40
4.0
 40
4.0
 40
4.0
 10
12.01372741550496
 20
-24.9457121217308
 30
0.0
 10
11.84793986279617
 20
-24.9457121217308
 30
0.0
 10
11.71354034125909
 20
-25.08011164326788
 30
0.0
 10
11.71354034125909
 20
-25.24589919597668
 30
0.0
 10
11.71354034125909
 20
-25.41169114599995
 30
0.0
 10
11.84793986279617
 20
-25.54609066753709
 30
0.0
 10
12.01372741550496
 20
-25.54609066753709
 30
0.0
 10
12.1795193655283
 20
-25.54609066753709
 30
0.0
 10
12.31391888706538
 20
-25.41169114599995
 30
0.0
 10
12.31391888706538
 20
-25.24589919597668
 30
0.0
 10
12.31391888706538
 20
-25.08011164326788
 30
0.0
 10
12.1795193655283
 20
-24.9457121217308
 30
0.0
 10
12.01372741550496
 20
-24.9457121217308
 30
0.0
  0
SPLINE
  5
A2
330
49
100
AcDbEntity
  8
Layer 1
370
     0
100
AcDbSpline
210
0.0
220
0.0
230
1.0
 70
    11
 71
     3
 72
    17
 73
    13
 74
     0
 42
0.0000000001
 43
0.0000000001
 12
1.0
 22
0.0
 32
0.0
 13
1.0
 23
0.0
 33
0.0
 40
0.0
 40
0.0
 40
0.0
 40
0.0
 40
1.0
 40
1.0
 40
1.0
 40
2.0
 40
2.0
 40
2.0
 40
3.0
 40
3.0
 40
3.0
 40
4.0
 40
4.0
 40
4.0
 40
4.0
 10
11.53342633778573
 20
-26.15847827934645
 30
0.0
 10
11.53342633778573
 20
-26.15847827934645
 30
0.0
 10
11.34130326830932
 20
-26.35060134882286
 30
0.0
 10
11.26925766692003
 20
-26.35060134882286
 30
0.0
 10
11.26925766692003
 20
-26.35060134882286
 30
0.0
 10
11.56944913848044
 20
-26.74685215646422
 30
0.0
 10
11.42535793570173
 20
-27.39526256896821
 30
0.0
 10
11.42535793570173
 20
-27.39526256896821
 30
0.0
 10
12.56607849192802
 20
-26.69882028976645
 30
0.0
 10
12.57808755793115
 20
-25.65415906962109
 30
0.0
 10
12.57808755793115
 20
-25.65415906962109
 30
0.0
 10
12.2899051523738
 20
-26.32658321681674
 30
0.0
 10
11.53342633778573
 20
-26.15847827934645
 30
0.0
  0
SPLINE
  5
A3
330
49
100
AcDbEntity
  8
Layer 1
370
     0
100
AcDbSpline
210
0.0
220
0.0
230
1.0
 70
    11
 71
     3
 72
    20
 73
    16
 74
     0
 42
0.0000000001
 43
0.0000000001
 12
1.0
 22
0.0
 32
0.0
 13
1.0
 23
0.0
 33
0.0
 40
0.0
 40
0.0
 40
0.0
 40
0.0
 40
1.0
 40
1.0
 40
1.0
 40
2.0
 40
2.0
 40
2.0
 40
3.0
 40
3.0
 40
3.0
 40
4.0
 40
4.0
 40
4.0
 40
5.0
 40
5.0
 40
5.0
 40
5.0
 10
12.51804662523032
 20
-24.92169398972461
 30
0.0
 10
12.51804662523032
 20
-24.92169398972461
 30
0.0
 10
13.56270784537574
 20
-26.09844174396015
 30
0.0
 10
11.97770461481032
 20
-27.3112079015758
 30
0.0
 10
11.89047068900697
 20
-27.38099328329265
 30
0.0
 10
11.80904121839371
 20
-27.44733996504089
 30
0.0
 10
11.7312571215324
 20
-27.51151437340733
 30
0.0
 10
11.7312571215324
 20
-27.51151437340733
 30
0.0
 10
12.29184436808503
 20
-27.51151437340733
 30
0.0
 10
12.29184436808503
 20
-27.51151437340733
 30
0.0
 10
12.38373944729853
 20
-27.4492483995503
 30
0.0
 10
12.45834428574891
 20
-27.39770307853678
 30
0.0
 10
12.50604195654179
 20
-27.35923976827357
 30
0.0
 10
12.87827463217703
 20
-27.05904829671315
 30
0.0
 10
14.17509545718509
 20
-25.38999039875532
 30
0.0
 10
12.51804662523032
 20
-24.92169398972461
 30
0.0
  0
SPLINE
  5
A4
330
49
100
AcDbEntity
  8
Layer 1
370
     0
100
AcDbSpline
210
0.0
220
0.0
230
1.0
 70
    11
 71
     3
 72
    17
 73
    13
 74
     0
 42
0.0000000001
 43
0.0000000001
 12
1.0
 22
0.0
 32
0.0
 13
1.0
 23
0.0
 33
0.0
 40
0.0
 40
0.0
 40
0.0
 40
0.0
 40
1.0
 40
1.0
 40
1.0
 40
2.0
 40
2.0
 40
2.0
 40
3.0
 40
3.0
 40
3.0
 40
4.0
 40
4.0
 40
4.0
 40
4.0
 10
10.76493845719461
 20
-25.14983985989574
 30
0.0
 10
10.52478791833503
 20
-25.55809973354015
 30
0.0
 10
9.864368439827933
 20
-25.79825027239974
 30
0.0
 10
9.804331904441671
 20
-26.13446454465486
 30
0.0
 10
10.4527423169457
 20
-25.79825027239974
 30
0.0
 10
11.00508899605426
 20
-26.17048734534951
 30
0.0
 10
11.00508899605426
 20
-26.17048734534951
 30
0.0
 10
11.11315739813826
 20
-26.11044641264868
 30
0.0
 10
11.19721206553067
 20
-25.97836427587309
 30
0.0
 10
11.19721206553067
 20
-25.97836427587309
 30
0.0
 10
10.76493845719461
 20
-25.8102593384028
 30
0.0
 10
10.76493845719461
 20
-25.14983985989574
 30
0.0
 10
10.76493845719461
 20
-25.14983985989574
 30
0.0
  0
SPLINE
  5
A5
330
49
100
AcDbEntity
  8
Layer 1
370
     0
100
AcDbSpline
210
0.0
220
0.0
230
1.0
 70
    11
 71
     3
 72
    23
 73
    19
 74
     0
 42
0.0000000001
 43
0.0000000001
 12
1.0
 22
0.0
 32
0.0
 13
1.0
 23
0.0
 33
0.0
 40
0.0
 40
0.0
 40
0.0
 40
0.0
 40
1.0
 40
1.0
 40
1.0
 40
2.0
 40
2.0
 40
2.0
 40
3.0
 40
3.0
 40
3.0
 40
4.0
 40
4.0
 40
4.0
 40
5.0
 40
5.0
 40
5.0
 40
6.0
 40
6.0
 40
6.0
 40
6.0
 10
10.76493845719461
 20
-26.73484309046115
 30
0.0
 10
10.44073325094261
 20
-26.29056041612203
 30
0.0
 10
9.984445907914994
 20
-26.59075188768245
 30
0.0
 10
9.984445907914994
 20
-26.59075188768245
 30
0.0
 10
9.984445907914994
 20
-26.59075188768245
 30
0.0
 10
9.90039124052261
 20
-26.72283402445803
 30
0.0
 10
10.03247337729819
 20
-26.67480655507486
 30
0.0
 10
10.54880165302661
 20
-26.50669722029003
 30
0.0
 10
10.54880165302661
 20
-27.04703923071009
 30
0.0
 10
10.54880165302661
 20
-27.04703923071009
 30
0.0
 10
10.55348479300952
 20
-27.29996396830234
 30
0.0
 10
10.43746164892641
 20
-27.43748118584682
 30
0.0
 10
10.29433785534608
 20
-27.51151437340733
 30
0.0
 10
10.29433785534608
 20
-27.51151437340733
 30
0.0
 10
10.60656477679679
 20
-27.51151437340733
 30
0.0
 10
10.60656477679679
 20
-27.51151437340733
 30
0.0
 10
10.79118602767147
 20
-27.27731779843206
 30
0.0
 10
10.9452767237094
 20
-26.981976564807
 30
0.0
 10
10.76493845719461
 20
-26.73484309046115
 30
0.0
  0
SPLINE
  5
A6
330
49
100
AcDbEntity
  8
Layer 1
370
     0
100
AcDbSpline
210
0.0
220
0.0
230
1.0
 70
    11
 71
     3
 72
    20
 73
    16
 74
     0
 42
0.0000000001
 43
0.0000000001
 12
1.0
 22
0.0
 32
0.0
 13
1.0
 23
0.0
 33
0.0
 40
0.0
 40
0.0
 40
0.0
 40
0.0
 40
1.0
 40
1.0
 40
1.0
 40
2.0
 40
2.0
 40
2.0
 40
3.0
 40
3.0
 40
3.0
 40
4.0
 40
4.0
 40
4.0
 40
5.0
 40
5.0
 40
5.0
 40
5.0
 10
13.7308171801605
 20
-27.29919883557274
 30
0.0
 10
13.64676251276809
 20
-27.21514856549486
 30
0.0
 10
13.38259384190238
 20
-26.78287495715886
 30
0.0
 10
13.38259384190238
 20
-26.78287495715886
 30
0.0
 10
13.23252229135213
 20
-27.0580105304822
 30
0.0
 10
13.02031228906645
 20
-27.30347302530362
 30
0.0
 10
12.78041239713553
 20
-27.51151437340733
 30
0.0
 10
12.78041239713553
 20
-27.51151437340733
 30
0.0
 10
13.02187773304196
 20
-27.51151437340733
 30
0.0
 10
13.02187773304196
 20
-27.51151437340733
 30
0.0
 10
13.02609036036931
 20
-27.5047776875352
 30
0.0
 10
13.02987205087194
 20
-27.49807618017944
 30
0.0
 10
13.03437490095873
 20
-27.49132190504915
 30
0.0
 10
13.20247983842903
 20
-27.23916230018651
 30
0.0
 10
13.7308171801605
 20
-27.29919883557274
 30
0.0
 10
13.7308171801605
 20
-27.29919883557274
 30
0.0
  0
SPLINE
  5
A7
330
49
100
AcDbEntity
  8
Layer 1
370
     0
100
AcDbSpline
210
0.0
220
0.0
230
1.0
 70
    11
 71
     3
 72
    26
 73
    22
 74
     0
 42
0.0000000001
 43
0.0000000001
 12
1.0
 22
0.0
 32
0.0
 13
1.0
 23
0.0
 33
0.0
 40
0.0
 40
0.0
 40
0.0
 40
0.0
 40
1.0
 40
1.0
 40
1.0
 40
2.0
 40
2.0
 40
2.0
 40
3.0
 40
3.0
 40
3.0
 40
4.0
 40
4.0
 40
4.0
 40
5.0
 40
5.0
 40
5.0
 40
6.0
 40
6.0
 40
6.0
 40
7.0
 40
7.0
 40
7.0
 40
7.0
 10
14.72744653360815
 20
-26.17048734534951
 30
0.0
 10
14.72744653360815
 20
-26.17048734534951
 30
0.0
 10
14.18710452318815
 20
-26.38662414951751
 30
0.0
 10
14.03100425440638
 20
-25.94234147517845
 30
0.0
 10
14.01899958571786
 20
-25.45003133145615
 30
0.0
 10
14.45127319405386
 20
-25.52207693284544
 30
0.0
 10
14.45127319405386
 20
-25.52207693284544
 30
0.0
 10
14.45127319405386
 20
-25.52207693284544
 30
0.0
 10
14.53532346413173
 20
-25.46203600014468
 30
0.0
 10
14.42725506204773
 20
-25.43802226545309
 30
0.0
 10
14.16309078849657
 20
-25.25790826197974
 30
0.0
 10
13.43062570860009
 20
-25.53408160153403
 30
0.0
 10
13.63475344676503
 20
-26.31457854812815
 30
0.0
 10
13.8388855822445
 20
-27.0950710974078
 30
0.0
 10
14.3672185266615
 20
-27.43128536966292
 30
0.0
 10
14.3672185266615
 20
-27.43128536966292
 30
0.0
 10
14.25915012457744
 20
-26.63878375438022
 30
0.0
 10
14.83551493569215
 20
-26.19450108004109
 30
0.0
 10
14.83551493569215
 20
-26.19450108004109
 30
0.0
 10
14.88354680238992
 20
-26.07442361195403
 30
0.0
 10
14.72744653360815
 20
-26.17048734534951
 30
0.0
 10
14.72744653360815
 20
-26.17048734534951
 30
0.0
  0
SPLINE
  5
A8
330
49
100
AcDbEntity
  8
Layer 1
370
     0
100
AcDbSpline
210
0.0
220
0.0
230
1.0
 70
    11
 71
     3
 72
    20
 73
    16
 74
     0
 42
0.0000000001
 43
0.0000000001
 12
1.0
 22
0.0
 32
0.0
 13
1.0
 23
0.0
 33
0.0
 40
0.0
 40
0.0
 40
0.0
 40
0.0
 40
1.0
 40
1.0
 40
1.0
 40
2.0
 40
2.0
 40
2.0
 40
3.0
 40
3.0
 40
3.0
 40
4.0
 40
4.0
 40
4.0
 40
5.0
 40
5.0
 40
5.0
 40
5.0
 10
15.24377480933657
 20
-26.62677468837716
 30
0.0
 10
15.24377480933657
 20
-26.62677468837716
 30
0.0
 10
15.15972014194421
 20
-26.39862881820603
 30
0.0
 10
14.95559240377927
 20
-27.25117136618957
 30
0.0
 10
14.93315290769221
 20
-27.34489133093632
 30
0.0
 10
14.9195388218828
 20
-27.43080606237829
 30
0.0
 10
14.91106079945371
 20
-27.51151437340733
 30
0.0
 10
14.91106079945371
 20
-27.51151437340733
 30
0.0
 10
15.41331766866077
 20
-27.51151437340733
 30
0.0
 10
15.41331766866077
 20
-27.51151437340733
 30
0.0
 10
15.45145118033362
 20
-27.46591861896358
 30
0.0
 10
15.49167341641201
 20
-27.42303600758974
 30
0.0
 10
15.53195721489392
 20
-27.37124443696209
 30
0.0
 10
15.17172920794727
 20
-27.19113043348874
 30
0.0
 10
15.24377480933657
 20
-26.62677468837716
 30
0.0
 10
15.24377480933657
 20
-26.62677468837716
 30
0.0
  0
SPLINE
  5
A9
330
49
100
AcDbEntity
  8
Layer 1
370
     0
100
AcDbSpline
210
0.0
220
0.0
230
1.0
 70
    11
 71
     3
 72
    14
 73
    10
 74
     0
 42
0.0000000001
 43
0.0000000001
 12
1.0
 22
0.0
 32
0.0
 13
1.0
 23
0.0
 33
0.0
 40
0.0
 40
0.0
 40
0.0
 40
0.0
 40
1.0
 40
1.0
 40
1.0
 40
2.0
 40
2.0
 40
2.0
 40
3.0
 40
3.0
 40
3.0
 40
3.0
 10
17.08910345786159
 20
-25.61637734311127
 30
0.0
 10
17.08910345786159
 20
-25.61637734311127
 30
0.0
 10
17.08910345786159
 20
-24.67405922152145
 30
0.0
 10
17.08910345786159
 20
-24.67405922152145
 30
0.0
 10
17.03633568340652
 20
-24.74349281807533
 30
0.0
 10
16.9912192362474
 20
-24.82452653038018
 30
0.0
 10
16.96086017667763
 20
-24.92169398972461
 30
0.0
 10
16.868841972657
 20
-25.21615576044215
 30
0.0
 10
16.94337645407483
 20
-25.45062057160424
 30
0.0
 10
17.08910345786159
 20
-25.61637734311127
 30
0.0
  0
SPLINE
  5
AA
330
49
100
AcDbEntity
  8
Layer 1
370
     0
100
AcDbSpline
210
0.0
220
0.0
230
1.0
 70
    11
 71
     3
 72
    20
 73
    16
 74
     0
 42
0.0000000001
 43
0.0000000001
 12
1.0
 22
0.0
 32
0.0
 13
1.0
 23
0.0
 33
0.0
 40
0.0
 40
0.0
 40
0.0
 40
0.0
 40
1.0
 40
1.0
 40
1.0
 40
2.0
 40
2.0
 40
2.0
 40
3.0
 40
3.0
 40
3.0
 40
4.0
 40
4.0
 40
4.0
 40
5.0
 40
5.0
 40
5.0
 40
5.0
 10
16.67267777112028
 20
-25.14983985989574
 30
0.0
 10
16.43253162957517
 20
-25.55809973354015
 30
0.0
 10
15.77210775375357
 20
-25.79825027239974
 30
0.0
 10
15.71207121836727
 20
-26.13446454465486
 30
0.0
 10
16.36048602818587
 20
-25.79825027239974
 30
0.0
 10
16.91282391266532
 20
-26.17048734534951
 30
0.0
 10
16.91282391266532
 20
-26.17048734534951
 30
0.0
 10
16.99308369761149
 20
-26.12589857593495
 30
0.0
 10
17.059931673217
 20
-26.04176035956631
 30
0.0
 10
17.08910345786159
 20
-26.00131386044649
 30
0.0
 10
17.08910345786159
 20
-26.00131386044649
 30
0.0
 10
17.08910345786159
 20
-25.97065578348814
 30
0.0
 10
17.08910345786159
 20
-25.97065578348814
 30
0.0
 10
16.67349567162433
 20
-25.79228311657181
 30
0.0
 10
16.67267777112028
 20
-25.14983985989574
 30
0.0
 10
16.67267777112028
 20
-25.14983985989574
 30
0.0
  0
SPLINE
  5
AB
330
49
100
AcDbEntity
  8
Layer 1
370
     0
100
AcDbSpline
210
0.0
220
0.0
230
1.0
 70
    11
 71
     3
 72
    23
 73
    19
 74
     0
 42
0.0000000001
 43
0.0000000001
 12
1.0
 22
0.0
 32
0.0
 13
1.0
 23
0.0
 33
0.0
 40
0.0
 40
0.0
 40
0.0
 40
0.0
 40
1.0
 40
1.0
 40
1.0
 40
2.0
 40
2.0
 40
2.0
 40
3.0
 40
3.0
 40
3.0
 40
4.0
 40
4.0
 40
4.0
 40
5.0
 40
5.0
 40
5.0
 40
6.0
 40
6.0
 40
6.0
 40
6.0
 10
16.67267777112028
 20
-26.73484309046115
 30
0.0
 10
16.34847256486828
 20
-26.29056041612203
 30
0.0
 10
15.89218522184063
 20
-26.59075188768245
 30
0.0
 10
15.89218522184063
 20
-26.59075188768245
 30
0.0
 10
15.89218522184063
 20
-26.59075188768245
 30
0.0
 10
15.80813055444821
 20
-26.72283402445803
 30
0.0
 10
15.94020829390926
 20
-26.67480655507486
 30
0.0
 10
16.45654096695228
 20
-26.50669722029003
 30
0.0
 10
16.45654096695228
 20
-27.04703923071009
 30
0.0
 10
16.45654096695228
 20
-27.04703923071009
 30
0.0
 10
16.46121970962058
 20
-27.29996396830234
 30
0.0
 10
16.34520096285205
 20
-27.43748118584682
 30
0.0
 10
16.20207716927169
 20
-27.51151437340733
 30
0.0
 10
16.20207716927169
 20
-27.51151437340733
 30
0.0
 10
16.51430409072239
 20
-27.51151437340733
 30
0.0
 10
16.51430409072239
 20
-27.51151437340733
 30
0.0
 10
16.6989209442826
 20
-27.27731779843206
 30
0.0
 10
16.8530204349496
 20
-26.981976564807
 30
0.0
 10
16.67267777112028
 20
-26.73484309046115
 30
0.0
  0
SPLINE
  5
AC
330
49
100
AcDbEntity
  8
Layer 1
370
     0
100
AcDbSpline
210
0.0
220
0.0
230
1.0
 70
    11
 71
     3
 72
    26
 73
    22
 74
     0
 42
0.0000000001
 43
0.0000000001
 12
1.0
 22
0.0
 32
0.0
 13
1.0
 23
0.0
 33
0.0
 40
0.0
 40
0.0
 40
0.0
 40
0.0
 40
1.0
 40
1.0
 40
1.0
 40
2.0
 40
2.0
 40
2.0
 40
3.0
 40
3.0
 40
3.0
 40
4.0
 40
4.0
 40
4.0
 40
5.0
 40
5.0
 40
5.0
 40
6.0
 40
6.0
 40
6.0
 40
7.0
 40
7.0
 40
7.0
 40
7.0
 10
11.95369088011867
 20
-18.34148655545798
 30
0.0
 10
12.80623342810221
 20
-18.00527228320292
 30
0.0
 10
12.84225622879686
 20
-18.80978296448869
 30
0.0
 10
12.84225622879686
 20
-18.80978296448869
 30
0.0
 10
12.84225622879686
 20
-18.80978296448869
 30
0.0
 10
12.90229276418315
 20
-18.82779436483605
 30
0.0
 10
12.99835210026409
 20
-18.67769643039857
 30
0.0
 10
13.13043863435421
 20
-18.38951402484122
 30
0.0
 10
12.85426089748538
 20
-18.11334068528692
 30
0.0
 10
12.85426089748538
 20
-18.11334068528692
 30
0.0
 10
12.3979735544578
 20
-17.74110361233715
 30
0.0
 10
12.06175928220267
 20
-17.82515827972957
 30
0.0
 10
11.59346287317203
 20
-18.08932695059534
 30
0.0
 10
11.12516646414132
 20
-18.35349122414651
 30
0.0
 10
11.35331233431238
 20
-19.24205657282469
 30
0.0
 10
11.35331233431238
 20
-19.24205657282469
 30
0.0
 10
11.35331233431238
 20
-19.24205657282469
 30
0.0
 10
11.67751754056444
 20
-18.90584230056963
 30
0.0
 10
11.67751754056444
 20
-18.90584230056963
 30
0.0
 10
11.67751754056444
 20
-18.90584230056963
 30
0.0
 10
11.55744007247732
 20
-18.56962802831457
 30
0.0
 10
11.95369088011867
 20
-18.34148655545798
 30
0.0
  0
SPLINE
  5
AD
330
49
100
AcDbEntity
  8
Layer 1
370
     0
100
AcDbSpline
210
0.0
220
0.0
230
1.0
 70
    11
 71
     3
 72
    20
 73
    16
 74
     0
 42
0.0000000001
 43
0.0000000001
 12
1.0
 22
0.0
 32
0.0
 13
1.0
 23
0.0
 33
0.0
 40
0.0
 40
0.0
 40
0.0
 40
0.0
 40
1.0
 40
1.0
 40
1.0
 40
2.0
 40
2.0
 40
2.0
 40
3.0
 40
3.0
 40
3.0
 40
4.0
 40
4.0
 40
4.0
 40
5.0
 40
5.0
 40
5.0
 40
5.0
 10
12.30791655272109
 20
-19.59027551376834
 30
0.0
 10
11.98371134646909
 20
-19.4942161776874
 30
0.0
 10
11.71954267560332
 20
-19.05593583769257
 30
0.0
 10
11.71954267560332
 20
-19.05593583769257
 30
0.0
 10
11.71954267560332
 20
-19.05593583769257
 30
0.0
 10
11.69552894091173
 20
-19.04993350334828
 30
0.0
 10
11.69552894091173
 20
-19.04993350334828
 30
0.0
 10
11.69552894091173
 20
-19.04993350334828
 30
0.0
 10
11.47939213674373
 20
-19.36813637525605
 30
0.0
 10
11.47939213674373
 20
-19.39215010994763
 30
0.0
 10
11.47939213674373
 20
-19.41616384463928
 30
0.0
 10
11.69552894091173
 20
-20.08258565749063
 30
0.0
 10
11.89365434473244
 20
-20.25669732661969
 30
0.0
 10
11.77958360830415
 20
-19.91448072002034
 30
0.0
 10
12.03774554751109
 20
-19.64430971481034
 30
0.0
 10
12.30791655272109
 20
-19.59027551376834
 30
0.0
  0
SPLINE
  5
AE
330
49
100
AcDbEntity
  8
Layer 1
370
     0
100
AcDbSpline
210
0.0
220
0.0
230
1.0
 70
    11
 71
     3
 72
    17
 73
    13
 74
     0
 42
0.0000000001
 43
0.0000000001
 12
1.0
 22
0.0
 32
0.0
 13
1.0
 23
0.0
 33
0.0
 40
0.0
 40
0.0
 40
0.0
 40
0.0
 40
1.0
 40
1.0
 40
1.0
 40
2.0
 40
2.0
 40
2.0
 40
3.0
 40
3.0
 40
3.0
 40
4.0
 40
4.0
 40
4.0
 40
4.0
 10
13.34657543852221
 20
-17.51296213948063
 30
0.0
 10
13.34657543852221
 20
-17.51296213948063
 30
0.0
 10
13.69479437946586
 20
-17.83716734573263
 30
0.0
 10
13.71880811415744
 20
-18.23341815337399
 30
0.0
 10
13.71880811415744
 20
-18.23341815337399
 30
0.0
 10
14.39123665866763
 20
-17.81314921372651
 30
0.0
 10
14.16309078849657
 20
-17.17674786722557
 30
0.0
 10
14.16309078849657
 20
-17.17674786722557
 30
0.0
 10
14.09104518710721
 20
-16.84053359497045
 30
0.0
 10
13.6227487780765
 20
-16.75648332489257
 30
0.0
 10
13.6227487780765
 20
-16.75648332489257
 30
0.0
 10
14.06703145241563
 20
-17.36887093670198
 30
0.0
 10
13.34657543852221
 20
-17.51296213948063
 30
0.0
  0
SPLINE
  5
AF
330
49
100
AcDbEntity
  8
Layer 1
370
     0
100
AcDbSpline
210
0.0
220
0.0
230
1.0
 70
    11
 71
     3
 72
    20
 73
    16
 74
     0
 42
0.0000000001
 43
0.0000000001
 12
1.0
 22
0.0
 32
0.0
 13
1.0
 23
0.0
 33
0.0
 40
0.0
 40
0.0
 40
0.0
 40
0.0
 40
1.0
 40
1.0
 40
1.0
 40
2.0
 40
2.0
 40
2.0
 40
3.0
 40
3.0
 40
3.0
 40
4.0
 40
4.0
 40
4.0
 40
5.0
 40
5.0
 40
5.0
 40
5.0
 10
13.4066119739085
 20
-19.80641231793634
 30
0.0
 10
13.5146803759925
 20
-19.93849445471193
 30
0.0
 10
13.20248423574357
 20
-19.1700109714354
 30
0.0
 10
14.40324132735615
 20
-18.62966896101534
 30
0.0
 10
15.00362427047698
 20
-18.08932695059534
 30
0.0
 10
14.59487189760432
 20
-17.50422907280834
 30
0.0
 10
14.57135066214098
 20
-17.60902147556157
 30
0.0
 10
14.4392641280508
 20
-18.19739535267934
 30
0.0
 10
13.75483091485209
 20
-18.42553682553586
 30
0.0
 10
13.75483091485209
 20
-18.42553682553586
 30
0.0
 10
13.75483091485209
 20
-18.42553682553586
 30
0.0
 10
13.74282624616357
 20
-19.2780793735194
 30
0.0
 10
12.91430183018621
 20
-19.51822991237898
 30
0.0
 10
12.91430183018621
 20
-19.51822991237898
 30
0.0
 10
13.2985435718245
 20
-19.67433018116076
 30
0.0
 10
13.4066119739085
 20
-19.80641231793634
 30
0.0
  0
SPLINE
  5
B0
330
49
100
AcDbEntity
  8
Layer 1
370
     0
100
AcDbSpline
210
0.0
220
0.0
230
1.0
 70
    11
 71
     3
 72
    17
 73
    13
 74
     0
 42
0.0000000001
 43
0.0000000001
 12
1.0
 22
0.0
 32
0.0
 13
1.0
 23
0.0
 33
0.0
 40
0.0
 40
0.0
 40
0.0
 40
0.0
 40
1.0
 40
1.0
 40
1.0
 40
2.0
 40
2.0
 40
2.0
 40
3.0
 40
3.0
 40
3.0
 40
4.0
 40
4.0
 40
4.0
 40
4.0
 10
15.66403935166957
 20
-18.72572829709628
 30
0.0
 10
15.66403935166957
 20
-18.72572829709628
 30
0.0
 10
15.62801655097486
 20
-18.62966896101534
 30
0.0
 10
15.60400281628327
 20
-18.50959149292828
 30
0.0
 10
15.60400281628327
 20
-18.50959149292828
 30
0.0
 10
15.07566987186634
 20
-18.23341815337399
 30
0.0
 10
14.94358333777615
 20
-18.02928601789451
 30
0.0
 10
14.94358333777615
 20
-18.02928601789451
 30
0.0
 10
14.99161520447392
 20
-18.35349122414651
 30
0.0
 10
14.88354680238992
 20
-18.49758242692522
 30
0.0
 10
14.88354680238992
 20
-18.49758242692522
 30
0.0
 10
15.4479025475015
 20
-18.53360522761986
 30
0.0
 10
15.66403935166957
 20
-18.72572829709628
 30
0.0
  0
SPLINE
  5
B1
330
49
100
AcDbEntity
  8
Layer 1
370
     0
100
AcDbSpline
210
0.0
220
0.0
230
1.0
 70
    11
 71
     3
 72
    26
 73
    22
 74
     0
 42
0.0000000001
 43
0.0000000001
 12
1.0
 22
0.0
 32
0.0
 13
1.0
 23
0.0
 33
0.0
 40
0.0
 40
0.0
 40
0.0
 40
0.0
 40
1.0
 40
1.0
 40
1.0
 40
2.0
 40
2.0
 40
2.0
 40
3.0
 40
3.0
 40
3.0
 40
4.0
 40
4.0
 40
4.0
 40
5.0
 40
5.0
 40
5.0
 40
6.0
 40
6.0
 40
6.0
 40
7.0
 40
7.0
 40
7.0
 40
7.0
 10
14.99161520447392
 20
-18.80978296448869
 30
0.0
 10
14.99161520447392
 20
-18.80978296448869
 30
0.0
 10
14.27115919058057
 20
-18.67769643039857
 30
0.0
 10
13.95896305033156
 20
-19.37413870960034
 30
0.0
 10
13.95896305033156
 20
-19.37413870960034
 30
0.0
 10
14.76346933430286
 20
-18.74974203178786
 30
0.0
 10
15.42388881280992
 20
-19.43417524498657
 30
0.0
 10
15.72408028437033
 20
-20.05857192279905
 30
0.0
 10
14.99161520447392
 20
-20.26269966096399
 30
0.0
 10
14.99161520447392
 20
-20.26269966096399
 30
0.0
 10
14.99161520447392
 20
-20.26269966096399
 30
0.0
 10
14.88354680238992
 20
-20.33474526235328
 30
0.0
 10
14.72744653360815
 20
-20.20266312557769
 30
0.0
 10
14.72744653360815
 20
-20.20266312557769
 30
0.0
 10
14.79949213499751
 20
-20.45482273044041
 30
0.0
 10
15.18373827395034
 20
-20.40679086374263
 30
0.0
 10
15.56798001558863
 20
-20.35876339435946
 30
0.0
 10
16.02426735861621
 20
-20.01054005610128
 30
0.0
 10
15.84415335514286
 20
-19.43417524498657
 30
0.0
 10
15.66403935166957
 20
-18.85781043387186
 30
0.0
 10
14.99161520447392
 20
-18.80978296448869
 30
0.0
 10
14.99161520447392
 20
-18.80978296448869
 30
0.0
  0
SPLINE
  5
B2
330
49
100
AcDbEntity
  8
Layer 1
370
     0
100
AcDbSpline
210
0.0
220
0.0
230
1.0
 70
    11
 71
     3
 72
    17
 73
    13
 74
     0
 42
0.0000000001
 43
0.0000000001
 12
1.0
 22
0.0
 32
0.0
 13
1.0
 23
0.0
 33
0.0
 40
0.0
 40
0.0
 40
0.0
 40
0.0
 40
1.0
 40
1.0
 40
1.0
 40
2.0
 40
2.0
 40
2.0
 40
3.0
 40
3.0
 40
3.0
 40
4.0
 40
4.0
 40
4.0
 40
4.0
 10
15.18373827395034
 20
-19.75838045123863
 30
0.0
 10
15.18373827395034
 20
-19.59259289852984
 30
0.0
 10
15.04933875241326
 20
-19.45819337699276
 30
0.0
 10
14.88354680238992
 20
-19.45819337699276
 30
0.0
 10
14.71775485236659
 20
-19.45819337699276
 30
0.0
 10
14.58335533082951
 20
-19.59259289852984
 30
0.0
 10
14.58335533082951
 20
-19.75838045123863
 30
0.0
 10
14.58335533082951
 20
-19.92417240126191
 30
0.0
 10
14.71775485236659
 20
-20.05857192279905
 30
0.0
 10
14.88354680238992
 20
-20.05857192279905
 30
0.0
 10
15.04933875241326
 20
-20.05857192279905
 30
0.0
 10
15.18373827395034
 20
-19.92417240126191
 30
0.0
 10
15.18373827395034
 20
-19.75838045123863
 30
0.0
  0
SPLINE
  5
B3
330
49
100
AcDbEntity
  8
Layer 1
370
     0
100
AcDbSpline
210
0.0
220
0.0
230
1.0
 70
    11
 71
     3
 72
    17
 73
    13
 74
     0
 42
0.0000000001
 43
0.0000000001
 12
1.0
 22
0.0
 32
0.0
 13
1.0
 23
0.0
 33
0.0
 40
0.0
 40
0.0
 40
0.0
 40
0.0
 40
1.0
 40
1.0
 40
1.0
 40
2.0
 40
2.0
 40
2.0
 40
3.0
 40
3.0
 40
3.0
 40
4.0
 40
4.0
 40
4.0
 40
4.0
 10
14.31919105727827
 20
-20.16664032488305
 30
0.0
 10
14.3311957259668
 20
-21.2113015450284
 30
0.0
 10
15.47192067950769
 20
-21.90774382423017
 30
0.0
 10
15.47192067950769
 20
-21.90774382423017
 30
0.0
 10
15.32782947672898
 20
-21.25933341172617
 30
0.0
 10
15.62801655097486
 20
-20.86308260408482
 30
0.0
 10
15.62801655097486
 20
-20.86308260408482
 30
0.0
 10
15.55597094958557
 20
-20.86308260408482
 30
0.0
 10
15.36385227742369
 20
-20.6709595346084
 30
0.0
 10
15.36385227742369
 20
-20.6709595346084
 30
0.0
 10
14.60737346283563
 20
-20.83906447207863
 30
0.0
 10
14.31919105727827
 20
-20.16664032488305
 30
0.0
 10
14.31919105727827
 20
-20.16664032488305
 30
0.0
  0
SPLINE
  5
B4
330
49
100
AcDbEntity
  8
Layer 1
370
     0
100
AcDbSpline
210
0.0
220
0.0
230
1.0
 70
    11
 71
     3
 72
    23
 73
    19
 74
     0
 42
0.0000000001
 43
0.0000000001
 12
1.0
 22
0.0
 32
0.0
 13
1.0
 23
0.0
 33
0.0
 40
0.0
 40
0.0
 40
0.0
 40
0.0
 40
1.0
 40
1.0
 40
1.0
 40
2.0
 40
2.0
 40
2.0
 40
3.0
 40
3.0
 40
3.0
 40
4.0
 40
4.0
 40
4.0
 40
5.0
 40
5.0
 40
5.0
 40
6.0
 40
6.0
 40
6.0
 40
6.0
 10
14.37922759266457
 20
-19.43417524498657
 30
0.0
 10
12.7221787607098
 20
-19.90247165401728
 30
0.0
 10
14.01899958571786
 20
-21.57152955197511
 30
0.0
 10
14.39123665866763
 20
-21.87172102353553
 30
0.0
 10
14.65692240304892
 20
-22.08598457171036
 30
0.0
 10
15.74809401906198
 20
-22.70024543951288
 30
0.0
 10
16.10832642332317
 20
-23.37266958670853
 30
0.0
 10
16.46855443026988
 20
-24.04509373390417
 30
0.0
 10
16.21639482540716
 20
-24.89763628188765
 30
0.0
 10
16.21639482540716
 20
-24.89763628188765
 30
0.0
 10
16.68469123443787
 20
-24.6094538763303
 30
0.0
 10
16.57662283235387
 20
-23.7449066596583
 30
0.0
 10
16.57662283235387
 20
-23.7449066596583
 30
0.0
 10
16.4805590989584
 20
-23.42070145340623
 30
0.0
 10
16.54060003165916
 20
-23.12050998184582
 30
0.0
 10
14.91956960308457
 20
-21.82368915683776
 30
0.0
 10
13.33456637251915
 20
-20.61092299922211
 30
0.0
 10
14.37922759266457
 20
-19.43417524498657
 30
0.0
 10
14.37922759266457
 20
-19.43417524498657
 30
0.0
  0
SPLINE
  5
B5
330
49
100
AcDbEntity
  8
Layer 1
370
     0
100
AcDbSpline
210
0.0
220
0.0
230
1.0
 70
    11
 71
     3
 72
    20
 73
    16
 74
     0
 42
0.0000000001
 43
0.0000000001
 12
1.0
 22
0.0
 32
0.0
 13
1.0
 23
0.0
 33
0.0
 40
0.0
 40
0.0
 40
0.0
 40
0.0
 40
1.0
 40
1.0
 40
1.0
 40
2.0
 40
2.0
 40
2.0
 40
3.0
 40
3.0
 40
3.0
 40
4.0
 40
4.0
 40
4.0
 40
5.0
 40
5.0
 40
5.0
 40
5.0
 10
16.13233576070021
 20
-19.6623211151577
 30
0.0
 10
16.13233576070021
 20
-19.6623211151577
 30
0.0
 10
16.13233576070021
 20
-20.32274059366475
 30
0.0
 10
15.70006215236421
 20
-20.49084553113505
 30
0.0
 10
15.70006215236421
 20
-20.49084553113505
 30
0.0
 10
15.78411681975663
 20
-20.62292766791063
 30
0.0
 10
15.89218522184063
 20
-20.68296860061146
 30
0.0
 10
15.89218522184063
 20
-20.68296860061146
 30
0.0
 10
16.44236402488201
 20
-20.31233215015351
 30
0.0
 10
17.08910345786159
 20
-20.64507254392365
 30
0.0
 10
17.08910345786159
 20
-20.64507254392365
 30
0.0
 10
17.08910345786159
 20
-20.63374506167391
 30
0.0
 10
17.08910345786159
 20
-20.63374506167391
 30
0.0
 10
17.01426995905524
 20
-20.30448294370334
 30
0.0
 10
16.36929824651985
 20
-20.06514590803321
 30
0.0
 10
16.13233576070021
 20
-19.6623211151577
 30
0.0
  0
SPLINE
  5
B6
330
49
100
AcDbEntity
  8
Layer 1
370
     0
100
AcDbSpline
210
0.0
220
0.0
230
1.0
 70
    11
 71
     3
 72
    26
 73
    22
 74
     0
 42
0.0000000001
 43
0.0000000001
 12
1.0
 22
0.0
 32
0.0
 13
1.0
 23
0.0
 33
0.0
 40
0.0
 40
0.0
 40
0.0
 40
0.0
 40
1.0
 40
1.0
 40
1.0
 40
2.0
 40
2.0
 40
2.0
 40
3.0
 40
3.0
 40
3.0
 40
4.0
 40
4.0
 40
4.0
 40
5.0
 40
5.0
 40
5.0
 40
6.0
 40
6.0
 40
6.0
 40
7.0
 40
7.0
 40
7.0
 40
7.0
 10
16.34847256486828
 20
-21.55952048597205
 30
0.0
 10
16.34847256486828
 20
-21.55952048597205
 30
0.0
 10
16.34847256486828
 20
-21.01917847555199
 30
0.0
 10
16.86480523791123
 20
-21.18728781033682
 30
0.0
 10
16.99688297737228
 20
-21.23531527971999
 30
0.0
 10
16.9128327072944
 20
-21.1032331429444
 30
0.0
 10
16.9128327072944
 20
-21.1032331429444
 30
0.0
 10
16.9128327072944
 20
-21.1032331429444
 30
0.0
 10
16.45654096695228
 20
-20.80304167138399
 30
0.0
 10
16.13233576070021
 20
-21.24732434572311
 30
0.0
 10
15.80813055444821
 20
-21.69160702006217
 30
0.0
 10
16.56460936903628
 20
-22.29198556586847
 30
0.0
 10
16.63665497042557
 20
-22.41206303395553
 30
0.0
 10
16.70633481659351
 20
-22.52819611090212
 30
0.0
 10
16.9330515595398
 20
-22.75718186814992
 30
0.0
 10
17.08910345786159
 20
-23.15229377132595
 30
0.0
 10
17.08910345786159
 20
-23.15229377132595
 30
0.0
 10
17.08910345786159
 20
-22.10274713472894
 30
0.0
 10
17.08910345786159
 20
-22.10274713472894
 30
0.0
 10
16.95085188878927
 20
-22.11461548666679
 30
0.0
 10
16.3378134744283
 20
-22.13493107983196
 30
0.0
 10
16.34847256486828
 20
-21.55952048597205
 30
0.0
  0
SPLINE
  5
B7
330
49
100
AcDbEntity
  8
Layer 1
370
     0
100
AcDbSpline
210
0.0
220
0.0
230
1.0
 70
    11
 71
     3
 72
    23
 73
    19
 74
     0
 42
0.0000000001
 43
0.0000000001
 12
1.0
 22
0.0
 32
0.0
 13
1.0
 23
0.0
 33
0.0
 40
0.0
 40
0.0
 40
0.0
 40
0.0
 40
1.0
 40
1.0
 40
1.0
 40
2.0
 40
2.0
 40
2.0
 40
3.0
 40
3.0
 40
3.0
 40
4.0
 40
4.0
 40
4.0
 40
5.0
 40
5.0
 40
5.0
 40
6.0
 40
6.0
 40
6.0
 40
6.0
 10
13.87490838293921
 20
-22.59217703742888
 30
0.0
 10
13.75483091485209
 20
-22.68823637350982
 30
0.0
 10
13.9469539843285
 20
-22.65221357281517
 30
0.0
 10
13.9469539843285
 20
-22.65221357281517
 30
0.0
 10
13.9469539843285
 20
-22.65221357281517
 30
0.0
 10
14.21112265519427
 20
-22.44808583465024
 30
0.0
 10
14.82351026700363
 20
-22.4961133040334
 30
0.0
 10
14.31919105727827
 20
-22.2439536991707
 30
0.0
 10
13.80286278154986
 20
-21.82368915683776
 30
0.0
 10
13.5146803759925
 20
-21.29535621242082
 30
0.0
 10
13.5146803759925
 20
-21.29535621242082
 30
0.0
 10
13.25051170512673
 20
-21.72762982075682
 30
0.0
 10
13.16646143504892
 20
-21.8116800908347
 30
0.0
 10
13.16646143504892
 20
-21.8116800908347
 30
0.0
 10
13.69479437946586
 20
-21.75164355544847
 30
0.0
 10
13.86289931693615
 20
-22.00380316031111
 30
0.0
 10
14.03100865172092
 20
-22.25596276517382
 30
0.0
 10
13.99498585102627
 20
-22.4961133040334
 30
0.0
 10
13.87490838293921
 20
-22.59217703742888
 30
0.0
  0
SPLINE
  5
B8
330
49
100
AcDbEntity
  8
Layer 1
370
     0
100
AcDbSpline
210
0.0
220
0.0
230
1.0
 70
    11
 71
     3
 72
    26
 73
    22
 74
     0
 42
0.0000000001
 43
0.0000000001
 12
1.0
 22
0.0
 32
0.0
 13
1.0
 23
0.0
 33
0.0
 40
0.0
 40
0.0
 40
0.0
 40
0.0
 40
1.0
 40
1.0
 40
1.0
 40
2.0
 40
2.0
 40
2.0
 40
3.0
 40
3.0
 40
3.0
 40
4.0
 40
4.0
 40
4.0
 40
5.0
 40
5.0
 40
5.0
 40
6.0
 40
6.0
 40
6.0
 40
7.0
 40
7.0
 40
7.0
 40
7.0
 10
13.26252077112986
 20
-20.82705980339011
 30
0.0
 10
13.4666485092948
 20
-20.04656285679592
 30
0.0
 10
12.73418782671286
 20
-19.7703895172417
 30
0.0
 10
12.47001915584715
 20
-19.95050352071499
 30
0.0
 10
12.36195075376309
 20
-19.97451725540664
 30
0.0
 10
12.4460054211555
 20
-20.0345581881074
 30
0.0
 10
12.4460054211555
 20
-20.0345581881074
 30
0.0
 10
12.4460054211555
 20
-20.0345581881074
 30
0.0
 10
12.87827902949157
 20
-19.96251258671811
 30
0.0
 10
12.86626996348844
 20
-20.45482273044041
 30
0.0
 10
12.71016969470673
 20
-20.89910540477947
 30
0.0
 10
12.16982768428674
 20
-20.68296860061146
 30
0.0
 10
12.16982768428674
 20
-20.68296860061146
 30
0.0
 10
12.16982768428674
 20
-20.68296860061146
 30
0.0
 10
12.0137318128195
 20
-20.58690486721599
 30
0.0
 10
12.06175928220267
 20
-20.70698233530305
 30
0.0
 10
12.06175928220267
 20
-20.70698233530305
 30
0.0
 10
12.63812409331738
 20
-21.15126500964211
 30
0.0
 10
12.53005569123338
 20
-21.94376662492482
 30
0.0
 10
12.53005569123338
 20
-21.94376662492482
 30
0.0
 10
13.05839303296486
 20
-21.60755235266976
 30
0.0
 10
13.26252077112986
 20
-20.82705980339011
 30
0.0
  0
SPLINE
  5
B9
330
49
100
AcDbEntity
  8
Layer 1
370
     0
100
AcDbSpline
210
0.0
220
0.0
230
1.0
 70
    11
 71
     3
 72
    17
 73
    13
 74
     0
 42
0.0000000001
 43
0.0000000001
 12
1.0
 22
0.0
 32
0.0
 13
1.0
 23
0.0
 33
0.0
 40
0.0
 40
0.0
 40
0.0
 40
0.0
 40
1.0
 40
1.0
 40
1.0
 40
2.0
 40
2.0
 40
2.0
 40
3.0
 40
3.0
 40
3.0
 40
4.0
 40
4.0
 40
4.0
 40
4.0
 10
11.36532140031544
 20
-21.88372569222405
 30
0.0
 10
11.53342633778573
 20
-22.09986249639205
 30
0.0
 10
11.70153127525603
 20
-22.15990342909288
 30
0.0
 10
11.71354034125909
 20
-22.91638224368088
 30
0.0
 10
11.71354034125909
 20
-22.91638224368088
 30
0.0
 10
12.14581394959509
 20
-22.61619077212046
 30
0.0
 10
11.94168621143015
 20
-21.76365262145153
 30
0.0
 10
11.73755407595067
 20
-20.91111007346799
 30
0.0
 10
11.65350380587279
 20
-21.13925594363905
 30
0.0
 10
11.65350380587279
 20
-21.13925594363905
 30
0.0
 10
11.65350380587279
 20
-21.13925594363905
 30
0.0
 10
11.72554940726215
 20
-21.70361168875069
 30
0.0
 10
11.36532140031544
 20
-21.88372569222405
 30
0.0
  0
SPLINE
  5
BA
330
49
100
AcDbEntity
  8
Layer 1
370
     0
100
AcDbSpline
210
0.0
220
0.0
230
1.0
 70
    11
 71
     3
 72
    26
 73
    22
 74
     0
 42
0.0000000001
 43
0.0000000001
 12
1.0
 22
0.0
 32
0.0
 13
1.0
 23
0.0
 33
0.0
 40
0.0
 40
0.0
 40
0.0
 40
0.0
 40
1.0
 40
1.0
 40
1.0
 40
2.0
 40
2.0
 40
2.0
 40
3.0
 40
3.0
 40
3.0
 40
4.0
 40
4.0
 40
4.0
 40
5.0
 40
5.0
 40
5.0
 40
6.0
 40
6.0
 40
6.0
 40
7.0
 40
7.0
 40
7.0
 40
7.0
 10
5.46958675507836
 20
-19.24205657282469
 30
0.0
 10
5.46958675507836
 20
-19.24205657282469
 30
0.0
 10
5.793791961330392
 20
-18.90584230056963
 30
0.0
 10
5.793791961330392
 20
-18.90584230056963
 30
0.0
 10
5.793791961330392
 20
-18.90584230056963
 30
0.0
 10
5.673718890557869
 20
-18.56962802831457
 30
0.0
 10
6.069969698199223
 20
-18.34148655545798
 30
0.0
 10
6.922507848868193
 20
-18.00527228320292
 30
0.0
 10
6.958530649562838
 20
-18.80978296448869
 30
0.0
 10
6.958530649562838
 20
-18.80978296448869
 30
0.0
 10
6.958530649562838
 20
-18.80978296448869
 30
0.0
 10
7.018567184949132
 20
-18.82779436483605
 30
0.0
 10
7.114630918344608
 20
-18.67769643039857
 30
0.0
 10
7.246713055120193
 20
-18.38951402484122
 30
0.0
 10
6.970539715565931
 20
-18.11334068528692
 30
0.0
 10
6.970539715565931
 20
-18.11334068528692
 30
0.0
 10
6.514247975223745
 20
-17.74110361233715
 30
0.0
 10
6.178038100283223
 20
-17.82515827972957
 30
0.0
 10
5.709741691252514
 20
-18.08932695059534
 30
0.0
 10
5.241445282221838
 20
-18.35349122414651
 30
0.0
 10
5.46958675507836
 20
-19.24205657282469
 30
0.0
 10
5.46958675507836
 20
-19.24205657282469
 30
0.0
  0
SPLINE
  5
BB
330
49
100
AcDbEntity
  8
Layer 1
370
     0
100
AcDbSpline
210
0.0
220
0.0
230
1.0
 70
    11
 71
     3
 72
    20
 73
    16
 74
     0
 42
0.0000000001
 43
0.0000000001
 12
1.0
 22
0.0
 32
0.0
 13
1.0
 23
0.0
 33
0.0
 40
0.0
 40
0.0
 40
0.0
 40
0.0
 40
1.0
 40
1.0
 40
1.0
 40
2.0
 40
2.0
 40
2.0
 40
3.0
 40
3.0
 40
3.0
 40
4.0
 40
4.0
 40
4.0
 40
5.0
 40
5.0
 40
5.0
 40
5.0
 10
6.4241909734871
 20
-19.59027551376834
 30
0.0
 10
6.099985767235069
 20
-19.4942161776874
 30
0.0
 10
5.835821493683869
 20
-19.05593583769257
 30
0.0
 10
5.835821493683869
 20
-19.05593583769257
 30
0.0
 10
5.835821493683869
 20
-19.05593583769257
 30
0.0
 10
5.811803361677715
 20
-19.04993350334828
 30
0.0
 10
5.811803361677715
 20
-19.04993350334828
 30
0.0
 10
5.811803361677715
 20
-19.04993350334828
 30
0.0
 10
5.595666557509714
 20
-19.36813637525605
 30
0.0
 10
5.595666557509714
 20
-19.39215010994763
 30
0.0
 10
5.595666557509714
 20
-19.41616384463928
 30
0.0
 10
5.811803361677715
 20
-20.08258565749063
 30
0.0
 10
6.009928765498391
 20
-20.25669732661969
 30
0.0
 10
5.89585802907013
 20
-19.91448072002034
 30
0.0
 10
6.154019968277068
 20
-19.64430971481034
 30
0.0
 10
6.4241909734871
 20
-19.59027551376834
 30
0.0
  0
SPLINE
  5
BC
330
49
100
AcDbEntity
  8
Layer 1
370
     0
100
AcDbSpline
210
0.0
220
0.0
230
1.0
 70
    11
 71
     3
 72
    17
 73
    13
 74
     0
 42
0.0000000001
 43
0.0000000001
 12
1.0
 22
0.0
 32
0.0
 13
1.0
 23
0.0
 33
0.0
 40
0.0
 40
0.0
 40
0.0
 40
0.0
 40
1.0
 40
1.0
 40
1.0
 40
2.0
 40
2.0
 40
2.0
 40
3.0
 40
3.0
 40
3.0
 40
4.0
 40
4.0
 40
4.0
 40
4.0
 10
7.462849859288192
 20
-17.51296213948063
 30
0.0
 10
7.462849859288192
 20
-17.51296213948063
 30
0.0
 10
7.81106880023184
 20
-17.83716734573263
 30
0.0
 10
7.835086932237962
 20
-18.23341815337399
 30
0.0
 10
7.835086932237962
 20
-18.23341815337399
 30
0.0
 10
8.507511079433609
 20
-17.81314921372651
 30
0.0
 10
8.279365209262517
 20
-17.17674786722557
 30
0.0
 10
8.279365209262517
 20
-17.17674786722557
 30
0.0
 10
8.207319607873194
 20
-16.84053359497045
 30
0.0
 10
7.739023198842485
 20
-16.75648332489257
 30
0.0
 10
7.739023198842485
 20
-16.75648332489257
 30
0.0
 10
8.183305873181578
 20
-17.36887093670198
 30
0.0
 10
7.462849859288192
 20
-17.51296213948063
 30
0.0
  0
SPLINE
  5
BD
330
49
100
AcDbEntity
  8
Layer 1
370
     0
100
AcDbSpline
210
0.0
220
0.0
230
1.0
 70
    11
 71
     3
 72
    20
 73
    16
 74
     0
 42
0.0000000001
 43
0.0000000001
 12
1.0
 22
0.0
 32
0.0
 13
1.0
 23
0.0
 33
0.0
 40
0.0
 40
0.0
 40
0.0
 40
0.0
 40
1.0
 40
1.0
 40
1.0
 40
2.0
 40
2.0
 40
2.0
 40
3.0
 40
3.0
 40
3.0
 40
4.0
 40
4.0
 40
4.0
 40
5.0
 40
5.0
 40
5.0
 40
5.0
 10
7.522886394674486
 20
-19.80641231793634
 30
0.0
 10
7.630954796758485
 20
-19.93849445471193
 30
0.0
 10
7.318758656509547
 20
-19.1700109714354
 30
0.0
 10
8.51952014543667
 20
-18.62966896101534
 30
0.0
 10
9.119898691242962
 20
-18.08932695059534
 30
0.0
 10
8.711150715684836
 20
-17.50422907280834
 30
0.0
 10
8.687625082906932
 20
-17.60902147556157
 30
0.0
 10
8.555542946131315
 20
-18.19739535267934
 30
0.0
 10
7.871109732932639
 20
-18.42553682553586
 30
0.0
 10
7.871109732932639
 20
-18.42553682553586
 30
0.0
 10
7.871109732932639
 20
-18.42553682553586
 30
0.0
 10
7.859100666929546
 20
-19.2780793735194
 30
0.0
 10
7.030576250952192
 20
-19.51822991237898
 30
0.0
 10
7.030576250952192
 20
-19.51822991237898
 30
0.0
 10
7.414817992590486
 20
-19.67433018116076
 30
0.0
 10
7.522886394674486
 20
-19.80641231793634
 30
0.0
  0
SPLINE
  5
BE
330
49
100
AcDbEntity
  8
Layer 1
370
     0
100
AcDbSpline
210
0.0
220
0.0
230
1.0
 70
    11
 71
     3
 72
    17
 73
    13
 74
     0
 42
0.0000000001
 43
0.0000000001
 12
1.0
 22
0.0
 32
0.0
 13
1.0
 23
0.0
 33
0.0
 40
0.0
 40
0.0
 40
0.0
 40
0.0
 40
1.0
 40
1.0
 40
1.0
 40
2.0
 40
2.0
 40
2.0
 40
3.0
 40
3.0
 40
3.0
 40
4.0
 40
4.0
 40
4.0
 40
4.0
 10
9.720277237049256
 20
-18.50959149292828
 30
0.0
 10
9.720277237049256
 20
-18.50959149292828
 30
0.0
 10
9.191944292632286
 20
-18.23341815337399
 30
0.0
 10
9.0598621558567
 20
-18.02928601789451
 30
0.0
 10
9.0598621558567
 20
-18.02928601789451
 30
0.0
 10
9.107889625239903
 20
-18.35349122414651
 30
0.0
 10
8.99982122315587
 20
-18.49758242692522
 30
0.0
 10
8.99982122315587
 20
-18.49758242692522
 30
0.0
 10
9.564181365582055
 20
-18.53360522761986
 30
0.0
 10
9.780318169750055
 20
-18.72572829709628
 30
0.0
 10
9.780318169750055
 20
-18.72572829709628
 30
0.0
 10
9.744295369055378
 20
-18.62966896101534
 30
0.0
 10
9.720277237049256
 20
-18.50959149292828
 30
0.0
  0
SPLINE
  5
BF
330
49
100
AcDbEntity
  8
Layer 1
370
     0
100
AcDbSpline
210
0.0
220
0.0
230
1.0
 70
    11
 71
     3
 72
    26
 73
    22
 74
     0
 42
0.0000000001
 43
0.0000000001
 12
1.0
 22
0.0
 32
0.0
 13
1.0
 23
0.0
 33
0.0
 40
0.0
 40
0.0
 40
0.0
 40
0.0
 40
1.0
 40
1.0
 40
1.0
 40
2.0
 40
2.0
 40
2.0
 40
3.0
 40
3.0
 40
3.0
 40
4.0
 40
4.0
 40
4.0
 40
5.0
 40
5.0
 40
5.0
 40
6.0
 40
6.0
 40
6.0
 40
7.0
 40
7.0
 40
7.0
 40
7.0
 10
9.96043217322341
 20
-19.43417524498657
 30
0.0
 10
9.780318169750055
 20
-18.85781043387186
 30
0.0
 10
9.107889625239903
 20
-18.80978296448869
 30
0.0
 10
9.107889625239903
 20
-18.80978296448869
 30
0.0
 10
9.107889625239903
 20
-18.80978296448869
 30
0.0
 10
8.387433611346516
 20
-18.67769643039857
 30
0.0
 10
8.075237471097578
 20
-19.37413870960034
 30
0.0
 10
8.075237471097578
 20
-19.37413870960034
 30
0.0
 10
8.879748152383348
 20
-18.74974203178786
 30
0.0
 10
9.540163233575901
 20
-19.43417524498657
 30
0.0
 10
9.840354705136317
 20
-20.05857192279905
 30
0.0
 10
9.107889625239903
 20
-20.26269966096399
 30
0.0
 10
9.107889625239903
 20
-20.26269966096399
 30
0.0
 10
9.107889625239903
 20
-20.26269966096399
 30
0.0
 10
8.99982122315587
 20
-20.33474526235328
 30
0.0
 10
8.84372535168867
 20
-20.20266312557769
 30
0.0
 10
8.84372535168867
 20
-20.20266312557769
 30
0.0
 10
8.915770953078024
 20
-20.45482273044041
 30
0.0
 10
9.300012694716285
 20
-20.40679086374263
 30
0.0
 10
9.684254436354578
 20
-20.35876339435946
 30
0.0
 10
10.14054617669673
 20
-20.01054005610128
 30
0.0
 10
9.96043217322341
 20
-19.43417524498657
 30
0.0
  0
SPLINE
  5
C0
330
49
100
AcDbEntity
  8
Layer 1
370
     0
100
AcDbSpline
210
0.0
220
0.0
230
1.0
 70
    11
 71
     3
 72
    17
 73
    13
 74
     0
 42
0.0000000001
 43
0.0000000001
 12
1.0
 22
0.0
 32
0.0
 13
1.0
 23
0.0
 33
0.0
 40
0.0
 40
0.0
 40
0.0
 40
0.0
 40
1.0
 40
1.0
 40
1.0
 40
2.0
 40
2.0
 40
2.0
 40
3.0
 40
3.0
 40
3.0
 40
4.0
 40
4.0
 40
4.0
 40
4.0
 10
9.300012694716285
 20
-19.75838045123863
 30
0.0
 10
9.300012694716285
 20
-19.59259289852984
 30
0.0
 10
9.165613173179205
 20
-19.45819337699276
 30
0.0
 10
8.99982122315587
 20
-19.45819337699276
 30
0.0
 10
8.834033670447106
 20
-19.45819337699276
 30
0.0
 10
8.699634148909993
 20
-19.59259289852984
 30
0.0
 10
8.699634148909993
 20
-19.75838045123863
 30
0.0
 10
8.699634148909993
 20
-19.92417240126191
 30
0.0
 10
8.834033670447106
 20
-20.05857192279905
 30
0.0
 10
8.99982122315587
 20
-20.05857192279905
 30
0.0
 10
9.165613173179205
 20
-20.05857192279905
 30
0.0
 10
9.300012694716285
 20
-19.92417240126191
 30
0.0
 10
9.300012694716285
 20
-19.75838045123863
 30
0.0
  0
SPLINE
  5
C1
330
49
100
AcDbEntity
  8
Layer 1
370
     0
100
AcDbSpline
210
0.0
220
0.0
230
1.0
 70
    11
 71
     3
 72
    17
 73
    13
 74
     0
 42
0.0000000001
 43
0.0000000001
 12
1.0
 22
0.0
 32
0.0
 13
1.0
 23
0.0
 33
0.0
 40
0.0
 40
0.0
 40
0.0
 40
0.0
 40
1.0
 40
1.0
 40
1.0
 40
2.0
 40
2.0
 40
2.0
 40
3.0
 40
3.0
 40
3.0
 40
4.0
 40
4.0
 40
4.0
 40
4.0
 10
9.48012669818964
 20
-20.6709595346084
 30
0.0
 10
8.72364788360161
 20
-20.83906447207863
 30
0.0
 10
8.435465478044254
 20
-20.16664032488305
 30
0.0
 10
8.435465478044254
 20
-20.16664032488305
 30
0.0
 10
8.447474544047315
 20
-21.2113015450284
 30
0.0
 10
9.588195100273639
 20
-21.90774382423017
 30
0.0
 10
9.588195100273639
 20
-21.90774382423017
 30
0.0
 10
9.444103897494962
 20
-21.25933341172617
 30
0.0
 10
9.744295369055378
 20
-20.86308260408482
 30
0.0
 10
9.744295369055378
 20
-20.86308260408482
 30
0.0
 10
9.672249767666056
 20
-20.86308260408482
 30
0.0
 10
9.48012669818964
 20
-20.6709595346084
 30
0.0
 10
9.48012669818964
 20
-20.6709595346084
 30
0.0
  0
SPLINE
  5
C2
330
49
100
AcDbEntity
  8
Layer 1
370
     0
100
AcDbSpline
210
0.0
220
0.0
230
1.0
 70
    11
 71
     3
 72
    23
 73
    19
 74
     0
 42
0.0000000001
 43
0.0000000001
 12
1.0
 22
0.0
 32
0.0
 13
1.0
 23
0.0
 33
0.0
 40
0.0
 40
0.0
 40
0.0
 40
0.0
 40
1.0
 40
1.0
 40
1.0
 40
2.0
 40
2.0
 40
2.0
 40
3.0
 40
3.0
 40
3.0
 40
4.0
 40
4.0
 40
4.0
 40
5.0
 40
5.0
 40
5.0
 40
6.0
 40
6.0
 40
6.0
 40
6.0
 10
10.69289285580532
 20
-23.7449066596583
 30
0.0
 10
10.59683351972438
 20
-23.42070145340623
 30
0.0
 10
10.65687005511061
 20
-23.12050998184582
 30
0.0
 10
9.035844023850547
 20
-21.82368915683776
 30
0.0
 10
7.450840793285131
 20
-20.61092299922211
 30
0.0
 10
8.495502013430515
 20
-19.43417524498657
 30
0.0
 10
8.495502013430515
 20
-19.43417524498657
 30
0.0
 10
6.838453181475777
 20
-19.90247165401728
 30
0.0
 10
8.13527400648384
 20
-21.57152955197511
 30
0.0
 10
8.507511079433609
 20
-21.87172102353553
 30
0.0
 10
8.773201221129476
 20
-22.08598457171036
 30
0.0
 10
9.864368439827933
 20
-22.70024543951288
 30
0.0
 10
10.22459644677461
 20
-23.37266958670853
 30
0.0
 10
10.58482445372132
 20
-24.04509373390417
 30
0.0
 10
10.33266484885861
 20
-24.89763628188765
 30
0.0
 10
10.33266484885861
 20
-24.89763628188765
 30
0.0
 10
10.80096125788932
 20
-24.6094538763303
 30
0.0
 10
10.69289285580532
 20
-23.7449066596583
 30
0.0
 10
10.69289285580532
 20
-23.7449066596583
 30
0.0
  0
SPLINE
  5
C3
330
49
100
AcDbEntity
  8
Layer 1
370
     0
100
AcDbSpline
210
0.0
220
0.0
230
1.0
 70
    11
 71
     3
 72
    17
 73
    13
 74
     0
 42
0.0000000001
 43
0.0000000001
 12
1.0
 22
0.0
 32
0.0
 13
1.0
 23
0.0
 33
0.0
 40
0.0
 40
0.0
 40
0.0
 40
0.0
 40
1.0
 40
1.0
 40
1.0
 40
2.0
 40
2.0
 40
2.0
 40
3.0
 40
3.0
 40
3.0
 40
4.0
 40
4.0
 40
4.0
 40
4.0
 10
10.00845964260661
 20
-20.68296860061146
 30
0.0
 10
10.00845964260661
 20
-20.68296860061146
 30
0.0
 10
10.56081071902967
 20
-20.31073152766169
 30
0.0
 10
11.20922113153373
 20
-20.64694579991682
 30
0.0
 10
11.14918459614744
 20
-20.31073152766169
 30
0.0
 10
10.48876511764035
 20
-20.07058098880211
 30
0.0
 10
10.24861457878073
 20
-19.6623211151577
 30
0.0
 10
10.24861457878073
 20
-19.6623211151577
 30
0.0
 10
10.24861457878073
 20
-20.32274059366475
 30
0.0
 10
9.816340970444733
 20
-20.49084553113505
 30
0.0
 10
9.816340970444733
 20
-20.49084553113505
 30
0.0
 10
9.90039124052261
 20
-20.62292766791063
 30
0.0
 10
10.00845964260661
 20
-20.68296860061146
 30
0.0
  0
SPLINE
  5
C4
330
49
100
AcDbEntity
  8
Layer 1
370
     0
100
AcDbSpline
210
0.0
220
0.0
230
1.0
 70
    11
 71
     3
 72
    32
 73
    28
 74
     0
 42
0.0000000001
 43
0.0000000001
 12
1.0
 22
0.0
 32
0.0
 13
1.0
 23
0.0
 33
0.0
 40
0.0
 40
0.0
 40
0.0
 40
0.0
 40
1.0
 40
1.0
 40
1.0
 40
2.0
 40
2.0
 40
2.0
 40
3.0
 40
3.0
 40
3.0
 40
4.0
 40
4.0
 40
4.0
 40
5.0
 40
5.0
 40
5.0
 40
6.0
 40
6.0
 40
6.0
 40
7.0
 40
7.0
 40
7.0
 40
8.0
 40
8.0
 40
8.0
 40
9.0
 40
9.0
 40
9.0
 40
9.0
 10
11.48239550257315
 20
-22.60718507194682
 30
0.0
 10
11.35631570014179
 20
-22.14789436308982
 30
0.0
 10
11.23323486622532
 20
-22.09986249639205
 30
0.0
 10
11.23323486622532
 20
-22.09986249639205
 30
0.0
 10
11.23323486622532
 20
-22.09986249639205
 30
0.0
 10
10.4527423169457
 20
-22.20793089847605
 30
0.0
 10
10.46475138294876
 20
-21.55952048597205
 30
0.0
 10
10.46475138294876
 20
-21.55952048597205
 30
0.0
 10
10.46475138294876
 20
-21.01917847555199
 30
0.0
 10
10.98107526136267
 20
-21.18728781033682
 30
0.0
 10
11.1131617954528
 20
-21.23531527971999
 30
0.0
 10
11.02910712806038
 20
-21.1032331429444
 30
0.0
 10
11.02910712806038
 20
-21.1032331429444
 30
0.0
 10
11.02910712806038
 20
-21.1032331429444
 30
0.0
 10
10.57281978503273
 20
-20.80304167138399
 30
0.0
 10
10.24861457878073
 20
-21.24732434572311
 30
0.0
 10
9.924409372528732
 20
-21.69160702006217
 30
0.0
 10
10.68088818711679
 20
-22.29198556586847
 30
0.0
 10
10.75293378850609
 20
-22.41206303395553
 30
0.0
 10
10.82497938989544
 20
-22.53213610472805
 30
0.0
 10
11.06512992875502
 20
-22.77229104090224
 30
0.0
 10
11.22123019753679
 20
-23.19255558323517
 30
0.0
 10
11.22123019753679
 20
-23.19255558323517
 30
0.0
 10
11.25725299823144
 20
-23.28261258497182
 30
0.0
 10
11.23023589771044
 20
-23.38167528688217
 30
0.0
 10
11.20321879718944
 20
-23.48073798879253
 30
0.0
 10
11.6084753050045
 20
-23.19255558323517
 30
0.0
 10
11.48239550257315
 20
-22.60718507194682
 30
0.0
  0
SPLINE
  5
C5
330
49
100
AcDbEntity
  8
Layer 1
370
     0
100
AcDbSpline
210
0.0
220
0.0
230
1.0
 70
    11
 71
     3
 72
    23
 73
    19
 74
     0
 42
0.0000000001
 43
0.0000000001
 12
1.0
 22
0.0
 32
0.0
 13
1.0
 23
0.0
 33
0.0
 40
0.0
 40
0.0
 40
0.0
 40
0.0
 40
1.0
 40
1.0
 40
1.0
 40
2.0
 40
2.0
 40
2.0
 40
3.0
 40
3.0
 40
3.0
 40
4.0
 40
4.0
 40
4.0
 40
5.0
 40
5.0
 40
5.0
 40
6.0
 40
6.0
 40
6.0
 40
6.0
 10
7.991182803705162
 20
-22.59217703742888
 30
0.0
 10
7.871109732932639
 20
-22.68823637350982
 30
0.0
 10
8.063228405094517
 20
-22.65221357281517
 30
0.0
 10
8.063228405094517
 20
-22.65221357281517
 30
0.0
 10
8.063228405094517
 20
-22.65221357281517
 30
0.0
 10
8.327397075960254
 20
-22.44808583465024
 30
0.0
 10
8.939784687769608
 20
-22.4961133040334
 30
0.0
 10
8.435465478044254
 20
-22.2439536991707
 30
0.0
 10
7.91913720231584
 20
-21.82368915683776
 30
0.0
 10
7.630954796758485
 20
-21.29535621242082
 30
0.0
 10
7.630954796758485
 20
-21.29535621242082
 30
0.0
 10
7.366790523207285
 20
-21.72762982075682
 30
0.0
 10
7.282735855814869
 20
-21.8116800908347
 30
0.0
 10
7.282735855814869
 20
-21.8116800908347
 30
0.0
 10
7.81106880023184
 20
-21.75164355544847
 30
0.0
 10
7.979178135016639
 20
-22.00380316031111
 30
0.0
 10
8.1472830724869
 20
-22.25596276517382
 30
0.0
 10
8.111260271792256
 20
-22.4961133040334
 30
0.0
 10
7.991182803705162
 20
-22.59217703742888
 30
0.0
  0
SPLINE
  5
C6
330
49
100
AcDbEntity
  8
Layer 1
370
     0
100
AcDbSpline
210
0.0
220
0.0
230
1.0
 70
    11
 71
     3
 72
    26
 73
    22
 74
     0
 42
0.0000000001
 43
0.0000000001
 12
1.0
 22
0.0
 32
0.0
 13
1.0
 23
0.0
 33
0.0
 40
0.0
 40
0.0
 40
0.0
 40
0.0
 40
1.0
 40
1.0
 40
1.0
 40
2.0
 40
2.0
 40
2.0
 40
3.0
 40
3.0
 40
3.0
 40
4.0
 40
4.0
 40
4.0
 40
5.0
 40
5.0
 40
5.0
 40
6.0
 40
6.0
 40
6.0
 40
7.0
 40
7.0
 40
7.0
 40
7.0
 10
7.378795191895808
 20
-20.82705980339011
 30
0.0
 10
7.582927327375285
 20
-20.04656285679592
 30
0.0
 10
6.850462247478838
 20
-19.7703895172417
 30
0.0
 10
6.5862935766131
 20
-19.95050352071499
 30
0.0
 10
6.478225174529101
 20
-19.97451725540664
 30
0.0
 10
6.562279841921484
 20
-20.0345581881074
 30
0.0
 10
6.562279841921484
 20
-20.0345581881074
 30
0.0
 10
6.562279841921484
 20
-20.0345581881074
 30
0.0
 10
6.994553450257516
 20
-19.96251258671811
 30
0.0
 10
6.982544384254454
 20
-20.45482273044041
 30
0.0
 10
6.826448512787254
 20
-20.89910540477947
 30
0.0
 10
6.286106502367223
 20
-20.68296860061146
 30
0.0
 10
6.286106502367223
 20
-20.68296860061146
 30
0.0
 10
6.286106502367223
 20
-20.68296860061146
 30
0.0
 10
6.130006233585484
 20
-20.58690486721599
 30
0.0
 10
6.178038100283223
 20
-20.70698233530305
 30
0.0
 10
6.178038100283223
 20
-20.70698233530305
 30
0.0
 10
6.754402911397899
 20
-21.15126500964211
 30
0.0
 10
6.6463345093139
 20
-21.94376662492482
 30
0.0
 10
6.6463345093139
 20
-21.94376662492482
 30
0.0
 10
7.17466745373087
 20
-21.60755235266976
 30
0.0
 10
7.378795191895808
 20
-20.82705980339011
 30
0.0
  0
SPLINE
  5
C7
330
49
100
AcDbEntity
  8
Layer 1
370
     0
100
AcDbSpline
210
0.0
220
0.0
230
1.0
 70
    11
 71
     3
 72
    17
 73
    13
 74
     0
 42
0.0000000001
 43
0.0000000001
 12
1.0
 22
0.0
 32
0.0
 13
1.0
 23
0.0
 33
0.0
 40
0.0
 40
0.0
 40
0.0
 40
0.0
 40
1.0
 40
1.0
 40
1.0
 40
2.0
 40
2.0
 40
2.0
 40
3.0
 40
3.0
 40
3.0
 40
4.0
 40
4.0
 40
4.0
 40
4.0
 10
5.481595821081453
 20
-21.88372569222405
 30
0.0
 10
5.649700758551715
 20
-22.09986249639205
 30
0.0
 10
5.817810093336546
 20
-22.15990342909288
 30
0.0
 10
5.82981476202507
 20
-22.91638224368088
 30
0.0
 10
5.82981476202507
 20
-22.91638224368088
 30
0.0
 10
6.262088370361068
 20
-22.61619077212046
 30
0.0
 10
6.05796063219613
 20
-21.76365262145153
 30
0.0
 10
5.853832894031191
 20
-20.91111007346799
 30
0.0
 10
5.769778226638776
 20
-21.13925594363905
 30
0.0
 10
5.769778226638776
 20
-21.13925594363905
 30
0.0
 10
5.769778226638776
 20
-21.13925594363905
 30
0.0
 10
5.84182382802813
 20
-21.70361168875069
 30
0.0
 10
5.481595821081453
 20
-21.88372569222405
 30
0.0
  0
SPLINE
  5
C8
330
49
100
AcDbEntity
  8
Layer 1
370
     0
100
AcDbSpline
210
0.0
220
0.0
230
1.0
 70
    11
 71
     3
 72
    14
 73
    10
 74
     0
 42
0.0000000001
 43
0.0000000001
 12
1.0
 22
0.0
 32
0.0
 13
1.0
 23
0.0
 33
0.0
 40
0.0
 40
0.0
 40
0.0
 40
0.0
 40
1.0
 40
1.0
 40
1.0
 40
2.0
 40
2.0
 40
2.0
 40
3.0
 40
3.0
 40
3.0
 40
3.0
 10
4.052692859297775
 20
-19.43417524498657
 30
0.0
 10
4.0246819656912
 20
-19.34454478276011
 30
0.0
 10
3.98385729752112
 20
-19.26902090557124
 30
0.0
 10
3.936419068286004
 20
-19.20314033916408
 30
0.0
 10
3.936419068286004
 20
-19.20314033916408
 30
0.0
 10
3.936419068286004
 20
-20.11554352995233
 30
0.0
 10
3.936419068286004
 20
-20.11554352995233
 30
0.0
 10
4.074354030711591
 20
-19.95063983746566
 30
0.0
 10
4.142217785975361
 20
-19.72066028713228
 30
0.0
 10
4.052692859297775
 20
-19.43417524498657
 30
0.0
  0
SPLINE
  5
C9
330
49
100
AcDbEntity
  8
Layer 1
370
     0
100
AcDbSpline
210
0.0
220
0.0
230
1.0
 70
    11
 71
     3
 72
    20
 73
    16
 74
     0
 42
0.0000000001
 43
0.0000000001
 12
1.0
 22
0.0
 32
0.0
 13
1.0
 23
0.0
 33
0.0
 40
0.0
 40
0.0
 40
0.0
 40
0.0
 40
1.0
 40
1.0
 40
1.0
 40
2.0
 40
2.0
 40
2.0
 40
3.0
 40
3.0
 40
3.0
 40
4.0
 40
4.0
 40
4.0
 40
5.0
 40
5.0
 40
5.0
 40
5.0
 10
4.424925534933007
 20
-24.89763628188765
 30
0.0
 10
4.893221943963684
 20
-24.6094538763303
 30
0.0
 10
4.785153541879684
 20
-23.7449066596583
 30
0.0
 10
4.785153541879684
 20
-23.7449066596583
 30
0.0
 10
4.709053616486377
 20
-23.48806391481268
 30
0.0
 10
4.730050793404963
 20
-23.24576748645858
 30
0.0
 10
3.936419068286004
 20
-22.51158305657783
 30
0.0
 10
3.936419068286004
 20
-22.51158305657783
 30
0.0
 10
3.936419068286004
 20
-22.88710052617284
 30
0.0
 10
3.936419068286004
 20
-22.88710052617284
 30
0.0
 10
4.092462171978749
 20
-23.04185961402053
 30
0.0
 10
4.227279438396934
 20
-23.20545730408944
 30
0.0
 10
4.316857132848975
 20
-23.37266958670853
 30
0.0
 10
4.677085139795684
 20
-24.04509373390417
 30
0.0
 10
4.424925534933007
 20
-24.89763628188765
 30
0.0
 10
4.424925534933007
 20
-24.89763628188765
 30
0.0
  0
SPLINE
  5
CA
330
49
100
AcDbEntity
  8
Layer 1
370
     0
100
AcDbSpline
210
0.0
220
0.0
230
1.0
 70
    11
 71
     3
 72
    20
 73
    16
 74
     0
 42
0.0000000001
 43
0.0000000001
 12
1.0
 22
0.0
 32
0.0
 13
1.0
 23
0.0
 33
0.0
 40
0.0
 40
0.0
 40
0.0
 40
0.0
 40
1.0
 40
1.0
 40
1.0
 40
2.0
 40
2.0
 40
2.0
 40
3.0
 40
3.0
 40
3.0
 40
4.0
 40
4.0
 40
4.0
 40
5.0
 40
5.0
 40
5.0
 40
5.0
 10
4.100720328680976
 20
-20.68296860061146
 30
0.0
 10
4.100720328680976
 20
-20.68296860061146
 30
0.0
 10
4.653071405104067
 20
-20.31073152766169
 30
0.0
 10
5.301481817608099
 20
-20.64694579991682
 30
0.0
 10
5.241445282221838
 20
-20.31073152766169
 30
0.0
 10
4.581025803714745
 20
-20.07058098880211
 30
0.0
 10
4.340875264855129
 20
-19.6623211151577
 30
0.0
 10
4.340875264855129
 20
-19.6623211151577
 30
0.0
 10
4.339731963075264
 20
-20.29165157988168
 30
0.0
 10
3.936419068286004
 20
-20.47731499430186
 30
0.0
 10
3.936419068286004
 20
-20.47731499430186
 30
0.0
 10
3.936419068286004
 20
-20.52981453257012
 30
0.0
 10
3.936419068286004
 20
-20.52981453257012
 30
0.0
 10
3.969658368878163
 20
-20.57356781222247
 30
0.0
 10
4.029716890837114
 20
-20.64352029189176
 30
0.0
 10
4.100720328680976
 20
-20.68296860061146
 30
0.0
  0
SPLINE
  5
CB
330
49
100
AcDbEntity
  8
Layer 1
370
     0
100
AcDbSpline
210
0.0
220
0.0
230
1.0
 70
    11
 71
     3
 72
    32
 73
    28
 74
     0
 42
0.0000000001
 43
0.0000000001
 12
1.0
 22
0.0
 32
0.0
 13
1.0
 23
0.0
 33
0.0
 40
0.0
 40
0.0
 40
0.0
 40
0.0
 40
1.0
 40
1.0
 40
1.0
 40
2.0
 40
2.0
 40
2.0
 40
3.0
 40
3.0
 40
3.0
 40
4.0
 40
4.0
 40
4.0
 40
5.0
 40
5.0
 40
5.0
 40
6.0
 40
6.0
 40
6.0
 40
7.0
 40
7.0
 40
7.0
 40
8.0
 40
8.0
 40
8.0
 40
9.0
 40
9.0
 40
9.0
 40
9.0
 10
5.322496583784837
 20
-23.38167528688217
 30
0.0
 10
5.295479483263837
 20
-23.48073798879253
 30
0.0
 10
5.700735991078869
 20
-23.19255558323517
 30
0.0
 10
5.574656188647515
 20
-22.60718507194682
 30
0.0
 10
5.448576386216192
 20
-22.14789436308982
 30
0.0
 10
5.325495552299715
 20
-22.09986249639205
 30
0.0
 10
5.325495552299715
 20
-22.09986249639205
 30
0.0
 10
5.325495552299715
 20
-22.09986249639205
 30
0.0
 10
4.545003003020068
 20
-22.20793089847605
 30
0.0
 10
4.557012069023129
 20
-21.55952048597205
 30
0.0
 10
4.557012069023129
 20
-21.55952048597205
 30
0.0
 10
4.557012069023129
 20
-21.01917847555199
 30
0.0
 10
5.073335947437006
 20
-21.18728781033682
 30
0.0
 10
5.20542248152716
 20
-21.23531527971999
 30
0.0
 10
5.121367814134777
 20
-21.1032331429444
 30
0.0
 10
5.121367814134777
 20
-21.1032331429444
 30
0.0
 10
5.121367814134777
 20
-21.1032331429444
 30
0.0
 10
4.665080471107129
 20
-20.80304167138399
 30
0.0
 10
4.340875264855129
 20
-21.24732434572311
 30
0.0
 10
4.016670058603098
 20
-21.69160702006217
 30
0.0
 10
4.773148873191129
 20
-22.29198556586847
 30
0.0
 10
4.845194474580484
 20
-22.41206303395553
 30
0.0
 10
4.917240075969806
 20
-22.53213610472805
 30
0.0
 10
5.157390614829422
 20
-22.77229104090224
 30
0.0
 10
5.31349088361116
 20
-23.19255558323517
 30
0.0
 10
5.31349088361116
 20
-23.19255558323517
 30
0.0
 10
5.349513684305837
 20
-23.28261258497182
 30
0.0
 10
5.322496583784837
 20
-23.38167528688217
 30
0.0
  0
SPLINE
  5
CC
330
49
100
AcDbEntity
  8
Layer 1
370
     0
100
AcDbSpline
210
0.0
220
0.0
230
1.0
 70
    11
 71
     3
 72
    26
 73
    22
 74
     0
 42
0.0000000001
 43
0.0000000001
 12
1.0
 22
0.0
 32
0.0
 13
1.0
 23
0.0
 33
0.0
 40
0.0
 40
0.0
 40
0.0
 40
0.0
 40
1.0
 40
1.0
 40
1.0
 40
2.0
 40
2.0
 40
2.0
 40
3.0
 40
3.0
 40
3.0
 40
4.0
 40
4.0
 40
4.0
 40
5.0
 40
5.0
 40
5.0
 40
6.0
 40
6.0
 40
6.0
 40
7.0
 40
7.0
 40
7.0
 40
7.0
 10
11.59346287317203
 20
-7.354532343584133
 30
0.0
 10
11.12516646414132
 20
-7.618696617135333
 30
0.0
 10
11.35331233431238
 20
-8.507261965813518
 30
0.0
 10
11.35331233431238
 20
-8.507261965813518
 30
0.0
 10
11.35331233431238
 20
-8.507261965813518
 30
0.0
 10
11.67751754056444
 20
-8.171047693558426
 30
0.0
 10
11.67751754056444
 20
-8.171047693558426
 30
0.0
 10
11.67751754056444
 20
-8.171047693558426
 30
0.0
 10
11.55744007247732
 20
-7.834833421303365
 30
0.0
 10
11.95369088011867
 20
-7.606691948446811
 30
0.0
 10
12.80623342810221
 20
-7.270477676191717
 30
0.0
 10
12.84225622879686
 20
-8.074988357477487
 30
0.0
 10
12.84225622879686
 20
-8.074988357477487
 30
0.0
 10
12.84225622879686
 20
-8.074988357477487
 30
0.0
 10
12.90229276418315
 20
-8.092999757824842
 30
0.0
 10
12.99835210026409
 20
-7.942901823387365
 30
0.0
 10
13.13043863435421
 20
-7.654719417830011
 30
0.0
 10
12.85426089748538
 20
-7.378546078275718
 30
0.0
 10
12.85426089748538
 20
-7.378546078275718
 30
0.0
 10
12.3979735544578
 20
-7.00630900532598
 30
0.0
 10
12.06175928220267
 20
-7.090363672718395
 30
0.0
 10
11.59346287317203
 20
-7.354532343584133
 30
0.0
  0
SPLINE
  5
CD
330
49
100
AcDbEntity
  8
Layer 1
370
     0
100
AcDbSpline
210
0.0
220
0.0
230
1.0
 70
    11
 71
     3
 72
    20
 73
    16
 74
     0
 42
0.0000000001
 43
0.0000000001
 12
1.0
 22
0.0
 32
0.0
 13
1.0
 23
0.0
 33
0.0
 40
0.0
 40
0.0
 40
0.0
 40
0.0
 40
1.0
 40
1.0
 40
1.0
 40
2.0
 40
2.0
 40
2.0
 40
3.0
 40
3.0
 40
3.0
 40
4.0
 40
4.0
 40
4.0
 40
5.0
 40
5.0
 40
5.0
 40
5.0
 10
11.71954267560332
 20
-8.321141230681365
 30
0.0
 10
11.71954267560332
 20
-8.321141230681365
 30
0.0
 10
11.69552894091173
 20
-8.315138896337103
 30
0.0
 10
11.69552894091173
 20
-8.315138896337103
 30
0.0
 10
11.69552894091173
 20
-8.315138896337103
 30
0.0
 10
11.47939213674373
 20
-8.633341768244874
 30
0.0
 10
11.47939213674373
 20
-8.657355502936458
 30
0.0
 10
11.47939213674373
 20
-8.681369237628074
 30
0.0
 10
11.69552894091173
 20
-9.347791050479428
 30
0.0
 10
11.89365434473244
 20
-9.521902719608487
 30
0.0
 10
11.77958360830415
 20
-9.179686113009165
 30
0.0
 10
12.03774554751109
 20
-8.909515107799134
 30
0.0
 10
12.30791655272109
 20
-8.855480906757133
 30
0.0
 10
11.98371134646909
 20
-8.759421570676196
 30
0.0
 10
11.71954267560332
 20
-8.321141230681365
 30
0.0
 10
11.71954267560332
 20
-8.321141230681365
 30
0.0
  0
SPLINE
  5
CE
330
49
100
AcDbEntity
  8
Layer 1
370
     0
100
AcDbSpline
210
0.0
220
0.0
230
1.0
 70
    11
 71
     3
 72
    17
 73
    13
 74
     0
 42
0.0000000001
 43
0.0000000001
 12
1.0
 22
0.0
 32
0.0
 13
1.0
 23
0.0
 33
0.0
 40
0.0
 40
0.0
 40
0.0
 40
0.0
 40
1.0
 40
1.0
 40
1.0
 40
2.0
 40
2.0
 40
2.0
 40
3.0
 40
3.0
 40
3.0
 40
4.0
 40
4.0
 40
4.0
 40
4.0
 10
13.34657543852221
 20
-6.778167532469425
 30
0.0
 10
13.34657543852221
 20
-6.778167532469425
 30
0.0
 10
13.69479437946586
 20
-7.102372738721456
 30
0.0
 10
13.71880811415744
 20
-7.49862354636281
 30
0.0
 10
13.71880811415744
 20
-7.49862354636281
 30
0.0
 10
14.39123665866763
 20
-7.078354606715302
 30
0.0
 10
14.16309078849657
 20
-6.441953260214364
 30
0.0
 10
14.16309078849657
 20
-6.441953260214364
 30
0.0
 10
14.09104518710721
 20
-6.105738987959271
 30
0.0
 10
13.6227487780765
 20
-6.021688717881394
 30
0.0
 10
13.6227487780765
 20
-6.021688717881394
 30
0.0
 10
14.06703145241563
 20
-6.63407632969078
 30
0.0
 10
13.34657543852221
 20
-6.778167532469425
 30
0.0
  0
SPLINE
  5
CF
330
49
100
AcDbEntity
  8
Layer 1
370
     0
100
AcDbSpline
210
0.0
220
0.0
230
1.0
 70
    11
 71
     3
 72
    20
 73
    16
 74
     0
 42
0.0000000001
 43
0.0000000001
 12
1.0
 22
0.0
 32
0.0
 13
1.0
 23
0.0
 33
0.0
 40
0.0
 40
0.0
 40
0.0
 40
0.0
 40
1.0
 40
1.0
 40
1.0
 40
2.0
 40
2.0
 40
2.0
 40
3.0
 40
3.0
 40
3.0
 40
4.0
 40
4.0
 40
4.0
 40
5.0
 40
5.0
 40
5.0
 40
5.0
 10
13.4066119739085
 20
-9.071617710925134
 30
0.0
 10
13.5146803759925
 20
-9.203699847700749
 30
0.0
 10
13.20248423574357
 20
-8.435216364424196
 30
0.0
 10
14.40324132735615
 20
-7.894874354004164
 30
0.0
 10
15.00362427047698
 20
-7.354532343584133
 30
0.0
 10
14.59487189760432
 20
-6.769434465797132
 30
0.0
 10
14.57135066214098
 20
-6.874226868550363
 30
0.0
 10
14.4392641280508
 20
-7.462600745668133
 30
0.0
 10
13.75483091485209
 20
-7.690742218524688
 30
0.0
 10
13.75483091485209
 20
-7.690742218524688
 30
0.0
 10
13.75483091485209
 20
-7.690742218524688
 30
0.0
 10
13.74282624616357
 20
-8.543284766508195
 30
0.0
 10
12.91430183018621
 20
-8.783435305367812
 30
0.0
 10
12.91430183018621
 20
-8.783435305367812
 30
0.0
 10
13.2985435718245
 20
-8.93953557414955
 30
0.0
 10
13.4066119739085
 20
-9.071617710925134
 30
0.0
  0
SPLINE
  5
D0
330
49
100
AcDbEntity
  8
Layer 1
370
     0
100
AcDbSpline
210
0.0
220
0.0
230
1.0
 70
    11
 71
     3
 72
    17
 73
    13
 74
     0
 42
0.0000000001
 43
0.0000000001
 12
1.0
 22
0.0
 32
0.0
 13
1.0
 23
0.0
 33
0.0
 40
0.0
 40
0.0
 40
0.0
 40
0.0
 40
1.0
 40
1.0
 40
1.0
 40
2.0
 40
2.0
 40
2.0
 40
3.0
 40
3.0
 40
3.0
 40
4.0
 40
4.0
 40
4.0
 40
4.0
 10
15.66403935166957
 20
-7.990933690085103
 30
0.0
 10
15.66403935166957
 20
-7.990933690085103
 30
0.0
 10
15.62801655097486
 20
-7.894874354004164
 30
0.0
 10
15.60400281628327
 20
-7.774796885917072
 30
0.0
 10
15.60400281628327
 20
-7.774796885917072
 30
0.0
 10
15.07566987186634
 20
-7.49862354636281
 30
0.0
 10
14.94358333777615
 20
-7.294491410883333
 30
0.0
 10
14.94358333777615
 20
-7.294491410883333
 30
0.0
 10
14.99161520447392
 20
-7.618696617135333
 30
0.0
 10
14.88354680238992
 20
-7.762787819914011
 30
0.0
 10
14.88354680238992
 20
-7.762787819914011
 30
0.0
 10
15.4479025475015
 20
-7.798810620608688
 30
0.0
 10
15.66403935166957
 20
-7.990933690085103
 30
0.0
  0
SPLINE
  5
D1
330
49
100
AcDbEntity
  8
Layer 1
370
     0
100
AcDbSpline
210
0.0
220
0.0
230
1.0
 70
    11
 71
     3
 72
    26
 73
    22
 74
     0
 42
0.0000000001
 43
0.0000000001
 12
1.0
 22
0.0
 32
0.0
 13
1.0
 23
0.0
 33
0.0
 40
0.0
 40
0.0
 40
0.0
 40
0.0
 40
1.0
 40
1.0
 40
1.0
 40
2.0
 40
2.0
 40
2.0
 40
3.0
 40
3.0
 40
3.0
 40
4.0
 40
4.0
 40
4.0
 40
5.0
 40
5.0
 40
5.0
 40
6.0
 40
6.0
 40
6.0
 40
7.0
 40
7.0
 40
7.0
 40
7.0
 10
14.99161520447392
 20
-8.074988357477487
 30
0.0
 10
14.99161520447392
 20
-8.074988357477487
 30
0.0
 10
14.27115919058057
 20
-7.942901823387365
 30
0.0
 10
13.95896305033156
 20
-8.639344102589135
 30
0.0
 10
13.95896305033156
 20
-8.639344102589135
 30
0.0
 10
14.76346933430286
 20
-8.014947424776688
 30
0.0
 10
15.42388881280992
 20
-8.699380637975397
 30
0.0
 10
15.72408028437033
 20
-9.323777315787844
 30
0.0
 10
14.99161520447392
 20
-9.52790505395278
 30
0.0
 10
14.99161520447392
 20
-9.52790505395278
 30
0.0
 10
14.99161520447392
 20
-9.52790505395278
 30
0.0
 10
14.88354680238992
 20
-9.599950655342104
 30
0.0
 10
14.72744653360815
 20
-9.467868518566489
 30
0.0
 10
14.72744653360815
 20
-9.467868518566489
 30
0.0
 10
14.79949213499751
 20
-9.720028123429197
 30
0.0
 10
15.18373827395034
 20
-9.671996256731427
 30
0.0
 10
15.56798001558863
 20
-9.623968787348257
 30
0.0
 10
16.02426735861621
 20
-9.275745449090072
 30
0.0
 10
15.84415335514286
 20
-8.699380637975397
 30
0.0
 10
15.66403935166957
 20
-8.123015826860687
 30
0.0
 10
14.99161520447392
 20
-8.074988357477487
 30
0.0
 10
14.99161520447392
 20
-8.074988357477487
 30
0.0
  0
SPLINE
  5
D2
330
49
100
AcDbEntity
  8
Layer 1
370
     0
100
AcDbSpline
210
0.0
220
0.0
230
1.0
 70
    11
 71
     3
 72
    17
 73
    13
 74
     0
 42
0.0000000001
 43
0.0000000001
 12
1.0
 22
0.0
 32
0.0
 13
1.0
 23
0.0
 33
0.0
 40
0.0
 40
0.0
 40
0.0
 40
0.0
 40
1.0
 40
1.0
 40
1.0
 40
2.0
 40
2.0
 40
2.0
 40
3.0
 40
3.0
 40
3.0
 40
4.0
 40
4.0
 40
4.0
 40
4.0
 10
15.18373827395034
 20
-9.023585844227428
 30
0.0
 10
15.18373827395034
 20
-8.85779829151863
 30
0.0
 10
15.04933875241326
 20
-8.72339876998155
 30
0.0
 10
14.88354680238992
 20
-8.72339876998155
 30
0.0
 10
14.71775485236659
 20
-8.72339876998155
 30
0.0
 10
14.58335533082951
 20
-8.85779829151863
 30
0.0
 10
14.58335533082951
 20
-9.023585844227428
 30
0.0
 10
14.58335533082951
 20
-9.18937779425073
 30
0.0
 10
14.71775485236659
 20
-9.323777315787844
 30
0.0
 10
14.88354680238992
 20
-9.323777315787844
 30
0.0
 10
15.04933875241326
 20
-9.323777315787844
 30
0.0
 10
15.18373827395034
 20
-9.18937779425073
 30
0.0
 10
15.18373827395034
 20
-9.023585844227428
 30
0.0
  0
SPLINE
  5
D3
330
49
100
AcDbEntity
  8
Layer 1
370
     0
100
AcDbSpline
210
0.0
220
0.0
230
1.0
 70
    11
 71
     3
 72
    17
 73
    13
 74
     0
 42
0.0000000001
 43
0.0000000001
 12
1.0
 22
0.0
 32
0.0
 13
1.0
 23
0.0
 33
0.0
 40
0.0
 40
0.0
 40
0.0
 40
0.0
 40
1.0
 40
1.0
 40
1.0
 40
2.0
 40
2.0
 40
2.0
 40
3.0
 40
3.0
 40
3.0
 40
4.0
 40
4.0
 40
4.0
 40
4.0
 10
14.31919105727827
 20
-9.431845717871843
 30
0.0
 10
14.3311957259668
 20
-10.47650693801723
 30
0.0
 10
15.47192067950769
 20
-11.172949217219
 30
0.0
 10
15.47192067950769
 20
-11.172949217219
 30
0.0
 10
15.32782947672898
 20
-10.52453880471497
 30
0.0
 10
15.62801655097486
 20
-10.12828799707361
 30
0.0
 10
15.62801655097486
 20
-10.12828799707361
 30
0.0
 10
15.55597094958557
 20
-10.12828799707361
 30
0.0
 10
15.36385227742369
 20
-9.936164927597197
 30
0.0
 10
15.36385227742369
 20
-9.936164927597197
 30
0.0
 10
14.60737346283563
 20
-10.10426986506746
 30
0.0
 10
14.31919105727827
 20
-9.431845717871843
 30
0.0
 10
14.31919105727827
 20
-9.431845717871843
 30
0.0
  0
SPLINE
  5
D4
330
49
100
AcDbEntity
  8
Layer 1
370
     0
100
AcDbSpline
210
0.0
220
0.0
230
1.0
 70
    11
 71
     3
 72
    23
 73
    19
 74
     0
 42
0.0000000001
 43
0.0000000001
 12
1.0
 22
0.0
 32
0.0
 13
1.0
 23
0.0
 33
0.0
 40
0.0
 40
0.0
 40
0.0
 40
0.0
 40
1.0
 40
1.0
 40
1.0
 40
2.0
 40
2.0
 40
2.0
 40
3.0
 40
3.0
 40
3.0
 40
4.0
 40
4.0
 40
4.0
 40
5.0
 40
5.0
 40
5.0
 40
6.0
 40
6.0
 40
6.0
 40
6.0
 10
14.37922759266457
 20
-8.699380637975397
 30
0.0
 10
12.7221787607098
 20
-9.167677047006073
 30
0.0
 10
14.01899958571786
 20
-10.8367349449639
 30
0.0
 10
14.39123665866763
 20
-11.13692641652432
 30
0.0
 10
14.65692240304892
 20
-11.35118996469916
 30
0.0
 10
15.74809401906198
 20
-11.96545083250171
 30
0.0
 10
16.10832642332317
 20
-12.63787497969732
 30
0.0
 10
16.46855443026988
 20
-13.31029912689297
 30
0.0
 10
16.21639482540716
 20
-14.16284167487647
 30
0.0
 10
16.21639482540716
 20
-14.16284167487647
 30
0.0
 10
16.68469123443787
 20
-13.87465926931912
 30
0.0
 10
16.57662283235387
 20
-13.01011205264709
 30
0.0
 10
16.57662283235387
 20
-13.01011205264709
 30
0.0
 10
16.4805590989584
 20
-12.68590684639506
 30
0.0
 10
16.54060003165916
 20
-12.38571537483464
 30
0.0
 10
14.91956960308457
 20
-11.08889454982658
 30
0.0
 10
13.33456637251915
 20
-9.876128392210935
 30
0.0
 10
14.37922759266457
 20
-8.699380637975397
 30
0.0
 10
14.37922759266457
 20
-8.699380637975397
 30
0.0
  0
SPLINE
  5
D5
330
49
100
AcDbEntity
  8
Layer 1
370
     0
100
AcDbSpline
210
0.0
220
0.0
230
1.0
 70
    11
 71
     3
 72
    20
 73
    16
 74
     0
 42
0.0000000001
 43
0.0000000001
 12
1.0
 22
0.0
 32
0.0
 13
1.0
 23
0.0
 33
0.0
 40
0.0
 40
0.0
 40
0.0
 40
0.0
 40
1.0
 40
1.0
 40
1.0
 40
2.0
 40
2.0
 40
2.0
 40
3.0
 40
3.0
 40
3.0
 40
4.0
 40
4.0
 40
4.0
 40
5.0
 40
5.0
 40
5.0
 40
5.0
 10
16.13233576070021
 20
-8.927526508146489
 30
0.0
 10
16.13233576070021
 20
-8.927526508146489
 30
0.0
 10
16.13233576070021
 20
-9.587945986653581
 30
0.0
 10
15.70006215236421
 20
-9.756050924123842
 30
0.0
 10
15.70006215236421
 20
-9.756050924123842
 30
0.0
 10
15.78411681975663
 20
-9.888133060899458
 30
0.0
 10
15.89218522184063
 20
-9.948173993600257
 30
0.0
 10
15.89218522184063
 20
-9.948173993600257
 30
0.0
 10
16.44236402488201
 20
-9.577537543142299
 30
0.0
 10
17.08910345786159
 20
-9.910277936912449
 30
0.0
 10
17.08910345786159
 20
-9.910277936912449
 30
0.0
 10
17.08910345786159
 20
-9.898950454662737
 30
0.0
 10
17.08910345786159
 20
-9.898950454662737
 30
0.0
 10
17.01426995905524
 20
-9.569688336692133
 30
0.0
 10
16.36929824651985
 20
-9.330351301022006
 30
0.0
 10
16.13233576070021
 20
-8.927526508146489
 30
0.0
  0
SPLINE
  5
D6
330
49
100
AcDbEntity
  8
Layer 1
370
     0
100
AcDbSpline
210
0.0
220
0.0
230
1.0
 70
    11
 71
     3
 72
    26
 73
    22
 74
     0
 42
0.0000000001
 43
0.0000000001
 12
1.0
 22
0.0
 32
0.0
 13
1.0
 23
0.0
 33
0.0
 40
0.0
 40
0.0
 40
0.0
 40
0.0
 40
1.0
 40
1.0
 40
1.0
 40
2.0
 40
2.0
 40
2.0
 40
3.0
 40
3.0
 40
3.0
 40
4.0
 40
4.0
 40
4.0
 40
5.0
 40
5.0
 40
5.0
 40
6.0
 40
6.0
 40
6.0
 40
7.0
 40
7.0
 40
7.0
 40
7.0
 10
16.34847256486828
 20
-10.82472587896084
 30
0.0
 10
16.34847256486828
 20
-10.82472587896084
 30
0.0
 10
16.34847256486828
 20
-10.28438386854081
 30
0.0
 10
16.86480523791123
 20
-10.45249320332561
 30
0.0
 10
16.99688297737228
 20
-10.50052067270881
 30
0.0
 10
16.9128327072944
 20
-10.3684385359332
 30
0.0
 10
16.9128327072944
 20
-10.3684385359332
 30
0.0
 10
16.9128327072944
 20
-10.3684385359332
 30
0.0
 10
16.45654096695228
 20
-10.06824706437278
 30
0.0
 10
16.13233576070021
 20
-10.51252973871187
 30
0.0
 10
15.80813055444821
 20
-10.95681241305097
 30
0.0
 10
16.56460936903628
 20
-11.55719095885726
 30
0.0
 10
16.63665497042557
 20
-11.67726842694435
 30
0.0
 10
16.70633481659351
 20
-11.79340150389091
 30
0.0
 10
16.9330515595398
 20
-12.02238726113872
 30
0.0
 10
17.08910345786159
 20
-12.41749916431474
 30
0.0
 10
17.08910345786159
 20
-12.41749916431474
 30
0.0
 10
17.08910345786159
 20
-11.36795252771773
 30
0.0
 10
17.08910345786159
 20
-11.36795252771773
 30
0.0
 10
16.95085188878927
 20
-11.37982087965558
 30
0.0
 10
16.3378134744283
 20
-11.40013647282079
 30
0.0
 10
16.34847256486828
 20
-10.82472587896084
 30
0.0
  0
SPLINE
  5
D7
330
49
100
AcDbEntity
  8
Layer 1
370
     0
100
AcDbSpline
210
0.0
220
0.0
230
1.0
 70
    11
 71
     3
 72
    23
 73
    19
 74
     0
 42
0.0000000001
 43
0.0000000001
 12
1.0
 22
0.0
 32
0.0
 13
1.0
 23
0.0
 33
0.0
 40
0.0
 40
0.0
 40
0.0
 40
0.0
 40
1.0
 40
1.0
 40
1.0
 40
2.0
 40
2.0
 40
2.0
 40
3.0
 40
3.0
 40
3.0
 40
4.0
 40
4.0
 40
4.0
 40
5.0
 40
5.0
 40
5.0
 40
6.0
 40
6.0
 40
6.0
 40
6.0
 10
13.5146803759925
 20
-10.56056160540961
 30
0.0
 10
13.5146803759925
 20
-10.56056160540961
 30
0.0
 10
13.25051170512673
 20
-10.99283521374564
 30
0.0
 10
13.16646143504892
 20
-11.07688548382352
 30
0.0
 10
13.16646143504892
 20
-11.07688548382352
 30
0.0
 10
13.69479437946586
 20
-11.01684894843726
 30
0.0
 10
13.86289931693615
 20
-11.26900855329994
 30
0.0
 10
14.03100865172092
 20
-11.52116815816261
 30
0.0
 10
13.99498585102627
 20
-11.7613186970222
 30
0.0
 10
13.87490838293921
 20
-11.85738243041767
 30
0.0
 10
13.75483091485209
 20
-11.95344176649861
 30
0.0
 10
13.9469539843285
 20
-11.91741896580397
 30
0.0
 10
13.9469539843285
 20
-11.91741896580397
 30
0.0
 10
13.9469539843285
 20
-11.91741896580397
 30
0.0
 10
14.21112265519427
 20
-11.71329122763903
 30
0.0
 10
14.82351026700363
 20
-11.7613186970222
 30
0.0
 10
14.31919105727827
 20
-11.50915909215952
 30
0.0
 10
13.80286278154986
 20
-11.08889454982658
 30
0.0
 10
13.5146803759925
 20
-10.56056160540961
 30
0.0
  0
SPLINE
  5
D8
330
49
100
AcDbEntity
  8
Layer 1
370
     0
100
AcDbSpline
210
0.0
220
0.0
230
1.0
 70
    11
 71
     3
 72
    26
 73
    22
 74
     0
 42
0.0000000001
 43
0.0000000001
 12
1.0
 22
0.0
 32
0.0
 13
1.0
 23
0.0
 33
0.0
 40
0.0
 40
0.0
 40
0.0
 40
0.0
 40
1.0
 40
1.0
 40
1.0
 40
2.0
 40
2.0
 40
2.0
 40
3.0
 40
3.0
 40
3.0
 40
4.0
 40
4.0
 40
4.0
 40
5.0
 40
5.0
 40
5.0
 40
6.0
 40
6.0
 40
6.0
 40
7.0
 40
7.0
 40
7.0
 40
7.0
 10
12.16982768428674
 20
-9.948173993600257
 30
0.0
 10
12.16982768428674
 20
-9.948173993600257
 30
0.0
 10
12.0137318128195
 20
-9.85211026020478
 30
0.0
 10
12.06175928220267
 20
-9.972187728291841
 30
0.0
 10
12.06175928220267
 20
-9.972187728291841
 30
0.0
 10
12.63812409331738
 20
-10.41647040263097
 30
0.0
 10
12.53005569123338
 20
-11.20897201791364
 30
0.0
 10
12.53005569123338
 20
-11.20897201791364
 30
0.0
 10
13.05839303296486
 20
-10.87275774565858
 30
0.0
 10
13.26252077112986
 20
-10.09226519637894
 30
0.0
 10
13.4666485092948
 20
-9.31176824978475
 30
0.0
 10
12.73418782671286
 20
-9.035594910230488
 30
0.0
 10
12.47001915584715
 20
-9.21570891370381
 30
0.0
 10
12.36195075376309
 20
-9.239722648395427
 30
0.0
 10
12.4460054211555
 20
-9.299763581096226
 30
0.0
 10
12.4460054211555
 20
-9.299763581096226
 30
0.0
 10
12.4460054211555
 20
-9.299763581096226
 30
0.0
 10
12.87827902949157
 20
-9.227717979706904
 30
0.0
 10
12.86626996348844
 20
-9.720028123429197
 30
0.0
 10
12.71016969470673
 20
-10.16431079776826
 30
0.0
 10
12.16982768428674
 20
-9.948173993600257
 30
0.0
 10
12.16982768428674
 20
-9.948173993600257
 30
0.0
  0
SPLINE
  5
D9
330
49
100
AcDbEntity
  8
Layer 1
370
     0
100
AcDbSpline
210
0.0
220
0.0
230
1.0
 70
    11
 71
     3
 72
    17
 73
    13
 74
     0
 42
0.0000000001
 43
0.0000000001
 12
1.0
 22
0.0
 32
0.0
 13
1.0
 23
0.0
 33
0.0
 40
0.0
 40
0.0
 40
0.0
 40
0.0
 40
1.0
 40
1.0
 40
1.0
 40
2.0
 40
2.0
 40
2.0
 40
3.0
 40
3.0
 40
3.0
 40
4.0
 40
4.0
 40
4.0
 40
4.0
 10
11.71354034125909
 20
-12.18158763666971
 30
0.0
 10
11.71354034125909
 20
-12.18158763666971
 30
0.0
 10
12.14581394959509
 20
-11.88139616510929
 30
0.0
 10
11.94168621143015
 20
-11.02885801444032
 30
0.0
 10
11.73755407595067
 20
-10.17631546645681
 30
0.0
 10
11.65350380587279
 20
-10.40446133662787
 30
0.0
 10
11.65350380587279
 20
-10.40446133662787
 30
0.0
 10
11.65350380587279
 20
-10.40446133662787
 30
0.0
 10
11.72554940726215
 20
-10.96881708173949
 30
0.0
 10
11.36532140031544
 20
-11.14893108521284
 30
0.0
 10
11.53342633778573
 20
-11.36506788938084
 30
0.0
 10
11.70153127525603
 20
-11.42510882208167
 30
0.0
 10
11.71354034125909
 20
-12.18158763666971
 30
0.0
  0
SPLINE
  5
DA
330
49
100
AcDbEntity
  8
Layer 1
370
     0
100
AcDbSpline
210
0.0
220
0.0
230
1.0
 70
    11
 71
     3
 72
    26
 73
    22
 74
     0
 42
0.0000000001
 43
0.0000000001
 12
1.0
 22
0.0
 32
0.0
 13
1.0
 23
0.0
 33
0.0
 40
0.0
 40
0.0
 40
0.0
 40
0.0
 40
1.0
 40
1.0
 40
1.0
 40
2.0
 40
2.0
 40
2.0
 40
3.0
 40
3.0
 40
3.0
 40
4.0
 40
4.0
 40
4.0
 40
5.0
 40
5.0
 40
5.0
 40
6.0
 40
6.0
 40
6.0
 40
7.0
 40
7.0
 40
7.0
 40
7.0
 10
5.709741691252514
 20
-7.354532343584133
 30
0.0
 10
5.241445282221838
 20
-7.618696617135333
 30
0.0
 10
5.46958675507836
 20
-8.507261965813518
 30
0.0
 10
5.46958675507836
 20
-8.507261965813518
 30
0.0
 10
5.46958675507836
 20
-8.507261965813518
 30
0.0
 10
5.793791961330392
 20
-8.171047693558426
 30
0.0
 10
5.793791961330392
 20
-8.171047693558426
 30
0.0
 10
5.793791961330392
 20
-8.171047693558426
 30
0.0
 10
5.673718890557869
 20
-7.834833421303365
 30
0.0
 10
6.069969698199223
 20
-7.606691948446811
 30
0.0
 10
6.922507848868193
 20
-7.270477676191717
 30
0.0
 10
6.958530649562838
 20
-8.074988357477487
 30
0.0
 10
6.958530649562838
 20
-8.074988357477487
 30
0.0
 10
6.958530649562838
 20
-8.074988357477487
 30
0.0
 10
7.018567184949132
 20
-8.092999757824842
 30
0.0
 10
7.114630918344608
 20
-7.942901823387365
 30
0.0
 10
7.246713055120193
 20
-7.654719417830011
 30
0.0
 10
6.970539715565931
 20
-7.378546078275718
 30
0.0
 10
6.970539715565931
 20
-7.378546078275718
 30
0.0
 10
6.514247975223745
 20
-7.00630900532598
 30
0.0
 10
6.178038100283223
 20
-7.090363672718395
 30
0.0
 10
5.709741691252514
 20
-7.354532343584133
 30
0.0
  0
SPLINE
  5
DB
330
49
100
AcDbEntity
  8
Layer 1
370
     0
100
AcDbSpline
210
0.0
220
0.0
230
1.0
 70
    11
 71
     3
 72
    20
 73
    16
 74
     0
 42
0.0000000001
 43
0.0000000001
 12
1.0
 22
0.0
 32
0.0
 13
1.0
 23
0.0
 33
0.0
 40
0.0
 40
0.0
 40
0.0
 40
0.0
 40
1.0
 40
1.0
 40
1.0
 40
2.0
 40
2.0
 40
2.0
 40
3.0
 40
3.0
 40
3.0
 40
4.0
 40
4.0
 40
4.0
 40
5.0
 40
5.0
 40
5.0
 40
5.0
 10
6.4241909734871
 20
-8.855480906757133
 30
0.0
 10
6.099985767235069
 20
-8.759421570676196
 30
0.0
 10
5.835821493683869
 20
-8.321141230681365
 30
0.0
 10
5.835821493683869
 20
-8.321141230681365
 30
0.0
 10
5.835821493683869
 20
-8.321141230681365
 30
0.0
 10
5.811803361677715
 20
-8.315138896337103
 30
0.0
 10
5.811803361677715
 20
-8.315138896337103
 30
0.0
 10
5.811803361677715
 20
-8.315138896337103
 30
0.0
 10
5.595666557509714
 20
-8.633341768244874
 30
0.0
 10
5.595666557509714
 20
-8.657355502936458
 30
0.0
 10
5.595666557509714
 20
-8.681369237628074
 30
0.0
 10
5.811803361677715
 20
-9.347791050479428
 30
0.0
 10
6.009928765498391
 20
-9.521902719608487
 30
0.0
 10
5.89585802907013
 20
-9.179686113009165
 30
0.0
 10
6.154019968277068
 20
-8.909515107799134
 30
0.0
 10
6.4241909734871
 20
-8.855480906757133
 30
0.0
  0
SPLINE
  5
DC
330
49
100
AcDbEntity
  8
Layer 1
370
     0
100
AcDbSpline
210
0.0
220
0.0
230
1.0
 70
    11
 71
     3
 72
    17
 73
    13
 74
     0
 42
0.0000000001
 43
0.0000000001
 12
1.0
 22
0.0
 32
0.0
 13
1.0
 23
0.0
 33
0.0
 40
0.0
 40
0.0
 40
0.0
 40
0.0
 40
1.0
 40
1.0
 40
1.0
 40
2.0
 40
2.0
 40
2.0
 40
3.0
 40
3.0
 40
3.0
 40
4.0
 40
4.0
 40
4.0
 40
4.0
 10
7.462849859288192
 20
-6.778167532469425
 30
0.0
 10
7.462849859288192
 20
-6.778167532469425
 30
0.0
 10
7.81106880023184
 20
-7.102372738721456
 30
0.0
 10
7.835086932237962
 20
-7.49862354636281
 30
0.0
 10
7.835086932237962
 20
-7.49862354636281
 30
0.0
 10
8.507511079433609
 20
-7.078354606715302
 30
0.0
 10
8.279365209262517
 20
-6.441953260214364
 30
0.0
 10
8.279365209262517
 20
-6.441953260214364
 30
0.0
 10
8.207319607873194
 20
-6.105738987959271
 30
0.0
 10
7.739023198842485
 20
-6.021688717881394
 30
0.0
 10
7.739023198842485
 20
-6.021688717881394
 30
0.0
 10
8.183305873181578
 20
-6.63407632969078
 30
0.0
 10
7.462849859288192
 20
-6.778167532469425
 30
0.0
  0
SPLINE
  5
DD
330
49
100
AcDbEntity
  8
Layer 1
370
     0
100
AcDbSpline
210
0.0
220
0.0
230
1.0
 70
    11
 71
     3
 72
    20
 73
    16
 74
     0
 42
0.0000000001
 43
0.0000000001
 12
1.0
 22
0.0
 32
0.0
 13
1.0
 23
0.0
 33
0.0
 40
0.0
 40
0.0
 40
0.0
 40
0.0
 40
1.0
 40
1.0
 40
1.0
 40
2.0
 40
2.0
 40
2.0
 40
3.0
 40
3.0
 40
3.0
 40
4.0
 40
4.0
 40
4.0
 40
5.0
 40
5.0
 40
5.0
 40
5.0
 10
7.522886394674486
 20
-9.071617710925134
 30
0.0
 10
7.630954796758485
 20
-9.203699847700749
 30
0.0
 10
7.318758656509547
 20
-8.435216364424196
 30
0.0
 10
8.51952014543667
 20
-7.894874354004164
 30
0.0
 10
9.119898691242962
 20
-7.354532343584133
 30
0.0
 10
8.711150715684836
 20
-6.769434465797132
 30
0.0
 10
8.687625082906932
 20
-6.874226868550363
 30
0.0
 10
8.555542946131315
 20
-7.462600745668133
 30
0.0
 10
7.871109732932639
 20
-7.690742218524688
 30
0.0
 10
7.871109732932639
 20
-7.690742218524688
 30
0.0
 10
7.871109732932639
 20
-7.690742218524688
 30
0.0
 10
7.859100666929546
 20
-8.543284766508195
 30
0.0
 10
7.030576250952192
 20
-8.783435305367812
 30
0.0
 10
7.030576250952192
 20
-8.783435305367812
 30
0.0
 10
7.414817992590486
 20
-8.93953557414955
 30
0.0
 10
7.522886394674486
 20
-9.071617710925134
 30
0.0
  0
SPLINE
  5
DE
330
49
100
AcDbEntity
  8
Layer 1
370
     0
100
AcDbSpline
210
0.0
220
0.0
230
1.0
 70
    11
 71
     3
 72
    17
 73
    13
 74
     0
 42
0.0000000001
 43
0.0000000001
 12
1.0
 22
0.0
 32
0.0
 13
1.0
 23
0.0
 33
0.0
 40
0.0
 40
0.0
 40
0.0
 40
0.0
 40
1.0
 40
1.0
 40
1.0
 40
2.0
 40
2.0
 40
2.0
 40
3.0
 40
3.0
 40
3.0
 40
4.0
 40
4.0
 40
4.0
 40
4.0
 10
9.780318169750055
 20
-7.990933690085103
 30
0.0
 10
9.780318169750055
 20
-7.990933690085103
 30
0.0
 10
9.744295369055378
 20
-7.894874354004164
 30
0.0
 10
9.720277237049256
 20
-7.774796885917072
 30
0.0
 10
9.720277237049256
 20
-7.774796885917072
 30
0.0
 10
9.191944292632286
 20
-7.49862354636281
 30
0.0
 10
9.0598621558567
 20
-7.294491410883333
 30
0.0
 10
9.0598621558567
 20
-7.294491410883333
 30
0.0
 10
9.107889625239903
 20
-7.618696617135333
 30
0.0
 10
8.99982122315587
 20
-7.762787819914011
 30
0.0
 10
8.99982122315587
 20
-7.762787819914011
 30
0.0
 10
9.564181365582055
 20
-7.798810620608688
 30
0.0
 10
9.780318169750055
 20
-7.990933690085103
 30
0.0
  0
SPLINE
  5
DF
330
49
100
AcDbEntity
  8
Layer 1
370
     0
100
AcDbSpline
210
0.0
220
0.0
230
1.0
 70
    11
 71
     3
 72
    26
 73
    22
 74
     0
 42
0.0000000001
 43
0.0000000001
 12
1.0
 22
0.0
 32
0.0
 13
1.0
 23
0.0
 33
0.0
 40
0.0
 40
0.0
 40
0.0
 40
0.0
 40
1.0
 40
1.0
 40
1.0
 40
2.0
 40
2.0
 40
2.0
 40
3.0
 40
3.0
 40
3.0
 40
4.0
 40
4.0
 40
4.0
 40
5.0
 40
5.0
 40
5.0
 40
6.0
 40
6.0
 40
6.0
 40
7.0
 40
7.0
 40
7.0
 40
7.0
 10
8.075237471097578
 20
-8.639344102589135
 30
0.0
 10
8.075237471097578
 20
-8.639344102589135
 30
0.0
 10
8.879748152383348
 20
-8.014947424776688
 30
0.0
 10
9.540163233575901
 20
-8.699380637975397
 30
0.0
 10
9.840354705136317
 20
-9.323777315787844
 30
0.0
 10
9.107889625239903
 20
-9.52790505395278
 30
0.0
 10
9.107889625239903
 20
-9.52790505395278
 30
0.0
 10
9.107889625239903
 20
-9.52790505395278
 30
0.0
 10
8.99982122315587
 20
-9.599950655342104
 30
0.0
 10
8.84372535168867
 20
-9.467868518566489
 30
0.0
 10
8.84372535168867
 20
-9.467868518566489
 30
0.0
 10
8.915770953078024
 20
-9.720028123429197
 30
0.0
 10
9.300012694716285
 20
-9.671996256731427
 30
0.0
 10
9.684254436354578
 20
-9.623968787348257
 30
0.0
 10
10.14054617669673
 20
-9.275745449090072
 30
0.0
 10
9.96043217322341
 20
-8.699380637975397
 30
0.0
 10
9.780318169750055
 20
-8.123015826860687
 30
0.0
 10
9.107889625239903
 20
-8.074988357477487
 30
0.0
 10
9.107889625239903
 20
-8.074988357477487
 30
0.0
 10
9.107889625239903
 20
-8.074988357477487
 30
0.0
 10
8.387433611346516
 20
-7.942901823387365
 30
0.0
 10
8.075237471097578
 20
-8.639344102589135
 30
0.0
  0
SPLINE
  5
E0
330
49
100
AcDbEntity
  8
Layer 1
370
     0
100
AcDbSpline
210
0.0
220
0.0
230
1.0
 70
    11
 71
     3
 72
    17
 73
    13
 74
     0
 42
0.0000000001
 43
0.0000000001
 12
1.0
 22
0.0
 32
0.0
 13
1.0
 23
0.0
 33
0.0
 40
0.0
 40
0.0
 40
0.0
 40
0.0
 40
1.0
 40
1.0
 40
1.0
 40
2.0
 40
2.0
 40
2.0
 40
3.0
 40
3.0
 40
3.0
 40
4.0
 40
4.0
 40
4.0
 40
4.0
 10
9.300012694716285
 20
-9.023585844227428
 30
0.0
 10
9.300012694716285
 20
-8.85779829151863
 30
0.0
 10
9.165613173179205
 20
-8.72339876998155
 30
0.0
 10
8.99982122315587
 20
-8.72339876998155
 30
0.0
 10
8.834033670447106
 20
-8.72339876998155
 30
0.0
 10
8.699634148909993
 20
-8.85779829151863
 30
0.0
 10
8.699634148909993
 20
-9.023585844227428
 30
0.0
 10
8.699634148909993
 20
-9.18937779425073
 30
0.0
 10
8.834033670447106
 20
-9.323777315787844
 30
0.0
 10
8.99982122315587
 20
-9.323777315787844
 30
0.0
 10
9.165613173179205
 20
-9.323777315787844
 30
0.0
 10
9.300012694716285
 20
-9.18937779425073
 30
0.0
 10
9.300012694716285
 20
-9.023585844227428
 30
0.0
  0
SPLINE
  5
E1
330
49
100
AcDbEntity
  8
Layer 1
370
     0
100
AcDbSpline
210
0.0
220
0.0
230
1.0
 70
    11
 71
     3
 72
    17
 73
    13
 74
     0
 42
0.0000000001
 43
0.0000000001
 12
1.0
 22
0.0
 32
0.0
 13
1.0
 23
0.0
 33
0.0
 40
0.0
 40
0.0
 40
0.0
 40
0.0
 40
1.0
 40
1.0
 40
1.0
 40
2.0
 40
2.0
 40
2.0
 40
3.0
 40
3.0
 40
3.0
 40
4.0
 40
4.0
 40
4.0
 40
4.0
 10
8.435465478044254
 20
-9.431845717871843
 30
0.0
 10
8.447474544047315
 20
-10.47650693801723
 30
0.0
 10
9.588195100273639
 20
-11.172949217219
 30
0.0
 10
9.588195100273639
 20
-11.172949217219
 30
0.0
 10
9.444103897494962
 20
-10.52453880471497
 30
0.0
 10
9.744295369055378
 20
-10.12828799707361
 30
0.0
 10
9.744295369055378
 20
-10.12828799707361
 30
0.0
 10
9.672249767666056
 20
-10.12828799707361
 30
0.0
 10
9.48012669818964
 20
-9.936164927597197
 30
0.0
 10
9.48012669818964
 20
-9.936164927597197
 30
0.0
 10
8.72364788360161
 20
-10.10426986506746
 30
0.0
 10
8.435465478044254
 20
-9.431845717871843
 30
0.0
 10
8.435465478044254
 20
-9.431845717871843
 30
0.0
  0
SPLINE
  5
E2
330
49
100
AcDbEntity
  8
Layer 1
370
     0
100
AcDbSpline
210
0.0
220
0.0
230
1.0
 70
    11
 71
     3
 72
    23
 73
    19
 74
     0
 42
0.0000000001
 43
0.0000000001
 12
1.0
 22
0.0
 32
0.0
 13
1.0
 23
0.0
 33
0.0
 40
0.0
 40
0.0
 40
0.0
 40
0.0
 40
1.0
 40
1.0
 40
1.0
 40
2.0
 40
2.0
 40
2.0
 40
3.0
 40
3.0
 40
3.0
 40
4.0
 40
4.0
 40
4.0
 40
5.0
 40
5.0
 40
5.0
 40
6.0
 40
6.0
 40
6.0
 40
6.0
 10
8.507511079433609
 20
-11.13692641652432
 30
0.0
 10
8.773201221129476
 20
-11.35118996469916
 30
0.0
 10
9.864368439827933
 20
-11.96545083250171
 30
0.0
 10
10.22459644677461
 20
-12.63787497969732
 30
0.0
 10
10.58482445372132
 20
-13.31029912689297
 30
0.0
 10
10.33266484885861
 20
-14.16284167487647
 30
0.0
 10
10.33266484885861
 20
-14.16284167487647
 30
0.0
 10
10.80096125788932
 20
-13.87465926931912
 30
0.0
 10
10.69289285580532
 20
-13.01011205264709
 30
0.0
 10
10.69289285580532
 20
-13.01011205264709
 30
0.0
 10
10.59683351972438
 20
-12.68590684639506
 30
0.0
 10
10.65687005511061
 20
-12.38571537483464
 30
0.0
 10
9.035844023850547
 20
-11.08889454982658
 30
0.0
 10
7.450840793285131
 20
-9.876128392210935
 30
0.0
 10
8.495502013430515
 20
-8.699380637975397
 30
0.0
 10
8.495502013430515
 20
-8.699380637975397
 30
0.0
 10
6.838453181475777
 20
-9.167677047006073
 30
0.0
 10
8.13527400648384
 20
-10.8367349449639
 30
0.0
 10
8.507511079433609
 20
-11.13692641652432
 30
0.0
  0
SPLINE
  5
E3
330
49
100
AcDbEntity
  8
Layer 1
370
     0
100
AcDbSpline
210
0.0
220
0.0
230
1.0
 70
    11
 71
     3
 72
    17
 73
    13
 74
     0
 42
0.0000000001
 43
0.0000000001
 12
1.0
 22
0.0
 32
0.0
 13
1.0
 23
0.0
 33
0.0
 40
0.0
 40
0.0
 40
0.0
 40
0.0
 40
1.0
 40
1.0
 40
1.0
 40
2.0
 40
2.0
 40
2.0
 40
3.0
 40
3.0
 40
3.0
 40
4.0
 40
4.0
 40
4.0
 40
4.0
 10
10.24861457878073
 20
-8.927526508146489
 30
0.0
 10
10.24861457878073
 20
-8.927526508146489
 30
0.0
 10
10.24861457878073
 20
-9.587945986653581
 30
0.0
 10
9.816340970444733
 20
-9.756050924123842
 30
0.0
 10
9.816340970444733
 20
-9.756050924123842
 30
0.0
 10
9.90039124052261
 20
-9.888133060899458
 30
0.0
 10
10.00845964260661
 20
-9.948173993600257
 30
0.0
 10
10.00845964260661
 20
-9.948173993600257
 30
0.0
 10
10.56081071902967
 20
-9.57593692065052
 30
0.0
 10
11.20922113153373
 20
-9.912151192905581
 30
0.0
 10
11.14918459614744
 20
-9.57593692065052
 30
0.0
 10
10.48876511764035
 20
-9.335786381790903
 30
0.0
 10
10.24861457878073
 20
-8.927526508146489
 30
0.0
  0
SPLINE
  5
E4
330
49
100
AcDbEntity
  8
Layer 1
370
     0
100
AcDbSpline
210
0.0
220
0.0
230
1.0
 70
    11
 71
     3
 72
    32
 73
    28
 74
     0
 42
0.0000000001
 43
0.0000000001
 12
1.0
 22
0.0
 32
0.0
 13
1.0
 23
0.0
 33
0.0
 40
0.0
 40
0.0
 40
0.0
 40
0.0
 40
1.0
 40
1.0
 40
1.0
 40
2.0
 40
2.0
 40
2.0
 40
3.0
 40
3.0
 40
3.0
 40
4.0
 40
4.0
 40
4.0
 40
5.0
 40
5.0
 40
5.0
 40
6.0
 40
6.0
 40
6.0
 40
7.0
 40
7.0
 40
7.0
 40
8.0
 40
8.0
 40
8.0
 40
9.0
 40
9.0
 40
9.0
 40
9.0
 10
11.23323486622532
 20
-11.36506788938084
 30
0.0
 10
11.23323486622532
 20
-11.36506788938084
 30
0.0
 10
10.4527423169457
 20
-11.47313629146488
 30
0.0
 10
10.46475138294876
 20
-10.82472587896084
 30
0.0
 10
10.46475138294876
 20
-10.82472587896084
 30
0.0
 10
10.46475138294876
 20
-10.28438386854081
 30
0.0
 10
10.98107526136267
 20
-10.45249320332561
 30
0.0
 10
11.1131617954528
 20
-10.50052067270881
 30
0.0
 10
11.02910712806038
 20
-10.3684385359332
 30
0.0
 10
11.02910712806038
 20
-10.3684385359332
 30
0.0
 10
11.02910712806038
 20
-10.3684385359332
 30
0.0
 10
10.57281978503273
 20
-10.06824706437278
 30
0.0
 10
10.24861457878073
 20
-10.51252973871187
 30
0.0
 10
9.924409372528732
 20
-10.95681241305097
 30
0.0
 10
10.68088818711679
 20
-11.55719095885726
 30
0.0
 10
10.75293378850609
 20
-11.67726842694435
 30
0.0
 10
10.82497938989544
 20
-11.79734149771687
 30
0.0
 10
11.06512992875502
 20
-12.03749643389103
 30
0.0
 10
11.22123019753679
 20
-12.45776097622397
 30
0.0
 10
11.22123019753679
 20
-12.45776097622397
 30
0.0
 10
11.25725299823144
 20
-12.54781797796064
 30
0.0
 10
11.23023589771044
 20
-12.646880679871
 30
0.0
 10
11.20321879718944
 20
-12.74594338178132
 30
0.0
 10
11.6084753050045
 20
-12.45776097622397
 30
0.0
 10
11.48239550257315
 20
-11.87239046493561
 30
0.0
 10
11.35631570014179
 20
-11.41309975607861
 30
0.0
 10
11.23323486622532
 20
-11.36506788938084
 30
0.0
 10
11.23323486622532
 20
-11.36506788938084
 30
0.0
  0
SPLINE
  5
E5
330
49
100
AcDbEntity
  8
Layer 1
370
     0
100
AcDbSpline
210
0.0
220
0.0
230
1.0
 70
    11
 71
     3
 72
    23
 73
    19
 74
     0
 42
0.0000000001
 43
0.0000000001
 12
1.0
 22
0.0
 32
0.0
 13
1.0
 23
0.0
 33
0.0
 40
0.0
 40
0.0
 40
0.0
 40
0.0
 40
1.0
 40
1.0
 40
1.0
 40
2.0
 40
2.0
 40
2.0
 40
3.0
 40
3.0
 40
3.0
 40
4.0
 40
4.0
 40
4.0
 40
5.0
 40
5.0
 40
5.0
 40
6.0
 40
6.0
 40
6.0
 40
6.0
 10
7.991182803705162
 20
-11.85738243041767
 30
0.0
 10
7.871109732932639
 20
-11.95344176649861
 30
0.0
 10
8.063228405094517
 20
-11.91741896580397
 30
0.0
 10
8.063228405094517
 20
-11.91741896580397
 30
0.0
 10
8.063228405094517
 20
-11.91741896580397
 30
0.0
 10
8.327397075960254
 20
-11.71329122763903
 30
0.0
 10
8.939784687769608
 20
-11.7613186970222
 30
0.0
 10
8.435465478044254
 20
-11.50915909215952
 30
0.0
 10
7.91913720231584
 20
-11.08889454982658
 30
0.0
 10
7.630954796758485
 20
-10.56056160540961
 30
0.0
 10
7.630954796758485
 20
-10.56056160540961
 30
0.0
 10
7.366790523207285
 20
-10.99283521374564
 30
0.0
 10
7.282735855814869
 20
-11.07688548382352
 30
0.0
 10
7.282735855814869
 20
-11.07688548382352
 30
0.0
 10
7.81106880023184
 20
-11.01684894843726
 30
0.0
 10
7.979178135016639
 20
-11.26900855329994
 30
0.0
 10
8.1472830724869
 20
-11.52116815816261
 30
0.0
 10
8.111260271792256
 20
-11.7613186970222
 30
0.0
 10
7.991182803705162
 20
-11.85738243041767
 30
0.0
  0
SPLINE
  5
E6
330
49
100
AcDbEntity
  8
Layer 1
370
     0
100
AcDbSpline
210
0.0
220
0.0
230
1.0
 70
    11
 71
     3
 72
    26
 73
    22
 74
     0
 42
0.0000000001
 43
0.0000000001
 12
1.0
 22
0.0
 32
0.0
 13
1.0
 23
0.0
 33
0.0
 40
0.0
 40
0.0
 40
0.0
 40
0.0
 40
1.0
 40
1.0
 40
1.0
 40
2.0
 40
2.0
 40
2.0
 40
3.0
 40
3.0
 40
3.0
 40
4.0
 40
4.0
 40
4.0
 40
5.0
 40
5.0
 40
5.0
 40
6.0
 40
6.0
 40
6.0
 40
7.0
 40
7.0
 40
7.0
 40
7.0
 10
6.6463345093139
 20
-11.20897201791364
 30
0.0
 10
6.6463345093139
 20
-11.20897201791364
 30
0.0
 10
7.17466745373087
 20
-10.87275774565858
 30
0.0
 10
7.378795191895808
 20
-10.09226519637894
 30
0.0
 10
7.582927327375285
 20
-9.31176824978475
 30
0.0
 10
6.850462247478838
 20
-9.035594910230488
 30
0.0
 10
6.5862935766131
 20
-9.21570891370381
 30
0.0
 10
6.478225174529101
 20
-9.239722648395427
 30
0.0
 10
6.562279841921484
 20
-9.299763581096226
 30
0.0
 10
6.562279841921484
 20
-9.299763581096226
 30
0.0
 10
6.562279841921484
 20
-9.299763581096226
 30
0.0
 10
6.994553450257516
 20
-9.227717979706904
 30
0.0
 10
6.982544384254454
 20
-9.720028123429197
 30
0.0
 10
6.826448512787254
 20
-10.16431079776826
 30
0.0
 10
6.286106502367223
 20
-9.948173993600257
 30
0.0
 10
6.286106502367223
 20
-9.948173993600257
 30
0.0
 10
6.286106502367223
 20
-9.948173993600257
 30
0.0
 10
6.130006233585484
 20
-9.85211026020478
 30
0.0
 10
6.178038100283223
 20
-9.972187728291841
 30
0.0
 10
6.178038100283223
 20
-9.972187728291841
 30
0.0
 10
6.754402911397899
 20
-10.41647040263097
 30
0.0
 10
6.6463345093139
 20
-11.20897201791364
 30
0.0
  0
SPLINE
  5
E7
330
49
100
AcDbEntity
  8
Layer 1
370
     0
100
AcDbSpline
210
0.0
220
0.0
230
1.0
 70
    11
 71
     3
 72
    17
 73
    13
 74
     0
 42
0.0000000001
 43
0.0000000001
 12
1.0
 22
0.0
 32
0.0
 13
1.0
 23
0.0
 33
0.0
 40
0.0
 40
0.0
 40
0.0
 40
0.0
 40
1.0
 40
1.0
 40
1.0
 40
2.0
 40
2.0
 40
2.0
 40
3.0
 40
3.0
 40
3.0
 40
4.0
 40
4.0
 40
4.0
 40
4.0
 10
5.481595821081453
 20
-11.14893108521284
 30
0.0
 10
5.649700758551715
 20
-11.36506788938084
 30
0.0
 10
5.817810093336546
 20
-11.42510882208167
 30
0.0
 10
5.82981476202507
 20
-12.18158763666971
 30
0.0
 10
5.82981476202507
 20
-12.18158763666971
 30
0.0
 10
6.262088370361068
 20
-11.88139616510929
 30
0.0
 10
6.05796063219613
 20
-11.02885801444032
 30
0.0
 10
5.853832894031191
 20
-10.17631546645681
 30
0.0
 10
5.769778226638776
 20
-10.40446133662787
 30
0.0
 10
5.769778226638776
 20
-10.40446133662787
 30
0.0
 10
5.769778226638776
 20
-10.40446133662787
 30
0.0
 10
5.84182382802813
 20
-10.96881708173949
 30
0.0
 10
5.481595821081453
 20
-11.14893108521284
 30
0.0
  0
SPLINE
  5
E8
330
49
100
AcDbEntity
  8
Layer 1
370
     0
100
AcDbSpline
210
0.0
220
0.0
230
1.0
 70
    11
 71
     3
 72
    14
 73
    10
 74
     0
 42
0.0000000001
 43
0.0000000001
 12
1.0
 22
0.0
 32
0.0
 13
1.0
 23
0.0
 33
0.0
 40
0.0
 40
0.0
 40
0.0
 40
0.0
 40
1.0
 40
1.0
 40
1.0
 40
2.0
 40
2.0
 40
2.0
 40
3.0
 40
3.0
 40
3.0
 40
3.0
 10
4.052692859297775
 20
-8.699380637975397
 30
0.0
 10
4.0246819656912
 20
-8.6097501757489
 30
0.0
 10
3.98385729752112
 20
-8.534226298560062
 30
0.0
 10
3.936419068286004
 20
-8.468345732152907
 30
0.0
 10
3.936419068286004
 20
-8.468345732152907
 30
0.0
 10
3.936419068286004
 20
-9.380748922941157
 30
0.0
 10
3.936419068286004
 20
-9.380748922941157
 30
0.0
 10
4.074354030711591
 20
-9.215845230454487
 30
0.0
 10
4.142217785975361
 20
-8.985865680121103
 30
0.0
 10
4.052692859297775
 20
-8.699380637975397
 30
0.0
  0
SPLINE
  5
E9
330
49
100
AcDbEntity
  8
Layer 1
370
     0
100
AcDbSpline
210
0.0
220
0.0
230
1.0
 70
    11
 71
     3
 72
    20
 73
    16
 74
     0
 42
0.0000000001
 43
0.0000000001
 12
1.0
 22
0.0
 32
0.0
 13
1.0
 23
0.0
 33
0.0
 40
0.0
 40
0.0
 40
0.0
 40
0.0
 40
1.0
 40
1.0
 40
1.0
 40
2.0
 40
2.0
 40
2.0
 40
3.0
 40
3.0
 40
3.0
 40
4.0
 40
4.0
 40
4.0
 40
5.0
 40
5.0
 40
5.0
 40
5.0
 10
4.424925534933007
 20
-14.16284167487647
 30
0.0
 10
4.893221943963684
 20
-13.87465926931912
 30
0.0
 10
4.785153541879684
 20
-13.01011205264709
 30
0.0
 10
4.785153541879684
 20
-13.01011205264709
 30
0.0
 10
4.709053616486377
 20
-12.7532693078015
 30
0.0
 10
4.730050793404963
 20
-12.5109728794474
 30
0.0
 10
3.936419068286004
 20
-11.77678844956662
 30
0.0
 10
3.936419068286004
 20
-11.77678844956662
 30
0.0
 10
3.936419068286004
 20
-12.15230591916166
 30
0.0
 10
3.936419068286004
 20
-12.15230591916166
 30
0.0
 10
4.092462171978749
 20
-12.30706500700933
 30
0.0
 10
4.227279438396934
 20
-12.47066269707826
 30
0.0
 10
4.316857132848975
 20
-12.63787497969732
 30
0.0
 10
4.677085139795684
 20
-13.31029912689297
 30
0.0
 10
4.424925534933007
 20
-14.16284167487647
 30
0.0
 10
4.424925534933007
 20
-14.16284167487647
 30
0.0
  0
SPLINE
  5
EA
330
49
100
AcDbEntity
  8
Layer 1
370
     0
100
AcDbSpline
210
0.0
220
0.0
230
1.0
 70
    11
 71
     3
 72
    20
 73
    16
 74
     0
 42
0.0000000001
 43
0.0000000001
 12
1.0
 22
0.0
 32
0.0
 13
1.0
 23
0.0
 33
0.0
 40
0.0
 40
0.0
 40
0.0
 40
0.0
 40
1.0
 40
1.0
 40
1.0
 40
2.0
 40
2.0
 40
2.0
 40
3.0
 40
3.0
 40
3.0
 40
4.0
 40
4.0
 40
4.0
 40
5.0
 40
5.0
 40
5.0
 40
5.0
 10
4.100720328680976
 20
-9.948173993600257
 30
0.0
 10
4.100720328680976
 20
-9.948173993600257
 30
0.0
 10
4.653071405104067
 20
-9.57593692065052
 30
0.0
 10
5.301481817608099
 20
-9.912151192905581
 30
0.0
 10
5.241445282221838
 20
-9.57593692065052
 30
0.0
 10
4.581025803714745
 20
-9.335786381790903
 30
0.0
 10
4.340875264855129
 20
-8.927526508146489
 30
0.0
 10
4.340875264855129
 20
-8.927526508146489
 30
0.0
 10
4.339731963075264
 20
-9.556856972870445
 30
0.0
 10
3.936419068286004
 20
-9.742520387290652
 30
0.0
 10
3.936419068286004
 20
-9.742520387290652
 30
0.0
 10
3.936419068286004
 20
-9.79501992555891
 30
0.0
 10
3.936419068286004
 20
-9.79501992555891
 30
0.0
 10
3.969658368878163
 20
-9.838773205211261
 30
0.0
 10
4.029716890837114
 20
-9.908725684880554
 30
0.0
 10
4.100720328680976
 20
-9.948173993600257
 30
0.0
  0
SPLINE
  5
EB
330
49
100
AcDbEntity
  8
Layer 1
370
     0
100
AcDbSpline
210
0.0
220
0.0
230
1.0
 70
    11
 71
     3
 72
    32
 73
    28
 74
     0
 42
0.0000000001
 43
0.0000000001
 12
1.0
 22
0.0
 32
0.0
 13
1.0
 23
0.0
 33
0.0
 40
0.0
 40
0.0
 40
0.0
 40
0.0
 40
1.0
 40
1.0
 40
1.0
 40
2.0
 40
2.0
 40
2.0
 40
3.0
 40
3.0
 40
3.0
 40
4.0
 40
4.0
 40
4.0
 40
5.0
 40
5.0
 40
5.0
 40
6.0
 40
6.0
 40
6.0
 40
7.0
 40
7.0
 40
7.0
 40
8.0
 40
8.0
 40
8.0
 40
9.0
 40
9.0
 40
9.0
 40
9.0
 10
5.322496583784837
 20
-12.646880679871
 30
0.0
 10
5.295479483263837
 20
-12.74594338178132
 30
0.0
 10
5.700735991078869
 20
-12.45776097622397
 30
0.0
 10
5.574656188647515
 20
-11.87239046493561
 30
0.0
 10
5.448576386216192
 20
-11.41309975607861
 30
0.0
 10
5.325495552299715
 20
-11.36506788938084
 30
0.0
 10
5.325495552299715
 20
-11.36506788938084
 30
0.0
 10
5.325495552299715
 20
-11.36506788938084
 30
0.0
 10
4.545003003020068
 20
-11.47313629146488
 30
0.0
 10
4.557012069023129
 20
-10.82472587896084
 30
0.0
 10
4.557012069023129
 20
-10.82472587896084
 30
0.0
 10
4.557012069023129
 20
-10.28438386854081
 30
0.0
 10
5.073335947437006
 20
-10.45249320332561
 30
0.0
 10
5.20542248152716
 20
-10.50052067270881
 30
0.0
 10
5.121367814134777
 20
-10.3684385359332
 30
0.0
 10
5.121367814134777
 20
-10.3684385359332
 30
0.0
 10
5.121367814134777
 20
-10.3684385359332
 30
0.0
 10
4.665080471107129
 20
-10.06824706437278
 30
0.0
 10
4.340875264855129
 20
-10.51252973871187
 30
0.0
 10
4.016670058603098
 20
-10.95681241305097
 30
0.0
 10
4.773148873191129
 20
-11.55719095885726
 30
0.0
 10
4.845194474580484
 20
-11.67726842694435
 30
0.0
 10
4.917240075969806
 20
-11.79734149771687
 30
0.0
 10
5.157390614829422
 20
-12.03749643389103
 30
0.0
 10
5.31349088361116
 20
-12.45776097622397
 30
0.0
 10
5.31349088361116
 20
-12.45776097622397
 30
0.0
 10
5.349513684305837
 20
-12.54781797796064
 30
0.0
 10
5.322496583784837
 20
-12.646880679871
 30
0.0
  0
SPLINE
  5
EC
330
49
100
AcDbEntity
  8
Layer 1
370
     0
100
AcDbSpline
210
0.0
220
0.0
230
1.0
 70
    11
 71
     3
 72
    17
 73
    13
 74
     0
 42
0.0000000001
 43
0.0000000001
 12
1.0
 22
0.0
 32
0.0
 13
1.0
 23
0.0
 33
0.0
 40
0.0
 40
0.0
 40
0.0
 40
0.0
 40
1.0
 40
1.0
 40
1.0
 40
2.0
 40
2.0
 40
2.0
 40
3.0
 40
3.0
 40
3.0
 40
4.0
 40
4.0
 40
4.0
 40
4.0
 10
16.21639482540716
 20
-3.644183872033269
 30
0.0
 10
16.68469123443787
 20
-3.356001466475947
 30
0.0
 10
16.57662283235387
 20
-2.491454249803884
 30
0.0
 10
16.57662283235387
 20
-2.491454249803884
 30
0.0
 10
16.55418773358135
 20
-2.415745685404454
 30
0.0
 10
16.54007235391468
 20
-2.341189217413965
 30
0.0
 10
16.5112611490622
 20
-2.255098593390514
 30
0.0
 10
16.5112611490622
 20
-2.255098593390514
 30
0.0
 10
16.17198194857412
 20
-2.255098593390514
 30
0.0
 10
16.17198194857412
 20
-2.255098593390514
 30
0.0
 10
16.43604948120552
 20
-2.900998139293379
 30
0.0
 10
16.21639482540716
 20
-3.644183872033269
 30
0.0
 10
16.21639482540716
 20
-3.644183872033269
 30
0.0
  0
SPLINE
  5
ED
330
49
100
AcDbEntity
  8
Layer 1
370
     0
100
AcDbSpline
210
0.0
220
0.0
230
1.0
 70
    11
 71
     3
 72
    17
 73
    13
 74
     0
 42
0.0000000001
 43
0.0000000001
 12
1.0
 22
0.0
 32
0.0
 13
1.0
 23
0.0
 33
0.0
 40
0.0
 40
0.0
 40
0.0
 40
0.0
 40
1.0
 40
1.0
 40
1.0
 40
2.0
 40
2.0
 40
2.0
 40
3.0
 40
3.0
 40
3.0
 40
4.0
 40
4.0
 40
4.0
 40
4.0
 10
10.33266484885861
 20
-3.644183872033269
 30
0.0
 10
10.80096125788932
 20
-3.356001466475947
 30
0.0
 10
10.69289285580532
 20
-2.491454249803884
 30
0.0
 10
10.69289285580532
 20
-2.491454249803884
 30
0.0
 10
10.67046215434733
 20
-2.415745685404454
 30
0.0
 10
10.65634237736606
 20
-2.341189217413965
 30
0.0
 10
10.62753996714265
 20
-2.255098593390514
 30
0.0
 10
10.62753996714265
 20
-2.255098593390514
 30
0.0
 10
10.28826076665468
 20
-2.255098593390514
 30
0.0
 10
10.28826076665468
 20
-2.255098593390514
 30
0.0
 10
10.55231950465696
 20
-2.900998139293379
 30
0.0
 10
10.33266484885861
 20
-3.644183872033269
 30
0.0
 10
10.33266484885861
 20
-3.644183872033269
 30
0.0
  0
SPLINE
  5
EE
330
49
100
AcDbEntity
  8
Layer 1
370
     0
100
AcDbSpline
210
0.0
220
0.0
230
1.0
 70
    11
 71
     3
 72
    17
 73
    13
 74
     0
 42
0.0000000001
 43
0.0000000001
 12
1.0
 22
0.0
 32
0.0
 13
1.0
 23
0.0
 33
0.0
 40
0.0
 40
0.0
 40
0.0
 40
0.0
 40
1.0
 40
1.0
 40
1.0
 40
2.0
 40
2.0
 40
2.0
 40
3.0
 40
3.0
 40
3.0
 40
4.0
 40
4.0
 40
4.0
 40
4.0
 10
4.424925534933007
 20
-3.644183872033269
 30
0.0
 10
4.893221943963684
 20
-3.356001466475947
 30
0.0
 10
4.785153541879684
 20
-2.491454249803884
 30
0.0
 10
4.785153541879684
 20
-2.491454249803884
 30
0.0
 10
4.762722840421728
 20
-2.415745685404454
 30
0.0
 10
4.748603063440453
 20
-2.341189217413965
 30
0.0
 10
4.719800653217048
 20
-2.255098593390514
 30
0.0
 10
4.719800653217048
 20
-2.255098593390514
 30
0.0
 10
4.380521452729041
 20
-2.255098593390514
 30
0.0
 10
4.380521452729041
 20
-2.255098593390514
 30
0.0
 10
4.64458019073133
 20
-2.900998139293379
 30
0.0
 10
4.424925534933007
 20
-3.644183872033269
 30
0.0
 10
4.424925534933007
 20
-3.644183872033269
 30
0.0
  0
ENDBLK
  5
4C
330
49
100
AcDbEntity
  8
0
100
AcDbBlockEnd
  0
ENDSEC
  0
SECTION
  2
ENTITIES
  0
POLYLINE
  5
41
330
1F
100
AcDbEntity
  8
Layer 1
 62
   250
420
  2301984
370
     9
100
AcDb2dPolyline
 66
     1
 10
0.0
 20
0.0
 30
0.0
  0
VERTEX
  5
42
330
41
100
AcDbEntity
  8
Layer 1
 62
   250
420
  2301984
370
     9
100
AcDbVertex
100
AcDb2dVertex
 10
17.42915658570827
 20
-27.85154991199586
 30
0.0
  0
VERTEX
  5
43
330
41
100
AcDbEntity
  8
Layer 1
 62
   250
420
  2301984
370
     9
100
AcDbVertex
100
AcDb2dVertex
 10
3.596401118955622
 20
-27.85154991199586
 30
0.0
  0
VERTEX
  5
44
330
41
100
AcDbEntity
  8
Layer 1
 62
   250
420
  2301984
370
     9
100
AcDbVertex
100
AcDb2dVertex
 10
3.596401118955622
 20
-1.915133411834587
 30
0.0
  0
VERTEX
  5
45
330
41
100
AcDbEntity
  8
Layer 1
 62
   250
420
  2301984
370
     9
100
AcDbVertex
100
AcDb2dVertex
 10
17.42915658570827
 20
-1.915133411834587
 30
0.0
  0
VERTEX
  5
46
330
41
100
AcDbEntity
  8
Layer 1
 62
   250
420
  2301984
370
     9
100
AcDbVertex
100
AcDb2dVertex
 10
17.42915658570827
 20
-27.85154991199586
 30
0.0
  0
SEQEND
  5
48
330
41
100
AcDbEntity
  8
Layer 1
 62
   250
420
  2301984
370
     9
  0
HATCH
  5
47
330
1F
100
AcDbEntity
  8
Layer 1
 62
   242
420
 12788007
100
AcDbHatch
 10
0.0
 20
0.0
 30
0.0
210
0.0
220
0.0
230
1.0
  2
SOLID
 70
     1
 71
     0
 91
        1
 92
        1
 93
        4
 72
     1
 10
17.42915658570827
 20
-27.85154991199586
 11
3.596401118955622
 21
-27.85154991199586
 72
     1
 10
3.596401118955622
 20
-27.85154991199586
 11
3.596401118955622
 21
-1.915133411834585
 72
     1
 10
3.596401118955622
 20
-1.915133411834587
 11
17.42915658570827
 21
-1.915133411834587
 72
     1
 10
17.42915658570827
 20
-1.915133411834587
 11
17.42915658570827
 21
-27.85154991199587
 97
        0
 75
     2
 76
     1
 98
        0
  0
INSERT
  5
4A
330
1F
100
AcDbEntity
  8
Layer 1
100
AcDbBlockReference
  2
block 2
 10
0.0
 20
0.0
 30
0.0
  0
ENDSEC
  0
SECTION
  2
OBJECTS
  0
DICTIONARY
  5
C
330
0
100
AcDbDictionary
281
     1
  3
ACAD_GROUP
350
D
  3
ACAD_LAYOUT
350
1A
  3
ACAD_MATERIAL
350
3B
  3
ACAD_MLEADERSTYLE
350
F0
  3
ACAD_MLINESTYLE
350
17
  3
ACAD_PLOTSETTINGS
350
19
  3
ACAD_PLOTSTYLENAME
350
E
  3
ACAD_TABLESTYLE
350
EF
  3
ACAD_VISUALSTYLE
350
2A
  0
SUN
  5
3F
330
29
100
AcDbSun
 90
        1
290
     0
 63
     7
421
 16777215
 40
1.0
291
     1
 91
  2455826
 92
 54000000
292
     0
 70
     2
 71
   256
280
     1
  0
DICTIONARY
  5
D
102
{ACAD_REACTORS
330
C
102
}
330
C
100
AcDbDictionary
281
     1
  0
DICTIONARY
  5
1A
102
{ACAD_REACTORS
330
C
102
}
330
C
100
AcDbDictionary
281
     1
  3
Layout1
350
1E
  3
Layout2
350
26
  3
Model
350
22
  0
DICTIONARY
  5
3B
102
{ACAD_REACTORS
330
C
102
}
330
C
100
AcDbDictionary
281
     1
  3
ByBlock
350
3D
  3
ByLayer
350
3C
  3
Global
350
3E
  0
DICTIONARY
  5
F0
102
{ACAD_REACTORS
330
C
102
}
330
C
100
AcDbDictionary
281
     1
  0
DICTIONARY
  5
17
102
{ACAD_REACTORS
330
C
102
}
330
C
100
AcDbDictionary
281
     1
  3
Standard
350
18
  0
DICTIONARY
  5
19
102
{ACAD_REACTORS
330
C
102
}
330
C
100
AcDbDictionary
281
     1
  0
ACDBDICTIONARYWDFLT
  5
E
102
{ACAD_REACTORS
330
C
102
}
330
C
100
AcDbDictionary
281
     1
  3
Normal
350
F
100
AcDbDictionaryWithDefault
340
F
  0
DICTIONARY
  5
EF
102
{ACAD_REACTORS
330
C
102
}
330
C
100
AcDbDictionary
281
     1
  0
DICTIONARY
  5
2A
102
{ACAD_REACTORS
330
C
102
}
330
C
100
AcDbDictionary
281
     1
  3
2dWireframe
350
2F
  3
3D Hidden
350
31
  3
3dWireframe
350
30
  3
Basic
350
32
  3
Brighten
350
36
  3
ColorChange
350
3A
  3
Conceptual
350
34
  3
Dim
350
35
  3
Facepattern
350
39
  3
Flat
350
2B
  3
FlatWithEdges
350
2C
  3
Gouraud
350
2D
  3
GouraudWithEdges
350
2E
  3
Linepattern
350
38
  3
Realistic
350
33
  3
Thicken
350
37
  0
LAYOUT
  5
1E
102
{ACAD_REACTORS
330
1A
102
}
330
1A
100
AcDbPlotSettings
  1

  2
none_device
  4

  6

 40
0.0
 41
0.0
 42
0.0
 43
0.0
 44
0.0
 45
0.0
 46
0.0
 47
0.0
 48
0.0
 49
0.0
140
0.0
141
0.0
142
1.0
143
1.0
 70
   688
 72
     0
 73
     0
 74
     5
  7

 75
    16
 76
     0
 77
     2
 78
   300
147
1.0
148
0.0
149
0.0
100
AcDbLayout
  1
Layout1
 70
     1
 71
     1
 10
0.0
 20
0.0
 11
12.0
 21
9.0
 12
0.0
 22
0.0
 32
0.0
 14
1.000000000000000E+20
 24
1.000000000000000E+20
 34
1.000000000000000E+20
 15
-1.000000000000000E+20
 25
-1.000000000000000E+20
 35
-1.000000000000000E+20
146
0.0
 13
0.0
 23
0.0
 33
0.0
 16
1.0
 26
0.0
 36
0.0
 17
0.0
 27
1.0
 37
0.0
 76
     0
330
1B
  0
LAYOUT
  5
26
102
{ACAD_REACTORS
330
1A
102
}
330
1A
100
AcDbPlotSettings
  1

  2
none_device
  4

  6

 40
0.0
 41
0.0
 42
0.0
 43
0.0
 44
0.0
 45
0.0
 46
0.0
 47
0.0
 48
0.0
 49
0.0
140
0.0
141
0.0
142
1.0
143
1.0
 70
   688
 72
     0
 73
     0
 74
     5
  7

 75
    16
 76
     0
 77
     2
 78
   300
147
1.0
148
0.0
149
0.0
100
AcDbLayout
  1
Layout2
 70
     1
 71
     2
 10
0.0
 20
0.0
 11
0.0
 21
0.0
 12
0.0
 22
0.0
 32
0.0
 14
0.0
 24
0.0
 34
0.0
 15
0.0
 25
0.0
 35
0.0
146
0.0
 13
0.0
 23
0.0
 33
0.0
 16
1.0
 26
0.0
 36
0.0
 17
0.0
 27
1.0
 37
0.0
 76
     0
330
23
  0
LAYOUT
  5
22
102
{ACAD_REACTORS
330
1A
102
}
330
1A
100
AcDbPlotSettings
  1

  2
none_device
  4

  6

 40
0.0
 41
0.0
 42
0.0
 43
0.0
 44
0.0
 45
0.0
 46
0.0
 47
0.0
 48
0.0
 49
0.0
140
0.0
141
0.0
142
1.0
143
1.0
 70
  1712
 72
     0
 73
     0
 74
     0
  7

 75
     0
 76
     0
 77
     2
 78
   300
147
1.0
148
0.0
149
0.0
100
AcDbLayout
  1
Model
 70
     1
 71
     0
 10
0.0
 20
0.0
 11
12.0
 21
9.0
 12
0.0
 22
0.0
 32
0.0
 14
1.000000000000000E+20
 24
1.000000000000000E+20
 34
1.000000000000000E+20
 15
-1.000000000000000E+20
 25
-1.000000000000000E+20
 35
-1.000000000000000E+20
146
0.0
 13
0.0
 23
0.0
 33
0.0
 16
1.0
 26
0.0
 36
0.0
 17
0.0
 27
1.0
 37
0.0
 76
     0
330
1F
331
29
  0
MATERIAL
  5
3D
102
{ACAD_REACTORS
330
3B
102
}
330
3B
100
AcDbMaterial
  1
ByBlock
 72
     1
 94
      127
  0
MATERIAL
  5
3C
102
{ACAD_REACTORS
330
3B
102
}
330
3B
100
AcDbMaterial
  1
ByLayer
 72
     1
 94
      127
  0
MATERIAL
  5
3E
102
{ACAD_REACTORS
330
3B
102
}
330
3B
100
AcDbMaterial
  1
Global
 72
     1
 94
      127
  0
MLINESTYLE
  5
18
102
{ACAD_REACTORS
330
17
102
}
330
17
100
AcDbMlineStyle
  2
Standard
 70
     0
  3

 62
   256
 51
90.0
 52
90.0
 71
     2
 49
0.5
 62
   256
  6
BYLAYER
 49
-0.5
 62
   256
  6
BYLAYER
  0
ACDBPLACEHOLDER
  5
F
102
{ACAD_REACTORS
330
E
102
}
330
E
  0
VISUALSTYLE
  5
2F
102
{ACAD_REACTORS
330
2A
102
}
330
2A
100
AcDbVisualStyle
  2
2dWireframe
 70
     4
177
     2
291
     0
 71
     0
176
     1
 72
     2
176
     1
 73
     0
176
     1
 90
        0
176
     1
 40
-0.6
176
     1
 41
-30.0
176
     1
 62
     5
 63
     7
421
 16777215
176
     1
 74
     1
176
     1
 91
        4
176
     1
 64
     7
176
     1
 65
   257
176
     1
 75
     1
176
     1
175
     1
176
     1
 42
1.0
176
     1
 92
        0
176
     1
 66
   257
176
     1
 43
1.0
176
     1
 76
     1
176
     1
 77
     6
176
     1
 78
     2
176
     1
 67
     7
176
     1
 79
     5
176
     1
170
     0
176
     1
171
     0
176
     1
290
     0
176
     1
 93
        1
176
     1
 44
0.0
176
     1
173
     0
176
     1
  0
VISUALSTYLE
  5
31
102
{ACAD_REACTORS
330
2A
102
}
330
2A
100
AcDbVisualStyle
  2
3D Hidden
 70
     6
177
     2
291
     0
 71
     1
176
     1
 72
     2
176
     1
 73
     2
176
     1
 90
        0
176
     1
 40
-0.6
176
     1
 41
-30.0
176
     1
 62
     5
 63
     7
421
 16777215
176
     1
 74
     2
176
     1
 91
        2
176
     1
 64
     7
176
     1
 65
   257
176
     1
 75
     2
176
     1
175
     1
176
     1
 42
40.0
176
     1
 92
        0
176
     1
 66
   257
176
     1
 43
1.0
176
     1
 76
     1
176
     1
 77
     6
176
     1
 78
     2
176
     1
 67
     7
176
     1
 79
     3
176
     1
170
     0
176
     1
171
     0
176
     1
290
     0
176
     1
 93
        1
176
     1
 44
0.0
176
     1
173
     0
176
     1
  0
VISUALSTYLE
  5
30
102
{ACAD_REACTORS
330
2A
102
}
330
2A
100
AcDbVisualStyle
  2
3dWireframe
 70
     5
177
     2
291
     0
 71
     0
176
     1
 72
     2
176
     1
 73
     0
176
     1
 90
        0
176
     1
 40
-0.6
176
     1
 41
-30.0
176
     1
 62
     5
 63
     7
421
 16777215
176
     1
 74
     1
176
     1
 91
        4
176
     1
 64
     7
176
     1
 65
   257
176
     1
 75
     1
176
     1
175
     1
176
     1
 42
1.0
176
     1
 92
        0
176
     1
 66
   257
176
     1
 43
1.0
176
     1
 76
     1
176
     1
 77
     6
176
     1
 78
     2
176
     1
 67
     7
176
     1
 79
     5
176
     1
170
     0
176
     1
171
     0
176
     1
290
     0
176
     1
 93
        1
176
     1
 44
0.0
176
     1
173
     0
176
     1
  0
VISUALSTYLE
  5
32
102
{ACAD_REACTORS
330
2A
102
}
330
2A
100
AcDbVisualStyle
  2
Basic
 70
     7
177
     2
291
     1
 71
     1
176
     1
 72
     0
176
     1
 73
     1
176
     1
 90
        0
176
     1
 40
-0.6
176
     1
 41
-30.0
176
     1
 62
     5
 63
     7
421
 16777215
176
     1
 74
     0
176
     1
 91
        4
176
     1
 64
     7
176
     1
 65
   257
176
     1
 75
     1
176
     1
175
     1
176
     1
 42
1.0
176
     1
 92
        8
176
     1
 66
     7
176
     1
 43
1.0
176
     1
 76
     1
176
     1
 77
     6
176
     1
 78
     2
176
     1
 67
     7
176
     1
 79
     5
176
     1
170
     0
176
     1
171
     0
176
     1
290
     0
176
     1
 93
        1
176
     1
 44
0.0
176
     1
173
     0
176
     1
  0
VISUALSTYLE
  5
36
102
{ACAD_REACTORS
330
2A
102
}
330
2A
100
AcDbVisualStyle
  2
Brighten
 70
    12
177
     2
291
     1
 71
     2
176
     1
 72
     2
176
     1
 73
     0
176
     1
 90
        0
176
     1
 40
-0.6
176
     1
 41
-30.0
176
     1
 62
     5
 63
     7
421
 16777215
176
     1
 74
     1
176
     1
 91
        4
176
     1
 64
     7
176
     1
 65
   257
176
     1
 75
     1
176
     1
175
     1
176
     1
 42
1.0
176
     1
 92
        8
176
     1
 66
     7
176
     1
 43
1.0
176
     1
 76
     1
176
     1
 77
     6
176
     1
 78
     2
176
     1
 67
     7
176
     1
 79
     5
176
     1
170
     0
176
     1
171
     0
176
     1
290
     0
176
     1
 93
        1
176
     1
 44
50.0
176
     1
173
     0
176
     1
  0
VISUALSTYLE
  5
3A
102
{ACAD_REACTORS
330
2A
102
}
330
2A
100
AcDbVisualStyle
  2
ColorChange
 70
    16
177
     2
291
     1
 71
     2
176
     1
 72
     2
176
     1
 73
     3
176
     1
 90
        0
176
     1
 40
-0.6
176
     1
 41
-30.0
176
     1
 62
     5
 63
     8
421
  8421504
176
     1
 74
     1
176
     1
 91
        4
176
     1
 64
     7
176
     1
 65
   257
176
     1
 75
     1
176
     1
175
     1
176
     1
 42
1.0
176
     1
 92
        8
176
     1
 66
     8
424
  8421504
176
     1
 43
1.0
176
     1
 76
     1
176
     1
 77
     6
176
     1
 78
     2
176
     1
 67
     7
176
     1
 79
     5
176
     1
170
     0
176
     1
171
     0
176
     1
290
     0
176
     1
 93
        1
176
     1
 44
0.0
176
     1
173
     0
176
     1
  0
VISUALSTYLE
  5
34
102
{ACAD_REACTORS
330
2A
102
}
330
2A
100
AcDbVisualStyle
  2
Conceptual
 70
     9
177
     2
291
     0
 71
     3
176
     1
 72
     2
176
     1
 73
     0
176
     1
 90
        0
176
     1
 40
-0.6
176
     1
 41
-30.0
176
     1
 62
     5
 63
     7
421
 16777215
176
     1
 74
     2
176
     1
 91
        2
176
     1
 64
     7
176
     1
 65
   257
176
     1
 75
     1
176
     1
175
     1
176
     1
 42
40.0
176
     1
 92
        8
176
     1
 66
     7
176
     1
 43
1.0
176
     1
 76
     1
176
     1
 77
     6
176
     1
 78
     2
176
     1
 67
     7
176
     1
 79
     3
176
     1
170
     0
176
     1
171
     0
176
     1
290
     0
176
     1
 93
        1
176
     1
 44
0.0
176
     1
173
     0
176
     1
  0
VISUALSTYLE
  5
35
102
{ACAD_REACTORS
330
2A
102
}
330
2A
100
AcDbVisualStyle
  2
Dim
 70
    11
177
     2
291
     1
 71
     2
176
     1
 72
     2
176
     1
 73
     0
176
     1
 90
        0
176
     1
 40
-0.6
176
     1
 41
-30.0
176
     1
 62
     5
 63
     7
421
 16777215
176
     1
 74
     1
176
     1
 91
        4
176
     1
 64
     7
176
     1
 65
   257
176
     1
 75
     1
176
     1
175
     1
176
     1
 42
1.0
176
     1
 92
        8
176
     1
 66
     7
176
     1
 43
1.0
176
     1
 76
     1
176
     1
 77
     6
176
     1
 78
     2
176
     1
 67
     7
176
     1
 79
     5
176
     1
170
     0
176
     1
171
     0
176
     1
290
     0
176
     1
 93
        1
176
     1
 44
-50.0
176
     1
173
     0
176
     1
  0
VISUALSTYLE
  5
39
102
{ACAD_REACTORS
330
2A
102
}
330
2A
100
AcDbVisualStyle
  2
Facepattern
 70
    15
177
     2
291
     1
 71
     2
176
     1
 72
     2
176
     1
 73
     0
176
     1
 90
        0
176
     1
 40
-0.6
176
     1
 41
-30.0
176
     1
 62
     5
 63
     7
421
 16777215
176
     1
 74
     1
176
     1
 91
        4
176
     1
 64
     7
176
     1
 65
   257
176
     1
 75
     1
176
     1
175
     1
176
     1
 42
1.0
176
     1
 92
        8
176
     1
 66
     7
176
     1
 43
1.0
176
     1
 76
     1
176
     1
 77
     6
176
     1
 78
     2
176
     1
 67
     7
176
     1
 79
     5
176
     1
170
     0
176
     1
171
     0
176
     1
290
     0
176
     1
 93
        1
176
     1
 44
0.0
176
     1
173
     0
176
     1
  0
VISUALSTYLE
  5
2B
102
{ACAD_REACTORS
330
2A
102
}
330
2A
100
AcDbVisualStyle
  2
Flat
 70
     0
177
     2
291
     1
 71
     2
176
     1
 72
     1
176
     1
 73
     1
176
     1
 90
        2
176
     1
 40
-0.6
176
     1
 41
30.0
176
     1
 62
     5
 63
     7
421
 16777215
176
     1
 74
     0
176
     1
 91
        4
176
     1
 64
     7
176
     1
 65
   257
176
     1
 75
     1
176
     1
175
     1
176
     1
 42
1.0
176
     1
 92
        8
176
     1
 66
     7
176
     1
 43
1.0
176
     1
 76
     1
176
     1
 77
     6
176
     1
 78
     2
176
     1
 67
     7
176
     1
 79
     5
176
     1
170
     0
176
     1
171
     0
176
     1
290
     0
176
     1
 93
       13
176
     1
 44
0.0
176
     1
173
     0
176
     1
  0
VISUALSTYLE
  5
2C
102
{ACAD_REACTORS
330
2A
102
}
330
2A
100
AcDbVisualStyle
  2
FlatWithEdges
 70
     1
177
     2
291
     1
 71
     2
176
     1
 72
     1
176
     1
 73
     1
176
     1
 90
        2
176
     1
 40
-0.6
176
     1
 41
30.0
176
     1
 62
     5
 63
     7
421
 16777215
176
     1
 74
     1
176
     1
 91
        4
176
     1
 64
     7
176
     1
 65
   257
176
     1
 75
     1
176
     1
175
     1
176
     1
 42
1.0
176
     1
 92
        0
176
     1
 66
   257
176
     1
 43
1.0
176
     1
 76
     1
176
     1
 77
     6
176
     1
 78
     2
176
     1
 67
     7
176
     1
 79
     5
176
     1
170
     0
176
     1
171
     0
176
     1
290
     0
176
     1
 93
       13
176
     1
 44
0.0
176
     1
173
     0
176
     1
  0
VISUALSTYLE
  5
2D
102
{ACAD_REACTORS
330
2A
102
}
330
2A
100
AcDbVisualStyle
  2
Gouraud
 70
     2
177
     2
291
     1
 71
     2
176
     1
 72
     2
176
     1
 73
     1
176
     1
 90
        2
176
     1
 40
-0.6
176
     1
 41
30.0
176
     1
 62
     5
 63
     7
421
 16777215
176
     1
 74
     0
176
     1
 91
        4
176
     1
 64
     7
176
     1
 65
   257
176
     1
 75
     1
176
     1
175
     1
176
     1
 42
1.0
176
     1
 92
        0
176
     1
 66
     7
176
     1
 43
1.0
176
     1
 76
     1
176
     1
 77
     6
176
     1
 78
     2
176
     1
 67
     7
176
     1
 79
     5
176
     1
170
     0
176
     1
171
     0
176
     1
290
     0
176
     1
 93
       13
176
     1
 44
0.0
176
     1
173
     0
176
     1
  0
VISUALSTYLE
  5
2E
102
{ACAD_REACTORS
330
2A
102
}
330
2A
100
AcDbVisualStyle
  2
GouraudWithEdges
 70
     3
177
     2
291
     1
 71
     2
176
     1
 72
     2
176
     1
 73
     1
176
     1
 90
        2
176
     1
 40
-0.6
176
     1
 41
30.0
176
     1
 62
     5
 63
     7
421
 16777215
176
     1
 74
     1
176
     1
 91
        4
176
     1
 64
     7
176
     1
 65
   257
176
     1
 75
     1
176
     1
175
     1
176
     1
 42
1.0
176
     1
 92
        0
176
     1
 66
   257
176
     1
 43
1.0
176
     1
 76
     1
176
     1
 77
     6
176
     1
 78
     2
176
     1
 67
     7
176
     1
 79
     5
176
     1
170
     0
176
     1
171
     0
176
     1
290
     0
176
     1
 93
       13
176
     1
 44
0.0
176
     1
173
     0
176
     1
  0
VISUALSTYLE
  5
38
102
{ACAD_REACTORS
330
2A
102
}
330
2A
100
AcDbVisualStyle
  2
Linepattern
 70
    14
177
     2
291
     1
 71
     2
176
     1
 72
     2
176
     1
 73
     0
176
     1
 90
        0
176
     1
 40
-0.6
176
     1
 41
-30.0
176
     1
 62
     5
 63
     7
421
 16777215
176
     1
 74
     1
176
     1
 91
        4
176
     1
 64
     7
176
     1
 65
   257
176
     1
 75
     7
176
     1
175
     7
176
     1
 42
1.0
176
     1
 92
        8
176
     1
 66
     7
176
     1
 43
1.0
176
     1
 76
     1
176
     1
 77
     6
176
     1
 78
     2
176
     1
 67
     7
176
     1
 79
     5
176
     1
170
     0
176
     1
171
     0
176
     1
290
     0
176
     1
 93
        1
176
     1
 44
0.0
176
     1
173
     0
176
     1
  0
VISUALSTYLE
  5
33
102
{ACAD_REACTORS
330
2A
102
}
330
2A
100
AcDbVisualStyle
  2
Realistic
 70
     8
177
     2
291
     0
 71
     2
176
     1
 72
     2
176
     1
 73
     0
176
     1
 90
        0
176
     1
 40
-0.6
176
     1
 41
-30.0
176
     1
 62
     5
 63
     7
421
 16777215
176
     1
 74
     1
176
     1
 91
        0
176
     1
 64
     7
176
     1
 65
   257
176
     1
 75
     1
176
     1
175
     1
176
     1
 42
1.0
176
     1
 92
        8
176
     1
 66
     8
424
  7895160
176
     1
 43
1.0
176
     1
 76
     1
176
     1
 77
     6
176
     1
 78
     2
176
     1
 67
     7
176
     1
 79
     5
176
     1
170
     0
176
     1
171
     0
176
     1
290
     0
176
     1
 93
       13
176
     1
 44
0.0
176
     1
173
     0
176
     1
  0
VISUALSTYLE
  5
37
102
{ACAD_REACTORS
330
2A
102
}
330
2A
100
AcDbVisualStyle
  2
Thicken
 70
    13
177
     2
291
     1
 71
     2
176
     1
 72
     2
176
     1
 73
     0
176
     1
 90
        0
176
     1
 40
-0.6
176
     1
 41
-30.0
176
     1
 62
     5
 63
     7
421
 16777215
176
     1
 74
     1
176
     1
 91
        4
176
     1
 64
     7
176
     1
 65
   257
176
     1
 75
     1
176
     1
175
     1
176
     1
 42
1.0
176
     1
 92
       12
176
     1
 66
     7
176
     1
 43
1.0
176
     1
 76
     1
176
     1
 77
     6
176
     1
 78
     2
176
     1
 67
     7
176
     1
 79
     5
176
     1
170
     0
176
     1
171
     0
176
     1
290
     0
176
     1
 93
        1
176
     1
 44
0.0
176
     1
173
     0
176
     1
  0
ENDSEC
  0
EOF
