  0
SECTION
  2
HEADER
  9
$ACADVER
  1
AC1015
  9
$ACADMAINTVER
 70
     6
  9
$DWGCODEPAGE
  3
DOS850
  9
$INSBASE
 10
0.0
 20
0.0
 30
0.0
  9
$EXTMIN
 10
-5.60917
 20
2.80151
 30
1.000000E+20
  9
$EXTMAX
 10
8.84792
 20
8.96053
 30
-1.000000E+20
  9
$LIMMIN
 10
0.0
 20
0.0
  9
$LIMMAX
 10
0.0
 20
0.0
  9
$ORTHOMODE
 70
     0
  9
$REGENMODE
 70
     1
  9
$FILLMODE
 70
     1
  9
$QTEXTMODE
 70
     0
  9
$MIRRTEXT
 70
     1
  9
$LTSCALE
 40
1.0
  9
$ATTMODE
 70
     1
  9
$TEXTSIZE
 40
0.2
  9
$TRACEWID
 40
0.05
  9
$TEXTSTYLE
  7
Standard
  9
$CLAYER
  8
0
  9
$CELTYPE
  6
Continuous
  9
$CECOLOR
 62
   256
  9
$CELTSCALE
 40
1.0
  9
$DISPSILH
 70
     0
  9
$DIMSCALE
 40
1.0
  9
$DIMASZ
 40
0.18
  9
$DIMEXO
 40
0.0625
  9
$DIMDLI
 40
0.38
  9
$DIMRND
 40
0.0
  9
$DIMDLE
 40
0.0
  9
$DIMEXE
 40
0.18
  9
$DIMTP
 40
0.0
  9
$DIMTM
 40
0.0
  9
$DIMTXT
 40
0.18
  9
$DIMCEN
 40
0.09
  9
$DIMTSZ
 40
0.0
  9
$DIMTOL
 70
     0
  9
$DIMLIM
 70
     0
  9
$DIMTIH
 70
     1
  9
$DIMTOH
 70
     1
  9
$DIMSE1
 70
     0
  9
$DIMSE2
 70
     0
  9
$DIMTAD
 70
     0
  9
$DIMZIN
 70
     0
  9
$DIMBLK
  1

  9
$DIMASO
 70
     1
  9
$DIMSHO
 70
     1
  9
$DIMPOST
  1

  9
$DIMAPOST
  1

  9
$DIMALT
 70
     0
  9
$DIMALTD
 70
     2
  9
$DIMALTF
 40
25.4
  9
$DIMLFAC
 40
1.0
  9
$DIMTOFL
 70
     0
  9
$DIMTVP
 40
0.0
  9
$DIMTIX
 70
     0
  9
$DIMSOXD
 70
     0
  9
$DIMSAH
 70
     0
  9
$DIMBLK1
  1

  9
$DIMBLK2
  1

  9
$DIMSTYLE
  2
Standard
  9
$DIMCLRD
 70
     0
  9
$DIMCLRE
 70
     0
  9
$DIMCLRT
 70
     0
  9
$DIMTFAC
 40
1.0
  9
$DIMGAP
 40
0.09
  9
$DIMJUST
 70
     0
  9
$DIMSD1
 70
     0
  9
$DIMSD2
 70
     0
  9
$DIMTOLJ
 70
     1
  9
$DIMTZIN
 70
     0
  9
$DIMALTZ
 70
     0
  9
$DIMALTTZ
 70
     0
  9
$DIMUPT
 70
     0
  9
$DIMDEC
 70
     4
  9
$DIMTDEC
 70
     4
  9
$DIMALTU
 70
     2
  9
$DIMALTTD
 70
     2
  9
$DIMTXSTY
  7
Standard
  9
$DIMAUNIT
 70
     0
  9
$DIMADEC
 70
     0
  9
$DIMALTRND
 40
0.0
  9
$DIMAZIN
 70
     0
  9
$DIMDSEP
 70
     0
  9
$DIMATFIT
 70
     3
  9
$DIMFRAC
 70
     0
  9
$DIMLDRBLK
  1

  9
$DIMLUNIT
 70
     2
  9
$DIMLWD
 70
     0
  9
$DIMLWE
 70
     0
  9
$DIMTMOVE
 70
     0
  9
$LUNITS
 70
     2
  9
$LUPREC
 70
     4
  9
$SKETCHINC
 40
0.1
  9
$FILLETRAD
 40
0.0
  9
$AUNITS
 70
     0
  9
$AUPREC
 70
     0
  9
$MENU
  1
acad
  9
$ELEVATION
 40
0.0
  9
$PELEVATION
 40
0.0
  9
$THICKNESS
 40
0.0
  9
$LIMCHECK
 70
     0
  9
$CHAMFERA
 40
0.0
  9
$CHAMFERB
 40
0.0
  9
$CHAMFERC
 40
0.0
  9
$CHAMFERD
 40
0.0
  9
$SKPOLY
 70
     0
  9
$TDCREATE
 40
0.000000000
  9
$TDUCREATE
 40
0.000000000
  9
$TDUPDATE
 40
0.000000000
  9
$TDUUPDATE
 40
0.000000000
  9
$TDINDWG
 40
0.0000000000
  9
$TDUSRTIMER
 40
0.0000000000
  9
$USRTIMER
 70
     1
  9
$ANGBASE
 50
0.0
  9
$ANGDIR
 70
     0
  9
$PDMODE
 70
     0
  9
$PDSIZE
 40
0.0
  9
$PLINEWID
 40
0.0
  9
$SPLFRAME
 70
     0
  9
$SPLINETYPE
 70
     6
  9
$SPLINESEGS
 70
     8
  9
$HANDSEED
  5
33
  9
$SURFTAB1
 70
     6
  9
$SURFTAB2
 70
     6
  9
$SURFTYPE
 70
     6
  9
$SURFU
 70
     6
  9
$SURFV
 70
     6
  9
$UCSBASE
  2

  9
$UCSNAME
  2

  9
$UCSORG
 10
0.0
 20
0.0
 30
0.0
  9
$UCSXDIR
 10
1.0
 20
0.0
 30
0.0
  9
$UCSYDIR
 10
0.0
 20
1.0
 30
0.0
  9
$UCSORTHOREF
  2

  9
$UCSORTHOVIEW
 70
     0
  9
$UCSORGTOP
 10
0.0
 20
0.0
 30
0.0
  9
$UCSORGBOTTOM
 10
0.0
 20
0.0
 30
0.0
  9
$UCSORGLEFT
 10
0.0
 20
0.0
 30
0.0
  9
$UCSORGRIGHT
 10
0.0
 20
0.0
 30
0.0
  9
$UCSORGFRONT
 10
0.0
 20
0.0
 30
0.0
  9
$UCSORGBACK
 10
0.0
 20
0.0
 30
0.0
  9
$PUCSBASE
  2

  9
$PUCSNAME
  2

  9
$PUCSORG
 10
0.0
 20
0.0
 30
0.0
  9
$PUCSXDIR
 10
1.0
 20
0.0
 30
0.0
  9
$PUCSYDIR
 10
0.0
 20
1.0
 30
0.0
  9
$PUCSORTHOREF
  2

  9
$PUCSORTHOVIEW
 70
     0
  9
$PUCSORGTOP
 10
0.0
 20
0.0
 30
0.0
  9
$PUCSORGBOTTOM
 10
0.0
 20
0.0
 30
0.0
  9
$PUCSORGLEFT
 10
0.0
 20
0.0
 30
0.0
  9
$PUCSORGRIGHT
 10
0.0
 20
0.0
 30
0.0
  9
$PUCSORGFRONT
 10
0.0
 20
0.0
 30
0.0
  9
$PUCSORGBACK
 10
0.0
 20
0.0
 30
0.0
  9
$USERI1
 70
     0
  9
$USERI2
 70
     0
  9
$USERI3
 70
     0
  9
$USERI4
 70
     0
  9
$USERI5
 70
     0
  9
$USERR1
 40
0.0
  9
$USERR2
 40
0.0
  9
$USERR3
 40
0.0
  9
$USERR4
 40
0.0
  9
$USERR5
 40
0.0
  9
$WORLDVIEW
 70
     1
  9
$SHADEDGE
 70
     3
  9
$SHADEDIF
 70
    70
  9
$TILEMODE
 70
     1
  9
$MAXACTVP
 70
    16
  9
$PINSBASE
 10
0.0
 20
0.0
 30
0.0
  9
$PLIMCHECK
 70
     0
  9
$PEXTMIN
 10
1.000000E+20
 20
1.000000E+20
 30
1.000000E+20
  9
$PEXTMAX
 10
-1.000000E+20
 20
-1.000000E+20
 30
-1.000000E+20
  9
$PLIMMIN
 10
0.0
 20
0.0
  9
$PLIMMAX
 10
12.0
 20
9.0
  9
$UNITMODE
 70
     0
  9
$VISRETAIN
 70
     0
  9
$PLINEGEN
 70
     1
  9
$PSLTSCALE
 70
     0
  9
$TREEDEPTH
 70
  3020
  9
$CMLSTYLE
  2
Standard
  9
$CMLJUST
 70
     0
  9
$CMLSCALE
 40
1.0
  9
$PROXYGRAPHICS
 70
     0
  9
$MEASUREMENT
 70
     0
  9
$CELWEIGHT
370
     0
  9
$ENDCAPS
280
     0
  9
$JOINSTYLE
280
     0
  9
$LWDISPLAY
290
     0
  9
$INSUNITS
 70
     5
  9
$HYPERLINKBASE
  1

  9
$XEDIT
290
     1
  9
$CEPSNTYPE
380
     0
  9
$PSTYLEMODE
290
     1
  9
$FINGERPRINTGUID
  2

  9
$VERSIONGUID
  2

  9
$EXTNAMES
290
     1
  9
$PSVPSCALE
 40
0.0
  0
ENDSEC
  0
SECTION
  2
CLASSES
  0
CLASS
  1
LWPOLYLINE
  2
AcDbPolyline
  3
AutoCAD 2000
 90
    32768
280
     0
281
     1
  0
CLASS
  1
IMAGE
  2
AcDbRasterImage
  3
ISM
 90
    32895
280
     0
281
     1
  0
CLASS
  1
OLE2FRAME
  2
AcDbOle2Frame
  3
AutoCAD 2000
 90
    32768
280
     0
281
     1
  0
CLASS
  1
HATCH
  2
AcDbHatch
  3
AutoCAD 2000
 90
    32768
280
     0
281
     1
  0
CLASS
  1
DICTIONARYVAR
  2
AcDbDictionaryVar
  3
AutoCAD 2000
 90
    32768
280
     0
281
     0
  0
CLASS
  1
RASTERVARIABLES
  2
AcDbRasterVariables
  3
ISM
 90
    32768
280
     0
281
     0
  0
CLASS
  1
IMAGEDEF
  2
AcDbRasterImageDef
  3
ISM
 90
    32768
280
     0
281
     0
  0
CLASS
  1
IMAGEDEF_REACTOR
  2
AcDbRasterImageDefReactor
  3
ISM
 90
    32769
280
     0
281
     0
  0
CLASS
  1
IDBUFFER
  2
AcDbIdBuffer
  3
AutoCAD 2000
 90
    32768
280
     0
281
     0
  0
CLASS
  1
SPATIAL_FILTER
  2
AcDbSpatialFilter
  3
AutoCAD 2000
 90
    32768
280
     0
281
     0
  0
CLASS
  1
XRECORD
  2
AcDbXrecord
  3
AutoCAD 2000
 90
    32768
280
     0
281
     0
  0
CLASS
  1
SORTENTSTABLE
  2
AcDbSortentsTable
  3
AutoCAD 2000
 90
    32768
280
     0
281
     0
  0
CLASS
  1
LAYER_INDEX
  2
AcDbLayerIndex
  3
AutoCAD 2000
 90
    32768
280
     0
281
     0
  0
CLASS
  1
SPATIAL_INDEX
  2
AcDbSpatialIndex
  3
AutoCAD 2000
 90
    32768
280
     0
281
     0
  0
CLASS
  1
OBJECT_PTR
  2
CAseDLPNTableRecord
  3
"ASE-LPNTableRecord"
 90
    32769
280
     0
281
     0
  0
CLASS
  1
LAYOUT
  2
AcDbLayout
  3
AutoCAD 2000
 90
        0
280
     0
281
     0
  0
CLASS
  1
PLOTSETTINGS
  2
AcDbPlotSettings
  3
AutoCAD 2000
 90
    32768
280
     0
281
     0
  0
CLASS
  1
ACDBDICTIONARYWDFLT
  2
AcDbDictionaryWithDefault
  3
AutoCAD 2000
 90
        0
280
     0
281
     0
  0
CLASS
  1
ACDBPLACEHOLDER
  2
AcDbPlaceHolder
  3
AutoCAD 2000
 90
        0
280
     0
281
     0
  0
CLASS
  1
VBA_PROJECT
  2
AcDbVbaProject
  3
acadvba
 90
    32768
280
     0
281
     0
  0
CLASS
  1
WIPEOUT
  2
AcDbWipeout
  3
WipeOut|AutoCAD Express Tool|expresstools@autodesk.com
 90
    32895
280
     0
281
     1
  0
CLASS
  1
WIPEOUTVARIABLES
  2
AcDbWipeoutVariables
  3
WipeOut|AutoCAD Express Tool|expresstools@autodesk.com
 90
        0
280
     0
281
     0
  0
CLASS
  1
RTEXT
  2
RText
  3
RText|AutoCAD Express Tool|expresstools@autodesk.com
 90
    32768
280
     0
281
     1
  0
CLASS
  1
ARCALIGNEDTEXT
  2
AcDbArcAlignedText
  3
ATEXT|AutoCAD Express Tool|expresstools@autodesk.com
 90
    32768
280
     0
281
     1
  0
ENDSEC
  0
SECTION
  2
TABLES
  0
TABLE
  2
VPORT
  5
7
100
AcDbSymbolTable
 70
     1
  0
VPORT
  5
15
100
AcDbSymbolTableRecord
100
AcDbViewportTableRecord
  2
*ACTIVE
 70
     0
 10
0.0
 20
0.0
 11
1.0
 21
1.0
 12
6.591288
 22
4.579184
 13
0.0
 23
0.0
 14
1.0
 24
1.0
 15
0.0
 25
0.0
 16
0.0
 26
0.0
 36
1.0
 17
0.0
 27
0.0
 37
0.0
 40
9.158369
 41
0.688564
 42
50.0
 43
0.0
 44
0.0
 50
0.0
 51
0.0
 71
     0
 72
   100
 73
     1
 74
     1
 75
     0
 76
     0
 77
     0
 78
     0
281
     0
 65
     0
110
0.0
120
0.0
130
0.0
111
1.0
121
0.0
131
0.0
112
0.0
122
1.0
132
0.0
345
0
346
0
 79
     0
146
0.0
  0
ENDTAB
  0
TABLE
  2
LTYPE
  5
4
100
AcDbSymbolTable
 70
     3
  0
LTYPE
  5
11
100
AcDbSymbolTableRecord
100
AcDbLinetypeTableRecord
  2
ByBlock
 70
    64
  3

 72
    65
 73
     0
 40
0.0
  0
LTYPE
  5
12
100
AcDbSymbolTableRecord
100
AcDbLinetypeTableRecord
  2
ByLayer
 70
    64
  3

 72
    65
 73
     0
 40
0.0
  0
LTYPE
  5
13
100
AcDbSymbolTableRecord
100
AcDbLinetypeTableRecord
  2
Continuous
 70
    64
  3
Solid line
 72
    65
 73
     0
 40
0.0
  0
ENDTAB
  0
TABLE
  2
LAYER
  5
2
100
AcDbSymbolTable
 70
     2
  0
LAYER
  5
14
100
AcDbSymbolTableRecord
100
AcDbLayerTableRecord
  2
0
 70
     0
 62
     7
  6
Continuous
290
     1
370
    -3
390
1D
  0
LAYER
  5
24
100
AcDbSymbolTableRecord
100
AcDbLayerTableRecord
  2
Ebene 1
 70
     0
 62
     7
  6
Continuous
290
     1
370
    -3
390
1F
  0
ENDTAB
  0
TABLE
  2
STYLE
  5
3
100
AcDbSymbolTable
 70
     1
  0
STYLE
  5
17
100
AcDbSymbolTableRecord
100
AcDbTextStyleTableRecord
  2
Standard
 70
     0
 40
0.0
 41
1.0
 50
0.0
 71
     0
 42
0.0
  3
txt
  4

  0
ENDTAB
  0
TABLE
  2
VIEW
  5
5
100
AcDbSymbolTable
 70
     0
  0
ENDTAB
  0
TABLE
  2
UCS
  5
6
100
AcDbSymbolTable
 70
     0
  0
ENDTAB
  0
TABLE
  2
APPID
  5
8
100
AcDbSymbolTable
 70
     1
  0
APPID
  5
16
100
AcDbSymbolTableRecord
100
AcDbRegAppTableRecord
  2
ACAD
 70
     0
  0
ENDTAB
  0
TABLE
  2
DIMSTYLE
  5
9
100
AcDbSymbolTable
 70
     1
100
AcDbDimStyleTable
 71
     0
  0
DIMSTYLE
105
18
100
AcDbSymbolTableRecord
100
AcDbDimStyleTableRecord
  2
Standard
 70
     0
  3

  4

 40
1.0
 41
0.18
 42
0.0625
 43
0.38
 44
0.18
 45
0.0
 46
0.0
 47
0.0
 48
0.0
 71
     0
 72
     0
 73
     1
 74
     1
 75
     0
 76
     0
 77
     0
 78
     0
 79
     0
140
0.18
141
0.09
142
0.0
143
25.4
144
1.0
145
0.0
146
1.0
147
0.09
148
0.0
170
     0
171
     2
172
     0
173
     0
174
     0
175
     0
176
     0
177
     0
178
     0
179
     0
271
     4
272
     4
273
     2
274
     2
275
     0
276
     0
277
     2
278
    46
279
     0
280
     0
281
     0
282
     0
283
     1
284
     0
285
     0
286
     0
288
     0
340
17
341
0
342
0
343
0
344
0
371
    -2
372
    -2
  0
ENDTAB
  0
TABLE
  2
BLOCK_RECORD
  5
1
100
AcDbSymbolTable
 70
     0
  0
BLOCK_RECORD
  5
A
100
AcDbSymbolTableRecord
100
AcDbBlockTableRecord
  2
*MODEL_SPACE
340
20
  0
BLOCK_RECORD
  5
B
100
AcDbSymbolTableRecord
100
AcDbBlockTableRecord
  2
*PAPER_SPACE
340
21
  0
ENDTAB
  0
ENDSEC
  0
SECTION
  2
BLOCKS
  0
BLOCK
  5
D
100
AcDbEntity
  8
0
100
AcDbBlockBegin
  2
*MODEL_SPACE
 70
     0
 10
0.0
 20
0.0
 30
0.0
  3
*MODEL_SPACE
  1

  0
ENDBLK
  5
E
100
AcDbEntity
  8
0
100
AcDbBlockEnd
  0
BLOCK
  5
F
100
AcDbEntity
 67
     1
  8
0
100
AcDbBlockBegin
  2
*PAPER_SPACE
 70
     0
 10
0.0
 20
0.0
 30
0.0
  3
*PAPER_SPACE
  1

  0
ENDBLK
  5
10
100
AcDbEntity
 67
     1
  8
0
100
AcDbBlockEnd
  0
ENDSEC
  0
SECTION
  2
ENTITIES
  0
SPLINE
  5
25
100
AcDbEntity
  8
Ebene 1
 62
     1
100
AcDbSpline
210
0.0
220
0.0
230
1.0
 70
     1
 71
     3
 72
   272
 73
   268
 74
     0
 42
0.0000000001
 43
0.0000000001
 40
0.0
 40
0.0
 40
0.0
 40
0.0
 40
0.0149253731343284
 40
0.0149253731343284
 40
0.0149253731343284
 40
0.0149253731343284
 40
0.0298507462686567
 40
0.0298507462686567
 40
0.0298507462686567
 40
0.0298507462686567
 40
0.0447761194029851
 40
0.0447761194029851
 40
0.0447761194029851
 40
0.0447761194029851
 40
0.0597014925373134
 40
0.0597014925373134
 40
0.0597014925373134
 40
0.0597014925373134
 40
0.0746268656716418
 40
0.0746268656716418
 40
0.0746268656716418
 40
0.0746268656716418
 40
0.0895522388059701
 40
0.0895522388059701
 40
0.0895522388059701
 40
0.0895522388059701
 40
0.1044776119402985
 40
0.1044776119402985
 40
0.1044776119402985
 40
0.1044776119402985
 40
0.1194029850746269
 40
0.1194029850746269
 40
0.1194029850746269
 40
0.1194029850746269
 40
0.1343283582089552
 40
0.1343283582089552
 40
0.1343283582089552
 40
0.1343283582089552
 40
0.1492537313432836
 40
0.1492537313432836
 40
0.1492537313432836
 40
0.1492537313432836
 40
0.1641791044776119
 40
0.1641791044776119
 40
0.1641791044776119
 40
0.1641791044776119
 40
0.1791044776119403
 40
0.1791044776119403
 40
0.1791044776119403
 40
0.1791044776119403
 40
0.1940298507462686
 40
0.1940298507462686
 40
0.1940298507462686
 40
0.1940298507462686
 40
0.208955223880597
 40
0.208955223880597
 40
0.208955223880597
 40
0.208955223880597
 40
0.2238805970149253
 40
0.2238805970149253
 40
0.2238805970149253
 40
0.2238805970149253
 40
0.2388059701492536
 40
0.2388059701492536
 40
0.2388059701492536
 40
0.2388059701492536
 40
0.253731343283582
 40
0.253731343283582
 40
0.253731343283582
 40
0.253731343283582
 40
0.2686567164179103
 40
0.2686567164179103
 40
0.2686567164179103
 40
0.2686567164179103
 40
0.2835820895522387
 40
0.2835820895522387
 40
0.2835820895522387
 40
0.2835820895522387
 40
0.298507462686567
 40
0.298507462686567
 40
0.298507462686567
 40
0.298507462686567
 40
0.3134328358208954
 40
0.3134328358208954
 40
0.3134328358208954
 40
0.3134328358208954
 40
0.3283582089552237
 40
0.3283582089552237
 40
0.3283582089552237
 40
0.3283582089552237
 40
0.3432835820895521
 40
0.3432835820895521
 40
0.3432835820895521
 40
0.3432835820895521
 40
0.3582089552238804
 40
0.3582089552238804
 40
0.3582089552238804
 40
0.3582089552238804
 40
0.3731343283582088
 40
0.3731343283582088
 40
0.3731343283582088
 40
0.3731343283582088
 40
0.3880597014925371
 40
0.3880597014925371
 40
0.3880597014925371
 40
0.3880597014925371
 40
0.4029850746268655
 40
0.4029850746268655
 40
0.4029850746268655
 40
0.4029850746268655
 40
0.4179104477611938
 40
0.4179104477611938
 40
0.4179104477611938
 40
0.4179104477611938
 40
0.4328358208955221
 40
0.4328358208955221
 40
0.4328358208955221
 40
0.4328358208955221
 40
0.4477611940298505
 40
0.4477611940298505
 40
0.4477611940298505
 40
0.4477611940298505
 40
0.4626865671641788
 40
0.4626865671641788
 40
0.4626865671641788
 40
0.4626865671641788
 40
0.4776119402985072
 40
0.4776119402985072
 40
0.4776119402985072
 40
0.4776119402985072
 40
0.4925373134328355
 40
0.4925373134328355
 40
0.4925373134328355
 40
0.4925373134328355
 40
0.5074626865671639
 40
0.5074626865671639
 40
0.5074626865671639
 40
0.5074626865671639
 40
0.5223880597014923
 40
0.5223880597014923
 40
0.5223880597014923
 40
0.5223880597014923
 40
0.5373134328358207
 40
0.5373134328358207
 40
0.5373134328358207
 40
0.5373134328358207
 40
0.5522388059701491
 40
0.5522388059701491
 40
0.5522388059701491
 40
0.5522388059701491
 40
0.5671641791044775
 40
0.5671641791044775
 40
0.5671641791044775
 40
0.5671641791044775
 40
0.5820895522388059
 40
0.5820895522388059
 40
0.5820895522388059
 40
0.5820895522388059
 40
0.5970149253731343
 40
0.5970149253731343
 40
0.5970149253731343
 40
0.5970149253731343
 40
0.6119402985074627
 40
0.6119402985074627
 40
0.6119402985074627
 40
0.6119402985074627
 40
0.6268656716417911
 40
0.6268656716417911
 40
0.6268656716417911
 40
0.6268656716417911
 40
0.6417910447761195
 40
0.6417910447761195
 40
0.6417910447761195
 40
0.6417910447761195
 40
0.6567164179104479
 40
0.6567164179104479
 40
0.6567164179104479
 40
0.6567164179104479
 40
0.6716417910447763
 40
0.6716417910447763
 40
0.6716417910447763
 40
0.6716417910447763
 40
0.6865671641791047
 40
0.6865671641791047
 40
0.6865671641791047
 40
0.6865671641791047
 40
0.7014925373134331
 40
0.7014925373134331
 40
0.7014925373134331
 40
0.7014925373134331
 40
0.7164179104477615
 40
0.7164179104477615
 40
0.7164179104477615
 40
0.7164179104477615
 40
0.7313432835820899
 40
0.7313432835820899
 40
0.7313432835820899
 40
0.7313432835820899
 40
0.7462686567164183
 40
0.7462686567164183
 40
0.7462686567164183
 40
0.7462686567164183
 40
0.7611940298507467
 40
0.7611940298507467
 40
0.7611940298507467
 40
0.7611940298507467
 40
0.7761194029850751
 40
0.7761194029850751
 40
0.7761194029850751
 40
0.7761194029850751
 40
0.7910447761194035
 40
0.7910447761194035
 40
0.7910447761194035
 40
0.7910447761194035
 40
0.8059701492537319
 40
0.8059701492537319
 40
0.8059701492537319
 40
0.8059701492537319
 40
0.8208955223880603
 40
0.8208955223880603
 40
0.8208955223880603
 40
0.8208955223880603
 40
0.8358208955223887
 40
0.8358208955223887
 40
0.8358208955223887
 40
0.8358208955223887
 40
0.8507462686567171
 40
0.8507462686567171
 40
0.8507462686567171
 40
0.8507462686567171
 40
0.8656716417910455
 40
0.8656716417910455
 40
0.8656716417910455
 40
0.8656716417910455
 40
0.8805970149253739
 40
0.8805970149253739
 40
0.8805970149253739
 40
0.8805970149253739
 40
0.8955223880597023
 40
0.8955223880597023
 40
0.8955223880597023
 40
0.8955223880597023
 40
0.9104477611940307
 40
0.9104477611940307
 40
0.9104477611940307
 40
0.9104477611940307
 40
0.9253731343283591
 40
0.9253731343283591
 40
0.9253731343283591
 40
0.9253731343283591
 40
0.9402985074626875
 40
0.9402985074626875
 40
0.9402985074626875
 40
0.9402985074626875
 40
0.9552238805970159
 40
0.9552238805970159
 40
0.9552238805970159
 40
0.9552238805970159
 40
0.9701492537313443
 40
0.9701492537313443
 40
0.9701492537313443
 40
0.9701492537313443
 40
0.9850746268656727
 40
0.9850746268656727
 40
0.9850746268656727
 40
0.9850746268656727
 40
1.0
 40
1.0
 40
1.0
 40
1.0
 10
1.0985
 20
5.8547600000000006
 30
0.0
 10
1.0985
 20
5.8547600000000006
 30
0.0
 10
0.25717
 20
7.2229600000000005
 30
0.0
 10
-0.7456200000000001
 20
7.507480000000001
 30
0.0
 10
-0.7456200000000001
 20
7.507480000000001
 30
0.0
 10
-1.7484100000000002
 20
7.7919900000000002
 30
0.0
 10
-2.2221500000000001
 20
7.9202500000000002
 30
0.0
 10
-2.2072500000000002
 20
7.8982200000000002
 30
0.0
 10
-2.2072500000000002
 20
7.8982200000000002
 30
0.0
 10
-2.1923500000000002
 20
7.8761900000000002
 30
0.0
 10
-1.6335200000000001
 20
7.6506100000000004
 30
0.0
 10
-1.6335200000000001
 20
7.4837900000000008
 30
0.0
 10
-1.6335200000000001
 20
7.4837900000000008
 30
0.0
 10
-1.6335200000000001
 20
7.3169800000000009
 30
0.0
 10
-1.9613600000000002
 20
7.473650000000001
 30
0.0
 10
-2.3711700000000002
 20
7.771840000000001
 30
0.0
 10
-2.3711700000000002
 20
7.771840000000001
 30
0.0
 10
-2.9130600000000002
 20
8.1661400000000004
 30
0.0
 10
-3.3874700000000004
 20
8.4121300000000012
 30
0.0
 10
-3.9819400000000003
 20
8.5461900000000011
 30
0.0
 10
-3.9819400000000003
 20
8.5461900000000011
 30
0.0
 10
-3.9254400000000005
 20
8.4896900000000013
 30
0.0
 10
-3.8697200000000005
 20
8.4365900000000007
 30
0.0
 10
-3.8090000000000002
 20
8.3864800000000006
 30
0.0
 10
-3.8090000000000002
 20
8.3864800000000006
 30
0.0
 10
-3.3593800000000003
 20
8.2706499999999998
 30
0.0
 10
-3.0283000000000002
 20
8.1288700000000009
 30
0.0
 10
-2.65802
 20
7.8577400000000006
 30
0.0
 10
-2.65802
 20
7.8577400000000006
 30
0.0
 10
-2.2209100000000004
 20
7.5376600000000007
 30
0.0
 10
-2.1252900000000001
 20
7.271440000000001
 30
0.0
 10
-2.4804500000000003
 20
7.4045000000000005
 30
0.0
 10
-2.4804500000000003
 20
7.4045000000000005
 30
0.0
 10
-2.83562
 20
7.5375700000000005
 30
0.0
 10
-3.5322800000000001
 20
8.0733000000000015
 30
0.0
 10
-3.6552200000000004
 20
8.1794400000000014
 30
0.0
 10
-3.6552200000000004
 20
8.1794400000000014
 30
0.0
 10
-4.1722999999999999
 20
8.6258800000000004
 30
0.0
 10
-4.5731200000000003
 20
8.9260100000000016
 30
0.0
 10
-5.2124800000000002
 20
8.9577200000000001
 30
0.0
 10
-5.2124800000000002
 20
8.9577200000000001
 30
0.0
 10
-5.43642
 20
8.9688400000000001
 30
0.0
 10
-5.6204300000000007
 20
8.9441900000000008
 30
0.0
 10
-5.6086300000000007
 20
8.9340900000000012
 30
0.0
 10
-5.6086300000000007
 20
8.9340900000000012
 30
0.0
 10
-5.5968300000000006
 20
8.9239800000000002
 30
0.0
 10
-4.9293100000000001
 20
8.9085800000000006
 30
0.0
 10
-4.6570900000000002
 20
8.7891600000000007
 30
0.0
 10
-4.6570900000000002
 20
8.7891600000000007
 30
0.0
 10
-4.1850400000000008
 20
8.58202
 30
0.0
 10
-3.9773700000000005
 20
8.3383300000000009
 30
0.0
 10
-3.7098600000000004
 20
8.0867700000000013
 30
0.0
 10
-3.7098600000000004
 20
8.0867700000000013
 30
0.0
 10
-3.3820300000000003
 20
7.7784700000000004
 30
0.0
 10
-2.9722200000000001
 20
7.4196300000000006
 30
0.0
 10
-2.6033900000000001
 20
7.2528500000000005
 30
0.0
 10
-2.6033900000000001
 20
7.2528500000000005
 30
0.0
 10
-2.2345700000000002
 20
7.0860700000000003
 30
0.0
 10
-2.0842900000000002
 20
7.2006800000000002
 30
0.0
 10
-1.6881600000000001
 20
7.2091300000000009
 30
0.0
 10
-1.6881600000000001
 20
7.2091300000000009
 30
0.0
 10
-1.29203
 20
7.2176100000000005
 30
0.0
 10
-0.8412400000000001
 20
7.0609600000000006
 30
0.0
 10
-0.7592800000000001
 20
6.8739400000000002
 30
0.0
 10
-0.7592800000000001
 20
6.8739400000000002
 30
0.0
 10
-0.67732
 20
6.6869300000000003
 30
0.0
 10
-1.8520800000000002
 20
6.7946400000000002
 30
0.0
 10
-2.2755500000000004
 20
6.9293700000000005
 30
0.0
 10
-2.2755500000000004
 20
6.9293700000000005
 30
0.0
 10
-2.6990000000000003
 20
7.0641300000000005
 30
0.0
 10
-3.1361300000000001
 20
7.3690500000000005
 30
0.0
 10
-3.4776500000000001
 20
7.6807300000000005
 30
0.0
 10
-3.4776500000000001
 20
7.6807300000000005
 30
0.0
 10
-3.8191400000000004
 20
7.9924100000000005
 30
0.0
 10
-4.0843800000000003
 20
8.2121700000000004
 30
0.0
 10
-4.3870100000000001
 20
8.3365000000000009
 30
0.0
 10
-4.3870100000000001
 20
8.3365000000000009
 30
0.0
 10
-4.6896599999999999
 20
8.460840000000001
 30
0.0
 10
-4.90707
 20
8.4771999999999998
 30
0.0
 10
-4.8963400000000004
 20
8.4685900000000007
 30
0.0
 10
-4.8963400000000004
 20
8.4685900000000007
 30
0.0
 10
-4.8856000000000002
 20
8.4599900000000012
 30
0.0
 10
-4.29725
 20
8.2771000000000008
 30
0.0
 10
-3.9830600000000005
 20
8.0025000000000013
 30
0.0
 10
-3.9830600000000005
 20
8.0025000000000013
 30
0.0
 10
-3.6688800000000001
 20
7.7279000000000009
 30
0.0
 10
-3.4230100000000001
 20
7.4549600000000007
 30
0.0
 10
-3.2044300000000003
 20
7.2949200000000003
 30
0.0
 10
-3.2044300000000003
 20
7.2949200000000003
 30
0.0
 10
-2.9858800000000003
 20
7.1348700000000003
 30
0.0
 10
-2.5635800000000004
 20
6.7678000000000003
 30
0.0
 10
-2.0842900000000002
 20
6.7154200000000008
 30
0.0
 10
-2.0842900000000002
 20
6.7154200000000008
 30
0.0
 10
-1.6050500000000001
 20
6.6630300000000009
 30
0.0
 10
-0.6283300000000001
 20
6.755840000000001
 30
0.0
 10
-0.4860600000000001
 20
6.4577900000000001
 30
0.0
 10
-0.4860600000000001
 20
6.4577900000000001
 30
0.0
 10
-0.34382
 20
6.1597600000000003
 30
0.0
 10
-1.49692
 20
6.2976100000000006
 30
0.0
 10
-1.9886800000000002
 20
6.4643700000000006
 30
0.0
 10
-1.9886800000000002
 20
6.4643700000000006
 30
0.0
 10
-2.4804500000000003
 20
6.6311200000000001
 30
0.0
 10
-2.8922600000000003
 20
6.8879000000000001
 30
0.0
 10
-3.0951500000000003
 20
7.0556500000000009
 30
0.0
 10
-3.0951500000000003
 20
7.0556500000000009
 30
0.0
 10
-3.2980500000000004
 20
7.2234300000000005
 30
0.0
 10
-3.5275500000000002
 20
7.3868300000000007
 30
0.0
 10
-3.5322800000000001
 20
7.3605800000000006
 30
0.0
 10
-3.5322800000000001
 20
7.3605800000000006
 30
0.0
 10
-3.5370000000000004
 20
7.3343300000000005
 30
0.0
 10
-3.1634600000000002
 20
6.9511800000000008
 30
0.0
 10
-2.65802
 20
6.6749000000000009
 30
0.0
 10
-2.65802
 20
6.6749000000000009
 30
0.0
 10
-2.1526000000000001
 20
6.3986400000000003
 30
0.0
 10
-1.7428000000000001
 20
6.2065900000000003
 30
0.0
 10
-1.3330000000000002
 20
6.1207100000000008
 30
0.0
 10
-1.3330000000000002
 20
6.1207100000000008
 30
0.0
 10
-0.9231900000000001
 20
6.0348200000000007
 30
0.0
 10
-0.6183700000000001
 20
6.1191100000000009
 30
0.0
 10
-0.15394
 20
5.9590800000000002
 30
0.0
 10
-0.15394
 20
5.9590800000000002
 30
0.0
 10
0.06376
 20
5.8840800000000009
 30
0.0
 10
0.10499
 20
5.7201300000000002
 30
0.0
 10
-0.09188
 20
5.7099600000000006
 30
0.0
 10
-0.09188
 20
5.7099600000000006
 30
0.0
 10
-0.31501
 20
5.6984900000000005
 30
0.0
 10
-0.69342
 20
5.7514800000000008
 30
0.0
 10
-0.8822100000000001
 20
5.8080800000000004
 30
0.0
 10
-0.8822100000000001
 20
5.8080800000000004
 30
0.0
 10
-0.9965600000000001
 20
5.8423600000000002
 30
0.0
 10
-1.1175700000000002
 20
5.8837000000000002
 30
0.0
 10
-1.2333700000000001
 20
5.9184100000000006
 30
0.0
 10
-1.2333700000000001
 20
5.9184100000000006
 30
0.0
 10
-1.49763
 20
5.9975900000000006
 30
0.0
 10
-1.7291400000000001
 20
6.0970700000000004
 30
0.0
 10
-1.7291400000000001
 20
6.0970700000000004
 30
0.0
 10
-1.7291400000000001
 20
6.0970700000000004
 30
0.0
 10
-1.7291400000000001
 20
6.0970700000000004
 30
0.0
 10
-1.5726300000000002
 20
5.9107400000000005
 30
0.0
 10
-1.1085700000000001
 20
5.74648
 30
0.0
 10
-1.1085700000000001
 20
5.74648
 30
0.0
 10
-0.64454
 20
5.5822600000000007
 30
0.0
 10
-0.36313
 20
5.5631000000000004
 30
0.0
 10
-0.28117
 20
5.3609100000000005
 30
0.0
 10
-0.28117
 20
5.3609100000000005
 30
0.0
 10
-0.19921
 20
5.1587500000000004
 30
0.0
 10
-0.9368500000000001
 20
5.3254600000000005
 30
0.0
 10
-1.45594
 20
5.6657600000000006
 30
0.0
 10
-1.45594
 20
5.6657600000000006
 30
0.0
 10
-1.9750200000000002
 20
6.0060700000000002
 30
0.0
 10
-2.0187300000000001
 20
6.0562700000000005
 30
0.0
 10
-2.3774000000000002
 20
6.2361400000000007
 30
0.0
 10
-2.3774000000000002
 20
6.2361400000000007
 30
0.0
 10
-2.7360900000000004
 20
6.4160000000000004
 30
0.0
 10
-3.0541800000000001
 20
6.3934900000000008
 30
0.0
 10
-3.0541800000000001
 20
6.3934900000000008
 30
0.0
 10
-3.0541800000000001
 20
6.3934900000000008
 30
0.0
 10
-3.0541800000000001
 20
6.3934900000000008
 30
0.0
 10
-2.7671800000000002
 20
6.3411800000000005
 30
0.0
 10
-2.47207
 20
6.2066100000000004
 30
0.0
 10
-2.47207
 20
6.2066100000000004
 30
0.0
 10
-2.2275800000000001
 20
6.0951100000000009
 30
0.0
 10
-1.9824100000000002
 20
5.9174600000000002
 30
0.0
 10
-1.8462400000000001
 20
5.7533400000000006
 30
0.0
 10
-1.8462400000000001
 20
5.7533400000000006
 30
0.0
 10
-1.5457000000000001
 20
5.3911200000000008
 30
0.0
 10
-1.6745000000000001
 20
5.3405500000000004
 30
0.0
 10
-2.0296600000000002
 20
5.5191100000000004
 30
0.0
 10
-2.0296600000000002
 20
5.5191100000000004
 30
0.0
 10
-2.38483
 20
5.6976700000000005
 30
0.0
 10
-2.6853400000000001
 20
5.9992500000000009
 30
0.0
 10
-2.6853400000000001
 20
5.9992500000000009
 30
0.0
 10
-2.6853400000000001
 20
5.9992500000000009
 30
0.0
 10
-2.6853400000000001
 20
5.9992500000000009
 30
0.0
 10
-2.49411
 20
5.5881500000000006
 30
0.0
 10
-1.8930600000000002
 20
5.1973000000000003
 30
0.0
 10
-1.8930600000000002
 20
5.1973000000000003
 30
0.0
 10
-1.29203
 20
4.8064500000000008
 30
0.0
 10
-0.69098
 20
4.9008900000000004
 30
0.0
 10
-0.69098
 20
4.9008900000000004
 30
0.0
 10
-0.69098
 20
4.9008900000000004
 30
0.0
 10
-0.69098
 20
4.9008900000000004
 30
0.0
 10
-1.2592300000000001
 20
5.0050600000000003
 30
0.0
 10
-1.4231500000000001
 20
5.2274500000000002
 30
0.0
 10
-1.4231500000000001
 20
5.2274500000000002
 30
0.0
 10
-1.5870600000000001
 20
5.4498300000000004
 30
0.0
 10
-1.3876500000000001
 20
5.5332700000000008
 30
0.0
 10
-1.0871300000000002
 20
5.3226700000000005
 30
0.0
 10
-1.0871300000000002
 20
5.3226700000000005
 30
0.0
 10
-0.7866000000000001
 20
5.1120700000000001
 30
0.0
 10
-0.6332000000000001
 20
5.0322100000000001
 30
0.0
 10
-0.29171
 20
4.9783600000000003
 30
0.0
 10
-0.29171
 20
4.9783600000000003
 30
0.0
 10
0.04979
 20
4.9244500000000002
 30
0.0
 10
0.3335300000000001
 20
5.1335300000000004
 30
0.0
 10
0.3335300000000001
 20
5.1335300000000004
 30
0.0
 10
0.3335300000000001
 20
5.1335300000000004
 30
0.0
 10
0.38126
 20
5.1280200000000002
 30
0.0
 10
0.31844
 20
4.6847400000000006
 30
0.0
 10
-0.15823
 20
4.6937000000000006
 30
0.0
 10
-0.15823
 20
4.6937000000000006
 30
0.0
 10
-0.6224900000000001
 20
4.7024500000000007
 30
0.0
 10
-0.59536
 20
4.6346800000000004
 30
0.0
 10
-0.59536
 20
4.6346800000000004
 30
0.0
 10
-0.59536
 20
4.6346800000000004
 30
0.0
 10
-0.59536
 20
4.6346800000000004
 30
0.0
 10
-0.24019
 20
4.5319500000000001
 30
0.0
 10
0.04667
 20
4.3853900000000001
 30
0.0
 10
0.04667
 20
4.3853900000000001
 30
0.0
 10
0.3335300000000001
 20
4.23881
 30
0.0
 10
0.30621
 20
3.9726000000000004
 30
0.0
 10
0.04667
 20
3.8849600000000004
 30
0.0
 10
0.04667
 20
3.8849600000000004
 30
0.0
 10
-0.21287
 20
3.7973200000000005
 30
0.0
 10
-0.3855
 20
3.4001000000000001
 30
0.0
 10
-0.3358
 20
3.1755500000000003
 30
0.0
 10
-0.3358
 20
3.1755500000000003
 30
0.0
 10
-0.28611
 20
2.9510000000000001
 30
0.0
 10
-0.17527
 20
2.8023400000000001
 30
0.0
 10
-0.17189
 20
2.8015100000000004
 30
0.0
 10
-0.17189
 20
2.8015100000000004
 30
0.0
 10
-0.17189
 20
2.8015100000000004
 30
0.0
 10
-0.4860600000000001
 20
3.4249000000000005
 30
0.0
 10
0.01936
 20
3.5580600000000002
 30
0.0
 10
0.01936
 20
3.5580600000000002
 30
0.0
 10
0.5247700000000001
 20
3.6912400000000005
 30
0.0
 10
0.7334200000000001
 20
3.8465800000000003
 30
0.0
 10
0.81164
 20
4.1360700000000001
 30
0.0
 10
0.81164
 20
4.1360700000000001
 30
0.0
 10
0.88985
 20
4.4256000000000002
 30
0.0
 10
0.8867100000000001
 20
4.5610900000000001
 30
0.0
 10
0.8799400000000001
 20
4.5590300000000008
 30
0.0
 10
0.8799400000000001
 20
4.5590300000000008
 30
0.0
 10
0.8731600000000001
 20
4.5569300000000004
 30
0.0
 10
0.82528
 20
4.1933700000000007
 30
0.0
 10
0.4974500000000001
 20
4.3045400000000003
 30
0.0
 10
0.4974500000000001
 20
4.3045400000000003
 30
0.0
 10
0.16961
 20
4.4157100000000007
 30
0.0
 10
0.31987
 20
4.9094300000000004
 30
0.0
 10
0.67503
 20
4.9280000000000008
 30
0.0
 10
0.67503
 20
4.9280000000000008
 30
0.0
 10
1.0302
 20
4.9465700000000004
 30
0.0
 10
1.42056
 20
4.2135199999999999
 30
0.0
 10
1.00288
 20
3.9069700000000003
 30
0.0
 10
1.00288
 20
3.9069700000000003
 30
0.0
 10
0.5852000000000001
 20
3.6004000000000005
 30
0.0
 10
0.8269200000000001
 20
2.9433500000000001
 30
0.0
 10
0.8526100000000001
 20
2.8825100000000003
 30
0.0
 10
0.8526100000000001
 20
2.8825100000000003
 30
0.0
 10
0.87831
 20
2.8216700000000001
 30
0.0
 10
0.7671500000000001
 20
3.5903000000000005
 30
0.0
 10
1.0134100000000001
 20
3.7215300000000004
 30
0.0
 10
1.0134100000000001
 20
3.7215300000000004
 30
0.0
 10
1.2596900000000002
 20
3.8527100000000005
 30
0.0
 10
1.5641
 20
4.2637800000000006
 30
0.0
 10
1.29325
 20
4.6867400000000004
 30
0.0
 10
1.29325
 20
4.6867400000000004
 30
0.0
 10
1.0223900000000001
 20
5.1096600000000008
 30
0.0
 10
1.1531400000000001
 20
5.3408600000000002
 30
0.0
 10
1.23509
 20
5.2448400000000008
 30
0.0
 10
1.23509
 20
5.2448400000000008
 30
0.0
 10
1.3170600000000001
 20
5.14879
 30
0.0
 10
1.3443700000000001
 20
4.96007
 30
0.0
 10
1.3443700000000001
 20
4.96007
 30
0.0
 10
1.3443700000000001
 20
4.96007
 30
0.0
 10
1.42876
 20
5.2203100000000004
 30
0.0
 10
1.2854800000000002
 20
5.5406000000000004
 30
0.0
 10
1.0985
 20
5.8547600000000006
 30
0.0
  0
SPLINE
  5
26
100
AcDbEntity
  8
Ebene 1
 62
     1
100
AcDbSpline
210
0.0
220
0.0
230
1.0
 70
     1
 71
     3
 72
    68
 73
    64
 74
     0
 42
0.0000000001
 43
0.0000000001
 40
0.0
 40
0.0
 40
0.0
 40
0.0
 40
0.0625
 40
0.0625
 40
0.0625
 40
0.0625
 40
0.125
 40
0.125
 40
0.125
 40
0.125
 40
0.1875
 40
0.1875
 40
0.1875
 40
0.1875
 40
0.25
 40
0.25
 40
0.25
 40
0.25
 40
0.3125
 40
0.3125
 40
0.3125
 40
0.3125
 40
0.375
 40
0.375
 40
0.375
 40
0.375
 40
0.4375
 40
0.4375
 40
0.4375
 40
0.4375
 40
0.5
 40
0.5
 40
0.5
 40
0.5
 40
0.5625
 40
0.5625
 40
0.5625
 40
0.5625
 40
0.625
 40
0.625
 40
0.625
 40
0.625
 40
0.6875
 40
0.6875
 40
0.6875
 40
0.6875
 40
0.75
 40
0.75
 40
0.75
 40
0.75
 40
0.8125
 40
0.8125
 40
0.8125
 40
0.8125
 40
0.875
 40
0.875
 40
0.875
 40
0.875
 40
0.9375
 40
0.9375
 40
0.9375
 40
0.9375
 40
1.0
 40
1.0
 40
1.0
 40
1.0
 10
1.6133700000000002
 20
5.1172700000000004
 30
0.0
 10
1.6460500000000002
 20
5.1172700000000004
 30
0.0
 10
1.6743100000000002
 20
5.0870600000000001
 30
0.0
 10
1.6908800000000002
 20
5.0407200000000003
 30
0.0
 10
1.6908800000000002
 20
5.0407200000000003
 30
0.0
 10
1.70642
 20
4.9972400000000006
 30
0.0
 10
1.7104800000000002
 20
4.93771
 30
0.0
 10
1.7022900000000001
 20
4.8695700000000004
 30
0.0
 10
1.7022900000000001
 20
4.8695700000000004
 30
0.0
 10
1.6940900000000001
 20
4.8013600000000007
 30
0.0
 10
1.6763800000000002
 20
4.7314500000000006
 30
0.0
 10
1.6605000000000001
 20
4.6723400000000002
 30
0.0
 10
1.6605000000000001
 20
4.6723400000000002
 30
0.0
 10
1.6528800000000001
 20
4.6439500000000002
 30
0.0
 10
1.6459100000000002
 20
4.61822
 30
0.0
 10
1.6393600000000002
 20
4.5969900000000008
 30
0.0
 10
1.6393600000000002
 20
4.5969900000000008
 30
0.0
 10
1.6616200000000001
 20
4.5664000000000007
 30
0.0
 10
1.6804100000000002
 20
4.4972900000000005
 30
0.0
 10
1.6928100000000001
 20
4.4046200000000004
 30
0.0
 10
1.6928100000000001
 20
4.4046200000000004
 30
0.0
 10
1.7087600000000001
 20
4.2855600000000003
 30
0.0
 10
1.7129000000000001
 20
4.1224300000000005
 30
0.0
 10
1.7045300000000001
 20
3.9357400000000005
 30
0.0
 10
1.7045300000000001
 20
3.9357400000000005
 30
0.0
 10
1.6961200000000001
 20
3.7488400000000004
 30
0.0
 10
1.6779300000000001
 20
3.5573000000000001
 30
0.0
 10
1.6616500000000001
 20
3.3953100000000003
 30
0.0
 10
1.6616500000000001
 20
3.3953100000000003
 30
0.0
 10
1.6449200000000002
 20
3.2286000000000001
 30
0.0
 10
1.6313300000000002
 20
3.0954100000000002
 30
0.0
 10
1.6180200000000002
 20
3.0453600000000001
 30
0.0
 10
1.6180200000000002
 20
3.0453600000000001
 30
0.0
 10
1.6044500000000002
 20
3.0918000000000001
 30
0.0
 10
1.5900800000000002
 20
3.2263900000000003
 30
0.0
 10
1.5722800000000001
 20
3.3940000000000001
 30
0.0
 10
1.5722800000000001
 20
3.3940000000000001
 30
0.0
 10
1.5550300000000001
 20
3.5571200000000003
 30
0.0
 10
1.53573
 20
3.7488400000000004
 30
0.0
 10
1.5262200000000001
 20
3.9357400000000005
 30
0.0
 10
1.5262200000000001
 20
3.9357400000000005
 30
0.0
 10
1.5167000000000002
 20
4.1224300000000005
 30
0.0
 10
1.5198500000000001
 20
4.28545
 30
0.0
 10
1.5350400000000002
 20
4.4044100000000004
 30
0.0
 10
1.5350400000000002
 20
4.4044100000000004
 30
0.0
 10
1.5479100000000001
 20
4.5052500000000002
 30
0.0
 10
1.5685100000000001
 20
4.5781800000000006
 30
0.0
 10
1.59318
 20
4.6040600000000005
 30
0.0
 10
1.59318
 20
4.6040600000000005
 30
0.0
 10
1.58701
 20
4.6236900000000007
 30
0.0
 10
1.58047
 20
4.6467700000000001
 30
0.0
 10
1.57335
 20
4.6718600000000006
 30
0.0
 10
1.57335
 20
4.6718600000000006
 30
0.0
 10
1.5565100000000001
 20
4.7313900000000002
 30
0.0
 10
1.5377000000000001
 20
4.8013600000000007
 30
0.0
 10
1.52841
 20
4.8695700000000004
 30
0.0
 10
1.52841
 20
4.8695700000000004
 30
0.0
 10
1.5191300000000001
 20
4.93771
 30
0.0
 10
1.5221900000000002
 20
4.9972100000000008
 30
0.0
 10
1.5370200000000001
 20
5.0406500000000003
 30
0.0
 10
1.5370200000000001
 20
5.0406500000000003
 30
0.0
 10
1.5528400000000002
 20
5.0870600000000001
 30
0.0
 10
1.58067
 20
5.1172700000000004
 30
0.0
 10
1.6133700000000002
 20
5.1172700000000004
 30
0.0
  0
SPLINE
  5
27
100
AcDbEntity
  8
Ebene 1
 62
     1
100
AcDbSpline
210
0.0
220
0.0
230
1.0
 70
     1
 71
     3
 72
    44
 73
    40
 74
     0
 42
0.0000000001
 43
0.0000000001
 40
0.0
 40
0.0
 40
0.0
 40
0.0
 40
0.1
 40
0.1
 40
0.1
 40
0.1
 40
0.2
 40
0.2
 40
0.2
 40
0.2
 40
0.3
 40
0.3
 40
0.3
 40
0.3
 40
0.4
 40
0.4
 40
0.4
 40
0.4
 40
0.5
 40
0.5
 40
0.5
 40
0.5
 40
0.6
 40
0.6
 40
0.6
 40
0.6
 40
0.7
 40
0.7
 40
0.7
 40
0.7
 40
0.7999999999999999
 40
0.7999999999999999
 40
0.7999999999999999
 40
0.7999999999999999
 40
0.8999999999999999
 40
0.8999999999999999
 40
0.8999999999999999
 40
0.8999999999999999
 40
1.0
 40
1.0
 40
1.0
 40
1.0
 10
1.54512
 20
5.3411000000000008
 30
0.0
 10
1.5270700000000001
 20
5.3529500000000008
 30
0.0
 10
0.6988800000000001
 20
7.6952700000000007
 30
0.0
 10
0.4580400000000001
 20
7.854140000000001
 30
0.0
 10
0.4580400000000001
 20
7.854140000000001
 30
0.0
 10
0.30148
 20
7.9573700000000009
 30
0.0
 10
0.4342
 20
7.6944100000000004
 30
0.0
 10
0.4745200000000001
 20
7.6471800000000005
 30
0.0
 10
0.4745200000000001
 20
7.6471800000000005
 30
0.0
 10
0.5148
 20
7.5999300000000005
 30
0.0
 10
0.60626
 20
7.4500800000000007
 30
0.0
 10
0.60626
 20
7.4500800000000007
 30
0.0
 10
0.60626
 20
7.4500800000000007
 30
0.0
 10
0.5980500000000001
 20
7.4433800000000003
 30
0.0
 10
0.32769
 20
7.7204900000000007
 30
0.0
 10
0.26038
 20
7.9034200000000006
 30
0.0
 10
0.26038
 20
7.9034200000000006
 30
0.0
 10
0.19307
 20
8.0863200000000006
 30
0.0
 10
0.40862
 20
8.0118200000000002
 30
0.0
 10
0.40862
 20
8.0118200000000002
 30
0.0
 10
0.40862
 20
8.0118200000000002
 30
0.0
 10
0.40862
 20
8.0118200000000002
 30
0.0
 10
0.32266
 20
8.2244700000000002
 30
0.0
 10
0.23163
 20
8.2137100000000007
 30
0.0
 10
0.23163
 20
8.2137100000000007
 30
0.0
 10
0.14061
 20
8.2029600000000009
 30
0.0
 10
0.20432
 20
8.0177800000000001
 30
0.0
 10
0.20432
 20
8.0177800000000001
 30
0.0
 10
0.20432
 20
8.0177800000000001
 30
0.0
 10
0.20432
 20
8.0177800000000001
 30
0.0
 10
0.10392
 20
8.1694900000000015
 30
0.0
 10
0.15334
 20
8.2384700000000013
 30
0.0
 10
0.15334
 20
8.2384700000000013
 30
0.0
 10
0.20272
 20
8.3074600000000007
 30
0.0
 10
0.3262600000000001
 20
8.3961600000000001
 30
0.0
 10
0.62273
 20
7.7358900000000004
 30
0.0
 10
0.62273
 20
7.7358900000000004
 30
0.0
 10
0.9192100000000001
 20
7.0755800000000004
 30
0.0
 10
1.54512
 20
5.3411000000000008
 30
0.0
 10
1.54512
 20
5.3411000000000008
 30
0.0
  0
SPLINE
  5
28
100
AcDbEntity
  8
Ebene 1
 62
     1
100
AcDbSpline
210
0.0
220
0.0
230
1.0
 70
     1
 71
     3
 72
    44
 73
    40
 74
     0
 42
0.0000000001
 43
0.0000000001
 40
0.0
 40
0.0
 40
0.0
 40
0.0
 40
0.1
 40
0.1
 40
0.1
 40
0.1
 40
0.2
 40
0.2
 40
0.2
 40
0.2
 40
0.3
 40
0.3
 40
0.3
 40
0.3
 40
0.4
 40
0.4
 40
0.4
 40
0.4
 40
0.5
 40
0.5
 40
0.5
 40
0.5
 40
0.6
 40
0.6
 40
0.6
 40
0.6
 40
0.7
 40
0.7
 40
0.7
 40
0.7
 40
0.7999999999999999
 40
0.7999999999999999
 40
0.7999999999999999
 40
0.7999999999999999
 40
0.8999999999999999
 40
0.8999999999999999
 40
0.8999999999999999
 40
0.8999999999999999
 40
1.0
 40
1.0
 40
1.0
 40
1.0
 10
1.6671100000000001
 20
5.3411000000000008
 30
0.0
 10
1.6851700000000001
 20
5.3529500000000008
 30
0.0
 10
2.5133300000000003
 20
7.6952700000000007
 30
0.0
 10
2.7541800000000003
 20
7.854140000000001
 30
0.0
 10
2.7541800000000003
 20
7.854140000000001
 30
0.0
 10
2.9107600000000002
 20
7.9573700000000009
 30
0.0
 10
2.7780200000000002
 20
7.6944100000000004
 30
0.0
 10
2.7377100000000003
 20
7.6471800000000005
 30
0.0
 10
2.7377100000000003
 20
7.6471800000000005
 30
0.0
 10
2.6974
 20
7.5999300000000005
 30
0.0
 10
2.6059300000000003
 20
7.4500800000000007
 30
0.0
 10
2.6059300000000003
 20
7.4500800000000007
 30
0.0
 10
2.6059300000000003
 20
7.4500800000000007
 30
0.0
 10
2.6141700000000001
 20
7.4433800000000003
 30
0.0
 10
2.8845400000000003
 20
7.7204900000000007
 30
0.0
 10
2.9518200000000001
 20
7.9034200000000006
 30
0.0
 10
2.9518200000000001
 20
7.9034200000000006
 30
0.0
 10
3.0191400000000002
 20
8.0863200000000006
 30
0.0
 10
2.8036200000000004
 20
8.0118200000000002
 30
0.0
 10
2.8036200000000004
 20
8.0118200000000002
 30
0.0
 10
2.8036200000000004
 20
8.0118200000000002
 30
0.0
 10
2.8036200000000004
 20
8.0118200000000002
 30
0.0
 10
2.8895300000000002
 20
8.2244700000000002
 30
0.0
 10
2.9805900000000003
 20
8.2137100000000007
 30
0.0
 10
2.9805900000000003
 20
8.2137100000000007
 30
0.0
 10
3.0716100000000002
 20
8.2029600000000009
 30
0.0
 10
3.00787
 20
8.0177800000000001
 30
0.0
 10
3.00787
 20
8.0177800000000001
 30
0.0
 10
3.00787
 20
8.0177800000000001
 30
0.0
 10
3.00787
 20
8.0177800000000001
 30
0.0
 10
3.1083000000000003
 20
8.1694900000000015
 30
0.0
 10
3.0589000000000004
 20
8.2384700000000013
 30
0.0
 10
3.0589000000000004
 20
8.2384700000000013
 30
0.0
 10
3.0094900000000004
 20
8.3074600000000007
 30
0.0
 10
2.8859500000000002
 20
8.3961600000000001
 30
0.0
 10
2.5894700000000004
 20
7.7358900000000004
 30
0.0
 10
2.5894700000000004
 20
7.7358900000000004
 30
0.0
 10
2.29298
 20
7.0755800000000004
 30
0.0
 10
1.6671100000000001
 20
5.3411000000000008
 30
0.0
 10
1.6671100000000001
 20
5.3411000000000008
 30
0.0
  0
SPLINE
  5
29
100
AcDbEntity
  8
Ebene 1
 62
     1
100
AcDbSpline
210
0.0
220
0.0
230
1.0
 70
     1
 71
     3
 72
    36
 73
    32
 74
     0
 42
0.0000000001
 43
0.0000000001
 40
0.0
 40
0.0
 40
0.0
 40
0.0
 40
0.125
 40
0.125
 40
0.125
 40
0.125
 40
0.25
 40
0.25
 40
0.25
 40
0.25
 40
0.375
 40
0.375
 40
0.375
 40
0.375
 40
0.5
 40
0.5
 40
0.5
 40
0.5
 40
0.625
 40
0.625
 40
0.625
 40
0.625
 40
0.75
 40
0.75
 40
0.75
 40
0.75
 40
0.875
 40
0.875
 40
0.875
 40
0.875
 40
1.0
 40
1.0
 40
1.0
 40
1.0
 10
1.6092000000000002
 20
5.3221500000000006
 30
0.0
 10
1.62704
 20
5.3221500000000006
 30
0.0
 10
1.6430500000000001
 20
5.3119500000000004
 30
0.0
 10
1.6558600000000001
 20
5.2964800000000007
 30
0.0
 10
1.6558600000000001
 20
5.2964800000000007
 30
0.0
 10
1.6692800000000001
 20
5.2802900000000008
 30
0.0
 10
1.68144
 20
5.2587600000000005
 30
0.0
 10
1.6882300000000001
 20
5.2347100000000006
 30
0.0
 10
1.6882300000000001
 20
5.2347100000000006
 30
0.0
 10
1.6971500000000002
 20
5.2106000000000003
 30
0.0
 10
1.6970100000000001
 20
5.1880700000000006
 30
0.0
 10
1.6851700000000001
 20
5.1728700000000005
 30
0.0
 10
1.6851700000000001
 20
5.1728700000000005
 30
0.0
 10
1.6722100000000002
 20
5.1563700000000008
 30
0.0
 10
1.6457200000000001
 20
5.1472500000000005
 30
0.0
 10
1.61331
 20
5.1472500000000005
 30
0.0
 10
1.61331
 20
5.1472500000000005
 30
0.0
 10
1.5809300000000002
 20
5.1472500000000005
 30
0.0
 10
1.5535600000000001
 20
5.1563000000000008
 30
0.0
 10
1.5393000000000001
 20
5.1728700000000005
 30
0.0
 10
1.5393000000000001
 20
5.1728700000000005
 30
0.0
 10
1.52627
 20
5.1880000000000006
 30
0.0
 10
1.5247100000000002
 20
5.2106000000000003
 30
0.0
 10
1.5323600000000002
 20
5.2347100000000006
 30
0.0
 10
1.5323600000000002
 20
5.2347100000000006
 30
0.0
 10
1.5381400000000001
 20
5.2587600000000005
 30
0.0
 10
1.5496800000000002
 20
5.2803300000000002
 30
0.0
 10
1.5627900000000001
 20
5.2964800000000007
 30
0.0
 10
1.5627900000000001
 20
5.2964800000000007
 30
0.0
 10
1.5754500000000002
 20
5.3119900000000007
 30
0.0
 10
1.5914200000000001
 20
5.3221500000000006
 30
0.0
 10
1.6092000000000002
 20
5.3221500000000006
 30
0.0
  0
SPLINE
  5
2A
100
AcDbEntity
  8
Ebene 1
 62
     1
100
AcDbSpline
210
0.0
220
0.0
230
1.0
 70
     1
 71
     3
 72
   272
 73
   268
 74
     0
 42
0.0000000001
 43
0.0000000001
 40
0.0
 40
0.0
 40
0.0
 40
0.0
 40
0.0149253731343284
 40
0.0149253731343284
 40
0.0149253731343284
 40
0.0149253731343284
 40
0.0298507462686567
 40
0.0298507462686567
 40
0.0298507462686567
 40
0.0298507462686567
 40
0.0447761194029851
 40
0.0447761194029851
 40
0.0447761194029851
 40
0.0447761194029851
 40
0.0597014925373134
 40
0.0597014925373134
 40
0.0597014925373134
 40
0.0597014925373134
 40
0.0746268656716418
 40
0.0746268656716418
 40
0.0746268656716418
 40
0.0746268656716418
 40
0.0895522388059701
 40
0.0895522388059701
 40
0.0895522388059701
 40
0.0895522388059701
 40
0.1044776119402985
 40
0.1044776119402985
 40
0.1044776119402985
 40
0.1044776119402985
 40
0.1194029850746269
 40
0.1194029850746269
 40
0.1194029850746269
 40
0.1194029850746269
 40
0.1343283582089552
 40
0.1343283582089552
 40
0.1343283582089552
 40
0.1343283582089552
 40
0.1492537313432836
 40
0.1492537313432836
 40
0.1492537313432836
 40
0.1492537313432836
 40
0.1641791044776119
 40
0.1641791044776119
 40
0.1641791044776119
 40
0.1641791044776119
 40
0.1791044776119403
 40
0.1791044776119403
 40
0.1791044776119403
 40
0.1791044776119403
 40
0.1940298507462686
 40
0.1940298507462686
 40
0.1940298507462686
 40
0.1940298507462686
 40
0.208955223880597
 40
0.208955223880597
 40
0.208955223880597
 40
0.208955223880597
 40
0.2238805970149253
 40
0.2238805970149253
 40
0.2238805970149253
 40
0.2238805970149253
 40
0.2388059701492536
 40
0.2388059701492536
 40
0.2388059701492536
 40
0.2388059701492536
 40
0.253731343283582
 40
0.253731343283582
 40
0.253731343283582
 40
0.253731343283582
 40
0.2686567164179103
 40
0.2686567164179103
 40
0.2686567164179103
 40
0.2686567164179103
 40
0.2835820895522387
 40
0.2835820895522387
 40
0.2835820895522387
 40
0.2835820895522387
 40
0.298507462686567
 40
0.298507462686567
 40
0.298507462686567
 40
0.298507462686567
 40
0.3134328358208954
 40
0.3134328358208954
 40
0.3134328358208954
 40
0.3134328358208954
 40
0.3283582089552237
 40
0.3283582089552237
 40
0.3283582089552237
 40
0.3283582089552237
 40
0.3432835820895521
 40
0.3432835820895521
 40
0.3432835820895521
 40
0.3432835820895521
 40
0.3582089552238804
 40
0.3582089552238804
 40
0.3582089552238804
 40
0.3582089552238804
 40
0.3731343283582088
 40
0.3731343283582088
 40
0.3731343283582088
 40
0.3731343283582088
 40
0.3880597014925371
 40
0.3880597014925371
 40
0.3880597014925371
 40
0.3880597014925371
 40
0.4029850746268655
 40
0.4029850746268655
 40
0.4029850746268655
 40
0.4029850746268655
 40
0.4179104477611938
 40
0.4179104477611938
 40
0.4179104477611938
 40
0.4179104477611938
 40
0.4328358208955221
 40
0.4328358208955221
 40
0.4328358208955221
 40
0.4328358208955221
 40
0.4477611940298505
 40
0.4477611940298505
 40
0.4477611940298505
 40
0.4477611940298505
 40
0.4626865671641788
 40
0.4626865671641788
 40
0.4626865671641788
 40
0.4626865671641788
 40
0.4776119402985072
 40
0.4776119402985072
 40
0.4776119402985072
 40
0.4776119402985072
 40
0.4925373134328355
 40
0.4925373134328355
 40
0.4925373134328355
 40
0.4925373134328355
 40
0.5074626865671639
 40
0.5074626865671639
 40
0.5074626865671639
 40
0.5074626865671639
 40
0.5223880597014923
 40
0.5223880597014923
 40
0.5223880597014923
 40
0.5223880597014923
 40
0.5373134328358207
 40
0.5373134328358207
 40
0.5373134328358207
 40
0.5373134328358207
 40
0.5522388059701491
 40
0.5522388059701491
 40
0.5522388059701491
 40
0.5522388059701491
 40
0.5671641791044775
 40
0.5671641791044775
 40
0.5671641791044775
 40
0.5671641791044775
 40
0.5820895522388059
 40
0.5820895522388059
 40
0.5820895522388059
 40
0.5820895522388059
 40
0.5970149253731343
 40
0.5970149253731343
 40
0.5970149253731343
 40
0.5970149253731343
 40
0.6119402985074627
 40
0.6119402985074627
 40
0.6119402985074627
 40
0.6119402985074627
 40
0.6268656716417911
 40
0.6268656716417911
 40
0.6268656716417911
 40
0.6268656716417911
 40
0.6417910447761195
 40
0.6417910447761195
 40
0.6417910447761195
 40
0.6417910447761195
 40
0.6567164179104479
 40
0.6567164179104479
 40
0.6567164179104479
 40
0.6567164179104479
 40
0.6716417910447763
 40
0.6716417910447763
 40
0.6716417910447763
 40
0.6716417910447763
 40
0.6865671641791047
 40
0.6865671641791047
 40
0.6865671641791047
 40
0.6865671641791047
 40
0.7014925373134331
 40
0.7014925373134331
 40
0.7014925373134331
 40
0.7014925373134331
 40
0.7164179104477615
 40
0.7164179104477615
 40
0.7164179104477615
 40
0.7164179104477615
 40
0.7313432835820899
 40
0.7313432835820899
 40
0.7313432835820899
 40
0.7313432835820899
 40
0.7462686567164183
 40
0.7462686567164183
 40
0.7462686567164183
 40
0.7462686567164183
 40
0.7611940298507467
 40
0.7611940298507467
 40
0.7611940298507467
 40
0.7611940298507467
 40
0.7761194029850751
 40
0.7761194029850751
 40
0.7761194029850751
 40
0.7761194029850751
 40
0.7910447761194035
 40
0.7910447761194035
 40
0.7910447761194035
 40
0.7910447761194035
 40
0.8059701492537319
 40
0.8059701492537319
 40
0.8059701492537319
 40
0.8059701492537319
 40
0.8208955223880603
 40
0.8208955223880603
 40
0.8208955223880603
 40
0.8208955223880603
 40
0.8358208955223887
 40
0.8358208955223887
 40
0.8358208955223887
 40
0.8358208955223887
 40
0.8507462686567171
 40
0.8507462686567171
 40
0.8507462686567171
 40
0.8507462686567171
 40
0.8656716417910455
 40
0.8656716417910455
 40
0.8656716417910455
 40
0.8656716417910455
 40
0.8805970149253739
 40
0.8805970149253739
 40
0.8805970149253739
 40
0.8805970149253739
 40
0.8955223880597023
 40
0.8955223880597023
 40
0.8955223880597023
 40
0.8955223880597023
 40
0.9104477611940307
 40
0.9104477611940307
 40
0.9104477611940307
 40
0.9104477611940307
 40
0.9253731343283591
 40
0.9253731343283591
 40
0.9253731343283591
 40
0.9253731343283591
 40
0.9402985074626875
 40
0.9402985074626875
 40
0.9402985074626875
 40
0.9402985074626875
 40
0.9552238805970159
 40
0.9552238805970159
 40
0.9552238805970159
 40
0.9552238805970159
 40
0.9701492537313443
 40
0.9701492537313443
 40
0.9701492537313443
 40
0.9701492537313443
 40
0.9850746268656727
 40
0.9850746268656727
 40
0.9850746268656727
 40
0.9850746268656727
 40
1.0
 40
1.0
 40
1.0
 40
1.0
 10
2.1402300000000003
 20
5.8547600000000006
 30
0.0
 10
2.1402300000000003
 20
5.8547600000000006
 30
0.0
 10
2.9815500000000004
 20
7.2229600000000005
 30
0.0
 10
3.9843500000000005
 20
7.507480000000001
 30
0.0
 10
3.9843500000000005
 20
7.507480000000001
 30
0.0
 10
4.9871500000000006
 20
7.7919900000000002
 30
0.0
 10
5.46089
 20
7.9202500000000002
 30
0.0
 10
5.4460000000000006
 20
7.8982200000000002
 30
0.0
 10
5.4460000000000006
 20
7.8982200000000002
 30
0.0
 10
5.4310800000000006
 20
7.8761900000000002
 30
0.0
 10
4.8722500000000002
 20
7.6506100000000004
 30
0.0
 10
4.8722500000000002
 20
7.4837900000000008
 30
0.0
 10
4.8722500000000002
 20
7.4837900000000008
 30
0.0
 10
4.8722500000000002
 20
7.3169800000000009
 30
0.0
 10
5.2001300000000006
 20
7.473650000000001
 30
0.0
 10
5.6099200000000007
 20
7.771840000000001
 30
0.0
 10
5.6099200000000007
 20
7.771840000000001
 30
0.0
 10
6.1518000000000006
 20
8.1661400000000004
 30
0.0
 10
6.6262200000000009
 20
8.4121300000000012
 30
0.0
 10
7.2206800000000007
 20
8.5461900000000011
 30
0.0
 10
7.2206800000000007
 20
8.5461900000000011
 30
0.0
 10
7.1641700000000004
 20
8.4896900000000013
 30
0.0
 10
7.1084700000000005
 20
8.4365900000000007
 30
0.0
 10
7.0477300000000005
 20
8.3864800000000006
 30
0.0
 10
7.0477300000000005
 20
8.3864800000000006
 30
0.0
 10
6.5981500000000004
 20
8.2706499999999998
 30
0.0
 10
6.2670400000000006
 20
8.1288700000000009
 30
0.0
 10
5.8967900000000002
 20
7.8577400000000006
 30
0.0
 10
5.8967900000000002
 20
7.8577400000000006
 30
0.0
 10
5.4596400000000003
 20
7.5376600000000007
 30
0.0
 10
5.3640400000000001
 20
7.271440000000001
 30
0.0
 10
5.7192000000000007
 20
7.4045000000000005
 30
0.0
 10
5.7192000000000007
 20
7.4045000000000005
 30
0.0
 10
6.0743500000000008
 20
7.5375700000000005
 30
0.0
 10
6.7710200000000009
 20
8.0733000000000015
 30
0.0
 10
6.8939700000000004
 20
8.1794400000000014
 30
0.0
 10
6.8939700000000004
 20
8.1794400000000014
 30
0.0
 10
7.4110500000000004
 20
8.6258800000000004
 30
0.0
 10
7.8118500000000006
 20
8.9260100000000016
 30
0.0
 10
8.4512300000000007
 20
8.9577200000000001
 30
0.0
 10
8.4512300000000007
 20
8.9577200000000001
 30
0.0
 10
8.6751900000000006
 20
8.9688400000000001
 30
0.0
 10
8.859160000000001
 20
8.9441900000000008
 30
0.0
 10
8.8473800000000011
 20
8.9340900000000012
 30
0.0
 10
8.8473800000000011
 20
8.9340900000000012
 30
0.0
 10
8.835560000000001
 20
8.9239800000000002
 30
0.0
 10
8.1680400000000013
 20
8.9085800000000006
 30
0.0
 10
7.8958400000000006
 20
8.7891600000000007
 30
0.0
 10
7.8958400000000006
 20
8.7891600000000007
 30
0.0
 10
7.4238000000000008
 20
8.58202
 30
0.0
 10
7.2161300000000006
 20
8.3383300000000009
 30
0.0
 10
6.9486200000000009
 20
8.0867700000000013
 30
0.0
 10
6.9486200000000009
 20
8.0867700000000013
 30
0.0
 10
6.6207800000000008
 20
7.7784700000000004
 30
0.0
 10
6.2109500000000004
 20
7.4196300000000006
 30
0.0
 10
5.8421500000000002
 20
7.2528500000000005
 30
0.0
 10
5.8421500000000002
 20
7.2528500000000005
 30
0.0
 10
5.4733200000000002
 20
7.0860700000000003
 30
0.0
 10
5.3230400000000007
 20
7.2006800000000002
 30
0.0
 10
4.9269000000000007
 20
7.2091300000000009
 30
0.0
 10
4.9269000000000007
 20
7.2091300000000009
 30
0.0
 10
4.5307400000000007
 20
7.2176100000000005
 30
0.0
 10
4.0799900000000004
 20
7.0609600000000006
 30
0.0
 10
3.9980300000000004
 20
6.8739400000000002
 30
0.0
 10
3.9980300000000004
 20
6.8739400000000002
 30
0.0
 10
3.9160700000000004
 20
6.6869300000000003
 30
0.0
 10
5.0908100000000003
 20
6.7946400000000002
 30
0.0
 10
5.5142800000000003
 20
6.9293700000000005
 30
0.0
 10
5.5142800000000003
 20
6.9293700000000005
 30
0.0
 10
5.9377600000000008
 20
7.0641300000000005
 30
0.0
 10
6.3749000000000002
 20
7.3690500000000005
 30
0.0
 10
6.7163800000000009
 20
7.6807300000000005
 30
0.0
 10
6.7163800000000009
 20
7.6807300000000005
 30
0.0
 10
7.0578900000000004
 20
7.9924100000000005
 30
0.0
 10
7.3231300000000008
 20
8.2121700000000004
 30
0.0
 10
7.6257500000000009
 20
8.3365000000000009
 30
0.0
 10
7.6257500000000009
 20
8.3365000000000009
 30
0.0
 10
7.9284000000000008
 20
8.460840000000001
 30
0.0
 10
8.1458200000000005
 20
8.4771999999999998
 30
0.0
 10
8.1350700000000007
 20
8.4685900000000007
 30
0.0
 10
8.1350700000000007
 20
8.4685900000000007
 30
0.0
 10
8.1243600000000011
 20
8.4599900000000012
 30
0.0
 10
7.5360000000000005
 20
8.2771000000000008
 30
0.0
 10
7.2218100000000005
 20
8.0025000000000013
 30
0.0
 10
7.2218100000000005
 20
8.0025000000000013
 30
0.0
 10
6.9076200000000005
 20
7.7279000000000009
 30
0.0
 10
6.6617400000000009
 20
7.4549600000000007
 30
0.0
 10
6.4431800000000008
 20
7.2949200000000003
 30
0.0
 10
6.4431800000000008
 20
7.2949200000000003
 30
0.0
 10
6.2246300000000003
 20
7.1348700000000003
 30
0.0
 10
5.8023300000000004
 20
6.7678000000000003
 30
0.0
 10
5.3230400000000007
 20
6.7154200000000008
 30
0.0
 10
5.3230400000000007
 20
6.7154200000000008
 30
0.0
 10
4.8438000000000008
 20
6.6630300000000009
 30
0.0
 10
3.8670800000000005
 20
6.755840000000001
 30
0.0
 10
3.7248300000000003
 20
6.4577900000000001
 30
0.0
 10
3.7248300000000003
 20
6.4577900000000001
 30
0.0
 10
3.5825500000000003
 20
6.1597600000000003
 30
0.0
 10
4.7356600000000002
 20
6.2976100000000006
 30
0.0
 10
5.2274500000000002
 20
6.4643700000000006
 30
0.0
 10
5.2274500000000002
 20
6.4643700000000006
 30
0.0
 10
5.7192000000000007
 20
6.6311200000000001
 30
0.0
 10
6.1309900000000006
 20
6.8879000000000001
 30
0.0
 10
6.3339000000000008
 20
7.0556500000000009
 30
0.0
 10
6.3339000000000008
 20
7.0556500000000009
 30
0.0
 10
6.5368200000000005
 20
7.2234300000000005
 30
0.0
 10
6.7663000000000002
 20
7.3868300000000007
 30
0.0
 10
6.7710200000000009
 20
7.3605800000000006
 30
0.0
 10
6.7710200000000009
 20
7.3605800000000006
 30
0.0
 10
6.7757700000000005
 20
7.3343300000000005
 30
0.0
 10
6.4022200000000007
 20
6.9511800000000008
 30
0.0
 10
5.8967900000000002
 20
6.6749000000000009
 30
0.0
 10
5.8967900000000002
 20
6.6749000000000009
 30
0.0
 10
5.3913600000000006
 20
6.3986400000000003
 30
0.0
 10
4.9815300000000002
 20
6.2065900000000003
 30
0.0
 10
4.5717400000000001
 20
6.1207100000000008
 30
0.0
 10
4.5717400000000001
 20
6.1207100000000008
 30
0.0
 10
4.16195
 20
6.0348200000000007
 30
0.0
 10
3.8571200000000001
 20
6.1191100000000009
 30
0.0
 10
3.3926900000000004
 20
5.9590800000000002
 30
0.0
 10
3.3926900000000004
 20
5.9590800000000002
 30
0.0
 10
3.1749900000000002
 20
5.8840800000000009
 30
0.0
 10
3.1337600000000001
 20
5.7201300000000002
 30
0.0
 10
3.3306400000000003
 20
5.7099600000000006
 30
0.0
 10
3.3306400000000003
 20
5.7099600000000006
 30
0.0
 10
3.5537800000000002
 20
5.6984900000000005
 30
0.0
 10
3.9321900000000003
 20
5.7514800000000008
 30
0.0
 10
4.1209500000000006
 20
5.8080800000000004
 30
0.0
 10
4.1209500000000006
 20
5.8080800000000004
 30
0.0
 10
4.23529
 20
5.8423600000000002
 30
0.0
 10
4.3563200000000002
 20
5.8837000000000002
 30
0.0
 10
4.4721100000000007
 20
5.9184100000000006
 30
0.0
 10
4.4721100000000007
 20
5.9184100000000006
 30
0.0
 10
4.7363800000000005
 20
5.9975900000000006
 30
0.0
 10
4.9678900000000006
 20
6.0970700000000004
 30
0.0
 10
4.9678900000000006
 20
6.0970700000000004
 30
0.0
 10
4.9678900000000006
 20
6.0970700000000004
 30
0.0
 10
4.9678900000000006
 20
6.0970700000000004
 30
0.0
 10
4.8113800000000007
 20
5.9107400000000005
 30
0.0
 10
4.3473200000000007
 20
5.74648
 30
0.0
 10
4.3473200000000007
 20
5.74648
 30
0.0
 10
3.8832700000000004
 20
5.5822600000000007
 30
0.0
 10
3.6018800000000004
 20
5.5631000000000004
 30
0.0
 10
3.5199200000000004
 20
5.3609100000000005
 30
0.0
 10
3.5199200000000004
 20
5.3609100000000005
 30
0.0
 10
3.4379600000000003
 20
5.1587500000000004
 30
0.0
 10
4.1755900000000006
 20
5.3254600000000005
 30
0.0
 10
4.6946900000000005
 20
5.6657600000000006
 30
0.0
 10
4.6946900000000005
 20
5.6657600000000006
 30
0.0
 10
5.2137700000000002
 20
6.0060700000000002
 30
0.0
 10
5.2574900000000007
 20
6.0562700000000005
 30
0.0
 10
5.6161500000000002
 20
6.2361400000000007
 30
0.0
 10
5.6161500000000002
 20
6.2361400000000007
 30
0.0
 10
5.9748200000000002
 20
6.4160000000000004
 30
0.0
 10
6.2929100000000009
 20
6.3934900000000008
 30
0.0
 10
6.2929100000000009
 20
6.3934900000000008
 30
0.0
 10
6.2929100000000009
 20
6.3934900000000008
 30
0.0
 10
6.2929100000000009
 20
6.3934900000000008
 30
0.0
 10
6.0059300000000002
 20
6.3411800000000005
 30
0.0
 10
5.7108300000000005
 20
6.2066100000000004
 30
0.0
 10
5.7108300000000005
 20
6.2066100000000004
 30
0.0
 10
5.4663300000000001
 20
6.0951100000000009
 30
0.0
 10
5.2211400000000001
 20
5.9174600000000002
 30
0.0
 10
5.0849900000000003
 20
5.7533400000000006
 30
0.0
 10
5.0849900000000003
 20
5.7533400000000006
 30
0.0
 10
4.7844700000000007
 20
5.3911200000000008
 30
0.0
 10
4.9132500000000006
 20
5.3405500000000004
 30
0.0
 10
5.2684100000000003
 20
5.5191100000000004
 30
0.0
 10
5.2684100000000003
 20
5.5191100000000004
 30
0.0
 10
5.6236000000000006
 20
5.6976700000000005
 30
0.0
 10
5.9241100000000007
 20
5.9992500000000009
 30
0.0
 10
5.9241100000000007
 20
5.9992500000000009
 30
0.0
 10
5.9241100000000007
 20
5.9992500000000009
 30
0.0
 10
5.9241100000000007
 20
5.9992500000000009
 30
0.0
 10
5.7328700000000001
 20
5.5881500000000006
 30
0.0
 10
5.1318100000000006
 20
5.1973000000000003
 30
0.0
 10
5.1318100000000006
 20
5.1973000000000003
 30
0.0
 10
4.5307400000000007
 20
4.8064500000000008
 30
0.0
 10
3.9297100000000005
 20
4.9008900000000004
 30
0.0
 10
3.9297100000000005
 20
4.9008900000000004
 30
0.0
 10
3.9297100000000005
 20
4.9008900000000004
 30
0.0
 10
3.9297100000000005
 20
4.9008900000000004
 30
0.0
 10
4.4979800000000001
 20
5.0050600000000003
 30
0.0
 10
4.6619000000000002
 20
5.2274500000000002
 30
0.0
 10
4.6619000000000002
 20
5.2274500000000002
 30
0.0
 10
4.8258200000000002
 20
5.4498300000000004
 30
0.0
 10
4.6263800000000002
 20
5.5332700000000008
 30
0.0
 10
4.3258600000000005
 20
5.3226700000000005
 30
0.0
 10
4.3258600000000005
 20
5.3226700000000005
 30
0.0
 10
4.0253500000000004
 20
5.1120700000000001
 30
0.0
 10
3.8719700000000001
 20
5.0322100000000001
 30
0.0
 10
3.5304600000000002
 20
4.9783600000000003
 30
0.0
 10
3.5304600000000002
 20
4.9783600000000003
 30
0.0
 10
3.1889500000000002
 20
4.9244500000000002
 30
0.0
 10
2.9052100000000003
 20
5.1335300000000004
 30
0.0
 10
2.9052100000000003
 20
5.1335300000000004
 30
0.0
 10
2.9052100000000003
 20
5.1335300000000004
 30
0.0
 10
2.8574900000000003
 20
5.1280200000000002
 30
0.0
 10
2.9203000000000001
 20
4.6847400000000006
 30
0.0
 10
3.3969600000000004
 20
4.6937000000000006
 30
0.0
 10
3.3969600000000004
 20
4.6937000000000006
 30
0.0
 10
3.8612200000000003
 20
4.7024500000000007
 30
0.0
 10
3.8341100000000004
 20
4.6346800000000004
 30
0.0
 10
3.8341100000000004
 20
4.6346800000000004
 30
0.0
 10
3.8341100000000004
 20
4.6346800000000004
 30
0.0
 10
3.8341100000000004
 20
4.6346800000000004
 30
0.0
 10
3.4789200000000005
 20
4.5319500000000001
 30
0.0
 10
3.1920800000000003
 20
4.3853900000000001
 30
0.0
 10
3.1920800000000003
 20
4.3853900000000001
 30
0.0
 10
2.9052100000000003
 20
4.23881
 30
0.0
 10
2.9325300000000003
 20
3.9726000000000004
 30
0.0
 10
3.1920800000000003
 20
3.8849600000000004
 30
0.0
 10
3.1920800000000003
 20
3.8849600000000004
 30
0.0
 10
3.4516000000000004
 20
3.7973200000000005
 30
0.0
 10
3.6242400000000004
 20
3.4001000000000001
 30
0.0
 10
3.5745600000000004
 20
3.1755500000000003
 30
0.0
 10
3.5745600000000004
 20
3.1755500000000003
 30
0.0
 10
3.5248400000000002
 20
2.9510000000000001
 30
0.0
 10
3.4140200000000003
 20
2.8023400000000001
 30
0.0
 10
3.4106400000000003
 20
2.8015100000000004
 30
0.0
 10
3.4106400000000003
 20
2.8015100000000004
 30
0.0
 10
3.4106400000000003
 20
2.8015100000000004
 30
0.0
 10
3.7248300000000003
 20
3.4249000000000005
 30
0.0
 10
3.2194000000000003
 20
3.5580600000000002
 30
0.0
 10
3.2194000000000003
 20
3.5580600000000002
 30
0.0
 10
2.7139700000000002
 20
3.6912400000000005
 30
0.0
 10
2.5053000000000001
 20
3.8465800000000003
 30
0.0
 10
2.4271000000000003
 20
4.1360700000000001
 30
0.0
 10
2.4271000000000003
 20
4.1360700000000001
 30
0.0
 10
2.3489
 20
4.4256000000000002
 30
0.0
 10
2.3520300000000001
 20
4.5610900000000001
 30
0.0
 10
2.3587800000000003
 20
4.5590300000000008
 30
0.0
 10
2.3587800000000003
 20
4.5590300000000008
 30
0.0
 10
2.3655700000000004
 20
4.5569300000000004
 30
0.0
 10
2.4134600000000002
 20
4.1933700000000007
 30
0.0
 10
2.7412900000000002
 20
4.3045400000000003
 30
0.0
 10
2.7412900000000002
 20
4.3045400000000003
 30
0.0
 10
3.0691300000000004
 20
4.4157100000000007
 30
0.0
 10
2.9188500000000004
 20
4.9094300000000004
 30
0.0
 10
2.5637000000000003
 20
4.9280000000000008
 30
0.0
 10
2.5637000000000003
 20
4.9280000000000008
 30
0.0
 10
2.2085400000000002
 20
4.9465700000000004
 30
0.0
 10
1.8181800000000001
 20
4.2135199999999999
 30
0.0
 10
2.2358600000000002
 20
3.9069700000000003
 30
0.0
 10
2.2358600000000002
 20
3.9069700000000003
 30
0.0
 10
2.6535500000000001
 20
3.6004000000000005
 30
0.0
 10
2.4118000000000004
 20
2.9433500000000001
 30
0.0
 10
2.3861000000000003
 20
2.8825100000000003
 30
0.0
 10
2.3861000000000003
 20
2.8825100000000003
 30
0.0
 10
2.3604400000000001
 20
2.8216700000000001
 30
0.0
 10
2.4715700000000003
 20
3.5903000000000005
 30
0.0
 10
2.22532
 20
3.7215300000000004
 30
0.0
 10
2.22532
 20
3.7215300000000004
 30
0.0
 10
1.9790600000000003
 20
3.8527100000000005
 30
0.0
 10
1.6746200000000002
 20
4.2637800000000006
 30
0.0
 10
1.9454800000000001
 20
4.6867400000000004
 30
0.0
 10
1.9454800000000001
 20
4.6867400000000004
 30
0.0
 10
2.2163600000000003
 20
5.1096600000000008
 30
0.0
 10
2.0855900000000003
 20
5.3408600000000002
 30
0.0
 10
2.0036300000000002
 20
5.2448400000000008
 30
0.0
 10
2.0036300000000002
 20
5.2448400000000008
 30
0.0
 10
1.9216700000000002
 20
5.14879
 30
0.0
 10
1.8943500000000002
 20
4.96007
 30
0.0
 10
1.8943500000000002
 20
4.96007
 30
0.0
 10
1.8943500000000002
 20
4.96007
 30
0.0
 10
1.8099800000000001
 20
5.2203100000000004
 30
0.0
 10
1.9532600000000002
 20
5.5406000000000004
 30
0.0
 10
2.1402300000000003
 20
5.8547600000000006
 30
0.0
  0
SPLINE
  5
2B
100
AcDbEntity
  8
Ebene 1
 62
     1
100
AcDbSpline
210
0.0
220
0.0
230
1.0
 70
     1
 71
     3
 72
    28
 73
    24
 74
     0
 42
0.0000000001
 43
0.0000000001
 40
0.0
 40
0.0
 40
0.0
 40
0.0
 40
0.1666666666666667
 40
0.1666666666666667
 40
0.1666666666666667
 40
0.1666666666666667
 40
0.3333333333333333
 40
0.3333333333333333
 40
0.3333333333333333
 40
0.3333333333333333
 40
0.5
 40
0.5
 40
0.5
 40
0.5
 40
0.6666666666666666
 40
0.6666666666666666
 40
0.6666666666666666
 40
0.6666666666666666
 40
0.8333333333333333
 40
0.8333333333333333
 40
0.8333333333333333
 40
0.8333333333333333
 40
1.0
 40
1.0
 40
1.0
 40
1.0
 10
6.0880300000000007
 20
6.5249400000000009
 30
0.0
 10
6.0880300000000007
 20
6.5249400000000009
 30
0.0
 10
6.6071000000000009
 20
6.6074500000000009
 30
0.0
 10
6.8529800000000005
 20
6.8045400000000003
 30
0.0
 10
6.8529800000000005
 20
6.8045400000000003
 30
0.0
 10
7.0988500000000005
 20
7.0016500000000006
 30
0.0
 10
7.0723300000000009
 20
7.210560000000001
 30
0.0
 10
7.2772400000000008
 20
7.3684200000000004
 30
0.0
 10
7.2772400000000008
 20
7.3684200000000004
 30
0.0
 10
7.482120000000001
 20
7.5262900000000004
 30
0.0
 10
7.5360000000000005
 20
7.5164400000000002
 30
0.0
 10
7.5360000000000005
 20
7.5037200000000004
 30
0.0
 10
7.5360000000000005
 20
7.5037200000000004
 30
0.0
 10
7.5360000000000005
 20
7.4910100000000011
 30
0.0
 10
7.2764500000000005
 20
7.363900000000001
 30
0.0
 10
7.1671700000000005
 20
7.0791500000000003
 30
0.0
 10
7.1671700000000005
 20
7.0791500000000003
 30
0.0
 10
7.0578900000000004
 20
6.7944100000000009
 30
0.0
 10
6.8120200000000004
 20
6.5821400000000008
 30
0.0
 10
6.5115000000000007
 20
6.5232000000000001
 30
0.0
 10
6.5115000000000007
 20
6.5232000000000001
 30
0.0
 10
6.2109500000000004
 20
6.4642500000000007
 30
0.0
 10
6.0880300000000007
 20
6.5249400000000009
 30
0.0
 10
6.0880300000000007
 20
6.5249400000000009
 30
0.0
  0
SPLINE
  5
2C
100
AcDbEntity
  8
Ebene 1
 62
     1
100
AcDbSpline
210
0.0
220
0.0
230
1.0
 70
     1
 71
     3
 72
    24
 73
    20
 74
     0
 42
0.0000000001
 43
0.0000000001
 40
0.0
 40
0.0
 40
0.0
 40
0.0
 40
0.2
 40
0.2
 40
0.2
 40
0.2
 40
0.4
 40
0.4
 40
0.4
 40
0.4
 40
0.6000000000000001
 40
0.6000000000000001
 40
0.6000000000000001
 40
0.6000000000000001
 40
0.8
 40
0.8
 40
0.8
 40
0.8
 40
1.0
 40
1.0
 40
1.0
 40
1.0
 10
7.249130000000001
 20
7.8727500000000008
 30
0.0
 10
7.228460000000001
 20
7.8842500000000006
 30
0.0
 10
7.6729800000000008
 20
8.2597500000000004
 30
0.0
 10
7.9731200000000007
 20
8.2939100000000003
 30
0.0
 10
7.9731200000000007
 20
8.2939100000000003
 30
0.0
 10
8.2732500000000009
 20
8.3280700000000003
 30
0.0
 10
8.78688
 20
8.527330000000001
 30
0.0
 10
8.8200600000000016
 20
8.5179200000000002
 30
0.0
 10
8.8200600000000016
 20
8.5179200000000002
 30
0.0
 10
8.8532000000000011
 20
8.5085000000000015
 30
0.0
 10
8.4639400000000009
 20
8.2960900000000013
 30
0.0
 10
8.205350000000001
 20
8.2298600000000004
 30
0.0
 10
8.205350000000001
 20
8.2298600000000004
 30
0.0
 10
7.9467600000000003
 20
8.1636300000000013
 30
0.0
 10
7.8501600000000007
 20
8.1574300000000015
 30
0.0
 10
7.6316000000000006
 20
8.073220000000001
 30
0.0
 10
7.6316000000000006
 20
8.073220000000001
 30
0.0
 10
7.4179700000000004
 20
7.9862600000000006
 30
0.0
 10
7.2573300000000005
 20
7.8682000000000007
 30
0.0
 10
7.249130000000001
 20
7.8727500000000008
 30
0.0
  0
SPLINE
  5
2D
100
AcDbEntity
  8
Ebene 1
 62
     1
100
AcDbSpline
210
0.0
220
0.0
230
1.0
 70
     1
 71
     3
 72
    32
 73
    28
 74
     0
 42
0.0000000001
 43
0.0000000001
 40
0.0
 40
0.0
 40
0.0
 40
0.0
 40
0.1428571428571429
 40
0.1428571428571429
 40
0.1428571428571429
 40
0.1428571428571429
 40
0.2857142857142857
 40
0.2857142857142857
 40
0.2857142857142857
 40
0.2857142857142857
 40
0.4285714285714286
 40
0.4285714285714286
 40
0.4285714285714286
 40
0.4285714285714286
 40
0.5714285714285714
 40
0.5714285714285714
 40
0.5714285714285714
 40
0.5714285714285714
 40
0.7142857142857142
 40
0.7142857142857142
 40
0.7142857142857142
 40
0.7142857142857142
 40
0.857142857142857
 40
0.857142857142857
 40
0.857142857142857
 40
0.857142857142857
 40
1.0
 40
1.0
 40
1.0
 40
1.0
 10
6.0607100000000003
 20
6.6395000000000008
 30
0.0
 10
6.0302200000000008
 20
6.634030000000001
 30
0.0
 10
6.4978200000000008
 20
6.8079500000000008
 30
0.0
 10
6.7437000000000005
 20
7.1870300000000009
 30
0.0
 10
6.7437000000000005
 20
7.1870300000000009
 30
0.0
 10
6.989580000000001
 20
7.5661300000000002
 30
0.0
 10
7.3324300000000004
 20
7.7998800000000008
 30
0.0
 10
7.5223200000000006
 20
7.8946400000000008
 30
0.0
 10
7.5223200000000006
 20
7.8946400000000008
 30
0.0
 10
7.7122500000000009
 20
7.9893800000000006
 30
0.0
 10
7.9390100000000006
 20
8.0317500000000006
 30
0.0
 10
7.9184800000000006
 20
8.0226400000000009
 30
0.0
 10
7.9184800000000006
 20
8.0226400000000009
 30
0.0
 10
7.9184800000000006
 20
8.0226400000000009
 30
0.0
 10
7.4079800000000002
 20
7.8261300000000009
 30
0.0
 10
7.1304800000000004
 20
7.4734900000000009
 30
0.0
 10
7.1304800000000004
 20
7.4734900000000009
 30
0.0
 10
6.8529800000000005
 20
7.1208400000000003
 30
0.0
 10
6.8947300000000009
 20
7.0267100000000005
 30
0.0
 10
6.5817500000000004
 20
6.8299500000000002
 30
0.0
 10
6.5817500000000004
 20
6.8299500000000002
 30
0.0
 10
6.4800100000000009
 20
6.7711100000000002
 30
0.0
 10
6.4353000000000007
 20
6.7426700000000004
 30
0.0
 10
6.3640500000000007
 20
6.7161400000000002
 30
0.0
 10
6.3640500000000007
 20
6.7161400000000002
 30
0.0
 10
6.2230100000000004
 20
6.6636000000000006
 30
0.0
 10
6.0899900000000002
 20
6.6447800000000008
 30
0.0
 10
6.0607100000000003
 20
6.6395000000000008
 30
0.0
  0
SPLINE
  5
2E
100
AcDbEntity
  8
Ebene 1
 62
     1
100
AcDbSpline
210
0.0
220
0.0
230
1.0
 70
     1
 71
     3
 72
    16
 73
    12
 74
     0
 42
0.0000000001
 43
0.0000000001
 40
0.0
 40
0.0
 40
0.0
 40
0.0
 40
0.3333333333333333
 40
0.3333333333333333
 40
0.3333333333333333
 40
0.3333333333333333
 40
0.6666666666666666
 40
0.6666666666666666
 40
0.6666666666666666
 40
0.6666666666666666
 40
1.0
 40
1.0
 40
1.0
 40
1.0
 10
7.7057400000000005
 20
8.6358200000000007
 30
0.0
 10
8.1581500000000009
 20
8.720460000000001
 30
0.0
 10
8.519540000000001
 20
8.7774300000000007
 30
0.0
 10
8.519540000000001
 20
8.7774300000000007
 30
0.0
 10
8.519540000000001
 20
8.7774300000000007
 30
0.0
 10
8.5484100000000005
 20
8.7738600000000009
 30
0.0
 10
8.0711700000000004
 20
8.6256000000000004
 30
0.0
 10
7.519470000000001
 20
8.5011500000000009
 30
0.0
 10
7.519470000000001
 20
8.5011500000000009
 30
0.0
 10
7.586780000000001
 20
8.5520500000000013
 30
0.0
 10
7.6388100000000003
 20
8.5878800000000002
 30
0.0
 10
7.7057400000000005
 20
8.6358200000000007
 30
0.0
  0
SPLINE
  5
2F
100
AcDbEntity
  8
Ebene 1
 62
     1
100
AcDbSpline
210
0.0
220
0.0
230
1.0
 70
     1
 71
     3
 72
    28
 73
    24
 74
     0
 42
0.0000000001
 43
0.0000000001
 40
0.0
 40
0.0
 40
0.0
 40
0.0
 40
0.1666666666666667
 40
0.1666666666666667
 40
0.1666666666666667
 40
0.1666666666666667
 40
0.3333333333333333
 40
0.3333333333333333
 40
0.3333333333333333
 40
0.3333333333333333
 40
0.5
 40
0.5
 40
0.5
 40
0.5
 40
0.6666666666666666
 40
0.6666666666666666
 40
0.6666666666666666
 40
0.6666666666666666
 40
0.8333333333333333
 40
0.8333333333333333
 40
0.8333333333333333
 40
0.8333333333333333
 40
1.0
 40
1.0
 40
1.0
 40
1.0
 10
-2.8492800000000003
 20
6.5249400000000009
 30
0.0
 10
-2.8492800000000003
 20
6.5249400000000009
 30
0.0
 10
-3.3683700000000001
 20
6.6074500000000009
 30
0.0
 10
-3.6142500000000002
 20
6.8045400000000003
 30
0.0
 10
-3.6142500000000002
 20
6.8045400000000003
 30
0.0
 10
-3.8601200000000002
 20
7.0016500000000006
 30
0.0
 10
-3.8335800000000004
 20
7.210560000000001
 30
0.0
 10
-4.0384900000000004
 20
7.3684200000000004
 30
0.0
 10
-4.0384900000000004
 20
7.3684200000000004
 30
0.0
 10
-4.2433900000000007
 20
7.5262900000000004
 30
0.0
 10
-4.2972300000000008
 20
7.5164400000000002
 30
0.0
 10
-4.29725
 20
7.5037200000000004
 30
0.0
 10
-4.29725
 20
7.5037200000000004
 30
0.0
 10
-4.29725
 20
7.4910100000000011
 30
0.0
 10
-4.0377200000000002
 20
7.363900000000001
 30
0.0
 10
-3.9284200000000005
 20
7.0791500000000003
 30
0.0
 10
-3.9284200000000005
 20
7.0791500000000003
 30
0.0
 10
-3.8191400000000004
 20
6.7944100000000009
 30
0.0
 10
-3.5732700000000004
 20
6.5821400000000008
 30
0.0
 10
-3.2727500000000003
 20
6.5232000000000001
 30
0.0
 10
-3.2727500000000003
 20
6.5232000000000001
 30
0.0
 10
-2.9722200000000001
 20
6.4642500000000007
 30
0.0
 10
-2.8492800000000003
 20
6.5249400000000009
 30
0.0
 10
-2.8492800000000003
 20
6.5249400000000009
 30
0.0
  0
SPLINE
  5
30
100
AcDbEntity
  8
Ebene 1
 62
     1
100
AcDbSpline
210
0.0
220
0.0
230
1.0
 70
     1
 71
     3
 72
    24
 73
    20
 74
     0
 42
0.0000000001
 43
0.0000000001
 40
0.0
 40
0.0
 40
0.0
 40
0.0
 40
0.2
 40
0.2
 40
0.2
 40
0.2
 40
0.4
 40
0.4
 40
0.4
 40
0.4
 40
0.6000000000000001
 40
0.6000000000000001
 40
0.6000000000000001
 40
0.6000000000000001
 40
0.8
 40
0.8
 40
0.8
 40
0.8
 40
1.0
 40
1.0
 40
1.0
 40
1.0
 10
-4.0103800000000005
 20
7.8727500000000008
 30
0.0
 10
-3.9897100000000005
 20
7.8842500000000006
 30
0.0
 10
-4.4342500000000005
 20
8.2597500000000004
 30
0.0
 10
-4.7343600000000006
 20
8.2939100000000003
 30
0.0
 10
-4.7343600000000006
 20
8.2939100000000003
 30
0.0
 10
-5.0345200000000006
 20
8.3280700000000003
 30
0.0
 10
-5.5481500000000006
 20
8.527330000000001
 30
0.0
 10
-5.5813100000000002
 20
8.5179200000000002
 30
0.0
 10
-5.5813100000000002
 20
8.5179200000000002
 30
0.0
 10
-5.6144500000000006
 20
8.5085000000000015
 30
0.0
 10
-5.2251900000000004
 20
8.2960900000000013
 30
0.0
 10
-4.9666000000000006
 20
8.2298600000000004
 30
0.0
 10
-4.9666000000000006
 20
8.2298600000000004
 30
0.0
 10
-4.7079900000000006
 20
8.1636300000000013
 30
0.0
 10
-4.6114300000000004
 20
8.1574300000000015
 30
0.0
 10
-4.3928700000000003
 20
8.073220000000001
 30
0.0
 10
-4.3928700000000003
 20
8.073220000000001
 30
0.0
 10
-4.1792400000000001
 20
7.9862600000000006
 30
0.0
 10
-4.0186000000000002
 20
7.8682000000000007
 30
0.0
 10
-4.0103800000000005
 20
7.8727500000000008
 30
0.0
  0
SPLINE
  5
31
100
AcDbEntity
  8
Ebene 1
 62
     1
100
AcDbSpline
210
0.0
220
0.0
230
1.0
 70
     1
 71
     3
 72
    32
 73
    28
 74
     0
 42
0.0000000001
 43
0.0000000001
 40
0.0
 40
0.0
 40
0.0
 40
0.0
 40
0.1428571428571429
 40
0.1428571428571429
 40
0.1428571428571429
 40
0.1428571428571429
 40
0.2857142857142857
 40
0.2857142857142857
 40
0.2857142857142857
 40
0.2857142857142857
 40
0.4285714285714286
 40
0.4285714285714286
 40
0.4285714285714286
 40
0.4285714285714286
 40
0.5714285714285714
 40
0.5714285714285714
 40
0.5714285714285714
 40
0.5714285714285714
 40
0.7142857142857142
 40
0.7142857142857142
 40
0.7142857142857142
 40
0.7142857142857142
 40
0.857142857142857
 40
0.857142857142857
 40
0.857142857142857
 40
0.857142857142857
 40
1.0
 40
1.0
 40
1.0
 40
1.0
 10
-2.8219600000000002
 20
6.6395000000000008
 30
0.0
 10
-2.7914700000000003
 20
6.634030000000001
 30
0.0
 10
-3.2590900000000005
 20
6.8079500000000008
 30
0.0
 10
-3.5049700000000001
 20
7.1870300000000009
 30
0.0
 10
-3.5049700000000001
 20
7.1870300000000009
 30
0.0
 10
-3.7508400000000002
 20
7.5661300000000002
 30
0.0
 10
-4.0937000000000001
 20
7.7998800000000008
 30
0.0
 10
-4.2835900000000002
 20
7.8946400000000008
 30
0.0
 10
-4.2835900000000002
 20
7.8946400000000008
 30
0.0
 10
-4.47349
 20
7.9893800000000006
 30
0.0
 10
-4.7002600000000001
 20
8.0317500000000006
 30
0.0
 10
-4.6797300000000002
 20
8.0226400000000009
 30
0.0
 10
-4.6797300000000002
 20
8.0226400000000009
 30
0.0
 10
-4.6797300000000002
 20
8.0226400000000009
 30
0.0
 10
-4.1692300000000007
 20
7.8261300000000009
 30
0.0
 10
-3.8917500000000005
 20
7.4734900000000009
 30
0.0
 10
-3.8917500000000005
 20
7.4734900000000009
 30
0.0
 10
-3.6142500000000002
 20
7.1208400000000003
 30
0.0
 10
-3.6560000000000001
 20
7.0267100000000005
 30
0.0
 10
-3.3429900000000004
 20
6.8299500000000002
 30
0.0
 10
-3.3429900000000004
 20
6.8299500000000002
 30
0.0
 10
-3.2412600000000005
 20
6.7711100000000002
 30
0.0
 10
-3.1965300000000001
 20
6.7426700000000004
 30
0.0
 10
-3.1253000000000002
 20
6.7161400000000002
 30
0.0
 10
-3.1253000000000002
 20
6.7161400000000002
 30
0.0
 10
-2.9842600000000004
 20
6.6636000000000006
 30
0.0
 10
-2.8512300000000002
 20
6.6447800000000008
 30
0.0
 10
-2.8219600000000002
 20
6.6395000000000008
 30
0.0
  0
SPLINE
  5
32
100
AcDbEntity
  8
Ebene 1
 62
     1
100
AcDbSpline
210
0.0
220
0.0
230
1.0
 70
     1
 71
     3
 72
    16
 73
    12
 74
     0
 42
0.0000000001
 43
0.0000000001
 40
0.0
 40
0.0
 40
0.0
 40
0.0
 40
0.3333333333333333
 40
0.3333333333333333
 40
0.3333333333333333
 40
0.3333333333333333
 40
0.6666666666666666
 40
0.6666666666666666
 40
0.6666666666666666
 40
0.6666666666666666
 40
1.0
 40
1.0
 40
1.0
 40
1.0
 10
-4.4670100000000001
 20
8.6358200000000007
 30
0.0
 10
-4.9194200000000006
 20
8.720460000000001
 30
0.0
 10
-5.2807700000000004
 20
8.7774300000000007
 30
0.0
 10
-5.2807700000000004
 20
8.7774300000000007
 30
0.0
 10
-5.2807700000000004
 20
8.7774300000000007
 30
0.0
 10
-5.3096800000000002
 20
8.7738600000000009
 30
0.0
 10
-4.8323900000000002
 20
8.6256000000000004
 30
0.0
 10
-4.2807200000000005
 20
8.5011500000000009
 30
0.0
 10
-4.2807200000000005
 20
8.5011500000000009
 30
0.0
 10
-4.3480300000000005
 20
8.5520500000000013
 30
0.0
 10
-4.4000700000000004
 20
8.5878800000000002
 30
0.0
 10
-4.4670100000000001
 20
8.6358200000000007
 30
0.0
  0
ENDSEC
  0
SECTION
  2
OBJECTS
  0
DICTIONARY
  5
19
100
AcDbDictionary
280
     0
281
     1
  3
ACAD_GROUP
350
1A
  3
ACAD_MLINESTYLE
350
1B
  3
ACAD_LAYOUT
350
1E
  3
ACAD_PLOTSETTINGS
350
22
  3
ACAD_PLOTSTYLENAME
350
1F
  3
ACAD_WIPEOUT_VARS
350
23
  0
DICTIONARY
  5
1A
102
{ACAD_REACTORS
330
19
102
}
100
AcDbDictionary
280
     0
281
     1
  0
DICTIONARY
  5
1B
102
{ACAD_REACTORS
330
19
102
}
100
AcDbDictionary
280
     0
281
     1
  3
Standard
350
1C
  0
MLINESTYLE
  5
1C
102
{ACAD_REACTORS
330
1B
102
}
100
AcDbMlineStyle
  2
Standard
 70
     0
  3

 62
     0
 51
90.0
 52
90.0
 71
     2
 49
0.5
 62
   256
  6
BYLAYER
 49
-0.5
 62
   256
  6
BYLAYER
  0
ACDBDICTIONARYWDFLT
  5
1F
102
{ACAD_REACTORS
330
19
102
}
100
AcDbDictionary
281
     1
  3
Normal
350
1D
100
AcDbDictionaryWithDefault
340
1D
  0
ACDBPLACEHOLDER
  5
1D
102
{ACAD_REACTORS
330
1F
102
}
  0
LAYOUT
  5
20
102
{ACAD_REACTORS
330
1E
102
}
100
AcDbPlotSettings
  1

  2

  4

  6

 40
0.0
 41
0.0
 42
0.0
 43
0.0
 44
0.0
 45
0.0
 46
0.0
 47
0.0
 48
0.0
 49
0.0
140
0.0
141
0.0
142
1.0
143
1.0
 70
  1024
 72
     0
 73
     0
 74
     0
  7

 75
     0
147
1.0
148
0.0
149
0.0
100
AcDbLayout
  1
Model
 70
     0
 71
     0
 10
0.0
 20
0.0
 11
0.0
 21
0.0
 12
0.0
 22
0.0
 32
0.0
 14
0.0
 24
0.0
 34
0.0
 15
0.0
 25
0.0
 35
0.0
146
0.0
 13
0.0
 23
0.0
 33
0.0
 16
0.0
 26
0.0
 36
0.0
 17
0.0
 27
0.0
 37
0.0
 76
     0
330
A
331
0
345
0
346
0
  0
LAYOUT
  5
21
102
{ACAD_REACTORS
330
1E
102
}
100
AcDbPlotSettings
  1

  2

  4

  6

 40
0.0
 41
0.0
 42
0.0
 43
0.0
 44
0.0
 45
0.0
 46
0.0
 47
0.0
 48
0.0
 49
0.0
140
0.0
141
0.0
142
1.0
143
1.0
 70
     0
 72
     0
 73
     0
 74
     0
  7

 75
     0
147
1.0
148
0.0
149
0.0
100
AcDbLayout
  1
Layout1
 70
     0
 71
     0
 10
0.0
 20
0.0
 11
0.0
 21
0.0
 12
0.0
 22
0.0
 32
0.0
 14
0.0
 24
0.0
 34
0.0
 15
0.0
 25
0.0
 35
0.0
146
0.0
 13
0.0
 23
0.0
 33
0.0
 16
0.0
 26
0.0
 36
0.0
 17
0.0
 27
0.0
 37
0.0
 76
     0
330
B
331
0
345
0
346
0
  0
DICTIONARY
  5
1E
102
{ACAD_REACTORS
330
19
102
}
100
AcDbDictionary
280
     0
281
     1
  3
Layout1
350
21
  3
Model
350
20
  0
DICTIONARY
  5
22
102
{ACAD_REACTORS
330
19
102
}
100
AcDbDictionary
280
     0
281
     1
  0
WIPEOUTVARIABLES
  5
23
100
AcDbWipeoutVariables
 70
     1
  0
ENDSEC
  0
EOF
