  0
SECTION
  2
HEADER
  9
$ACADVER
  1
AC1015
  9
$ACADMAINTVER
 70
     6
  9
$DWGCODEPAGE
  3
DOS850
  9
$INSBASE
 10
0.0
 20
0.0
 30
0.0
  9
$EXTMIN
 10
-5.39749
 20
0.73508
 30
1.000000E+20
  9
$EXTMAX
 10
8.77496
 20
9.63083
 30
-1.000000E+20
  9
$LIMMIN
 10
0.0
 20
0.0
  9
$LIMMAX
 10
0.0
 20
0.0
  9
$ORTHOMODE
 70
     0
  9
$REGENMODE
 70
     1
  9
$FILLMODE
 70
     1
  9
$QTEXTMODE
 70
     0
  9
$MIRRTEXT
 70
     1
  9
$LTSCALE
 40
1.0
  9
$ATTMODE
 70
     1
  9
$TEXTSIZE
 40
0.2
  9
$TRACEWID
 40
0.05
  9
$TEXTSTYLE
  7
Standard
  9
$CLAYER
  8
0
  9
$CELTYPE
  6
Continuous
  9
$CECOLOR
 62
   256
  9
$CELTSCALE
 40
1.0
  9
$DISPSILH
 70
     0
  9
$DIMSCALE
 40
1.0
  9
$DIMASZ
 40
0.18
  9
$DIMEXO
 40
0.0625
  9
$DIMDLI
 40
0.38
  9
$DIMRND
 40
0.0
  9
$DIMDLE
 40
0.0
  9
$DIMEXE
 40
0.18
  9
$DIMTP
 40
0.0
  9
$DIMTM
 40
0.0
  9
$DIMTXT
 40
0.18
  9
$DIMCEN
 40
0.09
  9
$DIMTSZ
 40
0.0
  9
$DIMTOL
 70
     0
  9
$DIMLIM
 70
     0
  9
$DIMTIH
 70
     1
  9
$DIMTOH
 70
     1
  9
$DIMSE1
 70
     0
  9
$DIMSE2
 70
     0
  9
$DIMTAD
 70
     0
  9
$DIMZIN
 70
     0
  9
$DIMBLK
  1

  9
$DIMASO
 70
     1
  9
$DIMSHO
 70
     1
  9
$DIMPOST
  1

  9
$DIMAPOST
  1

  9
$DIMALT
 70
     0
  9
$DIMALTD
 70
     2
  9
$DIMALTF
 40
25.4
  9
$DIMLFAC
 40
1.0
  9
$DIMTOFL
 70
     0
  9
$DIMTVP
 40
0.0
  9
$DIMTIX
 70
     0
  9
$DIMSOXD
 70
     0
  9
$DIMSAH
 70
     0
  9
$DIMBLK1
  1

  9
$DIMBLK2
  1

  9
$DIMSTYLE
  2
Standard
  9
$DIMCLRD
 70
     0
  9
$DIMCLRE
 70
     0
  9
$DIMCLRT
 70
     0
  9
$DIMTFAC
 40
1.0
  9
$DIMGAP
 40
0.09
  9
$DIMJUST
 70
     0
  9
$DIMSD1
 70
     0
  9
$DIMSD2
 70
     0
  9
$DIMTOLJ
 70
     1
  9
$DIMTZIN
 70
     0
  9
$DIMALTZ
 70
     0
  9
$DIMALTTZ
 70
     0
  9
$DIMUPT
 70
     0
  9
$DIMDEC
 70
     4
  9
$DIMTDEC
 70
     4
  9
$DIMALTU
 70
     2
  9
$DIMALTTD
 70
     2
  9
$DIMTXSTY
  7
Standard
  9
$DIMAUNIT
 70
     0
  9
$DIMADEC
 70
     0
  9
$DIMALTRND
 40
0.0
  9
$DIMAZIN
 70
     0
  9
$DIMDSEP
 70
     0
  9
$DIMATFIT
 70
     3
  9
$DIMFRAC
 70
     0
  9
$DIMLDRBLK
  1

  9
$DIMLUNIT
 70
     2
  9
$DIMLWD
 70
     0
  9
$DIMLWE
 70
     0
  9
$DIMTMOVE
 70
     0
  9
$LUNITS
 70
     2
  9
$LUPREC
 70
     4
  9
$SKETCHINC
 40
0.1
  9
$FILLETRAD
 40
0.0
  9
$AUNITS
 70
     0
  9
$AUPREC
 70
     0
  9
$MENU
  1
acad
  9
$ELEVATION
 40
0.0
  9
$PELEVATION
 40
0.0
  9
$THICKNESS
 40
0.0
  9
$LIMCHECK
 70
     0
  9
$CHAMFERA
 40
0.0
  9
$CHAMFERB
 40
0.0
  9
$CHAMFERC
 40
0.0
  9
$CHAMFERD
 40
0.0
  9
$SKPOLY
 70
     0
  9
$TDCREATE
 40
0.000000000
  9
$TDUCREATE
 40
0.000000000
  9
$TDUPDATE
 40
0.000000000
  9
$TDUUPDATE
 40
0.000000000
  9
$TDINDWG
 40
0.0000000000
  9
$TDUSRTIMER
 40
0.0000000000
  9
$USRTIMER
 70
     1
  9
$ANGBASE
 50
0.0
  9
$ANGDIR
 70
     0
  9
$PDMODE
 70
     0
  9
$PDSIZE
 40
0.0
  9
$PLINEWID
 40
0.0
  9
$SPLFRAME
 70
     0
  9
$SPLINETYPE
 70
     6
  9
$SPLINESEGS
 70
     8
  9
$HANDSEED
  5
45
  9
$SURFTAB1
 70
     6
  9
$SURFTAB2
 70
     6
  9
$SURFTYPE
 70
     6
  9
$SURFU
 70
     6
  9
$SURFV
 70
     6
  9
$UCSBASE
  2

  9
$UCSNAME
  2

  9
$UCSORG
 10
0.0
 20
0.0
 30
0.0
  9
$UCSXDIR
 10
1.0
 20
0.0
 30
0.0
  9
$UCSYDIR
 10
0.0
 20
1.0
 30
0.0
  9
$UCSORTHOREF
  2

  9
$UCSORTHOVIEW
 70
     0
  9
$UCSORGTOP
 10
0.0
 20
0.0
 30
0.0
  9
$UCSORGBOTTOM
 10
0.0
 20
0.0
 30
0.0
  9
$UCSORGLEFT
 10
0.0
 20
0.0
 30
0.0
  9
$UCSORGRIGHT
 10
0.0
 20
0.0
 30
0.0
  9
$UCSORGFRONT
 10
0.0
 20
0.0
 30
0.0
  9
$UCSORGBACK
 10
0.0
 20
0.0
 30
0.0
  9
$PUCSBASE
  2

  9
$PUCSNAME
  2

  9
$PUCSORG
 10
0.0
 20
0.0
 30
0.0
  9
$PUCSXDIR
 10
1.0
 20
0.0
 30
0.0
  9
$PUCSYDIR
 10
0.0
 20
1.0
 30
0.0
  9
$PUCSORTHOREF
  2

  9
$PUCSORTHOVIEW
 70
     0
  9
$PUCSORGTOP
 10
0.0
 20
0.0
 30
0.0
  9
$PUCSORGBOTTOM
 10
0.0
 20
0.0
 30
0.0
  9
$PUCSORGLEFT
 10
0.0
 20
0.0
 30
0.0
  9
$PUCSORGRIGHT
 10
0.0
 20
0.0
 30
0.0
  9
$PUCSORGFRONT
 10
0.0
 20
0.0
 30
0.0
  9
$PUCSORGBACK
 10
0.0
 20
0.0
 30
0.0
  9
$USERI1
 70
     0
  9
$USERI2
 70
     0
  9
$USERI3
 70
     0
  9
$USERI4
 70
     0
  9
$USERI5
 70
     0
  9
$USERR1
 40
0.0
  9
$USERR2
 40
0.0
  9
$USERR3
 40
0.0
  9
$USERR4
 40
0.0
  9
$USERR5
 40
0.0
  9
$WORLDVIEW
 70
     1
  9
$SHADEDGE
 70
     3
  9
$SHADEDIF
 70
    70
  9
$TILEMODE
 70
     1
  9
$MAXACTVP
 70
    16
  9
$PINSBASE
 10
0.0
 20
0.0
 30
0.0
  9
$PLIMCHECK
 70
     0
  9
$PEXTMIN
 10
1.000000E+20
 20
1.000000E+20
 30
1.000000E+20
  9
$PEXTMAX
 10
-1.000000E+20
 20
-1.000000E+20
 30
-1.000000E+20
  9
$PLIMMIN
 10
0.0
 20
0.0
  9
$PLIMMAX
 10
12.0
 20
9.0
  9
$UNITMODE
 70
     0
  9
$VISRETAIN
 70
     0
  9
$PLINEGEN
 70
     1
  9
$PSLTSCALE
 70
     0
  9
$TREEDEPTH
 70
  3020
  9
$CMLSTYLE
  2
Standard
  9
$CMLJUST
 70
     0
  9
$CMLSCALE
 40
1.0
  9
$PROXYGRAPHICS
 70
     0
  9
$MEASUREMENT
 70
     0
  9
$CELWEIGHT
370
     0
  9
$ENDCAPS
280
     0
  9
$JOINSTYLE
280
     0
  9
$LWDISPLAY
290
     0
  9
$INSUNITS
 70
     5
  9
$HYPERLINKBASE
  1

  9
$XEDIT
290
     1
  9
$CEPSNTYPE
380
     0
  9
$PSTYLEMODE
290
     1
  9
$FINGERPRINTGUID
  2

  9
$VERSIONGUID
  2

  9
$EXTNAMES
290
     1
  9
$PSVPSCALE
 40
0.0
  0
ENDSEC
  0
SECTION
  2
CLASSES
  0
CLASS
  1
LWPOLYLINE
  2
AcDbPolyline
  3
AutoCAD 2000
 90
    32768
280
     0
281
     1
  0
CLASS
  1
IMAGE
  2
AcDbRasterImage
  3
ISM
 90
    32895
280
     0
281
     1
  0
CLASS
  1
OLE2FRAME
  2
AcDbOle2Frame
  3
AutoCAD 2000
 90
    32768
280
     0
281
     1
  0
CLASS
  1
HATCH
  2
AcDbHatch
  3
AutoCAD 2000
 90
    32768
280
     0
281
     1
  0
CLASS
  1
DICTIONARYVAR
  2
AcDbDictionaryVar
  3
AutoCAD 2000
 90
    32768
280
     0
281
     0
  0
CLASS
  1
RASTERVARIABLES
  2
AcDbRasterVariables
  3
ISM
 90
    32768
280
     0
281
     0
  0
CLASS
  1
IMAGEDEF
  2
AcDbRasterImageDef
  3
ISM
 90
    32768
280
     0
281
     0
  0
CLASS
  1
IMAGEDEF_REACTOR
  2
AcDbRasterImageDefReactor
  3
ISM
 90
    32769
280
     0
281
     0
  0
CLASS
  1
IDBUFFER
  2
AcDbIdBuffer
  3
AutoCAD 2000
 90
    32768
280
     0
281
     0
  0
CLASS
  1
SPATIAL_FILTER
  2
AcDbSpatialFilter
  3
AutoCAD 2000
 90
    32768
280
     0
281
     0
  0
CLASS
  1
XRECORD
  2
AcDbXrecord
  3
AutoCAD 2000
 90
    32768
280
     0
281
     0
  0
CLASS
  1
SORTENTSTABLE
  2
AcDbSortentsTable
  3
AutoCAD 2000
 90
    32768
280
     0
281
     0
  0
CLASS
  1
LAYER_INDEX
  2
AcDbLayerIndex
  3
AutoCAD 2000
 90
    32768
280
     0
281
     0
  0
CLASS
  1
SPATIAL_INDEX
  2
AcDbSpatialIndex
  3
AutoCAD 2000
 90
    32768
280
     0
281
     0
  0
CLASS
  1
OBJECT_PTR
  2
CAseDLPNTableRecord
  3
"ASE-LPNTableRecord"
 90
    32769
280
     0
281
     0
  0
CLASS
  1
LAYOUT
  2
AcDbLayout
  3
AutoCAD 2000
 90
        0
280
     0
281
     0
  0
CLASS
  1
PLOTSETTINGS
  2
AcDbPlotSettings
  3
AutoCAD 2000
 90
    32768
280
     0
281
     0
  0
CLASS
  1
ACDBDICTIONARYWDFLT
  2
AcDbDictionaryWithDefault
  3
AutoCAD 2000
 90
        0
280
     0
281
     0
  0
CLASS
  1
ACDBPLACEHOLDER
  2
AcDbPlaceHolder
  3
AutoCAD 2000
 90
        0
280
     0
281
     0
  0
CLASS
  1
VBA_PROJECT
  2
AcDbVbaProject
  3
acadvba
 90
    32768
280
     0
281
     0
  0
CLASS
  1
WIPEOUT
  2
AcDbWipeout
  3
WipeOut|AutoCAD Express Tool|expresstools@autodesk.com
 90
    32895
280
     0
281
     1
  0
CLASS
  1
WIPEOUTVARIABLES
  2
AcDbWipeoutVariables
  3
WipeOut|AutoCAD Express Tool|expresstools@autodesk.com
 90
        0
280
     0
281
     0
  0
CLASS
  1
RTEXT
  2
RText
  3
RText|AutoCAD Express Tool|expresstools@autodesk.com
 90
    32768
280
     0
281
     1
  0
CLASS
  1
ARCALIGNEDTEXT
  2
AcDbArcAlignedText
  3
ATEXT|AutoCAD Express Tool|expresstools@autodesk.com
 90
    32768
280
     0
281
     1
  0
ENDSEC
  0
SECTION
  2
TABLES
  0
TABLE
  2
VPORT
  5
7
100
AcDbSymbolTable
 70
     1
  0
VPORT
  5
15
100
AcDbSymbolTableRecord
100
AcDbViewportTableRecord
  2
*ACTIVE
 70
     0
 10
0.0
 20
0.0
 11
1.0
 21
1.0
 12
6.591288
 22
4.579184
 13
0.0
 23
0.0
 14
1.0
 24
1.0
 15
0.0
 25
0.0
 16
0.0
 26
0.0
 36
1.0
 17
0.0
 27
0.0
 37
0.0
 40
9.158369
 41
0.688564
 42
50.0
 43
0.0
 44
0.0
 50
0.0
 51
0.0
 71
     0
 72
   100
 73
     1
 74
     1
 75
     0
 76
     0
 77
     0
 78
     0
281
     0
 65
     0
110
0.0
120
0.0
130
0.0
111
1.0
121
0.0
131
0.0
112
0.0
122
1.0
132
0.0
345
0
346
0
 79
     0
146
0.0
  0
ENDTAB
  0
TABLE
  2
LTYPE
  5
4
100
AcDbSymbolTable
 70
     3
  0
LTYPE
  5
11
100
AcDbSymbolTableRecord
100
AcDbLinetypeTableRecord
  2
ByBlock
 70
    64
  3

 72
    65
 73
     0
 40
0.0
  0
LTYPE
  5
12
100
AcDbSymbolTableRecord
100
AcDbLinetypeTableRecord
  2
ByLayer
 70
    64
  3

 72
    65
 73
     0
 40
0.0
  0
LTYPE
  5
13
100
AcDbSymbolTableRecord
100
AcDbLinetypeTableRecord
  2
Continuous
 70
    64
  3
Solid line
 72
    65
 73
     0
 40
0.0
  0
ENDTAB
  0
TABLE
  2
LAYER
  5
2
100
AcDbSymbolTable
 70
     2
  0
LAYER
  5
14
100
AcDbSymbolTableRecord
100
AcDbLayerTableRecord
  2
0
 70
     0
 62
     7
  6
Continuous
290
     1
370
    -3
390
1D
  0
LAYER
  5
24
100
AcDbSymbolTableRecord
100
AcDbLayerTableRecord
  2
Ebene 1
 70
     0
 62
     7
  6
Continuous
290
     1
370
    -3
390
1F
  0
ENDTAB
  0
TABLE
  2
STYLE
  5
3
100
AcDbSymbolTable
 70
     1
  0
STYLE
  5
17
100
AcDbSymbolTableRecord
100
AcDbTextStyleTableRecord
  2
Standard
 70
     0
 40
0.0
 41
1.0
 50
0.0
 71
     0
 42
0.0
  3
txt
  4

  0
ENDTAB
  0
TABLE
  2
VIEW
  5
5
100
AcDbSymbolTable
 70
     0
  0
ENDTAB
  0
TABLE
  2
UCS
  5
6
100
AcDbSymbolTable
 70
     0
  0
ENDTAB
  0
TABLE
  2
APPID
  5
8
100
AcDbSymbolTable
 70
     1
  0
APPID
  5
16
100
AcDbSymbolTableRecord
100
AcDbRegAppTableRecord
  2
ACAD
 70
     0
  0
ENDTAB
  0
TABLE
  2
DIMSTYLE
  5
9
100
AcDbSymbolTable
 70
     1
100
AcDbDimStyleTable
 71
     0
  0
DIMSTYLE
105
18
100
AcDbSymbolTableRecord
100
AcDbDimStyleTableRecord
  2
Standard
 70
     0
  3

  4

 40
1.0
 41
0.18
 42
0.0625
 43
0.38
 44
0.18
 45
0.0
 46
0.0
 47
0.0
 48
0.0
 71
     0
 72
     0
 73
     1
 74
     1
 75
     0
 76
     0
 77
     0
 78
     0
 79
     0
140
0.18
141
0.09
142
0.0
143
25.4
144
1.0
145
0.0
146
1.0
147
0.09
148
0.0
170
     0
171
     2
172
     0
173
     0
174
     0
175
     0
176
     0
177
     0
178
     0
179
     0
271
     4
272
     4
273
     2
274
     2
275
     0
276
     0
277
     2
278
    46
279
     0
280
     0
281
     0
282
     0
283
     1
284
     0
285
     0
286
     0
288
     0
340
17
341
0
342
0
343
0
344
0
371
    -2
372
    -2
  0
ENDTAB
  0
TABLE
  2
BLOCK_RECORD
  5
1
100
AcDbSymbolTable
 70
     0
  0
BLOCK_RECORD
  5
A
100
AcDbSymbolTableRecord
100
AcDbBlockTableRecord
  2
*MODEL_SPACE
340
20
  0
BLOCK_RECORD
  5
B
100
AcDbSymbolTableRecord
100
AcDbBlockTableRecord
  2
*PAPER_SPACE
340
21
  0
ENDTAB
  0
ENDSEC
  0
SECTION
  2
BLOCKS
  0
BLOCK
  5
D
100
AcDbEntity
  8
0
100
AcDbBlockBegin
  2
*MODEL_SPACE
 70
     0
 10
0.0
 20
0.0
 30
0.0
  3
*MODEL_SPACE
  1

  0
ENDBLK
  5
E
100
AcDbEntity
  8
0
100
AcDbBlockEnd
  0
BLOCK
  5
F
100
AcDbEntity
 67
     1
  8
0
100
AcDbBlockBegin
  2
*PAPER_SPACE
 70
     0
 10
0.0
 20
0.0
 30
0.0
  3
*PAPER_SPACE
  1

  0
ENDBLK
  5
10
100
AcDbEntity
 67
     1
  8
0
100
AcDbBlockEnd
  0
ENDSEC
  0
SECTION
  2
ENTITIES
  0
SPLINE
  5
25
100
AcDbEntity
  8
Ebene 1
 62
     5
100
AcDbSpline
210
0.0
220
0.0
230
1.0
 70
     1
 71
     3
 72
   212
 73
   208
 74
     0
 42
0.0000000001
 43
0.0000000001
 40
0.0
 40
0.0
 40
0.0
 40
0.0
 40
0.0192307692307692
 40
0.0192307692307692
 40
0.0192307692307692
 40
0.0192307692307692
 40
0.0384615384615385
 40
0.0384615384615385
 40
0.0384615384615385
 40
0.0384615384615385
 40
0.0576923076923077
 40
0.0576923076923077
 40
0.0576923076923077
 40
0.0576923076923077
 40
0.0769230769230769
 40
0.0769230769230769
 40
0.0769230769230769
 40
0.0769230769230769
 40
0.0961538461538462
 40
0.0961538461538462
 40
0.0961538461538462
 40
0.0961538461538462
 40
0.1153846153846154
 40
0.1153846153846154
 40
0.1153846153846154
 40
0.1153846153846154
 40
0.1346153846153846
 40
0.1346153846153846
 40
0.1346153846153846
 40
0.1346153846153846
 40
0.1538461538461539
 40
0.1538461538461539
 40
0.1538461538461539
 40
0.1538461538461539
 40
0.1730769230769231
 40
0.1730769230769231
 40
0.1730769230769231
 40
0.1730769230769231
 40
0.1923076923076923
 40
0.1923076923076923
 40
0.1923076923076923
 40
0.1923076923076923
 40
0.2115384615384615
 40
0.2115384615384615
 40
0.2115384615384615
 40
0.2115384615384615
 40
0.2307692307692307
 40
0.2307692307692307
 40
0.2307692307692307
 40
0.2307692307692307
 40
0.2499999999999999
 40
0.2499999999999999
 40
0.2499999999999999
 40
0.2499999999999999
 40
0.2692307692307692
 40
0.2692307692307692
 40
0.2692307692307692
 40
0.2692307692307692
 40
0.2884615384615384
 40
0.2884615384615384
 40
0.2884615384615384
 40
0.2884615384615384
 40
0.3076923076923076
 40
0.3076923076923076
 40
0.3076923076923076
 40
0.3076923076923076
 40
0.3269230769230768
 40
0.3269230769230768
 40
0.3269230769230768
 40
0.3269230769230768
 40
0.346153846153846
 40
0.346153846153846
 40
0.346153846153846
 40
0.346153846153846
 40
0.3653846153846153
 40
0.3653846153846153
 40
0.3653846153846153
 40
0.3653846153846153
 40
0.3846153846153845
 40
0.3846153846153845
 40
0.3846153846153845
 40
0.3846153846153845
 40
0.4038461538461537
 40
0.4038461538461537
 40
0.4038461538461537
 40
0.4038461538461537
 40
0.4230769230769229
 40
0.4230769230769229
 40
0.4230769230769229
 40
0.4230769230769229
 40
0.4423076923076921
 40
0.4423076923076921
 40
0.4423076923076921
 40
0.4423076923076921
 40
0.4615384615384613
 40
0.4615384615384613
 40
0.4615384615384613
 40
0.4615384615384613
 40
0.4807692307692306
 40
0.4807692307692306
 40
0.4807692307692306
 40
0.4807692307692306
 40
0.4999999999999998
 40
0.4999999999999998
 40
0.4999999999999998
 40
0.4999999999999998
 40
0.5192307692307691
 40
0.5192307692307691
 40
0.5192307692307691
 40
0.5192307692307691
 40
0.5384615384615383
 40
0.5384615384615383
 40
0.5384615384615383
 40
0.5384615384615383
 40
0.5576923076923076
 40
0.5576923076923076
 40
0.5576923076923076
 40
0.5576923076923076
 40
0.5769230769230769
 40
0.5769230769230769
 40
0.5769230769230769
 40
0.5769230769230769
 40
0.5961538461538462
 40
0.5961538461538462
 40
0.5961538461538462
 40
0.5961538461538462
 40
0.6153846153846154
 40
0.6153846153846154
 40
0.6153846153846154
 40
0.6153846153846154
 40
0.6346153846153847
 40
0.6346153846153847
 40
0.6346153846153847
 40
0.6346153846153847
 40
0.653846153846154
 40
0.653846153846154
 40
0.653846153846154
 40
0.653846153846154
 40
0.6730769230769232
 40
0.6730769230769232
 40
0.6730769230769232
 40
0.6730769230769232
 40
0.6923076923076925
 40
0.6923076923076925
 40
0.6923076923076925
 40
0.6923076923076925
 40
0.7115384615384618
 40
0.7115384615384618
 40
0.7115384615384618
 40
0.7115384615384618
 40
0.7307692307692311
 40
0.7307692307692311
 40
0.7307692307692311
 40
0.7307692307692311
 40
0.7500000000000003
 40
0.7500000000000003
 40
0.7500000000000003
 40
0.7500000000000003
 40
0.7692307692307696
 40
0.7692307692307696
 40
0.7692307692307696
 40
0.7692307692307696
 40
0.7884615384615389
 40
0.7884615384615389
 40
0.7884615384615389
 40
0.7884615384615389
 40
0.8076923076923082
 40
0.8076923076923082
 40
0.8076923076923082
 40
0.8076923076923082
 40
0.8269230769230774
 40
0.8269230769230774
 40
0.8269230769230774
 40
0.8269230769230774
 40
0.8461538461538467
 40
0.8461538461538467
 40
0.8461538461538467
 40
0.8461538461538467
 40
0.865384615384616
 40
0.865384615384616
 40
0.865384615384616
 40
0.865384615384616
 40
0.8846153846153853
 40
0.8846153846153853
 40
0.8846153846153853
 40
0.8846153846153853
 40
0.9038461538461545
 40
0.9038461538461545
 40
0.9038461538461545
 40
0.9038461538461545
 40
0.9230769230769238
 40
0.9230769230769238
 40
0.9230769230769238
 40
0.9230769230769238
 40
0.9423076923076931
 40
0.9423076923076931
 40
0.9423076923076931
 40
0.9423076923076931
 40
0.9615384615384623
 40
0.9615384615384623
 40
0.9615384615384623
 40
0.9615384615384623
 40
0.9807692307692316
 40
0.9807692307692316
 40
0.9807692307692316
 40
0.9807692307692316
 40
1.0
 40
1.0
 40
1.0
 40
1.0
 10
1.2132900000000002
 20
6.4546000000000001
 30
0.0
 10
1.2132900000000002
 20
6.4546000000000001
 30
0.0
 10
1.0347600000000001
 20
6.8831200000000008
 30
0.0
 10
0.5260600000000001
 20
7.3647100000000005
 30
0.0
 10
0.5260600000000001
 20
7.3647100000000005
 30
0.0
 10
-0.07625
 20
7.9349600000000002
 30
0.0
 10
-0.7818600000000001
 20
8.6774100000000001
 30
0.0
 10
-1.5291500000000002
 20
9.0175300000000007
 30
0.0
 10
-1.5291500000000002
 20
9.0175300000000007
 30
0.0
 10
-2.2764500000000001
 20
9.3576500000000014
 30
0.0
 10
-2.7728000000000002
 20
9.5165400000000009
 30
0.0
 10
-3.0776200000000005
 20
9.5830300000000008
 30
0.0
 10
-3.0776200000000005
 20
9.5830300000000008
 30
0.0
 10
-3.3869900000000004
 20
9.650500000000001
 30
0.0
 10
-3.5008700000000004
 20
9.6587300000000003
 30
0.0
 10
-3.5647500000000001
 20
9.5272200000000016
 30
0.0
 10
-3.5647500000000001
 20
9.5272200000000016
 30
0.0
 10
-3.6286300000000002
 20
9.3957300000000004
 30
0.0
 10
-2.50942
 20
9.2267900000000012
 30
0.0
 10
-1.8043100000000001
 20
9.0044900000000005
 30
0.0
 10
-1.8043100000000001
 20
9.0044900000000005
 30
0.0
 10
-1.0992000000000002
 20
8.782210000000001
 30
0.0
 10
-0.8258000000000001
 20
8.5260400000000001
 30
0.0
 10
-0.42088
 20
8.1624600000000012
 30
0.0
 10
-0.42088
 20
8.1624600000000012
 30
0.0
 10
-0.01596
 20
7.7988800000000005
 30
0.0
 10
-0.8063900000000001
 20
8.1058400000000006
 30
0.0
 10
-1.5038800000000001
 20
8.3519900000000007
 30
0.0
 10
-1.5038800000000001
 20
8.3519900000000007
 30
0.0
 10
-1.7505200000000001
 20
8.4390300000000007
 30
0.0
 10
-2.1317700000000004
 20
8.6384699999999999
 30
0.0
 10
-2.5602900000000002
 20
8.8512700000000013
 30
0.0
 10
-2.5602900000000002
 20
8.8512700000000013
 30
0.0
 10
-2.9909400000000002
 20
9.0651100000000007
 30
0.0
 10
-3.2594200000000004
 20
9.2240600000000015
 30
0.0
 10
-3.9101100000000004
 20
9.4220200000000016
 30
0.0
 10
-3.9101100000000004
 20
9.4220200000000016
 30
0.0
 10
-4.5608000000000004
 20
9.6199600000000007
 30
0.0
 10
-5.3974900000000003
 20
9.6208600000000004
 30
0.0
 10
-5.3974900000000003
 20
9.6208600000000004
 30
0.0
 10
-5.3974900000000003
 20
9.6208600000000004
 30
0.0
 10
-5.3974900000000003
 20
9.6208600000000004
 30
0.0
 10
-5.0111100000000004
 20
8.7239400000000007
 30
0.0
 10
-4.0968200000000001
 20
8.0903500000000008
 30
0.0
 10
-4.0968200000000001
 20
8.0903500000000008
 30
0.0
 10
-3.1825400000000004
 20
7.4567800000000002
 30
0.0
 10
-2.58697
 20
7.2207600000000003
 30
0.0
 10
-2.58697
 20
7.2207600000000003
 30
0.0
 10
-2.58697
 20
7.2207600000000003
 30
0.0
 10
-2.58697
 20
7.2207600000000003
 30
0.0
 10
-2.5096800000000004
 20
6.8290700000000006
 30
0.0
 10
-2.17354
 20
6.4924000000000008
 30
0.0
 10
-2.17354
 20
6.4924000000000008
 30
0.0
 10
-1.8373900000000001
 20
6.1557100000000009
 30
0.0
 10
-1.6274200000000001
 20
6.0603800000000003
 30
0.0
 10
-1.6274200000000001
 20
6.0603800000000003
 30
0.0
 10
-1.6274200000000001
 20
6.0603800000000003
 30
0.0
 10
-1.6274200000000001
 20
6.0603800000000003
 30
0.0
 10
-1.4675200000000002
 20
5.4911700000000003
 30
0.0
 10
-1.0981700000000001
 20
5.2383800000000003
 30
0.0
 10
-1.0981700000000001
 20
5.2383800000000003
 30
0.0
 10
-0.72882
 20
4.9855600000000004
 30
0.0
 10
-0.5689200000000001
 20
5.0694900000000001
 30
0.0
 10
-0.5689200000000001
 20
5.0694900000000001
 30
0.0
 10
-0.5689200000000001
 20
5.0694900000000001
 30
0.0
 10
-0.5689200000000001
 20
5.0694900000000001
 30
0.0
 10
-0.18665
 20
4.8834500000000007
 30
0.0
 10
0.30497
 20
4.7994600000000007
 30
0.0
 10
0.30497
 20
4.7994600000000007
 30
0.0
 10
0.8891000000000001
 20
4.6996900000000004
 30
0.0
 10
-0.42216
 20
4.9318200000000001
 30
0.0
 10
-0.44186
 20
5.5692200000000005
 30
0.0
 10
-0.44186
 20
5.5692200000000005
 30
0.0
 10
-0.46157
 20
6.2066100000000004
 30
0.0
 10
0.12045
 20
5.7572300000000007
 30
0.0
 10
0.4432700000000001
 20
5.3066800000000001
 30
0.0
 10
0.4432700000000001
 20
5.3066800000000001
 30
0.0
 10
0.7660800000000001
 20
4.8561700000000005
 30
0.0
 10
0.9487700000000001
 20
4.6472600000000002
 30
0.0
 10
1.0300800000000001
 20
4.5902800000000008
 30
0.0
 10
1.0300800000000001
 20
4.5902800000000008
 30
0.0
 10
1.1074600000000001
 20
4.5360500000000004
 30
0.0
 10
0.46751
 20
5.3750300000000006
 30
0.0
 10
0.31551
 20
5.7399200000000006
 30
0.0
 10
0.31551
 20
5.7399200000000006
 30
0.0
 10
0.16352
 20
6.1048100000000005
 30
0.0
 10
0.03863
 20
6.2017000000000007
 30
0.0
 10
-0.17933
 20
6.3475300000000008
 30
0.0
 10
-0.17933
 20
6.3475300000000008
 30
0.0
 10
-0.41006
 20
6.5019100000000005
 30
0.0
 10
-0.5503100000000001
 20
6.5985400000000007
 30
0.0
 10
-0.9325100000000001
 20
6.5543600000000009
 30
0.0
 10
-0.9325100000000001
 20
6.5543600000000009
 30
0.0
 10
-1.31471
 20
6.5101900000000006
 30
0.0
 10
-1.5363500000000001
 20
6.4433900000000008
 30
0.0
 10
-1.5579400000000001
 20
6.4487800000000002
 30
0.0
 10
-1.5579400000000001
 20
6.4487800000000002
 30
0.0
 10
-1.5795000000000001
 20
6.4541900000000005
 30
0.0
 10
-1.4377200000000001
 20
6.7096000000000009
 30
0.0
 10
-1.2537200000000002
 20
6.8519300000000003
 30
0.0
 10
-1.2537200000000002
 20
6.8519300000000003
 30
0.0
 10
-1.0800500000000002
 20
6.9862900000000003
 30
0.0
 10
-0.91915
 20
7.1250400000000003
 30
0.0
 10
-0.49244
 20
7.0315100000000008
 30
0.0
 10
-0.49244
 20
7.0315100000000008
 30
0.0
 10
-0.06569
 20
6.9379700000000009
 30
0.0
 10
0.33634
 20
6.1115600000000008
 30
0.0
 10
0.58435
 20
5.5736300000000005
 30
0.0
 10
0.58435
 20
5.5736300000000005
 30
0.0
 10
0.8323600000000001
 20
5.03566
 30
0.0
 10
1.1279700000000001
 20
4.7416500000000008
 30
0.0
 10
1.1536200000000001
 20
4.7481300000000006
 30
0.0
 10
1.1536200000000001
 20
4.7481300000000006
 30
0.0
 10
1.1792900000000002
 20
4.7545400000000004
 30
0.0
 10
0.49425
 20
5.9083300000000003
 30
0.0
 10
0.43132
 20
6.3847000000000005
 30
0.0
 10
0.43132
 20
6.3847000000000005
 30
0.0
 10
0.36843
 20
6.8610600000000002
 30
0.0
 10
0.8651300000000001
 20
5.7764400000000009
 30
0.0
 10
0.8651300000000001
 20
5.7764400000000009
 30
0.0
 10
0.8651300000000001
 20
5.7764400000000009
 30
0.0
 10
0.8839400000000001
 20
5.7764400000000009
 30
0.0
 10
0.9020400000000001
 20
5.8616000000000001
 30
0.0
 10
0.86411
 20
5.9997500000000006
 30
0.0
 10
0.86411
 20
5.9997500000000006
 30
0.0
 10
0.7664900000000001
 20
6.3553500000000005
 30
0.0
 10
0.4945500000000001
 20
6.8865300000000005
 30
0.0
 10
0.19338
 20
7.1579400000000009
 30
0.0
 10
0.19338
 20
7.1579400000000009
 30
0.0
 10
-0.22999
 20
7.5395000000000003
 30
0.0
 10
-0.54735
 20
7.5347300000000006
 30
0.0
 10
-0.7422700000000001
 20
7.5296800000000008
 30
0.0
 10
-0.7422700000000001
 20
7.5296800000000008
 30
0.0
 10
-1.0477000000000001
 20
7.5217600000000004
 30
0.0
 10
-1.3754300000000002
 20
7.3741500000000002
 30
0.0
 10
-1.5066900000000001
 20
7.250630000000001
 30
0.0
 10
-1.5066900000000001
 20
7.250630000000001
 30
0.0
 10
-1.7692100000000002
 20
7.0036000000000005
 30
0.0
 10
-1.8184700000000003
 20
6.7802500000000006
 30
0.0
 10
-1.8569500000000001
 20
6.7802500000000006
 30
0.0
 10
-1.8569500000000001
 20
6.7802500000000006
 30
0.0
 10
-1.8954300000000002
 20
6.7802500000000006
 30
0.0
 10
-1.8400700000000001
 20
7.407960000000001
 30
0.0
 10
-1.1922400000000002
 20
7.5765200000000004
 30
0.0
 10
-1.1922400000000002
 20
7.5765200000000004
 30
0.0
 10
-0.54437
 20
7.745070000000001
 30
0.0
 10
-0.12975
 20
7.4985700000000008
 30
0.0
 10
-0.10634
 20
7.5161400000000009
 30
0.0
 10
-0.10634
 20
7.5161400000000009
 30
0.0
 10
-0.08292
 20
7.533710000000001
 30
0.0
 10
-0.7248800000000001
 20
7.8816500000000005
 30
0.0
 10
-1.3452500000000001
 20
7.8706900000000006
 30
0.0
 10
-1.3452500000000001
 20
7.8706900000000006
 30
0.0
 10
-1.9656300000000002
 20
7.8597400000000004
 30
0.0
 10
-2.1416600000000003
 20
7.8787900000000004
 30
0.0
 10
-2.4676300000000002
 20
7.9380000000000006
 30
0.0
 10
-2.4676300000000002
 20
7.9380000000000006
 30
0.0
 10
-2.8000800000000003
 20
7.9983700000000004
 30
0.0
 10
-2.9877500000000001
 20
8.0109600000000007
 30
0.0
 10
-3.2509900000000003
 20
8.2917700000000014
 30
0.0
 10
-3.2509900000000003
 20
8.2917700000000014
 30
0.0
 10
-3.5142200000000003
 20
8.5725500000000014
 30
0.0
 10
-3.1376300000000001
 20
8.8100500000000004
 30
0.0
 10
-2.8480900000000005
 20
8.6157500000000002
 30
0.0
 10
-2.8480900000000005
 20
8.6157500000000002
 30
0.0
 10
-2.5585300000000002
 20
8.4214300000000009
 30
0.0
 10
-2.6355300000000002
 20
8.2862800000000014
 30
0.0
 10
-2.6234700000000002
 20
8.2681900000000006
 30
0.0
 10
-2.6234700000000002
 20
8.2681900000000006
 30
0.0
 10
-2.6113900000000001
 20
8.2501000000000015
 30
0.0
 10
-2.4295100000000001
 20
8.4597700000000007
 30
0.0
 10
-2.9273900000000004
 20
8.8012500000000014
 30
0.0
 10
-2.9273900000000004
 20
8.8012500000000014
 30
0.0
 10
-3.4253000000000005
 20
9.142710000000001
 30
0.0
 10
-4.1459600000000005
 20
9.2648700000000002
 30
0.0
 10
-4.4990100000000002
 20
9.2510200000000005
 30
0.0
 10
-4.4990100000000002
 20
9.2510200000000005
 30
0.0
 10
-4.8521000000000001
 20
9.2371700000000008
 30
0.0
 10
-4.8248700000000007
 20
9.2186400000000006
 30
0.0
 10
-4.8647300000000007
 20
9.2357500000000012
 30
0.0
 10
-4.8647300000000007
 20
9.2357500000000012
 30
0.0
 10
-4.9046000000000003
 20
9.2528200000000016
 30
0.0
 10
-4.7070000000000007
 20
9.3610100000000003
 30
0.0
 10
-4.3632400000000002
 20
9.3549300000000013
 30
0.0
 10
-4.3632400000000002
 20
9.3549300000000013
 30
0.0
 10
-4.0424700000000007
 20
9.349260000000001
 30
0.0
 10
-3.8262200000000002
 20
9.3709800000000012
 30
0.0
 10
-3.0677800000000004
 20
8.99953
 30
0.0
 10
-3.0677800000000004
 20
8.99953
 30
0.0
 10
-2.3093500000000002
 20
8.6280800000000006
 30
0.0
 10
-1.6983400000000002
 20
8.2807300000000001
 30
0.0
 10
-1.05044
 20
8.0631700000000013
 30
0.0
 10
-1.05044
 20
8.0631700000000013
 30
0.0
 10
-0.40254
 20
7.8456100000000006
 30
0.0
 10
-0.3390300000000001
 20
7.8525400000000003
 30
0.0
 10
-0.07544
 20
7.6867400000000004
 30
0.0
 10
-0.07544
 20
7.6867400000000004
 30
0.0
 10
0.21583
 20
7.5035100000000003
 30
0.0
 10
0.36743
 20
7.3292300000000008
 30
0.0
 10
0.8103900000000001
 20
6.810550000000001
 30
0.0
 10
0.8103900000000001
 20
6.810550000000001
 30
0.0
 10
1.2533100000000001
 20
6.2918700000000003
 30
0.0
 10
1.2819700000000001
 20
5.5424700000000007
 30
0.0
 10
1.3087500000000001
 20
5.5398300000000003
 30
0.0
 10
1.3087500000000001
 20
5.5398300000000003
 30
0.0
 10
1.33979
 20
5.5367800000000003
 30
0.0
 10
1.45686
 20
5.9296600000000002
 30
0.0
 10
1.2132900000000002
 20
6.4546000000000001
 30
0.0
  0
SPLINE
  5
26
100
AcDbEntity
  8
Ebene 1
 62
     5
100
AcDbSpline
210
0.0
220
0.0
230
1.0
 70
     1
 71
     3
 72
    68
 73
    64
 74
     0
 42
0.0000000001
 43
0.0000000001
 40
0.0
 40
0.0
 40
0.0
 40
0.0
 40
0.0625
 40
0.0625
 40
0.0625
 40
0.0625
 40
0.125
 40
0.125
 40
0.125
 40
0.125
 40
0.1875
 40
0.1875
 40
0.1875
 40
0.1875
 40
0.25
 40
0.25
 40
0.25
 40
0.25
 40
0.3125
 40
0.3125
 40
0.3125
 40
0.3125
 40
0.375
 40
0.375
 40
0.375
 40
0.375
 40
0.4375
 40
0.4375
 40
0.4375
 40
0.4375
 40
0.5
 40
0.5
 40
0.5
 40
0.5
 40
0.5625
 40
0.5625
 40
0.5625
 40
0.5625
 40
0.625
 40
0.625
 40
0.625
 40
0.625
 40
0.6875
 40
0.6875
 40
0.6875
 40
0.6875
 40
0.75
 40
0.75
 40
0.75
 40
0.75
 40
0.8125
 40
0.8125
 40
0.8125
 40
0.8125
 40
0.875
 40
0.875
 40
0.875
 40
0.875
 40
0.9375
 40
0.9375
 40
0.9375
 40
0.9375
 40
1.0
 40
1.0
 40
1.0
 40
1.0
 10
1.6864400000000002
 20
5.7426400000000006
 30
0.0
 10
1.73377
 20
5.7426400000000006
 30
0.0
 10
1.7747000000000002
 20
5.7067600000000001
 30
0.0
 10
1.7987100000000003
 20
5.6516700000000002
 30
0.0
 10
1.7987100000000003
 20
5.6516700000000002
 30
0.0
 10
1.8212100000000002
 20
5.6000500000000004
 30
0.0
 10
1.8271000000000002
 20
5.5293200000000002
 30
0.0
 10
1.8152500000000003
 20
5.4483800000000002
 30
0.0
 10
1.8152500000000003
 20
5.4483800000000002
 30
0.0
 10
1.8033600000000001
 20
5.3673700000000002
 30
0.0
 10
1.7777000000000001
 20
5.2842900000000004
 30
0.0
 10
1.7546900000000001
 20
5.21408
 30
0.0
 10
1.7546900000000001
 20
5.21408
 30
0.0
 10
1.7436600000000002
 20
5.1803500000000007
 30
0.0
 10
1.7335700000000001
 20
5.1498300000000006
 30
0.0
 10
1.7240800000000001
 20
5.1246100000000006
 30
0.0
 10
1.7240800000000001
 20
5.1246100000000006
 30
0.0
 10
1.7563400000000002
 20
5.0882300000000003
 30
0.0
 10
1.7835500000000002
 20
5.00617
 30
0.0
 10
1.8015000000000001
 20
4.8960600000000003
 30
0.0
 10
1.8015000000000001
 20
4.8960600000000003
 30
0.0
 10
1.8245900000000002
 20
4.7546100000000004
 30
0.0
 10
1.8306200000000001
 20
4.5608500000000003
 30
0.0
 10
1.8184600000000002
 20
4.3390599999999999
 30
0.0
 10
1.8184600000000002
 20
4.3390599999999999
 30
0.0
 10
1.8062900000000002
 20
4.1170600000000004
 30
0.0
 10
1.7799700000000001
 20
3.8894700000000002
 30
0.0
 10
1.7563700000000002
 20
3.6971000000000003
 30
0.0
 10
1.7563700000000002
 20
3.6971000000000003
 30
0.0
 10
1.7321200000000001
 20
3.4990100000000002
 30
0.0
 10
1.7124700000000002
 20
3.3408700000000002
 30
0.0
 10
1.6931900000000002
 20
3.2814100000000002
 30
0.0
 10
1.6931900000000002
 20
3.2814100000000002
 30
0.0
 10
1.6735000000000002
 20
3.3365400000000003
 30
0.0
 10
1.6526900000000002
 20
3.4964600000000003
 30
0.0
 10
1.62697
 20
3.6955200000000001
 30
0.0
 10
1.62697
 20
3.6955200000000001
 30
0.0
 10
1.6019300000000001
 20
3.8893300000000002
 30
0.0
 10
1.5739900000000002
 20
4.1170600000000004
 30
0.0
 10
1.5602100000000001
 20
4.3390599999999999
 30
0.0
 10
1.5602100000000001
 20
4.3390599999999999
 30
0.0
 10
1.5464100000000001
 20
4.5608500000000003
 30
0.0
 10
1.55098
 20
4.7544700000000004
 30
0.0
 10
1.5729900000000001
 20
4.8958600000000008
 30
0.0
 10
1.5729900000000001
 20
4.8958600000000008
 30
0.0
 10
1.5916100000000002
 20
5.0156100000000006
 30
0.0
 10
1.6214600000000001
 20
5.10222
 30
0.0
 10
1.6572300000000002
 20
5.1330100000000005
 30
0.0
 10
1.6572300000000002
 20
5.1330100000000005
 30
0.0
 10
1.6482800000000002
 20
5.1563000000000008
 30
0.0
 10
1.6387900000000002
 20
5.1837300000000006
 30
0.0
 10
1.6284900000000002
 20
5.2134900000000002
 30
0.0
 10
1.6284900000000002
 20
5.2134900000000002
 30
0.0
 10
1.6040800000000002
 20
5.2842400000000005
 30
0.0
 10
1.5768300000000002
 20
5.3673700000000002
 30
0.0
 10
1.5634000000000001
 20
5.4483800000000002
 30
0.0
 10
1.5634000000000001
 20
5.4483800000000002
 30
0.0
 10
1.5499400000000001
 20
5.5293200000000002
 30
0.0
 10
1.5544000000000002
 20
5.6000100000000002
 30
0.0
 10
1.5758700000000001
 20
5.6515900000000006
 30
0.0
 10
1.5758700000000001
 20
5.6515900000000006
 30
0.0
 10
1.5987800000000001
 20
5.7067600000000001
 30
0.0
 10
1.6390900000000002
 20
5.7426400000000006
 30
0.0
 10
1.6864400000000002
 20
5.7426400000000006
 30
0.0
  0
SPLINE
  5
27
100
AcDbEntity
  8
Ebene 1
 62
     5
100
AcDbSpline
210
0.0
220
0.0
230
1.0
 70
     1
 71
     3
 72
    44
 73
    40
 74
     0
 42
0.0000000001
 43
0.0000000001
 40
0.0
 40
0.0
 40
0.0
 40
0.0
 40
0.1
 40
0.1
 40
0.1
 40
0.1
 40
0.2
 40
0.2
 40
0.2
 40
0.2
 40
0.3
 40
0.3
 40
0.3
 40
0.3
 40
0.4
 40
0.4
 40
0.4
 40
0.4
 40
0.5
 40
0.5
 40
0.5
 40
0.5
 40
0.6
 40
0.6
 40
0.6
 40
0.6
 40
0.7
 40
0.7
 40
0.7
 40
0.7
 40
0.7999999999999999
 40
0.7999999999999999
 40
0.7999999999999999
 40
0.7999999999999999
 40
0.8999999999999999
 40
0.8999999999999999
 40
0.8999999999999999
 40
0.8999999999999999
 40
1.0
 40
1.0
 40
1.0
 40
1.0
 10
1.5875700000000001
 20
6.0085200000000007
 30
0.0
 10
1.5614300000000001
 20
6.0226100000000002
 30
0.0
 10
0.36189
 20
8.805060000000001
 30
0.0
 10
0.01298
 20
8.99376
 30
0.0
 10
0.01298
 20
8.99376
 30
0.0
 10
-0.21376
 20
9.1164300000000011
 30
0.0
 10
-0.02153
 20
8.8040400000000005
 30
0.0
 10
0.03684
 20
8.7479200000000006
 30
0.0
 10
0.03684
 20
8.7479200000000006
 30
0.0
 10
0.09522
 20
8.6918000000000006
 30
0.0
 10
0.22772
 20
8.5137900000000002
 30
0.0
 10
0.22772
 20
8.5137900000000002
 30
0.0
 10
0.22772
 20
8.5137900000000002
 30
0.0
 10
0.2158
 20
8.5058500000000006
 30
0.0
 10
-0.1758
 20
8.8349900000000012
 30
0.0
 10
-0.2733
 20
9.0522900000000011
 30
0.0
 10
-0.2733
 20
9.0522900000000011
 30
0.0
 10
-0.37079
 20
9.2695900000000009
 30
0.0
 10
-0.05858
 20
9.1810700000000001
 30
0.0
 10
-0.05858
 20
9.1810700000000001
 30
0.0
 10
-0.05858
 20
9.1810700000000001
 30
0.0
 10
-0.05858
 20
9.1810700000000001
 30
0.0
 10
-0.18308
 20
9.4337
 30
0.0
 10
-0.31493
 20
9.4209000000000014
 30
0.0
 10
-0.31493
 20
9.4209000000000014
 30
0.0
 10
-0.4467700000000001
 20
9.4081200000000003
 30
0.0
 10
-0.35448
 20
9.1881500000000003
 30
0.0
 10
-0.35448
 20
9.1881500000000003
 30
0.0
 10
-0.35448
 20
9.1881500000000003
 30
0.0
 10
-0.35448
 20
9.1881500000000003
 30
0.0
 10
-0.49993
 20
9.3683800000000002
 30
0.0
 10
-0.42836
 20
9.4503200000000014
 30
0.0
 10
-0.42836
 20
9.4503200000000014
 30
0.0
 10
-0.3567900000000001
 20
9.5322800000000001
 30
0.0
 10
-0.17787
 20
9.6376300000000015
 30
0.0
 10
0.25156
 20
8.8532700000000002
 30
0.0
 10
0.25156
 20
8.8532700000000002
 30
0.0
 10
0.6809900000000001
 20
8.0689100000000007
 30
0.0
 10
1.5875700000000001
 20
6.0085200000000007
 30
0.0
 10
1.5875700000000001
 20
6.0085200000000007
 30
0.0
  0
SPLINE
  5
28
100
AcDbEntity
  8
Ebene 1
 62
     5
100
AcDbSpline
210
0.0
220
0.0
230
1.0
 70
     1
 71
     3
 72
    44
 73
    40
 74
     0
 42
0.0000000001
 43
0.0000000001
 40
0.0
 40
0.0
 40
0.0
 40
0.0
 40
0.1
 40
0.1
 40
0.1
 40
0.1
 40
0.2
 40
0.2
 40
0.2
 40
0.2
 40
0.3
 40
0.3
 40
0.3
 40
0.3
 40
0.4
 40
0.4
 40
0.4
 40
0.4
 40
0.5
 40
0.5
 40
0.5
 40
0.5
 40
0.6
 40
0.6
 40
0.6
 40
0.6
 40
0.7
 40
0.7
 40
0.7
 40
0.7
 40
0.7999999999999999
 40
0.7999999999999999
 40
0.7999999999999999
 40
0.7999999999999999
 40
0.8999999999999999
 40
0.8999999999999999
 40
0.8999999999999999
 40
0.8999999999999999
 40
1.0
 40
1.0
 40
1.0
 40
1.0
 10
1.7642600000000002
 20
6.0085200000000007
 30
0.0
 10
1.7904100000000001
 20
6.0226100000000002
 30
0.0
 10
2.9899600000000004
 20
8.805060000000001
 30
0.0
 10
3.3388400000000003
 20
8.99376
 30
0.0
 10
3.3388400000000003
 20
8.99376
 30
0.0
 10
3.5656300000000001
 20
9.1164300000000011
 30
0.0
 10
3.3733600000000004
 20
8.8040400000000005
 30
0.0
 10
3.3150100000000005
 20
8.7479200000000006
 30
0.0
 10
3.3150100000000005
 20
8.7479200000000006
 30
0.0
 10
3.25665
 20
8.6918000000000006
 30
0.0
 10
3.1241500000000002
 20
8.5137900000000002
 30
0.0
 10
3.1241500000000002
 20
8.5137900000000002
 30
0.0
 10
3.1241500000000002
 20
8.5137900000000002
 30
0.0
 10
3.1360300000000003
 20
8.5058500000000006
 30
0.0
 10
3.5276400000000003
 20
8.8349900000000012
 30
0.0
 10
3.6251300000000004
 20
9.0522900000000011
 30
0.0
 10
3.6251300000000004
 20
9.0522900000000011
 30
0.0
 10
3.7226300000000001
 20
9.2695900000000009
 30
0.0
 10
3.4104300000000003
 20
9.1810700000000001
 30
0.0
 10
3.4104300000000003
 20
9.1810700000000001
 30
0.0
 10
3.4104300000000003
 20
9.1810700000000001
 30
0.0
 10
3.4104300000000003
 20
9.1810700000000001
 30
0.0
 10
3.5349400000000002
 20
9.4337
 30
0.0
 10
3.6667800000000002
 20
9.4209000000000014
 30
0.0
 10
3.6667800000000002
 20
9.4209000000000014
 30
0.0
 10
3.7986200000000001
 20
9.4081200000000003
 30
0.0
 10
3.7063300000000003
 20
9.1881500000000003
 30
0.0
 10
3.7063300000000003
 20
9.1881500000000003
 30
0.0
 10
3.7063300000000003
 20
9.1881500000000003
 30
0.0
 10
3.7063300000000003
 20
9.1881500000000003
 30
0.0
 10
3.8517900000000003
 20
9.3683800000000002
 30
0.0
 10
3.7802300000000004
 20
9.4503200000000014
 30
0.0
 10
3.7802300000000004
 20
9.4503200000000014
 30
0.0
 10
3.7086400000000004
 20
9.5322800000000001
 30
0.0
 10
3.5297000000000005
 20
9.6376300000000015
 30
0.0
 10
3.1002700000000001
 20
8.8532700000000002
 30
0.0
 10
3.1002700000000001
 20
8.8532700000000002
 30
0.0
 10
2.6708400000000001
 20
8.0689100000000007
 30
0.0
 10
1.7642600000000002
 20
6.0085200000000007
 30
0.0
 10
1.7642600000000002
 20
6.0085200000000007
 30
0.0
  0
SPLINE
  5
29
100
AcDbEntity
  8
Ebene 1
 62
     5
100
AcDbSpline
210
0.0
220
0.0
230
1.0
 70
     1
 71
     3
 72
    36
 73
    32
 74
     0
 42
0.0000000001
 43
0.0000000001
 40
0.0
 40
0.0
 40
0.0
 40
0.0
 40
0.125
 40
0.125
 40
0.125
 40
0.125
 40
0.25
 40
0.25
 40
0.25
 40
0.25
 40
0.375
 40
0.375
 40
0.375
 40
0.375
 40
0.5
 40
0.5
 40
0.5
 40
0.5
 40
0.625
 40
0.625
 40
0.625
 40
0.625
 40
0.75
 40
0.75
 40
0.75
 40
0.75
 40
0.875
 40
0.875
 40
0.875
 40
0.875
 40
1.0
 40
1.0
 40
1.0
 40
1.0
 10
1.6804400000000002
 20
5.9860200000000008
 30
0.0
 10
1.70625
 20
5.9860200000000008
 30
0.0
 10
1.7294100000000001
 20
5.9738600000000002
 30
0.0
 10
1.7480000000000002
 20
5.9555200000000008
 30
0.0
 10
1.7480000000000002
 20
5.9555200000000008
 30
0.0
 10
1.7674700000000001
 20
5.9362600000000008
 30
0.0
 10
1.7850700000000002
 20
5.9107100000000008
 30
0.0
 10
1.7948500000000001
 20
5.8821000000000003
 30
0.0
 10
1.7948500000000001
 20
5.8821000000000003
 30
0.0
 10
1.8078100000000001
 20
5.8534900000000007
 30
0.0
 10
1.8076000000000001
 20
5.8267000000000007
 30
0.0
 10
1.7904100000000001
 20
5.8086900000000004
 30
0.0
 10
1.7904100000000001
 20
5.8086900000000004
 30
0.0
 10
1.7716700000000001
 20
5.7890500000000005
 30
0.0
 10
1.7332900000000002
 20
5.7782100000000005
 30
0.0
 10
1.6863900000000001
 20
5.7782100000000005
 30
0.0
 10
1.6863900000000001
 20
5.7782100000000005
 30
0.0
 10
1.63948
 20
5.7782100000000005
 30
0.0
 10
1.59979
 20
5.7889800000000005
 30
0.0
 10
1.5791600000000001
 20
5.8086900000000004
 30
0.0
 10
1.5791600000000001
 20
5.8086900000000004
 30
0.0
 10
1.5603
 20
5.8266500000000008
 30
0.0
 10
1.5580200000000002
 20
5.8534900000000007
 30
0.0
 10
1.5691000000000002
 20
5.8821000000000003
 30
0.0
 10
1.5691000000000002
 20
5.8821000000000003
 30
0.0
 10
1.5775000000000001
 20
5.9107100000000008
 30
0.0
 10
1.5941900000000002
 20
5.9363200000000003
 30
0.0
 10
1.6131900000000001
 20
5.9555200000000008
 30
0.0
 10
1.6131900000000001
 20
5.9555200000000008
 30
0.0
 10
1.6315200000000001
 20
5.9739400000000007
 30
0.0
 10
1.6546400000000001
 20
5.9860200000000008
 30
0.0
 10
1.6804400000000002
 20
5.9860200000000008
 30
0.0
  0
SPLINE
  5
2A
100
AcDbEntity
  8
Ebene 1
 62
     5
100
AcDbSpline
210
0.0
220
0.0
230
1.0
 70
     1
 71
     3
 72
   212
 73
   208
 74
     0
 42
0.0000000001
 43
0.0000000001
 40
0.0
 40
0.0
 40
0.0
 40
0.0
 40
0.0192307692307692
 40
0.0192307692307692
 40
0.0192307692307692
 40
0.0192307692307692
 40
0.0384615384615385
 40
0.0384615384615385
 40
0.0384615384615385
 40
0.0384615384615385
 40
0.0576923076923077
 40
0.0576923076923077
 40
0.0576923076923077
 40
0.0576923076923077
 40
0.0769230769230769
 40
0.0769230769230769
 40
0.0769230769230769
 40
0.0769230769230769
 40
0.0961538461538462
 40
0.0961538461538462
 40
0.0961538461538462
 40
0.0961538461538462
 40
0.1153846153846154
 40
0.1153846153846154
 40
0.1153846153846154
 40
0.1153846153846154
 40
0.1346153846153846
 40
0.1346153846153846
 40
0.1346153846153846
 40
0.1346153846153846
 40
0.1538461538461539
 40
0.1538461538461539
 40
0.1538461538461539
 40
0.1538461538461539
 40
0.1730769230769231
 40
0.1730769230769231
 40
0.1730769230769231
 40
0.1730769230769231
 40
0.1923076923076923
 40
0.1923076923076923
 40
0.1923076923076923
 40
0.1923076923076923
 40
0.2115384615384615
 40
0.2115384615384615
 40
0.2115384615384615
 40
0.2115384615384615
 40
0.2307692307692307
 40
0.2307692307692307
 40
0.2307692307692307
 40
0.2307692307692307
 40
0.2499999999999999
 40
0.2499999999999999
 40
0.2499999999999999
 40
0.2499999999999999
 40
0.2692307692307692
 40
0.2692307692307692
 40
0.2692307692307692
 40
0.2692307692307692
 40
0.2884615384615384
 40
0.2884615384615384
 40
0.2884615384615384
 40
0.2884615384615384
 40
0.3076923076923076
 40
0.3076923076923076
 40
0.3076923076923076
 40
0.3076923076923076
 40
0.3269230769230768
 40
0.3269230769230768
 40
0.3269230769230768
 40
0.3269230769230768
 40
0.346153846153846
 40
0.346153846153846
 40
0.346153846153846
 40
0.346153846153846
 40
0.3653846153846153
 40
0.3653846153846153
 40
0.3653846153846153
 40
0.3653846153846153
 40
0.3846153846153845
 40
0.3846153846153845
 40
0.3846153846153845
 40
0.3846153846153845
 40
0.4038461538461537
 40
0.4038461538461537
 40
0.4038461538461537
 40
0.4038461538461537
 40
0.4230769230769229
 40
0.4230769230769229
 40
0.4230769230769229
 40
0.4230769230769229
 40
0.4423076923076921
 40
0.4423076923076921
 40
0.4423076923076921
 40
0.4423076923076921
 40
0.4615384615384613
 40
0.4615384615384613
 40
0.4615384615384613
 40
0.4615384615384613
 40
0.4807692307692306
 40
0.4807692307692306
 40
0.4807692307692306
 40
0.4807692307692306
 40
0.4999999999999998
 40
0.4999999999999998
 40
0.4999999999999998
 40
0.4999999999999998
 40
0.5192307692307691
 40
0.5192307692307691
 40
0.5192307692307691
 40
0.5192307692307691
 40
0.5384615384615383
 40
0.5384615384615383
 40
0.5384615384615383
 40
0.5384615384615383
 40
0.5576923076923076
 40
0.5576923076923076
 40
0.5576923076923076
 40
0.5576923076923076
 40
0.5769230769230769
 40
0.5769230769230769
 40
0.5769230769230769
 40
0.5769230769230769
 40
0.5961538461538462
 40
0.5961538461538462
 40
0.5961538461538462
 40
0.5961538461538462
 40
0.6153846153846154
 40
0.6153846153846154
 40
0.6153846153846154
 40
0.6153846153846154
 40
0.6346153846153847
 40
0.6346153846153847
 40
0.6346153846153847
 40
0.6346153846153847
 40
0.653846153846154
 40
0.653846153846154
 40
0.653846153846154
 40
0.653846153846154
 40
0.6730769230769232
 40
0.6730769230769232
 40
0.6730769230769232
 40
0.6730769230769232
 40
0.6923076923076925
 40
0.6923076923076925
 40
0.6923076923076925
 40
0.6923076923076925
 40
0.7115384615384618
 40
0.7115384615384618
 40
0.7115384615384618
 40
0.7115384615384618
 40
0.7307692307692311
 40
0.7307692307692311
 40
0.7307692307692311
 40
0.7307692307692311
 40
0.7500000000000003
 40
0.7500000000000003
 40
0.7500000000000003
 40
0.7500000000000003
 40
0.7692307692307696
 40
0.7692307692307696
 40
0.7692307692307696
 40
0.7692307692307696
 40
0.7884615384615389
 40
0.7884615384615389
 40
0.7884615384615389
 40
0.7884615384615389
 40
0.8076923076923082
 40
0.8076923076923082
 40
0.8076923076923082
 40
0.8076923076923082
 40
0.8269230769230774
 40
0.8269230769230774
 40
0.8269230769230774
 40
0.8269230769230774
 40
0.8461538461538467
 40
0.8461538461538467
 40
0.8461538461538467
 40
0.8461538461538467
 40
0.865384615384616
 40
0.865384615384616
 40
0.865384615384616
 40
0.865384615384616
 40
0.8846153846153853
 40
0.8846153846153853
 40
0.8846153846153853
 40
0.8846153846153853
 40
0.9038461538461545
 40
0.9038461538461545
 40
0.9038461538461545
 40
0.9038461538461545
 40
0.9230769230769238
 40
0.9230769230769238
 40
0.9230769230769238
 40
0.9230769230769238
 40
0.9423076923076931
 40
0.9423076923076931
 40
0.9423076923076931
 40
0.9423076923076931
 40
0.9615384615384623
 40
0.9615384615384623
 40
0.9615384615384623
 40
0.9615384615384623
 40
0.9807692307692316
 40
0.9807692307692316
 40
0.9807692307692316
 40
0.9807692307692316
 40
1.0
 40
1.0
 40
1.0
 40
1.0
 10
2.1641700000000004
 20
6.4546000000000001
 30
0.0
 10
2.1641700000000004
 20
6.4546000000000001
 30
0.0
 10
2.3426900000000002
 20
6.8831200000000008
 30
0.0
 10
2.8514000000000004
 20
7.3647100000000005
 30
0.0
 10
2.8514000000000004
 20
7.3647100000000005
 30
0.0
 10
3.4537000000000004
 20
7.9349600000000002
 30
0.0
 10
4.1592900000000004
 20
8.6774100000000001
 30
0.0
 10
4.9066000000000001
 20
9.0175300000000007
 30
0.0
 10
4.9066000000000001
 20
9.0175300000000007
 30
0.0
 10
5.6539200000000003
 20
9.3576500000000014
 30
0.0
 10
6.1502500000000007
 20
9.5165400000000009
 30
0.0
 10
6.4550700000000001
 20
9.5830300000000008
 30
0.0
 10
6.4550700000000001
 20
9.5830300000000008
 30
0.0
 10
6.7644400000000005
 20
9.650500000000001
 30
0.0
 10
6.8783400000000006
 20
9.6587300000000003
 30
0.0
 10
6.9422100000000002
 20
9.5272200000000016
 30
0.0
 10
6.9422100000000002
 20
9.5272200000000016
 30
0.0
 10
7.0061100000000005
 20
9.3957300000000004
 30
0.0
 10
5.88687
 20
9.2267900000000012
 30
0.0
 10
5.1817600000000006
 20
9.0044900000000005
 30
0.0
 10
5.1817600000000006
 20
9.0044900000000005
 30
0.0
 10
4.4766600000000007
 20
8.782210000000001
 30
0.0
 10
4.2032500000000006
 20
8.5260400000000001
 30
0.0
 10
3.7983500000000001
 20
8.1624600000000012
 30
0.0
 10
3.7983500000000001
 20
8.1624600000000012
 30
0.0
 10
3.3934100000000003
 20
7.7988800000000005
 30
0.0
 10
4.1838600000000001
 20
8.1058400000000006
 30
0.0
 10
4.8813500000000003
 20
8.3519900000000007
 30
0.0
 10
4.8813500000000003
 20
8.3519900000000007
 30
0.0
 10
5.1279900000000005
 20
8.4390300000000007
 30
0.0
 10
5.5092200000000009
 20
8.6384699999999999
 30
0.0
 10
5.9377600000000008
 20
8.8512700000000013
 30
0.0
 10
5.9377600000000008
 20
8.8512700000000013
 30
0.0
 10
6.3683900000000007
 20
9.0651100000000007
 30
0.0
 10
6.6368700000000009
 20
9.2240600000000015
 30
0.0
 10
7.2875800000000002
 20
9.4220200000000016
 30
0.0
 10
7.2875800000000002
 20
9.4220200000000016
 30
0.0
 10
7.9382500000000009
 20
9.6199600000000007
 30
0.0
 10
8.7749600000000001
 20
9.6208600000000004
 30
0.0
 10
8.7749600000000001
 20
9.6208600000000004
 30
0.0
 10
8.7749600000000001
 20
9.6208600000000004
 30
0.0
 10
8.7749600000000001
 20
9.6208600000000004
 30
0.0
 10
8.38856
 20
8.7239400000000007
 30
0.0
 10
7.4743000000000004
 20
8.0903500000000008
 30
0.0
 10
7.4743000000000004
 20
8.0903500000000008
 30
0.0
 10
6.5600100000000001
 20
7.4567800000000002
 30
0.0
 10
5.9644200000000005
 20
7.2207600000000003
 30
0.0
 10
5.9644200000000005
 20
7.2207600000000003
 30
0.0
 10
5.9644200000000005
 20
7.2207600000000003
 30
0.0
 10
5.9644200000000005
 20
7.2207600000000003
 30
0.0
 10
5.8871100000000007
 20
6.8290700000000006
 30
0.0
 10
5.5509700000000004
 20
6.4924000000000008
 30
0.0
 10
5.5509700000000004
 20
6.4924000000000008
 30
0.0
 10
5.2148400000000006
 20
6.1557100000000009
 30
0.0
 10
5.0048900000000005
 20
6.0603800000000003
 30
0.0
 10
5.0048900000000005
 20
6.0603800000000003
 30
0.0
 10
5.0048900000000005
 20
6.0603800000000003
 30
0.0
 10
5.0048900000000005
 20
6.0603800000000003
 30
0.0
 10
4.84497
 20
5.4911700000000003
 30
0.0
 10
4.4756200000000002
 20
5.2383800000000003
 30
0.0
 10
4.4756200000000002
 20
5.2383800000000003
 30
0.0
 10
4.1062700000000003
 20
4.9855600000000004
 30
0.0
 10
3.9463900000000005
 20
5.0694900000000001
 30
0.0
 10
3.9463900000000005
 20
5.0694900000000001
 30
0.0
 10
3.9463900000000005
 20
5.0694900000000001
 30
0.0
 10
3.9463900000000005
 20
5.0694900000000001
 30
0.0
 10
3.5641200000000004
 20
4.8834500000000007
 30
0.0
 10
3.07247
 20
4.7994600000000007
 30
0.0
 10
3.07247
 20
4.7994600000000007
 30
0.0
 10
2.4883500000000001
 20
4.6996900000000004
 30
0.0
 10
3.7996300000000005
 20
4.9318200000000001
 30
0.0
 10
3.8193300000000003
 20
5.5692200000000005
 30
0.0
 10
3.8193300000000003
 20
5.5692200000000005
 30
0.0
 10
3.8390400000000002
 20
6.2066100000000004
 30
0.0
 10
3.2570200000000002
 20
5.7572300000000007
 30
0.0
 10
2.9341800000000005
 20
5.3066800000000001
 30
0.0
 10
2.9341800000000005
 20
5.3066800000000001
 30
0.0
 10
2.61138
 20
4.8561700000000005
 30
0.0
 10
2.4286800000000004
 20
4.6472600000000002
 30
0.0
 10
2.3473800000000002
 20
4.5902800000000008
 30
0.0
 10
2.3473800000000002
 20
4.5902800000000008
 30
0.0
 10
2.27
 20
4.5360500000000004
 30
0.0
 10
2.9099600000000003
 20
5.3750300000000006
 30
0.0
 10
3.0619600000000005
 20
5.7399200000000006
 30
0.0
 10
3.0619600000000005
 20
5.7399200000000006
 30
0.0
 10
3.2139200000000003
 20
6.1048100000000005
 30
0.0
 10
3.3388400000000003
 20
6.2017000000000007
 30
0.0
 10
3.5567800000000003
 20
6.3475300000000008
 30
0.0
 10
3.5567800000000003
 20
6.3475300000000008
 30
0.0
 10
3.7875300000000003
 20
6.5019100000000005
 30
0.0
 10
3.9277800000000003
 20
6.5985400000000007
 30
0.0
 10
4.3099800000000004
 20
6.5543600000000009
 30
0.0
 10
4.3099800000000004
 20
6.5543600000000009
 30
0.0
 10
4.6921800000000005
 20
6.5101900000000006
 30
0.0
 10
4.9138000000000002
 20
6.4433900000000008
 30
0.0
 10
4.9354100000000001
 20
6.4487800000000002
 30
0.0
 10
4.9354100000000001
 20
6.4487800000000002
 30
0.0
 10
4.9569700000000001
 20
6.4541900000000005
 30
0.0
 10
4.8151700000000002
 20
6.7096000000000009
 30
0.0
 10
4.63117
 20
6.8519300000000003
 30
0.0
 10
4.63117
 20
6.8519300000000003
 30
0.0
 10
4.4575000000000005
 20
6.9862900000000003
 30
0.0
 10
4.2966100000000003
 20
7.1250400000000003
 30
0.0
 10
3.8699000000000003
 20
7.0315100000000008
 30
0.0
 10
3.8699000000000003
 20
7.0315100000000008
 30
0.0
 10
3.4431600000000002
 20
6.9379700000000009
 30
0.0
 10
3.0411200000000003
 20
6.1115600000000008
 30
0.0
 10
2.7931100000000004
 20
5.5736300000000005
 30
0.0
 10
2.7931100000000004
 20
5.5736300000000005
 30
0.0
 10
2.5450900000000001
 20
5.03566
 30
0.0
 10
2.2495000000000003
 20
4.7416500000000008
 30
0.0
 10
2.22384
 20
4.7481300000000006
 30
0.0
 10
2.22384
 20
4.7481300000000006
 30
0.0
 10
2.1981700000000002
 20
4.7545400000000004
 30
0.0
 10
2.8831900000000004
 20
5.9083300000000003
 30
0.0
 10
2.9461000000000004
 20
6.3847000000000005
 30
0.0
 10
2.9461000000000004
 20
6.3847000000000005
 30
0.0
 10
3.0090100000000004
 20
6.8610600000000002
 30
0.0
 10
2.5123300000000004
 20
5.7764400000000009
 30
0.0
 10
2.5123300000000004
 20
5.7764400000000009
 30
0.0
 10
2.5123300000000004
 20
5.7764400000000009
 30
0.0
 10
2.4935200000000002
 20
5.7764400000000009
 30
0.0
 10
2.4754300000000002
 20
5.8616000000000001
 30
0.0
 10
2.5133300000000003
 20
5.9997500000000006
 30
0.0
 10
2.5133300000000003
 20
5.9997500000000006
 30
0.0
 10
2.6109600000000004
 20
6.3553500000000005
 30
0.0
 10
2.8828800000000001
 20
6.8865300000000005
 30
0.0
 10
3.1840900000000003
 20
7.1579400000000009
 30
0.0
 10
3.1840900000000003
 20
7.1579400000000009
 30
0.0
 10
3.6074600000000001
 20
7.5395000000000003
 30
0.0
 10
3.9248200000000004
 20
7.5347300000000006
 30
0.0
 10
4.1197400000000002
 20
7.5296800000000008
 30
0.0
 10
4.1197400000000002
 20
7.5296800000000008
 30
0.0
 10
4.4251500000000004
 20
7.5217600000000004
 30
0.0
 10
4.7528800000000002
 20
7.3741500000000002
 30
0.0
 10
4.8841400000000004
 20
7.250630000000001
 30
0.0
 10
4.8841400000000004
 20
7.250630000000001
 30
0.0
 10
5.1466900000000004
 20
7.0036000000000005
 30
0.0
 10
5.1959200000000001
 20
6.7802500000000006
 30
0.0
 10
5.2344100000000005
 20
6.7802500000000006
 30
0.0
 10
5.2344100000000005
 20
6.7802500000000006
 30
0.0
 10
5.2728900000000003
 20
6.7802500000000006
 30
0.0
 10
5.2175200000000004
 20
7.407960000000001
 30
0.0
 10
4.5696700000000003
 20
7.5765200000000004
 30
0.0
 10
4.5696700000000003
 20
7.5765200000000004
 30
0.0
 10
3.9218200000000003
 20
7.745070000000001
 30
0.0
 10
3.5072400000000004
 20
7.4985700000000008
 30
0.0
 10
3.4838100000000001
 20
7.5161400000000009
 30
0.0
 10
3.4838100000000001
 20
7.5161400000000009
 30
0.0
 10
3.4603900000000003
 20
7.533710000000001
 30
0.0
 10
4.1023500000000004
 20
7.8816500000000005
 30
0.0
 10
4.7227100000000002
 20
7.8706900000000006
 30
0.0
 10
4.7227100000000002
 20
7.8706900000000006
 30
0.0
 10
5.3431000000000006
 20
7.8597400000000004
 30
0.0
 10
5.5191400000000002
 20
7.8787900000000004
 30
0.0
 10
5.8450800000000003
 20
7.9380000000000006
 30
0.0
 10
5.8450800000000003
 20
7.9380000000000006
 30
0.0
 10
6.1775300000000009
 20
7.9983700000000004
 30
0.0
 10
6.3652200000000008
 20
8.0109600000000007
 30
0.0
 10
6.6284600000000005
 20
8.2917700000000014
 30
0.0
 10
6.6284600000000005
 20
8.2917700000000014
 30
0.0
 10
6.8917000000000002
 20
8.5725500000000014
 30
0.0
 10
6.5150800000000002
 20
8.8100500000000004
 30
0.0
 10
6.2255600000000006
 20
8.6157500000000002
 30
0.0
 10
6.2255600000000006
 20
8.6157500000000002
 30
0.0
 10
5.9360000000000008
 20
8.4214300000000009
 30
0.0
 10
6.0130000000000008
 20
8.2862800000000014
 30
0.0
 10
6.0009400000000008
 20
8.2681900000000006
 30
0.0
 10
6.0009400000000008
 20
8.2681900000000006
 30
0.0
 10
5.9888800000000009
 20
8.2501000000000015
 30
0.0
 10
5.8069800000000003
 20
8.4597700000000007
 30
0.0
 10
6.3048600000000006
 20
8.8012500000000014
 30
0.0
 10
6.3048600000000006
 20
8.8012500000000014
 30
0.0
 10
6.8027500000000005
 20
9.142710000000001
 30
0.0
 10
7.5234300000000003
 20
9.2648700000000002
 30
0.0
 10
7.8764800000000008
 20
9.2510200000000005
 30
0.0
 10
7.8764800000000008
 20
9.2510200000000005
 30
0.0
 10
8.2295700000000007
 20
9.2371700000000008
 30
0.0
 10
8.2023200000000003
 20
9.2186400000000006
 30
0.0
 10
8.24221
 20
9.2357500000000012
 30
0.0
 10
8.24221
 20
9.2357500000000012
 30
0.0
 10
8.2820700000000009
 20
9.2528200000000016
 30
0.0
 10
8.08446
 20
9.3610100000000003
 30
0.0
 10
7.7407100000000009
 20
9.3549300000000013
 30
0.0
 10
7.7407100000000009
 20
9.3549300000000013
 30
0.0
 10
7.4199400000000004
 20
9.349260000000001
 30
0.0
 10
7.2036900000000008
 20
9.3709800000000012
 30
0.0
 10
6.4452500000000006
 20
8.99953
 30
0.0
 10
6.4452500000000006
 20
8.99953
 30
0.0
 10
5.6868200000000009
 20
8.6280800000000006
 30
0.0
 10
5.0757900000000005
 20
8.2807300000000001
 30
0.0
 10
4.4279100000000007
 20
8.0631700000000013
 30
0.0
 10
4.4279100000000007
 20
8.0631700000000013
 30
0.0
 10
3.7799900000000002
 20
7.8456100000000006
 30
0.0
 10
3.7164900000000003
 20
7.8525400000000003
 30
0.0
 10
3.4529100000000001
 20
7.6867400000000004
 30
0.0
 10
3.4529100000000001
 20
7.6867400000000004
 30
0.0
 10
3.1616300000000002
 20
7.5035100000000003
 30
0.0
 10
3.0100100000000003
 20
7.3292300000000008
 30
0.0
 10
2.5670700000000002
 20
6.810550000000001
 30
0.0
 10
2.5670700000000002
 20
6.810550000000001
 30
0.0
 10
2.1241400000000001
 20
6.2918700000000003
 30
0.0
 10
2.0954700000000002
 20
5.5424700000000007
 30
0.0
 10
2.0687100000000003
 20
5.5398300000000003
 30
0.0
 10
2.0687100000000003
 20
5.5398300000000003
 30
0.0
 10
2.0376600000000002
 20
5.5367800000000003
 30
0.0
 10
1.9206000000000001
 20
5.9296600000000002
 30
0.0
 10
2.1641700000000004
 20
6.4546000000000001
 30
0.0
  0
SPLINE
  5
2B
100
AcDbEntity
  8
Ebene 1
 62
     5
100
AcDbSpline
210
0.0
220
0.0
230
1.0
 70
     1
 71
     3
 72
    32
 73
    28
 74
     0
 42
0.0000000001
 43
0.0000000001
 40
0.0
 40
0.0
 40
0.0
 40
0.0
 40
0.1428571428571429
 40
0.1428571428571429
 40
0.1428571428571429
 40
0.1428571428571429
 40
0.2857142857142857
 40
0.2857142857142857
 40
0.2857142857142857
 40
0.2857142857142857
 40
0.4285714285714286
 40
0.4285714285714286
 40
0.4285714285714286
 40
0.4285714285714286
 40
0.5714285714285714
 40
0.5714285714285714
 40
0.5714285714285714
 40
0.5714285714285714
 40
0.7142857142857142
 40
0.7142857142857142
 40
0.7142857142857142
 40
0.7142857142857142
 40
0.857142857142857
 40
0.857142857142857
 40
0.857142857142857
 40
0.857142857142857
 40
1.0
 40
1.0
 40
1.0
 40
1.0
 10
3.0654400000000002
 20
2.4251
 30
0.0
 10
3.0389100000000004
 20
2.4184200000000002
 30
0.0
 10
2.8761700000000001
 20
2.9338000000000002
 30
0.0
 10
3.0008800000000004
 20
3.0716800000000002
 30
0.0
 10
3.0008800000000004
 20
3.0716800000000002
 30
0.0
 10
3.1255900000000003
 20
3.2095500000000001
 30
0.0
 10
3.2588200000000001
 20
3.0622400000000001
 30
0.0
 10
3.2535800000000004
 20
2.8309300000000004
 30
0.0
 10
3.2535800000000004
 20
2.8309300000000004
 30
0.0
 10
3.2483100000000005
 20
2.5996300000000003
 30
0.0
 10
3.1342400000000001
 20
2.47892
 30
0.0
 10
3.1342400000000001
 20
2.47892
 30
0.0
 10
3.1342400000000001
 20
2.47892
 30
0.0
 10
3.1342400000000001
 20
2.47892
 30
0.0
 10
3.17334
 20
2.59694
 30
0.0
 10
3.1822700000000004
 20
2.7150400000000001
 30
0.0
 10
3.1822700000000004
 20
2.7150400000000001
 30
0.0
 10
3.19015
 20
2.8192200000000001
 30
0.0
 10
3.1695500000000001
 20
2.9234000000000004
 30
0.0
 10
3.1489800000000003
 20
2.9465500000000002
 30
0.0
 10
3.1489800000000003
 20
2.9465500000000002
 30
0.0
 10
3.1051000000000002
 20
2.9958900000000002
 30
0.0
 10
3.0029800000000004
 20
3.0080800000000001
 30
0.0
 10
3.0275400000000001
 20
2.8345900000000004
 30
0.0
 10
3.0275400000000001
 20
2.8345900000000004
 30
0.0
 10
3.0507000000000004
 20
2.6613000000000002
 30
0.0
 10
3.0654400000000002
 20
2.4251
 30
0.0
 10
3.0654400000000002
 20
2.4251
 30
0.0
  0
SPLINE
  5
2C
100
AcDbEntity
  8
Ebene 1
 62
     5
100
AcDbSpline
210
0.0
220
0.0
230
1.0
 70
     1
 71
     3
 72
    28
 73
    24
 74
     0
 42
0.0000000001
 43
0.0000000001
 40
0.0
 40
0.0
 40
0.0
 40
0.0
 40
0.1666666666666667
 40
0.1666666666666667
 40
0.1666666666666667
 40
0.1666666666666667
 40
0.3333333333333333
 40
0.3333333333333333
 40
0.3333333333333333
 40
0.3333333333333333
 40
0.5
 40
0.5
 40
0.5
 40
0.5
 40
0.6666666666666666
 40
0.6666666666666666
 40
0.6666666666666666
 40
0.6666666666666666
 40
0.8333333333333333
 40
0.8333333333333333
 40
0.8333333333333333
 40
0.8333333333333333
 40
1.0
 40
1.0
 40
1.0
 40
1.0
 10
3.5989100000000005
 20
3.5715600000000003
 30
0.0
 10
3.5989100000000005
 20
3.5715600000000003
 30
0.0
 10
3.4813300000000003
 20
3.5966400000000003
 30
0.0
 10
3.3567600000000004
 20
3.7205300000000001
 30
0.0
 10
3.3567600000000004
 20
3.7205300000000001
 30
0.0
 10
3.2321500000000003
 20
3.8444800000000003
 30
0.0
 10
3.2075500000000003
 20
3.9618900000000004
 30
0.0
 10
3.1805800000000004
 20
3.9727100000000002
 30
0.0
 10
3.1805800000000004
 20
3.9727100000000002
 30
0.0
 10
3.1536000000000004
 20
3.9834600000000004
 30
0.0
 10
3.2296700000000005
 20
3.6408100000000001
 30
0.0
 10
3.3834200000000001
 20
3.4671700000000003
 30
0.0
 10
3.3834200000000001
 20
3.4671700000000003
 30
0.0
 10
3.5371800000000002
 20
3.2935400000000001
 30
0.0
 10
3.5701500000000004
 20
3.2699800000000003
 30
0.0
 10
3.5701500000000004
 20
3.2699800000000003
 30
0.0
 10
3.5701500000000004
 20
3.2699800000000003
 30
0.0
 10
3.5701500000000004
 20
3.2699800000000003
 30
0.0
 10
3.5883700000000003
 20
3.3573400000000002
 30
0.0
 10
3.6066300000000004
 20
3.4389900000000004
 30
0.0
 10
3.6066300000000004
 20
3.4389900000000004
 30
0.0
 10
3.6248900000000002
 20
3.5177500000000004
 30
0.0
 10
3.5989100000000005
 20
3.5715600000000003
 30
0.0
 10
3.5989100000000005
 20
3.5715600000000003
 30
0.0
  0
SPLINE
  5
2D
100
AcDbEntity
  8
Ebene 1
 62
     5
100
AcDbSpline
210
0.0
220
0.0
230
1.0
 70
     1
 71
     3
 72
    28
 73
    24
 74
     0
 42
0.0000000001
 43
0.0000000001
 40
0.0
 40
0.0
 40
0.0
 40
0.0
 40
0.1666666666666667
 40
0.1666666666666667
 40
0.1666666666666667
 40
0.1666666666666667
 40
0.3333333333333333
 40
0.3333333333333333
 40
0.3333333333333333
 40
0.3333333333333333
 40
0.5
 40
0.5
 40
0.5
 40
0.5
 40
0.6666666666666666
 40
0.6666666666666666
 40
0.6666666666666666
 40
0.6666666666666666
 40
0.8333333333333333
 40
0.8333333333333333
 40
0.8333333333333333
 40
0.8333333333333333
 40
1.0
 40
1.0
 40
1.0
 40
1.0
 10
3.6031200000000001
 20
3.7013000000000003
 30
0.0
 10
3.5866500000000001
 20
3.6931000000000003
 30
0.0
 10
3.4017500000000003
 20
4.0617300000000007
 30
0.0
 10
3.4430900000000002
 20
4.1543300000000007
 30
0.0
 10
3.4430900000000002
 20
4.1543300000000007
 30
0.0
 10
3.4844300000000001
 20
4.2468700000000004
 30
0.0
 10
3.6092800000000005
 20
4.2183400000000004
 30
0.0
 10
3.6627800000000001
 20
4.0557300000000005
 30
0.0
 10
3.6627800000000001
 20
4.0557300000000005
 30
0.0
 10
3.7163200000000005
 20
3.8931200000000001
 30
0.0
 10
3.6771900000000004
 20
3.7542900000000001
 30
0.0
 10
3.6726100000000002
 20
3.7588400000000002
 30
0.0
 10
3.6726100000000002
 20
3.7588400000000002
 30
0.0
 10
3.6680600000000001
 20
3.7634500000000002
 30
0.0
 10
3.6768400000000003
 20
3.9907600000000003
 30
0.0
 10
3.5876800000000002
 20
4.0604200000000006
 30
0.0
 10
3.5876800000000002
 20
4.0604200000000006
 30
0.0
 10
3.4985200000000001
 20
4.1300800000000004
 30
0.0
 10
3.5055900000000002
 20
4.0469800000000005
 30
0.0
 10
3.5315300000000005
 20
3.9539000000000004
 30
0.0
 10
3.5315300000000005
 20
3.9539000000000004
 30
0.0
 10
3.5596000000000001
 20
3.8594300000000001
 30
0.0
 10
3.6031200000000001
 20
3.7013000000000003
 30
0.0
 10
3.6031200000000001
 20
3.7013000000000003
 30
0.0
  0
SPLINE
  5
2E
100
AcDbEntity
  8
Ebene 1
 62
     5
100
AcDbSpline
210
0.0
220
0.0
230
1.0
 70
     1
 71
     3
 72
    96
 73
    92
 74
     0
 42
0.0000000001
 43
0.0000000001
 40
0.0
 40
0.0
 40
0.0
 40
0.0
 40
0.0434782608695652
 40
0.0434782608695652
 40
0.0434782608695652
 40
0.0434782608695652
 40
0.0869565217391304
 40
0.0869565217391304
 40
0.0869565217391304
 40
0.0869565217391304
 40
0.1304347826086957
 40
0.1304347826086957
 40
0.1304347826086957
 40
0.1304347826086957
 40
0.1739130434782609
 40
0.1739130434782609
 40
0.1739130434782609
 40
0.1739130434782609
 40
0.2173913043478261
 40
0.2173913043478261
 40
0.2173913043478261
 40
0.2173913043478261
 40
0.2608695652173913
 40
0.2608695652173913
 40
0.2608695652173913
 40
0.2608695652173913
 40
0.3043478260869565
 40
0.3043478260869565
 40
0.3043478260869565
 40
0.3043478260869565
 40
0.3478260869565217
 40
0.3478260869565217
 40
0.3478260869565217
 40
0.3478260869565217
 40
0.3913043478260869
 40
0.3913043478260869
 40
0.3913043478260869
 40
0.3913043478260869
 40
0.4347826086956521
 40
0.4347826086956521
 40
0.4347826086956521
 40
0.4347826086956521
 40
0.4782608695652173
 40
0.4782608695652173
 40
0.4782608695652173
 40
0.4782608695652173
 40
0.5217391304347825
 40
0.5217391304347825
 40
0.5217391304347825
 40
0.5217391304347825
 40
0.5652173913043477
 40
0.5652173913043477
 40
0.5652173913043477
 40
0.5652173913043477
 40
0.6086956521739129
 40
0.6086956521739129
 40
0.6086956521739129
 40
0.6086956521739129
 40
0.6521739130434781
 40
0.6521739130434781
 40
0.6521739130434781
 40
0.6521739130434781
 40
0.6956521739130432
 40
0.6956521739130432
 40
0.6956521739130432
 40
0.6956521739130432
 40
0.7391304347826084
 40
0.7391304347826084
 40
0.7391304347826084
 40
0.7391304347826084
 40
0.7826086956521736
 40
0.7826086956521736
 40
0.7826086956521736
 40
0.7826086956521736
 40
0.8260869565217388
 40
0.8260869565217388
 40
0.8260869565217388
 40
0.8260869565217388
 40
0.869565217391304
 40
0.869565217391304
 40
0.869565217391304
 40
0.869565217391304
 40
0.9130434782608692
 40
0.9130434782608692
 40
0.9130434782608692
 40
0.9130434782608692
 40
0.9565217391304344
 40
0.9565217391304344
 40
0.9565217391304344
 40
0.9565217391304344
 40
1.0
 40
1.0
 40
1.0
 40
1.0
 10
2.1704700000000003
 20
4.4732799999999999
 30
0.0
 10
2.1704700000000003
 20
4.4732799999999999
 30
0.0
 10
2.6811100000000003
 20
4.4615600000000004
 30
0.0
 10
3.0233400000000001
 20
4.5249600000000001
 30
0.0
 10
3.0233400000000001
 20
4.5249600000000001
 30
0.0
 10
3.3655400000000002
 20
4.5884100000000005
 30
0.0
 10
3.6361200000000005
 20
4.5728400000000002
 30
0.0
 10
3.6361200000000005
 20
4.5728400000000002
 30
0.0
 10
3.6361200000000005
 20
4.5728400000000002
 30
0.0
 10
3.6361200000000005
 20
4.5728400000000002
 30
0.0
 10
3.9355000000000002
 20
4.2703600000000002
 30
0.0
 10
3.9470700000000005
 20
3.8744500000000004
 30
0.0
 10
3.9470700000000005
 20
3.8744500000000004
 30
0.0
 10
3.9586500000000004
 20
3.4785400000000002
 30
0.0
 10
3.9169000000000005
 20
3.3966200000000004
 30
0.0
 10
3.9169000000000005
 20
3.3966200000000004
 30
0.0
 10
3.9169000000000005
 20
3.3966200000000004
 30
0.0
 10
3.9169000000000005
 20
3.3966200000000004
 30
0.0
 10
4.2896200000000002
 20
3.3157300000000003
 30
0.0
 10
4.2812100000000006
 20
2.8848100000000003
 30
0.0
 10
4.2812100000000006
 20
2.8848100000000003
 30
0.0
 10
4.27278
 20
2.4538300000000004
 30
0.0
 10
4.1169500000000001
 20
2.2787500000000001
 30
0.0
 10
4.1169500000000001
 20
2.2787500000000001
 30
0.0
 10
4.1169500000000001
 20
2.2787500000000001
 30
0.0
 10
4.1169500000000001
 20
2.2787500000000001
 30
0.0
 10
4.4919900000000004
 20
2.05124
 30
0.0
 10
4.8855500000000003
 20
1.8100100000000001
 30
0.0
 10
4.8855500000000003
 20
1.8100100000000001
 30
0.0
 10
5.2823600000000006
 20
1.5667900000000001
 30
0.0
 10
5.6682100000000002
 20
1.33962
 30
0.0
 10
5.7475200000000006
 20
1.2455700000000001
 30
0.0
 10
5.7475200000000006
 20
1.2455700000000001
 30
0.0
 10
5.8268600000000008
 20
1.1515200000000001
 30
0.0
 10
6.0784900000000004
 20
0.48703
 30
0.0
 10
5.65205
 20
0.8342900000000001
 30
0.0
 10
5.65205
 20
0.8342900000000001
 30
0.0
 10
5.2256500000000008
 20
1.1814900000000002
 30
0.0
 10
4.0327200000000003
 20
2.1754700000000002
 30
0.0
 10
4.0327200000000003
 20
2.1754700000000002
 30
0.0
 10
4.0327200000000003
 20
2.1754700000000002
 30
0.0
 10
4.0327200000000003
 20
2.1754700000000002
 30
0.0
 10
3.7203500000000003
 20
1.7296800000000001
 30
0.0
 10
3.2381400000000005
 20
1.4724600000000001
 30
0.0
 10
3.2381400000000005
 20
1.4724600000000001
 30
0.0
 10
2.7559
 20
1.2152500000000002
 30
0.0
 10
2.6707000000000001
 20
1.1987800000000002
 30
0.0
 10
2.6590200000000004
 20
1.2065700000000001
 30
0.0
 10
2.6590200000000004
 20
1.2065700000000001
 30
0.0
 10
2.6473500000000003
 20
1.2143600000000001
 30
0.0
 10
3.6424300000000005
 20
1.8387500000000001
 30
0.0
 10
3.5076500000000004
 20
2.0452500000000002
 30
0.0
 10
3.5076500000000004
 20
2.0452500000000002
 30
0.0
 10
3.3728800000000003
 20
2.2517400000000003
 30
0.0
 10
3.1665200000000002
 20
1.9321800000000002
 30
0.0
 10
3.1019600000000001
 20
1.8384000000000003
 30
0.0
 10
3.1019600000000001
 20
1.8384000000000003
 30
0.0
 10
3.0373600000000001
 20
1.7446300000000001
 30
0.0
 10
2.9685600000000001
 20
1.6418900000000001
 30
0.0
 10
2.9685600000000001
 20
1.6418900000000001
 30
0.0
 10
2.9685600000000001
 20
1.6418900000000001
 30
0.0
 10
2.9685600000000001
 20
1.6418900000000001
 30
0.0
 10
2.83596
 20
1.8327500000000001
 30
0.0
 10
3.1946000000000003
 20
2.3526800000000003
 30
0.0
 10
3.1946000000000003
 20
2.3526800000000003
 30
0.0
 10
3.5532300000000001
 20
2.8726900000000004
 30
0.0
 10
3.1542600000000003
 20
3.4784700000000002
 30
0.0
 10
2.9643600000000001
 20
3.2469600000000001
 30
0.0
 10
2.9643600000000001
 20
3.2469600000000001
 30
0.0
 10
2.7745000000000002
 20
3.0153800000000004
 30
0.0
 10
2.9025900000000004
 20
2.6358700000000002
 30
0.0
 10
2.9025900000000004
 20
2.6358700000000002
 30
0.0
 10
2.9025900000000004
 20
2.6358700000000002
 30
0.0
 10
2.9025900000000004
 20
2.6358700000000002
 30
0.0
 10
2.5102000000000002
 20
3.0171100000000002
 30
0.0
 10
2.6583300000000003
 20
3.5293900000000002
 30
0.0
 10
2.6583300000000003
 20
3.5293900000000002
 30
0.0
 10
2.80647
 20
4.0416800000000004
 30
0.0
 10
2.5920200000000002
 20
4.1964300000000003
 30
0.0
 10
2.48563
 20
4.0159100000000008
 30
0.0
 10
2.48563
 20
4.0159100000000008
 30
0.0
 10
2.3792800000000001
 20
3.8354500000000002
 30
0.0
 10
2.4304800000000002
 20
3.7314800000000004
 30
0.0
 10
2.4442200000000001
 20
3.6971000000000003
 30
0.0
 10
2.4442200000000001
 20
3.6971000000000003
 30
0.0
 10
2.4580000000000002
 20
3.6627200000000002
 30
0.0
 10
2.2199800000000001
 20
3.7664800000000005
 30
0.0
 10
2.25543
 20
4.0950100000000003
 30
0.0
 10
2.25543
 20
4.0950100000000003
 30
0.0
 10
2.2886800000000003
 20
4.4058200000000003
 30
0.0
 10
2.1651000000000002
 20
4.45716
 30
0.0
 10
2.1704700000000003
 20
4.4732799999999999
 30
0.0
  0
SPLINE
  5
2F
100
AcDbEntity
  8
Ebene 1
 62
     5
100
AcDbSpline
210
0.0
220
0.0
230
1.0
 70
     1
 71
     3
 72
    64
 73
    60
 74
     0
 42
0.0000000001
 43
0.0000000001
 40
0.0
 40
0.0
 40
0.0
 40
0.0
 40
0.0666666666666667
 40
0.0666666666666667
 40
0.0666666666666667
 40
0.0666666666666667
 40
0.1333333333333333
 40
0.1333333333333333
 40
0.1333333333333333
 40
0.1333333333333333
 40
0.2
 40
0.2
 40
0.2
 40
0.2
 40
0.2666666666666667
 40
0.2666666666666667
 40
0.2666666666666667
 40
0.2666666666666667
 40
0.3333333333333333
 40
0.3333333333333333
 40
0.3333333333333333
 40
0.3333333333333333
 40
0.4
 40
0.4
 40
0.4
 40
0.4
 40
0.4666666666666666
 40
0.4666666666666666
 40
0.4666666666666666
 40
0.4666666666666666
 40
0.5333333333333333
 40
0.5333333333333333
 40
0.5333333333333333
 40
0.5333333333333333
 40
0.6
 40
0.6
 40
0.6
 40
0.6
 40
0.6666666666666666
 40
0.6666666666666666
 40
0.6666666666666666
 40
0.6666666666666666
 40
0.7333333333333333
 40
0.7333333333333333
 40
0.7333333333333333
 40
0.7333333333333333
 40
0.7999999999999999
 40
0.7999999999999999
 40
0.7999999999999999
 40
0.7999999999999999
 40
0.8666666666666666
 40
0.8666666666666666
 40
0.8666666666666666
 40
0.8666666666666666
 40
0.9333333333333332
 40
0.9333333333333332
 40
0.9333333333333332
 40
0.9333333333333332
 40
1.0
 40
1.0
 40
1.0
 40
1.0
 10
3.3392200000000001
 20
3.3654700000000002
 30
0.0
 10
3.3392200000000001
 20
3.3654700000000002
 30
0.0
 10
3.7195300000000002
 20
3.1114300000000004
 30
0.0
 10
3.5111700000000003
 20
2.7879400000000003
 30
0.0
 10
3.5111700000000003
 20
2.7879400000000003
 30
0.0
 10
3.3028400000000002
 20
2.4645100000000002
 30
0.0
 10
3.3133900000000001
 20
2.2376900000000002
 30
0.0
 10
3.3314700000000004
 20
2.2436800000000003
 30
0.0
 10
3.3314700000000004
 20
2.2436800000000003
 30
0.0
 10
3.3495600000000003
 20
2.2497500000000001
 30
0.0
 10
3.4876000000000005
 20
2.5695200000000002
 30
0.0
 10
3.6663000000000001
 20
2.5457500000000004
 30
0.0
 10
3.6663000000000001
 20
2.5457500000000004
 30
0.0
 10
3.8450000000000002
 20
2.5219100000000001
 30
0.0
 10
3.7224900000000005
 20
2.2197
 30
0.0
 10
3.7554600000000002
 20
2.2032400000000001
 30
0.0
 10
3.7554600000000002
 20
2.2032400000000001
 30
0.0
 10
3.7884300000000004
 20
2.1867700000000001
 30
0.0
 10
4.0540099999999999
 20
2.4222100000000002
 30
0.0
 10
4.02921
 20
2.7974500000000004
 30
0.0
 10
4.02921
 20
2.7974500000000004
 30
0.0
 10
4.0044000000000004
 20
3.1726900000000002
 30
0.0
 10
3.7937000000000003
 20
3.1530500000000004
 30
0.0
 10
3.7786100000000005
 20
3.0590000000000002
 30
0.0
 10
3.7786100000000005
 20
3.0590000000000002
 30
0.0
 10
3.7635200000000002
 20
2.9648800000000004
 30
0.0
 10
3.7590400000000002
 20
2.8305900000000004
 30
0.0
 10
3.7526300000000004
 20
2.8049600000000003
 30
0.0
 10
3.7526300000000004
 20
2.8049600000000003
 30
0.0
 10
3.7462300000000002
 20
2.7793300000000003
 30
0.0
 10
3.5823400000000003
 20
3.04956
 30
0.0
 10
3.6698200000000001
 20
3.3104900000000002
 30
0.0
 10
3.6698200000000001
 20
3.3104900000000002
 30
0.0
 10
3.7572900000000002
 20
3.5713500000000002
 30
0.0
 10
3.7986600000000004
 20
4.0101200000000006
 30
0.0
 10
3.6698200000000001
 20
4.1831300000000002
 30
0.0
 10
3.6698200000000001
 20
4.1831300000000002
 30
0.0
 10
3.5409700000000002
 20
4.3562099999999999
 30
0.0
 10
3.3223400000000001
 20
4.3366500000000006
 30
0.0
 10
3.3595500000000005
 20
4.1171300000000004
 30
0.0
 10
3.3595500000000005
 20
4.1171300000000004
 30
0.0
 10
3.3967500000000004
 20
3.8976000000000002
 30
0.0
 10
3.4943200000000001
 20
3.7322400000000004
 30
0.0
 10
3.4943200000000001
 20
3.7322400000000004
 30
0.0
 10
3.4943200000000001
 20
3.7322400000000004
 30
0.0
 10
3.4943200000000001
 20
3.7322400000000004
 30
0.0
 10
3.2475800000000001
 20
3.8287000000000004
 30
0.0
 10
3.2065500000000005
 20
4.0626899999999999
 30
0.0
 10
3.2065500000000005
 20
4.0626899999999999
 30
0.0
 10
3.1654900000000001
 20
4.2966800000000003
 30
0.0
 10
3.2795200000000002
 20
4.3098400000000003
 30
0.0
 10
3.2690100000000002
 20
4.3361000000000001
 30
0.0
 10
3.2690100000000002
 20
4.3361000000000001
 30
0.0
 10
3.2585000000000002
 20
4.3623500000000002
 30
0.0
 10
3.0489100000000002
 20
4.3143900000000004
 30
0.0
 10
3.0858000000000003
 20
3.9525200000000003
 30
0.0
 10
3.0858000000000003
 20
3.9525200000000003
 30
0.0
 10
3.1188000000000002
 20
3.6080800000000002
 30
0.0
 10
3.3392200000000001
 20
3.3654700000000002
 30
0.0
 10
3.3392200000000001
 20
3.3654700000000002
 30
0.0
  0
SPLINE
  5
30
100
AcDbEntity
  8
Ebene 1
 62
     5
100
AcDbSpline
210
0.0
220
0.0
230
1.0
 70
     1
 71
     3
 72
    40
 73
    36
 74
     0
 42
0.0000000001
 43
0.0000000001
 40
0.0
 40
0.0
 40
0.0
 40
0.0
 40
0.1111111111111111
 40
0.1111111111111111
 40
0.1111111111111111
 40
0.1111111111111111
 40
0.2222222222222222
 40
0.2222222222222222
 40
0.2222222222222222
 40
0.2222222222222222
 40
0.3333333333333333
 40
0.3333333333333333
 40
0.3333333333333333
 40
0.3333333333333333
 40
0.4444444444444444
 40
0.4444444444444444
 40
0.4444444444444444
 40
0.4444444444444444
 40
0.5555555555555556
 40
0.5555555555555556
 40
0.5555555555555556
 40
0.5555555555555556
 40
0.6666666666666667
 40
0.6666666666666667
 40
0.6666666666666667
 40
0.6666666666666667
 40
0.7777777777777779
 40
0.7777777777777779
 40
0.7777777777777779
 40
0.7777777777777779
 40
0.8888888888888891
 40
0.8888888888888891
 40
0.8888888888888891
 40
0.8888888888888891
 40
1.0
 40
1.0
 40
1.0
 40
1.0
 10
4.5051100000000002
 20
6.7050100000000006
 30
0.0
 10
4.56013
 20
6.7285900000000005
 30
0.0
 10
4.0514600000000005
 20
7.1065000000000005
 30
0.0
 10
3.6866600000000003
 20
6.8562200000000004
 30
0.0
 10
3.6866600000000003
 20
6.8562200000000004
 30
0.0
 10
3.3218600000000005
 20
6.6059300000000007
 30
0.0
 10
3.1801300000000001
 20
6.1644900000000007
 30
0.0
 10
3.1735500000000001
 20
6.1497200000000003
 30
0.0
 10
3.1735500000000001
 20
6.1497200000000003
 30
0.0
 10
3.1694800000000001
 20
6.1406000000000001
 30
0.0
 10
3.3131800000000005
 20
6.3428300000000002
 30
0.0
 10
3.4946000000000002
 20
6.4809400000000004
 30
0.0
 10
3.4946000000000002
 20
6.4809400000000004
 30
0.0
 10
3.6071500000000003
 20
6.5665700000000005
 30
0.0
 10
3.7334500000000004
 20
6.6372300000000006
 30
0.0
 10
3.8471300000000004
 20
6.6535800000000007
 30
0.0
 10
3.8471300000000004
 20
6.6535800000000007
 30
0.0
 10
4.1715200000000001
 20
6.7002200000000007
 30
0.0
 10
4.1645600000000007
 20
6.6135100000000007
 30
0.0
 10
4.2188300000000005
 20
6.6376300000000006
 30
0.0
 10
4.2188300000000005
 20
6.6376300000000006
 30
0.0
 10
4.2730900000000007
 20
6.6617400000000009
 30
0.0
 10
4.0485000000000007
 20
6.760320000000001
 30
0.0
 10
3.8989100000000003
 20
6.7410100000000002
 30
0.0
 10
3.8989100000000003
 20
6.7410100000000002
 30
0.0
 10
3.7492900000000002
 20
6.7217000000000002
 30
0.0
 10
3.6251600000000002
 20
6.6313200000000005
 30
0.0
 10
3.6045300000000005
 20
6.6519800000000009
 30
0.0
 10
3.6045300000000005
 20
6.6519800000000009
 30
0.0
 10
3.5838900000000002
 20
6.6725900000000005
 30
0.0
 10
3.8379000000000003
 20
6.9153900000000004
 30
0.0
 10
4.1108200000000004
 20
6.8556300000000006
 30
0.0
 10
4.1108200000000004
 20
6.8556300000000006
 30
0.0
 10
4.3646600000000007
 20
6.7952400000000006
 30
0.0
 10
4.5051100000000002
 20
6.7050100000000006
 30
0.0
 10
4.5051100000000002
 20
6.7050100000000006
 30
0.0
  0
SPLINE
  5
31
100
AcDbEntity
  8
Ebene 1
 62
     5
100
AcDbSpline
210
0.0
220
0.0
230
1.0
 70
     1
 71
     3
 72
    36
 73
    32
 74
     0
 42
0.0000000001
 43
0.0000000001
 40
0.0
 40
0.0
 40
0.0
 40
0.0
 40
0.125
 40
0.125
 40
0.125
 40
0.125
 40
0.25
 40
0.25
 40
0.25
 40
0.25
 40
0.375
 40
0.375
 40
0.375
 40
0.375
 40
0.5
 40
0.5
 40
0.5
 40
0.5
 40
0.625
 40
0.625
 40
0.625
 40
0.625
 40
0.75
 40
0.75
 40
0.75
 40
0.75
 40
0.875
 40
0.875
 40
0.875
 40
0.875
 40
1.0
 40
1.0
 40
1.0
 40
1.0
 10
6.1118300000000003
 20
9.0348500000000005
 30
0.0
 10
6.1527600000000007
 20
9.0000499999999999
 30
0.0
 10
4.89933
 20
8.4694300000000009
 30
0.0
 10
4.4061300000000001
 20
8.2889800000000005
 30
0.0
 10
4.4061300000000001
 20
8.2889800000000005
 30
0.0
 10
3.9129400000000003
 20
8.1085100000000008
 30
0.0
 10
3.9164500000000002
 20
8.1092200000000005
 30
0.0
 10
3.8982900000000003
 20
8.1382400000000015
 30
0.0
 10
3.8982900000000003
 20
8.1382400000000015
 30
0.0
 10
3.8801700000000001
 20
8.1672799999999999
 30
0.0
 10
4.4228100000000001
 20
8.6442600000000009
 30
0.0
 10
5.0856100000000009
 20
8.8599000000000014
 30
0.0
 10
5.0856100000000009
 20
8.8599000000000014
 30
0.0
 10
5.7484100000000007
 20
9.0755700000000008
 30
0.0
 10
6.0247800000000007
 20
9.0975100000000015
 30
0.0
 10
6.0163700000000002
 20
9.0762
 30
0.0
 10
6.0163700000000002
 20
9.0762
 30
0.0
 10
6.0079700000000003
 20
9.0548900000000003
 30
0.0
 10
5.0419600000000004
 20
8.8277300000000007
 30
0.0
 10
4.7530200000000002
 20
8.660400000000001
 30
0.0
 10
4.7530200000000002
 20
8.660400000000001
 30
0.0
 10
4.46408
 20
8.4931000000000001
 30
0.0
 10
4.3543200000000004
 20
8.4190200000000015
 30
0.0
 10
4.3734800000000007
 20
8.3764500000000002
 30
0.0
 10
4.3734800000000007
 20
8.3764500000000002
 30
0.0
 10
4.3926600000000002
 20
8.333870000000001
 30
0.0
 10
4.9557000000000002
 20
8.5562200000000015
 30
0.0
 10
5.3411000000000008
 20
8.74437
 30
0.0
 10
5.3411000000000008
 20
8.74437
 30
0.0
 10
5.7398000000000007
 20
8.9168300000000009
 30
0.0
 10
6.1118300000000003
 20
9.0348500000000005
 30
0.0
 10
6.1118300000000003
 20
9.0348500000000005
 30
0.0
  0
SPLINE
  5
32
100
AcDbEntity
  8
Ebene 1
 62
     5
100
AcDbSpline
210
0.0
220
0.0
230
1.0
 70
     1
 71
     3
 72
    32
 73
    28
 74
     0
 42
0.0000000001
 43
0.0000000001
 40
0.0
 40
0.0
 40
0.0
 40
0.0
 40
0.1428571428571429
 40
0.1428571428571429
 40
0.1428571428571429
 40
0.1428571428571429
 40
0.2857142857142857
 40
0.2857142857142857
 40
0.2857142857142857
 40
0.2857142857142857
 40
0.4285714285714286
 40
0.4285714285714286
 40
0.4285714285714286
 40
0.4285714285714286
 40
0.5714285714285714
 40
0.5714285714285714
 40
0.5714285714285714
 40
0.5714285714285714
 40
0.7142857142857142
 40
0.7142857142857142
 40
0.7142857142857142
 40
0.7142857142857142
 40
0.857142857142857
 40
0.857142857142857
 40
0.857142857142857
 40
0.857142857142857
 40
1.0
 40
1.0
 40
1.0
 40
1.0
 10
3.2970900000000003
 20
7.4169600000000004
 30
0.0
 10
3.2970900000000003
 20
7.4169600000000004
 30
0.0
 10
2.5345500000000003
 20
6.5330800000000009
 30
0.0
 10
2.4196600000000004
 20
5.9717600000000006
 30
0.0
 10
2.4196600000000004
 20
5.9717600000000006
 30
0.0
 10
2.3048000000000002
 20
5.4104500000000009
 30
0.0
 10
2.5253200000000002
 20
5.6780800000000005
 30
0.0
 10
2.5909500000000003
 20
5.7568200000000003
 30
0.0
 10
2.5909500000000003
 20
5.7568200000000003
 30
0.0
 10
2.6565800000000004
 20
5.8355600000000001
 30
0.0
 10
2.6460700000000004
 20
5.8658700000000001
 30
0.0
 10
2.6688400000000003
 20
5.8715600000000006
 30
0.0
 10
2.6688400000000003
 20
5.8715600000000006
 30
0.0
 10
2.6916500000000001
 20
5.8772600000000006
 30
0.0
 10
2.6687000000000003
 20
5.6795400000000003
 30
0.0
 10
2.4681000000000002
 20
5.3631100000000007
 30
0.0
 10
2.4681000000000002
 20
5.3631100000000007
 30
0.0
 10
2.2675200000000002
 20
5.0466800000000003
 30
0.0
 10
2.1258300000000001
 20
4.8680900000000005
 30
0.0
 10
2.1024000000000003
 20
4.8739400000000002
 30
0.0
 10
2.1024000000000003
 20
4.8739400000000002
 30
0.0
 10
2.07897
 20
4.8798000000000004
 30
0.0
 10
2.0904800000000003
 20
5.6007700000000007
 30
0.0
 10
2.3312200000000001
 20
6.2086400000000008
 30
0.0
 10
2.3312200000000001
 20
6.2086400000000008
 30
0.0
 10
2.6944700000000004
 20
6.8978500000000009
 30
0.0
 10
3.2833400000000004
 20
7.451340000000001
 30
0.0
 10
3.2970900000000003
 20
7.4169600000000004
 30
0.0
  0
SPLINE
  5
33
100
AcDbEntity
  8
Ebene 1
 62
     5
100
AcDbSpline
210
0.0
220
0.0
230
1.0
 70
     1
 71
     3
 72
    28
 73
    24
 74
     0
 42
0.0000000001
 43
0.0000000001
 40
0.0
 40
0.0
 40
0.0
 40
0.0
 40
0.1666666666666667
 40
0.1666666666666667
 40
0.1666666666666667
 40
0.1666666666666667
 40
0.3333333333333333
 40
0.3333333333333333
 40
0.3333333333333333
 40
0.3333333333333333
 40
0.5
 40
0.5
 40
0.5
 40
0.5
 40
0.6666666666666666
 40
0.6666666666666666
 40
0.6666666666666666
 40
0.6666666666666666
 40
0.8333333333333333
 40
0.8333333333333333
 40
0.8333333333333333
 40
0.8333333333333333
 40
1.0
 40
1.0
 40
1.0
 40
1.0
 10
6.2206300000000008
 20
8.1676800000000007
 30
0.0
 10
6.2206300000000008
 20
8.1676800000000007
 30
0.0
 10
5.9482600000000003
 20
8.3035200000000007
 30
0.0
 10
6.2002700000000006
 20
8.4805299999999999
 30
0.0
 10
6.2002700000000006
 20
8.4805299999999999
 30
0.0
 10
6.4522800000000009
 20
8.6575400000000009
 30
0.0
 10
6.6397300000000001
 20
8.5713100000000004
 30
0.0
 10
6.6116200000000003
 20
8.4381700000000013
 30
0.0
 10
6.6116200000000003
 20
8.4381700000000013
 30
0.0
 10
6.5835000000000008
 20
8.30504
 30
0.0
 10
6.4126600000000007
 20
8.2091200000000004
 30
0.0
 10
6.4024300000000007
 20
8.2397800000000014
 30
0.0
 10
6.4024300000000007
 20
8.2397800000000014
 30
0.0
 10
6.3922000000000008
 20
8.2704599999999999
 30
0.0
 10
6.6084500000000004
 20
8.474120000000001
 30
0.0
 10
6.4305100000000008
 20
8.4724000000000004
 30
0.0
 10
6.4305100000000008
 20
8.4724000000000004
 30
0.0
 10
6.2525700000000004
 20
8.4706800000000015
 30
0.0
 10
6.1897600000000006
 20
8.3632100000000005
 30
0.0
 10
6.2353800000000001
 20
8.2949000000000002
 30
0.0
 10
6.2353800000000001
 20
8.2949000000000002
 30
0.0
 10
6.2788900000000005
 20
8.2278800000000007
 30
0.0
 10
6.2206300000000008
 20
8.1676800000000007
 30
0.0
 10
6.2206300000000008
 20
8.1676800000000007
 30
0.0
  0
SPLINE
  5
34
100
AcDbEntity
  8
Ebene 1
 62
     5
100
AcDbSpline
210
0.0
220
0.0
230
1.0
 70
     1
 71
     3
 72
    32
 73
    28
 74
     0
 42
0.0000000001
 43
0.0000000001
 40
0.0
 40
0.0
 40
0.0
 40
0.0
 40
0.1428571428571429
 40
0.1428571428571429
 40
0.1428571428571429
 40
0.1428571428571429
 40
0.2857142857142857
 40
0.2857142857142857
 40
0.2857142857142857
 40
0.2857142857142857
 40
0.4285714285714286
 40
0.4285714285714286
 40
0.4285714285714286
 40
0.4285714285714286
 40
0.5714285714285714
 40
0.5714285714285714
 40
0.5714285714285714
 40
0.5714285714285714
 40
0.7142857142857142
 40
0.7142857142857142
 40
0.7142857142857142
 40
0.7142857142857142
 40
0.857142857142857
 40
0.857142857142857
 40
0.857142857142857
 40
0.857142857142857
 40
1.0
 40
1.0
 40
1.0
 40
1.0
 10
2.4154500000000003
 20
4.5665000000000004
 30
0.0
 10
2.4154500000000003
 20
4.5665000000000004
 30
0.0
 10
2.7612400000000004
 20
4.9547700000000008
 30
0.0
 10
3.0380900000000004
 20
5.2928200000000007
 30
0.0
 10
3.0380900000000004
 20
5.2928200000000007
 30
0.0
 10
3.3149000000000002
 20
5.6308800000000003
 30
0.0
 10
3.5610200000000001
 20
5.7930800000000007
 30
0.0
 10
3.6733300000000004
 20
5.6748400000000006
 30
0.0
 10
3.6733300000000004
 20
5.6748400000000006
 30
0.0
 10
3.7856400000000003
 20
5.5565900000000008
 30
0.0
 10
3.4426100000000002
 20
5.2993100000000002
 30
0.0
 10
3.1384400000000001
 20
5.0435800000000004
 30
0.0
 10
3.1384400000000001
 20
5.0435800000000004
 30
0.0
 10
2.8342800000000001
 20
4.78782
 30
0.0
 10
2.6851000000000003
 20
4.6965200000000005
 30
0.0
 10
2.67869
 20
4.7030000000000003
 30
0.0
 10
2.67869
 20
4.7030000000000003
 30
0.0
 10
2.67225
 20
4.7094100000000001
 30
0.0
 10
3.3248200000000003
 20
5.2526100000000007
 30
0.0
 10
3.3637900000000003
 20
5.3727900000000002
 30
0.0
 10
3.3637900000000003
 20
5.3727900000000002
 30
0.0
 10
3.4027200000000004
 20
5.4929700000000006
 30
0.0
 10
3.2290200000000002
 20
5.3855900000000005
 30
0.0
 10
3.0563100000000003
 20
5.2085300000000005
 30
0.0
 10
3.0563100000000003
 20
5.2085300000000005
 30
0.0
 10
2.8985600000000002
 20
4.9960400000000007
 30
0.0
 10
2.43303
 20
4.5547900000000006
 30
0.0
 10
2.4154500000000003
 20
4.5665000000000004
 30
0.0
  0
SPLINE
  5
35
100
AcDbEntity
  8
Ebene 1
 62
     5
100
AcDbSpline
210
0.0
220
0.0
230
1.0
 70
     1
 71
     3
 72
    48
 73
    44
 74
     0
 42
0.0000000001
 43
0.0000000001
 40
0.0
 40
0.0
 40
0.0
 40
0.0
 40
0.0909090909090909
 40
0.0909090909090909
 40
0.0909090909090909
 40
0.0909090909090909
 40
0.1818181818181818
 40
0.1818181818181818
 40
0.1818181818181818
 40
0.1818181818181818
 40
0.2727272727272727
 40
0.2727272727272727
 40
0.2727272727272727
 40
0.2727272727272727
 40
0.3636363636363637
 40
0.3636363636363637
 40
0.3636363636363637
 40
0.3636363636363637
 40
0.4545454545454546
 40
0.4545454545454546
 40
0.4545454545454546
 40
0.4545454545454546
 40
0.5454545454545455
 40
0.5454545454545455
 40
0.5454545454545455
 40
0.5454545454545455
 40
0.6363636363636365
 40
0.6363636363636365
 40
0.6363636363636365
 40
0.6363636363636365
 40
0.7272727272727274
 40
0.7272727272727274
 40
0.7272727272727274
 40
0.7272727272727274
 40
0.8181818181818183
 40
0.8181818181818183
 40
0.8181818181818183
 40
0.8181818181818183
 40
0.9090909090909093
 40
0.9090909090909093
 40
0.9090909090909093
 40
0.9090909090909093
 40
1.0
 40
1.0
 40
1.0
 40
1.0
 10
6.5484300000000006
 20
8.8045200000000001
 30
0.0
 10
6.5415400000000004
 20
8.8182700000000001
 30
0.0
 10
6.9683500000000009
 20
9.0259400000000003
 30
0.0
 10
7.4223500000000007
 20
9.0946500000000015
 30
0.0
 10
7.4223500000000007
 20
9.0946500000000015
 30
0.0
 10
7.8763400000000008
 20
9.1633800000000001
 30
0.0
 10
8.2885200000000001
 20
9.0656600000000012
 30
0.0
 10
8.2885200000000001
 20
9.0656600000000012
 30
0.0
 10
8.2885200000000001
 20
9.0656600000000012
 30
0.0
 10
8.2885200000000001
 20
9.0656600000000012
 30
0.0
 10
8.0808800000000005
 20
8.7166899999999998
 30
0.0
 10
7.7354100000000008
 20
8.4247000000000014
 30
0.0
 10
7.7354100000000008
 20
8.4247000000000014
 30
0.0
 10
7.3899300000000006
 20
8.1327100000000012
 30
0.0
 10
6.9964000000000004
 20
7.8762700000000008
 30
0.0
 10
6.9843400000000004
 20
7.8943600000000007
 30
0.0
 10
6.9843400000000004
 20
7.8943600000000007
 30
0.0
 10
6.9722800000000005
 20
7.9124500000000006
 30
0.0
 10
7.6483500000000006
 20
8.4048400000000001
 30
0.0
 10
7.4532200000000008
 20
8.4397700000000011
 30
0.0
 10
7.4532200000000008
 20
8.4397700000000011
 30
0.0
 10
7.2580900000000002
 20
8.4746900000000007
 30
0.0
 10
7.1099800000000002
 20
8.1907800000000002
 30
0.0
 10
7.1099800000000002
 20
8.1907800000000002
 30
0.0
 10
7.1099800000000002
 20
8.1907800000000002
 30
0.0
 10
7.1099800000000002
 20
8.1907800000000002
 30
0.0
 10
6.9443400000000004
 20
8.198220000000001
 30
0.0
 10
7.1626300000000009
 20
8.4321200000000012
 30
0.0
 10
7.1626300000000009
 20
8.4321200000000012
 30
0.0
 10
7.3809400000000007
 20
8.6660500000000003
 30
0.0
 10
7.2440700000000007
 20
8.810550000000001
 30
0.0
 10
7.0819100000000006
 20
8.6966200000000011
 30
0.0
 10
7.0819100000000006
 20
8.6966200000000011
 30
0.0
 10
6.9197500000000005
 20
8.5826799999999999
 30
0.0
 10
6.977310000000001
 20
8.5015300000000007
 30
0.0
 10
6.977310000000001
 20
8.5015300000000007
 30
0.0
 10
6.977310000000001
 20
8.5015300000000007
 30
0.0
 10
6.977310000000001
 20
8.5015300000000007
 30
0.0
 10
6.8172900000000007
 20
8.5200800000000001
 30
0.0
 10
6.9218500000000009
 20
8.6902300000000015
 30
0.0
 10
6.9218500000000009
 20
8.6902300000000015
 30
0.0
 10
7.0159300000000009
 20
8.8620000000000001
 30
0.0
 10
6.5484300000000006
 20
8.8045200000000001
 30
0.0
 10
6.5484300000000006
 20
8.8045200000000001
 30
0.0
  0
SPLINE
  5
36
100
AcDbEntity
  8
Ebene 1
 62
     5
100
AcDbSpline
210
0.0
220
0.0
230
1.0
 70
     1
 71
     3
 72
    40
 73
    36
 74
     0
 42
0.0000000001
 43
0.0000000001
 40
0.0
 40
0.0
 40
0.0
 40
0.0
 40
0.1111111111111111
 40
0.1111111111111111
 40
0.1111111111111111
 40
0.1111111111111111
 40
0.2222222222222222
 40
0.2222222222222222
 40
0.2222222222222222
 40
0.2222222222222222
 40
0.3333333333333333
 40
0.3333333333333333
 40
0.3333333333333333
 40
0.3333333333333333
 40
0.4444444444444444
 40
0.4444444444444444
 40
0.4444444444444444
 40
0.4444444444444444
 40
0.5555555555555556
 40
0.5555555555555556
 40
0.5555555555555556
 40
0.5555555555555556
 40
0.6666666666666667
 40
0.6666666666666667
 40
0.6666666666666667
 40
0.6666666666666667
 40
0.7777777777777779
 40
0.7777777777777779
 40
0.7777777777777779
 40
0.7777777777777779
 40
0.8888888888888891
 40
0.8888888888888891
 40
0.8888888888888891
 40
0.8888888888888891
 40
1.0
 40
1.0
 40
1.0
 40
1.0
 10
4.8343200000000008
 20
6.8496700000000006
 30
0.0
 10
4.8343200000000008
 20
6.8496700000000006
 30
0.0
 10
4.69618
 20
7.0033200000000004
 30
0.0
 10
4.4784500000000005
 20
7.1147200000000002
 30
0.0
 10
4.4784500000000005
 20
7.1147200000000002
 30
0.0
 10
4.2588900000000001
 20
7.227030000000001
 30
0.0
 10
3.8570600000000002
 20
7.2767400000000002
 30
0.0
 10
3.6039400000000001
 20
7.1081700000000003
 30
0.0
 10
3.6039400000000001
 20
7.1081700000000003
 30
0.0
 10
3.3508000000000004
 20
6.9395900000000008
 30
0.0
 10
3.0874900000000003
 20
6.4637000000000002
 30
0.0
 10
3.0668500000000001
 20
6.4430800000000001
 30
0.0
 10
3.0668500000000001
 20
6.4430800000000001
 30
0.0
 10
3.0462200000000004
 20
6.4224400000000008
 30
0.0
 10
3.0127700000000002
 20
6.6263100000000001
 30
0.0
 10
3.2514400000000001
 20
6.8849300000000007
 30
0.0
 10
3.2514400000000001
 20
6.8849300000000007
 30
0.0
 10
3.4901500000000003
 20
7.1435700000000004
 30
0.0
 10
3.1900500000000003
 20
6.9959500000000006
 30
0.0
 10
3.0774000000000004
 20
6.8270000000000008
 30
0.0
 10
3.0774000000000004
 20
6.8270000000000008
 30
0.0
 10
2.9647100000000002
 20
6.6580400000000006
 30
0.0
 10
2.8904700000000001
 20
6.5252100000000004
 30
0.0
 10
2.8843300000000003
 20
6.5619200000000006
 30
0.0
 10
2.8843300000000003
 20
6.5619200000000006
 30
0.0
 10
2.8782300000000003
 20
6.5986100000000008
 30
0.0
 10
3.1013700000000002
 20
7.1267400000000007
 30
0.0
 10
3.7126400000000004
 20
7.3442300000000005
 30
0.0
 10
3.7126400000000004
 20
7.3442300000000005
 30
0.0
 10
3.9238900000000001
 20
7.3955600000000006
 30
0.0
 10
4.27684
 20
7.334480000000001
 30
0.0
 10
4.4966699999999999
 20
7.2184000000000008
 30
0.0
 10
4.4966699999999999
 20
7.2184000000000008
 30
0.0
 10
4.7675900000000002
 20
7.0753400000000006
 30
0.0
 10
4.8644700000000007
 20
6.8496700000000006
 30
0.0
 10
4.8343200000000008
 20
6.8496700000000006
 30
0.0
  0
SPLINE
  5
37
100
AcDbEntity
  8
Ebene 1
 62
     5
100
AcDbSpline
210
0.0
220
0.0
230
1.0
 70
     1
 71
     3
 72
    32
 73
    28
 74
     0
 42
0.0000000001
 43
0.0000000001
 40
0.0
 40
0.0
 40
0.0
 40
0.0
 40
0.1428571428571429
 40
0.1428571428571429
 40
0.1428571428571429
 40
0.1428571428571429
 40
0.2857142857142857
 40
0.2857142857142857
 40
0.2857142857142857
 40
0.2857142857142857
 40
0.4285714285714286
 40
0.4285714285714286
 40
0.4285714285714286
 40
0.4285714285714286
 40
0.5714285714285714
 40
0.5714285714285714
 40
0.5714285714285714
 40
0.5714285714285714
 40
0.7142857142857142
 40
0.7142857142857142
 40
0.7142857142857142
 40
0.7142857142857142
 40
0.857142857142857
 40
0.857142857142857
 40
0.857142857142857
 40
0.857142857142857
 40
1.0
 40
1.0
 40
1.0
 40
1.0
 10
4.5367000000000006
 20
7.7321000000000009
 30
0.0
 10
4.5367000000000006
 20
7.6796500000000005
 30
0.0
 10
5.1301900000000007
 20
7.5701400000000003
 30
0.0
 10
5.3004100000000003
 20
7.3053400000000002
 30
0.0
 10
5.3004100000000003
 20
7.3053400000000002
 30
0.0
 10
5.4706300000000008
 20
7.0405300000000004
 30
0.0
 10
5.3895400000000002
 20
6.6579000000000006
 30
0.0
 10
5.3895400000000002
 20
6.6579000000000006
 30
0.0
 10
5.3895400000000002
 20
6.6579000000000006
 30
0.0
 10
5.3895400000000002
 20
6.6579000000000006
 30
0.0
 10
5.6159100000000004
 20
6.9423600000000008
 30
0.0
 10
5.5531100000000002
 20
7.1854300000000002
 30
0.0
 10
5.5531100000000002
 20
7.1854300000000002
 30
0.0
 10
5.4902700000000006
 20
7.4285000000000005
 30
0.0
 10
5.7303300000000004
 20
7.4864800000000002
 30
0.0
 10
5.7973700000000008
 20
7.4379400000000002
 30
0.0
 10
5.7973700000000008
 20
7.4379400000000002
 30
0.0
 10
5.8644100000000003
 20
7.3893800000000009
 30
0.0
 10
5.8010900000000003
 20
7.2930700000000002
 30
0.0
 10
5.8408800000000003
 20
7.2798100000000003
 30
0.0
 10
5.8408800000000003
 20
7.2798100000000003
 30
0.0
 10
5.8807100000000005
 20
7.2665500000000005
 30
0.0
 10
6.1634400000000005
 20
7.6223400000000003
 30
0.0
 10
5.7033100000000001
 20
7.725550000000001
 30
0.0
 10
5.7033100000000001
 20
7.725550000000001
 30
0.0
 10
5.2568700000000002
 20
7.8240700000000007
 30
0.0
 10
4.5367000000000006
 20
7.7321000000000009
 30
0.0
 10
4.5367000000000006
 20
7.7321000000000009
 30
0.0
  0
SPLINE
  5
38
100
AcDbEntity
  8
Ebene 1
 62
     5
100
AcDbSpline
210
0.0
220
0.0
230
1.0
 70
     1
 71
     3
 72
    32
 73
    28
 74
     0
 42
0.0000000001
 43
0.0000000001
 40
0.0
 40
0.0
 40
0.0
 40
0.0
 40
0.1428571428571429
 40
0.1428571428571429
 40
0.1428571428571429
 40
0.1428571428571429
 40
0.2857142857142857
 40
0.2857142857142857
 40
0.2857142857142857
 40
0.2857142857142857
 40
0.4285714285714286
 40
0.4285714285714286
 40
0.4285714285714286
 40
0.4285714285714286
 40
0.5714285714285714
 40
0.5714285714285714
 40
0.5714285714285714
 40
0.5714285714285714
 40
0.7142857142857142
 40
0.7142857142857142
 40
0.7142857142857142
 40
0.7142857142857142
 40
0.857142857142857
 40
0.857142857142857
 40
0.857142857142857
 40
0.857142857142857
 40
1.0
 40
1.0
 40
1.0
 40
1.0
 10
0.312
 20
2.4251
 30
0.0
 10
0.33855
 20
2.4184200000000002
 30
0.0
 10
0.50129
 20
2.9338000000000002
 30
0.0
 10
0.37658
 20
3.0716800000000002
 30
0.0
 10
0.37658
 20
3.0716800000000002
 30
0.0
 10
0.25186
 20
3.2095500000000001
 30
0.0
 10
0.11863
 20
3.0622400000000001
 30
0.0
 10
0.12388
 20
2.8309300000000004
 30
0.0
 10
0.12388
 20
2.8309300000000004
 30
0.0
 10
0.12915
 20
2.5996300000000003
 30
0.0
 10
0.24322
 20
2.47892
 30
0.0
 10
0.24322
 20
2.47892
 30
0.0
 10
0.24322
 20
2.47892
 30
0.0
 10
0.24322
 20
2.47892
 30
0.0
 10
0.20412
 20
2.59694
 30
0.0
 10
0.19518
 20
2.7150400000000001
 30
0.0
 10
0.19518
 20
2.7150400000000001
 30
0.0
 10
0.18731
 20
2.8192200000000001
 30
0.0
 10
0.20791
 20
2.9234000000000004
 30
0.0
 10
0.22848
 20
2.9465500000000002
 30
0.0
 10
0.22848
 20
2.9465500000000002
 30
0.0
 10
0.27235
 20
2.9958900000000002
 30
0.0
 10
0.37448
 20
3.0080800000000001
 30
0.0
 10
0.3499100000000001
 20
2.8345900000000004
 30
0.0
 10
0.3499100000000001
 20
2.8345900000000004
 30
0.0
 10
0.32674
 20
2.6613000000000002
 30
0.0
 10
0.312
 20
2.4251
 30
0.0
 10
0.312
 20
2.4251
 30
0.0
  0
SPLINE
  5
39
100
AcDbEntity
  8
Ebene 1
 62
     5
100
AcDbSpline
210
0.0
220
0.0
230
1.0
 70
     1
 71
     3
 72
    28
 73
    24
 74
     0
 42
0.0000000001
 43
0.0000000001
 40
0.0
 40
0.0
 40
0.0
 40
0.0
 40
0.1666666666666667
 40
0.1666666666666667
 40
0.1666666666666667
 40
0.1666666666666667
 40
0.3333333333333333
 40
0.3333333333333333
 40
0.3333333333333333
 40
0.3333333333333333
 40
0.5
 40
0.5
 40
0.5
 40
0.5
 40
0.6666666666666666
 40
0.6666666666666666
 40
0.6666666666666666
 40
0.6666666666666666
 40
0.8333333333333333
 40
0.8333333333333333
 40
0.8333333333333333
 40
0.8333333333333333
 40
1.0
 40
1.0
 40
1.0
 40
1.0
 10
-0.22144
 20
3.5715600000000003
 30
0.0
 10
-0.22144
 20
3.5715600000000003
 30
0.0
 10
-0.10388
 20
3.5966400000000003
 30
0.0
 10
0.0207
 20
3.7205300000000001
 30
0.0
 10
0.0207
 20
3.7205300000000001
 30
0.0
 10
0.14529
 20
3.8444800000000003
 30
0.0
 10
0.16992
 20
3.9618900000000004
 30
0.0
 10
0.19688
 20
3.9727100000000002
 30
0.0
 10
0.19688
 20
3.9727100000000002
 30
0.0
 10
0.22386
 20
3.9834600000000004
 30
0.0
 10
0.14781
 20
3.6408100000000001
 30
0.0
 10
-0.00595
 20
3.4671700000000003
 30
0.0
 10
-0.00595
 20
3.4671700000000003
 30
0.0
 10
-0.15973
 20
3.2935400000000001
 30
0.0
 10
-0.19268
 20
3.2699800000000003
 30
0.0
 10
-0.19268
 20
3.2699800000000003
 30
0.0
 10
-0.19268
 20
3.2699800000000003
 30
0.0
 10
-0.19268
 20
3.2699800000000003
 30
0.0
 10
-0.21092
 20
3.3573400000000002
 30
0.0
 10
-0.22918
 20
3.4389900000000004
 30
0.0
 10
-0.22918
 20
3.4389900000000004
 30
0.0
 10
-0.24742
 20
3.5177500000000004
 30
0.0
 10
-0.22144
 20
3.5715600000000003
 30
0.0
 10
-0.22144
 20
3.5715600000000003
 30
0.0
  0
SPLINE
  5
3A
100
AcDbEntity
  8
Ebene 1
 62
     5
100
AcDbSpline
210
0.0
220
0.0
230
1.0
 70
     1
 71
     3
 72
    28
 73
    24
 74
     0
 42
0.0000000001
 43
0.0000000001
 40
0.0
 40
0.0
 40
0.0
 40
0.0
 40
0.1666666666666667
 40
0.1666666666666667
 40
0.1666666666666667
 40
0.1666666666666667
 40
0.3333333333333333
 40
0.3333333333333333
 40
0.3333333333333333
 40
0.3333333333333333
 40
0.5
 40
0.5
 40
0.5
 40
0.5
 40
0.6666666666666666
 40
0.6666666666666666
 40
0.6666666666666666
 40
0.6666666666666666
 40
0.8333333333333333
 40
0.8333333333333333
 40
0.8333333333333333
 40
0.8333333333333333
 40
1.0
 40
1.0
 40
1.0
 40
1.0
 10
-0.22567
 20
3.7013000000000003
 30
0.0
 10
-0.20918
 20
3.6931000000000003
 30
0.0
 10
-0.02427
 20
4.0617300000000007
 30
0.0
 10
-0.06563
 20
4.1543300000000007
 30
0.0
 10
-0.06563
 20
4.1543300000000007
 30
0.0
 10
-0.10698
 20
4.2468700000000004
 30
0.0
 10
-0.23182
 20
4.2183400000000004
 30
0.0
 10
-0.28534
 20
4.0557300000000005
 30
0.0
 10
-0.28534
 20
4.0557300000000005
 30
0.0
 10
-0.3388600000000001
 20
3.8931200000000001
 30
0.0
 10
-0.29972
 20
3.7542900000000001
 30
0.0
 10
-0.29517
 20
3.7588400000000002
 30
0.0
 10
-0.29517
 20
3.7588400000000002
 30
0.0
 10
-0.29059
 20
3.7634500000000002
 30
0.0
 10
-0.29937
 20
3.9907600000000003
 30
0.0
 10
-0.21022
 20
4.0604200000000006
 30
0.0
 10
-0.21022
 20
4.0604200000000006
 30
0.0
 10
-0.12107
 20
4.1300800000000004
 30
0.0
 10
-0.1281
 20
4.0469800000000005
 30
0.0
 10
-0.15408
 20
3.9539000000000004
 30
0.0
 10
-0.15408
 20
3.9539000000000004
 30
0.0
 10
-0.18214
 20
3.8594300000000001
 30
0.0
 10
-0.22567
 20
3.7013000000000003
 30
0.0
 10
-0.22567
 20
3.7013000000000003
 30
0.0
  0
SPLINE
  5
3B
100
AcDbEntity
  8
Ebene 1
 62
     5
100
AcDbSpline
210
0.0
220
0.0
230
1.0
 70
     1
 71
     3
 72
    96
 73
    92
 74
     0
 42
0.0000000001
 43
0.0000000001
 40
0.0
 40
0.0
 40
0.0
 40
0.0
 40
0.0434782608695652
 40
0.0434782608695652
 40
0.0434782608695652
 40
0.0434782608695652
 40
0.0869565217391304
 40
0.0869565217391304
 40
0.0869565217391304
 40
0.0869565217391304
 40
0.1304347826086957
 40
0.1304347826086957
 40
0.1304347826086957
 40
0.1304347826086957
 40
0.1739130434782609
 40
0.1739130434782609
 40
0.1739130434782609
 40
0.1739130434782609
 40
0.2173913043478261
 40
0.2173913043478261
 40
0.2173913043478261
 40
0.2173913043478261
 40
0.2608695652173913
 40
0.2608695652173913
 40
0.2608695652173913
 40
0.2608695652173913
 40
0.3043478260869565
 40
0.3043478260869565
 40
0.3043478260869565
 40
0.3043478260869565
 40
0.3478260869565217
 40
0.3478260869565217
 40
0.3478260869565217
 40
0.3478260869565217
 40
0.3913043478260869
 40
0.3913043478260869
 40
0.3913043478260869
 40
0.3913043478260869
 40
0.4347826086956521
 40
0.4347826086956521
 40
0.4347826086956521
 40
0.4347826086956521
 40
0.4782608695652173
 40
0.4782608695652173
 40
0.4782608695652173
 40
0.4782608695652173
 40
0.5217391304347825
 40
0.5217391304347825
 40
0.5217391304347825
 40
0.5217391304347825
 40
0.5652173913043477
 40
0.5652173913043477
 40
0.5652173913043477
 40
0.5652173913043477
 40
0.6086956521739129
 40
0.6086956521739129
 40
0.6086956521739129
 40
0.6086956521739129
 40
0.6521739130434781
 40
0.6521739130434781
 40
0.6521739130434781
 40
0.6521739130434781
 40
0.6956521739130432
 40
0.6956521739130432
 40
0.6956521739130432
 40
0.6956521739130432
 40
0.7391304347826084
 40
0.7391304347826084
 40
0.7391304347826084
 40
0.7391304347826084
 40
0.7826086956521736
 40
0.7826086956521736
 40
0.7826086956521736
 40
0.7826086956521736
 40
0.8260869565217388
 40
0.8260869565217388
 40
0.8260869565217388
 40
0.8260869565217388
 40
0.869565217391304
 40
0.869565217391304
 40
0.869565217391304
 40
0.869565217391304
 40
0.9130434782608692
 40
0.9130434782608692
 40
0.9130434782608692
 40
0.9130434782608692
 40
0.9565217391304344
 40
0.9565217391304344
 40
0.9565217391304344
 40
0.9565217391304344
 40
1.0
 40
1.0
 40
1.0
 40
1.0
 10
1.2069700000000001
 20
4.4732799999999999
 30
0.0
 10
1.2069700000000001
 20
4.4732799999999999
 30
0.0
 10
0.6963400000000001
 20
4.4615600000000004
 30
0.0
 10
0.3541200000000001
 20
4.5249600000000001
 30
0.0
 10
0.3541200000000001
 20
4.5249600000000001
 30
0.0
 10
0.0119
 20
4.5884100000000005
 30
0.0
 10
-0.2586500000000001
 20
4.5728400000000002
 30
0.0
 10
-0.2586500000000001
 20
4.5728400000000002
 30
0.0
 10
-0.2586500000000001
 20
4.5728400000000002
 30
0.0
 10
-0.2586500000000001
 20
4.5728400000000002
 30
0.0
 10
-0.55803
 20
4.2703600000000002
 30
0.0
 10
-0.5696100000000001
 20
3.8744500000000004
 30
0.0
 10
-0.5696100000000001
 20
3.8744500000000004
 30
0.0
 10
-0.5812000000000001
 20
3.4785400000000002
 30
0.0
 10
-0.5394300000000001
 20
3.3966200000000004
 30
0.0
 10
-0.5394300000000001
 20
3.3966200000000004
 30
0.0
 10
-0.5394300000000001
 20
3.3966200000000004
 30
0.0
 10
-0.5394300000000001
 20
3.3966200000000004
 30
0.0
 10
-0.9121500000000001
 20
3.3157300000000003
 30
0.0
 10
-0.90373
 20
2.8848100000000003
 30
0.0
 10
-0.90373
 20
2.8848100000000003
 30
0.0
 10
-0.8953100000000001
 20
2.4538300000000004
 30
0.0
 10
-0.73948
 20
2.2787500000000001
 30
0.0
 10
-0.73948
 20
2.2787500000000001
 30
0.0
 10
-0.73948
 20
2.2787500000000001
 30
0.0
 10
-0.73948
 20
2.2787500000000001
 30
0.0
 10
-1.1145400000000001
 20
2.05124
 30
0.0
 10
-1.5080800000000001
 20
1.8100100000000001
 30
0.0
 10
-1.5080800000000001
 20
1.8100100000000001
 30
0.0
 10
-1.9049100000000001
 20
1.5667900000000001
 30
0.0
 10
-2.2907600000000001
 20
1.33962
 30
0.0
 10
-2.3700700000000001
 20
1.2455700000000001
 30
0.0
 10
-2.3700700000000001
 20
1.2455700000000001
 30
0.0
 10
-2.4493900000000002
 20
1.1515200000000001
 30
0.0
 10
-2.7010300000000003
 20
0.48703
 30
0.0
 10
-2.2746000000000004
 20
0.8342900000000001
 30
0.0
 10
-2.2746000000000004
 20
0.8342900000000001
 30
0.0
 10
-1.8481700000000001
 20
1.1814900000000002
 30
0.0
 10
-0.6552300000000001
 20
2.1754700000000002
 30
0.0
 10
-0.6552300000000001
 20
2.1754700000000002
 30
0.0
 10
-0.6552300000000001
 20
2.1754700000000002
 30
0.0
 10
-0.6552300000000001
 20
2.1754700000000002
 30
0.0
 10
-0.34287
 20
1.7296800000000001
 30
0.0
 10
0.13933
 20
1.4724600000000001
 30
0.0
 10
0.13933
 20
1.4724600000000001
 30
0.0
 10
0.6215400000000001
 20
1.2152500000000002
 30
0.0
 10
0.70674
 20
1.1987800000000002
 30
0.0
 10
0.7184200000000001
 20
1.2065700000000001
 30
0.0
 10
0.7184200000000001
 20
1.2065700000000001
 30
0.0
 10
0.73011
 20
1.2143600000000001
 30
0.0
 10
-0.26497
 20
1.8387500000000001
 30
0.0
 10
-0.1302
 20
2.0452500000000002
 30
0.0
 10
-0.1302
 20
2.0452500000000002
 30
0.0
 10
0.00456
 20
2.2517400000000003
 30
0.0
 10
0.21092
 20
1.9321800000000002
 30
0.0
 10
0.2755
 20
1.8384000000000003
 30
0.0
 10
0.2755
 20
1.8384000000000003
 30
0.0
 10
0.3400800000000001
 20
1.7446300000000001
 30
0.0
 10
0.4088600000000001
 20
1.6418900000000001
 30
0.0
 10
0.4088600000000001
 20
1.6418900000000001
 30
0.0
 10
0.4088600000000001
 20
1.6418900000000001
 30
0.0
 10
0.4088600000000001
 20
1.6418900000000001
 30
0.0
 10
0.54149
 20
1.8327500000000001
 30
0.0
 10
0.18284
 20
2.3526800000000003
 30
0.0
 10
0.18284
 20
2.3526800000000003
 30
0.0
 10
-0.17578
 20
2.8726900000000004
 30
0.0
 10
0.22319
 20
3.4784700000000002
 30
0.0
 10
0.4131
 20
3.2469600000000001
 30
0.0
 10
0.4131
 20
3.2469600000000001
 30
0.0
 10
0.60297
 20
3.0153800000000004
 30
0.0
 10
0.4748500000000001
 20
2.6358700000000002
 30
0.0
 10
0.4748500000000001
 20
2.6358700000000002
 30
0.0
 10
0.4748500000000001
 20
2.6358700000000002
 30
0.0
 10
0.4748500000000001
 20
2.6358700000000002
 30
0.0
 10
0.8672800000000001
 20
3.0171100000000002
 30
0.0
 10
0.7191300000000001
 20
3.5293900000000002
 30
0.0
 10
0.7191300000000001
 20
3.5293900000000002
 30
0.0
 10
0.57098
 20
4.0416800000000004
 30
0.0
 10
0.7854300000000001
 20
4.1964300000000003
 30
0.0
 10
0.8917900000000001
 20
4.0159100000000008
 30
0.0
 10
0.8917900000000001
 20
4.0159100000000008
 30
0.0
 10
0.9981800000000001
 20
3.8354500000000002
 30
0.0
 10
0.9469700000000001
 20
3.7314800000000004
 30
0.0
 10
0.9332200000000001
 20
3.6971000000000003
 30
0.0
 10
0.9332200000000001
 20
3.6971000000000003
 30
0.0
 10
0.9194600000000001
 20
3.6627200000000002
 30
0.0
 10
1.1574600000000002
 20
3.7664800000000005
 30
0.0
 10
1.12205
 20
4.0950100000000003
 30
0.0
 10
1.12205
 20
4.0950100000000003
 30
0.0
 10
1.08877
 20
4.4058200000000003
 30
0.0
 10
1.21238
 20
4.45716
 30
0.0
 10
1.2069700000000001
 20
4.4732799999999999
 30
0.0
  0
SPLINE
  5
3C
100
AcDbEntity
  8
Ebene 1
 62
     5
100
AcDbSpline
210
0.0
220
0.0
230
1.0
 70
     1
 71
     3
 72
    64
 73
    60
 74
     0
 42
0.0000000001
 43
0.0000000001
 40
0.0
 40
0.0
 40
0.0
 40
0.0
 40
0.0666666666666667
 40
0.0666666666666667
 40
0.0666666666666667
 40
0.0666666666666667
 40
0.1333333333333333
 40
0.1333333333333333
 40
0.1333333333333333
 40
0.1333333333333333
 40
0.2
 40
0.2
 40
0.2
 40
0.2
 40
0.2666666666666667
 40
0.2666666666666667
 40
0.2666666666666667
 40
0.2666666666666667
 40
0.3333333333333333
 40
0.3333333333333333
 40
0.3333333333333333
 40
0.3333333333333333
 40
0.4
 40
0.4
 40
0.4
 40
0.4
 40
0.4666666666666666
 40
0.4666666666666666
 40
0.4666666666666666
 40
0.4666666666666666
 40
0.5333333333333333
 40
0.5333333333333333
 40
0.5333333333333333
 40
0.5333333333333333
 40
0.6
 40
0.6
 40
0.6
 40
0.6
 40
0.6666666666666666
 40
0.6666666666666666
 40
0.6666666666666666
 40
0.6666666666666666
 40
0.7333333333333333
 40
0.7333333333333333
 40
0.7333333333333333
 40
0.7333333333333333
 40
0.7999999999999999
 40
0.7999999999999999
 40
0.7999999999999999
 40
0.7999999999999999
 40
0.8666666666666666
 40
0.8666666666666666
 40
0.8666666666666666
 40
0.8666666666666666
 40
0.9333333333333332
 40
0.9333333333333332
 40
0.9333333333333332
 40
0.9333333333333332
 40
1.0
 40
1.0
 40
1.0
 40
1.0
 10
0.03825
 20
3.3654700000000002
 30
0.0
 10
0.03825
 20
3.3654700000000002
 30
0.0
 10
-0.34206
 20
3.1114300000000004
 30
0.0
 10
-0.13372
 20
2.7879400000000003
 30
0.0
 10
-0.13372
 20
2.7879400000000003
 30
0.0
 10
0.07463
 20
2.4645100000000002
 30
0.0
 10
0.06406
 20
2.2376900000000002
 30
0.0
 10
0.04599
 20
2.2436800000000003
 30
0.0
 10
0.04599
 20
2.2436800000000003
 30
0.0
 10
0.02788
 20
2.2497500000000001
 30
0.0
 10
-0.11015
 20
2.5695200000000002
 30
0.0
 10
-0.2888500000000001
 20
2.5457500000000004
 30
0.0
 10
-0.2888500000000001
 20
2.5457500000000004
 30
0.0
 10
-0.4675300000000001
 20
2.5219100000000001
 30
0.0
 10
-0.345
 20
2.2197
 30
0.0
 10
-0.37798
 20
2.2032400000000001
 30
0.0
 10
-0.37798
 20
2.2032400000000001
 30
0.0
 10
-0.4109600000000001
 20
2.1867700000000001
 30
0.0
 10
-0.67654
 20
2.4222100000000002
 30
0.0
 10
-0.6517400000000001
 20
2.7974500000000004
 30
0.0
 10
-0.6517400000000001
 20
2.7974500000000004
 30
0.0
 10
-0.6269300000000001
 20
3.1726900000000002
 30
0.0
 10
-0.41625
 20
3.1530500000000004
 30
0.0
 10
-0.40116
 20
3.0590000000000002
 30
0.0
 10
-0.40116
 20
3.0590000000000002
 30
0.0
 10
-0.38605
 20
2.9648800000000004
 30
0.0
 10
-0.38159
 20
2.8305900000000004
 30
0.0
 10
-0.37517
 20
2.8049600000000003
 30
0.0
 10
-0.37517
 20
2.8049600000000003
 30
0.0
 10
-0.36876
 20
2.7793300000000003
 30
0.0
 10
-0.20489
 20
3.04956
 30
0.0
 10
-0.29235
 20
3.3104900000000002
 30
0.0
 10
-0.29235
 20
3.3104900000000002
 30
0.0
 10
-0.3798
 20
3.5713500000000002
 30
0.0
 10
-0.4211800000000001
 20
4.0101200000000006
 30
0.0
 10
-0.29235
 20
4.1831300000000002
 30
0.0
 10
-0.29235
 20
4.1831300000000002
 30
0.0
 10
-0.16352
 20
4.3562099999999999
 30
0.0
 10
0.0551
 20
4.3366500000000006
 30
0.0
 10
0.01789
 20
4.1171300000000004
 30
0.0
 10
0.01789
 20
4.1171300000000004
 30
0.0
 10
-0.01931
 20
3.8976000000000002
 30
0.0
 10
-0.11685
 20
3.7322400000000004
 30
0.0
 10
-0.11685
 20
3.7322400000000004
 30
0.0
 10
-0.11685
 20
3.7322400000000004
 30
0.0
 10
-0.11685
 20
3.7322400000000004
 30
0.0
 10
0.12984
 20
3.8287000000000004
 30
0.0
 10
0.17092
 20
4.0626899999999999
 30
0.0
 10
0.17092
 20
4.0626899999999999
 30
0.0
 10
0.21197
 20
4.2966800000000003
 30
0.0
 10
0.09796
 20
4.3098400000000003
 30
0.0
 10
0.10845
 20
4.3361000000000001
 30
0.0
 10
0.10845
 20
4.3361000000000001
 30
0.0
 10
0.11896
 20
4.3623500000000002
 30
0.0
 10
0.32857
 20
4.3143900000000004
 30
0.0
 10
0.29166
 20
3.9525200000000003
 30
0.0
 10
0.29166
 20
3.9525200000000003
 30
0.0
 10
0.2586500000000001
 20
3.6080800000000002
 30
0.0
 10
0.03825
 20
3.3654700000000002
 30
0.0
 10
0.03825
 20
3.3654700000000002
 30
0.0
  0
SPLINE
  5
3D
100
AcDbEntity
  8
Ebene 1
 62
     5
100
AcDbSpline
210
0.0
220
0.0
230
1.0
 70
     1
 71
     3
 72
    40
 73
    36
 74
     0
 42
0.0000000001
 43
0.0000000001
 40
0.0
 40
0.0
 40
0.0
 40
0.0
 40
0.1111111111111111
 40
0.1111111111111111
 40
0.1111111111111111
 40
0.1111111111111111
 40
0.2222222222222222
 40
0.2222222222222222
 40
0.2222222222222222
 40
0.2222222222222222
 40
0.3333333333333333
 40
0.3333333333333333
 40
0.3333333333333333
 40
0.3333333333333333
 40
0.4444444444444444
 40
0.4444444444444444
 40
0.4444444444444444
 40
0.4444444444444444
 40
0.5555555555555556
 40
0.5555555555555556
 40
0.5555555555555556
 40
0.5555555555555556
 40
0.6666666666666667
 40
0.6666666666666667
 40
0.6666666666666667
 40
0.6666666666666667
 40
0.7777777777777779
 40
0.7777777777777779
 40
0.7777777777777779
 40
0.7777777777777779
 40
0.8888888888888891
 40
0.8888888888888891
 40
0.8888888888888891
 40
0.8888888888888891
 40
1.0
 40
1.0
 40
1.0
 40
1.0
 10
-1.1276400000000002
 20
6.7050100000000006
 30
0.0
 10
-1.1827000000000001
 20
6.7285900000000005
 30
0.0
 10
-0.6739900000000001
 20
7.1065000000000005
 30
0.0
 10
-0.30919
 20
6.8562200000000004
 30
0.0
 10
-0.30919
 20
6.8562200000000004
 30
0.0
 10
0.05558
 20
6.6059300000000007
 30
0.0
 10
0.19733
 20
6.1644900000000007
 30
0.0
 10
0.20391
 20
6.1497200000000003
 30
0.0
 10
0.20391
 20
6.1497200000000003
 30
0.0
 10
0.20796
 20
6.1406000000000001
 30
0.0
 10
0.06428
 20
6.3428300000000002
 30
0.0
 10
-0.11713
 20
6.4809400000000004
 30
0.0
 10
-0.11713
 20
6.4809400000000004
 30
0.0
 10
-0.22968
 20
6.5665700000000005
 30
0.0
 10
-0.35598
 20
6.6372300000000006
 30
0.0
 10
-0.46968
 20
6.6535800000000007
 30
0.0
 10
-0.46968
 20
6.6535800000000007
 30
0.0
 10
-0.7940600000000001
 20
6.7002200000000007
 30
0.0
 10
-0.7871
 20
6.6135100000000007
 30
0.0
 10
-0.8413600000000001
 20
6.6376300000000006
 30
0.0
 10
-0.8413600000000001
 20
6.6376300000000006
 30
0.0
 10
-0.89563
 20
6.6617400000000009
 30
0.0
 10
-0.67105
 20
6.760320000000001
 30
0.0
 10
-0.52144
 20
6.7410100000000002
 30
0.0
 10
-0.52144
 20
6.7410100000000002
 30
0.0
 10
-0.37182
 20
6.7217000000000002
 30
0.0
 10
-0.2477
 20
6.6313200000000005
 30
0.0
 10
-0.22708
 20
6.6519800000000009
 30
0.0
 10
-0.22708
 20
6.6519800000000009
 30
0.0
 10
-0.20643
 20
6.6725900000000005
 30
0.0
 10
-0.46045
 20
6.9153900000000004
 30
0.0
 10
-0.7333400000000001
 20
6.8556300000000006
 30
0.0
 10
-0.7333400000000001
 20
6.8556300000000006
 30
0.0
 10
-0.9871900000000001
 20
6.7952400000000006
 30
0.0
 10
-1.1276400000000002
 20
6.7050100000000006
 30
0.0
 10
-1.1276400000000002
 20
6.7050100000000006
 30
0.0
  0
SPLINE
  5
3E
100
AcDbEntity
  8
Ebene 1
 62
     5
100
AcDbSpline
210
0.0
220
0.0
230
1.0
 70
     1
 71
     3
 72
    36
 73
    32
 74
     0
 42
0.0000000001
 43
0.0000000001
 40
0.0
 40
0.0
 40
0.0
 40
0.0
 40
0.125
 40
0.125
 40
0.125
 40
0.125
 40
0.25
 40
0.25
 40
0.25
 40
0.25
 40
0.375
 40
0.375
 40
0.375
 40
0.375
 40
0.5
 40
0.5
 40
0.5
 40
0.5
 40
0.625
 40
0.625
 40
0.625
 40
0.625
 40
0.75
 40
0.75
 40
0.75
 40
0.75
 40
0.875
 40
0.875
 40
0.875
 40
0.875
 40
1.0
 40
1.0
 40
1.0
 40
1.0
 10
-2.7343700000000002
 20
9.0348500000000005
 30
0.0
 10
-2.7752800000000004
 20
9.0000499999999999
 30
0.0
 10
-1.5218600000000002
 20
8.4694300000000009
 30
0.0
 10
-1.02868
 20
8.2889800000000005
 30
0.0
 10
-1.02868
 20
8.2889800000000005
 30
0.0
 10
-0.5354800000000001
 20
8.1085100000000008
 30
0.0
 10
-0.53898
 20
8.1092200000000005
 30
0.0
 10
-0.5208400000000001
 20
8.1382400000000015
 30
0.0
 10
-0.5208400000000001
 20
8.1382400000000015
 30
0.0
 10
-0.5027
 20
8.1672799999999999
 30
0.0
 10
-1.0453600000000001
 20
8.6442600000000009
 30
0.0
 10
-1.7081400000000002
 20
8.8599000000000014
 30
0.0
 10
-1.7081400000000002
 20
8.8599000000000014
 30
0.0
 10
-2.37094
 20
9.0755700000000008
 30
0.0
 10
-2.6473300000000002
 20
9.0975100000000015
 30
0.0
 10
-2.6389
 20
9.0762
 30
0.0
 10
-2.6389
 20
9.0762
 30
0.0
 10
-2.6305000000000001
 20
9.0548900000000003
 30
0.0
 10
-1.6645100000000002
 20
8.8277300000000007
 30
0.0
 10
-1.3755500000000001
 20
8.660400000000001
 30
0.0
 10
-1.3755500000000001
 20
8.660400000000001
 30
0.0
 10
-1.0866100000000001
 20
8.4931000000000001
 30
0.0
 10
-0.9768500000000001
 20
8.4190200000000015
 30
0.0
 10
-0.9960200000000001
 20
8.3764500000000002
 30
0.0
 10
-0.9960200000000001
 20
8.3764500000000002
 30
0.0
 10
-1.01519
 20
8.333870000000001
 30
0.0
 10
-1.5782500000000002
 20
8.5562200000000015
 30
0.0
 10
-1.9636500000000001
 20
8.74437
 30
0.0
 10
-1.9636500000000001
 20
8.74437
 30
0.0
 10
-2.3623500000000002
 20
8.9168300000000009
 30
0.0
 10
-2.7343700000000002
 20
9.0348500000000005
 30
0.0
 10
-2.7343700000000002
 20
9.0348500000000005
 30
0.0
  0
SPLINE
  5
3F
100
AcDbEntity
  8
Ebene 1
 62
     5
100
AcDbSpline
210
0.0
220
0.0
230
1.0
 70
     1
 71
     3
 72
    32
 73
    28
 74
     0
 42
0.0000000001
 43
0.0000000001
 40
0.0
 40
0.0
 40
0.0
 40
0.0
 40
0.1428571428571429
 40
0.1428571428571429
 40
0.1428571428571429
 40
0.1428571428571429
 40
0.2857142857142857
 40
0.2857142857142857
 40
0.2857142857142857
 40
0.2857142857142857
 40
0.4285714285714286
 40
0.4285714285714286
 40
0.4285714285714286
 40
0.4285714285714286
 40
0.5714285714285714
 40
0.5714285714285714
 40
0.5714285714285714
 40
0.5714285714285714
 40
0.7142857142857142
 40
0.7142857142857142
 40
0.7142857142857142
 40
0.7142857142857142
 40
0.857142857142857
 40
0.857142857142857
 40
0.857142857142857
 40
0.857142857142857
 40
1.0
 40
1.0
 40
1.0
 40
1.0
 10
0.08037
 20
7.4169600000000004
 30
0.0
 10
0.08037
 20
7.4169600000000004
 30
0.0
 10
0.8429200000000001
 20
6.5330800000000009
 30
0.0
 10
0.9577800000000001
 20
5.9717600000000006
 30
0.0
 10
0.9577800000000001
 20
5.9717600000000006
 30
0.0
 10
1.07264
 20
5.4104500000000009
 30
0.0
 10
0.8521400000000001
 20
5.6780800000000005
 30
0.0
 10
0.78651
 20
5.7568200000000003
 30
0.0
 10
0.78651
 20
5.7568200000000003
 30
0.0
 10
0.7208800000000001
 20
5.8355600000000001
 30
0.0
 10
0.7313700000000001
 20
5.8658700000000001
 30
0.0
 10
0.7086
 20
5.8715600000000006
 30
0.0
 10
0.7086
 20
5.8715600000000006
 30
0.0
 10
0.68581
 20
5.8772600000000006
 30
0.0
 10
0.7087500000000001
 20
5.6795400000000003
 30
0.0
 10
0.9093500000000001
 20
5.3631100000000007
 30
0.0
 10
0.9093500000000001
 20
5.3631100000000007
 30
0.0
 10
1.1099400000000001
 20
5.0466800000000003
 30
0.0
 10
1.2516200000000002
 20
4.8680900000000005
 30
0.0
 10
1.2750600000000001
 20
4.8739400000000002
 30
0.0
 10
1.2750600000000001
 20
4.8739400000000002
 30
0.0
 10
1.2984900000000001
 20
4.8798000000000004
 30
0.0
 10
1.2870000000000001
 20
5.6007700000000007
 30
0.0
 10
1.0462400000000001
 20
6.2086400000000008
 30
0.0
 10
1.0462400000000001
 20
6.2086400000000008
 30
0.0
 10
0.6830000000000001
 20
6.8978500000000009
 30
0.0
 10
0.09413
 20
7.451340000000001
 30
0.0
 10
0.08037
 20
7.4169600000000004
 30
0.0
  0
SPLINE
  5
40
100
AcDbEntity
  8
Ebene 1
 62
     5
100
AcDbSpline
210
0.0
220
0.0
230
1.0
 70
     1
 71
     3
 72
    28
 73
    24
 74
     0
 42
0.0000000001
 43
0.0000000001
 40
0.0
 40
0.0
 40
0.0
 40
0.0
 40
0.1666666666666667
 40
0.1666666666666667
 40
0.1666666666666667
 40
0.1666666666666667
 40
0.3333333333333333
 40
0.3333333333333333
 40
0.3333333333333333
 40
0.3333333333333333
 40
0.5
 40
0.5
 40
0.5
 40
0.5
 40
0.6666666666666666
 40
0.6666666666666666
 40
0.6666666666666666
 40
0.6666666666666666
 40
0.8333333333333333
 40
0.8333333333333333
 40
0.8333333333333333
 40
0.8333333333333333
 40
1.0
 40
1.0
 40
1.0
 40
1.0
 10
-2.8431600000000001
 20
8.1676800000000007
 30
0.0
 10
-2.8431600000000001
 20
8.1676800000000007
 30
0.0
 10
-2.5708300000000004
 20
8.3035200000000007
 30
0.0
 10
-2.8228000000000004
 20
8.4805299999999999
 30
0.0
 10
-2.8228000000000004
 20
8.4805299999999999
 30
0.0
 10
-3.0748000000000002
 20
8.6575400000000009
 30
0.0
 10
-3.2622600000000004
 20
8.5713100000000004
 30
0.0
 10
-3.2341500000000001
 20
8.4381700000000013
 30
0.0
 10
-3.2341500000000001
 20
8.4381700000000013
 30
0.0
 10
-3.2060400000000002
 20
8.30504
 30
0.0
 10
-3.0351900000000001
 20
8.2091200000000004
 30
0.0
 10
-3.0249800000000002
 20
8.2397800000000014
 30
0.0
 10
-3.0249800000000002
 20
8.2397800000000014
 30
0.0
 10
-3.0147500000000003
 20
8.2704599999999999
 30
0.0
 10
-3.2309900000000003
 20
8.474120000000001
 30
0.0
 10
-3.0530600000000003
 20
8.4724000000000004
 30
0.0
 10
-3.0530600000000003
 20
8.4724000000000004
 30
0.0
 10
-2.8751200000000003
 20
8.4706800000000015
 30
0.0
 10
-2.8122800000000003
 20
8.3632100000000005
 30
0.0
 10
-2.8579100000000004
 20
8.2949000000000002
 30
0.0
 10
-2.8579100000000004
 20
8.2949000000000002
 30
0.0
 10
-2.90144
 20
8.2278800000000007
 30
0.0
 10
-2.8431600000000001
 20
8.1676800000000007
 30
0.0
 10
-2.8431600000000001
 20
8.1676800000000007
 30
0.0
  0
SPLINE
  5
41
100
AcDbEntity
  8
Ebene 1
 62
     5
100
AcDbSpline
210
0.0
220
0.0
230
1.0
 70
     1
 71
     3
 72
    32
 73
    28
 74
     0
 42
0.0000000001
 43
0.0000000001
 40
0.0
 40
0.0
 40
0.0
 40
0.0
 40
0.1428571428571429
 40
0.1428571428571429
 40
0.1428571428571429
 40
0.1428571428571429
 40
0.2857142857142857
 40
0.2857142857142857
 40
0.2857142857142857
 40
0.2857142857142857
 40
0.4285714285714286
 40
0.4285714285714286
 40
0.4285714285714286
 40
0.4285714285714286
 40
0.5714285714285714
 40
0.5714285714285714
 40
0.5714285714285714
 40
0.5714285714285714
 40
0.7142857142857142
 40
0.7142857142857142
 40
0.7142857142857142
 40
0.7142857142857142
 40
0.857142857142857
 40
0.857142857142857
 40
0.857142857142857
 40
0.857142857142857
 40
1.0
 40
1.0
 40
1.0
 40
1.0
 10
0.9619800000000001
 20
4.5665000000000004
 30
0.0
 10
0.9619800000000001
 20
4.5665000000000004
 30
0.0
 10
0.6162000000000001
 20
4.9547700000000008
 30
0.0
 10
0.33937
 20
5.2928200000000007
 30
0.0
 10
0.33937
 20
5.2928200000000007
 30
0.0
 10
0.06254
 20
5.6308800000000003
 30
0.0
 10
-0.18355
 20
5.7930800000000007
 30
0.0
 10
-0.29586
 20
5.6748400000000006
 30
0.0
 10
-0.29586
 20
5.6748400000000006
 30
0.0
 10
-0.40817
 20
5.5565900000000008
 30
0.0
 10
-0.06516
 20
5.2993100000000002
 30
0.0
 10
0.23902
 20
5.0435800000000004
 30
0.0
 10
0.23902
 20
5.0435800000000004
 30
0.0
 10
0.54317
 20
4.78782
 30
0.0
 10
0.6923400000000001
 20
4.6965200000000005
 30
0.0
 10
0.6987600000000001
 20
4.7030000000000003
 30
0.0
 10
0.6987600000000001
 20
4.7030000000000003
 30
0.0
 10
0.7052000000000001
 20
4.7094100000000001
 30
0.0
 10
0.05264
 20
5.2526100000000007
 30
0.0
 10
0.01369
 20
5.3727900000000002
 30
0.0
 10
0.01369
 20
5.3727900000000002
 30
0.0
 10
-0.02526
 20
5.4929700000000006
 30
0.0
 10
0.14844
 20
5.3855900000000005
 30
0.0
 10
0.32113
 20
5.2085300000000005
 30
0.0
 10
0.32113
 20
5.2085300000000005
 30
0.0
 10
0.47892
 20
4.9960400000000007
 30
0.0
 10
0.94442
 20
4.5547900000000006
 30
0.0
 10
0.9619800000000001
 20
4.5665000000000004
 30
0.0
  0
SPLINE
  5
42
100
AcDbEntity
  8
Ebene 1
 62
     5
100
AcDbSpline
210
0.0
220
0.0
230
1.0
 70
     1
 71
     3
 72
    48
 73
    44
 74
     0
 42
0.0000000001
 43
0.0000000001
 40
0.0
 40
0.0
 40
0.0
 40
0.0
 40
0.0909090909090909
 40
0.0909090909090909
 40
0.0909090909090909
 40
0.0909090909090909
 40
0.1818181818181818
 40
0.1818181818181818
 40
0.1818181818181818
 40
0.1818181818181818
 40
0.2727272727272727
 40
0.2727272727272727
 40
0.2727272727272727
 40
0.2727272727272727
 40
0.3636363636363637
 40
0.3636363636363637
 40
0.3636363636363637
 40
0.3636363636363637
 40
0.4545454545454546
 40
0.4545454545454546
 40
0.4545454545454546
 40
0.4545454545454546
 40
0.5454545454545455
 40
0.5454545454545455
 40
0.5454545454545455
 40
0.5454545454545455
 40
0.6363636363636365
 40
0.6363636363636365
 40
0.6363636363636365
 40
0.6363636363636365
 40
0.7272727272727274
 40
0.7272727272727274
 40
0.7272727272727274
 40
0.7272727272727274
 40
0.8181818181818183
 40
0.8181818181818183
 40
0.8181818181818183
 40
0.8181818181818183
 40
0.9090909090909093
 40
0.9090909090909093
 40
0.9090909090909093
 40
0.9090909090909093
 40
1.0
 40
1.0
 40
1.0
 40
1.0
 10
-3.1709600000000004
 20
8.8045200000000001
 30
0.0
 10
-3.1640900000000003
 20
8.8182700000000001
 30
0.0
 10
-3.5908900000000004
 20
9.0259400000000003
 30
0.0
 10
-4.04488
 20
9.0946500000000015
 30
0.0
 10
-4.04488
 20
9.0946500000000015
 30
0.0
 10
-4.4988600000000005
 20
9.1633800000000001
 30
0.0
 10
-4.91106
 20
9.0656600000000012
 30
0.0
 10
-4.91106
 20
9.0656600000000012
 30
0.0
 10
-4.91106
 20
9.0656600000000012
 30
0.0
 10
-4.91106
 20
9.0656600000000012
 30
0.0
 10
-4.70343
 20
8.7166899999999998
 30
0.0
 10
-4.3579400000000001
 20
8.4247000000000014
 30
0.0
 10
-4.3579400000000001
 20
8.4247000000000014
 30
0.0
 10
-4.0124500000000003
 20
8.1327100000000012
 30
0.0
 10
-3.6189300000000002
 20
7.8762700000000008
 30
0.0
 10
-3.6068700000000002
 20
7.8943600000000007
 30
0.0
 10
-3.6068700000000002
 20
7.8943600000000007
 30
0.0
 10
-3.5948100000000003
 20
7.9124500000000006
 30
0.0
 10
-4.2709000000000001
 20
8.4048400000000001
 30
0.0
 10
-4.0757700000000003
 20
8.4397700000000011
 30
0.0
 10
-4.0757700000000003
 20
8.4397700000000011
 30
0.0
 10
-3.8806200000000004
 20
8.4746900000000007
 30
0.0
 10
-3.7325100000000004
 20
8.1907800000000002
 30
0.0
 10
-3.7325100000000004
 20
8.1907800000000002
 30
0.0
 10
-3.7325100000000004
 20
8.1907800000000002
 30
0.0
 10
-3.7325100000000004
 20
8.1907800000000002
 30
0.0
 10
-3.5668600000000001
 20
8.198220000000001
 30
0.0
 10
-3.7851600000000003
 20
8.4321200000000012
 30
0.0
 10
-3.7851600000000003
 20
8.4321200000000012
 30
0.0
 10
-4.00345
 20
8.6660500000000003
 30
0.0
 10
-3.8666000000000005
 20
8.810550000000001
 30
0.0
 10
-3.7044400000000004
 20
8.6966200000000011
 30
0.0
 10
-3.7044400000000004
 20
8.6966200000000011
 30
0.0
 10
-3.5422900000000004
 20
8.5826799999999999
 30
0.0
 10
-3.5998500000000004
 20
8.5015300000000007
 30
0.0
 10
-3.5998500000000004
 20
8.5015300000000007
 30
0.0
 10
-3.5998500000000004
 20
8.5015300000000007
 30
0.0
 10
-3.5998500000000004
 20
8.5015300000000007
 30
0.0
 10
-3.4398200000000001
 20
8.5200800000000001
 30
0.0
 10
-3.5444000000000004
 20
8.6902300000000015
 30
0.0
 10
-3.5444000000000004
 20
8.6902300000000015
 30
0.0
 10
-3.6384600000000002
 20
8.8620000000000001
 30
0.0
 10
-3.1709600000000004
 20
8.8045200000000001
 30
0.0
 10
-3.1709600000000004
 20
8.8045200000000001
 30
0.0
  0
SPLINE
  5
43
100
AcDbEntity
  8
Ebene 1
 62
     5
100
AcDbSpline
210
0.0
220
0.0
230
1.0
 70
     1
 71
     3
 72
    40
 73
    36
 74
     0
 42
0.0000000001
 43
0.0000000001
 40
0.0
 40
0.0
 40
0.0
 40
0.0
 40
0.1111111111111111
 40
0.1111111111111111
 40
0.1111111111111111
 40
0.1111111111111111
 40
0.2222222222222222
 40
0.2222222222222222
 40
0.2222222222222222
 40
0.2222222222222222
 40
0.3333333333333333
 40
0.3333333333333333
 40
0.3333333333333333
 40
0.3333333333333333
 40
0.4444444444444444
 40
0.4444444444444444
 40
0.4444444444444444
 40
0.4444444444444444
 40
0.5555555555555556
 40
0.5555555555555556
 40
0.5555555555555556
 40
0.5555555555555556
 40
0.6666666666666667
 40
0.6666666666666667
 40
0.6666666666666667
 40
0.6666666666666667
 40
0.7777777777777779
 40
0.7777777777777779
 40
0.7777777777777779
 40
0.7777777777777779
 40
0.8888888888888891
 40
0.8888888888888891
 40
0.8888888888888891
 40
0.8888888888888891
 40
1.0
 40
1.0
 40
1.0
 40
1.0
 10
-1.45686
 20
6.8496700000000006
 30
0.0
 10
-1.45686
 20
6.8496700000000006
 30
0.0
 10
-1.3187200000000001
 20
7.0033200000000004
 30
0.0
 10
-1.1009800000000001
 20
7.1147200000000002
 30
0.0
 10
-1.1009800000000001
 20
7.1147200000000002
 30
0.0
 10
-0.8814400000000001
 20
7.227030000000001
 30
0.0
 10
-0.47959
 20
7.2767400000000002
 30
0.0
 10
-0.22647
 20
7.1081700000000003
 30
0.0
 10
-0.22647
 20
7.1081700000000003
 30
0.0
 10
0.02664
 20
6.9395900000000008
 30
0.0
 10
0.28997
 20
6.4637000000000002
 30
0.0
 10
0.3106100000000001
 20
6.4430800000000001
 30
0.0
 10
0.3106100000000001
 20
6.4430800000000001
 30
0.0
 10
0.33124
 20
6.4224400000000008
 30
0.0
 10
0.36469
 20
6.6263100000000001
 30
0.0
 10
0.12598
 20
6.8849300000000007
 30
0.0
 10
0.12598
 20
6.8849300000000007
 30
0.0
 10
-0.11268
 20
7.1435700000000004
 30
0.0
 10
0.18739
 20
6.9959500000000006
 30
0.0
 10
0.3000600000000001
 20
6.8270000000000008
 30
0.0
 10
0.3000600000000001
 20
6.8270000000000008
 30
0.0
 10
0.4127500000000001
 20
6.6580400000000006
 30
0.0
 10
0.48699
 20
6.5252100000000004
 30
0.0
 10
0.49309
 20
6.5619200000000006
 30
0.0
 10
0.49309
 20
6.5619200000000006
 30
0.0
 10
0.4992200000000001
 20
6.5986100000000008
 30
0.0
 10
0.27609
 20
7.1267400000000007
 30
0.0
 10
-0.33517
 20
7.3442300000000005
 30
0.0
 10
-0.33517
 20
7.3442300000000005
 30
0.0
 10
-0.54644
 20
7.3955600000000006
 30
0.0
 10
-0.8993600000000001
 20
7.334480000000001
 30
0.0
 10
-1.1192200000000001
 20
7.2184000000000008
 30
0.0
 10
-1.1192200000000001
 20
7.2184000000000008
 30
0.0
 10
-1.3901400000000002
 20
7.0753400000000006
 30
0.0
 10
-1.4870000000000001
 20
6.8496700000000006
 30
0.0
 10
-1.45686
 20
6.8496700000000006
 30
0.0
  0
SPLINE
  5
44
100
AcDbEntity
  8
Ebene 1
 62
     5
100
AcDbSpline
210
0.0
220
0.0
230
1.0
 70
     1
 71
     3
 72
    32
 73
    28
 74
     0
 42
0.0000000001
 43
0.0000000001
 40
0.0
 40
0.0
 40
0.0
 40
0.0
 40
0.1428571428571429
 40
0.1428571428571429
 40
0.1428571428571429
 40
0.1428571428571429
 40
0.2857142857142857
 40
0.2857142857142857
 40
0.2857142857142857
 40
0.2857142857142857
 40
0.4285714285714286
 40
0.4285714285714286
 40
0.4285714285714286
 40
0.4285714285714286
 40
0.5714285714285714
 40
0.5714285714285714
 40
0.5714285714285714
 40
0.5714285714285714
 40
0.7142857142857142
 40
0.7142857142857142
 40
0.7142857142857142
 40
0.7142857142857142
 40
0.857142857142857
 40
0.857142857142857
 40
0.857142857142857
 40
0.857142857142857
 40
1.0
 40
1.0
 40
1.0
 40
1.0
 10
-1.15924
 20
7.7321000000000009
 30
0.0
 10
-1.15924
 20
7.6796500000000005
 30
0.0
 10
-1.7527000000000001
 20
7.5701400000000003
 30
0.0
 10
-1.9229400000000001
 20
7.3053400000000002
 30
0.0
 10
-1.9229400000000001
 20
7.3053400000000002
 30
0.0
 10
-2.0931700000000002
 20
7.0405300000000004
 30
0.0
 10
-2.0120800000000001
 20
6.6579000000000006
 30
0.0
 10
-2.0120800000000001
 20
6.6579000000000006
 30
0.0
 10
-2.0120800000000001
 20
6.6579000000000006
 30
0.0
 10
-2.0120800000000001
 20
6.6579000000000006
 30
0.0
 10
-2.2384400000000002
 20
6.9423600000000008
 30
0.0
 10
-2.1756200000000003
 20
7.1854300000000002
 30
0.0
 10
-2.1756200000000003
 20
7.1854300000000002
 30
0.0
 10
-2.1128
 20
7.4285000000000005
 30
0.0
 10
-2.3528600000000002
 20
7.4864800000000002
 30
0.0
 10
-2.4199000000000002
 20
7.4379400000000002
 30
0.0
 10
-2.4199000000000002
 20
7.4379400000000002
 30
0.0
 10
-2.4869400000000002
 20
7.3893800000000009
 30
0.0
 10
-2.4236400000000002
 20
7.2930700000000002
 30
0.0
 10
-2.4634300000000002
 20
7.2798100000000003
 30
0.0
 10
-2.4634300000000002
 20
7.2798100000000003
 30
0.0
 10
-2.5032200000000002
 20
7.2665500000000005
 30
0.0
 10
-2.7859800000000003
 20
7.6223400000000003
 30
0.0
 10
-2.32585
 20
7.725550000000001
 30
0.0
 10
-2.32585
 20
7.725550000000001
 30
0.0
 10
-1.8794200000000001
 20
7.8240700000000007
 30
0.0
 10
-1.15924
 20
7.7321000000000009
 30
0.0
 10
-1.15924
 20
7.7321000000000009
 30
0.0
  0
ENDSEC
  0
SECTION
  2
OBJECTS
  0
DICTIONARY
  5
19
100
AcDbDictionary
280
     0
281
     1
  3
ACAD_GROUP
350
1A
  3
ACAD_MLINESTYLE
350
1B
  3
ACAD_LAYOUT
350
1E
  3
ACAD_PLOTSETTINGS
350
22
  3
ACAD_PLOTSTYLENAME
350
1F
  3
ACAD_WIPEOUT_VARS
350
23
  0
DICTIONARY
  5
1A
102
{ACAD_REACTORS
330
19
102
}
100
AcDbDictionary
280
     0
281
     1
  0
DICTIONARY
  5
1B
102
{ACAD_REACTORS
330
19
102
}
100
AcDbDictionary
280
     0
281
     1
  3
Standard
350
1C
  0
MLINESTYLE
  5
1C
102
{ACAD_REACTORS
330
1B
102
}
100
AcDbMlineStyle
  2
Standard
 70
     0
  3

 62
     0
 51
90.0
 52
90.0
 71
     2
 49
0.5
 62
   256
  6
BYLAYER
 49
-0.5
 62
   256
  6
BYLAYER
  0
ACDBDICTIONARYWDFLT
  5
1F
102
{ACAD_REACTORS
330
19
102
}
100
AcDbDictionary
281
     1
  3
Normal
350
1D
100
AcDbDictionaryWithDefault
340
1D
  0
ACDBPLACEHOLDER
  5
1D
102
{ACAD_REACTORS
330
1F
102
}
  0
LAYOUT
  5
20
102
{ACAD_REACTORS
330
1E
102
}
100
AcDbPlotSettings
  1

  2

  4

  6

 40
0.0
 41
0.0
 42
0.0
 43
0.0
 44
0.0
 45
0.0
 46
0.0
 47
0.0
 48
0.0
 49
0.0
140
0.0
141
0.0
142
1.0
143
1.0
 70
  1024
 72
     0
 73
     0
 74
     0
  7

 75
     0
147
1.0
148
0.0
149
0.0
100
AcDbLayout
  1
Model
 70
     0
 71
     0
 10
0.0
 20
0.0
 11
0.0
 21
0.0
 12
0.0
 22
0.0
 32
0.0
 14
0.0
 24
0.0
 34
0.0
 15
0.0
 25
0.0
 35
0.0
146
0.0
 13
0.0
 23
0.0
 33
0.0
 16
0.0
 26
0.0
 36
0.0
 17
0.0
 27
0.0
 37
0.0
 76
     0
330
A
331
0
345
0
346
0
  0
LAYOUT
  5
21
102
{ACAD_REACTORS
330
1E
102
}
100
AcDbPlotSettings
  1

  2

  4

  6

 40
0.0
 41
0.0
 42
0.0
 43
0.0
 44
0.0
 45
0.0
 46
0.0
 47
0.0
 48
0.0
 49
0.0
140
0.0
141
0.0
142
1.0
143
1.0
 70
     0
 72
     0
 73
     0
 74
     0
  7

 75
     0
147
1.0
148
0.0
149
0.0
100
AcDbLayout
  1
Layout1
 70
     0
 71
     0
 10
0.0
 20
0.0
 11
0.0
 21
0.0
 12
0.0
 22
0.0
 32
0.0
 14
0.0
 24
0.0
 34
0.0
 15
0.0
 25
0.0
 35
0.0
146
0.0
 13
0.0
 23
0.0
 33
0.0
 16
0.0
 26
0.0
 36
0.0
 17
0.0
 27
0.0
 37
0.0
 76
     0
330
B
331
0
345
0
346
0
  0
DICTIONARY
  5
1E
102
{ACAD_REACTORS
330
19
102
}
100
AcDbDictionary
280
     0
281
     1
  3
Layout1
350
21
  3
Model
350
20
  0
DICTIONARY
  5
22
102
{ACAD_REACTORS
330
19
102
}
100
AcDbDictionary
280
     0
281
     1
  0
WIPEOUTVARIABLES
  5
23
100
AcDbWipeoutVariables
 70
     1
  0
ENDSEC
  0
EOF
