  0
SECTION
  2
ENTITIES
  0
ARC
  8
APS_GEOMETR�
 10
1579.475879
 20
320.50802
 40
75.297824
 50
176.446214
 51
225.394099
  0
ARC
  8
APS_GEOMETR�
 10
1428.632003
 20
366.142363
 40
86.066235
 50
244.232443
 51
331.575943
  0
ARC
  8
APS_GEOMETR�
 10
1469.766396
 20
247.762884
 40
88.546239
 50
108.239231
 51
152.510847
  0
ARC
  8
APS_GEOMETR�
 10
1459.724731
 20
354.730023
 40
28.901909
 50
40.063149
 51
220.063149
  0
ARC
  8
APS_GEOMETR�
 10
1459.724731
 20
354.730023
 40
28.901909
 50
220.063149
 51
232.305745
  0
ARC
  8
APS_GEOMETR�
 10
1484.070943
 20
357.100118
 40
16.384081
 50
97.81052
 51
277.81052
  0
ARC
  8
APS_GEOMETR�
 10
1484.070943
 20
357.100118
 40
16.384081
 50
277.81052
 51
345.508974
  0
ARC
  8
APS_GEOMETR�
 10
1463.732697
 20
362.491991
 40
37.424733
 50
345.308213
 51
102.913742
  0
ARC
  8
APS_GEOMETR�
 10
1489.938928
 20
271.407337
 40
132.164153
 50
105.163186
 51
131.259103
  0
ARC
  8
APS_GEOMETR�
 10
1399.639429
 20
348.274672
 40
22.703532
 50
326.845997
 51
82.045588
  0
ARC
  8
APS_GEOMETR�
 10
1325.925374
 20
214.434506
 40
152.777689
 50
52.633955
 51
73.523867
  0
ARC
  8
APS_GEOMETR�
 10
1197.507078
 20
340.037318
 40
173.015647
 50
345.520224
 51
6.938683
  0
ARC
  8
APS_GEOMETR�
 10
1468.023222
 20
401.945907
 40
147.20311
 50
225.598064
 51
293.448839
  0
ARC
  8
APS_GEOMETR�
 10
1484.070943
 20
357.100118
 40
28.461627
 50
149.48127
 51
288.897013
  0
ARC
  8
APS_GEOMETR�
 10
1459.724732
 20
354.730023
 40
16.824362
 50
90.587233
 51
232.305743
  0
LINE
  8
APS_GEOMETR�
 10
1449.437513
 11
1471.709625
 20
341.41716
 21
324.206883
  0
ARC
  8
APS_GEOMETR�
 10
1469.766397
 20
247.762885
 40
76.468693
 50
88.543838
 51
142.1366
  0
ARC
  8
APS_GEOMETR�
 10
1428.632004
 20
366.142362
 40
73.988688
 50
254.930923
 51
330.911931
  0
ARC
  8
APS_GEOMETR�
 10
1559.944465
 20
367.425599
 40
24.753179
 50
253.713528
 51
352.421077
  0
ARC
  8
APS_GEOMETR�
 10
1530.674552
 20
355.004491
 40
25.042223
 50
333.077438
 51
100.542684
  0
ARC
  8
APS_GEOMETR�
 10
1399.806587
 20
308.530498
 40
144.922207
 50
345.867865
 51
29.377594
  0
ARC
  8
APS_GEOMETR�
 10
1466.667773
 20
416.986472
 40
161.610507
 50
297.121564
 51
341.077979
  0
ARC
  8
APS_GEOMETR�
 10
1623.149839
 20
344.05973
 40
20.833767
 50
99.964025
 51
129.001176
  0
ARC
  8
APS_GEOMETR�
 10
1599.039008
 20
373.832878
 40
17.477752
 50
213.599916
 51
309.001176
  0
ARC
  8
APS_GEOMETR�
 10
1211.996492
 20
500.010408
 40
500.010408
 50
337.224461
 51
344.814093
  0
ARC
  8
APS_GEOMETR�
 10
1776.239173
 20
299.552527
 40
107.242601
 50
103.532564
 51
139.618806
  0
ARC
  8
APS_GEOMETR�
 10
1787.357434
 20
258.608644
 40
149.656458
 50
88.335223
 51
104.003014
  0
ARC
  8
APS_GEOMETR�
 10
1788.447761
 20
264.081431
 40
144.15731
 50
72.639439
 51
88.705204
  0
ARC
  8
APS_GEOMETR�
 10
1803.567109
 20
309.523102
 40
96.278266
 50
52.097825
 51
73.158104
  0
ARC
  8
APS_GEOMETR�
 10
1852.059551
 20
372.747528
 40
16.610709
 50
18.291113
 51
50.109791
  0
ARC
  8
APS_GEOMETR�
 10
1856.317541
 20
374.472145
 40
12.030364
 50
337.28276
 51
16.856801
  0
ARC
  8
APS_GEOMETR�
 10
1850.765606
 20
377.162176
 40
18.193563
 50
306.29568
 51
336.220536
  0
ARC
  8
APS_GEOMETR�
 10
1841.28851
 20
389.531476
 40
33.774354
 50
287.086605
 51
306.832176
  0
ARC
  8
APS_GEOMETR�
 10
1836.272085
 20
404.557461
 40
49.612485
 50
272.265822
 51
287.525598
  0
ARC
  8
APS_GEOMETR�
 10
1835.86864
 20
407.488369
 40
52.557836
 50
257.897292
 51
272.578972
  0
ARC
  8
APS_GEOMETR�
 10
1838.09871
 20
354.541516
 40
13.340791
 50
173.296878
 51
211.494629
  0
ARC
  8
APS_GEOMETR�
 10
1845.836396
 20
359.48658
 40
22.522699
 50
211.938014
 51
238.765585
  0
ARC
  8
APS_GEOMETR�
 10
1855.377562
 20
374.465509
 40
40.279858
 50
238.209377
 51
256.368021
  0
ARC
  8
APS_GEOMETR�
 10
1860.059243
 20
437.154136
 40
102.815617
 50
262.075483
 51
275.665552
  0
ARC
  8
APS_GEOMETR�
 10
1861.64801
 20
425.420017
 40
90.982953
 50
275.399424
 51
290.148383
  0
ARC
  8
APS_GEOMETR�
 10
1872.464132
 20
397.133477
 40
60.703193
 50
289.760598
 51
309.102141
  0
ARC
  8
APS_GEOMETR�
 10
2049.166996
 20
405.358515
 40
149.066851
 50
201.789017
 51
226.005908
  0
ARC
  8
APS_GEOMETR�
 10
2066.918857
 20
423.629783
 40
174.541591
 50
225.979661
 51
247.763289
  0
ARC
  8
APS_GEOMETR�
 10
1938.0966
 20
-246.478159
 40
512.406488
 50
82.963593
 51
105.194258
  0
ARC
  8
APS_GEOMETR�
 10
1795.115111
 20
448.923194
 40
201.094752
 50
255.957459
 51
272.474898
  0
ARC
  8
APS_GEOMETR�
 10
1779.271312
 20
391.233036
 40
141.290905
 50
235.583646
 51
256.513938
  0
ARC
  8
APS_GEOMETR�
 10
1739.400623
 20
334.741811
 40
72.15975
 50
203.087465
 51
236.347852
  0
ARC
  8
APS_GEOMETR�
 10
1853.168795
 20
330.320602
 40
292.608356
 50
209.957205
 51
247.048153
  0
ARC
  8
APS_GEOMETR�
 10
1608.758365
 20
449.421284
 40
409.812235
 50
271.652867
 51
288.539857
  0
ARC
  8
APS_GEOMETR�
 10
1604.995523
 20
470.017849
 40
430.520415
 50
255.736284
 51
272.074376
  0
ARC
  8
APS_GEOMETR�
 10
1570.650797
 20
346.457389
 40
302.32041
 50
248.377446
 51
256.274995
  0
ARC
  8
APS_GEOMETR�
 10
1211.996492
 20
500.010408
 40
500.010408
 50
299.636383
 51
320.832014
  0
ARC
  8
APS_GEOMETR�
 10
1420.03667
 20
130.291119
 40
50.666242
 50
329.214988
 51
21.298587
  0
ARC
  8
APS_GEOMETR�
 10
1211.996377
 20
500.010564
 40
468.856181
 50
302.449461
 51
309.550539
  0
ARC
  8
APS_GEOMETR�
 10
1499.332479
 20
187.902896
 40
50.666242
 50
230.701413
 51
282.785012
  0
LINE
  8
APS_GEOMETR�
 10
1431.288604
 11
1441.631567
 20
229.721731
 21
202.882255
  0
ARC
  8
APS_GEOMETR�
 10
1458.225228
 20
198.720727
 40
17.107539
 50
87.968389
 51
165.92115
  0
LINE
  8
APS_GEOMETR�
 10
1458.831705
 11
1459.76817
 20
215.817512
 21
190.101266
  0
ARC
  8
APS_GEOMETR�
 10
1507.958019
 20
169.075023
 40
52.577224
 50
115.161849
 51
156.427346
  0
ARC
  8
APS_GEOMETR�
 10
1465.945128
 20
414.801692
 40
199.111288
 50
275.666049
 51
300.603408
  0
ARC
  8
APS_GEOMETR�
 10
1572.084059
 20
235.354929
 40
9.375195
 50
323.685034
 51
120.603415
  0
ARC
  8
APS_GEOMETR�
 10
1211.996489
 20
500.010407
 40
456.259497
 50
320.849018
 51
323.685032
  0
ARC
  8
APS_GEOMETR�
 10
1537.579732
 20
236.893086
 40
37.681866
 50
260.833849
 51
318.539191
  0
ARC
  8
APS_GEOMETR�
 10
1513.305158
 20
187.347642
 40
22.051221
 50
315.647895
 51
34.043478
  0
ARC
  8
APS_GEOMETR�
 10
1211.996491
 20
500.010409
 40
456.259497
 50
312.00687
 51
314.023061
  0
ARC
  8
APS_GEOMETR�
 10
1510.42511
 20
170.716232
 40
11.938554
 50
162.958207
 51
305.361446
  0
ARC
  8
APS_GEOMETR�
 10
1494.173059
 20
185.741247
 40
12.50026
 50
292.768475
 51
112.764233
  0
ARC
  8
APS_GEOMETR�
 10
1494.173486
 20
185.741426
 40
12.50026
 50
112.766353
 51
136.962309
  0
LINE
  8
APS_GEOMETR�
 10
1485.036984
 11
1476.742799
 20
194.272595
 21
185.619712
  0
ARC
  8
APS_GEOMETR�
 10
1483.51086
 20
179.132213
 40
9.375196
 50
136.212518
 51
187.327142
  0
ARC
  8
APS_GEOMETR�
 10
1509.465854
 20
182.469628
 40
35.543881
 50
187.327151
 51
293.605114
  0
ARC
  8
APS_GEOMETR�
 10
1211.99649
 20
500.010408
 40
468.759758
 50
311.67856
 51
340.49111
  0
ARC
  8
APS_GEOMETR�
 10
1649.885727
 20
344.86923
 40
4.2
 50
340.49111
 51
157.846969
  0
ARC
  8
APS_GEOMETR�
 10
1467.371621
 20
419.177378
 40
192.861157
 50
259.216803
 51
337.846969
  0
ARC
  8
APS_GEOMETR�
 10
1209.432631
 20
232.15996
 40
192.861157
 50
274.040647
 51
352.670813
  0
ARC
  8
APS_GEOMETR�
 10
1223.318378
 20
35.588635
 40
4.2
 50
94.040647
 51
271.396506
  0
ARC
  8
APS_GEOMETR�
 10
1211.99649
 20
500.010408
 40
468.759758
 50
271.396506
 51
300.209056
  0
ARC
  8
APS_GEOMETR�
 10
1421.324836
 20
118.56341
 40
35.543881
 50
318.282497
 51
64.560463
  0
ARC
  8
APS_GEOMETR�
 10
1432.565816
 20
142.194755
 40
9.375196
 50
64.560473
 51
115.6751
  0
LINE
  8
APS_GEOMETR�
 10
1428.503849
 11
1417.701217
 20
150.644295
 21
145.451123
  0
ARC
  8
APS_GEOMETR�
 10
1422.969283
 20
134.115163
 40
12.50026
 50
114.925312
 51
294.925312
  0
ARC
  8
APS_GEOMETR�
 10
1422.969283
 20
134.115163
 40
12.50026
 50
294.925312
 51
319.121259
  0
ARC
  8
APS_GEOMETR�
 10
1432.197621
 20
113.997769
 40
11.938554
 50
306.526175
 51
88.929411
  0
ARC
  8
APS_GEOMETR�
 10
1211.996491
 20
500.010408
 40
456.259497
 50
297.864555
 51
299.880746
  0
ARC
  8
APS_GEOMETR�
 10
1415.494967
 20
116.430835
 40
22.051221
 50
217.844137
 51
296.239718
  0
ARC
  8
APS_GEOMETR�
 10
1360.858046
 20
108.761882
 40
37.681866
 50
293.348422
 51
351.053769
  0
ARC
  8
APS_GEOMETR�
 10
1211.996495
 20
500.01041
 40
456.259497
 50
288.202584
 51
291.038597
  0
ARC
  8
APS_GEOMETR�
 10
1351.593215
 20
75.489108
 40
9.375195
 50
131.284207
 51
288.202589
  0
ARC
  8
APS_GEOMETR�
 10
1214.034966
 20
232.155446
 40
199.111288
 50
311.284207
 51
336.221567
  0
ARC
  8
APS_GEOMETR�
 10
1434.524479
 20
115.83239
 40
52.577224
 50
95.46027
 51
136.725767
  0
LINE
  8
APS_GEOMETR�
 10
1429.521467
 11
1405.370628
 20
168.171041
 21
177.055817
  0
ARC
  8
APS_GEOMETR�
 10
1421.808786
 20
172.317162
 40
17.107539
 50
85.966467
 51
163.919228
  0
LINE
  8
APS_GEOMETR�
 10
1423.012135
 11
1400.718033
 20
189.382326
 21
207.556685
  0
ARC
  8
APS_GEOMETR�
 10
1271.883129
 20
252.492349
 40
73.988688
 50
280.975685
 51
356.956693
  0
ARC
  8
APS_GEOMETR�
 10
1263.242356
 20
196.989419
 40
28.461627
 50
322.990604
 51
102.406345
  0
ARC
  8
APS_GEOMETR�
 10
1273.063806
 20
219.392421
 40
16.824362
 50
19.581873
 51
161.300383
  0
LINE
  8
APS_GEOMETR�
 10
1288.915107
 11
1298.348594
 20
225.031165
 21
198.512305
  0
ARC
  8
APS_GEOMETR�
 10
1371.608797
 20
176.594192
 40
76.468693
 50
109.751017
 51
163.343779
  0
ARC
  8
APS_GEOMETR�
 10
1297.878717
 20
274.493559
 40
22.703532
 50
169.842029
 51
285.041619
  0
ARC
  8
APS_GEOMETR�
 10
1342.864686
 20
164.771868
 40
132.164153
 50
120.628512
 51
146.72443
  0
ARC
  8
APS_GEOMETR�
 10
1264.440451
 20
217.996111
 40
37.424733
 50
148.973877
 51
266.579404
  0
ARC
  8
APS_GEOMETR�
 10
1263.242357
 20
196.989419
 40
16.384081
 50
266.378641
 51
86.378641
  0
ARC
  8
APS_GEOMETR�
 10
1263.242357
 20
196.989419
 40
16.384081
 50
86.378641
 51
154.077098
  0
ARC
  8
APS_GEOMETR�
 10
1273.063806
 20
219.392421
 40
28.901908
 50
19.581872
 51
199.581872
  0
ARC
  8
APS_GEOMETR�
 10
1273.063806
 20
219.392421
 40
28.901908
 50
199.581872
 51
211.824465
  0
ARC
  8
APS_GEOMETR�
 10
1371.608797
 20
176.594191
 40
88.546239
 50
99.376769
 51
143.648386
  0
ARC
  8
APS_GEOMETR�
 10
1271.88313
 20
252.492349
 40
86.066235
 50
280.311673
 51
7.655173
  0
ARC
  8
APS_GEOMETR�
 10
1268.361599
 20
94.936114
 40
75.297824
 50
26.493517
 51
75.441403
  0
ARC
  8
APS_GEOMETR�
 10
1225.607687
 20
226.183695
 40
147.20311
 50
318.438777
 51
26.414729
  0
ARC
  8
APS_GEOMETR�
 10
1368.576195
 20
464.326306
 40
173.015647
 50
244.941419
 51
266.310393
  0
ARC
  8
APS_GEOMETR�
 10
1448.003271
 20
302.946496
 40
152.777689
 50
178.256146
 51
199.253661
  0
ARC
  8
APS_GEOMETR�
 10
1381.805528
 20
501.247367
 40
140.704276
 50
226.974796
 51
254.198899
  0
ARC
  8
APS_GEOMETR�
 10
1158.304973
 20
338.864711
 40
140.704276
 50
357.8011
 51
25.025204
  0
ARC
  8
APS_GEOMETR�
 10
1299.490981
 20
254.118998
 40
79.349242
 50
57.709031
 51
90.42266
  0
ARC
  8
APS_GEOMETR�
 10
1418.774614
 20
340.783632
 40
79.349242
 50
161.577342
 51
194.29097
  0
ARC
  8
APS_GEOMETR�
 10
1487.77847
 20
780.476638
 40
412.293339
 50
235.780566
 51
248.692394
  0
ARC
  8
APS_GEOMETR�
 10
860.035936
 20
324.394987
 40
412.293339
 50
3.307607
 51
16.219435
  0
ARC
  8
APS_GEOMETR�
 10
1376.929225
 20
456.856044
 40
151.31145
 50
171.57835
 51
225.906756
  0
ARC
  8
APS_GEOMETR�
 10
1202.071711
 20
329.814625
 40
151.31145
 50
26.093244
 51
80.42165
  0
ARC
  8
APS_GEOMETR�
 10
1294.304133
 20
637.948019
 40
173.015647
 50
300.46435
 51
308.32995
  0
ARC
  8
APS_GEOMETR�
 10
1383.425395
 20
450.427456
 40
54.896195
 50
37.753693
 51
70.658871
  0
ARC
  8
APS_GEOMETR�
 10
1553.887847
 20
527.703836
 40
134.352443
 50
198.965863
 51
241.91282
  0
ARC
  8
APS_GEOMETR�
 10
1471.876
 20
276.137083
 40
134.352443
 50
81.974796
 51
124.921754
  0
ARC
  8
APS_GEOMETR�
 10
1379.71023
 20
439.031396
 40
54.896195
 50
253.591823
 51
286.133922
  0
ARC
  8
APS_GEOMETR�
 10
1197.507078
 20
340.037318
 40
173.015647
 50
15.5334
 51
23.366861
  0
ARC
  8
APS_GEOMETR�
 10
1368.934206
 20
435.114779
 40
29.30435
 50
244.531075
 51
325.945532
  0
ARC
  8
APS_GEOMETR�
 10
1388.034756
 20
422.204859
 40
6.25013
 50
325.945534
 51
82.108306
  0
ARC
  8
APS_GEOMETR�
 10
1418.850607
 20
644.519864
 40
218.190459
 50
229.392704
 51
262.108321
  0
ARC
  8
APS_GEOMETR�
 10
1293.936497
 20
261.352822
 40
218.190459
 50
61.779296
 51
94.494912
  0
ARC
  8
APS_GEOMETR�
 10
1400.067539
 20
459.114749
 40
6.25013
 50
241.779296
 51
357.942084
  0
ARC
  8
APS_GEOMETR�
 10
1377.028189
 20
459.94262
 40
29.30435
 50
357.942083
 51
80.185376
  0
ARC
  8
APS_GEOMETR�
 10
1427.328107
 20
647.46431
 40
79.349242
 50
233.577342
 51
266.29097
  0
ARC
  8
APS_GEOMETR�
 10
1263.293951
 20
661.890642
 40
140.704276
 50
298.974796
 51
326.198899
  0
ARC
  8
APS_GEOMETR�
 10
1348.663564
 20
399.149982
 40
140.704276
 50
69.8011
 51
97.025204
  0
ARC
  8
APS_GEOMETR�
 10
1472.890403
 20
507.237989
 40
79.349242
 50
129.709031
 51
162.42266
  0
ARC
  8
APS_GEOMETR�
 10
1465.906143
 20
480.478699
 40
73.988688
 50
352.975685
 51
68.956693
  0
ARC
  8
APS_GEOMETR�
 10
1516.022421
 20
455.109487
 40
28.461627
 50
34.990604
 51
174.406345
  0
ARC
  8
APS_GEOMETR�
 10
1497.750894
 20
471.37315
 40
16.824362
 50
91.581873
 51
233.300383
  0
LINE
  8
APS_GEOMETR�
 10
1497.286451
 11
1525.422493
 20
488.1911
 21
488.968102
  0
ARC
  8
APS_GEOMETR�
 10
1568.906505
 20
551.869626
 40
76.468693
 50
181.751017
 51
235.343779
  0
ARC
  8
APS_GEOMETR�
 10
1453.014827
 20
512.00072
 40
22.703532
 50
241.842029
 51
357.041619
  0
ARC
  8
APS_GEOMETR�
 10
1571.267785
 20
520.879052
 40
132.164153
 50
192.628512
 51
218.72443
  0
ARC
  8
APS_GEOMETR�
 10
1496.4141
 20
462.740368
 40
37.424733
 50
220.973877
 51
338.579404
  0
ARC
  8
APS_GEOMETR�
 10
1516.02242
 20
455.109488
 40
16.384081
 50
338.378641
 51
158.378641
  0
ARC
  8
APS_GEOMETR�
 10
1516.02242
 20
455.109488
 40
16.384081
 50
158.378641
 51
226.077098
  0
ARC
  8
APS_GEOMETR�
 10
1497.750893
 20
471.37315
 40
28.901908
 50
91.58187
 51
271.58187
  0
ARC
  8
APS_GEOMETR�
 10
1497.750893
 20
471.37315
 40
28.901908
 50
271.58187
 51
283.824467
  0
ARC
  8
APS_GEOMETR�
 10
1568.906506
 20
551.869625
 40
88.546239
 50
171.376769
 51
215.648386
  0
ARC
  8
APS_GEOMETR�
 10
1465.906143
 20
480.4787
 40
86.066235
 50
352.311673
 51
79.655173
  0
ARC
  8
APS_GEOMETR�
 10
1614.662814
 20
428.441972
 40
75.297824
 50
98.493517
 51
147.441403
  0
ARC
  8
APS_GEOMETR�
 10
1476.627262
 20
428.338317
 40
147.20311
 50
30.438777
 51
98.429374
  0
ARC
  8
APS_GEOMETR�
 10
1294.304133
 20
637.948019
 40
173.015647
 50
316.926893
 51
338.291158
  0
ARC
  8
APS_GEOMETR�
 10
1472.345514
 20
663.570097
 40
152.777689
 50
250.237937
 51
271.253661
  0
ARC
  8
APS_GEOMETR�
 10
1588.486852
 20
598.290977
 40
17.107539
 50
157.966467
 51
235.919228
  0
LINE
  8
APS_GEOMETR�
 10
1572.628772
 11
1548.454673
 20
604.708856
 21
589.122091
  0
ARC
  8
APS_GEOMETR�
 10
1465.945129
 20
414.801693
 40
192.861157
 50
346.040647
 51
64.670813
  0
ARC
  8
APS_GEOMETR�
 10
1657.1865
 20
367.263943
 40
4.2
 50
166.040647
 51
343.396506
  0
ARC
  8
APS_GEOMETR�
 10
1211.99649
 20
500.010408
 40
468.759758
 50
343.396506
 51
12.209056
  0
ARC
  8
APS_GEOMETR�
 10
1639.460159
 20
581.219891
 40
35.543881
 50
30.282497
 51
136.560463
  0
ARC
  8
APS_GEOMETR�
 10
1620.459069
 20
599.213185
 40
9.375196
 50
136.560473
 51
187.6751
  0
LINE
  8
APS_GEOMETR�
 10
1611.167862
 11
1612.768665
 20
597.961076
 21
586.082384
  0
ARC
  8
APS_GEOMETR�
 10
1625.177726
 20
587.589608
 40
12.50026
 50
186.925312
 51
6.925312
  0
ARC
  8
APS_GEOMETR�
 10
1625.177726
 20
587.589608
 40
12.50026
 50
6.925312
 51
31.121259
  0
ARC
  8
APS_GEOMETR�
 10
1647.162218
 20
590.149663
 40
11.938554
 50
18.526175
 51
160.929411
  0
ARC
  8
APS_GEOMETR�
 10
1211.99649
 20
500.010408
 40
456.259497
 50
9.864555
 51
11.880746
  0
ARC
  8
APS_GEOMETR�
 10
1639.68683
 20
575.016353
 40
22.051221
 50
289.844137
 51
8.239718
  0
ARC
  8
APS_GEOMETR�
 10
1630.096702
 20
520.683717
 40
37.681866
 50
5.348422
 51
63.053769
  0
ARC
  8
APS_GEOMETR�
 10
1211.99649
 20
500.010413
 40
456.259497
 50
0.202584
 51
3.038597
  0
ARC
  8
APS_GEOMETR�
 10
1658.877999
 20
501.590487
 40
9.375195
 50
203.284207
 51
0.202589
  0
ARC
  8
APS_GEOMETR�
 10
1467.371621
 20
419.177378
 40
199.111288
 50
23.284207
 51
48.221567
  0
ARC
  8
APS_GEOMETR�
 10
1646.136428
 20
592.929565
 40
52.577224
 50
167.46027
 51
208.725767
  0
LINE
  8
APS_GEOMETR�
 10
1594.813398
 11
1578.900454
 20
604.344951
 21
584.121684
  0
LINE
  8
APS_GEOMETR�
 10
1536.821288
 11
1565.543298
 20
625.045808
 21
626.588695
  0
ARC
  8
APS_GEOMETR�
 10
1574.628869
 20
641.084221
 40
17.107539
 50
159.968389
 51
237.92115
  0
LINE
  8
APS_GEOMETR�
 10
1558.556272
 11
1583.303259
 20
646.944213
 21
639.888087
  0
ARC
  8
APS_GEOMETR�
 10
1618.191887
 20
679.22189
 40
52.577224
 50
187.161849
 51
228.427346
  0
ARC
  8
APS_GEOMETR�
 10
1371.50924
 20
715.198974
 40
199.111288
 50
347.666049
 51
12.603408
  0
ARC
  8
APS_GEOMETR�
 10
1574.971987
 20
760.690995
 40
9.375195
 50
35.685034
 51
192.603415
  0
ARC
  8
APS_GEOMETR�
 10
1211.996491
 20
500.010407
 40
456.259497
 50
32.849018
 51
35.685032
  0
ARC
  8
APS_GEOMETR�
 10
1562.846689
 20
728.350747
 40
37.681866
 50
332.833849
 51
30.539191
  0
ARC
  8
APS_GEOMETR�
 10
1602.46595
 20
689.953872
 40
22.051221
 50
27.647895
 51
106.043478
  0
ARC
  8
APS_GEOMETR�
 10
1211.99649
 20
500.010409
 40
456.259497
 50
24.00687
 51
26.023061
  0
ARC
  8
APS_GEOMETR�
 10
1617.393377
 20
682.075395
 40
11.938554
 50
234.958207
 51
17.361446
  0
ARC
  8
APS_GEOMETR�
 10
1598.081579
 20
671.261761
 40
12.50026
 50
4.768475
 51
184.764233
  0
ARC
  8
APS_GEOMETR�
 10
1598.081541
 20
671.262222
 40
12.50026
 50
184.766353
 51
208.962309
  0
LINE
  8
APS_GEOMETR�
 10
1587.144583
 11
1592.810919
 20
665.209169
 21
654.647042
  0
ARC
  8
APS_GEOMETR�
 10
1601.072343
 20
659.079103
 40
9.375196
 50
208.212518
 51
259.327142
  0
ARC
  8
APS_GEOMETR�
 10
1605.918807
 20
684.795088
 40
35.543881
 50
259.327151
 51
5.605114
  0
ARC
  8
APS_GEOMETR�
 10
1211.996491
 20
500.010408
 40
468.759758
 50
23.67856
 51
52.49111
  0
ARC
  8
APS_GEOMETR�
 10
1494.859734
 20
868.526559
 40
4.2
 50
52.49111
 51
229.846969
  0
ARC
  8
APS_GEOMETR�
 10
1367.788526
 20
717.90781
 40
192.861157
 50
331.216803
 51
49.846969
  0
ARC
  8
APS_GEOMETR�
 10
1627.908381
 20
583.618833
 40
50.666242
 50
41.214988
 51
93.298587
  0
ARC
  8
APS_GEOMETR�
 10
1211.996308
 20
500.010349
 40
468.856181
 50
14.449461
 51
21.550539
  0
ARC
  8
APS_GEOMETR�
 10
1597.620077
 20
676.836647
 40
50.666242
 50
302.701413
 51
354.785012
  0
ARC
  8
APS_GEOMETR�
 10
1211.996492
 20
500.010408
 40
500.010408
 50
15.185907
 51
22.775539
  0
ARC
  8
APS_GEOMETR�
 10
1776.239173
 20
700.468289
 40
107.242601
 50
220.381194
 51
256.467436
  0
ARC
  8
APS_GEOMETR�
 10
1787.357434
 20
741.412172
 40
149.656458
 50
255.996986
 51
271.664777
  0
ARC
  8
APS_GEOMETR�
 10
1788.447761
 20
735.939385
 40
144.15731
 50
271.294796
 51
287.360561
  0
ARC
  8
APS_GEOMETR�
 10
1803.567109
 20
690.497714
 40
96.278266
 50
286.841896
 51
307.902175
  0
ARC
  8
APS_GEOMETR�
 10
1852.059551
 20
627.273289
 40
16.610709
 50
309.890209
 51
341.708887
  0
ARC
  8
APS_GEOMETR�
 10
1856.317541
 20
625.548671
 40
12.030364
 50
343.143199
 51
22.71724
  0
ARC
  8
APS_GEOMETR�
 10
1850.765606
 20
622.85864
 40
18.193563
 50
23.779464
 51
53.70432
  0
ARC
  8
APS_GEOMETR�
 10
1841.28851
 20
610.48934
 40
33.774354
 50
53.167824
 51
72.913395
  0
ARC
  8
APS_GEOMETR�
 10
1836.272085
 20
595.463355
 40
49.612485
 50
72.474402
 51
87.734178
  0
ARC
  8
APS_GEOMETR�
 10
1835.86864
 20
592.532448
 40
52.557836
 50
87.421028
 51
102.102708
  0
ARC
  8
APS_GEOMETR�
 10
1838.09871
 20
645.4793
 40
13.340791
 50
148.505371
 51
186.703122
  0
ARC
  8
APS_GEOMETR�
 10
1845.836396
 20
640.534236
 40
22.522699
 50
121.234415
 51
148.061986
  0
ARC
  8
APS_GEOMETR�
 10
1855.377562
 20
625.555307
 40
40.279858
 50
103.631979
 51
121.790623
  0
ARC
  8
APS_GEOMETR�
 10
1860.059243
 20
562.86668
 40
102.815617
 50
84.334448
 51
97.924517
  0
ARC
  8
APS_GEOMETR�
 10
1861.64801
 20
574.600799
 40
90.982953
 50
69.851617
 51
84.600576
  0
ARC
  8
APS_GEOMETR�
 10
1872.464132
 20
602.88734
 40
60.703193
 50
50.897859
 51
70.239402
  0
ARC
  8
APS_GEOMETR�
 10
2049.166996
 20
594.662301
 40
149.066851
 50
133.994092
 51
158.210983
  0
ARC
  8
APS_GEOMETR�
 10
2066.918857
 20
576.391033
 40
174.541591
 50
112.236711
 51
134.020339
  0
ARC
  8
APS_GEOMETR�
 10
1938.0966
 20
1246.498975
 40
512.406488
 50
254.805742
 51
277.036407
  0
ARC
  8
APS_GEOMETR�
 10
1795.115111
 20
551.097622
 40
201.094752
 50
87.525102
 51
104.042541
  0
ARC
  8
APS_GEOMETR�
 10
1779.271312
 20
608.78778
 40
141.290905
 50
103.486062
 51
124.416354
  0
ARC
  8
APS_GEOMETR�
 10
1739.400623
 20
665.279005
 40
72.15975
 50
123.652148
 51
156.912535
  0
ARC
  8
APS_GEOMETR�
 10
1853.168795
 20
669.700214
 40
292.608356
 50
112.951847
 51
150.042795
  0
ARC
  8
APS_GEOMETR�
 10
1608.758365
 20
550.599532
 40
409.812235
 50
71.460143
 51
88.347133
  0
ARC
  8
APS_GEOMETR�
 10
1604.995523
 20
530.002967
 40
430.520415
 50
87.925624
 51
104.263716
  0
ARC
  8
APS_GEOMETR�
 10
1570.650797
 20
653.563427
 40
302.32041
 50
103.725005
 51
111.622554
  0
ARC
  8
APS_GEOMETR�
 10
1211.996492
 20
500.010408
 40
500.010408
 50
39.167986
 51
60.363617
  0
ARC
  8
APS_GEOMETR�
 10
1496.270782
 20
794.034787
 40
75.297824
 50
248.446214
 51
297.394099
  0
ARC
  8
APS_GEOMETR�
 10
1406.256622
 20
664.675523
 40
86.066235
 50
316.232443
 51
43.575943
  0
ARC
  8
APS_GEOMETR�
 10
1531.553423
 20
667.215385
 40
88.546239
 50
180.239231
 51
224.510847
  0
ARC
  8
APS_GEOMETR�
 10
1426.718587
 20
690.719859
 40
28.901908
 50
112.063157
 51
292.063157
  0
ARC
  8
APS_GEOMETR�
 10
1426.718587
 20
690.719859
 40
28.901908
 50
292.063157
 51
304.305737
  0
ARC
  8
APS_GEOMETR�
 10
1431.987883
 20
714.606881
 40
16.384081
 50
169.81052
 51
349.81052
  0
ARC
  8
APS_GEOMETR�
 10
1431.987883
 20
714.606881
 40
16.384081
 50
349.81052
 51
57.508974
  0
ARC
  8
APS_GEOMETR�
 10
1420.575043
 20
696.93024
 40
37.424733
 50
57.308213
 51
174.913742
  0
ARC
  8
APS_GEOMETR�
 10
1515.299868
 20
693.707141
 40
132.164153
 50
177.163186
 51
203.259103
  0
ARC
  8
APS_GEOMETR�
 10
1414.290608
 20
631.580526
 40
22.703532
 50
38.845997
 51
154.045588
  0
ARC
  8
APS_GEOMETR�
 10
1518.801274
 20
520.115409
 40
152.777689
 50
124.633955
 51
145.505667
  0
ARC
  8
APS_GEOMETR�
 10
1359.646721
 20
436.844211
 40
173.015647
 50
57.501032
 51
78.924099
  0
ARC
  8
APS_GEOMETR�
 10
1384.377984
 20
713.202702
 40
147.20311
 50
297.612619
 51
5.448839
  0
ARC
  8
APS_GEOMETR�
 10
1431.987883
 20
714.606881
 40
28.461627
 50
221.48127
 51
0.897013
  0
ARC
  8
APS_GEOMETR�
 10
1426.718584
 20
690.719858
 40
16.824362
 50
162.587233
 51
304.305743
  0
LINE
  8
APS_GEOMETR�
 10
1436.200943
 11
1459.451351
 20
676.822232
 21
692.686
  0
ARC
  8
APS_GEOMETR�
 10
1531.553423
 20
667.215385
 40
76.468693
 50
160.543838
 51
214.1366
  0
ARC
  8
APS_GEOMETR�
 10
1406.256623
 20
664.675524
 40
73.988688
 50
326.930923
 51
42.911931
  0
ARC
  8
APS_GEOMETR�
 10
1445.613975
 20
789.957637
 40
24.753179
 50
325.713528
 51
64.421077
  0
ARC
  8
APS_GEOMETR�
 10
1448.38225
 20
758.281962
 40
25.042223
 50
45.077438
 51
172.542684
  0
ARC
  8
APS_GEOMETR�
 10
1452.141218
 20
619.457878
 40
144.922207
 50
57.867865
 51
101.377594
  0
ARC
  8
APS_GEOMETR�
 10
1369.654701
 20
716.561383
 40
161.610507
 50
9.121564
 51
53.077979
  0
ARC
  8
APS_GEOMETR�
 10
1487.367771
 20
842.84907
 40
20.833767
 50
171.964025
 51
201.001176
  0
ARC
  8
APS_GEOMETR�
 10
1451.601168
 20
829.118715
 40
17.477752
 50
285.599916
 51
21.001176
  0
ARC
  8
APS_GEOMETR�
 10
1369.654701
 20
716.561383
 40
161.610507
 50
54.809637
 51
98.766053
  0
ARC
  8
APS_GEOMETR�
 10
1453.682063
 20
867.37368
 40
20.833767
 50
266.88644
 51
295.923591
  0
ARC
  8
APS_GEOMETR�
 10
1451.601168
 20
829.118715
 40
17.477752
 50
86.88644
 51
182.2877
  0
ARC
  8
APS_GEOMETR�
 10
1416.172077
 20
811.392576
 40
24.753179
 50
43.466539
 51
142.174088
  0
ARC
  8
APS_GEOMETR�
 10
1385.1773
 20
804.297822
 40
25.042223
 50
295.344932
 51
62.810178
  0
ARC
  8
APS_GEOMETR�
 10
1251.909289
 20
765.235137
 40
144.922207
 50
6.510023
 51
50.019751
  0
ARC
  8
APS_GEOMETR�
 10
1234.868035
 20
888.444386
 40
17.107539
 50
229.966468
 51
307.919228
  0
LINE
  8
APS_GEOMETR�
 10
1223.863853
 11
1231.217541
 20
875.345689
 21
847.538179
  0
ARC
  8
APS_GEOMETR�
 10
1371.50924
 20
715.198974
 40
192.861157
 50
58.040647
 51
136.670813
  0
ARC
  8
APS_GEOMETR�
 10
1475.81716
 20
882.390354
 40
4.2
 50
238.040647
 51
55.396506
  0
ARC
  8
APS_GEOMETR�
 10
1211.99649
 20
500.010408
 40
468.759758
 50
55.396506
 51
84.209056
  0
ARC
  8
APS_GEOMETR�
 10
1266.855221
 20
931.647626
 40
35.543881
 50
102.282497
 51
208.560463
  0
ARC
  8
APS_GEOMETR�
 10
1243.870921
 20
919.136749
 40
9.375196
 50
208.560473
 51
259.6751
  0
LINE
  8
APS_GEOMETR�
 10
1242.190607
 11
1253.98259
 20
909.913363
 21
907.7651
  0
ARC
  8
APS_GEOMETR�
 10
1256.383745
 20
920.032576
 40
12.50026
 50
258.925312
 51
78.925312
  0
ARC
  8
APS_GEOMETR�
 10
1256.383745
 20
920.032576
 40
12.50026
 50
78.925312
 51
103.121259
  0
ARC
  8
APS_GEOMETR�
 10
1260.74257
 20
941.73217
 40
11.938554
 50
90.526175
 51
232.929411
  0
ARC
  8
APS_GEOMETR�
 10
1211.99649
 20
500.010408
 40
456.259497
 50
81.864555
 51
83.880746
  0
ARC
  8
APS_GEOMETR�
 10
1272.825181
 20
929.946204
 40
22.051221
 50
1.844137
 51
80.239718
  0
ARC
  8
APS_GEOMETR�
 10
1321.535076
 20
904.035742
 40
37.681866
 50
77.348422
 51
135.053769
  0
ARC
  8
APS_GEOMETR�
 10
1211.996486
 20
500.01041
 40
456.259497
 50
72.202584
 51
75.038597
  0
ARC
  8
APS_GEOMETR�
 10
1348.587727
 20
925.50825
 40
9.375195
 50
275.284207
 51
72.202589
  0
ARC
  8
APS_GEOMETR�
 10
1367.788526
 20
717.90781
 40
199.111288
 50
95.284207
 51
120.221567
  0
ARC
  8
APS_GEOMETR�
 10
1257.781739
 20
941.615623
 40
52.577224
 50
239.46027
 51
280.725767
  0
LINE
  8
APS_GEOMETR�
 10
1231.065374
 11
1245.381473
 20
896.332069
 21
874.948627
  0
ARC
  8
APS_GEOMETR�
 10
1189.124947
 20
888.444386
 40
17.107539
 50
232.080772
 51
310.033532
  0
LINE
  8
APS_GEOMETR�
 10
1200.129129
 11
1192.775441
 20
875.345689
 21
847.538179
  0
ARC
  8
APS_GEOMETR�
 10
1052.483742
 20
715.198974
 40
192.861157
 50
43.329187
 51
121.959353
  0
ARC
  8
APS_GEOMETR�
 10
948.175822
 20
882.390354
 40
4.2
 50
124.603494
 51
301.959353
  0
ARC
  8
APS_GEOMETR�
 10
1211.996492
 20
500.010408
 40
468.759758
 50
95.790944
 51
124.603494
  0
ARC
  8
APS_GEOMETR�
 10
1157.137761
 20
931.647626
 40
35.543881
 50
331.439537
 51
77.717503
  0
ARC
  8
APS_GEOMETR�
 10
1180.122061
 20
919.136749
 40
9.375196
 50
280.3249
 51
331.439527
  0
LINE
  8
APS_GEOMETR�
 10
1181.802375
 11
1170.010392
 20
909.913363
 21
907.7651
  0
ARC
  8
APS_GEOMETR�
 10
1167.609237
 20
920.032576
 40
12.50026
 50
76.878741
 51
256.878741
  0
ARC
  8
APS_GEOMETR�
 10
1167.609237
 20
920.032576
 40
12.50026
 50
256.878741
 51
281.074688
  0
ARC
  8
APS_GEOMETR�
 10
1163.250412
 20
941.73217
 40
11.938554
 50
307.070589
 51
89.473825
  0
ARC
  8
APS_GEOMETR�
 10
1211.996492
 20
500.010408
 40
456.259497
 50
96.119254
 51
98.135445
  0
ARC
  8
APS_GEOMETR�
 10
1151.167801
 20
929.946204
 40
22.051221
 50
99.760282
 51
178.155863
  0
ARC
  8
APS_GEOMETR�
 10
1102.457906
 20
904.035742
 40
37.681866
 50
44.946231
 51
102.651578
  0
ARC
  8
APS_GEOMETR�
 10
1211.996496
 20
500.01041
 40
456.259497
 50
104.961403
 51
107.797416
  0
ARC
  8
APS_GEOMETR�
 10
1075.405255
 20
925.50825
 40
9.375195
 50
107.797411
 51
264.715793
  0
ARC
  8
APS_GEOMETR�
 10
1056.204456
 20
717.90781
 40
199.111288
 50
59.778433
 51
84.715793
  0
ARC
  8
APS_GEOMETR�
 10
1166.211243
 20
941.615623
 40
52.577224
 50
259.274233
 51
300.53973
  0
LINE
  8
APS_GEOMETR�
 10
1192.927608
 11
1178.611509
 20
896.332069
 21
874.948627
  0
ARC
  8
APS_GEOMETR�
 10
1162.988986
 20
921.402546
 40
50.666242
 50
14.701413
 51
66.785012
  0
ARC
  8
APS_GEOMETR�
 10
1211.996492
 20
500.010216
 40
468.856181
 50
86.449461
 51
93.550539
  0
ARC
  8
APS_GEOMETR�
 10
1261.003997
 20
921.402546
 40
50.666242
 50
113.214988
 51
165.298587
  0
ARC
  8
APS_GEOMETR�
 10
1054.338281
 20
716.561383
 40
161.610507
 50
81.233947
 51
125.190363
  0
ARC
  8
APS_GEOMETR�
 10
970.310918
 20
867.37368
 40
20.833767
 50
244.076409
 51
273.11356
  0
ARC
  8
APS_GEOMETR�
 10
972.391813
 20
829.118715
 40
17.477752
 50
357.7123
 51
93.11356
  0
ARC
  8
APS_GEOMETR�
 10
1007.820905
 20
811.392576
 40
24.753179
 50
37.825912
 51
136.533461
  0
ARC
  8
APS_GEOMETR�
 10
1038.815681
 20
804.297822
 40
25.042223
 50
117.189822
 51
244.655068
  0
ARC
  8
APS_GEOMETR�
 10
1172.083693
 20
765.235137
 40
144.922207
 50
129.980249
 51
173.489977
  0
ARC
  8
APS_GEOMETR�
 10
978.379007
 20
789.957637
 40
24.753179
 50
115.578923
 51
214.286472
  0
ARC
  8
APS_GEOMETR�
 10
975.610732
 20
758.281962
 40
25.042223
 50
7.457316
 51
134.922562
  0
ARC
  8
APS_GEOMETR�
 10
971.851764
 20
619.457878
 40
144.922207
 50
78.622406
 51
122.132135
  0
ARC
  8
APS_GEOMETR�
 10
1054.338281
 20
716.561383
 40
161.610507
 50
126.922021
 51
170.878436
  0
ARC
  8
APS_GEOMETR�
 10
936.625211
 20
842.84907
 40
20.833767
 50
338.998824
 51
8.035975
  0
ARC
  8
APS_GEOMETR�
 10
972.391813
 20
829.118715
 40
17.477752
 50
158.998824
 51
254.400084
  0
ARC
  8
APS_GEOMETR�
 10
992.005099
 20
714.606881
 40
28.461627
 50
179.102987
 51
318.51873
  0
ARC
  8
APS_GEOMETR�
 10
997.274398
 20
690.719858
 40
16.824362
 50
235.694257
 51
17.412767
  0
LINE
  8
APS_GEOMETR�
 10
987.792039
 11
964.541631
 20
676.822232
 21
692.686
  0
ARC
  8
APS_GEOMETR�
 10
892.439559
 20
667.215385
 40
76.468693
 50
325.8634
 51
19.456162
  0
ARC
  8
APS_GEOMETR�
 10
1017.736359
 20
664.675524
 40
73.988688
 50
137.088069
 51
213.069077
  0
ARC
  8
APS_GEOMETR�
 10
927.7222
 20
794.034787
 40
75.297824
 50
242.605901
 51
291.553786
  0
ARC
  8
APS_GEOMETR�
 10
1017.73636
 20
664.675523
 40
86.066235
 50
136.424057
 51
223.767557
  0
ARC
  8
APS_GEOMETR�
 10
892.439559
 20
667.215385
 40
88.546239
 50
315.489153
 51
359.760769
  0
ARC
  8
APS_GEOMETR�
 10
997.274395
 20
690.719859
 40
28.901908
 50
235.694263
 51
55.694263
  0
ARC
  8
APS_GEOMETR�
 10
997.274395
 20
690.719859
 40
28.901908
 50
55.694263
 51
67.936843
  0
ARC
  8
APS_GEOMETR�
 10
992.005099
 20
714.606881
 40
16.384081
 50
122.491026
 51
302.491026
  0
ARC
  8
APS_GEOMETR�
 10
992.005099
 20
714.606881
 40
16.384081
 50
302.491026
 51
10.18948
  0
ARC
  8
APS_GEOMETR�
 10
1003.417938
 20
696.93024
 40
37.424733
 50
5.086258
 51
122.691787
  0
ARC
  8
APS_GEOMETR�
 10
908.693114
 20
693.707141
 40
132.164153
 50
336.740897
 51
2.836814
  0
ARC
  8
APS_GEOMETR�
 10
1009.702374
 20
631.580526
 40
22.703532
 50
25.954412
 51
141.154003
  0
ARC
  8
APS_GEOMETR�
 10
905.191708
 20
520.115409
 40
152.777689
 50
34.494333
 51
55.366045
  0
ARC
  8
APS_GEOMETR�
 10
1064.346261
 20
436.844211
 40
173.015647
 50
101.075901
 51
122.498968
  0
ARC
  8
APS_GEOMETR�
 10
1039.614998
 20
713.202702
 40
147.20311
 50
174.551161
 51
242.387381
  0
ARC
  8
APS_GEOMETR�
 10
1056.204456
 20
717.90781
 40
192.861157
 50
130.153031
 51
208.783197
  0
ARC
  8
APS_GEOMETR�
 10
929.133248
 20
868.526559
 40
4.2
 50
310.153031
 51
127.50889
  0
ARC
  8
APS_GEOMETR�
 10
1211.996491
 20
500.010408
 40
468.759758
 50
127.50889
 51
156.32144
  0
ARC
  8
APS_GEOMETR�
 10
818.074175
 20
684.795088
 40
35.543881
 50
174.394886
 51
280.672849
  0
ARC
  8
APS_GEOMETR�
 10
822.920639
 20
659.079103
 40
9.375196
 50
280.672858
 51
331.787482
  0
LINE
  8
APS_GEOMETR�
 10
831.182063
 11
836.848399
 20
654.647042
 21
665.209169
  0
ARC
  8
APS_GEOMETR�
 10
825.911441
 20
671.262222
 40
12.50026
 50
331.037691
 51
355.233647
  0
ARC
  8
APS_GEOMETR�
 10
825.911403
 20
671.261761
 40
12.50026
 50
355.235767
 51
175.231525
  0
ARC
  8
APS_GEOMETR�
 10
806.599605
 20
682.075395
 40
11.938554
 50
162.638554
 51
305.041793
  0
ARC
  8
APS_GEOMETR�
 10
1211.996492
 20
500.010409
 40
456.259497
 50
153.976939
 51
155.99313
  0
ARC
  8
APS_GEOMETR�
 10
821.527032
 20
689.953872
 40
22.051221
 50
73.956522
 51
152.352105
  0
ARC
  8
APS_GEOMETR�
 10
861.146293
 20
728.350747
 40
37.681866
 50
149.460809
 51
207.166151
  0
ARC
  8
APS_GEOMETR�
 10
1211.996491
 20
500.010407
 40
456.259497
 50
144.314968
 51
147.150982
  0
ARC
  8
APS_GEOMETR�
 10
849.020995
 20
760.690995
 40
9.375195
 50
347.396585
 51
144.314966
  0
ARC
  8
APS_GEOMETR�
 10
1052.483742
 20
715.198974
 40
199.111288
 50
167.396592
 51
192.333951
  0
ARC
  8
APS_GEOMETR�
 10
805.801095
 20
679.22189
 40
52.577224
 50
311.572654
 51
352.838151
  0
LINE
  8
APS_GEOMETR�
 10
840.689723
 11
865.43671
 20
639.888087
 21
646.944213
  0
ARC
  8
APS_GEOMETR�
 10
849.364113
 20
641.084221
 40
17.107539
 50
302.07885
 51
20.031611
  0
LINE
  8
APS_GEOMETR�
 10
858.449684
 11
887.171694
 20
626.588695
 21
625.045808
  0
ARC
  8
APS_GEOMETR�
 10
835.50613
 20
598.290977
 40
17.107539
 50
304.080772
 51
22.033533
  0
LINE
  8
APS_GEOMETR�
 10
851.36421
 11
875.538309
 20
604.708856
 21
589.122091
  0
ARC
  8
APS_GEOMETR�
 10
958.047853
 20
414.801693
 40
192.861157
 50
115.329187
 51
193.959353
  0
ARC
  8
APS_GEOMETR�
 10
766.806482
 20
367.263943
 40
4.2
 50
196.603494
 51
13.959353
  0
ARC
  8
APS_GEOMETR�
 10
1211.996492
 20
500.010408
 40
468.759758
 50
167.790944
 51
196.603494
  0
ARC
  8
APS_GEOMETR�
 10
784.532823
 20
581.219891
 40
35.543881
 50
43.439537
 51
149.717503
  0
ARC
  8
APS_GEOMETR�
 10
803.533913
 20
599.213185
 40
9.375196
 50
352.3249
 51
43.439527
  0
LINE
  8
APS_GEOMETR�
 10
812.82512
 11
811.224317
 20
597.961076
 21
586.082384
  0
ARC
  8
APS_GEOMETR�
 10
798.815256
 20
587.589608
 40
12.50026
 50
148.878741
 51
328.878741
  0
ARC
  8
APS_GEOMETR�
 10
798.815256
 20
587.589608
 40
12.50026
 50
328.878741
 51
353.074688
  0
ARC
  8
APS_GEOMETR�
 10
776.830764
 20
590.149663
 40
11.938554
 50
19.070589
 51
161.473825
  0
ARC
  8
APS_GEOMETR�
 10
1211.996492
 20
500.010408
 40
456.259497
 50
168.119254
 51
170.135445
  0
ARC
  8
APS_GEOMETR�
 10
784.306152
 20
575.016353
 40
22.051221
 50
171.760282
 51
250.155863
  0
ARC
  8
APS_GEOMETR�
 10
793.89628
 20
520.683717
 40
37.681866
 50
116.946231
 51
174.651578
  0
ARC
  8
APS_GEOMETR�
 10
1211.996492
 20
500.010413
 40
456.259497
 50
176.961403
 51
179.797416
  0
ARC
  8
APS_GEOMETR�
 10
765.114983
 20
501.590487
 40
9.375195
 50
179.797411
 51
336.715793
  0
ARC
  8
APS_GEOMETR�
 10
956.621361
 20
419.177378
 40
199.111288
 50
131.778433
 51
156.715793
  0
ARC
  8
APS_GEOMETR�
 10
777.856554
 20
592.929565
 40
52.577224
 50
331.274233
 51
12.53973
  0
LINE
  8
APS_GEOMETR�
 10
829.179584
 11
845.092528
 20
604.344951
 21
584.121684
  0
ARC
  8
APS_GEOMETR�
 10
796.084601
 20
583.618833
 40
50.666242
 50
86.701413
 51
138.785012
  0
ARC
  8
APS_GEOMETR�
 10
1211.996674
 20
500.010349
 40
468.856181
 50
158.449461
 51
165.550539
  0
ARC
  8
APS_GEOMETR�
 10
826.372905
 20
676.836647
 40
50.666242
 50
185.214988
 51
237.298587
  0
ARC
  8
APS_GEOMETR�
 10
684.59236
 20
665.279005
 40
72.15975
 50
23.087465
 51
56.347852
  0
ARC
  8
APS_GEOMETR�
 10
644.721671
 20
608.78778
 40
141.290905
 50
55.583646
 51
76.513938
  0
ARC
  8
APS_GEOMETR�
 10
628.877872
 20
551.097622
 40
201.094752
 50
75.957459
 51
92.474898
  0
ARC
  8
APS_GEOMETR�
 10
485.896383
 20
1246.498975
 40
512.406488
 50
262.963593
 51
285.194258
  0
ARC
  8
APS_GEOMETR�
 10
357.074126
 20
576.391033
 40
174.541591
 50
45.979661
 51
67.763289
  0
ARC
  8
APS_GEOMETR�
 10
374.825987
 20
594.662301
 40
149.066851
 50
21.789017
 51
46.005908
  0
ARC
  8
APS_GEOMETR�
 10
551.528851
 20
602.88734
 40
60.703193
 50
109.760598
 51
129.102141
  0
ARC
  8
APS_GEOMETR�
 10
562.344973
 20
574.600799
 40
90.982953
 50
95.399424
 51
110.148383
  0
ARC
  8
APS_GEOMETR�
 10
563.93374
 20
562.86668
 40
102.815617
 50
82.075483
 51
95.665552
  0
ARC
  8
APS_GEOMETR�
 10
568.615421
 20
625.555307
 40
40.279858
 50
58.209377
 51
76.368021
  0
ARC
  8
APS_GEOMETR�
 10
578.156587
 20
640.534236
 40
22.522699
 50
31.938014
 51
58.765585
  0
ARC
  8
APS_GEOMETR�
 10
585.894273
 20
645.4793
 40
13.340791
 50
353.296878
 51
31.494629
  0
ARC
  8
APS_GEOMETR�
 10
588.124343
 20
592.532448
 40
52.557836
 50
77.897292
 51
92.578972
  0
ARC
  8
APS_GEOMETR�
 10
587.720898
 20
595.463355
 40
49.612485
 50
92.265822
 51
107.525598
  0
ARC
  8
APS_GEOMETR�
 10
582.704473
 20
610.48934
 40
33.774354
 50
107.086605
 51
126.832176
  0
ARC
  8
APS_GEOMETR�
 10
573.227377
 20
622.85864
 40
18.193563
 50
126.29568
 51
156.220536
  0
ARC
  8
APS_GEOMETR�
 10
567.675442
 20
625.548671
 40
12.030364
 50
157.28276
 51
196.856801
  0
ARC
  8
APS_GEOMETR�
 10
571.933432
 20
627.273289
 40
16.610709
 50
198.291113
 51
230.109791
  0
ARC
  8
APS_GEOMETR�
 10
620.425874
 20
690.497714
 40
96.278266
 50
232.097825
 51
253.158104
  0
ARC
  8
APS_GEOMETR�
 10
635.545222
 20
735.939385
 40
144.15731
 50
252.639439
 51
268.705204
  0
ARC
  8
APS_GEOMETR�
 10
636.635549
 20
741.412172
 40
149.656458
 50
268.335223
 51
284.003014
  0
ARC
  8
APS_GEOMETR�
 10
647.75381
 20
700.468289
 40
107.242601
 50
283.532564
 51
319.618806
  0
ARC
  8
APS_GEOMETR�
 10
1211.996492
 20
500.010408
 40
500.010408
 50
157.224461
 51
164.814093
  0
ARC
  8
APS_GEOMETR�
 10
570.824188
 20
669.700214
 40
292.608356
 50
29.957205
 51
67.048153
  0
ARC
  8
APS_GEOMETR�
 10
815.234618
 20
550.599532
 40
409.812235
 50
91.652867
 51
108.539857
  0
ARC
  8
APS_GEOMETR�
 10
818.99746
 20
530.002967
 40
430.520415
 50
75.736284
 51
92.074376
  0
ARC
  8
APS_GEOMETR�
 10
853.342186
 20
653.563427
 40
302.32041
 50
68.377446
 51
76.274995
  0
ARC
  8
APS_GEOMETR�
 10
1211.996492
 20
500.010408
 40
500.010408
 50
119.636383
 51
140.832014
  0
ARC
  8
APS_GEOMETR�
 10
609.576023
 20
795.284997
 40
36.178623
 50
119.503582
 51
144.275783
  0
ARC
  8
APS_GEOMETR�
 10
597.201459
 20
804.254414
 40
20.89547
 50
144.4304
 51
180.288673
  0
ARC
  8
APS_GEOMETR�
 10
597.651282
 20
804.923125
 40
21.359056
 50
182.076683
 51
217.407017
  0
ARC
  8
APS_GEOMETR�
 10
610.47311
 20
814.773959
 40
37.528083
 50
217.461976
 51
241.632103
  0
ARC
  8
APS_GEOMETR�
 10
623.567556
 20
837.855871
 40
64.062188
 50
241.135663
 51
258.020668
  0
ARC
  8
APS_GEOMETR�
 10
467.094597
 20
1214.38228
 40
461.941951
 50
271.494548
 51
288.055875
  0
ARC
  8
APS_GEOMETR�
 10
477.872419
 20
888.693987
 40
136.10244
 50
255.992101
 51
270.534843
  0
ARC
  8
APS_GEOMETR�
 10
468.502435
 20
853.812874
 40
99.992652
 50
238.484824
 51
256.363507
  0
ARC
  8
APS_GEOMETR�
 10
445.292214
 20
816.969071
 40
56.453163
 50
212.77918
 51
239.020305
  0
ARC
  8
APS_GEOMETR�
 10
425.934125
 20
804.251722
 40
33.293056
 50
174.947776
 51
212.414749
  0
ARC
  8
APS_GEOMETR�
 10
429.73297
 20
802.72382
 40
37.230635
 50
138.380885
 51
173.120089
  0
ARC
  8
APS_GEOMETR�
 10
424.677761
 20
807.322976
 40
30.396939
 50
113.570666
 51
138.53295
  0
ARC
  8
APS_GEOMETR�
 10
433.728976
 20
788.018426
 40
51.713476
 50
96.736494
 51
114.209466
  0
ARC
  8
APS_GEOMETR�
 10
435.332377
 20
778.201003
 40
61.65278
 50
81.615095
 51
97.146067
  0
ARC
  8
APS_GEOMETR�
 10
437.371312
 20
789.510513
 40
50.168187
 50
64.203333
 51
82.035338
  0
ARC
  8
APS_GEOMETR�
 10
446.968567
 20
808.606279
 40
28.800805
 50
38.976907
 51
64.861355
  0
ARC
  8
APS_GEOMETR�
 10
457.406357
 20
817.056977
 40
15.370924
 50
359.413056
 51
38.961534
  0
ARC
  8
APS_GEOMETR�
 10
456.868438
 20
817.731956
 40
15.929801
 50
318.402127
 51
357.004551
  0
ARC
  8
APS_GEOMETR�
 10
446.806071
 20
826.349444
 40
29.176759
 50
296.348239
 51
318.865648
  0
ARC
  8
APS_GEOMETR�
 10
438.047969
 20
843.172533
 40
48.140735
 50
280.706299
 51
296.802567
  0
ARC
  8
APS_GEOMETR�
 10
435.353502
 20
855.698406
 40
60.949969
 50
267.263057
 51
281.007654
  0
ARC
  8
APS_GEOMETR�
 10
472.189904
 20
831.300945
 40
53.951974
 50
222.548354
 51
245.781165
  0
ARC
  8
APS_GEOMETR�
 10
487.476192
 20
863.277266
 40
89.388487
 50
245.253345
 51
261.812154
  0
ARC
  8
APS_GEOMETR�
 10
490.879821
 20
882.35659
 40
108.760019
 50
261.468843
 51
275.989073
  0
ARC
  8
APS_GEOMETR�
 10
492.878263
 20
868.484375
 40
94.756546
 50
275.662478
 51
291.586832
  0
ARC
  8
APS_GEOMETR�
 10
506.132569
 20
836.383746
 40
60.033222
 50
291.095793
 51
312.720916
  0
ARC
  8
APS_GEOMETR�
 10
525.315766
 20
815.940892
 40
32.000902
 50
312.31939
 51
345.34113
  0
ARC
  8
APS_GEOMETR�
 10
532.185053
 20
813.411456
 40
24.725265
 50
346.983707
 51
26.299057
  0
ARC
  8
APS_GEOMETR�
 10
519.359444
 20
806.448078
 40
39.312503
 50
27.115481
 51
55.859652
  0
ARC
  8
APS_GEOMETR�
 10
531.477944
 20
1100.392469
 40
261.595885
 50
272.178618
 51
303.514621
  0
ARC
  8
APS_GEOMETR�
 10
561.856996
 20
631.277627
 40
275.710434
 50
65.562604
 51
85.140865
  0
ARC
  8
APS_GEOMETR�
 10
554.853026
 20
587.194038
 40
320.245302
 50
84.56035
 51
102.266637
  0
ARC
  8
APS_GEOMETR�
 10
532.743654
 20
676.181931
 40
228.607585
 50
101.590396
 51
123.794348
  0
ARC
  8
APS_GEOMETR�
 10
347.779496
 20
894.30576
 40
64.295465
 50
334.042968
 51
14.144624
  0
ARC
  8
APS_GEOMETR�
 10
328.149358
 20
886.801309
 40
85.200419
 50
15.812554
 51
48.959377
  0
ARC
  8
APS_GEOMETR�
 10
449.383742
 20
400.835147
 40
554.088469
 50
81.696963
 51
96.767305
  0
ARC
  8
APS_GEOMETR�
 10
466.776216
 20
498.982828
 40
454.468082
 50
64.869281
 51
82.079821
  0
ARC
  8
APS_GEOMETR�
 10
548.640998
 20
666.960511
 40
267.638641
 50
40.910308
 51
65.463999
  0
ARC
  8
APS_GEOMETR�
 10
643.034344
 20
748.349147
 40
143.003026
 50
3.565756
 51
41.033598
  0
ARC
  8
APS_GEOMETR�
 10
831.172969
 20
1189.372543
 40
434.509106
 50
236.564418
 51
264.000812
  0
ARC
  8
APS_GEOMETR�
 10
460.923842
 20
826.49904
 40
42.107062
 50
301.768853
 51
328.031676
  0
ARC
  8
APS_GEOMETR�
 10
475.19033
 20
817.387795
 40
25.180879
 50
328.432247
 51
5.577694
  0
ARC
  8
APS_GEOMETR�
 10
472.096706
 20
816.211706
 40
28.387496
 50
7.333595
 51
41.587896
  0
ARC
  8
APS_GEOMETR�
 10
454.796031
 20
801.035568
 40
51.400944
 50
41.43984
 51
64.408779
  0
ARC
  8
APS_GEOMETR�
 10
439.507782
 20
770.801036
 40
85.276265
 50
63.919158
 51
80.276522
  0
ARC
  8
APS_GEOMETR�
 10
435.330773
 20
749.961579
 40
106.523493
 50
79.955218
 51
94.048705
  0
ARC
  8
APS_GEOMETR�
 10
533.71222
 20
695.870973
 40
192.163729
 50
103.825834
 51
123.442884
  0
ARC
  8
APS_GEOMETR�
 10
554.33418
 20
621.302998
 40
269.508295
 50
88.657539
 51
104.29458
  0
ARC
  8
APS_GEOMETR�
 10
556.183433
 20
629.030195
 40
261.745207
 50
73.076337
 51
89.022602
  0
ARC
  8
APS_GEOMETR�
 10
529.483424
 20
1090.599059
 40
234.893887
 50
277.437207
 51
295.979007
  0
ARC
  8
APS_GEOMETR�
 10
520.310459
 20
1142.576373
 40
287.631024
 50
261.721781
 51
277.90889
  0
LINE
  8
APS_GEOMETR�
 10
478.89734
 11
520.295471
 20
857.942293
 21
828.286414
  0
ARC
  8
APS_GEOMETR�
 10
507.364677
 20
809.254594
 40
23.009033
 50
27.65862
 51
55.806628
  0
ARC
  8
APS_GEOMETR�
 10
514.867968
 20
813.395237
 40
14.442232
 50
348.380657
 51
26.926874
  0
ARC
  8
APS_GEOMETR�
 10
511.318545
 20
814.652809
 40
18.179554
 50
313.759366
 51
346.751293
  0
ARC
  8
APS_GEOMETR�
 10
500.423513
 20
825.741025
 40
33.723965
 50
292.329276
 51
314.099146
  0
ARC
  8
APS_GEOMETR�
 10
492.361341
 20
844.181575
 40
53.846708
 50
276.901836
 51
292.809743
  0
ARC
  8
APS_GEOMETR�
 10
490.864273
 20
853.630348
 40
63.407881
 50
262.960076
 51
277.218799
  0
ARC
  8
APS_GEOMETR�
 10
463.424425
 20
857.873739
 40
119.735207
 50
141.403489
 51
190.934936
  0
ARC
  8
APS_GEOMETR�
 10
296.385643
 20
915.297988
 40
94.180788
 50
301.691596
 51
327.532657
  0
ARC
  8
APS_GEOMETR�
 10
328.191274
 20
894.651823
 40
56.264264
 50
327.884247
 51
4.454178
  0
ARC
  8
APS_GEOMETR�
 10
322.582271
 20
892.341282
 40
62.063884
 50
6.178889
 51
40.402756
  0
ARC
  8
APS_GEOMETR�
 10
261.541929
 20
773.223119
 40
86.402811
 50
72.237092
 51
87.915964
  0
ARC
  8
APS_GEOMETR�
 10
260.823455
 20
768.344364
 40
91.306066
 50
87.57674
 51
102.686517
  0
ARC
  8
APS_GEOMETR�
 10
255.219804
 20
791.002003
 40
67.972703
 50
102.272764
 51
120.686489
  0
ARC
  8
APS_GEOMETR�
 10
239.397463
 20
816.873555
 40
37.651262
 50
120.072467
 51
147.453052
  0
ARC
  8
APS_GEOMETR�
 10
185.077901
 20
821.615387
 40
27.397254
 50
34.490392
 51
60.42087
  0
ARC
  8
APS_GEOMETR�
 10
174.369564
 20
803.696301
 40
48.2692
 50
59.865984
 51
77.596547
  0
ARC
  8
APS_GEOMETR�
 10
170.511463
 20
788.108703
 40
64.323041
 50
77.222496
 51
91.850737
  0
ARC
  8
APS_GEOMETR�
 10
170.101139
 20
790.628884
 40
61.791798
 50
91.545935
 51
106.572755
  0
ARC
  8
APS_GEOMETR�
 10
131.228276
 20
921.702258
 40
74.924487
 50
268.406724
 51
286.474577
  0
ARC
  8
APS_GEOMETR�
 10
399.869488
 20
542.05937
 40
407.630567
 50
96.974948
 51
131.616509
  0
ARC
  8
APS_GEOMETR�
 10
450.83043
 20
856.419452
 40
135.049224
 50
138.063805
 51
171.93784
  0
ARC
  8
APS_GEOMETR�
 10
444.101227
 20
858.580653
 40
128.08901
 50
172.472872
 51
207.580343
  0
ARC
  8
APS_GEOMETR�
 10
331.818258
 20
887.999885
 40
88.732225
 50
253.159521
 51
269.19262
  0
ARC
  8
APS_GEOMETR�
 10
322.928807
 20
860.487428
 40
59.826708
 50
232.790449
 51
253.674431
  0
ARC
  8
APS_GEOMETR�
 10
305.275875
 20
837.797318
 40
31.082189
 50
200.967507
 51
233.41329
  0
ARC
  8
APS_GEOMETR�
 10
296.266085
 20
833.744931
 40
21.226285
 50
157.451331
 51
199.455724
  0
ARC
  8
APS_GEOMETR�
 10
306.518414
 20
828.699397
 40
32.637795
 50
124.778585
 51
156.172545
  0
ARC
  8
APS_GEOMETR�
 10
349.578597
 20
570.832185
 40
414.173142
 50
106.047392
 51
135.98463
  0
LINE
  8
APS_GEOMETR�
 10
51.724562
 11
51.724562
 20
858.620936
 21
968.866398
  0
LINE
  8
APS_GEOMETR�
 10
51.724562
 11
235.087736
 20
968.866398
 21
968.866398
  0
ARC
  8
APS_GEOMETR�
 10
158.605923
 20
828.251995
 40
8.066701
 50
144.287233
 51
179.161458
  0
ARC
  8
APS_GEOMETR�
 10
163.272656
 20
824.858246
 40
13.836912
 50
119.907828
 51
144.156835
  0
ARC
  8
APS_GEOMETR�
 10
168.35187
 20
816.416735
 40
23.687577
 50
103.468314
 51
120.376644
  0
ARC
  8
APS_GEOMETR�
 10
170.386281
 20
808.687944
 40
31.678149
 50
89.872892
 51
103.790927
  0
ARC
  8
APS_GEOMETR�
 10
170.526834
 20
808.687944
 40
31.678149
 50
76.209073
 51
90.127108
  0
ARC
  8
APS_GEOMETR�
 10
172.561244
 20
816.416735
 40
23.687577
 50
59.623356
 51
76.531686
  0
ARC
  8
APS_GEOMETR�
 10
177.640459
 20
824.858246
 40
13.836912
 50
35.843165
 51
60.092172
  0
ARC
  8
APS_GEOMETR�
 10
182.307191
 20
828.251995
 40
8.066701
 50
0.838542
 51
35.712767
  0
ARC
  8
APS_GEOMETR�
 10
182.307191
 20
828.488104
 40
8.066701
 50
324.287233
 51
359.161458
  0
ARC
  8
APS_GEOMETR�
 10
177.640459
 20
831.881853
 40
13.836912
 50
299.907828
 51
324.156835
  0
ARC
  8
APS_GEOMETR�
 10
172.561244
 20
840.323365
 40
23.687577
 50
283.468314
 51
300.376644
  0
ARC
  8
APS_GEOMETR�
 10
170.526834
 20
848.052155
 40
31.678149
 50
269.872892
 51
283.790927
  0
ARC
  8
APS_GEOMETR�
 10
170.386281
 20
848.052155
 40
31.678149
 50
256.209073
 51
270.127108
  0
ARC
  8
APS_GEOMETR�
 10
168.35187
 20
840.323365
 40
23.687577
 50
239.623356
 51
256.531686
  0
ARC
  8
APS_GEOMETR�
 10
163.272656
 20
831.881853
 40
13.836912
 50
215.843165
 51
240.092172
  0
ARC
  8
APS_GEOMETR�
 10
158.605923
 20
828.488104
 40
8.066701
 50
180.838542
 51
215.712767
  0
ARC
  8
APS_GEOMETR�
 10
232.081581
 20
728.257409
 40
156.520376
 50
133.919113
 51
167.261304
  0
ARC
  8
APS_GEOMETR�
 10
220.138146
 20
732.229865
 40
144.00032
 50
167.755124
 51
203.02998
  0
ARC
  8
APS_GEOMETR�
 10
328.956567
 20
373.87653
 40
386.602071
 50
95.616703
 51
128.628226
  0
ARC
  8
APS_GEOMETR�
 10
255.440488
 20
721.165764
 40
51.729469
 50
46.393095
 51
69.419329
  0
ARC
  8
APS_GEOMETR�
 10
243.550886
 20
691.901687
 40
83.309633
 50
68.839064
 51
85.564208
  0
ARC
  8
APS_GEOMETR�
 10
242.126648
 20
681.654404
 40
93.638477
 50
85.180293
 51
100.645566
  0
ARC
  8
APS_GEOMETR�
 10
237.655308
 20
702.487553
 40
72.339949
 50
100.213259
 51
118.598802
  0
ARC
  8
APS_GEOMETR�
 10
221.874245
 20
730.456458
 40
40.232188
 50
117.932738
 51
145.199097
  0
ARC
  8
APS_GEOMETR�
 10
206.83954
 20
803.652986
 40
53.362971
 50
228.625595
 51
250.284993
  0
ARC
  8
APS_GEOMETR�
 10
189.9101
 20
784.782499
 40
28.013423
 50
195.678272
 51
229.09808
  0
ARC
  8
APS_GEOMETR�
 10
183.480254
 20
782.319184
 40
21.166629
 50
153.562296
 51
193.961591
  0
ARC
  8
APS_GEOMETR�
 10
194.772473
 20
776.122795
 40
34.040665
 50
123.381926
 51
152.685688
  0
ARC
  8
APS_GEOMETR�
 10
170.467264
 20
869.883736
 40
65.573713
 50
260.436652
 51
274.877496
  0
ARC
  8
APS_GEOMETR�
 10
168.023711
 20
857.284632
 40
52.744687
 50
244.072612
 51
260.780359
  0
ARC
  8
APS_GEOMETR�
 10
158.448029
 20
838.250533
 40
31.440932
 50
220.961354
 51
244.600307
  0
ARC
  8
APS_GEOMETR�
 10
147.655797
 20
828.932072
 40
17.182484
 50
185.575069
 51
221.08804
  0
ARC
  8
APS_GEOMETR�
 10
108.970781
 20
824.874345
 40
21.715559
 50
6.314626
 51
47.960497
  0
ARC
  8
APS_GEOMETR�
 10
169.436474
 20
776.551952
 40
88.713651
 50
303.686044
 51
330.587465
  0
ARC
  8
APS_GEOMETR�
 10
319.180268
 20
409.747145
 40
331.26118
 50
102.63587
 51
127.488022
  0
ARC
  8
APS_GEOMETR�
 10
110.396235
 20
896.050422
 40
223.569285
 50
271.840375
 51
286.312577
  0
ARC
  8
APS_GEOMETR�
 10
129.714208
 20
833.678734
 40
158.285767
 50
285.942813
 51
304.181079
  0
ARC
  8
APS_GEOMETR�
 10
311.78645
 20
646.003368
 40
64.744702
 50
148.69375
 51
189.527639
  0
ARC
  8
APS_GEOMETR�
 10
325.862237
 20
651.284707
 40
79.552609
 50
191.601343
 51
227.117292
  0
ARC
  8
APS_GEOMETR�
 10
377.096195
 20
704.761096
 40
153.60635
 50
226.687988
 51
249.487338
  0
ARC
  8
APS_GEOMETR�
 10
260.849935
 20
580.175611
 40
65.330528
 50
342.83428
 51
26.782802
  0
ARC
  8
APS_GEOMETR�
 10
222.983927
 20
558.719731
 40
108.822635
 50
27.883968
 51
58.990307
  0
LINE
  8
APS_GEOMETR�
 10
279.047507
 11
342.263605
 20
651.989453
 21
644.817817
  0
ARC
  8
APS_GEOMETR�
 10
349.375765
 20
707.80175
 40
63.384214
 50
263.557437
 51
277.819724
  0
ARC
  8
APS_GEOMETR�
 10
351.069127
 20
697.657117
 40
53.104356
 50
277.49888
 51
293.555396
  0
ARC
  8
APS_GEOMETR�
 10
359.406547
 20
679.234978
 40
32.886525
 50
293.066598
 51
315.207031
  0
ARC
  8
APS_GEOMETR�
 10
370.197914
 20
668.651834
 40
17.772271
 50
314.908425
 51
348.408854
  0
ARC
  8
APS_GEOMETR�
 10
373.270488
 20
667.580813
 40
14.553569
 50
350.109119
 51
28.455363
  0
ARC
  8
APS_GEOMETR�
 10
365.410752
 20
663.025754
 40
23.635555
 50
29.085156
 51
56.728775
  0
ARC
  8
APS_GEOMETR�
 10
343.414122
 20
702.66412
 40
40.21842
 50
303.295052
 51
330.381125
  0
ARC
  8
APS_GEOMETR�
 10
325.410232
 20
728.902381
 40
72.035932
 50
285.492903
 51
303.808178
  0
ARC
  8
APS_GEOMETR�
 10
316.949496
 20
756.924017
 40
101.301588
 50
271.295063
 51
285.870832
  0
ARC
  8
APS_GEOMETR�
 10
316.358903
 20
760.311636
 40
104.70295
 50
257.319213
 51
271.576269
  0
ARC
  8
APS_GEOMETR�
 10
310.319496
 20
735.643955
 40
79.312629
 50
240.492426
 51
257.663851
  0
ARC
  8
APS_GEOMETR�
 10
293.526126
 20
706.804404
 40
45.944289
 50
216.236997
 51
241.004379
  0
ARC
  8
APS_GEOMETR�
 10
399.241464
 20
-5.318565
 40
518.660058
 50
103.01858
 51
123.875623
  0
ARC
  8
APS_GEOMETR�
 10
163.800166
 20
537.511058
 40
124.380634
 50
219.260822
 51
244.44467
  0
ARC
  8
APS_GEOMETR�
 10
119.489432
 20
501.321151
 40
67.169186
 50
181.118143
 51
219.278944
  0
ARC
  8
APS_GEOMETR�
 10
119.489432
 20
498.699666
 40
67.169186
 50
140.721056
 51
178.881857
  0
ARC
  8
APS_GEOMETR�
 10
163.800166
 20
462.509758
 40
124.380634
 50
115.55533
 51
140.739178
  0
ARC
  8
APS_GEOMETR�
 10
399.241464
 20
1005.339381
 40
518.660058
 50
236.124377
 51
256.98142
  0
ARC
  8
APS_GEOMETR�
 10
416.504059
 20
1053.014368
 40
536.366444
 50
255.958174
 51
271.047682
  0
ARC
  8
APS_GEOMETR�
 10
378.006173
 20
910.775195
 40
389.047128
 50
237.663565
 51
256.375843
  0
ARC
  8
APS_GEOMETR�
 10
282.211509
 20
763.617724
 40
213.482584
 50
210.258561
 51
238.260998
  0
ARC
  8
APS_GEOMETR�
 10
109.251524
 20
933.586858
 40
277.779237
 50
267.640134
 51
282.625113
  0
ARC
  8
APS_GEOMETR�
 10
126.022238
 20
865.389729
 40
207.570582
 50
282.222298
 51
300.437709
  0
ARC
  8
APS_GEOMETR�
 10
294.414135
 20
646.167806
 40
74.96396
 50
147.517651
 51
194.710121
  0
ARC
  8
APS_GEOMETR�
 10
321.928275
 20
658.361974
 40
104.783077
 50
197.339993
 51
234.919508
  0
ARC
  8
APS_GEOMETR�
 10
389.777477
 20
748.914929
 40
217.909224
 50
234.004225
 51
256.935213
  0
ARC
  8
APS_GEOMETR�
 10
274.840052
 20
580.442734
 40
78.941694
 50
326.303396
 51
1.840468
  0
ARC
  8
APS_GEOMETR�
 10
273.684982
 20
579.569535
 40
80.12857
 50
2.43801
 51
37.618194
  0
ARC
  8
APS_GEOMETR�
 10
349.370442
 20
736.635289
 40
108.843236
 50
263.555866
 51
278.068662
  0
ARC
  8
APS_GEOMETR�
 10
352.490218
 20
718.448661
 40
90.400344
 50
277.728803
 51
294.163207
  0
ARC
  8
APS_GEOMETR�
 10
367.428826
 20
686.375122
 40
55.024339
 50
293.641684
 51
316.569425
  0
ARC
  8
APS_GEOMETR�
 10
385.982819
 20
668.988497
 40
29.597692
 50
316.319502
 51
351.129052
  0
ARC
  8
APS_GEOMETR�
 10
389.945568
 20
667.521872
 40
25.469966
 50
353.014483
 51
31.547213
  0
ARC
  8
APS_GEOMETR�
 10
375.039934
 20
657.970179
 40
43.171492
 50
32.000313
 51
58.988722
  0
ARC
  8
APS_GEOMETR�
 10
356.735054
 20
629.01335
 40
77.424027
 50
58.41909
 51
76.651793
  0
ARC
  8
APS_GEOMETR�
 10
349.547077
 20
601.857076
 40
105.508636
 50
76.258482
 51
91.076822
  0
ARC
  8
APS_GEOMETR�
 10
335.585543
 20
693.142117
 40
18.581455
 50
15.075032
 51
49.859848
  0
ARC
  8
APS_GEOMETR�
 10
339.773736
 20
694.773966
 40
14.121357
 50
331.206455
 51
13.101092
  0
ARC
  8
APS_GEOMETR�
 10
331.457626
 20
699.724742
 40
23.79617
 50
300.967698
 51
330.404228
  0
ARC
  8
APS_GEOMETR�
 10
320.398196
 20
717.112714
 40
44.399534
 50
282.303394
 51
301.659307
  0
ARC
  8
APS_GEOMETR�
 10
316.482157
 20
732.739177
 40
60.5036
 50
267.044119
 51
282.773371
  0
ARC
  8
APS_GEOMETR�
 10
315.889975
 20
728.636249
 40
56.376874
 50
250.93837
 51
267.430131
  0
ARC
  8
APS_GEOMETR�
 10
308.977785
 20
709.722255
 40
36.244307
 50
229.320813
 51
251.501392
  0
ARC
  8
APS_GEOMETR�
 10
297.890466
 20
696.888679
 40
19.284772
 50
199.703962
 51
229.448818
  0
ARC
  8
APS_GEOMETR�
 10
292.828683
 20
694.791487
 40
13.814875
 50
161.337731
 51
198.593373
  0
ARC
  8
APS_GEOMETR�
 10
297.907393
 20
692.682528
 40
19.305
 50
130.506943
 51
160.230802
  0
ARC
  8
APS_GEOMETR�
 10
338.308673
 20
648.811971
 40
78.93453
 50
103.9551
 51
132.120394
  0
ARC
  8
APS_GEOMETR�
 10
352.094619
 20
603.604437
 40
126.156717
 50
84.541934
 51
105.080017
  0
ARC
  8
APS_GEOMETR�
 10
346.489146
 20
548.688725
 40
181.356974
 50
64.034314
 51
84.429265
  0
ARC
  8
APS_GEOMETR�
 10
385.732094
 20
625.379747
 40
95.240809
 50
33.592317
 51
65.059343
  0
ARC
  8
APS_GEOMETR�
 10
422.62022
 20
650.764303
 40
50.473767
 50
344.33064
 51
32.757079
  0
ARC
  8
APS_GEOMETR�
 10
453.961554
 20
546.34395
 40
92.413601
 50
79.23783
 51
94.370121
  0
ARC
  8
APS_GEOMETR�
 10
452.752532
 20
555.362923
 40
83.330336
 50
94.013769
 51
110.232077
  0
ARC
  8
APS_GEOMETR�
 10
441.855141
 20
583.510785
 40
53.152901
 50
109.70299
 51
131.629421
  0
ARC
  8
APS_GEOMETR�
 10
424.802596
 20
602.350923
 40
27.743485
 50
131.153695
 51
165.120234
  0
ARC
  8
APS_GEOMETR�
 10
418.68575
 20
604.6721
 40
21.246345
 50
166.934325
 51
207.625224
  0
ARC
  8
APS_GEOMETR�
 10
418.970735
 20
611.225225
 40
25.184899
 50
220.645192
 51
254.273076
  0
ARC
  8
APS_GEOMETR�
 10
441.360457
 20
572.27
 40
32.711777
 50
119.6258
 51
153.270365
  0
ARC
  8
APS_GEOMETR�
 10
458.324862
 20
544.684401
 40
65.086717
 50
99.437224
 51
120.603162
  0
ARC
  8
APS_GEOMETR�
 10
465.588787
 20
473.885209
 40
136.19124
 50
83.269908
 51
97.567672
  0
ARC
  8
APS_GEOMETR�
 10
468.491826
 20
492.975463
 40
116.894103
 50
67.748384
 51
83.586451
  0
ARC
  8
APS_GEOMETR�
 10
485.396104
 20
532.667354
 40
73.759416
 50
46.660443
 51
68.226193
  0
ARC
  8
APS_GEOMETR�
 10
587.733453
 20
383.485213
 40
209.316332
 50
104.303901
 51
140.460677
  0
ARC
  8
APS_GEOMETR�
 10
416.504059
 20
-52.993552
 40
536.366444
 50
88.952318
 51
104.041826
  0
ARC
  8
APS_GEOMETR�
 10
378.006173
 20
89.245621
 40
389.047128
 50
103.624157
 51
122.336435
  0
ARC
  8
APS_GEOMETR�
 10
282.211509
 20
236.403093
 40
213.482584
 50
121.739002
 51
149.741439
  0
ARC
  8
APS_GEOMETR�
 10
109.251524
 20
66.433958
 40
277.779237
 50
77.374887
 51
92.359866
  0
ARC
  8
APS_GEOMETR�
 10
126.022238
 20
134.631087
 40
207.570582
 50
59.562291
 51
77.777702
  0
ARC
  8
APS_GEOMETR�
 10
294.414135
 20
353.85301
 40
74.96396
 50
165.289879
 51
212.482349
  0
ARC
  8
APS_GEOMETR�
 10
321.928275
 20
341.658842
 40
104.783077
 50
125.080492
 51
162.660007
  0
ARC
  8
APS_GEOMETR�
 10
389.777477
 20
251.105887
 40
217.909224
 50
103.064787
 51
125.995775
  0
ARC
  8
APS_GEOMETR�
 10
274.840052
 20
419.578082
 40
78.941694
 50
358.159532
 51
33.696604
  0
ARC
  8
APS_GEOMETR�
 10
273.684982
 20
420.451282
 40
80.12857
 50
322.381806
 51
357.56199
  0
ARC
  8
APS_GEOMETR�
 10
349.370442
 20
263.385527
 40
108.843236
 50
81.931338
 51
96.444134
  0
ARC
  8
APS_GEOMETR�
 10
352.490218
 20
281.572155
 40
90.400344
 50
65.836793
 51
82.271197
  0
ARC
  8
APS_GEOMETR�
 10
367.428826
 20
313.645694
 40
55.024339
 50
43.430575
 51
66.358316
  0
ARC
  8
APS_GEOMETR�
 10
385.982819
 20
331.032319
 40
29.597692
 50
8.870948
 51
43.680498
  0
ARC
  8
APS_GEOMETR�
 10
389.945568
 20
332.498944
 40
25.469966
 50
328.452787
 51
6.985517
  0
ARC
  8
APS_GEOMETR�
 10
375.039934
 20
342.050637
 40
43.171492
 50
301.011278
 51
327.999687
  0
ARC
  8
APS_GEOMETR�
 10
356.735054
 20
371.007466
 40
77.424027
 50
283.348207
 51
301.58091
  0
ARC
  8
APS_GEOMETR�
 10
349.547077
 20
398.16374
 40
105.508636
 50
268.923178
 51
283.741518
  0
ARC
  8
APS_GEOMETR�
 10
335.585543
 20
306.878699
 40
18.581455
 50
310.140152
 51
344.924968
  0
ARC
  8
APS_GEOMETR�
 10
339.773736
 20
305.24685
 40
14.121357
 50
346.898908
 51
28.793545
  0
ARC
  8
APS_GEOMETR�
 10
331.457626
 20
300.296074
 40
23.79617
 50
29.595772
 51
59.032302
  0
ARC
  8
APS_GEOMETR�
 10
320.398196
 20
282.908102
 40
44.399534
 50
58.340693
 51
77.696606
  0
ARC
  8
APS_GEOMETR�
 10
316.482157
 20
267.281639
 40
60.5036
 50
77.226629
 51
92.955881
  0
ARC
  8
APS_GEOMETR�
 10
315.889975
 20
271.384567
 40
56.376874
 50
92.569869
 51
109.06163
  0
ARC
  8
APS_GEOMETR�
 10
308.977785
 20
290.298561
 40
36.244307
 50
108.498608
 51
130.679187
  0
ARC
  8
APS_GEOMETR�
 10
297.890466
 20
303.132137
 40
19.284772
 50
130.551182
 51
160.296038
  0
ARC
  8
APS_GEOMETR�
 10
292.828683
 20
305.229329
 40
13.814875
 50
161.406627
 51
198.662269
  0
ARC
  8
APS_GEOMETR�
 10
297.907393
 20
307.338288
 40
19.305
 50
199.769198
 51
229.493057
  0
ARC
  8
APS_GEOMETR�
 10
338.308673
 20
351.208845
 40
78.93453
 50
227.879606
 51
256.0449
  0
ARC
  8
APS_GEOMETR�
 10
352.094619
 20
396.416379
 40
126.156717
 50
254.919983
 51
275.458066
  0
ARC
  8
APS_GEOMETR�
 10
346.489146
 20
451.332091
 40
181.356974
 50
275.570735
 51
295.965686
  0
ARC
  8
APS_GEOMETR�
 10
385.732094
 20
374.641069
 40
95.240809
 50
294.940657
 51
326.407683
  0
ARC
  8
APS_GEOMETR�
 10
422.62022
 20
349.256513
 40
50.473767
 50
327.242921
 51
15.66936
  0
ARC
  8
APS_GEOMETR�
 10
453.961554
 20
453.676866
 40
92.413601
 50
265.629879
 51
280.76217
  0
ARC
  8
APS_GEOMETR�
 10
452.752532
 20
444.657893
 40
83.330336
 50
249.767923
 51
265.986231
  0
ARC
  8
APS_GEOMETR�
 10
441.855141
 20
416.510031
 40
53.152901
 50
228.370579
 51
250.29701
  0
ARC
  8
APS_GEOMETR�
 10
424.802596
 20
397.669893
 40
27.743485
 50
194.879766
 51
228.846305
  0
ARC
  8
APS_GEOMETR�
 10
418.68575
 20
395.348716
 40
21.246345
 50
152.374776
 51
193.065675
  0
ARC
  8
APS_GEOMETR�
 10
418.970735
 20
388.795591
 40
25.184899
 50
105.726924
 51
139.354808
  0
ARC
  8
APS_GEOMETR�
 10
441.360457
 20
427.750816
 40
32.711777
 50
206.729635
 51
240.3742
  0
ARC
  8
APS_GEOMETR�
 10
458.324862
 20
455.336415
 40
65.086717
 50
239.396838
 51
260.562776
  0
ARC
  8
APS_GEOMETR�
 10
465.588787
 20
526.135607
 40
136.19124
 50
262.432328
 51
276.730092
  0
ARC
  8
APS_GEOMETR�
 10
468.491826
 20
507.045353
 40
116.894103
 50
276.413549
 51
292.251616
  0
ARC
  8
APS_GEOMETR�
 10
485.396104
 20
467.353462
 40
73.759416
 50
291.773807
 51
313.339557
  0
ARC
  8
APS_GEOMETR�
 10
587.733453
 20
616.535603
 40
209.316332
 50
219.539323
 51
255.696099
  0
ARC
  8
APS_GEOMETR�
 10
641.178348
 20
730.082877
 40
300.12946
 50
262.774229
 51
284.372835
  0
ARC
  8
APS_GEOMETR�
 10
1211.996492
 20
500.010408
 40
500.010408
 50
173.031484
 51
186.968516
  0
ARC
  8
APS_GEOMETR�
 10
641.178348
 20
269.937939
 40
300.12946
 50
75.627165
 51
97.225771
  0
ARC
  8
APS_GEOMETR�
 10
632.110951
 20
322.507507
 40
246.8484
 50
96.672597
 51
116.234122
  0
ARC
  8
APS_GEOMETR�
 10
580.006588
 20
423.58357
 40
133.167328
 50
115.348756
 51
144.976258
  0
ARC
  8
APS_GEOMETR�
 10
580.006588
 20
576.437246
 40
133.167328
 50
215.023742
 51
244.651244
  0
ARC
  8
APS_GEOMETR�
 10
632.110951
 20
677.513309
 40
246.8484
 50
243.765878
 51
263.327403
  0
ARC
  8
APS_GEOMETR�
 10
1211.996492
 20
500.010408
 40
500.010408
 50
195.185907
 51
202.775539
  0
ARC
  8
APS_GEOMETR�
 10
647.75381
 20
299.552527
 40
107.242601
 50
40.381194
 51
76.467436
  0
ARC
  8
APS_GEOMETR�
 10
636.635549
 20
258.608644
 40
149.656458
 50
75.996986
 51
91.664777
  0
ARC
  8
APS_GEOMETR�
 10
635.545222
 20
264.081431
 40
144.15731
 50
91.294796
 51
107.360561
  0
ARC
  8
APS_GEOMETR�
 10
620.425874
 20
309.523102
 40
96.278266
 50
106.841896
 51
127.902175
  0
ARC
  8
APS_GEOMETR�
 10
571.933432
 20
372.747528
 40
16.610709
 50
129.890209
 51
161.708887
  0
ARC
  8
APS_GEOMETR�
 10
567.675442
 20
374.472145
 40
12.030364
 50
163.143199
 51
202.71724
  0
ARC
  8
APS_GEOMETR�
 10
573.227377
 20
377.162176
 40
18.193563
 50
203.779464
 51
233.70432
  0
ARC
  8
APS_GEOMETR�
 10
582.704473
 20
389.531476
 40
33.774354
 50
233.167824
 51
252.913395
  0
ARC
  8
APS_GEOMETR�
 10
587.720898
 20
404.557461
 40
49.612485
 50
252.474402
 51
267.734178
  0
ARC
  8
APS_GEOMETR�
 10
588.124343
 20
407.488369
 40
52.557836
 50
267.421028
 51
282.102708
  0
ARC
  8
APS_GEOMETR�
 10
585.894273
 20
354.541516
 40
13.340791
 50
328.505371
 51
6.703122
  0
ARC
  8
APS_GEOMETR�
 10
578.156587
 20
359.48658
 40
22.522699
 50
301.234415
 51
328.061986
  0
ARC
  8
APS_GEOMETR�
 10
568.615421
 20
374.465509
 40
40.279858
 50
283.631979
 51
301.790623
  0
ARC
  8
APS_GEOMETR�
 10
563.93374
 20
437.154136
 40
102.815617
 50
264.334448
 51
277.924517
  0
ARC
  8
APS_GEOMETR�
 10
562.344973
 20
425.420017
 40
90.982953
 50
249.851617
 51
264.600576
  0
ARC
  8
APS_GEOMETR�
 10
551.528851
 20
397.133477
 40
60.703193
 50
230.897859
 51
250.239402
  0
ARC
  8
APS_GEOMETR�
 10
374.825987
 20
405.358515
 40
149.066851
 50
313.994092
 51
338.210983
  0
ARC
  8
APS_GEOMETR�
 10
357.074126
 20
423.629783
 40
174.541591
 50
292.236711
 51
314.020339
  0
ARC
  8
APS_GEOMETR�
 10
485.896383
 20
-246.478159
 40
512.406488
 50
74.805742
 51
97.036407
  0
ARC
  8
APS_GEOMETR�
 10
628.877872
 20
448.923194
 40
201.094752
 50
267.525102
 51
284.042541
  0
ARC
  8
APS_GEOMETR�
 10
644.721671
 20
391.233036
 40
141.290905
 50
283.486062
 51
304.416354
  0
ARC
  8
APS_GEOMETR�
 10
684.59236
 20
334.741811
 40
72.15975
 50
303.652148
 51
336.912535
  0
ARC
  8
APS_GEOMETR�
 10
864.048517
 20
367.425599
 40
24.753179
 50
187.578923
 51
286.286472
  0
ARC
  8
APS_GEOMETR�
 10
893.31843
 20
355.004491
 40
25.042223
 50
79.457316
 51
206.922562
  0
ARC
  8
APS_GEOMETR�
 10
1024.186395
 20
308.530498
 40
144.922207
 50
150.622406
 51
194.132135
  0
ARC
  8
APS_GEOMETR�
 10
957.325209
 20
416.986472
 40
161.610507
 50
198.922021
 51
242.878436
  0
ARC
  8
APS_GEOMETR�
 10
800.843143
 20
344.05973
 40
20.833767
 50
50.998824
 51
80.035975
  0
ARC
  8
APS_GEOMETR�
 10
824.953974
 20
373.832878
 40
17.477752
 50
230.998824
 51
326.400084
  0
ARC
  8
APS_GEOMETR�
 10
939.922038
 20
357.100118
 40
28.461627
 50
251.102987
 51
30.51873
  0
ARC
  8
APS_GEOMETR�
 10
964.26825
 20
354.730023
 40
16.824362
 50
307.694257
 51
89.412767
  0
LINE
  8
APS_GEOMETR�
 10
974.555468
 11
952.283357
 20
341.41716
 21
324.206883
  0
ARC
  8
APS_GEOMETR�
 10
954.226585
 20
247.762885
 40
76.468693
 50
37.8634
 51
91.456162
  0
ARC
  8
APS_GEOMETR�
 10
995.360978
 20
366.142362
 40
73.988688
 50
209.088069
 51
285.069077
  0
ARC
  8
APS_GEOMETR�
 10
844.517103
 20
320.50802
 40
75.297824
 50
314.605901
 51
3.553786
  0
ARC
  8
APS_GEOMETR�
 10
995.360979
 20
366.142363
 40
86.066235
 50
208.424057
 51
295.767557
  0
ARC
  8
APS_GEOMETR�
 10
954.226586
 20
247.762884
 40
88.546239
 50
27.489153
 51
71.760769
  0
ARC
  8
APS_GEOMETR�
 10
964.268251
 20
354.730023
 40
28.901909
 50
307.694255
 51
127.694255
  0
ARC
  8
APS_GEOMETR�
 10
964.268251
 20
354.730023
 40
28.901909
 50
127.694255
 51
139.936851
  0
ARC
  8
APS_GEOMETR�
 10
939.922038
 20
357.100118
 40
16.384081
 50
194.491026
 51
14.491026
  0
ARC
  8
APS_GEOMETR�
 10
939.922038
 20
357.100118
 40
16.384081
 50
14.491026
 51
82.18948
  0
ARC
  8
APS_GEOMETR�
 10
960.260285
 20
362.491991
 40
37.424733
 50
77.086258
 51
194.691787
  0
ARC
  8
APS_GEOMETR�
 10
934.054054
 20
271.407337
 40
132.164153
 50
48.740897
 51
74.836814
  0
ARC
  8
APS_GEOMETR�
 10
1024.353553
 20
348.274672
 40
22.703532
 50
97.954412
 51
213.154003
  0
ARC
  8
APS_GEOMETR�
 10
1098.067607
 20
214.434506
 40
152.777689
 50
106.476133
 51
127.366045
  0
ARC
  8
APS_GEOMETR�
 10
1226.485904
 20
340.037318
 40
173.015647
 50
173.061317
 51
194.479776
  0
ARC
  8
APS_GEOMETR�
 10
955.96976
 20
401.945907
 40
147.20311
 50
246.551161
 51
314.401936
  0
LINE
  8
APS_GEOMETR�
 10
992.704378
 11
982.361415
 20
229.721731
 21
202.882255
  0
ARC
  8
APS_GEOMETR�
 10
965.767754
 20
198.720727
 40
17.107539
 50
14.07885
 51
92.031611
  0
LINE
  8
APS_GEOMETR�
 10
965.161277
 11
964.224812
 20
215.817512
 21
190.101266
  0
ARC
  8
APS_GEOMETR�
 10
916.034963
 20
169.075023
 40
52.577224
 50
23.572654
 51
64.838151
  0
ARC
  8
APS_GEOMETR�
 10
958.047853
 20
414.801692
 40
199.111288
 50
239.396592
 51
264.333951
  0
ARC
  8
APS_GEOMETR�
 10
851.908923
 20
235.354929
 40
9.375195
 50
59.396585
 51
216.314966
  0
ARC
  8
APS_GEOMETR�
 10
1211.996493
 20
500.010407
 40
456.259497
 50
216.314968
 51
219.150982
  0
ARC
  8
APS_GEOMETR�
 10
886.41325
 20
236.893086
 40
37.681866
 50
221.460809
 51
279.166151
  0
ARC
  8
APS_GEOMETR�
 10
910.687824
 20
187.347642
 40
22.051221
 50
145.956522
 51
224.352105
  0
ARC
  8
APS_GEOMETR�
 10
1211.996491
 20
500.010409
 40
456.259497
 50
225.976939
 51
227.99313
  0
ARC
  8
APS_GEOMETR�
 10
913.567872
 20
170.716232
 40
11.938554
 50
234.638554
 51
17.041793
  0
ARC
  8
APS_GEOMETR�
 10
929.819923
 20
185.741247
 40
12.50026
 50
67.235767
 51
247.231525
  0
ARC
  8
APS_GEOMETR�
 10
929.819496
 20
185.741426
 40
12.50026
 50
43.037691
 51
67.233647
  0
LINE
  8
APS_GEOMETR�
 10
938.955998
 11
947.250183
 20
194.272595
 21
185.619712
  0
ARC
  8
APS_GEOMETR�
 10
940.482122
 20
179.132213
 40
9.375196
 50
352.672858
 51
43.787482
  0
ARC
  8
APS_GEOMETR�
 10
914.527128
 20
182.469628
 40
35.543881
 50
246.394886
 51
352.672849
  0
ARC
  8
APS_GEOMETR�
 10
1211.996492
 20
500.010408
 40
468.759758
 50
199.50889
 51
228.32144
  0
ARC
  8
APS_GEOMETR�
 10
774.107255
 20
344.86923
 40
4.2
 50
22.153031
 51
199.50889
  0
ARC
  8
APS_GEOMETR�
 10
956.621361
 20
419.177378
 40
192.861157
 50
202.153031
 51
280.783197
  0
ARC
  8
APS_GEOMETR�
 10
1152.109853
 20
252.492349
 40
73.988688
 50
183.043307
 51
259.024315
  0
ARC
  8
APS_GEOMETR�
 10
1160.750626
 20
196.989419
 40
28.461627
 50
77.593655
 51
217.009396
  0
ARC
  8
APS_GEOMETR�
 10
1150.929176
 20
219.392421
 40
16.824362
 50
18.699617
 51
160.418127
  0
LINE
  8
APS_GEOMETR�
 10
1135.077875
 11
1125.644388
 20
225.031165
 21
198.512305
  0
ARC
  8
APS_GEOMETR�
 10
1052.384185
 20
176.594192
 40
76.468693
 50
16.656221
 51
70.248983
  0
ARC
  8
APS_GEOMETR�
 10
1126.114265
 20
274.493559
 40
22.703532
 50
254.958381
 51
10.157971
  0
ARC
  8
APS_GEOMETR�
 10
1081.128296
 20
164.771868
 40
132.164153
 50
33.27557
 51
59.371488
  0
ARC
  8
APS_GEOMETR�
 10
1159.552531
 20
217.996111
 40
37.424733
 50
273.420596
 51
31.026123
  0
ARC
  8
APS_GEOMETR�
 10
1160.750625
 20
196.989419
 40
16.384081
 50
25.922902
 51
205.922902
  0
ARC
  8
APS_GEOMETR�
 10
1160.750625
 20
196.989419
 40
16.384081
 50
205.922902
 51
273.621359
  0
ARC
  8
APS_GEOMETR�
 10
1150.929176
 20
219.392421
 40
28.901908
 50
328.175535
 51
148.175535
  0
ARC
  8
APS_GEOMETR�
 10
1150.929176
 20
219.392421
 40
28.901908
 50
148.175535
 51
160.418128
  0
ARC
  8
APS_GEOMETR�
 10
1052.384185
 20
176.594191
 40
88.546239
 50
36.351614
 51
80.623231
  0
ARC
  8
APS_GEOMETR�
 10
1152.109852
 20
252.492349
 40
86.066235
 50
172.344827
 51
259.688327
  0
ARC
  8
APS_GEOMETR�
 10
1155.631382
 20
94.936114
 40
75.297824
 50
104.558597
 51
153.506483
  0
ARC
  8
APS_GEOMETR�
 10
1198.385295
 20
226.183695
 40
147.20311
 50
153.585271
 51
221.561223
  0
ARC
  8
APS_GEOMETR�
 10
1055.416787
 20
464.326306
 40
173.015647
 50
273.689607
 51
295.058581
  0
ARC
  8
APS_GEOMETR�
 10
975.989711
 20
302.946496
 40
152.777689
 50
340.746339
 51
1.743854
  0
ARC
  8
APS_GEOMETR�
 10
1055.416787
 20
464.326306
 40
173.015647
 50
303.654187
 51
311.512624
  0
ARC
  8
APS_GEOMETR�
 10
1199.105624
 20
330.674309
 40
29.30435
 50
171.964804
 51
254.057917
  0
ARC
  8
APS_GEOMETR�
 10
1192.773424
 20
308.506758
 40
6.25013
 50
254.057916
 51
10.220704
  0
ARC
  8
APS_GEOMETR�
 10
1413.652489
 20
348.33158
 40
218.190459
 50
157.551039
 51
190.220704
  0
ARC
  8
APS_GEOMETR�
 10
1010.340493
 20
348.33158
 40
218.190459
 50
349.779296
 51
22.448961
  0
ARC
  8
APS_GEOMETR�
 10
1231.219558
 20
308.506758
 40
6.25013
 50
169.779296
 51
285.942084
  0
ARC
  8
APS_GEOMETR�
 10
1224.887358
 20
330.674309
 40
29.30435
 50
285.942083
 51
8.035196
  0
ARC
  8
APS_GEOMETR�
 10
1368.576195
 20
464.326306
 40
173.015647
 50
228.487376
 51
236.345813
  0
ARC
  8
APS_GEOMETR�
 10
1217.814745
 20
321.649857
 40
54.896195
 50
325.753693
 51
358.599886
  0
ARC
  8
APS_GEOMETR�
 10
1343.984744
 20
183.410146
 40
134.352443
 50
126.965863
 51
169.235473
  0
ARC
  8
APS_GEOMETR�
 10
1080.008237
 20
183.410146
 40
134.352443
 50
10.764527
 51
53.034137
  0
ARC
  8
APS_GEOMETR�
 10
1206.178237
 20
321.649857
 40
54.896195
 50
181.400114
 51
214.246307
  0
ARC
  8
APS_GEOMETR�
 10
1042.187454
 20
501.247367
 40
140.704276
 50
285.801101
 51
313.025204
  0
ARC
  8
APS_GEOMETR�
 10
1265.688009
 20
338.864711
 40
140.704276
 50
154.974796
 51
182.1989
  0
ARC
  8
APS_GEOMETR�
 10
1124.502001
 20
254.118998
 40
79.349242
 50
89.57734
 51
122.290969
  0
ARC
  8
APS_GEOMETR�
 10
1005.218368
 20
340.783632
 40
79.349242
 50
345.70903
 51
18.422658
  0
ARC
  8
APS_GEOMETR�
 10
1226.485904
 20
340.037318
 40
173.015647
 50
156.633139
 51
164.4666
  0
ARC
  8
APS_GEOMETR�
 10
1055.058776
 20
435.114779
 40
29.30435
 50
214.054468
 51
295.468925
  0
ARC
  8
APS_GEOMETR�
 10
1035.958226
 20
422.204859
 40
6.25013
 50
97.891694
 51
214.054466
  0
ARC
  8
APS_GEOMETR�
 10
1005.142375
 20
644.519864
 40
218.190459
 50
277.891679
 51
310.607296
  0
ARC
  8
APS_GEOMETR�
 10
1130.056484
 20
261.352822
 40
218.190459
 50
85.505088
 51
118.220704
  0
ARC
  8
APS_GEOMETR�
 10
1023.925443
 20
459.114749
 40
6.25013
 50
182.057916
 51
298.220704
  0
ARC
  8
APS_GEOMETR�
 10
1046.964793
 20
459.94262
 40
29.30435
 50
99.814624
 51
182.057917
  0
ARC
  8
APS_GEOMETR�
 10
1129.688849
 20
637.948019
 40
173.015647
 50
231.67005
 51
239.53565
  0
ARC
  8
APS_GEOMETR�
 10
1040.567587
 20
450.427456
 40
54.896195
 50
109.341129
 51
142.246307
  0
ARC
  8
APS_GEOMETR�
 10
870.105135
 20
527.703836
 40
134.352443
 50
298.08718
 51
341.034137
  0
ARC
  8
APS_GEOMETR�
 10
952.116982
 20
276.137083
 40
134.352443
 50
55.078246
 51
98.025204
  0
ARC
  8
APS_GEOMETR�
 10
1044.282751
 20
439.031396
 40
54.896195
 50
253.866078
 51
286.408177
  0
ARC
  8
APS_GEOMETR�
 10
936.214512
 20
780.476638
 40
412.293339
 50
291.307606
 51
304.219434
  0
ARC
  8
APS_GEOMETR�
 10
1563.957046
 20
324.394987
 40
412.293339
 50
163.780565
 51
176.692393
  0
ARC
  8
APS_GEOMETR�
 10
1047.063757
 20
456.856044
 40
151.31145
 50
314.093244
 51
8.42165
  0
ARC
  8
APS_GEOMETR�
 10
1221.921271
 20
329.814625
 40
151.31145
 50
99.57835
 51
153.906756
  0
ARC
  8
APS_GEOMETR�
 10
970.978155
 20
512.00072
 40
22.703532
 50
182.958381
 51
298.157971
  0
ARC
  8
APS_GEOMETR�
 10
852.725197
 20
520.879052
 40
132.164153
 50
321.27557
 51
347.371488
  0
ARC
  8
APS_GEOMETR�
 10
927.578882
 20
462.740368
 40
37.424733
 50
201.420596
 51
319.026123
  0
ARC
  8
APS_GEOMETR�
 10
907.970562
 20
455.109488
 40
16.384081
 50
313.922902
 51
133.922902
  0
ARC
  8
APS_GEOMETR�
 10
907.970562
 20
455.109488
 40
16.384081
 50
133.922902
 51
201.621359
  0
ARC
  8
APS_GEOMETR�
 10
926.242089
 20
471.37315
 40
28.901908
 50
256.175533
 51
76.175533
  0
ARC
  8
APS_GEOMETR�
 10
926.242089
 20
471.37315
 40
28.901908
 50
76.175533
 51
88.41813
  0
ARC
  8
APS_GEOMETR�
 10
855.086476
 20
551.869625
 40
88.546239
 50
324.351614
 51
8.623231
  0
ARC
  8
APS_GEOMETR�
 10
958.086839
 20
480.4787
 40
86.066235
 50
100.344827
 51
187.688327
  0
ARC
  8
APS_GEOMETR�
 10
809.330168
 20
428.441972
 40
75.297824
 50
32.558597
 51
81.506483
  0
ARC
  8
APS_GEOMETR�
 10
947.36572
 20
428.338317
 40
147.20311
 50
81.570626
 51
149.561223
  0
ARC
  8
APS_GEOMETR�
 10
1129.688849
 20
637.948019
 40
173.015647
 50
201.708842
 51
223.073107
  0
ARC
  8
APS_GEOMETR�
 10
951.647468
 20
663.570097
 40
152.777689
 50
268.746339
 51
289.762063
  0
ARC
  8
APS_GEOMETR�
 10
958.086839
 20
480.478699
 40
73.988688
 50
111.043307
 51
187.024315
  0
ARC
  8
APS_GEOMETR�
 10
907.970561
 20
455.109487
 40
28.461627
 50
5.593655
 51
145.009396
  0
ARC
  8
APS_GEOMETR�
 10
926.242088
 20
471.37315
 40
16.824362
 50
306.699617
 51
88.418127
  0
LINE
  8
APS_GEOMETR�
 10
926.706531
 11
898.570489
 20
488.1911
 21
488.968102
  0
ARC
  8
APS_GEOMETR�
 10
855.086477
 20
551.869626
 40
76.468693
 50
304.656221
 51
358.248983
  0
ARC
  8
APS_GEOMETR�
 10
996.664875
 20
647.46431
 40
79.349242
 50
273.70903
 51
306.422658
  0
ARC
  8
APS_GEOMETR�
 10
1160.699031
 20
661.890642
 40
140.704276
 50
213.801101
 51
241.025204
  0
ARC
  8
APS_GEOMETR�
 10
1075.329418
 20
399.149982
 40
140.704276
 50
82.974796
 51
110.1989
  0
ARC
  8
APS_GEOMETR�
 10
951.102579
 20
507.237989
 40
79.349242
 50
17.57734
 51
50.290969
  0
ARC
  8
APS_GEOMETR�
 10
1393.514409
 20
848.963488
 40
412.293339
 50
219.307606
 51
232.219434
  0
ARC
  8
APS_GEOMETR�
 10
1153.738093
 20
111.00788
 40
412.293339
 50
91.780565
 51
104.692393
  0
ARC
  8
APS_GEOMETR�
 10
1119.987234
 20
643.535328
 40
151.31145
 50
242.093244
 51
296.42165
  0
ARC
  8
APS_GEOMETR�
 10
1053.197609
 20
437.977993
 40
151.31145
 50
27.57835
 51
81.906756
  0
ARC
  8
APS_GEOMETR�
 10
1064.346261
 20
436.844211
 40
173.015647
 50
84.655606
 51
92.482342
  0
ARC
  8
APS_GEOMETR�
 10
1102.175608
 20
640.672102
 40
54.896195
 50
181.866078
 51
214.349494
  0
ARC
  8
APS_GEOMETR�
 10
918.773121
 20
677.989847
 40
134.352443
 50
343.078246
 51
26.025204
  0
ARC
  8
APS_GEOMETR�
 10
1132.684267
 20
833.72615
 40
134.352443
 50
226.08718
 51
269.034137
  0
ARC
  8
APS_GEOMETR�
 10
1111.865857
 20
647.72701
 40
54.896195
 50
37.341128
 51
70.246307
  0
ARC
  8
APS_GEOMETR�
 10
1317.748495
 20
620.914694
 40
173.015647
 50
159.67005
 51
167.53565
  0
ARC
  8
APS_GEOMETR�
 10
1122.892161
 20
644.583252
 40
29.30435
 50
27.814623
 51
110.057917
  0
ARC
  8
APS_GEOMETR�
 10
1114.985258
 20
666.239151
 40
6.25013
 50
110.057916
 51
226.220704
  0
ARC
  8
APS_GEOMETR�
 10
959.698784
 20
504.190736
 40
218.190459
 50
13.505088
 51
46.220704
  0
ARC
  8
APS_GEOMETR�
 10
1285.511714
 20
741.396241
 40
218.190459
 50
205.891679
 51
238.607296
  0
ARC
  8
APS_GEOMETR�
 10
1083.600202
 20
643.389511
 40
6.25013
 50
25.891694
 51
142.054466
  0
ARC
  8
APS_GEOMETR�
 10
1101.78066
 20
629.213193
 40
29.30435
 50
142.054468
 51
223.321501
  0
ARC
  8
APS_GEOMETR�
 10
824.030266
 20
435.209048
 40
412.293339
 50
19.780565
 51
32.692393
  0
ARC
  8
APS_GEOMETR�
 10
1320.064379
 20
631.86805
 40
151.31145
 50
170.093244
 51
224.42165
  0
ARC
  8
APS_GEOMETR�
 10
1103.928604
 20
631.868048
 40
151.31145
 50
315.578351
 51
9.906757
  0
ARC
  8
APS_GEOMETR�
 10
1599.962716
 20
435.209048
 40
412.293339
 50
147.307607
 51
160.219435
  0
ARC
  8
APS_GEOMETR�
 10
1322.212322
 20
629.213193
 40
29.30435
 50
316.678499
 51
37.945532
  0
ARC
  8
APS_GEOMETR�
 10
1340.39278
 20
643.389511
 40
6.25013
 50
37.945534
 51
154.108306
  0
ARC
  8
APS_GEOMETR�
 10
1138.481268
 20
741.396241
 40
218.190459
 50
301.392704
 51
334.108321
  0
ARC
  8
APS_GEOMETR�
 10
1464.294198
 20
504.190736
 40
218.190459
 50
133.779296
 51
166.494912
  0
ARC
  8
APS_GEOMETR�
 10
1309.007724
 20
666.239151
 40
6.25013
 50
313.779296
 51
69.942084
  0
ARC
  8
APS_GEOMETR�
 10
1301.100821
 20
644.583252
 40
29.30435
 50
69.942083
 51
152.185377
  0
ARC
  8
APS_GEOMETR�
 10
1106.244487
 20
620.914694
 40
173.015647
 50
12.46435
 51
20.32995
  0
ARC
  8
APS_GEOMETR�
 10
1312.127125
 20
647.72701
 40
54.896195
 50
109.753693
 51
142.658872
  0
ARC
  8
APS_GEOMETR�
 10
1291.308715
 20
833.72615
 40
134.352443
 50
270.965863
 51
313.91282
  0
ARC
  8
APS_GEOMETR�
 10
1505.21986
 20
677.989847
 40
134.352443
 50
153.974796
 51
196.921754
  0
ARC
  8
APS_GEOMETR�
 10
1321.817373
 20
640.672102
 40
54.896195
 50
325.650506
 51
358.133922
  0
ARC
  8
APS_GEOMETR�
 10
1359.646721
 20
436.844211
 40
173.015647
 50
87.517658
 51
95.344394
  0
ARC
  8
APS_GEOMETR�
 10
1030.478573
 20
848.963488
 40
412.293339
 50
307.780566
 51
320.692394
  0
ARC
  8
APS_GEOMETR�
 10
1270.254888
 20
111.00788
 40
412.293339
 50
75.307607
 51
88.219435
  0
ARC
  8
APS_GEOMETR�
 10
1304.005748
 20
643.535328
 40
151.31145
 50
243.57835
 51
297.906756
  0
ARC
  8
APS_GEOMETR�
 10
1370.795373
 20
437.977993
 40
151.31145
 50
98.093244
 51
152.42165
  0
ARC
  8
APS_GEOMETR�
 10
1275.071788
 20
732.937678
 40
22.703532
 50
313.842029
 51
69.041619
  0
ARC
  8
APS_GEOMETR�
 10
1303.170166
 20
848.146479
 40
132.164153
 50
264.628512
 51
290.724426
  0
ARC
  8
APS_GEOMETR�
 10
1335.332279
 20
758.990554
 40
37.424733
 50
292.973865
 51
50.579235
  0
ARC
  8
APS_GEOMETR�
 10
1348.648982
 20
775.281103
 40
16.384081
 50
50.378258
 51
230.378258
  0
ARC
  8
APS_GEOMETR�
 10
1348.648982
 20
775.281103
 40
16.384081
 50
230.378258
 51
298.077096
  0
ARC
  8
APS_GEOMETR�
 10
1327.535108
 20
762.929596
 40
28.901908
 50
163.58187
 51
343.58187
  0
ARC
  8
APS_GEOMETR�
 10
1327.535108
 20
762.929596
 40
28.901908
 50
343.58187
 51
355.824467
  0
ARC
  8
APS_GEOMETR�
 10
1272.966704
 20
855.477384
 40
88.546239
 50
243.376769
 51
287.648386
  0
ARC
  8
APS_GEOMETR�
 10
1309.034647
 20
735.457207
 40
86.066235
 50
64.311674
 51
151.655173
  0
ARC
  8
APS_GEOMETR�
 10
1404.492855
 20
860.852975
 40
75.297824
 50
170.493517
 51
219.441402
  0
ARC
  8
APS_GEOMETR�
 10
1361.936105
 20
729.541333
 40
147.20311
 50
102.438777
 51
170.429374
  0
ARC
  8
APS_GEOMETR�
 10
1106.244487
 20
620.914694
 40
173.015647
 50
28.926893
 51
50.291158
  0
ARC
  8
APS_GEOMETR�
 10
1136.894255
 20
798.159767
 40
152.777689
 50
322.237937
 51
343.253661
  0
ARC
  8
APS_GEOMETR�
 10
1309.034647
 20
735.457207
 40
73.988688
 50
64.975685
 51
140.956693
  0
ARC
  8
APS_GEOMETR�
 10
1348.648982
 20
775.281103
 40
28.461627
 50
106.990603
 51
246.406347
  0
ARC
  8
APS_GEOMETR�
 10
1327.535108
 20
762.929596
 40
16.824362
 50
163.581871
 51
305.300385
  0
LINE
  8
APS_GEOMETR�
 10
1311.396766
 11
1319.352309
 20
767.684917
 21
794.683991
  0
ARC
  8
APS_GEOMETR�
 10
1272.966703
 20
855.477383
 40
76.468693
 50
253.751017
 51
307.343779
  0
ARC
  8
APS_GEOMETR�
 10
1138.249676
 20
750.368708
 40
79.349242
 50
305.577341
 51
338.340753
  0
ARC
  8
APS_GEOMETR�
 10
1073.840077
 20
598.820934
 40
140.704276
 50
10.920172
 51
38.1989
  0
ARC
  8
APS_GEOMETR�
 10
1350.152905
 20
598.820934
 40
140.704276
 50
141.8011
 51
169.079828
  0
ARC
  8
APS_GEOMETR�
 10
1285.743306
 20
750.368708
 40
79.349242
 50
201.659247
 51
234.422659
  0
ARC
  8
APS_GEOMETR�
 10
1114.958335
 20
735.457207
 40
73.988688
 50
39.043307
 51
115.024315
  0
ARC
  8
APS_GEOMETR�
 10
1075.343999
 20
775.281103
 40
28.461627
 50
293.593653
 51
73.009397
  0
ARC
  8
APS_GEOMETR�
 10
1096.457874
 20
762.929596
 40
16.824362
 50
234.699615
 51
16.418129
  0
LINE
  8
APS_GEOMETR�
 10
1112.596216
 11
1104.640673
 20
767.684917
 21
794.683991
  0
ARC
  8
APS_GEOMETR�
 10
1151.026278
 20
855.477383
 40
76.468693
 50
232.656221
 51
286.248983
  0
ARC
  8
APS_GEOMETR�
 10
1148.921194
 20
732.937678
 40
22.703532
 50
110.958381
 51
226.157971
  0
ARC
  8
APS_GEOMETR�
 10
1120.822816
 20
848.146479
 40
132.164153
 50
249.275574
 51
275.371488
  0
ARC
  8
APS_GEOMETR�
 10
1088.660703
 20
758.990554
 40
37.424733
 50
129.420765
 51
247.026135
  0
ARC
  8
APS_GEOMETR�
 10
1075.344
 20
775.281103
 40
16.384081
 50
241.922904
 51
61.922904
  0
ARC
  8
APS_GEOMETR�
 10
1075.344
 20
775.281103
 40
16.384081
 50
61.922904
 51
129.621742
  0
ARC
  8
APS_GEOMETR�
 10
1096.457874
 20
762.929596
 40
28.901908
 50
184.175533
 51
4.175533
  0
ARC
  8
APS_GEOMETR�
 10
1096.457874
 20
762.929596
 40
28.901908
 50
4.175533
 51
16.41813
  0
ARC
  8
APS_GEOMETR�
 10
1151.026278
 20
855.477384
 40
88.546239
 50
252.351614
 51
296.623231
  0
ARC
  8
APS_GEOMETR�
 10
1114.958335
 20
735.457207
 40
86.066235
 50
28.344827
 51
115.688326
  0
ARC
  8
APS_GEOMETR�
 10
1019.500127
 20
860.852975
 40
75.297824
 50
320.558598
 51
9.506483
  0
ARC
  8
APS_GEOMETR�
 10
1062.056877
 20
729.541333
 40
147.20311
 50
9.570626
 51
77.561223
  0
ARC
  8
APS_GEOMETR�
 10
1317.748495
 20
620.914694
 40
173.015647
 50
129.708842
 51
151.073107
  0
ARC
  8
APS_GEOMETR�
 10
1287.098727
 20
798.159767
 40
152.777689
 50
196.746339
 51
217.762063
  0
ARC
  8
APS_GEOMETR�
 10
957.325209
 20
416.986472
 40
161.610507
 50
153.233947
 51
197.190363
  0
ARC
  8
APS_GEOMETR�
 10
787.928308
 20
383.675263
 40
20.833767
 50
316.076409
 51
345.11356
  0
ARC
  8
APS_GEOMETR�
 10
824.953974
 20
373.832878
 40
17.477752
 50
69.7123
 51
165.11356
  0
ARC
  8
APS_GEOMETR�
 10
852.760726
 20
402.050267
 40
24.753179
 50
109.825912
 51
208.533461
  0
ARC
  8
APS_GEOMETR�
 10
869.086151
 20
429.335652
 40
25.042223
 50
189.189822
 51
316.655068
  0
ARC
  8
APS_GEOMETR�
 10
947.419051
 20
544.01003
 40
144.922207
 50
201.980249
 51
245.489977
  0
ARC
  8
APS_GEOMETR�
 10
570.824188
 20
330.320602
 40
292.608356
 50
292.951847
 51
330.042795
  0
ARC
  8
APS_GEOMETR�
 10
815.234618
 20
449.421284
 40
409.812235
 50
251.460143
 51
268.347133
  0
ARC
  8
APS_GEOMETR�
 10
818.99746
 20
470.017849
 40
430.520415
 50
267.925624
 51
284.263716
  0
ARC
  8
APS_GEOMETR�
 10
853.342186
 20
346.457389
 40
302.32041
 50
283.725005
 51
291.622554
  0
ARC
  8
APS_GEOMETR�
 10
1211.996492
 20
500.010408
 40
500.010408
 50
219.167986
 51
240.363617
  0
ARC
  8
APS_GEOMETR�
 10
1003.956312
 20
130.291119
 40
50.666242
 50
158.701413
 51
210.785012
  0
ARC
  8
APS_GEOMETR�
 10
1211.996605
 20
500.010564
 40
468.856181
 50
230.449461
 51
237.550539
  0
ARC
  8
APS_GEOMETR�
 10
924.660503
 20
187.902896
 40
50.666242
 50
257.214988
 51
309.298587
  0
ARC
  8
APS_GEOMETR�
 10
1211.996492
 20
500.010408
 40
468.759758
 50
239.790944
 51
268.603494
  0
ARC
  8
APS_GEOMETR�
 10
1200.674604
 20
35.588635
 40
4.2
 50
268.603494
 51
85.959353
  0
ARC
  8
APS_GEOMETR�
 10
1214.560351
 20
232.15996
 40
192.861157
 50
187.329187
 51
265.959353
  0
LINE
  8
APS_GEOMETR�
 10
1023.274949
 11
1000.980847
 20
207.556685
 21
189.382326
  0
ARC
  8
APS_GEOMETR�
 10
1002.184196
 20
172.317162
 40
17.107539
 50
16.080772
 51
94.033533
  0
LINE
  8
APS_GEOMETR�
 10
1018.622354
 11
994.471515
 20
177.055817
 21
168.171041
  0
ARC
  8
APS_GEOMETR�
 10
989.468503
 20
115.83239
 40
52.577224
 50
43.274233
 51
84.53973
  0
ARC
  8
APS_GEOMETR�
 10
1209.958016
 20
232.155446
 40
199.111288
 50
203.778433
 51
228.715793
  0
ARC
  8
APS_GEOMETR�
 10
1072.399767
 20
75.489108
 40
9.375195
 50
251.797411
 51
48.715793
  0
ARC
  8
APS_GEOMETR�
 10
1211.996487
 20
500.01041
 40
456.259497
 50
248.961403
 51
251.797416
  0
ARC
  8
APS_GEOMETR�
 10
1063.134936
 20
108.761882
 40
37.681866
 50
188.946231
 51
246.651578
  0
ARC
  8
APS_GEOMETR�
 10
1008.498015
 20
116.430835
 40
22.051221
 50
243.760282
 51
322.155863
  0
ARC
  8
APS_GEOMETR�
 10
1211.996491
 20
500.010408
 40
456.259497
 50
240.119254
 51
242.135445
  0
ARC
  8
APS_GEOMETR�
 10
991.795361
 20
113.997769
 40
11.938554
 50
91.070589
 51
233.473825
  0
ARC
  8
APS_GEOMETR�
 10
1001.023699
 20
134.115163
 40
12.50026
 50
220.878741
 51
40.878741
  0
ARC
  8
APS_GEOMETR�
 10
1001.023699
 20
134.115163
 40
12.50026
 50
40.878741
 51
65.074688
  0
LINE
  8
APS_GEOMETR�
 10
1006.291765
 11
995.489133
 20
145.451123
 21
150.644295
  0
ARC
  8
APS_GEOMETR�
 10
991.427166
 20
142.194755
 40
9.375196
 50
64.3249
 51
115.439527
  0
ARC
  8
APS_GEOMETR�
 10
1002.668146
 20
118.56341
 40
35.543881
 50
115.439537
 51
221.717503
  0
ARC
  8
APS_GEOMETR�
 10
1212.259193
 20
232.147818
 40
161.610507
 50
225.233947
 51
269.190363
  0
ARC
  8
APS_GEOMETR�
 10
1191.593514
 20
60.748062
 40
20.833767
 50
28.076409
 51
57.11356
  0
ARC
  8
APS_GEOMETR�
 10
1212.395739
 20
92.920098
 40
17.477752
 50
141.7123
 51
237.11356
  0
ARC
  8
APS_GEOMETR�
 10
1194.152165
 20
128.085544
 40
24.753179
 50
181.825912
 51
280.533461
  0
ARC
  8
APS_GEOMETR�
 10
1173.247056
 20
152.043593
 40
25.042223
 50
261.189822
 51
28.655068
  0
ARC
  8
APS_GEOMETR�
 10
1088.391439
 20
261.97894
 40
144.922207
 50
273.980249
 51
317.489977
  0
ARC
  8
APS_GEOMETR�
 10
1211.733789
 20
232.147818
 40
161.610507
 50
270.809637
 51
314.766053
  0
ARC
  8
APS_GEOMETR�
 10
1232.399468
 20
60.748062
 40
20.833767
 50
122.88644
 51
151.923591
  0
ARC
  8
APS_GEOMETR�
 10
1211.597243
 20
92.920098
 40
17.477752
 50
302.88644
 51
38.2877
  0
ARC
  8
APS_GEOMETR�
 10
1229.840817
 20
128.085544
 40
24.753179
 50
259.466539
 51
358.174088
  0
ARC
  8
APS_GEOMETR�
 10
1250.745926
 20
152.043593
 40
25.042223
 50
151.344932
 51
278.810178
  0
ARC
  8
APS_GEOMETR�
 10
1335.601542
 20
261.97894
 40
144.922207
 50
222.510023
 51
266.019751
  0
ARC
  8
APS_GEOMETR�
 10
1466.667773
 20
416.986472
 40
161.610507
 50
342.809637
 51
26.766053
  0
ARC
  8
APS_GEOMETR�
 10
1636.064674
 20
383.675263
 40
20.833767
 50
194.88644
 51
223.923591
  0
ARC
  8
APS_GEOMETR�
 10
1599.039008
 20
373.832878
 40
17.477752
 50
14.88644
 51
110.2877
  0
ARC
  8
APS_GEOMETR�
 10
1571.232256
 20
402.050267
 40
24.753179
 50
331.466539
 51
70.174088
  0
ARC
  8
APS_GEOMETR�
 10
1554.906831
 20
429.335652
 40
25.042223
 50
223.344932
 51
350.810178
  0
ARC
  8
APS_GEOMETR�
 10
1476.57393
 20
544.01003
 40
144.922207
 50
294.510023
 51
338.019751
  0
ARC
  8
APS_GEOMETR�
 10
1782.814635
 20
730.082877
 40
300.12946
 50
255.627165
 51
277.225771
  0
ARC
  8
APS_GEOMETR�
 10
1211.996492
 20
500.010408
 40
500.010408
 50
353.031484
 51
6.968516
  0
ARC
  8
APS_GEOMETR�
 10
1782.814635
 20
269.937939
 40
300.12946
 50
82.774229
 51
104.372835
  0
ARC
  8
APS_GEOMETR�
 10
1791.882032
 20
322.507507
 40
246.8484
 50
63.765878
 51
83.327403
  0
ARC
  8
APS_GEOMETR�
 10
1843.986395
 20
423.58357
 40
133.167328
 50
35.023742
 51
64.651244
  0
ARC
  8
APS_GEOMETR�
 10
1843.986395
 20
576.437246
 40
133.167328
 50
295.348756
 51
324.976258
  0
ARC
  8
APS_GEOMETR�
 10
1791.882032
 20
677.513309
 40
246.8484
 50
276.672597
 51
296.234122
  0
ARC
  8
APS_GEOMETR�
 10
2007.488924
 20
-52.993552
 40
536.366444
 50
75.958174
 51
91.047682
  0
ARC
  8
APS_GEOMETR�
 10
2045.98681
 20
89.245621
 40
389.047128
 50
57.663565
 51
76.375843
  0
ARC
  8
APS_GEOMETR�
 10
2141.781474
 20
236.403093
 40
213.482584
 50
30.258561
 51
58.260998
  0
ARC
  8
APS_GEOMETR�
 10
2314.741459
 20
66.433958
 40
277.779237
 50
87.640134
 51
102.625113
  0
ARC
  8
APS_GEOMETR�
 10
2297.970745
 20
134.631087
 40
207.570582
 50
102.222298
 51
120.437709
  0
ARC
  8
APS_GEOMETR�
 10
2129.578848
 20
353.85301
 40
74.96396
 50
327.517651
 51
14.710121
  0
ARC
  8
APS_GEOMETR�
 10
2102.064708
 20
341.658842
 40
104.783077
 50
17.339993
 51
54.919508
  0
ARC
  8
APS_GEOMETR�
 10
2034.215506
 20
251.105887
 40
217.909224
 50
54.004225
 51
76.935213
  0
ARC
  8
APS_GEOMETR�
 10
2149.152931
 20
419.578082
 40
78.941694
 50
146.303396
 51
181.840468
  0
ARC
  8
APS_GEOMETR�
 10
2150.308001
 20
420.451282
 40
80.12857
 50
182.43801
 51
217.618194
  0
ARC
  8
APS_GEOMETR�
 10
2074.622541
 20
263.385527
 40
108.843236
 50
83.555866
 51
98.068662
  0
ARC
  8
APS_GEOMETR�
 10
2071.502765
 20
281.572155
 40
90.400344
 50
97.728803
 51
114.163207
  0
ARC
  8
APS_GEOMETR�
 10
2056.564157
 20
313.645694
 40
55.024339
 50
113.641684
 51
136.569425
  0
ARC
  8
APS_GEOMETR�
 10
2038.010164
 20
331.032319
 40
29.597692
 50
136.319502
 51
171.129052
  0
ARC
  8
APS_GEOMETR�
 10
2034.047415
 20
332.498944
 40
25.469966
 50
173.014483
 51
211.547213
  0
ARC
  8
APS_GEOMETR�
 10
2048.953049
 20
342.050637
 40
43.171492
 50
212.000313
 51
238.988722
  0
ARC
  8
APS_GEOMETR�
 10
2067.257929
 20
371.007466
 40
77.424027
 50
238.41909
 51
256.651793
  0
ARC
  8
APS_GEOMETR�
 10
2074.445906
 20
398.16374
 40
105.508636
 50
256.258482
 51
271.076822
  0
ARC
  8
APS_GEOMETR�
 10
2088.40744
 20
306.878699
 40
18.581455
 50
195.075032
 51
229.859848
  0
ARC
  8
APS_GEOMETR�
 10
2084.219247
 20
305.24685
 40
14.121357
 50
151.206455
 51
193.101092
  0
ARC
  8
APS_GEOMETR�
 10
2092.535357
 20
300.296074
 40
23.79617
 50
120.967698
 51
150.404228
  0
ARC
  8
APS_GEOMETR�
 10
2103.594787
 20
282.908102
 40
44.399534
 50
102.303394
 51
121.659307
  0
ARC
  8
APS_GEOMETR�
 10
2107.510826
 20
267.281639
 40
60.5036
 50
87.044119
 51
102.773371
  0
ARC
  8
APS_GEOMETR�
 10
2108.103008
 20
271.384567
 40
56.376874
 50
70.93837
 51
87.430131
  0
ARC
  8
APS_GEOMETR�
 10
2115.015198
 20
290.298561
 40
36.244307
 50
49.320813
 51
71.501392
  0
ARC
  8
APS_GEOMETR�
 10
2126.102517
 20
303.132137
 40
19.284772
 50
19.703962
 51
49.448818
  0
ARC
  8
APS_GEOMETR�
 10
2131.1643
 20
305.229329
 40
13.814875
 50
341.337731
 51
18.593373
  0
ARC
  8
APS_GEOMETR�
 10
2126.08559
 20
307.338288
 40
19.305
 50
310.506943
 51
340.230802
  0
ARC
  8
APS_GEOMETR�
 10
2085.68431
 20
351.208845
 40
78.93453
 50
283.9551
 51
312.120394
  0
ARC
  8
APS_GEOMETR�
 10
2071.898364
 20
396.416379
 40
126.156717
 50
264.541934
 51
285.080017
  0
ARC
  8
APS_GEOMETR�
 10
2077.503837
 20
451.332091
 40
181.356974
 50
244.034314
 51
264.429265
  0
ARC
  8
APS_GEOMETR�
 10
2038.260889
 20
374.641069
 40
95.240809
 50
213.592317
 51
245.059343
  0
ARC
  8
APS_GEOMETR�
 10
2001.372763
 20
349.256513
 40
50.473767
 50
164.33064
 51
212.757079
  0
ARC
  8
APS_GEOMETR�
 10
1970.031429
 20
453.676866
 40
92.413601
 50
259.23783
 51
274.370121
  0
ARC
  8
APS_GEOMETR�
 10
1971.240451
 20
444.657893
 40
83.330336
 50
274.013769
 51
290.232077
  0
ARC
  8
APS_GEOMETR�
 10
1982.137842
 20
416.510031
 40
53.152901
 50
289.70299
 51
311.629421
  0
ARC
  8
APS_GEOMETR�
 10
1999.190387
 20
397.669893
 40
27.743485
 50
311.153695
 51
345.120234
  0
ARC
  8
APS_GEOMETR�
 10
2005.307234
 20
395.348716
 40
21.246345
 50
346.934325
 51
27.625224
  0
ARC
  8
APS_GEOMETR�
 10
2005.022248
 20
388.795591
 40
25.184899
 50
40.645192
 51
74.273076
  0
ARC
  8
APS_GEOMETR�
 10
1982.632526
 20
427.750816
 40
32.711777
 50
299.6258
 51
333.270365
  0
ARC
  8
APS_GEOMETR�
 10
1965.668121
 20
455.336415
 40
65.086717
 50
279.437224
 51
300.603162
  0
ARC
  8
APS_GEOMETR�
 10
1958.404196
 20
526.135607
 40
136.19124
 50
263.269908
 51
277.567672
  0
ARC
  8
APS_GEOMETR�
 10
1955.501157
 20
507.045353
 40
116.894103
 50
247.748384
 51
263.586451
  0
ARC
  8
APS_GEOMETR�
 10
1938.596879
 20
467.353462
 40
73.759416
 50
226.660443
 51
248.226193
  0
ARC
  8
APS_GEOMETR�
 10
1836.25953
 20
616.535603
 40
209.316332
 50
284.303901
 51
320.460677
  0
ARC
  8
APS_GEOMETR�
 10
2007.488924
 20
1053.014368
 40
536.366444
 50
268.952318
 51
284.041826
  0
ARC
  8
APS_GEOMETR�
 10
2045.98681
 20
910.775195
 40
389.047128
 50
283.624157
 51
302.336435
  0
ARC
  8
APS_GEOMETR�
 10
2141.781474
 20
763.617724
 40
213.482584
 50
301.739002
 51
329.741439
  0
ARC
  8
APS_GEOMETR�
 10
2314.741459
 20
933.586858
 40
277.779237
 50
257.374887
 51
272.359866
  0
ARC
  8
APS_GEOMETR�
 10
2297.970745
 20
865.389729
 40
207.570582
 50
239.562291
 51
257.777702
  0
ARC
  8
APS_GEOMETR�
 10
2129.578848
 20
646.167806
 40
74.96396
 50
345.289879
 51
32.482349
  0
ARC
  8
APS_GEOMETR�
 10
2102.064708
 20
658.361974
 40
104.783077
 50
305.080492
 51
342.660007
  0
ARC
  8
APS_GEOMETR�
 10
2034.215506
 20
748.914929
 40
217.909224
 50
283.064787
 51
305.995775
  0
ARC
  8
APS_GEOMETR�
 10
2149.152931
 20
580.442734
 40
78.941694
 50
178.159532
 51
213.696604
  0
ARC
  8
APS_GEOMETR�
 10
2150.308001
 20
579.569535
 40
80.12857
 50
142.381806
 51
177.56199
  0
ARC
  8
APS_GEOMETR�
 10
2074.622541
 20
736.635289
 40
108.843236
 50
261.931338
 51
276.444134
  0
ARC
  8
APS_GEOMETR�
 10
2071.502765
 20
718.448661
 40
90.400344
 50
245.836793
 51
262.271197
  0
ARC
  8
APS_GEOMETR�
 10
2056.564157
 20
686.375122
 40
55.024339
 50
223.430575
 51
246.358316
  0
ARC
  8
APS_GEOMETR�
 10
2038.010164
 20
668.988497
 40
29.597692
 50
188.870948
 51
223.680498
  0
ARC
  8
APS_GEOMETR�
 10
2034.047415
 20
667.521872
 40
25.469966
 50
148.452787
 51
186.985517
  0
ARC
  8
APS_GEOMETR�
 10
2048.953049
 20
657.970179
 40
43.171492
 50
121.011278
 51
147.999687
  0
ARC
  8
APS_GEOMETR�
 10
2067.257929
 20
629.01335
 40
77.424027
 50
103.348207
 51
121.58091
  0
ARC
  8
APS_GEOMETR�
 10
2074.445906
 20
601.857076
 40
105.508636
 50
88.923178
 51
103.741518
  0
ARC
  8
APS_GEOMETR�
 10
2088.40744
 20
693.142117
 40
18.581455
 50
130.140152
 51
164.924968
  0
ARC
  8
APS_GEOMETR�
 10
2084.219247
 20
694.773966
 40
14.121357
 50
166.898908
 51
208.793545
  0
ARC
  8
APS_GEOMETR�
 10
2092.535357
 20
699.724742
 40
23.79617
 50
209.595772
 51
239.032302
  0
ARC
  8
APS_GEOMETR�
 10
2103.594787
 20
717.112714
 40
44.399534
 50
238.340693
 51
257.696606
  0
ARC
  8
APS_GEOMETR�
 10
2107.510826
 20
732.739177
 40
60.5036
 50
257.226629
 51
272.955881
  0
ARC
  8
APS_GEOMETR�
 10
2108.103008
 20
728.636249
 40
56.376874
 50
272.569869
 51
289.06163
  0
ARC
  8
APS_GEOMETR�
 10
2115.015198
 20
709.722255
 40
36.244307
 50
288.498608
 51
310.679187
  0
ARC
  8
APS_GEOMETR�
 10
2126.102517
 20
696.888679
 40
19.284772
 50
310.551182
 51
340.296038
  0
ARC
  8
APS_GEOMETR�
 10
2131.1643
 20
694.791487
 40
13.814875
 50
341.406627
 51
18.662269
  0
ARC
  8
APS_GEOMETR�
 10
2126.08559
 20
692.682528
 40
19.305
 50
19.769198
 51
49.493057
  0
ARC
  8
APS_GEOMETR�
 10
2085.68431
 20
648.811971
 40
78.93453
 50
47.879606
 51
76.0449
  0
ARC
  8
APS_GEOMETR�
 10
2071.898364
 20
603.604437
 40
126.156717
 50
74.919983
 51
95.458066
  0
ARC
  8
APS_GEOMETR�
 10
2077.503837
 20
548.688725
 40
181.356974
 50
95.570735
 51
115.965686
  0
ARC
  8
APS_GEOMETR�
 10
2038.260889
 20
625.379747
 40
95.240809
 50
114.940657
 51
146.407683
  0
ARC
  8
APS_GEOMETR�
 10
2001.372763
 20
650.764303
 40
50.473767
 50
147.242921
 51
195.66936
  0
ARC
  8
APS_GEOMETR�
 10
1970.031429
 20
546.34395
 40
92.413601
 50
85.629879
 51
100.76217
  0
ARC
  8
APS_GEOMETR�
 10
1971.240451
 20
555.362923
 40
83.330336
 50
69.767923
 51
85.986231
  0
ARC
  8
APS_GEOMETR�
 10
1982.137842
 20
583.510785
 40
53.152901
 50
48.370579
 51
70.29701
  0
ARC
  8
APS_GEOMETR�
 10
1999.190387
 20
602.350923
 40
27.743485
 50
14.879766
 51
48.846305
  0
ARC
  8
APS_GEOMETR�
 10
2005.307234
 20
604.6721
 40
21.246345
 50
332.374776
 51
13.065675
  0
ARC
  8
APS_GEOMETR�
 10
2005.022248
 20
611.225225
 40
25.184899
 50
285.726924
 51
319.354808
  0
ARC
  8
APS_GEOMETR�
 10
1982.632526
 20
572.27
 40
32.711777
 50
26.729635
 51
60.3742
  0
ARC
  8
APS_GEOMETR�
 10
1965.668121
 20
544.684401
 40
65.086717
 50
59.396838
 51
80.562776
  0
ARC
  8
APS_GEOMETR�
 10
1958.404196
 20
473.885209
 40
136.19124
 50
82.432328
 51
96.730092
  0
ARC
  8
APS_GEOMETR�
 10
1955.501157
 20
492.975463
 40
116.894103
 50
96.413549
 51
112.251616
  0
ARC
  8
APS_GEOMETR�
 10
1938.596879
 20
532.667354
 40
73.759416
 50
111.773807
 51
133.339557
  0
ARC
  8
APS_GEOMETR�
 10
1836.25953
 20
383.485213
 40
209.316332
 50
39.539323
 51
75.696099
  0
ARC
  8
APS_GEOMETR�
 10
2024.751519
 20
-5.318565
 40
518.660058
 50
56.124377
 51
76.98142
  0
ARC
  8
APS_GEOMETR�
 10
2260.192817
 20
537.511058
 40
124.380634
 50
295.55533
 51
320.739178
  0
ARC
  8
APS_GEOMETR�
 10
2304.503551
 20
501.321151
 40
67.169186
 50
320.721056
 51
358.881857
  0
ARC
  8
APS_GEOMETR�
 10
2304.503551
 20
498.699666
 40
67.169186
 50
1.118143
 51
39.278944
  0
ARC
  8
APS_GEOMETR�
 10
2260.192817
 20
462.509758
 40
124.380634
 50
39.260822
 51
64.44467
  0
ARC
  8
APS_GEOMETR�
 10
2024.751519
 20
1005.339381
 40
518.660058
 50
283.01858
 51
303.875623
  0
ARC
  8
APS_GEOMETR�
 10
2112.206533
 20
646.003368
 40
64.744702
 50
350.472361
 51
31.30625
  0
ARC
  8
APS_GEOMETR�
 10
2098.130746
 20
651.284707
 40
79.552609
 50
312.882708
 51
348.398657
  0
ARC
  8
APS_GEOMETR�
 10
2046.896788
 20
704.761096
 40
153.60635
 50
290.512662
 51
313.312012
  0
ARC
  8
APS_GEOMETR�
 10
2163.143048
 20
580.175611
 40
65.330528
 50
153.217198
 51
197.16572
  0
ARC
  8
APS_GEOMETR�
 10
2201.009056
 20
558.719731
 40
108.822635
 50
121.009693
 51
152.116032
  0
LINE
  8
APS_GEOMETR�
 10
2144.945476
 11
2081.729378
 20
651.989453
 21
644.817817
  0
ARC
  8
APS_GEOMETR�
 10
2074.617218
 20
707.80175
 40
63.384214
 50
262.180276
 51
276.442563
  0
ARC
  8
APS_GEOMETR�
 10
2072.923856
 20
697.657117
 40
53.104356
 50
246.444604
 51
262.50112
  0
ARC
  8
APS_GEOMETR�
 10
2064.586436
 20
679.234978
 40
32.886525
 50
224.792969
 51
246.933402
  0
ARC
  8
APS_GEOMETR�
 10
2053.795069
 20
668.651834
 40
17.772271
 50
191.591146
 51
225.091575
  0
ARC
  8
APS_GEOMETR�
 10
2050.722495
 20
667.580813
 40
14.553569
 50
151.544637
 51
189.890881
  0
ARC
  8
APS_GEOMETR�
 10
2058.582231
 20
663.025754
 40
23.635555
 50
123.271225
 51
150.914844
  0
ARC
  8
APS_GEOMETR�
 10
2080.578861
 20
702.66412
 40
40.21842
 50
209.618875
 51
236.704948
  0
ARC
  8
APS_GEOMETR�
 10
2098.582751
 20
728.902381
 40
72.035932
 50
236.191822
 51
254.507097
  0
ARC
  8
APS_GEOMETR�
 10
2107.043487
 20
756.924017
 40
101.301588
 50
254.129168
 51
268.704937
  0
ARC
  8
APS_GEOMETR�
 10
2107.63408
 20
760.311636
 40
104.70295
 50
268.423731
 51
282.680787
  0
ARC
  8
APS_GEOMETR�
 10
2113.673487
 20
735.643955
 40
79.312629
 50
282.336149
 51
299.507574
  0
ARC
  8
APS_GEOMETR�
 10
2130.466857
 20
706.804404
 40
45.944289
 50
298.995621
 51
323.763003
  0
ARC
  8
APS_GEOMETR�
 10
2254.556509
 20
776.551952
 40
88.713651
 50
209.412535
 51
236.313956
  0
ARC
  8
APS_GEOMETR�
 10
2104.812715
 20
409.747145
 40
331.26118
 50
52.511978
 51
77.36413
  0
ARC
  8
APS_GEOMETR�
 10
2313.596748
 20
896.050422
 40
223.569285
 50
253.687423
 51
268.159625
  0
ARC
  8
APS_GEOMETR�
 10
2294.278775
 20
833.678734
 40
158.285767
 50
235.818921
 51
254.057187
  0
ARC
  8
APS_GEOMETR�
 10
2265.38706
 20
828.251995
 40
8.066701
 50
0.838542
 51
35.712767
  0
ARC
  8
APS_GEOMETR�
 10
2260.720327
 20
824.858246
 40
13.836912
 50
35.843165
 51
60.092172
  0
ARC
  8
APS_GEOMETR�
 10
2255.641113
 20
816.416735
 40
23.687577
 50
59.623356
 51
76.531686
  0
ARC
  8
APS_GEOMETR�
 10
2253.606702
 20
808.687944
 40
31.678149
 50
76.209073
 51
90.127108
  0
ARC
  8
APS_GEOMETR�
 10
2253.46615
 20
808.687944
 40
31.678149
 50
89.872892
 51
103.790927
  0
ARC
  8
APS_GEOMETR�
 10
2251.431739
 20
816.416735
 40
23.687577
 50
103.468314
 51
120.376644
  0
ARC
  8
APS_GEOMETR�
 10
2246.352524
 20
824.858246
 40
13.836912
 50
119.907828
 51
144.156835
  0
ARC
  8
APS_GEOMETR�
 10
2241.685792
 20
828.251995
 40
8.066701
 50
144.287233
 51
179.161458
  0
ARC
  8
APS_GEOMETR�
 10
2241.685792
 20
828.488104
 40
8.066701
 50
180.838542
 51
215.712767
  0
ARC
  8
APS_GEOMETR�
 10
2246.352524
 20
831.881853
 40
13.836912
 50
215.843165
 51
240.092172
  0
ARC
  8
APS_GEOMETR�
 10
2251.431739
 20
840.323365
 40
23.687577
 50
239.623356
 51
256.531686
  0
ARC
  8
APS_GEOMETR�
 10
2253.46615
 20
848.052155
 40
31.678149
 50
256.209073
 51
270.127108
  0
ARC
  8
APS_GEOMETR�
 10
2253.606702
 20
848.052155
 40
31.678149
 50
269.872892
 51
283.790927
  0
ARC
  8
APS_GEOMETR�
 10
2255.641113
 20
840.323365
 40
23.687577
 50
283.468314
 51
300.376644
  0
ARC
  8
APS_GEOMETR�
 10
2260.720327
 20
831.881853
 40
13.836912
 50
299.907828
 51
324.156835
  0
ARC
  8
APS_GEOMETR�
 10
2265.38706
 20
828.488104
 40
8.066701
 50
324.287233
 51
359.161458
  0
ARC
  8
APS_GEOMETR�
 10
2191.911402
 20
728.257409
 40
156.520376
 50
12.738696
 51
46.080887
  0
ARC
  8
APS_GEOMETR�
 10
2203.854837
 20
732.229865
 40
144.00032
 50
336.97002
 51
12.244876
  0
ARC
  8
APS_GEOMETR�
 10
2095.036416
 20
373.87653
 40
386.602071
 50
51.371774
 51
84.383297
  0
ARC
  8
APS_GEOMETR�
 10
2168.552495
 20
721.165764
 40
51.729469
 50
110.580671
 51
133.606905
  0
ARC
  8
APS_GEOMETR�
 10
2180.442097
 20
691.901687
 40
83.309633
 50
94.435792
 51
111.160936
  0
ARC
  8
APS_GEOMETR�
 10
2181.866335
 20
681.654404
 40
93.638477
 50
79.354434
 51
94.819707
  0
ARC
  8
APS_GEOMETR�
 10
2186.337675
 20
702.487553
 40
72.339949
 50
61.401198
 51
79.786741
  0
ARC
  8
APS_GEOMETR�
 10
2202.118738
 20
730.456458
 40
40.232188
 50
34.800903
 51
62.067262
  0
ARC
  8
APS_GEOMETR�
 10
2217.153443
 20
803.652986
 40
53.362971
 50
289.715007
 51
311.374405
  0
ARC
  8
APS_GEOMETR�
 10
2234.082884
 20
784.782499
 40
28.013423
 50
310.90192
 51
344.321728
  0
ARC
  8
APS_GEOMETR�
 10
2240.512729
 20
782.319184
 40
21.166629
 50
346.038409
 51
26.437704
  0
ARC
  8
APS_GEOMETR�
 10
2229.22051
 20
776.122795
 40
34.040665
 50
27.314312
 51
56.618074
  0
ARC
  8
APS_GEOMETR�
 10
2253.525719
 20
869.883736
 40
65.573713
 50
265.122504
 51
279.563348
  0
ARC
  8
APS_GEOMETR�
 10
2255.969272
 20
857.284632
 40
52.744687
 50
279.219641
 51
295.927388
  0
ARC
  8
APS_GEOMETR�
 10
2265.544954
 20
838.250533
 40
31.440932
 50
295.399693
 51
319.038646
  0
ARC
  8
APS_GEOMETR�
 10
2276.337186
 20
828.932072
 40
17.182484
 50
318.91196
 51
354.424931
  0
ARC
  8
APS_GEOMETR�
 10
2315.022202
 20
824.874345
 40
21.715559
 50
132.039503
 51
173.685374
  0
ARC
  8
APS_GEOMETR�
 10
2162.451054
 20
773.223119
 40
86.402811
 50
92.084036
 51
107.762908
  0
ARC
  8
APS_GEOMETR�
 10
2163.169528
 20
768.344364
 40
91.306066
 50
77.313483
 51
92.42326
  0
ARC
  8
APS_GEOMETR�
 10
2168.773179
 20
791.002003
 40
67.972703
 50
59.313511
 51
77.727236
  0
ARC
  8
APS_GEOMETR�
 10
2184.59552
 20
816.873555
 40
37.651262
 50
32.546948
 51
59.927533
  0
ARC
  8
APS_GEOMETR�
 10
2238.915082
 20
821.615387
 40
27.397254
 50
119.57913
 51
145.509608
  0
ARC
  8
APS_GEOMETR�
 10
2249.623419
 20
803.696301
 40
48.2692
 50
102.403453
 51
120.134016
  0
ARC
  8
APS_GEOMETR�
 10
2253.48152
 20
788.108703
 40
64.323041
 50
88.149263
 51
102.777504
  0
ARC
  8
APS_GEOMETR�
 10
2253.891844
 20
790.628884
 40
61.791798
 50
73.427245
 51
88.454065
  0
ARC
  8
APS_GEOMETR�
 10
2292.764707
 20
921.702258
 40
74.924487
 50
253.525423
 51
271.593276
  0
ARC
  8
APS_GEOMETR�
 10
2024.123495
 20
542.05937
 40
407.630567
 50
48.383491
 51
83.025052
  0
ARC
  8
APS_GEOMETR�
 10
1973.162553
 20
856.419452
 40
135.049224
 50
8.06216
 51
41.936195
  0
ARC
  8
APS_GEOMETR�
 10
1979.891756
 20
858.580653
 40
128.08901
 50
332.419657
 51
7.527128
  0
ARC
  8
APS_GEOMETR�
 10
2092.174725
 20
887.999885
 40
88.732225
 50
270.80738
 51
286.840479
  0
ARC
  8
APS_GEOMETR�
 10
2101.064176
 20
860.487428
 40
59.826708
 50
286.325569
 51
307.209551
  0
ARC
  8
APS_GEOMETR�
 10
2118.717109
 20
837.797318
 40
31.082189
 50
306.58671
 51
339.032493
  0
ARC
  8
APS_GEOMETR�
 10
2127.726898
 20
833.744931
 40
21.226285
 50
340.544276
 51
22.548669
  0
ARC
  8
APS_GEOMETR�
 10
2117.474569
 20
828.699397
 40
32.637795
 50
23.827455
 51
55.221415
  0
ARC
  8
APS_GEOMETR�
 10
1960.568558
 20
857.873739
 40
119.735207
 50
349.065064
 51
38.596511
  0
ARC
  8
APS_GEOMETR�
 10
2127.60734
 20
915.297988
 40
94.180788
 50
212.467343
 51
238.308404
  0
ARC
  8
APS_GEOMETR�
 10
2095.801709
 20
894.651823
 40
56.264264
 50
175.545822
 51
212.115753
  0
ARC
  8
APS_GEOMETR�
 10
2101.410712
 20
892.341282
 40
62.063884
 50
139.597244
 51
173.821111
  0
ARC
  8
APS_GEOMETR�
 10
2074.414386
 20
570.832185
 40
414.173142
 50
44.01537
 51
73.952608
  0
LINE
  8
APS_GEOMETR�
 10
2372.268421
 11
2372.268421
 20
858.620936
 21
968.866398
  0
LINE
  8
APS_GEOMETR�
 10
2372.268421
 11
2188.905247
 20
968.866398
 21
968.866398
  0
ARC
  8
APS_GEOMETR�
 10
1963.069142
 20
826.49904
 40
42.107062
 50
211.968324
 51
238.231147
  0
ARC
  8
APS_GEOMETR�
 10
1948.802653
 20
817.387795
 40
25.180879
 50
174.422306
 51
211.567753
  0
ARC
  8
APS_GEOMETR�
 10
1951.896277
 20
816.211706
 40
28.387496
 50
138.412104
 51
172.666405
  0
ARC
  8
APS_GEOMETR�
 10
1969.196952
 20
801.035568
 40
51.400944
 50
115.591221
 51
138.56016
  0
ARC
  8
APS_GEOMETR�
 10
1984.485201
 20
770.801036
 40
85.276265
 50
99.723478
 51
116.080842
  0
ARC
  8
APS_GEOMETR�
 10
1988.66221
 20
749.961579
 40
106.523493
 50
85.951295
 51
100.044782
  0
ARC
  8
APS_GEOMETR�
 10
1890.280763
 20
695.870973
 40
192.163729
 50
56.557116
 51
76.174166
  0
ARC
  8
APS_GEOMETR�
 10
1869.658803
 20
621.302998
 40
269.508295
 50
75.70542
 51
91.342461
  0
ARC
  8
APS_GEOMETR�
 10
1867.80955
 20
629.030195
 40
261.745207
 50
90.977398
 51
106.923663
  0
ARC
  8
APS_GEOMETR�
 10
1894.509559
 20
1090.599059
 40
234.893887
 50
244.020993
 51
262.562793
  0
ARC
  8
APS_GEOMETR�
 10
1903.682524
 20
1142.576373
 40
287.631024
 50
262.09111
 51
278.278219
  0
LINE
  8
APS_GEOMETR�
 10
1945.095643
 11
1903.697512
 20
857.942293
 21
828.286414
  0
ARC
  8
APS_GEOMETR�
 10
1916.628306
 20
809.254594
 40
23.009033
 50
124.193372
 51
152.34138
  0
ARC
  8
APS_GEOMETR�
 10
1909.125015
 20
813.395237
 40
14.442232
 50
153.073126
 51
191.619343
  0
ARC
  8
APS_GEOMETR�
 10
1912.674438
 20
814.652809
 40
18.179554
 50
193.248707
 51
226.240634
  0
ARC
  8
APS_GEOMETR�
 10
1923.56947
 20
825.741025
 40
33.723965
 50
225.900854
 51
247.670724
  0
ARC
  8
APS_GEOMETR�
 10
1931.631642
 20
844.181575
 40
53.846708
 50
247.190257
 51
263.098164
  0
ARC
  8
APS_GEOMETR�
 10
1933.12871
 20
853.630348
 40
63.407881
 50
262.781201
 51
277.039924
  0
ARC
  8
APS_GEOMETR�
 10
1814.41696
 20
795.284997
 40
36.178623
 50
35.724217
 51
60.496418
  0
ARC
  8
APS_GEOMETR�
 10
1826.791524
 20
804.254414
 40
20.89547
 50
359.711327
 51
35.5696
  0
ARC
  8
APS_GEOMETR�
 10
1826.341701
 20
804.923125
 40
21.359056
 50
322.592983
 51
357.923317
  0
ARC
  8
APS_GEOMETR�
 10
1813.519874
 20
814.773959
 40
37.528083
 50
298.367897
 51
322.538024
  0
ARC
  8
APS_GEOMETR�
 10
1800.425427
 20
837.855871
 40
64.062188
 50
281.979332
 51
298.864337
  0
ARC
  8
APS_GEOMETR�
 10
1956.898386
 20
1214.38228
 40
461.941951
 50
251.944125
 51
268.505452
  0
ARC
  8
APS_GEOMETR�
 10
1946.120564
 20
888.693987
 40
136.10244
 50
269.465157
 51
284.007899
  0
ARC
  8
APS_GEOMETR�
 10
1955.490548
 20
853.812874
 40
99.992652
 50
283.636493
 51
301.515176
  0
ARC
  8
APS_GEOMETR�
 10
1978.700769
 20
816.969071
 40
56.453163
 50
300.979695
 51
327.22082
  0
ARC
  8
APS_GEOMETR�
 10
1998.058858
 20
804.251722
 40
33.293056
 50
327.585251
 51
5.052224
  0
ARC
  8
APS_GEOMETR�
 10
1994.260013
 20
802.72382
 40
37.230635
 50
6.879911
 51
41.619115
  0
ARC
  8
APS_GEOMETR�
 10
1999.315222
 20
807.322976
 40
30.396939
 50
41.46705
 51
66.429334
  0
ARC
  8
APS_GEOMETR�
 10
1990.264007
 20
788.018426
 40
51.713476
 50
65.790534
 51
83.263506
  0
ARC
  8
APS_GEOMETR�
 10
1988.660606
 20
778.201003
 40
61.65278
 50
82.853933
 51
98.384905
  0
ARC
  8
APS_GEOMETR�
 10
1986.621671
 20
789.510513
 40
50.168187
 50
97.964662
 51
115.796667
  0
ARC
  8
APS_GEOMETR�
 10
1977.024416
 20
808.606279
 40
28.800805
 50
115.138645
 51
141.023093
  0
ARC
  8
APS_GEOMETR�
 10
1966.586626
 20
817.056977
 40
15.370924
 50
141.038466
 51
180.586944
  0
ARC
  8
APS_GEOMETR�
 10
1967.124545
 20
817.731956
 40
15.929801
 50
182.995449
 51
221.597873
  0
ARC
  8
APS_GEOMETR�
 10
1977.186912
 20
826.349444
 40
29.176759
 50
221.134352
 51
243.651761
  0
ARC
  8
APS_GEOMETR�
 10
1985.945014
 20
843.172533
 40
48.140735
 50
243.197433
 51
259.293701
  0
ARC
  8
APS_GEOMETR�
 10
1988.639481
 20
855.698406
 40
60.949969
 50
258.992346
 51
272.736943
  0
ARC
  8
APS_GEOMETR�
 10
1951.803079
 20
831.300945
 40
53.951974
 50
294.218835
 51
317.451646
  0
ARC
  8
APS_GEOMETR�
 10
1936.516791
 20
863.277266
 40
89.388487
 50
278.187846
 51
294.746655
  0
ARC
  8
APS_GEOMETR�
 10
1933.113162
 20
882.35659
 40
108.760019
 50
264.010927
 51
278.531157
  0
ARC
  8
APS_GEOMETR�
 10
1931.11472
 20
868.484375
 40
94.756546
 50
248.413168
 51
264.337522
  0
ARC
  8
APS_GEOMETR�
 10
1917.860414
 20
836.383746
 40
60.033222
 50
227.279084
 51
248.904207
  0
ARC
  8
APS_GEOMETR�
 10
1898.677217
 20
815.940892
 40
32.000902
 50
194.65887
 51
227.68061
  0
ARC
  8
APS_GEOMETR�
 10
1891.80793
 20
813.411456
 40
24.725265
 50
153.700943
 51
193.016293
  0
ARC
  8
APS_GEOMETR�
 10
1904.633539
 20
806.448078
 40
39.312503
 50
124.140348
 51
152.884519
  0
ARC
  8
APS_GEOMETR�
 10
1892.515039
 20
1100.392469
 40
261.595885
 50
236.485379
 51
267.821382
  0
ARC
  8
APS_GEOMETR�
 10
1862.135987
 20
631.277627
 40
275.710434
 50
94.859135
 51
114.437396
  0
ARC
  8
APS_GEOMETR�
 10
1869.139957
 20
587.194038
 40
320.245302
 50
77.733363
 51
95.43965
  0
ARC
  8
APS_GEOMETR�
 10
1891.249329
 20
676.181931
 40
228.607585
 50
56.205652
 51
78.409604
  0
ARC
  8
APS_GEOMETR�
 10
2076.213488
 20
894.30576
 40
64.295465
 50
165.855376
 51
205.957032
  0
ARC
  8
APS_GEOMETR�
 10
2095.843625
 20
886.801309
 40
85.200419
 50
131.040623
 51
164.187446
  0
ARC
  8
APS_GEOMETR�
 10
1974.609241
 20
400.835147
 40
554.088469
 50
83.232695
 51
98.303037
  0
ARC
  8
APS_GEOMETR�
 10
1957.216767
 20
498.982828
 40
454.468082
 50
97.920179
 51
115.130719
  0
ARC
  8
APS_GEOMETR�
 10
1875.351985
 20
666.960511
 40
267.638641
 50
114.536001
 51
139.089692
  0
ARC
  8
APS_GEOMETR�
 10
1780.958639
 20
748.349147
 40
143.003026
 50
138.966402
 51
176.434244
  0
ARC
  8
APS_GEOMETR�
 10
1592.820014
 20
1189.372543
 40
434.509106
 50
275.999188
 51
303.435582
  0
ARC
  8
APS_GEOMETR�
 10
2112.206533
 20
354.017449
 40
64.744702
 50
328.69375
 51
9.527639
  0
ARC
  8
APS_GEOMETR�
 10
2098.130746
 20
348.73611
 40
79.552609
 50
11.601343
 51
47.117292
  0
ARC
  8
APS_GEOMETR�
 10
2046.896788
 20
295.25972
 40
153.60635
 50
46.687988
 51
69.487338
  0
ARC
  8
APS_GEOMETR�
 10
2163.143048
 20
419.845205
 40
65.330528
 50
162.83428
 51
206.782802
  0
ARC
  8
APS_GEOMETR�
 10
2201.009056
 20
441.301085
 40
108.822635
 50
207.883968
 51
238.990307
  0
LINE
  8
APS_GEOMETR�
 10
2144.945476
 11
2081.729378
 20
348.031363
 21
355.202999
  0
ARC
  8
APS_GEOMETR�
 10
2074.617218
 20
292.219066
 40
63.384214
 50
83.557437
 51
97.819724
  0
ARC
  8
APS_GEOMETR�
 10
2072.923856
 20
302.363699
 40
53.104356
 50
97.49888
 51
113.555396
  0
ARC
  8
APS_GEOMETR�
 10
2064.586436
 20
320.785838
 40
32.886525
 50
113.066598
 51
135.207031
  0
ARC
  8
APS_GEOMETR�
 10
2053.795069
 20
331.368983
 40
17.772271
 50
134.908425
 51
168.408854
  0
ARC
  8
APS_GEOMETR�
 10
2050.722495
 20
332.440003
 40
14.553569
 50
170.109119
 51
208.455363
  0
ARC
  8
APS_GEOMETR�
 10
2058.582231
 20
336.995062
 40
23.635555
 50
209.085156
 51
236.728775
  0
ARC
  8
APS_GEOMETR�
 10
2080.578861
 20
297.356697
 40
40.21842
 50
123.295052
 51
150.381125
  0
ARC
  8
APS_GEOMETR�
 10
2098.582751
 20
271.118435
 40
72.035932
 50
105.492903
 51
123.808178
  0
ARC
  8
APS_GEOMETR�
 10
2107.043487
 20
243.096799
 40
101.301588
 50
91.295063
 51
105.870832
  0
ARC
  8
APS_GEOMETR�
 10
2107.63408
 20
239.70918
 40
104.70295
 50
77.319213
 51
91.576269
  0
ARC
  8
APS_GEOMETR�
 10
2113.673487
 20
264.376861
 40
79.312629
 50
60.492426
 51
77.663851
  0
ARC
  8
APS_GEOMETR�
 10
2130.466857
 20
293.216412
 40
45.944289
 50
36.236997
 51
61.004379
  0
ARC
  8
APS_GEOMETR�
 10
2313.596748
 20
103.970394
 40
223.569285
 50
91.840375
 51
106.312577
  0
ARC
  8
APS_GEOMETR�
 10
2294.278775
 20
166.342082
 40
158.285767
 50
105.942813
 51
124.181079
  0
ARC
  8
APS_GEOMETR�
 10
2254.556509
 20
223.468864
 40
88.713651
 50
123.686044
 51
150.587465
  0
ARC
  8
APS_GEOMETR�
 10
2104.812715
 20
590.273672
 40
331.26118
 50
282.63587
 51
307.488022
  0
ARC
  8
APS_GEOMETR�
 10
2265.38706
 20
171.768821
 40
8.066701
 50
324.287233
 51
359.161458
  0
ARC
  8
APS_GEOMETR�
 10
2260.720327
 20
175.16257
 40
13.836912
 50
299.907828
 51
324.156835
  0
ARC
  8
APS_GEOMETR�
 10
2255.641113
 20
183.604081
 40
23.687577
 50
283.468314
 51
300.376644
  0
ARC
  8
APS_GEOMETR�
 10
2253.606702
 20
191.332872
 40
31.678149
 50
269.872892
 51
283.790927
  0
ARC
  8
APS_GEOMETR�
 10
2253.46615
 20
191.332872
 40
31.678149
 50
256.209073
 51
270.127108
  0
ARC
  8
APS_GEOMETR�
 10
2251.431739
 20
183.604081
 40
23.687577
 50
239.623356
 51
256.531686
  0
ARC
  8
APS_GEOMETR�
 10
2246.352524
 20
175.16257
 40
13.836912
 50
215.843165
 51
240.092172
  0
ARC
  8
APS_GEOMETR�
 10
2241.685792
 20
171.768821
 40
8.066701
 50
180.838542
 51
215.712767
  0
ARC
  8
APS_GEOMETR�
 10
2241.685792
 20
171.532712
 40
8.066701
 50
144.287233
 51
179.161458
  0
ARC
  8
APS_GEOMETR�
 10
2246.352524
 20
168.138963
 40
13.836912
 50
119.907828
 51
144.156835
  0
ARC
  8
APS_GEOMETR�
 10
2251.431739
 20
159.697452
 40
23.687577
 50
103.468314
 51
120.376644
  0
ARC
  8
APS_GEOMETR�
 10
2253.46615
 20
151.968661
 40
31.678149
 50
89.872892
 51
103.790927
  0
ARC
  8
APS_GEOMETR�
 10
2253.606702
 20
151.968661
 40
31.678149
 50
76.209073
 51
90.127108
  0
ARC
  8
APS_GEOMETR�
 10
2255.641113
 20
159.697452
 40
23.687577
 50
59.623356
 51
76.531686
  0
ARC
  8
APS_GEOMETR�
 10
2260.720327
 20
168.138963
 40
13.836912
 50
35.843165
 51
60.092172
  0
ARC
  8
APS_GEOMETR�
 10
2265.38706
 20
171.532712
 40
8.066701
 50
0.838542
 51
35.712767
  0
ARC
  8
APS_GEOMETR�
 10
2191.911402
 20
271.763408
 40
156.520376
 50
313.919113
 51
347.261304
  0
ARC
  8
APS_GEOMETR�
 10
2203.854837
 20
267.790951
 40
144.00032
 50
347.755124
 51
23.02998
  0
ARC
  8
APS_GEOMETR�
 10
2095.036416
 20
626.144286
 40
386.602071
 50
275.616703
 51
308.628226
  0
ARC
  8
APS_GEOMETR�
 10
2168.552495
 20
278.855052
 40
51.729469
 50
226.393095
 51
249.419329
  0
ARC
  8
APS_GEOMETR�
 10
2180.442097
 20
308.119129
 40
83.309633
 50
248.839064
 51
265.564208
  0
ARC
  8
APS_GEOMETR�
 10
2181.866335
 20
318.366412
 40
93.638477
 50
265.180293
 51
280.645566
  0
ARC
  8
APS_GEOMETR�
 10
2186.337675
 20
297.533264
 40
72.339949
 50
280.213259
 51
298.598802
  0
ARC
  8
APS_GEOMETR�
 10
2202.118738
 20
269.564359
 40
40.232188
 50
297.932738
 51
325.199097
  0
ARC
  8
APS_GEOMETR�
 10
2217.153443
 20
196.36783
 40
53.362971
 50
48.625595
 51
70.284993
  0
ARC
  8
APS_GEOMETR�
 10
2234.082884
 20
215.238317
 40
28.013423
 50
15.678272
 51
49.09808
  0
ARC
  8
APS_GEOMETR�
 10
2240.512729
 20
217.701633
 40
21.166629
 50
333.562296
 51
13.961591
  0
ARC
  8
APS_GEOMETR�
 10
2229.22051
 20
223.898022
 40
34.040665
 50
303.381926
 51
332.685688
  0
ARC
  8
APS_GEOMETR�
 10
2253.525719
 20
130.13708
 40
65.573713
 50
80.436652
 51
94.877496
  0
ARC
  8
APS_GEOMETR�
 10
2255.969272
 20
142.736184
 40
52.744687
 50
64.072612
 51
80.780359
  0
ARC
  8
APS_GEOMETR�
 10
2265.544954
 20
161.770284
 40
31.440932
 50
40.961354
 51
64.600307
  0
ARC
  8
APS_GEOMETR�
 10
2276.337186
 20
171.088744
 40
17.182484
 50
5.575069
 51
41.08804
  0
ARC
  8
APS_GEOMETR�
 10
2315.022202
 20
175.146472
 40
21.715559
 50
186.314626
 51
227.960497
  0
ARC
  8
APS_GEOMETR�
 10
2074.414386
 20
429.188631
 40
414.173142
 50
286.047392
 51
315.98463
  0
LINE
  8
APS_GEOMETR�
 10
2188.905247
 11
2372.268421
 20
31.154419
 21
31.154419
  0
LINE
  8
APS_GEOMETR�
 10
2372.268421
 11
2372.268421
 20
31.154419
 21
141.39988
  0
ARC
  8
APS_GEOMETR�
 10
2162.451054
 20
226.797697
 40
86.402811
 50
252.237092
 51
267.915964
  0
ARC
  8
APS_GEOMETR�
 10
2163.169528
 20
231.676452
 40
91.306066
 50
267.57674
 51
282.686517
  0
ARC
  8
APS_GEOMETR�
 10
2168.773179
 20
209.018813
 40
67.972703
 50
282.272764
 51
300.686489
  0
ARC
  8
APS_GEOMETR�
 10
2184.59552
 20
183.147261
 40
37.651262
 50
300.072467
 51
327.453052
  0
ARC
  8
APS_GEOMETR�
 10
2238.915082
 20
178.405429
 40
27.397254
 50
214.490392
 51
240.42087
  0
ARC
  8
APS_GEOMETR�
 10
2249.623419
 20
196.324515
 40
48.2692
 50
239.865984
 51
257.596547
  0
ARC
  8
APS_GEOMETR�
 10
2253.48152
 20
211.912113
 40
64.323041
 50
257.222496
 51
271.850737
  0
ARC
  8
APS_GEOMETR�
 10
2253.891844
 20
209.391932
 40
61.791798
 50
271.545935
 51
286.572755
  0
ARC
  8
APS_GEOMETR�
 10
2292.764707
 20
78.318558
 40
74.924487
 50
88.406724
 51
106.474577
  0
ARC
  8
APS_GEOMETR�
 10
2024.123495
 20
457.961447
 40
407.630567
 50
276.974948
 51
311.616509
  0
ARC
  8
APS_GEOMETR�
 10
1973.162553
 20
143.601364
 40
135.049224
 50
318.063805
 51
351.93784
  0
ARC
  8
APS_GEOMETR�
 10
1979.891756
 20
141.440163
 40
128.08901
 50
352.472872
 51
27.580343
  0
ARC
  8
APS_GEOMETR�
 10
2092.174725
 20
112.020931
 40
88.732225
 50
73.159521
 51
89.19262
  0
ARC
  8
APS_GEOMETR�
 10
2101.064176
 20
139.533388
 40
59.826708
 50
52.790449
 51
73.674431
  0
ARC
  8
APS_GEOMETR�
 10
2118.717109
 20
162.223498
 40
31.082189
 50
20.967507
 51
53.41329
  0
ARC
  8
APS_GEOMETR�
 10
2127.726898
 20
166.275885
 40
21.226285
 50
337.451331
 51
19.455724
  0
ARC
  8
APS_GEOMETR�
 10
2117.474569
 20
171.321419
 40
32.637795
 50
304.778585
 51
336.172545
  0
ARC
  8
APS_GEOMETR�
 10
1960.568558
 20
142.147077
 40
119.735207
 50
321.403489
 51
10.934936
  0
ARC
  8
APS_GEOMETR�
 10
2127.60734
 20
84.722828
 40
94.180788
 50
121.691596
 51
147.532657
  0
ARC
  8
APS_GEOMETR�
 10
2095.801709
 20
105.368993
 40
56.264264
 50
147.884247
 51
184.454178
  0
ARC
  8
APS_GEOMETR�
 10
2101.410712
 20
107.679534
 40
62.063884
 50
186.178889
 51
220.402756
  0
ARC
  8
APS_GEOMETR�
 10
1963.069142
 20
173.521776
 40
42.107062
 50
121.768853
 51
148.031676
  0
ARC
  8
APS_GEOMETR�
 10
1948.802653
 20
182.633021
 40
25.180879
 50
148.432247
 51
185.577694
  0
ARC
  8
APS_GEOMETR�
 10
1951.896277
 20
183.809111
 40
28.387496
 50
187.333595
 51
221.587896
  0
ARC
  8
APS_GEOMETR�
 10
1969.196952
 20
198.985249
 40
51.400944
 50
221.43984
 51
244.408779
  0
ARC
  8
APS_GEOMETR�
 10
1984.485201
 20
229.219781
 40
85.276265
 50
243.919158
 51
260.276522
  0
ARC
  8
APS_GEOMETR�
 10
1988.66221
 20
250.059237
 40
106.523493
 50
259.955218
 51
274.048705
  0
ARC
  8
APS_GEOMETR�
 10
1890.280763
 20
304.149844
 40
192.163729
 50
283.825834
 51
303.442884
  0
ARC
  8
APS_GEOMETR�
 10
1869.658803
 20
378.717819
 40
269.508295
 50
268.657539
 51
284.29458
  0
ARC
  8
APS_GEOMETR�
 10
1867.80955
 20
370.990621
 40
261.745207
 50
253.076337
 51
269.022602
  0
ARC
  8
APS_GEOMETR�
 10
1894.509559
 20
-90.578243
 40
234.893887
 50
97.437207
 51
115.979007
  0
ARC
  8
APS_GEOMETR�
 10
1903.682524
 20
-142.555557
 40
287.631024
 50
81.721781
 51
97.90889
  0
LINE
  8
APS_GEOMETR�
 10
1945.095643
 11
1903.697512
 20
142.078523
 21
171.734402
  0
ARC
  8
APS_GEOMETR�
 10
1916.628306
 20
190.766222
 40
23.009033
 50
207.65862
 51
235.806628
  0
ARC
  8
APS_GEOMETR�
 10
1909.125015
 20
186.625579
 40
14.442232
 50
168.380657
 51
206.926874
  0
ARC
  8
APS_GEOMETR�
 10
1912.674438
 20
185.368008
 40
18.179554
 50
133.759366
 51
166.751293
  0
ARC
  8
APS_GEOMETR�
 10
1923.56947
 20
174.279791
 40
33.723965
 50
112.329276
 51
134.099146
  0
ARC
  8
APS_GEOMETR�
 10
1931.631642
 20
155.839241
 40
53.846708
 50
96.901836
 51
112.809743
  0
ARC
  8
APS_GEOMETR�
 10
1933.12871
 20
146.390469
 40
63.407881
 50
82.960076
 51
97.218799
  0
ARC
  8
APS_GEOMETR�
 10
1814.41696
 20
204.735819
 40
36.178623
 50
299.503582
 51
324.275783
  0
ARC
  8
APS_GEOMETR�
 10
1826.791524
 20
195.766402
 40
20.89547
 50
324.4304
 51
0.288673
  0
ARC
  8
APS_GEOMETR�
 10
1826.341701
 20
195.097691
 40
21.359056
 50
2.076683
 51
37.407017
  0
ARC
  8
APS_GEOMETR�
 10
1813.519874
 20
185.246857
 40
37.528083
 50
37.461976
 51
61.632103
  0
ARC
  8
APS_GEOMETR�
 10
1800.425427
 20
162.164945
 40
64.062188
 50
61.135663
 51
78.020668
  0
ARC
  8
APS_GEOMETR�
 10
1956.898386
 20
-214.361464
 40
461.941951
 50
91.494548
 51
108.055875
  0
ARC
  8
APS_GEOMETR�
 10
1946.120564
 20
111.326829
 40
136.10244
 50
75.992101
 51
90.534843
  0
ARC
  8
APS_GEOMETR�
 10
1955.490548
 20
146.207943
 40
99.992652
 50
58.484824
 51
76.363507
  0
ARC
  8
APS_GEOMETR�
 10
1978.700769
 20
183.051745
 40
56.453163
 50
32.77918
 51
59.020305
  0
ARC
  8
APS_GEOMETR�
 10
1998.058858
 20
195.769095
 40
33.293056
 50
354.947776
 51
32.414749
  0
ARC
  8
APS_GEOMETR�
 10
1994.260013
 20
197.296996
 40
37.230635
 50
318.380885
 51
353.120089
  0
ARC
  8
APS_GEOMETR�
 10
1999.315222
 20
192.69784
 40
30.396939
 50
293.570666
 51
318.53295
  0
ARC
  8
APS_GEOMETR�
 10
1990.264007
 20
212.00239
 40
51.713476
 50
276.736494
 51
294.209466
  0
ARC
  8
APS_GEOMETR�
 10
1988.660606
 20
221.819813
 40
61.65278
 50
261.615095
 51
277.146067
  0
ARC
  8
APS_GEOMETR�
 10
1986.621671
 20
210.510303
 40
50.168187
 50
244.203333
 51
262.035338
  0
ARC
  8
APS_GEOMETR�
 10
1977.024416
 20
191.414537
 40
28.800805
 50
218.976907
 51
244.861355
  0
ARC
  8
APS_GEOMETR�
 10
1966.586626
 20
182.963839
 40
15.370924
 50
179.413056
 51
218.961534
  0
ARC
  8
APS_GEOMETR�
 10
1967.124545
 20
182.28886
 40
15.929801
 50
138.402127
 51
177.004551
  0
ARC
  8
APS_GEOMETR�
 10
1977.186912
 20
173.671372
 40
29.176759
 50
116.348239
 51
138.865648
  0
ARC
  8
APS_GEOMETR�
 10
1985.945014
 20
156.848283
 40
48.140735
 50
100.706299
 51
116.802567
  0
ARC
  8
APS_GEOMETR�
 10
1988.639481
 20
144.32241
 40
60.949969
 50
87.263057
 51
101.007654
  0
ARC
  8
APS_GEOMETR�
 10
1951.803079
 20
168.719871
 40
53.951974
 50
42.548354
 51
65.781165
  0
ARC
  8
APS_GEOMETR�
 10
1936.516791
 20
136.74355
 40
89.388487
 50
65.253345
 51
81.812154
  0
ARC
  8
APS_GEOMETR�
 10
1933.113162
 20
117.664226
 40
108.760019
 50
81.468843
 51
95.989073
  0
ARC
  8
APS_GEOMETR�
 10
1931.11472
 20
131.536441
 40
94.756546
 50
95.662478
 51
111.586832
  0
ARC
  8
APS_GEOMETR�
 10
1917.860414
 20
163.637071
 40
60.033222
 50
111.095793
 51
132.720916
  0
ARC
  8
APS_GEOMETR�
 10
1898.677217
 20
184.079924
 40
32.000902
 50
132.31939
 51
165.34113
  0
ARC
  8
APS_GEOMETR�
 10
1891.80793
 20
186.60936
 40
24.725265
 50
166.983707
 51
206.299057
  0
ARC
  8
APS_GEOMETR�
 10
1904.633539
 20
193.572738
 40
39.312503
 50
207.115481
 51
235.859652
  0
ARC
  8
APS_GEOMETR�
 10
1892.515039
 20
-100.371653
 40
261.595885
 50
92.178618
 51
123.514621
  0
ARC
  8
APS_GEOMETR�
 10
1862.135987
 20
368.74319
 40
275.710434
 50
245.562604
 51
265.140865
  0
ARC
  8
APS_GEOMETR�
 10
1869.139957
 20
412.826778
 40
320.245302
 50
264.56035
 51
282.266637
  0
ARC
  8
APS_GEOMETR�
 10
1891.249329
 20
323.838886
 40
228.607585
 50
281.590396
 51
303.794348
  0
ARC
  8
APS_GEOMETR�
 10
2076.213488
 20
105.715057
 40
64.295465
 50
154.042968
 51
194.144624
  0
ARC
  8
APS_GEOMETR�
 10
2095.843625
 20
113.219507
 40
85.200419
 50
195.812554
 51
228.959377
  0
ARC
  8
APS_GEOMETR�
 10
1974.609241
 20
599.185669
 40
554.088469
 50
261.696963
 51
276.767305
  0
ARC
  8
APS_GEOMETR�
 10
1957.216767
 20
501.037989
 40
454.468082
 50
244.869281
 51
262.079821
  0
ARC
  8
APS_GEOMETR�
 10
1875.351985
 20
333.060306
 40
267.638641
 50
220.910308
 51
245.463999
  0
ARC
  8
APS_GEOMETR�
 10
1780.958639
 20
251.671669
 40
143.003026
 50
183.565756
 51
221.033598
  0
ARC
  8
APS_GEOMETR�
 10
1592.820014
 20
-189.351727
 40
434.509106
 50
56.564418
 51
84.000812
  0
ARC
  8
APS_GEOMETR�
 10
609.576023
 20
204.735819
 40
36.178623
 50
215.724217
 51
240.496418
  0
ARC
  8
APS_GEOMETR�
 10
597.201459
 20
195.766402
 40
20.89547
 50
179.711327
 51
215.5696
  0
ARC
  8
APS_GEOMETR�
 10
597.651282
 20
195.097691
 40
21.359056
 50
142.592983
 51
177.923317
  0
ARC
  8
APS_GEOMETR�
 10
610.47311
 20
185.246857
 40
37.528083
 50
118.367897
 51
142.538024
  0
ARC
  8
APS_GEOMETR�
 10
623.567556
 20
162.164945
 40
64.062188
 50
101.979332
 51
118.864337
  0
ARC
  8
APS_GEOMETR�
 10
467.094597
 20
-214.361464
 40
461.941951
 50
71.944125
 51
88.505452
  0
ARC
  8
APS_GEOMETR�
 10
477.872419
 20
111.326829
 40
136.10244
 50
89.465157
 51
104.007899
  0
ARC
  8
APS_GEOMETR�
 10
468.502435
 20
146.207943
 40
99.992652
 50
103.636493
 51
121.515176
  0
ARC
  8
APS_GEOMETR�
 10
445.292214
 20
183.051745
 40
56.453163
 50
120.979695
 51
147.22082
  0
ARC
  8
APS_GEOMETR�
 10
425.934125
 20
195.769095
 40
33.293056
 50
147.585251
 51
185.052224
  0
ARC
  8
APS_GEOMETR�
 10
429.73297
 20
197.296996
 40
37.230635
 50
186.879911
 51
221.619115
  0
ARC
  8
APS_GEOMETR�
 10
424.677761
 20
192.69784
 40
30.396939
 50
221.46705
 51
246.429334
  0
ARC
  8
APS_GEOMETR�
 10
433.728976
 20
212.00239
 40
51.713476
 50
245.790534
 51
263.263506
  0
ARC
  8
APS_GEOMETR�
 10
435.332377
 20
221.819813
 40
61.65278
 50
262.853933
 51
278.384905
  0
ARC
  8
APS_GEOMETR�
 10
437.371312
 20
210.510303
 40
50.168187
 50
277.964662
 51
295.796667
  0
ARC
  8
APS_GEOMETR�
 10
446.968567
 20
191.414537
 40
28.800805
 50
295.138645
 51
321.023093
  0
ARC
  8
APS_GEOMETR�
 10
457.406357
 20
182.963839
 40
15.370924
 50
321.038466
 51
0.586944
  0
ARC
  8
APS_GEOMETR�
 10
456.868438
 20
182.28886
 40
15.929801
 50
2.995449
 51
41.597873
  0
ARC
  8
APS_GEOMETR�
 10
446.806071
 20
173.671372
 40
29.176759
 50
41.134352
 51
63.651761
  0
ARC
  8
APS_GEOMETR�
 10
438.047969
 20
156.848283
 40
48.140735
 50
63.197433
 51
79.293701
  0
ARC
  8
APS_GEOMETR�
 10
435.353502
 20
144.32241
 40
60.949969
 50
78.992346
 51
92.736943
  0
ARC
  8
APS_GEOMETR�
 10
472.189904
 20
168.719871
 40
53.951974
 50
114.218835
 51
137.451646
  0
ARC
  8
APS_GEOMETR�
 10
487.476192
 20
136.74355
 40
89.388487
 50
98.187846
 51
114.746655
  0
ARC
  8
APS_GEOMETR�
 10
490.879821
 20
117.664226
 40
108.760019
 50
84.010927
 51
98.531157
  0
ARC
  8
APS_GEOMETR�
 10
492.878263
 20
131.536441
 40
94.756546
 50
68.413168
 51
84.337522
  0
ARC
  8
APS_GEOMETR�
 10
506.132569
 20
163.637071
 40
60.033222
 50
47.279084
 51
68.904207
  0
ARC
  8
APS_GEOMETR�
 10
525.315766
 20
184.079924
 40
32.000902
 50
14.65887
 51
47.68061
  0
ARC
  8
APS_GEOMETR�
 10
532.185053
 20
186.60936
 40
24.725265
 50
333.700943
 51
13.016293
  0
ARC
  8
APS_GEOMETR�
 10
519.359444
 20
193.572738
 40
39.312503
 50
304.140348
 51
332.884519
  0
ARC
  8
APS_GEOMETR�
 10
531.477944
 20
-100.371653
 40
261.595885
 50
56.485379
 51
87.821382
  0
ARC
  8
APS_GEOMETR�
 10
561.856996
 20
368.74319
 40
275.710434
 50
274.859135
 51
294.437396
  0
ARC
  8
APS_GEOMETR�
 10
554.853026
 20
412.826778
 40
320.245302
 50
257.733363
 51
275.43965
  0
ARC
  8
APS_GEOMETR�
 10
532.743654
 20
323.838886
 40
228.607585
 50
236.205652
 51
258.409604
  0
ARC
  8
APS_GEOMETR�
 10
347.779496
 20
105.715057
 40
64.295465
 50
345.855376
 51
25.957032
  0
ARC
  8
APS_GEOMETR�
 10
328.149358
 20
113.219507
 40
85.200419
 50
311.040623
 51
344.187446
  0
ARC
  8
APS_GEOMETR�
 10
449.383742
 20
599.185669
 40
554.088469
 50
263.232695
 51
278.303037
  0
ARC
  8
APS_GEOMETR�
 10
466.776216
 20
501.037989
 40
454.468082
 50
277.920179
 51
295.130719
  0
ARC
  8
APS_GEOMETR�
 10
548.640998
 20
333.060306
 40
267.638641
 50
294.536001
 51
319.089692
  0
ARC
  8
APS_GEOMETR�
 10
643.034344
 20
251.671669
 40
143.003026
 50
318.966402
 51
356.434244
  0
ARC
  8
APS_GEOMETR�
 10
831.172969
 20
-189.351727
 40
434.509106
 50
95.999188
 51
123.435582
  0
ARC
  8
APS_GEOMETR�
 10
460.923842
 20
173.521776
 40
42.107062
 50
31.968324
 51
58.231147
  0
ARC
  8
APS_GEOMETR�
 10
475.19033
 20
182.633021
 40
25.180879
 50
354.422306
 51
31.567753
  0
ARC
  8
APS_GEOMETR�
 10
472.096706
 20
183.809111
 40
28.387496
 50
318.412104
 51
352.666405
  0
ARC
  8
APS_GEOMETR�
 10
454.796031
 20
198.985249
 40
51.400944
 50
295.591221
 51
318.56016
  0
ARC
  8
APS_GEOMETR�
 10
439.507782
 20
229.219781
 40
85.276265
 50
279.723478
 51
296.080842
  0
ARC
  8
APS_GEOMETR�
 10
435.330773
 20
250.059237
 40
106.523493
 50
265.951295
 51
280.044782
  0
ARC
  8
APS_GEOMETR�
 10
533.71222
 20
304.149844
 40
192.163729
 50
236.557116
 51
256.174166
  0
ARC
  8
APS_GEOMETR�
 10
554.33418
 20
378.717819
 40
269.508295
 50
255.70542
 51
271.342461
  0
ARC
  8
APS_GEOMETR�
 10
556.183433
 20
370.990621
 40
261.745207
 50
270.977398
 51
286.923663
  0
ARC
  8
APS_GEOMETR�
 10
529.483424
 20
-90.578243
 40
234.893887
 50
64.020993
 51
82.562793
  0
ARC
  8
APS_GEOMETR�
 10
520.310459
 20
-142.555557
 40
287.631024
 50
82.09111
 51
98.278219
  0
LINE
  8
APS_GEOMETR�
 10
478.89734
 11
520.295471
 20
142.078523
 21
171.734402
  0
ARC
  8
APS_GEOMETR�
 10
507.364677
 20
190.766222
 40
23.009033
 50
304.193372
 51
332.34138
  0
ARC
  8
APS_GEOMETR�
 10
514.867968
 20
186.625579
 40
14.442232
 50
333.073126
 51
11.619343
  0
ARC
  8
APS_GEOMETR�
 10
511.318545
 20
185.368008
 40
18.179554
 50
13.248707
 51
46.240634
  0
ARC
  8
APS_GEOMETR�
 10
500.423513
 20
174.279791
 40
33.723965
 50
45.900854
 51
67.670724
  0
ARC
  8
APS_GEOMETR�
 10
492.361341
 20
155.839241
 40
53.846708
 50
67.190257
 51
83.098164
  0
ARC
  8
APS_GEOMETR�
 10
490.864273
 20
146.390469
 40
63.407881
 50
82.781201
 51
97.039924
  0
ARC
  8
APS_GEOMETR�
 10
463.424425
 20
142.147077
 40
119.735207
 50
169.065064
 51
218.596511
  0
ARC
  8
APS_GEOMETR�
 10
296.385643
 20
84.722828
 40
94.180788
 50
32.467343
 51
58.308404
  0
ARC
  8
APS_GEOMETR�
 10
328.191274
 20
105.368993
 40
56.264264
 50
355.545822
 51
32.115753
  0
ARC
  8
APS_GEOMETR�
 10
322.582271
 20
107.679534
 40
62.063884
 50
319.597244
 51
353.821111
  0
ARC
  8
APS_GEOMETR�
 10
261.541929
 20
226.797697
 40
86.402811
 50
272.084036
 51
287.762908
  0
ARC
  8
APS_GEOMETR�
 10
260.823455
 20
231.676452
 40
91.306066
 50
257.313483
 51
272.42326
  0
ARC
  8
APS_GEOMETR�
 10
255.219804
 20
209.018813
 40
67.972703
 50
239.313511
 51
257.727236
  0
ARC
  8
APS_GEOMETR�
 10
239.397463
 20
183.147261
 40
37.651262
 50
212.546948
 51
239.927533
  0
ARC
  8
APS_GEOMETR�
 10
185.077901
 20
178.405429
 40
27.397254
 50
299.57913
 51
325.509608
  0
ARC
  8
APS_GEOMETR�
 10
174.369564
 20
196.324515
 40
48.2692
 50
282.403453
 51
300.134016
  0
ARC
  8
APS_GEOMETR�
 10
170.511463
 20
211.912113
 40
64.323041
 50
268.149263
 51
282.777504
  0
ARC
  8
APS_GEOMETR�
 10
170.101139
 20
209.391932
 40
61.791798
 50
253.427245
 51
268.454065
  0
ARC
  8
APS_GEOMETR�
 10
131.228276
 20
78.318558
 40
74.924487
 50
73.525423
 51
91.593276
  0
ARC
  8
APS_GEOMETR�
 10
399.869488
 20
457.961447
 40
407.630567
 50
228.383491
 51
263.025052
  0
ARC
  8
APS_GEOMETR�
 10
450.83043
 20
143.601364
 40
135.049224
 50
188.06216
 51
221.936195
  0
ARC
  8
APS_GEOMETR�
 10
444.101227
 20
141.440163
 40
128.08901
 50
152.419657
 51
187.527128
  0
ARC
  8
APS_GEOMETR�
 10
331.818258
 20
112.020931
 40
88.732225
 50
90.80738
 51
106.840479
  0
ARC
  8
APS_GEOMETR�
 10
322.928807
 20
139.533388
 40
59.826708
 50
106.325569
 51
127.209551
  0
ARC
  8
APS_GEOMETR�
 10
305.275875
 20
162.223498
 40
31.082189
 50
126.58671
 51
159.032493
  0
ARC
  8
APS_GEOMETR�
 10
296.266085
 20
166.275885
 40
21.226285
 50
160.544276
 51
202.548669
  0
ARC
  8
APS_GEOMETR�
 10
306.518414
 20
171.321419
 40
32.637795
 50
203.827455
 51
235.221415
  0
ARC
  8
APS_GEOMETR�
 10
158.605923
 20
171.768821
 40
8.066701
 50
180.838542
 51
215.712767
  0
ARC
  8
APS_GEOMETR�
 10
163.272656
 20
175.16257
 40
13.836912
 50
215.843165
 51
240.092172
  0
ARC
  8
APS_GEOMETR�
 10
168.35187
 20
183.604081
 40
23.687577
 50
239.623356
 51
256.531686
  0
ARC
  8
APS_GEOMETR�
 10
170.386281
 20
191.332872
 40
31.678149
 50
256.209073
 51
270.127108
  0
ARC
  8
APS_GEOMETR�
 10
170.526834
 20
191.332872
 40
31.678149
 50
269.872892
 51
283.790927
  0
ARC
  8
APS_GEOMETR�
 10
172.561244
 20
183.604081
 40
23.687577
 50
283.468314
 51
300.376644
  0
ARC
  8
APS_GEOMETR�
 10
177.640459
 20
175.16257
 40
13.836912
 50
299.907828
 51
324.156835
  0
ARC
  8
APS_GEOMETR�
 10
182.307191
 20
171.768821
 40
8.066701
 50
324.287233
 51
359.161458
  0
ARC
  8
APS_GEOMETR�
 10
182.307191
 20
171.532712
 40
8.066701
 50
0.838542
 51
35.712767
  0
ARC
  8
APS_GEOMETR�
 10
177.640459
 20
168.138963
 40
13.836912
 50
35.843165
 51
60.092172
  0
ARC
  8
APS_GEOMETR�
 10
172.561244
 20
159.697452
 40
23.687577
 50
59.623356
 51
76.531686
  0
ARC
  8
APS_GEOMETR�
 10
170.526834
 20
151.968661
 40
31.678149
 50
76.209073
 51
90.127108
  0
ARC
  8
APS_GEOMETR�
 10
170.386281
 20
151.968661
 40
31.678149
 50
89.872892
 51
103.790927
  0
ARC
  8
APS_GEOMETR�
 10
168.35187
 20
159.697452
 40
23.687577
 50
103.468314
 51
120.376644
  0
ARC
  8
APS_GEOMETR�
 10
163.272656
 20
168.138963
 40
13.836912
 50
119.907828
 51
144.156835
  0
ARC
  8
APS_GEOMETR�
 10
158.605923
 20
171.532712
 40
8.066701
 50
144.287233
 51
179.161458
  0
ARC
  8
APS_GEOMETR�
 10
232.081581
 20
271.763408
 40
156.520376
 50
192.738696
 51
226.080887
  0
ARC
  8
APS_GEOMETR�
 10
220.138146
 20
267.790951
 40
144.00032
 50
156.97002
 51
192.244876
  0
ARC
  8
APS_GEOMETR�
 10
328.956567
 20
626.144286
 40
386.602071
 50
231.371774
 51
264.383297
  0
ARC
  8
APS_GEOMETR�
 10
255.440488
 20
278.855052
 40
51.729469
 50
290.580671
 51
313.606905
  0
ARC
  8
APS_GEOMETR�
 10
243.550886
 20
308.119129
 40
83.309633
 50
274.435792
 51
291.160936
  0
ARC
  8
APS_GEOMETR�
 10
242.126648
 20
318.366412
 40
93.638477
 50
259.354434
 51
274.819707
  0
ARC
  8
APS_GEOMETR�
 10
237.655308
 20
297.533264
 40
72.339949
 50
241.401198
 51
259.786741
  0
ARC
  8
APS_GEOMETR�
 10
221.874245
 20
269.564359
 40
40.232188
 50
214.800903
 51
242.067262
  0
ARC
  8
APS_GEOMETR�
 10
206.83954
 20
196.36783
 40
53.362971
 50
109.715007
 51
131.374405
  0
ARC
  8
APS_GEOMETR�
 10
189.9101
 20
215.238317
 40
28.013423
 50
130.90192
 51
164.321728
  0
ARC
  8
APS_GEOMETR�
 10
183.480254
 20
217.701633
 40
21.166629
 50
166.038409
 51
206.437704
  0
ARC
  8
APS_GEOMETR�
 10
194.772473
 20
223.898022
 40
34.040665
 50
207.314312
 51
236.618074
  0
ARC
  8
APS_GEOMETR�
 10
170.467264
 20
130.13708
 40
65.573713
 50
85.122504
 51
99.563348
  0
ARC
  8
APS_GEOMETR�
 10
168.023711
 20
142.736184
 40
52.744687
 50
99.219641
 51
115.927388
  0
ARC
  8
APS_GEOMETR�
 10
158.448029
 20
161.770284
 40
31.440932
 50
115.399693
 51
139.038646
  0
ARC
  8
APS_GEOMETR�
 10
147.655797
 20
171.088744
 40
17.182484
 50
138.91196
 51
174.424931
  0
ARC
  8
APS_GEOMETR�
 10
108.970781
 20
175.146472
 40
21.715559
 50
312.039503
 51
353.685374
  0
ARC
  8
APS_GEOMETR�
 10
349.578597
 20
429.188631
 40
414.173142
 50
224.01537
 51
253.952608
  0
LINE
  8
APS_GEOMETR�
 10
235.087736
 11
51.724562
 20
31.154419
 21
31.154419
  0
LINE
  8
APS_GEOMETR�
 10
51.724562
 11
51.724562
 20
31.154419
 21
141.39988
  0
ARC
  8
APS_GEOMETR�
 10
110.396235
 20
103.970394
 40
223.569285
 50
73.687423
 51
88.159625
  0
ARC
  8
APS_GEOMETR�
 10
129.714208
 20
166.342082
 40
158.285767
 50
55.818921
 51
74.057187
  0
ARC
  8
APS_GEOMETR�
 10
169.436474
 20
223.468864
 40
88.713651
 50
29.412535
 51
56.313956
  0
ARC
  8
APS_GEOMETR�
 10
319.180268
 20
590.273672
 40
331.26118
 50
232.511978
 51
257.36413
  0
ARC
  8
APS_GEOMETR�
 10
311.78645
 20
354.017449
 40
64.744702
 50
170.472361
 51
211.30625
  0
ARC
  8
APS_GEOMETR�
 10
325.862237
 20
348.73611
 40
79.552609
 50
132.882708
 51
168.398657
  0
ARC
  8
APS_GEOMETR�
 10
377.096195
 20
295.25972
 40
153.60635
 50
110.512662
 51
133.312012
  0
ARC
  8
APS_GEOMETR�
 10
260.849935
 20
419.845205
 40
65.330528
 50
333.217198
 51
17.16572
  0
ARC
  8
APS_GEOMETR�
 10
222.983927
 20
441.301085
 40
108.822635
 50
301.009693
 51
332.116032
  0
LINE
  8
APS_GEOMETR�
 10
279.047507
 11
342.263605
 20
348.031363
 21
355.202999
  0
ARC
  8
APS_GEOMETR�
 10
349.375765
 20
292.219066
 40
63.384214
 50
82.180276
 51
96.442563
  0
ARC
  8
APS_GEOMETR�
 10
351.069127
 20
302.363699
 40
53.104356
 50
66.444604
 51
82.50112
  0
ARC
  8
APS_GEOMETR�
 10
359.406547
 20
320.785838
 40
32.886525
 50
44.792969
 51
66.933402
  0
ARC
  8
APS_GEOMETR�
 10
370.197914
 20
331.368983
 40
17.772271
 50
11.591146
 51
45.091575
  0
ARC
  8
APS_GEOMETR�
 10
373.270488
 20
332.440003
 40
14.553569
 50
331.544637
 51
9.890881
  0
ARC
  8
APS_GEOMETR�
 10
365.410752
 20
336.995062
 40
23.635555
 50
303.271225
 51
330.914844
  0
ARC
  8
APS_GEOMETR�
 10
343.414122
 20
297.356697
 40
40.21842
 50
29.618875
 51
56.704948
  0
ARC
  8
APS_GEOMETR�
 10
325.410232
 20
271.118435
 40
72.035932
 50
56.191822
 51
74.507097
  0
ARC
  8
APS_GEOMETR�
 10
316.949496
 20
243.096799
 40
101.301588
 50
74.129168
 51
88.704937
  0
ARC
  8
APS_GEOMETR�
 10
316.358903
 20
239.70918
 40
104.70295
 50
88.423731
 51
102.680787
  0
ARC
  8
APS_GEOMETR�
 10
310.319496
 20
264.376861
 40
79.312629
 50
102.336149
 51
119.507574
  0
ARC
  8
APS_GEOMETR�
 10
293.526126
 20
293.216412
 40
45.944289
 50
118.995621
 51
143.763003
  0
ARC
  8
APS_GEOMETR�
 10
877.341155
 20
486.050851
 40
481.130271
 50
280.262185
 51
289.283039
  0
ARC
  8
APS_GEOMETR�
 10
847.143407
 20
626.027028
 40
624.26532
 50
265.168833
 51
280.700676
  0
ARC
  8
APS_GEOMETR�
 10
837.554212
 20
557.302734
 40
554.990375
 50
248.752137
 51
265.55775
  0
ARC
  8
APS_GEOMETR�
 10
406.65979
 20
679.247982
 40
679.248553
 50
270.074276
 51
289.771032
  0
LINE
  8
APS_GEOMETR�
 10
407.540336
 11
0.0
 20
0.0
 21
0.0
  0
LINE
  8
APS_GEOMETR�
 10
0.0
 11
0.0
 20
0.0
 21
245.467177
  0
ARC
  8
APS_GEOMETR�
 10
201.537921
 20
239.533953
 40
201.625238
 50
131.784592
 51
178.313714
  0
ARC
  8
APS_GEOMETR�
 10
157.1744
 20
525.995238
 40
163.173712
 50
203.685812
 51
236.531905
  0
ARC
  8
APS_GEOMETR�
 10
104.919216
 20
500.010408
 40
104.919216
 50
157.845574
 51
202.154426
  0
ARC
  8
APS_GEOMETR�
 10
157.1744
 20
474.025578
 40
163.173712
 50
123.468095
 51
156.314188
  0
ARC
  8
APS_GEOMETR�
 10
201.537921
 20
760.486863
 40
201.625238
 50
181.686286
 51
228.215408
  0
LINE
  8
APS_GEOMETR�
 10
0.0
 11
0.0
 20
754.553639
 21
1000.020816
  0
LINE
  8
APS_GEOMETR�
 10
0.0
 11
407.540336
 20
1000.020816
 21
1000.020816
  0
ARC
  8
APS_GEOMETR�
 10
406.65979
 20
320.772834
 40
679.248553
 50
70.228968
 51
89.925724
  0
ARC
  8
APS_GEOMETR�
 10
837.554212
 20
442.718082
 40
554.990375
 50
94.44225
 51
111.247863
  0
ARC
  8
APS_GEOMETR�
 10
847.143407
 20
373.993788
 40
624.26532
 50
79.299324
 51
94.831167
  0
ARC
  8
APS_GEOMETR�
 10
877.341155
 20
513.969965
 40
481.130271
 50
70.716961
 51
79.737815
  0
ARC
  8
APS_GEOMETR�
 10
1211.996492
 20
500.010408
 40
500.010408
 50
69.418998
 51
110.581002
  0
ARC
  8
APS_GEOMETR�
 10
1546.651829
 20
513.969965
 40
481.130271
 50
100.262185
 51
109.283039
  0
ARC
  8
APS_GEOMETR�
 10
1576.849576
 20
373.993788
 40
624.26532
 50
85.168833
 51
100.700676
  0
ARC
  8
APS_GEOMETR�
 10
1586.438771
 20
442.718082
 40
554.990375
 50
68.752137
 51
85.55775
  0
ARC
  8
APS_GEOMETR�
 10
2017.333193
 20
320.772834
 40
679.248553
 50
90.074276
 51
109.771032
  0
LINE
  8
APS_GEOMETR�
 10
2016.452647
 11
2423.992983
 20
1000.020816
 21
1000.020816
  0
LINE
  8
APS_GEOMETR�
 10
2423.992983
 11
2423.992983
 20
1000.020816
 21
754.553639
  0
ARC
  8
APS_GEOMETR�
 10
2222.455062
 20
760.486863
 40
201.625238
 50
311.784592
 51
358.313714
  0
ARC
  8
APS_GEOMETR�
 10
2266.818583
 20
474.025578
 40
163.173712
 50
23.685812
 51
56.531905
  0
ARC
  8
APS_GEOMETR�
 10
2319.073767
 20
500.010408
 40
104.919216
 50
337.845574
 51
22.154426
  0
ARC
  8
APS_GEOMETR�
 10
2266.818583
 20
525.995238
 40
163.173712
 50
303.468095
 51
336.314188
  0
ARC
  8
APS_GEOMETR�
 10
2222.455062
 20
239.533953
 40
201.625238
 50
1.686286
 51
48.215408
  0
LINE
  8
APS_GEOMETR�
 10
2423.992983
 11
2423.992983
 20
245.467177
 21
0.0
  0
LINE
  8
APS_GEOMETR�
 10
2423.992983
 11
2016.452647
 20
0.0
 21
0.0
  0
ARC
  8
APS_GEOMETR�
 10
2017.333193
 20
679.247982
 40
679.248553
 50
250.228968
 51
269.925724
  0
ARC
  8
APS_GEOMETR�
 10
1586.438771
 20
557.302734
 40
554.990375
 50
274.44225
 51
291.247863
  0
ARC
  8
APS_GEOMETR�
 10
1576.849576
 20
626.027028
 40
624.26532
 50
259.299324
 51
274.831167
  0
ARC
  8
APS_GEOMETR�
 10
1546.651829
 20
486.050851
 40
481.130271
 50
250.716961
 51
259.737815
  0
ARC
  8
APS_GEOMETR�
 10
1211.996492
 20
500.010408
 40
500.010408
 50
249.418998
 51
290.581002
  0
ENDSEC
  0
EOF
