  0
SECTION
  2
HEADER
  9
$ACADVER
  1
AC1006
  0
ENDSEC
  0
SECTION
  2
TABLES
  0
TABLE
  2
LTYPE
 70
    25
  0
LTYPE
  2
CONTINUOUS
 70
    64
  3
Solid line
 72
    64
 73
     0
 40
0.000000
  0
LTYPE
  2
DASHDOT
 70
    64
  3
__ . __ . __ . __ . __ . __ . __ . __ . __ . __
 72
    65
 73
     4
 40
1.000000
 49
0.500000
 49
-0.250000
 49
0.000000
 49
-0.250000
  0
LTYPE
  2
DASHED
 70
    64
  3
__ __ __ __ __ __ __ __ __ __ __ __ __ __ __ __
 72
    65
 73
     2
 40
0.750000
 49
0.500000
 49
-0.250000
  0
LTYPE
  2
DIVIDE
 70
    64
  3
____ . . ____ . . ____ . . ____ . . ____ . . __
 72
    65
 73
     6
 40
1.250000
 49
0.500000
 49
-0.250000
 49
0.000000
 49
-0.250000
 49
0.000000
 49
-0.250000
  0
LTYPE
  2
DOT
 70
    64
  3
. . . . . . . . . . . . . . . . . . . . . . . . 
 72
    65
 73
     2
 40
0.250000
 49
0.000000
 49
-0.250000
  0
ENDTAB
  0
ENDSEC
  0
SECTION
  2
BLOCKS
  0
BLOCK
  8
0
  2
Object_0
 70
    64
 10
0.000000
 20
0.000000
 30
0.000000
  0
ENDBLK
  0
BLOCK
  8
0
  2
Object_1
 70
    64
 10
0.000000
 20
0.000000
 30
0.000000
  0
ENDBLK
  0
ENDSEC
  0
SECTION
  2
ENTITIES
  0
LINE
  8
Default
 62
     7
  6
CONTINUOUS
 10
36.370015
 20
7.167674
 30
0.000000
 11
36.426293
 21
7.746131
 31
0.000000
  0
ARC
  8
Default
 62
     7
  6
CONTINUOUS
 10
36.340156
 20
7.170579
 30
0.000000
 40
0.030000
 50
258.533351
 51
354.443134
  0
LINE
  8
Layer 1
 62
     7
  6
CONTINUOUS
 10
36.334192
 20
7.141178
 30
0.000000
 11
36.214086
 21
7.165540
 31
0.000000
  0
LINE
  8
Layer 1
 62
     7
  6
CONTINUOUS
 10
35.992305
 20
7.243413
 30
0.000000
 11
36.214086
 21
7.165540
 31
0.000000
  0
LINE
  8
Layer 1
 62
     7
  6
CONTINUOUS
 10
35.801463
 20
7.348961
 30
0.000000
 11
35.992305
 21
7.243413
 31
0.000000
  0
LINE
  8
Layer 1
 62
     7
  6
CONTINUOUS
 10
35.657402
 20
7.480036
 30
0.000000
 11
35.801463
 21
7.348961
 31
0.000000
  0
LINE
  8
Layer 1
 62
     7
  6
CONTINUOUS
 10
35.537510
 20
7.663536
 30
0.000000
 11
35.657402
 21
7.480036
 31
0.000000
  0
LINE
  8
Layer 1
 62
     7
  6
CONTINUOUS
 10
35.479494
 20
7.835115
 30
0.000000
 11
35.537510
 21
7.663536
 31
0.000000
  0
LINE
  8
Layer 1
 62
     7
  6
CONTINUOUS
 10
35.480717
 20
7.990906
 30
0.000000
 11
35.479494
 21
7.835115
 31
0.000000
  0
LINE
  8
Layer 1
 62
     7
  6
CONTINUOUS
 10
35.538543
 20
8.127042
 30
0.000000
 11
35.480717
 21
7.990906
 31
0.000000
  0
LINE
  8
Layer 1
 62
     7
  6
CONTINUOUS
 10
35.650335
 20
8.239656
 30
0.000000
 11
35.538543
 21
8.127042
 31
0.000000
  0
LINE
  8
Layer 1
 62
     7
  6
CONTINUOUS
 10
35.813457
 20
8.324882
 30
0.000000
 11
35.650335
 21
8.239656
 31
0.000000
  0
LINE
  8
Layer 1
 62
     7
  6
CONTINUOUS
 10
36.025273
 20
8.378854
 30
0.000000
 11
35.813457
 21
8.324882
 31
0.000000
  0
LINE
  8
Layer 1
 62
     7
  6
CONTINUOUS
 10
36.283144
 20
8.397703
 30
0.000000
 11
36.025273
 21
8.378854
 31
0.000000
  0
LINE
  8
Layer 1
 62
     7
  6
CONTINUOUS
 10
36.394616
 20
8.388583
 30
0.000000
 11
36.283144
 21
8.397703
 31
0.000000
  0
LINE
  8
Layer 1
 62
     7
  6
CONTINUOUS
 10
36.506503
 20
8.362474
 30
0.000000
 11
36.394616
 21
8.388583
 31
0.000000
  0
LINE
  8
Layer 1
 62
     7
  6
CONTINUOUS
 10
36.725212
 20
8.266816
 30
0.000000
 11
36.506503
 21
8.362474
 31
0.000000
  0
LINE
  8
Layer 1
 62
     7
  6
CONTINUOUS
 10
36.926642
 20
8.125776
 30
0.000000
 11
36.725212
 21
8.266816
 31
0.000000
  0
LINE
  8
Layer 1
 62
     7
  6
CONTINUOUS
 10
37.098165
 20
7.954400
 30
0.000000
 11
36.926642
 21
8.125776
 31
0.000000
  0
LINE
  8
Layer 1
 62
     7
  6
CONTINUOUS
 10
37.227150
 20
7.767736
 30
0.000000
 11
37.098165
 21
7.954400
 31
0.000000
  0
LINE
  8
Layer 1
 62
     7
  6
CONTINUOUS
 10
37.300971
 20
7.580830
 30
0.000000
 11
37.227150
 21
7.767736
 31
0.000000
  0
LINE
  8
Layer 1
 62
     7
  6
CONTINUOUS
 10
37.313247
 20
7.491988
 30
0.000000
 11
37.300971
 21
7.580830
 31
0.000000
  0
LINE
  8
Layer 1
 62
     7
  6
CONTINUOUS
 10
37.306997
 20
7.408728
 30
0.000000
 11
37.313247
 21
7.491988
 31
0.000000
  0
LINE
  8
Layer 1
 62
     7
  6
CONTINUOUS
 10
37.280640
 20
7.332930
 30
0.000000
 11
37.306997
 21
7.408728
 31
0.000000
  0
LINE
  8
Layer 1
 62
     7
  6
CONTINUOUS
 10
37.232600
 20
7.266476
 30
0.000000
 11
37.280640
 21
7.332930
 31
0.000000
  0
LINE
  8
Layer 1
 62
     7
  6
CONTINUOUS
 10
37.170202
 20
7.215180
 30
0.000000
 11
37.232600
 21
7.266476
 31
0.000000
  0
LINE
  8
Layer 1
 62
     7
  6
CONTINUOUS
 10
37.093756
 20
7.173757
 30
0.000000
 11
37.170202
 21
7.215180
 31
0.000000
  0
LINE
  8
Layer 1
 62
     7
  6
CONTINUOUS
 10
36.906641
 20
7.119451
 30
0.000000
 11
37.093756
 21
7.173757
 31
0.000000
  0
LINE
  8
Layer 1
 62
     7
  6
CONTINUOUS
 10
36.687096
 20
7.101412
 30
0.000000
 11
36.906641
 21
7.119451
 31
0.000000
  0
LINE
  8
Layer 1
 62
     7
  6
CONTINUOUS
 10
36.450964
 20
7.117491
 30
0.000000
 11
36.687096
 21
7.101412
 31
0.000000
  0
LINE
  8
Layer 1
 62
     7
  6
CONTINUOUS
 10
36.304791
 20
7.147141
 30
0.000000
 11
36.450964
 21
7.117491
 31
0.000000
  0
LINE
  8
Layer 1
 62
     7
  6
CONTINUOUS
 10
36.304791
 20
7.147141
 30
0.000000
 11
36.275389
 21
7.153105
 31
0.000000
  0
ARC
  8
Default
 62
     7
  6
CONTINUOUS
 10
36.281353
 20
7.182507
 30
0.000000
 40
0.030000
 50
162.623567
 51
258.533351
  0
LINE
  8
Default
 62
     7
  6
CONTINUOUS
 10
36.252722
 20
7.191466
 30
0.000000
 11
36.426293
 21
7.746131
 31
0.000000
  0
LINE
  8
Default
 62
     7
  6
CONTINUOUS
 10
3.094984
 20
9.105040
 30
0.000000
 11
1.712634
 21
9.791118
 31
0.000000
  0
ARC
  8
Default
 62
     7
  6
CONTINUOUS
 10
3.108321
 20
9.131912
 30
0.000000
 40
0.030000
 50
243.604173
 51
335.831507
  0
LINE
  8
Layer 1
 62
     7
  6
CONTINUOUS
 10
3.147974
 20
9.147000
 30
0.000000
 11
3.135691
 21
9.119629
 31
0.000000
  0
LINE
  8
Layer 1
 62
     7
  6
CONTINUOUS
 10
3.147974
 20
9.147000
 30
0.000000
 11
3.295995
 21
9.476846
 31
0.000000
  0
LINE
  8
Layer 1
 62
     7
  6
CONTINUOUS
 10
3.295995
 20
9.476846
 30
0.000000
 11
3.581026
 21
10.195193
 31
0.000000
  0
LINE
  8
Layer 1
 62
     7
  6
CONTINUOUS
 10
3.581026
 20
10.195193
 30
0.000000
 11
3.798567
 21
10.845294
 31
0.000000
  0
LINE
  8
Layer 1
 62
     7
  6
CONTINUOUS
 10
3.798567
 20
10.845294
 30
0.000000
 11
3.940714
 21
11.408486
 31
0.000000
  0
LINE
  8
Layer 1
 62
     7
  6
CONTINUOUS
 10
3.940714
 20
11.408486
 30
0.000000
 11
3.981042
 21
11.651658
 31
0.000000
  0
LINE
  8
Layer 1
 62
     7
  6
CONTINUOUS
 10
3.981042
 20
11.651658
 30
0.000000
 11
3.999558
 21
11.866105
 31
0.000000
  0
LINE
  8
Layer 1
 62
     7
  6
CONTINUOUS
 10
3.999558
 20
11.866105
 30
0.000000
 11
4.000230
 21
12.095603
 31
0.000000
  0
LINE
  8
Layer 1
 62
     7
  6
CONTINUOUS
 10
4.000230
 20
12.095603
 30
0.000000
 11
3.984475
 21
12.316811
 31
0.000000
  0
LINE
  8
Layer 1
 62
     7
  6
CONTINUOUS
 10
3.984475
 20
12.316811
 30
0.000000
 11
3.951279
 21
12.531111
 31
0.000000
  0
LINE
  8
Layer 1
 62
     7
  6
CONTINUOUS
 10
3.951279
 20
12.531111
 30
0.000000
 11
3.899633
 21
12.739883
 31
0.000000
  0
LINE
  8
Layer 1
 62
     7
  6
CONTINUOUS
 10
3.899633
 20
12.739883
 30
0.000000
 11
3.828524
 21
12.944509
 31
0.000000
  0
LINE
  8
Layer 1
 62
     7
  6
CONTINUOUS
 10
3.828524
 20
12.944509
 30
0.000000
 11
3.736941
 21
13.146370
 31
0.000000
  0
LINE
  8
Layer 1
 62
     7
  6
CONTINUOUS
 10
3.736941
 20
13.146370
 30
0.000000
 11
3.623873
 21
13.346846
 31
0.000000
  0
LINE
  8
Layer 1
 62
     7
  6
CONTINUOUS
 10
3.623873
 20
13.346846
 30
0.000000
 11
3.488308
 21
13.547320
 31
0.000000
  0
LINE
  8
Layer 1
 62
     7
  6
CONTINUOUS
 10
3.488308
 20
13.547320
 30
0.000000
 11
3.329234
 21
13.749173
 31
0.000000
  0
LINE
  8
Layer 1
 62
     7
  6
CONTINUOUS
 10
3.329234
 20
13.749173
 30
0.000000
 11
3.145640
 21
13.953784
 31
0.000000
  0
LINE
  8
Layer 1
 62
     7
  6
CONTINUOUS
 10
3.145640
 20
13.953784
 30
0.000000
 11
2.700848
 21
14.376810
 31
0.000000
  0
LINE
  8
Layer 1
 62
     7
  6
CONTINUOUS
 10
2.700848
 20
14.376810
 30
0.000000
 11
2.145838
 21
14.827448
 31
0.000000
  0
LINE
  8
Layer 1
 62
     7
  6
CONTINUOUS
 10
2.145838
 20
14.827448
 30
0.000000
 11
1.472519
 21
15.316746
 31
0.000000
  0
LINE
  8
Layer 1
 62
     7
  6
CONTINUOUS
 10
1.472519
 20
15.316746
 30
0.000000
 11
0.623888
 21
15.922870
 31
0.000000
  0
LINE
  8
Layer 1
 62
     7
  6
CONTINUOUS
 10
0.623888
 20
15.922870
 30
0.000000
 11
0.375160
 21
16.123126
 31
0.000000
  0
LINE
  8
Layer 1
 62
     7
  6
CONTINUOUS
 10
0.375160
 20
16.123126
 30
0.000000
 11
0.231610
 21
16.270676
 31
0.000000
  0
LINE
  8
Layer 1
 62
     7
  6
CONTINUOUS
 10
0.231610
 20
16.270676
 30
0.000000
 11
0.196492
 21
16.328396
 31
0.000000
  0
LINE
  8
Layer 1
 62
     7
  6
CONTINUOUS
 10
0.196492
 20
16.328396
 30
0.000000
 11
0.184327
 21
16.377392
 31
0.000000
  0
LINE
  8
Layer 1
 62
     7
  6
CONTINUOUS
 10
0.184327
 20
16.377392
 30
0.000000
 11
0.194000
 21
16.419147
 31
0.000000
  0
LINE
  8
Layer 1
 62
     7
  6
CONTINUOUS
 10
0.194000
 20
16.419147
 30
0.000000
 11
0.224399
 21
16.455146
 31
0.000000
  0
LINE
  8
Layer 1
 62
     7
  6
CONTINUOUS
 10
0.224399
 20
16.455146
 30
0.000000
 11
0.342916
 21
16.515813
 31
0.000000
  0
LINE
  8
Layer 1
 62
     7
  6
CONTINUOUS
 10
0.342916
 20
16.515813
 30
0.000000
 11
0.530968
 21
16.571263
 31
0.000000
  0
LINE
  8
Layer 1
 62
     7
  6
CONTINUOUS
 10
0.530968
 20
16.571263
 30
0.000000
 11
0.806792
 21
16.619824
 31
0.000000
  0
LINE
  8
Layer 1
 62
     7
  6
CONTINUOUS
 10
0.806792
 20
16.619824
 30
0.000000
 11
1.120900
 21
16.635105
 31
0.000000
  0
LINE
  8
Layer 1
 62
     7
  6
CONTINUOUS
 10
1.120900
 20
16.635105
 30
0.000000
 11
1.467858
 21
16.619047
 31
0.000000
  0
LINE
  8
Layer 1
 62
     7
  6
CONTINUOUS
 10
1.467858
 20
16.619047
 30
0.000000
 11
1.842229
 21
16.573589
 31
0.000000
  0
LINE
  8
Layer 1
 62
     7
  6
CONTINUOUS
 10
1.842229
 20
16.573589
 30
0.000000
 11
2.238580
 21
16.500674
 31
0.000000
  0
LINE
  8
Layer 1
 62
     7
  6
CONTINUOUS
 10
2.238580
 20
16.500674
 30
0.000000
 11
2.651476
 21
16.402242
 31
0.000000
  0
LINE
  8
Layer 1
 62
     7
  6
CONTINUOUS
 10
2.651476
 20
16.402242
 30
0.000000
 11
3.075480
 21
16.280234
 31
0.000000
  0
LINE
  8
Layer 1
 62
     7
  6
CONTINUOUS
 10
3.075480
 20
16.280234
 30
0.000000
 11
3.505160
 21
16.136592
 31
0.000000
  0
LINE
  8
Layer 1
 62
     7
  6
CONTINUOUS
 10
3.505160
 20
16.136592
 30
0.000000
 11
3.935079
 21
15.973255
 31
0.000000
  0
LINE
  8
Layer 1
 62
     7
  6
CONTINUOUS
 10
3.935079
 20
15.973255
 30
0.000000
 11
4.359802
 21
15.792165
 31
0.000000
  0
LINE
  8
Layer 1
 62
     7
  6
CONTINUOUS
 10
4.359802
 20
15.792165
 30
0.000000
 11
4.773895
 21
15.595263
 31
0.000000
  0
LINE
  8
Layer 1
 62
     7
  6
CONTINUOUS
 10
4.773895
 20
15.595263
 30
0.000000
 11
5.171924
 21
15.384489
 31
0.000000
  0
LINE
  8
Layer 1
 62
     7
  6
CONTINUOUS
 10
5.171924
 20
15.384489
 30
0.000000
 11
5.548452
 21
15.161785
 31
0.000000
  0
LINE
  8
Layer 1
 62
     7
  6
CONTINUOUS
 10
5.548452
 20
15.161785
 30
0.000000
 11
5.898045
 21
14.929092
 31
0.000000
  0
LINE
  8
Layer 1
 62
     7
  6
CONTINUOUS
 10
5.898045
 20
14.929092
 30
0.000000
 11
6.215268
 21
14.688350
 31
0.000000
  0
LINE
  8
Layer 1
 62
     7
  6
CONTINUOUS
 10
6.215268
 20
14.688350
 30
0.000000
 11
6.494686
 21
14.441501
 31
0.000000
  0
LINE
  8
Layer 1
 62
     7
  6
CONTINUOUS
 10
6.494686
 20
14.441501
 30
0.000000
 11
6.704922
 21
14.245324
 31
0.000000
  0
LINE
  8
Layer 1
 62
     7
  6
CONTINUOUS
 10
6.704922
 20
14.245324
 30
0.000000
 11
6.885364
 21
14.099764
 31
0.000000
  0
LINE
  8
Layer 1
 62
     7
  6
CONTINUOUS
 10
6.885364
 20
14.099764
 30
0.000000
 11
7.053520
 21
14.001680
 31
0.000000
  0
LINE
  8
Layer 1
 62
     7
  6
CONTINUOUS
 10
7.053520
 20
14.001680
 30
0.000000
 11
7.226896
 21
13.947928
 31
0.000000
  0
LINE
  8
Layer 1
 62
     7
  6
CONTINUOUS
 10
7.226896
 20
13.947928
 30
0.000000
 11
7.422999
 21
13.935368
 31
0.000000
  0
LINE
  8
Layer 1
 62
     7
  6
CONTINUOUS
 10
7.422999
 20
13.935368
 30
0.000000
 11
7.659338
 21
13.960857
 31
0.000000
  0
LINE
  8
Layer 1
 62
     7
  6
CONTINUOUS
 10
7.659338
 20
13.960857
 30
0.000000
 11
7.953418
 21
14.021253
 31
0.000000
  0
LINE
  8
Layer 1
 62
     7
  6
CONTINUOUS
 10
7.953418
 20
14.021253
 30
0.000000
 11
8.322747
 21
14.113414
 31
0.000000
  0
LINE
  8
Layer 1
 62
     7
  6
CONTINUOUS
 10
8.322747
 20
14.113414
 30
0.000000
 11
8.788104
 21
14.248408
 31
0.000000
  0
LINE
  8
Layer 1
 62
     7
  6
CONTINUOUS
 10
8.788104
 20
14.248408
 30
0.000000
 11
9.188646
 21
14.391360
 31
0.000000
  0
LINE
  8
Layer 1
 62
     7
  6
CONTINUOUS
 10
9.188646
 20
14.391360
 30
0.000000
 11
9.481662
 21
14.525224
 31
0.000000
  0
LINE
  8
Layer 1
 62
     7
  6
CONTINUOUS
 10
9.481662
 20
14.525224
 30
0.000000
 11
9.574500
 21
14.583420
 31
0.000000
  0
LINE
  8
Layer 1
 62
     7
  6
CONTINUOUS
 10
9.574500
 20
14.583420
 30
0.000000
 11
9.624439
 21
14.632951
 31
0.000000
  0
LINE
  8
Layer 1
 62
     7
  6
CONTINUOUS
 10
9.624439
 20
14.632951
 30
0.000000
 11
9.642589
 21
14.695658
 31
0.000000
  0
LINE
  8
Layer 1
 62
     7
  6
CONTINUOUS
 10
9.642589
 20
14.695658
 30
0.000000
 11
9.644318
 21
14.791614
 31
0.000000
  0
LINE
  8
Layer 1
 62
     7
  6
CONTINUOUS
 10
9.644318
 20
14.791614
 30
0.000000
 11
9.602709
 21
15.064161
 31
0.000000
  0
LINE
  8
Layer 1
 62
     7
  6
CONTINUOUS
 10
9.602709
 20
15.064161
 30
0.000000
 11
9.508007
 21
15.412366
 31
0.000000
  0
LINE
  8
Layer 1
 62
     7
  6
CONTINUOUS
 10
9.508007
 20
15.412366
 30
0.000000
 11
9.368606
 21
15.798000
 31
0.000000
  0
LINE
  8
Layer 1
 62
     7
  6
CONTINUOUS
 10
9.368606
 20
15.798000
 30
0.000000
 11
9.177162
 21
16.289731
 31
0.000000
  0
LINE
  8
Layer 1
 62
     7
  6
CONTINUOUS
 10
9.177162
 20
16.289731
 30
0.000000
 11
9.058619
 21
16.647902
 31
0.000000
  0
LINE
  8
Layer 1
 62
     7
  6
CONTINUOUS
 10
9.058619
 20
16.647902
 30
0.000000
 11
9.016086
 21
16.873698
 31
0.000000
  0
LINE
  8
Layer 1
 62
     7
  6
CONTINUOUS
 10
9.016086
 20
16.873698
 30
0.000000
 11
9.024295
 21
16.937326
 31
0.000000
  0
LINE
  8
Layer 1
 62
     7
  6
CONTINUOUS
 10
9.024295
 20
16.937326
 30
0.000000
 11
9.052672
 21
16.968304
 31
0.000000
  0
LINE
  8
Layer 1
 62
     7
  6
CONTINUOUS
 10
9.052672
 20
16.968304
 30
0.000000
 11
9.101606
 21
16.966780
 31
0.000000
  0
LINE
  8
Layer 1
 62
     7
  6
CONTINUOUS
 10
9.101606
 20
16.966780
 30
0.000000
 11
9.171485
 21
16.932903
 31
0.000000
  0
LINE
  8
Layer 1
 62
     7
  6
CONTINUOUS
 10
9.171485
 20
16.932903
 30
0.000000
 11
9.375636
 21
16.768681
 31
0.000000
  0
LINE
  8
Layer 1
 62
     7
  6
CONTINUOUS
 10
9.375636
 20
16.768681
 30
0.000000
 11
9.668233
 21
16.476822
 31
0.000000
  0
LINE
  8
Layer 1
 62
     7
  6
CONTINUOUS
 10
9.668233
 20
16.476822
 30
0.000000
 11
10.052384
 21
16.058509
 31
0.000000
  0
LINE
  8
Layer 1
 62
     7
  6
CONTINUOUS
 10
10.052384
 20
16.058509
 30
0.000000
 11
10.348998
 21
15.735505
 31
0.000000
  0
LINE
  8
Layer 1
 62
     7
  6
CONTINUOUS
 10
10.348998
 20
15.735505
 30
0.000000
 11
10.604191
 21
15.477479
 31
0.000000
  0
LINE
  8
Layer 1
 62
     7
  6
CONTINUOUS
 10
10.604191
 20
15.477479
 30
0.000000
 11
10.825497
 21
15.279681
 31
0.000000
  0
LINE
  8
Layer 1
 62
     7
  6
CONTINUOUS
 10
10.825497
 20
15.279681
 30
0.000000
 11
11.020454
 21
15.137361
 31
0.000000
  0
LINE
  8
Layer 1
 62
     7
  6
CONTINUOUS
 10
11.020454
 20
15.137361
 30
0.000000
 11
11.196597
 21
15.045769
 31
0.000000
  0
LINE
  8
Layer 1
 62
     7
  6
CONTINUOUS
 10
11.196597
 20
15.045769
 30
0.000000
 11
11.361462
 21
15.000155
 31
0.000000
  0
LINE
  8
Layer 1
 62
     7
  6
CONTINUOUS
 10
11.361462
 20
15.000155
 30
0.000000
 11
11.522585
 21
14.995768
 31
0.000000
  0
LINE
  8
Layer 1
 62
     7
  6
CONTINUOUS
 10
11.522585
 20
14.995768
 30
0.000000
 11
11.687501
 21
15.027859
 31
0.000000
  0
LINE
  8
Layer 1
 62
     7
  6
CONTINUOUS
 10
11.687501
 20
15.027859
 30
0.000000
 11
11.907269
 21
15.106367
 31
0.000000
  0
LINE
  8
Layer 1
 62
     7
  6
CONTINUOUS
 10
11.907269
 20
15.106367
 30
0.000000
 11
12.087240
 21
15.199671
 31
0.000000
  0
LINE
  8
Layer 1
 62
     7
  6
CONTINUOUS
 10
12.087240
 20
15.199671
 30
0.000000
 11
12.208842
 21
15.296089
 31
0.000000
  0
LINE
  8
Layer 1
 62
     7
  6
CONTINUOUS
 10
12.208842
 20
15.296089
 30
0.000000
 11
12.241951
 21
15.341814
 31
0.000000
  0
LINE
  8
Layer 1
 62
     7
  6
CONTINUOUS
 10
12.241951
 20
15.341814
 30
0.000000
 11
12.253504
 21
15.383936
 31
0.000000
  0
LINE
  8
Layer 1
 62
     7
  6
CONTINUOUS
 10
12.253504
 20
15.383936
 30
0.000000
 11
12.193787
 21
15.607997
 31
0.000000
  0
LINE
  8
Layer 1
 62
     7
  6
CONTINUOUS
 10
12.193787
 20
15.607997
 30
0.000000
 11
12.031191
 21
16.075295
 31
0.000000
  0
LINE
  8
Layer 1
 62
     7
  6
CONTINUOUS
 10
12.031191
 20
16.075295
 30
0.000000
 11
11.496695
 21
17.466289
 31
0.000000
  0
LINE
  8
Layer 1
 62
     7
  6
CONTINUOUS
 10
11.496695
 20
17.466289
 30
0.000000
 11
11.210115
 21
18.207328
 31
0.000000
  0
LINE
  8
Layer 1
 62
     7
  6
CONTINUOUS
 10
11.210115
 20
18.207328
 30
0.000000
 11
10.989283
 21
18.828432
 31
0.000000
  0
LINE
  8
Layer 1
 62
     7
  6
CONTINUOUS
 10
10.989283
 20
18.828432
 30
0.000000
 11
10.856006
 21
19.264499
 31
0.000000
  0
LINE
  8
Layer 1
 62
     7
  6
CONTINUOUS
 10
10.856006
 20
19.264499
 30
0.000000
 11
10.829014
 21
19.392798
 31
0.000000
  0
LINE
  8
Layer 1
 62
     7
  6
CONTINUOUS
 10
10.829014
 20
19.392798
 30
0.000000
 11
10.832090
 21
19.450424
 31
0.000000
  0
LINE
  8
Layer 1
 62
     7
  6
CONTINUOUS
 10
10.832090
 20
19.450424
 30
0.000000
 11
10.877881
 21
19.428399
 31
0.000000
  0
LINE
  8
Layer 1
 62
     7
  6
CONTINUOUS
 10
10.877881
 20
19.428399
 30
0.000000
 11
10.973314
 21
19.328419
 31
0.000000
  0
LINE
  8
Layer 1
 62
     7
  6
CONTINUOUS
 10
10.973314
 20
19.328419
 30
0.000000
 11
11.289677
 21
18.926063
 31
0.000000
  0
LINE
  8
Layer 1
 62
     7
  6
CONTINUOUS
 10
11.289677
 20
18.926063
 30
0.000000
 11
11.734313
 21
18.306302
 31
0.000000
  0
LINE
  8
Layer 1
 62
     7
  6
CONTINUOUS
 10
11.734313
 20
18.306302
 30
0.000000
 11
12.260357
 21
17.532081
 31
0.000000
  0
LINE
  8
Layer 1
 62
     7
  6
CONTINUOUS
 10
12.260357
 20
17.532081
 30
0.000000
 11
13.649948
 21
15.441485
 31
0.000000
  0
LINE
  8
Layer 1
 62
     7
  6
CONTINUOUS
 10
13.649948
 20
15.441485
 30
0.000000
 11
13.721181
 21
15.424489
 31
0.000000
  0
LINE
  8
Layer 1
 62
     7
  6
CONTINUOUS
 10
13.721181
 20
15.424489
 30
0.000000
 11
13.875563
 21
15.435386
 31
0.000000
  0
LINE
  8
Layer 1
 62
     7
  6
CONTINUOUS
 10
13.875563
 20
15.435386
 30
0.000000
 11
14.342835
 21
15.529330
 31
0.000000
  0
LINE
  8
Layer 1
 62
     7
  6
CONTINUOUS
 10
14.871479
 20
15.665911
 30
0.000000
 11
14.342835
 21
15.529330
 31
0.000000
  0
ARC
  8
Default
 62
     7
  6
CONTINUOUS
 10
14.846464
 20
15.762732
 30
0.000000
 40
0.100000
 50
284.486211
 51
382.146369
  0
LINE
  8
Layer 1
 62
     7
  6
CONTINUOUS
 10
14.939086
 20
15.800429
 30
0.000000
 11
13.867998
 21
18.432091
 31
0.000000
  0
LINE
  8
Layer 1
 62
     7
  6
CONTINUOUS
 10
13.867998
 20
18.432091
 30
0.000000
 11
13.441990
 21
19.501848
 31
0.000000
  0
LINE
  8
Layer 1
 62
     7
  6
CONTINUOUS
 10
13.441990
 20
19.501848
 30
0.000000
 11
13.105717
 21
20.390847
 31
0.000000
  0
LINE
  8
Layer 1
 62
     7
  6
CONTINUOUS
 10
13.105717
 20
20.390847
 30
0.000000
 11
12.892990
 21
21.006432
 31
0.000000
  0
LINE
  8
Layer 1
 62
     7
  6
CONTINUOUS
 10
12.892990
 20
21.006432
 30
0.000000
 11
12.843521
 21
21.182739
 31
0.000000
  0
LINE
  8
Layer 1
 62
     7
  6
CONTINUOUS
 10
12.843521
 20
21.182739
 30
0.000000
 11
12.837617
 21
21.255945
 31
0.000000
  0
LINE
  8
Layer 1
 62
     7
  6
CONTINUOUS
 10
12.837617
 20
21.255945
 30
0.000000
 11
12.887677
 21
21.219133
 31
0.000000
  0
LINE
  8
Layer 1
 62
     7
  6
CONTINUOUS
 10
12.887677
 20
21.219133
 30
0.000000
 11
12.998605
 21
21.080126
 31
0.000000
  0
LINE
  8
Layer 1
 62
     7
  6
CONTINUOUS
 10
12.998605
 20
21.080126
 30
0.000000
 11
13.374981
 21
20.537634
 31
0.000000
  0
LINE
  8
Layer 1
 62
     7
  6
CONTINUOUS
 10
13.374981
 20
20.537634
 30
0.000000
 11
13.910581
 21
19.712679
 31
0.000000
  0
LINE
  8
Layer 1
 62
     7
  6
CONTINUOUS
 10
13.910581
 20
19.712679
 30
0.000000
 11
14.549244
 21
18.689474
 31
0.000000
  0
LINE
  8
Layer 1
 62
     7
  6
CONTINUOUS
 10
14.549244
 20
18.689474
 30
0.000000
 11
15.008763
 21
17.950197
 31
0.000000
  0
LINE
  8
Layer 1
 62
     7
  6
CONTINUOUS
 10
15.008763
 20
17.950197
 30
0.000000
 11
15.394523
 21
17.353955
 31
0.000000
  0
LINE
  8
Layer 1
 62
     7
  6
CONTINUOUS
 10
15.394523
 20
17.353955
 30
0.000000
 11
15.718961
 21
16.886009
 31
0.000000
  0
LINE
  8
Layer 1
 62
     7
  6
CONTINUOUS
 10
15.718961
 20
16.886009
 30
0.000000
 11
15.994514
 21
16.531617
 31
0.000000
  0
LINE
  8
Layer 1
 62
     7
  6
CONTINUOUS
 10
15.994514
 20
16.531617
 30
0.000000
 11
16.233620
 21
16.276040
 31
0.000000
  0
LINE
  8
Layer 1
 62
     7
  6
CONTINUOUS
 10
16.233620
 20
16.276040
 30
0.000000
 11
16.448715
 21
16.104536
 31
0.000000
  0
LINE
  8
Layer 1
 62
     7
  6
CONTINUOUS
 10
16.448715
 20
16.104536
 30
0.000000
 11
16.652237
 21
16.002365
 31
0.000000
  0
LINE
  8
Layer 1
 62
     7
  6
CONTINUOUS
 10
16.652237
 20
16.002365
 30
0.000000
 11
16.856623
 21
15.954787
 31
0.000000
  0
LINE
  8
Layer 1
 62
     7
  6
CONTINUOUS
 10
16.856623
 20
15.954787
 30
0.000000
 11
17.120486
 21
15.931802
 31
0.000000
  0
LINE
  8
Layer 1
 62
     7
  6
CONTINUOUS
 10
17.120486
 20
15.931802
 30
0.000000
 11
17.336567
 21
15.929790
 31
0.000000
  0
LINE
  8
Layer 1
 62
     7
  6
CONTINUOUS
 10
17.336567
 20
15.929790
 30
0.000000
 11
17.482568
 21
15.947767
 31
0.000000
  0
LINE
  8
Layer 1
 62
     7
  6
CONTINUOUS
 10
17.482568
 20
15.947767
 30
0.000000
 11
17.522320
 21
15.963945
 31
0.000000
  0
LINE
  8
Layer 1
 62
     7
  6
CONTINUOUS
 10
17.522320
 20
15.963945
 30
0.000000
 11
17.536190
 21
15.984751
 31
0.000000
  0
LINE
  8
Layer 1
 62
     7
  6
CONTINUOUS
 10
17.536190
 20
15.984751
 30
0.000000
 11
17.427877
 21
16.300860
 31
0.000000
  0
LINE
  8
Layer 1
 62
     7
  6
CONTINUOUS
 10
17.427877
 20
16.300860
 30
0.000000
 11
17.132964
 21
17.078828
 31
0.000000
  0
LINE
  8
Layer 1
 62
     7
  6
CONTINUOUS
 10
17.132964
 20
17.078828
 30
0.000000
 11
16.163505
 21
19.552128
 31
0.000000
  0
LINE
  8
Layer 1
 62
     7
  6
CONTINUOUS
 10
16.163505
 20
19.552128
 30
0.000000
 11
15.636489
 21
20.899971
 31
0.000000
  0
LINE
  8
Layer 1
 62
     7
  6
CONTINUOUS
 10
15.636489
 20
20.899971
 30
0.000000
 11
15.216277
 21
22.015441
 31
0.000000
  0
LINE
  8
Layer 1
 62
     7
  6
CONTINUOUS
 10
15.216277
 20
22.015441
 30
0.000000
 11
14.945427
 21
22.782599
 31
0.000000
  0
LINE
  8
Layer 1
 62
     7
  6
CONTINUOUS
 10
14.945427
 20
22.782599
 30
0.000000
 11
14.879313
 21
22.999330
 31
0.000000
  0
LINE
  8
Layer 1
 62
     7
  6
CONTINUOUS
 10
14.879313
 20
22.999330
 30
0.000000
 11
14.866499
 21
23.085506
 31
0.000000
  0
LINE
  8
Layer 1
 62
     7
  6
CONTINUOUS
 10
14.866499
 20
23.085506
 30
0.000000
 11
14.922292
 21
23.027183
 31
0.000000
  0
LINE
  8
Layer 1
 62
     7
  6
CONTINUOUS
 10
14.922292
 20
23.027183
 30
0.000000
 11
15.052811
 21
22.829775
 31
0.000000
  0
LINE
  8
Layer 1
 62
     7
  6
CONTINUOUS
 10
15.052811
 20
22.829775
 30
0.000000
 11
15.504153
 21
22.075888
 31
0.000000
  0
LINE
  8
Layer 1
 62
     7
  6
CONTINUOUS
 10
15.504153
 20
22.075888
 30
0.000000
 11
16.152784
 21
20.940211
 31
0.000000
  0
LINE
  8
Layer 1
 62
     7
  6
CONTINUOUS
 10
16.152784
 20
20.940211
 30
0.000000
 11
16.930965
 21
19.539111
 31
0.000000
  0
LINE
  8
Layer 1
 62
     7
  6
CONTINUOUS
 10
16.930965
 20
19.539111
 30
0.000000
 11
18.012360
 21
17.605726
 31
0.000000
  0
LINE
  8
Layer 1
 62
     7
  6
CONTINUOUS
 10
18.012360
 20
17.605726
 30
0.000000
 11
18.395872
 21
16.968125
 31
0.000000
  0
LINE
  8
Layer 1
 62
     7
  6
CONTINUOUS
 10
18.395872
 20
16.968125
 30
0.000000
 11
18.702959
 21
16.511252
 31
0.000000
  0
LINE
  8
Layer 1
 62
     7
  6
CONTINUOUS
 10
18.702959
 20
16.511252
 30
0.000000
 11
18.954898
 21
16.206106
 31
0.000000
  0
LINE
  8
Layer 1
 62
     7
  6
CONTINUOUS
 10
18.954898
 20
16.206106
 30
0.000000
 11
19.066834
 21
16.101368
 31
0.000000
  0
LINE
  8
Layer 1
 62
     7
  6
CONTINUOUS
 10
19.066834
 20
16.101368
 30
0.000000
 11
19.172961
 21
16.023687
 31
0.000000
  0
LINE
  8
Layer 1
 62
     7
  6
CONTINUOUS
 10
19.172961
 20
16.023687
 30
0.000000
 11
19.275938
 21
15.969438
 31
0.000000
  0
LINE
  8
Layer 1
 62
     7
  6
CONTINUOUS
 10
19.275938
 20
15.969438
 30
0.000000
 11
19.378425
 21
15.934996
 31
0.000000
  0
LINE
  8
Layer 1
 62
     7
  6
CONTINUOUS
 10
19.378425
 20
15.934996
 30
0.000000
 11
19.592564
 21
15.911031
 31
0.000000
  0
LINE
  8
Layer 1
 62
     7
  6
CONTINUOUS
 10
19.592564
 20
15.911031
 30
0.000000
 11
20.265376
 21
15.907250
 31
0.000000
  0
LINE
  8
Layer 1
 62
     7
  6
CONTINUOUS
 10
20.265376
 20
15.907250
 30
0.000000
 11
19.307632
 21
18.432011
 31
0.000000
  0
LINE
  8
Layer 1
 62
     7
  6
CONTINUOUS
 10
19.307632
 20
18.432011
 30
0.000000
 11
17.695726
 21
22.639946
 31
0.000000
  0
LINE
  8
Layer 1
 62
     7
  6
CONTINUOUS
 10
17.695726
 20
22.639946
 30
0.000000
 11
17.424216
 21
23.374039
 31
0.000000
  0
LINE
  8
Layer 1
 62
     7
  6
CONTINUOUS
 10
17.424216
 20
23.374039
 30
0.000000
 11
17.307848
 21
23.778473
 31
0.000000
  0
LINE
  8
Layer 1
 62
     7
  6
CONTINUOUS
 10
17.307848
 20
23.778473
 30
0.000000
 11
17.307171
 21
23.858104
 31
0.000000
  0
LINE
  8
Layer 1
 62
     7
  6
CONTINUOUS
 10
17.307171
 20
23.858104
 30
0.000000
 11
17.321093
 21
23.867454
 31
0.000000
  0
LINE
  8
Layer 1
 62
     7
  6
CONTINUOUS
 10
17.321093
 20
23.867454
 30
0.000000
 11
17.344476
 21
23.856563
 31
0.000000
  0
LINE
  8
Layer 1
 62
     7
  6
CONTINUOUS
 10
17.344476
 20
23.856563
 30
0.000000
 11
17.419495
 21
23.774264
 31
0.000000
  0
LINE
  8
Layer 1
 62
     7
  6
CONTINUOUS
 10
17.419495
 20
23.774264
 30
0.000000
 11
17.531959
 21
23.611621
 31
0.000000
  0
LINE
  8
Layer 1
 62
     7
  6
CONTINUOUS
 10
17.531959
 20
23.611621
 30
0.000000
 11
17.868151
 21
23.046961
 31
0.000000
  0
LINE
  8
Layer 1
 62
     7
  6
CONTINUOUS
 10
17.868151
 20
23.046961
 30
0.000000
 11
18.350911
 21
22.165897
 31
0.000000
  0
LINE
  8
Layer 1
 62
     7
  6
CONTINUOUS
 10
18.350911
 20
22.165897
 30
0.000000
 11
18.978095
 21
20.971742
 31
0.000000
  0
LINE
  8
Layer 1
 62
     7
  6
CONTINUOUS
 10
18.978095
 20
20.971742
 30
0.000000
 11
19.747559
 21
19.467810
 31
0.000000
  0
LINE
  8
Layer 1
 62
     7
  6
CONTINUOUS
 10
19.747559
 20
19.467810
 30
0.000000
 11
20.756591
 21
17.519165
 31
0.000000
  0
LINE
  8
Layer 1
 62
     7
  6
CONTINUOUS
 10
20.756591
 20
17.519165
 30
0.000000
 11
21.127398
 21
16.851119
 31
0.000000
  0
LINE
  8
Layer 1
 62
     7
  6
CONTINUOUS
 10
21.127398
 20
16.851119
 30
0.000000
 11
21.429280
 21
16.356413
 31
0.000000
  0
LINE
  8
Layer 1
 62
     7
  6
CONTINUOUS
 10
21.429280
 20
16.356413
 30
0.000000
 11
21.677401
 21
16.011912
 31
0.000000
  0
LINE
  8
Layer 1
 62
     7
  6
CONTINUOUS
 10
21.677401
 20
16.011912
 30
0.000000
 11
21.886920
 21
15.794483
 31
0.000000
  0
LINE
  8
Layer 1
 62
     7
  6
CONTINUOUS
 10
21.886920
 20
15.794483
 30
0.000000
 11
21.981943
 21
15.726190
 31
0.000000
  0
LINE
  8
Layer 1
 62
     7
  6
CONTINUOUS
 10
21.981943
 20
15.726190
 30
0.000000
 11
22.073001
 21
15.680990
 31
0.000000
  0
LINE
  8
Layer 1
 62
     7
  6
CONTINUOUS
 10
22.073001
 20
15.680990
 30
0.000000
 11
22.161990
 21
15.655990
 31
0.000000
  0
LINE
  8
Layer 1
 62
     7
  6
CONTINUOUS
 10
22.161990
 20
15.655990
 30
0.000000
 11
22.250805
 21
15.648300
 31
0.000000
  0
LINE
  8
Layer 1
 62
     7
  6
CONTINUOUS
 10
22.250805
 20
15.648300
 30
0.000000
 11
22.652005
 21
15.670059
 31
0.000000
  0
LINE
  8
Layer 1
 62
     7
  6
CONTINUOUS
 10
22.652005
 20
15.670059
 30
0.000000
 11
22.774052
 21
15.693613
 31
0.000000
  0
LINE
  8
Layer 1
 62
     7
  6
CONTINUOUS
 10
22.774052
 20
15.693613
 30
0.000000
 11
22.818876
 21
15.722374
 31
0.000000
  0
LINE
  8
Layer 1
 62
     7
  6
CONTINUOUS
 10
22.818876
 20
15.722374
 30
0.000000
 11
22.338561
 21
17.053628
 31
0.000000
  0
LINE
  8
Layer 1
 62
     7
  6
CONTINUOUS
 10
22.338561
 20
17.053628
 30
0.000000
 11
21.183759
 21
20.150281
 31
0.000000
  0
LINE
  8
Layer 1
 62
     7
  6
CONTINUOUS
 10
21.183759
 20
20.150281
 30
0.000000
 11
20.032890
 21
23.274658
 31
0.000000
  0
LINE
  8
Layer 1
 62
     7
  6
CONTINUOUS
 10
20.032890
 20
23.274658
 30
0.000000
 11
19.685853
 21
24.263614
 31
0.000000
  0
LINE
  8
Layer 1
 62
     7
  6
CONTINUOUS
 10
19.685853
 20
24.263614
 30
0.000000
 11
19.562030
 21
24.672566
 31
0.000000
  0
LINE
  8
Layer 1
 62
     7
  6
CONTINUOUS
 10
19.562030
 20
24.672566
 30
0.000000
 11
19.575643
 21
24.664715
 31
0.000000
  0
LINE
  8
Layer 1
 62
     7
  6
CONTINUOUS
 10
19.575643
 20
24.664715
 30
0.000000
 11
19.612908
 21
24.608009
 31
0.000000
  0
LINE
  8
Layer 1
 62
     7
  6
CONTINUOUS
 10
19.612908
 20
24.608009
 30
0.000000
 11
19.753526
 21
24.357570
 31
0.000000
  0
LINE
  8
Layer 1
 62
     7
  6
CONTINUOUS
 10
19.753526
 20
24.357570
 30
0.000000
 11
20.265029
 21
23.375379
 31
0.000000
  0
LINE
  8
Layer 1
 62
     7
  6
CONTINUOUS
 10
20.265029
 20
23.375379
 30
0.000000
 11
21.936418
 21
20.020057
 31
0.000000
  0
LINE
  8
Layer 1
 62
     7
  6
CONTINUOUS
 10
21.936418
 20
20.020057
 30
0.000000
 11
23.062524
 21
17.770639
 31
0.000000
  0
LINE
  8
Layer 1
 62
     7
  6
CONTINUOUS
 10
23.062524
 20
17.770639
 30
0.000000
 11
23.508100
 21
16.926529
 31
0.000000
  0
LINE
  8
Layer 1
 62
     7
  6
CONTINUOUS
 10
23.508100
 20
16.926529
 30
0.000000
 11
23.884192
 21
16.254311
 31
0.000000
  0
LINE
  8
Layer 1
 62
     7
  6
CONTINUOUS
 10
23.884192
 20
16.254311
 30
0.000000
 11
24.197429
 21
15.742603
 31
0.000000
  0
LINE
  8
Layer 1
 62
     7
  6
CONTINUOUS
 10
24.197429
 20
15.742603
 30
0.000000
 11
24.454435
 21
15.380025
 31
0.000000
  0
LINE
  8
Layer 1
 62
     7
  6
CONTINUOUS
 10
24.454435
 20
15.380025
 30
0.000000
 11
24.661839
 21
15.155195
 31
0.000000
  0
LINE
  8
Layer 1
 62
     7
  6
CONTINUOUS
 10
24.661839
 20
15.155195
 30
0.000000
 11
24.749010
 21
15.090879
 31
0.000000
  0
LINE
  8
Layer 1
 62
     7
  6
CONTINUOUS
 10
24.749010
 20
15.090879
 30
0.000000
 11
24.826265
 21
15.056733
 31
0.000000
  0
LINE
  8
Layer 1
 62
     7
  6
CONTINUOUS
 10
24.826265
 20
15.056733
 30
0.000000
 11
25.035541
 21
14.999694
 31
0.000000
  0
LINE
  8
Layer 1
 62
     7
  6
CONTINUOUS
 10
25.035541
 20
14.999694
 30
0.000000
 11
25.114919
 21
14.988976
 31
0.000000
  0
LINE
  8
Layer 1
 62
     7
  6
CONTINUOUS
 10
25.114919
 20
14.988976
 30
0.000000
 11
25.174796
 21
15.001092
 31
0.000000
  0
LINE
  8
Layer 1
 62
     7
  6
CONTINUOUS
 10
25.174796
 20
15.001092
 30
0.000000
 11
25.213175
 21
15.044264
 31
0.000000
  0
LINE
  8
Layer 1
 62
     7
  6
CONTINUOUS
 10
25.213175
 20
15.044264
 30
0.000000
 11
25.228059
 21
15.126718
 31
0.000000
  0
LINE
  8
Layer 1
 62
     7
  6
CONTINUOUS
 10
25.228059
 20
15.126718
 30
0.000000
 11
25.217454
 21
15.256677
 31
0.000000
  0
LINE
  8
Layer 1
 62
     7
  6
CONTINUOUS
 10
25.217454
 20
15.256677
 30
0.000000
 11
25.179362
 21
15.442364
 31
0.000000
  0
LINE
  8
Layer 1
 62
     7
  6
CONTINUOUS
 10
25.179362
 20
15.442364
 30
0.000000
 11
25.012735
 21
16.013821
 31
0.000000
  0
LINE
  8
Layer 1
 62
     7
  6
CONTINUOUS
 10
25.012735
 20
16.013821
 30
0.000000
 11
24.712209
 21
16.906881
 31
0.000000
  0
LINE
  8
Layer 1
 62
     7
  6
CONTINUOUS
 10
24.712209
 20
16.906881
 30
0.000000
 11
23.645582
 21
19.920973
 31
0.000000
  0
LINE
  8
Layer 1
 62
     7
  6
CONTINUOUS
 10
23.645582
 20
19.920973
 30
0.000000
 11
22.639869
 21
22.816356
 31
0.000000
  0
LINE
  8
Layer 1
 62
     7
  6
CONTINUOUS
 10
22.639869
 20
22.816356
 30
0.000000
 11
22.310002
 21
23.815538
 31
0.000000
  0
LINE
  8
Layer 1
 62
     7
  6
CONTINUOUS
 10
22.310002
 20
23.815538
 30
0.000000
 11
22.160437
 21
24.323120
 31
0.000000
  0
LINE
  8
Layer 1
 62
     7
  6
CONTINUOUS
 10
22.160437
 20
24.323120
 30
0.000000
 11
22.161195
 21
24.384573
 31
0.000000
  0
LINE
  8
Layer 1
 62
     7
  6
CONTINUOUS
 10
22.161195
 20
24.384573
 30
0.000000
 11
22.208507
 21
24.338790
 31
0.000000
  0
LINE
  8
Layer 1
 62
     7
  6
CONTINUOUS
 10
22.208507
 20
24.338790
 30
0.000000
 11
22.427358
 21
23.958278
 31
0.000000
  0
LINE
  8
Layer 1
 62
     7
  6
CONTINUOUS
 10
22.427358
 20
23.958278
 30
0.000000
 11
22.786126
 21
23.247109
 31
0.000000
  0
LINE
  8
Layer 1
 62
     7
  6
CONTINUOUS
 10
22.786126
 20
23.247109
 30
0.000000
 11
23.253945
 21
22.270805
 31
0.000000
  0
LINE
  8
Layer 1
 62
     7
  6
CONTINUOUS
 10
23.253945
 20
22.270805
 30
0.000000
 11
24.393278
 21
19.784881
 31
0.000000
  0
LINE
  8
Layer 1
 62
     7
  6
CONTINUOUS
 10
24.393278
 20
19.784881
 30
0.000000
 11
25.003061
 21
18.406307
 31
0.000000
  0
LINE
  8
Layer 1
 62
     7
  6
CONTINUOUS
 10
25.003061
 20
18.406307
 30
0.000000
 11
25.598435
 21
17.024688
 31
0.000000
  0
LINE
  8
Layer 1
 62
     7
  6
CONTINUOUS
 10
25.598435
 20
17.024688
 30
0.000000
 11
26.128506
 21
15.840593
 31
0.000000
  0
LINE
  8
Layer 1
 62
     7
  6
CONTINUOUS
 10
26.128506
 20
15.840593
 30
0.000000
 11
26.364529
 21
15.366021
 31
0.000000
  0
LINE
  8
Layer 1
 62
     7
  6
CONTINUOUS
 10
26.364529
 20
15.366021
 30
0.000000
 11
26.582193
 21
14.968070
 31
0.000000
  0
LINE
  8
Layer 1
 62
     7
  6
CONTINUOUS
 10
26.582193
 20
14.968070
 30
0.000000
 11
26.782236
 21
14.645470
 31
0.000000
  0
LINE
  8
Layer 1
 62
     7
  6
CONTINUOUS
 10
26.782236
 20
14.645470
 30
0.000000
 11
26.965394
 21
14.396948
 31
0.000000
  0
LINE
  8
Layer 1
 62
     7
  6
CONTINUOUS
 10
26.965394
 20
14.396948
 30
0.000000
 11
27.132404
 21
14.221233
 31
0.000000
  0
LINE
  8
Layer 1
 62
     7
  6
CONTINUOUS
 10
27.132404
 20
14.221233
 30
0.000000
 11
27.284005
 21
14.117053
 31
0.000000
  0
LINE
  8
Layer 1
 62
     7
  6
CONTINUOUS
 10
27.284005
 20
14.117053
 30
0.000000
 11
27.503773
 21
14.030007
 31
0.000000
  0
LINE
  8
Layer 1
 62
     7
  6
CONTINUOUS
 10
27.503773
 20
14.030007
 30
0.000000
 11
27.683744
 21
13.992813
 31
0.000000
  0
LINE
  8
Layer 1
 62
     7
  6
CONTINUOUS
 10
27.683744
 20
13.992813
 30
0.000000
 11
27.753002
 21
13.993355
 31
0.000000
  0
LINE
  8
Layer 1
 62
     7
  6
CONTINUOUS
 10
27.753002
 20
13.993355
 30
0.000000
 11
27.805346
 21
14.006895
 31
0.000000
  0
LINE
  8
Layer 1
 62
     7
  6
CONTINUOUS
 10
27.805346
 20
14.006895
 30
0.000000
 11
27.838455
 21
14.033609
 31
0.000000
  0
LINE
  8
Layer 1
 62
     7
  6
CONTINUOUS
 10
27.838455
 20
14.033609
 30
0.000000
 11
27.850007
 21
14.073676
 31
0.000000
  0
LINE
  8
Layer 1
 62
     7
  6
CONTINUOUS
 10
27.850007
 20
14.073676
 30
0.000000
 11
27.729758
 21
14.523667
 31
0.000000
  0
LINE
  8
Layer 1
 62
     7
  6
CONTINUOUS
 10
27.729758
 20
14.523667
 30
0.000000
 11
27.402346
 21
15.581141
 31
0.000000
  0
LINE
  8
Layer 1
 62
     7
  6
CONTINUOUS
 10
27.402346
 20
15.581141
 30
0.000000
 11
26.326055
 21
18.886814
 31
0.000000
  0
LINE
  8
Layer 1
 62
     7
  6
CONTINUOUS
 10
26.326055
 20
18.886814
 30
0.000000
 11
25.742544
 21
20.676006
 31
0.000000
  0
LINE
  8
Layer 1
 62
     7
  6
CONTINUOUS
 10
25.742544
 20
20.676006
 30
0.000000
 11
25.280327
 21
22.157289
 31
0.000000
  0
LINE
  8
Layer 1
 62
     7
  6
CONTINUOUS
 10
25.280327
 20
22.157289
 30
0.000000
 11
24.985997
 21
23.176662
 31
0.000000
  0
LINE
  8
Layer 1
 62
     7
  6
CONTINUOUS
 10
24.985997
 20
23.176662
 30
0.000000
 11
24.916349
 21
23.465008
 31
0.000000
  0
LINE
  8
Layer 1
 62
     7
  6
CONTINUOUS
 10
24.916349
 20
23.465008
 30
0.000000
 11
24.906144
 21
23.580128
 31
0.000000
  0
LINE
  8
Layer 1
 62
     7
  6
CONTINUOUS
 10
24.906144
 20
23.580128
 30
0.000000
 11
24.936217
 21
23.561042
 31
0.000000
  0
LINE
  8
Layer 1
 62
     7
  6
CONTINUOUS
 10
24.936217
 20
23.561042
 30
0.000000
 11
24.993322
 21
23.471378
 31
0.000000
  0
LINE
  8
Layer 1
 62
     7
  6
CONTINUOUS
 10
24.993322
 20
23.471378
 30
0.000000
 11
25.185656
 21
23.087326
 31
0.000000
  0
LINE
  8
Layer 1
 62
     7
  6
CONTINUOUS
 10
25.185656
 20
23.087326
 30
0.000000
 11
25.861982
 21
21.549395
 31
0.000000
  0
LINE
  8
Layer 1
 62
     7
  6
CONTINUOUS
 10
25.861982
 20
21.549395
 30
0.000000
 11
26.887504
 21
19.078498
 31
0.000000
  0
LINE
  8
Layer 1
 62
     7
  6
CONTINUOUS
 10
26.887504
 20
19.078498
 30
0.000000
 11
28.214605
 21
15.786797
 31
0.000000
  0
LINE
  8
Layer 1
 62
     7
  6
CONTINUOUS
 10
28.214605
 20
15.786797
 30
0.000000
 11
28.624232
 21
14.760021
 31
0.000000
  0
LINE
  8
Layer 1
 62
     7
  6
CONTINUOUS
 10
28.624232
 20
14.760021
 30
0.000000
 11
29.081371
 21
15.477370
 31
0.000000
  0
LINE
  8
Layer 1
 62
     7
  6
CONTINUOUS
 10
29.081371
 20
15.477370
 30
0.000000
 11
29.319269
 21
15.818214
 31
0.000000
  0
LINE
  8
Layer 1
 62
     7
  6
CONTINUOUS
 10
29.319269
 20
15.818214
 30
0.000000
 11
29.571767
 21
16.117837
 31
0.000000
  0
LINE
  8
Layer 1
 62
     7
  6
CONTINUOUS
 10
29.571767
 20
16.117837
 30
0.000000
 11
29.837506
 21
16.375314
 31
0.000000
  0
LINE
  8
Layer 1
 62
     7
  6
CONTINUOUS
 10
29.837506
 20
16.375314
 30
0.000000
 11
30.115128
 21
16.589722
 31
0.000000
  0
LINE
  8
Layer 1
 62
     7
  6
CONTINUOUS
 10
30.115128
 20
16.589722
 30
0.000000
 11
30.403274
 21
16.760136
 31
0.000000
  0
LINE
  8
Layer 1
 62
     7
  6
CONTINUOUS
 10
30.403274
 20
16.760136
 30
0.000000
 11
30.700587
 21
16.885633
 31
0.000000
  0
LINE
  8
Layer 1
 62
     7
  6
CONTINUOUS
 10
30.700587
 20
16.885633
 30
0.000000
 11
31.005708
 21
16.965289
 31
0.000000
  0
LINE
  8
Layer 1
 62
     7
  6
CONTINUOUS
 10
31.005708
 20
16.965289
 30
0.000000
 11
31.317278
 21
16.998180
 31
0.000000
  0
LINE
  8
Layer 1
 62
     7
  6
CONTINUOUS
 10
31.317278
 20
16.998180
 30
0.000000
 11
31.520374
 21
16.992984
 31
0.000000
  0
LINE
  8
Layer 1
 62
     7
  6
CONTINUOUS
 10
31.520374
 20
16.992984
 30
0.000000
 11
31.731552
 21
16.966113
 31
0.000000
  0
LINE
  8
Layer 1
 62
     7
  6
CONTINUOUS
 10
31.731552
 20
16.966113
 30
0.000000
 11
31.950294
 21
16.918106
 31
0.000000
  0
LINE
  8
Layer 1
 62
     7
  6
CONTINUOUS
 10
31.950294
 20
16.918106
 30
0.000000
 11
32.176082
 21
16.849501
 31
0.000000
  0
LINE
  8
Layer 1
 62
     7
  6
CONTINUOUS
 10
32.176082
 20
16.849501
 30
0.000000
 11
32.408397
 21
16.760836
 31
0.000000
  0
LINE
  8
Layer 1
 62
     7
  6
CONTINUOUS
 10
32.408397
 20
16.760836
 30
0.000000
 11
32.646723
 21
16.652650
 31
0.000000
  0
LINE
  8
Layer 1
 62
     7
  6
CONTINUOUS
 10
32.646723
 20
16.652650
 30
0.000000
 11
33.139329
 21
16.379868
 31
0.000000
  0
LINE
  8
Layer 1
 62
     7
  6
CONTINUOUS
 10
33.139329
 20
16.379868
 30
0.000000
 11
33.649754
 21
16.035463
 31
0.000000
  0
LINE
  8
Layer 1
 62
     7
  6
CONTINUOUS
 10
33.649754
 20
16.035463
 30
0.000000
 11
34.173852
 21
15.623741
 31
0.000000
  0
LINE
  8
Layer 1
 62
     7
  6
CONTINUOUS
 10
34.173852
 20
15.623741
 30
0.000000
 11
34.707479
 21
15.149009
 31
0.000000
  0
LINE
  8
Layer 1
 62
     7
  6
CONTINUOUS
 10
34.707479
 20
15.149009
 30
0.000000
 11
35.246487
 21
14.615575
 31
0.000000
  0
LINE
  8
Layer 1
 62
     7
  6
CONTINUOUS
 10
35.246487
 20
14.615575
 30
0.000000
 11
35.786731
 21
14.027746
 31
0.000000
  0
LINE
  8
Layer 1
 62
     7
  6
CONTINUOUS
 10
35.786731
 20
14.027746
 30
0.000000
 11
36.324065
 21
13.389829
 31
0.000000
  0
LINE
  8
Layer 1
 62
     7
  6
CONTINUOUS
 10
36.324065
 20
13.389829
 30
0.000000
 11
36.854343
 21
12.706131
 31
0.000000
  0
LINE
  8
Layer 1
 62
     7
  6
CONTINUOUS
 10
36.854343
 20
12.706131
 30
0.000000
 11
37.373420
 21
11.980960
 31
0.000000
  0
LINE
  8
Layer 1
 62
     7
  6
CONTINUOUS
 10
37.373420
 20
11.980960
 30
0.000000
 11
37.877150
 21
11.218622
 31
0.000000
  0
LINE
  8
Layer 1
 62
     7
  6
CONTINUOUS
 10
37.877150
 20
11.218622
 30
0.000000
 11
38.361387
 21
10.423426
 31
0.000000
  0
LINE
  8
Layer 1
 62
     7
  6
CONTINUOUS
 10
38.361387
 20
10.423426
 30
0.000000
 11
38.821985
 21
9.599677
 31
0.000000
  0
LINE
  8
Layer 1
 62
     7
  6
CONTINUOUS
 10
38.821985
 20
9.599677
 30
0.000000
 11
39.254798
 21
8.751684
 31
0.000000
  0
LINE
  8
Layer 1
 62
     7
  6
CONTINUOUS
 10
39.254798
 20
8.751684
 30
0.000000
 11
40.152962
 21
6.904591
 31
0.000000
  0
LINE
  8
Layer 1
 62
     7
  6
CONTINUOUS
 10
40.152962
 20
6.904591
 30
0.000000
 11
39.050438
 21
6.586832
 31
0.000000
  0
LINE
  8
Layer 1
 62
     7
  6
CONTINUOUS
 10
39.050438
 20
6.586832
 30
0.000000
 11
38.790878
 21
6.504116
 31
0.000000
  0
LINE
  8
Layer 1
 62
     7
  6
CONTINUOUS
 10
38.790878
 20
6.504116
 30
0.000000
 11
38.543766
 21
6.409834
 31
0.000000
  0
LINE
  8
Layer 1
 62
     7
  6
CONTINUOUS
 10
38.543766
 20
6.409834
 30
0.000000
 11
38.092321
 21
6.192108
 31
0.000000
  0
LINE
  8
Layer 1
 62
     7
  6
CONTINUOUS
 10
38.092321
 20
6.192108
 30
0.000000
 11
37.706960
 21
5.944727
 31
0.000000
  0
LINE
  8
Layer 1
 62
     7
  6
CONTINUOUS
 10
37.706960
 20
5.944727
 30
0.000000
 11
37.542454
 21
5.813375
 31
0.000000
  0
LINE
  8
Layer 1
 62
     7
  6
CONTINUOUS
 10
37.542454
 20
5.813375
 30
0.000000
 11
37.398542
 21
5.678762
 31
0.000000
  0
LINE
  8
Layer 1
 62
     7
  6
CONTINUOUS
 10
37.398542
 20
5.678762
 30
0.000000
 11
37.276580
 21
5.542272
 31
0.000000
  0
LINE
  8
Layer 1
 62
     7
  6
CONTINUOUS
 10
37.276580
 20
5.542272
 30
0.000000
 11
37.177927
 21
5.405288
 31
0.000000
  0
LINE
  8
Layer 1
 62
     7
  6
CONTINUOUS
 10
37.177927
 20
5.405288
 30
0.000000
 11
37.103938
 21
5.269194
 31
0.000000
  0
LINE
  8
Layer 1
 62
     7
  6
CONTINUOUS
 10
37.103938
 20
5.269194
 30
0.000000
 11
37.055972
 21
5.135374
 31
0.000000
  0
LINE
  8
Layer 1
 62
     7
  6
CONTINUOUS
 10
37.055972
 20
5.135374
 30
0.000000
 11
37.035385
 21
5.005213
 31
0.000000
  0
LINE
  8
Layer 1
 62
     7
  6
CONTINUOUS
 10
37.035385
 20
5.005213
 30
0.000000
 11
37.043536
 21
4.880095
 31
0.000000
  0
LINE
  8
Layer 1
 62
     7
  6
CONTINUOUS
 10
37.043536
 20
4.880095
 30
0.000000
 11
37.081781
 21
4.761403
 31
0.000000
  0
LINE
  8
Layer 1
 62
     7
  6
CONTINUOUS
 10
37.081781
 20
4.761403
 30
0.000000
 11
37.151478
 21
4.650521
 31
0.000000
  0
LINE
  8
Layer 1
 62
     7
  6
CONTINUOUS
 10
37.151478
 20
4.650521
 30
0.000000
 11
37.232956
 21
4.570970
 31
0.000000
  0
LINE
  8
Layer 1
 62
     7
  6
CONTINUOUS
 10
37.232956
 20
4.570970
 30
0.000000
 11
37.342491
 21
4.496756
 31
0.000000
  0
LINE
  8
Layer 1
 62
     7
  6
CONTINUOUS
 10
37.342491
 20
4.496756
 30
0.000000
 11
37.475288
 21
4.429503
 31
0.000000
  0
LINE
  8
Layer 1
 62
     7
  6
CONTINUOUS
 10
37.475288
 20
4.429503
 30
0.000000
 11
37.626553
 21
4.370835
 31
0.000000
  0
LINE
  8
Layer 1
 62
     7
  6
CONTINUOUS
 10
37.626553
 20
4.370835
 30
0.000000
 11
37.965309
 21
4.285754
 31
0.000000
  0
LINE
  8
Layer 1
 62
     7
  6
CONTINUOUS
 10
37.965309
 20
4.285754
 30
0.000000
 11
38.143211
 21
4.262588
 31
0.000000
  0
LINE
  8
Layer 1
 62
     7
  6
CONTINUOUS
 10
38.143211
 20
4.262588
 30
0.000000
 11
38.320403
 21
4.254505
 31
0.000000
  0
LINE
  8
Layer 1
 62
     7
  6
CONTINUOUS
 10
38.320403
 20
4.254505
 30
0.000000
 11
38.650305
 21
4.231361
 31
0.000000
  0
LINE
  8
Layer 1
 62
     7
  6
CONTINUOUS
 10
38.650305
 20
4.231361
 30
0.000000
 11
38.920466
 21
4.168343
 31
0.000000
  0
LINE
  8
Layer 1
 62
     7
  6
CONTINUOUS
 10
38.920466
 20
4.168343
 30
0.000000
 11
39.024432
 21
4.124889
 31
0.000000
  0
LINE
  8
Layer 1
 62
     7
  6
CONTINUOUS
 10
39.024432
 20
4.124889
 30
0.000000
 11
39.103007
 21
4.075076
 31
0.000000
  0
LINE
  8
Layer 1
 62
     7
  6
CONTINUOUS
 10
39.103007
 20
4.075076
 30
0.000000
 11
39.152708
 21
4.020107
 31
0.000000
  0
LINE
  8
Layer 1
 62
     7
  6
CONTINUOUS
 10
39.152708
 20
4.020107
 30
0.000000
 11
39.170050
 21
3.961186
 31
0.000000
  0
LINE
  8
Layer 1
 62
     7
  6
CONTINUOUS
 10
39.170050
 20
3.961186
 30
0.000000
 11
39.152345
 21
3.913350
 31
0.000000
  0
LINE
  8
Layer 1
 62
     7
  6
CONTINUOUS
 10
39.152345
 20
3.913350
 30
0.000000
 11
39.100502
 21
3.870960
 31
0.000000
  0
LINE
  8
Layer 1
 62
     7
  6
CONTINUOUS
 10
39.100502
 20
3.870960
 30
0.000000
 11
39.016424
 21
3.833889
 31
0.000000
  0
LINE
  8
Layer 1
 62
     7
  6
CONTINUOUS
 10
39.016424
 20
3.833889
 30
0.000000
 11
38.902018
 21
3.802009
 31
0.000000
  0
LINE
  8
Layer 1
 62
     7
  6
CONTINUOUS
 10
38.902018
 20
3.802009
 30
0.000000
 11
38.589841
 21
3.753313
 31
0.000000
  0
LINE
  8
Layer 1
 62
     7
  6
CONTINUOUS
 10
38.589841
 20
3.753313
 30
0.000000
 11
38.179211
 21
3.723851
 31
0.000000
  0
LINE
  8
Layer 1
 62
     7
  6
CONTINUOUS
 10
38.179211
 20
3.723851
 30
0.000000
 11
37.685371
 21
3.712605
 31
0.000000
  0
LINE
  8
Layer 1
 62
     7
  6
CONTINUOUS
 10
37.685371
 20
3.712605
 30
0.000000
 11
37.123561
 21
3.718556
 31
0.000000
  0
LINE
  8
Layer 1
 62
     7
  6
CONTINUOUS
 10
37.123561
 20
3.718556
 30
0.000000
 11
35.856997
 21
3.777968
 31
0.000000
  0
LINE
  8
Layer 1
 62
     7
  6
CONTINUOUS
 10
35.856997
 20
3.777968
 30
0.000000
 11
34.501452
 21
3.893933
 31
0.000000
  0
LINE
  8
Layer 1
 62
     7
  6
CONTINUOUS
 10
34.501452
 20
3.893933
 30
0.000000
 11
33.178857
 21
4.058295
 31
0.000000
  0
LINE
  8
Layer 1
 62
     7
  6
CONTINUOUS
 10
33.178857
 20
4.058295
 30
0.000000
 11
32.568019
 21
4.156077
 31
0.000000
  0
LINE
  8
Layer 1
 62
     7
  6
CONTINUOUS
 10
32.568019
 20
4.156077
 30
0.000000
 11
32.011143
 21
4.262900
 31
0.000000
  0
LINE
  8
Layer 1
 62
     7
  6
CONTINUOUS
 10
32.011143
 20
4.262900
 30
0.000000
 11
31.523470
 21
4.377744
 31
0.000000
  0
LINE
  8
Layer 1
 62
     7
  6
CONTINUOUS
 10
31.523470
 20
4.377744
 30
0.000000
 11
31.120241
 21
4.499590
 31
0.000000
  0
LINE
  8
Layer 1
 62
     7
  6
CONTINUOUS
 10
31.120241
 20
4.499590
 30
0.000000
 11
30.334901
 21
4.794554
 31
0.000000
  0
LINE
  8
Layer 1
 62
     7
  6
CONTINUOUS
 10
30.334901
 20
4.794554
 30
0.000000
 11
30.001538
 21
4.937589
 31
0.000000
  0
LINE
  8
Layer 1
 62
     7
  6
CONTINUOUS
 10
30.001538
 20
4.937589
 30
0.000000
 11
29.705283
 21
5.080318
 31
0.000000
  0
LINE
  8
Layer 1
 62
     7
  6
CONTINUOUS
 10
29.705283
 20
5.080318
 30
0.000000
 11
29.444312
 21
5.224734
 31
0.000000
  0
LINE
  8
Layer 1
 62
     7
  6
CONTINUOUS
 10
29.444312
 20
5.224734
 30
0.000000
 11
29.216802
 21
5.372831
 31
0.000000
  0
LINE
  8
Layer 1
 62
     7
  6
CONTINUOUS
 10
29.216802
 20
5.372831
 30
0.000000
 11
29.020928
 21
5.526603
 31
0.000000
  0
LINE
  8
Layer 1
 62
     7
  6
CONTINUOUS
 10
29.020928
 20
5.526603
 30
0.000000
 11
28.854869
 21
5.688043
 31
0.000000
  0
LINE
  8
Layer 1
 62
     7
  6
CONTINUOUS
 10
28.854869
 20
5.688043
 30
0.000000
 11
28.716800
 21
5.859146
 31
0.000000
  0
LINE
  8
Layer 1
 62
     7
  6
CONTINUOUS
 10
28.716800
 20
5.859146
 30
0.000000
 11
28.604899
 21
6.041904
 31
0.000000
  0
LINE
  8
Layer 1
 62
     7
  6
CONTINUOUS
 10
28.604899
 20
6.041904
 30
0.000000
 11
28.517341
 21
6.238313
 31
0.000000
  0
LINE
  8
Layer 1
 62
     7
  6
CONTINUOUS
 10
28.517341
 20
6.238313
 30
0.000000
 11
28.452304
 21
6.450364
 31
0.000000
  0
LINE
  8
Layer 1
 62
     7
  6
CONTINUOUS
 10
28.452304
 20
6.450364
 30
0.000000
 11
28.407963
 21
6.680053
 31
0.000000
  0
LINE
  8
Layer 1
 62
     7
  6
CONTINUOUS
 10
28.407963
 20
6.680053
 30
0.000000
 11
28.382497
 21
6.929373
 31
0.000000
  0
LINE
  8
Layer 1
 62
     7
  6
CONTINUOUS
 10
28.382497
 20
6.929373
 30
0.000000
 11
28.374081
 21
7.200317
 31
0.000000
  0
LINE
  8
Layer 1
 62
     7
  6
CONTINUOUS
 10
28.374081
 20
7.200317
 30
0.000000
 11
28.380892
 21
7.494879
 31
0.000000
  0
LINE
  8
Layer 1
 62
     7
  6
CONTINUOUS
 10
28.380892
 20
7.494879
 30
0.000000
 11
28.383630
 21
8.039503
 31
0.000000
  0
LINE
  8
Layer 1
 62
     7
  6
CONTINUOUS
 10
28.383630
 20
8.039503
 30
0.000000
 11
28.347596
 21
8.555910
 31
0.000000
  0
LINE
  8
Layer 1
 62
     7
  6
CONTINUOUS
 10
28.347596
 20
8.555910
 30
0.000000
 11
28.279219
 21
8.985822
 31
0.000000
  0
LINE
  8
Layer 1
 62
     7
  6
CONTINUOUS
 10
28.279219
 20
8.985822
 30
0.000000
 11
28.234911
 21
9.150132
 31
0.000000
  0
LINE
  8
Layer 1
 62
     7
  6
CONTINUOUS
 10
28.234911
 20
9.150132
 30
0.000000
 11
28.184929
 21
9.270963
 31
0.000000
  0
LINE
  8
Layer 1
 62
     7
  6
CONTINUOUS
 10
28.184929
 20
9.270963
 30
0.000000
 11
28.103421
 21
9.401882
 31
0.000000
  0
LINE
  8
Layer 1
 62
     7
  6
CONTINUOUS
 10
28.103421
 20
9.401882
 30
0.000000
 11
28.022309
 21
9.479430
 31
0.000000
  0
LINE
  8
Layer 1
 62
     7
  6
CONTINUOUS
 10
28.022309
 20
9.479430
 30
0.000000
 11
27.979198
 21
9.496303
 31
0.000000
  0
LINE
  8
Layer 1
 62
     7
  6
CONTINUOUS
 10
27.979198
 20
9.496303
 30
0.000000
 11
27.932942
 21
9.497572
 31
0.000000
  0
LINE
  8
Layer 1
 62
     7
  6
CONTINUOUS
 10
27.932942
 20
9.497572
 30
0.000000
 11
27.826671
 21
9.450275
 31
0.000000
  0
LINE
  8
Layer 1
 62
     7
  6
CONTINUOUS
 10
27.826671
 20
9.450275
 30
0.000000
 11
27.694844
 21
9.331506
 31
0.000000
  0
LINE
  8
Layer 1
 62
     7
  6
CONTINUOUS
 10
27.694844
 20
9.331506
 30
0.000000
 11
27.528812
 21
9.135231
 31
0.000000
  0
LINE
  8
Layer 1
 62
     7
  6
CONTINUOUS
 10
27.528812
 20
9.135231
 30
0.000000
 11
27.059531
 21
8.486034
 31
0.000000
  0
LINE
  8
Layer 1
 62
     7
  6
CONTINUOUS
 10
27.059531
 20
8.486034
 30
0.000000
 11
26.582827
 21
7.773394
 31
0.000000
  0
LINE
  8
Layer 1
 62
     7
  6
CONTINUOUS
 10
26.582827
 20
7.773394
 30
0.000000
 11
25.978311
 21
6.830999
 31
0.000000
  0
LINE
  8
Layer 1
 62
     7
  6
CONTINUOUS
 10
25.978311
 20
6.830999
 30
0.000000
 11
24.586060
 21
4.585594
 31
0.000000
  0
LINE
  8
Layer 1
 62
     7
  6
CONTINUOUS
 10
24.586060
 20
4.585594
 30
0.000000
 11
23.283220
 21
2.407123
 31
0.000000
  0
LINE
  8
Layer 1
 62
     7
  6
CONTINUOUS
 10
23.283220
 20
2.407123
 30
0.000000
 11
22.790466
 21
1.548397
 31
0.000000
  0
LINE
  8
Layer 1
 62
     7
  6
CONTINUOUS
 10
22.790466
 20
1.548397
 30
0.000000
 11
22.470230
 21
0.952894
 31
0.000000
  0
LINE
  8
Layer 1
 62
     7
  6
CONTINUOUS
 10
22.470230
 20
0.952894
 30
0.000000
 11
22.244408
 21
0.519062
 31
0.000000
  0
LINE
  8
Layer 1
 62
     7
  6
CONTINUOUS
 10
22.244408
 20
0.519062
 30
0.000000
 11
22.081910
 21
0.246698
 31
0.000000
  0
LINE
  8
Layer 1
 62
     7
  6
CONTINUOUS
 10
22.081910
 20
0.246698
 30
0.000000
 11
21.982978
 21
0.128251
 31
0.000000
  0
LINE
  8
Layer 1
 62
     7
  6
CONTINUOUS
 10
21.982978
 20
0.128251
 30
0.000000
 11
21.957424
 21
0.124388
 31
0.000000
  0
LINE
  8
Layer 1
 62
     7
  6
CONTINUOUS
 10
21.957424
 20
0.124388
 30
0.000000
 11
21.947851
 21
0.156173
 31
0.000000
  0
LINE
  8
Layer 1
 62
     7
  6
CONTINUOUS
 10
21.947851
 20
0.156173
 30
0.000000
 11
21.976771
 21
0.322914
 31
0.000000
  0
LINE
  8
Layer 1
 62
     7
  6
CONTINUOUS
 10
21.976771
 20
0.322914
 30
0.000000
 11
22.069978
 21
0.620926
 31
0.000000
  0
LINE
  8
Layer 1
 62
     7
  6
CONTINUOUS
 10
22.069978
 20
0.620926
 30
0.000000
 11
22.227713
 21
1.042658
 31
0.000000
  0
LINE
  8
Layer 1
 62
     7
  6
CONTINUOUS
 10
22.227713
 20
1.042658
 30
0.000000
 11
22.450217
 21
1.580562
 31
0.000000
  0
LINE
  8
Layer 1
 62
     7
  6
CONTINUOUS
 10
22.450217
 20
1.580562
 30
0.000000
 11
22.717154
 21
2.178142
 31
0.000000
  0
LINE
  8
Layer 1
 62
     7
  6
CONTINUOUS
 10
22.717154
 20
2.178142
 30
0.000000
 11
22.977344
 21
2.719095
 31
0.000000
  0
LINE
  8
Layer 1
 62
     7
  6
CONTINUOUS
 10
22.977344
 20
2.719095
 30
0.000000
 11
23.200989
 21
3.143944
 31
0.000000
  0
LINE
  8
Default
 62
     7
  6
CONTINUOUS
 10
24.628929
 20
5.866128
 30
0.000000
 11
23.200989
 21
3.143944
 31
0.000000
  0
LINE
  8
Layer 1
 62
     7
  6
CONTINUOUS
 10
24.628929
 20
5.866128
 30
0.000000
 11
25.188403
 21
6.983912
 31
0.000000
  0
LINE
  8
Layer 1
 62
     7
  6
CONTINUOUS
 10
25.188403
 20
6.983912
 30
0.000000
 11
26.366946
 21
9.357196
 31
0.000000
  0
LINE
  8
Layer 1
 62
     7
  6
CONTINUOUS
 10
26.366946
 20
9.357196
 30
0.000000
 11
26.884962
 21
10.366280
 31
0.000000
  0
LINE
  8
Layer 1
 62
     7
  6
CONTINUOUS
 10
26.884962
 20
10.366280
 30
0.000000
 11
27.264637
 21
11.077880
 31
0.000000
  0
LINE
  8
Layer 1
 62
     7
  6
CONTINUOUS
 10
27.264637
 20
11.077880
 30
0.000000
 11
27.650833
 21
11.796902
 31
0.000000
  0
LINE
  8
Layer 1
 62
     7
  6
CONTINUOUS
 10
27.650833
 20
11.796902
 30
0.000000
 11
27.755063
 21
12.034179
 31
0.000000
  0
LINE
  8
Layer 1
 62
     7
  6
CONTINUOUS
 10
27.755063
 20
12.034179
 30
0.000000
 11
27.803154
 21
12.213236
 31
0.000000
  0
LINE
  8
Layer 1
 62
     7
  6
CONTINUOUS
 10
27.803154
 20
12.213236
 30
0.000000
 11
27.797439
 21
12.351525
 31
0.000000
  0
LINE
  8
Layer 1
 62
     7
  6
CONTINUOUS
 10
27.797439
 20
12.351525
 30
0.000000
 11
27.740246
 21
12.466500
 31
0.000000
  0
LINE
  8
Layer 1
 62
     7
  6
CONTINUOUS
 10
27.740246
 20
12.466500
 30
0.000000
 11
27.633907
 21
12.575613
 31
0.000000
  0
LINE
  8
Layer 1
 62
     7
  6
CONTINUOUS
 10
27.633907
 20
12.575613
 30
0.000000
 11
27.480752
 21
12.696316
 31
0.000000
  0
LINE
  8
Layer 1
 62
     7
  6
CONTINUOUS
 10
27.480752
 20
12.696316
 30
0.000000
 11
27.279131
 21
12.837062
 31
0.000000
  0
LINE
  8
Layer 1
 62
     7
  6
CONTINUOUS
 10
27.279131
 20
12.837062
 30
0.000000
 11
27.086159
 21
12.952321
 31
0.000000
  0
LINE
  8
Layer 1
 62
     7
  6
CONTINUOUS
 10
27.086159
 20
12.952321
 30
0.000000
 11
26.923723
 21
13.030199
 31
0.000000
  0
LINE
  8
Layer 1
 62
     7
  6
CONTINUOUS
 10
26.923723
 20
13.030199
 30
0.000000
 11
26.813710
 21
13.058801
 31
0.000000
  0
LINE
  8
Layer 1
 62
     7
  6
CONTINUOUS
 10
26.813710
 20
13.058801
 30
0.000000
 11
26.732414
 21
12.995676
 31
0.000000
  0
LINE
  8
Layer 1
 62
     7
  6
CONTINUOUS
 10
26.732414
 20
12.995676
 30
0.000000
 11
26.583577
 21
12.813492
 31
0.000000
  0
LINE
  8
Layer 1
 62
     7
  6
CONTINUOUS
 10
26.583577
 20
12.813492
 30
0.000000
 11
26.109808
 21
12.135086
 31
0.000000
  0
LINE
  8
Layer 1
 62
     7
  6
CONTINUOUS
 10
26.109808
 20
12.135086
 30
0.000000
 11
25.445453
 21
11.109863
 31
0.000000
  0
LINE
  8
Layer 1
 62
     7
  6
CONTINUOUS
 10
25.445453
 20
11.109863
 30
0.000000
 11
24.643563
 21
9.824105
 31
0.000000
  0
LINE
  8
Layer 1
 62
     7
  6
CONTINUOUS
 10
24.643563
 20
9.824105
 30
0.000000
 11
23.757188
 21
8.364093
 31
0.000000
  0
LINE
  8
Layer 1
 62
     7
  6
CONTINUOUS
 10
23.757188
 20
8.364093
 30
0.000000
 11
22.839380
 21
6.816108
 31
0.000000
  0
LINE
  8
Layer 1
 62
     7
  6
CONTINUOUS
 10
22.839380
 20
6.816108
 30
0.000000
 11
21.943189
 21
5.266431
 31
0.000000
  0
LINE
  8
Layer 1
 62
     7
  6
CONTINUOUS
 10
21.943189
 20
5.266431
 30
0.000000
 11
21.121666
 21
3.801343
 31
0.000000
  0
LINE
  8
Layer 1
 62
     7
  6
CONTINUOUS
 10
21.121666
 20
3.801343
 30
0.000000
 11
19.961312
 21
1.743906
 31
0.000000
  0
LINE
  8
Layer 1
 62
     7
  6
CONTINUOUS
 10
19.961312
 20
1.743906
 30
0.000000
 11
19.585699
 21
1.118027
 31
0.000000
  0
LINE
  8
Layer 1
 62
     7
  6
CONTINUOUS
 10
19.585699
 20
1.118027
 30
0.000000
 11
19.473450
 21
0.947617
 31
0.000000
  0
LINE
  8
Layer 1
 62
     7
  6
CONTINUOUS
 10
19.473450
 20
0.947617
 30
0.000000
 11
19.420872
 21
0.888158
 31
0.000000
  0
LINE
  8
Layer 1
 62
     7
  6
CONTINUOUS
 10
19.420872
 20
0.888158
 30
0.000000
 11
19.410965
 21
0.899557
 31
0.000000
  0
LINE
  8
Layer 1
 62
     7
  6
CONTINUOUS
 10
19.410965
 20
0.899557
 30
0.000000
 11
19.412464
 21
0.932899
 31
0.000000
  0
LINE
  8
Layer 1
 62
     7
  6
CONTINUOUS
 10
19.412464
 20
0.932899
 30
0.000000
 11
19.447249
 21
1.060297
 31
0.000000
  0
LINE
  8
Layer 1
 62
     7
  6
CONTINUOUS
 10
19.447249
 20
1.060297
 30
0.000000
 11
19.626956
 21
1.522108
 31
0.000000
  0
LINE
  8
Layer 1
 62
     7
  6
CONTINUOUS
 10
19.626956
 20
1.522108
 30
0.000000
 11
19.921109
 21
2.191683
 31
0.000000
  0
LINE
  8
Layer 1
 62
     7
  6
CONTINUOUS
 10
19.921109
 20
2.191683
 30
0.000000
 11
20.290823
 21
2.987116
 31
0.000000
  0
LINE
  8
Layer 1
 62
     7
  6
CONTINUOUS
 10
20.290823
 20
2.987116
 30
0.000000
 11
20.697214
 21
3.826500
 31
0.000000
  0
LINE
  8
Layer 1
 62
     7
  6
CONTINUOUS
 10
20.697214
 20
3.826500
 30
0.000000
 11
21.101397
 21
4.627925
 31
0.000000
  0
LINE
  8
Layer 1
 62
     7
  6
CONTINUOUS
 10
21.101397
 20
4.627925
 30
0.000000
 11
21.464489
 21
5.309486
 31
0.000000
  0
LINE
  8
Default
 62
     7
  6
CONTINUOUS
 10
22.994228
 20
8.631984
 30
0.000000
 11
21.464489
 21
5.309486
 31
0.000000
  0
LINE
  8
Layer 1
 62
     7
  6
CONTINUOUS
 10
22.994228
 20
8.631984
 30
0.000000
 11
23.469179
 21
9.661045
 31
0.000000
  0
LINE
  8
Layer 1
 62
     7
  6
CONTINUOUS
 10
23.469179
 20
9.661045
 30
0.000000
 11
24.021545
 21
10.795431
 31
0.000000
  0
LINE
  8
Layer 1
 62
     7
  6
CONTINUOUS
 10
24.021545
 20
10.795431
 30
0.000000
 11
24.553951
 21
11.884727
 31
0.000000
  0
LINE
  8
Layer 1
 62
     7
  6
CONTINUOUS
 10
24.553951
 20
11.884727
 30
0.000000
 11
24.974556
 21
12.791018
 31
0.000000
  0
LINE
  8
Layer 1
 62
     7
  6
CONTINUOUS
 10
24.974556
 20
12.791018
 30
0.000000
 11
25.241046
 21
13.419769
 31
0.000000
  0
LINE
  8
Layer 1
 62
     7
  6
CONTINUOUS
 10
25.241046
 20
13.419769
 30
0.000000
 11
25.303275
 21
13.600526
 31
0.000000
  0
LINE
  8
Layer 1
 62
     7
  6
CONTINUOUS
 10
25.303275
 20
13.600526
 30
0.000000
 11
25.311107
 21
13.676448
 31
0.000000
  0
LINE
  8
Layer 1
 62
     7
  6
CONTINUOUS
 10
25.311107
 20
13.676448
 30
0.000000
 11
25.231174
 21
13.725942
 31
0.000000
  0
LINE
  8
Layer 1
 62
     7
  6
CONTINUOUS
 10
25.231174
 20
13.725942
 30
0.000000
 11
25.089264
 21
13.790576
 31
0.000000
  0
LINE
  8
Layer 1
 62
     7
  6
CONTINUOUS
 10
25.089264
 20
13.790576
 30
0.000000
 11
24.699752
 21
13.931755
 31
0.000000
  0
LINE
  8
Layer 1
 62
     7
  6
CONTINUOUS
 10
24.699752
 20
13.931755
 30
0.000000
 11
24.618132
 21
13.949869
 31
0.000000
  0
LINE
  8
Layer 1
 62
     7
  6
CONTINUOUS
 10
24.618132
 20
13.949869
 30
0.000000
 11
24.536020
 21
13.950467
 31
0.000000
  0
LINE
  8
Layer 1
 62
     7
  6
CONTINUOUS
 10
24.536020
 20
13.950467
 30
0.000000
 11
24.451192
 21
13.930596
 31
0.000000
  0
LINE
  8
Layer 1
 62
     7
  6
CONTINUOUS
 10
24.451192
 20
13.930596
 30
0.000000
 11
24.361422
 21
13.887304
 31
0.000000
  0
LINE
  8
Layer 1
 62
     7
  6
CONTINUOUS
 10
24.361422
 20
13.887304
 30
0.000000
 11
24.264486
 21
13.817637
 31
0.000000
  0
LINE
  8
Layer 1
 62
     7
  6
CONTINUOUS
 10
24.264486
 20
13.817637
 30
0.000000
 11
24.158161
 21
13.718644
 31
0.000000
  0
LINE
  8
Layer 1
 62
     7
  6
CONTINUOUS
 10
24.158161
 20
13.718644
 30
0.000000
 11
23.908444
 21
13.420864
 31
0.000000
  0
LINE
  8
Layer 1
 62
     7
  6
CONTINUOUS
 10
23.908444
 20
13.420864
 30
0.000000
 11
23.594477
 21
12.970342
 31
0.000000
  0
LINE
  8
Layer 1
 62
     7
  6
CONTINUOUS
 10
23.594477
 20
12.970342
 30
0.000000
 11
23.198465
 21
12.343456
 31
0.000000
  0
LINE
  8
Layer 1
 62
     7
  6
CONTINUOUS
 10
23.198465
 20
12.343456
 30
0.000000
 11
22.089129
 21
10.466102
 31
0.000000
  0
LINE
  8
Layer 1
 62
     7
  6
CONTINUOUS
 10
22.089129
 20
10.466102
 30
0.000000
 11
21.257794
 21
8.991909
 31
0.000000
  0
LINE
  8
Layer 1
 62
     7
  6
CONTINUOUS
 10
21.257794
 20
8.991909
 30
0.000000
 11
20.547914
 21
7.658544
 31
0.000000
  0
LINE
  8
Default
 62
     7
  6
CONTINUOUS
 10
20.547914
 20
7.658544
 30
0.000000
 11
18.961152
 21
4.845190
 31
0.000000
  0
LINE
  8
Layer 1
 62
     7
  6
CONTINUOUS
 10
18.961152
 20
4.845190
 30
0.000000
 11
18.590868
 21
4.201848
 31
0.000000
  0
LINE
  8
Layer 1
 62
     7
  6
CONTINUOUS
 10
18.590868
 20
4.201848
 30
0.000000
 11
17.864444
 21
2.916878
 31
0.000000
  0
LINE
  8
Layer 1
 62
     7
  6
CONTINUOUS
 10
17.864444
 20
2.916878
 30
0.000000
 11
17.598828
 21
2.480038
 31
0.000000
  0
LINE
  8
Layer 1
 62
     7
  6
CONTINUOUS
 10
17.598828
 20
2.480038
 30
0.000000
 11
17.448265
 21
2.265030
 31
0.000000
  0
LINE
  8
Layer 1
 62
     7
  6
CONTINUOUS
 10
17.448265
 20
2.265030
 30
0.000000
 11
17.422655
 21
2.244212
 31
0.000000
  0
LINE
  8
Layer 1
 62
     7
  6
CONTINUOUS
 10
17.422655
 20
2.244212
 30
0.000000
 11
17.407785
 21
2.245244
 31
0.000000
  0
LINE
  8
Layer 1
 62
     7
  6
CONTINUOUS
 10
17.407785
 20
2.245244
 30
0.000000
 11
17.408824
 21
2.309603
 31
0.000000
  0
LINE
  8
Layer 1
 62
     7
  6
CONTINUOUS
 10
17.408824
 20
2.309603
 30
0.000000
 11
17.523910
 21
2.664697
 31
0.000000
  0
LINE
  8
Layer 1
 62
     7
  6
CONTINUOUS
 10
17.523910
 20
2.664697
 30
0.000000
 11
17.770429
 21
3.278197
 31
0.000000
  0
LINE
  8
Layer 1
 62
     7
  6
CONTINUOUS
 10
17.770429
 20
3.278197
 30
0.000000
 11
18.125283
 21
4.097986
 31
0.000000
  0
LINE
  8
Layer 1
 62
     7
  6
CONTINUOUS
 10
18.125283
 20
4.097986
 30
0.000000
 11
19.067608
 21
6.147966
 31
0.000000
  0
LINE
  8
Layer 1
 62
     7
  6
CONTINUOUS
 10
19.067608
 20
6.147966
 30
0.000000
 11
19.608886
 21
7.273923
 31
0.000000
  0
LINE
  8
Layer 1
 62
     7
  6
CONTINUOUS
 10
19.608886
 20
7.273923
 30
0.000000
 11
20.166112
 21
8.397703
 31
0.000000
  0
LINE
  8
Layer 1
 62
     7
  6
CONTINUOUS
 10
20.166112
 20
8.397703
 30
0.000000
 11
20.743378
 21
9.607912
 31
0.000000
  0
LINE
  8
Layer 1
 62
     7
  6
CONTINUOUS
 10
20.743378
 20
9.607912
 30
0.000000
 11
21.672751
 21
11.608482
 31
0.000000
  0
LINE
  8
Layer 1
 62
     7
  6
CONTINUOUS
 10
21.672751
 20
11.608482
 30
0.000000
 11
22.061790
 21
12.473166
 31
0.000000
  0
LINE
  8
Layer 1
 62
     7
  6
CONTINUOUS
 10
22.061790
 20
12.473166
 30
0.000000
 11
22.344378
 21
13.157338
 31
0.000000
  0
LINE
  8
Layer 1
 62
     7
  6
CONTINUOUS
 10
22.344378
 20
13.157338
 30
0.000000
 11
22.521951
 21
13.681299
 31
0.000000
  0
LINE
  8
Layer 1
 62
     7
  6
CONTINUOUS
 10
22.521951
 20
13.681299
 30
0.000000
 11
22.571805
 21
13.889545
 31
0.000000
  0
LINE
  8
Layer 1
 62
     7
  6
CONTINUOUS
 10
22.571805
 20
13.889545
 30
0.000000
 11
22.595944
 21
14.065352
 31
0.000000
  0
LINE
  8
Layer 1
 62
     7
  6
CONTINUOUS
 10
22.595944
 20
14.065352
 30
0.000000
 11
22.594546
 21
14.211257
 31
0.000000
  0
LINE
  8
Layer 1
 62
     7
  6
CONTINUOUS
 10
22.594546
 20
14.211257
 30
0.000000
 11
22.567791
 21
14.329799
 31
0.000000
  0
LINE
  8
Layer 1
 62
     7
  6
CONTINUOUS
 10
22.567791
 20
14.329799
 30
0.000000
 11
22.515859
 21
14.423516
 31
0.000000
  0
LINE
  8
Layer 1
 62
     7
  6
CONTINUOUS
 10
22.515859
 20
14.423516
 30
0.000000
 11
22.438929
 21
14.494944
 31
0.000000
  0
LINE
  8
Layer 1
 62
     7
  6
CONTINUOUS
 10
22.438929
 20
14.494944
 30
0.000000
 11
22.337180
 21
14.546622
 31
0.000000
  0
LINE
  8
Layer 1
 62
     7
  6
CONTINUOUS
 10
22.337180
 20
14.546622
 30
0.000000
 11
22.210792
 21
14.581088
 31
0.000000
  0
LINE
  8
Layer 1
 62
     7
  6
CONTINUOUS
 10
22.210792
 20
14.581088
 30
0.000000
 11
21.884816
 21
14.608535
 31
0.000000
  0
LINE
  8
Layer 1
 62
     7
  6
CONTINUOUS
 10
21.884816
 20
14.608535
 30
0.000000
 11
21.845160
 21
14.593825
 31
0.000000
  0
LINE
  8
Layer 1
 62
     7
  6
CONTINUOUS
 10
21.845160
 20
14.593825
 30
0.000000
 11
21.789804
 21
14.549873
 31
0.000000
  0
LINE
  8
Layer 1
 62
     7
  6
CONTINUOUS
 10
21.789804
 20
14.549873
 30
0.000000
 11
21.636000
 21
14.380206
 31
0.000000
  0
LINE
  8
Layer 1
 62
     7
  6
CONTINUOUS
 10
21.636000
 20
14.380206
 30
0.000000
 11
21.431430
 21
14.111467
 31
0.000000
  0
LINE
  8
Layer 1
 62
     7
  6
CONTINUOUS
 10
21.431430
 20
14.111467
 30
0.000000
 11
21.184121
 21
13.755587
 31
0.000000
  0
LINE
  8
Layer 1
 62
     7
  6
CONTINUOUS
 10
21.184121
 20
13.755587
 30
0.000000
 11
20.593389
 21
12.830137
 31
0.000000
  0
LINE
  8
Layer 1
 62
     7
  6
CONTINUOUS
 10
20.593389
 20
12.830137
 30
0.000000
 11
19.928009
 21
11.699314
 31
0.000000
  0
LINE
  8
Layer 1
 62
     7
  6
CONTINUOUS
 10
19.928009
 20
11.699314
 30
0.000000
 11
18.039142
 21
8.397703
 31
0.000000
  0
LINE
  8
Default
 62
     7
  6
CONTINUOUS
 10
18.039142
 20
8.397703
 30
0.000000
 11
16.041948
 21
4.795963
 31
0.000000
  0
LINE
  8
Layer 1
 62
     7
  6
CONTINUOUS
 10
16.041948
 20
4.795963
 30
0.000000
 11
15.790889
 21
4.360878
 31
0.000000
  0
LINE
  8
Layer 1
 62
     7
  6
CONTINUOUS
 10
15.790889
 20
4.360878
 30
0.000000
 11
15.516791
 21
3.855432
 31
0.000000
  0
LINE
  8
Layer 1
 62
     7
  6
CONTINUOUS
 10
15.516791
 20
3.855432
 30
0.000000
 11
15.309118
 21
3.522729
 31
0.000000
  0
LINE
  8
Layer 1
 62
     7
  6
CONTINUOUS
 10
15.309118
 20
3.522729
 30
0.000000
 11
15.170987
 21
3.355340
 31
0.000000
  0
LINE
  8
Layer 1
 62
     7
  6
CONTINUOUS
 10
15.170987
 20
3.355340
 30
0.000000
 11
15.128975
 21
3.331315
 31
0.000000
  0
LINE
  8
Layer 1
 62
     7
  6
CONTINUOUS
 10
15.128975
 20
3.331315
 30
0.000000
 11
15.105517
 21
3.345833
 31
0.000000
  0
LINE
  8
Layer 1
 62
     7
  6
CONTINUOUS
 10
15.105517
 20
3.345833
 30
0.000000
 11
15.101005
 21
3.397965
 31
0.000000
  0
LINE
  8
Layer 1
 62
     7
  6
CONTINUOUS
 10
15.101005
 20
3.397965
 30
0.000000
 11
15.115826
 21
3.486781
 31
0.000000
  0
LINE
  8
Layer 1
 62
     7
  6
CONTINUOUS
 10
15.115826
 20
3.486781
 30
0.000000
 11
15.205031
 21
3.770752
 31
0.000000
  0
LINE
  8
Layer 1
 62
     7
  6
CONTINUOUS
 10
15.205031
 20
3.770752
 30
0.000000
 11
15.376251
 21
4.190318
 31
0.000000
  0
LINE
  8
Layer 1
 62
     7
  6
CONTINUOUS
 10
15.376251
 20
4.190318
 30
0.000000
 11
15.632603
 21
4.738048
 31
0.000000
  0
LINE
  8
Layer 1
 62
     7
  6
CONTINUOUS
 10
15.632603
 20
4.738048
 30
0.000000
 11
15.883357
 21
5.278759
 31
0.000000
  0
LINE
  8
Default
 62
     7
  6
CONTINUOUS
 10
17.255088
 20
8.409913
 30
0.000000
 11
15.883357
 21
5.278759
 31
0.000000
  0
LINE
  8
Layer 1
 62
     7
  6
CONTINUOUS
 10
17.255088
 20
8.409913
 30
0.000000
 11
17.440553
 21
8.802836
 31
0.000000
  0
LINE
  8
Default
 62
     7
  6
CONTINUOUS
 10
18.645440
 20
11.278451
 30
0.000000
 11
17.440553
 21
8.802836
 31
0.000000
  0
LINE
  8
Layer 1
 62
     7
  6
CONTINUOUS
 10
18.645440
 20
11.278451
 30
0.000000
 11
19.007758
 21
11.956416
 31
0.000000
  0
LINE
  8
Layer 1
 62
     7
  6
CONTINUOUS
 10
19.007758
 20
11.956416
 30
0.000000
 11
19.384668
 21
12.707674
 31
0.000000
  0
LINE
  8
Layer 1
 62
     7
  6
CONTINUOUS
 10
19.384668
 20
12.707674
 30
0.000000
 11
19.886273
 21
13.763976
 31
0.000000
  0
LINE
  8
Layer 1
 62
     7
  6
CONTINUOUS
 10
19.886273
 20
13.763976
 30
0.000000
 11
20.024327
 21
14.097835
 31
0.000000
  0
LINE
  8
Layer 1
 62
     7
  6
CONTINUOUS
 10
20.024327
 20
14.097835
 30
0.000000
 11
20.092522
 21
14.331427
 31
0.000000
  0
LINE
  8
Layer 1
 62
     7
  6
CONTINUOUS
 10
20.092522
 20
14.331427
 30
0.000000
 11
20.101665
 21
14.417481
 31
0.000000
  0
LINE
  8
Layer 1
 62
     7
  6
CONTINUOUS
 10
20.101665
 20
14.417481
 30
0.000000
 11
20.094835
 21
14.486698
 31
0.000000
  0
LINE
  8
Layer 1
 62
     7
  6
CONTINUOUS
 10
20.094835
 20
14.486698
 30
0.000000
 11
20.072530
 21
14.541821
 31
0.000000
  0
LINE
  8
Layer 1
 62
     7
  6
CONTINUOUS
 10
20.072530
 20
14.541821
 30
0.000000
 11
20.035247
 21
14.585594
 31
0.000000
  0
LINE
  8
Layer 1
 62
     7
  6
CONTINUOUS
 10
20.035247
 20
14.585594
 30
0.000000
 11
19.917736
 21
14.650061
 31
0.000000
  0
LINE
  8
Layer 1
 62
     7
  6
CONTINUOUS
 10
19.917736
 20
14.650061
 30
0.000000
 11
19.746282
 21
14.702044
 31
0.000000
  0
LINE
  8
Layer 1
 62
     7
  6
CONTINUOUS
 10
19.746282
 20
14.702044
 30
0.000000
 11
19.523586
 21
14.748973
 31
0.000000
  0
LINE
  8
Layer 1
 62
     7
  6
CONTINUOUS
 10
19.523586
 20
14.748973
 30
0.000000
 11
19.313840
 21
14.769986
 31
0.000000
  0
LINE
  8
Layer 1
 62
     7
  6
CONTINUOUS
 10
19.313840
 20
14.769986
 30
0.000000
 11
19.140628
 21
14.764148
 31
0.000000
  0
LINE
  8
Layer 1
 62
     7
  6
CONTINUOUS
 10
19.140628
 20
14.764148
 30
0.000000
 11
19.027532
 21
14.730526
 31
0.000000
  0
LINE
  8
Layer 1
 62
     7
  6
CONTINUOUS
 10
19.027532
 20
14.730526
 30
0.000000
 11
18.953318
 21
14.643005
 31
0.000000
  0
LINE
  8
Layer 1
 62
     7
  6
CONTINUOUS
 10
18.953318
 20
14.643005
 30
0.000000
 11
18.818404
 21
14.442708
 31
0.000000
  0
LINE
  8
Layer 1
 62
     7
  6
CONTINUOUS
 10
18.818404
 20
14.442708
 30
0.000000
 11
18.400835
 21
13.764348
 31
0.000000
  0
LINE
  8
Layer 1
 62
     7
  6
CONTINUOUS
 10
18.400835
 20
13.764348
 30
0.000000
 11
17.215220
 21
11.720508
 31
0.000000
  0
LINE
  8
Layer 1
 62
     7
  6
CONTINUOUS
 10
17.215220
 20
11.720508
 30
0.000000
 11
16.020380
 21
9.568020
 31
0.000000
  0
LINE
  8
Layer 1
 62
     7
  6
CONTINUOUS
 10
16.020380
 20
9.568020
 30
0.000000
 11
15.591281
 21
8.753851
 31
0.000000
  0
LINE
  8
Layer 1
 62
     7
  6
CONTINUOUS
 10
15.591281
 20
8.753851
 30
0.000000
 11
15.366011
 21
8.275900
 31
0.000000
  0
LINE
  8
Layer 1
 62
     7
  6
CONTINUOUS
 10
15.366011
 20
8.275900
 30
0.000000
 11
15.204977
 21
7.936282
 31
0.000000
  0
LINE
  8
Layer 1
 62
     7
  6
CONTINUOUS
 10
15.204977
 20
7.936282
 30
0.000000
 11
14.905442
 21
7.384246
 31
0.000000
  0
LINE
  8
Layer 1
 62
     7
  6
CONTINUOUS
 10
14.905442
 20
7.384246
 30
0.000000
 11
14.510192
 21
6.696162
 31
0.000000
  0
LINE
  8
Layer 1
 62
     7
  6
CONTINUOUS
 10
14.510192
 20
6.696162
 30
0.000000
 11
14.062016
 21
5.948403
 31
0.000000
  0
LINE
  8
Layer 1
 62
     7
  6
CONTINUOUS
 10
14.062016
 20
5.948403
 30
0.000000
 11
13.643721
 21
5.281287
 31
0.000000
  0
LINE
  8
Layer 1
 62
     7
  6
CONTINUOUS
 10
13.643721
 20
5.281287
 30
0.000000
 11
13.329833
 21
4.812779
 31
0.000000
  0
LINE
  8
Layer 1
 62
     7
  6
CONTINUOUS
 10
13.329833
 20
4.812779
 30
0.000000
 11
13.150713
 21
4.585715
 31
0.000000
  0
LINE
  8
Layer 1
 62
     7
  6
CONTINUOUS
 10
13.150713
 20
4.585715
 30
0.000000
 11
13.121179
 21
4.576111
 31
0.000000
  0
LINE
  8
Layer 1
 62
     7
  6
CONTINUOUS
 10
13.121179
 20
4.576111
 30
0.000000
 11
13.136723
 21
4.642930
 31
0.000000
  0
LINE
  8
Layer 1
 62
     7
  6
CONTINUOUS
 10
13.136723
 20
4.642930
 30
0.000000
 11
13.649887
 21
6.067155
 31
0.000000
  0
LINE
  8
Layer 1
 62
     7
  6
CONTINUOUS
 10
13.649887
 20
6.067155
 30
0.000000
 11
13.898165
 21
6.674473
 31
0.000000
  0
LINE
  8
Layer 1
 62
     7
  6
CONTINUOUS
 10
13.898165
 20
6.674473
 30
0.000000
 11
14.335847
 21
7.658078
 31
0.000000
  0
LINE
  8
Layer 1
 62
     7
  6
CONTINUOUS
 10
14.335847
 20
7.658078
 30
0.000000
 11
14.901166
 21
8.882021
 31
0.000000
  0
LINE
  8
Layer 1
 62
     7
  6
CONTINUOUS
 10
14.901166
 20
8.882021
 30
0.000000
 11
15.532353
 21
10.210352
 31
0.000000
  0
LINE
  8
Layer 1
 62
     7
  6
CONTINUOUS
 10
15.532353
 20
10.210352
 30
0.000000
 11
16.755037
 21
12.769356
 31
0.000000
  0
LINE
  8
Layer 1
 62
     7
  6
CONTINUOUS
 10
16.755037
 20
12.769356
 30
0.000000
 11
17.105887
 21
13.552353
 31
0.000000
  0
LINE
  8
Layer 1
 62
     7
  6
CONTINUOUS
 10
17.105887
 20
13.552353
 30
0.000000
 11
17.305261
 21
14.074687
 31
0.000000
  0
LINE
  8
Layer 1
 62
     7
  6
CONTINUOUS
 10
17.305261
 20
14.074687
 30
0.000000
 11
17.353344
 21
14.254591
 31
0.000000
  0
LINE
  8
Layer 1
 62
     7
  6
CONTINUOUS
 10
17.353344
 20
14.254591
 30
0.000000
 11
17.369797
 21
14.389113
 31
0.000000
  0
LINE
  8
Layer 1
 62
     7
  6
CONTINUOUS
 10
17.369797
 20
14.389113
 30
0.000000
 11
17.356701
 21
14.484847
 31
0.000000
  0
LINE
  8
Layer 1
 62
     7
  6
CONTINUOUS
 10
17.356701
 20
14.484847
 30
0.000000
 11
17.316135
 21
14.548387
 31
0.000000
  0
LINE
  8
Layer 1
 62
     7
  6
CONTINUOUS
 10
17.316135
 20
14.548387
 30
0.000000
 11
17.250179
 21
14.586328
 31
0.000000
  0
LINE
  8
Layer 1
 62
     7
  6
CONTINUOUS
 10
17.250179
 20
14.586328
 30
0.000000
 11
17.160913
 21
14.605264
 31
0.000000
  0
LINE
  8
Layer 1
 62
     7
  6
CONTINUOUS
 10
17.160913
 20
14.605264
 30
0.000000
 11
16.920770
 21
14.612500
 31
0.000000
  0
LINE
  8
Layer 1
 62
     7
  6
CONTINUOUS
 10
16.920770
 20
14.612500
 30
0.000000
 11
16.735894
 21
14.586899
 31
0.000000
  0
LINE
  8
Layer 1
 62
     7
  6
CONTINUOUS
 10
16.735894
 20
14.586899
 30
0.000000
 11
16.643872
 21
14.551646
 31
0.000000
  0
LINE
  8
Layer 1
 62
     7
  6
CONTINUOUS
 10
16.643872
 20
14.551646
 30
0.000000
 11
16.549902
 21
14.498534
 31
0.000000
  0
LINE
  8
Layer 1
 62
     7
  6
CONTINUOUS
 10
16.549902
 20
14.498534
 30
0.000000
 11
16.349446
 21
14.330060
 31
0.000000
  0
LINE
  8
Layer 1
 62
     7
  6
CONTINUOUS
 10
16.349446
 20
14.330060
 30
0.000000
 11
16.121177
 21
14.064134
 31
0.000000
  0
LINE
  8
Layer 1
 62
     7
  6
CONTINUOUS
 10
16.121177
 20
14.064134
 30
0.000000
 11
15.851746
 21
13.683411
 31
0.000000
  0
LINE
  8
Layer 1
 62
     7
  6
CONTINUOUS
 10
15.851746
 20
13.683411
 30
0.000000
 11
15.527803
 21
13.170547
 31
0.000000
  0
LINE
  8
Layer 1
 62
     7
  6
CONTINUOUS
 10
15.527803
 20
13.170547
 30
0.000000
 11
14.662988
 21
11.679020
 31
0.000000
  0
LINE
  8
Layer 1
 62
     7
  6
CONTINUOUS
 10
14.662988
 20
11.679020
 30
0.000000
 11
13.494275
 21
9.562801
 31
0.000000
  0
LINE
  8
Layer 1
 62
     7
  6
CONTINUOUS
 10
13.494275
 20
9.562801
 30
0.000000
 11
13.138748
 21
8.884447
 31
0.000000
  0
LINE
  8
Layer 1
 62
     7
  6
CONTINUOUS
 10
13.138748
 20
8.884447
 30
0.000000
 11
13.008173
 21
8.594224
 31
0.000000
  0
LINE
  8
Layer 1
 62
     7
  6
CONTINUOUS
 10
13.008173
 20
8.594224
 30
0.000000
 11
12.938700
 21
8.426881
 31
0.000000
  0
LINE
  8
Layer 1
 62
     7
  6
CONTINUOUS
 10
12.938700
 20
8.426881
 30
0.000000
 11
12.749542
 21
8.083103
 31
0.000000
  0
LINE
  8
Layer 1
 62
     7
  6
CONTINUOUS
 10
12.749542
 20
8.083103
 30
0.000000
 11
12.127725
 21
7.066724
 31
0.000000
  0
LINE
  8
Layer 1
 62
     7
  6
CONTINUOUS
 10
12.127725
 20
7.066724
 30
0.000000
 11
11.785864
 21
6.547439
 31
0.000000
  0
LINE
  8
Layer 1
 62
     7
  6
CONTINUOUS
 10
11.785864
 20
6.547439
 30
0.000000
 11
11.505909
 21
6.150865
 31
0.000000
  0
LINE
  8
Layer 1
 62
     7
  6
CONTINUOUS
 10
11.505909
 20
6.150865
 30
0.000000
 11
11.316750
 21
5.915894
 31
0.000000
  0
LINE
  8
Layer 1
 62
     7
  6
CONTINUOUS
 10
11.316750
 20
5.915894
 30
0.000000
 11
11.265248
 21
5.871163
 31
0.000000
  0
LINE
  8
Layer 1
 62
     7
  6
CONTINUOUS
 10
11.265248
 20
5.871163
 30
0.000000
 11
11.251845
 21
5.869114
 31
0.000000
  0
LINE
  8
Layer 1
 62
     7
  6
CONTINUOUS
 10
11.251845
 20
5.869114
 30
0.000000
 11
11.247278
 21
5.881419
 31
0.000000
  0
LINE
  8
Layer 1
 62
     7
  6
CONTINUOUS
 10
11.247278
 20
5.881419
 30
0.000000
 11
11.396148
 21
6.286084
 31
0.000000
  0
LINE
  8
Layer 1
 62
     7
  6
CONTINUOUS
 10
11.396148
 20
6.286084
 30
0.000000
 11
11.801488
 21
7.246790
 31
0.000000
  0
LINE
  8
Layer 1
 62
     7
  6
CONTINUOUS
 10
11.801488
 20
7.246790
 30
0.000000
 11
13.133951
 21
10.261446
 31
0.000000
  0
LINE
  8
Layer 1
 62
     7
  6
CONTINUOUS
 10
13.133951
 20
10.261446
 30
0.000000
 11
14.466415
 21
13.237234
 31
0.000000
  0
LINE
  8
Layer 1
 62
     7
  6
CONTINUOUS
 10
14.876879
 20
14.179253
 30
0.000000
 11
14.466415
 21
13.237234
 31
0.000000
  0
ARC
  8
Default
 62
     7
  6
CONTINUOUS
 10
14.693528
 20
14.259144
 30
0.000000
 40
0.200000
 50
336.455905
 51
463.499807
  0
LINE
  8
Layer 1
 62
     7
  6
CONTINUOUS
 10
14.646840
 20
14.453618
 30
0.000000
 11
14.329213
 21
14.377364
 31
0.000000
  0
LINE
  8
Layer 1
 62
     7
  6
CONTINUOUS
 10
14.329213
 20
14.377364
 30
0.000000
 11
14.121452
 21
14.290141
 31
0.000000
  0
LINE
  8
Layer 1
 62
     7
  6
CONTINUOUS
 10
14.121452
 20
14.290141
 30
0.000000
 11
13.900008
 21
14.130888
 31
0.000000
  0
LINE
  8
Layer 1
 62
     7
  6
CONTINUOUS
 10
13.900008
 20
14.130888
 30
0.000000
 11
13.653174
 21
13.884065
 31
0.000000
  0
LINE
  8
Layer 1
 62
     7
  6
CONTINUOUS
 10
13.653174
 20
13.884065
 30
0.000000
 11
13.369242
 21
13.534134
 31
0.000000
  0
LINE
  8
Layer 1
 62
     7
  6
CONTINUOUS
 10
13.369242
 20
13.534134
 30
0.000000
 11
13.036505
 21
13.065555
 31
0.000000
  0
LINE
  8
Layer 1
 62
     7
  6
CONTINUOUS
 10
13.036505
 20
13.065555
 30
0.000000
 11
12.643255
 21
12.462788
 31
0.000000
  0
LINE
  8
Layer 1
 62
     7
  6
CONTINUOUS
 10
12.643255
 20
12.462788
 30
0.000000
 11
11.628387
 21
10.792533
 31
0.000000
  0
LINE
  8
Layer 1
 62
     7
  6
CONTINUOUS
 10
11.628387
 20
10.792533
 30
0.000000
 11
10.842952
 21
9.479890
 31
0.000000
  0
LINE
  8
Layer 1
 62
     7
  6
CONTINUOUS
 10
10.842952
 20
9.479890
 30
0.000000
 11
10.189814
 21
8.415175
 31
0.000000
  0
LINE
  8
Layer 1
 62
     7
  6
CONTINUOUS
 10
10.189814
 20
8.415175
 30
0.000000
 11
9.737077
 21
7.707536
 31
0.000000
  0
LINE
  8
Layer 1
 62
     7
  6
CONTINUOUS
 10
9.737077
 20
7.707536
 30
0.000000
 11
9.607142
 21
7.521728
 31
0.000000
  0
LINE
  8
Layer 1
 62
     7
  6
CONTINUOUS
 10
9.607142
 20
7.521728
 30
0.000000
 11
9.552846
 21
7.466120
 31
0.000000
  0
LINE
  8
Layer 1
 62
     7
  6
CONTINUOUS
 10
9.552846
 20
7.466120
 30
0.000000
 11
9.568364
 21
7.544398
 31
0.000000
  0
LINE
  8
Layer 1
 62
     7
  6
CONTINUOUS
 10
9.568364
 20
7.544398
 30
0.000000
 11
9.638520
 21
7.742312
 31
0.000000
  0
LINE
  8
Layer 1
 62
     7
  6
CONTINUOUS
 10
9.638520
 20
7.742312
 30
0.000000
 11
9.920676
 21
8.443999
 31
0.000000
  0
LINE
  8
Layer 1
 62
     7
  6
CONTINUOUS
 10
9.920676
 20
8.443999
 30
0.000000
 11
10.355178
 21
9.465087
 31
0.000000
  0
LINE
  8
Layer 1
 62
     7
  6
CONTINUOUS
 10
10.355178
 20
9.465087
 30
0.000000
 11
10.897893
 21
10.699480
 31
0.000000
  0
LINE
  8
Layer 1
 62
     7
  6
CONTINUOUS
 10
10.897893
 20
10.699480
 30
0.000000
 11
11.437805
 21
11.936759
 31
0.000000
  0
LINE
  8
Layer 1
 62
     7
  6
CONTINUOUS
 10
11.437805
 20
11.936759
 30
0.000000
 11
11.864674
 21
12.965705
 31
0.000000
  0
LINE
  8
Layer 1
 62
     7
  6
CONTINUOUS
 10
11.864674
 20
12.965705
 30
0.000000
 11
12.135533
 21
13.679021
 31
0.000000
  0
LINE
  8
Layer 1
 62
     7
  6
CONTINUOUS
 10
12.201401
 20
13.891435
 30
0.000000
 11
12.135533
 21
13.679021
 31
0.000000
  0
ARC
  8
Default
 62
     7
  6
CONTINUOUS
 10
12.105888
 20
13.921053
 30
0.000000
 40
0.100000
 50
342.771616
 51
412.690685
  0
LINE
  8
Layer 1
 62
     7
  6
CONTINUOUS
 10
12.166500
 20
14.000591
 30
0.000000
 11
12.128870
 21
14.029267
 31
0.000000
  0
LINE
  8
Layer 1
 62
     7
  6
CONTINUOUS
 10
12.128870
 20
14.029267
 30
0.000000
 11
12.038466
 21
14.059849
 31
0.000000
  0
LINE
  8
Layer 1
 62
     7
  6
CONTINUOUS
 10
12.038466
 20
14.059849
 30
0.000000
 11
11.936589
 21
14.061529
 31
0.000000
  0
LINE
  8
Layer 1
 62
     7
  6
CONTINUOUS
 10
11.936589
 20
14.061529
 30
0.000000
 11
11.823626
 21
14.034679
 31
0.000000
  0
LINE
  8
Layer 1
 62
     7
  6
CONTINUOUS
 10
11.823626
 20
14.034679
 30
0.000000
 11
11.699966
 21
13.979667
 31
0.000000
  0
LINE
  8
Layer 1
 62
     7
  6
CONTINUOUS
 10
11.699966
 20
13.979667
 30
0.000000
 11
11.565997
 21
13.896864
 31
0.000000
  0
LINE
  8
Layer 1
 62
     7
  6
CONTINUOUS
 10
11.565997
 20
13.896864
 30
0.000000
 11
11.268683
 21
13.649364
 31
0.000000
  0
LINE
  8
Layer 1
 62
     7
  6
CONTINUOUS
 10
11.268683
 20
13.649364
 30
0.000000
 11
10.934788
 21
13.295138
 31
0.000000
  0
LINE
  8
Layer 1
 62
     7
  6
CONTINUOUS
 10
10.934788
 20
13.295138
 30
0.000000
 11
10.567419
 21
12.837148
 31
0.000000
  0
LINE
  8
Layer 1
 62
     7
  6
CONTINUOUS
 10
10.567419
 20
12.837148
 30
0.000000
 11
10.169679
 21
12.278351
 31
0.000000
  0
LINE
  8
Layer 1
 62
     7
  6
CONTINUOUS
 10
10.169679
 20
12.278351
 30
0.000000
 11
9.744674
 21
11.621708
 31
0.000000
  0
LINE
  8
Layer 1
 62
     7
  6
CONTINUOUS
 10
9.744674
 20
11.621708
 30
0.000000
 11
9.211869
 21
10.781599
 31
0.000000
  0
LINE
  8
Layer 1
 62
     7
  6
CONTINUOUS
 10
9.211869
 20
10.781599
 30
0.000000
 11
8.762742
 21
10.106805
 31
0.000000
  0
LINE
  8
Layer 1
 62
     7
  6
CONTINUOUS
 10
8.762742
 20
10.106805
 30
0.000000
 11
8.444547
 21
9.666027
 31
0.000000
  0
LINE
  8
Layer 1
 62
     7
  6
CONTINUOUS
 10
8.444547
 20
9.666027
 30
0.000000
 11
8.349316
 21
9.554862
 31
0.000000
  0
LINE
  8
Layer 1
 62
     7
  6
CONTINUOUS
 10
8.349316
 20
9.554862
 30
0.000000
 11
8.304539
 21
9.527965
 31
0.000000
  0
LINE
  8
Layer 1
 62
     7
  6
CONTINUOUS
 10
8.304539
 20
9.527965
 30
0.000000
 11
8.303252
 21
9.583903
 31
0.000000
  0
LINE
  8
Layer 1
 62
     7
  6
CONTINUOUS
 10
8.303252
 20
9.583903
 30
0.000000
 11
8.332668
 21
9.710148
 31
0.000000
  0
LINE
  8
Layer 1
 62
     7
  6
CONTINUOUS
 10
8.332668
 20
9.710148
 30
0.000000
 11
8.472271
 21
10.141323
 31
0.000000
  0
LINE
  8
Layer 1
 62
     7
  6
CONTINUOUS
 10
8.472271
 20
10.141323
 30
0.000000
 11
8.700686
 21
10.757021
 31
0.000000
  0
LINE
  8
Layer 1
 62
     7
  6
CONTINUOUS
 10
8.700686
 20
10.757021
 30
0.000000
 11
8.995248
 21
11.492771
 31
0.000000
  0
LINE
  8
Layer 1
 62
     7
  6
CONTINUOUS
 10
8.995248
 20
11.492771
 30
0.000000
 11
9.290261
 21
12.226288
 31
0.000000
  0
LINE
  8
Layer 1
 62
     7
  6
CONTINUOUS
 10
9.290261
 20
12.226288
 30
0.000000
 11
9.519906
 21
12.835907
 31
0.000000
  0
LINE
  8
Layer 1
 62
     7
  6
CONTINUOUS
 10
9.617590
 20
13.127514
 30
0.000000
 11
9.519906
 21
12.835907
 31
0.000000
  0
ARC
  8
Default
 62
     7
  6
CONTINUOUS
 10
9.427947
 20
13.191042
 30
0.000000
 40
0.200000
 50
341.479935
 51
461.699426
  0
LINE
  8
Layer 1
 62
     7
  6
CONTINUOUS
 10
9.387392
 20
13.386887
 30
0.000000
 11
9.283432
 21
13.365359
 31
0.000000
  0
LINE
  8
Layer 1
 62
     7
  6
CONTINUOUS
 10
9.283432
 20
13.365359
 30
0.000000
 11
8.413566
 21
13.128170
 31
0.000000
  0
LINE
  8
Layer 1
 62
     7
  6
CONTINUOUS
 10
8.413566
 20
13.128170
 30
0.000000
 11
8.056926
 21
13.013384
 31
0.000000
  0
LINE
  8
Layer 1
 62
     7
  6
CONTINUOUS
 10
8.056926
 20
13.013384
 30
0.000000
 11
7.763997
 21
12.897649
 31
0.000000
  0
LINE
  8
Layer 1
 62
     7
  6
CONTINUOUS
 10
7.763997
 20
12.897649
 30
0.000000
 11
7.521598
 21
12.769315
 31
0.000000
  0
LINE
  8
Layer 1
 62
     7
  6
CONTINUOUS
 10
7.521598
 20
12.769315
 30
0.000000
 11
7.316548
 21
12.616734
 31
0.000000
  0
LINE
  8
Layer 1
 62
     7
  6
CONTINUOUS
 10
7.316548
 20
12.616734
 30
0.000000
 11
7.135666
 21
12.428258
 31
0.000000
  0
LINE
  8
Layer 1
 62
     7
  6
CONTINUOUS
 10
7.135666
 20
12.428258
 30
0.000000
 11
6.965771
 21
12.192240
 31
0.000000
  0
LINE
  8
Layer 1
 62
     7
  6
CONTINUOUS
 10
6.965771
 20
12.192240
 30
0.000000
 11
6.793683
 21
11.897030
 31
0.000000
  0
LINE
  8
Layer 1
 62
     7
  6
CONTINUOUS
 10
6.793683
 20
11.897030
 30
0.000000
 11
6.606222
 21
11.530981
 31
0.000000
  0
LINE
  8
Layer 1
 62
     7
  6
CONTINUOUS
 10
6.606222
 20
11.530981
 30
0.000000
 11
6.298180
 21
10.945181
 31
0.000000
  0
LINE
  8
Layer 1
 62
     7
  6
CONTINUOUS
 10
6.298180
 20
10.945181
 30
0.000000
 11
5.939443
 21
10.334338
 31
0.000000
  0
LINE
  8
Layer 1
 62
     7
  6
CONTINUOUS
 10
5.939443
 20
10.334338
 30
0.000000
 11
5.534597
 21
9.704816
 31
0.000000
  0
LINE
  8
Layer 1
 62
     7
  6
CONTINUOUS
 10
5.534597
 20
9.704816
 30
0.000000
 11
5.088231
 21
9.062980
 31
0.000000
  0
LINE
  8
Layer 1
 62
     7
  6
CONTINUOUS
 10
5.088231
 20
9.062980
 30
0.000000
 11
4.604931
 21
8.415193
 31
0.000000
  0
LINE
  8
Layer 1
 62
     7
  6
CONTINUOUS
 10
4.604931
 20
8.415193
 30
0.000000
 11
4.089287
 21
7.767819
 31
0.000000
  0
LINE
  8
Layer 1
 62
     7
  6
CONTINUOUS
 10
4.089287
 20
7.767819
 30
0.000000
 11
3.545884
 21
7.127223
 31
0.000000
  0
LINE
  8
Layer 1
 62
     7
  6
CONTINUOUS
 10
3.545884
 20
7.127223
 30
0.000000
 11
2.979312
 21
6.499768
 31
0.000000
  0
LINE
  8
Layer 1
 62
     7
  6
CONTINUOUS
 10
2.979312
 20
6.499768
 30
0.000000
 11
2.500418
 21
6.003289
 31
0.000000
  0
LINE
  8
Layer 1
 62
     7
  6
CONTINUOUS
 10
2.500418
 20
6.003289
 30
0.000000
 11
2.021070
 21
5.536766
 31
0.000000
  0
LINE
  8
Layer 1
 62
     7
  6
CONTINUOUS
 10
2.021070
 20
5.536766
 30
0.000000
 11
1.566693
 21
5.120925
 31
0.000000
  0
LINE
  8
Layer 1
 62
     7
  6
CONTINUOUS
 10
1.566693
 20
5.120925
 30
0.000000
 11
1.162714
 21
4.776488
 31
0.000000
  0
LINE
  8
Layer 1
 62
     7
  6
CONTINUOUS
 10
1.162714
 20
4.776488
 30
0.000000
 11
0.834558
 21
4.524179
 31
0.000000
  0
LINE
  8
Layer 1
 62
     7
  6
CONTINUOUS
 10
0.834558
 20
4.524179
 30
0.000000
 11
0.607651
 21
4.384724
 31
0.000000
  0
LINE
  8
Layer 1
 62
     7
  6
CONTINUOUS
 10
0.607651
 20
4.384724
 30
0.000000
 11
0.540112
 21
4.363792
 31
0.000000
  0
LINE
  8
Layer 1
 62
     7
  6
CONTINUOUS
 10
0.540112
 20
4.363792
 30
0.000000
 11
0.507420
 21
4.378844
 31
0.000000
  0
LINE
  8
Layer 1
 62
     7
  6
CONTINUOUS
 10
0.507420
 20
4.378844
 30
0.000000
 11
0.512753
 21
4.432472
 31
0.000000
  0
LINE
  8
Layer 1
 62
     7
  6
CONTINUOUS
 10
0.512753
 20
4.432472
 30
0.000000
 11
0.559289
 21
4.527266
 31
0.000000
  0
LINE
  8
Layer 1
 62
     7
  6
CONTINUOUS
 10
0.559289
 20
4.527266
 30
0.000000
 11
1.639104
 21
6.294254
 31
0.000000
  0
LINE
  8
Layer 1
 62
     7
  6
CONTINUOUS
 10
1.639104
 20
6.294254
 30
0.000000
 11
2.115029
 21
7.098957
 31
0.000000
  0
LINE
  8
Layer 1
 62
     7
  6
CONTINUOUS
 10
2.115029
 20
7.098957
 30
0.000000
 11
2.555090
 21
7.910065
 31
0.000000
  0
LINE
  8
Layer 1
 62
     7
  6
CONTINUOUS
 10
2.555090
 20
7.910065
 30
0.000000
 11
2.951380
 21
8.708916
 31
0.000000
  0
LINE
  8
Layer 1
 62
     7
  6
CONTINUOUS
 10
3.160256
 20
9.174370
 30
0.000000
 11
2.951380
 21
8.708916
 31
0.000000
  0
ARC
  8
Default
 62
     7
  6
CONTINUOUS
 10
3.132886
 20
9.186653
 30
0.000000
 40
0.030000
 50
335.831507
 51
428.058841
  0
LINE
  8
Default
 62
     7
  6
CONTINUOUS
 10
3.144096
 20
9.214480
 30
0.000000
 11
1.712634
 21
9.791118
 31
0.000000
  0
INSERT
  8
Default
 62
     7
  2
Object_0
 10
-10.160000
 20
-10.160000
 30
0.000000
  0
INSERT
  8
Default
 62
     7
  2
Object_1
 10
5.130000
 20
-10.160000
 30
0.000000
  0
ENDSEC
  0
EOF
