  0
SECTION
  2
HEADER
  9
$ACADVER
  1
AC1009
  9
$EXTMIN
 10
24.00000000
 20
25.00000000
 30
0.0
  9
$EXTMAX
 10
201.00000000
 20
203.02458493
 30
0.0
  0
ENDSEC
  0
SECTION
  2
TABLES
  0
TABLE
  2
LAYER
 70
1
 0
LAYER
 2
Calque_par_d_faut
 70
0
 62
18
 6
CONTINUOUS
 0
ENDTAB
 0
ENDSEC
  0
SECTION
  2
ENTITIES
  0
POLYLINE
  8
Calque_par_d_faut
 62
256
 66
   1
 39
0.000000
 70
    1
  0
VERTEX
  8
0
 10
24.00000000
 20
113.39301120
  0
VERTEX
  8
0
 10
24.00948426
 20
140.07177044
  0
VERTEX
  8
0
 10
24.04664057
 20
160.83747495
  0
VERTEX
  8
0
 10
24.07967551
 20
169.23248223
  0
VERTEX
  8
0
 10
24.12452421
 20
176.42468649
  0
VERTEX
  8
0
 10
24.18281855
 20
182.50590795
  0
VERTEX
  8
0
 10
24.25619047
 20
187.56796682
  0
VERTEX
  8
0
 10
24.34627186
 20
191.70268333
  0
VERTEX
  8
0
 10
24.45469464
 20
195.00187770
  0
VERTEX
  8
0
 10
24.58309071
 20
197.55737014
  0
VERTEX
  8
0
 10
24.65528871
 20
198.58492196
  0
VERTEX
  8
0
 10
24.73309200
 20
199.46098088
  0
VERTEX
  8
0
 10
24.81670457
 20
200.19702443
  0
VERTEX
  8
0
 10
24.90633041
 20
200.80453014
  0
VERTEX
  8
0
 10
25.00217351
 20
201.29497553
  0
VERTEX
  8
0
 10
25.10443785
 20
201.67983813
  0
VERTEX
  8
0
 10
25.21332743
 20
201.97059547
  0
VERTEX
  8
0
 10
25.32904623
 20
202.17872508
  0
VERTEX
  8
0
 10
25.45179825
 20
202.31570448
  0
VERTEX
  8
0
 10
25.58178747
 20
202.39301120
  0
VERTEX
  8
0
 10
25.82948385
 20
202.44125879
  0
VERTEX
  8
0
 10
26.31072922
 20
202.48746039
  0
VERTEX
  8
0
 10
27.94373695
 20
202.57378980
  0
VERTEX
  8
0
 10
30.42055063
 20
202.65212781
  0
VERTEX
  8
0
 10
33.68091023
 20
202.72260279
  0
VERTEX
  8
0
 10
37.66455571
 20
202.78534314
  0
VERTEX
  8
0
 10
42.31122706
 20
202.84047724
  0
VERTEX
  8
0
 10
53.35260721
 20
202.92844020
  0
VERTEX
  8
0
 10
66.32297043
 20
202.98751874
  0
VERTEX
  8
0
 10
80.74023648
 20
203.01873992
  0
VERTEX
  8
0
 10
96.12232514
 20
203.02313080
  0
VERTEX
  8
0
 10
111.98715615
 20
203.00171845
  0
VERTEX
  8
0
 10
127.85264927
 20
202.95552993
  0
VERTEX
  8
0
 10
143.23672428
 20
202.88559231
  0
VERTEX
  8
0
 10
157.65730092
 20
202.79293264
  0
VERTEX
  8
0
 10
170.63229897
 20
202.67857799
  0
VERTEX
  8
0
 10
181.67963817
 20
202.54355542
  0
VERTEX
  8
0
 10
186.32978563
 20
202.46861463
  0
VERTEX
  8
0
 10
190.31723829
 20
202.38889200
  0
VERTEX
  8
0
 10
193.58173612
 20
202.30451593
  0
VERTEX
  8
0
 10
196.06301909
 20
202.21561479
  0
VERTEX
  8
0
 10
197.70082718
 20
202.12231697
  0
VERTEX
  8
0
 10
198.18459687
 20
202.07405942
  0
VERTEX
  8
0
 10
198.43490034
 20
202.02475085
  0
VERTEX
  8
0
 10
201.00000000
 20
201.04950169
  0
VERTEX
  8
0
 10
201.00000000
 20
113.02475085
  0
VERTEX
  8
0
 10
201.00000000
 20
25.00000000
  0
VERTEX
  8
0
 10
112.50000000
 20
25.00000000
  0
VERTEX
  8
0
 10
24.00000000
 20
25.00000000
  0
VERTEX
  8
0
 10
24.00000000
 20
113.39301120
  0
SEQEND
  0
POLYLINE
  8
Calque_par_d_faut
 62
256
 66
   1
 39
0.000000
 70
    1
  0
VERTEX
  8
0
 10
40.46363636
 20
37.08439908
  0
VERTEX
  8
0
 10
40.56426275
 20
37.20522269
  0
VERTEX
  8
0
 10
40.63621305
 20
37.34225512
  0
VERTEX
  8
0
 10
40.67971189
 20
37.49502066
  0
VERTEX
  8
0
 10
40.69498387
 20
37.66304358
  0
VERTEX
  8
0
 10
40.68225359
 20
37.84584819
  0
VERTEX
  8
0
 10
40.64174567
 20
38.04295876
  0
VERTEX
  8
0
 10
40.57368471
 20
38.25389959
  0
VERTEX
  8
0
 10
40.47829533
 20
38.47819496
  0
VERTEX
  8
0
 10
40.35580212
 20
38.71536915
  0
VERTEX
  8
0
 10
40.20642969
 20
38.96494646
  0
VERTEX
  8
0
 10
39.82794563
 20
39.49940757
  0
VERTEX
  8
0
 10
39.34464001
 20
40.07777257
  0
VERTEX
  8
0
 10
38.75830969
 20
40.69623577
  0
VERTEX
  8
0
 10
36.08934665
 20
43.36519881
  0
VERTEX
  8
0
 10
35.04467332
 20
40.61749974
  0
VERTEX
  8
0
 10
34.73416475
 20
39.77372609
  0
VERTEX
  8
0
 10
34.47577357
 20
39.01006072
  0
VERTEX
  8
0
 10
34.27024868
 20
38.32423979
  0
VERTEX
  8
0
 10
34.11833894
 20
37.71399943
  0
VERTEX
  8
0
 10
34.02079327
 20
37.17707578
  0
VERTEX
  8
0
 10
33.97836053
 20
36.71120498
  0
VERTEX
  8
0
 10
33.99178962
 20
36.31412318
  0
VERTEX
  8
0
 10
34.01968637
 20
36.14067069
  0
VERTEX
  8
0
 10
34.06182942
 20
35.98356651
  0
VERTEX
  8
0
 10
34.11831237
 20
35.84252764
  0
VERTEX
  8
0
 10
34.18922883
 20
35.71727111
  0
VERTEX
  8
0
 10
34.27467241
 20
35.60751393
  0
VERTEX
  8
0
 10
34.37473672
 20
35.51297312
  0
VERTEX
  8
0
 10
34.48951538
 20
35.43336570
  0
VERTEX
  8
0
 10
34.61910199
 20
35.36840868
  0
VERTEX
  8
0
 10
34.76359017
 20
35.31781909
  0
VERTEX
  8
0
 10
34.92307352
 20
35.28131394
  0
VERTEX
  8
0
 10
35.28740020
 20
35.24942503
  0
VERTEX
  8
0
 10
35.71283091
 20
35.27047809
  0
VERTEX
  8
0
 10
36.20011455
 20
35.34220927
  0
VERTEX
  8
0
 10
36.75000000
 20
35.46235469
  0
VERTEX
  8
0
 10
37.32208496
 20
35.61802997
  0
VERTEX
  8
0
 10
37.89381037
 20
35.80046258
  0
VERTEX
  8
0
 10
38.44994451
 20
36.00299962
  0
VERTEX
  8
0
 10
38.97525568
 20
36.21898817
  0
VERTEX
  8
0
 10
39.45451216
 20
36.44177530
  0
VERTEX
  8
0
 10
39.87248224
 20
36.66470811
  0
VERTEX
  8
0
 10
40.21393422
 20
36.88113368
  0
VERTEX
  8
0
 10
40.46363636
 20
37.08439908
  0
SEQEND
  0
POLYLINE
  8
Calque_par_d_faut
 62
256
 66
   1
 39
0.000000
 70
    1
  0
VERTEX
  8
0
 10
61.92971474
 20
37.25000000
  0
VERTEX
  8
0
 10
61.90159338
 20
37.73730294
  0
VERTEX
  8
0
 10
61.84829010
 20
38.26020184
  0
VERTEX
  8
0
 10
61.77290708
 20
38.80236930
  0
VERTEX
  8
0
 10
61.67854651
 20
39.34747790
  0
VERTEX
  8
0
 10
61.56831057
 20
39.87920026
  0
VERTEX
  8
0
 10
61.44530145
 20
40.38120897
  0
VERTEX
  8
0
 10
61.31262134
 20
40.83717663
  0
VERTEX
  8
0
 10
61.17337241
 20
41.23077584
  0
VERTEX
  8
0
 10
61.06116582
 20
41.49506105
  0
VERTEX
  8
0
 10
60.94747808
 20
41.71831325
  0
VERTEX
  8
0
 10
60.82855640
 20
41.89920976
  0
VERTEX
  8
0
 10
60.70064802
 20
42.03642791
  0
VERTEX
  8
0
 10
60.56000016
 20
42.12864506
  0
VERTEX
  8
0
 10
60.40286003
 20
42.17453851
  0
VERTEX
  8
0
 10
60.22547488
 20
42.17278563
  0
VERTEX
  8
0
 10
60.02409191
 20
42.12206372
  0
VERTEX
  8
0
 10
59.79495835
 20
42.02105014
  0
VERTEX
  8
0
 10
59.53432142
 20
41.86842222
  0
VERTEX
  8
0
 10
59.23842836
 20
41.66285729
  0
VERTEX
  8
0
 10
58.90352637
 20
41.40303268
  0
VERTEX
  8
0
 10
58.10168454
 20
40.71531377
  0
VERTEX
  8
0
 10
57.09877372
 20
39.79468418
  0
VERTEX
  8
0
 10
56.07801429
 20
38.82656025
  0
VERTEX
  8
0
 10
55.32116413
 20
38.06242782
  0
VERTEX
  8
0
 10
55.03770367
 20
37.74638263
  0
VERTEX
  8
0
 10
54.81541892
 20
37.46876437
  0
VERTEX
  8
0
 10
54.65270933
 20
37.22538272
  0
VERTEX
  8
0
 10
54.54797435
 20
37.01204738
  0
VERTEX
  8
0
 10
54.49961346
 20
36.82456802
  0
VERTEX
  8
0
 10
54.50602610
 20
36.65875433
  0
VERTEX
  8
0
 10
54.56561174
 20
36.51041599
  0
VERTEX
  8
0
 10
54.67676984
 20
36.37536270
  0
VERTEX
  8
0
 10
54.83789986
 20
36.24940412
  0
VERTEX
  8
0
 10
55.04740126
 20
36.12834996
  0
VERTEX
  8
0
 10
55.30367350
 20
36.00800989
  0
VERTEX
  8
0
 10
55.60511604
 20
35.88419361
  0
VERTEX
  8
0
 10
56.32645594
 20
35.61848000
  0
VERTEX
  8
0
 10
57.01149113
 20
35.40112474
  0
VERTEX
  8
0
 10
57.65868540
 20
35.23179607
  0
VERTEX
  8
0
 10
58.26650255
 20
35.11016227
  0
VERTEX
  8
0
 10
58.83340637
 20
35.03589158
  0
VERTEX
  8
0
 10
59.35786067
 20
35.00865225
  0
VERTEX
  8
0
 10
59.83832924
 20
35.02811254
  0
VERTEX
  8
0
 10
60.27327587
 20
35.09394070
  0
VERTEX
  8
0
 10
60.66116436
 20
35.20580499
  0
VERTEX
  8
0
 10
60.83698174
 20
35.27889701
  0
VERTEX
  8
0
 10
61.00045850
 20
35.36337366
  0
VERTEX
  8
0
 10
61.15140264
 20
35.45919348
  0
VERTEX
  8
0
 10
61.28962210
 20
35.56631498
  0
VERTEX
  8
0
 10
61.41492488
 20
35.68469670
  0
VERTEX
  8
0
 10
61.52711895
 20
35.81429718
  0
VERTEX
  8
0
 10
61.62601228
 20
35.95507495
  0
VERTEX
  8
0
 10
61.71141284
 20
36.10698853
  0
VERTEX
  8
0
 10
61.78312861
 20
36.26999646
  0
VERTEX
  8
0
 10
61.84096757
 20
36.44405728
  0
VERTEX
  8
0
 10
61.88473769
 20
36.62912951
  0
VERTEX
  8
0
 10
61.91424694
 20
36.82517168
  0
VERTEX
  8
0
 10
61.92930330
 20
37.03214234
  0
VERTEX
  8
0
 10
61.92971474
 20
37.25000000
  0
SEQEND
  0
POLYLINE
  8
Calque_par_d_faut
 62
256
 66
   1
 39
0.000000
 70
    1
  0
VERTEX
  8
0
 10
83.46363636
 20
37.08439908
  0
VERTEX
  8
0
 10
83.56426275
 20
37.20522269
  0
VERTEX
  8
0
 10
83.63621305
 20
37.34225512
  0
VERTEX
  8
0
 10
83.67971189
 20
37.49502066
  0
VERTEX
  8
0
 10
83.69498387
 20
37.66304358
  0
VERTEX
  8
0
 10
83.68225359
 20
37.84584819
  0
VERTEX
  8
0
 10
83.64174567
 20
38.04295876
  0
VERTEX
  8
0
 10
83.57368471
 20
38.25389959
  0
VERTEX
  8
0
 10
83.47829533
 20
38.47819496
  0
VERTEX
  8
0
 10
83.35580212
 20
38.71536915
  0
VERTEX
  8
0
 10
83.20642969
 20
38.96494646
  0
VERTEX
  8
0
 10
82.82794563
 20
39.49940757
  0
VERTEX
  8
0
 10
82.34464001
 20
40.07777257
  0
VERTEX
  8
0
 10
81.75830969
 20
40.69623577
  0
VERTEX
  8
0
 10
79.08934665
 20
43.36519881
  0
VERTEX
  8
0
 10
78.04467332
 20
40.61749974
  0
VERTEX
  8
0
 10
77.73416475
 20
39.77372609
  0
VERTEX
  8
0
 10
77.47577357
 20
39.01006072
  0
VERTEX
  8
0
 10
77.27024868
 20
38.32423979
  0
VERTEX
  8
0
 10
77.11833894
 20
37.71399943
  0
VERTEX
  8
0
 10
77.02079327
 20
37.17707578
  0
VERTEX
  8
0
 10
76.97836053
 20
36.71120498
  0
VERTEX
  8
0
 10
76.99178962
 20
36.31412318
  0
VERTEX
  8
0
 10
77.01968637
 20
36.14067069
  0
VERTEX
  8
0
 10
77.06182942
 20
35.98356651
  0
VERTEX
  8
0
 10
77.11831237
 20
35.84252764
  0
VERTEX
  8
0
 10
77.18922883
 20
35.71727111
  0
VERTEX
  8
0
 10
77.27467241
 20
35.60751393
  0
VERTEX
  8
0
 10
77.37473672
 20
35.51297312
  0
VERTEX
  8
0
 10
77.48951538
 20
35.43336570
  0
VERTEX
  8
0
 10
77.61910199
 20
35.36840868
  0
VERTEX
  8
0
 10
77.76359017
 20
35.31781909
  0
VERTEX
  8
0
 10
77.92307352
 20
35.28131394
  0
VERTEX
  8
0
 10
78.28740020
 20
35.24942503
  0
VERTEX
  8
0
 10
78.71283091
 20
35.27047809
  0
VERTEX
  8
0
 10
79.20011455
 20
35.34220927
  0
VERTEX
  8
0
 10
79.75000000
 20
35.46235469
  0
VERTEX
  8
0
 10
80.32208496
 20
35.61802997
  0
VERTEX
  8
0
 10
80.89381037
 20
35.80046258
  0
VERTEX
  8
0
 10
81.44994451
 20
36.00299962
  0
VERTEX
  8
0
 10
81.97525568
 20
36.21898817
  0
VERTEX
  8
0
 10
82.45451216
 20
36.44177530
  0
VERTEX
  8
0
 10
82.87248224
 20
36.66470811
  0
VERTEX
  8
0
 10
83.21393422
 20
36.88113368
  0
VERTEX
  8
0
 10
83.46363636
 20
37.08439908
  0
SEQEND
  0
POLYLINE
  8
Calque_par_d_faut
 62
256
 66
   1
 39
0.000000
 70
    1
  0
VERTEX
  8
0
 10
104.92971474
 20
37.25000000
  0
VERTEX
  8
0
 10
104.90159338
 20
37.73730294
  0
VERTEX
  8
0
 10
104.84829010
 20
38.26020184
  0
VERTEX
  8
0
 10
104.77290708
 20
38.80236930
  0
VERTEX
  8
0
 10
104.67854651
 20
39.34747790
  0
VERTEX
  8
0
 10
104.56831057
 20
39.87920026
  0
VERTEX
  8
0
 10
104.44530145
 20
40.38120897
  0
VERTEX
  8
0
 10
104.31262134
 20
40.83717663
  0
VERTEX
  8
0
 10
104.17337241
 20
41.23077584
  0
VERTEX
  8
0
 10
104.06116582
 20
41.49506105
  0
VERTEX
  8
0
 10
103.94747808
 20
41.71831325
  0
VERTEX
  8
0
 10
103.82855640
 20
41.89920976
  0
VERTEX
  8
0
 10
103.70064802
 20
42.03642791
  0
VERTEX
  8
0
 10
103.56000016
 20
42.12864506
  0
VERTEX
  8
0
 10
103.40286003
 20
42.17453851
  0
VERTEX
  8
0
 10
103.22547488
 20
42.17278563
  0
VERTEX
  8
0
 10
103.02409191
 20
42.12206372
  0
VERTEX
  8
0
 10
102.79495835
 20
42.02105014
  0
VERTEX
  8
0
 10
102.53432142
 20
41.86842222
  0
VERTEX
  8
0
 10
102.23842836
 20
41.66285729
  0
VERTEX
  8
0
 10
101.90352637
 20
41.40303268
  0
VERTEX
  8
0
 10
101.10168454
 20
40.71531377
  0
VERTEX
  8
0
 10
100.09877372
 20
39.79468418
  0
VERTEX
  8
0
 10
99.07801429
 20
38.82656025
  0
VERTEX
  8
0
 10
98.32116413
 20
38.06242782
  0
VERTEX
  8
0
 10
98.03770367
 20
37.74638263
  0
VERTEX
  8
0
 10
97.81541892
 20
37.46876437
  0
VERTEX
  8
0
 10
97.65270933
 20
37.22538272
  0
VERTEX
  8
0
 10
97.54797435
 20
37.01204738
  0
VERTEX
  8
0
 10
97.49961346
 20
36.82456802
  0
VERTEX
  8
0
 10
97.50602610
 20
36.65875433
  0
VERTEX
  8
0
 10
97.56561174
 20
36.51041599
  0
VERTEX
  8
0
 10
97.67676984
 20
36.37536270
  0
VERTEX
  8
0
 10
97.83789986
 20
36.24940412
  0
VERTEX
  8
0
 10
98.04740126
 20
36.12834996
  0
VERTEX
  8
0
 10
98.30367350
 20
36.00800989
  0
VERTEX
  8
0
 10
98.60511604
 20
35.88419361
  0
VERTEX
  8
0
 10
99.32645594
 20
35.61848000
  0
VERTEX
  8
0
 10
100.01149113
 20
35.40112474
  0
VERTEX
  8
0
 10
100.65868540
 20
35.23179607
  0
VERTEX
  8
0
 10
101.26650255
 20
35.11016227
  0
VERTEX
  8
0
 10
101.83340637
 20
35.03589158
  0
VERTEX
  8
0
 10
102.35786067
 20
35.00865225
  0
VERTEX
  8
0
 10
102.83832924
 20
35.02811254
  0
VERTEX
  8
0
 10
103.27327587
 20
35.09394070
  0
VERTEX
  8
0
 10
103.66116436
 20
35.20580499
  0
VERTEX
  8
0
 10
103.83698174
 20
35.27889701
  0
VERTEX
  8
0
 10
104.00045850
 20
35.36337366
  0
VERTEX
  8
0
 10
104.15140264
 20
35.45919348
  0
VERTEX
  8
0
 10
104.28962210
 20
35.56631498
  0
VERTEX
  8
0
 10
104.41492488
 20
35.68469670
  0
VERTEX
  8
0
 10
104.52711895
 20
35.81429718
  0
VERTEX
  8
0
 10
104.62601228
 20
35.95507495
  0
VERTEX
  8
0
 10
104.71141284
 20
36.10698853
  0
VERTEX
  8
0
 10
104.78312861
 20
36.26999646
  0
VERTEX
  8
0
 10
104.84096757
 20
36.44405728
  0
VERTEX
  8
0
 10
104.88473769
 20
36.62912951
  0
VERTEX
  8
0
 10
104.91424694
 20
36.82517168
  0
VERTEX
  8
0
 10
104.92930330
 20
37.03214234
  0
VERTEX
  8
0
 10
104.92971474
 20
37.25000000
  0
SEQEND
  0
POLYLINE
  8
Calque_par_d_faut
 62
256
 66
   1
 39
0.000000
 70
    1
  0
VERTEX
  8
0
 10
126.46363636
 20
37.08439908
  0
VERTEX
  8
0
 10
126.56426275
 20
37.20522269
  0
VERTEX
  8
0
 10
126.63621305
 20
37.34225512
  0
VERTEX
  8
0
 10
126.67971189
 20
37.49502066
  0
VERTEX
  8
0
 10
126.69498387
 20
37.66304358
  0
VERTEX
  8
0
 10
126.68225359
 20
37.84584819
  0
VERTEX
  8
0
 10
126.64174567
 20
38.04295876
  0
VERTEX
  8
0
 10
126.57368471
 20
38.25389959
  0
VERTEX
  8
0
 10
126.47829533
 20
38.47819496
  0
VERTEX
  8
0
 10
126.35580212
 20
38.71536915
  0
VERTEX
  8
0
 10
126.20642969
 20
38.96494646
  0
VERTEX
  8
0
 10
125.82794563
 20
39.49940757
  0
VERTEX
  8
0
 10
125.34464001
 20
40.07777257
  0
VERTEX
  8
0
 10
124.75830969
 20
40.69623577
  0
VERTEX
  8
0
 10
122.08934665
 20
43.36519881
  0
VERTEX
  8
0
 10
121.04467332
 20
40.61749974
  0
VERTEX
  8
0
 10
120.73416475
 20
39.77372609
  0
VERTEX
  8
0
 10
120.47577357
 20
39.01006072
  0
VERTEX
  8
0
 10
120.27024868
 20
38.32423979
  0
VERTEX
  8
0
 10
120.11833894
 20
37.71399943
  0
VERTEX
  8
0
 10
120.02079327
 20
37.17707578
  0
VERTEX
  8
0
 10
119.97836053
 20
36.71120498
  0
VERTEX
  8
0
 10
119.99178962
 20
36.31412318
  0
VERTEX
  8
0
 10
120.01968637
 20
36.14067069
  0
VERTEX
  8
0
 10
120.06182942
 20
35.98356651
  0
VERTEX
  8
0
 10
120.11831237
 20
35.84252764
  0
VERTEX
  8
0
 10
120.18922883
 20
35.71727111
  0
VERTEX
  8
0
 10
120.27467241
 20
35.60751393
  0
VERTEX
  8
0
 10
120.37473672
 20
35.51297312
  0
VERTEX
  8
0
 10
120.48951538
 20
35.43336570
  0
VERTEX
  8
0
 10
120.61910199
 20
35.36840868
  0
VERTEX
  8
0
 10
120.76359017
 20
35.31781909
  0
VERTEX
  8
0
 10
120.92307352
 20
35.28131394
  0
VERTEX
  8
0
 10
121.28740020
 20
35.24942503
  0
VERTEX
  8
0
 10
121.71283091
 20
35.27047809
  0
VERTEX
  8
0
 10
122.20011455
 20
35.34220927
  0
VERTEX
  8
0
 10
122.75000000
 20
35.46235469
  0
VERTEX
  8
0
 10
123.32208496
 20
35.61802997
  0
VERTEX
  8
0
 10
123.89381037
 20
35.80046258
  0
VERTEX
  8
0
 10
124.44994451
 20
36.00299962
  0
VERTEX
  8
0
 10
124.97525568
 20
36.21898817
  0
VERTEX
  8
0
 10
125.45451216
 20
36.44177530
  0
VERTEX
  8
0
 10
125.87248224
 20
36.66470811
  0
VERTEX
  8
0
 10
126.21393422
 20
36.88113368
  0
VERTEX
  8
0
 10
126.46363636
 20
37.08439908
  0
SEQEND
  0
POLYLINE
  8
Calque_par_d_faut
 62
256
 66
   1
 39
0.000000
 70
    1
  0
VERTEX
  8
0
 10
147.98634532
 20
36.75000000
  0
VERTEX
  8
0
 10
147.97094158
 20
37.14881444
  0
VERTEX
  8
0
 10
147.93209646
 20
37.61226391
  0
VERTEX
  8
0
 10
147.79448316
 20
38.66635501
  0
VERTEX
  8
0
 10
147.59430766
 20
39.77884734
  0
VERTEX
  8
0
 10
147.47725979
 20
40.31529835
  0
VERTEX
  8
0
 10
147.35237221
 20
40.81631493
  0
VERTEX
  8
0
 10
147.14108319
 20
41.57240467
  0
VERTEX
  8
0
 10
147.04223141
 20
41.86558988
  0
VERTEX
  8
0
 10
146.94012213
 20
42.10031018
  0
VERTEX
  8
0
 10
146.82891590
 20
42.27514671
  0
VERTEX
  8
0
 10
146.70277323
 20
42.38868064
  0
VERTEX
  8
0
 10
146.63227589
 20
42.42201573
  0
VERTEX
  8
0
 10
146.55585465
 20
42.43949310
  0
VERTEX
  8
0
 10
146.47277955
 20
42.44093539
  0
VERTEX
  8
0
 10
146.38232068
 20
42.42616525
  0
VERTEX
  8
0
 10
146.17633185
 20
42.34727823
  0
VERTEX
  8
0
 10
145.93204869
 20
42.20141319
  0
VERTEX
  8
0
 10
145.64363172
 20
41.98715128
  0
VERTEX
  8
0
 10
145.30524146
 20
41.70307366
  0
VERTEX
  8
0
 10
144.45518319
 20
40.91979584
  0
VERTEX
  8
0
 10
143.33515808
 20
39.84022892
  0
VERTEX
  8
0
 10
142.34316759
 20
38.86205213
  0
VERTEX
  8
0
 10
141.60113101
 20
38.08058667
  0
VERTEX
  8
0
 10
141.32005741
 20
37.75425388
  0
VERTEX
  8
0
 10
141.09692667
 20
37.46585874
  0
VERTEX
  8
0
 10
140.93022359
 20
37.21165454
  0
VERTEX
  8
0
 10
140.81843295
 20
36.98789456
  0
VERTEX
  8
0
 10
140.76003955
 20
36.79083205
  0
VERTEX
  8
0
 10
140.75352819
 20
36.61672031
  0
VERTEX
  8
0
 10
140.79738365
 20
36.46181260
  0
VERTEX
  8
0
 10
140.89009074
 20
36.32236221
  0
VERTEX
  8
0
 10
141.03013424
 20
36.19462240
  0
VERTEX
  8
0
 10
141.21599895
 20
36.07484645
  0
VERTEX
  8
0
 10
141.44616967
 20
35.95928765
  0
VERTEX
  8
0
 10
141.71913119
 20
35.84419925
  0
VERTEX
  8
0
 10
142.35173923
 20
35.61209900
  0
VERTEX
  8
0
 10
142.96825899
 20
35.42081099
  0
VERTEX
  8
0
 10
143.56525490
 20
35.26983867
  0
VERTEX
  8
0
 10
144.13929138
 20
35.15868552
  0
VERTEX
  8
0
 10
144.68693286
 20
35.08685498
  0
VERTEX
  8
0
 10
145.20474377
 20
35.05385050
  0
VERTEX
  8
0
 10
145.68928853
 20
35.05917555
  0
VERTEX
  8
0
 10
146.13713157
 20
35.10233359
  0
VERTEX
  8
0
 10
146.54483733
 20
35.18282806
  0
VERTEX
  8
0
 10
146.90897022
 20
35.30016243
  0
VERTEX
  8
0
 10
147.22609467
 20
35.45384015
  0
VERTEX
  8
0
 10
147.49277511
 20
35.64336468
  0
VERTEX
  8
0
 10
147.60612521
 20
35.75141432
  0
VERTEX
  8
0
 10
147.70557597
 20
35.86823947
  0
VERTEX
  8
0
 10
147.79069794
 20
35.99377805
  0
VERTEX
  8
0
 10
147.86106167
 20
36.12796798
  0
VERTEX
  8
0
 10
147.91623772
 20
36.27074722
  0
VERTEX
  8
0
 10
147.95579664
 20
36.42205367
  0
VERTEX
  8
0
 10
147.97930899
 20
36.58182529
  0
VERTEX
  8
0
 10
147.98634532
 20
36.75000000
  0
SEQEND
  0
POLYLINE
  8
Calque_par_d_faut
 62
256
 66
   1
 39
0.000000
 70
    1
  0
VERTEX
  8
0
 10
169.43675606
 20
37.05751878
  0
VERTEX
  8
0
 10
169.53189175
 20
37.17224931
  0
VERTEX
  8
0
 10
169.60078031
 20
37.30401162
  0
VERTEX
  8
0
 10
169.64373847
 20
37.45205070
  0
VERTEX
  8
0
 10
169.66108296
 20
37.61561156
  0
VERTEX
  8
0
 10
169.65313050
 20
37.79393921
  0
VERTEX
  8
0
 10
169.62019782
 20
37.98627864
  0
VERTEX
  8
0
 10
169.56260165
 20
38.19187487
  0
VERTEX
  8
0
 10
169.48065872
 20
38.40997289
  0
VERTEX
  8
0
 10
169.37468576
 20
38.63981770
  0
VERTEX
  8
0
 10
169.24499948
 20
38.88065431
  0
VERTEX
  8
0
 10
168.91575393
 20
39.39228296
  0
VERTEX
  8
0
 10
168.49545587
 20
39.93881884
  0
VERTEX
  8
0
 10
167.98663914
 20
40.51422199
  0
VERTEX
  8
0
 10
165.59976615
 20
43.05493185
  0
VERTEX
  8
0
 10
164.33531849
 20
40.77746593
  0
VERTEX
  8
0
 10
164.08059439
 20
40.28204066
  0
VERTEX
  8
0
 10
163.84156110
 20
39.74652860
  0
VERTEX
  8
0
 10
163.62355018
 20
39.18789328
  0
VERTEX
  8
0
 10
163.43189318
 20
38.62309826
  0
VERTEX
  8
0
 10
163.27192165
 20
38.06910707
  0
VERTEX
  8
0
 10
163.14896715
 20
37.54288326
  0
VERTEX
  8
0
 10
163.06836122
 20
37.06139038
  0
VERTEX
  8
0
 10
163.03543542
 20
36.64159197
  0
VERTEX
  8
0
 10
163.03625068
 20
36.37016063
  0
VERTEX
  8
0
 10
163.05087588
 20
36.12887372
  0
VERTEX
  8
0
 10
163.08117591
 20
35.91692112
  0
VERTEX
  8
0
 10
163.12901562
 20
35.73349271
  0
VERTEX
  8
0
 10
163.19625988
 20
35.57777836
  0
VERTEX
  8
0
 10
163.28477356
 20
35.44896796
  0
VERTEX
  8
0
 10
163.39642154
 20
35.34625139
  0
VERTEX
  8
0
 10
163.53306869
 20
35.26881853
  0
VERTEX
  8
0
 10
163.69657986
 20
35.21585926
  0
VERTEX
  8
0
 10
163.88881994
 20
35.18656345
  0
VERTEX
  8
0
 10
164.11165378
 20
35.18012099
  0
VERTEX
  8
0
 10
164.36694627
 20
35.19572176
  0
VERTEX
  8
0
 10
164.65656227
 20
35.23255563
  0
VERTEX
  8
0
 10
164.98236664
 20
35.28981249
  0
VERTEX
  8
0
 10
165.75000000
 20
35.46235469
  0
VERTEX
  8
0
 10
166.32153633
 20
35.61748134
  0
VERTEX
  8
0
 10
166.89168935
 20
35.79834156
  0
VERTEX
  8
0
 10
167.44533759
 20
35.99839269
  0
VERTEX
  8
0
 10
167.96735959
 20
36.21109208
  0
VERTEX
  8
0
 10
168.44263390
 20
36.42989704
  0
VERTEX
  8
0
 10
168.85603906
 20
36.64826493
  0
VERTEX
  8
0
 10
169.19245360
 20
36.85965306
  0
VERTEX
  8
0
 10
169.43675606
 20
37.05751878
  0
SEQEND
  0
POLYLINE
  8
Calque_par_d_faut
 62
256
 66
   1
 39
0.000000
 70
    1
  0
VERTEX
  8
0
 10
191.42900705
 20
35.88513099
  0
VERTEX
  8
0
 10
191.47896247
 20
35.99185015
  0
VERTEX
  8
0
 10
191.51619470
 20
36.12805627
  0
VERTEX
  8
0
 10
191.55364876
 20
36.48057093
  0
VERTEX
  8
0
 10
191.54368748
 20
36.92595801
  0
VERTEX
  8
0
 10
191.48862914
 20
37.44750055
  0
VERTEX
  8
0
 10
191.39079201
 20
38.02848157
  0
VERTEX
  8
0
 10
191.25249435
 20
38.65218412
  0
VERTEX
  8
0
 10
191.07605445
 20
39.30189124
  0
VERTEX
  8
0
 10
190.86379058
 20
39.96088596
  0
VERTEX
  8
0
 10
189.75153307
 20
43.15150993
  0
VERTEX
  8
0
 10
186.34489772
 20
39.84966896
  0
VERTEX
  8
0
 10
185.35028937
 20
38.86893004
  0
VERTEX
  8
0
 10
184.60615271
 20
38.08536890
  0
VERTEX
  8
0
 10
184.32420487
 20
37.75815200
  0
VERTEX
  8
0
 10
184.10030726
 20
37.46897596
  0
VERTEX
  8
0
 10
183.93293734
 20
37.21408958
  0
VERTEX
  8
0
 10
183.82057254
 20
36.98974166
  0
VERTEX
  8
0
 10
183.76169029
 20
36.79218100
  0
VERTEX
  8
0
 10
183.75476805
 20
36.61765641
  0
VERTEX
  8
0
 10
183.79828325
 20
36.46241669
  0
VERTEX
  8
0
 10
183.89071332
 20
36.32271064
  0
VERTEX
  8
0
 10
184.03053571
 20
36.19478707
  0
VERTEX
  8
0
 10
184.21622786
 20
36.07489478
  0
VERTEX
  8
0
 10
184.44626721
 20
35.95928257
  0
VERTEX
  8
0
 10
184.71913119
 20
35.84419925
  0
VERTEX
  8
0
 10
185.20954625
 20
35.66656831
  0
VERTEX
  8
0
 10
185.71662852
 20
35.51312204
  0
VERTEX
  8
0
 10
186.23477652
 20
35.38382630
  0
VERTEX
  8
0
 10
186.75838877
 20
35.27864690
  0
VERTEX
  8
0
 10
187.28186378
 20
35.19754967
  0
VERTEX
  8
0
 10
187.79960006
 20
35.14050045
  0
VERTEX
  8
0
 10
188.30599615
 20
35.10746506
  0
VERTEX
  8
0
 10
188.79545055
 20
35.09840934
  0
VERTEX
  8
0
 10
189.26236178
 20
35.11329911
  0
VERTEX
  8
0
 10
189.70112835
 20
35.15210020
  0
VERTEX
  8
0
 10
190.10614879
 20
35.21477844
  0
VERTEX
  8
0
 10
190.47182161
 20
35.30129967
  0
VERTEX
  8
0
 10
190.79254533
 20
35.41162971
  0
VERTEX
  8
0
 10
191.06271847
 20
35.54573439
  0
VERTEX
  8
0
 10
191.27673953
 20
35.70357954
  0
VERTEX
  8
0
 10
191.36094258
 20
35.79139411
  0
VERTEX
  8
0
 10
191.42900705
 20
35.88513099
  0
SEQEND
  0
POLYLINE
  8
Calque_par_d_faut
 62
256
 66
   1
 39
0.000000
 70
    1
  0
VERTEX
  8
0
 10
72.35942456
 20
43.02115501
  0
VERTEX
  8
0
 10
74.59191906
 20
49.50000000
  0
VERTEX
  8
0
 10
72.10689292
 20
56.80675422
  0
VERTEX
  8
0
 10
69.62186678
 20
64.11350843
  0
VERTEX
  8
0
 10
67.18795225
 20
57.30675422
  0
VERTEX
  8
0
 10
66.69896737
 20
55.89860056
  0
VERTEX
  8
0
 10
66.24266610
 20
54.50600668
  0
VERTEX
  8
0
 10
65.82904393
 20
53.16509403
  0
VERTEX
  8
0
 10
65.46809632
 20
51.91198405
  0
VERTEX
  8
0
 10
65.16981875
 20
50.78279821
  0
VERTEX
  8
0
 10
64.94420668
 20
49.81365795
  0
VERTEX
  8
0
 10
64.80125560
 20
49.04068473
  0
VERTEX
  8
0
 10
64.76390151
 20
48.73904871
  0
VERTEX
  8
0
 10
64.75096097
 20
48.50000000
  0
VERTEX
  8
0
 10
64.76092306
 20
48.21079543
  0
VERTEX
  8
0
 10
64.79087726
 20
47.88499074
  0
VERTEX
  8
0
 10
64.90618753
 20
47.13583113
  0
VERTEX
  8
0
 10
65.08774279
 20
46.27702147
  0
VERTEX
  8
0
 10
65.32639404
 20
45.33306203
  0
VERTEX
  8
0
 10
65.61299231
 20
44.32845310
  0
VERTEX
  8
0
 10
65.93838861
 20
43.28769495
  0
VERTEX
  8
0
 10
66.29343393
 20
42.23528788
  0
VERTEX
  8
0
 10
66.66897930
 20
41.19573216
  0
VERTEX
  8
0
 10
67.05587572
 20
40.19352808
  0
VERTEX
  8
0
 10
67.44497420
 20
39.25317591
  0
VERTEX
  8
0
 10
67.82712576
 20
38.39917594
  0
VERTEX
  8
0
 10
68.19318140
 20
37.65602846
  0
VERTEX
  8
0
 10
68.53399214
 20
37.04823374
  0
VERTEX
  8
0
 10
68.69207161
 20
36.80275001
  0
VERTEX
  8
0
 10
68.84040898
 20
36.60029207
  0
VERTEX
  8
0
 10
68.97786064
 20
36.44392246
  0
VERTEX
  8
0
 10
69.10328294
 20
36.33670373
  0
VERTEX
  8
0
 10
69.21553228
 20
36.28169839
  0
VERTEX
  8
0
 10
69.31346503
 20
36.28196899
  0
VERTEX
  8
0
 10
69.40791298
 20
36.34210150
  0
VERTEX
  8
0
 10
69.52243856
 20
36.46650025
  0
VERTEX
  8
0
 10
69.65548012
 20
36.65171010
  0
VERTEX
  8
0
 10
69.80547602
 20
36.89427590
  0
VERTEX
  8
0
 10
70.15008422
 20
37.53765473
  0
VERTEX
  8
0
 10
70.54376997
 20
38.36899556
  0
VERTEX
  8
0
 10
70.97404007
 20
39.36065720
  0
VERTEX
  8
0
 10
71.42840133
 20
40.48499845
  0
VERTEX
  8
0
 10
71.89436056
 20
41.71437811
  0
VERTEX
  8
0
 10
72.35942456
 20
43.02115501
  0
SEQEND
  0
POLYLINE
  8
Calque_par_d_faut
 62
256
 66
   1
 39
0.000000
 70
    1
  0
VERTEX
  8
0
 10
115.56626441
 20
43.58801013
  0
VERTEX
  8
0
 10
116.24821997
 20
45.58420773
  0
VERTEX
  8
0
 10
116.52337765
 20
46.43643785
  0
VERTEX
  8
0
 10
116.75589205
 20
47.20302946
  0
VERTEX
  8
0
 10
116.94669076
 20
47.89268805
  0
VERTEX
  8
0
 10
117.09670136
 20
48.51411909
  0
VERTEX
  8
0
 10
117.20685144
 20
49.07602804
  0
VERTEX
  8
0
 10
117.27806859
 20
49.58712038
  0
VERTEX
  8
0
 10
117.31128039
 20
50.05610158
  0
VERTEX
  8
0
 10
117.30741443
 20
50.49167712
  0
VERTEX
  8
0
 10
117.26739829
 20
50.90255245
  0
VERTEX
  8
0
 10
117.19215957
 20
51.29743307
  0
VERTEX
  8
0
 10
117.08262584
 20
51.68502443
  0
VERTEX
  8
0
 10
116.93972470
 20
52.07403201
  0
VERTEX
  8
0
 10
116.76438374
 20
52.47316129
  0
VERTEX
  8
0
 10
116.55753053
 20
52.89111772
  0
VERTEX
  8
0
 10
116.26144998
 20
53.50703284
  0
VERTEX
  8
0
 10
115.93628663
 20
54.25917592
  0
VERTEX
  8
0
 10
115.59265710
 20
55.11838942
  0
VERTEX
  8
0
 10
115.24117801
 20
56.05551583
  0
VERTEX
  8
0
 10
114.89246596
 20
57.04139762
  0
VERTEX
  8
0
 10
114.55713758
 20
58.04687726
  0
VERTEX
  8
0
 10
114.24580949
 20
59.04279723
  0
VERTEX
  8
0
 10
113.96909830
 20
60.00000000
  0
VERTEX
  8
0
 10
112.72854620
 20
64.50000000
  0
VERTEX
  8
0
 10
111.78614139
 20
61.50000000
  0
VERTEX
  8
0
 10
111.26591965
 20
59.93693366
  0
VERTEX
  8
0
 10
110.54613072
 20
57.89875800
  0
VERTEX
  8
0
 10
109.72186314
 20
55.64950801
  0
VERTEX
  8
0
 10
108.88820542
 20
53.45321872
  0
VERTEX
  8
0
 10
108.25601013
 20
51.79765218
  0
VERTEX
  8
0
 10
108.00740409
 20
51.10640934
  0
VERTEX
  8
0
 10
107.80368675
 20
50.48847235
  0
VERTEX
  8
0
 10
107.64477885
 20
49.93055035
  0
VERTEX
  8
0
 10
107.53060110
 20
49.41935252
  0
VERTEX
  8
0
 10
107.46107424
 20
48.94158801
  0
VERTEX
  8
0
 10
107.43611898
 20
48.48396599
  0
VERTEX
  8
0
 10
107.45565605
 20
48.03319561
  0
VERTEX
  8
0
 10
107.51960619
 20
47.57598605
  0
VERTEX
  8
0
 10
107.62789011
 20
47.09904645
  0
VERTEX
  8
0
 10
107.78042854
 20
46.58908599
  0
VERTEX
  8
0
 10
107.97714220
 20
46.03281383
  0
VERTEX
  8
0
 10
108.21795183
 20
45.41693912
  0
VERTEX
  8
0
 10
108.83154187
 20
43.95321872
  0
VERTEX
  8
0
 10
109.62078322
 20
42.07473775
  0
VERTEX
  8
0
 10
110.36600269
 20
40.25202663
  0
VERTEX
  8
0
 10
110.98329212
 20
38.69332485
  0
VERTEX
  8
0
 10
111.38874334
 20
37.60687193
  0
VERTEX
  8
0
 10
111.55414599
 20
37.16251395
  0
VERTEX
  8
0
 10
111.71540208
 20
36.80304210
  0
VERTEX
  8
0
 10
111.87613422
 20
36.53364304
  0
VERTEX
  8
0
 10
111.95743588
 20
36.43434164
  0
VERTEX
  8
0
 10
112.03996503
 20
36.35950344
  0
VERTEX
  8
0
 10
112.12417451
 20
36.30977677
  0
VERTEX
  8
0
 10
112.21051713
 20
36.28580995
  0
VERTEX
  8
0
 10
112.29944574
 20
36.28825133
  0
VERTEX
  8
0
 10
112.39141314
 20
36.31774924
  0
VERTEX
  8
0
 10
112.48687218
 20
36.37495201
  0
VERTEX
  8
0
 10
112.58627568
 20
36.46050796
  0
VERTEX
  8
0
 10
112.69007647
 20
36.57506545
  0
VERTEX
  8
0
 10
112.79872737
 20
36.71927278
  0
VERTEX
  8
0
 10
113.03239082
 20
37.09923036
  0
VERTEX
  8
0
 10
113.29088865
 20
37.60556736
  0
VERTEX
  8
0
 10
113.57784349
 20
38.24347044
  0
VERTEX
  8
0
 10
113.89687795
 20
39.01812625
  0
VERTEX
  8
0
 10
114.25161466
 20
39.93472147
  0
VERTEX
  8
0
 10
114.64567622
 20
40.99844275
  0
VERTEX
  8
0
 10
115.56626441
 20
43.58801013
  0
SEQEND
  0
POLYLINE
  8
Calque_par_d_faut
 62
256
 66
   1
 39
0.000000
 70
    1
  0
VERTEX
  8
0
 10
158.56626441
 20
43.58801013
  0
VERTEX
  8
0
 10
159.24821997
 20
45.58420773
  0
VERTEX
  8
0
 10
159.52337765
 20
46.43643785
  0
VERTEX
  8
0
 10
159.75589205
 20
47.20302946
  0
VERTEX
  8
0
 10
159.94669076
 20
47.89268805
  0
VERTEX
  8
0
 10
160.09670136
 20
48.51411909
  0
VERTEX
  8
0
 10
160.20685144
 20
49.07602804
  0
VERTEX
  8
0
 10
160.27806859
 20
49.58712038
  0
VERTEX
  8
0
 10
160.31128039
 20
50.05610158
  0
VERTEX
  8
0
 10
160.30741443
 20
50.49167712
  0
VERTEX
  8
0
 10
160.26739829
 20
50.90255245
  0
VERTEX
  8
0
 10
160.19215957
 20
51.29743307
  0
VERTEX
  8
0
 10
160.08262584
 20
51.68502443
  0
VERTEX
  8
0
 10
159.93972470
 20
52.07403201
  0
VERTEX
  8
0
 10
159.76438374
 20
52.47316129
  0
VERTEX
  8
0
 10
159.55753053
 20
52.89111772
  0
VERTEX
  8
0
 10
159.26120230
 20
53.50703284
  0
VERTEX
  8
0
 10
158.93532910
 20
54.25917592
  0
VERTEX
  8
0
 10
158.59057732
 20
55.11838942
  0
VERTEX
  8
0
 10
158.23761333
 20
56.05551583
  0
VERTEX
  8
0
 10
157.88710355
 20
57.04139762
  0
VERTEX
  8
0
 10
157.54971435
 20
58.04687726
  0
VERTEX
  8
0
 10
157.23611212
 20
59.04279723
  0
VERTEX
  8
0
 10
156.95696325
 20
60.00000000
  0
VERTEX
  8
0
 10
155.70427610
 20
64.50000000
  0
VERTEX
  8
0
 10
154.02535226
 20
59.00000000
  0
VERTEX
  8
0
 10
153.66213571
 20
57.84682797
  0
VERTEX
  8
0
 10
153.27311033
 20
56.67757685
  0
VERTEX
  8
0
 10
152.87037842
 20
55.52451911
  0
VERTEX
  8
0
 10
152.46604224
 20
54.41992720
  0
VERTEX
  8
0
 10
152.07220409
 20
53.39607358
  0
VERTEX
  8
0
 10
151.70096624
 20
52.48523071
  0
VERTEX
  8
0
 10
151.36443097
 20
51.71967105
  0
VERTEX
  8
0
 10
151.07470058
 20
51.13166707
  0
VERTEX
  8
0
 10
150.88971943
 20
50.77331749
  0
VERTEX
  8
0
 10
150.73094398
 20
50.43289559
  0
VERTEX
  8
0
 10
150.59859719
 20
50.10608399
  0
VERTEX
  8
0
 10
150.49290199
 20
49.78856534
  0
VERTEX
  8
0
 10
150.41408133
 20
49.47602224
  0
VERTEX
  8
0
 10
150.36235817
 20
49.16413734
  0
VERTEX
  8
0
 10
150.33795544
 20
48.84859326
  0
VERTEX
  8
0
 10
150.34109610
 20
48.52507263
  0
VERTEX
  8
0
 10
150.37200309
 20
48.18925807
  0
VERTEX
  8
0
 10
150.43089935
 20
47.83683222
  0
VERTEX
  8
0
 10
150.51800783
 20
47.46347770
  0
VERTEX
  8
0
 10
150.63355148
 20
47.06487714
  0
VERTEX
  8
0
 10
150.77775325
 20
46.63671317
  0
VERTEX
  8
0
 10
150.95083608
 20
46.17466841
  0
VERTEX
  8
0
 10
151.38453670
 20
45.13166707
  0
VERTEX
  8
0
 10
152.08107968
 20
43.49362328
  0
VERTEX
  8
0
 10
152.80846384
 20
41.71825001
  0
VERTEX
  8
0
 10
153.48050743
 20
40.01949643
  0
VERTEX
  8
0
 10
154.01102868
 20
38.61131169
  0
VERTEX
  8
0
 10
154.23288447
 20
38.04298693
  0
VERTEX
  8
0
 10
154.46296062
 20
37.53589416
  0
VERTEX
  8
0
 10
154.69456948
 20
37.09947970
  0
VERTEX
  8
0
 10
154.92102344
 20
36.74318990
  0
VERTEX
  8
0
 10
155.13563484
 20
36.47647110
  0
VERTEX
  8
0
 10
155.23640970
 20
36.37965281
  0
VERTEX
  8
0
 10
155.33171606
 20
36.30876964
  0
VERTEX
  8
0
 10
155.42071797
 20
36.26500239
  0
VERTEX
  8
0
 10
155.50257947
 20
36.24953186
  0
VERTEX
  8
0
 10
155.57646461
 20
36.26353883
  0
VERTEX
  8
0
 10
155.64153743
 20
36.30820409
  0
VERTEX
  8
0
 10
155.71332464
 20
36.40258540
  0
VERTEX
  8
0
 10
155.80691058
 20
36.56246509
  0
VERTEX
  8
0
 10
156.05348070
 20
37.06379032
  0
VERTEX
  8
0
 10
156.36925183
 20
37.78232120
  0
VERTEX
  8
0
 10
156.74222802
 20
38.68819916
  0
VERTEX
  8
0
 10
157.16041333
 20
39.75156561
  0
VERTEX
  8
0
 10
157.61181179
 20
40.94256197
  0
VERTEX
  8
0
 10
158.56626441
 20
43.58801013
  0
SEQEND
  0
POLYLINE
  8
Calque_par_d_faut
 62
256
 66
   1
 39
0.000000
 70
    1
  0
VERTEX
  8
0
 10
52.23789332
 20
45.00259920
  0
VERTEX
  8
0
 10
53.48093043
 20
46.26223422
  0
VERTEX
  8
0
 10
53.98357257
 20
46.79220736
  0
VERTEX
  8
0
 10
54.41098681
 20
47.26549270
  0
VERTEX
  8
0
 10
54.76619041
 20
47.68949656
  0
VERTEX
  8
0
 10
55.05220065
 20
48.07162530
  0
VERTEX
  8
0
 10
55.27203479
 20
48.41928524
  0
VERTEX
  8
0
 10
55.42871010
 20
48.73988272
  0
VERTEX
  8
0
 10
55.52524386
 20
49.04082407
  0
VERTEX
  8
0
 10
55.56465335
 20
49.32951564
  0
VERTEX
  8
0
 10
55.54995582
 20
49.61336375
  0
VERTEX
  8
0
 10
55.48416855
 20
49.89977474
  0
VERTEX
  8
0
 10
55.37030882
 20
50.19615495
  0
VERTEX
  8
0
 10
55.21139390
 20
50.50991071
  0
VERTEX
  8
0
 10
55.01044105
 20
50.84844836
  0
VERTEX
  8
0
 10
54.77046755
 20
51.21917423
  0
VERTEX
  8
0
 10
54.42059309
 20
51.70466322
  0
VERTEX
  8
0
 10
53.98868643
 20
52.23635227
  0
VERTEX
  8
0
 10
53.49174469
 20
52.79697204
  0
VERTEX
  8
0
 10
52.94676497
 20
53.36925318
  0
VERTEX
  8
0
 10
52.37074440
 20
53.93592635
  0
VERTEX
  8
0
 10
51.78068010
 20
54.47972220
  0
VERTEX
  8
0
 10
51.19356917
 20
54.98337139
  0
VERTEX
  8
0
 10
50.62640874
 20
55.42960459
  0
VERTEX
  8
0
 10
47.95237490
 20
57.42605911
  0
VERTEX
  8
0
 10
43.45638346
 20
52.93006767
  0
VERTEX
  8
0
 10
38.96039201
 20
48.43407622
  0
VERTEX
  8
0
 10
42.36506631
 20
44.71703811
  0
VERTEX
  8
0
 10
43.07415473
 20
43.97036356
  0
VERTEX
  8
0
 10
43.78431130
 20
43.27378191
  0
VERTEX
  8
0
 10
44.47651522
 20
42.64253881
  0
VERTEX
  8
0
 10
45.13174571
 20
42.09187994
  0
VERTEX
  8
0
 10
45.73098196
 20
41.63705096
  0
VERTEX
  8
0
 10
46.25520319
 20
41.29329754
  0
VERTEX
  8
0
 10
46.48323917
 20
41.16783843
  0
VERTEX
  8
0
 10
46.68538859
 20
41.07586533
  0
VERTEX
  8
0
 10
46.85927385
 20
41.01928395
  0
VERTEX
  8
0
 10
47.00251737
 20
41.00000000
  0
VERTEX
  8
0
 10
47.14886291
 20
41.02076544
  0
VERTEX
  8
0
 10
47.33184989
 20
41.08169368
  0
VERTEX
  8
0
 10
47.54879416
 20
41.18073260
  0
VERTEX
  8
0
 10
47.79701156
 20
41.31583009
  0
VERTEX
  8
0
 10
48.37652916
 20
41.68599234
  0
VERTEX
  8
0
 10
49.04892946
 20
42.17576351
  0
VERTEX
  8
0
 10
49.79273925
 20
42.76872670
  0
VERTEX
  8
0
 10
50.58648531
 20
43.44846498
  0
VERTEX
  8
0
 10
51.40869440
 20
44.19856145
  0
VERTEX
  8
0
 10
52.23789332
 20
45.00259920
  0
SEQEND
  0
POLYLINE
  8
Calque_par_d_faut
 62
256
 66
   1
 39
0.000000
 70
    1
  0
VERTEX
  8
0
 10
95.23789332
 20
45.00259920
  0
VERTEX
  8
0
 10
96.48093043
 20
46.26223422
  0
VERTEX
  8
0
 10
96.98357257
 20
46.79220736
  0
VERTEX
  8
0
 10
97.41098681
 20
47.26549270
  0
VERTEX
  8
0
 10
97.76619041
 20
47.68949656
  0
VERTEX
  8
0
 10
98.05220065
 20
48.07162530
  0
VERTEX
  8
0
 10
98.27203479
 20
48.41928524
  0
VERTEX
  8
0
 10
98.42871010
 20
48.73988272
  0
VERTEX
  8
0
 10
98.52524386
 20
49.04082407
  0
VERTEX
  8
0
 10
98.56465335
 20
49.32951564
  0
VERTEX
  8
0
 10
98.54995582
 20
49.61336375
  0
VERTEX
  8
0
 10
98.48416855
 20
49.89977474
  0
VERTEX
  8
0
 10
98.37030882
 20
50.19615495
  0
VERTEX
  8
0
 10
98.21139390
 20
50.50991071
  0
VERTEX
  8
0
 10
98.01044105
 20
50.84844836
  0
VERTEX
  8
0
 10
97.77046755
 20
51.21917423
  0
VERTEX
  8
0
 10
97.42059309
 20
51.70466322
  0
VERTEX
  8
0
 10
96.98868643
 20
52.23635227
  0
VERTEX
  8
0
 10
96.49174469
 20
52.79697204
  0
VERTEX
  8
0
 10
95.94676497
 20
53.36925318
  0
VERTEX
  8
0
 10
95.37074440
 20
53.93592635
  0
VERTEX
  8
0
 10
94.78068010
 20
54.47972220
  0
VERTEX
  8
0
 10
94.19356917
 20
54.98337139
  0
VERTEX
  8
0
 10
93.62640874
 20
55.42960459
  0
VERTEX
  8
0
 10
90.95237490
 20
57.42605911
  0
VERTEX
  8
0
 10
86.45638346
 20
52.93006767
  0
VERTEX
  8
0
 10
81.96039201
 20
48.43407622
  0
VERTEX
  8
0
 10
85.36506631
 20
44.71703811
  0
VERTEX
  8
0
 10
86.07415473
 20
43.97036356
  0
VERTEX
  8
0
 10
86.78431130
 20
43.27378191
  0
VERTEX
  8
0
 10
87.47651522
 20
42.64253881
  0
VERTEX
  8
0
 10
88.13174571
 20
42.09187994
  0
VERTEX
  8
0
 10
88.73098196
 20
41.63705096
  0
VERTEX
  8
0
 10
89.25520319
 20
41.29329754
  0
VERTEX
  8
0
 10
89.48323917
 20
41.16783843
  0
VERTEX
  8
0
 10
89.68538859
 20
41.07586533
  0
VERTEX
  8
0
 10
89.85927385
 20
41.01928395
  0
VERTEX
  8
0
 10
90.00251737
 20
41.00000000
  0
VERTEX
  8
0
 10
90.14886291
 20
41.02076544
  0
VERTEX
  8
0
 10
90.33184989
 20
41.08169368
  0
VERTEX
  8
0
 10
90.54879416
 20
41.18073260
  0
VERTEX
  8
0
 10
90.79701156
 20
41.31583009
  0
VERTEX
  8
0
 10
91.37652916
 20
41.68599234
  0
VERTEX
  8
0
 10
92.04892946
 20
42.17576351
  0
VERTEX
  8
0
 10
92.79273925
 20
42.76872670
  0
VERTEX
  8
0
 10
93.58648531
 20
43.44846498
  0
VERTEX
  8
0
 10
94.40869440
 20
44.19856145
  0
VERTEX
  8
0
 10
95.23789332
 20
45.00259920
  0
SEQEND
  0
POLYLINE
  8
Calque_par_d_faut
 62
256
 66
   1
 39
0.000000
 70
    1
  0
VERTEX
  8
0
 10
138.40476446
 20
45.02626567
  0
VERTEX
  8
0
 10
139.11310552
 20
45.82471725
  0
VERTEX
  8
0
 10
139.72322267
 20
46.55133748
  0
VERTEX
  8
0
 10
140.23393519
 20
47.21694747
  0
VERTEX
  8
0
 10
140.45164574
 20
47.53025523
  0
VERTEX
  8
0
 10
140.64406236
 20
47.83236835
  0
VERTEX
  8
0
 10
140.81103746
 20
48.12463948
  0
VERTEX
  8
0
 10
140.95242345
 20
48.40842124
  0
VERTEX
  8
0
 10
141.06807275
 20
48.68506630
  0
VERTEX
  8
0
 10
141.15783776
 20
48.95592728
  0
VERTEX
  8
0
 10
141.22157090
 20
49.22235682
  0
VERTEX
  8
0
 10
141.25912456
 20
49.48570758
  0
VERTEX
  8
0
 10
141.27035117
 20
49.74733218
  0
VERTEX
  8
0
 10
141.25510314
 20
50.00858326
  0
VERTEX
  8
0
 10
141.21323287
 20
50.27081348
  0
VERTEX
  8
0
 10
141.14459277
 20
50.53537547
  0
VERTEX
  8
0
 10
141.04903525
 20
50.80362186
  0
VERTEX
  8
0
 10
140.92641273
 20
51.07690531
  0
VERTEX
  8
0
 10
140.77657761
 20
51.35657845
  0
VERTEX
  8
0
 10
140.59938231
 20
51.64399392
  0
VERTEX
  8
0
 10
140.39467923
 20
51.94050436
  0
VERTEX
  8
0
 10
140.16232078
 20
52.24746241
  0
VERTEX
  8
0
 10
139.61404744
 20
52.89813192
  0
VERTEX
  8
0
 10
138.95338155
 20
53.60682358
  0
VERTEX
  8
0
 10
138.17914240
 20
54.38435849
  0
VERTEX
  8
0
 10
137.29014927
 20
55.24155780
  0
VERTEX
  8
0
 10
134.40818580
 20
57.98311560
  0
VERTEX
  8
0
 10
129.70663169
 20
53.20978619
  0
VERTEX
  8
0
 10
125.00507758
 20
48.43645678
  0
VERTEX
  8
0
 10
128.61658488
 20
44.71822839
  0
VERTEX
  8
0
 10
129.36797307
 20
43.97131474
  0
VERTEX
  8
0
 10
130.11904415
 20
43.27451002
  0
VERTEX
  8
0
 10
130.84977798
 20
42.64306479
  0
VERTEX
  8
0
 10
131.54015443
 20
42.09222959
  0
VERTEX
  8
0
 10
132.17015336
 20
41.63725496
  0
VERTEX
  8
0
 10
132.71975464
 20
41.29339146
  0
VERTEX
  8
0
 10
132.95814987
 20
41.16789217
  0
VERTEX
  8
0
 10
133.16893815
 20
41.07588962
  0
VERTEX
  8
0
 10
133.34961694
 20
41.01929013
  0
VERTEX
  8
0
 10
133.49768374
 20
41.00000000
  0
VERTEX
  8
0
 10
133.64588533
 20
41.02088822
  0
VERTEX
  8
0
 10
133.82695963
 20
41.08217671
  0
VERTEX
  8
0
 10
134.03839079
 20
41.18180123
  0
VERTEX
  8
0
 10
134.27766297
 20
41.31769753
  0
VERTEX
  8
0
 10
134.82966707
 20
41.69004846
  0
VERTEX
  8
0
 10
135.46284522
 20
42.18271554
  0
VERTEX
  8
0
 10
136.15707074
 20
42.77918478
  0
VERTEX
  8
0
 10
136.89221691
 20
43.46294220
  0
VERTEX
  8
0
 10
137.64815705
 20
44.21747382
  0
VERTEX
  8
0
 10
138.40476446
 20
45.02626567
  0
SEQEND
  0
POLYLINE
  8
Calque_par_d_faut
 62
256
 66
   1
 39
0.000000
 70
    1
  0
VERTEX
  8
0
 10
181.20783737
 20
44.70294777
  0
VERTEX
  8
0
 10
181.96960285
 20
45.46300103
  0
VERTEX
  8
0
 10
182.68026302
 20
46.20339804
  0
VERTEX
  8
0
 10
183.32426407
 20
46.90569360
  0
VERTEX
  8
0
 10
183.88605223
 20
47.55144248
  0
VERTEX
  8
0
 10
184.35007369
 20
48.12219947
  0
VERTEX
  8
0
 10
184.70077467
 20
48.59951935
  0
VERTEX
  8
0
 10
184.92260137
 20
48.96495692
  0
VERTEX
  8
0
 10
184.98032630
 20
49.09995570
  0
VERTEX
  8
0
 10
185.00000000
 20
49.20006694
  0
VERTEX
  8
0
 10
184.98100481
 20
49.30199274
  0
VERTEX
  8
0
 10
184.92527070
 20
49.44231563
  0
VERTEX
  8
0
 10
184.71109437
 20
49.82821280
  0
VERTEX
  8
0
 10
184.37248840
 20
50.33787868
  0
VERTEX
  8
0
 10
183.92447014
 20
50.95143349
  0
VERTEX
  8
0
 10
183.38205698
 20
51.64899744
  0
VERTEX
  8
0
 10
182.76026628
 20
52.41069076
  0
VERTEX
  8
0
 10
182.07411542
 20
53.21663367
  0
VERTEX
  8
0
 10
181.33862176
 20
54.04694639
  0
VERTEX
  8
0
 10
177.67724352
 20
58.09965443
  0
VERTEX
  8
0
 10
173.33862176
 20
53.84161924
  0
VERTEX
  8
0
 10
172.46708417
 20
52.96597832
  0
VERTEX
  8
0
 10
171.65401628
 20
52.10985662
  0
VERTEX
  8
0
 10
170.91721323
 20
51.29479645
  0
VERTEX
  8
0
 10
170.27447014
 20
50.54234011
  0
VERTEX
  8
0
 10
169.74358215
 20
49.87402991
  0
VERTEX
  8
0
 10
169.34234437
 20
49.31140817
  0
VERTEX
  8
0
 10
169.19590530
 20
49.07646244
  0
VERTEX
  8
0
 10
169.08855195
 20
48.87601719
  0
VERTEX
  8
0
 10
169.02250872
 20
48.71276520
  0
VERTEX
  8
0
 10
169.00000000
 20
48.58939927
  0
VERTEX
  8
0
 10
169.01758149
 20
48.45138975
  0
VERTEX
  8
0
 10
169.06899035
 20
48.28644697
  0
VERTEX
  8
0
 10
169.15222316
 20
48.09662453
  0
VERTEX
  8
0
 10
169.26527648
 20
47.88397602
  0
VERTEX
  8
0
 10
169.57283101
 20
47.39841512
  0
VERTEX
  8
0
 10
169.97562655
 20
46.84619298
  0
VERTEX
  8
0
 10
170.45763571
 20
46.24373831
  0
VERTEX
  8
0
 10
171.00283112
 20
45.60747981
  0
VERTEX
  8
0
 10
171.59518539
 20
44.95384619
  0
VERTEX
  8
0
 10
172.21867114
 20
44.29926616
  0
VERTEX
  8
0
 10
172.85726098
 20
43.66016843
  0
VERTEX
  8
0
 10
173.49492752
 20
43.05298170
  0
VERTEX
  8
0
 10
174.11564339
 20
42.49413469
  0
VERTEX
  8
0
 10
174.70338120
 20
42.00005608
  0
VERTEX
  8
0
 10
175.24211356
 20
41.58717461
  0
VERTEX
  8
0
 10
175.71581310
 20
41.27191896
  0
VERTEX
  8
0
 10
175.92326700
 20
41.15603480
  0
VERTEX
  8
0
 10
176.10845243
 20
41.07071786
  0
VERTEX
  8
0
 10
176.26936595
 20
41.01802173
  0
VERTEX
  8
0
 10
176.40400416
 20
41.00000000
  0
VERTEX
  8
0
 10
176.52673438
 20
41.01921085
  0
VERTEX
  8
0
 10
176.68462607
 20
41.07557774
  0
VERTEX
  8
0
 10
176.87521631
 20
41.16720219
  0
VERTEX
  8
0
 10
177.09604221
 20
41.29218572
  0
VERTEX
  8
0
 10
177.61854935
 20
41.63463607
  0
VERTEX
  8
0
 10
178.23244428
 20
42.08774091
  0
VERTEX
  8
0
 10
178.91802377
 20
42.63631237
  0
VERTEX
  8
0
 10
179.65558459
 20
43.26516258
  0
VERTEX
  8
0
 10
180.42542354
 20
43.95910367
  0
VERTEX
  8
0
 10
181.20783737
 20
44.70294777
  0
SEQEND
  0
POLYLINE
  8
Calque_par_d_faut
 62
256
 66
   1
 39
0.000000
 70
    1
  0
VERTEX
  8
0
 10
39.97474504
 20
59.46956963
  0
VERTEX
  8
0
 10
40.25463337
 20
59.82133303
  0
VERTEX
  8
0
 10
40.48156416
 20
60.14237280
  0
VERTEX
  8
0
 10
40.65282522
 20
60.43549463
  0
VERTEX
  8
0
 10
40.76570435
 20
60.70350420
  0
VERTEX
  8
0
 10
40.81748935
 20
60.94920720
  0
VERTEX
  8
0
 10
40.81962399
 20
61.06457051
  0
VERTEX
  8
0
 10
40.80546802
 20
61.17540931
  0
VERTEX
  8
0
 10
40.77468243
 20
61.28207431
  0
VERTEX
  8
0
 10
40.72692818
 20
61.38491622
  0
VERTEX
  8
0
 10
40.66186625
 20
61.48428575
  0
VERTEX
  8
0
 10
40.57915761
 20
61.58053361
  0
VERTEX
  8
0
 10
40.35944413
 20
61.76506717
  0
VERTEX
  8
0
 10
40.06507553
 20
61.94132257
  0
VERTEX
  8
0
 10
39.69333963
 20
62.11210551
  0
VERTEX
  8
0
 10
39.24152422
 20
62.28022167
  0
VERTEX
  8
0
 10
38.70691710
 20
62.44847674
  0
VERTEX
  8
0
 10
38.08680608
 20
62.61967639
  0
VERTEX
  8
0
 10
36.57922355
 20
62.98213219
  0
VERTEX
  8
0
 10
35.27428806
 20
63.25939896
  0
VERTEX
  8
0
 10
34.74865147
 20
63.34838659
  0
VERTEX
  8
0
 10
34.30340133
 20
63.39787681
  0
VERTEX
  8
0
 10
33.93541194
 20
63.40306943
  0
VERTEX
  8
0
 10
33.77941324
 20
63.38755408
  0
VERTEX
  8
0
 10
33.64155757
 20
63.35916426
  0
VERTEX
  8
0
 10
33.52145423
 20
63.31729995
  0
VERTEX
  8
0
 10
33.41871249
 20
63.26136113
  0
VERTEX
  8
0
 10
33.33294165
 20
63.19074777
  0
VERTEX
  8
0
 10
33.26375099
 20
63.10485985
  0
VERTEX
  8
0
 10
33.21074978
 20
63.00309734
  0
VERTEX
  8
0
 10
33.17354732
 20
62.88486023
  0
VERTEX
  8
0
 10
33.15175290
 20
62.74954849
  0
VERTEX
  8
0
 10
33.14497578
 20
62.59656210
  0
VERTEX
  8
0
 10
33.17491064
 20
62.23516526
  0
VERTEX
  8
0
 10
33.26022617
 20
61.79586955
  0
VERTEX
  8
0
 10
33.39779665
 20
61.27387476
  0
VERTEX
  8
0
 10
33.58449636
 20
60.66438072
  0
VERTEX
  8
0
 10
34.09278056
 20
59.16369416
  0
VERTEX
  8
0
 10
34.41189745
 20
58.30490422
  0
VERTEX
  8
0
 10
34.56324265
 20
57.94730863
  0
VERTEX
  8
0
 10
34.71156446
 20
57.63567127
  0
VERTEX
  8
0
 10
34.85870195
 20
57.36856112
  0
VERTEX
  8
0
 10
35.00649420
 20
57.14454716
  0
VERTEX
  8
0
 10
35.15678028
 20
56.96219839
  0
VERTEX
  8
0
 10
35.31139926
 20
56.82008377
  0
VERTEX
  8
0
 10
35.47219023
 20
56.71677230
  0
VERTEX
  8
0
 10
35.64099226
 20
56.65083295
  0
VERTEX
  8
0
 10
35.81964443
 20
56.62083471
  0
VERTEX
  8
0
 10
36.00998580
 20
56.62534657
  0
VERTEX
  8
0
 10
36.21385546
 20
56.66293749
  0
VERTEX
  8
0
 10
36.43309248
 20
56.73217648
  0
VERTEX
  8
0
 10
36.66953594
 20
56.83163250
  0
VERTEX
  8
0
 10
36.92502491
 20
56.95987455
  0
VERTEX
  8
0
 10
37.30118902
 20
57.17910209
  0
VERTEX
  8
0
 10
37.70381349
 20
57.44591250
  0
VERTEX
  8
0
 10
38.12038969
 20
57.75001211
  0
VERTEX
  8
0
 10
38.53840900
 20
58.08110724
  0
VERTEX
  8
0
 10
38.94536281
 20
58.42890423
  0
VERTEX
  8
0
 10
39.32874250
 20
58.78310941
  0
VERTEX
  8
0
 10
39.67603945
 20
59.13342910
  0
VERTEX
  8
0
 10
39.97474504
 20
59.46956963
  0
SEQEND
  0
POLYLINE
  8
Calque_par_d_faut
 62
256
 66
   1
 39
0.000000
 70
    1
  0
VERTEX
  8
0
 10
61.76479837
 20
59.95880300
  0
VERTEX
  8
0
 10
63.12049292
 20
63.28123806
  0
VERTEX
  8
0
 10
59.39655328
 20
62.67692585
  0
VERTEX
  8
0
 10
58.45928384
 20
62.51098493
  0
VERTEX
  8
0
 10
57.62251933
 20
62.33312482
  0
VERTEX
  8
0
 10
56.88559742
 20
62.14242379
  0
VERTEX
  8
0
 10
56.24785574
 20
61.93796012
  0
VERTEX
  8
0
 10
55.70863196
 20
61.71881207
  0
VERTEX
  8
0
 10
55.47575728
 20
61.60344336
  0
VERTEX
  8
0
 10
55.26726370
 20
61.48405791
  0
VERTEX
  8
0
 10
55.08306842
 20
61.36054050
  0
VERTEX
  8
0
 10
54.92308864
 20
61.23277592
  0
VERTEX
  8
0
 10
54.78724157
 20
61.10064895
  0
VERTEX
  8
0
 10
54.67544441
 20
60.96404437
  0
VERTEX
  8
0
 10
54.58761438
 20
60.82284696
  0
VERTEX
  8
0
 10
54.52366867
 20
60.67694151
  0
VERTEX
  8
0
 10
54.48352450
 20
60.52621281
  0
VERTEX
  8
0
 10
54.46709907
 20
60.37054564
  0
VERTEX
  8
0
 10
54.47430958
 20
60.20982478
  0
VERTEX
  8
0
 10
54.50507324
 20
60.04393501
  0
VERTEX
  8
0
 10
54.55930727
 20
59.87276112
  0
VERTEX
  8
0
 10
54.63692885
 20
59.69618789
  0
VERTEX
  8
0
 10
54.73785521
 20
59.51410011
  0
VERTEX
  8
0
 10
54.86200355
 20
59.32638257
  0
VERTEX
  8
0
 10
55.17963498
 20
58.93359729
  0
VERTEX
  8
0
 10
55.58916078
 20
58.51691035
  0
VERTEX
  8
0
 10
56.08991862
 20
58.07540000
  0
VERTEX
  8
0
 10
56.63906870
 20
57.63228479
  0
VERTEX
  8
0
 10
57.14273865
 20
57.25745804
  0
VERTEX
  8
0
 10
57.60511792
 20
56.95231015
  0
VERTEX
  8
0
 10
58.03039596
 20
56.71823155
  0
VERTEX
  8
0
 10
58.42276224
 20
56.55661265
  0
VERTEX
  8
0
 10
58.60791266
 20
56.50341009
  0
VERTEX
  8
0
 10
58.78640620
 20
56.46884386
  0
VERTEX
  8
0
 10
58.95876651
 20
56.45308776
  0
VERTEX
  8
0
 10
59.12551729
 20
56.45631559
  0
VERTEX
  8
0
 10
59.28718222
 20
56.47870115
  0
VERTEX
  8
0
 10
59.44428498
 20
56.52041825
  0
VERTEX
  8
0
 10
59.59734926
 20
56.58164069
  0
VERTEX
  8
0
 10
59.74689872
 20
56.66254227
  0
VERTEX
  8
0
 10
59.89345706
 20
56.76329679
  0
VERTEX
  8
0
 10
60.03754796
 20
56.88407806
  0
VERTEX
  8
0
 10
60.17969510
 20
57.02505987
  0
VERTEX
  8
0
 10
60.32042216
 20
57.18641602
  0
VERTEX
  8
0
 10
60.59971076
 20
57.57094658
  0
VERTEX
  8
0
 10
60.87960323
 20
58.03906014
  0
VERTEX
  8
0
 10
61.16428902
 20
58.59214712
  0
VERTEX
  8
0
 10
61.45795758
 20
59.23159794
  0
VERTEX
  8
0
 10
61.76479837
 20
59.95880300
  0
SEQEND
  0
POLYLINE
  8
Calque_par_d_faut
 62
256
 66
   1
 39
0.000000
 70
    1
  0
VERTEX
  8
0
 10
81.99629569
 20
58.49605695
  0
VERTEX
  8
0
 10
82.47013508
 20
59.01077150
  0
VERTEX
  8
0
 10
82.87167185
 20
59.47379161
  0
VERTEX
  8
0
 10
83.19854495
 20
59.88949938
  0
VERTEX
  8
0
 10
83.44839333
 20
60.26227690
  0
VERTEX
  8
0
 10
83.61885594
 20
60.59650628
  0
VERTEX
  8
0
 10
83.67357976
 20
60.75053482
  0
VERTEX
  8
0
 10
83.70757174
 20
60.89656961
  0
VERTEX
  8
0
 10
83.72053675
 20
61.03515841
  0
VERTEX
  8
0
 10
83.71217966
 20
61.16684899
  0
VERTEX
  8
0
 10
83.68220534
 20
61.29218911
  0
VERTEX
  8
0
 10
83.63031867
 20
61.41172653
  0
VERTEX
  8
0
 10
83.55622450
 20
61.52600901
  0
VERTEX
  8
0
 10
83.45962770
 20
61.63558432
  0
VERTEX
  8
0
 10
83.34023315
 20
61.74100021
  0
VERTEX
  8
0
 10
83.19774572
 20
61.84280445
  0
VERTEX
  8
0
 10
82.84231166
 20
62.03776904
  0
VERTEX
  8
0
 10
82.39096448
 20
62.22486018
  0
VERTEX
  8
0
 10
81.84134313
 20
62.40845996
  0
VERTEX
  8
0
 10
81.19108656
 20
62.59295049
  0
VERTEX
  8
0
 10
80.43783371
 20
62.78271387
  0
VERTEX
  8
0
 10
79.57922355
 20
62.98213219
  0
VERTEX
  8
0
 10
78.27370174
 20
63.25956611
  0
VERTEX
  8
0
 10
77.74789529
 20
63.34859659
  0
VERTEX
  8
0
 10
77.30255896
 20
63.39806743
  0
VERTEX
  8
0
 10
76.93456812
 20
63.40315214
  0
VERTEX
  8
0
 10
76.77860081
 20
63.38754142
  0
VERTEX
  8
0
 10
76.64079813
 20
63.35902423
  0
VERTEX
  8
0
 10
76.52076951
 20
63.31699727
  0
VERTEX
  8
0
 10
76.41812436
 20
63.26085722
  0
VERTEX
  8
0
 10
76.33247211
 20
63.19000076
  0
VERTEX
  8
0
 10
76.26342217
 20
63.10382460
  0
VERTEX
  8
0
 10
76.21058396
 20
63.00172541
  0
VERTEX
  8
0
 10
76.17356691
 20
62.88309989
  0
VERTEX
  8
0
 10
76.15198044
 20
62.74734473
  0
VERTEX
  8
0
 10
76.14543397
 20
62.59385661
  0
VERTEX
  8
0
 10
76.17589870
 20
62.23126825
  0
VERTEX
  8
0
 10
76.26183646
 20
61.79050833
  0
VERTEX
  8
0
 10
76.40012262
 20
61.26675037
  0
VERTEX
  8
0
 10
76.58763255
 20
60.65516786
  0
VERTEX
  8
0
 10
77.09782514
 20
59.14922327
  0
VERTEX
  8
0
 10
77.33794231
 20
58.48015756
  0
VERTEX
  8
0
 10
77.56461438
 20
57.89782440
  0
VERTEX
  8
0
 10
77.78260922
 20
57.40158805
  0
VERTEX
  8
0
 10
77.99669471
 20
56.99081274
  0
VERTEX
  8
0
 10
78.21163872
 20
56.66486272
  0
VERTEX
  8
0
 10
78.32092263
 20
56.53349853
  0
VERTEX
  8
0
 10
78.43220912
 20
56.42310225
  0
VERTEX
  8
0
 10
78.54609417
 20
56.33359442
  0
VERTEX
  8
0
 10
78.66317377
 20
56.26489557
  0
VERTEX
  8
0
 10
78.78404390
 20
56.21692622
  0
VERTEX
  8
0
 10
78.90930054
 20
56.18960692
  0
VERTEX
  8
0
 10
79.03953969
 20
56.18285819
  0
VERTEX
  8
0
 10
79.17535731
 20
56.19660057
  0
VERTEX
  8
0
 10
79.31734941
 20
56.23075457
  0
VERTEX
  8
0
 10
79.46611195
 20
56.28524075
  0
VERTEX
  8
0
 10
79.78633233
 20
56.45489171
  0
VERTEX
  8
0
 10
80.14078631
 20
56.70491770
  0
VERTEX
  8
0
 10
80.53424177
 20
57.03468297
  0
VERTEX
  8
0
 10
80.97146657
 20
57.44355177
  0
VERTEX
  8
0
 10
81.45722859
 20
57.93088835
  0
VERTEX
  8
0
 10
81.99629569
 20
58.49605695
  0
SEQEND
  0
POLYLINE
  8
Calque_par_d_faut
 62
256
 66
   1
 39
0.000000
 70
    1
  0
VERTEX
  8
0
 10
104.76479837
 20
59.95880300
  0
VERTEX
  8
0
 10
106.12049292
 20
63.28123806
  0
VERTEX
  8
0
 10
102.39655328
 20
62.67692585
  0
VERTEX
  8
0
 10
101.45928384
 20
62.51098493
  0
VERTEX
  8
0
 10
100.62251933
 20
62.33312482
  0
VERTEX
  8
0
 10
99.88559742
 20
62.14242379
  0
VERTEX
  8
0
 10
99.24785574
 20
61.93796012
  0
VERTEX
  8
0
 10
98.70863196
 20
61.71881207
  0
VERTEX
  8
0
 10
98.47575728
 20
61.60344336
  0
VERTEX
  8
0
 10
98.26726370
 20
61.48405791
  0
VERTEX
  8
0
 10
98.08306842
 20
61.36054050
  0
VERTEX
  8
0
 10
97.92308864
 20
61.23277592
  0
VERTEX
  8
0
 10
97.78724157
 20
61.10064895
  0
VERTEX
  8
0
 10
97.67544441
 20
60.96404437
  0
VERTEX
  8
0
 10
97.58761438
 20
60.82284696
  0
VERTEX
  8
0
 10
97.52366867
 20
60.67694151
  0
VERTEX
  8
0
 10
97.48352450
 20
60.52621281
  0
VERTEX
  8
0
 10
97.46709907
 20
60.37054564
  0
VERTEX
  8
0
 10
97.47430958
 20
60.20982478
  0
VERTEX
  8
0
 10
97.50507324
 20
60.04393501
  0
VERTEX
  8
0
 10
97.55930727
 20
59.87276112
  0
VERTEX
  8
0
 10
97.63692885
 20
59.69618789
  0
VERTEX
  8
0
 10
97.73785521
 20
59.51410011
  0
VERTEX
  8
0
 10
97.86200355
 20
59.32638257
  0
VERTEX
  8
0
 10
98.17963498
 20
58.93359729
  0
VERTEX
  8
0
 10
98.58916078
 20
58.51691035
  0
VERTEX
  8
0
 10
99.08991862
 20
58.07540000
  0
VERTEX
  8
0
 10
99.63906870
 20
57.63228479
  0
VERTEX
  8
0
 10
100.14273865
 20
57.25745804
  0
VERTEX
  8
0
 10
100.60511792
 20
56.95231015
  0
VERTEX
  8
0
 10
101.03039596
 20
56.71823155
  0
VERTEX
  8
0
 10
101.42276224
 20
56.55661265
  0
VERTEX
  8
0
 10
101.60791266
 20
56.50341009
  0
VERTEX
  8
0
 10
101.78640620
 20
56.46884386
  0
VERTEX
  8
0
 10
101.95876651
 20
56.45308776
  0
VERTEX
  8
0
 10
102.12551729
 20
56.45631559
  0
VERTEX
  8
0
 10
102.28718222
 20
56.47870115
  0
VERTEX
  8
0
 10
102.44428498
 20
56.52041825
  0
VERTEX
  8
0
 10
102.59734926
 20
56.58164069
  0
VERTEX
  8
0
 10
102.74689872
 20
56.66254227
  0
VERTEX
  8
0
 10
102.89345706
 20
56.76329679
  0
VERTEX
  8
0
 10
103.03754796
 20
56.88407806
  0
VERTEX
  8
0
 10
103.17969510
 20
57.02505987
  0
VERTEX
  8
0
 10
103.32042216
 20
57.18641602
  0
VERTEX
  8
0
 10
103.59971076
 20
57.57094658
  0
VERTEX
  8
0
 10
103.87960323
 20
58.03906014
  0
VERTEX
  8
0
 10
104.16428902
 20
58.59214712
  0
VERTEX
  8
0
 10
104.45795758
 20
59.23159794
  0
VERTEX
  8
0
 10
104.76479837
 20
59.95880300
  0
SEQEND
  0
POLYLINE
  8
Calque_par_d_faut
 62
256
 66
   1
 39
0.000000
 70
    1
  0
VERTEX
  8
0
 10
124.99629569
 20
58.49605695
  0
VERTEX
  8
0
 10
125.47013508
 20
59.01077150
  0
VERTEX
  8
0
 10
125.87167185
 20
59.47379161
  0
VERTEX
  8
0
 10
126.19854495
 20
59.88949938
  0
VERTEX
  8
0
 10
126.44839333
 20
60.26227690
  0
VERTEX
  8
0
 10
126.61885594
 20
60.59650628
  0
VERTEX
  8
0
 10
126.67357976
 20
60.75053482
  0
VERTEX
  8
0
 10
126.70757174
 20
60.89656961
  0
VERTEX
  8
0
 10
126.72053675
 20
61.03515841
  0
VERTEX
  8
0
 10
126.71217966
 20
61.16684899
  0
VERTEX
  8
0
 10
126.68220534
 20
61.29218911
  0
VERTEX
  8
0
 10
126.63031867
 20
61.41172653
  0
VERTEX
  8
0
 10
126.55622450
 20
61.52600901
  0
VERTEX
  8
0
 10
126.45962770
 20
61.63558432
  0
VERTEX
  8
0
 10
126.34023315
 20
61.74100021
  0
VERTEX
  8
0
 10
126.19774572
 20
61.84280445
  0
VERTEX
  8
0
 10
125.84231166
 20
62.03776904
  0
VERTEX
  8
0
 10
125.39096448
 20
62.22486018
  0
VERTEX
  8
0
 10
124.84134313
 20
62.40845996
  0
VERTEX
  8
0
 10
124.19108656
 20
62.59295049
  0
VERTEX
  8
0
 10
123.43783371
 20
62.78271387
  0
VERTEX
  8
0
 10
122.57922355
 20
62.98213219
  0
VERTEX
  8
0
 10
121.27370174
 20
63.25956611
  0
VERTEX
  8
0
 10
120.74789529
 20
63.34859659
  0
VERTEX
  8
0
 10
120.30255896
 20
63.39806743
  0
VERTEX
  8
0
 10
119.93456812
 20
63.40315214
  0
VERTEX
  8
0
 10
119.77860081
 20
63.38754142
  0
VERTEX
  8
0
 10
119.64079813
 20
63.35902423
  0
VERTEX
  8
0
 10
119.52076951
 20
63.31699727
  0
VERTEX
  8
0
 10
119.41812436
 20
63.26085722
  0
VERTEX
  8
0
 10
119.33247211
 20
63.19000076
  0
VERTEX
  8
0
 10
119.26342217
 20
63.10382460
  0
VERTEX
  8
0
 10
119.21058396
 20
63.00172541
  0
VERTEX
  8
0
 10
119.17356691
 20
62.88309989
  0
VERTEX
  8
0
 10
119.15198044
 20
62.74734473
  0
VERTEX
  8
0
 10
119.14543397
 20
62.59385661
  0
VERTEX
  8
0
 10
119.17589870
 20
62.23126825
  0
VERTEX
  8
0
 10
119.26183646
 20
61.79050833
  0
VERTEX
  8
0
 10
119.40012262
 20
61.26675037
  0
VERTEX
  8
0
 10
119.58763255
 20
60.65516786
  0
VERTEX
  8
0
 10
120.09782514
 20
59.14922327
  0
VERTEX
  8
0
 10
120.33794231
 20
58.48015756
  0
VERTEX
  8
0
 10
120.56461438
 20
57.89782440
  0
VERTEX
  8
0
 10
120.78260922
 20
57.40158805
  0
VERTEX
  8
0
 10
120.99669471
 20
56.99081274
  0
VERTEX
  8
0
 10
121.21163872
 20
56.66486272
  0
VERTEX
  8
0
 10
121.32092263
 20
56.53349853
  0
VERTEX
  8
0
 10
121.43220912
 20
56.42310225
  0
VERTEX
  8
0
 10
121.54609417
 20
56.33359442
  0
VERTEX
  8
0
 10
121.66317377
 20
56.26489557
  0
VERTEX
  8
0
 10
121.78404390
 20
56.21692622
  0
VERTEX
  8
0
 10
121.90930054
 20
56.18960692
  0
VERTEX
  8
0
 10
122.03953969
 20
56.18285819
  0
VERTEX
  8
0
 10
122.17535731
 20
56.19660057
  0
VERTEX
  8
0
 10
122.31734941
 20
56.23075457
  0
VERTEX
  8
0
 10
122.46611195
 20
56.28524075
  0
VERTEX
  8
0
 10
122.78633233
 20
56.45489171
  0
VERTEX
  8
0
 10
123.14078631
 20
56.70491770
  0
VERTEX
  8
0
 10
123.53424177
 20
57.03468297
  0
VERTEX
  8
0
 10
123.97146657
 20
57.44355177
  0
VERTEX
  8
0
 10
124.45722859
 20
57.93088835
  0
VERTEX
  8
0
 10
124.99629569
 20
58.49605695
  0
SEQEND
  0
POLYLINE
  8
Calque_par_d_faut
 62
256
 66
   1
 39
0.000000
 70
    1
  0
VERTEX
  8
0
 10
147.70741983
 20
59.81818397
  0
VERTEX
  8
0
 10
148.09607116
 20
60.79548951
  0
VERTEX
  8
0
 10
148.36223880
 20
61.55049080
  0
VERTEX
  8
0
 10
148.44761044
 20
61.85348835
  0
VERTEX
  8
0
 10
148.50022420
 20
62.11154303
  0
VERTEX
  8
0
 10
148.51936775
 20
62.32819924
  0
VERTEX
  8
0
 10
148.50432878
 20
62.50700139
  0
VERTEX
  8
0
 10
148.45439496
 20
62.65149386
  0
VERTEX
  8
0
 10
148.36885398
 20
62.76522107
  0
VERTEX
  8
0
 10
148.24699350
 20
62.85172741
  0
VERTEX
  8
0
 10
148.08810122
 20
62.91455727
  0
VERTEX
  8
0
 10
147.89146481
 20
62.95725506
  0
VERTEX
  8
0
 10
147.65637195
 20
62.98336518
  0
VERTEX
  8
0
 10
147.06796759
 20
63.00000000
  0
VERTEX
  8
0
 10
146.62338560
 20
62.97896539
  0
VERTEX
  8
0
 10
146.10167963
 20
62.91867959
  0
VERTEX
  8
0
 10
145.52191552
 20
62.82336966
  0
VERTEX
  8
0
 10
144.90315916
 20
62.69726264
  0
VERTEX
  8
0
 10
144.26447640
 20
62.54458559
  0
VERTEX
  8
0
 10
143.62493311
 20
62.36956556
  0
VERTEX
  8
0
 10
143.00359515
 20
62.17642959
  0
VERTEX
  8
0
 10
142.41952838
 20
61.96940475
  0
VERTEX
  8
0
 10
139.70885744
 20
60.93880949
  0
VERTEX
  8
0
 10
142.04679178
 20
58.45019243
  0
VERTEX
  8
0
 10
142.56169360
 20
57.92003498
  0
VERTEX
  8
0
 10
143.03946395
 20
57.46818306
  0
VERTEX
  8
0
 10
143.48345636
 20
57.09544713
  0
VERTEX
  8
0
 10
143.89702435
 20
56.80263761
  0
VERTEX
  8
0
 10
144.28352146
 20
56.59056495
  0
VERTEX
  8
0
 10
144.46766640
 20
56.51505820
  0
VERTEX
  8
0
 10
144.64630120
 20
56.46003958
  0
VERTEX
  8
0
 10
144.81984504
 20
56.42561040
  0
VERTEX
  8
0
 10
144.98871711
 20
56.41187195
  0
VERTEX
  8
0
 10
145.15333661
 20
56.41892555
  0
VERTEX
  8
0
 10
145.31412272
 20
56.44687250
  0
VERTEX
  8
0
 10
145.47149464
 20
56.49581410
  0
VERTEX
  8
0
 10
145.62587155
 20
56.56585166
  0
VERTEX
  8
0
 10
145.77767265
 20
56.65708649
  0
VERTEX
  8
0
 10
145.92731713
 20
56.76961988
  0
VERTEX
  8
0
 10
146.07522417
 20
56.90355315
  0
VERTEX
  8
0
 10
146.22181298
 20
57.05898760
  0
VERTEX
  8
0
 10
146.51271264
 20
57.43476524
  0
VERTEX
  8
0
 10
146.80336962
 20
57.89776327
  0
VERTEX
  8
0
 10
147.09713746
 20
58.44879210
  0
VERTEX
  8
0
 10
147.39736969
 20
59.08866219
  0
VERTEX
  8
0
 10
147.70741983
 20
59.81818397
  0
SEQEND
  0
POLYLINE
  8
Calque_par_d_faut
 62
256
 66
   1
 39
0.000000
 70
    1
  0
VERTEX
  8
0
 10
167.99629569
 20
58.49605695
  0
VERTEX
  8
0
 10
168.47013508
 20
59.01077150
  0
VERTEX
  8
0
 10
168.87167185
 20
59.47379161
  0
VERTEX
  8
0
 10
169.19854495
 20
59.88949938
  0
VERTEX
  8
0
 10
169.44839333
 20
60.26227690
  0
VERTEX
  8
0
 10
169.61885594
 20
60.59650628
  0
VERTEX
  8
0
 10
169.67357976
 20
60.75053482
  0
VERTEX
  8
0
 10
169.70757174
 20
60.89656961
  0
VERTEX
  8
0
 10
169.72053675
 20
61.03515841
  0
VERTEX
  8
0
 10
169.71217966
 20
61.16684899
  0
VERTEX
  8
0
 10
169.68220534
 20
61.29218911
  0
VERTEX
  8
0
 10
169.63031867
 20
61.41172653
  0
VERTEX
  8
0
 10
169.55622450
 20
61.52600901
  0
VERTEX
  8
0
 10
169.45962770
 20
61.63558432
  0
VERTEX
  8
0
 10
169.34023315
 20
61.74100021
  0
VERTEX
  8
0
 10
169.19774572
 20
61.84280445
  0
VERTEX
  8
0
 10
168.84231166
 20
62.03776904
  0
VERTEX
  8
0
 10
168.39096448
 20
62.22486018
  0
VERTEX
  8
0
 10
167.84134313
 20
62.40845996
  0
VERTEX
  8
0
 10
167.19108656
 20
62.59295049
  0
VERTEX
  8
0
 10
166.43783371
 20
62.78271387
  0
VERTEX
  8
0
 10
165.57922355
 20
62.98213219
  0
VERTEX
  8
0
 10
164.27370174
 20
63.25956611
  0
VERTEX
  8
0
 10
163.74789529
 20
63.34859659
  0
VERTEX
  8
0
 10
163.30255896
 20
63.39806743
  0
VERTEX
  8
0
 10
162.93456812
 20
63.40315214
  0
VERTEX
  8
0
 10
162.77860081
 20
63.38754142
  0
VERTEX
  8
0
 10
162.64079813
 20
63.35902423
  0
VERTEX
  8
0
 10
162.52076951
 20
63.31699727
  0
VERTEX
  8
0
 10
162.41812436
 20
63.26085722
  0
VERTEX
  8
0
 10
162.33247211
 20
63.19000076
  0
VERTEX
  8
0
 10
162.26342217
 20
63.10382460
  0
VERTEX
  8
0
 10
162.21058396
 20
63.00172541
  0
VERTEX
  8
0
 10
162.17356691
 20
62.88309989
  0
VERTEX
  8
0
 10
162.15198044
 20
62.74734473
  0
VERTEX
  8
0
 10
162.14543397
 20
62.59385661
  0
VERTEX
  8
0
 10
162.17589870
 20
62.23126825
  0
VERTEX
  8
0
 10
162.26183646
 20
61.79050833
  0
VERTEX
  8
0
 10
162.40012262
 20
61.26675037
  0
VERTEX
  8
0
 10
162.58763255
 20
60.65516786
  0
VERTEX
  8
0
 10
163.09782514
 20
59.14922327
  0
VERTEX
  8
0
 10
163.33794231
 20
58.48015756
  0
VERTEX
  8
0
 10
163.56461438
 20
57.89782440
  0
VERTEX
  8
0
 10
163.78260922
 20
57.40158805
  0
VERTEX
  8
0
 10
163.99669471
 20
56.99081274
  0
VERTEX
  8
0
 10
164.21163872
 20
56.66486272
  0
VERTEX
  8
0
 10
164.32092263
 20
56.53349853
  0
VERTEX
  8
0
 10
164.43220912
 20
56.42310225
  0
VERTEX
  8
0
 10
164.54609417
 20
56.33359442
  0
VERTEX
  8
0
 10
164.66317377
 20
56.26489557
  0
VERTEX
  8
0
 10
164.78404390
 20
56.21692622
  0
VERTEX
  8
0
 10
164.90930054
 20
56.18960692
  0
VERTEX
  8
0
 10
165.03953969
 20
56.18285819
  0
VERTEX
  8
0
 10
165.17535731
 20
56.19660057
  0
VERTEX
  8
0
 10
165.31734941
 20
56.23075457
  0
VERTEX
  8
0
 10
165.46611195
 20
56.28524075
  0
VERTEX
  8
0
 10
165.78633233
 20
56.45489171
  0
VERTEX
  8
0
 10
166.14078631
 20
56.70491770
  0
VERTEX
  8
0
 10
166.53424177
 20
57.03468297
  0
VERTEX
  8
0
 10
166.97146657
 20
57.44355177
  0
VERTEX
  8
0
 10
167.45722859
 20
57.93088835
  0
VERTEX
  8
0
 10
167.99629569
 20
58.49605695
  0
SEQEND
  0
POLYLINE
  8
Calque_par_d_faut
 62
256
 66
   1
 39
0.000000
 70
    1
  0
VERTEX
  8
0
 10
189.75516647
 20
57.25000000
  0
VERTEX
  8
0
 10
189.97013505
 20
57.54702148
  0
VERTEX
  8
0
 10
190.19789710
 20
57.91289063
  0
VERTEX
  8
0
 10
190.43152167
 20
58.33325195
  0
VERTEX
  8
0
 10
190.66407780
 20
58.79375000
  0
VERTEX
  8
0
 10
190.88863453
 20
59.28002930
  0
VERTEX
  8
0
 10
191.09826092
 20
59.77773437
  0
VERTEX
  8
0
 10
191.28602602
 20
60.27250977
  0
VERTEX
  8
0
 10
191.44499886
 20
60.75000000
  0
VERTEX
  8
0
 10
191.61445996
 20
61.36745392
  0
VERTEX
  8
0
 10
191.66868534
 20
61.63119399
  0
VERTEX
  8
0
 10
191.70150118
 20
61.86678178
  0
VERTEX
  8
0
 10
191.71210294
 20
62.07559653
  0
VERTEX
  8
0
 10
191.69968604
 20
62.25901748
  0
VERTEX
  8
0
 10
191.66344592
 20
62.41842386
  0
VERTEX
  8
0
 10
191.60257802
 20
62.55519492
  0
VERTEX
  8
0
 10
191.51627778
 20
62.67070988
  0
VERTEX
  8
0
 10
191.40374064
 20
62.76634799
  0
VERTEX
  8
0
 10
191.26416203
 20
62.84348848
  0
VERTEX
  8
0
 10
191.09673740
 20
62.90351059
  0
VERTEX
  8
0
 10
190.90066217
 20
62.94779357
  0
VERTEX
  8
0
 10
190.67513179
 20
62.97771663
  0
VERTEX
  8
0
 10
190.13248733
 20
63.00000000
  0
VERTEX
  8
0
 10
189.67494469
 20
62.97896539
  0
VERTEX
  8
0
 10
189.14114756
 20
62.91867959
  0
VERTEX
  8
0
 10
188.55042645
 20
62.82336966
  0
VERTEX
  8
0
 10
187.92211184
 20
62.69726264
  0
VERTEX
  8
0
 10
187.27553423
 20
62.54458559
  0
VERTEX
  8
0
 10
186.63002412
 20
62.36956556
  0
VERTEX
  8
0
 10
186.00491201
 20
62.17642959
  0
VERTEX
  8
0
 10
185.41952838
 20
61.96940475
  0
VERTEX
  8
0
 10
182.70885744
 20
60.93880949
  0
VERTEX
  8
0
 10
185.02874275
 20
58.46940475
  0
VERTEX
  8
0
 10
185.93054158
 20
57.53949814
  0
VERTEX
  8
0
 10
186.32260790
 20
57.16442843
  0
VERTEX
  8
0
 10
186.68068539
 20
56.84793095
  0
VERTEX
  8
0
 10
187.00869902
 20
56.58899309
  0
VERTEX
  8
0
 10
187.31057371
 20
56.38660220
  0
VERTEX
  8
0
 10
187.59023441
 20
56.23974567
  0
VERTEX
  8
0
 10
187.85160606
 20
56.14741088
  0
VERTEX
  8
0
 10
188.09861360
 20
56.10858519
  0
VERTEX
  8
0
 10
188.33518198
 20
56.12225599
  0
VERTEX
  8
0
 10
188.56523613
 20
56.18741065
  0
VERTEX
  8
0
 10
188.79270100
 20
56.30303655
  0
VERTEX
  8
0
 10
189.02150152
 20
56.46812105
  0
VERTEX
  8
0
 10
189.25556265
 20
56.68165155
  0
VERTEX
  8
0
 10
189.49880932
 20
56.94261541
  0
VERTEX
  8
0
 10
189.75516647
 20
57.25000000
  0
SEQEND
  0
POLYLINE
  8
Calque_par_d_faut
 62
256
 66
   1
 39
0.000000
 70
    1
  0
VERTEX
  8
0
 10
54.50333156
 20
67.87716187
  0
VERTEX
  8
0
 10
57.08446157
 20
68.82268109
  0
VERTEX
  8
0
 10
58.98489529
 20
69.54431935
  0
VERTEX
  8
0
 10
59.69578099
 20
69.83416610
  0
VERTEX
  8
0
 10
60.25560854
 20
70.08362219
  0
VERTEX
  8
0
 10
60.67074993
 20
70.29788080
  0
VERTEX
  8
0
 10
60.94757712
 20
70.48213515
  0
VERTEX
  8
0
 10
61.03611414
 20
70.56463359
  0
VERTEX
  8
0
 10
61.09246210
 20
70.64157840
  0
VERTEX
  8
0
 10
61.11741750
 20
70.71361875
  0
VERTEX
  8
0
 10
61.11177684
 20
70.78140377
  0
VERTEX
  8
0
 10
61.07633661
 20
70.84558262
  0
VERTEX
  8
0
 10
61.01189332
 20
70.90680444
  0
VERTEX
  8
0
 10
60.79918351
 20
71.02297361
  0
VERTEX
  8
0
 10
60.48001938
 20
71.13510447
  0
VERTEX
  8
0
 10
60.06077292
 20
71.24839021
  0
VERTEX
  8
0
 10
58.94752089
 20
71.49919911
  0
VERTEX
  8
0
 10
58.17834216
 20
71.68762748
  0
VERTEX
  8
0
 10
57.31260331
 20
71.93841683
  0
VERTEX
  8
0
 10
56.37984682
 20
72.24071514
  0
VERTEX
  8
0
 10
55.40961514
 20
72.58367042
  0
VERTEX
  8
0
 10
54.43145075
 20
72.95643066
  0
VERTEX
  8
0
 10
53.47489611
 20
73.34814386
  0
VERTEX
  8
0
 10
52.56949370
 20
73.74795801
  0
VERTEX
  8
0
 10
51.74478597
 20
74.14502111
  0
VERTEX
  8
0
 10
50.54779558
 20
74.73740175
  0
VERTEX
  8
0
 10
50.04011207
 20
74.97127926
  0
VERTEX
  8
0
 10
49.58141835
 20
75.16397176
  0
VERTEX
  8
0
 10
49.16305094
 20
75.31574689
  0
VERTEX
  8
0
 10
48.77634633
 20
75.42687228
  0
VERTEX
  8
0
 10
48.41264104
 20
75.49761558
  0
VERTEX
  8
0
 10
48.06327156
 20
75.52824444
  0
VERTEX
  8
0
 10
47.71957441
 20
75.51902648
  0
VERTEX
  8
0
 10
47.37288610
 20
75.47022936
  0
VERTEX
  8
0
 10
47.01454312
 20
75.38212071
  0
VERTEX
  8
0
 10
46.63588198
 20
75.25496818
  0
VERTEX
  8
0
 10
46.22823919
 20
75.08903940
  0
VERTEX
  8
0
 10
45.78295125
 20
74.88460202
  0
VERTEX
  8
0
 10
44.74478597
 20
74.36127203
  0
VERTEX
  8
0
 10
44.00261390
 20
73.99968458
  0
VERTEX
  8
0
 10
43.13555041
 20
73.61756960
  0
VERTEX
  8
0
 10
42.17506326
 20
73.22649267
  0
VERTEX
  8
0
 10
41.15262023
 20
72.83801936
  0
VERTEX
  8
0
 10
40.09968908
 20
72.46371526
  0
VERTEX
  8
0
 10
39.04773759
 20
72.11514594
  0
VERTEX
  8
0
 10
38.02823350
 20
71.80387698
  0
VERTEX
  8
0
 10
37.07264461
 20
71.54147395
  0
VERTEX
  8
0
 10
32.64528921
 20
70.40637158
  0
VERTEX
  8
0
 10
39.57264461
 20
67.78083263
  0
VERTEX
  8
0
 10
44.48148374
 20
65.90373699
  0
VERTEX
  8
0
 10
45.98752879
 20
65.31496709
  0
VERTEX
  8
0
 10
46.55581067
 20
65.07764684
  0
VERTEX
  8
0
 10
46.72809289
 20
65.12077255
  0
VERTEX
  8
0
 10
47.20018616
 20
65.27452408
  0
VERTEX
  8
0
 10
48.91341683
 20
65.86797506
  0
VERTEX
  8
0
 10
51.43472464
 20
66.76614068
  0
VERTEX
  8
0
 10
54.50333156
 20
67.87716187
  0
SEQEND
  0
POLYLINE
  8
Calque_par_d_faut
 62
256
 66
   1
 39
0.000000
 70
    1
  0
VERTEX
  8
0
 10
97.55240798
 20
67.89505416
  0
VERTEX
  8
0
 10
105.49319464
 20
70.79010833
  0
VERTEX
  8
0
 10
100.99659732
 20
71.99987936
  0
VERTEX
  8
0
 10
100.03719784
 20
72.27189671
  0
VERTEX
  8
0
 10
99.03366070
 20
72.58172511
  0
VERTEX
  8
0
 10
98.01570829
 20
72.91857486
  0
VERTEX
  8
0
 10
97.01306296
 20
73.27165629
  0
VERTEX
  8
0
 10
96.05544710
 20
73.63017974
  0
VERTEX
  8
0
 10
95.17258307
 20
73.98335551
  0
VERTEX
  8
0
 10
94.39419325
 20
74.32039394
  0
VERTEX
  8
0
 10
93.75000000
 20
74.63050534
  0
VERTEX
  8
0
 10
92.91331824
 20
75.03994034
  0
VERTEX
  8
0
 10
92.54118479
 20
75.19886020
  0
VERTEX
  8
0
 10
92.19228294
 20
75.32691188
  0
VERTEX
  8
0
 10
91.86093267
 20
75.42384306
  0
VERTEX
  8
0
 10
91.54145397
 20
75.48940140
  0
VERTEX
  8
0
 10
91.22816682
 20
75.52333459
  0
VERTEX
  8
0
 10
90.91539122
 20
75.52539031
  0
VERTEX
  8
0
 10
90.59744714
 20
75.49531623
  0
VERTEX
  8
0
 10
90.26865456
 20
75.43286004
  0
VERTEX
  8
0
 10
89.92333349
 20
75.33776940
  0
VERTEX
  8
0
 10
89.55580389
 20
75.20979200
  0
VERTEX
  8
0
 10
89.16038576
 20
75.04867551
  0
VERTEX
  8
0
 10
88.73139907
 20
74.85416761
  0
VERTEX
  8
0
 10
87.75000000
 20
74.36396831
  0
VERTEX
  8
0
 10
87.00678054
 20
74.00183923
  0
VERTEX
  8
0
 10
86.13873993
 20
73.61921897
  0
VERTEX
  8
0
 10
85.17736731
 20
73.22768414
  0
VERTEX
  8
0
 10
84.15415185
 20
72.83881140
  0
VERTEX
  8
0
 10
83.10058270
 20
72.46417737
  0
VERTEX
  8
0
 10
82.04814901
 20
72.11535869
  0
VERTEX
  8
0
 10
81.02833992
 20
71.80393201
  0
VERTEX
  8
0
 10
80.07264461
 20
71.54147395
  0
VERTEX
  8
0
 10
75.64528921
 20
70.40637158
  0
VERTEX
  8
0
 10
82.57264461
 20
67.78083263
  0
VERTEX
  8
0
 10
87.48148374
 20
65.90373699
  0
VERTEX
  8
0
 10
88.98752879
 20
65.31496709
  0
VERTEX
  8
0
 10
89.55581067
 20
65.07764684
  0
VERTEX
  8
0
 10
89.72909455
 20
65.12113774
  0
VERTEX
  8
0
 10
90.20405860
 20
65.27593590
  0
VERTEX
  8
0
 10
91.92783303
 20
65.87323092
  0
VERTEX
  8
0
 10
94.46474561
 20
66.77708574
  0
VERTEX
  8
0
 10
97.55240798
 20
67.89505416
  0
SEQEND
  0
POLYLINE
  8
Calque_par_d_faut
 62
256
 66
   1
 39
0.000000
 70
    1
  0
VERTEX
  8
0
 10
141.90454879
 20
68.26839732
  0
VERTEX
  8
0
 10
143.53865531
 20
68.82373474
  0
VERTEX
  8
0
 10
144.83971702
 20
69.30339038
  0
VERTEX
  8
0
 10
145.36955475
 20
69.51744082
  0
VERTEX
  8
0
 10
145.82116968
 20
69.71569477
  0
VERTEX
  8
0
 10
146.19624129
 20
69.89919353
  0
VERTEX
  8
0
 10
146.49644905
 20
70.06897843
  0
VERTEX
  8
0
 10
146.72347242
 20
70.22609078
  0
VERTEX
  8
0
 10
146.87899088
 20
70.37157189
  0
VERTEX
  8
0
 10
146.96468390
 20
70.50646308
  0
VERTEX
  8
0
 10
146.98187070
 20
70.57026287
  0
VERTEX
  8
0
 10
146.98223095
 20
70.63180567
  0
VERTEX
  8
0
 10
146.96597456
 20
70.69122165
  0
VERTEX
  8
0
 10
146.93331149
 20
70.74864097
  0
VERTEX
  8
0
 10
146.81960500
 20
70.85801030
  0
VERTEX
  8
0
 10
146.64279094
 20
70.96095497
  0
VERTEX
  8
0
 10
146.40454879
 20
71.05851631
  0
VERTEX
  8
0
 10
143.58543371
 20
72.10817677
  0
VERTEX
  8
0
 10
139.48203404
 20
73.68302787
  0
VERTEX
  8
0
 10
137.93909328
 20
74.26613037
  0
VERTEX
  8
0
 10
137.27754889
 20
74.49843430
  0
VERTEX
  8
0
 10
136.67729870
 20
74.69193874
  0
VERTEX
  8
0
 10
136.12935037
 20
74.84716774
  0
VERTEX
  8
0
 10
135.62471158
 20
74.96464536
  0
VERTEX
  8
0
 10
135.15438999
 20
75.04489565
  0
VERTEX
  8
0
 10
134.70939326
 20
75.08844265
  0
VERTEX
  8
0
 10
134.28072905
 20
75.09581043
  0
VERTEX
  8
0
 10
133.85940503
 20
75.06752302
  0
VERTEX
  8
0
 10
133.43642886
 20
75.00410449
  0
VERTEX
  8
0
 10
133.00280821
 20
74.90607888
  0
VERTEX
  8
0
 10
132.54955074
 20
74.77397024
  0
VERTEX
  8
0
 10
132.06766411
 20
74.60830262
  0
VERTEX
  8
0
 10
130.98203404
 20
74.17838666
  0
VERTEX
  8
0
 10
130.19220383
 20
73.86275013
  0
VERTEX
  8
0
 10
129.28067950
 20
73.52255010
  0
VERTEX
  8
0
 10
128.27990188
 20
73.16850294
  0
VERTEX
  8
0
 10
127.22231185
 20
72.81132503
  0
VERTEX
  8
0
 10
126.14035025
 20
72.46173274
  0
VERTEX
  8
0
 10
125.06645794
 20
72.13044244
  0
VERTEX
  8
0
 10
124.03307577
 20
71.82817049
  0
VERTEX
  8
0
 10
123.07264461
 20
71.56563328
  0
VERTEX
  8
0
 10
118.64528921
 20
70.40637158
  0
VERTEX
  8
0
 10
125.57264461
 20
67.78102102
  0
VERTEX
  8
0
 10
126.99481942
 20
67.26383089
  0
VERTEX
  8
0
 10
128.38076619
 20
66.80103146
  0
VERTEX
  8
0
 10
129.69591961
 20
66.40134354
  0
VERTEX
  8
0
 10
130.90571435
 20
66.07348794
  0
VERTEX
  8
0
 10
131.97558509
 20
65.82618548
  0
VERTEX
  8
0
 10
132.87096649
 20
65.66815695
  0
VERTEX
  8
0
 10
133.24242203
 20
65.62534566
  0
VERTEX
  8
0
 10
133.55729323
 20
65.60812316
  0
VERTEX
  8
0
 10
133.81125945
 20
65.61757955
  0
VERTEX
  8
0
 10
134.00000000
 20
65.65480493
  0
VERTEX
  8
0
 10
141.90454879
 20
68.26839732
  0
SEQEND
  0
POLYLINE
  8
Calque_par_d_faut
 62
256
 66
   1
 39
0.000000
 70
    1
  0
VERTEX
  8
0
 10
183.49487538
 20
67.87407891
  0
VERTEX
  8
0
 10
191.37812942
 20
70.74815782
  0
VERTEX
  8
0
 10
185.93906471
 20
72.36504780
  0
VERTEX
  8
0
 10
184.81820100
 20
72.70824770
  0
VERTEX
  8
0
 10
183.71788394
 20
73.06399390
  0
VERTEX
  8
0
 10
182.66610329
 20
73.42195688
  0
VERTEX
  8
0
 10
181.69084885
 20
73.77180707
  0
VERTEX
  8
0
 10
180.82011040
 20
74.10321495
  0
VERTEX
  8
0
 10
180.08187772
 20
74.40585095
  0
VERTEX
  8
0
 10
179.50414060
 20
74.66938555
  0
VERTEX
  8
0
 10
179.11488882
 20
74.88348919
  0
VERTEX
  8
0
 10
178.93882112
 20
74.98158690
  0
VERTEX
  8
0
 10
178.74141833
 20
75.06091564
  0
VERTEX
  8
0
 10
178.52335421
 20
75.12156097
  0
VERTEX
  8
0
 10
178.28530248
 20
75.16360840
  0
VERTEX
  8
0
 10
178.02793688
 20
75.18714350
  0
VERTEX
  8
0
 10
177.75193115
 20
75.19225178
  0
VERTEX
  8
0
 10
177.45795903
 20
75.17901880
  0
VERTEX
  8
0
 10
177.14669424
 20
75.14753008
  0
VERTEX
  8
0
 10
176.81881054
 20
75.09787118
  0
VERTEX
  8
0
 10
176.47498166
 20
75.03012763
  0
VERTEX
  8
0
 10
175.74218330
 20
74.84072873
  0
VERTEX
  8
0
 10
174.95368905
 20
74.58001769
  0
VERTEX
  8
0
 10
174.11488882
 20
74.24867883
  0
VERTEX
  8
0
 10
173.29837089
 20
73.91652380
  0
VERTEX
  8
0
 10
172.36194926
 20
73.56116161
  0
VERTEX
  8
0
 10
171.33860969
 20
73.19362271
  0
VERTEX
  8
0
 10
170.26133794
 20
72.82493759
  0
VERTEX
  8
0
 10
169.16311980
 20
72.46613672
  0
VERTEX
  8
0
 10
168.07694101
 20
72.12825056
  0
VERTEX
  8
0
 10
167.03578736
 20
71.82230961
  0
VERTEX
  8
0
 10
166.07264461
 20
71.55934432
  0
VERTEX
  8
0
 10
161.64528921
 20
70.40637158
  0
VERTEX
  8
0
 10
168.57264461
 20
67.78083263
  0
VERTEX
  8
0
 10
173.48148374
 20
65.90373699
  0
VERTEX
  8
0
 10
174.98752879
 20
65.31496709
  0
VERTEX
  8
0
 10
175.55581067
 20
65.07764684
  0
VERTEX
  8
0
 10
175.72792030
 20
65.12070963
  0
VERTEX
  8
0
 10
176.19951892
 20
65.27428082
  0
VERTEX
  8
0
 10
177.91093282
 20
65.86706944
  0
VERTEX
  8
0
 10
180.42955183
 20
66.76425478
  0
VERTEX
  8
0
 10
183.49487538
 20
67.87407891
  0
SEQEND
  0
POLYLINE
  8
Calque_par_d_faut
 62
256
 66
   1
 39
0.000000
 70
    1
  0
VERTEX
  8
0
 10
40.46363636
 20
80.08439908
  0
VERTEX
  8
0
 10
40.56426275
 20
80.20522269
  0
VERTEX
  8
0
 10
40.63621305
 20
80.34225512
  0
VERTEX
  8
0
 10
40.67971189
 20
80.49502066
  0
VERTEX
  8
0
 10
40.69498387
 20
80.66304358
  0
VERTEX
  8
0
 10
40.68225359
 20
80.84584819
  0
VERTEX
  8
0
 10
40.64174567
 20
81.04295876
  0
VERTEX
  8
0
 10
40.57368471
 20
81.25389959
  0
VERTEX
  8
0
 10
40.47829533
 20
81.47819496
  0
VERTEX
  8
0
 10
40.35580212
 20
81.71536915
  0
VERTEX
  8
0
 10
40.20642969
 20
81.96494646
  0
VERTEX
  8
0
 10
39.82794563
 20
82.49940757
  0
VERTEX
  8
0
 10
39.34464001
 20
83.07777257
  0
VERTEX
  8
0
 10
38.75830969
 20
83.69623577
  0
VERTEX
  8
0
 10
36.08934665
 20
86.36519881
  0
VERTEX
  8
0
 10
35.04467332
 20
83.61749974
  0
VERTEX
  8
0
 10
34.73416475
 20
82.77372609
  0
VERTEX
  8
0
 10
34.47577357
 20
82.01006072
  0
VERTEX
  8
0
 10
34.27024868
 20
81.32423979
  0
VERTEX
  8
0
 10
34.11833894
 20
80.71399943
  0
VERTEX
  8
0
 10
34.02079327
 20
80.17707578
  0
VERTEX
  8
0
 10
33.97836053
 20
79.71120498
  0
VERTEX
  8
0
 10
33.99178962
 20
79.31412318
  0
VERTEX
  8
0
 10
34.01968637
 20
79.14067069
  0
VERTEX
  8
0
 10
34.06182942
 20
78.98356651
  0
VERTEX
  8
0
 10
34.11831237
 20
78.84252764
  0
VERTEX
  8
0
 10
34.18922883
 20
78.71727111
  0
VERTEX
  8
0
 10
34.27467241
 20
78.60751393
  0
VERTEX
  8
0
 10
34.37473672
 20
78.51297312
  0
VERTEX
  8
0
 10
34.48951538
 20
78.43336570
  0
VERTEX
  8
0
 10
34.61910199
 20
78.36840868
  0
VERTEX
  8
0
 10
34.76359017
 20
78.31781909
  0
VERTEX
  8
0
 10
34.92307352
 20
78.28131394
  0
VERTEX
  8
0
 10
35.28740020
 20
78.24942503
  0
VERTEX
  8
0
 10
35.71283091
 20
78.27047809
  0
VERTEX
  8
0
 10
36.20011455
 20
78.34220927
  0
VERTEX
  8
0
 10
36.75000000
 20
78.46235469
  0
VERTEX
  8
0
 10
37.32208496
 20
78.61802997
  0
VERTEX
  8
0
 10
37.89381037
 20
78.80046258
  0
VERTEX
  8
0
 10
38.44994451
 20
79.00299962
  0
VERTEX
  8
0
 10
38.97525568
 20
79.21898817
  0
VERTEX
  8
0
 10
39.45451216
 20
79.44177530
  0
VERTEX
  8
0
 10
39.87248224
 20
79.66470811
  0
VERTEX
  8
0
 10
40.21393422
 20
79.88113368
  0
VERTEX
  8
0
 10
40.46363636
 20
80.08439908
  0
SEQEND
  0
POLYLINE
  8
Calque_par_d_faut
 62
256
 66
   1
 39
0.000000
 70
    1
  0
VERTEX
  8
0
 10
61.98634532
 20
79.75000000
  0
VERTEX
  8
0
 10
61.97151823
 20
80.14660934
  0
VERTEX
  8
0
 10
61.93432579
 20
80.60373894
  0
VERTEX
  8
0
 10
61.80278245
 20
81.63461849
  0
VERTEX
  8
0
 10
61.61159049
 20
82.71275771
  0
VERTEX
  8
0
 10
61.49983727
 20
83.22896192
  0
VERTEX
  8
0
 10
61.38062510
 20
83.70827570
  0
VERTEX
  8
0
 10
60.78855957
 20
85.91655140
  0
VERTEX
  8
0
 10
57.39430928
 20
83.20827570
  0
VERTEX
  8
0
 10
56.11727643
 20
82.15980620
  0
VERTEX
  8
0
 10
55.60091346
 20
81.70758674
  0
VERTEX
  8
0
 10
55.16447833
 20
81.29923368
  0
VERTEX
  8
0
 10
54.80684018
 20
80.93163919
  0
VERTEX
  8
0
 10
54.52686819
 20
80.60169545
  0
VERTEX
  8
0
 10
54.32343149
 20
80.30629462
  0
VERTEX
  8
0
 10
54.19539925
 20
80.04232886
  0
VERTEX
  8
0
 10
54.15930641
 20
79.92116294
  0
VERTEX
  8
0
 10
54.14164061
 20
79.80669035
  0
VERTEX
  8
0
 10
54.14226051
 20
79.69852261
  0
VERTEX
  8
0
 10
54.16102473
 20
79.59627124
  0
VERTEX
  8
0
 10
54.19779194
 20
79.49954777
  0
VERTEX
  8
0
 10
54.25242077
 20
79.40796371
  0
VERTEX
  8
0
 10
54.32476986
 20
79.32113059
  0
VERTEX
  8
0
 10
54.41469787
 20
79.23865992
  0
VERTEX
  8
0
 10
54.64672519
 20
79.08525204
  0
VERTEX
  8
0
 10
54.94737188
 20
78.94463223
  0
VERTEX
  8
0
 10
55.31550710
 20
78.81369267
  0
VERTEX
  8
0
 10
55.75000000
 20
78.68932551
  0
VERTEX
  8
0
 10
56.48665961
 20
78.50792707
  0
VERTEX
  8
0
 10
57.17966995
 20
78.35999667
  0
VERTEX
  8
0
 10
57.82847334
 20
78.24543945
  0
VERTEX
  8
0
 10
58.43251212
 20
78.16416058
  0
VERTEX
  8
0
 10
58.99122861
 20
78.11606520
  0
VERTEX
  8
0
 10
59.50406514
 20
78.10105847
  0
VERTEX
  8
0
 10
59.97046405
 20
78.11904554
  0
VERTEX
  8
0
 10
60.38986766
 20
78.16993155
  0
VERTEX
  8
0
 10
60.76171830
 20
78.25362166
  0
VERTEX
  8
0
 10
61.08545831
 20
78.37002103
  0
VERTEX
  8
0
 10
61.36053000
 20
78.51903480
  0
VERTEX
  8
0
 10
61.58637571
 20
78.70056812
  0
VERTEX
  8
0
 10
61.76243776
 20
78.91452615
  0
VERTEX
  8
0
 10
61.88815850
 20
79.16081404
  0
VERTEX
  8
0
 10
61.96298024
 20
79.43933694
  0
VERTEX
  8
0
 10
61.98634532
 20
79.75000000
  0
SEQEND
  0
POLYLINE
  8
Calque_par_d_faut
 62
256
 66
   1
 39
0.000000
 70
    1
  0
VERTEX
  8
0
 10
83.46363636
 20
80.08439908
  0
VERTEX
  8
0
 10
83.56426275
 20
80.20522269
  0
VERTEX
  8
0
 10
83.63621305
 20
80.34225512
  0
VERTEX
  8
0
 10
83.67971189
 20
80.49502066
  0
VERTEX
  8
0
 10
83.69498387
 20
80.66304358
  0
VERTEX
  8
0
 10
83.68225359
 20
80.84584819
  0
VERTEX
  8
0
 10
83.64174567
 20
81.04295876
  0
VERTEX
  8
0
 10
83.57368471
 20
81.25389959
  0
VERTEX
  8
0
 10
83.47829533
 20
81.47819496
  0
VERTEX
  8
0
 10
83.35580212
 20
81.71536915
  0
VERTEX
  8
0
 10
83.20642969
 20
81.96494646
  0
VERTEX
  8
0
 10
82.82794563
 20
82.49940757
  0
VERTEX
  8
0
 10
82.34464001
 20
83.07777257
  0
VERTEX
  8
0
 10
81.75830969
 20
83.69623577
  0
VERTEX
  8
0
 10
79.08934665
 20
86.36519881
  0
VERTEX
  8
0
 10
78.04467332
 20
83.61749974
  0
VERTEX
  8
0
 10
77.73416475
 20
82.77372609
  0
VERTEX
  8
0
 10
77.47577357
 20
82.01006072
  0
VERTEX
  8
0
 10
77.27024868
 20
81.32423979
  0
VERTEX
  8
0
 10
77.11833894
 20
80.71399943
  0
VERTEX
  8
0
 10
77.02079327
 20
80.17707578
  0
VERTEX
  8
0
 10
76.97836053
 20
79.71120498
  0
VERTEX
  8
0
 10
76.99178962
 20
79.31412318
  0
VERTEX
  8
0
 10
77.01968637
 20
79.14067069
  0
VERTEX
  8
0
 10
77.06182942
 20
78.98356651
  0
VERTEX
  8
0
 10
77.11831237
 20
78.84252764
  0
VERTEX
  8
0
 10
77.18922883
 20
78.71727111
  0
VERTEX
  8
0
 10
77.27467241
 20
78.60751393
  0
VERTEX
  8
0
 10
77.37473672
 20
78.51297312
  0
VERTEX
  8
0
 10
77.48951538
 20
78.43336570
  0
VERTEX
  8
0
 10
77.61910199
 20
78.36840868
  0
VERTEX
  8
0
 10
77.76359017
 20
78.31781909
  0
VERTEX
  8
0
 10
77.92307352
 20
78.28131394
  0
VERTEX
  8
0
 10
78.28740020
 20
78.24942503
  0
VERTEX
  8
0
 10
78.71283091
 20
78.27047809
  0
VERTEX
  8
0
 10
79.20011455
 20
78.34220927
  0
VERTEX
  8
0
 10
79.75000000
 20
78.46235469
  0
VERTEX
  8
0
 10
80.32208496
 20
78.61802997
  0
VERTEX
  8
0
 10
80.89381037
 20
78.80046258
  0
VERTEX
  8
0
 10
81.44994451
 20
79.00299962
  0
VERTEX
  8
0
 10
81.97525568
 20
79.21898817
  0
VERTEX
  8
0
 10
82.45451216
 20
79.44177530
  0
VERTEX
  8
0
 10
82.87248224
 20
79.66470811
  0
VERTEX
  8
0
 10
83.21393422
 20
79.88113368
  0
VERTEX
  8
0
 10
83.46363636
 20
80.08439908
  0
SEQEND
  0
POLYLINE
  8
Calque_par_d_faut
 62
256
 66
   1
 39
0.000000
 70
    1
  0
VERTEX
  8
0
 10
104.92971474
 20
80.25000000
  0
VERTEX
  8
0
 10
104.90159338
 20
80.73730294
  0
VERTEX
  8
0
 10
104.84829010
 20
81.26020184
  0
VERTEX
  8
0
 10
104.77290708
 20
81.80236930
  0
VERTEX
  8
0
 10
104.67854651
 20
82.34747790
  0
VERTEX
  8
0
 10
104.56831057
 20
82.87920026
  0
VERTEX
  8
0
 10
104.44530145
 20
83.38120897
  0
VERTEX
  8
0
 10
104.31262134
 20
83.83717663
  0
VERTEX
  8
0
 10
104.17337241
 20
84.23077584
  0
VERTEX
  8
0
 10
104.06116582
 20
84.49506105
  0
VERTEX
  8
0
 10
103.94747808
 20
84.71831325
  0
VERTEX
  8
0
 10
103.82855640
 20
84.89920976
  0
VERTEX
  8
0
 10
103.70064802
 20
85.03642791
  0
VERTEX
  8
0
 10
103.56000016
 20
85.12864506
  0
VERTEX
  8
0
 10
103.40286003
 20
85.17453851
  0
VERTEX
  8
0
 10
103.22547488
 20
85.17278563
  0
VERTEX
  8
0
 10
103.02409191
 20
85.12206372
  0
VERTEX
  8
0
 10
102.79495835
 20
85.02105014
  0
VERTEX
  8
0
 10
102.53432142
 20
84.86842222
  0
VERTEX
  8
0
 10
102.23842836
 20
84.66285729
  0
VERTEX
  8
0
 10
101.90352637
 20
84.40303268
  0
VERTEX
  8
0
 10
101.10168454
 20
83.71531377
  0
VERTEX
  8
0
 10
100.09877372
 20
82.79468418
  0
VERTEX
  8
0
 10
99.07801429
 20
81.82656025
  0
VERTEX
  8
0
 10
98.32116413
 20
81.06242782
  0
VERTEX
  8
0
 10
98.03770367
 20
80.74638263
  0
VERTEX
  8
0
 10
97.81541892
 20
80.46876437
  0
VERTEX
  8
0
 10
97.65270933
 20
80.22538272
  0
VERTEX
  8
0
 10
97.54797435
 20
80.01204738
  0
VERTEX
  8
0
 10
97.49961346
 20
79.82456802
  0
VERTEX
  8
0
 10
97.50602610
 20
79.65875433
  0
VERTEX
  8
0
 10
97.56561174
 20
79.51041599
  0
VERTEX
  8
0
 10
97.67676984
 20
79.37536270
  0
VERTEX
  8
0
 10
97.83789986
 20
79.24940412
  0
VERTEX
  8
0
 10
98.04740126
 20
79.12834996
  0
VERTEX
  8
0
 10
98.30367350
 20
79.00800989
  0
VERTEX
  8
0
 10
98.60511604
 20
78.88419361
  0
VERTEX
  8
0
 10
99.32645594
 20
78.61848000
  0
VERTEX
  8
0
 10
100.01149113
 20
78.40112474
  0
VERTEX
  8
0
 10
100.65868540
 20
78.23179607
  0
VERTEX
  8
0
 10
101.26650255
 20
78.11016227
  0
VERTEX
  8
0
 10
101.83340637
 20
78.03589158
  0
VERTEX
  8
0
 10
102.35786067
 20
78.00865225
  0
VERTEX
  8
0
 10
102.83832924
 20
78.02811254
  0
VERTEX
  8
0
 10
103.27327587
 20
78.09394070
  0
VERTEX
  8
0
 10
103.66116436
 20
78.20580499
  0
VERTEX
  8
0
 10
103.83698174
 20
78.27889701
  0
VERTEX
  8
0
 10
104.00045850
 20
78.36337366
  0
VERTEX
  8
0
 10
104.15140264
 20
78.45919348
  0
VERTEX
  8
0
 10
104.28962210
 20
78.56631498
  0
VERTEX
  8
0
 10
104.41492488
 20
78.68469670
  0
VERTEX
  8
0
 10
104.52711895
 20
78.81429718
  0
VERTEX
  8
0
 10
104.62601228
 20
78.95507495
  0
VERTEX
  8
0
 10
104.71141284
 20
79.10698853
  0
VERTEX
  8
0
 10
104.78312861
 20
79.26999646
  0
VERTEX
  8
0
 10
104.84096757
 20
79.44405728
  0
VERTEX
  8
0
 10
104.88473769
 20
79.62912951
  0
VERTEX
  8
0
 10
104.91424694
 20
79.82517168
  0
VERTEX
  8
0
 10
104.92930330
 20
80.03214234
  0
VERTEX
  8
0
 10
104.92971474
 20
80.25000000
  0
SEQEND
  0
POLYLINE
  8
Calque_par_d_faut
 62
256
 66
   1
 39
0.000000
 70
    1
  0
VERTEX
  8
0
 10
115.34261276
 20
85.89555514
  0
VERTEX
  8
0
 10
116.09232379
 20
88.10664474
  0
VERTEX
  8
0
 10
116.39558613
 20
89.04730457
  0
VERTEX
  8
0
 10
116.65265968
 20
89.89074079
  0
VERTEX
  8
0
 10
116.86469944
 20
90.64647819
  0
VERTEX
  8
0
 10
117.03286041
 20
91.32404154
  0
VERTEX
  8
0
 10
117.15829758
 20
91.93295564
  0
VERTEX
  8
0
 10
117.24216596
 20
92.48274527
  0
VERTEX
  8
0
 10
117.28562053
 20
92.98293521
  0
VERTEX
  8
0
 10
117.28981630
 20
93.44305023
  0
VERTEX
  8
0
 10
117.25590826
 20
93.87261513
  0
VERTEX
  8
0
 10
117.18505141
 20
94.28115469
  0
VERTEX
  8
0
 10
117.07840075
 20
94.67819368
  0
VERTEX
  8
0
 10
116.93711127
 20
95.07325690
  0
VERTEX
  8
0
 10
116.76233797
 20
95.47586913
  0
VERTEX
  8
0
 10
116.55523586
 20
95.89555514
  0
VERTEX
  8
0
 10
116.26004435
 20
96.51057888
  0
VERTEX
  8
0
 10
115.93653795
 20
97.26189037
  0
VERTEX
  8
0
 10
115.59523783
 20
98.12035029
  0
VERTEX
  8
0
 10
115.24666517
 20
99.05681932
  0
VERTEX
  8
0
 10
114.90134115
 20
100.04215813
  0
VERTEX
  8
0
 10
114.56978694
 20
101.04722740
  0
VERTEX
  8
0
 10
114.26252372
 20
102.04288780
  0
VERTEX
  8
0
 10
113.99007267
 20
103.00000000
  0
VERTEX
  8
0
 10
112.77049496
 20
107.50000000
  0
VERTEX
  8
0
 10
110.54013840
 20
100.90512728
  0
VERTEX
  8
0
 10
109.61607269
 20
98.25051867
  0
VERTEX
  8
0
 10
108.74880463
 20
95.89776934
  0
VERTEX
  8
0
 10
108.36688452
 20
94.91442307
  0
VERTEX
  8
0
 10
108.03566159
 20
94.10233903
  0
VERTEX
  8
0
 10
107.76730175
 20
93.49344967
  0
VERTEX
  8
0
 10
107.57397093
 20
93.11968748
  0
VERTEX
  8
0
 10
107.50948576
 20
92.97135410
  0
VERTEX
  8
0
 10
107.46735294
 20
92.77409768
  0
VERTEX
  8
0
 10
107.44691502
 20
92.53120209
  0
VERTEX
  8
0
 10
107.44751455
 20
92.24595122
  0
VERTEX
  8
0
 10
107.46849407
 20
91.92162894
  0
VERTEX
  8
0
 10
107.50919614
 20
91.56151912
  0
VERTEX
  8
0
 10
107.64713808
 20
90.74707243
  0
VERTEX
  8
0
 10
107.85608077
 20
89.82888216
  0
VERTEX
  8
0
 10
108.13076456
 20
88.83321934
  0
VERTEX
  8
0
 10
108.46592984
 20
87.78635502
  0
VERTEX
  8
0
 10
108.85631700
 20
86.71456020
  0
VERTEX
  8
0
 10
109.68619237
 20
84.54046461
  0
VERTEX
  8
0
 10
110.45386646
 20
82.47567069
  0
VERTEX
  8
0
 10
111.07388047
 20
80.75339945
  0
VERTEX
  8
0
 10
111.46077559
 20
79.60687193
  0
VERTEX
  8
0
 10
111.60000296
 20
79.16905606
  0
VERTEX
  8
0
 10
111.72922966
 20
78.80348789
  0
VERTEX
  8
0
 10
111.85355261
 20
78.51842460
  0
VERTEX
  8
0
 10
111.97806876
 20
78.32212336
  0
VERTEX
  8
0
 10
112.04199206
 20
78.25983886
  0
VERTEX
  8
0
 10
112.10787501
 20
78.22284131
  0
VERTEX
  8
0
 10
112.17635473
 20
78.21216285
  0
VERTEX
  8
0
 10
112.24806831
 20
78.22883563
  0
VERTEX
  8
0
 10
112.32365289
 20
78.27389180
  0
VERTEX
  8
0
 10
112.40374558
 20
78.34836349
  0
VERTEX
  8
0
 10
112.58000375
 20
78.58968204
  0
VERTEX
  8
0
 10
112.78193974
 20
78.96104845
  0
VERTEX
  8
0
 10
113.01465049
 20
79.47071988
  0
VERTEX
  8
0
 10
113.28323291
 20
80.12695350
  0
VERTEX
  8
0
 10
113.59278395
 20
80.93800647
  0
VERTEX
  8
0
 10
114.35517957
 20
83.05759912
  0
VERTEX
  8
0
 10
115.34261276
 20
85.89555514
  0
SEQEND
  0
POLYLINE
  8
Calque_par_d_faut
 62
256
 66
   1
 39
0.000000
 70
    1
  0
VERTEX
  8
0
 10
126.46363636
 20
80.08439908
  0
VERTEX
  8
0
 10
126.56426275
 20
80.20522269
  0
VERTEX
  8
0
 10
126.63621305
 20
80.34225512
  0
VERTEX
  8
0
 10
126.67971189
 20
80.49502066
  0
VERTEX
  8
0
 10
126.69498387
 20
80.66304358
  0
VERTEX
  8
0
 10
126.68225359
 20
80.84584819
  0
VERTEX
  8
0
 10
126.64174567
 20
81.04295876
  0
VERTEX
  8
0
 10
126.57368471
 20
81.25389959
  0
VERTEX
  8
0
 10
126.47829533
 20
81.47819496
  0
VERTEX
  8
0
 10
126.35580212
 20
81.71536915
  0
VERTEX
  8
0
 10
126.20642969
 20
81.96494646
  0
VERTEX
  8
0
 10
125.82794563
 20
82.49940757
  0
VERTEX
  8
0
 10
125.34464001
 20
83.07777257
  0
VERTEX
  8
0
 10
124.75830969
 20
83.69623577
  0
VERTEX
  8
0
 10
122.08934665
 20
86.36519881
  0
VERTEX
  8
0
 10
121.04467332
 20
83.61749974
  0
VERTEX
  8
0
 10
120.73416475
 20
82.77372609
  0
VERTEX
  8
0
 10
120.47577357
 20
82.01006072
  0
VERTEX
  8
0
 10
120.27024868
 20
81.32423979
  0
VERTEX
  8
0
 10
120.11833894
 20
80.71399943
  0
VERTEX
  8
0
 10
120.02079327
 20
80.17707578
  0
VERTEX
  8
0
 10
119.97836053
 20
79.71120498
  0
VERTEX
  8
0
 10
119.99178962
 20
79.31412318
  0
VERTEX
  8
0
 10
120.01968637
 20
79.14067069
  0
VERTEX
  8
0
 10
120.06182942
 20
78.98356651
  0
VERTEX
  8
0
 10
120.11831237
 20
78.84252764
  0
VERTEX
  8
0
 10
120.18922883
 20
78.71727111
  0
VERTEX
  8
0
 10
120.27467241
 20
78.60751393
  0
VERTEX
  8
0
 10
120.37473672
 20
78.51297312
  0
VERTEX
  8
0
 10
120.48951538
 20
78.43336570
  0
VERTEX
  8
0
 10
120.61910199
 20
78.36840868
  0
VERTEX
  8
0
 10
120.76359017
 20
78.31781909
  0
VERTEX
  8
0
 10
120.92307352
 20
78.28131394
  0
VERTEX
  8
0
 10
121.28740020
 20
78.24942503
  0
VERTEX
  8
0
 10
121.71283091
 20
78.27047809
  0
VERTEX
  8
0
 10
122.20011455
 20
78.34220927
  0
VERTEX
  8
0
 10
122.75000000
 20
78.46235469
  0
VERTEX
  8
0
 10
123.32208496
 20
78.61802997
  0
VERTEX
  8
0
 10
123.89381037
 20
78.80046258
  0
VERTEX
  8
0
 10
124.44994451
 20
79.00299962
  0
VERTEX
  8
0
 10
124.97525568
 20
79.21898817
  0
VERTEX
  8
0
 10
125.45451216
 20
79.44177530
  0
VERTEX
  8
0
 10
125.87248224
 20
79.66470811
  0
VERTEX
  8
0
 10
126.21393422
 20
79.88113368
  0
VERTEX
  8
0
 10
126.46363636
 20
80.08439908
  0
SEQEND
  0
POLYLINE
  8
Calque_par_d_faut
 62
256
 66
   1
 39
0.000000
 70
    1
  0
VERTEX
  8
0
 10
147.92971474
 20
80.25000000
  0
VERTEX
  8
0
 10
147.90159338
 20
80.73730294
  0
VERTEX
  8
0
 10
147.84829010
 20
81.26020184
  0
VERTEX
  8
0
 10
147.77290708
 20
81.80236930
  0
VERTEX
  8
0
 10
147.67854651
 20
82.34747790
  0
VERTEX
  8
0
 10
147.56831057
 20
82.87920026
  0
VERTEX
  8
0
 10
147.44530145
 20
83.38120897
  0
VERTEX
  8
0
 10
147.31262134
 20
83.83717663
  0
VERTEX
  8
0
 10
147.17337241
 20
84.23077584
  0
VERTEX
  8
0
 10
147.06116582
 20
84.49506105
  0
VERTEX
  8
0
 10
146.94747808
 20
84.71831325
  0
VERTEX
  8
0
 10
146.82855640
 20
84.89920976
  0
VERTEX
  8
0
 10
146.70064802
 20
85.03642791
  0
VERTEX
  8
0
 10
146.56000016
 20
85.12864506
  0
VERTEX
  8
0
 10
146.40286003
 20
85.17453851
  0
VERTEX
  8
0
 10
146.22547488
 20
85.17278563
  0
VERTEX
  8
0
 10
146.02409191
 20
85.12206372
  0
VERTEX
  8
0
 10
145.79495835
 20
85.02105014
  0
VERTEX
  8
0
 10
145.53432142
 20
84.86842222
  0
VERTEX
  8
0
 10
145.23842836
 20
84.66285729
  0
VERTEX
  8
0
 10
144.90352637
 20
84.40303268
  0
VERTEX
  8
0
 10
144.10168454
 20
83.71531377
  0
VERTEX
  8
0
 10
143.09877372
 20
82.79468418
  0
VERTEX
  8
0
 10
142.07801429
 20
81.82656025
  0
VERTEX
  8
0
 10
141.32116413
 20
81.06242782
  0
VERTEX
  8
0
 10
141.03770367
 20
80.74638263
  0
VERTEX
  8
0
 10
140.81541892
 20
80.46876437
  0
VERTEX
  8
0
 10
140.65270933
 20
80.22538272
  0
VERTEX
  8
0
 10
140.54797435
 20
80.01204738
  0
VERTEX
  8
0
 10
140.49961346
 20
79.82456802
  0
VERTEX
  8
0
 10
140.50602610
 20
79.65875433
  0
VERTEX
  8
0
 10
140.56561174
 20
79.51041599
  0
VERTEX
  8
0
 10
140.67676984
 20
79.37536270
  0
VERTEX
  8
0
 10
140.83789986
 20
79.24940412
  0
VERTEX
  8
0
 10
141.04740126
 20
79.12834996
  0
VERTEX
  8
0
 10
141.30367350
 20
79.00800989
  0
VERTEX
  8
0
 10
141.60511604
 20
78.88419361
  0
VERTEX
  8
0
 10
142.32645594
 20
78.61848000
  0
VERTEX
  8
0
 10
143.01149113
 20
78.40112474
  0
VERTEX
  8
0
 10
143.65868540
 20
78.23179607
  0
VERTEX
  8
0
 10
144.26650255
 20
78.11016227
  0
VERTEX
  8
0
 10
144.83340637
 20
78.03589158
  0
VERTEX
  8
0
 10
145.35786067
 20
78.00865225
  0
VERTEX
  8
0
 10
145.83832924
 20
78.02811254
  0
VERTEX
  8
0
 10
146.27327587
 20
78.09394070
  0
VERTEX
  8
0
 10
146.66116436
 20
78.20580499
  0
VERTEX
  8
0
 10
146.83698174
 20
78.27889701
  0
VERTEX
  8
0
 10
147.00045850
 20
78.36337366
  0
VERTEX
  8
0
 10
147.15140264
 20
78.45919348
  0
VERTEX
  8
0
 10
147.28962210
 20
78.56631498
  0
VERTEX
  8
0
 10
147.41492488
 20
78.68469670
  0
VERTEX
  8
0
 10
147.52711895
 20
78.81429718
  0
VERTEX
  8
0
 10
147.62601228
 20
78.95507495
  0
VERTEX
  8
0
 10
147.71141284
 20
79.10698853
  0
VERTEX
  8
0
 10
147.78312861
 20
79.26999646
  0
VERTEX
  8
0
 10
147.84096757
 20
79.44405728
  0
VERTEX
  8
0
 10
147.88473769
 20
79.62912951
  0
VERTEX
  8
0
 10
147.91424694
 20
79.82517168
  0
VERTEX
  8
0
 10
147.92930330
 20
80.03214234
  0
VERTEX
  8
0
 10
147.92971474
 20
80.25000000
  0
SEQEND
  0
POLYLINE
  8
Calque_par_d_faut
 62
256
 66
   1
 39
0.000000
 70
    1
  0
VERTEX
  8
0
 10
158.34261276
 20
85.89555514
  0
VERTEX
  8
0
 10
159.09232379
 20
88.10664474
  0
VERTEX
  8
0
 10
159.39558613
 20
89.04730457
  0
VERTEX
  8
0
 10
159.65265968
 20
89.89074079
  0
VERTEX
  8
0
 10
159.86469944
 20
90.64647819
  0
VERTEX
  8
0
 10
160.03286041
 20
91.32404154
  0
VERTEX
  8
0
 10
160.15829758
 20
91.93295564
  0
VERTEX
  8
0
 10
160.24216596
 20
92.48274527
  0
VERTEX
  8
0
 10
160.28562053
 20
92.98293521
  0
VERTEX
  8
0
 10
160.28981630
 20
93.44305023
  0
VERTEX
  8
0
 10
160.25590826
 20
93.87261513
  0
VERTEX
  8
0
 10
160.18505141
 20
94.28115469
  0
VERTEX
  8
0
 10
160.07840075
 20
94.67819368
  0
VERTEX
  8
0
 10
159.93711127
 20
95.07325690
  0
VERTEX
  8
0
 10
159.76233797
 20
95.47586913
  0
VERTEX
  8
0
 10
159.55523586
 20
95.89555514
  0
VERTEX
  8
0
 10
159.25936858
 20
96.51057888
  0
VERTEX
  8
0
 10
158.93392540
 20
97.26189037
  0
VERTEX
  8
0
 10
158.58956331
 20
98.12035029
  0
VERTEX
  8
0
 10
158.23693927
 20
99.05681932
  0
VERTEX
  8
0
 10
157.88671027
 20
100.04215813
  0
VERTEX
  8
0
 10
157.54953328
 20
101.04722740
  0
VERTEX
  8
0
 10
157.23606528
 20
102.04288780
  0
VERTEX
  8
0
 10
156.95696325
 20
103.00000000
  0
VERTEX
  8
0
 10
155.70427610
 20
107.50000000
  0
VERTEX
  8
0
 10
154.02535226
 20
102.00000000
  0
VERTEX
  8
0
 10
153.66328270
 20
100.84897115
  0
VERTEX
  8
0
 10
153.27754465
 20
99.68586246
  0
VERTEX
  8
0
 10
152.88000990
 20
98.54251570
  0
VERTEX
  8
0
 10
152.48255021
 20
97.45077264
  0
VERTEX
  8
0
 10
152.09703739
 20
96.44247504
  0
VERTEX
  8
0
 10
151.73534322
 20
95.54946469
  0
VERTEX
  8
0
 10
151.40933947
 20
94.80358335
  0
VERTEX
  8
0
 10
151.13089795
 20
94.23667280
  0
VERTEX
  8
0
 10
150.95349962
 20
93.88278387
  0
VERTEX
  8
0
 10
150.80683379
 20
93.53271623
  0
VERTEX
  8
0
 10
150.69207590
 20
93.17926984
  0
VERTEX
  8
0
 10
150.61040138
 20
92.81524469
  0
VERTEX
  8
0
 10
150.56298567
 20
92.43344077
  0
VERTEX
  8
0
 10
150.55100423
 20
92.02665805
  0
VERTEX
  8
0
 10
150.57563247
 20
91.58769652
  0
VERTEX
  8
0
 10
150.63804586
 20
91.10935615
  0
VERTEX
  8
0
 10
150.73941982
 20
90.58443694
  0
VERTEX
  8
0
 10
150.88092980
 20
90.00573886
  0
VERTEX
  8
0
 10
151.06375123
 20
89.36606189
  0
VERTEX
  8
0
 10
151.28905957
 20
88.65820602
  0
VERTEX
  8
0
 10
151.55803025
 20
87.87497122
  0
VERTEX
  8
0
 10
151.87183870
 20
87.00915748
  0
VERTEX
  8
0
 10
152.63867071
 20
85.00099310
  0
VERTEX
  8
0
 10
153.71274448
 20
82.31235596
  0
VERTEX
  8
0
 10
154.62404806
 20
80.14600006
  0
VERTEX
  8
0
 10
154.98857074
 20
79.32775479
  0
VERTEX
  8
0
 10
155.27629255
 20
78.72297248
  0
VERTEX
  8
0
 10
155.47517736
 20
78.35928402
  0
VERTEX
  8
0
 10
155.53754461
 20
78.27648464
  0
VERTEX
  8
0
 10
155.55880122
 20
78.26135722
  0
VERTEX
  8
0
 10
155.57318907
 20
78.26432030
  0
VERTEX
  8
0
 10
155.66783117
 20
78.46260782
  0
VERTEX
  8
0
 10
155.85705859
 20
78.93938583
  0
VERTEX
  8
0
 10
156.47383352
 20
80.60321341
  0
VERTEX
  8
0
 10
157.33264215
 20
83.00540314
  0
VERTEX
  8
0
 10
158.34261276
 20
85.89555514
  0
SEQEND
  0
POLYLINE
  8
Calque_par_d_faut
 62
256
 66
   1
 39
0.000000
 70
    1
  0
VERTEX
  8
0
 10
169.43675606
 20
80.05751878
  0
VERTEX
  8
0
 10
169.53189175
 20
80.17224931
  0
VERTEX
  8
0
 10
169.60078031
 20
80.30401162
  0
VERTEX
  8
0
 10
169.64373847
 20
80.45205070
  0
VERTEX
  8
0
 10
169.66108296
 20
80.61561156
  0
VERTEX
  8
0
 10
169.65313050
 20
80.79393921
  0
VERTEX
  8
0
 10
169.62019782
 20
80.98627864
  0
VERTEX
  8
0
 10
169.56260165
 20
81.19187487
  0
VERTEX
  8
0
 10
169.48065872
 20
81.40997289
  0
VERTEX
  8
0
 10
169.37468576
 20
81.63981770
  0
VERTEX
  8
0
 10
169.24499948
 20
81.88065431
  0
VERTEX
  8
0
 10
168.91575393
 20
82.39228296
  0
VERTEX
  8
0
 10
168.49545587
 20
82.93881884
  0
VERTEX
  8
0
 10
167.98663914
 20
83.51422199
  0
VERTEX
  8
0
 10
165.59976615
 20
86.05493185
  0
VERTEX
  8
0
 10
164.33531849
 20
83.77746593
  0
VERTEX
  8
0
 10
164.08059439
 20
83.28204066
  0
VERTEX
  8
0
 10
163.84156110
 20
82.74652860
  0
VERTEX
  8
0
 10
163.62355018
 20
82.18789328
  0
VERTEX
  8
0
 10
163.43189318
 20
81.62309826
  0
VERTEX
  8
0
 10
163.27192165
 20
81.06910707
  0
VERTEX
  8
0
 10
163.14896715
 20
80.54288326
  0
VERTEX
  8
0
 10
163.06836122
 20
80.06139038
  0
VERTEX
  8
0
 10
163.03543542
 20
79.64159197
  0
VERTEX
  8
0
 10
163.03625068
 20
79.37016063
  0
VERTEX
  8
0
 10
163.05087588
 20
79.12887372
  0
VERTEX
  8
0
 10
163.08117591
 20
78.91692112
  0
VERTEX
  8
0
 10
163.12901562
 20
78.73349271
  0
VERTEX
  8
0
 10
163.19625988
 20
78.57777836
  0
VERTEX
  8
0
 10
163.28477356
 20
78.44896796
  0
VERTEX
  8
0
 10
163.39642154
 20
78.34625139
  0
VERTEX
  8
0
 10
163.53306869
 20
78.26881853
  0
VERTEX
  8
0
 10
163.69657986
 20
78.21585926
  0
VERTEX
  8
0
 10
163.88881994
 20
78.18656345
  0
VERTEX
  8
0
 10
164.11165378
 20
78.18012099
  0
VERTEX
  8
0
 10
164.36694627
 20
78.19572176
  0
VERTEX
  8
0
 10
164.65656227
 20
78.23255563
  0
VERTEX
  8
0
 10
164.98236664
 20
78.28981249
  0
VERTEX
  8
0
 10
165.75000000
 20
78.46235469
  0
VERTEX
  8
0
 10
166.32153633
 20
78.61748134
  0
VERTEX
  8
0
 10
166.89168935
 20
78.79834156
  0
VERTEX
  8
0
 10
167.44533759
 20
78.99839269
  0
VERTEX
  8
0
 10
167.96735959
 20
79.21109208
  0
VERTEX
  8
0
 10
168.44263390
 20
79.42989704
  0
VERTEX
  8
0
 10
168.85603906
 20
79.64826493
  0
VERTEX
  8
0
 10
169.19245360
 20
79.85965306
  0
VERTEX
  8
0
 10
169.43675606
 20
80.05751878
  0
SEQEND
  0
POLYLINE
  8
Calque_par_d_faut
 62
256
 66
   1
 39
0.000000
 70
    1
  0
VERTEX
  8
0
 10
191.42900705
 20
78.88513099
  0
VERTEX
  8
0
 10
191.47896247
 20
78.99185015
  0
VERTEX
  8
0
 10
191.51619470
 20
79.12805627
  0
VERTEX
  8
0
 10
191.55364876
 20
79.48057093
  0
VERTEX
  8
0
 10
191.54368748
 20
79.92595801
  0
VERTEX
  8
0
 10
191.48862914
 20
80.44750055
  0
VERTEX
  8
0
 10
191.39079201
 20
81.02848157
  0
VERTEX
  8
0
 10
191.25249435
 20
81.65218412
  0
VERTEX
  8
0
 10
191.07605445
 20
82.30189124
  0
VERTEX
  8
0
 10
190.86379058
 20
82.96088596
  0
VERTEX
  8
0
 10
189.75153307
 20
86.15150993
  0
VERTEX
  8
0
 10
186.34489772
 20
82.84966896
  0
VERTEX
  8
0
 10
185.35028937
 20
81.86893004
  0
VERTEX
  8
0
 10
184.60615271
 20
81.08536890
  0
VERTEX
  8
0
 10
184.32420487
 20
80.75815200
  0
VERTEX
  8
0
 10
184.10030726
 20
80.46897596
  0
VERTEX
  8
0
 10
183.93293734
 20
80.21408958
  0
VERTEX
  8
0
 10
183.82057254
 20
79.98974166
  0
VERTEX
  8
0
 10
183.76169029
 20
79.79218100
  0
VERTEX
  8
0
 10
183.75476805
 20
79.61765641
  0
VERTEX
  8
0
 10
183.79828325
 20
79.46241669
  0
VERTEX
  8
0
 10
183.89071332
 20
79.32271064
  0
VERTEX
  8
0
 10
184.03053571
 20
79.19478707
  0
VERTEX
  8
0
 10
184.21622786
 20
79.07489478
  0
VERTEX
  8
0
 10
184.44626721
 20
78.95928257
  0
VERTEX
  8
0
 10
184.71913119
 20
78.84419925
  0
VERTEX
  8
0
 10
185.20954625
 20
78.66656831
  0
VERTEX
  8
0
 10
185.71662852
 20
78.51312204
  0
VERTEX
  8
0
 10
186.23477652
 20
78.38382630
  0
VERTEX
  8
0
 10
186.75838877
 20
78.27864690
  0
VERTEX
  8
0
 10
187.28186378
 20
78.19754967
  0
VERTEX
  8
0
 10
187.79960006
 20
78.14050045
  0
VERTEX
  8
0
 10
188.30599615
 20
78.10746506
  0
VERTEX
  8
0
 10
188.79545055
 20
78.09840934
  0
VERTEX
  8
0
 10
189.26236178
 20
78.11329911
  0
VERTEX
  8
0
 10
189.70112835
 20
78.15210020
  0
VERTEX
  8
0
 10
190.10614879
 20
78.21477844
  0
VERTEX
  8
0
 10
190.47182161
 20
78.30129967
  0
VERTEX
  8
0
 10
190.79254533
 20
78.41162971
  0
VERTEX
  8
0
 10
191.06271847
 20
78.54573439
  0
VERTEX
  8
0
 10
191.27673953
 20
78.70357954
  0
VERTEX
  8
0
 10
191.36094258
 20
78.79139411
  0
VERTEX
  8
0
 10
191.42900705
 20
78.88513099
  0
SEQEND
  0
POLYLINE
  8
Calque_par_d_faut
 62
256
 66
   1
 39
0.000000
 70
    1
  0
VERTEX
  8
0
 10
70.64724893
 20
81.75000000
  0
VERTEX
  8
0
 10
70.81957345
 20
82.38006359
  0
VERTEX
  8
0
 10
71.04732257
 20
83.11795743
  0
VERTEX
  8
0
 10
71.32072181
 20
83.93679858
  0
VERTEX
  8
0
 10
71.62999667
 20
84.80970413
  0
VERTEX
  8
0
 10
71.96537267
 20
85.70979116
  0
VERTEX
  8
0
 10
72.31707531
 20
86.61017675
  0
VERTEX
  8
0
 10
72.67533011
 20
87.48397798
  0
VERTEX
  8
0
 10
73.03036257
 20
88.30431193
  0
VERTEX
  8
0
 10
73.56929310
 20
89.55285601
  0
VERTEX
  8
0
 10
73.77702452
 20
90.09611462
  0
VERTEX
  8
0
 10
73.94206887
 20
90.60560440
  0
VERTEX
  8
0
 10
74.06327774
 20
91.09650545
  0
VERTEX
  8
0
 10
74.13950276
 20
91.58399784
  0
VERTEX
  8
0
 10
74.16959552
 20
92.08326167
  0
VERTEX
  8
0
 10
74.15240765
 20
92.60947704
  0
VERTEX
  8
0
 10
74.08679076
 20
93.17782404
  0
VERTEX
  8
0
 10
73.97159644
 20
93.80348275
  0
VERTEX
  8
0
 10
73.80567632
 20
94.50163327
  0
VERTEX
  8
0
 10
73.58788201
 20
95.28745568
  0
VERTEX
  8
0
 10
73.31706511
 20
96.17613009
  0
VERTEX
  8
0
 10
72.99207724
 20
97.18283657
  0
VERTEX
  8
0
 10
72.17499500
 20
99.61106615
  0
VERTEX
  8
0
 10
69.62186678
 20
107.11350843
  0
VERTEX
  8
0
 10
67.18795225
 20
100.30675422
  0
VERTEX
  8
0
 10
66.67254406
 20
98.85053330
  0
VERTEX
  8
0
 10
66.22419144
 20
97.54108870
  0
VERTEX
  8
0
 10
65.84224413
 20
96.35991945
  0
VERTEX
  8
0
 10
65.52605187
 20
95.28852458
  0
VERTEX
  8
0
 10
65.27496438
 20
94.30840311
  0
VERTEX
  8
0
 10
65.08833142
 20
93.40105406
  0
VERTEX
  8
0
 10
64.96550271
 20
92.54797647
  0
VERTEX
  8
0
 10
64.92781174
 20
92.13600792
  0
VERTEX
  8
0
 10
64.90582798
 20
91.73066937
  0
VERTEX
  8
0
 10
64.89947016
 20
91.32964819
  0
VERTEX
  8
0
 10
64.90865698
 20
90.93063177
  0
VERTEX
  8
0
 10
64.93330717
 20
90.53130748
  0
VERTEX
  8
0
 10
64.97333945
 20
90.12936271
  0
VERTEX
  8
0
 10
65.09922510
 20
89.30836121
  0
VERTEX
  8
0
 10
65.28566370
 20
88.44912629
  0
VERTEX
  8
0
 10
65.53200496
 20
87.53315700
  0
VERTEX
  8
0
 10
65.83759862
 20
86.54195235
  0
VERTEX
  8
0
 10
66.20179443
 20
85.45701136
  0
VERTEX
  8
0
 10
66.62394211
 20
84.25983308
  0
VERTEX
  8
0
 10
67.00726474
 20
83.21306747
  0
VERTEX
  8
0
 10
67.36425399
 20
82.29041456
  0
VERTEX
  8
0
 10
67.69678513
 20
81.49070452
  0
VERTEX
  8
0
 10
68.00673344
 20
80.81276752
  0
VERTEX
  8
0
 10
68.29597417
 20
80.25543372
  0
VERTEX
  8
0
 10
68.56638260
 20
79.81753328
  0
VERTEX
  8
0
 10
68.69511072
 20
79.64300500
  0
VERTEX
  8
0
 10
68.81983399
 20
79.49789637
  0
VERTEX
  8
0
 10
68.94078682
 20
79.38206116
  0
VERTEX
  8
0
 10
69.05820361
 20
79.29535315
  0
VERTEX
  8
0
 10
69.17231878
 20
79.23762610
  0
VERTEX
  8
0
 10
69.28336673
 20
79.20873378
  0
VERTEX
  8
0
 10
69.39158187
 20
79.20852997
  0
VERTEX
  8
0
 10
69.49719861
 20
79.23686844
  0
VERTEX
  8
0
 10
69.60045136
 20
79.29360295
  0
VERTEX
  8
0
 10
69.70157453
 20
79.37858728
  0
VERTEX
  8
0
 10
69.80080252
 20
79.49167519
  0
VERTEX
  8
0
 10
69.89836974
 20
79.63272047
  0
VERTEX
  8
0
 10
70.08945952
 20
79.99809817
  0
VERTEX
  8
0
 10
70.27671913
 20
80.47355055
  0
VERTEX
  8
0
 10
70.46202385
 20
81.05790777
  0
VERTEX
  8
0
 10
70.64724893
 20
81.75000000
  0
SEQEND
  0
POLYLINE
  8
Calque_par_d_faut
 62
256
 66
   1
 39
0.000000
 70
    1
  0
VERTEX
  8
0
 10
52.23789332
 20
88.00259920
  0
VERTEX
  8
0
 10
53.48093043
 20
89.26223422
  0
VERTEX
  8
0
 10
53.98357257
 20
89.79220736
  0
VERTEX
  8
0
 10
54.41098681
 20
90.26549270
  0
VERTEX
  8
0
 10
54.76619041
 20
90.68949656
  0
VERTEX
  8
0
 10
55.05220065
 20
91.07162530
  0
VERTEX
  8
0
 10
55.27203479
 20
91.41928524
  0
VERTEX
  8
0
 10
55.42871010
 20
91.73988272
  0
VERTEX
  8
0
 10
55.52524386
 20
92.04082407
  0
VERTEX
  8
0
 10
55.56465335
 20
92.32951564
  0
VERTEX
  8
0
 10
55.54995582
 20
92.61336375
  0
VERTEX
  8
0
 10
55.48416855
 20
92.89977474
  0
VERTEX
  8
0
 10
55.37030882
 20
93.19615495
  0
VERTEX
  8
0
 10
55.21139390
 20
93.50991071
  0
VERTEX
  8
0
 10
55.01044105
 20
93.84844836
  0
VERTEX
  8
0
 10
54.77046755
 20
94.21917423
  0
VERTEX
  8
0
 10
54.42059309
 20
94.70466322
  0
VERTEX
  8
0
 10
53.98868643
 20
95.23635227
  0
VERTEX
  8
0
 10
53.49174469
 20
95.79697204
  0
VERTEX
  8
0
 10
52.94676497
 20
96.36925318
  0
VERTEX
  8
0
 10
52.37074440
 20
96.93592635
  0
VERTEX
  8
0
 10
51.78068010
 20
97.47972220
  0
VERTEX
  8
0
 10
51.19356917
 20
97.98337139
  0
VERTEX
  8
0
 10
50.62640874
 20
98.42960459
  0
VERTEX
  8
0
 10
47.95237490
 20
100.42605911
  0
VERTEX
  8
0
 10
43.45638346
 20
95.93006767
  0
VERTEX
  8
0
 10
38.96039201
 20
91.43407622
  0
VERTEX
  8
0
 10
42.36506631
 20
87.71703811
  0
VERTEX
  8
0
 10
43.07415473
 20
86.97036356
  0
VERTEX
  8
0
 10
43.78431130
 20
86.27378191
  0
VERTEX
  8
0
 10
44.47651522
 20
85.64253881
  0
VERTEX
  8
0
 10
45.13174571
 20
85.09187994
  0
VERTEX
  8
0
 10
45.73098196
 20
84.63705096
  0
VERTEX
  8
0
 10
46.25520319
 20
84.29329754
  0
VERTEX
  8
0
 10
46.48323917
 20
84.16783843
  0
VERTEX
  8
0
 10
46.68538859
 20
84.07586533
  0
VERTEX
  8
0
 10
46.85927385
 20
84.01928395
  0
VERTEX
  8
0
 10
47.00251737
 20
84.00000000
  0
VERTEX
  8
0
 10
47.14886291
 20
84.02076544
  0
VERTEX
  8
0
 10
47.33184989
 20
84.08169368
  0
VERTEX
  8
0
 10
47.54879416
 20
84.18073260
  0
VERTEX
  8
0
 10
47.79701156
 20
84.31583009
  0
VERTEX
  8
0
 10
48.37652916
 20
84.68599234
  0
VERTEX
  8
0
 10
49.04892946
 20
85.17576351
  0
VERTEX
  8
0
 10
49.79273925
 20
85.76872670
  0
VERTEX
  8
0
 10
50.58648531
 20
86.44846498
  0
VERTEX
  8
0
 10
51.40869440
 20
87.19856145
  0
VERTEX
  8
0
 10
52.23789332
 20
88.00259920
  0
SEQEND
  0
POLYLINE
  8
Calque_par_d_faut
 62
256
 66
   1
 39
0.000000
 70
    1
  0
VERTEX
  8
0
 10
95.23789332
 20
88.00259920
  0
VERTEX
  8
0
 10
96.48093043
 20
89.26223422
  0
VERTEX
  8
0
 10
96.98357257
 20
89.79220736
  0
VERTEX
  8
0
 10
97.41098681
 20
90.26549270
  0
VERTEX
  8
0
 10
97.76619041
 20
90.68949656
  0
VERTEX
  8
0
 10
98.05220065
 20
91.07162530
  0
VERTEX
  8
0
 10
98.27203479
 20
91.41928524
  0
VERTEX
  8
0
 10
98.42871010
 20
91.73988272
  0
VERTEX
  8
0
 10
98.52524386
 20
92.04082407
  0
VERTEX
  8
0
 10
98.56465335
 20
92.32951564
  0
VERTEX
  8
0
 10
98.54995582
 20
92.61336375
  0
VERTEX
  8
0
 10
98.48416855
 20
92.89977474
  0
VERTEX
  8
0
 10
98.37030882
 20
93.19615495
  0
VERTEX
  8
0
 10
98.21139390
 20
93.50991071
  0
VERTEX
  8
0
 10
98.01044105
 20
93.84844836
  0
VERTEX
  8
0
 10
97.77046755
 20
94.21917423
  0
VERTEX
  8
0
 10
97.42059309
 20
94.70466322
  0
VERTEX
  8
0
 10
96.98868643
 20
95.23635227
  0
VERTEX
  8
0
 10
96.49174469
 20
95.79697204
  0
VERTEX
  8
0
 10
95.94676497
 20
96.36925318
  0
VERTEX
  8
0
 10
95.37074440
 20
96.93592635
  0
VERTEX
  8
0
 10
94.78068010
 20
97.47972220
  0
VERTEX
  8
0
 10
94.19356917
 20
97.98337139
  0
VERTEX
  8
0
 10
93.62640874
 20
98.42960459
  0
VERTEX
  8
0
 10
90.95237490
 20
100.42605911
  0
VERTEX
  8
0
 10
86.48955726
 20
95.96302956
  0
VERTEX
  8
0
 10
82.02673962
 20
91.50000000
  0
VERTEX
  8
0
 10
85.46238701
 20
87.75000000
  0
VERTEX
  8
0
 10
86.17638802
 20
86.99670410
  0
VERTEX
  8
0
 10
86.88859667
 20
86.29394531
  0
VERTEX
  8
0
 10
87.58012825
 20
85.65710449
  0
VERTEX
  8
0
 10
88.23209800
 20
85.10156250
  0
VERTEX
  8
0
 10
88.82562121
 20
84.64270020
  0
VERTEX
  8
0
 10
89.34181314
 20
84.29589844
  0
VERTEX
  8
0
 10
89.56500840
 20
84.16932678
  0
VERTEX
  8
0
 10
89.76178907
 20
84.07653809
  0
VERTEX
  8
0
 10
89.92979455
 20
84.01945496
  0
VERTEX
  8
0
 10
90.06666426
 20
84.00000000
  0
VERTEX
  8
0
 10
90.20647530
 20
84.02076544
  0
VERTEX
  8
0
 10
90.38311102
 20
84.08169368
  0
VERTEX
  8
0
 10
90.59392015
 20
84.18073260
  0
VERTEX
  8
0
 10
90.83625141
 20
84.31583009
  0
VERTEX
  8
0
 10
91.40487532
 20
84.68599234
  0
VERTEX
  8
0
 10
92.06777261
 20
85.17576351
  0
VERTEX
  8
0
 10
92.80373318
 20
85.76872670
  0
VERTEX
  8
0
 10
93.59154690
 20
86.44846498
  0
VERTEX
  8
0
 10
94.41000365
 20
87.19856145
  0
VERTEX
  8
0
 10
95.23789332
 20
88.00259920
  0
SEQEND
  0
POLYLINE
  8
Calque_par_d_faut
 62
256
 66
   1
 39
0.000000
 70
    1
  0
VERTEX
  8
0
 10
136.94581664
 20
86.60786142
  0
VERTEX
  8
0
 10
137.89645158
 20
87.42244876
  0
VERTEX
  8
0
 10
138.72600788
 20
88.17021219
  0
VERTEX
  8
0
 10
139.43579485
 20
88.86079666
  0
VERTEX
  8
0
 10
140.02712179
 20
89.50384711
  0
VERTEX
  8
0
 10
140.27877190
 20
89.81056113
  0
VERTEX
  8
0
 10
140.50129799
 20
90.10900851
  0
VERTEX
  8
0
 10
140.69486373
 20
90.40039485
  0
VERTEX
  8
0
 10
140.85963277
 20
90.68592579
  0
VERTEX
  8
0
 10
140.99576878
 20
90.96680694
  0
VERTEX
  8
0
 10
141.10343542
 20
91.24424391
  0
VERTEX
  8
0
 10
141.18279636
 20
91.51944233
  0
VERTEX
  8
0
 10
141.23401525
 20
91.79360782
  0
VERTEX
  8
0
 10
141.25725576
 20
92.06794600
  0
VERTEX
  8
0
 10
141.25268156
 20
92.34366247
  0
VERTEX
  8
0
 10
141.22045630
 20
92.62196287
  0
VERTEX
  8
0
 10
141.16074365
 20
92.90405281
  0
VERTEX
  8
0
 10
141.07370727
 20
93.19113792
  0
VERTEX
  8
0
 10
140.95951082
 20
93.48442379
  0
VERTEX
  8
0
 10
140.81831797
 20
93.78511607
  0
VERTEX
  8
0
 10
140.65029239
 20
94.09442036
  0
VERTEX
  8
0
 10
140.45559772
 20
94.41354229
  0
VERTEX
  8
0
 10
140.23439764
 20
94.74368747
  0
VERTEX
  8
0
 10
139.71313588
 20
95.44187007
  0
VERTEX
  8
0
 10
139.08781642
 20
96.19861312
  0
VERTEX
  8
0
 10
138.35974856
 20
97.02356155
  0
VERTEX
  8
0
 10
134.67724352
 20
101.09965443
  0
VERTEX
  8
0
 10
130.33862176
 20
96.84161924
  0
VERTEX
  8
0
 10
129.46708417
 20
95.96377873
  0
VERTEX
  8
0
 10
128.65401628
 20
95.10135296
  0
VERTEX
  8
0
 10
127.91721323
 20
94.27632623
  0
VERTEX
  8
0
 10
127.27447014
 20
93.51068290
  0
VERTEX
  8
0
 10
126.74358215
 20
92.82640728
  0
VERTEX
  8
0
 10
126.34234437
 20
92.24548371
  0
VERTEX
  8
0
 10
126.19590530
 20
92.00064904
  0
VERTEX
  8
0
 10
126.08855195
 20
91.78989652
  0
VERTEX
  8
0
 10
126.02250872
 20
91.61597417
  0
VERTEX
  8
0
 10
126.00000000
 20
91.48163003
  0
VERTEX
  8
0
 10
126.01679764
 20
91.34808084
  0
VERTEX
  8
0
 10
126.06591047
 20
91.18766340
  0
VERTEX
  8
0
 10
126.14541834
 20
91.00241774
  0
VERTEX
  8
0
 10
126.25340110
 20
90.79438390
  0
VERTEX
  8
0
 10
126.54711073
 20
90.31811187
  0
VERTEX
  8
0
 10
126.93167818
 20
89.77516761
  0
VERTEX
  8
0
 10
127.39174229
 20
89.18187146
  0
VERTEX
  8
0
 10
127.91194188
 20
88.55454373
  0
VERTEX
  8
0
 10
128.47691578
 20
87.90950474
  0
VERTEX
  8
0
 10
129.07130283
 20
87.26307482
  0
VERTEX
  8
0
 10
129.67974186
 20
86.63157427
  0
VERTEX
  8
0
 10
130.28687170
 20
86.03132342
  0
VERTEX
  8
0
 10
130.87733117
 20
85.47864260
  0
VERTEX
  8
0
 10
131.43575911
 20
84.98985212
  0
VERTEX
  8
0
 10
131.94679435
 20
84.58127230
  0
VERTEX
  8
0
 10
132.39507572
 20
84.26922346
  0
VERTEX
  8
0
 10
132.59088334
 20
84.15449825
  0
VERTEX
  8
0
 10
132.76524205
 20
84.07002592
  0
VERTEX
  8
0
 10
132.91623171
 20
84.01784649
  0
VERTEX
  8
0
 10
133.04193217
 20
84.00000000
  0
VERTEX
  8
0
 10
133.13997562
 20
84.01352955
  0
VERTEX
  8
0
 10
133.26681933
 20
84.05322686
  0
VERTEX
  8
0
 10
133.59890152
 20
84.20577656
  0
VERTEX
  8
0
 10
134.02216670
 20
84.44695281
  0
VERTEX
  8
0
 10
134.52060285
 20
84.76605929
  0
VERTEX
  8
0
 10
135.07819795
 20
85.15239970
  0
VERTEX
  8
0
 10
135.67893996
 20
85.59527773
  0
VERTEX
  8
0
 10
136.30681687
 20
86.08399707
  0
VERTEX
  8
0
 10
136.94581664
 20
86.60786142
  0
SEQEND
  0
POLYLINE
  8
Calque_par_d_faut
 62
256
 66
   1
 39
0.000000
 70
    1
  0
VERTEX
  8
0
 10
181.38363766
 20
88.00288082
  0
VERTEX
  8
0
 10
182.78780335
 20
89.59612289
  0
VERTEX
  8
0
 10
183.93769356
 20
90.97509792
  0
VERTEX
  8
0
 10
184.38020352
 20
91.53812226
  0
VERTEX
  8
0
 10
184.71464641
 20
91.99224420
  0
VERTEX
  8
0
 10
184.92618948
 20
92.31901852
  0
VERTEX
  8
0
 10
184.98123835
 20
92.42888619
  0
VERTEX
  8
0
 10
185.00000000
 20
92.50000000
  0
VERTEX
  8
0
 10
184.98100481
 20
92.57137231
  0
VERTEX
  8
0
 10
184.92527070
 20
92.68199846
  0
VERTEX
  8
0
 10
184.71109437
 20
93.01168748
  0
VERTEX
  8
0
 10
184.37248840
 20
93.47041746
  0
VERTEX
  8
0
 10
183.92447014
 20
94.03953882
  0
VERTEX
  8
0
 10
182.76026628
 20
95.43435735
  0
VERTEX
  8
0
 10
181.33862176
 20
97.04694639
  0
VERTEX
  8
0
 10
177.67724352
 20
101.09965443
  0
VERTEX
  8
0
 10
173.33862176
 20
96.84161924
  0
VERTEX
  8
0
 10
172.46708417
 20
95.96597832
  0
VERTEX
  8
0
 10
171.65401628
 20
95.10985662
  0
VERTEX
  8
0
 10
170.91721323
 20
94.29479645
  0
VERTEX
  8
0
 10
170.27447014
 20
93.54234011
  0
VERTEX
  8
0
 10
169.74358215
 20
92.87402991
  0
VERTEX
  8
0
 10
169.34234437
 20
92.31140817
  0
VERTEX
  8
0
 10
169.19590530
 20
92.07646244
  0
VERTEX
  8
0
 10
169.08855195
 20
91.87601719
  0
VERTEX
  8
0
 10
169.02250872
 20
91.71276520
  0
VERTEX
  8
0
 10
169.00000000
 20
91.58939927
  0
VERTEX
  8
0
 10
169.01771875
 20
91.44269279
  0
VERTEX
  8
0
 10
169.06954384
 20
91.27015715
  0
VERTEX
  8
0
 10
169.15347850
 20
91.07379164
  0
VERTEX
  8
0
 10
169.26752596
 20
90.85559554
  0
VERTEX
  8
0
 10
169.57797228
 20
90.36170873
  0
VERTEX
  8
0
 10
169.98490870
 20
89.80449105
  0
VERTEX
  8
0
 10
170.47236113
 20
89.19993680
  0
VERTEX
  8
0
 10
171.02435548
 20
88.56404030
  0
VERTEX
  8
0
 10
171.62491766
 20
87.91279585
  0
VERTEX
  8
0
 10
172.25807357
 20
87.26219778
  0
VERTEX
  8
0
 10
172.90784913
 20
86.62824039
  0
VERTEX
  8
0
 10
173.55827025
 20
86.02691800
  0
VERTEX
  8
0
 10
174.19336282
 20
85.47422491
  0
VERTEX
  8
0
 10
174.79715277
 20
84.98615544
  0
VERTEX
  8
0
 10
175.35366600
 20
84.57870390
  0
VERTEX
  8
0
 10
175.84692841
 20
84.26786461
  0
VERTEX
  8
0
 10
176.06484866
 20
84.15367278
  0
VERTEX
  8
0
 10
176.26096592
 20
84.06963187
  0
VERTEX
  8
0
 10
176.43328344
 20
84.01774118
  0
VERTEX
  8
0
 10
176.57980444
 20
84.00000000
  0
VERTEX
  8
0
 10
176.71953098
 20
84.02076690
  0
VERTEX
  8
0
 10
176.89215281
 20
84.08169942
  0
VERTEX
  8
0
 10
177.09520702
 20
84.18074531
  0
VERTEX
  8
0
 10
177.32623070
 20
84.31585231
  0
VERTEX
  8
0
 10
177.86233490
 20
84.68604061
  0
VERTEX
  8
0
 10
178.48076218
 20
85.17584624
  0
VERTEX
  8
0
 10
179.16180932
 20
85.76885114
  0
VERTEX
  8
0
 10
179.88577309
 20
86.44863725
  0
VERTEX
  8
0
 10
180.63295028
 20
87.19878650
  0
VERTEX
  8
0
 10
181.38363766
 20
88.00288082
  0
SEQEND
  0
POLYLINE
  8
Calque_par_d_faut
 62
256
 66
   1
 39
0.000000
 70
    1
  0
VERTEX
  8
0
 10
39.97474504
 20
102.46956963
  0
VERTEX
  8
0
 10
40.25463337
 20
102.82133303
  0
VERTEX
  8
0
 10
40.48156416
 20
103.14237280
  0
VERTEX
  8
0
 10
40.65282522
 20
103.43549463
  0
VERTEX
  8
0
 10
40.76570435
 20
103.70350420
  0
VERTEX
  8
0
 10
40.81748935
 20
103.94920720
  0
VERTEX
  8
0
 10
40.81962399
 20
104.06457051
  0
VERTEX
  8
0
 10
40.80546802
 20
104.17540931
  0
VERTEX
  8
0
 10
40.77468243
 20
104.28207431
  0
VERTEX
  8
0
 10
40.72692818
 20
104.38491622
  0
VERTEX
  8
0
 10
40.66186625
 20
104.48428575
  0
VERTEX
  8
0
 10
40.57915761
 20
104.58053361
  0
VERTEX
  8
0
 10
40.35944413
 20
104.76506717
  0
VERTEX
  8
0
 10
40.06507553
 20
104.94132257
  0
VERTEX
  8
0
 10
39.69333963
 20
105.11210551
  0
VERTEX
  8
0
 10
39.24152422
 20
105.28022167
  0
VERTEX
  8
0
 10
38.70691710
 20
105.44847674
  0
VERTEX
  8
0
 10
38.08680608
 20
105.61967639
  0
VERTEX
  8
0
 10
36.57922355
 20
105.98213219
  0
VERTEX
  8
0
 10
35.27428806
 20
106.25939896
  0
VERTEX
  8
0
 10
34.74865147
 20
106.34838659
  0
VERTEX
  8
0
 10
34.30340133
 20
106.39787681
  0
VERTEX
  8
0
 10
33.93541194
 20
106.40306943
  0
VERTEX
  8
0
 10
33.77941324
 20
106.38755408
  0
VERTEX
  8
0
 10
33.64155757
 20
106.35916426
  0
VERTEX
  8
0
 10
33.52145423
 20
106.31729995
  0
VERTEX
  8
0
 10
33.41871249
 20
106.26136113
  0
VERTEX
  8
0
 10
33.33294165
 20
106.19074777
  0
VERTEX
  8
0
 10
33.26375099
 20
106.10485985
  0
VERTEX
  8
0
 10
33.21074978
 20
106.00309734
  0
VERTEX
  8
0
 10
33.17354732
 20
105.88486023
  0
VERTEX
  8
0
 10
33.15175290
 20
105.74954849
  0
VERTEX
  8
0
 10
33.14497578
 20
105.59656210
  0
VERTEX
  8
0
 10
33.17491064
 20
105.23516526
  0
VERTEX
  8
0
 10
33.26022617
 20
104.79586955
  0
VERTEX
  8
0
 10
33.39779665
 20
104.27387476
  0
VERTEX
  8
0
 10
33.58449636
 20
103.66438072
  0
VERTEX
  8
0
 10
34.09278056
 20
102.16369416
  0
VERTEX
  8
0
 10
34.41189745
 20
101.30490422
  0
VERTEX
  8
0
 10
34.56324265
 20
100.94730863
  0
VERTEX
  8
0
 10
34.71156446
 20
100.63567127
  0
VERTEX
  8
0
 10
34.85870195
 20
100.36856112
  0
VERTEX
  8
0
 10
35.00649420
 20
100.14454716
  0
VERTEX
  8
0
 10
35.15678028
 20
99.96219839
  0
VERTEX
  8
0
 10
35.31139926
 20
99.82008377
  0
VERTEX
  8
0
 10
35.47219023
 20
99.71677230
  0
VERTEX
  8
0
 10
35.64099226
 20
99.65083295
  0
VERTEX
  8
0
 10
35.81964443
 20
99.62083471
  0
VERTEX
  8
0
 10
36.00998580
 20
99.62534657
  0
VERTEX
  8
0
 10
36.21385546
 20
99.66293749
  0
VERTEX
  8
0
 10
36.43309248
 20
99.73217648
  0
VERTEX
  8
0
 10
36.66953594
 20
99.83163250
  0
VERTEX
  8
0
 10
36.92502491
 20
99.95987455
  0
VERTEX
  8
0
 10
37.30118902
 20
100.17910209
  0
VERTEX
  8
0
 10
37.70381349
 20
100.44591250
  0
VERTEX
  8
0
 10
38.12038969
 20
100.75001211
  0
VERTEX
  8
0
 10
38.53840900
 20
101.08110724
  0
VERTEX
  8
0
 10
38.94536281
 20
101.42890423
  0
VERTEX
  8
0
 10
39.32874250
 20
101.78310941
  0
VERTEX
  8
0
 10
39.67603945
 20
102.13342910
  0
VERTEX
  8
0
 10
39.97474504
 20
102.46956963
  0
SEQEND
  0
POLYLINE
  8
Calque_par_d_faut
 62
256
 66
   1
 39
0.000000
 70
    1
  0
VERTEX
  8
0
 10
61.70741983
 20
102.81818397
  0
VERTEX
  8
0
 10
62.09607116
 20
103.79548951
  0
VERTEX
  8
0
 10
62.36223880
 20
104.55049080
  0
VERTEX
  8
0
 10
62.44761044
 20
104.85348835
  0
VERTEX
  8
0
 10
62.50022420
 20
105.11154303
  0
VERTEX
  8
0
 10
62.51936775
 20
105.32819924
  0
VERTEX
  8
0
 10
62.50432878
 20
105.50700139
  0
VERTEX
  8
0
 10
62.45439496
 20
105.65149386
  0
VERTEX
  8
0
 10
62.36885398
 20
105.76522107
  0
VERTEX
  8
0
 10
62.24699350
 20
105.85172741
  0
VERTEX
  8
0
 10
62.08810122
 20
105.91455727
  0
VERTEX
  8
0
 10
61.89146481
 20
105.95725506
  0
VERTEX
  8
0
 10
61.65637195
 20
105.98336518
  0
VERTEX
  8
0
 10
61.06796759
 20
106.00000000
  0
VERTEX
  8
0
 10
60.62338560
 20
105.97896539
  0
VERTEX
  8
0
 10
60.10167963
 20
105.91867959
  0
VERTEX
  8
0
 10
59.52191552
 20
105.82336966
  0
VERTEX
  8
0
 10
58.90315916
 20
105.69726264
  0
VERTEX
  8
0
 10
58.26447640
 20
105.54458559
  0
VERTEX
  8
0
 10
57.62493311
 20
105.36956556
  0
VERTEX
  8
0
 10
57.00359515
 20
105.17642959
  0
VERTEX
  8
0
 10
56.41952838
 20
104.96940475
  0
VERTEX
  8
0
 10
53.70885744
 20
103.93880949
  0
VERTEX
  8
0
 10
56.04679178
 20
101.45019243
  0
VERTEX
  8
0
 10
56.56169360
 20
100.92003498
  0
VERTEX
  8
0
 10
57.03946395
 20
100.46818306
  0
VERTEX
  8
0
 10
57.48345636
 20
100.09544713
  0
VERTEX
  8
0
 10
57.89702435
 20
99.80263761
  0
VERTEX
  8
0
 10
58.28352146
 20
99.59056495
  0
VERTEX
  8
0
 10
58.46766640
 20
99.51505820
  0
VERTEX
  8
0
 10
58.64630120
 20
99.46003958
  0
VERTEX
  8
0
 10
58.81984504
 20
99.42561040
  0
VERTEX
  8
0
 10
58.98871711
 20
99.41187195
  0
VERTEX
  8
0
 10
59.15333661
 20
99.41892555
  0
VERTEX
  8
0
 10
59.31412272
 20
99.44687250
  0
VERTEX
  8
0
 10
59.47149464
 20
99.49581410
  0
VERTEX
  8
0
 10
59.62587155
 20
99.56585166
  0
VERTEX
  8
0
 10
59.77767265
 20
99.65708649
  0
VERTEX
  8
0
 10
59.92731713
 20
99.76961988
  0
VERTEX
  8
0
 10
60.07522417
 20
99.90355315
  0
VERTEX
  8
0
 10
60.22181298
 20
100.05898760
  0
VERTEX
  8
0
 10
60.51271264
 20
100.43476524
  0
VERTEX
  8
0
 10
60.80336962
 20
100.89776327
  0
VERTEX
  8
0
 10
61.09713746
 20
101.44879210
  0
VERTEX
  8
0
 10
61.39736969
 20
102.08866219
  0
VERTEX
  8
0
 10
61.70741983
 20
102.81818397
  0
SEQEND
  0
POLYLINE
  8
Calque_par_d_faut
 62
256
 66
   1
 39
0.000000
 70
    1
  0
VERTEX
  8
0
 10
82.97474504
 20
102.46956963
  0
VERTEX
  8
0
 10
83.25463337
 20
102.82133303
  0
VERTEX
  8
0
 10
83.48156416
 20
103.14237280
  0
VERTEX
  8
0
 10
83.65282522
 20
103.43549463
  0
VERTEX
  8
0
 10
83.76570435
 20
103.70350420
  0
VERTEX
  8
0
 10
83.81748935
 20
103.94920720
  0
VERTEX
  8
0
 10
83.81962399
 20
104.06457051
  0
VERTEX
  8
0
 10
83.80546802
 20
104.17540931
  0
VERTEX
  8
0
 10
83.77468243
 20
104.28207431
  0
VERTEX
  8
0
 10
83.72692818
 20
104.38491622
  0
VERTEX
  8
0
 10
83.66186625
 20
104.48428575
  0
VERTEX
  8
0
 10
83.57915761
 20
104.58053361
  0
VERTEX
  8
0
 10
83.35944413
 20
104.76506717
  0
VERTEX
  8
0
 10
83.06507553
 20
104.94132257
  0
VERTEX
  8
0
 10
82.69333963
 20
105.11210551
  0
VERTEX
  8
0
 10
82.24152422
 20
105.28022167
  0
VERTEX
  8
0
 10
81.70691710
 20
105.44847674
  0
VERTEX
  8
0
 10
81.08680608
 20
105.61967639
  0
VERTEX
  8
0
 10
79.57922355
 20
105.98213219
  0
VERTEX
  8
0
 10
78.27428806
 20
106.25939896
  0
VERTEX
  8
0
 10
77.74865147
 20
106.34838659
  0
VERTEX
  8
0
 10
77.30340133
 20
106.39787681
  0
VERTEX
  8
0
 10
76.93541194
 20
106.40306943
  0
VERTEX
  8
0
 10
76.77941324
 20
106.38755408
  0
VERTEX
  8
0
 10
76.64155757
 20
106.35916426
  0
VERTEX
  8
0
 10
76.52145423
 20
106.31729995
  0
VERTEX
  8
0
 10
76.41871249
 20
106.26136113
  0
VERTEX
  8
0
 10
76.33294165
 20
106.19074777
  0
VERTEX
  8
0
 10
76.26375099
 20
106.10485985
  0
VERTEX
  8
0
 10
76.21074978
 20
106.00309734
  0
VERTEX
  8
0
 10
76.17354732
 20
105.88486023
  0
VERTEX
  8
0
 10
76.15175290
 20
105.74954849
  0
VERTEX
  8
0
 10
76.14497578
 20
105.59656210
  0
VERTEX
  8
0
 10
76.17491064
 20
105.23516526
  0
VERTEX
  8
0
 10
76.26022617
 20
104.79586955
  0
VERTEX
  8
0
 10
76.39779665
 20
104.27387476
  0
VERTEX
  8
0
 10
76.58449636
 20
103.66438072
  0
VERTEX
  8
0
 10
77.09278056
 20
102.16369416
  0
VERTEX
  8
0
 10
77.41189745
 20
101.30490422
  0
VERTEX
  8
0
 10
77.56324265
 20
100.94730863
  0
VERTEX
  8
0
 10
77.71156446
 20
100.63567127
  0
VERTEX
  8
0
 10
77.85870195
 20
100.36856112
  0
VERTEX
  8
0
 10
78.00649420
 20
100.14454716
  0
VERTEX
  8
0
 10
78.15678028
 20
99.96219839
  0
VERTEX
  8
0
 10
78.31139926
 20
99.82008377
  0
VERTEX
  8
0
 10
78.47219023
 20
99.71677230
  0
VERTEX
  8
0
 10
78.64099226
 20
99.65083295
  0
VERTEX
  8
0
 10
78.81964443
 20
99.62083471
  0
VERTEX
  8
0
 10
79.00998580
 20
99.62534657
  0
VERTEX
  8
0
 10
79.21385546
 20
99.66293749
  0
VERTEX
  8
0
 10
79.43309248
 20
99.73217648
  0
VERTEX
  8
0
 10
79.66953594
 20
99.83163250
  0
VERTEX
  8
0
 10
79.92502491
 20
99.95987455
  0
VERTEX
  8
0
 10
80.30118902
 20
100.17910209
  0
VERTEX
  8
0
 10
80.70381349
 20
100.44591250
  0
VERTEX
  8
0
 10
81.12038969
 20
100.75001211
  0
VERTEX
  8
0
 10
81.53840900
 20
101.08110724
  0
VERTEX
  8
0
 10
81.94536281
 20
101.42890423
  0
VERTEX
  8
0
 10
82.32874250
 20
101.78310941
  0
VERTEX
  8
0
 10
82.67603945
 20
102.13342910
  0
VERTEX
  8
0
 10
82.97474504
 20
102.46956963
  0
SEQEND
  0
POLYLINE
  8
Calque_par_d_faut
 62
256
 66
   1
 39
0.000000
 70
    1
  0
VERTEX
  8
0
 10
104.70741983
 20
102.81818397
  0
VERTEX
  8
0
 10
105.09607116
 20
103.79548951
  0
VERTEX
  8
0
 10
105.36223880
 20
104.55049080
  0
VERTEX
  8
0
 10
105.44761044
 20
104.85348835
  0
VERTEX
  8
0
 10
105.50022420
 20
105.11154303
  0
VERTEX
  8
0
 10
105.51936775
 20
105.32819924
  0
VERTEX
  8
0
 10
105.50432878
 20
105.50700139
  0
VERTEX
  8
0
 10
105.45439496
 20
105.65149386
  0
VERTEX
  8
0
 10
105.36885398
 20
105.76522107
  0
VERTEX
  8
0
 10
105.24699350
 20
105.85172741
  0
VERTEX
  8
0
 10
105.08810122
 20
105.91455727
  0
VERTEX
  8
0
 10
104.89146481
 20
105.95725506
  0
VERTEX
  8
0
 10
104.65637195
 20
105.98336518
  0
VERTEX
  8
0
 10
104.06796759
 20
106.00000000
  0
VERTEX
  8
0
 10
103.62338560
 20
105.97896539
  0
VERTEX
  8
0
 10
103.10167963
 20
105.91867959
  0
VERTEX
  8
0
 10
102.52191552
 20
105.82336966
  0
VERTEX
  8
0
 10
101.90315916
 20
105.69726264
  0
VERTEX
  8
0
 10
101.26447640
 20
105.54458559
  0
VERTEX
  8
0
 10
100.62493311
 20
105.36956556
  0
VERTEX
  8
0
 10
100.00359515
 20
105.17642959
  0
VERTEX
  8
0
 10
99.41952838
 20
104.96940475
  0
VERTEX
  8
0
 10
96.70885744
 20
103.93880949
  0
VERTEX
  8
0
 10
99.04679178
 20
101.45019243
  0
VERTEX
  8
0
 10
99.56169360
 20
100.92003498
  0
VERTEX
  8
0
 10
100.03946395
 20
100.46818306
  0
VERTEX
  8
0
 10
100.48345636
 20
100.09544713
  0
VERTEX
  8
0
 10
100.89702435
 20
99.80263761
  0
VERTEX
  8
0
 10
101.28352146
 20
99.59056495
  0
VERTEX
  8
0
 10
101.46766640
 20
99.51505820
  0
VERTEX
  8
0
 10
101.64630120
 20
99.46003958
  0
VERTEX
  8
0
 10
101.81984504
 20
99.42561040
  0
VERTEX
  8
0
 10
101.98871711
 20
99.41187195
  0
VERTEX
  8
0
 10
102.15333661
 20
99.41892555
  0
VERTEX
  8
0
 10
102.31412272
 20
99.44687250
  0
VERTEX
  8
0
 10
102.47149464
 20
99.49581410
  0
VERTEX
  8
0
 10
102.62587155
 20
99.56585166
  0
VERTEX
  8
0
 10
102.77767265
 20
99.65708649
  0
VERTEX
  8
0
 10
102.92731713
 20
99.76961988
  0
VERTEX
  8
0
 10
103.07522417
 20
99.90355315
  0
VERTEX
  8
0
 10
103.22181298
 20
100.05898760
  0
VERTEX
  8
0
 10
103.51271264
 20
100.43476524
  0
VERTEX
  8
0
 10
103.80336962
 20
100.89776327
  0
VERTEX
  8
0
 10
104.09713746
 20
101.44879210
  0
VERTEX
  8
0
 10
104.39736969
 20
102.08866219
  0
VERTEX
  8
0
 10
104.70741983
 20
102.81818397
  0
SEQEND
  0
POLYLINE
  8
Calque_par_d_faut
 62
256
 66
   1
 39
0.000000
 70
    1
  0
VERTEX
  8
0
 10
125.97474504
 20
102.46956963
  0
VERTEX
  8
0
 10
126.25463337
 20
102.82133303
  0
VERTEX
  8
0
 10
126.48156416
 20
103.14237280
  0
VERTEX
  8
0
 10
126.65282522
 20
103.43549463
  0
VERTEX
  8
0
 10
126.76570435
 20
103.70350420
  0
VERTEX
  8
0
 10
126.81748935
 20
103.94920720
  0
VERTEX
  8
0
 10
126.81962399
 20
104.06457051
  0
VERTEX
  8
0
 10
126.80546802
 20
104.17540931
  0
VERTEX
  8
0
 10
126.77468243
 20
104.28207431
  0
VERTEX
  8
0
 10
126.72692818
 20
104.38491622
  0
VERTEX
  8
0
 10
126.66186625
 20
104.48428575
  0
VERTEX
  8
0
 10
126.57915761
 20
104.58053361
  0
VERTEX
  8
0
 10
126.35944413
 20
104.76506717
  0
VERTEX
  8
0
 10
126.06507553
 20
104.94132257
  0
VERTEX
  8
0
 10
125.69333963
 20
105.11210551
  0
VERTEX
  8
0
 10
125.24152422
 20
105.28022167
  0
VERTEX
  8
0
 10
124.70691710
 20
105.44847674
  0
VERTEX
  8
0
 10
124.08680608
 20
105.61967639
  0
VERTEX
  8
0
 10
122.57922355
 20
105.98213219
  0
VERTEX
  8
0
 10
121.27428806
 20
106.25939896
  0
VERTEX
  8
0
 10
120.74865147
 20
106.34838659
  0
VERTEX
  8
0
 10
120.30340133
 20
106.39787681
  0
VERTEX
  8
0
 10
119.93541194
 20
106.40306943
  0
VERTEX
  8
0
 10
119.77941324
 20
106.38755408
  0
VERTEX
  8
0
 10
119.64155757
 20
106.35916426
  0
VERTEX
  8
0
 10
119.52145423
 20
106.31729995
  0
VERTEX
  8
0
 10
119.41871249
 20
106.26136113
  0
VERTEX
  8
0
 10
119.33294165
 20
106.19074777
  0
VERTEX
  8
0
 10
119.26375099
 20
106.10485985
  0
VERTEX
  8
0
 10
119.21074978
 20
106.00309734
  0
VERTEX
  8
0
 10
119.17354732
 20
105.88486023
  0
VERTEX
  8
0
 10
119.15175290
 20
105.74954849
  0
VERTEX
  8
0
 10
119.14497578
 20
105.59656210
  0
VERTEX
  8
0
 10
119.17491064
 20
105.23516526
  0
VERTEX
  8
0
 10
119.26022617
 20
104.79586955
  0
VERTEX
  8
0
 10
119.39779665
 20
104.27387476
  0
VERTEX
  8
0
 10
119.58449636
 20
103.66438072
  0
VERTEX
  8
0
 10
120.09278056
 20
102.16369416
  0
VERTEX
  8
0
 10
120.41189745
 20
101.30490422
  0
VERTEX
  8
0
 10
120.56324265
 20
100.94730863
  0
VERTEX
  8
0
 10
120.71156446
 20
100.63567127
  0
VERTEX
  8
0
 10
120.85870195
 20
100.36856112
  0
VERTEX
  8
0
 10
121.00649420
 20
100.14454716
  0
VERTEX
  8
0
 10
121.15678028
 20
99.96219839
  0
VERTEX
  8
0
 10
121.31139926
 20
99.82008377
  0
VERTEX
  8
0
 10
121.47219023
 20
99.71677230
  0
VERTEX
  8
0
 10
121.64099226
 20
99.65083295
  0
VERTEX
  8
0
 10
121.81964443
 20
99.62083471
  0
VERTEX
  8
0
 10
122.00998580
 20
99.62534657
  0
VERTEX
  8
0
 10
122.21385546
 20
99.66293749
  0
VERTEX
  8
0
 10
122.43309248
 20
99.73217648
  0
VERTEX
  8
0
 10
122.66953594
 20
99.83163250
  0
VERTEX
  8
0
 10
122.92502491
 20
99.95987455
  0
VERTEX
  8
0
 10
123.30118902
 20
100.17910209
  0
VERTEX
  8
0
 10
123.70381349
 20
100.44591250
  0
VERTEX
  8
0
 10
124.12038969
 20
100.75001211
  0
VERTEX
  8
0
 10
124.53840900
 20
101.08110724
  0
VERTEX
  8
0
 10
124.94536281
 20
101.42890423
  0
VERTEX
  8
0
 10
125.32874250
 20
101.78310941
  0
VERTEX
  8
0
 10
125.67603945
 20
102.13342910
  0
VERTEX
  8
0
 10
125.97474504
 20
102.46956963
  0
SEQEND
  0
POLYLINE
  8
Calque_par_d_faut
 62
256
 66
   1
 39
0.000000
 70
    1
  0
VERTEX
  8
0
 10
147.70741983
 20
102.81818397
  0
VERTEX
  8
0
 10
148.09607116
 20
103.79548951
  0
VERTEX
  8
0
 10
148.36223880
 20
104.55049080
  0
VERTEX
  8
0
 10
148.44761044
 20
104.85348835
  0
VERTEX
  8
0
 10
148.50022420
 20
105.11154303
  0
VERTEX
  8
0
 10
148.51936775
 20
105.32819924
  0
VERTEX
  8
0
 10
148.50432878
 20
105.50700139
  0
VERTEX
  8
0
 10
148.45439496
 20
105.65149386
  0
VERTEX
  8
0
 10
148.36885398
 20
105.76522107
  0
VERTEX
  8
0
 10
148.24699350
 20
105.85172741
  0
VERTEX
  8
0
 10
148.08810122
 20
105.91455727
  0
VERTEX
  8
0
 10
147.89146481
 20
105.95725506
  0
VERTEX
  8
0
 10
147.65637195
 20
105.98336518
  0
VERTEX
  8
0
 10
147.06796759
 20
106.00000000
  0
VERTEX
  8
0
 10
146.62338560
 20
105.97896539
  0
VERTEX
  8
0
 10
146.10167963
 20
105.91867959
  0
VERTEX
  8
0
 10
145.52191552
 20
105.82336966
  0
VERTEX
  8
0
 10
144.90315916
 20
105.69726264
  0
VERTEX
  8
0
 10
144.26447640
 20
105.54458559
  0
VERTEX
  8
0
 10
143.62493311
 20
105.36956556
  0
VERTEX
  8
0
 10
143.00359515
 20
105.17642959
  0
VERTEX
  8
0
 10
142.41952838
 20
104.96940475
  0
VERTEX
  8
0
 10
139.70885744
 20
103.93880949
  0
VERTEX
  8
0
 10
142.04679178
 20
101.45019243
  0
VERTEX
  8
0
 10
142.56169360
 20
100.92003498
  0
VERTEX
  8
0
 10
143.03946395
 20
100.46818306
  0
VERTEX
  8
0
 10
143.48345636
 20
100.09544713
  0
VERTEX
  8
0
 10
143.89702435
 20
99.80263761
  0
VERTEX
  8
0
 10
144.28352146
 20
99.59056495
  0
VERTEX
  8
0
 10
144.46766640
 20
99.51505820
  0
VERTEX
  8
0
 10
144.64630120
 20
99.46003958
  0
VERTEX
  8
0
 10
144.81984504
 20
99.42561040
  0
VERTEX
  8
0
 10
144.98871711
 20
99.41187195
  0
VERTEX
  8
0
 10
145.15333661
 20
99.41892555
  0
VERTEX
  8
0
 10
145.31412272
 20
99.44687250
  0
VERTEX
  8
0
 10
145.47149464
 20
99.49581410
  0
VERTEX
  8
0
 10
145.62587155
 20
99.56585166
  0
VERTEX
  8
0
 10
145.77767265
 20
99.65708649
  0
VERTEX
  8
0
 10
145.92731713
 20
99.76961988
  0
VERTEX
  8
0
 10
146.07522417
 20
99.90355315
  0
VERTEX
  8
0
 10
146.22181298
 20
100.05898760
  0
VERTEX
  8
0
 10
146.51271264
 20
100.43476524
  0
VERTEX
  8
0
 10
146.80336962
 20
100.89776327
  0
VERTEX
  8
0
 10
147.09713746
 20
101.44879210
  0
VERTEX
  8
0
 10
147.39736969
 20
102.08866219
  0
VERTEX
  8
0
 10
147.70741983
 20
102.81818397
  0
SEQEND
  0
POLYLINE
  8
Calque_par_d_faut
 62
256
 66
   1
 39
0.000000
 70
    1
  0
VERTEX
  8
0
 10
167.99629569
 20
101.49605695
  0
VERTEX
  8
0
 10
168.47013508
 20
102.01077150
  0
VERTEX
  8
0
 10
168.87167185
 20
102.47379161
  0
VERTEX
  8
0
 10
169.19854495
 20
102.88949938
  0
VERTEX
  8
0
 10
169.44839333
 20
103.26227690
  0
VERTEX
  8
0
 10
169.61885594
 20
103.59650628
  0
VERTEX
  8
0
 10
169.67357976
 20
103.75053482
  0
VERTEX
  8
0
 10
169.70757174
 20
103.89656961
  0
VERTEX
  8
0
 10
169.72053675
 20
104.03515841
  0
VERTEX
  8
0
 10
169.71217966
 20
104.16684899
  0
VERTEX
  8
0
 10
169.68220534
 20
104.29218911
  0
VERTEX
  8
0
 10
169.63031867
 20
104.41172653
  0
VERTEX
  8
0
 10
169.55622450
 20
104.52600901
  0
VERTEX
  8
0
 10
169.45962770
 20
104.63558432
  0
VERTEX
  8
0
 10
169.34023315
 20
104.74100021
  0
VERTEX
  8
0
 10
169.19774572
 20
104.84280445
  0
VERTEX
  8
0
 10
168.84231166
 20
105.03776904
  0
VERTEX
  8
0
 10
168.39096448
 20
105.22486018
  0
VERTEX
  8
0
 10
167.84134313
 20
105.40845996
  0
VERTEX
  8
0
 10
167.19108656
 20
105.59295049
  0
VERTEX
  8
0
 10
166.43783371
 20
105.78271387
  0
VERTEX
  8
0
 10
165.57922355
 20
105.98213219
  0
VERTEX
  8
0
 10
164.27370174
 20
106.25956611
  0
VERTEX
  8
0
 10
163.74789529
 20
106.34859659
  0
VERTEX
  8
0
 10
163.30255896
 20
106.39806743
  0
VERTEX
  8
0
 10
162.93456812
 20
106.40315214
  0
VERTEX
  8
0
 10
162.77860081
 20
106.38754142
  0
VERTEX
  8
0
 10
162.64079813
 20
106.35902423
  0
VERTEX
  8
0
 10
162.52076951
 20
106.31699727
  0
VERTEX
  8
0
 10
162.41812436
 20
106.26085722
  0
VERTEX
  8
0
 10
162.33247211
 20
106.19000076
  0
VERTEX
  8
0
 10
162.26342217
 20
106.10382460
  0
VERTEX
  8
0
 10
162.21058396
 20
106.00172541
  0
VERTEX
  8
0
 10
162.17356691
 20
105.88309989
  0
VERTEX
  8
0
 10
162.15198044
 20
105.74734473
  0
VERTEX
  8
0
 10
162.14543397
 20
105.59385661
  0
VERTEX
  8
0
 10
162.17589870
 20
105.23126825
  0
VERTEX
  8
0
 10
162.26183646
 20
104.79050833
  0
VERTEX
  8
0
 10
162.40012262
 20
104.26675037
  0
VERTEX
  8
0
 10
162.58763255
 20
103.65516786
  0
VERTEX
  8
0
 10
163.09782514
 20
102.14922327
  0
VERTEX
  8
0
 10
163.33794231
 20
101.48015756
  0
VERTEX
  8
0
 10
163.56461438
 20
100.89782440
  0
VERTEX
  8
0
 10
163.78260922
 20
100.40158805
  0
VERTEX
  8
0
 10
163.99669471
 20
99.99081274
  0
VERTEX
  8
0
 10
164.21163872
 20
99.66486272
  0
VERTEX
  8
0
 10
164.32092263
 20
99.53349853
  0
VERTEX
  8
0
 10
164.43220912
 20
99.42310225
  0
VERTEX
  8
0
 10
164.54609417
 20
99.33359442
  0
VERTEX
  8
0
 10
164.66317377
 20
99.26489557
  0
VERTEX
  8
0
 10
164.78404390
 20
99.21692622
  0
VERTEX
  8
0
 10
164.90930054
 20
99.18960692
  0
VERTEX
  8
0
 10
165.03953969
 20
99.18285819
  0
VERTEX
  8
0
 10
165.17535731
 20
99.19660057
  0
VERTEX
  8
0
 10
165.31734941
 20
99.23075457
  0
VERTEX
  8
0
 10
165.46611195
 20
99.28524075
  0
VERTEX
  8
0
 10
165.78633233
 20
99.45489171
  0
VERTEX
  8
0
 10
166.14078631
 20
99.70491770
  0
VERTEX
  8
0
 10
166.53424177
 20
100.03468297
  0
VERTEX
  8
0
 10
166.97146657
 20
100.44355177
  0
VERTEX
  8
0
 10
167.45722859
 20
100.93088835
  0
VERTEX
  8
0
 10
167.99629569
 20
101.49605695
  0
SEQEND
  0
POLYLINE
  8
Calque_par_d_faut
 62
256
 66
   1
 39
0.000000
 70
    1
  0
VERTEX
  8
0
 10
189.75516647
 20
100.25000000
  0
VERTEX
  8
0
 10
189.97013505
 20
100.54702148
  0
VERTEX
  8
0
 10
190.19789710
 20
100.91289063
  0
VERTEX
  8
0
 10
190.43152167
 20
101.33325195
  0
VERTEX
  8
0
 10
190.66407780
 20
101.79375000
  0
VERTEX
  8
0
 10
190.88863453
 20
102.28002930
  0
VERTEX
  8
0
 10
191.09826092
 20
102.77773437
  0
VERTEX
  8
0
 10
191.28602602
 20
103.27250977
  0
VERTEX
  8
0
 10
191.44499886
 20
103.75000000
  0
VERTEX
  8
0
 10
191.61445996
 20
104.36745392
  0
VERTEX
  8
0
 10
191.66868534
 20
104.63119399
  0
VERTEX
  8
0
 10
191.70150118
 20
104.86678178
  0
VERTEX
  8
0
 10
191.71210294
 20
105.07559653
  0
VERTEX
  8
0
 10
191.69968604
 20
105.25901748
  0
VERTEX
  8
0
 10
191.66344592
 20
105.41842386
  0
VERTEX
  8
0
 10
191.60257802
 20
105.55519492
  0
VERTEX
  8
0
 10
191.51627778
 20
105.67070988
  0
VERTEX
  8
0
 10
191.40374064
 20
105.76634799
  0
VERTEX
  8
0
 10
191.26416203
 20
105.84348848
  0
VERTEX
  8
0
 10
191.09673740
 20
105.90351059
  0
VERTEX
  8
0
 10
190.90066217
 20
105.94779357
  0
VERTEX
  8
0
 10
190.67513179
 20
105.97771663
  0
VERTEX
  8
0
 10
190.13248733
 20
106.00000000
  0
VERTEX
  8
0
 10
189.67494469
 20
105.97896539
  0
VERTEX
  8
0
 10
189.14114756
 20
105.91867959
  0
VERTEX
  8
0
 10
188.55042645
 20
105.82336966
  0
VERTEX
  8
0
 10
187.92211184
 20
105.69726264
  0
VERTEX
  8
0
 10
187.27553423
 20
105.54458559
  0
VERTEX
  8
0
 10
186.63002412
 20
105.36956556
  0
VERTEX
  8
0
 10
186.00491201
 20
105.17642959
  0
VERTEX
  8
0
 10
185.41952838
 20
104.96940475
  0
VERTEX
  8
0
 10
182.70885744
 20
103.93880949
  0
VERTEX
  8
0
 10
185.02874275
 20
101.46940475
  0
VERTEX
  8
0
 10
185.93054158
 20
100.53949814
  0
VERTEX
  8
0
 10
186.32260790
 20
100.16442843
  0
VERTEX
  8
0
 10
186.68068539
 20
99.84793095
  0
VERTEX
  8
0
 10
187.00869902
 20
99.58899309
  0
VERTEX
  8
0
 10
187.31057371
 20
99.38660220
  0
VERTEX
  8
0
 10
187.59023441
 20
99.23974567
  0
VERTEX
  8
0
 10
187.85160606
 20
99.14741088
  0
VERTEX
  8
0
 10
188.09861360
 20
99.10858519
  0
VERTEX
  8
0
 10
188.33518198
 20
99.12225599
  0
VERTEX
  8
0
 10
188.56523613
 20
99.18741065
  0
VERTEX
  8
0
 10
188.79270100
 20
99.30303655
  0
VERTEX
  8
0
 10
189.02150152
 20
99.46812105
  0
VERTEX
  8
0
 10
189.25556265
 20
99.68165155
  0
VERTEX
  8
0
 10
189.49880932
 20
99.94261541
  0
VERTEX
  8
0
 10
189.75516647
 20
100.25000000
  0
SEQEND
  0
POLYLINE
  8
Calque_par_d_faut
 62
256
 66
   1
 39
0.000000
 70
    1
  0
VERTEX
  8
0
 10
53.00000000
 20
110.50624713
  0
VERTEX
  8
0
 10
53.56998972
 20
110.77252911
  0
VERTEX
  8
0
 10
54.23279071
 20
111.04918087
  0
VERTEX
  8
0
 10
54.96452569
 20
111.32812858
  0
VERTEX
  8
0
 10
55.74131740
 20
111.60129842
  0
VERTEX
  8
0
 10
56.53928856
 20
111.86061656
  0
VERTEX
  8
0
 10
57.33456190
 20
112.09800917
  0
VERTEX
  8
0
 10
58.10326015
 20
112.30540244
  0
VERTEX
  8
0
 10
58.82150604
 20
112.47472254
  0
VERTEX
  8
0
 10
59.55001774
 20
112.63780748
  0
VERTEX
  8
0
 10
60.16684498
 20
112.79258396
  0
VERTEX
  8
0
 10
60.66739073
 20
112.94329727
  0
VERTEX
  8
0
 10
61.04705794
 20
113.09419267
  0
VERTEX
  8
0
 10
61.19012552
 20
113.17103530
  0
VERTEX
  8
0
 10
61.30124958
 20
113.24951543
  0
VERTEX
  8
0
 10
61.37985548
 20
113.33016372
  0
VERTEX
  8
0
 10
61.42536860
 20
113.41351083
  0
VERTEX
  8
0
 10
61.43721430
 20
113.50008741
  0
VERTEX
  8
0
 10
61.41481795
 20
113.59042413
  0
VERTEX
  8
0
 10
61.35760493
 20
113.68505164
  0
VERTEX
  8
0
 10
61.26500060
 20
113.78450060
  0
VERTEX
  8
0
 10
61.13643034
 20
113.88930167
  0
VERTEX
  8
0
 10
60.97131951
 20
113.99998552
  0
VERTEX
  8
0
 10
60.52917763
 20
114.24112415
  0
VERTEX
  8
0
 10
59.93397793
 20
114.51216176
  0
VERTEX
  8
0
 10
59.18112335
 20
114.81734364
  0
VERTEX
  8
0
 10
58.26601686
 20
115.16091503
  0
VERTEX
  8
0
 10
57.18406141
 20
115.54712123
  0
VERTEX
  8
0
 10
54.50121550
 20
116.46441909
  0
VERTEX
  8
0
 10
47.91809582
 20
118.67984003
  0
VERTEX
  8
0
 10
40.36325168
 20
116.01323087
  0
VERTEX
  8
0
 10
32.80840754
 20
113.34662172
  0
VERTEX
  8
0
 10
39.65420377
 20
110.76099619
  0
VERTEX
  8
0
 10
40.87871354
 20
110.30676120
  0
VERTEX
  8
0
 10
41.99683591
 20
109.91200511
  0
VERTEX
  8
0
 10
43.02021397
 20
109.57650569
  0
VERTEX
  8
0
 10
43.96049080
 20
109.30004069
  0
VERTEX
  8
0
 10
44.82930949
 20
109.08238786
  0
VERTEX
  8
0
 10
45.63831312
 20
108.92332494
  0
VERTEX
  8
0
 10
46.39914478
 20
108.82262971
  0
VERTEX
  8
0
 10
47.12344756
 20
108.78007989
  0
VERTEX
  8
0
 10
47.82286453
 20
108.79545326
  0
VERTEX
  8
0
 10
48.50903878
 20
108.86852757
  0
VERTEX
  8
0
 10
49.19361340
 20
108.99908055
  0
VERTEX
  8
0
 10
49.88823148
 20
109.18688998
  0
VERTEX
  8
0
 10
50.60453609
 20
109.43173360
  0
VERTEX
  8
0
 10
51.35417032
 20
109.73338916
  0
VERTEX
  8
0
 10
52.14877727
 20
110.09163442
  0
VERTEX
  8
0
 10
53.00000000
 20
110.50624713
  0
SEQEND
  0
POLYLINE
  8
Calque_par_d_faut
 62
256
 66
   1
 39
0.000000
 70
    1
  0
VERTEX
  8
0
 10
97.39137061
 20
110.83634312
  0
VERTEX
  8
0
 10
105.17111989
 20
113.67268623
  0
VERTEX
  8
0
 10
98.09613088
 20
116.19444905
  0
VERTEX
  8
0
 10
91.02114187
 20
118.71621186
  0
VERTEX
  8
0
 10
83.41477471
 20
116.03141679
  0
VERTEX
  8
0
 10
75.80840754
 20
113.34662172
  0
VERTEX
  8
0
 10
82.65420377
 20
110.75095771
  0
VERTEX
  8
0
 10
87.50544174
 20
108.89496123
  0
VERTEX
  8
0
 10
88.99396432
 20
108.31260977
  0
VERTEX
  8
0
 10
89.55581067
 20
108.07764684
  0
VERTEX
  8
0
 10
89.72580775
 20
108.11993944
  0
VERTEX
  8
0
 10
90.19135174
 20
108.27130323
  0
VERTEX
  8
0
 10
91.88052830
 20
108.85598455
  0
VERTEX
  8
0
 10
94.36623603
 20
109.74117109
  0
VERTEX
  8
0
 10
97.39137061
 20
110.83634312
  0
SEQEND
  0
POLYLINE
  8
Calque_par_d_faut
 62
256
 66
   1
 39
0.000000
 70
    1
  0
VERTEX
  8
0
 10
140.55581067
 20
110.91574968
  0
VERTEX
  8
0
 10
142.12101550
 20
111.51110625
  0
VERTEX
  8
0
 10
143.52203106
 20
112.08516446
  0
VERTEX
  8
0
 10
144.73242610
 20
112.62402716
  0
VERTEX
  8
0
 10
145.72576938
 20
113.11379720
  0
VERTEX
  8
0
 10
146.13278685
 20
113.33592961
  0
VERTEX
  8
0
 10
146.47562966
 20
113.54057742
  0
VERTEX
  8
0
 10
146.75099391
 20
113.72600349
  0
VERTEX
  8
0
 10
146.95557569
 20
113.89047067
  0
VERTEX
  8
0
 10
147.08607109
 20
114.03224182
  0
VERTEX
  8
0
 10
147.12250393
 20
114.09407353
  0
VERTEX
  8
0
 10
147.13917621
 20
114.14957980
  0
VERTEX
  8
0
 10
147.13567495
 20
114.19854349
  0
VERTEX
  8
0
 10
147.11158715
 20
114.24074746
  0
VERTEX
  8
0
 10
147.06649983
 20
114.27597457
  0
VERTEX
  8
0
 10
147.00000000
 20
114.30400766
  0
VERTEX
  8
0
 10
144.32500000
 20
115.21460533
  0
VERTEX
  8
0
 10
140.00000000
 20
116.74039231
  0
VERTEX
  8
0
 10
134.50000000
 20
118.70426866
  0
VERTEX
  8
0
 10
126.59192547
 20
116.04825758
  0
VERTEX
  8
0
 10
118.68385094
 20
113.39224651
  0
VERTEX
  8
0
 10
125.59192547
 20
110.77377010
  0
VERTEX
  8
0
 10
130.48714749
 20
108.90166237
  0
VERTEX
  8
0
 10
131.98905017
 20
108.31440981
  0
VERTEX
  8
0
 10
132.55581067
 20
108.07764684
  0
VERTEX
  8
0
 10
132.72916400
 20
108.12156014
  0
VERTEX
  8
0
 10
133.20432709
 20
108.27756890
  0
VERTEX
  8
0
 10
134.92883257
 20
108.87931023
  0
VERTEX
  8
0
 10
137.46682709
 20
109.78974557
  0
VERTEX
  8
0
 10
140.55581067
 20
110.91574968
  0
SEQEND
  0
POLYLINE
  8
Calque_par_d_faut
 62
256
 66
   1
 39
0.000000
 70
    1
  0
VERTEX
  8
0
 10
183.55581067
 20
110.91574968
  0
VERTEX
  8
0
 10
185.12101550
 20
111.51110625
  0
VERTEX
  8
0
 10
186.52203106
 20
112.08516446
  0
VERTEX
  8
0
 10
187.73242610
 20
112.62402716
  0
VERTEX
  8
0
 10
188.72576938
 20
113.11379720
  0
VERTEX
  8
0
 10
189.13278685
 20
113.33592961
  0
VERTEX
  8
0
 10
189.47562966
 20
113.54057742
  0
VERTEX
  8
0
 10
189.75099391
 20
113.72600349
  0
VERTEX
  8
0
 10
189.95557569
 20
113.89047067
  0
VERTEX
  8
0
 10
190.08607109
 20
114.03224182
  0
VERTEX
  8
0
 10
190.12250393
 20
114.09407353
  0
VERTEX
  8
0
 10
190.13917621
 20
114.14957980
  0
VERTEX
  8
0
 10
190.13567495
 20
114.19854349
  0
VERTEX
  8
0
 10
190.11158715
 20
114.24074746
  0
VERTEX
  8
0
 10
190.06649983
 20
114.27597457
  0
VERTEX
  8
0
 10
190.00000000
 20
114.30400766
  0
VERTEX
  8
0
 10
187.32500000
 20
115.21460533
  0
VERTEX
  8
0
 10
183.00000000
 20
116.74039231
  0
VERTEX
  8
0
 10
177.50000000
 20
118.70426866
  0
VERTEX
  8
0
 10
169.59192547
 20
116.04825758
  0
VERTEX
  8
0
 10
161.68385094
 20
113.39224651
  0
VERTEX
  8
0
 10
168.59192547
 20
110.77377010
  0
VERTEX
  8
0
 10
173.48714749
 20
108.90166237
  0
VERTEX
  8
0
 10
174.98905017
 20
108.31440981
  0
VERTEX
  8
0
 10
175.55581067
 20
108.07764684
  0
VERTEX
  8
0
 10
175.72916400
 20
108.12156014
  0
VERTEX
  8
0
 10
176.20432709
 20
108.27756890
  0
VERTEX
  8
0
 10
177.92883257
 20
108.87931023
  0
VERTEX
  8
0
 10
180.46682709
 20
109.78974557
  0
VERTEX
  8
0
 10
183.55581067
 20
110.91574968
  0
SEQEND
  0
POLYLINE
  8
Calque_par_d_faut
 62
256
 66
   1
 39
0.000000
 70
    1
  0
VERTEX
  8
0
 10
40.46363636
 20
123.08439908
  0
VERTEX
  8
0
 10
40.56419914
 20
123.20528172
  0
VERTEX
  8
0
 10
40.63596522
 20
123.34249498
  0
VERTEX
  8
0
 10
40.67916121
 20
123.49556102
  0
VERTEX
  8
0
 10
40.69401374
 20
123.66400199
  0
VERTEX
  8
0
 10
40.68074940
 20
123.84734007
  0
VERTEX
  8
0
 10
40.63959481
 20
124.04509742
  0
VERTEX
  8
0
 10
40.57077658
 20
124.25679619
  0
VERTEX
  8
0
 10
40.47452132
 20
124.48195855
  0
VERTEX
  8
0
 10
40.35105564
 20
124.72010666
  0
VERTEX
  8
0
 10
40.20060615
 20
124.97076269
  0
VERTEX
  8
0
 10
39.81966218
 20
125.50768712
  0
VERTEX
  8
0
 10
39.33350230
 20
126.08890915
  0
VERTEX
  8
0
 10
38.74393939
 20
126.71060606
  0
VERTEX
  8
0
 10
38.18934040
 20
127.25539387
  0
VERTEX
  8
0
 10
37.69187618
 20
127.71908736
  0
VERTEX
  8
0
 10
37.24721809
 20
128.09950931
  0
VERTEX
  8
0
 10
36.85103753
 20
128.39448253
  0
VERTEX
  8
0
 10
36.49900586
 20
128.60182981
  0
VERTEX
  8
0
 10
36.33819317
 20
128.67196335
  0
VERTEX
  8
0
 10
36.18679447
 20
128.71937395
  0
VERTEX
  8
0
 10
36.04426869
 20
128.74378947
  0
VERTEX
  8
0
 10
35.91007474
 20
128.74493775
  0
VERTEX
  8
0
 10
35.78367155
 20
128.72254665
  0
VERTEX
  8
0
 10
35.66451804
 20
128.67634401
  0
VERTEX
  8
0
 10
35.55207314
 20
128.60605768
  0
VERTEX
  8
0
 10
35.44579576
 20
128.51141552
  0
VERTEX
  8
0
 10
35.34514483
 20
128.39214537
  0
VERTEX
  8
0
 10
35.24957927
 20
128.24797509
  0
VERTEX
  8
0
 10
35.07153995
 20
127.88384550
  0
VERTEX
  8
0
 10
34.90734919
 20
127.41684956
  0
VERTEX
  8
0
 10
34.75267835
 20
126.84481007
  0
VERTEX
  8
0
 10
34.60319882
 20
126.16554982
  0
VERTEX
  8
0
 10
34.45458198
 20
125.37689161
  0
VERTEX
  8
0
 10
34.30249921
 20
124.47665824
  0
VERTEX
  8
0
 10
34.10782822
 20
123.23952863
  0
VERTEX
  8
0
 10
34.04059399
 20
122.74120419
  0
VERTEX
  8
0
 10
33.99782994
 20
122.31717720
  0
VERTEX
  8
0
 10
33.98283808
 20
121.96305059
  0
VERTEX
  8
0
 10
33.99892039
 20
121.67442728
  0
VERTEX
  8
0
 10
34.04937888
 20
121.44691020
  0
VERTEX
  8
0
 10
34.08853106
 20
121.35469240
  0
VERTEX
  8
0
 10
34.13751554
 20
121.27610225
  0
VERTEX
  8
0
 10
34.19674506
 20
121.21059012
  0
VERTEX
  8
0
 10
34.26663238
 20
121.15760637
  0
VERTEX
  8
0
 10
34.34759024
 20
121.11660137
  0
VERTEX
  8
0
 10
34.44003140
 20
121.08702547
  0
VERTEX
  8
0
 10
34.66101459
 20
121.05996247
  0
VERTEX
  8
0
 10
34.93288395
 20
121.07202029
  0
VERTEX
  8
0
 10
35.25894149
 20
121.11880186
  0
VERTEX
  8
0
 10
35.64248920
 20
121.19591009
  0
VERTEX
  8
0
 10
36.59526313
 20
121.42351821
  0
VERTEX
  8
0
 10
37.19843146
 20
121.58699491
  0
VERTEX
  8
0
 10
37.79915492
 20
121.77670558
  0
VERTEX
  8
0
 10
38.38156714
 20
121.98583799
  0
VERTEX
  8
0
 10
38.92980173
 20
122.20757995
  0
VERTEX
  8
0
 10
39.42799232
 20
122.43511924
  0
VERTEX
  8
0
 10
39.86027254
 20
122.66164367
  0
VERTEX
  8
0
 10
40.21077601
 20
122.88034102
  0
VERTEX
  8
0
 10
40.46363636
 20
123.08439908
  0
SEQEND
  0
POLYLINE
  8
Calque_par_d_faut
 62
256
 66
   1
 39
0.000000
 70
    1
  0
VERTEX
  8
0
 10
61.98634532
 20
122.75000000
  0
VERTEX
  8
0
 10
61.97146493
 20
123.14681317
  0
VERTEX
  8
0
 10
61.93411972
 20
123.60452697
  0
VERTEX
  8
0
 10
61.80201528
 20
124.63755213
  0
VERTEX
  8
0
 10
61.60999291
 20
125.71886686
  0
VERTEX
  8
0
 10
61.49775027
 20
126.23694263
  0
VERTEX
  8
0
 10
61.37801348
 20
126.71826256
  0
VERTEX
  8
0
 10
60.78333633
 20
128.93652512
  0
VERTEX
  8
0
 10
57.39166816
 20
126.34957370
  0
VERTEX
  8
0
 10
56.71718077
 20
125.82555451
  0
VERTEX
  8
0
 10
56.12231659
 20
125.34214168
  0
VERTEX
  8
0
 10
55.60635301
 20
124.89728396
  0
VERTEX
  8
0
 10
55.16856745
 20
124.48893008
  0
VERTEX
  8
0
 10
54.80823730
 20
124.11502879
  0
VERTEX
  8
0
 10
54.52463997
 20
123.77352883
  0
VERTEX
  8
0
 10
54.31705285
 20
123.46237894
  0
VERTEX
  8
0
 10
54.18475336
 20
123.17952787
  0
VERTEX
  8
0
 10
54.14661066
 20
123.04807337
  0
VERTEX
  8
0
 10
54.12701889
 20
122.92292435
  0
VERTEX
  8
0
 10
54.12588772
 20
122.80382440
  0
VERTEX
  8
0
 10
54.14312684
 20
122.69051712
  0
VERTEX
  8
0
 10
54.17864591
 20
122.58274610
  0
VERTEX
  8
0
 10
54.23235462
 20
122.48025493
  0
VERTEX
  8
0
 10
54.30416263
 20
122.38278721
  0
VERTEX
  8
0
 10
54.39397963
 20
122.29008652
  0
VERTEX
  8
0
 10
54.62727927
 20
122.11796063
  0
VERTEX
  8
0
 10
54.93153094
 20
121.96182601
  0
VERTEX
  8
0
 10
55.30601205
 20
121.81963139
  0
VERTEX
  8
0
 10
55.75000000
 20
121.68932551
  0
VERTEX
  8
0
 10
56.48665961
 20
121.50792707
  0
VERTEX
  8
0
 10
57.17966995
 20
121.35999667
  0
VERTEX
  8
0
 10
57.82847334
 20
121.24543945
  0
VERTEX
  8
0
 10
58.43251212
 20
121.16416058
  0
VERTEX
  8
0
 10
58.99122861
 20
121.11606520
  0
VERTEX
  8
0
 10
59.50406514
 20
121.10105847
  0
VERTEX
  8
0
 10
59.97046405
 20
121.11904554
  0
VERTEX
  8
0
 10
60.38986766
 20
121.16993155
  0
VERTEX
  8
0
 10
60.76171830
 20
121.25362166
  0
VERTEX
  8
0
 10
61.08545831
 20
121.37002103
  0
VERTEX
  8
0
 10
61.36053000
 20
121.51903480
  0
VERTEX
  8
0
 10
61.58637571
 20
121.70056812
  0
VERTEX
  8
0
 10
61.76243776
 20
121.91452615
  0
VERTEX
  8
0
 10
61.88815850
 20
122.16081404
  0
VERTEX
  8
0
 10
61.96298024
 20
122.43933694
  0
VERTEX
  8
0
 10
61.98634532
 20
122.75000000
  0
SEQEND
  0
POLYLINE
  8
Calque_par_d_faut
 62
256
 66
   1
 39
0.000000
 70
    1
  0
VERTEX
  8
0
 10
83.43675606
 20
123.05751878
  0
VERTEX
  8
0
 10
83.53177803
 20
123.17236073
  0
VERTEX
  8
0
 10
83.60033984
 20
123.30446370
  0
VERTEX
  8
0
 10
83.64276371
 20
123.45306659
  0
VERTEX
  8
0
 10
83.65937188
 20
123.61740827
  0
VERTEX
  8
0
 10
83.65048658
 20
123.79672763
  0
VERTEX
  8
0
 10
83.61643006
 20
123.99026356
  0
VERTEX
  8
0
 10
83.55752453
 20
124.19725495
  0
VERTEX
  8
0
 10
83.47409223
 20
124.41694068
  0
VERTEX
  8
0
 10
83.36645541
 20
124.64855963
  0
VERTEX
  8
0
 10
83.23493628
 20
124.89135069
  0
VERTEX
  8
0
 10
82.90154006
 20
125.40740471
  0
VERTEX
  8
0
 10
82.47648144
 20
125.95901380
  0
VERTEX
  8
0
 10
81.96233828
 20
126.54008906
  0
VERTEX
  8
0
 10
81.20782216
 20
127.32845672
  0
VERTEX
  8
0
 10
80.60585786
 20
127.90563032
  0
VERTEX
  8
0
 10
80.35135676
 20
128.11741113
  0
VERTEX
  8
0
 10
80.12212255
 20
128.27926356
  0
VERTEX
  8
0
 10
79.91386489
 20
128.39214432
  0
VERTEX
  8
0
 10
79.72229342
 20
128.45701012
  0
VERTEX
  8
0
 10
79.54311778
 20
128.47481767
  0
VERTEX
  8
0
 10
79.37204764
 20
128.44652369
  0
VERTEX
  8
0
 10
79.20479262
 20
128.37308488
  0
VERTEX
  8
0
 10
79.03706239
 20
128.25545796
  0
VERTEX
  8
0
 10
78.86456659
 20
128.09459964
  0
VERTEX
  8
0
 10
78.68301486
 20
127.89146663
  0
VERTEX
  8
0
 10
78.27558222
 20
127.36220336
  0
VERTEX
  8
0
 10
78.01934466
 20
126.96244059
  0
VERTEX
  8
0
 10
77.78029756
 20
126.49412286
  0
VERTEX
  8
0
 10
77.56367281
 20
125.97431982
  0
VERTEX
  8
0
 10
77.37470228
 20
125.42010110
  0
VERTEX
  8
0
 10
77.21861785
 20
124.84853635
  0
VERTEX
  8
0
 10
77.10065141
 20
124.27669522
  0
VERTEX
  8
0
 10
77.02603483
 20
123.72164733
  0
VERTEX
  8
0
 10
77.00000000
 20
123.20046234
  0
VERTEX
  8
0
 10
77.01854198
 20
122.48819234
  0
VERTEX
  8
0
 10
77.04564518
 20
122.19584570
  0
VERTEX
  8
0
 10
77.08812606
 20
121.94381910
  0
VERTEX
  8
0
 10
77.14860178
 20
121.73045839
  0
VERTEX
  8
0
 10
77.22968949
 20
121.55410944
  0
VERTEX
  8
0
 10
77.33400635
 20
121.41311809
  0
VERTEX
  8
0
 10
77.46416950
 20
121.30583022
  0
VERTEX
  8
0
 10
77.62279611
 20
121.23059166
  0
VERTEX
  8
0
 10
77.81250332
 20
121.18574828
  0
VERTEX
  8
0
 10
78.03590830
 20
121.16964594
  0
VERTEX
  8
0
 10
78.29562819
 20
121.18063049
  0
VERTEX
  8
0
 10
78.59428015
 20
121.21704778
  0
VERTEX
  8
0
 10
78.93448134
 20
121.27724367
  0
VERTEX
  8
0
 10
79.75000000
 20
121.46235469
  0
VERTEX
  8
0
 10
80.32153633
 20
121.61748134
  0
VERTEX
  8
0
 10
80.89168935
 20
121.79834156
  0
VERTEX
  8
0
 10
81.44533759
 20
121.99839269
  0
VERTEX
  8
0
 10
81.96735959
 20
122.21109208
  0
VERTEX
  8
0
 10
82.44263390
 20
122.42989704
  0
VERTEX
  8
0
 10
82.85603906
 20
122.64826493
  0
VERTEX
  8
0
 10
83.19245360
 20
122.85965306
  0
VERTEX
  8
0
 10
83.43675606
 20
123.05751878
  0
SEQEND
  0
POLYLINE
  8
Calque_par_d_faut
 62
256
 66
   1
 39
0.000000
 70
    1
  0
VERTEX
  8
0
 10
104.92971474
 20
123.25000000
  0
VERTEX
  8
0
 10
104.90159338
 20
123.73730294
  0
VERTEX
  8
0
 10
104.84829010
 20
124.26020184
  0
VERTEX
  8
0
 10
104.77290708
 20
124.80236930
  0
VERTEX
  8
0
 10
104.67854651
 20
125.34747790
  0
VERTEX
  8
0
 10
104.56831057
 20
125.87920026
  0
VERTEX
  8
0
 10
104.44530145
 20
126.38120897
  0
VERTEX
  8
0
 10
104.31262134
 20
126.83717663
  0
VERTEX
  8
0
 10
104.17337241
 20
127.23077584
  0
VERTEX
  8
0
 10
104.06116582
 20
127.49506105
  0
VERTEX
  8
0
 10
103.94747808
 20
127.71831325
  0
VERTEX
  8
0
 10
103.82855640
 20
127.89920976
  0
VERTEX
  8
0
 10
103.70064802
 20
128.03642791
  0
VERTEX
  8
0
 10
103.56000016
 20
128.12864506
  0
VERTEX
  8
0
 10
103.40286003
 20
128.17453851
  0
VERTEX
  8
0
 10
103.22547488
 20
128.17278563
  0
VERTEX
  8
0
 10
103.02409191
 20
128.12206372
  0
VERTEX
  8
0
 10
102.79495835
 20
128.02105014
  0
VERTEX
  8
0
 10
102.53432142
 20
127.86842222
  0
VERTEX
  8
0
 10
102.23842836
 20
127.66285729
  0
VERTEX
  8
0
 10
101.90352637
 20
127.40303268
  0
VERTEX
  8
0
 10
101.10168454
 20
126.71531377
  0
VERTEX
  8
0
 10
100.09877372
 20
125.79468418
  0
VERTEX
  8
0
 10
99.07801429
 20
124.82656025
  0
VERTEX
  8
0
 10
98.32116413
 20
124.06242782
  0
VERTEX
  8
0
 10
98.03770367
 20
123.74638263
  0
VERTEX
  8
0
 10
97.81541892
 20
123.46876437
  0
VERTEX
  8
0
 10
97.65270933
 20
123.22538272
  0
VERTEX
  8
0
 10
97.54797435
 20
123.01204738
  0
VERTEX
  8
0
 10
97.49961346
 20
122.82456802
  0
VERTEX
  8
0
 10
97.50602610
 20
122.65875433
  0
VERTEX
  8
0
 10
97.56561174
 20
122.51041599
  0
VERTEX
  8
0
 10
97.67676984
 20
122.37536270
  0
VERTEX
  8
0
 10
97.83789986
 20
122.24940412
  0
VERTEX
  8
0
 10
98.04740126
 20
122.12834996
  0
VERTEX
  8
0
 10
98.30367350
 20
122.00800989
  0
VERTEX
  8
0
 10
98.60511604
 20
121.88419361
  0
VERTEX
  8
0
 10
99.32645594
 20
121.61848000
  0
VERTEX
  8
0
 10
100.01149113
 20
121.40112474
  0
VERTEX
  8
0
 10
100.65868540
 20
121.23179607
  0
VERTEX
  8
0
 10
101.26650255
 20
121.11016227
  0
VERTEX
  8
0
 10
101.83340637
 20
121.03589158
  0
VERTEX
  8
0
 10
102.35786067
 20
121.00865225
  0
VERTEX
  8
0
 10
102.83832924
 20
121.02811254
  0
VERTEX
  8
0
 10
103.27327587
 20
121.09394070
  0
VERTEX
  8
0
 10
103.66116436
 20
121.20580499
  0
VERTEX
  8
0
 10
103.83698174
 20
121.27889701
  0
VERTEX
  8
0
 10
104.00045850
 20
121.36337366
  0
VERTEX
  8
0
 10
104.15140264
 20
121.45919348
  0
VERTEX
  8
0
 10
104.28962210
 20
121.56631498
  0
VERTEX
  8
0
 10
104.41492488
 20
121.68469670
  0
VERTEX
  8
0
 10
104.52711895
 20
121.81429718
  0
VERTEX
  8
0
 10
104.62601228
 20
121.95507495
  0
VERTEX
  8
0
 10
104.71141284
 20
122.10698853
  0
VERTEX
  8
0
 10
104.78312861
 20
122.26999646
  0
VERTEX
  8
0
 10
104.84096757
 20
122.44405728
  0
VERTEX
  8
0
 10
104.88473769
 20
122.62912951
  0
VERTEX
  8
0
 10
104.91424694
 20
122.82517168
  0
VERTEX
  8
0
 10
104.92930330
 20
123.03214234
  0
VERTEX
  8
0
 10
104.92971474
 20
123.25000000
  0
SEQEND
  0
POLYLINE
  8
Calque_par_d_faut
 62
256
 66
   1
 39
0.000000
 70
    1
  0
VERTEX
  8
0
 10
126.43675606
 20
123.05751878
  0
VERTEX
  8
0
 10
126.53177803
 20
123.17236073
  0
VERTEX
  8
0
 10
126.60033984
 20
123.30446370
  0
VERTEX
  8
0
 10
126.64276371
 20
123.45306659
  0
VERTEX
  8
0
 10
126.65937188
 20
123.61740827
  0
VERTEX
  8
0
 10
126.65048658
 20
123.79672763
  0
VERTEX
  8
0
 10
126.61643006
 20
123.99026356
  0
VERTEX
  8
0
 10
126.55752453
 20
124.19725495
  0
VERTEX
  8
0
 10
126.47409223
 20
124.41694068
  0
VERTEX
  8
0
 10
126.36645541
 20
124.64855963
  0
VERTEX
  8
0
 10
126.23493628
 20
124.89135069
  0
VERTEX
  8
0
 10
125.90154006
 20
125.40740471
  0
VERTEX
  8
0
 10
125.47648144
 20
125.95901380
  0
VERTEX
  8
0
 10
124.96233828
 20
126.54008906
  0
VERTEX
  8
0
 10
124.20782216
 20
127.32845672
  0
VERTEX
  8
0
 10
123.60585786
 20
127.90563032
  0
VERTEX
  8
0
 10
123.35135676
 20
128.11741113
  0
VERTEX
  8
0
 10
123.12212255
 20
128.27926356
  0
VERTEX
  8
0
 10
122.91386489
 20
128.39214432
  0
VERTEX
  8
0
 10
122.72229342
 20
128.45701012
  0
VERTEX
  8
0
 10
122.54311778
 20
128.47481767
  0
VERTEX
  8
0
 10
122.37204764
 20
128.44652369
  0
VERTEX
  8
0
 10
122.20479262
 20
128.37308488
  0
VERTEX
  8
0
 10
122.03706239
 20
128.25545796
  0
VERTEX
  8
0
 10
121.86456659
 20
128.09459964
  0
VERTEX
  8
0
 10
121.68301486
 20
127.89146663
  0
VERTEX
  8
0
 10
121.27558222
 20
127.36220336
  0
VERTEX
  8
0
 10
121.01934466
 20
126.96244059
  0
VERTEX
  8
0
 10
120.78029756
 20
126.49412286
  0
VERTEX
  8
0
 10
120.56367281
 20
125.97431982
  0
VERTEX
  8
0
 10
120.37470228
 20
125.42010110
  0
VERTEX
  8
0
 10
120.21861785
 20
124.84853635
  0
VERTEX
  8
0
 10
120.10065141
 20
124.27669522
  0
VERTEX
  8
0
 10
120.02603483
 20
123.72164733
  0
VERTEX
  8
0
 10
120.00000000
 20
123.20046234
  0
VERTEX
  8
0
 10
120.01854198
 20
122.48819234
  0
VERTEX
  8
0
 10
120.04564518
 20
122.19584570
  0
VERTEX
  8
0
 10
120.08812606
 20
121.94381910
  0
VERTEX
  8
0
 10
120.14860178
 20
121.73045839
  0
VERTEX
  8
0
 10
120.22968949
 20
121.55410944
  0
VERTEX
  8
0
 10
120.33400635
 20
121.41311809
  0
VERTEX
  8
0
 10
120.46416950
 20
121.30583022
  0
VERTEX
  8
0
 10
120.62279611
 20
121.23059166
  0
VERTEX
  8
0
 10
120.81250332
 20
121.18574828
  0
VERTEX
  8
0
 10
121.03590830
 20
121.16964594
  0
VERTEX
  8
0
 10
121.29562819
 20
121.18063049
  0
VERTEX
  8
0
 10
121.59428015
 20
121.21704778
  0
VERTEX
  8
0
 10
121.93448134
 20
121.27724367
  0
VERTEX
  8
0
 10
122.75000000
 20
121.46235469
  0
VERTEX
  8
0
 10
123.32153633
 20
121.61748134
  0
VERTEX
  8
0
 10
123.89168935
 20
121.79834156
  0
VERTEX
  8
0
 10
124.44533759
 20
121.99839269
  0
VERTEX
  8
0
 10
124.96735959
 20
122.21109208
  0
VERTEX
  8
0
 10
125.44263390
 20
122.42989704
  0
VERTEX
  8
0
 10
125.85603906
 20
122.64826493
  0
VERTEX
  8
0
 10
126.19245360
 20
122.85965306
  0
VERTEX
  8
0
 10
126.43675606
 20
123.05751878
  0
SEQEND
  0
POLYLINE
  8
Calque_par_d_faut
 62
256
 66
   1
 39
0.000000
 70
    1
  0
VERTEX
  8
0
 10
147.92971474
 20
123.25000000
  0
VERTEX
  8
0
 10
147.90159338
 20
123.73730294
  0
VERTEX
  8
0
 10
147.84829010
 20
124.26020184
  0
VERTEX
  8
0
 10
147.77290708
 20
124.80236930
  0
VERTEX
  8
0
 10
147.67854651
 20
125.34747790
  0
VERTEX
  8
0
 10
147.56831057
 20
125.87920026
  0
VERTEX
  8
0
 10
147.44530145
 20
126.38120897
  0
VERTEX
  8
0
 10
147.31262134
 20
126.83717663
  0
VERTEX
  8
0
 10
147.17337241
 20
127.23077584
  0
VERTEX
  8
0
 10
147.06116582
 20
127.49506105
  0
VERTEX
  8
0
 10
146.94747808
 20
127.71831325
  0
VERTEX
  8
0
 10
146.82855640
 20
127.89920976
  0
VERTEX
  8
0
 10
146.70064802
 20
128.03642791
  0
VERTEX
  8
0
 10
146.56000016
 20
128.12864506
  0
VERTEX
  8
0
 10
146.40286003
 20
128.17453851
  0
VERTEX
  8
0
 10
146.22547488
 20
128.17278563
  0
VERTEX
  8
0
 10
146.02409191
 20
128.12206372
  0
VERTEX
  8
0
 10
145.79495835
 20
128.02105014
  0
VERTEX
  8
0
 10
145.53432142
 20
127.86842222
  0
VERTEX
  8
0
 10
145.23842836
 20
127.66285729
  0
VERTEX
  8
0
 10
144.90352637
 20
127.40303268
  0
VERTEX
  8
0
 10
144.10168454
 20
126.71531377
  0
VERTEX
  8
0
 10
143.09877372
 20
125.79468418
  0
VERTEX
  8
0
 10
142.07801429
 20
124.82656025
  0
VERTEX
  8
0
 10
141.32116413
 20
124.06242782
  0
VERTEX
  8
0
 10
141.03770367
 20
123.74638263
  0
VERTEX
  8
0
 10
140.81541892
 20
123.46876437
  0
VERTEX
  8
0
 10
140.65270933
 20
123.22538272
  0
VERTEX
  8
0
 10
140.54797435
 20
123.01204738
  0
VERTEX
  8
0
 10
140.49961346
 20
122.82456802
  0
VERTEX
  8
0
 10
140.50602610
 20
122.65875433
  0
VERTEX
  8
0
 10
140.56561174
 20
122.51041599
  0
VERTEX
  8
0
 10
140.67676984
 20
122.37536270
  0
VERTEX
  8
0
 10
140.83789986
 20
122.24940412
  0
VERTEX
  8
0
 10
141.04740126
 20
122.12834996
  0
VERTEX
  8
0
 10
141.30367350
 20
122.00800989
  0
VERTEX
  8
0
 10
141.60511604
 20
121.88419361
  0
VERTEX
  8
0
 10
142.32645594
 20
121.61848000
  0
VERTEX
  8
0
 10
143.01149113
 20
121.40112474
  0
VERTEX
  8
0
 10
143.65868540
 20
121.23179607
  0
VERTEX
  8
0
 10
144.26650255
 20
121.11016227
  0
VERTEX
  8
0
 10
144.83340637
 20
121.03589158
  0
VERTEX
  8
0
 10
145.35786067
 20
121.00865225
  0
VERTEX
  8
0
 10
145.83832924
 20
121.02811254
  0
VERTEX
  8
0
 10
146.27327587
 20
121.09394070
  0
VERTEX
  8
0
 10
146.66116436
 20
121.20580499
  0
VERTEX
  8
0
 10
146.83698174
 20
121.27889701
  0
VERTEX
  8
0
 10
147.00045850
 20
121.36337366
  0
VERTEX
  8
0
 10
147.15140264
 20
121.45919348
  0
VERTEX
  8
0
 10
147.28962210
 20
121.56631498
  0
VERTEX
  8
0
 10
147.41492488
 20
121.68469670
  0
VERTEX
  8
0
 10
147.52711895
 20
121.81429718
  0
VERTEX
  8
0
 10
147.62601228
 20
121.95507495
  0
VERTEX
  8
0
 10
147.71141284
 20
122.10698853
  0
VERTEX
  8
0
 10
147.78312861
 20
122.26999646
  0
VERTEX
  8
0
 10
147.84096757
 20
122.44405728
  0
VERTEX
  8
0
 10
147.88473769
 20
122.62912951
  0
VERTEX
  8
0
 10
147.91424694
 20
122.82517168
  0
VERTEX
  8
0
 10
147.92930330
 20
123.03214234
  0
VERTEX
  8
0
 10
147.92971474
 20
123.25000000
  0
SEQEND
  0
POLYLINE
  8
Calque_par_d_faut
 62
256
 66
   1
 39
0.000000
 70
    1
  0
VERTEX
  8
0
 10
158.34261276
 20
128.89555514
  0
VERTEX
  8
0
 10
159.09232379
 20
131.10664474
  0
VERTEX
  8
0
 10
159.39558613
 20
132.04730457
  0
VERTEX
  8
0
 10
159.65265968
 20
132.89074079
  0
VERTEX
  8
0
 10
159.86469944
 20
133.64647819
  0
VERTEX
  8
0
 10
160.03286041
 20
134.32404154
  0
VERTEX
  8
0
 10
160.15829758
 20
134.93295564
  0
VERTEX
  8
0
 10
160.24216596
 20
135.48274527
  0
VERTEX
  8
0
 10
160.28562053
 20
135.98293521
  0
VERTEX
  8
0
 10
160.28981630
 20
136.44305023
  0
VERTEX
  8
0
 10
160.25590826
 20
136.87261513
  0
VERTEX
  8
0
 10
160.18505141
 20
137.28115469
  0
VERTEX
  8
0
 10
160.07840075
 20
137.67819368
  0
VERTEX
  8
0
 10
159.93711127
 20
138.07325690
  0
VERTEX
  8
0
 10
159.76233797
 20
138.47586913
  0
VERTEX
  8
0
 10
159.55523586
 20
138.89555514
  0
VERTEX
  8
0
 10
159.25936858
 20
139.51057888
  0
VERTEX
  8
0
 10
158.93392540
 20
140.26189037
  0
VERTEX
  8
0
 10
158.58956331
 20
141.12035029
  0
VERTEX
  8
0
 10
158.23693927
 20
142.05681932
  0
VERTEX
  8
0
 10
157.88671027
 20
143.04215813
  0
VERTEX
  8
0
 10
157.54953328
 20
144.04722740
  0
VERTEX
  8
0
 10
157.23606528
 20
145.04288780
  0
VERTEX
  8
0
 10
156.95696325
 20
146.00000000
  0
VERTEX
  8
0
 10
155.70427610
 20
150.50000000
  0
VERTEX
  8
0
 10
154.02535226
 20
145.00000000
  0
VERTEX
  8
0
 10
153.66328270
 20
143.84897115
  0
VERTEX
  8
0
 10
153.27754465
 20
142.68586246
  0
VERTEX
  8
0
 10
152.88000990
 20
141.54251570
  0
VERTEX
  8
0
 10
152.48255021
 20
140.45077264
  0
VERTEX
  8
0
 10
152.09703739
 20
139.44247504
  0
VERTEX
  8
0
 10
151.73534322
 20
138.54946469
  0
VERTEX
  8
0
 10
151.40933947
 20
137.80358335
  0
VERTEX
  8
0
 10
151.13089795
 20
137.23667280
  0
VERTEX
  8
0
 10
150.95349962
 20
136.88278387
  0
VERTEX
  8
0
 10
150.80683379
 20
136.53271623
  0
VERTEX
  8
0
 10
150.69207590
 20
136.17926984
  0
VERTEX
  8
0
 10
150.61040138
 20
135.81524469
  0
VERTEX
  8
0
 10
150.56298567
 20
135.43344077
  0
VERTEX
  8
0
 10
150.55100423
 20
135.02665805
  0
VERTEX
  8
0
 10
150.57563247
 20
134.58769652
  0
VERTEX
  8
0
 10
150.63804586
 20
134.10935615
  0
VERTEX
  8
0
 10
150.73941982
 20
133.58443694
  0
VERTEX
  8
0
 10
150.88092980
 20
133.00573886
  0
VERTEX
  8
0
 10
151.06375123
 20
132.36606189
  0
VERTEX
  8
0
 10
151.28905957
 20
131.65820602
  0
VERTEX
  8
0
 10
151.55803025
 20
130.87497122
  0
VERTEX
  8
0
 10
151.87183870
 20
130.00915748
  0
VERTEX
  8
0
 10
152.63867071
 20
128.00099310
  0
VERTEX
  8
0
 10
153.71274448
 20
125.31235596
  0
VERTEX
  8
0
 10
154.62404806
 20
123.14600006
  0
VERTEX
  8
0
 10
154.98857074
 20
122.32775479
  0
VERTEX
  8
0
 10
155.27629255
 20
121.72297248
  0
VERTEX
  8
0
 10
155.47517736
 20
121.35928402
  0
VERTEX
  8
0
 10
155.53754461
 20
121.27648464
  0
VERTEX
  8
0
 10
155.55880122
 20
121.26135722
  0
VERTEX
  8
0
 10
155.57318907
 20
121.26432030
  0
VERTEX
  8
0
 10
155.66783117
 20
121.46260782
  0
VERTEX
  8
0
 10
155.85705859
 20
121.93938583
  0
VERTEX
  8
0
 10
156.47383352
 20
123.60321341
  0
VERTEX
  8
0
 10
157.33264215
 20
126.00540314
  0
VERTEX
  8
0
 10
158.34261276
 20
128.89555514
  0
SEQEND
  0
POLYLINE
  8
Calque_par_d_faut
 62
256
 66
   1
 39
0.000000
 70
    1
  0
VERTEX
  8
0
 10
169.43675606
 20
123.05751878
  0
VERTEX
  8
0
 10
169.53189175
 20
123.17224931
  0
VERTEX
  8
0
 10
169.60078031
 20
123.30401162
  0
VERTEX
  8
0
 10
169.64373847
 20
123.45205070
  0
VERTEX
  8
0
 10
169.66108296
 20
123.61561156
  0
VERTEX
  8
0
 10
169.65313050
 20
123.79393921
  0
VERTEX
  8
0
 10
169.62019782
 20
123.98627864
  0
VERTEX
  8
0
 10
169.56260165
 20
124.19187487
  0
VERTEX
  8
0
 10
169.48065872
 20
124.40997289
  0
VERTEX
  8
0
 10
169.37468576
 20
124.63981770
  0
VERTEX
  8
0
 10
169.24499948
 20
124.88065431
  0
VERTEX
  8
0
 10
168.91575393
 20
125.39228296
  0
VERTEX
  8
0
 10
168.49545587
 20
125.93881884
  0
VERTEX
  8
0
 10
167.98663914
 20
126.51422199
  0
VERTEX
  8
0
 10
165.59976615
 20
129.05493185
  0
VERTEX
  8
0
 10
164.33531849
 20
126.77746593
  0
VERTEX
  8
0
 10
164.08059439
 20
126.28204066
  0
VERTEX
  8
0
 10
163.84156110
 20
125.74652860
  0
VERTEX
  8
0
 10
163.62355018
 20
125.18789328
  0
VERTEX
  8
0
 10
163.43189318
 20
124.62309826
  0
VERTEX
  8
0
 10
163.27192165
 20
124.06910707
  0
VERTEX
  8
0
 10
163.14896715
 20
123.54288326
  0
VERTEX
  8
0
 10
163.06836122
 20
123.06139038
  0
VERTEX
  8
0
 10
163.03543542
 20
122.64159197
  0
VERTEX
  8
0
 10
163.03625068
 20
122.37016063
  0
VERTEX
  8
0
 10
163.05087588
 20
122.12887372
  0
VERTEX
  8
0
 10
163.08117591
 20
121.91692112
  0
VERTEX
  8
0
 10
163.12901562
 20
121.73349271
  0
VERTEX
  8
0
 10
163.19625988
 20
121.57777836
  0
VERTEX
  8
0
 10
163.28477356
 20
121.44896796
  0
VERTEX
  8
0
 10
163.39642154
 20
121.34625139
  0
VERTEX
  8
0
 10
163.53306869
 20
121.26881853
  0
VERTEX
  8
0
 10
163.69657986
 20
121.21585926
  0
VERTEX
  8
0
 10
163.88881994
 20
121.18656345
  0
VERTEX
  8
0
 10
164.11165378
 20
121.18012099
  0
VERTEX
  8
0
 10
164.36694627
 20
121.19572176
  0
VERTEX
  8
0
 10
164.65656227
 20
121.23255563
  0
VERTEX
  8
0
 10
164.98236664
 20
121.28981249
  0
VERTEX
  8
0
 10
165.75000000
 20
121.46235469
  0
VERTEX
  8
0
 10
166.32153633
 20
121.61748134
  0
VERTEX
  8
0
 10
166.89168935
 20
121.79834156
  0
VERTEX
  8
0
 10
167.44533759
 20
121.99839269
  0
VERTEX
  8
0
 10
167.96735959
 20
122.21109208
  0
VERTEX
  8
0
 10
168.44263390
 20
122.42989704
  0
VERTEX
  8
0
 10
168.85603906
 20
122.64826493
  0
VERTEX
  8
0
 10
169.19245360
 20
122.85965306
  0
VERTEX
  8
0
 10
169.43675606
 20
123.05751878
  0
SEQEND
  0
POLYLINE
  8
Calque_par_d_faut
 62
256
 66
   1
 39
0.000000
 70
    1
  0
VERTEX
  8
0
 10
191.60664469
 20
122.41731579
  0
VERTEX
  8
0
 10
191.65509949
 20
122.57495613
  0
VERTEX
  8
0
 10
191.68856154
 20
122.75419762
  0
VERTEX
  8
0
 10
191.70743867
 20
122.95300304
  0
VERTEX
  8
0
 10
191.71213872
 20
123.16933517
  0
VERTEX
  8
0
 10
191.68063888
 20
123.64643072
  0
VERTEX
  8
0
 10
191.59732468
 20
124.16918655
  0
VERTEX
  8
0
 10
191.46545878
 20
124.72130491
  0
VERTEX
  8
0
 10
191.28830385
 20
125.28648807
  0
VERTEX
  8
0
 10
191.06912253
 20
125.84843831
  0
VERTEX
  8
0
 10
190.81117749
 20
126.39085789
  0
VERTEX
  8
0
 10
189.47183518
 20
128.94708420
  0
VERTEX
  8
0
 10
186.09103363
 20
125.78745044
  0
VERTEX
  8
0
 10
185.07241395
 20
124.82134755
  0
VERTEX
  8
0
 10
184.31725746
 20
124.05884965
  0
VERTEX
  8
0
 10
184.03449393
 20
123.74348731
  0
VERTEX
  8
0
 10
183.81281542
 20
123.46646792
  0
VERTEX
  8
0
 10
183.65062834
 20
123.22360537
  0
VERTEX
  8
0
 10
183.54633909
 20
123.01071356
  0
VERTEX
  8
0
 10
183.49835409
 20
122.82360638
  0
VERTEX
  8
0
 10
183.50507973
 20
122.65809775
  0
VERTEX
  8
0
 10
183.56492243
 20
122.51000155
  0
VERTEX
  8
0
 10
183.67628859
 20
122.37513170
  0
VERTEX
  8
0
 10
183.83758463
 20
122.24930207
  0
VERTEX
  8
0
 10
184.04721694
 20
122.12832658
  0
VERTEX
  8
0
 10
184.30359195
 20
122.00801913
  0
VERTEX
  8
0
 10
184.60511604
 20
121.88419361
  0
VERTEX
  8
0
 10
185.19245627
 20
121.67147374
  0
VERTEX
  8
0
 10
185.77958459
 20
121.49306336
  0
VERTEX
  8
0
 10
186.36226799
 20
121.34864013
  0
VERTEX
  8
0
 10
186.93627346
 20
121.23788175
  0
VERTEX
  8
0
 10
187.49736799
 20
121.16046591
  0
VERTEX
  8
0
 10
188.04131857
 20
121.11607027
  0
VERTEX
  8
0
 10
188.56389218
 20
121.10437253
  0
VERTEX
  8
0
 10
189.06085582
 20
121.12505036
  0
VERTEX
  8
0
 10
189.52797648
 20
121.17778146
  0
VERTEX
  8
0
 10
189.96102115
 20
121.26224350
  0
VERTEX
  8
0
 10
190.35575681
 20
121.37811416
  0
VERTEX
  8
0
 10
190.70795046
 20
121.52507114
  0
VERTEX
  8
0
 10
191.01336908
 20
121.70279210
  0
VERTEX
  8
0
 10
191.26777967
 20
121.91095475
  0
VERTEX
  8
0
 10
191.37453413
 20
122.02635097
  0
VERTEX
  8
0
 10
191.46694921
 20
122.14923675
  0
VERTEX
  8
0
 10
191.54449577
 20
122.27957178
  0
VERTEX
  8
0
 10
191.60664469
 20
122.41731579
  0
SEQEND
  0
POLYLINE
  8
Calque_par_d_faut
 62
256
 66
   1
 39
0.000000
 70
    1
  0
VERTEX
  8
0
 10
72.33051491
 20
129.09722345
  0
VERTEX
  8
0
 10
73.10675520
 20
131.23991312
  0
VERTEX
  8
0
 10
73.42034116
 20
132.14904792
  0
VERTEX
  8
0
 10
73.68589978
 20
132.96301018
  0
VERTEX
  8
0
 10
73.90467765
 20
133.69152551
  0
VERTEX
  8
0
 10
74.07792136
 20
134.34431954
  0
VERTEX
  8
0
 10
74.20687749
 20
134.93111788
  0
VERTEX
  8
0
 10
74.29279265
 20
135.46164614
  0
VERTEX
  8
0
 10
74.33691341
 20
135.94562994
  0
VERTEX
  8
0
 10
74.34048636
 20
136.39279490
  0
VERTEX
  8
0
 10
74.30475810
 20
136.81286663
  0
VERTEX
  8
0
 10
74.23097521
 20
137.21557076
  0
VERTEX
  8
0
 10
74.12038428
 20
137.61063288
  0
VERTEX
  8
0
 10
73.97423190
 20
138.00777863
  0
VERTEX
  8
0
 10
73.79376466
 20
138.41673361
  0
VERTEX
  8
0
 10
73.58022914
 20
138.84722345
  0
VERTEX
  8
0
 10
73.28001701
 20
139.47195600
  0
VERTEX
  8
0
 10
72.95182681
 20
140.23232497
  0
VERTEX
  8
0
 10
72.60628222
 20
141.09899278
  0
VERTEX
  8
0
 10
72.25400695
 20
142.04262189
  0
VERTEX
  8
0
 10
71.90562466
 20
143.03387472
  0
VERTEX
  8
0
 10
71.57175906
 20
144.04341373
  0
VERTEX
  8
0
 10
71.26303384
 20
145.04190134
  0
VERTEX
  8
0
 10
70.99007267
 20
146.00000000
  0
VERTEX
  8
0
 10
69.77049496
 20
150.50000000
  0
VERTEX
  8
0
 10
67.26226634
 20
143.50000000
  0
VERTEX
  8
0
 10
66.75914009
 20
142.05302734
  0
VERTEX
  8
0
 10
66.29116711
 20
140.62421875
  0
VERTEX
  8
0
 10
65.86848956
 20
139.25048828
  0
VERTEX
  8
0
 10
65.50124960
 20
137.96875000
  0
VERTEX
  8
0
 10
65.19958941
 20
136.81591797
  0
VERTEX
  8
0
 10
64.97365115
 20
135.82890625
  0
VERTEX
  8
0
 10
64.83357700
 20
135.04462891
  0
VERTEX
  8
0
 10
64.79890839
 20
134.74005127
  0
VERTEX
  8
0
 10
64.78950911
 20
134.50000000
  0
VERTEX
  8
0
 10
64.80343961
 20
134.24515051
  0
VERTEX
  8
0
 10
64.83621437
 20
133.94961912
  0
VERTEX
  8
0
 10
64.95387984
 20
133.24929030
  0
VERTEX
  8
0
 10
65.13367174
 20
132.42457285
  0
VERTEX
  8
0
 10
65.36675633
 20
131.50102611
  0
VERTEX
  8
0
 10
65.64429983
 20
130.50420940
  0
VERTEX
  8
0
 10
65.95746849
 20
129.45968205
  0
VERTEX
  8
0
 10
66.29742854
 20
128.39300338
  0
VERTEX
  8
0
 10
66.65534623
 20
127.32973273
  0
VERTEX
  8
0
 10
67.02238778
 20
126.29542941
  0
VERTEX
  8
0
 10
67.38971944
 20
125.31565275
  0
VERTEX
  8
0
 10
67.74850745
 20
124.41596209
  0
VERTEX
  8
0
 10
68.08991804
 20
123.62191674
  0
VERTEX
  8
0
 10
68.40511744
 20
122.95907603
  0
VERTEX
  8
0
 10
68.68527191
 20
122.45299930
  0
VERTEX
  8
0
 10
68.80944674
 20
122.26673471
  0
VERTEX
  8
0
 10
68.92154767
 20
122.12924586
  0
VERTEX
  8
0
 10
69.02047048
 20
122.04372766
  0
VERTEX
  8
0
 10
69.10511096
 20
122.01337504
  0
VERTEX
  8
0
 10
69.18034626
 20
122.04883287
  0
VERTEX
  8
0
 10
69.28014558
 20
122.15554371
  0
VERTEX
  8
0
 10
69.40285528
 20
122.32987573
  0
VERTEX
  8
0
 10
69.54682170
 20
122.56819705
  0
VERTEX
  8
0
 10
69.89191012
 20
123.22228019
  0
VERTEX
  8
0
 10
70.30218165
 20
124.08873830
  0
VERTEX
  8
0
 10
70.76440708
 20
125.13851653
  0
VERTEX
  8
0
 10
71.26535724
 20
126.34256003
  0
VERTEX
  8
0
 10
71.79180291
 20
127.67181395
  0
VERTEX
  8
0
 10
72.33051491
 20
129.09722345
  0
SEQEND
  0
POLYLINE
  8
Calque_par_d_faut
 62
256
 66
   1
 39
0.000000
 70
    1
  0
VERTEX
  8
0
 10
115.56626441
 20
129.58801013
  0
VERTEX
  8
0
 10
116.24821997
 20
131.58420773
  0
VERTEX
  8
0
 10
116.52337765
 20
132.43643785
  0
VERTEX
  8
0
 10
116.75589205
 20
133.20302946
  0
VERTEX
  8
0
 10
116.94669076
 20
133.89268805
  0
VERTEX
  8
0
 10
117.09670136
 20
134.51411909
  0
VERTEX
  8
0
 10
117.20685144
 20
135.07602804
  0
VERTEX
  8
0
 10
117.27806859
 20
135.58712038
  0
VERTEX
  8
0
 10
117.31128039
 20
136.05610158
  0
VERTEX
  8
0
 10
117.30741443
 20
136.49167712
  0
VERTEX
  8
0
 10
117.26739829
 20
136.90255245
  0
VERTEX
  8
0
 10
117.19215957
 20
137.29743307
  0
VERTEX
  8
0
 10
117.08262584
 20
137.68502443
  0
VERTEX
  8
0
 10
116.93972470
 20
138.07403201
  0
VERTEX
  8
0
 10
116.76438374
 20
138.47316129
  0
VERTEX
  8
0
 10
116.55753053
 20
138.89111772
  0
VERTEX
  8
0
 10
116.26144998
 20
139.50703284
  0
VERTEX
  8
0
 10
115.93628663
 20
140.25917592
  0
VERTEX
  8
0
 10
115.59265710
 20
141.11838942
  0
VERTEX
  8
0
 10
115.24117801
 20
142.05551583
  0
VERTEX
  8
0
 10
114.89246596
 20
143.04139762
  0
VERTEX
  8
0
 10
114.55713758
 20
144.04687726
  0
VERTEX
  8
0
 10
114.24580949
 20
145.04279723
  0
VERTEX
  8
0
 10
113.96909830
 20
146.00000000
  0
VERTEX
  8
0
 10
112.72854620
 20
150.50000000
  0
VERTEX
  8
0
 10
111.78614139
 20
147.50000000
  0
VERTEX
  8
0
 10
111.26591965
 20
145.93693366
  0
VERTEX
  8
0
 10
110.54613072
 20
143.89875800
  0
VERTEX
  8
0
 10
109.72186314
 20
141.64950801
  0
VERTEX
  8
0
 10
108.88820542
 20
139.45321872
  0
VERTEX
  8
0
 10
108.25601013
 20
137.79765218
  0
VERTEX
  8
0
 10
108.00740409
 20
137.10640934
  0
VERTEX
  8
0
 10
107.80368675
 20
136.48847235
  0
VERTEX
  8
0
 10
107.64477885
 20
135.93055035
  0
VERTEX
  8
0
 10
107.53060110
 20
135.41935252
  0
VERTEX
  8
0
 10
107.46107424
 20
134.94158801
  0
VERTEX
  8
0
 10
107.43611898
 20
134.48396599
  0
VERTEX
  8
0
 10
107.45565605
 20
134.03319561
  0
VERTEX
  8
0
 10
107.51960619
 20
133.57598605
  0
VERTEX
  8
0
 10
107.62789011
 20
133.09904645
  0
VERTEX
  8
0
 10
107.78042854
 20
132.58908599
  0
VERTEX
  8
0
 10
107.97714220
 20
132.03281383
  0
VERTEX
  8
0
 10
108.21795183
 20
131.41693912
  0
VERTEX
  8
0
 10
108.83154187
 20
129.95321872
  0
VERTEX
  8
0
 10
109.62078322
 20
128.07473775
  0
VERTEX
  8
0
 10
110.36600269
 20
126.25202663
  0
VERTEX
  8
0
 10
110.98329212
 20
124.69332485
  0
VERTEX
  8
0
 10
111.38874334
 20
123.60687193
  0
VERTEX
  8
0
 10
111.55414599
 20
123.16251395
  0
VERTEX
  8
0
 10
111.71540208
 20
122.80304210
  0
VERTEX
  8
0
 10
111.87613422
 20
122.53364304
  0
VERTEX
  8
0
 10
111.95743588
 20
122.43434164
  0
VERTEX
  8
0
 10
112.03996503
 20
122.35950344
  0
VERTEX
  8
0
 10
112.12417451
 20
122.30977677
  0
VERTEX
  8
0
 10
112.21051713
 20
122.28580995
  0
VERTEX
  8
0
 10
112.29944574
 20
122.28825133
  0
VERTEX
  8
0
 10
112.39141314
 20
122.31774924
  0
VERTEX
  8
0
 10
112.48687218
 20
122.37495201
  0
VERTEX
  8
0
 10
112.58627568
 20
122.46050796
  0
VERTEX
  8
0
 10
112.69007647
 20
122.57506545
  0
VERTEX
  8
0
 10
112.79872737
 20
122.71927278
  0
VERTEX
  8
0
 10
113.03239082
 20
123.09923036
  0
VERTEX
  8
0
 10
113.29088865
 20
123.60556736
  0
VERTEX
  8
0
 10
113.57784349
 20
124.24347044
  0
VERTEX
  8
0
 10
113.89687795
 20
125.01812625
  0
VERTEX
  8
0
 10
114.25161466
 20
125.93472147
  0
VERTEX
  8
0
 10
114.64567622
 20
126.99844275
  0
VERTEX
  8
0
 10
115.56626441
 20
129.58801013
  0
SEQEND
  0
POLYLINE
  8
Calque_par_d_faut
 62
256
 66
   1
 39
0.000000
 70
    1
  0
VERTEX
  8
0
 10
50.94581664
 20
129.60786142
  0
VERTEX
  8
0
 10
51.86667332
 20
130.39771889
  0
VERTEX
  8
0
 10
52.67349435
 20
131.12617213
  0
VERTEX
  8
0
 10
53.36790734
 20
131.80139329
  0
VERTEX
  8
0
 10
53.95153987
 20
132.43155454
  0
VERTEX
  8
0
 10
54.20232209
 20
132.73229151
  0
VERTEX
  8
0
 10
54.42601954
 20
133.02482805
  0
VERTEX
  8
0
 10
54.62283566
 20
133.31018570
  0
VERTEX
  8
0
 10
54.79297392
 20
133.58938598
  0
VERTEX
  8
0
 10
54.93663775
 20
133.86345040
  0
VERTEX
  8
0
 10
55.05403062
 20
134.13340050
  0
VERTEX
  8
0
 10
55.14535595
 20
134.40025777
  0
VERTEX
  8
0
 10
55.21081722
 20
134.66504376
  0
VERTEX
  8
0
 10
55.25061785
 20
134.92877997
  0
VERTEX
  8
0
 10
55.26496131
 20
135.19248794
  0
VERTEX
  8
0
 10
55.25405103
 20
135.45718917
  0
VERTEX
  8
0
 10
55.21809048
 20
135.72390520
  0
VERTEX
  8
0
 10
55.15728309
 20
135.99365754
  0
VERTEX
  8
0
 10
55.07183233
 20
136.26746770
  0
VERTEX
  8
0
 10
54.96194162
 20
136.54635722
  0
VERTEX
  8
0
 10
54.82781444
 20
136.83134762
  0
VERTEX
  8
0
 10
54.66965421
 20
137.12346040
  0
VERTEX
  8
0
 10
54.48766440
 20
137.42371711
  0
VERTEX
  8
0
 10
54.05300981
 20
138.05274833
  0
VERTEX
  8
0
 10
53.52547825
 20
138.72661347
  0
VERTEX
  8
0
 10
52.90669731
 20
139.45348467
  0
VERTEX
  8
0
 10
52.24406861
 20
140.16590479
  0
VERTEX
  8
0
 10
51.55414564
 20
140.83053007
  0
VERTEX
  8
0
 10
50.85715880
 20
141.43281427
  0
VERTEX
  8
0
 10
50.17333852
 20
141.95821112
  0
VERTEX
  8
0
 10
49.52291519
 20
142.39217437
  0
VERTEX
  8
0
 10
49.21654939
 20
142.57032270
  0
VERTEX
  8
0
 10
48.92611923
 20
142.72015777
  0
VERTEX
  8
0
 10
48.65415352
 20
142.83986133
  0
VERTEX
  8
0
 10
48.40318105
 20
142.92761507
  0
VERTEX
  8
0
 10
48.17573062
 20
142.98160072
  0
VERTEX
  8
0
 10
47.97433104
 20
143.00000000
  0
VERTEX
  8
0
 10
47.77051113
 20
142.97829915
  0
VERTEX
  8
0
 10
47.53595914
 20
142.91462630
  0
VERTEX
  8
0
 10
47.27344308
 20
142.81112601
  0
VERTEX
  8
0
 10
46.98573093
 20
142.66994283
  0
VERTEX
  8
0
 10
46.67559067
 20
142.49322132
  0
VERTEX
  8
0
 10
46.34579030
 20
142.28310602
  0
VERTEX
  8
0
 10
45.99909780
 20
142.04174151
  0
VERTEX
  8
0
 10
45.63828115
 20
141.77127232
  0
VERTEX
  8
0
 10
44.88534739
 20
141.15159816
  0
VERTEX
  8
0
 10
44.10913292
 20
140.44123997
  0
VERTEX
  8
0
 10
43.33178162
 20
139.65735419
  0
VERTEX
  8
0
 10
42.57543741
 20
138.81709726
  0
VERTEX
  8
0
 10
38.99502835
 20
134.63419452
  0
VERTEX
  8
0
 10
41.23735182
 20
132.06709726
  0
VERTEX
  8
0
 10
42.26919827
 20
130.91334112
  0
VERTEX
  8
0
 10
43.22573959
 20
129.89997331
  0
VERTEX
  8
0
 10
44.10216907
 20
129.03113810
  0
VERTEX
  8
0
 10
44.89368001
 20
128.31097974
  0
VERTEX
  8
0
 10
45.25608894
 20
128.00794946
  0
VERTEX
  8
0
 10
45.59546571
 20
127.74364249
  0
VERTEX
  8
0
 10
45.91120950
 20
127.51857687
  0
VERTEX
  8
0
 10
46.20271947
 20
127.33327061
  0
VERTEX
  8
0
 10
46.46939478
 20
127.18824177
  0
VERTEX
  8
0
 10
46.71063459
 20
127.08400836
  0
VERTEX
  8
0
 10
46.92583806
 20
127.02108843
  0
VERTEX
  8
0
 10
47.11440435
 20
127.00000000
  0
VERTEX
  8
0
 10
47.20506523
 20
127.01352955
  0
VERTEX
  8
0
 10
47.32473338
 20
127.05322686
  0
VERTEX
  8
0
 10
47.64323411
 20
127.20577656
  0
VERTEX
  8
0
 10
48.05419176
 20
127.44695281
  0
VERTEX
  8
0
 10
48.54189156
 20
127.76605929
  0
VERTEX
  8
0
 10
49.09061872
 20
128.15239970
  0
VERTEX
  8
0
 10
49.68465847
 20
128.59527773
  0
VERTEX
  8
0
 10
50.30829604
 20
129.08399707
  0
VERTEX
  8
0
 10
50.94581664
 20
129.60786142
  0
SEQEND
  0
POLYLINE
  8
Calque_par_d_faut
 62
256
 66
   1
 39
0.000000
 70
    1
  0
VERTEX
  8
0
 10
93.94581664
 20
129.60786142
  0
VERTEX
  8
0
 10
94.86667332
 20
130.39771889
  0
VERTEX
  8
0
 10
95.67349435
 20
131.12617213
  0
VERTEX
  8
0
 10
96.36790734
 20
131.80139329
  0
VERTEX
  8
0
 10
96.95153987
 20
132.43155454
  0
VERTEX
  8
0
 10
97.20232209
 20
132.73229151
  0
VERTEX
  8
0
 10
97.42601954
 20
133.02482805
  0
VERTEX
  8
0
 10
97.62283566
 20
133.31018570
  0
VERTEX
  8
0
 10
97.79297392
 20
133.58938598
  0
VERTEX
  8
0
 10
97.93663775
 20
133.86345040
  0
VERTEX
  8
0
 10
98.05403062
 20
134.13340050
  0
VERTEX
  8
0
 10
98.14535595
 20
134.40025777
  0
VERTEX
  8
0
 10
98.21081722
 20
134.66504376
  0
VERTEX
  8
0
 10
98.25061785
 20
134.92877997
  0
VERTEX
  8
0
 10
98.26496131
 20
135.19248794
  0
VERTEX
  8
0
 10
98.25405103
 20
135.45718917
  0
VERTEX
  8
0
 10
98.21809048
 20
135.72390520
  0
VERTEX
  8
0
 10
98.15728309
 20
135.99365754
  0
VERTEX
  8
0
 10
98.07183233
 20
136.26746770
  0
VERTEX
  8
0
 10
97.96194162
 20
136.54635722
  0
VERTEX
  8
0
 10
97.82781444
 20
136.83134762
  0
VERTEX
  8
0
 10
97.66965421
 20
137.12346040
  0
VERTEX
  8
0
 10
97.48766440
 20
137.42371711
  0
VERTEX
  8
0
 10
97.05300981
 20
138.05274833
  0
VERTEX
  8
0
 10
96.52547825
 20
138.72661347
  0
VERTEX
  8
0
 10
95.90669731
 20
139.45348467
  0
VERTEX
  8
0
 10
95.24406861
 20
140.16590479
  0
VERTEX
  8
0
 10
94.55414564
 20
140.83053007
  0
VERTEX
  8
0
 10
93.85715880
 20
141.43281427
  0
VERTEX
  8
0
 10
93.17333852
 20
141.95821112
  0
VERTEX
  8
0
 10
92.52291519
 20
142.39217437
  0
VERTEX
  8
0
 10
92.21654939
 20
142.57032270
  0
VERTEX
  8
0
 10
91.92611923
 20
142.72015777
  0
VERTEX
  8
0
 10
91.65415352
 20
142.83986133
  0
VERTEX
  8
0
 10
91.40318105
 20
142.92761507
  0
VERTEX
  8
0
 10
91.17573062
 20
142.98160072
  0
VERTEX
  8
0
 10
90.97433104
 20
143.00000000
  0
VERTEX
  8
0
 10
90.77051113
 20
142.97829915
  0
VERTEX
  8
0
 10
90.53595914
 20
142.91462630
  0
VERTEX
  8
0
 10
90.27344308
 20
142.81112601
  0
VERTEX
  8
0
 10
89.98573093
 20
142.66994283
  0
VERTEX
  8
0
 10
89.67559067
 20
142.49322132
  0
VERTEX
  8
0
 10
89.34579030
 20
142.28310602
  0
VERTEX
  8
0
 10
88.99909780
 20
142.04174151
  0
VERTEX
  8
0
 10
88.63828115
 20
141.77127232
  0
VERTEX
  8
0
 10
87.88534739
 20
141.15159816
  0
VERTEX
  8
0
 10
87.10913292
 20
140.44123997
  0
VERTEX
  8
0
 10
86.33178162
 20
139.65735419
  0
VERTEX
  8
0
 10
85.57543741
 20
138.81709726
  0
VERTEX
  8
0
 10
81.99502835
 20
134.63419452
  0
VERTEX
  8
0
 10
84.24751417
 20
132.09579381
  0
VERTEX
  8
0
 10
85.24302275
 20
131.00276757
  0
VERTEX
  8
0
 10
86.18856598
 20
130.02166669
  0
VERTEX
  8
0
 10
87.07272816
 20
129.16224670
  0
VERTEX
  8
0
 10
87.88409362
 20
128.43426312
  0
VERTEX
  8
0
 10
88.61124669
 20
127.84747148
  0
VERTEX
  8
0
 10
88.93967617
 20
127.61007123
  0
VERTEX
  8
0
 10
89.24277168
 20
127.41162729
  0
VERTEX
  8
0
 10
89.51910625
 20
127.25335909
  0
VERTEX
  8
0
 10
89.76725292
 20
127.13648608
  0
VERTEX
  8
0
 10
89.98578473
 20
127.06222769
  0
VERTEX
  8
0
 10
90.17327472
 20
127.03180337
  0
VERTEX
  8
0
 10
90.25793861
 20
127.04209319
  0
VERTEX
  8
0
 10
90.37177793
 20
127.07864160
  0
VERTEX
  8
0
 10
90.67924622
 20
127.22523128
  0
VERTEX
  8
0
 10
91.08020626
 20
127.46100655
  0
VERTEX
  8
0
 10
91.55918473
 20
127.77540153
  0
VERTEX
  8
0
 10
92.10070832
 20
128.15785037
  0
VERTEX
  8
0
 10
92.68930371
 20
128.59778721
  0
VERTEX
  8
0
 10
93.30949759
 20
129.08464618
  0
VERTEX
  8
0
 10
93.94581664
 20
129.60786142
  0
SEQEND
  0
POLYLINE
  8
Calque_par_d_faut
 62
256
 66
   1
 39
0.000000
 70
    1
  0
VERTEX
  8
0
 10
136.94581664
 20
129.60786142
  0
VERTEX
  8
0
 10
137.92132367
 20
130.44486545
  0
VERTEX
  8
0
 10
138.77332875
 20
131.21551681
  0
VERTEX
  8
0
 10
139.50312839
 20
131.92875054
  0
VERTEX
  8
0
 10
140.11201910
 20
132.59350167
  0
VERTEX
  8
0
 10
140.37152877
 20
132.91048847
  0
VERTEX
  8
0
 10
140.60129740
 20
133.21870526
  0
VERTEX
  8
0
 10
140.80148706
 20
133.51926892
  0
VERTEX
  8
0
 10
140.97225980
 20
133.81329633
  0
VERTEX
  8
0
 10
141.11377769
 20
134.10190438
  0
VERTEX
  8
0
 10
141.22620280
 20
134.38620994
  0
VERTEX
  8
0
 10
141.30969719
 20
134.66732990
  0
VERTEX
  8
0
 10
141.36442292
 20
134.94638113
  0
VERTEX
  8
0
 10
141.39054206
 20
135.22448051
  0
VERTEX
  8
0
 10
141.38821668
 20
135.50274493
  0
VERTEX
  8
0
 10
141.35760883
 20
135.78229127
  0
VERTEX
  8
0
 10
141.29888057
 20
136.06423640
  0
VERTEX
  8
0
 10
141.21219399
 20
136.34969720
  0
VERTEX
  8
0
 10
141.09771113
 20
136.63979056
  0
VERTEX
  8
0
 10
140.95559406
 20
136.93563335
  0
VERTEX
  8
0
 10
140.78600484
 20
137.23834246
  0
VERTEX
  8
0
 10
140.58910555
 20
137.54903477
  0
VERTEX
  8
0
 10
140.36505824
 20
137.86882715
  0
VERTEX
  8
0
 10
139.83616783
 20
138.54017966
  0
VERTEX
  8
0
 10
139.20063012
 20
139.26133504
  0
VERTEX
  8
0
 10
138.45974162
 20
140.04122832
  0
VERTEX
  8
0
 10
134.73032617
 20
143.86049632
  0
VERTEX
  8
0
 10
131.97328419
 20
141.82212706
  0
VERTEX
  8
0
 10
131.37797077
 20
141.35655448
  0
VERTEX
  8
0
 10
130.74240652
 20
140.81375450
  0
VERTEX
  8
0
 10
130.08623565
 20
140.21336274
  0
VERTEX
  8
0
 10
129.42910243
 20
139.57501483
  0
VERTEX
  8
0
 10
128.79065108
 20
138.91834639
  0
VERTEX
  8
0
 10
128.19052586
 20
138.26299306
  0
VERTEX
  8
0
 10
127.64837101
 20
137.62859045
  0
VERTEX
  8
0
 10
127.18383076
 20
137.03477420
  0
VERTEX
  8
0
 10
125.15141932
 20
134.28579060
  0
VERTEX
  8
0
 10
128.68975574
 20
130.64289530
  0
VERTEX
  8
0
 10
129.41704938
 20
129.91111448
  0
VERTEX
  8
0
 10
130.12747863
 20
129.22842736
  0
VERTEX
  8
0
 10
130.80321169
 20
128.60977551
  0
VERTEX
  8
0
 10
131.42641676
 20
128.07010049
  0
VERTEX
  8
0
 10
131.97926201
 20
127.62434387
  0
VERTEX
  8
0
 10
132.44391564
 20
127.28744721
  0
VERTEX
  8
0
 10
132.80254584
 20
127.07435206
  0
VERTEX
  8
0
 10
132.93652972
 20
127.01889930
  0
VERTEX
  8
0
 10
133.03732080
 20
127.00000000
  0
VERTEX
  8
0
 10
133.13583401
 20
127.01352955
  0
VERTEX
  8
0
 10
133.26313429
 20
127.05322686
  0
VERTEX
  8
0
 10
133.59608066
 20
127.20577656
  0
VERTEX
  8
0
 10
134.02012897
 20
127.44695281
  0
VERTEX
  8
0
 10
134.51924827
 20
127.76605929
  0
VERTEX
  8
0
 10
135.07740762
 20
128.15239970
  0
VERTEX
  8
0
 10
135.67857610
 20
128.59527773
  0
VERTEX
  8
0
 10
136.30672275
 20
129.08399707
  0
VERTEX
  8
0
 10
136.94581664
 20
129.60786142
  0
SEQEND
  0
POLYLINE
  8
Calque_par_d_faut
 62
256
 66
   1
 39
0.000000
 70
    1
  0
VERTEX
  8
0
 10
179.94581664
 20
129.60786142
  0
VERTEX
  8
0
 10
180.92178951
 20
130.44524642
  0
VERTEX
  8
0
 10
181.77414172
 20
131.21617914
  0
VERTEX
  8
0
 10
182.50416412
 20
131.92962329
  0
VERTEX
  8
0
 10
183.11314757
 20
132.59454259
  0
VERTEX
  8
0
 10
183.37265307
 20
132.91160658
  0
VERTEX
  8
0
 10
183.60238291
 20
133.21990075
  0
VERTEX
  8
0
 10
183.80249844
 20
133.52054557
  0
VERTEX
  8
0
 10
183.97316101
 20
133.81466150
  0
VERTEX
  8
0
 10
184.11453198
 20
134.10336901
  0
VERTEX
  8
0
 10
184.22677271
 20
134.38778855
  0
VERTEX
  8
0
 10
184.31004455
 20
134.66904060
  0
VERTEX
  8
0
 10
184.36450887
 20
134.94824562
  0
VERTEX
  8
0
 10
184.39032701
 20
135.22652407
  0
VERTEX
  8
0
 10
184.38766034
 20
135.50499642
  0
VERTEX
  8
0
 10
184.35667020
 20
135.78478314
  0
VERTEX
  8
0
 10
184.29751797
 20
136.06700468
  0
VERTEX
  8
0
 10
184.21036499
 20
136.35278152
  0
VERTEX
  8
0
 10
184.09537262
 20
136.64323411
  0
VERTEX
  8
0
 10
183.95270222
 20
136.93948293
  0
VERTEX
  8
0
 10
183.78251514
 20
137.24264843
  0
VERTEX
  8
0
 10
183.58497274
 20
137.55385109
  0
VERTEX
  8
0
 10
183.36023638
 20
137.87421136
  0
VERTEX
  8
0
 10
182.82982720
 20
138.54688661
  0
VERTEX
  8
0
 10
182.19257844
 20
139.26963790
  0
VERTEX
  8
0
 10
181.44978097
 20
140.05142895
  0
VERTEX
  8
0
 10
177.71040487
 20
143.88089758
  0
VERTEX
  8
0
 10
174.53340479
 20
141.45768150
  0
VERTEX
  8
0
 10
173.86751890
 20
140.91916254
  0
VERTEX
  8
0
 10
173.19277101
 20
140.31674078
  0
VERTEX
  8
0
 10
172.52775699
 20
139.67075388
  0
VERTEX
  8
0
 10
171.89107275
 20
139.00153954
  0
VERTEX
  8
0
 10
171.30131415
 20
138.32943542
  0
VERTEX
  8
0
 10
170.77707709
 20
137.67477921
  0
VERTEX
  8
0
 10
170.33695745
 20
137.05790860
  0
VERTEX
  8
0
 10
170.15425288
 20
136.76999841
  0
VERTEX
  8
0
 10
169.99955112
 20
136.49916125
  0
VERTEX
  8
0
 10
169.77978715
 20
136.07860949
  0
VERTEX
  8
0
 10
169.59524444
 20
135.69648063
  0
VERTEX
  8
0
 10
169.44825807
 20
135.34581189
  0
VERTEX
  8
0
 10
169.34116309
 20
135.01964050
  0
VERTEX
  8
0
 10
169.27629458
 20
134.71100369
  0
VERTEX
  8
0
 10
169.25598758
 20
134.41293869
  0
VERTEX
  8
0
 10
169.28257717
 20
134.11848274
  0
VERTEX
  8
0
 10
169.35839842
 20
133.82067304
  0
VERTEX
  8
0
 10
169.48578638
 20
133.51254685
  0
VERTEX
  8
0
 10
169.66707612
 20
133.18714138
  0
VERTEX
  8
0
 10
169.90460270
 20
132.83749386
  0
VERTEX
  8
0
 10
170.20070119
 20
132.45664152
  0
VERTEX
  8
0
 10
170.55770666
 20
132.03762159
  0
VERTEX
  8
0
 10
170.97795416
 20
131.57347130
  0
VERTEX
  8
0
 10
172.01751554
 20
130.48192855
  0
VERTEX
  8
0
 10
172.71028568
 20
129.78248255
  0
VERTEX
  8
0
 10
173.38526746
 20
129.12996098
  0
VERTEX
  8
0
 10
174.02563658
 20
128.53864518
  0
VERTEX
  8
0
 10
174.61456873
 20
128.02281651
  0
VERTEX
  8
0
 10
175.13523960
 20
127.59675631
  0
VERTEX
  8
0
 10
175.57082489
 20
127.27474592
  0
VERTEX
  8
0
 10
175.90450029
 20
127.07106671
  0
VERTEX
  8
0
 10
176.02786419
 20
127.01806420
  0
VERTEX
  8
0
 10
176.11944150
 20
127.00000000
  0
VERTEX
  8
0
 10
176.20958926
 20
127.01352955
  0
VERTEX
  8
0
 10
176.32875868
 20
127.05322686
  0
VERTEX
  8
0
 10
176.64631543
 20
127.20577656
  0
VERTEX
  8
0
 10
177.05641765
 20
127.44695281
  0
VERTEX
  8
0
 10
177.54337122
 20
127.76605929
  0
VERTEX
  8
0
 10
178.09148202
 20
128.15239970
  0
VERTEX
  8
0
 10
178.68505593
 20
128.59527773
  0
VERTEX
  8
0
 10
179.30839885
 20
129.08399707
  0
VERTEX
  8
0
 10
179.94581664
 20
129.60786142
  0
SEQEND
  0
POLYLINE
  8
Calque_par_d_faut
 62
256
 66
   1
 39
0.000000
 70
    1
  0
VERTEX
  8
0
 10
39.97474504
 20
145.46956963
  0
VERTEX
  8
0
 10
40.25463337
 20
145.82133303
  0
VERTEX
  8
0
 10
40.48156416
 20
146.14237280
  0
VERTEX
  8
0
 10
40.65282522
 20
146.43549463
  0
VERTEX
  8
0
 10
40.76570435
 20
146.70350420
  0
VERTEX
  8
0
 10
40.81748935
 20
146.94920720
  0
VERTEX
  8
0
 10
40.81962399
 20
147.06457051
  0
VERTEX
  8
0
 10
40.80546802
 20
147.17540931
  0
VERTEX
  8
0
 10
40.77468243
 20
147.28207431
  0
VERTEX
  8
0
 10
40.72692818
 20
147.38491622
  0
VERTEX
  8
0
 10
40.66186625
 20
147.48428575
  0
VERTEX
  8
0
 10
40.57915761
 20
147.58053361
  0
VERTEX
  8
0
 10
40.35944413
 20
147.76506717
  0
VERTEX
  8
0
 10
40.06507553
 20
147.94132257
  0
VERTEX
  8
0
 10
39.69333963
 20
148.11210551
  0
VERTEX
  8
0
 10
39.24152422
 20
148.28022167
  0
VERTEX
  8
0
 10
38.70691710
 20
148.44847674
  0
VERTEX
  8
0
 10
38.08680608
 20
148.61967639
  0
VERTEX
  8
0
 10
36.57922355
 20
148.98213219
  0
VERTEX
  8
0
 10
35.27428806
 20
149.25939896
  0
VERTEX
  8
0
 10
34.74865147
 20
149.34838659
  0
VERTEX
  8
0
 10
34.30340133
 20
149.39787681
  0
VERTEX
  8
0
 10
33.93541194
 20
149.40306943
  0
VERTEX
  8
0
 10
33.77941324
 20
149.38755408
  0
VERTEX
  8
0
 10
33.64155757
 20
149.35916426
  0
VERTEX
  8
0
 10
33.52145423
 20
149.31729995
  0
VERTEX
  8
0
 10
33.41871249
 20
149.26136113
  0
VERTEX
  8
0
 10
33.33294165
 20
149.19074777
  0
VERTEX
  8
0
 10
33.26375099
 20
149.10485985
  0
VERTEX
  8
0
 10
33.21074978
 20
149.00309734
  0
VERTEX
  8
0
 10
33.17354732
 20
148.88486023
  0
VERTEX
  8
0
 10
33.15175290
 20
148.74954849
  0
VERTEX
  8
0
 10
33.14497578
 20
148.59656210
  0
VERTEX
  8
0
 10
33.17491064
 20
148.23516526
  0
VERTEX
  8
0
 10
33.26022617
 20
147.79586955
  0
VERTEX
  8
0
 10
33.39779665
 20
147.27387476
  0
VERTEX
  8
0
 10
33.58449636
 20
146.66438072
  0
VERTEX
  8
0
 10
34.09278056
 20
145.16369416
  0
VERTEX
  8
0
 10
34.41189745
 20
144.30490422
  0
VERTEX
  8
0
 10
34.56324265
 20
143.94730863
  0
VERTEX
  8
0
 10
34.71156446
 20
143.63567127
  0
VERTEX
  8
0
 10
34.85870195
 20
143.36856112
  0
VERTEX
  8
0
 10
35.00649420
 20
143.14454716
  0
VERTEX
  8
0
 10
35.15678028
 20
142.96219839
  0
VERTEX
  8
0
 10
35.31139926
 20
142.82008377
  0
VERTEX
  8
0
 10
35.47219023
 20
142.71677230
  0
VERTEX
  8
0
 10
35.64099226
 20
142.65083295
  0
VERTEX
  8
0
 10
35.81964443
 20
142.62083471
  0
VERTEX
  8
0
 10
36.00998580
 20
142.62534657
  0
VERTEX
  8
0
 10
36.21385546
 20
142.66293749
  0
VERTEX
  8
0
 10
36.43309248
 20
142.73217648
  0
VERTEX
  8
0
 10
36.66953594
 20
142.83163250
  0
VERTEX
  8
0
 10
36.92502491
 20
142.95987455
  0
VERTEX
  8
0
 10
37.30118902
 20
143.17910209
  0
VERTEX
  8
0
 10
37.70381349
 20
143.44591250
  0
VERTEX
  8
0
 10
38.12038969
 20
143.75001211
  0
VERTEX
  8
0
 10
38.53840900
 20
144.08110724
  0
VERTEX
  8
0
 10
38.94536281
 20
144.42890423
  0
VERTEX
  8
0
 10
39.32874250
 20
144.78310941
  0
VERTEX
  8
0
 10
39.67603945
 20
145.13342910
  0
VERTEX
  8
0
 10
39.97474504
 20
145.46956963
  0
SEQEND
  0
POLYLINE
  8
Calque_par_d_faut
 62
256
 66
   1
 39
0.000000
 70
    1
  0
VERTEX
  8
0
 10
60.96481624
 20
143.93425855
  0
VERTEX
  8
0
 10
61.37772002
 20
144.75907156
  0
VERTEX
  8
0
 10
61.69474157
 20
145.51015552
  0
VERTEX
  8
0
 10
61.81749412
 20
145.85787367
  0
VERTEX
  8
0
 10
61.91651325
 20
146.18694903
  0
VERTEX
  8
0
 10
61.99187799
 20
146.49731144
  0
VERTEX
  8
0
 10
62.04366740
 20
146.78889072
  0
VERTEX
  8
0
 10
62.07196052
 20
147.06161669
  0
VERTEX
  8
0
 10
62.07683640
 20
147.31541919
  0
VERTEX
  8
0
 10
62.05837407
 20
147.55022803
  0
VERTEX
  8
0
 10
62.01665258
 20
147.76597306
  0
VERTEX
  8
0
 10
61.95175099
 20
147.96258409
  0
VERTEX
  8
0
 10
61.86374832
 20
148.13999096
  0
VERTEX
  8
0
 10
61.75272363
 20
148.29812348
  0
VERTEX
  8
0
 10
61.61875596
 20
148.43691149
  0
VERTEX
  8
0
 10
61.46192436
 20
148.55628482
  0
VERTEX
  8
0
 10
61.28230786
 20
148.65617328
  0
VERTEX
  8
0
 10
61.07998552
 20
148.73650672
  0
VERTEX
  8
0
 10
60.85503638
 20
148.79721494
  0
VERTEX
  8
0
 10
60.60753948
 20
148.83822779
  0
VERTEX
  8
0
 10
60.33757387
 20
148.85947509
  0
VERTEX
  8
0
 10
60.04521859
 20
148.86088667
  0
VERTEX
  8
0
 10
59.73055269
 20
148.84239235
  0
VERTEX
  8
0
 10
59.39365521
 20
148.80392196
  0
VERTEX
  8
0
 10
59.03460520
 20
148.74540532
  0
VERTEX
  8
0
 10
58.25036374
 20
148.56795264
  0
VERTEX
  8
0
 10
57.37846069
 20
148.30947291
  0
VERTEX
  8
0
 10
56.41952838
 20
147.96940475
  0
VERTEX
  8
0
 10
53.70885744
 20
146.93880949
  0
VERTEX
  8
0
 10
56.02874275
 20
144.46940475
  0
VERTEX
  8
0
 10
56.53005734
 20
143.94521099
  0
VERTEX
  8
0
 10
56.98808618
 20
143.48835589
  0
VERTEX
  8
0
 10
57.40659591
 20
143.09843106
  0
VERTEX
  8
0
 10
57.78935321
 20
142.77502816
  0
VERTEX
  8
0
 10
58.14012474
 20
142.51773882
  0
VERTEX
  8
0
 10
58.46267715
 20
142.32615466
  0
VERTEX
  8
0
 10
58.76077712
 20
142.19986734
  0
VERTEX
  8
0
 10
59.03819131
 20
142.13846847
  0
VERTEX
  8
0
 10
59.17031832
 20
142.13197460
  0
VERTEX
  8
0
 10
59.29868638
 20
142.14154971
  0
VERTEX
  8
0
 10
59.42376633
 20
142.16714275
  0
VERTEX
  8
0
 10
59.54602900
 20
142.20870268
  0
VERTEX
  8
0
 10
59.78398582
 20
142.33951902
  0
VERTEX
  8
0
 10
60.01632351
 20
142.53359037
  0
VERTEX
  8
0
 10
60.24680873
 20
142.79050836
  0
VERTEX
  8
0
 10
60.47920816
 20
143.10986463
  0
VERTEX
  8
0
 10
60.71728844
 20
143.49125081
  0
VERTEX
  8
0
 10
60.96481624
 20
143.93425855
  0
SEQEND
  0
POLYLINE
  8
Calque_par_d_faut
 62
256
 66
   1
 39
0.000000
 70
    1
  0
VERTEX
  8
0
 10
82.25000000
 20
144.80709196
  0
VERTEX
  8
0
 10
82.60153809
 20
145.12527696
  0
VERTEX
  8
0
 10
82.92949219
 20
145.45360117
  0
VERTEX
  8
0
 10
83.22668457
 20
145.78262733
  0
VERTEX
  8
0
 10
83.48593750
 20
146.10291818
  0
VERTEX
  8
0
 10
83.70007324
 20
146.40503649
  0
VERTEX
  8
0
 10
83.86191406
 20
146.67954500
  0
VERTEX
  8
0
 10
83.96428223
 20
146.91700645
  0
VERTEX
  8
0
 10
83.99092102
 20
147.01889540
  0
VERTEX
  8
0
 10
84.00000000
 20
147.10798360
  0
VERTEX
  8
0
 10
83.97952252
 20
147.19327164
  0
VERTEX
  8
0
 10
83.91975029
 20
147.28573126
  0
VERTEX
  8
0
 10
83.82317365
 20
147.38458537
  0
VERTEX
  8
0
 10
83.69228292
 20
147.48905686
  0
VERTEX
  8
0
 10
83.33752053
 20
147.71174362
  0
VERTEX
  8
0
 10
82.87538577
 20
147.94757473
  0
VERTEX
  8
0
 10
82.32580126
 20
148.19033342
  0
VERTEX
  8
0
 10
81.70868966
 20
148.43380289
  0
VERTEX
  8
0
 10
81.04397360
 20
148.67176636
  0
VERTEX
  8
0
 10
80.35157572
 20
148.89800704
  0
VERTEX
  8
0
 10
79.65141867
 20
149.10630815
  0
VERTEX
  8
0
 10
78.96342507
 20
149.29045288
  0
VERTEX
  8
0
 10
78.30751758
 20
149.44422446
  0
VERTEX
  8
0
 10
77.70361883
 20
149.56140609
  0
VERTEX
  8
0
 10
77.17165146
 20
149.63578098
  0
VERTEX
  8
0
 10
76.73153812
 20
149.66113236
  0
VERTEX
  8
0
 10
76.55215253
 20
149.65348148
  0
VERTEX
  8
0
 10
76.40320143
 20
149.63124342
  0
VERTEX
  8
0
 10
76.28717517
 20
149.59364109
  0
VERTEX
  8
0
 10
76.20656405
 20
149.53989739
  0
VERTEX
  8
0
 10
76.17133978
 20
149.47999662
  0
VERTEX
  8
0
 10
76.14911782
 20
149.38537093
  0
VERTEX
  8
0
 10
76.14209280
 20
149.10011117
  0
VERTEX
  8
0
 10
76.18231288
 20
148.70045098
  0
VERTEX
  8
0
 10
76.26660197
 20
148.20272319
  0
VERTEX
  8
0
 10
76.39178399
 20
147.62326066
  0
VERTEX
  8
0
 10
76.55468282
 20
146.97839623
  0
VERTEX
  8
0
 10
76.75212237
 20
146.28446276
  0
VERTEX
  8
0
 10
76.98092656
 20
145.55779310
  0
VERTEX
  8
0
 10
77.20005780
 20
144.91662654
  0
VERTEX
  8
0
 10
77.41020419
 20
144.35806624
  0
VERTEX
  8
0
 10
77.61643922
 20
143.88138938
  0
VERTEX
  8
0
 10
77.82383638
 20
143.48587311
  0
VERTEX
  8
0
 10
78.03746917
 20
143.17079460
  0
VERTEX
  8
0
 10
78.14820940
 20
143.04319362
  0
VERTEX
  8
0
 10
78.26241108
 20
142.93543101
  0
VERTEX
  8
0
 10
78.38070842
 20
142.84741643
  0
VERTEX
  8
0
 10
78.50373560
 20
142.77905951
  0
VERTEX
  8
0
 10
78.63212681
 20
142.73026991
  0
VERTEX
  8
0
 10
78.76651623
 20
142.70095726
  0
VERTEX
  8
0
 10
78.90753804
 20
142.69103122
  0
VERTEX
  8
0
 10
79.05582645
 20
142.70040143
  0
VERTEX
  8
0
 10
79.21201562
 20
142.72897753
  0
VERTEX
  8
0
 10
79.37673975
 20
142.77666917
  0
VERTEX
  8
0
 10
79.73432964
 20
142.92903766
  0
VERTEX
  8
0
 10
80.13366960
 20
143.15678405
  0
VERTEX
  8
0
 10
80.57983312
 20
143.45918551
  0
VERTEX
  8
0
 10
81.07789370
 20
143.83551921
  0
VERTEX
  8
0
 10
81.63292483
 20
144.28506230
  0
VERTEX
  8
0
 10
82.25000000
 20
144.80709196
  0
SEQEND
  0
POLYLINE
  8
Calque_par_d_faut
 62
256
 66
   1
 39
0.000000
 70
    1
  0
VERTEX
  8
0
 10
104.70741983
 20
145.81818397
  0
VERTEX
  8
0
 10
105.09607116
 20
146.79548951
  0
VERTEX
  8
0
 10
105.36223880
 20
147.55049080
  0
VERTEX
  8
0
 10
105.44761044
 20
147.85348835
  0
VERTEX
  8
0
 10
105.50022420
 20
148.11154303
  0
VERTEX
  8
0
 10
105.51936775
 20
148.32819924
  0
VERTEX
  8
0
 10
105.50432878
 20
148.50700139
  0
VERTEX
  8
0
 10
105.45439496
 20
148.65149386
  0
VERTEX
  8
0
 10
105.36885398
 20
148.76522107
  0
VERTEX
  8
0
 10
105.24699350
 20
148.85172741
  0
VERTEX
  8
0
 10
105.08810122
 20
148.91455727
  0
VERTEX
  8
0
 10
104.89146481
 20
148.95725506
  0
VERTEX
  8
0
 10
104.65637195
 20
148.98336518
  0
VERTEX
  8
0
 10
104.06796759
 20
149.00000000
  0
VERTEX
  8
0
 10
103.62338560
 20
148.97896539
  0
VERTEX
  8
0
 10
103.10167963
 20
148.91867959
  0
VERTEX
  8
0
 10
102.52191552
 20
148.82336966
  0
VERTEX
  8
0
 10
101.90315916
 20
148.69726264
  0
VERTEX
  8
0
 10
101.26447640
 20
148.54458559
  0
VERTEX
  8
0
 10
100.62493311
 20
148.36956556
  0
VERTEX
  8
0
 10
100.00359515
 20
148.17642959
  0
VERTEX
  8
0
 10
99.41952838
 20
147.96940475
  0
VERTEX
  8
0
 10
96.70885744
 20
146.93880949
  0
VERTEX
  8
0
 10
99.04679178
 20
144.45019243
  0
VERTEX
  8
0
 10
99.56169360
 20
143.92003498
  0
VERTEX
  8
0
 10
100.03946395
 20
143.46818306
  0
VERTEX
  8
0
 10
100.48345636
 20
143.09544713
  0
VERTEX
  8
0
 10
100.89702435
 20
142.80263761
  0
VERTEX
  8
0
 10
101.28352146
 20
142.59056495
  0
VERTEX
  8
0
 10
101.46766640
 20
142.51505820
  0
VERTEX
  8
0
 10
101.64630120
 20
142.46003958
  0
VERTEX
  8
0
 10
101.81984504
 20
142.42561040
  0
VERTEX
  8
0
 10
101.98871711
 20
142.41187195
  0
VERTEX
  8
0
 10
102.15333661
 20
142.41892555
  0
VERTEX
  8
0
 10
102.31412272
 20
142.44687250
  0
VERTEX
  8
0
 10
102.47149464
 20
142.49581410
  0
VERTEX
  8
0
 10
102.62587155
 20
142.56585166
  0
VERTEX
  8
0
 10
102.77767265
 20
142.65708649
  0
VERTEX
  8
0
 10
102.92731713
 20
142.76961988
  0
VERTEX
  8
0
 10
103.07522417
 20
142.90355315
  0
VERTEX
  8
0
 10
103.22181298
 20
143.05898760
  0
VERTEX
  8
0
 10
103.51271264
 20
143.43476524
  0
VERTEX
  8
0
 10
103.80336962
 20
143.89776327
  0
VERTEX
  8
0
 10
104.09713746
 20
144.44879210
  0
VERTEX
  8
0
 10
104.39736969
 20
145.08866219
  0
VERTEX
  8
0
 10
104.70741983
 20
145.81818397
  0
SEQEND
  0
POLYLINE
  8
Calque_par_d_faut
 62
256
 66
   1
 39
0.000000
 70
    1
  0
VERTEX
  8
0
 10
125.25000000
 20
144.80709196
  0
VERTEX
  8
0
 10
125.60153809
 20
145.12527696
  0
VERTEX
  8
0
 10
125.92949219
 20
145.45360117
  0
VERTEX
  8
0
 10
126.22668457
 20
145.78262733
  0
VERTEX
  8
0
 10
126.48593750
 20
146.10291818
  0
VERTEX
  8
0
 10
126.70007324
 20
146.40503649
  0
VERTEX
  8
0
 10
126.86191406
 20
146.67954500
  0
VERTEX
  8
0
 10
126.96428223
 20
146.91700645
  0
VERTEX
  8
0
 10
126.99092102
 20
147.01889540
  0
VERTEX
  8
0
 10
127.00000000
 20
147.10798360
  0
VERTEX
  8
0
 10
126.97952252
 20
147.19327164
  0
VERTEX
  8
0
 10
126.91975029
 20
147.28573126
  0
VERTEX
  8
0
 10
126.82317365
 20
147.38458537
  0
VERTEX
  8
0
 10
126.69228292
 20
147.48905686
  0
VERTEX
  8
0
 10
126.33752053
 20
147.71174362
  0
VERTEX
  8
0
 10
125.87538577
 20
147.94757473
  0
VERTEX
  8
0
 10
125.32580126
 20
148.19033342
  0
VERTEX
  8
0
 10
124.70868966
 20
148.43380289
  0
VERTEX
  8
0
 10
124.04397360
 20
148.67176636
  0
VERTEX
  8
0
 10
123.35157572
 20
148.89800704
  0
VERTEX
  8
0
 10
122.65141867
 20
149.10630815
  0
VERTEX
  8
0
 10
121.96342507
 20
149.29045288
  0
VERTEX
  8
0
 10
121.30751758
 20
149.44422446
  0
VERTEX
  8
0
 10
120.70361883
 20
149.56140609
  0
VERTEX
  8
0
 10
120.17165146
 20
149.63578098
  0
VERTEX
  8
0
 10
119.73153812
 20
149.66113236
  0
VERTEX
  8
0
 10
119.55215253
 20
149.65348148
  0
VERTEX
  8
0
 10
119.40320143
 20
149.63124342
  0
VERTEX
  8
0
 10
119.28717517
 20
149.59364109
  0
VERTEX
  8
0
 10
119.20656405
 20
149.53989739
  0
VERTEX
  8
0
 10
119.17133978
 20
149.47999662
  0
VERTEX
  8
0
 10
119.14911782
 20
149.38537093
  0
VERTEX
  8
0
 10
119.14209280
 20
149.10011117
  0
VERTEX
  8
0
 10
119.18231288
 20
148.70045098
  0
VERTEX
  8
0
 10
119.26660197
 20
148.20272319
  0
VERTEX
  8
0
 10
119.39178399
 20
147.62326066
  0
VERTEX
  8
0
 10
119.55468282
 20
146.97839623
  0
VERTEX
  8
0
 10
119.75212237
 20
146.28446276
  0
VERTEX
  8
0
 10
119.98092656
 20
145.55779310
  0
VERTEX
  8
0
 10
120.20005780
 20
144.91662654
  0
VERTEX
  8
0
 10
120.41020419
 20
144.35806624
  0
VERTEX
  8
0
 10
120.61643922
 20
143.88138938
  0
VERTEX
  8
0
 10
120.82383638
 20
143.48587311
  0
VERTEX
  8
0
 10
121.03746917
 20
143.17079460
  0
VERTEX
  8
0
 10
121.14820940
 20
143.04319362
  0
VERTEX
  8
0
 10
121.26241108
 20
142.93543101
  0
VERTEX
  8
0
 10
121.38070842
 20
142.84741643
  0
VERTEX
  8
0
 10
121.50373560
 20
142.77905951
  0
VERTEX
  8
0
 10
121.63212681
 20
142.73026991
  0
VERTEX
  8
0
 10
121.76651623
 20
142.70095726
  0
VERTEX
  8
0
 10
121.90753804
 20
142.69103122
  0
VERTEX
  8
0
 10
122.05582645
 20
142.70040143
  0
VERTEX
  8
0
 10
122.21201562
 20
142.72897753
  0
VERTEX
  8
0
 10
122.37673975
 20
142.77666917
  0
VERTEX
  8
0
 10
122.73432964
 20
142.92903766
  0
VERTEX
  8
0
 10
123.13366960
 20
143.15678405
  0
VERTEX
  8
0
 10
123.57983312
 20
143.45918551
  0
VERTEX
  8
0
 10
124.07789370
 20
143.83551921
  0
VERTEX
  8
0
 10
124.63292483
 20
144.28506230
  0
VERTEX
  8
0
 10
125.25000000
 20
144.80709196
  0
SEQEND
  0
POLYLINE
  8
Calque_par_d_faut
 62
256
 66
   1
 39
0.000000
 70
    1
  0
VERTEX
  8
0
 10
147.70741983
 20
145.81818397
  0
VERTEX
  8
0
 10
148.09607116
 20
146.79548951
  0
VERTEX
  8
0
 10
148.36223880
 20
147.55049080
  0
VERTEX
  8
0
 10
148.44761044
 20
147.85348835
  0
VERTEX
  8
0
 10
148.50022420
 20
148.11154303
  0
VERTEX
  8
0
 10
148.51936775
 20
148.32819924
  0
VERTEX
  8
0
 10
148.50432878
 20
148.50700139
  0
VERTEX
  8
0
 10
148.45439496
 20
148.65149386
  0
VERTEX
  8
0
 10
148.36885398
 20
148.76522107
  0
VERTEX
  8
0
 10
148.24699350
 20
148.85172741
  0
VERTEX
  8
0
 10
148.08810122
 20
148.91455727
  0
VERTEX
  8
0
 10
147.89146481
 20
148.95725506
  0
VERTEX
  8
0
 10
147.65637195
 20
148.98336518
  0
VERTEX
  8
0
 10
147.06796759
 20
149.00000000
  0
VERTEX
  8
0
 10
146.62338560
 20
148.97896539
  0
VERTEX
  8
0
 10
146.10167963
 20
148.91867959
  0
VERTEX
  8
0
 10
145.52191552
 20
148.82336966
  0
VERTEX
  8
0
 10
144.90315916
 20
148.69726264
  0
VERTEX
  8
0
 10
144.26447640
 20
148.54458559
  0
VERTEX
  8
0
 10
143.62493311
 20
148.36956556
  0
VERTEX
  8
0
 10
143.00359515
 20
148.17642959
  0
VERTEX
  8
0
 10
142.41952838
 20
147.96940475
  0
VERTEX
  8
0
 10
139.70885744
 20
146.93880949
  0
VERTEX
  8
0
 10
142.04679178
 20
144.45019243
  0
VERTEX
  8
0
 10
142.56169360
 20
143.92003498
  0
VERTEX
  8
0
 10
143.03946395
 20
143.46818306
  0
VERTEX
  8
0
 10
143.48345636
 20
143.09544713
  0
VERTEX
  8
0
 10
143.89702435
 20
142.80263761
  0
VERTEX
  8
0
 10
144.28352146
 20
142.59056495
  0
VERTEX
  8
0
 10
144.46766640
 20
142.51505820
  0
VERTEX
  8
0
 10
144.64630120
 20
142.46003958
  0
VERTEX
  8
0
 10
144.81984504
 20
142.42561040
  0
VERTEX
  8
0
 10
144.98871711
 20
142.41187195
  0
VERTEX
  8
0
 10
145.15333661
 20
142.41892555
  0
VERTEX
  8
0
 10
145.31412272
 20
142.44687250
  0
VERTEX
  8
0
 10
145.47149464
 20
142.49581410
  0
VERTEX
  8
0
 10
145.62587155
 20
142.56585166
  0
VERTEX
  8
0
 10
145.77767265
 20
142.65708649
  0
VERTEX
  8
0
 10
145.92731713
 20
142.76961988
  0
VERTEX
  8
0
 10
146.07522417
 20
142.90355315
  0
VERTEX
  8
0
 10
146.22181298
 20
143.05898760
  0
VERTEX
  8
0
 10
146.51271264
 20
143.43476524
  0
VERTEX
  8
0
 10
146.80336962
 20
143.89776327
  0
VERTEX
  8
0
 10
147.09713746
 20
144.44879210
  0
VERTEX
  8
0
 10
147.39736969
 20
145.08866219
  0
VERTEX
  8
0
 10
147.70741983
 20
145.81818397
  0
SEQEND
  0
POLYLINE
  8
Calque_par_d_faut
 62
256
 66
   1
 39
0.000000
 70
    1
  0
VERTEX
  8
0
 10
167.68554878
 20
144.17431403
  0
VERTEX
  8
0
 10
168.15047321
 20
144.62698087
  0
VERTEX
  8
0
 10
168.58420679
 20
145.08000227
  0
VERTEX
  8
0
 10
168.97725666
 20
145.52126633
  0
VERTEX
  8
0
 10
169.32012995
 20
145.93866115
  0
VERTEX
  8
0
 10
169.60333380
 20
146.32007483
  0
VERTEX
  8
0
 10
169.81737533
 20
146.65339548
  0
VERTEX
  8
0
 10
169.95276169
 20
146.92651119
  0
VERTEX
  8
0
 10
169.98799265
 20
147.03670723
  0
VERTEX
  8
0
 10
170.00000000
 20
147.12731007
  0
VERTEX
  8
0
 10
169.97949715
 20
147.21134309
  0
VERTEX
  8
0
 10
169.91965210
 20
147.30254313
  0
VERTEX
  8
0
 10
169.82296009
 20
147.40013777
  0
VERTEX
  8
0
 10
169.69191635
 20
147.50335455
  0
VERTEX
  8
0
 10
169.33675466
 20
147.72356477
  0
VERTEX
  8
0
 10
168.87412895
 20
147.95699425
  0
VERTEX
  8
0
 10
168.32400113
 20
148.19746346
  0
VERTEX
  8
0
 10
167.70633313
 20
148.43879285
  0
VERTEX
  8
0
 10
167.04108684
 20
148.67480287
  0
VERTEX
  8
0
 10
166.34822420
 20
148.89931399
  0
VERTEX
  8
0
 10
165.64770712
 20
149.10614667
  0
VERTEX
  8
0
 10
164.95949751
 20
149.28912136
  0
VERTEX
  8
0
 10
164.30355729
 20
149.44205851
  0
VERTEX
  8
0
 10
163.69984837
 20
149.55877860
  0
VERTEX
  8
0
 10
163.16833267
 20
149.63310207
  0
VERTEX
  8
0
 10
162.72897211
 20
149.65884939
  0
VERTEX
  8
0
 10
162.55008810
 20
149.65157588
  0
VERTEX
  8
0
 10
162.40172860
 20
149.62984101
  0
VERTEX
  8
0
 10
162.28638884
 20
149.59287232
  0
VERTEX
  8
0
 10
162.20656405
 20
149.53989739
  0
VERTEX
  8
0
 10
162.16239690
 20
149.46889958
  0
VERTEX
  8
0
 10
162.13455075
 20
149.36275126
  0
VERTEX
  8
0
 10
162.12219388
 20
149.22390539
  0
VERTEX
  8
0
 10
162.12449458
 20
149.05481493
  0
VERTEX
  8
0
 10
162.16974179
 20
148.63571207
  0
VERTEX
  8
0
 10
162.26363861
 20
148.12506639
  0
VERTEX
  8
0
 10
162.39953128
 20
147.54250156
  0
VERTEX
  8
0
 10
162.57076603
 20
146.90764128
  0
VERTEX
  8
0
 10
162.77068912
 20
146.24010923
  0
VERTEX
  8
0
 10
162.99264677
 20
145.55952911
  0
VERTEX
  8
0
 10
163.22998522
 20
144.88552460
  0
VERTEX
  8
0
 10
163.47605071
 20
144.23771939
  0
VERTEX
  8
0
 10
163.72418948
 20
143.63573716
  0
VERTEX
  8
0
 10
163.96774777
 20
143.09920162
  0
VERTEX
  8
0
 10
164.20007182
 20
142.64773645
  0
VERTEX
  8
0
 10
164.41450785
 20
142.30096532
  0
VERTEX
  8
0
 10
164.51293857
 20
142.17297244
  0
VERTEX
  8
0
 10
164.60440212
 20
142.07851195
  0
VERTEX
  8
0
 10
164.68806679
 20
142.02003681
  0
VERTEX
  8
0
 10
164.76310086
 20
142.00000000
  0
VERTEX
  8
0
 10
164.83704342
 20
142.01128032
  0
VERTEX
  8
0
 10
164.93247288
 20
142.04437809
  0
VERTEX
  8
0
 10
165.18179925
 20
142.17156697
  0
VERTEX
  8
0
 10
165.49909334
 20
142.37264855
  0
VERTEX
  8
0
 10
165.87236857
 20
142.63870475
  0
VERTEX
  8
0
 10
166.28963834
 20
142.96081748
  0
VERTEX
  8
0
 10
166.73891603
 20
143.33006866
  0
VERTEX
  8
0
 10
167.20821504
 20
143.73754020
  0
VERTEX
  8
0
 10
167.68554878
 20
144.17431403
  0
SEQEND
  0
POLYLINE
  8
Calque_par_d_faut
 62
256
 66
   1
 39
0.000000
 70
    1
  0
VERTEX
  8
0
 10
189.75516647
 20
143.25000000
  0
VERTEX
  8
0
 10
189.97013505
 20
143.54702148
  0
VERTEX
  8
0
 10
190.19789710
 20
143.91289062
  0
VERTEX
  8
0
 10
190.43152167
 20
144.33325195
  0
VERTEX
  8
0
 10
190.66407780
 20
144.79375000
  0
VERTEX
  8
0
 10
190.88863453
 20
145.28002930
  0
VERTEX
  8
0
 10
191.09826092
 20
145.77773437
  0
VERTEX
  8
0
 10
191.28602602
 20
146.27250977
  0
VERTEX
  8
0
 10
191.44499886
 20
146.75000000
  0
VERTEX
  8
0
 10
191.61445996
 20
147.36745392
  0
VERTEX
  8
0
 10
191.66868534
 20
147.63119399
  0
VERTEX
  8
0
 10
191.70150118
 20
147.86678178
  0
VERTEX
  8
0
 10
191.71210294
 20
148.07559653
  0
VERTEX
  8
0
 10
191.69968604
 20
148.25901748
  0
VERTEX
  8
0
 10
191.66344592
 20
148.41842386
  0
VERTEX
  8
0
 10
191.60257802
 20
148.55519492
  0
VERTEX
  8
0
 10
191.51627778
 20
148.67070988
  0
VERTEX
  8
0
 10
191.40374064
 20
148.76634799
  0
VERTEX
  8
0
 10
191.26416203
 20
148.84348848
  0
VERTEX
  8
0
 10
191.09673740
 20
148.90351059
  0
VERTEX
  8
0
 10
190.90066217
 20
148.94779357
  0
VERTEX
  8
0
 10
190.67513179
 20
148.97771663
  0
VERTEX
  8
0
 10
190.13248733
 20
149.00000000
  0
VERTEX
  8
0
 10
189.67494469
 20
148.97896539
  0
VERTEX
  8
0
 10
189.14114756
 20
148.91867959
  0
VERTEX
  8
0
 10
188.55042645
 20
148.82336966
  0
VERTEX
  8
0
 10
187.92211184
 20
148.69726264
  0
VERTEX
  8
0
 10
187.27553423
 20
148.54458559
  0
VERTEX
  8
0
 10
186.63002412
 20
148.36956556
  0
VERTEX
  8
0
 10
186.00491201
 20
148.17642959
  0
VERTEX
  8
0
 10
185.41952838
 20
147.96940475
  0
VERTEX
  8
0
 10
182.70885744
 20
146.93880949
  0
VERTEX
  8
0
 10
185.02874275
 20
144.46940475
  0
VERTEX
  8
0
 10
185.93054158
 20
143.53949814
  0
VERTEX
  8
0
 10
186.32260790
 20
143.16442843
  0
VERTEX
  8
0
 10
186.68068539
 20
142.84793095
  0
VERTEX
  8
0
 10
187.00869902
 20
142.58899309
  0
VERTEX
  8
0
 10
187.31057371
 20
142.38660220
  0
VERTEX
  8
0
 10
187.59023441
 20
142.23974567
  0
VERTEX
  8
0
 10
187.85160606
 20
142.14741088
  0
VERTEX
  8
0
 10
188.09861360
 20
142.10858519
  0
VERTEX
  8
0
 10
188.33518198
 20
142.12225599
  0
VERTEX
  8
0
 10
188.56523613
 20
142.18741065
  0
VERTEX
  8
0
 10
188.79270100
 20
142.30303655
  0
VERTEX
  8
0
 10
189.02150152
 20
142.46812105
  0
VERTEX
  8
0
 10
189.25556265
 20
142.68165155
  0
VERTEX
  8
0
 10
189.49880932
 20
142.94261541
  0
VERTEX
  8
0
 10
189.75516647
 20
143.25000000
  0
SEQEND
  0
POLYLINE
  8
Calque_par_d_faut
 62
256
 66
   1
 39
0.000000
 70
    1
  0
VERTEX
  8
0
 10
53.00000000
 20
153.50624713
  0
VERTEX
  8
0
 10
53.56998972
 20
153.77252911
  0
VERTEX
  8
0
 10
54.23279071
 20
154.04918087
  0
VERTEX
  8
0
 10
54.96452569
 20
154.32812858
  0
VERTEX
  8
0
 10
55.74131740
 20
154.60129842
  0
VERTEX
  8
0
 10
56.53928856
 20
154.86061656
  0
VERTEX
  8
0
 10
57.33456190
 20
155.09800917
  0
VERTEX
  8
0
 10
58.10326015
 20
155.30540244
  0
VERTEX
  8
0
 10
58.82150604
 20
155.47472254
  0
VERTEX
  8
0
 10
59.54522337
 20
155.63624822
  0
VERTEX
  8
0
 10
60.15929896
 20
155.78895373
  0
VERTEX
  8
0
 10
60.65917829
 20
155.93724480
  0
VERTEX
  8
0
 10
61.04030682
 20
156.08552714
  0
VERTEX
  8
0
 10
61.18491625
 20
156.16104183
  0
VERTEX
  8
0
 10
61.29813003
 20
156.23820648
  0
VERTEX
  8
0
 10
61.37937884
 20
156.31757182
  0
VERTEX
  8
0
 10
61.42809338
 20
156.39968855
  0
VERTEX
  8
0
 10
61.44370432
 20
156.48510740
  0
VERTEX
  8
0
 10
61.42564235
 20
156.57437908
  0
VERTEX
  8
0
 10
61.37333816
 20
156.66805429
  0
VERTEX
  8
0
 10
61.28622242
 20
156.76668377
  0
VERTEX
  8
0
 10
61.16372581
 20
156.87081822
  0
VERTEX
  8
0
 10
61.00527904
 20
156.98100836
  0
VERTEX
  8
0
 10
60.57825769
 20
157.22175857
  0
VERTEX
  8
0
 10
60.00060385
 20
157.49334013
  0
VERTEX
  8
0
 10
59.26776299
 20
157.80015876
  0
VERTEX
  8
0
 10
58.37518057
 20
158.14662018
  0
VERTEX
  8
0
 10
57.31830206
 20
158.53713012
  0
VERTEX
  8
0
 10
54.69343870
 20
159.46791845
  0
VERTEX
  8
0
 10
48.28066220
 20
161.70871877
  0
VERTEX
  8
0
 10
40.50587620
 20
159.15396562
  0
VERTEX
  8
0
 10
38.54472561
 20
158.49285256
  0
VERTEX
  8
0
 10
36.96373034
 20
157.92102045
  0
VERTEX
  8
0
 10
36.31107289
 20
157.66597639
  0
VERTEX
  8
0
 10
35.74779262
 20
157.43012253
  0
VERTEX
  8
0
 10
35.27200228
 20
157.21241551
  0
VERTEX
  8
0
 10
34.88181467
 20
157.01181201
  0
VERTEX
  8
0
 10
34.57534255
 20
156.82726866
  0
VERTEX
  8
0
 10
34.35069872
 20
156.65774212
  0
VERTEX
  8
0
 10
34.20599594
 20
156.50218905
  0
VERTEX
  8
0
 10
34.16303268
 20
156.42932652
  0
VERTEX
  8
0
 10
34.13934699
 20
156.35956610
  0
VERTEX
  8
0
 10
34.13470295
 20
156.29277737
  0
VERTEX
  8
0
 10
34.14886465
 20
156.22882991
  0
VERTEX
  8
0
 10
34.18159621
 20
156.16759332
  0
VERTEX
  8
0
 10
34.23266171
 20
156.10893716
  0
VERTEX
  8
0
 10
34.38885093
 20
155.99884448
  0
VERTEX
  8
0
 10
34.61554510
 20
155.89750854
  0
VERTEX
  8
0
 10
37.41519137
 20
154.79757556
  0
VERTEX
  8
0
 10
41.50000000
 20
153.13842732
  0
VERTEX
  8
0
 10
42.39978652
 20
152.77816199
  0
VERTEX
  8
0
 10
43.23356759
 20
152.46765811
  0
VERTEX
  8
0
 10
44.01031476
 20
152.20720262
  0
VERTEX
  8
0
 10
44.73899958
 20
151.99708248
  0
VERTEX
  8
0
 10
45.42859361
 20
151.83758463
  0
VERTEX
  8
0
 10
46.08806840
 20
151.72899602
  0
VERTEX
  8
0
 10
46.72639551
 20
151.67160361
  0
VERTEX
  8
0
 10
47.35254649
 20
151.66569433
  0
VERTEX
  8
0
 10
47.97549289
 20
151.71155515
  0
VERTEX
  8
0
 10
48.60420626
 20
151.80947301
  0
VERTEX
  8
0
 10
49.24765817
 20
151.95973485
  0
VERTEX
  8
0
 10
49.91482015
 20
152.16262764
  0
VERTEX
  8
0
 10
50.61466378
 20
152.41843831
  0
VERTEX
  8
0
 10
51.35616059
 20
152.72745381
  0
VERTEX
  8
0
 10
52.14828215
 20
153.08996110
  0
VERTEX
  8
0
 10
53.00000000
 20
153.50624713
  0
SEQEND
  0
POLYLINE
  8
Calque_par_d_faut
 62
256
 66
   1
 39
0.000000
 70
    1
  0
VERTEX
  8
0
 10
100.00000000
 20
154.85091494
  0
VERTEX
  8
0
 10
101.10928764
 20
155.26122806
  0
VERTEX
  8
0
 10
102.07129378
 20
155.65739544
  0
VERTEX
  8
0
 10
102.87261809
 20
156.03127483
  0
VERTEX
  8
0
 10
103.49986022
 20
156.37472399
  0
VERTEX
  8
0
 10
103.74401286
 20
156.53249278
  0
VERTEX
  8
0
 10
103.93961982
 20
156.67960068
  0
VERTEX
  8
0
 10
104.08500606
 20
156.81502989
  0
VERTEX
  8
0
 10
104.17849655
 20
156.93776264
  0
VERTEX
  8
0
 10
104.21841622
 20
157.04678115
  0
VERTEX
  8
0
 10
104.20309005
 20
157.14106763
  0
VERTEX
  8
0
 10
104.13084299
 20
157.21960431
  0
VERTEX
  8
0
 10
104.00000000
 20
157.28137341
  0
VERTEX
  8
0
 10
101.31669150
 20
158.21646575
  0
VERTEX
  8
0
 10
96.97171574
 20
159.76935992
  0
VERTEX
  8
0
 10
91.44343148
 20
161.76220388
  0
VERTEX
  8
0
 10
83.58726084
 20
159.18070818
  0
VERTEX
  8
0
 10
81.60718764
 20
158.51333416
  0
VERTEX
  8
0
 10
80.00985286
 20
157.93602832
  0
VERTEX
  8
0
 10
79.34998132
 20
157.67854988
  0
VERTEX
  8
0
 10
78.78011712
 20
157.44046717
  0
VERTEX
  8
0
 10
78.29836782
 20
157.22073974
  0
VERTEX
  8
0
 10
77.90284101
 20
157.01832717
  0
VERTEX
  8
0
 10
77.59164427
 20
156.83218901
  0
VERTEX
  8
0
 10
77.36288515
 20
156.66128482
  0
VERTEX
  8
0
 10
77.21467126
 20
156.50457417
  0
VERTEX
  8
0
 10
77.17017738
 20
156.43121628
  0
VERTEX
  8
0
 10
77.14511014
 20
156.36101661
  0
VERTEX
  8
0
 10
77.13923300
 20
156.29384510
  0
VERTEX
  8
0
 10
77.15230940
 20
156.22957170
  0
VERTEX
  8
0
 10
77.18410278
 20
156.16806636
  0
VERTEX
  8
0
 10
77.23437659
 20
156.10919902
  0
VERTEX
  8
0
 10
77.38941930
 20
155.99885811
  0
VERTEX
  8
0
 10
77.61554510
 20
155.89750854
  0
VERTEX
  8
0
 10
80.38655173
 20
154.81902460
  0
VERTEX
  8
0
 10
84.40250333
 20
153.21144534
  0
VERTEX
  8
0
 10
86.12030836
 20
152.52589783
  0
VERTEX
  8
0
 10
86.84765772
 20
152.26209365
  0
VERTEX
  8
0
 10
87.51938654
 20
152.05430798
  0
VERTEX
  8
0
 10
88.15955602
 20
151.90506992
  0
VERTEX
  8
0
 10
88.47532512
 20
151.85319659
  0
VERTEX
  8
0
 10
88.79222732
 20
151.81690856
  0
VERTEX
  8
0
 10
89.11327028
 20
151.79652199
  0
VERTEX
  8
0
 10
89.44146163
 20
151.79235301
  0
VERTEX
  8
0
 10
89.77980903
 20
151.80471775
  0
VERTEX
  8
0
 10
90.13132012
 20
151.83393235
  0
VERTEX
  8
0
 10
90.88586397
 20
151.94417569
  0
VERTEX
  8
0
 10
91.72915436
 20
152.12561212
  0
VERTEX
  8
0
 10
92.68525247
 20
152.38077073
  0
VERTEX
  8
0
 10
93.77821947
 20
152.71218062
  0
VERTEX
  8
0
 10
95.03211655
 20
153.12237089
  0
VERTEX
  8
0
 10
96.47100487
 20
153.61387064
  0
VERTEX
  8
0
 10
100.00000000
 20
154.85091494
  0
SEQEND
  0
POLYLINE
  8
Calque_par_d_faut
 62
256
 66
   1
 39
0.000000
 70
    1
  0
VERTEX
  8
0
 10
139.00000000
 20
153.50624713
  0
VERTEX
  8
0
 10
139.56998972
 20
153.77252911
  0
VERTEX
  8
0
 10
140.23279071
 20
154.04918087
  0
VERTEX
  8
0
 10
140.96452569
 20
154.32812858
  0
VERTEX
  8
0
 10
141.74131740
 20
154.60129842
  0
VERTEX
  8
0
 10
142.53928856
 20
154.86061656
  0
VERTEX
  8
0
 10
143.33456190
 20
155.09800917
  0
VERTEX
  8
0
 10
144.10326015
 20
155.30540244
  0
VERTEX
  8
0
 10
144.82150604
 20
155.47472254
  0
VERTEX
  8
0
 10
145.54426404
 20
155.63612977
  0
VERTEX
  8
0
 10
146.15757740
 20
155.78882955
  0
VERTEX
  8
0
 10
146.65707260
 20
155.93710730
  0
VERTEX
  8
0
 10
147.03837612
 20
156.08524846
  0
VERTEX
  8
0
 10
147.18333928
 20
156.16060700
  0
VERTEX
  8
0
 10
147.29711445
 20
156.23753844
  0
VERTEX
  8
0
 10
147.37915495
 20
156.31657843
  0
VERTEX
  8
0
 10
147.42891407
 20
156.39826267
  0
VERTEX
  8
0
 10
147.44584514
 20
156.48312683
  0
VERTEX
  8
0
 10
147.42940147
 20
156.57170658
  0
VERTEX
  8
0
 10
147.37903636
 20
156.66453761
  0
VERTEX
  8
0
 10
147.29420312
 20
156.76215559
  0
VERTEX
  8
0
 10
147.17435507
 20
156.86509621
  0
VERTEX
  8
0
 10
147.01894551
 20
156.97389513
  0
VERTEX
  8
0
 10
146.59925513
 20
157.21121062
  0
VERTEX
  8
0
 10
146.03075845
 20
157.47838749
  0
VERTEX
  8
0
 10
145.30908196
 20
157.77971116
  0
VERTEX
  8
0
 10
144.42985215
 20
158.11946705
  0
VERTEX
  8
0
 10
143.38869550
 20
158.50194061
  0
VERTEX
  8
0
 10
140.80310760
 20
159.41218236
  0
VERTEX
  8
0
 10
134.50000000
 20
161.59724659
  0
VERTEX
  8
0
 10
126.55009965
 20
159.12743211
  0
VERTEX
  8
0
 10
124.50598758
 20
158.47640129
  0
VERTEX
  8
0
 10
122.86935830
 20
157.91719846
  0
VERTEX
  8
0
 10
122.19795338
 20
157.66888714
  0
VERTEX
  8
0
 10
121.62134357
 20
157.43975831
  0
VERTEX
  8
0
 10
121.13717033
 20
157.22855382
  0
VERTEX
  8
0
 10
120.74307513
 20
157.03401550
  0
VERTEX
  8
0
 10
120.43669946
 20
156.85488518
  0
VERTEX
  8
0
 10
120.21568477
 20
156.68990471
  0
VERTEX
  8
0
 10
120.07767253
 20
156.53781590
  0
VERTEX
  8
0
 10
120.03905529
 20
156.46621269
  0
VERTEX
  8
0
 10
120.02030422
 20
156.39736060
  0
VERTEX
  8
0
 10
120.02112450
 20
156.33110233
  0
VERTEX
  8
0
 10
120.04122131
 20
156.26728063
  0
VERTEX
  8
0
 10
120.08029984
 20
156.20573823
  0
VERTEX
  8
0
 10
120.13806526
 20
156.14631784
  0
VERTEX
  8
0
 10
120.30847755
 20
156.03321406
  0
VERTEX
  8
0
 10
120.55009965
 20
155.92671112
  0
VERTEX
  8
0
 10
123.39596677
 20
154.80615381
  0
VERTEX
  8
0
 10
127.50000000
 20
153.13842732
  0
VERTEX
  8
0
 10
128.39978652
 20
152.77816199
  0
VERTEX
  8
0
 10
129.23356759
 20
152.46765811
  0
VERTEX
  8
0
 10
130.01031476
 20
152.20720262
  0
VERTEX
  8
0
 10
130.73899958
 20
151.99708248
  0
VERTEX
  8
0
 10
131.42859361
 20
151.83758463
  0
VERTEX
  8
0
 10
132.08806840
 20
151.72899602
  0
VERTEX
  8
0
 10
132.72639551
 20
151.67160361
  0
VERTEX
  8
0
 10
133.35254649
 20
151.66569433
  0
VERTEX
  8
0
 10
133.97549289
 20
151.71155515
  0
VERTEX
  8
0
 10
134.60420626
 20
151.80947301
  0
VERTEX
  8
0
 10
135.24765817
 20
151.95973485
  0
VERTEX
  8
0
 10
135.91482015
 20
152.16262764
  0
VERTEX
  8
0
 10
136.61466378
 20
152.41843831
  0
VERTEX
  8
0
 10
137.35616059
 20
152.72745381
  0
VERTEX
  8
0
 10
138.14828215
 20
153.08996110
  0
VERTEX
  8
0
 10
139.00000000
 20
153.50624713
  0
SEQEND
  0
POLYLINE
  8
Calque_par_d_faut
 62
256
 66
   1
 39
0.000000
 70
    1
  0
VERTEX
  8
0
 10
182.00000000
 20
153.50624713
  0
VERTEX
  8
0
 10
182.56998972
 20
153.77252911
  0
VERTEX
  8
0
 10
183.23279071
 20
154.04918087
  0
VERTEX
  8
0
 10
183.96452569
 20
154.32812858
  0
VERTEX
  8
0
 10
184.74131740
 20
154.60129842
  0
VERTEX
  8
0
 10
185.53928856
 20
154.86061656
  0
VERTEX
  8
0
 10
186.33456190
 20
155.09800917
  0
VERTEX
  8
0
 10
187.10326015
 20
155.30540244
  0
VERTEX
  8
0
 10
187.82150604
 20
155.47472254
  0
VERTEX
  8
0
 10
188.54426404
 20
155.63612977
  0
VERTEX
  8
0
 10
189.15757740
 20
155.78882955
  0
VERTEX
  8
0
 10
189.65707260
 20
155.93710730
  0
VERTEX
  8
0
 10
190.03837612
 20
156.08524846
  0
VERTEX
  8
0
 10
190.18333928
 20
156.16060700
  0
VERTEX
  8
0
 10
190.29711445
 20
156.23753844
  0
VERTEX
  8
0
 10
190.37915495
 20
156.31657843
  0
VERTEX
  8
0
 10
190.42891407
 20
156.39826267
  0
VERTEX
  8
0
 10
190.44584514
 20
156.48312683
  0
VERTEX
  8
0
 10
190.42940147
 20
156.57170658
  0
VERTEX
  8
0
 10
190.37903636
 20
156.66453761
  0
VERTEX
  8
0
 10
190.29420312
 20
156.76215559
  0
VERTEX
  8
0
 10
190.17435507
 20
156.86509621
  0
VERTEX
  8
0
 10
190.01894551
 20
156.97389513
  0
VERTEX
  8
0
 10
189.59925513
 20
157.21121062
  0
VERTEX
  8
0
 10
189.03075845
 20
157.47838749
  0
VERTEX
  8
0
 10
188.30908196
 20
157.77971116
  0
VERTEX
  8
0
 10
187.42985215
 20
158.11946705
  0
VERTEX
  8
0
 10
186.38869550
 20
158.50194061
  0
VERTEX
  8
0
 10
183.80310760
 20
159.41218236
  0
VERTEX
  8
0
 10
177.50000000
 20
161.59724659
  0
VERTEX
  8
0
 10
169.55009965
 20
159.12743211
  0
VERTEX
  8
0
 10
167.50598758
 20
158.47640129
  0
VERTEX
  8
0
 10
165.86935830
 20
157.91719846
  0
VERTEX
  8
0
 10
165.19795338
 20
157.66888714
  0
VERTEX
  8
0
 10
164.62134357
 20
157.43975831
  0
VERTEX
  8
0
 10
164.13717033
 20
157.22855382
  0
VERTEX
  8
0
 10
163.74307513
 20
157.03401550
  0
VERTEX
  8
0
 10
163.43669946
 20
156.85488518
  0
VERTEX
  8
0
 10
163.21568477
 20
156.68990471
  0
VERTEX
  8
0
 10
163.07767253
 20
156.53781590
  0
VERTEX
  8
0
 10
163.03905529
 20
156.46621269
  0
VERTEX
  8
0
 10
163.02030422
 20
156.39736060
  0
VERTEX
  8
0
 10
163.02112450
 20
156.33110233
  0
VERTEX
  8
0
 10
163.04122131
 20
156.26728063
  0
VERTEX
  8
0
 10
163.08029984
 20
156.20573823
  0
VERTEX
  8
0
 10
163.13806526
 20
156.14631784
  0
VERTEX
  8
0
 10
163.30847755
 20
156.03321406
  0
VERTEX
  8
0
 10
163.55009965
 20
155.92671112
  0
VERTEX
  8
0
 10
166.39596677
 20
154.80615381
  0
VERTEX
  8
0
 10
170.50000000
 20
153.13842732
  0
VERTEX
  8
0
 10
171.39978652
 20
152.77816199
  0
VERTEX
  8
0
 10
172.23356759
 20
152.46765811
  0
VERTEX
  8
0
 10
173.01031476
 20
152.20720262
  0
VERTEX
  8
0
 10
173.73899958
 20
151.99708248
  0
VERTEX
  8
0
 10
174.42859361
 20
151.83758463
  0
VERTEX
  8
0
 10
175.08806840
 20
151.72899602
  0
VERTEX
  8
0
 10
175.72639551
 20
151.67160361
  0
VERTEX
  8
0
 10
176.35254649
 20
151.66569433
  0
VERTEX
  8
0
 10
176.97549289
 20
151.71155515
  0
VERTEX
  8
0
 10
177.60420626
 20
151.80947301
  0
VERTEX
  8
0
 10
178.24765817
 20
151.95973485
  0
VERTEX
  8
0
 10
178.91482015
 20
152.16262764
  0
VERTEX
  8
0
 10
179.61466378
 20
152.41843831
  0
VERTEX
  8
0
 10
180.35616059
 20
152.72745381
  0
VERTEX
  8
0
 10
181.14828215
 20
153.08996110
  0
VERTEX
  8
0
 10
182.00000000
 20
153.50624713
  0
SEQEND
  0
POLYLINE
  8
Calque_par_d_faut
 62
256
 66
   1
 39
0.000000
 70
    1
  0
VERTEX
  8
0
 10
38.45294698
 20
165.16051502
  0
VERTEX
  8
0
 10
39.00862786
 20
165.42000761
  0
VERTEX
  8
0
 10
39.49039584
 20
165.66176919
  0
VERTEX
  8
0
 10
39.89830386
 20
165.89082050
  0
VERTEX
  8
0
 10
40.23240487
 20
166.11218231
  0
VERTEX
  8
0
 10
40.49275183
 20
166.33087536
  0
VERTEX
  8
0
 10
40.67939767
 20
166.55192040
  0
VERTEX
  8
0
 10
40.74509922
 20
166.66489390
  0
VERTEX
  8
0
 10
40.79239534
 20
166.78033818
  0
VERTEX
  8
0
 10
40.82129266
 20
166.89888084
  0
VERTEX
  8
0
 10
40.83179779
 20
167.02114946
  0
VERTEX
  8
0
 10
40.82391736
 20
167.14777165
  0
VERTEX
  8
0
 10
40.79765797
 20
167.27937499
  0
VERTEX
  8
0
 10
40.69002882
 20
167.56003551
  0
VERTEX
  8
0
 10
40.50896329
 20
167.86815179
  0
VERTEX
  8
0
 10
40.25451432
 20
168.20874456
  0
VERTEX
  8
0
 10
39.92673487
 20
168.58683459
  0
VERTEX
  8
0
 10
39.52567788
 20
169.00744262
  0
VERTEX
  8
0
 10
38.50394305
 20
169.99629569
  0
VERTEX
  8
0
 10
37.98400822
 20
170.47547535
  0
VERTEX
  8
0
 10
37.51756195
 20
170.88177121
  0
VERTEX
  8
0
 10
37.10053779
 20
171.21287398
  0
VERTEX
  8
0
 10
36.72886926
 20
171.46647435
  0
VERTEX
  8
0
 10
36.39848991
 20
171.64026300
  0
VERTEX
  8
0
 10
36.24751290
 20
171.69650627
  0
VERTEX
  8
0
 10
36.10533327
 20
171.73193062
  0
VERTEX
  8
0
 10
35.97144269
 20
171.74624740
  0
VERTEX
  8
0
 10
35.84533287
 20
171.73916792
  0
VERTEX
  8
0
 10
35.72649549
 20
171.71040354
  0
VERTEX
  8
0
 10
35.61442225
 20
171.65966558
  0
VERTEX
  8
0
 10
35.50860484
 20
171.58666538
  0
VERTEX
  8
0
 10
35.40853495
 20
171.49111429
  0
VERTEX
  8
0
 10
35.31370427
 20
171.37272363
  0
VERTEX
  8
0
 10
35.22360450
 20
171.23120474
  0
VERTEX
  8
0
 10
35.05556444
 20
170.87762762
  0
VERTEX
  8
0
 10
34.90034830
 20
170.42807363
  0
VERTEX
  8
0
 10
34.75388962
 20
169.88023346
  0
VERTEX
  8
0
 10
34.61212194
 20
169.23179779
  0
VERTEX
  8
0
 10
34.47097879
 20
168.48045732
  0
VERTEX
  8
0
 10
34.32639370
 20
167.62390275
  0
VERTEX
  8
0
 10
34.22156510
 20
166.92328208
  0
VERTEX
  8
0
 10
34.15010118
 20
166.30450392
  0
VERTEX
  8
0
 10
34.11521632
 20
165.76564941
  0
VERTEX
  8
0
 10
34.12012488
 20
165.30479970
  0
VERTEX
  8
0
 10
34.16804124
 20
164.92003593
  0
VERTEX
  8
0
 10
34.20913184
 20
164.75558664
  0
VERTEX
  8
0
 10
34.26217978
 20
164.60943926
  0
VERTEX
  8
0
 10
34.32758685
 20
164.48135394
  0
VERTEX
  8
0
 10
34.40575486
 20
164.37109083
  0
VERTEX
  8
0
 10
34.49708560
 20
164.27841006
  0
VERTEX
  8
0
 10
34.60198087
 20
164.20307178
  0
VERTEX
  8
0
 10
34.72084246
 20
164.14483614
  0
VERTEX
  8
0
 10
34.85407218
 20
164.10346327
  0
VERTEX
  8
0
 10
35.00207181
 20
164.07871332
  0
VERTEX
  8
0
 10
35.16524315
 20
164.07034644
  0
VERTEX
  8
0
 10
35.53870817
 20
164.10180244
  0
VERTEX
  8
0
 10
35.97768160
 20
164.19591242
  0
VERTEX
  8
0
 10
36.48537783
 20
164.35075752
  0
VERTEX
  8
0
 10
37.06501121
 20
164.56441888
  0
VERTEX
  8
0
 10
37.71979614
 20
164.83497767
  0
VERTEX
  8
0
 10
38.45294698
 20
165.16051502
  0
SEQEND
  0
POLYLINE
  8
Calque_par_d_faut
 62
256
 66
   1
 39
0.000000
 70
    1
  0
VERTEX
  8
0
 10
61.92971474
 20
166.25000000
  0
VERTEX
  8
0
 10
61.90167601
 20
166.73706738
  0
VERTEX
  8
0
 10
61.84860956
 20
167.25929114
  0
VERTEX
  8
0
 10
61.77360095
 20
167.80039122
  0
VERTEX
  8
0
 10
61.67973578
 20
168.34408755
  0
VERTEX
  8
0
 10
61.57009962
 20
168.87410008
  0
VERTEX
  8
0
 10
61.44777805
 20
169.37414874
  0
VERTEX
  8
0
 10
61.31585665
 20
169.82795348
  0
VERTEX
  8
0
 10
61.17742100
 20
170.21923422
  0
VERTEX
  8
0
 10
61.06422128
 20
170.49022811
  0
VERTEX
  8
0
 10
60.95220003
 20
170.72217715
  0
VERTEX
  8
0
 10
60.83732166
 20
170.91423670
  0
VERTEX
  8
0
 10
60.71555056
 20
171.06556212
  0
VERTEX
  8
0
 10
60.58285113
 20
171.17530878
  0
VERTEX
  8
0
 10
60.43518777
 20
171.24263202
  0
VERTEX
  8
0
 10
60.26852489
 20
171.26668722
  0
VERTEX
  8
0
 10
60.07882688
 20
171.24662972
  0
VERTEX
  8
0
 10
59.86205814
 20
171.18161491
  0
VERTEX
  8
0
 10
59.61418308
 20
171.07079812
  0
VERTEX
  8
0
 10
59.33116609
 20
170.91333474
  0
VERTEX
  8
0
 10
59.00897157
 20
170.70838010
  0
VERTEX
  8
0
 10
58.23090757
 20
170.15261855
  0
VERTEX
  8
0
 10
57.24770626
 20
169.39675635
  0
VERTEX
  8
0
 10
56.59893313
 20
168.87845962
  0
VERTEX
  8
0
 10
56.02675571
 20
168.39812931
  0
VERTEX
  8
0
 10
55.53062253
 20
167.95403211
  0
VERTEX
  8
0
 10
55.10998213
 20
167.54443470
  0
VERTEX
  8
0
 10
54.76428303
 20
167.16760379
  0
VERTEX
  8
0
 10
54.49297377
 20
166.82180605
  0
VERTEX
  8
0
 10
54.29550289
 20
166.50530819
  0
VERTEX
  8
0
 10
54.17131892
 20
166.21637688
  0
VERTEX
  8
0
 10
54.13653720
 20
166.08170703
  0
VERTEX
  8
0
 10
54.11987040
 20
165.95327883
  0
VERTEX
  8
0
 10
54.12124959
 20
165.83087562
  0
VERTEX
  8
0
 10
54.14060585
 20
165.71428072
  0
VERTEX
  8
0
 10
54.17787024
 20
165.60327749
  0
VERTEX
  8
0
 10
54.23297382
 20
165.49764924
  0
VERTEX
  8
0
 10
54.30584766
 20
165.39717933
  0
VERTEX
  8
0
 10
54.39642283
 20
165.30165109
  0
VERTEX
  8
0
 10
54.63040141
 20
165.12455295
  0
VERTEX
  8
0
 10
54.93435812
 20
164.96462151
  0
VERTEX
  8
0
 10
55.30774147
 20
164.82012347
  0
VERTEX
  8
0
 10
55.75000000
 20
164.68932551
  0
VERTEX
  8
0
 10
56.55703680
 20
164.48924692
  0
VERTEX
  8
0
 10
57.30221773
 20
164.32739930
  0
VERTEX
  8
0
 10
57.98677465
 20
164.20409376
  0
VERTEX
  8
0
 10
58.61193938
 20
164.11964138
  0
VERTEX
  8
0
 10
59.17894376
 20
164.07435328
  0
VERTEX
  8
0
 10
59.68901964
 20
164.06854054
  0
VERTEX
  8
0
 10
60.14339884
 20
164.10251427
  0
VERTEX
  8
0
 10
60.54331321
 20
164.17658557
  0
VERTEX
  8
0
 10
60.88999459
 20
164.29106552
  0
VERTEX
  8
0
 10
61.04375785
 20
164.36355597
  0
VERTEX
  8
0
 10
61.18467481
 20
164.44626524
  0
VERTEX
  8
0
 10
61.31289943
 20
164.53923222
  0
VERTEX
  8
0
 10
61.42858571
 20
164.64249581
  0
VERTEX
  8
0
 10
61.53188761
 20
164.75609489
  0
VERTEX
  8
0
 10
61.62295912
 20
164.88006834
  0
VERTEX
  8
0
 10
61.70195423
 20
165.01445506
  0
VERTEX
  8
0
 10
61.76902690
 20
165.15929393
  0
VERTEX
  8
0
 10
61.86802087
 20
165.48048367
  0
VERTEX
  8
0
 10
61.92117287
 20
165.84394866
  0
VERTEX
  8
0
 10
61.92971474
 20
166.25000000
  0
SEQEND
  0
POLYLINE
  8
Calque_par_d_faut
 62
256
 66
   1
 39
0.000000
 70
    1
  0
VERTEX
  8
0
 10
81.45294698
 20
165.16051502
  0
VERTEX
  8
0
 10
82.00642642
 20
165.41904957
  0
VERTEX
  8
0
 10
82.48658115
 20
165.66008060
  0
VERTEX
  8
0
 10
82.89354660
 20
165.88847070
  0
VERTEX
  8
0
 10
83.22745820
 20
166.10908242
  0
VERTEX
  8
0
 10
83.48845137
 20
166.32677834
  0
VERTEX
  8
0
 10
83.67666153
 20
166.54642103
  0
VERTEX
  8
0
 10
83.74351530
 20
166.65849197
  0
VERTEX
  8
0
 10
83.79222410
 20
166.77287306
  0
VERTEX
  8
0
 10
83.82280486
 20
166.89017213
  0
VERTEX
  8
0
 10
83.83527451
 20
167.01099699
  0
VERTEX
  8
0
 10
83.82964998
 20
167.13595548
  0
VERTEX
  8
0
 10
83.80594819
 20
167.26565541
  0
VERTEX
  8
0
 10
83.70438055
 20
167.54171087
  0
VERTEX
  8
0
 10
83.53070701
 20
167.84402594
  0
VERTEX
  8
0
 10
83.28506301
 20
168.17746321
  0
VERTEX
  8
0
 10
82.96758397
 20
168.54688524
  0
VERTEX
  8
0
 10
82.57840530
 20
168.95715459
  0
VERTEX
  8
0
 10
81.58549081
 20
169.91968556
  0
VERTEX
  8
0
 10
80.78993836
 20
170.66043205
  0
VERTEX
  8
0
 10
80.17737329
 20
171.19257602
  0
VERTEX
  8
0
 10
79.92710373
 20
171.38128676
  0
VERTEX
  8
0
 10
79.70745225
 20
171.51888450
  0
VERTEX
  8
0
 10
79.51337595
 20
171.60571514
  0
VERTEX
  8
0
 10
79.33983191
 20
171.64212454
  0
VERTEX
  8
0
 10
79.18177721
 20
171.62845859
  0
VERTEX
  8
0
 10
79.03416893
 20
171.56506318
  0
VERTEX
  8
0
 10
78.89196416
 20
171.45228416
  0
VERTEX
  8
0
 10
78.75011998
 20
171.29046744
  0
VERTEX
  8
0
 10
78.60359347
 20
171.07995889
  0
VERTEX
  8
0
 10
78.44734172
 20
170.82110438
  0
VERTEX
  8
0
 10
78.08549081
 20
170.15974104
  0
VERTEX
  8
0
 10
77.84904133
 20
169.67793811
  0
VERTEX
  8
0
 10
77.64230672
 20
169.17617823
  0
VERTEX
  8
0
 10
77.46543850
 20
168.66150413
  0
VERTEX
  8
0
 10
77.31858824
 20
168.14095857
  0
VERTEX
  8
0
 10
77.20190746
 20
167.62158431
  0
VERTEX
  8
0
 10
77.11554772
 20
167.11042409
  0
VERTEX
  8
0
 10
77.05966056
 20
166.61452067
  0
VERTEX
  8
0
 10
77.03439752
 20
166.14091680
  0
VERTEX
  8
0
 10
77.03991015
 20
165.69665524
  0
VERTEX
  8
0
 10
77.07634999
 20
165.28877873
  0
VERTEX
  8
0
 10
77.14386859
 20
164.92433003
  0
VERTEX
  8
0
 10
77.24261749
 20
164.61035189
  0
VERTEX
  8
0
 10
77.37274823
 20
164.35388707
  0
VERTEX
  8
0
 10
77.44962915
 20
164.24942301
  0
VERTEX
  8
0
 10
77.53441237
 20
164.16197831
  0
VERTEX
  8
0
 10
77.62711681
 20
164.09243332
  0
VERTEX
  8
0
 10
77.72776143
 20
164.04166837
  0
VERTEX
  8
0
 10
77.83636518
 20
164.01056382
  0
VERTEX
  8
0
 10
77.95294698
 20
164.00000000
  0
VERTEX
  8
0
 10
78.19635968
 20
164.02368629
  0
VERTEX
  8
0
 10
78.52393683
 20
164.09157189
  0
VERTEX
  8
0
 10
78.92132296
 20
164.19889686
  0
VERTEX
  8
0
 10
79.37416261
 20
164.34090129
  0
VERTEX
  8
0
 10
80.38878058
 20
164.70990880
  0
VERTEX
  8
0
 10
80.92184796
 20
164.92739203
  0
VERTEX
  8
0
 10
81.45294698
 20
165.16051502
  0
SEQEND
  0
POLYLINE
  8
Calque_par_d_faut
 62
256
 66
   1
 39
0.000000
 70
    1
  0
VERTEX
  8
0
 10
104.98634532
 20
165.75000000
  0
VERTEX
  8
0
 10
104.97146493
 20
166.14681317
  0
VERTEX
  8
0
 10
104.93411972
 20
166.60452697
  0
VERTEX
  8
0
 10
104.80201528
 20
167.63755213
  0
VERTEX
  8
0
 10
104.60999291
 20
168.71886686
  0
VERTEX
  8
0
 10
104.49775027
 20
169.23694263
  0
VERTEX
  8
0
 10
104.37801348
 20
169.71826256
  0
VERTEX
  8
0
 10
103.78333633
 20
171.93652512
  0
VERTEX
  8
0
 10
100.39166816
 20
169.34957370
  0
VERTEX
  8
0
 10
99.71718077
 20
168.82555451
  0
VERTEX
  8
0
 10
99.12231659
 20
168.34214168
  0
VERTEX
  8
0
 10
98.60635301
 20
167.89728396
  0
VERTEX
  8
0
 10
98.16856745
 20
167.48893008
  0
VERTEX
  8
0
 10
97.80823730
 20
167.11502879
  0
VERTEX
  8
0
 10
97.52463997
 20
166.77352883
  0
VERTEX
  8
0
 10
97.31705285
 20
166.46237894
  0
VERTEX
  8
0
 10
97.18475336
 20
166.17952787
  0
VERTEX
  8
0
 10
97.14661066
 20
166.04807337
  0
VERTEX
  8
0
 10
97.12701889
 20
165.92292435
  0
VERTEX
  8
0
 10
97.12588772
 20
165.80382440
  0
VERTEX
  8
0
 10
97.14312684
 20
165.69051712
  0
VERTEX
  8
0
 10
97.17864591
 20
165.58274610
  0
VERTEX
  8
0
 10
97.23235462
 20
165.48025493
  0
VERTEX
  8
0
 10
97.30416263
 20
165.38278721
  0
VERTEX
  8
0
 10
97.39397963
 20
165.29008652
  0
VERTEX
  8
0
 10
97.62727927
 20
165.11796063
  0
VERTEX
  8
0
 10
97.93153094
 20
164.96182601
  0
VERTEX
  8
0
 10
98.30601205
 20
164.81963139
  0
VERTEX
  8
0
 10
98.75000000
 20
164.68932551
  0
VERTEX
  8
0
 10
99.48665961
 20
164.50792707
  0
VERTEX
  8
0
 10
100.17966995
 20
164.35999667
  0
VERTEX
  8
0
 10
100.82847334
 20
164.24543945
  0
VERTEX
  8
0
 10
101.43251212
 20
164.16416058
  0
VERTEX
  8
0
 10
101.99122861
 20
164.11606520
  0
VERTEX
  8
0
 10
102.50406514
 20
164.10105847
  0
VERTEX
  8
0
 10
102.97046405
 20
164.11904554
  0
VERTEX
  8
0
 10
103.38986766
 20
164.16993155
  0
VERTEX
  8
0
 10
103.76171830
 20
164.25362166
  0
VERTEX
  8
0
 10
104.08545831
 20
164.37002103
  0
VERTEX
  8
0
 10
104.36053000
 20
164.51903480
  0
VERTEX
  8
0
 10
104.58637571
 20
164.70056812
  0
VERTEX
  8
0
 10
104.76243776
 20
164.91452615
  0
VERTEX
  8
0
 10
104.88815850
 20
165.16081404
  0
VERTEX
  8
0
 10
104.96298024
 20
165.43933694
  0
VERTEX
  8
0
 10
104.98634532
 20
165.75000000
  0
SEQEND
  0
POLYLINE
  8
Calque_par_d_faut
 62
256
 66
   1
 39
0.000000
 70
    1
  0
VERTEX
  8
0
 10
124.45294698
 20
165.16051502
  0
VERTEX
  8
0
 10
125.00642642
 20
165.41904957
  0
VERTEX
  8
0
 10
125.48658115
 20
165.66008060
  0
VERTEX
  8
0
 10
125.89354660
 20
165.88847070
  0
VERTEX
  8
0
 10
126.22745820
 20
166.10908242
  0
VERTEX
  8
0
 10
126.48845137
 20
166.32677834
  0
VERTEX
  8
0
 10
126.67666153
 20
166.54642103
  0
VERTEX
  8
0
 10
126.74351530
 20
166.65849197
  0
VERTEX
  8
0
 10
126.79222410
 20
166.77287306
  0
VERTEX
  8
0
 10
126.82280486
 20
166.89017213
  0
VERTEX
  8
0
 10
126.83527451
 20
167.01099699
  0
VERTEX
  8
0
 10
126.82964998
 20
167.13595548
  0
VERTEX
  8
0
 10
126.80594819
 20
167.26565541
  0
VERTEX
  8
0
 10
126.70438055
 20
167.54171087
  0
VERTEX
  8
0
 10
126.53070701
 20
167.84402594
  0
VERTEX
  8
0
 10
126.28506301
 20
168.17746321
  0
VERTEX
  8
0
 10
125.96758397
 20
168.54688524
  0
VERTEX
  8
0
 10
125.57840530
 20
168.95715459
  0
VERTEX
  8
0
 10
124.58549081
 20
169.91968556
  0
VERTEX
  8
0
 10
123.78993836
 20
170.66043205
  0
VERTEX
  8
0
 10
123.17737329
 20
171.19257602
  0
VERTEX
  8
0
 10
122.92710373
 20
171.38128676
  0
VERTEX
  8
0
 10
122.70745225
 20
171.51888450
  0
VERTEX
  8
0
 10
122.51337595
 20
171.60571514
  0
VERTEX
  8
0
 10
122.33983191
 20
171.64212454
  0
VERTEX
  8
0
 10
122.18177721
 20
171.62845859
  0
VERTEX
  8
0
 10
122.03416893
 20
171.56506318
  0
VERTEX
  8
0
 10
121.89196416
 20
171.45228416
  0
VERTEX
  8
0
 10
121.75011998
 20
171.29046744
  0
VERTEX
  8
0
 10
121.60359347
 20
171.07995889
  0
VERTEX
  8
0
 10
121.44734172
 20
170.82110438
  0
VERTEX
  8
0
 10
121.08549081
 20
170.15974104
  0
VERTEX
  8
0
 10
120.84904133
 20
169.67793811
  0
VERTEX
  8
0
 10
120.64230672
 20
169.17617823
  0
VERTEX
  8
0
 10
120.46543850
 20
168.66150413
  0
VERTEX
  8
0
 10
120.31858824
 20
168.14095857
  0
VERTEX
  8
0
 10
120.20190746
 20
167.62158431
  0
VERTEX
  8
0
 10
120.11554772
 20
167.11042409
  0
VERTEX
  8
0
 10
120.05966056
 20
166.61452067
  0
VERTEX
  8
0
 10
120.03439752
 20
166.14091680
  0
VERTEX
  8
0
 10
120.03991015
 20
165.69665524
  0
VERTEX
  8
0
 10
120.07634999
 20
165.28877873
  0
VERTEX
  8
0
 10
120.14386859
 20
164.92433003
  0
VERTEX
  8
0
 10
120.24261749
 20
164.61035189
  0
VERTEX
  8
0
 10
120.37274823
 20
164.35388707
  0
VERTEX
  8
0
 10
120.44962915
 20
164.24942301
  0
VERTEX
  8
0
 10
120.53441237
 20
164.16197831
  0
VERTEX
  8
0
 10
120.62711681
 20
164.09243332
  0
VERTEX
  8
0
 10
120.72776143
 20
164.04166837
  0
VERTEX
  8
0
 10
120.83636518
 20
164.01056382
  0
VERTEX
  8
0
 10
120.95294698
 20
164.00000000
  0
VERTEX
  8
0
 10
121.19635968
 20
164.02368629
  0
VERTEX
  8
0
 10
121.52393683
 20
164.09157189
  0
VERTEX
  8
0
 10
121.92132296
 20
164.19889686
  0
VERTEX
  8
0
 10
122.37416261
 20
164.34090129
  0
VERTEX
  8
0
 10
123.38878058
 20
164.70990880
  0
VERTEX
  8
0
 10
123.92184796
 20
164.92739203
  0
VERTEX
  8
0
 10
124.45294698
 20
165.16051502
  0
SEQEND
  0
POLYLINE
  8
Calque_par_d_faut
 62
256
 66
   1
 39
0.000000
 70
    1
  0
VERTEX
  8
0
 10
147.98634532
 20
165.75000000
  0
VERTEX
  8
0
 10
147.97151823
 20
166.14660934
  0
VERTEX
  8
0
 10
147.93432579
 20
166.60373894
  0
VERTEX
  8
0
 10
147.80278245
 20
167.63461849
  0
VERTEX
  8
0
 10
147.61159049
 20
168.71275771
  0
VERTEX
  8
0
 10
147.49983727
 20
169.22896192
  0
VERTEX
  8
0
 10
147.38062510
 20
169.70827570
  0
VERTEX
  8
0
 10
146.78855957
 20
171.91655140
  0
VERTEX
  8
0
 10
143.39430928
 20
169.20827570
  0
VERTEX
  8
0
 10
142.11727643
 20
168.15980620
  0
VERTEX
  8
0
 10
141.60091346
 20
167.70758674
  0
VERTEX
  8
0
 10
141.16447833
 20
167.29923368
  0
VERTEX
  8
0
 10
140.80684018
 20
166.93163919
  0
VERTEX
  8
0
 10
140.52686819
 20
166.60169545
  0
VERTEX
  8
0
 10
140.32343149
 20
166.30629462
  0
VERTEX
  8
0
 10
140.19539925
 20
166.04232886
  0
VERTEX
  8
0
 10
140.15930641
 20
165.92116294
  0
VERTEX
  8
0
 10
140.14164061
 20
165.80669035
  0
VERTEX
  8
0
 10
140.14226051
 20
165.69852261
  0
VERTEX
  8
0
 10
140.16102473
 20
165.59627124
  0
VERTEX
  8
0
 10
140.19779194
 20
165.49954777
  0
VERTEX
  8
0
 10
140.25242077
 20
165.40796371
  0
VERTEX
  8
0
 10
140.32476986
 20
165.32113059
  0
VERTEX
  8
0
 10
140.41469787
 20
165.23865992
  0
VERTEX
  8
0
 10
140.64672519
 20
165.08525204
  0
VERTEX
  8
0
 10
140.94737188
 20
164.94463223
  0
VERTEX
  8
0
 10
141.31550710
 20
164.81369267
  0
VERTEX
  8
0
 10
141.75000000
 20
164.68932551
  0
VERTEX
  8
0
 10
142.48665961
 20
164.50792707
  0
VERTEX
  8
0
 10
143.17966995
 20
164.35999667
  0
VERTEX
  8
0
 10
143.82847334
 20
164.24543945
  0
VERTEX
  8
0
 10
144.43251212
 20
164.16416058
  0
VERTEX
  8
0
 10
144.99122861
 20
164.11606520
  0
VERTEX
  8
0
 10
145.50406514
 20
164.10105847
  0
VERTEX
  8
0
 10
145.97046405
 20
164.11904554
  0
VERTEX
  8
0
 10
146.38986766
 20
164.16993155
  0
VERTEX
  8
0
 10
146.76171830
 20
164.25362166
  0
VERTEX
  8
0
 10
147.08545831
 20
164.37002103
  0
VERTEX
  8
0
 10
147.36053000
 20
164.51903480
  0
VERTEX
  8
0
 10
147.58637571
 20
164.70056812
  0
VERTEX
  8
0
 10
147.76243776
 20
164.91452615
  0
VERTEX
  8
0
 10
147.88815850
 20
165.16081404
  0
VERTEX
  8
0
 10
147.96298024
 20
165.43933694
  0
VERTEX
  8
0
 10
147.98634532
 20
165.75000000
  0
SEQEND
  0
POLYLINE
  8
Calque_par_d_faut
 62
256
 66
   1
 39
0.000000
 70
    1
  0
VERTEX
  8
0
 10
169.43675606
 20
166.05751878
  0
VERTEX
  8
0
 10
169.53189175
 20
166.17224931
  0
VERTEX
  8
0
 10
169.60078031
 20
166.30401162
  0
VERTEX
  8
0
 10
169.64373847
 20
166.45205070
  0
VERTEX
  8
0
 10
169.66108296
 20
166.61561156
  0
VERTEX
  8
0
 10
169.65313050
 20
166.79393921
  0
VERTEX
  8
0
 10
169.62019782
 20
166.98627864
  0
VERTEX
  8
0
 10
169.56260165
 20
167.19187487
  0
VERTEX
  8
0
 10
169.48065872
 20
167.40997289
  0
VERTEX
  8
0
 10
169.37468576
 20
167.63981770
  0
VERTEX
  8
0
 10
169.24499948
 20
167.88065431
  0
VERTEX
  8
0
 10
168.91575393
 20
168.39228296
  0
VERTEX
  8
0
 10
168.49545587
 20
168.93881884
  0
VERTEX
  8
0
 10
167.98663914
 20
169.51422199
  0
VERTEX
  8
0
 10
165.59976615
 20
172.05493185
  0
VERTEX
  8
0
 10
164.33531849
 20
169.77746593
  0
VERTEX
  8
0
 10
164.08059439
 20
169.28204066
  0
VERTEX
  8
0
 10
163.84156110
 20
168.74652860
  0
VERTEX
  8
0
 10
163.62355018
 20
168.18789328
  0
VERTEX
  8
0
 10
163.43189318
 20
167.62309826
  0
VERTEX
  8
0
 10
163.27192165
 20
167.06910707
  0
VERTEX
  8
0
 10
163.14896715
 20
166.54288326
  0
VERTEX
  8
0
 10
163.06836122
 20
166.06139038
  0
VERTEX
  8
0
 10
163.03543542
 20
165.64159197
  0
VERTEX
  8
0
 10
163.03625068
 20
165.37016063
  0
VERTEX
  8
0
 10
163.05087588
 20
165.12887372
  0
VERTEX
  8
0
 10
163.08117591
 20
164.91692112
  0
VERTEX
  8
0
 10
163.12901562
 20
164.73349271
  0
VERTEX
  8
0
 10
163.19625988
 20
164.57777836
  0
VERTEX
  8
0
 10
163.28477356
 20
164.44896796
  0
VERTEX
  8
0
 10
163.39642154
 20
164.34625139
  0
VERTEX
  8
0
 10
163.53306869
 20
164.26881853
  0
VERTEX
  8
0
 10
163.69657986
 20
164.21585926
  0
VERTEX
  8
0
 10
163.88881994
 20
164.18656345
  0
VERTEX
  8
0
 10
164.11165378
 20
164.18012099
  0
VERTEX
  8
0
 10
164.36694627
 20
164.19572176
  0
VERTEX
  8
0
 10
164.65656227
 20
164.23255563
  0
VERTEX
  8
0
 10
164.98236664
 20
164.28981249
  0
VERTEX
  8
0
 10
165.75000000
 20
164.46235469
  0
VERTEX
  8
0
 10
166.32153633
 20
164.61748134
  0
VERTEX
  8
0
 10
166.89168935
 20
164.79834156
  0
VERTEX
  8
0
 10
167.44533759
 20
164.99839269
  0
VERTEX
  8
0
 10
167.96735959
 20
165.21109208
  0
VERTEX
  8
0
 10
168.44263390
 20
165.42989704
  0
VERTEX
  8
0
 10
168.85603906
 20
165.64826493
  0
VERTEX
  8
0
 10
169.19245360
 20
165.85965306
  0
VERTEX
  8
0
 10
169.43675606
 20
166.05751878
  0
SEQEND
  0
POLYLINE
  8
Calque_par_d_faut
 62
256
 66
   1
 39
0.000000
 70
    1
  0
VERTEX
  8
0
 10
191.60664469
 20
165.41731579
  0
VERTEX
  8
0
 10
191.65509949
 20
165.57495613
  0
VERTEX
  8
0
 10
191.68856154
 20
165.75419762
  0
VERTEX
  8
0
 10
191.70743867
 20
165.95300304
  0
VERTEX
  8
0
 10
191.71213872
 20
166.16933517
  0
VERTEX
  8
0
 10
191.68063888
 20
166.64643072
  0
VERTEX
  8
0
 10
191.59732468
 20
167.16918655
  0
VERTEX
  8
0
 10
191.46545878
 20
167.72130491
  0
VERTEX
  8
0
 10
191.28830385
 20
168.28648807
  0
VERTEX
  8
0
 10
191.06912253
 20
168.84843831
  0
VERTEX
  8
0
 10
190.81117749
 20
169.39085789
  0
VERTEX
  8
0
 10
189.47183518
 20
171.94708420
  0
VERTEX
  8
0
 10
186.09103363
 20
168.78745044
  0
VERTEX
  8
0
 10
185.07241395
 20
167.82134755
  0
VERTEX
  8
0
 10
184.31725746
 20
167.05884965
  0
VERTEX
  8
0
 10
184.03449393
 20
166.74348731
  0
VERTEX
  8
0
 10
183.81281542
 20
166.46646792
  0
VERTEX
  8
0
 10
183.65062834
 20
166.22360537
  0
VERTEX
  8
0
 10
183.54633909
 20
166.01071356
  0
VERTEX
  8
0
 10
183.49835409
 20
165.82360638
  0
VERTEX
  8
0
 10
183.50507973
 20
165.65809775
  0
VERTEX
  8
0
 10
183.56492243
 20
165.51000155
  0
VERTEX
  8
0
 10
183.67628859
 20
165.37513170
  0
VERTEX
  8
0
 10
183.83758463
 20
165.24930207
  0
VERTEX
  8
0
 10
184.04721694
 20
165.12832658
  0
VERTEX
  8
0
 10
184.30359195
 20
165.00801913
  0
VERTEX
  8
0
 10
184.60511604
 20
164.88419361
  0
VERTEX
  8
0
 10
185.19245627
 20
164.67147374
  0
VERTEX
  8
0
 10
185.77958459
 20
164.49306336
  0
VERTEX
  8
0
 10
186.36226799
 20
164.34864013
  0
VERTEX
  8
0
 10
186.93627346
 20
164.23788175
  0
VERTEX
  8
0
 10
187.49736799
 20
164.16046591
  0
VERTEX
  8
0
 10
188.04131857
 20
164.11607027
  0
VERTEX
  8
0
 10
188.56389218
 20
164.10437253
  0
VERTEX
  8
0
 10
189.06085582
 20
164.12505036
  0
VERTEX
  8
0
 10
189.52797648
 20
164.17778146
  0
VERTEX
  8
0
 10
189.96102115
 20
164.26224350
  0
VERTEX
  8
0
 10
190.35575681
 20
164.37811416
  0
VERTEX
  8
0
 10
190.70795046
 20
164.52507114
  0
VERTEX
  8
0
 10
191.01336908
 20
164.70279210
  0
VERTEX
  8
0
 10
191.26777967
 20
164.91095475
  0
VERTEX
  8
0
 10
191.37453413
 20
165.02635097
  0
VERTEX
  8
0
 10
191.46694921
 20
165.14923675
  0
VERTEX
  8
0
 10
191.54449577
 20
165.27957178
  0
VERTEX
  8
0
 10
191.60664469
 20
165.41731579
  0
SEQEND
  0
POLYLINE
  8
Calque_par_d_faut
 62
256
 66
   1
 39
0.000000
 70
    1
  0
VERTEX
  8
0
 10
72.75730853
 20
173.33032022
  0
VERTEX
  8
0
 10
74.71042166
 20
178.16064043
  0
VERTEX
  8
0
 10
72.14491911
 20
185.69944505
  0
VERTEX
  8
0
 10
71.33506973
 20
188.05636270
  0
VERTEX
  8
0
 10
70.70113504
 20
189.81531362
  0
VERTEX
  8
0
 10
70.43964187
 20
190.48482280
  0
VERTEX
  8
0
 10
70.20953475
 20
191.02196579
  0
VERTEX
  8
0
 10
70.00661615
 20
191.43245109
  0
VERTEX
  8
0
 10
69.82668853
 20
191.72198720
  0
VERTEX
  8
0
 10
69.74403461
 20
191.82318321
  0
VERTEX
  8
0
 10
69.66555436
 20
191.89628261
  0
VERTEX
  8
0
 10
69.59072309
 20
191.94199896
  0
VERTEX
  8
0
 10
69.51901610
 20
191.96104582
  0
VERTEX
  8
0
 10
69.44990870
 20
191.95413676
  0
VERTEX
  8
0
 10
69.38287620
 20
191.92198534
  0
VERTEX
  8
0
 10
69.31739391
 20
191.86530511
  0
VERTEX
  8
0
 10
69.25293713
 20
191.78480965
  0
VERTEX
  8
0
 10
69.12500136
 20
191.55522726
  0
VERTEX
  8
0
 10
68.99487134
 20
191.23894666
  0
VERTEX
  8
0
 10
68.85834953
 20
190.84167635
  0
VERTEX
  8
0
 10
68.71123840
 20
190.36912484
  0
VERTEX
  8
0
 10
68.49581724
 20
189.69295587
  0
VERTEX
  8
0
 10
68.21554700
 20
188.86918154
  0
VERTEX
  8
0
 10
67.50767784
 20
186.90612835
  0
VERTEX
  8
0
 10
66.68206805
 20
184.73458830
  0
VERTEX
  8
0
 10
65.83315475
 20
182.60918444
  0
VERTEX
  8
0
 10
65.21484088
 20
181.07010889
  0
VERTEX
  8
0
 10
64.96941349
 20
180.41665325
  0
VERTEX
  8
0
 10
64.76578445
 20
179.82724816
  0
VERTEX
  8
0
 10
64.60343773
 20
179.29189049
  0
VERTEX
  8
0
 10
64.48185731
 20
178.80057707
  0
VERTEX
  8
0
 10
64.40052717
 20
178.34330477
  0
VERTEX
  8
0
 10
64.35893128
 20
177.91007042
  0
VERTEX
  8
0
 10
64.35655363
 20
177.49087089
  0
VERTEX
  8
0
 10
64.39287820
 20
177.07570303
  0
VERTEX
  8
0
 10
64.46738896
 20
176.65456368
  0
VERTEX
  8
0
 10
64.57956990
 20
176.21744969
  0
VERTEX
  8
0
 10
64.72890498
 20
175.75435792
  0
VERTEX
  8
0
 10
64.91487820
 20
175.25528523
  0
VERTEX
  8
0
 10
65.39467495
 20
174.10918444
  0
VERTEX
  8
0
 10
66.09364721
 20
172.47108704
  0
VERTEX
  8
0
 10
66.83514027
 20
170.67894793
  0
VERTEX
  8
0
 10
67.53065788
 20
168.94963096
  0
VERTEX
  8
0
 10
68.09170379
 20
167.50000000
  0
VERTEX
  8
0
 10
68.43955346
 20
166.59558962
  0
VERTEX
  8
0
 10
68.72329432
 20
165.93119975
  0
VERTEX
  8
0
 10
68.84632091
 20
165.68630441
  0
VERTEX
  8
0
 10
68.95955666
 20
165.49816447
  0
VERTEX
  8
0
 10
69.06508036
 20
165.36569671
  0
VERTEX
  8
0
 10
69.16497079
 20
165.28781788
  0
VERTEX
  8
0
 10
69.26130674
 20
165.26344474
  0
VERTEX
  8
0
 10
69.35616700
 20
165.29149405
  0
VERTEX
  8
0
 10
69.45163036
 20
165.37088257
  0
VERTEX
  8
0
 10
69.54977560
 20
165.50052707
  0
VERTEX
  8
0
 10
69.65268152
 20
165.67934430
  0
VERTEX
  8
0
 10
69.76242689
 20
165.90625102
  0
VERTEX
  8
0
 10
70.01075117
 20
166.50000000
  0
VERTEX
  8
0
 10
72.75730853
 20
173.33032022
  0
SEQEND
  0
POLYLINE
  8
Calque_par_d_faut
 62
256
 66
   1
 39
0.000000
 70
    1
  0
VERTEX
  8
0
 10
115.40016502
 20
172.32889474
  0
VERTEX
  8
0
 10
116.16287319
 20
174.39531499
  0
VERTEX
  8
0
 10
116.47065396
 20
175.27217441
  0
VERTEX
  8
0
 10
116.73098297
 20
176.05755502
  0
VERTEX
  8
0
 10
116.94505806
 20
176.76102311
  0
VERTEX
  8
0
 10
117.11407707
 20
177.39214491
  0
VERTEX
  8
0
 10
117.23923784
 20
177.96048670
  0
VERTEX
  8
0
 10
117.32173820
 20
178.47561473
  0
VERTEX
  8
0
 10
117.36277600
 20
178.94709526
  0
VERTEX
  8
0
 10
117.36354908
 20
179.38449455
  0
VERTEX
  8
0
 10
117.32525527
 20
179.79737885
  0
VERTEX
  8
0
 10
117.24909241
 20
180.19531444
  0
VERTEX
  8
0
 10
117.13625835
 20
180.58786756
  0
VERTEX
  8
0
 10
116.98795091
 20
180.98460448
  0
VERTEX
  8
0
 10
116.80536795
 20
181.39509145
  0
VERTEX
  8
0
 10
116.58970729
 20
181.82889474
  0
VERTEX
  8
0
 10
116.28716311
 20
182.45730914
  0
VERTEX
  8
0
 10
115.95596976
 20
183.22111295
  0
VERTEX
  8
0
 10
115.60687583
 20
184.09089343
  0
VERTEX
  8
0
 10
115.25062993
 20
185.03723783
  0
VERTEX
  8
0
 10
114.89798063
 20
186.03073342
  0
VERTEX
  8
0
 10
114.55967653
 20
187.04196748
  0
VERTEX
  8
0
 10
114.24646622
 20
188.04152725
  0
VERTEX
  8
0
 10
113.96909830
 20
189.00000000
  0
VERTEX
  8
0
 10
112.72854620
 20
193.50000000
  0
VERTEX
  8
0
 10
111.78614139
 20
190.50000000
  0
VERTEX
  8
0
 10
111.26591965
 20
188.93693366
  0
VERTEX
  8
0
 10
110.54613072
 20
186.89875800
  0
VERTEX
  8
0
 10
109.72186314
 20
184.64950801
  0
VERTEX
  8
0
 10
108.88820542
 20
182.45321872
  0
VERTEX
  8
0
 10
108.25601013
 20
180.79765218
  0
VERTEX
  8
0
 10
108.00740409
 20
180.10640934
  0
VERTEX
  8
0
 10
107.80368675
 20
179.48847235
  0
VERTEX
  8
0
 10
107.64477885
 20
178.93055035
  0
VERTEX
  8
0
 10
107.53060110
 20
178.41935252
  0
VERTEX
  8
0
 10
107.46107424
 20
177.94158801
  0
VERTEX
  8
0
 10
107.43611898
 20
177.48396599
  0
VERTEX
  8
0
 10
107.45565605
 20
177.03319561
  0
VERTEX
  8
0
 10
107.51960619
 20
176.57598605
  0
VERTEX
  8
0
 10
107.62789011
 20
176.09904645
  0
VERTEX
  8
0
 10
107.78042854
 20
175.58908599
  0
VERTEX
  8
0
 10
107.97714220
 20
175.03281383
  0
VERTEX
  8
0
 10
108.21795183
 20
174.41693912
  0
VERTEX
  8
0
 10
108.83154187
 20
172.95321872
  0
VERTEX
  8
0
 10
109.62078322
 20
171.07473775
  0
VERTEX
  8
0
 10
110.36600269
 20
169.25202663
  0
VERTEX
  8
0
 10
110.98329212
 20
167.69332485
  0
VERTEX
  8
0
 10
111.38874334
 20
166.60687193
  0
VERTEX
  8
0
 10
111.54277770
 20
166.17458678
  0
VERTEX
  8
0
 10
111.68507872
 20
165.81249880
  0
VERTEX
  8
0
 10
111.82092297
 20
165.52813463
  0
VERTEX
  8
0
 10
111.95558699
 20
165.32902092
  0
VERTEX
  8
0
 10
112.02412535
 20
165.26378507
  0
VERTEX
  8
0
 10
112.09434736
 20
165.22268434
  0
VERTEX
  8
0
 10
112.16691259
 20
165.20665955
  0
VERTEX
  8
0
 10
112.24248062
 20
165.21665153
  0
VERTEX
  8
0
 10
112.32171101
 20
165.25360112
  0
VERTEX
  8
0
 10
112.40526333
 20
165.31844915
  0
VERTEX
  8
0
 10
112.58797206
 20
165.53560385
  0
VERTEX
  8
0
 10
112.79588334
 20
165.87564228
  0
VERTEX
  8
0
 10
113.03427376
 20
166.34609110
  0
VERTEX
  8
0
 10
113.30841985
 20
166.95447696
  0
VERTEX
  8
0
 10
113.62359818
 20
167.70832652
  0
VERTEX
  8
0
 10
114.39815778
 20
169.68252332
  0
VERTEX
  8
0
 10
115.40016502
 20
172.32889474
  0
SEQEND
  0
POLYLINE
  8
Calque_par_d_faut
 62
256
 66
   1
 39
0.000000
 70
    1
  0
VERTEX
  8
0
 10
158.40016502
 20
172.32889474
  0
VERTEX
  8
0
 10
159.16287319
 20
174.39531499
  0
VERTEX
  8
0
 10
159.47065396
 20
175.27217441
  0
VERTEX
  8
0
 10
159.73098297
 20
176.05755502
  0
VERTEX
  8
0
 10
159.94505806
 20
176.76102311
  0
VERTEX
  8
0
 10
160.11407707
 20
177.39214491
  0
VERTEX
  8
0
 10
160.23923784
 20
177.96048670
  0
VERTEX
  8
0
 10
160.32173820
 20
178.47561473
  0
VERTEX
  8
0
 10
160.36277600
 20
178.94709526
  0
VERTEX
  8
0
 10
160.36354908
 20
179.38449455
  0
VERTEX
  8
0
 10
160.32525527
 20
179.79737885
  0
VERTEX
  8
0
 10
160.24909241
 20
180.19531444
  0
VERTEX
  8
0
 10
160.13625835
 20
180.58786756
  0
VERTEX
  8
0
 10
159.98795091
 20
180.98460448
  0
VERTEX
  8
0
 10
159.80536795
 20
181.39509145
  0
VERTEX
  8
0
 10
159.58970729
 20
181.82889474
  0
VERTEX
  8
0
 10
159.28716311
 20
182.45730914
  0
VERTEX
  8
0
 10
158.95596976
 20
183.22111295
  0
VERTEX
  8
0
 10
158.60687583
 20
184.09089343
  0
VERTEX
  8
0
 10
158.25062993
 20
185.03723783
  0
VERTEX
  8
0
 10
157.89798063
 20
186.03073342
  0
VERTEX
  8
0
 10
157.55967653
 20
187.04196748
  0
VERTEX
  8
0
 10
157.24646622
 20
188.04152725
  0
VERTEX
  8
0
 10
156.96909830
 20
189.00000000
  0
VERTEX
  8
0
 10
155.72854620
 20
193.50000000
  0
VERTEX
  8
0
 10
154.78614139
 20
190.50000000
  0
VERTEX
  8
0
 10
154.26591965
 20
188.93693366
  0
VERTEX
  8
0
 10
153.54613072
 20
186.89875800
  0
VERTEX
  8
0
 10
152.72186314
 20
184.64950801
  0
VERTEX
  8
0
 10
151.88820542
 20
182.45321872
  0
VERTEX
  8
0
 10
151.25601013
 20
180.79765218
  0
VERTEX
  8
0
 10
151.00740409
 20
180.10640934
  0
VERTEX
  8
0
 10
150.80368675
 20
179.48847235
  0
VERTEX
  8
0
 10
150.64477885
 20
178.93055035
  0
VERTEX
  8
0
 10
150.53060110
 20
178.41935252
  0
VERTEX
  8
0
 10
150.46107424
 20
177.94158801
  0
VERTEX
  8
0
 10
150.43611898
 20
177.48396599
  0
VERTEX
  8
0
 10
150.45565605
 20
177.03319561
  0
VERTEX
  8
0
 10
150.51960619
 20
176.57598605
  0
VERTEX
  8
0
 10
150.62789011
 20
176.09904645
  0
VERTEX
  8
0
 10
150.78042854
 20
175.58908599
  0
VERTEX
  8
0
 10
150.97714220
 20
175.03281383
  0
VERTEX
  8
0
 10
151.21795183
 20
174.41693912
  0
VERTEX
  8
0
 10
151.83154187
 20
172.95321872
  0
VERTEX
  8
0
 10
152.62078322
 20
171.07473775
  0
VERTEX
  8
0
 10
153.36600269
 20
169.25202663
  0
VERTEX
  8
0
 10
153.98329212
 20
167.69332485
  0
VERTEX
  8
0
 10
154.38874334
 20
166.60687193
  0
VERTEX
  8
0
 10
154.54277770
 20
166.17458678
  0
VERTEX
  8
0
 10
154.68507872
 20
165.81249880
  0
VERTEX
  8
0
 10
154.82092297
 20
165.52813463
  0
VERTEX
  8
0
 10
154.95558699
 20
165.32902092
  0
VERTEX
  8
0
 10
155.02412535
 20
165.26378507
  0
VERTEX
  8
0
 10
155.09434736
 20
165.22268434
  0
VERTEX
  8
0
 10
155.16691259
 20
165.20665955
  0
VERTEX
  8
0
 10
155.24248062
 20
165.21665153
  0
VERTEX
  8
0
 10
155.32171101
 20
165.25360112
  0
VERTEX
  8
0
 10
155.40526333
 20
165.31844915
  0
VERTEX
  8
0
 10
155.58797206
 20
165.53560385
  0
VERTEX
  8
0
 10
155.79588334
 20
165.87564228
  0
VERTEX
  8
0
 10
156.03427376
 20
166.34609110
  0
VERTEX
  8
0
 10
156.30841985
 20
166.95447696
  0
VERTEX
  8
0
 10
156.62359818
 20
167.70832652
  0
VERTEX
  8
0
 10
157.39815778
 20
169.68252332
  0
VERTEX
  8
0
 10
158.40016502
 20
172.32889474
  0
SEQEND
  0
POLYLINE
  8
Calque_par_d_faut
 62
256
 66
   1
 39
0.000000
 70
    1
  0
VERTEX
  8
0
 10
52.18157853
 20
173.94628441
  0
VERTEX
  8
0
 10
52.96488403
 20
174.74869080
  0
VERTEX
  8
0
 10
53.63849011
 20
175.48678442
  0
VERTEX
  8
0
 10
54.20121438
 20
176.17016026
  0
VERTEX
  8
0
 10
54.44062636
 20
176.49432743
  0
VERTEX
  8
0
 10
54.65187449
 20
176.80841328
  0
VERTEX
  8
0
 10
54.83481100
 20
177.11361716
  0
VERTEX
  8
0
 10
54.98928808
 20
177.41113847
  0
VERTEX
  8
0
 10
55.11515794
 20
177.70217656
  0
VERTEX
  8
0
 10
55.21227277
 20
177.98793080
  0
VERTEX
  8
0
 10
55.28048480
 20
178.26960058
  0
VERTEX
  8
0
 10
55.31964621
 20
178.54838527
  0
VERTEX
  8
0
 10
55.32960922
 20
178.82548423
  0
VERTEX
  8
0
 10
55.31022603
 20
179.10209684
  0
VERTEX
  8
0
 10
55.26134884
 20
179.37942247
  0
VERTEX
  8
0
 10
55.18282986
 20
179.65866049
  0
VERTEX
  8
0
 10
55.07452129
 20
179.94101028
  0
VERTEX
  8
0
 10
54.93627534
 20
180.22767121
  0
VERTEX
  8
0
 10
54.76794421
 20
180.51984265
  0
VERTEX
  8
0
 10
54.56938011
 20
180.81872397
  0
VERTEX
  8
0
 10
54.34043524
 20
181.12551454
  0
VERTEX
  8
0
 10
54.08096180
 20
181.44141375
  0
VERTEX
  8
0
 10
53.79081200
 20
181.76762095
  0
VERTEX
  8
0
 10
53.46983805
 20
182.10533553
  0
VERTEX
  8
0
 10
52.73482649
 20
182.82008429
  0
VERTEX
  8
0
 10
51.87474476
 20
183.59525501
  0
VERTEX
  8
0
 10
50.88841049
 20
184.44044267
  0
VERTEX
  8
0
 10
47.73173714
 20
187.09660818
  0
VERTEX
  8
0
 10
45.26810136
 20
184.79830409
  0
VERTEX
  8
0
 10
44.73576746
 20
184.28439000
  0
VERTEX
  8
0
 10
44.16676809
 20
183.70398036
  0
VERTEX
  8
0
 10
43.57873213
 20
183.07699845
  0
VERTEX
  8
0
 10
42.98928844
 20
182.42336754
  0
VERTEX
  8
0
 10
42.41606592
 20
181.76301091
  0
VERTEX
  8
0
 10
41.87669342
 20
181.11585183
  0
VERTEX
  8
0
 10
41.38879983
 20
180.50181359
  0
VERTEX
  8
0
 10
40.97001402
 20
179.94081945
  0
VERTEX
  8
0
 10
40.37354656
 20
179.09102143
  0
VERTEX
  8
0
 10
40.14537032
 20
178.73232121
  0
VERTEX
  8
0
 10
39.96688690
 20
178.40568081
  0
VERTEX
  8
0
 10
39.84033714
 20
178.10204574
  0
VERTEX
  8
0
 10
39.76796192
 20
177.81236147
  0
VERTEX
  8
0
 10
39.75200208
 20
177.52757348
  0
VERTEX
  8
0
 10
39.79469851
 20
177.23862727
  0
VERTEX
  8
0
 10
39.89829205
 20
176.93646831
  0
VERTEX
  8
0
 10
40.06502356
 20
176.61204209
  0
VERTEX
  8
0
 10
40.29713392
 20
176.25629410
  0
VERTEX
  8
0
 10
40.59686397
 20
175.86016981
  0
VERTEX
  8
0
 10
40.96645459
 20
175.41461472
  0
VERTEX
  8
0
 10
41.40814663
 20
174.91057431
  0
VERTEX
  8
0
 10
42.51679842
 20
173.69081945
  0
VERTEX
  8
0
 10
43.21986933
 20
172.94941168
  0
VERTEX
  8
0
 10
43.92188115
 20
172.25774346
  0
VERTEX
  8
0
 10
44.60417235
 20
171.63095293
  0
VERTEX
  8
0
 10
45.24808135
 20
171.08417821
  0
VERTEX
  8
0
 10
45.83494660
 20
170.63255744
  0
VERTEX
  8
0
 10
46.34610655
 20
170.29122872
  0
VERTEX
  8
0
 10
46.56746529
 20
170.16665456
  0
VERTEX
  8
0
 10
46.76289962
 20
170.07533020
  0
VERTEX
  8
0
 10
46.93007684
 20
170.01914793
  0
VERTEX
  8
0
 10
47.06666426
 20
170.00000000
  0
VERTEX
  8
0
 10
47.20618314
 20
170.02047328
  0
VERTEX
  8
0
 10
47.38196163
 20
170.08054428
  0
VERTEX
  8
0
 10
47.59137732
 20
170.17818977
  0
VERTEX
  8
0
 10
47.83180783
 20
170.31138650
  0
VERTEX
  8
0
 10
48.39522371
 20
170.67634074
  0
VERTEX
  8
0
 10
49.05123014
 20
171.15922105
  0
VERTEX
  8
0
 10
49.77884798
 20
171.74384150
  0
VERTEX
  8
0
 10
50.55709808
 20
172.41401617
  0
VERTEX
  8
0
 10
51.36500131
 20
173.15355911
  0
VERTEX
  8
0
 10
52.18157853
 20
173.94628441
  0
SEQEND
  0
POLYLINE
  8
Calque_par_d_faut
 62
256
 66
   1
 39
0.000000
 70
    1
  0
VERTEX
  8
0
 10
93.94581664
 20
172.60786142
  0
VERTEX
  8
0
 10
94.89837305
 20
173.42596528
  0
VERTEX
  8
0
 10
95.73317645
 20
174.18243219
  0
VERTEX
  8
0
 10
96.45172671
 20
174.88495129
  0
VERTEX
  8
0
 10
97.05552370
 20
175.54121172
  0
VERTEX
  8
0
 10
97.31485842
 20
175.85439779
  0
VERTEX
  8
0
 10
97.54606728
 20
176.15890262
  0
VERTEX
  8
0
 10
97.74933776
 20
176.45568735
  0
VERTEX
  8
0
 10
97.92485734
 20
176.74571312
  0
VERTEX
  8
0
 10
98.07281350
 20
177.02994108
  0
VERTEX
  8
0
 10
98.19339373
 20
177.30933236
  0
VERTEX
  8
0
 10
98.28678552
 20
177.58484811
  0
VERTEX
  8
0
 10
98.35317634
 20
177.85744948
  0
VERTEX
  8
0
 10
98.39275368
 20
178.12809760
  0
VERTEX
  8
0
 10
98.40570502
 20
178.39775362
  0
VERTEX
  8
0
 10
98.39221785
 20
178.66737867
  0
VERTEX
  8
0
 10
98.35247966
 20
178.93793391
  0
VERTEX
  8
0
 10
98.28667791
 20
179.21038046
  0
VERTEX
  8
0
 10
98.19500011
 20
179.48567949
  0
VERTEX
  8
0
 10
98.07763373
 20
179.76479212
  0
VERTEX
  8
0
 10
97.93476626
 20
180.04867950
  0
VERTEX
  8
0
 10
97.76658517
 20
180.33830277
  0
VERTEX
  8
0
 10
97.57327796
 20
180.63462307
  0
VERTEX
  8
0
 10
97.11203510
 20
181.25119935
  0
VERTEX
  8
0
 10
96.55253754
 20
181.90609747
  0
VERTEX
  8
0
 10
95.89628515
 20
182.60700657
  0
VERTEX
  8
0
 10
95.20044493
 20
183.28858738
  0
VERTEX
  8
0
 10
94.48319108
 20
183.92444230
  0
VERTEX
  8
0
 10
93.76509101
 20
184.50065476
  0
VERTEX
  8
0
 10
93.06671213
 20
185.00330818
  0
VERTEX
  8
0
 10
92.40862182
 20
185.41848599
  0
VERTEX
  8
0
 10
92.10111220
 20
185.58892261
  0
VERTEX
  8
0
 10
91.81138751
 20
185.73227161
  0
VERTEX
  8
0
 10
91.54201866
 20
185.84679342
  0
VERTEX
  8
0
 10
91.29557658
 20
185.93074847
  0
VERTEX
  8
0
 10
91.07463221
 20
185.98239719
  0
VERTEX
  8
0
 10
90.88175645
 20
186.00000000
  0
VERTEX
  8
0
 10
90.68736690
 20
185.97829915
  0
VERTEX
  8
0
 10
90.46198084
 20
185.91462630
  0
VERTEX
  8
0
 10
90.20831880
 20
185.81112601
  0
VERTEX
  8
0
 10
89.92910132
 20
185.66994283
  0
VERTEX
  8
0
 10
89.62704891
 20
185.49322132
  0
VERTEX
  8
0
 10
89.30488210
 20
185.28310602
  0
VERTEX
  8
0
 10
88.61108737
 20
184.77127232
  0
VERTEX
  8
0
 10
87.86948134
 20
184.15159816
  0
VERTEX
  8
0
 10
87.10182820
 20
183.44123997
  0
VERTEX
  8
0
 10
86.32989216
 20
182.65735419
  0
VERTEX
  8
0
 10
85.57543741
 20
181.81709726
  0
VERTEX
  8
0
 10
81.99502835
 20
177.63419452
  0
VERTEX
  8
0
 10
84.24751417
 20
175.09579381
  0
VERTEX
  8
0
 10
85.24302275
 20
174.00276757
  0
VERTEX
  8
0
 10
86.18856598
 20
173.02166669
  0
VERTEX
  8
0
 10
87.07272816
 20
172.16224670
  0
VERTEX
  8
0
 10
87.88409362
 20
171.43426312
  0
VERTEX
  8
0
 10
88.61124669
 20
170.84747148
  0
VERTEX
  8
0
 10
88.93967617
 20
170.61007123
  0
VERTEX
  8
0
 10
89.24277168
 20
170.41162729
  0
VERTEX
  8
0
 10
89.51910625
 20
170.25335909
  0
VERTEX
  8
0
 10
89.76725292
 20
170.13648608
  0
VERTEX
  8
0
 10
89.98578473
 20
170.06222769
  0
VERTEX
  8
0
 10
90.17327472
 20
170.03180337
  0
VERTEX
  8
0
 10
90.25793861
 20
170.04209319
  0
VERTEX
  8
0
 10
90.37177793
 20
170.07864160
  0
VERTEX
  8
0
 10
90.67924622
 20
170.22523128
  0
VERTEX
  8
0
 10
91.08020626
 20
170.46100655
  0
VERTEX
  8
0
 10
91.55918473
 20
170.77540153
  0
VERTEX
  8
0
 10
92.10070832
 20
171.15785037
  0
VERTEX
  8
0
 10
92.68930371
 20
171.59778721
  0
VERTEX
  8
0
 10
93.30949759
 20
172.08464618
  0
VERTEX
  8
0
 10
93.94581664
 20
172.60786142
  0
SEQEND
  0
POLYLINE
  8
Calque_par_d_faut
 62
256
 66
   1
 39
0.000000
 70
    1
  0
VERTEX
  8
0
 10
138.11764706
 20
173.88235294
  0
VERTEX
  8
0
 10
138.89752987
 20
174.68090491
  0
VERTEX
  8
0
 10
139.62509191
 20
175.46197329
  0
VERTEX
  8
0
 10
140.28440947
 20
176.20588266
  0
VERTEX
  8
0
 10
140.85955882
 20
176.89295762
  0
VERTEX
  8
0
 10
141.33461627
 20
177.50352277
  0
VERTEX
  8
0
 10
141.69365809
 20
178.01790268
  0
VERTEX
  8
0
 10
141.92076057
 20
178.41642195
  0
VERTEX
  8
0
 10
141.97985840
 20
178.56608528
  0
VERTEX
  8
0
 10
142.00000000
 20
178.67940518
  0
VERTEX
  8
0
 10
141.97971168
 20
178.79239448
  0
VERTEX
  8
0
 10
141.92018337
 20
178.94108782
  0
VERTEX
  8
0
 10
141.82342004
 20
179.12305844
  0
VERTEX
  8
0
 10
141.69142663
 20
179.33587960
  0
VERTEX
  8
0
 10
141.32976948
 20
179.84436645
  0
VERTEX
  8
0
 10
140.85125162
 20
180.44713434
  0
VERTEX
  8
0
 10
140.27191276
 20
181.12476921
  0
VERTEX
  8
0
 10
139.60779260
 20
181.85785702
  0
VERTEX
  8
0
 10
138.87493086
 20
182.62698371
  0
VERTEX
  8
0
 10
138.08936722
 20
183.41273524
  0
VERTEX
  8
0
 10
134.17873444
 20
187.23136602
  0
VERTEX
  8
0
 10
129.47368421
 20
182.52631579
  0
VERTEX
  8
0
 10
124.76863398
 20
177.82126556
  0
VERTEX
  8
0
 10
128.58726476
 20
173.91063278
  0
VERTEX
  8
0
 10
129.37301629
 20
173.12506914
  0
VERTEX
  8
0
 10
130.14214298
 20
172.39220740
  0
VERTEX
  8
0
 10
130.87523079
 20
171.72808724
  0
VERTEX
  8
0
 10
131.55286566
 20
171.14874838
  0
VERTEX
  8
0
 10
132.15563355
 20
170.67023052
  0
VERTEX
  8
0
 10
132.66412040
 20
170.30857337
  0
VERTEX
  8
0
 10
132.87694156
 20
170.17657996
  0
VERTEX
  8
0
 10
133.05891218
 20
170.07981663
  0
VERTEX
  8
0
 10
133.20760552
 20
170.02028832
  0
VERTEX
  8
0
 10
133.32059482
 20
170.00000000
  0
VERTEX
  8
0
 10
133.43391472
 20
170.02014160
  0
VERTEX
  8
0
 10
133.58357805
 20
170.07923943
  0
VERTEX
  8
0
 10
133.98209732
 20
170.30634191
  0
VERTEX
  8
0
 10
134.49647723
 20
170.66538373
  0
VERTEX
  8
0
 10
135.10704238
 20
171.14044118
  0
VERTEX
  8
0
 10
135.79411734
 20
171.71559053
  0
VERTEX
  8
0
 10
136.53802671
 20
172.37490809
  0
VERTEX
  8
0
 10
137.31909509
 20
173.10247013
  0
VERTEX
  8
0
 10
138.11764706
 20
173.88235294
  0
SEQEND
  0
POLYLINE
  8
Calque_par_d_faut
 62
256
 66
   1
 39
0.000000
 70
    1
  0
VERTEX
  8
0
 10
181.11764706
 20
173.88235294
  0
VERTEX
  8
0
 10
181.89752987
 20
174.68090491
  0
VERTEX
  8
0
 10
182.62509191
 20
175.46197329
  0
VERTEX
  8
0
 10
183.28440947
 20
176.20588266
  0
VERTEX
  8
0
 10
183.85955882
 20
176.89295762
  0
VERTEX
  8
0
 10
184.33461627
 20
177.50352277
  0
VERTEX
  8
0
 10
184.69365809
 20
178.01790268
  0
VERTEX
  8
0
 10
184.92076057
 20
178.41642195
  0
VERTEX
  8
0
 10
184.97985840
 20
178.56608528
  0
VERTEX
  8
0
 10
185.00000000
 20
178.67940518
  0
VERTEX
  8
0
 10
184.97998799
 20
178.79212468
  0
VERTEX
  8
0
 10
184.92127038
 20
178.94002639
  0
VERTEX
  8
0
 10
184.82582484
 20
179.12071022
  0
VERTEX
  8
0
 10
184.69562903
 20
179.33177607
  0
VERTEX
  8
0
 10
184.33889720
 20
179.83545347
  0
VERTEX
  8
0
 10
183.86689617
 20
180.43185784
  0
VERTEX
  8
0
 10
183.29544720
 20
181.10178844
  0
VERTEX
  8
0
 10
182.64037156
 20
181.82604453
  0
VERTEX
  8
0
 10
181.91749049
 20
182.58542534
  0
VERTEX
  8
0
 10
181.14262528
 20
183.36073014
  0
VERTEX
  8
0
 10
177.28525055
 20
187.12735582
  0
VERTEX
  8
0
 10
172.57894737
 20
182.42105263
  0
VERTEX
  8
0
 10
167.87264418
 20
177.71474945
  0
VERTEX
  8
0
 10
171.63926986
 20
173.85737472
  0
VERTEX
  8
0
 10
172.41457466
 20
173.08250951
  0
VERTEX
  8
0
 10
173.17395547
 20
172.35962844
  0
VERTEX
  8
0
 10
173.89821156
 20
171.70455280
  0
VERTEX
  8
0
 10
174.56814216
 20
171.13310383
  0
VERTEX
  8
0
 10
175.16454653
 20
170.66110280
  0
VERTEX
  8
0
 10
175.66822393
 20
170.30437097
  0
VERTEX
  8
0
 10
175.87928978
 20
170.17417516
  0
VERTEX
  8
0
 10
176.05997361
 20
170.07872962
  0
VERTEX
  8
0
 10
176.20787532
 20
170.02001201
  0
VERTEX
  8
0
 10
176.32059482
 20
170.00000000
  0
VERTEX
  8
0
 10
176.43391472
 20
170.02014160
  0
VERTEX
  8
0
 10
176.58357805
 20
170.07923943
  0
VERTEX
  8
0
 10
176.98209732
 20
170.30634191
  0
VERTEX
  8
0
 10
177.49647723
 20
170.66538373
  0
VERTEX
  8
0
 10
178.10704238
 20
171.14044118
  0
VERTEX
  8
0
 10
178.79411734
 20
171.71559053
  0
VERTEX
  8
0
 10
179.53802671
 20
172.37490809
  0
VERTEX
  8
0
 10
180.31909509
 20
173.10247013
  0
VERTEX
  8
0
 10
181.11764706
 20
173.88235294
  0
SEQEND
  0
POLYLINE
  8
Calque_par_d_faut
 62
256
 66
   1
 39
0.000000
 70
    1
  0
VERTEX
  8
0
 10
39.25000000
 20
187.80709196
  0
VERTEX
  8
0
 10
39.60153809
 20
188.12527696
  0
VERTEX
  8
0
 10
39.92949219
 20
188.45360117
  0
VERTEX
  8
0
 10
40.22668457
 20
188.78262733
  0
VERTEX
  8
0
 10
40.48593750
 20
189.10291818
  0
VERTEX
  8
0
 10
40.70007324
 20
189.40503649
  0
VERTEX
  8
0
 10
40.86191406
 20
189.67954500
  0
VERTEX
  8
0
 10
40.96428223
 20
189.91700645
  0
VERTEX
  8
0
 10
40.99092102
 20
190.01889540
  0
VERTEX
  8
0
 10
41.00000000
 20
190.10798360
  0
VERTEX
  8
0
 10
40.97952252
 20
190.19327164
  0
VERTEX
  8
0
 10
40.91975029
 20
190.28573126
  0
VERTEX
  8
0
 10
40.82317365
 20
190.38458537
  0
VERTEX
  8
0
 10
40.69228292
 20
190.48905686
  0
VERTEX
  8
0
 10
40.33752053
 20
190.71174362
  0
VERTEX
  8
0
 10
39.87538577
 20
190.94757473
  0
VERTEX
  8
0
 10
39.32580126
 20
191.19033342
  0
VERTEX
  8
0
 10
38.70868966
 20
191.43380289
  0
VERTEX
  8
0
 10
38.04397360
 20
191.67176636
  0
VERTEX
  8
0
 10
37.35157572
 20
191.89800704
  0
VERTEX
  8
0
 10
36.65141867
 20
192.10630815
  0
VERTEX
  8
0
 10
35.96342507
 20
192.29045288
  0
VERTEX
  8
0
 10
35.30751758
 20
192.44422446
  0
VERTEX
  8
0
 10
34.70361883
 20
192.56140609
  0
VERTEX
  8
0
 10
34.17165146
 20
192.63578098
  0
VERTEX
  8
0
 10
33.73153812
 20
192.66113236
  0
VERTEX
  8
0
 10
33.55215253
 20
192.65348148
  0
VERTEX
  8
0
 10
33.40320143
 20
192.63124342
  0
VERTEX
  8
0
 10
33.28717517
 20
192.59364109
  0
VERTEX
  8
0
 10
33.20656405
 20
192.53989739
  0
VERTEX
  8
0
 10
33.17133978
 20
192.47999662
  0
VERTEX
  8
0
 10
33.14911782
 20
192.38537093
  0
VERTEX
  8
0
 10
33.14209280
 20
192.10011117
  0
VERTEX
  8
0
 10
33.18231288
 20
191.70045098
  0
VERTEX
  8
0
 10
33.26660197
 20
191.20272319
  0
VERTEX
  8
0
 10
33.39178399
 20
190.62326066
  0
VERTEX
  8
0
 10
33.55468282
 20
189.97839623
  0
VERTEX
  8
0
 10
33.75212237
 20
189.28446276
  0
VERTEX
  8
0
 10
33.98092656
 20
188.55779310
  0
VERTEX
  8
0
 10
34.20005780
 20
187.91662654
  0
VERTEX
  8
0
 10
34.41020419
 20
187.35806624
  0
VERTEX
  8
0
 10
34.61643922
 20
186.88138938
  0
VERTEX
  8
0
 10
34.82383638
 20
186.48587311
  0
VERTEX
  8
0
 10
35.03746917
 20
186.17079460
  0
VERTEX
  8
0
 10
35.14820940
 20
186.04319362
  0
VERTEX
  8
0
 10
35.26241108
 20
185.93543101
  0
VERTEX
  8
0
 10
35.38070842
 20
185.84741643
  0
VERTEX
  8
0
 10
35.50373560
 20
185.77905951
  0
VERTEX
  8
0
 10
35.63212681
 20
185.73026991
  0
VERTEX
  8
0
 10
35.76651623
 20
185.70095726
  0
VERTEX
  8
0
 10
35.90753804
 20
185.69103122
  0
VERTEX
  8
0
 10
36.05582645
 20
185.70040143
  0
VERTEX
  8
0
 10
36.21201562
 20
185.72897753
  0
VERTEX
  8
0
 10
36.37673975
 20
185.77666917
  0
VERTEX
  8
0
 10
36.73432964
 20
185.92903766
  0
VERTEX
  8
0
 10
37.13366960
 20
186.15678405
  0
VERTEX
  8
0
 10
37.57983312
 20
186.45918551
  0
VERTEX
  8
0
 10
38.07789370
 20
186.83551921
  0
VERTEX
  8
0
 10
38.63292483
 20
187.28506230
  0
VERTEX
  8
0
 10
39.25000000
 20
187.80709196
  0
SEQEND
  0
POLYLINE
  8
Calque_par_d_faut
 62
256
 66
   1
 39
0.000000
 70
    1
  0
VERTEX
  8
0
 10
60.96481624
 20
186.93425855
  0
VERTEX
  8
0
 10
61.37772002
 20
187.75907156
  0
VERTEX
  8
0
 10
61.69474157
 20
188.51015552
  0
VERTEX
  8
0
 10
61.81749412
 20
188.85787367
  0
VERTEX
  8
0
 10
61.91651325
 20
189.18694903
  0
VERTEX
  8
0
 10
61.99187799
 20
189.49731144
  0
VERTEX
  8
0
 10
62.04366740
 20
189.78889072
  0
VERTEX
  8
0
 10
62.07196052
 20
190.06161669
  0
VERTEX
  8
0
 10
62.07683640
 20
190.31541919
  0
VERTEX
  8
0
 10
62.05837407
 20
190.55022803
  0
VERTEX
  8
0
 10
62.01665258
 20
190.76597306
  0
VERTEX
  8
0
 10
61.95175099
 20
190.96258409
  0
VERTEX
  8
0
 10
61.86374832
 20
191.13999096
  0
VERTEX
  8
0
 10
61.75272363
 20
191.29812348
  0
VERTEX
  8
0
 10
61.61875596
 20
191.43691149
  0
VERTEX
  8
0
 10
61.46192436
 20
191.55628482
  0
VERTEX
  8
0
 10
61.28230786
 20
191.65617328
  0
VERTEX
  8
0
 10
61.07998552
 20
191.73650672
  0
VERTEX
  8
0
 10
60.85503638
 20
191.79721494
  0
VERTEX
  8
0
 10
60.60753948
 20
191.83822779
  0
VERTEX
  8
0
 10
60.33757387
 20
191.85947509
  0
VERTEX
  8
0
 10
60.04521859
 20
191.86088667
  0
VERTEX
  8
0
 10
59.73055269
 20
191.84239235
  0
VERTEX
  8
0
 10
59.39365521
 20
191.80392196
  0
VERTEX
  8
0
 10
59.03460520
 20
191.74540532
  0
VERTEX
  8
0
 10
58.25036374
 20
191.56795264
  0
VERTEX
  8
0
 10
57.37846069
 20
191.30947291
  0
VERTEX
  8
0
 10
56.41952838
 20
190.96940475
  0
VERTEX
  8
0
 10
53.70885744
 20
189.93880949
  0
VERTEX
  8
0
 10
56.02874275
 20
187.46940475
  0
VERTEX
  8
0
 10
56.53005734
 20
186.94521099
  0
VERTEX
  8
0
 10
56.98808618
 20
186.48835589
  0
VERTEX
  8
0
 10
57.40659591
 20
186.09843106
  0
VERTEX
  8
0
 10
57.78935321
 20
185.77502816
  0
VERTEX
  8
0
 10
58.14012474
 20
185.51773882
  0
VERTEX
  8
0
 10
58.46267715
 20
185.32615466
  0
VERTEX
  8
0
 10
58.76077712
 20
185.19986734
  0
VERTEX
  8
0
 10
59.03819131
 20
185.13846847
  0
VERTEX
  8
0
 10
59.17031832
 20
185.13197460
  0
VERTEX
  8
0
 10
59.29868638
 20
185.14154971
  0
VERTEX
  8
0
 10
59.42376633
 20
185.16714275
  0
VERTEX
  8
0
 10
59.54602900
 20
185.20870268
  0
VERTEX
  8
0
 10
59.78398582
 20
185.33951902
  0
VERTEX
  8
0
 10
60.01632351
 20
185.53359037
  0
VERTEX
  8
0
 10
60.24680873
 20
185.79050836
  0
VERTEX
  8
0
 10
60.47920816
 20
186.10986463
  0
VERTEX
  8
0
 10
60.71728844
 20
186.49125081
  0
VERTEX
  8
0
 10
60.96481624
 20
186.93425855
  0
SEQEND
  0
POLYLINE
  8
Calque_par_d_faut
 62
256
 66
   1
 39
0.000000
 70
    1
  0
VERTEX
  8
0
 10
82.25000000
 20
187.80709196
  0
VERTEX
  8
0
 10
82.60153809
 20
188.12527696
  0
VERTEX
  8
0
 10
82.92949219
 20
188.45360117
  0
VERTEX
  8
0
 10
83.22668457
 20
188.78262733
  0
VERTEX
  8
0
 10
83.48593750
 20
189.10291818
  0
VERTEX
  8
0
 10
83.70007324
 20
189.40503649
  0
VERTEX
  8
0
 10
83.86191406
 20
189.67954500
  0
VERTEX
  8
0
 10
83.96428223
 20
189.91700645
  0
VERTEX
  8
0
 10
83.99092102
 20
190.01889540
  0
VERTEX
  8
0
 10
84.00000000
 20
190.10798360
  0
VERTEX
  8
0
 10
83.97952252
 20
190.19327164
  0
VERTEX
  8
0
 10
83.91975029
 20
190.28573126
  0
VERTEX
  8
0
 10
83.82317365
 20
190.38458537
  0
VERTEX
  8
0
 10
83.69228292
 20
190.48905686
  0
VERTEX
  8
0
 10
83.33752053
 20
190.71174362
  0
VERTEX
  8
0
 10
82.87538577
 20
190.94757473
  0
VERTEX
  8
0
 10
82.32580126
 20
191.19033342
  0
VERTEX
  8
0
 10
81.70868966
 20
191.43380289
  0
VERTEX
  8
0
 10
81.04397360
 20
191.67176636
  0
VERTEX
  8
0
 10
80.35157572
 20
191.89800704
  0
VERTEX
  8
0
 10
79.65141867
 20
192.10630815
  0
VERTEX
  8
0
 10
78.96342507
 20
192.29045288
  0
VERTEX
  8
0
 10
78.30751758
 20
192.44422446
  0
VERTEX
  8
0
 10
77.70361883
 20
192.56140609
  0
VERTEX
  8
0
 10
77.17165146
 20
192.63578098
  0
VERTEX
  8
0
 10
76.73153812
 20
192.66113236
  0
VERTEX
  8
0
 10
76.55215253
 20
192.65348148
  0
VERTEX
  8
0
 10
76.40320143
 20
192.63124342
  0
VERTEX
  8
0
 10
76.28717517
 20
192.59364109
  0
VERTEX
  8
0
 10
76.20656405
 20
192.53989739
  0
VERTEX
  8
0
 10
76.17133978
 20
192.47999662
  0
VERTEX
  8
0
 10
76.14911782
 20
192.38537093
  0
VERTEX
  8
0
 10
76.14209280
 20
192.10011117
  0
VERTEX
  8
0
 10
76.18231288
 20
191.70045098
  0
VERTEX
  8
0
 10
76.26660197
 20
191.20272319
  0
VERTEX
  8
0
 10
76.39178399
 20
190.62326066
  0
VERTEX
  8
0
 10
76.55468282
 20
189.97839623
  0
VERTEX
  8
0
 10
76.75212237
 20
189.28446276
  0
VERTEX
  8
0
 10
76.98092656
 20
188.55779310
  0
VERTEX
  8
0
 10
77.20005780
 20
187.91662654
  0
VERTEX
  8
0
 10
77.41020419
 20
187.35806624
  0
VERTEX
  8
0
 10
77.61643922
 20
186.88138938
  0
VERTEX
  8
0
 10
77.82383638
 20
186.48587311
  0
VERTEX
  8
0
 10
78.03746917
 20
186.17079460
  0
VERTEX
  8
0
 10
78.14820940
 20
186.04319362
  0
VERTEX
  8
0
 10
78.26241108
 20
185.93543101
  0
VERTEX
  8
0
 10
78.38070842
 20
185.84741643
  0
VERTEX
  8
0
 10
78.50373560
 20
185.77905951
  0
VERTEX
  8
0
 10
78.63212681
 20
185.73026991
  0
VERTEX
  8
0
 10
78.76651623
 20
185.70095726
  0
VERTEX
  8
0
 10
78.90753804
 20
185.69103122
  0
VERTEX
  8
0
 10
79.05582645
 20
185.70040143
  0
VERTEX
  8
0
 10
79.21201562
 20
185.72897753
  0
VERTEX
  8
0
 10
79.37673975
 20
185.77666917
  0
VERTEX
  8
0
 10
79.73432964
 20
185.92903766
  0
VERTEX
  8
0
 10
80.13366960
 20
186.15678405
  0
VERTEX
  8
0
 10
80.57983312
 20
186.45918551
  0
VERTEX
  8
0
 10
81.07789370
 20
186.83551921
  0
VERTEX
  8
0
 10
81.63292483
 20
187.28506230
  0
VERTEX
  8
0
 10
82.25000000
 20
187.80709196
  0
SEQEND
  0
POLYLINE
  8
Calque_par_d_faut
 62
256
 66
   1
 39
0.000000
 70
    1
  0
VERTEX
  8
0
 10
104.70741983
 20
188.81818397
  0
VERTEX
  8
0
 10
105.09607116
 20
189.79548951
  0
VERTEX
  8
0
 10
105.36223880
 20
190.55049080
  0
VERTEX
  8
0
 10
105.44761044
 20
190.85348835
  0
VERTEX
  8
0
 10
105.50022420
 20
191.11154303
  0
VERTEX
  8
0
 10
105.51936775
 20
191.32819924
  0
VERTEX
  8
0
 10
105.50432878
 20
191.50700139
  0
VERTEX
  8
0
 10
105.45439496
 20
191.65149386
  0
VERTEX
  8
0
 10
105.36885398
 20
191.76522107
  0
VERTEX
  8
0
 10
105.24699350
 20
191.85172741
  0
VERTEX
  8
0
 10
105.08810122
 20
191.91455727
  0
VERTEX
  8
0
 10
104.89146481
 20
191.95725506
  0
VERTEX
  8
0
 10
104.65637195
 20
191.98336518
  0
VERTEX
  8
0
 10
104.06796759
 20
192.00000000
  0
VERTEX
  8
0
 10
103.62338560
 20
191.97896539
  0
VERTEX
  8
0
 10
103.10167963
 20
191.91867959
  0
VERTEX
  8
0
 10
102.52191552
 20
191.82336966
  0
VERTEX
  8
0
 10
101.90315916
 20
191.69726264
  0
VERTEX
  8
0
 10
101.26447640
 20
191.54458559
  0
VERTEX
  8
0
 10
100.62493311
 20
191.36956556
  0
VERTEX
  8
0
 10
100.00359515
 20
191.17642959
  0
VERTEX
  8
0
 10
99.41952838
 20
190.96940475
  0
VERTEX
  8
0
 10
96.70885744
 20
189.93880949
  0
VERTEX
  8
0
 10
99.04679178
 20
187.45019243
  0
VERTEX
  8
0
 10
99.56169360
 20
186.92003498
  0
VERTEX
  8
0
 10
100.03946395
 20
186.46818306
  0
VERTEX
  8
0
 10
100.48345636
 20
186.09544713
  0
VERTEX
  8
0
 10
100.89702435
 20
185.80263761
  0
VERTEX
  8
0
 10
101.28352146
 20
185.59056495
  0
VERTEX
  8
0
 10
101.46766640
 20
185.51505820
  0
VERTEX
  8
0
 10
101.64630120
 20
185.46003958
  0
VERTEX
  8
0
 10
101.81984504
 20
185.42561040
  0
VERTEX
  8
0
 10
101.98871711
 20
185.41187195
  0
VERTEX
  8
0
 10
102.15333661
 20
185.41892555
  0
VERTEX
  8
0
 10
102.31412272
 20
185.44687250
  0
VERTEX
  8
0
 10
102.47149464
 20
185.49581410
  0
VERTEX
  8
0
 10
102.62587155
 20
185.56585166
  0
VERTEX
  8
0
 10
102.77767265
 20
185.65708649
  0
VERTEX
  8
0
 10
102.92731713
 20
185.76961988
  0
VERTEX
  8
0
 10
103.07522417
 20
185.90355315
  0
VERTEX
  8
0
 10
103.22181298
 20
186.05898760
  0
VERTEX
  8
0
 10
103.51271264
 20
186.43476524
  0
VERTEX
  8
0
 10
103.80336962
 20
186.89776327
  0
VERTEX
  8
0
 10
104.09713746
 20
187.44879210
  0
VERTEX
  8
0
 10
104.39736969
 20
188.08866219
  0
VERTEX
  8
0
 10
104.70741983
 20
188.81818397
  0
SEQEND
  0
POLYLINE
  8
Calque_par_d_faut
 62
256
 66
   1
 39
0.000000
 70
    1
  0
VERTEX
  8
0
 10
125.25000000
 20
187.80709196
  0
VERTEX
  8
0
 10
125.60153809
 20
188.12527696
  0
VERTEX
  8
0
 10
125.92949219
 20
188.45360117
  0
VERTEX
  8
0
 10
126.22668457
 20
188.78262733
  0
VERTEX
  8
0
 10
126.48593750
 20
189.10291818
  0
VERTEX
  8
0
 10
126.70007324
 20
189.40503649
  0
VERTEX
  8
0
 10
126.86191406
 20
189.67954500
  0
VERTEX
  8
0
 10
126.96428223
 20
189.91700645
  0
VERTEX
  8
0
 10
126.99092102
 20
190.01889540
  0
VERTEX
  8
0
 10
127.00000000
 20
190.10798360
  0
VERTEX
  8
0
 10
126.97952252
 20
190.19327164
  0
VERTEX
  8
0
 10
126.91975029
 20
190.28573126
  0
VERTEX
  8
0
 10
126.82317365
 20
190.38458537
  0
VERTEX
  8
0
 10
126.69228292
 20
190.48905686
  0
VERTEX
  8
0
 10
126.33752053
 20
190.71174362
  0
VERTEX
  8
0
 10
125.87538577
 20
190.94757473
  0
VERTEX
  8
0
 10
125.32580126
 20
191.19033342
  0
VERTEX
  8
0
 10
124.70868966
 20
191.43380289
  0
VERTEX
  8
0
 10
124.04397360
 20
191.67176636
  0
VERTEX
  8
0
 10
123.35157572
 20
191.89800704
  0
VERTEX
  8
0
 10
122.65141867
 20
192.10630815
  0
VERTEX
  8
0
 10
121.96342507
 20
192.29045288
  0
VERTEX
  8
0
 10
121.30751758
 20
192.44422446
  0
VERTEX
  8
0
 10
120.70361883
 20
192.56140609
  0
VERTEX
  8
0
 10
120.17165146
 20
192.63578098
  0
VERTEX
  8
0
 10
119.73153812
 20
192.66113236
  0
VERTEX
  8
0
 10
119.55215253
 20
192.65348148
  0
VERTEX
  8
0
 10
119.40320143
 20
192.63124342
  0
VERTEX
  8
0
 10
119.28717517
 20
192.59364109
  0
VERTEX
  8
0
 10
119.20656405
 20
192.53989739
  0
VERTEX
  8
0
 10
119.17133978
 20
192.47999662
  0
VERTEX
  8
0
 10
119.14911782
 20
192.38537093
  0
VERTEX
  8
0
 10
119.14209280
 20
192.10011117
  0
VERTEX
  8
0
 10
119.18231288
 20
191.70045098
  0
VERTEX
  8
0
 10
119.26660197
 20
191.20272319
  0
VERTEX
  8
0
 10
119.39178399
 20
190.62326066
  0
VERTEX
  8
0
 10
119.55468282
 20
189.97839623
  0
VERTEX
  8
0
 10
119.75212237
 20
189.28446276
  0
VERTEX
  8
0
 10
119.98092656
 20
188.55779310
  0
VERTEX
  8
0
 10
120.20005780
 20
187.91662654
  0
VERTEX
  8
0
 10
120.41020419
 20
187.35806624
  0
VERTEX
  8
0
 10
120.61643922
 20
186.88138938
  0
VERTEX
  8
0
 10
120.82383638
 20
186.48587311
  0
VERTEX
  8
0
 10
121.03746917
 20
186.17079460
  0
VERTEX
  8
0
 10
121.14820940
 20
186.04319362
  0
VERTEX
  8
0
 10
121.26241108
 20
185.93543101
  0
VERTEX
  8
0
 10
121.38070842
 20
185.84741643
  0
VERTEX
  8
0
 10
121.50373560
 20
185.77905951
  0
VERTEX
  8
0
 10
121.63212681
 20
185.73026991
  0
VERTEX
  8
0
 10
121.76651623
 20
185.70095726
  0
VERTEX
  8
0
 10
121.90753804
 20
185.69103122
  0
VERTEX
  8
0
 10
122.05582645
 20
185.70040143
  0
VERTEX
  8
0
 10
122.21201562
 20
185.72897753
  0
VERTEX
  8
0
 10
122.37673975
 20
185.77666917
  0
VERTEX
  8
0
 10
122.73432964
 20
185.92903766
  0
VERTEX
  8
0
 10
123.13366960
 20
186.15678405
  0
VERTEX
  8
0
 10
123.57983312
 20
186.45918551
  0
VERTEX
  8
0
 10
124.07789370
 20
186.83551921
  0
VERTEX
  8
0
 10
124.63292483
 20
187.28506230
  0
VERTEX
  8
0
 10
125.25000000
 20
187.80709196
  0
SEQEND
  0
POLYLINE
  8
Calque_par_d_faut
 62
256
 66
   1
 39
0.000000
 70
    1
  0
VERTEX
  8
0
 10
147.70741983
 20
188.81818397
  0
VERTEX
  8
0
 10
148.09607116
 20
189.79548951
  0
VERTEX
  8
0
 10
148.36223880
 20
190.55049080
  0
VERTEX
  8
0
 10
148.44761044
 20
190.85348835
  0
VERTEX
  8
0
 10
148.50022420
 20
191.11154303
  0
VERTEX
  8
0
 10
148.51936775
 20
191.32819924
  0
VERTEX
  8
0
 10
148.50432878
 20
191.50700139
  0
VERTEX
  8
0
 10
148.45439496
 20
191.65149386
  0
VERTEX
  8
0
 10
148.36885398
 20
191.76522107
  0
VERTEX
  8
0
 10
148.24699350
 20
191.85172741
  0
VERTEX
  8
0
 10
148.08810122
 20
191.91455727
  0
VERTEX
  8
0
 10
147.89146481
 20
191.95725506
  0
VERTEX
  8
0
 10
147.65637195
 20
191.98336518
  0
VERTEX
  8
0
 10
147.06796759
 20
192.00000000
  0
VERTEX
  8
0
 10
146.62338560
 20
191.97896539
  0
VERTEX
  8
0
 10
146.10167963
 20
191.91867959
  0
VERTEX
  8
0
 10
145.52191552
 20
191.82336966
  0
VERTEX
  8
0
 10
144.90315916
 20
191.69726264
  0
VERTEX
  8
0
 10
144.26447640
 20
191.54458559
  0
VERTEX
  8
0
 10
143.62493311
 20
191.36956556
  0
VERTEX
  8
0
 10
143.00359515
 20
191.17642959
  0
VERTEX
  8
0
 10
142.41952838
 20
190.96940475
  0
VERTEX
  8
0
 10
139.70885744
 20
189.93880949
  0
VERTEX
  8
0
 10
142.04679178
 20
187.45019243
  0
VERTEX
  8
0
 10
142.56169360
 20
186.92003498
  0
VERTEX
  8
0
 10
143.03946395
 20
186.46818306
  0
VERTEX
  8
0
 10
143.48345636
 20
186.09544713
  0
VERTEX
  8
0
 10
143.89702435
 20
185.80263761
  0
VERTEX
  8
0
 10
144.28352146
 20
185.59056495
  0
VERTEX
  8
0
 10
144.46766640
 20
185.51505820
  0
VERTEX
  8
0
 10
144.64630120
 20
185.46003958
  0
VERTEX
  8
0
 10
144.81984504
 20
185.42561040
  0
VERTEX
  8
0
 10
144.98871711
 20
185.41187195
  0
VERTEX
  8
0
 10
145.15333661
 20
185.41892555
  0
VERTEX
  8
0
 10
145.31412272
 20
185.44687250
  0
VERTEX
  8
0
 10
145.47149464
 20
185.49581410
  0
VERTEX
  8
0
 10
145.62587155
 20
185.56585166
  0
VERTEX
  8
0
 10
145.77767265
 20
185.65708649
  0
VERTEX
  8
0
 10
145.92731713
 20
185.76961988
  0
VERTEX
  8
0
 10
146.07522417
 20
185.90355315
  0
VERTEX
  8
0
 10
146.22181298
 20
186.05898760
  0
VERTEX
  8
0
 10
146.51271264
 20
186.43476524
  0
VERTEX
  8
0
 10
146.80336962
 20
186.89776327
  0
VERTEX
  8
0
 10
147.09713746
 20
187.44879210
  0
VERTEX
  8
0
 10
147.39736969
 20
188.08866219
  0
VERTEX
  8
0
 10
147.70741983
 20
188.81818397
  0
SEQEND
  0
POLYLINE
  8
Calque_par_d_faut
 62
256
 66
   1
 39
0.000000
 70
    1
  0
VERTEX
  8
0
 10
167.68554878
 20
187.17431403
  0
VERTEX
  8
0
 10
168.15047321
 20
187.62698087
  0
VERTEX
  8
0
 10
168.58420679
 20
188.08000227
  0
VERTEX
  8
0
 10
168.97725666
 20
188.52126633
  0
VERTEX
  8
0
 10
169.32012995
 20
188.93866115
  0
VERTEX
  8
0
 10
169.60333380
 20
189.32007483
  0
VERTEX
  8
0
 10
169.81737533
 20
189.65339548
  0
VERTEX
  8
0
 10
169.95276169
 20
189.92651119
  0
VERTEX
  8
0
 10
169.98799265
 20
190.03670723
  0
VERTEX
  8
0
 10
170.00000000
 20
190.12731007
  0
VERTEX
  8
0
 10
169.97949715
 20
190.21134309
  0
VERTEX
  8
0
 10
169.91965210
 20
190.30254313
  0
VERTEX
  8
0
 10
169.82296009
 20
190.40013777
  0
VERTEX
  8
0
 10
169.69191635
 20
190.50335455
  0
VERTEX
  8
0
 10
169.33675466
 20
190.72356477
  0
VERTEX
  8
0
 10
168.87412895
 20
190.95699425
  0
VERTEX
  8
0
 10
168.32400113
 20
191.19746346
  0
VERTEX
  8
0
 10
167.70633313
 20
191.43879285
  0
VERTEX
  8
0
 10
167.04108684
 20
191.67480287
  0
VERTEX
  8
0
 10
166.34822420
 20
191.89931399
  0
VERTEX
  8
0
 10
165.64770712
 20
192.10614667
  0
VERTEX
  8
0
 10
164.95949751
 20
192.28912136
  0
VERTEX
  8
0
 10
164.30355729
 20
192.44205851
  0
VERTEX
  8
0
 10
163.69984837
 20
192.55877860
  0
VERTEX
  8
0
 10
163.16833267
 20
192.63310207
  0
VERTEX
  8
0
 10
162.72897211
 20
192.65884939
  0
VERTEX
  8
0
 10
162.55008810
 20
192.65157588
  0
VERTEX
  8
0
 10
162.40172860
 20
192.62984101
  0
VERTEX
  8
0
 10
162.28638884
 20
192.59287232
  0
VERTEX
  8
0
 10
162.20656405
 20
192.53989739
  0
VERTEX
  8
0
 10
162.16239690
 20
192.46889958
  0
VERTEX
  8
0
 10
162.13455075
 20
192.36275126
  0
VERTEX
  8
0
 10
162.12219388
 20
192.22390539
  0
VERTEX
  8
0
 10
162.12449458
 20
192.05481493
  0
VERTEX
  8
0
 10
162.16974179
 20
191.63571207
  0
VERTEX
  8
0
 10
162.26363861
 20
191.12506639
  0
VERTEX
  8
0
 10
162.39953128
 20
190.54250156
  0
VERTEX
  8
0
 10
162.57076603
 20
189.90764128
  0
VERTEX
  8
0
 10
162.77068912
 20
189.24010923
  0
VERTEX
  8
0
 10
162.99264677
 20
188.55952911
  0
VERTEX
  8
0
 10
163.22998522
 20
187.88552460
  0
VERTEX
  8
0
 10
163.47605071
 20
187.23771939
  0
VERTEX
  8
0
 10
163.72418948
 20
186.63573716
  0
VERTEX
  8
0
 10
163.96774777
 20
186.09920162
  0
VERTEX
  8
0
 10
164.20007182
 20
185.64773645
  0
VERTEX
  8
0
 10
164.41450785
 20
185.30096532
  0
VERTEX
  8
0
 10
164.51293857
 20
185.17297244
  0
VERTEX
  8
0
 10
164.60440212
 20
185.07851195
  0
VERTEX
  8
0
 10
164.68806679
 20
185.02003681
  0
VERTEX
  8
0
 10
164.76310086
 20
185.00000000
  0
VERTEX
  8
0
 10
164.83704342
 20
185.01128032
  0
VERTEX
  8
0
 10
164.93247288
 20
185.04437809
  0
VERTEX
  8
0
 10
165.18179925
 20
185.17156697
  0
VERTEX
  8
0
 10
165.49909334
 20
185.37264855
  0
VERTEX
  8
0
 10
165.87236857
 20
185.63870475
  0
VERTEX
  8
0
 10
166.28963834
 20
185.96081748
  0
VERTEX
  8
0
 10
166.73891603
 20
186.33006866
  0
VERTEX
  8
0
 10
167.20821504
 20
186.73754020
  0
VERTEX
  8
0
 10
167.68554878
 20
187.17431403
  0
SEQEND
  0
POLYLINE
  8
Calque_par_d_faut
 62
256
 66
   1
 39
0.000000
 70
    1
  0
VERTEX
  8
0
 10
189.75516647
 20
186.25000000
  0
VERTEX
  8
0
 10
189.97013505
 20
186.54702148
  0
VERTEX
  8
0
 10
190.19789710
 20
186.91289062
  0
VERTEX
  8
0
 10
190.43152167
 20
187.33325195
  0
VERTEX
  8
0
 10
190.66407780
 20
187.79375000
  0
VERTEX
  8
0
 10
190.88863453
 20
188.28002930
  0
VERTEX
  8
0
 10
191.09826092
 20
188.77773437
  0
VERTEX
  8
0
 10
191.28602602
 20
189.27250977
  0
VERTEX
  8
0
 10
191.44499886
 20
189.75000000
  0
VERTEX
  8
0
 10
191.61445996
 20
190.36745392
  0
VERTEX
  8
0
 10
191.66868534
 20
190.63119399
  0
VERTEX
  8
0
 10
191.70150118
 20
190.86678178
  0
VERTEX
  8
0
 10
191.71210294
 20
191.07559653
  0
VERTEX
  8
0
 10
191.69968604
 20
191.25901748
  0
VERTEX
  8
0
 10
191.66344592
 20
191.41842386
  0
VERTEX
  8
0
 10
191.60257802
 20
191.55519492
  0
VERTEX
  8
0
 10
191.51627778
 20
191.67070988
  0
VERTEX
  8
0
 10
191.40374064
 20
191.76634799
  0
VERTEX
  8
0
 10
191.26416203
 20
191.84348848
  0
VERTEX
  8
0
 10
191.09673740
 20
191.90351059
  0
VERTEX
  8
0
 10
190.90066217
 20
191.94779357
  0
VERTEX
  8
0
 10
190.67513179
 20
191.97771663
  0
VERTEX
  8
0
 10
190.13248733
 20
192.00000000
  0
VERTEX
  8
0
 10
189.67494469
 20
191.97896539
  0
VERTEX
  8
0
 10
189.14114756
 20
191.91867959
  0
VERTEX
  8
0
 10
188.55042645
 20
191.82336966
  0
VERTEX
  8
0
 10
187.92211184
 20
191.69726264
  0
VERTEX
  8
0
 10
187.27553423
 20
191.54458559
  0
VERTEX
  8
0
 10
186.63002412
 20
191.36956556
  0
VERTEX
  8
0
 10
186.00491201
 20
191.17642959
  0
VERTEX
  8
0
 10
185.41952838
 20
190.96940475
  0
VERTEX
  8
0
 10
182.70885744
 20
189.93880949
  0
VERTEX
  8
0
 10
185.02874275
 20
187.46940475
  0
VERTEX
  8
0
 10
185.93054158
 20
186.53949814
  0
VERTEX
  8
0
 10
186.32260790
 20
186.16442843
  0
VERTEX
  8
0
 10
186.68068539
 20
185.84793095
  0
VERTEX
  8
0
 10
187.00869902
 20
185.58899309
  0
VERTEX
  8
0
 10
187.31057371
 20
185.38660220
  0
VERTEX
  8
0
 10
187.59023441
 20
185.23974567
  0
VERTEX
  8
0
 10
187.85160606
 20
185.14741088
  0
VERTEX
  8
0
 10
188.09861360
 20
185.10858519
  0
VERTEX
  8
0
 10
188.33518198
 20
185.12225599
  0
VERTEX
  8
0
 10
188.56523613
 20
185.18741065
  0
VERTEX
  8
0
 10
188.79270100
 20
185.30303655
  0
VERTEX
  8
0
 10
189.02150152
 20
185.46812105
  0
VERTEX
  8
0
 10
189.25556265
 20
185.68165155
  0
VERTEX
  8
0
 10
189.49880932
 20
185.94261541
  0
VERTEX
  8
0
 10
189.75516647
 20
186.25000000
  0
SEQEND
  0
ENDSEC
  0
EOF
