  0
SECTION
  2
HEADER
  9
$ACADVER
  1
AC1018
  9
$ACADMAINTVER
 70
     0
  9
$DWGCODEPAGE
  3
ANSI_1256
  9
$INSBASE
 10
0.0
 20
0.0
 30
0.0
  9
$EXTMIN
 10
0.0
 20
0.0
 30
0.0
  9
$EXTMAX
 10
47.7144
 20
83.1618
 30
0.0
  9
$LIMMIN
 10
0.0
 20
0.0
  9
$LIMMAX
 10
12.0
 20
9.0
  9
$ORTHOMODE
 70
     0
  9
$REGENMODE
 70
     1
  9
$FILLMODE
 70
     1
  9
$QTEXTMODE
 70
     0
  9
$MIRRTEXT
 70
     1
  9
$LTSCALE
 40
1.0
  9
$ATTMODE
 70
     1
  9
$TEXTSIZE
 40
0.2
  9
$TRACEWID
 40
0.05
  9
$TEXTSTYLE
  7
Standard
  9
$CLAYER
  8
0
  9
$CELTYPE
  6
ByBlock
  9
$CECOLOR
 62
   256
  9
$CELTSCALE
 40
1.0
  9
$DISPSILH
 70
     0
  9
$DIMSCALE
 40
1.0
  9
$DIMASZ
 40
0.18
  9
$DIMEXO
 40
0.0625
  9
$DIMDLI
 40
0.38
  9
$DIMRND
 40
0.0
  9
$DIMDLE
 40
0.0
  9
$DIMEXE
 40
0.18
  9
$DIMTP
 40
0.0
  9
$DIMTM
 40
0.0
  9
$DIMTXT
 40
0.18
  9
$DIMCEN
 40
0.09
  9
$DIMTSZ
 40
0.0
  9
$DIMTOL
 70
     0
  9
$DIMLIM
 70
     0
  9
$DIMTIH
 70
     1
  9
$DIMTOH
 70
     1
  9
$DIMSE1
 70
     0
  9
$DIMSE2
 70
     0
  9
$DIMTAD
 70
     0
  9
$DIMZIN
 70
     0
  9
$DIMBLK
  1

  9
$DIMASO
 70
     1
  9
$DIMSHO
 70
     1
  9
$DIMPOST
  1

  9
$DIMAPOST
  1

  9
$DIMALT
 70
     0
  9
$DIMALTD
 70
     2
  9
$DIMALTF
 40
25.4
  9
$DIMLFAC
 40
1.0
  9
$DIMTOFL
 70
     0
  9
$DIMTVP
 40
0.0
  9
$DIMTIX
 70
     0
  9
$DIMSOXD
 70
     0
  9
$DIMSAH
 70
     0
  9
$DIMBLK1
  1

  9
$DIMBLK2
  1

  9
$DIMSTYLE
  2
Standard
  9
$DIMCLRD
 70
     0
  9
$DIMCLRE
 70
     0
  9
$DIMCLRT
 70
     0
  9
$DIMTFAC
 40
1.0
  9
$DIMGAP
 40
0.09
  9
$DIMJUST
 70
     0
  9
$DIMSD1
 70
     0
  9
$DIMSD2
 70
     0
  9
$DIMTOLJ
 70
     1
  9
$DIMTZIN
 70
     0
  9
$DIMALTZ
 70
     0
  9
$DIMALTTZ
 70
     0
  9
$DIMUPT
 70
     0
  9
$DIMDEC
 70
     4
  9
$DIMTDEC
 70
     4
  9
$DIMALTU
 70
     2
  9
$DIMALTTD
 70
     2
  9
$DIMTXSTY
  7
Standard
  9
$DIMAUNIT
 70
     0
  9
$DIMADEC
 70
     0
  9
$DIMALTRND
 40
0.0
  9
$DIMAZIN
 70
     0
  9
$DIMDSEP
 70
    46
  9
$DIMATFIT
 70
     3
  9
$DIMFRAC
 70
     0
  9
$DIMLDRBLK
  1

  9
$DIMLUNIT
 70
     2
  9
$DIMLWD
 70
    -2
  9
$DIMLWE
 70
    -2
  9
$DIMTMOVE
 70
     2
  9
$LUNITS
 70
     2
  9
$LUPREC
 70
     4
  9
$SKETCHINC
 40
0.1
  9
$FILLETRAD
 40
0.5
  9
$AUNITS
 70
     0
  9
$AUPREC
 70
     0
  9
$MENU
  1
.
  9
$ELEVATION
 40
0.0
  9
$PELEVATION
 40
0.0
  9
$THICKNESS
 40
0.0
  9
$LIMCHECK
 70
     0
  9
$CHAMFERA
 40
0.0
  9
$CHAMFERB
 40
0.0
  9
$CHAMFERC
 40
0.0
  9
$CHAMFERD
 40
0.0
  9
$SKPOLY
 70
     0
  9
$TDCREATE
 40
2457950.869652222
  9
$TDUCREATE
 40
2457950.744652222
  9
$TDUPDATE
 40
2457950.8696525
  9
$TDUUPDATE
 40
2457950.7446525
  9
$TDINDWG
 40
0.0000000116
  9
$TDUSRTIMER
 40
0.0000000116
  9
$USRTIMER
 70
     1
  9
$ANGBASE
 50
0.0
  9
$ANGDIR
 70
     0
  9
$PDMODE
 70
     0
  9
$PDSIZE
 40
0.0
  9
$PLINEWID
 40
0.0
  9
$SPLFRAME
 70
     0
  9
$SPLINETYPE
 70
     6
  9
$SPLINESEGS
 70
     8
  9
$HANDSEED
  5
730
  9
$SURFTAB1
 70
     6
  9
$SURFTAB2
 70
     6
  9
$SURFTYPE
 70
     6
  9
$SURFU
 70
     6
  9
$SURFV
 70
     6
  9
$UCSBASE
  2

  9
$UCSNAME
  2

  9
$UCSORG
 10
0.0
 20
0.0
 30
0.0
  9
$UCSXDIR
 10
1.0
 20
0.0
 30
0.0
  9
$UCSYDIR
 10
0.0
 20
1.0
 30
0.0
  9
$UCSORTHOREF
  2

  9
$UCSORTHOVIEW
 70
     0
  9
$UCSORGTOP
 10
0.0
 20
0.0
 30
0.0
  9
$UCSORGBOTTOM
 10
0.0
 20
0.0
 30
0.0
  9
$UCSORGLEFT
 10
0.0
 20
0.0
 30
0.0
  9
$UCSORGRIGHT
 10
0.0
 20
0.0
 30
0.0
  9
$UCSORGFRONT
 10
0.0
 20
0.0
 30
0.0
  9
$UCSORGBACK
 10
0.0
 20
0.0
 30
0.0
  9
$PUCSBASE
  2

  9
$PUCSNAME
  2

  9
$PUCSORG
 10
0.0
 20
0.0
 30
0.0
  9
$PUCSXDIR
 10
1.0
 20
0.0
 30
0.0
  9
$PUCSYDIR
 10
0.0
 20
1.0
 30
0.0
  9
$PUCSORTHOREF
  2

  9
$PUCSORTHOVIEW
 70
     0
  9
$PUCSORGTOP
 10
0.0
 20
0.0
 30
0.0
  9
$PUCSORGBOTTOM
 10
0.0
 20
0.0
 30
0.0
  9
$PUCSORGLEFT
 10
0.0
 20
0.0
 30
0.0
  9
$PUCSORGRIGHT
 10
0.0
 20
0.0
 30
0.0
  9
$PUCSORGFRONT
 10
0.0
 20
0.0
 30
0.0
  9
$PUCSORGBACK
 10
0.0
 20
0.0
 30
0.0
  9
$USERI1
 70
     0
  9
$USERI2
 70
     0
  9
$USERI3
 70
     0
  9
$USERI4
 70
     0
  9
$USERI5
 70
     0
  9
$USERR1
 40
0.0
  9
$USERR2
 40
0.0
  9
$USERR3
 40
0.0
  9
$USERR4
 40
0.0
  9
$USERR5
 40
0.0
  9
$WORLDVIEW
 70
     1
  9
$SHADEDGE
 70
     3
  9
$SHADEDIF
 70
    70
  9
$TILEMODE
 70
     1
  9
$MAXACTVP
 70
    64
  9
$PINSBASE
 10
0.0
 20
0.0
 30
0.0
  9
$PLIMCHECK
 70
     0
  9
$PEXTMIN
 10
1.000000000000000E+20
 20
1.000000000000000E+20
 30
1.000000000000000E+20
  9
$PEXTMAX
 10
-1.000000000000000E+20
 20
-1.000000000000000E+20
 30
-1.000000000000000E+20
  9
$PLIMMIN
 10
0.0
 20
0.0
  9
$PLIMMAX
 10
12.0
 20
9.0
  9
$UNITMODE
 70
     0
  9
$VISRETAIN
 70
     1
  9
$PLINEGEN
 70
     0
  9
$PSLTSCALE
 70
     1
  9
$TREEDEPTH
 70
  3020
  9
$CMLSTYLE
  2
Standard
  9
$CMLJUST
 70
     0
  9
$CMLSCALE
 40
1.0
  9
$PROXYGRAPHICS
 70
     1
  9
$MEASUREMENT
 70
     0
  9
$CELWEIGHT
370
    -1
  9
$ENDCAPS
280
     0
  9
$JOINSTYLE
280
     0
  9
$LWDISPLAY
290
     0
  9
$INSUNITS
 70
     0
  9
$HYPERLINKBASE
  1

  9
$STYLESHEET
  1

  9
$XEDIT
290
     1
  9
$CEPSNTYPE
380
     0
  9
$PSTYLEMODE
290
     1
  9
$FINGERPRINTGUID
  2
{F7E14D1B-8CB4-4DD8-B791-AF7C5AC33BA6}
  9
$VERSIONGUID
  2
{FAEB1C32-E019-11D5-929B-00C0DF256EC4}
  9
$EXTNAMES
290
     1
  9
$PSVPSCALE
 40
0.0
  9
$OLESTARTUP
290
     0
  9
$SORTENTS
280
   127
  9
$INDEXCTL
280
     0
  9
$HIDETEXT
280
     1
  9
$XCLIPFRAME
290
     0
  9
$HALOGAP
280
     0
  9
$OBSCOLOR
 70
   257
  9
$OBSLTYPE
280
     0
  9
$INTERSECTIONDISPLAY
280
     0
  9
$INTERSECTIONCOLOR
 70
   257
  9
$DIMASSOC
280
     2
  9
$PROJECTNAME
  1

  0
ENDSEC
  0
SECTION
  2
CLASSES
  0
CLASS
  1
ACDBDICTIONARYWDFLT
  2
AcDbDictionaryWithDefault
  3
ObjectDBX Classes
 90
        0
 91
        4
280
     0
281
     0
  0
CLASS
  1
SCALE
  2
AcDbScale
  3
ObjectDBX Classes
 90
     1153
 91
        4
280
     0
281
     0
  0
CLASS
  1
VISUALSTYLE
  2
AcDbVisualStyle
  3
ObjectDBX Classes
 90
     4095
 91
        4
280
     0
281
     0
  0
CLASS
  1
MATERIAL
  2
AcDbMaterial
  3
ObjectDBX Classes
 90
     1153
 91
        4
280
     0
281
     0
  0
CLASS
  1
TABLESTYLE
  2
AcDbTableStyle
  3
ObjectDBX Classes
 90
     4095
 91
        4
280
     0
281
     0
  0
CLASS
  1
MLEADERSTYLE
  2
AcDbMLeaderStyle
  3
ACDB_MLEADERSTYLE_CLASS
 90
     4095
 91
        4
280
     0
281
     0
  0
CLASS
  1
DICTIONARYVAR
  2
AcDbDictionaryVar
  3
ObjectDBX Classes
 90
        0
 91
        4
280
     0
281
     0
  0
CLASS
  1
CELLSTYLEMAP
  2
AcDbCellStyleMap
  3
ObjectDBX Classes
 90
     1152
 91
        4
280
     0
281
     0
  0
ENDSEC
  0
SECTION
  2
TABLES
  0
TABLE
  2
VPORT
  5
8
102
{ACAD_XDICTIONARY
360
6E9
102
}
330
0
100
AcDbSymbolTable
 70
     1
  0
VPORT
  5
21
330
8
100
AcDbSymbolTableRecord
100
AcDbViewportTableRecord
  2
*Active
 70
     0
 10
0.0
 20
0.0
 11
1.0
 21
1.0
 12
10.42990654205607
 22
4.5
 13
0.0
 23
0.0
 14
0.5
 24
0.5
 15
0.5
 25
0.5
 16
0.0
 26
0.0
 36
1.0
 17
0.0
 27
0.0
 37
0.0
 40
9.0
 41
1.972972972850329
 42
50.0
 43
0.0
 44
0.0
 50
0.0
 51
0.0
 71
     0
 72
   100
 73
     1
 74
     3
 75
     0
 76
     0
 77
     0
 78
     0
281
     0
 65
     1
110
0.0
120
0.0
130
0.0
111
1.0
121
0.0
131
0.0
112
0.0
122
1.0
132
0.0
 79
     0
146
0.0
  0
ENDTAB
  0
TABLE
  2
LTYPE
  5
5
330
0
100
AcDbSymbolTable
 70
     1
  0
LTYPE
  5
14
330
5
100
AcDbSymbolTableRecord
100
AcDbLinetypeTableRecord
  2
ByBlock
 70
     0
  3

 72
    65
 73
     0
 40
0.0
  0
LTYPE
  5
15
330
5
100
AcDbSymbolTableRecord
100
AcDbLinetypeTableRecord
  2
ByLayer
 70
     0
  3

 72
    65
 73
     0
 40
0.0
  0
LTYPE
  5
16
330
5
100
AcDbSymbolTableRecord
100
AcDbLinetypeTableRecord
  2
Continuous
 70
     0
  3
Solid line
 72
    65
 73
     0
 40
0.0
  0
ENDTAB
  0
TABLE
  2
LAYER
  5
2
330
0
100
AcDbSymbolTable
 70
     1
  0
LAYER
  5
10
330
2
100
AcDbSymbolTableRecord
100
AcDbLayerTableRecord
  2
0
 70
     0
 62
     7
  6
Continuous
370
    -3
390
F
  0
ENDTAB
  0
TABLE
  2
STYLE
  5
3
330
0
100
AcDbSymbolTable
 70
     1
  0
STYLE
  5
11
330
3
100
AcDbSymbolTableRecord
100
AcDbTextStyleTableRecord
  2
Standard
 70
     0
 40
0.0
 41
1.0
 50
0.0
 71
     0
 42
0.2
  3
txt
  4

  0
ENDTAB
  0
TABLE
  2
VIEW
  5
6
330
0
100
AcDbSymbolTable
 70
     0
  0
ENDTAB
  0
TABLE
  2
UCS
  5
7
330
0
100
AcDbSymbolTable
 70
     0
  0
ENDTAB
  0
TABLE
  2
APPID
  5
9
330
0
100
AcDbSymbolTable
 70
     2
  0
APPID
  5
12
330
9
100
AcDbSymbolTableRecord
100
AcDbRegAppTableRecord
  2
ACAD
 70
     0
  0
APPID
  5
727
330
9
100
AcDbSymbolTableRecord
100
AcDbRegAppTableRecord
  2
ACAD_MLEADERVER
 70
     0
  0
ENDTAB
  0
TABLE
  2
DIMSTYLE
  5
A
330
0
100
AcDbSymbolTable
 70
     1
100
AcDbDimStyleTable
  0
DIMSTYLE
105
20
330
A
100
AcDbSymbolTableRecord
100
AcDbDimStyleTableRecord
  2
Standard
 70
     0
178
     0
340
11
  0
ENDTAB
  0
TABLE
  2
BLOCK_RECORD
  5
1
330
0
100
AcDbSymbolTable
 70
     0
  0
BLOCK_RECORD
  5
1D
330
1
100
AcDbSymbolTableRecord
100
AcDbBlockTableRecord
  2
*Model_Space
340
1E
  0
BLOCK_RECORD
  5
1B
330
1
100
AcDbSymbolTableRecord
100
AcDbBlockTableRecord
  2
*Paper_Space
340
1C
  0
ENDTAB
  0
ENDSEC
  0
SECTION
  2
BLOCKS
  0
BLOCK
  5
6C4
330
1D
100
AcDbEntity
  8
0
100
AcDbBlockBegin
  2
*Model_Space
 70
     0
 10
0.0
 20
0.0
 30
0.0
  3
*Model_Space
  1

  0
ENDBLK
  5
6C5
330
1D
100
AcDbEntity
  8
0
100
AcDbBlockEnd
  0
BLOCK
  5
6C6
330
1B
100
AcDbEntity
 67
     1
  8
0
100
AcDbBlockBegin
  2
*Paper_Space
 70
     0
 10
0.0
 20
0.0
 30
0.0
  3
*Paper_Space
  1

  0
ENDBLK
  5
6C7
330
1B
100
AcDbEntity
 67
     1
  8
0
100
AcDbBlockEnd
  0
ENDSEC
  0
SECTION
  2
ENTITIES
  0
LWPOLYLINE
  5
22
330
1D
100
AcDbEntity
  8
0
100
AcDbPolyline
 90
       36
 70
     1
 43
0.0
 10
45.216366
 20
79.1856
 42
0.765789
 10
45.137876
 20
79.164773
 42
0.000147
 10
45.111607
 20
72.726012
 42
0.000715
 10
45.088437
 20
62.885085
 42
0.000085
 10
45.071949
 20
41.031
 10
45.0495
 20
2.6649
 10
24.4494
 20
2.6226
 42
0.000152
 10
12.562865
 20
2.594572
 42
0.001378
 10
7.368038
 20
2.566421
 42
0.000571
 10
4.082103
 20
2.535805
 42
0.760008
 10
4.0608
 20
2.455915
 42
0.017538
 10
4.162853
 20
2.400618
 42
0.00845
 10
4.297151
 20
2.336639
 42
0.008368
 10
4.439583
 20
2.274572
 42
0.011871
 10
4.5684
 20
2.224538
 42
0.085188
 10
4.915354
 20
2.162561
 42
0.000355
 10
8.802612
 20
2.138876
 42
0.00112
 10
14.411058
 20
2.121246
 42
0.00021
 10
24.680338
 20
2.116274
 42
0.000164
 10
36.114246
 20
2.119299
 42
0.001426
 10
41.204564
 20
2.136837
 42
0.000805
 10
44.406928
 20
2.162163
 42
0.093347
 10
44.815138
 20
2.243073
 42
0.046799
 10
44.955606
 20
2.315375
 42
0.030327
 10
45.103424
 20
2.423044
 42
0.029983
 10
45.239718
 20
2.550042
 42
0.040482
 10
45.3456
 20
2.681024
 10
45.5571
 20
2.990902
 10
45.5571
 20
40.771001
 42
0.000103
 10
45.552962
 20
60.783017
 42
0.000616
 10
45.53577
 20
71.225217
 42
0.000088
 10
45.513569
 20
78.493811
 42
0.119074
 10
45.447717
 20
78.7626
 42
0.003679
 10
45.39703
 20
78.858866
 42
0.002118
 10
45.334638
 20
78.9741
 42
0.002116
 10
45.270994
 20
79.089303
 42
0.003538
  0
LWPOLYLINE
  5
48
330
1D
100
AcDbEntity
  8
0
100
AcDbPolyline
 90
      220
 70
     1
 43
0.0
 10
20.259177
 20
78.833509
 42
0.00058
 10
17.497785
 20
78.839037
 42
0.000959
 10
15.165708
 20
78.836529
 42
0.000052
 10
13.064925
 20
78.830023
 42
0.19808
 10
13.021251
 20
78.811851
 42
-0.185211
 10
12.978621
 20
78.792858
 42
-0.000389
 10
12.245713
 20
78.754656
 42
-0.002567
 10
11.417928
 20
78.716415
 42
-0.001582
 10
10.443474
 20
78.679499
 42
0.002977
 10
9.307311
 20
78.63328
 42
0.005762
 10
8.399495
 20
78.580444
 42
0.006495
 10
7.702771
 20
78.522729
 42
0.028991
 10
7.297675
 20
78.46001
 42
-0.00917
 10
7.057537
 20
78.413021
 42
-0.013115
 10
6.842882
 20
78.380873
 42
-0.008991
 10
6.664654
 20
78.362188
 42
-0.161392
 10
6.609443
 20
78.375322
 42
0.145308
 10
6.562953
 20
78.387938
 42
0.025977
 10
6.472283
 20
78.381074
 42
0.026142
 10
6.363515
 20
78.361306
 42
0.020983
 10
6.248968
 20
78.32911
 42
0.037356
 10
6.127598
 20
78.279129
 42
0.025717
 10
5.998219
 20
78.205609
 42
0.02601
 10
5.880404
 20
78.121469
 42
0.04708
 10
5.7951
 20
78.039367
 42
-0.036292
 10
5.713986
 20
77.95786
 42
-0.023643
 10
5.609704
 20
77.875584
 42
-0.02378
 10
5.499749
 20
77.804617
 42
-0.041182
 10
5.401563
 20
77.757998
 42
0.058952
 10
5.300941
 20
77.705774
 42
0.026791
 10
5.182702
 20
77.615876
 42
0.026076
 10
5.066743
 20
77.506591
 42
0.03242
 10
4.971531
 20
77.393105
 42
0.025314
 10
4.879778
 20
77.253858
 42
0.011314
 10
4.772737
 20
77.062217
 42
0.011166
 10
4.66843
 20
76.854007
 42
0.014873
 10
4.583636
 20
76.660158
 42
0.020623
 10
4.504794
 20
76.43824
 42
0.008994
 10
4.417737
 20
76.13791
 42
0.008882
 10
4.336557
 20
75.815125
 42
0.011713
 10
4.274729
 20
75.518058
 42
0.008538
 10
4.219888
 20
75.188096
 42
0.003959
 10
4.159385
 20
74.757835
 42
0.00392
 10
4.102939
 20
74.304765
 42
0.005449
 10
4.059995
 20
73.8981
 42
0.008933
 10
4.020332
 20
73.380279
 42
0.001927
 10
3.971172
 20
72.482901
 42
0.002011
 10
3.92243
 20
71.443313
 42
0.00192
 10
3.881232
 20
70.3872
 42
0.006184
 10
3.842969
 20
68.707978
 42
0.00049
 10
3.800936
 20
64.253171
 42
0.000665
 10
3.763063
 20
58.938704
 42
0.000509
 10
3.735299
 20
53.1288
 42
0.000556
 10
3.718031
 20
46.609242
 42
0.00037
 10
3.712073
 20
39.134109
 42
0.000372
 10
3.717056
 20
31.879354
 42
0.000728
 10
3.733744
 20
26.0991
 42
0.000646
 10
3.761441
 20
21.183583
 42
0.000812
 10
3.800373
 20
16.630245
 42
0.000647
 10
3.844185
 20
12.809733
 42
0.006443
 10
3.885235
 20
11.2095
 42
0.002185
 10
3.929081
 20
10.18817
 42
0.002548
 10
3.979924
 20
9.218227
 42
0.002258
 10
4.03081
 20
8.39828
 42
0.015374
 10
4.070179
 20
7.9947
 42
0.009851
 10
4.116011
 20
7.686633
 42
0.005692
 10
4.182642
 20
7.3179
 42
0.005686
 10
4.257956
 20
6.949258
 42
0.009494
 10
4.330722
 20
6.6411
 42
0.00571
 10
4.406119
 20
6.360268
 42
0.005411
 10
4.48922
 20
6.076131
 42
0.005381
 10
4.568166
 20
5.826342
 42
0.018896
 10
4.62673
 20
5.6682
 42
0.056564
 10
4.703257
 20
5.529918
 42
0.021112
 10
4.839646
 20
5.354431
 42
0.0206
 10
5.005776
 20
5.173978
 42
0.023455
 10
5.17944
 20
5.015851
 42
0.022246
 10
5.39953
 20
4.849501
 42
0.031644
 10
5.609828
 20
4.723595
 42
0.034247
 10
5.820317
 20
4.632676
 42
0.034495
 10
6.040743
 20
4.571599
 42
0.01986
 10
6.295361
 20
4.530084
 42
0.003153
 10
6.797873
 20
4.47173
 42
0.003491
 10
7.391211
 20
4.410809
 42
0.003049
 10
8.012753
 20
4.355196
 42
-0.003395
 10
8.63547
 20
4.299045
 42
-0.003838
 10
9.232359
 20
4.236505
 42
-0.003507
 10
9.738878
 20
4.175899
 42
-0.020987
 10
10.000853
 20
4.13145
 42
0.049496
 10
10.431289
 20
4.083419
 42
0.001076
 10
12.544375
 20
4.062154
 42
0.001868
 10
15.462613
 20
4.049965
 42
0.000555
 10
19.9233
 20
4.052944
 42
0.000617
 10
23.681787
 20
4.064259
 42
0.000793
 10
27.137036
 20
4.084405
 42
0.000604
 10
30.033635
 20
4.10939
 42
0.006911
 10
31.1751
 20
4.136397
 42
-0.003667
 10
31.935867
 20
4.159337
 42
-0.002964
 10
32.75289
 20
4.173132
 42
-0.002995
 10
33.50696
 20
4.176875
 42
-0.00772
 10
34.0515
 20
4.167908
 42
0.010974
 10
34.597605
 20
4.162469
 42
0.007879
 10
35.207556
 20
4.179396
 42
0.007631
 10
35.841978
 20
4.216721
 42
0.008094
 10
36.4626
 20
4.272864
 42
-0.00294
 10
37.044789
 20
4.331586
 42
-0.001966
 10
37.711772
 20
4.392256
 42
-0.001979
 10
38.358748
 20
4.445963
 42
-0.003892
 10
38.8737
 20
4.482628
 42
0.008688
 10
39.335095
 20
4.519931
 42
0.007794
 10
39.811967
 20
4.574354
 42
0.007839
 10
40.238414
 20
4.636582
 42
0.024172
 10
40.5234
 20
4.697
 42
0.001962
 10
40.743249
 20
4.755761
 42
0.002375
 10
40.949044
 20
4.812682
 42
0.002012
 10
41.121823
 20
4.862108
 42
0.016276
 10
41.2002
 20
4.887664
 42
-0.019042
 10
41.252804
 20
4.904495
 42
-0.019729
 10
41.305921
 20
4.917052
 42
-0.019881
 10
41.352581
 20
4.924243
 42
-0.075975
 10
41.3819
 20
4.923114
 42
0.223239
 10
41.416647
 20
4.931954
 42
0.006442
 10
41.536137
 20
5.032861
 42
0.011851
 10
41.675308
 20
5.159395
 42
0.007744
 10
41.830006
 20
5.311533
 42
0.00206
 10
41.994515
 20
5.479791
 42
0.001852
 10
42.163575
 20
5.655432
 42
0.001856
 10
42.314038
 20
5.81409
 42
0.005855
 10
42.413259
 20
5.922
 42
0.052601
 10
42.503227
 20
6.046265
 42
0.012659
 10
42.624462
 20
6.270182
 42
0.012859
 10
42.751147
 20
6.535683
 42
0.012436
 10
42.865515
 20
6.8103
 42
0.020237
 10
42.989237
 20
7.17236
 42
0.014886
 10
43.097859
 20
7.58226
 42
0.013538
 10
43.191585
 20
8.039465
 42
0.01031
 10
43.270257
 20
8.5446
 42
0.007431
 10
43.330539
 20
9.048684
 42
0.003498
 10
43.394169
 20
9.701505
 42
0.003466
 10
43.451301
 20
10.386318
 42
0.004874
 10
43.492071
 20
10.998
 42
0.000975
 10
43.524822
 20
11.594427
 42
0.000797
 10
43.557584
 20
12.232367
 42
0.000805
 10
43.585839
 20
12.819279
 42
0.002122
 10
43.603622
 20
13.2399
 42
0.006062
 10
43.619376
 20
13.848405
 42
0.000175
 10
43.654055
 20
16.434343
 42
0.000354
 10
43.691652
 20
19.477836
 42
0.000244
 10
43.730136
 20
22.9266
 42
0.001481
 10
43.764682
 20
27.40813
 42
0.000616
 10
43.785945
 20
33.459782
 42
0.000598
 10
43.793158
 20
40.100294
 42
0.000658
 10
43.78399
 20
46.53
 42
0.000463
 10
43.762314
 20
52.439716
 42
0.000559
 10
43.730627
 20
57.987484
 42
0.000474
 10
43.694301
 20
62.658416
 42
0.003822
 10
43.659187
 20
64.8036
 42
0.001116
 10
43.62024
 20
66.287346
 42
0.000969
 10
43.572933
 20
67.842326
 42
0.000975
 10
43.524633
 20
69.249807
 42
0.002869
 10
43.483955
 20
70.218
 42
0.001938
 10
43.44327
 20
71.005705
 42
0.001899
 10
43.396222
 20
71.798434
 42
0.001868
 10
43.349704
 20
72.493623
 42
0.007188
 10
43.312962
 20
72.9252
 42
0.00463
 10
43.275707
 20
73.267009
 42
0.00386
 10
43.229959
 20
73.629495
 42
0.003896
 10
43.182943
 20
73.960604
 42
0.010577
 10
43.142844
 20
74.1942
 42
-0.002537
 10
43.104936
 20
74.395565
 42
-0.001945
 10
43.065478
 20
74.61601
 42
-0.001966
 10
43.030165
 20
74.822605
 42
-0.004658
 10
43.005915
 20
74.97675
 42
0.021964
 10
42.982455
 20
75.098308
 42
0.033562
 10
42.95056
 20
75.200808
 42
0.035862
 10
42.915513
 20
75.275164
 42
0.271017
 10
42.883314
 20
75.294
 42
-0.316541
 10
42.85383
 20
75.314745
 42
-0.034053
 10
42.829748
 20
75.399618
 42
-0.032055
 10
42.812875
 20
75.515736
 42
-0.019836
 10
42.807284
 20
75.65355
 42
0.03567
 10
42.795824
 20
75.812015
 42
0.02719
 10
42.761616
 20
75.982639
 42
0.027743
 10
42.710852
 20
76.142377
 42
0.048278
 10
42.649211
 20
76.2669
 42
0.032307
 10
42.555325
 20
76.398207
 42
0.007959
 10
42.384198
 20
76.600866
 42
0.008114
 10
42.180321
 20
76.827138
 42
0.008037
 10
41.968571
 20
77.047407
 42
0.014551
 10
41.701087
 20
77.301608
 42
0.02954
 10
41.474023
 20
77.482159
 42
0.036452
 10
41.263326
 20
77.608413
 42
0.043258
 10
41.047994
 20
77.694547
 42
-0.013516
 10
40.862465
 20
77.756253
 42
-0.006702
 10
40.630441
 20
77.843989
 42
-0.006646
 10
40.392152
 20
77.941441
 42
-0.009681
 10
40.185
 20
78.034164
 42
0.023305
 10
39.949749
 20
78.131863
 42
0.027788
 10
39.7197
 20
78.200879
 42
0.028639
 10
39.489643
 20
78.242419
 42
0.027928
 10
39.2544
 20
78.257858
 42
-0.013809
 10
39.048496
 20
78.265544
 42
-0.009287
 10
38.813951
 20
78.285174
 42
-0.009358
 10
38.587495
 20
78.312661
 42
-0.018254
 10
38.4084
 20
78.344513
 42
0.034018
 10
38.172016
 20
78.378911
 42
0.004028
 10
37.642506
 20
78.415206
 42
0.0048
 10
37.011451
 20
78.447279
 42
0.003919
 10
36.3357
 20
78.469818
 42
-0.003508
 10
35.616586
 20
78.493211
 42
-0.002948
 10
34.854936
 20
78.527837
 42
-0.002974
 10
34.159766
 20
78.567697
 42
-0.008208
 10
33.6708
 20
78.60672
 42
0.011171
 10
33.132861
 20
78.646447
 42
0.002496
 10
32.213301
 20
78.689126
 42
0.00259
 10
31.150712
 20
78.727617
 42
0.002501
 10
30.0753
 20
78.755614
 42
0.002688
 10
28.620038
 20
78.778391
 42
0.000585
 10
26.109991
 20
78.801245
 42
0.00061
 10
23.205548
 20
78.820753
 42
0.000584
  0
LWPOLYLINE
  5
126
330
1D
100
AcDbEntity
  8
0
100
AcDbPolyline
 90
      342
 70
     1
 43
0.0
 10
23.467058
 20
72.668965
 42
-0.177398
 10
23.530125
 20
72.643991
 42
-0.001398
 10
23.941313
 20
72.27529
 42
-0.004864
 10
24.410499
 20
71.843862
 42
-0.003079
 10
24.949484
 20
71.332215
 42
-0.003071
 10
25.664569
 20
70.636481
 42
-0.016164
 10
26.042168
 20
70.239713
 42
-0.022581
 10
26.253572
 20
69.979976
 42
-0.296762
 10
26.260784
 20
69.861988
 42
-0.052395
 10
26.1994
 20
69.776117
 42
-0.002832
 10
25.976469
 20
69.527495
 42
-0.004395
 10
25.706529
 20
69.235063
 42
-0.00319
 10
25.40115
 20
68.914146
 42
0.003413
 10
25.101187
 20
68.598639
 42
0.005376
 10
24.848474
 20
68.323296
 42
0.001655
 10
24.63362
 20
68.082492
 42
0.183312
 10
24.6186
 20
68.042901
 42
0.190336
 10
24.634452
 20
68.002768
 42
0.000849
 10
24.954092
 20
67.662427
 42
0.003861
 10
25.322869
 20
67.277105
 42
0.002408
 10
25.7607
 20
66.830965
 42
-0.003511
 10
26.394803
 20
66.18197
 42
-0.022292
 10
26.699613
 20
65.835971
 42
-0.045718
 10
26.854573
 20
65.602645
 42
-0.124354
 10
26.9028
 20
65.411731
 10
26.9028
 20
65.145118
 10
28.86975
 20
65.122409
 10
30.8367
 20
65.0997
 10
30.859116
 20
62.523611
 42
0.001907
 10
30.87494
 20
61.259363
 42
0.007918
 10
30.899482
 20
60.496671
 42
0.005609
 10
30.930434
 20
59.974632
 42
0.239668
 10
30.986016
 20
59.882097
 42
0.124378
 10
31.065893
 20
59.856338
 42
0.004564
 10
31.386003
 20
59.838607
 42
0.008076
 10
31.767897
 20
59.827125
 42
0.005557
 10
32.200953
 20
59.825917
 42
-0.005117
 10
32.63351
 20
59.825091
 42
-0.007504
 10
33.013821
 20
59.814763
 42
-0.004012
 10
33.33365
 20
59.7987
 42
-0.124479
 10
33.408803
 20
59.774966
 42
-0.245415
 10
33.458435
 20
59.691394
 42
-0.004483
 10
33.482688
 20
59.160133
 42
-0.007529
 10
33.498811
 20
58.413687
 42
-0.002109
 10
33.50152
 20
57.246636
 42
0.000098
 10
33.499898
 20
56.292953
 42
0.000153
 10
33.498914
 20
55.472451
 42
0.000038
 10
33.498327
 20
54.754765
 42
0.005811
 10
33.49922
 20
54.67275
 42
0.295086
 10
33.532235
 20
54.624117
 42
0.055819
 10
33.640104
 20
54.592045
 42
0.034101
 10
33.817484
 20
54.57258
 42
0.010281
 10
34.088807
 20
54.567
 42
-0.013392
 10
34.317564
 20
54.560872
 42
-0.019391
 10
34.518829
 20
54.542234
 42
-0.015435
 10
34.680138
 20
54.515873
 42
-0.20906
 10
34.728121
 20
54.48269
 42
-0.12244
 10
34.749969
 20
54.414462
 42
-0.001958
 10
34.775409
 20
54.006802
 42
-0.005016
 10
34.798477
 20
53.530331
 42
-0.00329
 10
34.81593
 20
52.98104
 42
-0.003855
 10
34.830086
 20
52.171089
 42
-0.000714
 10
34.842515
 20
50.680561
 42
-0.000766
 10
34.85189
 20
48.937509
 42
-0.000698
 10
34.856295
 20
47.13993
 42
-0.001114
 10
34.854298
 20
45.437815
 42
-0.001805
 10
34.844153
 20
43.990668
 42
-0.000249
 10
34.829859
 20
42.704998
 42
-0.136325
 10
34.808414
 20
42.631141
 42
-0.211361
 10
34.761365
 20
42.59891
 42
-0.025978
 10
34.63486
 20
42.582101
 42
-0.026037
 10
34.469898
 20
42.577466
 42
-0.015913
 10
34.275414
 20
42.588329
 42
0.014545
 10
34.083502
 20
42.599574
 42
0.017918
 10
33.904204
 20
42.598428
 42
0.016501
 10
33.755653
 20
42.587233
 42
0.1118
 10
33.686404
 20
42.563444
 42
0.179857
 10
33.637967
 20
42.501203
 42
0.044625
 10
33.609786
 20
42.372899
 42
0.031333
 10
33.597539
 20
42.182906
 42
0.011255
 10
33.603175
 20
41.911727
 10
33.6285
 20
41.3271
 10
34.241165
 20
41.302258
 42
-0.007469
 10
34.599886
 20
41.282341
 42
-0.060173
 10
34.761706
 20
41.251119
 42
-0.143047
 10
34.848478
 20
41.192394
 42
-0.113274
 10
34.899605
 20
41.090758
 42
-0.055427
 10
34.917069
 20
40.956916
 42
-0.001972
 10
34.924901
 20
40.437054
 42
-0.003622
 10
34.927287
 20
39.82173
 42
-0.002527
 10
34.92144
 20
39.1275
 10
34.8975
 20
37.3509
 10
32.9094
 20
37.3509
 10
30.9213
 20
37.3509
 10
30.9213
 20
39.2967
 10
30.9213
 20
41.2425
 10
31.57695
 20
41.267209
 10
32.2326
 20
41.291917
 10
32.2326
 20
41.9193
 10
32.2326
 20
42.546683
 10
31.57695
 20
42.571391
 10
30.9213
 20
42.5961
 10
30.86944
 20
46.3608
 42
0.000237
 10
30.848725
 20
47.814553
 42
0.000373
 10
30.82941
 20
49.063109
 42
0.000087
 10
30.811465
 20
50.158001
 42
0.015392
 10
30.80599
 20
50.27355
 42
0.227483
 10
30.760511
 20
50.351981
 42
0.107976
 10
30.649563
 20
50.396661
 42
0.037329
 10
30.426241
 20
50.417513
 42
0.004408
 10
29.92725
 20
50.422335
 42
-0.00533
 10
29.562683
 20
50.426531
 42
-0.004763
 10
29.184356
 20
50.438526
 42
-0.004782
 10
28.844668
 20
50.455792
 42
-0.014799
 10
28.61595
 20
50.476419
 10
28.1718
 20
50.529768
 10
28.1718
 20
51.093264
 42
-0.015453
 10
28.178921
 20
51.3236
 42
-0.022424
 10
28.200571
 20
51.525836
 42
-0.022451
 10
28.23236
 20
51.685624
 42
-0.136876
 10
28.27332
 20
51.75828
 42
-0.176919
 10
28.381957
 20
51.808786
 42
-0.008505
 10
28.787308
 20
51.836377
 42
-0.009837
 10
29.370195
 20
51.854614
 42
-0.002901
 10
30.264075
 20
51.8598
 42
-0.002513
 10
31.208731
 20
51.855052
 42
-0.011352
 10
31.759938
 20
51.83699
 42
-0.010839
 10
32.12036
 20
51.809133
 42
-0.283654
 10
32.194433
 20
51.752635
 42
-0.086917
 10
32.211564
 20
51.664984
 42
-0.000287
 10
32.232619
 20
50.55906
 42
-0.001582
 10
32.251784
 20
49.306486
 42
-0.000989
 10
32.266681
 20
47.839885
 42
0.000234
 10
32.279313
 20
46.379188
 42
0.000388
 10
32.291511
 20
45.145978
 42
0.000015
 10
32.303435
 20
44.031314
 42
0.105177
 10
32.307503
 20
44.01315
 42
0.282315
 10
32.320325
 20
44.004554
 42
0.0013
 10
32.488499
 20
43.998213
 42
0.005431
 10
32.682055
 20
43.993523
 42
0.00334
 10
32.910042
 20
43.992
 10
33.502884
 20
43.992
 10
33.499993
 20
48.284613
 42
0.0011
 10
33.495201
 20
49.952635
 42
0.001646
 10
33.483011
 20
51.40971
 42
0.000673
 10
33.466772
 20
52.658413
 42
0.036069
 10
33.446239
 20
52.895313
 10
33.395375
 20
53.2134
 10
32.823039
 20
53.2134
 42
-0.010286
 10
32.53326
 20
53.219362
 42
-0.04258
 10
32.359684
 20
53.241393
 42
-0.079309
 10
32.254767
 20
53.282043
 42
-0.170745
 10
32.199351
 20
53.347219
 42
-0.085945
 10
32.178595
 20
53.452345
 42
-0.000973
 10
32.163084
 20
54.172808
 42
-0.002968
 10
32.151713
 20
55.006272
 42
-0.001927
 10
32.148
 20
55.969819
 42
0.001789
 10
32.143493
 20
57.229301
 42
0.008802
 10
32.1259
 20
57.939748
 42
0.006731
 10
32.099741
 20
58.407858
 42
0.377614
 10
32.04225
 20
58.464663
 42
0.014977
 10
31.965402
 20
58.466763
 42
0.000378
 10
31.6167
 20
58.465581
 42
0.000809
 10
31.207414
 20
58.463222
 42
0.000552
 10
30.742069
 20
58.459273
 42
-0.003274
 10
30.065951
 20
58.457217
 42
-0.024635
 10
29.746556
 20
58.474086
 42
-0.056799
 10
29.571746
 20
58.512352
 42
-0.222415
 10
29.494219
 20
58.58703
 42
-0.085681
 10
29.472642
 20
58.696011
 42
-0.001046
 10
29.456492
 20
59.415959
 42
-0.003079
 10
29.444664
 20
60.250117
 42
-0.002005
 10
29.4408
 20
61.213431
 10
29.4408
 20
63.700623
 10
27.51615
 20
63.723362
 10
25.5915
 20
63.7461
 10
25.567197
 20
64.427424
 10
25.542894
 20
65.108748
 10
24.574487
 20
66.074408
 10
23.606079
 20
67.040069
 10
22.610689
 20
65.993304
 10
21.6153
 20
64.946539
 10
21.573
 20
64.34632
 10
21.5307
 20
63.7461
 10
20.2617
 20
63.693572
 42
-0.001221
 10
19.724769
 20
63.67266
 42
-0.001055
 10
19.160805
 20
63.653266
 42
-0.001061
 10
18.649411
 20
63.637845
 42
-0.003087
 10
18.295973
 20
63.630122
 10
17.599245
 20
63.6192
 10
17.576873
 20
61.01775
 10
17.5545
 20
58.4163
 10
16.2855
 20
58.374
 10
15.0165
 20
58.3317
 10
14.9742
 20
55.7091
 10
14.9319
 20
53.0865
 10
14.342039
 20
53.061056
 42
0.014483
 10
14.10563
 20
53.043988
 42
0.022371
 10
13.902995
 20
53.014239
 42
0.020751
 10
13.745597
 20
52.977053
 42
0.188104
 10
13.690216
 20
52.935356
 42
0.135325
 10
13.664913
 20
52.848847
 42
0.000355
 10
13.646241
 20
51.590234
 42
0.002153
 10
13.632269
 20
50.167313
 42
0.001336
 10
13.627523
 20
48.497002
 42
0.001041
 10
13.630723
 20
46.824932
 42
0.001663
 10
13.641182
 20
45.39628
 42
0.00031
 10
13.655382
 20
44.135878
 42
0.088863
 10
13.675047
 20
44.033152
 42
0.186472
 10
13.729447
 20
43.972986
 42
0.067699
 10
13.84011
 20
43.934861
 42
0.038741
 10
14.019518
 20
43.913384
 42
0.010426
 10
14.306451
 20
43.9074
 10
14.8896
 20
43.9074
 10
14.898346
 20
45.49365
 42
0.000463
 10
14.901864
 20
46.26041
 42
0.000202
 10
14.905179
 20
47.278344
 42
0.0002
 10
14.907832
 20
48.359706
 42
0.000267
 10
14.909325
 20
49.341703
 42
-0.002197
 10
14.915313
 20
50.454539
 42
-0.009005
 10
14.934065
 20
51.129272
 42
-0.007708
 10
14.961973
 20
51.58465
 42
-0.203087
 10
15.016981
 20
51.690999
 42
-0.161863
 10
15.117882
 20
51.730342
 42
-0.004618
 10
15.586579
 20
51.749852
 42
-0.007783
 10
16.197541
 20
51.760116
 42
-0.003319
 10
17.015252
 20
51.755697
 10
18.9081
 20
51.7329
 10
18.9081
 20
44.4996
 10
18.9081
 20
37.2663
 10
18.25245
 20
37.241591
 42
-0.003628
 10
17.999679
 20
37.233902
 42
-0.00579
 10
17.783568
 20
37.231399
 42
-0.001664
 10
17.596748
 20
37.232021
 42
-0.225586
 10
17.576956
 20
37.241591
 42
-0.168301
 10
17.5687
 20
37.264697
 42
-0.000014
 10
17.550131
 20
39.185014
 42
-0.000466
 10
17.531652
 20
41.30702
 42
-0.000281
 10
17.513506
 20
43.8228
 10
17.4699
 20
50.3793
 10
16.92
 20
50.3793
 10
16.3701
 20
50.3793
 10
16.325683
 20
46.4454
 42
-0.000447
 10
16.307284
 20
44.935501
 42
-0.00074
 10
16.288723
 20
43.66087
 42
-0.000033
 10
16.270192
 20
42.510601
 42
-0.181091
 10
16.262233
 20
42.49035
 42
-0.201852
 10
16.244013
 20
42.48178
 42
-0.001554
 10
16.077491
 20
42.475413
 42
-0.005385
 10
15.884964
 20
42.470726
 42
-0.003392
 10
15.660051
 20
42.4692
 42
0.009982
 10
15.363932
 20
42.463288
 42
0.042008
 10
15.187641
 20
42.441334
 42
0.0788
 10
15.081427
 20
42.400731
 42
0.172167
 10
15.025551
 20
42.335381
 42
0.058761
 10
15.005592
 20
42.256894
 42
0.010951
 10
14.989284
 20
42.10888
 42
0.011597
 10
14.977969
 20
41.93407
 42
0.010362
 10
14.9742
 20
41.752232
 42
0.015342
 10
14.980893
 20
41.534172
 42
0.049993
 10
15.004066
 20
41.391724
 42
0.083615
 10
15.045286
 20
41.301372
 42
0.153575
 10
15.108019
 20
41.251551
 42
0.061469
 10
15.188495
 20
41.231548
 42
0.009971
 10
15.349131
 20
41.215284
 42
0.010869
 10
15.540023
 20
41.203966
 42
0.009372
 10
15.740907
 20
41.2002
 42
-0.009815
 10
16.031414
 20
41.194497
 42
-0.074217
 10
16.165839
 20
41.169004
 42
-0.157851
 10
16.240184
 20
41.112639
 42
-0.092357
 10
16.286678
 20
41.00985
 42
-0.055278
 10
16.304492
 20
40.873753
 42
-0.002034
 10
16.312629
 20
40.353539
 42
-0.003684
 10
16.315219
 20
39.737392
 42
-0.002577
 10
16.30944
 20
39.0429
 10
16.2855
 20
37.2663
 10
14.2974
 20
37.2663
 10
12.3093
 20
37.2663
 10
12.3093
 20
39.2121
 10
12.3093
 20
41.1579
 10
12.92265
 20
41.182756
 10
13.536
 20
41.207613
 10
13.536
 20
41.8347
 10
13.536
 20
42.461787
 10
12.92265
 20
42.486644
 10
12.3093
 20
42.5115
 10
12.3093
 20
48.4758
 10
12.3093
 20
54.4401
 10
12.92265
 20
54.464956
 10
13.536
 20
54.489813
 10
13.536
 20
57.061413
 42
-0.001833
 10
13.540707
 20
58.34558
 42
-0.008187
 10
13.558557
 20
59.0984
 42
-0.006283
 10
13.585217
 20
59.604323
 42
-0.2426
 10
13.641747
 20
59.69837
 42
-0.057415
 10
13.696932
 20
59.724274
 42
-0.021983
 10
13.77856
 20
59.747764
 42
-0.021424
 10
13.870265
 20
59.765725
 42
-0.024632
 10
13.958997
 20
59.774746
 42
-0.00722
 10
14.091354
 20
59.779728
 42
-0.000765
 10
14.400014
 20
59.786412
 42
-0.000945
 10
14.767673
 20
59.793116
 42
-0.000758
 10
15.163327
 20
59.798983
 10
16.156155
 20
59.8122
 10
16.178527
 20
62.41365
 10
16.2009
 20
65.0151
 10
18.189
 20
65.061335
 42
0.000787
 10
18.952781
 20
65.080301
 42
0.001292
 10
19.599308
 20
65.099046
 42
0.00011
 10
20.178669
 20
65.117469
 42
0.164245
 10
20.19825
 20
65.124785
 42
0.191412
 10
20.206636
 20
65.1398
 42
0.009264
 10
20.213187
 20
65.197736
 42
0.01399
 10
20.217865
 20
65.268408
 42
0.009529
 10
20.2194
 20
65.348954
 42
-0.15533
 10
20.267395
 20
65.49972
 42
-0.018787
 10
20.48187
 20
65.77954
 42
-0.015312
 10
20.827402
 20
66.171794
 42
-0.004468
 10
21.38265
 20
66.753987
 42
0.001465
 10
21.830261
 20
67.217711
 42
0.002314
 10
22.211158
 20
67.618334
 42
0.000544
 10
22.542696
 20
67.971058
 42
0.097322
 10
22.569601
 20
68.014037
 42
0.28521
 10
22.561521
 20
68.055969
 42
0.002656
 10
22.337078
 20
68.29624
 42
0.007856
 10
22.068346
 20
68.572065
 42
0.004876
 10
21.744751
 20
68.887707
 42
-0.008769
 10
21.418171
 20
69.21126
 42
-0.012997
 10
21.144571
 20
69.507004
 42
-0.008591
 10
20.930154
 20
69.759846
 42
-0.175014
 10
20.897255
 20
69.852953
 42
-0.137616
 10
20.921792
 20
69.938162
 42
-0.017608
 10
21.028659
 20
70.098078
 42
-0.019521
 10
21.1727
 20
70.282391
 42
-0.015121
 10
21.343106
 20
70.4718
 42
0.002692
 10
21.567559
 20
70.709144
 42
0.000924
 10
21.890057
 20
71.055143
 42
0.000918
 10
22.24441
 20
71.438139
 42
0.001063
 10
22.580459
 20
71.80425
 42
-0.005651
 10
22.891018
 20
72.13642
 42
-0.008701
 10
23.167827
 20
72.415959
 42
-0.003898
 10
23.407604
 20
72.646198
 42
-0.198341
  0
LWPOLYLINE
  5
27E
330
1D
100
AcDbEntity
  8
0
100
AcDbPolyline
 90
       32
 70
     1
 43
0.0
 10
23.5611
 20
65.0574
 42
-0.159632
 10
23.614282
 20
65.039977
 42
-0.012627
 10
23.733321
 20
64.947887
 42
-0.016137
 10
23.871825
 20
64.827397
 42
-0.011636
 10
24.018655
 20
64.684591
 42
-0.015564
 10
24.178628
 20
64.511107
 42
-0.041634
 10
24.277691
 20
64.375397
 42
-0.063591
 10
24.324437
 20
64.27081
 42
-0.213584
 10
24.315119
 20
64.198141
 42
-0.031903
 10
24.271172
 20
64.135552
 42
-0.005648
 10
24.180186
 20
64.02469
 42
-0.006094
 10
24.07031
 20
63.897044
 42
-0.005453
 10
23.953259
 20
63.76725
 42
-0.014759
 10
23.834531
 20
63.645842
 42
-0.019841
 10
23.719653
 20
63.54358
 42
-0.017315
 10
23.619946
 20
63.467301
 42
-0.159525
 10
23.56866
 20
63.451321
 42
-0.137644
 10
23.514925
 20
63.467234
 42
-0.012624
 10
23.397864
 20
63.545059
 42
-0.01556
 10
23.261194
 20
63.647472
 42
-0.011571
 10
23.116643
 20
63.768571
 42
-0.017996
 10
22.978868
 20
63.898598
 42
-0.023204
 10
22.862584
 20
64.028032
 42
-0.02196
 10
22.777365
 20
64.142103
 42
-0.151184
 10
22.757093
 20
64.208198
 42
-0.139869
 10
22.776725
 20
64.276364
 42
-0.018464
 10
22.861889
 20
64.402118
 42
-0.020247
 10
22.977062
 20
64.546691
 42
-0.015712
 10
23.113414
 20
64.694648
 42
-0.011954
 10
23.256463
 20
64.833598
 42
-0.016496
 10
23.391778
 20
64.950842
 42
-0.013106
 10
23.508153
 20
65.040189
 42
-0.158446
  0
LWPOLYLINE
  5
2A0
330
1D
100
AcDbEntity
  8
0
100
AcDbPolyline
 90
       52
 70
     1
 43
0.0
 10
22.2921
 20
62.509672
 42
-0.01843
 10
22.429345
 20
62.507508
 42
-0.020193
 10
22.561908
 20
62.495143
 42
-0.020097
 10
22.673672
 20
62.475547
 42
-0.088245
 10
22.735394
 20
62.450191
 42
-0.24519
 10
22.793203
 20
62.350173
 42
-0.002858
 10
22.82269
 20
61.56343
 42
-0.005368
 10
22.846672
 20
60.422169
 42
-0.001169
 10
22.862294
 20
58.454136
 10
22.8843
 20
54.5247
 10
23.5188
 20
54.5247
 10
24.1533
 20
54.5247
 10
24.1956
 20
58.5009
 10
24.2379
 20
62.4771
 10
24.8724
 20
62.4771
 10
25.5069
 20
62.4771
 10
25.528774
 20
57.842872
 42
-0.000913
 10
25.535681
 20
55.456196
 42
-0.004791
 10
25.52451
 20
54.144091
 42
-0.002299
 10
25.50428
 20
53.252768
 42
-0.303426
 10
25.444174
 20
53.167945
 42
-0.088039
 10
25.35644
 20
53.151118
 42
-0.000201
 10
24.027009
 20
53.133216
 42
-0.001327
 10
22.528348
 20
53.117615
 42
-0.000824
 10
20.7693
 20
53.106872
 10
16.2009
 20
53.0865
 10
16.2009
 20
55.1169
 10
16.2009
 20
57.1473
 10
17.5122
 20
57.1896
 10
18.8235
 20
57.2319
 10
18.797141
 20
59.5584
 42
-0.002173
 10
18.790777
 20
60.469678
 42
-0.00306
 10
18.793607
 20
61.282257
 42
-0.001792
 10
18.802636
 20
61.966953
 42
-0.041984
 10
18.822125
 20
62.15985
 10
18.873467
 20
62.4348
 10
19.533378
 20
62.4348
 10
20.193289
 20
62.4348
 10
20.248301
 20
61.35615
 42
-0.007573
 10
20.269653
 20
60.760191
 42
-0.00169
 10
20.287255
 20
59.742063
 42
-0.001754
 10
20.299486
 20
58.565997
 42
-0.001694
 10
20.303657
 20
57.376085
 10
20.304
 20
54.474669
 10
20.87505
 20
54.499685
 10
21.4461
 20
54.5247
 10
21.4884
 20
58.454811
 10
21.5307
 20
62.384922
 10
21.7422
 20
62.443728
 42
-0.026935
 10
21.846862
 20
62.46684
 42
-0.011032
 10
21.990977
 20
62.487357
 42
-0.010878
 10
22.147045
 20
62.502636
 42
-0.013688
  0
LWPOLYLINE
  5
2D6
330
1D
100
AcDbEntity
  8
0
100
AcDbPolyline
 90
       26
 70
     1
 43
0.0
 10
27.576108
 20
62.5194
 10
28.254727
 20
62.5194
 10
28.276713
 20
58.56435
 10
28.2987
 20
54.6093
 10
28.867526
 20
54.584335
 10
29.436352
 20
54.559371
 10
29.459726
 20
55.853335
 10
29.4831
 20
57.1473
 10
30.18105
 20
57.171871
 10
30.879
 20
57.196443
 10
30.879
 20
55.214164
 10
30.879
 20
53.231886
 10
29.25045
 20
53.172633
 42
-0.002397
 10
28.598999
 20
53.152058
 42
-0.002914
 10
27.988456
 20
53.139263
 42
-0.002457
 10
27.474809
 20
53.134018
 42
-0.020243
 10
27.2412
 20
53.14224
 10
26.8605
 20
53.1711
 10
26.838516
 20
57.7395
 42
-0.00084
 10
26.833005
 20
59.498499
 42
-0.001353
 10
26.834881
 20
60.996997
 42
-0.000204
 10
26.840683
 20
62.32648
 42
-0.090445
 10
26.857011
 20
62.41365
 42
-0.233416
 10
26.90939
 20
62.462115
 42
-0.035508
 10
27.052619
 20
62.493693
 42
-0.026977
 10
27.267259
 20
62.513511
 42
-0.009533
  0
LWPOLYLINE
  5
2F2
330
1D
100
AcDbEntity
  8
0
100
AcDbPolyline
 90
       32
 70
     1
 43
0.0
 10
26.240231
 20
51.857227
 42
-0.009875
 10
26.433633
 20
51.854445
 42
-0.011307
 10
26.618209
 20
51.84396
 42
-0.010499
 10
26.773859
 20
51.828286
 42
-0.06134
 10
26.853581
 20
51.808449
 42
-0.176442
 10
26.919437
 20
51.751188
 42
-0.07716
 10
26.959896
 20
51.640965
 42
-0.040327
 10
26.981629
 20
51.456345
 42
-0.009141
 10
26.9874
 20
51.1407
 42
-0.009141
 10
26.981629
 20
50.825055
 42
-0.040327
 10
26.959896
 20
50.640435
 42
-0.07716
 10
26.919437
 20
50.530212
 42
-0.176442
 10
26.853581
 20
50.472951
 42
-0.065
 10
26.770348
 20
50.452883
 42
-0.008644
 10
26.589804
 20
50.436684
 42
-0.00989
 10
26.373967
 20
50.425361
 42
-0.00816
 10
26.143532
 20
50.4216
 42
-0.010174
 10
25.851471
 20
50.427544
 42
-0.042372
 10
25.676917
 20
50.449547
 42
-0.079127
 10
25.571533
 20
50.49018
 42
-0.171259
 10
25.515951
 20
50.555419
 42
-0.061337
 10
25.49595
 20
50.635796
 42
-0.010019
 10
25.479684
 20
50.795769
 42
-0.010905
 10
25.468366
 20
50.985824
 42
-0.009419
 10
25.4646
 20
51.185715
 42
-0.013625
 10
25.471451
 20
51.437058
 42
-0.048616
 10
25.49573
 20
51.59593
 42
-0.080922
 10
25.540913
 20
51.699802
 42
-0.118448
 10
25.61265
 20
51.768424
 42
-0.079514
 10
25.699563
 20
51.802006
 42
-0.017365
 10
25.858072
 20
51.83008
 42
-0.01767
 10
26.04579
 20
51.849907
 42
-0.016134
  0
LWPOLYLINE
  5
314
330
1D
100
AcDbEntity
  8
0
100
AcDbPolyline
 90
       20
 70
     1
 43
0.0
 10
20.9385
 20
51.7752
 42
-0.007822
 10
21.267085
 20
51.770059
 42
-0.041126
 10
21.446296
 20
51.749632
 42
-0.093527
 10
21.542491
 20
51.710964
 42
-0.244096
 10
21.57864
 20
51.6483
 42
-0.007297
 10
21.580836
 20
51.574682
 42
-0.001243
 10
21.582623
 20
51.434421
 42
-0.001356
 10
21.583866
 20
51.269652
 42
-0.001208
 10
21.58428
 20
51.0984
 42
-0.001208
 10
21.583866
 20
50.927148
 42
-0.001356
 10
21.582623
 20
50.762379
 42
-0.001243
 10
21.580836
 20
50.622118
 42
-0.007297
 10
21.57864
 20
50.5485
 42
-0.244096
 10
21.542491
 20
50.485836
 42
-0.093527
 10
21.446296
 20
50.447168
 42
-0.041126
 10
21.267085
 20
50.426741
 42
-0.007822
 10
20.9385
 20
50.4216
 10
20.304
 20
50.4216
 10
20.304
 20
51.0984
 10
20.304
 20
51.7752
  0
LWPOLYLINE
  5
32A
330
1D
100
AcDbEntity
  8
0
100
AcDbPolyline
 90
        8
 70
     1
 43
0.0
 10
23.564659
 20
51.7752
 10
24.287317
 20
51.7752
 10
24.262609
 20
51.11955
 10
24.2379
 20
50.4639
 10
23.53995
 20
50.439329
 10
22.842
 20
50.414757
 10
22.842
 20
51.094979
 10
22.842
 20
51.7752
  0
LWPOLYLINE
  5
334
330
1D
100
AcDbEntity
  8
0
100
AcDbPolyline
 90
       28
 70
     1
 43
0.0
 10
23.6457
 20
49.216888
 42
-0.015681
 10
23.81552
 20
49.218673
 42
-0.01849
 10
23.975986
 20
49.209384
 42
-0.01763
 10
24.109536
 20
49.191916
 42
-0.100394
 10
24.176077
 20
49.166456
 42
-0.233744
 10
24.232083
 20
49.074284
 42
-0.011164
 10
24.256004
 20
48.703557
 42
-0.011034
 10
24.2674
 20
48.134953
 42
-0.002428
 10
24.260677
 20
47.158502
 10
24.2379
 20
45.2187
 10
22.27095
 20
45.195991
 10
20.304
 20
45.173282
 10
20.301629
 20
45.872791
 42
-0.000014
 10
20.300463
 20
46.219857
 42
-0.000006
 10
20.298861
 20
46.702311
 42
-0.000005
 10
20.297134
 20
47.225882
 42
-0.000007
 10
20.295535
 20
47.7144
 42
-0.000534
 10
20.294552
 20
48.162544
 42
-0.000742
 10
20.294695
 20
48.563911
 42
-0.000452
 10
20.295623
 20
48.901886
 42
-0.009514
 10
20.297906
 20
49.002552
 42
-0.300747
 10
20.357134
 20
49.084474
 42
-0.061111
 10
20.540205
 20
49.128975
 42
-0.022454
 10
20.903797
 20
49.155012
 42
-0.002316
 10
21.76335
 20
49.173886
 42
0.000646
 10
22.353088
 20
49.184865
 42
0.000734
 10
22.918272
 20
49.196946
 42
0.000666
 10
23.398397
 20
49.208554
 42
0.004091
  0
LWPOLYLINE
  5
352
330
1D
100
AcDbEntity
  8
0
100
AcDbPolyline
 90
       26
 70
     1
 43
0.0
 10
26.302566
 20
49.219373
 10
26.9451
 20
49.1949
 10
26.970406
 20
48.611086
 42
-0.013691
 10
26.974067
 20
48.381446
 42
-0.018616
 10
26.963986
 20
48.174475
 42
-0.01571
 10
26.944173
 20
48.006364
 42
-0.160525
 10
26.913014
 20
47.944574
 42
-0.138564
 10
26.851218
 20
47.910006
 42
-0.013031
 10
26.679358
 20
47.873629
 42
-0.015915
 10
26.468251
 20
47.841572
 42
-0.011861
 10
26.233719
 20
47.819189
 42
-0.008012
 10
25.911421
 20
47.801314
 42
-0.045435
 10
25.739894
 20
47.810143
 42
-0.100048
 10
25.641157
 20
47.845255
 42
-0.167359
 10
25.5851
 20
47.912073
 42
-0.054194
 10
25.563758
 20
47.992909
 42
-0.009163
 10
25.542783
 20
48.151471
 42
-0.009922
 10
25.525178
 20
48.339504
 42
-0.008679
 10
25.514095
 20
48.536672
 42
-0.016264
 10
25.512871
 20
48.731901
 42
-0.019873
 10
25.524913
 20
48.914088
 42
-0.018757
 10
25.546566
 20
49.064211
 42
-0.117175
 10
25.577574
 20
49.134773
 42
-0.163926
 10
25.649456
 20
49.183792
 42
-0.039364
 10
25.793042
 20
49.21213
 42
-0.028342
 10
26.003192
 20
49.224648
 42
-0.010225
  0
LWPOLYLINE
  5
36E
330
1D
100
AcDbEntity
  8
0
100
AcDbPolyline
 90
       18
 70
     1
 43
0.0
 10
28.929396
 20
49.219296
 10
29.5677
 20
49.1949
 10
29.5677
 20
48.5181
 10
29.5677
 20
47.8413
 10
29.2716
 20
47.826497
 42
-0.016459
 10
29.129757
 20
47.82408
 42
-0.007502
 10
28.944436
 20
47.829805
 42
-0.00742
 10
28.749152
 20
47.841678
 42
-0.010126
 10
28.57365
 20
47.858546
 10
28.1718
 20
47.905398
 10
28.1718
 20
48.514899
 42
-0.009111
 10
28.176134
 20
48.752748
 42
-0.013116
 10
28.189321
 20
48.96288
 42
-0.008853
 10
28.207819
 20
49.135734
 42
-0.166793
 10
28.231446
 20
49.184046
 42
-0.17691
 10
28.280255
 20
49.206739
 42
-0.008636
 10
28.461073
 20
49.219005
 42
-0.013141
 10
28.680503
 20
49.224312
 42
-0.009026
  0
LWPOLYLINE
  5
382
330
1D
100
AcDbEntity
  8
0
100
AcDbPolyline
 90
       94
 70
     1
 43
0.0
 10
29.27583
 20
46.595225
 42
-0.073777
 10
29.333482
 20
46.595191
 42
-0.047922
 10
29.398262
 20
46.579087
 42
-0.047285
 10
29.459956
 20
46.5505
 42
-0.064334
 10
29.50848
 20
46.51308
 42
-0.187074
 10
29.561838
 20
46.392147
 42
-0.00382
 10
29.587525
 20
45.716698
 42
-0.006066
 10
29.605184
 20
44.748545
 42
-0.001527
 10
29.61
 20
43.17138
 10
29.61
 20
39.9312
 10
29.29275
 20
39.928604
 42
0.000217
 10
29.077847
 20
39.926752
 42
0.000012
 10
28.410134
 20
39.920694
 42
0.000019
 10
27.615473
 20
39.913435
 42
0.000014
 10
26.7336
 20
39.905322
 42
0.002848
 10
25.866325
 20
39.89238
 42
0.00441
 10
25.117742
 20
39.870337
 42
0.001472
 10
24.472375
 20
39.843731
 42
0.129629
 10
24.381008
 20
39.815271
 42
0.21232
 10
24.326039
 20
39.733631
 42
0.024614
 10
24.297888
 20
39.509477
 42
0.018147
 10
24.284053
 20
39.158787
 42
0.004447
 10
24.287377
 20
38.581083
 42
-0.004865
 10
24.289606
 20
38.127772
 42
-0.007191
 10
24.281974
 20
37.730189
 42
-0.003672
 10
24.26825
 20
37.394964
 42
-0.127005
 10
24.245026
 20
37.320131
 42
-0.240669
 10
24.166665
 20
37.272639
 42
-0.006088
 10
23.739766
 20
37.24685
 42
-0.009182
 10
23.144634
 20
37.229112
 42
-0.002858
 10
22.250508
 20
37.224
 42
-0.001638
 10
21.089152
 20
37.227806
 42
-0.017065
 10
20.612435
 20
37.247209
 42
-0.041474
 10
20.362322
 20
37.286983
 42
-0.272517
 10
20.27507
 20
37.37205
 42
-0.038945
 10
20.259224
 20
37.45529
 42
-0.008479
 10
20.245602
 20
37.600867
 42
-0.008788
 10
20.235633
 20
37.770298
 42
-0.008319
 10
20.231388
 20
37.9431
 42
-0.009532
 10
20.233314
 20
38.115902
 42
-0.010076
 10
20.241854
 20
38.285333
 42
-0.009754
 10
20.254988
 20
38.430843
 42
-0.044375
 10
20.27172
 20
38.51415
 42
-0.230102
 10
20.345696
 20
38.595291
 42
-0.066511
 10
20.514776
 20
38.637817
 42
-0.025525
 10
20.836908
 20
38.657988
 42
-0.002874
 10
21.56965
 20
38.6622
 42
0.004153
 10
22.177994
 20
38.667253
 42
0.016314
 10
22.552673
 20
38.685717
 42
0.018696
 10
22.796243
 20
38.714902
 42
0.281527
 10
22.858527
 20
38.76795
 42
0.070433
 10
22.870357
 20
38.834541
 42
0.008283
 10
22.87317
 20
38.985531
 42
0.009788
 10
22.870007
 20
39.166141
 42
0.007871
 10
22.859748
 20
39.36015
 10
22.826341
 20
39.8466
 10
21.612463
 20
39.8466
 42
-0.005946
 10
21.131094
 20
39.852324
 42
-0.010264
 10
20.730983
 20
39.870065
 42
-0.00507
 10
20.403183
 20
39.894688
 42
-0.237338
 10
20.34784
 20
39.928709
 42
-0.131441
 10
20.327293
 20
39.997017
 42
-0.001191
 10
20.312
 20
40.534889
 42
-0.003969
 10
20.30076
 20
41.155765
 42
-0.002541
 10
20.297094
 20
41.877
 42
-0.002541
 10
20.30076
 20
42.598235
 42
-0.003969
 10
20.312
 20
43.219111
 42
-0.001191
 10
20.327293
 20
43.756983
 42
-0.131441
 10
20.34784
 20
43.825291
 42
-0.245965
 10
20.408285
 20
43.861104
 42
-0.002618
 10
20.908534
 20
43.884772
 42
-0.007016
 10
21.522199
 20
43.901965
 42
-0.003495
 10
22.299748
 20
43.9074
 42
-0.002162
 10
23.32261
 20
43.902977
 42
-0.013353
 10
23.848219
 20
43.884387
 42
-0.018644
 10
24.16338
 20
43.852975
 42
-0.273467
 10
24.24735
 20
43.78638
 42
-0.077128
 10
24.266356
 20
43.698273
 42
-0.002854
 10
24.284365
 20
43.357478
 42
-0.005128
 10
24.299271
 20
42.952951
 42
-0.003575
 10
24.308145
 20
42.49623
 10
24.3225
 20
41.3271
 10
26.24715
 20
41.304362
 10
28.1718
 20
41.281623
 10
28.1718
 20
41.917712
 10
28.1718
 20
42.5538
 10
26.8605
 20
42.5538
 10
25.5492
 20
42.5538
 10
25.5492
 20
44.540218
 10
25.5492
 20
46.526635
 10
27.34695
 20
46.551242
 42
0.000912
 10
28.045372
 20
46.562076
 42
0.001366
 10
28.65513
 20
46.574313
 42
0.00055
 10
29.178082
 20
46.586813
 42
0.030433
  0
LWPOLYLINE
  5
3E2
330
1D
100
AcDbEntity
  8
0
100
AcDbPolyline
 90
       50
 70
     1
 43
0.0
 10
27.636
 20
38.6622
 10
29.61
 20
38.6622
 10
29.61
 20
37.9854
 10
29.61
 20
37.3086
 10
28.61595
 20
37.307669
 42
0.004738
 10
28.212113
 20
37.303464
 42
0.005197
 10
27.82071
 20
37.291608
 42
0.00487
 10
27.48641
 20
37.274739
 42
0.025919
 10
27.30465
 20
37.2543
 10
26.9874
 20
37.201861
 10
26.9874
 20
36.630337
 10
26.9874
 20
36.058812
 10
27.376853
 20
36.000409
 42
0.021558
 10
27.580549
 20
35.97879
 42
0.006496
 10
27.891633
 20
35.963335
 42
0.006497
 10
28.241392
 20
35.955061
 42
0.007015
 10
28.582403
 20
35.956211
 42
-0.001084
 10
28.902727
 20
35.961091
 42
-0.001504
 10
29.189836
 20
35.963978
 42
-0.000926
 10
29.43148
 20
35.965234
 42
-0.019027
 10
29.50425
 20
35.962707
 42
-0.297807
 10
29.553682
 20
35.925001
 42
-0.046449
 10
29.585273
 20
35.799945
 42
-0.029927
 10
29.604529
 20
35.597372
 42
-0.008734
 10
29.61
 20
35.284169
 10
29.61
 20
34.613338
 10
27.22005
 20
34.586219
 42
-0.001303
 10
26.284451
 20
34.57804
 42
-0.001842
 10
25.451381
 20
34.575998
 42
-0.001049
 10
24.748169
 20
34.57834
 42
-0.026184
 10
24.55515
 20
34.589506
 10
24.2802
 20
34.619911
 10
24.2802
 20
35.287456
 10
24.2802
 20
35.955
 10
24.780881
 20
35.955
 42
0.009343
 10
24.982382
 20
35.958766
 42
0.010846
 10
25.173796
 20
35.970084
 42
0.009941
 10
25.334843
 20
35.986347
 42
0.06155
 10
25.415381
 20
36.006351
 42
0.233069
 10
25.487131
 20
36.083923
 42
0.04645
 10
25.524906
 20
36.274551
 42
0.022401
 10
25.54465
 20
36.61456
 42
0.003302
 10
25.5492
 20
37.303551
 42
-0.004231
 10
25.553275
 20
37.785147
 42
-0.00659
 10
25.565768
 20
38.199999
 42
-0.002421
 10
25.582853
 20
38.554751
 42
-0.185182
 10
25.6056
 20
38.6058
 42
-0.190635
 10
25.658526
 20
38.628718
 42
-0.001032
 10
26.225295
 20
38.645632
 42
-0.00427
 10
26.875206
 20
38.658133
 42
-0.002673
  0
LWPOLYLINE
  5
416
330
1D
100
AcDbEntity
  8
0
100
AcDbPolyline
 90
       22
 70
     1
 43
0.0
 10
22.5459
 20
35.986947
 42
-0.002173
 10
22.618427
 20
35.982193
 42
-0.001742
 10
22.696462
 20
35.976463
 42
-0.00176
 10
22.768586
 20
35.97066
 42
-0.004483
 10
22.82085
 20
35.965797
 42
-0.291162
 10
22.870175
 20
35.926847
 42
-0.045344
 10
22.901761
 20
35.80057
 42
-0.02976
 10
22.921081
 20
35.597777
 42
-0.00887
 10
22.9266
 20
35.286719
 10
22.9266
 20
34.618437
 10
22.56705
 20
34.588769
 42
-0.011736
 10
22.406305
 20
34.579296
 42
-0.007587
 10
22.219926
 20
34.575528
 42
-0.007628
 10
22.037565
 20
34.577391
 42
-0.014278
 10
21.89025
 20
34.585357
 10
21.573
 20
34.611614
 10
21.573
 20
35.278672
 10
21.573
 20
35.945729
 10
21.97485
 20
35.971515
 42
-0.004668
 10
22.141109
 20
35.980625
 42
-0.004597
 10
22.308359
 20
35.986684
 42
-0.004524
 10
22.454989
 20
35.98932
 42
-0.017511
  0
LWPOLYLINE
  5
42E
330
1D
100
AcDbEntity
  8
0
100
AcDbPolyline
 90
       48
 70
     1
 43
0.0
 10
32.937372
 20
35.9973
 42
-0.00208
 10
33.669997
 20
35.994252
 42
-0.003361
 10
34.293417
 20
35.984874
 42
-0.000623
 10
34.842065
 20
35.972248
 42
-0.200565
 10
34.880674
 20
35.955
 42
-0.184412
 10
34.89726
 20
35.914656
 42
-0.000205
 10
34.920705
 20
34.973972
 42
-0.001856
 10
34.942643
 20
33.919219
 42
-0.001135
 10
34.961081
 20
32.674729
 42
-0.002131
 10
34.971392
 20
31.43004
 42
-0.00348
 10
34.968291
 20
30.374637
 42
-0.000569
 10
34.958017
 20
29.443613
 42
-0.256687
 10
34.928584
 20
29.391568
 42
-0.097621
 10
34.875497
 20
29.37165
 42
-0.005661
 10
34.70329
 20
29.345094
 42
-0.008425
 10
34.496081
 20
29.319092
 42
-0.006086
 10
34.264304
 20
29.296817
 10
33.673144
 20
29.247256
 10
33.650822
 20
26.573378
 10
33.6285
 20
23.8995
 10
30.2868
 20
23.8995
 10
26.9451
 20
23.8995
 10
26.9451
 20
24.5763
 10
26.9451
 20
25.2531
 10
29.63115
 20
25.275438
 42
0.001696
 10
30.976745
 20
25.291195
 42
0.008014
 10
31.748114
 20
25.315216
 42
0.005417
 10
32.265285
 20
25.345241
 42
0.386308
 10
32.320064
 20
25.402338
 42
0.004847
 10
32.321503
 20
25.483711
 42
0.000029
 10
32.327458
 20
26.234148
 42
0.000121
 10
32.333998
 20
27.090593
 42
0.000077
 10
32.341214
 20
28.0872
 10
32.3595
 20
30.6675
 10
32.9517
 20
30.7098
 10
33.5439
 20
30.7521
 10
33.5439
 20
32.6556
 10
33.5439
 20
34.5591
 10
32.2326
 20
34.6014
 10
30.9213
 20
34.6437
 10
30.896111
 20
35.222365
 42
-0.013679
 10
30.892417
 20
35.451143
 42
-0.01794
 10
30.902252
 20
35.659874
 42
-0.015594
 10
30.921819
 20
35.830542
 42
-0.137743
 10
30.95239
 20
35.899165
 42
-0.2028
 10
31.045934
 20
35.947599
 42
-0.007048
 10
31.463595
 20
35.974154
 42
-0.009429
 10
32.05188
 20
35.992127
 42
-0.002921
  0
LWPOLYLINE
  5
460
330
1D
100
AcDbEntity
  8
0
100
AcDbPolyline
 90
      194
 70
     1
 43
0.0
 10
16.325145
 20
35.955
 10
20.304
 20
35.955
 10
20.304
 20
35.2782
 10
20.304
 20
34.6014
 10
17.0046
 20
34.6014
 10
13.7052
 20
34.6014
 10
13.70365
 20
33.52275
 42
-0.003233
 10
13.69995
 20
33.054727
 42
-0.002431
 10
13.690048
 20
32.539918
 42
-0.002457
 10
13.676
 20
32.055743
 42
-0.00565
 10
13.659524
 20
31.69164
 42
0.007148
 10
13.646865
 20
31.392016
 42
0.008976
 10
13.644092
 20
31.114099
 42
0.007445
 10
13.649402
 20
30.881881
 42
0.067497
 10
13.666775
 20
30.78219
 42
0.147719
 10
13.722573
 20
30.700745
 42
0.112849
 10
13.820257
 20
30.653306
 42
0.049209
 10
13.995589
 20
30.630563
 42
0.007665
 10
14.345401
 20
30.6252
 10
14.9742
 20
30.6252
 10
14.976144
 20
30.26565
 42
0.000608
 10
14.977727
 20
30.026712
 42
0.00004
 10
14.983159
 20
29.340734
 42
0.000058
 10
14.989796
 20
28.523014
 42
0.000044
 10
14.997294
 20
27.6219
 10
15.0165
 20
25.3377
 10
16.2855
 20
25.2954
 10
17.5545
 20
25.2531
 10
17.578013
 20
23.987633
 42
0.004706
 10
17.594365
 20
23.403557
 42
0.014411
 10
17.620577
 20
23.008335
 42
0.013898
 10
17.654462
 20
22.733868
 42
0.216845
 10
17.704913
 20
22.656478
 42
0.095443
 10
17.769951
 20
22.630825
 42
0.015335
 10
17.905356
 20
22.609706
 42
0.016473
 10
18.068429
 20
22.594807
 42
0.013796
 10
18.242091
 20
22.589495
 42
0.021181
 10
18.423423
 20
22.596638
 42
0.031182
 10
18.581138
 20
22.619518
 42
0.03509
 10
18.703862
 20
22.654352
 42
0.133627
 10
18.768424
 20
22.699706
 42
0.144841
 10
18.808371
 20
22.792876
 42
0.00761
 10
18.841818
 20
23.119201
 42
0.010815
 10
18.868759
 20
23.531234
 42
0.006091
 10
18.884533
 20
24.032156
 10
18.9081
 20
25.2531
 10
19.5849
 20
25.2531
 10
20.2617
 20
25.2531
 10
20.285053
 20
23.96295
 42
0.004437
 10
20.298414
 20
23.467769
 42
0.007319
 10
20.319538
 20
23.049687
 42
0.002158
 10
20.344415
 20
22.691996
 42
0.359702
 10
20.369653
 20
22.665671
 42
0.005562
 10
20.410215
 20
22.661406
 42
0.000385
 10
20.524739
 20
22.650741
 42
0.000548
 10
20.66132
 20
22.638278
 42
0.000412
 10
20.8116
 20
22.624856
 42
0.013393
 10
20.971154
 20
22.615036
 42
0.012271
 10
21.135739
 20
22.613367
 42
0.012379
 10
21.282676
 20
22.619122
 42
0.03879
 10
21.380452
 20
22.633046
 42
0.182643
 10
21.488448
 20
22.703846
 42
0.118452
 10
21.546348
 20
22.843354
 42
0.032664
 10
21.573234
 20
23.133866
 42
0.002217
 10
21.591952
 20
23.96401
 10
21.6153
 20
25.2531
 10
22.27095
 20
25.277809
 10
22.9266
 20
25.302517
 10
22.9266
 20
24.027303
 42
0.004064
 10
22.931635
 20
23.407914
 42
0.016086
 10
22.950069
 20
23.027535
 42
0.018311
 10
22.97918
 20
22.780317
 42
0.28355
 10
23.03235
 20
22.718008
 42
0.036249
 10
23.097733
 20
22.702056
 42
0.00464
 10
23.240553
 20
22.679365
 42
0.005409
 10
23.410845
 20
22.655807
 42
0.004482
 10
23.592625
 20
22.634315
 42
0.017461
 10
23.792201
 20
22.619559
 42
0.030301
 10
23.958304
 20
22.623164
 42
0.036395
 10
24.086654
 20
22.643225
 42
0.116757
 10
24.163675
 20
22.68141
 42
0.175577
 10
24.222599
 20
22.781872
 42
0.024332
 10
24.255477
 20
23.025399
 42
0.017249
 10
24.274956
 20
23.406676
 42
0.004138
 10
24.2802
 20
24.040317
 10
24.2802
 20
25.302517
 10
24.93585
 20
25.277809
 10
25.5915
 20
25.2531
 10
25.5915
 20
23.2227
 10
25.5915
 20
21.1923
 10
21.59415
 20
21.170322
 10
17.5968
 20
21.148343
 10
17.5968
 20
20.556972
 42
0.010341
 10
17.602434
 20
20.284595
 42
0.033433
 10
17.621967
 20
20.104774
 42
0.053087
 10
17.653983
 20
19.993905
 42
0.287955
 10
17.70255
 20
19.959022
 42
0.012701
 10
17.782965
 20
19.956067
 42
0.000143
 10
18.323963
 20
19.950095
 42
0.000442
 10
18.948527
 20
19.943932
 42
0.000288
 10
19.6695
 20
19.937872
 10
21.5307
 20
19.9233
 10
21.573
 20
19.187161
 10
21.6153
 20
18.451022
 10
22.579866
 20
17.474011
 42
0.004442
 10
22.956197
 20
17.099539
 42
0.006902
 10
23.288032
 20
16.783997
 42
0.002633
 10
23.576478
 20
16.520003
 42
0.186079
 10
23.636147
 20
16.497
 42
0.188921
 10
23.695557
 20
16.520278
 42
0.002668
 10
23.980855
 20
16.787244
 42
0.006987
 10
24.308943
 20
17.106354
 42
0.004494
 10
24.68083
 20
17.485065
 10
25.6338
 20
18.47313
 10
25.6338
 20
19.168014
 42
-0.00759
 10
25.639293
 20
19.529888
 42
-0.036787
 10
25.660586
 20
19.734084
 42
-0.073014
 10
25.700709
 20
19.853873
 42
-0.185953
 10
25.767619
 20
19.914249
 42
-0.061439
 10
25.848072
 20
19.934251
 42
-0.009982
 10
26.008557
 20
19.950516
 42
-0.010877
 10
26.199258
 20
19.961834
 42
-0.009383
 10
26.399916
 20
19.9656
 10
26.898393
 20
19.9656
 10
26.921747
 20
21.25575
 10
26.9451
 20
22.5459
 10
28.9755
 20
22.5459
 10
31.0059
 20
22.5459
 10
31.0059
 20
20.5155
 10
31.0059
 20
18.4851
 10
29.019155
 20
18.4428
 10
27.03241
 20
18.4005
 10
26.979619
 20
18.075232
 42
-0.089443
 10
26.901177
 20
17.852989
 42
-0.041493
 10
26.727583
 20
17.599604
 42
-0.021432
 10
26.407211
 20
17.239047
 42
-0.003783
 10
25.772506
 20
16.593429
 10
24.618183
 20
15.436892
 10
25.508613
 20
14.549896
 42
-0.006418
 10
25.848238
 20
14.202783
 42
-0.010018
 10
26.130701
 20
13.894441
 42
-0.004591
 10
26.360443
 20
13.62845
 42
-0.237492
 10
26.375971
 20
13.564128
 42
-0.125985
 10
26.341357
 20
13.497661
 42
-0.001234
 10
25.977487
 20
13.0937
 42
-0.003972
 10
25.552183
 20
12.631309
 42
-0.002552
 10
25.051828
 20
12.101369
 42
-0.003267
 10
24.548151
 20
11.580196
 42
-0.005321
 10
24.113131
 20
11.145267
 42
-0.001238
 10
23.729699
 20
10.771843
 42
-0.287246
 10
23.6833
 20
10.761941
 42
-0.098962
 10
23.636434
 20
10.790446
 42
-0.000543
 10
23.248107
 20
11.148466
 42
-0.002331
 10
22.807116
 20
11.559755
 42
-0.001475
 10
22.296517
 20
12.043283
 42
-0.002689
 10
21.785233
 20
12.535602
 42
-0.003946
 10
21.341441
 20
12.974428
 42
-0.001911
 10
20.96899
 20
13.351442
 42
-0.071142
 10
20.897863
 20
13.448292
 42
-0.240994
 10
20.895736
 20
13.563718
 42
-0.052838
 10
21.004538
 20
13.737213
 42
-0.026378
 10
21.236037
 20
14.00199
 42
-0.004588
 10
21.703368
 20
14.474051
 42
0.004628
 10
22.042503
 20
14.816674
 42
0.007166
 10
22.328281
 20
15.119347
 42
0.002838
 10
22.56661
 20
15.382105
 42
0.184814
 10
22.5882
 20
15.438519
 42
0.188415
 10
22.565689
 20
15.496137
 42
0.001669
 10
22.24157
 20
15.845267
 42
0.005454
 10
21.860506
 20
16.244188
 42
0.003457
 10
21.408184
 20
16.701116
 42
-0.004011
 10
20.797733
 20
17.319152
 42
-0.018339
 10
20.459499
 20
17.693675
 42
-0.030391
 10
20.267661
 20
17.952904
 42
-0.120358
 10
20.202634
 20
18.13864
 10
20.1771
 20
18.4005
 10
18.189
 20
18.4428
 10
16.2009
 20
18.4851
 10
16.178565
 20
21.168953
 10
16.156229
 20
23.852806
 10
14.867265
 20
23.876153
 10
13.5783
 20
23.8995
 10
13.555967
 20
26.581868
 10
13.533633
 20
29.264235
 10
12.921467
 20
29.289068
 10
12.3093
 20
29.3139
 10
12.287112
 20
32.528433
 42
-0.001205
 10
12.281542
 20
33.768324
 42
-0.001913
 10
12.283393
 20
34.829839
 42
-0.000403
 10
12.289341
 20
35.762919
 42
-0.090049
 10
12.305607
 20
35.848983
 42
-0.30016
 10
12.388357
 20
35.908207
 42
-0.002902
 10
13.160907
 20
35.93307
 42
-0.005495
 10
14.297175
 20
35.950548
 42
-0.001098
  0
LWPOLYLINE
  5
524
330
1D
100
AcDbEntity
  8
0
100
AcDbPolyline
 90
       80
 70
     1
 43
0.0
 10
17.694295
 20
33.3324
 10
20.301589
 20
33.3324
 10
20.323945
 20
30.68865
 10
20.3463
 20
28.0449
 10
22.2921
 20
28.0449
 10
24.2379
 20
28.0449
 10
24.260255
 20
30.68865
 10
24.282611
 20
33.3324
 10
24.957
 20
33.3324
 10
25.631389
 20
33.3324
 10
25.653745
 20
30.68865
 10
25.6761
 20
28.0449
 10
26.1837
 20
27.996298
 42
0.008373
 10
26.385812
 20
27.980356
 42
0.010562
 10
26.573257
 20
27.972695
 42
0.008822
 10
26.729742
 20
27.97237
 42
0.079371
 10
26.79705
 20
27.984199
 42
0.302735
 10
26.854373
 20
28.059528
 42
0.005825
 10
26.880517
 20
28.572631
 42
0.008098
 10
26.898209
 20
29.339634
 42
0.001717
 10
26.9028
 20
30.676551
 10
26.9028
 20
33.3324
 10
27.570549
 20
33.3324
 42
-0.008069
 10
27.916421
 20
33.326818
 42
-0.037947
 10
28.113861
 20
33.305385
 42
-0.074476
 10
28.230326
 20
33.265146
 42
-0.182757
 10
28.289649
 20
33.198581
 42
-0.087277
 10
28.310484
 20
33.091571
 42
-0.000634
 10
28.325916
 20
32.179152
 42
-0.002386
 10
28.337291
 20
31.132659
 42
-0.001524
 10
28.341
 20
29.916101
 42
-0.001578
 10
28.336169
 20
28.385273
 42
-0.006229
 10
28.318486
 20
27.443197
 42
-0.004001
 10
28.292705
 20
26.786295
 42
-0.186666
 10
28.23948
 20
26.66592
 42
-0.193092
 10
28.10927
 20
26.610267
 42
-0.001369
 10
26.890839
 20
26.586279
 42
-0.003452
 10
25.168688
 20
26.568982
 42
-0.000785
 10
22.2498
 20
26.5644
 42
-0.000785
 10
19.330912
 20
26.568982
 42
-0.003452
 10
17.608761
 20
26.586279
 42
-0.001369
 10
16.39033
 20
26.610267
 42
-0.193092
 10
16.26012
 20
26.66592
 42
-0.176171
 10
16.209826
 20
26.773692
 42
-0.008961
 10
16.182373
 20
27.165516
 42
-0.01016
 10
16.164494
 20
27.729211
 42
-0.003025
 10
16.159895
 20
28.59057
 42
-0.003701
 10
16.165631
 20
29.297531
 42
-0.005624
 10
16.182071
 20
29.911705
 42
-0.002312
 10
16.204423
 20
30.435672
 42
-0.130123
 10
16.233568
 20
30.527912
 42
-0.207397
 10
16.318122
 20
30.585382
 42
-0.026656
 10
16.540318
 20
30.615487
 42
-0.018572
 10
16.893141
 20
30.631102
 42
-0.004291
 10
17.488052
 20
30.630214
 42
0.004172
 10
18.102791
 20
30.62915
 42
0.01996
 10
18.453121
 20
30.645461
 42
0.032983
 10
18.669544
 20
30.678698
 42
0.166449
 10
18.772414
 20
30.741514
 42
0.113232
 10
18.813139
 20
30.822241
 42
0.029521
 10
18.839704
 20
30.966027
 42
0.026426
 10
18.852635
 20
31.14828
 42
0.017446
 10
18.849085
 20
31.358312
 10
18.8235
 20
31.8519
 10
16.92
 20
31.898289
 42
-0.000814
 10
16.188659
 20
31.917302
 42
-0.001334
 10
15.56944
 20
31.936063
 42
-0.000118
 10
15.014875
 20
31.954476
 42
-0.162757
 10
14.99535
 20
31.961739
 42
-0.21667
 10
14.986766
 20
31.978838
 42
-0.001336
 10
14.980413
 20
32.156031
 42
-0.005102
 10
14.975725
 20
32.36014
 42
-0.00319
 10
14.9742
 20
32.5992
 42
-0.008468
 10
14.978296
 20
32.840998
 42
-0.012318
 10
14.990768
 20
33.053925
 42
-0.007906
 10
15.008215
 20
33.229669
 42
-0.169247
 10
15.0306
 20
33.276
 42
-0.192786
 10
15.084317
 20
33.298996
 42
-0.000607
 10
15.836325
 20
33.315832
 42
-0.003268
 10
16.690668
 20
33.328336
 42
-0.002025
  0
LWPOLYLINE
  5
576
330
1D
100
AcDbEntity
  8
0
100
AcDbPolyline
 90
        8
 70
     1
 43
0.0
 10
22.2498
 20
33.3324
 10
22.933443
 20
33.3324
 10
22.908871
 20
32.63445
 10
22.8843
 20
31.9365
 10
22.2498
 20
31.9365
 10
21.6153
 20
31.9365
 10
21.590729
 20
32.63445
 10
21.566157
 20
33.3324
  0
LWPOLYLINE
  5
580
330
1D
100
AcDbEntity
  8
0
100
AcDbPolyline
 90
       30
 70
     1
 43
0.0
 10
30.961988
 20
33.3324
 42
-0.001943
 10
31.85301
 20
33.328938
 42
-0.032623
 10
32.147048
 20
33.307436
 42
-0.125557
 10
32.287712
 20
33.249941
 42
-0.173475
 10
32.362886
 20
33.137528
 42
-0.04156
 10
32.380117
 20
33.032647
 42
-0.011264
 10
32.389748
 20
32.864547
 42
-0.01132
 10
32.392064
 20
32.672581
 42
-0.011529
 10
32.385648
 20
32.481878
 10
32.3595
 20
32.0211
 10
31.6827
 20
31.9788
 10
31.0059
 20
31.9365
 10
30.9636
 20
29.2716
 10
30.9213
 20
26.6067
 10
30.3714
 20
26.584883
 42
-0.012064
 10
30.153228
 20
26.581496
 42
-0.015456
 10
29.952531
 20
26.589429
 42
-0.013342
 10
29.787038
 20
26.605549
 42
-0.114375
 10
29.717664
 20
26.630993
 42
-0.240162
 10
29.66167
 20
26.728766
 42
-0.003969
 10
29.635327
 20
27.374656
 42
-0.006443
 10
29.616569
 20
28.315288
 42
-0.001465
 10
29.609992
 20
29.90991
 42
-0.00006
 10
29.608661
 20
31.148425
 42
-0.000095
 10
29.607848
 20
32.208736
 42
-0.000019
 10
29.607344
 20
33.143441
 42
-0.004667
 10
29.608079
 20
33.22665
 42
-0.364509
 10
29.655333
 20
33.280828
 42
-0.019132
 10
29.901517
 20
33.309566
 42
-0.015926
 10
30.293171
 20
33.327634
 42
-0.003563
  0
LWPOLYLINE
  5
5A0
330
1D
100
AcDbEntity
  8
0
100
AcDbPolyline
 90
       14
 70
     1
 43
0.0
 10
22.269727
 20
30.692381
 10
22.8843
 20
30.6675
 10
22.8843
 20
29.9907
 10
22.8843
 20
29.3139
 10
22.2498
 20
29.3139
 10
21.6153
 20
29.3139
 10
21.589994
 20
29.897706
 42
-0.007918
 10
21.583611
 20
30.129888
 42
-0.01001
 10
21.585408
 20
30.344645
 42
-0.008292
 10
21.593465
 20
30.523665
 42
-0.07636
 10
21.60992
 20
30.599387
 42
-0.204992
 10
21.663882
 20
30.654949
 42
-0.063989
 10
21.778371
 20
30.686367
 42
-0.035983
 10
21.965453
 20
30.699124
 42
-0.009154
  0
LWPOLYLINE
  5
5B0
330
1D
100
AcDbEntity
  8
0
100
AcDbPolyline
 90
       26
 70
     1
 43
0.0
 10
23.688646
 20
19.881
 42
-0.139734
 10
23.760762
 20
19.860444
 42
-0.020647
 10
23.887386
 20
19.774442
 42
-0.021936
 10
24.031905
 20
19.657148
 42
-0.017283
 10
24.177986
 20
19.518248
 42
-0.01615
 10
24.314312
 20
19.370059
 42
-0.020688
 10
24.429421
 20
19.224784
 42
-0.01906
 10
24.514271
 20
19.098215
 42
-0.139
 10
24.534
 20
19.028617
 42
-0.149893
 10
24.512172
 20
18.957443
 42
-0.01639
 10
24.410454
 20
18.817321
 42
-0.018886
 10
24.274493
 20
18.655399
 42
-0.014186
 10
24.113417
 20
18.487481
 42
-0.007907
 10
23.852461
 20
18.238455
 42
-0.074145
 10
23.724558
 20
18.151294
 42
-0.161059
 10
23.618022
 20
18.137281
 42
-0.075846
 10
23.485641
 20
18.184108
 42
-0.038265
 10
23.384456
 20
18.248664
 42
-0.012413
 10
23.245153
 20
18.358847
 42
-0.012294
 10
23.095832
 20
18.489448
 42
-0.013524
 10
22.957912
 20
18.623252
 10
22.637377
 20
18.951511
 10
23.096348
 20
19.416255
 42
-0.013465
 10
23.281864
 20
19.594253
 42
-0.018122
 10
23.459662
 20
19.744481
 42
-0.015344
 10
23.613152
 20
19.857484
 42
-0.152142
  0
LWPOLYLINE
  5
5CC
330
1D
100
AcDbEntity
  8
0
100
AcDbPolyline
 90
       20
 70
     1
 43
0.0
 10
23.920954
 20
70.363907
 10
23.446488
 20
70.838372
 10
23.059644
 20
70.440339
 42
0.013619
 10
22.911489
 20
70.279349
 42
0.018139
 10
22.786435
 20
70.124832
 42
0.015549
 10
22.692654
 20
69.991513
 42
0.146518
 10
22.6728
 20
69.925213
 42
0.16556
 10
22.695065
 20
69.859814
 42
0.016052
 10
22.80296
 20
69.728656
 42
0.019003
 10
22.946182
 20
69.577512
 42
0.013901
 10
23.115898
 20
69.42051
 42
0.007446
 10
23.289104
 20
69.273489
 42
0.01173
 10
23.442518
 20
69.153075
 42
0.005832
 10
23.573677
 20
69.057378
 42
0.269001
 10
23.605575
 20
69.054399
 42
0.089021
 10
23.635411
 20
69.075253
 42
0.002421
 10
23.747639
 20
69.189073
 42
0.004945
 10
23.878008
 20
69.325246
 42
0.003362
 10
24.023787
 20
69.48267
 10
24.39542
 20
69.889441
  0
LWPOLYLINE
  5
5E2
330
1D
100
AcDbEntity
  8
0
100
AcDbPolyline
 90
       26
 70
     1
 43
0.0
 10
32.930072
 20
39.912444
 42
0.011467
 10
32.755682
 20
39.904468
 42
0.014181
 10
32.593834
 20
39.888719
 42
0.012553
 10
32.459858
 20
39.868406
 42
0.094782
 10
32.400314
 20
39.845682
 42
0.203111
 10
32.36332
 20
39.793471
 42
0.026346
 10
32.340656
 20
39.655666
 42
0.025346
 10
32.329676
 20
39.47177
 42
0.014006
 10
32.333964
 20
39.246697
 10
32.3595
 20
38.7045
 10
32.901697
 20
38.678964
 42
0.0125
 10
33.152704
 20
38.673425
 42
0.033617
 10
33.330728
 20
38.685933
 42
0.048208
 10
33.451887
 20
38.714774
 42
0.170501
 10
33.513751
 20
38.763564
 42
0.092814
 10
33.540993
 20
38.831739
 42
0.016247
 10
33.563469
 20
38.968774
 42
0.017135
 10
33.579284
 20
39.133337
 42
0.01464
 10
33.584905
 20
39.307491
 42
0.021362
 10
33.577788
 20
39.48651
 42
0.030101
 10
33.555088
 20
39.644578
 42
0.032975
 10
33.520927
 20
39.768616
 42
0.136693
 10
33.477072
 20
39.83185
 42
0.114569
 10
33.408168
 20
39.866383
 42
0.022542
 10
33.271376
 20
39.892884
 42
0.022825
 10
33.105711
 20
39.909614
 42
0.019447
  0
LWPOLYLINE
  5
5FE
330
1D
100
AcDbEntity
  8
0
100
AcDbPolyline
 90
       20
 70
     1
 43
0.0
 10
14.326243
 20
39.829001
 10
13.720587
 20
39.853702
 10
13.687431
 20
39.321401
 42
0.011079
 10
13.67905
 20
39.112266
 42
0.015282
 10
13.681432
 20
38.924343
 42
0.011851
 10
13.691762
 20
38.77023
 42
0.150869
 10
13.713568
 20
38.7172
 42
0.14982
 10
13.759143
 20
38.687093
 42
0.016505
 10
13.881727
 20
38.655356
 42
0.018974
 10
14.03379
 20
38.62731
 42
0.014265
 10
14.202764
 20
38.607635
 42
0.02139
 10
14.379506
 20
38.599744
 42
0.021831
 10
14.555067
 20
38.607089
 42
0.022231
 10
14.706417
 20
38.626864
 42
0.079421
 10
14.798399
 20
38.658667
 42
0.1029
 10
14.883334
 20
38.729697
 42
0.108272
 10
14.930999
 20
38.827486
 42
0.056568
 10
14.950734
 20
38.984765
 42
0.010573
 10
14.948015
 20
39.275832
 10
14.9319
 20
39.8043
  0
LWPOLYLINE
  5
614
330
1D
100
AcDbEntity
  8
0
100
AcDbPolyline
 90
       20
 70
     1
 43
0.0
 10
18.175986
 20
55.7514
 42
0.014095
 10
17.947293
 20
55.744952
 42
0.038094
 10
17.786411
 20
55.723504
 42
0.05664
 10
17.680409
 20
55.68816
 42
0.194756
 10
17.631875
 20
55.636177
 42
0.074365
 10
17.615977
 20
55.564396
 42
0.009838
 10
17.608203
 20
55.408476
 42
0.011229
 10
17.606769
 20
55.221996
 42
0.009205
 10
17.61338
 20
55.022827
 10
17.6391
 20
54.5247
 10
18.2313
 20
54.5247
 10
18.8235
 20
54.5247
 10
18.849085
 20
55.018288
 42
0.017636
 10
18.852498
 20
55.2249
 42
0.025259
 10
18.839822
 20
55.407644
 42
0.027239
 10
18.814201
 20
55.553213
 42
0.116532
 10
18.775276
 20
55.631638
 42
0.128822
 10
18.702323
 20
55.683922
 42
0.042116
 10
18.574146
 20
55.720978
 42
0.032936
 10
18.399359
 20
55.744077
 42
0.016388
  0
LWPOLYLINE
  5
62A
330
1D
100
AcDbEntity
  8
0
100
AcDbPolyline
 90
       14
 70
     1
 43
0.0
 10
22.269855
 20
47.781915
 42
0.01125
 10
22.010389
 20
47.788418
 42
0.041162
 10
21.846544
 20
47.775328
 42
0.07257
 10
21.745016
 20
47.743155
 42
0.190408
 10
21.694235
 20
47.687843
 42
0.073415
 10
21.677762
 20
47.614123
 42
0.010201
 10
21.669461
 20
47.45727
 42
0.011496
 10
21.667685
 20
47.269892
 42
0.009519
 10
21.67418
 20
47.070427
 10
21.6999
 20
46.5723
 10
22.2498
 20
46.5723
 10
22.7997
 20
46.5723
 10
22.7997
 20
47.1645
 10
22.7997
 20
47.7567
  0
LWPOLYLINE
  5
63A
330
1D
100
AcDbEntity
  8
0
100
AcDbPolyline
 90
       14
 70
     1
 43
0.0
 10
27.583306
 20
45.1764
 10
26.9874
 20
45.1764
 10
26.9874
 20
44.585812
 42
0.00713
 10
26.9925
 20
44.228206
 42
0.067667
 10
27.017382
 20
44.077519
 42
0.162913
 10
27.075361
 20
43.996607
 42
0.095322
 10
27.184536
 20
43.945746
 42
0.038324
 10
27.285598
 20
43.928471
 42
0.013212
 10
27.433601
 20
43.91865
 42
0.01304
 10
27.597972
 20
43.916388
 42
0.014753
 10
27.755586
 20
43.922984
 10
28.1295
 20
43.9497
 10
28.154356
 20
44.56305
 10
28.179213
 20
45.1764
  0
LWPOLYLINE
  5
64A
330
1D
100
AcDbEntity
  8
0
100
AcDbPolyline
 90
       26
 70
     1
 43
0.0
 10
22.288628
 20
42.536228
 42
0.011417
 10
22.088482
 20
42.541336
 42
0.016084
 10
21.910065
 20
42.536074
 42
0.012254
 10
21.764427
 20
42.523495
 42
0.170302
 10
21.717578
 20
42.500978
 42
0.164723
 10
21.693856
 20
42.452963
 42
0.009662
 10
21.675219
 20
42.288802
 42
0.013778
 10
21.661961
 20
42.088735
 42
0.009654
 10
21.6576
 20
41.8629
 42
0.008969
 10
21.662909
 20
41.566983
 42
0.04454
 10
21.683614
 20
41.402068
 42
0.099223
 10
21.722518
 20
41.312975
 42
0.232482
 10
21.7845
 20
41.278757
 42
0.007464
 10
21.856374
 20
41.276409
 42
0.001456
 10
21.985954
 20
41.274489
 42
0.001546
 10
22.137043
 20
41.273158
 42
0.00143
 10
22.2921
 20
41.272714
 42
0.001453
 10
22.444337
 20
41.273157
 42
0.001768
 10
22.586909
 20
41.274489
 42
0.001485
 10
22.706835
 20
41.276391
 42
0.012376
 10
22.761106
 20
41.278757
 42
0.334956
 10
22.798033
 20
41.310803
 42
0.026893
 10
22.819322
 20
41.446287
 42
0.024893
 10
22.829459
 20
41.639914
 42
0.01076
 10
22.824556
 20
41.89815
 10
22.7997
 20
42.5115
  0
LWPOLYLINE
  5
666
330
1D
100
AcDbEntity
  8
0
100
AcDbPolyline
 90
       14
 70
     1
 43
0.0
 10
29.015145
 20
21.15
 42
0.010744
 10
28.734449
 20
21.143968
 42
0.03408
 10
28.547867
 20
21.123151
 42
0.053085
 10
28.428474
 20
21.088131
 42
0.206097
 10
28.37584
 20
21.034166
 42
0.072652
 10
28.359956
 20
20.963587
 42
0.010984
 10
28.352072
 20
20.818638
 42
0.01212
 10
28.350666
 20
20.645894
 42
0.010214
 10
28.357345
 20
20.463116
 10
28.3833
 20
20.0079
 10
28.99665
 20
19.983044
 10
29.61
 20
19.958187
 10
29.61
 20
20.554094
 10
29.61
 20
21.15
  0
LWPOLYLINE
  5
676
330
1D
100
AcDbEntity
  8
0
100
AcDbPolyline
 90
       26
 70
     1
 43
0.0
 10
23.64859
 20
14.373392
 42
0.15258
 10
23.5978
 20
14.351865
 42
0.010187
 10
23.477919
 20
14.245851
 42
0.013935
 10
23.3388
 20
14.11032
 42
0.009941
 10
23.190441
 20
13.951296
 42
0.008817
 10
22.981521
 20
13.7098
 42
0.067367
 10
22.901831
 20
13.582984
 42
0.159498
 10
22.891367
 20
13.488384
 42
0.118548
 10
22.936641
 20
13.392751
 42
0.016673
 10
23.002429
 20
13.316442
 42
0.004131
 10
23.115362
 20
13.195967
 42
0.00422
 10
23.247017
 20
13.060139
 42
0.00422
 10
23.380951
 20
12.926547
 42
0.008027
 10
23.510512
 20
12.803498
 42
0.011731
 10
23.62879
 20
12.699737
 42
0.007291
 10
23.730147
 20
12.617426
 42
0.168438
 10
23.764832
 20
12.6054
 42
0.179409
 10
23.800379
 20
12.618579
 42
0.00488
 10
23.927115
 20
12.729699
 42
0.009526
 10
24.074238
 20
12.866389
 42
0.006317
 10
24.238045
 20
13.028547
 10
24.654829
 20
13.451694
 10
24.195455
 20
13.916847
 42
0.00974
 10
24.013092
 20
14.094447
 42
0.014267
 10
23.845321
 20
14.242833
 42
0.009584
 10
23.701686
 20
14.358147
 42
0.191118
  0
LWPOLYLINE
  5
692
330
1D
100
AcDbEntity
  8
0
100
AcDbPolyline
 90
       14
 70
     1
 43
0.0
 10
18.251288
 20
29.254342
 42
0.010063
 10
17.968697
 20
29.261015
 42
0.03866
 10
17.793478
 20
29.248061
 42
0.069064
 10
17.685896
 20
29.216075
 42
0.196858
 10
17.633368
 20
29.160269
 42
0.073456
 10
17.61692
 20
29.086632
 42
0.010185
 10
17.608642
 20
28.929819
 42
0.011485
 10
17.60688
 20
28.742479
 42
0.009506
 10
17.61338
 20
28.543027
 10
17.6391
 20
28.0449
 10
18.2313
 20
28.0449
 10
18.8235
 20
28.0449
 10
18.8235
 20
28.6371
 10
18.8235
 20
29.2293
  0
ENDSEC
  0
SECTION
  2
OBJECTS
  0
DICTIONARY
  5
C
330
0
100
AcDbDictionary
281
     1
  3
ACAD_DETAILVIEWSTYLE
350
72E
  3
ACAD_GROUP
350
D
  3
ACAD_LAYOUT
350
1A
  3
ACAD_MATERIAL
350
6E1
  3
ACAD_MLEADERSTYLE
350
6E7
  3
ACAD_MLINESTYLE
350
17
  3
ACAD_PLOTSETTINGS
350
19
  3
ACAD_PLOTSTYLENAME
350
E
  3
ACAD_SCALELIST
350
6A2
  3
ACAD_SECTIONVIEWSTYLE
350
72F
  3
ACAD_TABLESTYLE
350
6E5
  3
ACAD_VISUALSTYLE
350
6C8
  3
ACDB_RECOMPOSE_DATA
350
72A
  3
AcDbVariableDictionary
350
6EB
  0
DICTIONARY
  5
6E9
330
8
100
AcDbDictionary
280
     1
281
     1
  3
ACAD_XREC_ROUNDTRIP
360
6EA
  0
DICTIONARY
  5
72E
102
{ACAD_REACTORS
330
C
102
}
330
C
100
AcDbDictionary
281
     1
  0
DICTIONARY
  5
D
102
{ACAD_REACTORS
330
C
102
}
330
C
100
AcDbDictionary
281
     1
  0
DICTIONARY
  5
1A
102
{ACAD_REACTORS
330
C
102
}
330
C
100
AcDbDictionary
281
     1
  3
Layout1
350
1C
  3
Model
350
1E
  0
DICTIONARY
  5
6E1
102
{ACAD_REACTORS
330
C
102
}
330
C
100
AcDbDictionary
281
     1
  3
ByBlock
350
6E3
  3
ByLayer
350
6E2
  3
Global
350
6E4
  0
DICTIONARY
  5
6E7
102
{ACAD_REACTORS
330
C
102
}
330
C
100
AcDbDictionary
281
     1
  3
Standard
350
6E8
  0
DICTIONARY
  5
17
102
{ACAD_REACTORS
330
C
102
}
330
C
100
AcDbDictionary
281
     1
  3
Standard
350
18
  0
DICTIONARY
  5
19
102
{ACAD_REACTORS
330
C
102
}
330
C
100
AcDbDictionary
281
     1
  0
ACDBDICTIONARYWDFLT
  5
E
102
{ACAD_REACTORS
330
C
102
}
330
C
100
AcDbDictionary
281
     1
  3
Normal
350
F
100
AcDbDictionaryWithDefault
340
F
  0
DICTIONARY
  5
6A2
102
{ACAD_REACTORS
330
C
102
}
330
C
100
AcDbDictionary
281
     1
  3
A0
350
6A3
  3
A1
350
6A4
  3
A2
350
6A5
  3
A3
350
6A6
  3
A4
350
6A7
  3
A5
350
6A8
  3
A6
350
6A9
  3
A7
350
6AA
  3
A8
350
6AB
  3
A9
350
6AC
  3
B0
350
6AD
  3
B1
350
6AE
  3
B2
350
6AF
  3
B3
350
6B0
  3
B4
350
6B1
  3
B5
350
6B2
  3
B6
350
6B3
  3
B7
350
6B4
  3
B8
350
6B5
  3
B9
350
6B6
  3
C0
350
6B7
  3
C1
350
6B8
  3
C2
350
6B9
  3
C3
350
6BA
  3
C4
350
6BB
  3
C5
350
6BC
  3
C6
350
6BD
  3
C7
350
6BE
  3
C8
350
6BF
  3
C9
350
6C0
  3
D0
350
6C1
  3
D1
350
6C2
  3
D2
350
6C3
  0
DICTIONARY
  5
72F
102
{ACAD_REACTORS
330
C
102
}
330
C
100
AcDbDictionary
281
     1
  0
DICTIONARY
  5
6E5
102
{ACAD_REACTORS
330
C
102
}
330
C
100
AcDbDictionary
281
     1
  3
Standard
350
6E6
  0
DICTIONARY
  5
6C8
102
{ACAD_REACTORS
330
C
102
}
330
C
100
AcDbDictionary
281
     1
  3
2dWireframe
350
6CD
  3
Basic
350
6D0
  3
Brighten
350
6D4
  3
ColorChange
350
6D8
  3
Conceptual
350
6D2
  3
Dim
350
6D3
  3
EdgeColorOff
350
6DB
  3
Facepattern
350
6D7
  3
Flat
350
6C9
  3
FlatWithEdges
350
6CA
  3
Gouraud
350
6CB
  3
GouraudWithEdges
350
6CC
  3
Hidden
350
6CF
  3
JitterOff
350
6D9
  3
Linepattern
350
6D6
  3
OverhangOff
350
6DA
  3
Realistic
350
6D1
  3
Shaded
350
6E0
  3
Shaded with edges
350
6DF
  3
Shades of Gray
350
6DC
  3
Sketchy
350
6DD
  3
Thicken
350
6D5
  3
Wireframe
350
6CE
  3
X-Ray
350
6DE
  0
XRECORD
  5
72A
102
{ACAD_REACTORS
330
C
102
}
330
C
100
AcDbXrecord
280
     1
 90
        1
330
6E6
  0
DICTIONARY
  5
6EB
102
{ACAD_REACTORS
330
C
102
}
330
C
100
AcDbDictionary
281
     1
  3
CANNOSCALE
350
6EC
  3
CMLEADERSTYLE
350
72C
  3
CTABLESTYLE
350
72B
  3
MSLTSCALE
350
72D
  3
XCLIPFRAME
350
6ED
  0
XRECORD
  5
6EA
102
{ACAD_REACTORS
330
6E9
102
}
330
6E9
100
AcDbXrecord
280
     1
102
VTR_0.000_0.000_1.000_1.000_VISUALSTYLE
340
6CD
102
VTR_0.000_0.000_1.000_1.000_GRIDDISPLAY
 70
     3
102
VTR_0.000_0.000_1.000_1.000_GRIDMAJOR
 70
     5
102
VTR_0.000_0.000_1.000_1.000_DEFAULTLIGHTING
280
     1
102
VTR_0.000_0.000_1.000_1.000_DEFAULTLIGHTINGTYPE
 70
     1
102
VTR_0.000_0.000_1.000_1.000_BRIGHTNESS
141
0.0
102
VTR_0.000_0.000_1.000_1.000_CONTRAST
142
0.0
  0
LAYOUT
  5
1C
102
{ACAD_REACTORS
330
1A
102
}
330
1A
100
AcDbPlotSettings
  1

  2
none_device
  4

  6

 40
0.0
 41
0.0
 42
0.0
 43
0.0
 44
0.0
 45
0.0
 46
0.0
 47
0.0
 48
0.0
 49
0.0
140
0.0
141
0.0
142
1.0
143
1.0
 70
   688
 72
     0
 73
     0
 74
     5
  7

 75
    16
 76
     0
 77
     2
 78
   300
147
1.0
148
0.0
149
0.0
100
AcDbLayout
  1
Layout1
 70
     1
 71
     1
 10
0.0
 20
0.0
 11
12.0
 21
9.0
 12
0.0
 22
0.0
 32
0.0
 14
1.000000000000000E+20
 24
1.000000000000000E+20
 34
1.000000000000000E+20
 15
-1.000000000000000E+20
 25
-1.000000000000000E+20
 35
-1.000000000000000E+20
146
0.0
 13
0.0
 23
0.0
 33
0.0
 16
1.0
 26
0.0
 36
0.0
 17
0.0
 27
1.0
 37
0.0
 76
     0
330
1B
  0
LAYOUT
  5
1E
102
{ACAD_REACTORS
330
1A
102
}
330
1A
100
AcDbPlotSettings
  1

  2
none_device
  4
Letter_(8.50_x_11.00_Inches)
  6

 40
6.35
 41
6.35
 42
6.35000508
 43
6.35000508
 44
215.9
 45
279.4
 46
0.0
 47
0.0
 48
0.0
 49
0.0
140
0.0
141
0.0
142
1.0
143
1.0
 70
  1712
 72
     0
 73
     0
 74
     0
  7

 75
     0
 76
     0
 77
     2
 78
   300
147
1.0
148
0.0
149
0.0
100
AcDbLayout
  1
Model
 70
     1
 71
     0
 10
0.0
 20
0.0
 11
12.0
 21
9.0
 12
0.0
 22
0.0
 32
0.0
 14
0.0
 24
0.0
 34
0.0
 15
47.7144
 25
83.1618
 35
0.0
146
0.0
 13
0.0
 23
0.0
 33
0.0
 16
1.0
 26
0.0
 36
0.0
 17
0.0
 27
1.0
 37
0.0
 76
     0
330
1D
331
21
  0
MATERIAL
  5
6E3
102
{ACAD_REACTORS
330
6E1
102
}
102
{ACAD_XDICTIONARY
360
720
102
}
330
6E1
100
AcDbMaterial
  1
ByBlock
  0
MATERIAL
  5
6E2
102
{ACAD_REACTORS
330
6E1
102
}
102
{ACAD_XDICTIONARY
360
71E
102
}
330
6E1
100
AcDbMaterial
  1
ByLayer
  0
MATERIAL
  5
6E4
102
{ACAD_REACTORS
330
6E1
102
}
102
{ACAD_XDICTIONARY
360
722
102
}
330
6E1
100
AcDbMaterial
  1
Global
  0
MLEADERSTYLE
  5
6E8
102
{ACAD_REACTORS
330
6E7
102
}
102
{ACAD_XDICTIONARY
360
728
102
}
330
6E7
100
AcDbMLeaderStyle
170
     2
171
     1
172
     0
 90
        2
 40
0.0
 41
0.0
173
     1
 91
-1056964608
340
14
 92
       -2
290
     1
 42
0.09
291
     1
 43
0.36
  3
Standard
341
0
 44
0.18
300

342
11
174
     1
178
     6
175
     1
176
     0
 93
-1056964608
 45
0.18
292
     0
297
     0
 46
0.18
343
0
 94
-1056964608
 47
1.0
 49
1.0
140
1.0
293
     1
141
0.0
294
     1
177
     0
142
1.0
295
     0
296
     0
143
0.125
1001
ACAD_MLEADERVER
1070
     2
  0
MLINESTYLE
  5
18
102
{ACAD_REACTORS
330
17
102
}
330
17
100
AcDbMlineStyle
  2
Standard
 70
     0
  3

 62
   256
 51
90.0
 52
90.0
 71
     2
 49
0.5
 62
   256
  6
BYLAYER
 49
-0.5
 62
   256
  6
BYLAYER
  0
ACDBPLACEHOLDER
  5
F
102
{ACAD_REACTORS
330
E
102
}
330
E
  0
SCALE
  5
6A3
102
{ACAD_REACTORS
330
6A2
102
}
330
6A2
100
AcDbScale
 70
     0
300
1:1
140
1.0
141
1.0
290
     1
  0
SCALE
  5
6A4
102
{ACAD_REACTORS
330
6A2
102
}
330
6A2
100
AcDbScale
 70
     0
300
1:2
140
1.0
141
2.0
290
     0
  0
SCALE
  5
6A5
102
{ACAD_REACTORS
330
6A2
102
}
330
6A2
100
AcDbScale
 70
     0
300
1:4
140
1.0
141
4.0
290
     0
  0
SCALE
  5
6A6
102
{ACAD_REACTORS
330
6A2
102
}
330
6A2
100
AcDbScale
 70
     0
300
1:5
140
1.0
141
5.0
290
     0
  0
SCALE
  5
6A7
102
{ACAD_REACTORS
330
6A2
102
}
330
6A2
100
AcDbScale
 70
     0
300
1:8
140
1.0
141
8.0
290
     0
  0
SCALE
  5
6A8
102
{ACAD_REACTORS
330
6A2
102
}
330
6A2
100
AcDbScale
 70
     0
300
1:10
140
1.0
141
10.0
290
     0
  0
SCALE
  5
6A9
102
{ACAD_REACTORS
330
6A2
102
}
330
6A2
100
AcDbScale
 70
     0
300
1:16
140
1.0
141
16.0
290
     0
  0
SCALE
  5
6AA
102
{ACAD_REACTORS
330
6A2
102
}
330
6A2
100
AcDbScale
 70
     0
300
1:20
140
1.0
141
20.0
290
     0
  0
SCALE
  5
6AB
102
{ACAD_REACTORS
330
6A2
102
}
330
6A2
100
AcDbScale
 70
     0
300
1:30
140
1.0
141
30.0
290
     0
  0
SCALE
  5
6AC
102
{ACAD_REACTORS
330
6A2
102
}
330
6A2
100
AcDbScale
 70
     0
300
1:40
140
1.0
141
40.0
290
     0
  0
SCALE
  5
6AD
102
{ACAD_REACTORS
330
6A2
102
}
330
6A2
100
AcDbScale
 70
     0
300
1:50
140
1.0
141
50.0
290
     0
  0
SCALE
  5
6AE
102
{ACAD_REACTORS
330
6A2
102
}
330
6A2
100
AcDbScale
 70
     0
300
1:100
140
1.0
141
100.0
290
     0
  0
SCALE
  5
6AF
102
{ACAD_REACTORS
330
6A2
102
}
330
6A2
100
AcDbScale
 70
     0
300
2:1
140
2.0
141
1.0
290
     0
  0
SCALE
  5
6B0
102
{ACAD_REACTORS
330
6A2
102
}
330
6A2
100
AcDbScale
 70
     0
300
4:1
140
4.0
141
1.0
290
     0
  0
SCALE
  5
6B1
102
{ACAD_REACTORS
330
6A2
102
}
330
6A2
100
AcDbScale
 70
     0
300
8:1
140
8.0
141
1.0
290
     0
  0
SCALE
  5
6B2
102
{ACAD_REACTORS
330
6A2
102
}
330
6A2
100
AcDbScale
 70
     0
300
10:1
140
10.0
141
1.0
290
     0
  0
SCALE
  5
6B3
102
{ACAD_REACTORS
330
6A2
102
}
330
6A2
100
AcDbScale
 70
     0
300
100:1
140
100.0
141
1.0
290
     0
  0
SCALE
  5
6B4
102
{ACAD_REACTORS
330
6A2
102
}
330
6A2
100
AcDbScale
 70
     0
300
1/128\" = 1\'-0\"
140
0.0078125
141
12.0
290
     0
  0
SCALE
  5
6B5
102
{ACAD_REACTORS
330
6A2
102
}
330
6A2
100
AcDbScale
 70
     0
300
1/64\" = 1\'-0\"
140
0.015625
141
12.0
290
     0
  0
SCALE
  5
6B6
102
{ACAD_REACTORS
330
6A2
102
}
330
6A2
100
AcDbScale
 70
     0
300
1/32\" = 1\'-0\"
140
0.03125
141
12.0
290
     0
  0
SCALE
  5
6B7
102
{ACAD_REACTORS
330
6A2
102
}
330
6A2
100
AcDbScale
 70
     0
300
1/16\" = 1\'-0\"
140
0.0625
141
12.0
290
     0
  0
SCALE
  5
6B8
102
{ACAD_REACTORS
330
6A2
102
}
330
6A2
100
AcDbScale
 70
     0
300
3/32\" = 1\'-0\"
140
0.09375
141
12.0
290
     0
  0
SCALE
  5
6B9
102
{ACAD_REACTORS
330
6A2
102
}
330
6A2
100
AcDbScale
 70
     0
300
1/8\" = 1\'-0\"
140
0.125
141
12.0
290
     0
  0
SCALE
  5
6BA
102
{ACAD_REACTORS
330
6A2
102
}
330
6A2
100
AcDbScale
 70
     0
300
3/16\" = 1\'-0\"
140
0.1875
141
12.0
290
     0
  0
SCALE
  5
6BB
102
{ACAD_REACTORS
330
6A2
102
}
330
6A2
100
AcDbScale
 70
     0
300
1/4\" = 1\'-0\"
140
0.25
141
12.0
290
     0
  0
SCALE
  5
6BC
102
{ACAD_REACTORS
330
6A2
102
}
330
6A2
100
AcDbScale
 70
     0
300
3/8\" = 1\'-0\"
140
0.375
141
12.0
290
     0
  0
SCALE
  5
6BD
102
{ACAD_REACTORS
330
6A2
102
}
330
6A2
100
AcDbScale
 70
     0
300
1/2\" = 1\'-0\"
140
0.5
141
12.0
290
     0
  0
SCALE
  5
6BE
102
{ACAD_REACTORS
330
6A2
102
}
330
6A2
100
AcDbScale
 70
     0
300
3/4\" = 1\'-0\"
140
0.75
141
12.0
290
     0
  0
SCALE
  5
6BF
102
{ACAD_REACTORS
330
6A2
102
}
330
6A2
100
AcDbScale
 70
     0
300
1\" = 1\'-0\"
140
1.0
141
12.0
290
     0
  0
SCALE
  5
6C0
102
{ACAD_REACTORS
330
6A2
102
}
330
6A2
100
AcDbScale
 70
     0
300
1-1/2\" = 1\'-0\"
140
1.5
141
12.0
290
     0
  0
SCALE
  5
6C1
102
{ACAD_REACTORS
330
6A2
102
}
330
6A2
100
AcDbScale
 70
     0
300
3\" = 1\'-0\"
140
3.0
141
12.0
290
     0
  0
SCALE
  5
6C2
102
{ACAD_REACTORS
330
6A2
102
}
330
6A2
100
AcDbScale
 70
     0
300
6\" = 1\'-0\"
140
6.0
141
12.0
290
     0
  0
SCALE
  5
6C3
102
{ACAD_REACTORS
330
6A2
102
}
330
6A2
100
AcDbScale
 70
     0
300
1\'-0\" = 1\'-0\"
140
12.0
141
12.0
290
     0
  0
TABLESTYLE
  5
6E6
102
{ACAD_REACTORS
330
6E5
102
}
102
{ACAD_XDICTIONARY
360
724
102
}
330
6E5
100
AcDbTableStyle
  3
Standard
 70
     0
 71
     0
 40
0.06
 41
0.06
280
     0
281
     0
  7
Standard
140
0.18
170
     2
 62
     0
 63
   257
283
     0
274
    -2
284
     1
 64
     0
275
    -2
285
     1
 65
     0
276
    -2
286
     1
 66
     0
277
    -2
287
     1
 67
     0
278
    -2
288
     1
 68
     0
279
    -2
289
     1
 69
     0
  7
Standard
140
0.25
170
     5
 62
     0
 63
   257
283
     0
274
    -2
284
     1
 64
     0
275
    -2
285
     1
 65
     0
276
    -2
286
     1
 66
     0
277
    -2
287
     1
 67
     0
278
    -2
288
     1
 68
     0
279
    -2
289
     1
 69
     0
  7
Standard
140
0.18
170
     5
 62
     0
 63
   257
283
     0
274
    -2
284
     1
 64
     0
275
    -2
285
     1
 65
     0
276
    -2
286
     1
 66
     0
277
    -2
287
     1
 67
     0
278
    -2
288
     1
 68
     0
279
    -2
289
     1
 69
     0
  0
VISUALSTYLE
  5
6CD
102
{ACAD_REACTORS
330
6C8
102
}
102
{ACAD_XDICTIONARY
360
6F6
102
}
330
6C8
100
AcDbVisualStyle
  2
2dWireframe
 70
     4
 71
     0
 72
     2
 73
     0
 90
        0
 40
0.6
 41
30.0
 62
     5
 63
     7
421
 16777215
 74
     1
 91
        4
 64
     7
 65
   257
 75
     1
175
     1
 42
1.0
 92
        0
 66
   257
 43
1.0
 76
     1
 77
     6
 78
     2
 67
     7
 79
     5
170
     0
171
     0
290
     0
174
     0
 93
        1
 44
0.0
173
     0
291
     0
 45
0.0
1001
ACAD
1000
AcDbSavedByObjectVersion
1070
     0
  0
VISUALSTYLE
  5
6D0
102
{ACAD_REACTORS
330
6C8
102
}
102
{ACAD_XDICTIONARY
360
6FC
102
}
330
6C8
100
AcDbVisualStyle
  2
Basic
 70
     7
 71
     1
 72
     0
 73
     1
 90
        0
 40
0.6
 41
30.0
 62
     5
 63
     7
421
 16777215
 74
     0
 91
        4
 64
     7
 65
   257
 75
     1
175
     1
 42
1.0
 92
        8
 66
     7
 43
1.0
 76
     1
 77
     6
 78
     2
 67
     7
 79
     5
170
     0
171
     0
290
     0
174
     0
 93
        1
 44
0.0
173
     0
291
     1
 45
0.0
1001
ACAD
1000
AcDbSavedByObjectVersion
1070
     0
  0
VISUALSTYLE
  5
6D4
102
{ACAD_REACTORS
330
6C8
102
}
102
{ACAD_XDICTIONARY
360
704
102
}
330
6C8
100
AcDbVisualStyle
  2
Brighten
 70
    12
 71
     2
 72
     2
 73
     0
 90
        0
 40
0.6
 41
30.0
 62
     5
 63
     7
421
 16777215
 74
     1
 91
        4
 64
     7
 65
   257
 75
     1
175
     1
 42
1.0
 92
        8
 66
     7
 43
1.0
 76
     1
 77
     6
 78
     2
 67
     7
 79
     5
170
     0
171
     0
290
     0
174
     0
 93
        1
 44
50.0
173
     0
291
     1
 45
0.0
1001
ACAD
1000
AcDbSavedByObjectVersion
1070
     0
  0
VISUALSTYLE
  5
6D8
102
{ACAD_REACTORS
330
6C8
102
}
102
{ACAD_XDICTIONARY
360
70C
102
}
330
6C8
100
AcDbVisualStyle
  2
ColorChange
 70
    16
 71
     2
 72
     2
 73
     3
 90
        0
 40
0.6
 41
30.0
 62
     5
 63
     8
421
  8421504
 74
     1
 91
        4
 64
     7
 65
   257
 75
     1
175
     1
 42
1.0
 92
        8
 66
     8
424
  8421504
 43
1.0
 76
     1
 77
     6
 78
     2
 67
     7
 79
     5
170
     0
171
     0
290
     0
174
     0
 93
        1
 44
0.0
173
     0
291
     1
 45
0.0
1001
ACAD
1000
AcDbSavedByObjectVersion
1070
     0
  0
VISUALSTYLE
  5
6D2
102
{ACAD_REACTORS
330
6C8
102
}
102
{ACAD_XDICTIONARY
360
700
102
}
330
6C8
100
AcDbVisualStyle
  2
Conceptual
 70
     9
 71
     3
 72
     2
 73
     0
 90
        0
 40
0.6
 41
30.0
 62
     5
 63
     7
421
 16777215
 74
     2
 91
        2
 64
     7
 65
   257
 75
     1
175
     1
 42
179.0
 92
        8
 66
     7
 43
1.0
 76
     1
 77
     6
 78
     2
 67
     7
 79
     3
170
     0
171
     0
290
     0
174
     0
 93
        1
 44
0.0
173
     0
291
     0
 45
0.0
1001
ACAD
1000
AcDbSavedByObjectVersion
1070
     0
  0
VISUALSTYLE
  5
6D3
102
{ACAD_REACTORS
330
6C8
102
}
102
{ACAD_XDICTIONARY
360
702
102
}
330
6C8
100
AcDbVisualStyle
  2
Dim
 70
    11
 71
     2
 72
     2
 73
     0
 90
        0
 40
0.6
 41
30.0
 62
     5
 63
     7
421
 16777215
 74
     1
 91
        4
 64
     7
 65
   257
 75
     1
175
     1
 42
1.0
 92
        8
 66
     7
 43
1.0
 76
     1
 77
     6
 78
     2
 67
     7
 79
     5
170
     0
171
     0
290
     0
174
     0
 93
        1
 44
-50.0
173
     0
291
     1
 45
0.0
1001
ACAD
1000
AcDbSavedByObjectVersion
1070
     0
  0
VISUALSTYLE
  5
6DB
102
{ACAD_REACTORS
330
6C8
102
}
102
{ACAD_XDICTIONARY
360
712
102
}
330
6C8
100
AcDbVisualStyle
  2
EdgeColorOff
 70
    22
 71
     2
 72
     2
 73
     0
 90
        0
 40
0.6
 41
30.0
 62
     5
 63
     7
421
 16777215
 74
     1
 91
        4
 64
     7
 65
   257
 75
     1
175
     1
 42
1.0
 92
        8
 66
     7
 43
1.0
 76
     1
 77
     6
 78
     2
 67
     7
 79
     5
170
     0
171
     0
290
     0
174
     0
 93
        1
 44
0.0
173
     0
291
     1
 45
0.0
1001
ACAD
1000
AcDbSavedByObjectVersion
1070
     0
  0
VISUALSTYLE
  5
6D7
102
{ACAD_REACTORS
330
6C8
102
}
102
{ACAD_XDICTIONARY
360
70A
102
}
330
6C8
100
AcDbVisualStyle
  2
Facepattern
 70
    15
 71
     2
 72
     2
 73
     0
 90
        0
 40
0.6
 41
30.0
 62
     5
 63
     7
421
 16777215
 74
     1
 91
        4
 64
     7
 65
   257
 75
     1
175
     1
 42
1.0
 92
        8
 66
     7
 43
1.0
 76
     1
 77
     6
 78
     2
 67
     7
 79
     5
170
     0
171
     0
290
     0
174
     0
 93
        1
 44
0.0
173
     0
291
     1
 45
0.0
1001
ACAD
1000
AcDbSavedByObjectVersion
1070
     0
  0
VISUALSTYLE
  5
6C9
102
{ACAD_REACTORS
330
6C8
102
}
102
{ACAD_XDICTIONARY
360
6EE
102
}
330
6C8
100
AcDbVisualStyle
  2
Flat
 70
     0
 71
     2
 72
     1
 73
     1
 90
        2
 40
0.6
 41
30.0
 62
     5
 63
     7
421
 16777215
 74
     0
 91
        0
 64
     7
 65
   257
 75
     1
175
     1
 42
1.0
 92
        8
 66
     7
 43
1.0
 76
     1
 77
     6
 78
     2
 67
     7
 79
     5
170
     0
171
     0
290
     0
174
     0
 93
       13
 44
0.0
173
     0
291
     1
 45
0.0
1001
ACAD
1000
AcDbSavedByObjectVersion
1070
     0
  0
VISUALSTYLE
  5
6CA
102
{ACAD_REACTORS
330
6C8
102
}
102
{ACAD_XDICTIONARY
360
6F0
102
}
330
6C8
100
AcDbVisualStyle
  2
FlatWithEdges
 70
     1
 71
     2
 72
     1
 73
     1
 90
        2
 40
0.6
 41
30.0
 62
     5
 63
     7
421
 16777215
 74
     1
 91
        0
 64
     7
 65
   257
 75
     1
175
     1
 42
1.0
 92
        0
 66
   257
 43
1.0
 76
     1
 77
     6
 78
     2
 67
     7
 79
     5
170
     0
171
     0
290
     0
174
     0
 93
       13
 44
0.0
173
     0
291
     1
 45
0.0
1001
ACAD
1000
AcDbSavedByObjectVersion
1070
     0
  0
VISUALSTYLE
  5
6CB
102
{ACAD_REACTORS
330
6C8
102
}
102
{ACAD_XDICTIONARY
360
6F2
102
}
330
6C8
100
AcDbVisualStyle
  2
Gouraud
 70
     2
 71
     2
 72
     2
 73
     1
 90
        2
 40
0.6
 41
30.0
 62
     5
 63
     7
421
 16777215
 74
     0
 91
        0
 64
     7
 65
   257
 75
     1
175
     1
 42
1.0
 92
        0
 66
     7
 43
1.0
 76
     1
 77
     6
 78
     2
 67
     7
 79
     5
170
     0
171
     0
290
     0
174
     0
 93
       13
 44
0.0
173
     0
291
     1
 45
0.0
1001
ACAD
1000
AcDbSavedByObjectVersion
1070
     0
  0
VISUALSTYLE
  5
6CC
102
{ACAD_REACTORS
330
6C8
102
}
102
{ACAD_XDICTIONARY
360
6F4
102
}
330
6C8
100
AcDbVisualStyle
  2
GouraudWithEdges
 70
     3
 71
     2
 72
     2
 73
     1
 90
        2
 40
0.6
 41
30.0
 62
     5
 63
     7
421
 16777215
 74
     1
 91
        0
 64
     7
 65
   257
 75
     1
175
     1
 42
1.0
 92
        0
 66
   257
 43
1.0
 76
     1
 77
     6
 78
     2
 67
     7
 79
     5
170
     0
171
     0
290
     0
174
     0
 93
       13
 44
0.0
173
     0
291
     1
 45
0.0
1001
ACAD
1000
AcDbSavedByObjectVersion
1070
     0
  0
VISUALSTYLE
  5
6CF
102
{ACAD_REACTORS
330
6C8
102
}
102
{ACAD_XDICTIONARY
360
6FA
102
}
330
6C8
100
AcDbVisualStyle
  2
Hidden
 70
     6
 71
     1
 72
     2
 73
     2
 90
        0
 40
0.6
 41
30.0
 62
     5
 63
     7
421
 16777215
 74
     2
 91
        2
 64
     7
 65
   257
 75
     2
175
     1
 42
40.0
 92
        0
 66
   257
 43
1.0
 76
     1
 77
     6
 78
     2
 67
     7
 79
     3
170
     0
171
     0
290
     0
174
     0
 93
        1
 44
0.0
173
     0
291
     0
 45
0.0
1001
ACAD
1000
AcDbSavedByObjectVersion
1070
     0
  0
VISUALSTYLE
  5
6D9
102
{ACAD_REACTORS
330
6C8
102
}
102
{ACAD_XDICTIONARY
360
70E
102
}
330
6C8
100
AcDbVisualStyle
  2
JitterOff
 70
    20
 71
     2
 72
     2
 73
     0
 90
        0
 40
0.6
 41
30.0
 62
     5
 63
     7
421
 16777215
 74
     1
 91
        4
 64
     7
 65
   257
 75
     1
175
     1
 42
1.0
 92
       10
 66
     7
 43
1.0
 76
     1
 77
     6
 78
     2
 67
     7
 79
     5
170
     0
171
     0
290
     0
174
     0
 93
        1
 44
0.0
173
     0
291
     1
 45
0.0
1001
ACAD
1000
AcDbSavedByObjectVersion
1070
     0
  0
VISUALSTYLE
  5
6D6
102
{ACAD_REACTORS
330
6C8
102
}
102
{ACAD_XDICTIONARY
360
708
102
}
330
6C8
100
AcDbVisualStyle
  2
Linepattern
 70
    14
 71
     2
 72
     2
 73
     0
 90
        0
 40
0.6
 41
30.0
 62
     5
 63
     7
421
 16777215
 74
     1
 91
        4
 64
     7
 65
   257
 75
     7
175
     7
 42
1.0
 92
        8
 66
     7
 43
1.0
 76
     1
 77
     6
 78
     2
 67
     7
 79
     5
170
     0
171
     0
290
     0
174
     0
 93
        1
 44
0.0
173
     0
291
     1
 45
0.0
1001
ACAD
1000
AcDbSavedByObjectVersion
1070
     0
  0
VISUALSTYLE
  5
6DA
102
{ACAD_REACTORS
330
6C8
102
}
102
{ACAD_XDICTIONARY
360
710
102
}
330
6C8
100
AcDbVisualStyle
  2
OverhangOff
 70
    21
 71
     2
 72
     2
 73
     0
 90
        0
 40
0.6
 41
30.0
 62
     5
 63
     7
421
 16777215
 74
     1
 91
        4
 64
     7
 65
   257
 75
     1
175
     1
 42
1.0
 92
        9
 66
     7
 43
1.0
 76
     1
 77
     6
 78
     2
 67
     7
 79
     5
170
     0
171
     0
290
     0
174
     0
 93
        1
 44
0.0
173
     0
291
     1
 45
0.0
1001
ACAD
1000
AcDbSavedByObjectVersion
1070
     0
  0
VISUALSTYLE
  5
6D1
102
{ACAD_REACTORS
330
6C8
102
}
102
{ACAD_XDICTIONARY
360
6FE
102
}
330
6C8
100
AcDbVisualStyle
  2
Realistic
 70
     8
 71
     2
 72
     3
 73
     0
 90
        2
 40
0.6
 41
30.0
 62
     5
 63
     7
421
 16777215
 74
     0
 91
        0
 64
     7
 65
   257
 75
     1
175
     1
 42
1.0
 92
        8
 66
   257
 43
1.0
 76
     1
 77
     6
 78
     2
 67
     7
 79
     3
170
     0
171
     0
290
     0
174
     0
 93
       13
 44
0.0
173
     0
291
     0
 45
0.0
1001
ACAD
1000
AcDbSavedByObjectVersion
1070
     0
  0
VISUALSTYLE
  5
6E0
102
{ACAD_REACTORS
330
6C8
102
}
102
{ACAD_XDICTIONARY
360
71C
102
}
330
6C8
100
AcDbVisualStyle
  2
Shaded
 70
    27
 71
     2
 72
     2
 73
     1
 90
        2
 40
0.6
 41
30.0
 62
     5
 63
     7
421
 16777215
 74
     0
 91
        4
 64
     7
 65
   257
 75
     1
175
     1
 42
1.0
 92
        8
 66
   257
 43
1.0
 76
     1
 77
     6
 78
     2
 67
     8
425
  7895160
 79
     3
170
     0
171
     0
290
     0
174
     0
 93
        5
 44
0.0
173
     0
291
     0
 45
0.0
1001
ACAD
1000
AcDbSavedByObjectVersion
1070
     0
  0
VISUALSTYLE
  5
6DF
102
{ACAD_REACTORS
330
6C8
102
}
102
{ACAD_XDICTIONARY
360
71A
102
}
330
6C8
100
AcDbVisualStyle
  2
Shaded with edges
 70
    26
 71
     2
 72
     2
 73
     1
 90
        2
 40
0.6
 41
30.0
 62
     5
 63
     7
421
 16777215
 74
     1
 91
       10
 64
     7
 65
   257
 75
     2
175
     1
 42
1.0
 92
        8
 66
   257
 43
1.0
 76
     1
 77
     6
 78
     2
 67
     7
 79
     3
170
     0
171
     0
290
     0
174
     0
 93
        5
 44
0.0
173
     0
291
     0
 45
0.0
1001
ACAD
1000
AcDbSavedByObjectVersion
1070
     0
  0
VISUALSTYLE
  5
6DC
102
{ACAD_REACTORS
330
6C8
102
}
102
{ACAD_XDICTIONARY
360
714
102
}
330
6C8
100
AcDbVisualStyle
  2
Shades of Gray
 70
    23
 71
     2
 72
     2
 73
     3
 90
        0
 40
0.6
 41
30.0
 62
     5
 63
     7
421
 16777215
 74
     2
 91
        2
 64
     7
 65
     7
 75
     1
175
     1
 42
40.0
 92
        8
 66
     7
 43
1.0
 76
     1
 77
     6
 78
     2
 67
     7
 79
     3
170
     0
171
     0
290
     0
174
     0
 93
        1
 44
0.0
173
     0
291
     0
 45
0.0
1001
ACAD
1000
AcDbSavedByObjectVersion
1070
     0
  0
VISUALSTYLE
  5
6DD
102
{ACAD_REACTORS
330
6C8
102
}
102
{ACAD_XDICTIONARY
360
716
102
}
330
6C8
100
AcDbVisualStyle
  2
Sketchy
 70
    24
 71
     1
 72
     2
 73
     2
 90
        0
 40
0.6
 41
30.0
 62
     5
 63
     7
421
 16777215
 74
     2
 91
        2
 64
     7
 65
     7
 75
     1
175
     1
 42
40.0
 92
       11
 66
     7
 43
1.0
 76
     1
 77
     6
 78
     2
 67
     7
 79
     6
170
     0
171
     0
290
     0
174
     0
 93
        1
 44
0.0
173
     0
291
     0
 45
0.0
1001
ACAD
1000
AcDbSavedByObjectVersion
1070
     0
  0
VISUALSTYLE
  5
6D5
102
{ACAD_REACTORS
330
6C8
102
}
102
{ACAD_XDICTIONARY
360
706
102
}
330
6C8
100
AcDbVisualStyle
  2
Thicken
 70
    13
 71
     2
 72
     2
 73
     0
 90
        0
 40
0.6
 41
30.0
 62
     5
 63
     7
421
 16777215
 74
     1
 91
        4
 64
     7
 65
   257
 75
     1
175
     1
 42
1.0
 92
       12
 66
     7
 43
1.0
 76
     1
 77
     6
 78
     2
 67
     7
 79
     5
170
     0
171
     0
290
     0
174
     0
 93
        1
 44
0.0
173
     0
291
     1
 45
0.0
1001
ACAD
1000
AcDbSavedByObjectVersion
1070
     0
  0
VISUALSTYLE
  5
6CE
102
{ACAD_REACTORS
330
6C8
102
}
102
{ACAD_XDICTIONARY
360
6F8
102
}
330
6C8
100
AcDbVisualStyle
  2
Wireframe
 70
     5
 71
     0
 72
     2
 73
     0
 90
        0
 40
0.6
 41
30.0
 62
     5
 63
     7
421
 16777215
 74
     1
 91
        4
 64
     7
 65
   257
 75
     1
175
     1
 42
1.0
 92
        0
 66
   257
 43
1.0
 76
     1
 77
     6
 78
     2
 67
     7
 79
     3
170
     0
171
     0
290
     0
174
     0
 93
        1
 44
0.0
173
     0
291
     0
 45
0.0
1001
ACAD
1000
AcDbSavedByObjectVersion
1070
     0
  0
VISUALSTYLE
  5
6DE
102
{ACAD_REACTORS
330
6C8
102
}
102
{ACAD_XDICTIONARY
360
718
102
}
330
6C8
100
AcDbVisualStyle
  2
X-Ray
 70
    25
 71
     2
 72
     2
 73
     1
 90
        1
 40
0.5
 41
30.0
 62
     5
 63
     7
421
 16777215
 74
     1
 91
        0
 64
     7
 65
   257
 75
     1
175
     1
 42
1.0
 92
        8
 66
     7
 43
1.0
 76
     1
 77
     6
 78
     2
 67
     7
 79
     3
170
     0
171
     0
290
     0
174
     0
 93
       13
 44
0.0
173
     0
291
     0
 45
0.0
1001
ACAD
1000
AcDbSavedByObjectVersion
1070
     0
  0
DICTIONARYVAR
  5
6EC
102
{ACAD_REACTORS
330
6EB
102
}
330
6EB
100
DictionaryVariables
280
     0
  1
1:1
  0
DICTIONARYVAR
  5
72C
102
{ACAD_REACTORS
330
6EB
102
}
330
6EB
100
DictionaryVariables
280
     0
  1
Standard
  0
DICTIONARYVAR
  5
72B
102
{ACAD_REACTORS
330
6EB
102
}
330
6EB
100
DictionaryVariables
280
     0
  1
Standard
  0
DICTIONARYVAR
  5
72D
102
{ACAD_REACTORS
330
6EB
102
}
330
6EB
100
DictionaryVariables
280
     0
  1
0
  0
DICTIONARYVAR
  5
6ED
102
{ACAD_REACTORS
330
6EB
102
}
330
6EB
100
DictionaryVariables
280
     0
  1
2
  0
DICTIONARY
  5
720
330
6E3
100
AcDbDictionary
280
     1
281
     1
  3
ACAD_XREC_ROUNDTRIP
360
721
  0
DICTIONARY
  5
71E
330
6E2
100
AcDbDictionary
280
     1
281
     1
  3
ACAD_XREC_ROUNDTRIP
360
71F
  0
DICTIONARY
  5
722
330
6E4
100
AcDbDictionary
280
     1
281
     1
  3
ACAD_XREC_ROUNDTRIP
360
723
  0
DICTIONARY
  5
728
330
6E8
100
AcDbDictionary
280
     1
281
     1
  3
ACAD_XREC_ROUNDTRIP
360
729
  0
DICTIONARY
  5
724
330
6E6
100
AcDbDictionary
280
     1
281
     1
  3
ACAD_ROUNDTRIP_2008_TABLESTYLE_CELLSTYLEMAP
360
726
  3
ACAD_XREC_ROUNDTRIP
360
725
  0
DICTIONARY
  5
6F6
330
6CD
100
AcDbDictionary
280
     1
281
     1
  3
ACAD_XREC_ROUNDTRIP
360
6F7
  0
DICTIONARY
  5
6FC
330
6D0
100
AcDbDictionary
280
     1
281
     1
  3
ACAD_XREC_ROUNDTRIP
360
6FD
  0
DICTIONARY
  5
704
330
6D4
100
AcDbDictionary
280
     1
281
     1
  3
ACAD_XREC_ROUNDTRIP
360
705
  0
DICTIONARY
  5
70C
330
6D8
100
AcDbDictionary
280
     1
281
     1
  3
ACAD_XREC_ROUNDTRIP
360
70D
  0
DICTIONARY
  5
700
330
6D2
100
AcDbDictionary
280
     1
281
     1
  3
ACAD_XREC_ROUNDTRIP
360
701
  0
DICTIONARY
  5
702
330
6D3
100
AcDbDictionary
280
     1
281
     1
  3
ACAD_XREC_ROUNDTRIP
360
703
  0
DICTIONARY
  5
712
330
6DB
100
AcDbDictionary
280
     1
281
     1
  3
ACAD_XREC_ROUNDTRIP
360
713
  0
DICTIONARY
  5
70A
330
6D7
100
AcDbDictionary
280
     1
281
     1
  3
ACAD_XREC_ROUNDTRIP
360
70B
  0
DICTIONARY
  5
6EE
330
6C9
100
AcDbDictionary
280
     1
281
     1
  3
ACAD_XREC_ROUNDTRIP
360
6EF
  0
DICTIONARY
  5
6F0
330
6CA
100
AcDbDictionary
280
     1
281
     1
  3
ACAD_XREC_ROUNDTRIP
360
6F1
  0
DICTIONARY
  5
6F2
330
6CB
100
AcDbDictionary
280
     1
281
     1
  3
ACAD_XREC_ROUNDTRIP
360
6F3
  0
DICTIONARY
  5
6F4
330
6CC
100
AcDbDictionary
280
     1
281
     1
  3
ACAD_XREC_ROUNDTRIP
360
6F5
  0
DICTIONARY
  5
6FA
330
6CF
100
AcDbDictionary
280
     1
281
     1
  3
ACAD_XREC_ROUNDTRIP
360
6FB
  0
DICTIONARY
  5
70E
330
6D9
100
AcDbDictionary
280
     1
281
     1
  3
ACAD_XREC_ROUNDTRIP
360
70F
  0
DICTIONARY
  5
708
330
6D6
100
AcDbDictionary
280
     1
281
     1
  3
ACAD_XREC_ROUNDTRIP
360
709
  0
DICTIONARY
  5
710
330
6DA
100
AcDbDictionary
280
     1
281
     1
  3
ACAD_XREC_ROUNDTRIP
360
711
  0
DICTIONARY
  5
6FE
330
6D1
100
AcDbDictionary
280
     1
281
     1
  3
ACAD_XREC_ROUNDTRIP
360
6FF
  0
DICTIONARY
  5
71C
330
6E0
100
AcDbDictionary
280
     1
281
     1
  3
ACAD_XREC_ROUNDTRIP
360
71D
  0
DICTIONARY
  5
71A
330
6DF
100
AcDbDictionary
280
     1
281
     1
  3
ACAD_XREC_ROUNDTRIP
360
71B
  0
DICTIONARY
  5
714
330
6DC
100
AcDbDictionary
280
     1
281
     1
  3
ACAD_XREC_ROUNDTRIP
360
715
  0
DICTIONARY
  5
716
330
6DD
100
AcDbDictionary
280
     1
281
     1
  3
ACAD_XREC_ROUNDTRIP
360
717
  0
DICTIONARY
  5
706
330
6D5
100
AcDbDictionary
280
     1
281
     1
  3
ACAD_XREC_ROUNDTRIP
360
707
  0
DICTIONARY
  5
6F8
330
6CE
100
AcDbDictionary
280
     1
281
     1
  3
ACAD_XREC_ROUNDTRIP
360
6F9
  0
DICTIONARY
  5
718
330
6DE
100
AcDbDictionary
280
     1
281
     1
  3
ACAD_XREC_ROUNDTRIP
360
719
  0
XRECORD
  5
721
102
{ACAD_REACTORS
330
720
102
}
330
720
100
AcDbXrecord
280
     1
102
MATERIAL
148
0.0
149
0.0
149
0.0
 93
        0
 94
      127
282
     0
 72
     1
 77
     1
171
     1
175
     1
179
     1
273
     0
  0
XRECORD
  5
71F
102
{ACAD_REACTORS
330
71E
102
}
330
71E
100
AcDbXrecord
280
     1
102
MATERIAL
148
0.0
149
0.0
149
0.0
 93
        0
 94
      127
282
     0
 72
     1
 77
     1
171
     1
175
     1
179
     1
273
     0
  0
XRECORD
  5
723
102
{ACAD_REACTORS
330
722
102
}
330
722
100
AcDbXrecord
280
     1
102
MATERIAL
148
0.0
149
0.0
149
0.0
 93
        0
 94
      127
282
     0
 72
     1
 77
     1
171
     1
175
     1
179
     1
273
     0
  0
XRECORD
  5
729
102
{ACAD_REACTORS
330
728
102
}
330
728
100
AcDbXrecord
280
     1
102
ACAD_ROUNDTRIP_2010_MLEADER_STYLE
  0
CELLSTYLEMAP
  5
726
102
{ACAD_REACTORS
330
724
102
}
330
724
100
AcDbCellStyleMap
 90
        3
300
CELLSTYLE
  1
TABLEFORMAT_BEGIN
 90
        5
170
     1
 91
        0
 92
    32768
 62
   257
 93
        1
300
CONTENTFORMAT
  1
CONTENTFORMAT_BEGIN
 90
        0
 91
        0
 92
        4
 93
        0
300

 40
0.0
140
1.0
 94
        5
 62
     0
340
11
144
0.25
309
CONTENTFORMAT_END
171
     1
301
MARGIN
  1
CELLMARGIN_BEGIN
 40
0.06
 40
0.06
 40
0.06
 40
0.06
 40
0.06
 40
0.06
309
CELLMARGIN_END
 94
        6
 95
        1
302
GRIDFORMAT
  1
GRIDFORMAT_BEGIN
 90
        0
 91
        1
 62
     0
 92
       -2
340
14
 93
        0
 40
0.045
309
GRIDFORMAT_END
 95
        2
302
GRIDFORMAT
  1
GRIDFORMAT_BEGIN
 90
        0
 91
        1
 62
     0
 92
       -2
340
14
 93
        0
 40
0.045
309
GRIDFORMAT_END
 95
        4
302
GRIDFORMAT
  1
GRIDFORMAT_BEGIN
 90
        0
 91
        1
 62
     0
 92
       -2
340
14
 93
        0
 40
0.045
309
GRIDFORMAT_END
 95
        8
302
GRIDFORMAT
  1
GRIDFORMAT_BEGIN
 90
        0
 91
        1
 62
     0
 92
       -2
340
14
 93
        0
 40
0.045
309
GRIDFORMAT_END
 95
       16
302
GRIDFORMAT
  1
GRIDFORMAT_BEGIN
 90
        0
 91
        1
 62
     0
 92
       -2
340
14
 93
        0
 40
0.045
309
GRIDFORMAT_END
 95
       32
302
GRIDFORMAT
  1
GRIDFORMAT_BEGIN
 90
        0
 91
        1
 62
     0
 92
       -2
340
14
 93
        0
 40
0.045
309
GRIDFORMAT_END
309
TABLEFORMAT_END
  1
CELLSTYLE_BEGIN
 90
        1
 91
        1
300
_TITLE
309
CELLSTYLE_END
300
CELLSTYLE
  1
TABLEFORMAT_BEGIN
 90
        5
170
     1
 91
        0
 92
        0
 62
   257
 93
        1
300
CONTENTFORMAT
  1
CONTENTFORMAT_BEGIN
 90
        0
 91
        0
 92
        4
 93
        0
300

 40
0.0
140
1.0
 94
        5
 62
     0
340
11
144
0.18
309
CONTENTFORMAT_END
171
     1
301
MARGIN
  1
CELLMARGIN_BEGIN
 40
0.06
 40
0.06
 40
0.06
 40
0.06
 40
0.06
 40
0.06
309
CELLMARGIN_END
 94
        6
 95
        1
302
GRIDFORMAT
  1
GRIDFORMAT_BEGIN
 90
        0
 91
        1
 62
     0
 92
       -2
340
14
 93
        0
 40
0.045
309
GRIDFORMAT_END
 95
        2
302
GRIDFORMAT
  1
GRIDFORMAT_BEGIN
 90
        0
 91
        1
 62
     0
 92
       -2
340
14
 93
        0
 40
0.045
309
GRIDFORMAT_END
 95
        4
302
GRIDFORMAT
  1
GRIDFORMAT_BEGIN
 90
        0
 91
        1
 62
     0
 92
       -2
340
14
 93
        0
 40
0.045
309
GRIDFORMAT_END
 95
        8
302
GRIDFORMAT
  1
GRIDFORMAT_BEGIN
 90
        0
 91
        1
 62
     0
 92
       -2
340
14
 93
        0
 40
0.045
309
GRIDFORMAT_END
 95
       16
302
GRIDFORMAT
  1
GRIDFORMAT_BEGIN
 90
        0
 91
        1
 62
     0
 92
       -2
340
14
 93
        0
 40
0.045
309
GRIDFORMAT_END
 95
       32
302
GRIDFORMAT
  1
GRIDFORMAT_BEGIN
 90
        0
 91
        1
 62
     0
 92
       -2
340
14
 93
        0
 40
0.045
309
GRIDFORMAT_END
309
TABLEFORMAT_END
  1
CELLSTYLE_BEGIN
 90
        2
 91
        1
300
_HEADER
309
CELLSTYLE_END
300
CELLSTYLE
  1
TABLEFORMAT_BEGIN
 90
        5
170
     1
 91
        0
 92
        0
 62
   257
 93
        1
300
CONTENTFORMAT
  1
CONTENTFORMAT_BEGIN
 90
        0
 91
        0
 92
        4
 93
        0
300

 40
0.0
140
1.0
 94
        2
 62
     0
340
11
144
0.18
309
CONTENTFORMAT_END
171
     1
301
MARGIN
  1
CELLMARGIN_BEGIN
 40
0.06
 40
0.06
 40
0.06
 40
0.06
 40
0.06
 40
0.06
309
CELLMARGIN_END
 94
        6
 95
        1
302
GRIDFORMAT
  1
GRIDFORMAT_BEGIN
 90
        0
 91
        1
 62
     0
 92
       -2
340
14
 93
        0
 40
0.045
309
GRIDFORMAT_END
 95
        2
302
GRIDFORMAT
  1
GRIDFORMAT_BEGIN
 90
        0
 91
        1
 62
     0
 92
       -2
340
14
 93
        0
 40
0.045
309
GRIDFORMAT_END
 95
        4
302
GRIDFORMAT
  1
GRIDFORMAT_BEGIN
 90
        0
 91
        1
 62
     0
 92
       -2
340
14
 93
        0
 40
0.045
309
GRIDFORMAT_END
 95
        8
302
GRIDFORMAT
  1
GRIDFORMAT_BEGIN
 90
        0
 91
        1
 62
     0
 92
       -2
340
14
 93
        0
 40
0.045
309
GRIDFORMAT_END
 95
       16
302
GRIDFORMAT
  1
GRIDFORMAT_BEGIN
 90
        0
 91
        1
 62
     0
 92
       -2
340
14
 93
        0
 40
0.045
309
GRIDFORMAT_END
 95
       32
302
GRIDFORMAT
  1
GRIDFORMAT_BEGIN
 90
        0
 91
        1
 62
     0
 92
       -2
340
14
 93
        0
 40
0.045
309
GRIDFORMAT_END
309
TABLEFORMAT_END
  1
CELLSTYLE_BEGIN
 90
        3
 91
        2
300
_DATA
309
CELLSTYLE_END
  0
XRECORD
  5
725
102
{ACAD_REACTORS
330
724
102
}
330
724
100
AcDbXrecord
280
     1
102
ACAD_ROUNDTRIP_PRE2007_TABLESTYLE
 90
        4
 91
        0
  1

 92
        4
 93
        0
  2

 94
        4
 95
        0
  3

  0
XRECORD
  5
6F7
102
{ACAD_REACTORS
330
6F6
102
}
330
6F6
100
AcDbXrecord
280
     1
102
RTVSPropertyOp0
 70
     1
102
RTVSPropertyOp1
 70
     1
102
RTVSPropertyOp2
 70
     1
102
RTVSPropertyOp3
 70
     1
102
RTVSPropertyOp4
 70
     1
102
RTVSPropertyOp5
 70
     1
102
RTVSPropertyOp6
 70
     1
102
RTVSPropertyOp7
 70
     1
102
RTVSPropertyOp8
 70
     1
102
RTVSPropertyOp9
 70
     1
102
RTVSPropertyOp10
 70
     1
102
RTVSPropertyOp11
 70
     1
102
RTVSPropertyOp12
 70
     1
102
RTVSPropertyOp13
 70
     1
102
RTVSPropertyOp14
 70
     1
102
RTVSPropertyOp15
 70
     1
102
RTVSPropertyOp16
 70
     1
102
RTVSPropertyOp17
 70
     1
102
RTVSPropertyOp18
 70
     1
102
RTVSPropertyOp19
 70
     1
102
RTVSPropertyOp20
 70
     1
102
RTVSPropertyOp21
 70
     1
102
RTVSPropertyOp22
 70
     1
102
RTVSPropertyOp23
 70
     1
102
RTVSPropertyOp24
 70
     1
102
RTVSPropertyOp25
 70
     1
102
RTVSPropertyOp26
 70
     1
102
RTVSPropertyOp27
 70
     1
102
RTVSPropertyOp28
 70
     1
102
RTVSPropertyOp29
 70
     1
102
RTVSPropertyOp30
 70
     1
102
RTVSPropertyOp31
 70
     1
102
RTVSPropertyOp32
 70
     1
102
RTVSPropertyOp33
 70
     1
102
RTVSPropertyOp34
 70
     1
102
RTVSPropertyOp35
 70
     1
102
RTVSPropertyOp36
 70
     1
102
RTVSPropertyOp37
 70
     1
102
RTVSPropertyOp38
 70
     1
102
RTVSPropertyOp39
 70
     1
102
RTVSPropertyOp40
 70
     1
102
RTVSPropertyOp41
 70
     1
102
RTVSPropertyOp42
 70
     1
102
RTVSPropertyOp43
 70
     1
102
RTVSPropertyOp44
 70
     1
102
RTVSPropertyOp45
 70
     1
102
RTVSPropertyOp46
 70
     1
102
RTVSPropertyOp47
 70
     1
102
RTVSPropertyOp48
 70
     1
102
RTVSPropertyOp49
 70
     1
102
RTVSPropertyOp50
 70
     1
102
RTVSPropertyOp51
 70
     0
102
RTVSPropertyOp52
 70
     0
102
RTVSPropertyOp53
 70
     1
102
RTVSPropertyOp54
 70
     1
102
RTVSPropertyOp55
 70
     1
102
RTVSPropertyOp56
 70
     1
102
RTVSPropertyOp57
 70
     1
102
RTVSPost2010Prop28
280
     1
102
RTVSPost2010PropOp28
 70
     1
102
RTVSPost2010Prop29
280
     1
102
RTVSPost2010PropOp29
 70
     1
102
RTVSPost2010Prop30
280
     0
102
RTVSPost2010PropOp30
 70
     1
102
RTVSPost2010Prop31
280
     0
102
RTVSPost2010PropOp31
 70
     1
102
RTVSPost2010Prop32
280
     0
102
RTVSPost2010PropOp32
 70
     1
102
RTVSPost2010Prop33
280
     0
102
RTVSPost2010PropOp33
 70
     1
102
RTVSPost2010Prop34
280
     0
102
RTVSPost2010PropOp34
 70
     1
102
RTVSPost2010Prop35
280
     0
102
RTVSPost2010PropOp35
 70
     1
102
RTVSPost2010Prop36
280
     0
102
RTVSPost2010PropOp36
 70
     1
102
RTVSPost2010Prop37
 90
       50
102
RTVSPost2010PropOp37
 70
     1
102
RTVSPost2010Prop38
140
0.0
102
RTVSPost2010PropOp38
 70
     1
102
RTVSPost2010Prop39
140
1.0
102
RTVSPost2010PropOp39
 70
     1
102
RTVSPost2010Prop40
 90
        0
102
RTVSPost2010PropOp40
 70
     1
102
RTVSPost2010Prop41ColorIndex
 90
       18
102
RTVSPost2010Prop41ColorRGB
 90
        0
102
RTVSPost2010PropOp41
 70
     1
102
RTVSPost2010Prop42
 90
       50
102
RTVSPost2010PropOp42
 70
     1
102
RTVSPost2010Prop43
 90
        3
102
RTVSPost2010PropOp43
 70
     1
102
RTVSPost2010Prop44ColorIndex
 90
        5
102
RTVSPost2010Prop44ColorRGB
 90
      255
102
RTVSPost2010PropOp44
 70
     1
102
RTVSPost2010Prop45
280
     0
102
RTVSPost2010PropOp45
 70
     1
102
RTVSPost2010Prop46
 90
       50
102
RTVSPost2010PropOp46
 70
     1
102
RTVSPost2010Prop47
 90
       50
102
RTVSPost2010PropOp47
 70
     1
102
RTVSPost2010Prop48
 90
       50
102
RTVSPost2010PropOp48
 70
     1
102
RTVSPost2010Prop49
280
     0
102
RTVSPost2010PropOp49
 70
     1
102
RTVSPost2010Prop50
 90
       50
102
RTVSPost2010PropOp50
 70
     1
102
RTVSPost2010Prop51ColorIndex
 90
      256
102
RTVSPost2010Prop51ColorRGB
 90
-16777216
102
RTVSPost2010PropOp51
 70
     0
102
RTVSPost2010Prop52
140
1.0
102
RTVSPost2010PropOp52
 70
     0
102
RTVSPost2010Prop53
 90
        2
102
RTVSPost2010PropOp53
 70
     1
102
RTVSPost2010Prop54
  1
strokes_ogs.tif
102
RTVSPost2010PropOp54
 70
     1
102
RTVSPost2010Prop55
280
     0
102
RTVSPost2010PropOp55
 70
     1
102
RTVSPost2010Prop56
140
1.0
102
RTVSPost2010PropOp56
 70
     1
102
RTVSPost2010Prop57
140
1.0
102
RTVSPost2010PropOp57
 70
     1
  0
XRECORD
  5
6FD
102
{ACAD_REACTORS
330
6FC
102
}
330
6FC
100
AcDbXrecord
280
     1
102
RTVSPropertyOp0
 70
     1
102
RTVSPropertyOp1
 70
     1
102
RTVSPropertyOp2
 70
     1
102
RTVSPropertyOp3
 70
     1
102
RTVSPropertyOp4
 70
     1
102
RTVSPropertyOp5
 70
     1
102
RTVSPropertyOp6
 70
     1
102
RTVSPropertyOp7
 70
     1
102
RTVSPropertyOp8
 70
     1
102
RTVSPropertyOp9
 70
     1
102
RTVSPropertyOp10
 70
     1
102
RTVSPropertyOp11
 70
     1
102
RTVSPropertyOp12
 70
     1
102
RTVSPropertyOp13
 70
     1
102
RTVSPropertyOp14
 70
     1
102
RTVSPropertyOp15
 70
     1
102
RTVSPropertyOp16
 70
     1
102
RTVSPropertyOp17
 70
     1
102
RTVSPropertyOp18
 70
     1
102
RTVSPropertyOp19
 70
     1
102
RTVSPropertyOp20
 70
     1
102
RTVSPropertyOp21
 70
     1
102
RTVSPropertyOp22
 70
     1
102
RTVSPropertyOp23
 70
     1
102
RTVSPropertyOp24
 70
     1
102
RTVSPropertyOp25
 70
     1
102
RTVSPropertyOp26
 70
     1
102
RTVSPropertyOp27
 70
     1
102
RTVSPropertyOp28
 70
     1
102
RTVSPropertyOp29
 70
     1
102
RTVSPropertyOp30
 70
     1
102
RTVSPropertyOp31
 70
     1
102
RTVSPropertyOp32
 70
     1
102
RTVSPropertyOp33
 70
     1
102
RTVSPropertyOp34
 70
     1
102
RTVSPropertyOp35
 70
     1
102
RTVSPropertyOp36
 70
     1
102
RTVSPropertyOp37
 70
     1
102
RTVSPropertyOp38
 70
     1
102
RTVSPropertyOp39
 70
     1
102
RTVSPropertyOp40
 70
     1
102
RTVSPropertyOp41
 70
     1
102
RTVSPropertyOp42
 70
     1
102
RTVSPropertyOp43
 70
     1
102
RTVSPropertyOp44
 70
     1
102
RTVSPropertyOp45
 70
     1
102
RTVSPropertyOp46
 70
     1
102
RTVSPropertyOp47
 70
     1
102
RTVSPropertyOp48
 70
     1
102
RTVSPropertyOp49
 70
     1
102
RTVSPropertyOp50
 70
     1
102
RTVSPropertyOp51
 70
     0
102
RTVSPropertyOp52
 70
     0
102
RTVSPropertyOp53
 70
     1
102
RTVSPropertyOp54
 70
     1
102
RTVSPropertyOp55
 70
     1
102
RTVSPropertyOp56
 70
     1
102
RTVSPropertyOp57
 70
     1
102
RTVSPost2010Prop28
280
     0
102
RTVSPost2010PropOp28
 70
     1
102
RTVSPost2010Prop29
280
     1
102
RTVSPost2010PropOp29
 70
     1
102
RTVSPost2010Prop30
280
     1
102
RTVSPost2010PropOp30
 70
     1
102
RTVSPost2010Prop31
280
     0
102
RTVSPost2010PropOp31
 70
     1
102
RTVSPost2010Prop32
280
     0
102
RTVSPost2010PropOp32
 70
     1
102
RTVSPost2010Prop33
280
     0
102
RTVSPost2010PropOp33
 70
     1
102
RTVSPost2010Prop34
280
     0
102
RTVSPost2010PropOp34
 70
     1
102
RTVSPost2010Prop35
280
     0
102
RTVSPost2010PropOp35
 70
     1
102
RTVSPost2010Prop36
280
     0
102
RTVSPost2010PropOp36
 70
     1
102
RTVSPost2010Prop37
 90
       50
102
RTVSPost2010PropOp37
 70
     1
102
RTVSPost2010Prop38
140
0.0
102
RTVSPost2010PropOp38
 70
     1
102
RTVSPost2010Prop39
140
1.0
102
RTVSPost2010PropOp39
 70
     1
102
RTVSPost2010Prop40
 90
        0
102
RTVSPost2010PropOp40
 70
     1
102
RTVSPost2010Prop41ColorIndex
 90
       18
102
RTVSPost2010Prop41ColorRGB
 90
        0
102
RTVSPost2010PropOp41
 70
     1
102
RTVSPost2010Prop42
 90
       50
102
RTVSPost2010PropOp42
 70
     1
102
RTVSPost2010Prop43
 90
        3
102
RTVSPost2010PropOp43
 70
     1
102
RTVSPost2010Prop44ColorIndex
 90
        5
102
RTVSPost2010Prop44ColorRGB
 90
      255
102
RTVSPost2010PropOp44
 70
     1
102
RTVSPost2010Prop45
280
     0
102
RTVSPost2010PropOp45
 70
     1
102
RTVSPost2010Prop46
 90
       50
102
RTVSPost2010PropOp46
 70
     1
102
RTVSPost2010Prop47
 90
       50
102
RTVSPost2010PropOp47
 70
     1
102
RTVSPost2010Prop48
 90
       50
102
RTVSPost2010PropOp48
 70
     1
102
RTVSPost2010Prop49
280
     0
102
RTVSPost2010PropOp49
 70
     1
102
RTVSPost2010Prop50
 90
       50
102
RTVSPost2010PropOp50
 70
     1
102
RTVSPost2010Prop51ColorIndex
 90
      256
102
RTVSPost2010Prop51ColorRGB
 90
-16777216
102
RTVSPost2010PropOp51
 70
     0
102
RTVSPost2010Prop52
140
1.0
102
RTVSPost2010PropOp52
 70
     0
102
RTVSPost2010Prop53
 90
        2
102
RTVSPost2010PropOp53
 70
     1
102
RTVSPost2010Prop54
  1
strokes_ogs.tif
102
RTVSPost2010PropOp54
 70
     1
102
RTVSPost2010Prop55
280
     0
102
RTVSPost2010PropOp55
 70
     1
102
RTVSPost2010Prop56
140
1.0
102
RTVSPost2010PropOp56
 70
     1
102
RTVSPost2010Prop57
140
1.0
102
RTVSPost2010PropOp57
 70
     1
  0
XRECORD
  5
705
102
{ACAD_REACTORS
330
704
102
}
330
704
100
AcDbXrecord
280
     1
102
RTVSPropertyOp0
 70
     1
102
RTVSPropertyOp1
 70
     1
102
RTVSPropertyOp2
 70
     1
102
RTVSPropertyOp3
 70
     1
102
RTVSPropertyOp4
 70
     1
102
RTVSPropertyOp5
 70
     1
102
RTVSPropertyOp6
 70
     1
102
RTVSPropertyOp7
 70
     1
102
RTVSPropertyOp8
 70
     1
102
RTVSPropertyOp9
 70
     1
102
RTVSPropertyOp10
 70
     1
102
RTVSPropertyOp11
 70
     1
102
RTVSPropertyOp12
 70
     1
102
RTVSPropertyOp13
 70
     1
102
RTVSPropertyOp14
 70
     1
102
RTVSPropertyOp15
 70
     1
102
RTVSPropertyOp16
 70
     1
102
RTVSPropertyOp17
 70
     1
102
RTVSPropertyOp18
 70
     1
102
RTVSPropertyOp19
 70
     1
102
RTVSPropertyOp20
 70
     1
102
RTVSPropertyOp21
 70
     1
102
RTVSPropertyOp22
 70
     1
102
RTVSPropertyOp23
 70
     1
102
RTVSPropertyOp24
 70
     1
102
RTVSPropertyOp25
 70
     1
102
RTVSPropertyOp26
 70
     1
102
RTVSPropertyOp27
 70
     1
102
RTVSPropertyOp28
 70
     1
102
RTVSPropertyOp29
 70
     1
102
RTVSPropertyOp30
 70
     1
102
RTVSPropertyOp31
 70
     1
102
RTVSPropertyOp32
 70
     1
102
RTVSPropertyOp33
 70
     1
102
RTVSPropertyOp34
 70
     1
102
RTVSPropertyOp35
 70
     1
102
RTVSPropertyOp36
 70
     1
102
RTVSPropertyOp37
 70
     1
102
RTVSPropertyOp38
 70
     1
102
RTVSPropertyOp39
 70
     1
102
RTVSPropertyOp40
 70
     1
102
RTVSPropertyOp41
 70
     1
102
RTVSPropertyOp42
 70
     1
102
RTVSPropertyOp43
 70
     1
102
RTVSPropertyOp44
 70
     1
102
RTVSPropertyOp45
 70
     1
102
RTVSPropertyOp46
 70
     1
102
RTVSPropertyOp47
 70
     1
102
RTVSPropertyOp48
 70
     1
102
RTVSPropertyOp49
 70
     1
102
RTVSPropertyOp50
 70
     1
102
RTVSPropertyOp51
 70
     0
102
RTVSPropertyOp52
 70
     0
102
RTVSPropertyOp53
 70
     1
102
RTVSPropertyOp54
 70
     1
102
RTVSPropertyOp55
 70
     1
102
RTVSPropertyOp56
 70
     1
102
RTVSPropertyOp57
 70
     1
102
RTVSPost2010Prop28
280
     0
102
RTVSPost2010PropOp28
 70
     1
102
RTVSPost2010Prop29
280
     1
102
RTVSPost2010PropOp29
 70
     1
102
RTVSPost2010Prop30
280
     1
102
RTVSPost2010PropOp30
 70
     1
102
RTVSPost2010Prop31
280
     0
102
RTVSPost2010PropOp31
 70
     1
102
RTVSPost2010Prop32
280
     0
102
RTVSPost2010PropOp32
 70
     1
102
RTVSPost2010Prop33
280
     0
102
RTVSPost2010PropOp33
 70
     1
102
RTVSPost2010Prop34
280
     0
102
RTVSPost2010PropOp34
 70
     1
102
RTVSPost2010Prop35
280
     0
102
RTVSPost2010PropOp35
 70
     1
102
RTVSPost2010Prop36
280
     0
102
RTVSPost2010PropOp36
 70
     1
102
RTVSPost2010Prop37
 90
       50
102
RTVSPost2010PropOp37
 70
     1
102
RTVSPost2010Prop38
140
0.0
102
RTVSPost2010PropOp38
 70
     1
102
RTVSPost2010Prop39
140
1.0
102
RTVSPost2010PropOp39
 70
     1
102
RTVSPost2010Prop40
 90
        0
102
RTVSPost2010PropOp40
 70
     1
102
RTVSPost2010Prop41ColorIndex
 90
       18
102
RTVSPost2010Prop41ColorRGB
 90
        0
102
RTVSPost2010PropOp41
 70
     1
102
RTVSPost2010Prop42
 90
       50
102
RTVSPost2010PropOp42
 70
     1
102
RTVSPost2010Prop43
 90
        3
102
RTVSPost2010PropOp43
 70
     1
102
RTVSPost2010Prop44ColorIndex
 90
        5
102
RTVSPost2010Prop44ColorRGB
 90
      255
102
RTVSPost2010PropOp44
 70
     1
102
RTVSPost2010Prop45
280
     0
102
RTVSPost2010PropOp45
 70
     1
102
RTVSPost2010Prop46
 90
       50
102
RTVSPost2010PropOp46
 70
     1
102
RTVSPost2010Prop47
 90
       50
102
RTVSPost2010PropOp47
 70
     1
102
RTVSPost2010Prop48
 90
       50
102
RTVSPost2010PropOp48
 70
     1
102
RTVSPost2010Prop49
280
     0
102
RTVSPost2010PropOp49
 70
     1
102
RTVSPost2010Prop50
 90
       50
102
RTVSPost2010PropOp50
 70
     1
102
RTVSPost2010Prop51ColorIndex
 90
      256
102
RTVSPost2010Prop51ColorRGB
 90
-16777216
102
RTVSPost2010PropOp51
 70
     0
102
RTVSPost2010Prop52
140
1.0
102
RTVSPost2010PropOp52
 70
     0
102
RTVSPost2010Prop53
 90
        2
102
RTVSPost2010PropOp53
 70
     1
102
RTVSPost2010Prop54
  1
strokes_ogs.tif
102
RTVSPost2010PropOp54
 70
     1
102
RTVSPost2010Prop55
280
     0
102
RTVSPost2010PropOp55
 70
     1
102
RTVSPost2010Prop56
140
1.0
102
RTVSPost2010PropOp56
 70
     1
102
RTVSPost2010Prop57
140
1.0
102
RTVSPost2010PropOp57
 70
     1
  0
XRECORD
  5
70D
102
{ACAD_REACTORS
330
70C
102
}
330
70C
100
AcDbXrecord
280
     1
102
RTVSPropertyOp0
 70
     1
102
RTVSPropertyOp1
 70
     1
102
RTVSPropertyOp2
 70
     1
102
RTVSPropertyOp3
 70
     1
102
RTVSPropertyOp4
 70
     1
102
RTVSPropertyOp5
 70
     1
102
RTVSPropertyOp6
 70
     1
102
RTVSPropertyOp7
 70
     1
102
RTVSPropertyOp8
 70
     1
102
RTVSPropertyOp9
 70
     1
102
RTVSPropertyOp10
 70
     1
102
RTVSPropertyOp11
 70
     1
102
RTVSPropertyOp12
 70
     1
102
RTVSPropertyOp13
 70
     1
102
RTVSPropertyOp14
 70
     1
102
RTVSPropertyOp15
 70
     1
102
RTVSPropertyOp16
 70
     1
102
RTVSPropertyOp17
 70
     1
102
RTVSPropertyOp18
 70
     1
102
RTVSPropertyOp19
 70
     1
102
RTVSPropertyOp20
 70
     1
102
RTVSPropertyOp21
 70
     1
102
RTVSPropertyOp22
 70
     1
102
RTVSPropertyOp23
 70
     1
102
RTVSPropertyOp24
 70
     1
102
RTVSPropertyOp25
 70
     1
102
RTVSPropertyOp26
 70
     1
102
RTVSPropertyOp27
 70
     1
102
RTVSPropertyOp28
 70
     1
102
RTVSPropertyOp29
 70
     1
102
RTVSPropertyOp30
 70
     1
102
RTVSPropertyOp31
 70
     1
102
RTVSPropertyOp32
 70
     1
102
RTVSPropertyOp33
 70
     1
102
RTVSPropertyOp34
 70
     1
102
RTVSPropertyOp35
 70
     1
102
RTVSPropertyOp36
 70
     1
102
RTVSPropertyOp37
 70
     1
102
RTVSPropertyOp38
 70
     1
102
RTVSPropertyOp39
 70
     1
102
RTVSPropertyOp40
 70
     1
102
RTVSPropertyOp41
 70
     1
102
RTVSPropertyOp42
 70
     1
102
RTVSPropertyOp43
 70
     1
102
RTVSPropertyOp44
 70
     1
102
RTVSPropertyOp45
 70
     1
102
RTVSPropertyOp46
 70
     1
102
RTVSPropertyOp47
 70
     1
102
RTVSPropertyOp48
 70
     1
102
RTVSPropertyOp49
 70
     1
102
RTVSPropertyOp50
 70
     1
102
RTVSPropertyOp51
 70
     0
102
RTVSPropertyOp52
 70
     0
102
RTVSPropertyOp53
 70
     1
102
RTVSPropertyOp54
 70
     1
102
RTVSPropertyOp55
 70
     1
102
RTVSPropertyOp56
 70
     1
102
RTVSPropertyOp57
 70
     1
102
RTVSPost2010Prop28
280
     0
102
RTVSPost2010PropOp28
 70
     1
102
RTVSPost2010Prop29
280
     1
102
RTVSPost2010PropOp29
 70
     1
102
RTVSPost2010Prop30
280
     1
102
RTVSPost2010PropOp30
 70
     1
102
RTVSPost2010Prop31
280
     0
102
RTVSPost2010PropOp31
 70
     1
102
RTVSPost2010Prop32
280
     0
102
RTVSPost2010PropOp32
 70
     1
102
RTVSPost2010Prop33
280
     0
102
RTVSPost2010PropOp33
 70
     1
102
RTVSPost2010Prop34
280
     0
102
RTVSPost2010PropOp34
 70
     1
102
RTVSPost2010Prop35
280
     0
102
RTVSPost2010PropOp35
 70
     1
102
RTVSPost2010Prop36
280
     0
102
RTVSPost2010PropOp36
 70
     1
102
RTVSPost2010Prop37
 90
       50
102
RTVSPost2010PropOp37
 70
     1
102
RTVSPost2010Prop38
140
0.0
102
RTVSPost2010PropOp38
 70
     1
102
RTVSPost2010Prop39
140
1.0
102
RTVSPost2010PropOp39
 70
     1
102
RTVSPost2010Prop40
 90
        0
102
RTVSPost2010PropOp40
 70
     1
102
RTVSPost2010Prop41ColorIndex
 90
       18
102
RTVSPost2010Prop41ColorRGB
 90
        0
102
RTVSPost2010PropOp41
 70
     1
102
RTVSPost2010Prop42
 90
       50
102
RTVSPost2010PropOp42
 70
     1
102
RTVSPost2010Prop43
 90
        3
102
RTVSPost2010PropOp43
 70
     1
102
RTVSPost2010Prop44ColorIndex
 90
        5
102
RTVSPost2010Prop44ColorRGB
 90
      255
102
RTVSPost2010PropOp44
 70
     1
102
RTVSPost2010Prop45
280
     0
102
RTVSPost2010PropOp45
 70
     1
102
RTVSPost2010Prop46
 90
       50
102
RTVSPost2010PropOp46
 70
     1
102
RTVSPost2010Prop47
 90
       50
102
RTVSPost2010PropOp47
 70
     1
102
RTVSPost2010Prop48
 90
       50
102
RTVSPost2010PropOp48
 70
     1
102
RTVSPost2010Prop49
280
     0
102
RTVSPost2010PropOp49
 70
     1
102
RTVSPost2010Prop50
 90
       50
102
RTVSPost2010PropOp50
 70
     1
102
RTVSPost2010Prop51ColorIndex
 90
      256
102
RTVSPost2010Prop51ColorRGB
 90
-16777216
102
RTVSPost2010PropOp51
 70
     0
102
RTVSPost2010Prop52
140
1.0
102
RTVSPost2010PropOp52
 70
     0
102
RTVSPost2010Prop53
 90
        2
102
RTVSPost2010PropOp53
 70
     1
102
RTVSPost2010Prop54
  1
strokes_ogs.tif
102
RTVSPost2010PropOp54
 70
     1
102
RTVSPost2010Prop55
280
     0
102
RTVSPost2010PropOp55
 70
     1
102
RTVSPost2010Prop56
140
1.0
102
RTVSPost2010PropOp56
 70
     1
102
RTVSPost2010Prop57
140
1.0
102
RTVSPost2010PropOp57
 70
     1
  0
XRECORD
  5
701
102
{ACAD_REACTORS
330
700
102
}
330
700
100
AcDbXrecord
280
     1
102
RTVSPropertyOp0
 70
     1
102
RTVSPropertyOp1
 70
     1
102
RTVSPropertyOp2
 70
     1
102
RTVSPropertyOp3
 70
     1
102
RTVSPropertyOp4
 70
     1
102
RTVSPropertyOp5
 70
     1
102
RTVSPropertyOp6
 70
     1
102
RTVSPropertyOp7
 70
     1
102
RTVSPropertyOp8
 70
     1
102
RTVSPropertyOp9
 70
     1
102
RTVSPropertyOp10
 70
     1
102
RTVSPropertyOp11
 70
     1
102
RTVSPropertyOp12
 70
     1
102
RTVSPropertyOp13
 70
     1
102
RTVSPropertyOp14
 70
     1
102
RTVSPropertyOp15
 70
     1
102
RTVSPropertyOp16
 70
     1
102
RTVSPropertyOp17
 70
     1
102
RTVSPropertyOp18
 70
     1
102
RTVSPropertyOp19
 70
     1
102
RTVSPropertyOp20
 70
     1
102
RTVSPropertyOp21
 70
     1
102
RTVSPropertyOp22
 70
     1
102
RTVSPropertyOp23
 70
     1
102
RTVSPropertyOp24
 70
     1
102
RTVSPropertyOp25
 70
     1
102
RTVSPropertyOp26
 70
     1
102
RTVSPropertyOp27
 70
     1
102
RTVSPropertyOp28
 70
     1
102
RTVSPropertyOp29
 70
     1
102
RTVSPropertyOp30
 70
     1
102
RTVSPropertyOp31
 70
     1
102
RTVSPropertyOp32
 70
     1
102
RTVSPropertyOp33
 70
     1
102
RTVSPropertyOp34
 70
     1
102
RTVSPropertyOp35
 70
     1
102
RTVSPropertyOp36
 70
     1
102
RTVSPropertyOp37
 70
     1
102
RTVSPropertyOp38
 70
     1
102
RTVSPropertyOp39
 70
     1
102
RTVSPropertyOp40
 70
     1
102
RTVSPropertyOp41
 70
     1
102
RTVSPropertyOp42
 70
     1
102
RTVSPropertyOp43
 70
     1
102
RTVSPropertyOp44
 70
     1
102
RTVSPropertyOp45
 70
     1
102
RTVSPropertyOp46
 70
     1
102
RTVSPropertyOp47
 70
     1
102
RTVSPropertyOp48
 70
     1
102
RTVSPropertyOp49
 70
     1
102
RTVSPropertyOp50
 70
     1
102
RTVSPropertyOp51
 70
     0
102
RTVSPropertyOp52
 70
     0
102
RTVSPropertyOp53
 70
     1
102
RTVSPropertyOp54
 70
     1
102
RTVSPropertyOp55
 70
     1
102
RTVSPropertyOp56
 70
     1
102
RTVSPropertyOp57
 70
     1
102
RTVSPost2010Prop28
280
     0
102
RTVSPost2010PropOp28
 70
     1
102
RTVSPost2010Prop29
280
     1
102
RTVSPost2010PropOp29
 70
     1
102
RTVSPost2010Prop30
280
     1
102
RTVSPost2010PropOp30
 70
     1
102
RTVSPost2010Prop31
280
     0
102
RTVSPost2010PropOp31
 70
     1
102
RTVSPost2010Prop32
280
     0
102
RTVSPost2010PropOp32
 70
     1
102
RTVSPost2010Prop33
280
     0
102
RTVSPost2010PropOp33
 70
     1
102
RTVSPost2010Prop34
280
     0
102
RTVSPost2010PropOp34
 70
     1
102
RTVSPost2010Prop35
280
     0
102
RTVSPost2010PropOp35
 70
     1
102
RTVSPost2010Prop36
280
     0
102
RTVSPost2010PropOp36
 70
     1
102
RTVSPost2010Prop37
 90
       50
102
RTVSPost2010PropOp37
 70
     1
102
RTVSPost2010Prop38
140
0.0
102
RTVSPost2010PropOp38
 70
     1
102
RTVSPost2010Prop39
140
1.0
102
RTVSPost2010PropOp39
 70
     1
102
RTVSPost2010Prop40
 90
        0
102
RTVSPost2010PropOp40
 70
     1
102
RTVSPost2010Prop41ColorIndex
 90
       18
102
RTVSPost2010Prop41ColorRGB
 90
        0
102
RTVSPost2010PropOp41
 70
     1
102
RTVSPost2010Prop42
 90
       50
102
RTVSPost2010PropOp42
 70
     1
102
RTVSPost2010Prop43
 90
        3
102
RTVSPost2010PropOp43
 70
     1
102
RTVSPost2010Prop44ColorIndex
 90
        5
102
RTVSPost2010Prop44ColorRGB
 90
      255
102
RTVSPost2010PropOp44
 70
     1
102
RTVSPost2010Prop45
280
     0
102
RTVSPost2010PropOp45
 70
     1
102
RTVSPost2010Prop46
 90
       50
102
RTVSPost2010PropOp46
 70
     1
102
RTVSPost2010Prop47
 90
       50
102
RTVSPost2010PropOp47
 70
     1
102
RTVSPost2010Prop48
 90
       50
102
RTVSPost2010PropOp48
 70
     1
102
RTVSPost2010Prop49
280
     0
102
RTVSPost2010PropOp49
 70
     1
102
RTVSPost2010Prop50
 90
       50
102
RTVSPost2010PropOp50
 70
     1
102
RTVSPost2010Prop51ColorIndex
 90
      256
102
RTVSPost2010Prop51ColorRGB
 90
-16777216
102
RTVSPost2010PropOp51
 70
     0
102
RTVSPost2010Prop52
140
1.0
102
RTVSPost2010PropOp52
 70
     0
102
RTVSPost2010Prop53
 90
        2
102
RTVSPost2010PropOp53
 70
     1
102
RTVSPost2010Prop54
  1
strokes_ogs.tif
102
RTVSPost2010PropOp54
 70
     1
102
RTVSPost2010Prop55
280
     0
102
RTVSPost2010PropOp55
 70
     1
102
RTVSPost2010Prop56
140
1.0
102
RTVSPost2010PropOp56
 70
     1
102
RTVSPost2010Prop57
140
1.0
102
RTVSPost2010PropOp57
 70
     1
  0
XRECORD
  5
703
102
{ACAD_REACTORS
330
702
102
}
330
702
100
AcDbXrecord
280
     1
102
RTVSPropertyOp0
 70
     1
102
RTVSPropertyOp1
 70
     1
102
RTVSPropertyOp2
 70
     1
102
RTVSPropertyOp3
 70
     1
102
RTVSPropertyOp4
 70
     1
102
RTVSPropertyOp5
 70
     1
102
RTVSPropertyOp6
 70
     1
102
RTVSPropertyOp7
 70
     1
102
RTVSPropertyOp8
 70
     1
102
RTVSPropertyOp9
 70
     1
102
RTVSPropertyOp10
 70
     1
102
RTVSPropertyOp11
 70
     1
102
RTVSPropertyOp12
 70
     1
102
RTVSPropertyOp13
 70
     1
102
RTVSPropertyOp14
 70
     1
102
RTVSPropertyOp15
 70
     1
102
RTVSPropertyOp16
 70
     1
102
RTVSPropertyOp17
 70
     1
102
RTVSPropertyOp18
 70
     1
102
RTVSPropertyOp19
 70
     1
102
RTVSPropertyOp20
 70
     1
102
RTVSPropertyOp21
 70
     1
102
RTVSPropertyOp22
 70
     1
102
RTVSPropertyOp23
 70
     1
102
RTVSPropertyOp24
 70
     1
102
RTVSPropertyOp25
 70
     1
102
RTVSPropertyOp26
 70
     1
102
RTVSPropertyOp27
 70
     1
102
RTVSPropertyOp28
 70
     1
102
RTVSPropertyOp29
 70
     1
102
RTVSPropertyOp30
 70
     1
102
RTVSPropertyOp31
 70
     1
102
RTVSPropertyOp32
 70
     1
102
RTVSPropertyOp33
 70
     1
102
RTVSPropertyOp34
 70
     1
102
RTVSPropertyOp35
 70
     1
102
RTVSPropertyOp36
 70
     1
102
RTVSPropertyOp37
 70
     1
102
RTVSPropertyOp38
 70
     1
102
RTVSPropertyOp39
 70
     1
102
RTVSPropertyOp40
 70
     1
102
RTVSPropertyOp41
 70
     1
102
RTVSPropertyOp42
 70
     1
102
RTVSPropertyOp43
 70
     1
102
RTVSPropertyOp44
 70
     1
102
RTVSPropertyOp45
 70
     1
102
RTVSPropertyOp46
 70
     1
102
RTVSPropertyOp47
 70
     1
102
RTVSPropertyOp48
 70
     1
102
RTVSPropertyOp49
 70
     1
102
RTVSPropertyOp50
 70
     1
102
RTVSPropertyOp51
 70
     0
102
RTVSPropertyOp52
 70
     0
102
RTVSPropertyOp53
 70
     1
102
RTVSPropertyOp54
 70
     1
102
RTVSPropertyOp55
 70
     1
102
RTVSPropertyOp56
 70
     1
102
RTVSPropertyOp57
 70
     1
102
RTVSPost2010Prop28
280
     0
102
RTVSPost2010PropOp28
 70
     1
102
RTVSPost2010Prop29
280
     1
102
RTVSPost2010PropOp29
 70
     1
102
RTVSPost2010Prop30
280
     1
102
RTVSPost2010PropOp30
 70
     1
102
RTVSPost2010Prop31
280
     0
102
RTVSPost2010PropOp31
 70
     1
102
RTVSPost2010Prop32
280
     0
102
RTVSPost2010PropOp32
 70
     1
102
RTVSPost2010Prop33
280
     0
102
RTVSPost2010PropOp33
 70
     1
102
RTVSPost2010Prop34
280
     0
102
RTVSPost2010PropOp34
 70
     1
102
RTVSPost2010Prop35
280
     0
102
RTVSPost2010PropOp35
 70
     1
102
RTVSPost2010Prop36
280
     0
102
RTVSPost2010PropOp36
 70
     1
102
RTVSPost2010Prop37
 90
       50
102
RTVSPost2010PropOp37
 70
     1
102
RTVSPost2010Prop38
140
0.0
102
RTVSPost2010PropOp38
 70
     1
102
RTVSPost2010Prop39
140
1.0
102
RTVSPost2010PropOp39
 70
     1
102
RTVSPost2010Prop40
 90
        0
102
RTVSPost2010PropOp40
 70
     1
102
RTVSPost2010Prop41ColorIndex
 90
       18
102
RTVSPost2010Prop41ColorRGB
 90
        0
102
RTVSPost2010PropOp41
 70
     1
102
RTVSPost2010Prop42
 90
       50
102
RTVSPost2010PropOp42
 70
     1
102
RTVSPost2010Prop43
 90
        3
102
RTVSPost2010PropOp43
 70
     1
102
RTVSPost2010Prop44ColorIndex
 90
        5
102
RTVSPost2010Prop44ColorRGB
 90
      255
102
RTVSPost2010PropOp44
 70
     1
102
RTVSPost2010Prop45
280
     0
102
RTVSPost2010PropOp45
 70
     1
102
RTVSPost2010Prop46
 90
       50
102
RTVSPost2010PropOp46
 70
     1
102
RTVSPost2010Prop47
 90
       50
102
RTVSPost2010PropOp47
 70
     1
102
RTVSPost2010Prop48
 90
       50
102
RTVSPost2010PropOp48
 70
     1
102
RTVSPost2010Prop49
280
     0
102
RTVSPost2010PropOp49
 70
     1
102
RTVSPost2010Prop50
 90
       50
102
RTVSPost2010PropOp50
 70
     1
102
RTVSPost2010Prop51ColorIndex
 90
      256
102
RTVSPost2010Prop51ColorRGB
 90
-16777216
102
RTVSPost2010PropOp51
 70
     0
102
RTVSPost2010Prop52
140
1.0
102
RTVSPost2010PropOp52
 70
     0
102
RTVSPost2010Prop53
 90
        2
102
RTVSPost2010PropOp53
 70
     1
102
RTVSPost2010Prop54
  1
strokes_ogs.tif
102
RTVSPost2010PropOp54
 70
     1
102
RTVSPost2010Prop55
280
     0
102
RTVSPost2010PropOp55
 70
     1
102
RTVSPost2010Prop56
140
1.0
102
RTVSPost2010PropOp56
 70
     1
102
RTVSPost2010Prop57
140
1.0
102
RTVSPost2010PropOp57
 70
     1
  0
XRECORD
  5
713
102
{ACAD_REACTORS
330
712
102
}
330
712
100
AcDbXrecord
280
     1
102
RTVSPropertyOp0
 70
     0
102
RTVSPropertyOp1
 70
     0
102
RTVSPropertyOp2
 70
     0
102
RTVSPropertyOp3
 70
     0
102
RTVSPropertyOp4
 70
     0
102
RTVSPropertyOp5
 70
     0
102
RTVSPropertyOp6
 70
     0
102
RTVSPropertyOp7
 70
     0
102
RTVSPropertyOp8
 70
     0
102
RTVSPropertyOp9
 70
     0
102
RTVSPropertyOp10
 70
     0
102
RTVSPropertyOp11
 70
     0
102
RTVSPropertyOp12
 70
     0
102
RTVSPropertyOp13
 70
     0
102
RTVSPropertyOp14
 70
     2
102
RTVSPropertyOp15
 70
     0
102
RTVSPropertyOp16
 70
     0
102
RTVSPropertyOp17
 70
     0
102
RTVSPropertyOp18
 70
     0
102
RTVSPropertyOp19
 70
     0
102
RTVSPropertyOp20
 70
     0
102
RTVSPropertyOp21
 70
     0
102
RTVSPropertyOp22
 70
     0
102
RTVSPropertyOp23
 70
     0
102
RTVSPropertyOp24
 70
     0
102
RTVSPropertyOp25
 70
     0
102
RTVSPropertyOp26
 70
     0
102
RTVSPropertyOp27
 70
     0
102
RTVSPropertyOp28
 70
     0
102
RTVSPropertyOp29
 70
     0
102
RTVSPropertyOp30
 70
     0
102
RTVSPropertyOp31
 70
     0
102
RTVSPropertyOp32
 70
     0
102
RTVSPropertyOp33
 70
     0
102
RTVSPropertyOp34
 70
     0
102
RTVSPropertyOp35
 70
     0
102
RTVSPropertyOp36
 70
     0
102
RTVSPropertyOp37
 70
     0
102
RTVSPropertyOp38
 70
     0
102
RTVSPropertyOp39
 70
     0
102
RTVSPropertyOp40
 70
     0
102
RTVSPropertyOp41
 70
     0
102
RTVSPropertyOp42
 70
     0
102
RTVSPropertyOp43
 70
     0
102
RTVSPropertyOp44
 70
     0
102
RTVSPropertyOp45
 70
     0
102
RTVSPropertyOp46
 70
     0
102
RTVSPropertyOp47
 70
     0
102
RTVSPropertyOp48
 70
     0
102
RTVSPropertyOp49
 70
     0
102
RTVSPropertyOp50
 70
     0
102
RTVSPropertyOp51
 70
     0
102
RTVSPropertyOp52
 70
     0
102
RTVSPropertyOp53
 70
     0
102
RTVSPropertyOp54
 70
     0
102
RTVSPropertyOp55
 70
     0
102
RTVSPropertyOp56
 70
     0
102
RTVSPropertyOp57
 70
     0
102
RTVSPost2010Prop28
280
     0
102
RTVSPost2010PropOp28
 70
     0
102
RTVSPost2010Prop29
280
     1
102
RTVSPost2010PropOp29
 70
     0
102
RTVSPost2010Prop30
280
     1
102
RTVSPost2010PropOp30
 70
     0
102
RTVSPost2010Prop31
280
     0
102
RTVSPost2010PropOp31
 70
     0
102
RTVSPost2010Prop32
280
     0
102
RTVSPost2010PropOp32
 70
     0
102
RTVSPost2010Prop33
280
     0
102
RTVSPost2010PropOp33
 70
     0
102
RTVSPost2010Prop34
280
     0
102
RTVSPost2010PropOp34
 70
     0
102
RTVSPost2010Prop35
280
     0
102
RTVSPost2010PropOp35
 70
     0
102
RTVSPost2010Prop36
280
     0
102
RTVSPost2010PropOp36
 70
     0
102
RTVSPost2010Prop37
 90
       50
102
RTVSPost2010PropOp37
 70
     0
102
RTVSPost2010Prop38
140
0.0
102
RTVSPost2010PropOp38
 70
     0
102
RTVSPost2010Prop39
140
1.0
102
RTVSPost2010PropOp39
 70
     0
102
RTVSPost2010Prop40
 90
        0
102
RTVSPost2010PropOp40
 70
     0
102
RTVSPost2010Prop41ColorIndex
 90
       18
102
RTVSPost2010Prop41ColorRGB
 90
        0
102
RTVSPost2010PropOp41
 70
     0
102
RTVSPost2010Prop42
 90
       50
102
RTVSPost2010PropOp42
 70
     0
102
RTVSPost2010Prop43
 90
        3
102
RTVSPost2010PropOp43
 70
     0
102
RTVSPost2010Prop44ColorIndex
 90
        5
102
RTVSPost2010Prop44ColorRGB
 90
      255
102
RTVSPost2010PropOp44
 70
     0
102
RTVSPost2010Prop45
280
     0
102
RTVSPost2010PropOp45
 70
     0
102
RTVSPost2010Prop46
 90
       50
102
RTVSPost2010PropOp46
 70
     0
102
RTVSPost2010Prop47
 90
       50
102
RTVSPost2010PropOp47
 70
     0
102
RTVSPost2010Prop48
 90
       50
102
RTVSPost2010PropOp48
 70
     0
102
RTVSPost2010Prop49
280
     0
102
RTVSPost2010PropOp49
 70
     0
102
RTVSPost2010Prop50
 90
       50
102
RTVSPost2010PropOp50
 70
     0
102
RTVSPost2010Prop51ColorIndex
 90
      256
102
RTVSPost2010Prop51ColorRGB
 90
-16777216
102
RTVSPost2010PropOp51
 70
     0
102
RTVSPost2010Prop52
140
1.0
102
RTVSPost2010PropOp52
 70
     0
102
RTVSPost2010Prop53
 90
        2
102
RTVSPost2010PropOp53
 70
     0
102
RTVSPost2010Prop54
  1
strokes_ogs.tif
102
RTVSPost2010PropOp54
 70
     0
102
RTVSPost2010Prop55
280
     0
102
RTVSPost2010PropOp55
 70
     0
102
RTVSPost2010Prop56
140
1.0
102
RTVSPost2010PropOp56
 70
     0
102
RTVSPost2010Prop57
140
1.0
102
RTVSPost2010PropOp57
 70
     0
  0
XRECORD
  5
70B
102
{ACAD_REACTORS
330
70A
102
}
330
70A
100
AcDbXrecord
280
     1
102
RTVSPropertyOp0
 70
     1
102
RTVSPropertyOp1
 70
     1
102
RTVSPropertyOp2
 70
     1
102
RTVSPropertyOp3
 70
     1
102
RTVSPropertyOp4
 70
     1
102
RTVSPropertyOp5
 70
     1
102
RTVSPropertyOp6
 70
     1
102
RTVSPropertyOp7
 70
     1
102
RTVSPropertyOp8
 70
     1
102
RTVSPropertyOp9
 70
     1
102
RTVSPropertyOp10
 70
     1
102
RTVSPropertyOp11
 70
     1
102
RTVSPropertyOp12
 70
     1
102
RTVSPropertyOp13
 70
     1
102
RTVSPropertyOp14
 70
     1
102
RTVSPropertyOp15
 70
     1
102
RTVSPropertyOp16
 70
     1
102
RTVSPropertyOp17
 70
     1
102
RTVSPropertyOp18
 70
     1
102
RTVSPropertyOp19
 70
     1
102
RTVSPropertyOp20
 70
     1
102
RTVSPropertyOp21
 70
     1
102
RTVSPropertyOp22
 70
     1
102
RTVSPropertyOp23
 70
     1
102
RTVSPropertyOp24
 70
     1
102
RTVSPropertyOp25
 70
     1
102
RTVSPropertyOp26
 70
     1
102
RTVSPropertyOp27
 70
     1
102
RTVSPropertyOp28
 70
     1
102
RTVSPropertyOp29
 70
     1
102
RTVSPropertyOp30
 70
     1
102
RTVSPropertyOp31
 70
     1
102
RTVSPropertyOp32
 70
     1
102
RTVSPropertyOp33
 70
     1
102
RTVSPropertyOp34
 70
     1
102
RTVSPropertyOp35
 70
     1
102
RTVSPropertyOp36
 70
     1
102
RTVSPropertyOp37
 70
     1
102
RTVSPropertyOp38
 70
     1
102
RTVSPropertyOp39
 70
     1
102
RTVSPropertyOp40
 70
     1
102
RTVSPropertyOp41
 70
     1
102
RTVSPropertyOp42
 70
     1
102
RTVSPropertyOp43
 70
     1
102
RTVSPropertyOp44
 70
     1
102
RTVSPropertyOp45
 70
     1
102
RTVSPropertyOp46
 70
     1
102
RTVSPropertyOp47
 70
     1
102
RTVSPropertyOp48
 70
     1
102
RTVSPropertyOp49
 70
     1
102
RTVSPropertyOp50
 70
     1
102
RTVSPropertyOp51
 70
     0
102
RTVSPropertyOp52
 70
     0
102
RTVSPropertyOp53
 70
     1
102
RTVSPropertyOp54
 70
     1
102
RTVSPropertyOp55
 70
     1
102
RTVSPropertyOp56
 70
     1
102
RTVSPropertyOp57
 70
     1
102
RTVSPost2010Prop28
280
     0
102
RTVSPost2010PropOp28
 70
     1
102
RTVSPost2010Prop29
280
     1
102
RTVSPost2010PropOp29
 70
     1
102
RTVSPost2010Prop30
280
     1
102
RTVSPost2010PropOp30
 70
     1
102
RTVSPost2010Prop31
280
     0
102
RTVSPost2010PropOp31
 70
     1
102
RTVSPost2010Prop32
280
     0
102
RTVSPost2010PropOp32
 70
     1
102
RTVSPost2010Prop33
280
     0
102
RTVSPost2010PropOp33
 70
     1
102
RTVSPost2010Prop34
280
     0
102
RTVSPost2010PropOp34
 70
     1
102
RTVSPost2010Prop35
280
     0
102
RTVSPost2010PropOp35
 70
     1
102
RTVSPost2010Prop36
280
     0
102
RTVSPost2010PropOp36
 70
     1
102
RTVSPost2010Prop37
 90
       50
102
RTVSPost2010PropOp37
 70
     1
102
RTVSPost2010Prop38
140
0.0
102
RTVSPost2010PropOp38
 70
     1
102
RTVSPost2010Prop39
140
1.0
102
RTVSPost2010PropOp39
 70
     1
102
RTVSPost2010Prop40
 90
        0
102
RTVSPost2010PropOp40
 70
     1
102
RTVSPost2010Prop41ColorIndex
 90
       18
102
RTVSPost2010Prop41ColorRGB
 90
        0
102
RTVSPost2010PropOp41
 70
     1
102
RTVSPost2010Prop42
 90
       50
102
RTVSPost2010PropOp42
 70
     1
102
RTVSPost2010Prop43
 90
        3
102
RTVSPost2010PropOp43
 70
     1
102
RTVSPost2010Prop44ColorIndex
 90
        5
102
RTVSPost2010Prop44ColorRGB
 90
      255
102
RTVSPost2010PropOp44
 70
     1
102
RTVSPost2010Prop45
280
     0
102
RTVSPost2010PropOp45
 70
     1
102
RTVSPost2010Prop46
 90
       50
102
RTVSPost2010PropOp46
 70
     1
102
RTVSPost2010Prop47
 90
       50
102
RTVSPost2010PropOp47
 70
     1
102
RTVSPost2010Prop48
 90
       50
102
RTVSPost2010PropOp48
 70
     1
102
RTVSPost2010Prop49
280
     0
102
RTVSPost2010PropOp49
 70
     1
102
RTVSPost2010Prop50
 90
       50
102
RTVSPost2010PropOp50
 70
     1
102
RTVSPost2010Prop51ColorIndex
 90
      256
102
RTVSPost2010Prop51ColorRGB
 90
-16777216
102
RTVSPost2010PropOp51
 70
     0
102
RTVSPost2010Prop52
140
1.0
102
RTVSPost2010PropOp52
 70
     0
102
RTVSPost2010Prop53
 90
        2
102
RTVSPost2010PropOp53
 70
     1
102
RTVSPost2010Prop54
  1
strokes_ogs.tif
102
RTVSPost2010PropOp54
 70
     1
102
RTVSPost2010Prop55
280
     0
102
RTVSPost2010PropOp55
 70
     1
102
RTVSPost2010Prop56
140
1.0
102
RTVSPost2010PropOp56
 70
     1
102
RTVSPost2010Prop57
140
1.0
102
RTVSPost2010PropOp57
 70
     1
  0
XRECORD
  5
6EF
102
{ACAD_REACTORS
330
6EE
102
}
330
6EE
100
AcDbXrecord
280
     1
102
RTVSPropertyOp0
 70
     1
102
RTVSPropertyOp1
 70
     1
102
RTVSPropertyOp2
 70
     1
102
RTVSPropertyOp3
 70
     1
102
RTVSPropertyOp4
 70
     1
102
RTVSPropertyOp5
 70
     1
102
RTVSPropertyOp6
 70
     1
102
RTVSPropertyOp7
 70
     1
102
RTVSPropertyOp8
 70
     1
102
RTVSPropertyOp9
 70
     1
102
RTVSPropertyOp10
 70
     1
102
RTVSPropertyOp11
 70
     1
102
RTVSPropertyOp12
 70
     1
102
RTVSPropertyOp13
 70
     1
102
RTVSPropertyOp14
 70
     1
102
RTVSPropertyOp15
 70
     1
102
RTVSPropertyOp16
 70
     1
102
RTVSPropertyOp17
 70
     1
102
RTVSPropertyOp18
 70
     1
102
RTVSPropertyOp19
 70
     1
102
RTVSPropertyOp20
 70
     1
102
RTVSPropertyOp21
 70
     1
102
RTVSPropertyOp22
 70
     1
102
RTVSPropertyOp23
 70
     1
102
RTVSPropertyOp24
 70
     1
102
RTVSPropertyOp25
 70
     1
102
RTVSPropertyOp26
 70
     1
102
RTVSPropertyOp27
 70
     1
102
RTVSPropertyOp28
 70
     1
102
RTVSPropertyOp29
 70
     1
102
RTVSPropertyOp30
 70
     1
102
RTVSPropertyOp31
 70
     1
102
RTVSPropertyOp32
 70
     1
102
RTVSPropertyOp33
 70
     1
102
RTVSPropertyOp34
 70
     1
102
RTVSPropertyOp35
 70
     1
102
RTVSPropertyOp36
 70
     1
102
RTVSPropertyOp37
 70
     1
102
RTVSPropertyOp38
 70
     1
102
RTVSPropertyOp39
 70
     1
102
RTVSPropertyOp40
 70
     1
102
RTVSPropertyOp41
 70
     1
102
RTVSPropertyOp42
 70
     1
102
RTVSPropertyOp43
 70
     1
102
RTVSPropertyOp44
 70
     1
102
RTVSPropertyOp45
 70
     1
102
RTVSPropertyOp46
 70
     1
102
RTVSPropertyOp47
 70
     1
102
RTVSPropertyOp48
 70
     1
102
RTVSPropertyOp49
 70
     1
102
RTVSPropertyOp50
 70
     1
102
RTVSPropertyOp51
 70
     0
102
RTVSPropertyOp52
 70
     0
102
RTVSPropertyOp53
 70
     1
102
RTVSPropertyOp54
 70
     1
102
RTVSPropertyOp55
 70
     1
102
RTVSPropertyOp56
 70
     1
102
RTVSPropertyOp57
 70
     1
102
RTVSPost2010Prop28
280
     0
102
RTVSPost2010PropOp28
 70
     1
102
RTVSPost2010Prop29
280
     1
102
RTVSPost2010PropOp29
 70
     1
102
RTVSPost2010Prop30
280
     1
102
RTVSPost2010PropOp30
 70
     1
102
RTVSPost2010Prop31
280
     0
102
RTVSPost2010PropOp31
 70
     1
102
RTVSPost2010Prop32
280
     0
102
RTVSPost2010PropOp32
 70
     1
102
RTVSPost2010Prop33
280
     0
102
RTVSPost2010PropOp33
 70
     1
102
RTVSPost2010Prop34
280
     0
102
RTVSPost2010PropOp34
 70
     1
102
RTVSPost2010Prop35
280
     0
102
RTVSPost2010PropOp35
 70
     1
102
RTVSPost2010Prop36
280
     0
102
RTVSPost2010PropOp36
 70
     1
102
RTVSPost2010Prop37
 90
       50
102
RTVSPost2010PropOp37
 70
     1
102
RTVSPost2010Prop38
140
0.0
102
RTVSPost2010PropOp38
 70
     1
102
RTVSPost2010Prop39
140
1.0
102
RTVSPost2010PropOp39
 70
     1
102
RTVSPost2010Prop40
 90
        0
102
RTVSPost2010PropOp40
 70
     1
102
RTVSPost2010Prop41ColorIndex
 90
       18
102
RTVSPost2010Prop41ColorRGB
 90
        0
102
RTVSPost2010PropOp41
 70
     1
102
RTVSPost2010Prop42
 90
       50
102
RTVSPost2010PropOp42
 70
     1
102
RTVSPost2010Prop43
 90
        3
102
RTVSPost2010PropOp43
 70
     1
102
RTVSPost2010Prop44ColorIndex
 90
        5
102
RTVSPost2010Prop44ColorRGB
 90
      255
102
RTVSPost2010PropOp44
 70
     1
102
RTVSPost2010Prop45
280
     0
102
RTVSPost2010PropOp45
 70
     1
102
RTVSPost2010Prop46
 90
       50
102
RTVSPost2010PropOp46
 70
     1
102
RTVSPost2010Prop47
 90
       50
102
RTVSPost2010PropOp47
 70
     1
102
RTVSPost2010Prop48
 90
       50
102
RTVSPost2010PropOp48
 70
     1
102
RTVSPost2010Prop49
280
     0
102
RTVSPost2010PropOp49
 70
     1
102
RTVSPost2010Prop50
 90
       50
102
RTVSPost2010PropOp50
 70
     1
102
RTVSPost2010Prop51ColorIndex
 90
      256
102
RTVSPost2010Prop51ColorRGB
 90
-16777216
102
RTVSPost2010PropOp51
 70
     0
102
RTVSPost2010Prop52
140
1.0
102
RTVSPost2010PropOp52
 70
     0
102
RTVSPost2010Prop53
 90
        2
102
RTVSPost2010PropOp53
 70
     1
102
RTVSPost2010Prop54
  1
strokes_ogs.tif
102
RTVSPost2010PropOp54
 70
     1
102
RTVSPost2010Prop55
280
     0
102
RTVSPost2010PropOp55
 70
     1
102
RTVSPost2010Prop56
140
1.0
102
RTVSPost2010PropOp56
 70
     1
102
RTVSPost2010Prop57
140
1.0
102
RTVSPost2010PropOp57
 70
     1
  0
XRECORD
  5
6F1
102
{ACAD_REACTORS
330
6F0
102
}
330
6F0
100
AcDbXrecord
280
     1
102
RTVSPropertyOp0
 70
     1
102
RTVSPropertyOp1
 70
     1
102
RTVSPropertyOp2
 70
     1
102
RTVSPropertyOp3
 70
     1
102
RTVSPropertyOp4
 70
     1
102
RTVSPropertyOp5
 70
     1
102
RTVSPropertyOp6
 70
     1
102
RTVSPropertyOp7
 70
     1
102
RTVSPropertyOp8
 70
     1
102
RTVSPropertyOp9
 70
     1
102
RTVSPropertyOp10
 70
     1
102
RTVSPropertyOp11
 70
     1
102
RTVSPropertyOp12
 70
     1
102
RTVSPropertyOp13
 70
     1
102
RTVSPropertyOp14
 70
     1
102
RTVSPropertyOp15
 70
     1
102
RTVSPropertyOp16
 70
     1
102
RTVSPropertyOp17
 70
     1
102
RTVSPropertyOp18
 70
     1
102
RTVSPropertyOp19
 70
     1
102
RTVSPropertyOp20
 70
     1
102
RTVSPropertyOp21
 70
     1
102
RTVSPropertyOp22
 70
     1
102
RTVSPropertyOp23
 70
     1
102
RTVSPropertyOp24
 70
     1
102
RTVSPropertyOp25
 70
     1
102
RTVSPropertyOp26
 70
     1
102
RTVSPropertyOp27
 70
     1
102
RTVSPropertyOp28
 70
     1
102
RTVSPropertyOp29
 70
     1
102
RTVSPropertyOp30
 70
     1
102
RTVSPropertyOp31
 70
     1
102
RTVSPropertyOp32
 70
     1
102
RTVSPropertyOp33
 70
     1
102
RTVSPropertyOp34
 70
     1
102
RTVSPropertyOp35
 70
     1
102
RTVSPropertyOp36
 70
     1
102
RTVSPropertyOp37
 70
     1
102
RTVSPropertyOp38
 70
     1
102
RTVSPropertyOp39
 70
     1
102
RTVSPropertyOp40
 70
     1
102
RTVSPropertyOp41
 70
     1
102
RTVSPropertyOp42
 70
     1
102
RTVSPropertyOp43
 70
     1
102
RTVSPropertyOp44
 70
     1
102
RTVSPropertyOp45
 70
     1
102
RTVSPropertyOp46
 70
     1
102
RTVSPropertyOp47
 70
     1
102
RTVSPropertyOp48
 70
     1
102
RTVSPropertyOp49
 70
     1
102
RTVSPropertyOp50
 70
     1
102
RTVSPropertyOp51
 70
     0
102
RTVSPropertyOp52
 70
     0
102
RTVSPropertyOp53
 70
     1
102
RTVSPropertyOp54
 70
     1
102
RTVSPropertyOp55
 70
     1
102
RTVSPropertyOp56
 70
     1
102
RTVSPropertyOp57
 70
     1
102
RTVSPost2010Prop28
280
     0
102
RTVSPost2010PropOp28
 70
     1
102
RTVSPost2010Prop29
280
     1
102
RTVSPost2010PropOp29
 70
     1
102
RTVSPost2010Prop30
280
     1
102
RTVSPost2010PropOp30
 70
     1
102
RTVSPost2010Prop31
280
     0
102
RTVSPost2010PropOp31
 70
     1
102
RTVSPost2010Prop32
280
     0
102
RTVSPost2010PropOp32
 70
     1
102
RTVSPost2010Prop33
280
     0
102
RTVSPost2010PropOp33
 70
     1
102
RTVSPost2010Prop34
280
     0
102
RTVSPost2010PropOp34
 70
     1
102
RTVSPost2010Prop35
280
     0
102
RTVSPost2010PropOp35
 70
     1
102
RTVSPost2010Prop36
280
     0
102
RTVSPost2010PropOp36
 70
     1
102
RTVSPost2010Prop37
 90
       50
102
RTVSPost2010PropOp37
 70
     1
102
RTVSPost2010Prop38
140
0.0
102
RTVSPost2010PropOp38
 70
     1
102
RTVSPost2010Prop39
140
1.0
102
RTVSPost2010PropOp39
 70
     1
102
RTVSPost2010Prop40
 90
        0
102
RTVSPost2010PropOp40
 70
     1
102
RTVSPost2010Prop41ColorIndex
 90
       18
102
RTVSPost2010Prop41ColorRGB
 90
        0
102
RTVSPost2010PropOp41
 70
     1
102
RTVSPost2010Prop42
 90
       50
102
RTVSPost2010PropOp42
 70
     1
102
RTVSPost2010Prop43
 90
        3
102
RTVSPost2010PropOp43
 70
     1
102
RTVSPost2010Prop44ColorIndex
 90
        5
102
RTVSPost2010Prop44ColorRGB
 90
      255
102
RTVSPost2010PropOp44
 70
     1
102
RTVSPost2010Prop45
280
     0
102
RTVSPost2010PropOp45
 70
     1
102
RTVSPost2010Prop46
 90
       50
102
RTVSPost2010PropOp46
 70
     1
102
RTVSPost2010Prop47
 90
       50
102
RTVSPost2010PropOp47
 70
     1
102
RTVSPost2010Prop48
 90
       50
102
RTVSPost2010PropOp48
 70
     1
102
RTVSPost2010Prop49
280
     0
102
RTVSPost2010PropOp49
 70
     1
102
RTVSPost2010Prop50
 90
       50
102
RTVSPost2010PropOp50
 70
     1
102
RTVSPost2010Prop51ColorIndex
 90
      256
102
RTVSPost2010Prop51ColorRGB
 90
-16777216
102
RTVSPost2010PropOp51
 70
     0
102
RTVSPost2010Prop52
140
1.0
102
RTVSPost2010PropOp52
 70
     0
102
RTVSPost2010Prop53
 90
        2
102
RTVSPost2010PropOp53
 70
     1
102
RTVSPost2010Prop54
  1
strokes_ogs.tif
102
RTVSPost2010PropOp54
 70
     1
102
RTVSPost2010Prop55
280
     0
102
RTVSPost2010PropOp55
 70
     1
102
RTVSPost2010Prop56
140
1.0
102
RTVSPost2010PropOp56
 70
     1
102
RTVSPost2010Prop57
140
1.0
102
RTVSPost2010PropOp57
 70
     1
  0
XRECORD
  5
6F3
102
{ACAD_REACTORS
330
6F2
102
}
330
6F2
100
AcDbXrecord
280
     1
102
RTVSPropertyOp0
 70
     1
102
RTVSPropertyOp1
 70
     1
102
RTVSPropertyOp2
 70
     1
102
RTVSPropertyOp3
 70
     1
102
RTVSPropertyOp4
 70
     1
102
RTVSPropertyOp5
 70
     1
102
RTVSPropertyOp6
 70
     1
102
RTVSPropertyOp7
 70
     1
102
RTVSPropertyOp8
 70
     1
102
RTVSPropertyOp9
 70
     1
102
RTVSPropertyOp10
 70
     1
102
RTVSPropertyOp11
 70
     1
102
RTVSPropertyOp12
 70
     1
102
RTVSPropertyOp13
 70
     1
102
RTVSPropertyOp14
 70
     1
102
RTVSPropertyOp15
 70
     1
102
RTVSPropertyOp16
 70
     1
102
RTVSPropertyOp17
 70
     1
102
RTVSPropertyOp18
 70
     1
102
RTVSPropertyOp19
 70
     1
102
RTVSPropertyOp20
 70
     1
102
RTVSPropertyOp21
 70
     1
102
RTVSPropertyOp22
 70
     1
102
RTVSPropertyOp23
 70
     1
102
RTVSPropertyOp24
 70
     1
102
RTVSPropertyOp25
 70
     1
102
RTVSPropertyOp26
 70
     1
102
RTVSPropertyOp27
 70
     1
102
RTVSPropertyOp28
 70
     1
102
RTVSPropertyOp29
 70
     1
102
RTVSPropertyOp30
 70
     1
102
RTVSPropertyOp31
 70
     1
102
RTVSPropertyOp32
 70
     1
102
RTVSPropertyOp33
 70
     1
102
RTVSPropertyOp34
 70
     1
102
RTVSPropertyOp35
 70
     1
102
RTVSPropertyOp36
 70
     1
102
RTVSPropertyOp37
 70
     1
102
RTVSPropertyOp38
 70
     1
102
RTVSPropertyOp39
 70
     1
102
RTVSPropertyOp40
 70
     1
102
RTVSPropertyOp41
 70
     1
102
RTVSPropertyOp42
 70
     1
102
RTVSPropertyOp43
 70
     1
102
RTVSPropertyOp44
 70
     1
102
RTVSPropertyOp45
 70
     1
102
RTVSPropertyOp46
 70
     1
102
RTVSPropertyOp47
 70
     1
102
RTVSPropertyOp48
 70
     1
102
RTVSPropertyOp49
 70
     1
102
RTVSPropertyOp50
 70
     1
102
RTVSPropertyOp51
 70
     0
102
RTVSPropertyOp52
 70
     0
102
RTVSPropertyOp53
 70
     1
102
RTVSPropertyOp54
 70
     1
102
RTVSPropertyOp55
 70
     1
102
RTVSPropertyOp56
 70
     1
102
RTVSPropertyOp57
 70
     1
102
RTVSPost2010Prop28
280
     0
102
RTVSPost2010PropOp28
 70
     1
102
RTVSPost2010Prop29
280
     1
102
RTVSPost2010PropOp29
 70
     1
102
RTVSPost2010Prop30
280
     1
102
RTVSPost2010PropOp30
 70
     1
102
RTVSPost2010Prop31
280
     0
102
RTVSPost2010PropOp31
 70
     1
102
RTVSPost2010Prop32
280
     0
102
RTVSPost2010PropOp32
 70
     1
102
RTVSPost2010Prop33
280
     0
102
RTVSPost2010PropOp33
 70
     1
102
RTVSPost2010Prop34
280
     0
102
RTVSPost2010PropOp34
 70
     1
102
RTVSPost2010Prop35
280
     0
102
RTVSPost2010PropOp35
 70
     1
102
RTVSPost2010Prop36
280
     0
102
RTVSPost2010PropOp36
 70
     1
102
RTVSPost2010Prop37
 90
       50
102
RTVSPost2010PropOp37
 70
     1
102
RTVSPost2010Prop38
140
0.0
102
RTVSPost2010PropOp38
 70
     1
102
RTVSPost2010Prop39
140
1.0
102
RTVSPost2010PropOp39
 70
     1
102
RTVSPost2010Prop40
 90
        0
102
RTVSPost2010PropOp40
 70
     1
102
RTVSPost2010Prop41ColorIndex
 90
       18
102
RTVSPost2010Prop41ColorRGB
 90
        0
102
RTVSPost2010PropOp41
 70
     1
102
RTVSPost2010Prop42
 90
       50
102
RTVSPost2010PropOp42
 70
     1
102
RTVSPost2010Prop43
 90
        3
102
RTVSPost2010PropOp43
 70
     1
102
RTVSPost2010Prop44ColorIndex
 90
        5
102
RTVSPost2010Prop44ColorRGB
 90
      255
102
RTVSPost2010PropOp44
 70
     1
102
RTVSPost2010Prop45
280
     0
102
RTVSPost2010PropOp45
 70
     1
102
RTVSPost2010Prop46
 90
       50
102
RTVSPost2010PropOp46
 70
     1
102
RTVSPost2010Prop47
 90
       50
102
RTVSPost2010PropOp47
 70
     1
102
RTVSPost2010Prop48
 90
       50
102
RTVSPost2010PropOp48
 70
     1
102
RTVSPost2010Prop49
280
     0
102
RTVSPost2010PropOp49
 70
     1
102
RTVSPost2010Prop50
 90
       50
102
RTVSPost2010PropOp50
 70
     1
102
RTVSPost2010Prop51ColorIndex
 90
      256
102
RTVSPost2010Prop51ColorRGB
 90
-16777216
102
RTVSPost2010PropOp51
 70
     0
102
RTVSPost2010Prop52
140
1.0
102
RTVSPost2010PropOp52
 70
     0
102
RTVSPost2010Prop53
 90
        2
102
RTVSPost2010PropOp53
 70
     1
102
RTVSPost2010Prop54
  1
strokes_ogs.tif
102
RTVSPost2010PropOp54
 70
     1
102
RTVSPost2010Prop55
280
     0
102
RTVSPost2010PropOp55
 70
     1
102
RTVSPost2010Prop56
140
1.0
102
RTVSPost2010PropOp56
 70
     1
102
RTVSPost2010Prop57
140
1.0
102
RTVSPost2010PropOp57
 70
     1
  0
XRECORD
  5
6F5
102
{ACAD_REACTORS
330
6F4
102
}
330
6F4
100
AcDbXrecord
280
     1
102
RTVSPropertyOp0
 70
     1
102
RTVSPropertyOp1
 70
     1
102
RTVSPropertyOp2
 70
     1
102
RTVSPropertyOp3
 70
     1
102
RTVSPropertyOp4
 70
     1
102
RTVSPropertyOp5
 70
     1
102
RTVSPropertyOp6
 70
     1
102
RTVSPropertyOp7
 70
     1
102
RTVSPropertyOp8
 70
     1
102
RTVSPropertyOp9
 70
     1
102
RTVSPropertyOp10
 70
     1
102
RTVSPropertyOp11
 70
     1
102
RTVSPropertyOp12
 70
     1
102
RTVSPropertyOp13
 70
     1
102
RTVSPropertyOp14
 70
     1
102
RTVSPropertyOp15
 70
     1
102
RTVSPropertyOp16
 70
     1
102
RTVSPropertyOp17
 70
     1
102
RTVSPropertyOp18
 70
     1
102
RTVSPropertyOp19
 70
     1
102
RTVSPropertyOp20
 70
     1
102
RTVSPropertyOp21
 70
     1
102
RTVSPropertyOp22
 70
     1
102
RTVSPropertyOp23
 70
     1
102
RTVSPropertyOp24
 70
     1
102
RTVSPropertyOp25
 70
     1
102
RTVSPropertyOp26
 70
     1
102
RTVSPropertyOp27
 70
     1
102
RTVSPropertyOp28
 70
     1
102
RTVSPropertyOp29
 70
     1
102
RTVSPropertyOp30
 70
     1
102
RTVSPropertyOp31
 70
     1
102
RTVSPropertyOp32
 70
     1
102
RTVSPropertyOp33
 70
     1
102
RTVSPropertyOp34
 70
     1
102
RTVSPropertyOp35
 70
     1
102
RTVSPropertyOp36
 70
     1
102
RTVSPropertyOp37
 70
     1
102
RTVSPropertyOp38
 70
     1
102
RTVSPropertyOp39
 70
     1
102
RTVSPropertyOp40
 70
     1
102
RTVSPropertyOp41
 70
     1
102
RTVSPropertyOp42
 70
     1
102
RTVSPropertyOp43
 70
     1
102
RTVSPropertyOp44
 70
     1
102
RTVSPropertyOp45
 70
     1
102
RTVSPropertyOp46
 70
     1
102
RTVSPropertyOp47
 70
     1
102
RTVSPropertyOp48
 70
     1
102
RTVSPropertyOp49
 70
     1
102
RTVSPropertyOp50
 70
     1
102
RTVSPropertyOp51
 70
     0
102
RTVSPropertyOp52
 70
     0
102
RTVSPropertyOp53
 70
     1
102
RTVSPropertyOp54
 70
     1
102
RTVSPropertyOp55
 70
     1
102
RTVSPropertyOp56
 70
     1
102
RTVSPropertyOp57
 70
     1
102
RTVSPost2010Prop28
280
     0
102
RTVSPost2010PropOp28
 70
     1
102
RTVSPost2010Prop29
280
     1
102
RTVSPost2010PropOp29
 70
     1
102
RTVSPost2010Prop30
280
     1
102
RTVSPost2010PropOp30
 70
     1
102
RTVSPost2010Prop31
280
     0
102
RTVSPost2010PropOp31
 70
     1
102
RTVSPost2010Prop32
280
     0
102
RTVSPost2010PropOp32
 70
     1
102
RTVSPost2010Prop33
280
     0
102
RTVSPost2010PropOp33
 70
     1
102
RTVSPost2010Prop34
280
     0
102
RTVSPost2010PropOp34
 70
     1
102
RTVSPost2010Prop35
280
     0
102
RTVSPost2010PropOp35
 70
     1
102
RTVSPost2010Prop36
280
     0
102
RTVSPost2010PropOp36
 70
     1
102
RTVSPost2010Prop37
 90
       50
102
RTVSPost2010PropOp37
 70
     1
102
RTVSPost2010Prop38
140
0.0
102
RTVSPost2010PropOp38
 70
     1
102
RTVSPost2010Prop39
140
1.0
102
RTVSPost2010PropOp39
 70
     1
102
RTVSPost2010Prop40
 90
        0
102
RTVSPost2010PropOp40
 70
     1
102
RTVSPost2010Prop41ColorIndex
 90
       18
102
RTVSPost2010Prop41ColorRGB
 90
        0
102
RTVSPost2010PropOp41
 70
     1
102
RTVSPost2010Prop42
 90
       50
102
RTVSPost2010PropOp42
 70
     1
102
RTVSPost2010Prop43
 90
        3
102
RTVSPost2010PropOp43
 70
     1
102
RTVSPost2010Prop44ColorIndex
 90
        5
102
RTVSPost2010Prop44ColorRGB
 90
      255
102
RTVSPost2010PropOp44
 70
     1
102
RTVSPost2010Prop45
280
     0
102
RTVSPost2010PropOp45
 70
     1
102
RTVSPost2010Prop46
 90
       50
102
RTVSPost2010PropOp46
 70
     1
102
RTVSPost2010Prop47
 90
       50
102
RTVSPost2010PropOp47
 70
     1
102
RTVSPost2010Prop48
 90
       50
102
RTVSPost2010PropOp48
 70
     1
102
RTVSPost2010Prop49
280
     0
102
RTVSPost2010PropOp49
 70
     1
102
RTVSPost2010Prop50
 90
       50
102
RTVSPost2010PropOp50
 70
     1
102
RTVSPost2010Prop51ColorIndex
 90
      256
102
RTVSPost2010Prop51ColorRGB
 90
-16777216
102
RTVSPost2010PropOp51
 70
     0
102
RTVSPost2010Prop52
140
1.0
102
RTVSPost2010PropOp52
 70
     0
102
RTVSPost2010Prop53
 90
        2
102
RTVSPost2010PropOp53
 70
     1
102
RTVSPost2010Prop54
  1
strokes_ogs.tif
102
RTVSPost2010PropOp54
 70
     1
102
RTVSPost2010Prop55
280
     0
102
RTVSPost2010PropOp55
 70
     1
102
RTVSPost2010Prop56
140
1.0
102
RTVSPost2010PropOp56
 70
     1
102
RTVSPost2010Prop57
140
1.0
102
RTVSPost2010PropOp57
 70
     1
  0
XRECORD
  5
6FB
102
{ACAD_REACTORS
330
6FA
102
}
330
6FA
100
AcDbXrecord
280
     1
102
RTVSPropertyOp0
 70
     1
102
RTVSPropertyOp1
 70
     1
102
RTVSPropertyOp2
 70
     1
102
RTVSPropertyOp3
 70
     1
102
RTVSPropertyOp4
 70
     1
102
RTVSPropertyOp5
 70
     1
102
RTVSPropertyOp6
 70
     1
102
RTVSPropertyOp7
 70
     1
102
RTVSPropertyOp8
 70
     1
102
RTVSPropertyOp9
 70
     1
102
RTVSPropertyOp10
 70
     1
102
RTVSPropertyOp11
 70
     1
102
RTVSPropertyOp12
 70
     1
102
RTVSPropertyOp13
 70
     1
102
RTVSPropertyOp14
 70
     1
102
RTVSPropertyOp15
 70
     1
102
RTVSPropertyOp16
 70
     1
102
RTVSPropertyOp17
 70
     1
102
RTVSPropertyOp18
 70
     1
102
RTVSPropertyOp19
 70
     1
102
RTVSPropertyOp20
 70
     1
102
RTVSPropertyOp21
 70
     1
102
RTVSPropertyOp22
 70
     1
102
RTVSPropertyOp23
 70
     1
102
RTVSPropertyOp24
 70
     1
102
RTVSPropertyOp25
 70
     1
102
RTVSPropertyOp26
 70
     1
102
RTVSPropertyOp27
 70
     1
102
RTVSPropertyOp28
 70
     1
102
RTVSPropertyOp29
 70
     1
102
RTVSPropertyOp30
 70
     1
102
RTVSPropertyOp31
 70
     1
102
RTVSPropertyOp32
 70
     1
102
RTVSPropertyOp33
 70
     1
102
RTVSPropertyOp34
 70
     1
102
RTVSPropertyOp35
 70
     1
102
RTVSPropertyOp36
 70
     1
102
RTVSPropertyOp37
 70
     1
102
RTVSPropertyOp38
 70
     1
102
RTVSPropertyOp39
 70
     1
102
RTVSPropertyOp40
 70
     1
102
RTVSPropertyOp41
 70
     1
102
RTVSPropertyOp42
 70
     1
102
RTVSPropertyOp43
 70
     1
102
RTVSPropertyOp44
 70
     1
102
RTVSPropertyOp45
 70
     1
102
RTVSPropertyOp46
 70
     1
102
RTVSPropertyOp47
 70
     1
102
RTVSPropertyOp48
 70
     1
102
RTVSPropertyOp49
 70
     1
102
RTVSPropertyOp50
 70
     1
102
RTVSPropertyOp51
 70
     0
102
RTVSPropertyOp52
 70
     0
102
RTVSPropertyOp53
 70
     1
102
RTVSPropertyOp54
 70
     1
102
RTVSPropertyOp55
 70
     1
102
RTVSPropertyOp56
 70
     1
102
RTVSPropertyOp57
 70
     1
102
RTVSPost2010Prop28
280
     0
102
RTVSPost2010PropOp28
 70
     1
102
RTVSPost2010Prop29
280
     1
102
RTVSPost2010PropOp29
 70
     1
102
RTVSPost2010Prop30
280
     1
102
RTVSPost2010PropOp30
 70
     1
102
RTVSPost2010Prop31
280
     0
102
RTVSPost2010PropOp31
 70
     1
102
RTVSPost2010Prop32
280
     0
102
RTVSPost2010PropOp32
 70
     1
102
RTVSPost2010Prop33
280
     0
102
RTVSPost2010PropOp33
 70
     1
102
RTVSPost2010Prop34
280
     0
102
RTVSPost2010PropOp34
 70
     1
102
RTVSPost2010Prop35
280
     0
102
RTVSPost2010PropOp35
 70
     1
102
RTVSPost2010Prop36
280
     0
102
RTVSPost2010PropOp36
 70
     1
102
RTVSPost2010Prop37
 90
       50
102
RTVSPost2010PropOp37
 70
     1
102
RTVSPost2010Prop38
140
0.0
102
RTVSPost2010PropOp38
 70
     1
102
RTVSPost2010Prop39
140
1.0
102
RTVSPost2010PropOp39
 70
     1
102
RTVSPost2010Prop40
 90
        0
102
RTVSPost2010PropOp40
 70
     1
102
RTVSPost2010Prop41ColorIndex
 90
       18
102
RTVSPost2010Prop41ColorRGB
 90
        0
102
RTVSPost2010PropOp41
 70
     1
102
RTVSPost2010Prop42
 90
       50
102
RTVSPost2010PropOp42
 70
     1
102
RTVSPost2010Prop43
 90
        3
102
RTVSPost2010PropOp43
 70
     1
102
RTVSPost2010Prop44ColorIndex
 90
        5
102
RTVSPost2010Prop44ColorRGB
 90
      255
102
RTVSPost2010PropOp44
 70
     1
102
RTVSPost2010Prop45
280
     0
102
RTVSPost2010PropOp45
 70
     1
102
RTVSPost2010Prop46
 90
       50
102
RTVSPost2010PropOp46
 70
     1
102
RTVSPost2010Prop47
 90
       50
102
RTVSPost2010PropOp47
 70
     1
102
RTVSPost2010Prop48
 90
       50
102
RTVSPost2010PropOp48
 70
     1
102
RTVSPost2010Prop49
280
     0
102
RTVSPost2010PropOp49
 70
     1
102
RTVSPost2010Prop50
 90
       50
102
RTVSPost2010PropOp50
 70
     1
102
RTVSPost2010Prop51ColorIndex
 90
      256
102
RTVSPost2010Prop51ColorRGB
 90
-16777216
102
RTVSPost2010PropOp51
 70
     0
102
RTVSPost2010Prop52
140
1.0
102
RTVSPost2010PropOp52
 70
     0
102
RTVSPost2010Prop53
 90
        2
102
RTVSPost2010PropOp53
 70
     1
102
RTVSPost2010Prop54
  1
strokes_ogs.tif
102
RTVSPost2010PropOp54
 70
     1
102
RTVSPost2010Prop55
280
     0
102
RTVSPost2010PropOp55
 70
     1
102
RTVSPost2010Prop56
140
1.0
102
RTVSPost2010PropOp56
 70
     1
102
RTVSPost2010Prop57
140
1.0
102
RTVSPost2010PropOp57
 70
     1
  0
XRECORD
  5
70F
102
{ACAD_REACTORS
330
70E
102
}
330
70E
100
AcDbXrecord
280
     1
102
RTVSPropertyOp0
 70
     0
102
RTVSPropertyOp1
 70
     0
102
RTVSPropertyOp2
 70
     0
102
RTVSPropertyOp3
 70
     0
102
RTVSPropertyOp4
 70
     0
102
RTVSPropertyOp5
 70
     0
102
RTVSPropertyOp6
 70
     0
102
RTVSPropertyOp7
 70
     0
102
RTVSPropertyOp8
 70
     0
102
RTVSPropertyOp9
 70
     0
102
RTVSPropertyOp10
 70
     0
102
RTVSPropertyOp11
 70
     0
102
RTVSPropertyOp12
 70
     0
102
RTVSPropertyOp13
 70
     0
102
RTVSPropertyOp14
 70
     2
102
RTVSPropertyOp15
 70
     0
102
RTVSPropertyOp16
 70
     0
102
RTVSPropertyOp17
 70
     0
102
RTVSPropertyOp18
 70
     0
102
RTVSPropertyOp19
 70
     0
102
RTVSPropertyOp20
 70
     0
102
RTVSPropertyOp21
 70
     0
102
RTVSPropertyOp22
 70
     0
102
RTVSPropertyOp23
 70
     0
102
RTVSPropertyOp24
 70
     0
102
RTVSPropertyOp25
 70
     0
102
RTVSPropertyOp26
 70
     0
102
RTVSPropertyOp27
 70
     0
102
RTVSPropertyOp28
 70
     0
102
RTVSPropertyOp29
 70
     0
102
RTVSPropertyOp30
 70
     0
102
RTVSPropertyOp31
 70
     0
102
RTVSPropertyOp32
 70
     0
102
RTVSPropertyOp33
 70
     0
102
RTVSPropertyOp34
 70
     0
102
RTVSPropertyOp35
 70
     0
102
RTVSPropertyOp36
 70
     0
102
RTVSPropertyOp37
 70
     0
102
RTVSPropertyOp38
 70
     0
102
RTVSPropertyOp39
 70
     0
102
RTVSPropertyOp40
 70
     0
102
RTVSPropertyOp41
 70
     0
102
RTVSPropertyOp42
 70
     0
102
RTVSPropertyOp43
 70
     0
102
RTVSPropertyOp44
 70
     0
102
RTVSPropertyOp45
 70
     0
102
RTVSPropertyOp46
 70
     0
102
RTVSPropertyOp47
 70
     0
102
RTVSPropertyOp48
 70
     0
102
RTVSPropertyOp49
 70
     0
102
RTVSPropertyOp50
 70
     0
102
RTVSPropertyOp51
 70
     0
102
RTVSPropertyOp52
 70
     0
102
RTVSPropertyOp53
 70
     0
102
RTVSPropertyOp54
 70
     0
102
RTVSPropertyOp55
 70
     0
102
RTVSPropertyOp56
 70
     0
102
RTVSPropertyOp57
 70
     0
102
RTVSPost2010Prop28
280
     0
102
RTVSPost2010PropOp28
 70
     0
102
RTVSPost2010Prop29
280
     1
102
RTVSPost2010PropOp29
 70
     0
102
RTVSPost2010Prop30
280
     1
102
RTVSPost2010PropOp30
 70
     0
102
RTVSPost2010Prop31
280
     0
102
RTVSPost2010PropOp31
 70
     0
102
RTVSPost2010Prop32
280
     0
102
RTVSPost2010PropOp32
 70
     0
102
RTVSPost2010Prop33
280
     0
102
RTVSPost2010PropOp33
 70
     0
102
RTVSPost2010Prop34
280
     0
102
RTVSPost2010PropOp34
 70
     0
102
RTVSPost2010Prop35
280
     0
102
RTVSPost2010PropOp35
 70
     0
102
RTVSPost2010Prop36
280
     0
102
RTVSPost2010PropOp36
 70
     0
102
RTVSPost2010Prop37
 90
       50
102
RTVSPost2010PropOp37
 70
     0
102
RTVSPost2010Prop38
140
0.0
102
RTVSPost2010PropOp38
 70
     0
102
RTVSPost2010Prop39
140
1.0
102
RTVSPost2010PropOp39
 70
     0
102
RTVSPost2010Prop40
 90
        0
102
RTVSPost2010PropOp40
 70
     0
102
RTVSPost2010Prop41ColorIndex
 90
       18
102
RTVSPost2010Prop41ColorRGB
 90
        0
102
RTVSPost2010PropOp41
 70
     0
102
RTVSPost2010Prop42
 90
       50
102
RTVSPost2010PropOp42
 70
     0
102
RTVSPost2010Prop43
 90
        3
102
RTVSPost2010PropOp43
 70
     0
102
RTVSPost2010Prop44ColorIndex
 90
        5
102
RTVSPost2010Prop44ColorRGB
 90
      255
102
RTVSPost2010PropOp44
 70
     0
102
RTVSPost2010Prop45
280
     0
102
RTVSPost2010PropOp45
 70
     0
102
RTVSPost2010Prop46
 90
       50
102
RTVSPost2010PropOp46
 70
     0
102
RTVSPost2010Prop47
 90
       50
102
RTVSPost2010PropOp47
 70
     0
102
RTVSPost2010Prop48
 90
       50
102
RTVSPost2010PropOp48
 70
     0
102
RTVSPost2010Prop49
280
     0
102
RTVSPost2010PropOp49
 70
     0
102
RTVSPost2010Prop50
 90
       50
102
RTVSPost2010PropOp50
 70
     0
102
RTVSPost2010Prop51ColorIndex
 90
      256
102
RTVSPost2010Prop51ColorRGB
 90
-16777216
102
RTVSPost2010PropOp51
 70
     0
102
RTVSPost2010Prop52
140
1.0
102
RTVSPost2010PropOp52
 70
     0
102
RTVSPost2010Prop53
 90
        2
102
RTVSPost2010PropOp53
 70
     0
102
RTVSPost2010Prop54
  1
strokes_ogs.tif
102
RTVSPost2010PropOp54
 70
     0
102
RTVSPost2010Prop55
280
     0
102
RTVSPost2010PropOp55
 70
     0
102
RTVSPost2010Prop56
140
1.0
102
RTVSPost2010PropOp56
 70
     0
102
RTVSPost2010Prop57
140
1.0
102
RTVSPost2010PropOp57
 70
     0
  0
XRECORD
  5
709
102
{ACAD_REACTORS
330
708
102
}
330
708
100
AcDbXrecord
280
     1
102
RTVSPropertyOp0
 70
     1
102
RTVSPropertyOp1
 70
     1
102
RTVSPropertyOp2
 70
     1
102
RTVSPropertyOp3
 70
     1
102
RTVSPropertyOp4
 70
     1
102
RTVSPropertyOp5
 70
     1
102
RTVSPropertyOp6
 70
     1
102
RTVSPropertyOp7
 70
     1
102
RTVSPropertyOp8
 70
     1
102
RTVSPropertyOp9
 70
     1
102
RTVSPropertyOp10
 70
     1
102
RTVSPropertyOp11
 70
     1
102
RTVSPropertyOp12
 70
     1
102
RTVSPropertyOp13
 70
     1
102
RTVSPropertyOp14
 70
     1
102
RTVSPropertyOp15
 70
     1
102
RTVSPropertyOp16
 70
     1
102
RTVSPropertyOp17
 70
     1
102
RTVSPropertyOp18
 70
     1
102
RTVSPropertyOp19
 70
     1
102
RTVSPropertyOp20
 70
     1
102
RTVSPropertyOp21
 70
     1
102
RTVSPropertyOp22
 70
     1
102
RTVSPropertyOp23
 70
     1
102
RTVSPropertyOp24
 70
     1
102
RTVSPropertyOp25
 70
     1
102
RTVSPropertyOp26
 70
     1
102
RTVSPropertyOp27
 70
     1
102
RTVSPropertyOp28
 70
     1
102
RTVSPropertyOp29
 70
     1
102
RTVSPropertyOp30
 70
     1
102
RTVSPropertyOp31
 70
     1
102
RTVSPropertyOp32
 70
     1
102
RTVSPropertyOp33
 70
     1
102
RTVSPropertyOp34
 70
     1
102
RTVSPropertyOp35
 70
     1
102
RTVSPropertyOp36
 70
     1
102
RTVSPropertyOp37
 70
     1
102
RTVSPropertyOp38
 70
     1
102
RTVSPropertyOp39
 70
     1
102
RTVSPropertyOp40
 70
     1
102
RTVSPropertyOp41
 70
     1
102
RTVSPropertyOp42
 70
     1
102
RTVSPropertyOp43
 70
     1
102
RTVSPropertyOp44
 70
     1
102
RTVSPropertyOp45
 70
     1
102
RTVSPropertyOp46
 70
     1
102
RTVSPropertyOp47
 70
     1
102
RTVSPropertyOp48
 70
     1
102
RTVSPropertyOp49
 70
     1
102
RTVSPropertyOp50
 70
     1
102
RTVSPropertyOp51
 70
     0
102
RTVSPropertyOp52
 70
     0
102
RTVSPropertyOp53
 70
     1
102
RTVSPropertyOp54
 70
     1
102
RTVSPropertyOp55
 70
     1
102
RTVSPropertyOp56
 70
     1
102
RTVSPropertyOp57
 70
     1
102
RTVSPost2010Prop28
280
     0
102
RTVSPost2010PropOp28
 70
     1
102
RTVSPost2010Prop29
280
     1
102
RTVSPost2010PropOp29
 70
     1
102
RTVSPost2010Prop30
280
     1
102
RTVSPost2010PropOp30
 70
     1
102
RTVSPost2010Prop31
280
     0
102
RTVSPost2010PropOp31
 70
     1
102
RTVSPost2010Prop32
280
     0
102
RTVSPost2010PropOp32
 70
     1
102
RTVSPost2010Prop33
280
     0
102
RTVSPost2010PropOp33
 70
     1
102
RTVSPost2010Prop34
280
     0
102
RTVSPost2010PropOp34
 70
     1
102
RTVSPost2010Prop35
280
     0
102
RTVSPost2010PropOp35
 70
     1
102
RTVSPost2010Prop36
280
     0
102
RTVSPost2010PropOp36
 70
     1
102
RTVSPost2010Prop37
 90
       50
102
RTVSPost2010PropOp37
 70
     1
102
RTVSPost2010Prop38
140
0.0
102
RTVSPost2010PropOp38
 70
     1
102
RTVSPost2010Prop39
140
1.0
102
RTVSPost2010PropOp39
 70
     1
102
RTVSPost2010Prop40
 90
        0
102
RTVSPost2010PropOp40
 70
     1
102
RTVSPost2010Prop41ColorIndex
 90
       18
102
RTVSPost2010Prop41ColorRGB
 90
        0
102
RTVSPost2010PropOp41
 70
     1
102
RTVSPost2010Prop42
 90
       50
102
RTVSPost2010PropOp42
 70
     1
102
RTVSPost2010Prop43
 90
        3
102
RTVSPost2010PropOp43
 70
     1
102
RTVSPost2010Prop44ColorIndex
 90
        5
102
RTVSPost2010Prop44ColorRGB
 90
      255
102
RTVSPost2010PropOp44
 70
     1
102
RTVSPost2010Prop45
280
     0
102
RTVSPost2010PropOp45
 70
     1
102
RTVSPost2010Prop46
 90
       50
102
RTVSPost2010PropOp46
 70
     1
102
RTVSPost2010Prop47
 90
       50
102
RTVSPost2010PropOp47
 70
     1
102
RTVSPost2010Prop48
 90
       50
102
RTVSPost2010PropOp48
 70
     1
102
RTVSPost2010Prop49
280
     0
102
RTVSPost2010PropOp49
 70
     1
102
RTVSPost2010Prop50
 90
       50
102
RTVSPost2010PropOp50
 70
     1
102
RTVSPost2010Prop51ColorIndex
 90
      256
102
RTVSPost2010Prop51ColorRGB
 90
-16777216
102
RTVSPost2010PropOp51
 70
     0
102
RTVSPost2010Prop52
140
1.0
102
RTVSPost2010PropOp52
 70
     0
102
RTVSPost2010Prop53
 90
        2
102
RTVSPost2010PropOp53
 70
     1
102
RTVSPost2010Prop54
  1
strokes_ogs.tif
102
RTVSPost2010PropOp54
 70
     1
102
RTVSPost2010Prop55
280
     0
102
RTVSPost2010PropOp55
 70
     1
102
RTVSPost2010Prop56
140
1.0
102
RTVSPost2010PropOp56
 70
     1
102
RTVSPost2010Prop57
140
1.0
102
RTVSPost2010PropOp57
 70
     1
  0
XRECORD
  5
711
102
{ACAD_REACTORS
330
710
102
}
330
710
100
AcDbXrecord
280
     1
102
RTVSPropertyOp0
 70
     0
102
RTVSPropertyOp1
 70
     0
102
RTVSPropertyOp2
 70
     0
102
RTVSPropertyOp3
 70
     0
102
RTVSPropertyOp4
 70
     0
102
RTVSPropertyOp5
 70
     0
102
RTVSPropertyOp6
 70
     0
102
RTVSPropertyOp7
 70
     0
102
RTVSPropertyOp8
 70
     0
102
RTVSPropertyOp9
 70
     0
102
RTVSPropertyOp10
 70
     0
102
RTVSPropertyOp11
 70
     0
102
RTVSPropertyOp12
 70
     0
102
RTVSPropertyOp13
 70
     0
102
RTVSPropertyOp14
 70
     2
102
RTVSPropertyOp15
 70
     0
102
RTVSPropertyOp16
 70
     0
102
RTVSPropertyOp17
 70
     0
102
RTVSPropertyOp18
 70
     0
102
RTVSPropertyOp19
 70
     0
102
RTVSPropertyOp20
 70
     0
102
RTVSPropertyOp21
 70
     0
102
RTVSPropertyOp22
 70
     0
102
RTVSPropertyOp23
 70
     0
102
RTVSPropertyOp24
 70
     0
102
RTVSPropertyOp25
 70
     0
102
RTVSPropertyOp26
 70
     0
102
RTVSPropertyOp27
 70
     0
102
RTVSPropertyOp28
 70
     0
102
RTVSPropertyOp29
 70
     0
102
RTVSPropertyOp30
 70
     0
102
RTVSPropertyOp31
 70
     0
102
RTVSPropertyOp32
 70
     0
102
RTVSPropertyOp33
 70
     0
102
RTVSPropertyOp34
 70
     0
102
RTVSPropertyOp35
 70
     0
102
RTVSPropertyOp36
 70
     0
102
RTVSPropertyOp37
 70
     0
102
RTVSPropertyOp38
 70
     0
102
RTVSPropertyOp39
 70
     0
102
RTVSPropertyOp40
 70
     0
102
RTVSPropertyOp41
 70
     0
102
RTVSPropertyOp42
 70
     0
102
RTVSPropertyOp43
 70
     0
102
RTVSPropertyOp44
 70
     0
102
RTVSPropertyOp45
 70
     0
102
RTVSPropertyOp46
 70
     0
102
RTVSPropertyOp47
 70
     0
102
RTVSPropertyOp48
 70
     0
102
RTVSPropertyOp49
 70
     0
102
RTVSPropertyOp50
 70
     0
102
RTVSPropertyOp51
 70
     0
102
RTVSPropertyOp52
 70
     0
102
RTVSPropertyOp53
 70
     0
102
RTVSPropertyOp54
 70
     0
102
RTVSPropertyOp55
 70
     0
102
RTVSPropertyOp56
 70
     0
102
RTVSPropertyOp57
 70
     0
102
RTVSPost2010Prop28
280
     0
102
RTVSPost2010PropOp28
 70
     0
102
RTVSPost2010Prop29
280
     1
102
RTVSPost2010PropOp29
 70
     0
102
RTVSPost2010Prop30
280
     1
102
RTVSPost2010PropOp30
 70
     0
102
RTVSPost2010Prop31
280
     0
102
RTVSPost2010PropOp31
 70
     0
102
RTVSPost2010Prop32
280
     0
102
RTVSPost2010PropOp32
 70
     0
102
RTVSPost2010Prop33
280
     0
102
RTVSPost2010PropOp33
 70
     0
102
RTVSPost2010Prop34
280
     0
102
RTVSPost2010PropOp34
 70
     0
102
RTVSPost2010Prop35
280
     0
102
RTVSPost2010PropOp35
 70
     0
102
RTVSPost2010Prop36
280
     0
102
RTVSPost2010PropOp36
 70
     0
102
RTVSPost2010Prop37
 90
       50
102
RTVSPost2010PropOp37
 70
     0
102
RTVSPost2010Prop38
140
0.0
102
RTVSPost2010PropOp38
 70
     0
102
RTVSPost2010Prop39
140
1.0
102
RTVSPost2010PropOp39
 70
     0
102
RTVSPost2010Prop40
 90
        0
102
RTVSPost2010PropOp40
 70
     0
102
RTVSPost2010Prop41ColorIndex
 90
       18
102
RTVSPost2010Prop41ColorRGB
 90
        0
102
RTVSPost2010PropOp41
 70
     0
102
RTVSPost2010Prop42
 90
       50
102
RTVSPost2010PropOp42
 70
     0
102
RTVSPost2010Prop43
 90
        3
102
RTVSPost2010PropOp43
 70
     0
102
RTVSPost2010Prop44ColorIndex
 90
        5
102
RTVSPost2010Prop44ColorRGB
 90
      255
102
RTVSPost2010PropOp44
 70
     0
102
RTVSPost2010Prop45
280
     0
102
RTVSPost2010PropOp45
 70
     0
102
RTVSPost2010Prop46
 90
       50
102
RTVSPost2010PropOp46
 70
     0
102
RTVSPost2010Prop47
 90
       50
102
RTVSPost2010PropOp47
 70
     0
102
RTVSPost2010Prop48
 90
       50
102
RTVSPost2010PropOp48
 70
     0
102
RTVSPost2010Prop49
280
     0
102
RTVSPost2010PropOp49
 70
     0
102
RTVSPost2010Prop50
 90
       50
102
RTVSPost2010PropOp50
 70
     0
102
RTVSPost2010Prop51ColorIndex
 90
      256
102
RTVSPost2010Prop51ColorRGB
 90
-16777216
102
RTVSPost2010PropOp51
 70
     0
102
RTVSPost2010Prop52
140
1.0
102
RTVSPost2010PropOp52
 70
     0
102
RTVSPost2010Prop53
 90
        2
102
RTVSPost2010PropOp53
 70
     0
102
RTVSPost2010Prop54
  1
strokes_ogs.tif
102
RTVSPost2010PropOp54
 70
     0
102
RTVSPost2010Prop55
280
     0
102
RTVSPost2010PropOp55
 70
     0
102
RTVSPost2010Prop56
140
1.0
102
RTVSPost2010PropOp56
 70
     0
102
RTVSPost2010Prop57
140
1.0
102
RTVSPost2010PropOp57
 70
     0
  0
XRECORD
  5
6FF
102
{ACAD_REACTORS
330
6FE
102
}
330
6FE
100
AcDbXrecord
280
     1
102
RTVSPropertyOp0
 70
     1
102
RTVSPropertyOp1
 70
     1
102
RTVSPropertyOp2
 70
     1
102
RTVSPropertyOp3
 70
     1
102
RTVSPropertyOp4
 70
     1
102
RTVSPropertyOp5
 70
     1
102
RTVSPropertyOp6
 70
     1
102
RTVSPropertyOp7
 70
     1
102
RTVSPropertyOp8
 70
     1
102
RTVSPropertyOp9
 70
     1
102
RTVSPropertyOp10
 70
     1
102
RTVSPropertyOp11
 70
     1
102
RTVSPropertyOp12
 70
     1
102
RTVSPropertyOp13
 70
     1
102
RTVSPropertyOp14
 70
     1
102
RTVSPropertyOp15
 70
     1
102
RTVSPropertyOp16
 70
     1
102
RTVSPropertyOp17
 70
     1
102
RTVSPropertyOp18
 70
     1
102
RTVSPropertyOp19
 70
     1
102
RTVSPropertyOp20
 70
     1
102
RTVSPropertyOp21
 70
     1
102
RTVSPropertyOp22
 70
     1
102
RTVSPropertyOp23
 70
     1
102
RTVSPropertyOp24
 70
     1
102
RTVSPropertyOp25
 70
     1
102
RTVSPropertyOp26
 70
     1
102
RTVSPropertyOp27
 70
     1
102
RTVSPropertyOp28
 70
     1
102
RTVSPropertyOp29
 70
     1
102
RTVSPropertyOp30
 70
     1
102
RTVSPropertyOp31
 70
     1
102
RTVSPropertyOp32
 70
     1
102
RTVSPropertyOp33
 70
     1
102
RTVSPropertyOp34
 70
     1
102
RTVSPropertyOp35
 70
     1
102
RTVSPropertyOp36
 70
     1
102
RTVSPropertyOp37
 70
     1
102
RTVSPropertyOp38
 70
     1
102
RTVSPropertyOp39
 70
     1
102
RTVSPropertyOp40
 70
     1
102
RTVSPropertyOp41
 70
     1
102
RTVSPropertyOp42
 70
     1
102
RTVSPropertyOp43
 70
     1
102
RTVSPropertyOp44
 70
     1
102
RTVSPropertyOp45
 70
     1
102
RTVSPropertyOp46
 70
     1
102
RTVSPropertyOp47
 70
     1
102
RTVSPropertyOp48
 70
     1
102
RTVSPropertyOp49
 70
     1
102
RTVSPropertyOp50
 70
     1
102
RTVSPropertyOp51
 70
     0
102
RTVSPropertyOp52
 70
     0
102
RTVSPropertyOp53
 70
     1
102
RTVSPropertyOp54
 70
     1
102
RTVSPropertyOp55
 70
     1
102
RTVSPropertyOp56
 70
     1
102
RTVSPropertyOp57
 70
     1
102
RTVSPost2010Prop28
280
     0
102
RTVSPost2010PropOp28
 70
     1
102
RTVSPost2010Prop29
280
     1
102
RTVSPost2010PropOp29
 70
     1
102
RTVSPost2010Prop30
280
     1
102
RTVSPost2010PropOp30
 70
     1
102
RTVSPost2010Prop31
280
     0
102
RTVSPost2010PropOp31
 70
     1
102
RTVSPost2010Prop32
280
     0
102
RTVSPost2010PropOp32
 70
     1
102
RTVSPost2010Prop33
280
     0
102
RTVSPost2010PropOp33
 70
     1
102
RTVSPost2010Prop34
280
     0
102
RTVSPost2010PropOp34
 70
     1
102
RTVSPost2010Prop35
280
     0
102
RTVSPost2010PropOp35
 70
     1
102
RTVSPost2010Prop36
280
     0
102
RTVSPost2010PropOp36
 70
     1
102
RTVSPost2010Prop37
 90
       50
102
RTVSPost2010PropOp37
 70
     1
102
RTVSPost2010Prop38
140
0.0
102
RTVSPost2010PropOp38
 70
     1
102
RTVSPost2010Prop39
140
1.0
102
RTVSPost2010PropOp39
 70
     1
102
RTVSPost2010Prop40
 90
        0
102
RTVSPost2010PropOp40
 70
     1
102
RTVSPost2010Prop41ColorIndex
 90
       18
102
RTVSPost2010Prop41ColorRGB
 90
        0
102
RTVSPost2010PropOp41
 70
     1
102
RTVSPost2010Prop42
 90
       50
102
RTVSPost2010PropOp42
 70
     1
102
RTVSPost2010Prop43
 90
        3
102
RTVSPost2010PropOp43
 70
     1
102
RTVSPost2010Prop44ColorIndex
 90
        5
102
RTVSPost2010Prop44ColorRGB
 90
      255
102
RTVSPost2010PropOp44
 70
     1
102
RTVSPost2010Prop45
280
     0
102
RTVSPost2010PropOp45
 70
     1
102
RTVSPost2010Prop46
 90
       50
102
RTVSPost2010PropOp46
 70
     1
102
RTVSPost2010Prop47
 90
       50
102
RTVSPost2010PropOp47
 70
     1
102
RTVSPost2010Prop48
 90
       50
102
RTVSPost2010PropOp48
 70
     1
102
RTVSPost2010Prop49
280
     0
102
RTVSPost2010PropOp49
 70
     1
102
RTVSPost2010Prop50
 90
       50
102
RTVSPost2010PropOp50
 70
     1
102
RTVSPost2010Prop51ColorIndex
 90
      256
102
RTVSPost2010Prop51ColorRGB
 90
-16777216
102
RTVSPost2010PropOp51
 70
     0
102
RTVSPost2010Prop52
140
1.0
102
RTVSPost2010PropOp52
 70
     0
102
RTVSPost2010Prop53
 90
        2
102
RTVSPost2010PropOp53
 70
     1
102
RTVSPost2010Prop54
  1
strokes_ogs.tif
102
RTVSPost2010PropOp54
 70
     1
102
RTVSPost2010Prop55
280
     0
102
RTVSPost2010PropOp55
 70
     1
102
RTVSPost2010Prop56
140
1.0
102
RTVSPost2010PropOp56
 70
     1
102
RTVSPost2010Prop57
140
1.0
102
RTVSPost2010PropOp57
 70
     1
  0
XRECORD
  5
71D
102
{ACAD_REACTORS
330
71C
102
}
330
71C
100
AcDbXrecord
280
     1
102
RTVSPropertyOp0
 70
     1
102
RTVSPropertyOp1
 70
     1
102
RTVSPropertyOp2
 70
     1
102
RTVSPropertyOp3
 70
     1
102
RTVSPropertyOp4
 70
     1
102
RTVSPropertyOp5
 70
     1
102
RTVSPropertyOp6
 70
     1
102
RTVSPropertyOp7
 70
     1
102
RTVSPropertyOp8
 70
     1
102
RTVSPropertyOp9
 70
     1
102
RTVSPropertyOp10
 70
     1
102
RTVSPropertyOp11
 70
     1
102
RTVSPropertyOp12
 70
     1
102
RTVSPropertyOp13
 70
     1
102
RTVSPropertyOp14
 70
     1
102
RTVSPropertyOp15
 70
     1
102
RTVSPropertyOp16
 70
     1
102
RTVSPropertyOp17
 70
     1
102
RTVSPropertyOp18
 70
     1
102
RTVSPropertyOp19
 70
     1
102
RTVSPropertyOp20
 70
     1
102
RTVSPropertyOp21
 70
     1
102
RTVSPropertyOp22
 70
     1
102
RTVSPropertyOp23
 70
     1
102
RTVSPropertyOp24
 70
     1
102
RTVSPropertyOp25
 70
     1
102
RTVSPropertyOp26
 70
     1
102
RTVSPropertyOp27
 70
     1
102
RTVSPropertyOp28
 70
     1
102
RTVSPropertyOp29
 70
     1
102
RTVSPropertyOp30
 70
     1
102
RTVSPropertyOp31
 70
     1
102
RTVSPropertyOp32
 70
     1
102
RTVSPropertyOp33
 70
     1
102
RTVSPropertyOp34
 70
     1
102
RTVSPropertyOp35
 70
     1
102
RTVSPropertyOp36
 70
     1
102
RTVSPropertyOp37
 70
     1
102
RTVSPropertyOp38
 70
     1
102
RTVSPropertyOp39
 70
     1
102
RTVSPropertyOp40
 70
     1
102
RTVSPropertyOp41
 70
     1
102
RTVSPropertyOp42
 70
     1
102
RTVSPropertyOp43
 70
     1
102
RTVSPropertyOp44
 70
     1
102
RTVSPropertyOp45
 70
     1
102
RTVSPropertyOp46
 70
     1
102
RTVSPropertyOp47
 70
     1
102
RTVSPropertyOp48
 70
     1
102
RTVSPropertyOp49
 70
     1
102
RTVSPropertyOp50
 70
     1
102
RTVSPropertyOp51
 70
     0
102
RTVSPropertyOp52
 70
     0
102
RTVSPropertyOp53
 70
     1
102
RTVSPropertyOp54
 70
     1
102
RTVSPropertyOp55
 70
     1
102
RTVSPropertyOp56
 70
     1
102
RTVSPropertyOp57
 70
     1
102
RTVSPost2010Prop28
280
     0
102
RTVSPost2010PropOp28
 70
     1
102
RTVSPost2010Prop29
280
     1
102
RTVSPost2010PropOp29
 70
     1
102
RTVSPost2010Prop30
280
     1
102
RTVSPost2010PropOp30
 70
     1
102
RTVSPost2010Prop31
280
     0
102
RTVSPost2010PropOp31
 70
     1
102
RTVSPost2010Prop32
280
     0
102
RTVSPost2010PropOp32
 70
     1
102
RTVSPost2010Prop33
280
     0
102
RTVSPost2010PropOp33
 70
     1
102
RTVSPost2010Prop34
280
     0
102
RTVSPost2010PropOp34
 70
     1
102
RTVSPost2010Prop35
280
     0
102
RTVSPost2010PropOp35
 70
     1
102
RTVSPost2010Prop36
280
     0
102
RTVSPost2010PropOp36
 70
     1
102
RTVSPost2010Prop37
 90
       50
102
RTVSPost2010PropOp37
 70
     1
102
RTVSPost2010Prop38
140
0.0
102
RTVSPost2010PropOp38
 70
     1
102
RTVSPost2010Prop39
140
1.0
102
RTVSPost2010PropOp39
 70
     1
102
RTVSPost2010Prop40
 90
        0
102
RTVSPost2010PropOp40
 70
     1
102
RTVSPost2010Prop41ColorIndex
 90
       18
102
RTVSPost2010Prop41ColorRGB
 90
        0
102
RTVSPost2010PropOp41
 70
     1
102
RTVSPost2010Prop42
 90
       50
102
RTVSPost2010PropOp42
 70
     1
102
RTVSPost2010Prop43
 90
        3
102
RTVSPost2010PropOp43
 70
     1
102
RTVSPost2010Prop44ColorIndex
 90
        5
102
RTVSPost2010Prop44ColorRGB
 90
      255
102
RTVSPost2010PropOp44
 70
     1
102
RTVSPost2010Prop45
280
     0
102
RTVSPost2010PropOp45
 70
     1
102
RTVSPost2010Prop46
 90
       50
102
RTVSPost2010PropOp46
 70
     1
102
RTVSPost2010Prop47
 90
       50
102
RTVSPost2010PropOp47
 70
     1
102
RTVSPost2010Prop48
 90
       50
102
RTVSPost2010PropOp48
 70
     1
102
RTVSPost2010Prop49
280
     0
102
RTVSPost2010PropOp49
 70
     1
102
RTVSPost2010Prop50
 90
       50
102
RTVSPost2010PropOp50
 70
     1
102
RTVSPost2010Prop51ColorIndex
 90
      256
102
RTVSPost2010Prop51ColorRGB
 90
-16777216
102
RTVSPost2010PropOp51
 70
     0
102
RTVSPost2010Prop52
140
1.0
102
RTVSPost2010PropOp52
 70
     0
102
RTVSPost2010Prop53
 90
        2
102
RTVSPost2010PropOp53
 70
     1
102
RTVSPost2010Prop54
  1
strokes_ogs.tif
102
RTVSPost2010PropOp54
 70
     1
102
RTVSPost2010Prop55
280
     0
102
RTVSPost2010PropOp55
 70
     1
102
RTVSPost2010Prop56
140
1.0
102
RTVSPost2010PropOp56
 70
     1
102
RTVSPost2010Prop57
140
1.0
102
RTVSPost2010PropOp57
 70
     1
  0
XRECORD
  5
71B
102
{ACAD_REACTORS
330
71A
102
}
330
71A
100
AcDbXrecord
280
     1
102
RTVSPropertyOp0
 70
     1
102
RTVSPropertyOp1
 70
     1
102
RTVSPropertyOp2
 70
     1
102
RTVSPropertyOp3
 70
     1
102
RTVSPropertyOp4
 70
     1
102
RTVSPropertyOp5
 70
     1
102
RTVSPropertyOp6
 70
     1
102
RTVSPropertyOp7
 70
     1
102
RTVSPropertyOp8
 70
     1
102
RTVSPropertyOp9
 70
     1
102
RTVSPropertyOp10
 70
     1
102
RTVSPropertyOp11
 70
     1
102
RTVSPropertyOp12
 70
     1
102
RTVSPropertyOp13
 70
     1
102
RTVSPropertyOp14
 70
     1
102
RTVSPropertyOp15
 70
     1
102
RTVSPropertyOp16
 70
     1
102
RTVSPropertyOp17
 70
     1
102
RTVSPropertyOp18
 70
     1
102
RTVSPropertyOp19
 70
     1
102
RTVSPropertyOp20
 70
     1
102
RTVSPropertyOp21
 70
     1
102
RTVSPropertyOp22
 70
     1
102
RTVSPropertyOp23
 70
     1
102
RTVSPropertyOp24
 70
     1
102
RTVSPropertyOp25
 70
     1
102
RTVSPropertyOp26
 70
     1
102
RTVSPropertyOp27
 70
     1
102
RTVSPropertyOp28
 70
     1
102
RTVSPropertyOp29
 70
     1
102
RTVSPropertyOp30
 70
     1
102
RTVSPropertyOp31
 70
     1
102
RTVSPropertyOp32
 70
     1
102
RTVSPropertyOp33
 70
     1
102
RTVSPropertyOp34
 70
     1
102
RTVSPropertyOp35
 70
     1
102
RTVSPropertyOp36
 70
     1
102
RTVSPropertyOp37
 70
     1
102
RTVSPropertyOp38
 70
     1
102
RTVSPropertyOp39
 70
     1
102
RTVSPropertyOp40
 70
     1
102
RTVSPropertyOp41
 70
     1
102
RTVSPropertyOp42
 70
     1
102
RTVSPropertyOp43
 70
     1
102
RTVSPropertyOp44
 70
     1
102
RTVSPropertyOp45
 70
     1
102
RTVSPropertyOp46
 70
     1
102
RTVSPropertyOp47
 70
     1
102
RTVSPropertyOp48
 70
     1
102
RTVSPropertyOp49
 70
     1
102
RTVSPropertyOp50
 70
     1
102
RTVSPropertyOp51
 70
     0
102
RTVSPropertyOp52
 70
     0
102
RTVSPropertyOp53
 70
     1
102
RTVSPropertyOp54
 70
     1
102
RTVSPropertyOp55
 70
     1
102
RTVSPropertyOp56
 70
     1
102
RTVSPropertyOp57
 70
     1
102
RTVSPost2010Prop28
280
     0
102
RTVSPost2010PropOp28
 70
     1
102
RTVSPost2010Prop29
280
     1
102
RTVSPost2010PropOp29
 70
     1
102
RTVSPost2010Prop30
280
     1
102
RTVSPost2010PropOp30
 70
     1
102
RTVSPost2010Prop31
280
     0
102
RTVSPost2010PropOp31
 70
     1
102
RTVSPost2010Prop32
280
     0
102
RTVSPost2010PropOp32
 70
     1
102
RTVSPost2010Prop33
280
     0
102
RTVSPost2010PropOp33
 70
     1
102
RTVSPost2010Prop34
280
     0
102
RTVSPost2010PropOp34
 70
     1
102
RTVSPost2010Prop35
280
     0
102
RTVSPost2010PropOp35
 70
     1
102
RTVSPost2010Prop36
280
     0
102
RTVSPost2010PropOp36
 70
     1
102
RTVSPost2010Prop37
 90
       50
102
RTVSPost2010PropOp37
 70
     1
102
RTVSPost2010Prop38
140
0.0
102
RTVSPost2010PropOp38
 70
     1
102
RTVSPost2010Prop39
140
1.0
102
RTVSPost2010PropOp39
 70
     1
102
RTVSPost2010Prop40
 90
        0
102
RTVSPost2010PropOp40
 70
     1
102
RTVSPost2010Prop41ColorIndex
 90
       18
102
RTVSPost2010Prop41ColorRGB
 90
        0
102
RTVSPost2010PropOp41
 70
     1
102
RTVSPost2010Prop42
 90
       50
102
RTVSPost2010PropOp42
 70
     1
102
RTVSPost2010Prop43
 90
        3
102
RTVSPost2010PropOp43
 70
     1
102
RTVSPost2010Prop44ColorIndex
 90
        5
102
RTVSPost2010Prop44ColorRGB
 90
      255
102
RTVSPost2010PropOp44
 70
     1
102
RTVSPost2010Prop45
280
     0
102
RTVSPost2010PropOp45
 70
     1
102
RTVSPost2010Prop46
 90
       50
102
RTVSPost2010PropOp46
 70
     1
102
RTVSPost2010Prop47
 90
       50
102
RTVSPost2010PropOp47
 70
     1
102
RTVSPost2010Prop48
 90
       50
102
RTVSPost2010PropOp48
 70
     1
102
RTVSPost2010Prop49
280
     0
102
RTVSPost2010PropOp49
 70
     1
102
RTVSPost2010Prop50
 90
       50
102
RTVSPost2010PropOp50
 70
     1
102
RTVSPost2010Prop51ColorIndex
 90
      256
102
RTVSPost2010Prop51ColorRGB
 90
-16777216
102
RTVSPost2010PropOp51
 70
     0
102
RTVSPost2010Prop52
140
1.0
102
RTVSPost2010PropOp52
 70
     0
102
RTVSPost2010Prop53
 90
        2
102
RTVSPost2010PropOp53
 70
     1
102
RTVSPost2010Prop54
  1
strokes_ogs.tif
102
RTVSPost2010PropOp54
 70
     1
102
RTVSPost2010Prop55
280
     0
102
RTVSPost2010PropOp55
 70
     1
102
RTVSPost2010Prop56
140
1.0
102
RTVSPost2010PropOp56
 70
     1
102
RTVSPost2010Prop57
140
1.0
102
RTVSPost2010PropOp57
 70
     1
  0
XRECORD
  5
715
102
{ACAD_REACTORS
330
714
102
}
330
714
100
AcDbXrecord
280
     1
102
RTVSPropertyOp0
 70
     1
102
RTVSPropertyOp1
 70
     1
102
RTVSPropertyOp2
 70
     1
102
RTVSPropertyOp3
 70
     1
102
RTVSPropertyOp4
 70
     1
102
RTVSPropertyOp5
 70
     1
102
RTVSPropertyOp6
 70
     1
102
RTVSPropertyOp7
 70
     1
102
RTVSPropertyOp8
 70
     1
102
RTVSPropertyOp9
 70
     1
102
RTVSPropertyOp10
 70
     1
102
RTVSPropertyOp11
 70
     1
102
RTVSPropertyOp12
 70
     1
102
RTVSPropertyOp13
 70
     1
102
RTVSPropertyOp14
 70
     1
102
RTVSPropertyOp15
 70
     1
102
RTVSPropertyOp16
 70
     1
102
RTVSPropertyOp17
 70
     1
102
RTVSPropertyOp18
 70
     1
102
RTVSPropertyOp19
 70
     1
102
RTVSPropertyOp20
 70
     1
102
RTVSPropertyOp21
 70
     1
102
RTVSPropertyOp22
 70
     1
102
RTVSPropertyOp23
 70
     1
102
RTVSPropertyOp24
 70
     1
102
RTVSPropertyOp25
 70
     1
102
RTVSPropertyOp26
 70
     1
102
RTVSPropertyOp27
 70
     1
102
RTVSPropertyOp28
 70
     1
102
RTVSPropertyOp29
 70
     1
102
RTVSPropertyOp30
 70
     1
102
RTVSPropertyOp31
 70
     1
102
RTVSPropertyOp32
 70
     1
102
RTVSPropertyOp33
 70
     1
102
RTVSPropertyOp34
 70
     1
102
RTVSPropertyOp35
 70
     1
102
RTVSPropertyOp36
 70
     1
102
RTVSPropertyOp37
 70
     1
102
RTVSPropertyOp38
 70
     1
102
RTVSPropertyOp39
 70
     1
102
RTVSPropertyOp40
 70
     1
102
RTVSPropertyOp41
 70
     1
102
RTVSPropertyOp42
 70
     1
102
RTVSPropertyOp43
 70
     1
102
RTVSPropertyOp44
 70
     1
102
RTVSPropertyOp45
 70
     1
102
RTVSPropertyOp46
 70
     1
102
RTVSPropertyOp47
 70
     1
102
RTVSPropertyOp48
 70
     1
102
RTVSPropertyOp49
 70
     1
102
RTVSPropertyOp50
 70
     1
102
RTVSPropertyOp51
 70
     0
102
RTVSPropertyOp52
 70
     0
102
RTVSPropertyOp53
 70
     1
102
RTVSPropertyOp54
 70
     1
102
RTVSPropertyOp55
 70
     1
102
RTVSPropertyOp56
 70
     1
102
RTVSPropertyOp57
 70
     1
102
RTVSPost2010Prop28
280
     0
102
RTVSPost2010PropOp28
 70
     1
102
RTVSPost2010Prop29
280
     1
102
RTVSPost2010PropOp29
 70
     1
102
RTVSPost2010Prop30
280
     1
102
RTVSPost2010PropOp30
 70
     1
102
RTVSPost2010Prop31
280
     0
102
RTVSPost2010PropOp31
 70
     1
102
RTVSPost2010Prop32
280
     0
102
RTVSPost2010PropOp32
 70
     1
102
RTVSPost2010Prop33
280
     0
102
RTVSPost2010PropOp33
 70
     1
102
RTVSPost2010Prop34
280
     0
102
RTVSPost2010PropOp34
 70
     1
102
RTVSPost2010Prop35
280
     0
102
RTVSPost2010PropOp35
 70
     1
102
RTVSPost2010Prop36
280
     0
102
RTVSPost2010PropOp36
 70
     1
102
RTVSPost2010Prop37
 90
       50
102
RTVSPost2010PropOp37
 70
     1
102
RTVSPost2010Prop38
140
0.0
102
RTVSPost2010PropOp38
 70
     1
102
RTVSPost2010Prop39
140
1.0
102
RTVSPost2010PropOp39
 70
     1
102
RTVSPost2010Prop40
 90
        0
102
RTVSPost2010PropOp40
 70
     1
102
RTVSPost2010Prop41ColorIndex
 90
       18
102
RTVSPost2010Prop41ColorRGB
 90
        0
102
RTVSPost2010PropOp41
 70
     1
102
RTVSPost2010Prop42
 90
       50
102
RTVSPost2010PropOp42
 70
     1
102
RTVSPost2010Prop43
 90
        3
102
RTVSPost2010PropOp43
 70
     1
102
RTVSPost2010Prop44ColorIndex
 90
        5
102
RTVSPost2010Prop44ColorRGB
 90
      255
102
RTVSPost2010PropOp44
 70
     1
102
RTVSPost2010Prop45
280
     0
102
RTVSPost2010PropOp45
 70
     1
102
RTVSPost2010Prop46
 90
       50
102
RTVSPost2010PropOp46
 70
     1
102
RTVSPost2010Prop47
 90
       50
102
RTVSPost2010PropOp47
 70
     1
102
RTVSPost2010Prop48
 90
       50
102
RTVSPost2010PropOp48
 70
     1
102
RTVSPost2010Prop49
280
     0
102
RTVSPost2010PropOp49
 70
     1
102
RTVSPost2010Prop50
 90
       50
102
RTVSPost2010PropOp50
 70
     1
102
RTVSPost2010Prop51ColorIndex
 90
      256
102
RTVSPost2010Prop51ColorRGB
 90
-16777216
102
RTVSPost2010PropOp51
 70
     0
102
RTVSPost2010Prop52
140
1.0
102
RTVSPost2010PropOp52
 70
     0
102
RTVSPost2010Prop53
 90
        2
102
RTVSPost2010PropOp53
 70
     1
102
RTVSPost2010Prop54
  1
strokes_ogs.tif
102
RTVSPost2010PropOp54
 70
     1
102
RTVSPost2010Prop55
280
     0
102
RTVSPost2010PropOp55
 70
     1
102
RTVSPost2010Prop56
140
1.0
102
RTVSPost2010PropOp56
 70
     1
102
RTVSPost2010Prop57
140
1.0
102
RTVSPost2010PropOp57
 70
     1
  0
XRECORD
  5
717
102
{ACAD_REACTORS
330
716
102
}
330
716
100
AcDbXrecord
280
     1
102
RTVSPropertyOp0
 70
     1
102
RTVSPropertyOp1
 70
     1
102
RTVSPropertyOp2
 70
     1
102
RTVSPropertyOp3
 70
     1
102
RTVSPropertyOp4
 70
     1
102
RTVSPropertyOp5
 70
     1
102
RTVSPropertyOp6
 70
     1
102
RTVSPropertyOp7
 70
     1
102
RTVSPropertyOp8
 70
     1
102
RTVSPropertyOp9
 70
     1
102
RTVSPropertyOp10
 70
     1
102
RTVSPropertyOp11
 70
     1
102
RTVSPropertyOp12
 70
     1
102
RTVSPropertyOp13
 70
     1
102
RTVSPropertyOp14
 70
     1
102
RTVSPropertyOp15
 70
     1
102
RTVSPropertyOp16
 70
     1
102
RTVSPropertyOp17
 70
     1
102
RTVSPropertyOp18
 70
     1
102
RTVSPropertyOp19
 70
     1
102
RTVSPropertyOp20
 70
     1
102
RTVSPropertyOp21
 70
     1
102
RTVSPropertyOp22
 70
     1
102
RTVSPropertyOp23
 70
     1
102
RTVSPropertyOp24
 70
     1
102
RTVSPropertyOp25
 70
     1
102
RTVSPropertyOp26
 70
     1
102
RTVSPropertyOp27
 70
     1
102
RTVSPropertyOp28
 70
     1
102
RTVSPropertyOp29
 70
     1
102
RTVSPropertyOp30
 70
     1
102
RTVSPropertyOp31
 70
     1
102
RTVSPropertyOp32
 70
     1
102
RTVSPropertyOp33
 70
     1
102
RTVSPropertyOp34
 70
     1
102
RTVSPropertyOp35
 70
     1
102
RTVSPropertyOp36
 70
     1
102
RTVSPropertyOp37
 70
     1
102
RTVSPropertyOp38
 70
     1
102
RTVSPropertyOp39
 70
     1
102
RTVSPropertyOp40
 70
     1
102
RTVSPropertyOp41
 70
     1
102
RTVSPropertyOp42
 70
     1
102
RTVSPropertyOp43
 70
     1
102
RTVSPropertyOp44
 70
     1
102
RTVSPropertyOp45
 70
     1
102
RTVSPropertyOp46
 70
     1
102
RTVSPropertyOp47
 70
     1
102
RTVSPropertyOp48
 70
     1
102
RTVSPropertyOp49
 70
     1
102
RTVSPropertyOp50
 70
     1
102
RTVSPropertyOp51
 70
     0
102
RTVSPropertyOp52
 70
     0
102
RTVSPropertyOp53
 70
     1
102
RTVSPropertyOp54
 70
     1
102
RTVSPropertyOp55
 70
     1
102
RTVSPropertyOp56
 70
     1
102
RTVSPropertyOp57
 70
     1
102
RTVSPost2010Prop28
280
     0
102
RTVSPost2010PropOp28
 70
     1
102
RTVSPost2010Prop29
280
     1
102
RTVSPost2010PropOp29
 70
     1
102
RTVSPost2010Prop30
280
     1
102
RTVSPost2010PropOp30
 70
     1
102
RTVSPost2010Prop31
280
     0
102
RTVSPost2010PropOp31
 70
     1
102
RTVSPost2010Prop32
280
     0
102
RTVSPost2010PropOp32
 70
     1
102
RTVSPost2010Prop33
280
     0
102
RTVSPost2010PropOp33
 70
     1
102
RTVSPost2010Prop34
280
     0
102
RTVSPost2010PropOp34
 70
     1
102
RTVSPost2010Prop35
280
     0
102
RTVSPost2010PropOp35
 70
     1
102
RTVSPost2010Prop36
280
     0
102
RTVSPost2010PropOp36
 70
     1
102
RTVSPost2010Prop37
 90
       50
102
RTVSPost2010PropOp37
 70
     1
102
RTVSPost2010Prop38
140
0.0
102
RTVSPost2010PropOp38
 70
     1
102
RTVSPost2010Prop39
140
1.0
102
RTVSPost2010PropOp39
 70
     1
102
RTVSPost2010Prop40
 90
        0
102
RTVSPost2010PropOp40
 70
     1
102
RTVSPost2010Prop41ColorIndex
 90
       18
102
RTVSPost2010Prop41ColorRGB
 90
        0
102
RTVSPost2010PropOp41
 70
     1
102
RTVSPost2010Prop42
 90
       50
102
RTVSPost2010PropOp42
 70
     1
102
RTVSPost2010Prop43
 90
        3
102
RTVSPost2010PropOp43
 70
     1
102
RTVSPost2010Prop44ColorIndex
 90
        5
102
RTVSPost2010Prop44ColorRGB
 90
      255
102
RTVSPost2010PropOp44
 70
     1
102
RTVSPost2010Prop45
280
     0
102
RTVSPost2010PropOp45
 70
     1
102
RTVSPost2010Prop46
 90
       50
102
RTVSPost2010PropOp46
 70
     1
102
RTVSPost2010Prop47
 90
       50
102
RTVSPost2010PropOp47
 70
     1
102
RTVSPost2010Prop48
 90
       50
102
RTVSPost2010PropOp48
 70
     1
102
RTVSPost2010Prop49
280
     0
102
RTVSPost2010PropOp49
 70
     1
102
RTVSPost2010Prop50
 90
       50
102
RTVSPost2010PropOp50
 70
     1
102
RTVSPost2010Prop51ColorIndex
 90
      256
102
RTVSPost2010Prop51ColorRGB
 90
-16777216
102
RTVSPost2010PropOp51
 70
     0
102
RTVSPost2010Prop52
140
1.0
102
RTVSPost2010PropOp52
 70
     0
102
RTVSPost2010Prop53
 90
        2
102
RTVSPost2010PropOp53
 70
     1
102
RTVSPost2010Prop54
  1
strokes_ogs.tif
102
RTVSPost2010PropOp54
 70
     1
102
RTVSPost2010Prop55
280
     0
102
RTVSPost2010PropOp55
 70
     1
102
RTVSPost2010Prop56
140
1.0
102
RTVSPost2010PropOp56
 70
     1
102
RTVSPost2010Prop57
140
1.0
102
RTVSPost2010PropOp57
 70
     1
  0
XRECORD
  5
707
102
{ACAD_REACTORS
330
706
102
}
330
706
100
AcDbXrecord
280
     1
102
RTVSPropertyOp0
 70
     1
102
RTVSPropertyOp1
 70
     1
102
RTVSPropertyOp2
 70
     1
102
RTVSPropertyOp3
 70
     1
102
RTVSPropertyOp4
 70
     1
102
RTVSPropertyOp5
 70
     1
102
RTVSPropertyOp6
 70
     1
102
RTVSPropertyOp7
 70
     1
102
RTVSPropertyOp8
 70
     1
102
RTVSPropertyOp9
 70
     1
102
RTVSPropertyOp10
 70
     1
102
RTVSPropertyOp11
 70
     1
102
RTVSPropertyOp12
 70
     1
102
RTVSPropertyOp13
 70
     1
102
RTVSPropertyOp14
 70
     1
102
RTVSPropertyOp15
 70
     1
102
RTVSPropertyOp16
 70
     1
102
RTVSPropertyOp17
 70
     1
102
RTVSPropertyOp18
 70
     1
102
RTVSPropertyOp19
 70
     1
102
RTVSPropertyOp20
 70
     1
102
RTVSPropertyOp21
 70
     1
102
RTVSPropertyOp22
 70
     1
102
RTVSPropertyOp23
 70
     1
102
RTVSPropertyOp24
 70
     1
102
RTVSPropertyOp25
 70
     1
102
RTVSPropertyOp26
 70
     1
102
RTVSPropertyOp27
 70
     1
102
RTVSPropertyOp28
 70
     1
102
RTVSPropertyOp29
 70
     1
102
RTVSPropertyOp30
 70
     1
102
RTVSPropertyOp31
 70
     1
102
RTVSPropertyOp32
 70
     1
102
RTVSPropertyOp33
 70
     1
102
RTVSPropertyOp34
 70
     1
102
RTVSPropertyOp35
 70
     1
102
RTVSPropertyOp36
 70
     1
102
RTVSPropertyOp37
 70
     1
102
RTVSPropertyOp38
 70
     1
102
RTVSPropertyOp39
 70
     1
102
RTVSPropertyOp40
 70
     1
102
RTVSPropertyOp41
 70
     1
102
RTVSPropertyOp42
 70
     1
102
RTVSPropertyOp43
 70
     1
102
RTVSPropertyOp44
 70
     1
102
RTVSPropertyOp45
 70
     1
102
RTVSPropertyOp46
 70
     1
102
RTVSPropertyOp47
 70
     1
102
RTVSPropertyOp48
 70
     1
102
RTVSPropertyOp49
 70
     1
102
RTVSPropertyOp50
 70
     1
102
RTVSPropertyOp51
 70
     0
102
RTVSPropertyOp52
 70
     0
102
RTVSPropertyOp53
 70
     1
102
RTVSPropertyOp54
 70
     1
102
RTVSPropertyOp55
 70
     1
102
RTVSPropertyOp56
 70
     1
102
RTVSPropertyOp57
 70
     1
102
RTVSPost2010Prop28
280
     0
102
RTVSPost2010PropOp28
 70
     1
102
RTVSPost2010Prop29
280
     1
102
RTVSPost2010PropOp29
 70
     1
102
RTVSPost2010Prop30
280
     1
102
RTVSPost2010PropOp30
 70
     1
102
RTVSPost2010Prop31
280
     0
102
RTVSPost2010PropOp31
 70
     1
102
RTVSPost2010Prop32
280
     0
102
RTVSPost2010PropOp32
 70
     1
102
RTVSPost2010Prop33
280
     0
102
RTVSPost2010PropOp33
 70
     1
102
RTVSPost2010Prop34
280
     0
102
RTVSPost2010PropOp34
 70
     1
102
RTVSPost2010Prop35
280
     0
102
RTVSPost2010PropOp35
 70
     1
102
RTVSPost2010Prop36
280
     0
102
RTVSPost2010PropOp36
 70
     1
102
RTVSPost2010Prop37
 90
       50
102
RTVSPost2010PropOp37
 70
     1
102
RTVSPost2010Prop38
140
0.0
102
RTVSPost2010PropOp38
 70
     1
102
RTVSPost2010Prop39
140
1.0
102
RTVSPost2010PropOp39
 70
     1
102
RTVSPost2010Prop40
 90
        0
102
RTVSPost2010PropOp40
 70
     1
102
RTVSPost2010Prop41ColorIndex
 90
       18
102
RTVSPost2010Prop41ColorRGB
 90
        0
102
RTVSPost2010PropOp41
 70
     1
102
RTVSPost2010Prop42
 90
       50
102
RTVSPost2010PropOp42
 70
     1
102
RTVSPost2010Prop43
 90
        3
102
RTVSPost2010PropOp43
 70
     1
102
RTVSPost2010Prop44ColorIndex
 90
        5
102
RTVSPost2010Prop44ColorRGB
 90
      255
102
RTVSPost2010PropOp44
 70
     1
102
RTVSPost2010Prop45
280
     0
102
RTVSPost2010PropOp45
 70
     1
102
RTVSPost2010Prop46
 90
       50
102
RTVSPost2010PropOp46
 70
     1
102
RTVSPost2010Prop47
 90
       50
102
RTVSPost2010PropOp47
 70
     1
102
RTVSPost2010Prop48
 90
       50
102
RTVSPost2010PropOp48
 70
     1
102
RTVSPost2010Prop49
280
     0
102
RTVSPost2010PropOp49
 70
     1
102
RTVSPost2010Prop50
 90
       50
102
RTVSPost2010PropOp50
 70
     1
102
RTVSPost2010Prop51ColorIndex
 90
      256
102
RTVSPost2010Prop51ColorRGB
 90
-16777216
102
RTVSPost2010PropOp51
 70
     0
102
RTVSPost2010Prop52
140
1.0
102
RTVSPost2010PropOp52
 70
     0
102
RTVSPost2010Prop53
 90
        2
102
RTVSPost2010PropOp53
 70
     1
102
RTVSPost2010Prop54
  1
strokes_ogs.tif
102
RTVSPost2010PropOp54
 70
     1
102
RTVSPost2010Prop55
280
     0
102
RTVSPost2010PropOp55
 70
     1
102
RTVSPost2010Prop56
140
1.0
102
RTVSPost2010PropOp56
 70
     1
102
RTVSPost2010Prop57
140
1.0
102
RTVSPost2010PropOp57
 70
     1
  0
XRECORD
  5
6F9
102
{ACAD_REACTORS
330
6F8
102
}
330
6F8
100
AcDbXrecord
280
     1
102
RTVSPropertyOp0
 70
     1
102
RTVSPropertyOp1
 70
     1
102
RTVSPropertyOp2
 70
     1
102
RTVSPropertyOp3
 70
     1
102
RTVSPropertyOp4
 70
     1
102
RTVSPropertyOp5
 70
     1
102
RTVSPropertyOp6
 70
     1
102
RTVSPropertyOp7
 70
     1
102
RTVSPropertyOp8
 70
     1
102
RTVSPropertyOp9
 70
     1
102
RTVSPropertyOp10
 70
     1
102
RTVSPropertyOp11
 70
     1
102
RTVSPropertyOp12
 70
     1
102
RTVSPropertyOp13
 70
     1
102
RTVSPropertyOp14
 70
     1
102
RTVSPropertyOp15
 70
     1
102
RTVSPropertyOp16
 70
     1
102
RTVSPropertyOp17
 70
     1
102
RTVSPropertyOp18
 70
     1
102
RTVSPropertyOp19
 70
     1
102
RTVSPropertyOp20
 70
     1
102
RTVSPropertyOp21
 70
     1
102
RTVSPropertyOp22
 70
     1
102
RTVSPropertyOp23
 70
     1
102
RTVSPropertyOp24
 70
     1
102
RTVSPropertyOp25
 70
     1
102
RTVSPropertyOp26
 70
     1
102
RTVSPropertyOp27
 70
     1
102
RTVSPropertyOp28
 70
     1
102
RTVSPropertyOp29
 70
     1
102
RTVSPropertyOp30
 70
     1
102
RTVSPropertyOp31
 70
     1
102
RTVSPropertyOp32
 70
     1
102
RTVSPropertyOp33
 70
     1
102
RTVSPropertyOp34
 70
     1
102
RTVSPropertyOp35
 70
     1
102
RTVSPropertyOp36
 70
     1
102
RTVSPropertyOp37
 70
     1
102
RTVSPropertyOp38
 70
     1
102
RTVSPropertyOp39
 70
     1
102
RTVSPropertyOp40
 70
     1
102
RTVSPropertyOp41
 70
     1
102
RTVSPropertyOp42
 70
     1
102
RTVSPropertyOp43
 70
     1
102
RTVSPropertyOp44
 70
     1
102
RTVSPropertyOp45
 70
     1
102
RTVSPropertyOp46
 70
     1
102
RTVSPropertyOp47
 70
     1
102
RTVSPropertyOp48
 70
     1
102
RTVSPropertyOp49
 70
     1
102
RTVSPropertyOp50
 70
     1
102
RTVSPropertyOp51
 70
     0
102
RTVSPropertyOp52
 70
     0
102
RTVSPropertyOp53
 70
     1
102
RTVSPropertyOp54
 70
     1
102
RTVSPropertyOp55
 70
     1
102
RTVSPropertyOp56
 70
     1
102
RTVSPropertyOp57
 70
     1
102
RTVSPost2010Prop28
280
     0
102
RTVSPost2010PropOp28
 70
     1
102
RTVSPost2010Prop29
280
     1
102
RTVSPost2010PropOp29
 70
     1
102
RTVSPost2010Prop30
280
     1
102
RTVSPost2010PropOp30
 70
     1
102
RTVSPost2010Prop31
280
     0
102
RTVSPost2010PropOp31
 70
     1
102
RTVSPost2010Prop32
280
     0
102
RTVSPost2010PropOp32
 70
     1
102
RTVSPost2010Prop33
280
     0
102
RTVSPost2010PropOp33
 70
     1
102
RTVSPost2010Prop34
280
     0
102
RTVSPost2010PropOp34
 70
     1
102
RTVSPost2010Prop35
280
     0
102
RTVSPost2010PropOp35
 70
     1
102
RTVSPost2010Prop36
280
     0
102
RTVSPost2010PropOp36
 70
     1
102
RTVSPost2010Prop37
 90
       50
102
RTVSPost2010PropOp37
 70
     1
102
RTVSPost2010Prop38
140
0.0
102
RTVSPost2010PropOp38
 70
     1
102
RTVSPost2010Prop39
140
1.0
102
RTVSPost2010PropOp39
 70
     1
102
RTVSPost2010Prop40
 90
        0
102
RTVSPost2010PropOp40
 70
     1
102
RTVSPost2010Prop41ColorIndex
 90
       18
102
RTVSPost2010Prop41ColorRGB
 90
        0
102
RTVSPost2010PropOp41
 70
     1
102
RTVSPost2010Prop42
 90
       50
102
RTVSPost2010PropOp42
 70
     1
102
RTVSPost2010Prop43
 90
        3
102
RTVSPost2010PropOp43
 70
     1
102
RTVSPost2010Prop44ColorIndex
 90
        5
102
RTVSPost2010Prop44ColorRGB
 90
      255
102
RTVSPost2010PropOp44
 70
     1
102
RTVSPost2010Prop45
280
     0
102
RTVSPost2010PropOp45
 70
     1
102
RTVSPost2010Prop46
 90
       50
102
RTVSPost2010PropOp46
 70
     1
102
RTVSPost2010Prop47
 90
       50
102
RTVSPost2010PropOp47
 70
     1
102
RTVSPost2010Prop48
 90
       50
102
RTVSPost2010PropOp48
 70
     1
102
RTVSPost2010Prop49
280
     0
102
RTVSPost2010PropOp49
 70
     1
102
RTVSPost2010Prop50
 90
       50
102
RTVSPost2010PropOp50
 70
     1
102
RTVSPost2010Prop51ColorIndex
 90
      256
102
RTVSPost2010Prop51ColorRGB
 90
-16777216
102
RTVSPost2010PropOp51
 70
     0
102
RTVSPost2010Prop52
140
1.0
102
RTVSPost2010PropOp52
 70
     0
102
RTVSPost2010Prop53
 90
        2
102
RTVSPost2010PropOp53
 70
     1
102
RTVSPost2010Prop54
  1
strokes_ogs.tif
102
RTVSPost2010PropOp54
 70
     1
102
RTVSPost2010Prop55
280
     0
102
RTVSPost2010PropOp55
 70
     1
102
RTVSPost2010Prop56
140
1.0
102
RTVSPost2010PropOp56
 70
     1
102
RTVSPost2010Prop57
140
1.0
102
RTVSPost2010PropOp57
 70
     1
  0
XRECORD
  5
719
102
{ACAD_REACTORS
330
718
102
}
330
718
100
AcDbXrecord
280
     1
102
RTVSPropertyOp0
 70
     1
102
RTVSPropertyOp1
 70
     1
102
RTVSPropertyOp2
 70
     1
102
RTVSPropertyOp3
 70
     1
102
RTVSPropertyOp4
 70
     1
102
RTVSPropertyOp5
 70
     1
102
RTVSPropertyOp6
 70
     1
102
RTVSPropertyOp7
 70
     1
102
RTVSPropertyOp8
 70
     1
102
RTVSPropertyOp9
 70
     1
102
RTVSPropertyOp10
 70
     1
102
RTVSPropertyOp11
 70
     1
102
RTVSPropertyOp12
 70
     1
102
RTVSPropertyOp13
 70
     1
102
RTVSPropertyOp14
 70
     1
102
RTVSPropertyOp15
 70
     1
102
RTVSPropertyOp16
 70
     1
102
RTVSPropertyOp17
 70
     1
102
RTVSPropertyOp18
 70
     1
102
RTVSPropertyOp19
 70
     1
102
RTVSPropertyOp20
 70
     1
102
RTVSPropertyOp21
 70
     1
102
RTVSPropertyOp22
 70
     1
102
RTVSPropertyOp23
 70
     1
102
RTVSPropertyOp24
 70
     1
102
RTVSPropertyOp25
 70
     1
102
RTVSPropertyOp26
 70
     1
102
RTVSPropertyOp27
 70
     1
102
RTVSPropertyOp28
 70
     1
102
RTVSPropertyOp29
 70
     1
102
RTVSPropertyOp30
 70
     1
102
RTVSPropertyOp31
 70
     1
102
RTVSPropertyOp32
 70
     1
102
RTVSPropertyOp33
 70
     1
102
RTVSPropertyOp34
 70
     1
102
RTVSPropertyOp35
 70
     1
102
RTVSPropertyOp36
 70
     1
102
RTVSPropertyOp37
 70
     1
102
RTVSPropertyOp38
 70
     1
102
RTVSPropertyOp39
 70
     1
102
RTVSPropertyOp40
 70
     1
102
RTVSPropertyOp41
 70
     1
102
RTVSPropertyOp42
 70
     1
102
RTVSPropertyOp43
 70
     1
102
RTVSPropertyOp44
 70
     1
102
RTVSPropertyOp45
 70
     1
102
RTVSPropertyOp46
 70
     1
102
RTVSPropertyOp47
 70
     1
102
RTVSPropertyOp48
 70
     1
102
RTVSPropertyOp49
 70
     1
102
RTVSPropertyOp50
 70
     1
102
RTVSPropertyOp51
 70
     0
102
RTVSPropertyOp52
 70
     0
102
RTVSPropertyOp53
 70
     1
102
RTVSPropertyOp54
 70
     1
102
RTVSPropertyOp55
 70
     1
102
RTVSPropertyOp56
 70
     1
102
RTVSPropertyOp57
 70
     1
102
RTVSPost2010Prop28
280
     0
102
RTVSPost2010PropOp28
 70
     1
102
RTVSPost2010Prop29
280
     1
102
RTVSPost2010PropOp29
 70
     1
102
RTVSPost2010Prop30
280
     1
102
RTVSPost2010PropOp30
 70
     1
102
RTVSPost2010Prop31
280
     0
102
RTVSPost2010PropOp31
 70
     1
102
RTVSPost2010Prop32
280
     0
102
RTVSPost2010PropOp32
 70
     1
102
RTVSPost2010Prop33
280
     0
102
RTVSPost2010PropOp33
 70
     1
102
RTVSPost2010Prop34
280
     0
102
RTVSPost2010PropOp34
 70
     1
102
RTVSPost2010Prop35
280
     0
102
RTVSPost2010PropOp35
 70
     1
102
RTVSPost2010Prop36
280
     0
102
RTVSPost2010PropOp36
 70
     1
102
RTVSPost2010Prop37
 90
       50
102
RTVSPost2010PropOp37
 70
     1
102
RTVSPost2010Prop38
140
0.0
102
RTVSPost2010PropOp38
 70
     1
102
RTVSPost2010Prop39
140
1.0
102
RTVSPost2010PropOp39
 70
     1
102
RTVSPost2010Prop40
 90
        0
102
RTVSPost2010PropOp40
 70
     1
102
RTVSPost2010Prop41ColorIndex
 90
       18
102
RTVSPost2010Prop41ColorRGB
 90
        0
102
RTVSPost2010PropOp41
 70
     1
102
RTVSPost2010Prop42
 90
       50
102
RTVSPost2010PropOp42
 70
     1
102
RTVSPost2010Prop43
 90
        3
102
RTVSPost2010PropOp43
 70
     1
102
RTVSPost2010Prop44ColorIndex
 90
        5
102
RTVSPost2010Prop44ColorRGB
 90
      255
102
RTVSPost2010PropOp44
 70
     1
102
RTVSPost2010Prop45
280
     0
102
RTVSPost2010PropOp45
 70
     1
102
RTVSPost2010Prop46
 90
       50
102
RTVSPost2010PropOp46
 70
     1
102
RTVSPost2010Prop47
 90
       50
102
RTVSPost2010PropOp47
 70
     1
102
RTVSPost2010Prop48
 90
       50
102
RTVSPost2010PropOp48
 70
     1
102
RTVSPost2010Prop49
280
     0
102
RTVSPost2010PropOp49
 70
     1
102
RTVSPost2010Prop50
 90
       50
102
RTVSPost2010PropOp50
 70
     1
102
RTVSPost2010Prop51ColorIndex
 90
      256
102
RTVSPost2010Prop51ColorRGB
 90
-16777216
102
RTVSPost2010PropOp51
 70
     0
102
RTVSPost2010Prop52
140
1.0
102
RTVSPost2010PropOp52
 70
     0
102
RTVSPost2010Prop53
 90
        2
102
RTVSPost2010PropOp53
 70
     1
102
RTVSPost2010Prop54
  1
strokes_ogs.tif
102
RTVSPost2010PropOp54
 70
     1
102
RTVSPost2010Prop55
280
     0
102
RTVSPost2010PropOp55
 70
     1
102
RTVSPost2010Prop56
140
1.0
102
RTVSPost2010PropOp56
 70
     1
102
RTVSPost2010Prop57
140
1.0
102
RTVSPost2010PropOp57
 70
     1
  0
ENDSEC
  0
EOF
