999
\"DXF R12 Output\" (www.mydxf.blogspot.com)
 0 
SECTION
 2 
HEADER
 9 
$ACADVER
 1 
AC1009
 9 
$EXTMIN
 10 
 0 
 20 
 0 
 9 
$EXTMAX
 10 
 8.5 
 20 
 11 
 0 
ENDSEC
 0 
SECTION
 2 
ENTITIES
0
LINE
8
Layer 1
10
152.311806
20
240.862999
11
144.160764
21
240.731442
0
LINE
8
Layer 1
10
144.160764
20
240.731442
11
136.018437
21
240.382173
0
LINE
8
Layer 1
10
136.018437
20
240.382173
11
127.880419
21
239.823463
0
LINE
8
Layer 1
10
127.880419
20
239.823463
11
119.742307
21
239.063586
0
LINE
8
Layer 1
10
119.742307
20
239.063586
11
111.599696
21
238.110814
0
LINE
8
Layer 1
10
111.599696
20
238.110814
11
103.448183
21
236.973421
0
LINE
8
Layer 1
10
103.448183
20
236.973421
11
95.283364
21
235.659678
0
LINE
8
Layer 1
10
95.283364
20
235.659678
11
87.100833
21
234.177860
0
LINE
8
Layer 1
10
87.100833
20
234.177860
11
91.378264
21
199.596818
0
LINE
8
Layer 1
10
91.378264
20
199.596818
11
91.552845
21
197.171662
0
LINE
8
Layer 1
10
91.552845
20
197.171662
11
91.559584
21
193.654239
0
LINE
8
Layer 1
10
91.559584
20
193.654239
11
91.087222
21
184.383276
0
LINE
8
Layer 1
10
91.087222
20
184.383276
11
88.335556
21
143.319943
0
LINE
8
Layer 1
10
88.335556
20
143.319943
11
88.101375
21
138.618904
0
LINE
8
Layer 1
10
88.101375
20
138.618904
11
88.134041
21
134.108177
0
LINE
8
Layer 1
10
88.134041
20
134.108177
11
88.437239
21
129.767152
0
LINE
8
Layer 1
10
88.437239
20
129.767152
11
89.014653
21
125.575221
0
LINE
8
Layer 1
10
89.014653
20
125.575221
11
89.837231
21
121.643911
0
LINE
8
Layer 1
10
89.837231
20
121.643911
11
90.922462
21
117.814470
0
LINE
8
Layer 1
10
90.922462
20
117.814470
11
92.273077
21
114.068633
0
LINE
8
Layer 1
10
92.273077
20
114.068633
11
93.891806
21
110.388138
0
LINE
8
Layer 1
10
93.891806
20
110.388138
11
95.457823
21
107.363259
0
LINE
8
Layer 1
10
95.457823
20
107.363259
11
97.161542
21
104.539611
0
LINE
8
Layer 1
10
97.161542
20
104.539611
11
99.021910
21
101.895927
0
LINE
8
Layer 1
10
99.021910
20
101.895927
11
101.057875
21
99.410938
0
LINE
8
Layer 1
10
101.057875
20
99.410938
11
103.288386
21
97.063376
0
LINE
8
Layer 1
10
103.288386
20
97.063376
11
105.732389
21
94.831975
0
LINE
8
Layer 1
10
105.732389
20
94.831975
11
108.408833
21
92.695466
0
LINE
8
Layer 1
10
108.408833
20
92.695466
11
111.336667
21
90.632582
0
LINE
8
Layer 1
10
111.336667
20
90.632582
11
118.289025
21
86.570237
0
LINE
8
Layer 1
10
118.289025
20
86.570237
11
121.818018
21
84.767218
0
LINE
8
Layer 1
10
121.818018
20
84.767218
11
125.403091
21
83.134394
0
LINE
8
Layer 1
10
125.403091
20
83.134394
11
129.059895
21
81.685331
0
LINE
8
Layer 1
10
129.059895
20
81.685331
11
132.804083
21
80.433600
0
LINE
8
Layer 1
10
132.804083
20
80.433600
11
136.651308
21
79.392767
0
LINE
8
Layer 1
10
136.651308
20
79.392767
11
140.617222
21
78.576401
0
LINE
8
Layer 1
10
140.617222
20
78.576401
11
152.400000
21
63.936124
0
LINE
8
Layer 1
10
152.400000
20
63.936124
11
164.182778
21
78.576401
0
LINE
8
Layer 1
10
164.182778
20
78.576401
11
168.148694
21
79.392767
0
LINE
8
Layer 1
10
168.148694
20
79.392767
11
171.995920
21
80.433600
0
LINE
8
Layer 1
10
171.995920
20
80.433600
11
175.740109
21
81.685331
0
LINE
8
Layer 1
10
175.740109
20
81.685331
11
179.396912
21
83.134394
0
LINE
8
Layer 1
10
179.396912
20
83.134394
11
182.981984
21
84.767218
0
LINE
8
Layer 1
10
182.981984
20
84.767218
11
186.510976
21
86.570237
0
LINE
8
Layer 1
10
186.510976
20
86.570237
11
193.463333
21
90.632582
0
LINE
8
Layer 1
10
193.463333
20
90.632582
11
196.391167
21
92.695466
0
LINE
8
Layer 1
10
196.391167
20
92.695466
11
199.067611
21
94.831975
0
LINE
8
Layer 1
10
199.067611
20
94.831975
11
201.511614
21
97.063376
0
LINE
8
Layer 1
10
201.511614
20
97.063376
11
203.742125
21
99.410938
0
LINE
8
Layer 1
10
203.742125
20
99.410938
11
205.778090
21
101.895927
0
LINE
8
Layer 1
10
205.778090
20
101.895927
11
207.638458
21
104.539611
0
LINE
8
Layer 1
10
207.638458
20
104.539611
11
209.342177
21
107.363259
0
LINE
8
Layer 1
10
209.342177
20
107.363259
11
210.908194
21
110.388138
0
LINE
8
Layer 1
10
210.908194
20
110.388138
11
212.526923
21
114.068633
0
LINE
8
Layer 1
10
212.526923
20
114.068633
11
213.877538
21
117.814470
0
LINE
8
Layer 1
10
213.877538
20
117.814470
11
214.962769
21
121.643911
0
LINE
8
Layer 1
10
214.962769
20
121.643911
11
215.785347
21
125.575221
0
LINE
8
Layer 1
10
215.785347
20
125.575221
11
216.362761
21
129.767152
0
LINE
8
Layer 1
10
216.362761
20
129.767152
11
216.665959
21
134.108177
0
LINE
8
Layer 1
10
216.665959
20
134.108177
11
216.698625
21
138.618904
0
LINE
8
Layer 1
10
216.698625
20
138.618904
11
216.464444
21
143.319943
0
LINE
8
Layer 1
10
216.464444
20
143.319943
11
213.712778
21
184.383276
0
LINE
8
Layer 1
10
213.712778
20
184.383276
11
213.240416
21
193.654239
0
LINE
8
Layer 1
10
213.240416
20
193.654239
11
213.247155
21
197.171662
0
LINE
8
Layer 1
10
213.247155
20
197.171662
11
213.421736
21
199.596818
0
LINE
8
Layer 1
10
213.421736
20
199.596818
11
217.699167
21
234.177860
0
LINE
8
Layer 1
10
217.699167
20
234.177860
11
209.514729
21
235.727261
0
LINE
8
Layer 1
10
209.514729
20
235.727261
11
201.329452
21
237.081265
0
LINE
8
Layer 1
10
201.329452
20
237.081265
11
193.145329
21
238.235605
0
LINE
8
Layer 1
10
193.145329
20
238.235605
11
184.964355
21
239.186013
0
LINE
8
Layer 1
10
184.964355
20
239.186013
11
176.788522
21
239.928224
0
LINE
8
Layer 1
10
176.788522
20
239.928224
11
168.619824
21
240.457969
0
LINE
8
Layer 1
10
168.619824
20
240.457969
11
160.460254
21
240.770983
0
LINE
8
Layer 1
10
160.460254
20
240.770983
11
152.311806
21
240.862999
0
LINE
8
Layer 1
10
152.311806
20
240.862999
11
152.311806
21
240.862999
0
LINE
8
Layer 1
10
152.311806
20
237.308763
11
160.034478
21
237.162303
0
LINE
8
Layer 1
10
160.034478
20
237.162303
11
167.754457
21
236.823647
0
LINE
8
Layer 1
10
167.754457
20
236.823647
11
175.468187
21
236.306658
0
LINE
8
Layer 1
10
175.468187
20
236.306658
11
183.172111
21
235.625203
0
LINE
8
Layer 1
10
183.172111
20
235.625203
11
198.536313
21
233.824356
0
LINE
8
Layer 1
10
198.536313
20
233.824356
11
213.818611
21
231.532026
0
LINE
8
Layer 1
10
213.818611
20
231.532026
11
209.717569
21
199.834943
0
LINE
8
Layer 1
10
209.717569
20
199.834943
11
202.031367
21
201.502015
0
LINE
8
Layer 1
10
202.031367
20
201.502015
11
195.233803
21
202.742882
0
LINE
8
Layer 1
10
195.233803
20
202.742882
11
189.116486
21
203.602260
0
LINE
8
Layer 1
10
189.116486
20
203.602260
11
183.471026
21
204.124868
0
LINE
8
Layer 1
10
183.471026
20
204.124868
11
178.089032
21
204.355424
0
LINE
8
Layer 1
10
178.089032
20
204.355424
11
172.762112
21
204.338645
0
LINE
8
Layer 1
10
172.762112
20
204.338645
11
167.281875
21
204.119250
0
LINE
8
Layer 1
10
167.281875
20
204.119250
11
161.439931
21
203.741957
0
LINE
8
Layer 1
10
161.439931
20
203.741957
11
152.400000
21
197.797651
0
LINE
8
Layer 1
10
152.400000
20
197.797651
11
143.360069
21
203.741957
0
LINE
8
Layer 1
10
143.360069
20
203.741957
11
137.517746
21
204.119250
0
LINE
8
Layer 1
10
137.517746
20
204.119250
11
132.036511
21
204.338645
0
LINE
8
Layer 1
10
132.036511
20
204.338645
11
126.708178
21
204.355424
0
LINE
8
Layer 1
10
126.708178
20
204.355424
11
121.324565
21
204.124868
0
LINE
8
Layer 1
10
121.324565
20
204.124868
11
115.677486
21
203.602260
0
LINE
8
Layer 1
10
115.677486
20
203.602260
11
109.558757
21
202.742882
0
LINE
8
Layer 1
10
109.558757
20
202.742882
11
102.760194
21
201.502015
0
LINE
8
Layer 1
10
102.760194
20
201.502015
11
95.073611
21
199.834943
0
LINE
8
Layer 1
10
95.073611
20
199.834943
11
90.981389
21
231.532026
0
LINE
8
Layer 1
10
90.981389
20
231.532026
11
98.585137
21
232.884852
0
LINE
8
Layer 1
10
98.585137
20
232.884852
11
106.213563
21
234.067517
0
LINE
8
Layer 1
10
106.213563
20
234.067517
11
113.863263
21
235.074996
0
LINE
8
Layer 1
10
113.863263
20
235.074996
11
121.530836
21
235.902265
0
LINE
8
Layer 1
10
121.530836
20
235.902265
11
129.212879
21
236.544301
0
LINE
8
Layer 1
10
129.212879
20
236.544301
11
136.905989
21
236.996079
0
LINE
8
Layer 1
10
136.905989
20
236.996079
11
144.606766
21
237.252574
0
LINE
8
Layer 1
10
144.606766
20
237.252574
11
152.311806
21
237.308763
0
LINE
8
Layer 1
10
152.311806
20
237.308763
11
152.311806
21
237.308763
0
LINE
8
Layer 1
10
129.848681
20
200.831540
11
135.814496
21
200.729145
0
LINE
8
Layer 1
10
135.814496
20
200.729145
11
141.887222
21
200.372929
0
LINE
8
Layer 1
10
141.887222
20
200.372929
11
152.400000
21
193.405568
0
LINE
8
Layer 1
10
152.400000
20
193.405568
11
162.912778
21
200.372929
0
LINE
8
Layer 1
10
162.912778
20
200.372929
11
168.984349
21
200.730328
0
LINE
8
Layer 1
10
168.984349
20
200.730328
11
174.949011
21
200.833701
0
LINE
8
Layer 1
10
174.949011
20
200.833701
11
180.822036
21
200.685299
0
LINE
8
Layer 1
10
180.822036
20
200.685299
11
186.618696
21
200.287372
0
LINE
8
Layer 1
10
186.618696
20
200.287372
11
192.354265
21
199.642172
0
LINE
8
Layer 1
10
192.354265
20
199.642172
11
198.044016
21
198.751948
0
LINE
8
Layer 1
10
198.044016
20
198.751948
11
203.703221
21
197.618950
0
LINE
8
Layer 1
10
203.703221
20
197.618950
11
209.347153
21
196.245429
0
LINE
8
Layer 1
10
209.347153
20
196.245429
11
211.622569
21
162.793276
0
LINE
8
Layer 1
10
211.622569
20
162.793276
11
212.463632
21
151.107506
0
LINE
8
Layer 1
10
212.463632
20
151.107506
11
212.867868
21
143.679822
0
LINE
8
Layer 1
10
212.867868
20
143.679822
11
213.060139
21
137.437374
0
LINE
8
Layer 1
10
213.060139
20
137.437374
11
212.907072
21
131.875235
0
LINE
8
Layer 1
10
212.907072
20
131.875235
11
212.125278
21
125.822165
0
LINE
8
Layer 1
10
212.125278
20
125.822165
11
211.305566
21
121.914023
0
LINE
8
Layer 1
10
211.305566
20
121.914023
11
210.053545
21
117.751380
0
LINE
8
Layer 1
10
210.053545
20
117.751380
11
208.593848
21
113.858227
0
LINE
8
Layer 1
10
208.593848
20
113.858227
11
207.151111
21
110.758554
0
LINE
8
Layer 1
10
207.151111
20
110.758554
11
204.904823
21
106.926477
0
LINE
8
Layer 1
10
204.904823
20
106.926477
11
202.494012
21
103.477581
0
LINE
8
Layer 1
10
202.494012
20
103.477581
11
199.926873
21
100.423616
0
LINE
8
Layer 1
10
199.926873
20
100.423616
11
197.211597
21
97.776332
0
LINE
8
Layer 1
10
197.211597
20
97.776332
11
194.928599
21
95.950695
0
LINE
8
Layer 1
10
194.928599
20
95.950695
11
192.059702
21
93.901006
0
LINE
8
Layer 1
10
192.059702
20
93.901006
11
189.052569
21
91.932487
0
LINE
8
Layer 1
10
189.052569
20
91.932487
11
186.354861
21
90.350360
0
LINE
8
Layer 1
10
186.354861
20
90.350360
11
180.793167
21
87.501119
0
LINE
8
Layer 1
10
180.793167
20
87.501119
11
175.031272
21
85.101681
0
LINE
8
Layer 1
10
175.031272
20
85.101681
11
172.077088
21
84.103881
0
LINE
8
Layer 1
10
172.077088
20
84.103881
11
169.075060
21
83.258423
0
LINE
8
Layer 1
10
169.075060
20
83.258423
11
166.025925
21
82.578604
0
LINE
8
Layer 1
10
166.025925
20
82.578604
11
162.930417
21
82.077721
0
LINE
8
Layer 1
10
162.930417
20
82.077721
11
152.400000
21
68.610429
0
LINE
8
Layer 1
10
152.400000
20
68.610429
11
141.869583
21
82.077721
0
LINE
8
Layer 1
10
141.869583
20
82.077721
11
138.774075
21
82.578604
0
LINE
8
Layer 1
10
138.774075
20
82.578604
11
135.724940
21
83.258423
0
LINE
8
Layer 1
10
135.724940
20
83.258423
11
132.722912
21
84.103881
0
LINE
8
Layer 1
10
132.722912
20
84.103881
11
129.768728
21
85.101681
0
LINE
8
Layer 1
10
129.768728
20
85.101681
11
124.006833
21
87.501119
0
LINE
8
Layer 1
10
124.006833
20
87.501119
11
118.445139
21
90.350360
0
LINE
8
Layer 1
10
118.445139
20
90.350360
11
115.747431
21
91.932487
0
LINE
8
Layer 1
10
115.747431
20
91.932487
11
112.740298
21
93.901006
0
LINE
8
Layer 1
10
112.740298
20
93.901006
11
109.871401
21
95.950695
0
LINE
8
Layer 1
10
109.871401
20
95.950695
11
107.588403
21
97.776332
0
LINE
8
Layer 1
10
107.588403
20
97.776332
11
104.873127
21
100.423616
0
LINE
8
Layer 1
10
104.873127
20
100.423616
11
102.305988
21
103.477581
0
LINE
8
Layer 1
10
102.305988
20
103.477581
11
99.895177
21
106.926477
0
LINE
8
Layer 1
10
99.895177
20
106.926477
11
97.648889
21
110.758554
0
LINE
8
Layer 1
10
97.648889
20
110.758554
11
96.211517
21
113.859036
0
LINE
8
Layer 1
10
96.211517
20
113.859036
11
94.760761
21
117.753536
0
LINE
8
Layer 1
10
94.760761
20
117.753536
11
93.510527
21
121.916448
0
LINE
8
Layer 1
10
93.510527
20
121.916448
11
92.674722
21
125.822165
0
LINE
8
Layer 1
10
92.674722
20
125.822165
11
91.919911
21
131.767300
0
LINE
8
Layer 1
10
91.919911
20
131.767300
11
91.739861
21
137.437374
0
LINE
8
Layer 1
10
91.739861
20
137.437374
11
91.889487
21
143.679806
0
LINE
8
Layer 1
10
91.889487
20
143.679806
11
92.298462
21
151.107492
0
LINE
8
Layer 1
10
92.298462
20
151.107492
11
93.177431
21
162.793276
0
LINE
8
Layer 1
10
93.177431
20
162.793276
11
95.452847
21
196.245429
0
LINE
8
Layer 1
10
95.452847
20
196.245429
11
103.923157
21
198.215433
0
LINE
8
Layer 1
10
103.923157
20
198.215433
11
112.444579
21
199.641400
0
LINE
8
Layer 1
10
112.444579
20
199.641400
11
121.069094
21
200.515910
0
LINE
8
Layer 1
10
121.069094
20
200.515910
11
129.848681
21
200.831540
0
LINE
8
Layer 1
10
129.848681
20
200.831540
11
129.848681
21
200.831540
 0 
ENDSEC
 0 
EOF
