  0
SECTION
  2
HEADER
  9
$ACADVER
  1
AC1014
  9
$HANDSEED
  5
FFFF
  9
$MEASUREMENT
 70
     1
  0
ENDSEC
  0
SECTION
  2
TABLES
  0
TABLE
  2
VPORT
  5
8
330
0
100
AcDbSymbolTable
 70
     4
  0
VPORT
  5
2E
330
8
100
AcDbSymbolTableRecord
100
AcDbViewportTableRecord
  2
*ACTIVE
 70
     0
 10
0.0
 20
0.0
 11
1.0
 21
1.0
 12
210.0
 22
148.5
 13
0.0
 23
0.0
 14
10.0
 24
10.0
 15
10.0
 25
10.0
 16
0.0
 26
0.0
 36
1.0
 17
0.0
 27
0.0
 37
0.0
 40
341.0
 41
1.24
 42
50.0
 43
0.0
 44
0.0
 50
0.0
 51
0.0
 71
     0
 72
   100
 73
     1
 74
     3
 75
     0
 76
     0
 77
     0
 78
     0
  0
ENDTAB
  0
TABLE
  2
LTYPE
  5
5
330
0
100
AcDbSymbolTable
 70
     1
  0
LTYPE
  5
14
330
5
100
AcDbSymbolTableRecord
100
AcDbLinetypeTableRecord
  2
BYBLOCK
 70
     0
  3

 72
    65
 73
     0
 40
0.0
  0
LTYPE
  5
15
330
5
100
AcDbSymbolTableRecord
100
AcDbLinetypeTableRecord
  2
BYLAYER
 70
     0
  3

 72
    65
 73
     0
 40
0.0
  0
LTYPE
  5
16
330
5
100
AcDbSymbolTableRecord
100
AcDbLinetypeTableRecord
  2
CONTINUOUS
 70
     0
  3
Solid line
 72
    65
 73
     0
 40
0.0
  0
ENDTAB
  0
TABLE
  2
LAYER
  5
2
100
AcDbSymbolTable
 70
1
  0
LAYER
  5
50
100
AcDbSymbolTableRecord
100
AcDbLayerTableRecord
  2
0
 70
0
  6
CONTINUOUS
  0
ENDTAB
  0
TABLE
  2
STYLE
  5
3
330
0
100
AcDbSymbolTable
 70
     1
  0
STYLE
  5
11
330
3
100
AcDbSymbolTableRecord
100
AcDbTextStyleTableRecord
  2
STANDARD
 70
     0
 40
0.0
 41
1.0
 50
0.0
 71
     0
 42
2.5
  3
txt
  4

  0
ENDTAB
  0
TABLE
  2
VIEW
  5
6
330
0
100
AcDbSymbolTable
 70
     0
  0
ENDTAB
  0
TABLE
  2
UCS
  5
7
330
0
100
AcDbSymbolTable
 70
     0
  0
ENDTAB
  0
TABLE
  2
APPID
  5
9
330
0
100
AcDbSymbolTable
 70
     2
  0
APPID
  5
12
330
9
100
AcDbSymbolTableRecord
100
AcDbRegAppTableRecord
  2
ACAD
 70
     0
  0
ENDTAB
  0
TABLE
  2
DIMSTYLE
  5
A
330
0
100
AcDbSymbolTable
 70
     1
  0
DIMSTYLE
105
27
330
A
100
AcDbSymbolTableRecord
100
AcDbDimStyleTableRecord
  2
ISO-25
 70
     0
  3

  4

  5

  6

  7

 40
1.0
 41
2.5
 42
0.625
 43
3.75
 44
1.25
 45
0.0
 46
0.0
 47
0.0
 48
0.0
140
2.5
141
2.5
142
0.0
143
0.03937007874016
144
1.0
145
0.0
146
1.0
147
0.625
 71
     0
 72
     0
 73
     0
 74
     0
 75
     0
 76
     0
 77
     1
 78
     8
170
     0
171
     3
172
     1
173
     0
174
     0
175
     0
176
     0
177
     0
178
     0
270
     2
271
     2
272
     2
273
     2
274
     3
340
11
275
     0
280
     0
281
     0
282
     0
283
     0
284
     8
285
     0
286
     0
287
     3
288
     0
  0
ENDTAB
  0
TABLE
  2
BLOCK_RECORD
  5
1
330
0
100
AcDbSymbolTable
 70
     1
  0
BLOCK_RECORD
  5
1F
330
1
100
AcDbSymbolTableRecord
100
AcDbBlockTableRecord
  2
*MODEL_SPACE
  0
BLOCK_RECORD
  5
1B
330
1
100
AcDbSymbolTableRecord
100
AcDbBlockTableRecord
  2
*PAPER_SPACE
  0
ENDTAB
  0
ENDSEC
  0
SECTION
  2
BLOCKS
  0
BLOCK
  5
20
330
1F
100
AcDbEntity
  8
0
100
AcDbBlockBegin
  2
*MODEL_SPACE
 70
     0
 10
0.0
 20
0.0
 30
0.0
  3
*MODEL_SPACE
  1

  0
ENDBLK
  5
21
330
1F
100
AcDbEntity
  8
0
100
AcDbBlockEnd
  0
BLOCK
  5
1C
330
1B
100
AcDbEntity
 67
     1
  8
0
100
AcDbBlockBegin
  2
*PAPER_SPACE
  1

  0
ENDBLK
  5
1D
330
1B
100
AcDbEntity
 67
     1
  8
0
100
AcDbBlockEnd
  0
ENDSEC
  0
SECTION
  2
ENTITIES
  0
SPLINE
  5
100
100
AcDbEntity
  8
0
 62
7
100
AcDbSpline
 70
8
 71
3
 72
8
 73
4
 74
0
 40
0
 40
0
 40
0
 40
0
 40
1
 40
1
 40
1
 40
1
 10
56.167904
 20
-0.668367
 30
0.0
 10
55.440300
 20
-0.322871
 30
0.0
 10
54.453451
 20
0.256720
 30
0.0
 10
53.974910
 20
0.619609
 30
0.0
  0
SPLINE
  5
101
100
AcDbEntity
  8
0
 62
7
100
AcDbSpline
 70
8
 71
3
 72
8
 73
4
 74
0
 40
0
 40
0
 40
0
 40
0
 40
1
 40
1
 40
1
 40
1
 10
53.974910
 20
0.619609
 30
0.0
 10
53.237344
 20
1.178925
 30
0.0
 10
52.955272
 20
1.246759
 30
0.0
 10
52.122827
 20
1.065006
 30
0.0
  0
SPLINE
  5
102
100
AcDbEntity
  8
0
 62
7
100
AcDbSpline
 70
8
 71
3
 72
8
 73
4
 74
0
 40
0
 40
0
 40
0
 40
0
 40
1
 40
1
 40
1
 40
1
 10
52.122827
 20
1.065006
 30
0.0
 10
49.695373
 20
0.535014
 30
0.0
 10
44.576042
 20
0.215527
 30
0.0
 10
40.954362
 20
0.368009
 30
0.0
  0
SPLINE
  5
103
100
AcDbEntity
  8
0
 62
7
100
AcDbSpline
 70
8
 71
3
 72
8
 73
4
 74
0
 40
0
 40
0
 40
0
 40
0
 40
1
 40
1
 40
1
 40
1
 10
40.954362
 20
0.368009
 30
0.0
 10
28.784714
 20
0.880385
 30
0.0
 10
18.750025
 20
5.073671
 30
0.0
 10
10.982541
 20
12.892611
 30
0.0
  0
SPLINE
  5
104
100
AcDbEntity
  8
0
 62
7
100
AcDbSpline
 70
8
 71
3
 72
8
 73
4
 74
0
 40
0
 40
0
 40
0
 40
0
 40
1
 40
1
 40
1
 40
1
 10
10.982541
 20
12.892611
 30
0.0
 10
5.751935
 20
18.157865
 30
0.0
 10
2.422489
 20
24.269054
 30
0.0
 10
1.011004
 20
31.195338
 30
0.0
  0
SPLINE
  5
105
100
AcDbEntity
  8
0
 62
7
100
AcDbSpline
 70
8
 71
3
 72
8
 73
4
 74
0
 40
0
 40
0
 40
0
 40
0
 40
1
 40
1
 40
1
 40
1
 10
1.011004
 20
31.195338
 30
0.0
 10
-1.206118
 20
42.074931
 30
0.0
 10
1.558503
 20
55.574798
 30
0.0
 10
8.326270
 20
66.916385
 30
0.0
  0
SPLINE
  5
106
100
AcDbEntity
  8
0
 62
7
100
AcDbSpline
 70
8
 71
3
 72
8
 73
4
 74
0
 40
0
 40
0
 40
0
 40
0
 40
1
 40
1
 40
1
 40
1
 10
8.326270
 20
66.916385
 30
0.0
 10
12.975234
 20
74.707234
 30
0.0
 10
20.053545
 20
82.032537
 30
0.0
 10
26.720628
 20
85.952601
 30
0.0
  0
SPLINE
  5
107
100
AcDbEntity
  8
0
 62
7
100
AcDbSpline
 70
8
 71
3
 72
8
 73
4
 74
0
 40
0
 40
0
 40
0
 40
0
 40
1
 40
1
 40
1
 40
1
 10
26.720628
 20
85.952601
 30
0.0
 10
28.132648
 20
86.782831
 30
0.0
 10
29.293508
 20
87.587671
 30
0.0
 10
29.300316
 20
87.741135
 30
0.0
  0
SPLINE
  5
108
100
AcDbEntity
  8
0
 62
7
100
AcDbSpline
 70
8
 71
3
 72
8
 73
4
 74
0
 40
0
 40
0
 40
0
 40
0
 40
1
 40
1
 40
1
 40
1
 10
29.300316
 20
87.741135
 30
0.0
 10
29.307115
 20
87.894598
 30
0.0
 10
28.904941
 20
88.465323
 30
0.0
 10
28.406574
 20
89.009412
 30
0.0
  0
SPLINE
  5
109
100
AcDbEntity
  8
0
 62
7
100
AcDbSpline
 70
8
 71
3
 72
8
 73
4
 74
0
 40
0
 40
0
 40
0
 40
0
 40
1
 40
1
 40
1
 40
1
 10
28.406574
 20
89.009412
 30
0.0
 10
27.401954
 20
90.106204
 30
0.0
 10
27.567377
 20
90.123207
 30
0.0
 10
29.809350
 20
89.153597
 30
0.0
  0
SPLINE
  5
10a
100
AcDbEntity
  8
0
 62
7
100
AcDbSpline
 70
8
 71
3
 72
8
 73
4
 74
0
 40
0
 40
0
 40
0
 40
0
 40
1
 40
1
 40
1
 40
1
 10
29.809350
 20
89.153597
 30
0.0
 10
30.446311
 20
88.878122
 30
0.0
 10
31.083263
 20
88.652734
 30
0.0
 10
31.224799
 20
88.652734
 30
0.0
  0
SPLINE
  5
10b
100
AcDbEntity
  8
0
 62
7
100
AcDbSpline
 70
8
 71
3
 72
8
 73
4
 74
0
 40
0
 40
0
 40
0
 40
0
 40
1
 40
1
 40
1
 40
1
 10
31.224799
 20
88.652734
 30
0.0
 10
31.366336
 20
88.652734
 30
0.0
 10
32.809717
 20
89.178320
 30
0.0
 10
34.432311
 20
89.820704
 30
0.0
  0
SPLINE
  5
10c
100
AcDbEntity
  8
0
 62
7
100
AcDbSpline
 70
8
 71
3
 72
8
 73
4
 74
0
 40
0
 40
0
 40
0
 40
0
 40
1
 40
1
 40
1
 40
1
 10
34.432311
 20
89.820704
 30
0.0
 10
36.054908
 20
90.463087
 30
0.0
 10
38.068671
 20
91.199701
 30
0.0
 10
38.907336
 20
91.457624
 30
0.0
  0
SPLINE
  5
10d
100
AcDbEntity
  8
0
 62
7
100
AcDbSpline
 70
8
 71
3
 72
8
 73
4
 74
0
 40
0
 40
0
 40
0
 40
0
 40
1
 40
1
 40
1
 40
1
 10
38.907336
 20
91.457624
 30
0.0
 10
39.937161
 20
91.774336
 30
0.0
 10
40.345159
 20
92.013605
 30
0.0
 10
40.164107
 20
92.194655
 30
0.0
  0
SPLINE
  5
10e
100
AcDbEntity
  8
0
 62
7
100
AcDbSpline
 70
8
 71
3
 72
8
 73
4
 74
0
 40
0
 40
0
 40
0
 40
0
 40
1
 40
1
 40
1
 40
1
 10
40.164107
 20
92.194655
 30
0.0
 10
39.669847
 20
92.688916
 30
0.0
 10
39.889583
 20
92.902442
 30
0.0
 10
40.491341
 20
92.512639
 30
0.0
  0
SPLINE
  5
10f
100
AcDbEntity
  8
0
 62
7
100
AcDbSpline
 70
8
 71
3
 72
8
 73
4
 74
0
 40
0
 40
0
 40
0
 40
0
 40
1
 40
1
 40
1
 40
1
 10
40.491341
 20
92.512639
 30
0.0
 10
41.019034
 20
92.170814
 30
0.0
 10
41.327078
 20
92.184708
 30
0.0
 10
43.203320
 20
92.634962
 30
0.0
  0
SPLINE
  5
110
100
AcDbEntity
  8
0
 62
7
100
AcDbSpline
 70
8
 71
3
 72
8
 73
4
 74
0
 40
0
 40
0
 40
0
 40
0
 40
1
 40
1
 40
1
 40
1
 10
43.203320
 20
92.634962
 30
0.0
 10
54.710243
 20
95.396348
 30
0.0
 10
67.405782
 20
95.398237
 30
0.0
 10
77.224197
 20
92.640023
 30
0.0
  0
SPLINE
  5
111
100
AcDbEntity
  8
0
 62
7
100
AcDbSpline
 70
8
 71
3
 72
8
 73
4
 74
0
 40
0
 40
0
 40
0
 40
0
 40
1
 40
1
 40
1
 40
1
 10
77.224197
 20
92.640023
 30
0.0
 10
86.347041
 20
90.077210
 30
0.0
 10
92.776524
 20
84.406216
 30
0.0
 10
95.486625
 20
76.532019
 30
0.0
  0
SPLINE
  5
112
100
AcDbEntity
  8
0
 62
7
100
AcDbSpline
 70
8
 71
3
 72
8
 73
4
 74
0
 40
0
 40
0
 40
0
 40
0
 40
1
 40
1
 40
1
 40
1
 10
95.486625
 20
76.532019
 30
0.0
 10
96.358718
 20
73.998156
 30
0.0
 10
96.512110
 20
72.600844
 30
0.0
 10
96.528308
 20
67.042959
 30
0.0
  0
SPLINE
  5
113
100
AcDbEntity
  8
0
 62
7
100
AcDbSpline
 70
8
 71
3
 72
8
 73
4
 74
0
 40
0
 40
0
 40
0
 40
0
 40
1
 40
1
 40
1
 40
1
 10
96.528308
 20
67.042959
 30
0.0
 10
96.529631
 20
66.580965
 30
0.0
 10
96.403726
 20
66.124461
 30
0.0
 10
96.248463
 20
66.028505
 30
0.0
  0
SPLINE
  5
114
100
AcDbEntity
  8
0
 62
7
100
AcDbSpline
 70
8
 71
3
 72
8
 73
4
 74
0
 40
0
 40
0
 40
0
 40
0
 40
1
 40
1
 40
1
 40
1
 10
96.248463
 20
66.028505
 30
0.0
 10
96.093203
 20
65.932548
 30
0.0
 10
96.040419
 20
65.620102
 30
0.0
 10
96.131166
 20
65.334182
 30
0.0
  0
SPLINE
  5
115
100
AcDbEntity
  8
0
 62
7
100
AcDbSpline
 70
8
 71
3
 72
8
 73
4
 74
0
 40
0
 40
0
 40
0
 40
0
 40
1
 40
1
 40
1
 40
1
 10
96.131166
 20
65.334182
 30
0.0
 10
96.223929
 20
65.041910
 30
0.0
 10
96.112804
 20
64.534500
 30
0.0
 10
95.877346
 20
64.175133
 30
0.0
  0
SPLINE
  5
116
100
AcDbEntity
  8
0
 62
7
100
AcDbSpline
 70
8
 71
3
 72
8
 73
4
 74
0
 40
0
 40
0
 40
0
 40
0
 40
1
 40
1
 40
1
 40
1
 10
95.877346
 20
64.175133
 30
0.0
 10
95.646997
 20
63.823576
 30
0.0
 10
95.458529
 20
63.232928
 30
0.0
 10
95.458529
 20
62.862583
 30
0.0
  0
SPLINE
  5
117
100
AcDbEntity
  8
0
 62
7
100
AcDbSpline
 70
8
 71
3
 72
8
 73
4
 74
0
 40
0
 40
0
 40
0
 40
0
 40
1
 40
1
 40
1
 40
1
 10
95.458529
 20
62.862583
 30
0.0
 10
95.458529
 20
62.492235
 30
0.0
 10
95.220404
 20
61.985335
 30
0.0
 10
94.929362
 20
61.736137
 30
0.0
  0
SPLINE
  5
118
100
AcDbEntity
  8
0
 62
7
100
AcDbSpline
 70
8
 71
3
 72
8
 73
4
 74
0
 40
0
 40
0
 40
0
 40
0
 40
1
 40
1
 40
1
 40
1
 10
94.929362
 20
61.736137
 30
0.0
 10
94.638320
 20
61.486940
 30
0.0
 10
94.400195
 20
61.020498
 30
0.0
 10
94.400195
 20
60.699598
 30
0.0
  0
SPLINE
  5
119
100
AcDbEntity
  8
0
 62
7
100
AcDbSpline
 70
8
 71
3
 72
8
 73
4
 74
0
 40
0
 40
0
 40
0
 40
0
 40
1
 40
1
 40
1
 40
1
 10
94.400195
 20
60.699598
 30
0.0
 10
94.400195
 20
60.378698
 30
0.0
 10
94.131773
 20
59.899143
 30
0.0
 10
93.803703
 20
59.633920
 30
0.0
  0
SPLINE
  5
11a
100
AcDbEntity
  8
0
 62
7
100
AcDbSpline
 70
8
 71
3
 72
8
 73
4
 74
0
 40
0
 40
0
 40
0
 40
0
 40
1
 40
1
 40
1
 40
1
 10
93.803703
 20
59.633920
 30
0.0
 10
93.475633
 20
59.368696
 30
0.0
 10
93.056046
 20
58.812378
 30
0.0
 10
92.871287
 20
58.397654
 30
0.0
  0
SPLINE
  5
11b
100
AcDbEntity
  8
0
 62
7
100
AcDbSpline
 70
8
 71
3
 72
8
 73
4
 74
0
 40
0
 40
0
 40
0
 40
0
 40
1
 40
1
 40
1
 40
1
 10
92.871287
 20
58.397654
 30
0.0
 10
92.686531
 20
57.982933
 30
0.0
 10
92.313673
 20
57.585640
 30
0.0
 10
92.042713
 20
57.514782
 30
0.0
  0
SPLINE
  5
11c
100
AcDbEntity
  8
0
 62
7
100
AcDbSpline
 70
8
 71
3
 72
8
 73
4
 74
0
 40
0
 40
0
 40
0
 40
0
 40
1
 40
1
 40
1
 40
1
 10
92.042713
 20
57.514782
 30
0.0
 10
91.714936
 20
57.429067
 30
0.0
 10
91.497084
 20
57.054648
 30
0.0
 10
91.391764
 20
56.395999
 30
0.0
  0
SPLINE
  5
11d
100
AcDbEntity
  8
0
 62
7
100
AcDbSpline
 70
8
 71
3
 72
8
 73
4
 74
0
 40
0
 40
0
 40
0
 40
0
 40
1
 40
1
 40
1
 40
1
 10
91.391764
 20
56.395999
 30
0.0
 10
91.304697
 20
55.851524
 30
0.0
 10
90.876117
 20
54.912745
 30
0.0
 10
90.439362
 20
54.309820
 30
0.0
  0
SPLINE
  5
11e
100
AcDbEntity
  8
0
 62
7
100
AcDbSpline
 70
8
 71
3
 72
8
 73
4
 74
0
 40
0
 40
0
 40
0
 40
0
 40
1
 40
1
 40
1
 40
1
 10
90.439362
 20
54.309820
 30
0.0
 10
89.563530
 20
53.100770
 30
0.0
 10
87.231400
 20
51.617809
 30
0.0
 10
86.198112
 20
51.612883
 30
0.0
  0
SPLINE
  5
11f
100
AcDbEntity
  8
0
 62
7
100
AcDbSpline
 70
8
 71
3
 72
8
 73
4
 74
0
 40
0
 40
0
 40
0
 40
0
 40
1
 40
1
 40
1
 40
1
 10
86.198112
 20
51.612883
 30
0.0
 10
85.834310
 20
51.611031
 30
0.0
 10
84.643685
 20
51.013602
 30
0.0
 10
83.552279
 20
50.285000
 30
0.0
  0
SPLINE
  5
120
100
AcDbEntity
  8
0
 62
7
100
AcDbSpline
 70
8
 71
3
 72
8
 73
4
 74
0
 40
0
 40
0
 40
0
 40
0
 40
1
 40
1
 40
1
 40
1
 10
83.552279
 20
50.285000
 30
0.0
 10
80.998769
 20
48.580332
 30
0.0
 10
79.148255
 20
47.889550
 30
0.0
 10
77.099231
 20
47.876127
 30
0.0
  0
SPLINE
  5
121
100
AcDbEntity
  8
0
 62
7
100
AcDbSpline
 70
8
 71
3
 72
8
 73
4
 74
0
 40
0
 40
0
 40
0
 40
0
 40
1
 40
1
 40
1
 40
1
 10
77.099231
 20
47.876127
 30
0.0
 10
75.188720
 20
47.863613
 30
0.0
 10
74.390872
 20
48.131323
 30
0.0
 10
73.506804
 20
49.081519
 30
0.0
  0
SPLINE
  5
122
100
AcDbEntity
  8
0
 62
7
100
AcDbSpline
 70
8
 71
3
 72
8
 73
4
 74
0
 40
0
 40
0
 40
0
 40
0
 40
1
 40
1
 40
1
 40
1
 10
73.506804
 20
49.081519
 30
0.0
 10
72.977616
 20
49.650291
 30
0.0
 10
72.857826
 20
50.045100
 30
0.0
 10
72.874042
 20
51.166978
 30
0.0
  0
SPLINE
  5
123
100
AcDbEntity
  8
0
 62
7
100
AcDbSpline
 70
8
 71
3
 72
8
 73
4
 74
0
 40
0
 40
0
 40
0
 40
0
 40
1
 40
1
 40
1
 40
1
 10
72.874042
 20
51.166978
 30
0.0
 10
72.898304
 20
52.846196
 30
0.0
 10
73.453054
 20
53.993799
 30
0.0
 10
74.700389
 20
54.945188
 30
0.0
  0
SPLINE
  5
124
100
AcDbEntity
  8
0
 62
7
100
AcDbSpline
 70
8
 71
3
 72
8
 73
4
 74
0
 40
0
 40
0
 40
0
 40
0
 40
1
 40
1
 40
1
 40
1
 10
74.700389
 20
54.945188
 30
0.0
 10
75.464223
 20
55.527793
 30
0.0
 10
75.993009
 20
55.683339
 30
0.0
 10
77.544938
 20
55.781936
 30
0.0
  0
SPLINE
  5
125
100
AcDbEntity
  8
0
 62
7
100
AcDbSpline
 70
8
 71
3
 72
8
 73
4
 74
0
 40
0
 40
0
 40
0
 40
0
 40
1
 40
1
 40
1
 40
1
 10
77.544938
 20
55.781936
 30
0.0
 10
79.846474
 20
55.928158
 30
0.0
 10
81.391554
 20
55.551719
 30
0.0
 10
82.326234
 20
54.617039
 30
0.0
  0
SPLINE
  5
126
100
AcDbEntity
  8
0
 62
7
100
AcDbSpline
 70
8
 71
3
 72
8
 73
4
 74
0
 40
0
 40
0
 40
0
 40
0
 40
1
 40
1
 40
1
 40
1
 10
82.326234
 20
54.617039
 30
0.0
 10
82.709517
 20
54.233755
 30
0.0
 10
83.022816
 20
53.847101
 30
0.0
 10
83.022451
 20
53.757804
 30
0.0
  0
SPLINE
  5
127
100
AcDbEntity
  8
0
 62
7
100
AcDbSpline
 70
8
 71
3
 72
8
 73
4
 74
0
 40
0
 40
0
 40
0
 40
0
 40
1
 40
1
 40
1
 40
1
 10
83.022451
 20
53.757804
 30
0.0
 10
83.022186
 20
53.668507
 30
0.0
 10
82.277947
 20
53.582790
 30
0.0
 10
81.368805
 20
53.567323
 30
0.0
  0
SPLINE
  5
128
100
AcDbEntity
  8
0
 62
7
100
AcDbSpline
 70
8
 71
3
 72
8
 73
4
 74
0
 40
0
 40
0
 40
0
 40
0
 40
1
 40
1
 40
1
 40
1
 10
81.368805
 20
53.567323
 30
0.0
 10
80.459665
 20
53.551871
 30
0.0
 10
78.953921
 20
53.341411
 30
0.0
 10
78.022712
 20
53.099669
 30
0.0
  0
SPLINE
  5
129
100
AcDbEntity
  8
0
 62
7
100
AcDbSpline
 70
8
 71
3
 72
8
 73
4
 74
0
 40
0
 40
0
 40
0
 40
0
 40
1
 40
1
 40
1
 40
1
 10
78.022712
 20
53.099669
 30
0.0
 10
76.217542
 20
52.631042
 30
0.0
 10
75.867998
 20
52.679561
 30
0.0
 10
76.403221
 20
53.324467
 30
0.0
  0
SPLINE
  5
12a
100
AcDbEntity
  8
0
 62
7
100
AcDbSpline
 70
8
 71
3
 72
8
 73
4
 74
0
 40
0
 40
0
 40
0
 40
0
 40
1
 40
1
 40
1
 40
1
 10
76.403221
 20
53.324467
 30
0.0
 10
76.880479
 20
53.899526
 30
0.0
 10
76.336811
 20
53.823310
 30
0.0
 10
75.550697
 20
53.204952
 30
0.0
  0
SPLINE
  5
12b
100
AcDbEntity
  8
0
 62
7
100
AcDbSpline
 70
8
 71
3
 72
8
 73
4
 74
0
 40
0
 40
0
 40
0
 40
0
 40
1
 40
1
 40
1
 40
1
 10
75.550697
 20
53.204952
 30
0.0
 10
73.583271
 20
51.657378
 30
0.0
 10
75.424866
 20
49.331227
 30
0.0
 10
78.056486
 20
50.039850
 30
0.0
  0
SPLINE
  5
12c
100
AcDbEntity
  8
0
 62
7
100
AcDbSpline
 70
8
 71
3
 72
8
 73
4
 74
0
 40
0
 40
0
 40
0
 40
0
 40
1
 40
1
 40
1
 40
1
 10
78.056486
 20
50.039850
 30
0.0
 10
79.486527
 20
50.424920
 30
0.0
 10
81.514614
 20
51.407143
 30
0.0
 10
83.088747
 20
52.477028
 30
0.0
  0
SPLINE
  5
12d
100
AcDbEntity
  8
0
 62
7
100
AcDbSpline
 70
8
 71
3
 72
8
 73
4
 74
0
 40
0
 40
0
 40
0
 40
0
 40
1
 40
1
 40
1
 40
1
 10
83.088747
 20
52.477028
 30
0.0
 10
84.023137
 20
53.112099
 30
0.0
 10
84.345391
 20
53.500336
 30
0.0
 10
84.346505
 20
53.992320
 30
0.0
  0
SPLINE
  5
12e
100
AcDbEntity
  8
0
 62
7
100
AcDbSpline
 70
8
 71
3
 72
8
 73
4
 74
0
 40
0
 40
0
 40
0
 40
0
 40
1
 40
1
 40
1
 40
1
 10
84.346505
 20
53.992320
 30
0.0
 10
84.350050
 20
55.557558
 30
0.0
 10
86.578445
 20
57.710999
 30
0.0
 10
88.813087
 20
58.308675
 30
0.0
  0
SPLINE
  5
12f
100
AcDbEntity
  8
0
 62
7
100
AcDbSpline
 70
8
 71
3
 72
8
 73
4
 74
0
 40
0
 40
0
 40
0
 40
0
 40
1
 40
1
 40
1
 40
1
 10
88.813087
 20
58.308675
 30
0.0
 10
89.701010
 20
58.546157
 30
0.0
 10
90.033853
 20
58.788708
 30
0.0
 10
90.225253
 20
59.337753
 30
0.0
  0
SPLINE
  5
130
100
AcDbEntity
  8
0
 62
7
100
AcDbSpline
 70
8
 71
3
 72
8
 73
4
 74
0
 40
0
 40
0
 40
0
 40
0
 40
1
 40
1
 40
1
 40
1
 10
90.225253
 20
59.337753
 30
0.0
 10
90.362984
 20
59.732853
 30
0.0
 10
90.703847
 20
60.128534
 30
0.0
 10
90.982726
 20
60.217048
 30
0.0
  0
SPLINE
  5
131
100
AcDbEntity
  8
0
 62
7
100
AcDbSpline
 70
8
 71
3
 72
8
 73
4
 74
0
 40
0
 40
0
 40
0
 40
0
 40
1
 40
1
 40
1
 40
1
 10
90.982726
 20
60.217048
 30
0.0
 10
91.261605
 20
60.305559
 30
0.0
 10
91.489779
 20
60.599440
 30
0.0
 10
91.489779
 20
60.870114
 30
0.0
  0
SPLINE
  5
132
100
AcDbEntity
  8
0
 62
7
100
AcDbSpline
 70
8
 71
3
 72
8
 73
4
 74
0
 40
0
 40
0
 40
0
 40
0
 40
1
 40
1
 40
1
 40
1
 10
91.489779
 20
60.870114
 30
0.0
 10
91.489779
 20
61.140788
 30
0.0
 10
91.761104
 20
61.579248
 30
0.0
 10
92.092722
 20
61.844471
 30
0.0
  0
SPLINE
  5
133
100
AcDbEntity
  8
0
 62
7
100
AcDbSpline
 70
8
 71
3
 72
8
 73
4
 74
0
 40
0
 40
0
 40
0
 40
0
 40
1
 40
1
 40
1
 40
1
 10
92.092722
 20
61.844471
 30
0.0
 10
92.424340
 20
62.109695
 30
0.0
 10
92.654271
 20
62.532271
 30
0.0
 10
92.603677
 20
62.783533
 30
0.0
  0
SPLINE
  5
134
100
AcDbEntity
  8
0
 62
7
100
AcDbSpline
 70
8
 71
3
 72
8
 73
4
 74
0
 40
0
 40
0
 40
0
 40
0
 40
1
 40
1
 40
1
 40
1
 10
92.603677
 20
62.783533
 30
0.0
 10
92.553086
 20
63.034795
 30
0.0
 10
92.819818
 20
63.548496
 30
0.0
 10
93.196418
 20
63.925096
 30
0.0
  0
SPLINE
  5
135
100
AcDbEntity
  8
0
 62
7
100
AcDbSpline
 70
8
 71
3
 72
8
 73
4
 74
0
 40
0
 40
0
 40
0
 40
0
 40
1
 40
1
 40
1
 40
1
 10
93.196418
 20
63.925096
 30
0.0
 10
93.573015
 20
64.301694
 30
0.0
 10
93.823150
 20
64.703654
 30
0.0
 10
93.752270
 20
64.818343
 30
0.0
  0
SPLINE
  5
136
100
AcDbEntity
  8
0
 62
7
100
AcDbSpline
 70
8
 71
3
 72
8
 73
4
 74
0
 40
0
 40
0
 40
0
 40
0
 40
1
 40
1
 40
1
 40
1
 10
93.752270
 20
64.818343
 30
0.0
 10
93.681389
 20
64.933029
 30
0.0
 10
93.794390
 20
65.252762
 30
0.0
 10
94.003381
 20
65.528863
 30
0.0
  0
SPLINE
  5
137
100
AcDbEntity
  8
0
 62
7
100
AcDbSpline
 70
8
 71
3
 72
8
 73
4
 74
0
 40
0
 40
0
 40
0
 40
0
 40
1
 40
1
 40
1
 40
1
 10
94.003381
 20
65.528863
 30
0.0
 10
94.212373
 20
65.804963
 30
0.0
 10
94.387151
 20
66.351257
 30
0.0
 10
94.391782
 20
66.742851
 30
0.0
  0
SPLINE
  5
138
100
AcDbEntity
  8
0
 62
7
100
AcDbSpline
 70
8
 71
3
 72
8
 73
4
 74
0
 40
0
 40
0
 40
0
 40
0
 40
1
 40
1
 40
1
 40
1
 10
94.391782
 20
66.742851
 30
0.0
 10
94.396412
 20
67.134444
 30
0.0
 10
94.503290
 20
67.518553
 30
0.0
 10
94.629295
 20
67.596431
 30
0.0
  0
SPLINE
  5
139
100
AcDbEntity
  8
0
 62
7
100
AcDbSpline
 70
8
 71
3
 72
8
 73
4
 74
0
 40
0
 40
0
 40
0
 40
0
 40
1
 40
1
 40
1
 40
1
 10
94.629295
 20
67.596431
 30
0.0
 10
94.755301
 20
67.674306
 30
0.0
 10
94.803619
 20
68.024564
 30
0.0
 10
94.736671
 20
68.374782
 30
0.0
  0
SPLINE
  5
13a
100
AcDbEntity
  8
0
 62
7
100
AcDbSpline
 70
8
 71
3
 72
8
 73
4
 74
0
 40
0
 40
0
 40
0
 40
0
 40
1
 40
1
 40
1
 40
1
 10
94.736671
 20
68.374782
 30
0.0
 10
94.669724
 20
68.725000
 30
0.0
 10
94.745217
 20
69.092054
 30
0.0
 10
94.904446
 20
69.190461
 30
0.0
  0
SPLINE
  5
13b
100
AcDbEntity
  8
0
 62
7
100
AcDbSpline
 70
8
 71
3
 72
8
 73
4
 74
0
 40
0
 40
0
 40
0
 40
0
 40
1
 40
1
 40
1
 40
1
 10
94.904446
 20
69.190461
 30
0.0
 10
95.612212
 20
69.627885
 30
0.0
 10
94.900239
 20
74.218909
 30
0.0
 10
93.634377
 20
77.380246
 30
0.0
  0
SPLINE
  5
13c
100
AcDbEntity
  8
0
 62
7
100
AcDbSpline
 70
8
 71
3
 72
8
 73
4
 74
0
 40
0
 40
0
 40
0
 40
0
 40
1
 40
1
 40
1
 40
1
 10
93.634377
 20
77.380246
 30
0.0
 10
91.023376
 20
83.900912
 30
0.0
 10
85.064327
 20
88.918862
 30
0.0
 10
77.238611
 20
91.186665
 30
0.0
  0
SPLINE
  5
13d
100
AcDbEntity
  8
0
 62
7
100
AcDbSpline
 70
8
 71
3
 72
8
 73
4
 74
0
 40
0
 40
0
 40
0
 40
0
 40
1
 40
1
 40
1
 40
1
 10
77.238611
 20
91.186665
 30
0.0
 10
68.509515
 20
93.716258
 30
0.0
 10
57.292528
 20
93.985664
 30
0.0
 10
46.646822
 20
91.921408
 30
0.0
  0
SPLINE
  5
13e
100
AcDbEntity
  8
0
 62
7
100
AcDbSpline
 70
8
 71
3
 72
8
 73
4
 74
0
 40
0
 40
0
 40
0
 40
0
 40
1
 40
1
 40
1
 40
1
 10
46.646822
 20
91.921408
 30
0.0
 10
44.757208
 20
91.555002
 30
0.0
 10
43.058699
 20
91.169894
 30
0.0
 10
42.872361
 20
91.065614
 30
0.0
  0
SPLINE
  5
13f
100
AcDbEntity
  8
0
 62
7
100
AcDbSpline
 70
8
 71
3
 72
8
 73
4
 74
0
 40
0
 40
0
 40
0
 40
0
 40
1
 40
1
 40
1
 40
1
 10
42.872361
 20
91.065614
 30
0.0
 10
42.641943
 20
90.936665
 30
0.0
 10
43.088375
 20
90.414603
 30
0.0
 10
44.267908
 20
89.433644
 30
0.0
  0
SPLINE
  5
140
100
AcDbEntity
  8
0
 62
7
100
AcDbSpline
 70
8
 71
3
 72
8
 73
4
 74
0
 40
0
 40
0
 40
0
 40
0
 40
1
 40
1
 40
1
 40
1
 10
44.267908
 20
89.433644
 30
0.0
 10
48.887303
 20
85.591924
 30
0.0
 10
51.583561
 20
85.136353
 30
0.0
 10
53.929272
 20
87.801220
 30
0.0
  0
SPLINE
  5
141
100
AcDbEntity
  8
0
 62
7
100
AcDbSpline
 70
8
 71
3
 72
8
 73
4
 74
0
 40
0
 40
0
 40
0
 40
0
 40
1
 40
1
 40
1
 40
1
 10
53.929272
 20
87.801220
 30
0.0
 10
54.505675
 20
88.456050
 30
0.0
 10
54.977279
 20
89.094119
 30
0.0
 10
54.977279
 20
89.219152
 30
0.0
  0
SPLINE
  5
142
100
AcDbEntity
  8
0
 62
7
100
AcDbSpline
 70
8
 71
3
 72
8
 73
4
 74
0
 40
0
 40
0
 40
0
 40
0
 40
1
 40
1
 40
1
 40
1
 10
54.977279
 20
89.219152
 30
0.0
 10
54.977279
 20
89.344185
 30
0.0
 10
55.096341
 20
89.446484
 30
0.0
 10
55.241862
 20
89.446484
 30
0.0
  0
SPLINE
  5
143
100
AcDbEntity
  8
0
 62
7
100
AcDbSpline
 70
8
 71
3
 72
8
 73
4
 74
0
 40
0
 40
0
 40
0
 40
0
 40
1
 40
1
 40
1
 40
1
 10
55.241862
 20
89.446484
 30
0.0
 10
55.391973
 20
89.446484
 30
0.0
 10
55.507083
 20
88.673799
 30
0.0
 10
55.507922
 20
87.660547
 30
0.0
  0
SPLINE
  5
144
100
AcDbEntity
  8
0
 62
7
100
AcDbSpline
 70
8
 71
3
 72
8
 73
4
 74
0
 40
0
 40
0
 40
0
 40
0
 40
1
 40
1
 40
1
 40
1
 10
55.507922
 20
87.660547
 30
0.0
 10
55.510726
 20
84.267177
 30
0.0
 10
56.397448
 20
82.678549
 30
0.0
 10
58.508895
 20
82.284088
 30
0.0
  0
SPLINE
  5
145
100
AcDbEntity
  8
0
 62
7
100
AcDbSpline
 70
8
 71
3
 72
8
 73
4
 74
0
 40
0
 40
0
 40
0
 40
0
 40
1
 40
1
 40
1
 40
1
 10
58.508895
 20
82.284088
 30
0.0
 10
59.554496
 20
82.088748
 30
0.0
 10
59.952120
 20
82.135725
 30
0.0
 10
60.765534
 20
82.550697
 30
0.0
  0
SPLINE
  5
146
100
AcDbEntity
  8
0
 62
7
100
AcDbSpline
 70
8
 71
3
 72
8
 73
4
 74
0
 40
0
 40
0
 40
0
 40
0
 40
1
 40
1
 40
1
 40
1
 10
60.765534
 20
82.550697
 30
0.0
 10
62.093525
 20
83.228188
 30
0.0
 10
64.882919
 20
83.708008
 30
0.0
 10
66.277606
 20
83.498861
 30
0.0
  0
SPLINE
  5
147
100
AcDbEntity
  8
0
 62
7
100
AcDbSpline
 70
8
 71
3
 72
8
 73
4
 74
0
 40
0
 40
0
 40
0
 40
0
 40
1
 40
1
 40
1
 40
1
 10
66.277606
 20
83.498861
 30
0.0
 10
66.901907
 20
83.405242
 30
0.0
 10
67.412695
 20
83.250623
 30
0.0
 10
67.412695
 20
83.155264
 30
0.0
  0
SPLINE
  5
148
100
AcDbEntity
  8
0
 62
7
100
AcDbSpline
 70
8
 71
3
 72
8
 73
4
 74
0
 40
0
 40
0
 40
0
 40
0
 40
1
 40
1
 40
1
 40
1
 10
67.412695
 20
83.155264
 30
0.0
 10
67.412695
 20
83.059905
 30
0.0
 10
67.216912
 20
82.469234
 30
0.0
 10
66.977622
 20
81.842661
 30
0.0
  0
SPLINE
  5
149
100
AcDbEntity
  8
0
 62
7
100
AcDbSpline
 70
8
 71
3
 72
8
 73
4
 74
0
 40
0
 40
0
 40
0
 40
0
 40
1
 40
1
 40
1
 40
1
 10
66.977622
 20
81.842661
 30
0.0
 10
66.738331
 20
81.216088
 30
0.0
 10
66.589503
 20
80.669206
 30
0.0
 10
66.646893
 20
80.627367
 30
0.0
  0
SPLINE
  5
14a
100
AcDbEntity
  8
0
 62
7
100
AcDbSpline
 70
8
 71
3
 72
8
 73
4
 74
0
 40
0
 40
0
 40
0
 40
0
 40
1
 40
1
 40
1
 40
1
 10
66.646893
 20
80.627367
 30
0.0
 10
66.704281
 20
80.585529
 30
0.0
 10
67.644206
 20
80.037428
 30
0.0
 10
68.735612
 20
79.409366
 30
0.0
  0
SPLINE
  5
14b
100
AcDbEntity
  8
0
 62
7
100
AcDbSpline
 70
8
 71
3
 72
8
 73
4
 74
0
 40
0
 40
0
 40
0
 40
0
 40
1
 40
1
 40
1
 40
1
 10
68.735612
 20
79.409366
 30
0.0
 10
70.987849
 20
78.113291
 30
0.0
 10
75.614779
 20
74.704314
 30
0.0
 10
75.614779
 20
74.341013
 30
0.0
  0
SPLINE
  5
14c
100
AcDbEntity
  8
0
 62
7
100
AcDbSpline
 70
8
 71
3
 72
8
 73
4
 74
0
 40
0
 40
0
 40
0
 40
0
 40
1
 40
1
 40
1
 40
1
 10
75.614779
 20
74.341013
 30
0.0
 10
75.614779
 20
74.208814
 30
0.0
 10
76.162331
 20
74.100651
 30
0.0
 10
76.831563
 20
74.100651
 30
0.0
  0
SPLINE
  5
14d
100
AcDbEntity
  8
0
 62
7
100
AcDbSpline
 70
8
 71
3
 72
8
 73
4
 74
0
 40
0
 40
0
 40
0
 40
0
 40
1
 40
1
 40
1
 40
1
 10
76.831563
 20
74.100651
 30
0.0
 10
77.500795
 20
74.100651
 30
0.0
 10
78.459235
 20
73.905673
 30
0.0
 10
78.961427
 20
73.667367
 30
0.0
  0
SPLINE
  5
14e
100
AcDbEntity
  8
0
 62
7
100
AcDbSpline
 70
8
 71
3
 72
8
 73
4
 74
0
 40
0
 40
0
 40
0
 40
0
 40
1
 40
1
 40
1
 40
1
 10
78.961427
 20
73.667367
 30
0.0
 10
79.959181
 20
73.193901
 30
0.0
 10
80.906445
 20
71.663108
 30
0.0
 10
80.906445
 20
70.524188
 30
0.0
  0
SPLINE
  5
14f
100
AcDbEntity
  8
0
 62
7
100
AcDbSpline
 70
8
 71
3
 72
8
 73
4
 74
0
 40
0
 40
0
 40
0
 40
0
 40
1
 40
1
 40
1
 40
1
 10
80.906445
 20
70.524188
 30
0.0
 10
80.906445
 20
67.851427
 30
0.0
 10
78.748750
 20
63.440149
 30
0.0
 10
73.940757
 20
56.283251
 30
0.0
  0
SPLINE
  5
150
100
AcDbEntity
  8
0
 62
7
100
AcDbSpline
 70
8
 71
3
 72
8
 73
4
 74
0
 40
0
 40
0
 40
0
 40
0
 40
1
 40
1
 40
1
 40
1
 10
73.940757
 20
56.283251
 30
0.0
 10
71.805533
 20
53.104878
 30
0.0
 10
70.058529
 20
50.431917
 30
0.0
 10
70.058529
 20
50.343340
 30
0.0
  0
SPLINE
  5
151
100
AcDbEntity
  8
0
 62
7
100
AcDbSpline
 70
8
 71
3
 72
8
 73
4
 74
0
 40
0
 40
0
 40
0
 40
0
 40
1
 40
1
 40
1
 40
1
 10
70.058529
 20
50.343340
 30
0.0
 10
70.058529
 20
50.254763
 30
0.0
 10
71.594684
 20
48.688061
 30
0.0
 10
73.472209
 20
46.861786
 30
0.0
  0
SPLINE
  5
152
100
AcDbEntity
  8
0
 62
7
100
AcDbSpline
 70
8
 71
3
 72
8
 73
4
 74
0
 40
0
 40
0
 40
0
 40
0
 40
1
 40
1
 40
1
 40
1
 10
73.472209
 20
46.861786
 30
0.0
 10
76.454378
 20
43.961010
 30
0.0
 10
76.956055
 20
43.347714
 30
0.0
 10
77.440959
 20
42.009999
 30
0.0
  0
SPLINE
  5
153
100
AcDbEntity
  8
0
 62
7
100
AcDbSpline
 70
8
 71
3
 72
8
 73
4
 74
0
 40
0
 40
0
 40
0
 40
0
 40
1
 40
1
 40
1
 40
1
 10
77.440959
 20
42.009999
 30
0.0
 10
78.460531
 20
39.197285
 30
0.0
 10
78.090337
 20
37.406154
 30
0.0
 10
76.290244
 20
36.442452
 30
0.0
  0
SPLINE
  5
154
100
AcDbEntity
  8
0
 62
7
100
AcDbSpline
 70
8
 71
3
 72
8
 73
4
 74
0
 40
0
 40
0
 40
0
 40
0
 40
1
 40
1
 40
1
 40
1
 10
76.290244
 20
36.442452
 30
0.0
 10
75.286383
 20
35.905022
 30
0.0
 10
74.907177
 20
35.872513
 30
0.0
 10
70.352203
 20
35.933385
 30
0.0
  0
SPLINE
  5
155
100
AcDbEntity
  8
0
 62
7
100
AcDbSpline
 70
8
 71
3
 72
8
 73
4
 74
0
 40
0
 40
0
 40
0
 40
0
 40
1
 40
1
 40
1
 40
1
 10
70.352203
 20
35.933385
 30
0.0
 10
64.942051
 20
36.005688
 30
0.0
 10
62.723842
 20
36.386728
 30
0.0
 10
59.210612
 20
37.847270
 30
0.0
  0
SPLINE
  5
156
100
AcDbEntity
  8
0
 62
7
100
AcDbSpline
 70
8
 71
3
 72
8
 73
4
 74
0
 40
0
 40
0
 40
0
 40
0
 40
1
 40
1
 40
1
 40
1
 10
59.210612
 20
37.847270
 30
0.0
 10
58.119206
 20
38.300996
 30
0.0
 10
56.119276
 20
38.887736
 30
0.0
 10
54.766324
 20
39.151139
 30
0.0
  0
SPLINE
  5
157
100
AcDbEntity
  8
0
 62
7
100
AcDbSpline
 70
8
 71
3
 72
8
 73
4
 74
0
 40
0
 40
0
 40
0
 40
0
 40
1
 40
1
 40
1
 40
1
 10
50.586505
 20
39.005761
 30
0.0
 10
49.640556
 20
38.662401
 30
0.0
 10
48.123597
 20
38.194835
 30
0.0
 10
47.215486
 20
37.966724
 30
0.0
  0
SPLINE
  5
158
100
AcDbEntity
  8
0
 62
7
100
AcDbSpline
 70
8
 71
3
 72
8
 73
4
 74
0
 40
0
 40
0
 40
0
 40
0
 40
1
 40
1
 40
1
 40
1
 10
47.215486
 20
37.966724
 30
0.0
 10
45.749692
 20
37.598527
 30
0.0
 10
45.485325
 20
37.427802
 30
0.0
 10
44.860019
 20
36.445587
 30
0.0
  0
SPLINE
  5
159
100
AcDbEntity
  8
0
 62
7
100
AcDbSpline
 70
8
 71
3
 72
8
 73
4
 74
0
 40
0
 40
0
 40
0
 40
0
 40
1
 40
1
 40
1
 40
1
 10
44.860019
 20
36.445587
 30
0.0
 10
44.472625
 20
35.837072
 30
0.0
 10
43.677411
 20
34.862945
 30
0.0
 10
43.092883
 20
34.280861
 30
0.0
  0
SPLINE
  5
15a
100
AcDbEntity
  8
0
 62
7
100
AcDbSpline
 70
8
 71
3
 72
8
 73
4
 74
0
 40
0
 40
0
 40
0
 40
0
 40
1
 40
1
 40
1
 40
1
 10
43.092883
 20
34.280861
 30
0.0
 10
42.508353
 20
33.698778
 30
0.0
 10
42.026186
 20
33.071041
 30
0.0
 10
42.021398
 20
32.885888
 30
0.0
  0
SPLINE
  5
15b
100
AcDbEntity
  8
0
 62
7
100
AcDbSpline
 70
8
 71
3
 72
8
 73
4
 74
0
 40
0
 40
0
 40
0
 40
0
 40
1
 40
1
 40
1
 40
1
 10
42.021398
 20
32.885888
 30
0.0
 10
42.004808
 20
32.244099
 30
0.0
 10
44.167317
 20
30.209090
 30
0.0
 10
45.343067
 20
29.760066
 30
0.0
  0
SPLINE
  5
15c
100
AcDbEntity
  8
0
 62
7
100
AcDbSpline
 70
8
 71
3
 72
8
 73
4
 74
0
 40
0
 40
0
 40
0
 40
0
 40
1
 40
1
 40
1
 40
1
 10
45.343067
 20
29.760066
 30
0.0
 10
47.208943
 20
29.047482
 30
0.0
 10
48.776170
 20
29.359402
 30
0.0
 10
52.596029
 20
31.203596
 30
0.0
  0
SPLINE
  5
15d
100
AcDbEntity
  8
0
 62
7
100
AcDbSpline
 70
8
 71
3
 72
8
 73
4
 74
0
 40
0
 40
0
 40
0
 40
0
 40
1
 40
1
 40
1
 40
1
 10
52.596029
 20
31.203596
 30
0.0
 10
56.520509
 20
33.098298
 30
0.0
 10
59.184405
 20
33.999723
 30
0.0
 10
62.133469
 20
34.430933
 30
0.0
  0
SPLINE
  5
15e
100
AcDbEntity
  8
0
 62
7
100
AcDbSpline
 70
8
 71
3
 72
8
 73
4
 74
0
 40
0
 40
0
 40
0
 40
0
 40
1
 40
1
 40
1
 40
1
 10
62.133469
 20
34.430933
 30
0.0
 10
64.330408
 20
34.752169
 30
0.0
 10
67.215356
 20
34.628611
 30
0.0
 10
69.051120
 20
34.134660
 30
0.0
  0
LWPOLYLINE
  5
15f
100
AcDbEntity
  8
0
 62
7
100
AcDbPolyline
 90
3
 70
0
 10
54.766324
 20
39.151139
 30
0.0
 10
52.306410
 20
39.630056
 30
0.0
 10
50.586505
 20
39.005761
 30
0.0
  0
SPLINE
  5
160
100
AcDbEntity
  8
0
 62
7
100
AcDbSpline
 70
8
 71
3
 72
8
 73
4
 74
0
 40
0
 40
0
 40
0
 40
0
 40
1
 40
1
 40
1
 40
1
 10
68.786137
 20
32.224242
 30
0.0
 10
66.704464
 20
29.462735
 30
0.0
 10
65.810657
 20
27.143263
 30
0.0
 10
64.881196
 20
22.090745
 30
0.0
  0
SPLINE
  5
161
100
AcDbEntity
  8
0
 62
7
100
AcDbSpline
 70
8
 71
3
 72
8
 73
4
 74
0
 40
0
 40
0
 40
0
 40
0
 40
1
 40
1
 40
1
 40
1
 10
64.881196
 20
22.090745
 30
0.0
 10
64.825705
 20
21.789099
 30
0.0
 10
64.077892
 20
20.746617
 30
0.0
 10
63.219388
 20
19.774120
 30
0.0
  0
LWPOLYLINE
  5
162
100
AcDbEntity
  8
0
 62
7
100
AcDbPolyline
 90
3
 70
0
 10
69.051120
 20
34.134660
 30
0.0
 10
70.028086
 20
33.871789
 30
0.0
 10
68.786137
 20
32.224242
 30
0.0
  0
SPLINE
  5
163
100
AcDbEntity
  8
0
 62
7
100
AcDbSpline
 70
8
 71
3
 72
8
 73
4
 74
0
 40
0
 40
0
 40
0
 40
0
 40
1
 40
1
 40
1
 40
1
 10
61.784627
 20
15.692358
 30
0.0
 10
61.941310
 20
12.818906
 30
0.0
 10
61.494106
 20
10.783237
 30
0.0
 10
59.871875
 20
6.985545
 30
0.0
  0
SPLINE
  5
164
100
AcDbEntity
  8
0
 62
7
100
AcDbSpline
 70
8
 71
3
 72
8
 73
4
 74
0
 40
0
 40
0
 40
0
 40
0
 40
1
 40
1
 40
1
 40
1
 10
59.871875
 20
6.985545
 30
0.0
 10
59.217139
 20
5.452790
 30
0.0
 10
58.681445
 20
4.154882
 30
0.0
 10
58.681445
 20
4.101306
 30
0.0
  0
SPLINE
  5
165
100
AcDbEntity
  8
0
 62
7
100
AcDbSpline
 70
8
 71
3
 72
8
 73
4
 74
0
 40
0
 40
0
 40
0
 40
0
 40
1
 40
1
 40
1
 40
1
 10
58.681445
 20
4.101306
 30
0.0
 10
58.681445
 20
4.047731
 30
0.0
 10
59.901836
 20
4.427633
 30
0.0
 10
61.393425
 20
4.945533
 30
0.0
  0
SPLINE
  5
166
100
AcDbEntity
  8
0
 62
7
100
AcDbSpline
 70
8
 71
3
 72
8
 73
4
 74
0
 40
0
 40
0
 40
0
 40
0
 40
1
 40
1
 40
1
 40
1
 10
61.393425
 20
4.945533
 30
0.0
 10
66.666105
 20
6.776286
 30
0.0
 10
72.143609
 20
9.710436
 30
0.0
 10
76.995996
 20
13.303411
 30
0.0
  0
SPLINE
  5
167
100
AcDbEntity
  8
0
 62
7
100
AcDbSpline
 70
8
 71
3
 72
8
 73
4
 74
0
 40
0
 40
0
 40
0
 40
0
 40
1
 40
1
 40
1
 40
1
 10
76.995996
 20
13.303411
 30
0.0
 10
79.636329
 20
15.258457
 30
0.0
 10
84.854783
 20
20.302950
 30
0.0
 10
87.064292
 20
23.036070
 30
0.0
  0
SPLINE
  5
168
100
AcDbEntity
  8
0
 62
7
100
AcDbSpline
 70
8
 71
3
 72
8
 73
4
 74
0
 40
0
 40
0
 40
0
 40
0
 40
1
 40
1
 40
1
 40
1
 10
87.064292
 20
23.036070
 30
0.0
 10
92.569342
 20
29.845706
 30
0.0
 10
97.127748
 20
39.283172
 30
0.0
 10
98.949399
 20
47.642320
 30
0.0
  0
SPLINE
  5
169
100
AcDbEntity
  8
0
 62
7
100
AcDbSpline
 70
8
 71
3
 72
8
 73
4
 74
0
 40
0
 40
0
 40
0
 40
0
 40
1
 40
1
 40
1
 40
1
 10
98.949399
 20
47.642320
 30
0.0
 10
99.497568
 20
50.157748
 30
0.0
 10
99.555041
 20
51.106853
 30
0.0
 10
99.557192
 20
57.679479
 30
0.0
  0
SPLINE
  5
16a
100
AcDbEntity
  8
0
 62
7
100
AcDbSpline
 70
8
 71
3
 72
8
 73
4
 74
0
 40
0
 40
0
 40
0
 40
0
 40
1
 40
1
 40
1
 40
1
 10
99.557192
 20
57.679479
 30
0.0
 10
99.559308
 20
64.180440
 30
0.0
 10
99.593167
 20
64.752971
 30
0.0
 10
99.881288
 20
63.161820
 30
0.0
  0
SPLINE
  5
16b
100
AcDbEntity
  8
0
 62
7
100
AcDbSpline
 70
8
 71
3
 72
8
 73
4
 74
0
 40
0
 40
0
 40
0
 40
0
 40
1
 40
1
 40
1
 40
1
 10
99.881288
 20
63.161820
 30
0.0
 10
101.523091
 20
54.094952
 30
0.0
 10
100.919793
 20
47.221717
 30
0.0
 10
97.752683
 20
38.911070
 30
0.0
  0
SPLINE
  5
16c
100
AcDbEntity
  8
0
 62
7
100
AcDbSpline
 70
8
 71
3
 72
8
 73
4
 74
0
 40
0
 40
0
 40
0
 40
0
 40
1
 40
1
 40
1
 40
1
 10
97.752683
 20
38.911070
 30
0.0
 10
91.371513
 20
22.166583
 30
0.0
 10
78.013536
 20
9.117830
 30
0.0
 10
61.460428
 20
3.458948
 30
0.0
  0
SPLINE
  5
16d
100
AcDbEntity
  8
0
 62
7
100
AcDbSpline
 70
8
 71
3
 72
8
 73
4
 74
0
 40
0
 40
0
 40
0
 40
0
 40
1
 40
1
 40
1
 40
1
 10
61.460428
 20
3.458948
 30
0.0
 10
59.714651
 20
2.862130
 30
0.0
 10
58.191429
 20
2.278970
 30
0.0
 10
58.075491
 20
2.163032
 30
0.0
  0
SPLINE
  5
16e
100
AcDbEntity
  8
0
 62
7
100
AcDbSpline
 70
8
 71
3
 72
8
 73
4
 74
0
 40
0
 40
0
 40
0
 40
0
 40
1
 40
1
 40
1
 40
1
 10
58.075491
 20
2.163032
 30
0.0
 10
57.959554
 20
2.047094
 30
0.0
 10
57.780574
 20
1.221261
 30
0.0
 10
57.677756
 20
0.327848
 30
0.0
  0
LWPOLYLINE
  5
16f
100
AcDbEntity
  8
0
 62
7
100
AcDbPolyline
 90
3
 70
0
 10
63.219388
 20
19.774120
 30
0.0
 10
61.658471
 20
18.005941
 30
0.0
 10
61.784627
 20
15.692358
 30
0.0
  0
SPLINE
  5
170
100
AcDbEntity
  8
0
 62
7
100
AcDbSpline
 70
8
 71
3
 72
8
 73
4
 74
0
 40
0
 40
0
 40
0
 40
0
 40
1
 40
1
 40
1
 40
1
 10
53.950230
 20
2.805459
 30
0.0
 10
52.623336
 20
4.193413
 30
0.0
 10
51.537695
 20
5.452774
 30
0.0
 10
51.537695
 20
5.604039
 30
0.0
  0
SPLINE
  5
171
100
AcDbEntity
  8
0
 62
7
100
AcDbSpline
 70
8
 71
3
 72
8
 73
4
 74
0
 40
0
 40
0
 40
0
 40
0
 40
1
 40
1
 40
1
 40
1
 10
51.537695
 20
5.604039
 30
0.0
 10
51.537695
 20
5.755304
 30
0.0
 10
52.281836
 20
5.359199
 30
0.0
 10
53.191341
 20
4.723807
 30
0.0
  0
SPLINE
  5
172
100
AcDbEntity
  8
0
 62
7
100
AcDbSpline
 70
8
 71
3
 72
8
 73
4
 74
0
 40
0
 40
0
 40
0
 40
0
 40
1
 40
1
 40
1
 40
1
 10
53.191341
 20
4.723807
 30
0.0
 10
54.100846
 20
4.088416
 30
0.0
 10
55.023581
 20
3.459636
 30
0.0
 10
55.241862
 20
3.326516
 30
0.0
  0
SPLINE
  5
173
100
AcDbEntity
  8
0
 62
7
100
AcDbSpline
 70
8
 71
3
 72
8
 73
4
 74
0
 40
0
 40
0
 40
0
 40
0
 40
1
 40
1
 40
1
 40
1
 10
55.241862
 20
3.326516
 30
0.0
 10
55.460143
 20
3.193396
 30
0.0
 10
54.546325
 20
4.269605
 30
0.0
 10
53.211153
 20
5.718088
 30
0.0
  0
SPLINE
  5
174
100
AcDbEntity
  8
0
 62
7
100
AcDbSpline
 70
8
 71
3
 72
8
 73
4
 74
0
 40
0
 40
0
 40
0
 40
0
 40
1
 40
1
 40
1
 40
1
 10
53.211153
 20
5.718088
 30
0.0
 10
51.875984
 20
7.166573
 30
0.0
 10
50.506765
 20
8.705996
 30
0.0
 10
50.168445
 20
9.139034
 30
0.0
  0
LWPOLYLINE
  5
175
100
AcDbEntity
  8
0
 62
7
100
AcDbPolyline
 90
3
 70
0
 10
57.677756
 20
0.327848
 30
0.0
 10
57.490820
 20
-1.296538
 30
0.0
 10
56.167904
 20
-0.668367
 30
0.0
  0
SPLINE
  5
176
100
AcDbEntity
  8
0
 62
7
100
AcDbSpline
 70
8
 71
3
 72
8
 73
4
 74
0
 40
0
 40
0
 40
0
 40
0
 40
1
 40
1
 40
1
 40
1
 10
51.339258
 20
8.927648
 30
0.0
 10
52.321524
 20
8.378349
 30
0.0
 10
53.125195
 20
8.005747
 30
0.0
 10
53.125195
 20
8.099647
 30
0.0
  0
SPLINE
  5
177
100
AcDbEntity
  8
0
 62
7
100
AcDbSpline
 70
8
 71
3
 72
8
 73
4
 74
0
 40
0
 40
0
 40
0
 40
0
 40
1
 40
1
 40
1
 40
1
 10
53.125195
 20
8.099647
 30
0.0
 10
53.125195
 20
8.193545
 30
0.0
 10
52.491013
 20
9.003043
 30
0.0
 10
51.715903
 20
9.898533
 30
0.0
  0
SPLINE
  5
178
100
AcDbEntity
  8
0
 62
7
100
AcDbSpline
 70
8
 71
3
 72
8
 73
4
 74
0
 40
0
 40
0
 40
0
 40
0
 40
1
 40
1
 40
1
 40
1
 10
51.715903
 20
9.898533
 30
0.0
 10
50.940790
 20
10.794021
 30
0.0
 10
49.958524
 20
11.994518
 30
0.0
 10
49.533090
 20
12.566303
 30
0.0
  0
SPLINE
  5
179
100
AcDbEntity
  8
0
 62
7
100
AcDbSpline
 70
8
 71
3
 72
8
 73
4
 74
0
 40
0
 40
0
 40
0
 40
0
 40
1
 40
1
 40
1
 40
1
 10
49.533090
 20
12.566303
 30
0.0
 10
48.682997
 20
13.708827
 30
0.0
 10
48.668715
 20
13.705377
 30
0.0
 10
50.876237
 20
12.890685
 30
0.0
  0
SPLINE
  5
17a
100
AcDbEntity
  8
0
 62
7
100
AcDbSpline
 70
8
 71
3
 72
8
 73
4
 74
0
 40
0
 40
0
 40
0
 40
0
 40
1
 40
1
 40
1
 40
1
 10
50.876237
 20
12.890685
 30
0.0
 10
51.458320
 20
12.675867
 30
0.0
 10
51.974927
 20
12.539726
 30
0.0
 10
52.024251
 20
12.588150
 30
0.0
  0
SPLINE
  5
17b
100
AcDbEntity
  8
0
 62
7
100
AcDbSpline
 70
8
 71
3
 72
8
 73
4
 74
0
 40
0
 40
0
 40
0
 40
0
 40
1
 40
1
 40
1
 40
1
 10
52.024251
 20
12.588150
 30
0.0
 10
52.073577
 20
12.636577
 30
0.0
 10
51.628498
 20
13.333307
 30
0.0
 10
51.035188
 20
14.136441
 30
0.0
  0
SPLINE
  5
17c
100
AcDbEntity
  8
0
 62
7
100
AcDbSpline
 70
8
 71
3
 72
8
 73
4
 74
0
 40
0
 40
0
 40
0
 40
0
 40
1
 40
1
 40
1
 40
1
 10
51.035188
 20
14.136441
 30
0.0
 10
50.441876
 20
14.939576
 30
0.0
 10
49.753819
 20
16.021590
 30
0.0
 10
49.506169
 20
16.540914
 30
0.0
  0
LWPOLYLINE
  5
17d
100
AcDbEntity
  8
0
 62
7
100
AcDbPolyline
 90
3
 70
0
 10
50.168445
 20
9.139034
 30
0.0
 10
49.553320
 20
9.926370
 30
0.0
 10
51.339258
 20
8.927648
 30
0.0
  0
SPLINE
  5
17e
100
AcDbEntity
  8
0
 62
7
100
AcDbSpline
 70
8
 71
3
 72
8
 73
4
 74
0
 40
0
 40
0
 40
0
 40
0
 40
1
 40
1
 40
1
 40
1
 10
48.290297
 20
16.159070
 30
0.0
 10
47.869218
 20
15.429730
 30
0.0
 10
47.282240
 20
14.663177
 30
0.0
 10
46.985907
 20
14.455616
 30
0.0
  0
SPLINE
  5
17f
100
AcDbEntity
  8
0
 62
7
100
AcDbSpline
 70
8
 71
3
 72
8
 73
4
 74
0
 40
0
 40
0
 40
0
 40
0
 40
1
 40
1
 40
1
 40
1
 10
46.985907
 20
14.455616
 30
0.0
 10
46.455396
 20
14.084033
 30
0.0
 10
46.465979
 20
14.042774
 30
0.0
 10
47.674429
 20
11.771119
 30
0.0
  0
SPLINE
  5
180
100
AcDbEntity
  8
0
 62
7
100
AcDbSpline
 70
8
 71
3
 72
8
 73
4
 74
0
 40
0
 40
0
 40
0
 40
0
 40
1
 40
1
 40
1
 40
1
 10
47.674429
 20
11.771119
 30
0.0
 10
48.349453
 20
10.502207
 30
0.0
 10
48.850725
 20
9.412986
 30
0.0
 10
48.788365
 20
9.350629
 30
0.0
  0
SPLINE
  5
181
100
AcDbEntity
  8
0
 62
7
100
AcDbSpline
 70
8
 71
3
 72
8
 73
4
 74
0
 40
0
 40
0
 40
0
 40
0
 40
1
 40
1
 40
1
 40
1
 10
48.788365
 20
9.350629
 30
0.0
 10
48.638680
 20
9.200941
 30
0.0
 10
46.691222
 20
11.820295
 30
0.0
 10
46.137737
 20
12.915757
 30
0.0
  0
SPLINE
  5
182
100
AcDbEntity
  8
0
 62
7
100
AcDbSpline
 70
8
 71
3
 72
8
 73
4
 74
0
 40
0
 40
0
 40
0
 40
0
 40
1
 40
1
 40
1
 40
1
 10
46.137737
 20
12.915757
 30
0.0
 10
45.868400
 20
13.448832
 30
0.0
 10
45.504735
 20
13.775653
 30
0.0
 10
45.180901
 20
13.775653
 30
0.0
  0
SPLINE
  5
183
100
AcDbEntity
  8
0
 62
7
100
AcDbSpline
 70
8
 71
3
 72
8
 73
4
 74
0
 40
0
 40
0
 40
0
 40
0
 40
1
 40
1
 40
1
 40
1
 10
45.180901
 20
13.775653
 30
0.0
 10
44.504838
 20
13.775653
 30
0.0
 10
44.510979
 20
13.735502
 30
0.0
 10
45.479316
 20
11.824007
 30
0.0
  0
SPLINE
  5
184
100
AcDbEntity
  8
0
 62
7
100
AcDbSpline
 70
8
 71
3
 72
8
 73
4
 74
0
 40
0
 40
0
 40
0
 40
0
 40
1
 40
1
 40
1
 40
1
 10
45.479316
 20
11.824007
 30
0.0
 10
46.705054
 20
9.404414
 30
0.0
 10
48.488605
 20
7.002066
 30
0.0
 10
50.726975
 20
4.755695
 30
0.0
  0
SPLINE
  5
185
100
AcDbEntity
  8
0
 62
7
100
AcDbSpline
 70
8
 71
3
 72
8
 73
4
 74
0
 40
0
 40
0
 40
0
 40
0
 40
1
 40
1
 40
1
 40
1
 10
50.726975
 20
4.755695
 30
0.0
 10
52.456614
 20
3.019869
 30
0.0
 10
55.823432
 20
0.281903
 30
0.0
 10
56.228295
 20
0.281903
 30
0.0
  0
SPLINE
  5
186
100
AcDbEntity
  8
0
 62
7
100
AcDbSpline
 70
8
 71
3
 72
8
 73
4
 74
0
 40
0
 40
0
 40
0
 40
0
 40
1
 40
1
 40
1
 40
1
 10
56.228295
 20
0.281903
 30
0.0
 10
56.302254
 20
0.281903
 30
0.0
 10
55.277123
 20
1.417503
 30
0.0
 10
53.950230
 20
2.805459
 30
0.0
  0
LWPOLYLINE
  5
187
100
AcDbEntity
  8
0
 62
7
100
AcDbPolyline
 90
3
 70
0
 10
49.506169
 20
16.540914
 30
0.0
 10
49.055901
 20
17.485140
 30
0.0
 10
48.290297
 20
16.159070
 30
0.0
  0
SPLINE
  5
188
100
AcDbEntity
  8
0
 62
7
100
AcDbSpline
 70
8
 71
3
 72
8
 73
4
 74
0
 40
0
 40
0
 40
0
 40
0
 40
1
 40
1
 40
1
 40
1
 10
44.336668
 20
1.005186
 30
0.0
 10
43.650323
 20
1.059492
 30
0.0
 10
42.459698
 20
1.060056
 30
0.0
 10
41.690835
 20
1.006509
 30
0.0
  0
SPLINE
  5
189
100
AcDbEntity
  8
0
 62
7
100
AcDbSpline
 70
8
 71
3
 72
8
 73
4
 74
0
 40
0
 40
0
 40
0
 40
0
 40
1
 40
1
 40
1
 40
1
 10
41.690835
 20
1.006509
 30
0.0
 10
40.921972
 20
0.952894
 30
0.0
 10
41.483529
 20
0.908463
 30
0.0
 10
42.938737
 20
0.907775
 30
0.0
  0
SPLINE
  5
18a
100
AcDbEntity
  8
0
 62
7
100
AcDbSpline
 70
8
 71
3
 72
8
 73
4
 74
0
 40
0
 40
0
 40
0
 40
0
 40
1
 40
1
 40
1
 40
1
 10
42.938737
 20
0.907775
 30
0.0
 10
44.393945
 20
0.906981
 30
0.0
 10
45.023013
 20
0.950952
 30
0.0
 10
44.336668
 20
1.005258
 30
0.0
  0
LWPOLYLINE
  5
18b
100
AcDbEntity
  8
0
 62
7
100
AcDbPolyline
 90
1
 70
1
 10
53.950230
 20
2.805459
 30
0.0
  0
SPLINE
  5
18c
100
AcDbEntity
  8
0
 62
7
100
AcDbSpline
 70
8
 71
3
 72
8
 73
4
 74
0
 40
0
 40
0
 40
0
 40
0
 40
1
 40
1
 40
1
 40
1
 10
39.036133
 20
1.265161
 30
0.0
 10
38.635951
 20
1.325785
 30
0.0
 10
37.981107
 20
1.325785
 30
0.0
 10
37.580925
 20
1.265161
 30
0.0
  0
SPLINE
  5
18d
100
AcDbEntity
  8
0
 62
7
100
AcDbSpline
 70
8
 71
3
 72
8
 73
4
 74
0
 40
0
 40
0
 40
0
 40
0
 40
1
 40
1
 40
1
 40
1
 10
37.580925
 20
1.265161
 30
0.0
 10
37.180742
 20
1.204539
 30
0.0
 10
37.508164
 20
1.154938
 30
0.0
 10
38.308529
 20
1.154938
 30
0.0
  0
SPLINE
  5
18e
100
AcDbEntity
  8
0
 62
7
100
AcDbSpline
 70
8
 71
3
 72
8
 73
4
 74
0
 40
0
 40
0
 40
0
 40
0
 40
1
 40
1
 40
1
 40
1
 10
38.308529
 20
1.154938
 30
0.0
 10
39.108893
 20
1.154938
 30
0.0
 10
39.436315
 20
1.204539
 30
0.0
 10
39.036133
 20
1.265161
 30
0.0
  0
LWPOLYLINE
  5
18f
100
AcDbEntity
  8
0
 62
7
100
AcDbPolyline
 90
1
 70
1
 10
44.336668
 20
1.005258
 30
0.0
  0
SPLINE
  5
190
100
AcDbEntity
  8
0
 62
7
100
AcDbSpline
 70
8
 71
3
 72
8
 73
4
 74
0
 40
0
 40
0
 40
0
 40
0
 40
1
 40
1
 40
1
 40
1
 10
48.296550
 20
1.265161
 30
0.0
 10
47.896367
 20
1.325785
 30
0.0
 10
47.241523
 20
1.325785
 30
0.0
 10
46.841341
 20
1.265161
 30
0.0
  0
SPLINE
  5
191
100
AcDbEntity
  8
0
 62
7
100
AcDbSpline
 70
8
 71
3
 72
8
 73
4
 74
0
 40
0
 40
0
 40
0
 40
0
 40
1
 40
1
 40
1
 40
1
 10
46.841341
 20
1.265161
 30
0.0
 10
46.441159
 20
1.204539
 30
0.0
 10
46.768581
 20
1.154938
 30
0.0
 10
47.568945
 20
1.154938
 30
0.0
  0
SPLINE
  5
192
100
AcDbEntity
  8
0
 62
7
100
AcDbSpline
 70
8
 71
3
 72
8
 73
4
 74
0
 40
0
 40
0
 40
0
 40
0
 40
1
 40
1
 40
1
 40
1
 10
47.568945
 20
1.154938
 30
0.0
 10
48.369310
 20
1.154938
 30
0.0
 10
48.696732
 20
1.204539
 30
0.0
 10
48.296550
 20
1.265161
 30
0.0
  0
LWPOLYLINE
  5
193
100
AcDbEntity
  8
0
 62
7
100
AcDbPolyline
 90
1
 70
1
 10
39.036133
 20
1.265161
 30
0.0
  0
SPLINE
  5
194
100
AcDbEntity
  8
0
 62
7
100
AcDbSpline
 70
8
 71
3
 72
8
 73
4
 74
0
 40
0
 40
0
 40
0
 40
0
 40
1
 40
1
 40
1
 40
1
 10
36.390300
 20
1.522622
 30
0.0
 10
36.135638
 20
1.589170
 30
0.0
 10
35.718919
 20
1.589170
 30
0.0
 10
35.464258
 20
1.522622
 30
0.0
  0
SPLINE
  5
195
100
AcDbEntity
  8
0
 62
7
100
AcDbSpline
 70
8
 71
3
 72
8
 73
4
 74
0
 40
0
 40
0
 40
0
 40
0
 40
1
 40
1
 40
1
 40
1
 10
35.464258
 20
1.522622
 30
0.0
 10
35.209596
 20
1.456071
 30
0.0
 10
35.417956
 20
1.401620
 30
0.0
 10
35.927279
 20
1.401620
 30
0.0
  0
SPLINE
  5
196
100
AcDbEntity
  8
0
 62
7
100
AcDbSpline
 70
8
 71
3
 72
8
 73
4
 74
0
 40
0
 40
0
 40
0
 40
0
 40
1
 40
1
 40
1
 40
1
 10
35.927279
 20
1.401620
 30
0.0
 10
36.436602
 20
1.401620
 30
0.0
 10
36.644961
 20
1.456071
 30
0.0
 10
36.390300
 20
1.522622
 30
0.0
  0
LWPOLYLINE
  5
197
100
AcDbEntity
  8
0
 62
7
100
AcDbPolyline
 90
1
 70
1
 10
48.296550
 20
1.265161
 30
0.0
  0
SPLINE
  5
198
100
AcDbEntity
  8
0
 62
7
100
AcDbSpline
 70
8
 71
3
 72
8
 73
4
 74
0
 40
0
 40
0
 40
0
 40
0
 40
1
 40
1
 40
1
 40
1
 10
50.677800
 20
1.522622
 30
0.0
 10
50.423138
 20
1.589170
 30
0.0
 10
50.006419
 20
1.589170
 30
0.0
 10
49.751758
 20
1.522622
 30
0.0
  0
SPLINE
  5
199
100
AcDbEntity
  8
0
 62
7
100
AcDbSpline
 70
8
 71
3
 72
8
 73
4
 74
0
 40
0
 40
0
 40
0
 40
0
 40
1
 40
1
 40
1
 40
1
 10
49.751758
 20
1.522622
 30
0.0
 10
49.497096
 20
1.456071
 30
0.0
 10
49.705456
 20
1.401620
 30
0.0
 10
50.214779
 20
1.401620
 30
0.0
  0
SPLINE
  5
19a
100
AcDbEntity
  8
0
 62
7
100
AcDbSpline
 70
8
 71
3
 72
8
 73
4
 74
0
 40
0
 40
0
 40
0
 40
0
 40
1
 40
1
 40
1
 40
1
 10
50.214779
 20
1.401620
 30
0.0
 10
50.724102
 20
1.401620
 30
0.0
 10
50.932461
 20
1.456071
 30
0.0
 10
50.677800
 20
1.522622
 30
0.0
  0
LWPOLYLINE
  5
19b
100
AcDbEntity
  8
0
 62
7
100
AcDbPolyline
 90
1
 70
1
 10
36.390300
 20
1.522622
 30
0.0
  0
SPLINE
  5
19c
100
AcDbEntity
  8
0
 62
7
100
AcDbSpline
 70
8
 71
3
 72
8
 73
4
 74
0
 40
0
 40
0
 40
0
 40
0
 40
1
 40
1
 40
1
 40
1
 10
34.675543
 20
1.778370
 30
0.0
 10
34.496412
 20
1.850845
 30
0.0
 10
34.139225
 20
1.855256
 30
0.0
 10
33.881793
 20
1.788186
 30
0.0
  0
SPLINE
  5
19d
100
AcDbEntity
  8
0
 62
7
100
AcDbSpline
 70
8
 71
3
 72
8
 73
4
 74
0
 40
0
 40
0
 40
0
 40
0
 40
1
 40
1
 40
1
 40
1
 10
33.881793
 20
1.788186
 30
0.0
 10
33.624361
 20
1.721104
 30
0.0
 10
33.770925
 20
1.661806
 30
0.0
 10
34.207487
 20
1.656413
 30
0.0
  0
SPLINE
  5
19e
100
AcDbEntity
  8
0
 62
7
100
AcDbSpline
 70
8
 71
3
 72
8
 73
4
 74
0
 40
0
 40
0
 40
0
 40
0
 40
1
 40
1
 40
1
 40
1
 10
34.207487
 20
1.656413
 30
0.0
 10
34.644050
 20
1.651016
 30
0.0
 10
34.854674
 20
1.705906
 30
0.0
 10
34.675543
 20
1.778384
 30
0.0
  0
LWPOLYLINE
  5
19f
100
AcDbEntity
  8
0
 62
7
100
AcDbPolyline
 90
1
 70
1
 10
50.677800
 20
1.522622
 30
0.0
  0
SPLINE
  5
1a0
100
AcDbEntity
  8
0
 62
7
100
AcDbSpline
 70
8
 71
3
 72
8
 73
4
 74
0
 40
0
 40
0
 40
0
 40
0
 40
1
 40
1
 40
1
 40
1
 10
47.378877
 20
1.883754
 30
0.0
 10
51.828412
 20
2.274115
 30
0.0
 10
51.869549
 20
2.300497
 30
0.0
 10
50.210323
 20
3.699576
 30
0.0
  0
SPLINE
  5
1a1
100
AcDbEntity
  8
0
 62
7
100
AcDbSpline
 70
8
 71
3
 72
8
 73
4
 74
0
 40
0
 40
0
 40
0
 40
0
 40
1
 40
1
 40
1
 40
1
 10
50.210323
 20
3.699576
 30
0.0
 10
47.263415
 20
6.184445
 30
0.0
 10
43.923175
 20
10.758919
 30
0.0
 10
43.469608
 20
12.931018
 30
0.0
  0
SPLINE
  5
1a2
100
AcDbEntity
  8
0
 62
7
100
AcDbSpline
 70
8
 71
3
 72
8
 73
4
 74
0
 40
0
 40
0
 40
0
 40
0
 40
1
 40
1
 40
1
 40
1
 10
43.469608
 20
12.931018
 30
0.0
 10
43.336948
 20
13.566317
 30
0.0
 10
42.892321
 20
14.115838
 30
0.0
 10
41.847328
 20
14.936020
 30
0.0
  0
SPLINE
  5
1a3
100
AcDbEntity
  8
0
 62
7
100
AcDbSpline
 70
8
 71
3
 72
8
 73
4
 74
0
 40
0
 40
0
 40
0
 40
0
 40
1
 40
1
 40
1
 40
1
 10
41.847328
 20
14.936020
 30
0.0
 10
40.279312
 20
16.166700
 30
0.0
 10
35.977354
 20
18.778887
 30
0.0
 10
33.341860
 20
20.100613
 30
0.0
  0
SPLINE
  5
1a4
100
AcDbEntity
  8
0
 62
7
100
AcDbSpline
 70
8
 71
3
 72
8
 73
4
 74
0
 40
0
 40
0
 40
0
 40
0
 40
1
 40
1
 40
1
 40
1
 10
33.341860
 20
20.100613
 30
0.0
 10
31.521453
 20
21.013566
 30
0.0
 10
31.546636
 20
21.023625
 30
0.0
 10
31.180437
 20
19.237248
 30
0.0
  0
LWPOLYLINE
  5
1a5
100
AcDbEntity
  8
0
 62
7
100
AcDbPolyline
 90
1
 70
1
 10
34.675543
 20
1.778384
 30
0.0
  0
SPLINE
  5
1a6
100
AcDbEntity
  8
0
 62
7
100
AcDbSpline
 70
8
 71
3
 72
8
 73
4
 74
0
 40
0
 40
0
 40
0
 40
0
 40
1
 40
1
 40
1
 40
1
 10
29.523145
 20
19.811309
 30
0.0
 10
28.705373
 20
20.584308
 30
0.0
 10
27.710627
 20
21.860415
 30
0.0
 10
27.312599
 20
22.647108
 30
0.0
  0
SPLINE
  5
1a7
100
AcDbEntity
  8
0
 62
7
100
AcDbSpline
 70
8
 71
3
 72
8
 73
4
 74
0
 40
0
 40
0
 40
0
 40
0
 40
1
 40
1
 40
1
 40
1
 10
27.312599
 20
22.647108
 30
0.0
 10
26.914568
 20
23.433799
 30
0.0
 10
26.487385
 20
24.014710
 30
0.0
 10
26.363299
 20
23.938021
 30
0.0
  0
SPLINE
  5
1a8
100
AcDbEntity
  8
0
 62
7
100
AcDbSpline
 70
8
 71
3
 72
8
 73
4
 74
0
 40
0
 40
0
 40
0
 40
0
 40
1
 40
1
 40
1
 40
1
 10
26.363299
 20
23.938021
 30
0.0
 10
26.018362
 20
23.724838
 30
0.0
 10
26.094152
 20
22.432264
 30
0.0
 10
26.522833
 20
21.217252
 30
0.0
  0
SPLINE
  5
1a9
100
AcDbEntity
  8
0
 62
7
100
AcDbSpline
 70
8
 71
3
 72
8
 73
4
 74
0
 40
0
 40
0
 40
0
 40
0
 40
1
 40
1
 40
1
 40
1
 10
26.522833
 20
21.217252
 30
0.0
 10
26.734659
 20
20.616873
 30
0.0
 10
26.812650
 20
20.125653
 30
0.0
 10
26.696146
 20
20.125653
 30
0.0
  0
SPLINE
  5
1aa
100
AcDbEntity
  8
0
 62
7
100
AcDbSpline
 70
8
 71
3
 72
8
 73
4
 74
0
 40
0
 40
0
 40
0
 40
0
 40
1
 40
1
 40
1
 40
1
 10
26.696146
 20
20.125653
 30
0.0
 10
26.182245
 20
20.125653
 30
0.0
 10
23.252061
 20
22.258922
 30
0.0
 10
22.479494
 20
23.195513
 30
0.0
  0
SPLINE
  5
1ab
100
AcDbEntity
  8
0
 62
7
100
AcDbSpline
 70
8
 71
3
 72
8
 73
4
 74
0
 40
0
 40
0
 40
0
 40
0
 40
1
 40
1
 40
1
 40
1
 10
22.479494
 20
23.195513
 30
0.0
 10
21.508428
 20
24.372745
 30
0.0
 10
21.114207
 20
25.552043
 30
0.0
 10
21.112087
 20
27.286048
 30
0.0
  0
SPLINE
  5
1ac
100
AcDbEntity
  8
0
 62
7
100
AcDbSpline
 70
8
 71
3
 72
8
 73
4
 74
0
 40
0
 40
0
 40
0
 40
0
 40
1
 40
1
 40
1
 40
1
 10
21.112087
 20
27.286048
 30
0.0
 10
21.110764
 20
28.291832
 30
0.0
 10
20.973647
 20
28.623011
 30
0.0
 10
20.289932
 20
29.270423
 30
0.0
  0
SPLINE
  5
1ad
100
AcDbEntity
  8
0
 62
7
100
AcDbSpline
 70
8
 71
3
 72
8
 73
4
 74
0
 40
0
 40
0
 40
0
 40
0
 40
1
 40
1
 40
1
 40
1
 10
20.289932
 20
29.270423
 30
0.0
 10
19.838558
 20
29.697831
 30
0.0
 10
18.924967
 20
30.821434
 30
0.0
 10
18.259728
 20
31.767320
 30
0.0
  0
SPLINE
  5
1ae
100
AcDbEntity
  8
0
 62
7
100
AcDbSpline
 70
8
 71
3
 72
8
 73
4
 74
0
 40
0
 40
0
 40
0
 40
0
 40
1
 40
1
 40
1
 40
1
 10
18.259728
 20
31.767320
 30
0.0
 10
17.594492
 20
32.713205
 30
0.0
 10
16.955110
 20
33.596876
 30
0.0
 10
16.838879
 20
33.731036
 30
0.0
  0
SPLINE
  5
1af
100
AcDbEntity
  8
0
 62
7
100
AcDbSpline
 70
8
 71
3
 72
8
 73
4
 74
0
 40
0
 40
0
 40
0
 40
0
 40
1
 40
1
 40
1
 40
1
 10
16.838879
 20
33.731036
 30
0.0
 10
16.575650
 20
34.034870
 30
0.0
 10
15.568072
 20
31.869526
 30
0.0
 10
15.560171
 20
30.983018
 30
0.0
  0
SPLINE
  5
1b0
100
AcDbEntity
  8
0
 62
7
100
AcDbSpline
 70
8
 71
3
 72
8
 73
4
 74
0
 40
0
 40
0
 40
0
 40
0
 40
1
 40
1
 40
1
 40
1
 10
15.560171
 20
30.983018
 30
0.0
 10
15.555091
 20
30.412589
 30
0.0
 10
15.506712
 20
30.379485
 30
0.0
 10
15.173525
 20
30.718435
 30
0.0
  0
SPLINE
  5
1b1
100
AcDbEntity
  8
0
 62
7
100
AcDbSpline
 70
8
 71
3
 72
8
 73
4
 74
0
 40
0
 40
0
 40
0
 40
0
 40
1
 40
1
 40
1
 40
1
 10
15.173525
 20
30.718435
 30
0.0
 10
14.273677
 20
31.633851
 30
0.0
 10
12.834452
 20
34.457378
 30
0.0
 10
12.101720
 20
36.744815
 30
0.0
  0
SPLINE
  5
1b2
100
AcDbEntity
  8
0
 62
7
100
AcDbSpline
 70
8
 71
3
 72
8
 73
4
 74
0
 40
0
 40
0
 40
0
 40
0
 40
1
 40
1
 40
1
 40
1
 10
12.101720
 20
36.744815
 30
0.0
 10
10.989534
 20
40.216836
 30
0.0
 10
10.619197
 20
43.789645
 30
0.0
 10
11.124979
 20
46.167844
 30
0.0
  0
SPLINE
  5
1b3
100
AcDbEntity
  8
0
 62
7
100
AcDbSpline
 70
8
 71
3
 72
8
 73
4
 74
0
 40
0
 40
0
 40
0
 40
0
 40
1
 40
1
 40
1
 40
1
 10
11.124979
 20
46.167844
 30
0.0
 10
11.446723
 20
47.680676
 30
0.0
 10
11.451269
 20
47.913809
 30
0.0
 10
11.151014
 20
47.503196
 30
0.0
  0
SPLINE
  5
1b4
100
AcDbEntity
  8
0
 62
7
100
AcDbSpline
 70
8
 71
3
 72
8
 73
4
 74
0
 40
0
 40
0
 40
0
 40
0
 40
1
 40
1
 40
1
 40
1
 10
11.151014
 20
47.503196
 30
0.0
 10
10.950952
 20
47.229593
 30
0.0
 10
10.645314
 20
46.613186
 30
0.0
 10
10.471824
 20
46.133404
 30
0.0
  0
SPLINE
  5
1b5
100
AcDbEntity
  8
0
 62
7
100
AcDbSpline
 70
8
 71
3
 72
8
 73
4
 74
0
 40
0
 40
0
 40
0
 40
0
 40
1
 40
1
 40
1
 40
1
 10
10.471824
 20
46.133404
 30
0.0
 10
10.298331
 20
45.653619
 30
0.0
 10
10.070715
 20
45.261070
 30
0.0
 10
9.966012
 20
45.261070
 30
0.0
  0
SPLINE
  5
1b6
100
AcDbEntity
  8
0
 62
7
100
AcDbSpline
 70
8
 71
3
 72
8
 73
4
 74
0
 40
0
 40
0
 40
0
 40
0
 40
1
 40
1
 40
1
 40
1
 10
9.966012
 20
45.261070
 30
0.0
 10
9.651224
 20
45.261070
 30
0.0
 10
9.388429
 20
48.650840
 30
0.0
 10
9.568634
 20
50.386755
 30
0.0
  0
SPLINE
  5
1b7
100
AcDbEntity
  8
0
 62
7
100
AcDbSpline
 70
8
 71
3
 72
8
 73
4
 74
0
 40
0
 40
0
 40
0
 40
0
 40
1
 40
1
 40
1
 40
1
 10
9.568634
 20
50.386755
 30
0.0
 10
9.747344
 20
52.108253
 30
0.0
 10
10.668951
 20
55.208048
 30
0.0
 10
11.077053
 20
55.460268
 30
0.0
  0
SPLINE
  5
1b8
100
AcDbEntity
  8
0
 62
7
100
AcDbSpline
 70
8
 71
3
 72
8
 73
4
 74
0
 40
0
 40
0
 40
0
 40
0
 40
1
 40
1
 40
1
 40
1
 10
11.077053
 20
55.460268
 30
0.0
 10
11.211234
 20
55.543199
 30
0.0
 10
11.320430
 20
55.752852
 30
0.0
 10
11.319705
 20
55.926165
 30
0.0
  0
SPLINE
  5
1b9
100
AcDbEntity
  8
0
 62
7
100
AcDbSpline
 70
8
 71
3
 72
8
 73
4
 74
0
 40
0
 40
0
 40
0
 40
0
 40
1
 40
1
 40
1
 40
1
 10
11.319705
 20
55.926165
 30
0.0
 10
11.318911
 20
56.099477
 30
0.0
 10
11.025607
 20
55.884090
 30
0.0
 10
10.667763
 20
55.447528
 30
0.0
  0
SPLINE
  5
1ba
100
AcDbEntity
  8
0
 62
7
100
AcDbSpline
 70
8
 71
3
 72
8
 73
4
 74
0
 40
0
 40
0
 40
0
 40
0
 40
1
 40
1
 40
1
 40
1
 10
10.667763
 20
55.447528
 30
0.0
 10
9.733911
 20
54.308256
 30
0.0
 10
9.860435
 20
54.897409
 30
0.0
 10
11.017781
 20
57.077382
 30
0.0
  0
SPLINE
  5
1bb
100
AcDbEntity
  8
0
 62
7
100
AcDbSpline
 70
8
 71
3
 72
8
 73
4
 74
0
 40
0
 40
0
 40
0
 40
0
 40
1
 40
1
 40
1
 40
1
 10
11.017781
 20
57.077382
 30
0.0
 10
11.926897
 20
58.789795
 30
0.0
 10
11.963772
 20
58.932665
 30
0.0
 10
11.401564
 20
58.564291
 30
0.0
  0
SPLINE
  5
1bc
100
AcDbEntity
  8
0
 62
7
100
AcDbSpline
 70
8
 71
3
 72
8
 73
4
 74
0
 40
0
 40
0
 40
0
 40
0
 40
1
 40
1
 40
1
 40
1
 10
11.401564
 20
58.564291
 30
0.0
 10
11.059479
 20
58.340149
 30
0.0
 10
10.666909
 20
57.963903
 30
0.0
 10
10.529185
 20
57.728186
 30
0.0
  0
SPLINE
  5
1bd
100
AcDbEntity
  8
0
 62
7
100
AcDbSpline
 70
8
 71
3
 72
8
 73
4
 74
0
 40
0
 40
0
 40
0
 40
0
 40
1
 40
1
 40
1
 40
1
 10
10.529185
 20
57.728186
 30
0.0
 10
10.125325
 20
57.036978
 30
0.0
 10
10.193231
 20
58.011634
 30
0.0
 10
10.681001
 20
59.907255
 30
0.0
  0
SPLINE
  5
1be
100
AcDbEntity
  8
0
 62
7
100
AcDbSpline
 70
8
 71
3
 72
8
 73
4
 74
0
 40
0
 40
0
 40
0
 40
0
 40
1
 40
1
 40
1
 40
1
 10
10.681001
 20
59.907255
 30
0.0
 10
11.916761
 20
64.709770
 30
0.0
 10
14.698609
 20
67.953099
 30
0.0
 10
18.332478
 20
68.828042
 30
0.0
  0
SPLINE
  5
1bf
100
AcDbEntity
  8
0
 62
7
100
AcDbSpline
 70
8
 71
3
 72
8
 73
4
 74
0
 40
0
 40
0
 40
0
 40
0
 40
1
 40
1
 40
1
 40
1
 10
18.332478
 20
68.828042
 30
0.0
 10
21.621678
 20
69.619994
 30
0.0
 10
21.639190
 20
71.919307
 30
0.0
 10
18.362799
 20
72.808995
 30
0.0
  0
SPLINE
  5
1c0
100
AcDbEntity
  8
0
 62
7
100
AcDbSpline
 70
8
 71
3
 72
8
 73
4
 74
0
 40
0
 40
0
 40
0
 40
0
 40
1
 40
1
 40
1
 40
1
 10
18.362799
 20
72.808995
 30
0.0
 10
17.764039
 20
72.971586
 30
0.0
 10
16.978502
 20
73.189145
 30
0.0
 10
16.617160
 20
73.292461
 30
0.0
  0
SPLINE
  5
1c1
100
AcDbEntity
  8
0
 62
7
100
AcDbSpline
 70
8
 71
3
 72
8
 73
4
 74
0
 40
0
 40
0
 40
0
 40
0
 40
1
 40
1
 40
1
 40
1
 10
16.617160
 20
73.292461
 30
0.0
 10
16.103268
 20
73.439394
 30
0.0
 10
16.621897
 20
73.642888
 30
0.0
 10
18.998410
 20
74.226773
 30
0.0
  0
SPLINE
  5
1c2
100
AcDbEntity
  8
0
 62
7
100
AcDbSpline
 70
8
 71
3
 72
8
 73
4
 74
0
 40
0
 40
0
 40
0
 40
0
 40
1
 40
1
 40
1
 40
1
 10
18.998410
 20
74.226773
 30
0.0
 10
20.669439
 20
74.637329
 30
0.0
 10
22.364067
 20
75.201733
 30
0.0
 10
22.764249
 20
75.481003
 30
0.0
  0
SPLINE
  5
1c3
100
AcDbEntity
  8
0
 62
7
100
AcDbSpline
 70
8
 71
3
 72
8
 73
4
 74
0
 40
0
 40
0
 40
0
 40
0
 40
1
 40
1
 40
1
 40
1
 10
22.764249
 20
75.481003
 30
0.0
 10
24.226720
 20
76.501600
 30
0.0
 10
23.427075
 20
77.740277
 30
0.0
 10
20.753513
 20
78.595698
 30
0.0
  0
SPLINE
  5
1c4
100
AcDbEntity
  8
0
 62
7
100
AcDbSpline
 70
8
 71
3
 72
8
 73
4
 74
0
 40
0
 40
0
 40
0
 40
0
 40
1
 40
1
 40
1
 40
1
 10
20.753513
 20
78.595698
 30
0.0
 10
19.744485
 20
78.918543
 30
0.0
 10
19.723848
 20
78.910808
 30
0.0
 10
18.545081
 20
77.767890
 30
0.0
  0
SPLINE
  5
1c5
100
AcDbEntity
  8
0
 62
7
100
AcDbSpline
 70
8
 71
3
 72
8
 73
4
 74
0
 40
0
 40
0
 40
0
 40
0
 40
1
 40
1
 40
1
 40
1
 10
18.545081
 20
77.767890
 30
0.0
 10
16.483530
 20
75.769039
 30
0.0
 10
13.200556
 20
71.703397
 30
0.0
 10
11.016929
 20
68.445018
 30
0.0
  0
SPLINE
  5
1c6
100
AcDbEntity
  8
0
 62
7
100
AcDbSpline
 70
8
 71
3
 72
8
 73
4
 74
0
 40
0
 40
0
 40
0
 40
0
 40
1
 40
1
 40
1
 40
1
 10
11.016929
 20
68.445018
 30
0.0
 10
3.002988
 20
56.486713
 30
0.0
 10
-0.212948
 20
41.591521
 30
0.0
 10
2.721543
 20
30.023422
 30
0.0
  0
SPLINE
  5
1c7
100
AcDbEntity
  8
0
 62
7
100
AcDbSpline
 70
8
 71
3
 72
8
 73
4
 74
0
 40
0
 40
0
 40
0
 40
0
 40
1
 40
1
 40
1
 40
1
 10
2.721543
 20
30.023422
 30
0.0
 10
7.365967
 20
11.714557
 30
0.0
 10
25.950721
 20
0.003852
 30
0.0
 10
47.378869
 20
1.883754
 30
0.0
  0
LWPOLYLINE
  5
1c8
100
AcDbEntity
  8
0
 62
7
100
AcDbPolyline
 90
3
 70
0
 10
31.180437
 20
19.237248
 30
0.0
 10
31.010003
 20
18.405861
 30
0.0
 10
29.523145
 20
19.811309
 30
0.0
  0
SPLINE
  5
1c9
100
AcDbEntity
  8
0
 62
7
100
AcDbSpline
 70
8
 71
3
 72
8
 73
4
 74
0
 40
0
 40
0
 40
0
 40
0
 40
1
 40
1
 40
1
 40
1
 10
52.133008
 20
1.780048
 30
0.0
 10
51.951107
 20
1.853446
 30
0.0
 10
51.653451
 20
1.853446
 30
0.0
 10
51.471550
 20
1.780048
 30
0.0
  0
SPLINE
  5
1ca
100
AcDbEntity
  8
0
 62
7
100
AcDbSpline
 70
8
 71
3
 72
8
 73
4
 74
0
 40
0
 40
0
 40
0
 40
0
 40
1
 40
1
 40
1
 40
1
 10
51.471550
 20
1.780048
 30
0.0
 10
51.289648
 20
1.706650
 30
0.0
 10
51.438477
 20
1.646595
 30
0.0
 10
51.802279
 20
1.646595
 30
0.0
  0
SPLINE
  5
1cb
100
AcDbEntity
  8
0
 62
7
100
AcDbSpline
 70
8
 71
3
 72
8
 73
4
 74
0
 40
0
 40
0
 40
0
 40
0
 40
1
 40
1
 40
1
 40
1
 10
51.802279
 20
1.646595
 30
0.0
 10
52.166081
 20
1.646595
 30
0.0
 10
52.314909
 20
1.706650
 30
0.0
 10
52.133008
 20
1.780048
 30
0.0
  0
LWPOLYLINE
  5
1cc
100
AcDbEntity
  8
0
 62
7
100
AcDbPolyline
 90
1
 70
1
 10
47.378869
 20
1.883754
 30
0.0
  0
SPLINE
  5
1cd
100
AcDbEntity
  8
0
 62
7
100
AcDbSpline
 70
8
 71
3
 72
8
 73
4
 74
0
 40
0
 40
0
 40
0
 40
0
 40
1
 40
1
 40
1
 40
1
 10
32.752279
 20
2.133986
 30
0.0
 10
32.388477
 20
2.250496
 30
0.0
 10
31.852695
 20
2.345822
 30
0.0
 10
31.561654
 20
2.345822
 30
0.0
  0
SPLINE
  5
1ce
100
AcDbEntity
  8
0
 62
7
100
AcDbSpline
 70
8
 71
3
 72
8
 73
4
 74
0
 40
0
 40
0
 40
0
 40
0
 40
1
 40
1
 40
1
 40
1
 10
31.561654
 20
2.345822
 30
0.0
 10
31.142641
 20
2.345822
 30
0.0
 10
31.170181
 20
2.301724
 30
0.0
 10
31.693945
 20
2.133986
 30
0.0
  0
SPLINE
  5
1cf
100
AcDbEntity
  8
0
 62
7
100
AcDbSpline
 70
8
 71
3
 72
8
 73
4
 74
0
 40
0
 40
0
 40
0
 40
0
 40
1
 40
1
 40
1
 40
1
 10
31.693945
 20
2.133986
 30
0.0
 10
32.057747
 20
2.017477
 30
0.0
 10
32.593529
 20
1.922150
 30
0.0
 10
32.884570
 20
1.922150
 30
0.0
  0
SPLINE
  5
1d0
100
AcDbEntity
  8
0
 62
7
100
AcDbSpline
 70
8
 71
3
 72
8
 73
4
 74
0
 40
0
 40
0
 40
0
 40
0
 40
1
 40
1
 40
1
 40
1
 10
32.884570
 20
1.922150
 30
0.0
 10
33.303583
 20
1.922150
 30
0.0
 10
33.276043
 20
1.966248
 30
0.0
 10
32.752279
 20
2.133986
 30
0.0
  0
LWPOLYLINE
  5
1d1
100
AcDbEntity
  8
0
 62
7
100
AcDbPolyline
 90
1
 70
1
 10
52.133008
 20
1.780048
 30
0.0
  0
SPLINE
  5
1d2
100
AcDbEntity
  8
0
 62
7
100
AcDbSpline
 70
8
 71
3
 72
8
 73
4
 74
0
 40
0
 40
0
 40
0
 40
0
 40
1
 40
1
 40
1
 40
1
 10
30.828538
 20
2.558423
 30
0.0
 10
30.740617
 20
2.646341
 30
0.0
 10
30.512414
 20
2.655739
 30
0.0
 10
30.321419
 20
2.579299
 30
0.0
  0
SPLINE
  5
1d3
100
AcDbEntity
  8
0
 62
7
100
AcDbSpline
 70
8
 71
3
 72
8
 73
4
 74
0
 40
0
 40
0
 40
0
 40
0
 40
1
 40
1
 40
1
 40
1
 10
30.321419
 20
2.579299
 30
0.0
 10
30.110353
 20
2.494838
 30
0.0
 10
30.173046
 20
2.432143
 30
0.0
 10
30.481273
 20
2.419448
 30
0.0
  0
SPLINE
  5
1d4
100
AcDbEntity
  8
0
 62
7
100
AcDbSpline
 70
8
 71
3
 72
8
 73
4
 74
0
 40
0
 40
0
 40
0
 40
0
 40
1
 40
1
 40
1
 40
1
 10
30.481273
 20
2.419448
 30
0.0
 10
30.760186
 20
2.407965
 30
0.0
 10
30.916457
 20
2.470494
 30
0.0
 10
30.828538
 20
2.558412
 30
0.0
  0
LWPOLYLINE
  5
1d5
100
AcDbEntity
  8
0
 62
7
100
AcDbPolyline
 90
1
 70
1
 10
32.752279
 20
2.133986
 30
0.0
  0
SPLINE
  5
1d6
100
AcDbEntity
  8
0
 62
7
100
AcDbSpline
 70
8
 71
3
 72
8
 73
4
 74
0
 40
0
 40
0
 40
0
 40
0
 40
1
 40
1
 40
1
 40
1
 10
27.196029
 20
3.686696
 30
0.0
 10
25.668059
 20
4.234614
 30
0.0
 10
24.157838
 20
4.823775
 30
0.0
 10
23.839984
 20
4.995947
 30
0.0
  0
SPLINE
  5
1d7
100
AcDbEntity
  8
0
 62
7
100
AcDbSpline
 70
8
 71
3
 72
8
 73
4
 74
0
 40
0
 40
0
 40
0
 40
0
 40
1
 40
1
 40
1
 40
1
 10
23.839984
 20
4.995947
 30
0.0
 10
23.522129
 20
5.168119
 30
0.0
 10
23.164942
 20
5.304219
 30
0.0
 10
23.046234
 20
5.298392
 30
0.0
  0
SPLINE
  5
1d8
100
AcDbEntity
  8
0
 62
7
100
AcDbSpline
 70
8
 71
3
 72
8
 73
4
 74
0
 40
0
 40
0
 40
0
 40
0
 40
1
 40
1
 40
1
 40
1
 10
23.046234
 20
5.298392
 30
0.0
 10
22.279053
 20
5.260740
 30
0.0
 10
28.718285
 20
2.689042
 30
0.0
 10
29.577279
 20
2.690029
 30
0.0
  0
SPLINE
  5
1d9
100
AcDbEntity
  8
0
 62
7
100
AcDbSpline
 70
8
 71
3
 72
8
 73
4
 74
0
 40
0
 40
0
 40
0
 40
0
 40
1
 40
1
 40
1
 40
1
 10
29.577279
 20
2.690029
 30
0.0
 10
29.795560
 20
2.690278
 30
0.0
 10
28.723997
 20
3.138779
 30
0.0
 10
27.196029
 20
3.686696
 30
0.0
  0
LWPOLYLINE
  5
1da
100
AcDbEntity
  8
0
 62
7
100
AcDbPolyline
 90
1
 70
1
 10
30.828538
 20
2.558412
 30
0.0
  0
SPLINE
  5
1db
100
AcDbEntity
  8
0
 62
7
100
AcDbSpline
 70
8
 71
3
 72
8
 73
4
 74
0
 40
0
 40
0
 40
0
 40
0
 40
1
 40
1
 40
1
 40
1
 10
60.004362
 20
3.589195
 30
0.0
 10
60.513685
 20
3.785333
 30
0.0
 10
60.751810
 20
3.945811
 30
0.0
 10
60.533529
 20
3.945811
 30
0.0
  0
SPLINE
  5
1dc
100
AcDbEntity
  8
0
 62
7
100
AcDbSpline
 70
8
 71
3
 72
8
 73
4
 74
0
 40
0
 40
0
 40
0
 40
0
 40
1
 40
1
 40
1
 40
1
 10
60.533529
 20
3.945811
 30
0.0
 10
60.315247
 20
3.945811
 30
0.0
 10
59.719935
 20
3.785333
 30
0.0
 10
59.210612
 20
3.589195
 30
0.0
  0
SPLINE
  5
1dd
100
AcDbEntity
  8
0
 62
7
100
AcDbSpline
 70
8
 71
3
 72
8
 73
4
 74
0
 40
0
 40
0
 40
0
 40
0
 40
1
 40
1
 40
1
 40
1
 10
59.210612
 20
3.589195
 30
0.0
 10
58.701289
 20
3.393056
 30
0.0
 10
58.463164
 20
3.232579
 30
0.0
 10
58.681445
 20
3.232579
 30
0.0
  0
SPLINE
  5
1de
100
AcDbEntity
  8
0
 62
7
100
AcDbSpline
 70
8
 71
3
 72
8
 73
4
 74
0
 40
0
 40
0
 40
0
 40
0
 40
1
 40
1
 40
1
 40
1
 10
58.681445
 20
3.232579
 30
0.0
 10
58.899727
 20
3.232579
 30
0.0
 10
59.495039
 20
3.393056
 30
0.0
 10
60.004362
 20
3.589195
 30
0.0
  0
LWPOLYLINE
  5
1df
100
AcDbEntity
  8
0
 62
7
100
AcDbPolyline
 90
1
 70
1
 10
27.196029
 20
3.686696
 30
0.0
  0
SPLINE
  5
1e0
100
AcDbEntity
  8
0
 62
7
100
AcDbSpline
 70
8
 71
3
 72
8
 73
4
 74
0
 40
0
 40
0
 40
0
 40
0
 40
1
 40
1
 40
1
 40
1
 10
62.650195
 20
4.559874
 30
0.0
 10
62.926021
 20
4.730295
 30
0.0
 10
62.845320
 20
4.751123
 30
0.0
 10
62.385612
 20
4.628158
 30
0.0
  0
SPLINE
  5
1e1
100
AcDbEntity
  8
0
 62
7
100
AcDbSpline
 70
8
 71
3
 72
8
 73
4
 74
0
 40
0
 40
0
 40
0
 40
0
 40
1
 40
1
 40
1
 40
1
 10
62.385612
 20
4.628158
 30
0.0
 10
62.021810
 20
4.530844
 30
0.0
 10
61.545560
 20
4.340881
 30
0.0
 10
61.327279
 20
4.206015
 30
0.0
  0
SPLINE
  5
1e2
100
AcDbEntity
  8
0
 62
7
100
AcDbSpline
 70
8
 71
3
 72
8
 73
4
 74
0
 40
0
 40
0
 40
0
 40
0
 40
1
 40
1
 40
1
 40
1
 10
61.327279
 20
4.206015
 30
0.0
 10
61.051453
 20
4.035594
 30
0.0
 10
61.132154
 20
4.014766
 30
0.0
 10
61.591862
 20
4.137731
 30
0.0
  0
SPLINE
  5
1e3
100
AcDbEntity
  8
0
 62
7
100
AcDbSpline
 70
8
 71
3
 72
8
 73
4
 74
0
 40
0
 40
0
 40
0
 40
0
 40
1
 40
1
 40
1
 40
1
 10
61.591862
 20
4.137731
 30
0.0
 10
61.955664
 20
4.235045
 30
0.0
 10
62.431914
 20
4.425008
 30
0.0
 10
62.650195
 20
4.559874
 30
0.0
  0
LWPOLYLINE
  5
1e4
100
AcDbEntity
  8
0
 62
7
100
AcDbPolyline
 90
1
 70
1
 10
60.004362
 20
3.589195
 30
0.0
  0
SPLINE
  5
1e5
100
AcDbEntity
  8
0
 62
7
100
AcDbSpline
 70
8
 71
3
 72
8
 73
4
 74
0
 40
0
 40
0
 40
0
 40
0
 40
1
 40
1
 40
1
 40
1
 10
63.973112
 20
5.044403
 30
0.0
 10
64.191393
 20
5.185468
 30
0.0
 10
64.250925
 20
5.300882
 30
0.0
 10
64.105404
 20
5.300882
 30
0.0
  0
SPLINE
  5
1e6
100
AcDbEntity
  8
0
 62
7
100
AcDbSpline
 70
8
 71
3
 72
8
 73
4
 74
0
 40
0
 40
0
 40
0
 40
0
 40
1
 40
1
 40
1
 40
1
 10
64.105404
 20
5.300882
 30
0.0
 10
63.959883
 20
5.300882
 30
0.0
 10
63.662227
 20
5.185468
 30
0.0
 10
63.443945
 20
5.044403
 30
0.0
  0
SPLINE
  5
1e7
100
AcDbEntity
  8
0
 62
7
100
AcDbSpline
 70
8
 71
3
 72
8
 73
4
 74
0
 40
0
 40
0
 40
0
 40
0
 40
1
 40
1
 40
1
 40
1
 10
63.443945
 20
5.044403
 30
0.0
 10
63.225664
 20
4.903338
 30
0.0
 10
63.166133
 20
4.787924
 30
0.0
 10
63.311654
 20
4.787924
 30
0.0
  0
SPLINE
  5
1e8
100
AcDbEntity
  8
0
 62
7
100
AcDbSpline
 70
8
 71
3
 72
8
 73
4
 74
0
 40
0
 40
0
 40
0
 40
0
 40
1
 40
1
 40
1
 40
1
 10
63.311654
 20
4.787924
 30
0.0
 10
63.457175
 20
4.787924
 30
0.0
 10
63.754831
 20
4.903338
 30
0.0
 10
63.973112
 20
5.044403
 30
0.0
  0
LWPOLYLINE
  5
1e9
100
AcDbEntity
  8
0
 62
7
100
AcDbPolyline
 90
1
 70
1
 10
62.650195
 20
4.559874
 30
0.0
  0
SPLINE
  5
1ea
100
AcDbEntity
  8
0
 62
7
100
AcDbSpline
 70
8
 71
3
 72
8
 73
4
 74
0
 40
0
 40
0
 40
0
 40
0
 40
1
 40
1
 40
1
 40
1
 10
22.676063
 20
5.405440
 30
0.0
 10
22.615429
 20
5.458489
 30
0.0
 10
22.268163
 20
5.643650
 30
0.0
 10
21.904361
 20
5.816910
 30
0.0
  0
SPLINE
  5
1eb
100
AcDbEntity
  8
0
 62
7
100
AcDbSpline
 70
8
 71
3
 72
8
 73
4
 74
0
 40
0
 40
0
 40
0
 40
0
 40
1
 40
1
 40
1
 40
1
 10
21.904361
 20
5.816910
 30
0.0
 10
21.280667
 20
6.113944
 30
0.0
 10
21.272224
 20
6.108435
 30
0.0
 10
21.756493
 20
5.720458
 30
0.0
  0
SPLINE
  5
1ec
100
AcDbEntity
  8
0
 62
7
100
AcDbSpline
 70
8
 71
3
 72
8
 73
4
 74
0
 40
0
 40
0
 40
0
 40
0
 40
1
 40
1
 40
1
 40
1
 10
21.756493
 20
5.720458
 30
0.0
 10
22.177975
 20
5.382781
 30
0.0
 10
23.039156
 20
5.087766
 30
0.0
 10
22.676063
 20
5.405440
 30
0.0
  0
LWPOLYLINE
  5
1ed
100
AcDbEntity
  8
0
 62
7
100
AcDbPolyline
 90
1
 70
1
 10
63.973112
 20
5.044403
 30
0.0
  0
SPLINE
  5
1ee
100
AcDbEntity
  8
0
 62
7
100
AcDbSpline
 70
8
 71
3
 72
8
 73
4
 74
0
 40
0
 40
0
 40
0
 40
0
 40
1
 40
1
 40
1
 40
1
 10
65.296029
 20
5.573570
 30
0.0
 10
65.514310
 20
5.714635
 30
0.0
 10
65.573841
 20
5.830049
 30
0.0
 10
65.428320
 20
5.830049
 30
0.0
  0
SPLINE
  5
1ef
100
AcDbEntity
  8
0
 62
7
100
AcDbSpline
 70
8
 71
3
 72
8
 73
4
 74
0
 40
0
 40
0
 40
0
 40
0
 40
1
 40
1
 40
1
 40
1
 10
65.428320
 20
5.830049
 30
0.0
 10
65.282800
 20
5.830049
 30
0.0
 10
64.985143
 20
5.714635
 30
0.0
 10
64.766862
 20
5.573570
 30
0.0
  0
SPLINE
  5
1f0
100
AcDbEntity
  8
0
 62
7
100
AcDbSpline
 70
8
 71
3
 72
8
 73
4
 74
0
 40
0
 40
0
 40
0
 40
0
 40
1
 40
1
 40
1
 40
1
 10
64.766862
 20
5.573570
 30
0.0
 10
64.548581
 20
5.432504
 30
0.0
 10
64.489050
 20
5.317090
 30
0.0
 10
64.634570
 20
5.317090
 30
0.0
  0
SPLINE
  5
1f1
100
AcDbEntity
  8
0
 62
7
100
AcDbSpline
 70
8
 71
3
 72
8
 73
4
 74
0
 40
0
 40
0
 40
0
 40
0
 40
1
 40
1
 40
1
 40
1
 10
64.634570
 20
5.317090
 30
0.0
 10
64.780091
 20
5.317090
 30
0.0
 10
65.077747
 20
5.432504
 30
0.0
 10
65.296029
 20
5.573570
 30
0.0
  0
LWPOLYLINE
  5
1f2
100
AcDbEntity
  8
0
 62
7
100
AcDbPolyline
 90
1
 70
1
 10
22.676063
 20
5.405440
 30
0.0
  0
SPLINE
  5
1f3
100
AcDbEntity
  8
0
 62
7
100
AcDbSpline
 70
8
 71
3
 72
8
 73
4
 74
0
 40
0
 40
0
 40
0
 40
0
 40
1
 40
1
 40
1
 40
1
 10
20.965090
 20
6.323777
 30
0.0
 10
20.529033
 20
6.707246
 30
0.0
 10
18.200194
 20
7.983527
 30
0.0
 10
18.200194
 20
7.839033
 30
0.0
  0
SPLINE
  5
1f4
100
AcDbEntity
  8
0
 62
7
100
AcDbSpline
 70
8
 71
3
 72
8
 73
4
 74
0
 40
0
 40
0
 40
0
 40
0
 40
1
 40
1
 40
1
 40
1
 10
18.200194
 20
7.839033
 30
0.0
 10
18.200194
 20
7.763081
 30
0.0
 10
18.825272
 20
7.342463
 30
0.0
 10
19.589257
 20
6.904321
 30
0.0
  0
SPLINE
  5
1f5
100
AcDbEntity
  8
0
 62
7
100
AcDbSpline
 70
8
 71
3
 72
8
 73
4
 74
0
 40
0
 40
0
 40
0
 40
0
 40
1
 40
1
 40
1
 40
1
 10
19.589257
 20
6.904321
 30
0.0
 10
20.988522
 20
6.101850
 30
0.0
 10
21.428624
 20
5.916147
 30
0.0
 10
20.965090
 20
6.323777
 30
0.0
  0
LWPOLYLINE
  5
1f6
100
AcDbEntity
  8
0
 62
7
100
AcDbPolyline
 90
1
 70
1
 10
65.296029
 20
5.573570
 30
0.0
  0
SPLINE
  5
1f7
100
AcDbEntity
  8
0
 62
7
100
AcDbSpline
 70
8
 71
3
 72
8
 73
4
 74
0
 40
0
 40
0
 40
0
 40
0
 40
1
 40
1
 40
1
 40
1
 10
69.242771
 20
7.454945
 30
0.0
 10
72.415249
 20
9.146828
 30
0.0
 10
75.617673
 20
11.218603
 30
0.0
 10
78.525195
 20
13.460114
 30
0.0
  0
SPLINE
  5
1f8
100
AcDbEntity
  8
0
 62
7
100
AcDbSpline
 70
8
 71
3
 72
8
 73
4
 74
0
 40
0
 40
0
 40
0
 40
0
 40
1
 40
1
 40
1
 40
1
 10
78.525195
 20
13.460114
 30
0.0
 10
81.184345
 20
15.510142
 30
0.0
 10
86.068257
 20
20.380841
 30
0.0
 10
87.876753
 20
22.786369
 30
0.0
  0
SPLINE
  5
1f9
100
AcDbEntity
  8
0
 62
7
100
AcDbSpline
 70
8
 71
3
 72
8
 73
4
 74
0
 40
0
 40
0
 40
0
 40
0
 40
1
 40
1
 40
1
 40
1
 10
87.876753
 20
22.786369
 30
0.0
 10
89.245517
 20
24.606996
 30
0.0
 10
88.960915
 20
24.313158
 30
0.0
 10
85.592597
 20
20.428077
 30
0.0
  0
SPLINE
  5
1fa
100
AcDbEntity
  8
0
 62
7
100
AcDbSpline
 70
8
 71
3
 72
8
 73
4
 74
0
 40
0
 40
0
 40
0
 40
0
 40
1
 40
1
 40
1
 40
1
 10
85.592597
 20
20.428077
 30
0.0
 10
81.559458
 20
15.776183
 30
0.0
 10
75.276525
 20
10.912636
 30
0.0
 10
69.000195
 20
7.584093
 30
0.0
  0
SPLINE
  5
1fb
100
AcDbEntity
  8
0
 62
7
100
AcDbSpline
 70
8
 71
3
 72
8
 73
4
 74
0
 40
0
 40
0
 40
0
 40
0
 40
1
 40
1
 40
1
 40
1
 10
69.000195
 20
7.584093
 30
0.0
 10
67.472227
 20
6.773759
 30
0.0
 10
66.331230
 20
6.108957
 30
0.0
 10
66.464646
 20
6.106747
 30
0.0
  0
SPLINE
  5
1fc
100
AcDbEntity
  8
0
 62
7
100
AcDbSpline
 70
8
 71
3
 72
8
 73
4
 74
0
 40
0
 40
0
 40
0
 40
0
 40
1
 40
1
 40
1
 40
1
 10
66.464646
 20
6.106747
 30
0.0
 10
66.598062
 20
6.104631
 30
0.0
 10
67.848218
 20
6.711230
 30
0.0
 10
69.242771
 20
7.454945
 30
0.0
  0
LWPOLYLINE
  5
1fd
100
AcDbEntity
  8
0
 62
7
100
AcDbPolyline
 90
1
 70
1
 10
20.965090
 20
6.323777
 30
0.0
  0
SPLINE
  5
1fe
100
AcDbEntity
  8
0
 62
7
100
AcDbSpline
 70
8
 71
3
 72
8
 73
4
 74
0
 40
0
 40
0
 40
0
 40
0
 40
1
 40
1
 40
1
 40
1
 10
17.790090
 20
8.176591
 30
0.0
 10
16.839088
 20
9.015664
 30
0.0
 10
14.233823
 20
10.856730
 30
0.0
 10
14.244351
 20
10.682264
 30
0.0
  0
SPLINE
  5
1ff
100
AcDbEntity
  8
0
 62
7
100
AcDbSpline
 70
8
 71
3
 72
8
 73
4
 74
0
 40
0
 40
0
 40
0
 40
0
 40
1
 40
1
 40
1
 40
1
 10
14.244351
 20
10.682264
 30
0.0
 10
14.256522
 20
10.480455
 30
0.0
 10
17.660132
 20
7.954820
 30
0.0
 10
17.919919
 20
7.954820
 30
0.0
  0
SPLINE
  5
200
100
AcDbEntity
  8
0
 62
7
100
AcDbSpline
 70
8
 71
3
 72
8
 73
4
 74
0
 40
0
 40
0
 40
0
 40
0
 40
1
 40
1
 40
1
 40
1
 10
17.919919
 20
7.954820
 30
0.0
 10
17.986758
 20
7.954820
 30
0.0
 10
17.928332
 20
8.054618
 30
0.0
 10
17.790090
 20
8.176591
 30
0.0
  0
LWPOLYLINE
  5
201
100
AcDbEntity
  8
0
 62
7
100
AcDbPolyline
 90
1
 70
1
 10
69.242771
 20
7.454945
 30
0.0
  0
SPLINE
  5
202
100
AcDbEntity
  8
0
 62
7
100
AcDbSpline
 70
8
 71
3
 72
8
 73
4
 74
0
 40
0
 40
0
 40
0
 40
0
 40
1
 40
1
 40
1
 40
1
 10
11.420715
 20
13.585254
 30
0.0
 10
9.983440
 20
15.081263
 30
0.0
 10
8.163948
 20
17.254154
 30
0.0
 10
7.377400
 20
18.413899
 30
0.0
  0
SPLINE
  5
203
100
AcDbEntity
  8
0
 62
7
100
AcDbSpline
 70
8
 71
3
 72
8
 73
4
 74
0
 40
0
 40
0
 40
0
 40
0
 40
1
 40
1
 40
1
 40
1
 10
7.377400
 20
18.413899
 30
0.0
 10
5.906835
 20
20.582215
 30
0.0
 10
5.028707
 20
21.667676
 30
0.0
 10
5.885586
 20
20.257945
 30
0.0
  0
SPLINE
  5
204
100
AcDbEntity
  8
0
 62
7
100
AcDbSpline
 70
8
 71
3
 72
8
 73
4
 74
0
 40
0
 40
0
 40
0
 40
0
 40
1
 40
1
 40
1
 40
1
 10
5.885586
 20
20.257945
 30
0.0
 10
7.231482
 20
18.043684
 30
0.0
 10
9.031085
 20
15.772836
 30
0.0
 10
11.284772
 20
13.444924
 30
0.0
  0
SPLINE
  5
205
100
AcDbEntity
  8
0
 62
7
100
AcDbSpline
 70
8
 71
3
 72
8
 73
4
 74
0
 40
0
 40
0
 40
0
 40
0
 40
1
 40
1
 40
1
 40
1
 10
11.284772
 20
13.444924
 30
0.0
 10
12.658361
 20
12.026096
 30
0.0
 10
13.838848
 20
10.865236
 30
0.0
 10
13.908073
 20
10.865236
 30
0.0
  0
SPLINE
  5
206
100
AcDbEntity
  8
0
 62
7
100
AcDbSpline
 70
8
 71
3
 72
8
 73
4
 74
0
 40
0
 40
0
 40
0
 40
0
 40
1
 40
1
 40
1
 40
1
 10
13.908073
 20
10.865236
 30
0.0
 10
13.977301
 20
10.865236
 30
0.0
 10
12.857990
 20
12.089244
 30
0.0
 10
11.420715
 20
13.585254
 30
0.0
  0
LWPOLYLINE
  5
207
100
AcDbEntity
  8
0
 62
7
100
AcDbPolyline
 90
1
 70
1
 10
17.790090
 20
8.176591
 30
0.0
  0
SPLINE
  5
208
100
AcDbEntity
  8
0
 62
7
100
AcDbSpline
 70
8
 71
3
 72
8
 73
4
 74
0
 40
0
 40
0
 40
0
 40
0
 40
1
 40
1
 40
1
 40
1
 10
45.174278
 20
15.223924
 30
0.0
 10
47.838905
 20
16.601855
 30
0.0
 10
51.008529
 20
23.441414
 30
0.0
 10
51.008529
 20
27.813336
 30
0.0
  0
SPLINE
  5
209
100
AcDbEntity
  8
0
 62
7
100
AcDbSpline
 70
8
 71
3
 72
8
 73
4
 74
0
 40
0
 40
0
 40
0
 40
0
 40
1
 40
1
 40
1
 40
1
 10
51.008529
 20
27.813336
 30
0.0
 10
51.008529
 20
29.171096
 30
0.0
 10
51.004401
 20
29.177811
 30
0.0
 10
50.280925
 20
28.995312
 30
0.0
  0
SPLINE
  5
20a
100
AcDbEntity
  8
0
 62
7
100
AcDbSpline
 70
8
 71
3
 72
8
 73
4
 74
0
 40
0
 40
0
 40
0
 40
0
 40
1
 40
1
 40
1
 40
1
 10
50.280925
 20
28.995312
 30
0.0
 10
45.351131
 20
27.751762
 30
0.0
 10
42.394561
 20
28.060766
 30
0.0
 10
40.193127
 20
30.049629
 30
0.0
  0
SPLINE
  5
20b
100
AcDbEntity
  8
0
 62
7
100
AcDbSpline
 70
8
 71
3
 72
8
 73
4
 74
0
 40
0
 40
0
 40
0
 40
0
 40
1
 40
1
 40
1
 40
1
 10
40.193127
 20
30.049629
 30
0.0
 10
39.254369
 20
30.897740
 30
0.0
 10
39.079982
 20
30.964129
 30
0.0
 10
38.591794
 20
30.659250
 30
0.0
  0
SPLINE
  5
20c
100
AcDbEntity
  8
0
 62
7
100
AcDbSpline
 70
8
 71
3
 72
8
 73
4
 74
0
 40
0
 40
0
 40
0
 40
0
 40
1
 40
1
 40
1
 40
1
 10
38.591794
 20
30.659250
 30
0.0
 10
38.290476
 20
30.471076
 30
0.0
 10
38.043945
 20
30.213136
 30
0.0
 10
38.043945
 20
30.086054
 30
0.0
  0
SPLINE
  5
20d
100
AcDbEntity
  8
0
 62
7
100
AcDbSpline
 70
8
 71
3
 72
8
 73
4
 74
0
 40
0
 40
0
 40
0
 40
0
 40
1
 40
1
 40
1
 40
1
 10
38.043945
 20
30.086054
 30
0.0
 10
38.043945
 20
29.370861
 30
0.0
 10
39.395252
 20
27.661161
 30
0.0
 10
40.727077
 20
26.691302
 30
0.0
  0
SPLINE
  5
20e
100
AcDbEntity
  8
0
 62
7
100
AcDbSpline
 70
8
 71
3
 72
8
 73
4
 74
0
 40
0
 40
0
 40
0
 40
0
 40
1
 40
1
 40
1
 40
1
 10
40.727077
 20
26.691302
 30
0.0
 10
42.510628
 20
25.392486
 30
0.0
 10
42.581460
 20
25.061696
 30
0.0
 10
40.860001
 20
26.070539
 30
0.0
  0
SPLINE
  5
20f
100
AcDbEntity
  8
0
 62
7
100
AcDbSpline
 70
8
 71
3
 72
8
 73
4
 74
0
 40
0
 40
0
 40
0
 40
0
 40
1
 40
1
 40
1
 40
1
 10
40.860001
 20
26.070539
 30
0.0
 10
39.525591
 20
26.852552
 30
0.0
 10
37.929489
 20
28.496241
 30
0.0
 10
37.650280
 20
29.375957
 30
0.0
  0
SPLINE
  5
210
100
AcDbEntity
  8
0
 62
7
100
AcDbSpline
 70
8
 71
3
 72
8
 73
4
 74
0
 40
0
 40
0
 40
0
 40
0
 40
1
 40
1
 40
1
 40
1
 10
37.650280
 20
29.375957
 30
0.0
 10
37.519959
 20
29.786559
 30
0.0
 10
37.340040
 20
29.899954
 30
0.0
 10
37.027855
 20
29.768242
 30
0.0
  0
SPLINE
  5
211
100
AcDbEntity
  8
0
 62
7
100
AcDbSpline
 70
8
 71
3
 72
8
 73
4
 74
0
 40
0
 40
0
 40
0
 40
0
 40
1
 40
1
 40
1
 40
1
 10
37.027855
 20
29.768242
 30
0.0
 10
34.177806
 20
28.565808
 30
0.0
 10
33.657818
 20
28.486330
 30
0.0
 10
34.463170
 20
29.376235
 30
0.0
  0
SPLINE
  5
212
100
AcDbEntity
  8
0
 62
7
100
AcDbSpline
 70
8
 71
3
 72
8
 73
4
 74
0
 40
0
 40
0
 40
0
 40
0
 40
1
 40
1
 40
1
 40
1
 10
34.463170
 20
29.376235
 30
0.0
 10
34.676556
 20
29.612024
 30
0.0
 10
35.155074
 20
30.612408
 30
0.0
 10
35.526543
 20
31.599309
 30
0.0
  0
SPLINE
  5
213
100
AcDbEntity
  8
0
 62
7
100
AcDbSpline
 70
8
 71
3
 72
8
 73
4
 74
0
 40
0
 40
0
 40
0
 40
0
 40
1
 40
1
 40
1
 40
1
 10
35.526543
 20
31.599309
 30
0.0
 10
36.129936
 20
33.202380
 30
0.0
 10
36.152040
 20
33.379182
 30
0.0
 10
35.733882
 20
33.257704
 30
0.0
  0
SPLINE
  5
214
100
AcDbEntity
  8
0
 62
7
100
AcDbSpline
 70
8
 71
3
 72
8
 73
4
 74
0
 40
0
 40
0
 40
0
 40
0
 40
1
 40
1
 40
1
 40
1
 10
35.733882
 20
33.257704
 30
0.0
 10
33.563856
 20
32.627308
 30
0.0
 10
32.541869
 20
32.478760
 30
0.0
 10
30.238737
 20
32.458978
 30
0.0
  0
SPLINE
  5
215
100
AcDbEntity
  8
0
 62
7
100
AcDbSpline
 70
8
 71
3
 72
8
 73
4
 74
0
 40
0
 40
0
 40
0
 40
0
 40
1
 40
1
 40
1
 40
1
 10
30.238737
 20
32.458978
 30
0.0
 10
28.783529
 20
32.446489
 30
0.0
 10
26.950612
 20
32.599402
 30
0.0
 10
26.165587
 20
32.798811
 30
0.0
  0
LWPOLYLINE
  5
216
100
AcDbEntity
  8
0
 62
7
100
AcDbPolyline
 90
1
 70
1
 10
11.420715
 20
13.585254
 30
0.0
  0
SPLINE
  5
217
100
AcDbEntity
  8
0
 62
7
100
AcDbSpline
 70
8
 71
3
 72
8
 73
4
 74
0
 40
0
 40
0
 40
0
 40
0
 40
1
 40
1
 40
1
 40
1
 10
26.215609
 20
33.762416
 30
0.0
 10
27.749974
 20
34.386663
 30
0.0
 10
30.348994
 20
35.997954
 30
0.0
 10
30.908001
 20
36.671515
 30
0.0
  0
SPLINE
  5
218
100
AcDbEntity
  8
0
 62
7
100
AcDbSpline
 70
8
 71
3
 72
8
 73
4
 74
0
 40
0
 40
0
 40
0
 40
0
 40
1
 40
1
 40
1
 40
1
 10
30.908001
 20
36.671515
 30
0.0
 10
31.175756
 20
36.994140
 30
0.0
 10
31.119130
 20
37.058986
 30
0.0
 10
30.569643
 20
37.058986
 30
0.0
  0
SPLINE
  5
219
100
AcDbEntity
  8
0
 62
7
100
AcDbSpline
 70
8
 71
3
 72
8
 73
4
 74
0
 40
0
 40
0
 40
0
 40
0
 40
1
 40
1
 40
1
 40
1
 10
30.569643
 20
37.058986
 30
0.0
 10
29.544081
 20
37.058986
 30
0.0
 10
25.002505
 20
38.274114
 30
0.0
 10
23.718963
 20
38.891930
 30
0.0
  0
SPLINE
  5
21a
100
AcDbEntity
  8
0
 62
7
100
AcDbSpline
 70
8
 71
3
 72
8
 73
4
 74
0
 40
0
 40
0
 40
0
 40
0
 40
1
 40
1
 40
1
 40
1
 10
23.718963
 20
38.891930
 30
0.0
 10
23.084733
 20
39.197209
 30
0.0
 10
22.782415
 20
39.386507
 30
0.0
 10
23.047144
 20
39.312596
 30
0.0
  0
SPLINE
  5
21b
100
AcDbEntity
  8
0
 62
7
100
AcDbSpline
 70
8
 71
3
 72
8
 73
4
 74
0
 40
0
 40
0
 40
0
 40
0
 40
1
 40
1
 40
1
 40
1
 10
23.047144
 20
39.312596
 30
0.0
 10
24.512626
 20
38.903439
 30
0.0
 10
28.919104
 20
38.108414
 30
0.0
 10
30.573750
 20
37.954630
 30
0.0
  0
SPLINE
  5
21c
100
AcDbEntity
  8
0
 62
7
100
AcDbSpline
 70
8
 71
3
 72
8
 73
4
 74
0
 40
0
 40
0
 40
0
 40
0
 40
1
 40
1
 40
1
 40
1
 10
30.573750
 20
37.954630
 30
0.0
 10
33.381167
 20
37.693708
 30
0.0
 10
32.992650
 20
38.237747
 30
0.0
 10
30.088110
 20
38.634670
 30
0.0
  0
SPLINE
  5
21d
100
AcDbEntity
  8
0
 62
7
100
AcDbSpline
 70
8
 71
3
 72
8
 73
4
 74
0
 40
0
 40
0
 40
0
 40
0
 40
1
 40
1
 40
1
 40
1
 10
30.088110
 20
38.634670
 30
0.0
 10
28.768336
 20
38.815026
 30
0.0
 10
27.735377
 20
39.009447
 30
0.0
 10
27.792646
 20
39.066713
 30
0.0
  0
SPLINE
  5
21e
100
AcDbEntity
  8
0
 62
7
100
AcDbSpline
 70
8
 71
3
 72
8
 73
4
 74
0
 40
0
 40
0
 40
0
 40
0
 40
1
 40
1
 40
1
 40
1
 10
27.792646
 20
39.066713
 30
0.0
 10
27.849915
 20
39.123982
 30
0.0
 10
29.061511
 20
39.060654
 30
0.0
 10
30.485085
 20
38.925960
 30
0.0
  0
SPLINE
  5
21f
100
AcDbEntity
  8
0
 62
7
100
AcDbSpline
 70
8
 71
3
 72
8
 73
4
 74
0
 40
0
 40
0
 40
0
 40
0
 40
1
 40
1
 40
1
 40
1
 10
30.485085
 20
38.925960
 30
0.0
 10
32.266670
 20
38.757405
 30
0.0
 10
33.291373
 20
38.770057
 30
0.0
 10
33.772737
 20
38.966558
 30
0.0
  0
SPLINE
  5
220
100
AcDbEntity
  8
0
 62
7
100
AcDbSpline
 70
8
 71
3
 72
8
 73
4
 74
0
 40
0
 40
0
 40
0
 40
0
 40
1
 40
1
 40
1
 40
1
 10
33.772737
 20
38.966558
 30
0.0
 10
34.161502
 20
39.125258
 30
0.0
 10
36.528309
 20
39.274972
 30
0.0
 10
39.102279
 20
39.303682
 30
0.0
  0
SPLINE
  5
221
100
AcDbEntity
  8
0
 62
7
100
AcDbSpline
 70
8
 71
3
 72
8
 73
4
 74
0
 40
0
 40
0
 40
0
 40
0
 40
1
 40
1
 40
1
 40
1
 10
39.102279
 20
39.303682
 30
0.0
 10
43.735384
 20
39.355363
 30
0.0
 10
44.899009
 20
39.496013
 30
0.0
 10
45.802439
 20
40.113545
 30
0.0
  0
SPLINE
  5
222
100
AcDbEntity
  8
0
 62
7
100
AcDbSpline
 70
8
 71
3
 72
8
 73
4
 74
0
 40
0
 40
0
 40
0
 40
0
 40
1
 40
1
 40
1
 40
1
 10
45.802439
 20
40.113545
 30
0.0
 10
46.413050
 20
40.530923
 30
0.0
 10
46.156203
 20
40.685193
 30
0.0
 10
44.532820
 20
40.876117
 30
0.0
  0
SPLINE
  5
223
100
AcDbEntity
  8
0
 62
7
100
AcDbSpline
 70
8
 71
3
 72
8
 73
4
 74
0
 40
0
 40
0
 40
0
 40
0
 40
1
 40
1
 40
1
 40
1
 10
44.532820
 20
40.876117
 30
0.0
 10
43.818381
 20
40.960141
 30
0.0
 10
43.139498
 20
41.177456
 30
0.0
 10
43.024195
 20
41.359042
 30
0.0
  0
SPLINE
  5
224
100
AcDbEntity
  8
0
 62
7
100
AcDbSpline
 70
8
 71
3
 72
8
 73
4
 74
0
 40
0
 40
0
 40
0
 40
0
 40
1
 40
1
 40
1
 40
1
 10
43.024195
 20
41.359042
 30
0.0
 10
42.880420
 20
41.585457
 30
0.0
 10
42.813274
 20
41.593503
 30
0.0
 10
42.810496
 20
41.384654
 30
0.0
  0
SPLINE
  5
225
100
AcDbEntity
  8
0
 62
7
100
AcDbSpline
 70
8
 71
3
 72
8
 73
4
 74
0
 40
0
 40
0
 40
0
 40
0
 40
1
 40
1
 40
1
 40
1
 10
42.810496
 20
41.384654
 30
0.0
 10
42.805654
 20
41.020651
 30
0.0
 10
39.353313
 20
41.715423
 30
0.0
 10
35.955970
 20
42.764101
 30
0.0
  0
LWPOLYLINE
  5
226
100
AcDbEntity
  8
0
 62
7
100
AcDbPolyline
 90
3
 70
0
 10
26.165587
 20
32.798811
 30
0.0
 10
24.738271
 20
33.161370
 30
0.0
 10
26.215609
 20
33.762416
 30
0.0
  0
SPLINE
  5
227
100
AcDbEntity
  8
0
 62
7
100
AcDbSpline
 70
8
 71
3
 72
8
 73
4
 74
0
 40
0
 40
0
 40
0
 40
0
 40
1
 40
1
 40
1
 40
1
 10
31.458053
 20
42.852906
 30
0.0
 10
30.012960
 20
42.474422
 30
0.0
 10
28.358841
 20
42.249423
 30
0.0
 10
26.932834
 20
42.237369
 30
0.0
  0
LWPOLYLINE
  5
228
100
AcDbEntity
  8
0
 62
7
100
AcDbPolyline
 90
3
 70
0
 10
35.955970
 20
42.764101
 30
0.0
 10
33.735701
 20
43.449446
 30
0.0
 10
31.458053
 20
42.852906
 30
0.0
  0
SPLINE
  5
229
100
AcDbEntity
  8
0
 62
7
100
AcDbSpline
 70
8
 71
3
 72
8
 73
4
 74
0
 40
0
 40
0
 40
0
 40
0
 40
1
 40
1
 40
1
 40
1
 10
24.488382
 20
43.988360
 30
0.0
 10
24.380099
 20
44.961855
 30
0.0
 10
23.852398
 20
47.045449
 30
0.0
 10
23.315712
 20
48.618569
 30
0.0
  0
SPLINE
  5
22a
100
AcDbEntity
  8
0
 62
7
100
AcDbSpline
 70
8
 71
3
 72
8
 73
4
 74
0
 40
0
 40
0
 40
0
 40
0
 40
1
 40
1
 40
1
 40
1
 10
23.315712
 20
48.618569
 30
0.0
 10
22.193156
 20
51.908969
 30
0.0
 10
22.103772
 20
53.454038
 30
0.0
 10
22.813506
 20
57.299611
 30
0.0
  0
SPLINE
  5
22b
100
AcDbEntity
  8
0
 62
7
100
AcDbSpline
 70
8
 71
3
 72
8
 73
4
 74
0
 40
0
 40
0
 40
0
 40
0
 40
1
 40
1
 40
1
 40
1
 10
22.813506
 20
57.299611
 30
0.0
 10
23.055222
 20
58.609299
 30
0.0
 10
23.314976
 20
60.097580
 30
0.0
 10
23.390740
 20
60.606903
 30
0.0
  0
LWPOLYLINE
  5
22c
100
AcDbEntity
  8
0
 62
7
100
AcDbPolyline
 90
3
 70
0
 10
26.932834
 20
42.237369
 30
0.0
 10
24.685261
 20
42.218372
 30
0.0
 10
24.488382
 20
43.988360
 30
0.0
  0
SPLINE
  5
22d
100
AcDbEntity
  8
0
 62
7
100
AcDbSpline
 70
8
 71
3
 72
8
 73
4
 74
0
 40
0
 40
0
 40
0
 40
0
 40
1
 40
1
 40
1
 40
1
 10
22.280781
 20
60.210028
 30
0.0
 10
20.810341
 20
58.650955
 30
0.0
 10
19.335807
 20
56.683624
 30
0.0
 10
18.465579
 20
55.119759
 30
0.0
  0
SPLINE
  5
22e
100
AcDbEntity
  8
0
 62
7
100
AcDbSpline
 70
8
 71
3
 72
8
 73
4
 74
0
 40
0
 40
0
 40
0
 40
0
 40
1
 40
1
 40
1
 40
1
 10
18.465579
 20
55.119759
 30
0.0
 10
18.122333
 20
54.502923
 30
0.0
 10
17.790363
 20
54.049374
 30
0.0
 10
17.727863
 20
54.111874
 30
0.0
  0
SPLINE
  5
22f
100
AcDbEntity
  8
0
 62
7
100
AcDbSpline
 70
8
 71
3
 72
8
 73
4
 74
0
 40
0
 40
0
 40
0
 40
0
 40
1
 40
1
 40
1
 40
1
 10
17.727863
 20
54.111874
 30
0.0
 10
17.365016
 20
54.474721
 30
0.0
 10
20.855542
 20
59.557740
 30
0.0
 10
22.809511
 20
61.511934
 30
0.0
  0
SPLINE
  5
230
100
AcDbEntity
  8
0
 62
7
100
AcDbSpline
 70
8
 71
3
 72
8
 73
4
 74
0
 40
0
 40
0
 40
0
 40
0
 40
1
 40
1
 40
1
 40
1
 10
22.809511
 20
61.511934
 30
0.0
 10
23.851062
 20
62.553604
 30
0.0
 10
24.535748
 20
64.413564
 30
0.0
 10
24.546062
 20
66.229299
 30
0.0
  0
SPLINE
  5
231
100
AcDbEntity
  8
0
 62
7
100
AcDbSpline
 70
8
 71
3
 72
8
 73
4
 74
0
 40
0
 40
0
 40
0
 40
0
 40
1
 40
1
 40
1
 40
1
 10
24.546062
 20
66.229299
 30
0.0
 10
24.549580
 20
66.848355
 30
0.0
 10
24.658742
 20
66.955263
 30
0.0
 10
25.277798
 20
66.945899
 30
0.0
  0
SPLINE
  5
232
100
AcDbEntity
  8
0
 62
7
100
AcDbSpline
 70
8
 71
3
 72
8
 73
4
 74
0
 40
0
 40
0
 40
0
 40
0
 40
1
 40
1
 40
1
 40
1
 10
25.277798
 20
66.945899
 30
0.0
 10
25.677981
 20
66.939840
 30
0.0
 10
26.600716
 20
66.723522
 30
0.0
 10
27.328320
 20
66.465180
 30
0.0
  0
LWPOLYLINE
  5
233
100
AcDbEntity
  8
0
 62
7
100
AcDbPolyline
 90
3
 70
0
 10
23.390740
 20
60.606903
 30
0.0
 10
23.528493
 20
61.532945
 30
0.0
 10
22.280781
 20
60.210028
 30
0.0
  0
SPLINE
  5
234
100
AcDbEntity
  8
0
 62
7
100
AcDbSpline
 70
8
 71
3
 72
8
 73
4
 74
0
 40
0
 40
0
 40
0
 40
0
 40
1
 40
1
 40
1
 40
1
 10
31.032487
 20
67.119095
 30
0.0
 10
33.493104
 20
68.280179
 30
0.0
 10
37.847855
 20
69.686459
 30
0.0
 10
39.966575
 20
70.004180
 30
0.0
  0
SPLINE
  5
235
100
AcDbEntity
  8
0
 62
7
100
AcDbSpline
 70
8
 71
3
 72
8
 73
4
 74
0
 40
0
 40
0
 40
0
 40
0
 40
1
 40
1
 40
1
 40
1
 10
39.966575
 20
70.004180
 30
0.0
 10
41.161150
 20
70.183318
 30
0.0
 10
41.710412
 20
70.535695
 30
0.0
 10
42.699006
 20
71.757161
 30
0.0
  0
SPLINE
  5
236
100
AcDbEntity
  8
0
 62
7
100
AcDbSpline
 70
8
 71
3
 72
8
 73
4
 74
0
 40
0
 40
0
 40
0
 40
0
 40
1
 40
1
 40
1
 40
1
 10
42.699006
 20
71.757161
 30
0.0
 10
43.632173
 20
72.910144
 30
0.0
 10
46.052169
 20
74.910502
 30
0.0
 10
47.638922
 20
75.840473
 30
0.0
  0
SPLINE
  5
237
100
AcDbEntity
  8
0
 62
7
100
AcDbSpline
 70
8
 71
3
 72
8
 73
4
 74
0
 40
0
 40
0
 40
0
 40
0
 40
1
 40
1
 40
1
 40
1
 10
47.638922
 20
75.840473
 30
0.0
 10
49.152188
 20
76.727373
 30
0.0
 10
51.008529
 20
77.603139
 30
0.0
 10
51.008529
 20
77.430152
 30
0.0
  0
SPLINE
  5
238
100
AcDbEntity
  8
0
 62
7
100
AcDbSpline
 70
8
 71
3
 72
8
 73
4
 74
0
 40
0
 40
0
 40
0
 40
0
 40
1
 40
1
 40
1
 40
1
 10
51.008529
 20
77.430152
 30
0.0
 10
51.008529
 20
77.384458
 30
0.0
 10
50.077799
 20
76.806281
 30
0.0
 10
48.940241
 20
76.145315
 30
0.0
  0
SPLINE
  5
239
100
AcDbEntity
  8
0
 62
7
100
AcDbSpline
 70
8
 71
3
 72
8
 73
4
 74
0
 40
0
 40
0
 40
0
 40
0
 40
1
 40
1
 40
1
 40
1
 10
48.940241
 20
76.145315
 30
0.0
 10
46.324647
 20
74.625551
 30
0.0
 10
43.583429
 20
72.431082
 30
0.0
 10
42.562719
 20
71.039821
 30
0.0
  0
SPLINE
  5
23a
100
AcDbEntity
  8
0
 62
7
100
AcDbSpline
 70
8
 71
3
 72
8
 73
4
 74
0
 40
0
 40
0
 40
0
 40
0
 40
1
 40
1
 40
1
 40
1
 10
42.562719
 20
71.039821
 30
0.0
 10
41.846561
 20
70.063676
 30
0.0
 10
41.609955
 20
69.933329
 30
0.0
 10
40.023640
 20
69.641039
 30
0.0
  0
SPLINE
  5
23b
100
AcDbEntity
  8
0
 62
7
100
AcDbSpline
 70
8
 71
3
 72
8
 73
4
 74
0
 40
0
 40
0
 40
0
 40
0
 40
1
 40
1
 40
1
 40
1
 10
40.023640
 20
69.641039
 30
0.0
 10
36.658881
 20
69.021058
 30
0.0
 10
29.575030
 20
66.359966
 30
0.0
 10
29.578414
 20
65.717227
 30
0.0
  0
SPLINE
  5
23c
100
AcDbEntity
  8
0
 62
7
100
AcDbSpline
 70
8
 71
3
 72
8
 73
4
 74
0
 40
0
 40
0
 40
0
 40
0
 40
1
 40
1
 40
1
 40
1
 10
29.578414
 20
65.717227
 30
0.0
 10
29.578943
 20
65.598683
 30
0.0
 10
30.442241
 20
65.058184
 30
0.0
 10
31.496643
 20
64.516116
 30
0.0
  0
SPLINE
  5
23d
100
AcDbEntity
  8
0
 62
7
100
AcDbSpline
 70
8
 71
3
 72
8
 73
4
 74
0
 40
0
 40
0
 40
0
 40
0
 40
1
 40
1
 40
1
 40
1
 10
31.496643
 20
64.516116
 30
0.0
 10
32.551045
 20
63.974046
 30
0.0
 10
34.529654
 20
62.808130
 30
0.0
 10
35.893555
 20
61.925187
 30
0.0
  0
SPLINE
  5
23e
100
AcDbEntity
  8
0
 62
7
100
AcDbSpline
 70
8
 71
3
 72
8
 73
4
 74
0
 40
0
 40
0
 40
0
 40
0
 40
1
 40
1
 40
1
 40
1
 10
35.893555
 20
61.925187
 30
0.0
 10
37.257456
 20
61.042246
 30
0.0
 10
38.469705
 20
60.354662
 30
0.0
 10
38.587445
 20
60.397223
 30
0.0
  0
SPLINE
  5
23f
100
AcDbEntity
  8
0
 62
7
100
AcDbSpline
 70
8
 71
3
 72
8
 73
4
 74
0
 40
0
 40
0
 40
0
 40
0
 40
1
 40
1
 40
1
 40
1
 10
38.587445
 20
60.397223
 30
0.0
 10
38.817558
 20
60.480408
 30
0.0
 10
42.347422
 20
63.474843
 30
0.0
 10
45.172815
 20
65.983683
 30
0.0
  0
SPLINE
  5
240
100
AcDbEntity
  8
0
 62
7
100
AcDbSpline
 70
8
 71
3
 72
8
 73
4
 74
0
 40
0
 40
0
 40
0
 40
0
 40
1
 40
1
 40
1
 40
1
 10
45.172815
 20
65.983683
 30
0.0
 10
46.126884
 20
66.830863
 30
0.0
 10
47.145612
 20
67.644193
 30
0.0
 10
47.436654
 20
67.791087
 30
0.0
  0
SPLINE
  5
241
100
AcDbEntity
  8
0
 62
7
100
AcDbSpline
 70
8
 71
3
 72
8
 73
4
 74
0
 40
0
 40
0
 40
0
 40
0
 40
1
 40
1
 40
1
 40
1
 10
47.436654
 20
67.791087
 30
0.0
 10
47.727695
 20
67.937983
 30
0.0
 10
47.580524
 20
67.743517
 30
0.0
 10
47.109602
 20
67.358945
 30
0.0
  0
SPLINE
  5
242
100
AcDbEntity
  8
0
 62
7
100
AcDbSpline
 70
8
 71
3
 72
8
 73
4
 74
0
 40
0
 40
0
 40
0
 40
0
 40
1
 40
1
 40
1
 40
1
 10
47.109602
 20
67.358945
 30
0.0
 10
46.092176
 20
66.528074
 30
0.0
 10
43.592679
 20
63.491930
 30
0.0
 10
42.088194
 20
61.259434
 30
0.0
  0
SPLINE
  5
243
100
AcDbEntity
  8
0
 62
7
100
AcDbSpline
 70
8
 71
3
 72
8
 73
4
 74
0
 40
0
 40
0
 40
0
 40
0
 40
1
 40
1
 40
1
 40
1
 10
42.088194
 20
61.259434
 30
0.0
 10
39.923440
 20
58.047168
 30
0.0
 10
38.069938
 20
53.818049
 30
0.0
 10
37.395756
 20
50.552736
 30
0.0
  0
SPLINE
  5
244
100
AcDbEntity
  8
0
 62
7
100
AcDbSpline
 70
8
 71
3
 72
8
 73
4
 74
0
 40
0
 40
0
 40
0
 40
0
 40
1
 40
1
 40
1
 40
1
 10
37.395756
 20
50.552736
 30
0.0
 10
36.748572
 20
47.418191
 30
0.0
 10
36.809238
 20
47.028420
 30
0.0
 10
38.110091
 20
45.963229
 30
0.0
  0
SPLINE
  5
245
100
AcDbEntity
  8
0
 62
7
100
AcDbSpline
 70
8
 71
3
 72
8
 73
4
 74
0
 40
0
 40
0
 40
0
 40
0
 40
1
 40
1
 40
1
 40
1
 10
38.110091
 20
45.963229
 30
0.0
 10
39.240262
 20
45.037801
 30
0.0
 10
42.043051
 20
43.637301
 30
0.0
 10
45.127590
 20
42.456719
 30
0.0
  0
SPLINE
  5
246
100
AcDbEntity
  8
0
 62
7
100
AcDbSpline
 70
8
 71
3
 72
8
 73
4
 74
0
 40
0
 40
0
 40
0
 40
0
 40
1
 40
1
 40
1
 40
1
 10
45.127590
 20
42.456719
 30
0.0
 10
47.220569
 20
41.655645
 30
0.0
 10
47.363970
 20
41.667306
 30
0.0
 10
46.351119
 20
42.556208
 30
0.0
  0
SPLINE
  5
247
100
AcDbEntity
  8
0
 62
7
100
AcDbSpline
 70
8
 71
3
 72
8
 73
4
 74
0
 40
0
 40
0
 40
0
 40
0
 40
1
 40
1
 40
1
 40
1
 10
46.351119
 20
42.556208
 30
0.0
 10
45.899594
 20
42.952477
 30
0.0
 10
44.965628
 20
44.012773
 30
0.0
 10
44.275640
 20
44.912428
 30
0.0
  0
SPLINE
  5
248
100
AcDbEntity
  8
0
 62
7
100
AcDbSpline
 70
8
 71
3
 72
8
 73
4
 74
0
 40
0
 40
0
 40
0
 40
0
 40
1
 40
1
 40
1
 40
1
 10
44.275640
 20
44.912428
 30
0.0
 10
43.198217
 20
46.317241
 30
0.0
 10
43.046282
 20
46.662742
 30
0.0
 10
43.199386
 20
47.359824
 30
0.0
  0
SPLINE
  5
249
100
AcDbEntity
  8
0
 62
7
100
AcDbSpline
 70
8
 71
3
 72
8
 73
4
 74
0
 40
0
 40
0
 40
0
 40
0
 40
1
 40
1
 40
1
 40
1
 10
43.199386
 20
47.359824
 30
0.0
 10
43.347735
 20
48.035247
 30
0.0
 10
43.296409
 20
48.171105
 30
0.0
 10
42.893615
 20
48.169219
 30
0.0
  0
SPLINE
  5
24a
100
AcDbEntity
  8
0
 62
7
100
AcDbSpline
 70
8
 71
3
 72
8
 73
4
 74
0
 40
0
 40
0
 40
0
 40
0
 40
1
 40
1
 40
1
 40
1
 10
42.893615
 20
48.169219
 30
0.0
 10
42.197925
 20
48.165964
 30
0.0
 10
39.896029
 20
49.300646
 30
0.0
 10
39.896029
 20
49.646835
 30
0.0
  0
SPLINE
  5
24b
100
AcDbEntity
  8
0
 62
7
100
AcDbSpline
 70
8
 71
3
 72
8
 73
4
 74
0
 40
0
 40
0
 40
0
 40
0
 40
1
 40
1
 40
1
 40
1
 10
39.896029
 20
49.646835
 30
0.0
 10
39.896029
 20
50.551268
 30
0.0
 10
41.043442
 20
54.175538
 30
0.0
 10
41.953204
 20
56.144713
 30
0.0
  0
SPLINE
  5
24c
100
AcDbEntity
  8
0
 62
7
100
AcDbSpline
 70
8
 71
3
 72
8
 73
4
 74
0
 40
0
 40
0
 40
0
 40
0
 40
1
 40
1
 40
1
 40
1
 10
41.953204
 20
56.144713
 30
0.0
 10
44.032255
 20
60.644807
 30
0.0
 10
47.909567
 20
65.532257
 30
0.0
 10
51.509253
 20
68.190345
 30
0.0
  0
SPLINE
  5
24d
100
AcDbEntity
  8
0
 62
7
100
AcDbSpline
 70
8
 71
3
 72
8
 73
4
 74
0
 40
0
 40
0
 40
0
 40
0
 40
1
 40
1
 40
1
 40
1
 10
51.509253
 20
68.190345
 30
0.0
 10
51.566371
 20
68.232520
 30
0.0
 10
51.461384
 20
68.449841
 30
0.0
 10
51.275951
 20
68.673274
 30
0.0
  0
SPLINE
  5
24e
100
AcDbEntity
  8
0
 62
7
100
AcDbSpline
 70
8
 71
3
 72
8
 73
4
 74
0
 40
0
 40
0
 40
0
 40
0
 40
1
 40
1
 40
1
 40
1
 10
51.275951
 20
68.673274
 30
0.0
 10
50.978697
 20
69.031443
 30
0.0
 10
49.721532
 20
69.468010
 30
0.0
 10
46.510612
 20
70.328099
 30
0.0
  0
LWPOLYLINE
  5
24f
100
AcDbEntity
  8
0
 62
7
100
AcDbPolyline
 90
3
 70
0
 10
27.328320
 20
66.465180
 30
0.0
 10
28.651237
 20
65.995463
 30
0.0
 10
31.032487
 20
67.119095
 30
0.0
  0
SPLINE
  5
250
100
AcDbEntity
  8
0
 62
7
100
AcDbSpline
 70
8
 71
3
 72
8
 73
4
 74
0
 40
0
 40
0
 40
0
 40
0
 40
1
 40
1
 40
1
 40
1
 10
46.784178
 20
71.750013
 30
0.0
 10
47.443964
 20
72.395636
 30
0.0
 10
48.950425
 20
73.426773
 30
0.0
 10
50.131872
 20
74.041429
 30
0.0
  0
SPLINE
  5
251
100
AcDbEntity
  8
0
 62
7
100
AcDbSpline
 70
8
 71
3
 72
8
 73
4
 74
0
 40
0
 40
0
 40
0
 40
0
 40
1
 40
1
 40
1
 40
1
 10
50.131872
 20
74.041429
 30
0.0
 10
53.009702
 20
75.538640
 30
0.0
 10
53.268224
 20
75.463891
 30
0.0
 10
50.540486
 20
73.923282
 30
0.0
  0
SPLINE
  5
252
100
AcDbEntity
  8
0
 62
7
100
AcDbSpline
 70
8
 71
3
 72
8
 73
4
 74
0
 40
0
 40
0
 40
0
 40
0
 40
1
 40
1
 40
1
 40
1
 10
50.540486
 20
73.923282
 30
0.0
 10
49.337177
 20
73.243661
 30
0.0
 10
47.867533
 20
72.272363
 30
0.0
 10
47.274607
 20
71.764842
 30
0.0
  0
SPLINE
  5
253
100
AcDbEntity
  8
0
 62
7
100
AcDbSpline
 70
8
 71
3
 72
8
 73
4
 74
0
 40
0
 40
0
 40
0
 40
0
 40
1
 40
1
 40
1
 40
1
 10
47.274607
 20
71.764842
 30
0.0
 10
46.058167
 20
70.723615
 30
0.0
 10
46.154470
 20
70.565733
 30
0.0
 10
48.165105
 20
70.304924
 30
0.0
  0
SPLINE
  5
254
100
AcDbEntity
  8
0
 62
7
100
AcDbSpline
 70
8
 71
3
 72
8
 73
4
 74
0
 40
0
 40
0
 40
0
 40
0
 40
1
 40
1
 40
1
 40
1
 10
48.165105
 20
70.304924
 30
0.0
 10
49.539120
 20
70.126694
 30
0.0
 10
51.228916
 20
69.367551
 30
0.0
 10
51.809917
 20
68.667490
 30
0.0
  0
SPLINE
  5
255
100
AcDbEntity
  8
0
 62
7
100
AcDbSpline
 70
8
 71
3
 72
8
 73
4
 74
0
 40
0
 40
0
 40
0
 40
0
 40
1
 40
1
 40
1
 40
1
 10
51.809917
 20
68.667490
 30
0.0
 10
52.135635
 20
68.275020
 30
0.0
 10
52.086896
 20
68.156812
 30
0.0
 10
51.395342
 20
67.661988
 30
0.0
  0
SPLINE
  5
256
100
AcDbEntity
  8
0
 62
7
100
AcDbSpline
 70
8
 71
3
 72
8
 73
4
 74
0
 40
0
 40
0
 40
0
 40
0
 40
1
 40
1
 40
1
 40
1
 10
51.395342
 20
67.661988
 30
0.0
 10
46.777272
 20
64.357668
 30
0.0
 10
42.599221
 20
57.948679
 30
0.0
 10
40.940712
 20
51.624939
 30
0.0
  0
SPLINE
  5
257
100
AcDbEntity
  8
0
 62
7
100
AcDbSpline
 70
8
 71
3
 72
8
 73
4
 74
0
 40
0
 40
0
 40
0
 40
0
 40
1
 40
1
 40
1
 40
1
 10
40.940712
 20
51.624939
 30
0.0
 10
40.312639
 20
49.230153
 30
0.0
 10
40.557865
 20
48.782483
 30
0.0
 10
41.797719
 20
50.060434
 30
0.0
  0
SPLINE
  5
258
100
AcDbEntity
  8
0
 62
7
100
AcDbSpline
 70
8
 71
3
 72
8
 73
4
 74
0
 40
0
 40
0
 40
0
 40
0
 40
1
 40
1
 40
1
 40
1
 10
41.797719
 20
50.060434
 30
0.0
 10
42.279758
 20
50.557287
 30
0.0
 10
43.240013
 20
51.452145
 30
0.0
 10
43.931618
 20
52.049008
 30
0.0
  0
SPLINE
  5
259
100
AcDbEntity
  8
0
 62
7
100
AcDbSpline
 70
8
 71
3
 72
8
 73
4
 74
0
 40
0
 40
0
 40
0
 40
0
 40
1
 40
1
 40
1
 40
1
 10
43.931618
 20
52.049008
 30
0.0
 10
45.116522
 20
53.071591
 30
0.0
 10
45.198951
 20
53.228632
 30
0.0
 10
45.360108
 20
54.770499
 30
0.0
  0
SPLINE
  5
25a
100
AcDbEntity
  8
0
 62
7
100
AcDbSpline
 70
8
 71
3
 72
8
 73
4
 74
0
 40
0
 40
0
 40
0
 40
0
 40
1
 40
1
 40
1
 40
1
 10
45.360108
 20
54.770499
 30
0.0
 10
45.515591
 20
56.258076
 30
0.0
 10
45.617723
 20
56.470492
 30
0.0
 10
46.483894
 20
57.107757
 30
0.0
  0
SPLINE
  5
25b
100
AcDbEntity
  8
0
 62
7
100
AcDbSpline
 70
8
 71
3
 72
8
 73
4
 74
0
 40
0
 40
0
 40
0
 40
0
 40
1
 40
1
 40
1
 40
1
 10
46.483894
 20
57.107757
 30
0.0
 10
47.007912
 20
57.493292
 30
0.0
 10
47.644931
 20
58.016532
 30
0.0
 10
47.899489
 20
58.270513
 30
0.0
  0
SPLINE
  5
25c
100
AcDbEntity
  8
0
 62
7
100
AcDbSpline
 70
8
 71
3
 72
8
 73
4
 74
0
 40
0
 40
0
 40
0
 40
0
 40
1
 40
1
 40
1
 40
1
 10
47.899489
 20
58.270513
 30
0.0
 10
49.111683
 20
59.479950
 30
0.0
 10
52.548502
 20
60.918236
 30
0.0
 10
54.932985
 20
61.213981
 30
0.0
  0
SPLINE
  5
25d
100
AcDbEntity
  8
0
 62
7
100
AcDbSpline
 70
8
 71
3
 72
8
 73
4
 74
0
 40
0
 40
0
 40
0
 40
0
 40
1
 40
1
 40
1
 40
1
 10
54.932985
 20
61.213981
 30
0.0
 10
55.563466
 20
61.292182
 30
0.0
 10
56.035443
 20
61.312290
 30
0.0
 10
55.981825
 20
61.258670
 30
0.0
  0
SPLINE
  5
25e
100
AcDbEntity
  8
0
 62
7
100
AcDbSpline
 70
8
 71
3
 72
8
 73
4
 74
0
 40
0
 40
0
 40
0
 40
0
 40
1
 40
1
 40
1
 40
1
 10
55.981825
 20
61.258670
 30
0.0
 10
55.928204
 20
61.205049
 30
0.0
 10
54.817042
 20
60.784846
 30
0.0
 10
53.512577
 20
60.324884
 30
0.0
  0
SPLINE
  5
25f
100
AcDbEntity
  8
0
 62
7
100
AcDbSpline
 70
8
 71
3
 72
8
 73
4
 74
0
 40
0
 40
0
 40
0
 40
0
 40
1
 40
1
 40
1
 40
1
 10
53.512577
 20
60.324884
 30
0.0
 10
50.743556
 20
59.348513
 30
0.0
 10
48.872389
 20
58.442921
 30
0.0
 10
48.367844
 20
57.834982
 30
0.0
  0
SPLINE
  5
260
100
AcDbEntity
  8
0
 62
7
100
AcDbSpline
 70
8
 71
3
 72
8
 73
4
 74
0
 40
0
 40
0
 40
0
 40
0
 40
1
 40
1
 40
1
 40
1
 10
48.367844
 20
57.834982
 30
0.0
 10
47.856902
 20
57.219334
 30
0.0
 10
47.853111
 20
55.221574
 30
0.0
 10
48.362685
 20
55.120789
 30
0.0
  0
SPLINE
  5
261
100
AcDbEntity
  8
0
 62
7
100
AcDbSpline
 70
8
 71
3
 72
8
 73
4
 74
0
 40
0
 40
0
 40
0
 40
0
 40
1
 40
1
 40
1
 40
1
 10
48.362685
 20
55.120789
 30
0.0
 10
48.580966
 20
55.077617
 30
0.0
 10
49.890654
 20
55.888435
 30
0.0
 10
51.273101
 20
56.922607
 30
0.0
  0
SPLINE
  5
262
100
AcDbEntity
  8
0
 62
7
100
AcDbSpline
 70
8
 71
3
 72
8
 73
4
 74
0
 40
0
 40
0
 40
0
 40
0
 40
1
 40
1
 40
1
 40
1
 10
51.273101
 20
56.922607
 30
0.0
 10
56.981294
 20
61.192749
 30
0.0
 10
64.563117
 20
65.799041
 30
0.0
 10
70.194509
 20
68.418197
 30
0.0
  0
SPLINE
  5
263
100
AcDbEntity
  8
0
 62
7
100
AcDbSpline
 70
8
 71
3
 72
8
 73
4
 74
0
 40
0
 40
0
 40
0
 40
0
 40
1
 40
1
 40
1
 40
1
 10
70.194509
 20
68.418197
 30
0.0
 10
74.429652
 20
70.387960
 30
0.0
 10
74.014105
 20
69.959876
 30
0.0
 10
69.308594
 20
67.505556
 30
0.0
  0
SPLINE
  5
264
100
AcDbEntity
  8
0
 62
7
100
AcDbSpline
 70
8
 71
3
 72
8
 73
4
 74
0
 40
0
 40
0
 40
0
 40
0
 40
1
 40
1
 40
1
 40
1
 10
69.308594
 20
67.505556
 30
0.0
 10
62.202806
 20
63.799291
 30
0.0
 10
58.987841
 20
61.763256
 30
0.0
 10
52.199143
 20
56.670154
 30
0.0
  0
SPLINE
  5
265
100
AcDbEntity
  8
0
 62
7
100
AcDbSpline
 70
8
 71
3
 72
8
 73
4
 74
0
 40
0
 40
0
 40
0
 40
0
 40
1
 40
1
 40
1
 40
1
 10
52.199143
 20
56.670154
 30
0.0
 10
49.195815
 20
54.416963
 30
0.0
 10
46.103148
 20
51.548549
 30
0.0
 10
45.569952
 20
50.521656
 30
0.0
  0
SPLINE
  5
266
100
AcDbEntity
  8
0
 62
7
100
AcDbSpline
 70
8
 71
3
 72
8
 73
4
 74
0
 40
0
 40
0
 40
0
 40
0
 40
1
 40
1
 40
1
 40
1
 10
45.569952
 20
50.521656
 30
0.0
 10
45.116985
 20
49.649279
 30
0.0
 10
45.461788
 20
49.140663
 30
0.0
 10
46.775185
 20
48.743825
 30
0.0
  0
SPLINE
  5
267
100
AcDbEntity
  8
0
 62
7
100
AcDbSpline
 70
8
 71
3
 72
8
 73
4
 74
0
 40
0
 40
0
 40
0
 40
0
 40
1
 40
1
 40
1
 40
1
 10
46.775185
 20
48.743825
 30
0.0
 10
47.553086
 20
48.508782
 30
0.0
 10
50.841974
 20
48.311538
 30
0.0
 10
52.363195
 20
48.408693
 30
0.0
  0
SPLINE
  5
268
100
AcDbEntity
  8
0
 62
7
100
AcDbSpline
 70
8
 71
3
 72
8
 73
4
 74
0
 40
0
 40
0
 40
0
 40
0
 40
1
 40
1
 40
1
 40
1
 10
52.363195
 20
48.408693
 30
0.0
 10
52.601021
 20
48.423880
 30
0.0
 10
53.477530
 20
49.525531
 30
0.0
 10
54.332206
 20
50.883465
 30
0.0
  0
SPLINE
  5
269
100
AcDbEntity
  8
0
 62
7
100
AcDbSpline
 70
8
 71
3
 72
8
 73
4
 74
0
 40
0
 40
0
 40
0
 40
0
 40
1
 40
1
 40
1
 40
1
 10
54.332206
 20
50.883465
 30
0.0
 10
56.646395
 20
54.560322
 30
0.0
 10
58.594998
 20
57.125373
 30
0.0
 10
60.382280
 20
58.847493
 30
0.0
  0
SPLINE
  5
26a
100
AcDbEntity
  8
0
 62
7
100
AcDbSpline
 70
8
 71
3
 72
8
 73
4
 74
0
 40
0
 40
0
 40
0
 40
0
 40
1
 40
1
 40
1
 40
1
 10
60.382280
 20
58.847493
 30
0.0
 10
64.004550
 20
62.337704
 30
0.0
 10
71.759982
 20
67.623552
 30
0.0
 10
74.443529
 20
68.431182
 30
0.0
  0
SPLINE
  5
26b
100
AcDbEntity
  8
0
 62
7
100
AcDbSpline
 70
8
 71
3
 72
8
 73
4
 74
0
 40
0
 40
0
 40
0
 40
0
 40
1
 40
1
 40
1
 40
1
 10
74.443529
 20
68.431182
 30
0.0
 10
75.949657
 20
68.884461
 30
0.0
 10
77.868978
 20
68.950057
 30
0.0
 10
77.136122
 20
68.523207
 30
0.0
  0
SPLINE
  5
26c
100
AcDbEntity
  8
0
 62
7
100
AcDbSpline
 70
8
 71
3
 72
8
 73
4
 74
0
 40
0
 40
0
 40
0
 40
0
 40
1
 40
1
 40
1
 40
1
 10
77.136122
 20
68.523207
 30
0.0
 10
76.881461
 20
68.374882
 30
0.0
 10
76.673101
 20
68.047722
 30
0.0
 10
76.673101
 20
67.796185
 30
0.0
  0
SPLINE
  5
26d
100
AcDbEntity
  8
0
 62
7
100
AcDbSpline
 70
8
 71
3
 72
8
 73
4
 74
0
 40
0
 40
0
 40
0
 40
0
 40
1
 40
1
 40
1
 40
1
 10
76.673101
 20
67.796185
 30
0.0
 10
76.673101
 20
67.266704
 30
0.0
 10
75.078159
 20
63.901534
 30
0.0
 10
74.457007
 20
63.120445
 30
0.0
  0
SPLINE
  5
26e
100
AcDbEntity
  8
0
 62
7
100
AcDbSpline
 70
8
 71
3
 72
8
 73
4
 74
0
 40
0
 40
0
 40
0
 40
0
 40
1
 40
1
 40
1
 40
1
 10
74.457007
 20
63.120445
 30
0.0
 10
74.184597
 20
62.777894
 30
0.0
 10
74.265584
 20
63.166924
 30
0.0
 10
74.686647
 20
64.223567
 30
0.0
  0
SPLINE
  5
26f
100
AcDbEntity
  8
0
 62
7
100
AcDbSpline
 70
8
 71
3
 72
8
 73
4
 74
0
 40
0
 40
0
 40
0
 40
0
 40
1
 40
1
 40
1
 40
1
 10
74.686647
 20
64.223567
 30
0.0
 10
75.494978
 20
66.252011
 30
0.0
 10
75.811314
 20
68.015234
 30
0.0
 10
75.366914
 20
68.015234
 30
0.0
  0
SPLINE
  5
270
100
AcDbEntity
  8
0
 62
7
100
AcDbSpline
 70
8
 71
3
 72
8
 73
4
 74
0
 40
0
 40
0
 40
0
 40
0
 40
1
 40
1
 40
1
 40
1
 10
75.366914
 20
68.015234
 30
0.0
 10
75.193390
 20
68.015234
 30
0.0
 10
74.475509
 20
67.767486
 30
0.0
 10
73.771622
 20
67.464681
 30
0.0
  0
SPLINE
  5
271
100
AcDbEntity
  8
0
 62
7
100
AcDbSpline
 70
8
 71
3
 72
8
 73
4
 74
0
 40
0
 40
0
 40
0
 40
0
 40
1
 40
1
 40
1
 40
1
 10
73.771622
 20
67.464681
 30
0.0
 10
72.625278
 20
66.971540
 30
0.0
 10
72.461398
 20
66.793285
 30
0.0
 10
72.200005
 20
65.755197
 30
0.0
  0
SPLINE
  5
272
100
AcDbEntity
  8
0
 62
7
100
AcDbSpline
 70
8
 71
3
 72
8
 73
4
 74
0
 40
0
 40
0
 40
0
 40
0
 40
1
 40
1
 40
1
 40
1
 10
72.200005
 20
65.755197
 30
0.0
 10
71.827972
 20
64.277716
 30
0.0
 10
69.553299
 20
59.839908
 30
0.0
 10
68.230173
 20
58.010195
 30
0.0
  0
LWPOLYLINE
  5
273
100
AcDbEntity
  8
0
 62
7
100
AcDbPolyline
 90
3
 70
0
 10
46.510612
 20
70.328099
 30
0.0
 10
45.584570
 20
70.576153
 30
0.0
 10
46.784178
 20
71.750013
 30
0.0
  0
SPLINE
  5
274
100
AcDbEntity
  8
0
 62
7
100
AcDbSpline
 70
8
 71
3
 72
8
 73
4
 74
0
 40
0
 40
0
 40
0
 40
0
 40
1
 40
1
 40
1
 40
1
 10
67.025777
 20
57.604178
 30
0.0
 10
66.922589
 20
58.154213
 30
0.0
 10
66.654794
 20
58.958840
 30
0.0
 10
66.430676
 20
59.392235
 30
0.0
  0
LWPOLYLINE
  5
275
100
AcDbEntity
  8
0
 62
7
100
AcDbPolyline
 90
3
 70
0
 10
68.230173
 20
58.010195
 30
0.0
 10
67.213390
 20
56.604112
 30
0.0
 10
67.025777
 20
57.604178
 30
0.0
  0
SPLINE
  5
276
100
AcDbEntity
  8
0
 62
7
100
AcDbSpline
 70
8
 71
3
 72
8
 73
4
 74
0
 40
0
 40
0
 40
0
 40
0
 40
1
 40
1
 40
1
 40
1
 10
65.429008
 20
58.607627
 30
0.0
 10
64.758380
 20
56.832696
 30
0.0
 10
63.246839
 20
54.167339
 30
0.0
 10
61.939929
 20
52.455191
 30
0.0
  0
SPLINE
  5
277
100
AcDbEntity
  8
0
 62
7
100
AcDbSpline
 70
8
 71
3
 72
8
 73
4
 74
0
 40
0
 40
0
 40
0
 40
0
 40
1
 40
1
 40
1
 40
1
 10
61.939929
 20
52.455191
 30
0.0
 10
61.457451
 20
51.823112
 30
0.0
 10
61.062695
 20
51.201582
 30
0.0
 10
61.062695
 20
51.074018
 30
0.0
  0
SPLINE
  5
278
100
AcDbEntity
  8
0
 62
7
100
AcDbSpline
 70
8
 71
3
 72
8
 73
4
 74
0
 40
0
 40
0
 40
0
 40
0
 40
1
 40
1
 40
1
 40
1
 10
61.062695
 20
51.074018
 30
0.0
 10
61.062695
 20
50.946452
 30
0.0
 10
61.568711
 20
50.613863
 30
0.0
 10
62.187175
 20
50.334931
 30
0.0
  0
SPLINE
  5
279
100
AcDbEntity
  8
0
 62
7
100
AcDbSpline
 70
8
 71
3
 72
8
 73
4
 74
0
 40
0
 40
0
 40
0
 40
0
 40
1
 40
1
 40
1
 40
1
 10
62.187175
 20
50.334931
 30
0.0
 10
63.484593
 20
49.749781
 30
0.0
 10
64.908880
 20
48.350744
 30
0.0
 10
64.643807
 20
47.921847
 30
0.0
  0
SPLINE
  5
27a
100
AcDbEntity
  8
0
 62
7
100
AcDbSpline
 70
8
 71
3
 72
8
 73
4
 74
0
 40
0
 40
0
 40
0
 40
0
 40
1
 40
1
 40
1
 40
1
 10
64.643807
 20
47.921847
 30
0.0
 10
64.544334
 20
47.760895
 30
0.0
 10
64.561093
 20
47.646259
 30
0.0
 10
64.681050
 20
47.667095
 30
0.0
  0
SPLINE
  5
27b
100
AcDbEntity
  8
0
 62
7
100
AcDbSpline
 70
8
 71
3
 72
8
 73
4
 74
0
 40
0
 40
0
 40
0
 40
0
 40
1
 40
1
 40
1
 40
1
 10
64.681050
 20
47.667095
 30
0.0
 10
65.248835
 20
47.765729
 30
0.0
 10
65.505499
 20
47.567006
 30
0.0
 10
66.041058
 20
46.614109
 30
0.0
  0
SPLINE
  5
27c
100
AcDbEntity
  8
0
 62
7
100
AcDbSpline
 70
8
 71
3
 72
8
 73
4
 74
0
 40
0
 40
0
 40
0
 40
0
 40
1
 40
1
 40
1
 40
1
 10
66.041058
 20
46.614109
 30
0.0
 10
66.904574
 20
45.077687
 30
0.0
 10
66.752293
 20
45.020320
 30
0.0
 10
65.362175
 20
46.358355
 30
0.0
  0
SPLINE
  5
27d
100
AcDbEntity
  8
0
 62
7
100
AcDbSpline
 70
8
 71
3
 72
8
 73
4
 74
0
 40
0
 40
0
 40
0
 40
0
 40
1
 40
1
 40
1
 40
1
 10
65.362175
 20
46.358355
 30
0.0
 10
64.670951
 20
47.023681
 30
0.0
 10
63.567561
 20
47.928599
 30
0.0
 10
62.910196
 20
48.369284
 30
0.0
  0
SPLINE
  5
27e
100
AcDbEntity
  8
0
 62
7
100
AcDbSpline
 70
8
 71
3
 72
8
 73
4
 74
0
 40
0
 40
0
 40
0
 40
0
 40
1
 40
1
 40
1
 40
1
 10
62.910196
 20
48.369284
 30
0.0
 10
61.415115
 20
49.371557
 30
0.0
 10
58.295622
 20
50.361681
 30
0.0
 10
57.312941
 20
50.145849
 30
0.0
  0
SPLINE
  5
27f
100
AcDbEntity
  8
0
 62
7
100
AcDbSpline
 70
8
 71
3
 72
8
 73
4
 74
0
 40
0
 40
0
 40
0
 40
0
 40
1
 40
1
 40
1
 40
1
 10
57.312941
 20
50.145849
 30
0.0
 10
56.606130
 20
49.990608
 30
0.0
 10
56.668927
 20
49.904367
 30
0.0
 10
59.551819
 20
47.071187
 30
0.0
  0
SPLINE
  5
280
100
AcDbEntity
  8
0
 62
7
100
AcDbSpline
 70
8
 71
3
 72
8
 73
4
 74
0
 40
0
 40
0
 40
0
 40
0
 40
1
 40
1
 40
1
 40
1
 10
59.551819
 20
47.071187
 30
0.0
 10
62.649793
 20
44.026632
 30
0.0
 10
64.989525
 20
42.538867
 30
0.0
 10
67.258663
 20
42.170636
 30
0.0
  0
SPLINE
  5
281
100
AcDbEntity
  8
0
 62
7
100
AcDbSpline
 70
8
 71
3
 72
8
 73
4
 74
0
 40
0
 40
0
 40
0
 40
0
 40
1
 40
1
 40
1
 40
1
 10
67.258663
 20
42.170636
 30
0.0
 10
68.217807
 20
42.014989
 30
0.0
 10
68.252904
 20
42.034050
 30
0.0
 10
67.972345
 20
42.558277
 30
0.0
  0
SPLINE
  5
282
100
AcDbEntity
  8
0
 62
7
100
AcDbSpline
 70
8
 71
3
 72
8
 73
4
 74
0
 40
0
 40
0
 40
0
 40
0
 40
1
 40
1
 40
1
 40
1
 10
67.972345
 20
42.558277
 30
0.0
 10
67.343097
 20
43.734038
 30
0.0
 10
67.736762
 20
43.672302
 30
0.0
 10
69.159358
 20
42.372129
 30
0.0
  0
SPLINE
  5
283
100
AcDbEntity
  8
0
 62
7
100
AcDbSpline
 70
8
 71
3
 72
8
 73
4
 74
0
 40
0
 40
0
 40
0
 40
0
 40
1
 40
1
 40
1
 40
1
 10
69.159358
 20
42.372129
 30
0.0
 10
71.050346
 20
40.643874
 30
0.0
 10
71.540759
 20
40.371779
 30
0.0
 10
71.755603
 20
40.931656
 30
0.0
  0
SPLINE
  5
284
100
AcDbEntity
  8
0
 62
7
100
AcDbSpline
 70
8
 71
3
 72
8
 73
4
 74
0
 40
0
 40
0
 40
0
 40
0
 40
1
 40
1
 40
1
 40
1
 10
71.755603
 20
40.931656
 30
0.0
 10
71.844964
 20
41.164521
 30
0.0
 10
71.746925
 20
41.698122
 30
0.0
 10
71.537748
 20
42.117433
 30
0.0
  0
SPLINE
  5
285
100
AcDbEntity
  8
0
 62
7
100
AcDbSpline
 70
8
 71
3
 72
8
 73
4
 74
0
 40
0
 40
0
 40
0
 40
0
 40
1
 40
1
 40
1
 40
1
 10
71.537748
 20
42.117433
 30
0.0
 10
71.085189
 20
43.024610
 30
0.0
 10
71.183759
 20
43.056617
 30
0.0
 10
72.200497
 20
42.332637
 30
0.0
  0
SPLINE
  5
286
100
AcDbEntity
  8
0
 62
7
100
AcDbSpline
 70
8
 71
3
 72
8
 73
4
 74
0
 40
0
 40
0
 40
0
 40
0
 40
1
 40
1
 40
1
 40
1
 10
72.200497
 20
42.332637
 30
0.0
 10
73.084820
 20
41.702942
 30
0.0
 10
73.132125
 20
41.790234
 30
0.0
 10
72.539990
 20
42.959105
 30
0.0
  0
LWPOLYLINE
  5
287
100
AcDbEntity
  8
0
 62
7
100
AcDbPolyline
 90
3
 70
0
 10
66.430676
 20
59.392235
 30
0.0
 10
66.023191
 20
60.180225
 30
0.0
 10
65.429008
 20
58.607627
 30
0.0
  0
SPLINE
  5
288
100
AcDbEntity
  8
0
 62
7
100
AcDbSpline
 70
8
 71
3
 72
8
 73
4
 74
0
 40
0
 40
0
 40
0
 40
0
 40
1
 40
1
 40
1
 40
1
 10
72.917643
 20
43.047174
 30
0.0
 10
73.361275
 20
42.629897
 30
0.0
 10
73.873857
 20
41.927296
 30
0.0
 10
74.056714
 20
41.485841
 30
0.0
  0
SPLINE
  5
289
100
AcDbEntity
  8
0
 62
7
100
AcDbSpline
 70
8
 71
3
 72
8
 73
4
 74
0
 40
0
 40
0
 40
0
 40
0
 40
1
 40
1
 40
1
 40
1
 10
74.056714
 20
41.485841
 30
0.0
 10
74.350621
 20
40.776287
 30
0.0
 10
74.412068
 20
40.741534
 30
0.0
 10
74.586507
 20
41.186195
 30
0.0
  0
SPLINE
  5
28a
100
AcDbEntity
  8
0
 62
7
100
AcDbSpline
 70
8
 71
3
 72
8
 73
4
 74
0
 40
0
 40
0
 40
0
 40
0
 40
1
 40
1
 40
1
 40
1
 10
74.586507
 20
41.186195
 30
0.0
 10
74.747678
 20
41.597027
 30
0.0
 10
74.787244
 20
41.552683
 30
0.0
 10
74.802431
 20
40.944197
 30
0.0
  0
SPLINE
  5
28b
100
AcDbEntity
  8
0
 62
7
100
AcDbSpline
 70
8
 71
3
 72
8
 73
4
 74
0
 40
0
 40
0
 40
0
 40
0
 40
1
 40
1
 40
1
 40
1
 10
74.802431
 20
40.944197
 30
0.0
 10
74.858779
 20
38.686862
 30
0.0
 10
72.344386
 20
37.815621
 30
0.0
 10
68.592764
 20
38.792536
 30
0.0
  0
SPLINE
  5
28c
100
AcDbEntity
  8
0
 62
7
100
AcDbSpline
 70
8
 71
3
 72
8
 73
4
 74
0
 40
0
 40
0
 40
0
 40
0
 40
1
 40
1
 40
1
 40
1
 10
68.592764
 20
38.792536
 30
0.0
 10
65.863512
 20
39.503228
 30
0.0
 10
64.455942
 20
40.543432
 30
0.0
 10
59.593512
 20
45.443034
 30
0.0
  0
SPLINE
  5
28d
100
AcDbEntity
  8
0
 62
7
100
AcDbSpline
 70
8
 71
3
 72
8
 73
4
 74
0
 40
0
 40
0
 40
0
 40
0
 40
1
 40
1
 40
1
 40
1
 10
59.593512
 20
45.443034
 30
0.0
 10
57.917932
 20
47.131425
 30
0.0
 10
56.352924
 20
48.479160
 30
0.0
 10
55.950699
 20
48.580111
 30
0.0
  0
SPLINE
  5
28e
100
AcDbEntity
  8
0
 62
7
100
AcDbSpline
 70
8
 71
3
 72
8
 73
4
 74
0
 40
0
 40
0
 40
0
 40
0
 40
1
 40
1
 40
1
 40
1
 10
55.950699
 20
48.580111
 30
0.0
 10
55.562849
 20
48.677457
 30
0.0
 10
55.310410
 20
48.862099
 30
0.0
 10
55.389724
 20
48.990430
 30
0.0
  0
SPLINE
  5
28f
100
AcDbEntity
  8
0
 62
7
100
AcDbSpline
 70
8
 71
3
 72
8
 73
4
 74
0
 40
0
 40
0
 40
0
 40
0
 40
1
 40
1
 40
1
 40
1
 10
55.389724
 20
48.990430
 30
0.0
 10
55.718316
 20
49.522102
 30
0.0
 10
54.517197
 20
48.799096
 30
0.0
 10
53.725183
 20
47.988471
 30
0.0
  0
SPLINE
  5
290
100
AcDbEntity
  8
0
 62
7
100
AcDbSpline
 70
8
 71
3
 72
8
 73
4
 74
0
 40
0
 40
0
 40
0
 40
0
 40
1
 40
1
 40
1
 40
1
 10
53.725183
 20
47.988471
 30
0.0
 10
53.254809
 20
47.507046
 30
0.0
 10
52.689263
 20
47.113153
 30
0.0
 10
52.468412
 20
47.113153
 30
0.0
  0
SPLINE
  5
291
100
AcDbEntity
  8
0
 62
7
100
AcDbSpline
 70
8
 71
3
 72
8
 73
4
 74
0
 40
0
 40
0
 40
0
 40
0
 40
1
 40
1
 40
1
 40
1
 10
52.468412
 20
47.113153
 30
0.0
 10
52.173195
 20
47.113153
 30
0.0
 10
52.066862
 20
46.819145
 30
0.0
 10
52.066862
 20
46.002895
 30
0.0
  0
SPLINE
  5
292
100
AcDbEntity
  8
0
 62
7
100
AcDbSpline
 70
8
 71
3
 72
8
 73
4
 74
0
 40
0
 40
0
 40
0
 40
0
 40
1
 40
1
 40
1
 40
1
 10
52.066862
 20
46.002895
 30
0.0
 10
52.066862
 20
44.528036
 30
0.0
 10
52.994965
 20
43.217706
 30
0.0
 10
55.220166
 20
41.550947
 30
0.0
  0
SPLINE
  5
293
100
AcDbEntity
  8
0
 62
7
100
AcDbSpline
 70
8
 71
3
 72
8
 73
4
 74
0
 40
0
 40
0
 40
0
 40
0
 40
1
 40
1
 40
1
 40
1
 10
55.220166
 20
41.550947
 30
0.0
 10
57.650907
 20
39.730230
 30
0.0
 10
58.996048
 20
39.047605
 30
0.0
 10
61.693414
 20
38.265939
 30
0.0
  0
SPLINE
  5
294
100
AcDbEntity
  8
0
 62
7
100
AcDbSpline
 70
8
 71
3
 72
8
 73
4
 74
0
 40
0
 40
0
 40
0
 40
0
 40
1
 40
1
 40
1
 40
1
 10
61.693414
 20
38.265939
 30
0.0
 10
64.074040
 20
37.576059
 30
0.0
 10
66.080206
 20
37.345961
 30
0.0
 10
65.296029
 20
37.852736
 30
0.0
  0
SPLINE
  5
295
100
AcDbEntity
  8
0
 62
7
100
AcDbSpline
 70
8
 71
3
 72
8
 73
4
 74
0
 40
0
 40
0
 40
0
 40
0
 40
1
 40
1
 40
1
 40
1
 10
65.296029
 20
37.852736
 30
0.0
 10
64.732593
 20
38.216856
 30
0.0
 10
64.932592
 20
38.185032
 30
0.0
 10
67.016662
 20
37.578940
 30
0.0
  0
SPLINE
  5
296
100
AcDbEntity
  8
0
 62
7
100
AcDbSpline
 70
8
 71
3
 72
8
 73
4
 74
0
 40
0
 40
0
 40
0
 40
0
 40
1
 40
1
 40
1
 40
1
 10
67.016662
 20
37.578940
 30
0.0
 10
69.379820
 20
36.891685
 30
0.0
 10
72.751466
 20
36.636288
 30
0.0
 10
74.211529
 20
37.033936
 30
0.0
  0
SPLINE
  5
297
100
AcDbEntity
  8
0
 62
7
100
AcDbSpline
 70
8
 71
3
 72
8
 73
4
 74
0
 40
0
 40
0
 40
0
 40
0
 40
1
 40
1
 40
1
 40
1
 10
74.211529
 20
37.033936
 30
0.0
 10
75.648373
 20
37.425262
 30
0.0
 10
76.409315
 20
38.386734
 30
0.0
 10
76.405944
 20
39.806647
 30
0.0
  0
SPLINE
  5
298
100
AcDbEntity
  8
0
 62
7
100
AcDbSpline
 70
8
 71
3
 72
8
 73
4
 74
0
 40
0
 40
0
 40
0
 40
0
 40
1
 40
1
 40
1
 40
1
 10
76.405944
 20
39.806647
 30
0.0
 10
76.401446
 20
41.704604
 30
0.0
 10
75.385142
 20
43.337030
 30
0.0
 10
72.062454
 20
46.783374
 30
0.0
  0
SPLINE
  5
299
100
AcDbEntity
  8
0
 62
7
100
AcDbSpline
 70
8
 71
3
 72
8
 73
4
 74
0
 40
0
 40
0
 40
0
 40
0
 40
1
 40
1
 40
1
 40
1
 10
72.062454
 20
46.783374
 30
0.0
 10
68.618672
 20
50.355320
 30
0.0
 10
67.676757
 20
50.908286
 30
0.0
 10
64.991483
 20
50.934496
 30
0.0
  0
SPLINE
  5
29a
100
AcDbEntity
  8
0
 62
7
100
AcDbSpline
 70
8
 71
3
 72
8
 73
4
 74
0
 40
0
 40
0
 40
0
 40
0
 40
1
 40
1
 40
1
 40
1
 10
64.991483
 20
50.934496
 30
0.0
 10
63.688219
 20
50.947222
 30
0.0
 10
63.513949
 20
51.001980
 30
0.0
 10
63.890930
 20
51.280340
 30
0.0
  0
SPLINE
  5
29b
100
AcDbEntity
  8
0
 62
7
100
AcDbSpline
 70
8
 71
3
 72
8
 73
4
 74
0
 40
0
 40
0
 40
0
 40
0
 40
1
 40
1
 40
1
 40
1
 10
63.890930
 20
51.280340
 30
0.0
 10
64.279298
 20
51.567109
 30
0.0
 10
65.124573
 20
51.699480
 30
0.0
 10
66.618945
 20
51.707555
 30
0.0
  0
SPLINE
  5
29c
100
AcDbEntity
  8
0
 62
7
100
AcDbSpline
 70
8
 71
3
 72
8
 73
4
 74
0
 40
0
 40
0
 40
0
 40
0
 40
1
 40
1
 40
1
 40
1
 10
66.618945
 20
51.707555
 30
0.0
 10
66.837227
 20
51.708614
 30
0.0
 10
67.388192
 20
51.633869
 30
0.0
 10
67.843313
 20
51.541188
 30
0.0
  0
SPLINE
  5
29d
100
AcDbEntity
  8
0
 62
7
100
AcDbSpline
 70
8
 71
3
 72
8
 73
4
 74
0
 40
0
 40
0
 40
0
 40
0
 40
1
 40
1
 40
1
 40
1
 10
67.843313
 20
51.541188
 30
0.0
 10
68.669543
 20
51.372934
 30
0.0
 10
68.670993
 20
51.374662
 30
0.0
 10
68.796051
 20
52.676145
 30
0.0
  0
SPLINE
  5
29e
100
AcDbEntity
  8
0
 62
7
100
AcDbSpline
 70
8
 71
3
 72
8
 73
4
 74
0
 40
0
 40
0
 40
0
 40
0
 40
1
 40
1
 40
1
 40
1
 10
68.796051
 20
52.676145
 30
0.0
 10
68.922710
 20
53.994320
 30
0.0
 10
70.133385
 20
56.746341
 30
0.0
 10
71.121003
 20
57.961070
 30
0.0
  0
SPLINE
  5
29f
100
AcDbEntity
  8
0
 62
7
100
AcDbSpline
 70
8
 71
3
 72
8
 73
4
 74
0
 40
0
 40
0
 40
0
 40
0
 40
1
 40
1
 40
1
 40
1
 10
71.121003
 20
57.961070
 30
0.0
 10
71.644230
 20
58.604616
 30
0.0
 10
71.643327
 20
58.583121
 30
0.0
 10
71.087634
 20
57.167320
 30
0.0
  0
SPLINE
  5
2a0
100
AcDbEntity
  8
0
 62
7
100
AcDbSpline
 70
8
 71
3
 72
8
 73
4
 74
0
 40
0
 40
0
 40
0
 40
0
 40
1
 40
1
 40
1
 40
1
 10
71.087634
 20
57.167320
 30
0.0
 10
70.247984
 20
55.028047
 30
0.0
 10
69.502070
 20
52.608499
 30
0.0
 10
69.639765
 20
52.470807
 30
0.0
  0
SPLINE
  5
2a1
100
AcDbEntity
  8
0
 62
7
100
AcDbSpline
 70
8
 71
3
 72
8
 73
4
 74
0
 40
0
 40
0
 40
0
 40
0
 40
1
 40
1
 40
1
 40
1
 10
69.639765
 20
52.470807
 30
0.0
 10
69.850593
 20
52.259976
 30
0.0
 10
77.191426
 20
63.562579
 30
0.0
 10
78.327112
 20
65.846624
 30
0.0
  0
SPLINE
  5
2a2
100
AcDbEntity
  8
0
 62
7
100
AcDbSpline
 70
8
 71
3
 72
8
 73
4
 74
0
 40
0
 40
0
 40
0
 40
0
 40
1
 40
1
 40
1
 40
1
 10
78.327112
 20
65.846624
 30
0.0
 10
79.125622
 20
67.452550
 30
0.0
 10
79.449784
 20
68.461954
 30
0.0
 10
79.531993
 20
69.598494
 30
0.0
  0
SPLINE
  5
2a3
100
AcDbEntity
  8
0
 62
7
100
AcDbSpline
 70
8
 71
3
 72
8
 73
4
 74
0
 40
0
 40
0
 40
0
 40
0
 40
1
 40
1
 40
1
 40
1
 10
79.531993
 20
69.598494
 30
0.0
 10
79.634138
 20
71.010637
 30
0.0
 10
79.578872
 20
71.218945
 30
0.0
 10
78.929870
 20
71.867945
 30
0.0
  0
SPLINE
  5
2a4
100
AcDbEntity
  8
0
 62
7
100
AcDbSpline
 70
8
 71
3
 72
8
 73
4
 74
0
 40
0
 40
0
 40
0
 40
0
 40
1
 40
1
 40
1
 40
1
 10
78.929870
 20
71.867945
 30
0.0
 10
78.276270
 20
72.521545
 30
0.0
 10
78.085603
 20
72.570777
 30
0.0
 10
76.695943
 20
72.444767
 30
0.0
  0
SPLINE
  5
2a5
100
AcDbEntity
  8
0
 62
7
100
AcDbSpline
 70
8
 71
3
 72
8
 73
4
 74
0
 40
0
 40
0
 40
0
 40
0
 40
1
 40
1
 40
1
 40
1
 10
76.695943
 20
72.444767
 30
0.0
 10
74.824341
 20
72.275056
 30
0.0
 10
72.317568
 20
71.240844
 30
0.0
 10
68.563458
 20
69.089569
 30
0.0
  0
SPLINE
  5
2a6
100
AcDbEntity
  8
0
 62
7
100
AcDbSpline
 70
8
 71
3
 72
8
 73
4
 74
0
 40
0
 40
0
 40
0
 40
0
 40
1
 40
1
 40
1
 40
1
 10
68.563458
 20
69.089569
 30
0.0
 10
66.050395
 20
67.649471
 30
0.0
 10
65.791755
 20
67.549398
 30
0.0
 10
66.486654
 20
68.286021
 30
0.0
  0
SPLINE
  5
2a7
100
AcDbEntity
  8
0
 62
7
100
AcDbSpline
 70
8
 71
3
 72
8
 73
4
 74
0
 40
0
 40
0
 40
0
 40
0
 40
1
 40
1
 40
1
 40
1
 10
66.486654
 20
68.286021
 30
0.0
 10
67.709476
 20
69.582260
 30
0.0
 10
70.290015
 20
71.339533
 30
0.0
 10
72.539389
 20
72.407756
 30
0.0
  0
SPLINE
  5
2a8
100
AcDbEntity
  8
0
 62
7
100
AcDbSpline
 70
8
 71
3
 72
8
 73
4
 74
0
 40
0
 40
0
 40
0
 40
0
 40
1
 40
1
 40
1
 40
1
 10
72.539389
 20
72.407756
 30
0.0
 10
73.659749
 20
72.939813
 30
0.0
 10
74.524748
 20
73.426793
 30
0.0
 10
74.461608
 20
73.489933
 30
0.0
  0
SPLINE
  5
2a9
100
AcDbEntity
  8
0
 62
7
100
AcDbSpline
 70
8
 71
3
 72
8
 73
4
 74
0
 40
0
 40
0
 40
0
 40
0
 40
1
 40
1
 40
1
 40
1
 10
74.461608
 20
73.489933
 30
0.0
 10
74.294542
 20
73.657000
 30
0.0
 10
71.295413
 20
73.081841
 30
0.0
 10
70.059076
 20
72.645636
 30
0.0
  0
SPLINE
  5
2aa
100
AcDbEntity
  8
0
 62
7
100
AcDbSpline
 70
8
 71
3
 72
8
 73
4
 74
0
 40
0
 40
0
 40
0
 40
0
 40
1
 40
1
 40
1
 40
1
 10
70.059076
 20
72.645636
 30
0.0
 10
69.476691
 20
72.440159
 30
0.0
 10
69.000195
 20
72.380803
 30
0.0
 10
69.000195
 20
72.513735
 30
0.0
  0
SPLINE
  5
2ab
100
AcDbEntity
  8
0
 62
7
100
AcDbSpline
 70
8
 71
3
 72
8
 73
4
 74
0
 40
0
 40
0
 40
0
 40
0
 40
1
 40
1
 40
1
 40
1
 10
69.000195
 20
72.513735
 30
0.0
 10
69.000195
 20
72.935321
 30
0.0
 10
71.339517
 20
74.145381
 30
0.0
 10
72.439858
 20
74.292968
 30
0.0
  0
SPLINE
  5
2ac
100
AcDbEntity
  8
0
 62
7
100
AcDbSpline
 70
8
 71
3
 72
8
 73
4
 74
0
 40
0
 40
0
 40
0
 40
0
 40
1
 40
1
 40
1
 40
1
 10
72.439858
 20
74.292968
 30
0.0
 10
73.021896
 20
74.371036
 30
0.0
 10
73.498112
 20
74.528631
 30
0.0
 10
73.498112
 20
74.643180
 30
0.0
  0
SPLINE
  5
2ad
100
AcDbEntity
  8
0
 62
7
100
AcDbSpline
 70
8
 71
3
 72
8
 73
4
 74
0
 40
0
 40
0
 40
0
 40
0
 40
1
 40
1
 40
1
 40
1
 10
73.498112
 20
74.643180
 30
0.0
 10
73.498112
 20
75.363448
 30
0.0
 10
66.597279
 20
79.988013
 30
0.0
 10
66.166018
 20
79.556753
 30
0.0
  0
SPLINE
  5
2ae
100
AcDbEntity
  8
0
 62
7
100
AcDbSpline
 70
8
 71
3
 72
8
 73
4
 74
0
 40
0
 40
0
 40
0
 40
0
 40
1
 40
1
 40
1
 40
1
 10
66.166018
 20
79.556753
 30
0.0
 10
66.091882
 20
79.482615
 30
0.0
 10
65.970145
 20
78.661061
 30
0.0
 10
65.895495
 20
77.731078
 30
0.0
  0
SPLINE
  5
2af
100
AcDbEntity
  8
0
 62
7
100
AcDbSpline
 70
8
 71
3
 72
8
 73
4
 74
0
 40
0
 40
0
 40
0
 40
0
 40
1
 40
1
 40
1
 40
1
 10
65.895495
 20
77.731078
 30
0.0
 10
65.708623
 20
75.403031
 30
0.0
 10
66.013759
 20
74.898634
 30
0.0
 10
67.620441
 20
74.879702
 30
0.0
  0
LWPOLYLINE
  5
2b0
100
AcDbEntity
  8
0
 62
7
100
AcDbPolyline
 90
3
 70
0
 10
72.539990
 20
42.959105
 30
0.0
 10
72.111037
 20
43.805861
 30
0.0
 10
72.917643
 20
43.047174
 30
0.0
  0
SPLINE
  5
2b1
100
AcDbEntity
  8
0
 62
7
100
AcDbSpline
 70
8
 71
3
 72
8
 73
4
 74
0
 40
0
 40
0
 40
0
 40
0
 40
1
 40
1
 40
1
 40
1
 10
68.088827
 20
74.284391
 30
0.0
 10
67.660335
 20
73.965053
 30
0.0
 10
65.984662
 20
72.384095
 30
0.0
 10
64.365111
 20
70.771151
 30
0.0
  0
SPLINE
  5
2b2
100
AcDbEntity
  8
0
 62
7
100
AcDbSpline
 70
8
 71
3
 72
8
 73
4
 74
0
 40
0
 40
0
 40
0
 40
0
 40
1
 40
1
 40
1
 40
1
 10
64.365111
 20
70.771151
 30
0.0
 10
60.155175
 20
66.578385
 30
0.0
 10
57.571733
 20
65.409389
 30
0.0
 10
55.103855
 20
66.580472
 30
0.0
  0
SPLINE
  5
2b3
100
AcDbEntity
  8
0
 62
7
100
AcDbSpline
 70
8
 71
3
 72
8
 73
4
 74
0
 40
0
 40
0
 40
0
 40
0
 40
1
 40
1
 40
1
 40
1
 10
55.103855
 20
66.580472
 30
0.0
 10
54.228651
 20
66.995786
 30
0.0
 10
53.389779
 20
68.296663
 30
0.0
 10
53.389779
 20
69.238572
 30
0.0
  0
SPLINE
  5
2b4
100
AcDbEntity
  8
0
 62
7
100
AcDbSpline
 70
8
 71
3
 72
8
 73
4
 74
0
 40
0
 40
0
 40
0
 40
0
 40
1
 40
1
 40
1
 40
1
 10
53.389779
 20
69.238572
 30
0.0
 10
53.389779
 20
69.659993
 30
0.0
 10
53.441293
 20
69.646929
 30
0.0
 10
53.800222
 20
69.134487
 30
0.0
  0
SPLINE
  5
2b5
100
AcDbEntity
  8
0
 62
7
100
AcDbSpline
 70
8
 71
3
 72
8
 73
4
 74
0
 40
0
 40
0
 40
0
 40
0
 40
1
 40
1
 40
1
 40
1
 10
53.800222
 20
69.134487
 30
0.0
 10
54.025967
 20
68.812190
 30
0.0
 10
54.423384
 20
68.434654
 30
0.0
 10
54.683369
 20
68.295512
 30
0.0
  0
SPLINE
  5
2b6
100
AcDbEntity
  8
0
 62
7
100
AcDbSpline
 70
8
 71
3
 72
8
 73
4
 74
0
 40
0
 40
0
 40
0
 40
0
 40
1
 40
1
 40
1
 40
1
 10
54.683369
 20
68.295512
 30
0.0
 10
55.092910
 20
68.076334
 30
0.0
 10
55.073420
 20
68.205787
 30
0.0
 10
54.537509
 20
69.264347
 30
0.0
  0
SPLINE
  5
2b7
100
AcDbEntity
  8
0
 62
7
100
AcDbSpline
 70
8
 71
3
 72
8
 73
4
 74
0
 40
0
 40
0
 40
0
 40
0
 40
1
 40
1
 40
1
 40
1
 10
54.537509
 20
69.264347
 30
0.0
 10
53.401288
 20
71.508672
 30
0.0
 10
53.933828
 20
73.315637
 30
0.0
 10
56.466743
 20
75.810425
 30
0.0
  0
SPLINE
  5
2b8
100
AcDbEntity
  8
0
 62
7
100
AcDbSpline
 70
8
 71
3
 72
8
 73
4
 74
0
 40
0
 40
0
 40
0
 40
0
 40
1
 40
1
 40
1
 40
1
 10
56.466743
 20
75.810425
 30
0.0
 10
57.807103
 20
77.130613
 30
0.0
 10
57.898763
 20
77.278794
 30
0.0
 10
57.135503
 20
76.891587
 30
0.0
  0
SPLINE
  5
2b9
100
AcDbEntity
  8
0
 62
7
100
AcDbSpline
 70
8
 71
3
 72
8
 73
4
 74
0
 40
0
 40
0
 40
0
 40
0
 40
1
 40
1
 40
1
 40
1
 10
57.135503
 20
76.891587
 30
0.0
 10
55.985839
 20
76.308354
 30
0.0
 10
55.782025
 20
76.529882
 30
0.0
 10
56.800840
 20
77.255341
 30
0.0
  0
SPLINE
  5
2ba
100
AcDbEntity
  8
0
 62
7
100
AcDbSpline
 70
8
 71
3
 72
8
 73
4
 74
0
 40
0
 40
0
 40
0
 40
0
 40
1
 40
1
 40
1
 40
1
 10
56.800840
 20
77.255341
 30
0.0
 10
58.207794
 20
78.257181
 30
0.0
 10
60.581051
 20
79.202523
 30
0.0
 10
62.098973
 20
79.365752
 30
0.0
  0
SPLINE
  5
2bb
100
AcDbEntity
  8
0
 62
7
100
AcDbSpline
 70
8
 71
3
 72
8
 73
4
 74
0
 40
0
 40
0
 40
0
 40
0
 40
1
 40
1
 40
1
 40
1
 10
62.098973
 20
79.365752
 30
0.0
 10
63.467906
 20
79.512960
 30
0.0
 10
63.582375
 20
79.577967
 30
0.0
 10
63.659956
 20
80.252214
 30
0.0
  0
SPLINE
  5
2bc
100
AcDbEntity
  8
0
 62
7
100
AcDbSpline
 70
8
 71
3
 72
8
 73
4
 74
0
 40
0
 40
0
 40
0
 40
0
 40
1
 40
1
 40
1
 40
1
 10
63.659956
 20
80.252214
 30
0.0
 10
63.725055
 20
80.817971
 30
0.0
 10
63.632871
 20
80.979818
 30
0.0
 10
63.245529
 20
80.979818
 30
0.0
  0
SPLINE
  5
2bd
100
AcDbEntity
  8
0
 62
7
100
AcDbSpline
 70
8
 71
3
 72
8
 73
4
 74
0
 40
0
 40
0
 40
0
 40
0
 40
1
 40
1
 40
1
 40
1
 10
63.245529
 20
80.979818
 30
0.0
 10
62.037285
 20
80.979818
 30
0.0
 10
59.501005
 20
80.351913
 30
0.0
 10
58.314095
 20
79.758947
 30
0.0
  0
SPLINE
  5
2be
100
AcDbEntity
  8
0
 62
7
100
AcDbSpline
 70
8
 71
3
 72
8
 73
4
 74
0
 40
0
 40
0
 40
0
 40
0
 40
1
 40
1
 40
1
 40
1
 10
58.314095
 20
79.758947
 30
0.0
 10
57.602729
 20
79.403557
 30
0.0
 10
56.980942
 20
79.152544
 30
0.0
 10
56.932346
 20
79.201140
 30
0.0
  0
SPLINE
  5
2bf
100
AcDbEntity
  8
0
 62
7
100
AcDbSpline
 70
8
 71
3
 72
8
 73
4
 74
0
 40
0
 40
0
 40
0
 40
0
 40
1
 40
1
 40
1
 40
1
 10
56.932346
 20
79.201140
 30
0.0
 10
56.883750
 20
79.249736
 30
0.0
 10
57.199342
 20
79.720600
 30
0.0
 10
57.633661
 20
80.247506
 30
0.0
  0
LWPOLYLINE
  5
2c0
100
AcDbEntity
  8
0
 62
7
100
AcDbPolyline
 90
3
 70
0
 10
67.620441
 20
74.879702
 30
0.0
 10
68.867904
 20
74.865004
 30
0.0
 10
68.088827
 20
74.284391
 30
0.0
  0
SPLINE
  5
2c1
100
AcDbEntity
  8
0
 62
7
100
AcDbSpline
 70
8
 71
3
 72
8
 73
4
 74
0
 40
0
 40
0
 40
0
 40
0
 40
1
 40
1
 40
1
 40
1
 10
56.948446
 20
81.389791
 30
0.0
 10
56.137257
 20
81.491142
 30
0.0
 10
53.010409
 20
81.514019
 30
0.0
 10
49.999897
 20
81.440628
 30
0.0
  0
SPLINE
  5
2c2
100
AcDbEntity
  8
0
 62
7
100
AcDbSpline
 70
8
 71
3
 72
8
 73
4
 74
0
 40
0
 40
0
 40
0
 40
0
 40
1
 40
1
 40
1
 40
1
 10
49.999897
 20
81.440628
 30
0.0
 10
43.991760
 20
81.294160
 30
0.0
 10
41.001143
 20
80.829863
 30
0.0
 10
36.589309
 20
79.358618
 30
0.0
  0
SPLINE
  5
2c3
100
AcDbEntity
  8
0
 62
7
100
AcDbSpline
 70
8
 71
3
 72
8
 73
4
 74
0
 40
0
 40
0
 40
0
 40
0
 40
1
 40
1
 40
1
 40
1
 10
36.589309
 20
79.358618
 30
0.0
 10
27.187991
 20
76.223494
 30
0.0
 10
19.682065
 20
68.973155
 30
0.0
 10
16.316940
 20
59.776553
 30
0.0
  0
SPLINE
  5
2c4
100
AcDbEntity
  8
0
 62
7
100
AcDbSpline
 70
8
 71
3
 72
8
 73
4
 74
0
 40
0
 40
0
 40
0
 40
0
 40
1
 40
1
 40
1
 40
1
 10
16.316940
 20
59.776553
 30
0.0
 10
15.142249
 20
56.566223
 30
0.0
 10
14.759899
 20
54.172628
 30
0.0
 10
14.765852
 20
50.066440
 30
0.0
  0
SPLINE
  5
2c5
100
AcDbEntity
  8
0
 62
7
100
AcDbSpline
 70
8
 71
3
 72
8
 73
4
 74
0
 40
0
 40
0
 40
0
 40
0
 40
1
 40
1
 40
1
 40
1
 10
14.765852
 20
50.066440
 30
0.0
 10
14.771647
 20
46.065379
 30
0.0
 10
15.030608
 20
43.786700
 30
0.0
 10
15.835214
 20
40.656600
 30
0.0
  0
SPLINE
  5
2c6
100
AcDbEntity
  8
0
 62
7
100
AcDbSpline
 70
8
 71
3
 72
8
 73
4
 74
0
 40
0
 40
0
 40
0
 40
0
 40
1
 40
1
 40
1
 40
1
 10
15.835214
 20
40.656600
 30
0.0
 10
17.508817
 20
34.145879
 30
0.0
 10
20.177031
 20
30.181897
 30
0.0
 10
25.410090
 20
26.431859
 30
0.0
  0
SPLINE
  5
2c7
100
AcDbEntity
  8
0
 62
7
100
AcDbSpline
 70
8
 71
3
 72
8
 73
4
 74
0
 40
0
 40
0
 40
0
 40
0
 40
1
 40
1
 40
1
 40
1
 10
25.410090
 20
26.431859
 30
0.0
 10
26.478391
 20
25.666308
 30
0.0
 10
26.384678
 20
26.468872
 30
0.0
 10
25.277798
 20
27.564818
 30
0.0
  0
SPLINE
  5
2c8
100
AcDbEntity
  8
0
 62
7
100
AcDbSpline
 70
8
 71
3
 72
8
 73
4
 74
0
 40
0
 40
0
 40
0
 40
0
 40
1
 40
1
 40
1
 40
1
 10
25.277798
 20
27.564818
 30
0.0
 10
24.804856
 20
28.033088
 30
0.0
 10
24.622688
 20
28.265636
 30
0.0
 10
24.872983
 20
28.081589
 30
0.0
  0
SPLINE
  5
2c9
100
AcDbEntity
  8
0
 62
7
100
AcDbSpline
 70
8
 71
3
 72
8
 73
4
 74
0
 40
0
 40
0
 40
0
 40
0
 40
1
 40
1
 40
1
 40
1
 10
24.872983
 20
28.081589
 30
0.0
 10
25.123277
 20
27.897540
 30
0.0
 10
25.659058
 20
27.723256
 30
0.0
 10
26.063608
 20
27.694292
 30
0.0
  0
SPLINE
  5
2ca
100
AcDbEntity
  8
0
 62
7
100
AcDbSpline
 70
8
 71
3
 72
8
 73
4
 74
0
 40
0
 40
0
 40
0
 40
0
 40
1
 40
1
 40
1
 40
1
 10
26.063608
 20
27.694292
 30
0.0
 10
26.972220
 20
27.629234
 30
0.0
 10
31.712048
 20
24.479202
 30
0.0
 10
31.882585
 20
23.827073
 30
0.0
  0
SPLINE
  5
2cb
100
AcDbEntity
  8
0
 62
7
100
AcDbSpline
 70
8
 71
3
 72
8
 73
4
 74
0
 40
0
 40
0
 40
0
 40
0
 40
1
 40
1
 40
1
 40
1
 10
31.882585
 20
23.827073
 30
0.0
 10
31.950893
 20
23.565858
 30
0.0
 10
33.186550
 20
22.613665
 30
0.0
 10
34.628489
 20
21.711087
 30
0.0
  0
SPLINE
  5
2cc
100
AcDbEntity
  8
0
 62
7
100
AcDbSpline
 70
8
 71
3
 72
8
 73
4
 74
0
 40
0
 40
0
 40
0
 40
0
 40
1
 40
1
 40
1
 40
1
 10
34.628489
 20
21.711087
 30
0.0
 10
36.070426
 20
20.808508
 30
0.0
 10
37.250195
 20
20.021013
 30
0.0
 10
37.250195
 20
19.961095
 30
0.0
  0
SPLINE
  5
2cd
100
AcDbEntity
  8
0
 62
7
100
AcDbSpline
 70
8
 71
3
 72
8
 73
4
 74
0
 40
0
 40
0
 40
0
 40
0
 40
1
 40
1
 40
1
 40
1
 10
37.250195
 20
19.961095
 30
0.0
 10
37.250195
 20
19.811852
 30
0.0
 10
34.708775
 20
21.111435
 30
0.0
 10
33.464169
 20
21.897120
 30
0.0
  0
SPLINE
  5
2ce
100
AcDbEntity
  8
0
 62
7
100
AcDbSpline
 70
8
 71
3
 72
8
 73
4
 74
0
 40
0
 40
0
 40
0
 40
0
 40
1
 40
1
 40
1
 40
1
 10
33.464169
 20
21.897120
 30
0.0
 10
32.905750
 20
22.249635
 30
0.0
 10
32.312756
 20
22.492687
 30
0.0
 10
32.146407
 20
22.437238
 30
0.0
  0
SPLINE
  5
2cf
100
AcDbEntity
  8
0
 62
7
100
AcDbSpline
 70
8
 71
3
 72
8
 73
4
 74
0
 40
0
 40
0
 40
0
 40
0
 40
1
 40
1
 40
1
 40
1
 10
32.146407
 20
22.437238
 30
0.0
 10
31.980055
 20
22.381787
 30
0.0
 10
33.090123
 20
21.643795
 30
0.0
 10
34.613218
 20
20.797255
 30
0.0
  0
SPLINE
  5
2d0
100
AcDbEntity
  8
0
 62
7
100
AcDbSpline
 70
8
 71
3
 72
8
 73
4
 74
0
 40
0
 40
0
 40
0
 40
0
 40
1
 40
1
 40
1
 40
1
 10
34.613218
 20
20.797255
 30
0.0
 10
39.369802
 20
18.153536
 30
0.0
 10
41.439494
 20
16.885737
 30
0.0
 10
42.702131
 20
15.842356
 30
0.0
  0
SPLINE
  5
2d1
100
AcDbEntity
  8
0
 62
7
100
AcDbSpline
 70
8
 71
3
 72
8
 73
4
 74
0
 40
0
 40
0
 40
0
 40
0
 40
1
 40
1
 40
1
 40
1
 10
42.702131
 20
15.842356
 30
0.0
 10
44.082036
 20
14.702068
 30
0.0
 10
44.138032
 20
14.688058
 30
0.0
 10
45.174278
 20
15.223924
 30
0.0
  0
LWPOLYLINE
  5
2d2
100
AcDbEntity
  8
0
 62
7
100
AcDbPolyline
 90
3
 70
0
 10
57.633661
 20
80.247506
 30
0.0
 10
58.423334
 20
81.205516
 30
0.0
 10
56.948446
 20
81.389791
 30
0.0
  0
SPLINE
  5
2d3
100
AcDbEntity
  8
0
 62
7
100
AcDbSpline
 70
8
 71
3
 72
8
 73
4
 74
0
 40
0
 40
0
 40
0
 40
0
 40
1
 40
1
 40
1
 40
1
 10
70.802669
 20
37.504309
 30
0.0
 10
70.993664
 20
37.580739
 30
0.0
 10
71.221870
 20
37.571341
 30
0.0
 10
71.309788
 20
37.483434
 30
0.0
  0
SPLINE
  5
2d4
100
AcDbEntity
  8
0
 62
7
100
AcDbSpline
 70
8
 71
3
 72
8
 73
4
 74
0
 40
0
 40
0
 40
0
 40
0
 40
1
 40
1
 40
1
 40
1
 10
71.309788
 20
37.483434
 30
0.0
 10
71.397707
 20
37.395515
 30
0.0
 10
71.241436
 20
37.332981
 30
0.0
 10
70.962523
 20
37.344469
 30
0.0
  0
SPLINE
  5
2d5
100
AcDbEntity
  8
0
 62
7
100
AcDbSpline
 70
8
 71
3
 72
8
 73
4
 74
0
 40
0
 40
0
 40
0
 40
0
 40
1
 40
1
 40
1
 40
1
 10
70.962523
 20
37.344469
 30
0.0
 10
70.654296
 20
37.357169
 30
0.0
 10
70.591603
 20
37.419859
 30
0.0
 10
70.802669
 20
37.504320
 30
0.0
  0
LWPOLYLINE
  5
2d6
100
AcDbEntity
  8
0
 62
7
100
AcDbPolyline
 90
1
 70
1
 10
45.174278
 20
15.223924
 30
0.0
  0
SPLINE
  5
2d7
100
AcDbEntity
  8
0
 62
7
100
AcDbSpline
 70
8
 71
3
 72
8
 73
4
 74
0
 40
0
 40
0
 40
0
 40
0
 40
1
 40
1
 40
1
 40
1
 10
73.133061
 20
37.547579
 30
0.0
 10
73.732647
 20
37.657204
 30
0.0
 10
74.566084
 20
37.963660
 30
0.0
 10
74.985144
 20
38.228590
 30
0.0
  0
LWPOLYLINE
  5
2d8
100
AcDbEntity
  8
0
 62
7
100
AcDbPolyline
 90
1
 70
1
 10
70.802669
 20
37.504320
 30
0.0
  0
SPLINE
  5
2d9
100
AcDbEntity
  8
0
 62
7
100
AcDbSpline
 70
8
 71
3
 72
8
 73
4
 74
0
 40
0
 40
0
 40
0
 40
0
 40
1
 40
1
 40
1
 40
1
 10
75.181394
 20
38.120055
 30
0.0
 10
74.784193
 20
37.705620
 30
0.0
 10
74.232585
 20
37.502793
 30
0.0
 10
73.329311
 20
37.439044
 30
0.0
  0
SPLINE
  5
2da
100
AcDbEntity
  8
0
 62
7
100
AcDbSpline
 70
8
 71
3
 72
8
 73
4
 74
0
 40
0
 40
0
 40
0
 40
0
 40
1
 40
1
 40
1
 40
1
 10
73.329311
 20
37.439044
 30
0.0
 10
72.053379
 20
37.348996
 30
0.0
 10
72.051780
 20
37.349882
 30
0.0
 10
73.133061
 20
37.547579
 30
0.0
  0
LWPOLYLINE
  5
2db
100
AcDbEntity
  8
0
 62
7
100
AcDbPolyline
 90
3
 70
0
 10
74.985144
 20
38.228590
 30
0.0
 10
75.747070
 20
38.710280
 30
0.0
 10
75.181394
 20
38.120055
 30
0.0
  0
SPLINE
  5
2dc
100
AcDbEntity
  8
0
 62
7
100
AcDbSpline
 70
8
 71
3
 72
8
 73
4
 74
0
 40
0
 40
0
 40
0
 40
0
 40
1
 40
1
 40
1
 40
1
 10
55.163376
 20
41.981080
 30
0.0
 10
54.018947
 20
42.872700
 30
0.0
 10
52.853214
 20
44.680439
 30
0.0
 10
52.866422
 20
45.543041
 30
0.0
  0
SPLINE
  5
2dd
100
AcDbEntity
  8
0
 62
7
100
AcDbSpline
 70
8
 71
3
 72
8
 73
4
 74
0
 40
0
 40
0
 40
0
 40
0
 40
1
 40
1
 40
1
 40
1
 10
52.866422
 20
45.543041
 30
0.0
 10
52.869624
 20
45.751761
 30
0.0
 10
53.114874
 20
45.386747
 30
0.0
 10
53.411435
 20
44.731903
 30
0.0
  0
SPLINE
  5
2de
100
AcDbEntity
  8
0
 62
7
100
AcDbSpline
 70
8
 71
3
 72
8
 73
4
 74
0
 40
0
 40
0
 40
0
 40
0
 40
1
 40
1
 40
1
 40
1
 10
53.411435
 20
44.731903
 30
0.0
 10
53.707993
 20
44.077059
 30
0.0
 10
54.552350
 20
42.975731
 30
0.0
 10
55.287780
 20
42.284507
 30
0.0
  0
SPLINE
  5
2df
100
AcDbEntity
  8
0
 62
7
100
AcDbSpline
 70
8
 71
3
 72
8
 73
4
 74
0
 40
0
 40
0
 40
0
 40
0
 40
1
 40
1
 40
1
 40
1
 10
55.287780
 20
42.284507
 30
0.0
 10
56.882567
 20
40.785582
 30
0.0
 10
56.837847
 20
40.676513
 30
0.0
 10
55.163376
 20
41.981080
 30
0.0
  0
LWPOLYLINE
  5
2e0
100
AcDbEntity
  8
0
 62
7
100
AcDbPolyline
 90
1
 70
1
 10
73.133061
 20
37.547579
 30
0.0
  0
SPLINE
  5
2e1
100
AcDbEntity
  8
0
 62
7
100
AcDbSpline
 70
8
 71
3
 72
8
 73
4
 74
0
 40
0
 40
0
 40
0
 40
0
 40
1
 40
1
 40
1
 40
1
 10
63.047070
 20
47.278462
 30
0.0
 10
62.571320
 20
47.683304
 30
0.0
 10
62.474038
 20
47.844279
 30
0.0
 10
62.804246
 20
47.680266
 30
0.0
  0
SPLINE
  5
2e2
100
AcDbEntity
  8
0
 62
7
100
AcDbSpline
 70
8
 71
3
 72
8
 73
4
 74
0
 40
0
 40
0
 40
0
 40
0
 40
1
 40
1
 40
1
 40
1
 10
62.804246
 20
47.680266
 30
0.0
 10
63.289241
 20
47.439376
 30
0.0
 10
64.198926
 20
46.568439
 30
0.0
 10
63.939362
 20
46.593501
 30
0.0
  0
SPLINE
  5
2e3
100
AcDbEntity
  8
0
 62
7
100
AcDbSpline
 70
8
 71
3
 72
8
 73
4
 74
0
 40
0
 40
0
 40
0
 40
0
 40
1
 40
1
 40
1
 40
1
 10
63.939362
 20
46.593501
 30
0.0
 10
63.885165
 20
46.598739
 30
0.0
 10
63.483633
 20
46.906968
 30
0.0
 10
63.047070
 20
47.278462
 30
0.0
  0
LWPOLYLINE
  5
2e4
100
AcDbEntity
  8
0
 62
7
100
AcDbPolyline
 90
1
 70
1
 10
55.163376
 20
41.981080
 30
0.0
  0
SPLINE
  5
2e5
100
AcDbEntity
  8
0
 62
7
100
AcDbSpline
 70
8
 71
3
 72
8
 73
4
 74
0
 40
0
 40
0
 40
0
 40
0
 40
1
 40
1
 40
1
 40
1
 10
69.926237
 20
48.269824
 30
0.0
 10
69.489675
 20
48.611724
 30
0.0
 10
68.656237
 20
49.140922
 30
0.0
 10
68.074154
 20
49.445820
 30
0.0
  0
SPLINE
  5
2e6
100
AcDbEntity
  8
0
 62
7
100
AcDbSpline
 70
8
 71
3
 72
8
 73
4
 74
0
 40
0
 40
0
 40
0
 40
0
 40
1
 40
1
 40
1
 40
1
 10
68.074154
 20
49.445820
 30
0.0
 10
67.492070
 20
49.750721
 30
0.0
 10
67.170369
 20
50.005446
 30
0.0
 10
67.359260
 20
50.011875
 30
0.0
  0
SPLINE
  5
2e7
100
AcDbEntity
  8
0
 62
7
100
AcDbSpline
 70
8
 71
3
 72
8
 73
4
 74
0
 40
0
 40
0
 40
0
 40
0
 40
1
 40
1
 40
1
 40
1
 10
67.359260
 20
50.011875
 30
0.0
 10
67.757424
 20
50.025422
 30
0.0
 10
70.443947
 20
48.353543
 30
0.0
 10
70.706419
 20
47.928858
 30
0.0
  0
SPLINE
  5
2e8
100
AcDbEntity
  8
0
 62
7
100
AcDbSpline
 70
8
 71
3
 72
8
 73
4
 74
0
 40
0
 40
0
 40
0
 40
0
 40
1
 40
1
 40
1
 40
1
 10
70.706419
 20
47.928858
 30
0.0
 10
70.965965
 20
47.508903
 30
0.0
 10
70.811816
 20
47.576272
 30
0.0
 10
69.926237
 20
48.269824
 30
0.0
  0
LWPOLYLINE
  5
2e9
100
AcDbEntity
  8
0
 62
7
100
AcDbPolyline
 90
1
 70
1
 10
63.047070
 20
47.278462
 30
0.0
  0
LWPOLYLINE
  5
2ea
100
AcDbEntity
  8
0
 62
7
100
AcDbPolyline
 90
1
 70
1
 10
69.926237
 20
48.269824
 30
0.0
  0
SPLINE
  5
2eb
100
AcDbEntity
  8
0
 62
7
100
AcDbSpline
 70
8
 71
3
 72
8
 73
4
 74
0
 40
0
 40
0
 40
0
 40
0
 40
1
 40
1
 40
1
 40
1
 10
60.401237
 20
48.829320
 30
0.0
 10
60.837800
 20
48.737957
 30
0.0
 10
61.308096
 20
48.552571
 30
0.0
 10
61.446341
 20
48.417348
 30
0.0
  0
SPLINE
  5
2ec
100
AcDbEntity
  8
0
 62
7
100
AcDbSpline
 70
8
 71
3
 72
8
 73
4
 74
0
 40
0
 40
0
 40
0
 40
0
 40
1
 40
1
 40
1
 40
1
 10
61.446341
 20
48.417348
 30
0.0
 10
61.854016
 20
48.018584
 30
0.0
 10
61.004368
 20
48.145218
 30
0.0
 10
60.268945
 20
48.592833
 30
0.0
  0
LWPOLYLINE
  5
2ed
100
AcDbEntity
  8
0
 62
7
100
AcDbPolyline
 90
3
 70
0
 10
60.268945
 20
48.592833
 30
0.0
 10
59.607487
 20
48.995431
 30
0.0
 10
60.401237
 20
48.829320
 30
0.0
  0
SPLINE
  5
2ee
100
AcDbEntity
  8
0
 62
7
100
AcDbSpline
 70
8
 71
3
 72
8
 73
4
 74
0
 40
0
 40
0
 40
0
 40
0
 40
1
 40
1
 40
1
 40
1
 10
46.709050
 20
49.515596
 30
0.0
 10
46.009573
 20
49.923004
 30
0.0
 10
46.140195
 20
50.371441
 30
0.0
 10
47.328778
 20
51.643187
 30
0.0
  0
LWPOLYLINE
  5
2ef
100
AcDbEntity
  8
0
 62
7
100
AcDbPolyline
 90
1
 70
1
 10
60.268945
 20
48.592833
 30
0.0
  0
SPLINE
  5
2f0
100
AcDbEntity
  8
0
 62
7
100
AcDbSpline
 70
8
 71
3
 72
8
 73
4
 74
0
 40
0
 40
0
 40
0
 40
0
 40
1
 40
1
 40
1
 40
1
 10
47.593361
 20
51.625093
 30
0.0
 10
47.143368
 20
50.977961
 30
0.0
 10
46.775195
 20
50.310267
 30
0.0
 10
46.775195
 20
50.141330
 30
0.0
  0
SPLINE
  5
2f1
100
AcDbEntity
  8
0
 62
7
100
AcDbSpline
 70
8
 71
3
 72
8
 73
4
 74
0
 40
0
 40
0
 40
0
 40
0
 40
1
 40
1
 40
1
 40
1
 10
46.775195
 20
50.141330
 30
0.0
 10
46.775195
 20
49.972394
 30
0.0
 10
47.281211
 20
49.712491
 30
0.0
 10
47.899675
 20
49.563769
 30
0.0
  0
LWPOLYLINE
  5
2f2
100
AcDbEntity
  8
0
 62
7
100
AcDbPolyline
 90
3
 70
0
 10
47.328778
 20
51.643187
 30
0.0
 10
48.411524
 20
52.801695
 30
0.0
 10
47.593361
 20
51.625093
 30
0.0
  0
SPLINE
  5
2f3
100
AcDbEntity
  8
0
 62
7
100
AcDbSpline
 70
8
 71
3
 72
8
 73
4
 74
0
 40
0
 40
0
 40
0
 40
0
 40
1
 40
1
 40
1
 40
1
 10
48.098112
 20
49.269634
 30
0.0
 10
47.588789
 20
49.256590
 30
0.0
 10
46.963711
 20
49.367263
 30
0.0
 10
46.709050
 20
49.515591
 30
0.0
  0
LWPOLYLINE
  5
2f4
100
AcDbEntity
  8
0
 62
7
100
AcDbPolyline
 90
3
 70
0
 10
47.899675
 20
49.563769
 30
0.0
 10
49.024154
 20
49.293367
 30
0.0
 10
48.098112
 20
49.269634
 30
0.0
  0
SPLINE
  5
2f5
100
AcDbEntity
  8
0
 62
7
100
AcDbSpline
 70
8
 71
3
 72
8
 73
4
 74
0
 40
0
 40
0
 40
0
 40
0
 40
1
 40
1
 40
1
 40
1
 10
66.023633
 20
50.198798
 30
0.0
 10
66.205534
 20
50.272196
 30
0.0
 10
66.503190
 20
50.272196
 30
0.0
 10
66.685091
 20
50.198798
 30
0.0
  0
SPLINE
  5
2f6
100
AcDbEntity
  8
0
 62
7
100
AcDbSpline
 70
8
 71
3
 72
8
 73
4
 74
0
 40
0
 40
0
 40
0
 40
0
 40
1
 40
1
 40
1
 40
1
 10
66.685091
 20
50.198798
 30
0.0
 10
66.866992
 20
50.125400
 30
0.0
 10
66.718164
 20
50.065345
 30
0.0
 10
66.354362
 20
50.065345
 30
0.0
  0
SPLINE
  5
2f7
100
AcDbEntity
  8
0
 62
7
100
AcDbSpline
 70
8
 71
3
 72
8
 73
4
 74
0
 40
0
 40
0
 40
0
 40
0
 40
1
 40
1
 40
1
 40
1
 10
66.354362
 20
50.065345
 30
0.0
 10
65.990560
 20
50.065345
 30
0.0
 10
65.841732
 20
50.125400
 30
0.0
 10
66.023633
 20
50.198798
 30
0.0
  0
LWPOLYLINE
  5
2f8
100
AcDbEntity
  8
0
 62
7
100
AcDbPolyline
 90
1
 70
1
 10
46.709050
 20
49.515591
 30
0.0
  0
SPLINE
  5
2f9
100
AcDbEntity
  8
0
 62
7
100
AcDbSpline
 70
8
 71
3
 72
8
 73
4
 74
0
 40
0
 40
0
 40
0
 40
0
 40
1
 40
1
 40
1
 40
1
 10
68.346143
 20
54.389195
 30
0.0
 10
68.528504
 20
55.287778
 30
0.0
 10
69.639810
 20
57.305411
 30
0.0
 10
70.113702
 20
57.598294
 30
0.0
  0
SPLINE
  5
2fa
100
AcDbEntity
  8
0
 62
7
100
AcDbSpline
 70
8
 71
3
 72
8
 73
4
 74
0
 40
0
 40
0
 40
0
 40
0
 40
1
 40
1
 40
1
 40
1
 10
70.113702
 20
57.598294
 30
0.0
 10
70.286115
 20
57.704852
 30
0.0
 10
70.150254
 20
57.403124
 30
0.0
 10
69.811786
 20
56.927790
 30
0.0
  0
SPLINE
  5
2fb
100
AcDbEntity
  8
0
 62
7
100
AcDbSpline
 70
8
 71
3
 72
8
 73
4
 74
0
 40
0
 40
0
 40
0
 40
0
 40
1
 40
1
 40
1
 40
1
 10
69.811786
 20
56.927790
 30
0.0
 10
69.473318
 20
56.452455
 30
0.0
 10
68.968840
 20
55.508223
 30
0.0
 10
68.690723
 20
54.829496
 30
0.0
  0
SPLINE
  5
2fc
100
AcDbEntity
  8
0
 62
7
100
AcDbSpline
 70
8
 71
3
 72
8
 73
4
 74
0
 40
0
 40
0
 40
0
 40
0
 40
1
 40
1
 40
1
 40
1
 10
68.690723
 20
54.829496
 30
0.0
 10
68.362068
 20
54.027432
 30
0.0
 10
68.241447
 20
53.873302
 30
0.0
 10
68.346143
 20
54.389195
 30
0.0
  0
LWPOLYLINE
  5
2fd
100
AcDbEntity
  8
0
 62
7
100
AcDbPolyline
 90
1
 70
1
 10
66.023633
 20
50.198798
 30
0.0
  0
SPLINE
  5
2fe
100
AcDbEntity
  8
0
 62
7
100
AcDbSpline
 70
8
 71
3
 72
8
 73
4
 74
0
 40
0
 40
0
 40
0
 40
0
 40
1
 40
1
 40
1
 40
1
 10
48.539085
 20
56.020793
 30
0.0
 10
48.173013
 20
56.386862
 30
0.0
 10
48.383883
 20
57.368620
 30
0.0
 10
48.932820
 20
57.853916
 30
0.0
  0
LWPOLYLINE
  5
2ff
100
AcDbEntity
  8
0
 62
7
100
AcDbPolyline
 90
1
 70
1
 10
68.346143
 20
54.389195
 30
0.0
  0
SPLINE
  5
300
100
AcDbEntity
  8
0
 62
7
100
AcDbSpline
 70
8
 71
3
 72
8
 73
4
 74
0
 40
0
 40
0
 40
0
 40
0
 40
1
 40
1
 40
1
 40
1
 10
49.043169
 20
57.643294
 30
0.0
 10
48.766651
 20
57.213487
 30
0.0
 10
48.651975
 20
56.712570
 30
0.0
 10
48.755459
 20
56.386524
 30
0.0
  0
SPLINE
  5
301
100
AcDbEntity
  8
0
 62
7
100
AcDbSpline
 70
8
 71
3
 72
8
 73
4
 74
0
 40
0
 40
0
 40
0
 40
0
 40
1
 40
1
 40
1
 40
1
 10
48.755459
 20
56.386524
 30
0.0
 10
48.930938
 20
55.833640
 30
0.0
 10
48.854849
 20
55.705028
 30
0.0
 10
48.539085
 20
56.020793
 30
0.0
  0
LWPOLYLINE
  5
302
100
AcDbEntity
  8
0
 62
7
100
AcDbPolyline
 90
3
 70
0
 10
48.932820
 20
57.853916
 30
0.0
 10
49.502944
 20
58.357945
 30
0.0
 10
49.043169
 20
57.643294
 30
0.0
  0
SPLINE
  5
303
100
AcDbEntity
  8
0
 62
7
100
AcDbSpline
 70
8
 71
3
 72
8
 73
4
 74
0
 40
0
 40
0
 40
0
 40
0
 40
1
 40
1
 40
1
 40
1
 10
73.816845
 20
59.350132
 30
0.0
 10
74.025620
 20
59.677554
 30
0.0
 10
74.821211
 20
60.987242
 30
0.0
 10
75.584825
 20
62.260549
 30
0.0
  0
SPLINE
  5
304
100
AcDbEntity
  8
0
 62
7
100
AcDbSpline
 70
8
 71
3
 72
8
 73
4
 74
0
 40
0
 40
0
 40
0
 40
0
 40
1
 40
1
 40
1
 40
1
 10
75.584825
 20
62.260549
 30
0.0
 10
76.348439
 20
63.533856
 30
0.0
 10
77.028942
 20
64.575653
 30
0.0
 10
77.097057
 20
64.575653
 30
0.0
  0
SPLINE
  5
305
100
AcDbEntity
  8
0
 62
7
100
AcDbSpline
 70
8
 71
3
 72
8
 73
4
 74
0
 40
0
 40
0
 40
0
 40
0
 40
1
 40
1
 40
1
 40
1
 10
77.097057
 20
64.575653
 30
0.0
 10
77.283979
 20
64.575653
 30
0.0
 10
76.760358
 20
63.626862
 30
0.0
 10
75.162299
 20
61.069924
 30
0.0
  0
SPLINE
  5
306
100
AcDbEntity
  8
0
 62
7
100
AcDbSpline
 70
8
 71
3
 72
8
 73
4
 74
0
 40
0
 40
0
 40
0
 40
0
 40
1
 40
1
 40
1
 40
1
 10
75.162299
 20
61.069924
 30
0.0
 10
74.366496
 20
59.796617
 30
0.0
 10
73.652806
 20
58.754820
 30
0.0
 10
73.576320
 20
58.754820
 30
0.0
  0
SPLINE
  5
307
100
AcDbEntity
  8
0
 62
7
100
AcDbSpline
 70
8
 71
3
 72
8
 73
4
 74
0
 40
0
 40
0
 40
0
 40
0
 40
1
 40
1
 40
1
 40
1
 10
73.576320
 20
58.754820
 30
0.0
 10
73.499832
 20
58.754820
 30
0.0
 10
73.608068
 20
59.022710
 30
0.0
 10
73.816845
 20
59.350132
 30
0.0
  0
LWPOLYLINE
  5
308
100
AcDbEntity
  8
0
 62
7
100
AcDbPolyline
 90
1
 70
1
 10
48.539085
 20
56.020793
 30
0.0
  0
SPLINE
  5
309
100
AcDbEntity
  8
0
 62
7
100
AcDbSpline
 70
8
 71
3
 72
8
 73
4
 74
0
 40
0
 40
0
 40
0
 40
0
 40
1
 40
1
 40
1
 40
1
 10
54.741268
 20
65.439449
 30
0.0
 10
54.393179
 20
65.619204
 30
0.0
 10
53.916929
 20
66.061468
 30
0.0
 10
53.682934
 20
66.422257
 30
0.0
  0
LWPOLYLINE
  5
30a
100
AcDbEntity
  8
0
 62
7
100
AcDbPolyline
 90
1
 70
1
 10
73.816845
 20
59.350132
 30
0.0
  0
SPLINE
  5
30b
100
AcDbEntity
  8
0
 62
7
100
AcDbSpline
 70
8
 71
3
 72
8
 73
4
 74
0
 40
0
 40
0
 40
0
 40
0
 40
1
 40
1
 40
1
 40
1
 10
54.151186
 20
66.446315
 30
0.0
 10
55.205416
 20
65.700889
 30
0.0
 10
57.202284
 20
65.435520
 30
0.0
 10
58.459473
 20
65.873778
 30
0.0
  0
SPLINE
  5
30c
100
AcDbEntity
  8
0
 62
7
100
AcDbSpline
 70
8
 71
3
 72
8
 73
4
 74
0
 40
0
 40
0
 40
0
 40
0
 40
1
 40
1
 40
1
 40
1
 10
58.459473
 20
65.873778
 30
0.0
 10
58.938716
 20
66.040844
 30
0.0
 10
59.214480
 20
66.071485
 30
0.0
 10
59.072280
 20
65.941869
 30
0.0
  0
SPLINE
  5
30d
100
AcDbEntity
  8
0
 62
7
100
AcDbSpline
 70
8
 71
3
 72
8
 73
4
 74
0
 40
0
 40
0
 40
0
 40
0
 40
1
 40
1
 40
1
 40
1
 10
59.072280
 20
65.941869
 30
0.0
 10
58.226478
 20
65.170920
 30
0.0
 10
55.805173
 20
64.890036
 30
0.0
 10
54.741268
 20
65.439449
 30
0.0
  0
LWPOLYLINE
  5
30e
100
AcDbEntity
  8
0
 62
7
100
AcDbPolyline
 90
3
 70
0
 10
53.682934
 20
66.422257
 30
0.0
 10
53.257487
 20
67.078236
 30
0.0
 10
54.151186
 20
66.446315
 30
0.0
  0
SPLINE
  5
30f
100
AcDbEntity
  8
0
 62
7
100
AcDbSpline
 70
8
 71
3
 72
8
 73
4
 74
0
 40
0
 40
0
 40
0
 40
0
 40
1
 40
1
 40
1
 40
1
 10
23.211133
 20
69.742126
 30
0.0
 10
28.083214
 20
75.681274
 30
0.0
 10
37.581978
 20
80.151119
 30
0.0
 10
46.775195
 20
80.830695
 30
0.0
  0
LWPOLYLINE
  5
310
100
AcDbEntity
  8
0
 62
7
100
AcDbPolyline
 90
1
 70
1
 10
54.741268
 20
65.439449
 30
0.0
  0
SPLINE
  5
311
100
AcDbEntity
  8
0
 62
7
100
AcDbSpline
 70
8
 71
3
 72
8
 73
4
 74
0
 40
0
 40
0
 40
0
 40
0
 40
1
 40
1
 40
1
 40
1
 10
46.113737
 20
80.481552
 30
0.0
 10
36.985620
 20
78.770935
 30
0.0
 10
29.656651
 20
75.429900
 30
0.0
 10
24.296684
 20
70.535876
 30
0.0
  0
SPLINE
  5
312
100
AcDbEntity
  8
0
 62
7
100
AcDbSpline
 70
8
 71
3
 72
8
 73
4
 74
0
 40
0
 40
0
 40
0
 40
0
 40
1
 40
1
 40
1
 40
1
 10
24.296684
 20
70.535876
 30
0.0
 10
23.344708
 20
69.666656
 30
0.0
 10
22.856210
 20
69.309469
 30
0.0
 10
23.211133
 20
69.742126
 30
0.0
  0
LWPOLYLINE
  5
313
100
AcDbEntity
  8
0
 62
7
100
AcDbPolyline
 90
3
 70
0
 10
46.775195
 20
80.830695
 30
0.0
 10
48.759570
 20
80.977383
 30
0.0
 10
46.113737
 20
80.481552
 30
0.0
  0
SPLINE
  5
314
100
AcDbEntity
  8
0
 62
7
100
AcDbSpline
 70
8
 71
3
 72
8
 73
4
 74
0
 40
0
 40
0
 40
0
 40
0
 40
1
 40
1
 40
1
 40
1
 10
74.291862
 20
70.131901
 30
0.0
 10
74.510143
 20
70.272965
 30
0.0
 10
74.807800
 20
70.388381
 30
0.0
 10
74.953320
 20
70.388381
 30
0.0
  0
SPLINE
  5
315
100
AcDbEntity
  8
0
 62
7
100
AcDbSpline
 70
8
 71
3
 72
8
 73
4
 74
0
 40
0
 40
0
 40
0
 40
0
 40
1
 40
1
 40
1
 40
1
 10
74.953320
 20
70.388381
 30
0.0
 10
75.098841
 20
70.388381
 30
0.0
 10
75.039310
 20
70.272965
 30
0.0
 10
74.821029
 20
70.131901
 30
0.0
  0
SPLINE
  5
316
100
AcDbEntity
  8
0
 62
7
100
AcDbSpline
 70
8
 71
3
 72
8
 73
4
 74
0
 40
0
 40
0
 40
0
 40
0
 40
1
 40
1
 40
1
 40
1
 10
74.821029
 20
70.131901
 30
0.0
 10
74.602747
 20
69.990837
 30
0.0
 10
74.305091
 20
69.875421
 30
0.0
 10
74.159570
 20
69.875421
 30
0.0
  0
SPLINE
  5
317
100
AcDbEntity
  8
0
 62
7
100
AcDbSpline
 70
8
 71
3
 72
8
 73
4
 74
0
 40
0
 40
0
 40
0
 40
0
 40
1
 40
1
 40
1
 40
1
 10
74.159570
 20
69.875421
 30
0.0
 10
74.014050
 20
69.875421
 30
0.0
 10
74.073581
 20
69.990837
 30
0.0
 10
74.291862
 20
70.131901
 30
0.0
  0
LWPOLYLINE
  5
318
100
AcDbEntity
  8
0
 62
7
100
AcDbPolyline
 90
1
 70
1
 10
23.211133
 20
69.742126
 30
0.0
  0
SPLINE
  5
319
100
AcDbEntity
  8
0
 62
7
100
AcDbSpline
 70
8
 71
3
 72
8
 73
4
 74
0
 40
0
 40
0
 40
0
 40
0
 40
1
 40
1
 40
1
 40
1
 10
78.260612
 20
70.661068
 30
0.0
 10
78.022146
 20
70.815177
 30
0.0
 10
77.989512
 20
70.919165
 30
0.0
 10
78.178851
 20
70.921600
 30
0.0
  0
SPLINE
  5
31a
100
AcDbEntity
  8
0
 62
7
100
AcDbSpline
 70
8
 71
3
 72
8
 73
4
 74
0
 40
0
 40
0
 40
0
 40
0
 40
1
 40
1
 40
1
 40
1
 10
78.178851
 20
70.921600
 30
0.0
 10
78.352163
 20
70.923822
 30
0.0
 10
78.567550
 20
70.806589
 30
0.0
 10
78.657487
 20
70.661068
 30
0.0
  0
SPLINE
  5
31b
100
AcDbEntity
  8
0
 62
7
100
AcDbSpline
 70
8
 71
3
 72
8
 73
4
 74
0
 40
0
 40
0
 40
0
 40
0
 40
1
 40
1
 40
1
 40
1
 10
78.657487
 20
70.661068
 30
0.0
 10
78.860502
 20
70.332581
 30
0.0
 10
78.768908
 20
70.332581
 30
0.0
 10
78.260612
 20
70.661068
 30
0.0
  0
LWPOLYLINE
  5
31c
100
AcDbEntity
  8
0
 62
7
100
AcDbPolyline
 90
1
 70
1
 10
74.291862
 20
70.131901
 30
0.0
  0
SPLINE
  5
31d
100
AcDbEntity
  8
0
 62
7
100
AcDbSpline
 70
8
 71
3
 72
8
 73
4
 74
0
 40
0
 40
0
 40
0
 40
0
 40
1
 40
1
 40
1
 40
1
 10
4.711882
 20
22.794180
 30
0.0
 10
4.277602
 20
23.582064
 30
0.0
 10
3.920124
 20
24.133440
 30
0.0
 10
3.917486
 20
24.019462
 30
0.0
  0
SPLINE
  5
31e
100
AcDbEntity
  8
0
 62
7
100
AcDbSpline
 70
8
 71
3
 72
8
 73
4
 74
0
 40
0
 40
0
 40
0
 40
0
 40
1
 40
1
 40
1
 40
1
 10
3.917486
 20
24.019462
 30
0.0
 10
3.909548
 20
23.676057
 30
0.0
 10
5.262231
 20
21.122410
 30
0.0
 10
5.386336
 20
21.246518
 30
0.0
  0
SPLINE
  5
31f
100
AcDbEntity
  8
0
 62
7
100
AcDbSpline
 70
8
 71
3
 72
8
 73
4
 74
0
 40
0
 40
0
 40
0
 40
0
 40
1
 40
1
 40
1
 40
1
 10
5.386336
 20
21.246518
 30
0.0
 10
5.449667
 20
21.309849
 30
0.0
 10
5.146163
 20
22.006298
 30
0.0
 10
4.711882
 20
22.794180
 30
0.0
  0
LWPOLYLINE
  5
320
100
AcDbEntity
  8
0
 62
7
100
AcDbPolyline
 90
1
 70
1
 10
78.260612
 20
70.661068
 30
0.0
  0
SPLINE
  5
321
100
AcDbEntity
  8
0
 62
7
100
AcDbSpline
 70
8
 71
3
 72
8
 73
4
 74
0
 40
0
 40
0
 40
0
 40
0
 40
1
 40
1
 40
1
 40
1
 10
28.961099
 20
22.043882
 30
0.0
 10
28.763815
 20
22.516825
 30
0.0
 10
28.448968
 20
23.558622
 30
0.0
 10
28.261440
 20
24.358986
 30
0.0
  0
SPLINE
  5
322
100
AcDbEntity
  8
0
 62
7
100
AcDbSpline
 70
8
 71
3
 72
8
 73
4
 74
0
 40
0
 40
0
 40
0
 40
0
 40
1
 40
1
 40
1
 40
1
 10
28.261440
 20
24.358986
 30
0.0
 10
27.921760
 20
25.808734
 30
0.0
 10
27.583381
 20
26.475653
 30
0.0
 10
27.187499
 20
26.475653
 30
0.0
  0
SPLINE
  5
323
100
AcDbEntity
  8
0
 62
7
100
AcDbSpline
 70
8
 71
3
 72
8
 73
4
 74
0
 40
0
 40
0
 40
0
 40
0
 40
1
 40
1
 40
1
 40
1
 10
27.187499
 20
26.475653
 30
0.0
 10
26.893459
 20
26.475653
 30
0.0
 10
27.539154
 20
23.880614
 30
0.0
 10
28.109164
 20
22.771486
 30
0.0
  0
SPLINE
  5
324
100
AcDbEntity
  8
0
 62
7
100
AcDbSpline
 70
8
 71
3
 72
8
 73
4
 74
0
 40
0
 40
0
 40
0
 40
0
 40
1
 40
1
 40
1
 40
1
 10
28.109164
 20
22.771486
 30
0.0
 10
28.963382
 20
21.109347
 30
0.0
 10
29.565415
 20
20.595172
 30
0.0
 10
28.961099
 20
22.043882
 30
0.0
  0
LWPOLYLINE
  5
325
100
AcDbEntity
  8
0
 62
7
100
AcDbPolyline
 90
1
 70
1
 10
4.711882
 20
22.794180
 30
0.0
  0
SPLINE
  5
326
100
AcDbEntity
  8
0
 62
7
100
AcDbSpline
 70
8
 71
3
 72
8
 73
4
 74
0
 40
0
 40
0
 40
0
 40
0
 40
1
 40
1
 40
1
 40
1
 10
57.983480
 20
21.898713
 30
0.0
 10
61.990470
 20
22.018503
 30
0.0
 10
63.121627
 20
22.125099
 30
0.0
 10
62.745980
 20
22.347507
 30
0.0
  0
SPLINE
  5
327
100
AcDbEntity
  8
0
 62
7
100
AcDbSpline
 70
8
 71
3
 72
8
 73
4
 74
0
 40
0
 40
0
 40
0
 40
0
 40
1
 40
1
 40
1
 40
1
 10
62.745980
 20
22.347507
 30
0.0
 10
62.442765
 20
22.527030
 30
0.0
 10
60.727198
 20
22.633853
 30
0.0
 10
58.284570
 20
22.625301
 30
0.0
  0
SPLINE
  5
328
100
AcDbEntity
  8
0
 62
7
100
AcDbSpline
 70
8
 71
3
 72
8
 73
4
 74
0
 40
0
 40
0
 40
0
 40
0
 40
1
 40
1
 40
1
 40
1
 10
58.284570
 20
22.625301
 30
0.0
 10
54.821984
 20
22.613183
 30
0.0
 10
54.130228
 20
22.536671
 30
0.0
 10
52.860612
 20
22.025398
 30
0.0
  0
SPLINE
  5
329
100
AcDbEntity
  8
0
 62
7
100
AcDbSpline
 70
8
 71
3
 72
8
 73
4
 74
0
 40
0
 40
0
 40
0
 40
0
 40
1
 40
1
 40
1
 40
1
 10
52.860612
 20
22.025398
 30
0.0
 10
52.060247
 20
21.703093
 30
0.0
 10
51.703060
 20
21.507386
 30
0.0
 10
52.066862
 20
21.590497
 30
0.0
  0
SPLINE
  5
32a
100
AcDbEntity
  8
0
 62
7
100
AcDbSpline
 70
8
 71
3
 72
8
 73
4
 74
0
 40
0
 40
0
 40
0
 40
0
 40
1
 40
1
 40
1
 40
1
 10
52.066862
 20
21.590497
 30
0.0
 10
52.430664
 20
21.673608
 30
0.0
 10
55.093142
 20
21.812306
 30
0.0
 10
57.983480
 20
21.898713
 30
0.0
  0
LWPOLYLINE
  5
32b
100
AcDbEntity
  8
0
 62
7
100
AcDbPolyline
 90
1
 70
1
 10
28.961099
 20
22.043882
 30
0.0
  0
SPLINE
  5
32c
100
AcDbEntity
  8
0
 62
7
100
AcDbSpline
 70
8
 71
3
 72
8
 73
4
 74
0
 40
0
 40
0
 40
0
 40
0
 40
1
 40
1
 40
1
 40
1
 10
3.680409
 20
25.066747
 30
0.0
 10
3.368507
 20
25.603113
 30
0.0
 10
3.293188
 20
25.431435
 30
0.0
 10
3.548506
 20
24.766090
 30
0.0
  0
SPLINE
  5
32d
100
AcDbEntity
  8
0
 62
7
100
AcDbSpline
 70
8
 71
3
 72
8
 73
4
 74
0
 40
0
 40
0
 40
0
 40
0
 40
1
 40
1
 40
1
 40
1
 10
3.548506
 20
24.766090
 30
0.0
 10
3.639242
 20
24.529632
 30
0.0
 10
3.769219
 20
24.391900
 30
0.0
 10
3.837341
 20
24.460023
 30
0.0
  0
SPLINE
  5
32e
100
AcDbEntity
  8
0
 62
7
100
AcDbSpline
 70
8
 71
3
 72
8
 73
4
 74
0
 40
0
 40
0
 40
0
 40
0
 40
1
 40
1
 40
1
 40
1
 10
3.837341
 20
24.460023
 30
0.0
 10
3.905463
 20
24.528145
 30
0.0
 10
3.834960
 20
24.801171
 30
0.0
 10
3.680409
 20
25.066747
 30
0.0
  0
LWPOLYLINE
  5
32f
100
AcDbEntity
  8
0
 62
7
100
AcDbPolyline
 90
1
 70
1
 10
57.983480
 20
21.898713
 30
0.0
  0
SPLINE
  5
330
100
AcDbEntity
  8
0
 62
7
100
AcDbSpline
 70
8
 71
3
 72
8
 73
4
 74
0
 40
0
 40
0
 40
0
 40
0
 40
1
 40
1
 40
1
 40
1
 10
22.433528
 20
26.131695
 30
0.0
 10
22.433528
 20
27.248681
 30
0.0
 10
22.356341
 20
27.562633
 30
0.0
 10
22.135919
 20
27.342211
 30
0.0
  0
SPLINE
  5
331
100
AcDbEntity
  8
0
 62
7
100
AcDbSpline
 70
8
 71
3
 72
8
 73
4
 74
0
 40
0
 40
0
 40
0
 40
0
 40
1
 40
1
 40
1
 40
1
 10
22.135919
 20
27.342211
 30
0.0
 10
21.859601
 20
27.065893
 30
0.0
 10
22.022680
 20
24.623570
 30
0.0
 10
22.317447
 20
24.623570
 30
0.0
  0
SPLINE
  5
332
100
AcDbEntity
  8
0
 62
7
100
AcDbSpline
 70
8
 71
3
 72
8
 73
4
 74
0
 40
0
 40
0
 40
0
 40
0
 40
1
 40
1
 40
1
 40
1
 10
22.317447
 20
24.623570
 30
0.0
 10
22.381291
 20
24.623570
 30
0.0
 10
22.433528
 20
25.302226
 30
0.0
 10
22.433528
 20
26.131695
 30
0.0
  0
LWPOLYLINE
  5
333
100
AcDbEntity
  8
0
 62
7
100
AcDbPolyline
 90
1
 70
1
 10
3.680409
 20
25.066747
 30
0.0
  0
SPLINE
  5
334
100
AcDbEntity
  8
0
 62
7
100
AcDbSpline
 70
8
 71
3
 72
8
 73
4
 74
0
 40
0
 40
0
 40
0
 40
0
 40
1
 40
1
 40
1
 40
1
 10
90.166862
 20
25.814195
 30
0.0
 10
90.617405
 20
26.469038
 30
0.0
 10
90.926502
 20
27.004820
 30
0.0
 10
90.853742
 20
27.004820
 30
0.0
  0
SPLINE
  5
335
100
AcDbEntity
  8
0
 62
7
100
AcDbSpline
 70
8
 71
3
 72
8
 73
4
 74
0
 40
0
 40
0
 40
0
 40
0
 40
1
 40
1
 40
1
 40
1
 10
90.853742
 20
27.004820
 30
0.0
 10
90.780981
 20
27.004820
 30
0.0
 10
90.352822
 20
26.469038
 30
0.0
 10
89.902279
 20
25.814195
 30
0.0
  0
SPLINE
  5
336
100
AcDbEntity
  8
0
 62
7
100
AcDbSpline
 70
8
 71
3
 72
8
 73
4
 74
0
 40
0
 40
0
 40
0
 40
0
 40
1
 40
1
 40
1
 40
1
 10
89.902279
 20
25.814195
 30
0.0
 10
89.451736
 20
25.159351
 30
0.0
 10
89.142639
 20
24.623570
 30
0.0
 10
89.215399
 20
24.623570
 30
0.0
  0
SPLINE
  5
337
100
AcDbEntity
  8
0
 62
7
100
AcDbSpline
 70
8
 71
3
 72
8
 73
4
 74
0
 40
0
 40
0
 40
0
 40
0
 40
1
 40
1
 40
1
 40
1
 10
89.215399
 20
24.623570
 30
0.0
 10
89.288160
 20
24.623570
 30
0.0
 10
89.716319
 20
25.159351
 30
0.0
 10
90.166862
 20
25.814195
 30
0.0
  0
LWPOLYLINE
  5
338
100
AcDbEntity
  8
0
 62
7
100
AcDbPolyline
 90
1
 70
1
 10
22.433528
 20
26.131695
 30
0.0
  0
SPLINE
  5
339
100
AcDbEntity
  8
0
 62
7
100
AcDbSpline
 70
8
 71
3
 72
8
 73
4
 74
0
 40
0
 40
0
 40
0
 40
0
 40
1
 40
1
 40
1
 40
1
 10
3.100455
 20
26.637395
 30
0.0
 10
2.936623
 20
27.057760
 30
0.0
 10
2.512331
 20
28.473257
 30
0.0
 10
2.157586
 20
29.782945
 30
0.0
  0
SPLINE
  5
33a
100
AcDbEntity
  8
0
 62
7
100
AcDbSpline
 70
8
 71
3
 72
8
 73
4
 74
0
 40
0
 40
0
 40
0
 40
0
 40
1
 40
1
 40
1
 40
1
 10
2.157586
 20
29.782945
 30
0.0
 10
1.802841
 20
31.092632
 30
0.0
 10
1.577225
 20
31.661605
 30
0.0
 10
1.656219
 20
31.047330
 30
0.0
  0
SPLINE
  5
33b
100
AcDbEntity
  8
0
 62
7
100
AcDbSpline
 70
8
 71
3
 72
8
 73
4
 74
0
 40
0
 40
0
 40
0
 40
0
 40
1
 40
1
 40
1
 40
1
 10
1.656219
 20
31.047330
 30
0.0
 10
1.823573
 20
29.745961
 30
0.0
 10
3.100937
 20
25.575702
 30
0.0
 10
3.277972
 20
25.752737
 30
0.0
  0
SPLINE
  5
33c
100
AcDbEntity
  8
0
 62
7
100
AcDbSpline
 70
8
 71
3
 72
8
 73
4
 74
0
 40
0
 40
0
 40
0
 40
0
 40
1
 40
1
 40
1
 40
1
 10
3.277972
 20
25.752737
 30
0.0
 10
3.344171
 20
25.818936
 30
0.0
 10
3.264293
 20
26.217031
 30
0.0
 10
3.100455
 20
26.637395
 30
0.0
  0
LWPOLYLINE
  5
33d
100
AcDbEntity
  8
0
 62
7
100
AcDbPolyline
 90
1
 70
1
 10
90.166862
 20
25.814195
 30
0.0
  0
SPLINE
  5
33e
100
AcDbEntity
  8
0
 62
7
100
AcDbSpline
 70
8
 71
3
 72
8
 73
4
 74
0
 40
0
 40
0
 40
0
 40
0
 40
1
 40
1
 40
1
 40
1
 10
92.407306
 20
29.187632
 30
0.0
 10
92.803446
 20
29.878856
 30
0.0
 10
93.068476
 20
30.444403
 30
0.0
 10
92.996263
 20
30.444403
 30
0.0
  0
SPLINE
  5
33f
100
AcDbEntity
  8
0
 62
7
100
AcDbSpline
 70
8
 71
3
 72
8
 73
4
 74
0
 40
0
 40
0
 40
0
 40
0
 40
1
 40
1
 40
1
 40
1
 10
92.996263
 20
30.444403
 30
0.0
 10
92.924048
 20
30.444403
 30
0.0
 10
92.630591
 20
30.047171
 30
0.0
 10
92.344134
 20
29.561663
 30
0.0
  0
SPLINE
  5
340
100
AcDbEntity
  8
0
 62
7
100
AcDbSpline
 70
8
 71
3
 72
8
 73
4
 74
0
 40
0
 40
0
 40
0
 40
0
 40
1
 40
1
 40
1
 40
1
 10
92.344134
 20
29.561663
 30
0.0
 10
92.057678
 20
29.076155
 30
0.0
 10
91.608066
 20
28.332015
 30
0.0
 10
91.344996
 20
27.908017
 30
0.0
  0
SPLINE
  5
341
100
AcDbEntity
  8
0
 62
7
100
AcDbSpline
 70
8
 71
3
 72
8
 73
4
 74
0
 40
0
 40
0
 40
0
 40
0
 40
1
 40
1
 40
1
 40
1
 10
91.344996
 20
27.908017
 30
0.0
 10
91.002424
 20
27.355879
 30
0.0
 10
90.983091
 20
27.249736
 30
0.0
 10
91.276868
 20
27.533986
 30
0.0
  0
SPLINE
  5
342
100
AcDbEntity
  8
0
 62
7
100
AcDbSpline
 70
8
 71
3
 72
8
 73
4
 74
0
 40
0
 40
0
 40
0
 40
0
 40
1
 40
1
 40
1
 40
1
 10
91.276868
 20
27.533986
 30
0.0
 10
91.502468
 20
27.752268
 30
0.0
 10
92.011164
 20
28.496408
 30
0.0
 10
92.407306
 20
29.187632
 30
0.0
  0
LWPOLYLINE
  5
343
100
AcDbEntity
  8
0
 62
7
100
AcDbPolyline
 90
1
 70
1
 10
3.100455
 20
26.637395
 30
0.0
  0
SPLINE
  5
344
100
AcDbEntity
  8
0
 62
7
100
AcDbSpline
 70
8
 71
3
 72
8
 73
4
 74
0
 40
0
 40
0
 40
0
 40
0
 40
1
 40
1
 40
1
 40
1
 10
56.377385
 20
28.885163
 30
0.0
 10
57.753840
 20
29.055203
 30
0.0
 10
60.281299
 20
29.122904
 30
0.0
 10
62.187175
 20
29.040788
 30
0.0
  0
SPLINE
  5
345
100
AcDbEntity
  8
0
 62
7
100
AcDbSpline
 70
8
 71
3
 72
8
 73
4
 74
0
 40
0
 40
0
 40
0
 40
0
 40
1
 40
1
 40
1
 40
1
 10
62.187175
 20
29.040788
 30
0.0
 10
64.042565
 20
28.960847
 30
0.0
 10
65.560612
 20
28.990555
 30
0.0
 10
65.560612
 20
29.106807
 30
0.0
  0
SPLINE
  5
346
100
AcDbEntity
  8
0
 62
7
100
AcDbSpline
 70
8
 71
3
 72
8
 73
4
 74
0
 40
0
 40
0
 40
0
 40
0
 40
1
 40
1
 40
1
 40
1
 10
65.560612
 20
29.106807
 30
0.0
 10
65.560612
 20
29.223060
 30
0.0
 10
66.153519
 20
30.226421
 30
0.0
 10
66.878187
 20
31.336496
 30
0.0
  0
LWPOLYLINE
  5
347
100
AcDbEntity
  8
0
 62
7
100
AcDbPolyline
 90
1
 70
1
 10
92.407306
 20
29.187632
 30
0.0
  0
SPLINE
  5
348
100
AcDbEntity
  8
0
 62
7
100
AcDbSpline
 70
8
 71
3
 72
8
 73
4
 74
0
 40
0
 40
0
 40
0
 40
0
 40
1
 40
1
 40
1
 40
1
 10
65.489124
 20
33.351354
 30
0.0
 10
62.265825
 20
33.347226
 30
0.0
 10
58.839341
 20
32.695229
 30
0.0
 10
55.940402
 20
31.534439
 30
0.0
  0
SPLINE
  5
349
100
AcDbEntity
  8
0
 62
7
100
AcDbSpline
 70
8
 71
3
 72
8
 73
4
 74
0
 40
0
 40
0
 40
0
 40
0
 40
1
 40
1
 40
1
 40
1
 10
55.940402
 20
31.534439
 30
0.0
 10
54.050695
 20
30.777762
 30
0.0
 10
51.814635
 20
29.529003
 30
0.0
 10
53.257487
 20
30.036124
 30
0.0
  0
SPLINE
  5
34a
100
AcDbEntity
  8
0
 62
7
100
AcDbSpline
 70
8
 71
3
 72
8
 73
4
 74
0
 40
0
 40
0
 40
0
 40
0
 40
1
 40
1
 40
1
 40
1
 10
53.257487
 20
30.036124
 30
0.0
 10
55.179741
 20
30.711743
 30
0.0
 10
58.115814
 20
31.273268
 30
0.0
 10
60.268945
 20
31.377070
 30
0.0
  0
LWPOLYLINE
  5
34b
100
AcDbEntity
  8
0
 62
7
100
AcDbPolyline
 90
3
 70
0
 10
66.878187
 20
31.336496
 30
0.0
 10
68.195761
 20
33.354820
 30
0.0
 10
65.489124
 20
33.351354
 30
0.0
  0
SPLINE
  5
34c
100
AcDbEntity
  8
0
 62
7
100
AcDbSpline
 70
8
 71
3
 72
8
 73
4
 74
0
 40
0
 40
0
 40
0
 40
0
 40
1
 40
1
 40
1
 40
1
 10
60.886520
 20
31.132603
 30
0.0
 10
58.107053
 20
30.596560
 30
0.0
 10
53.125195
 20
28.854971
 30
0.0
 10
53.125195
 20
28.419340
 30
0.0
  0
SPLINE
  5
34d
100
AcDbEntity
  8
0
 62
7
100
AcDbSpline
 70
8
 71
3
 72
8
 73
4
 74
0
 40
0
 40
0
 40
0
 40
0
 40
1
 40
1
 40
1
 40
1
 10
53.125195
 20
28.419340
 30
0.0
 10
53.125195
 20
28.337820
 30
0.0
 10
53.308758
 20
28.341561
 30
0.0
 10
53.533114
 20
28.427648
 30
0.0
  0
SPLINE
  5
34e
100
AcDbEntity
  8
0
 62
7
100
AcDbSpline
 70
8
 71
3
 72
8
 73
4
 74
0
 40
0
 40
0
 40
0
 40
0
 40
1
 40
1
 40
1
 40
1
 10
53.533114
 20
28.427648
 30
0.0
 10
53.757470
 20
28.513744
 30
0.0
 10
55.037392
 20
28.719621
 30
0.0
 10
56.377385
 20
28.885158
 30
0.0
  0
LWPOLYLINE
  5
34f
100
AcDbEntity
  8
0
 62
7
100
AcDbPolyline
 90
3
 70
0
 10
60.268945
 20
31.377070
 30
0.0
 10
62.782487
 20
31.498246
 30
0.0
 10
60.886520
 20
31.132603
 30
0.0
  0
SPLINE
  5
350
100
AcDbEntity
  8
0
 62
7
100
AcDbSpline
 70
8
 71
3
 72
8
 73
4
 74
0
 40
0
 40
0
 40
0
 40
0
 40
1
 40
1
 40
1
 40
1
 10
41.832900
 20
33.897448
 30
0.0
 10
43.040660
 20
34.960560
 30
0.0
 10
43.353061
 20
35.471486
 30
0.0
 10
42.795333
 20
35.471486
 30
0.0
  0
SPLINE
  5
351
100
AcDbEntity
  8
0
 62
7
100
AcDbSpline
 70
8
 71
3
 72
8
 73
4
 74
0
 40
0
 40
0
 40
0
 40
0
 40
1
 40
1
 40
1
 40
1
 10
42.795333
 20
35.471486
 30
0.0
 10
42.643700
 20
35.471486
 30
0.0
 10
41.655074
 20
34.727346
 30
0.0
 10
40.598386
 20
33.817840
 30
0.0
  0
SPLINE
  5
352
100
AcDbEntity
  8
0
 62
7
100
AcDbSpline
 70
8
 71
3
 72
8
 73
4
 74
0
 40
0
 40
0
 40
0
 40
0
 40
1
 40
1
 40
1
 40
1
 10
40.598386
 20
33.817840
 30
0.0
 10
39.541699
 20
32.908335
 30
0.0
 10
38.207246
 20
31.776284
 30
0.0
 10
37.632936
 20
31.302172
 30
0.0
  0
SPLINE
  5
353
100
AcDbEntity
  8
0
 62
7
100
AcDbSpline
 70
8
 71
3
 72
8
 73
4
 74
0
 40
0
 40
0
 40
0
 40
0
 40
1
 40
1
 40
1
 40
1
 10
37.632936
 20
31.302172
 30
0.0
 10
36.721418
 20
30.549681
 30
0.0
 10
36.843248
 20
30.590556
 30
0.0
 10
38.591755
 20
31.623876
 30
0.0
  0
SPLINE
  5
354
100
AcDbEntity
  8
0
 62
7
100
AcDbSpline
 70
8
 71
3
 72
8
 73
4
 74
0
 40
0
 40
0
 40
0
 40
0
 40
1
 40
1
 40
1
 40
1
 10
38.591755
 20
31.623876
 30
0.0
 10
39.693416
 20
32.274928
 30
0.0
 10
41.151932
 20
33.298035
 30
0.0
 10
41.832900
 20
33.897448
 30
0.0
  0
LWPOLYLINE
  5
355
100
AcDbEntity
  8
0
 62
7
100
AcDbPolyline
 90
1
 70
1
 10
56.377385
 20
28.885158
 30
0.0
  0
SPLINE
  5
356
100
AcDbEntity
  8
0
 62
7
100
AcDbSpline
 70
8
 71
3
 72
8
 73
4
 74
0
 40
0
 40
0
 40
0
 40
0
 40
1
 40
1
 40
1
 40
1
 10
94.678706
 20
33.382577
 30
0.0
 10
95.416627
 20
34.853049
 30
0.0
 10
95.978213
 20
36.098332
 30
0.0
 10
95.926677
 20
36.149867
 30
0.0
  0
SPLINE
  5
357
100
AcDbEntity
  8
0
 62
7
100
AcDbSpline
 70
8
 71
3
 72
8
 73
4
 74
0
 40
0
 40
0
 40
0
 40
0
 40
1
 40
1
 40
1
 40
1
 10
95.926677
 20
36.149867
 30
0.0
 10
95.875142
 20
36.201403
 30
0.0
 10
95.213654
 20
34.998287
 30
0.0
 10
94.456708
 20
33.476277
 30
0.0
  0
SPLINE
  5
358
100
AcDbEntity
  8
0
 62
7
100
AcDbSpline
 70
8
 71
3
 72
8
 73
4
 74
0
 40
0
 40
0
 40
0
 40
0
 40
1
 40
1
 40
1
 40
1
 10
94.456708
 20
33.476277
 30
0.0
 10
93.699761
 20
31.954266
 30
0.0
 10
93.138175
 20
30.708986
 30
0.0
 10
93.208740
 20
30.708986
 30
0.0
  0
SPLINE
  5
359
100
AcDbEntity
  8
0
 62
7
100
AcDbSpline
 70
8
 71
3
 72
8
 73
4
 74
0
 40
0
 40
0
 40
0
 40
0
 40
1
 40
1
 40
1
 40
1
 10
93.208740
 20
30.708986
 30
0.0
 10
93.279304
 20
30.708986
 30
0.0
 10
93.940789
 20
31.912102
 30
0.0
 10
94.678706
 20
33.382577
 30
0.0
  0
LWPOLYLINE
  5
35a
100
AcDbEntity
  8
0
 62
7
100
AcDbPolyline
 90
1
 70
1
 10
41.832900
 20
33.897448
 30
0.0
  0
SPLINE
  5
35b
100
AcDbEntity
  8
0
 62
7
100
AcDbSpline
 70
8
 71
3
 72
8
 73
4
 74
0
 40
0
 40
0
 40
0
 40
0
 40
1
 40
1
 40
1
 40
1
 10
1.450214
 20
33.283639
 30
0.0
 10
1.383132
 20
33.541070
 30
0.0
 10
1.323834
 20
33.394507
 30
0.0
 10
1.318441
 20
32.957945
 30
0.0
  0
SPLINE
  5
35c
100
AcDbEntity
  8
0
 62
7
100
AcDbSpline
 70
8
 71
3
 72
8
 73
4
 74
0
 40
0
 40
0
 40
0
 40
0
 40
1
 40
1
 40
1
 40
1
 10
1.318441
 20
32.957945
 30
0.0
 10
1.313044
 20
32.521382
 30
0.0
 10
1.367934
 20
32.310758
 30
0.0
 10
1.440412
 20
32.489889
 30
0.0
  0
SPLINE
  5
35d
100
AcDbEntity
  8
0
 62
7
100
AcDbSpline
 70
8
 71
3
 72
8
 73
4
 74
0
 40
0
 40
0
 40
0
 40
0
 40
1
 40
1
 40
1
 40
1
 10
1.440412
 20
32.489889
 30
0.0
 10
1.512886
 20
32.669020
 30
0.0
 10
1.517297
 20
33.026207
 30
0.0
 10
1.450228
 20
33.283639
 30
0.0
  0
LWPOLYLINE
  5
35e
100
AcDbEntity
  8
0
 62
7
100
AcDbPolyline
 90
1
 70
1
 10
94.678706
 20
33.382577
 30
0.0
  0
SPLINE
  5
35f
100
AcDbEntity
  8
0
 62
7
100
AcDbSpline
 70
8
 71
3
 72
8
 73
4
 74
0
 40
0
 40
0
 40
0
 40
0
 40
1
 40
1
 40
1
 40
1
 10
37.199845
 20
34.467639
 30
0.0
 10
39.512102
 20
35.426240
 30
0.0
 10
42.775434
 20
37.852736
 30
0.0
 10
41.752374
 20
37.852736
 30
0.0
  0
SPLINE
  5
360
100
AcDbEntity
  8
0
 62
7
100
AcDbSpline
 70
8
 71
3
 72
8
 73
4
 74
0
 40
0
 40
0
 40
0
 40
0
 40
1
 40
1
 40
1
 40
1
 10
41.752374
 20
37.852736
 30
0.0
 10
41.592021
 20
37.852736
 30
0.0
 10
40.839131
 20
37.383352
 30
0.0
 10
40.079282
 20
36.809661
 30
0.0
  0
SPLINE
  5
361
100
AcDbEntity
  8
0
 62
7
100
AcDbSpline
 70
8
 71
3
 72
8
 73
4
 74
0
 40
0
 40
0
 40
0
 40
0
 40
1
 40
1
 40
1
 40
1
 10
40.079282
 20
36.809661
 30
0.0
 10
38.554639
 20
35.658547
 30
0.0
 10
35.789089
 20
34.285682
 30
0.0
 10
33.865132
 20
33.724858
 30
0.0
  0
LWPOLYLINE
  5
362
100
AcDbEntity
  8
0
 62
7
100
AcDbPolyline
 90
1
 70
1
 10
1.450228
 20
33.283639
 30
0.0
  0
SPLINE
  5
363
100
AcDbEntity
  8
0
 62
7
100
AcDbSpline
 70
8
 71
3
 72
8
 73
4
 74
0
 40
0
 40
0
 40
0
 40
0
 40
1
 40
1
 40
1
 40
1
 10
33.942904
 20
33.513874
 30
0.0
 10
34.670508
 20
33.597456
 30
0.0
 10
36.136130
 20
34.026652
 30
0.0
 10
37.199845
 20
34.467639
 30
0.0
  0
LWPOLYLINE
  5
364
100
AcDbEntity
  8
0
 62
7
100
AcDbPolyline
 90
3
 70
0
 10
33.865132
 20
33.724858
 30
0.0
 10
32.619987
 20
33.361903
 30
0.0
 10
33.942904
 20
33.513874
 30
0.0
  0
SPLINE
  5
365
100
AcDbEntity
  8
0
 62
7
100
AcDbSpline
 70
8
 71
3
 72
8
 73
4
 74
0
 40
0
 40
0
 40
0
 40
0
 40
1
 40
1
 40
1
 40
1
 10
1.189002
 20
35.802215
 30
0.0
 10
1.125939
 20
36.129637
 30
0.0
 10
1.074339
 20
35.861747
 30
0.0
 10
1.074339
 20
35.206903
 30
0.0
  0
SPLINE
  5
366
100
AcDbEntity
  8
0
 62
7
100
AcDbSpline
 70
8
 71
3
 72
8
 73
4
 74
0
 40
0
 40
0
 40
0
 40
0
 40
1
 40
1
 40
1
 40
1
 10
1.074339
 20
35.206903
 30
0.0
 10
1.074339
 20
34.552059
 30
0.0
 10
1.125939
 20
34.284169
 30
0.0
 10
1.189002
 20
34.611590
 30
0.0
  0
SPLINE
  5
367
100
AcDbEntity
  8
0
 62
7
100
AcDbSpline
 70
8
 71
3
 72
8
 73
4
 74
0
 40
0
 40
0
 40
0
 40
0
 40
1
 40
1
 40
1
 40
1
 10
1.189002
 20
34.611590
 30
0.0
 10
1.252068
 20
34.939012
 30
0.0
 10
1.252068
 20
35.474794
 30
0.0
 10
1.189002
 20
35.802215
 30
0.0
  0
LWPOLYLINE
  5
368
100
AcDbEntity
  8
0
 62
7
100
AcDbPolyline
 90
1
 70
1
 10
37.199845
 20
34.467639
 30
0.0
  0
SPLINE
  5
369
100
AcDbEntity
  8
0
 62
7
100
AcDbSpline
 70
8
 71
3
 72
8
 73
4
 74
0
 40
0
 40
0
 40
0
 40
0
 40
1
 40
1
 40
1
 40
1
 10
14.874252
 20
37.379188
 30
0.0
 10
15.254255
 20
38.179984
 30
0.0
 10
15.260509
 20
38.390756
 30
0.0
 10
14.927762
 20
39.182135
 30
0.0
  0
LWPOLYLINE
  5
36a
100
AcDbEntity
  8
0
 62
7
100
AcDbPolyline
 90
1
 70
1
 10
1.189002
 20
35.802215
 30
0.0
  0
SPLINE
  5
36b
100
AcDbEntity
  8
0
 62
7
100
AcDbSpline
 70
8
 71
3
 72
8
 73
4
 74
0
 40
0
 40
0
 40
0
 40
0
 40
1
 40
1
 40
1
 40
1
 10
14.260387
 20
39.031651
 30
0.0
 10
14.100571
 20
38.456007
 30
0.0
 10
13.983151
 20
37.092059
 30
0.0
 10
13.999458
 20
36.000653
 30
0.0
  0
SPLINE
  5
36c
100
AcDbEntity
  8
0
 62
7
100
AcDbSpline
 70
8
 71
3
 72
8
 73
4
 74
0
 40
0
 40
0
 40
0
 40
0
 40
1
 40
1
 40
1
 40
1
 10
13.999458
 20
36.000653
 30
0.0
 10
14.027387
 20
34.130940
 30
0.0
 10
14.041087
 20
34.087237
 30
0.0
 10
14.236522
 20
35.244331
 30
0.0
  0
SPLINE
  5
36d
100
AcDbEntity
  8
0
 62
7
100
AcDbSpline
 70
8
 71
3
 72
8
 73
4
 74
0
 40
0
 40
0
 40
0
 40
0
 40
1
 40
1
 40
1
 40
1
 10
14.236522
 20
35.244331
 30
0.0
 10
14.350605
 20
35.919759
 30
0.0
 10
14.637582
 20
36.880445
 30
0.0
 10
14.874252
 20
37.379188
 30
0.0
  0
LWPOLYLINE
  5
36e
100
AcDbEntity
  8
0
 62
7
100
AcDbPolyline
 90
3
 70
0
 10
14.927762
 20
39.182135
 30
0.0
 10
14.550960
 20
40.078276
 30
0.0
 10
14.260387
 20
39.031651
 30
0.0
  0
SPLINE
  5
36f
100
AcDbEntity
  8
0
 62
7
100
AcDbSpline
 70
8
 71
3
 72
8
 73
4
 74
0
 40
0
 40
0
 40
0
 40
0
 40
1
 40
1
 40
1
 40
1
 10
96.762694
 20
37.985028
 30
0.0
 10
96.762694
 20
38.130549
 30
0.0
 10
96.592538
 20
37.951955
 30
0.0
 10
96.384570
 20
37.588153
 30
0.0
  0
SPLINE
  5
370
100
AcDbEntity
  8
0
 62
7
100
AcDbSpline
 70
8
 71
3
 72
8
 73
4
 74
0
 40
0
 40
0
 40
0
 40
0
 40
1
 40
1
 40
1
 40
1
 10
96.384570
 20
37.588153
 30
0.0
 10
96.176603
 20
37.224351
 30
0.0
 10
96.006446
 20
36.807632
 30
0.0
 10
96.006446
 20
36.662111
 30
0.0
  0
SPLINE
  5
371
100
AcDbEntity
  8
0
 62
7
100
AcDbSpline
 70
8
 71
3
 72
8
 73
4
 74
0
 40
0
 40
0
 40
0
 40
0
 40
1
 40
1
 40
1
 40
1
 10
96.006446
 20
36.662111
 30
0.0
 10
96.006446
 20
36.516590
 30
0.0
 10
96.176603
 20
36.695184
 30
0.0
 10
96.384570
 20
37.058986
 30
0.0
  0
SPLINE
  5
372
100
AcDbEntity
  8
0
 62
7
100
AcDbSpline
 70
8
 71
3
 72
8
 73
4
 74
0
 40
0
 40
0
 40
0
 40
0
 40
1
 40
1
 40
1
 40
1
 10
96.384570
 20
37.058986
 30
0.0
 10
96.592538
 20
37.422788
 30
0.0
 10
96.762694
 20
37.839507
 30
0.0
 10
96.762694
 20
37.985028
 30
0.0
  0
LWPOLYLINE
  5
373
100
AcDbEntity
  8
0
 62
7
100
AcDbPolyline
 90
1
 70
1
 10
14.874252
 20
37.379188
 30
0.0
  0
SPLINE
  5
374
100
AcDbEntity
  8
0
 62
7
100
AcDbSpline
 70
8
 71
3
 72
8
 73
4
 74
0
 40
0
 40
0
 40
0
 40
0
 40
1
 40
1
 40
1
 40
1
 10
0.931033
 20
40.308115
 30
0.0
 10
0.875545
 20
40.922189
 30
0.0
 10
0.830804
 20
40.353049
 30
0.0
 10
0.831611
 20
39.043361
 30
0.0
  0
SPLINE
  5
375
100
AcDbEntity
  8
0
 62
7
100
AcDbSpline
 70
8
 71
3
 72
8
 73
4
 74
0
 40
0
 40
0
 40
0
 40
0
 40
1
 40
1
 40
1
 40
1
 10
0.831611
 20
39.043361
 30
0.0
 10
0.832404
 20
37.733674
 30
0.0
 10
0.877818
 20
37.231251
 30
0.0
 10
0.932499
 20
37.926865
 30
0.0
  0
SPLINE
  5
376
100
AcDbEntity
  8
0
 62
7
100
AcDbSpline
 70
8
 71
3
 72
8
 73
4
 74
0
 40
0
 40
0
 40
0
 40
0
 40
1
 40
1
 40
1
 40
1
 10
0.932499
 20
37.926865
 30
0.0
 10
0.987183
 20
38.622481
 30
0.0
 10
0.986522
 20
39.694043
 30
0.0
 10
0.930911
 20
40.308115
 30
0.0
  0
LWPOLYLINE
  5
377
100
AcDbEntity
  8
0
 62
7
100
AcDbPolyline
 90
1
 70
1
 10
96.762694
 20
37.985028
 30
0.0
  0
SPLINE
  5
378
100
AcDbEntity
  8
0
 62
7
100
AcDbSpline
 70
8
 71
3
 72
8
 73
4
 74
0
 40
0
 40
0
 40
0
 40
0
 40
1
 40
1
 40
1
 40
1
 10
13.893341
 20
40.763153
 30
0.0
 10
14.130056
 20
41.563518
 30
0.0
 10
14.290878
 20
42.337424
 30
0.0
 10
14.250722
 20
42.482945
 30
0.0
  0
SPLINE
  5
379
100
AcDbEntity
  8
0
 62
7
100
AcDbSpline
 70
8
 71
3
 72
8
 73
4
 74
0
 40
0
 40
0
 40
0
 40
0
 40
1
 40
1
 40
1
 40
1
 10
14.250722
 20
42.482945
 30
0.0
 10
14.210566
 20
42.628465
 30
0.0
 10
14.030430
 20
43.997684
 30
0.0
 10
13.850421
 20
45.525653
 30
0.0
  0
LWPOLYLINE
  5
37a
100
AcDbEntity
  8
0
 62
7
100
AcDbPolyline
 90
2
 70
0
 10
0.930911
 20
40.308115
 30
0.0
 10
0.931033
 20
40.308115
 30
0.0
  0
SPLINE
  5
37b
100
AcDbEntity
  8
0
 62
7
100
AcDbSpline
 70
8
 71
3
 72
8
 73
4
 74
0
 40
0
 40
0
 40
0
 40
0
 40
1
 40
1
 40
1
 40
1
 10
13.086608
 20
46.848570
 30
0.0
 10
12.701182
 20
45.563692
 30
0.0
 10
12.090629
 20
41.292320
 30
0.0
 10
12.292395
 20
41.292320
 30
0.0
  0
SPLINE
  5
37c
100
AcDbEntity
  8
0
 62
7
100
AcDbSpline
 70
8
 71
3
 72
8
 73
4
 74
0
 40
0
 40
0
 40
0
 40
0
 40
1
 40
1
 40
1
 40
1
 10
12.292395
 20
41.292320
 30
0.0
 10
12.334649
 20
41.292320
 30
0.0
 10
12.674231
 20
41.857867
 30
0.0
 10
13.047026
 20
42.549090
 30
0.0
  0
SPLINE
  5
37d
100
AcDbEntity
  8
0
 62
7
100
AcDbSpline
 70
8
 71
3
 72
8
 73
4
 74
0
 40
0
 40
0
 40
0
 40
0
 40
1
 40
1
 40
1
 40
1
 10
13.047026
 20
42.549090
 30
0.0
 10
13.619759
 20
43.611030
 30
0.0
 10
13.703032
 20
43.682809
 30
0.0
 10
13.584194
 20
43.012111
 30
0.0
  0
SPLINE
  5
37e
100
AcDbEntity
  8
0
 62
7
100
AcDbSpline
 70
8
 71
3
 72
8
 73
4
 74
0
 40
0
 40
0
 40
0
 40
0
 40
1
 40
1
 40
1
 40
1
 10
13.584194
 20
43.012111
 30
0.0
 10
13.506838
 20
42.575549
 30
0.0
 10
13.390670
 20
41.206330
 30
0.0
 10
13.326043
 20
39.969403
 30
0.0
  0
SPLINE
  5
37f
100
AcDbEntity
  8
0
 62
7
100
AcDbSpline
 70
8
 71
3
 72
8
 73
4
 74
0
 40
0
 40
0
 40
0
 40
0
 40
1
 40
1
 40
1
 40
1
 10
13.326043
 20
39.969403
 30
0.0
 10
13.261413
 20
38.732476
 30
0.0
 10
13.265776
 20
38.077632
 30
0.0
 10
13.335727
 20
38.514195
 30
0.0
  0
SPLINE
  5
380
100
AcDbEntity
  8
0
 62
7
100
AcDbSpline
 70
8
 71
3
 72
8
 73
4
 74
0
 40
0
 40
0
 40
0
 40
0
 40
1
 40
1
 40
1
 40
1
 10
13.335727
 20
38.514195
 30
0.0
 10
13.405693
 20
38.950757
 30
0.0
 10
13.656613
 20
39.962788
 30
0.0
 10
13.893328
 20
40.763153
 30
0.0
  0
LWPOLYLINE
  5
381
100
AcDbEntity
  8
0
 62
7
100
AcDbPolyline
 90
3
 70
0
 10
13.850421
 20
45.525653
 30
0.0
 10
13.523128
 20
48.303778
 30
0.0
 10
13.086608
 20
46.848570
 30
0.0
  0
SPLINE
  5
382
100
AcDbEntity
  8
0
 62
7
100
AcDbSpline
 70
8
 71
3
 72
8
 73
4
 74
0
 40
0
 40
0
 40
0
 40
0
 40
1
 40
1
 40
1
 40
1
 10
98.094326
 20
41.556903
 30
0.0
 10
99.034835
 20
44.373072
 30
0.0
 10
99.693315
 20
46.978671
 30
0.0
 10
99.665644
 20
47.774611
 30
0.0
  0
SPLINE
  5
383
100
AcDbEntity
  8
0
 62
7
100
AcDbSpline
 70
8
 71
3
 72
8
 73
4
 74
0
 40
0
 40
0
 40
0
 40
0
 40
1
 40
1
 40
1
 40
1
 10
99.665644
 20
47.774611
 30
0.0
 10
99.655537
 20
48.065653
 30
0.0
 10
99.429430
 20
47.351278
 30
0.0
 10
99.163203
 20
46.187111
 30
0.0
  0
SPLINE
  5
384
100
AcDbEntity
  8
0
 62
7
100
AcDbSpline
 70
8
 71
3
 72
8
 73
4
 74
0
 40
0
 40
0
 40
0
 40
0
 40
1
 40
1
 40
1
 40
1
 10
99.163203
 20
46.187111
 30
0.0
 10
98.896980
 20
45.022945
 30
0.0
 10
98.305197
 20
42.961893
 30
0.0
 10
97.848132
 20
41.606999
 30
0.0
  0
SPLINE
  5
385
100
AcDbEntity
  8
0
 62
7
100
AcDbSpline
 70
8
 71
3
 72
8
 73
4
 74
0
 40
0
 40
0
 40
0
 40
0
 40
1
 40
1
 40
1
 40
1
 10
97.848132
 20
41.606999
 30
0.0
 10
96.688423
 20
38.169231
 30
0.0
 10
96.687561
 20
38.166230
 30
0.0
 10
96.998187
 20
38.646486
 30
0.0
  0
SPLINE
  5
386
100
AcDbEntity
  8
0
 62
7
100
AcDbSpline
 70
8
 71
3
 72
8
 73
4
 74
0
 40
0
 40
0
 40
0
 40
0
 40
1
 40
1
 40
1
 40
1
 10
96.998187
 20
38.646486
 30
0.0
 10
97.139371
 20
38.864768
 30
0.0
 10
97.632634
 20
40.174455
 30
0.0
 10
98.094326
 20
41.556903
 30
0.0
  0
LWPOLYLINE
  5
387
100
AcDbEntity
  8
0
 62
7
100
AcDbPolyline
 90
1
 70
1
 10
13.893328
 20
40.763153
 30
0.0
  0
SPLINE
  5
388
100
AcDbEntity
  8
0
 62
7
100
AcDbSpline
 70
8
 71
3
 72
8
 73
4
 74
0
 40
0
 40
0
 40
0
 40
0
 40
1
 40
1
 40
1
 40
1
 10
54.045374
 20
40.821830
 30
0.0
 10
52.147420
 20
42.359038
 30
0.0
 10
51.315895
 20
43.432857
 30
0.0
 10
50.965843
 20
44.798689
 30
0.0
  0
SPLINE
  5
389
100
AcDbEntity
  8
0
 62
7
100
AcDbSpline
 70
8
 71
3
 72
8
 73
4
 74
0
 40
0
 40
0
 40
0
 40
0
 40
1
 40
1
 40
1
 40
1
 10
50.965843
 20
44.798689
 30
0.0
 10
50.606219
 20
46.201867
 30
0.0
 10
50.109226
 20
46.680848
 30
0.0
 10
48.710662
 20
46.972127
 30
0.0
  0
SPLINE
  5
38a
100
AcDbEntity
  8
0
 62
7
100
AcDbSpline
 70
8
 71
3
 72
8
 73
4
 74
0
 40
0
 40
0
 40
0
 40
0
 40
1
 40
1
 40
1
 40
1
 10
48.710662
 20
46.972127
 30
0.0
 10
47.517050
 20
47.220719
 30
0.0
 10
46.666846
 20
46.369092
 30
0.0
 10
46.919224
 20
45.177686
 30
0.0
  0
SPLINE
  5
38b
100
AcDbEntity
  8
0
 62
7
100
AcDbSpline
 70
8
 71
3
 72
8
 73
4
 74
0
 40
0
 40
0
 40
0
 40
0
 40
1
 40
1
 40
1
 40
1
 10
46.919224
 20
45.177686
 30
0.0
 10
47.314109
 20
43.313535
 30
0.0
 10
49.193876
 20
41.898001
 30
0.0
 10
53.125195
 20
40.504361
 30
0.0
  0
SPLINE
  5
38c
100
AcDbEntity
  8
0
 62
7
100
AcDbSpline
 70
8
 71
3
 72
8
 73
4
 74
0
 40
0
 40
0
 40
0
 40
0
 40
1
 40
1
 40
1
 40
1
 10
53.125195
 20
40.504361
 30
0.0
 10
55.129015
 20
39.794013
 30
0.0
 10
55.259018
 20
39.838865
 30
0.0
 10
54.045374
 20
40.821830
 30
0.0
  0
LWPOLYLINE
  5
38d
100
AcDbEntity
  8
0
 62
7
100
AcDbPolyline
 90
1
 70
1
 10
98.094326
 20
41.556903
 30
0.0
  0
SPLINE
  5
38e
100
AcDbEntity
  8
0
 62
7
100
AcDbSpline
 70
8
 71
3
 72
8
 73
4
 74
0
 40
0
 40
0
 40
0
 40
0
 40
1
 40
1
 40
1
 40
1
 10
49.553320
 20
42.393539
 30
0.0
 10
48.283791
 20
43.092587
 30
0.0
 10
47.304007
 20
44.299291
 30
0.0
 10
47.344005
 20
45.114535
 30
0.0
  0
SPLINE
  5
38f
100
AcDbEntity
  8
0
 62
7
100
AcDbSpline
 70
8
 71
3
 72
8
 73
4
 74
0
 40
0
 40
0
 40
0
 40
0
 40
1
 40
1
 40
1
 40
1
 10
47.344005
 20
45.114535
 30
0.0
 10
47.382560
 20
45.900327
 30
0.0
 10
47.386653
 20
45.902798
 30
0.0
 10
47.492949
 20
45.204470
 30
0.0
  0
SPLINE
  5
390
100
AcDbEntity
  8
0
 62
7
100
AcDbSpline
 70
8
 71
3
 72
8
 73
4
 74
0
 40
0
 40
0
 40
0
 40
0
 40
1
 40
1
 40
1
 40
1
 10
47.492949
 20
45.204470
 30
0.0
 10
47.560331
 20
44.761811
 30
0.0
 10
48.114220
 20
44.026108
 30
0.0
 10
48.937130
 20
43.286241
 30
0.0
  0
SPLINE
  5
391
100
AcDbEntity
  8
0
 62
7
100
AcDbSpline
 70
8
 71
3
 72
8
 73
4
 74
0
 40
0
 40
0
 40
0
 40
0
 40
1
 40
1
 40
1
 40
1
 10
48.937130
 20
43.286241
 30
0.0
 10
50.340612
 20
42.024390
 30
0.0
 10
50.412277
 20
41.920567
 30
0.0
 10
49.553320
 20
42.393539
 30
0.0
  0
LWPOLYLINE
  5
392
100
AcDbEntity
  8
0
 62
7
100
AcDbPolyline
 90
1
 70
1
 10
54.045374
 20
40.821830
 30
0.0
  0
SPLINE
  5
393
100
AcDbEntity
  8
0
 62
7
100
AcDbSpline
 70
8
 71
3
 72
8
 73
4
 74
0
 40
0
 40
0
 40
0
 40
0
 40
1
 40
1
 40
1
 40
1
 10
45.055404
 20
41.556903
 30
0.0
 10
44.965467
 20
41.702424
 30
0.0
 10
44.631017
 20
41.825272
 30
0.0
 10
44.312184
 20
41.829900
 30
0.0
  0
SPLINE
  5
394
100
AcDbEntity
  8
0
 62
7
100
AcDbSpline
 70
8
 71
3
 72
8
 73
4
 74
0
 40
0
 40
0
 40
0
 40
0
 40
1
 40
1
 40
1
 40
1
 10
44.312184
 20
41.829900
 30
0.0
 10
43.993350
 20
41.834530
 30
0.0
 10
43.500609
 20
42.013682
 30
0.0
 10
43.217200
 20
42.228016
 30
0.0
  0
SPLINE
  5
395
100
AcDbEntity
  8
0
 62
7
100
AcDbSpline
 70
8
 71
3
 72
8
 73
4
 74
0
 40
0
 40
0
 40
0
 40
0
 40
1
 40
1
 40
1
 40
1
 10
43.217200
 20
42.228016
 30
0.0
 10
42.933792
 20
42.442352
 30
0.0
 10
42.472396
 20
42.544873
 30
0.0
 10
42.191879
 20
42.455841
 30
0.0
  0
SPLINE
  5
396
100
AcDbEntity
  8
0
 62
7
100
AcDbSpline
 70
8
 71
3
 72
8
 73
4
 74
0
 40
0
 40
0
 40
0
 40
0
 40
1
 40
1
 40
1
 40
1
 10
42.191879
 20
42.455841
 30
0.0
 10
41.863544
 20
42.351629
 30
0.0
 10
41.744633
 20
42.395553
 30
0.0
 10
41.858091
 20
42.579134
 30
0.0
  0
SPLINE
  5
397
100
AcDbEntity
  8
0
 62
7
100
AcDbSpline
 70
8
 71
3
 72
8
 73
4
 74
0
 40
0
 40
0
 40
0
 40
0
 40
1
 40
1
 40
1
 40
1
 10
41.858091
 20
42.579134
 30
0.0
 10
42.078010
 20
42.934972
 30
0.0
 10
40.863277
 20
43.267074
 30
0.0
 10
40.227351
 20
43.024970
 30
0.0
  0
SPLINE
  5
398
100
AcDbEntity
  8
0
 62
7
100
AcDbSpline
 70
8
 71
3
 72
8
 73
4
 74
0
 40
0
 40
0
 40
0
 40
0
 40
1
 40
1
 40
1
 40
1
 10
40.227351
 20
43.024970
 30
0.0
 10
39.862593
 20
42.886103
 30
0.0
 10
39.832296
 20
42.917549
 30
0.0
 10
40.085259
 20
43.172438
 30
0.0
  0
SPLINE
  5
399
100
AcDbEntity
  8
0
 62
7
100
AcDbSpline
 70
8
 71
3
 72
8
 73
4
 74
0
 40
0
 40
0
 40
0
 40
0
 40
1
 40
1
 40
1
 40
1
 10
40.085259
 20
43.172438
 30
0.0
 10
40.337788
 20
43.426888
 30
0.0
 10
40.309400
 20
43.570385
 30
0.0
 10
39.952967
 20
43.841157
 30
0.0
  0
SPLINE
  5
39a
100
AcDbEntity
  8
0
 62
7
100
AcDbSpline
 70
8
 71
3
 72
8
 73
4
 74
0
 40
0
 40
0
 40
0
 40
0
 40
1
 40
1
 40
1
 40
1
 10
39.952967
 20
43.841157
 30
0.0
 10
39.703370
 20
44.030770
 30
0.0
 10
39.290794
 20
44.189692
 30
0.0
 10
39.036133
 20
44.194323
 30
0.0
  0
SPLINE
  5
39b
100
AcDbEntity
  8
0
 62
7
100
AcDbSpline
 70
8
 71
3
 72
8
 73
4
 74
0
 40
0
 40
0
 40
0
 40
0
 40
1
 40
1
 40
1
 40
1
 10
39.036133
 20
44.194323
 30
0.0
 10
38.781471
 20
44.198953
 30
0.0
 10
38.602878
 20
44.351564
 30
0.0
 10
38.639258
 20
44.533465
 30
0.0
  0
SPLINE
  5
39c
100
AcDbEntity
  8
0
 62
7
100
AcDbSpline
 70
8
 71
3
 72
8
 73
4
 74
0
 40
0
 40
0
 40
0
 40
0
 40
1
 40
1
 40
1
 40
1
 10
38.639258
 20
44.533465
 30
0.0
 10
38.680678
 20
44.740563
 30
0.0
 10
38.332436
 20
44.895016
 30
0.0
 10
37.707676
 20
44.946641
 30
0.0
  0
SPLINE
  5
39d
100
AcDbEntity
  8
0
 62
7
100
AcDbSpline
 70
8
 71
3
 72
8
 73
4
 74
0
 40
0
 40
0
 40
0
 40
0
 40
1
 40
1
 40
1
 40
1
 10
37.707676
 20
44.946641
 30
0.0
 10
37.093858
 20
44.997365
 30
0.0
 10
36.776028
 20
45.136006
 30
0.0
 10
36.881678
 20
45.306954
 30
0.0
  0
SPLINE
  5
39e
100
AcDbEntity
  8
0
 62
7
100
AcDbSpline
 70
8
 71
3
 72
8
 73
4
 74
0
 40
0
 40
0
 40
0
 40
0
 40
1
 40
1
 40
1
 40
1
 10
36.881678
 20
45.306954
 30
0.0
 10
37.155514
 20
45.750033
 30
0.0
 10
36.426423
 20
46.046390
 30
0.0
 10
35.051767
 20
46.050769
 30
0.0
  0
SPLINE
  5
39f
100
AcDbEntity
  8
0
 62
7
100
AcDbSpline
 70
8
 71
3
 72
8
 73
4
 74
0
 40
0
 40
0
 40
0
 40
0
 40
1
 40
1
 40
1
 40
1
 10
35.051767
 20
46.050769
 30
0.0
 10
34.271783
 20
46.053150
 30
0.0
 10
33.842664
 20
46.157211
 30
0.0
 10
33.942904
 20
46.319403
 30
0.0
  0
SPLINE
  5
3a0
100
AcDbEntity
  8
0
 62
7
100
AcDbSpline
 70
8
 71
3
 72
8
 73
4
 74
0
 40
0
 40
0
 40
0
 40
0
 40
1
 40
1
 40
1
 40
1
 10
33.942904
 20
46.319403
 30
0.0
 10
34.032841
 20
46.464924
 30
0.0
 10
34.524847
 20
46.583986
 30
0.0
 10
35.036252
 20
46.583986
 30
0.0
  0
SPLINE
  5
3a1
100
AcDbEntity
  8
0
 62
7
100
AcDbSpline
 70
8
 71
3
 72
8
 73
4
 74
0
 40
0
 40
0
 40
0
 40
0
 40
1
 40
1
 40
1
 40
1
 10
35.036252
 20
46.583986
 30
0.0
 10
35.780522
 20
46.583986
 30
0.0
 10
35.947689
 20
46.676387
 30
0.0
 10
35.873918
 20
47.047007
 30
0.0
  0
SPLINE
  5
3a2
100
AcDbEntity
  8
0
 62
7
100
AcDbSpline
 70
8
 71
3
 72
8
 73
4
 74
0
 40
0
 40
0
 40
0
 40
0
 40
1
 40
1
 40
1
 40
1
 10
35.873918
 20
47.047007
 30
0.0
 10
35.802393
 20
47.406351
 30
0.0
 10
35.546260
 20
47.498153
 30
0.0
 10
34.730036
 20
47.456998
 30
0.0
  0
LWPOLYLINE
  5
3a3
100
AcDbEntity
  8
0
 62
7
100
AcDbPolyline
 90
1
 70
1
 10
49.553320
 20
42.393539
 30
0.0
  0
SPLINE
  5
3a4
100
AcDbEntity
  8
0
 62
7
100
AcDbSpline
 70
8
 71
3
 72
8
 73
4
 74
0
 40
0
 40
0
 40
0
 40
0
 40
1
 40
1
 40
1
 40
1
 10
34.736654
 20
47.690492
 30
0.0
 10
36.015451
 20
48.036708
 30
0.0
 10
35.980677
 20
48.008876
 30
0.0
 10
36.070762
 20
48.758134
 30
0.0
  0
SPLINE
  5
3a5
100
AcDbEntity
  8
0
 62
7
100
AcDbSpline
 70
8
 71
3
 72
8
 73
4
 74
0
 40
0
 40
0
 40
0
 40
0
 40
1
 40
1
 40
1
 40
1
 10
36.070762
 20
48.758134
 30
0.0
 10
36.110701
 20
49.090321
 30
0.0
 10
36.233748
 20
49.589206
 30
0.0
 10
36.344196
 20
49.866764
 30
0.0
  0
SPLINE
  5
3a6
100
AcDbEntity
  8
0
 62
7
100
AcDbSpline
 70
8
 71
3
 72
8
 73
4
 74
0
 40
0
 40
0
 40
0
 40
0
 40
1
 40
1
 40
1
 40
1
 10
36.344196
 20
49.866764
 30
0.0
 10
36.531857
 20
50.338360
 30
0.0
 10
36.442454
 20
50.361466
 30
0.0
 10
34.979375
 20
50.219491
 30
0.0
  0
SPLINE
  5
3a7
100
AcDbEntity
  8
0
 62
7
100
AcDbSpline
 70
8
 71
3
 72
8
 73
4
 74
0
 40
0
 40
0
 40
0
 40
0
 40
1
 40
1
 40
1
 40
1
 10
34.979375
 20
50.219491
 30
0.0
 10
33.673751
 20
50.092793
 30
0.0
 10
33.567531
 20
50.110427
 30
0.0
 10
34.339779
 20
50.325663
 30
0.0
  0
SPLINE
  5
3a8
100
AcDbEntity
  8
0
 62
7
100
AcDbSpline
 70
8
 71
3
 72
8
 73
4
 74
0
 40
0
 40
0
 40
0
 40
0
 40
1
 40
1
 40
1
 40
1
 10
34.339779
 20
50.325663
 30
0.0
 10
34.849102
 20
50.467620
 30
0.0
 10
35.562320
 20
50.668542
 30
0.0
 10
35.924707
 20
50.772155
 30
0.0
  0
SPLINE
  5
3a9
100
AcDbEntity
  8
0
 62
7
100
AcDbSpline
 70
8
 71
3
 72
8
 73
4
 74
0
 40
0
 40
0
 40
0
 40
0
 40
1
 40
1
 40
1
 40
1
 10
35.924707
 20
50.772155
 30
0.0
 10
36.716909
 20
50.998665
 30
0.0
 10
36.947139
 20
51.780265
 30
0.0
 10
36.273113
 20
51.954943
 30
0.0
  0
SPLINE
  5
3aa
100
AcDbEntity
  8
0
 62
7
100
AcDbSpline
 70
8
 71
3
 72
8
 73
4
 74
0
 40
0
 40
0
 40
0
 40
0
 40
1
 40
1
 40
1
 40
1
 10
36.273113
 20
51.954943
 30
0.0
 10
35.894791
 20
52.052987
 30
0.0
 10
35.919254
 20
52.085259
 30
0.0
 10
36.390300
 20
52.109545
 30
0.0
  0
SPLINE
  5
3ab
100
AcDbEntity
  8
0
 62
7
100
AcDbSpline
 70
8
 71
3
 72
8
 73
4
 74
0
 40
0
 40
0
 40
0
 40
0
 40
1
 40
1
 40
1
 40
1
 10
36.390300
 20
52.109545
 30
0.0
 10
36.788569
 20
52.130076
 30
0.0
 10
36.985612
 20
52.307053
 30
0.0
 10
36.985612
 20
52.644225
 30
0.0
  0
SPLINE
  5
3ac
100
AcDbEntity
  8
0
 62
7
100
AcDbSpline
 70
8
 71
3
 72
8
 73
4
 74
0
 40
0
 40
0
 40
0
 40
0
 40
1
 40
1
 40
1
 40
1
 10
36.985612
 20
52.644225
 30
0.0
 10
36.985612
 20
53.076546
 30
0.0
 10
36.825708
 20
53.133911
 30
0.0
 10
35.861133
 20
53.047614
 30
0.0
  0
LWPOLYLINE
  5
3ad
100
AcDbEntity
  8
0
 62
7
100
AcDbPolyline
 90
3
 70
0
 10
34.730036
 20
47.456998
 30
0.0
 10
33.678320
 20
47.403967
 30
0.0
 10
34.736654
 20
47.690492
 30
0.0
  0
SPLINE
  5
3ae
100
AcDbEntity
  8
0
 62
7
100
AcDbSpline
 70
8
 71
3
 72
8
 73
4
 74
0
 40
0
 40
0
 40
0
 40
0
 40
1
 40
1
 40
1
 40
1
 10
35.927279
 20
53.232979
 30
0.0
 10
37.100372
 20
53.514733
 30
0.0
 10
37.502761
 20
53.821137
 30
0.0
 10
37.510728
 20
54.438706
 30
0.0
  0
SPLINE
  5
3af
100
AcDbEntity
  8
0
 62
7
100
AcDbSpline
 70
8
 71
3
 72
8
 73
4
 74
0
 40
0
 40
0
 40
0
 40
0
 40
1
 40
1
 40
1
 40
1
 10
37.510728
 20
54.438706
 30
0.0
 10
37.513400
 20
54.645658
 30
0.0
 10
37.176329
 20
54.714471
 30
0.0
 10
36.522591
 20
54.640432
 30
0.0
  0
SPLINE
  5
3b0
100
AcDbEntity
  8
0
 62
7
100
AcDbSpline
 70
8
 71
3
 72
8
 73
4
 74
0
 40
0
 40
0
 40
0
 40
0
 40
1
 40
1
 40
1
 40
1
 10
36.522591
 20
54.640432
 30
0.0
 10
35.549478
 20
54.530223
 30
0.0
 10
35.552920
 20
54.534512
 30
0.0
 10
36.701624
 20
54.863434
 30
0.0
  0
SPLINE
  5
3b1
100
AcDbEntity
  8
0
 62
7
100
AcDbSpline
 70
8
 71
3
 72
8
 73
4
 74
0
 40
0
 40
0
 40
0
 40
0
 40
1
 40
1
 40
1
 40
1
 10
36.701624
 20
54.863434
 30
0.0
 10
38.080876
 20
55.258375
 30
0.0
 10
38.380921
 20
55.760287
 30
0.0
 10
37.332028
 20
55.917962
 30
0.0
  0
SPLINE
  5
3b2
100
AcDbEntity
  8
0
 62
7
100
AcDbSpline
 70
8
 71
3
 72
8
 73
4
 74
0
 40
0
 40
0
 40
0
 40
0
 40
1
 40
1
 40
1
 40
1
 10
37.332028
 20
55.917962
 30
0.0
 10
36.613362
 20
56.025997
 30
0.0
 10
36.616918
 20
56.031014
 30
0.0
 10
37.439325
 20
56.069344
 30
0.0
  0
SPLINE
  5
3b3
100
AcDbEntity
  8
0
 62
7
100
AcDbSpline
 70
8
 71
3
 72
8
 73
4
 74
0
 40
0
 40
0
 40
0
 40
0
 40
1
 40
1
 40
1
 40
1
 10
37.439325
 20
56.069344
 30
0.0
 10
38.500905
 20
56.118821
 30
0.0
 10
39.264296
 20
57.160332
 30
0.0
 10
38.251691
 20
57.177675
 30
0.0
  0
SPLINE
  5
3b4
100
AcDbEntity
  8
0
 62
7
100
AcDbSpline
 70
8
 71
3
 72
8
 73
4
 74
0
 40
0
 40
0
 40
0
 40
0
 40
1
 40
1
 40
1
 40
1
 10
38.251691
 20
57.177675
 30
0.0
 10
37.735841
 20
57.186513
 30
0.0
 10
37.773322
 20
57.242906
 30
0.0
 10
38.506966
 20
57.561779
 30
0.0
  0
SPLINE
  5
3b5
100
AcDbEntity
  8
0
 62
7
100
AcDbSpline
 70
8
 71
3
 72
8
 73
4
 74
0
 40
0
 40
0
 40
0
 40
0
 40
1
 40
1
 40
1
 40
1
 10
38.506966
 20
57.561779
 30
0.0
 10
39.437702
 20
57.966314
 30
0.0
 10
39.648794
 20
58.474179
 30
0.0
 10
38.903841
 20
58.516610
 30
0.0
  0
SPLINE
  5
3b6
100
AcDbEntity
  8
0
 62
7
100
AcDbSpline
 70
8
 71
3
 72
8
 73
4
 74
0
 40
0
 40
0
 40
0
 40
0
 40
1
 40
1
 40
1
 40
1
 10
38.903841
 20
58.516610
 30
0.0
 10
38.607600
 20
58.533490
 30
0.0
 10
38.679078
 20
58.611561
 30
0.0
 10
39.102279
 20
58.733373
 30
0.0
  0
SPLINE
  5
3b7
100
AcDbEntity
  8
0
 62
7
100
AcDbSpline
 70
8
 71
3
 72
8
 73
4
 74
0
 40
0
 40
0
 40
0
 40
0
 40
1
 40
1
 40
1
 40
1
 10
39.102279
 20
58.733373
 30
0.0
 10
39.496132
 20
58.846739
 30
0.0
 10
39.748870
 20
59.103673
 30
0.0
 10
39.726989
 20
59.368457
 30
0.0
  0
SPLINE
  5
3b8
100
AcDbEntity
  8
0
 62
7
100
AcDbSpline
 70
8
 71
3
 72
8
 73
4
 74
0
 40
0
 40
0
 40
0
 40
0
 40
1
 40
1
 40
1
 40
1
 10
39.726989
 20
59.368457
 30
0.0
 10
39.706775
 20
59.613041
 30
0.0
 10
39.825840
 20
59.818193
 30
0.0
 10
39.991572
 20
59.824353
 30
0.0
  0
SPLINE
  5
3b9
100
AcDbEntity
  8
0
 62
7
100
AcDbSpline
 70
8
 71
3
 72
8
 73
4
 74
0
 40
0
 40
0
 40
0
 40
0
 40
1
 40
1
 40
1
 40
1
 10
39.991572
 20
59.824353
 30
0.0
 10
40.321902
 20
59.836629
 30
0.0
 10
41.582327
 20
61.665236
 30
0.0
 10
41.260461
 20
61.665236
 30
0.0
  0
SPLINE
  5
3ba
100
AcDbEntity
  8
0
 62
7
100
AcDbSpline
 70
8
 71
3
 72
8
 73
4
 74
0
 40
0
 40
0
 40
0
 40
0
 40
1
 40
1
 40
1
 40
1
 10
41.260461
 20
61.665236
 30
0.0
 10
41.151172
 20
61.665236
 30
0.0
 10
40.596709
 20
61.188986
 30
0.0
 10
40.028320
 20
60.606903
 30
0.0
  0
SPLINE
  5
3bb
100
AcDbEntity
  8
0
 62
7
100
AcDbSpline
 70
8
 71
3
 72
8
 73
4
 74
0
 40
0
 40
0
 40
0
 40
0
 40
1
 40
1
 40
1
 40
1
 10
40.028320
 20
60.606903
 30
0.0
 10
39.459932
 20
60.024820
 30
0.0
 10
39.077498
 20
59.548570
 30
0.0
 10
39.178465
 20
59.548570
 30
0.0
  0
SPLINE
  5
3bc
100
AcDbEntity
  8
0
 62
7
100
AcDbSpline
 70
8
 71
3
 72
8
 73
4
 74
0
 40
0
 40
0
 40
0
 40
0
 40
1
 40
1
 40
1
 40
1
 10
39.178465
 20
59.548570
 30
0.0
 10
39.279436
 20
59.548570
 30
0.0
 10
39.032744
 20
59.221148
 30
0.0
 10
38.630262
 20
58.820965
 30
0.0
  0
SPLINE
  5
3bd
100
AcDbEntity
  8
0
 62
7
100
AcDbSpline
 70
8
 71
3
 72
8
 73
4
 74
0
 40
0
 40
0
 40
0
 40
0
 40
1
 40
1
 40
1
 40
1
 10
38.630262
 20
58.820965
 30
0.0
 10
37.747271
 20
57.943017
 30
0.0
 10
36.020428
 20
55.623203
 30
0.0
 10
35.035876
 20
53.992320
 30
0.0
  0
SPLINE
  5
3be
100
AcDbEntity
  8
0
 62
7
100
AcDbSpline
 70
8
 71
3
 72
8
 73
4
 74
0
 40
0
 40
0
 40
0
 40
0
 40
1
 40
1
 40
1
 40
1
 10
35.035876
 20
53.992320
 30
0.0
 10
34.640552
 20
53.337476
 30
0.0
 10
34.206098
 20
52.623101
 30
0.0
 10
34.070422
 20
52.404820
 30
0.0
  0
SPLINE
  5
3bf
100
AcDbEntity
  8
0
 62
7
100
AcDbSpline
 70
8
 71
3
 72
8
 73
4
 74
0
 40
0
 40
0
 40
0
 40
0
 40
1
 40
1
 40
1
 40
1
 10
34.070422
 20
52.404820
 30
0.0
 10
33.934749
 20
52.186538
 30
0.0
 10
33.585801
 20
51.472163
 30
0.0
 10
33.294987
 20
50.817320
 30
0.0
  0
SPLINE
  5
3c0
100
AcDbEntity
  8
0
 62
7
100
AcDbSpline
 70
8
 71
3
 72
8
 73
4
 74
0
 40
0
 40
0
 40
0
 40
0
 40
1
 40
1
 40
1
 40
1
 10
33.294987
 20
50.817320
 30
0.0
 10
31.834714
 20
47.529155
 30
0.0
 10
31.561926
 20
45.687189
 30
0.0
 10
32.491537
 20
45.392142
 30
0.0
  0
SPLINE
  5
3c1
100
AcDbEntity
  8
0
 62
7
100
AcDbSpline
 70
8
 71
3
 72
8
 73
4
 74
0
 40
0
 40
0
 40
0
 40
0
 40
1
 40
1
 40
1
 40
1
 10
32.491537
 20
45.392142
 30
0.0
 10
32.784693
 20
45.299098
 30
0.0
 10
32.944890
 20
45.094086
 30
0.0
 10
32.847531
 20
44.936558
 30
0.0
  0
SPLINE
  5
3c2
100
AcDbEntity
  8
0
 62
7
100
AcDbSpline
 70
8
 71
3
 72
8
 73
4
 74
0
 40
0
 40
0
 40
0
 40
0
 40
1
 40
1
 40
1
 40
1
 10
32.847531
 20
44.936558
 30
0.0
 10
32.748956
 20
44.777057
 30
0.0
 10
32.792554
 20
44.725566
 30
0.0
 10
32.945922
 20
44.820351
 30
0.0
  0
SPLINE
  5
3c3
100
AcDbEntity
  8
0
 62
7
100
AcDbSpline
 70
8
 71
3
 72
8
 73
4
 74
0
 40
0
 40
0
 40
0
 40
0
 40
1
 40
1
 40
1
 40
1
 10
32.945922
 20
44.820351
 30
0.0
 10
33.097393
 20
44.913965
 30
0.0
 10
33.994376
 20
44.640042
 30
0.0
 10
34.939216
 20
44.211629
 30
0.0
  0
SPLINE
  5
3c4
100
AcDbEntity
  8
0
 62
7
100
AcDbSpline
 70
8
 71
3
 72
8
 73
4
 74
0
 40
0
 40
0
 40
0
 40
0
 40
1
 40
1
 40
1
 40
1
 10
34.939216
 20
44.211629
 30
0.0
 10
35.884059
 20
43.783218
 30
0.0
 10
37.237038
 20
43.298356
 30
0.0
 10
37.945841
 20
43.134158
 30
0.0
  0
SPLINE
  5
3c5
100
AcDbEntity
  8
0
 62
7
100
AcDbSpline
 70
8
 71
3
 72
8
 73
4
 74
0
 40
0
 40
0
 40
0
 40
0
 40
1
 40
1
 40
1
 40
1
 10
37.945841
 20
43.134158
 30
0.0
 10
38.654641
 20
42.969961
 30
0.0
 10
39.472695
 20
42.738797
 30
0.0
 10
39.763737
 20
42.620459
 30
0.0
  0
SPLINE
  5
3c6
100
AcDbEntity
  8
0
 62
7
100
AcDbSpline
 70
8
 71
3
 72
8
 73
4
 74
0
 40
0
 40
0
 40
0
 40
0
 40
1
 40
1
 40
1
 40
1
 10
39.763737
 20
42.620459
 30
0.0
 10
40.260677
 20
42.418402
 30
0.0
 10
44.539056
 20
41.348729
 30
0.0
 10
45.004874
 20
41.310081
 30
0.0
  0
SPLINE
  5
3c7
100
AcDbEntity
  8
0
 62
7
100
AcDbSpline
 70
8
 71
3
 72
8
 73
4
 74
0
 40
0
 40
0
 40
0
 40
0
 40
1
 40
1
 40
1
 40
1
 10
45.004874
 20
41.310081
 30
0.0
 10
45.122603
 20
41.300318
 30
0.0
 10
45.145341
 20
41.411382
 30
0.0
 10
45.055404
 20
41.556903
 30
0.0
  0
LWPOLYLINE
  5
3c8
100
AcDbEntity
  8
0
 62
7
100
AcDbPolyline
 90
3
 70
0
 10
35.861133
 20
53.047614
 30
0.0
 10
34.736654
 20
52.947012
 30
0.0
 10
35.927279
 20
53.232979
 30
0.0
  0
SPLINE
  5
3c9
100
AcDbEntity
  8
0
 62
7
100
AcDbSpline
 70
8
 71
3
 72
8
 73
4
 74
0
 40
0
 40
0
 40
0
 40
0
 40
1
 40
1
 40
1
 40
1
 10
33.810612
 20
49.018365
 30
0.0
 10
33.810612
 20
49.134665
 30
0.0
 10
34.227331
 20
49.229820
 30
0.0
 10
34.736654
 20
49.229820
 30
0.0
  0
SPLINE
  5
3ca
100
AcDbEntity
  8
0
 62
7
100
AcDbSpline
 70
8
 71
3
 72
8
 73
4
 74
0
 40
0
 40
0
 40
0
 40
0
 40
1
 40
1
 40
1
 40
1
 10
34.736654
 20
49.229820
 30
0.0
 10
35.245977
 20
49.229820
 30
0.0
 10
35.662695
 20
49.183314
 30
0.0
 10
35.662695
 20
49.126476
 30
0.0
  0
SPLINE
  5
3cb
100
AcDbEntity
  8
0
 62
7
100
AcDbSpline
 70
8
 71
3
 72
8
 73
4
 74
0
 40
0
 40
0
 40
0
 40
0
 40
1
 40
1
 40
1
 40
1
 10
35.662695
 20
49.126476
 30
0.0
 10
35.662695
 20
49.069636
 30
0.0
 10
35.245977
 20
48.974481
 30
0.0
 10
34.736654
 20
48.915021
 30
0.0
  0
SPLINE
  5
3cc
100
AcDbEntity
  8
0
 62
7
100
AcDbSpline
 70
8
 71
3
 72
8
 73
4
 74
0
 40
0
 40
0
 40
0
 40
0
 40
1
 40
1
 40
1
 40
1
 10
34.736654
 20
48.915021
 30
0.0
 10
34.227331
 20
48.855559
 30
0.0
 10
33.810612
 20
48.902056
 30
0.0
 10
33.810612
 20
49.018365
 30
0.0
  0
LWPOLYLINE
  5
3cd
100
AcDbEntity
  8
0
 62
7
100
AcDbPolyline
 90
1
 70
1
 10
45.055404
 20
41.556903
 30
0.0
  0
SPLINE
  5
3ce
100
AcDbEntity
  8
0
 62
7
100
AcDbSpline
 70
8
 71
3
 72
8
 73
4
 74
0
 40
0
 40
0
 40
0
 40
0
 40
1
 40
1
 40
1
 40
1
 10
34.273633
 20
51.786298
 30
0.0
 10
34.455534
 20
51.859696
 30
0.0
 10
34.753190
 20
51.859696
 30
0.0
 10
34.935091
 20
51.786298
 30
0.0
  0
SPLINE
  5
3cf
100
AcDbEntity
  8
0
 62
7
100
AcDbSpline
 70
8
 71
3
 72
8
 73
4
 74
0
 40
0
 40
0
 40
0
 40
0
 40
1
 40
1
 40
1
 40
1
 10
34.935091
 20
51.786298
 30
0.0
 10
35.116992
 20
51.712900
 30
0.0
 10
34.968164
 20
51.652845
 30
0.0
 10
34.604362
 20
51.652845
 30
0.0
  0
SPLINE
  5
3d0
100
AcDbEntity
  8
0
 62
7
100
AcDbSpline
 70
8
 71
3
 72
8
 73
4
 74
0
 40
0
 40
0
 40
0
 40
0
 40
1
 40
1
 40
1
 40
1
 10
34.604362
 20
51.652845
 30
0.0
 10
34.240560
 20
51.652845
 30
0.0
 10
34.091732
 20
51.712900
 30
0.0
 10
34.273633
 20
51.786298
 30
0.0
  0
LWPOLYLINE
  5
3d1
100
AcDbEntity
  8
0
 62
7
100
AcDbPolyline
 90
1
 70
1
 10
33.810612
 20
49.018365
 30
0.0
  0
SPLINE
  5
3d2
100
AcDbEntity
  8
0
 62
7
100
AcDbSpline
 70
8
 71
3
 72
8
 73
4
 74
0
 40
0
 40
0
 40
0
 40
0
 40
1
 40
1
 40
1
 40
1
 10
1.191785
 20
43.872007
 30
0.0
 10
1.131164
 20
44.272189
 30
0.0
 10
1.081563
 20
43.944768
 30
0.0
 10
1.081563
 20
43.144403
 30
0.0
  0
SPLINE
  5
3d3
100
AcDbEntity
  8
0
 62
7
100
AcDbSpline
 70
8
 71
3
 72
8
 73
4
 74
0
 40
0
 40
0
 40
0
 40
0
 40
1
 40
1
 40
1
 40
1
 10
1.081563
 20
43.144403
 30
0.0
 10
1.081563
 20
42.344038
 30
0.0
 10
1.131164
 20
42.016617
 30
0.0
 10
1.191785
 20
42.416799
 30
0.0
  0
SPLINE
  5
3d4
100
AcDbEntity
  8
0
 62
7
100
AcDbSpline
 70
8
 71
3
 72
8
 73
4
 74
0
 40
0
 40
0
 40
0
 40
0
 40
1
 40
1
 40
1
 40
1
 10
1.191785
 20
42.416799
 30
0.0
 10
1.252409
 20
42.816981
 30
0.0
 10
1.252409
 20
43.471825
 30
0.0
 10
1.191785
 20
43.872007
 30
0.0
  0
LWPOLYLINE
  5
3d5
100
AcDbEntity
  8
0
 62
7
100
AcDbPolyline
 90
1
 70
1
 10
34.273633
 20
51.786298
 30
0.0
  0
LWPOLYLINE
  5
3d6
100
AcDbEntity
  8
0
 62
7
100
AcDbPolyline
 90
1
 70
1
 10
1.191785
 20
43.872007
 30
0.0
  0
SPLINE
  5
3d7
100
AcDbEntity
  8
0
 62
7
100
AcDbSpline
 70
8
 71
3
 72
8
 73
4
 74
0
 40
0
 40
0
 40
0
 40
0
 40
1
 40
1
 40
1
 40
1
 10
31.879940
 20
44.449500
 30
0.0
 10
31.071418
 20
44.943596
 30
0.0
 10
30.890652
 20
45.198932
 30
0.0
 10
30.953898
 20
45.757566
 30
0.0
  0
SPLINE
  5
3d8
100
AcDbEntity
  8
0
 62
7
100
AcDbSpline
 70
8
 71
3
 72
8
 73
4
 74
0
 40
0
 40
0
 40
0
 40
0
 40
1
 40
1
 40
1
 40
1
 10
30.953898
 20
45.757566
 30
0.0
 10
31.042163
 20
46.537152
 30
0.0
 10
30.976282
 20
46.583986
 30
0.0
 10
29.791292
 20
46.583986
 30
0.0
  0
SPLINE
  5
3d9
100
AcDbEntity
  8
0
 62
7
100
AcDbSpline
 70
8
 71
3
 72
8
 73
4
 74
0
 40
0
 40
0
 40
0
 40
0
 40
1
 40
1
 40
1
 40
1
 10
29.791292
 20
46.583986
 30
0.0
 10
28.992097
 20
46.583986
 30
0.0
 10
28.974420
 20
46.563217
 30
0.0
 10
29.460563
 20
46.195525
 30
0.0
  0
SPLINE
  5
3da
100
AcDbEntity
  8
0
 62
7
100
AcDbSpline
 70
8
 71
3
 72
8
 73
4
 74
0
 40
0
 40
0
 40
0
 40
0
 40
1
 40
1
 40
1
 40
1
 10
29.460563
 20
46.195525
 30
0.0
 10
29.934868
 20
45.836779
 30
0.0
 10
29.874647
 20
45.806421
 30
0.0
 10
28.673285
 20
45.798650
 30
0.0
  0
SPLINE
  5
3db
100
AcDbEntity
  8
0
 62
7
100
AcDbSpline
 70
8
 71
3
 72
8
 73
4
 74
0
 40
0
 40
0
 40
0
 40
0
 40
1
 40
1
 40
1
 40
1
 10
28.673285
 20
45.798650
 30
0.0
 10
27.138186
 20
45.788728
 30
0.0
 10
27.194105
 20
45.591476
 30
0.0
 10
28.813136
 20
45.305356
 30
0.0
  0
LWPOLYLINE
  5
3dc
100
AcDbEntity
  8
0
 62
7
100
AcDbPolyline
 90
3
 70
0
 10
30.900195
 20
43.506588
 30
0.0
 10
32.884570
 20
43.835566
 30
0.0
 10
31.879940
 20
44.449500
 30
0.0
  0
SPLINE
  5
3dd
100
AcDbEntity
  8
0
 62
7
100
AcDbSpline
 70
8
 71
3
 72
8
 73
4
 74
0
 40
0
 40
0
 40
0
 40
0
 40
1
 40
1
 40
1
 40
1
 10
29.048112
 20
43.826398
 30
0.0
 10
28.393268
 20
43.645434
 30
0.0
 10
27.678893
 20
43.427356
 30
0.0
 10
27.460612
 20
43.341777
 30
0.0
  0
SPLINE
  5
3de
100
AcDbEntity
  8
0
 62
7
100
AcDbSpline
 70
8
 71
3
 72
8
 73
4
 74
0
 40
0
 40
0
 40
0
 40
0
 40
1
 40
1
 40
1
 40
1
 10
27.460612
 20
43.341777
 30
0.0
 10
26.759569
 20
43.066928
 30
0.0
 10
28.853326
 20
43.167252
 30
0.0
 10
30.900195
 20
43.506588
 30
0.0
  0
LWPOLYLINE
  5
3df
100
AcDbEntity
  8
0
 62
7
100
AcDbPolyline
 90
7
 70
0
 10
28.813136
 20
45.305356
 30
0.0
 10
29.974154
 20
45.100179
 30
0.0
 10
28.386654
 20
44.677719
 30
0.0
 10
26.799154
 20
44.255256
 30
0.0
 10
28.518945
 20
44.205337
 30
0.0
 10
30.238737
 20
44.155421
 30
0.0
 10
29.048112
 20
43.826398
 30
0.0
  0
SPLINE
  5
3e0
100
AcDbEntity
  8
0
 62
7
100
AcDbSpline
 70
8
 71
3
 72
8
 73
4
 74
0
 40
0
 40
0
 40
0
 40
0
 40
1
 40
1
 40
1
 40
1
 10
1.449246
 20
45.988674
 30
0.0
 10
1.382695
 20
46.243335
 30
0.0
 10
1.328244
 20
46.034976
 30
0.0
 10
1.328244
 20
45.525653
 30
0.0
  0
SPLINE
  5
3e1
100
AcDbEntity
  8
0
 62
7
100
AcDbSpline
 70
8
 71
3
 72
8
 73
4
 74
0
 40
0
 40
0
 40
0
 40
0
 40
1
 40
1
 40
1
 40
1
 10
1.328244
 20
45.525653
 30
0.0
 10
1.328244
 20
45.016330
 30
0.0
 10
1.382695
 20
44.807971
 30
0.0
 10
1.449246
 20
45.062632
 30
0.0
  0
SPLINE
  5
3e2
100
AcDbEntity
  8
0
 62
7
100
AcDbSpline
 70
8
 71
3
 72
8
 73
4
 74
0
 40
0
 40
0
 40
0
 40
0
 40
1
 40
1
 40
1
 40
1
 10
1.449246
 20
45.062632
 30
0.0
 10
1.515794
 20
45.317294
 30
0.0
 10
1.515794
 20
45.734012
 30
0.0
 10
1.449246
 20
45.988674
 30
0.0
  0
LWPOLYLINE
  5
3e3
100
AcDbEntity
  8
0
 62
7
100
AcDbPolyline
 90
1
 70
1
 10
30.900195
 20
43.506588
 30
0.0
  0
SPLINE
  5
3e4
100
AcDbEntity
  8
0
 62
7
100
AcDbSpline
 70
8
 71
3
 72
8
 73
4
 74
0
 40
0
 40
0
 40
0
 40
0
 40
1
 40
1
 40
1
 40
1
 10
1.714798
 20
47.571139
 30
0.0
 10
1.647715
 20
47.828570
 30
0.0
 10
1.588417
 20
47.682007
 30
0.0
 10
1.583025
 20
47.245445
 30
0.0
  0
SPLINE
  5
3e5
100
AcDbEntity
  8
0
 62
7
100
AcDbSpline
 70
8
 71
3
 72
8
 73
4
 74
0
 40
0
 40
0
 40
0
 40
0
 40
1
 40
1
 40
1
 40
1
 10
1.583025
 20
47.245445
 30
0.0
 10
1.577627
 20
46.808882
 30
0.0
 10
1.632518
 20
46.598258
 30
0.0
 10
1.704995
 20
46.777389
 30
0.0
  0
SPLINE
  5
3e6
100
AcDbEntity
  8
0
 62
7
100
AcDbSpline
 70
8
 71
3
 72
8
 73
4
 74
0
 40
0
 40
0
 40
0
 40
0
 40
1
 40
1
 40
1
 40
1
 10
1.704995
 20
46.777389
 30
0.0
 10
1.777470
 20
46.956520
 30
0.0
 10
1.781880
 20
47.313707
 30
0.0
 10
1.714811
 20
47.571139
 30
0.0
  0
LWPOLYLINE
  5
3e7
100
AcDbEntity
  8
0
 62
7
100
AcDbPolyline
 90
1
 70
1
 10
1.449246
 20
45.988674
 30
0.0
  0
SPLINE
  5
3e8
100
AcDbEntity
  8
0
 62
7
100
AcDbSpline
 70
8
 71
3
 72
8
 73
4
 74
0
 40
0
 40
0
 40
0
 40
0
 40
1
 40
1
 40
1
 40
1
 10
1.971256
 20
49.031382
 30
0.0
 10
1.897858
 20
49.213283
 30
0.0
 10
1.837803
 20
49.064455
 30
0.0
 10
1.837803
 20
48.700653
 30
0.0
  0
SPLINE
  5
3e9
100
AcDbEntity
  8
0
 62
7
100
AcDbSpline
 70
8
 71
3
 72
8
 73
4
 74
0
 40
0
 40
0
 40
0
 40
0
 40
1
 40
1
 40
1
 40
1
 10
1.837803
 20
48.700653
 30
0.0
 10
1.837803
 20
48.336851
 30
0.0
 10
1.897858
 20
48.188023
 30
0.0
 10
1.971256
 20
48.369924
 30
0.0
  0
SPLINE
  5
3ea
100
AcDbEntity
  8
0
 62
7
100
AcDbSpline
 70
8
 71
3
 72
8
 73
4
 74
0
 40
0
 40
0
 40
0
 40
0
 40
1
 40
1
 40
1
 40
1
 10
1.971256
 20
48.369924
 30
0.0
 10
2.044654
 20
48.551825
 30
0.0
 10
2.044654
 20
48.849481
 30
0.0
 10
1.971256
 20
49.031382
 30
0.0
  0
LWPOLYLINE
  5
3eb
100
AcDbEntity
  8
0
 62
7
100
AcDbPolyline
 90
1
 70
1
 10
1.714811
 20
47.571139
 30
0.0
  0
SPLINE
  5
3ec
100
AcDbEntity
  8
0
 62
7
100
AcDbSpline
 70
8
 71
3
 72
8
 73
4
 74
0
 40
0
 40
0
 40
0
 40
0
 40
1
 40
1
 40
1
 40
1
 10
78.410456
 20
48.723915
 30
0.0
 10
80.164601
 20
49.045532
 30
0.0
 10
83.172525
 20
50.511276
 30
0.0
 10
84.096307
 20
51.494597
 30
0.0
  0
SPLINE
  5
3ed
100
AcDbEntity
  8
0
 62
7
100
AcDbSpline
 70
8
 71
3
 72
8
 73
4
 74
0
 40
0
 40
0
 40
0
 40
0
 40
1
 40
1
 40
1
 40
1
 10
84.096307
 20
51.494597
 30
0.0
 10
85.078147
 20
52.539720
 30
0.0
 10
84.546030
 20
52.487523
 30
0.0
 10
82.598744
 20
51.347701
 30
0.0
  0
SPLINE
  5
3ee
100
AcDbEntity
  8
0
 62
7
100
AcDbSpline
 70
8
 71
3
 72
8
 73
4
 74
0
 40
0
 40
0
 40
0
 40
0
 40
1
 40
1
 40
1
 40
1
 10
82.598744
 20
51.347701
 30
0.0
 10
80.147057
 20
49.912630
 30
0.0
 10
78.240998
 20
49.229820
 30
0.0
 10
76.686706
 20
49.229820
 30
0.0
  0
SPLINE
  5
3ef
100
AcDbEntity
  8
0
 62
7
100
AcDbSpline
 70
8
 71
3
 72
8
 73
4
 74
0
 40
0
 40
0
 40
0
 40
0
 40
1
 40
1
 40
1
 40
1
 10
76.686706
 20
49.229820
 30
0.0
 10
75.571625
 20
49.229820
 30
0.0
 10
75.304597
 20
49.339913
 30
0.0
 10
74.712256
 20
50.043871
 30
0.0
  0
SPLINE
  5
3f0
100
AcDbEntity
  8
0
 62
7
100
AcDbSpline
 70
8
 71
3
 72
8
 73
4
 74
0
 40
0
 40
0
 40
0
 40
0
 40
1
 40
1
 40
1
 40
1
 10
74.712256
 20
50.043871
 30
0.0
 10
73.024492
 20
52.049664
 30
0.0
 10
74.812776
 20
54.512607
 30
0.0
 10
77.962278
 20
54.520010
 30
0.0
  0
SPLINE
  5
3f1
100
AcDbEntity
  8
0
 62
7
100
AcDbSpline
 70
8
 71
3
 72
8
 73
4
 74
0
 40
0
 40
0
 40
0
 40
0
 40
1
 40
1
 40
1
 40
1
 10
77.962278
 20
54.520010
 30
0.0
 10
78.518340
 20
54.521333
 30
0.0
 10
78.548540
 20
54.470530
 30
0.0
 10
78.226862
 20
54.075073
 30
0.0
  0
SPLINE
  5
3f2
100
AcDbEntity
  8
0
 62
7
100
AcDbSpline
 70
8
 71
3
 72
8
 73
4
 74
0
 40
0
 40
0
 40
0
 40
0
 40
1
 40
1
 40
1
 40
1
 10
78.226862
 20
54.075073
 30
0.0
 10
77.910365
 20
53.685982
 30
0.0
 10
77.920898
 20
53.650060
 30
0.0
 10
78.308893
 20
53.795329
 30
0.0
  0
SPLINE
  5
3f3
100
AcDbEntity
  8
0
 62
7
100
AcDbSpline
 70
8
 71
3
 72
8
 73
4
 74
0
 40
0
 40
0
 40
0
 40
0
 40
1
 40
1
 40
1
 40
1
 10
78.308893
 20
53.795329
 30
0.0
 10
78.553728
 20
53.887000
 30
0.0
 10
79.493822
 20
54.045697
 30
0.0
 10
80.397990
 20
54.147993
 30
0.0
  0
SPLINE
  5
3f4
100
AcDbEntity
  8
0
 62
7
100
AcDbSpline
 70
8
 71
3
 72
8
 73
4
 74
0
 40
0
 40
0
 40
0
 40
0
 40
1
 40
1
 40
1
 40
1
 10
80.397990
 20
54.147993
 30
0.0
 10
81.916849
 20
54.319831
 30
0.0
 10
81.993700
 20
54.358908
 30
0.0
 10
81.408042
 20
54.661559
 30
0.0
  0
SPLINE
  5
3f5
100
AcDbEntity
  8
0
 62
7
100
AcDbSpline
 70
8
 71
3
 72
8
 73
4
 74
0
 40
0
 40
0
 40
0
 40
0
 40
1
 40
1
 40
1
 40
1
 10
81.408042
 20
54.661559
 30
0.0
 10
80.263815
 20
55.252866
 30
0.0
 10
78.726353
 20
55.348394
 30
0.0
 10
77.129198
 20
54.927421
 30
0.0
  0
SPLINE
  5
3f6
100
AcDbEntity
  8
0
 62
7
100
AcDbSpline
 70
8
 71
3
 72
8
 73
4
 74
0
 40
0
 40
0
 40
0
 40
0
 40
1
 40
1
 40
1
 40
1
 10
77.129198
 20
54.927421
 30
0.0
 10
74.550349
 20
54.247695
 30
0.0
 10
73.498112
 20
53.183957
 30
0.0
 10
73.498112
 20
51.256644
 30
0.0
  0
SPLINE
  5
3f7
100
AcDbEntity
  8
0
 62
7
100
AcDbSpline
 70
8
 71
3
 72
8
 73
4
 74
0
 40
0
 40
0
 40
0
 40
0
 40
1
 40
1
 40
1
 40
1
 10
73.498112
 20
51.256644
 30
0.0
 10
73.498112
 20
50.097087
 30
0.0
 10
74.143370
 20
49.309517
 30
0.0
 10
75.482487
 20
48.834619
 30
0.0
  0
SPLINE
  5
3f8
100
AcDbEntity
  8
0
 62
7
100
AcDbSpline
 70
8
 71
3
 72
8
 73
4
 74
0
 40
0
 40
0
 40
0
 40
0
 40
1
 40
1
 40
1
 40
1
 10
75.482487
 20
48.834619
 30
0.0
 10
76.787849
 20
48.371691
 30
0.0
 10
76.540405
 20
48.381047
 30
0.0
 10
78.410456
 20
48.723915
 30
0.0
  0
LWPOLYLINE
  5
3f9
100
AcDbEntity
  8
0
 62
7
100
AcDbPolyline
 90
1
 70
1
 10
1.971256
 20
49.031382
 30
0.0
  0
SPLINE
  5
3fa
100
AcDbEntity
  8
0
 62
7
100
AcDbSpline
 70
8
 71
3
 72
8
 73
4
 74
0
 40
0
 40
0
 40
0
 40
0
 40
1
 40
1
 40
1
 40
1
 10
99.875216
 20
49.423222
 30
0.0
 10
99.808133
 20
49.680654
 30
0.0
 10
99.748835
 20
49.534090
 30
0.0
 10
99.743443
 20
49.097528
 30
0.0
  0
SPLINE
  5
3fb
100
AcDbEntity
  8
0
 62
7
100
AcDbSpline
 70
8
 71
3
 72
8
 73
4
 74
0
 40
0
 40
0
 40
0
 40
0
 40
1
 40
1
 40
1
 40
1
 10
99.743443
 20
49.097528
 30
0.0
 10
99.738045
 20
48.660965
 30
0.0
 10
99.792936
 20
48.450341
 30
0.0
 10
99.865413
 20
48.629472
 30
0.0
  0
SPLINE
  5
3fc
100
AcDbEntity
  8
0
 62
7
100
AcDbSpline
 70
8
 71
3
 72
8
 73
4
 74
0
 40
0
 40
0
 40
0
 40
0
 40
1
 40
1
 40
1
 40
1
 10
99.865413
 20
48.629472
 30
0.0
 10
99.937887
 20
48.808603
 30
0.0
 10
99.942298
 20
49.165790
 30
0.0
 10
99.875229
 20
49.423222
 30
0.0
  0
LWPOLYLINE
  5
3fd
100
AcDbEntity
  8
0
 62
7
100
AcDbPolyline
 90
1
 70
1
 10
78.410456
 20
48.723915
 30
0.0
  0
SPLINE
  5
3fe
100
AcDbEntity
  8
0
 62
7
100
AcDbSpline
 70
8
 71
3
 72
8
 73
4
 74
0
 40
0
 40
0
 40
0
 40
0
 40
1
 40
1
 40
1
 40
1
 10
2.821516
 20
52.272528
 30
0.0
 10
2.783204
 20
52.720285
 30
0.0
 10
2.101063
 20
50.454536
 30
0.0
 10
2.104603
 20
49.891278
 30
0.0
  0
SPLINE
  5
3ff
100
AcDbEntity
  8
0
 62
7
100
AcDbSpline
 70
8
 71
3
 72
8
 73
4
 74
0
 40
0
 40
0
 40
0
 40
0
 40
1
 40
1
 40
1
 40
1
 10
2.104603
 20
49.891278
 30
0.0
 10
2.106455
 20
49.600236
 30
0.0
 10
2.273579
 20
49.957424
 30
0.0
 10
2.476041
 20
50.685028
 30
0.0
  0
SPLINE
  5
400
100
AcDbEntity
  8
0
 62
7
100
AcDbSpline
 70
8
 71
3
 72
8
 73
4
 74
0
 40
0
 40
0
 40
0
 40
0
 40
1
 40
1
 40
1
 40
1
 10
2.476041
 20
50.685028
 30
0.0
 10
2.678503
 20
51.412632
 30
0.0
 10
2.833967
 20
52.127007
 30
0.0
 10
2.821516
 20
52.272528
 30
0.0
  0
LWPOLYLINE
  5
401
100
AcDbEntity
  8
0
 62
7
100
AcDbPolyline
 90
1
 70
1
 10
99.875229
 20
49.423222
 30
0.0
  0
SPLINE
  5
402
100
AcDbEntity
  8
0
 62
7
100
AcDbSpline
 70
8
 71
3
 72
8
 73
4
 74
0
 40
0
 40
0
 40
0
 40
0
 40
1
 40
1
 40
1
 40
1
 10
100.143575
 20
51.409547
 30
0.0
 10
100.080289
 20
51.738665
 30
0.0
 10
100.026105
 20
51.531695
 30
0.0
 10
100.023168
 20
50.949611
 30
0.0
  0
SPLINE
  5
403
100
AcDbEntity
  8
0
 62
7
100
AcDbSpline
 70
8
 71
3
 72
8
 73
4
 74
0
 40
0
 40
0
 40
0
 40
0
 40
1
 40
1
 40
1
 40
1
 10
100.023168
 20
50.949611
 30
0.0
 10
100.020231
 20
50.367528
 30
0.0
 10
100.072013
 20
50.098248
 30
0.0
 10
100.138235
 20
50.351214
 30
0.0
  0
SPLINE
  5
404
100
AcDbEntity
  8
0
 62
7
100
AcDbSpline
 70
8
 71
3
 72
8
 73
4
 74
0
 40
0
 40
0
 40
0
 40
0
 40
1
 40
1
 40
1
 40
1
 10
100.138235
 20
50.351214
 30
0.0
 10
100.204458
 20
50.604179
 30
0.0
 10
100.206860
 20
51.080429
 30
0.0
 10
100.143580
 20
51.409547
 30
0.0
  0
LWPOLYLINE
  5
405
100
AcDbEntity
  8
0
 62
7
100
AcDbPolyline
 90
1
 70
1
 10
2.821516
 20
52.272528
 30
0.0
  0
SPLINE
  5
406
100
AcDbEntity
  8
0
 62
7
100
AcDbSpline
 70
8
 71
3
 72
8
 73
4
 74
0
 40
0
 40
0
 40
0
 40
0
 40
1
 40
1
 40
1
 40
1
 10
11.993940
 20
53.258045
 30
0.0
 10
12.046563
 20
53.531291
 30
0.0
 10
12.536010
 20
54.373833
 30
0.0
 10
13.081602
 20
55.130359
 30
0.0
  0
SPLINE
  5
407
100
AcDbEntity
  8
0
 62
7
100
AcDbSpline
 70
8
 71
3
 72
8
 73
4
 74
0
 40
0
 40
0
 40
0
 40
0
 40
1
 40
1
 40
1
 40
1
 10
13.081602
 20
55.130359
 30
0.0
 10
13.826145
 20
56.162755
 30
0.0
 10
13.912860
 20
56.373866
 30
0.0
 10
13.429236
 20
55.976695
 30
0.0
  0
SPLINE
  5
408
100
AcDbEntity
  8
0
 62
7
100
AcDbSpline
 70
8
 71
3
 72
8
 73
4
 74
0
 40
0
 40
0
 40
0
 40
0
 40
1
 40
1
 40
1
 40
1
 10
13.429236
 20
55.976695
 30
0.0
 10
12.147313
 20
54.923928
 30
0.0
 10
11.248622
 20
53.444918
 30
0.0
 10
10.937318
 20
51.875653
 30
0.0
  0
LWPOLYLINE
  5
409
100
AcDbEntity
  8
0
 62
7
100
AcDbPolyline
 90
1
 70
1
 10
100.143580
 20
51.409547
 30
0.0
  0
SPLINE
  5
40a
100
AcDbEntity
  8
0
 62
7
100
AcDbSpline
 70
8
 71
3
 72
8
 73
4
 74
0
 40
0
 40
0
 40
0
 40
0
 40
1
 40
1
 40
1
 40
1
 10
11.325938
 20
51.855423
 30
0.0
 10
11.640718
 20
52.353620
 30
0.0
 10
11.941317
 20
52.984800
 30
0.0
 10
11.993940
 20
53.258045
 30
0.0
  0
LWPOLYLINE
  5
40b
100
AcDbEntity
  8
0
 62
7
100
AcDbPolyline
 90
3
 70
0
 10
10.937318
 20
51.875653
 30
0.0
 10
10.753615
 20
50.949611
 30
0.0
 10
11.325938
 20
51.855423
 30
0.0
  0
SPLINE
  5
40c
100
AcDbEntity
  8
0
 62
7
100
AcDbSpline
 70
8
 71
3
 72
8
 73
4
 74
0
 40
0
 40
0
 40
0
 40
0
 40
1
 40
1
 40
1
 40
1
 10
3.346335
 20
53.992320
 30
0.0
 10
3.346335
 20
54.242478
 30
0.0
 10
3.262272
 20
54.193572
 30
0.0
 10
3.118944
 20
53.860028
 30
0.0
  0
SPLINE
  5
40d
100
AcDbEntity
  8
0
 62
7
100
AcDbSpline
 70
8
 71
3
 72
8
 73
4
 74
0
 40
0
 40
0
 40
0
 40
0
 40
1
 40
1
 40
1
 40
1
 10
3.118944
 20
53.860028
 30
0.0
 10
2.993878
 20
53.568986
 30
0.0
 10
2.891553
 20
53.152268
 30
0.0
 10
2.891553
 20
52.933986
 30
0.0
  0
SPLINE
  5
40e
100
AcDbEntity
  8
0
 62
7
100
AcDbSpline
 70
8
 71
3
 72
8
 73
4
 74
0
 40
0
 40
0
 40
0
 40
0
 40
1
 40
1
 40
1
 40
1
 10
2.891553
 20
52.933986
 30
0.0
 10
2.891553
 20
52.683828
 30
0.0
 10
2.975614
 20
52.732734
 30
0.0
 10
3.118944
 20
53.066278
 30
0.0
  0
SPLINE
  5
40f
100
AcDbEntity
  8
0
 62
7
100
AcDbSpline
 70
8
 71
3
 72
8
 73
4
 74
0
 40
0
 40
0
 40
0
 40
0
 40
1
 40
1
 40
1
 40
1
 10
3.118944
 20
53.066278
 30
0.0
 10
3.244010
 20
53.357320
 30
0.0
 10
3.346335
 20
53.774038
 30
0.0
 10
3.346335
 20
53.992320
 30
0.0
  0
LWPOLYLINE
  5
410
100
AcDbEntity
  8
0
 62
7
100
AcDbPolyline
 90
1
 70
1
 10
11.993940
 20
53.258045
 30
0.0
  0
SPLINE
  5
411
100
AcDbEntity
  8
0
 62
7
100
AcDbSpline
 70
8
 71
3
 72
8
 73
4
 74
0
 40
0
 40
0
 40
0
 40
0
 40
1
 40
1
 40
1
 40
1
 10
88.972618
 20
54.565910
 30
0.0
 10
90.075761
 20
55.433643
 30
0.0
 10
90.895027
 20
57.703532
 30
0.0
 10
90.100716
 20
57.691459
 30
0.0
  0
SPLINE
  5
412
100
AcDbEntity
  8
0
 62
7
100
AcDbSpline
 70
8
 71
3
 72
8
 73
4
 74
0
 40
0
 40
0
 40
0
 40
0
 40
1
 40
1
 40
1
 40
1
 10
90.100716
 20
57.691459
 30
0.0
 10
89.528504
 20
57.682754
 30
0.0
 10
87.295432
 20
56.149870
 30
0.0
 10
86.838036
 20
55.451793
 30
0.0
  0
SPLINE
  5
413
100
AcDbEntity
  8
0
 62
7
100
AcDbSpline
 70
8
 71
3
 72
8
 73
4
 74
0
 40
0
 40
0
 40
0
 40
0
 40
1
 40
1
 40
1
 40
1
 10
86.838036
 20
55.451793
 30
0.0
 10
85.968972
 20
54.125437
 30
0.0
 10
87.568648
 20
53.461547
 30
0.0
 10
88.972618
 20
54.565910
 30
0.0
  0
LWPOLYLINE
  5
414
100
AcDbEntity
  8
0
 62
7
100
AcDbPolyline
 90
1
 70
1
 10
3.346335
 20
53.992320
 30
0.0
  0
SPLINE
  5
415
100
AcDbEntity
  8
0
 62
7
100
AcDbSpline
 70
8
 71
3
 72
8
 73
4
 74
0
 40
0
 40
0
 40
0
 40
0
 40
1
 40
1
 40
1
 40
1
 10
4.811846
 20
57.939461
 30
0.0
 10
5.189954
 20
58.873459
 30
0.0
 10
5.454697
 20
59.682261
 30
0.0
 10
5.400163
 20
59.736797
 30
0.0
  0
SPLINE
  5
416
100
AcDbEntity
  8
0
 62
7
100
AcDbSpline
 70
8
 71
3
 72
8
 73
4
 74
0
 40
0
 40
0
 40
0
 40
0
 40
1
 40
1
 40
1
 40
1
 10
5.400163
 20
59.736797
 30
0.0
 10
5.301757
 20
59.835201
 30
0.0
 10
3.912694
 20
56.527152
 30
0.0
 10
3.912694
 20
56.194396
 30
0.0
  0
SPLINE
  5
417
100
AcDbEntity
  8
0
 62
7
100
AcDbSpline
 70
8
 71
3
 72
8
 73
4
 74
0
 40
0
 40
0
 40
0
 40
0
 40
1
 40
1
 40
1
 40
1
 10
3.912694
 20
56.194396
 30
0.0
 10
3.912694
 20
55.839868
 30
0.0
 10
4.142175
 20
56.285238
 30
0.0
 10
4.811846
 20
57.939461
 30
0.0
  0
LWPOLYLINE
  5
418
100
AcDbEntity
  8
0
 62
7
100
AcDbPolyline
 90
1
 70
1
 10
88.972618
 20
54.565910
 30
0.0
  0
SPLINE
  5
419
100
AcDbEntity
  8
0
 62
7
100
AcDbSpline
 70
8
 71
3
 72
8
 73
4
 74
0
 40
0
 40
0
 40
0
 40
0
 40
1
 40
1
 40
1
 40
1
 10
92.139937
 20
59.302269
 30
0.0
 10
91.943460
 20
59.620176
 30
0.0
 10
91.225195
 20
59.623134
 30
0.0
 10
91.225195
 20
59.306026
 30
0.0
  0
SPLINE
  5
41a
100
AcDbEntity
  8
0
 62
7
100
AcDbSpline
 70
8
 71
3
 72
8
 73
4
 74
0
 40
0
 40
0
 40
0
 40
0
 40
1
 40
1
 40
1
 40
1
 10
91.225195
 20
59.306026
 30
0.0
 10
91.225195
 20
59.019294
 30
0.0
 10
91.799436
 20
58.776806
 30
0.0
 10
92.089407
 20
58.941089
 30
0.0
  0
SPLINE
  5
41b
100
AcDbEntity
  8
0
 62
7
100
AcDbSpline
 70
8
 71
3
 72
8
 73
4
 74
0
 40
0
 40
0
 40
0
 40
0
 40
1
 40
1
 40
1
 40
1
 10
92.089407
 20
58.941089
 30
0.0
 10
92.200920
 20
59.004269
 30
0.0
 10
92.223661
 20
59.166794
 30
0.0
 10
92.139937
 20
59.302261
 30
0.0
  0
LWPOLYLINE
  5
41c
100
AcDbEntity
  8
0
 62
7
100
AcDbPolyline
 90
1
 70
1
 10
4.811846
 20
57.939461
 30
0.0
  0
LWPOLYLINE
  5
41d
100
AcDbEntity
  8
0
 62
7
100
AcDbPolyline
 90
1
 70
1
 10
92.139937
 20
59.302261
 30
0.0
  0
SPLINE
  5
41e
100
AcDbEntity
  8
0
 62
7
100
AcDbSpline
 70
8
 71
3
 72
8
 73
4
 74
0
 40
0
 40
0
 40
0
 40
0
 40
1
 40
1
 40
1
 40
1
 10
35.997393
 20
60.365960
 30
0.0
 10
36.395393
 20
60.214640
 30
0.0
 10
36.721029
 20
60.135177
 30
0.0
 10
36.721029
 20
60.189372
 30
0.0
  0
SPLINE
  5
41f
100
AcDbEntity
  8
0
 62
7
100
AcDbSpline
 70
8
 71
3
 72
8
 73
4
 74
0
 40
0
 40
0
 40
0
 40
0
 40
1
 40
1
 40
1
 40
1
 10
36.721029
 20
60.189372
 30
0.0
 10
36.721029
 20
60.330837
 30
0.0
 10
32.093297
 20
63.281504
 30
0.0
 10
30.371029
 20
64.238169
 30
0.0
  0
SPLINE
  5
420
100
AcDbEntity
  8
0
 62
7
100
AcDbSpline
 70
8
 71
3
 72
8
 73
4
 74
0
 40
0
 40
0
 40
0
 40
0
 40
1
 40
1
 40
1
 40
1
 10
30.371029
 20
64.238169
 30
0.0
 10
28.876919
 20
65.068098
 30
0.0
 10
25.665548
 20
66.320331
 30
0.0
 10
25.507174
 20
66.134768
 30
0.0
  0
SPLINE
  5
421
100
AcDbEntity
  8
0
 62
7
100
AcDbSpline
 70
8
 71
3
 72
8
 73
4
 74
0
 40
0
 40
0
 40
0
 40
0
 40
1
 40
1
 40
1
 40
1
 10
25.507174
 20
66.134768
 30
0.0
 10
25.458400
 20
66.077618
 30
0.0
 10
25.346180
 20
65.477816
 30
0.0
 10
25.257796
 20
64.801872
 30
0.0
  0
LWPOLYLINE
  5
422
100
AcDbEntity
  8
0
 62
7
100
AcDbPolyline
 90
3
 70
0
 10
35.911224
 20
59.962537
 30
0.0
 10
35.273758
 20
60.641084
 30
0.0
 10
35.997393
 20
60.365960
 30
0.0
  0
SPLINE
  5
423
100
AcDbEntity
  8
0
 62
7
100
AcDbSpline
 70
8
 71
3
 72
8
 73
4
 74
0
 40
0
 40
0
 40
0
 40
0
 40
1
 40
1
 40
1
 40
1
 10
26.080417
 20
63.389476
 30
0.0
 10
28.013425
 20
63.028931
 30
0.0
 10
31.863993
 20
61.626927
 30
0.0
 10
34.075195
 20
60.478548
 30
0.0
  0
SPLINE
  5
424
100
AcDbEntity
  8
0
 62
7
100
AcDbSpline
 70
8
 71
3
 72
8
 73
4
 74
0
 40
0
 40
0
 40
0
 40
0
 40
1
 40
1
 40
1
 40
1
 10
34.075195
 20
60.478548
 30
0.0
 10
35.312122
 20
59.836156
 30
0.0
 10
36.374673
 20
59.304584
 30
0.0
 10
36.436419
 20
59.297274
 30
0.0
  0
SPLINE
  5
425
100
AcDbEntity
  8
0
 62
7
100
AcDbSpline
 70
8
 71
3
 72
8
 73
4
 74
0
 40
0
 40
0
 40
0
 40
0
 40
1
 40
1
 40
1
 40
1
 10
36.436419
 20
59.297274
 30
0.0
 10
36.498168
 20
59.289971
 30
0.0
 10
36.261828
 20
59.589334
 30
0.0
 10
35.911224
 20
59.962537
 30
0.0
  0
LWPOLYLINE
  5
426
100
AcDbEntity
  8
0
 62
7
100
AcDbPolyline
 90
3
 70
0
 10
25.257796
 20
64.801872
 30
0.0
 10
25.097099
 20
63.572882
 30
0.0
 10
26.080417
 20
63.389476
 30
0.0
  0
LWPOLYLINE
  5
427
100
AcDbEntity
  8
0
 62
7
100
AcDbPolyline
 90
1
 70
1
 10
35.911224
 20
59.962537
 30
0.0
  0
SPLINE
  5
428
100
AcDbEntity
  8
0
 62
7
100
AcDbSpline
 70
8
 71
3
 72
8
 73
4
 74
0
 40
0
 40
0
 40
0
 40
0
 40
1
 40
1
 40
1
 40
1
 10
14.640604
 20
61.962609
 30
0.0
 10
14.210799
 20
62.080770
 30
0.0
 10
13.555955
 20
62.108882
 30
0.0
 10
13.185396
 20
62.025080
 30
0.0
  0
LWPOLYLINE
  5
429
100
AcDbEntity
  8
0
 62
7
100
AcDbPolyline
 90
3
 70
0
 10
14.590706
 20
61.559456
 30
0.0
 10
15.422069
 20
61.747770
 30
0.0
 10
14.640604
 20
61.962609
 30
0.0
  0
SPLINE
  5
42a
100
AcDbEntity
  8
0
 62
7
100
AcDbSpline
 70
8
 71
3
 72
8
 73
4
 74
0
 40
0
 40
0
 40
0
 40
0
 40
1
 40
1
 40
1
 40
1
 10
13.173111
 20
62.363757
 30
0.0
 10
13.536913
 20
62.633834
 30
0.0
 10
14.370351
 20
63.119209
 30
0.0
 10
15.025194
 20
63.442371
 30
0.0
  0
LWPOLYLINE
  5
42b
100
AcDbEntity
  8
0
 62
7
100
AcDbPolyline
 90
3
 70
0
 10
13.185396
 20
62.025080
 30
0.0
 10
12.511653
 20
61.872709
 30
0.0
 10
13.173111
 20
62.363757
 30
0.0
  0
SPLINE
  5
42c
100
AcDbEntity
  8
0
 62
7
100
AcDbSpline
 70
8
 71
3
 72
8
 73
4
 74
0
 40
0
 40
0
 40
0
 40
0
 40
1
 40
1
 40
1
 40
1
 10
16.744986
 20
66.564751
 30
0.0
 10
18.445669
 20
67.544685
 30
0.0
 10
18.253505
 20
67.799003
 30
0.0
 10
16.435937
 20
66.973757
 30
0.0
  0
SPLINE
  5
42d
100
AcDbEntity
  8
0
 62
7
100
AcDbSpline
 70
8
 71
3
 72
8
 73
4
 74
0
 40
0
 40
0
 40
0
 40
0
 40
1
 40
1
 40
1
 40
1
 10
16.435937
 20
66.973757
 30
0.0
 10
14.450781
 20
66.072422
 30
0.0
 10
12.232229
 20
63.146821
 30
0.0
 10
11.452131
 20
60.401629
 30
0.0
  0
SPLINE
  5
42e
100
AcDbEntity
  8
0
 62
7
100
AcDbSpline
 70
8
 71
3
 72
8
 73
4
 74
0
 40
0
 40
0
 40
0
 40
0
 40
1
 40
1
 40
1
 40
1
 10
11.452131
 20
60.401629
 30
0.0
 10
11.285738
 20
59.816077
 30
0.0
 10
11.315217
 20
59.821146
 30
0.0
 10
12.520178
 20
60.585310
 30
0.0
  0
SPLINE
  5
42f
100
AcDbEntity
  8
0
 62
7
100
AcDbSpline
 70
8
 71
3
 72
8
 73
4
 74
0
 40
0
 40
0
 40
0
 40
0
 40
1
 40
1
 40
1
 40
1
 10
12.520178
 20
60.585310
 30
0.0
 10
13.201720
 20
61.017531
 30
0.0
 10
14.133459
 20
61.455906
 30
0.0
 10
14.590706
 20
61.559480
 30
0.0
  0
LWPOLYLINE
  5
430
100
AcDbEntity
  8
0
 62
7
100
AcDbPolyline
 90
9
 70
0
 10
15.025194
 20
63.442371
 30
0.0
 10
16.215819
 20
64.029939
 30
0.0
 10
15.289778
 20
64.050709
 30
0.0
 10
14.363736
 20
64.071452
 30
0.0
 10
15.818944
 20
64.840236
 30
0.0
 10
17.274153
 20
65.609020
 30
0.0
 10
16.215819
 20
65.629525
 30
0.0
 10
15.157486
 20
65.650031
 30
0.0
 10
16.744986
 20
66.564751
 30
0.0
  0
LWPOLYLINE
  5
431
100
AcDbEntity
  8
0
 62
7
100
AcDbPolyline
 90
1
 70
1
 10
14.590706
 20
61.559480
 30
0.0
  0
SPLINE
  5
432
100
AcDbEntity
  8
0
 62
7
100
AcDbSpline
 70
8
 71
3
 72
8
 73
4
 74
0
 40
0
 40
0
 40
0
 40
0
 40
1
 40
1
 40
1
 40
1
 10
9.244419
 20
67.221484
 30
0.0
 10
8.654639
 20
66.514636
 30
0.0
 10
5.495667
 20
60.558664
 30
0.0
 10
5.506907
 20
60.174727
 30
0.0
  0
SPLINE
  5
433
100
AcDbEntity
  8
0
 62
7
100
AcDbSpline
 70
8
 71
3
 72
8
 73
4
 74
0
 40
0
 40
0
 40
0
 40
0
 40
1
 40
1
 40
1
 40
1
 10
5.506907
 20
60.174727
 30
0.0
 10
5.510585
 20
60.048622
 30
0.0
 10
6.259138
 20
61.374195
 30
0.0
 10
7.170329
 20
63.120445
 30
0.0
  0
SPLINE
  5
434
100
AcDbEntity
  8
0
 62
7
100
AcDbSpline
 70
8
 71
3
 72
8
 73
4
 74
0
 40
0
 40
0
 40
0
 40
0
 40
1
 40
1
 40
1
 40
1
 10
7.170329
 20
63.120445
 30
0.0
 10
8.081522
 20
64.866695
 30
0.0
 10
9.045132
 20
66.652632
 30
0.0
 10
9.311684
 20
67.089195
 30
0.0
  0
LWPOLYLINE
  5
435
100
AcDbEntity
  8
0
 62
7
100
AcDbPolyline
 90
3
 70
0
 10
9.311684
 20
67.089195
 30
0.0
 10
9.796324
 20
67.882942
 30
0.0
 10
9.244419
 20
67.221484
 30
0.0
  0
SPLINE
  5
436
100
AcDbEntity
  8
0
 62
7
100
AcDbSpline
 70
8
 71
3
 72
8
 73
4
 74
0
 40
0
 40
0
 40
0
 40
0
 40
1
 40
1
 40
1
 40
1
 10
93.606445
 20
61.151685
 30
0.0
 10
93.606445
 20
61.288618
 30
0.0
 10
93.427852
 20
61.400653
 30
0.0
 10
93.209570
 20
61.400653
 30
0.0
  0
SPLINE
  5
437
100
AcDbEntity
  8
0
 62
7
100
AcDbSpline
 70
8
 71
3
 72
8
 73
4
 74
0
 40
0
 40
0
 40
0
 40
0
 40
1
 40
1
 40
1
 40
1
 10
93.209570
 20
61.400653
 30
0.0
 10
92.800416
 20
61.400653
 30
0.0
 10
92.683923
 20
61.088455
 30
0.0
 10
92.981891
 20
60.790484
 30
0.0
  0
SPLINE
  5
438
100
AcDbEntity
  8
0
 62
7
100
AcDbSpline
 70
8
 71
3
 72
8
 73
4
 74
0
 40
0
 40
0
 40
0
 40
0
 40
1
 40
1
 40
1
 40
1
 10
92.981891
 20
60.790484
 30
0.0
 10
93.193275
 20
60.579101
 30
0.0
 10
93.606445
 20
60.818051
 30
0.0
 10
93.606445
 20
61.151685
 30
0.0
  0
LWPOLYLINE
  5
439
100
AcDbEntity
  8
0
 62
7
100
AcDbPolyline
 90
1
 70
1
 10
9.311684
 20
67.089195
 30
0.0
  0
SPLINE
  5
43a
100
AcDbEntity
  8
0
 62
7
100
AcDbSpline
 70
8
 71
3
 72
8
 73
4
 74
0
 40
0
 40
0
 40
0
 40
0
 40
1
 40
1
 40
1
 40
1
 10
94.664779
 20
63.252736
 30
0.0
 10
94.664779
 20
63.398257
 30
0.0
 10
94.486185
 20
63.517320
 30
0.0
 10
94.267904
 20
63.517320
 30
0.0
  0
SPLINE
  5
43b
100
AcDbEntity
  8
0
 62
7
100
AcDbSpline
 70
8
 71
3
 72
8
 73
4
 74
0
 40
0
 40
0
 40
0
 40
0
 40
1
 40
1
 40
1
 40
1
 10
94.267904
 20
63.517320
 30
0.0
 10
94.049622
 20
63.517320
 30
0.0
 10
93.871029
 20
63.398257
 30
0.0
 10
93.871029
 20
63.252736
 30
0.0
  0
SPLINE
  5
43c
100
AcDbEntity
  8
0
 62
7
100
AcDbSpline
 70
8
 71
3
 72
8
 73
4
 74
0
 40
0
 40
0
 40
0
 40
0
 40
1
 40
1
 40
1
 40
1
 10
93.871029
 20
63.252736
 30
0.0
 10
93.871029
 20
63.107215
 30
0.0
 10
94.049622
 20
62.988153
 30
0.0
 10
94.267904
 20
62.988153
 30
0.0
  0
SPLINE
  5
43d
100
AcDbEntity
  8
0
 62
7
100
AcDbSpline
 70
8
 71
3
 72
8
 73
4
 74
0
 40
0
 40
0
 40
0
 40
0
 40
1
 40
1
 40
1
 40
1
 10
94.267904
 20
62.988153
 30
0.0
 10
94.486185
 20
62.988153
 30
0.0
 10
94.664779
 20
63.107215
 30
0.0
 10
94.664779
 20
63.252736
 30
0.0
  0
LWPOLYLINE
  5
43e
100
AcDbEntity
  8
0
 62
7
100
AcDbPolyline
 90
1
 70
1
 10
93.606445
 20
61.151685
 30
0.0
  0
SPLINE
  5
43f
100
AcDbEntity
  8
0
 62
7
100
AcDbSpline
 70
8
 71
3
 72
8
 73
4
 74
0
 40
0
 40
0
 40
0
 40
0
 40
1
 40
1
 40
1
 40
1
 10
95.458529
 20
65.237111
 30
0.0
 10
95.458529
 20
65.455393
 30
0.0
 10
95.279935
 20
65.633986
 30
0.0
 10
95.061654
 20
65.633986
 30
0.0
  0
SPLINE
  5
440
100
AcDbEntity
  8
0
 62
7
100
AcDbSpline
 70
8
 71
3
 72
8
 73
4
 74
0
 40
0
 40
0
 40
0
 40
0
 40
1
 40
1
 40
1
 40
1
 10
95.061654
 20
65.633986
 30
0.0
 10
94.648488
 20
65.633986
 30
0.0
 10
94.536728
 20
65.321064
 30
0.0
 10
94.841168
 20
65.016626
 30
0.0
  0
SPLINE
  5
441
100
AcDbEntity
  8
0
 62
7
100
AcDbSpline
 70
8
 71
3
 72
8
 73
4
 74
0
 40
0
 40
0
 40
0
 40
0
 40
1
 40
1
 40
1
 40
1
 10
94.841168
 20
65.016626
 30
0.0
 10
95.145606
 20
64.712186
 30
0.0
 10
95.458529
 20
64.823946
 30
0.0
 10
95.458529
 20
65.237111
 30
0.0
  0
LWPOLYLINE
  5
442
100
AcDbEntity
  8
0
 62
7
100
AcDbPolyline
 90
1
 70
1
 10
94.664779
 20
63.252736
 30
0.0
  0
SPLINE
  5
443
100
AcDbEntity
  8
0
 62
7
100
AcDbSpline
 70
8
 71
3
 72
8
 73
4
 74
0
 40
0
 40
0
 40
0
 40
0
 40
1
 40
1
 40
1
 40
1
 10
95.844103
 20
67.239766
 30
0.0
 10
95.647626
 20
67.557674
 30
0.0
 10
94.929362
 20
67.560632
 30
0.0
 10
94.929362
 20
67.243523
 30
0.0
  0
SPLINE
  5
444
100
AcDbEntity
  8
0
 62
7
100
AcDbSpline
 70
8
 71
3
 72
8
 73
4
 74
0
 40
0
 40
0
 40
0
 40
0
 40
1
 40
1
 40
1
 40
1
 10
94.929362
 20
67.243523
 30
0.0
 10
94.929362
 20
66.956794
 30
0.0
 10
95.503603
 20
66.714306
 30
0.0
 10
95.793573
 20
66.878589
 30
0.0
  0
SPLINE
  5
445
100
AcDbEntity
  8
0
 62
7
100
AcDbSpline
 70
8
 71
3
 72
8
 73
4
 74
0
 40
0
 40
0
 40
0
 40
0
 40
1
 40
1
 40
1
 40
1
 10
95.793573
 20
66.878589
 30
0.0
 10
95.905087
 20
66.941769
 30
0.0
 10
95.927828
 20
67.104294
 30
0.0
 10
95.844103
 20
67.239758
 30
0.0
  0
LWPOLYLINE
  5
446
100
AcDbEntity
  8
0
 62
7
100
AcDbPolyline
 90
1
 70
1
 10
95.458529
 20
65.237111
 30
0.0
  0
SPLINE
  5
447
100
AcDbEntity
  8
0
 62
7
100
AcDbSpline
 70
8
 71
3
 72
8
 73
4
 74
0
 40
0
 40
0
 40
0
 40
0
 40
1
 40
1
 40
1
 40
1
 10
12.575632
 20
71.751553
 30
0.0
 10
16.485951
 20
76.998931
 30
0.0
 10
21.657939
 20
81.838663
 30
0.0
 10
26.745906
 20
85.011506
 30
0.0
  0
SPLINE
  5
448
100
AcDbEntity
  8
0
 62
7
100
AcDbSpline
 70
8
 71
3
 72
8
 73
4
 74
0
 40
0
 40
0
 40
0
 40
0
 40
1
 40
1
 40
1
 40
1
 10
26.745906
 20
85.011506
 30
0.0
 10
30.031875
 20
87.060628
 30
0.0
 10
30.256284
 20
87.233023
 30
0.0
 10
28.317653
 20
86.218948
 30
0.0
  0
SPLINE
  5
449
100
AcDbEntity
  8
0
 62
7
100
AcDbSpline
 70
8
 71
3
 72
8
 73
4
 74
0
 40
0
 40
0
 40
0
 40
0
 40
1
 40
1
 40
1
 40
1
 10
28.317653
 20
86.218948
 30
0.0
 10
24.626016
 20
84.287895
 30
0.0
 10
19.934864
 20
80.487063
 30
0.0
 10
16.142691
 20
76.354635
 30
0.0
  0
SPLINE
  5
44a
100
AcDbEntity
  8
0
 62
7
100
AcDbSpline
 70
8
 71
3
 72
8
 73
4
 74
0
 40
0
 40
0
 40
0
 40
0
 40
1
 40
1
 40
1
 40
1
 10
16.142691
 20
76.354635
 30
0.0
 10
14.002765
 20
74.022702
 30
0.0
 10
10.459333
 20
69.466312
 30
0.0
 10
9.965916
 20
68.412109
 30
0.0
  0
SPLINE
  5
44b
100
AcDbEntity
  8
0
 62
7
100
AcDbSpline
 70
8
 71
3
 72
8
 73
4
 74
0
 40
0
 40
0
 40
0
 40
0
 40
1
 40
1
 40
1
 40
1
 10
9.965916
 20
68.412109
 30
0.0
 10
9.804965
 20
68.068227
 30
0.0
 10
9.883044
 20
68.110079
 30
0.0
 10
10.188905
 20
68.531637
 30
0.0
  0
SPLINE
  5
44c
100
AcDbEntity
  8
0
 62
7
100
AcDbSpline
 70
8
 71
3
 72
8
 73
4
 74
0
 40
0
 40
0
 40
0
 40
0
 40
1
 40
1
 40
1
 40
1
 10
10.188905
 20
68.531637
 30
0.0
 10
10.447770
 20
68.888417
 30
0.0
 10
11.521796
 20
70.337380
 30
0.0
 10
12.575632
 20
71.751553
 30
0.0
  0
LWPOLYLINE
  5
44d
100
AcDbEntity
  8
0
 62
7
100
AcDbPolyline
 90
1
 70
1
 10
95.844103
 20
67.239758
 30
0.0
  0
SPLINE
  5
44e
100
AcDbEntity
  8
0
 62
7
100
AcDbSpline
 70
8
 71
3
 72
8
 73
4
 74
0
 40
0
 40
0
 40
0
 40
0
 40
1
 40
1
 40
1
 40
1
 10
56.683010
 20
69.272004
 30
0.0
 10
55.875177
 20
70.820617
 30
0.0
 10
56.385402
 20
72.866378
 30
0.0
 10
57.920295
 20
74.232943
 30
0.0
  0
SPLINE
  5
44f
100
AcDbEntity
  8
0
 62
7
100
AcDbSpline
 70
8
 71
3
 72
8
 73
4
 74
0
 40
0
 40
0
 40
0
 40
0
 40
1
 40
1
 40
1
 40
1
 10
57.920295
 20
74.232943
 30
0.0
 10
58.600919
 20
74.838926
 30
0.0
 10
58.678538
 20
74.870221
 30
0.0
 10
58.248412
 20
74.365234
 30
0.0
  0
SPLINE
  5
450
100
AcDbEntity
  8
0
 62
7
100
AcDbSpline
 70
8
 71
3
 72
8
 73
4
 74
0
 40
0
 40
0
 40
0
 40
0
 40
1
 40
1
 40
1
 40
1
 10
58.248412
 20
74.365234
 30
0.0
 10
56.238606
 20
72.005634
 30
0.0
 10
56.436316
 20
69.450381
 30
0.0
 10
58.680726
 20
68.777940
 30
0.0
  0
SPLINE
  5
451
100
AcDbEntity
  8
0
 62
7
100
AcDbSpline
 70
8
 71
3
 72
8
 73
4
 74
0
 40
0
 40
0
 40
0
 40
0
 40
1
 40
1
 40
1
 40
1
 10
58.680726
 20
68.777940
 30
0.0
 10
59.585074
 20
68.506991
 30
0.0
 10
59.889086
 20
68.531362
 30
0.0
 10
60.815376
 20
68.949062
 30
0.0
  0
SPLINE
  5
452
100
AcDbEntity
  8
0
 62
7
100
AcDbSpline
 70
8
 71
3
 72
8
 73
4
 74
0
 40
0
 40
0
 40
0
 40
0
 40
1
 40
1
 40
1
 40
1
 10
60.815376
 20
68.949062
 30
0.0
 10
62.215593
 20
69.580472
 30
0.0
 10
65.368204
 20
73.042318
 30
0.0
 10
64.542998
 20
73.042318
 30
0.0
  0
SPLINE
  5
453
100
AcDbEntity
  8
0
 62
7
100
AcDbSpline
 70
8
 71
3
 72
8
 73
4
 74
0
 40
0
 40
0
 40
0
 40
0
 40
1
 40
1
 40
1
 40
1
 10
64.542998
 20
73.042318
 30
0.0
 10
64.409632
 20
73.042318
 30
0.0
 10
64.166991
 20
73.572593
 30
0.0
 10
64.003793
 20
74.220707
 30
0.0
  0
SPLINE
  5
454
100
AcDbEntity
  8
0
 62
7
100
AcDbSpline
 70
8
 71
3
 72
8
 73
4
 74
0
 40
0
 40
0
 40
0
 40
0
 40
1
 40
1
 40
1
 40
1
 10
64.003793
 20
74.220707
 30
0.0
 10
63.746261
 20
75.243460
 30
0.0
 10
63.586580
 20
75.432366
 30
0.0
 10
62.794788
 20
75.650991
 30
0.0
  0
SPLINE
  5
455
100
AcDbEntity
  8
0
 62
7
100
AcDbSpline
 70
8
 71
3
 72
8
 73
4
 74
0
 40
0
 40
0
 40
0
 40
0
 40
1
 40
1
 40
1
 40
1
 10
62.794788
 20
75.650991
 30
0.0
 10
62.260977
 20
75.798383
 30
0.0
 10
61.468558
 20
75.809525
 30
0.0
 10
60.884715
 20
75.677847
 30
0.0
  0
SPLINE
  5
456
100
AcDbEntity
  8
0
 62
7
100
AcDbSpline
 70
8
 71
3
 72
8
 73
4
 74
0
 40
0
 40
0
 40
0
 40
0
 40
1
 40
1
 40
1
 40
1
 10
60.884715
 20
75.677847
 30
0.0
 10
60.335933
 20
75.554076
 30
0.0
 10
59.842654
 20
75.497082
 30
0.0
 10
59.788541
 20
75.551193
 30
0.0
  0
SPLINE
  5
457
100
AcDbEntity
  8
0
 62
7
100
AcDbSpline
 70
8
 71
3
 72
8
 73
4
 74
0
 40
0
 40
0
 40
0
 40
0
 40
1
 40
1
 40
1
 40
1
 10
59.788541
 20
75.551193
 30
0.0
 10
59.602576
 20
75.737158
 30
0.0
 10
61.725027
 20
76.214368
 30
0.0
 10
62.744649
 20
76.215842
 30
0.0
  0
SPLINE
  5
458
100
AcDbEntity
  8
0
 62
7
100
AcDbSpline
 70
8
 71
3
 72
8
 73
4
 74
0
 40
0
 40
0
 40
0
 40
0
 40
1
 40
1
 40
1
 40
1
 10
62.744649
 20
76.215842
 30
0.0
 10
63.566183
 20
76.217033
 30
0.0
 10
63.733833
 20
76.298914
 30
0.0
 10
63.604545
 20
76.635832
 30
0.0
  0
SPLINE
  5
459
100
AcDbEntity
  8
0
 62
7
100
AcDbSpline
 70
8
 71
3
 72
8
 73
4
 74
0
 40
0
 40
0
 40
0
 40
0
 40
1
 40
1
 40
1
 40
1
 10
63.604545
 20
76.635832
 30
0.0
 10
63.516214
 20
76.866016
 30
0.0
 10
63.443945
 20
77.240420
 30
0.0
 10
63.443945
 20
77.467842
 30
0.0
  0
SPLINE
  5
45a
100
AcDbEntity
  8
0
 62
7
100
AcDbSpline
 70
8
 71
3
 72
8
 73
4
 74
0
 40
0
 40
0
 40
0
 40
0
 40
1
 40
1
 40
1
 40
1
 10
63.443945
 20
77.467842
 30
0.0
 10
63.443945
 20
77.816272
 30
0.0
 10
63.176917
 20
77.856403
 30
0.0
 10
61.746985
 20
77.722873
 30
0.0
  0
SPLINE
  5
45b
100
AcDbEntity
  8
0
 62
7
100
AcDbSpline
 70
8
 71
3
 72
8
 73
4
 74
0
 40
0
 40
0
 40
0
 40
0
 40
1
 40
1
 40
1
 40
1
 10
61.746985
 20
77.722873
 30
0.0
 10
58.933855
 20
77.460179
 30
0.0
 10
56.742248
 20
76.086908
 30
0.0
 10
55.990067
 20
74.115566
 30
0.0
  0
SPLINE
  5
45c
100
AcDbEntity
  8
0
 62
7
100
AcDbSpline
 70
8
 71
3
 72
8
 73
4
 74
0
 40
0
 40
0
 40
0
 40
0
 40
1
 40
1
 40
1
 40
1
 10
55.990067
 20
74.115566
 30
0.0
 10
55.189477
 20
72.017349
 30
0.0
 10
55.270522
 20
70.065164
 30
0.0
 10
56.200897
 20
69.037110
 30
0.0
  0
SPLINE
  5
45d
100
AcDbEntity
  8
0
 62
7
100
AcDbSpline
 70
8
 71
3
 72
8
 73
4
 74
0
 40
0
 40
0
 40
0
 40
0
 40
1
 40
1
 40
1
 40
1
 10
56.200897
 20
69.037110
 30
0.0
 10
56.857847
 20
68.311189
 30
0.0
 10
57.118078
 20
68.437980
 30
0.0
 10
56.683010
 20
69.272004
 30
0.0
  0
LWPOLYLINE
  5
45e
100
AcDbEntity
  8
0
 62
7
100
AcDbPolyline
 90
1
 70
1
 10
12.575632
 20
71.751553
 30
0.0
  0
SPLINE
  5
45f
100
AcDbEntity
  8
0
 62
7
100
AcDbSpline
 70
8
 71
3
 72
8
 73
4
 74
0
 40
0
 40
0
 40
0
 40
0
 40
1
 40
1
 40
1
 40
1
 10
59.607487
 20
70.061808
 30
0.0
 10
58.754470
 20
70.266590
 30
0.0
 10
58.416862
 20
70.674183
 30
0.0
 10
58.416862
 20
71.499241
 30
0.0
  0
SPLINE
  5
460
100
AcDbEntity
  8
0
 62
7
100
AcDbSpline
 70
8
 71
3
 72
8
 73
4
 74
0
 40
0
 40
0
 40
0
 40
0
 40
1
 40
1
 40
1
 40
1
 10
58.416862
 20
71.499241
 30
0.0
 10
58.416862
 20
73.706027
 30
0.0
 10
62.831633
 20
74.947938
 30
0.0
 10
63.133624
 20
72.826105
 30
0.0
  0
SPLINE
  5
461
100
AcDbEntity
  8
0
 62
7
100
AcDbSpline
 70
8
 71
3
 72
8
 73
4
 74
0
 40
0
 40
0
 40
0
 40
0
 40
1
 40
1
 40
1
 40
1
 10
63.133624
 20
72.826105
 30
0.0
 10
63.340552
 20
71.372193
 30
0.0
 10
61.185721
 20
69.682924
 30
0.0
 10
59.607487
 20
70.061808
 30
0.0
  0
LWPOLYLINE
  5
462
100
AcDbEntity
  8
0
 62
7
100
AcDbPolyline
 90
1
 70
1
 10
56.683010
 20
69.272004
 30
0.0
  0
LWPOLYLINE
  5
463
100
AcDbEntity
  8
0
 62
7
100
AcDbPolyline
 90
1
 70
1
 10
59.607487
 20
70.061808
 30
0.0
  0
SPLINE
  5
464
100
AcDbEntity
  8
0
 62
7
100
AcDbSpline
 70
8
 71
3
 72
8
 73
4
 74
0
 40
0
 40
0
 40
0
 40
0
 40
1
 40
1
 40
1
 40
1
 10
61.327279
 20
71.037381
 30
0.0
 10
60.177421
 20
70.486554
 30
0.0
 10
60.074146
 20
70.396484
 30
0.0
 10
60.592412
 20
70.396484
 30
0.0
  0
SPLINE
  5
465
100
AcDbEntity
  8
0
 62
7
100
AcDbSpline
 70
8
 71
3
 72
8
 73
4
 74
0
 40
0
 40
0
 40
0
 40
0
 40
1
 40
1
 40
1
 40
1
 10
60.592412
 20
70.396484
 30
0.0
 10
60.818824
 20
70.396484
 30
0.0
 10
61.285152
 20
70.640499
 30
0.0
 10
61.628697
 20
70.938738
 30
0.0
  0
LWPOLYLINE
  5
466
100
AcDbEntity
  8
0
 62
7
100
AcDbPolyline
 90
3
 70
0
 10
61.628697
 20
70.938738
 30
0.0
 10
62.253320
 20
71.480992
 30
0.0
 10
61.327279
 20
71.037381
 30
0.0
  0
SPLINE
  5
467
100
AcDbEntity
  8
0
 62
7
100
AcDbSpline
 70
8
 71
3
 72
8
 73
4
 74
0
 40
0
 40
0
 40
0
 40
0
 40
1
 40
1
 40
1
 40
1
 10
60.785970
 20
72.247430
 30
0.0
 10
61.760304
 20
73.102833
 30
0.0
 10
61.885994
 20
73.312170
 30
0.0
 10
61.511532
 20
73.455865
 30
0.0
  0
SPLINE
  5
468
100
AcDbEntity
  8
0
 62
7
100
AcDbSpline
 70
8
 71
3
 72
8
 73
4
 74
0
 40
0
 40
0
 40
0
 40
0
 40
1
 40
1
 40
1
 40
1
 10
61.511532
 20
73.455865
 30
0.0
 10
60.787457
 20
73.733718
 30
0.0
 10
58.975866
 20
72.362921
 30
0.0
 10
58.954442
 20
71.520964
 30
0.0
  0
SPLINE
  5
469
100
AcDbEntity
  8
0
 62
7
100
AcDbSpline
 70
8
 71
3
 72
8
 73
4
 74
0
 40
0
 40
0
 40
0
 40
0
 40
1
 40
1
 40
1
 40
1
 10
58.954442
 20
71.520964
 30
0.0
 10
58.939520
 20
70.934364
 30
0.0
 10
59.579465
 20
71.188195
 30
0.0
 10
60.785970
 20
72.247430
 30
0.0
  0
LWPOLYLINE
  5
46a
100
AcDbEntity
  8
0
 62
7
100
AcDbPolyline
 90
1
 70
1
 10
61.628697
 20
70.938738
 30
0.0
  0
SPLINE
  5
46b
100
AcDbEntity
  8
0
 62
7
100
AcDbSpline
 70
8
 71
3
 72
8
 73
4
 74
0
 40
0
 40
0
 40
0
 40
0
 40
1
 40
1
 40
1
 40
1
 10
96.252279
 20
68.808984
 30
0.0
 10
96.252279
 20
68.954504
 30
0.0
 10
96.007126
 20
69.073567
 30
0.0
 10
95.707496
 20
69.073567
 30
0.0
  0
SPLINE
  5
46c
100
AcDbEntity
  8
0
 62
7
100
AcDbSpline
 70
8
 71
3
 72
8
 73
4
 74
0
 40
0
 40
0
 40
0
 40
0
 40
1
 40
1
 40
1
 40
1
 10
95.707496
 20
69.073567
 30
0.0
 10
95.407866
 20
69.073567
 30
0.0
 10
95.236300
 20
68.954504
 30
0.0
 10
95.326237
 20
68.808984
 30
0.0
  0
SPLINE
  5
46d
100
AcDbEntity
  8
0
 62
7
100
AcDbSpline
 70
8
 71
3
 72
8
 73
4
 74
0
 40
0
 40
0
 40
0
 40
0
 40
1
 40
1
 40
1
 40
1
 10
95.326237
 20
68.808984
 30
0.0
 10
95.416174
 20
68.663463
 30
0.0
 10
95.661327
 20
68.544400
 30
0.0
 10
95.871019
 20
68.544400
 30
0.0
  0
SPLINE
  5
46e
100
AcDbEntity
  8
0
 62
7
100
AcDbSpline
 70
8
 71
3
 72
8
 73
4
 74
0
 40
0
 40
0
 40
0
 40
0
 40
1
 40
1
 40
1
 40
1
 10
95.871019
 20
68.544400
 30
0.0
 10
96.080712
 20
68.544400
 30
0.0
 10
96.252279
 20
68.663463
 30
0.0
 10
96.252279
 20
68.808984
 30
0.0
  0
LWPOLYLINE
  5
46f
100
AcDbEntity
  8
0
 62
7
100
AcDbPolyline
 90
1
 70
1
 10
60.785970
 20
72.247430
 30
0.0
  0
SPLINE
  5
470
100
AcDbEntity
  8
0
 62
7
100
AcDbSpline
 70
8
 71
3
 72
8
 73
4
 74
0
 40
0
 40
0
 40
0
 40
0
 40
1
 40
1
 40
1
 40
1
 10
95.912620
 20
71.653255
 30
0.0
 10
95.851999
 20
72.053438
 30
0.0
 10
95.802397
 20
71.726016
 30
0.0
 10
95.802397
 20
70.925651
 30
0.0
  0
SPLINE
  5
471
100
AcDbEntity
  8
0
 62
7
100
AcDbSpline
 70
8
 71
3
 72
8
 73
4
 74
0
 40
0
 40
0
 40
0
 40
0
 40
1
 40
1
 40
1
 40
1
 10
95.802397
 20
70.925651
 30
0.0
 10
95.802397
 20
70.125287
 30
0.0
 10
95.851999
 20
69.797865
 30
0.0
 10
95.912620
 20
70.198047
 30
0.0
  0
SPLINE
  5
472
100
AcDbEntity
  8
0
 62
7
100
AcDbSpline
 70
8
 71
3
 72
8
 73
4
 74
0
 40
0
 40
0
 40
0
 40
0
 40
1
 40
1
 40
1
 40
1
 10
95.912620
 20
70.198047
 30
0.0
 10
95.973244
 20
70.598229
 30
0.0
 10
95.973244
 20
71.253073
 30
0.0
 10
95.912620
 20
71.653255
 30
0.0
  0
LWPOLYLINE
  5
473
100
AcDbEntity
  8
0
 62
7
100
AcDbPolyline
 90
1
 70
1
 10
96.252279
 20
68.808984
 30
0.0
  0
SPLINE
  5
474
100
AcDbEntity
  8
0
 62
7
100
AcDbSpline
 70
8
 71
3
 72
8
 73
4
 74
0
 40
0
 40
0
 40
0
 40
0
 40
1
 40
1
 40
1
 40
1
 10
23.790195
 20
72.955909
 30
0.0
 10
24.116233
 20
73.353447
 30
0.0
 10
24.085763
 20
73.380838
 30
0.0
 10
23.491861
 20
73.224105
 30
0.0
  0
SPLINE
  5
475
100
AcDbEntity
  8
0
 62
7
100
AcDbSpline
 70
8
 71
3
 72
8
 73
4
 74
0
 40
0
 40
0
 40
0
 40
0
 40
1
 40
1
 40
1
 40
1
 10
23.491861
 20
73.224105
 30
0.0
 10
23.128059
 20
73.128096
 30
0.0
 10
22.175559
 20
73.036050
 30
0.0
 10
21.375194
 20
73.019557
 30
0.0
  0
SPLINE
  5
476
100
AcDbEntity
  8
0
 62
7
100
AcDbSpline
 70
8
 71
3
 72
8
 73
4
 74
0
 40
0
 40
0
 40
0
 40
0
 40
1
 40
1
 40
1
 40
1
 10
21.375194
 20
73.019557
 30
0.0
 10
20.245074
 20
72.996268
 30
0.0
 10
20.067753
 20
72.942247
 30
0.0
 10
20.581444
 20
72.777734
 30
0.0
  0
SPLINE
  5
477
100
AcDbEntity
  8
0
 62
7
100
AcDbSpline
 70
8
 71
3
 72
8
 73
4
 74
0
 40
0
 40
0
 40
0
 40
0
 40
1
 40
1
 40
1
 40
1
 10
20.581444
 20
72.777734
 30
0.0
 10
21.785658
 20
72.392078
 30
0.0
 10
23.401350
 20
72.481793
 30
0.0
 10
23.790195
 20
72.955909
 30
0.0
  0
LWPOLYLINE
  5
478
100
AcDbEntity
  8
0
 62
7
100
AcDbPolyline
 90
1
 70
1
 10
95.912620
 20
71.653255
 30
0.0
  0
SPLINE
  5
479
100
AcDbEntity
  8
0
 62
7
100
AcDbSpline
 70
8
 71
3
 72
8
 73
4
 74
0
 40
0
 40
0
 40
0
 40
0
 40
1
 40
1
 40
1
 40
1
 10
95.641882
 20
73.500303
 30
0.0
 10
95.574800
 20
73.757734
 30
0.0
 10
95.515501
 20
73.611172
 30
0.0
 10
95.510109
 20
73.174609
 30
0.0
  0
SPLINE
  5
47a
100
AcDbEntity
  8
0
 62
7
100
AcDbSpline
 70
8
 71
3
 72
8
 73
4
 74
0
 40
0
 40
0
 40
0
 40
0
 40
1
 40
1
 40
1
 40
1
 10
95.510109
 20
73.174609
 30
0.0
 10
95.504712
 20
72.738047
 30
0.0
 10
95.559602
 20
72.527422
 30
0.0
 10
95.632080
 20
72.706553
 30
0.0
  0
SPLINE
  5
47b
100
AcDbEntity
  8
0
 62
7
100
AcDbSpline
 70
8
 71
3
 72
8
 73
4
 74
0
 40
0
 40
0
 40
0
 40
0
 40
1
 40
1
 40
1
 40
1
 10
95.632080
 20
72.706553
 30
0.0
 10
95.704554
 20
72.885685
 30
0.0
 10
95.708965
 20
73.242872
 30
0.0
 10
95.641896
 20
73.500303
 30
0.0
  0
LWPOLYLINE
  5
47c
100
AcDbEntity
  8
0
 62
7
100
AcDbPolyline
 90
1
 70
1
 10
23.790195
 20
72.955909
 30
0.0
  0
SPLINE
  5
47d
100
AcDbEntity
  8
0
 62
7
100
AcDbSpline
 70
8
 71
3
 72
8
 73
4
 74
0
 40
0
 40
0
 40
0
 40
0
 40
1
 40
1
 40
1
 40
1
 10
23.690298
 20
74.804548
 30
0.0
 10
24.670371
 20
75.540774
 30
0.0
 10
24.849872
 20
76.730060
 30
0.0
 10
24.134970
 20
77.750725
 30
0.0
  0
SPLINE
  5
47e
100
AcDbEntity
  8
0
 62
7
100
AcDbSpline
 70
8
 71
3
 72
8
 73
4
 74
0
 40
0
 40
0
 40
0
 40
0
 40
1
 40
1
 40
1
 40
1
 10
24.134970
 20
77.750725
 30
0.0
 10
23.722125
 20
78.340144
 30
0.0
 10
23.728570
 20
78.339644
 30
0.0
 10
25.259450
 20
77.663458
 30
0.0
  0
SPLINE
  5
47f
100
AcDbEntity
  8
0
 62
7
100
AcDbSpline
 70
8
 71
3
 72
8
 73
4
 74
0
 40
0
 40
0
 40
0
 40
0
 40
1
 40
1
 40
1
 40
1
 10
25.259450
 20
77.663458
 30
0.0
 10
26.106286
 20
77.289412
 30
0.0
 10
27.190245
 20
76.753055
 30
0.0
 10
27.668244
 20
76.471554
 30
0.0
  0
SPLINE
  5
480
100
AcDbEntity
  8
0
 62
7
100
AcDbSpline
 70
8
 71
3
 72
8
 73
4
 74
0
 40
0
 40
0
 40
0
 40
0
 40
1
 40
1
 40
1
 40
1
 10
27.668244
 20
76.471554
 30
0.0
 10
28.386397
 20
76.048621
 30
0.0
 10
28.627636
 20
76.016128
 30
0.0
 10
29.057306
 20
76.284462
 30
0.0
  0
SPLINE
  5
481
100
AcDbEntity
  8
0
 62
7
100
AcDbSpline
 70
8
 71
3
 72
8
 73
4
 74
0
 40
0
 40
0
 40
0
 40
0
 40
1
 40
1
 40
1
 40
1
 10
29.057306
 20
76.284462
 30
0.0
 10
29.699524
 20
76.685533
 30
0.0
 10
29.715518
 20
76.909634
 30
0.0
 10
29.114258
 20
77.082375
 30
0.0
  0
SPLINE
  5
482
100
AcDbEntity
  8
0
 62
7
100
AcDbSpline
 70
8
 71
3
 72
8
 73
4
 74
0
 40
0
 40
0
 40
0
 40
0
 40
1
 40
1
 40
1
 40
1
 10
29.114258
 20
77.082375
 30
0.0
 10
28.859596
 20
77.155538
 30
0.0
 10
27.639206
 20
77.509865
 30
0.0
 10
26.402278
 20
77.869768
 30
0.0
  0
SPLINE
  5
483
100
AcDbEntity
  8
0
 62
7
100
AcDbSpline
 70
8
 71
3
 72
8
 73
4
 74
0
 40
0
 40
0
 40
0
 40
0
 40
1
 40
1
 40
1
 40
1
 10
26.402278
 20
77.869768
 30
0.0
 10
25.165351
 20
78.229670
 30
0.0
 10
23.736601
 20
78.603084
 30
0.0
 10
23.227278
 20
78.699576
 30
0.0
  0
LWPOLYLINE
  5
484
100
AcDbEntity
  8
0
 62
7
100
AcDbPolyline
 90
1
 70
1
 10
95.641896
 20
73.500303
 30
0.0
  0
SPLINE
  5
485
100
AcDbEntity
  8
0
 62
7
100
AcDbSpline
 70
8
 71
3
 72
8
 73
4
 74
0
 40
0
 40
0
 40
0
 40
0
 40
1
 40
1
 40
1
 40
1
 10
23.293423
 20
78.056071
 30
0.0
 10
24.973901
 20
76.669016
 30
0.0
 10
24.622471
 20
75.520863
 30
0.0
 10
22.164187
 20
74.366765
 30
0.0
  0
SPLINE
  5
486
100
AcDbEntity
  8
0
 62
7
100
AcDbSpline
 70
8
 71
3
 72
8
 73
4
 74
0
 40
0
 40
0
 40
0
 40
0
 40
1
 40
1
 40
1
 40
1
 10
22.164187
 20
74.366765
 30
0.0
 10
21.017978
 20
73.828650
 30
0.0
 10
21.009289
 20
73.815860
 30
0.0
 10
21.904361
 20
73.984315
 30
0.0
  0
SPLINE
  5
487
100
AcDbEntity
  8
0
 62
7
100
AcDbSpline
 70
8
 71
3
 72
8
 73
4
 74
0
 40
0
 40
0
 40
0
 40
0
 40
1
 40
1
 40
1
 40
1
 10
21.904361
 20
73.984315
 30
0.0
 10
22.413684
 20
74.080171
 30
0.0
 10
23.217356
 20
74.449276
 30
0.0
 10
23.690298
 20
74.804548
 30
0.0
  0
LWPOLYLINE
  5
488
100
AcDbEntity
  8
0
 62
7
100
AcDbPolyline
 90
3
 70
0
 10
23.227278
 20
78.699576
 30
0.0
 10
22.301236
 20
78.875017
 30
0.0
 10
23.293423
 20
78.056071
 30
0.0
  0
SPLINE
  5
489
100
AcDbEntity
  8
0
 62
7
100
AcDbSpline
 70
8
 71
3
 72
8
 73
4
 74
0
 40
0
 40
0
 40
0
 40
0
 40
1
 40
1
 40
1
 40
1
 10
94.947116
 20
76.282747
 30
0.0
 10
94.641847
 20
77.192647
 30
0.0
 10
94.265782
 20
78.115703
 30
0.0
 10
94.111413
 20
78.333984
 30
0.0
  0
SPLINE
  5
48a
100
AcDbEntity
  8
0
 62
7
100
AcDbSpline
 70
8
 71
3
 72
8
 73
4
 74
0
 40
0
 40
0
 40
0
 40
0
 40
1
 40
1
 40
1
 40
1
 10
94.111413
 20
78.333984
 30
0.0
 10
93.861927
 20
78.686762
 30
0.0
 10
93.846026
 20
78.686762
 30
0.0
 10
93.968287
 20
78.333984
 30
0.0
  0
SPLINE
  5
48b
100
AcDbEntity
  8
0
 62
7
100
AcDbSpline
 70
8
 71
3
 72
8
 73
4
 74
0
 40
0
 40
0
 40
0
 40
0
 40
1
 40
1
 40
1
 40
1
 10
93.968287
 20
78.333984
 30
0.0
 10
94.043934
 20
78.115703
 30
0.0
 10
94.380420
 20
77.080393
 30
0.0
 10
94.716034
 20
76.033295
 30
0.0
  0
SPLINE
  5
48c
100
AcDbEntity
  8
0
 62
7
100
AcDbSpline
 70
8
 71
3
 72
8
 73
4
 74
0
 40
0
 40
0
 40
0
 40
0
 40
1
 40
1
 40
1
 40
1
 10
94.716034
 20
76.033295
 30
0.0
 10
95.051645
 20
74.986198
 30
0.0
 10
95.365816
 20
74.241735
 30
0.0
 10
95.414192
 20
74.378934
 30
0.0
  0
SPLINE
  5
48d
100
AcDbEntity
  8
0
 62
7
100
AcDbSpline
 70
8
 71
3
 72
8
 73
4
 74
0
 40
0
 40
0
 40
0
 40
0
 40
1
 40
1
 40
1
 40
1
 10
95.414192
 20
74.378934
 30
0.0
 10
95.462569
 20
74.516132
 30
0.0
 10
95.252384
 20
75.372848
 30
0.0
 10
94.947116
 20
76.282747
 30
0.0
  0
LWPOLYLINE
  5
48e
100
AcDbEntity
  8
0
 62
7
100
AcDbPolyline
 90
1
 70
1
 10
23.690298
 20
74.804548
 30
0.0
  0
SPLINE
  5
48f
100
AcDbEntity
  8
0
 62
7
100
AcDbSpline
 70
8
 71
3
 72
8
 73
4
 74
0
 40
0
 40
0
 40
0
 40
0
 40
1
 40
1
 40
1
 40
1
 10
28.783529
 20
79.999881
 30
0.0
 10
30.209080
 20
80.702502
 30
0.0
 10
30.608132
 20
81.051231
 30
0.0
 10
31.115929
 20
82.038151
 30
0.0
  0
SPLINE
  5
490
100
AcDbEntity
  8
0
 62
7
100
AcDbSpline
 70
8
 71
3
 72
8
 73
4
 74
0
 40
0
 40
0
 40
0
 40
0
 40
1
 40
1
 40
1
 40
1
 10
31.115929
 20
82.038151
 30
0.0
 10
31.728008
 20
83.227746
 30
0.0
 10
31.797784
 20
84.772244
 30
0.0
 10
31.301201
 20
86.139193
 30
0.0
  0
SPLINE
  5
491
100
AcDbEntity
  8
0
 62
7
100
AcDbSpline
 70
8
 71
3
 72
8
 73
4
 74
0
 40
0
 40
0
 40
0
 40
0
 40
1
 40
1
 40
1
 40
1
 10
31.301201
 20
86.139193
 30
0.0
 10
31.008487
 20
86.944945
 30
0.0
 10
32.071527
 20
85.383674
 30
0.0
 10
33.733221
 20
82.567318
 30
0.0
  0
SPLINE
  5
492
100
AcDbEntity
  8
0
 62
7
100
AcDbSpline
 70
8
 71
3
 72
8
 73
4
 74
0
 40
0
 40
0
 40
0
 40
0
 40
1
 40
1
 40
1
 40
1
 10
33.733221
 20
82.567318
 30
0.0
 10
34.548889
 20
81.184870
 30
0.0
 10
35.232605
 20
80.028733
 30
0.0
 10
35.252591
 20
79.998124
 30
0.0
  0
SPLINE
  5
493
100
AcDbEntity
  8
0
 62
7
100
AcDbSpline
 70
8
 71
3
 72
8
 73
4
 74
0
 40
0
 40
0
 40
0
 40
0
 40
1
 40
1
 40
1
 40
1
 10
35.252591
 20
79.998124
 30
0.0
 10
35.378954
 20
79.804600
 30
0.0
 10
36.456445
 20
80.305451
 30
0.0
 10
36.456445
 20
80.557713
 30
0.0
  0
SPLINE
  5
494
100
AcDbEntity
  8
0
 62
7
100
AcDbSpline
 70
8
 71
3
 72
8
 73
4
 74
0
 40
0
 40
0
 40
0
 40
0
 40
1
 40
1
 40
1
 40
1
 10
36.456445
 20
80.557713
 30
0.0
 10
36.456445
 20
81.010768
 30
0.0
 10
33.321345
 20
84.827698
 30
0.0
 10
31.437363
 20
86.668359
 30
0.0
  0
LWPOLYLINE
  5
495
100
AcDbEntity
  8
0
 62
7
100
AcDbPolyline
 90
1
 70
1
 10
94.947116
 20
76.282747
 30
0.0
  0
SPLINE
  5
496
100
AcDbEntity
  8
0
 62
7
100
AcDbSpline
 70
8
 71
3
 72
8
 73
4
 74
0
 40
0
 40
0
 40
0
 40
0
 40
1
 40
1
 40
1
 40
1
 10
30.486054
 20
86.800651
 30
0.0
 10
31.317898
 20
85.003460
 30
0.0
 10
31.385137
 20
83.064231
 30
0.0
 10
30.657006
 20
81.870124
 30
0.0
  0
SPLINE
  5
497
100
AcDbEntity
  8
0
 62
7
100
AcDbSpline
 70
8
 71
3
 72
8
 73
4
 74
0
 40
0
 40
0
 40
0
 40
0
 40
1
 40
1
 40
1
 40
1
 10
30.657006
 20
81.870124
 30
0.0
 10
30.004745
 20
80.800440
 30
0.0
 10
27.707783
 20
79.671485
 30
0.0
 10
25.778554
 20
79.472371
 30
0.0
  0
SPLINE
  5
498
100
AcDbEntity
  8
0
 62
7
100
AcDbSpline
 70
8
 71
3
 72
8
 73
4
 74
0
 40
0
 40
0
 40
0
 40
0
 40
1
 40
1
 40
1
 40
1
 10
25.778554
 20
79.472371
 30
0.0
 10
24.936441
 20
79.385458
 30
0.0
 10
24.366780
 20
79.210452
 30
0.0
 10
24.456013
 20
79.066073
 30
0.0
  0
SPLINE
  5
499
100
AcDbEntity
  8
0
 62
7
100
AcDbSpline
 70
8
 71
3
 72
8
 73
4
 74
0
 40
0
 40
0
 40
0
 40
0
 40
1
 40
1
 40
1
 40
1
 10
24.456013
 20
79.066073
 30
0.0
 10
24.727314
 20
78.627096
 30
0.0
 10
26.988027
 20
79.114921
 30
0.0
 10
28.783529
 20
79.999881
 30
0.0
  0
LWPOLYLINE
  5
49a
100
AcDbEntity
  8
0
 62
7
100
AcDbPolyline
 90
3
 70
0
 10
31.437363
 20
86.668359
 30
0.0
 10
29.812501
 20
88.255859
 30
0.0
 10
30.486054
 20
86.800651
 30
0.0
  0
SPLINE
  5
49b
100
AcDbEntity
  8
0
 62
7
100
AcDbSpline
 70
8
 71
3
 72
8
 73
4
 74
0
 40
0
 40
0
 40
0
 40
0
 40
1
 40
1
 40
1
 40
1
 10
93.639278
 20
79.462873
 30
0.0
 10
93.377970
 20
79.722236
 30
0.0
 10
93.347580
 20
79.691845
 30
0.0
 10
93.491164
 20
79.314761
 30
0.0
  0
SPLINE
  5
49c
100
AcDbEntity
  8
0
 62
7
100
AcDbSpline
 70
8
 71
3
 72
8
 73
4
 74
0
 40
0
 40
0
 40
0
 40
0
 40
1
 40
1
 40
1
 40
1
 10
93.491164
 20
79.314761
 30
0.0
 10
93.590523
 20
79.053823
 30
0.0
 10
93.738467
 20
78.906980
 30
0.0
 10
93.819930
 20
78.988442
 30
0.0
  0
SPLINE
  5
49d
100
AcDbEntity
  8
0
 62
7
100
AcDbSpline
 70
8
 71
3
 72
8
 73
4
 74
0
 40
0
 40
0
 40
0
 40
0
 40
1
 40
1
 40
1
 40
1
 10
93.819930
 20
78.988442
 30
0.0
 10
93.901392
 20
79.069903
 30
0.0
 10
93.820099
 20
79.283398
 30
0.0
 10
93.639278
 20
79.462873
 30
0.0
  0
LWPOLYLINE
  5
49e
100
AcDbEntity
  8
0
 62
7
100
AcDbPolyline
 90
1
 70
1
 10
28.783529
 20
79.999881
 30
0.0
  0
SPLINE
  5
49f
100
AcDbEntity
  8
0
 62
7
100
AcDbSpline
 70
8
 71
3
 72
8
 73
4
 74
0
 40
0
 40
0
 40
0
 40
0
 40
1
 40
1
 40
1
 40
1
 10
23.785316
 20
79.914446
 30
0.0
 10
26.873668
 20
80.513123
 30
0.0
 10
29.592664
 20
81.676443
 30
0.0
 10
30.250630
 20
82.680628
 30
0.0
  0
SPLINE
  5
4a0
100
AcDbEntity
  8
0
 62
7
100
AcDbSpline
 70
8
 71
3
 72
8
 73
4
 74
0
 40
0
 40
0
 40
0
 40
0
 40
1
 40
1
 40
1
 40
1
 10
30.250630
 20
82.680628
 30
0.0
 10
30.726864
 20
83.407453
 30
0.0
 10
30.684692
 20
85.534487
 30
0.0
 10
30.184124
 20
86.035055
 30
0.0
  0
SPLINE
  5
4a1
100
AcDbEntity
  8
0
 62
7
100
AcDbSpline
 70
8
 71
3
 72
8
 73
4
 74
0
 40
0
 40
0
 40
0
 40
0
 40
1
 40
1
 40
1
 40
1
 10
30.184124
 20
86.035055
 30
0.0
 10
29.853379
 20
86.365800
 30
0.0
 10
25.900839
 20
83.963883
 30
0.0
 10
22.927367
 20
81.625199
 30
0.0
  0
SPLINE
  5
4a2
100
AcDbEntity
  8
0
 62
7
100
AcDbSpline
 70
8
 71
3
 72
8
 73
4
 74
0
 40
0
 40
0
 40
0
 40
0
 40
1
 40
1
 40
1
 40
1
 10
22.927367
 20
81.625199
 30
0.0
 10
20.714331
 20
79.884609
 30
0.0
 10
20.253382
 20
79.392318
 30
0.0
 10
20.836646
 20
79.392318
 30
0.0
  0
SPLINE
  5
4a3
100
AcDbEntity
  8
0
 62
7
100
AcDbSpline
 70
8
 71
3
 72
8
 73
4
 74
0
 40
0
 40
0
 40
0
 40
0
 40
1
 40
1
 40
1
 40
1
 10
20.836646
 20
79.392318
 30
0.0
 10
20.977007
 20
79.392318
 30
0.0
 10
22.303908
 20
79.627275
 30
0.0
 10
23.785316
 20
79.914446
 30
0.0
  0
LWPOLYLINE
  5
4a4
100
AcDbEntity
  8
0
 62
7
100
AcDbPolyline
 90
1
 70
1
 10
93.639278
 20
79.462873
 30
0.0
  0
SPLINE
  5
4a5
100
AcDbEntity
  8
0
 62
7
100
AcDbSpline
 70
8
 71
3
 72
8
 73
4
 74
0
 40
0
 40
0
 40
0
 40
0
 40
1
 40
1
 40
1
 40
1
 10
92.793307
 20
80.913672
 30
0.0
 10
91.456796
 20
83.154741
 30
0.0
 10
88.692109
 20
86.068405
 30
0.0
 10
86.402352
 20
87.649006
 30
0.0
  0
SPLINE
  5
4a6
100
AcDbEntity
  8
0
 62
7
100
AcDbSpline
 70
8
 71
3
 72
8
 73
4
 74
0
 40
0
 40
0
 40
0
 40
0
 40
1
 40
1
 40
1
 40
1
 10
86.402352
 20
87.649006
 30
0.0
 10
85.293570
 20
88.414390
 30
0.0
 10
85.289686
 20
88.415056
 30
0.0
 10
86.198112
 20
87.684024
 30
0.0
  0
SPLINE
  5
4a7
100
AcDbEntity
  8
0
 62
7
100
AcDbSpline
 70
8
 71
3
 72
8
 73
4
 74
0
 40
0
 40
0
 40
0
 40
0
 40
1
 40
1
 40
1
 40
1
 10
86.198112
 20
87.684024
 30
0.0
 10
88.353135
 20
85.949827
 30
0.0
 10
91.083156
 20
83.114465
 30
0.0
 10
92.080046
 20
81.575130
 30
0.0
  0
SPLINE
  5
4a8
100
AcDbEntity
  8
0
 62
7
100
AcDbSpline
 70
8
 71
3
 72
8
 73
4
 74
0
 40
0
 40
0
 40
0
 40
0
 40
1
 40
1
 40
1
 40
1
 10
92.080046
 20
81.575130
 30
0.0
 10
93.243755
 20
79.778199
 30
0.0
 10
93.751019
 20
79.307778
 30
0.0
 10
92.793307
 20
80.913672
 30
0.0
  0
LWPOLYLINE
  5
4a9
100
AcDbEntity
  8
0
 62
7
100
AcDbPolyline
 90
1
 70
1
 10
23.785316
 20
79.914446
 30
0.0
  0
SPLINE
  5
4aa
100
AcDbEntity
  8
0
 62
7
100
AcDbSpline
 70
8
 71
3
 72
8
 73
4
 74
0
 40
0
 40
0
 40
0
 40
0
 40
1
 40
1
 40
1
 40
1
 10
46.466514
 20
82.272523
 30
0.0
 10
46.418008
 20
82.401427
 30
0.0
 10
45.425820
 20
84.073942
 30
0.0
 10
44.261654
 20
85.989222
 30
0.0
  0
LWPOLYLINE
  5
4ab
100
AcDbEntity
  8
0
 62
7
100
AcDbPolyline
 90
1
 70
1
 10
92.793307
 20
80.913672
 30
0.0
  0
SPLINE
  5
4ac
100
AcDbEntity
  8
0
 62
7
100
AcDbSpline
 70
8
 71
3
 72
8
 73
4
 74
0
 40
0
 40
0
 40
0
 40
0
 40
1
 40
1
 40
1
 40
1
 10
42.005335
 20
88.311669
 30
0.0
 10
41.612214
 20
85.046590
 30
0.0
 10
39.012035
 20
84.420031
 30
0.0
 10
34.071068
 20
86.399768
 30
0.0
  0
SPLINE
  5
4ad
100
AcDbEntity
  8
0
 62
7
100
AcDbSpline
 70
8
 71
3
 72
8
 73
4
 74
0
 40
0
 40
0
 40
0
 40
0
 40
1
 40
1
 40
1
 40
1
 10
34.071068
 20
86.399768
 30
0.0
 10
32.482779
 20
87.036159
 30
0.0
 10
32.003521
 20
87.153304
 30
0.0
 10
32.432397
 20
86.800305
 30
0.0
  0
SPLINE
  5
4ae
100
AcDbEntity
  8
0
 62
7
100
AcDbSpline
 70
8
 71
3
 72
8
 73
4
 74
0
 40
0
 40
0
 40
0
 40
0
 40
1
 40
1
 40
1
 40
1
 10
32.432397
 20
86.800305
 30
0.0
 10
33.249518
 20
86.127751
 30
0.0
 10
35.772418
 20
85.206560
 30
0.0
 10
37.289258
 20
85.026913
 30
0.0
  0
SPLINE
  5
4af
100
AcDbEntity
  8
0
 62
7
100
AcDbSpline
 70
8
 71
3
 72
8
 73
4
 74
0
 40
0
 40
0
 40
0
 40
0
 40
1
 40
1
 40
1
 40
1
 10
37.289258
 20
85.026913
 30
0.0
 10
39.892004
 20
84.718656
 30
0.0
 10
41.833747
 20
85.710008
 30
0.0
 10
42.173398
 20
87.520495
 30
0.0
  0
LWPOLYLINE
  5
4b0
100
AcDbEntity
  8
0
 62
7
100
AcDbPolyline
 90
3
 70
0
 10
44.261654
 20
85.989222
 30
0.0
 10
42.144987
 20
89.471550
 30
0.0
 10
42.005335
 20
88.311669
 30
0.0
  0
SPLINE
  5
4b1
100
AcDbEntity
  8
0
 62
7
100
AcDbSpline
 70
8
 71
3
 72
8
 73
4
 74
0
 40
0
 40
0
 40
0
 40
0
 40
1
 40
1
 40
1
 40
1
 10
42.832266
 20
87.570691
 30
0.0
 10
43.096363
 20
87.074409
 30
0.0
 10
43.631292
 20
85.715859
 30
0.0
 10
44.021002
 20
84.551693
 30
0.0
  0
SPLINE
  5
4b2
100
AcDbEntity
  8
0
 62
7
100
AcDbSpline
 70
8
 71
3
 72
8
 73
4
 74
0
 40
0
 40
0
 40
0
 40
0
 40
1
 40
1
 40
1
 40
1
 10
44.021002
 20
84.551693
 30
0.0
 10
44.410709
 20
83.387526
 30
0.0
 10
44.780136
 20
82.345729
 30
0.0
 10
44.841951
 20
82.236589
 30
0.0
  0
SPLINE
  5
4b3
100
AcDbEntity
  8
0
 62
7
100
AcDbSpline
 70
8
 71
3
 72
8
 73
4
 74
0
 40
0
 40
0
 40
0
 40
0
 40
1
 40
1
 40
1
 40
1
 10
44.841951
 20
82.236589
 30
0.0
 10
45.001736
 20
81.954471
 30
0.0
 10
46.573120
 20
81.989229
 30
0.0
 10
46.466514
 20
82.272523
 30
0.0
  0
LWPOLYLINE
  5
4b4
100
AcDbEntity
  8
0
 62
7
100
AcDbPolyline
 90
3
 70
0
 10
42.173398
 20
87.520495
 30
0.0
 10
42.352092
 20
88.473023
 30
0.0
 10
42.832266
 20
87.570691
 30
0.0
  0
SPLINE
  5
4b5
100
AcDbEntity
  8
0
 62
7
100
AcDbSpline
 70
8
 71
3
 72
8
 73
4
 74
0
 40
0
 40
0
 40
0
 40
0
 40
1
 40
1
 40
1
 40
1
 10
53.196535
 20
84.617839
 30
0.0
 10
53.713306
 20
85.745625
 30
0.0
 10
54.087988
 20
86.717239
 30
0.0
 10
54.029155
 20
86.776980
 30
0.0
  0
SPLINE
  5
4b6
100
AcDbEntity
  8
0
 62
7
100
AcDbSpline
 70
8
 71
3
 72
8
 73
4
 74
0
 40
0
 40
0
 40
0
 40
0
 40
1
 40
1
 40
1
 40
1
 10
54.029155
 20
86.776980
 30
0.0
 10
53.970325
 20
86.836722
 30
0.0
 10
53.713100
 20
86.710916
 30
0.0
 10
53.457546
 20
86.497411
 30
0.0
  0
SPLINE
  5
4b7
100
AcDbEntity
  8
0
 62
7
100
AcDbSpline
 70
8
 71
3
 72
8
 73
4
 74
0
 40
0
 40
0
 40
0
 40
0
 40
1
 40
1
 40
1
 40
1
 10
53.457546
 20
86.497411
 30
0.0
 10
51.531319
 20
84.888128
 30
0.0
 10
48.186790
 20
85.304792
 30
0.0
 10
45.244742
 20
87.520570
 30
0.0
  0
SPLINE
  5
4b8
100
AcDbEntity
  8
0
 62
7
100
AcDbSpline
 70
8
 71
3
 72
8
 73
4
 74
0
 40
0
 40
0
 40
0
 40
0
 40
1
 40
1
 40
1
 40
1
 10
45.244742
 20
87.520570
 30
0.0
 10
43.317247
 20
88.972247
 30
0.0
 10
43.110264
 20
89.065430
 30
0.0
 10
44.295782
 20
87.947785
 30
0.0
  0
SPLINE
  5
4b9
100
AcDbEntity
  8
0
 62
7
100
AcDbSpline
 70
8
 71
3
 72
8
 73
4
 74
0
 40
0
 40
0
 40
0
 40
0
 40
1
 40
1
 40
1
 40
1
 10
44.295782
 20
87.947785
 30
0.0
 10
44.896638
 20
87.381331
 30
0.0
 10
46.087263
 20
86.564599
 30
0.0
 10
46.941616
 20
86.132824
 30
0.0
  0
SPLINE
  5
4ba
100
AcDbEntity
  8
0
 62
7
100
AcDbSpline
 70
8
 71
3
 72
8
 73
4
 74
0
 40
0
 40
0
 40
0
 40
0
 40
1
 40
1
 40
1
 40
1
 10
46.941616
 20
86.132824
 30
0.0
 10
48.251372
 20
85.470897
 30
0.0
 10
48.806195
 20
85.347595
 30
0.0
 10
50.479362
 20
85.346611
 30
0.0
  0
SPLINE
  5
4bb
100
AcDbEntity
  8
0
 62
7
100
AcDbSpline
 70
8
 71
3
 72
8
 73
4
 74
0
 40
0
 40
0
 40
0
 40
0
 40
1
 40
1
 40
1
 40
1
 10
50.479362
 20
85.346611
 30
0.0
 10
51.570768
 20
85.345976
 30
0.0
 10
52.684130
 20
85.452095
 30
0.0
 10
52.953497
 20
85.582448
 30
0.0
  0
SPLINE
  5
4bc
100
AcDbEntity
  8
0
 62
7
100
AcDbSpline
 70
8
 71
3
 72
8
 73
4
 74
0
 40
0
 40
0
 40
0
 40
0
 40
1
 40
1
 40
1
 40
1
 10
52.953497
 20
85.582448
 30
0.0
 10
53.418632
 20
85.807538
 30
0.0
 10
53.422442
 20
85.779202
 30
0.0
 10
53.029250
 20
85.018854
 30
0.0
  0
SPLINE
  5
4bd
100
AcDbEntity
  8
0
 62
7
100
AcDbSpline
 70
8
 71
3
 72
8
 73
4
 74
0
 40
0
 40
0
 40
0
 40
0
 40
1
 40
1
 40
1
 40
1
 10
53.029250
 20
85.018854
 30
0.0
 10
52.801546
 20
84.578524
 30
0.0
 10
52.302680
 20
83.846794
 30
0.0
 10
51.920659
 20
83.392786
 30
0.0
  0
SPLINE
  5
4be
100
AcDbEntity
  8
0
 62
7
100
AcDbSpline
 70
8
 71
3
 72
8
 73
4
 74
0
 40
0
 40
0
 40
0
 40
0
 40
1
 40
1
 40
1
 40
1
 10
51.920659
 20
83.392786
 30
0.0
 10
51.283825
 20
82.635953
 30
0.0
 10
51.268929
 20
82.567318
 30
0.0
 10
51.741509
 20
82.567318
 30
0.0
  0
SPLINE
  5
4bf
100
AcDbEntity
  8
0
 62
7
100
AcDbSpline
 70
8
 71
3
 72
8
 73
4
 74
0
 40
0
 40
0
 40
0
 40
0
 40
1
 40
1
 40
1
 40
1
 10
51.741509
 20
82.567318
 30
0.0
 10
52.127208
 20
82.567318
 30
0.0
 10
52.493450
 20
83.083450
 30
0.0
 10
53.196535
 20
84.617839
 30
0.0
  0
LWPOLYLINE
  5
4c0
100
AcDbEntity
  8
0
 62
7
100
AcDbPolyline
 90
1
 70
1
 10
46.466514
 20
82.272523
 30
0.0
  0
SPLINE
  5
4c1
100
AcDbEntity
  8
0
 62
7
100
AcDbSpline
 70
8
 71
3
 72
8
 73
4
 74
0
 40
0
 40
0
 40
0
 40
0
 40
1
 40
1
 40
1
 40
1
 10
55.475000
 20
83.347013
 30
0.0
 10
55.157952
 20
83.775845
 30
0.0
 10
54.810893
 20
84.579517
 30
0.0
 10
54.703758
 20
85.132950
 30
0.0
  0
LWPOLYLINE
  5
4c2
100
AcDbEntity
  8
0
 62
7
100
AcDbPolyline
 90
1
 70
1
 10
53.196535
 20
84.617839
 30
0.0
  0
SPLINE
  5
4c3
100
AcDbEntity
  8
0
 62
7
100
AcDbSpline
 70
8
 71
3
 72
8
 73
4
 74
0
 40
0
 40
0
 40
0
 40
0
 40
1
 40
1
 40
1
 40
1
 10
54.478539
 20
85.266158
 30
0.0
 10
54.435010
 20
84.017151
 30
0.0
 10
55.095603
 20
82.836885
 30
0.0
 10
55.977388
 20
82.588206
 30
0.0
  0
SPLINE
  5
4c4
100
AcDbEntity
  8
0
 62
7
100
AcDbSpline
 70
8
 71
3
 72
8
 73
4
 74
0
 40
0
 40
0
 40
0
 40
0
 40
1
 40
1
 40
1
 40
1
 10
55.977388
 20
82.588206
 30
0.0
 10
56.018123
 20
82.576718
 30
0.0
 10
55.792050
 20
82.918180
 30
0.0
 10
55.475000
 20
83.347013
 30
0.0
  0
LWPOLYLINE
  5
4c5
100
AcDbEntity
  8
0
 62
7
100
AcDbPolyline
 90
3
 70
0
 10
54.703758
 20
85.132950
 30
0.0
 10
54.508966
 20
86.139193
 30
0.0
 10
54.478539
 20
85.266158
 30
0.0
  0
SPLINE
  5
4c6
100
AcDbEntity
  8
0
 62
7
100
AcDbSpline
 70
8
 71
3
 72
8
 73
4
 74
0
 40
0
 40
0
 40
0
 40
0
 40
1
 40
1
 40
1
 40
1
 10
40.809159
 20
86.370986
 30
0.0
 10
41.154771
 20
86.597440
 30
0.0
 10
41.514694
 20
87.133980
 30
0.0
 10
41.608989
 20
87.563296
 30
0.0
  0
SPLINE
  5
4c7
100
AcDbEntity
  8
0
 62
7
100
AcDbSpline
 70
8
 71
3
 72
8
 73
4
 74
0
 40
0
 40
0
 40
0
 40
0
 40
1
 40
1
 40
1
 40
1
 10
41.608989
 20
87.563296
 30
0.0
 10
41.826233
 20
88.552406
 30
0.0
 10
41.314150
 20
90.504818
 30
0.0
 10
40.837480
 20
90.504818
 30
0.0
  0
SPLINE
  5
4c8
100
AcDbEntity
  8
0
 62
7
100
AcDbSpline
 70
8
 71
3
 72
8
 73
4
 74
0
 40
0
 40
0
 40
0
 40
0
 40
1
 40
1
 40
1
 40
1
 10
40.837480
 20
90.504818
 30
0.0
 10
40.447531
 20
90.504818
 30
0.0
 10
35.915346
 20
88.959214
 30
0.0
 10
34.238814
 20
88.254487
 30
0.0
  0
SPLINE
  5
4c9
100
AcDbEntity
  8
0
 62
7
100
AcDbSpline
 70
8
 71
3
 72
8
 73
4
 74
0
 40
0
 40
0
 40
0
 40
0
 40
1
 40
1
 40
1
 40
1
 10
34.238814
 20
88.254487
 30
0.0
 10
32.937048
 20
87.707291
 30
0.0
 10
33.132757
 20
87.508537
 30
0.0
 10
35.958994
 20
86.507554
 30
0.0
  0
SPLINE
  5
4ca
100
AcDbEntity
  8
0
 62
7
100
AcDbSpline
 70
8
 71
3
 72
8
 73
4
 74
0
 40
0
 40
0
 40
0
 40
0
 40
1
 40
1
 40
1
 40
1
 10
35.958994
 20
86.507554
 30
0.0
 10
38.339416
 20
85.664466
 30
0.0
 10
39.673541
 20
85.626901
 30
0.0
 10
40.809159
 20
86.370986
 30
0.0
  0
LWPOLYLINE
  5
4cb
100
AcDbEntity
  8
0
 62
7
100
AcDbPolyline
 90
1
 70
1
 10
55.475000
 20
83.347013
 30
0.0
  0
SPLINE
  5
4cc
100
AcDbEntity
  8
0
 62
7
100
AcDbSpline
 70
8
 71
3
 72
8
 73
4
 74
0
 40
0
 40
0
 40
0
 40
0
 40
1
 40
1
 40
1
 40
1
 10
33.016862
 20
88.388151
 30
0.0
 10
33.235143
 20
88.529215
 30
0.0
 10
33.294675
 20
88.644631
 30
0.0
 10
33.149154
 20
88.644631
 30
0.0
  0
SPLINE
  5
4cd
100
AcDbEntity
  8
0
 62
7
100
AcDbSpline
 70
8
 71
3
 72
8
 73
4
 74
0
 40
0
 40
0
 40
0
 40
0
 40
1
 40
1
 40
1
 40
1
 10
33.149154
 20
88.644631
 30
0.0
 10
33.003633
 20
88.644631
 30
0.0
 10
32.705977
 20
88.529215
 30
0.0
 10
32.487695
 20
88.388151
 30
0.0
  0
SPLINE
  5
4ce
100
AcDbEntity
  8
0
 62
7
100
AcDbSpline
 70
8
 71
3
 72
8
 73
4
 74
0
 40
0
 40
0
 40
0
 40
0
 40
1
 40
1
 40
1
 40
1
 10
32.487695
 20
88.388151
 30
0.0
 10
32.269414
 20
88.247087
 30
0.0
 10
32.209883
 20
88.131671
 30
0.0
 10
32.355404
 20
88.131671
 30
0.0
  0
SPLINE
  5
4cf
100
AcDbEntity
  8
0
 62
7
100
AcDbSpline
 70
8
 71
3
 72
8
 73
4
 74
0
 40
0
 40
0
 40
0
 40
0
 40
1
 40
1
 40
1
 40
1
 10
32.355404
 20
88.131671
 30
0.0
 10
32.500925
 20
88.131671
 30
0.0
 10
32.798581
 20
88.247087
 30
0.0
 10
33.016862
 20
88.388151
 30
0.0
  0
LWPOLYLINE
  5
4d0
100
AcDbEntity
  8
0
 62
7
100
AcDbPolyline
 90
1
 70
1
 10
40.809159
 20
86.370986
 30
0.0
  0
SPLINE
  5
4d1
100
AcDbEntity
  8
0
 62
7
100
AcDbSpline
 70
8
 71
3
 72
8
 73
4
 74
0
 40
0
 40
0
 40
0
 40
0
 40
1
 40
1
 40
1
 40
1
 10
84.742904
 20
88.814546
 30
0.0
 10
84.111581
 20
89.303179
 30
0.0
 10
81.804761
 20
90.506540
 30
0.0
 10
81.510553
 20
90.500715
 30
0.0
  0
SPLINE
  5
4d2
100
AcDbEntity
  8
0
 62
7
100
AcDbSpline
 70
8
 71
3
 72
8
 73
4
 74
0
 40
0
 40
0
 40
0
 40
0
 40
1
 40
1
 40
1
 40
1
 10
81.510553
 20
90.500715
 30
0.0
 10
81.304487
 20
90.496635
 30
0.0
 10
84.887181
 20
88.439474
 30
0.0
 10
85.139779
 20
88.416836
 30
0.0
  0
SPLINE
  5
4d3
100
AcDbEntity
  8
0
 62
7
100
AcDbSpline
 70
8
 71
3
 72
8
 73
4
 74
0
 40
0
 40
0
 40
0
 40
0
 40
1
 40
1
 40
1
 40
1
 10
85.139779
 20
88.416836
 30
0.0
 10
85.212539
 20
88.410314
 30
0.0
 10
85.033945
 20
88.589285
 30
0.0
 10
84.742904
 20
88.814546
 30
0.0
  0
LWPOLYLINE
  5
4d4
100
AcDbEntity
  8
0
 62
7
100
AcDbPolyline
 90
1
 70
1
 10
33.016862
 20
88.388151
 30
0.0
  0
SPLINE
  5
4d5
100
AcDbEntity
  8
0
 62
7
100
AcDbSpline
 70
8
 71
3
 72
8
 73
4
 74
0
 40
0
 40
0
 40
0
 40
0
 40
1
 40
1
 40
1
 40
1
 10
35.001237
 20
89.200932
 30
0.0
 10
35.583320
 20
89.480856
 30
0.0
 10
35.761914
 20
89.635780
 30
0.0
 10
35.398112
 20
89.545208
 30
0.0
  0
SPLINE
  5
4d6
100
AcDbEntity
  8
0
 62
7
100
AcDbSpline
 70
8
 71
3
 72
8
 73
4
 74
0
 40
0
 40
0
 40
0
 40
0
 40
1
 40
1
 40
1
 40
1
 10
35.398112
 20
89.545208
 30
0.0
 10
34.648947
 20
89.358695
 30
0.0
 10
33.273611
 20
88.669139
 30
0.0
 10
33.678320
 20
88.682950
 30
0.0
  0
SPLINE
  5
4d7
100
AcDbEntity
  8
0
 62
7
100
AcDbSpline
 70
8
 71
3
 72
8
 73
4
 74
0
 40
0
 40
0
 40
0
 40
0
 40
1
 40
1
 40
1
 40
1
 10
33.678320
 20
88.682950
 30
0.0
 10
33.823841
 20
88.687916
 30
0.0
 10
34.419154
 20
88.921008
 30
0.0
 10
35.001237
 20
89.200932
 30
0.0
  0
LWPOLYLINE
  5
4d8
100
AcDbEntity
  8
0
 62
7
100
AcDbPolyline
 90
1
 70
1
 10
84.742904
 20
88.814546
 30
0.0
  0
SPLINE
  5
4d9
100
AcDbEntity
  8
0
 62
7
100
AcDbSpline
 70
8
 71
3
 72
8
 73
4
 74
0
 40
0
 40
0
 40
0
 40
0
 40
1
 40
1
 40
1
 40
1
 10
39.058437
 20
90.642324
 30
0.0
 10
40.028434
 20
90.981594
 30
0.0
 10
40.694097
 20
91.268042
 30
0.0
 10
40.537683
 20
91.278874
 30
0.0
  0
SPLINE
  5
4da
100
AcDbEntity
  8
0
 62
7
100
AcDbSpline
 70
8
 71
3
 72
8
 73
4
 74
0
 40
0
 40
0
 40
0
 40
0
 40
1
 40
1
 40
1
 40
1
 10
40.537683
 20
91.278874
 30
0.0
 10
40.171516
 20
91.304231
 30
0.0
 10
36.420020
 20
90.030861
 30
0.0
 10
36.215069
 20
89.811648
 30
0.0
  0
SPLINE
  5
4db
100
AcDbEntity
  8
0
 62
7
100
AcDbSpline
 70
8
 71
3
 72
8
 73
4
 74
0
 40
0
 40
0
 40
0
 40
0
 40
1
 40
1
 40
1
 40
1
 10
36.215069
 20
89.811648
 30
0.0
 10
36.034464
 20
89.618478
 30
0.0
 10
36.621609
 20
89.790008
 30
0.0
 10
39.058437
 20
90.642324
 30
0.0
  0
LWPOLYLINE
  5
4dc
100
AcDbEntity
  8
0
 62
7
100
AcDbPolyline
 90
1
 70
1
 10
35.001237
 20
89.200932
 30
0.0
  0
SPLINE
  5
4dd
100
AcDbEntity
  8
0
 62
7
100
AcDbSpline
 70
8
 71
3
 72
8
 73
4
 74
0
 40
0
 40
0
 40
0
 40
0
 40
1
 40
1
 40
1
 40
1
 10
80.906445
 20
90.769401
 30
0.0
 10
80.688164
 20
90.910465
 30
0.0
 10
80.390508
 20
91.025881
 30
0.0
 10
80.244987
 20
91.025881
 30
0.0
  0
SPLINE
  5
4de
100
AcDbEntity
  8
0
 62
7
100
AcDbSpline
 70
8
 71
3
 72
8
 73
4
 74
0
 40
0
 40
0
 40
0
 40
0
 40
1
 40
1
 40
1
 40
1
 10
80.244987
 20
91.025881
 30
0.0
 10
80.099466
 20
91.025881
 30
0.0
 10
80.158997
 20
90.910465
 30
0.0
 10
80.377279
 20
90.769401
 30
0.0
  0
SPLINE
  5
4df
100
AcDbEntity
  8
0
 62
7
100
AcDbSpline
 70
8
 71
3
 72
8
 73
4
 74
0
 40
0
 40
0
 40
0
 40
0
 40
1
 40
1
 40
1
 40
1
 10
80.377279
 20
90.769401
 30
0.0
 10
80.595560
 20
90.628337
 30
0.0
 10
80.893216
 20
90.512921
 30
0.0
 10
81.038737
 20
90.512921
 30
0.0
  0
SPLINE
  5
4e0
100
AcDbEntity
  8
0
 62
7
100
AcDbSpline
 70
8
 71
3
 72
8
 73
4
 74
0
 40
0
 40
0
 40
0
 40
0
 40
1
 40
1
 40
1
 40
1
 10
81.038737
 20
90.512921
 30
0.0
 10
81.184258
 20
90.512921
 30
0.0
 10
81.124727
 20
90.628337
 30
0.0
 10
80.906445
 20
90.769401
 30
0.0
  0
LWPOLYLINE
  5
4e1
100
AcDbEntity
  8
0
 62
7
100
AcDbPolyline
 90
1
 70
1
 10
39.058437
 20
90.642324
 30
0.0
  0
SPLINE
  5
4e2
100
AcDbEntity
  8
0
 62
7
100
AcDbSpline
 70
8
 71
3
 72
8
 73
4
 74
0
 40
0
 40
0
 40
0
 40
0
 40
1
 40
1
 40
1
 40
1
 10
79.186654
 20
91.440415
 30
0.0
 10
78.750091
 20
91.640313
 30
0.0
 10
78.214310
 20
91.800179
 30
0.0
 10
77.996029
 20
91.795672
 30
0.0
  0
SPLINE
  5
4e3
100
AcDbEntity
  8
0
 62
7
100
AcDbSpline
 70
8
 71
3
 72
8
 73
4
 74
0
 40
0
 40
0
 40
0
 40
0
 40
1
 40
1
 40
1
 40
1
 10
77.996029
 20
91.795672
 30
0.0
 10
77.777747
 20
91.791163
 30
0.0
 10
78.015872
 20
91.626999
 30
0.0
 10
78.525195
 20
91.430859
 30
0.0
  0
SPLINE
  5
4e4
100
AcDbEntity
  8
0
 62
7
100
AcDbSpline
 70
8
 71
3
 72
8
 73
4
 74
0
 40
0
 40
0
 40
0
 40
0
 40
1
 40
1
 40
1
 40
1
 10
78.525195
 20
91.430859
 30
0.0
 10
79.733204
 20
90.965658
 30
0.0
 10
80.208490
 20
90.972524
 30
0.0
 10
79.186654
 20
91.440416
 30
0.0
  0
LWPOLYLINE
  5
4e5
100
AcDbEntity
  8
0
 62
7
100
AcDbPolyline
 90
1
 70
1
 10
80.906445
 20
90.769401
 30
0.0
  0
SPLINE
  5
4e6
100
AcDbEntity
  8
0
 62
7
100
AcDbSpline
 70
8
 71
3
 72
8
 73
4
 74
0
 40
0
 40
0
 40
0
 40
0
 40
1
 40
1
 40
1
 40
1
 10
42.608008
 20
91.738380
 30
0.0
 10
42.426107
 20
91.811778
 30
0.0
 10
42.128451
 20
91.811778
 30
0.0
 10
41.946550
 20
91.738380
 30
0.0
  0
SPLINE
  5
4e7
100
AcDbEntity
  8
0
 62
7
100
AcDbSpline
 70
8
 71
3
 72
8
 73
4
 74
0
 40
0
 40
0
 40
0
 40
0
 40
1
 40
1
 40
1
 40
1
 10
41.946550
 20
91.738380
 30
0.0
 10
41.764648
 20
91.664981
 30
0.0
 10
41.913477
 20
91.604927
 30
0.0
 10
42.277279
 20
91.604927
 30
0.0
  0
SPLINE
  5
4e8
100
AcDbEntity
  8
0
 62
7
100
AcDbSpline
 70
8
 71
3
 72
8
 73
4
 74
0
 40
0
 40
0
 40
0
 40
0
 40
1
 40
1
 40
1
 40
1
 10
42.277279
 20
91.604927
 30
0.0
 10
42.641081
 20
91.604927
 30
0.0
 10
42.789909
 20
91.664981
 30
0.0
 10
42.608008
 20
91.738380
 30
0.0
  0
LWPOLYLINE
  5
4e9
100
AcDbEntity
  8
0
 62
7
100
AcDbPolyline
 90
1
 70
1
 10
79.186654
 20
91.440416
 30
0.0
  0
SPLINE
  5
4ea
100
AcDbEntity
  8
0
 62
7
100
AcDbSpline
 70
8
 71
3
 72
8
 73
4
 74
0
 40
0
 40
0
 40
0
 40
0
 40
1
 40
1
 40
1
 40
1
 10
43.793122
 20
91.987587
 30
0.0
 10
43.705201
 20
92.075506
 30
0.0
 10
43.476997
 20
92.084905
 30
0.0
 10
43.286003
 20
92.008476
 30
0.0
  0
SPLINE
  5
4eb
100
AcDbEntity
  8
0
 62
7
100
AcDbSpline
 70
8
 71
3
 72
8
 73
4
 74
0
 40
0
 40
0
 40
0
 40
0
 40
1
 40
1
 40
1
 40
1
 10
43.286003
 20
92.008476
 30
0.0
 10
43.074937
 20
91.924014
 30
0.0
 10
43.137630
 20
91.861319
 30
0.0
 10
43.445856
 20
91.848623
 30
0.0
  0
SPLINE
  5
4ec
100
AcDbEntity
  8
0
 62
7
100
AcDbSpline
 70
8
 71
3
 72
8
 73
4
 74
0
 40
0
 40
0
 40
0
 40
0
 40
1
 40
1
 40
1
 40
1
 10
43.445856
 20
91.848623
 30
0.0
 10
43.724769
 20
91.837135
 30
0.0
 10
43.881040
 20
91.899669
 30
0.0
 10
43.793122
 20
91.987588
 30
0.0
  0
LWPOLYLINE
  5
4ed
100
AcDbEntity
  8
0
 62
7
100
AcDbPolyline
 90
1
 70
1
 10
42.608008
 20
91.738380
 30
0.0
  0
SPLINE
  5
4ee
100
AcDbEntity
  8
0
 62
7
100
AcDbSpline
 70
8
 71
3
 72
8
 73
4
 74
0
 40
0
 40
0
 40
0
 40
0
 40
1
 40
1
 40
1
 40
1
 10
76.427502
 20
92.247629
 30
0.0
 10
75.783093
 20
92.449796
 30
0.0
 10
74.830593
 20
92.673962
 30
0.0
 10
74.310835
 20
92.745776
 30
0.0
  0
SPLINE
  5
4ef
100
AcDbEntity
  8
0
 62
7
100
AcDbSpline
 70
8
 71
3
 72
8
 73
4
 74
0
 40
0
 40
0
 40
0
 40
0
 40
1
 40
1
 40
1
 40
1
 10
74.310835
 20
92.745776
 30
0.0
 10
73.791077
 20
92.817590
 30
0.0
 10
74.139727
 20
92.651923
 30
0.0
 10
75.085612
 20
92.377628
 30
0.0
  0
SPLINE
  5
4f0
100
AcDbEntity
  8
0
 62
7
100
AcDbSpline
 70
8
 71
3
 72
8
 73
4
 74
0
 40
0
 40
0
 40
0
 40
0
 40
1
 40
1
 40
1
 40
1
 10
75.085612
 20
92.377628
 30
0.0
 10
77.062505
 20
91.804353
 30
0.0
 10
78.187995
 20
91.695319
 30
0.0
 10
76.427502
 20
92.247629
 30
0.0
  0
LWPOLYLINE
  5
4f1
100
AcDbEntity
  8
0
 62
7
100
AcDbPolyline
 90
1
 70
1
 10
43.793122
 20
91.987588
 30
0.0
  0
SPLINE
  5
4f2
100
AcDbEntity
  8
0
 62
7
100
AcDbSpline
 70
8
 71
3
 72
8
 73
4
 74
0
 40
0
 40
0
 40
0
 40
0
 40
1
 40
1
 40
1
 40
1
 10
45.716862
 20
92.356901
 30
0.0
 10
46.240626
 20
92.524640
 30
0.0
 10
46.268166
 20
92.568737
 30
0.0
 10
45.849154
 20
92.568737
 30
0.0
  0
SPLINE
  5
4f3
100
AcDbEntity
  8
0
 62
7
100
AcDbSpline
 70
8
 71
3
 72
8
 73
4
 74
0
 40
0
 40
0
 40
0
 40
0
 40
1
 40
1
 40
1
 40
1
 10
45.849154
 20
92.568737
 30
0.0
 10
45.558112
 20
92.568737
 30
0.0
 10
45.022331
 20
92.473411
 30
0.0
 10
44.658529
 20
92.356901
 30
0.0
  0
SPLINE
  5
4f4
100
AcDbEntity
  8
0
 62
7
100
AcDbSpline
 70
8
 71
3
 72
8
 73
4
 74
0
 40
0
 40
0
 40
0
 40
0
 40
1
 40
1
 40
1
 40
1
 10
44.658529
 20
92.356901
 30
0.0
 10
44.134765
 20
92.189162
 30
0.0
 10
44.107224
 20
92.145065
 30
0.0
 10
44.526237
 20
92.145065
 30
0.0
  0
SPLINE
  5
4f5
100
AcDbEntity
  8
0
 62
7
100
AcDbSpline
 70
8
 71
3
 72
8
 73
4
 74
0
 40
0
 40
0
 40
0
 40
0
 40
1
 40
1
 40
1
 40
1
 10
44.526237
 20
92.145065
 30
0.0
 10
44.817279
 20
92.145065
 30
0.0
 10
45.353060
 20
92.240391
 30
0.0
 10
45.716862
 20
92.356901
 30
0.0
  0
LWPOLYLINE
  5
4f6
100
AcDbEntity
  8
0
 62
7
100
AcDbPolyline
 90
1
 70
1
 10
76.427502
 20
92.247629
 30
0.0
  0
SPLINE
  5
4f7
100
AcDbEntity
  8
0
 62
7
100
AcDbSpline
 70
8
 71
3
 72
8
 73
4
 74
0
 40
0
 40
0
 40
0
 40
0
 40
1
 40
1
 40
1
 40
1
 10
47.370508
 20
92.796713
 30
0.0
 10
47.188607
 20
92.870112
 30
0.0
 10
46.890951
 20
92.870112
 30
0.0
 10
46.709050
 20
92.796713
 30
0.0
  0
SPLINE
  5
4f8
100
AcDbEntity
  8
0
 62
7
100
AcDbSpline
 70
8
 71
3
 72
8
 73
4
 74
0
 40
0
 40
0
 40
0
 40
0
 40
1
 40
1
 40
1
 40
1
 10
46.709050
 20
92.796713
 30
0.0
 10
46.527149
 20
92.723314
 30
0.0
 10
46.675977
 20
92.663261
 30
0.0
 10
47.039779
 20
92.663261
 30
0.0
  0
SPLINE
  5
4f9
100
AcDbEntity
  8
0
 62
7
100
AcDbSpline
 70
8
 71
3
 72
8
 73
4
 74
0
 40
0
 40
0
 40
0
 40
0
 40
1
 40
1
 40
1
 40
1
 10
47.039779
 20
92.663261
 30
0.0
 10
47.403581
 20
92.663261
 30
0.0
 10
47.552409
 20
92.723314
 30
0.0
 10
47.370508
 20
92.796713
 30
0.0
  0
LWPOLYLINE
  5
4fa
100
AcDbEntity
  8
0
 62
7
100
AcDbPolyline
 90
1
 70
1
 10
45.716862
 20
92.356901
 30
0.0
  0
SPLINE
  5
4fb
100
AcDbEntity
  8
0
 62
7
100
AcDbSpline
 70
8
 71
3
 72
8
 73
4
 74
0
 40
0
 40
0
 40
0
 40
0
 40
1
 40
1
 40
1
 40
1
 10
48.963043
 20
93.059618
 30
0.0
 10
48.783912
 20
93.132093
 30
0.0
 10
48.426725
 20
93.136505
 30
0.0
 10
48.169293
 20
93.069421
 30
0.0
  0
SPLINE
  5
4fc
100
AcDbEntity
  8
0
 62
7
100
AcDbSpline
 70
8
 71
3
 72
8
 73
4
 74
0
 40
0
 40
0
 40
0
 40
0
 40
1
 40
1
 40
1
 40
1
 10
48.169293
 20
93.069421
 30
0.0
 10
47.911861
 20
93.002337
 30
0.0
 10
48.058425
 20
92.943039
 30
0.0
 10
48.494987
 20
92.937647
 30
0.0
  0
SPLINE
  5
4fd
100
AcDbEntity
  8
0
 62
7
100
AcDbSpline
 70
8
 71
3
 72
8
 73
4
 74
0
 40
0
 40
0
 40
0
 40
0
 40
1
 40
1
 40
1
 40
1
 10
48.494987
 20
92.937647
 30
0.0
 10
48.931550
 20
92.932255
 30
0.0
 10
49.142174
 20
92.987141
 30
0.0
 10
48.963043
 20
93.059617
 30
0.0
  0
LWPOLYLINE
  5
4fe
100
AcDbEntity
  8
0
 62
7
100
AcDbPolyline
 90
1
 70
1
 10
47.370508
 20
92.796713
 30
0.0
  0
SPLINE
  5
4ff
100
AcDbEntity
  8
0
 62
7
100
AcDbSpline
 70
8
 71
3
 72
8
 73
4
 74
0
 40
0
 40
0
 40
0
 40
0
 40
1
 40
1
 40
1
 40
1
 10
73.035091
 20
93.061285
 30
0.0
 10
72.853190
 20
93.134683
 30
0.0
 10
72.555534
 20
93.134683
 30
0.0
 10
72.373633
 20
93.061285
 30
0.0
  0
SPLINE
  5
500
100
AcDbEntity
  8
0
 62
7
100
AcDbSpline
 70
8
 71
3
 72
8
 73
4
 74
0
 40
0
 40
0
 40
0
 40
0
 40
1
 40
1
 40
1
 40
1
 10
72.373633
 20
93.061285
 30
0.0
 10
72.191732
 20
92.987886
 30
0.0
 10
72.340560
 20
92.927833
 30
0.0
 10
72.704362
 20
92.927833
 30
0.0
  0
SPLINE
  5
501
100
AcDbEntity
  8
0
 62
7
100
AcDbSpline
 70
8
 71
3
 72
8
 73
4
 74
0
 40
0
 40
0
 40
0
 40
0
 40
1
 40
1
 40
1
 40
1
 10
72.704362
 20
92.927833
 30
0.0
 10
73.068164
 20
92.927833
 30
0.0
 10
73.216992
 20
92.987886
 30
0.0
 10
73.035091
 20
93.061285
 30
0.0
  0
LWPOLYLINE
  5
502
100
AcDbEntity
  8
0
 62
7
100
AcDbPolyline
 90
1
 70
1
 10
48.963043
 20
93.059617
 30
0.0
  0
SPLINE
  5
503
100
AcDbEntity
  8
0
 62
7
100
AcDbSpline
 70
8
 71
3
 72
8
 73
4
 74
0
 40
0
 40
0
 40
0
 40
0
 40
1
 40
1
 40
1
 40
1
 10
50.815126
 20
93.324201
 30
0.0
 10
50.635995
 20
93.396677
 30
0.0
 10
50.278808
 20
93.401088
 30
0.0
 10
50.021376
 20
93.334004
 30
0.0
  0
SPLINE
  5
504
100
AcDbEntity
  8
0
 62
7
100
AcDbSpline
 70
8
 71
3
 72
8
 73
4
 74
0
 40
0
 40
0
 40
0
 40
0
 40
1
 40
1
 40
1
 40
1
 10
50.021376
 20
93.334004
 30
0.0
 10
49.763945
 20
93.266921
 30
0.0
 10
49.910508
 20
93.207623
 30
0.0
 10
50.347070
 20
93.202230
 30
0.0
  0
SPLINE
  5
505
100
AcDbEntity
  8
0
 62
7
100
AcDbSpline
 70
8
 71
3
 72
8
 73
4
 74
0
 40
0
 40
0
 40
0
 40
0
 40
1
 40
1
 40
1
 40
1
 10
50.347070
 20
93.202230
 30
0.0
 10
50.783633
 20
93.196838
 30
0.0
 10
50.994257
 20
93.251725
 30
0.0
 10
50.815126
 20
93.324200
 30
0.0
  0
LWPOLYLINE
  5
506
100
AcDbEntity
  8
0
 62
7
100
AcDbPolyline
 90
1
 70
1
 10
73.035091
 20
93.061285
 30
0.0
  0
SPLINE
  5
507
100
AcDbEntity
  8
0
 62
7
100
AcDbSpline
 70
8
 71
3
 72
8
 73
4
 74
0
 40
0
 40
0
 40
0
 40
0
 40
1
 40
1
 40
1
 40
1
 10
71.452626
 20
93.324201
 30
0.0
 10
71.273495
 20
93.396677
 30
0.0
 10
70.916308
 20
93.401088
 30
0.0
 10
70.658876
 20
93.334004
 30
0.0
  0
SPLINE
  5
508
100
AcDbEntity
  8
0
 62
7
100
AcDbSpline
 70
8
 71
3
 72
8
 73
4
 74
0
 40
0
 40
0
 40
0
 40
0
 40
1
 40
1
 40
1
 40
1
 10
70.658876
 20
93.334004
 30
0.0
 10
70.401445
 20
93.266921
 30
0.0
 10
70.548008
 20
93.207623
 30
0.0
 10
70.984570
 20
93.202230
 30
0.0
  0
SPLINE
  5
509
100
AcDbEntity
  8
0
 62
7
100
AcDbSpline
 70
8
 71
3
 72
8
 73
4
 74
0
 40
0
 40
0
 40
0
 40
0
 40
1
 40
1
 40
1
 40
1
 10
70.984570
 20
93.202230
 30
0.0
 10
71.421133
 20
93.196838
 30
0.0
 10
71.631757
 20
93.251725
 30
0.0
 10
71.452626
 20
93.324200
 30
0.0
  0
LWPOLYLINE
  5
50a
100
AcDbEntity
  8
0
 62
7
100
AcDbPolyline
 90
1
 70
1
 10
50.815126
 20
93.324200
 30
0.0
  0
SPLINE
  5
50b
100
AcDbEntity
  8
0
 62
7
100
AcDbSpline
 70
8
 71
3
 72
8
 73
4
 74
0
 40
0
 40
0
 40
0
 40
0
 40
1
 40
1
 40
1
 40
1
 10
52.926758
 20
93.601960
 30
0.0
 10
52.599336
 20
93.665024
 30
0.0
 10
52.063555
 20
93.665024
 30
0.0
 10
51.736133
 20
93.601960
 30
0.0
  0
SPLINE
  5
50c
100
AcDbEntity
  8
0
 62
7
100
AcDbSpline
 70
8
 71
3
 72
8
 73
4
 74
0
 40
0
 40
0
 40
0
 40
0
 40
1
 40
1
 40
1
 40
1
 10
51.736133
 20
93.601960
 30
0.0
 10
51.408711
 20
93.538896
 30
0.0
 10
51.676602
 20
93.487298
 30
0.0
 10
52.331445
 20
93.487298
 30
0.0
  0
SPLINE
  5
50d
100
AcDbEntity
  8
0
 62
7
100
AcDbSpline
 70
8
 71
3
 72
8
 73
4
 74
0
 40
0
 40
0
 40
0
 40
0
 40
1
 40
1
 40
1
 40
1
 10
52.331445
 20
93.487298
 30
0.0
 10
52.986289
 20
93.487298
 30
0.0
 10
53.254180
 20
93.538896
 30
0.0
 10
52.926758
 20
93.601960
 30
0.0
  0
LWPOLYLINE
  5
50e
100
AcDbEntity
  8
0
 62
7
100
AcDbPolyline
 90
1
 70
1
 10
71.452626
 20
93.324200
 30
0.0
  0
SPLINE
  5
50f
100
AcDbEntity
  8
0
 62
7
100
AcDbSpline
 70
8
 71
3
 72
8
 73
4
 74
0
 40
0
 40
0
 40
0
 40
0
 40
1
 40
1
 40
1
 40
1
 10
69.730885
 20
93.597024
 30
0.0
 10
69.477919
 20
93.663248
 30
0.0
 10
69.001669
 20
93.665650
 30
0.0
 10
68.672551
 20
93.602364
 30
0.0
  0
SPLINE
  5
510
100
AcDbEntity
  8
0
 62
7
100
AcDbSpline
 70
8
 71
3
 72
8
 73
4
 74
0
 40
0
 40
0
 40
0
 40
0
 40
1
 40
1
 40
1
 40
1
 10
68.672551
 20
93.602364
 30
0.0
 10
68.343433
 20
93.539077
 30
0.0
 10
68.550404
 20
93.484895
 30
0.0
 10
69.132487
 20
93.481958
 30
0.0
  0
SPLINE
  5
511
100
AcDbEntity
  8
0
 62
7
100
AcDbSpline
 70
8
 71
3
 72
8
 73
4
 74
0
 40
0
 40
0
 40
0
 40
0
 40
1
 40
1
 40
1
 40
1
 10
69.132487
 20
93.481958
 30
0.0
 10
69.714570
 20
93.479021
 30
0.0
 10
69.983850
 20
93.530801
 30
0.0
 10
69.730885
 20
93.597024
 30
0.0
  0
LWPOLYLINE
  5
512
100
AcDbEntity
  8
0
 62
7
100
AcDbPolyline
 90
1
 70
1
 10
52.926758
 20
93.601960
 30
0.0
  0
SPLINE
  5
513
100
AcDbEntity
  8
0
 62
7
100
AcDbSpline
 70
8
 71
3
 72
8
 73
4
 74
0
 40
0
 40
0
 40
0
 40
0
 40
1
 40
1
 40
1
 40
1
 10
56.238788
 20
93.868870
 30
0.0
 10
55.841212
 20
93.929241
 30
0.0
 10
55.126837
 20
93.930456
 30
0.0
 10
54.651288
 20
93.871570
 30
0.0
  0
SPLINE
  5
514
100
AcDbEntity
  8
0
 62
7
100
AcDbSpline
 70
8
 71
3
 72
8
 73
4
 74
0
 40
0
 40
0
 40
0
 40
0
 40
1
 40
1
 40
1
 40
1
 10
54.651288
 20
93.871570
 30
0.0
 10
54.175739
 20
93.812684
 30
0.0
 10
54.501029
 20
93.763289
 30
0.0
 10
55.374154
 20
93.761804
 30
0.0
  0
SPLINE
  5
515
100
AcDbEntity
  8
0
 62
7
100
AcDbSpline
 70
8
 71
3
 72
8
 73
4
 74
0
 40
0
 40
0
 40
0
 40
0
 40
1
 40
1
 40
1
 40
1
 10
55.374154
 20
93.761804
 30
0.0
 10
56.247279
 20
93.760320
 30
0.0
 10
56.636364
 20
93.808499
 30
0.0
 10
56.238788
 20
93.868870
 30
0.0
  0
LWPOLYLINE
  5
516
100
AcDbEntity
  8
0
 62
7
100
AcDbPolyline
 90
1
 70
1
 10
69.730885
 20
93.597024
 30
0.0
  0
SPLINE
  5
517
100
AcDbEntity
  8
0
 62
7
100
AcDbSpline
 70
8
 71
3
 72
8
 73
4
 74
0
 40
0
 40
0
 40
0
 40
0
 40
1
 40
1
 40
1
 40
1
 10
67.086705
 20
93.868870
 30
0.0
 10
66.689129
 20
93.929241
 30
0.0
 10
65.974754
 20
93.930456
 30
0.0
 10
65.499205
 20
93.871570
 30
0.0
  0
SPLINE
  5
518
100
AcDbEntity
  8
0
 62
7
100
AcDbSpline
 70
8
 71
3
 72
8
 73
4
 74
0
 40
0
 40
0
 40
0
 40
0
 40
1
 40
1
 40
1
 40
1
 10
65.499205
 20
93.871570
 30
0.0
 10
65.023656
 20
93.812684
 30
0.0
 10
65.348945
 20
93.763289
 30
0.0
 10
66.222070
 20
93.761804
 30
0.0
  0
SPLINE
  5
519
100
AcDbEntity
  8
0
 62
7
100
AcDbSpline
 70
8
 71
3
 72
8
 73
4
 74
0
 40
0
 40
0
 40
0
 40
0
 40
1
 40
1
 40
1
 40
1
 10
66.222070
 20
93.761804
 30
0.0
 10
67.095195
 20
93.760320
 30
0.0
 10
67.484281
 20
93.808499
 30
0.0
 10
67.086705
 20
93.868870
 30
0.0
  0
LWPOLYLINE
  5
51a
100
AcDbEntity
  8
0
 62
7
100
AcDbPolyline
 90
1
 70
1
 10
56.238788
 20
93.868870
 30
0.0
  0
SPLINE
  5
51b
100
AcDbEntity
  8
0
 62
7
100
AcDbSpline
 70
8
 71
3
 72
8
 73
4
 74
0
 40
0
 40
0
 40
0
 40
0
 40
1
 40
1
 40
1
 40
1
 10
62.594419
 20
94.139616
 30
0.0
 10
61.763376
 20
94.191952
 30
0.0
 10
60.334626
 20
94.192380
 30
0.0
 10
59.419419
 20
94.140568
 30
0.0
  0
SPLINE
  5
51c
100
AcDbEntity
  8
0
 62
7
100
AcDbSpline
 70
8
 71
3
 72
8
 73
4
 74
0
 40
0
 40
0
 40
0
 40
0
 40
1
 40
1
 40
1
 40
1
 10
59.419419
 20
94.140568
 30
0.0
 10
58.504209
 20
94.088754
 30
0.0
 10
59.184154
 20
94.045933
 30
0.0
 10
60.930404
 20
94.045410
 30
0.0
  0
SPLINE
  5
51d
100
AcDbEntity
  8
0
 62
7
100
AcDbSpline
 70
8
 71
3
 72
8
 73
4
 74
0
 40
0
 40
0
 40
0
 40
0
 40
1
 40
1
 40
1
 40
1
 10
60.930404
 20
94.045410
 30
0.0
 10
62.676654
 20
94.044886
 30
0.0
 10
63.425459
 20
94.087279
 30
0.0
 10
62.594419
 20
94.139616
 30
0.0
  0
LWPOLYLINE
  5
51e
100
AcDbEntity
  8
0
 62
7
100
AcDbPolyline
 90
1
 70
1
 10
67.086705
 20
93.868870
 30
0.0
  0
LWPOLYLINE
  5
51f
100
AcDbEntity
  8
0
 62
7
100
AcDbPolyline
 90
1
 70
1
 10
62.594419
 20
94.139616
 30
0.0
  0
ENDSEC
  0
SECTION
  2
OBJECTS
  0
DICTIONARY
  5
C
330
0
100
AcDbDictionary
  3
ACAD_GROUP
350
D
  3
ACAD_MLINESTYLE
350
17
  0
DICTIONARY
  5
D
330
C
100
AcDbDictionary
  0
DICTIONARY
  5
1A
330
C
100
AcDbDictionary
  0
DICTIONARY
  5
17
330
C
100
AcDbDictionary
  3
STANDARD
350
18
  0
DICTIONARY
  5
19
330
C
100
AcDbDictionary
  0
ENDSEC
  0
EOF
