  0
SECTION
  2
HEADER
  9
$ACADVER
  1
AC1015
  9
$ACADMAINTVER
 70
     6
  9
$DWGCODEPAGE
  3
ANSI_1252
  9
$INSBASE
 10
0.0
 20
0.0
 30
0.0
  9
$EXTMIN
 10
1.000000000000000E+20
 20
1.000000000000000E+20
 30
1.000000000000000E+20
  9
$EXTMAX
 10
-1.000000000000000E+20
 20
-1.000000000000000E+20
 30
-1.000000000000000E+20
  9
$LIMMIN
 10
0.0
 20
0.0
  9
$LIMMAX
 10
12.0
 20
9.0
  9
$ORTHOMODE
 70
     0
  9
$REGENMODE
 70
     1
  9
$FILLMODE
 70
     1
  9
$QTEXTMODE
 70
     0
  9
$MIRRTEXT
 70
     1
  9
$LTSCALE
 40
1.0
  9
$ATTMODE
 70
     1
  9
$TEXTSIZE
 40
0.2
  9
$TRACEWID
 40
0.05
  9
$TEXTSTYLE
  7
Standard
  9
$CLAYER
  8
0
  9
$CELTYPE
  6
ByLayer
  9
$CECOLOR
 62
   256
  9
$CELTSCALE
 40
1.0
  9
$DISPSILH
 70
     0
  9
$DIMSCALE
 40
1.0
  9
$DIMASZ
 40
0.18
  9
$DIMEXO
 40
0.0625
  9
$DIMDLI
 40
0.38
  9
$DIMRND
 40
0.0
  9
$DIMDLE
 40
0.0
  9
$DIMEXE
 40
0.18
  9
$DIMTP
 40
0.0
  9
$DIMTM
 40
0.0
  9
$DIMTXT
 40
0.18
  9
$DIMCEN
 40
0.09
  9
$DIMTSZ
 40
0.0
  9
$DIMTOL
 70
     0
  9
$DIMLIM
 70
     0
  9
$DIMTIH
 70
     1
  9
$DIMTOH
 70
     1
  9
$DIMSE1
 70
     0
  9
$DIMSE2
 70
     0
  9
$DIMTAD
 70
     0
  9
$DIMZIN
 70
     0
  9
$DIMBLK
  1

  9
$DIMASO
 70
     1
  9
$DIMSHO
 70
     1
  9
$DIMPOST
  1

  9
$DIMAPOST
  1

  9
$DIMALT
 70
     0
  9
$DIMALTD
 70
     2
  9
$DIMALTF
 40
25.4
  9
$DIMLFAC
 40
1.0
  9
$DIMTOFL
 70
     0
  9
$DIMTVP
 40
0.0
  9
$DIMTIX
 70
     0
  9
$DIMSOXD
 70
     0
  9
$DIMSAH
 70
     0
  9
$DIMBLK1
  1

  9
$DIMBLK2
  1

  9
$DIMSTYLE
  2
Standard
  9
$DIMCLRD
 70
     0
  9
$DIMCLRE
 70
     0
  9
$DIMCLRT
 70
     0
  9
$DIMTFAC
 40
1.0
  9
$DIMGAP
 40
0.09
  9
$DIMJUST
 70
     0
  9
$DIMSD1
 70
     0
  9
$DIMSD2
 70
     0
  9
$DIMTOLJ
 70
     1
  9
$DIMTZIN
 70
     0
  9
$DIMALTZ
 70
     0
  9
$DIMALTTZ
 70
     0
  9
$DIMUPT
 70
     0
  9
$DIMDEC
 70
     4
  9
$DIMTDEC
 70
     4
  9
$DIMALTU
 70
     2
  9
$DIMALTTD
 70
     2
  9
$DIMTXSTY
  7
Standard
  9
$DIMAUNIT
 70
     0
  9
$DIMADEC
 70
     0
  9
$DIMALTRND
 40
0.0
  9
$DIMAZIN
 70
     0
  9
$DIMDSEP
 70
    46
  9
$DIMATFIT
 70
     3
  9
$DIMFRAC
 70
     0
  9
$DIMLDRBLK
  1

  9
$DIMLUNIT
 70
     2
  9
$DIMLWD
 70
    -2
  9
$DIMLWE
 70
    -2
  9
$DIMTMOVE
 70
     0
  9
$LUNITS
 70
     2
  9
$LUPREC
 70
     4
  9
$SKETCHINC
 40
0.1
  9
$FILLETRAD
 40
0.5
  9
$AUNITS
 70
     0
  9
$AUPREC
 70
     0
  9
$MENU
  1
.
  9
$ELEVATION
 40
0.0
  9
$PELEVATION
 40
0.0
  9
$THICKNESS
 40
0.0
  9
$LIMCHECK
 70
     0
  9
$CHAMFERA
 40
0.5
  9
$CHAMFERB
 40
0.5
  9
$CHAMFERC
 40
1.0
  9
$CHAMFERD
 40
0.0
  9
$SKPOLY
 70
     0
  9
$TDCREATE
 40
2458449.493988784
  9
$TDUCREATE
 40
2458449.702322118
  9
$TDUPDATE
 40
2458449.493988796
  9
$TDUUPDATE
 40
2458449.70232213
  9
$TDINDWG
 40
0.0000000116
  9
$TDUSRTIMER
 40
0.0000000116
  9
$USRTIMER
 70
     1
  9
$ANGBASE
 50
0.0
  9
$ANGDIR
 70
     0
  9
$PDMODE
 70
     0
  9
$PDSIZE
 40
0.0
  9
$PLINEWID
 40
0.0
  9
$SPLFRAME
 70
     0
  9
$SPLINETYPE
 70
     6
  9
$SPLINESEGS
 70
     8
  9
$HANDSEED
  5
6D
  9
$SURFTAB1
 70
     6
  9
$SURFTAB2
 70
     6
  9
$SURFTYPE
 70
     6
  9
$SURFU
 70
     6
  9
$SURFV
 70
     6
  9
$UCSBASE
  2

  9
$UCSNAME
  2

  9
$UCSORG
 10
0.0
 20
0.0
 30
0.0
  9
$UCSXDIR
 10
1.0
 20
0.0
 30
0.0
  9
$UCSYDIR
 10
0.0
 20
1.0
 30
0.0
  9
$UCSORTHOREF
  2

  9
$UCSORTHOVIEW
 70
     0
  9
$UCSORGTOP
 10
0.0
 20
0.0
 30
0.0
  9
$UCSORGBOTTOM
 10
0.0
 20
0.0
 30
0.0
  9
$UCSORGLEFT
 10
0.0
 20
0.0
 30
0.0
  9
$UCSORGRIGHT
 10
0.0
 20
0.0
 30
0.0
  9
$UCSORGFRONT
 10
0.0
 20
0.0
 30
0.0
  9
$UCSORGBACK
 10
0.0
 20
0.0
 30
0.0
  9
$PUCSBASE
  2

  9
$PUCSNAME
  2

  9
$PUCSORG
 10
0.0
 20
0.0
 30
0.0
  9
$PUCSXDIR
 10
1.0
 20
0.0
 30
0.0
  9
$PUCSYDIR
 10
0.0
 20
1.0
 30
0.0
  9
$PUCSORTHOREF
  2

  9
$PUCSORTHOVIEW
 70
     0
  9
$PUCSORGTOP
 10
0.0
 20
0.0
 30
0.0
  9
$PUCSORGBOTTOM
 10
0.0
 20
0.0
 30
0.0
  9
$PUCSORGLEFT
 10
0.0
 20
0.0
 30
0.0
  9
$PUCSORGRIGHT
 10
0.0
 20
0.0
 30
0.0
  9
$PUCSORGFRONT
 10
0.0
 20
0.0
 30
0.0
  9
$PUCSORGBACK
 10
0.0
 20
0.0
 30
0.0
  9
$USERI1
 70
     0
  9
$USERI2
 70
     0
  9
$USERI3
 70
     0
  9
$USERI4
 70
     0
  9
$USERI5
 70
     0
  9
$USERR1
 40
0.0
  9
$USERR2
 40
0.0
  9
$USERR3
 40
0.0
  9
$USERR4
 40
0.0
  9
$USERR5
 40
0.0
  9
$WORLDVIEW
 70
     1
  9
$SHADEDGE
 70
     3
  9
$SHADEDIF
 70
    70
  9
$TILEMODE
 70
     1
  9
$MAXACTVP
 70
    64
  9
$PINSBASE
 10
0.0
 20
0.0
 30
0.0
  9
$PLIMCHECK
 70
     0
  9
$PEXTMIN
 10
1.000000000000000E+20
 20
1.000000000000000E+20
 30
1.000000000000000E+20
  9
$PEXTMAX
 10
-1.000000000000000E+20
 20
-1.000000000000000E+20
 30
-1.000000000000000E+20
  9
$PLIMMIN
 10
0.0
 20
0.0
  9
$PLIMMAX
 10
12.0
 20
9.0
  9
$UNITMODE
 70
     0
  9
$VISRETAIN
 70
     1
  9
$PLINEGEN
 70
     0
  9
$PSLTSCALE
 70
     1
  9
$TREEDEPTH
 70
  3020
  9
$CMLSTYLE
  2
Standard
  9
$CMLJUST
 70
     0
  9
$CMLSCALE
 40
1.0
  9
$PROXYGRAPHICS
 70
     1
  9
$MEASUREMENT
 70
     0
  9
$CELWEIGHT
370
    -1
  9
$ENDCAPS
280
     0
  9
$JOINSTYLE
280
     0
  9
$LWDISPLAY
290
     1
  9
$INSUNITS
 70
     1
  9
$HYPERLINKBASE
  1

  9
$STYLESHEET
  1

  9
$XEDIT
290
     1
  9
$CEPSNTYPE
380
     0
  9
$PSTYLEMODE
290
     1
  9
$FINGERPRINTGUID
  2
{D8AEB6F5-5F39-425D-B62F-377330915A9E}
  9
$VERSIONGUID
  2
{FAEB1C32-E019-11D5-929B-00C0DF256EC4}
  9
$EXTNAMES
290
     1
  9
$PSVPSCALE
 40
0.0
  9
$OLESTARTUP
290
     0
  0
ENDSEC
  0
SECTION
  2
CLASSES
  0
CLASS
  1
ACDBDICTIONARYWDFLT
  2
AcDbDictionaryWithDefault
  3
ObjectDBX Classes
 90
        0
280
     0
281
     0
  0
CLASS
  1
VISUALSTYLE
  2
AcDbVisualStyle
  3
ObjectDBX Classes
 90
     4095
280
     0
281
     0
  0
CLASS
  1
ACDBPLACEHOLDER
  2
AcDbPlaceHolder
  3
ObjectDBX Classes
 90
        0
280
     0
281
     0
  0
CLASS
  1
LAYOUT
  2
AcDbLayout
  3
ObjectDBX Classes
 90
        0
280
     0
281
     0
  0
ENDSEC
  0
SECTION
  2
TABLES
  0
TABLE
  2
VPORT
  5
8
330
0
100
AcDbSymbolTable
 70
     1
  0
VPORT
  5
29
330
8
100
AcDbSymbolTableRecord
100
AcDbViewportTableRecord
  2
*Active
 70
     0
 10
0.0
 20
0.0
 11
1.0
 21
1.0
 12
0.0
 22
0.0
 13
0.0
 23
0.0
 14
0.5
 24
0.5
 15
0.5
 25
0.5
 16
0.0
 26
0.0
 36
1.0
 17
500.0
 27
-500.0
 37
0.0
 40
1000.0
 41
1.0
 42
50.0
 43
0.0
 44
0.0
 50
0.0
 51
0.0
 71
     0
 72
   100
 73
     1
 74
     3
 75
     0
 76
     0
 77
     0
 78
     0
281
     0
 65
     1
110
0.0
120
0.0
130
0.0
111
1.0
121
0.0
131
0.0
112
0.0
122
1.0
132
0.0
 79
     0
146
0.0
  0
ENDTAB
  0
TABLE
  2
LTYPE
  5
5
330
0
100
AcDbSymbolTable
 70
     1
  0
LTYPE
  5
14
330
5
100
AcDbSymbolTableRecord
100
AcDbLinetypeTableRecord
  2
ByBlock
 70
     0
  3

 72
    65
 73
     0
 40
0.0
  0
LTYPE
  5
15
330
5
100
AcDbSymbolTableRecord
100
AcDbLinetypeTableRecord
  2
ByLayer
 70
     0
  3

 72
    65
 73
     0
 40
0.0
  0
LTYPE
  5
16
330
5
100
AcDbSymbolTableRecord
100
AcDbLinetypeTableRecord
  2
Continuous
 70
     0
  3
Solid line
 72
    65
 73
     0
 40
0.0
  0
ENDTAB
  0
TABLE
  2
LAYER
  5
2
330
0
100
AcDbSymbolTable
 70
     2
  0
LAYER
  5
10
330
2
100
AcDbSymbolTableRecord
100
AcDbLayerTableRecord
  2
0
 70
     0
 62
     7
  6
Continuous
370
    -3
390
F
  0
LAYER
  5
3B
330
2
100
AcDbSymbolTableRecord
100
AcDbLayerTableRecord
  2
Layer 1
 70
     0
 62
     7
  6
Continuous
370
    -3
390
F
  0
ENDTAB
  0
TABLE
  2
STYLE
  5
3
330
0
100
AcDbSymbolTable
 70
     1
  0
STYLE
  5
11
330
3
100
AcDbSymbolTableRecord
100
AcDbTextStyleTableRecord
  2
Standard
 70
     0
 40
0.0
 41
1.0
 50
0.0
 71
     0
 42
0.2
  3
txt
  4

  0
ENDTAB
  0
TABLE
  2
VIEW
  5
6
330
0
100
AcDbSymbolTable
 70
     0
  0
ENDTAB
  0
TABLE
  2
UCS
  5
7
330
0
100
AcDbSymbolTable
 70
     0
  0
ENDTAB
  0
TABLE
  2
APPID
  5
9
330
0
100
AcDbSymbolTable
 70
     1
  0
APPID
  5
12
330
9
100
AcDbSymbolTableRecord
100
AcDbRegAppTableRecord
  2
ACAD
 70
     0
  0
ENDTAB
  0
TABLE
  2
DIMSTYLE
  5
A
330
0
100
AcDbSymbolTable
 70
     1
100
AcDbDimStyleTable
  0
DIMSTYLE
105
27
330
A
100
AcDbSymbolTableRecord
100
AcDbDimStyleTableRecord
  2
Standard
 70
     0
340
11
  0
ENDTAB
  0
TABLE
  2
BLOCK_RECORD
  5
1
330
0
100
AcDbSymbolTable
 70
     2
  0
BLOCK_RECORD
  5
1F
330
1
100
AcDbSymbolTableRecord
100
AcDbBlockTableRecord
  2
*Model_Space
340
22
  0
BLOCK_RECORD
  5
1B
330
1
100
AcDbSymbolTableRecord
100
AcDbBlockTableRecord
  2
*Paper_Space
340
1E
  0
BLOCK_RECORD
  5
23
330
1
100
AcDbSymbolTableRecord
100
AcDbBlockTableRecord
  2
*Paper_Space0
340
26
  0
BLOCK_RECORD
  5
3C
330
1
100
AcDbSymbolTableRecord
100
AcDbBlockTableRecord
  2
block 2
340
0
102
{BLKREFS
331
3D
102
}
  0
ENDTAB
  0
ENDSEC
  0
SECTION
  2
BLOCKS
  0
BLOCK
  5
20
330
1F
100
AcDbEntity
  8
0
100
AcDbBlockBegin
  2
*Model_Space
 70
     0
 71
     0
 10
0.0
 20
0.0
 30
0.0
  3
*Model_Space
  1

  0
ENDBLK
  5
21
330
1F
100
AcDbEntity
  8
0
100
AcDbBlockEnd
  0
BLOCK
  5
1C
330
1B
100
AcDbEntity
 67
     1
  8
0
100
AcDbBlockBegin
  2
*Paper_Space
 70
     0
 71
     0
 10
0.0
 20
0.0
 30
0.0
  3
*Paper_Space
  1

  0
ENDBLK
  5
1D
330
1B
100
AcDbEntity
 67
     1
  8
0
100
AcDbBlockEnd
  0
BLOCK
  5
24
330
23
100
AcDbEntity
  8
0
100
AcDbBlockBegin
  2
*Paper_Space0
 70
     0
 71
     0
 10
0.0
 20
0.0
 30
0.0
  3
*Paper_Space0
  1

  0
ENDBLK
  5
25
330
23
100
AcDbEntity
  8
0
100
AcDbBlockEnd
  0
BLOCK
  5
3E
330
3C
100
AcDbEntity
  8
0
100
AcDbBlockBegin
  2
block 2
 70
     0
 71
     0
 10
0.0
 20
0.0
 30
0.0
  3
block 2
  1

  0
SPLINE
  5
40
330
3C
100
AcDbEntity
  8
Layer 1
370
     0
100
AcDbSpline
210
0.0
220
0.0
230
1.0
 70
    11
 71
     3
 72
    35
 73
    31
 74
     0
 42
0.0000000001
 43
0.0000000001
 40
0.0
 40
0.0
 40
0.0
 40
0.0
 40
1.0
 40
1.0
 40
1.0
 40
2.0
 40
2.0
 40
2.0
 40
3.0
 40
3.0
 40
3.0
 40
4.0
 40
4.0
 40
4.0
 40
5.0
 40
5.0
 40
5.0
 40
6.0
 40
6.0
 40
6.0
 40
7.0
 40
7.0
 40
7.0
 40
8.0
 40
8.0
 40
8.0
 40
9.0
 40
9.0
 40
9.0
 40
10.0
 40
10.0
 40
10.0
 40
10.0
 10
450.20068359375
 20
-636.5068359375
 30
0.0
 10
450.9775390625
 20
-634.7919921875
 30
0.0
 10
451.9091796875
 20
-633.171875
 30
0.0
 10
452.9892578125
 20
-631.6474609375
 30
0.0
 10
452.9892578125
 20
-631.6474609375
 30
0.0
 10
382.3359375
 20
-631.6474609375
 30
0.0
 10
382.3359375
 20
-631.6474609375
 30
0.0
 10
382.3359375
 20
-631.6474609375
 30
0.0
 10
367.72021484375
 20
-676.908203125
 30
0.0
 10
367.72021484375
 20
-676.908203125
 30
0.0
 10
368.7763671875
 20
-677.0927734375
 30
0.0
 10
369.83251953125
 20
-677.279296875
 30
0.0
 10
370.8916015625
 20
-677.4482421875
 30
0.0
 10
378.89453125
 20
-678.6943359375
 30
0.0
 10
386.98095703125
 20
-679.7568359375
 30
0.0
 10
394.80029296875
 20
-680.783203125
 30
0.0
 10
418.4306640625
 20
-683.8857421875
 30
0.0
 10
442.86181640625
 20
-687.095703125
 30
0.0
 10
466.58984375
 20
-695.7626953125
 30
0.0
 10
469.1943359375
 20
-696.7177734375
 30
0.0
 10
471.76611328125
 20
-697.73828125
 30
0.0
 10
474.2548828125
 20
-698.806640625
 30
0.0
 10
478.208984375
 20
-696.765625
 30
0.0
 10
481.83984375
 20
-694.4931640625
 30
0.0
 10
485.09130859375
 20
-692.025390625
 30
0.0
 10
478.04296875
 20
-690.251953125
 30
0.0
 10
471.4990234375
 20
-687.302734375
 30
0.0
 10
465.578125
 20
-683.2392578125
 30
0.0
 10
451.86474609375
 20
-673.8173828125
 30
0.0
 10
442.36328125
 20
-653.7646484375
 30
0.0
 10
450.20068359375
 20
-636.5068359375
 30
0.0
  0
SPLINE
  5
41
330
3C
100
AcDbEntity
  8
Layer 1
370
     0
100
AcDbSpline
210
0.0
220
0.0
230
1.0
 70
    11
 71
     3
 72
    14
 73
    10
 74
     0
 42
0.0000000001
 43
0.0000000001
 40
0.0
 40
0.0
 40
0.0
 40
0.0
 40
1.0
 40
1.0
 40
1.0
 40
2.0
 40
2.0
 40
2.0
 40
3.0
 40
3.0
 40
3.0
 40
3.0
 10
362.923828125
 20
-631.6474609375
 30
0.0
 10
362.923828125
 20
-631.6474609375
 30
0.0
 10
345.6357421875
 20
-631.6474609375
 30
0.0
 10
345.6357421875
 20
-631.6474609375
 30
0.0
 10
345.45751953125
 20
-640.0693359375
 30
0.0
 10
348.3408203125
 20
-649.6357421875
 30
0.0
 10
353.88818359375
 20
-659.4482421875
 30
0.0
 10
353.88818359375
 20
-659.4482421875
 30
0.0
 10
362.923828125
 20
-631.6474609375
 30
0.0
 10
362.923828125
 20
-631.6474609375
 30
0.0
  0
SPLINE
  5
42
330
3C
100
AcDbEntity
  8
Layer 1
370
     0
100
AcDbSpline
210
0.0
220
0.0
230
1.0
 70
    11
 71
     3
 72
    26
 73
    22
 74
     0
 42
0.0000000001
 43
0.0000000001
 40
0.0
 40
0.0
 40
0.0
 40
0.0
 40
1.0
 40
1.0
 40
1.0
 40
2.0
 40
2.0
 40
2.0
 40
3.0
 40
3.0
 40
3.0
 40
4.0
 40
4.0
 40
4.0
 40
5.0
 40
5.0
 40
5.0
 40
6.0
 40
6.0
 40
6.0
 40
7.0
 40
7.0
 40
7.0
 40
7.0
 10
276.3828125
 20
-751.9169921875
 30
0.0
 10
278.12109375
 20
-749.8994140625
 30
0.0
 10
280.4287109375
 20
-748.7900390625
 30
0.0
 10
282.8818359375
 20
-748.7900390625
 30
0.0
 10
284.42138671875
 20
-748.7900390625
 30
0.0
 10
285.9404296875
 20
-749.2353515625
 30
0.0
 10
287.310546875
 20
-750.017578125
 30
0.0
 10
287.310546875
 20
-750.017578125
 30
0.0
 10
261.8828125
 20
-667.90234375
 30
0.0
 10
261.8828125
 20
-667.90234375
 30
0.0
 10
249.560546875
 20
-681.287109375
 30
0.0
 10
241.53662109375
 20
-697.234375
 30
0.0
 10
238.8046875
 20
-714.640625
 30
0.0
 10
236.33642578125
 20
-730.369140625
 30
0.0
 10
239.3564453125
 20
-746.939453125
 30
0.0
 10
247.0927734375
 20
-760.1923828125
 30
0.0
 10
251.5361328125
 20
-763.888671875
 30
0.0
 10
255.6240234375
 20
-765.2119140625
 30
0.0
 10
259.86279296875
 20
-764.33984375
 30
0.0
 10
266.40380859375
 20
-762.9873046875
 30
0.0
 10
271.21484375
 20
-757.9150390625
 30
0.0
 10
276.3828125
 20
-751.9169921875
 30
0.0
  0
SPLINE
  5
43
330
3C
100
AcDbEntity
  8
Layer 1
370
     0
100
AcDbSpline
210
0.0
220
0.0
230
1.0
 70
    11
 71
     3
 72
    20
 73
    16
 74
     0
 42
0.0000000001
 43
0.0000000001
 40
0.0
 40
0.0
 40
0.0
 40
0.0
 40
1.0
 40
1.0
 40
1.0
 40
2.0
 40
2.0
 40
2.0
 40
3.0
 40
3.0
 40
3.0
 40
4.0
 40
4.0
 40
4.0
 40
5.0
 40
5.0
 40
5.0
 40
5.0
 10
385.4501953125
 20
-690.3935546875
 30
0.0
 10
383.40966796875
 20
-690.150390625
 30
0.0
 10
381.3388671875
 20
-689.9072265625
 30
0.0
 10
379.2626953125
 20
-689.646484375
 30
0.0
 10
389.10498046875
 20
-698.1123046875
 30
0.0
 10
399.44873046875
 20
-704.32421875
 30
0.0
 10
408.015625
 20
-706.7861328125
 30
0.0
 10
420.83349609375
 20
-710.46484375
 30
0.0
 10
437.130859375
 20
-710.4228515625
 30
0.0
 10
452.49072265625
 20
-706.7744140625
 30
0.0
 10
435.3984375
 20
-699.423828125
 30
0.0
 10
415.80859375
 20
-694.279296875
 30
0.0
 10
394.1240234375
 20
-691.4560546875
 30
0.0
 10
391.2587890625
 20
-691.08203125
 30
0.0
 10
388.36328125
 20
-690.73828125
 30
0.0
 10
385.4501953125
 20
-690.3935546875
 30
0.0
  0
SPLINE
  5
44
330
3C
100
AcDbEntity
  8
Layer 1
370
     0
100
AcDbSpline
210
0.0
220
0.0
230
1.0
 70
    11
 71
     3
 72
    20
 73
    16
 74
     0
 42
0.0000000001
 43
0.0000000001
 40
0.0
 40
0.0
 40
0.0
 40
0.0
 40
1.0
 40
1.0
 40
1.0
 40
2.0
 40
2.0
 40
2.0
 40
3.0
 40
3.0
 40
3.0
 40
4.0
 40
4.0
 40
4.0
 40
5.0
 40
5.0
 40
5.0
 40
5.0
 10
263.10205078125
 20
-777.908203125
 30
0.0
 10
268.1923828125
 20
-781.5390625
 30
0.0
 10
273.85546875
 20
-784.203125
 30
0.0
 10
280.025390625
 20
-785.857421875
 30
0.0
 10
283.576171875
 20
-786.8134765625
 30
0.0
 10
287.275390625
 20
-787.2998046875
 30
0.0
 10
291.0302734375
 20
-787.2998046875
 30
0.0
 10
293.5966796875
 20
-787.2998046875
 30
0.0
 10
296.1416015625
 20
-787.0478515625
 30
0.0
 10
298.64208984375
 20
-786.6083984375
 30
0.0
 10
298.64208984375
 20
-786.6083984375
 30
0.0
 10
291.35693359375
 20
-763.08203125
 30
0.0
 10
291.35693359375
 20
-763.08203125
 30
0.0
 10
286.46826171875
 20
-772.6904296875
 30
0.0
 10
275.73583984375
 20
-778.33203125
 30
0.0
 10
263.10205078125
 20
-777.908203125
 30
0.0
  0
SPLINE
  5
45
330
3C
100
AcDbEntity
  8
Layer 1
370
     0
100
AcDbSpline
210
0.0
220
0.0
230
1.0
 70
    11
 71
     3
 72
    41
 73
    37
 74
     0
 42
0.0000000001
 43
0.0000000001
 40
0.0
 40
0.0
 40
0.0
 40
0.0
 40
1.0
 40
1.0
 40
1.0
 40
2.0
 40
2.0
 40
2.0
 40
3.0
 40
3.0
 40
3.0
 40
4.0
 40
4.0
 40
4.0
 40
5.0
 40
5.0
 40
5.0
 40
6.0
 40
6.0
 40
6.0
 40
7.0
 40
7.0
 40
7.0
 40
8.0
 40
8.0
 40
8.0
 40
9.0
 40
9.0
 40
9.0
 40
10.0
 40
10.0
 40
10.0
 40
11.0
 40
11.0
 40
11.0
 40
12.0
 40
12.0
 40
12.0
 40
12.0
 10
200.208984375
 20
-474.5244140625
 30
0.0
 10
198.11767578125
 20
-475.4912109375
 30
0.0
 10
195.83349609375
 20
-475.99560546875
 30
0.0
 10
193.611328125
 20
-475.99560546875
 30
0.0
 10
187.35546875
 20
-475.99560546875
 30
0.0
 10
182.24755859375
 20
-472.0859375
 30
0.0
 10
180.59814453125
 20
-466.02880859375
 30
0.0
 10
179.28125
 20
-461.19921875
 30
0.0
 10
179.9873046875
 20
-456.6728515625
 30
0.0
 10
182.57958984375
 20
-453.2734375
 30
0.0
 10
185.1455078125
 20
-449.92138671875
 30
0.0
 10
189.40234375
 20
-447.939453125
 30
0.0
 10
193.736328125
 20
-447.95166015625
 30
0.0
 10
193.61474609375
 20
-447.6845703125
 30
0.0
 10
193.47802734375
 20
-447.41748046875
 30
0.0
 10
193.3330078125
 20
-447.14453125
 30
0.0
 10
191.85546875
 20
-444.2734375
 30
0.0
 10
189.92431640625
 20
-442.11962890625
 30
0.0
 10
187.39111328125
 20
-440.48828125
 30
0.0
 10
182.57373046875
 20
-437.4384765625
 30
0.0
 10
176.6142578125
 20
-437.77099609375
 30
0.0
 10
171.265625
 20
-441.3779296875
 30
0.0
 10
162.52099609375
 20
-447.275390625
 30
0.0
 10
158.56396484375
 20
-459.4375
 30
0.0
 10
161.8623046875
 20
-470.30615234375
 30
0.0
 10
167.3681640625
 20
-488.47216796875
 30
0.0
 10
182.9951171875
 20
-491.18359375
 30
0.0
 10
191.81689453125
 20
-491.18359375
 30
0.0
 10
196.6044921875
 20
-491.18359375
 30
0.0
 10
201.60595703125
 20
-490.35888671875
 30
0.0
 10
206.44140625
 20
-488.86376953125
 30
0.0
 10
206.44140625
 20
-488.86376953125
 30
0.0
 10
201.7216796875
 20
-473.61962890625
 30
0.0
 10
201.7216796875
 20
-473.61962890625
 30
0.0
 10
201.21435546875
 20
-473.9189453125
 30
0.0
 10
200.7607421875
 20
-474.26953125
 30
0.0
 10
200.208984375
 20
-474.5244140625
 30
0.0
  0
SPLINE
  5
46
330
3C
100
AcDbEntity
  8
Layer 1
370
     0
100
AcDbSpline
210
0.0
220
0.0
230
1.0
 70
    11
 71
     3
 72
    47
 73
    43
 74
     0
 42
0.0000000001
 43
0.0000000001
 40
0.0
 40
0.0
 40
0.0
 40
0.0
 40
1.0
 40
1.0
 40
1.0
 40
2.0
 40
2.0
 40
2.0
 40
3.0
 40
3.0
 40
3.0
 40
4.0
 40
4.0
 40
4.0
 40
5.0
 40
5.0
 40
5.0
 40
6.0
 40
6.0
 40
6.0
 40
7.0
 40
7.0
 40
7.0
 40
8.0
 40
8.0
 40
8.0
 40
9.0
 40
9.0
 40
9.0
 40
10.0
 40
10.0
 40
10.0
 40
11.0
 40
11.0
 40
11.0
 40
12.0
 40
12.0
 40
12.0
 40
13.0
 40
13.0
 40
13.0
 40
14.0
 40
14.0
 40
14.0
 40
14.0
 10
489.98291015625
 20
-402.48876953125
 30
0.0
 10
489.0126953125
 20
-401.966796875
 30
0.0
 10
488.0576171875
 20
-401.4033203125
 30
0.0
 10
487.1025390625
 20
-400.83349609375
 30
0.0
 10
485.73193359375
 20
-400.02685546875
 30
0.0
 10
484.435546875
 20
-399.25537109375
 30
0.0
 10
483.11572265625
 20
-398.62060546875
 30
0.0
 10
479.615234375
 20
-396.935546875
 30
0.0
 10
475.9697265625
 20
-396.3837890625
 30
0.0
 10
471.91162109375
 20
-395.8857421875
 30
0.0
 10
468.0673828125
 20
-395.4111328125
 30
0.0
 10
465.5546875
 20
-392.2666015625
 30
0.0
 10
465.80078125
 20
-388.232421875
 30
0.0
 10
466.09765625
 20
-383.3974609375
 30
0.0
 10
470.294921875
 20
-380.07470703125
 30
0.0
 10
474.65234375
 20
-381.40380859375
 30
0.0
 10
476.17724609375
 20
-381.87255859375
 30
0.0
 10
477.7138671875
 20
-382.412109375
 30
0.0
 10
479.2265625
 20
-383.005859375
 30
0.0
 10
478.6923828125
 20
-381.33837890625
 30
0.0
 10
478.23583984375
 20
-379.6474609375
 30
0.0
 10
477.8623046875
 20
-377.93310546875
 30
0.0
 10
477.51220703125
 20
-376.34912109375
 30
0.0
 10
477.2392578125
 20
-374.7236328125
 30
0.0
 10
477.04931640625
 20
-373.091796875
 30
0.0
 10
476.0673828125
 20
-372.3740234375
 30
0.0
 10
475.109375
 20
-371.61474609375
 30
0.0
 10
474.1484375
 20
-370.85546875
 30
0.0
 10
472.0595703125
 20
-369.203125
 30
0.0
 10
470.0810546875
 20
-367.6513671875
 30
0.0
 10
467.927734375
 20
-366.57763671875
 30
0.0
 10
467.927734375
 20
-366.57763671875
 30
0.0
 10
441.92724609375
 20
-447.09716796875
 30
0.0
 10
441.92724609375
 20
-447.09716796875
 30
0.0
 10
459.224609375
 20
-439.4765625
 30
0.0
 10
478.1142578125
 20
-433.0126953125
 30
0.0
 10
496.40185546875
 20
-432.626953125
 30
0.0
 10
500.537109375
 20
-428.1953125
 30
0.0
 10
505.6611328125
 20
-424.1728515625
 30
0.0
 10
511.701171875
 20
-420.63134765625
 30
0.0
 10
502.84375
 20
-415.35107421875
 30
0.0
 10
495.556640625
 20
-409.26416015625
 30
0.0
 10
489.98291015625
 20
-402.48876953125
 30
0.0
  0
SPLINE
  5
47
330
3C
100
AcDbEntity
  8
Layer 1
370
     0
100
AcDbSpline
210
0.0
220
0.0
230
1.0
 70
    11
 71
     3
 72
    17
 73
    13
 74
     0
 42
0.0000000001
 43
0.0000000001
 40
0.0
 40
0.0
 40
0.0
 40
0.0
 40
1.0
 40
1.0
 40
1.0
 40
2.0
 40
2.0
 40
2.0
 40
3.0
 40
3.0
 40
3.0
 40
4.0
 40
4.0
 40
4.0
 40
4.0
 10
427.95849609375
 20
-490.34716796875
 30
0.0
 10
427.95849609375
 20
-490.34716796875
 30
0.0
 10
426.45751953125
 20
-495.01025390625
 30
0.0
 10
426.45751953125
 20
-495.01025390625
 30
0.0
 10
426.45751953125
 20
-495.01025390625
 30
0.0
 10
429.3056640625
 20
-495.01025390625
 30
0.0
 10
429.3056640625
 20
-495.01025390625
 30
0.0
 10
429.3056640625
 20
-495.01025390625
 30
0.0
 10
428.9169921875
 20
-493.65771484375
 30
0.0
 10
428.9169921875
 20
-493.65771484375
 30
0.0
 10
428.60546875
 20
-492.56591796875
 30
0.0
 10
428.2763671875
 20
-491.44775390625
 30
0.0
 10
427.95849609375
 20
-490.34716796875
 30
0.0
  0
SPLINE
  5
48
330
3C
100
AcDbEntity
  8
Layer 1
370
     0
100
AcDbSpline
210
0.0
220
0.0
230
1.0
 70
    11
 71
     3
 72
    20
 73
    16
 74
     0
 42
0.0000000001
 43
0.0000000001
 40
0.0
 40
0.0
 40
0.0
 40
0.0
 40
1.0
 40
1.0
 40
1.0
 40
2.0
 40
2.0
 40
2.0
 40
3.0
 40
3.0
 40
3.0
 40
4.0
 40
4.0
 40
4.0
 40
5.0
 40
5.0
 40
5.0
 40
5.0
 10
483.640625
 20
-455.509765625
 30
0.0
 10
484.21875
 20
-453.26123046875
 30
0.0
 10
484.9638671875
 20
-451.03662109375
 30
0.0
 10
485.865234375
 20
-448.859375
 30
0.0
 10
467.6875
 20
-451.58251953125
 30
0.0
 10
451.30126953125
 20
-458.5771484375
 30
0.0
 10
437.32958984375
 20
-465.470703125
 30
0.0
 10
441.3818359375
 20
-475.859375
 30
0.0
 10
443.7666015625
 20
-485.77294921875
 30
0.0
 10
444.43701171875
 20
-495.01025390625
 30
0.0
 10
444.43701171875
 20
-495.01025390625
 30
0.0
 10
491.5224609375
 20
-495.01025390625
 30
0.0
 10
491.5224609375
 20
-495.01025390625
 30
0.0
 10
483.1748046875
 20
-484.6279296875
 30
0.0
 10
480.0126953125
 20
-469.6357421875
 30
0.0
 10
483.640625
 20
-455.509765625
 30
0.0
  0
SPLINE
  5
49
330
3C
100
AcDbEntity
  8
Layer 1
370
     0
100
AcDbSpline
210
0.0
220
0.0
230
1.0
 70
    11
 71
     3
 72
    14
 73
    10
 74
     0
 42
0.0000000001
 43
0.0000000001
 40
0.0
 40
0.0
 40
0.0
 40
0.0
 40
1.0
 40
1.0
 40
1.0
 40
2.0
 40
2.0
 40
2.0
 40
3.0
 40
3.0
 40
3.0
 40
3.0
 10
378.60693359375
 20
-495.01025390625
 30
0.0
 10
378.60693359375
 20
-495.01025390625
 30
0.0
 10
407.34228515625
 20
-495.01025390625
 30
0.0
 10
407.34228515625
 20
-495.01025390625
 30
0.0
 10
407.34228515625
 20
-495.01025390625
 30
0.0
 10
412.77392578125
 20
-478.294921875
 30
0.0
 10
412.77392578125
 20
-478.294921875
 30
0.0
 10
401.685546875
 20
-484.212890625
 30
0.0
 10
390.35693359375
 20
-490.1513671875
 30
0.0
 10
378.60693359375
 20
-495.01025390625
 30
0.0
  0
SPLINE
  5
4A
330
3C
100
AcDbEntity
  8
Layer 1
370
     0
100
AcDbSpline
210
0.0
220
0.0
230
1.0
 70
    11
 71
     3
 72
    65
 73
    61
 74
     0
 42
0.0000000001
 43
0.0000000001
 40
0.0
 40
0.0
 40
0.0
 40
0.0
 40
1.0
 40
1.0
 40
1.0
 40
2.0
 40
2.0
 40
2.0
 40
3.0
 40
3.0
 40
3.0
 40
4.0
 40
4.0
 40
4.0
 40
5.0
 40
5.0
 40
5.0
 40
6.0
 40
6.0
 40
6.0
 40
7.0
 40
7.0
 40
7.0
 40
8.0
 40
8.0
 40
8.0
 40
9.0
 40
9.0
 40
9.0
 40
10.0
 40
10.0
 40
10.0
 40
11.0
 40
11.0
 40
11.0
 40
12.0
 40
12.0
 40
12.0
 40
13.0
 40
13.0
 40
13.0
 40
14.0
 40
14.0
 40
14.0
 40
15.0
 40
15.0
 40
15.0
 40
16.0
 40
16.0
 40
16.0
 40
17.0
 40
17.0
 40
17.0
 40
18.0
 40
18.0
 40
18.0
 40
19.0
 40
19.0
 40
19.0
 40
20.0
 40
20.0
 40
20.0
 40
20.0
 10
411.82470703125
 20
-461.64453125
 30
0.0
 10
413.716796875
 20
-460.689453125
 30
0.0
 10
415.63623046875
 20
-459.71630859375
 30
0.0
 10
417.5791015625
 20
-458.7373046875
 30
0.0
 10
412.8388671875
 20
-447.0556640625
 30
0.0
 10
407.541015625
 20
-437.9072265625
 30
0.0
 10
401.42431640625
 20
-430.81787109375
 30
0.0
 10
385.412109375
 20
-412.248046875
 30
0.0
 10
363.8759765625
 20
-402.02001953125
 30
0.0
 10
340.79443359375
 20
-402.02001953125
 30
0.0
 10
317.56787109375
 20
-402.10302734375
 30
0.0
 10
296.990234375
 20
-412.6513671875
 30
0.0
 10
280.9267578125
 20
-432.5029296875
 30
0.0
 10
280.9267578125
 20
-432.5029296875
 30
0.0
 10
281.56787109375
 20
-434.5966796875
 30
0.0
 10
281.56787109375
 20
-434.5966796875
 30
0.0
 10
289.12890625
 20
-421.4619140625
 30
0.0
 10
302.89599609375
 20
-412.52685546875
 30
0.0
 10
316.7666015625
 20
-412.52685546875
 30
0.0
 10
319.0927734375
 20
-412.52685546875
 30
0.0
 10
321.43017578125
 20
-412.76416015625
 30
0.0
 10
323.7138671875
 20
-413.2392578125
 30
0.0
 10
332.9931640625
 20
-415.1611328125
 30
0.0
 10
340.44140625
 20
-421.20068359375
 30
0.0
 10
344.146484375
 20
-429.80322265625
 30
0.0
 10
347.8720703125
 20
-438.453125
 30
0.0
 10
347.10986328125
 20
-448.4560546875
 30
0.0
 10
342.10546875
 20
-456.56591796875
 30
0.0
 10
340.0556640625
 20
-459.88818359375
 30
0.0
 10
336.953125
 20
-461.7158203125
 30
0.0
 10
333.36962890625
 20
-461.7158203125
 30
0.0
 10
328.78369140625
 20
-461.7158203125
 30
0.0
 10
324.28955078125
 20
-458.6484375
 30
0.0
 10
322.4443359375
 20
-454.2578125
 30
0.0
 10
320.6826171875
 20
-450.0693359375
 30
0.0
 10
321.6552734375
 20
-445.6435546875
 30
0.0
 10
325.1083984375
 20
-442.11376953125
 30
0.0
 10
325.986328125
 20
-441.2177734375
 30
0.0
 10
326.30078125
 20
-440.2568359375
 30
0.0
 10
326.09912109375
 20
-439.099609375
 30
0.0
 10
325.69580078125
 20
-436.7685546875
 30
0.0
 10
323.3759765625
 20
-434.32421875
 30
0.0
 10
321.4599609375
 20
-433.392578125
 30
0.0
 10
318.84033203125
 20
-432.1171875
 30
0.0
 10
315.3818359375
 20
-432.31884765625
 30
0.0
 10
310.69775390625
 20
-434.033203125
 30
0.0
 10
304.3671875
 20
-436.34130859375
 30
0.0
 10
299.4609375
 20
-441.5380859375
 30
0.0
 10
296.88037109375
 20
-448.6513671875
 30
0.0
 10
292.06884765625
 20
-461.9111328125
 30
0.0
 10
297.19482421875
 20
-475.859375
 30
0.0
 10
309.3447265625
 20
-482.5810546875
 30
0.0
 10
316.197265625
 20
-486.3662109375
 30
0.0
 10
324.2568359375
 20
-488.28857421875
 30
0.0
 10
333.3046875
 20
-488.28857421875
 30
0.0
 10
352.0283203125
 20
-488.28857421875
 30
0.0
 10
371.89111328125
 20
-480.48681640625
 30
0.0
 10
390.5703125
 20
-472.05029296875
 30
0.0
 10
397.08740234375
 20
-469.11376953125
 30
0.0
 10
404.2421875
 20
-465.48876953125
 30
0.0
 10
411.82470703125
 20
-461.64453125
 30
0.0
  0
SPLINE
  5
4B
330
3C
100
AcDbEntity
  8
Layer 1
370
     0
100
AcDbSpline
210
0.0
220
0.0
230
1.0
 70
    11
 71
     3
 72
   290
 73
   286
 74
     0
 42
0.0000000001
 43
0.0000000001
 40
0.0
 40
0.0
 40
0.0
 40
0.0
 40
1.0
 40
1.0
 40
1.0
 40
2.0
 40
2.0
 40
2.0
 40
3.0
 40
3.0
 40
3.0
 40
4.0
 40
4.0
 40
4.0
 40
5.0
 40
5.0
 40
5.0
 40
6.0
 40
6.0
 40
6.0
 40
7.0
 40
7.0
 40
7.0
 40
8.0
 40
8.0
 40
8.0
 40
9.0
 40
9.0
 40
9.0
 40
10.0
 40
10.0
 40
10.0
 40
11.0
 40
11.0
 40
11.0
 40
12.0
 40
12.0
 40
12.0
 40
13.0
 40
13.0
 40
13.0
 40
14.0
 40
14.0
 40
14.0
 40
15.0
 40
15.0
 40
15.0
 40
16.0
 40
16.0
 40
16.0
 40
17.0
 40
17.0
 40
17.0
 40
18.0
 40
18.0
 40
18.0
 40
19.0
 40
19.0
 40
19.0
 40
20.0
 40
20.0
 40
20.0
 40
21.0
 40
21.0
 40
21.0
 40
22.0
 40
22.0
 40
22.0
 40
23.0
 40
23.0
 40
23.0
 40
24.0
 40
24.0
 40
24.0
 40
25.0
 40
25.0
 40
25.0
 40
26.0
 40
26.0
 40
26.0
 40
27.0
 40
27.0
 40
27.0
 40
28.0
 40
28.0
 40
28.0
 40
29.0
 40
29.0
 40
29.0
 40
30.0
 40
30.0
 40
30.0
 40
31.0
 40
31.0
 40
31.0
 40
32.0
 40
32.0
 40
32.0
 40
33.0
 40
33.0
 40
33.0
 40
34.0
 40
34.0
 40
34.0
 40
35.0
 40
35.0
 40
35.0
 40
36.0
 40
36.0
 40
36.0
 40
37.0
 40
37.0
 40
37.0
 40
38.0
 40
38.0
 40
38.0
 40
39.0
 40
39.0
 40
39.0
 40
40.0
 40
40.0
 40
40.0
 40
41.0
 40
41.0
 40
41.0
 40
42.0
 40
42.0
 40
42.0
 40
43.0
 40
43.0
 40
43.0
 40
44.0
 40
44.0
 40
44.0
 40
45.0
 40
45.0
 40
45.0
 40
46.0
 40
46.0
 40
46.0
 40
47.0
 40
47.0
 40
47.0
 40
48.0
 40
48.0
 40
48.0
 40
49.0
 40
49.0
 40
49.0
 40
50.0
 40
50.0
 40
50.0
 40
51.0
 40
51.0
 40
51.0
 40
52.0
 40
52.0
 40
52.0
 40
53.0
 40
53.0
 40
53.0
 40
54.0
 40
54.0
 40
54.0
 40
55.0
 40
55.0
 40
55.0
 40
56.0
 40
56.0
 40
56.0
 40
57.0
 40
57.0
 40
57.0
 40
58.0
 40
58.0
 40
58.0
 40
59.0
 40
59.0
 40
59.0
 40
60.0
 40
60.0
 40
60.0
 40
61.0
 40
61.0
 40
61.0
 40
62.0
 40
62.0
 40
62.0
 40
63.0
 40
63.0
 40
63.0
 40
64.0
 40
64.0
 40
64.0
 40
65.0
 40
65.0
 40
65.0
 40
66.0
 40
66.0
 40
66.0
 40
67.0
 40
67.0
 40
67.0
 40
68.0
 40
68.0
 40
68.0
 40
69.0
 40
69.0
 40
69.0
 40
70.0
 40
70.0
 40
70.0
 40
71.0
 40
71.0
 40
71.0
 40
72.0
 40
72.0
 40
72.0
 40
73.0
 40
73.0
 40
73.0
 40
74.0
 40
74.0
 40
74.0
 40
75.0
 40
75.0
 40
75.0
 40
76.0
 40
76.0
 40
76.0
 40
77.0
 40
77.0
 40
77.0
 40
78.0
 40
78.0
 40
78.0
 40
79.0
 40
79.0
 40
79.0
 40
80.0
 40
80.0
 40
80.0
 40
81.0
 40
81.0
 40
81.0
 40
82.0
 40
82.0
 40
82.0
 40
83.0
 40
83.0
 40
83.0
 40
84.0
 40
84.0
 40
84.0
 40
85.0
 40
85.0
 40
85.0
 40
86.0
 40
86.0
 40
86.0
 40
87.0
 40
87.0
 40
87.0
 40
88.0
 40
88.0
 40
88.0
 40
89.0
 40
89.0
 40
89.0
 40
90.0
 40
90.0
 40
90.0
 40
91.0
 40
91.0
 40
91.0
 40
92.0
 40
92.0
 40
92.0
 40
93.0
 40
93.0
 40
93.0
 40
94.0
 40
94.0
 40
94.0
 40
95.0
 40
95.0
 40
95.0
 40
95.0
 10
777.916015625
 20
-179.52978515625
 30
0.0
 10
821.658203125
 20
-179.52978515625
 30
0.0
 10
843.5322265625
 20
-200.009765625
 30
0.0
 10
843.5322265625
 20
-240.95751953125
 30
0.0
 10
843.5322265625
 20
-254.9169921875
 30
0.0
 10
837.171875
 20
-284.55126953125
 30
0.0
 10
824.4521484375
 20
-329.84228515625
 30
0.0
 10
824.4521484375
 20
-329.84228515625
 30
0.0
 10
807.7099609375
 20
-388.083984375
 30
0.0
 10
807.7099609375
 20
-388.083984375
 30
0.0
 10
795.40625
 20
-389.8994140625
 30
0.0
 10
786.1982421875
 20
-398.38916015625
 30
0.0
 10
778.7587890625
 20
-406.71875
 30
0.0
 10
776.7353515625
 20
-408.9853515625
 30
0.0
 10
774.6650390625
 20
-411.31689453125
 30
0.0
 10
772.587890625
 20
-413.7138671875
 30
0.0
 10
776.6171875
 20
-393.755859375
 30
0.0
 10
773.8515625
 20
-374.3203125
 30
0.0
 10
764.455078125
 20
-357.8447265625
 30
0.0
 10
761.951171875
 20
-353.46044921875
 30
0.0
 10
758.9130859375
 20
-349.3017578125
 30
0.0
 10
755.4248046875
 20
-345.47509765625
 30
0.0
 10
755.318359375
 20
-343.380859375
 30
0.0
 10
755.056640625
 20
-341.322265625
 30
0.0
 10
754.8076171875
 20
-339.31689453125
 30
0.0
 10
754.4931640625
 20
-336.8369140625
 30
0.0
 10
754.197265625
 20
-334.4931640625
 30
0.0
 10
754.19140625
 20
-332.173828125
 30
0.0
 10
754.1669921875
 20
-324.91796875
 30
0.0
 10
755.8759765625
 20
-318.6171875
 30
0.0
 10
759.7138671875
 20
-311.7412109375
 30
0.0
 10
759.951171875
 20
-311.3203125
 30
0.0
 10
760.2958984375
 20
-310.75634765625
 30
0.0
 10
760.705078125
 20
-310.07421875
 30
0.0
 10
765.2197265625
 20
-302.5751953125
 30
0.0
 10
769.7880859375
 20
-294.12109375
 30
0.0
 10
766.7626953125
 20
-288.76953125
 30
0.0
 10
765.7421875
 20
-286.97216796875
 30
0.0
 10
763.4404296875
 20
-284.80078125
 30
0.0
 10
758.1953125
 20
-285.0732421875
 30
0.0
 10
743.96875
 20
-285.767578125
 30
0.0
 10
741.732421875
 20
-309.0654296875
 30
0.0
 10
740.8896484375
 20
-317.833984375
 30
0.0
 10
740.50390625
 20
-321.8388671875
 30
0.0
 10
739.9755859375
 20
-327.302734375
 30
0.0
 10
740.18359375
 20
-332.86767578125
 30
0.0
 10
729.46875
 20
-326.30029296875
 30
0.0
 10
717.2353515625
 20
-322.734375
 30
0.0
 10
705.115234375
 20
-322.734375
 30
0.0
 10
694.6259765625
 20
-322.734375
 30
0.0
 10
684.3974609375
 20
-325.4521484375
 30
0.0
 10
675.474609375
 20
-330.58984375
 30
0.0
 10
671.037109375
 20
-330.8984375
 30
0.0
 10
666.783203125
 20
-330.5244140625
 30
0.0
 10
662.93359375
 20
-329.4033203125
 30
0.0
 10
660.4765625
 20
-328.69140625
 30
0.0
 10
658.0263671875
 20
-326.7451171875
 30
0.0
 10
655.4404296875
 20
-324.6865234375
 30
0.0
 10
651.572265625
 20
-321.607421875
 30
0.0
 10
647.5732421875
 20
-318.43359375
 30
0.0
 10
642.458984375
 20
-318.43359375
 30
0.0
 10
641.3857421875
 20
-318.43359375
 30
0.0
 10
640.2998046875
 20
-318.58203125
 30
0.0
 10
639.2373046875
 20
-318.87255859375
 30
0.0
 10
636.00390625
 20
-319.76220703125
 30
0.0
 10
633.6845703125
 20
-322.7705078125
 30
0.0
 10
633.6015625
 20
-326.193359375
 30
0.0
 10
633.2333984375
 20
-339.96923828125
 30
0.0
 10
651.8271484375
 20
-341.1796875
 30
0.0
 10
660.76171875
 20
-341.7607421875
 30
0.0
 10
660.76171875
 20
-341.7607421875
 30
0.0
 10
661.40234375
 20
-341.802734375
 30
0.0
 10
661.40234375
 20
-341.802734375
 30
0.0
 10
650.4208984375
 20
-353.70361328125
 30
0.0
 10
642.619140625
 20
-371.81640625
 30
0.0
 10
647.7216796875
 20
-389.46044921875
 30
0.0
 10
651.5009765625
 20
-402.5419921875
 30
0.0
 10
664.1318359375
 20
-412.40234375
 30
0.0
 10
677.0947265625
 20
-412.40234375
 30
0.0
 10
682.53515625
 20
-412.40234375
 30
0.0
 10
687.755859375
 20
-410.640625
 30
0.0
 10
692.1875
 20
-407.30029296875
 30
0.0
 10
696.5126953125
 20
-404.048828125
 30
0.0
 10
698.21484375
 20
-399.0712890625
 30
0.0
 10
696.625
 20
-394.3193359375
 30
0.0
 10
695.1181640625
 20
-389.8046875
 30
0.0
 10
690.923828125
 20
-386.77294921875
 30
0.0
 10
686.189453125
 20
-386.77294921875
 30
0.0
 10
684.462890625
 20
-386.77294921875
 30
0.0
 10
682.712890625
 20
-387.15234375
 30
0.0
 10
680.986328125
 20
-387.912109375
 30
0.0
 10
677.166015625
 20
-389.5791015625
 30
0.0
 10
674.2470703125
 20
-389.205078125
 30
0.0
 10
671.986328125
 20
-386.5888671875
 30
0.0
 10
668.681640625
 20
-382.76220703125
 30
0.0
 10
667.673828125
 20
-375.458984375
 30
0.0
 10
668.3974609375
 20
-370.53515625
 30
0.0
 10
669.6611328125
 20
-361.97998046875
 30
0.0
 10
674.98828125
 20
-355.3056640625
 30
0.0
 10
679.23046875
 20
-351.2119140625
 30
0.0
 10
687.0322265625
 20
-343.68310546875
 30
0.0
 10
697.9423828125
 20
-339.3642578125
 30
0.0
 10
709.1611328125
 20
-339.3642578125
 30
0.0
 10
712.9169921875
 20
-339.3642578125
 30
0.0
 10
716.619140625
 20
-339.8505859375
 30
0.0
 10
720.166015625
 20
-340.8056640625
 30
0.0
 10
726.3369140625
 20
-342.4609375
 30
0.0
 10
732.001953125
 20
-345.125
 30
0.0
 10
737.0927734375
 20
-348.755859375
 30
0.0
 10
724.2958984375
 20
-348.33447265625
 30
0.0
 10
713.521484375
 20
-354.0595703125
 30
0.0
 10
708.6923828125
 20
-363.8193359375
 30
0.0
 10
707.21484375
 20
-366.80322265625
 30
0.0
 10
707.4111328125
 20
-370.19091796875
 30
0.0
 10
709.2265625
 20
-373.10986328125
 30
0.0
 10
711.0478515625
 20
-376.04638671875
 30
0.0
 10
714.14453125
 20
-377.8740234375
 30
0.0
 10
717.306640625
 20
-377.8740234375
 30
0.0
 10
719.7626953125
 20
-377.8740234375
 30
0.0
 10
722.0712890625
 20
-376.75830078125
 30
0.0
 10
723.8095703125
 20
-374.7470703125
 30
0.0
 10
728.982421875
 20
-368.7490234375
 30
0.0
 10
733.7939453125
 20
-363.6708984375
 30
0.0
 10
740.33203125
 20
-362.32421875
 30
0.0
 10
744.5625
 20
-361.44580078125
 30
0.0
 10
748.6552734375
 20
-362.77490234375
 30
0.0
 10
753.099609375
 20
-366.470703125
 30
0.0
 10
760.8359375
 20
-379.71875
 30
0.0
 10
763.85546875
 20
-396.2890625
 30
0.0
 10
761.3876953125
 20
-412.0166015625
 30
0.0
 10
757.4951171875
 20
-436.81591796875
 30
0.0
 10
742.9130859375
 20
-458.666015625
 30
0.0
 10
720.3798828125
 20
-474.32275390625
 30
0.0
 10
720.5224609375
 20
-474.12109375
 30
0.0
 10
720.6591796875
 20
-473.9130859375
 30
0.0
 10
720.80078125
 20
-473.71142578125
 30
0.0
 10
730.2109375
 20
-459.78125
 30
0.0
 10
732.8984375
 20
-438.8388671875
 30
0.0
 10
719.353515625
 20
-427.4599609375
 30
0.0
 10
717.626953125
 20
-426.01220703125
 30
0.0
 10
715.396484375
 20
-425.21728515625
 30
0.0
 10
713.0712890625
 20
-425.21728515625
 30
0.0
 10
709.8671875
 20
-425.21728515625
 30
0.0
 10
706.9130859375
 20
-426.64697265625
 30
0.0
 10
705.15625
 20
-429.0439453125
 30
0.0
 10
703.548828125
 20
-431.2451171875
 30
0.0
 10
703.1513671875
 20
-433.99755859375
 30
0.0
 10
704.041015625
 20
-436.7919921875
 30
0.0
 10
708.8642578125
 20
-451.90283203125
 30
0.0
 10
712.3466796875
 20
-462.8193359375
 30
0.0
 10
701.4609375
 20
-475.83544921875
 30
0.0
 10
699.330078125
 20
-478.380859375
 30
0.0
 10
696.791015625
 20
-480.77734375
 30
0.0
 10
693.759765625
 20
-483.09130859375
 30
0.0
 10
690.8115234375
 20
-471.49267578125
 30
0.0
 10
682.1611328125
 20
-461.1875
 30
0.0
 10
674.365234375
 20
-454.97607421875
 30
0.0
 10
666.783203125
 20
-448.9423828125
 30
0.0
 10
657.8310546875
 20
-444.65576171875
 30
0.0
 10
646.5234375
 20
-441.6181640625
 30
0.0
 10
646.5234375
 20
-441.6181640625
 30
0.0
 10
542.9130859375
 20
-158.1240234375
 30
0.0
 10
542.9130859375
 20
-158.1240234375
 30
0.0
 10
542.9130859375
 20
-158.1240234375
 30
0.0
 10
516.8505859375
 20
-158.1240234375
 30
0.0
 10
516.8505859375
 20
-158.1240234375
 30
0.0
 10
516.8505859375
 20
-158.1240234375
 30
0.0
 10
455.92578125
 20
-345.5400390625
 30
0.0
 10
455.92578125
 20
-345.5400390625
 30
0.0
 10
454.685546875
 20
-345.3056640625
 30
0.0
 10
453.427734375
 20
-345.1337890625
 30
0.0
 10
452.1376953125
 20
-345.08935546875
 30
0.0
 10
448.521484375
 20
-345.08935546875
 30
0.0
 10
445.58203125
 20
-347.61669921875
 30
0.0
 10
444.822265625
 20
-351.3896484375
 30
0.0
 10
444.0009765625
 20
-355.4599609375
 30
0.0
 10
445.93798828125
 20
-359.4765625
 30
0.0
 10
449.43212890625
 20
-360.94140625
 30
0.0
 10
449.8740234375
 20
-361.12548828125
 30
0.0
 10
450.31640625
 20
-361.27685546875
 30
0.0
 10
450.75830078125
 20
-361.43994140625
 30
0.0
 10
450.75830078125
 20
-361.43994140625
 30
0.0
 10
424.9267578125
 20
-440.90625
 30
0.0
 10
424.9267578125
 20
-440.90625
 30
0.0
 10
416.2177734375
 20
-426.81005859375
 30
0.0
 10
405.60107421875
 20
-414.38671875
 30
0.0
 10
395.01123046875
 20
-406.27392578125
 30
0.0
 10
379.63916015625
 20
-394.4853515625
 30
0.0
 10
360.4228515625
 20
-387.9951171875
 30
0.0
 10
340.904296875
 20
-387.9951171875
 30
0.0
 10
327.552734375
 20
-387.9951171875
 30
0.0
 10
314.236328125
 20
-391.0859375
 30
0.0
 10
302.39453125
 20
-396.94140625
 30
0.0
 10
296.470703125
 20
-399.87255859375
 30
0.0
 10
290.8291015625
 20
-403.68115234375
 30
0.0
 10
285.3115234375
 20
-408.5048828125
 30
0.0
 10
286.39990234375
 20
-400.42431640625
 30
0.0
 10
286.7294921875
 20
-390.87255859375
 30
0.0
 10
282.81640625
 20
-382.88671875
 30
0.0
 10
281.3779296875
 20
-379.9560546875
 30
0.0
 10
278.6728515625
 20
-378.271484375
 30
0.0
 10
275.3857421875
 20
-378.271484375
 30
0.0
 10
272.55859375
 20
-378.271484375
 30
0.0
 10
269.7080078125
 20
-379.552734375
 30
0.0
 10
267.76220703125
 20
-381.6884765625
 30
0.0
 10
267.05615234375
 20
-382.4658203125
 30
0.0
 10
266.5400390625
 20
-383.3408203125
 30
0.0
 10
266.1455078125
 20
-384.25439453125
 30
0.0
 10
266.1455078125
 20
-384.25439453125
 30
0.0
 10
239.49853515625
 20
-297.265625
 30
0.0
 10
239.49853515625
 20
-297.265625
 30
0.0
 10
226.47021484375
 20
-255.07763671875
 30
0.0
 10
219.953125
 20
-228.8603515625
 30
0.0
 10
219.953125
 20
-218.62060546875
 30
0.0
 10
219.953125
 20
-207.146484375
 30
0.0
 10
223.9814453125
 20
-198.2236328125
 30
0.0
 10
232.052734375
 20
-191.86376953125
 30
0.0
 10
240.11572265625
 20
-185.509765625
 30
0.0
 10
258.41796875
 20
-181.392578125
 30
0.0
 10
286.966796875
 20
-179.52978515625
 30
0.0
 10
286.966796875
 20
-179.52978515625
 30
0.0
 10
286.966796875
 20
-158.1240234375
 30
0.0
 10
286.966796875
 20
-158.1240234375
 30
0.0
 10
286.966796875
 20
-158.1240234375
 30
0.0
 10
50.09814453125
 20
-158.1240234375
 30
0.0
 10
50.09814453125
 20
-158.1240234375
 30
0.0
 10
50.09814453125
 20
-158.1240234375
 30
0.0
 10
50.09814453125
 20
-179.52978515625
 30
0.0
 10
50.09814453125
 20
-179.52978515625
 30
0.0
 10
72.740234375
 20
-180.4609375
 30
0.0
 10
88.95458984375
 20
-184.41796875
 30
0.0
 10
98.72607421875
 20
-191.4013671875
 30
0.0
 10
108.5
 20
-198.3779296875
 30
0.0
 10
116.41162109375
 20
-209.2412109375
 30
0.0
 10
122.462890625
 20
-223.97216796875
 30
0.0
 10
128.51171875
 20
-238.71484375
 30
0.0
 10
138.35693359375
 20
-268.4140625
 30
0.0
 10
152.01123046875
 20
-313.087890625
 30
0.0
 10
152.01123046875
 20
-313.087890625
 30
0.0
 10
185.451171875
 20
-421.0732421875
 30
0.0
 10
185.451171875
 20
-421.0732421875
 30
0.0
 10
183.8818359375
 20
-420.80908203125
 30
0.0
 10
182.2890625
 20
-420.63720703125
 30
0.0
 10
180.66943359375
 20
-420.63720703125
 30
0.0
 10
178.818359375
 20
-420.63720703125
 30
0.0
 10
176.96435546875
 20
-420.8212890625
 30
0.0
 10
175.15478515625
 20
-421.18310546875
 30
0.0
 10
158.16650390625
 20
-424.5703125
 30
0.0
 10
144.4970703125
 20
-442.2265625
 30
0.0
 10
144.04052734375
 20
-461.37158203125
 30
0.0
 10
143.57763671875
 20
-480.5166015625
 30
0.0
 10
155.56201171875
 20
-498.55224609375
 30
0.0
 10
173.18798828125
 20
-505.25
 30
0.0
 10
176.32666015625
 20
-506.4365234375
 30
0.0
 10
179.61328125
 20
-507.302734375
 30
0.0
 10
182.9892578125
 20
-507.8310546875
 30
0.0
 10
182.9892578125
 20
-507.8310546875
 30
0.0
 10
182.9892578125
 20
-508.583984375
 30
0.0
 10
182.9892578125
 20
-508.583984375
 30
0.0
 10
182.9892578125
 20
-508.583984375
 30
0.0
 10
819.2197265625
 20
-508.583984375
 30
0.0
 10
819.2197265625
 20
-508.583984375
 30
0.0
 10
819.2197265625
 20
-508.583984375
 30
0.0
 10
819.2197265625
 20
-495.01025390625
 30
0.0
 10
819.2197265625
 20
-495.01025390625
 30
0.0
 10
819.2197265625
 20
-495.01025390625
 30
0.0
 10
797.98046875
 20
-495.01025390625
 30
0.0
 10
797.98046875
 20
-495.01025390625
 30
0.0
 10
797.98046875
 20
-495.01025390625
 30
0.0
 10
846.326171875
 20
-329.37939453125
 30
0.0
 10
846.326171875
 20
-329.37939453125
 30
0.0
 10
865.24609375
 20
-265.1572265625
 30
0.0
 10
880.9150390625
 20
-224.6005859375
 30
0.0
 10
893.326171875
 20
-207.6865234375
 30
0.0
 10
905.7314453125
 20
-190.7783203125
 30
0.0
 10
924.6572265625
 20
-181.392578125
 30
0.0
 10
950.0966796875
 20
-179.52978515625
 30
0.0
 10
950.0966796875
 20
-179.52978515625
 30
0.0
 10
950.0966796875
 20
-158.1240234375
 30
0.0
 10
950.0966796875
 20
-158.1240234375
 30
0.0
 10
950.0966796875
 20
-158.1240234375
 30
0.0
 10
777.916015625
 20
-158.1240234375
 30
0.0
 10
777.916015625
 20
-158.1240234375
 30
0.0
 10
777.916015625
 20
-158.1240234375
 30
0.0
 10
777.916015625
 20
-179.52978515625
 30
0.0
 10
777.916015625
 20
-179.52978515625
 30
0.0
  0
SPLINE
  5
4C
330
3C
100
AcDbEntity
  8
Layer 1
370
     0
100
AcDbSpline
210
0.0
220
0.0
230
1.0
 70
    11
 71
     3
 72
    26
 73
    22
 74
     0
 42
0.0000000001
 43
0.0000000001
 40
0.0
 40
0.0
 40
0.0
 40
0.0
 40
1.0
 40
1.0
 40
1.0
 40
2.0
 40
2.0
 40
2.0
 40
3.0
 40
3.0
 40
3.0
 40
4.0
 40
4.0
 40
4.0
 40
5.0
 40
5.0
 40
5.0
 40
6.0
 40
6.0
 40
6.0
 40
7.0
 40
7.0
 40
7.0
 40
7.0
 10
516.0380859375
 20
-342.49951171875
 30
0.0
 10
516.0380859375
 20
-342.49951171875
 30
0.0
 10
540.60546875
 20
-409.0087890625
 30
0.0
 10
540.60546875
 20
-409.0087890625
 30
0.0
 10
537.626953125
 20
-409.7744140625
 30
0.0
 10
534.642578125
 20
-410.6669921875
 30
0.0
 10
531.6708984375
 20
-411.6845703125
 30
0.0
 10
531.6708984375
 20
-411.6845703125
 30
0.0
 10
531.439453125
 20
-411.767578125
 30
0.0
 10
531.439453125
 20
-411.767578125
 30
0.0
 10
527.78515625
 20
-409.66748046875
 30
0.0
 10
524.486328125
 20
-407.5791015625
 30
0.0
 10
521.3896484375
 20
-405.40771484375
 30
0.0
 10
507.8212890625
 20
-395.8916015625
 30
0.0
 10
499.095703125
 20
-383.37353515625
 30
0.0
 10
497.4580078125
 20
-371.06884765625
 30
0.0
 10
495.74951171875
 20
-358.27783203125
 30
0.0
 10
502.85546875
 20
-346.54296875
 30
0.0
 10
514.353515625
 20
-343.1552734375
 30
0.0
 10
514.9462890625
 20
-342.98046875
 30
0.0
 10
515.509765625
 20
-342.7578125
 30
0.0
 10
516.0380859375
 20
-342.49951171875
 30
0.0
  0
SPLINE
  5
4D
330
3C
100
AcDbEntity
  8
Layer 1
370
     0
100
AcDbSpline
210
0.0
220
0.0
230
1.0
 70
    11
 71
     3
 72
    26
 73
    22
 74
     0
 42
0.0000000001
 43
0.0000000001
 40
0.0
 40
0.0
 40
0.0
 40
0.0
 40
1.0
 40
1.0
 40
1.0
 40
2.0
 40
2.0
 40
2.0
 40
3.0
 40
3.0
 40
3.0
 40
4.0
 40
4.0
 40
4.0
 40
5.0
 40
5.0
 40
5.0
 40
6.0
 40
6.0
 40
6.0
 40
7.0
 40
7.0
 40
7.0
 40
7.0
 10
494.5126953125
 20
-284.23681640625
 30
0.0
 10
494.5126953125
 20
-284.23681640625
 30
0.0
 10
508.89453125
 20
-323.1650390625
 30
0.0
 10
508.89453125
 20
-323.1650390625
 30
0.0
 10
508.740234375
 20
-323.203125
 30
0.0
 10
508.580078125
 20
-323.22119140625
 30
0.0
 10
508.42578125
 20
-323.2685546875
 30
0.0
 10
492.71484375
 20
-327.90234375
 30
0.0
 10
481.1220703125
 20
-340.98388671875
 30
0.0
 10
477.7255859375
 20
-357.3818359375
 30
0.0
 10
476.9365234375
 20
-356.76513671875
 30
0.0
 10
476.15625
 20
-356.171875
 30
0.0
 10
475.412109375
 20
-355.6083984375
 30
0.0
 10
475.412109375
 20
-355.6083984375
 30
0.0
 10
474.6259765625
 20
-355.0087890625
 30
0.0
 10
474.6259765625
 20
-355.0087890625
 30
0.0
 10
473.8603515625
 20
-354.427734375
 30
0.0
 10
473.0595703125
 20
-353.833984375
 30
0.0
 10
472.23486328125
 20
-353.23779296875
 30
0.0
 10
472.23486328125
 20
-353.23779296875
 30
0.0
 10
494.5126953125
 20
-284.23681640625
 30
0.0
 10
494.5126953125
 20
-284.23681640625
 30
0.0
  0
SPLINE
  5
4E
330
3C
100
AcDbEntity
  8
Layer 1
370
     0
100
AcDbSpline
210
0.0
220
0.0
230
1.0
 70
    11
 71
     3
 72
    41
 73
    37
 74
     0
 42
0.0000000001
 43
0.0000000001
 40
0.0
 40
0.0
 40
0.0
 40
0.0
 40
1.0
 40
1.0
 40
1.0
 40
2.0
 40
2.0
 40
2.0
 40
3.0
 40
3.0
 40
3.0
 40
4.0
 40
4.0
 40
4.0
 40
5.0
 40
5.0
 40
5.0
 40
6.0
 40
6.0
 40
6.0
 40
7.0
 40
7.0
 40
7.0
 40
8.0
 40
8.0
 40
8.0
 40
9.0
 40
9.0
 40
9.0
 40
10.0
 40
10.0
 40
10.0
 40
11.0
 40
11.0
 40
11.0
 40
12.0
 40
12.0
 40
12.0
 40
12.0
 10
191.81689453125
 20
-491.18359375
 30
0.0
 10
182.9951171875
 20
-491.18359375
 30
0.0
 10
167.3681640625
 20
-488.47216796875
 30
0.0
 10
161.8623046875
 20
-470.30615234375
 30
0.0
 10
158.56396484375
 20
-459.4375
 30
0.0
 10
162.52099609375
 20
-447.275390625
 30
0.0
 10
171.265625
 20
-441.3779296875
 30
0.0
 10
176.6142578125
 20
-437.77099609375
 30
0.0
 10
182.57373046875
 20
-437.4384765625
 30
0.0
 10
187.39111328125
 20
-440.48828125
 30
0.0
 10
189.92431640625
 20
-442.11962890625
 30
0.0
 10
191.85546875
 20
-444.2734375
 30
0.0
 10
193.3330078125
 20
-447.14453125
 30
0.0
 10
193.47802734375
 20
-447.41748046875
 30
0.0
 10
193.61474609375
 20
-447.6845703125
 30
0.0
 10
193.736328125
 20
-447.95166015625
 30
0.0
 10
189.40234375
 20
-447.939453125
 30
0.0
 10
185.1455078125
 20
-449.92138671875
 30
0.0
 10
182.57958984375
 20
-453.2734375
 30
0.0
 10
179.9873046875
 20
-456.6728515625
 30
0.0
 10
179.28125
 20
-461.19921875
 30
0.0
 10
180.59814453125
 20
-466.02880859375
 30
0.0
 10
182.24755859375
 20
-472.0859375
 30
0.0
 10
187.35546875
 20
-475.99560546875
 30
0.0
 10
193.611328125
 20
-475.99560546875
 30
0.0
 10
195.83349609375
 20
-475.99560546875
 30
0.0
 10
198.11767578125
 20
-475.4912109375
 30
0.0
 10
200.208984375
 20
-474.5244140625
 30
0.0
 10
200.7607421875
 20
-474.26953125
 30
0.0
 10
201.21435546875
 20
-473.9189453125
 30
0.0
 10
201.7216796875
 20
-473.61962890625
 30
0.0
 10
201.7216796875
 20
-473.61962890625
 30
0.0
 10
206.44140625
 20
-488.86376953125
 30
0.0
 10
206.44140625
 20
-488.86376953125
 30
0.0
 10
201.60595703125
 20
-490.35888671875
 30
0.0
 10
196.6044921875
 20
-491.18359375
 30
0.0
 10
191.81689453125
 20
-491.18359375
 30
0.0
  0
SPLINE
  5
4F
330
3C
100
AcDbEntity
  8
Layer 1
370
     0
100
AcDbSpline
210
0.0
220
0.0
230
1.0
 70
    11
 71
     3
 72
    65
 73
    61
 74
     0
 42
0.0000000001
 43
0.0000000001
 40
0.0
 40
0.0
 40
0.0
 40
0.0
 40
1.0
 40
1.0
 40
1.0
 40
2.0
 40
2.0
 40
2.0
 40
3.0
 40
3.0
 40
3.0
 40
4.0
 40
4.0
 40
4.0
 40
5.0
 40
5.0
 40
5.0
 40
6.0
 40
6.0
 40
6.0
 40
7.0
 40
7.0
 40
7.0
 40
8.0
 40
8.0
 40
8.0
 40
9.0
 40
9.0
 40
9.0
 40
10.0
 40
10.0
 40
10.0
 40
11.0
 40
11.0
 40
11.0
 40
12.0
 40
12.0
 40
12.0
 40
13.0
 40
13.0
 40
13.0
 40
14.0
 40
14.0
 40
14.0
 40
15.0
 40
15.0
 40
15.0
 40
16.0
 40
16.0
 40
16.0
 40
17.0
 40
17.0
 40
17.0
 40
18.0
 40
18.0
 40
18.0
 40
19.0
 40
19.0
 40
19.0
 40
20.0
 40
20.0
 40
20.0
 40
20.0
 10
309.3447265625
 20
-482.5810546875
 30
0.0
 10
297.19482421875
 20
-475.859375
 30
0.0
 10
292.06884765625
 20
-461.9111328125
 30
0.0
 10
296.88037109375
 20
-448.6513671875
 30
0.0
 10
299.4609375
 20
-441.5380859375
 30
0.0
 10
304.3671875
 20
-436.34130859375
 30
0.0
 10
310.69775390625
 20
-434.033203125
 30
0.0
 10
315.3818359375
 20
-432.31884765625
 30
0.0
 10
318.84033203125
 20
-432.1171875
 30
0.0
 10
321.4599609375
 20
-433.392578125
 30
0.0
 10
323.3759765625
 20
-434.32421875
 30
0.0
 10
325.69580078125
 20
-436.7685546875
 30
0.0
 10
326.09912109375
 20
-439.099609375
 30
0.0
 10
326.30078125
 20
-440.2568359375
 30
0.0
 10
325.986328125
 20
-441.2177734375
 30
0.0
 10
325.1083984375
 20
-442.11376953125
 30
0.0
 10
321.6552734375
 20
-445.6435546875
 30
0.0
 10
320.6826171875
 20
-450.0693359375
 30
0.0
 10
322.4443359375
 20
-454.2578125
 30
0.0
 10
324.28955078125
 20
-458.6484375
 30
0.0
 10
328.78369140625
 20
-461.7158203125
 30
0.0
 10
333.36962890625
 20
-461.7158203125
 30
0.0
 10
336.953125
 20
-461.7158203125
 30
0.0
 10
340.0556640625
 20
-459.88818359375
 30
0.0
 10
342.10546875
 20
-456.56591796875
 30
0.0
 10
347.10986328125
 20
-448.4560546875
 30
0.0
 10
347.8720703125
 20
-438.453125
 30
0.0
 10
344.146484375
 20
-429.80322265625
 30
0.0
 10
340.44140625
 20
-421.20068359375
 30
0.0
 10
332.9931640625
 20
-415.1611328125
 30
0.0
 10
323.7138671875
 20
-413.2392578125
 30
0.0
 10
321.43017578125
 20
-412.76416015625
 30
0.0
 10
319.0927734375
 20
-412.52685546875
 30
0.0
 10
316.7666015625
 20
-412.52685546875
 30
0.0
 10
302.89599609375
 20
-412.52685546875
 30
0.0
 10
289.12890625
 20
-421.4619140625
 30
0.0
 10
281.56787109375
 20
-434.5966796875
 30
0.0
 10
281.56787109375
 20
-434.5966796875
 30
0.0
 10
280.9267578125
 20
-432.5029296875
 30
0.0
 10
280.9267578125
 20
-432.5029296875
 30
0.0
 10
296.990234375
 20
-412.6513671875
 30
0.0
 10
317.56787109375
 20
-402.10302734375
 30
0.0
 10
340.79443359375
 20
-402.02001953125
 30
0.0
 10
363.8759765625
 20
-402.02001953125
 30
0.0
 10
385.412109375
 20
-412.248046875
 30
0.0
 10
401.42431640625
 20
-430.81787109375
 30
0.0
 10
407.541015625
 20
-437.9072265625
 30
0.0
 10
412.8388671875
 20
-447.0556640625
 30
0.0
 10
417.5791015625
 20
-458.7373046875
 30
0.0
 10
415.63623046875
 20
-459.71630859375
 30
0.0
 10
413.716796875
 20
-460.689453125
 30
0.0
 10
411.82470703125
 20
-461.64453125
 30
0.0
 10
404.2421875
 20
-465.48876953125
 30
0.0
 10
397.08740234375
 20
-469.11376953125
 30
0.0
 10
390.5703125
 20
-472.05029296875
 30
0.0
 10
371.89111328125
 20
-480.48681640625
 30
0.0
 10
352.0283203125
 20
-488.28857421875
 30
0.0
 10
333.3046875
 20
-488.28857421875
 30
0.0
 10
324.2568359375
 20
-488.28857421875
 30
0.0
 10
316.197265625
 20
-486.3662109375
 30
0.0
 10
309.3447265625
 20
-482.5810546875
 30
0.0
  0
SPLINE
  5
50
330
3C
100
AcDbEntity
  8
Layer 1
370
     0
100
AcDbSpline
210
0.0
220
0.0
230
1.0
 70
    11
 71
     3
 72
    14
 73
    10
 74
     0
 42
0.0000000001
 43
0.0000000001
 40
0.0
 40
0.0
 40
0.0
 40
0.0
 40
1.0
 40
1.0
 40
1.0
 40
2.0
 40
2.0
 40
2.0
 40
3.0
 40
3.0
 40
3.0
 40
3.0
 10
378.60693359375
 20
-495.01025390625
 30
0.0
 10
390.35693359375
 20
-490.1513671875
 30
0.0
 10
401.685546875
 20
-484.212890625
 30
0.0
 10
412.77392578125
 20
-478.294921875
 30
0.0
 10
412.77392578125
 20
-478.294921875
 30
0.0
 10
407.34228515625
 20
-495.01025390625
 30
0.0
 10
407.34228515625
 20
-495.01025390625
 30
0.0
 10
407.34228515625
 20
-495.01025390625
 30
0.0
 10
378.60693359375
 20
-495.01025390625
 30
0.0
 10
378.60693359375
 20
-495.01025390625
 30
0.0
  0
SPLINE
  5
51
330
3C
100
AcDbEntity
  8
Layer 1
370
     0
100
AcDbSpline
210
0.0
220
0.0
230
1.0
 70
    11
 71
     3
 72
    17
 73
    13
 74
     0
 42
0.0000000001
 43
0.0000000001
 40
0.0
 40
0.0
 40
0.0
 40
0.0
 40
1.0
 40
1.0
 40
1.0
 40
2.0
 40
2.0
 40
2.0
 40
3.0
 40
3.0
 40
3.0
 40
4.0
 40
4.0
 40
4.0
 40
4.0
 10
426.45751953125
 20
-495.01025390625
 30
0.0
 10
426.45751953125
 20
-495.01025390625
 30
0.0
 10
427.95849609375
 20
-490.34716796875
 30
0.0
 10
427.95849609375
 20
-490.34716796875
 30
0.0
 10
428.2763671875
 20
-491.44775390625
 30
0.0
 10
428.60546875
 20
-492.56591796875
 30
0.0
 10
428.9169921875
 20
-493.65771484375
 30
0.0
 10
428.9169921875
 20
-493.65771484375
 30
0.0
 10
429.3056640625
 20
-495.01025390625
 30
0.0
 10
429.3056640625
 20
-495.01025390625
 30
0.0
 10
429.3056640625
 20
-495.01025390625
 30
0.0
 10
426.45751953125
 20
-495.01025390625
 30
0.0
 10
426.45751953125
 20
-495.01025390625
 30
0.0
  0
SPLINE
  5
52
330
3C
100
AcDbEntity
  8
Layer 1
370
     0
100
AcDbSpline
210
0.0
220
0.0
230
1.0
 70
    11
 71
     3
 72
    20
 73
    16
 74
     0
 42
0.0000000001
 43
0.0000000001
 40
0.0
 40
0.0
 40
0.0
 40
0.0
 40
1.0
 40
1.0
 40
1.0
 40
2.0
 40
2.0
 40
2.0
 40
3.0
 40
3.0
 40
3.0
 40
4.0
 40
4.0
 40
4.0
 40
5.0
 40
5.0
 40
5.0
 40
5.0
 10
444.43701171875
 20
-495.01025390625
 30
0.0
 10
443.7666015625
 20
-485.77294921875
 30
0.0
 10
441.3818359375
 20
-475.859375
 30
0.0
 10
437.32958984375
 20
-465.470703125
 30
0.0
 10
451.30126953125
 20
-458.5771484375
 30
0.0
 10
467.6875
 20
-451.58251953125
 30
0.0
 10
485.865234375
 20
-448.859375
 30
0.0
 10
484.9638671875
 20
-451.03662109375
 30
0.0
 10
484.21875
 20
-453.26123046875
 30
0.0
 10
483.640625
 20
-455.509765625
 30
0.0
 10
480.0126953125
 20
-469.6357421875
 30
0.0
 10
483.1748046875
 20
-484.6279296875
 30
0.0
 10
491.5224609375
 20
-495.01025390625
 30
0.0
 10
491.5224609375
 20
-495.01025390625
 30
0.0
 10
444.43701171875
 20
-495.01025390625
 30
0.0
 10
444.43701171875
 20
-495.01025390625
 30
0.0
  0
SPLINE
  5
53
330
3C
100
AcDbEntity
  8
Layer 1
370
     0
100
AcDbSpline
210
0.0
220
0.0
230
1.0
 70
    11
 71
     3
 72
    47
 73
    43
 74
     0
 42
0.0000000001
 43
0.0000000001
 40
0.0
 40
0.0
 40
0.0
 40
0.0
 40
1.0
 40
1.0
 40
1.0
 40
2.0
 40
2.0
 40
2.0
 40
3.0
 40
3.0
 40
3.0
 40
4.0
 40
4.0
 40
4.0
 40
5.0
 40
5.0
 40
5.0
 40
6.0
 40
6.0
 40
6.0
 40
7.0
 40
7.0
 40
7.0
 40
8.0
 40
8.0
 40
8.0
 40
9.0
 40
9.0
 40
9.0
 40
10.0
 40
10.0
 40
10.0
 40
11.0
 40
11.0
 40
11.0
 40
12.0
 40
12.0
 40
12.0
 40
13.0
 40
13.0
 40
13.0
 40
14.0
 40
14.0
 40
14.0
 40
14.0
 10
441.92724609375
 20
-447.09716796875
 30
0.0
 10
441.92724609375
 20
-447.09716796875
 30
0.0
 10
467.927734375
 20
-366.57763671875
 30
0.0
 10
467.927734375
 20
-366.57763671875
 30
0.0
 10
470.0810546875
 20
-367.6513671875
 30
0.0
 10
472.0595703125
 20
-369.203125
 30
0.0
 10
474.1484375
 20
-370.85546875
 30
0.0
 10
475.109375
 20
-371.61474609375
 30
0.0
 10
476.0673828125
 20
-372.3740234375
 30
0.0
 10
477.04931640625
 20
-373.091796875
 30
0.0
 10
477.2392578125
 20
-374.7236328125
 30
0.0
 10
477.51220703125
 20
-376.34912109375
 30
0.0
 10
477.8623046875
 20
-377.93310546875
 30
0.0
 10
478.23583984375
 20
-379.6474609375
 30
0.0
 10
478.6923828125
 20
-381.33837890625
 30
0.0
 10
479.2265625
 20
-383.005859375
 30
0.0
 10
477.7138671875
 20
-382.412109375
 30
0.0
 10
476.17724609375
 20
-381.87255859375
 30
0.0
 10
474.65234375
 20
-381.40380859375
 30
0.0
 10
470.294921875
 20
-380.07470703125
 30
0.0
 10
466.09765625
 20
-383.3974609375
 30
0.0
 10
465.80078125
 20
-388.232421875
 30
0.0
 10
465.5546875
 20
-392.2666015625
 30
0.0
 10
468.0673828125
 20
-395.4111328125
 30
0.0
 10
471.91162109375
 20
-395.8857421875
 30
0.0
 10
475.9697265625
 20
-396.3837890625
 30
0.0
 10
479.615234375
 20
-396.935546875
 30
0.0
 10
483.11572265625
 20
-398.62060546875
 30
0.0
 10
484.435546875
 20
-399.25537109375
 30
0.0
 10
485.73193359375
 20
-400.02685546875
 30
0.0
 10
487.1025390625
 20
-400.83349609375
 30
0.0
 10
488.0576171875
 20
-401.4033203125
 30
0.0
 10
489.0126953125
 20
-401.966796875
 30
0.0
 10
489.98291015625
 20
-402.48876953125
 30
0.0
 10
495.556640625
 20
-409.26416015625
 30
0.0
 10
502.84375
 20
-415.35107421875
 30
0.0
 10
511.701171875
 20
-420.63134765625
 30
0.0
 10
505.6611328125
 20
-424.1728515625
 30
0.0
 10
500.537109375
 20
-428.1953125
 30
0.0
 10
496.40185546875
 20
-432.626953125
 30
0.0
 10
478.1142578125
 20
-433.0126953125
 30
0.0
 10
459.224609375
 20
-439.4765625
 30
0.0
 10
441.92724609375
 20
-447.09716796875
 30
0.0
  0
SPLINE
  5
54
330
3C
100
AcDbEntity
  8
Layer 1
370
     0
100
AcDbSpline
210
0.0
220
0.0
230
1.0
 70
    11
 71
     3
 72
    23
 73
    19
 74
     0
 42
0.0000000001
 43
0.0000000001
 40
0.0
 40
0.0
 40
0.0
 40
0.0
 40
1.0
 40
1.0
 40
1.0
 40
2.0
 40
2.0
 40
2.0
 40
3.0
 40
3.0
 40
3.0
 40
4.0
 40
4.0
 40
4.0
 40
5.0
 40
5.0
 40
5.0
 40
6.0
 40
6.0
 40
6.0
 40
6.0
 10
538.0302734375
 20
-479.353515625
 30
0.0
 10
537.3837890625
 20
-484.52099609375
 30
0.0
 10
534.73828125
 20
-488.513671875
 30
0.0
 10
530.17578125
 20
-491.23681640625
 30
0.0
 10
527.048828125
 20
-493.099609375
 30
0.0
 10
523.708984375
 20
-494.04296875
 30
0.0
 10
520.23828125
 20
-494.04296875
 30
0.0
 10
509.7607421875
 20
-494.04296875
 30
0.0
 10
499.69140625
 20
-485.333984375
 30
0.0
 10
497.3154296875
 20
-474.2216796875
 30
0.0
 10
494.96630859375
 20
-463.240234375
 30
0.0
 10
498.71875
 20
-454.0087890625
 30
0.0
 10
502.6728515625
 20
-447.8388671875
 30
0.0
 10
514.6083984375
 20
-448.35498046875
 30
0.0
 10
523.8095703125
 20
-451.7841796875
 30
0.0
 10
530.044921875
 20
-458.048828125
 30
0.0
 10
535.705078125
 20
-463.73876953125
 30
0.0
 10
538.9208984375
 20
-472.2998046875
 30
0.0
 10
538.0302734375
 20
-479.353515625
 30
0.0
  0
SPLINE
  5
55
330
3C
100
AcDbEntity
  8
Layer 1
370
     0
100
AcDbSpline
210
0.0
220
0.0
230
1.0
 70
    11
 71
     3
 72
    29
 73
    25
 74
     0
 42
0.0000000001
 43
0.0000000001
 40
0.0
 40
0.0
 40
0.0
 40
0.0
 40
1.0
 40
1.0
 40
1.0
 40
2.0
 40
2.0
 40
2.0
 40
3.0
 40
3.0
 40
3.0
 40
4.0
 40
4.0
 40
4.0
 40
5.0
 40
5.0
 40
5.0
 40
6.0
 40
6.0
 40
6.0
 40
7.0
 40
7.0
 40
7.0
 40
8.0
 40
8.0
 40
8.0
 40
8.0
 10
547.203125
 20
-495.01025390625
 30
0.0
 10
548.2822265625
 20
-493.4912109375
 30
0.0
 10
549.2138671875
 20
-491.8720703125
 30
0.0
 10
549.9912109375
 20
-490.1572265625
 30
0.0
 10
557.828125
 20
-472.89892578125
 30
0.0
 10
548.330078125
 20
-452.84619140625
 30
0.0
 10
534.61328125
 20
-443.4248046875
 30
0.0
 10
528.6923828125
 20
-439.36083984375
 30
0.0
 10
522.154296875
 20
-436.412109375
 30
0.0
 10
515.1005859375
 20
-434.638671875
 30
0.0
 10
518.345703125
 20
-432.17626953125
 30
0.0
 10
521.982421875
 20
-429.8984375
 30
0.0
 10
525.939453125
 20
-427.8515625
 30
0.0
 10
528.42578125
 20
-428.92529296875
 30
0.0
 10
531.0
 20
-429.9453125
 30
0.0
 10
533.6044921875
 20
-430.89501953125
 30
0.0
 10
539.2587890625
 20
-432.95947265625
 30
0.0
 10
544.9482421875
 20
-434.69775390625
 30
0.0
 10
550.6552734375
 20
-436.216796875
 30
0.0
 10
550.6552734375
 20
-436.216796875
 30
0.0
 10
572.375
 20
-495.01025390625
 30
0.0
 10
572.375
 20
-495.01025390625
 30
0.0
 10
572.375
 20
-495.01025390625
 30
0.0
 10
547.203125
 20
-495.01025390625
 30
0.0
 10
547.203125
 20
-495.01025390625
 30
0.0
  0
SPLINE
  5
56
330
3C
100
AcDbEntity
  8
Layer 1
370
     0
100
AcDbSpline
210
0.0
220
0.0
230
1.0
 70
    11
 71
     3
 72
    23
 73
    19
 74
     0
 42
0.0000000001
 43
0.0000000001
 40
0.0
 40
0.0
 40
0.0
 40
0.0
 40
1.0
 40
1.0
 40
1.0
 40
2.0
 40
2.0
 40
2.0
 40
3.0
 40
3.0
 40
3.0
 40
4.0
 40
4.0
 40
4.0
 40
5.0
 40
5.0
 40
5.0
 40
6.0
 40
6.0
 40
6.0
 40
6.0
 10
674.1220703125
 20
-494.4404296875
 30
0.0
 10
673.244140625
 20
-494.63671875
 30
0.0
 10
672.3720703125
 20
-494.826171875
 30
0.0
 10
671.494140625
 20
-495.01025390625
 30
0.0
 10
671.494140625
 20
-495.01025390625
 30
0.0
 10
667.9462890625
 20
-495.01025390625
 30
0.0
 10
667.9462890625
 20
-495.01025390625
 30
0.0
 10
665.9765625
 20
-481.19287109375
 30
0.0
 10
661.1650390625
 20
-467.77294921875
 30
0.0
 10
653.8740234375
 20
-455.658203125
 30
0.0
 10
660.5068359375
 20
-458.4052734375
 30
0.0
 10
666.11328125
 20
-461.8818359375
 30
0.0
 10
670.865234375
 20
-466.1708984375
 30
0.0
 10
677.8662109375
 20
-472.4775390625
 30
0.0
 10
682.048828125
 20
-479.662109375
 30
0.0
 10
684.267578125
 20
-489.24365234375
 30
0.0
 10
680.7607421875
 20
-491.20703125
 30
0.0
 10
677.2314453125
 20
-492.9453125
 30
0.0
 10
674.1220703125
 20
-494.4404296875
 30
0.0
  0
SPLINE
  5
57
330
3C
100
AcDbEntity
  8
Layer 1
370
     0
100
AcDbSpline
210
0.0
220
0.0
230
1.0
 70
    11
 71
     3
 72
    29
 73
    25
 74
     0
 42
0.0000000001
 43
0.0000000001
 40
0.0
 40
0.0
 40
0.0
 40
0.0
 40
1.0
 40
1.0
 40
1.0
 40
2.0
 40
2.0
 40
2.0
 40
3.0
 40
3.0
 40
3.0
 40
4.0
 40
4.0
 40
4.0
 40
5.0
 40
5.0
 40
5.0
 40
6.0
 40
6.0
 40
6.0
 40
7.0
 40
7.0
 40
7.0
 40
8.0
 40
8.0
 40
8.0
 40
8.0
 10
750.3818359375
 20
-460.19091796875
 30
0.0
 10
751.03515625
 20
-459.95361328125
 30
0.0
 10
751.6044921875
 20
-459.5380859375
 30
0.0
 10
752.03125
 20
-458.96875
 30
0.0
 10
754.23828125
 20
-456.0439453125
 30
0.0
 10
756.5048828125
 20
-452.8759765625
 30
0.0
 10
758.853515625
 20
-449.6005859375
 30
0.0
 10
770.6953125
 20
-433.0693359375
 30
0.0
 10
783.8544921875
 20
-414.72802734375
 30
0.0
 10
801.646484375
 20
-409.177734375
 30
0.0
 10
801.646484375
 20
-409.177734375
 30
0.0
 10
784.0263671875
 20
-470.45458984375
 30
0.0
 10
784.0263671875
 20
-470.45458984375
 30
0.0
 10
776.97265625
 20
-462.80712890625
 30
0.0
 10
763.529296875
 20
-462.0654296875
 30
0.0
 10
758.783203125
 20
-462.0654296875
 30
0.0
 10
756.8251953125
 20
-462.0654296875
 30
0.0
 10
754.9208984375
 20
-462.16650390625
 30
0.0
 10
753.123046875
 20
-462.3681640625
 30
0.0
 10
751.6572265625
 20
-462.5283203125
 30
0.0
 10
749.8955078125
 20
-462.77734375
 30
0.0
 10
747.92578125
 20
-463.1630859375
 30
0.0
 10
748.7626953125
 20
-462.1904296875
 30
0.0
 10
749.5810546875
 20
-461.19921875
 30
0.0
 10
750.3818359375
 20
-460.19091796875
 30
0.0
  0
SPLINE
  5
58
330
3C
100
AcDbEntity
  8
Layer 1
370
     0
100
AcDbSpline
210
0.0
220
0.0
230
1.0
 70
    11
 71
     3
 72
    29
 73
    25
 74
     0
 42
0.0000000001
 43
0.0000000001
 40
0.0
 40
0.0
 40
0.0
 40
0.0
 40
1.0
 40
1.0
 40
1.0
 40
2.0
 40
2.0
 40
2.0
 40
3.0
 40
3.0
 40
3.0
 40
4.0
 40
4.0
 40
4.0
 40
5.0
 40
5.0
 40
5.0
 40
6.0
 40
6.0
 40
6.0
 40
7.0
 40
7.0
 40
7.0
 40
8.0
 40
8.0
 40
8.0
 40
8.0
 10
706.3427734375
 20
-495.01025390625
 30
0.0
 10
714.287109375
 20
-491.07666015625
 30
0.0
 10
721.869140625
 20
-486.3544921875
 30
0.0
 10
729.01171875
 20
-480.88427734375
 30
0.0
 10
735.8232421875
 20
-477.73388671875
 30
0.0
 10
741.5478515625
 20
-475.34326171875
 30
0.0
 10
747.6767578125
 20
-475.34326171875
 30
0.0
 10
750.595703125
 20
-475.34326171875
 30
0.0
 10
753.431640625
 20
-475.8828125
 30
0.0
 10
756.3564453125
 20
-477.00439453125
 30
0.0
 10
759.8740234375
 20
-478.34521484375
 30
0.0
 10
764.4482421875
 20
-480.2021484375
 30
0.0
 10
768.572265625
 20
-482.640625
 30
0.0
 10
768.572265625
 20
-482.640625
 30
0.0
 10
770.0908203125
 20
-483.55419921875
 30
0.0
 10
770.0908203125
 20
-483.55419921875
 30
0.0
 10
772.7841796875
 20
-485.197265625
 30
0.0
 10
775.3466796875
 20
-486.751953125
 30
0.0
 10
779.220703125
 20
-487.169921875
 30
0.0
 10
779.220703125
 20
-487.169921875
 30
0.0
 10
776.966796875
 20
-495.01025390625
 30
0.0
 10
776.966796875
 20
-495.01025390625
 30
0.0
 10
776.966796875
 20
-495.01025390625
 30
0.0
 10
706.3427734375
 20
-495.01025390625
 30
0.0
 10
706.3427734375
 20
-495.01025390625
 30
0.0
  0
HATCH
  5
59
330
3C
100
AcDbEntity
  8
Layer 1
 62
     7
100
AcDbHatch
 10
0.0
 20
0.0
 30
0.0
210
0.0
220
0.0
230
1.0
  2
SOLID
 70
     1
 71
     0
 91
       14
 92
        1
 93
        1
 72
     4
 94
        3
 73
     0
 74
     1
 95
      290
 96
      286
 40
0.0
 40
0.0
 40
0.0
 40
0.0
 40
1.0
 40
1.0
 40
1.0
 40
2.0
 40
2.0
 40
2.0
 40
3.0
 40
3.0
 40
3.0
 40
4.0
 40
4.0
 40
4.0
 40
5.0
 40
5.0
 40
5.0
 40
6.0
 40
6.0
 40
6.0
 40
7.0
 40
7.0
 40
7.0
 40
8.0
 40
8.0
 40
8.0
 40
9.0
 40
9.0
 40
9.0
 40
10.0
 40
10.0
 40
10.0
 40
11.0
 40
11.0
 40
11.0
 40
12.0
 40
12.0
 40
12.0
 40
13.0
 40
13.0
 40
13.0
 40
14.0
 40
14.0
 40
14.0
 40
15.0
 40
15.0
 40
15.0
 40
16.0
 40
16.0
 40
16.0
 40
17.0
 40
17.0
 40
17.0
 40
18.0
 40
18.0
 40
18.0
 40
19.0
 40
19.0
 40
19.0
 40
20.0
 40
20.0
 40
20.0
 40
21.0
 40
21.0
 40
21.0
 40
22.0
 40
22.0
 40
22.0
 40
23.0
 40
23.0
 40
23.0
 40
24.0
 40
24.0
 40
24.0
 40
25.0
 40
25.0
 40
25.0
 40
26.0
 40
26.0
 40
26.0
 40
27.0
 40
27.0
 40
27.0
 40
28.0
 40
28.0
 40
28.0
 40
29.0
 40
29.0
 40
29.0
 40
30.0
 40
30.0
 40
30.0
 40
31.0
 40
31.0
 40
31.0
 40
32.0
 40
32.0
 40
32.0
 40
33.0
 40
33.0
 40
33.0
 40
34.0
 40
34.0
 40
34.0
 40
35.0
 40
35.0
 40
35.0
 40
36.0
 40
36.0
 40
36.0
 40
37.0
 40
37.0
 40
37.0
 40
38.0
 40
38.0
 40
38.0
 40
39.0
 40
39.0
 40
39.0
 40
40.0
 40
40.0
 40
40.0
 40
41.0
 40
41.0
 40
41.0
 40
42.0
 40
42.0
 40
42.0
 40
43.0
 40
43.0
 40
43.0
 40
44.0
 40
44.0
 40
44.0
 40
45.0
 40
45.0
 40
45.0
 40
46.0
 40
46.0
 40
46.0
 40
47.0
 40
47.0
 40
47.0
 40
48.0
 40
48.0
 40
48.0
 40
49.0
 40
49.0
 40
49.0
 40
50.0
 40
50.0
 40
50.0
 40
51.0
 40
51.0
 40
51.0
 40
52.0
 40
52.0
 40
52.0
 40
53.0
 40
53.0
 40
53.0
 40
54.0
 40
54.0
 40
54.0
 40
55.0
 40
55.0
 40
55.0
 40
56.0
 40
56.0
 40
56.0
 40
57.0
 40
57.0
 40
57.0
 40
58.0
 40
58.0
 40
58.0
 40
59.0
 40
59.0
 40
59.0
 40
60.0
 40
60.0
 40
60.0
 40
61.0
 40
61.0
 40
61.0
 40
62.0
 40
62.0
 40
62.0
 40
63.0
 40
63.0
 40
63.0
 40
64.0
 40
64.0
 40
64.0
 40
65.0
 40
65.0
 40
65.0
 40
66.0
 40
66.0
 40
66.0
 40
67.0
 40
67.0
 40
67.0
 40
68.0
 40
68.0
 40
68.0
 40
69.0
 40
69.0
 40
69.0
 40
70.0
 40
70.0
 40
70.0
 40
71.0
 40
71.0
 40
71.0
 40
72.0
 40
72.0
 40
72.0
 40
73.0
 40
73.0
 40
73.0
 40
74.0
 40
74.0
 40
74.0
 40
75.0
 40
75.0
 40
75.0
 40
76.0
 40
76.0
 40
76.0
 40
77.0
 40
77.0
 40
77.0
 40
78.0
 40
78.0
 40
78.0
 40
79.0
 40
79.0
 40
79.0
 40
80.0
 40
80.0
 40
80.0
 40
81.0
 40
81.0
 40
81.0
 40
82.0
 40
82.0
 40
82.0
 40
83.0
 40
83.0
 40
83.0
 40
84.0
 40
84.0
 40
84.0
 40
85.0
 40
85.0
 40
85.0
 40
86.0
 40
86.0
 40
86.0
 40
87.0
 40
87.0
 40
87.0
 40
88.0
 40
88.0
 40
88.0
 40
89.0
 40
89.0
 40
89.0
 40
90.0
 40
90.0
 40
90.0
 40
91.0
 40
91.0
 40
91.0
 40
92.0
 40
92.0
 40
92.0
 40
93.0
 40
93.0
 40
93.0
 40
94.0
 40
94.0
 40
94.0
 40
95.0
 40
95.0
 40
95.0
 40
95.0
 10
777.916015625
 20
-179.52978515625
 10
821.658203125
 20
-179.52978515625
 10
843.5322265625
 20
-200.009765625
 10
843.5322265625
 20
-240.95751953125
 10
843.5322265625
 20
-254.9169921875
 10
837.171875
 20
-284.55126953125
 10
824.4521484375
 20
-329.84228515625
 10
824.4521484375
 20
-329.84228515625
 10
807.7099609375
 20
-388.083984375
 10
807.7099609375
 20
-388.083984375
 10
795.40625
 20
-389.8994140625
 10
786.1982421875
 20
-398.38916015625
 10
778.7587890625
 20
-406.71875
 10
776.7353515625
 20
-408.9853515625
 10
774.6650390625
 20
-411.31689453125
 10
772.587890625
 20
-413.7138671875
 10
776.6171875
 20
-393.755859375
 10
773.8515625
 20
-374.3203125
 10
764.455078125
 20
-357.8447265625
 10
761.951171875
 20
-353.46044921875
 10
758.9130859375
 20
-349.3017578125
 10
755.4248046875
 20
-345.47509765625
 10
755.318359375
 20
-343.380859375
 10
755.056640625
 20
-341.322265625
 10
754.8076171875
 20
-339.31689453125
 10
754.4931640625
 20
-336.8369140625
 10
754.197265625
 20
-334.4931640625
 10
754.19140625
 20
-332.173828125
 10
754.1669921875
 20
-324.91796875
 10
755.8759765625
 20
-318.6171875
 10
759.7138671875
 20
-311.7412109375
 10
759.951171875
 20
-311.3203125
 10
760.2958984375
 20
-310.75634765625
 10
760.705078125
 20
-310.07421875
 10
765.2197265625
 20
-302.5751953125
 10
769.7880859375
 20
-294.12109375
 10
766.7626953125
 20
-288.76953125
 10
765.7421875
 20
-286.97216796875
 10
763.4404296875
 20
-284.80078125
 10
758.1953125
 20
-285.0732421875
 10
743.96875
 20
-285.767578125
 10
741.732421875
 20
-309.0654296875
 10
740.8896484375
 20
-317.833984375
 10
740.50390625
 20
-321.8388671875
 10
739.9755859375
 20
-327.302734375
 10
740.18359375
 20
-332.86767578125
 10
729.46875
 20
-326.30029296875
 10
717.2353515625
 20
-322.734375
 10
705.115234375
 20
-322.734375
 10
694.6259765625
 20
-322.734375
 10
684.3974609375
 20
-325.4521484375
 10
675.474609375
 20
-330.58984375
 10
671.037109375
 20
-330.8984375
 10
666.783203125
 20
-330.5244140625
 10
662.93359375
 20
-329.4033203125
 10
660.4765625
 20
-328.69140625
 10
658.0263671875
 20
-326.7451171875
 10
655.4404296875
 20
-324.6865234375
 10
651.572265625
 20
-321.607421875
 10
647.5732421875
 20
-318.43359375
 10
642.458984375
 20
-318.43359375
 10
641.3857421875
 20
-318.43359375
 10
640.2998046875
 20
-318.58203125
 10
639.2373046875
 20
-318.87255859375
 10
636.00390625
 20
-319.76220703125
 10
633.6845703125
 20
-322.7705078125
 10
633.6015625
 20
-326.193359375
 10
633.2333984375
 20
-339.96923828125
 10
651.8271484375
 20
-341.1796875
 10
660.76171875
 20
-341.7607421875
 10
660.76171875
 20
-341.7607421875
 10
661.40234375
 20
-341.802734375
 10
661.40234375
 20
-341.802734375
 10
650.4208984375
 20
-353.70361328125
 10
642.619140625
 20
-371.81640625
 10
647.7216796875
 20
-389.46044921875
 10
651.5009765625
 20
-402.5419921875
 10
664.1318359375
 20
-412.40234375
 10
677.0947265625
 20
-412.40234375
 10
682.53515625
 20
-412.40234375
 10
687.755859375
 20
-410.640625
 10
692.1875
 20
-407.30029296875
 10
696.5126953125
 20
-404.048828125
 10
698.21484375
 20
-399.0712890625
 10
696.625
 20
-394.3193359375
 10
695.1181640625
 20
-389.8046875
 10
690.923828125
 20
-386.77294921875
 10
686.189453125
 20
-386.77294921875
 10
684.462890625
 20
-386.77294921875
 10
682.712890625
 20
-387.15234375
 10
680.986328125
 20
-387.912109375
 10
677.166015625
 20
-389.5791015625
 10
674.2470703125
 20
-389.205078125
 10
671.986328125
 20
-386.5888671875
 10
668.681640625
 20
-382.76220703125
 10
667.673828125
 20
-375.458984375
 10
668.3974609375
 20
-370.53515625
 10
669.6611328125
 20
-361.97998046875
 10
674.98828125
 20
-355.3056640625
 10
679.23046875
 20
-351.2119140625
 10
687.0322265625
 20
-343.68310546875
 10
697.9423828125
 20
-339.3642578125
 10
709.1611328125
 20
-339.3642578125
 10
712.9169921875
 20
-339.3642578125
 10
716.619140625
 20
-339.8505859375
 10
720.166015625
 20
-340.8056640625
 10
726.3369140625
 20
-342.4609375
 10
732.001953125
 20
-345.125
 10
737.0927734375
 20
-348.755859375
 10
724.2958984375
 20
-348.33447265625
 10
713.521484375
 20
-354.0595703125
 10
708.6923828125
 20
-363.8193359375
 10
707.21484375
 20
-366.80322265625
 10
707.4111328125
 20
-370.19091796875
 10
709.2265625
 20
-373.10986328125
 10
711.0478515625
 20
-376.04638671875
 10
714.14453125
 20
-377.8740234375
 10
717.306640625
 20
-377.8740234375
 10
719.7626953125
 20
-377.8740234375
 10
722.0712890625
 20
-376.75830078125
 10
723.8095703125
 20
-374.7470703125
 10
728.982421875
 20
-368.7490234375
 10
733.7939453125
 20
-363.6708984375
 10
740.33203125
 20
-362.32421875
 10
744.5625
 20
-361.44580078125
 10
748.6552734375
 20
-362.77490234375
 10
753.099609375
 20
-366.470703125
 10
760.8359375
 20
-379.71875
 10
763.85546875
 20
-396.2890625
 10
761.3876953125
 20
-412.0166015625
 10
757.4951171875
 20
-436.81591796875
 10
742.9130859375
 20
-458.666015625
 10
720.3798828125
 20
-474.32275390625
 10
720.5224609375
 20
-474.12109375
 10
720.6591796875
 20
-473.9130859375
 10
720.80078125
 20
-473.71142578125
 10
730.2109375
 20
-459.78125
 10
732.8984375
 20
-438.8388671875
 10
719.353515625
 20
-427.4599609375
 10
717.626953125
 20
-426.01220703125
 10
715.396484375
 20
-425.21728515625
 10
713.0712890625
 20
-425.21728515625
 10
709.8671875
 20
-425.21728515625
 10
706.9130859375
 20
-426.64697265625
 10
705.15625
 20
-429.0439453125
 10
703.548828125
 20
-431.2451171875
 10
703.1513671875
 20
-433.99755859375
 10
704.041015625
 20
-436.7919921875
 10
708.8642578125
 20
-451.90283203125
 10
712.3466796875
 20
-462.8193359375
 10
701.4609375
 20
-475.83544921875
 10
699.330078125
 20
-478.380859375
 10
696.791015625
 20
-480.77734375
 10
693.759765625
 20
-483.09130859375
 10
690.8115234375
 20
-471.49267578125
 10
682.1611328125
 20
-461.1875
 10
674.365234375
 20
-454.97607421875
 10
666.783203125
 20
-448.9423828125
 10
657.8310546875
 20
-444.65576171875
 10
646.5234375
 20
-441.6181640625
 10
646.5234375
 20
-441.6181640625
 10
542.9130859375
 20
-158.1240234375
 10
542.9130859375
 20
-158.1240234375
 10
542.9130859375
 20
-158.1240234375
 10
516.8505859375
 20
-158.1240234375
 10
516.8505859375
 20
-158.1240234375
 10
516.8505859375
 20
-158.1240234375
 10
455.92578125
 20
-345.5400390625
 10
455.92578125
 20
-345.5400390625
 10
454.685546875
 20
-345.3056640625
 10
453.427734375
 20
-345.1337890625
 10
452.1376953125
 20
-345.08935546875
 10
448.521484375
 20
-345.08935546875
 10
445.58203125
 20
-347.61669921875
 10
444.822265625
 20
-351.3896484375
 10
444.0009765625
 20
-355.4599609375
 10
445.93798828125
 20
-359.4765625
 10
449.43212890625
 20
-360.94140625
 10
449.8740234375
 20
-361.12548828125
 10
450.31640625
 20
-361.27685546875
 10
450.75830078125
 20
-361.43994140625
 10
450.75830078125
 20
-361.43994140625
 10
424.9267578125
 20
-440.90625
 10
424.9267578125
 20
-440.90625
 10
416.2177734375
 20
-426.81005859375
 10
405.60107421875
 20
-414.38671875
 10
395.01123046875
 20
-406.27392578125
 10
379.63916015625
 20
-394.4853515625
 10
360.4228515625
 20
-387.9951171875
 10
340.904296875
 20
-387.9951171875
 10
327.552734375
 20
-387.9951171875
 10
314.236328125
 20
-391.0859375
 10
302.39453125
 20
-396.94140625
 10
296.470703125
 20
-399.87255859375
 10
290.8291015625
 20
-403.68115234375
 10
285.3115234375
 20
-408.5048828125
 10
286.39990234375
 20
-400.42431640625
 10
286.7294921875
 20
-390.87255859375
 10
282.81640625
 20
-382.88671875
 10
281.3779296875
 20
-379.9560546875
 10
278.6728515625
 20
-378.271484375
 10
275.3857421875
 20
-378.271484375
 10
272.55859375
 20
-378.271484375
 10
269.7080078125
 20
-379.552734375
 10
267.76220703125
 20
-381.6884765625
 10
267.05615234375
 20
-382.4658203125
 10
266.5400390625
 20
-383.3408203125
 10
266.1455078125
 20
-384.25439453125
 10
266.1455078125
 20
-384.25439453125
 10
239.49853515625
 20
-297.265625
 10
239.49853515625
 20
-297.265625
 10
226.47021484375
 20
-255.07763671875
 10
219.953125
 20
-228.8603515625
 10
219.953125
 20
-218.62060546875
 10
219.953125
 20
-207.146484375
 10
223.9814453125
 20
-198.2236328125
 10
232.052734375
 20
-191.86376953125
 10
240.11572265625
 20
-185.509765625
 10
258.41796875
 20
-181.392578125
 10
286.966796875
 20
-179.52978515625
 10
286.966796875
 20
-179.52978515625
 10
286.966796875
 20
-158.1240234375
 10
286.966796875
 20
-158.1240234375
 10
286.966796875
 20
-158.1240234375
 10
50.09814453125
 20
-158.1240234375
 10
50.09814453125
 20
-158.1240234375
 10
50.09814453125
 20
-158.1240234375
 10
50.09814453125
 20
-179.52978515625
 10
50.09814453125
 20
-179.52978515625
 10
72.740234375
 20
-180.4609375
 10
88.95458984375
 20
-184.41796875
 10
98.72607421875
 20
-191.4013671875
 10
108.5
 20
-198.3779296875
 10
116.41162109375
 20
-209.2412109375
 10
122.462890625
 20
-223.97216796875
 10
128.51171875
 20
-238.71484375
 10
138.35693359375
 20
-268.4140625
 10
152.01123046875
 20
-313.087890625
 10
152.01123046875
 20
-313.087890625
 10
185.451171875
 20
-421.0732421875
 10
185.451171875
 20
-421.0732421875
 10
183.8818359375
 20
-420.80908203125
 10
182.2890625
 20
-420.63720703125
 10
180.66943359375
 20
-420.63720703125
 10
178.818359375
 20
-420.63720703125
 10
176.96435546875
 20
-420.8212890625
 10
175.15478515625
 20
-421.18310546875
 10
158.16650390625
 20
-424.5703125
 10
144.4970703125
 20
-442.2265625
 10
144.04052734375
 20
-461.37158203125
 10
143.57763671875
 20
-480.5166015625
 10
155.56201171875
 20
-498.55224609375
 10
173.18798828125
 20
-505.25
 10
176.32666015625
 20
-506.4365234375
 10
179.61328125
 20
-507.302734375
 10
182.9892578125
 20
-507.8310546875
 10
182.9892578125
 20
-507.8310546875
 10
182.9892578125
 20
-508.583984375
 10
182.9892578125
 20
-508.583984375
 10
182.9892578125
 20
-508.583984375
 10
819.2197265625
 20
-508.583984375
 10
819.2197265625
 20
-508.583984375
 10
819.2197265625
 20
-508.583984375
 10
819.2197265625
 20
-495.01025390625
 10
819.2197265625
 20
-495.01025390625
 10
819.2197265625
 20
-495.01025390625
 10
797.98046875
 20
-495.01025390625
 10
797.98046875
 20
-495.01025390625
 10
797.98046875
 20
-495.01025390625
 10
846.326171875
 20
-329.37939453125
 10
846.326171875
 20
-329.37939453125
 10
865.24609375
 20
-265.1572265625
 10
880.9150390625
 20
-224.6005859375
 10
893.326171875
 20
-207.6865234375
 10
905.7314453125
 20
-190.7783203125
 10
924.6572265625
 20
-181.392578125
 10
950.0966796875
 20
-179.52978515625
 10
950.0966796875
 20
-179.52978515625
 10
950.0966796875
 20
-158.1240234375
 10
950.0966796875
 20
-158.1240234375
 10
950.0966796875
 20
-158.1240234375
 10
777.916015625
 20
-158.1240234375
 10
777.916015625
 20
-158.1240234375
 10
777.916015625
 20
-158.1240234375
 10
777.916015625
 20
-179.52978515625
 10
777.916015625
 20
-179.52978515625
 97
        0
 92
        1
 93
        1
 72
     4
 94
        3
 73
     0
 74
     1
 95
       26
 96
       22
 40
0.0
 40
0.0
 40
0.0
 40
0.0
 40
1.0
 40
1.0
 40
1.0
 40
2.0
 40
2.0
 40
2.0
 40
3.0
 40
3.0
 40
3.0
 40
4.0
 40
4.0
 40
4.0
 40
5.0
 40
5.0
 40
5.0
 40
6.0
 40
6.0
 40
6.0
 40
7.0
 40
7.0
 40
7.0
 40
7.0
 10
516.0380859375
 20
-342.49951171875
 10
516.0380859375
 20
-342.49951171875
 10
540.60546875
 20
-409.0087890625
 10
540.60546875
 20
-409.0087890625
 10
537.626953125
 20
-409.7744140625
 10
534.642578125
 20
-410.6669921875
 10
531.6708984375
 20
-411.6845703125
 10
531.6708984375
 20
-411.6845703125
 10
531.439453125
 20
-411.767578125
 10
531.439453125
 20
-411.767578125
 10
527.78515625
 20
-409.66748046875
 10
524.486328125
 20
-407.5791015625
 10
521.3896484375
 20
-405.40771484375
 10
507.8212890625
 20
-395.8916015625
 10
499.095703125
 20
-383.37353515625
 10
497.4580078125
 20
-371.06884765625
 10
495.74951171875
 20
-358.27783203125
 10
502.85546875
 20
-346.54296875
 10
514.353515625
 20
-343.1552734375
 10
514.9462890625
 20
-342.98046875
 10
515.509765625
 20
-342.7578125
 10
516.0380859375
 20
-342.49951171875
 97
        0
 92
        1
 93
        1
 72
     4
 94
        3
 73
     0
 74
     1
 95
       26
 96
       22
 40
0.0
 40
0.0
 40
0.0
 40
0.0
 40
1.0
 40
1.0
 40
1.0
 40
2.0
 40
2.0
 40
2.0
 40
3.0
 40
3.0
 40
3.0
 40
4.0
 40
4.0
 40
4.0
 40
5.0
 40
5.0
 40
5.0
 40
6.0
 40
6.0
 40
6.0
 40
7.0
 40
7.0
 40
7.0
 40
7.0
 10
494.5126953125
 20
-284.23681640625
 10
494.5126953125
 20
-284.23681640625
 10
508.89453125
 20
-323.1650390625
 10
508.89453125
 20
-323.1650390625
 10
508.740234375
 20
-323.203125
 10
508.580078125
 20
-323.22119140625
 10
508.42578125
 20
-323.2685546875
 10
492.71484375
 20
-327.90234375
 10
481.1220703125
 20
-340.98388671875
 10
477.7255859375
 20
-357.3818359375
 10
476.9365234375
 20
-356.76513671875
 10
476.15625
 20
-356.171875
 10
475.412109375
 20
-355.6083984375
 10
475.412109375
 20
-355.6083984375
 10
474.6259765625
 20
-355.0087890625
 10
474.6259765625
 20
-355.0087890625
 10
473.8603515625
 20
-354.427734375
 10
473.0595703125
 20
-353.833984375
 10
472.23486328125
 20
-353.23779296875
 10
472.23486328125
 20
-353.23779296875
 10
494.5126953125
 20
-284.23681640625
 10
494.5126953125
 20
-284.23681640625
 97
        0
 92
        1
 93
        1
 72
     4
 94
        3
 73
     0
 74
     1
 95
       41
 96
       37
 40
0.0
 40
0.0
 40
0.0
 40
0.0
 40
1.0
 40
1.0
 40
1.0
 40
2.0
 40
2.0
 40
2.0
 40
3.0
 40
3.0
 40
3.0
 40
4.0
 40
4.0
 40
4.0
 40
5.0
 40
5.0
 40
5.0
 40
6.0
 40
6.0
 40
6.0
 40
7.0
 40
7.0
 40
7.0
 40
8.0
 40
8.0
 40
8.0
 40
9.0
 40
9.0
 40
9.0
 40
10.0
 40
10.0
 40
10.0
 40
11.0
 40
11.0
 40
11.0
 40
12.0
 40
12.0
 40
12.0
 40
12.0
 10
191.81689453125
 20
-491.18359375
 10
182.9951171875
 20
-491.18359375
 10
167.3681640625
 20
-488.47216796875
 10
161.8623046875
 20
-470.30615234375
 10
158.56396484375
 20
-459.4375
 10
162.52099609375
 20
-447.275390625
 10
171.265625
 20
-441.3779296875
 10
176.6142578125
 20
-437.77099609375
 10
182.57373046875
 20
-437.4384765625
 10
187.39111328125
 20
-440.48828125
 10
189.92431640625
 20
-442.11962890625
 10
191.85546875
 20
-444.2734375
 10
193.3330078125
 20
-447.14453125
 10
193.47802734375
 20
-447.41748046875
 10
193.61474609375
 20
-447.6845703125
 10
193.736328125
 20
-447.95166015625
 10
189.40234375
 20
-447.939453125
 10
185.1455078125
 20
-449.92138671875
 10
182.57958984375
 20
-453.2734375
 10
179.9873046875
 20
-456.6728515625
 10
179.28125
 20
-461.19921875
 10
180.59814453125
 20
-466.02880859375
 10
182.24755859375
 20
-472.0859375
 10
187.35546875
 20
-475.99560546875
 10
193.611328125
 20
-475.99560546875
 10
195.83349609375
 20
-475.99560546875
 10
198.11767578125
 20
-475.4912109375
 10
200.208984375
 20
-474.5244140625
 10
200.7607421875
 20
-474.26953125
 10
201.21435546875
 20
-473.9189453125
 10
201.7216796875
 20
-473.61962890625
 10
201.7216796875
 20
-473.61962890625
 10
206.44140625
 20
-488.86376953125
 10
206.44140625
 20
-488.86376953125
 10
201.60595703125
 20
-490.35888671875
 10
196.6044921875
 20
-491.18359375
 10
191.81689453125
 20
-491.18359375
 97
        0
 92
        1
 93
        1
 72
     4
 94
        3
 73
     0
 74
     1
 95
       65
 96
       61
 40
0.0
 40
0.0
 40
0.0
 40
0.0
 40
1.0
 40
1.0
 40
1.0
 40
2.0
 40
2.0
 40
2.0
 40
3.0
 40
3.0
 40
3.0
 40
4.0
 40
4.0
 40
4.0
 40
5.0
 40
5.0
 40
5.0
 40
6.0
 40
6.0
 40
6.0
 40
7.0
 40
7.0
 40
7.0
 40
8.0
 40
8.0
 40
8.0
 40
9.0
 40
9.0
 40
9.0
 40
10.0
 40
10.0
 40
10.0
 40
11.0
 40
11.0
 40
11.0
 40
12.0
 40
12.0
 40
12.0
 40
13.0
 40
13.0
 40
13.0
 40
14.0
 40
14.0
 40
14.0
 40
15.0
 40
15.0
 40
15.0
 40
16.0
 40
16.0
 40
16.0
 40
17.0
 40
17.0
 40
17.0
 40
18.0
 40
18.0
 40
18.0
 40
19.0
 40
19.0
 40
19.0
 40
20.0
 40
20.0
 40
20.0
 40
20.0
 10
309.3447265625
 20
-482.5810546875
 10
297.19482421875
 20
-475.859375
 10
292.06884765625
 20
-461.9111328125
 10
296.88037109375
 20
-448.6513671875
 10
299.4609375
 20
-441.5380859375
 10
304.3671875
 20
-436.34130859375
 10
310.69775390625
 20
-434.033203125
 10
315.3818359375
 20
-432.31884765625
 10
318.84033203125
 20
-432.1171875
 10
321.4599609375
 20
-433.392578125
 10
323.3759765625
 20
-434.32421875
 10
325.69580078125
 20
-436.7685546875
 10
326.09912109375
 20
-439.099609375
 10
326.30078125
 20
-440.2568359375
 10
325.986328125
 20
-441.2177734375
 10
325.1083984375
 20
-442.11376953125
 10
321.6552734375
 20
-445.6435546875
 10
320.6826171875
 20
-450.0693359375
 10
322.4443359375
 20
-454.2578125
 10
324.28955078125
 20
-458.6484375
 10
328.78369140625
 20
-461.7158203125
 10
333.36962890625
 20
-461.7158203125
 10
336.953125
 20
-461.7158203125
 10
340.0556640625
 20
-459.88818359375
 10
342.10546875
 20
-456.56591796875
 10
347.10986328125
 20
-448.4560546875
 10
347.8720703125
 20
-438.453125
 10
344.146484375
 20
-429.80322265625
 10
340.44140625
 20
-421.20068359375
 10
332.9931640625
 20
-415.1611328125
 10
323.7138671875
 20
-413.2392578125
 10
321.43017578125
 20
-412.76416015625
 10
319.0927734375
 20
-412.52685546875
 10
316.7666015625
 20
-412.52685546875
 10
302.89599609375
 20
-412.52685546875
 10
289.12890625
 20
-421.4619140625
 10
281.56787109375
 20
-434.5966796875
 10
281.56787109375
 20
-434.5966796875
 10
280.9267578125
 20
-432.5029296875
 10
280.9267578125
 20
-432.5029296875
 10
296.990234375
 20
-412.6513671875
 10
317.56787109375
 20
-402.10302734375
 10
340.79443359375
 20
-402.02001953125
 10
363.8759765625
 20
-402.02001953125
 10
385.412109375
 20
-412.248046875
 10
401.42431640625
 20
-430.81787109375
 10
407.541015625
 20
-437.9072265625
 10
412.8388671875
 20
-447.0556640625
 10
417.5791015625
 20
-458.7373046875
 10
415.63623046875
 20
-459.71630859375
 10
413.716796875
 20
-460.689453125
 10
411.82470703125
 20
-461.64453125
 10
404.2421875
 20
-465.48876953125
 10
397.08740234375
 20
-469.11376953125
 10
390.5703125
 20
-472.05029296875
 10
371.89111328125
 20
-480.48681640625
 10
352.0283203125
 20
-488.28857421875
 10
333.3046875
 20
-488.28857421875
 10
324.2568359375
 20
-488.28857421875
 10
316.197265625
 20
-486.3662109375
 10
309.3447265625
 20
-482.5810546875
 97
        0
 92
        1
 93
        1
 72
     4
 94
        3
 73
     0
 74
     1
 95
       14
 96
       10
 40
0.0
 40
0.0
 40
0.0
 40
0.0
 40
1.0
 40
1.0
 40
1.0
 40
2.0
 40
2.0
 40
2.0
 40
3.0
 40
3.0
 40
3.0
 40
3.0
 10
378.60693359375
 20
-495.01025390625
 10
390.35693359375
 20
-490.1513671875
 10
401.685546875
 20
-484.212890625
 10
412.77392578125
 20
-478.294921875
 10
412.77392578125
 20
-478.294921875
 10
407.34228515625
 20
-495.01025390625
 10
407.34228515625
 20
-495.01025390625
 10
407.34228515625
 20
-495.01025390625
 10
378.60693359375
 20
-495.01025390625
 10
378.60693359375
 20
-495.01025390625
 97
        0
 92
        1
 93
        1
 72
     4
 94
        3
 73
     0
 74
     1
 95
       17
 96
       13
 40
0.0
 40
0.0
 40
0.0
 40
0.0
 40
1.0
 40
1.0
 40
1.0
 40
2.0
 40
2.0
 40
2.0
 40
3.0
 40
3.0
 40
3.0
 40
4.0
 40
4.0
 40
4.0
 40
4.0
 10
426.45751953125
 20
-495.01025390625
 10
426.45751953125
 20
-495.01025390625
 10
427.95849609375
 20
-490.34716796875
 10
427.95849609375
 20
-490.34716796875
 10
428.2763671875
 20
-491.44775390625
 10
428.60546875
 20
-492.56591796875
 10
428.9169921875
 20
-493.65771484375
 10
428.9169921875
 20
-493.65771484375
 10
429.3056640625
 20
-495.01025390625
 10
429.3056640625
 20
-495.01025390625
 10
429.3056640625
 20
-495.01025390625
 10
426.45751953125
 20
-495.01025390625
 10
426.45751953125
 20
-495.01025390625
 97
        0
 92
        1
 93
        1
 72
     4
 94
        3
 73
     0
 74
     1
 95
       20
 96
       16
 40
0.0
 40
0.0
 40
0.0
 40
0.0
 40
1.0
 40
1.0
 40
1.0
 40
2.0
 40
2.0
 40
2.0
 40
3.0
 40
3.0
 40
3.0
 40
4.0
 40
4.0
 40
4.0
 40
5.0
 40
5.0
 40
5.0
 40
5.0
 10
444.43701171875
 20
-495.01025390625
 10
443.7666015625
 20
-485.77294921875
 10
441.3818359375
 20
-475.859375
 10
437.32958984375
 20
-465.470703125
 10
451.30126953125
 20
-458.5771484375
 10
467.6875
 20
-451.58251953125
 10
485.865234375
 20
-448.859375
 10
484.9638671875
 20
-451.03662109375
 10
484.21875
 20
-453.26123046875
 10
483.640625
 20
-455.509765625
 10
480.0126953125
 20
-469.6357421875
 10
483.1748046875
 20
-484.6279296875
 10
491.5224609375
 20
-495.01025390625
 10
491.5224609375
 20
-495.01025390625
 10
444.43701171875
 20
-495.01025390625
 10
444.43701171875
 20
-495.01025390625
 97
        0
 92
        1
 93
        1
 72
     4
 94
        3
 73
     0
 74
     1
 95
       47
 96
       43
 40
0.0
 40
0.0
 40
0.0
 40
0.0
 40
1.0
 40
1.0
 40
1.0
 40
2.0
 40
2.0
 40
2.0
 40
3.0
 40
3.0
 40
3.0
 40
4.0
 40
4.0
 40
4.0
 40
5.0
 40
5.0
 40
5.0
 40
6.0
 40
6.0
 40
6.0
 40
7.0
 40
7.0
 40
7.0
 40
8.0
 40
8.0
 40
8.0
 40
9.0
 40
9.0
 40
9.0
 40
10.0
 40
10.0
 40
10.0
 40
11.0
 40
11.0
 40
11.0
 40
12.0
 40
12.0
 40
12.0
 40
13.0
 40
13.0
 40
13.0
 40
14.0
 40
14.0
 40
14.0
 40
14.0
 10
441.92724609375
 20
-447.09716796875
 10
441.92724609375
 20
-447.09716796875
 10
467.927734375
 20
-366.57763671875
 10
467.927734375
 20
-366.57763671875
 10
470.0810546875
 20
-367.6513671875
 10
472.0595703125
 20
-369.203125
 10
474.1484375
 20
-370.85546875
 10
475.109375
 20
-371.61474609375
 10
476.0673828125
 20
-372.3740234375
 10
477.04931640625
 20
-373.091796875
 10
477.2392578125
 20
-374.7236328125
 10
477.51220703125
 20
-376.34912109375
 10
477.8623046875
 20
-377.93310546875
 10
478.23583984375
 20
-379.6474609375
 10
478.6923828125
 20
-381.33837890625
 10
479.2265625
 20
-383.005859375
 10
477.7138671875
 20
-382.412109375
 10
476.17724609375
 20
-381.87255859375
 10
474.65234375
 20
-381.40380859375
 10
470.294921875
 20
-380.07470703125
 10
466.09765625
 20
-383.3974609375
 10
465.80078125
 20
-388.232421875
 10
465.5546875
 20
-392.2666015625
 10
468.0673828125
 20
-395.4111328125
 10
471.91162109375
 20
-395.8857421875
 10
475.9697265625
 20
-396.3837890625
 10
479.615234375
 20
-396.935546875
 10
483.11572265625
 20
-398.62060546875
 10
484.435546875
 20
-399.25537109375
 10
485.73193359375
 20
-400.02685546875
 10
487.1025390625
 20
-400.83349609375
 10
488.0576171875
 20
-401.4033203125
 10
489.0126953125
 20
-401.966796875
 10
489.98291015625
 20
-402.48876953125
 10
495.556640625
 20
-409.26416015625
 10
502.84375
 20
-415.35107421875
 10
511.701171875
 20
-420.63134765625
 10
505.6611328125
 20
-424.1728515625
 10
500.537109375
 20
-428.1953125
 10
496.40185546875
 20
-432.626953125
 10
478.1142578125
 20
-433.0126953125
 10
459.224609375
 20
-439.4765625
 10
441.92724609375
 20
-447.09716796875
 97
        0
 92
        1
 93
        1
 72
     4
 94
        3
 73
     0
 74
     1
 95
       23
 96
       19
 40
0.0
 40
0.0
 40
0.0
 40
0.0
 40
1.0
 40
1.0
 40
1.0
 40
2.0
 40
2.0
 40
2.0
 40
3.0
 40
3.0
 40
3.0
 40
4.0
 40
4.0
 40
4.0
 40
5.0
 40
5.0
 40
5.0
 40
6.0
 40
6.0
 40
6.0
 40
6.0
 10
538.0302734375
 20
-479.353515625
 10
537.3837890625
 20
-484.52099609375
 10
534.73828125
 20
-488.513671875
 10
530.17578125
 20
-491.23681640625
 10
527.048828125
 20
-493.099609375
 10
523.708984375
 20
-494.04296875
 10
520.23828125
 20
-494.04296875
 10
509.7607421875
 20
-494.04296875
 10
499.69140625
 20
-485.333984375
 10
497.3154296875
 20
-474.2216796875
 10
494.96630859375
 20
-463.240234375
 10
498.71875
 20
-454.0087890625
 10
502.6728515625
 20
-447.8388671875
 10
514.6083984375
 20
-448.35498046875
 10
523.8095703125
 20
-451.7841796875
 10
530.044921875
 20
-458.048828125
 10
535.705078125
 20
-463.73876953125
 10
538.9208984375
 20
-472.2998046875
 10
538.0302734375
 20
-479.353515625
 97
        0
 92
        1
 93
        1
 72
     4
 94
        3
 73
     0
 74
     1
 95
       29
 96
       25
 40
0.0
 40
0.0
 40
0.0
 40
0.0
 40
1.0
 40
1.0
 40
1.0
 40
2.0
 40
2.0
 40
2.0
 40
3.0
 40
3.0
 40
3.0
 40
4.0
 40
4.0
 40
4.0
 40
5.0
 40
5.0
 40
5.0
 40
6.0
 40
6.0
 40
6.0
 40
7.0
 40
7.0
 40
7.0
 40
8.0
 40
8.0
 40
8.0
 40
8.0
 10
547.203125
 20
-495.01025390625
 10
548.2822265625
 20
-493.4912109375
 10
549.2138671875
 20
-491.8720703125
 10
549.9912109375
 20
-490.1572265625
 10
557.828125
 20
-472.89892578125
 10
548.330078125
 20
-452.84619140625
 10
534.61328125
 20
-443.4248046875
 10
528.6923828125
 20
-439.36083984375
 10
522.154296875
 20
-436.412109375
 10
515.1005859375
 20
-434.638671875
 10
518.345703125
 20
-432.17626953125
 10
521.982421875
 20
-429.8984375
 10
525.939453125
 20
-427.8515625
 10
528.42578125
 20
-428.92529296875
 10
531.0
 20
-429.9453125
 10
533.6044921875
 20
-430.89501953125
 10
539.2587890625
 20
-432.95947265625
 10
544.9482421875
 20
-434.69775390625
 10
550.6552734375
 20
-436.216796875
 10
550.6552734375
 20
-436.216796875
 10
572.375
 20
-495.01025390625
 10
572.375
 20
-495.01025390625
 10
572.375
 20
-495.01025390625
 10
547.203125
 20
-495.01025390625
 10
547.203125
 20
-495.01025390625
 97
        0
 92
        1
 93
        1
 72
     4
 94
        3
 73
     0
 74
     1
 95
       23
 96
       19
 40
0.0
 40
0.0
 40
0.0
 40
0.0
 40
1.0
 40
1.0
 40
1.0
 40
2.0
 40
2.0
 40
2.0
 40
3.0
 40
3.0
 40
3.0
 40
4.0
 40
4.0
 40
4.0
 40
5.0
 40
5.0
 40
5.0
 40
6.0
 40
6.0
 40
6.0
 40
6.0
 10
674.1220703125
 20
-494.4404296875
 10
673.244140625
 20
-494.63671875
 10
672.3720703125
 20
-494.826171875
 10
671.494140625
 20
-495.01025390625
 10
671.494140625
 20
-495.01025390625
 10
667.9462890625
 20
-495.01025390625
 10
667.9462890625
 20
-495.01025390625
 10
665.9765625
 20
-481.19287109375
 10
661.1650390625
 20
-467.77294921875
 10
653.8740234375
 20
-455.658203125
 10
660.5068359375
 20
-458.4052734375
 10
666.11328125
 20
-461.8818359375
 10
670.865234375
 20
-466.1708984375
 10
677.8662109375
 20
-472.4775390625
 10
682.048828125
 20
-479.662109375
 10
684.267578125
 20
-489.24365234375
 10
680.7607421875
 20
-491.20703125
 10
677.2314453125
 20
-492.9453125
 10
674.1220703125
 20
-494.4404296875
 97
        0
 92
        1
 93
        1
 72
     4
 94
        3
 73
     0
 74
     1
 95
       29
 96
       25
 40
0.0
 40
0.0
 40
0.0
 40
0.0
 40
1.0
 40
1.0
 40
1.0
 40
2.0
 40
2.0
 40
2.0
 40
3.0
 40
3.0
 40
3.0
 40
4.0
 40
4.0
 40
4.0
 40
5.0
 40
5.0
 40
5.0
 40
6.0
 40
6.0
 40
6.0
 40
7.0
 40
7.0
 40
7.0
 40
8.0
 40
8.0
 40
8.0
 40
8.0
 10
750.3818359375
 20
-460.19091796875
 10
751.03515625
 20
-459.95361328125
 10
751.6044921875
 20
-459.5380859375
 10
752.03125
 20
-458.96875
 10
754.23828125
 20
-456.0439453125
 10
756.5048828125
 20
-452.8759765625
 10
758.853515625
 20
-449.6005859375
 10
770.6953125
 20
-433.0693359375
 10
783.8544921875
 20
-414.72802734375
 10
801.646484375
 20
-409.177734375
 10
801.646484375
 20
-409.177734375
 10
784.0263671875
 20
-470.45458984375
 10
784.0263671875
 20
-470.45458984375
 10
776.97265625
 20
-462.80712890625
 10
763.529296875
 20
-462.0654296875
 10
758.783203125
 20
-462.0654296875
 10
756.8251953125
 20
-462.0654296875
 10
754.9208984375
 20
-462.16650390625
 10
753.123046875
 20
-462.3681640625
 10
751.6572265625
 20
-462.5283203125
 10
749.8955078125
 20
-462.77734375
 10
747.92578125
 20
-463.1630859375
 10
748.7626953125
 20
-462.1904296875
 10
749.5810546875
 20
-461.19921875
 10
750.3818359375
 20
-460.19091796875
 97
        0
 92
        1
 93
        1
 72
     4
 94
        3
 73
     0
 74
     1
 95
       29
 96
       25
 40
0.0
 40
0.0
 40
0.0
 40
0.0
 40
1.0
 40
1.0
 40
1.0
 40
2.0
 40
2.0
 40
2.0
 40
3.0
 40
3.0
 40
3.0
 40
4.0
 40
4.0
 40
4.0
 40
5.0
 40
5.0
 40
5.0
 40
6.0
 40
6.0
 40
6.0
 40
7.0
 40
7.0
 40
7.0
 40
8.0
 40
8.0
 40
8.0
 40
8.0
 10
706.3427734375
 20
-495.01025390625
 10
714.287109375
 20
-491.07666015625
 10
721.869140625
 20
-486.3544921875
 10
729.01171875
 20
-480.88427734375
 10
735.8232421875
 20
-477.73388671875
 10
741.5478515625
 20
-475.34326171875
 10
747.6767578125
 20
-475.34326171875
 10
750.595703125
 20
-475.34326171875
 10
753.431640625
 20
-475.8828125
 10
756.3564453125
 20
-477.00439453125
 10
759.8740234375
 20
-478.34521484375
 10
764.4482421875
 20
-480.2021484375
 10
768.572265625
 20
-482.640625
 10
768.572265625
 20
-482.640625
 10
770.0908203125
 20
-483.55419921875
 10
770.0908203125
 20
-483.55419921875
 10
772.7841796875
 20
-485.197265625
 10
775.3466796875
 20
-486.751953125
 10
779.220703125
 20
-487.169921875
 10
779.220703125
 20
-487.169921875
 10
776.966796875
 20
-495.01025390625
 10
776.966796875
 20
-495.01025390625
 10
776.966796875
 20
-495.01025390625
 10
706.3427734375
 20
-495.01025390625
 10
706.3427734375
 20
-495.01025390625
 97
        0
 75
     2
 76
     1
 98
        0
  0
SPLINE
  5
5A
330
3C
100
AcDbEntity
  8
Layer 1
370
     0
100
AcDbSpline
210
0.0
220
0.0
230
1.0
 70
    11
 71
     3
 72
   377
 73
   373
 74
     0
 42
0.0000000001
 43
0.0000000001
 40
0.0
 40
0.0
 40
0.0
 40
0.0
 40
1.0
 40
1.0
 40
1.0
 40
2.0
 40
2.0
 40
2.0
 40
3.0
 40
3.0
 40
3.0
 40
4.0
 40
4.0
 40
4.0
 40
5.0
 40
5.0
 40
5.0
 40
6.0
 40
6.0
 40
6.0
 40
7.0
 40
7.0
 40
7.0
 40
8.0
 40
8.0
 40
8.0
 40
9.0
 40
9.0
 40
9.0
 40
10.0
 40
10.0
 40
10.0
 40
11.0
 40
11.0
 40
11.0
 40
12.0
 40
12.0
 40
12.0
 40
13.0
 40
13.0
 40
13.0
 40
14.0
 40
14.0
 40
14.0
 40
15.0
 40
15.0
 40
15.0
 40
16.0
 40
16.0
 40
16.0
 40
17.0
 40
17.0
 40
17.0
 40
18.0
 40
18.0
 40
18.0
 40
19.0
 40
19.0
 40
19.0
 40
20.0
 40
20.0
 40
20.0
 40
21.0
 40
21.0
 40
21.0
 40
22.0
 40
22.0
 40
22.0
 40
23.0
 40
23.0
 40
23.0
 40
24.0
 40
24.0
 40
24.0
 40
25.0
 40
25.0
 40
25.0
 40
26.0
 40
26.0
 40
26.0
 40
27.0
 40
27.0
 40
27.0
 40
28.0
 40
28.0
 40
28.0
 40
29.0
 40
29.0
 40
29.0
 40
30.0
 40
30.0
 40
30.0
 40
31.0
 40
31.0
 40
31.0
 40
32.0
 40
32.0
 40
32.0
 40
33.0
 40
33.0
 40
33.0
 40
34.0
 40
34.0
 40
34.0
 40
35.0
 40
35.0
 40
35.0
 40
36.0
 40
36.0
 40
36.0
 40
37.0
 40
37.0
 40
37.0
 40
38.0
 40
38.0
 40
38.0
 40
39.0
 40
39.0
 40
39.0
 40
40.0
 40
40.0
 40
40.0
 40
41.0
 40
41.0
 40
41.0
 40
42.0
 40
42.0
 40
42.0
 40
43.0
 40
43.0
 40
43.0
 40
44.0
 40
44.0
 40
44.0
 40
45.0
 40
45.0
 40
45.0
 40
46.0
 40
46.0
 40
46.0
 40
47.0
 40
47.0
 40
47.0
 40
48.0
 40
48.0
 40
48.0
 40
49.0
 40
49.0
 40
49.0
 40
50.0
 40
50.0
 40
50.0
 40
51.0
 40
51.0
 40
51.0
 40
52.0
 40
52.0
 40
52.0
 40
53.0
 40
53.0
 40
53.0
 40
54.0
 40
54.0
 40
54.0
 40
55.0
 40
55.0
 40
55.0
 40
56.0
 40
56.0
 40
56.0
 40
57.0
 40
57.0
 40
57.0
 40
58.0
 40
58.0
 40
58.0
 40
59.0
 40
59.0
 40
59.0
 40
60.0
 40
60.0
 40
60.0
 40
61.0
 40
61.0
 40
61.0
 40
62.0
 40
62.0
 40
62.0
 40
63.0
 40
63.0
 40
63.0
 40
64.0
 40
64.0
 40
64.0
 40
65.0
 40
65.0
 40
65.0
 40
66.0
 40
66.0
 40
66.0
 40
67.0
 40
67.0
 40
67.0
 40
68.0
 40
68.0
 40
68.0
 40
69.0
 40
69.0
 40
69.0
 40
70.0
 40
70.0
 40
70.0
 40
71.0
 40
71.0
 40
71.0
 40
72.0
 40
72.0
 40
72.0
 40
73.0
 40
73.0
 40
73.0
 40
74.0
 40
74.0
 40
74.0
 40
75.0
 40
75.0
 40
75.0
 40
76.0
 40
76.0
 40
76.0
 40
77.0
 40
77.0
 40
77.0
 40
78.0
 40
78.0
 40
78.0
 40
79.0
 40
79.0
 40
79.0
 40
80.0
 40
80.0
 40
80.0
 40
81.0
 40
81.0
 40
81.0
 40
82.0
 40
82.0
 40
82.0
 40
83.0
 40
83.0
 40
83.0
 40
84.0
 40
84.0
 40
84.0
 40
85.0
 40
85.0
 40
85.0
 40
86.0
 40
86.0
 40
86.0
 40
87.0
 40
87.0
 40
87.0
 40
88.0
 40
88.0
 40
88.0
 40
89.0
 40
89.0
 40
89.0
 40
90.0
 40
90.0
 40
90.0
 40
91.0
 40
91.0
 40
91.0
 40
92.0
 40
92.0
 40
92.0
 40
93.0
 40
93.0
 40
93.0
 40
94.0
 40
94.0
 40
94.0
 40
95.0
 40
95.0
 40
95.0
 40
96.0
 40
96.0
 40
96.0
 40
97.0
 40
97.0
 40
97.0
 40
98.0
 40
98.0
 40
98.0
 40
99.0
 40
99.0
 40
99.0
 40
100.0
 40
100.0
 40
100.0
 40
101.0
 40
101.0
 40
101.0
 40
102.0
 40
102.0
 40
102.0
 40
103.0
 40
103.0
 40
103.0
 40
104.0
 40
104.0
 40
104.0
 40
105.0
 40
105.0
 40
105.0
 40
106.0
 40
106.0
 40
106.0
 40
107.0
 40
107.0
 40
107.0
 40
108.0
 40
108.0
 40
108.0
 40
109.0
 40
109.0
 40
109.0
 40
110.0
 40
110.0
 40
110.0
 40
111.0
 40
111.0
 40
111.0
 40
112.0
 40
112.0
 40
112.0
 40
113.0
 40
113.0
 40
113.0
 40
114.0
 40
114.0
 40
114.0
 40
115.0
 40
115.0
 40
115.0
 40
116.0
 40
116.0
 40
116.0
 40
117.0
 40
117.0
 40
117.0
 40
118.0
 40
118.0
 40
118.0
 40
119.0
 40
119.0
 40
119.0
 40
120.0
 40
120.0
 40
120.0
 40
121.0
 40
121.0
 40
121.0
 40
122.0
 40
122.0
 40
122.0
 40
123.0
 40
123.0
 40
123.0
 40
124.0
 40
124.0
 40
124.0
 40
124.0
 10
180.9716796875
 20
-618.0732421875
 30
0.0
 10
180.9716796875
 20
-618.0732421875
 30
0.0
 10
180.9716796875
 20
-631.6474609375
 30
0.0
 10
180.9716796875
 20
-631.6474609375
 30
0.0
 10
180.9716796875
 20
-631.6474609375
 30
0.0
 10
250.658203125
 20
-631.6474609375
 30
0.0
 10
250.658203125
 20
-631.6474609375
 30
0.0
 10
250.658203125
 20
-631.6474609375
 30
0.0
 10
256.63525390625
 20
-650.958984375
 30
0.0
 10
256.63525390625
 20
-650.958984375
 30
0.0
 10
255.27392578125
 20
-651.1845703125
 30
0.0
 10
253.9033203125
 20
-651.3203125
 30
0.0
 10
252.51513671875
 20
-651.3203125
 30
0.0
 10
249.59912109375
 20
-651.3203125
 30
0.0
 10
246.76025390625
 20
-650.78125
 30
0.0
 10
243.84130859375
 20
-649.6591796875
 30
0.0
 10
240.3232421875
 20
-648.318359375
 30
0.0
 10
235.751953125
 20
-646.4619140625
 30
0.0
 10
231.6201171875
 20
-644.0234375
 30
0.0
 10
231.6201171875
 20
-644.0234375
 30
0.0
 10
230.09521484375
 20
-643.103515625
 30
0.0
 10
230.09521484375
 20
-643.103515625
 30
0.0
 10
227.0693359375
 20
-641.2587890625
 30
0.0
 10
224.2099609375
 20
-639.5146484375
 30
0.0
 10
219.45166015625
 20
-639.3837890625
 30
0.0
 10
217.23291015625
 20
-639.3837890625
 30
0.0
 10
215.150390625
 20
-640.404296875
 30
0.0
 10
213.73828125
 20
-642.1904296875
 30
0.0
 10
212.24951171875
 20
-644.0703125
 30
0.0
 10
211.6884765625
 20
-646.568359375
 30
0.0
 10
212.2373046875
 20
-648.8828125
 30
0.0
 10
215.72021484375
 20
-663.458984375
 30
0.0
 10
235.443359375
 20
-664.591796875
 30
0.0
 10
241.40576171875
 20
-664.591796875
 30
0.0
 10
243.36669921875
 20
-664.591796875
 30
0.0
 10
245.27099609375
 20
-664.4912109375
 30
0.0
 10
247.06884765625
 20
-664.2958984375
 30
0.0
 10
248.5341796875
 20
-664.1357421875
 30
0.0
 10
250.30224609375
 20
-663.88671875
 30
0.0
 10
252.265625
 20
-663.5009765625
 30
0.0
 10
251.43212890625
 20
-664.4736328125
 30
0.0
 10
250.6103515625
 20
-665.46484375
 30
0.0
 10
249.8095703125
 20
-666.466796875
 30
0.0
 10
249.16015625
 20
-666.7041015625
 30
0.0
 10
248.5908203125
 20
-667.1259765625
 30
0.0
 10
248.16015625
 20
-667.6953125
 30
0.0
 10
245.953125
 20
-670.6201171875
 30
0.0
 10
243.68701171875
 20
-673.7822265625
 30
0.0
 10
241.337890625
 20
-677.0625
 30
0.0
 10
226.64208984375
 20
-697.578125
 30
0.0
 10
209.98291015625
 20
-720.958984375
 30
0.0
 10
184.822265625
 20
-719.0791015625
 30
0.0
 10
179.26904296875
 20
-718.6455078125
 30
0.0
 10
175.30029296875
 20
-722.365234375
 30
0.0
 10
175.05078125
 20
-727.7939453125
 30
0.0
 10
174.82568359375
 20
-732.6884765625
 30
0.0
 10
178.0234375
 20
-738.2119140625
 30
0.0
 10
184.39501953125
 20
-738.798828125
 30
0.0
 10
200.8759765625
 20
-740.330078125
 30
0.0
 10
212.451171875
 20
-730.0068359375
 30
0.0
 10
221.43359375
 20
-719.939453125
 30
0.0
 10
223.45654296875
 20
-717.6728515625
 30
0.0
 10
225.52978515625
 20
-715.3408203125
 30
0.0
 10
227.609375
 20
-712.9501953125
 30
0.0
 10
223.5810546875
 20
-732.908203125
 30
0.0
 10
226.33984375
 20
-752.34375
 30
0.0
 10
235.7373046875
 20
-768.8134765625
 30
0.0
 10
238.22900390625
 20
-773.185546875
 30
0.0
 10
241.2607421875
 20
-777.3447265625
 30
0.0
 10
244.76953125
 20
-781.1884765625
 30
0.0
 10
244.87353515625
 20
-783.283203125
 30
0.0
 10
245.134765625
 20
-785.341796875
 30
0.0
 10
245.38671875
 20
-787.3466796875
 30
0.0
 10
245.6982421875
 20
-789.8271484375
 30
0.0
 10
245.9951171875
 20
-792.1640625
 30
0.0
 10
246.0009765625
 20
-794.484375
 30
0.0
 10
246.0244140625
 20
-801.74609375
 30
0.0
 10
244.32177734375
 20
-808.046875
 30
0.0
 10
240.4775390625
 20
-814.9169921875
 30
0.0
 10
240.24609375
 20
-815.337890625
 30
0.0
 10
239.90185546875
 20
-815.9013671875
 30
0.0
 10
239.49267578125
 20
-816.583984375
 30
0.0
 10
234.9716796875
 20
-824.0830078125
 30
0.0
 10
230.40380859375
 20
-832.537109375
 30
0.0
 10
233.42919921875
 20
-837.888671875
 30
0.0
 10
234.390625
 20
-839.5908203125
 30
0.0
 10
236.50244140625
 20
-841.6142578125
 30
0.0
 10
241.126953125
 20
-841.6142578125
 30
0.0
 10
241.4091796875
 20
-841.6142578125
 30
0.0
 10
241.69970703125
 20
-841.6083984375
 30
0.0
 10
241.9990234375
 20
-841.58984375
 30
0.0
 10
256.23486328125
 20
-840.890625
 30
0.0
 10
258.462890625
 20
-817.591796875
 30
0.0
 10
259.30224609375
 20
-808.8232421875
 30
0.0
 10
259.6875
 20
-804.8251953125
 30
0.0
 10
260.2158203125
 20
-799.361328125
 30
0.0
 10
260.01123046875
 20
-793.7900390625
 30
0.0
 10
270.7255859375
 20
-800.357421875
 30
0.0
 10
282.9619140625
 20
-803.9228515625
 30
0.0
 10
295.07666015625
 20
-803.9228515625
 30
0.0
 10
298.013671875
 20
-803.9228515625
 30
0.0
 10
300.92626953125
 20
-803.6884765625
 30
0.0
 10
303.80078125
 20
-803.267578125
 30
0.0
 10
303.80078125
 20
-803.267578125
 30
0.0
 10
304.18359375
 20
-804.5048828125
 30
0.0
 10
304.18359375
 20
-804.5048828125
 30
0.0
 10
304.18359375
 20
-804.5048828125
 30
0.0
 10
326.5205078125
 20
-804.5048828125
 30
0.0
 10
326.5205078125
 20
-804.5048828125
 30
0.0
 10
326.5205078125
 20
-804.5048828125
 30
0.0
 10
329.25537109375
 20
-796.0322265625
 30
0.0
 10
329.25537109375
 20
-796.0322265625
 30
0.0
 10
332.052734375
 20
-796.1455078125
 30
0.0
 10
334.7490234375
 20
-796.5283203125
 30
0.0
 10
337.2587890625
 20
-797.2607421875
 30
0.0
 10
339.7177734375
 20
-797.97265625
 30
0.0
 10
342.1650390625
 20
-799.9189453125
 30
0.0
 10
344.7578125
 20
-801.9833984375
 30
0.0
 10
348.623046875
 20
-805.056640625
 30
0.0
 10
352.61865234375
 20
-808.23046875
 30
0.0
 10
357.73828125
 20
-808.23046875
 30
0.0
 10
358.8125
 20
-808.23046875
 30
0.0
 10
359.89208984375
 20
-808.08203125
 30
0.0
 10
360.9541015625
 20
-807.791015625
 30
0.0
 10
364.23486328125
 20
-806.8896484375
 30
0.0
 10
366.50390625
 20
-803.947265625
 30
0.0
 10
366.59326171875
 20
-800.470703125
 30
0.0
 10
366.9580078125
 20
-786.6943359375
 30
0.0
 10
348.36767578125
 20
-785.484375
 30
0.0
 10
339.43603515625
 20
-784.90234375
 30
0.0
 10
339.43603515625
 20
-784.90234375
 30
0.0
 10
338.794921875
 20
-784.85546875
 30
0.0
 10
338.794921875
 20
-784.85546875
 30
0.0
 10
349.7705078125
 20
-772.9599609375
 30
0.0
 10
357.5693359375
 20
-754.84765625
 30
0.0
 10
352.47021484375
 20
-737.203125
 30
0.0
 10
351.888671875
 20
-735.1953125
 30
0.0
 10
351.076171875
 20
-733.275390625
 30
0.0
 10
350.11181640625
 20
-731.4423828125
 30
0.0
 10
350.11181640625
 20
-731.4423828125
 30
0.0
 10
362.861328125
 20
-691.9599609375
 30
0.0
 10
362.861328125
 20
-691.9599609375
 30
0.0
 10
381.76611328125
 20
-710.5537109375
 30
0.0
 10
406.837890625
 20
-721.083984375
 30
0.0
 10
432.99267578125
 20
-721.083984375
 30
0.0
 10
444.73046875
 20
-721.083984375
 30
0.0
 10
456.68505859375
 20
-719.03125
 30
0.0
 10
468.51513671875
 20
-714.9794921875
 30
0.0
 10
468.51513671875
 20
-714.9794921875
 30
0.0
 10
468.75244140625
 20
-714.896484375
 30
0.0
 10
468.75244140625
 20
-714.896484375
 30
0.0
 10
472.40673828125
 20
-716.99609375
 30
0.0
 10
475.70556640625
 20
-719.0849609375
 30
0.0
 10
478.802734375
 20
-721.255859375
 30
0.0
 10
492.37353515625
 20
-730.7724609375
 30
0.0
 10
501.09765625
 20
-743.2900390625
 30
0.0
 10
502.7412109375
 20
-755.5947265625
 30
0.0
 10
504.4453125
 20
-768.3798828125
 30
0.0
 10
497.33642578125
 20
-780.12109375
 30
0.0
 10
485.8388671875
 20
-783.5087890625
 30
0.0
 10
480.83154296875
 20
-784.9794921875
 30
0.0
 10
477.9716796875
 20
-789.46484375
 30
0.0
 10
478.71923828125
 20
-794.662109375
 30
0.0
 10
479.380859375
 20
-799.23046875
 30
0.0
 10
483.0146484375
 20
-803.8515625
 30
0.0
 10
488.6806640625
 20
-803.8515625
 30
0.0
 10
489.69482421875
 20
-803.8515625
 30
0.0
 10
490.7333984375
 20
-803.697265625
 30
0.0
 10
491.7685546875
 20
-803.3896484375
 30
0.0
 10
507.4765625
 20
-798.76171875
 30
0.0
 10
519.0751953125
 20
-785.6796875
 30
0.0
 10
522.46875
 20
-769.28125
 30
0.0
 10
523.263671875
 20
-769.8984375
 30
0.0
 10
524.041015625
 20
-770.486328125
 30
0.0
 10
524.783203125
 20
-771.0498046875
 30
0.0
 10
524.783203125
 20
-771.0498046875
 30
0.0
 10
525.572265625
 20
-771.6484375
 30
0.0
 10
525.572265625
 20
-771.6484375
 30
0.0
 10
531.421875
 20
-776.1103515625
 30
0.0
 10
539.2294921875
 20
-781.271484375
 30
0.0
 10
548.05078125
 20
-781.57421875
 30
0.0
 10
551.669921875
 20
-781.57421875
 30
0.0
 10
554.61328125
 20
-779.041015625
 30
0.0
 10
555.3720703125
 20
-775.267578125
 30
0.0
 10
556.19140625
 20
-771.1982421875
 30
0.0
 10
554.2509765625
 20
-767.181640625
 30
0.0
 10
550.7626953125
 20
-765.7158203125
 30
0.0
 10
547.748046875
 20
-764.458984375
 30
0.0
 10
544.67578125
 20
-763.740234375
 30
0.0
 10
541.703125
 20
-763.052734375
 30
0.0
 10
538.4814453125
 20
-762.3046875
 30
0.0
 10
535.4384765625
 20
-761.5927734375
 30
0.0
 10
532.583984375
 20
-760.251953125
 30
0.0
 10
530.2939453125
 20
-759.171875
 30
0.0
 10
528.2236328125
 20
-757.529296875
 30
0.0
 10
526.0283203125
 20
-755.791015625
 30
0.0
 10
525.0732421875
 20
-755.037109375
 30
0.0
 10
524.1181640625
 20
-754.2841796875
 30
0.0
 10
523.1455078125
 20
-753.572265625
 30
0.0
 10
522.955078125
 20
-751.9228515625
 30
0.0
 10
522.6826171875
 20
-750.296875
 30
0.0
 10
522.3388671875
 20
-748.724609375
 30
0.0
 10
521.958984375
 20
-747.015625
 30
0.0
 10
521.501953125
 20
-745.3251953125
 30
0.0
 10
520.9677734375
 20
-743.658203125
 30
0.0
 10
522.48046875
 20
-744.251953125
 30
0.0
 10
524.017578125
 20
-744.791015625
 30
0.0
 10
525.5419921875
 20
-745.259765625
 30
0.0
 10
529.90234375
 20
-746.5947265625
 30
0.0
 10
534.09765625
 20
-743.2666015625
 30
0.0
 10
534.3935546875
 20
-738.42578125
 30
0.0
 10
534.642578125
 20
-734.3974609375
 30
0.0
 10
532.1279296875
 20
-731.2470703125
 30
0.0
 10
528.283203125
 20
-730.7724609375
 30
0.0
 10
524.224609375
 20
-730.279296875
 30
0.0
 10
520.58203125
 20
-729.728515625
 30
0.0
 10
517.076171875
 20
-728.04296875
 30
0.0
 10
515.7529296875
 20
-727.40234375
 30
0.0
 10
514.4541015625
 20
-726.630859375
 30
0.0
 10
513.0771484375
 20
-725.818359375
 30
0.0
 10
512.1279296875
 20
-725.2548828125
 30
0.0
 10
511.1787109375
 20
-724.697265625
 30
0.0
 10
510.2177734375
 20
-724.1689453125
 30
0.0
 10
504.640625
 20
-717.3935546875
 30
0.0
 10
497.34814453125
 20
-711.306640625
 30
0.0
 10
488.49365234375
 20
-706.0322265625
 30
0.0
 10
494.5302734375
 20
-702.490234375
 30
0.0
 10
499.6591796875
 20
-698.46875
 30
0.0
 10
503.79296875
 20
-694.037109375
 30
0.0
 10
525.93359375
 20
-693.568359375
 30
0.0
 10
548.958984375
 20
-684.2001953125
 30
0.0
 10
568.9521484375
 20
-674.654296875
 30
0.0
 10
578.48046875
 20
-693.2412109375
 30
0.0
 10
591.876953125
 20
-710.19140625
 30
0.0
 10
605.18359375
 20
-720.3896484375
 30
0.0
 10
620.5556640625
 20
-732.1787109375
 30
0.0
 10
639.771484375
 20
-738.6689453125
 30
0.0
 10
659.2900390625
 20
-738.6689453125
 30
0.0
 10
660.310546875
 20
-738.6689453125
 30
0.0
 10
661.3310546875
 20
-738.615234375
 30
0.0
 10
662.357421875
 20
-738.580078125
 30
0.0
 10
662.357421875
 20
-738.580078125
 30
0.0
 10
686.7060546875
 20
-804.5048828125
 30
0.0
 10
686.7060546875
 20
-804.5048828125
 30
0.0
 10
686.7060546875
 20
-804.5048828125
 30
0.0
 10
707.6484375
 20
-804.5048828125
 30
0.0
 10
707.6484375
 20
-804.5048828125
 30
0.0
 10
707.6484375
 20
-804.5048828125
 30
0.0
 10
724.05859375
 20
-748.2890625
 30
0.0
 10
724.05859375
 20
-748.2890625
 30
0.0
 10
724.3134765625
 20
-748.3095703125
 30
0.0
 10
724.544921875
 20
-748.38671875
 30
0.0
 10
724.8056640625
 20
-748.38671875
 30
0.0
 10
727.6357421875
 20
-748.38671875
 30
0.0
 10
730.4833984375
 20
-747.111328125
 30
0.0
 10
732.4296875
 20
-744.9755859375
 30
0.0
 10
734.15625
 20
-743.0830078125
 30
0.0
 10
734.98046875
 20
-740.7041015625
 30
0.0
 10
734.7490234375
 20
-738.283203125
 30
0.0
 10
734.3876953125
 20
-734.4208984375
 30
0.0
 10
733.408203125
 20
-730.7783203125
 30
0.0
 10
732.458984375
 20
-727.248046875
 30
0.0
 10
732.0859375
 20
-725.84765625
 30
0.0
 10
731.7294921875
 20
-724.48046875
 30
0.0
 10
731.4033203125
 20
-723.119140625
 30
0.0
 10
731.4033203125
 20
-723.119140625
 30
0.0
 10
742.03515625
 20
-686.685546875
 30
0.0
 10
742.03515625
 20
-686.685546875
 30
0.0
 10
742.1240234375
 20
-692.2509765625
 30
0.0
 10
742.9130859375
 20
-697.1279296875
 30
0.0
 10
743.4052734375
 20
-699.6669921875
 30
0.0
 10
744.1171875
 20
-703.2919921875
 30
0.0
 10
747.0302734375
 20
-705.62890625
 30
0.0
 10
750.8271484375
 20
-705.62890625
 30
0.0
 10
753.8408203125
 20
-705.62890625
 30
0.0
 10
756.8310546875
 20
-704.1162109375
 30
0.0
 10
758.4326171875
 20
-701.779296875
 30
0.0
 10
759.8681640625
 20
-699.6904296875
 30
0.0
 10
760.1298828125
 20
-697.1748046875
 30
0.0
 10
759.16796875
 20
-694.6953125
 30
0.0
 10
757.37109375
 20
-690.0439453125
 30
0.0
 10
755.8701171875
 20
-685.8017578125
 30
0.0
 10
755.66796875
 20
-681.0263671875
 30
0.0
 10
755.5908203125
 20
-679.234375
 30
0.0
 10
755.673828125
 20
-677.4072265625
 30
0.0
 10
755.7626953125
 20
-675.47265625
 30
0.0
 10
755.8759765625
 20
-672.916015625
 30
0.0
 10
755.994140625
 20
-670.28125
 30
0.0
 10
755.7333984375
 20
-667.6298828125
 30
0.0
 10
758.2724609375
 20
-664.431640625
 30
0.0
 10
760.681640625
 20
-661.595703125
 30
0.0
 10
763.048828125
 20
-659.021484375
 30
0.0
 10
763.0009765625
 20
-665.3046875
 30
0.0
 10
764.673828125
 20
-671.4921875
 30
0.0
 10
767.8662109375
 20
-676.0244140625
 30
0.0
 10
769.4677734375
 20
-678.314453125
 30
0.0
 10
772.6357421875
 20
-679.353515625
 30
0.0
 10
775.07421875
 20
-678.3564453125
 30
0.0
 10
776.1181640625
 20
-677.94140625
 30
0.0
 10
776.7890625
 20
-677.4013671875
 30
0.0
 10
777.3701171875
 20
-676.873046875
 30
0.0
 10
779.03125
 20
-675.3427734375
 30
0.0
 10
779.619140625
 20
-672.578125
 30
0.0
 10
778.740234375
 20
-670.435546875
 30
0.0
 10
778.740234375
 20
-670.435546875
 30
0.0
 10
778.5859375
 20
-670.056640625
 30
0.0
 10
778.5859375
 20
-670.056640625
 30
0.0
 10
776.8662109375
 20
-665.8623046875
 30
0.0
 10
775.376953125
 20
-662.2373046875
 30
0.0
 10
775.435546875
 20
-657.9296875
 30
0.0
 10
775.4951171875
 20
-653.4150390625
 30
0.0
 10
777.1982421875
 20
-649.1669921875
 30
0.0
 10
778.8828125
 20
-645.0498046875
 30
0.0
 10
779.95703125
 20
-644.314453125
 30
0.0
 10
781.04296875
 20
-643.6025390625
 30
0.0
 10
782.1640625
 20
-642.92578125
 30
0.0
 10
790.0185546875
 20
-638.19140625
 30
0.0
 10
799.576171875
 20
-635.48046875
 30
0.0
 10
808.380859375
 20
-635.48046875
 30
0.0
 10
817.203125
 20
-635.48046875
 30
0.0
 10
832.830078125
 20
-638.19140625
 30
0.0
 10
838.3349609375
 20
-656.357421875
 30
0.0
 10
841.6279296875
 20
-667.2265625
 30
0.0
 10
837.6708984375
 20
-679.39453125
 30
0.0
 10
828.931640625
 20
-685.2861328125
 30
0.0
 10
823.580078125
 20
-688.88671875
 30
0.0
 10
817.6240234375
 20
-689.224609375
 30
0.0
 10
812.80078125
 20
-686.17578125
 30
0.0
 10
810.2734375
 20
-684.5439453125
 30
0.0
 10
808.3447265625
 20
-682.390625
 30
0.0
 10
806.8623046875
 20
-679.513671875
 30
0.0
 10
806.7138671875
 20
-679.24609375
 30
0.0
 10
806.5771484375
 20
-678.9794921875
 30
0.0
 10
806.458984375
 20
-678.7119140625
 30
0.0
 10
806.482421875
 20
-678.7119140625
 30
0.0
 10
806.51171875
 20
-678.7119140625
 30
0.0
 10
806.541015625
 20
-678.7119140625
 30
0.0
 10
810.92578125
 20
-678.7119140625
 30
0.0
 10
815.06640625
 20
-676.724609375
 30
0.0
 10
817.6123046875
 20
-673.390625
 30
0.0
 10
820.2109375
 20
-669.9912109375
 30
0.0
 10
820.91015625
 20
-665.46484375
 30
0.0
 10
819.599609375
 20
-660.634765625
 30
0.0
 10
817.9501953125
 20
-654.578125
 30
0.0
 10
812.841796875
 20
-650.662109375
 30
0.0
 10
806.5830078125
 20
-650.662109375
 30
0.0
 10
804.3583984375
 20
-650.662109375
 30
0.0
 10
802.080078125
 20
-651.171875
 30
0.0
 10
799.986328125
 20
-652.1396484375
 30
0.0
 10
790.58203125
 20
-656.4765625
 30
0.0
 10
787.876953125
 20
-667.6533203125
 30
0.0
 10
788.4169921875
 20
-675.90625
 30
0.0
 10
789.4970703125
 20
-692.51171875
 30
0.0
 10
803.4501953125
 20
-706.0263671875
 30
0.0
 10
819.5283203125
 20
-706.0263671875
 30
0.0
 10
821.373046875
 20
-706.0263671875
 30
0.0
 10
823.23046875
 20
-705.8427734375
 30
0.0
 10
825.0400390625
 20
-705.48046875
 30
0.0
 10
842.03125
 20
-702.0869140625
 30
0.0
 10
855.7001953125
 20
-684.431640625
 30
0.0
 10
856.1572265625
 20
-665.2861328125
 30
0.0
 10
856.6201171875
 20
-646.1474609375
 30
0.0
 10
844.6357421875
 20
-628.111328125
 30
0.0
 10
827.009765625
 20
-621.4140625
 30
0.0
 10
823.865234375
 20
-620.220703125
 30
0.0
 10
820.578125
 20
-619.35546875
 30
0.0
 10
817.203125
 20
-618.8330078125
 30
0.0
 10
817.203125
 20
-618.8330078125
 30
0.0
 10
817.203125
 20
-618.0732421875
 30
0.0
 10
817.203125
 20
-618.0732421875
 30
0.0
 10
817.203125
 20
-618.0732421875
 30
0.0
 10
180.9716796875
 20
-618.0732421875
 30
0.0
 10
180.9716796875
 20
-618.0732421875
 30
0.0
  0
SPLINE
  5
5B
330
3C
100
AcDbEntity
  8
Layer 1
370
     0
100
AcDbSpline
210
0.0
220
0.0
230
1.0
 70
    11
 71
     3
 72
    14
 73
    10
 74
     0
 42
0.0000000001
 43
0.0000000001
 40
0.0
 40
0.0
 40
0.0
 40
0.0
 40
1.0
 40
1.0
 40
1.0
 40
2.0
 40
2.0
 40
2.0
 40
3.0
 40
3.0
 40
3.0
 40
3.0
 10
362.923828125
 20
-631.6474609375
 30
0.0
 10
362.923828125
 20
-631.6474609375
 30
0.0
 10
353.88818359375
 20
-659.4482421875
 30
0.0
 10
353.88818359375
 20
-659.4482421875
 30
0.0
 10
348.3408203125
 20
-649.6357421875
 30
0.0
 10
345.45751953125
 20
-640.0693359375
 30
0.0
 10
345.6357421875
 20
-631.6474609375
 30
0.0
 10
345.6357421875
 20
-631.6474609375
 30
0.0
 10
362.923828125
 20
-631.6474609375
 30
0.0
 10
362.923828125
 20
-631.6474609375
 30
0.0
  0
SPLINE
  5
5C
330
3C
100
AcDbEntity
  8
Layer 1
370
     0
100
AcDbSpline
210
0.0
220
0.0
230
1.0
 70
    11
 71
     3
 72
    26
 73
    22
 74
     0
 42
0.0000000001
 43
0.0000000001
 40
0.0
 40
0.0
 40
0.0
 40
0.0
 40
1.0
 40
1.0
 40
1.0
 40
2.0
 40
2.0
 40
2.0
 40
3.0
 40
3.0
 40
3.0
 40
4.0
 40
4.0
 40
4.0
 40
5.0
 40
5.0
 40
5.0
 40
6.0
 40
6.0
 40
6.0
 40
7.0
 40
7.0
 40
7.0
 40
7.0
 10
259.86279296875
 20
-764.33984375
 30
0.0
 10
255.6240234375
 20
-765.2119140625
 30
0.0
 10
251.5361328125
 20
-763.888671875
 30
0.0
 10
247.0927734375
 20
-760.1923828125
 30
0.0
 10
239.3564453125
 20
-746.939453125
 30
0.0
 10
236.33642578125
 20
-730.369140625
 30
0.0
 10
238.8046875
 20
-714.640625
 30
0.0
 10
241.53662109375
 20
-697.234375
 30
0.0
 10
249.560546875
 20
-681.287109375
 30
0.0
 10
261.8828125
 20
-667.90234375
 30
0.0
 10
261.8828125
 20
-667.90234375
 30
0.0
 10
287.310546875
 20
-750.017578125
 30
0.0
 10
287.310546875
 20
-750.017578125
 30
0.0
 10
285.9404296875
 20
-749.2353515625
 30
0.0
 10
284.42138671875
 20
-748.7900390625
 30
0.0
 10
282.8818359375
 20
-748.7900390625
 30
0.0
 10
280.4287109375
 20
-748.7900390625
 30
0.0
 10
278.12109375
 20
-749.8994140625
 30
0.0
 10
276.3828125
 20
-751.9169921875
 30
0.0
 10
271.21484375
 20
-757.9150390625
 30
0.0
 10
266.40380859375
 20
-762.9873046875
 30
0.0
 10
259.86279296875
 20
-764.33984375
 30
0.0
  0
SPLINE
  5
5D
330
3C
100
AcDbEntity
  8
Layer 1
370
     0
100
AcDbSpline
210
0.0
220
0.0
230
1.0
 70
    11
 71
     3
 72
    20
 73
    16
 74
     0
 42
0.0000000001
 43
0.0000000001
 40
0.0
 40
0.0
 40
0.0
 40
0.0
 40
1.0
 40
1.0
 40
1.0
 40
2.0
 40
2.0
 40
2.0
 40
3.0
 40
3.0
 40
3.0
 40
4.0
 40
4.0
 40
4.0
 40
5.0
 40
5.0
 40
5.0
 40
5.0
 10
291.0302734375
 20
-787.2998046875
 30
0.0
 10
287.275390625
 20
-787.2998046875
 30
0.0
 10
283.576171875
 20
-786.8134765625
 30
0.0
 10
280.025390625
 20
-785.857421875
 30
0.0
 10
273.85546875
 20
-784.203125
 30
0.0
 10
268.1923828125
 20
-781.5390625
 30
0.0
 10
263.10205078125
 20
-777.908203125
 30
0.0
 10
275.73583984375
 20
-778.33203125
 30
0.0
 10
286.46826171875
 20
-772.6904296875
 30
0.0
 10
291.35693359375
 20
-763.08203125
 30
0.0
 10
291.35693359375
 20
-763.08203125
 30
0.0
 10
298.64208984375
 20
-786.6083984375
 30
0.0
 10
298.64208984375
 20
-786.6083984375
 30
0.0
 10
296.1416015625
 20
-787.0478515625
 30
0.0
 10
293.5966796875
 20
-787.2998046875
 30
0.0
 10
291.0302734375
 20
-787.2998046875
 30
0.0
  0
SPLINE
  5
5E
330
3C
100
AcDbEntity
  8
Layer 1
370
     0
100
AcDbSpline
210
0.0
220
0.0
230
1.0
 70
    11
 71
     3
 72
    20
 73
    16
 74
     0
 42
0.0000000001
 43
0.0000000001
 40
0.0
 40
0.0
 40
0.0
 40
0.0
 40
1.0
 40
1.0
 40
1.0
 40
2.0
 40
2.0
 40
2.0
 40
3.0
 40
3.0
 40
3.0
 40
4.0
 40
4.0
 40
4.0
 40
5.0
 40
5.0
 40
5.0
 40
5.0
 10
408.015625
 20
-706.7861328125
 30
0.0
 10
399.44873046875
 20
-704.32421875
 30
0.0
 10
389.10498046875
 20
-698.1123046875
 30
0.0
 10
379.2626953125
 20
-689.646484375
 30
0.0
 10
381.3388671875
 20
-689.9072265625
 30
0.0
 10
383.40966796875
 20
-690.150390625
 30
0.0
 10
385.4501953125
 20
-690.3935546875
 30
0.0
 10
388.36328125
 20
-690.73828125
 30
0.0
 10
391.2587890625
 20
-691.08203125
 30
0.0
 10
394.1240234375
 20
-691.4560546875
 30
0.0
 10
415.80859375
 20
-694.279296875
 30
0.0
 10
435.3984375
 20
-699.423828125
 30
0.0
 10
452.49072265625
 20
-706.7744140625
 30
0.0
 10
437.130859375
 20
-710.4228515625
 30
0.0
 10
420.83349609375
 20
-710.46484375
 30
0.0
 10
408.015625
 20
-706.7861328125
 30
0.0
  0
SPLINE
  5
5F
330
3C
100
AcDbEntity
  8
Layer 1
370
     0
100
AcDbSpline
210
0.0
220
0.0
230
1.0
 70
    11
 71
     3
 72
    35
 73
    31
 74
     0
 42
0.0000000001
 43
0.0000000001
 40
0.0
 40
0.0
 40
0.0
 40
0.0
 40
1.0
 40
1.0
 40
1.0
 40
2.0
 40
2.0
 40
2.0
 40
3.0
 40
3.0
 40
3.0
 40
4.0
 40
4.0
 40
4.0
 40
5.0
 40
5.0
 40
5.0
 40
6.0
 40
6.0
 40
6.0
 40
7.0
 40
7.0
 40
7.0
 40
8.0
 40
8.0
 40
8.0
 40
9.0
 40
9.0
 40
9.0
 40
10.0
 40
10.0
 40
10.0
 40
10.0
 10
474.2548828125
 20
-698.806640625
 30
0.0
 10
471.76611328125
 20
-697.73828125
 30
0.0
 10
469.1943359375
 20
-696.7177734375
 30
0.0
 10
466.58984375
 20
-695.7626953125
 30
0.0
 10
442.86181640625
 20
-687.095703125
 30
0.0
 10
418.4306640625
 20
-683.8857421875
 30
0.0
 10
394.80029296875
 20
-680.783203125
 30
0.0
 10
386.98095703125
 20
-679.7568359375
 30
0.0
 10
378.89453125
 20
-678.6943359375
 30
0.0
 10
370.8916015625
 20
-677.4482421875
 30
0.0
 10
369.83251953125
 20
-677.279296875
 30
0.0
 10
368.7763671875
 20
-677.0927734375
 30
0.0
 10
367.72021484375
 20
-676.908203125
 30
0.0
 10
367.72021484375
 20
-676.908203125
 30
0.0
 10
382.3359375
 20
-631.6474609375
 30
0.0
 10
382.3359375
 20
-631.6474609375
 30
0.0
 10
382.3359375
 20
-631.6474609375
 30
0.0
 10
452.9892578125
 20
-631.6474609375
 30
0.0
 10
452.9892578125
 20
-631.6474609375
 30
0.0
 10
451.9091796875
 20
-633.171875
 30
0.0
 10
450.9775390625
 20
-634.7919921875
 30
0.0
 10
450.20068359375
 20
-636.5068359375
 30
0.0
 10
442.36328125
 20
-653.7646484375
 30
0.0
 10
451.86474609375
 20
-673.8173828125
 30
0.0
 10
465.578125
 20
-683.2392578125
 30
0.0
 10
471.4990234375
 20
-687.302734375
 30
0.0
 10
478.04296875
 20
-690.251953125
 30
0.0
 10
485.09130859375
 20
-692.025390625
 30
0.0
 10
481.83984375
 20
-694.4931640625
 30
0.0
 10
478.208984375
 20
-696.765625
 30
0.0
 10
474.2548828125
 20
-698.806640625
 30
0.0
  0
SPLINE
  5
60
330
3C
100
AcDbEntity
  8
Layer 1
370
     0
100
AcDbSpline
210
0.0
220
0.0
230
1.0
 70
    11
 71
     3
 72
    23
 73
    19
 74
     0
 42
0.0000000001
 43
0.0000000001
 40
0.0
 40
0.0
 40
0.0
 40
0.0
 40
1.0
 40
1.0
 40
1.0
 40
2.0
 40
2.0
 40
2.0
 40
3.0
 40
3.0
 40
3.0
 40
4.0
 40
4.0
 40
4.0
 40
5.0
 40
5.0
 40
5.0
 40
6.0
 40
6.0
 40
6.0
 40
6.0
 10
497.5205078125
 20
-678.8251953125
 30
0.0
 10
485.58349609375
 20
-678.30859375
 30
0.0
 10
476.3818359375
 20
-674.8740234375
 30
0.0
 10
470.15234375
 20
-668.615234375
 30
0.0
 10
464.48681640625
 20
-662.9248046875
 30
0.0
 10
461.27392578125
 20
-654.3642578125
 30
0.0
 10
462.1611328125
 20
-647.310546875
 30
0.0
 10
462.810546875
 20
-642.142578125
 30
0.0
 10
465.45361328125
 20
-638.14453125
 30
0.0
 10
470.02197265625
 20
-635.4267578125
 30
0.0
 10
473.1455078125
 20
-633.564453125
 30
0.0
 10
476.48876953125
 20
-632.62109375
 30
0.0
 10
479.953125
 20
-632.62109375
 30
0.0
 10
490.4306640625
 20
-632.62109375
 30
0.0
 10
500.49853515625
 20
-641.330078125
 30
0.0
 10
502.87890625
 20
-652.4423828125
 30
0.0
 10
505.228515625
 20
-663.41796875
 30
0.0
 10
501.4775390625
 20
-672.6484375
 30
0.0
 10
497.5205078125
 20
-678.8251953125
 30
0.0
  0
SPLINE
  5
61
330
3C
100
AcDbEntity
  8
Layer 1
370
     0
100
AcDbSpline
210
0.0
220
0.0
230
1.0
 70
    11
 71
     3
 72
    20
 73
    16
 74
     0
 42
0.0000000001
 43
0.0000000001
 40
0.0
 40
0.0
 40
0.0
 40
0.0
 40
1.0
 40
1.0
 40
1.0
 40
2.0
 40
2.0
 40
2.0
 40
3.0
 40
3.0
 40
3.0
 40
4.0
 40
4.0
 40
4.0
 40
5.0
 40
5.0
 40
5.0
 40
5.0
 10
514.3291015625
 20
-677.8046875
 30
0.0
 10
515.224609375
 20
-675.6328125
 30
0.0
 10
515.97265625
 20
-673.408203125
 30
0.0
 10
516.5537109375
 20
-671.154296875
 30
0.0
 10
520.1845703125
 20
-657.0283203125
 30
0.0
 10
517.0224609375
 20
-642.0361328125
 30
0.0
 10
508.669921875
 20
-631.6474609375
 30
0.0
 10
508.669921875
 20
-631.6474609375
 30
0.0
 10
555.751953125
 20
-631.6474609375
 30
0.0
 10
555.751953125
 20
-631.6474609375
 30
0.0
 10
556.427734375
 20
-640.884765625
 30
0.0
 10
558.8134765625
 20
-650.798828125
 30
0.0
 10
562.865234375
 20
-661.1923828125
 30
0.0
 10
548.8994140625
 20
-668.0810546875
 30
0.0
 10
532.51953125
 20
-675.0810546875
 30
0.0
 10
514.3291015625
 20
-677.8046875
 30
0.0
  0
POLYLINE
  5
62
330
3C
100
AcDbEntity
  8
Layer 1
370
     0
100
AcDb2dPolyline
 66
     1
 10
0.0
 20
0.0
 30
0.0
  0
VERTEX
  5
63
330
62
100
AcDbEntity
  8
Layer 1
370
     0
100
AcDbVertex
100
AcDb2dVertex
 10
737.685546875
 20
-631.6474609375
 30
0.0
  0
VERTEX
  5
64
330
62
100
AcDbEntity
  8
Layer 1
370
     0
100
AcDbVertex
100
AcDb2dVertex
 10
728.1220703125
 20
-664.900390625
 30
0.0
  0
VERTEX
  5
65
330
62
100
AcDbEntity
  8
Layer 1
370
     0
100
AcDbVertex
100
AcDb2dVertex
 10
715.9716796875
 20
-631.6474609375
 30
0.0
  0
VERTEX
  5
66
330
62
100
AcDbEntity
  8
Layer 1
370
     0
100
AcDbVertex
100
AcDb2dVertex
 10
737.685546875
 20
-631.6474609375
 30
0.0
  0
SEQEND
  5
67
330
62
100
AcDbEntity
  8
Layer 1
370
     0
  0
SPLINE
  5
68
330
3C
100
AcDbEntity
  8
Layer 1
370
     0
100
AcDbSpline
210
0.0
220
0.0
230
1.0
 70
    11
 71
     3
 72
    20
 73
    16
 74
     0
 42
0.0000000001
 43
0.0000000001
 40
0.0
 40
0.0
 40
0.0
 40
0.0
 40
1.0
 40
1.0
 40
1.0
 40
2.0
 40
2.0
 40
2.0
 40
3.0
 40
3.0
 40
3.0
 40
4.0
 40
4.0
 40
4.0
 40
5.0
 40
5.0
 40
5.0
 40
5.0
 10
571.2421875
 20
-632.8876953125
 30
0.0
 10
571.2421875
 20
-632.8876953125
 30
0.0
 10
570.892578125
 20
-631.6474609375
 30
0.0
 10
570.892578125
 20
-631.6474609375
 30
0.0
 10
570.892578125
 20
-631.6474609375
 30
0.0
 10
621.587890625
 20
-631.6474609375
 30
0.0
 10
621.587890625
 20
-631.6474609375
 30
0.0
 10
608.689453125
 20
-636.9873046875
 30
0.0
 10
596.2783203125
 20
-643.6201171875
 30
0.0
 10
584.158203125
 20
-650.1044921875
 30
0.0
 10
581.927734375
 20
-651.296875
 30
0.0
 10
579.6904296875
 20
-652.4951171875
 30
0.0
 10
577.4541015625
 20
-653.681640625
 30
0.0
 10
575.205078125
 20
-646.7587890625
 30
0.0
 10
573.1943359375
 20
-639.72265625
 30
0.0
 10
571.2421875
 20
-632.8876953125
 30
0.0
  0
SPLINE
  5
69
330
3C
100
AcDbEntity
  8
Layer 1
370
     0
100
AcDbSpline
210
0.0
220
0.0
230
1.0
 70
    11
 71
     3
 72
    23
 73
    19
 74
     0
 42
0.0000000001
 43
0.0000000001
 40
0.0
 40
0.0
 40
0.0
 40
0.0
 40
1.0
 40
1.0
 40
1.0
 40
2.0
 40
2.0
 40
2.0
 40
3.0
 40
3.0
 40
3.0
 40
4.0
 40
4.0
 40
4.0
 40
5.0
 40
5.0
 40
5.0
 40
6.0
 40
6.0
 40
6.0
 40
6.0
 10
598.7705078125
 20
-695.845703125
 30
0.0
 10
592.6474609375
 20
-688.744140625
 30
0.0
 10
587.349609375
 20
-679.595703125
 30
0.0
 10
582.615234375
 20
-667.9267578125
 30
0.0
 10
584.5498046875
 20
-666.947265625
 30
0.0
 10
586.4658203125
 20
-665.98046875
 30
0.0
 10
588.3583984375
 20
-665.025390625
 30
0.0
 10
595.9404296875
 20
-661.1806640625
 30
0.0
 10
603.107421875
 20
-657.5498046875
 30
0.0
 10
609.626953125
 20
-654.607421875
 30
0.0
 10
615.791015625
 20
-651.8251953125
 30
0.0
 10
622.0859375
 20
-649.119140625
 30
0.0
 10
628.421875
 20
-646.7314453125
 30
0.0
 10
628.421875
 20
-646.7314453125
 30
0.0
 10
657.1845703125
 20
-724.5751953125
 30
0.0
 10
657.1845703125
 20
-724.5751953125
 30
0.0
 10
634.9423828125
 20
-723.943359375
 30
0.0
 10
614.2724609375
 20
-713.8193359375
 30
0.0
 10
598.7705078125
 20
-695.845703125
 30
0.0
  0
SPLINE
  5
6A
330
3C
100
AcDbEntity
  8
Layer 1
370
     0
100
AcDbSpline
210
0.0
220
0.0
230
1.0
 70
    11
 71
     3
 72
    17
 73
    13
 74
     0
 42
0.0000000001
 43
0.0000000001
 40
0.0
 40
0.0
 40
0.0
 40
0.0
 40
1.0
 40
1.0
 40
1.0
 40
2.0
 40
2.0
 40
2.0
 40
3.0
 40
3.0
 40
3.0
 40
4.0
 40
4.0
 40
4.0
 40
4.0
 10
767.046875
 20
-634.3466796875
 30
0.0
 10
762.0751953125
 20
-638.2919921875
 30
0.0
 10
757.6201171875
 20
-642.73046875
 30
0.0
 10
753.4912109375
 20
-647.4404296875
 30
0.0
 10
753.4912109375
 20
-647.4404296875
 30
0.0
 10
758.1005859375
 20
-631.6474609375
 30
0.0
 10
758.1005859375
 20
-631.6474609375
 30
0.0
 10
758.1005859375
 20
-631.6474609375
 30
0.0
 10
770.6484375
 20
-631.6474609375
 30
0.0
 10
770.6484375
 20
-631.6474609375
 30
0.0
 10
769.42578125
 20
-632.513671875
 30
0.0
 10
768.2275390625
 20
-633.416015625
 30
0.0
 10
767.046875
 20
-634.3466796875
 30
0.0
  0
HATCH
  5
6B
330
3C
100
AcDbEntity
  8
Layer 1
 62
     7
100
AcDbHatch
 10
0.0
 20
0.0
 30
0.0
210
0.0
220
0.0
230
1.0
  2
SOLID
 70
     1
 71
     0
 91
       12
 92
        1
 93
        1
 72
     4
 94
        3
 73
     0
 74
     1
 95
      377
 96
      373
 40
0.0
 40
0.0
 40
0.0
 40
0.0
 40
1.0
 40
1.0
 40
1.0
 40
2.0
 40
2.0
 40
2.0
 40
3.0
 40
3.0
 40
3.0
 40
4.0
 40
4.0
 40
4.0
 40
5.0
 40
5.0
 40
5.0
 40
6.0
 40
6.0
 40
6.0
 40
7.0
 40
7.0
 40
7.0
 40
8.0
 40
8.0
 40
8.0
 40
9.0
 40
9.0
 40
9.0
 40
10.0
 40
10.0
 40
10.0
 40
11.0
 40
11.0
 40
11.0
 40
12.0
 40
12.0
 40
12.0
 40
13.0
 40
13.0
 40
13.0
 40
14.0
 40
14.0
 40
14.0
 40
15.0
 40
15.0
 40
15.0
 40
16.0
 40
16.0
 40
16.0
 40
17.0
 40
17.0
 40
17.0
 40
18.0
 40
18.0
 40
18.0
 40
19.0
 40
19.0
 40
19.0
 40
20.0
 40
20.0
 40
20.0
 40
21.0
 40
21.0
 40
21.0
 40
22.0
 40
22.0
 40
22.0
 40
23.0
 40
23.0
 40
23.0
 40
24.0
 40
24.0
 40
24.0
 40
25.0
 40
25.0
 40
25.0
 40
26.0
 40
26.0
 40
26.0
 40
27.0
 40
27.0
 40
27.0
 40
28.0
 40
28.0
 40
28.0
 40
29.0
 40
29.0
 40
29.0
 40
30.0
 40
30.0
 40
30.0
 40
31.0
 40
31.0
 40
31.0
 40
32.0
 40
32.0
 40
32.0
 40
33.0
 40
33.0
 40
33.0
 40
34.0
 40
34.0
 40
34.0
 40
35.0
 40
35.0
 40
35.0
 40
36.0
 40
36.0
 40
36.0
 40
37.0
 40
37.0
 40
37.0
 40
38.0
 40
38.0
 40
38.0
 40
39.0
 40
39.0
 40
39.0
 40
40.0
 40
40.0
 40
40.0
 40
41.0
 40
41.0
 40
41.0
 40
42.0
 40
42.0
 40
42.0
 40
43.0
 40
43.0
 40
43.0
 40
44.0
 40
44.0
 40
44.0
 40
45.0
 40
45.0
 40
45.0
 40
46.0
 40
46.0
 40
46.0
 40
47.0
 40
47.0
 40
47.0
 40
48.0
 40
48.0
 40
48.0
 40
49.0
 40
49.0
 40
49.0
 40
50.0
 40
50.0
 40
50.0
 40
51.0
 40
51.0
 40
51.0
 40
52.0
 40
52.0
 40
52.0
 40
53.0
 40
53.0
 40
53.0
 40
54.0
 40
54.0
 40
54.0
 40
55.0
 40
55.0
 40
55.0
 40
56.0
 40
56.0
 40
56.0
 40
57.0
 40
57.0
 40
57.0
 40
58.0
 40
58.0
 40
58.0
 40
59.0
 40
59.0
 40
59.0
 40
60.0
 40
60.0
 40
60.0
 40
61.0
 40
61.0
 40
61.0
 40
62.0
 40
62.0
 40
62.0
 40
63.0
 40
63.0
 40
63.0
 40
64.0
 40
64.0
 40
64.0
 40
65.0
 40
65.0
 40
65.0
 40
66.0
 40
66.0
 40
66.0
 40
67.0
 40
67.0
 40
67.0
 40
68.0
 40
68.0
 40
68.0
 40
69.0
 40
69.0
 40
69.0
 40
70.0
 40
70.0
 40
70.0
 40
71.0
 40
71.0
 40
71.0
 40
72.0
 40
72.0
 40
72.0
 40
73.0
 40
73.0
 40
73.0
 40
74.0
 40
74.0
 40
74.0
 40
75.0
 40
75.0
 40
75.0
 40
76.0
 40
76.0
 40
76.0
 40
77.0
 40
77.0
 40
77.0
 40
78.0
 40
78.0
 40
78.0
 40
79.0
 40
79.0
 40
79.0
 40
80.0
 40
80.0
 40
80.0
 40
81.0
 40
81.0
 40
81.0
 40
82.0
 40
82.0
 40
82.0
 40
83.0
 40
83.0
 40
83.0
 40
84.0
 40
84.0
 40
84.0
 40
85.0
 40
85.0
 40
85.0
 40
86.0
 40
86.0
 40
86.0
 40
87.0
 40
87.0
 40
87.0
 40
88.0
 40
88.0
 40
88.0
 40
89.0
 40
89.0
 40
89.0
 40
90.0
 40
90.0
 40
90.0
 40
91.0
 40
91.0
 40
91.0
 40
92.0
 40
92.0
 40
92.0
 40
93.0
 40
93.0
 40
93.0
 40
94.0
 40
94.0
 40
94.0
 40
95.0
 40
95.0
 40
95.0
 40
96.0
 40
96.0
 40
96.0
 40
97.0
 40
97.0
 40
97.0
 40
98.0
 40
98.0
 40
98.0
 40
99.0
 40
99.0
 40
99.0
 40
100.0
 40
100.0
 40
100.0
 40
101.0
 40
101.0
 40
101.0
 40
102.0
 40
102.0
 40
102.0
 40
103.0
 40
103.0
 40
103.0
 40
104.0
 40
104.0
 40
104.0
 40
105.0
 40
105.0
 40
105.0
 40
106.0
 40
106.0
 40
106.0
 40
107.0
 40
107.0
 40
107.0
 40
108.0
 40
108.0
 40
108.0
 40
109.0
 40
109.0
 40
109.0
 40
110.0
 40
110.0
 40
110.0
 40
111.0
 40
111.0
 40
111.0
 40
112.0
 40
112.0
 40
112.0
 40
113.0
 40
113.0
 40
113.0
 40
114.0
 40
114.0
 40
114.0
 40
115.0
 40
115.0
 40
115.0
 40
116.0
 40
116.0
 40
116.0
 40
117.0
 40
117.0
 40
117.0
 40
118.0
 40
118.0
 40
118.0
 40
119.0
 40
119.0
 40
119.0
 40
120.0
 40
120.0
 40
120.0
 40
121.0
 40
121.0
 40
121.0
 40
122.0
 40
122.0
 40
122.0
 40
123.0
 40
123.0
 40
123.0
 40
124.0
 40
124.0
 40
124.0
 40
124.0
 10
180.9716796875
 20
-618.0732421875
 10
180.9716796875
 20
-618.0732421875
 10
180.9716796875
 20
-631.6474609375
 10
180.9716796875
 20
-631.6474609375
 10
180.9716796875
 20
-631.6474609375
 10
250.658203125
 20
-631.6474609375
 10
250.658203125
 20
-631.6474609375
 10
250.658203125
 20
-631.6474609375
 10
256.63525390625
 20
-650.958984375
 10
256.63525390625
 20
-650.958984375
 10
255.27392578125
 20
-651.1845703125
 10
253.9033203125
 20
-651.3203125
 10
252.51513671875
 20
-651.3203125
 10
249.59912109375
 20
-651.3203125
 10
246.76025390625
 20
-650.78125
 10
243.84130859375
 20
-649.6591796875
 10
240.3232421875
 20
-648.318359375
 10
235.751953125
 20
-646.4619140625
 10
231.6201171875
 20
-644.0234375
 10
231.6201171875
 20
-644.0234375
 10
230.09521484375
 20
-643.103515625
 10
230.09521484375
 20
-643.103515625
 10
227.0693359375
 20
-641.2587890625
 10
224.2099609375
 20
-639.5146484375
 10
219.45166015625
 20
-639.3837890625
 10
217.23291015625
 20
-639.3837890625
 10
215.150390625
 20
-640.404296875
 10
213.73828125
 20
-642.1904296875
 10
212.24951171875
 20
-644.0703125
 10
211.6884765625
 20
-646.568359375
 10
212.2373046875
 20
-648.8828125
 10
215.72021484375
 20
-663.458984375
 10
235.443359375
 20
-664.591796875
 10
241.40576171875
 20
-664.591796875
 10
243.36669921875
 20
-664.591796875
 10
245.27099609375
 20
-664.4912109375
 10
247.06884765625
 20
-664.2958984375
 10
248.5341796875
 20
-664.1357421875
 10
250.30224609375
 20
-663.88671875
 10
252.265625
 20
-663.5009765625
 10
251.43212890625
 20
-664.4736328125
 10
250.6103515625
 20
-665.46484375
 10
249.8095703125
 20
-666.466796875
 10
249.16015625
 20
-666.7041015625
 10
248.5908203125
 20
-667.1259765625
 10
248.16015625
 20
-667.6953125
 10
245.953125
 20
-670.6201171875
 10
243.68701171875
 20
-673.7822265625
 10
241.337890625
 20
-677.0625
 10
226.64208984375
 20
-697.578125
 10
209.98291015625
 20
-720.958984375
 10
184.822265625
 20
-719.0791015625
 10
179.26904296875
 20
-718.6455078125
 10
175.30029296875
 20
-722.365234375
 10
175.05078125
 20
-727.7939453125
 10
174.82568359375
 20
-732.6884765625
 10
178.0234375
 20
-738.2119140625
 10
184.39501953125
 20
-738.798828125
 10
200.8759765625
 20
-740.330078125
 10
212.451171875
 20
-730.0068359375
 10
221.43359375
 20
-719.939453125
 10
223.45654296875
 20
-717.6728515625
 10
225.52978515625
 20
-715.3408203125
 10
227.609375
 20
-712.9501953125
 10
223.5810546875
 20
-732.908203125
 10
226.33984375
 20
-752.34375
 10
235.7373046875
 20
-768.8134765625
 10
238.22900390625
 20
-773.185546875
 10
241.2607421875
 20
-777.3447265625
 10
244.76953125
 20
-781.1884765625
 10
244.87353515625
 20
-783.283203125
 10
245.134765625
 20
-785.341796875
 10
245.38671875
 20
-787.3466796875
 10
245.6982421875
 20
-789.8271484375
 10
245.9951171875
 20
-792.1640625
 10
246.0009765625
 20
-794.484375
 10
246.0244140625
 20
-801.74609375
 10
244.32177734375
 20
-808.046875
 10
240.4775390625
 20
-814.9169921875
 10
240.24609375
 20
-815.337890625
 10
239.90185546875
 20
-815.9013671875
 10
239.49267578125
 20
-816.583984375
 10
234.9716796875
 20
-824.0830078125
 10
230.40380859375
 20
-832.537109375
 10
233.42919921875
 20
-837.888671875
 10
234.390625
 20
-839.5908203125
 10
236.50244140625
 20
-841.6142578125
 10
241.126953125
 20
-841.6142578125
 10
241.4091796875
 20
-841.6142578125
 10
241.69970703125
 20
-841.6083984375
 10
241.9990234375
 20
-841.58984375
 10
256.23486328125
 20
-840.890625
 10
258.462890625
 20
-817.591796875
 10
259.30224609375
 20
-808.8232421875
 10
259.6875
 20
-804.8251953125
 10
260.2158203125
 20
-799.361328125
 10
260.01123046875
 20
-793.7900390625
 10
270.7255859375
 20
-800.357421875
 10
282.9619140625
 20
-803.9228515625
 10
295.07666015625
 20
-803.9228515625
 10
298.013671875
 20
-803.9228515625
 10
300.92626953125
 20
-803.6884765625
 10
303.80078125
 20
-803.267578125
 10
303.80078125
 20
-803.267578125
 10
304.18359375
 20
-804.5048828125
 10
304.18359375
 20
-804.5048828125
 10
304.18359375
 20
-804.5048828125
 10
326.5205078125
 20
-804.5048828125
 10
326.5205078125
 20
-804.5048828125
 10
326.5205078125
 20
-804.5048828125
 10
329.25537109375
 20
-796.0322265625
 10
329.25537109375
 20
-796.0322265625
 10
332.052734375
 20
-796.1455078125
 10
334.7490234375
 20
-796.5283203125
 10
337.2587890625
 20
-797.2607421875
 10
339.7177734375
 20
-797.97265625
 10
342.1650390625
 20
-799.9189453125
 10
344.7578125
 20
-801.9833984375
 10
348.623046875
 20
-805.056640625
 10
352.61865234375
 20
-808.23046875
 10
357.73828125
 20
-808.23046875
 10
358.8125
 20
-808.23046875
 10
359.89208984375
 20
-808.08203125
 10
360.9541015625
 20
-807.791015625
 10
364.23486328125
 20
-806.8896484375
 10
366.50390625
 20
-803.947265625
 10
366.59326171875
 20
-800.470703125
 10
366.9580078125
 20
-786.6943359375
 10
348.36767578125
 20
-785.484375
 10
339.43603515625
 20
-784.90234375
 10
339.43603515625
 20
-784.90234375
 10
338.794921875
 20
-784.85546875
 10
338.794921875
 20
-784.85546875
 10
349.7705078125
 20
-772.9599609375
 10
357.5693359375
 20
-754.84765625
 10
352.47021484375
 20
-737.203125
 10
351.888671875
 20
-735.1953125
 10
351.076171875
 20
-733.275390625
 10
350.11181640625
 20
-731.4423828125
 10
350.11181640625
 20
-731.4423828125
 10
362.861328125
 20
-691.9599609375
 10
362.861328125
 20
-691.9599609375
 10
381.76611328125
 20
-710.5537109375
 10
406.837890625
 20
-721.083984375
 10
432.99267578125
 20
-721.083984375
 10
444.73046875
 20
-721.083984375
 10
456.68505859375
 20
-719.03125
 10
468.51513671875
 20
-714.9794921875
 10
468.51513671875
 20
-714.9794921875
 10
468.75244140625
 20
-714.896484375
 10
468.75244140625
 20
-714.896484375
 10
472.40673828125
 20
-716.99609375
 10
475.70556640625
 20
-719.0849609375
 10
478.802734375
 20
-721.255859375
 10
492.37353515625
 20
-730.7724609375
 10
501.09765625
 20
-743.2900390625
 10
502.7412109375
 20
-755.5947265625
 10
504.4453125
 20
-768.3798828125
 10
497.33642578125
 20
-780.12109375
 10
485.8388671875
 20
-783.5087890625
 10
480.83154296875
 20
-784.9794921875
 10
477.9716796875
 20
-789.46484375
 10
478.71923828125
 20
-794.662109375
 10
479.380859375
 20
-799.23046875
 10
483.0146484375
 20
-803.8515625
 10
488.6806640625
 20
-803.8515625
 10
489.69482421875
 20
-803.8515625
 10
490.7333984375
 20
-803.697265625
 10
491.7685546875
 20
-803.3896484375
 10
507.4765625
 20
-798.76171875
 10
519.0751953125
 20
-785.6796875
 10
522.46875
 20
-769.28125
 10
523.263671875
 20
-769.8984375
 10
524.041015625
 20
-770.486328125
 10
524.783203125
 20
-771.0498046875
 10
524.783203125
 20
-771.0498046875
 10
525.572265625
 20
-771.6484375
 10
525.572265625
 20
-771.6484375
 10
531.421875
 20
-776.1103515625
 10
539.2294921875
 20
-781.271484375
 10
548.05078125
 20
-781.57421875
 10
551.669921875
 20
-781.57421875
 10
554.61328125
 20
-779.041015625
 10
555.3720703125
 20
-775.267578125
 10
556.19140625
 20
-771.1982421875
 10
554.2509765625
 20
-767.181640625
 10
550.7626953125
 20
-765.7158203125
 10
547.748046875
 20
-764.458984375
 10
544.67578125
 20
-763.740234375
 10
541.703125
 20
-763.052734375
 10
538.4814453125
 20
-762.3046875
 10
535.4384765625
 20
-761.5927734375
 10
532.583984375
 20
-760.251953125
 10
530.2939453125
 20
-759.171875
 10
528.2236328125
 20
-757.529296875
 10
526.0283203125
 20
-755.791015625
 10
525.0732421875
 20
-755.037109375
 10
524.1181640625
 20
-754.2841796875
 10
523.1455078125
 20
-753.572265625
 10
522.955078125
 20
-751.9228515625
 10
522.6826171875
 20
-750.296875
 10
522.3388671875
 20
-748.724609375
 10
521.958984375
 20
-747.015625
 10
521.501953125
 20
-745.3251953125
 10
520.9677734375
 20
-743.658203125
 10
522.48046875
 20
-744.251953125
 10
524.017578125
 20
-744.791015625
 10
525.5419921875
 20
-745.259765625
 10
529.90234375
 20
-746.5947265625
 10
534.09765625
 20
-743.2666015625
 10
534.3935546875
 20
-738.42578125
 10
534.642578125
 20
-734.3974609375
 10
532.1279296875
 20
-731.2470703125
 10
528.283203125
 20
-730.7724609375
 10
524.224609375
 20
-730.279296875
 10
520.58203125
 20
-729.728515625
 10
517.076171875
 20
-728.04296875
 10
515.7529296875
 20
-727.40234375
 10
514.4541015625
 20
-726.630859375
 10
513.0771484375
 20
-725.818359375
 10
512.1279296875
 20
-725.2548828125
 10
511.1787109375
 20
-724.697265625
 10
510.2177734375
 20
-724.1689453125
 10
504.640625
 20
-717.3935546875
 10
497.34814453125
 20
-711.306640625
 10
488.49365234375
 20
-706.0322265625
 10
494.5302734375
 20
-702.490234375
 10
499.6591796875
 20
-698.46875
 10
503.79296875
 20
-694.037109375
 10
525.93359375
 20
-693.568359375
 10
548.958984375
 20
-684.2001953125
 10
568.9521484375
 20
-674.654296875
 10
578.48046875
 20
-693.2412109375
 10
591.876953125
 20
-710.19140625
 10
605.18359375
 20
-720.3896484375
 10
620.5556640625
 20
-732.1787109375
 10
639.771484375
 20
-738.6689453125
 10
659.2900390625
 20
-738.6689453125
 10
660.310546875
 20
-738.6689453125
 10
661.3310546875
 20
-738.615234375
 10
662.357421875
 20
-738.580078125
 10
662.357421875
 20
-738.580078125
 10
686.7060546875
 20
-804.5048828125
 10
686.7060546875
 20
-804.5048828125
 10
686.7060546875
 20
-804.5048828125
 10
707.6484375
 20
-804.5048828125
 10
707.6484375
 20
-804.5048828125
 10
707.6484375
 20
-804.5048828125
 10
724.05859375
 20
-748.2890625
 10
724.05859375
 20
-748.2890625
 10
724.3134765625
 20
-748.3095703125
 10
724.544921875
 20
-748.38671875
 10
724.8056640625
 20
-748.38671875
 10
727.6357421875
 20
-748.38671875
 10
730.4833984375
 20
-747.111328125
 10
732.4296875
 20
-744.9755859375
 10
734.15625
 20
-743.0830078125
 10
734.98046875
 20
-740.7041015625
 10
734.7490234375
 20
-738.283203125
 10
734.3876953125
 20
-734.4208984375
 10
733.408203125
 20
-730.7783203125
 10
732.458984375
 20
-727.248046875
 10
732.0859375
 20
-725.84765625
 10
731.7294921875
 20
-724.48046875
 10
731.4033203125
 20
-723.119140625
 10
731.4033203125
 20
-723.119140625
 10
742.03515625
 20
-686.685546875
 10
742.03515625
 20
-686.685546875
 10
742.1240234375
 20
-692.2509765625
 10
742.9130859375
 20
-697.1279296875
 10
743.4052734375
 20
-699.6669921875
 10
744.1171875
 20
-703.2919921875
 10
747.0302734375
 20
-705.62890625
 10
750.8271484375
 20
-705.62890625
 10
753.8408203125
 20
-705.62890625
 10
756.8310546875
 20
-704.1162109375
 10
758.4326171875
 20
-701.779296875
 10
759.8681640625
 20
-699.6904296875
 10
760.1298828125
 20
-697.1748046875
 10
759.16796875
 20
-694.6953125
 10
757.37109375
 20
-690.0439453125
 10
755.8701171875
 20
-685.8017578125
 10
755.66796875
 20
-681.0263671875
 10
755.5908203125
 20
-679.234375
 10
755.673828125
 20
-677.4072265625
 10
755.7626953125
 20
-675.47265625
 10
755.8759765625
 20
-672.916015625
 10
755.994140625
 20
-670.28125
 10
755.7333984375
 20
-667.6298828125
 10
758.2724609375
 20
-664.431640625
 10
760.681640625
 20
-661.595703125
 10
763.048828125
 20
-659.021484375
 10
763.0009765625
 20
-665.3046875
 10
764.673828125
 20
-671.4921875
 10
767.8662109375
 20
-676.0244140625
 10
769.4677734375
 20
-678.314453125
 10
772.6357421875
 20
-679.353515625
 10
775.07421875
 20
-678.3564453125
 10
776.1181640625
 20
-677.94140625
 10
776.7890625
 20
-677.4013671875
 10
777.3701171875
 20
-676.873046875
 10
779.03125
 20
-675.3427734375
 10
779.619140625
 20
-672.578125
 10
778.740234375
 20
-670.435546875
 10
778.740234375
 20
-670.435546875
 10
778.5859375
 20
-670.056640625
 10
778.5859375
 20
-670.056640625
 10
776.8662109375
 20
-665.8623046875
 10
775.376953125
 20
-662.2373046875
 10
775.435546875
 20
-657.9296875
 10
775.4951171875
 20
-653.4150390625
 10
777.1982421875
 20
-649.1669921875
 10
778.8828125
 20
-645.0498046875
 10
779.95703125
 20
-644.314453125
 10
781.04296875
 20
-643.6025390625
 10
782.1640625
 20
-642.92578125
 10
790.0185546875
 20
-638.19140625
 10
799.576171875
 20
-635.48046875
 10
808.380859375
 20
-635.48046875
 10
817.203125
 20
-635.48046875
 10
832.830078125
 20
-638.19140625
 10
838.3349609375
 20
-656.357421875
 10
841.6279296875
 20
-667.2265625
 10
837.6708984375
 20
-679.39453125
 10
828.931640625
 20
-685.2861328125
 10
823.580078125
 20
-688.88671875
 10
817.6240234375
 20
-689.224609375
 10
812.80078125
 20
-686.17578125
 10
810.2734375
 20
-684.5439453125
 10
808.3447265625
 20
-682.390625
 10
806.8623046875
 20
-679.513671875
 10
806.7138671875
 20
-679.24609375
 10
806.5771484375
 20
-678.9794921875
 10
806.458984375
 20
-678.7119140625
 10
806.482421875
 20
-678.7119140625
 10
806.51171875
 20
-678.7119140625
 10
806.541015625
 20
-678.7119140625
 10
810.92578125
 20
-678.7119140625
 10
815.06640625
 20
-676.724609375
 10
817.6123046875
 20
-673.390625
 10
820.2109375
 20
-669.9912109375
 10
820.91015625
 20
-665.46484375
 10
819.599609375
 20
-660.634765625
 10
817.9501953125
 20
-654.578125
 10
812.841796875
 20
-650.662109375
 10
806.5830078125
 20
-650.662109375
 10
804.3583984375
 20
-650.662109375
 10
802.080078125
 20
-651.171875
 10
799.986328125
 20
-652.1396484375
 10
790.58203125
 20
-656.4765625
 10
787.876953125
 20
-667.6533203125
 10
788.4169921875
 20
-675.90625
 10
789.4970703125
 20
-692.51171875
 10
803.4501953125
 20
-706.0263671875
 10
819.5283203125
 20
-706.0263671875
 10
821.373046875
 20
-706.0263671875
 10
823.23046875
 20
-705.8427734375
 10
825.0400390625
 20
-705.48046875
 10
842.03125
 20
-702.0869140625
 10
855.7001953125
 20
-684.431640625
 10
856.1572265625
 20
-665.2861328125
 10
856.6201171875
 20
-646.1474609375
 10
844.6357421875
 20
-628.111328125
 10
827.009765625
 20
-621.4140625
 10
823.865234375
 20
-620.220703125
 10
820.578125
 20
-619.35546875
 10
817.203125
 20
-618.8330078125
 10
817.203125
 20
-618.8330078125
 10
817.203125
 20
-618.0732421875
 10
817.203125
 20
-618.0732421875
 10
817.203125
 20
-618.0732421875
 10
180.9716796875
 20
-618.0732421875
 10
180.9716796875
 20
-618.0732421875
 97
        0
 92
        1
 93
        1
 72
     4
 94
        3
 73
     0
 74
     1
 95
       14
 96
       10
 40
0.0
 40
0.0
 40
0.0
 40
0.0
 40
1.0
 40
1.0
 40
1.0
 40
2.0
 40
2.0
 40
2.0
 40
3.0
 40
3.0
 40
3.0
 40
3.0
 10
362.923828125
 20
-631.6474609375
 10
362.923828125
 20
-631.6474609375
 10
353.88818359375
 20
-659.4482421875
 10
353.88818359375
 20
-659.4482421875
 10
348.3408203125
 20
-649.6357421875
 10
345.45751953125
 20
-640.0693359375
 10
345.6357421875
 20
-631.6474609375
 10
345.6357421875
 20
-631.6474609375
 10
362.923828125
 20
-631.6474609375
 10
362.923828125
 20
-631.6474609375
 97
        0
 92
        1
 93
        1
 72
     4
 94
        3
 73
     0
 74
     1
 95
       26
 96
       22
 40
0.0
 40
0.0
 40
0.0
 40
0.0
 40
1.0
 40
1.0
 40
1.0
 40
2.0
 40
2.0
 40
2.0
 40
3.0
 40
3.0
 40
3.0
 40
4.0
 40
4.0
 40
4.0
 40
5.0
 40
5.0
 40
5.0
 40
6.0
 40
6.0
 40
6.0
 40
7.0
 40
7.0
 40
7.0
 40
7.0
 10
259.86279296875
 20
-764.33984375
 10
255.6240234375
 20
-765.2119140625
 10
251.5361328125
 20
-763.888671875
 10
247.0927734375
 20
-760.1923828125
 10
239.3564453125
 20
-746.939453125
 10
236.33642578125
 20
-730.369140625
 10
238.8046875
 20
-714.640625
 10
241.53662109375
 20
-697.234375
 10
249.560546875
 20
-681.287109375
 10
261.8828125
 20
-667.90234375
 10
261.8828125
 20
-667.90234375
 10
287.310546875
 20
-750.017578125
 10
287.310546875
 20
-750.017578125
 10
285.9404296875
 20
-749.2353515625
 10
284.42138671875
 20
-748.7900390625
 10
282.8818359375
 20
-748.7900390625
 10
280.4287109375
 20
-748.7900390625
 10
278.12109375
 20
-749.8994140625
 10
276.3828125
 20
-751.9169921875
 10
271.21484375
 20
-757.9150390625
 10
266.40380859375
 20
-762.9873046875
 10
259.86279296875
 20
-764.33984375
 97
        0
 92
        1
 93
        1
 72
     4
 94
        3
 73
     0
 74
     1
 95
       20
 96
       16
 40
0.0
 40
0.0
 40
0.0
 40
0.0
 40
1.0
 40
1.0
 40
1.0
 40
2.0
 40
2.0
 40
2.0
 40
3.0
 40
3.0
 40
3.0
 40
4.0
 40
4.0
 40
4.0
 40
5.0
 40
5.0
 40
5.0
 40
5.0
 10
291.0302734375
 20
-787.2998046875
 10
287.275390625
 20
-787.2998046875
 10
283.576171875
 20
-786.8134765625
 10
280.025390625
 20
-785.857421875
 10
273.85546875
 20
-784.203125
 10
268.1923828125
 20
-781.5390625
 10
263.10205078125
 20
-777.908203125
 10
275.73583984375
 20
-778.33203125
 10
286.46826171875
 20
-772.6904296875
 10
291.35693359375
 20
-763.08203125
 10
291.35693359375
 20
-763.08203125
 10
298.64208984375
 20
-786.6083984375
 10
298.64208984375
 20
-786.6083984375
 10
296.1416015625
 20
-787.0478515625
 10
293.5966796875
 20
-787.2998046875
 10
291.0302734375
 20
-787.2998046875
 97
        0
 92
        1
 93
        1
 72
     4
 94
        3
 73
     0
 74
     1
 95
       20
 96
       16
 40
0.0
 40
0.0
 40
0.0
 40
0.0
 40
1.0
 40
1.0
 40
1.0
 40
2.0
 40
2.0
 40
2.0
 40
3.0
 40
3.0
 40
3.0
 40
4.0
 40
4.0
 40
4.0
 40
5.0
 40
5.0
 40
5.0
 40
5.0
 10
408.015625
 20
-706.7861328125
 10
399.44873046875
 20
-704.32421875
 10
389.10498046875
 20
-698.1123046875
 10
379.2626953125
 20
-689.646484375
 10
381.3388671875
 20
-689.9072265625
 10
383.40966796875
 20
-690.150390625
 10
385.4501953125
 20
-690.3935546875
 10
388.36328125
 20
-690.73828125
 10
391.2587890625
 20
-691.08203125
 10
394.1240234375
 20
-691.4560546875
 10
415.80859375
 20
-694.279296875
 10
435.3984375
 20
-699.423828125
 10
452.49072265625
 20
-706.7744140625
 10
437.130859375
 20
-710.4228515625
 10
420.83349609375
 20
-710.46484375
 10
408.015625
 20
-706.7861328125
 97
        0
 92
        1
 93
        1
 72
     4
 94
        3
 73
     0
 74
     1
 95
       35
 96
       31
 40
0.0
 40
0.0
 40
0.0
 40
0.0
 40
1.0
 40
1.0
 40
1.0
 40
2.0
 40
2.0
 40
2.0
 40
3.0
 40
3.0
 40
3.0
 40
4.0
 40
4.0
 40
4.0
 40
5.0
 40
5.0
 40
5.0
 40
6.0
 40
6.0
 40
6.0
 40
7.0
 40
7.0
 40
7.0
 40
8.0
 40
8.0
 40
8.0
 40
9.0
 40
9.0
 40
9.0
 40
10.0
 40
10.0
 40
10.0
 40
10.0
 10
474.2548828125
 20
-698.806640625
 10
471.76611328125
 20
-697.73828125
 10
469.1943359375
 20
-696.7177734375
 10
466.58984375
 20
-695.7626953125
 10
442.86181640625
 20
-687.095703125
 10
418.4306640625
 20
-683.8857421875
 10
394.80029296875
 20
-680.783203125
 10
386.98095703125
 20
-679.7568359375
 10
378.89453125
 20
-678.6943359375
 10
370.8916015625
 20
-677.4482421875
 10
369.83251953125
 20
-677.279296875
 10
368.7763671875
 20
-677.0927734375
 10
367.72021484375
 20
-676.908203125
 10
367.72021484375
 20
-676.908203125
 10
382.3359375
 20
-631.6474609375
 10
382.3359375
 20
-631.6474609375
 10
382.3359375
 20
-631.6474609375
 10
452.9892578125
 20
-631.6474609375
 10
452.9892578125
 20
-631.6474609375
 10
451.9091796875
 20
-633.171875
 10
450.9775390625
 20
-634.7919921875
 10
450.20068359375
 20
-636.5068359375
 10
442.36328125
 20
-653.7646484375
 10
451.86474609375
 20
-673.8173828125
 10
465.578125
 20
-683.2392578125
 10
471.4990234375
 20
-687.302734375
 10
478.04296875
 20
-690.251953125
 10
485.09130859375
 20
-692.025390625
 10
481.83984375
 20
-694.4931640625
 10
478.208984375
 20
-696.765625
 10
474.2548828125
 20
-698.806640625
 97
        0
 92
        1
 93
        1
 72
     4
 94
        3
 73
     0
 74
     1
 95
       23
 96
       19
 40
0.0
 40
0.0
 40
0.0
 40
0.0
 40
1.0
 40
1.0
 40
1.0
 40
2.0
 40
2.0
 40
2.0
 40
3.0
 40
3.0
 40
3.0
 40
4.0
 40
4.0
 40
4.0
 40
5.0
 40
5.0
 40
5.0
 40
6.0
 40
6.0
 40
6.0
 40
6.0
 10
497.5205078125
 20
-678.8251953125
 10
485.58349609375
 20
-678.30859375
 10
476.3818359375
 20
-674.8740234375
 10
470.15234375
 20
-668.615234375
 10
464.48681640625
 20
-662.9248046875
 10
461.27392578125
 20
-654.3642578125
 10
462.1611328125
 20
-647.310546875
 10
462.810546875
 20
-642.142578125
 10
465.45361328125
 20
-638.14453125
 10
470.02197265625
 20
-635.4267578125
 10
473.1455078125
 20
-633.564453125
 10
476.48876953125
 20
-632.62109375
 10
479.953125
 20
-632.62109375
 10
490.4306640625
 20
-632.62109375
 10
500.49853515625
 20
-641.330078125
 10
502.87890625
 20
-652.4423828125
 10
505.228515625
 20
-663.41796875
 10
501.4775390625
 20
-672.6484375
 10
497.5205078125
 20
-678.8251953125
 97
        0
 92
        1
 93
        1
 72
     4
 94
        3
 73
     0
 74
     1
 95
       20
 96
       16
 40
0.0
 40
0.0
 40
0.0
 40
0.0
 40
1.0
 40
1.0
 40
1.0
 40
2.0
 40
2.0
 40
2.0
 40
3.0
 40
3.0
 40
3.0
 40
4.0
 40
4.0
 40
4.0
 40
5.0
 40
5.0
 40
5.0
 40
5.0
 10
514.3291015625
 20
-677.8046875
 10
515.224609375
 20
-675.6328125
 10
515.97265625
 20
-673.408203125
 10
516.5537109375
 20
-671.154296875
 10
520.1845703125
 20
-657.0283203125
 10
517.0224609375
 20
-642.0361328125
 10
508.669921875
 20
-631.6474609375
 10
508.669921875
 20
-631.6474609375
 10
555.751953125
 20
-631.6474609375
 10
555.751953125
 20
-631.6474609375
 10
556.427734375
 20
-640.884765625
 10
558.8134765625
 20
-650.798828125
 10
562.865234375
 20
-661.1923828125
 10
548.8994140625
 20
-668.0810546875
 10
532.51953125
 20
-675.0810546875
 10
514.3291015625
 20
-677.8046875
 97
        0
 92
        1
 93
        3
 72
     1
 10
737.685546875
 20
-631.6474609375
 11
728.1220703125
 21
-664.900390625
 72
     1
 10
728.1220703125
 20
-664.900390625
 11
715.9716796875
 21
-631.6474609375
 72
     1
 10
715.9716796875
 20
-631.6474609375
 11
737.685546875
 21
-631.6474609375
 97
        0
 92
        1
 93
        1
 72
     4
 94
        3
 73
     0
 74
     1
 95
       20
 96
       16
 40
0.0
 40
0.0
 40
0.0
 40
0.0
 40
1.0
 40
1.0
 40
1.0
 40
2.0
 40
2.0
 40
2.0
 40
3.0
 40
3.0
 40
3.0
 40
4.0
 40
4.0
 40
4.0
 40
5.0
 40
5.0
 40
5.0
 40
5.0
 10
571.2421875
 20
-632.8876953125
 10
571.2421875
 20
-632.8876953125
 10
570.892578125
 20
-631.6474609375
 10
570.892578125
 20
-631.6474609375
 10
570.892578125
 20
-631.6474609375
 10
621.587890625
 20
-631.6474609375
 10
621.587890625
 20
-631.6474609375
 10
608.689453125
 20
-636.9873046875
 10
596.2783203125
 20
-643.6201171875
 10
584.158203125
 20
-650.1044921875
 10
581.927734375
 20
-651.296875
 10
579.6904296875
 20
-652.4951171875
 10
577.4541015625
 20
-653.681640625
 10
575.205078125
 20
-646.7587890625
 10
573.1943359375
 20
-639.72265625
 10
571.2421875
 20
-632.8876953125
 97
        0
 92
        1
 93
        1
 72
     4
 94
        3
 73
     0
 74
     1
 95
       23
 96
       19
 40
0.0
 40
0.0
 40
0.0
 40
0.0
 40
1.0
 40
1.0
 40
1.0
 40
2.0
 40
2.0
 40
2.0
 40
3.0
 40
3.0
 40
3.0
 40
4.0
 40
4.0
 40
4.0
 40
5.0
 40
5.0
 40
5.0
 40
6.0
 40
6.0
 40
6.0
 40
6.0
 10
598.7705078125
 20
-695.845703125
 10
592.6474609375
 20
-688.744140625
 10
587.349609375
 20
-679.595703125
 10
582.615234375
 20
-667.9267578125
 10
584.5498046875
 20
-666.947265625
 10
586.4658203125
 20
-665.98046875
 10
588.3583984375
 20
-665.025390625
 10
595.9404296875
 20
-661.1806640625
 10
603.107421875
 20
-657.5498046875
 10
609.626953125
 20
-654.607421875
 10
615.791015625
 20
-651.8251953125
 10
622.0859375
 20
-649.119140625
 10
628.421875
 20
-646.7314453125
 10
628.421875
 20
-646.7314453125
 10
657.1845703125
 20
-724.5751953125
 10
657.1845703125
 20
-724.5751953125
 10
634.9423828125
 20
-723.943359375
 10
614.2724609375
 20
-713.8193359375
 10
598.7705078125
 20
-695.845703125
 97
        0
 92
        1
 93
        1
 72
     4
 94
        3
 73
     0
 74
     1
 95
       17
 96
       13
 40
0.0
 40
0.0
 40
0.0
 40
0.0
 40
1.0
 40
1.0
 40
1.0
 40
2.0
 40
2.0
 40
2.0
 40
3.0
 40
3.0
 40
3.0
 40
4.0
 40
4.0
 40
4.0
 40
4.0
 10
767.046875
 20
-634.3466796875
 10
762.0751953125
 20
-638.2919921875
 10
757.6201171875
 20
-642.73046875
 10
753.4912109375
 20
-647.4404296875
 10
753.4912109375
 20
-647.4404296875
 10
758.1005859375
 20
-631.6474609375
 10
758.1005859375
 20
-631.6474609375
 10
758.1005859375
 20
-631.6474609375
 10
770.6484375
 20
-631.6474609375
 10
770.6484375
 20
-631.6474609375
 10
769.42578125
 20
-632.513671875
 10
768.2275390625
 20
-633.416015625
 10
767.046875
 20
-634.3466796875
 97
        0
 75
     2
 76
     1
 98
        0
  0
ENDBLK
  5
3F
330
3C
100
AcDbEntity
  8
0
100
AcDbBlockEnd
  0
ENDSEC
  0
SECTION
  2
ENTITIES
  0
INSERT
  5
3D
330
1F
100
AcDbEntity
  8
Layer 1
100
AcDbBlockReference
  2
block 2
 10
0.0
 20
0.0
 30
0.0
  0
ENDSEC
  0
SECTION
  2
OBJECTS
  0
DICTIONARY
  5
C
330
0
100
AcDbDictionary
281
     1
  3
ACAD_GROUP
350
D
  3
ACAD_LAYOUT
350
1A
  3
ACAD_MLINESTYLE
350
17
  3
ACAD_PLOTSETTINGS
350
19
  3
ACAD_PLOTSTYLENAME
350
E
  3
ACAD_TABLESTYLE
350
6C
  3
ACAD_VISUALSTYLE
350
2A
  0
DICTIONARY
  5
D
102
{ACAD_REACTORS
330
C
102
}
330
C
100
AcDbDictionary
281
     1
  0
DICTIONARY
  5
1A
102
{ACAD_REACTORS
330
C
102
}
330
C
100
AcDbDictionary
281
     1
  3
Layout1
350
1E
  3
Layout2
350
26
  3
Model
350
22
  0
DICTIONARY
  5
17
102
{ACAD_REACTORS
330
C
102
}
330
C
100
AcDbDictionary
281
     1
  3
Standard
350
18
  0
DICTIONARY
  5
19
102
{ACAD_REACTORS
330
C
102
}
330
C
100
AcDbDictionary
281
     1
  0
ACDBDICTIONARYWDFLT
  5
E
102
{ACAD_REACTORS
330
C
102
}
330
C
100
AcDbDictionary
281
     1
  3
Normal
350
F
100
AcDbDictionaryWithDefault
340
F
  0
DICTIONARY
  5
6C
102
{ACAD_REACTORS
330
C
102
}
330
C
100
AcDbDictionary
281
     1
  0
DICTIONARY
  5
2A
102
{ACAD_REACTORS
330
C
102
}
330
C
100
AcDbDictionary
281
     1
  3
2dWireframe
350
2F
  3
3D Hidden
350
31
  3
3dWireframe
350
30
  3
Basic
350
32
  3
Brighten
350
36
  3
ColorChange
350
3A
  3
Conceptual
350
34
  3
Dim
350
35
  3
Facepattern
350
39
  3
Flat
350
2B
  3
FlatWithEdges
350
2C
  3
Gouraud
350
2D
  3
GouraudWithEdges
350
2E
  3
Linepattern
350
38
  3
Realistic
350
33
  3
Thicken
350
37
  0
LAYOUT
  5
1E
102
{ACAD_REACTORS
330
1A
102
}
330
1A
100
AcDbPlotSettings
  1

  2
none_device
  4

  6

 40
0.0
 41
0.0
 42
0.0
 43
0.0
 44
0.0
 45
0.0
 46
0.0
 47
0.0
 48
0.0
 49
0.0
140
0.0
141
0.0
142
1.0
143
1.0
 70
   688
 72
     0
 73
     0
 74
     5
  7

 75
    16
147
1.0
148
0.0
149
0.0
100
AcDbLayout
  1
Layout1
 70
     1
 71
     1
 10
0.0
 20
0.0
 11
12.0
 21
9.0
 12
0.0
 22
0.0
 32
0.0
 14
1.000000000000000E+20
 24
1.000000000000000E+20
 34
1.000000000000000E+20
 15
-1.000000000000000E+20
 25
-1.000000000000000E+20
 35
-1.000000000000000E+20
146
0.0
 13
0.0
 23
0.0
 33
0.0
 16
1.0
 26
0.0
 36
0.0
 17
0.0
 27
1.0
 37
0.0
 76
     0
330
1B
  0
LAYOUT
  5
26
102
{ACAD_REACTORS
330
1A
102
}
330
1A
100
AcDbPlotSettings
  1

  2
none_device
  4

  6

 40
0.0
 41
0.0
 42
0.0
 43
0.0
 44
0.0
 45
0.0
 46
0.0
 47
0.0
 48
0.0
 49
0.0
140
0.0
141
0.0
142
1.0
143
1.0
 70
   688
 72
     0
 73
     0
 74
     5
  7

 75
    16
147
1.0
148
0.0
149
0.0
100
AcDbLayout
  1
Layout2
 70
     1
 71
     2
 10
0.0
 20
0.0
 11
0.0
 21
0.0
 12
0.0
 22
0.0
 32
0.0
 14
0.0
 24
0.0
 34
0.0
 15
0.0
 25
0.0
 35
0.0
146
0.0
 13
0.0
 23
0.0
 33
0.0
 16
1.0
 26
0.0
 36
0.0
 17
0.0
 27
1.0
 37
0.0
 76
     0
330
23
  0
LAYOUT
  5
22
102
{ACAD_REACTORS
330
1A
102
}
330
1A
100
AcDbPlotSettings
  1

  2
none_device
  4

  6

 40
0.0
 41
0.0
 42
0.0
 43
0.0
 44
0.0
 45
0.0
 46
0.0
 47
0.0
 48
0.0
 49
0.0
140
0.0
141
0.0
142
1.0
143
1.0
 70
  1712
 72
     0
 73
     0
 74
     0
  7

 75
     0
147
1.0
148
0.0
149
0.0
100
AcDbLayout
  1
Model
 70
     1
 71
     0
 10
0.0
 20
0.0
 11
12.0
 21
9.0
 12
0.0
 22
0.0
 32
0.0
 14
1.000000000000000E+20
 24
1.000000000000000E+20
 34
1.000000000000000E+20
 15
-1.000000000000000E+20
 25
-1.000000000000000E+20
 35
-1.000000000000000E+20
146
0.0
 13
0.0
 23
0.0
 33
0.0
 16
1.0
 26
0.0
 36
0.0
 17
0.0
 27
1.0
 37
0.0
 76
     0
330
1F
331
29
  0
MLINESTYLE
  5
18
102
{ACAD_REACTORS
330
17
102
}
330
17
100
AcDbMlineStyle
  2
Standard
 70
     0
  3

 62
   256
 51
90.0
 52
90.0
 71
     2
 49
0.5
 62
   256
  6
BYLAYER
 49
-0.5
 62
   256
  6
BYLAYER
  0
ACDBPLACEHOLDER
  5
F
102
{ACAD_REACTORS
330
E
102
}
330
E
  0
VISUALSTYLE
  5
2F
102
{ACAD_REACTORS
330
2A
102
}
330
2A
100
AcDbVisualStyle
  2
2dWireframe
 70
     4
 71
     0
 72
     2
 73
     0
 90
        0
 40
-0.6
 41
-30.0
 62
     5
 63
     7
 74
     1
 91
        4
 64
     7
 65
   257
 75
     1
175
     1
 42
1.0
 92
        0
 66
   257
 43
1.0
 76
     1
 77
     6
 78
     2
 67
     7
 79
     5
170
     0
171
     0
290
     0
174
     0
 93
        1
 44
0.0
173
     0
291
     0
 45
0.0
1001
ACAD
1000
AcDbSavedByObjectVersion
1070
     0
  0
VISUALSTYLE
  5
31
102
{ACAD_REACTORS
330
2A
102
}
330
2A
100
AcDbVisualStyle
  2
3D Hidden
 70
     6
 71
     1
 72
     2
 73
     2
 90
        0
 40
-0.6
 41
-30.0
 62
     5
 63
     7
 74
     2
 91
        2
 64
     7
 65
   257
 75
     2
175
     1
 42
40.0
 92
        0
 66
   257
 43
1.0
 76
     1
 77
     6
 78
     2
 67
     7
 79
     3
170
     0
171
     0
290
     0
174
     0
 93
        1
 44
0.0
173
     0
291
     0
 45
0.0
1001
ACAD
1000
AcDbSavedByObjectVersion
1070
     0
  0
VISUALSTYLE
  5
30
102
{ACAD_REACTORS
330
2A
102
}
330
2A
100
AcDbVisualStyle
  2
3dWireframe
 70
     5
 71
     0
 72
     2
 73
     0
 90
        0
 40
-0.6
 41
-30.0
 62
     5
 63
     7
 74
     1
 91
        4
 64
     7
 65
   257
 75
     1
175
     1
 42
1.0
 92
        0
 66
   257
 43
1.0
 76
     1
 77
     6
 78
     2
 67
     7
 79
     5
170
     0
171
     0
290
     0
174
     0
 93
        1
 44
0.0
173
     0
291
     0
 45
0.0
1001
ACAD
1000
AcDbSavedByObjectVersion
1070
     0
  0
VISUALSTYLE
  5
32
102
{ACAD_REACTORS
330
2A
102
}
330
2A
100
AcDbVisualStyle
  2
Basic
 70
     7
 71
     1
 72
     0
 73
     1
 90
        0
 40
-0.6
 41
-30.0
 62
     5
 63
     7
 74
     0
 91
        4
 64
     7
 65
   257
 75
     1
175
     1
 42
1.0
 92
        8
 66
     7
 43
1.0
 76
     1
 77
     6
 78
     2
 67
     7
 79
     5
170
     0
171
     0
290
     0
174
     0
 93
        1
 44
0.0
173
     0
291
     1
 45
0.0
1001
ACAD
1000
AcDbSavedByObjectVersion
1070
     0
  0
VISUALSTYLE
  5
36
102
{ACAD_REACTORS
330
2A
102
}
330
2A
100
AcDbVisualStyle
  2
Brighten
 70
    12
 71
     2
 72
     2
 73
     0
 90
        0
 40
-0.6
 41
-30.0
 62
     5
 63
     7
 74
     1
 91
        4
 64
     7
 65
   257
 75
     1
175
     1
 42
1.0
 92
        8
 66
     7
 43
1.0
 76
     1
 77
     6
 78
     2
 67
     7
 79
     5
170
     0
171
     0
290
     0
174
     0
 93
        1
 44
50.0
173
     0
291
     1
 45
0.0
1001
ACAD
1000
AcDbSavedByObjectVersion
1070
     0
  0
VISUALSTYLE
  5
3A
102
{ACAD_REACTORS
330
2A
102
}
330
2A
100
AcDbVisualStyle
  2
ColorChange
 70
    16
 71
     2
 72
     2
 73
     3
 90
        0
 40
-0.6
 41
-30.0
 62
     5
 63
     8
 74
     1
 91
        4
 64
     7
 65
   257
 75
     1
175
     1
 42
1.0
 92
        8
 66
     8
 43
1.0
 76
     1
 77
     6
 78
     2
 67
     7
 79
     5
170
     0
171
     0
290
     0
174
     0
 93
        1
 44
0.0
173
     0
291
     1
 45
0.0
1001
ACAD
1000
AcDbSavedByObjectVersion
1070
     0
  0
VISUALSTYLE
  5
34
102
{ACAD_REACTORS
330
2A
102
}
330
2A
100
AcDbVisualStyle
  2
Conceptual
 70
     9
 71
     3
 72
     2
 73
     0
 90
        0
 40
-0.6
 41
-30.0
 62
     5
 63
     7
 74
     2
 91
        2
 64
     7
 65
   257
 75
     1
175
     1
 42
40.0
 92
        8
 66
     7
 43
1.0
 76
     1
 77
     6
 78
     2
 67
     7
 79
     3
170
     0
171
     0
290
     0
174
     0
 93
        1
 44
0.0
173
     0
291
     0
 45
0.0
1001
ACAD
1000
AcDbSavedByObjectVersion
1070
     0
  0
VISUALSTYLE
  5
35
102
{ACAD_REACTORS
330
2A
102
}
330
2A
100
AcDbVisualStyle
  2
Dim
 70
    11
 71
     2
 72
     2
 73
     0
 90
        0
 40
-0.6
 41
-30.0
 62
     5
 63
     7
 74
     1
 91
        4
 64
     7
 65
   257
 75
     1
175
     1
 42
1.0
 92
        8
 66
     7
 43
1.0
 76
     1
 77
     6
 78
     2
 67
     7
 79
     5
170
     0
171
     0
290
     0
174
     0
 93
        1
 44
-50.0
173
     0
291
     1
 45
0.0
1001
ACAD
1000
AcDbSavedByObjectVersion
1070
     0
  0
VISUALSTYLE
  5
39
102
{ACAD_REACTORS
330
2A
102
}
330
2A
100
AcDbVisualStyle
  2
Facepattern
 70
    15
 71
     2
 72
     2
 73
     0
 90
        0
 40
-0.6
 41
-30.0
 62
     5
 63
     7
 74
     1
 91
        4
 64
     7
 65
   257
 75
     1
175
     1
 42
1.0
 92
        8
 66
     7
 43
1.0
 76
     1
 77
     6
 78
     2
 67
     7
 79
     5
170
     0
171
     0
290
     0
174
     0
 93
        1
 44
0.0
173
     0
291
     1
 45
0.0
1001
ACAD
1000
AcDbSavedByObjectVersion
1070
     0
  0
VISUALSTYLE
  5
2B
102
{ACAD_REACTORS
330
2A
102
}
330
2A
100
AcDbVisualStyle
  2
Flat
 70
     0
 71
     2
 72
     1
 73
     1
 90
        2
 40
-0.6
 41
30.0
 62
     5
 63
     7
 74
     0
 91
        4
 64
     7
 65
   257
 75
     1
175
     1
 42
1.0
 92
        8
 66
     7
 43
1.0
 76
     1
 77
     6
 78
     2
 67
     7
 79
     5
170
     0
171
     0
290
     0
174
     0
 93
       13
 44
0.0
173
     0
291
     1
 45
0.0
1001
ACAD
1000
AcDbSavedByObjectVersion
1070
     0
  0
VISUALSTYLE
  5
2C
102
{ACAD_REACTORS
330
2A
102
}
330
2A
100
AcDbVisualStyle
  2
FlatWithEdges
 70
     1
 71
     2
 72
     1
 73
     1
 90
        2
 40
-0.6
 41
30.0
 62
     5
 63
     7
 74
     1
 91
        4
 64
     7
 65
   257
 75
     1
175
     1
 42
1.0
 92
        0
 66
   257
 43
1.0
 76
     1
 77
     6
 78
     2
 67
     7
 79
     5
170
     0
171
     0
290
     0
174
     0
 93
       13
 44
0.0
173
     0
291
     1
 45
0.0
1001
ACAD
1000
AcDbSavedByObjectVersion
1070
     0
  0
VISUALSTYLE
  5
2D
102
{ACAD_REACTORS
330
2A
102
}
330
2A
100
AcDbVisualStyle
  2
Gouraud
 70
     2
 71
     2
 72
     2
 73
     1
 90
        2
 40
-0.6
 41
30.0
 62
     5
 63
     7
 74
     0
 91
        4
 64
     7
 65
   257
 75
     1
175
     1
 42
1.0
 92
        0
 66
     7
 43
1.0
 76
     1
 77
     6
 78
     2
 67
     7
 79
     5
170
     0
171
     0
290
     0
174
     0
 93
       13
 44
0.0
173
     0
291
     1
 45
0.0
1001
ACAD
1000
AcDbSavedByObjectVersion
1070
     0
  0
VISUALSTYLE
  5
2E
102
{ACAD_REACTORS
330
2A
102
}
330
2A
100
AcDbVisualStyle
  2
GouraudWithEdges
 70
     3
 71
     2
 72
     2
 73
     1
 90
        2
 40
-0.6
 41
30.0
 62
     5
 63
     7
 74
     1
 91
        4
 64
     7
 65
   257
 75
     1
175
     1
 42
1.0
 92
        0
 66
   257
 43
1.0
 76
     1
 77
     6
 78
     2
 67
     7
 79
     5
170
     0
171
     0
290
     0
174
     0
 93
       13
 44
0.0
173
     0
291
     1
 45
0.0
1001
ACAD
1000
AcDbSavedByObjectVersion
1070
     0
  0
VISUALSTYLE
  5
38
102
{ACAD_REACTORS
330
2A
102
}
330
2A
100
AcDbVisualStyle
  2
Linepattern
 70
    14
 71
     2
 72
     2
 73
     0
 90
        0
 40
-0.6
 41
-30.0
 62
     5
 63
     7
 74
     1
 91
        4
 64
     7
 65
   257
 75
     7
175
     7
 42
1.0
 92
        8
 66
     7
 43
1.0
 76
     1
 77
     6
 78
     2
 67
     7
 79
     5
170
     0
171
     0
290
     0
174
     0
 93
        1
 44
0.0
173
     0
291
     1
 45
0.0
1001
ACAD
1000
AcDbSavedByObjectVersion
1070
     0
  0
VISUALSTYLE
  5
33
102
{ACAD_REACTORS
330
2A
102
}
330
2A
100
AcDbVisualStyle
  2
Realistic
 70
     8
 71
     2
 72
     2
 73
     0
 90
        0
 40
-0.6
 41
-30.0
 62
     5
 63
     7
 74
     1
 91
        0
 64
     7
 65
   257
 75
     1
175
     1
 42
1.0
 92
        8
 66
     8
 43
1.0
 76
     1
 77
     6
 78
     2
 67
     7
 79
     5
170
     0
171
     0
290
     0
174
     0
 93
       13
 44
0.0
173
     0
291
     0
 45
0.0
1001
ACAD
1000
AcDbSavedByObjectVersion
1070
     0
  0
VISUALSTYLE
  5
37
102
{ACAD_REACTORS
330
2A
102
}
330
2A
100
AcDbVisualStyle
  2
Thicken
 70
    13
 71
     2
 72
     2
 73
     0
 90
        0
 40
-0.6
 41
-30.0
 62
     5
 63
     7
 74
     1
 91
        4
 64
     7
 65
   257
 75
     1
175
     1
 42
1.0
 92
       12
 66
     7
 43
1.0
 76
     1
 77
     6
 78
     2
 67
     7
 79
     5
170
     0
171
     0
290
     0
174
     0
 93
        1
 44
0.0
173
     0
291
     1
 45
0.0
1001
ACAD
1000
AcDbSavedByObjectVersion
1070
     0
  0
ENDSEC
  0
EOF
