  0
SECTION
  2
HEADER
  9
$ACADVER
  1
AC1018
  9
$ACADMAINTVER
 70
     0
  9
$DWGCODEPAGE
  3
ANSI_1251
  9
$INSBASE
 10
0.0
 20
0.0
 30
0.0
  9
$EXTMIN
 10
1.000000000000000E+20
 20
1.000000000000000E+20
 30
1.000000000000000E+20
  9
$EXTMAX
 10
-1.000000000000000E+20
 20
-1.000000000000000E+20
 30
-1.000000000000000E+20
  9
$LIMMIN
 10
0.0
 20
0.0
  9
$LIMMAX
 10
12.0
 20
9.0
  9
$ORTHOMODE
 70
     0
  9
$REGENMODE
 70
     1
  9
$FILLMODE
 70
     1
  9
$QTEXTMODE
 70
     0
  9
$MIRRTEXT
 70
     1
  9
$LTSCALE
 40
1.0
  9
$ATTMODE
 70
     1
  9
$TEXTSIZE
 40
0.2
  9
$TRACEWID
 40
0.05
  9
$TEXTSTYLE
  7
Standard
  9
$CLAYER
  8
0
  9
$CELTYPE
  6
ByLayer
  9
$CECOLOR
 62
   256
  9
$CELTSCALE
 40
1.0
  9
$DISPSILH
 70
     0
  9
$DIMSCALE
 40
1.0
  9
$DIMASZ
 40
0.18
  9
$DIMEXO
 40
0.0625
  9
$DIMDLI
 40
0.38
  9
$DIMRND
 40
0.0
  9
$DIMDLE
 40
0.0
  9
$DIMEXE
 40
0.18
  9
$DIMTP
 40
0.0
  9
$DIMTM
 40
0.0
  9
$DIMTXT
 40
0.18
  9
$DIMCEN
 40
0.09
  9
$DIMTSZ
 40
0.0
  9
$DIMTOL
 70
     0
  9
$DIMLIM
 70
     0
  9
$DIMTIH
 70
     1
  9
$DIMTOH
 70
     1
  9
$DIMSE1
 70
     0
  9
$DIMSE2
 70
     0
  9
$DIMTAD
 70
     0
  9
$DIMZIN
 70
     0
  9
$DIMBLK
  1

  9
$DIMASO
 70
     1
  9
$DIMSHO
 70
     1
  9
$DIMPOST
  1

  9
$DIMAPOST
  1

  9
$DIMALT
 70
     0
  9
$DIMALTD
 70
     2
  9
$DIMALTF
 40
25.4
  9
$DIMLFAC
 40
1.0
  9
$DIMTOFL
 70
     0
  9
$DIMTVP
 40
0.0
  9
$DIMTIX
 70
     0
  9
$DIMSOXD
 70
     0
  9
$DIMSAH
 70
     0
  9
$DIMBLK1
  1

  9
$DIMBLK2
  1

  9
$DIMSTYLE
  2
Standard
  9
$DIMCLRD
 70
     0
  9
$DIMCLRE
 70
     0
  9
$DIMCLRT
 70
     0
  9
$DIMTFAC
 40
1.0
  9
$DIMGAP
 40
0.09
  9
$DIMJUST
 70
     0
  9
$DIMSD1
 70
     0
  9
$DIMSD2
 70
     0
  9
$DIMTOLJ
 70
     1
  9
$DIMTZIN
 70
     0
  9
$DIMALTZ
 70
     0
  9
$DIMALTTZ
 70
     0
  9
$DIMUPT
 70
     0
  9
$DIMDEC
 70
     4
  9
$DIMTDEC
 70
     4
  9
$DIMALTU
 70
     2
  9
$DIMALTTD
 70
     2
  9
$DIMTXSTY
  7
Standard
  9
$DIMAUNIT
 70
     0
  9
$DIMADEC
 70
     0
  9
$DIMALTRND
 40
0.0
  9
$DIMAZIN
 70
     0
  9
$DIMDSEP
 70
    46
  9
$DIMATFIT
 70
     3
  9
$DIMFRAC
 70
     0
  9
$DIMLDRBLK
  1

  9
$DIMLUNIT
 70
     2
  9
$DIMLWD
 70
    -2
  9
$DIMLWE
 70
    -2
  9
$DIMTMOVE
 70
     0
  9
$LUNITS
 70
     2
  9
$LUPREC
 70
     4
  9
$SKETCHINC
 40
0.1
  9
$FILLETRAD
 40
0.5
  9
$AUNITS
 70
     0
  9
$AUPREC
 70
     0
  9
$MENU
  1
.
  9
$ELEVATION
 40
0.0
  9
$PELEVATION
 40
0.0
  9
$THICKNESS
 40
0.0
  9
$LIMCHECK
 70
     0
  9
$CHAMFERA
 40
0.5
  9
$CHAMFERB
 40
0.5
  9
$CHAMFERC
 40
1.0
  9
$CHAMFERD
 40
0.0
  9
$SKPOLY
 70
     0
  9
$TDCREATE
 40
2457123.723450694
  9
$TDUCREATE
 40
2457123.556784028
  9
$TDUPDATE
 40
2457123.723450706
  9
$TDUUPDATE
 40
2457123.556784039
  9
$TDINDWG
 40
0.0000000116
  9
$TDUSRTIMER
 40
0.0000000116
  9
$USRTIMER
 70
     1
  9
$ANGBASE
 50
0.0
  9
$ANGDIR
 70
     0
  9
$PDMODE
 70
     0
  9
$PDSIZE
 40
0.0
  9
$PLINEWID
 40
0.0
  9
$SPLFRAME
 70
     0
  9
$SPLINETYPE
 70
     6
  9
$SPLINESEGS
 70
     8
  9
$HANDSEED
  5
52
  9
$SURFTAB1
 70
     6
  9
$SURFTAB2
 70
     6
  9
$SURFTYPE
 70
     6
  9
$SURFU
 70
     6
  9
$SURFV
 70
     6
  9
$UCSBASE
  2

  9
$UCSNAME
  2

  9
$UCSORG
 10
0.0
 20
0.0
 30
0.0
  9
$UCSXDIR
 10
1.0
 20
0.0
 30
0.0
  9
$UCSYDIR
 10
0.0
 20
1.0
 30
0.0
  9
$UCSORTHOREF
  2

  9
$UCSORTHOVIEW
 70
     0
  9
$UCSORGTOP
 10
0.0
 20
0.0
 30
0.0
  9
$UCSORGBOTTOM
 10
0.0
 20
0.0
 30
0.0
  9
$UCSORGLEFT
 10
0.0
 20
0.0
 30
0.0
  9
$UCSORGRIGHT
 10
0.0
 20
0.0
 30
0.0
  9
$UCSORGFRONT
 10
0.0
 20
0.0
 30
0.0
  9
$UCSORGBACK
 10
0.0
 20
0.0
 30
0.0
  9
$PUCSBASE
  2

  9
$PUCSNAME
  2

  9
$PUCSORG
 10
0.0
 20
0.0
 30
0.0
  9
$PUCSXDIR
 10
1.0
 20
0.0
 30
0.0
  9
$PUCSYDIR
 10
0.0
 20
1.0
 30
0.0
  9
$PUCSORTHOREF
  2

  9
$PUCSORTHOVIEW
 70
     0
  9
$PUCSORGTOP
 10
0.0
 20
0.0
 30
0.0
  9
$PUCSORGBOTTOM
 10
0.0
 20
0.0
 30
0.0
  9
$PUCSORGLEFT
 10
0.0
 20
0.0
 30
0.0
  9
$PUCSORGRIGHT
 10
0.0
 20
0.0
 30
0.0
  9
$PUCSORGFRONT
 10
0.0
 20
0.0
 30
0.0
  9
$PUCSORGBACK
 10
0.0
 20
0.0
 30
0.0
  9
$USERI1
 70
     0
  9
$USERI2
 70
     0
  9
$USERI3
 70
     0
  9
$USERI4
 70
     0
  9
$USERI5
 70
     0
  9
$USERR1
 40
0.0
  9
$USERR2
 40
0.0
  9
$USERR3
 40
0.0
  9
$USERR4
 40
0.0
  9
$USERR5
 40
0.0
  9
$WORLDVIEW
 70
     1
  9
$SHADEDGE
 70
     3
  9
$SHADEDIF
 70
    70
  9
$TILEMODE
 70
     1
  9
$MAXACTVP
 70
    64
  9
$PINSBASE
 10
0.0
 20
0.0
 30
0.0
  9
$PLIMCHECK
 70
     0
  9
$PEXTMIN
 10
1.000000000000000E+20
 20
1.000000000000000E+20
 30
1.000000000000000E+20
  9
$PEXTMAX
 10
-1.000000000000000E+20
 20
-1.000000000000000E+20
 30
-1.000000000000000E+20
  9
$PLIMMIN
 10
0.0
 20
0.0
  9
$PLIMMAX
 10
12.0
 20
9.0
  9
$UNITMODE
 70
     0
  9
$VISRETAIN
 70
     1
  9
$PLINEGEN
 70
     0
  9
$PSLTSCALE
 70
     1
  9
$TREEDEPTH
 70
  3020
  9
$CMLSTYLE
  2
Standard
  9
$CMLJUST
 70
     0
  9
$CMLSCALE
 40
1.0
  9
$PROXYGRAPHICS
 70
     1
  9
$MEASUREMENT
 70
     0
  9
$CELWEIGHT
370
    -1
  9
$ENDCAPS
280
     0
  9
$JOINSTYLE
280
     0
  9
$LWDISPLAY
290
     1
  9
$INSUNITS
 70
     1
  9
$HYPERLINKBASE
  1

  9
$STYLESHEET
  1

  9
$XEDIT
290
     1
  9
$CEPSNTYPE
380
     0
  9
$PSTYLEMODE
290
     1
  9
$FINGERPRINTGUID
  2
{E08D35BF-B2E6-4892-84BA-CB12FDB7C24F}
  9
$VERSIONGUID
  2
{FAEB1C32-E019-11D5-929B-00C0DF256EC4}
  9
$EXTNAMES
290
     1
  9
$PSVPSCALE
 40
0.0
  9
$OLESTARTUP
290
     0
  9
$SORTENTS
280
   127
  9
$INDEXCTL
280
     0
  9
$HIDETEXT
280
     1
  9
$XCLIPFRAME
290
     0
  9
$HALOGAP
280
     0
  9
$OBSCOLOR
 70
   257
  9
$OBSLTYPE
280
     0
  9
$INTERSECTIONDISPLAY
280
     0
  9
$INTERSECTIONCOLOR
 70
   257
  9
$DIMASSOC
280
     2
  9
$PROJECTNAME
  1

  0
ENDSEC
  0
SECTION
  2
CLASSES
  0
CLASS
  1
ACDBDICTIONARYWDFLT
  2
AcDbDictionaryWithDefault
  3
ObjectDBX Classes
 90
        0
 91
        3
280
     0
281
     0
  0
CLASS
  1
VISUALSTYLE
  2
AcDbVisualStyle
  3
ObjectDBX Classes
 90
     4095
 91
        3
280
     0
281
     0
  0
ENDSEC
  0
SECTION
  2
TABLES
  0
TABLE
  2
VPORT
  5
8
330
0
100
AcDbSymbolTable
 70
     1
  0
VPORT
  5
29
330
8
100
AcDbSymbolTableRecord
100
AcDbViewportTableRecord
  2
*Active
 70
     0
 10
0.0
 20
0.0
 11
1.0
 21
1.0
 12
0.0
 22
0.0
 13
0.0
 23
0.0
 14
0.5
 24
0.5
 15
0.5
 25
0.5
 16
0.0
 26
0.0
 36
1.0
 17
107.9499999730125
 27
-139.699999965075
 37
0.0
 40
279.39999993015
 41
0.7727272727272728
 42
50.0
 43
0.0
 44
0.0
 50
0.0
 51
0.0
 71
     0
 72
   100
 73
     1
 74
     3
 75
     0
 76
     0
 77
     0
 78
     0
281
     0
 65
     1
110
0.0
120
0.0
130
0.0
111
1.0
121
0.0
131
0.0
112
0.0
122
1.0
132
0.0
 79
     0
146
0.0
  0
ENDTAB
  0
TABLE
  2
LTYPE
  5
5
330
0
100
AcDbSymbolTable
 70
     1
  0
LTYPE
  5
14
330
5
100
AcDbSymbolTableRecord
100
AcDbLinetypeTableRecord
  2
ByBlock
 70
     0
  3

 72
    65
 73
     0
 40
0.0
  0
LTYPE
  5
15
330
5
100
AcDbSymbolTableRecord
100
AcDbLinetypeTableRecord
  2
ByLayer
 70
     0
  3

 72
    65
 73
     0
 40
0.0
  0
LTYPE
  5
16
330
5
100
AcDbSymbolTableRecord
100
AcDbLinetypeTableRecord
  2
Continuous
 70
     0
  3
Solid line
 72
    65
 73
     0
 40
0.0
  0
ENDTAB
  0
TABLE
  2
LAYER
  5
2
330
0
100
AcDbSymbolTable
 70
     2
  0
LAYER
  5
10
330
2
100
AcDbSymbolTableRecord
100
AcDbLayerTableRecord
  2
0
 70
     0
 62
     7
  6
Continuous
370
    -3
390
F
  0
LAYER
  5
3B
330
2
100
AcDbSymbolTableRecord
100
AcDbLayerTableRecord
  2
Layer 1
 70
     0
 62
     7
  6
Continuous
370
    -3
390
F
  0
ENDTAB
  0
TABLE
  2
STYLE
  5
3
330
0
100
AcDbSymbolTable
 70
     1
  0
STYLE
  5
11
330
3
100
AcDbSymbolTableRecord
100
AcDbTextStyleTableRecord
  2
Standard
 70
     0
 40
0.0
 41
1.0
 50
0.0
 71
     0
 42
0.2
  3
txt
  4

  0
ENDTAB
  0
TABLE
  2
VIEW
  5
6
330
0
100
AcDbSymbolTable
 70
     0
  0
ENDTAB
  0
TABLE
  2
UCS
  5
7
330
0
100
AcDbSymbolTable
 70
     0
  0
ENDTAB
  0
TABLE
  2
APPID
  5
9
330
0
100
AcDbSymbolTable
 70
     1
  0
APPID
  5
12
330
9
100
AcDbSymbolTableRecord
100
AcDbRegAppTableRecord
  2
ACAD
 70
     0
  0
ENDTAB
  0
TABLE
  2
DIMSTYLE
  5
A
330
0
100
AcDbSymbolTable
 70
     1
100
AcDbDimStyleTable
  0
DIMSTYLE
105
27
330
A
100
AcDbSymbolTableRecord
100
AcDbDimStyleTableRecord
  2
Standard
 70
     0
340
11
  0
ENDTAB
  0
TABLE
  2
BLOCK_RECORD
  5
1
330
0
100
AcDbSymbolTable
 70
     2
  0
BLOCK_RECORD
  5
1F
330
1
100
AcDbSymbolTableRecord
100
AcDbBlockTableRecord
  2
*Model_Space
340
22
  0
BLOCK_RECORD
  5
1B
330
1
100
AcDbSymbolTableRecord
100
AcDbBlockTableRecord
  2
*Paper_Space
340
1E
  0
BLOCK_RECORD
  5
23
330
1
100
AcDbSymbolTableRecord
100
AcDbBlockTableRecord
  2
*Paper_Space0
340
26
  0
BLOCK_RECORD
  5
3C
330
1
100
AcDbSymbolTableRecord
100
AcDbBlockTableRecord
  2
block 2
340
0
102
{BLKREFS
331
3D
102
}
  0
ENDTAB
  0
ENDSEC
  0
SECTION
  2
BLOCKS
  0
BLOCK
  5
20
330
1F
100
AcDbEntity
  8
0
100
AcDbBlockBegin
  2
*Model_Space
 70
     0
 71
     0
 10
0.0
 20
0.0
 30
0.0
  3
*Model_Space
  1

  0
ENDBLK
  5
21
330
1F
100
AcDbEntity
  8
0
100
AcDbBlockEnd
  0
BLOCK
  5
1C
330
1B
100
AcDbEntity
 67
     1
  8
0
100
AcDbBlockBegin
  2
*Paper_Space
 70
     0
 71
     0
 10
0.0
 20
0.0
 30
0.0
  3
*Paper_Space
  1

  0
ENDBLK
  5
1D
330
1B
100
AcDbEntity
 67
     1
  8
0
100
AcDbBlockEnd
  0
BLOCK
  5
24
330
23
100
AcDbEntity
  8
0
100
AcDbBlockBegin
  2
*Paper_Space0
 70
     0
 71
     0
 10
0.0
 20
0.0
 30
0.0
  3
*Paper_Space0
  1

  0
ENDBLK
  5
25
330
23
100
AcDbEntity
  8
0
100
AcDbBlockEnd
  0
BLOCK
  5
3E
330
3C
100
AcDbEntity
  8
0
100
AcDbBlockBegin
  2
block 2
 70
     0
 71
     0
 10
0.0
 20
0.0
 30
0.0
  3
block 2
  1

  0
SPLINE
  5
40
330
3C
100
AcDbEntity
  8
Layer 1
370
     0
100
AcDbSpline
210
0.0
220
0.0
230
1.0
 70
    11
 71
     3
 72
   395
 73
   391
 74
     0
 42
0.0000000001
 43
0.0000000001
 40
0.0
 40
0.0
 40
0.0
 40
0.0
 40
1.0
 40
1.0
 40
1.0
 40
2.0
 40
2.0
 40
2.0
 40
3.0
 40
3.0
 40
3.0
 40
4.0
 40
4.0
 40
4.0
 40
5.0
 40
5.0
 40
5.0
 40
6.0
 40
6.0
 40
6.0
 40
7.0
 40
7.0
 40
7.0
 40
8.0
 40
8.0
 40
8.0
 40
9.0
 40
9.0
 40
9.0
 40
10.0
 40
10.0
 40
10.0
 40
11.0
 40
11.0
 40
11.0
 40
12.0
 40
12.0
 40
12.0
 40
13.0
 40
13.0
 40
13.0
 40
14.0
 40
14.0
 40
14.0
 40
15.0
 40
15.0
 40
15.0
 40
16.0
 40
16.0
 40
16.0
 40
17.0
 40
17.0
 40
17.0
 40
18.0
 40
18.0
 40
18.0
 40
19.0
 40
19.0
 40
19.0
 40
20.0
 40
20.0
 40
20.0
 40
21.0
 40
21.0
 40
21.0
 40
22.0
 40
22.0
 40
22.0
 40
23.0
 40
23.0
 40
23.0
 40
24.0
 40
24.0
 40
24.0
 40
25.0
 40
25.0
 40
25.0
 40
26.0
 40
26.0
 40
26.0
 40
27.0
 40
27.0
 40
27.0
 40
28.0
 40
28.0
 40
28.0
 40
29.0
 40
29.0
 40
29.0
 40
30.0
 40
30.0
 40
30.0
 40
31.0
 40
31.0
 40
31.0
 40
32.0
 40
32.0
 40
32.0
 40
33.0
 40
33.0
 40
33.0
 40
34.0
 40
34.0
 40
34.0
 40
35.0
 40
35.0
 40
35.0
 40
36.0
 40
36.0
 40
36.0
 40
37.0
 40
37.0
 40
37.0
 40
38.0
 40
38.0
 40
38.0
 40
39.0
 40
39.0
 40
39.0
 40
40.0
 40
40.0
 40
40.0
 40
41.0
 40
41.0
 40
41.0
 40
42.0
 40
42.0
 40
42.0
 40
43.0
 40
43.0
 40
43.0
 40
44.0
 40
44.0
 40
44.0
 40
45.0
 40
45.0
 40
45.0
 40
46.0
 40
46.0
 40
46.0
 40
47.0
 40
47.0
 40
47.0
 40
48.0
 40
48.0
 40
48.0
 40
49.0
 40
49.0
 40
49.0
 40
50.0
 40
50.0
 40
50.0
 40
51.0
 40
51.0
 40
51.0
 40
52.0
 40
52.0
 40
52.0
 40
53.0
 40
53.0
 40
53.0
 40
54.0
 40
54.0
 40
54.0
 40
55.0
 40
55.0
 40
55.0
 40
56.0
 40
56.0
 40
56.0
 40
57.0
 40
57.0
 40
57.0
 40
58.0
 40
58.0
 40
58.0
 40
59.0
 40
59.0
 40
59.0
 40
60.0
 40
60.0
 40
60.0
 40
61.0
 40
61.0
 40
61.0
 40
62.0
 40
62.0
 40
62.0
 40
63.0
 40
63.0
 40
63.0
 40
64.0
 40
64.0
 40
64.0
 40
65.0
 40
65.0
 40
65.0
 40
66.0
 40
66.0
 40
66.0
 40
67.0
 40
67.0
 40
67.0
 40
68.0
 40
68.0
 40
68.0
 40
69.0
 40
69.0
 40
69.0
 40
70.0
 40
70.0
 40
70.0
 40
71.0
 40
71.0
 40
71.0
 40
72.0
 40
72.0
 40
72.0
 40
73.0
 40
73.0
 40
73.0
 40
74.0
 40
74.0
 40
74.0
 40
75.0
 40
75.0
 40
75.0
 40
76.0
 40
76.0
 40
76.0
 40
77.0
 40
77.0
 40
77.0
 40
78.0
 40
78.0
 40
78.0
 40
79.0
 40
79.0
 40
79.0
 40
80.0
 40
80.0
 40
80.0
 40
81.0
 40
81.0
 40
81.0
 40
82.0
 40
82.0
 40
82.0
 40
83.0
 40
83.0
 40
83.0
 40
84.0
 40
84.0
 40
84.0
 40
85.0
 40
85.0
 40
85.0
 40
86.0
 40
86.0
 40
86.0
 40
87.0
 40
87.0
 40
87.0
 40
88.0
 40
88.0
 40
88.0
 40
89.0
 40
89.0
 40
89.0
 40
90.0
 40
90.0
 40
90.0
 40
91.0
 40
91.0
 40
91.0
 40
92.0
 40
92.0
 40
92.0
 40
93.0
 40
93.0
 40
93.0
 40
94.0
 40
94.0
 40
94.0
 40
95.0
 40
95.0
 40
95.0
 40
96.0
 40
96.0
 40
96.0
 40
97.0
 40
97.0
 40
97.0
 40
98.0
 40
98.0
 40
98.0
 40
99.0
 40
99.0
 40
99.0
 40
100.0
 40
100.0
 40
100.0
 40
101.0
 40
101.0
 40
101.0
 40
102.0
 40
102.0
 40
102.0
 40
103.0
 40
103.0
 40
103.0
 40
104.0
 40
104.0
 40
104.0
 40
105.0
 40
105.0
 40
105.0
 40
106.0
 40
106.0
 40
106.0
 40
107.0
 40
107.0
 40
107.0
 40
108.0
 40
108.0
 40
108.0
 40
109.0
 40
109.0
 40
109.0
 40
110.0
 40
110.0
 40
110.0
 40
111.0
 40
111.0
 40
111.0
 40
112.0
 40
112.0
 40
112.0
 40
113.0
 40
113.0
 40
113.0
 40
114.0
 40
114.0
 40
114.0
 40
115.0
 40
115.0
 40
115.0
 40
116.0
 40
116.0
 40
116.0
 40
117.0
 40
117.0
 40
117.0
 40
118.0
 40
118.0
 40
118.0
 40
119.0
 40
119.0
 40
119.0
 40
120.0
 40
120.0
 40
120.0
 40
121.0
 40
121.0
 40
121.0
 40
122.0
 40
122.0
 40
122.0
 40
123.0
 40
123.0
 40
123.0
 40
124.0
 40
124.0
 40
124.0
 40
125.0
 40
125.0
 40
125.0
 40
126.0
 40
126.0
 40
126.0
 40
127.0
 40
127.0
 40
127.0
 40
128.0
 40
128.0
 40
128.0
 40
129.0
 40
129.0
 40
129.0
 40
130.0
 40
130.0
 40
130.0
 40
130.0
 10
117.5576822622773
 20
-133.6152723190267
 30
0.0
 10
117.5576822622773
 20
-133.6152723190267
 30
0.0
 10
118.7376274659753
 20
-131.7671508459645
 30
0.0
 10
118.7376274659753
 20
-131.7671508459645
 30
0.0
 10
118.8802544190647
 20
-131.9423339513894
 30
0.0
 10
119.0242594103481
 20
-132.1156222542975
 30
0.0
 10
119.1727430257624
 20
-132.2802978184924
 30
0.0
 10
119.8362684162215
 20
-133.0151366854962
 30
0.0
 10
120.8008951520914
 20
-133.5077853398869
 30
0.0
 10
121.6036024001547
 20
-133.2094400708643
 30
0.0
 10
122.0514648132371
 20
-133.0406303920871
 30
0.0
 10
122.4521294181717
 20
-132.7595106004907
 30
0.0
 10
122.5206868183282
 20
-132.4280924148096
 30
0.0
 10
122.5951008808096
 20
-132.0825493376391
 30
0.0
 10
122.3711696742683
 20
-132.218975118855
 30
0.0
 10
122.269883867002
 20
-132.2527370546104
 30
0.0
 10
121.7731010980289
 20
-132.4184461474509
 30
0.0
 10
121.1285237327387
 20
-132.5304117507216
 30
0.0
 10
120.6923746443061
 20
-132.2599717551295
 30
0.0
 10
120.911482717168
 20
-132.026049771681
 30
0.0
 10
121.0169026390166
 20
-131.7959173932663
 30
0.0
 10
121.0341281164429
 20
-131.5006727101804
 30
0.0
 10
120.4970377302924
 20
-131.4066216034331
 30
0.0
 10
119.9230848224498
 20
-131.1251573022882
 30
0.0
 10
119.3715250352613
 20
-130.7744465818897
 30
0.0
 10
119.3715250352613
 20
-130.7744465818897
 30
0.0
 10
119.8114637287277
 20
-130.0852552300655
 30
0.0
 10
119.8114637287277
 20
-130.0852552300655
 30
0.0
 10
120.6847954342385
 20
-130.3791218749573
 30
0.0
 10
121.5815537890491
 20
-130.640776877062
 30
0.0
 10
122.4400715839733
 20
-130.7224256400625
 30
0.0
 10
123.103941483981
 20
-130.785815396991
 30
0.0
 10
123.7402506201066
 20
-130.7286268119359
 30
0.0
 10
124.2825086494849
 20
-130.5873778970407
 30
0.0
 10
126.2586154198242
 20
-130.0733696506414
 30
0.0
 10
125.9451117306665
 20
-128.4624430017386
 30
0.0
 10
125.1761664183587
 20
-127.8402587571024
 30
0.0
 10
124.3927517050129
 20
-127.2015380541371
 30
0.0
 10
123.2517360802982
 20
-127.0720024638917
 30
0.0
 10
123.0436523129891
 20
-128.1217230582473
 30
0.0
 10
122.9492566966932
 20
-128.6081705407646
 30
0.0
 10
123.2289984500955
 20
-129.0146918080241
 30
0.0
 10
123.6382757937432
 20
-129.199693435582
 30
0.0
 10
123.6031358197937
 20
-130.0034342122908
 30
0.0
 10
121.5333224522556
 20
-129.6923420899728
 30
0.0
 10
120.3103135549919
 20
-129.3039075740108
 30
0.0
 10
120.3103135549919
 20
-129.3039075740108
 30
0.0
 10
122.035617374005
 20
-126.6017469301551
 30
0.0
 10
122.035617374005
 20
-126.6017469301551
 30
0.0
 10
122.7711452601058
 20
-125.6643364486186
 30
0.0
 10
123.6386203032917
 20
-124.8635240030723
 30
0.0
 10
124.8674858628804
 20
-124.5539821737226
 30
0.0
 10
126.8807996644604
 20
-124.270106305738
 30
0.0
 10
129.1600748375017
 20
-125.5265326292086
 30
0.0
 10
128.1926920252435
 20
-128.0200927414325
 30
0.0
 10
128.0920952370742
 20
-128.2746852977924
 30
0.0
 10
127.978407086061
 20
-128.4669216258694
 30
0.0
 10
127.799262120828
 20
-128.6798285268578
 30
0.0
 10
127.6773057406501
 20
-128.8265895945295
 30
0.0
 10
127.6910861225911
 20
-128.9506130319985
 30
0.0
 10
127.9901204107108
 20
-128.9933322160156
 30
0.0
 10
129.5287000544234
 20
-129.2162298939112
 30
0.0
 10
130.1825791775238
 20
-128.5068847334983
 30
0.0
 10
130.9925211261061
 20
-127.5601724941516
 30
0.0
 10
131.1410047415203
 20
-127.7592990131991
 30
0.0
 10
131.3063693248123
 20
-127.9598035704406
 30
0.0
 10
131.5489040469739
 20
-127.9987331494239
 30
0.0
 10
132.30889211102
 20
-127.2642387919687
 30
0.0
 10
132.2324109912475
 20
-125.8252224077798
 30
0.0
 10
132.2324109912475
 20
-125.8252224077798
 30
0.0
 10
133.0733587991969
 20
-126.511140918893
 30
0.0
 10
133.5601507912627
 20
-129.2382785050168
 30
0.0
 10
131.1275688691278
 20
-130.4385497720779
 30
0.0
 10
131.1334255314528
 20
-130.2669840169124
 30
0.0
 10
131.1272243595793
 20
-130.0902506185191
 30
0.0
 10
131.0886392901445
 20
-129.922818977936
 30
0.0
 10
130.667648621847
 20
-128.1175889436651
 30
0.0
 10
127.482313336185
 20
-129.5865776585756
 30
0.0
 10
128.3635687613119
 20
-131.1830349064404
 30
0.0
 10
129.0394964955179
 20
-132.4050102750585
 30
0.0
 10
130.9773627059709
 20
-132.3467881613578
 30
0.0
 10
132.1807345589687
 20
-131.4841362518512
 30
0.0
 10
135.0859835816799
 20
-129.4012315214691
 30
0.0
 10
134.3187608171148
 20
-125.9444227115695
 30
0.0
 10
133.2056504658305
 20
-124.5515706068829
 30
0.0
 10
134.4193576052841
 20
-125.2461018567093
 30
0.0
 10
135.479757995644
 20
-124.5980793959338
 30
0.0
 10
136.8026746619799
 20
-124.8440592135807
 30
0.0
 10
137.1916259422646
 20
-124.9157171996738
 30
0.0
 10
137.2663845142945
 20
-124.6387315226598
 30
0.0
 10
136.9246310421577
 20
-124.6015244914191
 30
0.0
 10
135.9338215805999
 20
-124.4961045695704
 30
0.0
 10
135.7505425007846
 20
-123.318570932712
 30
0.0
 10
135.1752115547479
 20
-122.7642550691353
 30
0.0
 10
134.4338270063221
 20
-121.9140055033757
 30
0.0
 10
133.6790065855039
 20
-121.3727810026429
 30
0.0
 10
132.5104301969071
 20
-121.180544674566
 30
0.0
 10
132.570719367899
 20
-120.8777207814125
 30
0.0
 10
132.9517469285676
 20
-120.7099446312808
 30
0.0
 10
133.0375298061504
 20
-120.4722330427986
 30
0.0
 10
131.4665662648764
 20
-119.5363728542305
 30
0.0
 10
128.3146484054213
 20
-119.6467881645328
 30
0.0
 10
125.3622015745622
 20
-121.3917290278118
 30
0.0
 10
125.3622015745622
 20
-121.3917290278118
 30
0.0
 10
126.7113009665861
 20
-119.2785074571595
 30
0.0
 10
126.7113009665861
 20
-119.2785074571595
 30
0.0
 10
129.2689398548355
 20
-115.2215630137293
 30
0.0
 10
132.267550965197
 20
-111.6055907924111
 30
0.0
 10
137.2064398528512
 20
-111.6937852368335
 30
0.0
 10
137.2064398528512
 20
-111.6937852368335
 30
0.0
 10
137.2064398528512
 20
-108.695174126472
 30
0.0
 10
137.2064398528512
 20
-108.695174126472
 30
0.0
 10
137.2064398528512
 20
-108.695174126472
 30
0.0
 10
122.1251898566215
 20
-108.695174126472
 30
0.0
 10
122.1251898566215
 20
-108.695174126472
 30
0.0
 10
122.1251898566215
 20
-108.695174126472
 30
0.0
 10
122.1251898566215
 20
-111.6937852368335
 30
0.0
 10
122.1251898566215
 20
-111.6937852368335
 30
0.0
 10
123.9772731894918
 20
-111.6937852368335
 30
0.0
 10
125.4765787446725
 20
-112.6639241254799
 30
0.0
 10
125.4765787446725
 20
-113.9868407918158
 30
0.0
 10
125.4765787446725
 20
-114.569061928823
 30
0.0
 10
125.2440347994182
 20
-115.1917629377819
 30
0.0
 10
124.7065999037192
 20
-116.1300346931897
 30
0.0
 10
124.4495957805195
 20
-115.2444728987062
 30
0.0
 10
123.6010687625025
 20
-114.5769856484391
 30
0.0
 10
122.1679090406386
 20
-114.5597601710128
 30
0.0
 10
120.6034911807866
 20
-114.5411566553925
 30
0.0
 10
119.8596950655212
 20
-114.1942355400278
 30
0.0
 10
119.5844319362497
 20
-113.4945366469736
 30
0.0
 10
119.457307912844
 20
-113.169319633166
 30
0.0
 10
119.5716850829543
 20
-112.7814018815269
 30
0.0
 10
120.1439154430543
 20
-112.3328504493473
 30
0.0
 10
119.8314452825421
 20
-111.2235297030969
 30
0.0
 10
117.4450276399096
 20
-112.6504882530874
 30
0.0
 10
117.7661105391349
 20
-114.0457519246136
 30
0.0
 10
117.8587836076881
 20
-114.5997232786417
 30
0.0
 10
118.3138807212896
 20
-115.0300157047494
 30
0.0
 10
118.8054958470347
 20
-115.2136392941133
 30
0.0
 10
116.8541937641892
 20
-116.1913573928272
 30
0.0
 10
115.6553005353223
 20
-118.5147297880797
 30
0.0
 10
116.0408067201218
 20
-120.4939371443557
 30
0.0
 10
116.2099609084475
 20
-121.3576225825078
 30
0.0
 10
116.4552517069973
 20
-122.2278537020819
 30
0.0
 10
116.2681830221482
 20
-123.0312499692422
 30
0.0
 10
116.2175401185151
 20
-123.2458794179733
 30
0.0
 10
116.3360514032077
 20
-123.1676757504581
 30
0.0
 10
116.4015082174274
 20
-123.1242675473439
 30
0.0
 10
117.3843939593692
 20
-122.4710774433406
 30
0.0
 10
117.623139076497
 20
-121.5667398784625
 30
0.0
 10
117.7802354306244
 20
-120.8849554819315
 30
0.0
 10
118.2408446970023
 20
-118.8833550050014
 30
0.0
 10
117.837079506131
 20
-117.8181314809621
 30
0.0
 10
118.9202175266936
 20
-116.6244058953231
 30
0.0
 10
118.9570800483857
 20
-116.5840982781456
 30
0.0
 10
118.9674153348415
 20
-116.588921411825
 30
0.0
 10
118.9419216282506
 20
-116.6350856913273
 30
0.0
 10
118.4255018150117
 20
-117.5728406824123
 30
0.0
 10
118.188823755175
 20
-119.7225802652083
 30
0.0
 10
119.1527614719479
 20
-121.2563367752415
 30
0.0
 10
119.3656683729364
 20
-121.5960231900871
 30
0.0
 10
119.4263020534768
 20
-121.4437499696391
 30
0.0
 10
119.4028754041771
 20
-121.1571180252663
 30
0.0
 10
119.3766926784892
 20
-120.8470594315938
 30
0.0
 10
119.6254285725242
 20
-120.4026421139966
 30
0.0
 10
120.0147243623574
 20
-119.8610731037153
 30
0.0
 10
120.7740234073065
 20
-118.8054958470347
 30
0.0
 10
120.5972900089132
 20
-118.4217122099779
 30
0.0
 10
121.0999294402111
 20
-117.0698567415659
 30
0.0
 10
121.4685546571329
 20
-116.0845594327844
 30
0.0
 10
121.9646484070088
 20
-115.4244791378106
 30
0.0
 10
122.9203178946171
 20
-115.5581488426382
 30
0.0
 10
123.5697183935867
 20
-115.754863794846
 30
0.0
 10
124.2842311972276
 20
-116.4314805481491
 30
0.0
 10
123.6038248388907
 20
-117.8992634796398
 30
0.0
 10
123.6038248388907
 20
-117.8992634796398
 30
0.0
 10
116.9423882086116
 20
-128.219908279577
 30
0.0
 10
116.9423882086116
 20
-128.219908279577
 30
0.0
 10
115.265315726392
 20
-127.8006401590221
 30
0.0
 10
113.4215006226863
 20
-127.8095974072837
 30
0.0
 10
111.1877007100503
 20
-129.854606087328
 30
0.0
 10
110.4421820470422
 20
-130.5367349934075
 30
0.0
 10
109.7366264916631
 20
-131.463637933714
 30
0.0
 10
108.9177272948192
 20
-132.7598551100392
 30
0.0
 10
109.2760172252852
 20
-128.8586289825423
 30
0.0
 10
112.576074190606
 20
-127.2370225376352
 30
0.0
 10
114.7457953272163
 20
-127.0895724508665
 30
0.0
 10
115.099262124003
 20
-127.0671793302124
 30
0.0
 10
115.1481824798935
 20
-126.9524576505536
 30
0.0
 10
114.7878254921364
 20
-126.8025959969452
 30
0.0
 10
113.527609563632
 20
-126.2816975595754
 30
0.0
 10
111.8712076543239
 20
-126.1425157019713
 30
0.0
 10
110.2520127762564
 20
-126.7702120993838
 30
0.0
 10
109.9998317867362
 20
-126.1473388356507
 30
0.0
 10
109.5130397946704
 20
-125.5055175467486
 30
0.0
 10
108.9284070908235
 20
-125.0404296562399
 30
0.0
 10
109.157161431044
 20
-124.710389508753
 30
0.0
 10
109.0162570256973
 20
-124.1987928291934
 30
0.0
 10
108.5542697211253
 20
-124.0413519655174
 30
0.0
 10
108.5542697211253
 20
-124.0413519655174
 30
0.0
 10
108.5542697211253
 20
-123.3950520524846
 30
0.0
 10
108.5542697211253
 20
-123.3950520524846
 30
0.0
 10
109.6821939829961
 20
-123.8411919178244
 30
0.0
 10
110.1686414655134
 20
-125.3060465181527
 30
0.0
 10
111.2566026197553
 20
-125.228187360186
 30
0.0
 10
112.4238009701579
 20
-125.1468831067341
 30
0.0
 10
112.7531520985478
 20
-123.7309488622964
 30
0.0
 10
113.8424912909838
 20
-123.0036892053602
 30
0.0
 10
112.837901447485
 20
-122.2815971916518
 30
0.0
 10
112.507172280901
 20
-120.8653184376656
 30
0.0
 10
111.4646863870644
 20
-120.8263888586823
 30
0.0
 10
110.2520127762564
 20
-120.7853922224078
 30
0.0
 10
109.8365342607353
 20
-122.1196777038451
 30
0.0
 10
108.5873426377837
 20
-122.5647840405394
 30
0.0
 10
108.9580349119966
 20
-121.3924180469088
 30
0.0
 10
110.5889431147139
 20
-120.9893418751346
 30
0.0
 10
110.5889431147139
 20
-119.8541829127448
 30
0.0
 10
110.5889431147139
 20
-118.8468369928577
 30
0.0
 10
108.9580349119966
 20
-118.4437608210835
 30
0.0
 10
108.2111382107944
 20
-117.678260604261
 30
0.0
 10
107.3746690269758
 20
-118.3624565676316
 30
0.0
 10
105.9173936367151
 20
-119.0507866455845
 30
0.0
 10
105.9173936367151
 20
-119.898969154053
 30
0.0
 10
105.9173936367151
 20
-120.9893418751346
 30
0.0
 10
107.9196831327423
 20
-121.8747314148438
 30
0.0
 10
107.8748968914341
 20
-122.6447102557972
 30
0.0
 10
106.6222601729972
 20
-122.2006374477485
 30
0.0
 10
106.4155544438822
 20
-120.9473117102146
 30
0.0
 10
105.3282823087374
 20
-120.9083821312312
 30
0.0
 10
104.2844183767067
 20
-120.9083821312312
 30
0.0
 10
103.930262560823
 20
-122.5217203469737
 30
0.0
 10
102.7623751913233
 20
-123.1659532027155
 30
0.0
 10
104.012944852469
 20
-123.9769286799433
 30
0.0
 10
104.536599366227
 20
-125.2674614487179
 30
0.0
 10
105.3737575691427
 20
-125.3060465181527
 30
0.0
 10
106.4562065706082
 20
-125.3873507716046
 30
0.0
 10
106.8048502337155
 20
-123.5952121001776
 30
0.0
 10
108.0554198948611
 20
-123.4749782677424
 30
0.0
 10
108.0554198948611
 20
-123.4749782677424
 30
0.0
 10
108.0554198948611
 20
-124.0413519655174
 30
0.0
 10
108.0554198948611
 20
-124.0413519655174
 30
0.0
 10
107.5417561580104
 20
-124.0966457480557
 30
0.0
 10
107.4005072431152
 20
-124.6585408217
 30
0.0
 10
107.6406303984371
 20
-125.0228596692651
 30
0.0
 10
107.0501410322652
 20
-125.4882920693224
 30
0.0
 10
106.557147868326
 20
-126.135108746678
 30
0.0
 10
106.3039333501601
 20
-126.7636664179619
 30
0.0
 10
105.0333821352
 20
-126.2710177635711
 30
0.0
 10
103.7442274046195
 20
-126.2546535600162
 30
0.0
 10
102.6380072443058
 20
-126.5197536576062
 30
0.0
 10
102.6380072443058
 20
-126.5197536576062
 30
0.0
 10
95.66685652990273
 20
-117.0736463465996
 30
0.0
 10
95.66685652990273
 20
-117.0736463465996
 30
0.0
 10
95.13768986336837
 20
-116.3680907912205
 30
0.0
 10
94.60852319683399
 20
-115.3979519025741
 30
0.0
 10
94.60852319683399
 20
-114.3396185695054
 30
0.0
 10
94.60852319683399
 20
-112.5757296810575
 30
0.0
 10
96.01963430759231
 20
-111.9583685701007
 30
0.0
 10
97.78352319604024
 20
-111.6937852368335
 30
0.0
 10
97.78352319604024
 20
-111.6937852368335
 30
0.0
 10
97.78352319604024
 20
-108.695174126472
 30
0.0
 10
97.78352319604024
 20
-108.695174126472
 30
0.0
 10
97.78352319604024
 20
-108.695174126472
 30
0.0
 10
77.4988009788892
 20
-108.695174126472
 30
0.0
 10
77.4988009788892
 20
-108.695174126472
 30
0.0
 10
77.4988009788892
 20
-108.695174126472
 30
0.0
 10
77.4988009788892
 20
-111.6937852368335
 30
0.0
 10
77.4988009788892
 20
-111.6937852368335
 30
0.0
 10
79.26268986733712
 20
-111.8701741256783
 30
0.0
 10
83.14324542192253
 20
-112.6639241254799
 30
0.0
 10
87.8175509763095
 20
-119.0139241238924
 30
0.0
 10
87.8175509763095
 20
-119.0139241238924
 30
0.0
 10
89.1866319221478
 20
-120.8827161698661
 30
0.0
 10
89.1866319221478
 20
-120.8827161698661
 30
0.0
 10
86.53631996534509
 20
-119.640414737885
 30
0.0
 10
83.88221840350862
 20
-119.6385199353682
 30
0.0
 10
82.48316512694866
 20
-120.4722330427986
 30
0.0
 10
82.5692925140799
 20
-120.7099446312808
 30
0.0
 10
82.95032007474853
 20
-120.8777207814125
 30
0.0
 10
83.01026473619189
 20
-121.180544674566
 30
0.0
 10
81.84168834759514
 20
-121.3727810026429
 30
0.0
 10
81.08721243632542
 20
-121.9140055033757
 30
0.0
 10
80.34582788789966
 20
-122.7642550691353
 30
0.0
 10
79.7701524323144
 20
-123.318570932712
 30
0.0
 10
79.58721786204764
 20
-124.4961045695704
 30
0.0
 10
78.59640840048979
 20
-124.6015244914191
 30
0.0
 10
78.254654928353
 20
-124.6387315226598
 30
0.0
 10
78.3290689908344
 20
-124.9157171996738
 30
0.0
 10
78.71836478066763
 20
-124.8440592135807
 30
0.0
 10
80.04128144700357
 20
-124.5980793959338
 30
0.0
 10
81.10168183736347
 20
-125.2461018567093
 30
0.0
 10
82.31504446726846
 20
-124.5515706068829
 30
0.0
 10
81.20193411598424
 20
-125.9444227115695
 30
0.0
 10
80.4347113514191
 20
-129.4012315214691
 30
0.0
 10
83.34030488367881
 20
-131.4841362518512
 30
0.0
 10
84.54333222712806
 20
-132.3467881613578
 30
0.0
 10
86.4811984375811
 20
-132.4050102750585
 30
0.0
 10
87.15712617178711
 20
-131.1830349064404
 30
0.0
 10
88.03872610646255
 20
-129.5865776585756
 30
0.0
 10
84.85304631125202
 20
-128.1175889436651
 30
0.0
 10
84.43240015250302
 20
-129.922818977936
 30
0.0
 10
84.39381508306822
 20
-130.0902506185191
 30
0.0
 10
84.38726940164624
 20
-130.2669840169124
 30
0.0
 10
84.39312606397117
 20
-130.4385497720779
 30
0.0
 10
81.96088865138478
 20
-129.2382785050168
 30
0.0
 10
82.44733613390206
 20
-126.511140918893
 30
0.0
 10
83.28828394185155
 20
-125.8252224077798
 30
0.0
 10
83.28828394185155
 20
-125.8252224077798
 30
0.0
 10
83.211802822079
 20
-127.2642387919687
 30
0.0
 10
83.9717908861251
 20
-127.9987331494239
 30
0.0
 10
84.21467011783523
 20
-127.9598035704406
 30
0.0
 10
84.37969019157869
 20
-127.7592990131991
 30
0.0
 10
84.52817380699297
 20
-127.5601724941516
 30
0.0
 10
85.33846026512373
 20
-128.5068847334983
 30
0.0
 10
85.99199487867561
 20
-129.2162298939112
 30
0.0
 10
87.53091903193672
 20
-128.9933322160156
 30
0.0
 10
87.8299533200564
 20
-128.9506130319985
 30
0.0
 10
87.84338919244888
 20
-128.8265895945295
 30
0.0
 10
87.72177732181956
 20
-128.6798285268578
 30
0.0
 10
87.54263235658657
 20
-128.4669216258694
 30
0.0
 10
87.4285996960248
 20
-128.2746852977924
 30
0.0
 10
87.32834741740403
 20
-128.0200927414325
 30
0.0
 10
86.36062009559735
 20
-125.5265326292086
 30
0.0
 10
88.63989526863864
 20
-124.270106305738
 30
0.0
 10
90.65355357976718
 20
-124.5539821737226
 30
0.0
 10
91.53549802399112
 20
-124.7761908325212
 30
0.0
 10
92.23037378336602
 20
-125.2526475381313
 30
0.0
 10
92.82534177366867
 20
-125.8496825857251
 30
0.0
 10
92.82534177366867
 20
-125.8496825857251
 30
0.0
 10
95.50424802299894
 20
-129.5068236980921
 30
0.0
 10
95.50424802299894
 20
-129.5068236980921
 30
0.0
 10
94.33050399117433
 20
-129.7717515409078
 30
0.0
 10
92.94557560610389
 20
-129.8587402019103
 30
0.0
 10
92.91698131357631
 20
-129.2021050024217
 30
0.0
 10
93.32625865722399
 20
-129.0184814130579
 30
0.0
 10
93.60531139152923
 20
-128.6112711267014
 30
0.0
 10
93.51091577523339
 20
-128.1255126632811
 30
0.0
 10
93.3042100461184
 20
-127.0740695211829
 30
0.0
 10
92.16319442140365
 20
-127.2077392260106
 30
0.0
 10
91.37840166986373
 20
-127.8433593430392
 30
0.0
 10
90.61014537665302
 20
-128.4662326067723
 30
0.0
 10
90.29595266839824
 20
-130.0757812174811
 30
0.0
 10
92.27171492918902
 20
-130.5911675020744
 30
0.0
 10
92.81604001585849
 20
-130.7320719074212
 30
0.0
 10
93.45166013288708
 20
-130.7902940211219
 30
0.0
 10
94.11587454244325
 20
-130.7269042641933
 30
0.0
 10
94.75941837908793
 20
-130.6654093097816
 30
0.0
 10
95.42466631728968
 20
-130.5021117837807
 30
0.0
 10
96.08578014090911
 20
-130.3007459526679
 30
0.0
 10
96.08578014090911
 20
-130.3007459526679
 30
0.0
 10
96.65973304875173
 20
-131.0841606660137
 30
0.0
 10
96.65973304875173
 20
-131.0841606660137
 30
0.0
 10
96.27594941169491
 20
-131.2867322805464
 30
0.0
 10
95.89044322689544
 20
-131.440728048737
 30
0.0
 10
95.52216251952224
 20
-131.5051513343112
 30
0.0
 10
95.53766544920586
 20
-131.8007405269456
 30
0.0
 10
95.64411889970009
 20
-132.0305283958118
 30
0.0
 10
95.86391599165903
 20
-132.2637613601632
 30
0.0
 10
95.42673337458082
 20
-132.5338568462068
 30
0.0
 10
94.78146699019352
 20
-132.4222357524847
 30
0.0
 10
94.28433971167198
 20
-132.2554931309986
 30
0.0
 10
94.1840874330512
 20
-132.2213866856947
 30
0.0
 10
93.96050073605849
 20
-132.087716980867
 30
0.0
 10
94.03319225079726
 20
-132.4311930007464
 30
0.0
 10
94.10347219869635
 20
-132.763644715073
 30
0.0
 10
94.50310327498534
 20
-133.0440754875723
 30
0.0
 10
94.9506211785193
 20
-133.2121961472525
 30
0.0
 10
95.75505097432513
 20
-133.5105414162751
 30
0.0
 10
96.71829967200098
 20
-133.0199598191756
 30
0.0
 10
97.3832031006542
 20
-132.2833984044292
 30
0.0
 10
97.41145288363325
 20
-132.2518757807391
 30
0.0
 10
97.43901364751525
 20
-132.2184583545322
 30
0.0
 10
97.4672634304943
 20
-132.1864189665194
 30
0.0
 10
97.4672634304943
 20
-132.1864189665194
 30
0.0
 10
98.5138834389132
 20
-133.6152723190267
 30
0.0
 10
98.5138834389132
 20
-133.6152723190267
 30
0.0
 10
98.5138834389132
 20
-133.6152723190267
 30
0.0
 10
73.60377602326572
 20
-133.6152723190267
 30
0.0
 10
73.60377602326572
 20
-133.6152723190267
 30
0.0
 10
73.60377602326572
 20
-133.6152723190267
 30
0.0
 10
73.60377602326572
 20
-135.2268879870266
 30
0.0
 10
73.60377602326572
 20
-135.2268879870266
 30
0.0
 10
73.60377602326572
 20
-135.2268879870266
 30
0.0
 10
142.512575919233
 20
-135.2268879870266
 30
0.0
 10
142.512575919233
 20
-135.2268879870266
 30
0.0
 10
142.512575919233
 20
-135.2268879870266
 30
0.0
 10
142.512575919233
 20
-133.6152723190267
 30
0.0
 10
142.512575919233
 20
-133.6152723190267
 30
0.0
 10
142.512575919233
 20
-133.6152723190267
 30
0.0
 10
117.5576822622773
 20
-133.6152723190267
 30
0.0
 10
117.5576822622773
 20
-133.6152723190267
 30
0.0
  0
SPLINE
  5
41
330
3C
100
AcDbEntity
  8
Layer 1
370
     0
100
AcDbSpline
210
0.0
220
0.0
230
1.0
 70
    11
 71
     3
 72
    14
 73
    10
 74
     0
 42
0.0000000001
 43
0.0000000001
 40
0.0
 40
0.0
 40
0.0
 40
0.0
 40
1.0
 40
1.0
 40
1.0
 40
2.0
 40
2.0
 40
2.0
 40
3.0
 40
3.0
 40
3.0
 40
3.0
 10
133.6855522669258
 20
-123.4129665490079
 30
0.0
 10
133.7200032217783
 20
-123.4384602555987
 30
0.0
 10
133.7131130308078
 20
-123.4439724083751
 30
0.0
 10
133.6683267894996
 20
-123.4295030073371
 30
0.0
 10
131.288454828289
 20
-122.6391981030208
 30
0.0
 10
128.385272862869
 20
-121.8802435676202
 30
0.0
 10
125.8376247515267
 20
-122.4717664624376
 30
0.0
 10
128.075558778745
 20
-121.2983669401615
 30
0.0
 10
131.5881781355057
 20
-121.8347683072149
 30
0.0
 10
133.6855522669258
 20
-123.4129665490079
 30
0.0
  0
SPLINE
  5
42
330
3C
100
AcDbEntity
  8
Layer 1
370
     0
100
AcDbSpline
210
0.0
220
0.0
230
1.0
 70
    11
 71
     3
 72
    14
 73
    10
 74
     0
 42
0.0000000001
 43
0.0000000001
 40
0.0
 40
0.0
 40
0.0
 40
0.0
 40
1.0
 40
1.0
 40
1.0
 40
2.0
 40
2.0
 40
2.0
 40
3.0
 40
3.0
 40
3.0
 40
3.0
 10
129.1614528756957
 20
-126.6110486879653
 30
0.0
 10
129.1021972333494
 20
-126.723703310333
 30
0.0
 10
129.0877278323114
 20
-126.6520453242398
 30
0.0
 10
129.0925509659908
 20
-126.5703965612393
 30
0.0
 10
129.1741997289912
 20
-125.0810817829659
 30
0.0
 10
126.917317676604
 20
-123.1211669614072
 30
0.0
 10
124.8860893785007
 20
-123.4673990576748
 30
0.0
 10
126.668581782569
 20
-122.3925292662769
 30
0.0
 10
130.2184081705704
 20
-124.6091037014866
 30
0.0
 10
129.1614528756957
 20
-126.6110486879653
 30
0.0
  0
SPLINE
  5
43
330
3C
100
AcDbEntity
  8
Layer 1
370
     0
100
AcDbSpline
210
0.0
220
0.0
230
1.0
 70
    11
 71
     3
 72
    14
 73
    10
 74
     0
 42
0.0000000001
 43
0.0000000001
 40
0.0
 40
0.0
 40
0.0
 40
0.0
 40
1.0
 40
1.0
 40
1.0
 40
2.0
 40
2.0
 40
2.0
 40
3.0
 40
3.0
 40
3.0
 40
3.0
 10
81.8523681435994
 20
-123.4295030073371
 30
0.0
 10
81.80792641183969
 20
-123.4439724083751
 30
0.0
 10
81.80069171132067
 20
-123.4384602555987
 30
0.0
 10
81.83548717572168
 20
-123.4129665490079
 30
0.0
 10
83.93286130714179
 20
-121.8347683072149
 30
0.0
 10
87.44548066390253
 20
-121.2983669401615
 30
0.0
 10
89.68341469112082
 20
-122.4717664624376
 30
0.0
 10
87.13542207023004
 20
-121.8802435676202
 30
0.0
 10
84.23224010481
 20
-122.6391981030208
 30
0.0
 10
81.8523681435994
 20
-123.4295030073371
 30
0.0
  0
SPLINE
  5
44
330
3C
100
AcDbEntity
  8
Layer 1
370
     0
100
AcDbSpline
210
0.0
220
0.0
230
1.0
 70
    11
 71
     3
 72
    14
 73
    10
 74
     0
 42
0.0000000001
 43
0.0000000001
 40
0.0
 40
0.0
 40
0.0
 40
0.0
 40
1.0
 40
1.0
 40
1.0
 40
2.0
 40
2.0
 40
2.0
 40
3.0
 40
3.0
 40
3.0
 40
3.0
 10
86.42848847665677
 20
-126.5703965612393
 30
0.0
 10
86.43331161033612
 20
-126.6520453242398
 30
0.0
 10
86.41849769974955
 20
-126.723703310333
 30
0.0
 10
86.35924205740325
 20
-126.6110486879653
 30
0.0
 10
85.30263127207712
 20
-124.6091037014866
 30
0.0
 10
88.85245766007856
 20
-122.3925292662769
 30
0.0
 10
90.63495006414682
 20
-123.4673990576748
 30
0.0
 10
88.60372176604352
 20
-123.1211669614072
 30
0.0
 10
86.34649520410782
 20
-125.0810817829659
 30
0.0
 10
86.42848847665677
 20
-126.5703965612393
 30
0.0
  0
SPLINE
  5
45
330
3C
100
AcDbEntity
  8
Layer 1
370
     0
100
AcDbSpline
210
0.0
220
0.0
230
1.0
 70
    11
 71
     3
 72
    14
 73
    10
 74
     0
 42
0.0000000001
 43
0.0000000001
 40
0.0
 40
0.0
 40
0.0
 40
0.0
 40
1.0
 40
1.0
 40
1.0
 40
2.0
 40
2.0
 40
2.0
 40
3.0
 40
3.0
 40
3.0
 40
3.0
 10
116.2113389466416
 20
-129.3524834203529
 30
0.0
 10
116.2113389466416
 20
-129.3524834203529
 30
0.0
 10
115.5171522063638
 20
-130.4280422308479
 30
0.0
 10
115.5171522063638
 20
-130.4280422308479
 30
0.0
 10
114.6272840425237
 20
-129.9042154623156
 30
0.0
 10
113.003266030777
 20
-129.6024250978077
 30
0.0
 10
112.8861327842785
 20
-129.5876111872212
 30
0.0
 10
113.7387939168778
 20
-128.9767957576864
 30
0.0
 10
114.9738606483399
 20
-128.7723293406368
 30
0.0
 10
116.2113389466416
 20
-129.3524834203529
 30
0.0
  0
SPLINE
  5
46
330
3C
100
AcDbEntity
  8
Layer 1
370
     0
100
AcDbSpline
210
0.0
220
0.0
230
1.0
 70
    11
 71
     3
 72
    17
 73
    13
 74
     0
 42
0.0000000001
 43
0.0000000001
 40
0.0
 40
0.0
 40
0.0
 40
0.0
 40
1.0
 40
1.0
 40
1.0
 40
2.0
 40
2.0
 40
2.0
 40
3.0
 40
3.0
 40
3.0
 40
4.0
 40
4.0
 40
4.0
 40
4.0
 10
107.6447645130194
 20
-132.7720851990119
 30
0.0
 10
106.8220757111417
 20
-131.470872634233
 30
0.0
 10
106.1141085889229
 20
-130.5415581270868
 30
0.0
 10
105.3675563972692
 20
-129.8583956923618
 30
0.0
 10
105.1350124520149
 20
-129.6454887913734
 30
0.0
 10
104.9079806595369
 20
-129.4622097115581
 30
0.0
 10
104.6837049434471
 20
-129.2916774850382
 30
0.0
 10
104.6837049434471
 20
-129.2916774850382
 30
0.0
 10
103.2429660115156
 20
-127.3393418735471
 30
0.0
 10
103.2429660115156
 20
-127.3393418735471
 30
0.0
 10
105.2152831768212
 20
-127.9053710617737
 30
0.0
 10
107.3788031415581
 20
-129.4544582467163
 30
0.0
 10
107.6447645130194
 20
-132.7720851990119
 30
0.0
  0
SPLINE
  5
47
330
3C
100
AcDbEntity
  8
Layer 1
370
     0
100
AcDbSpline
210
0.0
220
0.0
230
1.0
 70
    11
 71
     3
 72
    23
 73
    19
 74
     0
 42
0.0000000001
 43
0.0000000001
 40
0.0
 40
0.0
 40
0.0
 40
0.0
 40
1.0
 40
1.0
 40
1.0
 40
2.0
 40
2.0
 40
2.0
 40
3.0
 40
3.0
 40
3.0
 40
4.0
 40
4.0
 40
4.0
 40
5.0
 40
5.0
 40
5.0
 40
6.0
 40
6.0
 40
6.0
 40
6.0
 10
110.169674994159
 20
-132.7491753140349
 30
0.0
 10
111.7706108661546
 20
-129.8046522027919
 30
0.0
 10
114.561827228304
 20
-130.2597493163934
 30
0.0
 10
113.9747829576174
 20
-132.7050780918237
 30
0.0
 10
113.9541123847059
 20
-132.7913777337292
 30
0.0
 10
113.9217284871446
 20
-132.871303948987
 30
0.0
 10
113.8890000800347
 20
-132.9507133999221
 30
0.0
 10
113.8890000800347
 20
-132.9507133999221
 30
0.0
 10
113.4931586087795
 20
-133.5639403962965
 30
0.0
 10
113.4931586087795
 20
-133.5639403962965
 30
0.0
 10
113.4766221504503
 20
-133.5818548928198
 30
0.0
 10
113.4583631443785
 20
-133.597702332052
 30
0.0
 10
113.4414821765007
 20
-133.6152723190267
 30
0.0
 10
113.4414821765007
 20
-133.6152723190267
 30
0.0
 10
109.6715141869918
 20
-133.6152723190267
 30
0.0
 10
109.6715141869918
 20
-133.6152723190267
 30
0.0
 10
109.8437689612543
 20
-133.3351860560759
 30
0.0
 10
110.0081000159008
 20
-133.0461425448635
 30
0.0
 10
110.169674994159
 20
-132.7491753140349
 30
0.0
  0
HATCH
  5
48
330
3C
100
AcDbEntity
  8
Layer 1
 62
   250
420
  2301728
100
AcDbHatch
 10
0.0
 20
0.0
 30
0.0
210
0.0
220
0.0
230
1.0
  2
SOLID
 70
     1
 71
     0
 91
        8
 92
        1
 93
        1
 72
     4
 94
        3
 73
     0
 74
     1
 95
      395
 96
      391
 40
0.0
 40
0.0
 40
0.0
 40
0.0
 40
1.0
 40
1.0
 40
1.0
 40
2.0
 40
2.0
 40
2.0
 40
3.0
 40
3.0
 40
3.0
 40
4.0
 40
4.0
 40
4.0
 40
5.0
 40
5.0
 40
5.0
 40
6.0
 40
6.0
 40
6.0
 40
7.0
 40
7.0
 40
7.0
 40
8.0
 40
8.0
 40
8.0
 40
9.0
 40
9.0
 40
9.0
 40
10.0
 40
10.0
 40
10.0
 40
11.0
 40
11.0
 40
11.0
 40
12.0
 40
12.0
 40
12.0
 40
13.0
 40
13.0
 40
13.0
 40
14.0
 40
14.0
 40
14.0
 40
15.0
 40
15.0
 40
15.0
 40
16.0
 40
16.0
 40
16.0
 40
17.0
 40
17.0
 40
17.0
 40
18.0
 40
18.0
 40
18.0
 40
19.0
 40
19.0
 40
19.0
 40
20.0
 40
20.0
 40
20.0
 40
21.0
 40
21.0
 40
21.0
 40
22.0
 40
22.0
 40
22.0
 40
23.0
 40
23.0
 40
23.0
 40
24.0
 40
24.0
 40
24.0
 40
25.0
 40
25.0
 40
25.0
 40
26.0
 40
26.0
 40
26.0
 40
27.0
 40
27.0
 40
27.0
 40
28.0
 40
28.0
 40
28.0
 40
29.0
 40
29.0
 40
29.0
 40
30.0
 40
30.0
 40
30.0
 40
31.0
 40
31.0
 40
31.0
 40
32.0
 40
32.0
 40
32.0
 40
33.0
 40
33.0
 40
33.0
 40
34.0
 40
34.0
 40
34.0
 40
35.0
 40
35.0
 40
35.0
 40
36.0
 40
36.0
 40
36.0
 40
37.0
 40
37.0
 40
37.0
 40
38.0
 40
38.0
 40
38.0
 40
39.0
 40
39.0
 40
39.0
 40
40.0
 40
40.0
 40
40.0
 40
41.0
 40
41.0
 40
41.0
 40
42.0
 40
42.0
 40
42.0
 40
43.0
 40
43.0
 40
43.0
 40
44.0
 40
44.0
 40
44.0
 40
45.0
 40
45.0
 40
45.0
 40
46.0
 40
46.0
 40
46.0
 40
47.0
 40
47.0
 40
47.0
 40
48.0
 40
48.0
 40
48.0
 40
49.0
 40
49.0
 40
49.0
 40
50.0
 40
50.0
 40
50.0
 40
51.0
 40
51.0
 40
51.0
 40
52.0
 40
52.0
 40
52.0
 40
53.0
 40
53.0
 40
53.0
 40
54.0
 40
54.0
 40
54.0
 40
55.0
 40
55.0
 40
55.0
 40
56.0
 40
56.0
 40
56.0
 40
57.0
 40
57.0
 40
57.0
 40
58.0
 40
58.0
 40
58.0
 40
59.0
 40
59.0
 40
59.0
 40
60.0
 40
60.0
 40
60.0
 40
61.0
 40
61.0
 40
61.0
 40
62.0
 40
62.0
 40
62.0
 40
63.0
 40
63.0
 40
63.0
 40
64.0
 40
64.0
 40
64.0
 40
65.0
 40
65.0
 40
65.0
 40
66.0
 40
66.0
 40
66.0
 40
67.0
 40
67.0
 40
67.0
 40
68.0
 40
68.0
 40
68.0
 40
69.0
 40
69.0
 40
69.0
 40
70.0
 40
70.0
 40
70.0
 40
71.0
 40
71.0
 40
71.0
 40
72.0
 40
72.0
 40
72.0
 40
73.0
 40
73.0
 40
73.0
 40
74.0
 40
74.0
 40
74.0
 40
75.0
 40
75.0
 40
75.0
 40
76.0
 40
76.0
 40
76.0
 40
77.0
 40
77.0
 40
77.0
 40
78.0
 40
78.0
 40
78.0
 40
79.0
 40
79.0
 40
79.0
 40
80.0
 40
80.0
 40
80.0
 40
81.0
 40
81.0
 40
81.0
 40
82.0
 40
82.0
 40
82.0
 40
83.0
 40
83.0
 40
83.0
 40
84.0
 40
84.0
 40
84.0
 40
85.0
 40
85.0
 40
85.0
 40
86.0
 40
86.0
 40
86.0
 40
87.0
 40
87.0
 40
87.0
 40
88.0
 40
88.0
 40
88.0
 40
89.0
 40
89.0
 40
89.0
 40
90.0
 40
90.0
 40
90.0
 40
91.0
 40
91.0
 40
91.0
 40
92.0
 40
92.0
 40
92.0
 40
93.0
 40
93.0
 40
93.0
 40
94.0
 40
94.0
 40
94.0
 40
95.0
 40
95.0
 40
95.0
 40
96.0
 40
96.0
 40
96.0
 40
97.0
 40
97.0
 40
97.0
 40
98.0
 40
98.0
 40
98.0
 40
99.0
 40
99.0
 40
99.0
 40
100.0
 40
100.0
 40
100.0
 40
101.0
 40
101.0
 40
101.0
 40
102.0
 40
102.0
 40
102.0
 40
103.0
 40
103.0
 40
103.0
 40
104.0
 40
104.0
 40
104.0
 40
105.0
 40
105.0
 40
105.0
 40
106.0
 40
106.0
 40
106.0
 40
107.0
 40
107.0
 40
107.0
 40
108.0
 40
108.0
 40
108.0
 40
109.0
 40
109.0
 40
109.0
 40
110.0
 40
110.0
 40
110.0
 40
111.0
 40
111.0
 40
111.0
 40
112.0
 40
112.0
 40
112.0
 40
113.0
 40
113.0
 40
113.0
 40
114.0
 40
114.0
 40
114.0
 40
115.0
 40
115.0
 40
115.0
 40
116.0
 40
116.0
 40
116.0
 40
117.0
 40
117.0
 40
117.0
 40
118.0
 40
118.0
 40
118.0
 40
119.0
 40
119.0
 40
119.0
 40
120.0
 40
120.0
 40
120.0
 40
121.0
 40
121.0
 40
121.0
 40
122.0
 40
122.0
 40
122.0
 40
123.0
 40
123.0
 40
123.0
 40
124.0
 40
124.0
 40
124.0
 40
125.0
 40
125.0
 40
125.0
 40
126.0
 40
126.0
 40
126.0
 40
127.0
 40
127.0
 40
127.0
 40
128.0
 40
128.0
 40
128.0
 40
129.0
 40
129.0
 40
129.0
 40
130.0
 40
130.0
 40
130.0
 40
130.0
 10
117.5576822622773
 20
-133.6152723190267
 10
117.5576822622773
 20
-133.6152723190267
 10
118.7376274659753
 20
-131.7671508459645
 10
118.7376274659753
 20
-131.7671508459645
 10
118.8802544190647
 20
-131.9423339513894
 10
119.0242594103481
 20
-132.1156222542975
 10
119.1727430257624
 20
-132.2802978184924
 10
119.8362684162215
 20
-133.0151366854962
 10
120.8008951520914
 20
-133.5077853398869
 10
121.6036024001547
 20
-133.2094400708643
 10
122.0514648132371
 20
-133.0406303920871
 10
122.4521294181717
 20
-132.7595106004907
 10
122.5206868183282
 20
-132.4280924148096
 10
122.5951008808096
 20
-132.0825493376391
 10
122.3711696742683
 20
-132.218975118855
 10
122.269883867002
 20
-132.2527370546104
 10
121.7731010980289
 20
-132.4184461474509
 10
121.1285237327387
 20
-132.5304117507216
 10
120.6923746443061
 20
-132.2599717551295
 10
120.911482717168
 20
-132.026049771681
 10
121.0169026390166
 20
-131.7959173932663
 10
121.0341281164429
 20
-131.5006727101804
 10
120.4970377302924
 20
-131.4066216034331
 10
119.9230848224498
 20
-131.1251573022882
 10
119.3715250352613
 20
-130.7744465818897
 10
119.3715250352613
 20
-130.7744465818897
 10
119.8114637287277
 20
-130.0852552300655
 10
119.8114637287277
 20
-130.0852552300655
 10
120.6847954342385
 20
-130.3791218749573
 10
121.5815537890491
 20
-130.640776877062
 10
122.4400715839733
 20
-130.7224256400625
 10
123.103941483981
 20
-130.785815396991
 10
123.7402506201066
 20
-130.7286268119359
 10
124.2825086494849
 20
-130.5873778970407
 10
126.2586154198242
 20
-130.0733696506414
 10
125.9451117306665
 20
-128.4624430017386
 10
125.1761664183587
 20
-127.8402587571024
 10
124.3927517050129
 20
-127.2015380541371
 10
123.2517360802982
 20
-127.0720024638917
 10
123.0436523129891
 20
-128.1217230582473
 10
122.9492566966932
 20
-128.6081705407646
 10
123.2289984500955
 20
-129.0146918080241
 10
123.6382757937432
 20
-129.199693435582
 10
123.6031358197937
 20
-130.0034342122908
 10
121.5333224522556
 20
-129.6923420899728
 10
120.3103135549919
 20
-129.3039075740108
 10
120.3103135549919
 20
-129.3039075740108
 10
122.035617374005
 20
-126.6017469301551
 10
122.035617374005
 20
-126.6017469301551
 10
122.7711452601058
 20
-125.6643364486186
 10
123.6386203032917
 20
-124.8635240030723
 10
124.8674858628804
 20
-124.5539821737226
 10
126.8807996644604
 20
-124.270106305738
 10
129.1600748375017
 20
-125.5265326292086
 10
128.1926920252435
 20
-128.0200927414325
 10
128.0920952370742
 20
-128.2746852977924
 10
127.978407086061
 20
-128.4669216258694
 10
127.799262120828
 20
-128.6798285268578
 10
127.6773057406501
 20
-128.8265895945295
 10
127.6910861225911
 20
-128.9506130319985
 10
127.9901204107108
 20
-128.9933322160156
 10
129.5287000544234
 20
-129.2162298939112
 10
130.1825791775238
 20
-128.5068847334983
 10
130.9925211261061
 20
-127.5601724941516
 10
131.1410047415203
 20
-127.7592990131991
 10
131.3063693248123
 20
-127.9598035704406
 10
131.5489040469739
 20
-127.9987331494239
 10
132.30889211102
 20
-127.2642387919687
 10
132.2324109912475
 20
-125.8252224077798
 10
132.2324109912475
 20
-125.8252224077798
 10
133.0733587991969
 20
-126.511140918893
 10
133.5601507912627
 20
-129.2382785050168
 10
131.1275688691278
 20
-130.4385497720779
 10
131.1334255314528
 20
-130.2669840169124
 10
131.1272243595793
 20
-130.0902506185191
 10
131.0886392901445
 20
-129.922818977936
 10
130.667648621847
 20
-128.1175889436651
 10
127.482313336185
 20
-129.5865776585756
 10
128.3635687613119
 20
-131.1830349064404
 10
129.0394964955179
 20
-132.4050102750585
 10
130.9773627059709
 20
-132.3467881613578
 10
132.1807345589687
 20
-131.4841362518512
 10
135.0859835816799
 20
-129.4012315214691
 10
134.3187608171148
 20
-125.9444227115695
 10
133.2056504658305
 20
-124.5515706068829
 10
134.4193576052841
 20
-125.2461018567093
 10
135.479757995644
 20
-124.5980793959338
 10
136.8026746619799
 20
-124.8440592135807
 10
137.1916259422646
 20
-124.9157171996738
 10
137.2663845142945
 20
-124.6387315226598
 10
136.9246310421577
 20
-124.6015244914191
 10
135.9338215805999
 20
-124.4961045695704
 10
135.7505425007846
 20
-123.318570932712
 10
135.1752115547479
 20
-122.7642550691353
 10
134.4338270063221
 20
-121.9140055033757
 10
133.6790065855039
 20
-121.3727810026429
 10
132.5104301969071
 20
-121.180544674566
 10
132.570719367899
 20
-120.8777207814125
 10
132.9517469285676
 20
-120.7099446312808
 10
133.0375298061504
 20
-120.4722330427986
 10
131.4665662648764
 20
-119.5363728542305
 10
128.3146484054213
 20
-119.6467881645328
 10
125.3622015745622
 20
-121.3917290278118
 10
125.3622015745622
 20
-121.3917290278118
 10
126.7113009665861
 20
-119.2785074571595
 10
126.7113009665861
 20
-119.2785074571595
 10
129.2689398548355
 20
-115.2215630137293
 10
132.267550965197
 20
-111.6055907924111
 10
137.2064398528512
 20
-111.6937852368335
 10
137.2064398528512
 20
-111.6937852368335
 10
137.2064398528512
 20
-108.695174126472
 10
137.2064398528512
 20
-108.695174126472
 10
137.2064398528512
 20
-108.695174126472
 10
122.1251898566215
 20
-108.695174126472
 10
122.1251898566215
 20
-108.695174126472
 10
122.1251898566215
 20
-108.695174126472
 10
122.1251898566215
 20
-111.6937852368335
 10
122.1251898566215
 20
-111.6937852368335
 10
123.9772731894918
 20
-111.6937852368335
 10
125.4765787446725
 20
-112.6639241254799
 10
125.4765787446725
 20
-113.9868407918158
 10
125.4765787446725
 20
-114.569061928823
 10
125.2440347994182
 20
-115.1917629377819
 10
124.7065999037192
 20
-116.1300346931897
 10
124.4495957805195
 20
-115.2444728987062
 10
123.6010687625025
 20
-114.5769856484391
 10
122.1679090406386
 20
-114.5597601710128
 10
120.6034911807866
 20
-114.5411566553925
 10
119.8596950655212
 20
-114.1942355400278
 10
119.5844319362497
 20
-113.4945366469736
 10
119.457307912844
 20
-113.169319633166
 10
119.5716850829543
 20
-112.7814018815269
 10
120.1439154430543
 20
-112.3328504493473
 10
119.8314452825421
 20
-111.2235297030969
 10
117.4450276399096
 20
-112.6504882530874
 10
117.7661105391349
 20
-114.0457519246136
 10
117.8587836076881
 20
-114.5997232786417
 10
118.3138807212896
 20
-115.0300157047494
 10
118.8054958470347
 20
-115.2136392941133
 10
116.8541937641892
 20
-116.1913573928272
 10
115.6553005353223
 20
-118.5147297880797
 10
116.0408067201218
 20
-120.4939371443557
 10
116.2099609084475
 20
-121.3576225825078
 10
116.4552517069973
 20
-122.2278537020819
 10
116.2681830221482
 20
-123.0312499692422
 10
116.2175401185151
 20
-123.2458794179733
 10
116.3360514032077
 20
-123.1676757504581
 10
116.4015082174274
 20
-123.1242675473439
 10
117.3843939593692
 20
-122.4710774433406
 10
117.623139076497
 20
-121.5667398784625
 10
117.7802354306244
 20
-120.8849554819315
 10
118.2408446970023
 20
-118.8833550050014
 10
117.837079506131
 20
-117.8181314809621
 10
118.9202175266936
 20
-116.6244058953231
 10
118.9570800483857
 20
-116.5840982781456
 10
118.9674153348415
 20
-116.588921411825
 10
118.9419216282506
 20
-116.6350856913273
 10
118.4255018150117
 20
-117.5728406824123
 10
118.188823755175
 20
-119.7225802652083
 10
119.1527614719479
 20
-121.2563367752415
 10
119.3656683729364
 20
-121.5960231900871
 10
119.4263020534768
 20
-121.4437499696391
 10
119.4028754041771
 20
-121.1571180252663
 10
119.3766926784892
 20
-120.8470594315938
 10
119.6254285725242
 20
-120.4026421139966
 10
120.0147243623574
 20
-119.8610731037153
 10
120.7740234073065
 20
-118.8054958470347
 10
120.5972900089132
 20
-118.4217122099779
 10
121.0999294402111
 20
-117.0698567415659
 10
121.4685546571329
 20
-116.0845594327844
 10
121.9646484070088
 20
-115.4244791378106
 10
122.9203178946171
 20
-115.5581488426382
 10
123.5697183935867
 20
-115.754863794846
 10
124.2842311972276
 20
-116.4314805481491
 10
123.6038248388907
 20
-117.8992634796398
 10
123.6038248388907
 20
-117.8992634796398
 10
116.9423882086116
 20
-128.219908279577
 10
116.9423882086116
 20
-128.219908279577
 10
115.265315726392
 20
-127.8006401590221
 10
113.4215006226863
 20
-127.8095974072837
 10
111.1877007100503
 20
-129.854606087328
 10
110.4421820470422
 20
-130.5367349934075
 10
109.7366264916631
 20
-131.463637933714
 10
108.9177272948192
 20
-132.7598551100392
 10
109.2760172252852
 20
-128.8586289825423
 10
112.576074190606
 20
-127.2370225376352
 10
114.7457953272163
 20
-127.0895724508665
 10
115.099262124003
 20
-127.0671793302124
 10
115.1481824798935
 20
-126.9524576505536
 10
114.7878254921364
 20
-126.8025959969452
 10
113.527609563632
 20
-126.2816975595754
 10
111.8712076543239
 20
-126.1425157019713
 10
110.2520127762564
 20
-126.7702120993838
 10
109.9998317867362
 20
-126.1473388356507
 10
109.5130397946704
 20
-125.5055175467486
 10
108.9284070908235
 20
-125.0404296562399
 10
109.157161431044
 20
-124.710389508753
 10
109.0162570256973
 20
-124.1987928291934
 10
108.5542697211253
 20
-124.0413519655174
 10
108.5542697211253
 20
-124.0413519655174
 10
108.5542697211253
 20
-123.3950520524846
 10
108.5542697211253
 20
-123.3950520524846
 10
109.6821939829961
 20
-123.8411919178244
 10
110.1686414655134
 20
-125.3060465181527
 10
111.2566026197553
 20
-125.228187360186
 10
112.4238009701579
 20
-125.1468831067341
 10
112.7531520985478
 20
-123.7309488622964
 10
113.8424912909838
 20
-123.0036892053602
 10
112.837901447485
 20
-122.2815971916518
 10
112.507172280901
 20
-120.8653184376656
 10
111.4646863870644
 20
-120.8263888586823
 10
110.2520127762564
 20
-120.7853922224078
 10
109.8365342607353
 20
-122.1196777038451
 10
108.5873426377837
 20
-122.5647840405394
 10
108.9580349119966
 20
-121.3924180469088
 10
110.5889431147139
 20
-120.9893418751346
 10
110.5889431147139
 20
-119.8541829127448
 10
110.5889431147139
 20
-118.8468369928577
 10
108.9580349119966
 20
-118.4437608210835
 10
108.2111382107944
 20
-117.678260604261
 10
107.3746690269758
 20
-118.3624565676316
 10
105.9173936367151
 20
-119.0507866455845
 10
105.9173936367151
 20
-119.898969154053
 10
105.9173936367151
 20
-120.9893418751346
 10
107.9196831327423
 20
-121.8747314148438
 10
107.8748968914341
 20
-122.6447102557972
 10
106.6222601729972
 20
-122.2006374477485
 10
106.4155544438822
 20
-120.9473117102146
 10
105.3282823087374
 20
-120.9083821312312
 10
104.2844183767067
 20
-120.9083821312312
 10
103.930262560823
 20
-122.5217203469737
 10
102.7623751913233
 20
-123.1659532027155
 10
104.012944852469
 20
-123.9769286799433
 10
104.536599366227
 20
-125.2674614487179
 10
105.3737575691427
 20
-125.3060465181527
 10
106.4562065706082
 20
-125.3873507716046
 10
106.8048502337155
 20
-123.5952121001776
 10
108.0554198948611
 20
-123.4749782677424
 10
108.0554198948611
 20
-123.4749782677424
 10
108.0554198948611
 20
-124.0413519655174
 10
108.0554198948611
 20
-124.0413519655174
 10
107.5417561580104
 20
-124.0966457480557
 10
107.4005072431152
 20
-124.6585408217
 10
107.6406303984371
 20
-125.0228596692651
 10
107.0501410322652
 20
-125.4882920693224
 10
106.557147868326
 20
-126.135108746678
 10
106.3039333501601
 20
-126.7636664179619
 10
105.0333821352
 20
-126.2710177635711
 10
103.7442274046195
 20
-126.2546535600162
 10
102.6380072443058
 20
-126.5197536576062
 10
102.6380072443058
 20
-126.5197536576062
 10
95.66685652990273
 20
-117.0736463465996
 10
95.66685652990273
 20
-117.0736463465996
 10
95.13768986336837
 20
-116.3680907912205
 10
94.60852319683399
 20
-115.3979519025741
 10
94.60852319683399
 20
-114.3396185695054
 10
94.60852319683399
 20
-112.5757296810575
 10
96.01963430759231
 20
-111.9583685701007
 10
97.78352319604024
 20
-111.6937852368335
 10
97.78352319604024
 20
-111.6937852368335
 10
97.78352319604024
 20
-108.695174126472
 10
97.78352319604024
 20
-108.695174126472
 10
97.78352319604024
 20
-108.695174126472
 10
77.4988009788892
 20
-108.695174126472
 10
77.4988009788892
 20
-108.695174126472
 10
77.4988009788892
 20
-108.695174126472
 10
77.4988009788892
 20
-111.6937852368335
 10
77.4988009788892
 20
-111.6937852368335
 10
79.26268986733712
 20
-111.8701741256783
 10
83.14324542192253
 20
-112.6639241254799
 10
87.8175509763095
 20
-119.0139241238924
 10
87.8175509763095
 20
-119.0139241238924
 10
89.1866319221478
 20
-120.8827161698661
 10
89.1866319221478
 20
-120.8827161698661
 10
86.53631996534509
 20
-119.640414737885
 10
83.88221840350862
 20
-119.6385199353682
 10
82.48316512694866
 20
-120.4722330427986
 10
82.5692925140799
 20
-120.7099446312808
 10
82.95032007474853
 20
-120.8777207814125
 10
83.01026473619189
 20
-121.180544674566
 10
81.84168834759514
 20
-121.3727810026429
 10
81.08721243632542
 20
-121.9140055033757
 10
80.34582788789966
 20
-122.7642550691353
 10
79.7701524323144
 20
-123.318570932712
 10
79.58721786204764
 20
-124.4961045695704
 10
78.59640840048979
 20
-124.6015244914191
 10
78.254654928353
 20
-124.6387315226598
 10
78.3290689908344
 20
-124.9157171996738
 10
78.71836478066763
 20
-124.8440592135807
 10
80.04128144700357
 20
-124.5980793959338
 10
81.10168183736347
 20
-125.2461018567093
 10
82.31504446726846
 20
-124.5515706068829
 10
81.20193411598424
 20
-125.9444227115695
 10
80.4347113514191
 20
-129.4012315214691
 10
83.34030488367881
 20
-131.4841362518512
 10
84.54333222712806
 20
-132.3467881613578
 10
86.4811984375811
 20
-132.4050102750585
 10
87.15712617178711
 20
-131.1830349064404
 10
88.03872610646255
 20
-129.5865776585756
 10
84.85304631125202
 20
-128.1175889436651
 10
84.43240015250302
 20
-129.922818977936
 10
84.39381508306822
 20
-130.0902506185191
 10
84.38726940164624
 20
-130.2669840169124
 10
84.39312606397117
 20
-130.4385497720779
 10
81.96088865138478
 20
-129.2382785050168
 10
82.44733613390206
 20
-126.511140918893
 10
83.28828394185155
 20
-125.8252224077798
 10
83.28828394185155
 20
-125.8252224077798
 10
83.211802822079
 20
-127.2642387919687
 10
83.9717908861251
 20
-127.9987331494239
 10
84.21467011783523
 20
-127.9598035704406
 10
84.37969019157869
 20
-127.7592990131991
 10
84.52817380699297
 20
-127.5601724941516
 10
85.33846026512373
 20
-128.5068847334983
 10
85.99199487867561
 20
-129.2162298939112
 10
87.53091903193672
 20
-128.9933322160156
 10
87.8299533200564
 20
-128.9506130319985
 10
87.84338919244888
 20
-128.8265895945295
 10
87.72177732181956
 20
-128.6798285268578
 10
87.54263235658657
 20
-128.4669216258694
 10
87.4285996960248
 20
-128.2746852977924
 10
87.32834741740403
 20
-128.0200927414325
 10
86.36062009559735
 20
-125.5265326292086
 10
88.63989526863864
 20
-124.270106305738
 10
90.65355357976718
 20
-124.5539821737226
 10
91.53549802399112
 20
-124.7761908325212
 10
92.23037378336602
 20
-125.2526475381313
 10
92.82534177366867
 20
-125.8496825857251
 10
92.82534177366867
 20
-125.8496825857251
 10
95.50424802299894
 20
-129.5068236980921
 10
95.50424802299894
 20
-129.5068236980921
 10
94.33050399117433
 20
-129.7717515409078
 10
92.94557560610389
 20
-129.8587402019103
 10
92.91698131357631
 20
-129.2021050024217
 10
93.32625865722399
 20
-129.0184814130579
 10
93.60531139152923
 20
-128.6112711267014
 10
93.51091577523339
 20
-128.1255126632811
 10
93.3042100461184
 20
-127.0740695211829
 10
92.16319442140365
 20
-127.2077392260106
 10
91.37840166986373
 20
-127.8433593430392
 10
90.61014537665302
 20
-128.4662326067723
 10
90.29595266839824
 20
-130.0757812174811
 10
92.27171492918902
 20
-130.5911675020744
 10
92.81604001585849
 20
-130.7320719074212
 10
93.45166013288708
 20
-130.7902940211219
 10
94.11587454244325
 20
-130.7269042641933
 10
94.75941837908793
 20
-130.6654093097816
 10
95.42466631728968
 20
-130.5021117837807
 10
96.08578014090911
 20
-130.3007459526679
 10
96.08578014090911
 20
-130.3007459526679
 10
96.65973304875173
 20
-131.0841606660137
 10
96.65973304875173
 20
-131.0841606660137
 10
96.27594941169491
 20
-131.2867322805464
 10
95.89044322689544
 20
-131.440728048737
 10
95.52216251952224
 20
-131.5051513343112
 10
95.53766544920586
 20
-131.8007405269456
 10
95.64411889970009
 20
-132.0305283958118
 10
95.86391599165903
 20
-132.2637613601632
 10
95.42673337458082
 20
-132.5338568462068
 10
94.78146699019352
 20
-132.4222357524847
 10
94.28433971167198
 20
-132.2554931309986
 10
94.1840874330512
 20
-132.2213866856947
 10
93.96050073605849
 20
-132.087716980867
 10
94.03319225079726
 20
-132.4311930007464
 10
94.10347219869635
 20
-132.763644715073
 10
94.50310327498534
 20
-133.0440754875723
 10
94.9506211785193
 20
-133.2121961472525
 10
95.75505097432513
 20
-133.5105414162751
 10
96.71829967200098
 20
-133.0199598191756
 10
97.3832031006542
 20
-132.2833984044292
 10
97.41145288363325
 20
-132.2518757807391
 10
97.43901364751525
 20
-132.2184583545322
 10
97.4672634304943
 20
-132.1864189665194
 10
97.4672634304943
 20
-132.1864189665194
 10
98.5138834389132
 20
-133.6152723190267
 10
98.5138834389132
 20
-133.6152723190267
 10
98.5138834389132
 20
-133.6152723190267
 10
73.60377602326572
 20
-133.6152723190267
 10
73.60377602326572
 20
-133.6152723190267
 10
73.60377602326572
 20
-133.6152723190267
 10
73.60377602326572
 20
-135.2268879870266
 10
73.60377602326572
 20
-135.2268879870266
 10
73.60377602326572
 20
-135.2268879870266
 10
142.512575919233
 20
-135.2268879870266
 10
142.512575919233
 20
-135.2268879870266
 10
142.512575919233
 20
-135.2268879870266
 10
142.512575919233
 20
-133.6152723190267
 10
142.512575919233
 20
-133.6152723190267
 10
142.512575919233
 20
-133.6152723190267
 10
117.5576822622773
 20
-133.6152723190267
 10
117.5576822622773
 20
-133.6152723190267
 97
        0
 92
        1
 93
        1
 72
     4
 94
        3
 73
     0
 74
     1
 95
       14
 96
       10
 40
0.0
 40
0.0
 40
0.0
 40
0.0
 40
1.0
 40
1.0
 40
1.0
 40
2.0
 40
2.0
 40
2.0
 40
3.0
 40
3.0
 40
3.0
 40
3.0
 10
133.6855522669258
 20
-123.4129665490079
 10
133.7200032217783
 20
-123.4384602555987
 10
133.7131130308078
 20
-123.4439724083751
 10
133.6683267894996
 20
-123.4295030073371
 10
131.288454828289
 20
-122.6391981030208
 10
128.385272862869
 20
-121.8802435676202
 10
125.8376247515267
 20
-122.4717664624376
 10
128.075558778745
 20
-121.2983669401615
 10
131.5881781355057
 20
-121.8347683072149
 10
133.6855522669258
 20
-123.4129665490079
 97
        0
 92
        1
 93
        1
 72
     4
 94
        3
 73
     0
 74
     1
 95
       14
 96
       10
 40
0.0
 40
0.0
 40
0.0
 40
0.0
 40
1.0
 40
1.0
 40
1.0
 40
2.0
 40
2.0
 40
2.0
 40
3.0
 40
3.0
 40
3.0
 40
3.0
 10
129.1614528756957
 20
-126.6110486879653
 10
129.1021972333494
 20
-126.723703310333
 10
129.0877278323114
 20
-126.6520453242398
 10
129.0925509659908
 20
-126.5703965612393
 10
129.1741997289912
 20
-125.0810817829659
 10
126.917317676604
 20
-123.1211669614072
 10
124.8860893785007
 20
-123.4673990576748
 10
126.668581782569
 20
-122.3925292662769
 10
130.2184081705704
 20
-124.6091037014866
 10
129.1614528756957
 20
-126.6110486879653
 97
        0
 92
        1
 93
        1
 72
     4
 94
        3
 73
     0
 74
     1
 95
       14
 96
       10
 40
0.0
 40
0.0
 40
0.0
 40
0.0
 40
1.0
 40
1.0
 40
1.0
 40
2.0
 40
2.0
 40
2.0
 40
3.0
 40
3.0
 40
3.0
 40
3.0
 10
81.8523681435994
 20
-123.4295030073371
 10
81.80792641183969
 20
-123.4439724083751
 10
81.80069171132067
 20
-123.4384602555987
 10
81.83548717572168
 20
-123.4129665490079
 10
83.93286130714179
 20
-121.8347683072149
 10
87.44548066390253
 20
-121.2983669401615
 10
89.68341469112082
 20
-122.4717664624376
 10
87.13542207023004
 20
-121.8802435676202
 10
84.23224010481
 20
-122.6391981030208
 10
81.8523681435994
 20
-123.4295030073371
 97
        0
 92
        1
 93
        1
 72
     4
 94
        3
 73
     0
 74
     1
 95
       14
 96
       10
 40
0.0
 40
0.0
 40
0.0
 40
0.0
 40
1.0
 40
1.0
 40
1.0
 40
2.0
 40
2.0
 40
2.0
 40
3.0
 40
3.0
 40
3.0
 40
3.0
 10
86.42848847665677
 20
-126.5703965612393
 10
86.43331161033612
 20
-126.6520453242398
 10
86.41849769974955
 20
-126.723703310333
 10
86.35924205740325
 20
-126.6110486879653
 10
85.30263127207712
 20
-124.6091037014866
 10
88.85245766007856
 20
-122.3925292662769
 10
90.63495006414682
 20
-123.4673990576748
 10
88.60372176604352
 20
-123.1211669614072
 10
86.34649520410782
 20
-125.0810817829659
 10
86.42848847665677
 20
-126.5703965612393
 97
        0
 92
        1
 93
        1
 72
     4
 94
        3
 73
     0
 74
     1
 95
       14
 96
       10
 40
0.0
 40
0.0
 40
0.0
 40
0.0
 40
1.0
 40
1.0
 40
1.0
 40
2.0
 40
2.0
 40
2.0
 40
3.0
 40
3.0
 40
3.0
 40
3.0
 10
116.2113389466416
 20
-129.3524834203529
 10
116.2113389466416
 20
-129.3524834203529
 10
115.5171522063638
 20
-130.4280422308479
 10
115.5171522063638
 20
-130.4280422308479
 10
114.6272840425237
 20
-129.9042154623156
 10
113.003266030777
 20
-129.6024250978077
 10
112.8861327842785
 20
-129.5876111872212
 10
113.7387939168778
 20
-128.9767957576864
 10
114.9738606483399
 20
-128.7723293406368
 10
116.2113389466416
 20
-129.3524834203529
 97
        0
 92
        1
 93
        1
 72
     4
 94
        3
 73
     0
 74
     1
 95
       17
 96
       13
 40
0.0
 40
0.0
 40
0.0
 40
0.0
 40
1.0
 40
1.0
 40
1.0
 40
2.0
 40
2.0
 40
2.0
 40
3.0
 40
3.0
 40
3.0
 40
4.0
 40
4.0
 40
4.0
 40
4.0
 10
107.6447645130194
 20
-132.7720851990119
 10
106.8220757111417
 20
-131.470872634233
 10
106.1141085889229
 20
-130.5415581270868
 10
105.3675563972692
 20
-129.8583956923618
 10
105.1350124520149
 20
-129.6454887913734
 10
104.9079806595369
 20
-129.4622097115581
 10
104.6837049434471
 20
-129.2916774850382
 10
104.6837049434471
 20
-129.2916774850382
 10
103.2429660115156
 20
-127.3393418735471
 10
103.2429660115156
 20
-127.3393418735471
 10
105.2152831768212
 20
-127.9053710617737
 10
107.3788031415581
 20
-129.4544582467163
 10
107.6447645130194
 20
-132.7720851990119
 97
        0
 92
        1
 93
        1
 72
     4
 94
        3
 73
     0
 74
     1
 95
       23
 96
       19
 40
0.0
 40
0.0
 40
0.0
 40
0.0
 40
1.0
 40
1.0
 40
1.0
 40
2.0
 40
2.0
 40
2.0
 40
3.0
 40
3.0
 40
3.0
 40
4.0
 40
4.0
 40
4.0
 40
5.0
 40
5.0
 40
5.0
 40
6.0
 40
6.0
 40
6.0
 40
6.0
 10
110.169674994159
 20
-132.7491753140349
 10
111.7706108661546
 20
-129.8046522027919
 10
114.561827228304
 20
-130.2597493163934
 10
113.9747829576174
 20
-132.7050780918237
 10
113.9541123847059
 20
-132.7913777337292
 10
113.9217284871446
 20
-132.871303948987
 10
113.8890000800347
 20
-132.9507133999221
 10
113.8890000800347
 20
-132.9507133999221
 10
113.4931586087795
 20
-133.5639403962965
 10
113.4931586087795
 20
-133.5639403962965
 10
113.4766221504503
 20
-133.5818548928198
 10
113.4583631443785
 20
-133.597702332052
 10
113.4414821765007
 20
-133.6152723190267
 10
113.4414821765007
 20
-133.6152723190267
 10
109.6715141869918
 20
-133.6152723190267
 10
109.6715141869918
 20
-133.6152723190267
 10
109.8437689612543
 20
-133.3351860560759
 10
110.0081000159008
 20
-133.0461425448635
 10
110.169674994159
 20
-132.7491753140349
 97
        0
 75
     2
 76
     1
 98
        0
  0
SPLINE
  5
49
330
3C
100
AcDbEntity
  8
Layer 1
370
     0
100
AcDbSpline
210
0.0
220
0.0
230
1.0
 70
    11
 71
     3
 72
   209
 73
   205
 74
     0
 42
0.0000000001
 43
0.0000000001
 40
0.0
 40
0.0
 40
0.0
 40
0.0
 40
1.0
 40
1.0
 40
1.0
 40
2.0
 40
2.0
 40
2.0
 40
3.0
 40
3.0
 40
3.0
 40
4.0
 40
4.0
 40
4.0
 40
5.0
 40
5.0
 40
5.0
 40
6.0
 40
6.0
 40
6.0
 40
7.0
 40
7.0
 40
7.0
 40
8.0
 40
8.0
 40
8.0
 40
9.0
 40
9.0
 40
9.0
 40
10.0
 40
10.0
 40
10.0
 40
11.0
 40
11.0
 40
11.0
 40
12.0
 40
12.0
 40
12.0
 40
13.0
 40
13.0
 40
13.0
 40
14.0
 40
14.0
 40
14.0
 40
15.0
 40
15.0
 40
15.0
 40
16.0
 40
16.0
 40
16.0
 40
17.0
 40
17.0
 40
17.0
 40
18.0
 40
18.0
 40
18.0
 40
19.0
 40
19.0
 40
19.0
 40
20.0
 40
20.0
 40
20.0
 40
21.0
 40
21.0
 40
21.0
 40
22.0
 40
22.0
 40
22.0
 40
23.0
 40
23.0
 40
23.0
 40
24.0
 40
24.0
 40
24.0
 40
25.0
 40
25.0
 40
25.0
 40
26.0
 40
26.0
 40
26.0
 40
27.0
 40
27.0
 40
27.0
 40
28.0
 40
28.0
 40
28.0
 40
29.0
 40
29.0
 40
29.0
 40
30.0
 40
30.0
 40
30.0
 40
31.0
 40
31.0
 40
31.0
 40
32.0
 40
32.0
 40
32.0
 40
33.0
 40
33.0
 40
33.0
 40
34.0
 40
34.0
 40
34.0
 40
35.0
 40
35.0
 40
35.0
 40
36.0
 40
36.0
 40
36.0
 40
37.0
 40
37.0
 40
37.0
 40
38.0
 40
38.0
 40
38.0
 40
39.0
 40
39.0
 40
39.0
 40
40.0
 40
40.0
 40
40.0
 40
41.0
 40
41.0
 40
41.0
 40
42.0
 40
42.0
 40
42.0
 40
43.0
 40
43.0
 40
43.0
 40
44.0
 40
44.0
 40
44.0
 40
45.0
 40
45.0
 40
45.0
 40
46.0
 40
46.0
 40
46.0
 40
47.0
 40
47.0
 40
47.0
 40
48.0
 40
48.0
 40
48.0
 40
49.0
 40
49.0
 40
49.0
 40
50.0
 40
50.0
 40
50.0
 40
51.0
 40
51.0
 40
51.0
 40
52.0
 40
52.0
 40
52.0
 40
53.0
 40
53.0
 40
53.0
 40
54.0
 40
54.0
 40
54.0
 40
55.0
 40
55.0
 40
55.0
 40
56.0
 40
56.0
 40
56.0
 40
57.0
 40
57.0
 40
57.0
 40
58.0
 40
58.0
 40
58.0
 40
59.0
 40
59.0
 40
59.0
 40
60.0
 40
60.0
 40
60.0
 40
61.0
 40
61.0
 40
61.0
 40
62.0
 40
62.0
 40
62.0
 40
63.0
 40
63.0
 40
63.0
 40
64.0
 40
64.0
 40
64.0
 40
65.0
 40
65.0
 40
65.0
 40
66.0
 40
66.0
 40
66.0
 40
67.0
 40
67.0
 40
67.0
 40
68.0
 40
68.0
 40
68.0
 40
68.0
 10
73.60377602326572
 20
-147.2213324284725
 30
0.0
 10
73.60377602326572
 20
-147.2213324284725
 30
0.0
 10
84.59328611166418
 20
-147.2213324284725
 30
0.0
 10
84.59328611166418
 20
-147.2213324284725
 30
0.0
 10
84.21467011783523
 20
-147.4328612912668
 30
0.0
 10
83.99211694948809
 20
-147.78012691618
 30
0.0
 10
83.99211694948809
 20
-148.2645073414061
 30
0.0
 10
83.99211694948809
 20
-148.9263101841226
 30
0.0
 10
84.52782929744444
 20
-149.4616780225304
 30
0.0
 10
85.19101017835503
 20
-149.4616780225304
 30
0.0
 10
85.85212400197447
 20
-149.4616780225304
 30
0.0
 10
86.38990340722198
 20
-148.9263101841226
 30
0.0
 10
86.38990340722198
 20
-148.2645073414061
 30
0.0
 10
86.38990340722198
 20
-148.0016465558815
 30
0.0
 10
86.30239798189663
 20
-147.7577337955258
 30
0.0
 10
86.15977102880728
 20
-147.5617078624151
 30
0.0
 10
87.60292152757845
 20
-147.6426676063185
 30
0.0
 10
90.1671060972499
 20
-149.3569471197788
 30
0.0
 10
92.89355466427662
 20
-150.1968613990827
 30
0.0
 10
95.8208522980934
 20
-151.0980983780241
 30
0.0
 10
100.0665879741153
 20
-151.854641346585
 30
0.0
 10
102.9425536852019
 20
-150.2860893721507
 30
0.0
 10
103.8909884722911
 20
-149.7682915207177
 30
0.0
 10
104.0601426606169
 20
-148.8953043247554
 30
0.0
 10
103.3966172701578
 20
-148.3640706009298
 30
0.0
 10
103.6081461329521
 20
-148.1973279794437
 30
0.0
 10
103.813473823873
 20
-147.9933783267169
 30
0.0
 10
103.9984754514309
 20
-147.7622124196567
 30
0.0
 10
104.1176757552206
 20
-147.7635904578508
 30
0.0
 10
104.2840738671582
 20
-147.7642794769478
 30
0.0
 10
104.4863009721423
 20
-147.7653130055934
 30
0.0
 10
104.4863009721423
 20
-147.7653130055934
 30
0.0
 10
104.4863009721423
 20
-152.9746418888397
 30
0.0
 10
104.4863009721423
 20
-152.9746418888397
 30
0.0
 10
104.3846706553275
 20
-154.2837781732346
 30
0.0
 10
104.0842583290137
 20
-155.5460611590302
 30
0.0
 10
103.1895670314943
 20
-156.5823458809933
 30
0.0
 10
101.5710611725239
 20
-158.0974988754062
 30
0.0
 10
98.80499400741681
 20
-158.3438232026016
 30
0.0
 10
98.18659936781447
 20
-155.4213487024641
 30
0.0
 10
98.1249321586285
 20
-155.1219699047959
 30
0.0
 10
98.11218530533307
 20
-154.8722004821153
 30
0.0
 10
98.14525822199147
 20
-154.5635199266369
 30
0.0
 10
98.16661781400002
 20
-154.3513020447455
 30
0.0
 10
98.08083493641729
 20
-154.2434705560572
 30
0.0
 10
97.78972436791368
 20
-154.3898871141803
 30
0.0
 10
96.29248587002411
 20
-155.1381618535766
 30
0.0
 10
96.13297794905704
 20
-156.2040743967129
 30
0.0
 10
95.97450355673554
 20
-157.5886582722348
 30
0.0
 10
95.72473413405493
 20
-157.4959852036816
 30
0.0
 10
95.45946178169069
 20
-157.4119248738415
 30
0.0
 10
95.22106117411141
 20
-157.5263020439518
 30
0.0
 10
94.98128252833801
 20
-158.6817870697046
 30
0.0
 10
95.90146753244825
 20
-159.9736978766732
 30
0.0
 10
95.90146753244825
 20
-159.9736978766732
 30
0.0
 10
94.74977211172923
 20
-159.8579426683688
 30
0.0
 10
92.70235186484526
 20
-157.6220756984417
 30
0.0
 10
94.15032549729575
 20
-154.9934678431961
 30
0.0
 10
94.2460991517857
 20
-155.1567653691969
 30
0.0
 10
94.3563422073137
 20
-155.3176513283581
 30
0.0
 10
94.49035642168991
 20
-155.4499429949917
 30
0.0
 10
95.93247339181549
 20
-156.868288806269
 30
0.0
 10
97.88928762743741
 20
-153.5220675614459
 30
0.0
 10
96.16157224158461
 20
-152.5839680608123
 30
0.0
 10
94.83865557524868
 20
-151.8663546712348
 30
0.0
 10
93.15331486386445
 20
-153.1241590328995
 30
0.0
 10
92.59658743344808
 20
-154.674452001262
 30
0.0
 10
91.25196666555507
 20
-158.4178927555344
 30
0.0
 10
93.97944876122736
 20
-161.1584662140507
 30
0.0
 10
95.79225800556583
 20
-161.7637694908091
 30
0.0
 10
94.30432126548642
 20
-161.8709119604003
 30
0.0
 10
93.746904815973
 20
-163.1328504366473
 30
0.0
 10
92.42743324512232
 20
-163.7257513696588
 30
0.0
 10
92.03951549348318
 20
-163.9007622203095
 30
0.0
 10
92.1377007148128
 20
-164.2049641516571
 30
0.0
 10
92.46257321907186
 20
-164.0268527150697
 30
0.0
 10
93.40411781519065
 20
-163.5097438827337
 30
0.0
 10
94.264013648309
 20
-164.4922851151269
 30
0.0
 10
95.10254988941881
 20
-164.6507595074484
 30
0.0
 10
96.26423608704506
 20
-164.9814886740324
 30
0.0
 10
97.25470103905438
 20
-165.016628647982
 30
0.0
 10
98.4050184215793
 20
-164.4698919944728
 30
0.0
 10
98.5317979354365
 20
-164.7889078364069
 30
0.0
 10
98.29236379921164
 20
-165.1816487217254
 30
0.0
 10
98.35678708478581
 20
-165.4562228318999
 30
0.0
 10
100.2502115634791
 20
-165.3549370246335
 30
0.0
 10
102.882953533307
 20
-163.4053574895306
 30
0.0
 10
104.4863009721423
 20
-160.121836982539
 30
0.0
 10
104.4863009721423
 20
-160.121836982539
 30
0.0
 10
104.4863009721423
 20
-160.2889241135736
 30
0.0
 10
104.4863009721423
 20
-160.2889241135736
 30
0.0
 10
104.4863009721423
 20
-164.5222574458486
 30
0.0
 10
103.1633843058064
 20
-166.9917018896757
 30
0.0
 10
99.28282875122096
 20
-167.4326741117877
 30
0.0
 10
99.28282875122096
 20
-167.4326741117877
 30
0.0
 10
99.28282875122096
 20
-170.4312852221491
 30
0.0
 10
99.28282875122096
 20
-170.4312852221491
 30
0.0
 10
99.28282875122096
 20
-170.4312852221491
 30
0.0
 10
117.2744954133897
 20
-170.4312852221491
 30
0.0
 10
117.2744954133897
 20
-170.4312852221491
 30
0.0
 10
117.2744954133897
 20
-170.4312852221491
 30
0.0
 10
117.2744954133897
 20
-167.4326741117877
 30
0.0
 10
117.2744954133897
 20
-167.4326741117877
 30
0.0
 10
113.2175509699595
 20
-166.9917018896757
 30
0.0
 10
112.0710231924684
 20
-164.0812852237366
 30
0.0
 10
112.0710231924684
 20
-160.2889241135736
 30
0.0
 10
112.0710231924684
 20
-160.2889241135736
 30
0.0
 10
112.0710231924684
 20
-160.1394069695138
 30
0.0
 10
112.0710231924684
 20
-160.1394069695138
 30
0.0
 10
113.6750596504007
 20
-163.4122476805011
 30
0.0
 10
116.3019449579037
 20
-165.3549370246335
 30
0.0
 10
118.1922688506603
 20
-165.4562228318999
 30
0.0
 10
118.2566921362344
 20
-165.1816487217254
 30
0.0
 10
118.0172580000096
 20
-164.7889078364069
 30
0.0
 10
118.1436930043183
 20
-164.4698919944728
 30
0.0
 10
119.2943548963917
 20
-165.016628647982
 30
0.0
 10
120.284819848401
 20
-164.9814886740324
 30
0.0
 10
121.4461615364787
 20
-164.6507595074484
 30
0.0
 10
122.2850422871371
 20
-164.4922851151269
 30
0.0
 10
123.1445936107069
 20
-163.5097438827337
 30
0.0
 10
124.0864827163742
 20
-164.0268527150697
 30
0.0
 10
124.4113552206333
 20
-164.2049641516571
 30
0.0
 10
124.5091959324144
 20
-163.9007622203095
 30
0.0
 10
124.1216226903238
 20
-163.7257513696588
 30
0.0
 10
122.8018066099246
 20
-163.1328504366473
 30
0.0
 10
122.2447346699597
 20
-161.8709119604003
 30
0.0
 10
120.7567979298802
 20
-161.7637694908091
 30
0.0
 10
122.5696071742187
 20
-161.1584662140507
 30
0.0
 10
125.297089269891
 20
-158.4178927555344
 30
0.0
 10
123.9521239924495
 20
-154.674452001262
 30
0.0
 10
123.3953965620331
 20
-153.1241590328995
 30
0.0
 10
121.7104003601974
 20
-151.8663546712348
 30
0.0
 10
120.3871391843129
 20
-152.5839680608123
 30
0.0
 10
118.6594237984602
 20
-153.5220675614459
 30
0.0
 10
120.6162380340821
 20
-156.868288806269
 30
0.0
 10
122.0583550042076
 20
-155.4499429949917
 30
0.0
 10
122.1923692185839
 20
-155.3176513283581
 30
0.0
 10
122.3026122741119
 20
-155.1567653691969
 30
0.0
 10
122.3987304381503
 20
-154.9934678431961
 30
0.0
 10
123.8463595610523
 20
-157.6220756984417
 30
0.0
 10
121.7992838237168
 20
-159.8579426683688
 30
0.0
 10
120.6475884029978
 20
-159.9736978766732
 30
0.0
 10
120.6475884029978
 20
-159.9736978766732
 30
0.0
 10
121.5674288975595
 20
-158.6817870697046
 30
0.0
 10
121.3276502517862
 20
-157.5263020439518
 30
0.0
 10
121.0892496442069
 20
-157.4119248738415
 30
0.0
 10
120.8243218013912
 20
-157.4959852036816
 30
0.0
 10
120.5745523787105
 20
-157.5886582722348
 30
0.0
 10
120.4157334768405
 20
-156.2040743967129
 30
0.0
 10
120.2562255558734
 20
-155.1381618535766
 30
0.0
 10
118.7589870579839
 20
-154.3898871141803
 30
0.0
 10
118.4682209990288
 20
-154.2434705560572
 30
0.0
 10
118.3824381214461
 20
-154.3513020447455
 30
0.0
 10
118.4034532039061
 20
-154.5635199266369
 30
0.0
 10
118.4365261205645
 20
-154.8722004821153
 30
0.0
 10
118.4241237768176
 20
-155.1219699047959
 30
0.0
 10
118.3621120580831
 20
-155.4213487024641
 30
0.0
 10
117.7440619280293
 20
-158.3438232026016
 30
0.0
 10
114.9776502533737
 20
-158.0974988754062
 30
0.0
 10
113.3591443944033
 20
-156.5823458809933
 30
0.0
 10
112.4889132748292
 20
-155.5743109420092
 30
0.0
 10
112.1805772288993
 20
-154.351646554294
 30
0.0
 10
112.0710231924684
 20
-153.0807508297854
 30
0.0
 10
112.0710231924684
 20
-153.0807508297854
 30
0.0
 10
112.0710231924684
 20
-147.7649684960449
 30
0.0
 10
112.0710231924684
 20
-147.7649684960449
 30
0.0
 10
112.2281195465957
 20
-147.7642794769478
 30
0.0
 10
112.3617892514234
 20
-147.7632459483023
 30
0.0
 10
112.4606634918501
 20
-147.7622124196567
 30
0.0
 10
112.6470431576021
 20
-147.9933783267169
 30
0.0
 10
112.852370848523
 20
-148.1973279794437
 30
0.0
 10
113.0649332399629
 20
-148.3640706009298
 30
0.0
 10
112.4003743208582
 20
-148.8953043247554
 30
0.0
 10
112.5705620378296
 20
-149.7682915207177
 30
0.0
 10
113.5189968249189
 20
-150.2860893721507
 30
0.0
 10
116.3939290073599
 20
-151.854641346585
 30
0.0
 10
120.6403537024788
 20
-151.0980983780241
 30
0.0
 10
123.5679958458441
 20
-150.1968613990827
 30
0.0
 10
126.2934108842253
 20
-149.3569471197788
 30
0.0
 10
128.8586289825423
 20
-147.6426676063185
 30
0.0
 10
130.3017794813134
 20
-147.5617078624151
 30
0.0
 10
130.1581189995785
 20
-147.7577337955258
 30
0.0
 10
130.0713025933502
 20
-148.0016465558815
 30
0.0
 10
130.0713025933502
 20
-148.2645073414061
 30
0.0
 10
130.0713025933502
 20
-148.9263101841226
 30
0.0
 10
130.6090819985977
 20
-149.4616780225304
 30
0.0
 10
131.2684732744746
 20
-149.4616780225304
 30
0.0
 10
131.9323431744822
 20
-149.4616780225304
 30
0.0
 10
132.4684000319871
 20
-148.9263101841226
 30
0.0
 10
132.4684000319871
 20
-148.2645073414061
 30
0.0
 10
132.4684000319871
 20
-147.78012691618
 30
0.0
 10
132.2458468636399
 20
-147.4328612912668
 30
0.0
 10
131.8668863602624
 20
-147.2213324284725
 30
0.0
 10
131.8668863602624
 20
-147.2213324284725
 30
0.0
 10
142.512575919233
 20
-147.2213324284725
 30
0.0
 10
142.512575919233
 20
-147.2213324284725
 30
0.0
 10
142.512575919233
 20
-147.2213324284725
 30
0.0
 10
142.512575919233
 20
-145.6097167604726
 30
0.0
 10
142.512575919233
 20
-145.6097167604726
 30
0.0
 10
142.512575919233
 20
-145.6097167604726
 30
0.0
 10
73.60377602326572
 20
-145.6097167604726
 30
0.0
 10
73.60377602326572
 20
-145.6097167604726
 30
0.0
 10
73.60377602326572
 20
-145.6097167604726
 30
0.0
 10
73.60377602326572
 20
-147.2213324284725
 30
0.0
 10
73.60377602326572
 20
-147.2213324284725
 30
0.0
  0
SPLINE
  5
4A
330
3C
100
AcDbEntity
  8
Layer 1
370
     0
100
AcDbSpline
210
0.0
220
0.0
230
1.0
 70
    11
 71
     3
 72
    14
 73
    10
 74
     0
 42
0.0000000001
 43
0.0000000001
 40
0.0
 40
0.0
 40
0.0
 40
0.0
 40
1.0
 40
1.0
 40
1.0
 40
2.0
 40
2.0
 40
2.0
 40
3.0
 40
3.0
 40
3.0
 40
3.0
 10
96.04099389960086
 20
-163.1221706406431
 30
0.0
 10
95.99448511054999
 20
-163.1194145642549
 30
0.0
 10
95.99793020603525
 20
-163.1094237873477
 30
0.0
 10
96.04581703328022
 20
-163.0956434054067
 30
0.0
 10
98.62584904218382
 20
-162.3528808187868
 30
0.0
 10
101.6513318973302
 20
-161.2559624162832
 30
0.0
 10
103.5623263629983
 20
-159.1227592918165
 30
0.0
 10
102.2711045751267
 20
-161.6052950984876
 30
0.0
 10
98.83634437633259
 20
-163.2875352239351
 30
0.0
 10
96.04099389960086
 20
-163.1221706406431
 30
0.0
  0
SPLINE
  5
4B
330
3C
100
AcDbEntity
  8
Layer 1
370
     0
100
AcDbSpline
210
0.0
220
0.0
230
1.0
 70
    11
 71
     3
 72
    14
 73
    10
 74
     0
 42
0.0000000001
 43
0.0000000001
 40
0.0
 40
0.0
 40
0.0
 40
0.0
 40
1.0
 40
1.0
 40
1.0
 40
2.0
 40
2.0
 40
2.0
 40
3.0
 40
3.0
 40
3.0
 40
3.0
 10
98.16110566122362
 20
-157.3350992445204
 30
0.0
 10
98.14732527928261
 20
-157.1931613105281
 30
0.0
 10
98.20244680704661
 20
-157.2506944051318
 30
0.0
 10
98.24688853880633
 20
-157.329587091744
 30
0.0
 10
99.05614146829153
 20
-158.7665364186417
 30
0.0
 10
102.2194281428479
 20
-159.1895941442304
 30
0.0
 10
103.8172634289068
 20
-157.605194730564
 30
0.0
 10
102.8719292277543
 20
-159.7132486579884
 30
0.0
 10
98.4091525361616
 20
-159.8544975728836
 30
0.0
 10
98.16110566122362
 20
-157.3350992445204
 30
0.0
  0
SPLINE
  5
4C
330
3C
100
AcDbEntity
  8
Layer 1
370
     0
100
AcDbSpline
210
0.0
220
0.0
230
1.0
 70
    11
 71
     3
 72
    14
 73
    10
 74
     0
 42
0.0000000001
 43
0.0000000001
 40
0.0
 40
0.0
 40
0.0
 40
0.0
 40
1.0
 40
1.0
 40
1.0
 40
2.0
 40
2.0
 40
2.0
 40
3.0
 40
3.0
 40
3.0
 40
3.0
 10
120.5032389021659
 20
-163.0956434054067
 30
0.0
 10
120.5507812198623
 20
-163.1094237873477
 30
0.0
 10
120.5542263153476
 20
-163.1194145642549
 30
0.0
 10
120.5077175262967
 20
-163.1221706406431
 30
0.0
 10
117.7127115591135
 20
-163.2875352239351
 30
0.0
 10
114.2776068507709
 20
-161.6052950984876
 30
0.0
 10
112.9867295724478
 20
-159.1227592918165
 30
0.0
 10
114.8973795285673
 20
-161.2559624162832
 30
0.0
 10
117.9228623837137
 20
-162.3528808187868
 30
0.0
 10
120.5032389021659
 20
-163.0956434054067
 30
0.0
  0
SPLINE
  5
4D
330
3C
100
AcDbEntity
  8
Layer 1
370
     0
100
AcDbSpline
210
0.0
220
0.0
230
1.0
 70
    11
 71
     3
 72
    14
 73
    10
 74
     0
 42
0.0000000001
 43
0.0000000001
 40
0.0
 40
0.0
 40
0.0
 40
0.0
 40
1.0
 40
1.0
 40
1.0
 40
2.0
 40
2.0
 40
2.0
 40
3.0
 40
3.0
 40
3.0
 40
3.0
 10
118.3018228870912
 20
-157.329587091744
 30
0.0
 10
118.3462646188509
 20
-157.2506944051318
 30
0.0
 10
118.4017306561635
 20
-157.1931613105281
 30
0.0
 10
118.3876057646739
 20
-157.3350992445204
 30
0.0
 10
118.139558889736
 20
-159.8544975728836
 30
0.0
 10
113.6767821981433
 20
-159.7132486579884
 30
0.0
 10
112.7317925065393
 20
-157.605194730564
 30
0.0
 10
114.3296277925982
 20
-159.1895941442304
 30
0.0
 10
117.4929144671545
 20
-158.7665364186417
 30
0.0
 10
118.3018228870912
 20
-157.329587091744
 30
0.0
  0
SPLINE
  5
4E
330
3C
100
AcDbEntity
  8
Layer 1
370
     0
100
AcDbSpline
210
0.0
220
0.0
230
1.0
 70
    11
 71
     3
 72
    14
 73
    10
 74
     0
 42
0.0000000001
 43
0.0000000001
 40
0.0
 40
0.0
 40
0.0
 40
0.0
 40
1.0
 40
1.0
 40
1.0
 40
2.0
 40
2.0
 40
2.0
 40
3.0
 40
3.0
 40
3.0
 40
3.0
 10
87.3679660154844
 20
-147.270252784363
 30
0.0
 10
87.31215546862336
 20
-147.2523382878397
 30
0.0
 10
87.25806746950494
 20
-147.2378688868017
 30
0.0
 10
87.20294594174094
 20
-147.2213324284725
 30
0.0
 10
87.20294594174094
 20
-147.2213324284725
 30
0.0
 10
103.0255804863964
 20
-147.2213324284725
 30
0.0
 10
103.0255804863964
 20
-147.2213324284725
 30
0.0
 10
99.8805528179118
 20
-151.4415743979035
 30
0.0
 10
88.46522892753647
 20
-147.6257866384408
 30
0.0
 10
87.3679660154844
 20
-147.270252784363
 30
0.0
  0
SPLINE
  5
4F
330
3C
100
AcDbEntity
  8
Layer 1
370
     0
100
AcDbSpline
210
0.0
220
0.0
230
1.0
 70
    11
 71
     3
 72
    14
 73
    10
 74
     0
 42
0.0000000001
 43
0.0000000001
 40
0.0
 40
0.0
 40
0.0
 40
0.0
 40
1.0
 40
1.0
 40
1.0
 40
2.0
 40
2.0
 40
2.0
 40
3.0
 40
3.0
 40
3.0
 40
3.0
 10
129.0935844946363
 20
-147.270252784363
 30
0.0
 10
127.9970106016813
 20
-147.6257866384408
 30
0.0
 10
116.5806531826604
 20
-151.4415743979035
 30
0.0
 10
113.4352810046273
 20
-147.2213324284725
 30
0.0
 10
113.4352810046273
 20
-147.2213324284725
 30
0.0
 10
129.2586045683798
 20
-147.2213324284725
 30
0.0
 10
129.2586045683798
 20
-147.2213324284725
 30
0.0
 10
129.2034830406158
 20
-147.2378688868017
 30
0.0
 10
129.1493950414974
 20
-147.2523382878397
 30
0.0
 10
129.0935844946363
 20
-147.270252784363
 30
0.0
  0
HATCH
  5
50
330
3C
100
AcDbEntity
  8
Layer 1
 62
   250
420
  2301728
100
AcDbHatch
 10
0.0
 20
0.0
 30
0.0
210
0.0
220
0.0
230
1.0
  2
SOLID
 70
     1
 71
     0
 91
        7
 92
        1
 93
        1
 72
     4
 94
        3
 73
     0
 74
     1
 95
      209
 96
      205
 40
0.0
 40
0.0
 40
0.0
 40
0.0
 40
1.0
 40
1.0
 40
1.0
 40
2.0
 40
2.0
 40
2.0
 40
3.0
 40
3.0
 40
3.0
 40
4.0
 40
4.0
 40
4.0
 40
5.0
 40
5.0
 40
5.0
 40
6.0
 40
6.0
 40
6.0
 40
7.0
 40
7.0
 40
7.0
 40
8.0
 40
8.0
 40
8.0
 40
9.0
 40
9.0
 40
9.0
 40
10.0
 40
10.0
 40
10.0
 40
11.0
 40
11.0
 40
11.0
 40
12.0
 40
12.0
 40
12.0
 40
13.0
 40
13.0
 40
13.0
 40
14.0
 40
14.0
 40
14.0
 40
15.0
 40
15.0
 40
15.0
 40
16.0
 40
16.0
 40
16.0
 40
17.0
 40
17.0
 40
17.0
 40
18.0
 40
18.0
 40
18.0
 40
19.0
 40
19.0
 40
19.0
 40
20.0
 40
20.0
 40
20.0
 40
21.0
 40
21.0
 40
21.0
 40
22.0
 40
22.0
 40
22.0
 40
23.0
 40
23.0
 40
23.0
 40
24.0
 40
24.0
 40
24.0
 40
25.0
 40
25.0
 40
25.0
 40
26.0
 40
26.0
 40
26.0
 40
27.0
 40
27.0
 40
27.0
 40
28.0
 40
28.0
 40
28.0
 40
29.0
 40
29.0
 40
29.0
 40
30.0
 40
30.0
 40
30.0
 40
31.0
 40
31.0
 40
31.0
 40
32.0
 40
32.0
 40
32.0
 40
33.0
 40
33.0
 40
33.0
 40
34.0
 40
34.0
 40
34.0
 40
35.0
 40
35.0
 40
35.0
 40
36.0
 40
36.0
 40
36.0
 40
37.0
 40
37.0
 40
37.0
 40
38.0
 40
38.0
 40
38.0
 40
39.0
 40
39.0
 40
39.0
 40
40.0
 40
40.0
 40
40.0
 40
41.0
 40
41.0
 40
41.0
 40
42.0
 40
42.0
 40
42.0
 40
43.0
 40
43.0
 40
43.0
 40
44.0
 40
44.0
 40
44.0
 40
45.0
 40
45.0
 40
45.0
 40
46.0
 40
46.0
 40
46.0
 40
47.0
 40
47.0
 40
47.0
 40
48.0
 40
48.0
 40
48.0
 40
49.0
 40
49.0
 40
49.0
 40
50.0
 40
50.0
 40
50.0
 40
51.0
 40
51.0
 40
51.0
 40
52.0
 40
52.0
 40
52.0
 40
53.0
 40
53.0
 40
53.0
 40
54.0
 40
54.0
 40
54.0
 40
55.0
 40
55.0
 40
55.0
 40
56.0
 40
56.0
 40
56.0
 40
57.0
 40
57.0
 40
57.0
 40
58.0
 40
58.0
 40
58.0
 40
59.0
 40
59.0
 40
59.0
 40
60.0
 40
60.0
 40
60.0
 40
61.0
 40
61.0
 40
61.0
 40
62.0
 40
62.0
 40
62.0
 40
63.0
 40
63.0
 40
63.0
 40
64.0
 40
64.0
 40
64.0
 40
65.0
 40
65.0
 40
65.0
 40
66.0
 40
66.0
 40
66.0
 40
67.0
 40
67.0
 40
67.0
 40
68.0
 40
68.0
 40
68.0
 40
68.0
 10
73.60377602326572
 20
-147.2213324284725
 10
73.60377602326572
 20
-147.2213324284725
 10
84.59328611166418
 20
-147.2213324284725
 10
84.59328611166418
 20
-147.2213324284725
 10
84.21467011783523
 20
-147.4328612912668
 10
83.99211694948809
 20
-147.78012691618
 10
83.99211694948809
 20
-148.2645073414061
 10
83.99211694948809
 20
-148.9263101841226
 10
84.52782929744444
 20
-149.4616780225304
 10
85.19101017835503
 20
-149.4616780225304
 10
85.85212400197447
 20
-149.4616780225304
 10
86.38990340722198
 20
-148.9263101841226
 10
86.38990340722198
 20
-148.2645073414061
 10
86.38990340722198
 20
-148.0016465558815
 10
86.30239798189663
 20
-147.7577337955258
 10
86.15977102880728
 20
-147.5617078624151
 10
87.60292152757845
 20
-147.6426676063185
 10
90.1671060972499
 20
-149.3569471197788
 10
92.89355466427662
 20
-150.1968613990827
 10
95.8208522980934
 20
-151.0980983780241
 10
100.0665879741153
 20
-151.854641346585
 10
102.9425536852019
 20
-150.2860893721507
 10
103.8909884722911
 20
-149.7682915207177
 10
104.0601426606169
 20
-148.8953043247554
 10
103.3966172701578
 20
-148.3640706009298
 10
103.6081461329521
 20
-148.1973279794437
 10
103.813473823873
 20
-147.9933783267169
 10
103.9984754514309
 20
-147.7622124196567
 10
104.1176757552206
 20
-147.7635904578508
 10
104.2840738671582
 20
-147.7642794769478
 10
104.4863009721423
 20
-147.7653130055934
 10
104.4863009721423
 20
-147.7653130055934
 10
104.4863009721423
 20
-152.9746418888397
 10
104.4863009721423
 20
-152.9746418888397
 10
104.3846706553275
 20
-154.2837781732346
 10
104.0842583290137
 20
-155.5460611590302
 10
103.1895670314943
 20
-156.5823458809933
 10
101.5710611725239
 20
-158.0974988754062
 10
98.80499400741681
 20
-158.3438232026016
 10
98.18659936781447
 20
-155.4213487024641
 10
98.1249321586285
 20
-155.1219699047959
 10
98.11218530533307
 20
-154.8722004821153
 10
98.14525822199147
 20
-154.5635199266369
 10
98.16661781400002
 20
-154.3513020447455
 10
98.08083493641729
 20
-154.2434705560572
 10
97.78972436791368
 20
-154.3898871141803
 10
96.29248587002411
 20
-155.1381618535766
 10
96.13297794905704
 20
-156.2040743967129
 10
95.97450355673554
 20
-157.5886582722348
 10
95.72473413405493
 20
-157.4959852036816
 10
95.45946178169069
 20
-157.4119248738415
 10
95.22106117411141
 20
-157.5263020439518
 10
94.98128252833801
 20
-158.6817870697046
 10
95.90146753244825
 20
-159.9736978766732
 10
95.90146753244825
 20
-159.9736978766732
 10
94.74977211172923
 20
-159.8579426683688
 10
92.70235186484526
 20
-157.6220756984417
 10
94.15032549729575
 20
-154.9934678431961
 10
94.2460991517857
 20
-155.1567653691969
 10
94.3563422073137
 20
-155.3176513283581
 10
94.49035642168991
 20
-155.4499429949917
 10
95.93247339181549
 20
-156.868288806269
 10
97.88928762743741
 20
-153.5220675614459
 10
96.16157224158461
 20
-152.5839680608123
 10
94.83865557524868
 20
-151.8663546712348
 10
93.15331486386445
 20
-153.1241590328995
 10
92.59658743344808
 20
-154.674452001262
 10
91.25196666555507
 20
-158.4178927555344
 10
93.97944876122736
 20
-161.1584662140507
 10
95.79225800556583
 20
-161.7637694908091
 10
94.30432126548642
 20
-161.8709119604003
 10
93.746904815973
 20
-163.1328504366473
 10
92.42743324512232
 20
-163.7257513696588
 10
92.03951549348318
 20
-163.9007622203095
 10
92.1377007148128
 20
-164.2049641516571
 10
92.46257321907186
 20
-164.0268527150697
 10
93.40411781519065
 20
-163.5097438827337
 10
94.264013648309
 20
-164.4922851151269
 10
95.10254988941881
 20
-164.6507595074484
 10
96.26423608704506
 20
-164.9814886740324
 10
97.25470103905438
 20
-165.016628647982
 10
98.4050184215793
 20
-164.4698919944728
 10
98.5317979354365
 20
-164.7889078364069
 10
98.29236379921164
 20
-165.1816487217254
 10
98.35678708478581
 20
-165.4562228318999
 10
100.2502115634791
 20
-165.3549370246335
 10
102.882953533307
 20
-163.4053574895306
 10
104.4863009721423
 20
-160.121836982539
 10
104.4863009721423
 20
-160.121836982539
 10
104.4863009721423
 20
-160.2889241135736
 10
104.4863009721423
 20
-160.2889241135736
 10
104.4863009721423
 20
-164.5222574458486
 10
103.1633843058064
 20
-166.9917018896757
 10
99.28282875122096
 20
-167.4326741117877
 10
99.28282875122096
 20
-167.4326741117877
 10
99.28282875122096
 20
-170.4312852221491
 10
99.28282875122096
 20
-170.4312852221491
 10
99.28282875122096
 20
-170.4312852221491
 10
117.2744954133897
 20
-170.4312852221491
 10
117.2744954133897
 20
-170.4312852221491
 10
117.2744954133897
 20
-170.4312852221491
 10
117.2744954133897
 20
-167.4326741117877
 10
117.2744954133897
 20
-167.4326741117877
 10
113.2175509699595
 20
-166.9917018896757
 10
112.0710231924684
 20
-164.0812852237366
 10
112.0710231924684
 20
-160.2889241135736
 10
112.0710231924684
 20
-160.2889241135736
 10
112.0710231924684
 20
-160.1394069695138
 10
112.0710231924684
 20
-160.1394069695138
 10
113.6750596504007
 20
-163.4122476805011
 10
116.3019449579037
 20
-165.3549370246335
 10
118.1922688506603
 20
-165.4562228318999
 10
118.2566921362344
 20
-165.1816487217254
 10
118.0172580000096
 20
-164.7889078364069
 10
118.1436930043183
 20
-164.4698919944728
 10
119.2943548963917
 20
-165.016628647982
 10
120.284819848401
 20
-164.9814886740324
 10
121.4461615364787
 20
-164.6507595074484
 10
122.2850422871371
 20
-164.4922851151269
 10
123.1445936107069
 20
-163.5097438827337
 10
124.0864827163742
 20
-164.0268527150697
 10
124.4113552206333
 20
-164.2049641516571
 10
124.5091959324144
 20
-163.9007622203095
 10
124.1216226903238
 20
-163.7257513696588
 10
122.8018066099246
 20
-163.1328504366473
 10
122.2447346699597
 20
-161.8709119604003
 10
120.7567979298802
 20
-161.7637694908091
 10
122.5696071742187
 20
-161.1584662140507
 10
125.297089269891
 20
-158.4178927555344
 10
123.9521239924495
 20
-154.674452001262
 10
123.3953965620331
 20
-153.1241590328995
 10
121.7104003601974
 20
-151.8663546712348
 10
120.3871391843129
 20
-152.5839680608123
 10
118.6594237984602
 20
-153.5220675614459
 10
120.6162380340821
 20
-156.868288806269
 10
122.0583550042076
 20
-155.4499429949917
 10
122.1923692185839
 20
-155.3176513283581
 10
122.3026122741119
 20
-155.1567653691969
 10
122.3987304381503
 20
-154.9934678431961
 10
123.8463595610523
 20
-157.6220756984417
 10
121.7992838237168
 20
-159.8579426683688
 10
120.6475884029978
 20
-159.9736978766732
 10
120.6475884029978
 20
-159.9736978766732
 10
121.5674288975595
 20
-158.6817870697046
 10
121.3276502517862
 20
-157.5263020439518
 10
121.0892496442069
 20
-157.4119248738415
 10
120.8243218013912
 20
-157.4959852036816
 10
120.5745523787105
 20
-157.5886582722348
 10
120.4157334768405
 20
-156.2040743967129
 10
120.2562255558734
 20
-155.1381618535766
 10
118.7589870579839
 20
-154.3898871141803
 10
118.4682209990288
 20
-154.2434705560572
 10
118.3824381214461
 20
-154.3513020447455
 10
118.4034532039061
 20
-154.5635199266369
 10
118.4365261205645
 20
-154.8722004821153
 10
118.4241237768176
 20
-155.1219699047959
 10
118.3621120580831
 20
-155.4213487024641
 10
117.7440619280293
 20
-158.3438232026016
 10
114.9776502533737
 20
-158.0974988754062
 10
113.3591443944033
 20
-156.5823458809933
 10
112.4889132748292
 20
-155.5743109420092
 10
112.1805772288993
 20
-154.351646554294
 10
112.0710231924684
 20
-153.0807508297854
 10
112.0710231924684
 20
-153.0807508297854
 10
112.0710231924684
 20
-147.7649684960449
 10
112.0710231924684
 20
-147.7649684960449
 10
112.2281195465957
 20
-147.7642794769478
 10
112.3617892514234
 20
-147.7632459483023
 10
112.4606634918501
 20
-147.7622124196567
 10
112.6470431576021
 20
-147.9933783267169
 10
112.852370848523
 20
-148.1973279794437
 10
113.0649332399629
 20
-148.3640706009298
 10
112.4003743208582
 20
-148.8953043247554
 10
112.5705620378296
 20
-149.7682915207177
 10
113.5189968249189
 20
-150.2860893721507
 10
116.3939290073599
 20
-151.854641346585
 10
120.6403537024788
 20
-151.0980983780241
 10
123.5679958458441
 20
-150.1968613990827
 10
126.2934108842253
 20
-149.3569471197788
 10
128.8586289825423
 20
-147.6426676063185
 10
130.3017794813134
 20
-147.5617078624151
 10
130.1581189995785
 20
-147.7577337955258
 10
130.0713025933502
 20
-148.0016465558815
 10
130.0713025933502
 20
-148.2645073414061
 10
130.0713025933502
 20
-148.9263101841226
 10
130.6090819985977
 20
-149.4616780225304
 10
131.2684732744746
 20
-149.4616780225304
 10
131.9323431744822
 20
-149.4616780225304
 10
132.4684000319871
 20
-148.9263101841226
 10
132.4684000319871
 20
-148.2645073414061
 10
132.4684000319871
 20
-147.78012691618
 10
132.2458468636399
 20
-147.4328612912668
 10
131.8668863602624
 20
-147.2213324284725
 10
131.8668863602624
 20
-147.2213324284725
 10
142.512575919233
 20
-147.2213324284725
 10
142.512575919233
 20
-147.2213324284725
 10
142.512575919233
 20
-147.2213324284725
 10
142.512575919233
 20
-145.6097167604726
 10
142.512575919233
 20
-145.6097167604726
 10
142.512575919233
 20
-145.6097167604726
 10
73.60377602326572
 20
-145.6097167604726
 10
73.60377602326572
 20
-145.6097167604726
 10
73.60377602326572
 20
-145.6097167604726
 10
73.60377602326572
 20
-147.2213324284725
 10
73.60377602326572
 20
-147.2213324284725
 97
        0
 92
        1
 93
        1
 72
     4
 94
        3
 73
     0
 74
     1
 95
       14
 96
       10
 40
0.0
 40
0.0
 40
0.0
 40
0.0
 40
1.0
 40
1.0
 40
1.0
 40
2.0
 40
2.0
 40
2.0
 40
3.0
 40
3.0
 40
3.0
 40
3.0
 10
96.04099389960086
 20
-163.1221706406431
 10
95.99448511054999
 20
-163.1194145642549
 10
95.99793020603525
 20
-163.1094237873477
 10
96.04581703328022
 20
-163.0956434054067
 10
98.62584904218382
 20
-162.3528808187868
 10
101.6513318973302
 20
-161.2559624162832
 10
103.5623263629983
 20
-159.1227592918165
 10
102.2711045751267
 20
-161.6052950984876
 10
98.83634437633259
 20
-163.2875352239351
 10
96.04099389960086
 20
-163.1221706406431
 97
        0
 92
        1
 93
        1
 72
     4
 94
        3
 73
     0
 74
     1
 95
       14
 96
       10
 40
0.0
 40
0.0
 40
0.0
 40
0.0
 40
1.0
 40
1.0
 40
1.0
 40
2.0
 40
2.0
 40
2.0
 40
3.0
 40
3.0
 40
3.0
 40
3.0
 10
98.16110566122362
 20
-157.3350992445204
 10
98.14732527928261
 20
-157.1931613105281
 10
98.20244680704661
 20
-157.2506944051318
 10
98.24688853880633
 20
-157.329587091744
 10
99.05614146829153
 20
-158.7665364186417
 10
102.2194281428479
 20
-159.1895941442304
 10
103.8172634289068
 20
-157.605194730564
 10
102.8719292277543
 20
-159.7132486579884
 10
98.4091525361616
 20
-159.8544975728836
 10
98.16110566122362
 20
-157.3350992445204
 97
        0
 92
        1
 93
        1
 72
     4
 94
        3
 73
     0
 74
     1
 95
       14
 96
       10
 40
0.0
 40
0.0
 40
0.0
 40
0.0
 40
1.0
 40
1.0
 40
1.0
 40
2.0
 40
2.0
 40
2.0
 40
3.0
 40
3.0
 40
3.0
 40
3.0
 10
120.5032389021659
 20
-163.0956434054067
 10
120.5507812198623
 20
-163.1094237873477
 10
120.5542263153476
 20
-163.1194145642549
 10
120.5077175262967
 20
-163.1221706406431
 10
117.7127115591135
 20
-163.2875352239351
 10
114.2776068507709
 20
-161.6052950984876
 10
112.9867295724478
 20
-159.1227592918165
 10
114.8973795285673
 20
-161.2559624162832
 10
117.9228623837137
 20
-162.3528808187868
 10
120.5032389021659
 20
-163.0956434054067
 97
        0
 92
        1
 93
        1
 72
     4
 94
        3
 73
     0
 74
     1
 95
       14
 96
       10
 40
0.0
 40
0.0
 40
0.0
 40
0.0
 40
1.0
 40
1.0
 40
1.0
 40
2.0
 40
2.0
 40
2.0
 40
3.0
 40
3.0
 40
3.0
 40
3.0
 10
118.3018228870912
 20
-157.329587091744
 10
118.3462646188509
 20
-157.2506944051318
 10
118.4017306561635
 20
-157.1931613105281
 10
118.3876057646739
 20
-157.3350992445204
 10
118.139558889736
 20
-159.8544975728836
 10
113.6767821981433
 20
-159.7132486579884
 10
112.7317925065393
 20
-157.605194730564
 10
114.3296277925982
 20
-159.1895941442304
 10
117.4929144671545
 20
-158.7665364186417
 10
118.3018228870912
 20
-157.329587091744
 97
        0
 92
        1
 93
        1
 72
     4
 94
        3
 73
     0
 74
     1
 95
       14
 96
       10
 40
0.0
 40
0.0
 40
0.0
 40
0.0
 40
1.0
 40
1.0
 40
1.0
 40
2.0
 40
2.0
 40
2.0
 40
3.0
 40
3.0
 40
3.0
 40
3.0
 10
87.3679660154844
 20
-147.270252784363
 10
87.31215546862336
 20
-147.2523382878397
 10
87.25806746950494
 20
-147.2378688868017
 10
87.20294594174094
 20
-147.2213324284725
 10
87.20294594174094
 20
-147.2213324284725
 10
103.0255804863964
 20
-147.2213324284725
 10
103.0255804863964
 20
-147.2213324284725
 10
99.8805528179118
 20
-151.4415743979035
 10
88.46522892753647
 20
-147.6257866384408
 10
87.3679660154844
 20
-147.270252784363
 97
        0
 92
        1
 93
        1
 72
     4
 94
        3
 73
     0
 74
     1
 95
       14
 96
       10
 40
0.0
 40
0.0
 40
0.0
 40
0.0
 40
1.0
 40
1.0
 40
1.0
 40
2.0
 40
2.0
 40
2.0
 40
3.0
 40
3.0
 40
3.0
 40
3.0
 10
129.0935844946363
 20
-147.270252784363
 10
127.9970106016813
 20
-147.6257866384408
 10
116.5806531826604
 20
-151.4415743979035
 10
113.4352810046273
 20
-147.2213324284725
 10
113.4352810046273
 20
-147.2213324284725
 10
129.2586045683798
 20
-147.2213324284725
 10
129.2586045683798
 20
-147.2213324284725
 10
129.2034830406158
 20
-147.2378688868017
 10
129.1493950414974
 20
-147.2523382878397
 10
129.0935844946363
 20
-147.270252784363
 97
        0
 75
     2
 76
     1
 98
        0
  0
ENDBLK
  5
3F
330
3C
100
AcDbEntity
  8
0
100
AcDbBlockEnd
  0
ENDSEC
  0
SECTION
  2
ENTITIES
  0
INSERT
  5
3D
330
1F
100
AcDbEntity
  8
Layer 1
100
AcDbBlockReference
  2
block 2
 10
0.0
 20
0.0
 30
0.0
  0
ENDSEC
  0
SECTION
  2
OBJECTS
  0
DICTIONARY
  5
C
330
0
100
AcDbDictionary
281
     1
  3
ACAD_GROUP
350
D
  3
ACAD_LAYOUT
350
1A
  3
ACAD_MLINESTYLE
350
17
  3
ACAD_PLOTSETTINGS
350
19
  3
ACAD_PLOTSTYLENAME
350
E
  3
ACAD_TABLESTYLE
350
51
  3
ACAD_VISUALSTYLE
350
2A
  0
DICTIONARY
  5
D
102
{ACAD_REACTORS
330
C
102
}
330
C
100
AcDbDictionary
281
     1
  0
DICTIONARY
  5
1A
102
{ACAD_REACTORS
330
C
102
}
330
C
100
AcDbDictionary
281
     1
  3
Layout1
350
1E
  3
Layout2
350
26
  3
Model
350
22
  0
DICTIONARY
  5
17
102
{ACAD_REACTORS
330
C
102
}
330
C
100
AcDbDictionary
281
     1
  3
Standard
350
18
  0
DICTIONARY
  5
19
102
{ACAD_REACTORS
330
C
102
}
330
C
100
AcDbDictionary
281
     1
  0
ACDBDICTIONARYWDFLT
  5
E
102
{ACAD_REACTORS
330
C
102
}
330
C
100
AcDbDictionary
281
     1
  3
Normal
350
F
100
AcDbDictionaryWithDefault
340
F
  0
DICTIONARY
  5
51
102
{ACAD_REACTORS
330
C
102
}
330
C
100
AcDbDictionary
281
     1
  0
DICTIONARY
  5
2A
102
{ACAD_REACTORS
330
C
102
}
330
C
100
AcDbDictionary
281
     1
  3
2dWireframe
350
2F
  3
3D Hidden
350
31
  3
3dWireframe
350
30
  3
Basic
350
32
  3
Brighten
350
36
  3
ColorChange
350
3A
  3
Conceptual
350
34
  3
Dim
350
35
  3
Facepattern
350
39
  3
Flat
350
2B
  3
FlatWithEdges
350
2C
  3
Gouraud
350
2D
  3
GouraudWithEdges
350
2E
  3
Linepattern
350
38
  3
Realistic
350
33
  3
Thicken
350
37
  0
LAYOUT
  5
1E
102
{ACAD_REACTORS
330
1A
102
}
330
1A
100
AcDbPlotSettings
  1

  2
none_device
  4

  6

 40
0.0
 41
0.0
 42
0.0
 43
0.0
 44
0.0
 45
0.0
 46
0.0
 47
0.0
 48
0.0
 49
0.0
140
0.0
141
0.0
142
1.0
143
1.0
 70
   688
 72
     0
 73
     0
 74
     5
  7

 75
    16
 76
     0
 77
     2
 78
   300
147
1.0
148
0.0
149
0.0
100
AcDbLayout
  1
Layout1
 70
     1
 71
     1
 10
0.0
 20
0.0
 11
12.0
 21
9.0
 12
0.0
 22
0.0
 32
0.0
 14
1.000000000000000E+20
 24
1.000000000000000E+20
 34
1.000000000000000E+20
 15
-1.000000000000000E+20
 25
-1.000000000000000E+20
 35
-1.000000000000000E+20
146
0.0
 13
0.0
 23
0.0
 33
0.0
 16
1.0
 26
0.0
 36
0.0
 17
0.0
 27
1.0
 37
0.0
 76
     0
330
1B
  0
LAYOUT
  5
26
102
{ACAD_REACTORS
330
1A
102
}
330
1A
100
AcDbPlotSettings
  1

  2
none_device
  4

  6

 40
0.0
 41
0.0
 42
0.0
 43
0.0
 44
0.0
 45
0.0
 46
0.0
 47
0.0
 48
0.0
 49
0.0
140
0.0
141
0.0
142
1.0
143
1.0
 70
   688
 72
     0
 73
     0
 74
     5
  7

 75
    16
 76
     0
 77
     2
 78
   300
147
1.0
148
0.0
149
0.0
100
AcDbLayout
  1
Layout2
 70
     1
 71
     2
 10
0.0
 20
0.0
 11
0.0
 21
0.0
 12
0.0
 22
0.0
 32
0.0
 14
0.0
 24
0.0
 34
0.0
 15
0.0
 25
0.0
 35
0.0
146
0.0
 13
0.0
 23
0.0
 33
0.0
 16
1.0
 26
0.0
 36
0.0
 17
0.0
 27
1.0
 37
0.0
 76
     0
330
23
  0
LAYOUT
  5
22
102
{ACAD_REACTORS
330
1A
102
}
330
1A
100
AcDbPlotSettings
  1

  2
none_device
  4

  6

 40
0.0
 41
0.0
 42
0.0
 43
0.0
 44
0.0
 45
0.0
 46
0.0
 47
0.0
 48
0.0
 49
0.0
140
0.0
141
0.0
142
1.0
143
1.0
 70
  1712
 72
     0
 73
     0
 74
     0
  7

 75
     0
 76
     0
 77
     2
 78
   300
147
1.0
148
0.0
149
0.0
100
AcDbLayout
  1
Model
 70
     1
 71
     0
 10
0.0
 20
0.0
 11
12.0
 21
9.0
 12
0.0
 22
0.0
 32
0.0
 14
1.000000000000000E+20
 24
1.000000000000000E+20
 34
1.000000000000000E+20
 15
-1.000000000000000E+20
 25
-1.000000000000000E+20
 35
-1.000000000000000E+20
146
0.0
 13
0.0
 23
0.0
 33
0.0
 16
1.0
 26
0.0
 36
0.0
 17
0.0
 27
1.0
 37
0.0
 76
     0
330
1F
331
29
  0
MLINESTYLE
  5
18
102
{ACAD_REACTORS
330
17
102
}
330
17
100
AcDbMlineStyle
  2
Standard
 70
     0
  3

 62
   256
 51
90.0
 52
90.0
 71
     2
 49
0.5
 62
   256
  6
BYLAYER
 49
-0.5
 62
   256
  6
BYLAYER
  0
ACDBPLACEHOLDER
  5
F
102
{ACAD_REACTORS
330
E
102
}
330
E
  0
VISUALSTYLE
  5
2F
102
{ACAD_REACTORS
330
2A
102
}
330
2A
100
AcDbVisualStyle
  2
2dWireframe
 70
     4
 71
     0
 72
     2
 73
     0
 90
        0
 40
-0.6
 41
-30.0
 62
     5
 63
     7
421
 16777215
 74
     1
 91
        4
 64
     7
 65
   257
 75
     1
175
     1
 42
1.0
 92
        0
 66
   257
 43
1.0
 76
     1
 77
     6
 78
     2
 67
     7
 79
     5
170
     0
171
     0
290
     0
174
     0
 93
        1
 44
0.0
173
     0
291
     0
 45
0.0
1001
ACAD
1000
AcDbSavedByObjectVersion
1070
     0
  0
VISUALSTYLE
  5
31
102
{ACAD_REACTORS
330
2A
102
}
330
2A
100
AcDbVisualStyle
  2
3D Hidden
 70
     6
 71
     1
 72
     2
 73
     2
 90
        0
 40
-0.6
 41
-30.0
 62
     5
 63
     7
421
 16777215
 74
     2
 91
        2
 64
     7
 65
   257
 75
     2
175
     1
 42
40.0
 92
        0
 66
   257
 43
1.0
 76
     1
 77
     6
 78
     2
 67
     7
 79
     3
170
     0
171
     0
290
     0
174
     0
 93
        1
 44
0.0
173
     0
291
     0
 45
0.0
1001
ACAD
1000
AcDbSavedByObjectVersion
1070
     0
  0
VISUALSTYLE
  5
30
102
{ACAD_REACTORS
330
2A
102
}
330
2A
100
AcDbVisualStyle
  2
3dWireframe
 70
     5
 71
     0
 72
     2
 73
     0
 90
        0
 40
-0.6
 41
-30.0
 62
     5
 63
     7
421
 16777215
 74
     1
 91
        4
 64
     7
 65
   257
 75
     1
175
     1
 42
1.0
 92
        0
 66
   257
 43
1.0
 76
     1
 77
     6
 78
     2
 67
     7
 79
     5
170
     0
171
     0
290
     0
174
     0
 93
        1
 44
0.0
173
     0
291
     0
 45
0.0
1001
ACAD
1000
AcDbSavedByObjectVersion
1070
     0
  0
VISUALSTYLE
  5
32
102
{ACAD_REACTORS
330
2A
102
}
330
2A
100
AcDbVisualStyle
  2
Basic
 70
     7
 71
     1
 72
     0
 73
     1
 90
        0
 40
-0.6
 41
-30.0
 62
     5
 63
     7
421
 16777215
 74
     0
 91
        4
 64
     7
 65
   257
 75
     1
175
     1
 42
1.0
 92
        8
 66
     7
 43
1.0
 76
     1
 77
     6
 78
     2
 67
     7
 79
     5
170
     0
171
     0
290
     0
174
     0
 93
        1
 44
0.0
173
     0
291
     1
 45
0.0
1001
ACAD
1000
AcDbSavedByObjectVersion
1070
     0
  0
VISUALSTYLE
  5
36
102
{ACAD_REACTORS
330
2A
102
}
330
2A
100
AcDbVisualStyle
  2
Brighten
 70
    12
 71
     2
 72
     2
 73
     0
 90
        0
 40
-0.6
 41
-30.0
 62
     5
 63
     7
421
 16777215
 74
     1
 91
        4
 64
     7
 65
   257
 75
     1
175
     1
 42
1.0
 92
        8
 66
     7
 43
1.0
 76
     1
 77
     6
 78
     2
 67
     7
 79
     5
170
     0
171
     0
290
     0
174
     0
 93
        1
 44
50.0
173
     0
291
     1
 45
0.0
1001
ACAD
1000
AcDbSavedByObjectVersion
1070
     0
  0
VISUALSTYLE
  5
3A
102
{ACAD_REACTORS
330
2A
102
}
330
2A
100
AcDbVisualStyle
  2
ColorChange
 70
    16
 71
     2
 72
     2
 73
     3
 90
        0
 40
-0.6
 41
-30.0
 62
     5
 63
     8
421
  8421504
 74
     1
 91
        4
 64
     7
 65
   257
 75
     1
175
     1
 42
1.0
 92
        8
 66
     8
424
  8421504
 43
1.0
 76
     1
 77
     6
 78
     2
 67
     7
 79
     5
170
     0
171
     0
290
     0
174
     0
 93
        1
 44
0.0
173
     0
291
     1
 45
0.0
1001
ACAD
1000
AcDbSavedByObjectVersion
1070
     0
  0
VISUALSTYLE
  5
34
102
{ACAD_REACTORS
330
2A
102
}
330
2A
100
AcDbVisualStyle
  2
Conceptual
 70
     9
 71
     3
 72
     2
 73
     0
 90
        0
 40
-0.6
 41
-30.0
 62
     5
 63
     7
421
 16777215
 74
     2
 91
        2
 64
     7
 65
   257
 75
     1
175
     1
 42
40.0
 92
        8
 66
     7
 43
1.0
 76
     1
 77
     6
 78
     2
 67
     7
 79
     3
170
     0
171
     0
290
     0
174
     0
 93
        1
 44
0.0
173
     0
291
     0
 45
0.0
1001
ACAD
1000
AcDbSavedByObjectVersion
1070
     0
  0
VISUALSTYLE
  5
35
102
{ACAD_REACTORS
330
2A
102
}
330
2A
100
AcDbVisualStyle
  2
Dim
 70
    11
 71
     2
 72
     2
 73
     0
 90
        0
 40
-0.6
 41
-30.0
 62
     5
 63
     7
421
 16777215
 74
     1
 91
        4
 64
     7
 65
   257
 75
     1
175
     1
 42
1.0
 92
        8
 66
     7
 43
1.0
 76
     1
 77
     6
 78
     2
 67
     7
 79
     5
170
     0
171
     0
290
     0
174
     0
 93
        1
 44
-50.0
173
     0
291
     1
 45
0.0
1001
ACAD
1000
AcDbSavedByObjectVersion
1070
     0
  0
VISUALSTYLE
  5
39
102
{ACAD_REACTORS
330
2A
102
}
330
2A
100
AcDbVisualStyle
  2
Facepattern
 70
    15
 71
     2
 72
     2
 73
     0
 90
        0
 40
-0.6
 41
-30.0
 62
     5
 63
     7
421
 16777215
 74
     1
 91
        4
 64
     7
 65
   257
 75
     1
175
     1
 42
1.0
 92
        8
 66
     7
 43
1.0
 76
     1
 77
     6
 78
     2
 67
     7
 79
     5
170
     0
171
     0
290
     0
174
     0
 93
        1
 44
0.0
173
     0
291
     1
 45
0.0
1001
ACAD
1000
AcDbSavedByObjectVersion
1070
     0
  0
VISUALSTYLE
  5
2B
102
{ACAD_REACTORS
330
2A
102
}
330
2A
100
AcDbVisualStyle
  2
Flat
 70
     0
 71
     2
 72
     1
 73
     1
 90
        2
 40
-0.6
 41
30.0
 62
     5
 63
     7
421
 16777215
 74
     0
 91
        4
 64
     7
 65
   257
 75
     1
175
     1
 42
1.0
 92
        8
 66
     7
 43
1.0
 76
     1
 77
     6
 78
     2
 67
     7
 79
     5
170
     0
171
     0
290
     0
174
     0
 93
       13
 44
0.0
173
     0
291
     1
 45
0.0
1001
ACAD
1000
AcDbSavedByObjectVersion
1070
     0
  0
VISUALSTYLE
  5
2C
102
{ACAD_REACTORS
330
2A
102
}
330
2A
100
AcDbVisualStyle
  2
FlatWithEdges
 70
     1
 71
     2
 72
     1
 73
     1
 90
        2
 40
-0.6
 41
30.0
 62
     5
 63
     7
421
 16777215
 74
     1
 91
        4
 64
     7
 65
   257
 75
     1
175
     1
 42
1.0
 92
        0
 66
   257
 43
1.0
 76
     1
 77
     6
 78
     2
 67
     7
 79
     5
170
     0
171
     0
290
     0
174
     0
 93
       13
 44
0.0
173
     0
291
     1
 45
0.0
1001
ACAD
1000
AcDbSavedByObjectVersion
1070
     0
  0
VISUALSTYLE
  5
2D
102
{ACAD_REACTORS
330
2A
102
}
330
2A
100
AcDbVisualStyle
  2
Gouraud
 70
     2
 71
     2
 72
     2
 73
     1
 90
        2
 40
-0.6
 41
30.0
 62
     5
 63
     7
421
 16777215
 74
     0
 91
        4
 64
     7
 65
   257
 75
     1
175
     1
 42
1.0
 92
        0
 66
     7
 43
1.0
 76
     1
 77
     6
 78
     2
 67
     7
 79
     5
170
     0
171
     0
290
     0
174
     0
 93
       13
 44
0.0
173
     0
291
     1
 45
0.0
1001
ACAD
1000
AcDbSavedByObjectVersion
1070
     0
  0
VISUALSTYLE
  5
2E
102
{ACAD_REACTORS
330
2A
102
}
330
2A
100
AcDbVisualStyle
  2
GouraudWithEdges
 70
     3
 71
     2
 72
     2
 73
     1
 90
        2
 40
-0.6
 41
30.0
 62
     5
 63
     7
421
 16777215
 74
     1
 91
        4
 64
     7
 65
   257
 75
     1
175
     1
 42
1.0
 92
        0
 66
   257
 43
1.0
 76
     1
 77
     6
 78
     2
 67
     7
 79
     5
170
     0
171
     0
290
     0
174
     0
 93
       13
 44
0.0
173
     0
291
     1
 45
0.0
1001
ACAD
1000
AcDbSavedByObjectVersion
1070
     0
  0
VISUALSTYLE
  5
38
102
{ACAD_REACTORS
330
2A
102
}
330
2A
100
AcDbVisualStyle
  2
Linepattern
 70
    14
 71
     2
 72
     2
 73
     0
 90
        0
 40
-0.6
 41
-30.0
 62
     5
 63
     7
421
 16777215
 74
     1
 91
        4
 64
     7
 65
   257
 75
     7
175
     7
 42
1.0
 92
        8
 66
     7
 43
1.0
 76
     1
 77
     6
 78
     2
 67
     7
 79
     5
170
     0
171
     0
290
     0
174
     0
 93
        1
 44
0.0
173
     0
291
     1
 45
0.0
1001
ACAD
1000
AcDbSavedByObjectVersion
1070
     0
  0
VISUALSTYLE
  5
33
102
{ACAD_REACTORS
330
2A
102
}
330
2A
100
AcDbVisualStyle
  2
Realistic
 70
     8
 71
     2
 72
     2
 73
     0
 90
        0
 40
-0.6
 41
-30.0
 62
     5
 63
     7
421
 16777215
 74
     1
 91
        0
 64
     7
 65
   257
 75
     1
175
     1
 42
1.0
 92
        8
 66
     8
424
  7895160
 43
1.0
 76
     1
 77
     6
 78
     2
 67
     7
 79
     5
170
     0
171
     0
290
     0
174
     0
 93
       13
 44
0.0
173
     0
291
     0
 45
0.0
1001
ACAD
1000
AcDbSavedByObjectVersion
1070
     0
  0
VISUALSTYLE
  5
37
102
{ACAD_REACTORS
330
2A
102
}
330
2A
100
AcDbVisualStyle
  2
Thicken
 70
    13
 71
     2
 72
     2
 73
     0
 90
        0
 40
-0.6
 41
-30.0
 62
     5
 63
     7
421
 16777215
 74
     1
 91
        4
 64
     7
 65
   257
 75
     1
175
     1
 42
1.0
 92
       12
 66
     7
 43
1.0
 76
     1
 77
     6
 78
     2
 67
     7
 79
     5
170
     0
171
     0
290
     0
174
     0
 93
        1
 44
0.0
173
     0
291
     1
 45
0.0
1001
ACAD
1000
AcDbSavedByObjectVersion
1070
     0
  0
ENDSEC
  0
EOF
