0
SECTION
2
HEADER
9
$EXTMIN
10
1.392922
20
13.045454
9
$EXTMAX
10
22.109392
20
28.884935
0
ENDSEC
0
SECTION
2
TABLES
0
TABLE
2
LTYPE
70
1
0
LTYPE
2
0
70
0
3
Solid Line
72
65
73
0
40
0.0
0
ENDTAB
0
TABLE
2
LAYER
70
1
0
LAYER
2
1
70
0
62
7
6
0
0
ENDTAB
0
ENDSEC
0
SECTION
2
BLOCKS
0
ENDSEC
0
SECTION
2
ENTITIES
0
ARC
8
1
10
11.350508
20
17.512672
40
0.733644
50
-142.374168
51
-113.384470
0
ARC
8
1
10
10.789766
20
17.064783
40
0.020315
50
44.996195
51
-179.994616
0
ARC
8
1
10
11.218809
20
20.041592
40
2.991326
50
-97.968365
51
-77.733033
0
ARC
8
1
10
11.791568
20
17.336252
40
0.226567
50
-73.908112
51
-53.274225
0
ARC
8
1
10
11.906797
20
17.170435
40
0.025674
50
-37.917915
51
51.983342
0
ARC
8
1
10
11.894004
20
17.185242
40
0.029115
50
10.729868
51
119.870346
0
ARC
8
1
10
11.232891
20
19.992167
40
2.855842
50
-99.109608
51
-76.913762
0
ARC
8
1
10
10.800640
20
17.205452
40
0.038626
50
78.657329
51
-121.004268
0
ARC
8
1
10
10.505257
20
18.205278
40
1.008540
50
-72.517474
51
-45.429843
0
ARC
8
1
10
12.309043
20
17.432369
40
1.097362
50
168.141234
51
177.156714
0
LINE
8
1
10
11.235102
20
17.657877
11
11.230203
21
17.655281
0
ARC
8
1
10
10.813643
20
21.094921
40
3.464772
50
-98.079162
51
-83.094777
0
LINE
8
1
10
10.326699
20
17.664537
11
10.114582
21
17.694817
0
LINE
8
1
10
10.114582
20
17.694817
11
10.126895
21
17.657877
0
ARC
8
1
10
10.561224
20
17.769514
40
0.448447
50
-165.585099
51
-130.404213
0
LINE
8
1
10
10.270552
20
17.428026
11
10.529319
21
17.190750
0
ARC
8
1
10
10.278870
20
17.329445
40
0.286288
50
-64.549766
51
-28.976984
0
ARC
8
1
10
10.422774
20
16.859838
40
0.212130
50
95.648462
51
110.389202
0
ARC
8
1
10
10.330010
20
16.962496
40
0.098013
50
78.906436
51
-172.428487
0
ARC
8
1
10
10.273690
20
16.965473
40
0.043822
50
-158.737159
51
-60.635724
0
ARC
8
1
10
10.509464
20
18.385206
40
1.473589
50
-98.361423
51
-87.946333
0
LINE
8
1
10
10.562271
20
16.912563
11
10.658576
21
16.761606
0
ARC
8
1
10
10.900713
20
18.967670
40
2.219313
50
-96.263692
51
-85.601387
0
LINE
8
1
10
11.070923
20
16.754894
11
11.066818
21
16.836983
0
LINE
8
1
10
11.066818
20
16.836983
11
11.059325
21
16.839289
0
LINE
8
1
10
9.311789
20
17.318333
11
9.408797
21
17.295864
0
LINE
8
1
10
9.408797
20
17.295864
11
9.847229
21
17.192234
0
LINE
8
1
10
9.847229
20
17.192234
11
9.851807
21
17.196814
0
ARC
8
1
10
9.889822
20
17.237011
40
0.055326
50
-133.401953
51
-16.973769
0
LINE
8
1
10
9.942738
20
17.220860
11
9.943369
21
17.256329
0
ARC
8
1
10
9.859626
20
17.115366
40
0.163961
50
59.286288
51
87.932013
0
ARC
8
1
10
11.474782
20
25.007627
40
7.894170
50
-105.914038
51
-101.762281
0
LINE
8
1
10
9.310241
20
17.416008
11
9.256114
21
17.424303
0
LINE
8
1
10
9.256114
20
17.424303
11
9.255533
21
17.427376
0
ARC
8
1
10
10.259615
20
20.792303
40
3.511540
50
-116.910545
51
-106.614904
0
ARC
8
1
10
8.695674
20
17.675827
40
0.029386
50
63.975496
51
-149.726025
0
ARC
8
1
10
6.293023
20
44.969788
40
27.374339
50
-84.937566
51
-84.170206
0
LINE
8
1
10
9.073532
20
17.737028
11
9.078110
21
17.741606
0
LINE
8
1
10
9.078110
20
17.741606
11
9.101000
21
17.732450
0
LINE
8
1
10
9.101000
20
17.732450
11
9.380264
21
17.732450
0
LINE
8
1
10
9.380264
20
17.732450
11
9.444357
21
17.805698
0
LINE
8
1
10
9.444357
20
17.805698
11
9.449888
21
17.848572
0
ARC
8
1
10
9.907327
20
19.487804
40
1.701862
50
-133.550595
51
-105.592101
0
ARC
8
1
10
6.894396
20
18.562918
40
1.866045
50
-13.102391
51
-9.518019
0
ARC
8
1
10
8.684778
20
18.124182
40
0.031314
50
-73.732953
51
30.129702
0
LINE
8
1
10
8.693550
20
18.094120
11
8.457497
21
18.139652
0
ARC
8
1
10
8.450078
20
18.242727
40
0.103342
50
-111.197062
51
-85.883339
0
ARC
8
1
10
14.531650
20
19.853760
40
6.352681
50
-164.409167
51
-160.278396
0
ARC
8
1
10
8.500165
20
17.712591
40
0.051494
50
-120.795238
51
-2.832254
0
ARC
8
1
10
8.775180
20
16.391817
40
1.311635
50
103.283707
51
118.100162
0
ARC
8
1
10
8.225977
20
17.451010
40
0.119486
50
125.036149
51
-163.290239
0
ARC
8
1
10
9.698599
20
19.709978
40
2.788925
50
-124.684632
51
-108.127083
0
ARC
8
1
10
8.659011
20
17.150484
40
0.194491
50
-27.901637
51
19.094533
0
ARC
8
1
10
10.086488
20
18.011864
40
1.477556
50
-160.498617
51
-147.322070
0
LINE
8
1
10
8.693694
20
17.518612
11
8.695174
21
17.527294
0
LINE
8
1
10
8.695174
20
17.527294
11
8.698128
21
17.535591
0
LINE
8
1
10
8.698128
20
17.535591
11
8.782718
21
17.502193
0
ARC
8
1
10
10.163438
20
20.622154
40
3.411824
50
-113.871498
51
-104.454846
0
LINE
8
1
10
17.458492
20
17.443970
11
17.525951
21
17.643806
0
ARC
8
1
10
16.614796
20
17.785509
40
0.922109
50
-8.839808
51
18.555101
0
LINE
8
1
10
17.488972
20
18.078939
11
17.463570
21
18.099258
0
ARC
8
1
10
17.435631
20
18.001900
40
0.101288
50
73.988207
51
167.940354
0
LINE
8
1
10
17.336578
20
18.023062
11
17.341656
21
17.926546
0
ARC
8
1
10
16.423267
20
17.775537
40
0.930721
50
-11.099506
51
9.337468
0
LINE
8
1
10
17.336578
20
17.596361
11
17.305561
21
17.447948
0
LINE
8
1
10
17.305561
20
17.447948
11
17.224823
21
17.261097
0
ARC
8
1
10
17.252909
20
17.454082
40
0.195019
50
-98.280276
51
-18.199974
0
LINE
8
1
10
17.438171
20
17.393171
11
17.458492
21
17.443970
0
ARC
8
1
10
17.089634
20
17.878410
40
0.163860
50
49.377292
51
138.537765
0
ARC
8
1
10
16.285631
20
17.817923
40
0.929261
50
-9.445598
51
11.474538
0
LINE
8
1
10
17.202293
20
17.665421
11
17.171581
21
17.470274
0
ARC
8
1
10
16.961214
20
17.507692
40
0.213669
50
-48.451196
51
-10.085812
0
ARC
8
1
10
17.009701
20
17.389240
40
0.102033
50
-120.847848
51
-23.972820
0
ARC
8
1
10
19.653448
20
17.285271
40
2.696116
50
172.492846
51
179.652094
0
ARC
8
1
10
17.054487
20
17.666670
40
0.079577
50
162.158274
51
-158.510216
0
LINE
8
1
10
16.978737
20
17.691051
11
16.966839
21
17.986906
0
ARC
8
1
10
17.645586
20
18.061398
40
0.030384
50
142.824380
51
-128.803034
0
ARC
8
1
10
16.776447
20
17.821964
40
0.877049
50
-7.293632
51
14.240898
0
ARC
8
1
10
17.404049
20
17.678709
40
0.244443
50
-16.334060
51
7.500873
0
LINE
8
1
10
17.638626
20
17.609962
11
17.633820
21
17.571507
0
LINE
8
1
10
17.633820
20
17.571507
11
17.556904
21
17.355185
0
LINE
8
1
10
17.556904
20
17.355185
11
17.595364
21
17.350376
0
ARC
8
1
10
17.554935
20
17.609068
40
0.261832
50
-81.117702
51
-29.491623
0
ARC
8
1
10
16.694763
20
17.590734
40
1.093681
50
-5.802204
51
5.802105
0
ARC
8
1
10
16.625311
20
17.683313
40
1.157670
50
0.890125
51
20.348585
0
LINE
8
1
10
17.710735
20
18.085871
11
17.672276
21
18.105099
0
LINE
8
1
10
17.672276
20
18.105099
11
17.661854
21
18.100401
0
ARC
8
1
10
17.652567
20
18.068605
40
0.033124
50
73.717886
51
160.325533
0
ARC
8
1
10
15.435398
20
17.909134
40
0.413395
50
14.160595
51
33.853934
0
LINE
8
1
10
15.836232
20
18.010267
11
15.903828
21
17.839291
0
ARC
8
1
10
16.735113
20
18.001617
40
0.846986
50
-168.950771
51
-154.959815
0
LINE
8
1
10
15.967734
20
17.643127
11
15.977253
21
17.637466
0
LINE
8
1
10
15.977253
20
17.637466
11
16.314941
21
17.611513
0
LINE
8
1
10
16.314941
20
17.611513
11
16.320496
21
17.617067
0
LINE
8
1
10
16.320496
20
17.617067
11
16.631901
21
17.573288
0
ARC
8
1
10
16.443729
20
17.469831
40
0.214736
50
-15.119784
51
28.801964
0
ARC
8
1
10
16.400969
20
17.572796
40
0.296319
50
-73.089758
51
-32.445847
0
ARC
8
1
10
17.037479
20
20.199200
40
2.961491
50
-127.168221
51
-100.709245
0
ARC
8
1
10
17.255728
20
20.819860
40
3.593560
50
-132.421071
51
-123.960806
0
LINE
8
1
10
14.831606
20
18.167068
11
14.914939
21
18.305958
0
LINE
8
1
10
14.914939
20
18.305958
11
15.070495
21
18.328178
0
LINE
8
1
10
15.070495
20
18.328178
11
15.087161
21
18.317068
0
LINE
8
1
10
15.087161
20
18.317068
11
15.092717
21
18.322624
0
LINE
8
1
10
15.092717
20
18.322624
11
15.626050
21
18.305958
0
ARC
8
1
10
15.612344
20
18.120981
40
0.185484
50
60.211306
51
85.762297
0
ARC
8
1
10
15.086942
20
17.869814
40
0.742449
50
21.293200
51
33.718398
0
LINE
8
1
10
12.791114
20
17.339291
11
12.792717
21
17.339291
0
ARC
8
1
10
17.880159
20
18.122442
40
0.057095
50
49.750602
51
-124.412601
0
ARC
8
1
10
15.611555
20
17.565367
40
2.293748
50
-1.226542
51
12.846039
0
LINE
8
1
10
17.904778
20
17.516268
11
17.909950
21
17.495888
0
LINE
8
1
10
17.909950
20
17.495888
11
17.949070
21
17.505669
0
ARC
8
1
10
17.689289
20
17.715281
40
0.333801
50
-38.899350
51
17.041614
0
ARC
8
1
10
17.089479
20
17.763437
40
0.920296
50
3.093811
51
25.941207
0
LINE
8
1
10
18.237823
20
17.869442
11
18.234692
21
17.884352
0
ARC
8
1
10
17.610106
20
17.853081
40
0.625368
50
2.866219
51
42.378354
0
LINE
8
1
10
18.072071
20
18.274593
11
18.031223
21
18.262489
0
LINE
8
1
10
18.031223
20
18.262489
11
18.021141
21
18.232254
0
ARC
8
1
10
16.777561
20
17.698210
40
1.353401
50
4.202690
51
23.240672
0
LINE
8
1
10
18.127323
20
17.797394
11
18.136513
21
17.664604
0
ARC
8
1
10
18.152462
20
17.725468
40
0.062919
50
-104.684151
51
-23.481390
0
ARC
8
1
10
18.095043
20
17.806015
40
0.156235
50
-42.533133
51
23.952119
0
ARC
8
1
10
17.556427
20
17.775139
40
0.914041
50
23.678750
51
45.082173
0
ARC
8
1
10
18.245846
20
18.365471
40
0.071956
50
127.718600
51
-118.919776
0
ARC
8
1
10
17.124878
20
17.709286
40
1.237600
50
6.632539
51
28.640706
0
ARC
8
1
10
18.333963
20
17.929617
40
0.079988
50
-75.349063
51
7.967797
0
ARC
8
1
10
18.004517
20
18.002554
40
0.413315
50
-8.606229
51
19.750792
0
ARC
8
1
10
18.334721
20
18.526569
40
0.048384
50
110.824101
51
-174.879591
0
LINE
8
1
10
18.286530
20
18.522251
11
18.452408
21
18.294762
0
LINE
8
1
10
18.452408
20
18.294762
11
18.528236
21
18.133625
0
ARC
8
1
10
18.432817
20
18.242340
40
0.144650
50
-48.726656
51
39.397261
0
ARC
8
1
10
18.142260
20
18.177013
40
0.431934
50
21.333364
51
66.061374
0
ARC
8
1
10
18.310946
20
18.376671
40
0.355989
50
5.411882
51
65.535642
0
LINE
8
1
10
18.665348
20
18.410246
11
18.651688
21
18.374208
0
ARC
8
1
10
17.812326
20
17.969204
40
0.931963
50
25.758013
51
50.671765
0
ARC
8
1
10
18.432697
20
18.684793
40
0.030198
50
31.776768
51
169.872525
0
LINE
8
1
10
11.092717
20
18.478180
11
11.087161
21
18.478180
0
ARC
8
1
10
18.193489
20
18.285753
40
0.619177
50
29.044763
51
62.640787
0
ARC
8
1
10
18.497036
20
18.861055
40
0.031704
50
41.124318
51
-126.804401
0
ARC
8
1
10
18.405302
20
18.527376
40
0.372908
50
26.105161
51
71.938151
0
LINE
8
1
10
18.740170
20
18.691463
11
18.749416
21
18.617481
0
LINE
8
1
10
18.749416
20
18.617481
11
18.734798
21
18.586359
0
ARC
8
1
10
18.520374
20
18.742252
40
0.295603
50
59.807934
51
89.642130
0
ARC
8
1
10
18.544724
20
19.030998
40
0.023523
50
163.066685
51
-78.199871
0
ARC
8
1
10
18.284565
20
18.386002
40
0.676060
50
42.229846
51
66.925279
0
LINE
8
1
10
18.785156
20
18.840385
11
18.785156
21
18.885130
0
ARC
8
1
10
18.585775
20
18.795734
40
0.218505
50
24.149822
51
67.602235
0
LINE
8
1
10
18.566673
20
19.222029
11
18.562325
21
19.215412
0
ARC
8
1
10
18.583868
20
19.191530
40
0.032163
50
132.053126
51
-88.746141
0
ARC
8
1
10
18.529892
20
18.795771
40
0.367692
50
38.589950
51
81.447761
0
LINE
8
1
10
18.817291
20
19.025116
11
18.808338
21
19.078819
0
LINE
8
1
10
18.808338
20
19.078819
11
18.718834
21
19.168325
0
ARC
8
1
10
18.494600
20
18.775406
40
0.452401
50
60.287206
51
80.833020
0
LINE
8
1
10
13.537161
20
19.050402
11
13.537161
21
19.055958
0
ARC
8
1
10
18.658813
20
19.161140
40
0.201222
50
29.547507
51
104.419944
0
ARC
8
1
10
18.621059
20
19.353798
40
0.012555
50
169.787797
51
-83.457960
0
ARC
8
1
10
18.525255
20
18.947235
40
0.405907
50
40.509394
51
76.140060
0
LINE
8
1
10
18.833866
20
19.210901
11
18.833866
21
19.260372
0
ARC
8
1
10
18.720238
20
19.575392
40
0.036240
50
48.781167
51
178.769574
0
LINE
8
1
10
18.684006
20
19.576170
11
18.665009
21
19.504936
0
LINE
8
1
10
18.665009
20
19.504936
11
18.783730
21
19.471695
0
LINE
8
1
10
18.783730
20
19.471695
11
18.778980
21
19.504936
0
LINE
8
1
10
18.778980
20
19.504936
11
18.744118
21
19.602652
0
LINE
8
1
10
8.959384
20
22.889290
11
8.959384
21
22.894846
0
LINE
8
1
10
13.020494
20
23.594845
11
13.020494
21
23.600401
0
LINE
8
1
10
13.131606
20
23.850401
11
13.131606
21
23.855957
0
LINE
8
1
10
12.698273
20
24.261513
11
12.714939
21
24.278179
0
ARC
8
1
10
12.721420
20
24.279104
40
0.006547
50
-171.876975
51
44.994097
0
LINE
8
1
10
12.726050
20
24.283733
11
12.770494
21
24.311512
0
LINE
8
1
10
12.770494
20
24.311512
11
12.787161
21
24.322624
0
ARC
8
1
10
12.792717
20
24.330957
40
0.010016
50
-123.693090
51
56.311444
0
LINE
8
1
10
12.798272
20
24.339291
11
12.798272
21
24.344845
0
ARC
8
1
10
12.667362
20
24.281645
40
0.145367
50
25.770074
51
58.776774
0
LINE
8
1
10
12.742717
20
24.405956
11
12.709384
21
24.439289
0
LINE
8
1
10
12.709384
20
24.439289
11
12.648273
21
24.411512
0
LINE
8
1
10
12.648273
20
24.411512
11
12.642716
21
24.417068
0
LINE
8
1
10
12.642716
20
24.417068
11
12.637161
21
24.411512
0
ARC
8
1
10
12.951039
20
23.742094
40
0.739351
50
115.121022
51
121.480894
0
ARC
8
1
10
12.763815
20
24.430395
40
0.207097
50
-163.801847
51
-143.068042
0
ARC
8
1
10
12.601050
20
24.297625
40
0.008784
50
108.436913
51
-71.563082
0
ARC
8
1
10
12.459324
20
24.180929
40
0.180621
50
22.620493
51
36.865782
0
LINE
8
1
10
12.626050
20
24.250401
11
12.631606
21
24.250401
0
ARC
8
1
10
12.653829
20
24.256884
40
0.023149
50
-163.736203
51
-16.263792
0
LINE
8
1
10
12.676051
20
24.250401
11
12.698273
21
24.261513
0
LINE
8
1
10
13.270494
20
24.778179
11
13.270494
21
24.783733
0
LINE
8
1
10
13.214939
20
25.161512
11
13.214939
21
25.167068
0
LINE
8
1
10
13.114939
20
25.500401
11
13.114939
21
25.511513
0
LINE
8
1
10
8.652956
20
26.872093
11
8.760569
21
26.872093
0
ARC
8
1
10
8.809903
20
26.764467
40
0.118394
50
114.626184
51
155.373197
0
LINE
8
1
10
8.702278
20
26.813803
11
8.657440
21
26.768965
0
LINE
8
1
10
8.657440
20
26.768965
11
8.442806
21
26.616495
0
LINE
8
1
10
8.442806
20
26.616495
11
8.479139
21
26.728867
0
LINE
8
1
10
8.479139
20
26.728867
11
8.652956
21
26.872093
0
LINE
8
1
10
9.814939
20
26.717068
11
9.814939
21
26.733734
0
ARC
8
1
10
9.016604
20
26.756739
40
0.020573
50
170.652072
51
-48.672160
0
LINE
8
1
10
9.030190
20
26.741289
11
9.099646
21
26.769777
0
ARC
8
1
10
9.197485
20
25.949846
40
0.825748
50
79.362766
51
96.804717
0
ARC
8
1
10
9.348147
20
26.787798
40
0.026453
50
-86.179877
51
40.083276
0
LINE
8
1
10
9.368386
20
26.804831
11
9.274912
21
26.816515
0
LINE
8
1
10
9.274912
20
26.816515
11
9.267122
21
26.808725
0
ARC
8
1
10
9.178588
20
26.523441
40
0.298706
50
72.758918
51
127.607112
0
ARC
8
1
10
10.025516
20
27.133381
40
0.092724
50
97.361539
51
-126.681084
0
LINE
8
1
10
10.013635
20
27.225342
11
10.098272
21
27.255957
0
ARC
8
1
10
9.747725
20
27.154921
40
0.364817
50
-18.755225
51
16.078260
0
LINE
8
1
10
10.093171
20
27.037622
11
9.981606
21
27.044846
0
LINE
8
1
10
9.981606
20
27.044846
11
9.970126
21
27.059019
0
ARC
8
1
10
9.409055
20
26.748703
40
0.653886
50
69.583149
51
81.174000
0
ARC
8
1
10
9.614012
20
27.645775
40
0.271868
50
-130.579295
51
-112.634426
0
ARC
8
1
10
9.384393
20
27.417076
40
0.057253
50
22.828654
51
75.970236
0
LINE
8
1
10
9.398273
20
27.472622
11
9.403828
21
27.478180
0
LINE
8
1
10
9.403828
20
27.478180
11
9.364939
21
27.517067
0
LINE
8
1
10
9.364939
20
27.517067
11
9.337161
21
27.533733
0
LINE
8
1
10
9.337161
20
27.533733
11
9.292717
21
27.561512
0
LINE
8
1
10
9.292717
20
27.561512
11
9.298272
21
27.572624
0
LINE
8
1
10
9.298272
20
27.572624
11
9.292717
21
27.578178
0
LINE
8
1
10
9.292717
20
27.578178
11
9.342717
21
27.594845
0
LINE
8
1
10
9.342717
20
27.594845
11
9.348272
21
27.589291
0
LINE
8
1
10
9.348272
20
27.589291
11
9.376050
21
27.600401
0
LINE
8
1
10
9.376050
20
27.600401
11
9.381606
21
27.594845
0
ARC
8
1
10
9.434383
20
27.381012
40
0.220250
50
76.135360
51
103.864394
0
LINE
8
1
10
9.487162
20
27.594845
11
9.492717
21
27.600401
0
ARC
8
1
10
9.517718
20
27.619850
40
0.031676
50
-142.119868
51
-74.748662
0
LINE
8
1
10
9.526051
20
27.589291
11
9.531606
21
27.583735
0
LINE
8
1
10
9.531606
20
27.583735
11
9.531606
21
27.578178
0
ARC
8
1
10
9.520094
20
27.484909
40
0.093977
50
49.114908
51
82.963831
0
LINE
8
1
10
9.581606
20
27.555958
11
9.642716
21
27.489290
0
ARC
8
1
10
9.546525
20
27.401091
40
0.130507
50
7.032318
51
42.518265
0
ARC
8
1
10
9.656607
20
27.392069
40
0.031671
50
-15.255270
51
52.125923
0
LINE
8
1
10
9.687161
20
27.383736
11
9.692717
21
27.378178
0
LINE
8
1
10
9.692717
20
27.378178
11
9.670495
21
27.355957
0
ARC
8
1
10
9.645496
20
27.308731
40
0.053434
50
62.105864
51
98.974112
0
LINE
8
1
10
8.339025
20
27.954609
11
8.248252
21
27.894539
0
ARC
8
1
10
8.468611
20
27.575293
40
0.387913
50
124.615265
51
137.942875
0
ARC
8
1
10
8.273231
20
27.760611
40
0.118898
50
141.180422
51
-162.973560
0
ARC
8
1
10
8.341438
20
27.766888
40
0.186478
50
-167.269942
51
-130.642004
0
LINE
8
1
10
8.219979
20
27.625389
11
8.199277
21
27.450363
0
LINE
8
1
10
8.199277
20
27.450363
11
8.191631
21
27.328033
0
LINE
8
1
10
8.191631
20
27.328033
11
8.197366
21
27.203793
0
LINE
8
1
10
8.197366
20
27.203793
11
8.296759
21
27.371994
0
LINE
8
1
10
8.296759
20
27.371994
11
8.354100
21
27.039412
0
LINE
8
1
10
8.354100
20
27.039412
11
8.426734
21
27.242020
0
LINE
8
1
10
8.426734
20
27.242020
11
8.459228
21
27.368172
0
LINE
8
1
10
8.459228
20
27.368172
11
8.516569
21
27.492413
0
LINE
8
1
10
8.516569
20
27.492413
11
8.744026
21
27.368172
0
LINE
8
1
10
8.744026
20
27.368172
11
8.942812
21
27.234375
0
LINE
8
1
10
8.942812
20
27.234375
11
9.088078
21
27.117779
0
LINE
8
1
10
9.088078
20
27.117779
11
9.182131
21
27.038195
0
LINE
8
1
10
9.182131
20
27.038195
11
9.174089
21
27.019430
0
LINE
8
1
10
9.174089
20
27.019430
11
9.153064
21
27.004139
0
ARC
8
1
10
9.106235
20
26.202868
40
0.802639
50
86.655228
51
103.566162
0
LINE
8
1
10
8.917961
20
26.983112
11
8.854885
21
26.986935
0
ARC
8
1
10
8.693017
20
26.307583
40
0.698370
50
76.598109
51
94.130032
0
LINE
8
1
10
8.642720
20
27.004139
11
8.602580
21
26.992670
0
LINE
8
1
10
8.602580
20
26.992670
11
8.539504
21
26.937241
0
LINE
8
1
10
8.539504
20
26.937241
11
8.482162
21
26.885632
0
LINE
8
1
10
8.482162
20
26.885632
11
8.392326
21
26.816822
0
LINE
8
1
10
8.392326
20
26.816822
11
8.378773
21
26.818733
0
LINE
8
1
10
8.378773
20
26.818733
11
8.248797
21
26.830200
0
LINE
8
1
10
8.248797
20
26.830200
11
8.046188
21
26.864607
0
ARC
8
1
10
12.234670
20
63.167492
40
36.543711
50
-97.324139
51
-96.581454
0
LINE
8
1
10
7.575984
20
26.921947
11
7.417338
21
26.923859
0
LINE
8
1
10
7.417338
20
26.923859
11
7.241489
21
26.906658
0
LINE
8
1
10
7.241489
20
26.906658
11
7.098135
21
26.879028
0
LINE
8
1
10
7.098135
20
26.879028
11
6.985362
21
26.865650
0
LINE
8
1
10
6.985362
20
26.865650
11
6.897438
21
26.840801
0
LINE
8
1
10
6.897438
20
26.840801
11
6.834362
21
26.815952
0
LINE
8
1
10
6.834362
20
26.815952
11
6.792311
21
26.781548
0
LINE
8
1
10
6.792311
20
26.781548
11
6.763639
21
26.739498
0
LINE
8
1
10
6.763639
20
26.739498
11
6.773197
21
26.733763
0
LINE
8
1
10
6.773197
20
26.733763
11
6.809513
21
26.718472
0
LINE
8
1
10
6.809513
20
26.718472
11
6.826716
21
26.728027
0
LINE
8
1
10
6.826716
20
26.728027
11
6.857298
21
26.728027
0
LINE
8
1
10
6.857298
20
26.728027
11
6.897438
21
26.733763
0
LINE
8
1
10
6.897438
20
26.733763
11
6.945223
21
26.726116
0
LINE
8
1
10
6.945223
20
26.726116
11
6.971982
21
26.716560
0
LINE
8
1
10
6.971982
20
26.716560
11
6.945223
21
26.668776
0
LINE
8
1
10
6.945223
20
26.668776
11
6.905083
21
26.628635
0
LINE
8
1
10
6.905083
20
26.628635
11
6.870678
21
26.588497
0
LINE
8
1
10
6.870678
20
26.588497
11
6.864944
21
26.548357
0
LINE
8
1
10
6.864944
20
26.548357
11
6.868767
21
26.536888
0
LINE
8
1
10
6.868767
20
26.536888
11
6.931843
21
26.550268
0
ARC
8
1
10
6.669078
20
27.269106
40
0.765358
50
-69.920549
51
-58.959571
0
LINE
8
1
10
7.063729
20
26.613344
11
7.144008
21
26.674509
0
LINE
8
1
10
7.144008
20
26.674509
11
7.203262
21
26.703180
0
LINE
8
1
10
7.203262
20
26.703180
11
7.268249
21
26.741409
0
LINE
8
1
10
7.268249
20
26.741409
11
7.327677
21
26.756699
0
LINE
8
1
10
7.327677
20
26.756699
11
7.407956
21
26.766256
0
ARC
8
1
10
7.290738
20
19.678085
40
7.089140
50
82.292532
51
89.052576
0
LINE
8
1
10
8.241500
20
26.703180
11
8.314133
21
26.699358
0
LINE
8
1
10
8.314133
20
26.699358
11
8.300754
21
26.620991
0
LINE
8
1
10
8.300754
20
26.620991
11
8.289285
21
26.571293
0
LINE
8
1
10
8.289285
20
26.571293
11
8.285462
21
26.521597
0
LINE
8
1
10
8.285462
20
26.521597
11
8.210917
21
26.475723
0
LINE
8
1
10
8.210917
20
26.475723
11
8.216652
21
26.469990
0
ARC
8
1
10
8.459960
20
26.805901
40
0.414771
50
-125.916692
51
-105.857267
0
LINE
8
1
10
8.346627
20
26.406914
11
8.407792
21
26.391623
0
LINE
8
1
10
8.407792
20
26.391623
11
8.535855
21
26.378242
0
LINE
8
1
10
8.535855
20
26.378242
11
8.656274
21
26.385887
0
LINE
8
1
10
8.656274
20
26.385887
11
8.769046
21
26.397356
0
ARC
8
1
10
6.653688
20
35.199818
40
9.053070
50
-76.487236
51
-73.454577
0
LINE
8
1
10
9.231779
20
26.521597
11
9.342640
21
26.534977
0
LINE
8
1
10
9.342640
20
26.534977
11
9.422919
21
26.544533
0
LINE
8
1
10
9.422919
20
26.544533
11
9.533780
21
26.548357
0
ARC
8
1
10
9.605491
20
27.409618
40
0.864242
50
-94.759596
51
-78.197480
0
LINE
8
1
10
9.782262
20
26.563648
11
9.820490
21
26.577028
0
LINE
8
1
10
9.820490
20
26.577028
11
9.862541
21
26.590408
0
ARC
8
1
10
9.794492
20
26.699034
40
0.128180
50
-57.934517
51
-6.705454
0
LINE
8
1
10
9.921795
20
26.684067
11
10.042212
21
26.699358
0
LINE
8
1
10
10.042212
20
26.699358
11
10.122492
21
26.703180
0
LINE
8
1
10
10.122492
20
26.703180
11
10.321451
21
26.697445
0
LINE
8
1
10
10.321451
20
26.697445
11
10.623452
21
26.659218
0
LINE
8
1
10
10.623452
20
26.659218
11
10.868112
21
26.605698
0
LINE
8
1
10
10.868112
20
26.605698
11
11.089834
21
26.533066
0
LINE
8
1
10
11.089834
20
26.533066
11
11.244658
21
26.466167
0
LINE
8
1
10
11.244658
20
26.466167
11
11.374633
21
26.393534
0
LINE
8
1
10
11.374633
20
26.393534
11
11.500785
21
26.313255
0
LINE
8
1
10
11.500785
20
26.313255
11
11.640317
21
26.199614
0
ARC
8
1
10
10.275370
20
24.803143
40
1.952745
50
32.345807
51
45.654046
0
LINE
8
1
10
11.925116
20
25.847916
11
12.034065
21
25.664421
0
LINE
8
1
10
12.034065
20
25.664421
11
12.148749
21
25.443741
0
LINE
8
1
10
12.148749
20
25.443741
11
12.200357
21
25.296564
0
LINE
8
1
10
12.200357
20
25.296564
11
12.236673
21
25.147476
0
LINE
8
1
10
12.236673
20
25.147476
11
12.261522
21
25.011765
0
LINE
8
1
10
12.261522
20
25.011765
11
12.288281
21
24.897083
0
LINE
8
1
10
12.288281
20
24.897083
11
12.301661
21
24.774754
0
LINE
8
1
10
12.301661
20
24.774754
11
12.330333
21
24.692562
0
LINE
8
1
10
12.330333
20
24.692562
11
12.108610
21
24.761372
0
LINE
8
1
10
12.108610
20
24.761372
11
11.877331
21
24.814892
0
LINE
8
1
10
11.877331
20
24.814892
11
11.628849
21
24.858854
0
LINE
8
1
10
11.628849
20
24.858854
11
11.491228
21
24.872234
0
LINE
8
1
10
11.491228
20
24.872234
11
11.265509
21
24.895170
0
LINE
8
1
10
11.265509
20
24.895170
11
11.076280
21
24.897083
0
LINE
8
1
10
11.076280
20
24.897083
11
10.774279
21
24.893259
0
LINE
8
1
10
10.774279
20
24.893259
11
10.562114
21
24.879879
0
LINE
8
1
10
10.562114
20
24.879879
11
10.164369
21
24.825493
0
LINE
8
1
10
10.164369
20
24.825493
11
9.944557
21
24.773884
0
LINE
8
1
10
9.944557
20
24.773884
11
9.747683
21
24.708897
0
LINE
8
1
10
9.747683
20
24.708897
11
9.548898
21
24.634352
0
LINE
8
1
10
9.548898
20
24.634352
11
9.409366
21
24.571276
0
LINE
8
1
10
9.409366
20
24.571276
11
9.166617
21
24.406895
0
LINE
8
1
10
9.166617
20
24.406895
11
9.009708
21
24.274139
0
LINE
8
1
10
9.009708
20
24.274139
11
8.931341
21
24.182392
0
LINE
8
1
10
8.931341
20
24.182392
11
8.805189
21
24.037127
0
LINE
8
1
10
8.805189
20
24.037127
11
8.700062
21
23.868923
0
LINE
8
1
10
8.700062
20
23.868923
11
8.652277
21
23.742771
0
LINE
8
1
10
8.652277
20
23.742771
11
8.614049
21
23.548851
0
LINE
8
1
10
8.614049
20
23.548851
11
8.591112
21
23.355801
0
LINE
8
1
10
8.591112
20
23.355801
11
8.600669
21
23.222000
0
LINE
8
1
10
8.600669
20
23.222000
11
8.633162
21
23.063354
0
LINE
8
1
10
8.633162
20
23.063354
11
8.686682
21
22.938246
0
LINE
8
1
10
8.686682
20
22.938246
11
8.803277
21
22.775776
0
LINE
8
1
10
8.803277
20
22.775776
11
8.887379
21
22.684029
0
LINE
8
1
10
8.887379
20
22.684029
11
8.719175
21
22.598017
0
LINE
8
1
10
8.719175
20
22.598017
11
8.612138
21
22.531116
0
LINE
8
1
10
8.612138
20
22.531116
11
8.503187
21
22.454662
0
LINE
8
1
10
8.503187
20
22.454662
11
8.342630
21
22.314262
0
LINE
8
1
10
8.342630
20
22.314262
11
8.220301
21
22.180462
0
LINE
8
1
10
8.220301
20
22.180462
11
8.103705
21
22.004614
0
LINE
8
1
10
8.103705
20
22.004614
11
8.027248
21
21.861259
0
LINE
8
1
10
8.027248
20
21.861259
11
7.939325
21
21.617641
0
LINE
8
1
10
7.939325
20
21.617641
11
7.897274
21
21.437971
0
LINE
8
1
10
7.897274
20
21.437971
11
7.883894
21
21.311817
0
LINE
8
1
10
7.883894
20
21.311817
11
7.883894
21
21.134058
0
LINE
8
1
10
7.883894
20
21.134058
11
7.899185
21
20.989834
0
LINE
8
1
10
7.899185
20
20.989834
11
7.925945
21
20.884708
0
LINE
8
1
10
7.925945
20
20.884708
11
7.971818
21
20.747086
0
LINE
8
1
10
7.971818
20
20.747086
11
8.065477
21
20.554035
0
LINE
8
1
10
8.065477
20
20.554035
11
8.134288
21
20.441263
0
LINE
8
1
10
8.134288
20
20.441263
11
7.942974
21
20.333355
0
LINE
8
1
10
7.942974
20
20.333355
11
7.696404
21
20.165152
0
LINE
8
1
10
7.696404
20
20.165152
11
7.554960
21
20.044735
0
LINE
8
1
10
7.554960
20
20.044735
11
7.392491
21
19.863152
0
LINE
8
1
10
7.392491
20
19.863152
11
7.275722
21
19.707458
0
LINE
8
1
10
7.275722
20
19.707458
11
7.168684
21
19.512497
0
LINE
8
1
10
7.168684
20
19.512497
11
7.096050
21
19.315620
0
LINE
8
1
10
7.096050
20
19.315620
11
7.055911
21
19.172266
0
LINE
8
1
10
7.055911
20
19.172266
11
7.036797
21
18.980257
0
LINE
8
1
10
7.036797
20
18.980257
11
7.029151
21
18.819700
0
LINE
8
1
10
7.029151
20
18.819700
11
7.038708
21
18.672522
0
LINE
8
1
10
7.038708
20
18.672522
11
7.065468
21
18.490940
0
LINE
8
1
10
7.065468
20
18.490940
11
7.094139
21
18.349495
0
ARC
8
1
10
10.460008
20
19.445196
40
3.539723
50
-161.968221
51
-157.179686
0
LINE
8
1
10
7.197354
20
18.072342
11
7.233671
21
18.005444
0
LINE
8
1
10
7.233671
20
18.005444
11
7.243228
21
17.969128
0
LINE
8
1
10
7.243228
20
17.969128
11
7.235582
21
17.955748
0
LINE
8
1
10
7.235582
20
17.955748
11
7.212646
21
17.951923
0
LINE
8
1
10
7.212646
20
17.951923
11
7.174417
21
17.955748
0
ARC
8
1
10
7.325418
20
18.136375
40
0.235431
50
-176.974899
51
-129.894895
0
LINE
8
1
10
7.090316
20
18.123951
11
7.078847
21
18.221432
0
LINE
8
1
10
7.078847
20
18.221432
11
7.042531
21
18.328470
0
ARC
8
1
10
5.381626
20
17.858116
40
1.726221
50
15.811664
51
27.791112
0
LINE
8
1
10
6.908733
20
18.662966
11
6.872416
21
18.741333
0
LINE
8
1
10
6.872416
20
18.741333
11
6.832277
21
18.770004
0
ARC
8
1
10
12.939191
20
19.135469
40
6.117840
50
-176.575243
51
-173.169698
0
LINE
8
1
10
6.864771
20
18.407881
11
6.868594
21
18.249233
0
ARC
8
1
10
4.352273
20
18.819557
40
2.580143
50
-22.124096
51
-12.770331
0
LINE
8
1
10
6.742441
20
17.847839
11
6.620111
21
17.962524
0
LINE
8
1
10
6.620111
20
17.962524
11
6.513073
21
18.042803
0
LINE
8
1
10
6.513073
20
18.042803
11
6.409858
21
18.149841
0
LINE
8
1
10
6.409858
20
18.149841
11
6.344870
21
18.224386
0
LINE
8
1
10
6.344870
20
18.224386
11
6.300908
21
18.291285
0
LINE
8
1
10
6.300908
20
18.291285
11
6.255034
21
18.383032
0
LINE
8
1
10
6.255034
20
18.383032
11
6.224278
21
18.411703
0
LINE
8
1
10
6.224278
20
18.411703
11
6.216633
21
18.392590
0
LINE
8
1
10
6.216633
20
18.392590
11
6.208987
21
18.339069
0
LINE
8
1
10
6.208987
20
18.339069
11
6.203253
21
18.289373
0
LINE
8
1
10
6.203253
20
18.289373
11
6.208987
21
18.207184
0
LINE
8
1
10
6.208987
20
18.207184
11
6.216633
21
18.155575
0
LINE
8
1
10
6.216633
20
18.155575
11
6.220456
21
18.100145
0
LINE
8
1
10
6.220456
20
18.100145
11
6.235747
21
18.027512
0
LINE
8
1
10
6.235747
20
18.027512
11
6.239570
21
17.964436
0
LINE
8
1
10
6.239570
20
17.964436
11
6.208987
21
17.983549
0
LINE
8
1
10
6.208987
20
17.983549
11
6.145911
21
17.998840
0
LINE
8
1
10
6.145911
20
17.998840
11
6.100037
21
18.012220
0
LINE
8
1
10
6.100037
20
18.012220
11
6.075189
21
18.025600
0
LINE
8
1
10
6.075189
20
18.025600
11
6.033138
21
18.044714
0
ARC
8
1
10
5.869694
20
17.959642
40
0.184259
50
27.496616
51
55.565611
0
LINE
8
1
10
5.973885
20
18.111614
11
5.964328
21
18.132639
0
ARC
8
1
10
6.399527
20
18.547489
40
0.601248
50
-145.968995
51
-136.371286
0
LINE
8
1
10
5.901252
20
18.211006
11
5.884049
21
18.184246
0
LINE
8
1
10
5.884049
20
18.184246
11
5.887872
21
18.147930
0
LINE
8
1
10
5.887872
20
18.147930
11
5.880226
21
18.100145
0
ARC
8
1
10
7.006432
20
18.133770
40
1.126708
50
-178.289847
51
-165.700608
0
LINE
8
1
10
5.914631
20
17.855486
11
5.926100
21
17.824903
0
LINE
8
1
10
5.926100
20
17.824903
11
5.916543
21
17.813435
0
LINE
8
1
10
5.916543
20
17.813435
11
5.857289
21
17.844017
0
ARC
8
1
10
10.125846
20
27.951752
40
10.972095
50
-114.628697
51
-112.894620
0
ARC
8
1
10
6.378208
20
19.348206
40
1.599474
50
-130.326402
51
-121.043541
0
LINE
8
1
10
5.343123
20
18.128815
11
5.314452
21
18.161310
0
LINE
8
1
10
5.314452
20
18.161310
11
5.274312
21
18.201448
0
LINE
8
1
10
5.274312
20
18.201448
11
5.255025
21
18.212917
0
LINE
8
1
10
5.255025
20
18.212917
11
5.239734
21
18.182335
0
LINE
8
1
10
5.239734
20
18.182335
11
5.237822
21
18.157486
0
LINE
8
1
10
5.237822
20
18.157486
11
5.245468
21
18.098232
0
ARC
8
1
10
6.317844
20
18.163927
40
1.074387
50
-176.494383
51
-166.274360
0
ARC
8
1
10
4.623520
20
17.646463
40
0.701592
50
9.147758
51
21.975319
0
ARC
8
1
10
5.079935
20
15.336886
40
2.432616
50
84.426682
51
90.287996
0
LINE
8
1
10
5.067708
20
17.769472
11
5.027568
21
17.773296
0
LINE
8
1
10
5.027568
20
17.773296
11
4.964492
21
17.777119
0
LINE
8
1
10
4.964492
20
17.777119
11
4.920530
21
17.790497
0
LINE
8
1
10
4.920530
20
17.790497
11
4.882302
21
17.800055
0
LINE
8
1
10
4.882302
20
17.800055
11
4.775263
21
17.861219
0
ARC
8
1
10
4.798215
20
18.001741
40
0.142384
50
-124.327791
51
-99.276456
0
LINE
8
1
10
4.717921
20
17.884157
11
4.708364
21
17.882244
0
ARC
8
1
10
4.828365
20
17.849566
40
0.124370
50
164.766552
51
-154.606936
0
LINE
8
1
10
4.716010
20
17.796232
11
4.731301
21
17.746536
0
LINE
8
1
10
4.731301
20
17.746536
11
4.761884
21
17.712132
0
ARC
8
1
10
1.997502
20
-28.908585
40
46.702601
50
86.606610
51
87.120925
0
LINE
8
1
10
4.343287
20
17.735067
11
4.261097
21
17.750359
0
LINE
8
1
10
4.261097
20
17.750359
11
4.205666
21
17.754181
0
LINE
8
1
10
4.205666
20
17.754181
11
4.127299
21
17.763739
0
LINE
8
1
10
4.127299
20
17.763739
11
4.106273
21
17.759916
0
LINE
8
1
10
4.106273
20
17.759916
11
4.102450
21
17.755224
0
ARC
8
1
10
4.208208
20
17.793764
40
0.112561
50
-159.977323
51
-117.651245
0
LINE
8
1
10
4.155970
20
17.694059
11
4.175084
21
17.676857
0
LINE
8
1
10
4.175084
20
17.676857
11
4.196109
21
17.650097
0
LINE
8
1
10
4.196109
20
17.650097
11
4.226692
21
17.632895
0
LINE
8
1
10
4.226692
20
17.632895
11
4.263008
21
17.613781
0
LINE
8
1
10
4.263008
20
17.613781
11
4.243894
21
17.611870
0
LINE
8
1
10
4.243894
20
17.611870
11
4.190375
21
17.604223
0
ARC
8
1
10
4.178004
20
17.468378
40
0.136407
50
84.796774
51
122.674835
0
LINE
8
1
10
4.104362
20
17.583199
11
4.096716
21
17.552616
0
LINE
8
1
10
4.096716
20
17.552616
11
4.100539
21
17.525856
0
ARC
8
1
10
3.807573
20
17.704805
40
0.343296
50
-57.586350
51
-31.417409
0
LINE
8
1
10
3.991589
20
17.414995
11
3.913222
21
17.376766
0
LINE
8
1
10
3.913222
20
17.376766
11
3.874994
21
17.363386
0
LINE
8
1
10
3.874994
20
17.363386
11
3.873083
21
17.348095
0
LINE
8
1
10
3.873083
20
17.348095
11
3.957184
21
17.330893
0
LINE
8
1
10
3.957184
20
17.330893
11
4.043197
21
17.330893
0
ARC
8
1
10
4.091938
20
3.608248
40
13.722732
50
89.022332
51
90.203503
0
LINE
8
1
10
4.326084
20
17.328981
11
4.408275
21
17.313690
0
ARC
8
1
10
0.761435
20
7.387794
40
10.574632
50
68.262607
51
69.826332
0
ARC
8
1
10
4.115361
20
19.411169
40
2.271424
50
-92.355713
51
-75.664037
0
LINE
8
1
10
4.021998
20
17.141665
11
3.911137
21
17.147398
0
LINE
8
1
10
3.911137
20
17.147398
11
3.786896
21
17.155045
0
ARC
8
1
10
3.934889
20
18.126215
40
0.982382
50
-120.444705
51
-98.664433
0
LINE
8
1
10
3.437109
20
17.279285
11
3.362565
21
17.319424
0
LINE
8
1
10
3.362565
20
17.319424
11
3.320514
21
17.344273
0
LINE
8
1
10
3.320514
20
17.344273
11
3.286109
21
17.346184
0
ARC
8
1
10
3.608409
20
17.446960
40
0.337688
50
-162.636612
51
-138.647734
0
LINE
8
1
10
3.354919
20
17.223854
11
3.381679
21
17.185627
0
LINE
8
1
10
3.381679
20
17.185627
11
3.481072
21
17.099613
0
LINE
8
1
10
3.481072
20
17.099613
11
3.611047
21
16.997440
0
LINE
8
1
10
3.611047
20
16.997440
11
3.521211
21
16.943922
0
ARC
8
1
10
3.348229
20
17.417711
40
0.504380
50
-89.674262
51
-69.942696
0
LINE
8
1
10
3.351097
20
16.913340
11
3.274641
21
16.911427
0
LINE
8
1
10
3.274641
20
16.911427
11
3.230678
21
16.909515
0
LINE
8
1
10
3.230678
20
16.909515
11
3.179070
21
16.896137
0
LINE
8
1
10
3.179070
20
16.896137
11
3.186716
21
16.890402
0
ARC
8
1
10
3.966811
20
17.806036
40
1.202886
50
-130.430089
51
-122.283625
0
LINE
8
1
10
3.324337
20
16.789099
11
3.347274
21
16.769983
0
LINE
8
1
10
3.347274
20
16.769983
11
3.396970
21
16.747047
0
LINE
8
1
10
3.396970
20
16.747047
11
3.475511
21
16.712643
0
LINE
8
1
10
3.475511
20
16.712643
11
3.590195
21
16.695438
0
LINE
8
1
10
3.590195
20
16.695438
11
3.699145
21
16.682060
0
LINE
8
1
10
3.699145
20
16.682060
11
3.811918
21
16.682060
0
LINE
8
1
10
3.811918
20
16.682060
11
3.976298
21
16.672503
0
LINE
8
1
10
3.976298
20
16.672503
11
4.129210
21
16.668680
0
LINE
8
1
10
4.129210
20
16.668680
11
4.188464
21
16.664856
0
ARC
8
1
10
4.097603
20
16.690214
40
0.094333
50
-54.675471
51
-15.593797
0
LINE
8
1
10
4.152147
20
16.613249
11
4.108185
21
16.582666
0
LINE
8
1
10
4.108185
20
16.582666
11
4.056577
21
16.555908
0
LINE
8
1
10
4.056577
20
16.555908
11
3.995160
21
16.517887
0
LINE
8
1
10
3.995160
20
16.517887
11
2.662417
21
16.517887
0
ARC
8
1
10
2.750090
20
16.947109
40
0.438085
50
-170.716078
51
-101.544373
0
LINE
8
1
10
2.317743
20
16.876434
11
2.317743
21
27.566521
0
ARC
8
1
10
2.751783
20
27.502518
40
0.438733
50
98.936568
51
171.611679
0
LINE
8
1
10
2.683630
20
27.935925
11
8.339025
21
27.954609
0
LINE
8
1
10
8.235594
20
27.886162
11
8.236330
21
27.886650
0
LINE
8
1
10
9.003390
20
19.680515
11
8.925453
21
19.641548
0
LINE
8
1
10
8.925453
20
19.641548
11
8.799115
21
19.532635
0
LINE
8
1
10
8.799115
20
19.532635
11
8.725055
21
19.449862
0
LINE
8
1
10
8.725055
20
19.449862
11
8.646638
21
19.349663
0
LINE
8
1
10
8.646638
20
19.349663
11
8.598716
21
19.253819
0
LINE
8
1
10
8.598716
20
19.253819
11
8.559507
21
19.127481
0
LINE
8
1
10
8.559507
20
19.127481
11
8.559507
21
18.996786
0
LINE
8
1
10
8.559507
20
18.996786
11
8.568220
21
18.887875
0
ARC
8
1
10
10.121845
20
19.555775
40
1.691107
50
-156.737231
51
-150.132615
0
LINE
8
1
10
8.655351
20
18.713614
11
8.698915
21
18.626484
0
LINE
8
1
10
8.698915
20
18.626484
11
8.781689
21
18.530640
0
LINE
8
1
10
8.781689
20
18.530640
11
8.908028
21
18.391232
0
LINE
8
1
10
8.908028
20
18.391232
11
9.008227
21
18.321529
0
LINE
8
1
10
9.008227
20
18.321529
11
9.182883
21
18.208260
0
ARC
8
1
10
23890.707031
20
7978.890625
40
25173.391892
50
-161.565297
51
-161.564670
0
LINE
8
1
10
9.095753
20
18.469650
11
9.069614
21
18.587275
0
LINE
8
1
10
9.069614
20
18.587275
11
9.043475
21
18.670048
0
LINE
8
1
10
9.043475
20
18.670048
11
9.065258
21
18.661335
0
LINE
8
1
10
9.065258
20
18.661335
11
9.117536
21
18.604702
0
LINE
8
1
10
9.117536
20
18.604702
11
9.191596
21
18.556780
0
LINE
8
1
10
9.191596
20
18.556780
11
9.261300
21
18.521927
0
LINE
8
1
10
9.261300
20
18.521927
11
9.352787
21
18.469650
0
LINE
8
1
10
9.352787
20
18.469650
11
9.496552
21
18.439154
0
LINE
8
1
10
9.496552
20
18.439154
11
9.631602
21
18.395588
0
LINE
8
1
10
9.631602
20
18.395588
11
9.601107
21
18.474007
0
LINE
8
1
10
9.601107
20
18.474007
11
9.592394
21
18.521927
0
LINE
8
1
10
9.592394
20
18.521927
11
9.574968
21
18.587275
0
LINE
8
1
10
9.574968
20
18.587275
11
9.561898
21
18.687475
0
LINE
8
1
10
9.561898
20
18.687475
11
9.553185
21
18.774605
0
LINE
8
1
10
9.553185
20
18.774605
11
9.557542
21
18.857378
0
LINE
8
1
10
9.557542
20
18.857378
11
9.714376
21
18.713614
0
LINE
8
1
10
9.714376
20
18.713614
11
9.801506
21
18.639553
0
LINE
8
1
10
9.801506
20
18.639553
11
9.888636
21
18.578562
0
LINE
8
1
10
9.888636
20
18.578562
11
10.019331
21
18.469650
0
LINE
8
1
10
10.019331
20
18.469650
11
9.997548
21
18.561136
0
LINE
8
1
10
9.997548
20
18.561136
11
9.984479
21
18.665691
0
LINE
8
1
10
9.984479
20
18.665691
11
9.967053
21
18.739752
0
LINE
8
1
10
9.967053
20
18.739752
11
9.971410
21
18.883516
0
LINE
8
1
10
9.971410
20
18.883516
11
10.041114
21
18.787674
0
LINE
8
1
10
10.041114
20
18.787674
11
10.145670
21
18.639553
0
LINE
8
1
10
10.145670
20
18.639553
11
10.258939
21
18.539352
0
LINE
8
1
10
10.258939
20
18.539352
11
10.346068
21
18.487076
0
ARC
8
1
10
10.732069
20
19.505695
40
1.089304
50
-110.753942
51
-92.430417
0
ARC
8
1
10
11.547302
20
18.565493
40
0.874068
50
174.566011
51
-170.243486
0
LINE
8
1
10
10.677162
20
18.648266
11
10.681519
21
18.713614
0
LINE
8
1
10
10.681519
20
18.713614
11
10.668449
21
18.783318
0
LINE
8
1
10
10.668449
20
18.783318
11
10.633597
21
18.883516
0
LINE
8
1
10
10.633597
20
18.883516
11
10.581320
21
19.005499
0
LINE
8
1
10
10.581320
20
19.005499
11
10.659737
21
18.957577
0
LINE
8
1
10
10.659737
20
18.957577
11
10.698945
21
18.922726
0
LINE
8
1
10
10.698945
20
18.922726
11
10.768649
21
18.848665
0
LINE
8
1
10
10.768649
20
18.848665
11
10.842710
21
18.787674
0
LINE
8
1
10
10.842710
20
18.787674
11
10.894987
21
18.722326
0
LINE
8
1
10
10.894987
20
18.722326
11
10.990830
21
18.591631
0
LINE
8
1
10
10.990830
20
18.591631
11
11.091030
21
18.482719
0
LINE
8
1
10
11.091030
20
18.482719
11
11.121526
21
18.604702
0
LINE
8
1
10
11.121526
20
18.604702
11
11.143308
21
18.713614
0
LINE
8
1
10
11.143308
20
18.713614
11
11.195586
21
18.809456
0
LINE
8
1
10
11.195586
20
18.809456
11
11.247864
21
18.914013
0
LINE
8
1
10
11.247864
20
18.914013
11
11.330637
21
19.005499
0
LINE
8
1
10
11.330637
20
19.005499
11
11.422124
21
19.079559
0
LINE
8
1
10
11.422124
20
19.079559
11
11.391628
21
18.931438
0
LINE
8
1
10
11.391628
20
18.931438
11
11.378559
21
18.826881
0
LINE
8
1
10
11.378559
20
18.826881
11
11.387272
21
18.648266
0
LINE
8
1
10
11.387272
20
18.648266
11
11.413411
21
18.491432
0
LINE
8
1
10
11.413411
20
18.491432
11
11.570245
21
18.587275
0
LINE
8
1
10
11.570245
20
18.587275
11
11.639949
21
18.648266
0
LINE
8
1
10
11.639949
20
18.648266
11
11.757574
21
18.752823
0
LINE
8
1
10
11.757574
20
18.752823
11
11.866487
21
18.826881
0
LINE
8
1
10
11.866487
20
18.826881
11
12.036390
21
18.918369
0
LINE
8
1
10
12.036390
20
18.918369
11
12.158372
21
18.961933
0
LINE
8
1
10
12.158372
20
18.961933
11
12.127877
21
18.905300
0
LINE
8
1
10
12.127877
20
18.905300
11
12.079955
21
18.813812
0
LINE
8
1
10
12.079955
20
18.813812
11
12.066886
21
18.722326
0
LINE
8
1
10
12.066886
20
18.722326
11
12.079955
21
18.617771
0
LINE
8
1
10
12.079955
20
18.617771
11
12.088668
21
18.548067
0
LINE
8
1
10
12.088668
20
18.548067
11
12.167086
21
18.556780
0
LINE
8
1
10
12.167086
20
18.556780
11
12.284711
21
18.574205
0
LINE
8
1
10
12.284711
20
18.574205
11
12.411049
21
18.648266
0
LINE
8
1
10
12.411049
20
18.648266
11
12.528675
21
18.739752
0
LINE
8
1
10
12.528675
20
18.739752
11
12.641944
21
18.839952
0
LINE
8
1
10
12.641944
20
18.839952
11
12.611448
21
18.761536
0
LINE
8
1
10
12.611448
20
18.761536
11
12.598379
21
18.683117
0
LINE
8
1
10
12.598379
20
18.683117
11
12.441545
21
18.391232
0
LINE
8
1
10
12.441545
20
18.391232
11
12.454615
21
18.338955
0
LINE
8
1
10
12.454615
20
18.338955
11
12.546101
21
18.312817
0
LINE
8
1
10
12.546101
20
18.312817
11
12.811848
21
18.343311
0
LINE
8
1
10
12.811848
20
18.343311
11
12.999177
21
18.469650
0
LINE
8
1
10
12.999177
20
18.469650
11
13.251854
21
18.696188
0
LINE
8
1
10
13.251854
20
18.696188
11
13.478392
21
18.944508
0
LINE
8
1
10
13.478392
20
18.944508
11
13.543739
21
19.057777
0
LINE
8
1
10
13.543739
20
19.057777
11
12.716004
21
19.506496
0
LINE
8
1
10
12.716004
20
19.506496
11
12.576596
21
19.441149
0
LINE
8
1
10
12.576596
20
19.441149
11
12.367484
21
19.388870
0
LINE
8
1
10
12.367484
20
19.388870
11
12.032034
21
19.301741
0
LINE
8
1
10
12.032034
20
19.301741
11
11.735792
21
19.249462
0
LINE
8
1
10
11.735792
20
19.249462
11
11.339351
21
19.201542
0
LINE
8
1
10
11.339351
20
19.201542
11
11.069247
21
19.188473
0
LINE
8
1
10
11.069247
20
19.188473
11
10.738153
21
19.184116
0
LINE
8
1
10
10.738153
20
19.184116
11
10.346068
21
19.214611
0
LINE
8
1
10
10.346068
20
19.214611
11
9.997548
21
19.288671
0
LINE
8
1
10
9.997548
20
19.288671
11
9.583681
21
19.406296
0
LINE
8
1
10
9.583681
20
19.406296
11
9.252587
21
19.545704
0
LINE
8
1
10
9.252587
20
19.545704
11
9.003390
21
19.680515
0
LINE
8
1
10
9.369823
20
20.668009
11
9.481791
21
20.581635
0
ARC
8
1
10
9.835612
20
20.957796
40
0.516418
50
-133.247110
51
-106.551397
0
LINE
8
1
10
9.688498
20
20.462776
11
9.791851
21
20.423159
0
LINE
8
1
10
9.791851
20
20.423159
11
9.939993
21
20.388706
0
LINE
8
1
10
9.939993
20
20.388706
11
10.150146
21
20.352533
0
LINE
8
1
10
10.150146
20
20.352533
11
10.110526
21
20.249180
0
LINE
8
1
10
10.110526
20
20.249180
11
10.082965
21
20.149269
0
ARC
8
1
10
9.819075
20
22.625483
40
2.490235
50
-94.833189
51
-83.916941
0
LINE
8
1
10
9.609260
20
20.144102
11
9.590311
21
20.144102
0
LINE
8
1
10
9.590311
20
20.144102
11
9.581698
21
20.128599
0
LINE
8
1
10
9.581698
20
20.128599
11
9.578254
21
20.104485
0
LINE
8
1
10
9.578254
20
20.104485
11
9.574808
21
20.073477
0
LINE
8
1
10
9.574808
20
20.073477
11
9.586866
21
20.051083
0
LINE
8
1
10
9.586866
20
20.051083
11
9.614428
21
20.032135
0
LINE
8
1
10
9.614428
20
20.032135
11
9.672995
21
20.006296
0
LINE
8
1
10
9.672995
20
20.006296
11
9.728117
21
19.978737
0
ARC
8
1
10
10.480622
20
21.723026
40
1.899687
50
-113.335886
51
-102.987721
0
LINE
8
1
10
10.053682
20
19.871937
11
10.262113
21
19.823706
0
LINE
8
1
10
10.262113
20
19.823706
11
10.325848
21
19.820259
0
LINE
8
1
10
10.325848
20
19.820259
11
10.393027
21
19.818537
0
ARC
8
1
10
10.611681
20
21.782791
40
1.976387
50
-96.351806
51
-89.497365
0
LINE
8
1
10
10.629019
20
19.806480
11
10.641076
21
19.799589
0
LINE
8
1
10
10.641076
20
19.799589
11
10.646244
21
19.790977
0
LINE
8
1
10
10.646244
20
19.790977
11
10.656579
21
19.777195
0
ARC
8
1
10
10.603249
20
19.765129
40
0.054678
50
-61.880366
51
12.748410
0
LINE
8
1
10
10.629019
20
19.716906
11
10.591123
21
19.710016
0
LINE
8
1
10
10.591123
20
19.710016
11
10.541168
21
19.710016
0
LINE
8
1
10
10.541168
20
19.710016
11
10.460207
21
19.708294
0
LINE
8
1
10
10.460207
20
19.708294
11
10.384414
21
19.718628
0
LINE
8
1
10
10.384414
20
19.718628
11
10.279338
21
19.725519
0
ARC
8
1
10
10.633298
20
22.175423
40
2.475341
50
-108.563702
51
-98.221156
0
LINE
8
1
10
9.845251
20
19.828873
11
9.778071
21
19.854712
0
ARC
8
1
10
10.153008
20
21.035133
40
1.238537
50
-115.070049
51
-107.621392
0
LINE
8
1
10
9.628208
20
19.913279
11
9.590311
21
19.925337
0
ARC
8
1
10
9.688091
20
19.856787
40
0.119416
50
144.967116
51
-156.894713
0
ARC
8
1
10
8.773489
20
19.594017
40
0.833224
50
4.546204
51
15.018065
0
LINE
8
1
10
9.604092
20
19.660061
11
9.590311
21
19.635944
0
LINE
8
1
10
9.590311
20
19.635944
11
9.421500
21
19.699680
0
LINE
8
1
10
9.421500
20
19.699680
11
9.319869
21
19.753080
0
LINE
8
1
10
9.319869
20
19.753080
11
9.211348
21
19.801311
0
LINE
8
1
10
9.211348
20
19.801311
11
9.051148
21
19.894329
0
LINE
8
1
10
9.051148
20
19.894329
11
8.925402
21
19.983904
0
LINE
8
1
10
8.925402
20
19.983904
11
8.880614
21
20.023521
0
LINE
8
1
10
8.880614
20
20.023521
11
8.885782
21
20.049362
0
LINE
8
1
10
8.885782
20
20.049362
11
8.923679
21
20.092426
0
LINE
8
1
10
8.923679
20
20.092426
11
8.958130
21
20.107929
0
LINE
8
1
10
8.958130
20
20.107929
11
9.008084
21
20.107929
0
ARC
8
1
10
10.169855
20
26.146435
40
6.149249
50
-100.890280
51
-98.399218
0
LINE
8
1
10
9.271637
20
20.063141
11
9.383604
21
20.056252
0
LINE
8
1
10
9.383604
20
20.056252
11
9.440449
21
20.057974
0
LINE
8
1
10
9.440449
20
20.057974
11
9.452507
21
20.068310
0
LINE
8
1
10
9.452507
20
20.068310
11
9.455952
21
20.092426
0
ARC
8
1
10
8.577108
20
20.048029
40
0.879964
50
2.892006
51
15.529821
0
ARC
8
1
10
2.528759
20
18.809746
40
7.051931
50
12.064013
51
14.046736
0
ARC
8
1
10
10.034895
20
20.629276
40
0.673773
50
179.070897
51
-170.781950
0
LINE
8
1
10
9.361211
20
20.640202
11
9.362933
21
20.659149
0
LINE
8
1
10
9.362933
20
20.659149
11
9.369823
21
20.668009
0
ARC
8
1
10
7.055268
20
24.769560
40
3.353307
50
47.535699
51
55.268686
0
LINE
8
1
10
9.319188
20
27.243288
11
9.365121
21
27.185104
0
LINE
8
1
10
9.365121
20
27.185104
11
9.380431
21
27.163670
0
LINE
8
1
10
9.380431
20
27.163670
11
9.383493
21
27.197355
0
LINE
8
1
10
9.383493
20
27.197355
11
9.386557
21
27.234100
0
LINE
8
1
10
9.386557
20
27.234100
11
9.374308
21
27.273909
0
LINE
8
1
10
9.374308
20
27.273909
11
9.368182
21
27.310656
0
ARC
8
1
10
8.973612
20
27.096382
40
0.448998
50
28.504399
51
55.593514
0
LINE
8
1
10
9.227323
20
27.466827
11
9.193638
21
27.482138
0
ARC
8
1
10
8.787589
20
26.274380
40
1.274188
50
71.417330
51
80.510575
0
LINE
8
1
10
8.997659
20
27.531132
11
8.968124
21
27.528448
0
LINE
8
1
10
8.968124
20
27.528448
11
8.965743
21
27.525417
0
LINE
8
1
10
7.427308
20
19.413061
11
7.389967
21
19.360161
0
LINE
8
1
10
7.389967
20
19.360161
11
7.367490
21
19.292730
0
LINE
8
1
10
7.367490
20
19.292730
11
7.341267
21
19.210312
0
ARC
8
1
10
8.633300
20
18.942339
40
1.319530
50
168.282744
51
-177.483124
0
LINE
8
1
10
7.315043
20
18.884394
11
7.333774
21
18.760769
0
LINE
8
1
10
7.333774
20
18.760769
11
7.363744
21
18.637142
0
LINE
8
1
10
7.363744
20
18.637142
11
7.389967
21
18.569712
0
LINE
8
1
10
7.389967
20
18.569712
11
7.442414
21
18.633396
0
LINE
8
1
10
7.442414
20
18.633396
11
7.472384
21
18.704575
0
LINE
8
1
10
7.472384
20
18.704575
11
7.498607
21
18.790737
0
LINE
8
1
10
7.498607
20
18.790737
11
7.517338
21
18.970556
0
LINE
8
1
10
7.517338
20
18.970556
11
7.528577
21
19.034241
0
LINE
8
1
10
7.528577
20
19.034241
11
7.584770
21
19.075451
0
LINE
8
1
10
7.584770
20
19.075451
11
7.607247
21
18.880646
0
LINE
8
1
10
7.607247
20
18.880646
11
7.655948
21
18.749529
0
LINE
8
1
10
7.655948
20
18.749529
11
7.708395
21
18.644636
0
ARC
8
1
10
9.170270
20
19.538046
40
1.713260
50
-148.569240
51
-134.268571
0
LINE
8
1
10
7.974376
20
18.311222
11
8.105494
21
18.228806
0
LINE
8
1
10
8.105494
20
18.228806
11
8.157940
21
18.296238
0
LINE
8
1
10
8.157940
20
18.296238
11
8.038061
21
18.401133
0
LINE
8
1
10
8.038061
20
18.401133
11
7.970630
21
18.472309
0
LINE
8
1
10
7.970630
20
18.472309
11
7.903198
21
18.539742
0
LINE
8
1
10
7.903198
20
18.539742
11
7.850751
21
18.629650
0
LINE
8
1
10
7.850751
20
18.629650
11
7.783319
21
18.712067
0
LINE
8
1
10
7.783319
20
18.712067
11
7.742111
21
18.794483
0
ARC
8
1
10
9.368629
20
19.260567
40
1.691979
50
-171.928653
51
-164.010182
0
LINE
8
1
10
7.693410
20
19.023003
11
7.704648
21
19.109165
0
LINE
8
1
10
7.704648
20
19.109165
11
7.925675
21
19.097927
0
LINE
8
1
10
7.925675
20
19.097927
11
7.981868
21
19.008018
0
LINE
8
1
10
7.981868
20
19.008018
11
8.026822
21
18.951824
0
LINE
8
1
10
8.026822
20
18.951824
11
8.083015
21
18.899378
0
LINE
8
1
10
8.083015
20
18.899378
11
8.142955
21
18.880646
0
LINE
8
1
10
8.142955
20
18.880646
11
8.251595
21
18.865662
0
LINE
8
1
10
8.251595
20
18.865662
11
8.337758
21
18.880646
0
ARC
8
1
10
12.700747
20
20.066910
40
4.521382
50
-167.138396
51
-164.789401
0
LINE
8
1
10
8.292804
20
19.060465
11
8.292804
21
19.154119
0
LINE
8
1
10
8.292804
20
19.154119
11
8.304042
21
19.229044
0
LINE
8
1
10
8.304042
20
19.229044
11
8.326520
21
19.288982
0
LINE
8
1
10
8.326520
20
19.288982
11
8.363981
21
19.356415
0
LINE
8
1
10
8.363981
20
19.356415
11
8.386458
21
19.427593
0
LINE
8
1
10
8.386458
20
19.427593
11
8.476368
21
19.547472
0
LINE
8
1
10
8.476368
20
19.547472
11
8.607485
21
19.637381
0
LINE
8
1
10
8.607485
20
19.637381
11
8.558784
21
19.678589
0
LINE
8
1
10
8.558784
20
19.678589
11
8.438905
21
19.753513
0
LINE
8
1
10
8.438905
20
19.753513
11
8.345250
21
19.850914
0
ARC
8
1
10
9.570009
20
19.635818
40
1.243503
50
170.039135
51
-179.726765
0
LINE
8
1
10
8.326520
20
19.629889
11
8.311535
21
19.558710
0
LINE
8
1
10
8.311535
20
19.558710
11
8.304042
21
19.446323
0
LINE
8
1
10
8.304042
20
19.446323
11
8.274073
21
19.341431
0
LINE
8
1
10
8.274073
20
19.341431
11
8.176670
21
19.345177
0
LINE
8
1
10
8.176670
20
19.345177
11
8.049299
21
19.352669
0
LINE
8
1
10
8.049299
20
19.352669
11
7.861989
21
19.341431
0
LINE
8
1
10
7.861989
20
19.341431
11
7.772080
21
19.326447
0
LINE
8
1
10
7.772080
20
19.326447
11
7.775826
21
19.345177
0
LINE
8
1
10
7.775826
20
19.345177
11
7.798304
21
19.401369
0
LINE
8
1
10
7.798304
20
19.401369
11
7.839512
21
19.465055
0
LINE
8
1
10
7.839512
20
19.465055
11
7.876974
21
19.521248
0
ARC
8
1
10
6.307104
20
21.143538
40
2.257502
50
-45.940781
51
-40.962277
0
LINE
8
1
10
8.011837
20
19.663605
11
8.090508
21
19.727289
0
LINE
8
1
10
8.090508
20
19.727289
11
8.169179
21
19.783484
0
LINE
8
1
10
8.169179
20
19.783484
11
8.229118
21
19.843422
0
LINE
8
1
10
8.229118
20
19.843422
11
8.191655
21
19.907108
0
LINE
8
1
10
8.191655
20
19.907108
11
8.109240
21
19.873392
0
LINE
8
1
10
8.109240
20
19.873392
11
8.049299
21
19.820946
0
LINE
8
1
10
8.049299
20
19.820946
11
7.948152
21
19.746021
0
LINE
8
1
10
7.948152
20
19.746021
11
7.876974
21
19.678589
0
LINE
8
1
10
7.876974
20
19.678589
11
7.820781
21
19.603664
0
LINE
8
1
10
7.820781
20
19.603664
11
7.760842
21
19.524994
0
LINE
8
1
10
7.760842
20
19.524994
11
7.693410
21
19.405115
0
LINE
8
1
10
7.693410
20
19.405115
11
7.648456
21
19.307714
0
ARC
8
1
10
7.321604
20
18.906370
40
0.517599
50
50.840922
51
78.216189
0
LINE
8
1
10
13.496506
20
18.606121
11
13.598997
21
18.698101
0
ARC
8
1
10
12.054338
20
20.168564
40
2.132658
50
-43.590353
51
-32.363016
0
LINE
8
1
10
13.855739
20
19.026991
11
13.900414
21
19.132984
0
LINE
8
1
10
13.900414
20
19.132984
11
13.942461
21
19.217077
0
LINE
8
1
10
13.942461
20
19.217077
11
14.079113
21
19.080425
0
LINE
8
1
10
14.079113
20
19.080425
11
14.140512
21
18.998562
0
LINE
8
1
10
14.140512
20
18.998562
11
14.245628
21
18.818985
0
LINE
8
1
10
14.245628
20
18.818985
11
14.279792
21
18.810226
0
ARC
8
1
10
13.644797
20
19.219654
40
0.755546
50
-32.812850
51
-15.561940
0
LINE
8
1
10
14.372645
20
19.016956
11
14.379652
21
19.102722
0
LINE
8
1
10
14.379652
20
19.102722
11
14.403304
21
19.411465
0
LINE
8
1
10
14.403304
20
19.411465
11
14.399800
21
19.661118
0
LINE
8
1
10
14.399800
20
19.661118
11
14.405932
21
19.758350
0
LINE
8
1
10
14.405932
20
19.758350
11
14.426955
21
19.768864
0
ARC
8
1
10
14.452536
20
19.722769
40
0.052717
50
52.305012
51
119.028123
0
LINE
8
1
10
14.484770
20
19.764482
11
14.491778
21
19.638821
0
LINE
8
1
10
14.491778
20
19.638821
11
14.490902
21
19.369497
0
LINE
8
1
10
14.490902
20
19.369497
11
14.481266
21
19.245110
0
LINE
8
1
10
14.481266
20
19.245110
11
14.461995
21
19.090061
0
LINE
8
1
10
14.461995
20
19.090061
11
14.452359
21
18.977936
0
LINE
8
1
10
14.452359
20
18.977936
11
14.436591
21
18.920120
0
LINE
8
1
10
14.436591
20
18.920120
11
14.402429
21
18.847416
0
LINE
8
1
10
14.402429
20
18.847416
11
14.398925
21
18.822887
0
LINE
8
1
10
14.398925
20
18.822887
11
14.407684
21
18.813251
0
LINE
8
1
10
14.407684
20
18.813251
11
14.432212
21
18.813251
0
LINE
8
1
10
14.432212
20
18.813251
11
14.460242
21
18.820259
0
LINE
8
1
10
14.460242
20
18.820259
11
14.541708
21
18.867563
0
LINE
8
1
10
14.541708
20
18.867563
11
14.649454
21
18.953407
0
LINE
8
1
10
14.649454
20
18.953407
11
14.664346
21
18.969175
0
ARC
8
1
10
-1.228215
20
27.800323
40
18.181383
50
-29.059968
51
-28.160643
0
LINE
8
1
10
14.800998
20
19.219706
11
14.813262
21
19.228464
0
LINE
8
1
10
14.813262
20
19.228464
11
14.839540
21
19.221457
0
LINE
8
1
10
14.839540
20
19.221457
11
14.860564
21
19.195179
0
LINE
8
1
10
14.860564
20
19.195179
11
14.885091
21
19.203938
0
LINE
8
1
10
14.885091
20
19.203938
11
14.890347
21
19.195179
0
LINE
8
1
10
14.890347
20
19.195179
11
14.862317
21
19.037104
0
LINE
8
1
10
14.862317
20
19.037104
11
14.789610
21
18.764277
0
LINE
8
1
10
14.789610
20
18.764277
11
14.630102
21
18.497581
0
LINE
8
1
10
14.630102
20
18.497581
11
14.568784
21
18.403852
0
LINE
8
1
10
14.568784
20
18.403852
11
14.463667
21
18.252308
0
LINE
8
1
10
14.463667
20
18.252308
11
14.335773
21
18.099888
0
LINE
8
1
10
14.335773
20
18.099888
11
14.194741
21
17.967617
0
LINE
8
1
10
14.194741
20
17.967617
11
14.205254
21
18.007912
0
LINE
8
1
10
14.205254
20
18.007912
11
14.214013
21
18.193140
0
LINE
8
1
10
14.214013
20
18.193140
11
14.212261
21
18.374468
0
LINE
8
1
10
14.212261
20
18.374468
11
14.295479
21
18.483089
0
LINE
8
1
10
14.295479
20
18.483089
11
14.293728
21
18.540424
0
LINE
8
1
10
14.293728
20
18.540424
11
14.275331
21
18.698977
0
ARC
8
1
10
14.249913
20
18.698071
40
0.025434
50
2.041345
51
89.965624
0
LINE
8
1
10
14.249928
20
18.723505
11
14.120204
21
18.675325
0
LINE
8
1
10
14.120204
20
18.675325
11
13.955520
21
18.584225
0
LINE
8
1
10
13.955520
20
18.584225
11
13.895078
21
18.589479
0
LINE
8
1
10
13.895078
20
18.589479
11
13.668119
21
18.594337
0
LINE
8
1
10
13.668119
20
18.594337
11
13.621694
21
18.590834
0
LINE
8
1
10
13.621694
20
18.590834
11
13.604607
21
18.587482
0
LINE
8
1
10
13.604607
20
18.587482
11
13.496506
21
18.606121
0
LINE
8
1
10
13.024552
20
18.145617
11
13.022673
21
18.249025
0
LINE
8
1
10
13.022673
20
18.249025
11
12.904876
21
18.163431
0
LINE
8
1
10
12.904876
20
18.163431
11
12.715919
21
18.048603
0
ARC
8
1
10
11.576918
20
20.256351
40
2.484246
50
-73.844007
51
-62.710308
0
LINE
8
1
10
12.268167
20
17.870214
11
12.121063
21
17.832983
0
LINE
8
1
10
12.121063
20
17.832983
11
12.013005
21
17.813007
0
LINE
8
1
10
12.013005
20
17.813007
11
11.923108
21
17.795753
0
LINE
8
1
10
11.923108
20
17.795753
11
11.953981
21
17.738546
0
ARC
8
1
10
12.373712
20
17.922268
40
0.458178
50
-156.360354
51
-131.939784
0
ARC
8
1
10
12.683138
20
19.389687
40
1.910165
50
-108.802167
51
-94.935797
0
LINE
8
1
10
12.518788
20
17.486605
11
12.619582
21
17.482971
0
LINE
8
1
10
12.619582
20
17.482971
11
12.629571
21
17.472076
0
LINE
8
1
10
12.629571
20
17.472076
11
12.637743
21
17.449375
0
ARC
8
1
10
9.977232
20
16.986351
40
2.700502
50
2.591259
51
9.872633
0
LINE
8
1
10
12.674973
20
17.108442
11
12.673261
21
17.038227
0
LINE
8
1
10
12.673261
20
17.038227
11
12.883907
21
17.108442
0
LINE
8
1
10
12.883907
20
17.108442
11
13.031011
21
17.169283
0
LINE
8
1
10
13.031011
20
17.169283
11
13.136345
21
17.216501
0
LINE
8
1
10
13.136345
20
17.216501
11
13.103655
21
17.241018
0
LINE
8
1
10
13.103655
20
17.241018
11
13.087310
21
17.264627
0
LINE
8
1
10
13.087310
20
17.264627
11
13.060976
21
17.311846
0
ARC
8
1
10
13.064146
20
17.538282
40
0.226459
50
-126.541936
51
-90.802061
0
LINE
8
1
10
12.929310
20
17.356340
11
12.897528
21
17.377226
0
LINE
8
1
10
12.897528
20
17.377226
11
12.873919
21
17.403559
0
ARC
8
1
10
12.884596
20
17.408882
40
0.011931
50
88.946548
51
-153.500486
0
LINE
8
1
10
12.884815
20
17.420811
11
12.923862
21
17.435341
0
LINE
8
1
10
12.923862
20
17.435341
11
12.984701
21
17.468939
0
LINE
8
1
10
12.984701
20
17.468939
11
13.205440
21
17.603743
0
ARC
8
1
10
11.839128
20
19.592510
40
2.412883
50
-55.510391
51
-43.428498
0
LINE
8
1
10
13.591443
20
17.933777
11
13.680432
21
18.030939
0
LINE
8
1
10
13.680432
20
18.030939
11
13.750352
21
18.114479
0
LINE
8
1
10
13.750352
20
18.114479
11
13.761249
21
18.141720
0
ARC
8
1
10
13.704785
20
18.129663
40
0.057736
50
12.053114
51
101.631396
0
LINE
8
1
10
13.693145
20
18.186214
11
13.682249
21
18.174410
0
LINE
8
1
10
13.682249
20
18.174410
11
13.607788
21
18.085423
0
LINE
8
1
10
13.607788
20
18.085423
11
13.512443
21
17.981903
0
LINE
8
1
10
13.512443
20
17.981903
11
13.348994
21
17.824810
0
LINE
8
1
10
13.348994
20
17.824810
11
13.033818
21
17.594166
0
LINE
8
1
10
13.033818
20
17.594166
11
12.880275
21
17.510214
0
LINE
8
1
10
12.880275
20
17.510214
11
12.771309
21
17.462086
0
LINE
8
1
10
12.771309
20
17.462086
11
12.701389
21
17.512938
0
LINE
8
1
10
12.701389
20
17.512938
11
12.700480
21
17.524742
0
LINE
8
1
10
12.700480
20
17.524742
11
12.704114
21
17.532007
0
LINE
8
1
10
12.704114
20
17.532007
11
12.725907
21
17.546535
0
LINE
8
1
10
12.725907
20
17.546535
11
12.853033
21
17.650961
0
LINE
8
1
10
12.853033
20
17.650961
11
12.986516
21
17.786261
0
LINE
8
1
10
12.986516
20
17.786261
11
13.013758
21
17.977364
0
LINE
8
1
10
13.013758
20
17.977364
11
13.021022
21
18.137592
0
LINE
8
1
10
13.021022
20
18.137592
11
13.024552
21
18.145617
0
LINE
8
1
10
14.713395
20
17.966690
11
14.488201
21
17.660931
0
ARC
8
1
10
14.588910
20
17.793180
40
0.166230
50
-127.289464
51
-94.254798
0
ARC
8
1
10
14.564830
20
17.818094
40
0.191047
50
-86.474688
51
-60.516358
0
LINE
8
1
10
14.658858
20
17.651789
11
14.681207
21
17.727976
0
LINE
8
1
10
14.681207
20
17.727976
11
14.710665
21
17.819399
0
LINE
8
1
10
14.710665
20
17.819399
11
14.740124
21
17.887459
0
LINE
8
1
10
14.740124
20
17.887459
11
14.761456
21
17.908791
0
ARC
8
1
10
14.774662
20
17.899139
40
0.016357
50
64.232745
51
143.840981
0
LINE
8
1
10
14.781773
20
17.913870
11
14.804120
21
17.858000
0
ARC
8
1
10
15.828746
20
18.163855
40
1.069301
50
-163.379426
51
-146.884582
0
LINE
8
1
10
14.933129
20
17.579666
11
15.003221
21
17.494337
0
LINE
8
1
10
15.003221
20
17.494337
11
15.068233
21
17.442532
0
LINE
8
1
10
15.068233
20
17.442532
11
15.152546
21
17.386662
0
LINE
8
1
10
15.152546
20
17.386662
11
15.257174
21
17.361265
0
LINE
8
1
10
15.257174
20
17.361265
11
15.337424
21
17.356186
0
LINE
8
1
10
15.337424
20
17.356186
11
15.405484
21
17.348061
0
LINE
8
1
10
15.405484
20
17.348061
11
15.459322
21
17.347044
0
LINE
8
1
10
15.459322
20
17.347044
11
15.491829
21
17.365328
0
LINE
8
1
10
15.491829
20
17.365328
11
15.540587
21
17.399866
0
LINE
8
1
10
15.540587
20
17.399866
11
15.347583
21
17.516685
0
LINE
8
1
10
15.347583
20
17.516685
11
15.009315
21
17.754387
0
LINE
8
1
10
15.009315
20
17.754387
11
14.853895
21
17.880348
0
LINE
8
1
10
14.853895
20
17.880348
11
14.775678
21
17.937233
0
LINE
8
1
10
14.775678
20
17.937233
11
14.713395
21
17.966690
0
LINE
8
1
10
9.296024
20
27.050278
11
9.293297
21
27.069374
0
LINE
8
1
10
9.293297
20
27.069374
11
9.186295
21
27.172810
0
LINE
8
1
10
9.186295
20
27.172810
11
8.993691
21
27.329744
0
LINE
8
1
10
8.993691
20
27.329744
11
8.851022
21
27.433180
0
LINE
8
1
10
8.851022
20
27.433180
11
8.597784
21
27.582983
0
LINE
8
1
10
8.597784
20
27.582983
11
8.404552
21
27.669935
0
LINE
8
1
10
8.323457
20
27.800003
11
8.346294
21
27.814684
0
LINE
8
1
10
8.346294
20
27.814684
11
8.403362
21
27.850351
0
ARC
8
1
10
8.540682
20
27.452660
40
0.420732
50
80.976868
51
109.049354
0
LINE
8
1
10
8.606667
20
27.868185
11
8.717235
21
27.825384
0
LINE
8
1
10
8.717235
20
27.825384
11
8.795703
21
27.786150
0
LINE
8
1
10
8.795703
20
27.786150
11
8.895572
21
27.761183
0
LINE
8
1
10
8.895572
20
27.761183
11
9.109575
21
27.711248
0
LINE
8
1
10
9.109575
20
27.711248
11
9.205877
21
27.711248
0
LINE
8
1
10
9.205877
20
27.711248
11
9.402048
21
27.732649
0
LINE
8
1
10
9.402048
20
27.732649
11
9.530450
21
27.707682
0
LINE
8
1
10
9.530450
20
27.707682
11
9.698087
21
27.611382
0
LINE
8
1
10
9.698087
20
27.611382
11
9.908524
21
27.454445
0
LINE
8
1
10
9.908524
20
27.454445
11
10.076160
21
27.347443
0
LINE
8
1
10
10.076160
20
27.347443
11
10.143929
21
27.322475
0
LINE
8
1
10
10.143929
20
27.322475
11
10.279789
21
27.301075
0
LINE
8
1
10
10.279789
20
27.301075
11
10.664996
21
27.297508
0
LINE
8
1
10
10.664996
20
27.297508
11
10.686396
21
27.258274
0
LINE
8
1
10
10.686396
20
27.258274
11
10.739897
21
27.190508
0
LINE
8
1
10
10.739897
20
27.190508
11
10.811232
21
27.133440
0
LINE
8
1
10
10.811232
20
27.133440
11
10.824335
21
27.123705
0
LINE
8
1
10
10.980470
20
27.048145
11
11.052021
21
26.990906
0
LINE
8
1
10
11.052021
20
26.990906
11
11.201823
21
26.912437
0
LINE
8
1
10
11.201823
20
26.912437
11
11.358760
21
26.885849
0
LINE
8
1
10
11.358760
20
26.885849
11
11.544230
21
26.871582
0
LINE
8
1
10
11.544230
20
26.871582
11
11.590597
21
26.843048
0
LINE
8
1
10
11.590597
20
26.843048
11
11.743967
21
26.732479
0
LINE
8
1
10
11.743967
20
26.732479
11
11.865236
21
26.668278
0
LINE
8
1
10
11.865236
20
26.668278
11
12.082807
21
26.664711
0
LINE
8
1
10
12.082807
20
26.664711
11
12.182675
21
26.671844
0
LINE
8
1
10
12.182675
20
26.671844
11
12.261144
21
26.700378
0
LINE
8
1
10
12.261144
20
26.700378
11
12.343178
21
26.750313
0
LINE
8
1
10
12.343178
20
26.750313
11
12.407379
21
26.693245
0
LINE
8
1
10
12.407379
20
26.693245
11
12.332478
21
26.639744
0
LINE
8
1
10
12.332478
20
26.639744
11
12.433353
21
26.528782
0
ARC
8
1
10
10.606832
20
24.548197
40
2.684061
50
33.871221
51
43.070098
0
LINE
8
1
10
12.835387
20
26.044100
11
12.885322
21
25.972765
0
LINE
8
1
10
12.885322
20
25.972765
11
12.871055
21
25.926397
0
LINE
8
1
10
12.871055
20
25.926397
11
12.817554
21
25.880030
0
LINE
8
1
10
12.817554
20
25.880030
11
12.789020
21
25.883596
0
LINE
8
1
10
12.789020
20
25.883596
11
12.614250
21
26.136833
0
LINE
8
1
10
12.614250
20
26.136833
11
12.501811
21
26.277981
0
LINE
8
1
10
12.358515
20
26.436790
11
12.225476
21
26.571976
0
LINE
8
1
10
12.225476
20
26.571976
11
12.196942
21
26.557709
0
LINE
8
1
10
12.196942
20
26.557709
11
12.193376
21
26.514908
0
LINE
8
1
10
12.193376
20
26.514908
11
12.200509
21
26.457840
0
LINE
8
1
10
12.200509
20
26.457840
11
12.204076
21
26.390072
0
LINE
8
1
10
12.204076
20
26.390072
11
12.193376
21
25.944231
0
LINE
8
1
10
12.193376
20
25.944231
11
12.674884
21
25.687426
0
LINE
8
1
10
12.674884
20
25.687426
11
13.110025
21
25.751627
0
LINE
8
1
10
13.110025
20
25.751627
11
13.188494
21
25.557404
0
LINE
8
1
10
13.188494
20
25.557404
11
13.110025
21
25.503902
0
LINE
8
1
10
13.110025
20
25.503902
11
13.188494
21
25.282764
0
LINE
8
1
10
13.188494
20
25.282764
11
13.213461
21
25.175762
0
LINE
8
1
10
13.213461
20
25.175762
11
13.229612
21
25.090599
0
LINE
8
1
10
13.246634
20
25.000847
11
13.252695
21
24.968891
0
LINE
8
1
10
13.252695
20
24.968891
11
13.270529
21
24.783421
0
LINE
8
1
10
13.270529
20
24.783421
11
13.284796
21
24.637184
0
LINE
8
1
10
13.284796
20
24.637184
11
13.270529
21
24.548016
0
LINE
8
1
10
13.270529
20
24.548016
11
13.252695
21
24.519482
0
LINE
8
1
10
13.252695
20
24.519482
11
13.206327
21
24.512348
0
LINE
8
1
10
13.206327
20
24.512348
11
13.167093
21
24.526615
0
LINE
8
1
10
13.167093
20
24.526615
11
13.159960
21
24.548016
0
LINE
8
1
10
13.159960
20
24.548016
11
13.159960
21
24.747753
0
LINE
8
1
10
13.159960
20
24.747753
11
13.127859
21
24.968891
0
LINE
8
1
10
13.127859
20
24.968891
11
13.125133
21
24.982525
0
LINE
8
1
10
13.106827
20
25.074055
11
13.077925
21
25.218563
0
LINE
8
1
10
13.077925
20
25.218563
11
13.042258
21
25.350533
0
LINE
8
1
10
13.042258
20
25.350533
11
13.010158
21
25.432568
0
LINE
8
1
10
13.010158
20
25.432568
11
12.970923
21
25.493202
0
LINE
8
1
10
12.970923
20
25.493202
11
12.888888
21
25.464668
0
LINE
8
1
10
12.888888
20
25.464668
11
12.871055
21
25.439701
0
LINE
8
1
10
12.871055
20
25.439701
11
12.838954
21
25.364799
0
LINE
8
1
10
12.838954
20
25.364799
11
12.817554
21
25.293465
0
LINE
8
1
10
12.817554
20
25.293465
11
12.642700
21
25.011513
0
LINE
8
1
10
12.573100
20
24.899282
11
12.532215
21
24.833355
0
LINE
8
1
10
12.532215
20
24.833355
11
12.903155
21
24.515915
0
LINE
8
1
10
12.903155
20
24.515915
11
12.999457
21
24.393026
0
LINE
8
1
10
12.999457
20
24.393026
11
13.152826
21
24.357359
0
LINE
8
1
10
13.152826
20
24.357359
11
13.334730
21
24.289591
0
LINE
8
1
10
13.334730
20
24.289591
11
13.434599
21
24.243223
0
LINE
8
1
10
13.434599
20
24.243223
11
13.480966
21
24.207556
0
LINE
8
1
10
13.480966
20
24.207556
11
13.473832
21
24.175455
0
LINE
8
1
10
13.473832
20
24.175455
11
13.452433
21
24.146921
0
LINE
8
1
10
13.452433
20
24.146921
11
13.406065
21
24.132654
0
LINE
8
1
10
13.406065
20
24.132654
11
13.256262
21
24.157621
0
LINE
8
1
10
13.256262
20
24.157621
11
13.106459
21
24.186155
0
LINE
8
1
10
13.106459
20
24.186155
11
12.985190
21
24.196856
0
LINE
8
1
10
12.985190
20
24.196856
11
12.863921
21
24.171888
0
LINE
8
1
10
12.863921
20
24.171888
11
12.764052
21
24.100554
0
LINE
8
1
10
12.764052
20
24.100554
11
12.671317
21
24.004253
0
LINE
8
1
10
12.671317
20
24.004253
11
12.603550
21
23.890118
0
LINE
8
1
10
12.603550
20
23.890118
11
12.577311
21
23.834549
0
LINE
8
1
10
12.533801
20
23.716145
11
12.517948
21
23.636879
0
LINE
8
1
10
12.517948
20
23.636879
11
12.510815
21
23.412174
0
LINE
8
1
10
12.510815
20
23.412174
11
12.460880
21
23.251671
0
LINE
8
1
10
12.460880
20
23.251671
11
12.482281
21
23.219570
0
LINE
8
1
10
12.482281
20
23.219570
11
12.557182
21
23.201736
0
LINE
8
1
10
12.557182
20
23.201736
11
12.603550
21
23.226704
0
LINE
8
1
10
12.603550
20
23.226704
11
12.721251
21
23.365807
0
LINE
8
1
10
12.721251
20
23.365807
11
12.873356
21
23.590656
0
LINE
8
1
10
13.046422
20
23.649748
11
13.070791
21
23.697514
0
LINE
8
1
10
13.070791
20
23.697514
11
13.142126
21
23.872284
0
LINE
8
1
10
13.142126
20
23.872284
11
13.174227
21
23.997120
0
LINE
8
1
10
13.174227
20
23.997120
11
13.156393
21
24.025652
0
LINE
8
1
10
13.156393
20
24.025652
11
13.120726
21
24.036352
0
LINE
8
1
10
13.120726
20
24.036352
11
13.081491
21
24.025652
0
LINE
8
1
10
13.081491
20
24.025652
11
13.063658
21
24.011387
0
LINE
8
1
10
13.063658
20
24.011387
11
12.924835
21
23.697647
0
LINE
8
1
10
12.328497
20
23.792019
11
12.271843
21
23.634933
0
LINE
8
1
10
12.271843
20
23.634933
11
12.218343
21
23.520798
0
LINE
8
1
10
12.218343
20
23.520798
11
12.168408
21
23.435196
0
LINE
8
1
10
12.168408
20
23.435196
11
12.089940
21
23.370995
0
LINE
8
1
10
12.089940
20
23.370995
11
11.961537
21
23.271126
0
LINE
8
1
10
11.961537
20
23.271126
11
12.546482
21
23.139156
0
LINE
8
1
10
12.546482
20
23.139156
11
12.489414
21
22.709528
0
LINE
8
1
10
12.489414
20
22.709528
11
12.553616
21
22.670294
0
LINE
8
1
10
12.553616
20
22.670294
11
12.603841
21
22.645943
0
LINE
8
1
10
12.785226
20
22.668062
11
12.999457
21
22.898563
0
LINE
8
1
10
12.999457
20
22.898563
11
12.849654
21
22.909264
0
LINE
8
1
10
12.849654
20
22.909264
11
12.892455
21
22.984165
0
LINE
8
1
10
12.892455
20
22.984165
11
12.913856
21
23.069767
0
LINE
8
1
10
12.913856
20
23.069767
11
12.913856
21
23.105434
0
LINE
8
1
10
12.913856
20
23.105434
11
12.888888
21
23.158936
0
LINE
8
1
10
12.888888
20
23.158936
11
12.881755
21
23.187469
0
LINE
8
1
10
12.881755
20
23.187469
11
12.838954
21
23.187469
0
LINE
8
1
10
12.838954
20
23.187469
11
12.789020
21
23.187469
0
LINE
8
1
10
12.789020
20
23.187469
11
12.760486
21
23.194603
0
ARC
8
1
10
20.615911
20
18.139313
40
9.341503
50
144.809855
51
147.237045
0
LINE
8
1
10
12.981624
20
23.522743
11
13.020494
21
23.598930
0
LINE
8
1
10
12.369836
20
23.916283
11
12.403812
21
24.027275
0
LINE
8
1
10
12.403812
20
24.027275
11
12.428780
21
24.280512
0
LINE
8
1
10
12.428780
20
24.280512
11
12.443047
21
24.496136
0
LINE
8
1
10
12.443047
20
24.496136
11
12.428780
21
24.785042
0
LINE
8
1
10
12.428780
20
24.785042
11
12.414875
21
24.875423
0
LINE
8
1
10
12.398991
20
24.978672
11
12.385979
21
25.063248
0
LINE
8
1
10
12.385979
20
25.063248
11
12.336044
21
25.230885
0
LINE
8
1
10
12.336044
20
25.230885
11
12.296810
21
25.387821
0
LINE
8
1
10
12.296810
20
25.387821
11
12.357445
21
25.405655
0
LINE
8
1
10
12.357445
20
25.405655
11
12.410946
21
25.419922
0
LINE
8
1
10
12.410946
20
25.419922
11
12.435913
21
25.448456
0
LINE
8
1
10
12.435913
20
25.448456
11
12.446613
21
25.491257
0
LINE
8
1
10
12.446613
20
25.491257
11
12.425213
21
25.512657
0
LINE
8
1
10
12.425213
20
25.512657
11
12.364578
21
25.523357
0
LINE
8
1
10
12.364578
20
25.523357
11
12.311077
21
25.509090
0
LINE
8
1
10
12.311077
20
25.509090
11
12.250443
21
25.487690
0
ARC
8
1
10
8.101187
20
23.578100
40
4.567588
50
24.713047
51
29.346411
0
LINE
8
1
10
11.991378
20
25.965294
11
11.947270
21
26.031454
0
LINE
8
1
10
11.947270
20
26.031454
11
11.904469
21
26.092087
0
LINE
8
1
10
11.904469
20
26.092087
11
11.936570
21
26.127754
0
LINE
8
1
10
11.936570
20
26.127754
11
11.954404
21
26.138454
0
LINE
8
1
10
11.954404
20
26.138454
11
11.961537
21
26.181255
0
LINE
8
1
10
11.961537
20
26.181255
11
11.979371
21
26.213356
0
LINE
8
1
10
11.979371
20
26.213356
11
11.968671
21
26.245457
0
LINE
8
1
10
11.968671
20
26.245457
11
11.957971
21
26.266857
0
LINE
8
1
10
11.957971
20
26.266857
11
11.918736
21
26.270424
0
LINE
8
1
10
11.918736
20
26.270424
11
11.890203
21
26.252590
0
LINE
8
1
10
11.890203
20
26.252590
11
11.832810
21
26.181255
0
LINE
8
1
10
11.832810
20
26.181255
11
11.725808
21
26.281124
0
LINE
8
1
10
11.725808
20
26.281124
11
11.572439
21
26.402393
0
LINE
8
1
10
11.572439
20
26.402393
11
11.458303
21
26.487995
0
ARC
8
1
10
10.429298
20
27.011414
40
1.154477
50
-26.960828
51
-22.286215
0
LINE
8
1
10
11.497538
20
26.573597
11
11.501104
21
26.609264
0
ARC
8
1
10
11.438162
20
26.590487
40
0.065684
50
16.611595
51
97.340666
0
LINE
8
1
10
11.429770
20
26.655632
11
11.401236
21
26.634232
0
LINE
8
1
10
11.401236
20
26.634232
11
11.383402
21
26.594997
0
LINE
8
1
10
11.383402
20
26.594997
11
11.358435
21
26.548630
0
LINE
8
1
10
11.358435
20
26.548630
11
11.137298
21
26.655632
0
LINE
8
1
10
11.137298
20
26.655632
11
11.147998
21
26.687733
0
LINE
8
1
10
11.147998
20
26.687733
11
11.144431
21
26.716267
0
LINE
8
1
10
11.144431
20
26.716267
11
11.144431
21
26.748367
0
LINE
8
1
10
11.144431
20
26.748367
11
11.140864
21
26.784035
0
LINE
8
1
10
11.140864
20
26.784035
11
11.144431
21
26.809002
0
LINE
8
1
10
11.144431
20
26.809002
11
11.112330
21
26.833969
0
LINE
8
1
10
11.112330
20
26.833969
11
11.083797
21
26.841103
0
LINE
8
1
10
11.083797
20
26.841103
11
11.055263
21
26.830402
0
LINE
8
1
10
11.055263
20
26.830402
11
11.040996
21
26.812569
0
ARC
8
1
10
11.326424
20
26.717516
40
0.300839
50
161.581301
51
-175.000642
0
LINE
8
1
10
11.026729
20
26.691299
11
10.930427
21
26.712700
0
LINE
8
1
10
10.930427
20
26.712700
11
10.909415
21
26.717953
0
LINE
8
1
10
10.747350
20
26.758469
11
10.730690
21
26.762634
0
LINE
8
1
10
10.730690
20
26.762634
11
10.559486
21
26.794735
0
LINE
8
1
10
10.559486
20
26.794735
11
10.559486
21
26.844669
0
LINE
8
1
10
10.559486
20
26.844669
11
10.534519
21
26.891037
0
LINE
8
1
10
10.534519
20
26.891037
11
10.513119
21
26.923138
0
LINE
8
1
10
10.513119
20
26.923138
11
10.484585
21
26.944538
0
LINE
8
1
10
10.484585
20
26.944538
11
10.448917
21
26.930271
0
LINE
8
1
10
10.448917
20
26.930271
11
10.434651
21
26.894604
0
LINE
8
1
10
10.434651
20
26.894604
11
10.434651
21
26.848236
0
LINE
8
1
10
10.434651
20
26.848236
11
10.431085
21
26.805435
0
LINE
8
1
10
10.431085
20
26.805435
11
10.295548
21
26.816135
0
LINE
8
1
10
10.295548
20
26.816135
11
10.156446
21
26.823269
0
LINE
8
1
10
10.156446
20
26.823269
11
10.056577
21
26.812569
0
LINE
8
1
10
10.056577
20
26.812569
11
9.956709
21
26.801868
0
LINE
8
1
10
9.956709
20
26.801868
11
9.903208
21
26.891037
0
LINE
8
1
10
9.903208
20
26.891037
11
9.839006
21
26.923138
0
LINE
8
1
10
9.839006
20
26.923138
11
9.806906
21
26.948105
0
LINE
8
1
10
9.806906
20
26.948105
11
9.778372
21
26.958805
0
LINE
8
1
10
9.778372
20
26.958805
11
9.749838
21
26.940971
0
LINE
8
1
10
9.749838
20
26.940971
11
9.746271
21
26.883904
0
LINE
8
1
10
9.746271
20
26.883904
11
9.771238
21
26.837536
0
LINE
8
1
10
9.771238
20
26.837536
11
9.810472
21
26.798302
0
LINE
8
1
10
9.810472
20
26.798302
11
9.817606
21
26.769768
0
LINE
8
1
10
9.817606
20
26.769768
11
9.817606
21
26.737667
0
LINE
8
1
10
9.817606
20
26.737667
11
9.806906
21
26.694866
0
LINE
8
1
10
9.806906
20
26.694866
11
9.721304
21
26.652065
0
LINE
8
1
10
9.721304
20
26.652065
11
9.532268
21
26.648499
0
LINE
8
1
10
9.532268
20
26.648499
11
9.375331
21
26.659199
0
LINE
8
1
10
9.375331
20
26.659199
11
9.168461
21
26.627098
0
LINE
8
1
10
9.168461
20
26.627098
11
9.000824
21
26.580730
0
LINE
8
1
10
9.000824
20
26.580730
11
8.726186
21
26.516529
0
LINE
8
1
10
8.726186
20
26.516529
11
8.604432
21
26.507706
0
LINE
8
1
10
8.560315
20
26.546309
11
8.619184
21
26.587864
0
LINE
8
1
10
8.619184
20
26.587864
11
8.722619
21
26.662766
0
LINE
8
1
10
8.722619
20
26.662766
11
8.815354
21
26.762634
0
LINE
8
1
10
8.815354
20
26.762634
11
8.872422
21
26.833969
0
LINE
8
1
10
8.872422
20
26.833969
11
8.954457
21
26.894604
0
LINE
8
1
10
8.954457
20
26.894604
11
9.011525
21
26.905304
0
LINE
8
1
10
9.011525
20
26.905304
11
9.068592
21
26.901737
0
LINE
8
1
10
9.068592
20
26.901737
11
9.154194
21
26.901737
0
LINE
8
1
10
9.154194
20
26.901737
11
9.204165
21
26.910555
0
LINE
8
1
10
8.290413
20
27.604130
11
8.267493
21
27.470901
0
LINE
8
1
10
8.267493
20
27.470901
11
8.320130
21
27.588562
0
LINE
8
1
10
8.320130
20
27.588562
11
8.290413
21
27.604130
0
LINE
8
1
10
8.380445
20
27.564445
11
8.371220
21
27.337761
0
LINE
8
1
10
8.371220
20
27.337761
11
8.450176
21
27.528185
0
LINE
8
1
10
8.450176
20
27.528185
11
8.380445
21
27.564445
0
ARC
8
1
10
11.140697
20
24.558735
40
0.068210
50
-58.781118
51
58.781118
0
ARC
8
1
10
11.073146
20
23.903864
40
0.605349
50
80.212662
51
101.978048
0
ARC
8
1
10
11.254116
20
19.725414
40
4.780461
50
93.677278
51
101.032745
0
LINE
8
1
10
10.339279
20
24.417522
11
10.316246
21
24.426628
0
LINE
8
1
10
10.316246
20
24.426628
11
10.306907
21
24.505081
0
ARC
8
1
10
11.220737
20
20.841471
40
3.775861
50
90.678094
51
104.005726
0
LINE
8
1
10
9.431087
20
24.016487
11
9.519510
21
23.958862
0
LINE
8
1
10
9.519510
20
23.958862
11
9.479069
21
23.910334
0
ARC
8
1
10
10.411486
20
23.309399
40
1.109290
50
147.198551
51
154.439932
0
LINE
8
1
10
9.410758
20
23.788010
11
9.394871
21
23.724463
0
LINE
8
1
10
9.394871
20
23.724463
11
9.388517
21
23.714930
0
LINE
8
1
10
9.388517
20
23.714930
11
9.460006
21
23.727638
0
LINE
8
1
10
9.460006
20
23.727638
11
9.542614
21
23.751469
0
LINE
8
1
10
9.542614
20
23.751469
11
9.604570
21
23.753059
0
LINE
8
1
10
9.604570
20
23.753059
11
9.660173
21
23.708576
0
LINE
8
1
10
9.660173
20
23.708576
11
9.669704
21
23.660917
0
LINE
8
1
10
9.669704
20
23.660917
11
9.741194
21
23.638676
0
LINE
8
1
10
9.741194
20
23.638676
11
9.709421
21
23.485445
0
LINE
8
1
10
9.709421
20
23.485445
11
9.533082
21
23.545815
0
LINE
8
1
10
9.533082
20
23.545815
11
9.429821
21
23.593473
0
LINE
8
1
10
9.429821
20
23.593473
11
9.347212
21
23.607769
0
LINE
8
1
10
9.347212
20
23.607769
11
9.269370
21
23.610949
0
LINE
8
1
10
9.269370
20
23.610949
11
9.199326
21
23.612535
0
LINE
8
1
10
9.199326
20
23.612535
11
9.173906
21
23.568056
0
LINE
8
1
10
9.173906
20
23.568056
11
9.156432
21
23.518806
0
ARC
8
1
10
9.852189
20
23.348877
40
0.716208
50
166.274949
51
-176.434821
0
LINE
8
1
10
9.137367
20
23.304340
11
9.135779
21
23.259859
0
LINE
8
1
10
9.135779
20
23.259859
11
9.083354
21
23.234440
0
LINE
8
1
10
9.083354
20
23.234440
11
9.065879
21
23.218555
0
LINE
8
1
10
9.065879
20
23.218555
11
9.061113
21
23.164541
0
LINE
8
1
10
9.061113
20
23.164541
11
9.032518
21
23.075577
0
LINE
8
1
10
9.032518
20
23.075577
11
9.007100
21
23.035862
0
LINE
8
1
10
9.007100
20
23.035862
11
8.994391
21
23.035862
0
LINE
8
1
10
8.994391
20
23.035862
11
8.978505
21
23.048571
0
LINE
8
1
10
8.978505
20
23.048571
11
8.948320
21
23.091463
0
LINE
8
1
10
8.948320
20
23.091463
11
8.895896
21
23.175661
0
LINE
8
1
10
8.895896
20
23.175661
11
8.859357
21
23.264626
0
LINE
8
1
10
8.859357
20
23.264626
11
8.845058
21
23.342468
0
LINE
8
1
10
8.845058
20
23.342468
11
8.835527
21
23.413956
0
LINE
8
1
10
8.835527
20
23.413956
11
8.838705
21
23.510862
0
LINE
8
1
10
8.838705
20
23.510862
11
8.841882
21
23.590296
0
LINE
8
1
10
8.841882
20
23.590296
11
8.862535
21
23.680847
0
LINE
8
1
10
8.862535
20
23.680847
11
8.886364
21
23.769812
0
LINE
8
1
10
8.886364
20
23.769812
11
8.916548
21
23.841299
0
LINE
8
1
10
8.916548
20
23.841299
11
8.972150
21
23.930264
0
LINE
8
1
10
8.972150
20
23.930264
11
9.040461
21
24.008106
0
LINE
8
1
10
9.040461
20
24.008106
11
9.051581
21
24.006517
0
LINE
8
1
10
9.051581
20
24.006517
11
9.059525
21
23.996986
0
LINE
8
1
10
9.059525
20
23.996986
11
9.072234
21
23.985865
0
LINE
8
1
10
9.072234
20
23.985865
11
9.088120
21
23.966801
0
ARC
8
1
10
7.775755
20
20.303236
40
3.891530
50
69.144348
51
70.291418
0
LINE
8
1
10
9.161198
20
23.939795
11
9.175495
21
23.917555
0
LINE
8
1
10
9.175495
20
23.917555
11
9.177084
21
23.888958
0
LINE
8
1
10
9.177084
20
23.888958
11
9.196147
21
23.812704
0
ARC
8
1
10
9.274294
20
23.807566
40
0.078316
50
176.238040
51
-122.092057
0
LINE
8
1
10
9.232686
20
23.741217
11
9.264459
21
23.739626
0
LINE
8
1
10
9.264459
20
23.739626
11
9.281934
21
23.749159
0
LINE
8
1
10
9.281934
20
23.749159
11
9.296231
21
23.772987
0
ARC
8
1
10
10.280812
20
23.386795
40
1.057613
50
143.459547
51
158.582884
0
LINE
8
1
10
9.833130
20
24.156261
11
9.755997
21
24.250858
0
LINE
8
1
10
9.755997
20
24.250858
11
9.773140
21
24.264847
0
LINE
8
1
10
9.773140
20
24.264847
11
9.858205
21
24.322172
0
LINE
8
1
10
9.858205
20
24.322172
11
9.948817
21
24.375801
0
LINE
8
1
10
9.948817
20
24.375801
11
9.939571
21
24.386894
0
LINE
8
1
10
9.939571
20
24.386894
11
9.915531
21
24.401691
0
LINE
8
1
10
9.915531
20
24.401691
11
9.847109
21
24.444223
0
LINE
8
1
10
9.847109
20
24.444223
11
9.813824
21
24.488604
0
LINE
8
1
10
9.813824
20
24.488604
11
9.799029
21
24.520042
0
LINE
8
1
10
9.799029
20
24.520042
11
9.782387
21
24.553328
0
LINE
8
1
10
9.782387
20
24.553328
11
9.924991
21
24.587280
0
LINE
8
1
10
9.924991
20
24.587280
11
9.997066
21
24.471962
0
LINE
8
1
10
9.997066
20
24.471962
11
10.096925
21
24.362856
0
LINE
8
1
10
10.096925
20
24.362856
11
10.148704
21
24.281490
0
LINE
8
1
10
10.148704
20
24.281490
11
10.220824
21
24.205671
0
LINE
8
1
10
10.220824
20
24.205671
11
10.324382
21
24.152044
0
LINE
8
1
10
10.324382
20
24.152044
11
10.422391
21
24.140947
0
LINE
8
1
10
10.422391
20
24.140947
11
10.535194
21
24.122454
0
LINE
8
1
10
10.535194
20
24.122454
11
10.670189
21
24.115057
0
LINE
8
1
10
10.670189
20
24.115057
11
10.825524
21
24.109510
0
LINE
8
1
10
10.825524
20
24.109510
11
10.953122
21
24.133551
0
LINE
8
1
10
10.953122
20
24.133551
11
11.084418
21
24.174232
0
LINE
8
1
10
11.084418
20
24.174232
11
11.167634
21
24.231560
0
LINE
8
1
10
11.167634
20
24.231560
11
11.217563
21
24.303680
0
LINE
8
1
10
11.217563
20
24.303680
11
11.250849
21
24.375801
0
LINE
8
1
10
11.250849
20
24.375801
11
11.295231
21
24.483055
0
LINE
8
1
10
11.295231
20
24.483055
11
11.332215
21
24.549627
0
LINE
8
1
10
11.332215
20
24.549627
11
11.361803
21
24.612503
0
LINE
8
1
10
11.361803
20
24.612503
11
11.369200
21
24.717911
0
LINE
8
1
10
11.369200
20
24.717911
11
11.487720
21
24.704964
0
LINE
8
1
10
11.487720
20
24.704964
11
11.485870
21
24.658735
0
LINE
8
1
10
11.485870
20
24.658735
11
11.474775
21
24.649488
0
LINE
8
1
10
11.474775
20
24.649488
11
11.467379
21
24.623600
0
LINE
8
1
10
11.467379
20
24.623600
11
11.463679
21
24.601406
0
LINE
8
1
10
11.463679
20
24.601406
11
11.472926
21
24.588463
0
LINE
8
1
10
11.472926
20
24.588463
11
11.511760
21
24.569971
0
LINE
8
1
10
11.511760
20
24.569971
11
11.637507
21
24.555178
0
LINE
8
1
10
11.637507
20
24.555178
11
11.794693
21
24.532984
0
LINE
8
1
10
11.794693
20
24.532984
11
11.887185
21
24.509117
0
LINE
8
1
10
11.887185
20
24.509117
11
11.862015
21
24.402843
0
LINE
8
1
10
11.862015
20
24.402843
11
11.772502
21
24.434977
0
ARC
8
1
10
10.760123
20
17.171049
40
7.334136
50
82.065753
51
84.698357
0
LINE
8
1
10
11.437791
20
24.473810
11
11.422997
21
24.460867
0
LINE
8
1
10
11.422997
20
24.460867
11
11.417449
21
24.440523
0
LINE
8
1
10
11.417449
20
24.440523
11
11.424846
21
24.418335
0
LINE
8
1
10
11.424846
20
24.418335
11
11.508061
21
24.355459
0
LINE
8
1
10
11.508061
20
24.355459
11
11.563539
21
24.288887
0
LINE
8
1
10
11.563539
20
24.288887
11
11.598674
21
24.253752
0
LINE
8
1
10
11.598674
20
24.253752
11
11.646754
21
24.168686
0
LINE
8
1
10
11.646754
20
24.168686
11
11.672644
21
24.087318
0
LINE
8
1
10
11.672644
20
24.087318
11
11.678191
21
24.002254
0
LINE
8
1
10
11.678191
20
24.002254
11
11.678191
21
23.909792
0
LINE
8
1
10
11.678191
20
23.909792
11
11.665246
21
23.891300
0
LINE
8
1
10
11.665246
20
23.891300
11
11.659698
21
23.883904
0
LINE
8
1
10
11.659698
20
23.883904
11
11.535800
21
23.920889
0
LINE
8
1
10
11.535800
20
23.920889
11
11.376765
21
23.952324
0
LINE
8
1
10
11.376765
20
23.952324
11
11.147460
21
23.981915
0
LINE
8
1
10
11.147460
20
23.981915
11
10.953290
21
23.983763
0
LINE
8
1
10
10.953290
20
23.983763
11
10.735081
21
23.978214
0
ARC
8
1
10
10.946994
20
21.609718
40
2.377957
50
95.112728
51
104.349081
0
LINE
8
1
10
10.357667
20
23.913492
11
10.259658
21
23.883904
0
LINE
8
1
10
10.259658
20
23.883904
11
10.130211
21
23.824728
0
LINE
8
1
10
10.130211
20
23.824728
11
10.095076
21
23.907942
0
LINE
8
1
10
10.095076
20
23.907942
11
10.067337
21
23.928286
0
LINE
8
1
10
10.067337
20
23.928286
11
10.021106
21
23.943079
0
LINE
8
1
10
10.021106
20
23.943079
11
10.008162
21
23.970818
0
LINE
8
1
10
10.008162
20
23.970818
11
10.000765
21
24.015200
0
LINE
8
1
10
10.000765
20
24.015200
11
10.002614
21
24.063278
0
LINE
8
1
10
10.002614
20
24.063278
11
10.022955
21
24.259298
0
LINE
8
1
10
10.022955
20
24.259298
11
10.021106
21
24.275940
0
LINE
8
1
10
10.021106
20
24.275940
11
9.900906
21
24.203823
0
LINE
8
1
10
9.900906
20
24.203823
11
9.833130
21
24.156261
0
ARC
8
1
10
10.089193
20
23.461330
40
0.156392
50
-169.470334
51
-131.850192
0
LINE
8
1
10
9.984851
20
23.344835
11
10.013940
21
23.312111
0
LINE
8
1
10
10.013940
20
23.312111
11
10.077438
21
23.265930
0
LINE
8
1
10
10.077438
20
23.265930
11
10.166913
21
23.208202
0
LINE
8
1
10
10.166913
20
23.208202
11
10.314114
21
23.159138
0
LINE
8
1
10
10.314114
20
23.159138
11
10.490177
21
23.115841
0
LINE
8
1
10
10.490177
20
23.115841
11
10.735512
21
23.075434
0
LINE
8
1
10
10.735512
20
23.075434
11
11.055889
21
23.075434
0
LINE
8
1
10
11.055889
20
23.075434
11
11.327200
21
23.107183
0
LINE
8
1
10
11.327200
20
23.107183
11
11.497491
21
23.153364
0
LINE
8
1
10
11.497491
20
23.153364
11
11.621601
21
23.190886
0
LINE
8
1
10
11.621601
20
23.190886
11
11.742826
21
23.254383
0
LINE
8
1
10
11.742826
20
23.254383
11
11.918889
21
23.372723
0
LINE
8
1
10
11.918889
20
23.372723
11
12.074748
21
23.519922
0
LINE
8
1
10
12.074748
20
23.519922
11
12.126701
21
23.592079
0
LINE
8
1
10
12.126701
20
23.592079
11
11.991046
21
23.658463
0
LINE
8
1
10
11.991046
20
23.658463
11
11.852504
21
23.716190
0
LINE
8
1
10
11.852504
20
23.716190
11
11.673554
21
23.768143
0
LINE
8
1
10
11.673554
20
23.768143
11
11.477287
21
23.808552
0
LINE
8
1
10
11.477287
20
23.808552
11
11.231953
21
23.837414
0
LINE
8
1
10
11.231953
20
23.837414
11
10.943324
21
23.854733
0
LINE
8
1
10
10.943324
20
23.854733
11
10.718194
21
23.843185
0
LINE
8
1
10
10.718194
20
23.843185
11
10.469974
21
23.805664
0
LINE
8
1
10
10.469974
20
23.805664
11
10.291023
21
23.765255
0
LINE
8
1
10
10.291023
20
23.765255
11
10.181345
21
23.713303
0
LINE
8
1
10
10.181345
20
23.713303
11
10.080325
21
23.652691
0
LINE
8
1
10
10.080325
20
23.652691
11
9.976418
21
23.563217
0
LINE
8
1
10
9.976418
20
23.563217
11
9.944670
21
23.517036
0
LINE
8
1
10
9.944670
20
23.517036
11
9.933125
21
23.485287
0
LINE
8
1
10
9.933125
20
23.485287
11
9.930238
21
23.444878
0
LINE
8
1
10
9.930238
20
23.444878
11
9.935435
21
23.432751
0
LINE
8
1
10
9.513268
20
23.079357
11
9.597632
21
23.131008
0
LINE
8
1
10
9.597632
20
23.131008
11
9.600103
21
23.125973
0
ARC
8
1
10
10.305426
20
23.634562
40
0.869564
50
-144.205643
51
-124.435554
0
LINE
8
1
10
9.813705
20
22.917377
11
9.902150
21
22.858971
0
LINE
8
1
10
9.902150
20
22.858971
11
9.960558
21
22.818920
0
LINE
8
1
10
9.960558
20
22.818920
11
10.040658
21
22.787212
0
LINE
8
1
10
10.040658
20
22.787212
11
10.052340
21
22.822258
0
LINE
8
1
10
10.052340
20
22.822258
11
10.052340
21
22.889008
0
LINE
8
1
10
10.052340
20
22.889008
11
10.055677
21
22.969109
0
LINE
8
1
10
10.055677
20
22.969109
11
10.067359
21
23.017502
0
LINE
8
1
10
10.067359
20
23.017502
11
10.079832
21
23.079868
0
LINE
8
1
10
10.079832
20
23.079868
11
10.224224
21
23.019173
0
LINE
8
1
10
10.224224
20
23.019173
11
10.322680
21
22.992472
0
LINE
8
1
10
10.322680
20
22.992472
11
10.494564
21
22.954090
0
ARC
8
1
10
11.967761
20
20.312181
40
3.024895
50
119.145171
51
126.444911
0
LINE
8
1
10
10.170823
20
22.745493
11
10.170823
21
22.733810
0
LINE
8
1
10
10.170823
20
22.733810
11
10.184173
21
22.717125
0
LINE
8
1
10
10.184173
20
22.717125
11
10.240911
21
22.702105
0
LINE
8
1
10
10.240911
20
22.702105
11
10.404450
21
22.662056
0
LINE
8
1
10
10.404450
20
22.662056
11
10.693149
21
22.623672
0
LINE
8
1
10
10.693149
20
22.623672
11
10.734880
21
22.625734
0
LINE
8
1
10
10.734880
20
22.625734
11
10.738114
21
22.533560
0
ARC
8
1
10
10.690599
20
24.176544
40
1.643671
50
-102.517201
51
-88.343472
0
LINE
8
1
10
10.334362
20
22.571941
11
10.110747
21
22.632015
0
LINE
8
1
10
10.110747
20
22.632015
11
10.107409
21
22.606985
0
LINE
8
1
10
10.107409
20
22.606985
11
10.144122
21
22.493509
0
LINE
8
1
10
10.144122
20
22.493509
11
10.209205
21
22.273232
0
LINE
8
1
10
10.209205
20
22.273232
11
9.898813
21
22.355001
0
ARC
8
1
10
12.068536
20
27.803947
40
5.865041
50
-115.574482
51
-111.712011
0
LINE
8
1
10
9.536691
20
22.513535
11
9.408195
21
22.590298
0
LINE
8
1
10
9.408195
20
22.590298
11
9.349788
21
22.630348
0
LINE
8
1
10
9.349788
20
22.630348
11
9.343113
21
22.688755
0
LINE
8
1
10
9.343113
20
22.688755
11
9.354795
21
22.727137
0
LINE
8
1
10
9.354795
20
22.727137
11
9.371482
21
22.753838
0
LINE
8
1
10
9.371482
20
22.753838
11
9.426551
21
22.770523
0
LINE
8
1
10
9.426551
20
22.770523
11
9.471608
21
22.767187
0
LINE
8
1
10
9.471608
20
22.767187
11
9.700230
21
22.633686
0
LINE
8
1
10
9.700230
20
22.633686
11
10.028977
21
22.647038
0
LINE
8
1
10
10.028977
20
22.647038
11
10.030646
21
22.657047
0
LINE
8
1
10
10.030646
20
22.657047
11
10.022302
21
22.670399
0
LINE
8
1
10
10.022302
20
22.670399
11
9.948876
21
22.702105
0
LINE
8
1
10
9.948876
20
22.702105
11
9.822050
21
22.775532
0
LINE
8
1
10
9.822050
20
22.775532
11
9.710242
21
22.857300
0
LINE
8
1
10
9.710242
20
22.857300
11
9.636816
21
22.935734
0
ARC
8
1
10
10.091048
20
23.451424
40
0.687214
50
-147.220120
51
-131.374384
0
ARC
8
1
10
9.744371
20
20.941578
40
0.058591
50
-173.344968
51
-132.569222
0
LINE
8
1
10
9.704736
20
20.898428
11
9.767206
21
20.909786
0
LINE
8
1
10
9.767206
20
20.909786
11
9.923382
21
20.935343
0
LINE
8
1
10
9.923382
20
20.935343
11
10.261292
21
20.966578
0
LINE
8
1
10
10.261292
20
20.966578
11
10.499816
21
20.986454
0
LINE
8
1
10
10.499816
20
20.986454
11
10.823527
21
20.980774
0
LINE
8
1
10
10.823527
20
20.980774
11
11.104644
21
20.972256
0
LINE
8
1
10
11.104644
20
20.972256
11
11.425515
21
20.938183
0
LINE
8
1
10
11.425515
20
20.938183
11
11.581692
21
20.915464
0
LINE
8
1
10
11.581692
20
20.915464
11
11.723671
21
20.875710
0
LINE
8
1
10
11.723671
20
20.875710
11
11.882687
21
20.844475
0
LINE
8
1
10
11.882687
20
20.844475
11
12.038863
21
20.801882
0
LINE
8
1
10
12.038863
20
20.801882
11
12.234794
21
20.895588
0
ARC
8
1
10
11.146995
20
22.424313
40
1.876248
50
-54.565374
51
-40.413553
0
LINE
8
1
10
12.575541
20
21.207941
11
12.478996
21
21.281769
0
LINE
8
1
10
12.478996
20
21.281769
11
12.382451
21
21.341400
0
LINE
8
1
10
12.382451
20
21.341400
11
12.169483
21
21.452145
0
LINE
8
1
10
12.169483
20
21.452145
11
11.797500
21
21.551529
0
LINE
8
1
10
11.797500
20
21.551529
11
11.422676
21
21.616840
0
LINE
8
1
10
11.422676
20
21.616840
11
11.042173
21
21.645233
0
LINE
8
1
10
11.042173
20
21.645233
11
10.695746
21
21.639557
0
LINE
8
1
10
10.695746
20
21.639557
11
10.414628
21
21.619678
0
LINE
8
1
10
10.414628
20
21.619678
11
10.147709
21
21.579924
0
LINE
8
1
10
10.147709
20
21.579924
11
9.957458
21
21.517454
0
LINE
8
1
10
9.957458
20
21.517454
11
9.846714
21
21.472021
0
LINE
8
1
10
9.846714
20
21.472021
11
9.744490
21
21.398193
0
LINE
8
1
10
9.744490
20
21.398193
11
9.701897
21
21.355598
0
LINE
8
1
10
9.701897
20
21.355598
11
9.662143
21
21.284609
0
LINE
8
1
10
9.662143
20
21.284609
11
9.628067
21
21.219299
0
LINE
8
1
10
9.628067
20
21.219299
11
9.622389
21
21.142632
0
LINE
8
1
10
9.622389
20
21.142632
11
9.633747
21
21.074482
0
LINE
8
1
10
9.633747
20
21.074482
11
9.664982
21
20.966578
0
LINE
8
1
10
9.664982
20
20.966578
11
9.686175
21
20.934788
0
LINE
8
1
10
9.419231
20
20.861988
11
9.419620
21
20.861565
0
LINE
8
1
10
10.187034
20
20.590427
11
10.385793
21
20.564400
0
LINE
8
1
10
10.385793
20
20.564400
11
10.556022
21
20.559391
0
LINE
8
1
10
10.556022
20
20.559391
11
10.713734
21
20.564400
0
LINE
8
1
10
10.713734
20
20.564400
11
10.488431
21
20.772179
0
LINE
8
1
10
10.488431
20
20.772179
11
10.248108
21
20.662029
0
LINE
8
1
10
10.248108
20
20.662029
11
10.187034
21
20.590427
0
LINE
8
1
10
10.051539
20
21.804222
11
9.878213
21
22.011538
0
LINE
8
1
10
9.878213
20
22.011538
11
9.884715
21
22.027185
0
LINE
8
1
10
9.884715
20
22.027185
11
9.893250
21
22.088802
0
LINE
8
1
10
9.893250
20
22.088802
11
9.898942
21
22.150421
0
LINE
8
1
10
9.898942
20
22.150421
11
10.140793
21
22.084240
0
LINE
8
1
10
10.140793
20
22.084240
11
10.317201
21
22.040878
0
LINE
8
1
10
10.317201
20
22.040878
11
10.493609
21
22.011211
0
LINE
8
1
10
10.493609
20
22.011211
11
10.672863
21
21.983826
0
LINE
8
1
10
10.672863
20
21.983826
11
10.835045
21
21.967848
0
LINE
8
1
10
10.835045
20
21.967848
11
11.122679
21
21.963284
0
LINE
8
1
10
11.122679
20
21.963284
11
11.435661
21
21.986107
0
ARC
8
1
10
11.014414
20
25.438217
40
3.477717
50
-83.042814
51
-74.528512
0
LINE
8
1
10
11.942125
20
22.086521
11
12.164057
21
22.159552
0
LINE
8
1
10
12.164057
20
22.159552
11
12.451432
21
22.088802
0
LINE
8
1
10
12.451432
20
22.088802
11
12.647758
21
22.018055
0
LINE
8
1
10
12.647758
20
22.018055
11
12.750190
21
21.965567
0
LINE
8
1
10
12.750190
20
21.965567
11
12.687592
21
21.922205
0
LINE
8
1
10
12.687592
20
21.922205
11
12.601974
21
21.963284
0
LINE
8
1
10
12.601974
20
21.963284
11
12.380041
21
22.040878
0
LINE
8
1
10
12.380041
20
22.040878
11
12.186561
21
22.084240
0
LINE
8
1
10
12.186561
20
22.084240
11
12.123964
21
22.095650
0
LINE
8
1
10
12.123964
20
22.095650
11
12.112583
21
22.088802
0
LINE
8
1
10
12.112583
20
22.088802
11
12.126809
21
21.737350
0
LINE
8
1
10
12.126809
20
21.737350
11
11.862196
21
21.796688
0
ARC
8
1
10
10.850009
20
16.092518
40
5.793279
50
79.937781
51
87.699189
0
LINE
8
1
10
11.082585
20
21.881126
11
10.689935
21
21.885691
0
LINE
8
1
10
10.689935
20
21.885691
11
10.376951
21
21.858305
0
LINE
8
1
10
10.376951
20
21.858305
11
10.160709
21
21.830917
0
LINE
8
1
10
10.160709
20
21.830917
11
10.051539
21
21.804222
0
LINE
8
1
10
9.143269
20
21.574589
11
9.181782
21
21.398870
0
LINE
8
1
10
9.181782
20
21.398870
11
9.175919
21
21.391430
0
LINE
8
1
10
9.175919
20
21.391430
11
9.143263
21
21.269714
0
LINE
8
1
10
9.143263
20
21.269714
11
9.131389
21
21.156902
0
LINE
8
1
10
9.131389
20
21.156902
11
9.154868
21
21.065332
0
LINE
8
1
10
9.154868
20
21.065332
11
9.154868
21
21.032219
0
LINE
8
1
10
9.154868
20
21.032219
11
9.131119
21
21.014406
0
LINE
8
1
10
9.131119
20
21.014406
11
9.080650
21
21.005501
0
LINE
8
1
10
9.080650
20
21.005501
11
9.062839
21
21.052998
0
LINE
8
1
10
9.062839
20
21.052998
11
9.018309
21
21.118309
0
LINE
8
1
10
9.018309
20
21.118309
11
8.994558
21
21.142059
0
LINE
8
1
10
8.994558
20
21.142059
11
8.863937
21
21.183620
0
LINE
8
1
10
8.863937
20
21.183620
11
8.706597
21
21.240026
0
LINE
8
1
10
8.706597
20
21.240026
11
8.596756
21
21.269714
0
ARC
8
1
10
9.736821
20
21.450817
40
1.154360
50
-170.973809
51
-155.215803
0
LINE
8
1
10
8.688786
20
20.966908
11
8.754096
21
20.860035
0
LINE
8
1
10
8.754096
20
20.860035
11
8.810501
21
20.785818
0
LINE
8
1
10
8.810501
20
20.785818
11
8.881749
21
20.684883
0
LINE
8
1
10
8.881749
20
20.684883
11
8.988622
21
20.575041
0
LINE
8
1
10
8.988622
20
20.575041
11
9.080650
21
20.491919
0
LINE
8
1
10
9.080650
20
20.491919
11
9.012371
21
20.420670
0
LINE
8
1
10
9.012371
20
20.420670
11
8.905499
21
20.506762
0
LINE
8
1
10
8.905499
20
20.506762
11
8.804564
21
20.622540
0
LINE
8
1
10
8.804564
20
20.622540
11
8.688786
21
20.759100
0
LINE
8
1
10
8.688786
20
20.759100
11
8.611599
21
20.877848
0
LINE
8
1
10
8.611599
20
20.877848
11
8.543320
21
21.052998
0
LINE
8
1
10
8.543320
20
21.052998
11
8.492852
21
21.145027
0
LINE
8
1
10
8.492852
20
21.145027
11
8.466133
21
21.272682
0
LINE
8
1
10
8.466133
20
21.272682
11
8.356293
21
21.210339
0
LINE
8
1
10
8.356293
20
21.210339
11
8.222702
21
21.109404
0
LINE
8
1
10
8.222702
20
21.109404
11
8.118798
21
21.014406
0
LINE
8
1
10
8.118798
20
21.014406
11
8.095049
21
21.180653
0
LINE
8
1
10
8.095049
20
21.180653
11
8.100986
21
21.394398
0
LINE
8
1
10
8.100986
20
21.394398
11
8.133642
21
21.614079
0
LINE
8
1
10
8.133642
20
21.614079
11
8.193015
21
21.777357
0
LINE
8
1
10
8.193015
20
21.777357
11
8.267232
21
21.902042
0
LINE
8
1
10
8.267232
20
21.902042
11
8.374105
21
22.065319
0
LINE
8
1
10
8.374105
20
22.065319
11
8.460196
21
22.127661
0
LINE
8
1
10
8.460196
20
22.127661
11
8.454259
21
22.032663
0
LINE
8
1
10
8.454259
20
22.032663
11
8.463165
21
21.916885
0
LINE
8
1
10
8.463165
20
21.916885
11
8.478008
21
21.824856
0
LINE
8
1
10
8.478008
20
21.824856
11
8.469103
21
21.697203
0
LINE
8
1
10
8.469103
20
21.697203
11
8.463165
21
21.563612
0
LINE
8
1
10
8.463165
20
21.563612
11
8.489883
21
21.539864
0
LINE
8
1
10
8.489883
20
21.539864
11
8.507696
21
21.542831
0
LINE
8
1
10
8.507696
20
21.542831
11
8.605661
21
21.801105
0
LINE
8
1
10
8.605661
20
21.801105
11
8.712535
21
21.925793
0
LINE
8
1
10
8.712535
20
21.925793
11
8.825344
21
22.029696
0
LINE
8
1
10
8.825344
20
22.029696
11
9.018309
21
22.157349
0
LINE
8
1
10
9.018309
20
22.157349
11
9.140024
21
22.228596
0
LINE
8
1
10
9.140024
20
22.228596
11
9.184554
21
22.225628
0
LINE
8
1
10
9.184554
20
22.225628
11
9.208303
21
22.213753
0
LINE
8
1
10
9.208303
20
22.213753
11
9.223147
21
22.181099
0
LINE
8
1
10
9.223147
20
22.181099
11
9.202367
21
22.136566
0
LINE
8
1
10
9.202367
20
22.136566
11
9.140024
21
22.083132
0
LINE
8
1
10
9.140024
20
22.083132
11
9.003465
21
22.008915
0
LINE
8
1
10
9.003465
20
22.008915
11
8.863937
21
21.893135
0
LINE
8
1
10
8.863937
20
21.893135
11
8.715503
21
21.747669
0
LINE
8
1
10
8.715503
20
21.747669
11
8.626443
21
21.605175
0
LINE
8
1
10
8.626443
20
21.605175
11
8.638317
21
21.590330
0
LINE
8
1
10
8.638317
20
21.590330
11
8.863937
21
21.575485
0
LINE
8
1
10
8.863937
20
21.575485
11
9.083620
21
21.554707
0
LINE
8
1
10
9.083620
20
21.554707
11
9.143269
21
21.574589
0
LINE
8
1
10
11.436634
20
19.827206
11
11.395397
21
19.833803
0
LINE
8
1
10
11.395397
20
19.833803
11
11.387870
21
19.843483
0
LINE
8
1
10
11.387870
20
19.843483
11
11.385719
21
19.857462
0
LINE
8
1
10
11.385719
20
19.857462
11
11.384644
21
19.877895
0
LINE
8
1
10
11.384644
20
19.877895
11
11.390020
21
19.888649
0
LINE
8
1
10
11.390020
20
19.888649
11
11.425508
21
19.928436
0
LINE
8
1
10
11.425508
20
19.928436
11
11.638436
21
20.096687
0
LINE
8
1
10
11.638436
20
20.096687
11
11.801895
21
20.241865
0
LINE
8
1
10
11.801895
20
20.241865
11
11.671773
21
20.307465
0
LINE
8
1
10
11.671773
20
20.307465
11
11.513691
21
20.383816
0
LINE
8
1
10
11.513691
20
20.383816
11
11.426584
21
20.363384
0
ARC
8
1
10
10.180700
20
29.291315
40
9.014443
50
-84.582223
51
-82.055732
0
LINE
8
1
10
11.031818
20
20.317142
11
10.780176
21
20.311766
0
LINE
8
1
10
10.780176
20
20.311766
11
10.542516
21
20.320368
0
LINE
8
1
10
10.542516
20
20.320368
11
10.639300
21
20.196697
0
LINE
8
1
10
10.639300
20
20.196697
11
10.793180
21
20.027374
0
LINE
8
1
10
10.793180
20
20.027374
11
10.964166
21
19.891386
0
LINE
8
1
10
10.964166
20
19.891386
11
11.029765
21
19.835464
0
LINE
8
1
10
11.029765
20
19.835464
11
11.055574
21
19.801052
0
ARC
8
1
10
9.274198
20
19.249025
40
1.864950
50
14.162988
51
17.217565
0
LINE
8
1
10
11.082459
20
19.705343
11
11.085686
21
19.670931
0
LINE
8
1
10
11.085686
20
19.670931
11
11.077083
21
19.659101
0
ARC
8
1
10
10.528364
20
20.735306
40
1.208018
50
-80.145698
51
-62.984574
0
LINE
8
1
10
10.735108
20
19.545111
11
10.725430
21
19.538658
0
ARC
8
1
10
11.354727
20
19.541090
40
0.629301
50
-179.778581
51
-171.126952
0
LINE
8
1
10
10.732957
20
19.444023
11
10.751239
21
19.423592
0
LINE
8
1
10
10.751239
20
19.423592
11
10.862004
21
19.418213
0
LINE
8
1
10
10.862004
20
19.418213
11
10.979221
21
19.413912
0
LINE
8
1
10
10.979221
20
19.413912
11
11.095365
21
19.418213
0
LINE
8
1
10
11.095365
20
19.418213
11
11.198602
21
19.420364
0
LINE
8
1
10
11.198602
20
19.420364
11
11.421305
21
19.444023
0
LINE
8
1
10
11.421305
20
19.444023
11
11.719189
21
19.488113
0
LINE
8
1
10
11.719189
20
19.488113
11
11.715962
21
19.545599
0
LINE
8
1
10
11.715962
20
19.545599
11
11.698755
21
19.582161
0
LINE
8
1
10
11.698755
20
19.582161
11
11.663268
21
19.606895
0
LINE
8
1
10
11.663268
20
19.606895
11
11.615951
21
19.616575
0
LINE
8
1
10
11.615951
20
19.616575
11
11.562181
21
19.617649
0
LINE
8
1
10
11.562181
20
19.617649
11
11.525619
21
19.617649
0
LINE
8
1
10
11.525619
20
19.617649
11
11.448190
21
19.673571
0
LINE
8
1
10
11.448190
20
19.673571
11
11.433135
21
19.689701
0
LINE
8
1
10
11.433135
20
19.689701
11
11.432059
21
19.702606
0
LINE
8
1
10
11.432059
20
19.702606
11
11.435285
21
19.710133
0
ARC
8
1
10
11.178220
20
22.246208
40
2.549071
50
-84.212081
51
-73.630472
0
LINE
8
1
10
11.896627
20
19.800467
11
12.094500
21
19.867140
0
ARC
8
1
10
11.517581
20
21.425539
40
1.661759
50
-69.685471
51
-59.405531
0
ARC
8
1
10
12.337842
20
20.032352
40
0.045138
50
-55.594098
51
50.465368
0
LINE
8
1
10
12.366573
20
20.067163
11
12.356894
21
20.081142
0
LINE
8
1
10
12.356894
20
20.081142
11
12.346141
21
20.090822
0
LINE
8
1
10
12.346141
20
20.090822
11
12.331085
21
20.091896
0
LINE
8
1
10
12.331085
20
20.091896
11
12.228923
21
20.043505
0
LINE
8
1
10
12.228923
20
20.043505
11
12.055785
21
19.968227
0
LINE
8
1
10
12.055785
20
19.968227
11
11.827803
21
19.898327
0
LINE
8
1
10
11.827803
20
19.898327
11
11.609498
21
19.846708
0
LINE
8
1
10
11.609498
20
19.846708
11
11.436634
21
19.827206
0
LINE
8
1
10
11.054144
20
22.181957
11
11.119334
21
22.170284
0
ARC
8
1
10
10.948484
20
28.129238
40
5.961403
50
-88.357714
51
-85.001176
0
LINE
8
1
10
11.467933
20
22.190510
11
11.635689
21
22.217873
0
LINE
8
1
10
11.635689
20
22.217873
11
11.759424
21
22.241669
0
LINE
8
1
10
11.759424
20
22.241669
11
11.867692
21
22.282120
0
LINE
8
1
10
11.867692
20
22.282120
11
11.855794
21
22.328522
0
LINE
8
1
10
11.855794
20
22.328522
11
11.853415
21
22.361835
0
LINE
8
1
10
11.853415
20
22.361835
11
11.843897
21
22.383251
0
ARC
8
1
10
10.782203
20
20.785095
40
1.918671
50
56.402937
51
62.950918
0
LINE
8
1
10
11.654725
20
22.493896
11
11.604723
21
22.523066
0
LINE
8
1
10
11.604723
20
22.523066
11
11.631713
21
22.583363
0
LINE
8
1
10
11.631713
20
22.583363
11
11.654725
21
22.587238
0
LINE
8
1
10
11.654725
20
22.587238
11
11.834379
21
22.639589
0
LINE
8
1
10
11.834379
20
22.639589
11
11.993806
21
22.706215
0
LINE
8
1
10
11.993806
20
22.706215
11
12.157993
21
22.793068
0
LINE
8
1
10
12.157993
20
22.793068
11
12.253174
21
22.857315
0
LINE
8
1
10
12.253174
20
22.857315
11
12.287677
21
22.890629
0
ARC
8
1
10
12.153223
20
22.856752
40
0.138656
50
14.141666
51
48.639761
0
LINE
8
1
10
12.244845
20
22.960823
11
12.224620
21
22.966772
0
LINE
8
1
10
12.224620
20
22.966772
11
12.117541
21
22.897766
0
LINE
8
1
10
12.117541
20
22.897766
11
11.959303
21
22.814484
0
LINE
8
1
10
11.959303
20
22.814484
11
11.691499
21
22.709785
0
LINE
8
1
10
11.691499
20
22.709785
11
11.584421
21
22.681231
0
LINE
8
1
10
11.584421
20
22.681231
11
11.551108
21
22.682419
0
LINE
8
1
10
11.551108
20
22.682419
11
11.530882
21
22.687180
0
LINE
8
1
10
11.530882
20
22.687180
11
11.547538
21
22.728821
0
LINE
8
1
10
11.547538
20
22.728821
11
11.576093
21
22.796637
0
LINE
8
1
10
11.576093
20
22.796637
11
11.587990
21
22.870403
0
LINE
8
1
10
11.587990
20
22.870403
11
11.599888
21
22.927509
0
LINE
8
1
10
11.599888
20
22.927509
11
11.604647
21
22.998896
0
LINE
8
1
10
11.604647
20
22.998896
11
11.610596
21
23.059574
0
LINE
8
1
10
11.610596
20
23.059574
11
11.464255
21
23.009605
0
LINE
8
1
10
11.464255
20
23.009605
11
11.244149
21
22.970341
0
LINE
8
1
10
11.244149
20
22.970341
11
11.045460
21
22.951305
0
LINE
8
1
10
11.045460
20
22.951305
11
10.933623
21
22.952496
0
LINE
8
1
10
10.933623
20
22.952496
11
10.955039
21
22.907284
0
LINE
8
1
10
10.955039
20
22.907284
11
10.984782
21
22.870403
0
ARC
8
1
10
15.970431
20
32.022503
40
10.421978
50
-118.579543
51
-115.233710
0
LINE
8
1
10
11.527421
20
22.595028
11
11.369183
21
22.458204
0
LINE
8
1
10
11.369183
20
22.458204
11
11.054144
21
22.181957
0
LINE
8
1
10
12.601209
20
19.715826
11
12.772859
21
19.774551
0
ARC
8
1
10
11.642323
20
22.221907
40
2.695859
50
-65.205820
51
-53.394657
0
LINE
8
1
10
13.249864
20
20.057774
11
13.408866
21
20.181995
0
LINE
8
1
10
13.408866
20
20.181995
11
13.523149
21
20.321121
0
ARC
8
1
10
13.841592
20
22.239010
40
1.944146
50
-104.972777
51
-99.427296
0
LINE
8
1
10
13.339302
20
20.360870
11
13.314459
21
20.355904
0
LINE
8
1
10
13.314459
20
20.355904
11
13.284646
21
20.340996
0
LINE
8
1
10
13.284646
20
20.340996
11
13.244895
21
20.306215
0
LINE
8
1
10
13.244895
20
20.306215
11
13.170362
21
20.286339
0
LINE
8
1
10
13.170362
20
20.286339
11
13.105769
21
20.281370
0
LINE
8
1
10
13.105769
20
20.281370
11
13.075956
21
20.291307
0
LINE
8
1
10
13.075956
20
20.291307
11
13.175331
21
20.410561
0
ARC
8
1
10
11.288781
20
22.291931
40
2.664325
50
-44.921240
51
-33.973151
0
LINE
8
1
10
13.498304
20
20.803095
11
13.533087
21
20.887566
0
LINE
8
1
10
13.533087
20
20.887566
11
13.538055
21
20.912411
0
LINE
8
1
10
13.538055
20
20.912411
11
13.518180
21
20.947189
0
LINE
8
1
10
13.518180
20
20.947189
11
13.478429
21
20.942223
0
LINE
8
1
10
13.478429
20
20.942223
11
13.438679
21
20.922346
0
LINE
8
1
10
13.438679
20
20.922346
11
13.413835
21
20.872658
0
LINE
8
1
10
13.413835
20
20.872658
11
13.369115
21
20.822971
0
LINE
8
1
10
13.369115
20
20.822971
11
13.314459
21
20.743469
0
LINE
8
1
10
13.314459
20
20.743469
11
13.220051
21
20.614281
0
LINE
8
1
10
13.220051
20
20.614281
11
13.100800
21
20.485092
0
LINE
8
1
10
13.100800
20
20.485092
11
12.951735
21
20.350933
0
LINE
8
1
10
12.951735
20
20.350933
11
12.921923
21
20.355904
0
LINE
8
1
10
12.921923
20
20.355904
11
12.902048
21
20.355904
0
LINE
8
1
10
12.902048
20
20.355904
11
12.897079
21
20.365841
0
LINE
8
1
10
12.897079
20
20.365841
11
12.897079
21
20.400621
0
LINE
8
1
10
12.897079
20
20.400621
11
12.931860
21
20.649063
0
LINE
8
1
10
12.931860
20
20.649063
11
12.931860
21
20.857752
0
LINE
8
1
10
12.931860
20
20.857752
11
12.926891
21
21.046566
0
LINE
8
1
10
12.926891
20
21.046566
11
12.852360
21
20.962097
0
LINE
8
1
10
12.852360
20
20.962097
11
12.678452
21
20.803095
0
LINE
8
1
10
12.678452
20
20.803095
11
12.544293
21
20.718626
0
LINE
8
1
10
12.544293
20
20.718626
11
12.434979
21
20.654032
0
LINE
8
1
10
12.434979
20
20.654032
11
12.295854
21
20.609312
0
LINE
8
1
10
12.295854
20
20.609312
11
12.221321
21
20.385715
0
LINE
8
1
10
12.221321
20
20.385715
11
12.395229
21
20.331059
0
ARC
8
1
10
11.968682
20
10.803500
40
9.537102
50
85.133069
51
87.436588
0
LINE
8
1
10
12.777827
20
20.306215
11
12.837453
21
20.281370
0
LINE
8
1
10
12.837453
20
20.281370
11
12.862297
21
20.286339
0
LINE
8
1
10
12.862297
20
20.286339
11
12.887141
21
20.231682
0
LINE
8
1
10
12.887141
20
20.231682
11
12.867266
21
20.191933
0
LINE
8
1
10
12.867266
20
20.191933
11
12.812609
21
20.092556
0
LINE
8
1
10
12.812609
20
20.092556
11
12.733108
21
19.993179
0
LINE
8
1
10
12.733108
20
19.993179
11
12.668513
21
19.903742
0
LINE
8
1
10
12.668513
20
19.903742
11
12.613856
21
19.804365
0
LINE
8
1
10
12.613856
20
19.804365
11
12.601209
21
19.715826
0
LINE
8
1
10
13.189885
20
19.753824
11
13.191826
21
19.733446
0
LINE
8
1
10
13.191826
20
19.733446
11
13.213161
21
19.690777
0
ARC
8
1
10
13.568273
20
19.947838
40
0.438389
50
-144.099707
51
-124.829130
0
LINE
8
1
10
13.317895
20
19.587982
11
13.364443
21
19.568586
0
LINE
8
1
10
13.364443
20
19.568586
11
13.422629
21
19.570526
0
LINE
8
1
10
13.422629
20
19.570526
11
13.542880
21
19.601559
0
LINE
8
1
10
13.542880
20
19.601559
11
13.618521
21
19.626774
0
LINE
8
1
10
13.618521
20
19.626774
11
13.674767
21
19.653927
0
ARC
8
1
10
11.764437
20
19.590343
40
1.911389
50
1.906327
51
8.389339
0
ARC
8
1
10
12.438235
20
19.676208
40
1.232345
50
9.010515
51
19.062024
0
LINE
8
1
10
13.603005
20
20.078682
11
13.459479
21
19.956491
0
LINE
8
1
10
13.459479
20
19.956491
11
13.327592
21
19.857576
0
LINE
8
1
10
13.327592
20
19.857576
11
13.189885
21
19.753824
0
LINE
8
1
10
13.814375
20
20.276876
11
13.926748
21
20.411297
0
LINE
8
1
10
13.926748
20
20.411297
11
13.985328
21
20.427818
0
ARC
8
1
10
14.178371
20
17.358978
40
3.074906
50
86.878354
51
93.599415
0
LINE
8
1
10
14.345819
20
20.429321
11
14.357835
21
20.441338
0
LINE
8
1
10
14.357835
20
20.441338
11
14.356333
21
20.462364
0
LINE
8
1
10
14.356333
20
20.462364
11
14.309770
21
20.633598
0
LINE
8
1
10
14.309770
20
20.633598
11
14.266211
21
20.755264
0
LINE
8
1
10
14.266211
20
20.755264
11
14.240676
21
20.834873
0
LINE
8
1
10
14.240676
20
20.834873
11
14.272219
21
20.902464
0
LINE
8
1
10
14.272219
20
20.902464
11
14.302259
21
20.952032
0
LINE
8
1
10
14.302259
20
20.952032
11
14.317280
21
20.932507
0
LINE
8
1
10
14.317280
20
20.932507
11
14.395386
21
20.717712
0
ARC
8
1
10
16.564192
20
21.258738
40
2.235269
50
-165.993005
51
-158.011583
0
LINE
8
1
10
14.491517
20
20.421810
11
14.506537
21
20.414299
0
LINE
8
1
10
14.506537
20
20.414299
11
14.520056
21
20.418806
0
LINE
8
1
10
14.520056
20
20.418806
11
14.527567
21
20.447346
0
LINE
8
1
10
14.527567
20
20.447346
11
14.544089
21
20.575018
0
LINE
8
1
10
14.544089
20
20.575018
11
14.560611
21
20.797321
0
LINE
8
1
10
14.560611
20
20.797321
11
14.578635
21
20.917484
0
LINE
8
1
10
14.578635
20
20.917484
11
14.598163
21
20.956537
0
LINE
8
1
10
14.598163
20
20.956537
11
14.620693
21
20.959541
0
LINE
8
1
10
14.620693
20
20.959541
11
14.659746
21
20.927999
0
LINE
8
1
10
14.659746
20
20.927999
11
14.673265
21
20.920488
0
LINE
8
1
10
14.673265
20
20.920488
11
14.858016
21
20.572834
0
LINE
8
1
10
14.858016
20
20.572834
11
14.937625
21
20.337013
0
LINE
8
1
10
14.937625
20
20.337013
11
14.976678
21
20.186810
0
LINE
8
1
10
14.976678
20
20.186810
11
14.994702
21
20.075657
0
LINE
8
1
10
14.994702
20
20.075657
11
15.006719
21
20.051624
0
LINE
8
1
10
15.006719
20
20.051624
11
15.002213
21
20.044113
0
LINE
8
1
10
15.002213
20
20.044113
11
14.925609
21
20.093681
0
LINE
8
1
10
14.925609
20
20.093681
11
14.885054
21
20.107201
0
LINE
8
1
10
14.885054
20
20.107201
11
14.852008
21
20.099689
0
LINE
8
1
10
14.852008
20
20.099689
11
14.806947
21
20.102694
0
LINE
8
1
10
14.806947
20
20.102694
11
14.788922
21
20.107201
0
LINE
8
1
10
14.788922
20
20.107201
11
14.754375
21
20.162775
0
LINE
8
1
10
14.754375
20
20.162775
11
14.736214
21
20.227364
0
LINE
8
1
10
14.736214
20
20.227364
11
14.464344
21
20.386581
0
LINE
8
1
10
14.464344
20
20.386581
11
14.459838
21
20.385078
0
LINE
8
1
10
14.459838
20
20.385078
11
14.323152
21
20.216850
0
LINE
8
1
10
14.323152
20
20.216850
11
14.100849
21
19.944979
0
LINE
8
1
10
14.100849
20
19.944979
11
13.895068
21
19.725681
0
LINE
8
1
10
13.895068
20
19.725681
11
13.893566
21
19.847347
0
ARC
8
1
10
12.150040
20
19.747963
40
1.746357
50
3.262437
51
17.629873
0
LINE
8
1
10
13.722156
20
20.659391
11
13.837577
21
21.153366
0
LINE
8
1
10
13.837577
20
21.153366
11
13.855258
21
21.228165
0
LINE
8
1
10
13.855258
20
21.228165
11
13.851178
21
21.243124
0
LINE
8
1
10
13.851178
20
21.243124
11
13.838938
21
21.248566
0
LINE
8
1
10
13.838938
20
21.248566
11
13.493499
21
21.252644
0
LINE
8
1
10
13.493499
20
21.252644
11
13.173902
21
21.258083
0
LINE
8
1
10
13.173902
20
21.258083
11
13.138541
21
21.262165
0
LINE
8
1
10
13.138541
20
21.262165
11
13.138541
21
21.271685
0
LINE
8
1
10
13.138541
20
21.271685
11
13.209384
21
21.362062
0
LINE
8
1
10
13.209384
20
21.362062
11
13.371223
21
21.676220
0
LINE
8
1
10
13.371223
20
21.676220
11
13.379383
21
21.691181
0
LINE
8
1
10
13.379383
20
21.691181
11
13.384823
21
21.695261
0
LINE
8
1
10
13.384823
20
21.695261
11
13.616022
21
21.663980
0
LINE
8
1
10
13.616022
20
21.663980
11
13.809141
21
21.476301
0
LINE
8
1
10
13.809141
20
21.476301
11
13.830901
21
21.503502
0
LINE
8
1
10
13.830901
20
21.503502
11
13.841782
21
21.522541
0
LINE
8
1
10
13.841782
20
21.522541
11
13.860821
21
21.617741
0
LINE
8
1
10
13.860821
20
21.617741
11
13.889381
21
21.779579
0
ARC
8
1
10
12.007893
20
22.030802
40
1.898187
50
-7.605338
51
4.984795
0
LINE
8
1
10
13.898900
20
22.195738
11
13.905701
21
22.240616
0
LINE
8
1
10
13.905701
20
22.240616
11
13.920660
21
22.250137
0
ARC
8
1
10
13.954860
20
22.145575
40
0.110014
50
74.326204
51
108.111550
0
LINE
8
1
10
13.984581
20
22.251497
11
13.998180
21
22.173977
0
LINE
8
1
10
13.998180
20
22.173977
11
14.002260
21
22.032539
0
LINE
8
1
10
14.002260
20
22.032539
11
13.998180
21
21.900620
0
LINE
8
1
10
13.998180
20
21.900620
11
13.969621
21
21.683762
0
LINE
8
1
10
13.969621
20
21.683762
11
13.942420
21
21.528721
0
LINE
8
1
10
13.942420
20
21.528721
11
13.900260
21
21.411762
0
LINE
8
1
10
13.900260
20
21.411762
11
13.901621
21
21.383204
0
ARC
8
1
10
14.017446
20
21.430754
40
0.125205
50
-157.680084
51
-107.162149
0
LINE
8
1
10
13.980500
20
21.311123
11
14.015860
21
21.349203
0
LINE
8
1
10
14.015860
20
21.349203
11
14.067540
21
21.447124
0
LINE
8
1
10
14.067540
20
21.447124
11
14.112420
21
21.528721
0
ARC
8
1
10
20.871679
20
19.404535
40
7.085178
50
159.729624
51
162.553988
0
LINE
8
1
10
14.225299
20
21.859200
11
14.236178
21
21.876881
0
LINE
8
1
10
14.236178
20
21.876881
11
14.278338
21
21.851040
0
LINE
8
1
10
14.278338
20
21.851040
11
14.305538
21
21.834721
0
LINE
8
1
10
14.305538
20
21.834721
11
14.310979
21
21.825201
0
LINE
8
1
10
14.310979
20
21.825201
11
14.290579
21
21.694641
0
LINE
8
1
10
14.290579
20
21.694641
11
14.202178
21
21.386665
0
LINE
8
1
10
14.202178
20
21.386665
11
14.074339
21
21.129627
0
LINE
8
1
10
14.074339
20
21.129627
11
13.912499
21
20.882107
0
LINE
8
1
10
13.912499
20
20.882107
11
13.722156
21
20.659391
0
ARC
8
1
10
12.295332
20
23.394121
40
0.048716
50
-6.404353
51
77.615233
0
LINE
8
1
10
12.305780
20
23.441704
11
12.297333
21
23.440376
0
ARC
8
1
10
12.327836
20
23.388687
40
0.060018
50
120.546090
51
-120.545165
0
LINE
8
1
10
12.297333
20
23.336996
11
12.305780
21
23.335667
0
ARC
8
1
10
12.298186
20
23.381207
40
0.046169
50
-80.532617
51
9.324759
0
LINE
8
1
10
13.058387
20
22.693615
11
12.868858
21
22.499100
0
LINE
8
1
10
12.868858
20
22.499100
11
13.015992
21
22.425531
0
LINE
8
1
10
13.015992
20
22.425531
11
13.185957
21
22.329134
0
LINE
8
1
10
13.185957
20
22.329134
11
13.170736
21
22.443289
0
LINE
8
1
10
13.170736
20
22.443289
11
13.142832
21
22.527004
0
LINE
8
1
10
13.142832
20
22.527004
11
13.109854
21
22.598034
0
LINE
8
1
10
13.109854
20
22.598034
11
13.058387
21
22.693615
0
LINE
8
1
10
13.245956
20
22.885353
11
13.287366
21
22.914581
0
LINE
8
1
10
13.287366
20
22.914581
11
13.321603
21
22.946373
0
LINE
8
1
10
13.321603
20
22.946373
11
13.339944
21
22.954933
0
LINE
8
1
10
13.339944
20
22.954933
11
13.453662
21
22.940262
0
LINE
8
1
10
13.453662
20
22.940262
11
13.599172
21
22.908470
0
LINE
8
1
10
13.599172
20
22.908470
11
13.761800
21
22.882790
0
LINE
8
1
10
13.761800
20
22.882790
11
13.825383
21
22.879122
0
LINE
8
1
10
13.825383
20
22.879122
11
13.852284
21
22.875454
0
LINE
8
1
10
13.852284
20
22.875454
11
13.868180
21
22.887682
0
LINE
8
1
10
13.868180
20
22.887682
11
13.868180
21
22.963493
0
LINE
8
1
10
13.868180
20
22.963493
11
13.884077
21
23.107780
0
LINE
8
1
10
13.884077
20
23.107780
11
13.891413
21
23.197042
0
LINE
8
1
10
13.891413
20
23.197042
11
13.907309
21
23.238617
0
LINE
8
1
10
13.907309
20
23.238617
11
13.917091
21
23.254513
0
ARC
8
1
10
14.120297
20
23.021709
40
0.309015
50
115.346198
51
131.116590
0
LINE
8
1
10
13.988012
20
23.300978
11
14.002685
21
23.298531
0
LINE
8
1
10
14.002685
20
23.298531
11
14.132298
21
23.083324
0
LINE
8
1
10
14.132298
20
23.083324
11
14.172649
21
22.997730
0
LINE
8
1
10
14.172649
20
22.997730
11
14.213000
21
22.892574
0
LINE
8
1
10
14.213000
20
22.892574
11
14.253352
21
22.748953
0
LINE
8
1
10
14.253352
20
22.748953
11
14.268025
21
22.715939
0
LINE
8
1
10
14.268025
20
22.715939
11
14.268025
21
22.698818
0
LINE
8
1
10
14.268025
20
22.698818
11
14.182431
21
22.589993
0
LINE
8
1
10
14.182431
20
22.589993
11
14.151862
21
22.553310
0
LINE
8
1
10
14.151862
20
22.553310
11
14.135966
21
22.547195
0
LINE
8
1
10
14.135966
20
22.547195
11
13.912200
21
22.778299
0
LINE
8
1
10
13.912200
20
22.778299
11
13.899972
21
22.781967
0
LINE
8
1
10
13.899972
20
22.781967
11
13.892635
21
22.781967
0
LINE
8
1
10
13.892635
20
22.781967
11
13.533031
21
22.443260
0
LINE
8
1
10
13.533031
20
22.443260
11
13.403418
21
22.536190
0
LINE
8
1
10
13.403418
20
22.536190
11
13.376516
21
22.605888
0
LINE
8
1
10
13.376516
20
22.605888
11
13.356952
21
22.663359
0
LINE
8
1
10
13.356952
20
22.663359
11
13.245956
21
22.885353
0
LINE
8
1
10
12.485750
20
25.336992
11
12.492714
21
25.330029
0
LINE
8
1
10
12.492714
20
25.330029
11
12.516307
21
25.330029
0
LINE
8
1
10
12.516307
20
25.330029
11
12.667302
21
25.341825
0
LINE
8
1
10
12.667302
20
25.341825
11
12.690895
21
25.348904
0
LINE
8
1
10
12.690895
20
25.348904
11
12.735722
21
25.490461
0
LINE
8
1
10
12.735722
20
25.490461
11
12.731004
21
25.509335
0
LINE
8
1
10
12.731004
20
25.509335
11
12.705051
21
25.514053
0
LINE
8
1
10
12.705051
20
25.514053
11
12.565852
21
25.516415
0
LINE
8
1
10
12.565852
20
25.516415
11
12.546978
21
25.509335
0
LINE
8
1
10
12.546978
20
25.509335
11
12.485750
21
25.336992
0
LINE
8
1
10
3.009798
20
14.119442
11
2.769878
21
14.119442
0
LINE
8
1
10
2.769878
20
14.119442
11
2.769878
21
15.568517
0
LINE
8
1
10
2.769878
20
15.568517
11
3.095787
21
15.568517
0
ARC
8
1
10
3.127763
20
14.816955
40
0.752242
50
62.574181
51
92.436218
0
ARC
8
1
10
3.185788
20
15.016464
40
0.549915
50
16.620971
51
58.362108
0
ARC
8
1
10
2.704757
20
14.857327
40
1.056472
50
-22.277749
51
17.428745
0
ARC
8
1
10
3.162452
20
14.679552
40
0.565618
50
-63.503338
51
-23.189986
0
ARC
8
1
10
3.159208
20
14.776690
40
0.655248
50
-87.463011
51
-67.041193
0
LINE
8
1
10
3.188212
20
14.122084
11
3.188212
21
14.317526
0
ARC
8
1
10
3.150918
20
14.632442
40
0.317116
50
-83.246282
51
-22.242856
0
ARC
8
1
10
2.751806
20
14.816298
40
0.756366
50
-23.689754
51
2.057175
0
ARC
8
1
10
2.728313
20
14.873302
40
0.779944
50
-2.193500
51
24.115347
0
ARC
8
1
10
3.149438
20
15.048306
40
0.324304
50
26.294203
51
81.433175
0
LINE
8
1
10
3.197747
20
15.368993
11
3.155046
21
15.374524
0
LINE
8
1
10
3.155046
20
15.374524
11
3.109588
21
15.376369
0
LINE
8
1
10
3.109588
20
15.376369
11
3.009798
21
15.376369
0
LINE
8
1
10
3.009798
20
15.376369
11
3.009798
21
14.350653
0
LINE
8
1
10
3.009798
20
14.350653
11
3.009798
21
14.119442
0
LINE
8
1
10
4.416948
20
14.102326
11
4.416948
21
14.305517
0
ARC
8
1
10
4.478794
20
14.508652
40
0.212341
50
-162.882945
51
-106.933247
0
LINE
8
1
10
4.275859
20
14.446155
11
4.265723
21
14.474406
0
LINE
8
1
10
4.265723
20
14.474406
11
4.256557
21
14.504341
0
LINE
8
1
10
4.256557
20
14.504341
11
4.248353
21
14.535960
0
ARC
8
1
10
5.825096
20
14.849561
40
1.607626
50
168.649145
51
-168.751151
0
LINE
8
1
10
4.248914
20
15.165968
11
4.257266
21
15.197464
0
ARC
8
1
10
4.552989
20
15.134777
40
0.302295
50
129.938573
51
168.031705
0
ARC
8
1
10
4.485111
20
15.170883
40
0.232831
50
50.444999
51
122.816824
0
LINE
8
1
10
4.633382
20
15.350399
11
4.651657
21
15.331147
0
LINE
8
1
10
4.651657
20
15.331147
11
4.668138
21
15.308933
0
LINE
8
1
10
4.668138
20
15.308933
11
4.682824
21
15.283757
0
ARC
8
1
10
3.860188
20
14.934927
40
0.893540
50
0.308267
51
22.978851
0
ARC
8
1
10
3.306068
20
14.843669
40
1.450830
50
-13.771405
51
3.796570
0
ARC
8
1
10
4.420105
20
14.564429
40
0.302405
50
-50.257632
51
-12.631269
0
LINE
8
1
10
4.613444
20
14.331902
11
4.595146
21
14.320691
0
LINE
8
1
10
4.595146
20
14.320691
11
4.595146
21
14.107583
0
ARC
8
1
10
4.520655
20
14.532759
40
0.431652
50
-80.062539
51
-25.640206
0
ARC
8
1
10
4.027446
20
14.766234
40
0.977328
50
-25.468113
51
-1.121496
0
ARC
8
1
10
3.585656
20
14.854577
40
1.422995
50
-4.331380
51
16.219127
0
ARC
8
1
10
4.470368
20
15.112374
40
0.501488
50
16.170390
51
61.414613
0
ARC
8
1
10
4.487279
20
15.051395
40
0.548712
50
66.016711
51
114.051311
0
ARC
8
1
10
4.487777
20
15.127283
40
0.480641
50
117.795045
51
160.710405
0
ARC
8
1
10
5.163129
20
14.885953
40
1.197811
50
160.486343
51
-178.258951
0
ARC
8
1
10
5.162822
20
14.812333
40
1.197529
50
178.218552
51
-160.402926
0
LINE
8
1
10
4.034660
20
14.410678
11
4.049105
21
14.377069
0
ARC
8
1
10
4.463703
20
14.548312
40
0.448571
50
-157.557635
51
-97.137584
0
LINE
8
1
10
4.407967
20
14.103217
11
4.416948
21
14.102326
0
LINE
8
1
10
5.269048
20
15.566844
11
5.551434
21
15.566844
0
LINE
8
1
10
5.551434
20
15.566844
11
6.028088
21
14.522236
0
LINE
8
1
10
6.028088
20
14.522236
11
6.028088
21
15.566844
0
LINE
8
1
10
6.028088
20
15.566844
11
6.228729
21
15.566844
0
LINE
8
1
10
6.228729
20
15.566844
11
6.228729
21
14.117769
0
LINE
8
1
10
6.228729
20
14.117769
11
6.004733
21
14.117769
0
LINE
8
1
10
6.004733
20
14.117769
11
5.469689
21
15.278090
0
LINE
8
1
10
5.469689
20
15.278090
11
5.469689
21
14.117769
0
LINE
8
1
10
5.469689
20
14.117769
11
5.269048
21
14.117769
0
LINE
8
1
10
5.269048
20
14.117769
11
5.269048
21
15.566844
0
LINE
8
1
10
6.498041
20
15.559119
11
6.720974
21
15.559119
0
LINE
8
1
10
6.720974
20
15.559119
11
6.687003
21
14.964627
0
LINE
8
1
10
6.687003
20
14.964627
11
6.533072
21
14.964627
0
LINE
8
1
10
6.533072
20
14.964627
11
6.498041
21
15.559119
0
LINE
8
1
10
7.019326
20
15.583673
11
7.903631
21
15.583673
0
LINE
8
1
10
7.903631
20
15.583673
11
7.903631
21
15.379847
0
LINE
8
1
10
7.903631
20
15.379847
11
7.579845
21
15.379847
0
LINE
8
1
10
7.579845
20
15.379847
11
7.579845
21
14.134598
0
LINE
8
1
10
7.579845
20
14.134598
11
7.339926
21
14.134598
0
LINE
8
1
10
7.339926
20
14.134598
11
7.339926
21
15.379847
0
LINE
8
1
10
7.339926
20
15.379847
11
7.019326
21
15.379847
0
LINE
8
1
10
7.019326
20
15.379847
11
7.019326
21
15.583673
0
LINE
8
1
10
8.595261
20
15.572870
11
9.479568
21
15.572870
0
LINE
8
1
10
9.479568
20
15.572870
11
9.479568
21
15.369044
0
LINE
8
1
10
9.479568
20
15.369044
11
9.155782
21
15.369044
0
LINE
8
1
10
9.155782
20
15.369044
11
9.155782
21
14.123796
0
LINE
8
1
10
9.155782
20
14.123796
11
8.915863
21
14.123796
0
LINE
8
1
10
8.915863
20
14.123796
11
8.915863
21
15.369044
0
LINE
8
1
10
8.915863
20
15.369044
11
8.595261
21
15.369044
0
LINE
8
1
10
8.595261
20
15.369044
11
8.595261
21
15.572870
0
LINE
8
1
10
9.964255
20
14.709091
11
9.964294
21
14.119442
0
LINE
8
1
10
9.964294
20
14.119442
11
9.724373
21
14.119442
0
LINE
8
1
10
9.724373
20
14.119442
11
9.724373
21
15.568517
0
LINE
8
1
10
9.724373
20
15.568517
11
10.160687
21
15.568517
0
ARC
8
1
10
10.187640
20
15.002076
40
0.567081
50
60.727013
51
92.724228
0
ARC
8
1
10
10.264584
20
15.204510
40
0.354312
50
4.118107
51
55.566907
0
ARC
8
1
10
10.137307
20
15.154710
40
0.486526
50
-30.117824
51
8.896811
0
ARC
8
1
10
10.231430
20
15.129448
40
0.393254
50
-64.519586
51
-33.817817
0
LINE
8
1
10
10.400609
20
14.774445
11
10.675561
21
14.119442
0
LINE
8
1
10
10.675561
20
14.119442
11
10.415471
21
14.119442
0
LINE
8
1
10
10.415471
20
14.119442
11
10.189351
21
14.724550
0
LINE
8
1
10
10.189351
20
14.724550
11
10.129946
21
14.724550
0
LINE
8
1
10
10.129946
20
14.724550
11
10.129946
21
14.910330
0
ARC
8
1
10
10.156968
20
15.164738
40
0.255839
50
-96.063032
51
-52.287122
0
ARC
8
1
10
10.136080
20
15.140206
40
0.251197
50
-45.076290
51
3.503673
0
LINE
8
1
10
10.386807
20
15.155558
11
10.385163
21
15.191842
0
LINE
8
1
10
10.385163
20
15.191842
11
10.380233
21
15.224974
0
ARC
8
1
10
10.200263
20
15.195392
40
0.182385
50
9.334362
51
83.026223
0
LINE
8
1
10
10.222407
20
15.376428
11
10.187884
21
15.381160
0
LINE
8
1
10
10.187884
20
15.381160
11
10.150071
21
15.382738
0
LINE
8
1
10
10.150071
20
15.382738
11
9.964294
21
15.382738
0
ARC
8
1
10
-1769.531616
20
15.149202
40
1779.495926
50
-0.014171
51
0.007519
0
LINE
8
1
10
10.966477
20
15.565120
11
11.796643
21
15.565120
0
LINE
8
1
10
11.796643
20
15.565120
11
11.796643
21
15.372972
0
LINE
8
1
10
11.796643
20
15.372972
11
11.206397
21
15.372972
0
LINE
8
1
10
11.206397
20
15.372972
11
11.206397
21
14.958951
0
LINE
8
1
10
11.206397
20
14.958951
11
11.669253
21
14.958951
0
LINE
8
1
10
11.669253
20
14.958951
11
11.669253
21
14.765741
0
LINE
8
1
10
11.669253
20
14.765741
11
11.206397
21
14.765741
0
LINE
8
1
10
11.206397
20
14.765741
11
11.206397
21
14.312440
0
LINE
8
1
10
11.206397
20
14.312440
11
11.806197
21
14.312440
0
LINE
8
1
10
11.806197
20
14.312440
11
11.806197
21
14.116046
0
LINE
8
1
10
11.806197
20
14.116046
11
10.966477
21
14.116046
0
LINE
8
1
10
10.966477
20
14.116046
11
10.966477
21
15.565120
0
LINE
8
1
10
12.836895
20
14.478893
11
12.927282
21
14.119442
0
LINE
8
1
10
12.927282
20
14.119442
11
13.170388
21
14.119442
0
LINE
8
1
10
13.170388
20
14.119442
11
12.781843
21
15.568517
0
LINE
8
1
10
12.781843
20
15.568517
11
12.513261
21
15.568517
0
LINE
8
1
10
12.513261
20
15.568517
11
12.093931
21
14.119442
0
LINE
8
1
10
12.093931
20
14.119442
11
12.323236
21
14.119442
0
LINE
8
1
10
12.323236
20
14.119442
11
12.412409
21
14.482507
0
LINE
8
1
10
12.412409
20
14.482507
11
12.677837
21
14.482507
0
LINE
8
1
10
12.677837
20
14.482507
11
12.677434
21
14.486542
0
LINE
8
1
10
12.677434
20
14.486542
11
12.643118
21
14.671472
0
LINE
8
1
10
12.643118
20
14.671472
11
12.460182
21
14.671472
0
LINE
8
1
10
12.460182
20
14.671472
11
12.623667
21
15.334966
0
ARC
8
1
10
146.018188
20
48.064743
40
137.351144
50
-166.214198
51
-165.847277
0
LINE
8
1
10
12.836001
20
14.481387
11
12.836713
21
14.479215
0
LINE
8
1
10
12.836713
20
14.479215
11
12.836895
21
14.478893
0
LINE
8
1
10
16.615753
20
15.566979
11
16.898136
21
15.566979
0
LINE
8
1
10
16.898136
20
15.566979
11
17.374790
21
14.522372
0
LINE
8
1
10
17.374790
20
14.522372
11
17.374790
21
15.566979
0
LINE
8
1
10
17.374790
20
15.566979
11
17.575432
21
15.566979
0
LINE
8
1
10
17.575432
20
15.566979
11
17.575432
21
14.117906
0
LINE
8
1
10
17.575432
20
14.117906
11
17.351437
21
14.117906
0
LINE
8
1
10
17.351437
20
14.117906
11
16.816391
21
15.278227
0
LINE
8
1
10
16.816391
20
15.278227
11
16.816391
21
14.117906
0
LINE
8
1
10
16.816391
20
14.117906
11
16.615753
21
14.117906
0
LINE
8
1
10
16.615753
20
14.117906
11
16.615753
21
15.566979
0
LINE
8
1
10
18.295696
20
15.567760
11
18.651333
21
15.567760
0
LINE
8
1
10
18.651333
20
15.567760
11
18.940086
21
14.523152
0
LINE
8
1
10
18.940086
20
14.523152
11
19.236267
21
15.567760
0
LINE
8
1
10
19.236267
20
15.567760
11
19.577042
21
15.567760
0
LINE
8
1
10
19.577042
20
15.567760
11
19.577042
21
14.118686
0
LINE
8
1
10
19.577042
20
14.118686
11
19.351982
21
14.118686
0
LINE
8
1
10
19.351982
20
14.118686
11
19.351982
21
15.355441
0
LINE
8
1
10
19.351982
20
15.355441
11
19.008030
21
14.118686
0
LINE
8
1
10
19.008030
20
14.118686
11
18.833927
21
14.118686
0
LINE
8
1
10
18.833927
20
14.118686
11
18.496338
21
15.356503
0
LINE
8
1
10
18.496338
20
15.356503
11
18.496338
21
14.118686
0
LINE
8
1
10
18.496338
20
14.118686
11
18.295696
21
14.118686
0
LINE
8
1
10
18.295696
20
14.118686
11
18.295696
21
15.567760
0
LINE
8
1
10
19.923168
20
15.578488
11
20.753334
21
15.578488
0
LINE
8
1
10
20.753334
20
15.578488
11
20.753334
21
15.386340
0
LINE
8
1
10
20.753334
20
15.386340
11
20.163090
21
15.386340
0
LINE
8
1
10
20.163090
20
15.386340
11
20.163090
21
14.972319
0
LINE
8
1
10
20.163090
20
14.972319
11
20.625938
21
14.972319
0
LINE
8
1
10
20.625938
20
14.972319
11
20.625938
21
14.779109
0
LINE
8
1
10
20.625938
20
14.779109
11
20.163090
21
14.779109
0
LINE
8
1
10
20.163090
20
14.779109
11
20.163090
21
14.325809
0
LINE
8
1
10
20.163090
20
14.325809
11
20.762890
21
14.325809
0
LINE
8
1
10
20.762890
20
14.325809
11
20.762890
21
14.129415
0
LINE
8
1
10
20.762890
20
14.129415
11
19.923168
21
14.129415
0
LINE
8
1
10
19.923168
20
14.129415
11
19.923168
21
15.578488
0
LINE
8
1
10
3.010629
20
14.311591
11
3.009588
21
14.311591
0
LINE
8
1
10
15.748245
20
14.103469
11
15.748245
21
14.306660
0
ARC
8
1
10
15.810091
20
14.509794
40
0.212341
50
-162.882945
51
-106.933247
0
LINE
8
1
10
15.607156
20
14.447297
11
15.597020
21
14.475548
0
LINE
8
1
10
15.597020
20
14.475548
11
15.587854
21
14.505484
0
LINE
8
1
10
15.587854
20
14.505484
11
15.579650
21
14.537103
0
ARC
8
1
10
17.156387
20
14.850703
40
1.607621
50
168.649141
51
-168.751115
0
LINE
8
1
10
15.580211
20
15.167109
11
15.588563
21
15.198606
0
ARC
8
1
10
15.884280
20
15.135921
40
0.302288
50
129.938020
51
168.031815
0
ARC
8
1
10
15.816408
20
15.172028
40
0.232829
50
50.444461
51
122.817304
0
LINE
8
1
10
15.964680
20
15.351541
11
15.982956
21
15.332290
0
LINE
8
1
10
15.982956
20
15.332290
11
15.999435
21
15.310076
0
LINE
8
1
10
15.999435
20
15.310076
11
16.014122
21
15.284900
0
ARC
8
1
10
15.191481
20
14.936073
40
0.893543
50
0.308022
51
22.978506
0
ARC
8
1
10
14.637527
20
14.844791
40
1.450670
50
-13.772146
51
3.797784
0
ARC
8
1
10
15.751413
20
14.565568
40
0.302395
50
-50.258907
51
-12.630978
0
LINE
8
1
10
15.944740
20
14.333044
11
15.926443
21
14.321834
0
LINE
8
1
10
15.926443
20
14.321834
11
15.926443
21
14.108725
0
ARC
8
1
10
15.851948
20
14.533908
40
0.431660
50
-80.062215
51
-25.640676
0
ARC
8
1
10
15.358773
20
14.767367
40
0.977298
50
-25.468330
51
-1.120971
0
ARC
8
1
10
14.916830
20
14.855706
40
1.423117
50
-4.330468
51
16.218255
0
ARC
8
1
10
15.801670
20
15.113520
40
0.501483
50
16.170212
51
61.414983
0
ARC
8
1
10
15.818576
20
15.052538
40
0.548712
50
66.016711
51
114.051311
0
ARC
8
1
10
15.819074
20
15.128426
40
0.480641
50
117.795045
51
160.710405
0
ARC
8
1
10
16.494436
20
14.887094
40
1.197820
50
160.486460
51
-178.259011
0
ARC
8
1
10
16.494108
20
14.813474
40
1.197518
50
178.218445
51
-160.402844
0
LINE
8
1
10
15.365957
20
14.411820
11
15.380402
21
14.378210
0
ARC
8
1
10
15.795000
20
14.549456
40
0.448572
50
-157.557433
51
-97.137630
0
LINE
8
1
10
15.739264
20
14.104360
11
15.748245
21
14.103469
0
LINE
8
1
10
13.687017
20
14.119442
11
13.447097
21
14.119442
0
LINE
8
1
10
13.447097
20
14.119442
11
13.447097
21
15.568517
0
LINE
8
1
10
13.447097
20
15.568517
11
13.773006
21
15.568517
0
ARC
8
1
10
13.804981
20
14.816952
40
0.752245
50
62.574233
51
92.436136
0
ARC
8
1
10
13.863009
20
15.016466
40
0.549912
50
16.620859
51
58.362194
0
ARC
8
1
10
13.381972
20
14.857327
40
1.056475
50
-22.277671
51
17.428691
0
ARC
8
1
10
13.839670
20
14.679553
40
0.565619
50
-63.503294
51
-23.190028
0
ARC
8
1
10
13.836429
20
14.776683
40
0.655241
50
-87.463069
51
-67.041100
0
LINE
8
1
10
13.865432
20
14.122084
11
13.865432
21
14.317526
0
ARC
8
1
10
13.828138
20
14.632441
40
0.317115
50
-83.246262
51
-22.242745
0
ARC
8
1
10
13.429037
20
14.816298
40
0.756356
50
-23.690037
51
2.057277
0
ARC
8
1
10
13.405524
20
14.873300
40
0.779952
50
-2.193336
51
24.115217
0
ARC
8
1
10
13.826657
20
15.048306
40
0.324305
50
26.294166
51
81.433175
0
LINE
8
1
10
13.874967
20
15.368993
11
13.832265
21
15.374524
0
LINE
8
1
10
13.832265
20
15.374524
11
13.786807
21
15.376369
0
LINE
8
1
10
13.786807
20
15.376369
11
13.687017
21
15.376369
0
LINE
8
1
10
13.687017
20
15.376369
11
13.687017
21
14.350653
0
LINE
8
1
10
13.687017
20
14.350653
11
13.687017
21
14.119442
0
LINE
8
1
10
1.393319
20
14.812569
11
1.392922
21
13.367906
0
LINE
8
1
10
1.392922
20
13.367906
11
1.393035
21
13.365554
0
ARC
8
1
10
1.818529
20
13.470546
40
0.438256
50
-166.138988
51
-104.078772
0
LINE
8
1
10
1.711921
20
13.045454
11
21.799206
21
13.045454
0
ARC
8
1
10
21.680672
20
13.466873
40
0.437772
50
-74.290106
51
-16.274443
0
LINE
8
1
10
22.100903
20
13.344193
11
22.100925
21
14.502483
0
LINE
8
1
10
22.100925
20
14.502483
11
22.109392
21
28.542358
0
ARC
8
1
10
21.682148
20
28.444592
40
0.438288
50
12.889155
51
72.501260
0
LINE
8
1
10
21.813934
20
28.862597
11
1.710815
21
28.884935
0
ARC
8
1
10
1.820986
20
28.460978
40
0.438039
50
104.566862
51
167.507188
0
LINE
8
1
10
1.393319
20
28.555733
11
1.393319
21
14.812569
0
LINE
8
1
10
18.840128
20
16.517887
11
20.835335
21
16.517887
0
ARC
8
1
10
20.736572
20
16.945162
40
0.438540
50
-76.984929
51
-9.739101
0
LINE
8
1
10
21.168793
20
16.870977
11
21.168793
21
27.637539
0
ARC
8
1
10
20.736420
20
27.563297
40
0.438701
50
9.743095
51
80.366083
0
LINE
8
1
10
20.809837
20
27.995811
11
8.793074
21
27.956110
0
ARC
8
1
10
8.943057
20
28.171217
40
0.262233
50
-124.886146
51
-103.973473
0
LINE
8
1
10
8.879735
20
27.916744
11
8.914141
21
27.903364
0
ARC
8
1
10
4.143256
20
3.850156
40
24.521790
50
78.242972
51
78.781155
0
ARC
8
1
10
9.096359
20
30.728758
40
2.871597
50
-89.132009
51
-83.665511
0
LINE
8
1
10
9.413190
20
27.874693
11
9.504937
21
27.867046
0
ARC
8
1
10
9.294112
20
27.088196
40
0.806880
50
56.613299
51
74.853725
0
LINE
8
1
10
9.738128
20
27.761921
11
9.847077
21
27.681641
0
LINE
8
1
10
9.847077
20
27.681641
11
10.120582
21
27.479034
0
LINE
8
1
10
10.120582
20
27.479034
11
10.168367
21
27.467564
0
LINE
8
1
10
10.168367
20
27.467564
11
10.216152
21
27.452274
0
LINE
8
1
10
10.216152
20
27.452274
11
10.474191
21
27.436981
0
LINE
8
1
10
10.474191
20
27.436981
11
10.672976
21
27.444628
0
LINE
8
1
10
10.672976
20
27.444628
11
10.858382
21
27.429337
0
LINE
8
1
10
10.858382
20
27.429337
11
11.171852
21
27.396843
0
LINE
8
1
10
11.171852
20
27.396843
11
11.324764
21
27.362438
0
LINE
8
1
10
11.324764
20
27.362438
11
11.588711
21
27.285982
0
LINE
8
1
10
11.588711
20
27.285982
11
11.772205
21
27.213348
0
LINE
8
1
10
11.772205
20
27.213348
11
11.990105
21
27.106310
0
LINE
8
1
10
11.990105
20
27.106310
11
12.236850
21
26.958263
0
LINE
8
1
10
12.236850
20
26.958263
11
12.361091
21
26.874163
0
LINE
8
1
10
12.361091
20
26.874163
11
12.521648
21
26.728897
0
LINE
8
1
10
12.521648
20
26.728897
11
12.672648
21
26.581718
0
LINE
8
1
10
12.672648
20
26.581718
11
12.842764
21
26.377197
0
LINE
8
1
10
12.842764
20
26.377197
11
13.030081
21
26.108734
0
LINE
8
1
10
13.030081
20
26.108734
11
13.129474
21
25.940531
0
LINE
8
1
10
13.129474
20
25.940531
11
13.255626
21
25.693960
0
LINE
8
1
10
13.255626
20
25.693960
11
13.458408
21
25.123493
0
ARC
8
1
10
5.834900
20
23.298355
40
7.838942
50
8.178459
51
13.463722
0
LINE
8
1
10
13.594118
20
24.413498
11
13.590295
21
24.252071
0
LINE
8
1
10
13.590295
20
24.252071
11
13.573092
21
24.059019
0
LINE
8
1
10
13.573092
20
24.059019
11
13.592206
21
24.037994
0
LINE
8
1
10
13.592206
20
24.037994
11
13.727916
21
23.948158
0
LINE
8
1
10
13.727916
20
23.948158
11
13.898030
21
23.810537
0
LINE
8
1
10
13.898030
20
23.810537
11
14.049031
21
23.646156
0
LINE
8
1
10
14.049031
20
23.646156
11
14.242256
21
23.354755
0
LINE
8
1
10
14.242256
20
23.354755
11
14.383699
21
23.081425
0
LINE
8
1
10
14.383699
20
23.081425
11
14.492650
21
22.799582
0
LINE
8
1
10
14.492650
20
22.799582
11
14.553815
21
22.581680
0
LINE
8
1
10
14.553815
20
22.581680
11
14.592043
21
22.323643
0
LINE
8
1
10
14.592043
20
22.323643
11
14.592043
21
21.938583
0
LINE
8
1
10
14.592043
20
21.938583
11
14.572928
21
21.728329
0
LINE
8
1
10
14.572928
20
21.728329
11
14.538524
21
21.584106
0
LINE
8
1
10
14.538524
20
21.584106
11
14.485004
21
21.448395
0
ARC
8
1
10
11.363919
20
18.648930
40
4.192634
50
34.538358
51
41.890596
0
LINE
8
1
10
14.817588
20
21.025976
11
14.984054
21
20.720325
0
LINE
8
1
10
14.984054
20
20.720325
11
15.081535
21
20.477579
0
LINE
8
1
10
15.081535
20
20.477579
11
15.163725
21
20.236742
0
LINE
8
1
10
15.163725
20
20.236742
11
15.245915
21
19.850639
0
LINE
8
1
10
15.245915
20
19.850639
11
15.261207
21
19.578352
0
LINE
8
1
10
15.261207
20
19.578352
11
15.259295
21
19.264883
0
LINE
8
1
10
15.259295
20
19.264883
11
15.213422
21
18.986860
0
LINE
8
1
10
15.213422
20
18.986860
11
15.383536
21
18.828215
0
LINE
8
1
10
15.383536
20
18.828215
11
15.662601
21
18.619873
0
LINE
8
1
10
15.662601
20
18.619873
11
16.056349
21
18.367567
0
LINE
8
1
10
16.056349
20
18.367567
11
16.354702
21
18.208052
0
LINE
8
1
10
16.354702
20
18.208052
11
16.545841
21
18.127773
0
LINE
8
1
10
16.545841
20
18.127773
11
16.777119
21
18.060875
0
LINE
8
1
10
16.777119
20
18.060875
11
16.834461
21
18.060875
0
LINE
8
1
10
16.834461
20
18.060875
11
16.845928
21
18.057053
0
ARC
8
1
10
17.036036
20
17.983736
40
0.203755
50
118.864248
51
158.910423
0
LINE
8
1
10
16.937675
20
18.162178
11
16.977818
21
18.183205
0
LINE
8
1
10
16.977818
20
18.183205
11
17.025600
21
18.194672
0
LINE
8
1
10
17.025600
20
18.194672
11
17.081032
21
18.206141
0
LINE
8
1
10
17.081032
20
18.206141
11
17.146019
21
18.202318
0
LINE
8
1
10
17.146019
20
18.202318
11
17.220737
21
18.183205
0
LINE
8
1
10
17.220737
20
18.183205
11
17.251320
21
18.164089
0
ARC
8
1
10
17.485111
20
17.927778
40
0.332417
50
105.444408
51
134.692911
0
LINE
8
1
10
17.396587
20
18.248192
11
17.452019
21
18.246281
0
LINE
8
1
10
17.452019
20
18.246281
11
17.499802
21
18.236723
0
LINE
8
1
10
17.499802
20
18.236723
11
17.539940
21
18.213787
0
ARC
8
1
10
17.658108
20
18.063454
40
0.191217
50
69.412782
51
128.168715
0
LINE
8
1
10
17.725346
20
18.242458
11
17.731083
21
18.261572
0
LINE
8
1
10
17.731083
20
18.261572
11
17.757839
21
18.294065
0
LINE
8
1
10
17.757839
20
18.294065
11
17.784599
21
18.305534
0
LINE
8
1
10
17.784599
20
18.305534
11
17.813271
21
18.320824
0
LINE
8
1
10
17.813271
20
18.320824
11
17.849586
21
18.328470
0
LINE
8
1
10
17.849586
20
18.328470
11
17.905018
21
18.324648
0
LINE
8
1
10
17.905018
20
18.324648
11
17.918400
21
18.322737
0
LINE
8
1
10
17.918400
20
18.322737
11
17.939423
21
18.357141
0
ARC
8
1
10
18.065121
20
18.233059
40
0.176625
50
104.071055
51
135.370567
0
ARC
8
1
10
18.181574
20
18.398216
40
0.159515
50
106.949452
51
177.783837
0
ARC
8
1
10
18.315073
20
18.541111
40
0.180263
50
107.113557
51
176.918191
0
ARC
8
1
10
18.381569
20
18.733814
40
0.121273
50
110.548976
51
-170.305381
0
ARC
8
1
10
18.465733
20
18.897509
40
0.136289
50
127.630874
51
-158.415682
0
ARC
8
1
10
18.535248
20
19.022661
40
0.153696
50
134.988432
51
-173.568013
0
ARC
8
1
10
18.627583
20
19.190847
40
0.209610
50
135.497695
51
-163.513685
0
ARC
8
1
10
18.584827
20
19.379114
40
0.114470
50
112.480770
51
-158.827593
0
ARC
8
1
10
18.964701
20
19.454626
40
0.424722
50
152.012646
51
175.914653
0
ARC
8
1
10
18.753523
20
19.548294
40
0.194975
50
100.583431
51
147.191387
0
LINE
8
1
10
18.717712
20
19.739952
11
18.771233
21
19.736130
0
LINE
8
1
10
18.771233
20
19.736130
11
18.797989
21
19.717016
0
LINE
8
1
10
18.797989
20
19.717016
11
18.826660
21
19.680698
0
LINE
8
1
10
18.826660
20
19.680698
11
18.838131
21
19.655851
0
ARC
8
1
10
18.404718
20
19.428389
40
0.489475
50
2.910626
51
27.691303
0
LINE
8
1
10
18.893562
20
19.453243
11
18.903118
21
19.390167
0
LINE
8
1
10
18.903118
20
19.390167
11
18.903118
21
19.383041
0
ARC
8
1
10
18.729898
20
19.207815
40
0.246393
50
-31.392918
51
45.329934
0
ARC
8
1
10
18.803936
20
18.975382
40
0.171488
50
-45.179343
51
37.369772
0
ARC
8
1
10
18.796829
20
18.789978
40
0.142992
50
-47.991995
51
26.483021
0
ARC
8
1
10
18.743748
20
18.627972
40
0.158881
50
-40.223715
51
20.543969
0
ARC
8
1
10
18.760513
20
18.507174
40
0.106117
50
-64.104606
51
9.873394
0
ARC
8
1
10
18.596210
20
18.360910
40
0.216687
50
-57.328014
51
13.558702
0
ARC
8
1
10
18.505844
20
18.164749
40
0.207796
50
-76.226515
51
3.796723
0
ARC
8
1
10
18.241425
20
17.962650
40
0.313892
50
-67.139425
51
0.050831
0
LINE
8
1
10
18.363369
20
17.673412
11
18.331608
21
17.607004
0
LINE
8
1
10
18.331608
20
17.607004
11
18.314407
21
17.591713
0
LINE
8
1
10
18.314407
20
17.591713
11
18.295292
21
17.566864
0
LINE
8
1
10
18.295292
20
17.566864
11
18.293381
21
17.555395
0
LINE
8
1
10
18.293381
20
17.555395
11
18.501724
21
17.568775
0
ARC
8
1
10
22.058542
20
12.604365
40
6.107071
50
124.242162
51
125.620209
0
LINE
8
1
10
18.622143
20
17.652878
11
18.675659
21
17.679638
0
LINE
8
1
10
18.675659
20
17.679638
11
18.731091
21
17.712132
0
ARC
8
1
10
18.929684
20
16.931179
40
0.805808
50
90.257946
51
104.267673
0
LINE
8
1
10
18.926056
20
17.736979
11
18.979572
21
17.740803
0
LINE
8
1
10
18.979572
20
17.740803
11
19.101902
21
17.742714
0
LINE
8
1
10
19.101902
20
17.742714
11
19.105724
21
17.736979
0
LINE
8
1
10
19.105724
20
17.736979
11
19.101902
21
17.725510
0
LINE
8
1
10
19.101902
20
17.725510
11
19.082790
21
17.712132
0
LINE
8
1
10
19.082790
20
17.712132
11
19.044559
21
17.685371
0
LINE
8
1
10
19.044559
20
17.685371
11
18.998688
21
17.664345
0
LINE
8
1
10
18.998688
20
17.664345
11
18.931789
21
17.628029
0
LINE
8
1
10
18.931789
20
17.628029
11
18.891647
21
17.578333
0
LINE
8
1
10
18.891647
20
17.578333
11
18.878269
21
17.568775
0
LINE
8
1
10
18.878269
20
17.568775
11
18.878269
21
17.547750
0
LINE
8
1
10
18.878269
20
17.547750
11
18.872536
21
17.528637
0
LINE
8
1
10
18.872536
20
17.528637
11
18.853420
21
17.498055
0
ARC
8
1
10
18.918669
20
18.051392
40
0.557171
50
-96.725154
51
-78.349831
0
ARC
8
1
10
19.632645
20
11.908812
40
5.629113
50
93.614661
51
96.133685
0
LINE
8
1
10
19.277752
20
17.526726
11
19.338917
21
17.528637
0
LINE
8
1
10
19.338917
20
17.528637
11
19.390526
21
17.532459
0
LINE
8
1
10
19.390526
20
17.532459
11
19.445953
21
17.530548
0
LINE
8
1
10
19.445953
20
17.530548
11
19.493740
21
17.532459
0
LINE
8
1
10
19.493740
20
17.532459
11
19.539612
21
17.524813
0
LINE
8
1
10
19.539612
20
17.524813
11
19.560638
21
17.507610
0
ARC
8
1
10
20.305677
20
15.762807
40
1.897214
50
113.122699
51
116.687191
0
ARC
8
1
10
19.643930
20
16.752115
40
0.731011
50
105.091627
51
123.948170
0
LINE
8
1
10
19.235703
20
17.358521
11
19.191738
21
17.316471
0
LINE
8
1
10
19.191738
20
17.316471
11
19.151600
21
17.268686
0
LINE
8
1
10
19.151600
20
17.268686
11
19.233791
21
17.264862
0
LINE
8
1
10
19.233791
20
17.264862
11
19.304512
21
17.261040
0
LINE
8
1
10
19.304512
20
17.261040
11
19.373322
21
17.262951
0
ARC
8
1
10
19.397295
20
17.887621
40
0.625130
50
-92.197805
51
-73.029845
0
LINE
8
1
10
19.579754
20
17.289711
11
19.627537
21
17.303091
0
LINE
8
1
10
19.627537
20
17.303091
11
19.681057
21
17.324116
0
LINE
8
1
10
19.681057
20
17.324116
11
19.736488
21
17.343231
0
LINE
8
1
10
19.736488
20
17.343231
11
19.793831
21
17.352787
0
LINE
8
1
10
19.793831
20
17.352787
11
19.746044
21
17.299269
0
LINE
8
1
10
19.746044
20
17.299269
11
19.688702
21
17.236193
0
LINE
8
1
10
19.688702
20
17.236193
11
19.545349
21
17.105349
0
LINE
8
1
10
19.545349
20
17.105349
11
19.528145
21
17.097702
0
LINE
8
1
10
19.528145
20
17.097702
11
19.478451
21
17.076677
0
LINE
8
1
10
19.478451
20
17.076677
11
19.421108
21
17.063297
0
LINE
8
1
10
19.421108
20
17.063297
11
19.361855
21
17.040359
0
ARC
8
1
10
19.451305
20
16.964149
40
0.117513
50
139.569775
51
-171.461137
0
LINE
8
1
10
19.335094
20
16.946701
11
19.346561
21
16.931410
0
LINE
8
1
10
19.346561
20
16.931410
11
19.379055
21
16.931410
0
LINE
8
1
10
19.379055
20
16.931410
11
19.679146
21
16.975372
0
LINE
8
1
10
19.679146
20
16.975372
11
19.671501
21
16.952436
0
LINE
8
1
10
19.671501
20
16.952436
11
19.551083
21
16.858778
0
LINE
8
1
10
19.551083
20
16.858778
11
19.486095
21
16.810993
0
LINE
8
1
10
19.486095
20
16.810993
11
19.291130
21
16.724979
0
LINE
8
1
10
19.291130
20
16.724979
11
19.099991
21
16.654257
0
LINE
8
1
10
19.099991
20
16.654257
11
18.998688
21
16.606472
0
LINE
8
1
10
18.998688
20
16.606472
11
18.906940
21
16.547218
0
LINE
8
1
10
18.906940
20
16.547218
11
18.840128
21
16.517887
0
CIRCLE
8
1
10
2.012745
20
28.281326
40
0.093500
0
CIRCLE
8
1
10
21.524853
20
28.281330
40
0.093500
0
CIRCLE
8
1
10
1.919696
20
13.626103
40
0.093500
0
CIRCLE
8
1
10
21.431805
20
13.626107
40
0.093498
0
ENDSEC
0
EOF
