  0
SECTION
  2
HEADER
  9
$ACADVER
  1
AC1015
  9
$ACADMAINTVER
 70
     6
  9
$DWGCODEPAGE
  3
ANSI_1252
  9
$INSBASE
 10
0.0
 20
0.0
 30
0.0
  9
$EXTMIN
 10
-12.3449
 20
-12.20666
 30
0.0
  9
$EXTMAX
 10
6.77806
 20
13.68499
 30
0.0
  9
$LIMMIN
 10
0.0
 20
0.0
  9
$LIMMAX
 10
12.0
 20
9.0
  9
$ORTHOMODE
 70
     0
  9
$REGENMODE
 70
     1
  9
$FILLMODE
 70
     1
  9
$QTEXTMODE
 70
     0
  9
$MIRRTEXT
 70
     1
  9
$LTSCALE
 40
1.0
  9
$ATTMODE
 70
     1
  9
$TEXTSIZE
 40
0.2
  9
$TRACEWID
 40
0.05
  9
$TEXTSTYLE
  7
Standard
  9
$CLAYER
  8
0
  9
$CELTYPE
  6
ByLayer
  9
$CECOLOR
 62
   256
  9
$CELTSCALE
 40
1.0
  9
$DISPSILH
 70
     0
  9
$DIMSCALE
 40
1.0
  9
$DIMASZ
 40
0.18
  9
$DIMEXO
 40
0.0625
  9
$DIMDLI
 40
0.38
  9
$DIMRND
 40
0.0
  9
$DIMDLE
 40
0.0
  9
$DIMEXE
 40
0.18
  9
$DIMTP
 40
0.0
  9
$DIMTM
 40
0.0
  9
$DIMTXT
 40
0.18
  9
$DIMCEN
 40
0.09
  9
$DIMTSZ
 40
0.0
  9
$DIMTOL
 70
     0
  9
$DIMLIM
 70
     0
  9
$DIMTIH
 70
     1
  9
$DIMTOH
 70
     1
  9
$DIMSE1
 70
     0
  9
$DIMSE2
 70
     0
  9
$DIMTAD
 70
     0
  9
$DIMZIN
 70
     0
  9
$DIMBLK
  1

  9
$DIMASO
 70
     1
  9
$DIMSHO
 70
     1
  9
$DIMPOST
  1

  9
$DIMAPOST
  1

  9
$DIMALT
 70
     0
  9
$DIMALTD
 70
     2
  9
$DIMALTF
 40
25.4
  9
$DIMLFAC
 40
1.0
  9
$DIMTOFL
 70
     0
  9
$DIMTVP
 40
0.0
  9
$DIMTIX
 70
     0
  9
$DIMSOXD
 70
     0
  9
$DIMSAH
 70
     0
  9
$DIMBLK1
  1

  9
$DIMBLK2
  1

  9
$DIMSTYLE
  2
Standard
  9
$DIMCLRD
 70
     0
  9
$DIMCLRE
 70
     0
  9
$DIMCLRT
 70
     0
  9
$DIMTFAC
 40
1.0
  9
$DIMGAP
 40
0.09
  9
$DIMJUST
 70
     0
  9
$DIMSD1
 70
     0
  9
$DIMSD2
 70
     0
  9
$DIMTOLJ
 70
     1
  9
$DIMTZIN
 70
     0
  9
$DIMALTZ
 70
     0
  9
$DIMALTTZ
 70
     0
  9
$DIMUPT
 70
     0
  9
$DIMDEC
 70
     4
  9
$DIMTDEC
 70
     4
  9
$DIMALTU
 70
     2
  9
$DIMALTTD
 70
     2
  9
$DIMTXSTY
  7
Standard
  9
$DIMAUNIT
 70
     0
  9
$DIMADEC
 70
     0
  9
$DIMALTRND
 40
0.0
  9
$DIMAZIN
 70
     0
  9
$DIMDSEP
 70
    46
  9
$DIMATFIT
 70
     3
  9
$DIMFRAC
 70
     0
  9
$DIMLDRBLK
  1

  9
$DIMLUNIT
 70
     2
  9
$DIMLWD
 70
    -2
  9
$DIMLWE
 70
    -2
  9
$DIMTMOVE
 70
     0
  9
$LUNITS
 70
     2
  9
$LUPREC
 70
     4
  9
$SKETCHINC
 40
0.1
  9
$FILLETRAD
 40
0.5
  9
$AUNITS
 70
     0
  9
$AUPREC
 70
     0
  9
$MENU
  1
.
  9
$ELEVATION
 40
0.0
  9
$PELEVATION
 40
0.0
  9
$THICKNESS
 40
0.0
  9
$LIMCHECK
 70
     0
  9
$CHAMFERA
 40
0.5
  9
$CHAMFERB
 40
0.5
  9
$CHAMFERC
 40
1.0
  9
$CHAMFERD
 40
0.0
  9
$SKPOLY
 70
     0
  9
$TDCREATE
 40
2458031.536558519
  9
$TDUCREATE
 40
2458031.307391852
  9
$TDUPDATE
 40
2458031.536558704
  9
$TDUUPDATE
 40
2458031.307392037
  9
$TDINDWG
 40
0.0000000116
  9
$TDUSRTIMER
 40
0.0000000116
  9
$USRTIMER
 70
     1
  9
$ANGBASE
 50
0.0
  9
$ANGDIR
 70
     0
  9
$PDMODE
 70
     0
  9
$PDSIZE
 40
0.0
  9
$PLINEWID
 40
0.0
  9
$SPLFRAME
 70
     0
  9
$SPLINETYPE
 70
     6
  9
$SPLINESEGS
 70
     8
  9
$HANDSEED
  5
DA
  9
$SURFTAB1
 70
     6
  9
$SURFTAB2
 70
     6
  9
$SURFTYPE
 70
     6
  9
$SURFU
 70
     6
  9
$SURFV
 70
     6
  9
$UCSBASE
  2

  9
$UCSNAME
  2

  9
$UCSORG
 10
0.0
 20
0.0
 30
0.0
  9
$UCSXDIR
 10
1.0
 20
0.0
 30
0.0
  9
$UCSYDIR
 10
0.0
 20
1.0
 30
0.0
  9
$UCSORTHOREF
  2

  9
$UCSORTHOVIEW
 70
     0
  9
$UCSORGTOP
 10
0.0
 20
0.0
 30
0.0
  9
$UCSORGBOTTOM
 10
0.0
 20
0.0
 30
0.0
  9
$UCSORGLEFT
 10
0.0
 20
0.0
 30
0.0
  9
$UCSORGRIGHT
 10
0.0
 20
0.0
 30
0.0
  9
$UCSORGFRONT
 10
0.0
 20
0.0
 30
0.0
  9
$UCSORGBACK
 10
0.0
 20
0.0
 30
0.0
  9
$PUCSBASE
  2

  9
$PUCSNAME
  2

  9
$PUCSORG
 10
0.0
 20
0.0
 30
0.0
  9
$PUCSXDIR
 10
1.0
 20
0.0
 30
0.0
  9
$PUCSYDIR
 10
0.0
 20
1.0
 30
0.0
  9
$PUCSORTHOREF
  2

  9
$PUCSORTHOVIEW
 70
     0
  9
$PUCSORGTOP
 10
0.0
 20
0.0
 30
0.0
  9
$PUCSORGBOTTOM
 10
0.0
 20
0.0
 30
0.0
  9
$PUCSORGLEFT
 10
0.0
 20
0.0
 30
0.0
  9
$PUCSORGRIGHT
 10
0.0
 20
0.0
 30
0.0
  9
$PUCSORGFRONT
 10
0.0
 20
0.0
 30
0.0
  9
$PUCSORGBACK
 10
0.0
 20
0.0
 30
0.0
  9
$USERI1
 70
     0
  9
$USERI2
 70
     0
  9
$USERI3
 70
     0
  9
$USERI4
 70
     0
  9
$USERI5
 70
     0
  9
$USERR1
 40
0.0
  9
$USERR2
 40
0.0
  9
$USERR3
 40
0.0
  9
$USERR4
 40
0.0
  9
$USERR5
 40
0.0
  9
$WORLDVIEW
 70
     1
  9
$SHADEDGE
 70
     3
  9
$SHADEDIF
 70
    70
  9
$TILEMODE
 70
     1
  9
$MAXACTVP
 70
    64
  9
$PINSBASE
 10
0.0
 20
0.0
 30
0.0
  9
$PLIMCHECK
 70
     0
  9
$PEXTMIN
 10
1.000000000000000E+20
 20
1.000000000000000E+20
 30
1.000000000000000E+20
  9
$PEXTMAX
 10
-1.000000000000000E+20
 20
-1.000000000000000E+20
 30
-1.000000000000000E+20
  9
$PLIMMIN
 10
0.0
 20
0.0
  9
$PLIMMAX
 10
12.0
 20
9.0
  9
$UNITMODE
 70
     0
  9
$VISRETAIN
 70
     1
  9
$PLINEGEN
 70
     0
  9
$PSLTSCALE
 70
     1
  9
$TREEDEPTH
 70
  3020
  9
$CMLSTYLE
  2
Standard
  9
$CMLJUST
 70
     0
  9
$CMLSCALE
 40
1.0
  9
$PROXYGRAPHICS
 70
     1
  9
$MEASUREMENT
 70
     0
  9
$CELWEIGHT
370
    -1
  9
$ENDCAPS
280
     0
  9
$JOINSTYLE
280
     0
  9
$LWDISPLAY
290
     0
  9
$INSUNITS
 70
     5
  9
$HYPERLINKBASE
  1

  9
$STYLESHEET
  1

  9
$XEDIT
290
     1
  9
$CEPSNTYPE
380
     0
  9
$PSTYLEMODE
290
     1
  9
$FINGERPRINTGUID
  2
{1CAB8AAE-3C1B-48C6-B87A-3A7BC837E485}
  9
$VERSIONGUID
  2
{FAEB1C32-E019-11D5-929B-00C0DF256EC4}
  9
$EXTNAMES
290
     1
  9
$PSVPSCALE
 40
0.0
  9
$OLESTARTUP
290
     0
  0
ENDSEC
  0
SECTION
  2
CLASSES
  0
CLASS
  1
ACDBDICTIONARYWDFLT
  2
AcDbDictionaryWithDefault
  3
ObjectDBX Classes
 90
        0
280
     0
281
     0
  0
CLASS
  1
VISUALSTYLE
  2
AcDbVisualStyle
  3
ObjectDBX Classes
 90
     4095
280
     0
281
     0
  0
CLASS
  1
MATERIAL
  2
AcDbMaterial
  3
ObjectDBX Classes
 90
     1153
280
     0
281
     0
  0
CLASS
  1
DICTIONARYVAR
  2
AcDbDictionaryVar
  3
ObjectDBX Classes
 90
        0
280
     0
281
     0
  0
CLASS
  1
ACDBPLACEHOLDER
  2
AcDbPlaceHolder
  3
ObjectDBX Classes
 90
        0
280
     0
281
     0
  0
CLASS
  1
LAYOUT
  2
AcDbLayout
  3
ObjectDBX Classes
 90
        0
280
     0
281
     0
  0
ENDSEC
  0
SECTION
  2
TABLES
  0
TABLE
  2
VPORT
  5
8
330
0
100
AcDbSymbolTable
 70
     1
  0
VPORT
  5
29
330
8
100
AcDbSymbolTableRecord
100
AcDbViewportTableRecord
  2
*Active
 70
     0
 10
0.0
 20
0.0
 11
1.0
 21
1.0
 12
10.42990654205607
 22
4.5
 13
0.0
 23
0.0
 14
0.5
 24
0.5
 15
0.5
 25
0.5
 16
0.0
 26
0.0
 36
1.0
 17
0.0
 27
0.0
 37
0.0
 40
9.0
 41
1.972972972850329
 42
50.0
 43
0.0
 44
0.0
 50
0.0
 51
0.0
 71
     0
 72
   100
 73
     1
 74
     3
 75
     0
 76
     0
 77
     0
 78
     0
281
     0
 65
     1
110
0.0
120
0.0
130
0.0
111
1.0
121
0.0
131
0.0
112
0.0
122
1.0
132
0.0
 79
     0
146
0.0
  0
ENDTAB
  0
TABLE
  2
LTYPE
  5
5
330
0
100
AcDbSymbolTable
 70
     1
  0
LTYPE
  5
14
330
5
100
AcDbSymbolTableRecord
100
AcDbLinetypeTableRecord
  2
ByBlock
 70
     0
  3

 72
    65
 73
     0
 40
0.0
  0
LTYPE
  5
15
330
5
100
AcDbSymbolTableRecord
100
AcDbLinetypeTableRecord
  2
ByLayer
 70
     0
  3

 72
    65
 73
     0
 40
0.0
  0
LTYPE
  5
16
330
5
100
AcDbSymbolTableRecord
100
AcDbLinetypeTableRecord
  2
Continuous
 70
     0
  3
Solid line
 72
    65
 73
     0
 40
0.0
  0
ENDTAB
  0
TABLE
  2
LAYER
  5
2
330
0
100
AcDbSymbolTable
 70
     2
  0
LAYER
  5
10
330
2
100
AcDbSymbolTableRecord
100
AcDbLayerTableRecord
  2
0
 70
     0
 62
     7
  6
Continuous
370
    -3
390
F
  0
LAYER
  5
40
330
2
100
AcDbSymbolTableRecord
100
AcDbLayerTableRecord
  2
Layer 1
 70
     0
 62
     7
  6
Continuous
370
    -3
390
F
  0
ENDTAB
  0
TABLE
  2
STYLE
  5
3
330
0
100
AcDbSymbolTable
 70
     1
  0
STYLE
  5
11
330
3
100
AcDbSymbolTableRecord
100
AcDbTextStyleTableRecord
  2
Standard
 70
     0
 40
0.0
 41
1.0
 50
0.0
 71
     0
 42
0.2
  3
txt
  4

  0
ENDTAB
  0
TABLE
  2
VIEW
  5
6
330
0
100
AcDbSymbolTable
 70
     0
  0
ENDTAB
  0
TABLE
  2
UCS
  5
7
330
0
100
AcDbSymbolTable
 70
     0
  0
ENDTAB
  0
TABLE
  2
APPID
  5
9
330
0
100
AcDbSymbolTable
 70
     2
  0
APPID
  5
12
330
9
100
AcDbSymbolTableRecord
100
AcDbRegAppTableRecord
  2
ACAD
 70
     0
  0
APPID
  5
3F
330
9
100
AcDbSymbolTableRecord
100
AcDbRegAppTableRecord
  2
ODA
 70
     0
  0
ENDTAB
  0
TABLE
  2
DIMSTYLE
  5
A
330
0
100
AcDbSymbolTable
 70
     1
100
AcDbDimStyleTable
  0
DIMSTYLE
105
27
330
A
100
AcDbSymbolTableRecord
100
AcDbDimStyleTableRecord
  2
Standard
 70
     0
178
     0
340
11
  0
ENDTAB
  0
TABLE
  2
BLOCK_RECORD
  5
1
330
0
100
AcDbSymbolTable
 70
     1
  0
BLOCK_RECORD
  5
1F
330
1
100
AcDbSymbolTableRecord
100
AcDbBlockTableRecord
  2
*Model_Space
340
22
  0
BLOCK_RECORD
  5
1B
330
1
100
AcDbSymbolTableRecord
100
AcDbBlockTableRecord
  2
*Paper_Space
340
1E
  0
BLOCK_RECORD
  5
23
330
1
100
AcDbSymbolTableRecord
100
AcDbBlockTableRecord
  2
*Paper_Space0
340
26
  0
ENDTAB
  0
ENDSEC
  0
SECTION
  2
BLOCKS
  0
BLOCK
  5
20
330
1F
100
AcDbEntity
  8
0
100
AcDbBlockBegin
  2
*Model_Space
 70
     0
 10
0.0
 20
0.0
 30
0.0
  3
*Model_Space
  1

  0
ENDBLK
  5
21
330
1F
100
AcDbEntity
  8
0
100
AcDbBlockEnd
  0
BLOCK
  5
1C
330
1B
100
AcDbEntity
 67
     1
  8
0
100
AcDbBlockBegin
  2
*Paper_Space
 70
     0
 10
0.0
 20
0.0
 30
0.0
  3
*Paper_Space
  1

  0
ENDBLK
  5
1D
330
1B
100
AcDbEntity
 67
     1
  8
0
100
AcDbBlockEnd
  0
BLOCK
  5
24
330
23
100
AcDbEntity
  8
0
100
AcDbBlockBegin
  2
*Paper_Space0
 70
     0
 10
0.0
 20
0.0
 30
0.0
  3
*Paper_Space0
  1

  0
ENDBLK
  5
25
330
23
100
AcDbEntity
  8
0
100
AcDbBlockEnd
  0
ENDSEC
  0
SECTION
  2
ENTITIES
  0
SPLINE
  5
41
330
1F
100
AcDbEntity
  8
Layer 1
 62
   242
100
AcDbSpline
210
0.0
220
0.0
230
1.0
 70
    11
 71
     3
 72
    36
 73
    32
 74
     0
 42
0.0000000001
 43
0.0000000001
 12
1.0
 22
0.0
 32
0.0
 13
1.0
 23
0.0
 33
0.0
 40
0.0
 40
0.0
 40
0.0
 40
0.0
 40
0.1111111111111111
 40
0.1111111111111111
 40
0.1111111111111111
 40
0.1111111111111111
 40
0.2222222222222222
 40
0.2222222222222222
 40
0.2222222222222222
 40
0.2222222222222222
 40
0.3333333333333333
 40
0.3333333333333333
 40
0.3333333333333333
 40
0.3333333333333333
 40
0.4444444444444444
 40
0.4444444444444444
 40
0.4444444444444444
 40
0.4444444444444444
 40
0.5555555555555556
 40
0.5555555555555556
 40
0.5555555555555556
 40
0.5555555555555556
 40
0.6666666666666666
 40
0.6666666666666666
 40
0.6666666666666666
 40
0.6666666666666666
 40
0.7777777777777778
 40
0.7777777777777778
 40
0.7777777777777778
 40
0.7777777777777778
 40
1.0
 40
1.0
 40
1.0
 40
1.0
 10
-12.3449
 20
13.68118
 30
0.0
 10
-12.3449
 20
13.68118
 30
0.0
 10
-3.10726
 20
13.68118
 30
0.0
 10
-3.10726
 20
13.68118
 30
0.0
 10
-3.10726
 20
13.68118
 30
0.0
 10
-3.10726
 20
13.68118
 30
0.0
 10
-3.10726
 20
13.54286
 30
0.0
 10
-3.10726
 20
13.54286
 30
0.0
 10
-3.10726
 20
13.54286
 30
0.0
 10
-3.10726
 20
13.54286
 30
0.0
 10
-3.10726
 20
-11.94832
 30
0.0
 10
-3.10726
 20
-11.94832
 30
0.0
 10
-3.10726
 20
-11.94832
 30
0.0
 10
-3.10726
 20
-11.94832
 30
0.0
 10
-3.10726
 20
-12.20285
 30
0.0
 10
-3.10726
 20
-12.20285
 30
0.0
 10
-3.10726
 20
-12.20285
 30
0.0
 10
-3.10726
 20
-12.20285
 30
0.0
 10
-12.3449
 20
-12.20285
 30
0.0
 10
-12.3449
 20
-12.20285
 30
0.0
 10
-12.3449
 20
-12.20285
 30
0.0
 10
-12.3449
 20
-12.20285
 30
0.0
 10
-12.3449
 20
-11.94832
 30
0.0
 10
-12.3449
 20
-11.94832
 30
0.0
 10
-12.3449
 20
-11.94832
 30
0.0
 10
-12.3449
 20
-11.94832
 30
0.0
 10
-12.3449
 20
13.54286
 30
0.0
 10
-12.3449
 20
13.54286
 30
0.0
 10
-12.3449
 20
13.54286
 30
0.0
 10
-12.3449
 20
13.54286
 30
0.0
 10
-12.3449
 20
13.68118
 30
0.0
 10
-12.3449
 20
13.68118
 30
0.0
  0
SPLINE
  5
42
330
1F
100
AcDbEntity
  8
Layer 1
 62
   242
100
AcDbSpline
210
0.0
220
0.0
230
1.0
 70
    11
 71
     3
 72
    20
 73
    16
 74
     0
 42
0.0000000001
 43
0.0000000001
 12
1.0
 22
0.0
 32
0.0
 13
1.0
 23
0.0
 33
0.0
 40
0.0
 40
0.0
 40
0.0
 40
0.0
 40
0.2
 40
0.2
 40
0.2
 40
0.2
 40
0.4
 40
0.4
 40
0.4
 40
0.4
 40
0.6
 40
0.6
 40
0.6
 40
0.6
 40
1.0
 40
1.0
 40
1.0
 40
1.0
 10
-3.51497
 20
-11.34393
 30
0.0
 10
-3.51497
 20
-11.34393
 30
0.0
 10
-6.12133
 20
-11.34393
 30
0.0
 10
-6.12133
 20
-11.34393
 30
0.0
 10
-6.12133
 20
-11.34393
 30
0.0
 10
-6.12133
 20
-11.34393
 30
0.0
 10
-6.12133
 20
-11.79513
 30
0.0
 10
-6.12133
 20
-11.79513
 30
0.0
 10
-6.12133
 20
-11.79513
 30
0.0
 10
-6.12133
 20
-11.79513
 30
0.0
 10
-3.51497
 20
-11.79513
 30
0.0
 10
-3.51497
 20
-11.79513
 30
0.0
 10
-3.51497
 20
-11.79513
 30
0.0
 10
-3.51497
 20
-11.79513
 30
0.0
 10
-3.51497
 20
-11.34393
 30
0.0
 10
-3.51497
 20
-11.34393
 30
0.0
  0
SPLINE
  5
43
330
1F
100
AcDbEntity
  8
Layer 1
 62
   242
100
AcDbSpline
210
0.0
220
0.0
230
1.0
 70
    11
 71
     3
 72
    20
 73
    16
 74
     0
 42
0.0000000001
 43
0.0000000001
 12
1.0
 22
0.0
 32
0.0
 13
1.0
 23
0.0
 33
0.0
 40
0.0
 40
0.0
 40
0.0
 40
0.0
 40
0.2
 40
0.2
 40
0.2
 40
0.2
 40
0.4
 40
0.4
 40
0.4
 40
0.4
 40
0.6
 40
0.6
 40
0.6
 40
0.6
 40
1.0
 40
1.0
 40
1.0
 40
1.0
 10
-6.47774
 20
-11.79513
 30
0.0
 10
-6.47774
 20
-11.79513
 30
0.0
 10
-6.47774
 20
-11.34393
 30
0.0
 10
-6.47774
 20
-11.34393
 30
0.0
 10
-6.47774
 20
-11.34393
 30
0.0
 10
-6.47774
 20
-11.34393
 30
0.0
 10
-8.95836
 20
-11.34393
 30
0.0
 10
-8.95836
 20
-11.34393
 30
0.0
 10
-8.95836
 20
-11.34393
 30
0.0
 10
-8.95836
 20
-11.34393
 30
0.0
 10
-8.95836
 20
-11.79513
 30
0.0
 10
-8.95836
 20
-11.79513
 30
0.0
 10
-8.95836
 20
-11.79513
 30
0.0
 10
-8.95836
 20
-11.79513
 30
0.0
 10
-6.47774
 20
-11.79513
 30
0.0
 10
-6.47774
 20
-11.79513
 30
0.0
  0
SPLINE
  5
44
330
1F
100
AcDbEntity
  8
Layer 1
 62
   242
100
AcDbSpline
210
0.0
220
0.0
230
1.0
 70
    11
 71
     3
 72
    20
 73
    16
 74
     0
 42
0.0000000001
 43
0.0000000001
 12
1.0
 22
0.0
 32
0.0
 13
1.0
 23
0.0
 33
0.0
 40
0.0
 40
0.0
 40
0.0
 40
0.0
 40
0.2
 40
0.2
 40
0.2
 40
0.2
 40
0.4
 40
0.4
 40
0.4
 40
0.4
 40
0.6
 40
0.6
 40
0.6
 40
0.6
 40
1.0
 40
1.0
 40
1.0
 40
1.0
 10
-9.31477
 20
-11.79513
 30
0.0
 10
-9.31477
 20
-11.79513
 30
0.0
 10
-9.31477
 20
-11.34393
 30
0.0
 10
-9.31477
 20
-11.34393
 30
0.0
 10
-9.31477
 20
-11.34393
 30
0.0
 10
-9.31477
 20
-11.34393
 30
0.0
 10
-11.93719
 20
-11.34393
 30
0.0
 10
-11.93719
 20
-11.34393
 30
0.0
 10
-11.93719
 20
-11.34393
 30
0.0
 10
-11.93719
 20
-11.34393
 30
0.0
 10
-11.93719
 20
-11.79513
 30
0.0
 10
-11.93719
 20
-11.79513
 30
0.0
 10
-11.93719
 20
-11.79513
 30
0.0
 10
-11.93719
 20
-11.79513
 30
0.0
 10
-9.31477
 20
-11.79513
 30
0.0
 10
-9.31477
 20
-11.79513
 30
0.0
  0
SPLINE
  5
45
330
1F
100
AcDbEntity
  8
Layer 1
 62
   242
100
AcDbSpline
210
0.0
220
0.0
230
1.0
 70
    11
 71
     3
 72
    36
 73
    32
 74
     0
 42
0.0000000001
 43
0.0000000001
 12
1.0
 22
0.0
 32
0.0
 13
1.0
 23
0.0
 33
0.0
 40
0.0
 40
0.0
 40
0.0
 40
0.0
 40
0.1111111111111111
 40
0.1111111111111111
 40
0.1111111111111111
 40
0.1111111111111111
 40
0.2222222222222222
 40
0.2222222222222222
 40
0.2222222222222222
 40
0.2222222222222222
 40
0.3333333333333333
 40
0.3333333333333333
 40
0.3333333333333333
 40
0.3333333333333333
 40
0.4444444444444444
 40
0.4444444444444444
 40
0.4444444444444444
 40
0.4444444444444444
 40
0.5555555555555556
 40
0.5555555555555556
 40
0.5555555555555556
 40
0.5555555555555556
 40
0.6666666666666666
 40
0.6666666666666666
 40
0.6666666666666666
 40
0.6666666666666666
 40
0.7777777777777778
 40
0.7777777777777778
 40
0.7777777777777778
 40
0.7777777777777778
 40
1.0
 40
1.0
 40
1.0
 40
1.0
 10
-11.93719
 20
7.34714
 30
0.0
 10
-11.93719
 20
7.34714
 30
0.0
 10
-10.75072
 20
7.34714
 30
0.0
 10
-10.75072
 20
7.34714
 30
0.0
 10
-10.75072
 20
7.34714
 30
0.0
 10
-10.75072
 20
7.34714
 30
0.0
 10
-10.75072
 20
5.6269
 30
0.0
 10
-10.75072
 20
5.6269
 30
0.0
 10
-10.75072
 20
5.6269
 30
0.0
 10
-10.29145
 20
5.6269
 30
0.0
 10
-9.79269
 20
5.6269
 30
0.0
 10
-9.31955
 20
5.6269
 30
0.0
 10
-9.31955
 20
5.6269
 30
0.0
 10
-9.31955
 20
5.6269
 30
0.0
 10
-9.31955
 20
5.02021
 30
0.0
 10
-9.31955
 20
5.02021
 30
0.0
 10
-9.31955
 20
5.02021
 30
0.0
 10
-9.31955
 20
5.02021
 30
0.0
 10
-9.31477
 20
5.02021
 30
0.0
 10
-9.31477
 20
5.02021
 30
0.0
 10
-9.31477
 20
5.02021
 30
0.0
 10
-9.31477
 20
5.02021
 30
0.0
 10
-9.31477
 20
4.39914
 30
0.0
 10
-9.31477
 20
4.39914
 30
0.0
 10
-9.31477
 20
4.39914
 30
0.0
 10
-9.31477
 20
4.39914
 30
0.0
 10
-11.93719
 20
4.39914
 30
0.0
 10
-11.93719
 20
4.39914
 30
0.0
 10
-11.93719
 20
4.39914
 30
0.0
 10
-11.93719
 20
4.39914
 30
0.0
 10
-11.93719
 20
7.34714
 30
0.0
 10
-11.93719
 20
7.34714
 30
0.0
  0
SPLINE
  5
46
330
1F
100
AcDbEntity
  8
Layer 1
 62
   242
100
AcDbSpline
210
0.0
220
0.0
230
1.0
 70
    11
 71
     3
 72
    36
 73
    32
 74
     0
 42
0.0000000001
 43
0.0000000001
 12
1.0
 22
0.0
 32
0.0
 13
1.0
 23
0.0
 33
0.0
 40
0.0
 40
0.0
 40
0.0
 40
0.0
 40
0.1111111111111111
 40
0.1111111111111111
 40
0.1111111111111111
 40
0.1111111111111111
 40
0.2222222222222222
 40
0.2222222222222222
 40
0.2222222222222222
 40
0.2222222222222222
 40
0.3333333333333333
 40
0.3333333333333333
 40
0.3333333333333333
 40
0.3333333333333333
 40
0.4444444444444444
 40
0.4444444444444444
 40
0.4444444444444444
 40
0.4444444444444444
 40
0.5555555555555556
 40
0.5555555555555556
 40
0.5555555555555556
 40
0.5555555555555556
 40
0.6666666666666666
 40
0.6666666666666666
 40
0.6666666666666666
 40
0.6666666666666666
 40
0.7777777777777778
 40
0.7777777777777778
 40
0.7777777777777778
 40
0.7777777777777778
 40
1.0
 40
1.0
 40
1.0
 40
1.0
 10
-6.12133
 20
5.02021
 30
0.0
 10
-6.12133
 20
5.02021
 30
0.0
 10
-6.11651
 20
5.02021
 30
0.0
 10
-6.11651
 20
5.02021
 30
0.0
 10
-6.11651
 20
5.02021
 30
0.0
 10
-6.11651
 20
5.02021
 30
0.0
 10
-6.11651
 20
5.6269
 30
0.0
 10
-6.11651
 20
5.6269
 30
0.0
 10
-6.11651
 20
5.6269
 30
0.0
 10
-5.64177
 20
5.6269
 30
0.0
 10
-5.14662
 20
5.6269
 30
0.0
 10
-4.68538
 20
5.6269
 30
0.0
 10
-4.68538
 20
5.6269
 30
0.0
 10
-4.68538
 20
5.6269
 30
0.0
 10
-4.68538
 20
7.34714
 30
0.0
 10
-4.68538
 20
7.34714
 30
0.0
 10
-4.68538
 20
7.34714
 30
0.0
 10
-4.68538
 20
7.34714
 30
0.0
 10
-3.51497
 20
7.34714
 30
0.0
 10
-3.51497
 20
7.34714
 30
0.0
 10
-3.51497
 20
7.34714
 30
0.0
 10
-3.51497
 20
7.34714
 30
0.0
 10
-3.51497
 20
4.39914
 30
0.0
 10
-3.51497
 20
4.39914
 30
0.0
 10
-3.51497
 20
4.39914
 30
0.0
 10
-3.51497
 20
4.39914
 30
0.0
 10
-6.12133
 20
4.39914
 30
0.0
 10
-6.12133
 20
4.39914
 30
0.0
 10
-6.12133
 20
4.39914
 30
0.0
 10
-6.12133
 20
4.39914
 30
0.0
 10
-6.12133
 20
5.02021
 30
0.0
 10
-6.12133
 20
5.02021
 30
0.0
  0
SPLINE
  5
47
330
1F
100
AcDbEntity
  8
Layer 1
 62
   242
100
AcDbSpline
210
0.0
220
0.0
230
1.0
 70
    11
 71
     3
 72
    20
 73
    16
 74
     0
 42
0.0000000001
 43
0.0000000001
 12
1.0
 22
0.0
 32
0.0
 13
1.0
 23
0.0
 33
0.0
 40
0.0
 40
0.0
 40
0.0
 40
0.0
 40
0.2
 40
0.2
 40
0.2
 40
0.2
 40
0.4
 40
0.4
 40
0.4
 40
0.4
 40
0.6
 40
0.6
 40
0.6
 40
0.6
 40
1.0
 40
1.0
 40
1.0
 40
1.0
 10
-3.51497
 20
12.77378
 30
0.0
 10
-3.51497
 20
12.77378
 30
0.0
 10
-6.11651
 20
12.77378
 30
0.0
 10
-6.11651
 20
12.77378
 30
0.0
 10
-6.11651
 20
12.77378
 30
0.0
 10
-6.11651
 20
12.77378
 30
0.0
 10
-6.11651
 20
13.27346
 30
0.0
 10
-6.11651
 20
13.27346
 30
0.0
 10
-6.11651
 20
13.27346
 30
0.0
 10
-6.11651
 20
13.27346
 30
0.0
 10
-3.51497
 20
13.27346
 30
0.0
 10
-3.51497
 20
13.27346
 30
0.0
 10
-3.51497
 20
13.27346
 30
0.0
 10
-3.51497
 20
13.27346
 30
0.0
 10
-3.51497
 20
12.77378
 30
0.0
 10
-3.51497
 20
12.77378
 30
0.0
  0
SPLINE
  5
48
330
1F
100
AcDbEntity
  8
Layer 1
 62
   242
100
AcDbSpline
210
0.0
220
0.0
230
1.0
 70
    11
 71
     3
 72
    20
 73
    16
 74
     0
 42
0.0000000001
 43
0.0000000001
 12
1.0
 22
0.0
 32
0.0
 13
1.0
 23
0.0
 33
0.0
 40
0.0
 40
0.0
 40
0.0
 40
0.0
 40
0.2
 40
0.2
 40
0.2
 40
0.2
 40
0.4
 40
0.4
 40
0.4
 40
0.4
 40
0.6
 40
0.6
 40
0.6
 40
0.6
 40
1.0
 40
1.0
 40
1.0
 40
1.0
 10
-6.47367
 20
13.27346
 30
0.0
 10
-6.47367
 20
13.27346
 30
0.0
 10
-6.47367
 20
12.77378
 30
0.0
 10
-6.47367
 20
12.77378
 30
0.0
 10
-6.47367
 20
12.77378
 30
0.0
 10
-6.47367
 20
12.77378
 30
0.0
 10
-8.96239
 20
12.77378
 30
0.0
 10
-8.96239
 20
12.77378
 30
0.0
 10
-8.96239
 20
12.77378
 30
0.0
 10
-8.96239
 20
12.77378
 30
0.0
 10
-8.96239
 20
13.27346
 30
0.0
 10
-8.96239
 20
13.27346
 30
0.0
 10
-8.96239
 20
13.27346
 30
0.0
 10
-8.96239
 20
13.27346
 30
0.0
 10
-6.47367
 20
13.27346
 30
0.0
 10
-6.47367
 20
13.27346
 30
0.0
  0
SPLINE
  5
49
330
1F
100
AcDbEntity
  8
Layer 1
 62
   242
100
AcDbSpline
210
0.0
220
0.0
230
1.0
 70
    11
 71
     3
 72
    20
 73
    16
 74
     0
 42
0.0000000001
 43
0.0000000001
 12
1.0
 22
0.0
 32
0.0
 13
1.0
 23
0.0
 33
0.0
 40
0.0
 40
0.0
 40
0.0
 40
0.0
 40
0.2
 40
0.2
 40
0.2
 40
0.2
 40
0.4
 40
0.4
 40
0.4
 40
0.4
 40
0.6
 40
0.6
 40
0.6
 40
0.6
 40
1.0
 40
1.0
 40
1.0
 40
1.0
 10
-9.31955
 20
13.27346
 30
0.0
 10
-9.31955
 20
13.27346
 30
0.0
 10
-9.31955
 20
12.77378
 30
0.0
 10
-9.31955
 20
12.77378
 30
0.0
 10
-9.31955
 20
12.77378
 30
0.0
 10
-9.31955
 20
12.77378
 30
0.0
 10
-11.93719
 20
12.77378
 30
0.0
 10
-11.93719
 20
12.77378
 30
0.0
 10
-11.93719
 20
12.77378
 30
0.0
 10
-11.93719
 20
12.77378
 30
0.0
 10
-11.93719
 20
13.27346
 30
0.0
 10
-11.93719
 20
13.27346
 30
0.0
 10
-11.93719
 20
13.27346
 30
0.0
 10
-11.93719
 20
13.27346
 30
0.0
 10
-9.31955
 20
13.27346
 30
0.0
 10
-9.31955
 20
13.27346
 30
0.0
  0
SPLINE
  5
4A
330
1F
100
AcDbEntity
  8
Layer 1
 62
   242
100
AcDbSpline
210
0.0
220
0.0
230
1.0
 70
    11
 71
     3
 72
    20
 73
    16
 74
     0
 42
0.0000000001
 43
0.0000000001
 12
1.0
 22
0.0
 32
0.0
 13
1.0
 23
0.0
 33
0.0
 40
0.0
 40
0.0
 40
0.0
 40
0.0
 40
0.2
 40
0.2
 40
0.2
 40
0.2
 40
0.4
 40
0.4
 40
0.4
 40
0.4
 40
0.6
 40
0.6
 40
0.6
 40
0.6
 40
1.0
 40
1.0
 40
1.0
 40
1.0
 10
-3.51497
 20
7.68009
 30
0.0
 10
-3.51497
 20
7.68009
 30
0.0
 10
-4.68538
 20
7.68009
 30
0.0
 10
-4.68538
 20
7.68009
 30
0.0
 10
-4.68538
 20
7.68009
 30
0.0
 10
-4.68538
 20
7.68009
 30
0.0
 10
-4.68538
 20
9.00811
 30
0.0
 10
-4.68538
 20
9.00811
 30
0.0
 10
-4.68538
 20
9.00811
 30
0.0
 10
-4.68538
 20
9.00811
 30
0.0
 10
-3.51497
 20
9.00811
 30
0.0
 10
-3.51497
 20
9.00811
 30
0.0
 10
-3.51497
 20
9.00811
 30
0.0
 10
-3.51497
 20
9.00811
 30
0.0
 10
-3.51497
 20
7.68009
 30
0.0
 10
-3.51497
 20
7.68009
 30
0.0
  0
SPLINE
  5
4B
330
1F
100
AcDbEntity
  8
Layer 1
 62
   242
100
AcDbSpline
210
0.0
220
0.0
230
1.0
 70
    11
 71
     3
 72
    20
 73
    16
 74
     0
 42
0.0000000001
 43
0.0000000001
 12
1.0
 22
0.0
 32
0.0
 13
1.0
 23
0.0
 33
0.0
 40
0.0
 40
0.0
 40
0.0
 40
0.0
 40
0.2
 40
0.2
 40
0.2
 40
0.2
 40
0.4
 40
0.4
 40
0.4
 40
0.4
 40
0.6
 40
0.6
 40
0.6
 40
0.6
 40
1.0
 40
1.0
 40
1.0
 40
1.0
 10
-3.51497
 20
9.34101
 30
0.0
 10
-3.51497
 20
9.34101
 30
0.0
 10
-4.68538
 20
9.34101
 30
0.0
 10
-4.68538
 20
9.34101
 30
0.0
 10
-4.68538
 20
9.34101
 30
0.0
 10
-4.68538
 20
9.34101
 30
0.0
 10
-4.68538
 20
12.44088
 30
0.0
 10
-4.68538
 20
12.44088
 30
0.0
 10
-4.68538
 20
12.44088
 30
0.0
 10
-4.68538
 20
12.44088
 30
0.0
 10
-3.51497
 20
12.44088
 30
0.0
 10
-3.51497
 20
12.44088
 30
0.0
 10
-3.51497
 20
12.44088
 30
0.0
 10
-3.51497
 20
12.44088
 30
0.0
 10
-3.51497
 20
9.34101
 30
0.0
 10
-3.51497
 20
9.34101
 30
0.0
  0
SPLINE
  5
4C
330
1F
100
AcDbEntity
  8
Layer 1
 62
   242
100
AcDbSpline
210
0.0
220
0.0
230
1.0
 70
    11
 71
     3
 72
    20
 73
    16
 74
     0
 42
0.0000000001
 43
0.0000000001
 12
1.0
 22
0.0
 32
0.0
 13
1.0
 23
0.0
 33
0.0
 40
0.0
 40
0.0
 40
0.0
 40
0.0
 40
0.2
 40
0.2
 40
0.2
 40
0.2
 40
0.4
 40
0.4
 40
0.4
 40
0.4
 40
0.6
 40
0.6
 40
0.6
 40
0.6
 40
1.0
 40
1.0
 40
1.0
 40
1.0
 10
-11.93719
 20
12.44088
 30
0.0
 10
-11.93719
 20
12.44088
 30
0.0
 10
-10.75072
 20
12.44088
 30
0.0
 10
-10.75072
 20
12.44088
 30
0.0
 10
-10.75072
 20
12.44088
 30
0.0
 10
-10.75072
 20
12.44088
 30
0.0
 10
-10.75072
 20
9.34101
 30
0.0
 10
-10.75072
 20
9.34101
 30
0.0
 10
-10.75072
 20
9.34101
 30
0.0
 10
-10.75072
 20
9.34101
 30
0.0
 10
-11.93719
 20
9.34101
 30
0.0
 10
-11.93719
 20
9.34101
 30
0.0
 10
-11.93719
 20
9.34101
 30
0.0
 10
-11.93719
 20
9.34101
 30
0.0
 10
-11.93719
 20
12.44088
 30
0.0
 10
-11.93719
 20
12.44088
 30
0.0
  0
SPLINE
  5
4D
330
1F
100
AcDbEntity
  8
Layer 1
 62
   242
100
AcDbSpline
210
0.0
220
0.0
230
1.0
 70
    11
 71
     3
 72
    20
 73
    16
 74
     0
 42
0.0000000001
 43
0.0000000001
 12
1.0
 22
0.0
 32
0.0
 13
1.0
 23
0.0
 33
0.0
 40
0.0
 40
0.0
 40
0.0
 40
0.0
 40
0.2
 40
0.2
 40
0.2
 40
0.2
 40
0.4
 40
0.4
 40
0.4
 40
0.4
 40
0.6
 40
0.6
 40
0.6
 40
0.6
 40
1.0
 40
1.0
 40
1.0
 40
1.0
 10
-11.93719
 20
9.00811
 30
0.0
 10
-11.93719
 20
9.00811
 30
0.0
 10
-10.75072
 20
9.00811
 30
0.0
 10
-10.75072
 20
9.00811
 30
0.0
 10
-10.75072
 20
9.00811
 30
0.0
 10
-10.75072
 20
9.00811
 30
0.0
 10
-10.75072
 20
7.68009
 30
0.0
 10
-10.75072
 20
7.68009
 30
0.0
 10
-10.75072
 20
7.68009
 30
0.0
 10
-10.75072
 20
7.68009
 30
0.0
 10
-11.93719
 20
7.68009
 30
0.0
 10
-11.93719
 20
7.68009
 30
0.0
 10
-11.93719
 20
7.68009
 30
0.0
 10
-11.93719
 20
7.68009
 30
0.0
 10
-11.93719
 20
9.00811
 30
0.0
 10
-11.93719
 20
9.00811
 30
0.0
  0
SPLINE
  5
4E
330
1F
100
AcDbEntity
  8
Layer 1
 62
   242
100
AcDbSpline
210
0.0
220
0.0
230
1.0
 70
    11
 71
     3
 72
    20
 73
    16
 74
     0
 42
0.0000000001
 43
0.0000000001
 12
1.0
 22
0.0
 32
0.0
 13
1.0
 23
0.0
 33
0.0
 40
0.0
 40
0.0
 40
0.0
 40
0.0
 40
0.2
 40
0.2
 40
0.2
 40
0.2
 40
0.4
 40
0.4
 40
0.4
 40
0.4
 40
0.6
 40
0.6
 40
0.6
 40
0.6
 40
1.0
 40
1.0
 40
1.0
 40
1.0
 10
-10.39356
 20
11.05648
 30
0.0
 10
-10.39356
 20
11.05648
 30
0.0
 10
-7.89661
 20
11.05648
 30
0.0
 10
-7.89661
 20
11.05648
 30
0.0
 10
-7.89661
 20
11.05648
 30
0.0
 10
-7.89661
 20
11.05648
 30
0.0
 10
-7.89661
 20
12.44088
 30
0.0
 10
-7.89661
 20
12.44088
 30
0.0
 10
-7.89661
 20
12.44088
 30
0.0
 10
-7.89661
 20
12.44088
 30
0.0
 10
-10.39356
 20
12.44088
 30
0.0
 10
-10.39356
 20
12.44088
 30
0.0
 10
-10.39356
 20
12.44088
 30
0.0
 10
-10.39356
 20
12.44088
 30
0.0
 10
-10.39356
 20
11.05648
 30
0.0
 10
-10.39356
 20
11.05648
 30
0.0
  0
SPLINE
  5
4F
330
1F
100
AcDbEntity
  8
Layer 1
 62
   242
100
AcDbSpline
210
0.0
220
0.0
230
1.0
 70
    11
 71
     3
 72
    20
 73
    16
 74
     0
 42
0.0000000001
 43
0.0000000001
 12
1.0
 22
0.0
 32
0.0
 13
1.0
 23
0.0
 33
0.0
 40
0.0
 40
0.0
 40
0.0
 40
0.0
 40
0.2
 40
0.2
 40
0.2
 40
0.2
 40
0.4
 40
0.4
 40
0.4
 40
0.4
 40
0.6
 40
0.6
 40
0.6
 40
0.6
 40
1.0
 40
1.0
 40
1.0
 40
1.0
 10
-7.5395
 20
11.05648
 30
0.0
 10
-7.5395
 20
11.05648
 30
0.0
 10
-5.04936
 20
11.05648
 30
0.0
 10
-5.04936
 20
11.05648
 30
0.0
 10
-5.04936
 20
11.05648
 30
0.0
 10
-5.04936
 20
11.05648
 30
0.0
 10
-5.04936
 20
12.44088
 30
0.0
 10
-5.04936
 20
12.44088
 30
0.0
 10
-5.04936
 20
12.44088
 30
0.0
 10
-5.04936
 20
12.44088
 30
0.0
 10
-7.5395
 20
12.44088
 30
0.0
 10
-7.5395
 20
12.44088
 30
0.0
 10
-7.5395
 20
12.44088
 30
0.0
 10
-7.5395
 20
12.44088
 30
0.0
 10
-7.5395
 20
11.05648
 30
0.0
 10
-7.5395
 20
11.05648
 30
0.0
  0
SPLINE
  5
50
330
1F
100
AcDbEntity
  8
Layer 1
 62
   242
100
AcDbSpline
210
0.0
220
0.0
230
1.0
 70
    11
 71
     3
 72
    20
 73
    16
 74
     0
 42
0.0000000001
 43
0.0000000001
 12
1.0
 22
0.0
 32
0.0
 13
1.0
 23
0.0
 33
0.0
 40
0.0
 40
0.0
 40
0.0
 40
0.0
 40
0.2
 40
0.2
 40
0.2
 40
0.2
 40
0.4
 40
0.4
 40
0.4
 40
0.4
 40
0.6
 40
0.6
 40
0.6
 40
0.6
 40
1.0
 40
1.0
 40
1.0
 40
1.0
 10
-5.04936
 20
10.72353
 30
0.0
 10
-5.04936
 20
10.72353
 30
0.0
 10
-6.11651
 20
10.72353
 30
0.0
 10
-6.11651
 20
10.72353
 30
0.0
 10
-6.11651
 20
10.72353
 30
0.0
 10
-6.11651
 20
10.72353
 30
0.0
 10
-6.11651
 20
7.68009
 30
0.0
 10
-6.11651
 20
7.68009
 30
0.0
 10
-6.11651
 20
7.68009
 30
0.0
 10
-6.11651
 20
7.68009
 30
0.0
 10
-5.04936
 20
7.68009
 30
0.0
 10
-5.04936
 20
7.68009
 30
0.0
 10
-5.04936
 20
7.68009
 30
0.0
 10
-5.04936
 20
7.68009
 30
0.0
 10
-5.04936
 20
10.72353
 30
0.0
 10
-5.04936
 20
10.72353
 30
0.0
  0
SPLINE
  5
51
330
1F
100
AcDbEntity
  8
Layer 1
 62
   242
100
AcDbSpline
210
0.0
220
0.0
230
1.0
 70
    11
 71
     3
 72
    20
 73
    16
 74
     0
 42
0.0000000001
 43
0.0000000001
 12
1.0
 22
0.0
 32
0.0
 13
1.0
 23
0.0
 33
0.0
 40
0.0
 40
0.0
 40
0.0
 40
0.0
 40
0.2
 40
0.2
 40
0.2
 40
0.2
 40
0.4
 40
0.4
 40
0.4
 40
0.4
 40
0.6
 40
0.6
 40
0.6
 40
0.6
 40
1.0
 40
1.0
 40
1.0
 40
1.0
 10
-6.47367
 20
10.72353
 30
0.0
 10
-6.47367
 20
10.72353
 30
0.0
 10
-7.5395
 20
10.72353
 30
0.0
 10
-7.5395
 20
10.72353
 30
0.0
 10
-7.5395
 20
10.72353
 30
0.0
 10
-7.5395
 20
10.72353
 30
0.0
 10
-7.5395
 20
9.34101
 30
0.0
 10
-7.5395
 20
9.34101
 30
0.0
 10
-7.5395
 20
9.34101
 30
0.0
 10
-7.5395
 20
9.34101
 30
0.0
 10
-6.47367
 20
9.34101
 30
0.0
 10
-6.47367
 20
9.34101
 30
0.0
 10
-6.47367
 20
9.34101
 30
0.0
 10
-6.47367
 20
9.34101
 30
0.0
 10
-6.47367
 20
10.72353
 30
0.0
 10
-6.47367
 20
10.72353
 30
0.0
  0
SPLINE
  5
52
330
1F
100
AcDbEntity
  8
Layer 1
 62
   242
100
AcDbSpline
210
0.0
220
0.0
230
1.0
 70
    11
 71
     3
 72
    20
 73
    16
 74
     0
 42
0.0000000001
 43
0.0000000001
 12
1.0
 22
0.0
 32
0.0
 13
1.0
 23
0.0
 33
0.0
 40
0.0
 40
0.0
 40
0.0
 40
0.0
 40
0.2
 40
0.2
 40
0.2
 40
0.2
 40
0.4
 40
0.4
 40
0.4
 40
0.4
 40
0.6
 40
0.6
 40
0.6
 40
0.6
 40
1.0
 40
1.0
 40
1.0
 40
1.0
 10
-7.89661
 20
10.72353
 30
0.0
 10
-7.89661
 20
10.72353
 30
0.0
 10
-8.96239
 20
10.72353
 30
0.0
 10
-8.96239
 20
10.72353
 30
0.0
 10
-8.96239
 20
10.72353
 30
0.0
 10
-8.96239
 20
10.72353
 30
0.0
 10
-8.96239
 20
9.34101
 30
0.0
 10
-8.96239
 20
9.34101
 30
0.0
 10
-8.96239
 20
9.34101
 30
0.0
 10
-8.96239
 20
9.34101
 30
0.0
 10
-7.89661
 20
9.34101
 30
0.0
 10
-7.89661
 20
9.34101
 30
0.0
 10
-7.89661
 20
9.34101
 30
0.0
 10
-7.89661
 20
9.34101
 30
0.0
 10
-7.89661
 20
10.72353
 30
0.0
 10
-7.89661
 20
10.72353
 30
0.0
  0
SPLINE
  5
53
330
1F
100
AcDbEntity
  8
Layer 1
 62
   242
100
AcDbSpline
210
0.0
220
0.0
230
1.0
 70
    11
 71
     3
 72
    20
 73
    16
 74
     0
 42
0.0000000001
 43
0.0000000001
 12
1.0
 22
0.0
 32
0.0
 13
1.0
 23
0.0
 33
0.0
 40
0.0
 40
0.0
 40
0.0
 40
0.0
 40
0.2
 40
0.2
 40
0.2
 40
0.2
 40
0.4
 40
0.4
 40
0.4
 40
0.4
 40
0.6
 40
0.6
 40
0.6
 40
0.6
 40
1.0
 40
1.0
 40
1.0
 40
1.0
 10
-9.31955
 20
10.72353
 30
0.0
 10
-9.31955
 20
10.72353
 30
0.0
 10
-10.39356
 20
10.72353
 30
0.0
 10
-10.39356
 20
10.72353
 30
0.0
 10
-10.39356
 20
10.72353
 30
0.0
 10
-10.39356
 20
10.72353
 30
0.0
 10
-10.39356
 20
7.68009
 30
0.0
 10
-10.39356
 20
7.68009
 30
0.0
 10
-10.39356
 20
7.68009
 30
0.0
 10
-10.39356
 20
7.68009
 30
0.0
 10
-9.31955
 20
7.68009
 30
0.0
 10
-9.31955
 20
7.68009
 30
0.0
 10
-9.31955
 20
7.68009
 30
0.0
 10
-9.31955
 20
7.68009
 30
0.0
 10
-9.31955
 20
10.72353
 30
0.0
 10
-9.31955
 20
10.72353
 30
0.0
  0
SPLINE
  5
54
330
1F
100
AcDbEntity
  8
Layer 1
 62
   242
100
AcDbSpline
210
0.0
220
0.0
230
1.0
 70
    11
 71
     3
 72
    20
 73
    16
 74
     0
 42
0.0000000001
 43
0.0000000001
 12
1.0
 22
0.0
 32
0.0
 13
1.0
 23
0.0
 33
0.0
 40
0.0
 40
0.0
 40
0.0
 40
0.0
 40
0.2
 40
0.2
 40
0.2
 40
0.2
 40
0.4
 40
0.4
 40
0.4
 40
0.4
 40
0.6
 40
0.6
 40
0.6
 40
0.6
 40
1.0
 40
1.0
 40
1.0
 40
1.0
 10
-6.47367
 20
9.00811
 30
0.0
 10
-6.47367
 20
9.00811
 30
0.0
 10
-7.5395
 20
9.00811
 30
0.0
 10
-7.5395
 20
9.00811
 30
0.0
 10
-7.5395
 20
9.00811
 30
0.0
 10
-7.5395
 20
9.00811
 30
0.0
 10
-7.5395
 20
7.68009
 30
0.0
 10
-7.5395
 20
7.68009
 30
0.0
 10
-7.5395
 20
7.68009
 30
0.0
 10
-7.5395
 20
7.68009
 30
0.0
 10
-6.47367
 20
7.68009
 30
0.0
 10
-6.47367
 20
7.68009
 30
0.0
 10
-6.47367
 20
7.68009
 30
0.0
 10
-6.47367
 20
7.68009
 30
0.0
 10
-6.47367
 20
9.00811
 30
0.0
 10
-6.47367
 20
9.00811
 30
0.0
  0
SPLINE
  5
55
330
1F
100
AcDbEntity
  8
Layer 1
 62
   242
100
AcDbSpline
210
0.0
220
0.0
230
1.0
 70
    11
 71
     3
 72
    20
 73
    16
 74
     0
 42
0.0000000001
 43
0.0000000001
 12
1.0
 22
0.0
 32
0.0
 13
1.0
 23
0.0
 33
0.0
 40
0.0
 40
0.0
 40
0.0
 40
0.0
 40
0.2
 40
0.2
 40
0.2
 40
0.2
 40
0.4
 40
0.4
 40
0.4
 40
0.4
 40
0.6
 40
0.6
 40
0.6
 40
0.6
 40
1.0
 40
1.0
 40
1.0
 40
1.0
 10
-7.89661
 20
9.00811
 30
0.0
 10
-7.89661
 20
9.00811
 30
0.0
 10
-8.96239
 20
9.00811
 30
0.0
 10
-8.96239
 20
9.00811
 30
0.0
 10
-8.96239
 20
9.00811
 30
0.0
 10
-8.96239
 20
9.00811
 30
0.0
 10
-8.96239
 20
7.68009
 30
0.0
 10
-8.96239
 20
7.68009
 30
0.0
 10
-8.96239
 20
7.68009
 30
0.0
 10
-8.96239
 20
7.68009
 30
0.0
 10
-7.89661
 20
7.68009
 30
0.0
 10
-7.89661
 20
7.68009
 30
0.0
 10
-7.89661
 20
7.68009
 30
0.0
 10
-7.89661
 20
7.68009
 30
0.0
 10
-7.89661
 20
9.00811
 30
0.0
 10
-7.89661
 20
9.00811
 30
0.0
  0
SPLINE
  5
56
330
1F
100
AcDbEntity
  8
Layer 1
 62
   242
100
AcDbSpline
210
0.0
220
0.0
230
1.0
 70
    11
 71
     3
 72
    20
 73
    16
 74
     0
 42
0.0000000001
 43
0.0000000001
 12
1.0
 22
0.0
 32
0.0
 13
1.0
 23
0.0
 33
0.0
 40
0.0
 40
0.0
 40
0.0
 40
0.0
 40
0.2
 40
0.2
 40
0.2
 40
0.2
 40
0.4
 40
0.4
 40
0.4
 40
0.4
 40
0.6
 40
0.6
 40
0.6
 40
0.6
 40
1.0
 40
1.0
 40
1.0
 40
1.0
 10
-5.04936
 20
7.34714
 30
0.0
 10
-5.04936
 20
7.34714
 30
0.0
 10
-7.5395
 20
7.34714
 30
0.0
 10
-7.5395
 20
7.34714
 30
0.0
 10
-7.5395
 20
7.34714
 30
0.0
 10
-7.5395
 20
7.34714
 30
0.0
 10
-7.5395
 20
5.96787
 30
0.0
 10
-7.5395
 20
5.96787
 30
0.0
 10
-7.5395
 20
5.96787
 30
0.0
 10
-7.5395
 20
5.96787
 30
0.0
 10
-5.04936
 20
5.96787
 30
0.0
 10
-5.04936
 20
5.96787
 30
0.0
 10
-5.04936
 20
5.96787
 30
0.0
 10
-5.04936
 20
5.96787
 30
0.0
 10
-5.04936
 20
7.34714
 30
0.0
 10
-5.04936
 20
7.34714
 30
0.0
  0
SPLINE
  5
57
330
1F
100
AcDbEntity
  8
Layer 1
 62
   242
100
AcDbSpline
210
0.0
220
0.0
230
1.0
 70
    11
 71
     3
 72
    20
 73
    16
 74
     0
 42
0.0000000001
 43
0.0000000001
 12
1.0
 22
0.0
 32
0.0
 13
1.0
 23
0.0
 33
0.0
 40
0.0
 40
0.0
 40
0.0
 40
0.0
 40
0.2
 40
0.2
 40
0.2
 40
0.2
 40
0.4
 40
0.4
 40
0.4
 40
0.4
 40
0.6
 40
0.6
 40
0.6
 40
0.6
 40
1.0
 40
1.0
 40
1.0
 40
1.0
 10
-7.89661
 20
5.96787
 30
0.0
 10
-7.89661
 20
5.96787
 30
0.0
 10
-7.89661
 20
7.34714
 30
0.0
 10
-7.89661
 20
7.34714
 30
0.0
 10
-7.89661
 20
7.34714
 30
0.0
 10
-7.89661
 20
7.34714
 30
0.0
 10
-10.39356
 20
7.34714
 30
0.0
 10
-10.39356
 20
7.34714
 30
0.0
 10
-10.39356
 20
7.34714
 30
0.0
 10
-10.39356
 20
7.34714
 30
0.0
 10
-10.39356
 20
5.96787
 30
0.0
 10
-10.39356
 20
5.96787
 30
0.0
 10
-10.39356
 20
5.96787
 30
0.0
 10
-10.39356
 20
5.96787
 30
0.0
 10
-7.89661
 20
5.96787
 30
0.0
 10
-7.89661
 20
5.96787
 30
0.0
  0
SPLINE
  5
58
330
1F
100
AcDbEntity
  8
Layer 1
 62
   242
100
AcDbSpline
210
0.0
220
0.0
230
1.0
 70
    11
 71
     3
 72
    20
 73
    16
 74
     0
 42
0.0000000001
 43
0.0000000001
 12
1.0
 22
0.0
 32
0.0
 13
1.0
 23
0.0
 33
0.0
 40
0.0
 40
0.0
 40
0.0
 40
0.0
 40
0.2
 40
0.2
 40
0.2
 40
0.2
 40
0.4
 40
0.4
 40
0.4
 40
0.4
 40
0.6
 40
0.6
 40
0.6
 40
0.6
 40
1.0
 40
1.0
 40
1.0
 40
1.0
 10
-3.51497
 20
4.06632
 30
0.0
 10
-3.51497
 20
4.06632
 30
0.0
 10
-4.69465
 20
4.06632
 30
0.0
 10
-4.69465
 20
4.06632
 30
0.0
 10
-4.69465
 20
4.06632
 30
0.0
 10
-4.69465
 20
4.06632
 30
0.0
 10
-4.69465
 20
0.96836
 30
0.0
 10
-4.69465
 20
0.96836
 30
0.0
 10
-4.69465
 20
0.96836
 30
0.0
 10
-4.69465
 20
0.96836
 30
0.0
 10
-3.51497
 20
0.96836
 30
0.0
 10
-3.51497
 20
0.96836
 30
0.0
 10
-3.51497
 20
0.96836
 30
0.0
 10
-3.51497
 20
0.96836
 30
0.0
 10
-3.51497
 20
4.06632
 30
0.0
 10
-3.51497
 20
4.06632
 30
0.0
  0
SPLINE
  5
59
330
1F
100
AcDbEntity
  8
Layer 1
 62
   242
100
AcDbSpline
210
0.0
220
0.0
230
1.0
 70
    11
 71
     3
 72
    20
 73
    16
 74
     0
 42
0.0000000001
 43
0.0000000001
 12
1.0
 22
0.0
 32
0.0
 13
1.0
 23
0.0
 33
0.0
 40
0.0
 40
0.0
 40
0.0
 40
0.0
 40
0.2
 40
0.2
 40
0.2
 40
0.2
 40
0.4
 40
0.4
 40
0.4
 40
0.4
 40
0.6
 40
0.6
 40
0.6
 40
0.6
 40
1.0
 40
1.0
 40
1.0
 40
1.0
 10
-3.51497
 20
0.63558
 30
0.0
 10
-3.51497
 20
0.63558
 30
0.0
 10
-4.69465
 20
0.63558
 30
0.0
 10
-4.69465
 20
0.63558
 30
0.0
 10
-4.69465
 20
0.63558
 30
0.0
 10
-4.69465
 20
0.63558
 30
0.0
 10
-4.69465
 20
-0.69153
 30
0.0
 10
-4.69465
 20
-0.69153
 30
0.0
 10
-4.69465
 20
-0.69153
 30
0.0
 10
-4.69465
 20
-0.69153
 30
0.0
 10
-3.51497
 20
-0.69153
 30
0.0
 10
-3.51497
 20
-0.69153
 30
0.0
 10
-3.51497
 20
-0.69153
 30
0.0
 10
-3.51497
 20
-0.69153
 30
0.0
 10
-3.51497
 20
0.63558
 30
0.0
 10
-3.51497
 20
0.63558
 30
0.0
  0
SPLINE
  5
5A
330
1F
100
AcDbEntity
  8
Layer 1
 62
   242
100
AcDbSpline
210
0.0
220
0.0
230
1.0
 70
    11
 71
     3
 72
    52
 73
    48
 74
     0
 42
0.0000000001
 43
0.0000000001
 12
1.0
 22
0.0
 32
0.0
 13
1.0
 23
0.0
 33
0.0
 40
0.0
 40
0.0
 40
0.0
 40
0.0
 40
0.0769230769230769
 40
0.0769230769230769
 40
0.0769230769230769
 40
0.0769230769230769
 40
0.1538461538461539
 40
0.1538461538461539
 40
0.1538461538461539
 40
0.1538461538461539
 40
0.2307692307692308
 40
0.2307692307692308
 40
0.2307692307692308
 40
0.2307692307692308
 40
0.3076923076923077
 40
0.3076923076923077
 40
0.3076923076923077
 40
0.3076923076923077
 40
0.3846153846153846
 40
0.3846153846153846
 40
0.3846153846153846
 40
0.3846153846153846
 40
0.4615384615384616
 40
0.4615384615384616
 40
0.4615384615384616
 40
0.4615384615384616
 40
0.5384615384615384
 40
0.5384615384615384
 40
0.5384615384615384
 40
0.5384615384615384
 40
0.6153846153846154
 40
0.6153846153846154
 40
0.6153846153846154
 40
0.6153846153846154
 40
0.6923076923076923
 40
0.6923076923076923
 40
0.6923076923076923
 40
0.6923076923076923
 40
0.7692307692307693
 40
0.7692307692307693
 40
0.7692307692307693
 40
0.7692307692307693
 40
0.8461538461538461
 40
0.8461538461538461
 40
0.8461538461538461
 40
0.8461538461538461
 40
1.0
 40
1.0
 40
1.0
 40
1.0
 10
-3.51497
 20
-1.02435
 30
0.0
 10
-3.51497
 20
-1.02435
 30
0.0
 10
-4.69465
 20
-1.02435
 30
0.0
 10
-4.69465
 20
-1.02435
 30
0.0
 10
-4.69465
 20
-1.02435
 30
0.0
 10
-4.69465
 20
-1.02435
 30
0.0
 10
-4.69465
 20
-2.73557
 30
0.0
 10
-4.69465
 20
-2.73557
 30
0.0
 10
-4.69465
 20
-2.73557
 30
0.0
 10
-4.69465
 20
-2.73557
 30
0.0
 10
-4.74724
 20
-2.73557
 30
0.0
 10
-4.74724
 20
-2.73557
 30
0.0
 10
-4.74724
 20
-2.73557
 30
0.0
 10
-4.74724
 20
-2.73557
 30
0.0
 10
-5.05106
 20
-2.73557
 30
0.0
 10
-5.05106
 20
-2.73557
 30
0.0
 10
-5.05106
 20
-2.73557
 30
0.0
 10
-5.05106
 20
-2.73557
 30
0.0
 10
-6.12133
 20
-2.73557
 30
0.0
 10
-6.12133
 20
-2.73557
 30
0.0
 10
-6.12133
 20
-2.73557
 30
0.0
 10
-6.12133
 20
-2.73557
 30
0.0
 10
-6.12133
 20
-4.20922
 30
0.0
 10
-6.12133
 20
-4.20922
 30
0.0
 10
-6.12133
 20
-4.20922
 30
0.0
 10
-6.12133
 20
-4.20922
 30
0.0
 10
-5.05106
 20
-4.20922
 30
0.0
 10
-5.05106
 20
-4.20922
 30
0.0
 10
-5.05106
 20
-4.20922
 30
0.0
 10
-5.05106
 20
-4.20922
 30
0.0
 10
-4.74724
 20
-4.20922
 30
0.0
 10
-4.74724
 20
-4.20922
 30
0.0
 10
-4.74724
 20
-4.20922
 30
0.0
 10
-4.74724
 20
-4.20922
 30
0.0
 10
-4.69465
 20
-4.20922
 30
0.0
 10
-4.69465
 20
-4.20922
 30
0.0
 10
-4.69465
 20
-4.20922
 30
0.0
 10
-4.69465
 20
-4.20922
 30
0.0
 10
-4.69465
 20
-5.92043
 30
0.0
 10
-4.69465
 20
-5.92043
 30
0.0
 10
-4.69465
 20
-5.92043
 30
0.0
 10
-4.69465
 20
-5.92043
 30
0.0
 10
-3.51497
 20
-5.92043
 30
0.0
 10
-3.51497
 20
-5.92043
 30
0.0
 10
-3.51497
 20
-5.92043
 30
0.0
 10
-3.51497
 20
-5.92043
 30
0.0
 10
-3.51497
 20
-1.02435
 30
0.0
 10
-3.51497
 20
-1.02435
 30
0.0
  0
SPLINE
  5
5B
330
1F
100
AcDbEntity
  8
Layer 1
 62
   242
100
AcDbSpline
210
0.0
220
0.0
230
1.0
 70
    11
 71
     3
 72
    20
 73
    16
 74
     0
 42
0.0000000001
 43
0.0000000001
 12
1.0
 22
0.0
 32
0.0
 13
1.0
 23
0.0
 33
0.0
 40
0.0
 40
0.0
 40
0.0
 40
0.0
 40
0.2
 40
0.2
 40
0.2
 40
0.2
 40
0.4
 40
0.4
 40
0.4
 40
0.4
 40
0.6
 40
0.6
 40
0.6
 40
0.6
 40
1.0
 40
1.0
 40
1.0
 40
1.0
 10
-3.51497
 20
-6.25326
 30
0.0
 10
-3.51497
 20
-6.25326
 30
0.0
 10
-4.69465
 20
-6.25326
 30
0.0
 10
-4.69465
 20
-6.25326
 30
0.0
 10
-4.69465
 20
-6.25326
 30
0.0
 10
-4.69465
 20
-6.25326
 30
0.0
 10
-4.69465
 20
-7.58042
 30
0.0
 10
-4.69465
 20
-7.58042
 30
0.0
 10
-4.69465
 20
-7.58042
 30
0.0
 10
-4.69465
 20
-7.58042
 30
0.0
 10
-3.51497
 20
-7.58042
 30
0.0
 10
-3.51497
 20
-7.58042
 30
0.0
 10
-3.51497
 20
-7.58042
 30
0.0
 10
-3.51497
 20
-7.58042
 30
0.0
 10
-3.51497
 20
-6.25326
 30
0.0
 10
-3.51497
 20
-6.25326
 30
0.0
  0
SPLINE
  5
5C
330
1F
100
AcDbEntity
  8
Layer 1
 62
   242
100
AcDbSpline
210
0.0
220
0.0
230
1.0
 70
    11
 71
     3
 72
    20
 73
    16
 74
     0
 42
0.0000000001
 43
0.0000000001
 12
1.0
 22
0.0
 32
0.0
 13
1.0
 23
0.0
 33
0.0
 40
0.0
 40
0.0
 40
0.0
 40
0.0
 40
0.2
 40
0.2
 40
0.2
 40
0.2
 40
0.4
 40
0.4
 40
0.4
 40
0.4
 40
0.6
 40
0.6
 40
0.6
 40
0.6
 40
1.0
 40
1.0
 40
1.0
 40
1.0
 10
-3.51497
 20
-7.91319
 30
0.0
 10
-3.51497
 20
-7.91319
 30
0.0
 10
-4.69465
 20
-7.91319
 30
0.0
 10
-4.69465
 20
-7.91319
 30
0.0
 10
-4.69465
 20
-7.91319
 30
0.0
 10
-4.69465
 20
-7.91319
 30
0.0
 10
-4.69465
 20
-11.01116
 30
0.0
 10
-4.69465
 20
-11.01116
 30
0.0
 10
-4.69465
 20
-11.01116
 30
0.0
 10
-4.69465
 20
-11.01116
 30
0.0
 10
-3.51497
 20
-11.01116
 30
0.0
 10
-3.51497
 20
-11.01116
 30
0.0
 10
-3.51497
 20
-11.01116
 30
0.0
 10
-3.51497
 20
-11.01116
 30
0.0
 10
-3.51497
 20
-7.91319
 30
0.0
 10
-3.51497
 20
-7.91319
 30
0.0
  0
SPLINE
  5
5D
330
1F
100
AcDbEntity
  8
Layer 1
 62
   242
100
AcDbSpline
210
0.0
220
0.0
230
1.0
 70
    11
 71
     3
 72
    20
 73
    16
 74
     0
 42
0.0000000001
 43
0.0000000001
 12
1.0
 22
0.0
 32
0.0
 13
1.0
 23
0.0
 33
0.0
 40
0.0
 40
0.0
 40
0.0
 40
0.0
 40
0.2
 40
0.2
 40
0.2
 40
0.2
 40
0.4
 40
0.4
 40
0.4
 40
0.4
 40
0.6
 40
0.6
 40
0.6
 40
0.6
 40
1.0
 40
1.0
 40
1.0
 40
1.0
 10
-11.93719
 20
-11.01116
 30
0.0
 10
-11.93719
 20
-11.01116
 30
0.0
 10
-10.7415
 20
-11.01116
 30
0.0
 10
-10.7415
 20
-11.01116
 30
0.0
 10
-10.7415
 20
-11.01116
 30
0.0
 10
-10.7415
 20
-11.01116
 30
0.0
 10
-10.7415
 20
-7.91319
 30
0.0
 10
-10.7415
 20
-7.91319
 30
0.0
 10
-10.7415
 20
-7.91319
 30
0.0
 10
-10.7415
 20
-7.91319
 30
0.0
 10
-11.93719
 20
-7.91319
 30
0.0
 10
-11.93719
 20
-7.91319
 30
0.0
 10
-11.93719
 20
-7.91319
 30
0.0
 10
-11.93719
 20
-7.91319
 30
0.0
 10
-11.93719
 20
-11.01116
 30
0.0
 10
-11.93719
 20
-11.01116
 30
0.0
  0
SPLINE
  5
5E
330
1F
100
AcDbEntity
  8
Layer 1
 62
   242
100
AcDbSpline
210
0.0
220
0.0
230
1.0
 70
    11
 71
     3
 72
    20
 73
    16
 74
     0
 42
0.0000000001
 43
0.0000000001
 12
1.0
 22
0.0
 32
0.0
 13
1.0
 23
0.0
 33
0.0
 40
0.0
 40
0.0
 40
0.0
 40
0.0
 40
0.2
 40
0.2
 40
0.2
 40
0.2
 40
0.4
 40
0.4
 40
0.4
 40
0.4
 40
0.6
 40
0.6
 40
0.6
 40
0.6
 40
1.0
 40
1.0
 40
1.0
 40
1.0
 10
-11.93719
 20
-7.58042
 30
0.0
 10
-11.93719
 20
-7.58042
 30
0.0
 10
-10.7415
 20
-7.58042
 30
0.0
 10
-10.7415
 20
-7.58042
 30
0.0
 10
-10.7415
 20
-7.58042
 30
0.0
 10
-10.7415
 20
-7.58042
 30
0.0
 10
-10.7415
 20
-6.25326
 30
0.0
 10
-10.7415
 20
-6.25326
 30
0.0
 10
-10.7415
 20
-6.25326
 30
0.0
 10
-10.7415
 20
-6.25326
 30
0.0
 10
-11.93719
 20
-6.25326
 30
0.0
 10
-11.93719
 20
-6.25326
 30
0.0
 10
-11.93719
 20
-6.25326
 30
0.0
 10
-11.93719
 20
-6.25326
 30
0.0
 10
-11.93719
 20
-7.58042
 30
0.0
 10
-11.93719
 20
-7.58042
 30
0.0
  0
SPLINE
  5
5F
330
1F
100
AcDbEntity
  8
Layer 1
 62
   242
100
AcDbSpline
210
0.0
220
0.0
230
1.0
 70
    11
 71
     3
 72
    52
 73
    48
 74
     0
 42
0.0000000001
 43
0.0000000001
 12
1.0
 22
0.0
 32
0.0
 13
1.0
 23
0.0
 33
0.0
 40
0.0
 40
0.0
 40
0.0
 40
0.0
 40
0.0769230769230769
 40
0.0769230769230769
 40
0.0769230769230769
 40
0.0769230769230769
 40
0.1538461538461539
 40
0.1538461538461539
 40
0.1538461538461539
 40
0.1538461538461539
 40
0.2307692307692308
 40
0.2307692307692308
 40
0.2307692307692308
 40
0.2307692307692308
 40
0.3076923076923077
 40
0.3076923076923077
 40
0.3076923076923077
 40
0.3076923076923077
 40
0.3846153846153846
 40
0.3846153846153846
 40
0.3846153846153846
 40
0.3846153846153846
 40
0.4615384615384616
 40
0.4615384615384616
 40
0.4615384615384616
 40
0.4615384615384616
 40
0.5384615384615384
 40
0.5384615384615384
 40
0.5384615384615384
 40
0.5384615384615384
 40
0.6153846153846154
 40
0.6153846153846154
 40
0.6153846153846154
 40
0.6153846153846154
 40
0.6923076923076923
 40
0.6923076923076923
 40
0.6923076923076923
 40
0.6923076923076923
 40
0.7692307692307693
 40
0.7692307692307693
 40
0.7692307692307693
 40
0.7692307692307693
 40
0.8461538461538461
 40
0.8461538461538461
 40
0.8461538461538461
 40
0.8461538461538461
 40
1.0
 40
1.0
 40
1.0
 40
1.0
 10
-11.93719
 20
-5.92043
 30
0.0
 10
-11.93719
 20
-5.92043
 30
0.0
 10
-10.7415
 20
-5.92043
 30
0.0
 10
-10.7415
 20
-5.92043
 30
0.0
 10
-10.7415
 20
-5.92043
 30
0.0
 10
-10.7415
 20
-5.92043
 30
0.0
 10
-10.7415
 20
-4.20922
 30
0.0
 10
-10.7415
 20
-4.20922
 30
0.0
 10
-10.7415
 20
-4.20922
 30
0.0
 10
-10.7415
 20
-4.20922
 30
0.0
 10
-10.51282
 20
-4.20922
 30
0.0
 10
-10.51282
 20
-4.20922
 30
0.0
 10
-10.51282
 20
-4.20922
 30
0.0
 10
-10.51282
 20
-4.20922
 30
0.0
 10
-10.38509
 20
-4.20922
 30
0.0
 10
-10.38509
 20
-4.20922
 30
0.0
 10
-10.38509
 20
-4.20922
 30
0.0
 10
-10.38509
 20
-4.20922
 30
0.0
 10
-9.31477
 20
-4.20922
 30
0.0
 10
-9.31477
 20
-4.20922
 30
0.0
 10
-9.31477
 20
-4.20922
 30
0.0
 10
-9.31477
 20
-4.20922
 30
0.0
 10
-9.31477
 20
-2.73557
 30
0.0
 10
-9.31477
 20
-2.73557
 30
0.0
 10
-9.31477
 20
-2.73557
 30
0.0
 10
-9.31477
 20
-2.73557
 30
0.0
 10
-10.38509
 20
-2.73557
 30
0.0
 10
-10.38509
 20
-2.73557
 30
0.0
 10
-10.38509
 20
-2.73557
 30
0.0
 10
-10.38509
 20
-2.73557
 30
0.0
 10
-10.51282
 20
-2.73557
 30
0.0
 10
-10.51282
 20
-2.73557
 30
0.0
 10
-10.51282
 20
-2.73557
 30
0.0
 10
-10.51282
 20
-2.73557
 30
0.0
 10
-10.7415
 20
-2.73557
 30
0.0
 10
-10.7415
 20
-2.73557
 30
0.0
 10
-10.7415
 20
-2.73557
 30
0.0
 10
-10.7415
 20
-2.73557
 30
0.0
 10
-10.7415
 20
-1.02435
 30
0.0
 10
-10.7415
 20
-1.02435
 30
0.0
 10
-10.7415
 20
-1.02435
 30
0.0
 10
-10.7415
 20
-1.02435
 30
0.0
 10
-11.93719
 20
-1.02435
 30
0.0
 10
-11.93719
 20
-1.02435
 30
0.0
 10
-11.93719
 20
-1.02435
 30
0.0
 10
-11.93719
 20
-1.02435
 30
0.0
 10
-11.93719
 20
-5.92043
 30
0.0
 10
-11.93719
 20
-5.92043
 30
0.0
  0
SPLINE
  5
60
330
1F
100
AcDbEntity
  8
Layer 1
 62
   242
100
AcDbSpline
210
0.0
220
0.0
230
1.0
 70
    11
 71
     3
 72
    20
 73
    16
 74
     0
 42
0.0000000001
 43
0.0000000001
 12
1.0
 22
0.0
 32
0.0
 13
1.0
 23
0.0
 33
0.0
 40
0.0
 40
0.0
 40
0.0
 40
0.0
 40
0.2
 40
0.2
 40
0.2
 40
0.2
 40
0.4
 40
0.4
 40
0.4
 40
0.4
 40
0.6
 40
0.6
 40
0.6
 40
0.6
 40
1.0
 40
1.0
 40
1.0
 40
1.0
 10
-11.93719
 20
-0.69153
 30
0.0
 10
-11.93719
 20
-0.69153
 30
0.0
 10
-10.7415
 20
-0.69153
 30
0.0
 10
-10.7415
 20
-0.69153
 30
0.0
 10
-10.7415
 20
-0.69153
 30
0.0
 10
-10.7415
 20
-0.69153
 30
0.0
 10
-10.7415
 20
0.63558
 30
0.0
 10
-10.7415
 20
0.63558
 30
0.0
 10
-10.7415
 20
0.63558
 30
0.0
 10
-10.7415
 20
0.63558
 30
0.0
 10
-11.93719
 20
0.63558
 30
0.0
 10
-11.93719
 20
0.63558
 30
0.0
 10
-11.93719
 20
0.63558
 30
0.0
 10
-11.93719
 20
0.63558
 30
0.0
 10
-11.93719
 20
-0.69153
 30
0.0
 10
-11.93719
 20
-0.69153
 30
0.0
  0
SPLINE
  5
61
330
1F
100
AcDbEntity
  8
Layer 1
 62
   242
100
AcDbSpline
210
0.0
220
0.0
230
1.0
 70
    11
 71
     3
 72
    20
 73
    16
 74
     0
 42
0.0000000001
 43
0.0000000001
 12
1.0
 22
0.0
 32
0.0
 13
1.0
 23
0.0
 33
0.0
 40
0.0
 40
0.0
 40
0.0
 40
0.0
 40
0.2
 40
0.2
 40
0.2
 40
0.2
 40
0.4
 40
0.4
 40
0.4
 40
0.4
 40
0.6
 40
0.6
 40
0.6
 40
0.6
 40
1.0
 40
1.0
 40
1.0
 40
1.0
 10
-11.93719
 20
0.96836
 30
0.0
 10
-11.93719
 20
0.96836
 30
0.0
 10
-10.7415
 20
0.96836
 30
0.0
 10
-10.7415
 20
0.96836
 30
0.0
 10
-10.7415
 20
0.96836
 30
0.0
 10
-10.7415
 20
0.96836
 30
0.0
 10
-10.7415
 20
4.06632
 30
0.0
 10
-10.7415
 20
4.06632
 30
0.0
 10
-10.7415
 20
4.06632
 30
0.0
 10
-10.7415
 20
4.06632
 30
0.0
 10
-11.93719
 20
4.06632
 30
0.0
 10
-11.93719
 20
4.06632
 30
0.0
 10
-11.93719
 20
4.06632
 30
0.0
 10
-11.93719
 20
4.06632
 30
0.0
 10
-11.93719
 20
0.96836
 30
0.0
 10
-11.93719
 20
0.96836
 30
0.0
  0
SPLINE
  5
62
330
1F
100
AcDbEntity
  8
Layer 1
 62
   242
100
AcDbSpline
210
0.0
220
0.0
230
1.0
 70
    11
 71
     3
 72
    36
 73
    32
 74
     0
 42
0.0000000001
 43
0.0000000001
 12
1.0
 22
0.0
 32
0.0
 13
1.0
 23
0.0
 33
0.0
 40
0.0
 40
0.0
 40
0.0
 40
0.0
 40
0.1111111111111111
 40
0.1111111111111111
 40
0.1111111111111111
 40
0.1111111111111111
 40
0.2222222222222222
 40
0.2222222222222222
 40
0.2222222222222222
 40
0.2222222222222222
 40
0.3333333333333333
 40
0.3333333333333333
 40
0.3333333333333333
 40
0.3333333333333333
 40
0.4444444444444444
 40
0.4444444444444444
 40
0.4444444444444444
 40
0.4444444444444444
 40
0.5555555555555556
 40
0.5555555555555556
 40
0.5555555555555556
 40
0.5555555555555556
 40
0.6666666666666666
 40
0.6666666666666666
 40
0.6666666666666666
 40
0.6666666666666666
 40
0.7777777777777778
 40
0.7777777777777778
 40
0.7777777777777778
 40
0.7777777777777778
 40
1.0
 40
1.0
 40
1.0
 40
1.0
 10
-6.47774
 20
-4.20922
 30
0.0
 10
-6.47774
 20
-4.20922
 30
0.0
 10
-6.47774
 20
-2.73557
 30
0.0
 10
-6.47774
 20
-2.73557
 30
0.0
 10
-6.47774
 20
-2.73557
 30
0.0
 10
-6.47774
 20
-2.73557
 30
0.0
 10
-7.5399
 20
-2.73557
 30
0.0
 10
-7.5399
 20
-2.73557
 30
0.0
 10
-7.5399
 20
-2.73557
 30
0.0
 10
-7.5399
 20
-2.73557
 30
0.0
 10
-7.89626
 20
-2.73557
 30
0.0
 10
-7.89626
 20
-2.73557
 30
0.0
 10
-7.89626
 20
-2.73557
 30
0.0
 10
-7.89626
 20
-2.73557
 30
0.0
 10
-8.95836
 20
-2.73557
 30
0.0
 10
-8.95836
 20
-2.73557
 30
0.0
 10
-8.95836
 20
-2.73557
 30
0.0
 10
-8.95836
 20
-2.73557
 30
0.0
 10
-8.95836
 20
-4.20922
 30
0.0
 10
-8.95836
 20
-4.20922
 30
0.0
 10
-8.95836
 20
-4.20922
 30
0.0
 10
-8.95836
 20
-4.20922
 30
0.0
 10
-7.89626
 20
-4.20922
 30
0.0
 10
-7.89626
 20
-4.20922
 30
0.0
 10
-7.89626
 20
-4.20922
 30
0.0
 10
-7.89626
 20
-4.20922
 30
0.0
 10
-7.5399
 20
-4.20922
 30
0.0
 10
-7.5399
 20
-4.20922
 30
0.0
 10
-7.5399
 20
-4.20922
 30
0.0
 10
-7.5399
 20
-4.20922
 30
0.0
 10
-6.47774
 20
-4.20922
 30
0.0
 10
-6.47774
 20
-4.20922
 30
0.0
  0
SPLINE
  5
63
330
1F
100
AcDbEntity
  8
Layer 1
 62
   242
100
AcDbSpline
210
0.0
220
0.0
230
1.0
 70
    11
 71
     3
 72
    20
 73
    16
 74
     0
 42
0.0000000001
 43
0.0000000001
 12
1.0
 22
0.0
 32
0.0
 13
1.0
 23
0.0
 33
0.0
 40
0.0
 40
0.0
 40
0.0
 40
0.0
 40
0.2
 40
0.2
 40
0.2
 40
0.2
 40
0.4
 40
0.4
 40
0.4
 40
0.4
 40
0.6
 40
0.6
 40
0.6
 40
0.6
 40
1.0
 40
1.0
 40
1.0
 40
1.0
 10
-10.38509
 20
-9.62765
 30
0.0
 10
-10.38509
 20
-9.62765
 30
0.0
 10
-7.89626
 20
-9.62765
 30
0.0
 10
-7.89626
 20
-9.62765
 30
0.0
 10
-7.89626
 20
-9.62765
 30
0.0
 10
-7.89626
 20
-9.62765
 30
0.0
 10
-7.89626
 20
-11.01116
 30
0.0
 10
-7.89626
 20
-11.01116
 30
0.0
 10
-7.89626
 20
-11.01116
 30
0.0
 10
-7.89626
 20
-11.01116
 30
0.0
 10
-10.38509
 20
-11.01116
 30
0.0
 10
-10.38509
 20
-11.01116
 30
0.0
 10
-10.38509
 20
-11.01116
 30
0.0
 10
-10.38509
 20
-11.01116
 30
0.0
 10
-10.38509
 20
-9.62765
 30
0.0
 10
-10.38509
 20
-9.62765
 30
0.0
  0
SPLINE
  5
64
330
1F
100
AcDbEntity
  8
Layer 1
 62
   242
100
AcDbSpline
210
0.0
220
0.0
230
1.0
 70
    11
 71
     3
 72
    20
 73
    16
 74
     0
 42
0.0000000001
 43
0.0000000001
 12
1.0
 22
0.0
 32
0.0
 13
1.0
 23
0.0
 33
0.0
 40
0.0
 40
0.0
 40
0.0
 40
0.0
 40
0.2
 40
0.2
 40
0.2
 40
0.2
 40
0.4
 40
0.4
 40
0.4
 40
0.4
 40
0.6
 40
0.6
 40
0.6
 40
0.6
 40
1.0
 40
1.0
 40
1.0
 40
1.0
 10
-7.5399
 20
-9.62765
 30
0.0
 10
-7.5399
 20
-9.62765
 30
0.0
 10
-5.05106
 20
-9.62765
 30
0.0
 10
-5.05106
 20
-9.62765
 30
0.0
 10
-5.05106
 20
-9.62765
 30
0.0
 10
-5.05106
 20
-9.62765
 30
0.0
 10
-5.05106
 20
-11.01116
 30
0.0
 10
-5.05106
 20
-11.01116
 30
0.0
 10
-5.05106
 20
-11.01116
 30
0.0
 10
-5.05106
 20
-11.01116
 30
0.0
 10
-7.5399
 20
-11.01116
 30
0.0
 10
-7.5399
 20
-11.01116
 30
0.0
 10
-7.5399
 20
-11.01116
 30
0.0
 10
-7.5399
 20
-11.01116
 30
0.0
 10
-7.5399
 20
-9.62765
 30
0.0
 10
-7.5399
 20
-9.62765
 30
0.0
  0
SPLINE
  5
65
330
1F
100
AcDbEntity
  8
Layer 1
 62
   242
100
AcDbSpline
210
0.0
220
0.0
230
1.0
 70
    11
 71
     3
 72
    20
 73
    16
 74
     0
 42
0.0000000001
 43
0.0000000001
 12
1.0
 22
0.0
 32
0.0
 13
1.0
 23
0.0
 33
0.0
 40
0.0
 40
0.0
 40
0.0
 40
0.0
 40
0.2
 40
0.2
 40
0.2
 40
0.2
 40
0.4
 40
0.4
 40
0.4
 40
0.4
 40
0.6
 40
0.6
 40
0.6
 40
0.6
 40
1.0
 40
1.0
 40
1.0
 40
1.0
 10
-5.05106
 20
-9.29482
 30
0.0
 10
-5.05106
 20
-9.29482
 30
0.0
 10
-6.12133
 20
-9.29482
 30
0.0
 10
-6.12133
 20
-9.29482
 30
0.0
 10
-6.12133
 20
-9.29482
 30
0.0
 10
-6.12133
 20
-9.29482
 30
0.0
 10
-6.12133
 20
-6.25326
 30
0.0
 10
-6.12133
 20
-6.25326
 30
0.0
 10
-6.12133
 20
-6.25326
 30
0.0
 10
-6.12133
 20
-6.25326
 30
0.0
 10
-5.05106
 20
-6.25326
 30
0.0
 10
-5.05106
 20
-6.25326
 30
0.0
 10
-5.05106
 20
-6.25326
 30
0.0
 10
-5.05106
 20
-6.25326
 30
0.0
 10
-5.05106
 20
-9.29482
 30
0.0
 10
-5.05106
 20
-9.29482
 30
0.0
  0
SPLINE
  5
66
330
1F
100
AcDbEntity
  8
Layer 1
 62
   242
100
AcDbSpline
210
0.0
220
0.0
230
1.0
 70
    11
 71
     3
 72
    20
 73
    16
 74
     0
 42
0.0000000001
 43
0.0000000001
 12
1.0
 22
0.0
 32
0.0
 13
1.0
 23
0.0
 33
0.0
 40
0.0
 40
0.0
 40
0.0
 40
0.0
 40
0.2
 40
0.2
 40
0.2
 40
0.2
 40
0.4
 40
0.4
 40
0.4
 40
0.4
 40
0.6
 40
0.6
 40
0.6
 40
0.6
 40
1.0
 40
1.0
 40
1.0
 40
1.0
 10
-6.47774
 20
-9.29482
 30
0.0
 10
-6.47774
 20
-9.29482
 30
0.0
 10
-7.5399
 20
-9.29482
 30
0.0
 10
-7.5399
 20
-9.29482
 30
0.0
 10
-7.5399
 20
-9.29482
 30
0.0
 10
-7.5399
 20
-9.29482
 30
0.0
 10
-7.5399
 20
-7.91319
 30
0.0
 10
-7.5399
 20
-7.91319
 30
0.0
 10
-7.5399
 20
-7.91319
 30
0.0
 10
-7.5399
 20
-7.91319
 30
0.0
 10
-6.47774
 20
-7.91319
 30
0.0
 10
-6.47774
 20
-7.91319
 30
0.0
 10
-6.47774
 20
-7.91319
 30
0.0
 10
-6.47774
 20
-7.91319
 30
0.0
 10
-6.47774
 20
-9.29482
 30
0.0
 10
-6.47774
 20
-9.29482
 30
0.0
  0
SPLINE
  5
67
330
1F
100
AcDbEntity
  8
Layer 1
 62
   242
100
AcDbSpline
210
0.0
220
0.0
230
1.0
 70
    11
 71
     3
 72
    20
 73
    16
 74
     0
 42
0.0000000001
 43
0.0000000001
 12
1.0
 22
0.0
 32
0.0
 13
1.0
 23
0.0
 33
0.0
 40
0.0
 40
0.0
 40
0.0
 40
0.0
 40
0.2
 40
0.2
 40
0.2
 40
0.2
 40
0.4
 40
0.4
 40
0.4
 40
0.4
 40
0.6
 40
0.6
 40
0.6
 40
0.6
 40
1.0
 40
1.0
 40
1.0
 40
1.0
 10
-7.89626
 20
-9.29482
 30
0.0
 10
-7.89626
 20
-9.29482
 30
0.0
 10
-8.95836
 20
-9.29482
 30
0.0
 10
-8.95836
 20
-9.29482
 30
0.0
 10
-8.95836
 20
-9.29482
 30
0.0
 10
-8.95836
 20
-9.29482
 30
0.0
 10
-8.95836
 20
-7.91319
 30
0.0
 10
-8.95836
 20
-7.91319
 30
0.0
 10
-8.95836
 20
-7.91319
 30
0.0
 10
-8.95836
 20
-7.91319
 30
0.0
 10
-7.89626
 20
-7.91319
 30
0.0
 10
-7.89626
 20
-7.91319
 30
0.0
 10
-7.89626
 20
-7.91319
 30
0.0
 10
-7.89626
 20
-7.91319
 30
0.0
 10
-7.89626
 20
-9.29482
 30
0.0
 10
-7.89626
 20
-9.29482
 30
0.0
  0
SPLINE
  5
68
330
1F
100
AcDbEntity
  8
Layer 1
 62
   242
100
AcDbSpline
210
0.0
220
0.0
230
1.0
 70
    11
 71
     3
 72
    20
 73
    16
 74
     0
 42
0.0000000001
 43
0.0000000001
 12
1.0
 22
0.0
 32
0.0
 13
1.0
 23
0.0
 33
0.0
 40
0.0
 40
0.0
 40
0.0
 40
0.0
 40
0.2
 40
0.2
 40
0.2
 40
0.2
 40
0.4
 40
0.4
 40
0.4
 40
0.4
 40
0.6
 40
0.6
 40
0.6
 40
0.6
 40
1.0
 40
1.0
 40
1.0
 40
1.0
 10
-9.31477
 20
-9.29482
 30
0.0
 10
-9.31477
 20
-9.29482
 30
0.0
 10
-10.38509
 20
-9.29482
 30
0.0
 10
-10.38509
 20
-9.29482
 30
0.0
 10
-10.38509
 20
-9.29482
 30
0.0
 10
-10.38509
 20
-9.29482
 30
0.0
 10
-10.38509
 20
-6.25326
 30
0.0
 10
-10.38509
 20
-6.25326
 30
0.0
 10
-10.38509
 20
-6.25326
 30
0.0
 10
-10.38509
 20
-6.25326
 30
0.0
 10
-9.31477
 20
-6.25326
 30
0.0
 10
-9.31477
 20
-6.25326
 30
0.0
 10
-9.31477
 20
-6.25326
 30
0.0
 10
-9.31477
 20
-6.25326
 30
0.0
 10
-9.31477
 20
-9.29482
 30
0.0
 10
-9.31477
 20
-9.29482
 30
0.0
  0
SPLINE
  5
69
330
1F
100
AcDbEntity
  8
Layer 1
 62
   242
100
AcDbSpline
210
0.0
220
0.0
230
1.0
 70
    11
 71
     3
 72
    20
 73
    16
 74
     0
 42
0.0000000001
 43
0.0000000001
 12
1.0
 22
0.0
 32
0.0
 13
1.0
 23
0.0
 33
0.0
 40
0.0
 40
0.0
 40
0.0
 40
0.0
 40
0.2
 40
0.2
 40
0.2
 40
0.2
 40
0.4
 40
0.4
 40
0.4
 40
0.4
 40
0.6
 40
0.6
 40
0.6
 40
0.6
 40
1.0
 40
1.0
 40
1.0
 40
1.0
 10
-6.47774
 20
-7.58042
 30
0.0
 10
-6.47774
 20
-7.58042
 30
0.0
 10
-7.5399
 20
-7.58042
 30
0.0
 10
-7.5399
 20
-7.58042
 30
0.0
 10
-7.5399
 20
-7.58042
 30
0.0
 10
-7.5399
 20
-7.58042
 30
0.0
 10
-7.5399
 20
-6.25326
 30
0.0
 10
-7.5399
 20
-6.25326
 30
0.0
 10
-7.5399
 20
-6.25326
 30
0.0
 10
-7.5399
 20
-6.25326
 30
0.0
 10
-6.47774
 20
-6.25326
 30
0.0
 10
-6.47774
 20
-6.25326
 30
0.0
 10
-6.47774
 20
-6.25326
 30
0.0
 10
-6.47774
 20
-6.25326
 30
0.0
 10
-6.47774
 20
-7.58042
 30
0.0
 10
-6.47774
 20
-7.58042
 30
0.0
  0
SPLINE
  5
6A
330
1F
100
AcDbEntity
  8
Layer 1
 62
   242
100
AcDbSpline
210
0.0
220
0.0
230
1.0
 70
    11
 71
     3
 72
    20
 73
    16
 74
     0
 42
0.0000000001
 43
0.0000000001
 12
1.0
 22
0.0
 32
0.0
 13
1.0
 23
0.0
 33
0.0
 40
0.0
 40
0.0
 40
0.0
 40
0.0
 40
0.2
 40
0.2
 40
0.2
 40
0.2
 40
0.4
 40
0.4
 40
0.4
 40
0.4
 40
0.6
 40
0.6
 40
0.6
 40
0.6
 40
1.0
 40
1.0
 40
1.0
 40
1.0
 10
-7.89626
 20
-7.58042
 30
0.0
 10
-7.89626
 20
-7.58042
 30
0.0
 10
-8.95836
 20
-7.58042
 30
0.0
 10
-8.95836
 20
-7.58042
 30
0.0
 10
-8.95836
 20
-7.58042
 30
0.0
 10
-8.95836
 20
-7.58042
 30
0.0
 10
-8.95836
 20
-6.25326
 30
0.0
 10
-8.95836
 20
-6.25326
 30
0.0
 10
-8.95836
 20
-6.25326
 30
0.0
 10
-8.95836
 20
-6.25326
 30
0.0
 10
-7.89626
 20
-6.25326
 30
0.0
 10
-7.89626
 20
-6.25326
 30
0.0
 10
-7.89626
 20
-6.25326
 30
0.0
 10
-7.89626
 20
-6.25326
 30
0.0
 10
-7.89626
 20
-7.58042
 30
0.0
 10
-7.89626
 20
-7.58042
 30
0.0
  0
SPLINE
  5
6B
330
1F
100
AcDbEntity
  8
Layer 1
 62
   242
100
AcDbSpline
210
0.0
220
0.0
230
1.0
 70
    11
 71
     3
 72
    20
 73
    16
 74
     0
 42
0.0000000001
 43
0.0000000001
 12
1.0
 22
0.0
 32
0.0
 13
1.0
 23
0.0
 33
0.0
 40
0.0
 40
0.0
 40
0.0
 40
0.0
 40
0.2
 40
0.2
 40
0.2
 40
0.2
 40
0.4
 40
0.4
 40
0.4
 40
0.4
 40
0.6
 40
0.6
 40
0.6
 40
0.6
 40
1.0
 40
1.0
 40
1.0
 40
1.0
 10
-5.05106
 20
-4.54204
 30
0.0
 10
-5.05106
 20
-4.54204
 30
0.0
 10
-5.05106
 20
-5.92043
 30
0.0
 10
-5.05106
 20
-5.92043
 30
0.0
 10
-5.05106
 20
-5.92043
 30
0.0
 10
-5.05106
 20
-5.92043
 30
0.0
 10
-7.5399
 20
-5.92043
 30
0.0
 10
-7.5399
 20
-5.92043
 30
0.0
 10
-7.5399
 20
-5.92043
 30
0.0
 10
-7.5399
 20
-5.92043
 30
0.0
 10
-7.5399
 20
-4.54204
 30
0.0
 10
-7.5399
 20
-4.54204
 30
0.0
 10
-7.5399
 20
-4.54204
 30
0.0
 10
-7.5399
 20
-4.54204
 30
0.0
 10
-5.05106
 20
-4.54204
 30
0.0
 10
-5.05106
 20
-4.54204
 30
0.0
  0
SPLINE
  5
6C
330
1F
100
AcDbEntity
  8
Layer 1
 62
   242
100
AcDbSpline
210
0.0
220
0.0
230
1.0
 70
    11
 71
     3
 72
    20
 73
    16
 74
     0
 42
0.0000000001
 43
0.0000000001
 12
1.0
 22
0.0
 32
0.0
 13
1.0
 23
0.0
 33
0.0
 40
0.0
 40
0.0
 40
0.0
 40
0.0
 40
0.2
 40
0.2
 40
0.2
 40
0.2
 40
0.4
 40
0.4
 40
0.4
 40
0.4
 40
0.6
 40
0.6
 40
0.6
 40
0.6
 40
1.0
 40
1.0
 40
1.0
 40
1.0
 10
-7.89626
 20
-4.54204
 30
0.0
 10
-7.89626
 20
-4.54204
 30
0.0
 10
-7.89626
 20
-5.92043
 30
0.0
 10
-7.89626
 20
-5.92043
 30
0.0
 10
-7.89626
 20
-5.92043
 30
0.0
 10
-7.89626
 20
-5.92043
 30
0.0
 10
-10.38509
 20
-5.92043
 30
0.0
 10
-10.38509
 20
-5.92043
 30
0.0
 10
-10.38509
 20
-5.92043
 30
0.0
 10
-10.38509
 20
-5.92043
 30
0.0
 10
-10.38509
 20
-4.54204
 30
0.0
 10
-10.38509
 20
-4.54204
 30
0.0
 10
-10.38509
 20
-4.54204
 30
0.0
 10
-10.38509
 20
-4.54204
 30
0.0
 10
-7.89626
 20
-4.54204
 30
0.0
 10
-7.89626
 20
-4.54204
 30
0.0
  0
SPLINE
  5
6D
330
1F
100
AcDbEntity
  8
Layer 1
 62
   242
100
AcDbSpline
210
0.0
220
0.0
230
1.0
 70
    11
 71
     3
 72
    20
 73
    16
 74
     0
 42
0.0000000001
 43
0.0000000001
 12
1.0
 22
0.0
 32
0.0
 13
1.0
 23
0.0
 33
0.0
 40
0.0
 40
0.0
 40
0.0
 40
0.0
 40
0.2
 40
0.2
 40
0.2
 40
0.2
 40
0.4
 40
0.4
 40
0.4
 40
0.4
 40
0.6
 40
0.6
 40
0.6
 40
0.6
 40
1.0
 40
1.0
 40
1.0
 40
1.0
 10
-6.47774
 20
5.6269
 30
0.0
 10
-6.47774
 20
5.6269
 30
0.0
 10
-8.95836
 20
5.6269
 30
0.0
 10
-8.95836
 20
5.6269
 30
0.0
 10
-8.95836
 20
5.6269
 30
0.0
 10
-8.95836
 20
5.6269
 30
0.0
 10
-8.95836
 20
4.39914
 30
0.0
 10
-8.95836
 20
4.39914
 30
0.0
 10
-8.95836
 20
4.39914
 30
0.0
 10
-8.95836
 20
4.39914
 30
0.0
 10
-6.47774
 20
4.39914
 30
0.0
 10
-6.47774
 20
4.39914
 30
0.0
 10
-6.47774
 20
4.39914
 30
0.0
 10
-6.47774
 20
4.39914
 30
0.0
 10
-6.47774
 20
5.6269
 30
0.0
 10
-6.47774
 20
5.6269
 30
0.0
  0
SPLINE
  5
6E
330
1F
100
AcDbEntity
  8
Layer 1
 62
   242
100
AcDbSpline
210
0.0
220
0.0
230
1.0
 70
    11
 71
     3
 72
    20
 73
    16
 74
     0
 42
0.0000000001
 43
0.0000000001
 12
1.0
 22
0.0
 32
0.0
 13
1.0
 23
0.0
 33
0.0
 40
0.0
 40
0.0
 40
0.0
 40
0.0
 40
0.2
 40
0.2
 40
0.2
 40
0.2
 40
0.4
 40
0.4
 40
0.4
 40
0.4
 40
0.6
 40
0.6
 40
0.6
 40
0.6
 40
1.0
 40
1.0
 40
1.0
 40
1.0
 10
-10.38509
 20
2.68281
 30
0.0
 10
-10.38509
 20
2.68281
 30
0.0
 10
-7.89626
 20
2.68281
 30
0.0
 10
-7.89626
 20
2.68281
 30
0.0
 10
-7.89626
 20
2.68281
 30
0.0
 10
-7.89626
 20
2.68281
 30
0.0
 10
-7.89626
 20
4.06632
 30
0.0
 10
-7.89626
 20
4.06632
 30
0.0
 10
-7.89626
 20
4.06632
 30
0.0
 10
-7.89626
 20
4.06632
 30
0.0
 10
-10.38509
 20
4.06632
 30
0.0
 10
-10.38509
 20
4.06632
 30
0.0
 10
-10.38509
 20
4.06632
 30
0.0
 10
-10.38509
 20
4.06632
 30
0.0
 10
-10.38509
 20
2.68281
 30
0.0
 10
-10.38509
 20
2.68281
 30
0.0
  0
SPLINE
  5
6F
330
1F
100
AcDbEntity
  8
Layer 1
 62
   242
100
AcDbSpline
210
0.0
220
0.0
230
1.0
 70
    11
 71
     3
 72
    20
 73
    16
 74
     0
 42
0.0000000001
 43
0.0000000001
 12
1.0
 22
0.0
 32
0.0
 13
1.0
 23
0.0
 33
0.0
 40
0.0
 40
0.0
 40
0.0
 40
0.0
 40
0.2
 40
0.2
 40
0.2
 40
0.2
 40
0.4
 40
0.4
 40
0.4
 40
0.4
 40
0.6
 40
0.6
 40
0.6
 40
0.6
 40
1.0
 40
1.0
 40
1.0
 40
1.0
 10
-7.5399
 20
2.68281
 30
0.0
 10
-7.5399
 20
2.68281
 30
0.0
 10
-5.05106
 20
2.68281
 30
0.0
 10
-5.05106
 20
2.68281
 30
0.0
 10
-5.05106
 20
2.68281
 30
0.0
 10
-5.05106
 20
2.68281
 30
0.0
 10
-5.05106
 20
4.06632
 30
0.0
 10
-5.05106
 20
4.06632
 30
0.0
 10
-5.05106
 20
4.06632
 30
0.0
 10
-5.05106
 20
4.06632
 30
0.0
 10
-7.5399
 20
4.06632
 30
0.0
 10
-7.5399
 20
4.06632
 30
0.0
 10
-7.5399
 20
4.06632
 30
0.0
 10
-7.5399
 20
4.06632
 30
0.0
 10
-7.5399
 20
2.68281
 30
0.0
 10
-7.5399
 20
2.68281
 30
0.0
  0
SPLINE
  5
70
330
1F
100
AcDbEntity
  8
Layer 1
 62
   242
100
AcDbSpline
210
0.0
220
0.0
230
1.0
 70
    11
 71
     3
 72
    20
 73
    16
 74
     0
 42
0.0000000001
 43
0.0000000001
 12
1.0
 22
0.0
 32
0.0
 13
1.0
 23
0.0
 33
0.0
 40
0.0
 40
0.0
 40
0.0
 40
0.0
 40
0.2
 40
0.2
 40
0.2
 40
0.2
 40
0.4
 40
0.4
 40
0.4
 40
0.4
 40
0.6
 40
0.6
 40
0.6
 40
0.6
 40
1.0
 40
1.0
 40
1.0
 40
1.0
 10
-5.05106
 20
2.34999
 30
0.0
 10
-5.05106
 20
2.34999
 30
0.0
 10
-6.12133
 20
2.34999
 30
0.0
 10
-6.12133
 20
2.34999
 30
0.0
 10
-6.12133
 20
2.34999
 30
0.0
 10
-6.12133
 20
2.34999
 30
0.0
 10
-6.12133
 20
-0.69153
 30
0.0
 10
-6.12133
 20
-0.69153
 30
0.0
 10
-6.12133
 20
-0.69153
 30
0.0
 10
-6.12133
 20
-0.69153
 30
0.0
 10
-5.05106
 20
-0.69153
 30
0.0
 10
-5.05106
 20
-0.69153
 30
0.0
 10
-5.05106
 20
-0.69153
 30
0.0
 10
-5.05106
 20
-0.69153
 30
0.0
 10
-5.05106
 20
2.34999
 30
0.0
 10
-5.05106
 20
2.34999
 30
0.0
  0
SPLINE
  5
71
330
1F
100
AcDbEntity
  8
Layer 1
 62
   242
100
AcDbSpline
210
0.0
220
0.0
230
1.0
 70
    11
 71
     3
 72
    20
 73
    16
 74
     0
 42
0.0000000001
 43
0.0000000001
 12
1.0
 22
0.0
 32
0.0
 13
1.0
 23
0.0
 33
0.0
 40
0.0
 40
0.0
 40
0.0
 40
0.0
 40
0.2
 40
0.2
 40
0.2
 40
0.2
 40
0.4
 40
0.4
 40
0.4
 40
0.4
 40
0.6
 40
0.6
 40
0.6
 40
0.6
 40
1.0
 40
1.0
 40
1.0
 40
1.0
 10
-6.47774
 20
2.34999
 30
0.0
 10
-6.47774
 20
2.34999
 30
0.0
 10
-7.5399
 20
2.34999
 30
0.0
 10
-7.5399
 20
2.34999
 30
0.0
 10
-7.5399
 20
2.34999
 30
0.0
 10
-7.5399
 20
2.34999
 30
0.0
 10
-7.5399
 20
0.96836
 30
0.0
 10
-7.5399
 20
0.96836
 30
0.0
 10
-7.5399
 20
0.96836
 30
0.0
 10
-7.5399
 20
0.96836
 30
0.0
 10
-6.47774
 20
0.96836
 30
0.0
 10
-6.47774
 20
0.96836
 30
0.0
 10
-6.47774
 20
0.96836
 30
0.0
 10
-6.47774
 20
0.96836
 30
0.0
 10
-6.47774
 20
2.34999
 30
0.0
 10
-6.47774
 20
2.34999
 30
0.0
  0
SPLINE
  5
72
330
1F
100
AcDbEntity
  8
Layer 1
 62
   242
100
AcDbSpline
210
0.0
220
0.0
230
1.0
 70
    11
 71
     3
 72
    20
 73
    16
 74
     0
 42
0.0000000001
 43
0.0000000001
 12
1.0
 22
0.0
 32
0.0
 13
1.0
 23
0.0
 33
0.0
 40
0.0
 40
0.0
 40
0.0
 40
0.0
 40
0.2
 40
0.2
 40
0.2
 40
0.2
 40
0.4
 40
0.4
 40
0.4
 40
0.4
 40
0.6
 40
0.6
 40
0.6
 40
0.6
 40
1.0
 40
1.0
 40
1.0
 40
1.0
 10
-7.89626
 20
2.34999
 30
0.0
 10
-7.89626
 20
2.34999
 30
0.0
 10
-8.95836
 20
2.34999
 30
0.0
 10
-8.95836
 20
2.34999
 30
0.0
 10
-8.95836
 20
2.34999
 30
0.0
 10
-8.95836
 20
2.34999
 30
0.0
 10
-8.95836
 20
0.96836
 30
0.0
 10
-8.95836
 20
0.96836
 30
0.0
 10
-8.95836
 20
0.96836
 30
0.0
 10
-8.95836
 20
0.96836
 30
0.0
 10
-7.89626
 20
0.96836
 30
0.0
 10
-7.89626
 20
0.96836
 30
0.0
 10
-7.89626
 20
0.96836
 30
0.0
 10
-7.89626
 20
0.96836
 30
0.0
 10
-7.89626
 20
2.34999
 30
0.0
 10
-7.89626
 20
2.34999
 30
0.0
  0
SPLINE
  5
73
330
1F
100
AcDbEntity
  8
Layer 1
 62
   242
100
AcDbSpline
210
0.0
220
0.0
230
1.0
 70
    11
 71
     3
 72
    20
 73
    16
 74
     0
 42
0.0000000001
 43
0.0000000001
 12
1.0
 22
0.0
 32
0.0
 13
1.0
 23
0.0
 33
0.0
 40
0.0
 40
0.0
 40
0.0
 40
0.0
 40
0.2
 40
0.2
 40
0.2
 40
0.2
 40
0.4
 40
0.4
 40
0.4
 40
0.4
 40
0.6
 40
0.6
 40
0.6
 40
0.6
 40
1.0
 40
1.0
 40
1.0
 40
1.0
 10
-9.31477
 20
2.34999
 30
0.0
 10
-9.31477
 20
2.34999
 30
0.0
 10
-10.38509
 20
2.34999
 30
0.0
 10
-10.38509
 20
2.34999
 30
0.0
 10
-10.38509
 20
2.34999
 30
0.0
 10
-10.38509
 20
2.34999
 30
0.0
 10
-10.38509
 20
-0.69153
 30
0.0
 10
-10.38509
 20
-0.69153
 30
0.0
 10
-10.38509
 20
-0.69153
 30
0.0
 10
-10.38509
 20
-0.69153
 30
0.0
 10
-9.31477
 20
-0.69153
 30
0.0
 10
-9.31477
 20
-0.69153
 30
0.0
 10
-9.31477
 20
-0.69153
 30
0.0
 10
-9.31477
 20
-0.69153
 30
0.0
 10
-9.31477
 20
2.34999
 30
0.0
 10
-9.31477
 20
2.34999
 30
0.0
  0
SPLINE
  5
74
330
1F
100
AcDbEntity
  8
Layer 1
 62
   242
100
AcDbSpline
210
0.0
220
0.0
230
1.0
 70
    11
 71
     3
 72
    20
 73
    16
 74
     0
 42
0.0000000001
 43
0.0000000001
 12
1.0
 22
0.0
 32
0.0
 13
1.0
 23
0.0
 33
0.0
 40
0.0
 40
0.0
 40
0.0
 40
0.0
 40
0.2
 40
0.2
 40
0.2
 40
0.2
 40
0.4
 40
0.4
 40
0.4
 40
0.4
 40
0.6
 40
0.6
 40
0.6
 40
0.6
 40
1.0
 40
1.0
 40
1.0
 40
1.0
 10
-6.47774
 20
0.63558
 30
0.0
 10
-6.47774
 20
0.63558
 30
0.0
 10
-7.5399
 20
0.63558
 30
0.0
 10
-7.5399
 20
0.63558
 30
0.0
 10
-7.5399
 20
0.63558
 30
0.0
 10
-7.5399
 20
0.63558
 30
0.0
 10
-7.5399
 20
-0.69153
 30
0.0
 10
-7.5399
 20
-0.69153
 30
0.0
 10
-7.5399
 20
-0.69153
 30
0.0
 10
-7.5399
 20
-0.69153
 30
0.0
 10
-6.47774
 20
-0.69153
 30
0.0
 10
-6.47774
 20
-0.69153
 30
0.0
 10
-6.47774
 20
-0.69153
 30
0.0
 10
-6.47774
 20
-0.69153
 30
0.0
 10
-6.47774
 20
0.63558
 30
0.0
 10
-6.47774
 20
0.63558
 30
0.0
  0
SPLINE
  5
75
330
1F
100
AcDbEntity
  8
Layer 1
 62
   242
100
AcDbSpline
210
0.0
220
0.0
230
1.0
 70
    11
 71
     3
 72
    20
 73
    16
 74
     0
 42
0.0000000001
 43
0.0000000001
 12
1.0
 22
0.0
 32
0.0
 13
1.0
 23
0.0
 33
0.0
 40
0.0
 40
0.0
 40
0.0
 40
0.0
 40
0.2
 40
0.2
 40
0.2
 40
0.2
 40
0.4
 40
0.4
 40
0.4
 40
0.4
 40
0.6
 40
0.6
 40
0.6
 40
0.6
 40
1.0
 40
1.0
 40
1.0
 40
1.0
 10
-7.89626
 20
0.63558
 30
0.0
 10
-7.89626
 20
0.63558
 30
0.0
 10
-8.95836
 20
0.63558
 30
0.0
 10
-8.95836
 20
0.63558
 30
0.0
 10
-8.95836
 20
0.63558
 30
0.0
 10
-8.95836
 20
0.63558
 30
0.0
 10
-8.95836
 20
-0.69153
 30
0.0
 10
-8.95836
 20
-0.69153
 30
0.0
 10
-8.95836
 20
-0.69153
 30
0.0
 10
-8.95836
 20
-0.69153
 30
0.0
 10
-7.89626
 20
-0.69153
 30
0.0
 10
-7.89626
 20
-0.69153
 30
0.0
 10
-7.89626
 20
-0.69153
 30
0.0
 10
-7.89626
 20
-0.69153
 30
0.0
 10
-7.89626
 20
0.63558
 30
0.0
 10
-7.89626
 20
0.63558
 30
0.0
  0
SPLINE
  5
76
330
1F
100
AcDbEntity
  8
Layer 1
 62
   242
100
AcDbSpline
210
0.0
220
0.0
230
1.0
 70
    11
 71
     3
 72
    20
 73
    16
 74
     0
 42
0.0000000001
 43
0.0000000001
 12
1.0
 22
0.0
 32
0.0
 13
1.0
 23
0.0
 33
0.0
 40
0.0
 40
0.0
 40
0.0
 40
0.0
 40
0.2
 40
0.2
 40
0.2
 40
0.2
 40
0.4
 40
0.4
 40
0.4
 40
0.4
 40
0.6
 40
0.6
 40
0.6
 40
0.6
 40
1.0
 40
1.0
 40
1.0
 40
1.0
 10
-5.05106
 20
-2.40274
 30
0.0
 10
-5.05106
 20
-2.40274
 30
0.0
 10
-5.05106
 20
-1.02435
 30
0.0
 10
-5.05106
 20
-1.02435
 30
0.0
 10
-5.05106
 20
-1.02435
 30
0.0
 10
-5.05106
 20
-1.02435
 30
0.0
 10
-7.5399
 20
-1.02435
 30
0.0
 10
-7.5399
 20
-1.02435
 30
0.0
 10
-7.5399
 20
-1.02435
 30
0.0
 10
-7.5399
 20
-1.02435
 30
0.0
 10
-7.5399
 20
-2.40274
 30
0.0
 10
-7.5399
 20
-2.40274
 30
0.0
 10
-7.5399
 20
-2.40274
 30
0.0
 10
-7.5399
 20
-2.40274
 30
0.0
 10
-5.05106
 20
-2.40274
 30
0.0
 10
-5.05106
 20
-2.40274
 30
0.0
  0
SPLINE
  5
77
330
1F
100
AcDbEntity
  8
Layer 1
 62
   242
100
AcDbSpline
210
0.0
220
0.0
230
1.0
 70
    11
 71
     3
 72
    20
 73
    16
 74
     0
 42
0.0000000001
 43
0.0000000001
 12
1.0
 22
0.0
 32
0.0
 13
1.0
 23
0.0
 33
0.0
 40
0.0
 40
0.0
 40
0.0
 40
0.0
 40
0.2
 40
0.2
 40
0.2
 40
0.2
 40
0.4
 40
0.4
 40
0.4
 40
0.4
 40
0.6
 40
0.6
 40
0.6
 40
0.6
 40
1.0
 40
1.0
 40
1.0
 40
1.0
 10
-7.89626
 20
-2.40274
 30
0.0
 10
-7.89626
 20
-2.40274
 30
0.0
 10
-7.89626
 20
-1.02435
 30
0.0
 10
-7.89626
 20
-1.02435
 30
0.0
 10
-7.89626
 20
-1.02435
 30
0.0
 10
-7.89626
 20
-1.02435
 30
0.0
 10
-10.38509
 20
-1.02435
 30
0.0
 10
-10.38509
 20
-1.02435
 30
0.0
 10
-10.38509
 20
-1.02435
 30
0.0
 10
-10.38509
 20
-1.02435
 30
0.0
 10
-10.38509
 20
-2.40274
 30
0.0
 10
-10.38509
 20
-2.40274
 30
0.0
 10
-10.38509
 20
-2.40274
 30
0.0
 10
-10.38509
 20
-2.40274
 30
0.0
 10
-7.89626
 20
-2.40274
 30
0.0
 10
-7.89626
 20
-2.40274
 30
0.0
  0
SPLINE
  5
78
330
1F
100
AcDbEntity
  8
Layer 1
 62
   177
370
     9
100
AcDbSpline
210
0.0
220
0.0
230
1.0
 70
    11
 71
     3
 72
    36
 73
    32
 74
     0
 42
0.0000000001
 43
0.0000000001
 12
1.0
 22
0.0
 32
0.0
 13
1.0
 23
0.0
 33
0.0
 40
0.0
 40
0.0
 40
0.0
 40
0.0
 40
0.1111111111111111
 40
0.1111111111111111
 40
0.1111111111111111
 40
0.1111111111111111
 40
0.2222222222222222
 40
0.2222222222222222
 40
0.2222222222222222
 40
0.2222222222222222
 40
0.3333333333333333
 40
0.3333333333333333
 40
0.3333333333333333
 40
0.3333333333333333
 40
0.4444444444444444
 40
0.4444444444444444
 40
0.4444444444444444
 40
0.4444444444444444
 40
0.5555555555555556
 40
0.5555555555555556
 40
0.5555555555555556
 40
0.5555555555555556
 40
0.6666666666666666
 40
0.6666666666666666
 40
0.6666666666666666
 40
0.6666666666666666
 40
0.7777777777777778
 40
0.7777777777777778
 40
0.7777777777777778
 40
0.7777777777777778
 40
1.0
 40
1.0
 40
1.0
 40
1.0
 10
-2.46339
 20
13.68118
 30
0.0
 10
-2.46339
 20
13.68118
 30
0.0
 10
6.77425
 20
13.68118
 30
0.0
 10
6.77425
 20
13.68118
 30
0.0
 10
6.77425
 20
13.68118
 30
0.0
 10
6.77425
 20
13.68118
 30
0.0
 10
6.77425
 20
13.54286
 30
0.0
 10
6.77425
 20
13.54286
 30
0.0
 10
6.77425
 20
13.54286
 30
0.0
 10
6.77425
 20
13.54286
 30
0.0
 10
6.77425
 20
-11.94832
 30
0.0
 10
6.77425
 20
-11.94832
 30
0.0
 10
6.77425
 20
-11.94832
 30
0.0
 10
6.77425
 20
-11.94832
 30
0.0
 10
6.77425
 20
-12.20285
 30
0.0
 10
6.77425
 20
-12.20285
 30
0.0
 10
6.77425
 20
-12.20285
 30
0.0
 10
6.77425
 20
-12.20285
 30
0.0
 10
-2.46339
 20
-12.20285
 30
0.0
 10
-2.46339
 20
-12.20285
 30
0.0
 10
-2.46339
 20
-12.20285
 30
0.0
 10
-2.46339
 20
-12.20285
 30
0.0
 10
-2.46339
 20
-11.94832
 30
0.0
 10
-2.46339
 20
-11.94832
 30
0.0
 10
-2.46339
 20
-11.94832
 30
0.0
 10
-2.46339
 20
-11.94832
 30
0.0
 10
-2.46339
 20
13.54286
 30
0.0
 10
-2.46339
 20
13.54286
 30
0.0
 10
-2.46339
 20
13.54286
 30
0.0
 10
-2.46339
 20
13.54286
 30
0.0
 10
-2.46339
 20
13.68118
 30
0.0
 10
-2.46339
 20
13.68118
 30
0.0
  0
SPLINE
  5
79
330
1F
100
AcDbEntity
  8
Layer 1
 62
   177
370
     9
100
AcDbSpline
210
0.0
220
0.0
230
1.0
 70
    11
 71
     3
 72
    20
 73
    16
 74
     0
 42
0.0000000001
 43
0.0000000001
 12
1.0
 22
0.0
 32
0.0
 13
1.0
 23
0.0
 33
0.0
 40
0.0
 40
0.0
 40
0.0
 40
0.0
 40
0.2
 40
0.2
 40
0.2
 40
0.2
 40
0.4
 40
0.4
 40
0.4
 40
0.4
 40
0.6
 40
0.6
 40
0.6
 40
0.6
 40
1.0
 40
1.0
 40
1.0
 40
1.0
 10
6.36654
 20
-11.34393
 30
0.0
 10
6.36654
 20
-11.34393
 30
0.0
 10
3.76018
 20
-11.34393
 30
0.0
 10
3.76018
 20
-11.34393
 30
0.0
 10
3.76018
 20
-11.34393
 30
0.0
 10
3.76018
 20
-11.34393
 30
0.0
 10
3.76018
 20
-11.79513
 30
0.0
 10
3.76018
 20
-11.79513
 30
0.0
 10
3.76018
 20
-11.79513
 30
0.0
 10
3.76018
 20
-11.79513
 30
0.0
 10
6.36654
 20
-11.79513
 30
0.0
 10
6.36654
 20
-11.79513
 30
0.0
 10
6.36654
 20
-11.79513
 30
0.0
 10
6.36654
 20
-11.79513
 30
0.0
 10
6.36654
 20
-11.34393
 30
0.0
 10
6.36654
 20
-11.34393
 30
0.0
  0
SPLINE
  5
7A
330
1F
100
AcDbEntity
  8
Layer 1
 62
   177
370
     9
100
AcDbSpline
210
0.0
220
0.0
230
1.0
 70
    11
 71
     3
 72
    20
 73
    16
 74
     0
 42
0.0000000001
 43
0.0000000001
 12
1.0
 22
0.0
 32
0.0
 13
1.0
 23
0.0
 33
0.0
 40
0.0
 40
0.0
 40
0.0
 40
0.0
 40
0.2
 40
0.2
 40
0.2
 40
0.2
 40
0.4
 40
0.4
 40
0.4
 40
0.4
 40
0.6
 40
0.6
 40
0.6
 40
0.6
 40
1.0
 40
1.0
 40
1.0
 40
1.0
 10
3.40377
 20
-11.79513
 30
0.0
 10
3.40377
 20
-11.79513
 30
0.0
 10
3.40377
 20
-11.34393
 30
0.0
 10
3.40377
 20
-11.34393
 30
0.0
 10
3.40377
 20
-11.34393
 30
0.0
 10
3.40377
 20
-11.34393
 30
0.0
 10
0.92315
 20
-11.34393
 30
0.0
 10
0.92315
 20
-11.34393
 30
0.0
 10
0.92315
 20
-11.34393
 30
0.0
 10
0.92315
 20
-11.34393
 30
0.0
 10
0.92315
 20
-11.79513
 30
0.0
 10
0.92315
 20
-11.79513
 30
0.0
 10
0.92315
 20
-11.79513
 30
0.0
 10
0.92315
 20
-11.79513
 30
0.0
 10
3.40377
 20
-11.79513
 30
0.0
 10
3.40377
 20
-11.79513
 30
0.0
  0
SPLINE
  5
7B
330
1F
100
AcDbEntity
  8
Layer 1
 62
   177
370
     9
100
AcDbSpline
210
0.0
220
0.0
230
1.0
 70
    11
 71
     3
 72
    20
 73
    16
 74
     0
 42
0.0000000001
 43
0.0000000001
 12
1.0
 22
0.0
 32
0.0
 13
1.0
 23
0.0
 33
0.0
 40
0.0
 40
0.0
 40
0.0
 40
0.0
 40
0.2
 40
0.2
 40
0.2
 40
0.2
 40
0.4
 40
0.4
 40
0.4
 40
0.4
 40
0.6
 40
0.6
 40
0.6
 40
0.6
 40
1.0
 40
1.0
 40
1.0
 40
1.0
 10
0.56674
 20
-11.79513
 30
0.0
 10
0.56674
 20
-11.79513
 30
0.0
 10
0.56674
 20
-11.34393
 30
0.0
 10
0.56674
 20
-11.34393
 30
0.0
 10
0.56674
 20
-11.34393
 30
0.0
 10
0.56674
 20
-11.34393
 30
0.0
 10
-2.05568
 20
-11.34393
 30
0.0
 10
-2.05568
 20
-11.34393
 30
0.0
 10
-2.05568
 20
-11.34393
 30
0.0
 10
-2.05568
 20
-11.34393
 30
0.0
 10
-2.05568
 20
-11.79513
 30
0.0
 10
-2.05568
 20
-11.79513
 30
0.0
 10
-2.05568
 20
-11.79513
 30
0.0
 10
-2.05568
 20
-11.79513
 30
0.0
 10
0.56674
 20
-11.79513
 30
0.0
 10
0.56674
 20
-11.79513
 30
0.0
  0
SPLINE
  5
7C
330
1F
100
AcDbEntity
  8
Layer 1
 62
   177
370
     9
100
AcDbSpline
210
0.0
220
0.0
230
1.0
 70
    11
 71
     3
 72
    36
 73
    32
 74
     0
 42
0.0000000001
 43
0.0000000001
 12
1.0
 22
0.0
 32
0.0
 13
1.0
 23
0.0
 33
0.0
 40
0.0
 40
0.0
 40
0.0
 40
0.0
 40
0.1111111111111111
 40
0.1111111111111111
 40
0.1111111111111111
 40
0.1111111111111111
 40
0.2222222222222222
 40
0.2222222222222222
 40
0.2222222222222222
 40
0.2222222222222222
 40
0.3333333333333333
 40
0.3333333333333333
 40
0.3333333333333333
 40
0.3333333333333333
 40
0.4444444444444444
 40
0.4444444444444444
 40
0.4444444444444444
 40
0.4444444444444444
 40
0.5555555555555556
 40
0.5555555555555556
 40
0.5555555555555556
 40
0.5555555555555556
 40
0.6666666666666666
 40
0.6666666666666666
 40
0.6666666666666666
 40
0.6666666666666666
 40
0.7777777777777778
 40
0.7777777777777778
 40
0.7777777777777778
 40
0.7777777777777778
 40
1.0
 40
1.0
 40
1.0
 40
1.0
 10
-2.05568
 20
7.34714
 30
0.0
 10
-2.05568
 20
7.34714
 30
0.0
 10
-0.86921
 20
7.34714
 30
0.0
 10
-0.86921
 20
7.34714
 30
0.0
 10
-0.86921
 20
7.34714
 30
0.0
 10
-0.86921
 20
7.34714
 30
0.0
 10
-0.86921
 20
5.6269
 30
0.0
 10
-0.86921
 20
5.6269
 30
0.0
 10
-0.86921
 20
5.6269
 30
0.0
 10
-0.40994
 20
5.6269
 30
0.0
 10
0.08882
 20
5.6269
 30
0.0
 10
0.56196
 20
5.6269
 30
0.0
 10
0.56196
 20
5.6269
 30
0.0
 10
0.56196
 20
5.6269
 30
0.0
 10
0.56196
 20
5.02021
 30
0.0
 10
0.56196
 20
5.02021
 30
0.0
 10
0.56196
 20
5.02021
 30
0.0
 10
0.56196
 20
5.02021
 30
0.0
 10
0.56674
 20
5.02021
 30
0.0
 10
0.56674
 20
5.02021
 30
0.0
 10
0.56674
 20
5.02021
 30
0.0
 10
0.56674
 20
5.02021
 30
0.0
 10
0.56674
 20
4.39914
 30
0.0
 10
0.56674
 20
4.39914
 30
0.0
 10
0.56674
 20
4.39914
 30
0.0
 10
0.56674
 20
4.39914
 30
0.0
 10
-2.05568
 20
4.39914
 30
0.0
 10
-2.05568
 20
4.39914
 30
0.0
 10
-2.05568
 20
4.39914
 30
0.0
 10
-2.05568
 20
4.39914
 30
0.0
 10
-2.05568
 20
7.34714
 30
0.0
 10
-2.05568
 20
7.34714
 30
0.0
  0
SPLINE
  5
7D
330
1F
100
AcDbEntity
  8
Layer 1
 62
   177
370
     9
100
AcDbSpline
210
0.0
220
0.0
230
1.0
 70
    11
 71
     3
 72
    36
 73
    32
 74
     0
 42
0.0000000001
 43
0.0000000001
 12
1.0
 22
0.0
 32
0.0
 13
1.0
 23
0.0
 33
0.0
 40
0.0
 40
0.0
 40
0.0
 40
0.0
 40
0.1111111111111111
 40
0.1111111111111111
 40
0.1111111111111111
 40
0.1111111111111111
 40
0.2222222222222222
 40
0.2222222222222222
 40
0.2222222222222222
 40
0.2222222222222222
 40
0.3333333333333333
 40
0.3333333333333333
 40
0.3333333333333333
 40
0.3333333333333333
 40
0.4444444444444444
 40
0.4444444444444444
 40
0.4444444444444444
 40
0.4444444444444444
 40
0.5555555555555556
 40
0.5555555555555556
 40
0.5555555555555556
 40
0.5555555555555556
 40
0.6666666666666666
 40
0.6666666666666666
 40
0.6666666666666666
 40
0.6666666666666666
 40
0.7777777777777778
 40
0.7777777777777778
 40
0.7777777777777778
 40
0.7777777777777778
 40
1.0
 40
1.0
 40
1.0
 40
1.0
 10
3.76018
 20
5.02021
 30
0.0
 10
3.76018
 20
5.02021
 30
0.0
 10
3.765
 20
5.02021
 30
0.0
 10
3.765
 20
5.02021
 30
0.0
 10
3.765
 20
5.02021
 30
0.0
 10
3.765
 20
5.02021
 30
0.0
 10
3.765
 20
5.6269
 30
0.0
 10
3.765
 20
5.6269
 30
0.0
 10
3.765
 20
5.6269
 30
0.0
 10
4.23974
 20
5.6269
 30
0.0
 10
4.73489
 20
5.6269
 30
0.0
 10
5.19613
 20
5.6269
 30
0.0
 10
5.19613
 20
5.6269
 30
0.0
 10
5.19613
 20
5.6269
 30
0.0
 10
5.19613
 20
7.34714
 30
0.0
 10
5.19613
 20
7.34714
 30
0.0
 10
5.19613
 20
7.34714
 30
0.0
 10
5.19613
 20
7.34714
 30
0.0
 10
6.36654
 20
7.34714
 30
0.0
 10
6.36654
 20
7.34714
 30
0.0
 10
6.36654
 20
7.34714
 30
0.0
 10
6.36654
 20
7.34714
 30
0.0
 10
6.36654
 20
4.39914
 30
0.0
 10
6.36654
 20
4.39914
 30
0.0
 10
6.36654
 20
4.39914
 30
0.0
 10
6.36654
 20
4.39914
 30
0.0
 10
3.76018
 20
4.39914
 30
0.0
 10
3.76018
 20
4.39914
 30
0.0
 10
3.76018
 20
4.39914
 30
0.0
 10
3.76018
 20
4.39914
 30
0.0
 10
3.76018
 20
5.02021
 30
0.0
 10
3.76018
 20
5.02021
 30
0.0
  0
SPLINE
  5
7E
330
1F
100
AcDbEntity
  8
Layer 1
 62
   177
370
     9
100
AcDbSpline
210
0.0
220
0.0
230
1.0
 70
    11
 71
     3
 72
    20
 73
    16
 74
     0
 42
0.0000000001
 43
0.0000000001
 12
1.0
 22
0.0
 32
0.0
 13
1.0
 23
0.0
 33
0.0
 40
0.0
 40
0.0
 40
0.0
 40
0.0
 40
0.2
 40
0.2
 40
0.2
 40
0.2
 40
0.4
 40
0.4
 40
0.4
 40
0.4
 40
0.6
 40
0.6
 40
0.6
 40
0.6
 40
1.0
 40
1.0
 40
1.0
 40
1.0
 10
6.36654
 20
12.77378
 30
0.0
 10
6.36654
 20
12.77378
 30
0.0
 10
3.765
 20
12.77378
 30
0.0
 10
3.765
 20
12.77378
 30
0.0
 10
3.765
 20
12.77378
 30
0.0
 10
3.765
 20
12.77378
 30
0.0
 10
3.765
 20
13.27346
 30
0.0
 10
3.765
 20
13.27346
 30
0.0
 10
3.765
 20
13.27346
 30
0.0
 10
3.765
 20
13.27346
 30
0.0
 10
6.36654
 20
13.27346
 30
0.0
 10
6.36654
 20
13.27346
 30
0.0
 10
6.36654
 20
13.27346
 30
0.0
 10
6.36654
 20
13.27346
 30
0.0
 10
6.36654
 20
12.77378
 30
0.0
 10
6.36654
 20
12.77378
 30
0.0
  0
SPLINE
  5
7F
330
1F
100
AcDbEntity
  8
Layer 1
 62
   177
370
     9
100
AcDbSpline
210
0.0
220
0.0
230
1.0
 70
    11
 71
     3
 72
    20
 73
    16
 74
     0
 42
0.0000000001
 43
0.0000000001
 12
1.0
 22
0.0
 32
0.0
 13
1.0
 23
0.0
 33
0.0
 40
0.0
 40
0.0
 40
0.0
 40
0.0
 40
0.2
 40
0.2
 40
0.2
 40
0.2
 40
0.4
 40
0.4
 40
0.4
 40
0.4
 40
0.6
 40
0.6
 40
0.6
 40
0.6
 40
1.0
 40
1.0
 40
1.0
 40
1.0
 10
3.40784
 20
13.27346
 30
0.0
 10
3.40784
 20
13.27346
 30
0.0
 10
3.40784
 20
12.77378
 30
0.0
 10
3.40784
 20
12.77378
 30
0.0
 10
3.40784
 20
12.77378
 30
0.0
 10
3.40784
 20
12.77378
 30
0.0
 10
0.91912
 20
12.77378
 30
0.0
 10
0.91912
 20
12.77378
 30
0.0
 10
0.91912
 20
12.77378
 30
0.0
 10
0.91912
 20
12.77378
 30
0.0
 10
0.91912
 20
13.27346
 30
0.0
 10
0.91912
 20
13.27346
 30
0.0
 10
0.91912
 20
13.27346
 30
0.0
 10
0.91912
 20
13.27346
 30
0.0
 10
3.40784
 20
13.27346
 30
0.0
 10
3.40784
 20
13.27346
 30
0.0
  0
SPLINE
  5
80
330
1F
100
AcDbEntity
  8
Layer 1
 62
   177
370
     9
100
AcDbSpline
210
0.0
220
0.0
230
1.0
 70
    11
 71
     3
 72
    20
 73
    16
 74
     0
 42
0.0000000001
 43
0.0000000001
 12
1.0
 22
0.0
 32
0.0
 13
1.0
 23
0.0
 33
0.0
 40
0.0
 40
0.0
 40
0.0
 40
0.0
 40
0.2
 40
0.2
 40
0.2
 40
0.2
 40
0.4
 40
0.4
 40
0.4
 40
0.4
 40
0.6
 40
0.6
 40
0.6
 40
0.6
 40
1.0
 40
1.0
 40
1.0
 40
1.0
 10
0.56196
 20
13.27346
 30
0.0
 10
0.56196
 20
13.27346
 30
0.0
 10
0.56196
 20
12.77378
 30
0.0
 10
0.56196
 20
12.77378
 30
0.0
 10
0.56196
 20
12.77378
 30
0.0
 10
0.56196
 20
12.77378
 30
0.0
 10
-2.05568
 20
12.77378
 30
0.0
 10
-2.05568
 20
12.77378
 30
0.0
 10
-2.05568
 20
12.77378
 30
0.0
 10
-2.05568
 20
12.77378
 30
0.0
 10
-2.05568
 20
13.27346
 30
0.0
 10
-2.05568
 20
13.27346
 30
0.0
 10
-2.05568
 20
13.27346
 30
0.0
 10
-2.05568
 20
13.27346
 30
0.0
 10
0.56196
 20
13.27346
 30
0.0
 10
0.56196
 20
13.27346
 30
0.0
  0
SPLINE
  5
81
330
1F
100
AcDbEntity
  8
Layer 1
 62
   177
370
     9
100
AcDbSpline
210
0.0
220
0.0
230
1.0
 70
    11
 71
     3
 72
    20
 73
    16
 74
     0
 42
0.0000000001
 43
0.0000000001
 12
1.0
 22
0.0
 32
0.0
 13
1.0
 23
0.0
 33
0.0
 40
0.0
 40
0.0
 40
0.0
 40
0.0
 40
0.2
 40
0.2
 40
0.2
 40
0.2
 40
0.4
 40
0.4
 40
0.4
 40
0.4
 40
0.6
 40
0.6
 40
0.6
 40
0.6
 40
1.0
 40
1.0
 40
1.0
 40
1.0
 10
6.36654
 20
7.68009
 30
0.0
 10
6.36654
 20
7.68009
 30
0.0
 10
5.19613
 20
7.68009
 30
0.0
 10
5.19613
 20
7.68009
 30
0.0
 10
5.19613
 20
7.68009
 30
0.0
 10
5.19613
 20
7.68009
 30
0.0
 10
5.19613
 20
9.00811
 30
0.0
 10
5.19613
 20
9.00811
 30
0.0
 10
5.19613
 20
9.00811
 30
0.0
 10
5.19613
 20
9.00811
 30
0.0
 10
6.36654
 20
9.00811
 30
0.0
 10
6.36654
 20
9.00811
 30
0.0
 10
6.36654
 20
9.00811
 30
0.0
 10
6.36654
 20
9.00811
 30
0.0
 10
6.36654
 20
7.68009
 30
0.0
 10
6.36654
 20
7.68009
 30
0.0
  0
SPLINE
  5
82
330
1F
100
AcDbEntity
  8
Layer 1
 62
   177
370
     9
100
AcDbSpline
210
0.0
220
0.0
230
1.0
 70
    11
 71
     3
 72
    20
 73
    16
 74
     0
 42
0.0000000001
 43
0.0000000001
 12
1.0
 22
0.0
 32
0.0
 13
1.0
 23
0.0
 33
0.0
 40
0.0
 40
0.0
 40
0.0
 40
0.0
 40
0.2
 40
0.2
 40
0.2
 40
0.2
 40
0.4
 40
0.4
 40
0.4
 40
0.4
 40
0.6
 40
0.6
 40
0.6
 40
0.6
 40
1.0
 40
1.0
 40
1.0
 40
1.0
 10
6.36654
 20
9.34101
 30
0.0
 10
6.36654
 20
9.34101
 30
0.0
 10
5.19613
 20
9.34101
 30
0.0
 10
5.19613
 20
9.34101
 30
0.0
 10
5.19613
 20
9.34101
 30
0.0
 10
5.19613
 20
9.34101
 30
0.0
 10
5.19613
 20
12.44088
 30
0.0
 10
5.19613
 20
12.44088
 30
0.0
 10
5.19613
 20
12.44088
 30
0.0
 10
5.19613
 20
12.44088
 30
0.0
 10
6.36654
 20
12.44088
 30
0.0
 10
6.36654
 20
12.44088
 30
0.0
 10
6.36654
 20
12.44088
 30
0.0
 10
6.36654
 20
12.44088
 30
0.0
 10
6.36654
 20
9.34101
 30
0.0
 10
6.36654
 20
9.34101
 30
0.0
  0
SPLINE
  5
83
330
1F
100
AcDbEntity
  8
Layer 1
 62
   177
370
     9
100
AcDbSpline
210
0.0
220
0.0
230
1.0
 70
    11
 71
     3
 72
    20
 73
    16
 74
     0
 42
0.0000000001
 43
0.0000000001
 12
1.0
 22
0.0
 32
0.0
 13
1.0
 23
0.0
 33
0.0
 40
0.0
 40
0.0
 40
0.0
 40
0.0
 40
0.2
 40
0.2
 40
0.2
 40
0.2
 40
0.4
 40
0.4
 40
0.4
 40
0.4
 40
0.6
 40
0.6
 40
0.6
 40
0.6
 40
1.0
 40
1.0
 40
1.0
 40
1.0
 10
-2.05568
 20
12.44088
 30
0.0
 10
-2.05568
 20
12.44088
 30
0.0
 10
-0.86921
 20
12.44088
 30
0.0
 10
-0.86921
 20
12.44088
 30
0.0
 10
-0.86921
 20
12.44088
 30
0.0
 10
-0.86921
 20
12.44088
 30
0.0
 10
-0.86921
 20
9.34101
 30
0.0
 10
-0.86921
 20
9.34101
 30
0.0
 10
-0.86921
 20
9.34101
 30
0.0
 10
-0.86921
 20
9.34101
 30
0.0
 10
-2.05568
 20
9.34101
 30
0.0
 10
-2.05568
 20
9.34101
 30
0.0
 10
-2.05568
 20
9.34101
 30
0.0
 10
-2.05568
 20
9.34101
 30
0.0
 10
-2.05568
 20
12.44088
 30
0.0
 10
-2.05568
 20
12.44088
 30
0.0
  0
SPLINE
  5
84
330
1F
100
AcDbEntity
  8
Layer 1
 62
   177
370
     9
100
AcDbSpline
210
0.0
220
0.0
230
1.0
 70
    11
 71
     3
 72
    20
 73
    16
 74
     0
 42
0.0000000001
 43
0.0000000001
 12
1.0
 22
0.0
 32
0.0
 13
1.0
 23
0.0
 33
0.0
 40
0.0
 40
0.0
 40
0.0
 40
0.0
 40
0.2
 40
0.2
 40
0.2
 40
0.2
 40
0.4
 40
0.4
 40
0.4
 40
0.4
 40
0.6
 40
0.6
 40
0.6
 40
0.6
 40
1.0
 40
1.0
 40
1.0
 40
1.0
 10
-2.05568
 20
9.00811
 30
0.0
 10
-2.05568
 20
9.00811
 30
0.0
 10
-0.86921
 20
9.00811
 30
0.0
 10
-0.86921
 20
9.00811
 30
0.0
 10
-0.86921
 20
9.00811
 30
0.0
 10
-0.86921
 20
9.00811
 30
0.0
 10
-0.86921
 20
7.68009
 30
0.0
 10
-0.86921
 20
7.68009
 30
0.0
 10
-0.86921
 20
7.68009
 30
0.0
 10
-0.86921
 20
7.68009
 30
0.0
 10
-2.05568
 20
7.68009
 30
0.0
 10
-2.05568
 20
7.68009
 30
0.0
 10
-2.05568
 20
7.68009
 30
0.0
 10
-2.05568
 20
7.68009
 30
0.0
 10
-2.05568
 20
9.00811
 30
0.0
 10
-2.05568
 20
9.00811
 30
0.0
  0
SPLINE
  5
85
330
1F
100
AcDbEntity
  8
Layer 1
 62
   177
370
     9
100
AcDbSpline
210
0.0
220
0.0
230
1.0
 70
    11
 71
     3
 72
    20
 73
    16
 74
     0
 42
0.0000000001
 43
0.0000000001
 12
1.0
 22
0.0
 32
0.0
 13
1.0
 23
0.0
 33
0.0
 40
0.0
 40
0.0
 40
0.0
 40
0.0
 40
0.2
 40
0.2
 40
0.2
 40
0.2
 40
0.4
 40
0.4
 40
0.4
 40
0.4
 40
0.6
 40
0.6
 40
0.6
 40
0.6
 40
1.0
 40
1.0
 40
1.0
 40
1.0
 10
-0.51205
 20
11.05648
 30
0.0
 10
-0.51205
 20
11.05648
 30
0.0
 10
1.9849
 20
11.05648
 30
0.0
 10
1.9849
 20
11.05648
 30
0.0
 10
1.9849
 20
11.05648
 30
0.0
 10
1.9849
 20
11.05648
 30
0.0
 10
1.9849
 20
12.44088
 30
0.0
 10
1.9849
 20
12.44088
 30
0.0
 10
1.9849
 20
12.44088
 30
0.0
 10
1.9849
 20
12.44088
 30
0.0
 10
-0.51205
 20
12.44088
 30
0.0
 10
-0.51205
 20
12.44088
 30
0.0
 10
-0.51205
 20
12.44088
 30
0.0
 10
-0.51205
 20
12.44088
 30
0.0
 10
-0.51205
 20
11.05648
 30
0.0
 10
-0.51205
 20
11.05648
 30
0.0
  0
SPLINE
  5
86
330
1F
100
AcDbEntity
  8
Layer 1
 62
   177
370
     9
100
AcDbSpline
210
0.0
220
0.0
230
1.0
 70
    11
 71
     3
 72
    20
 73
    16
 74
     0
 42
0.0000000001
 43
0.0000000001
 12
1.0
 22
0.0
 32
0.0
 13
1.0
 23
0.0
 33
0.0
 40
0.0
 40
0.0
 40
0.0
 40
0.0
 40
0.2
 40
0.2
 40
0.2
 40
0.2
 40
0.4
 40
0.4
 40
0.4
 40
0.4
 40
0.6
 40
0.6
 40
0.6
 40
0.6
 40
1.0
 40
1.0
 40
1.0
 40
1.0
 10
2.34201
 20
11.05648
 30
0.0
 10
2.34201
 20
11.05648
 30
0.0
 10
4.83215
 20
11.05648
 30
0.0
 10
4.83215
 20
11.05648
 30
0.0
 10
4.83215
 20
11.05648
 30
0.0
 10
4.83215
 20
11.05648
 30
0.0
 10
4.83215
 20
12.44088
 30
0.0
 10
4.83215
 20
12.44088
 30
0.0
 10
4.83215
 20
12.44088
 30
0.0
 10
4.83215
 20
12.44088
 30
0.0
 10
2.34201
 20
12.44088
 30
0.0
 10
2.34201
 20
12.44088
 30
0.0
 10
2.34201
 20
12.44088
 30
0.0
 10
2.34201
 20
12.44088
 30
0.0
 10
2.34201
 20
11.05648
 30
0.0
 10
2.34201
 20
11.05648
 30
0.0
  0
SPLINE
  5
87
330
1F
100
AcDbEntity
  8
Layer 1
 62
   177
370
     9
100
AcDbSpline
210
0.0
220
0.0
230
1.0
 70
    11
 71
     3
 72
    20
 73
    16
 74
     0
 42
0.0000000001
 43
0.0000000001
 12
1.0
 22
0.0
 32
0.0
 13
1.0
 23
0.0
 33
0.0
 40
0.0
 40
0.0
 40
0.0
 40
0.0
 40
0.2
 40
0.2
 40
0.2
 40
0.2
 40
0.4
 40
0.4
 40
0.4
 40
0.4
 40
0.6
 40
0.6
 40
0.6
 40
0.6
 40
1.0
 40
1.0
 40
1.0
 40
1.0
 10
4.83215
 20
10.72353
 30
0.0
 10
4.83215
 20
10.72353
 30
0.0
 10
3.765
 20
10.72353
 30
0.0
 10
3.765
 20
10.72353
 30
0.0
 10
3.765
 20
10.72353
 30
0.0
 10
3.765
 20
10.72353
 30
0.0
 10
3.765
 20
7.68009
 30
0.0
 10
3.765
 20
7.68009
 30
0.0
 10
3.765
 20
7.68009
 30
0.0
 10
3.765
 20
7.68009
 30
0.0
 10
4.83215
 20
7.68009
 30
0.0
 10
4.83215
 20
7.68009
 30
0.0
 10
4.83215
 20
7.68009
 30
0.0
 10
4.83215
 20
7.68009
 30
0.0
 10
4.83215
 20
10.72353
 30
0.0
 10
4.83215
 20
10.72353
 30
0.0
  0
SPLINE
  5
88
330
1F
100
AcDbEntity
  8
Layer 1
 62
   177
370
     9
100
AcDbSpline
210
0.0
220
0.0
230
1.0
 70
    11
 71
     3
 72
    20
 73
    16
 74
     0
 42
0.0000000001
 43
0.0000000001
 12
1.0
 22
0.0
 32
0.0
 13
1.0
 23
0.0
 33
0.0
 40
0.0
 40
0.0
 40
0.0
 40
0.0
 40
0.2
 40
0.2
 40
0.2
 40
0.2
 40
0.4
 40
0.4
 40
0.4
 40
0.4
 40
0.6
 40
0.6
 40
0.6
 40
0.6
 40
1.0
 40
1.0
 40
1.0
 40
1.0
 10
3.40784
 20
10.72353
 30
0.0
 10
3.40784
 20
10.72353
 30
0.0
 10
2.34201
 20
10.72353
 30
0.0
 10
2.34201
 20
10.72353
 30
0.0
 10
2.34201
 20
10.72353
 30
0.0
 10
2.34201
 20
10.72353
 30
0.0
 10
2.34201
 20
9.34101
 30
0.0
 10
2.34201
 20
9.34101
 30
0.0
 10
2.34201
 20
9.34101
 30
0.0
 10
2.34201
 20
9.34101
 30
0.0
 10
3.40784
 20
9.34101
 30
0.0
 10
3.40784
 20
9.34101
 30
0.0
 10
3.40784
 20
9.34101
 30
0.0
 10
3.40784
 20
9.34101
 30
0.0
 10
3.40784
 20
10.72353
 30
0.0
 10
3.40784
 20
10.72353
 30
0.0
  0
SPLINE
  5
89
330
1F
100
AcDbEntity
  8
Layer 1
 62
   177
370
     9
100
AcDbSpline
210
0.0
220
0.0
230
1.0
 70
    11
 71
     3
 72
    20
 73
    16
 74
     0
 42
0.0000000001
 43
0.0000000001
 12
1.0
 22
0.0
 32
0.0
 13
1.0
 23
0.0
 33
0.0
 40
0.0
 40
0.0
 40
0.0
 40
0.0
 40
0.2
 40
0.2
 40
0.2
 40
0.2
 40
0.4
 40
0.4
 40
0.4
 40
0.4
 40
0.6
 40
0.6
 40
0.6
 40
0.6
 40
1.0
 40
1.0
 40
1.0
 40
1.0
 10
1.9849
 20
10.72353
 30
0.0
 10
1.9849
 20
10.72353
 30
0.0
 10
0.91912
 20
10.72353
 30
0.0
 10
0.91912
 20
10.72353
 30
0.0
 10
0.91912
 20
10.72353
 30
0.0
 10
0.91912
 20
10.72353
 30
0.0
 10
0.91912
 20
9.34101
 30
0.0
 10
0.91912
 20
9.34101
 30
0.0
 10
0.91912
 20
9.34101
 30
0.0
 10
0.91912
 20
9.34101
 30
0.0
 10
1.9849
 20
9.34101
 30
0.0
 10
1.9849
 20
9.34101
 30
0.0
 10
1.9849
 20
9.34101
 30
0.0
 10
1.9849
 20
9.34101
 30
0.0
 10
1.9849
 20
10.72353
 30
0.0
 10
1.9849
 20
10.72353
 30
0.0
  0
SPLINE
  5
8A
330
1F
100
AcDbEntity
  8
Layer 1
 62
   177
370
     9
100
AcDbSpline
210
0.0
220
0.0
230
1.0
 70
    11
 71
     3
 72
    20
 73
    16
 74
     0
 42
0.0000000001
 43
0.0000000001
 12
1.0
 22
0.0
 32
0.0
 13
1.0
 23
0.0
 33
0.0
 40
0.0
 40
0.0
 40
0.0
 40
0.0
 40
0.2
 40
0.2
 40
0.2
 40
0.2
 40
0.4
 40
0.4
 40
0.4
 40
0.4
 40
0.6
 40
0.6
 40
0.6
 40
0.6
 40
1.0
 40
1.0
 40
1.0
 40
1.0
 10
0.56196
 20
10.72353
 30
0.0
 10
0.56196
 20
10.72353
 30
0.0
 10
-0.51205
 20
10.72353
 30
0.0
 10
-0.51205
 20
10.72353
 30
0.0
 10
-0.51205
 20
10.72353
 30
0.0
 10
-0.51205
 20
10.72353
 30
0.0
 10
-0.51205
 20
7.68009
 30
0.0
 10
-0.51205
 20
7.68009
 30
0.0
 10
-0.51205
 20
7.68009
 30
0.0
 10
-0.51205
 20
7.68009
 30
0.0
 10
0.56196
 20
7.68009
 30
0.0
 10
0.56196
 20
7.68009
 30
0.0
 10
0.56196
 20
7.68009
 30
0.0
 10
0.56196
 20
7.68009
 30
0.0
 10
0.56196
 20
10.72353
 30
0.0
 10
0.56196
 20
10.72353
 30
0.0
  0
SPLINE
  5
8B
330
1F
100
AcDbEntity
  8
Layer 1
 62
   177
370
     9
100
AcDbSpline
210
0.0
220
0.0
230
1.0
 70
    11
 71
     3
 72
    20
 73
    16
 74
     0
 42
0.0000000001
 43
0.0000000001
 12
1.0
 22
0.0
 32
0.0
 13
1.0
 23
0.0
 33
0.0
 40
0.0
 40
0.0
 40
0.0
 40
0.0
 40
0.2
 40
0.2
 40
0.2
 40
0.2
 40
0.4
 40
0.4
 40
0.4
 40
0.4
 40
0.6
 40
0.6
 40
0.6
 40
0.6
 40
1.0
 40
1.0
 40
1.0
 40
1.0
 10
3.40784
 20
9.00811
 30
0.0
 10
3.40784
 20
9.00811
 30
0.0
 10
2.34201
 20
9.00811
 30
0.0
 10
2.34201
 20
9.00811
 30
0.0
 10
2.34201
 20
9.00811
 30
0.0
 10
2.34201
 20
9.00811
 30
0.0
 10
2.34201
 20
7.68009
 30
0.0
 10
2.34201
 20
7.68009
 30
0.0
 10
2.34201
 20
7.68009
 30
0.0
 10
2.34201
 20
7.68009
 30
0.0
 10
3.40784
 20
7.68009
 30
0.0
 10
3.40784
 20
7.68009
 30
0.0
 10
3.40784
 20
7.68009
 30
0.0
 10
3.40784
 20
7.68009
 30
0.0
 10
3.40784
 20
9.00811
 30
0.0
 10
3.40784
 20
9.00811
 30
0.0
  0
SPLINE
  5
8C
330
1F
100
AcDbEntity
  8
Layer 1
 62
   177
370
     9
100
AcDbSpline
210
0.0
220
0.0
230
1.0
 70
    11
 71
     3
 72
    20
 73
    16
 74
     0
 42
0.0000000001
 43
0.0000000001
 12
1.0
 22
0.0
 32
0.0
 13
1.0
 23
0.0
 33
0.0
 40
0.0
 40
0.0
 40
0.0
 40
0.0
 40
0.2
 40
0.2
 40
0.2
 40
0.2
 40
0.4
 40
0.4
 40
0.4
 40
0.4
 40
0.6
 40
0.6
 40
0.6
 40
0.6
 40
1.0
 40
1.0
 40
1.0
 40
1.0
 10
1.9849
 20
9.00811
 30
0.0
 10
1.9849
 20
9.00811
 30
0.0
 10
0.91912
 20
9.00811
 30
0.0
 10
0.91912
 20
9.00811
 30
0.0
 10
0.91912
 20
9.00811
 30
0.0
 10
0.91912
 20
9.00811
 30
0.0
 10
0.91912
 20
7.68009
 30
0.0
 10
0.91912
 20
7.68009
 30
0.0
 10
0.91912
 20
7.68009
 30
0.0
 10
0.91912
 20
7.68009
 30
0.0
 10
1.9849
 20
7.68009
 30
0.0
 10
1.9849
 20
7.68009
 30
0.0
 10
1.9849
 20
7.68009
 30
0.0
 10
1.9849
 20
7.68009
 30
0.0
 10
1.9849
 20
9.00811
 30
0.0
 10
1.9849
 20
9.00811
 30
0.0
  0
SPLINE
  5
8D
330
1F
100
AcDbEntity
  8
Layer 1
 62
   177
370
     9
100
AcDbSpline
210
0.0
220
0.0
230
1.0
 70
    11
 71
     3
 72
    20
 73
    16
 74
     0
 42
0.0000000001
 43
0.0000000001
 12
1.0
 22
0.0
 32
0.0
 13
1.0
 23
0.0
 33
0.0
 40
0.0
 40
0.0
 40
0.0
 40
0.0
 40
0.2
 40
0.2
 40
0.2
 40
0.2
 40
0.4
 40
0.4
 40
0.4
 40
0.4
 40
0.6
 40
0.6
 40
0.6
 40
0.6
 40
1.0
 40
1.0
 40
1.0
 40
1.0
 10
4.83215
 20
7.34714
 30
0.0
 10
4.83215
 20
7.34714
 30
0.0
 10
2.34201
 20
7.34714
 30
0.0
 10
2.34201
 20
7.34714
 30
0.0
 10
2.34201
 20
7.34714
 30
0.0
 10
2.34201
 20
7.34714
 30
0.0
 10
2.34201
 20
5.96787
 30
0.0
 10
2.34201
 20
5.96787
 30
0.0
 10
2.34201
 20
5.96787
 30
0.0
 10
2.34201
 20
5.96787
 30
0.0
 10
4.83215
 20
5.96787
 30
0.0
 10
4.83215
 20
5.96787
 30
0.0
 10
4.83215
 20
5.96787
 30
0.0
 10
4.83215
 20
5.96787
 30
0.0
 10
4.83215
 20
7.34714
 30
0.0
 10
4.83215
 20
7.34714
 30
0.0
  0
SPLINE
  5
8E
330
1F
100
AcDbEntity
  8
Layer 1
 62
   177
370
     9
100
AcDbSpline
210
0.0
220
0.0
230
1.0
 70
    11
 71
     3
 72
    20
 73
    16
 74
     0
 42
0.0000000001
 43
0.0000000001
 12
1.0
 22
0.0
 32
0.0
 13
1.0
 23
0.0
 33
0.0
 40
0.0
 40
0.0
 40
0.0
 40
0.0
 40
0.2
 40
0.2
 40
0.2
 40
0.2
 40
0.4
 40
0.4
 40
0.4
 40
0.4
 40
0.6
 40
0.6
 40
0.6
 40
0.6
 40
1.0
 40
1.0
 40
1.0
 40
1.0
 10
1.9849
 20
5.96787
 30
0.0
 10
1.9849
 20
5.96787
 30
0.0
 10
1.9849
 20
7.34714
 30
0.0
 10
1.9849
 20
7.34714
 30
0.0
 10
1.9849
 20
7.34714
 30
0.0
 10
1.9849
 20
7.34714
 30
0.0
 10
-0.51205
 20
7.34714
 30
0.0
 10
-0.51205
 20
7.34714
 30
0.0
 10
-0.51205
 20
7.34714
 30
0.0
 10
-0.51205
 20
7.34714
 30
0.0
 10
-0.51205
 20
5.96787
 30
0.0
 10
-0.51205
 20
5.96787
 30
0.0
 10
-0.51205
 20
5.96787
 30
0.0
 10
-0.51205
 20
5.96787
 30
0.0
 10
1.9849
 20
5.96787
 30
0.0
 10
1.9849
 20
5.96787
 30
0.0
  0
SPLINE
  5
8F
330
1F
100
AcDbEntity
  8
Layer 1
 62
   177
370
     9
100
AcDbSpline
210
0.0
220
0.0
230
1.0
 70
    11
 71
     3
 72
    20
 73
    16
 74
     0
 42
0.0000000001
 43
0.0000000001
 12
1.0
 22
0.0
 32
0.0
 13
1.0
 23
0.0
 33
0.0
 40
0.0
 40
0.0
 40
0.0
 40
0.0
 40
0.2
 40
0.2
 40
0.2
 40
0.2
 40
0.4
 40
0.4
 40
0.4
 40
0.4
 40
0.6
 40
0.6
 40
0.6
 40
0.6
 40
1.0
 40
1.0
 40
1.0
 40
1.0
 10
6.36654
 20
4.06632
 30
0.0
 10
6.36654
 20
4.06632
 30
0.0
 10
5.18686
 20
4.06632
 30
0.0
 10
5.18686
 20
4.06632
 30
0.0
 10
5.18686
 20
4.06632
 30
0.0
 10
5.18686
 20
4.06632
 30
0.0
 10
5.18686
 20
0.96836
 30
0.0
 10
5.18686
 20
0.96836
 30
0.0
 10
5.18686
 20
0.96836
 30
0.0
 10
5.18686
 20
0.96836
 30
0.0
 10
6.36654
 20
0.96836
 30
0.0
 10
6.36654
 20
0.96836
 30
0.0
 10
6.36654
 20
0.96836
 30
0.0
 10
6.36654
 20
0.96836
 30
0.0
 10
6.36654
 20
4.06632
 30
0.0
 10
6.36654
 20
4.06632
 30
0.0
  0
SPLINE
  5
90
330
1F
100
AcDbEntity
  8
Layer 1
 62
   177
370
     9
100
AcDbSpline
210
0.0
220
0.0
230
1.0
 70
    11
 71
     3
 72
    20
 73
    16
 74
     0
 42
0.0000000001
 43
0.0000000001
 12
1.0
 22
0.0
 32
0.0
 13
1.0
 23
0.0
 33
0.0
 40
0.0
 40
0.0
 40
0.0
 40
0.0
 40
0.2
 40
0.2
 40
0.2
 40
0.2
 40
0.4
 40
0.4
 40
0.4
 40
0.4
 40
0.6
 40
0.6
 40
0.6
 40
0.6
 40
1.0
 40
1.0
 40
1.0
 40
1.0
 10
6.36654
 20
0.63558
 30
0.0
 10
6.36654
 20
0.63558
 30
0.0
 10
5.18686
 20
0.63558
 30
0.0
 10
5.18686
 20
0.63558
 30
0.0
 10
5.18686
 20
0.63558
 30
0.0
 10
5.18686
 20
0.63558
 30
0.0
 10
5.18686
 20
-0.69153
 30
0.0
 10
5.18686
 20
-0.69153
 30
0.0
 10
5.18686
 20
-0.69153
 30
0.0
 10
5.18686
 20
-0.69153
 30
0.0
 10
6.36654
 20
-0.69153
 30
0.0
 10
6.36654
 20
-0.69153
 30
0.0
 10
6.36654
 20
-0.69153
 30
0.0
 10
6.36654
 20
-0.69153
 30
0.0
 10
6.36654
 20
0.63558
 30
0.0
 10
6.36654
 20
0.63558
 30
0.0
  0
SPLINE
  5
91
330
1F
100
AcDbEntity
  8
Layer 1
 62
   177
370
     9
100
AcDbSpline
210
0.0
220
0.0
230
1.0
 70
    11
 71
     3
 72
    52
 73
    48
 74
     0
 42
0.0000000001
 43
0.0000000001
 12
1.0
 22
0.0
 32
0.0
 13
1.0
 23
0.0
 33
0.0
 40
0.0
 40
0.0
 40
0.0
 40
0.0
 40
0.0769230769230769
 40
0.0769230769230769
 40
0.0769230769230769
 40
0.0769230769230769
 40
0.1538461538461539
 40
0.1538461538461539
 40
0.1538461538461539
 40
0.1538461538461539
 40
0.2307692307692308
 40
0.2307692307692308
 40
0.2307692307692308
 40
0.2307692307692308
 40
0.3076923076923077
 40
0.3076923076923077
 40
0.3076923076923077
 40
0.3076923076923077
 40
0.3846153846153846
 40
0.3846153846153846
 40
0.3846153846153846
 40
0.3846153846153846
 40
0.4615384615384616
 40
0.4615384615384616
 40
0.4615384615384616
 40
0.4615384615384616
 40
0.5384615384615384
 40
0.5384615384615384
 40
0.5384615384615384
 40
0.5384615384615384
 40
0.6153846153846154
 40
0.6153846153846154
 40
0.6153846153846154
 40
0.6153846153846154
 40
0.6923076923076923
 40
0.6923076923076923
 40
0.6923076923076923
 40
0.6923076923076923
 40
0.7692307692307693
 40
0.7692307692307693
 40
0.7692307692307693
 40
0.7692307692307693
 40
0.8461538461538461
 40
0.8461538461538461
 40
0.8461538461538461
 40
0.8461538461538461
 40
1.0
 40
1.0
 40
1.0
 40
1.0
 10
6.36654
 20
-1.02435
 30
0.0
 10
6.36654
 20
-1.02435
 30
0.0
 10
5.18686
 20
-1.02435
 30
0.0
 10
5.18686
 20
-1.02435
 30
0.0
 10
5.18686
 20
-1.02435
 30
0.0
 10
5.18686
 20
-1.02435
 30
0.0
 10
5.18686
 20
-2.73557
 30
0.0
 10
5.18686
 20
-2.73557
 30
0.0
 10
5.18686
 20
-2.73557
 30
0.0
 10
5.18686
 20
-2.73557
 30
0.0
 10
5.13427
 20
-2.73557
 30
0.0
 10
5.13427
 20
-2.73557
 30
0.0
 10
5.13427
 20
-2.73557
 30
0.0
 10
5.13427
 20
-2.73557
 30
0.0
 10
4.83045
 20
-2.73557
 30
0.0
 10
4.83045
 20
-2.73557
 30
0.0
 10
4.83045
 20
-2.73557
 30
0.0
 10
4.83045
 20
-2.73557
 30
0.0
 10
3.76018
 20
-2.73557
 30
0.0
 10
3.76018
 20
-2.73557
 30
0.0
 10
3.76018
 20
-2.73557
 30
0.0
 10
3.76018
 20
-2.73557
 30
0.0
 10
3.76018
 20
-4.20922
 30
0.0
 10
3.76018
 20
-4.20922
 30
0.0
 10
3.76018
 20
-4.20922
 30
0.0
 10
3.76018
 20
-4.20922
 30
0.0
 10
4.83045
 20
-4.20922
 30
0.0
 10
4.83045
 20
-4.20922
 30
0.0
 10
4.83045
 20
-4.20922
 30
0.0
 10
4.83045
 20
-4.20922
 30
0.0
 10
5.13427
 20
-4.20922
 30
0.0
 10
5.13427
 20
-4.20922
 30
0.0
 10
5.13427
 20
-4.20922
 30
0.0
 10
5.13427
 20
-4.20922
 30
0.0
 10
5.18686
 20
-4.20922
 30
0.0
 10
5.18686
 20
-4.20922
 30
0.0
 10
5.18686
 20
-4.20922
 30
0.0
 10
5.18686
 20
-4.20922
 30
0.0
 10
5.18686
 20
-5.92043
 30
0.0
 10
5.18686
 20
-5.92043
 30
0.0
 10
5.18686
 20
-5.92043
 30
0.0
 10
5.18686
 20
-5.92043
 30
0.0
 10
6.36654
 20
-5.92043
 30
0.0
 10
6.36654
 20
-5.92043
 30
0.0
 10
6.36654
 20
-5.92043
 30
0.0
 10
6.36654
 20
-5.92043
 30
0.0
 10
6.36654
 20
-1.02435
 30
0.0
 10
6.36654
 20
-1.02435
 30
0.0
  0
SPLINE
  5
92
330
1F
100
AcDbEntity
  8
Layer 1
 62
   177
370
     9
100
AcDbSpline
210
0.0
220
0.0
230
1.0
 70
    11
 71
     3
 72
    20
 73
    16
 74
     0
 42
0.0000000001
 43
0.0000000001
 12
1.0
 22
0.0
 32
0.0
 13
1.0
 23
0.0
 33
0.0
 40
0.0
 40
0.0
 40
0.0
 40
0.0
 40
0.2
 40
0.2
 40
0.2
 40
0.2
 40
0.4
 40
0.4
 40
0.4
 40
0.4
 40
0.6
 40
0.6
 40
0.6
 40
0.6
 40
1.0
 40
1.0
 40
1.0
 40
1.0
 10
6.36654
 20
-6.25326
 30
0.0
 10
6.36654
 20
-6.25326
 30
0.0
 10
5.18686
 20
-6.25326
 30
0.0
 10
5.18686
 20
-6.25326
 30
0.0
 10
5.18686
 20
-6.25326
 30
0.0
 10
5.18686
 20
-6.25326
 30
0.0
 10
5.18686
 20
-7.58042
 30
0.0
 10
5.18686
 20
-7.58042
 30
0.0
 10
5.18686
 20
-7.58042
 30
0.0
 10
5.18686
 20
-7.58042
 30
0.0
 10
6.36654
 20
-7.58042
 30
0.0
 10
6.36654
 20
-7.58042
 30
0.0
 10
6.36654
 20
-7.58042
 30
0.0
 10
6.36654
 20
-7.58042
 30
0.0
 10
6.36654
 20
-6.25326
 30
0.0
 10
6.36654
 20
-6.25326
 30
0.0
  0
SPLINE
  5
93
330
1F
100
AcDbEntity
  8
Layer 1
 62
   177
370
     9
100
AcDbSpline
210
0.0
220
0.0
230
1.0
 70
    11
 71
     3
 72
    20
 73
    16
 74
     0
 42
0.0000000001
 43
0.0000000001
 12
1.0
 22
0.0
 32
0.0
 13
1.0
 23
0.0
 33
0.0
 40
0.0
 40
0.0
 40
0.0
 40
0.0
 40
0.2
 40
0.2
 40
0.2
 40
0.2
 40
0.4
 40
0.4
 40
0.4
 40
0.4
 40
0.6
 40
0.6
 40
0.6
 40
0.6
 40
1.0
 40
1.0
 40
1.0
 40
1.0
 10
6.36654
 20
-7.91319
 30
0.0
 10
6.36654
 20
-7.91319
 30
0.0
 10
5.18686
 20
-7.91319
 30
0.0
 10
5.18686
 20
-7.91319
 30
0.0
 10
5.18686
 20
-7.91319
 30
0.0
 10
5.18686
 20
-7.91319
 30
0.0
 10
5.18686
 20
-11.01116
 30
0.0
 10
5.18686
 20
-11.01116
 30
0.0
 10
5.18686
 20
-11.01116
 30
0.0
 10
5.18686
 20
-11.01116
 30
0.0
 10
6.36654
 20
-11.01116
 30
0.0
 10
6.36654
 20
-11.01116
 30
0.0
 10
6.36654
 20
-11.01116
 30
0.0
 10
6.36654
 20
-11.01116
 30
0.0
 10
6.36654
 20
-7.91319
 30
0.0
 10
6.36654
 20
-7.91319
 30
0.0
  0
SPLINE
  5
94
330
1F
100
AcDbEntity
  8
Layer 1
 62
   177
370
     9
100
AcDbSpline
210
0.0
220
0.0
230
1.0
 70
    11
 71
     3
 72
    20
 73
    16
 74
     0
 42
0.0000000001
 43
0.0000000001
 12
1.0
 22
0.0
 32
0.0
 13
1.0
 23
0.0
 33
0.0
 40
0.0
 40
0.0
 40
0.0
 40
0.0
 40
0.2
 40
0.2
 40
0.2
 40
0.2
 40
0.4
 40
0.4
 40
0.4
 40
0.4
 40
0.6
 40
0.6
 40
0.6
 40
0.6
 40
1.0
 40
1.0
 40
1.0
 40
1.0
 10
-2.05568
 20
-11.01116
 30
0.0
 10
-2.05568
 20
-11.01116
 30
0.0
 10
-0.85999
 20
-11.01116
 30
0.0
 10
-0.85999
 20
-11.01116
 30
0.0
 10
-0.85999
 20
-11.01116
 30
0.0
 10
-0.85999
 20
-11.01116
 30
0.0
 10
-0.85999
 20
-7.91319
 30
0.0
 10
-0.85999
 20
-7.91319
 30
0.0
 10
-0.85999
 20
-7.91319
 30
0.0
 10
-0.85999
 20
-7.91319
 30
0.0
 10
-2.05568
 20
-7.91319
 30
0.0
 10
-2.05568
 20
-7.91319
 30
0.0
 10
-2.05568
 20
-7.91319
 30
0.0
 10
-2.05568
 20
-7.91319
 30
0.0
 10
-2.05568
 20
-11.01116
 30
0.0
 10
-2.05568
 20
-11.01116
 30
0.0
  0
SPLINE
  5
95
330
1F
100
AcDbEntity
  8
Layer 1
 62
   177
370
     9
100
AcDbSpline
210
0.0
220
0.0
230
1.0
 70
    11
 71
     3
 72
    20
 73
    16
 74
     0
 42
0.0000000001
 43
0.0000000001
 12
1.0
 22
0.0
 32
0.0
 13
1.0
 23
0.0
 33
0.0
 40
0.0
 40
0.0
 40
0.0
 40
0.0
 40
0.2
 40
0.2
 40
0.2
 40
0.2
 40
0.4
 40
0.4
 40
0.4
 40
0.4
 40
0.6
 40
0.6
 40
0.6
 40
0.6
 40
1.0
 40
1.0
 40
1.0
 40
1.0
 10
-2.05568
 20
-7.58042
 30
0.0
 10
-2.05568
 20
-7.58042
 30
0.0
 10
-0.85999
 20
-7.58042
 30
0.0
 10
-0.85999
 20
-7.58042
 30
0.0
 10
-0.85999
 20
-7.58042
 30
0.0
 10
-0.85999
 20
-7.58042
 30
0.0
 10
-0.85999
 20
-6.25326
 30
0.0
 10
-0.85999
 20
-6.25326
 30
0.0
 10
-0.85999
 20
-6.25326
 30
0.0
 10
-0.85999
 20
-6.25326
 30
0.0
 10
-2.05568
 20
-6.25326
 30
0.0
 10
-2.05568
 20
-6.25326
 30
0.0
 10
-2.05568
 20
-6.25326
 30
0.0
 10
-2.05568
 20
-6.25326
 30
0.0
 10
-2.05568
 20
-7.58042
 30
0.0
 10
-2.05568
 20
-7.58042
 30
0.0
  0
SPLINE
  5
96
330
1F
100
AcDbEntity
  8
Layer 1
 62
   177
370
     9
100
AcDbSpline
210
0.0
220
0.0
230
1.0
 70
    11
 71
     3
 72
    52
 73
    48
 74
     0
 42
0.0000000001
 43
0.0000000001
 12
1.0
 22
0.0
 32
0.0
 13
1.0
 23
0.0
 33
0.0
 40
0.0
 40
0.0
 40
0.0
 40
0.0
 40
0.0769230769230769
 40
0.0769230769230769
 40
0.0769230769230769
 40
0.0769230769230769
 40
0.1538461538461539
 40
0.1538461538461539
 40
0.1538461538461539
 40
0.1538461538461539
 40
0.2307692307692308
 40
0.2307692307692308
 40
0.2307692307692308
 40
0.2307692307692308
 40
0.3076923076923077
 40
0.3076923076923077
 40
0.3076923076923077
 40
0.3076923076923077
 40
0.3846153846153846
 40
0.3846153846153846
 40
0.3846153846153846
 40
0.3846153846153846
 40
0.4615384615384616
 40
0.4615384615384616
 40
0.4615384615384616
 40
0.4615384615384616
 40
0.5384615384615384
 40
0.5384615384615384
 40
0.5384615384615384
 40
0.5384615384615384
 40
0.6153846153846154
 40
0.6153846153846154
 40
0.6153846153846154
 40
0.6153846153846154
 40
0.6923076923076923
 40
0.6923076923076923
 40
0.6923076923076923
 40
0.6923076923076923
 40
0.7692307692307693
 40
0.7692307692307693
 40
0.7692307692307693
 40
0.7692307692307693
 40
0.8461538461538461
 40
0.8461538461538461
 40
0.8461538461538461
 40
0.8461538461538461
 40
1.0
 40
1.0
 40
1.0
 40
1.0
 10
-2.05568
 20
-5.92043
 30
0.0
 10
-2.05568
 20
-5.92043
 30
0.0
 10
-0.85999
 20
-5.92043
 30
0.0
 10
-0.85999
 20
-5.92043
 30
0.0
 10
-0.85999
 20
-5.92043
 30
0.0
 10
-0.85999
 20
-5.92043
 30
0.0
 10
-0.85999
 20
-4.20922
 30
0.0
 10
-0.85999
 20
-4.20922
 30
0.0
 10
-0.85999
 20
-4.20922
 30
0.0
 10
-0.85999
 20
-4.20922
 30
0.0
 10
-0.63131
 20
-4.20922
 30
0.0
 10
-0.63131
 20
-4.20922
 30
0.0
 10
-0.63131
 20
-4.20922
 30
0.0
 10
-0.63131
 20
-4.20922
 30
0.0
 10
-0.50358
 20
-4.20922
 30
0.0
 10
-0.50358
 20
-4.20922
 30
0.0
 10
-0.50358
 20
-4.20922
 30
0.0
 10
-0.50358
 20
-4.20922
 30
0.0
 10
0.56674
 20
-4.20922
 30
0.0
 10
0.56674
 20
-4.20922
 30
0.0
 10
0.56674
 20
-4.20922
 30
0.0
 10
0.56674
 20
-4.20922
 30
0.0
 10
0.56674
 20
-2.73557
 30
0.0
 10
0.56674
 20
-2.73557
 30
0.0
 10
0.56674
 20
-2.73557
 30
0.0
 10
0.56674
 20
-2.73557
 30
0.0
 10
-0.50358
 20
-2.73557
 30
0.0
 10
-0.50358
 20
-2.73557
 30
0.0
 10
-0.50358
 20
-2.73557
 30
0.0
 10
-0.50358
 20
-2.73557
 30
0.0
 10
-0.63131
 20
-2.73557
 30
0.0
 10
-0.63131
 20
-2.73557
 30
0.0
 10
-0.63131
 20
-2.73557
 30
0.0
 10
-0.63131
 20
-2.73557
 30
0.0
 10
-0.85999
 20
-2.73557
 30
0.0
 10
-0.85999
 20
-2.73557
 30
0.0
 10
-0.85999
 20
-2.73557
 30
0.0
 10
-0.85999
 20
-2.73557
 30
0.0
 10
-0.85999
 20
-1.02435
 30
0.0
 10
-0.85999
 20
-1.02435
 30
0.0
 10
-0.85999
 20
-1.02435
 30
0.0
 10
-0.85999
 20
-1.02435
 30
0.0
 10
-2.05568
 20
-1.02435
 30
0.0
 10
-2.05568
 20
-1.02435
 30
0.0
 10
-2.05568
 20
-1.02435
 30
0.0
 10
-2.05568
 20
-1.02435
 30
0.0
 10
-2.05568
 20
-5.92043
 30
0.0
 10
-2.05568
 20
-5.92043
 30
0.0
  0
SPLINE
  5
97
330
1F
100
AcDbEntity
  8
Layer 1
 62
   177
370
     9
100
AcDbSpline
210
0.0
220
0.0
230
1.0
 70
    11
 71
     3
 72
    20
 73
    16
 74
     0
 42
0.0000000001
 43
0.0000000001
 12
1.0
 22
0.0
 32
0.0
 13
1.0
 23
0.0
 33
0.0
 40
0.0
 40
0.0
 40
0.0
 40
0.0
 40
0.2
 40
0.2
 40
0.2
 40
0.2
 40
0.4
 40
0.4
 40
0.4
 40
0.4
 40
0.6
 40
0.6
 40
0.6
 40
0.6
 40
1.0
 40
1.0
 40
1.0
 40
1.0
 10
-2.05568
 20
-0.69153
 30
0.0
 10
-2.05568
 20
-0.69153
 30
0.0
 10
-0.85999
 20
-0.69153
 30
0.0
 10
-0.85999
 20
-0.69153
 30
0.0
 10
-0.85999
 20
-0.69153
 30
0.0
 10
-0.85999
 20
-0.69153
 30
0.0
 10
-0.85999
 20
0.63558
 30
0.0
 10
-0.85999
 20
0.63558
 30
0.0
 10
-0.85999
 20
0.63558
 30
0.0
 10
-0.85999
 20
0.63558
 30
0.0
 10
-2.05568
 20
0.63558
 30
0.0
 10
-2.05568
 20
0.63558
 30
0.0
 10
-2.05568
 20
0.63558
 30
0.0
 10
-2.05568
 20
0.63558
 30
0.0
 10
-2.05568
 20
-0.69153
 30
0.0
 10
-2.05568
 20
-0.69153
 30
0.0
  0
SPLINE
  5
98
330
1F
100
AcDbEntity
  8
Layer 1
 62
   177
370
     9
100
AcDbSpline
210
0.0
220
0.0
230
1.0
 70
    11
 71
     3
 72
    20
 73
    16
 74
     0
 42
0.0000000001
 43
0.0000000001
 12
1.0
 22
0.0
 32
0.0
 13
1.0
 23
0.0
 33
0.0
 40
0.0
 40
0.0
 40
0.0
 40
0.0
 40
0.2
 40
0.2
 40
0.2
 40
0.2
 40
0.4
 40
0.4
 40
0.4
 40
0.4
 40
0.6
 40
0.6
 40
0.6
 40
0.6
 40
1.0
 40
1.0
 40
1.0
 40
1.0
 10
-2.05568
 20
0.96836
 30
0.0
 10
-2.05568
 20
0.96836
 30
0.0
 10
-0.85999
 20
0.96836
 30
0.0
 10
-0.85999
 20
0.96836
 30
0.0
 10
-0.85999
 20
0.96836
 30
0.0
 10
-0.85999
 20
0.96836
 30
0.0
 10
-0.85999
 20
4.06632
 30
0.0
 10
-0.85999
 20
4.06632
 30
0.0
 10
-0.85999
 20
4.06632
 30
0.0
 10
-0.85999
 20
4.06632
 30
0.0
 10
-2.05568
 20
4.06632
 30
0.0
 10
-2.05568
 20
4.06632
 30
0.0
 10
-2.05568
 20
4.06632
 30
0.0
 10
-2.05568
 20
4.06632
 30
0.0
 10
-2.05568
 20
0.96836
 30
0.0
 10
-2.05568
 20
0.96836
 30
0.0
  0
SPLINE
  5
99
330
1F
100
AcDbEntity
  8
Layer 1
 62
   177
370
     9
100
AcDbSpline
210
0.0
220
0.0
230
1.0
 70
    11
 71
     3
 72
    36
 73
    32
 74
     0
 42
0.0000000001
 43
0.0000000001
 12
1.0
 22
0.0
 32
0.0
 13
1.0
 23
0.0
 33
0.0
 40
0.0
 40
0.0
 40
0.0
 40
0.0
 40
0.1111111111111111
 40
0.1111111111111111
 40
0.1111111111111111
 40
0.1111111111111111
 40
0.2222222222222222
 40
0.2222222222222222
 40
0.2222222222222222
 40
0.2222222222222222
 40
0.3333333333333333
 40
0.3333333333333333
 40
0.3333333333333333
 40
0.3333333333333333
 40
0.4444444444444444
 40
0.4444444444444444
 40
0.4444444444444444
 40
0.4444444444444444
 40
0.5555555555555556
 40
0.5555555555555556
 40
0.5555555555555556
 40
0.5555555555555556
 40
0.6666666666666666
 40
0.6666666666666666
 40
0.6666666666666666
 40
0.6666666666666666
 40
0.7777777777777778
 40
0.7777777777777778
 40
0.7777777777777778
 40
0.7777777777777778
 40
1.0
 40
1.0
 40
1.0
 40
1.0
 10
3.40377
 20
-4.20922
 30
0.0
 10
3.40377
 20
-4.20922
 30
0.0
 10
3.40377
 20
-2.73557
 30
0.0
 10
3.40377
 20
-2.73557
 30
0.0
 10
3.40377
 20
-2.73557
 30
0.0
 10
3.40377
 20
-2.73557
 30
0.0
 10
2.34161
 20
-2.73557
 30
0.0
 10
2.34161
 20
-2.73557
 30
0.0
 10
2.34161
 20
-2.73557
 30
0.0
 10
2.34161
 20
-2.73557
 30
0.0
 10
1.98525
 20
-2.73557
 30
0.0
 10
1.98525
 20
-2.73557
 30
0.0
 10
1.98525
 20
-2.73557
 30
0.0
 10
1.98525
 20
-2.73557
 30
0.0
 10
0.92315
 20
-2.73557
 30
0.0
 10
0.92315
 20
-2.73557
 30
0.0
 10
0.92315
 20
-2.73557
 30
0.0
 10
0.92315
 20
-2.73557
 30
0.0
 10
0.92315
 20
-4.20922
 30
0.0
 10
0.92315
 20
-4.20922
 30
0.0
 10
0.92315
 20
-4.20922
 30
0.0
 10
0.92315
 20
-4.20922
 30
0.0
 10
1.98525
 20
-4.20922
 30
0.0
 10
1.98525
 20
-4.20922
 30
0.0
 10
1.98525
 20
-4.20922
 30
0.0
 10
1.98525
 20
-4.20922
 30
0.0
 10
2.34161
 20
-4.20922
 30
0.0
 10
2.34161
 20
-4.20922
 30
0.0
 10
2.34161
 20
-4.20922
 30
0.0
 10
2.34161
 20
-4.20922
 30
0.0
 10
3.40377
 20
-4.20922
 30
0.0
 10
3.40377
 20
-4.20922
 30
0.0
  0
SPLINE
  5
9A
330
1F
100
AcDbEntity
  8
Layer 1
 62
   177
370
     9
100
AcDbSpline
210
0.0
220
0.0
230
1.0
 70
    11
 71
     3
 72
    20
 73
    16
 74
     0
 42
0.0000000001
 43
0.0000000001
 12
1.0
 22
0.0
 32
0.0
 13
1.0
 23
0.0
 33
0.0
 40
0.0
 40
0.0
 40
0.0
 40
0.0
 40
0.2
 40
0.2
 40
0.2
 40
0.2
 40
0.4
 40
0.4
 40
0.4
 40
0.4
 40
0.6
 40
0.6
 40
0.6
 40
0.6
 40
1.0
 40
1.0
 40
1.0
 40
1.0
 10
-0.50358
 20
-9.62765
 30
0.0
 10
-0.50358
 20
-9.62765
 30
0.0
 10
1.98525
 20
-9.62765
 30
0.0
 10
1.98525
 20
-9.62765
 30
0.0
 10
1.98525
 20
-9.62765
 30
0.0
 10
1.98525
 20
-9.62765
 30
0.0
 10
1.98525
 20
-11.01116
 30
0.0
 10
1.98525
 20
-11.01116
 30
0.0
 10
1.98525
 20
-11.01116
 30
0.0
 10
1.98525
 20
-11.01116
 30
0.0
 10
-0.50358
 20
-11.01116
 30
0.0
 10
-0.50358
 20
-11.01116
 30
0.0
 10
-0.50358
 20
-11.01116
 30
0.0
 10
-0.50358
 20
-11.01116
 30
0.0
 10
-0.50358
 20
-9.62765
 30
0.0
 10
-0.50358
 20
-9.62765
 30
0.0
  0
SPLINE
  5
9B
330
1F
100
AcDbEntity
  8
Layer 1
 62
   177
370
     9
100
AcDbSpline
210
0.0
220
0.0
230
1.0
 70
    11
 71
     3
 72
    20
 73
    16
 74
     0
 42
0.0000000001
 43
0.0000000001
 12
1.0
 22
0.0
 32
0.0
 13
1.0
 23
0.0
 33
0.0
 40
0.0
 40
0.0
 40
0.0
 40
0.0
 40
0.2
 40
0.2
 40
0.2
 40
0.2
 40
0.4
 40
0.4
 40
0.4
 40
0.4
 40
0.6
 40
0.6
 40
0.6
 40
0.6
 40
1.0
 40
1.0
 40
1.0
 40
1.0
 10
2.34161
 20
-9.62765
 30
0.0
 10
2.34161
 20
-9.62765
 30
0.0
 10
4.83045
 20
-9.62765
 30
0.0
 10
4.83045
 20
-9.62765
 30
0.0
 10
4.83045
 20
-9.62765
 30
0.0
 10
4.83045
 20
-9.62765
 30
0.0
 10
4.83045
 20
-11.01116
 30
0.0
 10
4.83045
 20
-11.01116
 30
0.0
 10
4.83045
 20
-11.01116
 30
0.0
 10
4.83045
 20
-11.01116
 30
0.0
 10
2.34161
 20
-11.01116
 30
0.0
 10
2.34161
 20
-11.01116
 30
0.0
 10
2.34161
 20
-11.01116
 30
0.0
 10
2.34161
 20
-11.01116
 30
0.0
 10
2.34161
 20
-9.62765
 30
0.0
 10
2.34161
 20
-9.62765
 30
0.0
  0
SPLINE
  5
9C
330
1F
100
AcDbEntity
  8
Layer 1
 62
   177
370
     9
100
AcDbSpline
210
0.0
220
0.0
230
1.0
 70
    11
 71
     3
 72
    20
 73
    16
 74
     0
 42
0.0000000001
 43
0.0000000001
 12
1.0
 22
0.0
 32
0.0
 13
1.0
 23
0.0
 33
0.0
 40
0.0
 40
0.0
 40
0.0
 40
0.0
 40
0.2
 40
0.2
 40
0.2
 40
0.2
 40
0.4
 40
0.4
 40
0.4
 40
0.4
 40
0.6
 40
0.6
 40
0.6
 40
0.6
 40
1.0
 40
1.0
 40
1.0
 40
1.0
 10
4.83045
 20
-9.29482
 30
0.0
 10
4.83045
 20
-9.29482
 30
0.0
 10
3.76018
 20
-9.29482
 30
0.0
 10
3.76018
 20
-9.29482
 30
0.0
 10
3.76018
 20
-9.29482
 30
0.0
 10
3.76018
 20
-9.29482
 30
0.0
 10
3.76018
 20
-6.25326
 30
0.0
 10
3.76018
 20
-6.25326
 30
0.0
 10
3.76018
 20
-6.25326
 30
0.0
 10
3.76018
 20
-6.25326
 30
0.0
 10
4.83045
 20
-6.25326
 30
0.0
 10
4.83045
 20
-6.25326
 30
0.0
 10
4.83045
 20
-6.25326
 30
0.0
 10
4.83045
 20
-6.25326
 30
0.0
 10
4.83045
 20
-9.29482
 30
0.0
 10
4.83045
 20
-9.29482
 30
0.0
  0
SPLINE
  5
9D
330
1F
100
AcDbEntity
  8
Layer 1
 62
   177
370
     9
100
AcDbSpline
210
0.0
220
0.0
230
1.0
 70
    11
 71
     3
 72
    20
 73
    16
 74
     0
 42
0.0000000001
 43
0.0000000001
 12
1.0
 22
0.0
 32
0.0
 13
1.0
 23
0.0
 33
0.0
 40
0.0
 40
0.0
 40
0.0
 40
0.0
 40
0.2
 40
0.2
 40
0.2
 40
0.2
 40
0.4
 40
0.4
 40
0.4
 40
0.4
 40
0.6
 40
0.6
 40
0.6
 40
0.6
 40
1.0
 40
1.0
 40
1.0
 40
1.0
 10
3.40377
 20
-9.29482
 30
0.0
 10
3.40377
 20
-9.29482
 30
0.0
 10
2.34161
 20
-9.29482
 30
0.0
 10
2.34161
 20
-9.29482
 30
0.0
 10
2.34161
 20
-9.29482
 30
0.0
 10
2.34161
 20
-9.29482
 30
0.0
 10
2.34161
 20
-7.91319
 30
0.0
 10
2.34161
 20
-7.91319
 30
0.0
 10
2.34161
 20
-7.91319
 30
0.0
 10
2.34161
 20
-7.91319
 30
0.0
 10
3.40377
 20
-7.91319
 30
0.0
 10
3.40377
 20
-7.91319
 30
0.0
 10
3.40377
 20
-7.91319
 30
0.0
 10
3.40377
 20
-7.91319
 30
0.0
 10
3.40377
 20
-9.29482
 30
0.0
 10
3.40377
 20
-9.29482
 30
0.0
  0
SPLINE
  5
9E
330
1F
100
AcDbEntity
  8
Layer 1
 62
   177
370
     9
100
AcDbSpline
210
0.0
220
0.0
230
1.0
 70
    11
 71
     3
 72
    20
 73
    16
 74
     0
 42
0.0000000001
 43
0.0000000001
 12
1.0
 22
0.0
 32
0.0
 13
1.0
 23
0.0
 33
0.0
 40
0.0
 40
0.0
 40
0.0
 40
0.0
 40
0.2
 40
0.2
 40
0.2
 40
0.2
 40
0.4
 40
0.4
 40
0.4
 40
0.4
 40
0.6
 40
0.6
 40
0.6
 40
0.6
 40
1.0
 40
1.0
 40
1.0
 40
1.0
 10
1.98525
 20
-9.29482
 30
0.0
 10
1.98525
 20
-9.29482
 30
0.0
 10
0.92315
 20
-9.29482
 30
0.0
 10
0.92315
 20
-9.29482
 30
0.0
 10
0.92315
 20
-9.29482
 30
0.0
 10
0.92315
 20
-9.29482
 30
0.0
 10
0.92315
 20
-7.91319
 30
0.0
 10
0.92315
 20
-7.91319
 30
0.0
 10
0.92315
 20
-7.91319
 30
0.0
 10
0.92315
 20
-7.91319
 30
0.0
 10
1.98525
 20
-7.91319
 30
0.0
 10
1.98525
 20
-7.91319
 30
0.0
 10
1.98525
 20
-7.91319
 30
0.0
 10
1.98525
 20
-7.91319
 30
0.0
 10
1.98525
 20
-9.29482
 30
0.0
 10
1.98525
 20
-9.29482
 30
0.0
  0
SPLINE
  5
9F
330
1F
100
AcDbEntity
  8
Layer 1
 62
   177
370
     9
100
AcDbSpline
210
0.0
220
0.0
230
1.0
 70
    11
 71
     3
 72
    20
 73
    16
 74
     0
 42
0.0000000001
 43
0.0000000001
 12
1.0
 22
0.0
 32
0.0
 13
1.0
 23
0.0
 33
0.0
 40
0.0
 40
0.0
 40
0.0
 40
0.0
 40
0.2
 40
0.2
 40
0.2
 40
0.2
 40
0.4
 40
0.4
 40
0.4
 40
0.4
 40
0.6
 40
0.6
 40
0.6
 40
0.6
 40
1.0
 40
1.0
 40
1.0
 40
1.0
 10
0.56674
 20
-9.29482
 30
0.0
 10
0.56674
 20
-9.29482
 30
0.0
 10
-0.50358
 20
-9.29482
 30
0.0
 10
-0.50358
 20
-9.29482
 30
0.0
 10
-0.50358
 20
-9.29482
 30
0.0
 10
-0.50358
 20
-9.29482
 30
0.0
 10
-0.50358
 20
-6.25326
 30
0.0
 10
-0.50358
 20
-6.25326
 30
0.0
 10
-0.50358
 20
-6.25326
 30
0.0
 10
-0.50358
 20
-6.25326
 30
0.0
 10
0.56674
 20
-6.25326
 30
0.0
 10
0.56674
 20
-6.25326
 30
0.0
 10
0.56674
 20
-6.25326
 30
0.0
 10
0.56674
 20
-6.25326
 30
0.0
 10
0.56674
 20
-9.29482
 30
0.0
 10
0.56674
 20
-9.29482
 30
0.0
  0
SPLINE
  5
A0
330
1F
100
AcDbEntity
  8
Layer 1
 62
   177
370
     9
100
AcDbSpline
210
0.0
220
0.0
230
1.0
 70
    11
 71
     3
 72
    20
 73
    16
 74
     0
 42
0.0000000001
 43
0.0000000001
 12
1.0
 22
0.0
 32
0.0
 13
1.0
 23
0.0
 33
0.0
 40
0.0
 40
0.0
 40
0.0
 40
0.0
 40
0.2
 40
0.2
 40
0.2
 40
0.2
 40
0.4
 40
0.4
 40
0.4
 40
0.4
 40
0.6
 40
0.6
 40
0.6
 40
0.6
 40
1.0
 40
1.0
 40
1.0
 40
1.0
 10
3.40377
 20
-7.58042
 30
0.0
 10
3.40377
 20
-7.58042
 30
0.0
 10
2.34161
 20
-7.58042
 30
0.0
 10
2.34161
 20
-7.58042
 30
0.0
 10
2.34161
 20
-7.58042
 30
0.0
 10
2.34161
 20
-7.58042
 30
0.0
 10
2.34161
 20
-6.25326
 30
0.0
 10
2.34161
 20
-6.25326
 30
0.0
 10
2.34161
 20
-6.25326
 30
0.0
 10
2.34161
 20
-6.25326
 30
0.0
 10
3.40377
 20
-6.25326
 30
0.0
 10
3.40377
 20
-6.25326
 30
0.0
 10
3.40377
 20
-6.25326
 30
0.0
 10
3.40377
 20
-6.25326
 30
0.0
 10
3.40377
 20
-7.58042
 30
0.0
 10
3.40377
 20
-7.58042
 30
0.0
  0
SPLINE
  5
A1
330
1F
100
AcDbEntity
  8
Layer 1
 62
   177
370
     9
100
AcDbSpline
210
0.0
220
0.0
230
1.0
 70
    11
 71
     3
 72
    20
 73
    16
 74
     0
 42
0.0000000001
 43
0.0000000001
 12
1.0
 22
0.0
 32
0.0
 13
1.0
 23
0.0
 33
0.0
 40
0.0
 40
0.0
 40
0.0
 40
0.0
 40
0.2
 40
0.2
 40
0.2
 40
0.2
 40
0.4
 40
0.4
 40
0.4
 40
0.4
 40
0.6
 40
0.6
 40
0.6
 40
0.6
 40
1.0
 40
1.0
 40
1.0
 40
1.0
 10
1.98525
 20
-7.58042
 30
0.0
 10
1.98525
 20
-7.58042
 30
0.0
 10
0.92315
 20
-7.58042
 30
0.0
 10
0.92315
 20
-7.58042
 30
0.0
 10
0.92315
 20
-7.58042
 30
0.0
 10
0.92315
 20
-7.58042
 30
0.0
 10
0.92315
 20
-6.25326
 30
0.0
 10
0.92315
 20
-6.25326
 30
0.0
 10
0.92315
 20
-6.25326
 30
0.0
 10
0.92315
 20
-6.25326
 30
0.0
 10
1.98525
 20
-6.25326
 30
0.0
 10
1.98525
 20
-6.25326
 30
0.0
 10
1.98525
 20
-6.25326
 30
0.0
 10
1.98525
 20
-6.25326
 30
0.0
 10
1.98525
 20
-7.58042
 30
0.0
 10
1.98525
 20
-7.58042
 30
0.0
  0
SPLINE
  5
A2
330
1F
100
AcDbEntity
  8
Layer 1
 62
   177
370
     9
100
AcDbSpline
210
0.0
220
0.0
230
1.0
 70
    11
 71
     3
 72
    20
 73
    16
 74
     0
 42
0.0000000001
 43
0.0000000001
 12
1.0
 22
0.0
 32
0.0
 13
1.0
 23
0.0
 33
0.0
 40
0.0
 40
0.0
 40
0.0
 40
0.0
 40
0.2
 40
0.2
 40
0.2
 40
0.2
 40
0.4
 40
0.4
 40
0.4
 40
0.4
 40
0.6
 40
0.6
 40
0.6
 40
0.6
 40
1.0
 40
1.0
 40
1.0
 40
1.0
 10
4.83045
 20
-4.54204
 30
0.0
 10
4.83045
 20
-4.54204
 30
0.0
 10
4.83045
 20
-5.92043
 30
0.0
 10
4.83045
 20
-5.92043
 30
0.0
 10
4.83045
 20
-5.92043
 30
0.0
 10
4.83045
 20
-5.92043
 30
0.0
 10
2.34161
 20
-5.92043
 30
0.0
 10
2.34161
 20
-5.92043
 30
0.0
 10
2.34161
 20
-5.92043
 30
0.0
 10
2.34161
 20
-5.92043
 30
0.0
 10
2.34161
 20
-4.54204
 30
0.0
 10
2.34161
 20
-4.54204
 30
0.0
 10
2.34161
 20
-4.54204
 30
0.0
 10
2.34161
 20
-4.54204
 30
0.0
 10
4.83045
 20
-4.54204
 30
0.0
 10
4.83045
 20
-4.54204
 30
0.0
  0
SPLINE
  5
A3
330
1F
100
AcDbEntity
  8
Layer 1
 62
   177
370
     9
100
AcDbSpline
210
0.0
220
0.0
230
1.0
 70
    11
 71
     3
 72
    20
 73
    16
 74
     0
 42
0.0000000001
 43
0.0000000001
 12
1.0
 22
0.0
 32
0.0
 13
1.0
 23
0.0
 33
0.0
 40
0.0
 40
0.0
 40
0.0
 40
0.0
 40
0.2
 40
0.2
 40
0.2
 40
0.2
 40
0.4
 40
0.4
 40
0.4
 40
0.4
 40
0.6
 40
0.6
 40
0.6
 40
0.6
 40
1.0
 40
1.0
 40
1.0
 40
1.0
 10
1.98525
 20
-4.54204
 30
0.0
 10
1.98525
 20
-4.54204
 30
0.0
 10
1.98525
 20
-5.92043
 30
0.0
 10
1.98525
 20
-5.92043
 30
0.0
 10
1.98525
 20
-5.92043
 30
0.0
 10
1.98525
 20
-5.92043
 30
0.0
 10
-0.50358
 20
-5.92043
 30
0.0
 10
-0.50358
 20
-5.92043
 30
0.0
 10
-0.50358
 20
-5.92043
 30
0.0
 10
-0.50358
 20
-5.92043
 30
0.0
 10
-0.50358
 20
-4.54204
 30
0.0
 10
-0.50358
 20
-4.54204
 30
0.0
 10
-0.50358
 20
-4.54204
 30
0.0
 10
-0.50358
 20
-4.54204
 30
0.0
 10
1.98525
 20
-4.54204
 30
0.0
 10
1.98525
 20
-4.54204
 30
0.0
  0
SPLINE
  5
A4
330
1F
100
AcDbEntity
  8
Layer 1
 62
   177
370
     9
100
AcDbSpline
210
0.0
220
0.0
230
1.0
 70
    11
 71
     3
 72
    20
 73
    16
 74
     0
 42
0.0000000001
 43
0.0000000001
 12
1.0
 22
0.0
 32
0.0
 13
1.0
 23
0.0
 33
0.0
 40
0.0
 40
0.0
 40
0.0
 40
0.0
 40
0.2
 40
0.2
 40
0.2
 40
0.2
 40
0.4
 40
0.4
 40
0.4
 40
0.4
 40
0.6
 40
0.6
 40
0.6
 40
0.6
 40
1.0
 40
1.0
 40
1.0
 40
1.0
 10
3.40377
 20
5.6269
 30
0.0
 10
3.40377
 20
5.6269
 30
0.0
 10
0.92315
 20
5.6269
 30
0.0
 10
0.92315
 20
5.6269
 30
0.0
 10
0.92315
 20
5.6269
 30
0.0
 10
0.92315
 20
5.6269
 30
0.0
 10
0.92315
 20
4.39914
 30
0.0
 10
0.92315
 20
4.39914
 30
0.0
 10
0.92315
 20
4.39914
 30
0.0
 10
0.92315
 20
4.39914
 30
0.0
 10
3.40377
 20
4.39914
 30
0.0
 10
3.40377
 20
4.39914
 30
0.0
 10
3.40377
 20
4.39914
 30
0.0
 10
3.40377
 20
4.39914
 30
0.0
 10
3.40377
 20
5.6269
 30
0.0
 10
3.40377
 20
5.6269
 30
0.0
  0
SPLINE
  5
A5
330
1F
100
AcDbEntity
  8
Layer 1
 62
   177
370
     9
100
AcDbSpline
210
0.0
220
0.0
230
1.0
 70
    11
 71
     3
 72
    20
 73
    16
 74
     0
 42
0.0000000001
 43
0.0000000001
 12
1.0
 22
0.0
 32
0.0
 13
1.0
 23
0.0
 33
0.0
 40
0.0
 40
0.0
 40
0.0
 40
0.0
 40
0.2
 40
0.2
 40
0.2
 40
0.2
 40
0.4
 40
0.4
 40
0.4
 40
0.4
 40
0.6
 40
0.6
 40
0.6
 40
0.6
 40
1.0
 40
1.0
 40
1.0
 40
1.0
 10
-0.50358
 20
2.68281
 30
0.0
 10
-0.50358
 20
2.68281
 30
0.0
 10
1.98525
 20
2.68281
 30
0.0
 10
1.98525
 20
2.68281
 30
0.0
 10
1.98525
 20
2.68281
 30
0.0
 10
1.98525
 20
2.68281
 30
0.0
 10
1.98525
 20
4.06632
 30
0.0
 10
1.98525
 20
4.06632
 30
0.0
 10
1.98525
 20
4.06632
 30
0.0
 10
1.98525
 20
4.06632
 30
0.0
 10
-0.50358
 20
4.06632
 30
0.0
 10
-0.50358
 20
4.06632
 30
0.0
 10
-0.50358
 20
4.06632
 30
0.0
 10
-0.50358
 20
4.06632
 30
0.0
 10
-0.50358
 20
2.68281
 30
0.0
 10
-0.50358
 20
2.68281
 30
0.0
  0
SPLINE
  5
A6
330
1F
100
AcDbEntity
  8
Layer 1
 62
   177
370
     9
100
AcDbSpline
210
0.0
220
0.0
230
1.0
 70
    11
 71
     3
 72
    20
 73
    16
 74
     0
 42
0.0000000001
 43
0.0000000001
 12
1.0
 22
0.0
 32
0.0
 13
1.0
 23
0.0
 33
0.0
 40
0.0
 40
0.0
 40
0.0
 40
0.0
 40
0.2
 40
0.2
 40
0.2
 40
0.2
 40
0.4
 40
0.4
 40
0.4
 40
0.4
 40
0.6
 40
0.6
 40
0.6
 40
0.6
 40
1.0
 40
1.0
 40
1.0
 40
1.0
 10
2.34161
 20
2.68281
 30
0.0
 10
2.34161
 20
2.68281
 30
0.0
 10
4.83045
 20
2.68281
 30
0.0
 10
4.83045
 20
2.68281
 30
0.0
 10
4.83045
 20
2.68281
 30
0.0
 10
4.83045
 20
2.68281
 30
0.0
 10
4.83045
 20
4.06632
 30
0.0
 10
4.83045
 20
4.06632
 30
0.0
 10
4.83045
 20
4.06632
 30
0.0
 10
4.83045
 20
4.06632
 30
0.0
 10
2.34161
 20
4.06632
 30
0.0
 10
2.34161
 20
4.06632
 30
0.0
 10
2.34161
 20
4.06632
 30
0.0
 10
2.34161
 20
4.06632
 30
0.0
 10
2.34161
 20
2.68281
 30
0.0
 10
2.34161
 20
2.68281
 30
0.0
  0
SPLINE
  5
A7
330
1F
100
AcDbEntity
  8
Layer 1
 62
   177
370
     9
100
AcDbSpline
210
0.0
220
0.0
230
1.0
 70
    11
 71
     3
 72
    20
 73
    16
 74
     0
 42
0.0000000001
 43
0.0000000001
 12
1.0
 22
0.0
 32
0.0
 13
1.0
 23
0.0
 33
0.0
 40
0.0
 40
0.0
 40
0.0
 40
0.0
 40
0.2
 40
0.2
 40
0.2
 40
0.2
 40
0.4
 40
0.4
 40
0.4
 40
0.4
 40
0.6
 40
0.6
 40
0.6
 40
0.6
 40
1.0
 40
1.0
 40
1.0
 40
1.0
 10
4.83045
 20
2.34999
 30
0.0
 10
4.83045
 20
2.34999
 30
0.0
 10
3.76018
 20
2.34999
 30
0.0
 10
3.76018
 20
2.34999
 30
0.0
 10
3.76018
 20
2.34999
 30
0.0
 10
3.76018
 20
2.34999
 30
0.0
 10
3.76018
 20
-0.69153
 30
0.0
 10
3.76018
 20
-0.69153
 30
0.0
 10
3.76018
 20
-0.69153
 30
0.0
 10
3.76018
 20
-0.69153
 30
0.0
 10
4.83045
 20
-0.69153
 30
0.0
 10
4.83045
 20
-0.69153
 30
0.0
 10
4.83045
 20
-0.69153
 30
0.0
 10
4.83045
 20
-0.69153
 30
0.0
 10
4.83045
 20
2.34999
 30
0.0
 10
4.83045
 20
2.34999
 30
0.0
  0
SPLINE
  5
A8
330
1F
100
AcDbEntity
  8
Layer 1
 62
   177
370
     9
100
AcDbSpline
210
0.0
220
0.0
230
1.0
 70
    11
 71
     3
 72
    20
 73
    16
 74
     0
 42
0.0000000001
 43
0.0000000001
 12
1.0
 22
0.0
 32
0.0
 13
1.0
 23
0.0
 33
0.0
 40
0.0
 40
0.0
 40
0.0
 40
0.0
 40
0.2
 40
0.2
 40
0.2
 40
0.2
 40
0.4
 40
0.4
 40
0.4
 40
0.4
 40
0.6
 40
0.6
 40
0.6
 40
0.6
 40
1.0
 40
1.0
 40
1.0
 40
1.0
 10
3.40377
 20
2.34999
 30
0.0
 10
3.40377
 20
2.34999
 30
0.0
 10
2.34161
 20
2.34999
 30
0.0
 10
2.34161
 20
2.34999
 30
0.0
 10
2.34161
 20
2.34999
 30
0.0
 10
2.34161
 20
2.34999
 30
0.0
 10
2.34161
 20
0.96836
 30
0.0
 10
2.34161
 20
0.96836
 30
0.0
 10
2.34161
 20
0.96836
 30
0.0
 10
2.34161
 20
0.96836
 30
0.0
 10
3.40377
 20
0.96836
 30
0.0
 10
3.40377
 20
0.96836
 30
0.0
 10
3.40377
 20
0.96836
 30
0.0
 10
3.40377
 20
0.96836
 30
0.0
 10
3.40377
 20
2.34999
 30
0.0
 10
3.40377
 20
2.34999
 30
0.0
  0
SPLINE
  5
A9
330
1F
100
AcDbEntity
  8
Layer 1
 62
   177
370
     9
100
AcDbSpline
210
0.0
220
0.0
230
1.0
 70
    11
 71
     3
 72
    20
 73
    16
 74
     0
 42
0.0000000001
 43
0.0000000001
 12
1.0
 22
0.0
 32
0.0
 13
1.0
 23
0.0
 33
0.0
 40
0.0
 40
0.0
 40
0.0
 40
0.0
 40
0.2
 40
0.2
 40
0.2
 40
0.2
 40
0.4
 40
0.4
 40
0.4
 40
0.4
 40
0.6
 40
0.6
 40
0.6
 40
0.6
 40
1.0
 40
1.0
 40
1.0
 40
1.0
 10
1.98525
 20
2.34999
 30
0.0
 10
1.98525
 20
2.34999
 30
0.0
 10
0.92315
 20
2.34999
 30
0.0
 10
0.92315
 20
2.34999
 30
0.0
 10
0.92315
 20
2.34999
 30
0.0
 10
0.92315
 20
2.34999
 30
0.0
 10
0.92315
 20
0.96836
 30
0.0
 10
0.92315
 20
0.96836
 30
0.0
 10
0.92315
 20
0.96836
 30
0.0
 10
0.92315
 20
0.96836
 30
0.0
 10
1.98525
 20
0.96836
 30
0.0
 10
1.98525
 20
0.96836
 30
0.0
 10
1.98525
 20
0.96836
 30
0.0
 10
1.98525
 20
0.96836
 30
0.0
 10
1.98525
 20
2.34999
 30
0.0
 10
1.98525
 20
2.34999
 30
0.0
  0
SPLINE
  5
AA
330
1F
100
AcDbEntity
  8
Layer 1
 62
   177
370
     9
100
AcDbSpline
210
0.0
220
0.0
230
1.0
 70
    11
 71
     3
 72
    20
 73
    16
 74
     0
 42
0.0000000001
 43
0.0000000001
 12
1.0
 22
0.0
 32
0.0
 13
1.0
 23
0.0
 33
0.0
 40
0.0
 40
0.0
 40
0.0
 40
0.0
 40
0.2
 40
0.2
 40
0.2
 40
0.2
 40
0.4
 40
0.4
 40
0.4
 40
0.4
 40
0.6
 40
0.6
 40
0.6
 40
0.6
 40
1.0
 40
1.0
 40
1.0
 40
1.0
 10
0.56674
 20
2.34999
 30
0.0
 10
0.56674
 20
2.34999
 30
0.0
 10
-0.50358
 20
2.34999
 30
0.0
 10
-0.50358
 20
2.34999
 30
0.0
 10
-0.50358
 20
2.34999
 30
0.0
 10
-0.50358
 20
2.34999
 30
0.0
 10
-0.50358
 20
-0.69153
 30
0.0
 10
-0.50358
 20
-0.69153
 30
0.0
 10
-0.50358
 20
-0.69153
 30
0.0
 10
-0.50358
 20
-0.69153
 30
0.0
 10
0.56674
 20
-0.69153
 30
0.0
 10
0.56674
 20
-0.69153
 30
0.0
 10
0.56674
 20
-0.69153
 30
0.0
 10
0.56674
 20
-0.69153
 30
0.0
 10
0.56674
 20
2.34999
 30
0.0
 10
0.56674
 20
2.34999
 30
0.0
  0
SPLINE
  5
AB
330
1F
100
AcDbEntity
  8
Layer 1
 62
   177
370
     9
100
AcDbSpline
210
0.0
220
0.0
230
1.0
 70
    11
 71
     3
 72
    20
 73
    16
 74
     0
 42
0.0000000001
 43
0.0000000001
 12
1.0
 22
0.0
 32
0.0
 13
1.0
 23
0.0
 33
0.0
 40
0.0
 40
0.0
 40
0.0
 40
0.0
 40
0.2
 40
0.2
 40
0.2
 40
0.2
 40
0.4
 40
0.4
 40
0.4
 40
0.4
 40
0.6
 40
0.6
 40
0.6
 40
0.6
 40
1.0
 40
1.0
 40
1.0
 40
1.0
 10
3.40377
 20
0.63558
 30
0.0
 10
3.40377
 20
0.63558
 30
0.0
 10
2.34161
 20
0.63558
 30
0.0
 10
2.34161
 20
0.63558
 30
0.0
 10
2.34161
 20
0.63558
 30
0.0
 10
2.34161
 20
0.63558
 30
0.0
 10
2.34161
 20
-0.69153
 30
0.0
 10
2.34161
 20
-0.69153
 30
0.0
 10
2.34161
 20
-0.69153
 30
0.0
 10
2.34161
 20
-0.69153
 30
0.0
 10
3.40377
 20
-0.69153
 30
0.0
 10
3.40377
 20
-0.69153
 30
0.0
 10
3.40377
 20
-0.69153
 30
0.0
 10
3.40377
 20
-0.69153
 30
0.0
 10
3.40377
 20
0.63558
 30
0.0
 10
3.40377
 20
0.63558
 30
0.0
  0
SPLINE
  5
AC
330
1F
100
AcDbEntity
  8
Layer 1
 62
   177
370
     9
100
AcDbSpline
210
0.0
220
0.0
230
1.0
 70
    11
 71
     3
 72
    20
 73
    16
 74
     0
 42
0.0000000001
 43
0.0000000001
 12
1.0
 22
0.0
 32
0.0
 13
1.0
 23
0.0
 33
0.0
 40
0.0
 40
0.0
 40
0.0
 40
0.0
 40
0.2
 40
0.2
 40
0.2
 40
0.2
 40
0.4
 40
0.4
 40
0.4
 40
0.4
 40
0.6
 40
0.6
 40
0.6
 40
0.6
 40
1.0
 40
1.0
 40
1.0
 40
1.0
 10
1.98525
 20
0.63558
 30
0.0
 10
1.98525
 20
0.63558
 30
0.0
 10
0.92315
 20
0.63558
 30
0.0
 10
0.92315
 20
0.63558
 30
0.0
 10
0.92315
 20
0.63558
 30
0.0
 10
0.92315
 20
0.63558
 30
0.0
 10
0.92315
 20
-0.69153
 30
0.0
 10
0.92315
 20
-0.69153
 30
0.0
 10
0.92315
 20
-0.69153
 30
0.0
 10
0.92315
 20
-0.69153
 30
0.0
 10
1.98525
 20
-0.69153
 30
0.0
 10
1.98525
 20
-0.69153
 30
0.0
 10
1.98525
 20
-0.69153
 30
0.0
 10
1.98525
 20
-0.69153
 30
0.0
 10
1.98525
 20
0.63558
 30
0.0
 10
1.98525
 20
0.63558
 30
0.0
  0
SPLINE
  5
AD
330
1F
100
AcDbEntity
  8
Layer 1
 62
   177
370
     9
100
AcDbSpline
210
0.0
220
0.0
230
1.0
 70
    11
 71
     3
 72
    20
 73
    16
 74
     0
 42
0.0000000001
 43
0.0000000001
 12
1.0
 22
0.0
 32
0.0
 13
1.0
 23
0.0
 33
0.0
 40
0.0
 40
0.0
 40
0.0
 40
0.0
 40
0.2
 40
0.2
 40
0.2
 40
0.2
 40
0.4
 40
0.4
 40
0.4
 40
0.4
 40
0.6
 40
0.6
 40
0.6
 40
0.6
 40
1.0
 40
1.0
 40
1.0
 40
1.0
 10
4.83045
 20
-2.40274
 30
0.0
 10
4.83045
 20
-2.40274
 30
0.0
 10
4.83045
 20
-1.02435
 30
0.0
 10
4.83045
 20
-1.02435
 30
0.0
 10
4.83045
 20
-1.02435
 30
0.0
 10
4.83045
 20
-1.02435
 30
0.0
 10
2.34161
 20
-1.02435
 30
0.0
 10
2.34161
 20
-1.02435
 30
0.0
 10
2.34161
 20
-1.02435
 30
0.0
 10
2.34161
 20
-1.02435
 30
0.0
 10
2.34161
 20
-2.40274
 30
0.0
 10
2.34161
 20
-2.40274
 30
0.0
 10
2.34161
 20
-2.40274
 30
0.0
 10
2.34161
 20
-2.40274
 30
0.0
 10
4.83045
 20
-2.40274
 30
0.0
 10
4.83045
 20
-2.40274
 30
0.0
  0
SPLINE
  5
AE
330
1F
100
AcDbEntity
  8
Layer 1
 62
   177
370
     9
100
AcDbSpline
210
0.0
220
0.0
230
1.0
 70
    11
 71
     3
 72
    20
 73
    16
 74
     0
 42
0.0000000001
 43
0.0000000001
 12
1.0
 22
0.0
 32
0.0
 13
1.0
 23
0.0
 33
0.0
 40
0.0
 40
0.0
 40
0.0
 40
0.0
 40
0.2
 40
0.2
 40
0.2
 40
0.2
 40
0.4
 40
0.4
 40
0.4
 40
0.4
 40
0.6
 40
0.6
 40
0.6
 40
0.6
 40
1.0
 40
1.0
 40
1.0
 40
1.0
 10
1.98525
 20
-2.40274
 30
0.0
 10
1.98525
 20
-2.40274
 30
0.0
 10
1.98525
 20
-1.02435
 30
0.0
 10
1.98525
 20
-1.02435
 30
0.0
 10
1.98525
 20
-1.02435
 30
0.0
 10
1.98525
 20
-1.02435
 30
0.0
 10
-0.50358
 20
-1.02435
 30
0.0
 10
-0.50358
 20
-1.02435
 30
0.0
 10
-0.50358
 20
-1.02435
 30
0.0
 10
-0.50358
 20
-1.02435
 30
0.0
 10
-0.50358
 20
-2.40274
 30
0.0
 10
-0.50358
 20
-2.40274
 30
0.0
 10
-0.50358
 20
-2.40274
 30
0.0
 10
-0.50358
 20
-2.40274
 30
0.0
 10
1.98525
 20
-2.40274
 30
0.0
 10
1.98525
 20
-2.40274
 30
0.0
  0
ENDSEC
  0
SECTION
  2
OBJECTS
  0
DICTIONARY
  5
C
330
0
100
AcDbDictionary
281
     1
  3
ACAD_GROUP
350
D
  3
ACAD_LAYOUT
350
1A
  3
ACAD_MATERIAL
350
3B
  3
ACAD_MLEADERSTYLE
350
B1
  3
ACAD_MLINESTYLE
350
17
  3
ACAD_PLOTSETTINGS
350
19
  3
ACAD_PLOTSTYLENAME
350
E
  3
ACAD_VISUALSTYLE
350
2A
  3
AcDbVariableDictionary
350
AF
  0
DICTIONARY
  5
D
102
{ACAD_REACTORS
330
C
102
}
330
C
100
AcDbDictionary
281
     1
  0
DICTIONARY
  5
1A
102
{ACAD_REACTORS
330
C
102
}
330
C
100
AcDbDictionary
281
     1
  3
Layout1
350
1E
  3
Layout2
350
26
  3
Model
350
22
  0
DICTIONARY
  5
3B
102
{ACAD_REACTORS
330
C
102
}
330
C
100
AcDbDictionary
281
     1
  3
ByBlock
350
3D
  3
ByLayer
350
3C
  3
Global
350
3E
  0
DICTIONARY
  5
B1
102
{ACAD_REACTORS
330
C
102
}
330
C
100
AcDbDictionary
281
     1
  0
DICTIONARY
  5
17
102
{ACAD_REACTORS
330
C
102
}
330
C
100
AcDbDictionary
281
     1
  3
Standard
350
18
  0
DICTIONARY
  5
19
102
{ACAD_REACTORS
330
C
102
}
330
C
100
AcDbDictionary
281
     1
  0
ACDBDICTIONARYWDFLT
  5
E
102
{ACAD_REACTORS
330
C
102
}
330
C
100
AcDbDictionary
281
     1
  3
Normal
350
F
100
AcDbDictionaryWithDefault
340
F
  0
DICTIONARY
  5
2A
102
{ACAD_REACTORS
330
C
102
}
330
C
100
AcDbDictionary
281
     1
  3
2dWireframe
350
2F
  3
3D Hidden
350
31
  3
3dWireframe
350
30
  3
Basic
350
32
  3
Brighten
350
36
  3
ColorChange
350
3A
  3
Conceptual
350
34
  3
Dim
350
35
  3
Facepattern
350
39
  3
Flat
350
2B
  3
FlatWithEdges
350
2C
  3
Gouraud
350
2D
  3
GouraudWithEdges
350
2E
  3
Linepattern
350
38
  3
Realistic
350
33
  3
Thicken
350
37
  0
DICTIONARY
  5
AF
102
{ACAD_REACTORS
330
C
102
}
330
C
100
AcDbDictionary
281
     1
  3
DIMASSOC
350
B2
  3
HIDETEXT
350
B3
  0
LAYOUT
  5
1E
102
{ACAD_REACTORS
330
1A
102
}
330
1A
100
AcDbPlotSettings
  1

  2
none_device
  4

  6

 40
0.0
 41
0.0
 42
0.0
 43
0.0
 44
0.0
 45
0.0
 46
0.0
 47
0.0
 48
0.0
 49
0.0
140
0.0
141
0.0
142
1.0
143
1.0
 70
   688
 72
     0
 73
     0
 74
     5
  7

 75
    16
147
1.0
148
0.0
149
0.0
100
AcDbLayout
  1
Layout1
 70
     1
 71
     1
 10
0.0
 20
0.0
 11
12.0
 21
9.0
 12
0.0
 22
0.0
 32
0.0
 14
1.000000000000000E+20
 24
1.000000000000000E+20
 34
1.000000000000000E+20
 15
-1.000000000000000E+20
 25
-1.000000000000000E+20
 35
-1.000000000000000E+20
146
0.0
 13
0.0
 23
0.0
 33
0.0
 16
1.0
 26
0.0
 36
0.0
 17
0.0
 27
1.0
 37
0.0
 76
     0
330
1B
  0
LAYOUT
  5
26
102
{ACAD_REACTORS
330
1A
102
}
330
1A
100
AcDbPlotSettings
  1

  2
none_device
  4

  6

 40
0.0
 41
0.0
 42
0.0
 43
0.0
 44
0.0
 45
0.0
 46
0.0
 47
0.0
 48
0.0
 49
0.0
140
0.0
141
0.0
142
1.0
143
1.0
 70
   688
 72
     0
 73
     0
 74
     5
  7

 75
    16
147
1.0
148
0.0
149
0.0
100
AcDbLayout
  1
Layout2
 70
     1
 71
     2
 10
0.0
 20
0.0
 11
0.0
 21
0.0
 12
0.0
 22
0.0
 32
0.0
 14
0.0
 24
0.0
 34
0.0
 15
0.0
 25
0.0
 35
0.0
146
0.0
 13
0.0
 23
0.0
 33
0.0
 16
1.0
 26
0.0
 36
0.0
 17
0.0
 27
1.0
 37
0.0
 76
     0
330
23
  0
LAYOUT
  5
22
102
{ACAD_REACTORS
330
1A
102
}
330
1A
100
AcDbPlotSettings
  1

  2
none_device
  4

  6

 40
0.0
 41
0.0
 42
0.0
 43
0.0
 44
0.0
 45
0.0
 46
0.0
 47
0.0
 48
0.0
 49
0.0
140
0.0
141
0.0
142
1.0
143
1.0
 70
  1712
 72
     0
 73
     0
 74
     0
  7

 75
     0
147
1.0
148
0.0
149
0.0
100
AcDbLayout
  1
Model
 70
     1
 71
     0
 10
0.0
 20
0.0
 11
12.0
 21
9.0
 12
0.0
 22
0.0
 32
0.0
 14
-12.3449
 24
-12.20666
 34
0.0
 15
6.77806
 25
13.68499
 35
0.0
146
0.0
 13
0.0
 23
0.0
 33
0.0
 16
1.0
 26
0.0
 36
0.0
 17
0.0
 27
1.0
 37
0.0
 76
     0
330
1F
331
29
  0
MATERIAL
  5
3D
102
{ACAD_REACTORS
330
3B
102
}
102
{ACAD_XDICTIONARY
360
D6
102
}
330
3B
100
AcDbMaterial
  1
ByBlock
  0
MATERIAL
  5
3C
102
{ACAD_REACTORS
330
3B
102
}
102
{ACAD_XDICTIONARY
360
D4
102
}
330
3B
100
AcDbMaterial
  1
ByLayer
  0
MATERIAL
  5
3E
102
{ACAD_REACTORS
330
3B
102
}
102
{ACAD_XDICTIONARY
360
D8
102
}
330
3B
100
AcDbMaterial
  1
Global
  0
MLINESTYLE
  5
18
102
{ACAD_REACTORS
330
17
102
}
330
17
100
AcDbMlineStyle
  2
Standard
 70
     0
  3

 62
   256
 51
90.0
 52
90.0
 71
     2
 49
0.5
 62
   256
  6
BYLAYER
 49
-0.5
 62
   256
  6
BYLAYER
  0
ACDBPLACEHOLDER
  5
F
102
{ACAD_REACTORS
330
E
102
}
330
E
  0
VISUALSTYLE
  5
2F
102
{ACAD_REACTORS
330
2A
102
}
102
{ACAD_XDICTIONARY
360
BC
102
}
330
2A
100
AcDbVisualStyle
  2
2dWireframe
 70
     4
 71
     0
 72
     2
 73
     0
 90
        0
 40
-0.6
 41
-30.0
 62
     5
 63
     7
 74
     1
 91
        4
 64
     7
 65
   257
 75
     1
175
     1
 42
1.0
 92
        0
 66
   257
 43
1.0
 76
     1
 77
     6
 78
     2
 67
     7
 79
     5
170
     0
171
     0
290
     0
174
     0
 93
        1
 44
0.0
173
     0
291
     0
 45
0.0
1001
ACAD
1000
AcDbSavedByObjectVersion
1070
     0
  0
VISUALSTYLE
  5
31
102
{ACAD_REACTORS
330
2A
102
}
102
{ACAD_XDICTIONARY
360
C0
102
}
330
2A
100
AcDbVisualStyle
  2
3D Hidden
 70
     6
 71
     1
 72
     2
 73
     2
 90
        0
 40
-0.6
 41
-30.0
 62
     5
 63
     7
 74
     2
 91
        2
 64
     7
 65
   257
 75
     2
175
     1
 42
40.0
 92
        0
 66
   257
 43
1.0
 76
     1
 77
     6
 78
     2
 67
     7
 79
     3
170
     0
171
     0
290
     0
174
     0
 93
        1
 44
0.0
173
     0
291
     0
 45
0.0
1001
ACAD
1000
AcDbSavedByObjectVersion
1070
     0
  0
VISUALSTYLE
  5
30
102
{ACAD_REACTORS
330
2A
102
}
102
{ACAD_XDICTIONARY
360
BE
102
}
330
2A
100
AcDbVisualStyle
  2
3dWireframe
 70
     5
 71
     0
 72
     2
 73
     0
 90
        0
 40
-0.6
 41
-30.0
 62
     5
 63
     7
 74
     1
 91
        4
 64
     7
 65
   257
 75
     1
175
     1
 42
1.0
 92
        0
 66
   257
 43
1.0
 76
     1
 77
     6
 78
     2
 67
     7
 79
     5
170
     0
171
     0
290
     0
174
     0
 93
        1
 44
0.0
173
     0
291
     0
 45
0.0
1001
ACAD
1000
AcDbSavedByObjectVersion
1070
     0
  0
VISUALSTYLE
  5
32
102
{ACAD_REACTORS
330
2A
102
}
102
{ACAD_XDICTIONARY
360
C2
102
}
330
2A
100
AcDbVisualStyle
  2
Basic
 70
     7
 71
     1
 72
     0
 73
     1
 90
        0
 40
-0.6
 41
-30.0
 62
     5
 63
     7
 74
     0
 91
        4
 64
     7
 65
   257
 75
     1
175
     1
 42
1.0
 92
        8
 66
     7
 43
1.0
 76
     1
 77
     6
 78
     2
 67
     7
 79
     5
170
     0
171
     0
290
     0
174
     0
 93
        1
 44
0.0
173
     0
291
     1
 45
0.0
1001
ACAD
1000
AcDbSavedByObjectVersion
1070
     0
  0
VISUALSTYLE
  5
36
102
{ACAD_REACTORS
330
2A
102
}
102
{ACAD_XDICTIONARY
360
CA
102
}
330
2A
100
AcDbVisualStyle
  2
Brighten
 70
    12
 71
     2
 72
     2
 73
     0
 90
        0
 40
-0.6
 41
-30.0
 62
     5
 63
     7
 74
     1
 91
        4
 64
     7
 65
   257
 75
     1
175
     1
 42
1.0
 92
        8
 66
     7
 43
1.0
 76
     1
 77
     6
 78
     2
 67
     7
 79
     5
170
     0
171
     0
290
     0
174
     0
 93
        1
 44
50.0
173
     0
291
     1
 45
0.0
1001
ACAD
1000
AcDbSavedByObjectVersion
1070
     0
  0
VISUALSTYLE
  5
3A
102
{ACAD_REACTORS
330
2A
102
}
102
{ACAD_XDICTIONARY
360
D2
102
}
330
2A
100
AcDbVisualStyle
  2
ColorChange
 70
    16
 71
     2
 72
     2
 73
     3
 90
        0
 40
-0.6
 41
-30.0
 62
     5
 63
     8
 74
     1
 91
        4
 64
     7
 65
   257
 75
     1
175
     1
 42
1.0
 92
        8
 66
     8
 43
1.0
 76
     1
 77
     6
 78
     2
 67
     7
 79
     5
170
     0
171
     0
290
     0
174
     0
 93
        1
 44
0.0
173
     0
291
     1
 45
0.0
1001
ACAD
1000
AcDbSavedByObjectVersion
1070
     0
  0
VISUALSTYLE
  5
34
102
{ACAD_REACTORS
330
2A
102
}
102
{ACAD_XDICTIONARY
360
C6
102
}
330
2A
100
AcDbVisualStyle
  2
Conceptual
 70
     9
 71
     3
 72
     2
 73
     0
 90
        0
 40
-0.6
 41
-30.0
 62
     5
 63
     7
 74
     2
 91
        2
 64
     7
 65
   257
 75
     1
175
     1
 42
40.0
 92
        8
 66
     7
 43
1.0
 76
     1
 77
     6
 78
     2
 67
     7
 79
     3
170
     0
171
     0
290
     0
174
     0
 93
        1
 44
0.0
173
     0
291
     0
 45
0.0
1001
ACAD
1000
AcDbSavedByObjectVersion
1070
     0
  0
VISUALSTYLE
  5
35
102
{ACAD_REACTORS
330
2A
102
}
102
{ACAD_XDICTIONARY
360
C8
102
}
330
2A
100
AcDbVisualStyle
  2
Dim
 70
    11
 71
     2
 72
     2
 73
     0
 90
        0
 40
-0.6
 41
-30.0
 62
     5
 63
     7
 74
     1
 91
        4
 64
     7
 65
   257
 75
     1
175
     1
 42
1.0
 92
        8
 66
     7
 43
1.0
 76
     1
 77
     6
 78
     2
 67
     7
 79
     5
170
     0
171
     0
290
     0
174
     0
 93
        1
 44
-50.0
173
     0
291
     1
 45
0.0
1001
ACAD
1000
AcDbSavedByObjectVersion
1070
     0
  0
VISUALSTYLE
  5
39
102
{ACAD_REACTORS
330
2A
102
}
102
{ACAD_XDICTIONARY
360
D0
102
}
330
2A
100
AcDbVisualStyle
  2
Facepattern
 70
    15
 71
     2
 72
     2
 73
     0
 90
        0
 40
-0.6
 41
-30.0
 62
     5
 63
     7
 74
     1
 91
        4
 64
     7
 65
   257
 75
     1
175
     1
 42
1.0
 92
        8
 66
     7
 43
1.0
 76
     1
 77
     6
 78
     2
 67
     7
 79
     5
170
     0
171
     0
290
     0
174
     0
 93
        1
 44
0.0
173
     0
291
     1
 45
0.0
1001
ACAD
1000
AcDbSavedByObjectVersion
1070
     0
  0
VISUALSTYLE
  5
2B
102
{ACAD_REACTORS
330
2A
102
}
102
{ACAD_XDICTIONARY
360
B4
102
}
330
2A
100
AcDbVisualStyle
  2
Flat
 70
     0
 71
     2
 72
     1
 73
     1
 90
        2
 40
-0.6
 41
30.0
 62
     5
 63
     7
 74
     0
 91
        4
 64
     7
 65
   257
 75
     1
175
     1
 42
1.0
 92
        8
 66
     7
 43
1.0
 76
     1
 77
     6
 78
     2
 67
     7
 79
     5
170
     0
171
     0
290
     0
174
     0
 93
       13
 44
0.0
173
     0
291
     1
 45
0.0
1001
ACAD
1000
AcDbSavedByObjectVersion
1070
     0
  0
VISUALSTYLE
  5
2C
102
{ACAD_REACTORS
330
2A
102
}
102
{ACAD_XDICTIONARY
360
B6
102
}
330
2A
100
AcDbVisualStyle
  2
FlatWithEdges
 70
     1
 71
     2
 72
     1
 73
     1
 90
        2
 40
-0.6
 41
30.0
 62
     5
 63
     7
 74
     1
 91
        4
 64
     7
 65
   257
 75
     1
175
     1
 42
1.0
 92
        0
 66
   257
 43
1.0
 76
     1
 77
     6
 78
     2
 67
     7
 79
     5
170
     0
171
     0
290
     0
174
     0
 93
       13
 44
0.0
173
     0
291
     1
 45
0.0
1001
ACAD
1000
AcDbSavedByObjectVersion
1070
     0
  0
VISUALSTYLE
  5
2D
102
{ACAD_REACTORS
330
2A
102
}
102
{ACAD_XDICTIONARY
360
B8
102
}
330
2A
100
AcDbVisualStyle
  2
Gouraud
 70
     2
 71
     2
 72
     2
 73
     1
 90
        2
 40
-0.6
 41
30.0
 62
     5
 63
     7
 74
     0
 91
        4
 64
     7
 65
   257
 75
     1
175
     1
 42
1.0
 92
        0
 66
     7
 43
1.0
 76
     1
 77
     6
 78
     2
 67
     7
 79
     5
170
     0
171
     0
290
     0
174
     0
 93
       13
 44
0.0
173
     0
291
     1
 45
0.0
1001
ACAD
1000
AcDbSavedByObjectVersion
1070
     0
  0
VISUALSTYLE
  5
2E
102
{ACAD_REACTORS
330
2A
102
}
102
{ACAD_XDICTIONARY
360
BA
102
}
330
2A
100
AcDbVisualStyle
  2
GouraudWithEdges
 70
     3
 71
     2
 72
     2
 73
     1
 90
        2
 40
-0.6
 41
30.0
 62
     5
 63
     7
 74
     1
 91
        4
 64
     7
 65
   257
 75
     1
175
     1
 42
1.0
 92
        0
 66
   257
 43
1.0
 76
     1
 77
     6
 78
     2
 67
     7
 79
     5
170
     0
171
     0
290
     0
174
     0
 93
       13
 44
0.0
173
     0
291
     1
 45
0.0
1001
ACAD
1000
AcDbSavedByObjectVersion
1070
     0
  0
VISUALSTYLE
  5
38
102
{ACAD_REACTORS
330
2A
102
}
102
{ACAD_XDICTIONARY
360
CE
102
}
330
2A
100
AcDbVisualStyle
  2
Linepattern
 70
    14
 71
     2
 72
     2
 73
     0
 90
        0
 40
-0.6
 41
-30.0
 62
     5
 63
     7
 74
     1
 91
        4
 64
     7
 65
   257
 75
     7
175
     7
 42
1.0
 92
        8
 66
     7
 43
1.0
 76
     1
 77
     6
 78
     2
 67
     7
 79
     5
170
     0
171
     0
290
     0
174
     0
 93
        1
 44
0.0
173
     0
291
     1
 45
0.0
1001
ACAD
1000
AcDbSavedByObjectVersion
1070
     0
  0
VISUALSTYLE
  5
33
102
{ACAD_REACTORS
330
2A
102
}
102
{ACAD_XDICTIONARY
360
C4
102
}
330
2A
100
AcDbVisualStyle
  2
Realistic
 70
     8
 71
     2
 72
     2
 73
     0
 90
        0
 40
-0.6
 41
-30.0
 62
     5
 63
     7
 74
     1
 91
        0
 64
     7
 65
   257
 75
     1
175
     1
 42
1.0
 92
        8
 66
     8
 43
1.0
 76
     1
 77
     6
 78
     2
 67
     7
 79
     5
170
     0
171
     0
290
     0
174
     0
 93
       13
 44
0.0
173
     0
291
     0
 45
0.0
1001
ACAD
1000
AcDbSavedByObjectVersion
1070
     0
  0
VISUALSTYLE
  5
37
102
{ACAD_REACTORS
330
2A
102
}
102
{ACAD_XDICTIONARY
360
CC
102
}
330
2A
100
AcDbVisualStyle
  2
Thicken
 70
    13
 71
     2
 72
     2
 73
     0
 90
        0
 40
-0.6
 41
-30.0
 62
     5
 63
     7
 74
     1
 91
        4
 64
     7
 65
   257
 75
     1
175
     1
 42
1.0
 92
       12
 66
     7
 43
1.0
 76
     1
 77
     6
 78
     2
 67
     7
 79
     5
170
     0
171
     0
290
     0
174
     0
 93
        1
 44
0.0
173
     0
291
     1
 45
0.0
1001
ACAD
1000
AcDbSavedByObjectVersion
1070
     0
  0
DICTIONARYVAR
  5
B2
102
{ACAD_REACTORS
330
AF
102
}
330
AF
100
DictionaryVariables
280
     0
  1
2
  0
DICTIONARYVAR
  5
B3
102
{ACAD_REACTORS
330
AF
102
}
330
AF
100
DictionaryVariables
280
     0
  1
1
  0
DICTIONARY
  5
D6
330
3D
100
AcDbDictionary
280
     1
281
     1
  3
ACAD_XREC_ROUNDTRIP
360
D7
  0
DICTIONARY
  5
D4
330
3C
100
AcDbDictionary
280
     1
281
     1
  3
ACAD_XREC_ROUNDTRIP
360
D5
  0
DICTIONARY
  5
D8
330
3E
100
AcDbDictionary
280
     1
281
     1
  3
ACAD_XREC_ROUNDTRIP
360
D9
  0
DICTIONARY
  5
BC
330
2F
100
AcDbDictionary
280
     1
281
     1
  3
ACAD_XREC_ROUNDTRIP
360
BD
  0
DICTIONARY
  5
C0
330
31
100
AcDbDictionary
280
     1
281
     1
  3
ACAD_XREC_ROUNDTRIP
360
C1
  0
DICTIONARY
  5
BE
330
30
100
AcDbDictionary
280
     1
281
     1
  3
ACAD_XREC_ROUNDTRIP
360
BF
  0
DICTIONARY
  5
C2
330
32
100
AcDbDictionary
280
     1
281
     1
  3
ACAD_XREC_ROUNDTRIP
360
C3
  0
DICTIONARY
  5
CA
330
36
100
AcDbDictionary
280
     1
281
     1
  3
ACAD_XREC_ROUNDTRIP
360
CB
  0
DICTIONARY
  5
D2
330
3A
100
AcDbDictionary
280
     1
281
     1
  3
ACAD_XREC_ROUNDTRIP
360
D3
  0
DICTIONARY
  5
C6
330
34
100
AcDbDictionary
280
     1
281
     1
  3
ACAD_XREC_ROUNDTRIP
360
C7
  0
DICTIONARY
  5
C8
330
35
100
AcDbDictionary
280
     1
281
     1
  3
ACAD_XREC_ROUNDTRIP
360
C9
  0
DICTIONARY
  5
D0
330
39
100
AcDbDictionary
280
     1
281
     1
  3
ACAD_XREC_ROUNDTRIP
360
D1
  0
DICTIONARY
  5
B4
330
2B
100
AcDbDictionary
280
     1
281
     1
  3
ACAD_XREC_ROUNDTRIP
360
B5
  0
DICTIONARY
  5
B6
330
2C
100
AcDbDictionary
280
     1
281
     1
  3
ACAD_XREC_ROUNDTRIP
360
B7
  0
DICTIONARY
  5
B8
330
2D
100
AcDbDictionary
280
     1
281
     1
  3
ACAD_XREC_ROUNDTRIP
360
B9
  0
DICTIONARY
  5
BA
330
2E
100
AcDbDictionary
280
     1
281
     1
  3
ACAD_XREC_ROUNDTRIP
360
BB
  0
DICTIONARY
  5
CE
330
38
100
AcDbDictionary
280
     1
281
     1
  3
ACAD_XREC_ROUNDTRIP
360
CF
  0
DICTIONARY
  5
C4
330
33
100
AcDbDictionary
280
     1
281
     1
  3
ACAD_XREC_ROUNDTRIP
360
C5
  0
DICTIONARY
  5
CC
330
37
100
AcDbDictionary
280
     1
281
     1
  3
ACAD_XREC_ROUNDTRIP
360
CD
  0
XRECORD
  5
D7
102
{ACAD_REACTORS
330
D6
102
}
330
D6
100
AcDbXrecord
280
     1
102
MATERIAL
148
0.0
149
0.0
149
0.0
 93
        0
 94
      127
282
     0
 72
     1
 77
     1
171
     1
175
     1
179
     1
273
     0
  0
XRECORD
  5
D5
102
{ACAD_REACTORS
330
D4
102
}
330
D4
100
AcDbXrecord
280
     1
102
MATERIAL
148
0.0
149
0.0
149
0.0
 93
        0
 94
      127
282
     0
 72
     1
 77
     1
171
     1
175
     1
179
     1
273
     0
  0
XRECORD
  5
D9
102
{ACAD_REACTORS
330
D8
102
}
330
D8
100
AcDbXrecord
280
     1
102
MATERIAL
148
0.0
149
0.0
149
0.0
 93
        0
 94
      127
282
     0
 72
     1
 77
     1
171
     1
175
     1
179
     1
273
     0
  0
XRECORD
  5
BD
102
{ACAD_REACTORS
330
BC
102
}
330
BC
100
AcDbXrecord
280
     1
102
RTVSPropertyOp0
 70
     1
102
RTVSPropertyOp1
 70
     1
102
RTVSPropertyOp2
 70
     1
102
RTVSPropertyOp3
 70
     1
102
RTVSPropertyOp4
 70
     1
102
RTVSPropertyOp5
 70
     1
102
RTVSPropertyOp6
 70
     1
102
RTVSPropertyOp7
 70
     1
102
RTVSPropertyOp8
 70
     1
102
RTVSPropertyOp9
 70
     1
102
RTVSPropertyOp10
 70
     1
102
RTVSPropertyOp11
 70
     1
102
RTVSPropertyOp12
 70
     1
102
RTVSPropertyOp13
 70
     1
102
RTVSPropertyOp14
 70
     1
102
RTVSPropertyOp15
 70
     1
102
RTVSPropertyOp16
 70
     1
102
RTVSPropertyOp17
 70
     1
102
RTVSPropertyOp18
 70
     1
102
RTVSPropertyOp19
 70
     1
102
RTVSPropertyOp20
 70
     1
102
RTVSPropertyOp21
 70
     1
102
RTVSPropertyOp22
 70
     1
102
RTVSPropertyOp23
 70
     1
102
RTVSPropertyOp24
 70
     1
102
RTVSPropertyOp25
 70
     1
102
RTVSPropertyOp26
 70
     1
102
RTVSPropertyOp27
 70
     1
102
RTVSPropertyOp28
 70
     1
102
RTVSPropertyOp29
 70
     1
102
RTVSPropertyOp30
 70
     1
102
RTVSPropertyOp31
 70
     1
102
RTVSPropertyOp32
 70
     1
  0
XRECORD
  5
C1
102
{ACAD_REACTORS
330
C0
102
}
330
C0
100
AcDbXrecord
280
     1
102
RTVSPropertyOp0
 70
     1
102
RTVSPropertyOp1
 70
     1
102
RTVSPropertyOp2
 70
     1
102
RTVSPropertyOp3
 70
     1
102
RTVSPropertyOp4
 70
     1
102
RTVSPropertyOp5
 70
     1
102
RTVSPropertyOp6
 70
     1
102
RTVSPropertyOp7
 70
     1
102
RTVSPropertyOp8
 70
     1
102
RTVSPropertyOp9
 70
     1
102
RTVSPropertyOp10
 70
     1
102
RTVSPropertyOp11
 70
     1
102
RTVSPropertyOp12
 70
     1
102
RTVSPropertyOp13
 70
     1
102
RTVSPropertyOp14
 70
     1
102
RTVSPropertyOp15
 70
     1
102
RTVSPropertyOp16
 70
     1
102
RTVSPropertyOp17
 70
     1
102
RTVSPropertyOp18
 70
     1
102
RTVSPropertyOp19
 70
     1
102
RTVSPropertyOp20
 70
     1
102
RTVSPropertyOp21
 70
     1
102
RTVSPropertyOp22
 70
     1
102
RTVSPropertyOp23
 70
     1
102
RTVSPropertyOp24
 70
     1
102
RTVSPropertyOp25
 70
     1
102
RTVSPropertyOp26
 70
     1
102
RTVSPropertyOp27
 70
     1
102
RTVSPropertyOp28
 70
     1
102
RTVSPropertyOp29
 70
     1
102
RTVSPropertyOp30
 70
     1
102
RTVSPropertyOp31
 70
     1
102
RTVSPropertyOp32
 70
     1
  0
XRECORD
  5
BF
102
{ACAD_REACTORS
330
BE
102
}
330
BE
100
AcDbXrecord
280
     1
102
RTVSPropertyOp0
 70
     1
102
RTVSPropertyOp1
 70
     1
102
RTVSPropertyOp2
 70
     1
102
RTVSPropertyOp3
 70
     1
102
RTVSPropertyOp4
 70
     1
102
RTVSPropertyOp5
 70
     1
102
RTVSPropertyOp6
 70
     1
102
RTVSPropertyOp7
 70
     1
102
RTVSPropertyOp8
 70
     1
102
RTVSPropertyOp9
 70
     1
102
RTVSPropertyOp10
 70
     1
102
RTVSPropertyOp11
 70
     1
102
RTVSPropertyOp12
 70
     1
102
RTVSPropertyOp13
 70
     1
102
RTVSPropertyOp14
 70
     1
102
RTVSPropertyOp15
 70
     1
102
RTVSPropertyOp16
 70
     1
102
RTVSPropertyOp17
 70
     1
102
RTVSPropertyOp18
 70
     1
102
RTVSPropertyOp19
 70
     1
102
RTVSPropertyOp20
 70
     1
102
RTVSPropertyOp21
 70
     1
102
RTVSPropertyOp22
 70
     1
102
RTVSPropertyOp23
 70
     1
102
RTVSPropertyOp24
 70
     1
102
RTVSPropertyOp25
 70
     1
102
RTVSPropertyOp26
 70
     1
102
RTVSPropertyOp27
 70
     1
102
RTVSPropertyOp28
 70
     1
102
RTVSPropertyOp29
 70
     1
102
RTVSPropertyOp30
 70
     1
102
RTVSPropertyOp31
 70
     1
102
RTVSPropertyOp32
 70
     1
  0
XRECORD
  5
C3
102
{ACAD_REACTORS
330
C2
102
}
330
C2
100
AcDbXrecord
280
     1
102
RTVSPropertyOp0
 70
     1
102
RTVSPropertyOp1
 70
     1
102
RTVSPropertyOp2
 70
     1
102
RTVSPropertyOp3
 70
     1
102
RTVSPropertyOp4
 70
     1
102
RTVSPropertyOp5
 70
     1
102
RTVSPropertyOp6
 70
     1
102
RTVSPropertyOp7
 70
     1
102
RTVSPropertyOp8
 70
     1
102
RTVSPropertyOp9
 70
     1
102
RTVSPropertyOp10
 70
     1
102
RTVSPropertyOp11
 70
     1
102
RTVSPropertyOp12
 70
     1
102
RTVSPropertyOp13
 70
     1
102
RTVSPropertyOp14
 70
     1
102
RTVSPropertyOp15
 70
     1
102
RTVSPropertyOp16
 70
     1
102
RTVSPropertyOp17
 70
     1
102
RTVSPropertyOp18
 70
     1
102
RTVSPropertyOp19
 70
     1
102
RTVSPropertyOp20
 70
     1
102
RTVSPropertyOp21
 70
     1
102
RTVSPropertyOp22
 70
     1
102
RTVSPropertyOp23
 70
     1
102
RTVSPropertyOp24
 70
     1
102
RTVSPropertyOp25
 70
     1
102
RTVSPropertyOp26
 70
     1
102
RTVSPropertyOp27
 70
     1
102
RTVSPropertyOp28
 70
     1
102
RTVSPropertyOp29
 70
     1
102
RTVSPropertyOp30
 70
     1
102
RTVSPropertyOp31
 70
     1
102
RTVSPropertyOp32
 70
     1
  0
XRECORD
  5
CB
102
{ACAD_REACTORS
330
CA
102
}
330
CA
100
AcDbXrecord
280
     1
102
RTVSPropertyOp0
 70
     1
102
RTVSPropertyOp1
 70
     1
102
RTVSPropertyOp2
 70
     1
102
RTVSPropertyOp3
 70
     1
102
RTVSPropertyOp4
 70
     1
102
RTVSPropertyOp5
 70
     1
102
RTVSPropertyOp6
 70
     1
102
RTVSPropertyOp7
 70
     1
102
RTVSPropertyOp8
 70
     1
102
RTVSPropertyOp9
 70
     1
102
RTVSPropertyOp10
 70
     1
102
RTVSPropertyOp11
 70
     1
102
RTVSPropertyOp12
 70
     1
102
RTVSPropertyOp13
 70
     1
102
RTVSPropertyOp14
 70
     1
102
RTVSPropertyOp15
 70
     1
102
RTVSPropertyOp16
 70
     1
102
RTVSPropertyOp17
 70
     1
102
RTVSPropertyOp18
 70
     1
102
RTVSPropertyOp19
 70
     1
102
RTVSPropertyOp20
 70
     1
102
RTVSPropertyOp21
 70
     1
102
RTVSPropertyOp22
 70
     1
102
RTVSPropertyOp23
 70
     1
102
RTVSPropertyOp24
 70
     1
102
RTVSPropertyOp25
 70
     1
102
RTVSPropertyOp26
 70
     1
102
RTVSPropertyOp27
 70
     1
102
RTVSPropertyOp28
 70
     1
102
RTVSPropertyOp29
 70
     1
102
RTVSPropertyOp30
 70
     1
102
RTVSPropertyOp31
 70
     1
102
RTVSPropertyOp32
 70
     1
  0
XRECORD
  5
D3
102
{ACAD_REACTORS
330
D2
102
}
330
D2
100
AcDbXrecord
280
     1
102
RTVSPropertyOp0
 70
     1
102
RTVSPropertyOp1
 70
     1
102
RTVSPropertyOp2
 70
     1
102
RTVSPropertyOp3
 70
     1
102
RTVSPropertyOp4
 70
     1
102
RTVSPropertyOp5
 70
     1
102
RTVSPropertyOp6
 70
     1
102
RTVSPropertyOp7
 70
     1
102
RTVSPropertyOp8
 70
     1
102
RTVSPropertyOp9
 70
     1
102
RTVSPropertyOp10
 70
     1
102
RTVSPropertyOp11
 70
     1
102
RTVSPropertyOp12
 70
     1
102
RTVSPropertyOp13
 70
     1
102
RTVSPropertyOp14
 70
     1
102
RTVSPropertyOp15
 70
     1
102
RTVSPropertyOp16
 70
     1
102
RTVSPropertyOp17
 70
     1
102
RTVSPropertyOp18
 70
     1
102
RTVSPropertyOp19
 70
     1
102
RTVSPropertyOp20
 70
     1
102
RTVSPropertyOp21
 70
     1
102
RTVSPropertyOp22
 70
     1
102
RTVSPropertyOp23
 70
     1
102
RTVSPropertyOp24
 70
     1
102
RTVSPropertyOp25
 70
     1
102
RTVSPropertyOp26
 70
     1
102
RTVSPropertyOp27
 70
     1
102
RTVSPropertyOp28
 70
     1
102
RTVSPropertyOp29
 70
     1
102
RTVSPropertyOp30
 70
     1
102
RTVSPropertyOp31
 70
     1
102
RTVSPropertyOp32
 70
     1
  0
XRECORD
  5
C7
102
{ACAD_REACTORS
330
C6
102
}
330
C6
100
AcDbXrecord
280
     1
102
RTVSPropertyOp0
 70
     1
102
RTVSPropertyOp1
 70
     1
102
RTVSPropertyOp2
 70
     1
102
RTVSPropertyOp3
 70
     1
102
RTVSPropertyOp4
 70
     1
102
RTVSPropertyOp5
 70
     1
102
RTVSPropertyOp6
 70
     1
102
RTVSPropertyOp7
 70
     1
102
RTVSPropertyOp8
 70
     1
102
RTVSPropertyOp9
 70
     1
102
RTVSPropertyOp10
 70
     1
102
RTVSPropertyOp11
 70
     1
102
RTVSPropertyOp12
 70
     1
102
RTVSPropertyOp13
 70
     1
102
RTVSPropertyOp14
 70
     1
102
RTVSPropertyOp15
 70
     1
102
RTVSPropertyOp16
 70
     1
102
RTVSPropertyOp17
 70
     1
102
RTVSPropertyOp18
 70
     1
102
RTVSPropertyOp19
 70
     1
102
RTVSPropertyOp20
 70
     1
102
RTVSPropertyOp21
 70
     1
102
RTVSPropertyOp22
 70
     1
102
RTVSPropertyOp23
 70
     1
102
RTVSPropertyOp24
 70
     1
102
RTVSPropertyOp25
 70
     1
102
RTVSPropertyOp26
 70
     1
102
RTVSPropertyOp27
 70
     1
102
RTVSPropertyOp28
 70
     1
102
RTVSPropertyOp29
 70
     1
102
RTVSPropertyOp30
 70
     1
102
RTVSPropertyOp31
 70
     1
102
RTVSPropertyOp32
 70
     1
  0
XRECORD
  5
C9
102
{ACAD_REACTORS
330
C8
102
}
330
C8
100
AcDbXrecord
280
     1
102
RTVSPropertyOp0
 70
     1
102
RTVSPropertyOp1
 70
     1
102
RTVSPropertyOp2
 70
     1
102
RTVSPropertyOp3
 70
     1
102
RTVSPropertyOp4
 70
     1
102
RTVSPropertyOp5
 70
     1
102
RTVSPropertyOp6
 70
     1
102
RTVSPropertyOp7
 70
     1
102
RTVSPropertyOp8
 70
     1
102
RTVSPropertyOp9
 70
     1
102
RTVSPropertyOp10
 70
     1
102
RTVSPropertyOp11
 70
     1
102
RTVSPropertyOp12
 70
     1
102
RTVSPropertyOp13
 70
     1
102
RTVSPropertyOp14
 70
     1
102
RTVSPropertyOp15
 70
     1
102
RTVSPropertyOp16
 70
     1
102
RTVSPropertyOp17
 70
     1
102
RTVSPropertyOp18
 70
     1
102
RTVSPropertyOp19
 70
     1
102
RTVSPropertyOp20
 70
     1
102
RTVSPropertyOp21
 70
     1
102
RTVSPropertyOp22
 70
     1
102
RTVSPropertyOp23
 70
     1
102
RTVSPropertyOp24
 70
     1
102
RTVSPropertyOp25
 70
     1
102
RTVSPropertyOp26
 70
     1
102
RTVSPropertyOp27
 70
     1
102
RTVSPropertyOp28
 70
     1
102
RTVSPropertyOp29
 70
     1
102
RTVSPropertyOp30
 70
     1
102
RTVSPropertyOp31
 70
     1
102
RTVSPropertyOp32
 70
     1
  0
XRECORD
  5
D1
102
{ACAD_REACTORS
330
D0
102
}
330
D0
100
AcDbXrecord
280
     1
102
RTVSPropertyOp0
 70
     1
102
RTVSPropertyOp1
 70
     1
102
RTVSPropertyOp2
 70
     1
102
RTVSPropertyOp3
 70
     1
102
RTVSPropertyOp4
 70
     1
102
RTVSPropertyOp5
 70
     1
102
RTVSPropertyOp6
 70
     1
102
RTVSPropertyOp7
 70
     1
102
RTVSPropertyOp8
 70
     1
102
RTVSPropertyOp9
 70
     1
102
RTVSPropertyOp10
 70
     1
102
RTVSPropertyOp11
 70
     1
102
RTVSPropertyOp12
 70
     1
102
RTVSPropertyOp13
 70
     1
102
RTVSPropertyOp14
 70
     1
102
RTVSPropertyOp15
 70
     1
102
RTVSPropertyOp16
 70
     1
102
RTVSPropertyOp17
 70
     1
102
RTVSPropertyOp18
 70
     1
102
RTVSPropertyOp19
 70
     1
102
RTVSPropertyOp20
 70
     1
102
RTVSPropertyOp21
 70
     1
102
RTVSPropertyOp22
 70
     1
102
RTVSPropertyOp23
 70
     1
102
RTVSPropertyOp24
 70
     1
102
RTVSPropertyOp25
 70
     1
102
RTVSPropertyOp26
 70
     1
102
RTVSPropertyOp27
 70
     1
102
RTVSPropertyOp28
 70
     1
102
RTVSPropertyOp29
 70
     1
102
RTVSPropertyOp30
 70
     1
102
RTVSPropertyOp31
 70
     1
102
RTVSPropertyOp32
 70
     1
  0
XRECORD
  5
B5
102
{ACAD_REACTORS
330
B4
102
}
330
B4
100
AcDbXrecord
280
     1
102
RTVSPropertyOp0
 70
     1
102
RTVSPropertyOp1
 70
     1
102
RTVSPropertyOp2
 70
     1
102
RTVSPropertyOp3
 70
     1
102
RTVSPropertyOp4
 70
     1
102
RTVSPropertyOp5
 70
     1
102
RTVSPropertyOp6
 70
     1
102
RTVSPropertyOp7
 70
     1
102
RTVSPropertyOp8
 70
     1
102
RTVSPropertyOp9
 70
     1
102
RTVSPropertyOp10
 70
     1
102
RTVSPropertyOp11
 70
     1
102
RTVSPropertyOp12
 70
     1
102
RTVSPropertyOp13
 70
     1
102
RTVSPropertyOp14
 70
     1
102
RTVSPropertyOp15
 70
     1
102
RTVSPropertyOp16
 70
     1
102
RTVSPropertyOp17
 70
     1
102
RTVSPropertyOp18
 70
     1
102
RTVSPropertyOp19
 70
     1
102
RTVSPropertyOp20
 70
     1
102
RTVSPropertyOp21
 70
     1
102
RTVSPropertyOp22
 70
     1
102
RTVSPropertyOp23
 70
     1
102
RTVSPropertyOp24
 70
     1
102
RTVSPropertyOp25
 70
     1
102
RTVSPropertyOp26
 70
     1
102
RTVSPropertyOp27
 70
     1
102
RTVSPropertyOp28
 70
     1
102
RTVSPropertyOp29
 70
     1
102
RTVSPropertyOp30
 70
     1
102
RTVSPropertyOp31
 70
     1
102
RTVSPropertyOp32
 70
     1
  0
XRECORD
  5
B7
102
{ACAD_REACTORS
330
B6
102
}
330
B6
100
AcDbXrecord
280
     1
102
RTVSPropertyOp0
 70
     1
102
RTVSPropertyOp1
 70
     1
102
RTVSPropertyOp2
 70
     1
102
RTVSPropertyOp3
 70
     1
102
RTVSPropertyOp4
 70
     1
102
RTVSPropertyOp5
 70
     1
102
RTVSPropertyOp6
 70
     1
102
RTVSPropertyOp7
 70
     1
102
RTVSPropertyOp8
 70
     1
102
RTVSPropertyOp9
 70
     1
102
RTVSPropertyOp10
 70
     1
102
RTVSPropertyOp11
 70
     1
102
RTVSPropertyOp12
 70
     1
102
RTVSPropertyOp13
 70
     1
102
RTVSPropertyOp14
 70
     1
102
RTVSPropertyOp15
 70
     1
102
RTVSPropertyOp16
 70
     1
102
RTVSPropertyOp17
 70
     1
102
RTVSPropertyOp18
 70
     1
102
RTVSPropertyOp19
 70
     1
102
RTVSPropertyOp20
 70
     1
102
RTVSPropertyOp21
 70
     1
102
RTVSPropertyOp22
 70
     1
102
RTVSPropertyOp23
 70
     1
102
RTVSPropertyOp24
 70
     1
102
RTVSPropertyOp25
 70
     1
102
RTVSPropertyOp26
 70
     1
102
RTVSPropertyOp27
 70
     1
102
RTVSPropertyOp28
 70
     1
102
RTVSPropertyOp29
 70
     1
102
RTVSPropertyOp30
 70
     1
102
RTVSPropertyOp31
 70
     1
102
RTVSPropertyOp32
 70
     1
  0
XRECORD
  5
B9
102
{ACAD_REACTORS
330
B8
102
}
330
B8
100
AcDbXrecord
280
     1
102
RTVSPropertyOp0
 70
     1
102
RTVSPropertyOp1
 70
     1
102
RTVSPropertyOp2
 70
     1
102
RTVSPropertyOp3
 70
     1
102
RTVSPropertyOp4
 70
     1
102
RTVSPropertyOp5
 70
     1
102
RTVSPropertyOp6
 70
     1
102
RTVSPropertyOp7
 70
     1
102
RTVSPropertyOp8
 70
     1
102
RTVSPropertyOp9
 70
     1
102
RTVSPropertyOp10
 70
     1
102
RTVSPropertyOp11
 70
     1
102
RTVSPropertyOp12
 70
     1
102
RTVSPropertyOp13
 70
     1
102
RTVSPropertyOp14
 70
     1
102
RTVSPropertyOp15
 70
     1
102
RTVSPropertyOp16
 70
     1
102
RTVSPropertyOp17
 70
     1
102
RTVSPropertyOp18
 70
     1
102
RTVSPropertyOp19
 70
     1
102
RTVSPropertyOp20
 70
     1
102
RTVSPropertyOp21
 70
     1
102
RTVSPropertyOp22
 70
     1
102
RTVSPropertyOp23
 70
     1
102
RTVSPropertyOp24
 70
     1
102
RTVSPropertyOp25
 70
     1
102
RTVSPropertyOp26
 70
     1
102
RTVSPropertyOp27
 70
     1
102
RTVSPropertyOp28
 70
     1
102
RTVSPropertyOp29
 70
     1
102
RTVSPropertyOp30
 70
     1
102
RTVSPropertyOp31
 70
     1
102
RTVSPropertyOp32
 70
     1
  0
XRECORD
  5
BB
102
{ACAD_REACTORS
330
BA
102
}
330
BA
100
AcDbXrecord
280
     1
102
RTVSPropertyOp0
 70
     1
102
RTVSPropertyOp1
 70
     1
102
RTVSPropertyOp2
 70
     1
102
RTVSPropertyOp3
 70
     1
102
RTVSPropertyOp4
 70
     1
102
RTVSPropertyOp5
 70
     1
102
RTVSPropertyOp6
 70
     1
102
RTVSPropertyOp7
 70
     1
102
RTVSPropertyOp8
 70
     1
102
RTVSPropertyOp9
 70
     1
102
RTVSPropertyOp10
 70
     1
102
RTVSPropertyOp11
 70
     1
102
RTVSPropertyOp12
 70
     1
102
RTVSPropertyOp13
 70
     1
102
RTVSPropertyOp14
 70
     1
102
RTVSPropertyOp15
 70
     1
102
RTVSPropertyOp16
 70
     1
102
RTVSPropertyOp17
 70
     1
102
RTVSPropertyOp18
 70
     1
102
RTVSPropertyOp19
 70
     1
102
RTVSPropertyOp20
 70
     1
102
RTVSPropertyOp21
 70
     1
102
RTVSPropertyOp22
 70
     1
102
RTVSPropertyOp23
 70
     1
102
RTVSPropertyOp24
 70
     1
102
RTVSPropertyOp25
 70
     1
102
RTVSPropertyOp26
 70
     1
102
RTVSPropertyOp27
 70
     1
102
RTVSPropertyOp28
 70
     1
102
RTVSPropertyOp29
 70
     1
102
RTVSPropertyOp30
 70
     1
102
RTVSPropertyOp31
 70
     1
102
RTVSPropertyOp32
 70
     1
  0
XRECORD
  5
CF
102
{ACAD_REACTORS
330
CE
102
}
330
CE
100
AcDbXrecord
280
     1
102
RTVSPropertyOp0
 70
     1
102
RTVSPropertyOp1
 70
     1
102
RTVSPropertyOp2
 70
     1
102
RTVSPropertyOp3
 70
     1
102
RTVSPropertyOp4
 70
     1
102
RTVSPropertyOp5
 70
     1
102
RTVSPropertyOp6
 70
     1
102
RTVSPropertyOp7
 70
     1
102
RTVSPropertyOp8
 70
     1
102
RTVSPropertyOp9
 70
     1
102
RTVSPropertyOp10
 70
     1
102
RTVSPropertyOp11
 70
     1
102
RTVSPropertyOp12
 70
     1
102
RTVSPropertyOp13
 70
     1
102
RTVSPropertyOp14
 70
     1
102
RTVSPropertyOp15
 70
     1
102
RTVSPropertyOp16
 70
     1
102
RTVSPropertyOp17
 70
     1
102
RTVSPropertyOp18
 70
     1
102
RTVSPropertyOp19
 70
     1
102
RTVSPropertyOp20
 70
     1
102
RTVSPropertyOp21
 70
     1
102
RTVSPropertyOp22
 70
     1
102
RTVSPropertyOp23
 70
     1
102
RTVSPropertyOp24
 70
     1
102
RTVSPropertyOp25
 70
     1
102
RTVSPropertyOp26
 70
     1
102
RTVSPropertyOp27
 70
     1
102
RTVSPropertyOp28
 70
     1
102
RTVSPropertyOp29
 70
     1
102
RTVSPropertyOp30
 70
     1
102
RTVSPropertyOp31
 70
     1
102
RTVSPropertyOp32
 70
     1
  0
XRECORD
  5
C5
102
{ACAD_REACTORS
330
C4
102
}
330
C4
100
AcDbXrecord
280
     1
102
RTVSPropertyOp0
 70
     1
102
RTVSPropertyOp1
 70
     1
102
RTVSPropertyOp2
 70
     1
102
RTVSPropertyOp3
 70
     1
102
RTVSPropertyOp4
 70
     1
102
RTVSPropertyOp5
 70
     1
102
RTVSPropertyOp6
 70
     1
102
RTVSPropertyOp7
 70
     1
102
RTVSPropertyOp8
 70
     1
102
RTVSPropertyOp9
 70
     1
102
RTVSPropertyOp10
 70
     1
102
RTVSPropertyOp11
 70
     1
102
RTVSPropertyOp12
 70
     1
102
RTVSPropertyOp13
 70
     1
102
RTVSPropertyOp14
 70
     1
102
RTVSPropertyOp15
 70
     1
102
RTVSPropertyOp16
 70
     1
102
RTVSPropertyOp17
 70
     1
102
RTVSPropertyOp18
 70
     1
102
RTVSPropertyOp19
 70
     1
102
RTVSPropertyOp20
 70
     1
102
RTVSPropertyOp21
 70
     1
102
RTVSPropertyOp22
 70
     1
102
RTVSPropertyOp23
 70
     1
102
RTVSPropertyOp24
 70
     1
102
RTVSPropertyOp25
 70
     1
102
RTVSPropertyOp26
 70
     1
102
RTVSPropertyOp27
 70
     1
102
RTVSPropertyOp28
 70
     1
102
RTVSPropertyOp29
 70
     1
102
RTVSPropertyOp30
 70
     1
102
RTVSPropertyOp31
 70
     1
102
RTVSPropertyOp32
 70
     1
  0
XRECORD
  5
CD
102
{ACAD_REACTORS
330
CC
102
}
330
CC
100
AcDbXrecord
280
     1
102
RTVSPropertyOp0
 70
     1
102
RTVSPropertyOp1
 70
     1
102
RTVSPropertyOp2
 70
     1
102
RTVSPropertyOp3
 70
     1
102
RTVSPropertyOp4
 70
     1
102
RTVSPropertyOp5
 70
     1
102
RTVSPropertyOp6
 70
     1
102
RTVSPropertyOp7
 70
     1
102
RTVSPropertyOp8
 70
     1
102
RTVSPropertyOp9
 70
     1
102
RTVSPropertyOp10
 70
     1
102
RTVSPropertyOp11
 70
     1
102
RTVSPropertyOp12
 70
     1
102
RTVSPropertyOp13
 70
     1
102
RTVSPropertyOp14
 70
     1
102
RTVSPropertyOp15
 70
     1
102
RTVSPropertyOp16
 70
     1
102
RTVSPropertyOp17
 70
     1
102
RTVSPropertyOp18
 70
     1
102
RTVSPropertyOp19
 70
     1
102
RTVSPropertyOp20
 70
     1
102
RTVSPropertyOp21
 70
     1
102
RTVSPropertyOp22
 70
     1
102
RTVSPropertyOp23
 70
     1
102
RTVSPropertyOp24
 70
     1
102
RTVSPropertyOp25
 70
     1
102
RTVSPropertyOp26
 70
     1
102
RTVSPropertyOp27
 70
     1
102
RTVSPropertyOp28
 70
     1
102
RTVSPropertyOp29
 70
     1
102
RTVSPropertyOp30
 70
     1
102
RTVSPropertyOp31
 70
     1
102
RTVSPropertyOp32
 70
     1
  0
ENDSEC
  0
EOF
