  0
SECTION
  2
HEADER
  9
$ACADVER
  1
AC1015
  9
$ACADMAINTVER
 70
     6
  9
$DWGCODEPAGE
  3
DOS850
  9
$INSBASE
 10
0.0
 20
0.0
 30
0.0
  9
$EXTMIN
 10
-5.57328
 20
0.59072
 30
1.000000E+20
  9
$EXTMAX
 10
8.84366
 20
9.7012
 30
-1.000000E+20
  9
$LIMMIN
 10
0.0
 20
0.0
  9
$LIMMAX
 10
0.0
 20
0.0
  9
$ORTHOMODE
 70
     0
  9
$REGENMODE
 70
     1
  9
$FILLMODE
 70
     1
  9
$QTEXTMODE
 70
     0
  9
$MIRRTEXT
 70
     1
  9
$LTSCALE
 40
1.0
  9
$ATTMODE
 70
     1
  9
$TEXTSIZE
 40
0.2
  9
$TRACEWID
 40
0.05
  9
$TEXTSTYLE
  7
Standard
  9
$CLAYER
  8
0
  9
$CELTYPE
  6
Continuous
  9
$CECOLOR
 62
   256
  9
$CELTSCALE
 40
1.0
  9
$DISPSILH
 70
     0
  9
$DIMSCALE
 40
1.0
  9
$DIMASZ
 40
0.18
  9
$DIMEXO
 40
0.0625
  9
$DIMDLI
 40
0.38
  9
$DIMRND
 40
0.0
  9
$DIMDLE
 40
0.0
  9
$DIMEXE
 40
0.18
  9
$DIMTP
 40
0.0
  9
$DIMTM
 40
0.0
  9
$DIMTXT
 40
0.18
  9
$DIMCEN
 40
0.09
  9
$DIMTSZ
 40
0.0
  9
$DIMTOL
 70
     0
  9
$DIMLIM
 70
     0
  9
$DIMTIH
 70
     1
  9
$DIMTOH
 70
     1
  9
$DIMSE1
 70
     0
  9
$DIMSE2
 70
     0
  9
$DIMTAD
 70
     0
  9
$DIMZIN
 70
     0
  9
$DIMBLK
  1

  9
$DIMASO
 70
     1
  9
$DIMSHO
 70
     1
  9
$DIMPOST
  1

  9
$DIMAPOST
  1

  9
$DIMALT
 70
     0
  9
$DIMALTD
 70
     2
  9
$DIMALTF
 40
25.4
  9
$DIMLFAC
 40
1.0
  9
$DIMTOFL
 70
     0
  9
$DIMTVP
 40
0.0
  9
$DIMTIX
 70
     0
  9
$DIMSOXD
 70
     0
  9
$DIMSAH
 70
     0
  9
$DIMBLK1
  1

  9
$DIMBLK2
  1

  9
$DIMSTYLE
  2
Standard
  9
$DIMCLRD
 70
     0
  9
$DIMCLRE
 70
     0
  9
$DIMCLRT
 70
     0
  9
$DIMTFAC
 40
1.0
  9
$DIMGAP
 40
0.09
  9
$DIMJUST
 70
     0
  9
$DIMSD1
 70
     0
  9
$DIMSD2
 70
     0
  9
$DIMTOLJ
 70
     1
  9
$DIMTZIN
 70
     0
  9
$DIMALTZ
 70
     0
  9
$DIMALTTZ
 70
     0
  9
$DIMUPT
 70
     0
  9
$DIMDEC
 70
     4
  9
$DIMTDEC
 70
     4
  9
$DIMALTU
 70
     2
  9
$DIMALTTD
 70
     2
  9
$DIMTXSTY
  7
Standard
  9
$DIMAUNIT
 70
     0
  9
$DIMADEC
 70
     0
  9
$DIMALTRND
 40
0.0
  9
$DIMAZIN
 70
     0
  9
$DIMDSEP
 70
     0
  9
$DIMATFIT
 70
     3
  9
$DIMFRAC
 70
     0
  9
$DIMLDRBLK
  1

  9
$DIMLUNIT
 70
     2
  9
$DIMLWD
 70
     0
  9
$DIMLWE
 70
     0
  9
$DIMTMOVE
 70
     0
  9
$LUNITS
 70
     2
  9
$LUPREC
 70
     4
  9
$SKETCHINC
 40
0.1
  9
$FILLETRAD
 40
0.0
  9
$AUNITS
 70
     0
  9
$AUPREC
 70
     0
  9
$MENU
  1
acad
  9
$ELEVATION
 40
0.0
  9
$PELEVATION
 40
0.0
  9
$THICKNESS
 40
0.0
  9
$LIMCHECK
 70
     0
  9
$CHAMFERA
 40
0.0
  9
$CHAMFERB
 40
0.0
  9
$CHAMFERC
 40
0.0
  9
$CHAMFERD
 40
0.0
  9
$SKPOLY
 70
     0
  9
$TDCREATE
 40
0.000000000
  9
$TDUCREATE
 40
0.000000000
  9
$TDUPDATE
 40
0.000000000
  9
$TDUUPDATE
 40
0.000000000
  9
$TDINDWG
 40
0.0000000000
  9
$TDUSRTIMER
 40
0.0000000000
  9
$USRTIMER
 70
     1
  9
$ANGBASE
 50
0.0
  9
$ANGDIR
 70
     0
  9
$PDMODE
 70
     0
  9
$PDSIZE
 40
0.0
  9
$PLINEWID
 40
0.0
  9
$SPLFRAME
 70
     0
  9
$SPLINETYPE
 70
     6
  9
$SPLINESEGS
 70
     8
  9
$HANDSEED
  5
43
  9
$SURFTAB1
 70
     6
  9
$SURFTAB2
 70
     6
  9
$SURFTYPE
 70
     6
  9
$SURFU
 70
     6
  9
$SURFV
 70
     6
  9
$UCSBASE
  2

  9
$UCSNAME
  2

  9
$UCSORG
 10
0.0
 20
0.0
 30
0.0
  9
$UCSXDIR
 10
1.0
 20
0.0
 30
0.0
  9
$UCSYDIR
 10
0.0
 20
1.0
 30
0.0
  9
$UCSORTHOREF
  2

  9
$UCSORTHOVIEW
 70
     0
  9
$UCSORGTOP
 10
0.0
 20
0.0
 30
0.0
  9
$UCSORGBOTTOM
 10
0.0
 20
0.0
 30
0.0
  9
$UCSORGLEFT
 10
0.0
 20
0.0
 30
0.0
  9
$UCSORGRIGHT
 10
0.0
 20
0.0
 30
0.0
  9
$UCSORGFRONT
 10
0.0
 20
0.0
 30
0.0
  9
$UCSORGBACK
 10
0.0
 20
0.0
 30
0.0
  9
$PUCSBASE
  2

  9
$PUCSNAME
  2

  9
$PUCSORG
 10
0.0
 20
0.0
 30
0.0
  9
$PUCSXDIR
 10
1.0
 20
0.0
 30
0.0
  9
$PUCSYDIR
 10
0.0
 20
1.0
 30
0.0
  9
$PUCSORTHOREF
  2

  9
$PUCSORTHOVIEW
 70
     0
  9
$PUCSORGTOP
 10
0.0
 20
0.0
 30
0.0
  9
$PUCSORGBOTTOM
 10
0.0
 20
0.0
 30
0.0
  9
$PUCSORGLEFT
 10
0.0
 20
0.0
 30
0.0
  9
$PUCSORGRIGHT
 10
0.0
 20
0.0
 30
0.0
  9
$PUCSORGFRONT
 10
0.0
 20
0.0
 30
0.0
  9
$PUCSORGBACK
 10
0.0
 20
0.0
 30
0.0
  9
$USERI1
 70
     0
  9
$USERI2
 70
     0
  9
$USERI3
 70
     0
  9
$USERI4
 70
     0
  9
$USERI5
 70
     0
  9
$USERR1
 40
0.0
  9
$USERR2
 40
0.0
  9
$USERR3
 40
0.0
  9
$USERR4
 40
0.0
  9
$USERR5
 40
0.0
  9
$WORLDVIEW
 70
     1
  9
$SHADEDGE
 70
     3
  9
$SHADEDIF
 70
    70
  9
$TILEMODE
 70
     1
  9
$MAXACTVP
 70
    16
  9
$PINSBASE
 10
0.0
 20
0.0
 30
0.0
  9
$PLIMCHECK
 70
     0
  9
$PEXTMIN
 10
1.000000E+20
 20
1.000000E+20
 30
1.000000E+20
  9
$PEXTMAX
 10
-1.000000E+20
 20
-1.000000E+20
 30
-1.000000E+20
  9
$PLIMMIN
 10
0.0
 20
0.0
  9
$PLIMMAX
 10
12.0
 20
9.0
  9
$UNITMODE
 70
     0
  9
$VISRETAIN
 70
     0
  9
$PLINEGEN
 70
     1
  9
$PSLTSCALE
 70
     0
  9
$TREEDEPTH
 70
  3020
  9
$CMLSTYLE
  2
Standard
  9
$CMLJUST
 70
     0
  9
$CMLSCALE
 40
1.0
  9
$PROXYGRAPHICS
 70
     0
  9
$MEASUREMENT
 70
     0
  9
$CELWEIGHT
370
     0
  9
$ENDCAPS
280
     0
  9
$JOINSTYLE
280
     0
  9
$LWDISPLAY
290
     0
  9
$INSUNITS
 70
     5
  9
$HYPERLINKBASE
  1

  9
$XEDIT
290
     1
  9
$CEPSNTYPE
380
     0
  9
$PSTYLEMODE
290
     1
  9
$FINGERPRINTGUID
  2

  9
$VERSIONGUID
  2

  9
$EXTNAMES
290
     1
  9
$PSVPSCALE
 40
0.0
  0
ENDSEC
  0
SECTION
  2
CLASSES
  0
CLASS
  1
LWPOLYLINE
  2
AcDbPolyline
  3
AutoCAD 2000
 90
    32768
280
     0
281
     1
  0
CLASS
  1
IMAGE
  2
AcDbRasterImage
  3
ISM
 90
    32895
280
     0
281
     1
  0
CLASS
  1
OLE2FRAME
  2
AcDbOle2Frame
  3
AutoCAD 2000
 90
    32768
280
     0
281
     1
  0
CLASS
  1
HATCH
  2
AcDbHatch
  3
AutoCAD 2000
 90
    32768
280
     0
281
     1
  0
CLASS
  1
DICTIONARYVAR
  2
AcDbDictionaryVar
  3
AutoCAD 2000
 90
    32768
280
     0
281
     0
  0
CLASS
  1
RASTERVARIABLES
  2
AcDbRasterVariables
  3
ISM
 90
    32768
280
     0
281
     0
  0
CLASS
  1
IMAGEDEF
  2
AcDbRasterImageDef
  3
ISM
 90
    32768
280
     0
281
     0
  0
CLASS
  1
IMAGEDEF_REACTOR
  2
AcDbRasterImageDefReactor
  3
ISM
 90
    32769
280
     0
281
     0
  0
CLASS
  1
IDBUFFER
  2
AcDbIdBuffer
  3
AutoCAD 2000
 90
    32768
280
     0
281
     0
  0
CLASS
  1
SPATIAL_FILTER
  2
AcDbSpatialFilter
  3
AutoCAD 2000
 90
    32768
280
     0
281
     0
  0
CLASS
  1
XRECORD
  2
AcDbXrecord
  3
AutoCAD 2000
 90
    32768
280
     0
281
     0
  0
CLASS
  1
SORTENTSTABLE
  2
AcDbSortentsTable
  3
AutoCAD 2000
 90
    32768
280
     0
281
     0
  0
CLASS
  1
LAYER_INDEX
  2
AcDbLayerIndex
  3
AutoCAD 2000
 90
    32768
280
     0
281
     0
  0
CLASS
  1
SPATIAL_INDEX
  2
AcDbSpatialIndex
  3
AutoCAD 2000
 90
    32768
280
     0
281
     0
  0
CLASS
  1
OBJECT_PTR
  2
CAseDLPNTableRecord
  3
"ASE-LPNTableRecord"
 90
    32769
280
     0
281
     0
  0
CLASS
  1
LAYOUT
  2
AcDbLayout
  3
AutoCAD 2000
 90
        0
280
     0
281
     0
  0
CLASS
  1
PLOTSETTINGS
  2
AcDbPlotSettings
  3
AutoCAD 2000
 90
    32768
280
     0
281
     0
  0
CLASS
  1
ACDBDICTIONARYWDFLT
  2
AcDbDictionaryWithDefault
  3
AutoCAD 2000
 90
        0
280
     0
281
     0
  0
CLASS
  1
ACDBPLACEHOLDER
  2
AcDbPlaceHolder
  3
AutoCAD 2000
 90
        0
280
     0
281
     0
  0
CLASS
  1
VBA_PROJECT
  2
AcDbVbaProject
  3
acadvba
 90
    32768
280
     0
281
     0
  0
CLASS
  1
WIPEOUT
  2
AcDbWipeout
  3
WipeOut|AutoCAD Express Tool|expresstools@autodesk.com
 90
    32895
280
     0
281
     1
  0
CLASS
  1
WIPEOUTVARIABLES
  2
AcDbWipeoutVariables
  3
WipeOut|AutoCAD Express Tool|expresstools@autodesk.com
 90
        0
280
     0
281
     0
  0
CLASS
  1
RTEXT
  2
RText
  3
RText|AutoCAD Express Tool|expresstools@autodesk.com
 90
    32768
280
     0
281
     1
  0
CLASS
  1
ARCALIGNEDTEXT
  2
AcDbArcAlignedText
  3
ATEXT|AutoCAD Express Tool|expresstools@autodesk.com
 90
    32768
280
     0
281
     1
  0
ENDSEC
  0
SECTION
  2
TABLES
  0
TABLE
  2
VPORT
  5
7
100
AcDbSymbolTable
 70
     1
  0
VPORT
  5
15
100
AcDbSymbolTableRecord
100
AcDbViewportTableRecord
  2
*ACTIVE
 70
     0
 10
0.0
 20
0.0
 11
1.0
 21
1.0
 12
6.591288
 22
4.579184
 13
0.0
 23
0.0
 14
1.0
 24
1.0
 15
0.0
 25
0.0
 16
0.0
 26
0.0
 36
1.0
 17
0.0
 27
0.0
 37
0.0
 40
9.158369
 41
0.688564
 42
50.0
 43
0.0
 44
0.0
 50
0.0
 51
0.0
 71
     0
 72
   100
 73
     1
 74
     1
 75
     0
 76
     0
 77
     0
 78
     0
281
     0
 65
     0
110
0.0
120
0.0
130
0.0
111
1.0
121
0.0
131
0.0
112
0.0
122
1.0
132
0.0
345
0
346
0
 79
     0
146
0.0
  0
ENDTAB
  0
TABLE
  2
LTYPE
  5
4
100
AcDbSymbolTable
 70
     3
  0
LTYPE
  5
11
100
AcDbSymbolTableRecord
100
AcDbLinetypeTableRecord
  2
ByBlock
 70
    64
  3

 72
    65
 73
     0
 40
0.0
  0
LTYPE
  5
12
100
AcDbSymbolTableRecord
100
AcDbLinetypeTableRecord
  2
ByLayer
 70
    64
  3

 72
    65
 73
     0
 40
0.0
  0
LTYPE
  5
13
100
AcDbSymbolTableRecord
100
AcDbLinetypeTableRecord
  2
Continuous
 70
    64
  3
Solid line
 72
    65
 73
     0
 40
0.0
  0
ENDTAB
  0
TABLE
  2
LAYER
  5
2
100
AcDbSymbolTable
 70
     2
  0
LAYER
  5
14
100
AcDbSymbolTableRecord
100
AcDbLayerTableRecord
  2
0
 70
     0
 62
     7
  6
Continuous
290
     1
370
    -3
390
1D
  0
LAYER
  5
24
100
AcDbSymbolTableRecord
100
AcDbLayerTableRecord
  2
Ebene 1
 70
     0
 62
     7
  6
Continuous
290
     1
370
    -3
390
1F
  0
ENDTAB
  0
TABLE
  2
STYLE
  5
3
100
AcDbSymbolTable
 70
     1
  0
STYLE
  5
17
100
AcDbSymbolTableRecord
100
AcDbTextStyleTableRecord
  2
Standard
 70
     0
 40
0.0
 41
1.0
 50
0.0
 71
     0
 42
0.0
  3
txt
  4

  0
ENDTAB
  0
TABLE
  2
VIEW
  5
5
100
AcDbSymbolTable
 70
     0
  0
ENDTAB
  0
TABLE
  2
UCS
  5
6
100
AcDbSymbolTable
 70
     0
  0
ENDTAB
  0
TABLE
  2
APPID
  5
8
100
AcDbSymbolTable
 70
     1
  0
APPID
  5
16
100
AcDbSymbolTableRecord
100
AcDbRegAppTableRecord
  2
ACAD
 70
     0
  0
ENDTAB
  0
TABLE
  2
DIMSTYLE
  5
9
100
AcDbSymbolTable
 70
     1
100
AcDbDimStyleTable
 71
     0
  0
DIMSTYLE
105
18
100
AcDbSymbolTableRecord
100
AcDbDimStyleTableRecord
  2
Standard
 70
     0
  3

  4

 40
1.0
 41
0.18
 42
0.0625
 43
0.38
 44
0.18
 45
0.0
 46
0.0
 47
0.0
 48
0.0
 71
     0
 72
     0
 73
     1
 74
     1
 75
     0
 76
     0
 77
     0
 78
     0
 79
     0
140
0.18
141
0.09
142
0.0
143
25.4
144
1.0
145
0.0
146
1.0
147
0.09
148
0.0
170
     0
171
     2
172
     0
173
     0
174
     0
175
     0
176
     0
177
     0
178
     0
179
     0
271
     4
272
     4
273
     2
274
     2
275
     0
276
     0
277
     2
278
    46
279
     0
280
     0
281
     0
282
     0
283
     1
284
     0
285
     0
286
     0
288
     0
340
17
341
0
342
0
343
0
344
0
371
    -2
372
    -2
  0
ENDTAB
  0
TABLE
  2
BLOCK_RECORD
  5
1
100
AcDbSymbolTable
 70
     0
  0
BLOCK_RECORD
  5
A
100
AcDbSymbolTableRecord
100
AcDbBlockTableRecord
  2
*MODEL_SPACE
340
20
  0
BLOCK_RECORD
  5
B
100
AcDbSymbolTableRecord
100
AcDbBlockTableRecord
  2
*PAPER_SPACE
340
21
  0
ENDTAB
  0
ENDSEC
  0
SECTION
  2
BLOCKS
  0
BLOCK
  5
D
100
AcDbEntity
  8
0
100
AcDbBlockBegin
  2
*MODEL_SPACE
 70
     0
 10
0.0
 20
0.0
 30
0.0
  3
*MODEL_SPACE
  1

  0
ENDBLK
  5
E
100
AcDbEntity
  8
0
100
AcDbBlockEnd
  0
BLOCK
  5
F
100
AcDbEntity
 67
     1
  8
0
100
AcDbBlockBegin
  2
*PAPER_SPACE
 70
     0
 10
0.0
 20
0.0
 30
0.0
  3
*PAPER_SPACE
  1

  0
ENDBLK
  5
10
100
AcDbEntity
 67
     1
  8
0
100
AcDbBlockEnd
  0
ENDSEC
  0
SECTION
  2
ENTITIES
  0
SPLINE
  5
25
100
AcDbEntity
  8
Ebene 1
 62
     1
100
AcDbSpline
210
0.0
220
0.0
230
1.0
 70
     1
 71
     3
 72
    52
 73
    48
 74
     0
 42
0.0000000001
 43
0.0000000001
 40
0.0
 40
0.0
 40
0.0
 40
0.0
 40
0.0833333333333333
 40
0.0833333333333333
 40
0.0833333333333333
 40
0.0833333333333333
 40
0.1666666666666667
 40
0.1666666666666667
 40
0.1666666666666667
 40
0.1666666666666667
 40
0.25
 40
0.25
 40
0.25
 40
0.25
 40
0.3333333333333333
 40
0.3333333333333333
 40
0.3333333333333333
 40
0.3333333333333333
 40
0.4166666666666666
 40
0.4166666666666666
 40
0.4166666666666666
 40
0.4166666666666666
 40
0.4999999999999999
 40
0.4999999999999999
 40
0.4999999999999999
 40
0.4999999999999999
 40
0.5833333333333333
 40
0.5833333333333333
 40
0.5833333333333333
 40
0.5833333333333333
 40
0.6666666666666666
 40
0.6666666666666666
 40
0.6666666666666666
 40
0.6666666666666666
 40
0.75
 40
0.75
 40
0.75
 40
0.75
 40
0.8333333333333334
 40
0.8333333333333334
 40
0.8333333333333334
 40
0.8333333333333334
 40
0.9166666666666667
 40
0.9166666666666667
 40
0.9166666666666667
 40
0.9166666666666667
 40
1.0
 40
1.0
 40
1.0
 40
1.0
 10
0.6512500000000001
 20
7.5405700000000007
 30
0.0
 10
0.5637500000000001
 20
7.697680000000001
 30
0.0
 10
0.42955
 20
8.1827500000000004
 30
0.0
 10
-1.4491000000000001
 20
8.7972900000000003
 30
0.0
 10
-1.4491000000000001
 20
8.7972900000000003
 30
0.0
 10
-3.3277900000000002
 20
9.4118100000000009
 30
0.0
 10
-5.6164500000000004
 20
9.1233500000000003
 30
0.0
 10
-5.5732800000000005
 20
9.0712600000000005
 30
0.0
 10
-5.5732800000000005
 20
9.0712600000000005
 30
0.0
 10
-5.5301100000000005
 20
9.01919
 30
0.0
 10
-4.5578400000000006
 20
9.3572700000000015
 30
0.0
 10
-2.0691700000000002
 20
8.8405400000000007
 30
0.0
 10
-2.0691700000000002
 20
8.8405400000000007
 30
0.0
 10
0.41947
 20
8.3238099999999999
 30
0.0
 10
0.56413
 20
7.5820300000000005
 30
0.0
 10
0.56413
 20
7.5820300000000005
 30
0.0
 10
0.56413
 20
7.5820300000000005
 30
0.0
 10
0.56413
 20
7.5820300000000005
 30
0.0
 10
0.10826
 20
7.3841100000000006
 30
0.0
 10
0.00732
 20
6.8505700000000003
 30
0.0
 10
0.00732
 20
6.8505700000000003
 30
0.0
 10
-0.09362
 20
6.3170100000000007
 30
0.0
 10
0.16593
 20
5.8699900000000005
 30
0.0
 10
0.16593
 20
5.8699900000000005
 30
0.0
 10
0.16593
 20
5.8699900000000005
 30
0.0
 10
0.16593
 20
5.8699900000000005
 30
0.0
 10
0.02173
 20
6.4035300000000008
 30
0.0
 10
0.12267
 20
6.7207900000000009
 30
0.0
 10
0.12267
 20
6.7207900000000009
 30
0.0
 10
0.22362
 20
7.0380300000000009
 30
0.0
 10
0.25245
 20
6.8794000000000004
 30
0.0
 10
0.32456
 20
6.5765800000000008
 30
0.0
 10
0.32456
 20
6.5765800000000008
 30
0.0
 10
0.3966500000000001
 20
6.2737600000000002
 30
0.0
 10
0.52642
 20
6.0574500000000002
 30
0.0
 10
0.6418
 20
5.9565100000000006
 30
0.0
 10
0.6418
 20
5.9565100000000006
 30
0.0
 10
0.6978000000000001
 20
5.9075200000000008
 30
0.0
 10
0.79115
 20
5.8755200000000007
 30
0.0
 10
0.8724000000000001
 20
5.8555400000000004
 30
0.0
 10
0.8724000000000001
 20
5.8555400000000004
 30
0.0
 10
0.47254
 20
6.0816100000000004
 30
0.0
 10
0.3743900000000001
 20
6.5113400000000006
 30
0.0
 10
0.41106
 20
6.9515100000000007
 30
0.0
 10
0.41106
 20
6.9515100000000007
 30
0.0
 10
0.4421700000000001
 20
7.3246300000000009
 30
0.0
 10
0.57757
 20
7.4817300000000007
 30
0.0
 10
0.6512500000000001
 20
7.5405700000000007
 30
0.0
  0
SPLINE
  5
26
100
AcDbEntity
  8
Ebene 1
 62
     1
100
AcDbSpline
210
0.0
220
0.0
230
1.0
 70
     1
 71
     3
 72
    68
 73
    64
 74
     0
 42
0.0000000001
 43
0.0000000001
 40
0.0
 40
0.0
 40
0.0
 40
0.0
 40
0.0625
 40
0.0625
 40
0.0625
 40
0.0625
 40
0.125
 40
0.125
 40
0.125
 40
0.125
 40
0.1875
 40
0.1875
 40
0.1875
 40
0.1875
 40
0.25
 40
0.25
 40
0.25
 40
0.25
 40
0.3125
 40
0.3125
 40
0.3125
 40
0.3125
 40
0.375
 40
0.375
 40
0.375
 40
0.375
 40
0.4375
 40
0.4375
 40
0.4375
 40
0.4375
 40
0.5
 40
0.5
 40
0.5
 40
0.5
 40
0.5625
 40
0.5625
 40
0.5625
 40
0.5625
 40
0.625
 40
0.625
 40
0.625
 40
0.625
 40
0.6875
 40
0.6875
 40
0.6875
 40
0.6875
 40
0.75
 40
0.75
 40
0.75
 40
0.75
 40
0.8125
 40
0.8125
 40
0.8125
 40
0.8125
 40
0.875
 40
0.875
 40
0.875
 40
0.875
 40
0.9375
 40
0.9375
 40
0.9375
 40
0.9375
 40
1.0
 40
1.0
 40
1.0
 40
1.0
 10
1.6344700000000001
 20
5.4744300000000008
 30
0.0
 10
1.6836800000000001
 20
5.4744300000000008
 30
0.0
 10
1.7262300000000002
 20
5.4341300000000006
 30
0.0
 10
1.7511700000000001
 20
5.3722600000000007
 30
0.0
 10
1.7511700000000001
 20
5.3722600000000007
 30
0.0
 10
1.7745600000000001
 20
5.3143100000000008
 30
0.0
 10
1.7806600000000001
 20
5.2348700000000008
 30
0.0
 10
1.7683600000000002
 20
5.1439700000000004
 30
0.0
 10
1.7683600000000002
 20
5.1439700000000004
 30
0.0
 10
1.7560300000000002
 20
5.0529500000000001
 30
0.0
 10
1.72933
 20
4.9596600000000004
 30
0.0
 10
1.7054200000000002
 20
4.8808300000000004
 30
0.0
 10
1.7054200000000002
 20
4.8808300000000004
 30
0.0
 10
1.6939500000000001
 20
4.8429400000000005
 30
0.0
 10
1.6834800000000001
 20
4.8086200000000003
 30
0.0
 10
1.6736000000000002
 20
4.7803100000000001
 30
0.0
 10
1.6736000000000002
 20
4.7803100000000001
 30
0.0
 10
1.7071100000000001
 20
4.7395200000000006
 30
0.0
 10
1.7354300000000003
 20
4.6472600000000002
 30
0.0
 10
1.7540700000000002
 20
4.5236499999999999
 30
0.0
 10
1.7540700000000002
 20
4.5236499999999999
 30
0.0
 10
1.7780800000000001
 20
4.3648300000000004
 30
0.0
 10
1.7843500000000001
 20
4.14717
 30
0.0
 10
1.7717000000000001
 20
3.8980900000000003
 30
0.0
 10
1.7717000000000001
 20
3.8980900000000003
 30
0.0
 10
1.7590600000000001
 20
3.6488000000000005
 30
0.0
 10
1.7317100000000001
 20
3.3931700000000005
 30
0.0
 10
1.7071800000000001
 20
3.1771000000000003
 30
0.0
 10
1.7071800000000001
 20
3.1771000000000003
 30
0.0
 10
1.6819600000000001
 20
2.9546800000000002
 30
0.0
 10
1.6615500000000001
 20
2.7769800000000004
 30
0.0
 10
1.6415000000000002
 20
2.7102200000000001
 30
0.0
 10
1.6415000000000002
 20
2.7102200000000001
 30
0.0
 10
1.6210300000000002
 20
2.7721600000000004
 30
0.0
 10
1.5994200000000001
 20
2.9517900000000004
 30
0.0
 10
1.5726800000000001
 20
3.1753700000000005
 30
0.0
 10
1.5726800000000001
 20
3.1753700000000005
 30
0.0
 10
1.5466700000000002
 20
3.3929700000000005
 30
0.0
 10
1.5176100000000001
 20
3.6488000000000005
 30
0.0
 10
1.5033000000000001
 20
3.8980900000000003
 30
0.0
 10
1.5033000000000001
 20
3.8980900000000003
 30
0.0
 10
1.4889500000000002
 20
4.14717
 30
0.0
 10
1.4937
 20
4.3646900000000004
 30
0.0
 10
1.51658
 20
4.5233700000000008
 30
0.0
 10
1.51658
 20
4.5233700000000008
 30
0.0
 10
1.5359400000000001
 20
4.65787
 30
0.0
 10
1.5669500000000001
 20
4.7551600000000001
 30
0.0
 10
1.6041200000000002
 20
4.7897500000000006
 30
0.0
 10
1.6041200000000002
 20
4.7897500000000006
 30
0.0
 10
1.5948300000000002
 20
4.8159300000000007
 30
0.0
 10
1.5849600000000001
 20
4.84666
 30
0.0
 10
1.5742700000000001
 20
4.8801500000000004
 30
0.0
 10
1.5742700000000001
 20
4.8801500000000004
 30
0.0
 10
1.5488900000000001
 20
4.9595900000000004
 30
0.0
 10
1.5205600000000001
 20
5.0529500000000001
 30
0.0
 10
1.5066000000000002
 20
5.1439700000000004
 30
0.0
 10
1.5066000000000002
 20
5.1439700000000004
 30
0.0
 10
1.4926200000000001
 20
5.2348700000000008
 30
0.0
 10
1.4972500000000002
 20
5.3142400000000007
 30
0.0
 10
1.5195700000000001
 20
5.3721900000000007
 30
0.0
 10
1.5195700000000001
 20
5.3721900000000007
 30
0.0
 10
1.5433800000000002
 20
5.4341300000000006
 30
0.0
 10
1.58525
 20
5.4744300000000008
 30
0.0
 10
1.6344700000000001
 20
5.4744300000000008
 30
0.0
  0
SPLINE
  5
27
100
AcDbEntity
  8
Ebene 1
 62
     1
100
AcDbSpline
210
0.0
220
0.0
230
1.0
 70
     1
 71
     3
 72
    44
 73
    40
 74
     0
 42
0.0000000001
 43
0.0000000001
 40
0.0
 40
0.0
 40
0.0
 40
0.0
 40
0.1
 40
0.1
 40
0.1
 40
0.1
 40
0.2
 40
0.2
 40
0.2
 40
0.2
 40
0.3
 40
0.3
 40
0.3
 40
0.3
 40
0.4
 40
0.4
 40
0.4
 40
0.4
 40
0.5
 40
0.5
 40
0.5
 40
0.5
 40
0.6
 40
0.6
 40
0.6
 40
0.6
 40
0.7
 40
0.7
 40
0.7
 40
0.7
 40
0.7999999999999999
 40
0.7999999999999999
 40
0.7999999999999999
 40
0.7999999999999999
 40
0.8999999999999999
 40
0.8999999999999999
 40
0.8999999999999999
 40
0.8999999999999999
 40
1.0
 40
1.0
 40
1.0
 40
1.0
 10
1.53173
 20
5.7730300000000003
 30
0.0
 10
1.5045900000000001
 20
5.7888600000000006
 30
0.0
 10
0.25784
 20
8.9138000000000002
 30
0.0
 10
-0.10474
 20
9.1257600000000014
 30
0.0
 10
-0.10474
 20
9.1257600000000014
 30
0.0
 10
-0.34044
 20
9.2635100000000001
 30
0.0
 10
-0.14062
 20
8.9126799999999999
 30
0.0
 10
-0.07996
 20
8.8496400000000008
 30
0.0
 10
-0.07996
 20
8.8496400000000008
 30
0.0
 10
-0.01931
 20
8.786620000000001
 30
0.0
 10
0.11839
 20
8.5866900000000008
 30
0.0
 10
0.11839
 20
8.5866900000000008
 30
0.0
 10
0.11839
 20
8.5866900000000008
 30
0.0
 10
0.10602
 20
8.57775
 30
0.0
 10
-0.30097
 20
8.9474400000000003
 30
0.0
 10
-0.4023000000000001
 20
9.1914800000000003
 30
0.0
 10
-0.4023000000000001
 20
9.1914800000000003
 30
0.0
 10
-0.50363
 20
9.4355400000000014
 30
0.0
 10
-0.17914
 20
9.3361000000000001
 30
0.0
 10
-0.17914
 20
9.3361000000000001
 30
0.0
 10
-0.17914
 20
9.3361000000000001
 30
0.0
 10
-0.17914
 20
9.3361000000000001
 30
0.0
 10
-0.30854
 20
9.6198399999999999
 30
0.0
 10
-0.44559
 20
9.6054700000000004
 30
0.0
 10
-0.44559
 20
9.6054700000000004
 30
0.0
 10
-0.5826100000000001
 20
9.5911200000000001
 30
0.0
 10
-0.4866800000000001
 20
9.3440799999999999
 30
0.0
 10
-0.4866800000000001
 20
9.3440799999999999
 30
0.0
 10
-0.4866800000000001
 20
9.3440799999999999
 30
0.0
 10
-0.4866800000000001
 20
9.3440799999999999
 30
0.0
 10
-0.6378600000000001
 20
9.5464800000000007
 30
0.0
 10
-0.5634800000000001
 20
9.6385100000000001
 30
0.0
 10
-0.5634800000000001
 20
9.6385100000000001
 30
0.0
 10
-0.48908
 20
9.7305500000000009
 30
0.0
 10
-0.3031100000000001
 20
9.8488900000000008
 30
0.0
 10
0.14317
 20
8.9679700000000011
 30
0.0
 10
0.14317
 20
8.9679700000000011
 30
0.0
 10
0.5895
 20
8.087060000000001
 30
0.0
 10
1.53173
 20
5.7730300000000003
 30
0.0
 10
1.53173
 20
5.7730300000000003
 30
0.0
  0
SPLINE
  5
28
100
AcDbEntity
  8
Ebene 1
 62
     1
100
AcDbSpline
210
0.0
220
0.0
230
1.0
 70
     1
 71
     3
 72
    44
 73
    40
 74
     0
 42
0.0000000001
 43
0.0000000001
 40
0.0
 40
0.0
 40
0.0
 40
0.0
 40
0.1
 40
0.1
 40
0.1
 40
0.1
 40
0.2
 40
0.2
 40
0.2
 40
0.2
 40
0.3
 40
0.3
 40
0.3
 40
0.3
 40
0.4
 40
0.4
 40
0.4
 40
0.4
 40
0.5
 40
0.5
 40
0.5
 40
0.5
 40
0.6
 40
0.6
 40
0.6
 40
0.6
 40
0.7
 40
0.7
 40
0.7
 40
0.7
 40
0.7999999999999999
 40
0.7999999999999999
 40
0.7999999999999999
 40
0.7999999999999999
 40
0.8999999999999999
 40
0.8999999999999999
 40
0.8999999999999999
 40
0.8999999999999999
 40
1.0
 40
1.0
 40
1.0
 40
1.0
 10
1.7153800000000001
 20
5.7730300000000003
 30
0.0
 10
1.7425200000000001
 20
5.7888600000000006
 30
0.0
 10
2.9892700000000003
 20
8.9138000000000002
 30
0.0
 10
3.3518700000000003
 20
9.1257600000000014
 30
0.0
 10
3.3518700000000003
 20
9.1257600000000014
 30
0.0
 10
3.5875400000000002
 20
9.2635100000000001
 30
0.0
 10
3.3877700000000002
 20
8.9126799999999999
 30
0.0
 10
3.3271000000000002
 20
8.8496400000000008
 30
0.0
 10
3.3271000000000002
 20
8.8496400000000008
 30
0.0
 10
3.2664300000000002
 20
8.786620000000001
 30
0.0
 10
3.1287300000000005
 20
8.5866900000000008
 30
0.0
 10
3.1287300000000005
 20
8.5866900000000008
 30
0.0
 10
3.1287300000000005
 20
8.5866900000000008
 30
0.0
 10
3.1411000000000002
 20
8.57775
 30
0.0
 10
3.5481000000000003
 20
8.9474400000000003
 30
0.0
 10
3.6494200000000001
 20
9.1914800000000003
 30
0.0
 10
3.6494200000000001
 20
9.1914800000000003
 30
0.0
 10
3.7507400000000004
 20
9.4355400000000014
 30
0.0
 10
3.4262500000000005
 20
9.3361000000000001
 30
0.0
 10
3.4262500000000005
 20
9.3361000000000001
 30
0.0
 10
3.4262500000000005
 20
9.3361000000000001
 30
0.0
 10
3.4262500000000005
 20
9.3361000000000001
 30
0.0
 10
3.5556800000000002
 20
9.6198399999999999
 30
0.0
 10
3.6926900000000002
 20
9.6054700000000004
 30
0.0
 10
3.6926900000000002
 20
9.6054700000000004
 30
0.0
 10
3.8297400000000001
 20
9.5911200000000001
 30
0.0
 10
3.7337900000000004
 20
9.3440799999999999
 30
0.0
 10
3.7337900000000004
 20
9.3440799999999999
 30
0.0
 10
3.7337900000000004
 20
9.3440799999999999
 30
0.0
 10
3.7337900000000004
 20
9.3440799999999999
 30
0.0
 10
3.8849600000000004
 20
9.5464800000000007
 30
0.0
 10
3.8105800000000003
 20
9.6385100000000001
 30
0.0
 10
3.8105800000000003
 20
9.6385100000000001
 30
0.0
 10
3.7362000000000002
 20
9.7305500000000009
 30
0.0
 10
3.5502300000000004
 20
9.8488900000000008
 30
0.0
 10
3.1039200000000005
 20
8.9679700000000011
 30
0.0
 10
3.1039200000000005
 20
8.9679700000000011
 30
0.0
 10
2.65761
 20
8.087060000000001
 30
0.0
 10
1.7153800000000001
 20
5.7730300000000003
 30
0.0
 10
1.7153800000000001
 20
5.7730300000000003
 30
0.0
  0
SPLINE
  5
29
100
AcDbEntity
  8
Ebene 1
 62
     1
100
AcDbSpline
210
0.0
220
0.0
230
1.0
 70
     1
 71
     3
 72
    36
 73
    32
 74
     0
 42
0.0000000001
 43
0.0000000001
 40
0.0
 40
0.0
 40
0.0
 40
0.0
 40
0.125
 40
0.125
 40
0.125
 40
0.125
 40
0.25
 40
0.25
 40
0.25
 40
0.25
 40
0.375
 40
0.375
 40
0.375
 40
0.375
 40
0.5
 40
0.5
 40
0.5
 40
0.5
 40
0.625
 40
0.625
 40
0.625
 40
0.625
 40
0.75
 40
0.75
 40
0.75
 40
0.75
 40
0.875
 40
0.875
 40
0.875
 40
0.875
 40
1.0
 40
1.0
 40
1.0
 40
1.0
 10
1.6282500000000002
 20
5.7477600000000004
 30
0.0
 10
1.65507
 20
5.7477600000000004
 30
0.0
 10
1.6791400000000001
 20
5.7341300000000004
 30
0.0
 10
1.6984600000000001
 20
5.7135100000000003
 30
0.0
 10
1.6984600000000001
 20
5.7135100000000003
 30
0.0
 10
1.7186900000000001
 20
5.6918800000000003
 30
0.0
 10
1.7369800000000002
 20
5.6631800000000005
 30
0.0
 10
1.7471800000000002
 20
5.6310700000000002
 30
0.0
 10
1.7471800000000002
 20
5.6310700000000002
 30
0.0
 10
1.76065
 20
5.5989300000000002
 30
0.0
 10
1.7604100000000003
 20
5.5688400000000007
 30
0.0
 10
1.7425200000000001
 20
5.54861
 30
0.0
 10
1.7425200000000001
 20
5.54861
 30
0.0
 10
1.72306
 20
5.5265700000000004
 30
0.0
 10
1.6831600000000002
 20
5.5143900000000006
 30
0.0
 10
1.6344200000000002
 20
5.5143900000000006
 30
0.0
 10
1.6344200000000002
 20
5.5143900000000006
 30
0.0
 10
1.58569
 20
5.5143900000000006
 30
0.0
 10
1.5444500000000001
 20
5.5265000000000004
 30
0.0
 10
1.5229900000000001
 20
5.54861
 30
0.0
 10
1.5229900000000001
 20
5.54861
 30
0.0
 10
1.5034000000000001
 20
5.5687900000000008
 30
0.0
 10
1.5010000000000001
 20
5.5989300000000002
 30
0.0
 10
1.5125300000000002
 20
5.6310700000000002
 30
0.0
 10
1.5125300000000002
 20
5.6310700000000002
 30
0.0
 10
1.5212800000000002
 20
5.6631800000000005
 30
0.0
 10
1.53861
 20
5.6919700000000004
 30
0.0
 10
1.55837
 20
5.7135100000000003
 30
0.0
 10
1.55837
 20
5.7135100000000003
 30
0.0
 10
1.5774000000000001
 20
5.7342200000000005
 30
0.0
 10
1.6014300000000001
 20
5.7477600000000004
 30
0.0
 10
1.6282500000000002
 20
5.7477600000000004
 30
0.0
  0
SPLINE
  5
2A
100
AcDbEntity
  8
Ebene 1
 62
     1
100
AcDbSpline
210
0.0
220
0.0
230
1.0
 70
     1
 71
     3
 72
    52
 73
    48
 74
     0
 42
0.0000000001
 43
0.0000000001
 40
0.0
 40
0.0
 40
0.0
 40
0.0
 40
0.0833333333333333
 40
0.0833333333333333
 40
0.0833333333333333
 40
0.0833333333333333
 40
0.1666666666666667
 40
0.1666666666666667
 40
0.1666666666666667
 40
0.1666666666666667
 40
0.25
 40
0.25
 40
0.25
 40
0.25
 40
0.3333333333333333
 40
0.3333333333333333
 40
0.3333333333333333
 40
0.3333333333333333
 40
0.4166666666666666
 40
0.4166666666666666
 40
0.4166666666666666
 40
0.4166666666666666
 40
0.4999999999999999
 40
0.4999999999999999
 40
0.4999999999999999
 40
0.4999999999999999
 40
0.5833333333333333
 40
0.5833333333333333
 40
0.5833333333333333
 40
0.5833333333333333
 40
0.6666666666666666
 40
0.6666666666666666
 40
0.6666666666666666
 40
0.6666666666666666
 40
0.75
 40
0.75
 40
0.75
 40
0.75
 40
0.8333333333333334
 40
0.8333333333333334
 40
0.8333333333333334
 40
0.8333333333333334
 40
0.9166666666666667
 40
0.9166666666666667
 40
0.9166666666666667
 40
0.9166666666666667
 40
1.0
 40
1.0
 40
1.0
 40
1.0
 10
2.6191300000000002
 20
7.5405700000000007
 30
0.0
 10
2.7066300000000001
 20
7.697680000000001
 30
0.0
 10
2.8408200000000003
 20
8.1827500000000004
 30
0.0
 10
4.7195
 20
8.7972900000000003
 30
0.0
 10
4.7195
 20
8.7972900000000003
 30
0.0
 10
6.5981800000000002
 20
9.4118100000000009
 30
0.0
 10
8.8868300000000016
 20
9.1233500000000003
 30
0.0
 10
8.8436599999999999
 20
9.0712600000000005
 30
0.0
 10
8.8436599999999999
 20
9.0712600000000005
 30
0.0
 10
8.8004899999999999
 20
9.01919
 30
0.0
 10
7.8282200000000008
 20
9.3572700000000015
 30
0.0
 10
5.3395800000000007
 20
8.8405400000000007
 30
0.0
 10
5.3395800000000007
 20
8.8405400000000007
 30
0.0
 10
2.8509200000000003
 20
8.3238099999999999
 30
0.0
 10
2.7062600000000003
 20
7.5820300000000005
 30
0.0
 10
2.7062600000000003
 20
7.5820300000000005
 30
0.0
 10
2.7062600000000003
 20
7.5820300000000005
 30
0.0
 10
2.7062600000000003
 20
7.5820300000000005
 30
0.0
 10
3.1621400000000004
 20
7.3841100000000006
 30
0.0
 10
3.26309
 20
6.8505700000000003
 30
0.0
 10
3.26309
 20
6.8505700000000003
 30
0.0
 10
3.3640300000000001
 20
6.3170100000000007
 30
0.0
 10
3.1044400000000003
 20
5.8699900000000005
 30
0.0
 10
3.1044400000000003
 20
5.8699900000000005
 30
0.0
 10
3.1044400000000003
 20
5.8699900000000005
 30
0.0
 10
3.1044400000000003
 20
5.8699900000000005
 30
0.0
 10
3.2486500000000005
 20
6.4035300000000008
 30
0.0
 10
3.1477100000000005
 20
6.7207900000000009
 30
0.0
 10
3.1477100000000005
 20
6.7207900000000009
 30
0.0
 10
3.0467700000000004
 20
7.0380300000000009
 30
0.0
 10
3.0179300000000002
 20
6.8794000000000004
 30
0.0
 10
2.9458300000000004
 20
6.5765800000000008
 30
0.0
 10
2.9458300000000004
 20
6.5765800000000008
 30
0.0
 10
2.8737200000000001
 20
6.2737600000000002
 30
0.0
 10
2.7439500000000003
 20
6.0574500000000002
 30
0.0
 10
2.6285700000000003
 20
5.9565100000000006
 30
0.0
 10
2.6285700000000003
 20
5.9565100000000006
 30
0.0
 10
2.5725800000000003
 20
5.9075200000000008
 30
0.0
 10
2.4792200000000002
 20
5.8755200000000007
 30
0.0
 10
2.3979900000000001
 20
5.8555400000000004
 30
0.0
 10
2.3979900000000001
 20
5.8555400000000004
 30
0.0
 10
2.7978300000000003
 20
6.0816100000000004
 30
0.0
 10
2.8959800000000002
 20
6.5113400000000006
 30
0.0
 10
2.8592900000000001
 20
6.9515100000000007
 30
0.0
 10
2.8592900000000001
 20
6.9515100000000007
 30
0.0
 10
2.8282100000000003
 20
7.3246300000000009
 30
0.0
 10
2.6928200000000002
 20
7.4817300000000007
 30
0.0
 10
2.6191300000000002
 20
7.5405700000000007
 30
0.0
  0
SPLINE
  5
2B
100
AcDbEntity
  8
Ebene 1
 62
     1
100
AcDbSpline
210
0.0
220
0.0
230
1.0
 70
     1
 71
     3
 72
    24
 73
    20
 74
     0
 42
0.0000000001
 43
0.0000000001
 40
0.0
 40
0.0
 40
0.0
 40
0.0
 40
0.2
 40
0.2
 40
0.2
 40
0.2
 40
0.4
 40
0.4
 40
0.4
 40
0.4
 40
0.6000000000000001
 40
0.6000000000000001
 40
0.6000000000000001
 40
0.6000000000000001
 40
0.8
 40
0.8
 40
0.8
 40
0.8
 40
1.0
 40
1.0
 40
1.0
 40
1.0
 10
2.3546100000000001
 20
3.7069500000000004
 30
0.0
 10
2.3546100000000001
 20
3.7069500000000004
 30
0.0
 10
2.4411200000000002
 20
3.6060100000000004
 30
0.0
 10
2.3690100000000003
 20
3.2743900000000004
 30
0.0
 10
2.3690100000000003
 20
3.2743900000000004
 30
0.0
 10
2.29691
 20
2.9426900000000002
 30
0.0
 10
2.2825100000000003
 20
2.6687400000000001
 30
0.0
 10
2.29691
 20
2.49566
 30
0.0
 10
2.29691
 20
2.49566
 30
0.0
 10
2.31135
 20
2.3226500000000003
 30
0.0
 10
2.3257500000000002
 20
2.2505000000000002
 30
0.0
 10
2.3257500000000002
 20
2.2505000000000002
 30
0.0
 10
2.3257500000000002
 20
2.2505000000000002
 30
0.0
 10
2.3257500000000002
 20
2.2505000000000002
 30
0.0
 10
2.1585200000000002
 20
2.7331600000000003
 30
0.0
 10
2.2162300000000004
 20
3.2234700000000003
 30
0.0
 10
2.2162300000000004
 20
3.2234700000000003
 30
0.0
 10
2.2738900000000002
 20
3.7137000000000002
 30
0.0
 10
2.3546100000000001
 20
3.7069500000000004
 30
0.0
 10
2.3546100000000001
 20
3.7069500000000004
 30
0.0
  0
SPLINE
  5
2C
100
AcDbEntity
  8
Ebene 1
 62
     1
100
AcDbSpline
210
0.0
220
0.0
230
1.0
 70
     1
 71
     3
 72
    20
 73
    16
 74
     0
 42
0.0000000001
 43
0.0000000001
 40
0.0
 40
0.0
 40
0.0
 40
0.0
 40
0.25
 40
0.25
 40
0.25
 40
0.25
 40
0.5
 40
0.5
 40
0.5
 40
0.5
 40
0.75
 40
0.75
 40
0.75
 40
0.75
 40
1.0
 40
1.0
 40
1.0
 40
1.0
 10
2.7847700000000004
 20
3.5174000000000003
 30
0.0
 10
2.7847700000000004
 20
3.5174000000000003
 30
0.0
 10
2.9025600000000003
 20
3.8078900000000004
 30
0.0
 10
2.7439500000000003
 20
4.1251899999999999
 30
0.0
 10
2.7439500000000003
 20
4.1251899999999999
 30
0.0
 10
2.5853300000000004
 20
4.4424100000000006
 30
0.0
 10
2.6862700000000004
 20
4.5433500000000002
 30
0.0
 10
2.8016100000000002
 20
4.4568099999999999
 30
0.0
 10
2.8016100000000002
 20
4.4568099999999999
 30
0.0
 10
2.9169900000000002
 20
4.3702700000000005
 30
0.0
 10
2.9602600000000003
 20
4.0819200000000002
 30
0.0
 10
2.9169900000000002
 20
3.8655600000000003
 30
0.0
 10
2.9169900000000002
 20
3.8655600000000003
 30
0.0
 10
2.8737200000000001
 20
3.6492800000000001
 30
0.0
 10
2.7847700000000004
 20
3.5174000000000003
 30
0.0
 10
2.7847700000000004
 20
3.5174000000000003
 30
0.0
  0
SPLINE
  5
2D
100
AcDbEntity
  8
Ebene 1
 62
     1
100
AcDbSpline
210
0.0
220
0.0
230
1.0
 70
     1
 71
     3
 72
    32
 73
    28
 74
     0
 42
0.0000000001
 43
0.0000000001
 40
0.0
 40
0.0
 40
0.0
 40
0.0
 40
0.1428571428571429
 40
0.1428571428571429
 40
0.1428571428571429
 40
0.1428571428571429
 40
0.2857142857142857
 40
0.2857142857142857
 40
0.2857142857142857
 40
0.2857142857142857
 40
0.4285714285714286
 40
0.4285714285714286
 40
0.4285714285714286
 40
0.4285714285714286
 40
0.5714285714285714
 40
0.5714285714285714
 40
0.5714285714285714
 40
0.5714285714285714
 40
0.7142857142857142
 40
0.7142857142857142
 40
0.7142857142857142
 40
0.7142857142857142
 40
0.857142857142857
 40
0.857142857142857
 40
0.857142857142857
 40
0.857142857142857
 40
1.0
 40
1.0
 40
1.0
 40
1.0
 10
3.2636700000000003
 20
3.2498600000000004
 30
0.0
 10
3.2636700000000003
 20
3.2498600000000004
 30
0.0
 10
3.4072600000000004
 20
3.0436300000000003
 30
0.0
 10
3.2486500000000005
 20
2.7408100000000002
 30
0.0
 10
3.2486500000000005
 20
2.7408100000000002
 30
0.0
 10
3.0900400000000001
 20
2.4379900000000001
 30
0.0
 10
3.0535200000000002
 20
2.11435
 30
0.0
 10
3.0535200000000002
 20
2.11435
 30
0.0
 10
3.0535200000000002
 20
2.11435
 30
0.0
 10
3.0535200000000002
 20
2.11435
 30
0.0
 10
3.0642
 20
2.4984800000000003
 30
0.0
 10
3.1718900000000003
 20
2.8635200000000003
 30
0.0
 10
3.1718900000000003
 20
2.8635200000000003
 30
0.0
 10
3.2795900000000002
 20
3.2285700000000004
 30
0.0
 10
3.0341900000000002
 20
3.1347900000000002
 30
0.0
 10
3.00719
 20
2.9331200000000002
 30
0.0
 10
3.00719
 20
2.9331200000000002
 30
0.0
 10
2.9801700000000002
 20
2.7315100000000001
 30
0.0
 10
2.9627100000000004
 20
2.4954500000000004
 30
0.0
 10
2.9559600000000001
 20
2.5392700000000001
 30
0.0
 10
2.9559600000000001
 20
2.5392700000000001
 30
0.0
 10
2.9492000000000003
 20
2.5830900000000003
 30
0.0
 10
2.87338
 20
2.9005900000000002
 30
0.0
 10
3.0319900000000004
 20
3.1746200000000004
 30
0.0
 10
3.0319900000000004
 20
3.1746200000000004
 30
0.0
 10
3.1906400000000001
 20
3.4485700000000001
 30
0.0
 10
3.2636700000000003
 20
3.2498600000000004
 30
0.0
 10
3.2636700000000003
 20
3.2498600000000004
 30
0.0
  0
SPLINE
  5
2E
100
AcDbEntity
  8
Ebene 1
 62
     1
100
AcDbSpline
210
0.0
220
0.0
230
1.0
 70
     1
 71
     3
 72
   132
 73
   128
 74
     0
 42
0.0000000001
 43
0.0000000001
 40
0.0
 40
0.0
 40
0.0
 40
0.0
 40
0.03125
 40
0.03125
 40
0.03125
 40
0.03125
 40
0.0625
 40
0.0625
 40
0.0625
 40
0.0625
 40
0.09375
 40
0.09375
 40
0.09375
 40
0.09375
 40
0.125
 40
0.125
 40
0.125
 40
0.125
 40
0.15625
 40
0.15625
 40
0.15625
 40
0.15625
 40
0.1875
 40
0.1875
 40
0.1875
 40
0.1875
 40
0.21875
 40
0.21875
 40
0.21875
 40
0.21875
 40
0.25
 40
0.25
 40
0.25
 40
0.25
 40
0.28125
 40
0.28125
 40
0.28125
 40
0.28125
 40
0.3125
 40
0.3125
 40
0.3125
 40
0.3125
 40
0.34375
 40
0.34375
 40
0.34375
 40
0.34375
 40
0.375
 40
0.375
 40
0.375
 40
0.375
 40
0.40625
 40
0.40625
 40
0.40625
 40
0.40625
 40
0.4375
 40
0.4375
 40
0.4375
 40
0.4375
 40
0.46875
 40
0.46875
 40
0.46875
 40
0.46875
 40
0.5
 40
0.5
 40
0.5
 40
0.5
 40
0.53125
 40
0.53125
 40
0.53125
 40
0.53125
 40
0.5625
 40
0.5625
 40
0.5625
 40
0.5625
 40
0.59375
 40
0.59375
 40
0.59375
 40
0.59375
 40
0.625
 40
0.625
 40
0.625
 40
0.625
 40
0.65625
 40
0.65625
 40
0.65625
 40
0.65625
 40
0.6875
 40
0.6875
 40
0.6875
 40
0.6875
 40
0.71875
 40
0.71875
 40
0.71875
 40
0.71875
 40
0.75
 40
0.75
 40
0.75
 40
0.75
 40
0.78125
 40
0.78125
 40
0.78125
 40
0.78125
 40
0.8125
 40
0.8125
 40
0.8125
 40
0.8125
 40
0.84375
 40
0.84375
 40
0.84375
 40
0.84375
 40
0.875
 40
0.875
 40
0.875
 40
0.875
 40
0.90625
 40
0.90625
 40
0.90625
 40
0.90625
 40
0.9375
 40
0.9375
 40
0.9375
 40
0.9375
 40
0.96875
 40
0.96875
 40
0.96875
 40
0.96875
 40
1.0
 40
1.0
 40
1.0
 40
1.0
 10
2.41229
 20
5.3364500000000001
 30
0.0
 10
2.41229
 20
5.3364500000000001
 30
0.0
 10
3.1044400000000003
 20
5.3220300000000007
 30
0.0
 10
3.4217000000000004
 20
4.8317800000000002
 30
0.0
 10
3.4217000000000004
 20
4.8317800000000002
 30
0.0
 10
3.7389200000000002
 20
4.3414700000000002
 30
0.0
 10
3.6956900000000004
 20
4.1251899999999999
 30
0.0
 10
3.6956900000000004
 20
4.1251899999999999
 30
0.0
 10
3.6956900000000004
 20
4.1251899999999999
 30
0.0
 10
3.6956900000000004
 20
4.1251899999999999
 30
0.0
 10
3.3063200000000004
 20
4.4856800000000003
 30
0.0
 10
3.2198200000000003
 20
4.06745
 30
0.0
 10
3.2198200000000003
 20
4.06745
 30
0.0
 10
3.1333100000000003
 20
3.6492800000000001
 30
0.0
 10
3.6686800000000002
 20
3.5989100000000005
 30
0.0
 10
3.5677400000000001
 20
2.9356000000000004
 30
0.0
 10
3.5677400000000001
 20
2.9356000000000004
 30
0.0
 10
3.4668000000000001
 20
2.2722800000000003
 30
0.0
 10
3.1664200000000005
 20
2.1928300000000003
 30
0.0
 10
3.2096900000000002
 20
1.7602700000000002
 30
0.0
 10
3.2096900000000002
 20
1.7602700000000002
 30
0.0
 10
3.2529600000000003
 20
1.3276300000000001
 30
0.0
 10
3.2879900000000002
 20
1.15717
 30
0.0
 10
3.1293800000000003
 20
0.8831500000000001
 30
0.0
 10
3.1293800000000003
 20
0.8831500000000001
 30
0.0
 10
2.9707400000000002
 20
0.60919
 30
0.0
 10
2.8467500000000001
 20
0.59072
 30
0.0
 10
2.8467500000000001
 20
0.59072
 30
0.0
 10
2.8467500000000001
 20
0.59072
 30
0.0
 10
2.8467500000000001
 20
0.59072
 30
0.0
 10
3.2467900000000003
 20
0.9023700000000001
 30
0.0
 10
3.1746800000000004
 20
1.4647500000000002
 30
0.0
 10
3.1746800000000004
 20
1.4647500000000002
 30
0.0
 10
3.1025800000000001
 20
2.02712
 30
0.0
 10
3.1044400000000003
 20
2.1351600000000004
 30
0.0
 10
3.2919200000000002
 20
2.4812600000000002
 30
0.0
 10
3.2919200000000002
 20
2.4812600000000002
 30
0.0
 10
3.4793700000000003
 20
2.82735
 30
0.0
 10
3.4793700000000003
 20
3.2599200000000002
 30
0.0
 10
3.2919200000000002
 20
3.4330000000000003
 30
0.0
 10
3.2919200000000002
 20
3.4330000000000003
 30
0.0
 10
3.1044400000000003
 20
3.6060100000000004
 30
0.0
 10
2.7872100000000004
 20
3.0436300000000003
 30
0.0
 10
2.8448900000000004
 20
2.4523900000000003
 30
0.0
 10
2.8448900000000004
 20
2.4523900000000003
 30
0.0
 10
2.9025600000000003
 20
1.8612100000000003
 30
0.0
 10
3.0038400000000003
 20
1.5893900000000001
 30
0.0
 10
2.9019700000000004
 20
1.2696800000000001
 30
0.0
 10
2.9019700000000004
 20
1.2696800000000001
 30
0.0
 10
2.8001
 20
0.9500500000000001
 30
0.0
 10
2.7151100000000001
 20
0.89507
 30
0.0
 10
2.7151100000000001
 20
0.89507
 30
0.0
 10
2.7151100000000001
 20
0.89507
 30
0.0
 10
2.7151100000000001
 20
0.89507
 30
0.0
 10
2.9381400000000002
 20
1.2818100000000001
 30
0.0
 10
2.88592
 20
1.6738600000000001
 30
0.0
 10
2.88592
 20
1.6738600000000001
 30
0.0
 10
2.8336900000000003
 20
2.0659900000000002
 30
0.0
 10
2.5565000000000002
 20
2.6110700000000002
 30
0.0
 10
2.7295100000000003
 20
3.1157700000000004
 30
0.0
 10
2.7295100000000003
 20
3.1157700000000004
 30
0.0
 10
2.9025600000000003
 20
3.6204800000000001
 30
0.0
 10
3.0900400000000001
 20
3.5916100000000002
 30
0.0
 10
3.0323700000000002
 20
4.1539900000000003
 30
0.0
 10
3.0323700000000002
 20
4.1539900000000003
 30
0.0
 10
2.9746600000000001
 20
4.7163700000000004
 30
0.0
 10
2.6718400000000004
 20
4.7740300000000007
 30
0.0
 10
2.5276300000000003
 20
4.5144800000000007
 30
0.0
 10
2.5276300000000003
 20
4.5144800000000007
 30
0.0
 10
2.3834500000000003
 20
4.2549300000000008
 30
0.0
 10
2.8016100000000002
 20
3.9233000000000002
 30
0.0
 10
2.6862700000000004
 20
3.4906700000000002
 30
0.0
 10
2.6862700000000004
 20
3.4906700000000002
 30
0.0
 10
2.5709000000000004
 20
3.0580400000000001
 30
0.0
 10
2.4987900000000001
 20
2.7840800000000003
 30
0.0
 10
2.5420600000000002
 20
2.3082400000000001
 30
0.0
 10
2.5420600000000002
 20
2.3082400000000001
 30
0.0
 10
2.5680700000000001
 20
2.0220900000000004
 30
0.0
 10
2.6910600000000002
 20
1.5275900000000002
 30
0.0
 10
2.5709000000000004
 20
1.25556
 30
0.0
 10
2.5709000000000004
 20
1.25556
 30
0.0
 10
2.5709000000000004
 20
1.25556
 30
0.0
 10
2.5982200000000004
 20
1.6188100000000001
 30
0.0
 10
2.5215000000000001
 20
1.9698000000000002
 30
0.0
 10
2.5215000000000001
 20
1.9698000000000002
 30
0.0
 10
2.4447400000000004
 20
2.3207800000000001
 30
0.0
 10
2.3690100000000003
 20
2.7696800000000001
 30
0.0
 10
2.4555500000000001
 20
3.1445700000000003
 30
0.0
 10
2.4555500000000001
 20
3.1445700000000003
 30
0.0
 10
2.5420600000000002
 20
3.5195400000000001
 30
0.0
 10
2.6141700000000001
 20
3.7502200000000001
 30
0.0
 10
2.4555500000000001
 20
3.8944400000000003
 30
0.0
 10
2.4555500000000001
 20
3.8944400000000003
 30
0.0
 10
2.29691
 20
4.03864
 30
0.0
 10
2.0818300000000001
 20
3.5712100000000002
 30
0.0
 10
2.0597800000000004
 20
3.1102600000000002
 30
0.0
 10
2.0597800000000004
 20
3.1102600000000002
 30
0.0
 10
2.0212000000000003
 20
2.30287
 30
0.0
 10
2.4749500000000002
 20
1.5645900000000001
 30
0.0
 10
2.3260900000000002
 20
0.9758200000000001
 30
0.0
 10
2.3260900000000002
 20
0.9758200000000001
 30
0.0
 10
2.2611100000000004
 20
0.71882
 30
0.0
 10
2.1110100000000003
 20
0.64288
 30
0.0
 10
2.1110100000000003
 20
0.64288
 30
0.0
 10
2.1110100000000003
 20
0.64288
 30
0.0
 10
2.6947800000000002
 20
1.4124500000000002
 30
0.0
 10
1.7412100000000001
 20
2.49173
 30
0.0
 10
1.9999400000000003
 20
3.5195400000000001
 30
0.0
 10
1.9999400000000003
 20
3.5195400000000001
 30
0.0
 10
2.1435300000000002
 20
4.0899800000000006
 30
0.0
 10
2.39785
 20
4.3558700000000004
 30
0.0
 10
2.2825100000000003
 20
4.6875600000000004
 30
0.0
 10
2.2825100000000003
 20
4.6875600000000004
 30
0.0
 10
2.1671300000000002
 20
5.01919
 30
0.0
 10
2.05179
 20
4.6154300000000008
 30
0.0
 10
2.0373600000000001
 20
4.4856800000000003
 30
0.0
 10
2.0373600000000001
 20
4.4856800000000003
 30
0.0
 10
2.0229600000000003
 20
4.3558700000000004
 30
0.0
 10
2.0229600000000003
 20
4.1107200000000006
 30
0.0
 10
2.0229600000000003
 20
4.1107200000000006
 30
0.0
 10
2.0229600000000003
 20
4.1107200000000006
 30
0.0
 10
2.0229600000000003
 20
4.1107200000000006
 30
0.0
 10
1.8011600000000001
 20
4.6059100000000006
 30
0.0
 10
1.9309400000000001
 20
4.9808100000000008
 30
0.0
 10
1.9309400000000001
 20
4.9808100000000008
 30
0.0
 10
2.0607100000000003
 20
5.3557600000000001
 30
0.0
 10
2.41229
 20
5.3364500000000001
 30
0.0
 10
2.41229
 20
5.3364500000000001
 30
0.0
  0
SPLINE
  5
2F
100
AcDbEntity
  8
Ebene 1
 62
     1
100
AcDbSpline
210
0.0
220
0.0
230
1.0
 70
     1
 71
     3
 72
    20
 73
    16
 74
     0
 42
0.0000000001
 43
0.0000000001
 40
0.0
 40
0.0
 40
0.0
 40
0.0
 40
0.25
 40
0.25
 40
0.25
 40
0.25
 40
0.5
 40
0.5
 40
0.5
 40
0.5
 40
0.75
 40
0.75
 40
0.75
 40
0.75
 40
1.0
 40
1.0
 40
1.0
 40
1.0
 10
4.5897200000000007
 20
7.8599800000000011
 30
0.0
 10
4.5897200000000007
 20
7.8599800000000011
 30
0.0
 10
4.8637100000000002
 20
7.7302000000000008
 30
0.0
 10
5.4837600000000002
 20
7.7446200000000003
 30
0.0
 10
5.4837600000000002
 20
7.7446200000000003
 30
0.0
 10
6.1038400000000008
 20
7.7590400000000006
 30
0.0
 10
6.5370600000000003
 20
7.9956500000000004
 30
0.0
 10
6.5797100000000004
 20
8.0041700000000002
 30
0.0
 10
6.5797100000000004
 20
8.0041700000000002
 30
0.0
 10
6.6223600000000005
 20
8.0127000000000006
 30
0.0
 10
6.2358900000000004
 20
7.6470000000000002
 30
0.0
 10
5.5414700000000003
 20
7.6292600000000004
 30
0.0
 10
5.5414700000000003
 20
7.6292600000000004
 30
0.0
 10
4.9198700000000004
 20
7.5996500000000005
 30
0.0
 10
4.56609
 20
7.8481600000000009
 30
0.0
 10
4.5897200000000007
 20
7.8599800000000011
 30
0.0
  0
SPLINE
  5
30
100
AcDbEntity
  8
Ebene 1
 62
     1
100
AcDbSpline
210
0.0
220
0.0
230
1.0
 70
     1
 71
     3
 72
    20
 73
    16
 74
     0
 42
0.0000000001
 43
0.0000000001
 40
0.0
 40
0.0
 40
0.0
 40
0.0
 40
0.25
 40
0.25
 40
0.25
 40
0.25
 40
0.5
 40
0.5
 40
0.5
 40
0.5
 40
0.75
 40
0.75
 40
0.75
 40
0.75
 40
1.0
 40
1.0
 40
1.0
 40
1.0
 10
4.2229900000000002
 20
7.9928700000000008
 30
0.0
 10
4.2229900000000002
 20
7.9928700000000008
 30
0.0
 10
5.2818800000000001
 20
8.4276300000000006
 30
0.0
 10
6.0029000000000003
 20
8.5383000000000013
 30
0.0
 10
6.0029000000000003
 20
8.5383000000000013
 30
0.0
 10
6.7238900000000008
 20
8.6489900000000013
 30
0.0
 10
6.7048000000000005
 20
8.4921199999999999
 30
0.0
 10
6.7048000000000005
 20
8.4921199999999999
 30
0.0
 10
6.7048000000000005
 20
8.4921199999999999
 30
0.0
 10
6.7048000000000005
 20
8.4921199999999999
 30
0.0
 10
6.5551500000000003
 20
8.23489
 30
0.0
 10
5.6759300000000001
 20
8.1355200000000014
 30
0.0
 10
5.6759300000000001
 20
8.1355200000000014
 30
0.0
 10
4.9981800000000005
 20
8.0489899999999999
 30
0.0
 10
4.2229900000000002
 20
7.9928700000000008
 30
0.0
 10
4.2229900000000002
 20
7.9928700000000008
 30
0.0
  0
SPLINE
  5
31
100
AcDbEntity
  8
Ebene 1
 62
     1
100
AcDbSpline
210
0.0
220
0.0
230
1.0
 70
     1
 71
     3
 72
    28
 73
    24
 74
     0
 42
0.0000000001
 43
0.0000000001
 40
0.0
 40
0.0
 40
0.0
 40
0.0
 40
0.1666666666666667
 40
0.1666666666666667
 40
0.1666666666666667
 40
0.1666666666666667
 40
0.3333333333333333
 40
0.3333333333333333
 40
0.3333333333333333
 40
0.3333333333333333
 40
0.5
 40
0.5
 40
0.5
 40
0.5
 40
0.6666666666666666
 40
0.6666666666666666
 40
0.6666666666666666
 40
0.6666666666666666
 40
0.8333333333333333
 40
0.8333333333333333
 40
0.8333333333333333
 40
0.8333333333333333
 40
1.0
 40
1.0
 40
1.0
 40
1.0
 10
3.4084400000000001
 20
7.3537200000000009
 30
0.0
 10
3.4084400000000001
 20
7.3537200000000009
 30
0.0
 10
3.8687000000000005
 20
7.4706300000000008
 30
0.0
 10
4.5032200000000007
 20
7.3264200000000006
 30
0.0
 10
4.5032200000000007
 20
7.3264200000000006
 30
0.0
 10
5.1377000000000006
 20
7.1822300000000006
 30
0.0
 10
4.8637100000000002
 20
7.1101200000000002
 30
0.0
 10
4.4887800000000002
 20
7.081290000000001
 30
0.0
 10
4.4887800000000002
 20
7.081290000000001
 30
0.0
 10
4.1138500000000002
 20
7.0524500000000003
 30
0.0
 10
3.8254600000000005
 20
7.1389700000000005
 30
0.0
 10
3.8254600000000005
 20
7.1389700000000005
 30
0.0
 10
3.8254600000000005
 20
7.1389700000000005
 30
0.0
 10
3.8254600000000005
 20
7.1389700000000005
 30
0.0
 10
4.5063200000000005
 20
7.1779400000000004
 30
0.0
 10
4.3414700000000002
 20
7.276930000000001
 30
0.0
 10
4.3414700000000002
 20
7.276930000000001
 30
0.0
 10
4.17659
 20
7.3759300000000003
 30
0.0
 10
3.9119700000000002
 20
7.283170000000001
 30
0.0
 10
3.6235800000000005
 20
7.225480000000001
 30
0.0
 10
3.6235800000000005
 20
7.225480000000001
 30
0.0
 10
3.3351600000000001
 20
7.1678100000000002
 30
0.0
 10
3.4084400000000001
 20
7.3537200000000009
 30
0.0
 10
3.4084400000000001
 20
7.3537200000000009
 30
0.0
  0
SPLINE
  5
32
100
AcDbEntity
  8
Ebene 1
 62
     1
100
AcDbSpline
210
0.0
220
0.0
230
1.0
 70
     1
 71
     3
 72
    40
 73
    36
 74
     0
 42
0.0000000001
 43
0.0000000001
 40
0.0
 40
0.0
 40
0.0
 40
0.0
 40
0.1111111111111111
 40
0.1111111111111111
 40
0.1111111111111111
 40
0.1111111111111111
 40
0.2222222222222222
 40
0.2222222222222222
 40
0.2222222222222222
 40
0.2222222222222222
 40
0.3333333333333333
 40
0.3333333333333333
 40
0.3333333333333333
 40
0.3333333333333333
 40
0.4444444444444444
 40
0.4444444444444444
 40
0.4444444444444444
 40
0.4444444444444444
 40
0.5555555555555556
 40
0.5555555555555556
 40
0.5555555555555556
 40
0.5555555555555556
 40
0.6666666666666667
 40
0.6666666666666667
 40
0.6666666666666667
 40
0.6666666666666667
 40
0.7777777777777779
 40
0.7777777777777779
 40
0.7777777777777779
 40
0.7777777777777779
 40
0.8888888888888891
 40
0.8888888888888891
 40
0.8888888888888891
 40
0.8888888888888891
 40
1.0
 40
1.0
 40
1.0
 40
1.0
 10
3.4361000000000002
 20
6.6631000000000009
 30
0.0
 10
3.4361000000000002
 20
6.6631000000000009
 30
0.0
 10
3.7533600000000003
 20
6.0862900000000009
 30
0.0
 10
4.2003900000000005
 20
5.9709300000000001
 30
0.0
 10
4.2003900000000005
 20
5.9709300000000001
 30
0.0
 10
4.6473900000000006
 20
5.8555700000000002
 30
0.0
 10
4.9502200000000007
 20
5.9565100000000006
 30
0.0
 10
4.9502200000000007
 20
5.9565100000000006
 30
0.0
 10
4.9502200000000007
 20
5.9565100000000006
 30
0.0
 10
4.9502200000000007
 20
5.9565100000000006
 30
0.0
 10
4.6618300000000001
 20
5.7258000000000004
 30
0.0
 10
4.2147900000000007
 20
5.7402100000000003
 30
0.0
 10
4.2147900000000007
 20
5.7402100000000003
 30
0.0
 10
3.7677600000000004
 20
5.7546300000000006
 30
0.0
 10
3.7533600000000003
 20
5.5816000000000008
 30
0.0
 10
3.9408100000000004
 20
5.4662400000000009
 30
0.0
 10
3.9408100000000004
 20
5.4662400000000009
 30
0.0
 10
4.1282900000000007
 20
5.3508600000000008
 30
0.0
 10
4.4022800000000002
 20
5.3508600000000008
 30
0.0
 10
4.4022800000000002
 20
5.3508600000000008
 30
0.0
 10
4.4022800000000002
 20
5.3508600000000008
 30
0.0
 10
4.4022800000000002
 20
5.3508600000000008
 30
0.0
 10
3.9985100000000005
 20
5.2499200000000004
 30
0.0
 10
3.6668200000000004
 20
5.4229700000000003
 30
0.0
 10
3.6668200000000004
 20
5.4229700000000003
 30
0.0
 10
3.3351600000000001
 20
5.5960200000000002
 30
0.0
 10
2.9341800000000005
 20
5.6536900000000001
 30
0.0
 10
2.9341800000000005
 20
5.6536900000000001
 30
0.0
 10
2.9341800000000005
 20
5.6536900000000001
 30
0.0
 10
2.9341800000000005
 20
5.6536900000000001
 30
0.0
 10
3.7966300000000004
 20
5.6825400000000004
 30
0.0
 10
3.6091400000000005
 20
6.1007300000000004
 30
0.0
 10
3.6091400000000005
 20
6.1007300000000004
 30
0.0
 10
3.4217000000000004
 20
6.5189100000000009
 30
0.0
 10
3.4361000000000002
 20
6.6631000000000009
 30
0.0
 10
3.4361000000000002
 20
6.6631000000000009
 30
0.0
  0
SPLINE
  5
33
100
AcDbEntity
  8
Ebene 1
 62
     1
100
AcDbSpline
210
0.0
220
0.0
230
1.0
 70
     1
 71
     3
 72
    32
 73
    28
 74
     0
 42
0.0000000001
 43
0.0000000001
 40
0.0
 40
0.0
 40
0.0
 40
0.0
 40
0.1428571428571429
 40
0.1428571428571429
 40
0.1428571428571429
 40
0.1428571428571429
 40
0.2857142857142857
 40
0.2857142857142857
 40
0.2857142857142857
 40
0.2857142857142857
 40
0.4285714285714286
 40
0.4285714285714286
 40
0.4285714285714286
 40
0.4285714285714286
 40
0.5714285714285714
 40
0.5714285714285714
 40
0.5714285714285714
 40
0.5714285714285714
 40
0.7142857142857142
 40
0.7142857142857142
 40
0.7142857142857142
 40
0.7142857142857142
 40
0.857142857142857
 40
0.857142857142857
 40
0.857142857142857
 40
0.857142857142857
 40
1.0
 40
1.0
 40
1.0
 40
1.0
 10
3.4361000000000002
 20
7.023600000000001
 30
0.0
 10
3.4361000000000002
 20
7.023600000000001
 30
0.0
 10
4.1715200000000001
 20
6.6631000000000009
 30
0.0
 10
4.9790900000000002
 20
6.6775200000000003
 30
0.0
 10
4.9790900000000002
 20
6.6775200000000003
 30
0.0
 10
5.7865800000000007
 20
6.6919400000000007
 30
0.0
 10
6.2912900000000009
 20
7.1678100000000002
 30
0.0
 10
6.2912900000000009
 20
7.1678100000000002
 30
0.0
 10
6.2912900000000009
 20
7.1678100000000002
 30
0.0
 10
6.2912900000000009
 20
7.1678100000000002
 30
0.0
 10
5.9884700000000004
 20
6.7496300000000007
 30
0.0
 10
5.4693600000000009
 20
6.5765800000000008
 30
0.0
 10
5.4693600000000009
 20
6.5765800000000008
 30
0.0
 10
4.9502200000000007
 20
6.4035300000000008
 30
0.0
 10
4.7483300000000002
 20
6.5333300000000003
 30
0.0
 10
4.6041600000000003
 20
6.3458600000000009
 30
0.0
 10
4.6041600000000003
 20
6.3458600000000009
 30
0.0
 10
4.4599500000000001
 20
6.1583900000000007
 30
0.0
 10
5.3972600000000002
 20
6.3747000000000007
 30
0.0
 10
5.3972600000000002
 20
6.3747000000000007
 30
0.0
 10
5.3972600000000002
 20
6.3747000000000007
 30
0.0
 10
5.3972600000000002
 20
6.3747000000000007
 30
0.0
 10
5.1521000000000008
 20
6.0574500000000002
 30
0.0
 10
4.4166800000000004
 20
6.0718700000000005
 30
0.0
 10
4.4166800000000004
 20
6.0718700000000005
 30
0.0
 10
3.6812500000000004
 20
6.0862900000000009
 30
0.0
 10
3.4361000000000002
 20
7.023600000000001
 30
0.0
 10
3.4361000000000002
 20
7.023600000000001
 30
0.0
  0
SPLINE
  5
34
100
AcDbEntity
  8
Ebene 1
 62
     1
100
AcDbSpline
210
0.0
220
0.0
230
1.0
 70
     1
 71
     3
 72
    48
 73
    44
 74
     0
 42
0.0000000001
 43
0.0000000001
 40
0.0
 40
0.0
 40
0.0
 40
0.0
 40
0.0909090909090909
 40
0.0909090909090909
 40
0.0909090909090909
 40
0.0909090909090909
 40
0.1818181818181818
 40
0.1818181818181818
 40
0.1818181818181818
 40
0.1818181818181818
 40
0.2727272727272727
 40
0.2727272727272727
 40
0.2727272727272727
 40
0.2727272727272727
 40
0.3636363636363637
 40
0.3636363636363637
 40
0.3636363636363637
 40
0.3636363636363637
 40
0.4545454545454546
 40
0.4545454545454546
 40
0.4545454545454546
 40
0.4545454545454546
 40
0.5454545454545455
 40
0.5454545454545455
 40
0.5454545454545455
 40
0.5454545454545455
 40
0.6363636363636365
 40
0.6363636363636365
 40
0.6363636363636365
 40
0.6363636363636365
 40
0.7272727272727274
 40
0.7272727272727274
 40
0.7272727272727274
 40
0.7272727272727274
 40
0.8181818181818183
 40
0.8181818181818183
 40
0.8181818181818183
 40
0.8181818181818183
 40
0.9090909090909093
 40
0.9090909090909093
 40
0.9090909090909093
 40
0.9090909090909093
 40
1.0
 40
1.0
 40
1.0
 40
1.0
 10
8.348980000000001
 20
8.7671800000000015
 30
0.0
 10
8.37378
 20
8.791970000000001
 30
0.0
 10
7.7005100000000004
 20
8.6635500000000008
 30
0.0
 10
6.8248300000000004
 20
7.9897600000000004
 30
0.0
 10
6.8248300000000004
 20
7.9897600000000004
 30
0.0
 10
5.9491600000000009
 20
7.3159600000000005
 30
0.0
 10
5.1809400000000005
 20
7.5139000000000005
 30
0.0
 10
4.7916100000000004
 20
7.5715700000000004
 30
0.0
 10
4.7916100000000004
 20
7.5715700000000004
 30
0.0
 10
4.4022800000000002
 20
7.6292600000000004
 30
0.0
 10
4.1715200000000001
 20
7.7590400000000006
 30
0.0
 10
4.1715200000000001
 20
7.7590400000000006
 30
0.0
 10
4.1715200000000001
 20
7.7590400000000006
 30
0.0
 10
4.1715200000000001
 20
7.7590400000000006
 30
0.0
 10
3.8975300000000002
 20
7.7157700000000009
 30
0.0
 10
3.6235800000000005
 20
7.600410000000001
 30
0.0
 10
3.6235800000000005
 20
7.600410000000001
 30
0.0
 10
3.3495900000000001
 20
7.4850500000000002
 30
0.0
 10
3.2053800000000003
 20
7.4273600000000002
 30
0.0
 10
3.2053800000000003
 20
7.4273600000000002
 30
0.0
 10
3.2053800000000003
 20
7.4273600000000002
 30
0.0
 10
3.2560600000000002
 20
7.3868300000000007
 30
0.0
 10
4.2957200000000002
 20
7.7087000000000003
 30
0.0
 10
4.9646500000000007
 20
7.3264200000000006
 30
0.0
 10
4.9646500000000007
 20
7.3264200000000006
 30
0.0
 10
5.6335500000000005
 20
6.9441500000000005
 30
0.0
 10
4.5654700000000004
 20
6.9135100000000005
 30
0.0
 10
4.2147900000000007
 20
6.9803500000000005
 30
0.0
 10
4.2147900000000007
 20
6.9803500000000005
 30
0.0
 10
3.8641200000000002
 20
7.0471800000000009
 30
0.0
 10
3.4355500000000001
 20
7.1544800000000004
 30
0.0
 10
3.4505300000000001
 20
7.1245400000000005
 30
0.0
 10
3.4505300000000001
 20
7.1245400000000005
 30
0.0
 10
3.4654900000000004
 20
7.0946200000000008
 30
0.0
 10
4.3734100000000007
 20
6.6486800000000006
 30
0.0
 10
5.2818800000000001
 20
6.8505700000000003
 30
0.0
 10
5.2818800000000001
 20
6.8505700000000003
 30
0.0
 10
6.1903500000000005
 20
7.0524500000000003
 30
0.0
 10
6.5508800000000003
 20
7.5859900000000007
 30
0.0
 10
7.1420900000000005
 20
8.0618600000000011
 30
0.0
 10
7.1420900000000005
 20
8.0618600000000011
 30
0.0
 10
7.7333000000000007
 20
8.5377200000000002
 30
0.0
 10
8.348980000000001
 20
8.7671800000000015
 30
0.0
 10
8.348980000000001
 20
8.7671800000000015
 30
0.0
  0
SPLINE
  5
35
100
AcDbEntity
  8
Ebene 1
 62
     1
100
AcDbSpline
210
0.0
220
0.0
230
1.0
 70
     1
 71
     3
 72
    68
 73
    64
 74
     0
 42
0.0000000001
 43
0.0000000001
 40
0.0
 40
0.0
 40
0.0
 40
0.0
 40
0.0625
 40
0.0625
 40
0.0625
 40
0.0625
 40
0.125
 40
0.125
 40
0.125
 40
0.125
 40
0.1875
 40
0.1875
 40
0.1875
 40
0.1875
 40
0.25
 40
0.25
 40
0.25
 40
0.25
 40
0.3125
 40
0.3125
 40
0.3125
 40
0.3125
 40
0.375
 40
0.375
 40
0.375
 40
0.375
 40
0.4375
 40
0.4375
 40
0.4375
 40
0.4375
 40
0.5
 40
0.5
 40
0.5
 40
0.5
 40
0.5625
 40
0.5625
 40
0.5625
 40
0.5625
 40
0.625
 40
0.625
 40
0.625
 40
0.625
 40
0.6875
 40
0.6875
 40
0.6875
 40
0.6875
 40
0.75
 40
0.75
 40
0.75
 40
0.75
 40
0.8125
 40
0.8125
 40
0.8125
 40
0.8125
 40
0.875
 40
0.875
 40
0.875
 40
0.875
 40
0.9375
 40
0.9375
 40
0.9375
 40
0.9375
 40
1.0
 40
1.0
 40
1.0
 40
1.0
 10
8.5264300000000013
 20
8.7684500000000014
 30
0.0
 10
8.5264300000000013
 20
8.7684500000000014
 30
0.0
 10
7.7477400000000003
 20
7.8888200000000008
 30
0.0
 10
7.4737500000000008
 20
7.2687500000000007
 30
0.0
 10
7.4737500000000008
 20
7.2687500000000007
 30
0.0
 10
7.1997600000000004
 20
6.6486800000000006
 30
0.0
 10
7.243030000000001
 20
6.1295600000000006
 30
0.0
 10
7.243030000000001
 20
6.1295600000000006
 30
0.0
 10
7.243030000000001
 20
6.1295600000000006
 30
0.0
 10
7.243030000000001
 20
6.1295600000000006
 30
0.0
 10
6.5941100000000006
 20
6.3025900000000004
 30
0.0
 10
6.0605700000000002
 20
5.7690700000000001
 30
0.0
 10
6.0605700000000002
 20
5.7690700000000001
 30
0.0
 10
5.5270300000000008
 20
5.2355100000000006
 30
0.0
 10
5.4549200000000004
 20
4.65869
 30
0.0
 10
5.4549200000000004
 20
4.65869
 30
0.0
 10
5.4549200000000004
 20
4.65869
 30
0.0
 10
5.4549200000000004
 20
4.65869
 30
0.0
 10
4.6473900000000006
 20
4.9038500000000003
 30
0.0
 10
4.2292300000000003
 20
4.7596300000000005
 30
0.0
 10
4.2292300000000003
 20
4.7596300000000005
 30
0.0
 10
3.8110300000000001
 20
4.6154300000000008
 30
0.0
 10
3.7821900000000004
 20
4.4856800000000003
 30
0.0
 10
3.7821900000000004
 20
4.4856800000000003
 30
0.0
 10
3.7821900000000004
 20
4.4856800000000003
 30
0.0
 10
3.7821900000000004
 20
4.4856800000000003
 30
0.0
 10
3.6174100000000005
 20
5.1907200000000007
 30
0.0
 10
3.1786500000000002
 20
5.3508600000000008
 30
0.0
 10
3.1786500000000002
 20
5.3508600000000008
 30
0.0
 10
2.7398800000000003
 20
5.5110100000000006
 30
0.0
 10
2.4744700000000002
 20
5.4905600000000003
 30
0.0
 10
2.4555500000000001
 20
5.5094800000000008
 30
0.0
 10
2.4555500000000001
 20
5.5094800000000008
 30
0.0
 10
2.4366100000000004
 20
5.52841
 30
0.0
 10
2.8712700000000004
 20
5.5527500000000005
 30
0.0
 10
3.2836500000000002
 20
5.3855200000000005
 30
0.0
 10
3.2836500000000002
 20
5.3855200000000005
 30
0.0
 10
3.6960000000000002
 20
5.2183000000000002
 30
0.0
 10
3.8831300000000004
 20
4.8605800000000006
 30
0.0
 10
3.8831300000000004
 20
4.8605800000000006
 30
0.0
 10
3.8831300000000004
 20
4.8605800000000006
 30
0.0
 10
3.8831300000000004
 20
4.8605800000000006
 30
0.0
 10
4.3301700000000007
 20
5.0480600000000004
 30
0.0
 10
4.7771700000000008
 20
4.9759200000000003
 30
0.0
 10
4.7771700000000008
 20
4.9759200000000003
 30
0.0
 10
5.2242100000000002
 20
4.9038500000000003
 30
0.0
 10
5.3251500000000007
 20
4.8461800000000004
 30
0.0
 10
5.3251500000000007
 20
4.8461800000000004
 30
0.0
 10
5.3251500000000007
 20
4.8461800000000004
 30
0.0
 10
5.3251500000000007
 20
4.8461800000000004
 30
0.0
 10
5.6712400000000001
 20
5.8267400000000009
 30
0.0
 10
6.3057200000000009
 20
6.1007300000000004
 30
0.0
 10
6.3057200000000009
 20
6.1007300000000004
 30
0.0
 10
6.9402100000000004
 20
6.3747000000000007
 30
0.0
 10
7.1565300000000009
 20
6.2160800000000007
 30
0.0
 10
7.1565300000000009
 20
6.2160800000000007
 30
0.0
 10
7.1565300000000009
 20
6.2160800000000007
 30
0.0
 10
7.1565300000000009
 20
6.2160800000000007
 30
0.0
 10
7.0123100000000003
 20
6.8794000000000004
 30
0.0
 10
7.5025900000000005
 20
7.6148400000000009
 30
0.0
 10
7.5025900000000005
 20
7.6148400000000009
 30
0.0
 10
7.9928900000000009
 20
8.3502500000000008
 30
0.0
 10
8.5264300000000013
 20
8.7684500000000014
 30
0.0
 10
8.5264300000000013
 20
8.7684500000000014
 30
0.0
  0
SPLINE
  5
36
100
AcDbEntity
  8
Ebene 1
 62
     1
100
AcDbSpline
210
0.0
220
0.0
230
1.0
 70
     1
 71
     3
 72
    32
 73
    28
 74
     0
 42
0.0000000001
 43
0.0000000001
 40
0.0
 40
0.0
 40
0.0
 40
0.0
 40
0.1428571428571429
 40
0.1428571428571429
 40
0.1428571428571429
 40
0.1428571428571429
 40
0.2857142857142857
 40
0.2857142857142857
 40
0.2857142857142857
 40
0.2857142857142857
 40
0.4285714285714286
 40
0.4285714285714286
 40
0.4285714285714286
 40
0.4285714285714286
 40
0.5714285714285714
 40
0.5714285714285714
 40
0.5714285714285714
 40
0.5714285714285714
 40
0.7142857142857142
 40
0.7142857142857142
 40
0.7142857142857142
 40
0.7142857142857142
 40
0.857142857142857
 40
0.857142857142857
 40
0.857142857142857
 40
0.857142857142857
 40
1.0
 40
1.0
 40
1.0
 40
1.0
 10
8.6994500000000006
 20
8.9703300000000006
 30
0.0
 10
8.7431300000000007
 20
8.9994300000000003
 30
0.0
 10
6.7236900000000004
 20
9.0374800000000004
 30
0.0
 10
5.3107500000000005
 20
8.6242400000000004
 30
0.0
 10
5.3107500000000005
 20
8.6242400000000004
 30
0.0
 10
3.8977800000000005
 20
8.2110200000000013
 30
0.0
 10
3.1016500000000002
 20
7.7080300000000008
 30
0.0
 10
3.1333100000000003
 20
7.6869300000000003
 30
0.0
 10
3.1333100000000003
 20
7.6869300000000003
 30
0.0
 10
3.1649000000000003
 20
7.6658500000000007
 30
0.0
 10
5.1861400000000009
 20
8.6352100000000007
 30
0.0
 10
6.3201300000000007
 20
8.66751
 30
0.0
 10
6.3201300000000007
 20
8.66751
 30
0.0
 10
7.4541500000000003
 20
8.6997900000000001
 30
0.0
 10
6.8269700000000002
 20
8.2733000000000008
 30
0.0
 10
6.1719200000000001
 20
8.0904900000000008
 30
0.0
 10
6.1719200000000001
 20
8.0904900000000008
 30
0.0
 10
5.5168700000000008
 20
7.9077000000000011
 30
0.0
 10
4.6376100000000005
 20
7.9669300000000005
 30
0.0
 10
4.6107700000000005
 20
7.9535100000000005
 30
0.0
 10
4.6107700000000005
 20
7.9535100000000005
 30
0.0
 10
4.5839400000000001
 20
7.9400800000000009
 30
0.0
 10
5.7184100000000004
 20
7.6095700000000006
 30
0.0
 10
6.8969400000000007
 20
8.2637300000000007
 30
0.0
 10
6.8969400000000007
 20
8.2637300000000007
 30
0.0
 10
8.0650000000000013
 20
8.9126500000000011
 30
0.0
 10
8.6994500000000006
 20
8.9703300000000006
 30
0.0
 10
8.6994500000000006
 20
8.9703300000000006
 30
0.0
  0
SPLINE
  5
37
100
AcDbEntity
  8
Ebene 1
 62
     1
100
AcDbSpline
210
0.0
220
0.0
230
1.0
 70
     1
 71
     3
 72
    24
 73
    20
 74
     0
 42
0.0000000001
 43
0.0000000001
 40
0.0
 40
0.0
 40
0.0
 40
0.0
 40
0.2
 40
0.2
 40
0.2
 40
0.2
 40
0.4
 40
0.4
 40
0.4
 40
0.4
 40
0.6000000000000001
 40
0.6000000000000001
 40
0.6000000000000001
 40
0.6000000000000001
 40
0.8
 40
0.8
 40
0.8
 40
0.8
 40
1.0
 40
1.0
 40
1.0
 40
1.0
 10
0.9157900000000001
 20
3.7069500000000004
 30
0.0
 10
0.9157900000000001
 20
3.7069500000000004
 30
0.0
 10
0.8292600000000001
 20
3.6060100000000004
 30
0.0
 10
0.9013700000000001
 20
3.2743900000000004
 30
0.0
 10
0.9013700000000001
 20
3.2743900000000004
 30
0.0
 10
0.9734600000000001
 20
2.9426900000000002
 30
0.0
 10
0.9878800000000001
 20
2.6687400000000001
 30
0.0
 10
0.9734600000000001
 20
2.49566
 30
0.0
 10
0.9734600000000001
 20
2.49566
 30
0.0
 10
0.9590400000000001
 20
2.3226500000000003
 30
0.0
 10
0.9446200000000001
 20
2.2505000000000002
 30
0.0
 10
0.9446200000000001
 20
2.2505000000000002
 30
0.0
 10
0.9446200000000001
 20
2.2505000000000002
 30
0.0
 10
0.9446200000000001
 20
2.2505000000000002
 30
0.0
 10
1.11185
 20
2.7331600000000003
 30
0.0
 10
1.05416
 20
3.2234700000000003
 30
0.0
 10
1.05416
 20
3.2234700000000003
 30
0.0
 10
0.9964900000000001
 20
3.7137000000000002
 30
0.0
 10
0.9157900000000001
 20
3.7069500000000004
 30
0.0
 10
0.9157900000000001
 20
3.7069500000000004
 30
0.0
  0
SPLINE
  5
38
100
AcDbEntity
  8
Ebene 1
 62
     1
100
AcDbSpline
210
0.0
220
0.0
230
1.0
 70
     1
 71
     3
 72
    20
 73
    16
 74
     0
 42
0.0000000001
 43
0.0000000001
 40
0.0
 40
0.0
 40
0.0
 40
0.0
 40
0.25
 40
0.25
 40
0.25
 40
0.25
 40
0.5
 40
0.5
 40
0.5
 40
0.5
 40
0.75
 40
0.75
 40
0.75
 40
0.75
 40
1.0
 40
1.0
 40
1.0
 40
1.0
 10
0.48561
 20
3.5174000000000003
 30
0.0
 10
0.48561
 20
3.5174000000000003
 30
0.0
 10
0.36781
 20
3.8078900000000004
 30
0.0
 10
0.52642
 20
4.1251899999999999
 30
0.0
 10
0.52642
 20
4.1251899999999999
 30
0.0
 10
0.6850700000000001
 20
4.4424100000000006
 30
0.0
 10
0.58413
 20
4.5433500000000002
 30
0.0
 10
0.4687500000000001
 20
4.4568099999999999
 30
0.0
 10
0.4687500000000001
 20
4.4568099999999999
 30
0.0
 10
0.35339
 20
4.3702700000000005
 30
0.0
 10
0.31014
 20
4.0819200000000002
 30
0.0
 10
0.35339
 20
3.8655600000000003
 30
0.0
 10
0.35339
 20
3.8655600000000003
 30
0.0
 10
0.3966500000000001
 20
3.6492800000000001
 30
0.0
 10
0.48561
 20
3.5174000000000003
 30
0.0
 10
0.48561
 20
3.5174000000000003
 30
0.0
  0
SPLINE
  5
39
100
AcDbEntity
  8
Ebene 1
 62
     1
100
AcDbSpline
210
0.0
220
0.0
230
1.0
 70
     1
 71
     3
 72
    32
 73
    28
 74
     0
 42
0.0000000001
 43
0.0000000001
 40
0.0
 40
0.0
 40
0.0
 40
0.0
 40
0.1428571428571429
 40
0.1428571428571429
 40
0.1428571428571429
 40
0.1428571428571429
 40
0.2857142857142857
 40
0.2857142857142857
 40
0.2857142857142857
 40
0.2857142857142857
 40
0.4285714285714286
 40
0.4285714285714286
 40
0.4285714285714286
 40
0.4285714285714286
 40
0.5714285714285714
 40
0.5714285714285714
 40
0.5714285714285714
 40
0.5714285714285714
 40
0.7142857142857142
 40
0.7142857142857142
 40
0.7142857142857142
 40
0.7142857142857142
 40
0.857142857142857
 40
0.857142857142857
 40
0.857142857142857
 40
0.857142857142857
 40
1.0
 40
1.0
 40
1.0
 40
1.0
 10
0.00671
 20
3.2498600000000004
 30
0.0
 10
0.00671
 20
3.2498600000000004
 30
0.0
 10
-0.13689
 20
3.0436300000000003
 30
0.0
 10
0.02173
 20
2.7408100000000002
 30
0.0
 10
0.02173
 20
2.7408100000000002
 30
0.0
 10
0.18035
 20
2.4379900000000001
 30
0.0
 10
0.21687
 20
2.11435
 30
0.0
 10
0.21687
 20
2.11435
 30
0.0
 10
0.21687
 20
2.11435
 30
0.0
 10
0.21687
 20
2.11435
 30
0.0
 10
0.20617
 20
2.4984800000000003
 30
0.0
 10
0.09847
 20
2.8635200000000003
 30
0.0
 10
0.09847
 20
2.8635200000000003
 30
0.0
 10
-0.00921
 20
3.2285700000000004
 30
0.0
 10
0.23619
 20
3.1347900000000002
 30
0.0
 10
0.2632000000000001
 20
2.9331200000000002
 30
0.0
 10
0.2632000000000001
 20
2.9331200000000002
 30
0.0
 10
0.29021
 20
2.7315100000000001
 30
0.0
 10
0.30769
 20
2.4954500000000004
 30
0.0
 10
0.31443
 20
2.5392700000000001
 30
0.0
 10
0.31443
 20
2.5392700000000001
 30
0.0
 10
0.32118
 20
2.5830900000000003
 30
0.0
 10
0.39699
 20
2.9005900000000002
 30
0.0
 10
0.23838
 20
3.1746200000000004
 30
0.0
 10
0.23838
 20
3.1746200000000004
 30
0.0
 10
0.07975
 20
3.4485700000000001
 30
0.0
 10
0.00671
 20
3.2498600000000004
 30
0.0
 10
0.00671
 20
3.2498600000000004
 30
0.0
  0
SPLINE
  5
3A
100
AcDbEntity
  8
Ebene 1
 62
     1
100
AcDbSpline
210
0.0
220
0.0
230
1.0
 70
     1
 71
     3
 72
   132
 73
   128
 74
     0
 42
0.0000000001
 43
0.0000000001
 40
0.0
 40
0.0
 40
0.0
 40
0.0
 40
0.03125
 40
0.03125
 40
0.03125
 40
0.03125
 40
0.0625
 40
0.0625
 40
0.0625
 40
0.0625
 40
0.09375
 40
0.09375
 40
0.09375
 40
0.09375
 40
0.125
 40
0.125
 40
0.125
 40
0.125
 40
0.15625
 40
0.15625
 40
0.15625
 40
0.15625
 40
0.1875
 40
0.1875
 40
0.1875
 40
0.1875
 40
0.21875
 40
0.21875
 40
0.21875
 40
0.21875
 40
0.25
 40
0.25
 40
0.25
 40
0.25
 40
0.28125
 40
0.28125
 40
0.28125
 40
0.28125
 40
0.3125
 40
0.3125
 40
0.3125
 40
0.3125
 40
0.34375
 40
0.34375
 40
0.34375
 40
0.34375
 40
0.375
 40
0.375
 40
0.375
 40
0.375
 40
0.40625
 40
0.40625
 40
0.40625
 40
0.40625
 40
0.4375
 40
0.4375
 40
0.4375
 40
0.4375
 40
0.46875
 40
0.46875
 40
0.46875
 40
0.46875
 40
0.5
 40
0.5
 40
0.5
 40
0.5
 40
0.53125
 40
0.53125
 40
0.53125
 40
0.53125
 40
0.5625
 40
0.5625
 40
0.5625
 40
0.5625
 40
0.59375
 40
0.59375
 40
0.59375
 40
0.59375
 40
0.625
 40
0.625
 40
0.625
 40
0.625
 40
0.65625
 40
0.65625
 40
0.65625
 40
0.65625
 40
0.6875
 40
0.6875
 40
0.6875
 40
0.6875
 40
0.71875
 40
0.71875
 40
0.71875
 40
0.71875
 40
0.75
 40
0.75
 40
0.75
 40
0.75
 40
0.78125
 40
0.78125
 40
0.78125
 40
0.78125
 40
0.8125
 40
0.8125
 40
0.8125
 40
0.8125
 40
0.84375
 40
0.84375
 40
0.84375
 40
0.84375
 40
0.875
 40
0.875
 40
0.875
 40
0.875
 40
0.90625
 40
0.90625
 40
0.90625
 40
0.90625
 40
0.9375
 40
0.9375
 40
0.9375
 40
0.9375
 40
0.96875
 40
0.96875
 40
0.96875
 40
0.96875
 40
1.0
 40
1.0
 40
1.0
 40
1.0
 10
0.8581000000000001
 20
5.3364500000000001
 30
0.0
 10
0.8581000000000001
 20
5.3364500000000001
 30
0.0
 10
0.16593
 20
5.3220300000000007
 30
0.0
 10
-0.1513
 20
4.8317800000000002
 30
0.0
 10
-0.1513
 20
4.8317800000000002
 30
0.0
 10
-0.46854
 20
4.3414700000000002
 30
0.0
 10
-0.4252900000000001
 20
4.1251899999999999
 30
0.0
 10
-0.4252900000000001
 20
4.1251899999999999
 30
0.0
 10
-0.4252900000000001
 20
4.1251899999999999
 30
0.0
 10
-0.4252900000000001
 20
4.1251899999999999
 30
0.0
 10
-0.03594
 20
4.4856800000000003
 30
0.0
 10
0.05057
 20
4.06745
 30
0.0
 10
0.05057
 20
4.06745
 30
0.0
 10
0.13709
 20
3.6492800000000001
 30
0.0
 10
-0.3983
 20
3.5989100000000005
 30
0.0
 10
-0.29736
 20
2.9356000000000004
 30
0.0
 10
-0.29736
 20
2.9356000000000004
 30
0.0
 10
-0.19642
 20
2.2722800000000003
 30
0.0
 10
0.10395
 20
2.1928300000000003
 30
0.0
 10
0.0607
 20
1.7602700000000002
 30
0.0
 10
0.0607
 20
1.7602700000000002
 30
0.0
 10
0.01743
 20
1.3276300000000001
 30
0.0
 10
-0.0176
 20
1.15717
 30
0.0
 10
0.141
 20
0.8831500000000001
 30
0.0
 10
0.141
 20
0.8831500000000001
 30
0.0
 10
0.29963
 20
0.60919
 30
0.0
 10
0.42364
 20
0.59072
 30
0.0
 10
0.42364
 20
0.59072
 30
0.0
 10
0.42364
 20
0.59072
 30
0.0
 10
0.42364
 20
0.59072
 30
0.0
 10
0.02359
 20
0.9023700000000001
 30
0.0
 10
0.0957
 20
1.4647500000000002
 30
0.0
 10
0.0957
 20
1.4647500000000002
 30
0.0
 10
0.16779
 20
2.02712
 30
0.0
 10
0.16593
 20
2.1351600000000004
 30
0.0
 10
-0.02153
 20
2.4812600000000002
 30
0.0
 10
-0.02153
 20
2.4812600000000002
 30
0.0
 10
-0.20897
 20
2.82735
 30
0.0
 10
-0.20897
 20
3.2599200000000002
 30
0.0
 10
-0.02153
 20
3.4330000000000003
 30
0.0
 10
-0.02153
 20
3.4330000000000003
 30
0.0
 10
0.16593
 20
3.6060100000000004
 30
0.0
 10
0.48317
 20
3.0436300000000003
 30
0.0
 10
0.4255
 20
2.4523900000000003
 30
0.0
 10
0.4255
 20
2.4523900000000003
 30
0.0
 10
0.36781
 20
1.8612100000000003
 30
0.0
 10
0.26653
 20
1.5893900000000001
 30
0.0
 10
0.3684
 20
1.2696800000000001
 30
0.0
 10
0.3684
 20
1.2696800000000001
 30
0.0
 10
0.47027
 20
0.9500500000000001
 30
0.0
 10
0.55527
 20
0.89507
 30
0.0
 10
0.55527
 20
0.89507
 30
0.0
 10
0.55527
 20
0.89507
 30
0.0
 10
0.55527
 20
0.89507
 30
0.0
 10
0.33224
 20
1.2818100000000001
 30
0.0
 10
0.38447
 20
1.6738600000000001
 30
0.0
 10
0.38447
 20
1.6738600000000001
 30
0.0
 10
0.4367
 20
2.0659900000000002
 30
0.0
 10
0.7139000000000001
 20
2.6110700000000002
 30
0.0
 10
0.54086
 20
3.1157700000000004
 30
0.0
 10
0.54086
 20
3.1157700000000004
 30
0.0
 10
0.36781
 20
3.6204800000000001
 30
0.0
 10
0.18035
 20
3.5916100000000002
 30
0.0
 10
0.23804
 20
4.1539900000000003
 30
0.0
 10
0.23804
 20
4.1539900000000003
 30
0.0
 10
0.2957
 20
4.7163700000000004
 30
0.0
 10
0.59855
 20
4.7740300000000007
 30
0.0
 10
0.7427400000000001
 20
4.5144800000000007
 30
0.0
 10
0.7427400000000001
 20
4.5144800000000007
 30
0.0
 10
0.8869300000000001
 20
4.2549300000000008
 30
0.0
 10
0.4687500000000001
 20
3.9233000000000002
 30
0.0
 10
0.58413
 20
3.4906700000000002
 30
0.0
 10
0.58413
 20
3.4906700000000002
 30
0.0
 10
0.6994900000000001
 20
3.0580400000000001
 30
0.0
 10
0.77158
 20
2.7840800000000003
 30
0.0
 10
0.7283200000000001
 20
2.3082400000000001
 30
0.0
 10
0.7283200000000001
 20
2.3082400000000001
 30
0.0
 10
0.7022900000000001
 20
2.0220900000000004
 30
0.0
 10
0.5793400000000001
 20
1.5275900000000002
 30
0.0
 10
0.6994900000000001
 20
1.25556
 30
0.0
 10
0.6994900000000001
 20
1.25556
 30
0.0
 10
0.6994900000000001
 20
1.25556
 30
0.0
 10
0.67215
 20
1.6188100000000001
 30
0.0
 10
0.7489100000000001
 20
1.9698000000000002
 30
0.0
 10
0.7489100000000001
 20
1.9698000000000002
 30
0.0
 10
0.8256500000000001
 20
2.3207800000000001
 30
0.0
 10
0.9013700000000001
 20
2.7696800000000001
 30
0.0
 10
0.8148400000000001
 20
3.1445700000000003
 30
0.0
 10
0.8148400000000001
 20
3.1445700000000003
 30
0.0
 10
0.7283200000000001
 20
3.5195400000000001
 30
0.0
 10
0.65622
 20
3.7502200000000001
 30
0.0
 10
0.8148400000000001
 20
3.8944400000000003
 30
0.0
 10
0.8148400000000001
 20
3.8944400000000003
 30
0.0
 10
0.9734600000000001
 20
4.03864
 30
0.0
 10
1.18855
 20
3.5712100000000002
 30
0.0
 10
1.21058
 20
3.1102600000000002
 30
0.0
 10
1.21058
 20
3.1102600000000002
 30
0.0
 10
1.2491700000000001
 20
2.30287
 30
0.0
 10
0.7954300000000001
 20
1.5645900000000001
 30
0.0
 10
0.9442800000000001
 20
0.9758200000000001
 30
0.0
 10
0.9442800000000001
 20
0.9758200000000001
 30
0.0
 10
1.0092700000000001
 20
0.71882
 30
0.0
 10
1.1593600000000002
 20
0.64288
 30
0.0
 10
1.1593600000000002
 20
0.64288
 30
0.0
 10
1.1593600000000002
 20
0.64288
 30
0.0
 10
0.5755800000000001
 20
1.4124500000000002
 30
0.0
 10
1.5291700000000001
 20
2.49173
 30
0.0
 10
1.27044
 20
3.5195400000000001
 30
0.0
 10
1.27044
 20
3.5195400000000001
 30
0.0
 10
1.1268500000000001
 20
4.0899800000000006
 30
0.0
 10
0.8725200000000001
 20
4.3558700000000004
 30
0.0
 10
0.9878800000000001
 20
4.6875600000000004
 30
0.0
 10
0.9878800000000001
 20
4.6875600000000004
 30
0.0
 10
1.1032300000000002
 20
5.01919
 30
0.0
 10
1.2186000000000001
 20
4.6154300000000008
 30
0.0
 10
1.2330300000000001
 20
4.4856800000000003
 30
0.0
 10
1.2330300000000001
 20
4.4856800000000003
 30
0.0
 10
1.2474500000000002
 20
4.3558700000000004
 30
0.0
 10
1.2474500000000002
 20
4.1107200000000006
 30
0.0
 10
1.2474500000000002
 20
4.1107200000000006
 30
0.0
 10
1.2474500000000002
 20
4.1107200000000006
 30
0.0
 10
1.2474500000000002
 20
4.1107200000000006
 30
0.0
 10
1.46923
 20
4.6059100000000006
 30
0.0
 10
1.33945
 20
4.9808100000000008
 30
0.0
 10
1.33945
 20
4.9808100000000008
 30
0.0
 10
1.2096600000000002
 20
5.3557600000000001
 30
0.0
 10
0.8581000000000001
 20
5.3364500000000001
 30
0.0
 10
0.8581000000000001
 20
5.3364500000000001
 30
0.0
  0
SPLINE
  5
3B
100
AcDbEntity
  8
Ebene 1
 62
     1
100
AcDbSpline
210
0.0
220
0.0
230
1.0
 70
     1
 71
     3
 72
    20
 73
    16
 74
     0
 42
0.0000000001
 43
0.0000000001
 40
0.0
 40
0.0
 40
0.0
 40
0.0
 40
0.25
 40
0.25
 40
0.25
 40
0.25
 40
0.5
 40
0.5
 40
0.5
 40
0.5
 40
0.75
 40
0.75
 40
0.75
 40
0.75
 40
1.0
 40
1.0
 40
1.0
 40
1.0
 10
-1.3193300000000001
 20
7.8599800000000011
 30
0.0
 10
-1.3193300000000001
 20
7.8599800000000011
 30
0.0
 10
-1.5933200000000001
 20
7.7302000000000008
 30
0.0
 10
-2.2133800000000003
 20
7.7446200000000003
 30
0.0
 10
-2.2133800000000003
 20
7.7446200000000003
 30
0.0
 10
-2.83345
 20
7.7590400000000006
 30
0.0
 10
-3.2666700000000004
 20
7.9956500000000004
 30
0.0
 10
-3.3093000000000004
 20
8.0041700000000002
 30
0.0
 10
-3.3093000000000004
 20
8.0041700000000002
 30
0.0
 10
-3.3519500000000004
 20
8.0127000000000006
 30
0.0
 10
-2.9655
 20
7.6470000000000002
 30
0.0
 10
-2.2710500000000002
 20
7.6292600000000004
 30
0.0
 10
-2.2710500000000002
 20
7.6292600000000004
 30
0.0
 10
-1.6494700000000002
 20
7.5996500000000005
 30
0.0
 10
-1.2957100000000001
 20
7.8481600000000009
 30
0.0
 10
-1.3193300000000001
 20
7.8599800000000011
 30
0.0
  0
SPLINE
  5
3C
100
AcDbEntity
  8
Ebene 1
 62
     1
100
AcDbSpline
210
0.0
220
0.0
230
1.0
 70
     1
 71
     3
 72
    20
 73
    16
 74
     0
 42
0.0000000001
 43
0.0000000001
 40
0.0
 40
0.0
 40
0.0
 40
0.0
 40
0.25
 40
0.25
 40
0.25
 40
0.25
 40
0.5
 40
0.5
 40
0.5
 40
0.5
 40
0.75
 40
0.75
 40
0.75
 40
0.75
 40
1.0
 40
1.0
 40
1.0
 40
1.0
 10
-0.9525800000000001
 20
7.9928700000000008
 30
0.0
 10
-0.9525800000000001
 20
7.9928700000000008
 30
0.0
 10
-2.0115000000000003
 20
8.4276300000000006
 30
0.0
 10
-2.7325100000000004
 20
8.5383000000000013
 30
0.0
 10
-2.7325100000000004
 20
8.5383000000000013
 30
0.0
 10
-3.4535100000000001
 20
8.6489900000000013
 30
0.0
 10
-3.4344100000000002
 20
8.4921199999999999
 30
0.0
 10
-3.4344100000000002
 20
8.4921199999999999
 30
0.0
 10
-3.4344100000000002
 20
8.4921199999999999
 30
0.0
 10
-3.4344100000000002
 20
8.4921199999999999
 30
0.0
 10
-3.2847700000000004
 20
8.23489
 30
0.0
 10
-2.4055300000000002
 20
8.1355200000000014
 30
0.0
 10
-2.4055300000000002
 20
8.1355200000000014
 30
0.0
 10
-1.7277800000000001
 20
8.0489899999999999
 30
0.0
 10
-0.9525800000000001
 20
7.9928700000000008
 30
0.0
 10
-0.9525800000000001
 20
7.9928700000000008
 30
0.0
  0
SPLINE
  5
3D
100
AcDbEntity
  8
Ebene 1
 62
     1
100
AcDbSpline
210
0.0
220
0.0
230
1.0
 70
     1
 71
     3
 72
    28
 73
    24
 74
     0
 42
0.0000000001
 43
0.0000000001
 40
0.0
 40
0.0
 40
0.0
 40
0.0
 40
0.1666666666666667
 40
0.1666666666666667
 40
0.1666666666666667
 40
0.1666666666666667
 40
0.3333333333333333
 40
0.3333333333333333
 40
0.3333333333333333
 40
0.3333333333333333
 40
0.5
 40
0.5
 40
0.5
 40
0.5
 40
0.6666666666666666
 40
0.6666666666666666
 40
0.6666666666666666
 40
0.6666666666666666
 40
0.8333333333333333
 40
0.8333333333333333
 40
0.8333333333333333
 40
0.8333333333333333
 40
1.0
 40
1.0
 40
1.0
 40
1.0
 10
-0.13804
 20
7.3537200000000009
 30
0.0
 10
-0.13804
 20
7.3537200000000009
 30
0.0
 10
-0.5983200000000001
 20
7.4706300000000008
 30
0.0
 10
-1.2328100000000002
 20
7.3264200000000006
 30
0.0
 10
-1.2328100000000002
 20
7.3264200000000006
 30
0.0
 10
-1.8673000000000002
 20
7.1822300000000006
 30
0.0
 10
-1.5933200000000001
 20
7.1101200000000002
 30
0.0
 10
-1.2183900000000001
 20
7.081290000000001
 30
0.0
 10
-1.2183900000000001
 20
7.081290000000001
 30
0.0
 10
-0.8434800000000001
 20
7.0524500000000003
 30
0.0
 10
-0.5550700000000001
 20
7.1389700000000005
 30
0.0
 10
-0.5550700000000001
 20
7.1389700000000005
 30
0.0
 10
-0.5550700000000001
 20
7.1389700000000005
 30
0.0
 10
-0.5550700000000001
 20
7.1389700000000005
 30
0.0
 10
-1.2359200000000001
 20
7.1779400000000004
 30
0.0
 10
-1.0710700000000002
 20
7.276930000000001
 30
0.0
 10
-1.0710700000000002
 20
7.276930000000001
 30
0.0
 10
-0.9062300000000001
 20
7.3759300000000003
 30
0.0
 10
-0.6415900000000001
 20
7.283170000000001
 30
0.0
 10
-0.35319
 20
7.225480000000001
 30
0.0
 10
-0.35319
 20
7.225480000000001
 30
0.0
 10
-0.06478
 20
7.1678100000000002
 30
0.0
 10
-0.13804
 20
7.3537200000000009
 30
0.0
 10
-0.13804
 20
7.3537200000000009
 30
0.0
  0
SPLINE
  5
3E
100
AcDbEntity
  8
Ebene 1
 62
     1
100
AcDbSpline
210
0.0
220
0.0
230
1.0
 70
     1
 71
     3
 72
    40
 73
    36
 74
     0
 42
0.0000000001
 43
0.0000000001
 40
0.0
 40
0.0
 40
0.0
 40
0.0
 40
0.1111111111111111
 40
0.1111111111111111
 40
0.1111111111111111
 40
0.1111111111111111
 40
0.2222222222222222
 40
0.2222222222222222
 40
0.2222222222222222
 40
0.2222222222222222
 40
0.3333333333333333
 40
0.3333333333333333
 40
0.3333333333333333
 40
0.3333333333333333
 40
0.4444444444444444
 40
0.4444444444444444
 40
0.4444444444444444
 40
0.4444444444444444
 40
0.5555555555555556
 40
0.5555555555555556
 40
0.5555555555555556
 40
0.5555555555555556
 40
0.6666666666666667
 40
0.6666666666666667
 40
0.6666666666666667
 40
0.6666666666666667
 40
0.7777777777777779
 40
0.7777777777777779
 40
0.7777777777777779
 40
0.7777777777777779
 40
0.8888888888888891
 40
0.8888888888888891
 40
0.8888888888888891
 40
0.8888888888888891
 40
1.0
 40
1.0
 40
1.0
 40
1.0
 10
-0.16572
 20
6.6631000000000009
 30
0.0
 10
-0.16572
 20
6.6631000000000009
 30
0.0
 10
-0.4829600000000001
 20
6.0862900000000009
 30
0.0
 10
-0.92998
 20
5.9709300000000001
 30
0.0
 10
-0.92998
 20
5.9709300000000001
 30
0.0
 10
-1.377
 20
5.8555700000000002
 30
0.0
 10
-1.6798400000000002
 20
5.9565100000000006
 30
0.0
 10
-1.6798400000000002
 20
5.9565100000000006
 30
0.0
 10
-1.6798400000000002
 20
5.9565100000000006
 30
0.0
 10
-1.6798400000000002
 20
5.9565100000000006
 30
0.0
 10
-1.39144
 20
5.7258000000000004
 30
0.0
 10
-0.94442
 20
5.7402100000000003
 30
0.0
 10
-0.94442
 20
5.7402100000000003
 30
0.0
 10
-0.49738
 20
5.7546300000000006
 30
0.0
 10
-0.4829600000000001
 20
5.5816000000000008
 30
0.0
 10
-0.6704300000000001
 20
5.4662400000000009
 30
0.0
 10
-0.6704300000000001
 20
5.4662400000000009
 30
0.0
 10
-0.85789
 20
5.3508600000000008
 30
0.0
 10
-1.1318600000000001
 20
5.3508600000000008
 30
0.0
 10
-1.1318600000000001
 20
5.3508600000000008
 30
0.0
 10
-1.1318600000000001
 20
5.3508600000000008
 30
0.0
 10
-1.1318600000000001
 20
5.3508600000000008
 30
0.0
 10
-0.72811
 20
5.2499200000000004
 30
0.0
 10
-0.39644
 20
5.4229700000000003
 30
0.0
 10
-0.39644
 20
5.4229700000000003
 30
0.0
 10
-0.06478
 20
5.5960200000000002
 30
0.0
 10
0.33619
 20
5.6536900000000001
 30
0.0
 10
0.33619
 20
5.6536900000000001
 30
0.0
 10
0.33619
 20
5.6536900000000001
 30
0.0
 10
0.33619
 20
5.6536900000000001
 30
0.0
 10
-0.5262300000000001
 20
5.6825400000000004
 30
0.0
 10
-0.3387500000000001
 20
6.1007300000000004
 30
0.0
 10
-0.3387500000000001
 20
6.1007300000000004
 30
0.0
 10
-0.1513
 20
6.5189100000000009
 30
0.0
 10
-0.16572
 20
6.6631000000000009
 30
0.0
 10
-0.16572
 20
6.6631000000000009
 30
0.0
  0
SPLINE
  5
3F
100
AcDbEntity
  8
Ebene 1
 62
     1
100
AcDbSpline
210
0.0
220
0.0
230
1.0
 70
     1
 71
     3
 72
    32
 73
    28
 74
     0
 42
0.0000000001
 43
0.0000000001
 40
0.0
 40
0.0
 40
0.0
 40
0.0
 40
0.1428571428571429
 40
0.1428571428571429
 40
0.1428571428571429
 40
0.1428571428571429
 40
0.2857142857142857
 40
0.2857142857142857
 40
0.2857142857142857
 40
0.2857142857142857
 40
0.4285714285714286
 40
0.4285714285714286
 40
0.4285714285714286
 40
0.4285714285714286
 40
0.5714285714285714
 40
0.5714285714285714
 40
0.5714285714285714
 40
0.5714285714285714
 40
0.7142857142857142
 40
0.7142857142857142
 40
0.7142857142857142
 40
0.7142857142857142
 40
0.857142857142857
 40
0.857142857142857
 40
0.857142857142857
 40
0.857142857142857
 40
1.0
 40
1.0
 40
1.0
 40
1.0
 10
-0.16572
 20
7.023600000000001
 30
0.0
 10
-0.16572
 20
7.023600000000001
 30
0.0
 10
-0.9011400000000001
 20
6.6631000000000009
 30
0.0
 10
-1.7086800000000002
 20
6.6775200000000003
 30
0.0
 10
-1.7086800000000002
 20
6.6775200000000003
 30
0.0
 10
-2.5162100000000001
 20
6.6919400000000007
 30
0.0
 10
-3.0209100000000002
 20
7.1678100000000002
 30
0.0
 10
-3.0209100000000002
 20
7.1678100000000002
 30
0.0
 10
-3.0209100000000002
 20
7.1678100000000002
 30
0.0
 10
-3.0209100000000002
 20
7.1678100000000002
 30
0.0
 10
-2.7180900000000001
 20
6.7496300000000007
 30
0.0
 10
-2.19896
 20
6.5765800000000008
 30
0.0
 10
-2.19896
 20
6.5765800000000008
 30
0.0
 10
-1.6798400000000002
 20
6.4035300000000008
 30
0.0
 10
-1.4779600000000002
 20
6.5333300000000003
 30
0.0
 10
-1.3337500000000002
 20
6.3458600000000009
 30
0.0
 10
-1.3337500000000002
 20
6.3458600000000009
 30
0.0
 10
-1.1895500000000001
 20
6.1583900000000007
 30
0.0
 10
-2.1268600000000002
 20
6.3747000000000007
 30
0.0
 10
-2.1268600000000002
 20
6.3747000000000007
 30
0.0
 10
-2.1268600000000002
 20
6.3747000000000007
 30
0.0
 10
-2.1268600000000002
 20
6.3747000000000007
 30
0.0
 10
-1.8817200000000001
 20
6.0574500000000002
 30
0.0
 10
-1.1462800000000002
 20
6.0718700000000005
 30
0.0
 10
-1.1462800000000002
 20
6.0718700000000005
 30
0.0
 10
-0.4108600000000001
 20
6.0862900000000009
 30
0.0
 10
-0.16572
 20
7.023600000000001
 30
0.0
 10
-0.16572
 20
7.023600000000001
 30
0.0
  0
SPLINE
  5
40
100
AcDbEntity
  8
Ebene 1
 62
     1
100
AcDbSpline
210
0.0
220
0.0
230
1.0
 70
     1
 71
     3
 72
    48
 73
    44
 74
     0
 42
0.0000000001
 43
0.0000000001
 40
0.0
 40
0.0
 40
0.0
 40
0.0
 40
0.0909090909090909
 40
0.0909090909090909
 40
0.0909090909090909
 40
0.0909090909090909
 40
0.1818181818181818
 40
0.1818181818181818
 40
0.1818181818181818
 40
0.1818181818181818
 40
0.2727272727272727
 40
0.2727272727272727
 40
0.2727272727272727
 40
0.2727272727272727
 40
0.3636363636363637
 40
0.3636363636363637
 40
0.3636363636363637
 40
0.3636363636363637
 40
0.4545454545454546
 40
0.4545454545454546
 40
0.4545454545454546
 40
0.4545454545454546
 40
0.5454545454545455
 40
0.5454545454545455
 40
0.5454545454545455
 40
0.5454545454545455
 40
0.6363636363636365
 40
0.6363636363636365
 40
0.6363636363636365
 40
0.6363636363636365
 40
0.7272727272727274
 40
0.7272727272727274
 40
0.7272727272727274
 40
0.7272727272727274
 40
0.8181818181818183
 40
0.8181818181818183
 40
0.8181818181818183
 40
0.8181818181818183
 40
0.9090909090909093
 40
0.9090909090909093
 40
0.9090909090909093
 40
0.9090909090909093
 40
1.0
 40
1.0
 40
1.0
 40
1.0
 10
-5.0786000000000007
 20
8.7671800000000015
 30
0.0
 10
-5.1033900000000001
 20
8.791970000000001
 30
0.0
 10
-4.4301300000000001
 20
8.6635500000000008
 30
0.0
 10
-3.5544500000000001
 20
7.9897600000000004
 30
0.0
 10
-3.5544500000000001
 20
7.9897600000000004
 30
0.0
 10
-2.6787800000000002
 20
7.3159600000000005
 30
0.0
 10
-1.9105600000000003
 20
7.5139000000000005
 30
0.0
 10
-1.5212100000000002
 20
7.5715700000000004
 30
0.0
 10
-1.5212100000000002
 20
7.5715700000000004
 30
0.0
 10
-1.1318600000000001
 20
7.6292600000000004
 30
0.0
 10
-0.9011400000000001
 20
7.7590400000000006
 30
0.0
 10
-0.9011400000000001
 20
7.7590400000000006
 30
0.0
 10
-0.9011400000000001
 20
7.7590400000000006
 30
0.0
 10
-0.9011400000000001
 20
7.7590400000000006
 30
0.0
 10
-0.62717
 20
7.7157700000000009
 30
0.0
 10
-0.35319
 20
7.600410000000001
 30
0.0
 10
-0.35319
 20
7.600410000000001
 30
0.0
 10
-0.0792
 20
7.4850500000000002
 30
0.0
 10
0.06499
 20
7.4273600000000002
 30
0.0
 10
0.06499
 20
7.4273600000000002
 30
0.0
 10
0.06499
 20
7.4273600000000002
 30
0.0
 10
0.01431
 20
7.3868300000000007
 30
0.0
 10
-1.0253400000000001
 20
7.7087000000000003
 30
0.0
 10
-1.6942600000000001
 20
7.3264200000000006
 30
0.0
 10
-1.6942600000000001
 20
7.3264200000000006
 30
0.0
 10
-2.3631800000000003
 20
6.9441500000000005
 30
0.0
 10
-1.2950700000000002
 20
6.9135100000000005
 30
0.0
 10
-0.94442
 20
6.9803500000000005
 30
0.0
 10
-0.94442
 20
6.9803500000000005
 30
0.0
 10
-0.5937600000000001
 20
7.0471800000000009
 30
0.0
 10
-0.16519
 20
7.1544800000000004
 30
0.0
 10
-0.18014
 20
7.1245400000000005
 30
0.0
 10
-0.18014
 20
7.1245400000000005
 30
0.0
 10
-0.19511
 20
7.0946200000000008
 30
0.0
 10
-1.1030300000000002
 20
6.6486800000000006
 30
0.0
 10
-2.0115000000000003
 20
6.8505700000000003
 30
0.0
 10
-2.0115000000000003
 20
6.8505700000000003
 30
0.0
 10
-2.9199700000000002
 20
7.0524500000000003
 30
0.0
 10
-3.2804600000000002
 20
7.5859900000000007
 30
0.0
 10
-3.8717000000000001
 20
8.0618600000000011
 30
0.0
 10
-3.8717000000000001
 20
8.0618600000000011
 30
0.0
 10
-4.4629300000000001
 20
8.5377200000000002
 30
0.0
 10
-5.0786000000000007
 20
8.7671800000000015
 30
0.0
 10
-5.0786000000000007
 20
8.7671800000000015
 30
0.0
  0
SPLINE
  5
41
100
AcDbEntity
  8
Ebene 1
 62
     1
100
AcDbSpline
210
0.0
220
0.0
230
1.0
 70
     1
 71
     3
 72
    68
 73
    64
 74
     0
 42
0.0000000001
 43
0.0000000001
 40
0.0
 40
0.0
 40
0.0
 40
0.0
 40
0.0625
 40
0.0625
 40
0.0625
 40
0.0625
 40
0.125
 40
0.125
 40
0.125
 40
0.125
 40
0.1875
 40
0.1875
 40
0.1875
 40
0.1875
 40
0.25
 40
0.25
 40
0.25
 40
0.25
 40
0.3125
 40
0.3125
 40
0.3125
 40
0.3125
 40
0.375
 40
0.375
 40
0.375
 40
0.375
 40
0.4375
 40
0.4375
 40
0.4375
 40
0.4375
 40
0.5
 40
0.5
 40
0.5
 40
0.5
 40
0.5625
 40
0.5625
 40
0.5625
 40
0.5625
 40
0.625
 40
0.625
 40
0.625
 40
0.625
 40
0.6875
 40
0.6875
 40
0.6875
 40
0.6875
 40
0.75
 40
0.75
 40
0.75
 40
0.75
 40
0.8125
 40
0.8125
 40
0.8125
 40
0.8125
 40
0.875
 40
0.875
 40
0.875
 40
0.875
 40
0.9375
 40
0.9375
 40
0.9375
 40
0.9375
 40
1.0
 40
1.0
 40
1.0
 40
1.0
 10
-5.2560200000000004
 20
8.7684500000000014
 30
0.0
 10
-5.2560200000000004
 20
8.7684500000000014
 30
0.0
 10
-4.4773400000000008
 20
7.8888200000000008
 30
0.0
 10
-4.20336
 20
7.2687500000000007
 30
0.0
 10
-4.20336
 20
7.2687500000000007
 30
0.0
 10
-3.9293900000000002
 20
6.6486800000000006
 30
0.0
 10
-3.9726400000000002
 20
6.1295600000000006
 30
0.0
 10
-3.9726400000000002
 20
6.1295600000000006
 30
0.0
 10
-3.9726400000000002
 20
6.1295600000000006
 30
0.0
 10
-3.9726400000000002
 20
6.1295600000000006
 30
0.0
 10
-3.3237400000000004
 20
6.3025900000000004
 30
0.0
 10
-2.7902
 20
5.7690700000000001
 30
0.0
 10
-2.7902
 20
5.7690700000000001
 30
0.0
 10
-2.25664
 20
5.2355100000000006
 30
0.0
 10
-2.1845300000000001
 20
4.65869
 30
0.0
 10
-2.1845300000000001
 20
4.65869
 30
0.0
 10
-2.1845300000000001
 20
4.65869
 30
0.0
 10
-2.1845300000000001
 20
4.65869
 30
0.0
 10
-1.377
 20
4.9038500000000003
 30
0.0
 10
-0.9588300000000001
 20
4.7596300000000005
 30
0.0
 10
-0.9588300000000001
 20
4.7596300000000005
 30
0.0
 10
-0.5406500000000001
 20
4.6154300000000008
 30
0.0
 10
-0.5118200000000001
 20
4.4856800000000003
 30
0.0
 10
-0.5118200000000001
 20
4.4856800000000003
 30
0.0
 10
-0.5118200000000001
 20
4.4856800000000003
 30
0.0
 10
-0.5118200000000001
 20
4.4856800000000003
 30
0.0
 10
-0.3470200000000001
 20
5.1907200000000007
 30
0.0
 10
0.09174
 20
5.3508600000000008
 30
0.0
 10
0.09174
 20
5.3508600000000008
 30
0.0
 10
0.53049
 20
5.5110100000000006
 30
0.0
 10
0.7959100000000001
 20
5.4905600000000003
 30
0.0
 10
0.8148400000000001
 20
5.5094800000000008
 30
0.0
 10
0.8148400000000001
 20
5.5094800000000008
 30
0.0
 10
0.8337600000000001
 20
5.52841
 30
0.0
 10
0.39911
 20
5.5527500000000005
 30
0.0
 10
-0.01326
 20
5.3855200000000005
 30
0.0
 10
-0.01326
 20
5.3855200000000005
 30
0.0
 10
-0.4256200000000001
 20
5.2183000000000002
 30
0.0
 10
-0.6127400000000001
 20
4.8605800000000006
 30
0.0
 10
-0.6127400000000001
 20
4.8605800000000006
 30
0.0
 10
-0.6127400000000001
 20
4.8605800000000006
 30
0.0
 10
-0.6127400000000001
 20
4.8605800000000006
 30
0.0
 10
-1.0597700000000001
 20
5.0480600000000004
 30
0.0
 10
-1.5067900000000001
 20
4.9759200000000003
 30
0.0
 10
-1.5067900000000001
 20
4.9759200000000003
 30
0.0
 10
-1.9538100000000003
 20
4.9038500000000003
 30
0.0
 10
-2.0547500000000003
 20
4.8461800000000004
 30
0.0
 10
-2.0547500000000003
 20
4.8461800000000004
 30
0.0
 10
-2.0547500000000003
 20
4.8461800000000004
 30
0.0
 10
-2.0547500000000003
 20
4.8461800000000004
 30
0.0
 10
-2.40083
 20
5.8267400000000009
 30
0.0
 10
-3.0353300000000001
 20
6.1007300000000004
 30
0.0
 10
-3.0353300000000001
 20
6.1007300000000004
 30
0.0
 10
-3.6698200000000001
 20
6.3747000000000007
 30
0.0
 10
-3.8861100000000004
 20
6.2160800000000007
 30
0.0
 10
-3.8861100000000004
 20
6.2160800000000007
 30
0.0
 10
-3.8861100000000004
 20
6.2160800000000007
 30
0.0
 10
-3.8861100000000004
 20
6.2160800000000007
 30
0.0
 10
-3.7419200000000004
 20
6.8794000000000004
 30
0.0
 10
-4.2321900000000001
 20
7.6148400000000009
 30
0.0
 10
-4.2321900000000001
 20
7.6148400000000009
 30
0.0
 10
-4.7225000000000001
 20
8.3502500000000008
 30
0.0
 10
-5.2560200000000004
 20
8.7684500000000014
 30
0.0
 10
-5.2560200000000004
 20
8.7684500000000014
 30
0.0
  0
SPLINE
  5
42
100
AcDbEntity
  8
Ebene 1
 62
     1
100
AcDbSpline
210
0.0
220
0.0
230
1.0
 70
     1
 71
     3
 72
    32
 73
    28
 74
     0
 42
0.0000000001
 43
0.0000000001
 40
0.0
 40
0.0
 40
0.0
 40
0.0
 40
0.1428571428571429
 40
0.1428571428571429
 40
0.1428571428571429
 40
0.1428571428571429
 40
0.2857142857142857
 40
0.2857142857142857
 40
0.2857142857142857
 40
0.2857142857142857
 40
0.4285714285714286
 40
0.4285714285714286
 40
0.4285714285714286
 40
0.4285714285714286
 40
0.5714285714285714
 40
0.5714285714285714
 40
0.5714285714285714
 40
0.5714285714285714
 40
0.7142857142857142
 40
0.7142857142857142
 40
0.7142857142857142
 40
0.7142857142857142
 40
0.857142857142857
 40
0.857142857142857
 40
0.857142857142857
 40
0.857142857142857
 40
1.0
 40
1.0
 40
1.0
 40
1.0
 10
-5.4290900000000004
 20
8.9703300000000006
 30
0.0
 10
-5.4727400000000008
 20
8.9994300000000003
 30
0.0
 10
-3.4532900000000004
 20
9.0374800000000004
 30
0.0
 10
-2.04033
 20
8.6242400000000004
 30
0.0
 10
-2.04033
 20
8.6242400000000004
 30
0.0
 10
-0.6273800000000001
 20
8.2110200000000013
 30
0.0
 10
0.16872
 20
7.7080300000000008
 30
0.0
 10
0.13709
 20
7.6869300000000003
 30
0.0
 10
0.13709
 20
7.6869300000000003
 30
0.0
 10
0.10546
 20
7.6658500000000007
 30
0.0
 10
-1.9157400000000002
 20
8.6352100000000007
 30
0.0
 10
-3.0497500000000004
 20
8.66751
 30
0.0
 10
-3.0497500000000004
 20
8.66751
 30
0.0
 10
-4.18377
 20
8.6997900000000001
 30
0.0
 10
-3.5565700000000002
 20
8.2733000000000008
 30
0.0
 10
-2.9015200000000001
 20
8.0904900000000008
 30
0.0
 10
-2.9015200000000001
 20
8.0904900000000008
 30
0.0
 10
-2.24647
 20
7.9077000000000011
 30
0.0
 10
-1.3672200000000001
 20
7.9669300000000005
 30
0.0
 10
-1.3403800000000001
 20
7.9535100000000005
 30
0.0
 10
-1.3403800000000001
 20
7.9535100000000005
 30
0.0
 10
-1.31352
 20
7.9400800000000009
 30
0.0
 10
-2.44801
 20
7.6095700000000006
 30
0.0
 10
-3.6265600000000004
 20
8.2637300000000007
 30
0.0
 10
-3.6265600000000004
 20
8.2637300000000007
 30
0.0
 10
-4.7945900000000004
 20
8.9126500000000011
 30
0.0
 10
-5.4290900000000004
 20
8.9703300000000006
 30
0.0
 10
-5.4290900000000004
 20
8.9703300000000006
 30
0.0
  0
ENDSEC
  0
SECTION
  2
OBJECTS
  0
DICTIONARY
  5
19
100
AcDbDictionary
280
     0
281
     1
  3
ACAD_GROUP
350
1A
  3
ACAD_MLINESTYLE
350
1B
  3
ACAD_LAYOUT
350
1E
  3
ACAD_PLOTSETTINGS
350
22
  3
ACAD_PLOTSTYLENAME
350
1F
  3
ACAD_WIPEOUT_VARS
350
23
  0
DICTIONARY
  5
1A
102
{ACAD_REACTORS
330
19
102
}
100
AcDbDictionary
280
     0
281
     1
  0
DICTIONARY
  5
1B
102
{ACAD_REACTORS
330
19
102
}
100
AcDbDictionary
280
     0
281
     1
  3
Standard
350
1C
  0
MLINESTYLE
  5
1C
102
{ACAD_REACTORS
330
1B
102
}
100
AcDbMlineStyle
  2
Standard
 70
     0
  3

 62
     0
 51
90.0
 52
90.0
 71
     2
 49
0.5
 62
   256
  6
BYLAYER
 49
-0.5
 62
   256
  6
BYLAYER
  0
ACDBDICTIONARYWDFLT
  5
1F
102
{ACAD_REACTORS
330
19
102
}
100
AcDbDictionary
281
     1
  3
Normal
350
1D
100
AcDbDictionaryWithDefault
340
1D
  0
ACDBPLACEHOLDER
  5
1D
102
{ACAD_REACTORS
330
1F
102
}
  0
LAYOUT
  5
20
102
{ACAD_REACTORS
330
1E
102
}
100
AcDbPlotSettings
  1

  2

  4

  6

 40
0.0
 41
0.0
 42
0.0
 43
0.0
 44
0.0
 45
0.0
 46
0.0
 47
0.0
 48
0.0
 49
0.0
140
0.0
141
0.0
142
1.0
143
1.0
 70
  1024
 72
     0
 73
     0
 74
     0
  7

 75
     0
147
1.0
148
0.0
149
0.0
100
AcDbLayout
  1
Model
 70
     0
 71
     0
 10
0.0
 20
0.0
 11
0.0
 21
0.0
 12
0.0
 22
0.0
 32
0.0
 14
0.0
 24
0.0
 34
0.0
 15
0.0
 25
0.0
 35
0.0
146
0.0
 13
0.0
 23
0.0
 33
0.0
 16
0.0
 26
0.0
 36
0.0
 17
0.0
 27
0.0
 37
0.0
 76
     0
330
A
331
0
345
0
346
0
  0
LAYOUT
  5
21
102
{ACAD_REACTORS
330
1E
102
}
100
AcDbPlotSettings
  1

  2

  4

  6

 40
0.0
 41
0.0
 42
0.0
 43
0.0
 44
0.0
 45
0.0
 46
0.0
 47
0.0
 48
0.0
 49
0.0
140
0.0
141
0.0
142
1.0
143
1.0
 70
     0
 72
     0
 73
     0
 74
     0
  7

 75
     0
147
1.0
148
0.0
149
0.0
100
AcDbLayout
  1
Layout1
 70
     0
 71
     0
 10
0.0
 20
0.0
 11
0.0
 21
0.0
 12
0.0
 22
0.0
 32
0.0
 14
0.0
 24
0.0
 34
0.0
 15
0.0
 25
0.0
 35
0.0
146
0.0
 13
0.0
 23
0.0
 33
0.0
 16
0.0
 26
0.0
 36
0.0
 17
0.0
 27
0.0
 37
0.0
 76
     0
330
B
331
0
345
0
346
0
  0
DICTIONARY
  5
1E
102
{ACAD_REACTORS
330
19
102
}
100
AcDbDictionary
280
     0
281
     1
  3
Layout1
350
21
  3
Model
350
20
  0
DICTIONARY
  5
22
102
{ACAD_REACTORS
330
19
102
}
100
AcDbDictionary
280
     0
281
     1
  0
WIPEOUTVARIABLES
  5
23
100
AcDbWipeoutVariables
 70
     1
  0
ENDSEC
  0
EOF
