  0
SECTION
  2
HEADER
  9
$ACADVER
  1
AC1015
  9
$ACADMAINTVER
 70
     6
  9
$DWGCODEPAGE
  3
ANSI_1252
  9
$INSBASE
 10
0.0
 20
0.0
 30
0.0
  9
$EXTMIN
 10
-7.51274
 20
-9.52756
 30
0.0
  9
$EXTMAX
 10
6.64774
 20
10.6885
 30
0.0
  9
$LIMMIN
 10
0.0
 20
0.0
  9
$LIMMAX
 10
12.0
 20
9.0
  9
$ORTHOMODE
 70
     0
  9
$REGENMODE
 70
     1
  9
$FILLMODE
 70
     1
  9
$QTEXTMODE
 70
     0
  9
$MIRRTEXT
 70
     1
  9
$LTSCALE
 40
1.0
  9
$ATTMODE
 70
     1
  9
$TEXTSIZE
 40
0.2
  9
$TRACEWID
 40
0.05
  9
$TEXTSTYLE
  7
Standard
  9
$CLAYER
  8
0
  9
$CELTYPE
  6
ByLayer
  9
$CECOLOR
 62
   256
  9
$CELTSCALE
 40
1.0
  9
$DISPSILH
 70
     0
  9
$DIMSCALE
 40
1.0
  9
$DIMASZ
 40
0.18
  9
$DIMEXO
 40
0.0625
  9
$DIMDLI
 40
0.38
  9
$DIMRND
 40
0.0
  9
$DIMDLE
 40
0.0
  9
$DIMEXE
 40
0.18
  9
$DIMTP
 40
0.0
  9
$DIMTM
 40
0.0
  9
$DIMTXT
 40
0.18
  9
$DIMCEN
 40
0.09
  9
$DIMTSZ
 40
0.0
  9
$DIMTOL
 70
     0
  9
$DIMLIM
 70
     0
  9
$DIMTIH
 70
     1
  9
$DIMTOH
 70
     1
  9
$DIMSE1
 70
     0
  9
$DIMSE2
 70
     0
  9
$DIMTAD
 70
     0
  9
$DIMZIN
 70
     0
  9
$DIMBLK
  1

  9
$DIMASO
 70
     1
  9
$DIMSHO
 70
     1
  9
$DIMPOST
  1

  9
$DIMAPOST
  1

  9
$DIMALT
 70
     0
  9
$DIMALTD
 70
     2
  9
$DIMALTF
 40
25.4
  9
$DIMLFAC
 40
1.0
  9
$DIMTOFL
 70
     0
  9
$DIMTVP
 40
0.0
  9
$DIMTIX
 70
     0
  9
$DIMSOXD
 70
     0
  9
$DIMSAH
 70
     0
  9
$DIMBLK1
  1

  9
$DIMBLK2
  1

  9
$DIMSTYLE
  2
Standard
  9
$DIMCLRD
 70
     0
  9
$DIMCLRE
 70
     0
  9
$DIMCLRT
 70
     0
  9
$DIMTFAC
 40
1.0
  9
$DIMGAP
 40
0.09
  9
$DIMJUST
 70
     0
  9
$DIMSD1
 70
     0
  9
$DIMSD2
 70
     0
  9
$DIMTOLJ
 70
     1
  9
$DIMTZIN
 70
     0
  9
$DIMALTZ
 70
     0
  9
$DIMALTTZ
 70
     0
  9
$DIMUPT
 70
     0
  9
$DIMDEC
 70
     4
  9
$DIMTDEC
 70
     4
  9
$DIMALTU
 70
     2
  9
$DIMALTTD
 70
     2
  9
$DIMTXSTY
  7
Standard
  9
$DIMAUNIT
 70
     0
  9
$DIMADEC
 70
     0
  9
$DIMALTRND
 40
0.0
  9
$DIMAZIN
 70
     0
  9
$DIMDSEP
 70
    46
  9
$DIMATFIT
 70
     3
  9
$DIMFRAC
 70
     0
  9
$DIMLDRBLK
  1

  9
$DIMLUNIT
 70
     2
  9
$DIMLWD
 70
    -2
  9
$DIMLWE
 70
    -2
  9
$DIMTMOVE
 70
     0
  9
$LUNITS
 70
     2
  9
$LUPREC
 70
     4
  9
$SKETCHINC
 40
0.1
  9
$FILLETRAD
 40
0.5
  9
$AUNITS
 70
     0
  9
$AUPREC
 70
     0
  9
$MENU
  1
.
  9
$ELEVATION
 40
0.0
  9
$PELEVATION
 40
0.0
  9
$THICKNESS
 40
0.0
  9
$LIMCHECK
 70
     0
  9
$CHAMFERA
 40
0.5
  9
$CHAMFERB
 40
0.5
  9
$CHAMFERC
 40
1.0
  9
$CHAMFERD
 40
0.0
  9
$SKPOLY
 70
     0
  9
$TDCREATE
 40
2458031.526510428
  9
$TDUCREATE
 40
2458031.297343762
  9
$TDUPDATE
 40
2458031.526510428
  9
$TDUUPDATE
 40
2458031.297343762
  9
$TDINDWG
 40
0.0000000116
  9
$TDUSRTIMER
 40
0.0000000116
  9
$USRTIMER
 70
     1
  9
$ANGBASE
 50
0.0
  9
$ANGDIR
 70
     0
  9
$PDMODE
 70
     0
  9
$PDSIZE
 40
0.0
  9
$PLINEWID
 40
0.0
  9
$SPLFRAME
 70
     0
  9
$SPLINETYPE
 70
     6
  9
$SPLINESEGS
 70
     8
  9
$HANDSEED
  5
E6
  9
$SURFTAB1
 70
     6
  9
$SURFTAB2
 70
     6
  9
$SURFTYPE
 70
     6
  9
$SURFU
 70
     6
  9
$SURFV
 70
     6
  9
$UCSBASE
  2

  9
$UCSNAME
  2

  9
$UCSORG
 10
0.0
 20
0.0
 30
0.0
  9
$UCSXDIR
 10
1.0
 20
0.0
 30
0.0
  9
$UCSYDIR
 10
0.0
 20
1.0
 30
0.0
  9
$UCSORTHOREF
  2

  9
$UCSORTHOVIEW
 70
     0
  9
$UCSORGTOP
 10
0.0
 20
0.0
 30
0.0
  9
$UCSORGBOTTOM
 10
0.0
 20
0.0
 30
0.0
  9
$UCSORGLEFT
 10
0.0
 20
0.0
 30
0.0
  9
$UCSORGRIGHT
 10
0.0
 20
0.0
 30
0.0
  9
$UCSORGFRONT
 10
0.0
 20
0.0
 30
0.0
  9
$UCSORGBACK
 10
0.0
 20
0.0
 30
0.0
  9
$PUCSBASE
  2

  9
$PUCSNAME
  2

  9
$PUCSORG
 10
0.0
 20
0.0
 30
0.0
  9
$PUCSXDIR
 10
1.0
 20
0.0
 30
0.0
  9
$PUCSYDIR
 10
0.0
 20
1.0
 30
0.0
  9
$PUCSORTHOREF
  2

  9
$PUCSORTHOVIEW
 70
     0
  9
$PUCSORGTOP
 10
0.0
 20
0.0
 30
0.0
  9
$PUCSORGBOTTOM
 10
0.0
 20
0.0
 30
0.0
  9
$PUCSORGLEFT
 10
0.0
 20
0.0
 30
0.0
  9
$PUCSORGRIGHT
 10
0.0
 20
0.0
 30
0.0
  9
$PUCSORGFRONT
 10
0.0
 20
0.0
 30
0.0
  9
$PUCSORGBACK
 10
0.0
 20
0.0
 30
0.0
  9
$USERI1
 70
     0
  9
$USERI2
 70
     0
  9
$USERI3
 70
     0
  9
$USERI4
 70
     0
  9
$USERI5
 70
     0
  9
$USERR1
 40
0.0
  9
$USERR2
 40
0.0
  9
$USERR3
 40
0.0
  9
$USERR4
 40
0.0
  9
$USERR5
 40
0.0
  9
$WORLDVIEW
 70
     1
  9
$SHADEDGE
 70
     3
  9
$SHADEDIF
 70
    70
  9
$TILEMODE
 70
     1
  9
$MAXACTVP
 70
    64
  9
$PINSBASE
 10
0.0
 20
0.0
 30
0.0
  9
$PLIMCHECK
 70
     0
  9
$PEXTMIN
 10
1.000000000000000E+20
 20
1.000000000000000E+20
 30
1.000000000000000E+20
  9
$PEXTMAX
 10
-1.000000000000000E+20
 20
-1.000000000000000E+20
 30
-1.000000000000000E+20
  9
$PLIMMIN
 10
0.0
 20
0.0
  9
$PLIMMAX
 10
12.0
 20
9.0
  9
$UNITMODE
 70
     0
  9
$VISRETAIN
 70
     1
  9
$PLINEGEN
 70
     0
  9
$PSLTSCALE
 70
     1
  9
$TREEDEPTH
 70
  3020
  9
$CMLSTYLE
  2
Standard
  9
$CMLJUST
 70
     0
  9
$CMLSCALE
 40
1.0
  9
$PROXYGRAPHICS
 70
     1
  9
$MEASUREMENT
 70
     0
  9
$CELWEIGHT
370
    -1
  9
$ENDCAPS
280
     0
  9
$JOINSTYLE
280
     0
  9
$LWDISPLAY
290
     0
  9
$INSUNITS
 70
     5
  9
$HYPERLINKBASE
  1

  9
$STYLESHEET
  1

  9
$XEDIT
290
     1
  9
$CEPSNTYPE
380
     0
  9
$PSTYLEMODE
290
     1
  9
$FINGERPRINTGUID
  2
{24CFD7B0-445E-4E21-9B3D-4A1FD6CB2402}
  9
$VERSIONGUID
  2
{FAEB1C32-E019-11D5-929B-00C0DF256EC4}
  9
$EXTNAMES
290
     1
  9
$PSVPSCALE
 40
0.0
  9
$OLESTARTUP
290
     0
  0
ENDSEC
  0
SECTION
  2
CLASSES
  0
CLASS
  1
ACDBDICTIONARYWDFLT
  2
AcDbDictionaryWithDefault
  3
ObjectDBX Classes
 90
        0
280
     0
281
     0
  0
CLASS
  1
VISUALSTYLE
  2
AcDbVisualStyle
  3
ObjectDBX Classes
 90
     4095
280
     0
281
     0
  0
CLASS
  1
MATERIAL
  2
AcDbMaterial
  3
ObjectDBX Classes
 90
     1153
280
     0
281
     0
  0
CLASS
  1
DICTIONARYVAR
  2
AcDbDictionaryVar
  3
ObjectDBX Classes
 90
        0
280
     0
281
     0
  0
CLASS
  1
ACDBPLACEHOLDER
  2
AcDbPlaceHolder
  3
ObjectDBX Classes
 90
        0
280
     0
281
     0
  0
CLASS
  1
LAYOUT
  2
AcDbLayout
  3
ObjectDBX Classes
 90
        0
280
     0
281
     0
  0
ENDSEC
  0
SECTION
  2
TABLES
  0
TABLE
  2
VPORT
  5
8
330
0
100
AcDbSymbolTable
 70
     1
  0
VPORT
  5
29
330
8
100
AcDbSymbolTableRecord
100
AcDbViewportTableRecord
  2
*Active
 70
     0
 10
0.0
 20
0.0
 11
1.0
 21
1.0
 12
10.42990654205607
 22
4.5
 13
0.0
 23
0.0
 14
0.5
 24
0.5
 15
0.5
 25
0.5
 16
0.0
 26
0.0
 36
1.0
 17
0.0
 27
0.0
 37
0.0
 40
9.0
 41
1.972972972850329
 42
50.0
 43
0.0
 44
0.0
 50
0.0
 51
0.0
 71
     0
 72
   100
 73
     1
 74
     3
 75
     0
 76
     0
 77
     0
 78
     0
281
     0
 65
     1
110
0.0
120
0.0
130
0.0
111
1.0
121
0.0
131
0.0
112
0.0
122
1.0
132
0.0
 79
     0
146
0.0
  0
ENDTAB
  0
TABLE
  2
LTYPE
  5
5
330
0
100
AcDbSymbolTable
 70
     1
  0
LTYPE
  5
14
330
5
100
AcDbSymbolTableRecord
100
AcDbLinetypeTableRecord
  2
ByBlock
 70
     0
  3

 72
    65
 73
     0
 40
0.0
  0
LTYPE
  5
15
330
5
100
AcDbSymbolTableRecord
100
AcDbLinetypeTableRecord
  2
ByLayer
 70
     0
  3

 72
    65
 73
     0
 40
0.0
  0
LTYPE
  5
16
330
5
100
AcDbSymbolTableRecord
100
AcDbLinetypeTableRecord
  2
Continuous
 70
     0
  3
Solid line
 72
    65
 73
     0
 40
0.0
  0
ENDTAB
  0
TABLE
  2
LAYER
  5
2
330
0
100
AcDbSymbolTable
 70
     2
  0
LAYER
  5
10
330
2
100
AcDbSymbolTableRecord
100
AcDbLayerTableRecord
  2
0
 70
     0
 62
     7
  6
Continuous
370
    -3
390
F
  0
LAYER
  5
40
330
2
100
AcDbSymbolTableRecord
100
AcDbLayerTableRecord
  2
Layer 1
 70
     0
 62
     7
  6
Continuous
370
    -3
390
F
  0
ENDTAB
  0
TABLE
  2
STYLE
  5
3
330
0
100
AcDbSymbolTable
 70
     1
  0
STYLE
  5
11
330
3
100
AcDbSymbolTableRecord
100
AcDbTextStyleTableRecord
  2
Standard
 70
     0
 40
0.0
 41
1.0
 50
0.0
 71
     0
 42
0.2
  3
txt
  4

  0
ENDTAB
  0
TABLE
  2
VIEW
  5
6
330
0
100
AcDbSymbolTable
 70
     0
  0
ENDTAB
  0
TABLE
  2
UCS
  5
7
330
0
100
AcDbSymbolTable
 70
     0
  0
ENDTAB
  0
TABLE
  2
APPID
  5
9
330
0
100
AcDbSymbolTable
 70
     2
  0
APPID
  5
12
330
9
100
AcDbSymbolTableRecord
100
AcDbRegAppTableRecord
  2
ACAD
 70
     0
  0
APPID
  5
3F
330
9
100
AcDbSymbolTableRecord
100
AcDbRegAppTableRecord
  2
ODA
 70
     0
  0
ENDTAB
  0
TABLE
  2
DIMSTYLE
  5
A
330
0
100
AcDbSymbolTable
 70
     1
100
AcDbDimStyleTable
  0
DIMSTYLE
105
27
330
A
100
AcDbSymbolTableRecord
100
AcDbDimStyleTableRecord
  2
Standard
 70
     0
178
     0
340
11
  0
ENDTAB
  0
TABLE
  2
BLOCK_RECORD
  5
1
330
0
100
AcDbSymbolTable
 70
     1
  0
BLOCK_RECORD
  5
1F
330
1
100
AcDbSymbolTableRecord
100
AcDbBlockTableRecord
  2
*Model_Space
340
22
  0
BLOCK_RECORD
  5
1B
330
1
100
AcDbSymbolTableRecord
100
AcDbBlockTableRecord
  2
*Paper_Space
340
1E
  0
BLOCK_RECORD
  5
23
330
1
100
AcDbSymbolTableRecord
100
AcDbBlockTableRecord
  2
*Paper_Space0
340
26
  0
ENDTAB
  0
ENDSEC
  0
SECTION
  2
BLOCKS
  0
BLOCK
  5
20
330
1F
100
AcDbEntity
  8
0
100
AcDbBlockBegin
  2
*Model_Space
 70
     0
 10
0.0
 20
0.0
 30
0.0
  3
*Model_Space
  1

  0
ENDBLK
  5
21
330
1F
100
AcDbEntity
  8
0
100
AcDbBlockEnd
  0
BLOCK
  5
1C
330
1B
100
AcDbEntity
 67
     1
  8
0
100
AcDbBlockBegin
  2
*Paper_Space
 70
     0
 10
0.0
 20
0.0
 30
0.0
  3
*Paper_Space
  1

  0
ENDBLK
  5
1D
330
1B
100
AcDbEntity
 67
     1
  8
0
100
AcDbBlockEnd
  0
BLOCK
  5
24
330
23
100
AcDbEntity
  8
0
100
AcDbBlockBegin
  2
*Paper_Space0
 70
     0
 10
0.0
 20
0.0
 30
0.0
  3
*Paper_Space0
  1

  0
ENDBLK
  5
25
330
23
100
AcDbEntity
  8
0
100
AcDbBlockEnd
  0
ENDSEC
  0
SECTION
  2
ENTITIES
  0
SPLINE
  5
41
330
1F
100
AcDbEntity
  8
Layer 1
 62
   177
370
     9
100
AcDbSpline
210
0.0
220
0.0
230
1.0
 70
    11
 71
     3
 72
   112
 73
   108
 74
     0
 42
0.0000000001
 43
0.0000000001
 12
1.0
 22
0.0
 32
0.0
 13
1.0
 23
0.0
 33
0.0
 40
0.0
 40
0.0
 40
0.0
 40
0.0
 40
0.0357142857142857
 40
0.0357142857142857
 40
0.0357142857142857
 40
0.0357142857142857
 40
0.0714285714285714
 40
0.0714285714285714
 40
0.0714285714285714
 40
0.0714285714285714
 40
0.1071428571428571
 40
0.1071428571428571
 40
0.1071428571428571
 40
0.1071428571428571
 40
0.1428571428571428
 40
0.1428571428571428
 40
0.1428571428571428
 40
0.1428571428571428
 40
0.1785714285714286
 40
0.1785714285714286
 40
0.1785714285714286
 40
0.1785714285714286
 40
0.2142857142857143
 40
0.2142857142857143
 40
0.2142857142857143
 40
0.2142857142857143
 40
0.25
 40
0.25
 40
0.25
 40
0.25
 40
0.2857142857142857
 40
0.2857142857142857
 40
0.2857142857142857
 40
0.2857142857142857
 40
0.3214285714285715
 40
0.3214285714285715
 40
0.3214285714285715
 40
0.3214285714285715
 40
0.3571428571428572
 40
0.3571428571428572
 40
0.3571428571428572
 40
0.3571428571428572
 40
0.3928571428571428
 40
0.3928571428571428
 40
0.3928571428571428
 40
0.3928571428571428
 40
0.4285714285714285
 40
0.4285714285714285
 40
0.4285714285714285
 40
0.4285714285714285
 40
0.4642857142857143
 40
0.4642857142857143
 40
0.4642857142857143
 40
0.4642857142857143
 40
0.5
 40
0.5
 40
0.5
 40
0.5
 40
0.5357142857142857
 40
0.5357142857142857
 40
0.5357142857142857
 40
0.5357142857142857
 40
0.5714285714285714
 40
0.5714285714285714
 40
0.5714285714285714
 40
0.5714285714285714
 40
0.6071428571428571
 40
0.6071428571428571
 40
0.6071428571428571
 40
0.6071428571428571
 40
0.6428571428571429
 40
0.6428571428571429
 40
0.6428571428571429
 40
0.6428571428571429
 40
0.6785714285714286
 40
0.6785714285714286
 40
0.6785714285714286
 40
0.6785714285714286
 40
0.7142857142857143
 40
0.7142857142857143
 40
0.7142857142857143
 40
0.7142857142857143
 40
0.75
 40
0.75
 40
0.75
 40
0.75
 40
0.7857142857142857
 40
0.7857142857142857
 40
0.7857142857142857
 40
0.7857142857142857
 40
0.8214285714285714
 40
0.8214285714285714
 40
0.8214285714285714
 40
0.8214285714285714
 40
0.8571428571428571
 40
0.8571428571428571
 40
0.8571428571428571
 40
0.8571428571428571
 40
0.8928571428571429
 40
0.8928571428571429
 40
0.8928571428571429
 40
0.8928571428571429
 40
0.9285714285714286
 40
0.9285714285714286
 40
0.9285714285714286
 40
0.9285714285714286
 40
1.0
 40
1.0
 40
1.0
 40
1.0
 10
-7.50893
 20
10.68469
 30
0.0
 10
-7.50893
 20
10.68469
 30
0.0
 10
-7.32386
 20
10.68469
 30
0.0
 10
-7.32386
 20
10.68469
 30
0.0
 10
-7.32386
 20
10.68469
 30
0.0
 10
-7.32386
 20
10.68469
 30
0.0
 10
-5.50377
 20
10.68469
 30
0.0
 10
-5.50377
 20
10.68469
 30
0.0
 10
-5.50377
 20
10.68469
 30
0.0
 10
-5.50377
 20
10.68469
 30
0.0
 10
-5.28115
 20
10.68469
 30
0.0
 10
-5.28115
 20
10.68469
 30
0.0
 10
-5.28115
 20
10.68469
 30
0.0
 10
-5.28115
 20
10.68469
 30
0.0
 10
-4.24285
 20
10.68469
 30
0.0
 10
-4.24285
 20
10.68469
 30
0.0
 10
-4.24285
 20
10.68469
 30
0.0
 10
-4.24285
 20
10.68469
 30
0.0
 10
-4.02034
 20
10.68469
 30
0.0
 10
-4.02034
 20
10.68469
 30
0.0
 10
-4.02034
 20
10.68469
 30
0.0
 10
-2.95638
 20
10.68469
 30
0.0
 10
-1.89241
 20
10.68469
 30
0.0
 10
-0.82845
 20
10.68469
 30
0.0
 10
-0.82845
 20
10.68469
 30
0.0
 10
-0.82845
 20
3.94854
 30
0.0
 10
-0.82845
 20
-2.7876
 30
0.0
 10
-0.82845
 20
-9.52375
 30
0.0
 10
-0.82845
 20
-9.52375
 30
0.0
 10
-0.82845
 20
-9.52375
 30
0.0
 10
-1.46966
 20
-9.52375
 30
0.0
 10
-1.46966
 20
-9.52375
 30
0.0
 10
-1.46966
 20
-9.52375
 30
0.0
 10
-1.46966
 20
-9.52375
 30
0.0
 10
-1.72243
 20
-9.52375
 30
0.0
 10
-1.72243
 20
-9.52375
 30
0.0
 10
-1.72243
 20
-9.52375
 30
0.0
 10
-1.72243
 20
-9.52375
 30
0.0
 10
-2.89611
 20
-9.52375
 30
0.0
 10
-2.89611
 20
-9.52375
 30
0.0
 10
-2.89611
 20
-9.52375
 30
0.0
 10
-2.89611
 20
-9.52375
 30
0.0
 10
-3.15481
 20
-9.52375
 30
0.0
 10
-3.15481
 20
-9.52375
 30
0.0
 10
-3.15481
 20
-9.52375
 30
0.0
 10
-3.15481
 20
-9.52375
 30
0.0
 10
-3.19277
 20
-9.52375
 30
0.0
 10
-3.19277
 20
-9.52375
 30
0.0
 10
-3.19277
 20
-9.52375
 30
0.0
 10
-3.19277
 20
-9.52375
 30
0.0
 10
-3.41525
 20
-9.52375
 30
0.0
 10
-3.41525
 20
-9.52375
 30
0.0
 10
-3.41525
 20
-9.52375
 30
0.0
 10
-3.41525
 20
-9.52375
 30
0.0
 10
-3.74475
 20
-9.52375
 30
0.0
 10
-3.74475
 20
-9.52375
 30
0.0
 10
-3.74475
 20
-9.52375
 30
0.0
 10
-3.74475
 20
-9.52375
 30
0.0
 10
-3.99753
 20
-9.52375
 30
0.0
 10
-3.99753
 20
-9.52375
 30
0.0
 10
-3.99753
 20
-9.52375
 30
0.0
 10
-3.99753
 20
-9.52375
 30
0.0
 10
-4.45356
 20
-9.52375
 30
0.0
 10
-4.45356
 20
-9.52375
 30
0.0
 10
-4.45356
 20
-9.52375
 30
0.0
 10
-4.45356
 20
-9.52375
 30
0.0
 10
-4.67606
 20
-9.52375
 30
0.0
 10
-4.67606
 20
-9.52375
 30
0.0
 10
-4.67606
 20
-9.52375
 30
0.0
 10
-4.67606
 20
-9.52375
 30
0.0
 10
-4.83996
 20
-9.52375
 30
0.0
 10
-4.83996
 20
-9.52375
 30
0.0
 10
-4.83996
 20
-9.52375
 30
0.0
 10
-4.83996
 20
-9.52375
 30
0.0
 10
-5.09287
 20
-9.52375
 30
0.0
 10
-5.09287
 20
-9.52375
 30
0.0
 10
-5.09287
 20
-9.52375
 30
0.0
 10
-5.09287
 20
-9.52375
 30
0.0
 10
-5.71437
 20
-9.52375
 30
0.0
 10
-5.71437
 20
-9.52375
 30
0.0
 10
-5.71437
 20
-9.52375
 30
0.0
 10
-5.71437
 20
-9.52375
 30
0.0
 10
-5.93686
 20
-9.52375
 30
0.0
 10
-5.93686
 20
-9.52375
 30
0.0
 10
-5.93686
 20
-9.52375
 30
0.0
 10
-5.93686
 20
-9.52375
 30
0.0
 10
-6.27234
 20
-9.52375
 30
0.0
 10
-6.27234
 20
-9.52375
 30
0.0
 10
-6.27234
 20
-9.52375
 30
0.0
 10
-6.27234
 20
-9.52375
 30
0.0
 10
-6.52512
 20
-9.52375
 30
0.0
 10
-6.52512
 20
-9.52375
 30
0.0
 10
-6.52512
 20
-9.52375
 30
0.0
 10
-6.52512
 20
-9.52375
 30
0.0
 10
-7.50893
 20
-9.52375
 30
0.0
 10
-7.50893
 20
-9.52375
 30
0.0
 10
-7.50893
 20
-9.52375
 30
0.0
 10
-7.50893
 20
-2.87293
 30
0.0
 10
-7.50893
 20
3.77789
 30
0.0
 10
-7.50893
 20
10.42871
 30
0.0
 10
-7.50893
 20
10.42871
 30
0.0
 10
-7.50893
 20
10.42871
 30
0.0
 10
-7.50893
 20
10.6251
 30
0.0
 10
-7.50893
 20
10.6251
 30
0.0
 10
-7.50893
 20
10.6251
 30
0.0
 10
-7.50893
 20
10.6251
 30
0.0
 10
-7.50893
 20
10.68469
 30
0.0
 10
-7.50893
 20
10.68469
 30
0.0
  0
SPLINE
  5
42
330
1F
100
AcDbEntity
  8
Layer 1
 62
   177
370
     9
100
AcDbSpline
210
0.0
220
0.0
230
1.0
 70
    11
 71
     3
 72
    20
 73
    16
 74
     0
 42
0.0000000001
 43
0.0000000001
 12
1.0
 22
0.0
 32
0.0
 13
1.0
 23
0.0
 33
0.0
 40
0.0
 40
0.0
 40
0.0
 40
0.0
 40
0.2
 40
0.2
 40
0.2
 40
0.2
 40
0.4
 40
0.4
 40
0.4
 40
0.4
 40
0.6
 40
0.6
 40
0.6
 40
0.6
 40
1.0
 40
1.0
 40
1.0
 40
1.0
 10
-6.94438
 20
10.35066
 30
0.0
 10
-6.94438
 20
10.35066
 30
0.0
 10
-5.75507
 20
9.30382
 30
0.0
 10
-5.75507
 20
9.30382
 30
0.0
 10
-5.75507
 20
9.30382
 30
0.0
 10
-5.75507
 20
9.30382
 30
0.0
 10
-5.24019
 20
9.8888
 30
0.0
 10
-5.24019
 20
9.8888
 30
0.0
 10
-5.24019
 20
9.8888
 30
0.0
 10
-5.24019
 20
9.8888
 30
0.0
 10
-5.7649
 20
10.35066
 30
0.0
 10
-5.7649
 20
10.35066
 30
0.0
 10
-5.7649
 20
10.35066
 30
0.0
 10
-5.7649
 20
10.35066
 30
0.0
 10
-6.94438
 20
10.35066
 30
0.0
 10
-6.94438
 20
10.35066
 30
0.0
  0
SPLINE
  5
43
330
1F
100
AcDbEntity
  8
Layer 1
 62
   177
370
     9
100
AcDbSpline
210
0.0
220
0.0
230
1.0
 70
    11
 71
     3
 72
    28
 73
    24
 74
     0
 42
0.0000000001
 43
0.0000000001
 12
1.0
 22
0.0
 32
0.0
 13
1.0
 23
0.0
 33
0.0
 40
0.0
 40
0.0
 40
0.0
 40
0.0
 40
0.1428571428571428
 40
0.1428571428571428
 40
0.1428571428571428
 40
0.1428571428571428
 40
0.2857142857142857
 40
0.2857142857142857
 40
0.2857142857142857
 40
0.2857142857142857
 40
0.4285714285714285
 40
0.4285714285714285
 40
0.4285714285714285
 40
0.4285714285714285
 40
0.5714285714285714
 40
0.5714285714285714
 40
0.5714285714285714
 40
0.5714285714285714
 40
0.7142857142857143
 40
0.7142857142857143
 40
0.7142857142857143
 40
0.7142857142857143
 40
1.0
 40
1.0
 40
1.0
 40
1.0
 10
-5.51199
 20
10.35066
 30
0.0
 10
-5.51199
 20
10.35066
 30
0.0
 10
-5.0044
 20
9.90389
 30
0.0
 10
-5.0044
 20
9.90389
 30
0.0
 10
-5.0044
 20
9.90389
 30
0.0
 10
-5.0044
 20
9.90389
 30
0.0
 10
-5.00447
 20
9.90382
 30
0.0
 10
-5.00447
 20
9.90382
 30
0.0
 10
-5.00447
 20
9.90382
 30
0.0
 10
-5.00447
 20
9.90382
 30
0.0
 10
-4.96262
 20
9.86698
 30
0.0
 10
-4.96262
 20
9.86698
 30
0.0
 10
-4.96262
 20
9.86698
 30
0.0
 10
-4.96262
 20
9.86698
 30
0.0
 10
-4.70513
 20
10.1595
 30
0.0
 10
-4.70513
 20
10.1595
 30
0.0
 10
-4.70513
 20
10.1595
 30
0.0
 10
-4.70513
 20
10.1595
 30
0.0
 10
-4.53686
 20
10.35066
 30
0.0
 10
-4.53686
 20
10.35066
 30
0.0
 10
-4.53686
 20
10.35066
 30
0.0
 10
-4.53686
 20
10.35066
 30
0.0
 10
-5.51199
 20
10.35066
 30
0.0
 10
-5.51199
 20
10.35066
 30
0.0
  0
SPLINE
  5
44
330
1F
100
AcDbEntity
  8
Layer 1
 62
   177
370
     9
100
AcDbSpline
210
0.0
220
0.0
230
1.0
 70
    11
 71
     3
 72
    36
 73
    32
 74
     0
 42
0.0000000001
 43
0.0000000001
 12
1.0
 22
0.0
 32
0.0
 13
1.0
 23
0.0
 33
0.0
 40
0.0
 40
0.0
 40
0.0
 40
0.0
 40
0.1111111111111111
 40
0.1111111111111111
 40
0.1111111111111111
 40
0.1111111111111111
 40
0.2222222222222222
 40
0.2222222222222222
 40
0.2222222222222222
 40
0.2222222222222222
 40
0.3333333333333333
 40
0.3333333333333333
 40
0.3333333333333333
 40
0.3333333333333333
 40
0.4444444444444444
 40
0.4444444444444444
 40
0.4444444444444444
 40
0.4444444444444444
 40
0.5555555555555556
 40
0.5555555555555556
 40
0.5555555555555556
 40
0.5555555555555556
 40
0.6666666666666666
 40
0.6666666666666666
 40
0.6666666666666666
 40
0.6666666666666666
 40
0.7777777777777778
 40
0.7777777777777778
 40
0.7777777777777778
 40
0.7777777777777778
 40
1.0
 40
1.0
 40
1.0
 40
1.0
 10
-4.31436
 20
10.35066
 30
0.0
 10
-4.31436
 20
10.35066
 30
0.0
 10
-4.46935
 20
10.17458
 30
0.0
 10
-4.46935
 20
10.17458
 30
0.0
 10
-4.46935
 20
10.17458
 30
0.0
 10
-4.46935
 20
10.17458
 30
0.0
 10
-3.88439
 20
9.65967
 30
0.0
 10
-3.88439
 20
9.65967
 30
0.0
 10
-3.88439
 20
9.65967
 30
0.0
 10
-3.88439
 20
9.65967
 30
0.0
 10
-3.40622
 20
10.20293
 30
0.0
 10
-3.40622
 20
10.20293
 30
0.0
 10
-3.40622
 20
10.20293
 30
0.0
 10
-3.40622
 20
10.20293
 30
0.0
 10
-3.40614
 20
10.20286
 30
0.0
 10
-3.40614
 20
10.20286
 30
0.0
 10
-3.40614
 20
10.20286
 30
0.0
 10
-3.40614
 20
10.20286
 30
0.0
 10
-2.69582
 20
9.57762
 30
0.0
 10
-2.69582
 20
9.57762
 30
0.0
 10
-2.69582
 20
9.57762
 30
0.0
 10
-2.69582
 20
9.57762
 30
0.0
 10
-2.18086
 20
10.16265
 30
0.0
 10
-2.18086
 20
10.16265
 30
0.0
 10
-2.18086
 20
10.16265
 30
0.0
 10
-2.18086
 20
10.16265
 30
0.0
 10
-2.39446
 20
10.35066
 30
0.0
 10
-2.39446
 20
10.35066
 30
0.0
 10
-2.39446
 20
10.35066
 30
0.0
 10
-2.39446
 20
10.35066
 30
0.0
 10
-4.31436
 20
10.35066
 30
0.0
 10
-4.31436
 20
10.35066
 30
0.0
  0
SPLINE
  5
45
330
1F
100
AcDbEntity
  8
Layer 1
 62
   177
370
     9
100
AcDbSpline
210
0.0
220
0.0
230
1.0
 70
    11
 71
     3
 72
    48
 73
    44
 74
     0
 42
0.0000000001
 43
0.0000000001
 12
1.0
 22
0.0
 32
0.0
 13
1.0
 23
0.0
 33
0.0
 40
0.0
 40
0.0
 40
0.0
 40
0.0
 40
0.0833333333333333
 40
0.0833333333333333
 40
0.0833333333333333
 40
0.0833333333333333
 40
0.1666666666666667
 40
0.1666666666666667
 40
0.1666666666666667
 40
0.1666666666666667
 40
0.25
 40
0.25
 40
0.25
 40
0.25
 40
0.3333333333333333
 40
0.3333333333333333
 40
0.3333333333333333
 40
0.3333333333333333
 40
0.4166666666666667
 40
0.4166666666666667
 40
0.4166666666666667
 40
0.4166666666666667
 40
0.5
 40
0.5
 40
0.5
 40
0.5
 40
0.5833333333333334
 40
0.5833333333333334
 40
0.5833333333333334
 40
0.5833333333333334
 40
0.6666666666666666
 40
0.6666666666666666
 40
0.6666666666666666
 40
0.6666666666666666
 40
0.75
 40
0.75
 40
0.75
 40
0.75
 40
0.8333333333333334
 40
0.8333333333333334
 40
0.8333333333333334
 40
0.8333333333333334
 40
1.0
 40
1.0
 40
1.0
 40
1.0
 10
-1.79275
 20
10.35066
 30
0.0
 10
-1.79275
 20
10.35066
 30
0.0
 10
-1.94508
 20
10.17761
 30
0.0
 10
-1.94508
 20
10.17761
 30
0.0
 10
-1.94508
 20
10.17761
 30
0.0
 10
-1.94508
 20
10.17761
 30
0.0
 10
-1.23475
 20
9.55236
 30
0.0
 10
-1.23475
 20
9.55236
 30
0.0
 10
-1.23475
 20
9.55236
 30
0.0
 10
-1.23475
 20
9.55236
 30
0.0
 10
-1.23481
 20
9.55229
 30
0.0
 10
-1.23481
 20
9.55229
 30
0.0
 10
-1.23481
 20
9.55229
 30
0.0
 10
-1.23481
 20
9.55229
 30
0.0
 10
-1.23475
 20
9.55222
 30
0.0
 10
-1.23475
 20
9.55222
 30
0.0
 10
-1.23475
 20
9.55222
 30
0.0
 10
-1.23475
 20
9.55222
 30
0.0
 10
-1.85997
 20
8.8419
 30
0.0
 10
-1.85997
 20
8.8419
 30
0.0
 10
-1.85997
 20
8.8419
 30
0.0
 10
-1.85997
 20
8.8419
 30
0.0
 10
-1.3168
 20
8.36379
 30
0.0
 10
-1.3168
 20
8.36379
 30
0.0
 10
-1.3168
 20
8.36379
 30
0.0
 10
-1.3168
 20
8.36379
 30
0.0
 10
-1.31686
 20
8.36372
 30
0.0
 10
-1.31686
 20
8.36372
 30
0.0
 10
-1.31686
 20
8.36372
 30
0.0
 10
-1.31686
 20
8.36372
 30
0.0
 10
-1.27501
 20
8.32688
 30
0.0
 10
-1.27501
 20
8.32688
 30
0.0
 10
-1.27501
 20
8.32688
 30
0.0
 10
-1.27501
 20
8.32688
 30
0.0
 10
-1.16247
 20
8.45474
 30
0.0
 10
-1.16247
 20
8.45474
 30
0.0
 10
-1.16247
 20
8.45474
 30
0.0
 10
-1.16247
 20
8.45474
 30
0.0
 10
-1.16247
 20
10.35066
 30
0.0
 10
-1.16247
 20
10.35066
 30
0.0
 10
-1.16247
 20
10.35066
 30
0.0
 10
-1.16247
 20
10.35066
 30
0.0
 10
-1.79275
 20
10.35066
 30
0.0
 10
-1.79275
 20
10.35066
 30
0.0
  0
SPLINE
  5
46
330
1F
100
AcDbEntity
  8
Layer 1
 62
   177
370
     9
100
AcDbSpline
210
0.0
220
0.0
230
1.0
 70
    11
 71
     3
 72
    32
 73
    28
 74
     0
 42
0.0000000001
 43
0.0000000001
 12
1.0
 22
0.0
 32
0.0
 13
1.0
 23
0.0
 33
0.0
 40
0.0
 40
0.0
 40
0.0
 40
0.0
 40
0.125
 40
0.125
 40
0.125
 40
0.125
 40
0.25
 40
0.25
 40
0.25
 40
0.25
 40
0.375
 40
0.375
 40
0.375
 40
0.375
 40
0.5
 40
0.5
 40
0.5
 40
0.5
 40
0.625
 40
0.625
 40
0.625
 40
0.625
 40
0.75
 40
0.75
 40
0.75
 40
0.75
 40
1.0
 40
1.0
 40
1.0
 40
1.0
 10
-1.16247
 20
8.20194
 30
0.0
 10
-1.16247
 20
8.20194
 30
0.0
 10
-1.25999
 20
8.09116
 30
0.0
 10
-1.25999
 20
8.09116
 30
0.0
 10
-1.25999
 20
8.09116
 30
0.0
 10
-1.25999
 20
8.09116
 30
0.0
 10
-1.42722
 20
8.23836
 30
0.0
 10
-1.42722
 20
8.23836
 30
0.0
 10
-1.42722
 20
8.23836
 30
0.0
 10
-1.42722
 20
8.23836
 30
0.0
 10
-1.94211
 20
7.65339
 30
0.0
 10
-1.94211
 20
7.65339
 30
0.0
 10
-1.94211
 20
7.65339
 30
0.0
 10
-1.94211
 20
7.65339
 30
0.0
 10
-1.52416
 20
7.2855
 30
0.0
 10
-1.52416
 20
7.2855
 30
0.0
 10
-1.52416
 20
7.2855
 30
0.0
 10
-1.52416
 20
7.2855
 30
0.0
 10
-1.67135
 20
7.11827
 30
0.0
 10
-1.67135
 20
7.11827
 30
0.0
 10
-1.67135
 20
7.11827
 30
0.0
 10
-1.67135
 20
7.11827
 30
0.0
 10
-1.16247
 20
6.67035
 30
0.0
 10
-1.16247
 20
6.67035
 30
0.0
 10
-1.16247
 20
6.67035
 30
0.0
 10
-1.16247
 20
6.67035
 30
0.0
 10
-1.16247
 20
8.20194
 30
0.0
 10
-1.16247
 20
8.20194
 30
0.0
  0
SPLINE
  5
47
330
1F
100
AcDbEntity
  8
Layer 1
 62
   177
370
     9
100
AcDbSpline
210
0.0
220
0.0
230
1.0
 70
    11
 71
     3
 72
    28
 73
    24
 74
     0
 42
0.0000000001
 43
0.0000000001
 12
1.0
 22
0.0
 32
0.0
 13
1.0
 23
0.0
 33
0.0
 40
0.0
 40
0.0
 40
0.0
 40
0.0
 40
0.1428571428571428
 40
0.1428571428571428
 40
0.1428571428571428
 40
0.1428571428571428
 40
0.2857142857142857
 40
0.2857142857142857
 40
0.2857142857142857
 40
0.2857142857142857
 40
0.4285714285714285
 40
0.4285714285714285
 40
0.4285714285714285
 40
0.4285714285714285
 40
0.5714285714285714
 40
0.5714285714285714
 40
0.5714285714285714
 40
0.5714285714285714
 40
0.7142857142857143
 40
0.7142857142857143
 40
0.7142857142857143
 40
0.7142857142857143
 40
1.0
 40
1.0
 40
1.0
 40
1.0
 10
-1.16247
 20
6.26402
 30
0.0
 10
-1.16247
 20
6.26402
 30
0.0
 10
-2.32186
 20
4.94688
 30
0.0
 10
-2.32186
 20
4.94688
 30
0.0
 10
-2.32186
 20
4.94688
 30
0.0
 10
-2.32186
 20
4.94688
 30
0.0
 10
-1.73689
 20
4.43198
 30
0.0
 10
-1.73689
 20
4.43198
 30
0.0
 10
-1.73689
 20
4.43198
 30
0.0
 10
-1.73689
 20
4.43198
 30
0.0
 10
-1.25871
 20
4.97523
 30
0.0
 10
-1.25871
 20
4.97523
 30
0.0
 10
-1.25871
 20
4.97523
 30
0.0
 10
-1.25871
 20
4.97523
 30
0.0
 10
-1.25864
 20
4.97516
 30
0.0
 10
-1.25864
 20
4.97516
 30
0.0
 10
-1.25864
 20
4.97516
 30
0.0
 10
-1.25864
 20
4.97516
 30
0.0
 10
-1.16247
 20
4.89051
 30
0.0
 10
-1.16247
 20
4.89051
 30
0.0
 10
-1.16247
 20
4.89051
 30
0.0
 10
-1.16247
 20
4.89051
 30
0.0
 10
-1.16247
 20
6.26402
 30
0.0
 10
-1.16247
 20
6.26402
 30
0.0
  0
SPLINE
  5
48
330
1F
100
AcDbEntity
  8
Layer 1
 62
   177
370
     9
100
AcDbSpline
210
0.0
220
0.0
230
1.0
 70
    11
 71
     3
 72
    32
 73
    28
 74
     0
 42
0.0000000001
 43
0.0000000001
 12
1.0
 22
0.0
 32
0.0
 13
1.0
 23
0.0
 33
0.0
 40
0.0
 40
0.0
 40
0.0
 40
0.0
 40
0.125
 40
0.125
 40
0.125
 40
0.125
 40
0.25
 40
0.25
 40
0.25
 40
0.25
 40
0.375
 40
0.375
 40
0.375
 40
0.375
 40
0.5
 40
0.5
 40
0.5
 40
0.5
 40
0.625
 40
0.625
 40
0.625
 40
0.625
 40
0.75
 40
0.75
 40
0.75
 40
0.75
 40
1.0
 40
1.0
 40
1.0
 40
1.0
 10
-1.16247
 20
4.66801
 30
0.0
 10
-1.16247
 20
4.66801
 30
0.0
 10
-1.24363
 20
4.73945
 30
0.0
 10
-1.24363
 20
4.73945
 30
0.0
 10
-1.24363
 20
4.73945
 30
0.0
 10
-1.24363
 20
4.73945
 30
0.0
 10
-1.7218
 20
4.19621
 30
0.0
 10
-1.7218
 20
4.19621
 30
0.0
 10
-1.7218
 20
4.19621
 30
0.0
 10
-1.7218
 20
4.19621
 30
0.0
 10
-1.72187
 20
4.19626
 30
0.0
 10
-1.72187
 20
4.19626
 30
0.0
 10
-1.72187
 20
4.19626
 30
0.0
 10
-1.72187
 20
4.19626
 30
0.0
 10
-1.75866
 20
4.15448
 30
0.0
 10
-1.75866
 20
4.15448
 30
0.0
 10
-1.75866
 20
4.15448
 30
0.0
 10
-1.75866
 20
4.15448
 30
0.0
 10
-1.46614
 20
3.897
 30
0.0
 10
-1.46614
 20
3.897
 30
0.0
 10
-1.46614
 20
3.897
 30
0.0
 10
-1.46614
 20
3.897
 30
0.0
 10
-1.16247
 20
3.62972
 30
0.0
 10
-1.16247
 20
3.62972
 30
0.0
 10
-1.16247
 20
3.62972
 30
0.0
 10
-1.16247
 20
3.62972
 30
0.0
 10
-1.16247
 20
4.66801
 30
0.0
 10
-1.16247
 20
4.66801
 30
0.0
  0
SPLINE
  5
49
330
1F
100
AcDbEntity
  8
Layer 1
 62
   177
370
     9
100
AcDbSpline
210
0.0
220
0.0
230
1.0
 70
    11
 71
     3
 72
    32
 73
    28
 74
     0
 42
0.0000000001
 43
0.0000000001
 12
1.0
 22
0.0
 32
0.0
 13
1.0
 23
0.0
 33
0.0
 40
0.0
 40
0.0
 40
0.0
 40
0.0
 40
0.125
 40
0.125
 40
0.125
 40
0.125
 40
0.25
 40
0.25
 40
0.25
 40
0.25
 40
0.375
 40
0.375
 40
0.375
 40
0.375
 40
0.5
 40
0.5
 40
0.5
 40
0.5
 40
0.625
 40
0.625
 40
0.625
 40
0.625
 40
0.75
 40
0.75
 40
0.75
 40
0.75
 40
1.0
 40
1.0
 40
1.0
 40
1.0
 10
-1.16247
 20
3.40722
 30
0.0
 10
-1.16247
 20
3.40722
 30
0.0
 10
-1.45105
 20
3.66123
 30
0.0
 10
-1.45105
 20
3.66123
 30
0.0
 10
-1.45105
 20
3.66123
 30
0.0
 10
-1.45105
 20
3.66123
 30
0.0
 10
-1.96601
 20
3.07621
 30
0.0
 10
-1.96601
 20
3.07621
 30
0.0
 10
-1.96601
 20
3.07621
 30
0.0
 10
-1.96601
 20
3.07621
 30
0.0
 10
-1.42275
 20
2.59803
 30
0.0
 10
-1.42275
 20
2.59803
 30
0.0
 10
-1.42275
 20
2.59803
 30
0.0
 10
-1.42275
 20
2.59803
 30
0.0
 10
-2.04806
 20
1.88763
 30
0.0
 10
-2.04806
 20
1.88763
 30
0.0
 10
-2.04806
 20
1.88763
 30
0.0
 10
-2.04806
 20
1.88763
 30
0.0
 10
-1.46303
 20
1.37266
 30
0.0
 10
-1.46303
 20
1.37266
 30
0.0
 10
-1.46303
 20
1.37266
 30
0.0
 10
-1.46303
 20
1.37266
 30
0.0
 10
-1.16247
 20
1.71412
 30
0.0
 10
-1.16247
 20
1.71412
 30
0.0
 10
-1.16247
 20
1.71412
 30
0.0
 10
-1.16247
 20
1.71412
 30
0.0
 10
-1.16247
 20
3.40722
 30
0.0
 10
-1.16247
 20
3.40722
 30
0.0
  0
SPLINE
  5
4A
330
1F
100
AcDbEntity
  8
Layer 1
 62
   177
370
     9
100
AcDbSpline
210
0.0
220
0.0
230
1.0
 70
    11
 71
     3
 72
    16
 73
    12
 74
     0
 42
0.0000000001
 43
0.0000000001
 12
1.0
 22
0.0
 32
0.0
 13
1.0
 23
0.0
 33
0.0
 40
0.0
 40
0.0
 40
0.0
 40
0.0
 40
0.25
 40
0.25
 40
0.25
 40
0.25
 40
0.5
 40
0.5
 40
0.5
 40
0.5
 40
1.0
 40
1.0
 40
1.0
 40
1.0
 10
-1.16247
 20
1.46135
 30
0.0
 10
-1.16247
 20
1.46135
 30
0.0
 10
-1.33766
 20
1.26231
 30
0.0
 10
-1.33766
 20
1.26231
 30
0.0
 10
-1.33766
 20
1.26231
 30
0.0
 10
-1.33766
 20
1.26231
 30
0.0
 10
-1.16247
 20
1.10811
 30
0.0
 10
-1.16247
 20
1.10811
 30
0.0
 10
-1.16247
 20
1.10811
 30
0.0
 10
-1.16247
 20
1.10811
 30
0.0
 10
-1.16247
 20
1.46135
 30
0.0
 10
-1.16247
 20
1.46135
 30
0.0
  0
SPLINE
  5
4B
330
1F
100
AcDbEntity
  8
Layer 1
 62
   177
370
     9
100
AcDbSpline
210
0.0
220
0.0
230
1.0
 70
    11
 71
     3
 72
    16
 73
    12
 74
     0
 42
0.0000000001
 43
0.0000000001
 12
1.0
 22
0.0
 32
0.0
 13
1.0
 23
0.0
 33
0.0
 40
0.0
 40
0.0
 40
0.0
 40
0.0
 40
0.25
 40
0.25
 40
0.25
 40
0.25
 40
0.5
 40
0.5
 40
0.5
 40
0.5
 40
1.0
 40
1.0
 40
1.0
 40
1.0
 10
-1.16247
 20
0.02899
 30
0.0
 10
-1.16247
 20
0.02899
 30
0.0
 10
-1.25258
 20
-0.07338
 30
0.0
 10
-1.25258
 20
-0.07338
 30
0.0
 10
-1.25258
 20
-0.07338
 30
0.0
 10
-1.25258
 20
-0.07338
 30
0.0
 10
-1.16247
 20
-0.15269
 30
0.0
 10
-1.16247
 20
-0.15269
 30
0.0
 10
-1.16247
 20
-0.15269
 30
0.0
 10
-1.16247
 20
-0.15269
 30
0.0
 10
-1.16247
 20
0.02899
 30
0.0
 10
-1.16247
 20
0.02899
 30
0.0
  0
SPLINE
  5
4C
330
1F
100
AcDbEntity
  8
Layer 1
 62
   177
370
     9
100
AcDbSpline
210
0.0
220
0.0
230
1.0
 70
    11
 71
     3
 72
    16
 73
    12
 74
     0
 42
0.0000000001
 43
0.0000000001
 12
1.0
 22
0.0
 32
0.0
 13
1.0
 23
0.0
 33
0.0
 40
0.0
 40
0.0
 40
0.0
 40
0.0
 40
0.25
 40
0.25
 40
0.25
 40
0.25
 40
0.5
 40
0.5
 40
0.5
 40
0.5
 40
1.0
 40
1.0
 40
1.0
 40
1.0
 10
-1.16247
 20
-1.06623
 30
0.0
 10
-1.16247
 20
-1.06623
 30
0.0
 10
-1.3347
 20
-1.2619
 30
0.0
 10
-1.3347
 20
-1.2619
 30
0.0
 10
-1.3347
 20
-1.2619
 30
0.0
 10
-1.3347
 20
-1.2619
 30
0.0
 10
-1.16247
 20
-1.4135
 30
0.0
 10
-1.16247
 20
-1.4135
 30
0.0
 10
-1.16247
 20
-1.4135
 30
0.0
 10
-1.16247
 20
-1.4135
 30
0.0
 10
-1.16247
 20
-1.06623
 30
0.0
 10
-1.16247
 20
-1.06623
 30
0.0
  0
SPLINE
  5
4D
330
1F
100
AcDbEntity
  8
Layer 1
 62
   177
370
     9
100
AcDbSpline
210
0.0
220
0.0
230
1.0
 70
    11
 71
     3
 72
    64
 73
    60
 74
     0
 42
0.0000000001
 43
0.0000000001
 12
1.0
 22
0.0
 32
0.0
 13
1.0
 23
0.0
 33
0.0
 40
0.0
 40
0.0
 40
0.0
 40
0.0
 40
0.0625
 40
0.0625
 40
0.0625
 40
0.0625
 40
0.125
 40
0.125
 40
0.125
 40
0.125
 40
0.1875
 40
0.1875
 40
0.1875
 40
0.1875
 40
0.25
 40
0.25
 40
0.25
 40
0.25
 40
0.3125
 40
0.3125
 40
0.3125
 40
0.3125
 40
0.375
 40
0.375
 40
0.375
 40
0.375
 40
0.4375
 40
0.4375
 40
0.4375
 40
0.4375
 40
0.5
 40
0.5
 40
0.5
 40
0.5
 40
0.5625
 40
0.5625
 40
0.5625
 40
0.5625
 40
0.625
 40
0.625
 40
0.625
 40
0.625
 40
0.6875
 40
0.6875
 40
0.6875
 40
0.6875
 40
0.75
 40
0.75
 40
0.75
 40
0.75
 40
0.8125
 40
0.8125
 40
0.8125
 40
0.8125
 40
0.875
 40
0.875
 40
0.875
 40
0.875
 40
1.0
 40
1.0
 40
1.0
 40
1.0
 10
-1.16247
 20
-1.93278
 30
0.0
 10
-1.16247
 20
-1.93278
 30
0.0
 10
-1.17429
 20
-1.92237
 30
0.0
 10
-1.17429
 20
-1.92237
 30
0.0
 10
-1.17429
 20
-1.92237
 30
0.0
 10
-1.17429
 20
-1.92237
 30
0.0
 10
-1.6524
 20
-2.46555
 30
0.0
 10
-1.6524
 20
-2.46555
 30
0.0
 10
-1.6524
 20
-2.46555
 30
0.0
 10
-1.6524
 20
-2.46555
 30
0.0
 10
-1.65247
 20
-2.46562
 30
0.0
 10
-1.65247
 20
-2.46562
 30
0.0
 10
-1.65247
 20
-2.46562
 30
0.0
 10
-1.65247
 20
-2.46562
 30
0.0
 10
-2.36286
 20
-1.84032
 30
0.0
 10
-2.36286
 20
-1.84032
 30
0.0
 10
-2.36286
 20
-1.84032
 30
0.0
 10
-2.36286
 20
-1.84032
 30
0.0
 10
-2.87776
 20
-2.42528
 30
0.0
 10
-2.87776
 20
-2.42528
 30
0.0
 10
-2.87776
 20
-2.42528
 30
0.0
 10
-2.87776
 20
-2.42528
 30
0.0
 10
-2.16743
 20
-3.05053
 30
0.0
 10
-2.16743
 20
-3.05053
 30
0.0
 10
-2.16743
 20
-3.05053
 30
0.0
 10
-2.16743
 20
-3.05053
 30
0.0
 10
-2.16748
 20
-3.0506
 30
0.0
 10
-2.16748
 20
-3.0506
 30
0.0
 10
-2.16748
 20
-3.0506
 30
0.0
 10
-2.16748
 20
-3.0506
 30
0.0
 10
-2.16742
 20
-3.05066
 30
0.0
 10
-2.16742
 20
-3.05066
 30
0.0
 10
-2.16742
 20
-3.05066
 30
0.0
 10
-2.16742
 20
-3.05066
 30
0.0
 10
-2.79266
 20
-3.76099
 30
0.0
 10
-2.79266
 20
-3.76099
 30
0.0
 10
-2.79266
 20
-3.76099
 30
0.0
 10
-2.79266
 20
-3.76099
 30
0.0
 10
-2.24949
 20
-4.23911
 30
0.0
 10
-2.24949
 20
-4.23911
 30
0.0
 10
-2.24949
 20
-4.23911
 30
0.0
 10
-2.24949
 20
-4.23911
 30
0.0
 10
-2.24956
 20
-4.23916
 30
0.0
 10
-2.24956
 20
-4.23916
 30
0.0
 10
-2.24956
 20
-4.23916
 30
0.0
 10
-2.24956
 20
-4.23916
 30
0.0
 10
-2.20769
 20
-4.27602
 30
0.0
 10
-2.20769
 20
-4.27602
 30
0.0
 10
-2.20769
 20
-4.27602
 30
0.0
 10
-2.20769
 20
-4.27602
 30
0.0
 10
-1.95021
 20
-3.9835
 30
0.0
 10
-1.95021
 20
-3.9835
 30
0.0
 10
-1.95021
 20
-3.9835
 30
0.0
 10
-1.95021
 20
-3.9835
 30
0.0
 10
-1.16247
 20
-3.08856
 30
0.0
 10
-1.16247
 20
-3.08856
 30
0.0
 10
-1.16247
 20
-3.08856
 30
0.0
 10
-1.16247
 20
-3.08856
 30
0.0
 10
-1.16247
 20
-1.93278
 30
0.0
 10
-1.16247
 20
-1.93278
 30
0.0
  0
SPLINE
  5
4E
330
1F
100
AcDbEntity
  8
Layer 1
 62
   177
370
     9
100
AcDbSpline
210
0.0
220
0.0
230
1.0
 70
    11
 71
     3
 72
    16
 73
    12
 74
     0
 42
0.0000000001
 43
0.0000000001
 12
1.0
 22
0.0
 32
0.0
 13
1.0
 23
0.0
 33
0.0
 40
0.0
 40
0.0
 40
0.0
 40
0.0
 40
0.25
 40
0.25
 40
0.25
 40
0.25
 40
0.5
 40
0.5
 40
0.5
 40
0.5
 40
1.0
 40
1.0
 40
1.0
 40
1.0
 10
-1.16247
 20
-3.34132
 30
0.0
 10
-1.16247
 20
-3.34132
 30
0.0
 10
-1.71444
 20
-3.9684
 30
0.0
 10
-1.71444
 20
-3.9684
 30
0.0
 10
-1.71444
 20
-3.9684
 30
0.0
 10
-1.71444
 20
-3.9684
 30
0.0
 10
-1.16247
 20
-4.45426
 30
0.0
 10
-1.16247
 20
-4.45426
 30
0.0
 10
-1.16247
 20
-4.45426
 30
0.0
 10
-1.16247
 20
-4.45426
 30
0.0
 10
-1.16247
 20
-3.34132
 30
0.0
 10
-1.16247
 20
-3.34132
 30
0.0
  0
SPLINE
  5
4F
330
1F
100
AcDbEntity
  8
Layer 1
 62
   177
370
     9
100
AcDbSpline
210
0.0
220
0.0
230
1.0
 70
    11
 71
     3
 72
    16
 73
    12
 74
     0
 42
0.0000000001
 43
0.0000000001
 12
1.0
 22
0.0
 32
0.0
 13
1.0
 23
0.0
 33
0.0
 40
0.0
 40
0.0
 40
0.0
 40
0.0
 40
0.25
 40
0.25
 40
0.25
 40
0.25
 40
0.5
 40
0.5
 40
0.5
 40
0.5
 40
1.0
 40
1.0
 40
1.0
 40
1.0
 10
-1.16247
 20
-5.6163
 30
0.0
 10
-1.16247
 20
-5.6163
 30
0.0
 10
-1.35859
 20
-5.8391
 30
0.0
 10
-1.35859
 20
-5.8391
 30
0.0
 10
-1.35859
 20
-5.8391
 30
0.0
 10
-1.35859
 20
-5.8391
 30
0.0
 10
-1.16247
 20
-6.01173
 30
0.0
 10
-1.16247
 20
-6.01173
 30
0.0
 10
-1.16247
 20
-6.01173
 30
0.0
 10
-1.16247
 20
-6.01173
 30
0.0
 10
-1.16247
 20
-5.6163
 30
0.0
 10
-1.16247
 20
-5.6163
 30
0.0
  0
SPLINE
  5
50
330
1F
100
AcDbEntity
  8
Layer 1
 62
   177
370
     9
100
AcDbSpline
210
0.0
220
0.0
230
1.0
 70
    11
 71
     3
 72
    16
 73
    12
 74
     0
 42
0.0000000001
 43
0.0000000001
 12
1.0
 22
0.0
 32
0.0
 13
1.0
 23
0.0
 33
0.0
 40
0.0
 40
0.0
 40
0.0
 40
0.0
 40
0.25
 40
0.25
 40
0.25
 40
0.25
 40
0.5
 40
0.5
 40
0.5
 40
0.5
 40
1.0
 40
1.0
 40
1.0
 40
1.0
 10
-1.16247
 20
-6.71163
 30
0.0
 10
-1.16247
 20
-6.71163
 30
0.0
 10
-1.44066
 20
-7.02766
 30
0.0
 10
-1.44066
 20
-7.02766
 30
0.0
 10
-1.44066
 20
-7.02766
 30
0.0
 10
-1.44066
 20
-7.02766
 30
0.0
 10
-1.16247
 20
-7.27253
 30
0.0
 10
-1.16247
 20
-7.27253
 30
0.0
 10
-1.16247
 20
-7.27253
 30
0.0
 10
-1.16247
 20
-7.27253
 30
0.0
 10
-1.16247
 20
-6.71163
 30
0.0
 10
-1.16247
 20
-6.71163
 30
0.0
  0
SPLINE
  5
51
330
1F
100
AcDbEntity
  8
Layer 1
 62
   177
370
     9
100
AcDbSpline
210
0.0
220
0.0
230
1.0
 70
    11
 71
     3
 72
    44
 73
    40
 74
     0
 42
0.0000000001
 43
0.0000000001
 12
1.0
 22
0.0
 32
0.0
 13
1.0
 23
0.0
 33
0.0
 40
0.0
 40
0.0
 40
0.0
 40
0.0
 40
0.0909090909090909
 40
0.0909090909090909
 40
0.0909090909090909
 40
0.0909090909090909
 40
0.1818181818181818
 40
0.1818181818181818
 40
0.1818181818181818
 40
0.1818181818181818
 40
0.2727272727272727
 40
0.2727272727272727
 40
0.2727272727272727
 40
0.2727272727272727
 40
0.3636363636363636
 40
0.3636363636363636
 40
0.3636363636363636
 40
0.3636363636363636
 40
0.4545454545454545
 40
0.4545454545454545
 40
0.4545454545454545
 40
0.4545454545454545
 40
0.5454545454545454
 40
0.5454545454545454
 40
0.5454545454545454
 40
0.5454545454545454
 40
0.6363636363636364
 40
0.6363636363636364
 40
0.6363636363636364
 40
0.6363636363636364
 40
0.7272727272727273
 40
0.7272727272727273
 40
0.7272727272727273
 40
0.7272727272727273
 40
0.8181818181818182
 40
0.8181818181818182
 40
0.8181818181818182
 40
0.8181818181818182
 40
1.0
 40
1.0
 40
1.0
 40
1.0
 10
-1.16247
 20
-8.14401
 30
0.0
 10
-1.16247
 20
-8.14401
 30
0.0
 10
-1.46592
 20
-8.48874
 30
0.0
 10
-1.46592
 20
-8.48874
 30
0.0
 10
-1.46592
 20
-8.48874
 30
0.0
 10
-1.46592
 20
-8.48874
 30
0.0
 10
-1.46598
 20
-8.48868
 30
0.0
 10
-1.46598
 20
-8.48868
 30
0.0
 10
-1.46598
 20
-8.48868
 30
0.0
 10
-1.46598
 20
-8.48868
 30
0.0
 10
-2.1763
 20
-7.86342
 30
0.0
 10
-2.1763
 20
-7.86342
 30
0.0
 10
-2.1763
 20
-7.86342
 30
0.0
 10
-2.1763
 20
-7.86342
 30
0.0
 10
-2.65449
 20
-8.40668
 30
0.0
 10
-2.65449
 20
-8.40668
 30
0.0
 10
-2.65449
 20
-8.40668
 30
0.0
 10
-2.65449
 20
-8.40668
 30
0.0
 10
-2.65456
 20
-8.40662
 30
0.0
 10
-2.65456
 20
-8.40662
 30
0.0
 10
-2.65456
 20
-8.40662
 30
0.0
 10
-2.65456
 20
-8.40662
 30
0.0
 10
-2.69134
 20
-8.44841
 30
0.0
 10
-2.69134
 20
-8.44841
 30
0.0
 10
-2.69134
 20
-8.44841
 30
0.0
 10
-2.69134
 20
-8.44841
 30
0.0
 10
-2.39882
 20
-8.70589
 30
0.0
 10
-2.39882
 20
-8.70589
 30
0.0
 10
-2.39882
 20
-8.70589
 30
0.0
 10
-2.39882
 20
-8.70589
 30
0.0
 10
-1.84914
 20
-9.18973
 30
0.0
 10
-1.84914
 20
-9.18973
 30
0.0
 10
-1.84914
 20
-9.18973
 30
0.0
 10
-1.84914
 20
-9.18973
 30
0.0
 10
-1.16247
 20
-9.18973
 30
0.0
 10
-1.16247
 20
-9.18973
 30
0.0
 10
-1.16247
 20
-9.18973
 30
0.0
 10
-1.16247
 20
-9.18973
 30
0.0
 10
-1.16247
 20
-8.14401
 30
0.0
 10
-1.16247
 20
-8.14401
 30
0.0
  0
SPLINE
  5
52
330
1F
100
AcDbEntity
  8
Layer 1
 62
   177
370
     9
100
AcDbSpline
210
0.0
220
0.0
230
1.0
 70
    11
 71
     3
 72
    16
 73
    12
 74
     0
 42
0.0000000001
 43
0.0000000001
 12
1.0
 22
0.0
 32
0.0
 13
1.0
 23
0.0
 33
0.0
 40
0.0
 40
0.0
 40
0.0
 40
0.0
 40
0.25
 40
0.25
 40
0.25
 40
0.25
 40
0.5
 40
0.5
 40
0.5
 40
0.5
 40
1.0
 40
1.0
 40
1.0
 40
1.0
 10
-2.10191
 20
-9.18973
 30
0.0
 10
-2.10191
 20
-9.18973
 30
0.0
 10
-2.38374
 20
-8.94166
 30
0.0
 10
-2.38374
 20
-8.94166
 30
0.0
 10
-2.38374
 20
-8.94166
 30
0.0
 10
-2.38374
 20
-8.94166
 30
0.0
 10
-2.60209
 20
-9.18973
 30
0.0
 10
-2.60209
 20
-9.18973
 30
0.0
 10
-2.60209
 20
-9.18973
 30
0.0
 10
-2.60209
 20
-9.18973
 30
0.0
 10
-2.10191
 20
-9.18973
 30
0.0
 10
-2.10191
 20
-9.18973
 30
0.0
  0
SPLINE
  5
53
330
1F
100
AcDbEntity
  8
Layer 1
 62
   177
370
     9
100
AcDbSpline
210
0.0
220
0.0
230
1.0
 70
    11
 71
     3
 72
    48
 73
    44
 74
     0
 42
0.0000000001
 43
0.0000000001
 12
1.0
 22
0.0
 32
0.0
 13
1.0
 23
0.0
 33
0.0
 40
0.0
 40
0.0
 40
0.0
 40
0.0
 40
0.0833333333333333
 40
0.0833333333333333
 40
0.0833333333333333
 40
0.0833333333333333
 40
0.1666666666666667
 40
0.1666666666666667
 40
0.1666666666666667
 40
0.1666666666666667
 40
0.25
 40
0.25
 40
0.25
 40
0.25
 40
0.3333333333333333
 40
0.3333333333333333
 40
0.3333333333333333
 40
0.3333333333333333
 40
0.4166666666666667
 40
0.4166666666666667
 40
0.4166666666666667
 40
0.4166666666666667
 40
0.5
 40
0.5
 40
0.5
 40
0.5
 40
0.5833333333333334
 40
0.5833333333333334
 40
0.5833333333333334
 40
0.5833333333333334
 40
0.6666666666666666
 40
0.6666666666666666
 40
0.6666666666666666
 40
0.6666666666666666
 40
0.75
 40
0.75
 40
0.75
 40
0.75
 40
0.8333333333333334
 40
0.8333333333333334
 40
0.8333333333333334
 40
0.8333333333333334
 40
1.0
 40
1.0
 40
1.0
 40
1.0
 10
-2.82458
 20
-9.18973
 30
0.0
 10
-2.82458
 20
-9.18973
 30
0.0
 10
-2.5091
 20
-8.83131
 30
0.0
 10
-2.5091
 20
-8.83131
 30
0.0
 10
-2.5091
 20
-8.83131
 30
0.0
 10
-2.5091
 20
-8.83131
 30
0.0
 10
-2.92704
 20
-8.46343
 30
0.0
 10
-2.92704
 20
-8.46343
 30
0.0
 10
-2.92704
 20
-8.46343
 30
0.0
 10
-2.92704
 20
-8.46343
 30
0.0
 10
-2.77993
 20
-8.29628
 30
0.0
 10
-2.77993
 20
-8.29628
 30
0.0
 10
-2.77993
 20
-8.29628
 30
0.0
 10
-2.77993
 20
-8.29628
 30
0.0
 10
-3.36488
 20
-7.78137
 30
0.0
 10
-3.36488
 20
-7.78137
 30
0.0
 10
-3.36488
 20
-7.78137
 30
0.0
 10
-3.36488
 20
-7.78137
 30
0.0
 10
-3.73277
 20
-8.19933
 30
0.0
 10
-3.73277
 20
-8.19933
 30
0.0
 10
-3.73277
 20
-8.19933
 30
0.0
 10
-3.73277
 20
-8.19933
 30
0.0
 10
-3.9
 20
-8.05213
 30
0.0
 10
-3.9
 20
-8.05213
 30
0.0
 10
-3.9
 20
-8.05213
 30
0.0
 10
-3.9
 20
-8.05213
 30
0.0
 10
-4.41489
 20
-8.63709
 30
0.0
 10
-4.41489
 20
-8.63709
 30
0.0
 10
-4.41489
 20
-8.63709
 30
0.0
 10
-4.41489
 20
-8.63709
 30
0.0
 10
-3.99694
 20
-9.00498
 30
0.0
 10
-3.99694
 20
-9.00498
 30
0.0
 10
-3.99694
 20
-9.00498
 30
0.0
 10
-3.99694
 20
-9.00498
 30
0.0
 10
-4.14413
 20
-9.17221
 30
0.0
 10
-4.14413
 20
-9.17221
 30
0.0
 10
-4.14413
 20
-9.17221
 30
0.0
 10
-4.14413
 20
-9.17221
 30
0.0
 10
-4.12423
 20
-9.18973
 30
0.0
 10
-4.12423
 20
-9.18973
 30
0.0
 10
-4.12423
 20
-9.18973
 30
0.0
 10
-4.12423
 20
-9.18973
 30
0.0
 10
-2.82458
 20
-9.18973
 30
0.0
 10
-2.82458
 20
-9.18973
 30
0.0
  0
SPLINE
  5
54
330
1F
100
AcDbEntity
  8
Layer 1
 62
   177
370
     9
100
AcDbSpline
210
0.0
220
0.0
230
1.0
 70
    11
 71
     3
 72
    56
 73
    52
 74
     0
 42
0.0000000001
 43
0.0000000001
 12
1.0
 22
0.0
 32
0.0
 13
1.0
 23
0.0
 33
0.0
 40
0.0
 40
0.0
 40
0.0
 40
0.0
 40
0.0714285714285714
 40
0.0714285714285714
 40
0.0714285714285714
 40
0.0714285714285714
 40
0.1428571428571428
 40
0.1428571428571428
 40
0.1428571428571428
 40
0.1428571428571428
 40
0.2142857142857143
 40
0.2142857142857143
 40
0.2142857142857143
 40
0.2142857142857143
 40
0.2857142857142857
 40
0.2857142857142857
 40
0.2857142857142857
 40
0.2857142857142857
 40
0.3571428571428572
 40
0.3571428571428572
 40
0.3571428571428572
 40
0.3571428571428572
 40
0.4285714285714285
 40
0.4285714285714285
 40
0.4285714285714285
 40
0.4285714285714285
 40
0.5
 40
0.5
 40
0.5
 40
0.5
 40
0.5714285714285714
 40
0.5714285714285714
 40
0.5714285714285714
 40
0.5714285714285714
 40
0.6428571428571429
 40
0.6428571428571429
 40
0.6428571428571429
 40
0.6428571428571429
 40
0.7142857142857143
 40
0.7142857142857143
 40
0.7142857142857143
 40
0.7142857142857143
 40
0.7857142857142857
 40
0.7857142857142857
 40
0.7857142857142857
 40
0.7857142857142857
 40
0.8571428571428571
 40
0.8571428571428571
 40
0.8571428571428571
 40
0.8571428571428571
 40
1.0
 40
1.0
 40
1.0
 40
1.0
 10
-4.38206
 20
-9.18973
 30
0.0
 10
-4.38206
 20
-9.18973
 30
0.0
 10
-4.2695
 20
-9.06185
 30
0.0
 10
-4.2695
 20
-9.06185
 30
0.0
 10
-4.2695
 20
-9.06185
 30
0.0
 10
-4.2695
 20
-9.06185
 30
0.0
 10
-4.23265
 20
-9.02001
 30
0.0
 10
-4.23265
 20
-9.02001
 30
0.0
 10
-4.23265
 20
-9.02001
 30
0.0
 10
-4.23265
 20
-9.02001
 30
0.0
 10
-4.52517
 20
-8.76252
 30
0.0
 10
-4.52517
 20
-8.76252
 30
0.0
 10
-4.52517
 20
-8.76252
 30
0.0
 10
-4.52517
 20
-8.76252
 30
0.0
 10
-6.07133
 20
-7.40156
 30
0.0
 10
-6.07133
 20
-7.40156
 30
0.0
 10
-6.07133
 20
-7.40156
 30
0.0
 10
-6.07133
 20
-7.40156
 30
0.0
 10
-6.58629
 20
-7.9866
 30
0.0
 10
-6.58629
 20
-7.9866
 30
0.0
 10
-6.58629
 20
-7.9866
 30
0.0
 10
-6.58629
 20
-7.9866
 30
0.0
 10
-6.04305
 20
-8.46478
 30
0.0
 10
-6.04305
 20
-8.46478
 30
0.0
 10
-6.04305
 20
-8.46478
 30
0.0
 10
-6.04305
 20
-8.46478
 30
0.0
 10
-6.66835
 20
-9.17518
 30
0.0
 10
-6.66835
 20
-9.17518
 30
0.0
 10
-6.66835
 20
-9.17518
 30
0.0
 10
-6.66835
 20
-9.17518
 30
0.0
 10
-6.65183
 20
-9.18973
 30
0.0
 10
-6.65183
 20
-9.18973
 30
0.0
 10
-6.65183
 20
-9.18973
 30
0.0
 10
-6.65183
 20
-9.18973
 30
0.0
 10
-5.64285
 20
-9.18973
 30
0.0
 10
-5.64285
 20
-9.18973
 30
0.0
 10
-5.64285
 20
-9.18973
 30
0.0
 10
-5.64285
 20
-9.18973
 30
0.0
 10
-5.45807
 20
-8.9798
 30
0.0
 10
-5.45807
 20
-8.9798
 30
0.0
 10
-5.45807
 20
-8.9798
 30
0.0
 10
-5.45807
 20
-8.9798
 30
0.0
 10
-5.45801
 20
-8.97973
 30
0.0
 10
-5.45801
 20
-8.97973
 30
0.0
 10
-5.45801
 20
-8.97973
 30
0.0
 10
-5.45801
 20
-8.97973
 30
0.0
 10
-5.21944
 20
-9.18973
 30
0.0
 10
-5.21944
 20
-9.18973
 30
0.0
 10
-5.21944
 20
-9.18973
 30
0.0
 10
-5.21944
 20
-9.18973
 30
0.0
 10
-4.38206
 20
-9.18973
 30
0.0
 10
-4.38206
 20
-9.18973
 30
0.0
  0
SPLINE
  5
55
330
1F
100
AcDbEntity
  8
Layer 1
 62
   177
370
     9
100
AcDbSpline
210
0.0
220
0.0
230
1.0
 70
    11
 71
     3
 72
    32
 73
    28
 74
     0
 42
0.0000000001
 43
0.0000000001
 12
1.0
 22
0.0
 32
0.0
 13
1.0
 23
0.0
 33
0.0
 40
0.0
 40
0.0
 40
0.0
 40
0.0
 40
0.125
 40
0.125
 40
0.125
 40
0.125
 40
0.25
 40
0.25
 40
0.25
 40
0.25
 40
0.375
 40
0.375
 40
0.375
 40
0.375
 40
0.5
 40
0.5
 40
0.5
 40
0.5
 40
0.625
 40
0.625
 40
0.625
 40
0.625
 40
0.75
 40
0.75
 40
0.75
 40
0.75
 40
1.0
 40
1.0
 40
1.0
 40
1.0
 10
-6.90365
 20
-9.18973
 30
0.0
 10
-6.90365
 20
-9.18973
 30
0.0
 10
-6.27876
 20
-8.4798
 30
0.0
 10
-6.27876
 20
-8.4798
 30
0.0
 10
-6.27876
 20
-8.4798
 30
0.0
 10
-6.27876
 20
-8.4798
 30
0.0
 10
-6.822
 20
-8.00162
 30
0.0
 10
-6.822
 20
-8.00162
 30
0.0
 10
-6.822
 20
-8.00162
 30
0.0
 10
-6.822
 20
-8.00162
 30
0.0
 10
-6.86379
 20
-7.96484
 30
0.0
 10
-6.86379
 20
-7.96484
 30
0.0
 10
-6.86379
 20
-7.96484
 30
0.0
 10
-6.86379
 20
-7.96484
 30
0.0
 10
-7.12127
 20
-8.25735
 30
0.0
 10
-7.12127
 20
-8.25735
 30
0.0
 10
-7.12127
 20
-8.25735
 30
0.0
 10
-7.12127
 20
-8.25735
 30
0.0
 10
-7.1749
 20
-8.31828
 30
0.0
 10
-7.1749
 20
-8.31828
 30
0.0
 10
-7.1749
 20
-8.31828
 30
0.0
 10
-7.1749
 20
-8.31828
 30
0.0
 10
-7.1749
 20
-9.18973
 30
0.0
 10
-7.1749
 20
-9.18973
 30
0.0
 10
-7.1749
 20
-9.18973
 30
0.0
 10
-7.1749
 20
-9.18973
 30
0.0
 10
-6.90365
 20
-9.18973
 30
0.0
 10
-6.90365
 20
-9.18973
 30
0.0
  0
SPLINE
  5
56
330
1F
100
AcDbEntity
  8
Layer 1
 62
   177
370
     9
100
AcDbSpline
210
0.0
220
0.0
230
1.0
 70
    11
 71
     3
 72
    36
 73
    32
 74
     0
 42
0.0000000001
 43
0.0000000001
 12
1.0
 22
0.0
 32
0.0
 13
1.0
 23
0.0
 33
0.0
 40
0.0
 40
0.0
 40
0.0
 40
0.0
 40
0.1111111111111111
 40
0.1111111111111111
 40
0.1111111111111111
 40
0.1111111111111111
 40
0.2222222222222222
 40
0.2222222222222222
 40
0.2222222222222222
 40
0.2222222222222222
 40
0.3333333333333333
 40
0.3333333333333333
 40
0.3333333333333333
 40
0.3333333333333333
 40
0.4444444444444444
 40
0.4444444444444444
 40
0.4444444444444444
 40
0.4444444444444444
 40
0.5555555555555556
 40
0.5555555555555556
 40
0.5555555555555556
 40
0.5555555555555556
 40
0.6666666666666666
 40
0.6666666666666666
 40
0.6666666666666666
 40
0.6666666666666666
 40
0.7777777777777778
 40
0.7777777777777778
 40
0.7777777777777778
 40
0.7777777777777778
 40
1.0
 40
1.0
 40
1.0
 40
1.0
 10
-7.1749
 20
-8.06551
 30
0.0
 10
-7.1749
 20
-8.06551
 30
0.0
 10
-6.8788
 20
-7.72912
 30
0.0
 10
-6.8788
 20
-7.72912
 30
0.0
 10
-6.8788
 20
-7.72912
 30
0.0
 10
-6.8788
 20
-7.72912
 30
0.0
 10
-6.71165
 20
-7.87625
 30
0.0
 10
-6.71165
 20
-7.87625
 30
0.0
 10
-6.71165
 20
-7.87625
 30
0.0
 10
-6.71165
 20
-7.87625
 30
0.0
 10
-6.19669
 20
-7.29122
 30
0.0
 10
-6.19669
 20
-7.29122
 30
0.0
 10
-6.19669
 20
-7.29122
 30
0.0
 10
-6.19669
 20
-7.29122
 30
0.0
 10
-6.61465
 20
-6.92333
 30
0.0
 10
-6.61465
 20
-6.92333
 30
0.0
 10
-6.61465
 20
-6.92333
 30
0.0
 10
-6.61465
 20
-6.92333
 30
0.0
 10
-6.46751
 20
-6.75617
 30
0.0
 10
-6.46751
 20
-6.75617
 30
0.0
 10
-6.46751
 20
-6.75617
 30
0.0
 10
-6.46751
 20
-6.75617
 30
0.0
 10
-7.05249
 20
-6.24127
 30
0.0
 10
-7.05249
 20
-6.24127
 30
0.0
 10
-7.05249
 20
-6.24127
 30
0.0
 10
-7.05249
 20
-6.24127
 30
0.0
 10
-7.1749
 20
-6.38035
 30
0.0
 10
-7.1749
 20
-6.38035
 30
0.0
 10
-7.1749
 20
-6.38035
 30
0.0
 10
-7.1749
 20
-6.38035
 30
0.0
 10
-7.1749
 20
-8.06551
 30
0.0
 10
-7.1749
 20
-8.06551
 30
0.0
  0
SPLINE
  5
57
330
1F
100
AcDbEntity
  8
Layer 1
 62
   177
370
     9
100
AcDbSpline
210
0.0
220
0.0
230
1.0
 70
    11
 71
     3
 72
    28
 73
    24
 74
     0
 42
0.0000000001
 43
0.0000000001
 12
1.0
 22
0.0
 32
0.0
 13
1.0
 23
0.0
 33
0.0
 40
0.0
 40
0.0
 40
0.0
 40
0.0
 40
0.1428571428571428
 40
0.1428571428571428
 40
0.1428571428571428
 40
0.1428571428571428
 40
0.2857142857142857
 40
0.2857142857142857
 40
0.2857142857142857
 40
0.2857142857142857
 40
0.4285714285714285
 40
0.4285714285714285
 40
0.4285714285714285
 40
0.4285714285714285
 40
0.5714285714285714
 40
0.5714285714285714
 40
0.5714285714285714
 40
0.5714285714285714
 40
0.7142857142857143
 40
0.7142857142857143
 40
0.7142857142857143
 40
0.7142857142857143
 40
1.0
 40
1.0
 40
1.0
 40
1.0
 10
-7.1749
 20
-6.1276
 30
0.0
 10
-7.1749
 20
-6.1276
 30
0.0
 10
-5.81695
 20
-4.58484
 30
0.0
 10
-5.81695
 20
-4.58484
 30
0.0
 10
-5.81695
 20
-4.58484
 30
0.0
 10
-5.81695
 20
-4.58484
 30
0.0
 10
-6.40198
 20
-4.06988
 30
0.0
 10
-6.40198
 20
-4.06988
 30
0.0
 10
-6.40198
 20
-4.06988
 30
0.0
 10
-6.40198
 20
-4.06988
 30
0.0
 10
-6.8801
 20
-4.61306
 30
0.0
 10
-6.8801
 20
-4.61306
 30
0.0
 10
-6.8801
 20
-4.61306
 30
0.0
 10
-6.8801
 20
-4.61306
 30
0.0
 10
-6.88016
 20
-4.61313
 30
0.0
 10
-6.88016
 20
-4.61313
 30
0.0
 10
-6.88016
 20
-4.61313
 30
0.0
 10
-6.88016
 20
-4.61313
 30
0.0
 10
-7.1749
 20
-4.35369
 30
0.0
 10
-7.1749
 20
-4.35369
 30
0.0
 10
-7.1749
 20
-4.35369
 30
0.0
 10
-7.1749
 20
-4.35369
 30
0.0
 10
-7.1749
 20
-6.1276
 30
0.0
 10
-7.1749
 20
-6.1276
 30
0.0
  0
SPLINE
  5
58
330
1F
100
AcDbEntity
  8
Layer 1
 62
   177
370
     9
100
AcDbSpline
210
0.0
220
0.0
230
1.0
 70
    11
 71
     3
 72
    28
 73
    24
 74
     0
 42
0.0000000001
 43
0.0000000001
 12
1.0
 22
0.0
 32
0.0
 13
1.0
 23
0.0
 33
0.0
 40
0.0
 40
0.0
 40
0.0
 40
0.0
 40
0.1428571428571428
 40
0.1428571428571428
 40
0.1428571428571428
 40
0.1428571428571428
 40
0.2857142857142857
 40
0.2857142857142857
 40
0.2857142857142857
 40
0.2857142857142857
 40
0.4285714285714285
 40
0.4285714285714285
 40
0.4285714285714285
 40
0.4285714285714285
 40
0.5714285714285714
 40
0.5714285714285714
 40
0.5714285714285714
 40
0.5714285714285714
 40
0.7142857142857143
 40
0.7142857142857143
 40
0.7142857142857143
 40
0.7142857142857143
 40
1.0
 40
1.0
 40
1.0
 40
1.0
 10
-7.1749
 20
-4.13107
 30
0.0
 10
-7.1749
 20
-4.13107
 30
0.0
 10
-6.89512
 20
-4.37734
 30
0.0
 10
-6.89512
 20
-4.37734
 30
0.0
 10
-6.89512
 20
-4.37734
 30
0.0
 10
-6.89512
 20
-4.37734
 30
0.0
 10
-6.41701
 20
-3.83416
 30
0.0
 10
-6.41701
 20
-3.83416
 30
0.0
 10
-6.41701
 20
-3.83416
 30
0.0
 10
-6.41701
 20
-3.83416
 30
0.0
 10
-6.38016
 20
-3.7923
 30
0.0
 10
-6.38016
 20
-3.7923
 30
0.0
 10
-6.38016
 20
-3.7923
 30
0.0
 10
-6.38016
 20
-3.7923
 30
0.0
 10
-6.67267
 20
-3.53483
 30
0.0
 10
-6.67267
 20
-3.53483
 30
0.0
 10
-6.67267
 20
-3.53483
 30
0.0
 10
-6.67267
 20
-3.53483
 30
0.0
 10
-7.1749
 20
-3.09276
 30
0.0
 10
-7.1749
 20
-3.09276
 30
0.0
 10
-7.1749
 20
-3.09276
 30
0.0
 10
-7.1749
 20
-3.09276
 30
0.0
 10
-7.1749
 20
-4.13107
 30
0.0
 10
-7.1749
 20
-4.13107
 30
0.0
  0
SPLINE
  5
59
330
1F
100
AcDbEntity
  8
Layer 1
 62
   177
370
     9
100
AcDbSpline
210
0.0
220
0.0
230
1.0
 70
    11
 71
     3
 72
    40
 73
    36
 74
     0
 42
0.0000000001
 43
0.0000000001
 12
1.0
 22
0.0
 32
0.0
 13
1.0
 23
0.0
 33
0.0
 40
0.0
 40
0.0
 40
0.0
 40
0.0
 40
0.1
 40
0.1
 40
0.1
 40
0.1
 40
0.2
 40
0.2
 40
0.2
 40
0.2
 40
0.3
 40
0.3
 40
0.3
 40
0.3
 40
0.4
 40
0.4
 40
0.4
 40
0.4
 40
0.5
 40
0.5
 40
0.5
 40
0.5
 40
0.6
 40
0.6
 40
0.6
 40
0.6
 40
0.7
 40
0.7
 40
0.7
 40
0.7
 40
0.8
 40
0.8
 40
0.8
 40
0.8
 40
1.0
 40
1.0
 40
1.0
 40
1.0
 10
-7.1749
 20
-2.87026
 30
0.0
 10
-7.1749
 20
-2.87026
 30
0.0
 10
-6.68776
 20
-3.29905
 30
0.0
 10
-6.68776
 20
-3.29905
 30
0.0
 10
-6.68776
 20
-3.29905
 30
0.0
 10
-6.68776
 20
-3.29905
 30
0.0
 10
-6.17287
 20
-2.71409
 30
0.0
 10
-6.17287
 20
-2.71409
 30
0.0
 10
-6.17287
 20
-2.71409
 30
0.0
 10
-6.17287
 20
-2.71409
 30
0.0
 10
-6.71605
 20
-2.23598
 30
0.0
 10
-6.71605
 20
-2.23598
 30
0.0
 10
-6.71605
 20
-2.23598
 30
0.0
 10
-6.71605
 20
-2.23598
 30
0.0
 10
-6.71598
 20
-2.23591
 30
0.0
 10
-6.71598
 20
-2.23591
 30
0.0
 10
-6.71598
 20
-2.23591
 30
0.0
 10
-6.71598
 20
-2.23591
 30
0.0
 10
-6.71605
 20
-2.23584
 30
0.0
 10
-6.71605
 20
-2.23584
 30
0.0
 10
-6.71605
 20
-2.23584
 30
0.0
 10
-6.71605
 20
-2.23584
 30
0.0
 10
-6.09081
 20
-1.52552
 30
0.0
 10
-6.09081
 20
-1.52552
 30
0.0
 10
-6.09081
 20
-1.52552
 30
0.0
 10
-6.09081
 20
-1.52552
 30
0.0
 10
-6.67577
 20
-1.01062
 30
0.0
 10
-6.67577
 20
-1.01062
 30
0.0
 10
-6.67577
 20
-1.01062
 30
0.0
 10
-6.67577
 20
-1.01062
 30
0.0
 10
-7.1749
 20
-1.57768
 30
0.0
 10
-7.1749
 20
-1.57768
 30
0.0
 10
-7.1749
 20
-1.57768
 30
0.0
 10
-7.1749
 20
-1.57768
 30
0.0
 10
-7.1749
 20
-2.87026
 30
0.0
 10
-7.1749
 20
-2.87026
 30
0.0
  0
SPLINE
  5
5A
330
1F
100
AcDbEntity
  8
Layer 1
 62
   177
370
     9
100
AcDbSpline
210
0.0
220
0.0
230
1.0
 70
    11
 71
     3
 72
    16
 73
    12
 74
     0
 42
0.0000000001
 43
0.0000000001
 12
1.0
 22
0.0
 32
0.0
 13
1.0
 23
0.0
 33
0.0
 40
0.0
 40
0.0
 40
0.0
 40
0.0
 40
0.25
 40
0.25
 40
0.25
 40
0.25
 40
0.5
 40
0.5
 40
0.5
 40
0.5
 40
1.0
 40
1.0
 40
1.0
 40
1.0
 10
-7.1749
 20
-1.32475
 30
0.0
 10
-7.1749
 20
-1.32475
 30
0.0
 10
-6.80115
 20
-0.90013
 30
0.0
 10
-6.80115
 20
-0.90013
 30
0.0
 10
-6.80115
 20
-0.90013
 30
0.0
 10
-6.80115
 20
-0.90013
 30
0.0
 10
-7.1749
 20
-0.57115
 30
0.0
 10
-7.1749
 20
-0.57115
 30
0.0
 10
-7.1749
 20
-0.57115
 30
0.0
 10
-7.1749
 20
-0.57115
 30
0.0
 10
-7.1749
 20
-1.32475
 30
0.0
 10
-7.1749
 20
-1.32475
 30
0.0
  0
SPLINE
  5
5B
330
1F
100
AcDbEntity
  8
Layer 1
 62
   177
370
     9
100
AcDbSpline
210
0.0
220
0.0
230
1.0
 70
    11
 71
     3
 72
    16
 73
    12
 74
     0
 42
0.0000000001
 43
0.0000000001
 12
1.0
 22
0.0
 32
0.0
 13
1.0
 23
0.0
 33
0.0
 40
0.0
 40
0.0
 40
0.0
 40
0.0
 40
0.25
 40
0.25
 40
0.25
 40
0.25
 40
0.5
 40
0.5
 40
0.5
 40
0.5
 40
1.0
 40
1.0
 40
1.0
 40
1.0
 10
-7.1749
 20
0.10748
 30
0.0
 10
-7.1749
 20
0.10748
 30
0.0
 10
-6.88617
 20
0.4355
 30
0.0
 10
-6.88617
 20
0.4355
 30
0.0
 10
-6.88617
 20
0.4355
 30
0.0
 10
-6.88617
 20
0.4355
 30
0.0
 10
-7.1749
 20
0.68964
 30
0.0
 10
-7.1749
 20
0.68964
 30
0.0
 10
-7.1749
 20
0.68964
 30
0.0
 10
-7.1749
 20
0.68964
 30
0.0
 10
-7.1749
 20
0.10748
 30
0.0
 10
-7.1749
 20
0.10748
 30
0.0
  0
SPLINE
  5
5C
330
1F
100
AcDbEntity
  8
Layer 1
 62
   177
370
     9
100
AcDbSpline
210
0.0
220
0.0
230
1.0
 70
    11
 71
     3
 72
    16
 73
    12
 74
     0
 42
0.0000000001
 43
0.0000000001
 12
1.0
 22
0.0
 32
0.0
 13
1.0
 23
0.0
 33
0.0
 40
0.0
 40
0.0
 40
0.0
 40
0.0
 40
0.25
 40
0.25
 40
0.25
 40
0.25
 40
0.5
 40
0.5
 40
0.5
 40
0.5
 40
1.0
 40
1.0
 40
1.0
 40
1.0
 10
-7.1749
 20
1.20282
 30
0.0
 10
-7.1749
 20
1.20282
 30
0.0
 10
-6.80411
 20
1.62408
 30
0.0
 10
-6.80411
 20
1.62408
 30
0.0
 10
-6.80411
 20
1.62408
 30
0.0
 10
-6.80411
 20
1.62408
 30
0.0
 10
-7.1749
 20
1.95046
 30
0.0
 10
-7.1749
 20
1.95046
 30
0.0
 10
-7.1749
 20
1.95046
 30
0.0
 10
-7.1749
 20
1.95046
 30
0.0
 10
-7.1749
 20
1.20282
 30
0.0
 10
-7.1749
 20
1.20282
 30
0.0
  0
SPLINE
  5
5D
330
1F
100
AcDbEntity
  8
Layer 1
 62
   177
370
     9
100
AcDbSpline
210
0.0
220
0.0
230
1.0
 70
    11
 71
     3
 72
    52
 73
    48
 74
     0
 42
0.0000000001
 43
0.0000000001
 12
1.0
 22
0.0
 32
0.0
 13
1.0
 23
0.0
 33
0.0
 40
0.0
 40
0.0
 40
0.0
 40
0.0
 40
0.0769230769230769
 40
0.0769230769230769
 40
0.0769230769230769
 40
0.0769230769230769
 40
0.1538461538461539
 40
0.1538461538461539
 40
0.1538461538461539
 40
0.1538461538461539
 40
0.2307692307692308
 40
0.2307692307692308
 40
0.2307692307692308
 40
0.2307692307692308
 40
0.3076923076923077
 40
0.3076923076923077
 40
0.3076923076923077
 40
0.3076923076923077
 40
0.3846153846153846
 40
0.3846153846153846
 40
0.3846153846153846
 40
0.3846153846153846
 40
0.4615384615384616
 40
0.4615384615384616
 40
0.4615384615384616
 40
0.4615384615384616
 40
0.5384615384615384
 40
0.5384615384615384
 40
0.5384615384615384
 40
0.5384615384615384
 40
0.6153846153846154
 40
0.6153846153846154
 40
0.6153846153846154
 40
0.6153846153846154
 40
0.6923076923076923
 40
0.6923076923076923
 40
0.6923076923076923
 40
0.6923076923076923
 40
0.7692307692307693
 40
0.7692307692307693
 40
0.7692307692307693
 40
0.7692307692307693
 40
0.8461538461538461
 40
0.8461538461538461
 40
0.8461538461538461
 40
0.8461538461538461
 40
1.0
 40
1.0
 40
1.0
 40
1.0
 10
-7.1749
 20
2.46961
 30
0.0
 10
-7.1749
 20
2.46961
 30
0.0
 10
-6.96459
 20
2.28448
 30
0.0
 10
-6.96459
 20
2.28448
 30
0.0
 10
-6.96459
 20
2.28448
 30
0.0
 10
-6.96459
 20
2.28448
 30
0.0
 10
-6.4864
 20
2.82773
 30
0.0
 10
-6.4864
 20
2.82773
 30
0.0
 10
-6.4864
 20
2.82773
 30
0.0
 10
-6.4864
 20
2.82773
 30
0.0
 10
-6.48634
 20
2.82767
 30
0.0
 10
-6.48634
 20
2.82767
 30
0.0
 10
-6.48634
 20
2.82767
 30
0.0
 10
-6.48634
 20
2.82767
 30
0.0
 10
-5.77601
 20
2.20243
 30
0.0
 10
-5.77601
 20
2.20243
 30
0.0
 10
-5.77601
 20
2.20243
 30
0.0
 10
-5.77601
 20
2.20243
 30
0.0
 10
-5.26105
 20
2.78746
 30
0.0
 10
-5.26105
 20
2.78746
 30
0.0
 10
-5.26105
 20
2.78746
 30
0.0
 10
-5.26105
 20
2.78746
 30
0.0
 10
-5.97139
 20
3.4127
 30
0.0
 10
-5.97139
 20
3.4127
 30
0.0
 10
-5.97139
 20
3.4127
 30
0.0
 10
-5.97139
 20
3.4127
 30
0.0
 10
-5.34607
 20
4.1231
 30
0.0
 10
-5.34607
 20
4.1231
 30
0.0
 10
-5.34607
 20
4.1231
 30
0.0
 10
-5.34607
 20
4.1231
 30
0.0
 10
-5.88933
 20
4.60127
 30
0.0
 10
-5.88933
 20
4.60127
 30
0.0
 10
-5.88933
 20
4.60127
 30
0.0
 10
-5.88933
 20
4.60127
 30
0.0
 10
-5.93111
 20
4.63805
 30
0.0
 10
-5.93111
 20
4.63805
 30
0.0
 10
-5.93111
 20
4.63805
 30
0.0
 10
-5.93111
 20
4.63805
 30
0.0
 10
-6.18859
 20
4.34553
 30
0.0
 10
-6.18859
 20
4.34553
 30
0.0
 10
-6.18859
 20
4.34553
 30
0.0
 10
-6.18859
 20
4.34553
 30
0.0
 10
-7.1749
 20
3.225
 30
0.0
 10
-7.1749
 20
3.225
 30
0.0
 10
-7.1749
 20
3.225
 30
0.0
 10
-7.1749
 20
3.225
 30
0.0
 10
-7.1749
 20
2.46961
 30
0.0
 10
-7.1749
 20
2.46961
 30
0.0
  0
SPLINE
  5
5E
330
1F
100
AcDbEntity
  8
Layer 1
 62
   177
370
     9
100
AcDbSpline
210
0.0
220
0.0
230
1.0
 70
    11
 71
     3
 72
    20
 73
    16
 74
     0
 42
0.0000000001
 43
0.0000000001
 12
1.0
 22
0.0
 32
0.0
 13
1.0
 23
0.0
 33
0.0
 40
0.0
 40
0.0
 40
0.0
 40
0.0
 40
0.2
 40
0.2
 40
0.2
 40
0.2
 40
0.4
 40
0.4
 40
0.4
 40
0.4
 40
0.6
 40
0.6
 40
0.6
 40
0.6
 40
1.0
 40
1.0
 40
1.0
 40
1.0
 10
-7.1749
 20
3.47778
 30
0.0
 10
-7.1749
 20
3.47778
 30
0.0
 10
-6.42437
 20
4.33044
 30
0.0
 10
-6.42437
 20
4.33044
 30
0.0
 10
-6.42437
 20
4.33044
 30
0.0
 10
-6.42437
 20
4.33044
 30
0.0
 10
-7.00939
 20
4.84541
 30
0.0
 10
-7.00939
 20
4.84541
 30
0.0
 10
-7.00939
 20
4.84541
 30
0.0
 10
-7.00939
 20
4.84541
 30
0.0
 10
-7.1749
 20
4.65737
 30
0.0
 10
-7.1749
 20
4.65737
 30
0.0
 10
-7.1749
 20
4.65737
 30
0.0
 10
-7.1749
 20
4.65737
 30
0.0
 10
-7.1749
 20
3.47778
 30
0.0
 10
-7.1749
 20
3.47778
 30
0.0
  0
SPLINE
  5
5F
330
1F
100
AcDbEntity
  8
Layer 1
 62
   177
370
     9
100
AcDbSpline
210
0.0
220
0.0
230
1.0
 70
    11
 71
     3
 72
    20
 73
    16
 74
     0
 42
0.0000000001
 43
0.0000000001
 12
1.0
 22
0.0
 32
0.0
 13
1.0
 23
0.0
 33
0.0
 40
0.0
 40
0.0
 40
0.0
 40
0.0
 40
0.2
 40
0.2
 40
0.2
 40
0.2
 40
0.4
 40
0.4
 40
0.4
 40
0.4
 40
0.6
 40
0.6
 40
0.6
 40
0.6
 40
1.0
 40
1.0
 40
1.0
 40
1.0
 10
-7.1749
 20
4.91015
 30
0.0
 10
-7.1749
 20
4.91015
 30
0.0
 10
-7.02441
 20
5.08112
 30
0.0
 10
-7.02441
 20
5.08112
 30
0.0
 10
-7.02441
 20
5.08112
 30
0.0
 10
-7.02441
 20
5.08112
 30
0.0
 10
-6.98756
 20
5.12298
 30
0.0
 10
-6.98756
 20
5.12298
 30
0.0
 10
-6.98756
 20
5.12298
 30
0.0
 10
-6.98756
 20
5.12298
 30
0.0
 10
-7.1749
 20
5.28788
 30
0.0
 10
-7.1749
 20
5.28788
 30
0.0
 10
-7.1749
 20
5.28788
 30
0.0
 10
-7.1749
 20
5.28788
 30
0.0
 10
-7.1749
 20
4.91015
 30
0.0
 10
-7.1749
 20
4.91015
 30
0.0
  0
SPLINE
  5
60
330
1F
100
AcDbEntity
  8
Layer 1
 62
   177
370
     9
100
AcDbSpline
210
0.0
220
0.0
230
1.0
 70
    11
 71
     3
 72
    16
 73
    12
 74
     0
 42
0.0000000001
 43
0.0000000001
 12
1.0
 22
0.0
 32
0.0
 13
1.0
 23
0.0
 33
0.0
 40
0.0
 40
0.0
 40
0.0
 40
0.0
 40
0.25
 40
0.25
 40
0.25
 40
0.25
 40
0.5
 40
0.5
 40
0.5
 40
0.5
 40
1.0
 40
1.0
 40
1.0
 40
1.0
 10
-7.1749
 20
5.75287
 30
0.0
 10
-7.1749
 20
5.75287
 30
0.0
 10
-6.78027
 20
6.2012
 30
0.0
 10
-6.78027
 20
6.2012
 30
0.0
 10
-6.78027
 20
6.2012
 30
0.0
 10
-6.78027
 20
6.2012
 30
0.0
 10
-7.1749
 20
6.54855
 30
0.0
 10
-7.1749
 20
6.54855
 30
0.0
 10
-7.1749
 20
6.54855
 30
0.0
 10
-7.1749
 20
6.54855
 30
0.0
 10
-7.1749
 20
5.75287
 30
0.0
 10
-7.1749
 20
5.75287
 30
0.0
  0
SPLINE
  5
61
330
1F
100
AcDbEntity
  8
Layer 1
 62
   177
370
     9
100
AcDbSpline
210
0.0
220
0.0
230
1.0
 70
    11
 71
     3
 72
    16
 73
    12
 74
     0
 42
0.0000000001
 43
0.0000000001
 12
1.0
 22
0.0
 32
0.0
 13
1.0
 23
0.0
 33
0.0
 40
0.0
 40
0.0
 40
0.0
 40
0.0
 40
0.25
 40
0.25
 40
0.25
 40
0.25
 40
0.5
 40
0.5
 40
0.5
 40
0.5
 40
1.0
 40
1.0
 40
1.0
 40
1.0
 10
-7.1749
 20
6.84822
 30
0.0
 10
-7.1749
 20
6.84822
 30
0.0
 10
-6.69822
 20
7.38977
 30
0.0
 10
-6.69822
 20
7.38977
 30
0.0
 10
-6.69822
 20
7.38977
 30
0.0
 10
-6.69822
 20
7.38977
 30
0.0
 10
-7.1749
 20
7.80937
 30
0.0
 10
-7.1749
 20
7.80937
 30
0.0
 10
-7.1749
 20
7.80937
 30
0.0
 10
-7.1749
 20
7.80937
 30
0.0
 10
-7.1749
 20
6.84822
 30
0.0
 10
-7.1749
 20
6.84822
 30
0.0
  0
SPLINE
  5
62
330
1F
100
AcDbEntity
  8
Layer 1
 62
   177
370
     9
100
AcDbSpline
210
0.0
220
0.0
230
1.0
 70
    11
 71
     3
 72
    36
 73
    32
 74
     0
 42
0.0000000001
 43
0.0000000001
 12
1.0
 22
0.0
 32
0.0
 13
1.0
 23
0.0
 33
0.0
 40
0.0
 40
0.0
 40
0.0
 40
0.0
 40
0.1111111111111111
 40
0.1111111111111111
 40
0.1111111111111111
 40
0.1111111111111111
 40
0.2222222222222222
 40
0.2222222222222222
 40
0.2222222222222222
 40
0.2222222222222222
 40
0.3333333333333333
 40
0.3333333333333333
 40
0.3333333333333333
 40
0.3333333333333333
 40
0.4444444444444444
 40
0.4444444444444444
 40
0.4444444444444444
 40
0.4444444444444444
 40
0.5555555555555556
 40
0.5555555555555556
 40
0.5555555555555556
 40
0.5555555555555556
 40
0.6666666666666666
 40
0.6666666666666666
 40
0.6666666666666666
 40
0.6666666666666666
 40
0.7777777777777778
 40
0.7777777777777778
 40
0.7777777777777778
 40
0.7777777777777778
 40
1.0
 40
1.0
 40
1.0
 40
1.0
 10
-7.1749
 20
8.28045
 30
0.0
 10
-7.1749
 20
8.28045
 30
0.0
 10
-6.67289
 20
8.85078
 30
0.0
 10
-6.67289
 20
8.85078
 30
0.0
 10
-6.67289
 20
8.85078
 30
0.0
 10
-6.67289
 20
8.85078
 30
0.0
 10
-6.67283
 20
8.85085
 30
0.0
 10
-6.67283
 20
8.85085
 30
0.0
 10
-6.67283
 20
8.85085
 30
0.0
 10
-6.67283
 20
8.85085
 30
0.0
 10
-5.96243
 20
8.22554
 30
0.0
 10
-5.96243
 20
8.22554
 30
0.0
 10
-5.96243
 20
8.22554
 30
0.0
 10
-5.96243
 20
8.22554
 30
0.0
 10
-5.48432
 20
8.76872
 30
0.0
 10
-5.48432
 20
8.76872
 30
0.0
 10
-5.48432
 20
8.76872
 30
0.0
 10
-5.48432
 20
8.76872
 30
0.0
 10
-5.44748
 20
8.81058
 30
0.0
 10
-5.44748
 20
8.81058
 30
0.0
 10
-5.44748
 20
8.81058
 30
0.0
 10
-5.44748
 20
8.81058
 30
0.0
 10
-5.73999
 20
9.06805
 30
0.0
 10
-5.73999
 20
9.06805
 30
0.0
 10
-5.73999
 20
9.06805
 30
0.0
 10
-5.73999
 20
9.06805
 30
0.0
 10
-7.1749
 20
10.33109
 30
0.0
 10
-7.1749
 20
10.33109
 30
0.0
 10
-7.1749
 20
10.33109
 30
0.0
 10
-7.1749
 20
10.33109
 30
0.0
 10
-7.1749
 20
8.28045
 30
0.0
 10
-7.1749
 20
8.28045
 30
0.0
  0
SPLINE
  5
63
330
1F
100
AcDbEntity
  8
Layer 1
 62
   177
370
     9
100
AcDbSpline
210
0.0
220
0.0
230
1.0
 70
    11
 71
     3
 72
    60
 73
    56
 74
     0
 42
0.0000000001
 43
0.0000000001
 12
1.0
 22
0.0
 32
0.0
 13
1.0
 23
0.0
 33
0.0
 40
0.0
 40
0.0
 40
0.0
 40
0.0
 40
0.0666666666666667
 40
0.0666666666666667
 40
0.0666666666666667
 40
0.0666666666666667
 40
0.1333333333333333
 40
0.1333333333333333
 40
0.1333333333333333
 40
0.1333333333333333
 40
0.2
 40
0.2
 40
0.2
 40
0.2
 40
0.2666666666666667
 40
0.2666666666666667
 40
0.2666666666666667
 40
0.2666666666666667
 40
0.3333333333333333
 40
0.3333333333333333
 40
0.3333333333333333
 40
0.3333333333333333
 40
0.4
 40
0.4
 40
0.4
 40
0.4
 40
0.4666666666666667
 40
0.4666666666666667
 40
0.4666666666666667
 40
0.4666666666666667
 40
0.5333333333333333
 40
0.5333333333333333
 40
0.5333333333333333
 40
0.5333333333333333
 40
0.6
 40
0.6
 40
0.6
 40
0.6
 40
0.6666666666666666
 40
0.6666666666666666
 40
0.6666666666666666
 40
0.6666666666666666
 40
0.7333333333333333
 40
0.7333333333333333
 40
0.7333333333333333
 40
0.7333333333333333
 40
0.8
 40
0.8
 40
0.8
 40
0.8
 40
0.8666666666666667
 40
0.8666666666666667
 40
0.8666666666666667
 40
0.8666666666666667
 40
1.0
 40
1.0
 40
1.0
 40
1.0
 10
-1.55259
 20
8.3487
 30
0.0
 10
-1.55259
 20
8.3487
 30
0.0
 10
-2.09575
 20
8.82681
 30
0.0
 10
-2.09575
 20
8.82681
 30
0.0
 10
-2.09575
 20
8.82681
 30
0.0
 10
-2.09575
 20
8.82681
 30
0.0
 10
-2.0957
 20
8.82688
 30
0.0
 10
-2.0957
 20
8.82688
 30
0.0
 10
-2.0957
 20
8.82688
 30
0.0
 10
-2.0957
 20
8.82688
 30
0.0
 10
-2.09578
 20
8.82695
 30
0.0
 10
-2.09578
 20
8.82695
 30
0.0
 10
-2.09578
 20
8.82695
 30
0.0
 10
-2.09578
 20
8.82695
 30
0.0
 10
-1.47052
 20
9.53728
 30
0.0
 10
-1.47052
 20
9.53728
 30
0.0
 10
-1.47052
 20
9.53728
 30
0.0
 10
-1.47052
 20
9.53728
 30
0.0
 10
-2.05548
 20
10.05217
 30
0.0
 10
-2.05548
 20
10.05217
 30
0.0
 10
-2.05548
 20
10.05217
 30
0.0
 10
-2.05548
 20
10.05217
 30
0.0
 10
-2.68074
 20
9.34184
 30
0.0
 10
-2.68074
 20
9.34184
 30
0.0
 10
-2.68074
 20
9.34184
 30
0.0
 10
-2.68074
 20
9.34184
 30
0.0
 10
-2.68081
 20
9.3419
 30
0.0
 10
-2.68081
 20
9.3419
 30
0.0
 10
-2.68081
 20
9.3419
 30
0.0
 10
-2.68081
 20
9.3419
 30
0.0
 10
-3.39114
 20
9.96715
 30
0.0
 10
-3.39114
 20
9.96715
 30
0.0
 10
-3.39114
 20
9.96715
 30
0.0
 10
-3.39114
 20
9.96715
 30
0.0
 10
-3.86931
 20
9.42391
 30
0.0
 10
-3.86931
 20
9.42391
 30
0.0
 10
-3.86931
 20
9.42391
 30
0.0
 10
-3.86931
 20
9.42391
 30
0.0
 10
-3.86938
 20
9.42397
 30
0.0
 10
-3.86938
 20
9.42397
 30
0.0
 10
-3.86938
 20
9.42397
 30
0.0
 10
-3.86938
 20
9.42397
 30
0.0
 10
-3.90616
 20
9.38217
 30
0.0
 10
-3.90616
 20
9.38217
 30
0.0
 10
-3.90616
 20
9.38217
 30
0.0
 10
-3.90616
 20
9.38217
 30
0.0
 10
-3.61364
 20
9.12471
 30
0.0
 10
-3.61364
 20
9.12471
 30
0.0
 10
-3.61364
 20
9.12471
 30
0.0
 10
-3.61364
 20
9.12471
 30
0.0
 10
-2.06748
 20
7.76373
 30
0.0
 10
-2.06748
 20
7.76373
 30
0.0
 10
-2.06748
 20
7.76373
 30
0.0
 10
-2.06748
 20
7.76373
 30
0.0
 10
-1.55259
 20
8.3487
 30
0.0
 10
-1.55259
 20
8.3487
 30
0.0
  0
SPLINE
  5
64
330
1F
100
AcDbEntity
  8
Layer 1
 62
   177
370
     9
100
AcDbSpline
210
0.0
220
0.0
230
1.0
 70
    11
 71
     3
 72
    52
 73
    48
 74
     0
 42
0.0000000001
 43
0.0000000001
 12
1.0
 22
0.0
 32
0.0
 13
1.0
 23
0.0
 33
0.0
 40
0.0
 40
0.0
 40
0.0
 40
0.0
 40
0.0769230769230769
 40
0.0769230769230769
 40
0.0769230769230769
 40
0.0769230769230769
 40
0.1538461538461539
 40
0.1538461538461539
 40
0.1538461538461539
 40
0.1538461538461539
 40
0.2307692307692308
 40
0.2307692307692308
 40
0.2307692307692308
 40
0.2307692307692308
 40
0.3076923076923077
 40
0.3076923076923077
 40
0.3076923076923077
 40
0.3076923076923077
 40
0.3846153846153846
 40
0.3846153846153846
 40
0.3846153846153846
 40
0.3846153846153846
 40
0.4615384615384616
 40
0.4615384615384616
 40
0.4615384615384616
 40
0.4615384615384616
 40
0.5384615384615384
 40
0.5384615384615384
 40
0.5384615384615384
 40
0.5384615384615384
 40
0.6153846153846154
 40
0.6153846153846154
 40
0.6153846153846154
 40
0.6153846153846154
 40
0.6923076923076923
 40
0.6923076923076923
 40
0.6923076923076923
 40
0.6923076923076923
 40
0.7692307692307693
 40
0.7692307692307693
 40
0.7692307692307693
 40
0.7692307692307693
 40
0.8461538461538461
 40
0.8461538461538461
 40
0.8461538461538461
 40
0.8461538461538461
 40
1.0
 40
1.0
 40
1.0
 40
1.0
 10
-3.99475
 20
9.53431
 30
0.0
 10
-3.99475
 20
9.53431
 30
0.0
 10
-4.5797
 20
10.04921
 30
0.0
 10
-4.5797
 20
10.04921
 30
0.0
 10
-4.5797
 20
10.04921
 30
0.0
 10
-4.5797
 20
10.04921
 30
0.0
 10
-4.9476
 20
9.63125
 30
0.0
 10
-4.9476
 20
9.63125
 30
0.0
 10
-4.9476
 20
9.63125
 30
0.0
 10
-4.9476
 20
9.63125
 30
0.0
 10
-5.11481
 20
9.77845
 30
0.0
 10
-5.11481
 20
9.77845
 30
0.0
 10
-5.11481
 20
9.77845
 30
0.0
 10
-5.11481
 20
9.77845
 30
0.0
 10
-5.62972
 20
9.19349
 30
0.0
 10
-5.62972
 20
9.19349
 30
0.0
 10
-5.62972
 20
9.19349
 30
0.0
 10
-5.62972
 20
9.19349
 30
0.0
 10
-5.21176
 20
8.82559
 30
0.0
 10
-5.21176
 20
8.82559
 30
0.0
 10
-5.21176
 20
8.82559
 30
0.0
 10
-5.21176
 20
8.82559
 30
0.0
 10
-5.35895
 20
8.65837
 30
0.0
 10
-5.35895
 20
8.65837
 30
0.0
 10
-5.35895
 20
8.65837
 30
0.0
 10
-5.35895
 20
8.65837
 30
0.0
 10
-4.77391
 20
8.14341
 30
0.0
 10
-4.77391
 20
8.14341
 30
0.0
 10
-4.77391
 20
8.14341
 30
0.0
 10
-4.77391
 20
8.14341
 30
0.0
 10
-4.40603
 20
8.56137
 30
0.0
 10
-4.40603
 20
8.56137
 30
0.0
 10
-4.40603
 20
8.56137
 30
0.0
 10
-4.40603
 20
8.56137
 30
0.0
 10
-4.23888
 20
8.41423
 30
0.0
 10
-4.23888
 20
8.41423
 30
0.0
 10
-4.23888
 20
8.41423
 30
0.0
 10
-4.23888
 20
8.41423
 30
0.0
 10
-3.72393
 20
8.99926
 30
0.0
 10
-3.72393
 20
8.99926
 30
0.0
 10
-3.72393
 20
8.99926
 30
0.0
 10
-3.72393
 20
8.99926
 30
0.0
 10
-4.14187
 20
9.36716
 30
0.0
 10
-4.14187
 20
9.36716
 30
0.0
 10
-4.14187
 20
9.36716
 30
0.0
 10
-4.14187
 20
9.36716
 30
0.0
 10
-3.99475
 20
9.53431
 30
0.0
 10
-3.99475
 20
9.53431
 30
0.0
  0
SPLINE
  5
65
330
1F
100
AcDbEntity
  8
Layer 1
 62
   177
370
     9
100
AcDbSpline
210
0.0
220
0.0
230
1.0
 70
    11
 71
     3
 72
    56
 73
    52
 74
     0
 42
0.0000000001
 43
0.0000000001
 12
1.0
 22
0.0
 32
0.0
 13
1.0
 23
0.0
 33
0.0
 40
0.0
 40
0.0
 40
0.0
 40
0.0
 40
0.0714285714285714
 40
0.0714285714285714
 40
0.0714285714285714
 40
0.0714285714285714
 40
0.1428571428571428
 40
0.1428571428571428
 40
0.1428571428571428
 40
0.1428571428571428
 40
0.2142857142857143
 40
0.2142857142857143
 40
0.2142857142857143
 40
0.2142857142857143
 40
0.2857142857142857
 40
0.2857142857142857
 40
0.2857142857142857
 40
0.2857142857142857
 40
0.3571428571428572
 40
0.3571428571428572
 40
0.3571428571428572
 40
0.3571428571428572
 40
0.4285714285714285
 40
0.4285714285714285
 40
0.4285714285714285
 40
0.4285714285714285
 40
0.5
 40
0.5
 40
0.5
 40
0.5
 40
0.5714285714285714
 40
0.5714285714285714
 40
0.5714285714285714
 40
0.5714285714285714
 40
0.6428571428571429
 40
0.6428571428571429
 40
0.6428571428571429
 40
0.6428571428571429
 40
0.7142857142857143
 40
0.7142857142857143
 40
0.7142857142857143
 40
0.7142857142857143
 40
0.7857142857142857
 40
0.7857142857142857
 40
0.7857142857142857
 40
0.7857142857142857
 40
0.8571428571428571
 40
0.8571428571428571
 40
0.8571428571428571
 40
0.8571428571428571
 40
1.0
 40
1.0
 40
1.0
 40
1.0
 10
-2.66958
 20
-8.17091
 30
0.0
 10
-2.66958
 20
-8.17091
 30
0.0
 10
-2.19139
 20
-7.62767
 30
0.0
 10
-2.19139
 20
-7.62767
 30
0.0
 10
-2.19139
 20
-7.62767
 30
0.0
 10
-2.19139
 20
-7.62767
 30
0.0
 10
-2.19133
 20
-7.62772
 30
0.0
 10
-2.19133
 20
-7.62772
 30
0.0
 10
-2.19133
 20
-7.62772
 30
0.0
 10
-2.19133
 20
-7.62772
 30
0.0
 10
-1.481
 20
-8.25296
 30
0.0
 10
-1.481
 20
-8.25296
 30
0.0
 10
-1.481
 20
-8.25296
 30
0.0
 10
-1.481
 20
-8.25296
 30
0.0
 10
-1.16247
 20
-7.89109
 30
0.0
 10
-1.16247
 20
-7.89109
 30
0.0
 10
-1.16247
 20
-7.89109
 30
0.0
 10
-1.16247
 20
-7.89109
 30
0.0
 10
-1.16247
 20
-7.49502
 30
0.0
 10
-1.16247
 20
-7.49502
 30
0.0
 10
-1.16247
 20
-7.49502
 30
0.0
 10
-1.16247
 20
-7.49502
 30
0.0
 10
-1.67637
 20
-7.04269
 30
0.0
 10
-1.67637
 20
-7.04269
 30
0.0
 10
-1.67637
 20
-7.04269
 30
0.0
 10
-1.67637
 20
-7.04269
 30
0.0
 10
-1.16247
 20
-6.45886
 30
0.0
 10
-1.16247
 20
-6.45886
 30
0.0
 10
-1.16247
 20
-6.45886
 30
0.0
 10
-1.16247
 20
-6.45886
 30
0.0
 10
-1.16247
 20
-6.23421
 30
0.0
 10
-1.16247
 20
-6.23421
 30
0.0
 10
-1.16247
 20
-6.23421
 30
0.0
 10
-1.16247
 20
-6.23421
 30
0.0
 10
-1.59431
 20
-5.85411
 30
0.0
 10
-1.59431
 20
-5.85411
 30
0.0
 10
-1.59431
 20
-5.85411
 30
0.0
 10
-1.59431
 20
-5.85411
 30
0.0
 10
-1.6361
 20
-5.81733
 30
0.0
 10
-1.6361
 20
-5.81733
 30
0.0
 10
-1.6361
 20
-5.81733
 30
0.0
 10
-1.6361
 20
-5.81733
 30
0.0
 10
-1.89358
 20
-6.10984
 30
0.0
 10
-1.89358
 20
-6.10984
 30
0.0
 10
-1.89358
 20
-6.10984
 30
0.0
 10
-1.89358
 20
-6.10984
 30
0.0
 10
-3.25453
 20
-7.65602
 30
0.0
 10
-3.25453
 20
-7.65602
 30
0.0
 10
-3.25453
 20
-7.65602
 30
0.0
 10
-3.25453
 20
-7.65602
 30
0.0
 10
-2.66958
 20
-8.17091
 30
0.0
 10
-2.66958
 20
-8.17091
 30
0.0
  0
SPLINE
  5
66
330
1F
100
AcDbEntity
  8
Layer 1
 62
   177
370
     9
100
AcDbSpline
210
0.0
220
0.0
230
1.0
 70
    11
 71
     3
 72
    56
 73
    52
 74
     0
 42
0.0000000001
 43
0.0000000001
 12
1.0
 22
0.0
 32
0.0
 13
1.0
 23
0.0
 33
0.0
 40
0.0
 40
0.0
 40
0.0
 40
0.0
 40
0.0714285714285714
 40
0.0714285714285714
 40
0.0714285714285714
 40
0.0714285714285714
 40
0.1428571428571428
 40
0.1428571428571428
 40
0.1428571428571428
 40
0.1428571428571428
 40
0.2142857142857143
 40
0.2142857142857143
 40
0.2142857142857143
 40
0.2142857142857143
 40
0.2857142857142857
 40
0.2857142857142857
 40
0.2857142857142857
 40
0.2857142857142857
 40
0.3571428571428572
 40
0.3571428571428572
 40
0.3571428571428572
 40
0.3571428571428572
 40
0.4285714285714285
 40
0.4285714285714285
 40
0.4285714285714285
 40
0.4285714285714285
 40
0.5
 40
0.5
 40
0.5
 40
0.5
 40
0.5714285714285714
 40
0.5714285714285714
 40
0.5714285714285714
 40
0.5714285714285714
 40
0.6428571428571429
 40
0.6428571428571429
 40
0.6428571428571429
 40
0.6428571428571429
 40
0.7142857142857143
 40
0.7142857142857143
 40
0.7142857142857143
 40
0.7142857142857143
 40
0.7857142857142857
 40
0.7857142857142857
 40
0.7857142857142857
 40
0.7857142857142857
 40
0.8571428571428571
 40
0.8571428571428571
 40
0.8571428571428571
 40
0.8571428571428571
 40
1.0
 40
1.0
 40
1.0
 40
1.0
 10
-1.48396
 20
-5.72875
 30
0.0
 10
-1.48396
 20
-5.72875
 30
0.0
 10
-1.16247
 20
-5.36351
 30
0.0
 10
-1.16247
 20
-5.36351
 30
0.0
 10
-1.16247
 20
-5.36351
 30
0.0
 10
-1.16247
 20
-5.36351
 30
0.0
 10
-1.16247
 20
-4.97341
 30
0.0
 10
-1.16247
 20
-4.97341
 30
0.0
 10
-1.16247
 20
-4.97341
 30
0.0
 10
-1.16247
 20
-4.97341
 30
0.0
 10
-1.38696
 20
-4.77582
 30
0.0
 10
-1.38696
 20
-4.77582
 30
0.0
 10
-1.38696
 20
-4.77582
 30
0.0
 10
-1.38696
 20
-4.77582
 30
0.0
 10
-1.23982
 20
-4.60866
 30
0.0
 10
-1.23982
 20
-4.60866
 30
0.0
 10
-1.23982
 20
-4.60866
 30
0.0
 10
-1.23982
 20
-4.60866
 30
0.0
 10
-1.82479
 20
-4.09377
 30
0.0
 10
-1.82479
 20
-4.09377
 30
0.0
 10
-1.82479
 20
-4.09377
 30
0.0
 10
-1.82479
 20
-4.09377
 30
0.0
 10
-2.19268
 20
-4.51172
 30
0.0
 10
-2.19268
 20
-4.51172
 30
0.0
 10
-2.19268
 20
-4.51172
 30
0.0
 10
-2.19268
 20
-4.51172
 30
0.0
 10
-2.3599
 20
-4.36454
 30
0.0
 10
-2.3599
 20
-4.36454
 30
0.0
 10
-2.3599
 20
-4.36454
 30
0.0
 10
-2.3599
 20
-4.36454
 30
0.0
 10
-2.87479
 20
-4.9495
 30
0.0
 10
-2.87479
 20
-4.9495
 30
0.0
 10
-2.87479
 20
-4.9495
 30
0.0
 10
-2.87479
 20
-4.9495
 30
0.0
 10
-2.45685
 20
-5.31738
 30
0.0
 10
-2.45685
 20
-5.31738
 30
0.0
 10
-2.45685
 20
-5.31738
 30
0.0
 10
-2.45685
 20
-5.31738
 30
0.0
 10
-2.60403
 20
-5.48461
 30
0.0
 10
-2.60403
 20
-5.48461
 30
0.0
 10
-2.60403
 20
-5.48461
 30
0.0
 10
-2.60403
 20
-5.48461
 30
0.0
 10
-2.01899
 20
-5.99957
 30
0.0
 10
-2.01899
 20
-5.99957
 30
0.0
 10
-2.01899
 20
-5.99957
 30
0.0
 10
-2.01899
 20
-5.99957
 30
0.0
 10
-1.65111
 20
-5.58162
 30
0.0
 10
-1.65111
 20
-5.58162
 30
0.0
 10
-1.65111
 20
-5.58162
 30
0.0
 10
-1.65111
 20
-5.58162
 30
0.0
 10
-1.48396
 20
-5.72875
 30
0.0
 10
-1.48396
 20
-5.72875
 30
0.0
  0
SPLINE
  5
67
330
1F
100
AcDbEntity
  8
Layer 1
 62
   177
370
     9
100
AcDbSpline
210
0.0
220
0.0
230
1.0
 70
    11
 71
     3
 72
    60
 73
    56
 74
     0
 42
0.0000000001
 43
0.0000000001
 12
1.0
 22
0.0
 32
0.0
 13
1.0
 23
0.0
 33
0.0
 40
0.0
 40
0.0
 40
0.0
 40
0.0
 40
0.0666666666666667
 40
0.0666666666666667
 40
0.0666666666666667
 40
0.0666666666666667
 40
0.1333333333333333
 40
0.1333333333333333
 40
0.1333333333333333
 40
0.1333333333333333
 40
0.2
 40
0.2
 40
0.2
 40
0.2
 40
0.2666666666666667
 40
0.2666666666666667
 40
0.2666666666666667
 40
0.2666666666666667
 40
0.3333333333333333
 40
0.3333333333333333
 40
0.3333333333333333
 40
0.3333333333333333
 40
0.4
 40
0.4
 40
0.4
 40
0.4
 40
0.4666666666666667
 40
0.4666666666666667
 40
0.4666666666666667
 40
0.4666666666666667
 40
0.5333333333333333
 40
0.5333333333333333
 40
0.5333333333333333
 40
0.5333333333333333
 40
0.6
 40
0.6
 40
0.6
 40
0.6
 40
0.6666666666666666
 40
0.6666666666666666
 40
0.6666666666666666
 40
0.6666666666666666
 40
0.7333333333333333
 40
0.7333333333333333
 40
0.7333333333333333
 40
0.7333333333333333
 40
0.8
 40
0.8
 40
0.8
 40
0.8
 40
0.8666666666666667
 40
0.8666666666666667
 40
0.8666666666666667
 40
0.8666666666666667
 40
1.0
 40
1.0
 40
1.0
 40
1.0
 10
-4.41786
 20
-6.11288
 30
0.0
 10
-4.41786
 20
-6.11288
 30
0.0
 10
-3.70753
 20
-6.73813
 30
0.0
 10
-3.70753
 20
-6.73813
 30
0.0
 10
-3.70753
 20
-6.73813
 30
0.0
 10
-3.70753
 20
-6.73813
 30
0.0
 10
-3.70758
 20
-6.73819
 30
0.0
 10
-3.70758
 20
-6.73819
 30
0.0
 10
-3.70758
 20
-6.73819
 30
0.0
 10
-3.70758
 20
-6.73819
 30
0.0
 10
-3.70752
 20
-6.73825
 30
0.0
 10
-3.70752
 20
-6.73825
 30
0.0
 10
-3.70752
 20
-6.73825
 30
0.0
 10
-3.70752
 20
-6.73825
 30
0.0
 10
-4.33277
 20
-7.44859
 30
0.0
 10
-4.33277
 20
-7.44859
 30
0.0
 10
-4.33277
 20
-7.44859
 30
0.0
 10
-4.33277
 20
-7.44859
 30
0.0
 10
-3.78958
 20
-7.92669
 30
0.0
 10
-3.78958
 20
-7.92669
 30
0.0
 10
-3.78958
 20
-7.92669
 30
0.0
 10
-3.78958
 20
-7.92669
 30
0.0
 10
-3.78965
 20
-7.92677
 30
0.0
 10
-3.78965
 20
-7.92677
 30
0.0
 10
-3.78965
 20
-7.92677
 30
0.0
 10
-3.78965
 20
-7.92677
 30
0.0
 10
-3.74778
 20
-7.96362
 30
0.0
 10
-3.74778
 20
-7.96362
 30
0.0
 10
-3.74778
 20
-7.96362
 30
0.0
 10
-3.74778
 20
-7.96362
 30
0.0
 10
-3.49031
 20
-7.6711
 30
0.0
 10
-3.49031
 20
-7.6711
 30
0.0
 10
-3.49031
 20
-7.6711
 30
0.0
 10
-3.49031
 20
-7.6711
 30
0.0
 10
-2.12935
 20
-6.12494
 30
0.0
 10
-2.12935
 20
-6.12494
 30
0.0
 10
-2.12935
 20
-6.12494
 30
0.0
 10
-2.12935
 20
-6.12494
 30
0.0
 10
-2.71438
 20
-5.60998
 30
0.0
 10
-2.71438
 20
-5.60998
 30
0.0
 10
-2.71438
 20
-5.60998
 30
0.0
 10
-2.71438
 20
-5.60998
 30
0.0
 10
-3.1925
 20
-6.15315
 30
0.0
 10
-3.1925
 20
-6.15315
 30
0.0
 10
-3.1925
 20
-6.15315
 30
0.0
 10
-3.1925
 20
-6.15315
 30
0.0
 10
-3.19257
 20
-6.15323
 30
0.0
 10
-3.19257
 20
-6.15323
 30
0.0
 10
-3.19257
 20
-6.15323
 30
0.0
 10
-3.19257
 20
-6.15323
 30
0.0
 10
-3.90296
 20
-5.52791
 30
0.0
 10
-3.90296
 20
-5.52791
 30
0.0
 10
-3.90296
 20
-5.52791
 30
0.0
 10
-3.90296
 20
-5.52791
 30
0.0
 10
-4.41786
 20
-6.11288
 30
0.0
 10
-4.41786
 20
-6.11288
 30
0.0
  0
SPLINE
  5
68
330
1F
100
AcDbEntity
  8
Layer 1
 62
   177
370
     9
100
AcDbSpline
210
0.0
220
0.0
230
1.0
 70
    11
 71
     3
 72
    48
 73
    44
 74
     0
 42
0.0000000001
 43
0.0000000001
 12
1.0
 22
0.0
 32
0.0
 13
1.0
 23
0.0
 33
0.0
 40
0.0
 40
0.0
 40
0.0
 40
0.0
 40
0.0833333333333333
 40
0.0833333333333333
 40
0.0833333333333333
 40
0.0833333333333333
 40
0.1666666666666667
 40
0.1666666666666667
 40
0.1666666666666667
 40
0.1666666666666667
 40
0.25
 40
0.25
 40
0.25
 40
0.25
 40
0.3333333333333333
 40
0.3333333333333333
 40
0.3333333333333333
 40
0.3333333333333333
 40
0.4166666666666667
 40
0.4166666666666667
 40
0.4166666666666667
 40
0.4166666666666667
 40
0.5
 40
0.5
 40
0.5
 40
0.5
 40
0.5833333333333334
 40
0.5833333333333334
 40
0.5833333333333334
 40
0.5833333333333334
 40
0.6666666666666666
 40
0.6666666666666666
 40
0.6666666666666666
 40
0.6666666666666666
 40
0.75
 40
0.75
 40
0.75
 40
0.75
 40
0.8333333333333334
 40
0.8333333333333334
 40
0.8333333333333334
 40
0.8333333333333334
 40
1.0
 40
1.0
 40
1.0
 40
1.0
 10
-6.35717
 20
-6.63081
 30
0.0
 10
-6.35717
 20
-6.63081
 30
0.0
 10
-5.879
 20
-6.08757
 30
0.0
 10
-5.879
 20
-6.08757
 30
0.0
 10
-5.879
 20
-6.08757
 30
0.0
 10
-5.879
 20
-6.08757
 30
0.0
 10
-5.87893
 20
-6.08762
 30
0.0
 10
-5.87893
 20
-6.08762
 30
0.0
 10
-5.87893
 20
-6.08762
 30
0.0
 10
-5.87893
 20
-6.08762
 30
0.0
 10
-5.1686
 20
-6.71287
 30
0.0
 10
-5.1686
 20
-6.71287
 30
0.0
 10
-5.1686
 20
-6.71287
 30
0.0
 10
-5.1686
 20
-6.71287
 30
0.0
 10
-4.65365
 20
-6.12784
 30
0.0
 10
-4.65365
 20
-6.12784
 30
0.0
 10
-4.65365
 20
-6.12784
 30
0.0
 10
-4.65365
 20
-6.12784
 30
0.0
 10
-5.36398
 20
-5.50259
 30
0.0
 10
-5.36398
 20
-5.50259
 30
0.0
 10
-5.36398
 20
-5.50259
 30
0.0
 10
-5.36398
 20
-5.50259
 30
0.0
 10
-4.73867
 20
-4.79219
 30
0.0
 10
-4.73867
 20
-4.79219
 30
0.0
 10
-4.73867
 20
-4.79219
 30
0.0
 10
-4.73867
 20
-4.79219
 30
0.0
 10
-5.28191
 20
-4.31401
 30
0.0
 10
-5.28191
 20
-4.31401
 30
0.0
 10
-5.28191
 20
-4.31401
 30
0.0
 10
-5.28191
 20
-4.31401
 30
0.0
 10
-5.32369
 20
-4.27724
 30
0.0
 10
-5.32369
 20
-4.27724
 30
0.0
 10
-5.32369
 20
-4.27724
 30
0.0
 10
-5.32369
 20
-4.27724
 30
0.0
 10
-5.58118
 20
-4.56975
 30
0.0
 10
-5.58118
 20
-4.56975
 30
0.0
 10
-5.58118
 20
-4.56975
 30
0.0
 10
-5.58118
 20
-4.56975
 30
0.0
 10
-6.94213
 20
-6.11591
 30
0.0
 10
-6.94213
 20
-6.11591
 30
0.0
 10
-6.94213
 20
-6.11591
 30
0.0
 10
-6.94213
 20
-6.11591
 30
0.0
 10
-6.35717
 20
-6.63081
 30
0.0
 10
-6.35717
 20
-6.63081
 30
0.0
  0
SPLINE
  5
69
330
1F
100
AcDbEntity
  8
Layer 1
 62
   177
370
     9
100
AcDbSpline
210
0.0
220
0.0
230
1.0
 70
    11
 71
     3
 72
    52
 73
    48
 74
     0
 42
0.0000000001
 43
0.0000000001
 12
1.0
 22
0.0
 32
0.0
 13
1.0
 23
0.0
 33
0.0
 40
0.0
 40
0.0
 40
0.0
 40
0.0
 40
0.0769230769230769
 40
0.0769230769230769
 40
0.0769230769230769
 40
0.0769230769230769
 40
0.1538461538461539
 40
0.1538461538461539
 40
0.1538461538461539
 40
0.1538461538461539
 40
0.2307692307692308
 40
0.2307692307692308
 40
0.2307692307692308
 40
0.2307692307692308
 40
0.3076923076923077
 40
0.3076923076923077
 40
0.3076923076923077
 40
0.3076923076923077
 40
0.3846153846153846
 40
0.3846153846153846
 40
0.3846153846153846
 40
0.3846153846153846
 40
0.4615384615384616
 40
0.4615384615384616
 40
0.4615384615384616
 40
0.4615384615384616
 40
0.5384615384615384
 40
0.5384615384615384
 40
0.5384615384615384
 40
0.5384615384615384
 40
0.6153846153846154
 40
0.6153846153846154
 40
0.6153846153846154
 40
0.6153846153846154
 40
0.6923076923076923
 40
0.6923076923076923
 40
0.6923076923076923
 40
0.6923076923076923
 40
0.7692307692307693
 40
0.7692307692307693
 40
0.7692307692307693
 40
0.7692307692307693
 40
0.8461538461538461
 40
0.8461538461538461
 40
0.8461538461538461
 40
0.8461538461538461
 40
1.0
 40
1.0
 40
1.0
 40
1.0
 10
-5.17157
 20
-4.18865
 30
0.0
 10
-5.17157
 20
-4.18865
 30
0.0
 10
-4.6566
 20
-3.60362
 30
0.0
 10
-4.6566
 20
-3.60362
 30
0.0
 10
-4.6566
 20
-3.60362
 30
0.0
 10
-4.6566
 20
-3.60362
 30
0.0
 10
-5.07455
 20
-3.23573
 30
0.0
 10
-5.07455
 20
-3.23573
 30
0.0
 10
-5.07455
 20
-3.23573
 30
0.0
 10
-5.07455
 20
-3.23573
 30
0.0
 10
-4.92743
 20
-3.06858
 30
0.0
 10
-4.92743
 20
-3.06858
 30
0.0
 10
-4.92743
 20
-3.06858
 30
0.0
 10
-4.92743
 20
-3.06858
 30
0.0
 10
-5.51239
 20
-2.55368
 30
0.0
 10
-5.51239
 20
-2.55368
 30
0.0
 10
-5.51239
 20
-2.55368
 30
0.0
 10
-5.51239
 20
-2.55368
 30
0.0
 10
-5.88028
 20
-2.97164
 30
0.0
 10
-5.88028
 20
-2.97164
 30
0.0
 10
-5.88028
 20
-2.97164
 30
0.0
 10
-5.88028
 20
-2.97164
 30
0.0
 10
-6.0475
 20
-2.82444
 30
0.0
 10
-6.0475
 20
-2.82444
 30
0.0
 10
-6.0475
 20
-2.82444
 30
0.0
 10
-6.0475
 20
-2.82444
 30
0.0
 10
-6.5624
 20
-3.4094
 30
0.0
 10
-6.5624
 20
-3.4094
 30
0.0
 10
-6.5624
 20
-3.4094
 30
0.0
 10
-6.5624
 20
-3.4094
 30
0.0
 10
-6.14445
 20
-3.77729
 30
0.0
 10
-6.14445
 20
-3.77729
 30
0.0
 10
-6.14445
 20
-3.77729
 30
0.0
 10
-6.14445
 20
-3.77729
 30
0.0
 10
-6.29164
 20
-3.94452
 30
0.0
 10
-6.29164
 20
-3.94452
 30
0.0
 10
-6.29164
 20
-3.94452
 30
0.0
 10
-6.29164
 20
-3.94452
 30
0.0
 10
-5.7066
 20
-4.45947
 30
0.0
 10
-5.7066
 20
-4.45947
 30
0.0
 10
-5.7066
 20
-4.45947
 30
0.0
 10
-5.7066
 20
-4.45947
 30
0.0
 10
-5.33871
 20
-4.04152
 30
0.0
 10
-5.33871
 20
-4.04152
 30
0.0
 10
-5.33871
 20
-4.04152
 30
0.0
 10
-5.33871
 20
-4.04152
 30
0.0
 10
-5.17157
 20
-4.18865
 30
0.0
 10
-5.17157
 20
-4.18865
 30
0.0
  0
SPLINE
  5
6A
330
1F
100
AcDbEntity
  8
Layer 1
 62
   177
370
     9
100
AcDbSpline
210
0.0
220
0.0
230
1.0
 70
    11
 71
     3
 72
    48
 73
    44
 74
     0
 42
0.0000000001
 43
0.0000000001
 12
1.0
 22
0.0
 32
0.0
 13
1.0
 23
0.0
 33
0.0
 40
0.0
 40
0.0
 40
0.0
 40
0.0
 40
0.0833333333333333
 40
0.0833333333333333
 40
0.0833333333333333
 40
0.0833333333333333
 40
0.1666666666666667
 40
0.1666666666666667
 40
0.1666666666666667
 40
0.1666666666666667
 40
0.25
 40
0.25
 40
0.25
 40
0.25
 40
0.3333333333333333
 40
0.3333333333333333
 40
0.3333333333333333
 40
0.3333333333333333
 40
0.4166666666666667
 40
0.4166666666666667
 40
0.4166666666666667
 40
0.4166666666666667
 40
0.5
 40
0.5
 40
0.5
 40
0.5
 40
0.5833333333333334
 40
0.5833333333333334
 40
0.5833333333333334
 40
0.5833333333333334
 40
0.6666666666666666
 40
0.6666666666666666
 40
0.6666666666666666
 40
0.6666666666666666
 40
0.75
 40
0.75
 40
0.75
 40
0.75
 40
0.8333333333333334
 40
0.8333333333333334
 40
0.8333333333333334
 40
0.8333333333333334
 40
1.0
 40
1.0
 40
1.0
 40
1.0
 10
-4.81708
 20
-2.94321
 30
0.0
 10
-4.81708
 20
-2.94321
 30
0.0
 10
-4.3389
 20
-2.39995
 30
0.0
 10
-4.3389
 20
-2.39995
 30
0.0
 10
-4.3389
 20
-2.39995
 30
0.0
 10
-4.3389
 20
-2.39995
 30
0.0
 10
-4.33883
 20
-2.40002
 30
0.0
 10
-4.33883
 20
-2.40002
 30
0.0
 10
-4.33883
 20
-2.40002
 30
0.0
 10
-4.33883
 20
-2.40002
 30
0.0
 10
-3.6285
 20
-3.02527
 30
0.0
 10
-3.6285
 20
-3.02527
 30
0.0
 10
-3.6285
 20
-3.02527
 30
0.0
 10
-3.6285
 20
-3.02527
 30
0.0
 10
-3.11355
 20
-2.44024
 30
0.0
 10
-3.11355
 20
-2.44024
 30
0.0
 10
-3.11355
 20
-2.44024
 30
0.0
 10
-3.11355
 20
-2.44024
 30
0.0
 10
-3.82387
 20
-1.81499
 30
0.0
 10
-3.82387
 20
-1.81499
 30
0.0
 10
-3.82387
 20
-1.81499
 30
0.0
 10
-3.82387
 20
-1.81499
 30
0.0
 10
-3.19856
 20
-1.10459
 30
0.0
 10
-3.19856
 20
-1.10459
 30
0.0
 10
-3.19856
 20
-1.10459
 30
0.0
 10
-3.19856
 20
-1.10459
 30
0.0
 10
-3.74182
 20
-0.62642
 30
0.0
 10
-3.74182
 20
-0.62642
 30
0.0
 10
-3.74182
 20
-0.62642
 30
0.0
 10
-3.74182
 20
-0.62642
 30
0.0
 10
-3.7836
 20
-0.58963
 30
0.0
 10
-3.7836
 20
-0.58963
 30
0.0
 10
-3.7836
 20
-0.58963
 30
0.0
 10
-3.7836
 20
-0.58963
 30
0.0
 10
-4.04108
 20
-0.88216
 30
0.0
 10
-4.04108
 20
-0.88216
 30
0.0
 10
-4.04108
 20
-0.88216
 30
0.0
 10
-4.04108
 20
-0.88216
 30
0.0
 10
-5.40204
 20
-2.42832
 30
0.0
 10
-5.40204
 20
-2.42832
 30
0.0
 10
-5.40204
 20
-2.42832
 30
0.0
 10
-5.40204
 20
-2.42832
 30
0.0
 10
-4.81708
 20
-2.94321
 30
0.0
 10
-4.81708
 20
-2.94321
 30
0.0
  0
SPLINE
  5
6B
330
1F
100
AcDbEntity
  8
Layer 1
 62
   177
370
     9
100
AcDbSpline
210
0.0
220
0.0
230
1.0
 70
    11
 71
     3
 72
    52
 73
    48
 74
     0
 42
0.0000000001
 43
0.0000000001
 12
1.0
 22
0.0
 32
0.0
 13
1.0
 23
0.0
 33
0.0
 40
0.0
 40
0.0
 40
0.0
 40
0.0
 40
0.0769230769230769
 40
0.0769230769230769
 40
0.0769230769230769
 40
0.0769230769230769
 40
0.1538461538461539
 40
0.1538461538461539
 40
0.1538461538461539
 40
0.1538461538461539
 40
0.2307692307692308
 40
0.2307692307692308
 40
0.2307692307692308
 40
0.2307692307692308
 40
0.3076923076923077
 40
0.3076923076923077
 40
0.3076923076923077
 40
0.3076923076923077
 40
0.3846153846153846
 40
0.3846153846153846
 40
0.3846153846153846
 40
0.3846153846153846
 40
0.4615384615384616
 40
0.4615384615384616
 40
0.4615384615384616
 40
0.4615384615384616
 40
0.5384615384615384
 40
0.5384615384615384
 40
0.5384615384615384
 40
0.5384615384615384
 40
0.6153846153846154
 40
0.6153846153846154
 40
0.6153846153846154
 40
0.6153846153846154
 40
0.6923076923076923
 40
0.6923076923076923
 40
0.6923076923076923
 40
0.6923076923076923
 40
0.7692307692307693
 40
0.7692307692307693
 40
0.7692307692307693
 40
0.7692307692307693
 40
0.8461538461538461
 40
0.8461538461538461
 40
0.8461538461538461
 40
0.8461538461538461
 40
1.0
 40
1.0
 40
1.0
 40
1.0
 10
-3.63147
 20
-0.50104
 30
0.0
 10
-3.63147
 20
-0.50104
 30
0.0
 10
-3.11651
 20
0.08398
 30
0.0
 10
-3.11651
 20
0.08398
 30
0.0
 10
-3.11651
 20
0.08398
 30
0.0
 10
-3.11651
 20
0.08398
 30
0.0
 10
-3.53445
 20
0.45188
 30
0.0
 10
-3.53445
 20
0.45188
 30
0.0
 10
-3.53445
 20
0.45188
 30
0.0
 10
-3.53445
 20
0.45188
 30
0.0
 10
-3.38732
 20
0.61903
 30
0.0
 10
-3.38732
 20
0.61903
 30
0.0
 10
-3.38732
 20
0.61903
 30
0.0
 10
-3.38732
 20
0.61903
 30
0.0
 10
-3.9723
 20
1.13392
 30
0.0
 10
-3.9723
 20
1.13392
 30
0.0
 10
-3.9723
 20
1.13392
 30
0.0
 10
-3.9723
 20
1.13392
 30
0.0
 10
-4.34018
 20
0.71596
 30
0.0
 10
-4.34018
 20
0.71596
 30
0.0
 10
-4.34018
 20
0.71596
 30
0.0
 10
-4.34018
 20
0.71596
 30
0.0
 10
-4.5074
 20
0.86316
 30
0.0
 10
-4.5074
 20
0.86316
 30
0.0
 10
-4.5074
 20
0.86316
 30
0.0
 10
-4.5074
 20
0.86316
 30
0.0
 10
-5.02231
 20
0.2782
 30
0.0
 10
-5.02231
 20
0.2782
 30
0.0
 10
-5.02231
 20
0.2782
 30
0.0
 10
-5.02231
 20
0.2782
 30
0.0
 10
-4.60435
 20
-0.0897
 30
0.0
 10
-4.60435
 20
-0.0897
 30
0.0
 10
-4.60435
 20
-0.0897
 30
0.0
 10
-4.60435
 20
-0.0897
 30
0.0
 10
-4.75154
 20
-0.25692
 30
0.0
 10
-4.75154
 20
-0.25692
 30
0.0
 10
-4.75154
 20
-0.25692
 30
0.0
 10
-4.75154
 20
-0.25692
 30
0.0
 10
-4.16651
 20
-0.77187
 30
0.0
 10
-4.16651
 20
-0.77187
 30
0.0
 10
-4.16651
 20
-0.77187
 30
0.0
 10
-4.16651
 20
-0.77187
 30
0.0
 10
-3.79861
 20
-0.35393
 30
0.0
 10
-3.79861
 20
-0.35393
 30
0.0
 10
-3.79861
 20
-0.35393
 30
0.0
 10
-3.79861
 20
-0.35393
 30
0.0
 10
-3.63147
 20
-0.50104
 30
0.0
 10
-3.63147
 20
-0.50104
 30
0.0
  0
SPLINE
  5
6C
330
1F
100
AcDbEntity
  8
Layer 1
 62
   177
370
     9
100
AcDbSpline
210
0.0
220
0.0
230
1.0
 70
    11
 71
     3
 72
    48
 73
    44
 74
     0
 42
0.0000000001
 43
0.0000000001
 12
1.0
 22
0.0
 32
0.0
 13
1.0
 23
0.0
 33
0.0
 40
0.0
 40
0.0
 40
0.0
 40
0.0
 40
0.0833333333333333
 40
0.0833333333333333
 40
0.0833333333333333
 40
0.0833333333333333
 40
0.1666666666666667
 40
0.1666666666666667
 40
0.1666666666666667
 40
0.1666666666666667
 40
0.25
 40
0.25
 40
0.25
 40
0.25
 40
0.3333333333333333
 40
0.3333333333333333
 40
0.3333333333333333
 40
0.3333333333333333
 40
0.4166666666666667
 40
0.4166666666666667
 40
0.4166666666666667
 40
0.4166666666666667
 40
0.5
 40
0.5
 40
0.5
 40
0.5
 40
0.5833333333333334
 40
0.5833333333333334
 40
0.5833333333333334
 40
0.5833333333333334
 40
0.6666666666666666
 40
0.6666666666666666
 40
0.6666666666666666
 40
0.6666666666666666
 40
0.75
 40
0.75
 40
0.75
 40
0.75
 40
0.8333333333333334
 40
0.8333333333333334
 40
0.8333333333333334
 40
0.8333333333333334
 40
1.0
 40
1.0
 40
1.0
 40
1.0
 10
-3.27698
 20
0.74439
 30
0.0
 10
-3.27698
 20
0.74439
 30
0.0
 10
-2.7988
 20
1.28763
 30
0.0
 10
-2.7988
 20
1.28763
 30
0.0
 10
-2.7988
 20
1.28763
 30
0.0
 10
-2.7988
 20
1.28763
 30
0.0
 10
-2.79874
 20
1.28757
 30
0.0
 10
-2.79874
 20
1.28757
 30
0.0
 10
-2.79874
 20
1.28757
 30
0.0
 10
-2.79874
 20
1.28757
 30
0.0
 10
-2.0884
 20
0.66233
 30
0.0
 10
-2.0884
 20
0.66233
 30
0.0
 10
-2.0884
 20
0.66233
 30
0.0
 10
-2.0884
 20
0.66233
 30
0.0
 10
-1.57346
 20
1.24737
 30
0.0
 10
-1.57346
 20
1.24737
 30
0.0
 10
-1.57346
 20
1.24737
 30
0.0
 10
-1.57346
 20
1.24737
 30
0.0
 10
-2.28379
 20
1.87262
 30
0.0
 10
-2.28379
 20
1.87262
 30
0.0
 10
-2.28379
 20
1.87262
 30
0.0
 10
-2.28379
 20
1.87262
 30
0.0
 10
-1.65847
 20
2.583
 30
0.0
 10
-1.65847
 20
2.583
 30
0.0
 10
-1.65847
 20
2.583
 30
0.0
 10
-1.65847
 20
2.583
 30
0.0
 10
-2.20171
 20
3.06118
 30
0.0
 10
-2.20171
 20
3.06118
 30
0.0
 10
-2.20171
 20
3.06118
 30
0.0
 10
-2.20171
 20
3.06118
 30
0.0
 10
-2.24351
 20
3.09798
 30
0.0
 10
-2.24351
 20
3.09798
 30
0.0
 10
-2.24351
 20
3.09798
 30
0.0
 10
-2.24351
 20
3.09798
 30
0.0
 10
-2.501
 20
2.80546
 30
0.0
 10
-2.501
 20
2.80546
 30
0.0
 10
-2.501
 20
2.80546
 30
0.0
 10
-2.501
 20
2.80546
 30
0.0
 10
-3.86195
 20
1.25929
 30
0.0
 10
-3.86195
 20
1.25929
 30
0.0
 10
-3.86195
 20
1.25929
 30
0.0
 10
-3.86195
 20
1.25929
 30
0.0
 10
-3.27698
 20
0.74439
 30
0.0
 10
-3.27698
 20
0.74439
 30
0.0
  0
SPLINE
  5
6D
330
1F
100
AcDbEntity
  8
Layer 1
 62
   177
370
     9
100
AcDbSpline
210
0.0
220
0.0
230
1.0
 70
    11
 71
     3
 72
    52
 73
    48
 74
     0
 42
0.0000000001
 43
0.0000000001
 12
1.0
 22
0.0
 32
0.0
 13
1.0
 23
0.0
 33
0.0
 40
0.0
 40
0.0
 40
0.0
 40
0.0
 40
0.0769230769230769
 40
0.0769230769230769
 40
0.0769230769230769
 40
0.0769230769230769
 40
0.1538461538461539
 40
0.1538461538461539
 40
0.1538461538461539
 40
0.1538461538461539
 40
0.2307692307692308
 40
0.2307692307692308
 40
0.2307692307692308
 40
0.2307692307692308
 40
0.3076923076923077
 40
0.3076923076923077
 40
0.3076923076923077
 40
0.3076923076923077
 40
0.3846153846153846
 40
0.3846153846153846
 40
0.3846153846153846
 40
0.3846153846153846
 40
0.4615384615384616
 40
0.4615384615384616
 40
0.4615384615384616
 40
0.4615384615384616
 40
0.5384615384615384
 40
0.5384615384615384
 40
0.5384615384615384
 40
0.5384615384615384
 40
0.6153846153846154
 40
0.6153846153846154
 40
0.6153846153846154
 40
0.6153846153846154
 40
0.6923076923076923
 40
0.6923076923076923
 40
0.6923076923076923
 40
0.6923076923076923
 40
0.7692307692307693
 40
0.7692307692307693
 40
0.7692307692307693
 40
0.7692307692307693
 40
0.8461538461538461
 40
0.8461538461538461
 40
0.8461538461538461
 40
0.8461538461538461
 40
1.0
 40
1.0
 40
1.0
 40
1.0
 10
-2.09136
 20
3.18655
 30
0.0
 10
-2.09136
 20
3.18655
 30
0.0
 10
-1.57641
 20
3.77156
 30
0.0
 10
-1.57641
 20
3.77156
 30
0.0
 10
-1.57641
 20
3.77156
 30
0.0
 10
-1.57641
 20
3.77156
 30
0.0
 10
-1.99435
 20
4.13947
 30
0.0
 10
-1.99435
 20
4.13947
 30
0.0
 10
-1.99435
 20
4.13947
 30
0.0
 10
-1.99435
 20
4.13947
 30
0.0
 10
-1.84723
 20
4.30661
 30
0.0
 10
-1.84723
 20
4.30661
 30
0.0
 10
-1.84723
 20
4.30661
 30
0.0
 10
-1.84723
 20
4.30661
 30
0.0
 10
-2.4322
 20
4.82152
 30
0.0
 10
-2.4322
 20
4.82152
 30
0.0
 10
-2.4322
 20
4.82152
 30
0.0
 10
-2.4322
 20
4.82152
 30
0.0
 10
-2.80009
 20
4.40356
 30
0.0
 10
-2.80009
 20
4.40356
 30
0.0
 10
-2.80009
 20
4.40356
 30
0.0
 10
-2.80009
 20
4.40356
 30
0.0
 10
-2.96732
 20
4.55075
 30
0.0
 10
-2.96732
 20
4.55075
 30
0.0
 10
-2.96732
 20
4.55075
 30
0.0
 10
-2.96732
 20
4.55075
 30
0.0
 10
-3.4822
 20
3.96579
 30
0.0
 10
-3.4822
 20
3.96579
 30
0.0
 10
-3.4822
 20
3.96579
 30
0.0
 10
-3.4822
 20
3.96579
 30
0.0
 10
-3.06424
 20
3.5979
 30
0.0
 10
-3.06424
 20
3.5979
 30
0.0
 10
-3.06424
 20
3.5979
 30
0.0
 10
-3.06424
 20
3.5979
 30
0.0
 10
-3.21145
 20
3.43069
 30
0.0
 10
-3.21145
 20
3.43069
 30
0.0
 10
-3.21145
 20
3.43069
 30
0.0
 10
-3.21145
 20
3.43069
 30
0.0
 10
-2.62642
 20
2.91573
 30
0.0
 10
-2.62642
 20
2.91573
 30
0.0
 10
-2.62642
 20
2.91573
 30
0.0
 10
-2.62642
 20
2.91573
 30
0.0
 10
-2.25853
 20
3.33368
 30
0.0
 10
-2.25853
 20
3.33368
 30
0.0
 10
-2.25853
 20
3.33368
 30
0.0
 10
-2.25853
 20
3.33368
 30
0.0
 10
-2.09136
 20
3.18655
 30
0.0
 10
-2.09136
 20
3.18655
 30
0.0
  0
SPLINE
  5
6E
330
1F
100
AcDbEntity
  8
Layer 1
 62
   177
370
     9
100
AcDbSpline
210
0.0
220
0.0
230
1.0
 70
    11
 71
     3
 72
    68
 73
    64
 74
     0
 42
0.0000000001
 43
0.0000000001
 12
1.0
 22
0.0
 32
0.0
 13
1.0
 23
0.0
 33
0.0
 40
0.0
 40
0.0
 40
0.0
 40
0.0
 40
0.0588235294117647
 40
0.0588235294117647
 40
0.0588235294117647
 40
0.0588235294117647
 40
0.1176470588235294
 40
0.1176470588235294
 40
0.1176470588235294
 40
0.1176470588235294
 40
0.1764705882352941
 40
0.1764705882352941
 40
0.1764705882352941
 40
0.1764705882352941
 40
0.2352941176470588
 40
0.2352941176470588
 40
0.2352941176470588
 40
0.2352941176470588
 40
0.2941176470588235
 40
0.2941176470588235
 40
0.2941176470588235
 40
0.2941176470588235
 40
0.3529411764705883
 40
0.3529411764705883
 40
0.3529411764705883
 40
0.3529411764705883
 40
0.4117647058823529
 40
0.4117647058823529
 40
0.4117647058823529
 40
0.4117647058823529
 40
0.4705882352941176
 40
0.4705882352941176
 40
0.4705882352941176
 40
0.4705882352941176
 40
0.5294117647058824
 40
0.5294117647058824
 40
0.5294117647058824
 40
0.5294117647058824
 40
0.5882352941176471
 40
0.5882352941176471
 40
0.5882352941176471
 40
0.5882352941176471
 40
0.6470588235294118
 40
0.6470588235294118
 40
0.6470588235294118
 40
0.6470588235294118
 40
0.7058823529411765
 40
0.7058823529411765
 40
0.7058823529411765
 40
0.7058823529411765
 40
0.7647058823529411
 40
0.7647058823529411
 40
0.7647058823529411
 40
0.7647058823529411
 40
0.8235294117647058
 40
0.8235294117647058
 40
0.8235294117647058
 40
0.8235294117647058
 40
0.8823529411764706
 40
0.8823529411764706
 40
0.8823529411764706
 40
0.8823529411764706
 40
1.0
 40
1.0
 40
1.0
 40
1.0
 10
-3.00624
 20
0.20941
 30
0.0
 10
-3.00624
 20
0.20941
 30
0.0
 10
-1.46006
 20
-1.15155
 30
0.0
 10
-1.46006
 20
-1.15155
 30
0.0
 10
-1.46006
 20
-1.15155
 30
0.0
 10
-1.46006
 20
-1.15155
 30
0.0
 10
-1.16247
 20
-0.81347
 30
0.0
 10
-1.16247
 20
-0.81347
 30
0.0
 10
-1.16247
 20
-0.81347
 30
0.0
 10
-1.16247
 20
-0.81347
 30
0.0
 10
-1.16247
 20
-0.3753
 30
0.0
 10
-1.16247
 20
-0.3753
 30
0.0
 10
-1.16247
 20
-0.3753
 30
0.0
 10
-1.16247
 20
-0.3753
 30
0.0
 10
-1.48835
 20
-0.08846
 30
0.0
 10
-1.48835
 20
-0.08846
 30
0.0
 10
-1.48835
 20
-0.08846
 30
0.0
 10
-1.48835
 20
-0.08846
 30
0.0
 10
-1.48828
 20
-0.0884
 30
0.0
 10
-1.48828
 20
-0.0884
 30
0.0
 10
-1.48828
 20
-0.0884
 30
0.0
 10
-1.48828
 20
-0.0884
 30
0.0
 10
-1.48835
 20
-0.08833
 30
0.0
 10
-1.48835
 20
-0.08833
 30
0.0
 10
-1.48835
 20
-0.08833
 30
0.0
 10
-1.48835
 20
-0.08833
 30
0.0
 10
-1.16247
 20
0.2819
 30
0.0
 10
-1.16247
 20
0.2819
 30
0.0
 10
-1.16247
 20
0.2819
 30
0.0
 10
-1.16247
 20
0.2819
 30
0.0
 10
-1.16247
 20
0.88549
 30
0.0
 10
-1.16247
 20
0.88549
 30
0.0
 10
-1.16247
 20
0.88549
 30
0.0
 10
-1.16247
 20
0.88549
 30
0.0
 10
-1.44807
 20
1.13689
 30
0.0
 10
-1.44807
 20
1.13689
 30
0.0
 10
-1.44807
 20
1.13689
 30
0.0
 10
-1.44807
 20
1.13689
 30
0.0
 10
-2.07331
 20
0.42655
 30
0.0
 10
-2.07331
 20
0.42655
 30
0.0
 10
-2.07331
 20
0.42655
 30
0.0
 10
-2.07331
 20
0.42655
 30
0.0
 10
-2.07339
 20
0.42661
 30
0.0
 10
-2.07339
 20
0.42661
 30
0.0
 10
-2.07339
 20
0.42661
 30
0.0
 10
-2.07339
 20
0.42661
 30
0.0
 10
-2.78373
 20
1.05186
 30
0.0
 10
-2.78373
 20
1.05186
 30
0.0
 10
-2.78373
 20
1.05186
 30
0.0
 10
-2.78373
 20
1.05186
 30
0.0
 10
-3.2619
 20
0.50861
 30
0.0
 10
-3.2619
 20
0.50861
 30
0.0
 10
-3.2619
 20
0.50861
 30
0.0
 10
-3.2619
 20
0.50861
 30
0.0
 10
-3.26197
 20
0.50869
 30
0.0
 10
-3.26197
 20
0.50869
 30
0.0
 10
-3.26197
 20
0.50869
 30
0.0
 10
-3.26197
 20
0.50869
 30
0.0
 10
-3.29875
 20
0.46689
 30
0.0
 10
-3.29875
 20
0.46689
 30
0.0
 10
-3.29875
 20
0.46689
 30
0.0
 10
-3.29875
 20
0.46689
 30
0.0
 10
-3.00624
 20
0.20941
 30
0.0
 10
-3.00624
 20
0.20941
 30
0.0
  0
SPLINE
  5
6F
330
1F
100
AcDbEntity
  8
Layer 1
 62
   177
370
     9
100
AcDbSpline
210
0.0
220
0.0
230
1.0
 70
    11
 71
     3
 72
    52
 73
    48
 74
     0
 42
0.0000000001
 43
0.0000000001
 12
1.0
 22
0.0
 32
0.0
 13
1.0
 23
0.0
 33
0.0
 40
0.0
 40
0.0
 40
0.0
 40
0.0
 40
0.0769230769230769
 40
0.0769230769230769
 40
0.0769230769230769
 40
0.0769230769230769
 40
0.1538461538461539
 40
0.1538461538461539
 40
0.1538461538461539
 40
0.1538461538461539
 40
0.2307692307692308
 40
0.2307692307692308
 40
0.2307692307692308
 40
0.2307692307692308
 40
0.3076923076923077
 40
0.3076923076923077
 40
0.3076923076923077
 40
0.3076923076923077
 40
0.3846153846153846
 40
0.3846153846153846
 40
0.3846153846153846
 40
0.3846153846153846
 40
0.4615384615384616
 40
0.4615384615384616
 40
0.4615384615384616
 40
0.4615384615384616
 40
0.5384615384615384
 40
0.5384615384615384
 40
0.5384615384615384
 40
0.5384615384615384
 40
0.6153846153846154
 40
0.6153846153846154
 40
0.6153846153846154
 40
0.6153846153846154
 40
0.6923076923076923
 40
0.6923076923076923
 40
0.6923076923076923
 40
0.6923076923076923
 40
0.7692307692307693
 40
0.7692307692307693
 40
0.7692307692307693
 40
0.7692307692307693
 40
0.8461538461538461
 40
0.8461538461538461
 40
0.8461538461538461
 40
0.8461538461538461
 40
1.0
 40
1.0
 40
1.0
 40
1.0
 10
-1.66743
 20
-2.22984
 30
0.0
 10
-1.66743
 20
-2.22984
 30
0.0
 10
-2.37782
 20
-1.60453
 30
0.0
 10
-2.37782
 20
-1.60453
 30
0.0
 10
-2.37782
 20
-1.60453
 30
0.0
 10
-2.37782
 20
-1.60453
 30
0.0
 10
-2.37789
 20
-1.60461
 30
0.0
 10
-2.37789
 20
-1.60461
 30
0.0
 10
-2.37789
 20
-1.60461
 30
0.0
 10
-2.37789
 20
-1.60461
 30
0.0
 10
-3.00312
 20
-2.31492
 30
0.0
 10
-3.00312
 20
-2.31492
 30
0.0
 10
-3.00312
 20
-2.31492
 30
0.0
 10
-3.00312
 20
-2.31492
 30
0.0
 10
-3.58817
 20
-1.79998
 30
0.0
 10
-3.58817
 20
-1.79998
 30
0.0
 10
-3.58817
 20
-1.79998
 30
0.0
 10
-3.58817
 20
-1.79998
 30
0.0
 10
-2.96285
 20
-1.08957
 30
0.0
 10
-2.96285
 20
-1.08957
 30
0.0
 10
-2.96285
 20
-1.08957
 30
0.0
 10
-2.96285
 20
-1.08957
 30
0.0
 10
-3.50611
 20
-0.61141
 30
0.0
 10
-3.50611
 20
-0.61141
 30
0.0
 10
-3.50611
 20
-0.61141
 30
0.0
 10
-3.50611
 20
-0.61141
 30
0.0
 10
-2.99114
 20
-0.02637
 30
0.0
 10
-2.99114
 20
-0.02637
 30
0.0
 10
-2.99114
 20
-0.02637
 30
0.0
 10
-2.99114
 20
-0.02637
 30
0.0
 10
-1.44498
 20
-1.38733
 30
0.0
 10
-1.44498
 20
-1.38733
 30
0.0
 10
-1.44498
 20
-1.38733
 30
0.0
 10
-1.44498
 20
-1.38733
 30
0.0
 10
-1.16247
 20
-1.636
 30
0.0
 10
-1.16247
 20
-1.636
 30
0.0
 10
-1.16247
 20
-1.636
 30
0.0
 10
-1.16247
 20
-1.636
 30
0.0
 10
-1.16247
 20
-1.65618
 30
0.0
 10
-1.16247
 20
-1.65618
 30
0.0
 10
-1.16247
 20
-1.65618
 30
0.0
 10
-1.16247
 20
-1.65618
 30
0.0
 10
-1.18931
 20
-1.68667
 30
0.0
 10
-1.18931
 20
-1.68667
 30
0.0
 10
-1.18931
 20
-1.68667
 30
0.0
 10
-1.18931
 20
-1.68667
 30
0.0
 10
-1.66743
 20
-2.22984
 30
0.0
 10
-1.66743
 20
-2.22984
 30
0.0
  0
SPLINE
  5
70
330
1F
100
AcDbEntity
  8
Layer 1
 62
   177
370
     9
100
AcDbSpline
210
0.0
220
0.0
230
1.0
 70
    11
 71
     3
 72
    60
 73
    56
 74
     0
 42
0.0000000001
 43
0.0000000001
 12
1.0
 22
0.0
 32
0.0
 13
1.0
 23
0.0
 33
0.0
 40
0.0
 40
0.0
 40
0.0
 40
0.0
 40
0.0666666666666667
 40
0.0666666666666667
 40
0.0666666666666667
 40
0.0666666666666667
 40
0.1333333333333333
 40
0.1333333333333333
 40
0.1333333333333333
 40
0.1333333333333333
 40
0.2
 40
0.2
 40
0.2
 40
0.2
 40
0.2666666666666667
 40
0.2666666666666667
 40
0.2666666666666667
 40
0.2666666666666667
 40
0.3333333333333333
 40
0.3333333333333333
 40
0.3333333333333333
 40
0.3333333333333333
 40
0.4
 40
0.4
 40
0.4
 40
0.4
 40
0.4666666666666667
 40
0.4666666666666667
 40
0.4666666666666667
 40
0.4666666666666667
 40
0.5333333333333333
 40
0.5333333333333333
 40
0.5333333333333333
 40
0.5333333333333333
 40
0.6
 40
0.6
 40
0.6
 40
0.6
 40
0.6666666666666666
 40
0.6666666666666666
 40
0.6666666666666666
 40
0.6666666666666666
 40
0.7333333333333333
 40
0.7333333333333333
 40
0.7333333333333333
 40
0.7333333333333333
 40
0.8
 40
0.8
 40
0.8
 40
0.8
 40
0.8666666666666667
 40
0.8666666666666667
 40
0.8666666666666667
 40
0.8666666666666667
 40
1.0
 40
1.0
 40
1.0
 40
1.0
 10
-4.54634
 20
-3.4782
 30
0.0
 10
-4.54634
 20
-3.4782
 30
0.0
 10
-3.00016
 20
-4.83915
 30
0.0
 10
-3.00016
 20
-4.83915
 30
0.0
 10
-3.00016
 20
-4.83915
 30
0.0
 10
-3.00016
 20
-4.83915
 30
0.0
 10
-2.48526
 20
-4.25418
 30
0.0
 10
-2.48526
 20
-4.25418
 30
0.0
 10
-2.48526
 20
-4.25418
 30
0.0
 10
-2.48526
 20
-4.25418
 30
0.0
 10
-3.02845
 20
-3.77607
 30
0.0
 10
-3.02845
 20
-3.77607
 30
0.0
 10
-3.02845
 20
-3.77607
 30
0.0
 10
-3.02845
 20
-3.77607
 30
0.0
 10
-3.02837
 20
-3.77601
 30
0.0
 10
-3.02837
 20
-3.77601
 30
0.0
 10
-3.02837
 20
-3.77601
 30
0.0
 10
-3.02837
 20
-3.77601
 30
0.0
 10
-3.02844
 20
-3.77593
 30
0.0
 10
-3.02844
 20
-3.77593
 30
0.0
 10
-3.02844
 20
-3.77593
 30
0.0
 10
-3.02844
 20
-3.77593
 30
0.0
 10
-2.4032
 20
-3.06561
 30
0.0
 10
-2.4032
 20
-3.06561
 30
0.0
 10
-2.4032
 20
-3.06561
 30
0.0
 10
-2.4032
 20
-3.06561
 30
0.0
 10
-2.98817
 20
-2.55071
 30
0.0
 10
-2.98817
 20
-2.55071
 30
0.0
 10
-2.98817
 20
-2.55071
 30
0.0
 10
-2.98817
 20
-2.55071
 30
0.0
 10
-3.61342
 20
-3.26104
 30
0.0
 10
-3.61342
 20
-3.26104
 30
0.0
 10
-3.61342
 20
-3.26104
 30
0.0
 10
-3.61342
 20
-3.26104
 30
0.0
 10
-3.6135
 20
-3.26098
 30
0.0
 10
-3.6135
 20
-3.26098
 30
0.0
 10
-3.6135
 20
-3.26098
 30
0.0
 10
-3.6135
 20
-3.26098
 30
0.0
 10
-4.32382
 20
-2.63574
 30
0.0
 10
-4.32382
 20
-2.63574
 30
0.0
 10
-4.32382
 20
-2.63574
 30
0.0
 10
-4.32382
 20
-2.63574
 30
0.0
 10
-4.802
 20
-3.17898
 30
0.0
 10
-4.802
 20
-3.17898
 30
0.0
 10
-4.802
 20
-3.17898
 30
0.0
 10
-4.802
 20
-3.17898
 30
0.0
 10
-4.80206
 20
-3.17893
 30
0.0
 10
-4.80206
 20
-3.17893
 30
0.0
 10
-4.80206
 20
-3.17893
 30
0.0
 10
-4.80206
 20
-3.17893
 30
0.0
 10
-4.83884
 20
-3.22071
 30
0.0
 10
-4.83884
 20
-3.22071
 30
0.0
 10
-4.83884
 20
-3.22071
 30
0.0
 10
-4.83884
 20
-3.22071
 30
0.0
 10
-4.54634
 20
-3.4782
 30
0.0
 10
-4.54634
 20
-3.4782
 30
0.0
  0
SPLINE
  5
71
330
1F
100
AcDbEntity
  8
Layer 1
 62
   177
370
     9
100
AcDbSpline
210
0.0
220
0.0
230
1.0
 70
    11
 71
     3
 72
    48
 73
    44
 74
     0
 42
0.0000000001
 43
0.0000000001
 12
1.0
 22
0.0
 32
0.0
 13
1.0
 23
0.0
 33
0.0
 40
0.0
 40
0.0
 40
0.0
 40
0.0
 40
0.0833333333333333
 40
0.0833333333333333
 40
0.0833333333333333
 40
0.0833333333333333
 40
0.1666666666666667
 40
0.1666666666666667
 40
0.1666666666666667
 40
0.1666666666666667
 40
0.25
 40
0.25
 40
0.25
 40
0.25
 40
0.3333333333333333
 40
0.3333333333333333
 40
0.3333333333333333
 40
0.3333333333333333
 40
0.4166666666666667
 40
0.4166666666666667
 40
0.4166666666666667
 40
0.4166666666666667
 40
0.5
 40
0.5
 40
0.5
 40
0.5
 40
0.5833333333333334
 40
0.5833333333333334
 40
0.5833333333333334
 40
0.5833333333333334
 40
0.6666666666666666
 40
0.6666666666666666
 40
0.6666666666666666
 40
0.6666666666666666
 40
0.75
 40
0.75
 40
0.75
 40
0.75
 40
0.8333333333333334
 40
0.8333333333333334
 40
0.8333333333333334
 40
0.8333333333333334
 40
1.0
 40
1.0
 40
1.0
 40
1.0
 10
-3.20751
 20
-5.91744
 30
0.0
 10
-3.20751
 20
-5.91744
 30
0.0
 10
-3.91791
 20
-5.29213
 30
0.0
 10
-3.91791
 20
-5.29213
 30
0.0
 10
-3.91791
 20
-5.29213
 30
0.0
 10
-3.91791
 20
-5.29213
 30
0.0
 10
-3.91797
 20
-5.29221
 30
0.0
 10
-3.91797
 20
-5.29221
 30
0.0
 10
-3.91797
 20
-5.29221
 30
0.0
 10
-3.91797
 20
-5.29221
 30
0.0
 10
-4.54321
 20
-6.00253
 30
0.0
 10
-4.54321
 20
-6.00253
 30
0.0
 10
-4.54321
 20
-6.00253
 30
0.0
 10
-4.54321
 20
-6.00253
 30
0.0
 10
-5.12825
 20
-5.48757
 30
0.0
 10
-5.12825
 20
-5.48757
 30
0.0
 10
-5.12825
 20
-5.48757
 30
0.0
 10
-5.12825
 20
-5.48757
 30
0.0
 10
-4.50295
 20
-4.77718
 30
0.0
 10
-4.50295
 20
-4.77718
 30
0.0
 10
-4.50295
 20
-4.77718
 30
0.0
 10
-4.50295
 20
-4.77718
 30
0.0
 10
-5.0462
 20
-4.299
 30
0.0
 10
-5.0462
 20
-4.299
 30
0.0
 10
-5.0462
 20
-4.299
 30
0.0
 10
-5.0462
 20
-4.299
 30
0.0
 10
-4.53123
 20
-3.71397
 30
0.0
 10
-4.53123
 20
-3.71397
 30
0.0
 10
-4.53123
 20
-3.71397
 30
0.0
 10
-4.53123
 20
-3.71397
 30
0.0
 10
-2.98507
 20
-5.07493
 30
0.0
 10
-2.98507
 20
-5.07493
 30
0.0
 10
-2.98507
 20
-5.07493
 30
0.0
 10
-2.98507
 20
-5.07493
 30
0.0
 10
-2.69255
 20
-5.3324
 30
0.0
 10
-2.69255
 20
-5.3324
 30
0.0
 10
-2.69255
 20
-5.3324
 30
0.0
 10
-2.69255
 20
-5.3324
 30
0.0
 10
-2.7294
 20
-5.37427
 30
0.0
 10
-2.7294
 20
-5.37427
 30
0.0
 10
-2.7294
 20
-5.37427
 30
0.0
 10
-2.7294
 20
-5.37427
 30
0.0
 10
-3.20751
 20
-5.91744
 30
0.0
 10
-3.20751
 20
-5.91744
 30
0.0
  0
SPLINE
  5
72
330
1F
100
AcDbEntity
  8
Layer 1
 62
   177
370
     9
100
AcDbSpline
210
0.0
220
0.0
230
1.0
 70
    11
 71
     3
 72
    60
 73
    56
 74
     0
 42
0.0000000001
 43
0.0000000001
 12
1.0
 22
0.0
 32
0.0
 13
1.0
 23
0.0
 33
0.0
 40
0.0
 40
0.0
 40
0.0
 40
0.0
 40
0.0666666666666667
 40
0.0666666666666667
 40
0.0666666666666667
 40
0.0666666666666667
 40
0.1333333333333333
 40
0.1333333333333333
 40
0.1333333333333333
 40
0.1333333333333333
 40
0.2
 40
0.2
 40
0.2
 40
0.2
 40
0.2666666666666667
 40
0.2666666666666667
 40
0.2666666666666667
 40
0.2666666666666667
 40
0.3333333333333333
 40
0.3333333333333333
 40
0.3333333333333333
 40
0.3333333333333333
 40
0.4
 40
0.4
 40
0.4
 40
0.4
 40
0.4666666666666667
 40
0.4666666666666667
 40
0.4666666666666667
 40
0.4666666666666667
 40
0.5333333333333333
 40
0.5333333333333333
 40
0.5333333333333333
 40
0.5333333333333333
 40
0.6
 40
0.6
 40
0.6
 40
0.6
 40
0.6666666666666666
 40
0.6666666666666666
 40
0.6666666666666666
 40
0.6666666666666666
 40
0.7333333333333333
 40
0.7333333333333333
 40
0.7333333333333333
 40
0.7333333333333333
 40
0.8
 40
0.8
 40
0.8
 40
0.8
 40
0.8666666666666667
 40
0.8666666666666667
 40
0.8666666666666667
 40
0.8666666666666667
 40
1.0
 40
1.0
 40
1.0
 40
1.0
 10
-6.08641
 20
-7.16579
 30
0.0
 10
-6.08641
 20
-7.16579
 30
0.0
 10
-4.54026
 20
-8.52675
 30
0.0
 10
-4.54026
 20
-8.52675
 30
0.0
 10
-4.54026
 20
-8.52675
 30
0.0
 10
-4.54026
 20
-8.52675
 30
0.0
 10
-4.02535
 20
-7.94179
 30
0.0
 10
-4.02535
 20
-7.94179
 30
0.0
 10
-4.02535
 20
-7.94179
 30
0.0
 10
-4.02535
 20
-7.94179
 30
0.0
 10
-4.56854
 20
-7.46367
 30
0.0
 10
-4.56854
 20
-7.46367
 30
0.0
 10
-4.56854
 20
-7.46367
 30
0.0
 10
-4.56854
 20
-7.46367
 30
0.0
 10
-4.56848
 20
-7.4636
 30
0.0
 10
-4.56848
 20
-7.4636
 30
0.0
 10
-4.56848
 20
-7.4636
 30
0.0
 10
-4.56848
 20
-7.4636
 30
0.0
 10
-4.56855
 20
-7.46355
 30
0.0
 10
-4.56855
 20
-7.46355
 30
0.0
 10
-4.56855
 20
-7.46355
 30
0.0
 10
-4.56855
 20
-7.46355
 30
0.0
 10
-3.9433
 20
-6.75322
 30
0.0
 10
-3.9433
 20
-6.75322
 30
0.0
 10
-3.9433
 20
-6.75322
 30
0.0
 10
-3.9433
 20
-6.75322
 30
0.0
 10
-4.52827
 20
-6.23832
 30
0.0
 10
-4.52827
 20
-6.23832
 30
0.0
 10
-4.52827
 20
-6.23832
 30
0.0
 10
-4.52827
 20
-6.23832
 30
0.0
 10
-5.15351
 20
-6.94865
 30
0.0
 10
-5.15351
 20
-6.94865
 30
0.0
 10
-5.15351
 20
-6.94865
 30
0.0
 10
-5.15351
 20
-6.94865
 30
0.0
 10
-5.15358
 20
-6.94859
 30
0.0
 10
-5.15358
 20
-6.94859
 30
0.0
 10
-5.15358
 20
-6.94859
 30
0.0
 10
-5.15358
 20
-6.94859
 30
0.0
 10
-5.86391
 20
-6.32333
 30
0.0
 10
-5.86391
 20
-6.32333
 30
0.0
 10
-5.86391
 20
-6.32333
 30
0.0
 10
-5.86391
 20
-6.32333
 30
0.0
 10
-6.34208
 20
-6.86659
 30
0.0
 10
-6.34208
 20
-6.86659
 30
0.0
 10
-6.34208
 20
-6.86659
 30
0.0
 10
-6.34208
 20
-6.86659
 30
0.0
 10
-6.34215
 20
-6.86652
 30
0.0
 10
-6.34215
 20
-6.86652
 30
0.0
 10
-6.34215
 20
-6.86652
 30
0.0
 10
-6.34215
 20
-6.86652
 30
0.0
 10
-6.37894
 20
-6.90832
 30
0.0
 10
-6.37894
 20
-6.90832
 30
0.0
 10
-6.37894
 20
-6.90832
 30
0.0
 10
-6.37894
 20
-6.90832
 30
0.0
 10
-6.08641
 20
-7.16579
 30
0.0
 10
-6.08641
 20
-7.16579
 30
0.0
  0
SPLINE
  5
73
330
1F
100
AcDbEntity
  8
Layer 1
 62
   177
370
     9
100
AcDbSpline
210
0.0
220
0.0
230
1.0
 70
    11
 71
     3
 72
    60
 73
    56
 74
     0
 42
0.0000000001
 43
0.0000000001
 12
1.0
 22
0.0
 32
0.0
 13
1.0
 23
0.0
 33
0.0
 40
0.0
 40
0.0
 40
0.0
 40
0.0
 40
0.0666666666666667
 40
0.0666666666666667
 40
0.0666666666666667
 40
0.0666666666666667
 40
0.1333333333333333
 40
0.1333333333333333
 40
0.1333333333333333
 40
0.1333333333333333
 40
0.2
 40
0.2
 40
0.2
 40
0.2
 40
0.2666666666666667
 40
0.2666666666666667
 40
0.2666666666666667
 40
0.2666666666666667
 40
0.3333333333333333
 40
0.3333333333333333
 40
0.3333333333333333
 40
0.3333333333333333
 40
0.4
 40
0.4
 40
0.4
 40
0.4
 40
0.4666666666666667
 40
0.4666666666666667
 40
0.4666666666666667
 40
0.4666666666666667
 40
0.5333333333333333
 40
0.5333333333333333
 40
0.5333333333333333
 40
0.5333333333333333
 40
0.6
 40
0.6
 40
0.6
 40
0.6
 40
0.6666666666666666
 40
0.6666666666666666
 40
0.6666666666666666
 40
0.6666666666666666
 40
0.7333333333333333
 40
0.7333333333333333
 40
0.7333333333333333
 40
0.7333333333333333
 40
0.8
 40
0.8
 40
0.8
 40
0.8
 40
0.8666666666666667
 40
0.8666666666666667
 40
0.8666666666666667
 40
0.8666666666666667
 40
1.0
 40
1.0
 40
1.0
 40
1.0
 10
-3.48517
 20
6.49001
 30
0.0
 10
-3.48517
 20
6.49001
 30
0.0
 10
-2.77484
 20
5.86476
 30
0.0
 10
-2.77484
 20
5.86476
 30
0.0
 10
-2.77484
 20
5.86476
 30
0.0
 10
-2.77484
 20
5.86476
 30
0.0
 10
-2.7749
 20
5.86469
 30
0.0
 10
-2.7749
 20
5.86469
 30
0.0
 10
-2.7749
 20
5.86469
 30
0.0
 10
-2.7749
 20
5.86469
 30
0.0
 10
-2.77483
 20
5.86462
 30
0.0
 10
-2.77483
 20
5.86462
 30
0.0
 10
-2.77483
 20
5.86462
 30
0.0
 10
-2.77483
 20
5.86462
 30
0.0
 10
-3.40009
 20
5.1543
 30
0.0
 10
-3.40009
 20
5.1543
 30
0.0
 10
-3.40009
 20
5.1543
 30
0.0
 10
-3.40009
 20
5.1543
 30
0.0
 10
-2.8569
 20
4.67618
 30
0.0
 10
-2.8569
 20
4.67618
 30
0.0
 10
-2.8569
 20
4.67618
 30
0.0
 10
-2.8569
 20
4.67618
 30
0.0
 10
-2.85697
 20
4.67612
 30
0.0
 10
-2.85697
 20
4.67612
 30
0.0
 10
-2.85697
 20
4.67612
 30
0.0
 10
-2.85697
 20
4.67612
 30
0.0
 10
-2.81511
 20
4.63927
 30
0.0
 10
-2.81511
 20
4.63927
 30
0.0
 10
-2.81511
 20
4.63927
 30
0.0
 10
-2.81511
 20
4.63927
 30
0.0
 10
-2.55763
 20
4.9318
 30
0.0
 10
-2.55763
 20
4.9318
 30
0.0
 10
-2.55763
 20
4.9318
 30
0.0
 10
-2.55763
 20
4.9318
 30
0.0
 10
-1.19666
 20
6.47795
 30
0.0
 10
-1.19666
 20
6.47795
 30
0.0
 10
-1.19666
 20
6.47795
 30
0.0
 10
-1.19666
 20
6.47795
 30
0.0
 10
-1.78171
 20
6.9929
 30
0.0
 10
-1.78171
 20
6.9929
 30
0.0
 10
-1.78171
 20
6.9929
 30
0.0
 10
-1.78171
 20
6.9929
 30
0.0
 10
-2.25981
 20
6.44973
 30
0.0
 10
-2.25981
 20
6.44973
 30
0.0
 10
-2.25981
 20
6.44973
 30
0.0
 10
-2.25981
 20
6.44973
 30
0.0
 10
-2.25987
 20
6.44967
 30
0.0
 10
-2.25987
 20
6.44967
 30
0.0
 10
-2.25987
 20
6.44967
 30
0.0
 10
-2.25987
 20
6.44967
 30
0.0
 10
-2.97028
 20
7.07496
 30
0.0
 10
-2.97028
 20
7.07496
 30
0.0
 10
-2.97028
 20
7.07496
 30
0.0
 10
-2.97028
 20
7.07496
 30
0.0
 10
-3.48517
 20
6.49001
 30
0.0
 10
-3.48517
 20
6.49001
 30
0.0
  0
SPLINE
  5
74
330
1F
100
AcDbEntity
  8
Layer 1
 62
   177
370
     9
100
AcDbSpline
210
0.0
220
0.0
230
1.0
 70
    11
 71
     3
 72
    60
 73
    56
 74
     0
 42
0.0000000001
 43
0.0000000001
 12
1.0
 22
0.0
 32
0.0
 13
1.0
 23
0.0
 33
0.0
 40
0.0
 40
0.0
 40
0.0
 40
0.0
 40
0.0666666666666667
 40
0.0666666666666667
 40
0.0666666666666667
 40
0.0666666666666667
 40
0.1333333333333333
 40
0.1333333333333333
 40
0.1333333333333333
 40
0.1333333333333333
 40
0.2
 40
0.2
 40
0.2
 40
0.2
 40
0.2666666666666667
 40
0.2666666666666667
 40
0.2666666666666667
 40
0.2666666666666667
 40
0.3333333333333333
 40
0.3333333333333333
 40
0.3333333333333333
 40
0.3333333333333333
 40
0.4
 40
0.4
 40
0.4
 40
0.4
 40
0.4666666666666667
 40
0.4666666666666667
 40
0.4666666666666667
 40
0.4666666666666667
 40
0.5333333333333333
 40
0.5333333333333333
 40
0.5333333333333333
 40
0.5333333333333333
 40
0.6
 40
0.6
 40
0.6
 40
0.6
 40
0.6666666666666666
 40
0.6666666666666666
 40
0.6666666666666666
 40
0.6666666666666666
 40
0.7333333333333333
 40
0.7333333333333333
 40
0.7333333333333333
 40
0.7333333333333333
 40
0.8
 40
0.8
 40
0.8
 40
0.8
 40
0.8666666666666667
 40
0.8666666666666667
 40
0.8666666666666667
 40
0.8666666666666667
 40
1.0
 40
1.0
 40
1.0
 40
1.0
 10
-5.02525
 20
2.80242
 30
0.0
 10
-5.02525
 20
2.80242
 30
0.0
 10
-4.31494
 20
2.17717
 30
0.0
 10
-4.31494
 20
2.17717
 30
0.0
 10
-4.31494
 20
2.17717
 30
0.0
 10
-4.31494
 20
2.17717
 30
0.0
 10
-4.315
 20
2.1771
 30
0.0
 10
-4.315
 20
2.1771
 30
0.0
 10
-4.315
 20
2.1771
 30
0.0
 10
-4.315
 20
2.1771
 30
0.0
 10
-4.31492
 20
2.17704
 30
0.0
 10
-4.31492
 20
2.17704
 30
0.0
 10
-4.31492
 20
2.17704
 30
0.0
 10
-4.31492
 20
2.17704
 30
0.0
 10
-4.94018
 20
1.46671
 30
0.0
 10
-4.94018
 20
1.46671
 30
0.0
 10
-4.94018
 20
1.46671
 30
0.0
 10
-4.94018
 20
1.46671
 30
0.0
 10
-4.39699
 20
0.98859
 30
0.0
 10
-4.39699
 20
0.98859
 30
0.0
 10
-4.39699
 20
0.98859
 30
0.0
 10
-4.39699
 20
0.98859
 30
0.0
 10
-4.39706
 20
0.98853
 30
0.0
 10
-4.39706
 20
0.98853
 30
0.0
 10
-4.39706
 20
0.98853
 30
0.0
 10
-4.39706
 20
0.98853
 30
0.0
 10
-4.3552
 20
0.95168
 30
0.0
 10
-4.3552
 20
0.95168
 30
0.0
 10
-4.3552
 20
0.95168
 30
0.0
 10
-4.3552
 20
0.95168
 30
0.0
 10
-4.09772
 20
1.2442
 30
0.0
 10
-4.09772
 20
1.2442
 30
0.0
 10
-4.09772
 20
1.2442
 30
0.0
 10
-4.09772
 20
1.2442
 30
0.0
 10
-2.73676
 20
2.79036
 30
0.0
 10
-2.73676
 20
2.79036
 30
0.0
 10
-2.73676
 20
2.79036
 30
0.0
 10
-2.73676
 20
2.79036
 30
0.0
 10
-3.32179
 20
3.30532
 30
0.0
 10
-3.32179
 20
3.30532
 30
0.0
 10
-3.32179
 20
3.30532
 30
0.0
 10
-3.32179
 20
3.30532
 30
0.0
 10
-3.79991
 20
2.76214
 30
0.0
 10
-3.79991
 20
2.76214
 30
0.0
 10
-3.79991
 20
2.76214
 30
0.0
 10
-3.79991
 20
2.76214
 30
0.0
 10
-3.79998
 20
2.76207
 30
0.0
 10
-3.79998
 20
2.76207
 30
0.0
 10
-3.79998
 20
2.76207
 30
0.0
 10
-3.79998
 20
2.76207
 30
0.0
 10
-4.51037
 20
3.38737
 30
0.0
 10
-4.51037
 20
3.38737
 30
0.0
 10
-4.51037
 20
3.38737
 30
0.0
 10
-4.51037
 20
3.38737
 30
0.0
 10
-5.02525
 20
2.80242
 30
0.0
 10
-5.02525
 20
2.80242
 30
0.0
  0
SPLINE
  5
75
330
1F
100
AcDbEntity
  8
Layer 1
 62
   177
370
     9
100
AcDbSpline
210
0.0
220
0.0
230
1.0
 70
    11
 71
     3
 72
    60
 73
    56
 74
     0
 42
0.0000000001
 43
0.0000000001
 12
1.0
 22
0.0
 32
0.0
 13
1.0
 23
0.0
 33
0.0
 40
0.0
 40
0.0
 40
0.0
 40
0.0
 40
0.0666666666666667
 40
0.0666666666666667
 40
0.0666666666666667
 40
0.0666666666666667
 40
0.1333333333333333
 40
0.1333333333333333
 40
0.1333333333333333
 40
0.1333333333333333
 40
0.2
 40
0.2
 40
0.2
 40
0.2
 40
0.2666666666666667
 40
0.2666666666666667
 40
0.2666666666666667
 40
0.2666666666666667
 40
0.3333333333333333
 40
0.3333333333333333
 40
0.3333333333333333
 40
0.3333333333333333
 40
0.4
 40
0.4
 40
0.4
 40
0.4
 40
0.4666666666666667
 40
0.4666666666666667
 40
0.4666666666666667
 40
0.4666666666666667
 40
0.5333333333333333
 40
0.5333333333333333
 40
0.5333333333333333
 40
0.5333333333333333
 40
0.6
 40
0.6
 40
0.6
 40
0.6
 40
0.6666666666666666
 40
0.6666666666666666
 40
0.6666666666666666
 40
0.6666666666666666
 40
0.7333333333333333
 40
0.7333333333333333
 40
0.7333333333333333
 40
0.7333333333333333
 40
0.8
 40
0.8
 40
0.8
 40
0.8
 40
0.8666666666666667
 40
0.8666666666666667
 40
0.8666666666666667
 40
0.8666666666666667
 40
1.0
 40
1.0
 40
1.0
 40
1.0
 10
-6.56536
 20
-0.88519
 30
0.0
 10
-6.56536
 20
-0.88519
 30
0.0
 10
-5.85503
 20
-1.51042
 30
0.0
 10
-5.85503
 20
-1.51042
 30
0.0
 10
-5.85503
 20
-1.51042
 30
0.0
 10
-5.85503
 20
-1.51042
 30
0.0
 10
-5.8551
 20
-1.5105
 30
0.0
 10
-5.8551
 20
-1.5105
 30
0.0
 10
-5.8551
 20
-1.5105
 30
0.0
 10
-5.8551
 20
-1.5105
 30
0.0
 10
-5.85502
 20
-1.51056
 30
0.0
 10
-5.85502
 20
-1.51056
 30
0.0
 10
-5.85502
 20
-1.51056
 30
0.0
 10
-5.85502
 20
-1.51056
 30
0.0
 10
-6.48026
 20
-2.22089
 30
0.0
 10
-6.48026
 20
-2.22089
 30
0.0
 10
-6.48026
 20
-2.22089
 30
0.0
 10
-6.48026
 20
-2.22089
 30
0.0
 10
-5.9371
 20
-2.69901
 30
0.0
 10
-5.9371
 20
-2.69901
 30
0.0
 10
-5.9371
 20
-2.69901
 30
0.0
 10
-5.9371
 20
-2.69901
 30
0.0
 10
-5.93716
 20
-2.69907
 30
0.0
 10
-5.93716
 20
-2.69907
 30
0.0
 10
-5.93716
 20
-2.69907
 30
0.0
 10
-5.93716
 20
-2.69907
 30
0.0
 10
-5.89529
 20
-2.73592
 30
0.0
 10
-5.89529
 20
-2.73592
 30
0.0
 10
-5.89529
 20
-2.73592
 30
0.0
 10
-5.89529
 20
-2.73592
 30
0.0
 10
-5.63782
 20
-2.4434
 30
0.0
 10
-5.63782
 20
-2.4434
 30
0.0
 10
-5.63782
 20
-2.4434
 30
0.0
 10
-5.63782
 20
-2.4434
 30
0.0
 10
-4.27686
 20
-0.89723
 30
0.0
 10
-4.27686
 20
-0.89723
 30
0.0
 10
-4.27686
 20
-0.89723
 30
0.0
 10
-4.27686
 20
-0.89723
 30
0.0
 10
-4.86189
 20
-0.38228
 30
0.0
 10
-4.86189
 20
-0.38228
 30
0.0
 10
-4.86189
 20
-0.38228
 30
0.0
 10
-4.86189
 20
-0.38228
 30
0.0
 10
-5.34002
 20
-0.92544
 30
0.0
 10
-5.34002
 20
-0.92544
 30
0.0
 10
-5.34002
 20
-0.92544
 30
0.0
 10
-5.34002
 20
-0.92544
 30
0.0
 10
-5.34007
 20
-0.92553
 30
0.0
 10
-5.34007
 20
-0.92553
 30
0.0
 10
-5.34007
 20
-0.92553
 30
0.0
 10
-5.34007
 20
-0.92553
 30
0.0
 10
-6.05047
 20
-0.30022
 30
0.0
 10
-6.05047
 20
-0.30022
 30
0.0
 10
-6.05047
 20
-0.30022
 30
0.0
 10
-6.05047
 20
-0.30022
 30
0.0
 10
-6.56536
 20
-0.88519
 30
0.0
 10
-6.56536
 20
-0.88519
 30
0.0
  0
SPLINE
  5
76
330
1F
100
AcDbEntity
  8
Layer 1
 62
   177
370
     9
100
AcDbSpline
210
0.0
220
0.0
230
1.0
 70
    11
 71
     3
 72
    52
 73
    48
 74
     0
 42
0.0000000001
 43
0.0000000001
 12
1.0
 22
0.0
 32
0.0
 13
1.0
 23
0.0
 33
0.0
 40
0.0
 40
0.0
 40
0.0
 40
0.0
 40
0.0769230769230769
 40
0.0769230769230769
 40
0.0769230769230769
 40
0.0769230769230769
 40
0.1538461538461539
 40
0.1538461538461539
 40
0.1538461538461539
 40
0.1538461538461539
 40
0.2307692307692308
 40
0.2307692307692308
 40
0.2307692307692308
 40
0.2307692307692308
 40
0.3076923076923077
 40
0.3076923076923077
 40
0.3076923076923077
 40
0.3076923076923077
 40
0.3846153846153846
 40
0.3846153846153846
 40
0.3846153846153846
 40
0.3846153846153846
 40
0.4615384615384616
 40
0.4615384615384616
 40
0.4615384615384616
 40
0.4615384615384616
 40
0.5384615384615384
 40
0.5384615384615384
 40
0.5384615384615384
 40
0.5384615384615384
 40
0.6153846153846154
 40
0.6153846153846154
 40
0.6153846153846154
 40
0.6153846153846154
 40
0.6923076923076923
 40
0.6923076923076923
 40
0.6923076923076923
 40
0.6923076923076923
 40
0.7692307692307693
 40
0.7692307692307693
 40
0.7692307692307693
 40
0.7692307692307693
 40
0.8461538461538461
 40
0.8461538461538461
 40
0.8461538461538461
 40
0.8461538461538461
 40
1.0
 40
1.0
 40
1.0
 40
1.0
 10
-5.77897
 20
4.72664
 30
0.0
 10
-5.77897
 20
4.72664
 30
0.0
 10
-5.26401
 20
5.31167
 30
0.0
 10
-5.26401
 20
5.31167
 30
0.0
 10
-5.26401
 20
5.31167
 30
0.0
 10
-5.26401
 20
5.31167
 30
0.0
 10
-5.68195
 20
5.67955
 30
0.0
 10
-5.68195
 20
5.67955
 30
0.0
 10
-5.68195
 20
5.67955
 30
0.0
 10
-5.68195
 20
5.67955
 30
0.0
 10
-5.53484
 20
5.8467
 30
0.0
 10
-5.53484
 20
5.8467
 30
0.0
 10
-5.53484
 20
5.8467
 30
0.0
 10
-5.53484
 20
5.8467
 30
0.0
 10
-6.1198
 20
6.36161
 30
0.0
 10
-6.1198
 20
6.36161
 30
0.0
 10
-6.1198
 20
6.36161
 30
0.0
 10
-6.1198
 20
6.36161
 30
0.0
 10
-6.48769
 20
5.94366
 30
0.0
 10
-6.48769
 20
5.94366
 30
0.0
 10
-6.48769
 20
5.94366
 30
0.0
 10
-6.48769
 20
5.94366
 30
0.0
 10
-6.65492
 20
6.09084
 30
0.0
 10
-6.65492
 20
6.09084
 30
0.0
 10
-6.65492
 20
6.09084
 30
0.0
 10
-6.65492
 20
6.09084
 30
0.0
 10
-7.16982
 20
5.50588
 30
0.0
 10
-7.16982
 20
5.50588
 30
0.0
 10
-7.16982
 20
5.50588
 30
0.0
 10
-7.16982
 20
5.50588
 30
0.0
 10
-6.75186
 20
5.13799
 30
0.0
 10
-6.75186
 20
5.13799
 30
0.0
 10
-6.75186
 20
5.13799
 30
0.0
 10
-6.75186
 20
5.13799
 30
0.0
 10
-6.89905
 20
4.97077
 30
0.0
 10
-6.89905
 20
4.97077
 30
0.0
 10
-6.89905
 20
4.97077
 30
0.0
 10
-6.89905
 20
4.97077
 30
0.0
 10
-6.31401
 20
4.45582
 30
0.0
 10
-6.31401
 20
4.45582
 30
0.0
 10
-6.31401
 20
4.45582
 30
0.0
 10
-6.31401
 20
4.45582
 30
0.0
 10
-5.94612
 20
4.87377
 30
0.0
 10
-5.94612
 20
4.87377
 30
0.0
 10
-5.94612
 20
4.87377
 30
0.0
 10
-5.94612
 20
4.87377
 30
0.0
 10
-5.77897
 20
4.72664
 30
0.0
 10
-5.77897
 20
4.72664
 30
0.0
  0
SPLINE
  5
77
330
1F
100
AcDbEntity
  8
Layer 1
 62
   177
370
     9
100
AcDbSpline
210
0.0
220
0.0
230
1.0
 70
    11
 71
     3
 72
    48
 73
    44
 74
     0
 42
0.0000000001
 43
0.0000000001
 12
1.0
 22
0.0
 32
0.0
 13
1.0
 23
0.0
 33
0.0
 40
0.0
 40
0.0
 40
0.0
 40
0.0
 40
0.0833333333333333
 40
0.0833333333333333
 40
0.0833333333333333
 40
0.0833333333333333
 40
0.1666666666666667
 40
0.1666666666666667
 40
0.1666666666666667
 40
0.1666666666666667
 40
0.25
 40
0.25
 40
0.25
 40
0.25
 40
0.3333333333333333
 40
0.3333333333333333
 40
0.3333333333333333
 40
0.3333333333333333
 40
0.4166666666666667
 40
0.4166666666666667
 40
0.4166666666666667
 40
0.4166666666666667
 40
0.5
 40
0.5
 40
0.5
 40
0.5
 40
0.5833333333333334
 40
0.5833333333333334
 40
0.5833333333333334
 40
0.5833333333333334
 40
0.6666666666666666
 40
0.6666666666666666
 40
0.6666666666666666
 40
0.6666666666666666
 40
0.75
 40
0.75
 40
0.75
 40
0.75
 40
0.8333333333333334
 40
0.8333333333333334
 40
0.8333333333333334
 40
0.8333333333333334
 40
1.0
 40
1.0
 40
1.0
 40
1.0
 10
-5.42448
 20
5.97207
 30
0.0
 10
-5.42448
 20
5.97207
 30
0.0
 10
-4.94631
 20
6.51532
 30
0.0
 10
-4.94631
 20
6.51532
 30
0.0
 10
-4.94631
 20
6.51532
 30
0.0
 10
-4.94631
 20
6.51532
 30
0.0
 10
-4.94624
 20
6.51527
 30
0.0
 10
-4.94624
 20
6.51527
 30
0.0
 10
-4.94624
 20
6.51527
 30
0.0
 10
-4.94624
 20
6.51527
 30
0.0
 10
-4.23592
 20
5.89001
 30
0.0
 10
-4.23592
 20
5.89001
 30
0.0
 10
-4.23592
 20
5.89001
 30
0.0
 10
-4.23592
 20
5.89001
 30
0.0
 10
-3.72096
 20
6.47506
 30
0.0
 10
-3.72096
 20
6.47506
 30
0.0
 10
-3.72096
 20
6.47506
 30
0.0
 10
-3.72096
 20
6.47506
 30
0.0
 10
-4.43128
 20
7.10029
 30
0.0
 10
-4.43128
 20
7.10029
 30
0.0
 10
-4.43128
 20
7.10029
 30
0.0
 10
-4.43128
 20
7.10029
 30
0.0
 10
-3.80598
 20
7.81069
 30
0.0
 10
-3.80598
 20
7.81069
 30
0.0
 10
-3.80598
 20
7.81069
 30
0.0
 10
-3.80598
 20
7.81069
 30
0.0
 10
-4.34923
 20
8.28887
 30
0.0
 10
-4.34923
 20
8.28887
 30
0.0
 10
-4.34923
 20
8.28887
 30
0.0
 10
-4.34923
 20
8.28887
 30
0.0
 10
-4.39102
 20
8.32565
 30
0.0
 10
-4.39102
 20
8.32565
 30
0.0
 10
-4.39102
 20
8.32565
 30
0.0
 10
-4.39102
 20
8.32565
 30
0.0
 10
-4.64849
 20
8.03314
 30
0.0
 10
-4.64849
 20
8.03314
 30
0.0
 10
-4.64849
 20
8.03314
 30
0.0
 10
-4.64849
 20
8.03314
 30
0.0
 10
-6.00946
 20
6.48697
 30
0.0
 10
-6.00946
 20
6.48697
 30
0.0
 10
-6.00946
 20
6.48697
 30
0.0
 10
-6.00946
 20
6.48697
 30
0.0
 10
-5.42448
 20
5.97207
 30
0.0
 10
-5.42448
 20
5.97207
 30
0.0
  0
SPLINE
  5
78
330
1F
100
AcDbEntity
  8
Layer 1
 62
   177
370
     9
100
AcDbSpline
210
0.0
220
0.0
230
1.0
 70
    11
 71
     3
 72
    48
 73
    44
 74
     0
 42
0.0000000001
 43
0.0000000001
 12
1.0
 22
0.0
 32
0.0
 13
1.0
 23
0.0
 33
0.0
 40
0.0
 40
0.0
 40
0.0
 40
0.0
 40
0.0833333333333333
 40
0.0833333333333333
 40
0.0833333333333333
 40
0.0833333333333333
 40
0.1666666666666667
 40
0.1666666666666667
 40
0.1666666666666667
 40
0.1666666666666667
 40
0.25
 40
0.25
 40
0.25
 40
0.25
 40
0.3333333333333333
 40
0.3333333333333333
 40
0.3333333333333333
 40
0.3333333333333333
 40
0.4166666666666667
 40
0.4166666666666667
 40
0.4166666666666667
 40
0.4166666666666667
 40
0.5
 40
0.5
 40
0.5
 40
0.5
 40
0.5833333333333334
 40
0.5833333333333334
 40
0.5833333333333334
 40
0.5833333333333334
 40
0.6666666666666666
 40
0.6666666666666666
 40
0.6666666666666666
 40
0.6666666666666666
 40
0.75
 40
0.75
 40
0.75
 40
0.75
 40
0.8333333333333334
 40
0.8333333333333334
 40
0.8333333333333334
 40
0.8333333333333334
 40
1.0
 40
1.0
 40
1.0
 40
1.0
 10
-2.27483
 20
6.68544
 30
0.0
 10
-2.27483
 20
6.68544
 30
0.0
 10
-2.98522
 20
7.31076
 30
0.0
 10
-2.98522
 20
7.31076
 30
0.0
 10
-2.98522
 20
7.31076
 30
0.0
 10
-2.98522
 20
7.31076
 30
0.0
 10
-2.9853
 20
7.31068
 30
0.0
 10
-2.9853
 20
7.31068
 30
0.0
 10
-2.9853
 20
7.31068
 30
0.0
 10
-2.9853
 20
7.31068
 30
0.0
 10
-3.61053
 20
6.60036
 30
0.0
 10
-3.61053
 20
6.60036
 30
0.0
 10
-3.61053
 20
6.60036
 30
0.0
 10
-3.61053
 20
6.60036
 30
0.0
 10
-4.19557
 20
7.11532
 30
0.0
 10
-4.19557
 20
7.11532
 30
0.0
 10
-4.19557
 20
7.11532
 30
0.0
 10
-4.19557
 20
7.11532
 30
0.0
 10
-3.57026
 20
7.82572
 30
0.0
 10
-3.57026
 20
7.82572
 30
0.0
 10
-3.57026
 20
7.82572
 30
0.0
 10
-3.57026
 20
7.82572
 30
0.0
 10
-4.11352
 20
8.30389
 30
0.0
 10
-4.11352
 20
8.30389
 30
0.0
 10
-4.11352
 20
8.30389
 30
0.0
 10
-4.11352
 20
8.30389
 30
0.0
 10
-3.59856
 20
8.88892
 30
0.0
 10
-3.59856
 20
8.88892
 30
0.0
 10
-3.59856
 20
8.88892
 30
0.0
 10
-3.59856
 20
8.88892
 30
0.0
 10
-2.0524
 20
7.52797
 30
0.0
 10
-2.0524
 20
7.52797
 30
0.0
 10
-2.0524
 20
7.52797
 30
0.0
 10
-2.0524
 20
7.52797
 30
0.0
 10
-1.75987
 20
7.27049
 30
0.0
 10
-1.75987
 20
7.27049
 30
0.0
 10
-1.75987
 20
7.27049
 30
0.0
 10
-1.75987
 20
7.27049
 30
0.0
 10
-1.79672
 20
7.22863
 30
0.0
 10
-1.79672
 20
7.22863
 30
0.0
 10
-1.79672
 20
7.22863
 30
0.0
 10
-1.79672
 20
7.22863
 30
0.0
 10
-2.27483
 20
6.68544
 30
0.0
 10
-2.27483
 20
6.68544
 30
0.0
  0
SPLINE
  5
79
330
1F
100
AcDbEntity
  8
Layer 1
 62
   177
370
     9
100
AcDbSpline
210
0.0
220
0.0
230
1.0
 70
    11
 71
     3
 72
    60
 73
    56
 74
     0
 42
0.0000000001
 43
0.0000000001
 12
1.0
 22
0.0
 32
0.0
 13
1.0
 23
0.0
 33
0.0
 40
0.0
 40
0.0
 40
0.0
 40
0.0
 40
0.0666666666666667
 40
0.0666666666666667
 40
0.0666666666666667
 40
0.0666666666666667
 40
0.1333333333333333
 40
0.1333333333333333
 40
0.1333333333333333
 40
0.1333333333333333
 40
0.2
 40
0.2
 40
0.2
 40
0.2
 40
0.2666666666666667
 40
0.2666666666666667
 40
0.2666666666666667
 40
0.2666666666666667
 40
0.3333333333333333
 40
0.3333333333333333
 40
0.3333333333333333
 40
0.3333333333333333
 40
0.4
 40
0.4
 40
0.4
 40
0.4
 40
0.4666666666666667
 40
0.4666666666666667
 40
0.4666666666666667
 40
0.4666666666666667
 40
0.5333333333333333
 40
0.5333333333333333
 40
0.5333333333333333
 40
0.5333333333333333
 40
0.6
 40
0.6
 40
0.6
 40
0.6
 40
0.6666666666666666
 40
0.6666666666666666
 40
0.6666666666666666
 40
0.6666666666666666
 40
0.7333333333333333
 40
0.7333333333333333
 40
0.7333333333333333
 40
0.7333333333333333
 40
0.8
 40
0.8
 40
0.8
 40
0.8
 40
0.8666666666666667
 40
0.8666666666666667
 40
0.8666666666666667
 40
0.8666666666666667
 40
1.0
 40
1.0
 40
1.0
 40
1.0
 10
-5.15375
 20
5.43709
 30
0.0
 10
-5.15375
 20
5.43709
 30
0.0
 10
-3.60757
 20
4.07613
 30
0.0
 10
-3.60757
 20
4.07613
 30
0.0
 10
-3.60757
 20
4.07613
 30
0.0
 10
-3.60757
 20
4.07613
 30
0.0
 10
-3.09268
 20
4.66111
 30
0.0
 10
-3.09268
 20
4.66111
 30
0.0
 10
-3.09268
 20
4.66111
 30
0.0
 10
-3.09268
 20
4.66111
 30
0.0
 10
-3.63585
 20
5.13921
 30
0.0
 10
-3.63585
 20
5.13921
 30
0.0
 10
-3.63585
 20
5.13921
 30
0.0
 10
-3.63585
 20
5.13921
 30
0.0
 10
-3.63578
 20
5.13929
 30
0.0
 10
-3.63578
 20
5.13929
 30
0.0
 10
-3.63578
 20
5.13929
 30
0.0
 10
-3.63578
 20
5.13929
 30
0.0
 10
-3.63586
 20
5.13935
 30
0.0
 10
-3.63586
 20
5.13935
 30
0.0
 10
-3.63586
 20
5.13935
 30
0.0
 10
-3.63586
 20
5.13935
 30
0.0
 10
-3.01062
 20
5.84968
 30
0.0
 10
-3.01062
 20
5.84968
 30
0.0
 10
-3.01062
 20
5.84968
 30
0.0
 10
-3.01062
 20
5.84968
 30
0.0
 10
-3.59559
 20
6.36457
 30
0.0
 10
-3.59559
 20
6.36457
 30
0.0
 10
-3.59559
 20
6.36457
 30
0.0
 10
-3.59559
 20
6.36457
 30
0.0
 10
-4.22082
 20
5.65425
 30
0.0
 10
-4.22082
 20
5.65425
 30
0.0
 10
-4.22082
 20
5.65425
 30
0.0
 10
-4.22082
 20
5.65425
 30
0.0
 10
-4.22089
 20
5.65431
 30
0.0
 10
-4.22089
 20
5.65431
 30
0.0
 10
-4.22089
 20
5.65431
 30
0.0
 10
-4.22089
 20
5.65431
 30
0.0
 10
-4.93123
 20
6.27956
 30
0.0
 10
-4.93123
 20
6.27956
 30
0.0
 10
-4.93123
 20
6.27956
 30
0.0
 10
-4.93123
 20
6.27956
 30
0.0
 10
-5.4094
 20
5.7363
 30
0.0
 10
-5.4094
 20
5.7363
 30
0.0
 10
-5.4094
 20
5.7363
 30
0.0
 10
-5.4094
 20
5.7363
 30
0.0
 10
-5.40947
 20
5.73637
 30
0.0
 10
-5.40947
 20
5.73637
 30
0.0
 10
-5.40947
 20
5.73637
 30
0.0
 10
-5.40947
 20
5.73637
 30
0.0
 10
-5.44625
 20
5.69458
 30
0.0
 10
-5.44625
 20
5.69458
 30
0.0
 10
-5.44625
 20
5.69458
 30
0.0
 10
-5.44625
 20
5.69458
 30
0.0
 10
-5.15375
 20
5.43709
 30
0.0
 10
-5.15375
 20
5.43709
 30
0.0
  0
SPLINE
  5
7A
330
1F
100
AcDbEntity
  8
Layer 1
 62
   177
370
     9
100
AcDbSpline
210
0.0
220
0.0
230
1.0
 70
    11
 71
     3
 72
    48
 73
    44
 74
     0
 42
0.0000000001
 43
0.0000000001
 12
1.0
 22
0.0
 32
0.0
 13
1.0
 23
0.0
 33
0.0
 40
0.0
 40
0.0
 40
0.0
 40
0.0
 40
0.0833333333333333
 40
0.0833333333333333
 40
0.0833333333333333
 40
0.0833333333333333
 40
0.1666666666666667
 40
0.1666666666666667
 40
0.1666666666666667
 40
0.1666666666666667
 40
0.25
 40
0.25
 40
0.25
 40
0.25
 40
0.3333333333333333
 40
0.3333333333333333
 40
0.3333333333333333
 40
0.3333333333333333
 40
0.4166666666666667
 40
0.4166666666666667
 40
0.4166666666666667
 40
0.4166666666666667
 40
0.5
 40
0.5
 40
0.5
 40
0.5
 40
0.5833333333333334
 40
0.5833333333333334
 40
0.5833333333333334
 40
0.5833333333333334
 40
0.6666666666666666
 40
0.6666666666666666
 40
0.6666666666666666
 40
0.6666666666666666
 40
0.75
 40
0.75
 40
0.75
 40
0.75
 40
0.8333333333333334
 40
0.8333333333333334
 40
0.8333333333333334
 40
0.8333333333333334
 40
1.0
 40
1.0
 40
1.0
 40
1.0
 10
-3.81493
 20
2.99786
 30
0.0
 10
-3.81493
 20
2.99786
 30
0.0
 10
-4.52533
 20
3.62316
 30
0.0
 10
-4.52533
 20
3.62316
 30
0.0
 10
-4.52533
 20
3.62316
 30
0.0
 10
-4.52533
 20
3.62316
 30
0.0
 10
-4.52539
 20
3.6231
 30
0.0
 10
-4.52539
 20
3.6231
 30
0.0
 10
-4.52539
 20
3.6231
 30
0.0
 10
-4.52539
 20
3.6231
 30
0.0
 10
-5.15063
 20
2.91275
 30
0.0
 10
-5.15063
 20
2.91275
 30
0.0
 10
-5.15063
 20
2.91275
 30
0.0
 10
-5.15063
 20
2.91275
 30
0.0
 10
-5.73566
 20
3.42772
 30
0.0
 10
-5.73566
 20
3.42772
 30
0.0
 10
-5.73566
 20
3.42772
 30
0.0
 10
-5.73566
 20
3.42772
 30
0.0
 10
-5.11036
 20
4.13811
 30
0.0
 10
-5.11036
 20
4.13811
 30
0.0
 10
-5.11036
 20
4.13811
 30
0.0
 10
-5.11036
 20
4.13811
 30
0.0
 10
-5.65362
 20
4.61629
 30
0.0
 10
-5.65362
 20
4.61629
 30
0.0
 10
-5.65362
 20
4.61629
 30
0.0
 10
-5.65362
 20
4.61629
 30
0.0
 10
-5.13865
 20
5.20132
 30
0.0
 10
-5.13865
 20
5.20132
 30
0.0
 10
-5.13865
 20
5.20132
 30
0.0
 10
-5.13865
 20
5.20132
 30
0.0
 10
-3.59248
 20
3.84036
 30
0.0
 10
-3.59248
 20
3.84036
 30
0.0
 10
-3.59248
 20
3.84036
 30
0.0
 10
-3.59248
 20
3.84036
 30
0.0
 10
-3.29997
 20
3.5829
 30
0.0
 10
-3.29997
 20
3.5829
 30
0.0
 10
-3.29997
 20
3.5829
 30
0.0
 10
-3.29997
 20
3.5829
 30
0.0
 10
-3.33681
 20
3.54103
 30
0.0
 10
-3.33681
 20
3.54103
 30
0.0
 10
-3.33681
 20
3.54103
 30
0.0
 10
-3.33681
 20
3.54103
 30
0.0
 10
-3.81493
 20
2.99786
 30
0.0
 10
-3.81493
 20
2.99786
 30
0.0
  0
SPLINE
  5
7B
330
1F
100
AcDbEntity
  8
Layer 1
 62
   177
370
     9
100
AcDbSpline
210
0.0
220
0.0
230
1.0
 70
    11
 71
     3
 72
    60
 73
    56
 74
     0
 42
0.0000000001
 43
0.0000000001
 12
1.0
 22
0.0
 32
0.0
 13
1.0
 23
0.0
 33
0.0
 40
0.0
 40
0.0
 40
0.0
 40
0.0
 40
0.0666666666666667
 40
0.0666666666666667
 40
0.0666666666666667
 40
0.0666666666666667
 40
0.1333333333333333
 40
0.1333333333333333
 40
0.1333333333333333
 40
0.1333333333333333
 40
0.2
 40
0.2
 40
0.2
 40
0.2
 40
0.2666666666666667
 40
0.2666666666666667
 40
0.2666666666666667
 40
0.2666666666666667
 40
0.3333333333333333
 40
0.3333333333333333
 40
0.3333333333333333
 40
0.3333333333333333
 40
0.4
 40
0.4
 40
0.4
 40
0.4
 40
0.4666666666666667
 40
0.4666666666666667
 40
0.4666666666666667
 40
0.4666666666666667
 40
0.5333333333333333
 40
0.5333333333333333
 40
0.5333333333333333
 40
0.5333333333333333
 40
0.6
 40
0.6
 40
0.6
 40
0.6
 40
0.6666666666666666
 40
0.6666666666666666
 40
0.6666666666666666
 40
0.6666666666666666
 40
0.7333333333333333
 40
0.7333333333333333
 40
0.7333333333333333
 40
0.7333333333333333
 40
0.8
 40
0.8
 40
0.8
 40
0.8
 40
0.8666666666666667
 40
0.8666666666666667
 40
0.8666666666666667
 40
0.8666666666666667
 40
1.0
 40
1.0
 40
1.0
 40
1.0
 10
-6.69383
 20
1.7495
 30
0.0
 10
-6.69383
 20
1.7495
 30
0.0
 10
-5.14767
 20
0.38855
 30
0.0
 10
-5.14767
 20
0.38855
 30
0.0
 10
-5.14767
 20
0.38855
 30
0.0
 10
-5.14767
 20
0.38855
 30
0.0
 10
-4.63276
 20
0.97351
 30
0.0
 10
-4.63276
 20
0.97351
 30
0.0
 10
-4.63276
 20
0.97351
 30
0.0
 10
-4.63276
 20
0.97351
 30
0.0
 10
-5.17594
 20
1.45162
 30
0.0
 10
-5.17594
 20
1.45162
 30
0.0
 10
-5.17594
 20
1.45162
 30
0.0
 10
-5.17594
 20
1.45162
 30
0.0
 10
-5.17589
 20
1.45169
 30
0.0
 10
-5.17589
 20
1.45169
 30
0.0
 10
-5.17589
 20
1.45169
 30
0.0
 10
-5.17589
 20
1.45169
 30
0.0
 10
-5.17596
 20
1.45176
 30
0.0
 10
-5.17596
 20
1.45176
 30
0.0
 10
-5.17596
 20
1.45176
 30
0.0
 10
-5.17596
 20
1.45176
 30
0.0
 10
-4.55071
 20
2.16208
 30
0.0
 10
-4.55071
 20
2.16208
 30
0.0
 10
-4.55071
 20
2.16208
 30
0.0
 10
-4.55071
 20
2.16208
 30
0.0
 10
-5.13567
 20
2.67698
 30
0.0
 10
-5.13567
 20
2.67698
 30
0.0
 10
-5.13567
 20
2.67698
 30
0.0
 10
-5.13567
 20
2.67698
 30
0.0
 10
-5.76092
 20
1.96665
 30
0.0
 10
-5.76092
 20
1.96665
 30
0.0
 10
-5.76092
 20
1.96665
 30
0.0
 10
-5.76092
 20
1.96665
 30
0.0
 10
-5.76101
 20
1.96671
 30
0.0
 10
-5.76101
 20
1.96671
 30
0.0
 10
-5.76101
 20
1.96671
 30
0.0
 10
-5.76101
 20
1.96671
 30
0.0
 10
-6.47132
 20
2.59196
 30
0.0
 10
-6.47132
 20
2.59196
 30
0.0
 10
-6.47132
 20
2.59196
 30
0.0
 10
-6.47132
 20
2.59196
 30
0.0
 10
-6.9495
 20
2.04871
 30
0.0
 10
-6.9495
 20
2.04871
 30
0.0
 10
-6.9495
 20
2.04871
 30
0.0
 10
-6.9495
 20
2.04871
 30
0.0
 10
-6.94957
 20
2.04878
 30
0.0
 10
-6.94957
 20
2.04878
 30
0.0
 10
-6.94957
 20
2.04878
 30
0.0
 10
-6.94957
 20
2.04878
 30
0.0
 10
-6.98636
 20
2.00698
 30
0.0
 10
-6.98636
 20
2.00698
 30
0.0
 10
-6.98636
 20
2.00698
 30
0.0
 10
-6.98636
 20
2.00698
 30
0.0
 10
-6.69383
 20
1.7495
 30
0.0
 10
-6.69383
 20
1.7495
 30
0.0
  0
SPLINE
  5
7C
330
1F
100
AcDbEntity
  8
Layer 1
 62
   177
370
     9
100
AcDbSpline
210
0.0
220
0.0
230
1.0
 70
    11
 71
     3
 72
    56
 73
    52
 74
     0
 42
0.0000000001
 43
0.0000000001
 12
1.0
 22
0.0
 32
0.0
 13
1.0
 23
0.0
 33
0.0
 40
0.0
 40
0.0
 40
0.0
 40
0.0
 40
0.0714285714285714
 40
0.0714285714285714
 40
0.0714285714285714
 40
0.0714285714285714
 40
0.1428571428571428
 40
0.1428571428571428
 40
0.1428571428571428
 40
0.1428571428571428
 40
0.2142857142857143
 40
0.2142857142857143
 40
0.2142857142857143
 40
0.2142857142857143
 40
0.2857142857142857
 40
0.2857142857142857
 40
0.2857142857142857
 40
0.2857142857142857
 40
0.3571428571428572
 40
0.3571428571428572
 40
0.3571428571428572
 40
0.3571428571428572
 40
0.4285714285714285
 40
0.4285714285714285
 40
0.4285714285714285
 40
0.4285714285714285
 40
0.5
 40
0.5
 40
0.5
 40
0.5
 40
0.5714285714285714
 40
0.5714285714285714
 40
0.5714285714285714
 40
0.5714285714285714
 40
0.6428571428571429
 40
0.6428571428571429
 40
0.6428571428571429
 40
0.6428571428571429
 40
0.7142857142857143
 40
0.7142857142857143
 40
0.7142857142857143
 40
0.7142857142857143
 40
0.7857142857142857
 40
0.7857142857142857
 40
0.7857142857142857
 40
0.7857142857142857
 40
0.8571428571428571
 40
0.8571428571428571
 40
0.8571428571428571
 40
0.8571428571428571
 40
1.0
 40
1.0
 40
1.0
 40
1.0
 10
-5.35502
 20
-0.68975
 30
0.0
 10
-5.35502
 20
-0.68975
 30
0.0
 10
-6.06543
 20
-0.06443
 30
0.0
 10
-6.06543
 20
-0.06443
 30
0.0
 10
-6.06543
 20
-0.06443
 30
0.0
 10
-6.06543
 20
-0.06443
 30
0.0
 10
-6.06548
 20
-0.06451
 30
0.0
 10
-6.06548
 20
-0.06451
 30
0.0
 10
-6.06548
 20
-0.06451
 30
0.0
 10
-6.06548
 20
-0.06451
 30
0.0
 10
-6.69073
 20
-0.77483
 30
0.0
 10
-6.69073
 20
-0.77483
 30
0.0
 10
-6.69073
 20
-0.77483
 30
0.0
 10
-6.69073
 20
-0.77483
 30
0.0
 10
-7.1749
 20
-0.34866
 30
0.0
 10
-7.1749
 20
-0.34866
 30
0.0
 10
-7.1749
 20
-0.34866
 30
0.0
 10
-7.1749
 20
-0.34866
 30
0.0
 10
-7.1749
 20
-0.1453
 30
0.0
 10
-7.1749
 20
-0.1453
 30
0.0
 10
-7.1749
 20
-0.1453
 30
0.0
 10
-7.1749
 20
-0.1453
 30
0.0
 10
-6.65045
 20
0.45051
 30
0.0
 10
-6.65045
 20
0.45051
 30
0.0
 10
-6.65045
 20
0.45051
 30
0.0
 10
-6.65045
 20
0.45051
 30
0.0
 10
-7.1749
 20
0.91215
 30
0.0
 10
-7.1749
 20
0.91215
 30
0.0
 10
-7.1749
 20
0.91215
 30
0.0
 10
-7.1749
 20
0.91215
 30
0.0
 10
-7.1749
 20
0.95006
 30
0.0
 10
-7.1749
 20
0.95006
 30
0.0
 10
-7.1749
 20
0.95006
 30
0.0
 10
-7.1749
 20
0.95006
 30
0.0
 10
-6.67874
 20
1.51373
 30
0.0
 10
-6.67874
 20
1.51373
 30
0.0
 10
-6.67874
 20
1.51373
 30
0.0
 10
-6.67874
 20
1.51373
 30
0.0
 10
-5.13258
 20
0.15277
 30
0.0
 10
-5.13258
 20
0.15277
 30
0.0
 10
-5.13258
 20
0.15277
 30
0.0
 10
-5.13258
 20
0.15277
 30
0.0
 10
-4.84007
 20
-0.1047
 30
0.0
 10
-4.84007
 20
-0.1047
 30
0.0
 10
-4.84007
 20
-0.1047
 30
0.0
 10
-4.84007
 20
-0.1047
 30
0.0
 10
-4.87691
 20
-0.14656
 30
0.0
 10
-4.87691
 20
-0.14656
 30
0.0
 10
-4.87691
 20
-0.14656
 30
0.0
 10
-4.87691
 20
-0.14656
 30
0.0
 10
-5.35502
 20
-0.68975
 30
0.0
 10
-5.35502
 20
-0.68975
 30
0.0
  0
SPLINE
  5
7D
330
1F
100
AcDbEntity
  8
Layer 1
 62
   177
370
     9
100
AcDbSpline
210
0.0
220
0.0
230
1.0
 70
    11
 71
     3
 72
    60
 73
    56
 74
     0
 42
0.0000000001
 43
0.0000000001
 12
1.0
 22
0.0
 32
0.0
 13
1.0
 23
0.0
 33
0.0
 40
0.0
 40
0.0
 40
0.0
 40
0.0
 40
0.0666666666666667
 40
0.0666666666666667
 40
0.0666666666666667
 40
0.0666666666666667
 40
0.1333333333333333
 40
0.1333333333333333
 40
0.1333333333333333
 40
0.1333333333333333
 40
0.2
 40
0.2
 40
0.2
 40
0.2
 40
0.2666666666666667
 40
0.2666666666666667
 40
0.2666666666666667
 40
0.2666666666666667
 40
0.3333333333333333
 40
0.3333333333333333
 40
0.3333333333333333
 40
0.3333333333333333
 40
0.4
 40
0.4
 40
0.4
 40
0.4
 40
0.4666666666666667
 40
0.4666666666666667
 40
0.4666666666666667
 40
0.4666666666666667
 40
0.5333333333333333
 40
0.5333333333333333
 40
0.5333333333333333
 40
0.5333333333333333
 40
0.6
 40
0.6
 40
0.6
 40
0.6
 40
0.6666666666666666
 40
0.6666666666666666
 40
0.6666666666666666
 40
0.6666666666666666
 40
0.7333333333333333
 40
0.7333333333333333
 40
0.7333333333333333
 40
0.7333333333333333
 40
0.8
 40
0.8
 40
0.8
 40
0.8
 40
0.8666666666666667
 40
0.8666666666666667
 40
0.8666666666666667
 40
0.8666666666666667
 40
1.0
 40
1.0
 40
1.0
 40
1.0
 10
-7.17278
 20
8.03011
 30
0.0
 10
-7.17278
 20
8.03011
 30
0.0
 10
-6.46244
 20
7.40485
 30
0.0
 10
-6.46244
 20
7.40485
 30
0.0
 10
-6.46244
 20
7.40485
 30
0.0
 10
-6.46244
 20
7.40485
 30
0.0
 10
-6.46251
 20
7.40478
 30
0.0
 10
-6.46251
 20
7.40478
 30
0.0
 10
-6.46251
 20
7.40478
 30
0.0
 10
-6.46251
 20
7.40478
 30
0.0
 10
-6.46243
 20
7.40473
 30
0.0
 10
-6.46243
 20
7.40473
 30
0.0
 10
-6.46243
 20
7.40473
 30
0.0
 10
-6.46243
 20
7.40473
 30
0.0
 10
-7.08768
 20
6.69441
 30
0.0
 10
-7.08768
 20
6.69441
 30
0.0
 10
-7.08768
 20
6.69441
 30
0.0
 10
-7.08768
 20
6.69441
 30
0.0
 10
-6.54451
 20
6.21628
 30
0.0
 10
-6.54451
 20
6.21628
 30
0.0
 10
-6.54451
 20
6.21628
 30
0.0
 10
-6.54451
 20
6.21628
 30
0.0
 10
-6.54457
 20
6.2162
 30
0.0
 10
-6.54457
 20
6.2162
 30
0.0
 10
-6.54457
 20
6.2162
 30
0.0
 10
-6.54457
 20
6.2162
 30
0.0
 10
-6.5027
 20
6.17937
 30
0.0
 10
-6.5027
 20
6.17937
 30
0.0
 10
-6.5027
 20
6.17937
 30
0.0
 10
-6.5027
 20
6.17937
 30
0.0
 10
-6.24523
 20
6.47188
 30
0.0
 10
-6.24523
 20
6.47188
 30
0.0
 10
-6.24523
 20
6.47188
 30
0.0
 10
-6.24523
 20
6.47188
 30
0.0
 10
-4.88427
 20
8.01805
 30
0.0
 10
-4.88427
 20
8.01805
 30
0.0
 10
-4.88427
 20
8.01805
 30
0.0
 10
-4.88427
 20
8.01805
 30
0.0
 10
-5.4693
 20
8.53301
 30
0.0
 10
-5.4693
 20
8.53301
 30
0.0
 10
-5.4693
 20
8.53301
 30
0.0
 10
-5.4693
 20
8.53301
 30
0.0
 10
-5.94741
 20
7.98983
 30
0.0
 10
-5.94741
 20
7.98983
 30
0.0
 10
-5.94741
 20
7.98983
 30
0.0
 10
-5.94741
 20
7.98983
 30
0.0
 10
-5.94748
 20
7.98975
 30
0.0
 10
-5.94748
 20
7.98975
 30
0.0
 10
-5.94748
 20
7.98975
 30
0.0
 10
-5.94748
 20
7.98975
 30
0.0
 10
-6.65788
 20
8.61507
 30
0.0
 10
-6.65788
 20
8.61507
 30
0.0
 10
-6.65788
 20
8.61507
 30
0.0
 10
-6.65788
 20
8.61507
 30
0.0
 10
-7.17278
 20
8.03011
 30
0.0
 10
-7.17278
 20
8.03011
 30
0.0
  0
SPLINE
  5
7E
330
1F
100
AcDbEntity
  8
Layer 1
 62
   242
100
AcDbSpline
210
0.0
220
0.0
230
1.0
 70
    11
 71
     3
 72
   112
 73
   108
 74
     0
 42
0.0000000001
 43
0.0000000001
 12
1.0
 22
0.0
 32
0.0
 13
1.0
 23
0.0
 33
0.0
 40
0.0
 40
0.0
 40
0.0
 40
0.0
 40
0.0357142857142857
 40
0.0357142857142857
 40
0.0357142857142857
 40
0.0357142857142857
 40
0.0714285714285714
 40
0.0714285714285714
 40
0.0714285714285714
 40
0.0714285714285714
 40
0.1071428571428571
 40
0.1071428571428571
 40
0.1071428571428571
 40
0.1071428571428571
 40
0.1428571428571428
 40
0.1428571428571428
 40
0.1428571428571428
 40
0.1428571428571428
 40
0.1785714285714286
 40
0.1785714285714286
 40
0.1785714285714286
 40
0.1785714285714286
 40
0.2142857142857143
 40
0.2142857142857143
 40
0.2142857142857143
 40
0.2142857142857143
 40
0.25
 40
0.25
 40
0.25
 40
0.25
 40
0.2857142857142857
 40
0.2857142857142857
 40
0.2857142857142857
 40
0.2857142857142857
 40
0.3214285714285715
 40
0.3214285714285715
 40
0.3214285714285715
 40
0.3214285714285715
 40
0.3571428571428572
 40
0.3571428571428572
 40
0.3571428571428572
 40
0.3571428571428572
 40
0.3928571428571428
 40
0.3928571428571428
 40
0.3928571428571428
 40
0.3928571428571428
 40
0.4285714285714285
 40
0.4285714285714285
 40
0.4285714285714285
 40
0.4285714285714285
 40
0.4642857142857143
 40
0.4642857142857143
 40
0.4642857142857143
 40
0.4642857142857143
 40
0.5
 40
0.5
 40
0.5
 40
0.5
 40
0.5357142857142857
 40
0.5357142857142857
 40
0.5357142857142857
 40
0.5357142857142857
 40
0.5714285714285714
 40
0.5714285714285714
 40
0.5714285714285714
 40
0.5714285714285714
 40
0.6071428571428571
 40
0.6071428571428571
 40
0.6071428571428571
 40
0.6071428571428571
 40
0.6428571428571429
 40
0.6428571428571429
 40
0.6428571428571429
 40
0.6428571428571429
 40
0.6785714285714286
 40
0.6785714285714286
 40
0.6785714285714286
 40
0.6785714285714286
 40
0.7142857142857143
 40
0.7142857142857143
 40
0.7142857142857143
 40
0.7142857142857143
 40
0.75
 40
0.75
 40
0.75
 40
0.75
 40
0.7857142857142857
 40
0.7857142857142857
 40
0.7857142857142857
 40
0.7857142857142857
 40
0.8214285714285714
 40
0.8214285714285714
 40
0.8214285714285714
 40
0.8214285714285714
 40
0.8571428571428571
 40
0.8571428571428571
 40
0.8571428571428571
 40
0.8571428571428571
 40
0.8928571428571429
 40
0.8928571428571429
 40
0.8928571428571429
 40
0.8928571428571429
 40
0.9285714285714286
 40
0.9285714285714286
 40
0.9285714285714286
 40
0.9285714285714286
 40
1.0
 40
1.0
 40
1.0
 40
1.0
 10
-0.03274
 20
10.68469
 30
0.0
 10
-0.03274
 20
10.68469
 30
0.0
 10
0.15233
 20
10.68469
 30
0.0
 10
0.15233
 20
10.68469
 30
0.0
 10
0.15233
 20
10.68469
 30
0.0
 10
0.15233
 20
10.68469
 30
0.0
 10
1.97242
 20
10.68469
 30
0.0
 10
1.97242
 20
10.68469
 30
0.0
 10
1.97242
 20
10.68469
 30
0.0
 10
1.97242
 20
10.68469
 30
0.0
 10
2.19504
 20
10.68469
 30
0.0
 10
2.19504
 20
10.68469
 30
0.0
 10
2.19504
 20
10.68469
 30
0.0
 10
2.19504
 20
10.68469
 30
0.0
 10
3.23334
 20
10.68469
 30
0.0
 10
3.23334
 20
10.68469
 30
0.0
 10
3.23334
 20
10.68469
 30
0.0
 10
3.23334
 20
10.68469
 30
0.0
 10
3.45585
 20
10.68469
 30
0.0
 10
3.45585
 20
10.68469
 30
0.0
 10
3.45585
 20
10.68469
 30
0.0
 10
4.51981
 20
10.68469
 30
0.0
 10
5.58378
 20
10.68469
 30
0.0
 10
6.64774
 20
10.68469
 30
0.0
 10
6.64774
 20
10.68469
 30
0.0
 10
6.64774
 20
3.94854
 30
0.0
 10
6.64774
 20
-2.7876
 30
0.0
 10
6.64774
 20
-9.52375
 30
0.0
 10
6.64774
 20
-9.52375
 30
0.0
 10
6.64774
 20
-9.52375
 30
0.0
 10
6.00653
 20
-9.52375
 30
0.0
 10
6.00653
 20
-9.52375
 30
0.0
 10
6.00653
 20
-9.52375
 30
0.0
 10
6.00653
 20
-9.52375
 30
0.0
 10
5.75376
 20
-9.52375
 30
0.0
 10
5.75376
 20
-9.52375
 30
0.0
 10
5.75376
 20
-9.52375
 30
0.0
 10
5.75376
 20
-9.52375
 30
0.0
 10
4.58008
 20
-9.52375
 30
0.0
 10
4.58008
 20
-9.52375
 30
0.0
 10
4.58008
 20
-9.52375
 30
0.0
 10
4.58008
 20
-9.52375
 30
0.0
 10
4.32138
 20
-9.52375
 30
0.0
 10
4.32138
 20
-9.52375
 30
0.0
 10
4.32138
 20
-9.52375
 30
0.0
 10
4.32138
 20
-9.52375
 30
0.0
 10
4.28342
 20
-9.52375
 30
0.0
 10
4.28342
 20
-9.52375
 30
0.0
 10
4.28342
 20
-9.52375
 30
0.0
 10
4.28342
 20
-9.52375
 30
0.0
 10
4.06094
 20
-9.52375
 30
0.0
 10
4.06094
 20
-9.52375
 30
0.0
 10
4.06094
 20
-9.52375
 30
0.0
 10
4.06094
 20
-9.52375
 30
0.0
 10
3.73144
 20
-9.52375
 30
0.0
 10
3.73144
 20
-9.52375
 30
0.0
 10
3.73144
 20
-9.52375
 30
0.0
 10
3.73144
 20
-9.52375
 30
0.0
 10
3.47866
 20
-9.52375
 30
0.0
 10
3.47866
 20
-9.52375
 30
0.0
 10
3.47866
 20
-9.52375
 30
0.0
 10
3.47866
 20
-9.52375
 30
0.0
 10
3.02263
 20
-9.52375
 30
0.0
 10
3.02263
 20
-9.52375
 30
0.0
 10
3.02263
 20
-9.52375
 30
0.0
 10
3.02263
 20
-9.52375
 30
0.0
 10
2.80013
 20
-9.52375
 30
0.0
 10
2.80013
 20
-9.52375
 30
0.0
 10
2.80013
 20
-9.52375
 30
0.0
 10
2.80013
 20
-9.52375
 30
0.0
 10
2.63623
 20
-9.52375
 30
0.0
 10
2.63623
 20
-9.52375
 30
0.0
 10
2.63623
 20
-9.52375
 30
0.0
 10
2.63623
 20
-9.52375
 30
0.0
 10
2.38332
 20
-9.52375
 30
0.0
 10
2.38332
 20
-9.52375
 30
0.0
 10
2.38332
 20
-9.52375
 30
0.0
 10
2.38332
 20
-9.52375
 30
0.0
 10
1.76182
 20
-9.52375
 30
0.0
 10
1.76182
 20
-9.52375
 30
0.0
 10
1.76182
 20
-9.52375
 30
0.0
 10
1.76182
 20
-9.52375
 30
0.0
 10
1.53933
 20
-9.52375
 30
0.0
 10
1.53933
 20
-9.52375
 30
0.0
 10
1.53933
 20
-9.52375
 30
0.0
 10
1.53933
 20
-9.52375
 30
0.0
 10
1.20385
 20
-9.52375
 30
0.0
 10
1.20385
 20
-9.52375
 30
0.0
 10
1.20385
 20
-9.52375
 30
0.0
 10
1.20385
 20
-9.52375
 30
0.0
 10
0.95107
 20
-9.52375
 30
0.0
 10
0.95107
 20
-9.52375
 30
0.0
 10
0.95107
 20
-9.52375
 30
0.0
 10
0.95107
 20
-9.52375
 30
0.0
 10
-0.03274
 20
-9.52375
 30
0.0
 10
-0.03274
 20
-9.52375
 30
0.0
 10
-0.03274
 20
-9.52375
 30
0.0
 10
-0.03274
 20
-2.87293
 30
0.0
 10
-0.03274
 20
3.77789
 30
0.0
 10
-0.03274
 20
10.42871
 30
0.0
 10
-0.03274
 20
10.42871
 30
0.0
 10
-0.03274
 20
10.42871
 30
0.0
 10
-0.03274
 20
10.6251
 30
0.0
 10
-0.03274
 20
10.6251
 30
0.0
 10
-0.03274
 20
10.6251
 30
0.0
 10
-0.03274
 20
10.6251
 30
0.0
 10
-0.03274
 20
10.68469
 30
0.0
 10
-0.03274
 20
10.68469
 30
0.0
  0
SPLINE
  5
7F
330
1F
100
AcDbEntity
  8
Layer 1
 62
   242
100
AcDbSpline
210
0.0
220
0.0
230
1.0
 70
    11
 71
     3
 72
    20
 73
    16
 74
     0
 42
0.0000000001
 43
0.0000000001
 12
1.0
 22
0.0
 32
0.0
 13
1.0
 23
0.0
 33
0.0
 40
0.0
 40
0.0
 40
0.0
 40
0.0
 40
0.2
 40
0.2
 40
0.2
 40
0.2
 40
0.4
 40
0.4
 40
0.4
 40
0.4
 40
0.6
 40
0.6
 40
0.6
 40
0.6
 40
1.0
 40
1.0
 40
1.0
 40
1.0
 10
0.53181
 20
10.35066
 30
0.0
 10
0.53181
 20
10.35066
 30
0.0
 10
1.72112
 20
9.30382
 30
0.0
 10
1.72112
 20
9.30382
 30
0.0
 10
1.72112
 20
9.30382
 30
0.0
 10
1.72112
 20
9.30382
 30
0.0
 10
2.236
 20
9.8888
 30
0.0
 10
2.236
 20
9.8888
 30
0.0
 10
2.236
 20
9.8888
 30
0.0
 10
2.236
 20
9.8888
 30
0.0
 10
1.71129
 20
10.35066
 30
0.0
 10
1.71129
 20
10.35066
 30
0.0
 10
1.71129
 20
10.35066
 30
0.0
 10
1.71129
 20
10.35066
 30
0.0
 10
0.53181
 20
10.35066
 30
0.0
 10
0.53181
 20
10.35066
 30
0.0
  0
SPLINE
  5
80
330
1F
100
AcDbEntity
  8
Layer 1
 62
   242
100
AcDbSpline
210
0.0
220
0.0
230
1.0
 70
    11
 71
     3
 72
    28
 73
    24
 74
     0
 42
0.0000000001
 43
0.0000000001
 12
1.0
 22
0.0
 32
0.0
 13
1.0
 23
0.0
 33
0.0
 40
0.0
 40
0.0
 40
0.0
 40
0.0
 40
0.1428571428571428
 40
0.1428571428571428
 40
0.1428571428571428
 40
0.1428571428571428
 40
0.2857142857142857
 40
0.2857142857142857
 40
0.2857142857142857
 40
0.2857142857142857
 40
0.4285714285714285
 40
0.4285714285714285
 40
0.4285714285714285
 40
0.4285714285714285
 40
0.5714285714285714
 40
0.5714285714285714
 40
0.5714285714285714
 40
0.5714285714285714
 40
0.7142857142857143
 40
0.7142857142857143
 40
0.7142857142857143
 40
0.7142857142857143
 40
1.0
 40
1.0
 40
1.0
 40
1.0
 10
1.9642
 20
10.35066
 30
0.0
 10
1.9642
 20
10.35066
 30
0.0
 10
2.47179
 20
9.90389
 30
0.0
 10
2.47179
 20
9.90389
 30
0.0
 10
2.47179
 20
9.90389
 30
0.0
 10
2.47179
 20
9.90389
 30
0.0
 10
2.47172
 20
9.90382
 30
0.0
 10
2.47172
 20
9.90382
 30
0.0
 10
2.47172
 20
9.90382
 30
0.0
 10
2.47172
 20
9.90382
 30
0.0
 10
2.51357
 20
9.86698
 30
0.0
 10
2.51357
 20
9.86698
 30
0.0
 10
2.51357
 20
9.86698
 30
0.0
 10
2.51357
 20
9.86698
 30
0.0
 10
2.77106
 20
10.1595
 30
0.0
 10
2.77106
 20
10.1595
 30
0.0
 10
2.77106
 20
10.1595
 30
0.0
 10
2.77106
 20
10.1595
 30
0.0
 10
2.93933
 20
10.35066
 30
0.0
 10
2.93933
 20
10.35066
 30
0.0
 10
2.93933
 20
10.35066
 30
0.0
 10
2.93933
 20
10.35066
 30
0.0
 10
1.9642
 20
10.35066
 30
0.0
 10
1.9642
 20
10.35066
 30
0.0
  0
SPLINE
  5
81
330
1F
100
AcDbEntity
  8
Layer 1
 62
   242
100
AcDbSpline
210
0.0
220
0.0
230
1.0
 70
    11
 71
     3
 72
    36
 73
    32
 74
     0
 42
0.0000000001
 43
0.0000000001
 12
1.0
 22
0.0
 32
0.0
 13
1.0
 23
0.0
 33
0.0
 40
0.0
 40
0.0
 40
0.0
 40
0.0
 40
0.1111111111111111
 40
0.1111111111111111
 40
0.1111111111111111
 40
0.1111111111111111
 40
0.2222222222222222
 40
0.2222222222222222
 40
0.2222222222222222
 40
0.2222222222222222
 40
0.3333333333333333
 40
0.3333333333333333
 40
0.3333333333333333
 40
0.3333333333333333
 40
0.4444444444444444
 40
0.4444444444444444
 40
0.4444444444444444
 40
0.4444444444444444
 40
0.5555555555555556
 40
0.5555555555555556
 40
0.5555555555555556
 40
0.5555555555555556
 40
0.6666666666666666
 40
0.6666666666666666
 40
0.6666666666666666
 40
0.6666666666666666
 40
0.7777777777777778
 40
0.7777777777777778
 40
0.7777777777777778
 40
0.7777777777777778
 40
1.0
 40
1.0
 40
1.0
 40
1.0
 10
3.16183
 20
10.35066
 30
0.0
 10
3.16183
 20
10.35066
 30
0.0
 10
3.00684
 20
10.17458
 30
0.0
 10
3.00684
 20
10.17458
 30
0.0
 10
3.00684
 20
10.17458
 30
0.0
 10
3.00684
 20
10.17458
 30
0.0
 10
3.5918
 20
9.65967
 30
0.0
 10
3.5918
 20
9.65967
 30
0.0
 10
3.5918
 20
9.65967
 30
0.0
 10
3.5918
 20
9.65967
 30
0.0
 10
4.06997
 20
10.20293
 30
0.0
 10
4.06997
 20
10.20293
 30
0.0
 10
4.06997
 20
10.20293
 30
0.0
 10
4.06997
 20
10.20293
 30
0.0
 10
4.07005
 20
10.20286
 30
0.0
 10
4.07005
 20
10.20286
 30
0.0
 10
4.07005
 20
10.20286
 30
0.0
 10
4.07005
 20
10.20286
 30
0.0
 10
4.78037
 20
9.57762
 30
0.0
 10
4.78037
 20
9.57762
 30
0.0
 10
4.78037
 20
9.57762
 30
0.0
 10
4.78037
 20
9.57762
 30
0.0
 10
5.29533
 20
10.16265
 30
0.0
 10
5.29533
 20
10.16265
 30
0.0
 10
5.29533
 20
10.16265
 30
0.0
 10
5.29533
 20
10.16265
 30
0.0
 10
5.08173
 20
10.35066
 30
0.0
 10
5.08173
 20
10.35066
 30
0.0
 10
5.08173
 20
10.35066
 30
0.0
 10
5.08173
 20
10.35066
 30
0.0
 10
3.16183
 20
10.35066
 30
0.0
 10
3.16183
 20
10.35066
 30
0.0
  0
SPLINE
  5
82
330
1F
100
AcDbEntity
  8
Layer 1
 62
   242
100
AcDbSpline
210
0.0
220
0.0
230
1.0
 70
    11
 71
     3
 72
    48
 73
    44
 74
     0
 42
0.0000000001
 43
0.0000000001
 12
1.0
 22
0.0
 32
0.0
 13
1.0
 23
0.0
 33
0.0
 40
0.0
 40
0.0
 40
0.0
 40
0.0
 40
0.0833333333333333
 40
0.0833333333333333
 40
0.0833333333333333
 40
0.0833333333333333
 40
0.1666666666666667
 40
0.1666666666666667
 40
0.1666666666666667
 40
0.1666666666666667
 40
0.25
 40
0.25
 40
0.25
 40
0.25
 40
0.3333333333333333
 40
0.3333333333333333
 40
0.3333333333333333
 40
0.3333333333333333
 40
0.4166666666666667
 40
0.4166666666666667
 40
0.4166666666666667
 40
0.4166666666666667
 40
0.5
 40
0.5
 40
0.5
 40
0.5
 40
0.5833333333333334
 40
0.5833333333333334
 40
0.5833333333333334
 40
0.5833333333333334
 40
0.6666666666666666
 40
0.6666666666666666
 40
0.6666666666666666
 40
0.6666666666666666
 40
0.75
 40
0.75
 40
0.75
 40
0.75
 40
0.8333333333333334
 40
0.8333333333333334
 40
0.8333333333333334
 40
0.8333333333333334
 40
1.0
 40
1.0
 40
1.0
 40
1.0
 10
5.68344
 20
10.35066
 30
0.0
 10
5.68344
 20
10.35066
 30
0.0
 10
5.53111
 20
10.17761
 30
0.0
 10
5.53111
 20
10.17761
 30
0.0
 10
5.53111
 20
10.17761
 30
0.0
 10
5.53111
 20
10.17761
 30
0.0
 10
6.24144
 20
9.55236
 30
0.0
 10
6.24144
 20
9.55236
 30
0.0
 10
6.24144
 20
9.55236
 30
0.0
 10
6.24144
 20
9.55236
 30
0.0
 10
6.24138
 20
9.55229
 30
0.0
 10
6.24138
 20
9.55229
 30
0.0
 10
6.24138
 20
9.55229
 30
0.0
 10
6.24138
 20
9.55229
 30
0.0
 10
6.24144
 20
9.55222
 30
0.0
 10
6.24144
 20
9.55222
 30
0.0
 10
6.24144
 20
9.55222
 30
0.0
 10
6.24144
 20
9.55222
 30
0.0
 10
5.61622
 20
8.8419
 30
0.0
 10
5.61622
 20
8.8419
 30
0.0
 10
5.61622
 20
8.8419
 30
0.0
 10
5.61622
 20
8.8419
 30
0.0
 10
6.15939
 20
8.36379
 30
0.0
 10
6.15939
 20
8.36379
 30
0.0
 10
6.15939
 20
8.36379
 30
0.0
 10
6.15939
 20
8.36379
 30
0.0
 10
6.15933
 20
8.36372
 30
0.0
 10
6.15933
 20
8.36372
 30
0.0
 10
6.15933
 20
8.36372
 30
0.0
 10
6.15933
 20
8.36372
 30
0.0
 10
6.20118
 20
8.32688
 30
0.0
 10
6.20118
 20
8.32688
 30
0.0
 10
6.20118
 20
8.32688
 30
0.0
 10
6.20118
 20
8.32688
 30
0.0
 10
6.31372
 20
8.45474
 30
0.0
 10
6.31372
 20
8.45474
 30
0.0
 10
6.31372
 20
8.45474
 30
0.0
 10
6.31372
 20
8.45474
 30
0.0
 10
6.31372
 20
10.35066
 30
0.0
 10
6.31372
 20
10.35066
 30
0.0
 10
6.31372
 20
10.35066
 30
0.0
 10
6.31372
 20
10.35066
 30
0.0
 10
5.68344
 20
10.35066
 30
0.0
 10
5.68344
 20
10.35066
 30
0.0
  0
SPLINE
  5
83
330
1F
100
AcDbEntity
  8
Layer 1
 62
   242
100
AcDbSpline
210
0.0
220
0.0
230
1.0
 70
    11
 71
     3
 72
    32
 73
    28
 74
     0
 42
0.0000000001
 43
0.0000000001
 12
1.0
 22
0.0
 32
0.0
 13
1.0
 23
0.0
 33
0.0
 40
0.0
 40
0.0
 40
0.0
 40
0.0
 40
0.125
 40
0.125
 40
0.125
 40
0.125
 40
0.25
 40
0.25
 40
0.25
 40
0.25
 40
0.375
 40
0.375
 40
0.375
 40
0.375
 40
0.5
 40
0.5
 40
0.5
 40
0.5
 40
0.625
 40
0.625
 40
0.625
 40
0.625
 40
0.75
 40
0.75
 40
0.75
 40
0.75
 40
1.0
 40
1.0
 40
1.0
 40
1.0
 10
6.31372
 20
8.20194
 30
0.0
 10
6.31372
 20
8.20194
 30
0.0
 10
6.2162
 20
8.09116
 30
0.0
 10
6.2162
 20
8.09116
 30
0.0
 10
6.2162
 20
8.09116
 30
0.0
 10
6.2162
 20
8.09116
 30
0.0
 10
6.04897
 20
8.23836
 30
0.0
 10
6.04897
 20
8.23836
 30
0.0
 10
6.04897
 20
8.23836
 30
0.0
 10
6.04897
 20
8.23836
 30
0.0
 10
5.53408
 20
7.65339
 30
0.0
 10
5.53408
 20
7.65339
 30
0.0
 10
5.53408
 20
7.65339
 30
0.0
 10
5.53408
 20
7.65339
 30
0.0
 10
5.95203
 20
7.2855
 30
0.0
 10
5.95203
 20
7.2855
 30
0.0
 10
5.95203
 20
7.2855
 30
0.0
 10
5.95203
 20
7.2855
 30
0.0
 10
5.80484
 20
7.11827
 30
0.0
 10
5.80484
 20
7.11827
 30
0.0
 10
5.80484
 20
7.11827
 30
0.0
 10
5.80484
 20
7.11827
 30
0.0
 10
6.31372
 20
6.67035
 30
0.0
 10
6.31372
 20
6.67035
 30
0.0
 10
6.31372
 20
6.67035
 30
0.0
 10
6.31372
 20
6.67035
 30
0.0
 10
6.31372
 20
8.20194
 30
0.0
 10
6.31372
 20
8.20194
 30
0.0
  0
SPLINE
  5
84
330
1F
100
AcDbEntity
  8
Layer 1
 62
   242
100
AcDbSpline
210
0.0
220
0.0
230
1.0
 70
    11
 71
     3
 72
    28
 73
    24
 74
     0
 42
0.0000000001
 43
0.0000000001
 12
1.0
 22
0.0
 32
0.0
 13
1.0
 23
0.0
 33
0.0
 40
0.0
 40
0.0
 40
0.0
 40
0.0
 40
0.1428571428571428
 40
0.1428571428571428
 40
0.1428571428571428
 40
0.1428571428571428
 40
0.2857142857142857
 40
0.2857142857142857
 40
0.2857142857142857
 40
0.2857142857142857
 40
0.4285714285714285
 40
0.4285714285714285
 40
0.4285714285714285
 40
0.4285714285714285
 40
0.5714285714285714
 40
0.5714285714285714
 40
0.5714285714285714
 40
0.5714285714285714
 40
0.7142857142857143
 40
0.7142857142857143
 40
0.7142857142857143
 40
0.7142857142857143
 40
1.0
 40
1.0
 40
1.0
 40
1.0
 10
6.31372
 20
6.26402
 30
0.0
 10
6.31372
 20
6.26402
 30
0.0
 10
5.15433
 20
4.94688
 30
0.0
 10
5.15433
 20
4.94688
 30
0.0
 10
5.15433
 20
4.94688
 30
0.0
 10
5.15433
 20
4.94688
 30
0.0
 10
5.7393
 20
4.43198
 30
0.0
 10
5.7393
 20
4.43198
 30
0.0
 10
5.7393
 20
4.43198
 30
0.0
 10
5.7393
 20
4.43198
 30
0.0
 10
6.21748
 20
4.97523
 30
0.0
 10
6.21748
 20
4.97523
 30
0.0
 10
6.21748
 20
4.97523
 30
0.0
 10
6.21748
 20
4.97523
 30
0.0
 10
6.21755
 20
4.97516
 30
0.0
 10
6.21755
 20
4.97516
 30
0.0
 10
6.21755
 20
4.97516
 30
0.0
 10
6.21755
 20
4.97516
 30
0.0
 10
6.31372
 20
4.89051
 30
0.0
 10
6.31372
 20
4.89051
 30
0.0
 10
6.31372
 20
4.89051
 30
0.0
 10
6.31372
 20
4.89051
 30
0.0
 10
6.31372
 20
6.26402
 30
0.0
 10
6.31372
 20
6.26402
 30
0.0
  0
SPLINE
  5
85
330
1F
100
AcDbEntity
  8
Layer 1
 62
   242
100
AcDbSpline
210
0.0
220
0.0
230
1.0
 70
    11
 71
     3
 72
    32
 73
    28
 74
     0
 42
0.0000000001
 43
0.0000000001
 12
1.0
 22
0.0
 32
0.0
 13
1.0
 23
0.0
 33
0.0
 40
0.0
 40
0.0
 40
0.0
 40
0.0
 40
0.125
 40
0.125
 40
0.125
 40
0.125
 40
0.25
 40
0.25
 40
0.25
 40
0.25
 40
0.375
 40
0.375
 40
0.375
 40
0.375
 40
0.5
 40
0.5
 40
0.5
 40
0.5
 40
0.625
 40
0.625
 40
0.625
 40
0.625
 40
0.75
 40
0.75
 40
0.75
 40
0.75
 40
1.0
 40
1.0
 40
1.0
 40
1.0
 10
6.31372
 20
4.66801
 30
0.0
 10
6.31372
 20
4.66801
 30
0.0
 10
6.23256
 20
4.73945
 30
0.0
 10
6.23256
 20
4.73945
 30
0.0
 10
6.23256
 20
4.73945
 30
0.0
 10
6.23256
 20
4.73945
 30
0.0
 10
5.75439
 20
4.19621
 30
0.0
 10
5.75439
 20
4.19621
 30
0.0
 10
5.75439
 20
4.19621
 30
0.0
 10
5.75439
 20
4.19621
 30
0.0
 10
5.75432
 20
4.19626
 30
0.0
 10
5.75432
 20
4.19626
 30
0.0
 10
5.75432
 20
4.19626
 30
0.0
 10
5.75432
 20
4.19626
 30
0.0
 10
5.71753
 20
4.15448
 30
0.0
 10
5.71753
 20
4.15448
 30
0.0
 10
5.71753
 20
4.15448
 30
0.0
 10
5.71753
 20
4.15448
 30
0.0
 10
6.01005
 20
3.897
 30
0.0
 10
6.01005
 20
3.897
 30
0.0
 10
6.01005
 20
3.897
 30
0.0
 10
6.01005
 20
3.897
 30
0.0
 10
6.31372
 20
3.62972
 30
0.0
 10
6.31372
 20
3.62972
 30
0.0
 10
6.31372
 20
3.62972
 30
0.0
 10
6.31372
 20
3.62972
 30
0.0
 10
6.31372
 20
4.66801
 30
0.0
 10
6.31372
 20
4.66801
 30
0.0
  0
SPLINE
  5
86
330
1F
100
AcDbEntity
  8
Layer 1
 62
   242
100
AcDbSpline
210
0.0
220
0.0
230
1.0
 70
    11
 71
     3
 72
    32
 73
    28
 74
     0
 42
0.0000000001
 43
0.0000000001
 12
1.0
 22
0.0
 32
0.0
 13
1.0
 23
0.0
 33
0.0
 40
0.0
 40
0.0
 40
0.0
 40
0.0
 40
0.125
 40
0.125
 40
0.125
 40
0.125
 40
0.25
 40
0.25
 40
0.25
 40
0.25
 40
0.375
 40
0.375
 40
0.375
 40
0.375
 40
0.5
 40
0.5
 40
0.5
 40
0.5
 40
0.625
 40
0.625
 40
0.625
 40
0.625
 40
0.75
 40
0.75
 40
0.75
 40
0.75
 40
1.0
 40
1.0
 40
1.0
 40
1.0
 10
6.31372
 20
3.40722
 30
0.0
 10
6.31372
 20
3.40722
 30
0.0
 10
6.02514
 20
3.66123
 30
0.0
 10
6.02514
 20
3.66123
 30
0.0
 10
6.02514
 20
3.66123
 30
0.0
 10
6.02514
 20
3.66123
 30
0.0
 10
5.51018
 20
3.07621
 30
0.0
 10
5.51018
 20
3.07621
 30
0.0
 10
5.51018
 20
3.07621
 30
0.0
 10
5.51018
 20
3.07621
 30
0.0
 10
6.05344
 20
2.59803
 30
0.0
 10
6.05344
 20
2.59803
 30
0.0
 10
6.05344
 20
2.59803
 30
0.0
 10
6.05344
 20
2.59803
 30
0.0
 10
5.42813
 20
1.88763
 30
0.0
 10
5.42813
 20
1.88763
 30
0.0
 10
5.42813
 20
1.88763
 30
0.0
 10
5.42813
 20
1.88763
 30
0.0
 10
6.01316
 20
1.37266
 30
0.0
 10
6.01316
 20
1.37266
 30
0.0
 10
6.01316
 20
1.37266
 30
0.0
 10
6.01316
 20
1.37266
 30
0.0
 10
6.31372
 20
1.71412
 30
0.0
 10
6.31372
 20
1.71412
 30
0.0
 10
6.31372
 20
1.71412
 30
0.0
 10
6.31372
 20
1.71412
 30
0.0
 10
6.31372
 20
3.40722
 30
0.0
 10
6.31372
 20
3.40722
 30
0.0
  0
SPLINE
  5
87
330
1F
100
AcDbEntity
  8
Layer 1
 62
   242
100
AcDbSpline
210
0.0
220
0.0
230
1.0
 70
    11
 71
     3
 72
    16
 73
    12
 74
     0
 42
0.0000000001
 43
0.0000000001
 12
1.0
 22
0.0
 32
0.0
 13
1.0
 23
0.0
 33
0.0
 40
0.0
 40
0.0
 40
0.0
 40
0.0
 40
0.25
 40
0.25
 40
0.25
 40
0.25
 40
0.5
 40
0.5
 40
0.5
 40
0.5
 40
1.0
 40
1.0
 40
1.0
 40
1.0
 10
6.31372
 20
1.46135
 30
0.0
 10
6.31372
 20
1.46135
 30
0.0
 10
6.13853
 20
1.26231
 30
0.0
 10
6.13853
 20
1.26231
 30
0.0
 10
6.13853
 20
1.26231
 30
0.0
 10
6.13853
 20
1.26231
 30
0.0
 10
6.31372
 20
1.10811
 30
0.0
 10
6.31372
 20
1.10811
 30
0.0
 10
6.31372
 20
1.10811
 30
0.0
 10
6.31372
 20
1.10811
 30
0.0
 10
6.31372
 20
1.46135
 30
0.0
 10
6.31372
 20
1.46135
 30
0.0
  0
SPLINE
  5
88
330
1F
100
AcDbEntity
  8
Layer 1
 62
   242
100
AcDbSpline
210
0.0
220
0.0
230
1.0
 70
    11
 71
     3
 72
    16
 73
    12
 74
     0
 42
0.0000000001
 43
0.0000000001
 12
1.0
 22
0.0
 32
0.0
 13
1.0
 23
0.0
 33
0.0
 40
0.0
 40
0.0
 40
0.0
 40
0.0
 40
0.25
 40
0.25
 40
0.25
 40
0.25
 40
0.5
 40
0.5
 40
0.5
 40
0.5
 40
1.0
 40
1.0
 40
1.0
 40
1.0
 10
6.31372
 20
0.02899
 30
0.0
 10
6.31372
 20
0.02899
 30
0.0
 10
6.22361
 20
-0.07338
 30
0.0
 10
6.22361
 20
-0.07338
 30
0.0
 10
6.22361
 20
-0.07338
 30
0.0
 10
6.22361
 20
-0.07338
 30
0.0
 10
6.31372
 20
-0.15269
 30
0.0
 10
6.31372
 20
-0.15269
 30
0.0
 10
6.31372
 20
-0.15269
 30
0.0
 10
6.31372
 20
-0.15269
 30
0.0
 10
6.31372
 20
0.02899
 30
0.0
 10
6.31372
 20
0.02899
 30
0.0
  0
SPLINE
  5
89
330
1F
100
AcDbEntity
  8
Layer 1
 62
   242
100
AcDbSpline
210
0.0
220
0.0
230
1.0
 70
    11
 71
     3
 72
    16
 73
    12
 74
     0
 42
0.0000000001
 43
0.0000000001
 12
1.0
 22
0.0
 32
0.0
 13
1.0
 23
0.0
 33
0.0
 40
0.0
 40
0.0
 40
0.0
 40
0.0
 40
0.25
 40
0.25
 40
0.25
 40
0.25
 40
0.5
 40
0.5
 40
0.5
 40
0.5
 40
1.0
 40
1.0
 40
1.0
 40
1.0
 10
6.31372
 20
-1.06623
 30
0.0
 10
6.31372
 20
-1.06623
 30
0.0
 10
6.14149
 20
-1.2619
 30
0.0
 10
6.14149
 20
-1.2619
 30
0.0
 10
6.14149
 20
-1.2619
 30
0.0
 10
6.14149
 20
-1.2619
 30
0.0
 10
6.31372
 20
-1.4135
 30
0.0
 10
6.31372
 20
-1.4135
 30
0.0
 10
6.31372
 20
-1.4135
 30
0.0
 10
6.31372
 20
-1.4135
 30
0.0
 10
6.31372
 20
-1.06623
 30
0.0
 10
6.31372
 20
-1.06623
 30
0.0
  0
SPLINE
  5
8A
330
1F
100
AcDbEntity
  8
Layer 1
 62
   242
100
AcDbSpline
210
0.0
220
0.0
230
1.0
 70
    11
 71
     3
 72
    64
 73
    60
 74
     0
 42
0.0000000001
 43
0.0000000001
 12
1.0
 22
0.0
 32
0.0
 13
1.0
 23
0.0
 33
0.0
 40
0.0
 40
0.0
 40
0.0
 40
0.0
 40
0.0625
 40
0.0625
 40
0.0625
 40
0.0625
 40
0.125
 40
0.125
 40
0.125
 40
0.125
 40
0.1875
 40
0.1875
 40
0.1875
 40
0.1875
 40
0.25
 40
0.25
 40
0.25
 40
0.25
 40
0.3125
 40
0.3125
 40
0.3125
 40
0.3125
 40
0.375
 40
0.375
 40
0.375
 40
0.375
 40
0.4375
 40
0.4375
 40
0.4375
 40
0.4375
 40
0.5
 40
0.5
 40
0.5
 40
0.5
 40
0.5625
 40
0.5625
 40
0.5625
 40
0.5625
 40
0.625
 40
0.625
 40
0.625
 40
0.625
 40
0.6875
 40
0.6875
 40
0.6875
 40
0.6875
 40
0.75
 40
0.75
 40
0.75
 40
0.75
 40
0.8125
 40
0.8125
 40
0.8125
 40
0.8125
 40
0.875
 40
0.875
 40
0.875
 40
0.875
 40
1.0
 40
1.0
 40
1.0
 40
1.0
 10
6.31372
 20
-1.93278
 30
0.0
 10
6.31372
 20
-1.93278
 30
0.0
 10
6.3019
 20
-1.92237
 30
0.0
 10
6.3019
 20
-1.92237
 30
0.0
 10
6.3019
 20
-1.92237
 30
0.0
 10
6.3019
 20
-1.92237
 30
0.0
 10
5.82379
 20
-2.46555
 30
0.0
 10
5.82379
 20
-2.46555
 30
0.0
 10
5.82379
 20
-2.46555
 30
0.0
 10
5.82379
 20
-2.46555
 30
0.0
 10
5.82372
 20
-2.46562
 30
0.0
 10
5.82372
 20
-2.46562
 30
0.0
 10
5.82372
 20
-2.46562
 30
0.0
 10
5.82372
 20
-2.46562
 30
0.0
 10
5.11333
 20
-1.84032
 30
0.0
 10
5.11333
 20
-1.84032
 30
0.0
 10
5.11333
 20
-1.84032
 30
0.0
 10
5.11333
 20
-1.84032
 30
0.0
 10
4.59843
 20
-2.42528
 30
0.0
 10
4.59843
 20
-2.42528
 30
0.0
 10
4.59843
 20
-2.42528
 30
0.0
 10
4.59843
 20
-2.42528
 30
0.0
 10
5.30876
 20
-3.05053
 30
0.0
 10
5.30876
 20
-3.05053
 30
0.0
 10
5.30876
 20
-3.05053
 30
0.0
 10
5.30876
 20
-3.05053
 30
0.0
 10
5.30871
 20
-3.0506
 30
0.0
 10
5.30871
 20
-3.0506
 30
0.0
 10
5.30871
 20
-3.0506
 30
0.0
 10
5.30871
 20
-3.0506
 30
0.0
 10
5.30877
 20
-3.05066
 30
0.0
 10
5.30877
 20
-3.05066
 30
0.0
 10
5.30877
 20
-3.05066
 30
0.0
 10
5.30877
 20
-3.05066
 30
0.0
 10
4.68353
 20
-3.76099
 30
0.0
 10
4.68353
 20
-3.76099
 30
0.0
 10
4.68353
 20
-3.76099
 30
0.0
 10
4.68353
 20
-3.76099
 30
0.0
 10
5.2267
 20
-4.23911
 30
0.0
 10
5.2267
 20
-4.23911
 30
0.0
 10
5.2267
 20
-4.23911
 30
0.0
 10
5.2267
 20
-4.23911
 30
0.0
 10
5.22663
 20
-4.23916
 30
0.0
 10
5.22663
 20
-4.23916
 30
0.0
 10
5.22663
 20
-4.23916
 30
0.0
 10
5.22663
 20
-4.23916
 30
0.0
 10
5.2685
 20
-4.27602
 30
0.0
 10
5.2685
 20
-4.27602
 30
0.0
 10
5.2685
 20
-4.27602
 30
0.0
 10
5.2685
 20
-4.27602
 30
0.0
 10
5.52598
 20
-3.9835
 30
0.0
 10
5.52598
 20
-3.9835
 30
0.0
 10
5.52598
 20
-3.9835
 30
0.0
 10
5.52598
 20
-3.9835
 30
0.0
 10
6.31372
 20
-3.08856
 30
0.0
 10
6.31372
 20
-3.08856
 30
0.0
 10
6.31372
 20
-3.08856
 30
0.0
 10
6.31372
 20
-3.08856
 30
0.0
 10
6.31372
 20
-1.93278
 30
0.0
 10
6.31372
 20
-1.93278
 30
0.0
  0
SPLINE
  5
8B
330
1F
100
AcDbEntity
  8
Layer 1
 62
   242
100
AcDbSpline
210
0.0
220
0.0
230
1.0
 70
    11
 71
     3
 72
    16
 73
    12
 74
     0
 42
0.0000000001
 43
0.0000000001
 12
1.0
 22
0.0
 32
0.0
 13
1.0
 23
0.0
 33
0.0
 40
0.0
 40
0.0
 40
0.0
 40
0.0
 40
0.25
 40
0.25
 40
0.25
 40
0.25
 40
0.5
 40
0.5
 40
0.5
 40
0.5
 40
1.0
 40
1.0
 40
1.0
 40
1.0
 10
6.31372
 20
-3.34132
 30
0.0
 10
6.31372
 20
-3.34132
 30
0.0
 10
5.76175
 20
-3.9684
 30
0.0
 10
5.76175
 20
-3.9684
 30
0.0
 10
5.76175
 20
-3.9684
 30
0.0
 10
5.76175
 20
-3.9684
 30
0.0
 10
6.31372
 20
-4.45426
 30
0.0
 10
6.31372
 20
-4.45426
 30
0.0
 10
6.31372
 20
-4.45426
 30
0.0
 10
6.31372
 20
-4.45426
 30
0.0
 10
6.31372
 20
-3.34132
 30
0.0
 10
6.31372
 20
-3.34132
 30
0.0
  0
SPLINE
  5
8C
330
1F
100
AcDbEntity
  8
Layer 1
 62
   242
100
AcDbSpline
210
0.0
220
0.0
230
1.0
 70
    11
 71
     3
 72
    16
 73
    12
 74
     0
 42
0.0000000001
 43
0.0000000001
 12
1.0
 22
0.0
 32
0.0
 13
1.0
 23
0.0
 33
0.0
 40
0.0
 40
0.0
 40
0.0
 40
0.0
 40
0.25
 40
0.25
 40
0.25
 40
0.25
 40
0.5
 40
0.5
 40
0.5
 40
0.5
 40
1.0
 40
1.0
 40
1.0
 40
1.0
 10
6.31372
 20
-5.6163
 30
0.0
 10
6.31372
 20
-5.6163
 30
0.0
 10
6.1176
 20
-5.8391
 30
0.0
 10
6.1176
 20
-5.8391
 30
0.0
 10
6.1176
 20
-5.8391
 30
0.0
 10
6.1176
 20
-5.8391
 30
0.0
 10
6.31372
 20
-6.01173
 30
0.0
 10
6.31372
 20
-6.01173
 30
0.0
 10
6.31372
 20
-6.01173
 30
0.0
 10
6.31372
 20
-6.01173
 30
0.0
 10
6.31372
 20
-5.6163
 30
0.0
 10
6.31372
 20
-5.6163
 30
0.0
  0
SPLINE
  5
8D
330
1F
100
AcDbEntity
  8
Layer 1
 62
   242
100
AcDbSpline
210
0.0
220
0.0
230
1.0
 70
    11
 71
     3
 72
    16
 73
    12
 74
     0
 42
0.0000000001
 43
0.0000000001
 12
1.0
 22
0.0
 32
0.0
 13
1.0
 23
0.0
 33
0.0
 40
0.0
 40
0.0
 40
0.0
 40
0.0
 40
0.25
 40
0.25
 40
0.25
 40
0.25
 40
0.5
 40
0.5
 40
0.5
 40
0.5
 40
1.0
 40
1.0
 40
1.0
 40
1.0
 10
6.31372
 20
-6.71163
 30
0.0
 10
6.31372
 20
-6.71163
 30
0.0
 10
6.03553
 20
-7.02766
 30
0.0
 10
6.03553
 20
-7.02766
 30
0.0
 10
6.03553
 20
-7.02766
 30
0.0
 10
6.03553
 20
-7.02766
 30
0.0
 10
6.31372
 20
-7.27253
 30
0.0
 10
6.31372
 20
-7.27253
 30
0.0
 10
6.31372
 20
-7.27253
 30
0.0
 10
6.31372
 20
-7.27253
 30
0.0
 10
6.31372
 20
-6.71163
 30
0.0
 10
6.31372
 20
-6.71163
 30
0.0
  0
SPLINE
  5
8E
330
1F
100
AcDbEntity
  8
Layer 1
 62
   242
100
AcDbSpline
210
0.0
220
0.0
230
1.0
 70
    11
 71
     3
 72
    44
 73
    40
 74
     0
 42
0.0000000001
 43
0.0000000001
 12
1.0
 22
0.0
 32
0.0
 13
1.0
 23
0.0
 33
0.0
 40
0.0
 40
0.0
 40
0.0
 40
0.0
 40
0.0909090909090909
 40
0.0909090909090909
 40
0.0909090909090909
 40
0.0909090909090909
 40
0.1818181818181818
 40
0.1818181818181818
 40
0.1818181818181818
 40
0.1818181818181818
 40
0.2727272727272727
 40
0.2727272727272727
 40
0.2727272727272727
 40
0.2727272727272727
 40
0.3636363636363636
 40
0.3636363636363636
 40
0.3636363636363636
 40
0.3636363636363636
 40
0.4545454545454545
 40
0.4545454545454545
 40
0.4545454545454545
 40
0.4545454545454545
 40
0.5454545454545454
 40
0.5454545454545454
 40
0.5454545454545454
 40
0.5454545454545454
 40
0.6363636363636364
 40
0.6363636363636364
 40
0.6363636363636364
 40
0.6363636363636364
 40
0.7272727272727273
 40
0.7272727272727273
 40
0.7272727272727273
 40
0.7272727272727273
 40
0.8181818181818182
 40
0.8181818181818182
 40
0.8181818181818182
 40
0.8181818181818182
 40
1.0
 40
1.0
 40
1.0
 40
1.0
 10
6.31372
 20
-8.14401
 30
0.0
 10
6.31372
 20
-8.14401
 30
0.0
 10
6.01027
 20
-8.48874
 30
0.0
 10
6.01027
 20
-8.48874
 30
0.0
 10
6.01027
 20
-8.48874
 30
0.0
 10
6.01027
 20
-8.48874
 30
0.0
 10
6.01021
 20
-8.48868
 30
0.0
 10
6.01021
 20
-8.48868
 30
0.0
 10
6.01021
 20
-8.48868
 30
0.0
 10
6.01021
 20
-8.48868
 30
0.0
 10
5.29989
 20
-7.86342
 30
0.0
 10
5.29989
 20
-7.86342
 30
0.0
 10
5.29989
 20
-7.86342
 30
0.0
 10
5.29989
 20
-7.86342
 30
0.0
 10
4.8217
 20
-8.40668
 30
0.0
 10
4.8217
 20
-8.40668
 30
0.0
 10
4.8217
 20
-8.40668
 30
0.0
 10
4.8217
 20
-8.40668
 30
0.0
 10
4.82163
 20
-8.40662
 30
0.0
 10
4.82163
 20
-8.40662
 30
0.0
 10
4.82163
 20
-8.40662
 30
0.0
 10
4.82163
 20
-8.40662
 30
0.0
 10
4.78485
 20
-8.44841
 30
0.0
 10
4.78485
 20
-8.44841
 30
0.0
 10
4.78485
 20
-8.44841
 30
0.0
 10
4.78485
 20
-8.44841
 30
0.0
 10
5.07737
 20
-8.70589
 30
0.0
 10
5.07737
 20
-8.70589
 30
0.0
 10
5.07737
 20
-8.70589
 30
0.0
 10
5.07737
 20
-8.70589
 30
0.0
 10
5.62705
 20
-9.18973
 30
0.0
 10
5.62705
 20
-9.18973
 30
0.0
 10
5.62705
 20
-9.18973
 30
0.0
 10
5.62705
 20
-9.18973
 30
0.0
 10
6.31372
 20
-9.18973
 30
0.0
 10
6.31372
 20
-9.18973
 30
0.0
 10
6.31372
 20
-9.18973
 30
0.0
 10
6.31372
 20
-9.18973
 30
0.0
 10
6.31372
 20
-8.14401
 30
0.0
 10
6.31372
 20
-8.14401
 30
0.0
  0
SPLINE
  5
8F
330
1F
100
AcDbEntity
  8
Layer 1
 62
   242
100
AcDbSpline
210
0.0
220
0.0
230
1.0
 70
    11
 71
     3
 72
    16
 73
    12
 74
     0
 42
0.0000000001
 43
0.0000000001
 12
1.0
 22
0.0
 32
0.0
 13
1.0
 23
0.0
 33
0.0
 40
0.0
 40
0.0
 40
0.0
 40
0.0
 40
0.25
 40
0.25
 40
0.25
 40
0.25
 40
0.5
 40
0.5
 40
0.5
 40
0.5
 40
1.0
 40
1.0
 40
1.0
 40
1.0
 10
5.37428
 20
-9.18973
 30
0.0
 10
5.37428
 20
-9.18973
 30
0.0
 10
5.09245
 20
-8.94166
 30
0.0
 10
5.09245
 20
-8.94166
 30
0.0
 10
5.09245
 20
-8.94166
 30
0.0
 10
5.09245
 20
-8.94166
 30
0.0
 10
4.8741
 20
-9.18973
 30
0.0
 10
4.8741
 20
-9.18973
 30
0.0
 10
4.8741
 20
-9.18973
 30
0.0
 10
4.8741
 20
-9.18973
 30
0.0
 10
5.37428
 20
-9.18973
 30
0.0
 10
5.37428
 20
-9.18973
 30
0.0
  0
SPLINE
  5
90
330
1F
100
AcDbEntity
  8
Layer 1
 62
   242
100
AcDbSpline
210
0.0
220
0.0
230
1.0
 70
    11
 71
     3
 72
    48
 73
    44
 74
     0
 42
0.0000000001
 43
0.0000000001
 12
1.0
 22
0.0
 32
0.0
 13
1.0
 23
0.0
 33
0.0
 40
0.0
 40
0.0
 40
0.0
 40
0.0
 40
0.0833333333333333
 40
0.0833333333333333
 40
0.0833333333333333
 40
0.0833333333333333
 40
0.1666666666666667
 40
0.1666666666666667
 40
0.1666666666666667
 40
0.1666666666666667
 40
0.25
 40
0.25
 40
0.25
 40
0.25
 40
0.3333333333333333
 40
0.3333333333333333
 40
0.3333333333333333
 40
0.3333333333333333
 40
0.4166666666666667
 40
0.4166666666666667
 40
0.4166666666666667
 40
0.4166666666666667
 40
0.5
 40
0.5
 40
0.5
 40
0.5
 40
0.5833333333333334
 40
0.5833333333333334
 40
0.5833333333333334
 40
0.5833333333333334
 40
0.6666666666666666
 40
0.6666666666666666
 40
0.6666666666666666
 40
0.6666666666666666
 40
0.75
 40
0.75
 40
0.75
 40
0.75
 40
0.8333333333333334
 40
0.8333333333333334
 40
0.8333333333333334
 40
0.8333333333333334
 40
1.0
 40
1.0
 40
1.0
 40
1.0
 10
4.65161
 20
-9.18973
 30
0.0
 10
4.65161
 20
-9.18973
 30
0.0
 10
4.96709
 20
-8.83131
 30
0.0
 10
4.96709
 20
-8.83131
 30
0.0
 10
4.96709
 20
-8.83131
 30
0.0
 10
4.96709
 20
-8.83131
 30
0.0
 10
4.54915
 20
-8.46343
 30
0.0
 10
4.54915
 20
-8.46343
 30
0.0
 10
4.54915
 20
-8.46343
 30
0.0
 10
4.54915
 20
-8.46343
 30
0.0
 10
4.69626
 20
-8.29628
 30
0.0
 10
4.69626
 20
-8.29628
 30
0.0
 10
4.69626
 20
-8.29628
 30
0.0
 10
4.69626
 20
-8.29628
 30
0.0
 10
4.11131
 20
-7.78137
 30
0.0
 10
4.11131
 20
-7.78137
 30
0.0
 10
4.11131
 20
-7.78137
 30
0.0
 10
4.11131
 20
-7.78137
 30
0.0
 10
3.74342
 20
-8.19933
 30
0.0
 10
3.74342
 20
-8.19933
 30
0.0
 10
3.74342
 20
-8.19933
 30
0.0
 10
3.74342
 20
-8.19933
 30
0.0
 10
3.57619
 20
-8.05213
 30
0.0
 10
3.57619
 20
-8.05213
 30
0.0
 10
3.57619
 20
-8.05213
 30
0.0
 10
3.57619
 20
-8.05213
 30
0.0
 10
3.0613
 20
-8.63709
 30
0.0
 10
3.0613
 20
-8.63709
 30
0.0
 10
3.0613
 20
-8.63709
 30
0.0
 10
3.0613
 20
-8.63709
 30
0.0
 10
3.47925
 20
-9.00498
 30
0.0
 10
3.47925
 20
-9.00498
 30
0.0
 10
3.47925
 20
-9.00498
 30
0.0
 10
3.47925
 20
-9.00498
 30
0.0
 10
3.33206
 20
-9.17221
 30
0.0
 10
3.33206
 20
-9.17221
 30
0.0
 10
3.33206
 20
-9.17221
 30
0.0
 10
3.33206
 20
-9.17221
 30
0.0
 10
3.35196
 20
-9.18973
 30
0.0
 10
3.35196
 20
-9.18973
 30
0.0
 10
3.35196
 20
-9.18973
 30
0.0
 10
3.35196
 20
-9.18973
 30
0.0
 10
4.65161
 20
-9.18973
 30
0.0
 10
4.65161
 20
-9.18973
 30
0.0
  0
SPLINE
  5
91
330
1F
100
AcDbEntity
  8
Layer 1
 62
   242
100
AcDbSpline
210
0.0
220
0.0
230
1.0
 70
    11
 71
     3
 72
    56
 73
    52
 74
     0
 42
0.0000000001
 43
0.0000000001
 12
1.0
 22
0.0
 32
0.0
 13
1.0
 23
0.0
 33
0.0
 40
0.0
 40
0.0
 40
0.0
 40
0.0
 40
0.0714285714285714
 40
0.0714285714285714
 40
0.0714285714285714
 40
0.0714285714285714
 40
0.1428571428571428
 40
0.1428571428571428
 40
0.1428571428571428
 40
0.1428571428571428
 40
0.2142857142857143
 40
0.2142857142857143
 40
0.2142857142857143
 40
0.2142857142857143
 40
0.2857142857142857
 40
0.2857142857142857
 40
0.2857142857142857
 40
0.2857142857142857
 40
0.3571428571428572
 40
0.3571428571428572
 40
0.3571428571428572
 40
0.3571428571428572
 40
0.4285714285714285
 40
0.4285714285714285
 40
0.4285714285714285
 40
0.4285714285714285
 40
0.5
 40
0.5
 40
0.5
 40
0.5
 40
0.5714285714285714
 40
0.5714285714285714
 40
0.5714285714285714
 40
0.5714285714285714
 40
0.6428571428571429
 40
0.6428571428571429
 40
0.6428571428571429
 40
0.6428571428571429
 40
0.7142857142857143
 40
0.7142857142857143
 40
0.7142857142857143
 40
0.7142857142857143
 40
0.7857142857142857
 40
0.7857142857142857
 40
0.7857142857142857
 40
0.7857142857142857
 40
0.8571428571428571
 40
0.8571428571428571
 40
0.8571428571428571
 40
0.8571428571428571
 40
1.0
 40
1.0
 40
1.0
 40
1.0
 10
3.09413
 20
-9.18973
 30
0.0
 10
3.09413
 20
-9.18973
 30
0.0
 10
3.20669
 20
-9.06185
 30
0.0
 10
3.20669
 20
-9.06185
 30
0.0
 10
3.20669
 20
-9.06185
 30
0.0
 10
3.20669
 20
-9.06185
 30
0.0
 10
3.24354
 20
-9.02001
 30
0.0
 10
3.24354
 20
-9.02001
 30
0.0
 10
3.24354
 20
-9.02001
 30
0.0
 10
3.24354
 20
-9.02001
 30
0.0
 10
2.95102
 20
-8.76252
 30
0.0
 10
2.95102
 20
-8.76252
 30
0.0
 10
2.95102
 20
-8.76252
 30
0.0
 10
2.95102
 20
-8.76252
 30
0.0
 10
1.40486
 20
-7.40156
 30
0.0
 10
1.40486
 20
-7.40156
 30
0.0
 10
1.40486
 20
-7.40156
 30
0.0
 10
1.40486
 20
-7.40156
 30
0.0
 10
0.8899
 20
-7.9866
 30
0.0
 10
0.8899
 20
-7.9866
 30
0.0
 10
0.8899
 20
-7.9866
 30
0.0
 10
0.8899
 20
-7.9866
 30
0.0
 10
1.43314
 20
-8.46478
 30
0.0
 10
1.43314
 20
-8.46478
 30
0.0
 10
1.43314
 20
-8.46478
 30
0.0
 10
1.43314
 20
-8.46478
 30
0.0
 10
0.80784
 20
-9.17518
 30
0.0
 10
0.80784
 20
-9.17518
 30
0.0
 10
0.80784
 20
-9.17518
 30
0.0
 10
0.80784
 20
-9.17518
 30
0.0
 10
0.82436
 20
-9.18973
 30
0.0
 10
0.82436
 20
-9.18973
 30
0.0
 10
0.82436
 20
-9.18973
 30
0.0
 10
0.82436
 20
-9.18973
 30
0.0
 10
1.83334
 20
-9.18973
 30
0.0
 10
1.83334
 20
-9.18973
 30
0.0
 10
1.83334
 20
-9.18973
 30
0.0
 10
1.83334
 20
-9.18973
 30
0.0
 10
2.01812
 20
-8.9798
 30
0.0
 10
2.01812
 20
-8.9798
 30
0.0
 10
2.01812
 20
-8.9798
 30
0.0
 10
2.01812
 20
-8.9798
 30
0.0
 10
2.01818
 20
-8.97973
 30
0.0
 10
2.01818
 20
-8.97973
 30
0.0
 10
2.01818
 20
-8.97973
 30
0.0
 10
2.01818
 20
-8.97973
 30
0.0
 10
2.25675
 20
-9.18973
 30
0.0
 10
2.25675
 20
-9.18973
 30
0.0
 10
2.25675
 20
-9.18973
 30
0.0
 10
2.25675
 20
-9.18973
 30
0.0
 10
3.09413
 20
-9.18973
 30
0.0
 10
3.09413
 20
-9.18973
 30
0.0
  0
SPLINE
  5
92
330
1F
100
AcDbEntity
  8
Layer 1
 62
   242
100
AcDbSpline
210
0.0
220
0.0
230
1.0
 70
    11
 71
     3
 72
    32
 73
    28
 74
     0
 42
0.0000000001
 43
0.0000000001
 12
1.0
 22
0.0
 32
0.0
 13
1.0
 23
0.0
 33
0.0
 40
0.0
 40
0.0
 40
0.0
 40
0.0
 40
0.125
 40
0.125
 40
0.125
 40
0.125
 40
0.25
 40
0.25
 40
0.25
 40
0.25
 40
0.375
 40
0.375
 40
0.375
 40
0.375
 40
0.5
 40
0.5
 40
0.5
 40
0.5
 40
0.625
 40
0.625
 40
0.625
 40
0.625
 40
0.75
 40
0.75
 40
0.75
 40
0.75
 40
1.0
 40
1.0
 40
1.0
 40
1.0
 10
0.57254
 20
-9.18973
 30
0.0
 10
0.57254
 20
-9.18973
 30
0.0
 10
1.19743
 20
-8.4798
 30
0.0
 10
1.19743
 20
-8.4798
 30
0.0
 10
1.19743
 20
-8.4798
 30
0.0
 10
1.19743
 20
-8.4798
 30
0.0
 10
0.65419
 20
-8.00162
 30
0.0
 10
0.65419
 20
-8.00162
 30
0.0
 10
0.65419
 20
-8.00162
 30
0.0
 10
0.65419
 20
-8.00162
 30
0.0
 10
0.6124
 20
-7.96484
 30
0.0
 10
0.6124
 20
-7.96484
 30
0.0
 10
0.6124
 20
-7.96484
 30
0.0
 10
0.6124
 20
-7.96484
 30
0.0
 10
0.35492
 20
-8.25735
 30
0.0
 10
0.35492
 20
-8.25735
 30
0.0
 10
0.35492
 20
-8.25735
 30
0.0
 10
0.35492
 20
-8.25735
 30
0.0
 10
0.30129
 20
-8.31828
 30
0.0
 10
0.30129
 20
-8.31828
 30
0.0
 10
0.30129
 20
-8.31828
 30
0.0
 10
0.30129
 20
-8.31828
 30
0.0
 10
0.30129
 20
-9.18973
 30
0.0
 10
0.30129
 20
-9.18973
 30
0.0
 10
0.30129
 20
-9.18973
 30
0.0
 10
0.30129
 20
-9.18973
 30
0.0
 10
0.57254
 20
-9.18973
 30
0.0
 10
0.57254
 20
-9.18973
 30
0.0
  0
SPLINE
  5
93
330
1F
100
AcDbEntity
  8
Layer 1
 62
   242
100
AcDbSpline
210
0.0
220
0.0
230
1.0
 70
    11
 71
     3
 72
    36
 73
    32
 74
     0
 42
0.0000000001
 43
0.0000000001
 12
1.0
 22
0.0
 32
0.0
 13
1.0
 23
0.0
 33
0.0
 40
0.0
 40
0.0
 40
0.0
 40
0.0
 40
0.1111111111111111
 40
0.1111111111111111
 40
0.1111111111111111
 40
0.1111111111111111
 40
0.2222222222222222
 40
0.2222222222222222
 40
0.2222222222222222
 40
0.2222222222222222
 40
0.3333333333333333
 40
0.3333333333333333
 40
0.3333333333333333
 40
0.3333333333333333
 40
0.4444444444444444
 40
0.4444444444444444
 40
0.4444444444444444
 40
0.4444444444444444
 40
0.5555555555555556
 40
0.5555555555555556
 40
0.5555555555555556
 40
0.5555555555555556
 40
0.6666666666666666
 40
0.6666666666666666
 40
0.6666666666666666
 40
0.6666666666666666
 40
0.7777777777777778
 40
0.7777777777777778
 40
0.7777777777777778
 40
0.7777777777777778
 40
1.0
 40
1.0
 40
1.0
 40
1.0
 10
0.30129
 20
-8.06551
 30
0.0
 10
0.30129
 20
-8.06551
 30
0.0
 10
0.59739
 20
-7.72912
 30
0.0
 10
0.59739
 20
-7.72912
 30
0.0
 10
0.59739
 20
-7.72912
 30
0.0
 10
0.59739
 20
-7.72912
 30
0.0
 10
0.76454
 20
-7.87625
 30
0.0
 10
0.76454
 20
-7.87625
 30
0.0
 10
0.76454
 20
-7.87625
 30
0.0
 10
0.76454
 20
-7.87625
 30
0.0
 10
1.2795
 20
-7.29122
 30
0.0
 10
1.2795
 20
-7.29122
 30
0.0
 10
1.2795
 20
-7.29122
 30
0.0
 10
1.2795
 20
-7.29122
 30
0.0
 10
0.86154
 20
-6.92333
 30
0.0
 10
0.86154
 20
-6.92333
 30
0.0
 10
0.86154
 20
-6.92333
 30
0.0
 10
0.86154
 20
-6.92333
 30
0.0
 10
1.00868
 20
-6.75617
 30
0.0
 10
1.00868
 20
-6.75617
 30
0.0
 10
1.00868
 20
-6.75617
 30
0.0
 10
1.00868
 20
-6.75617
 30
0.0
 10
0.4237
 20
-6.24127
 30
0.0
 10
0.4237
 20
-6.24127
 30
0.0
 10
0.4237
 20
-6.24127
 30
0.0
 10
0.4237
 20
-6.24127
 30
0.0
 10
0.30129
 20
-6.38035
 30
0.0
 10
0.30129
 20
-6.38035
 30
0.0
 10
0.30129
 20
-6.38035
 30
0.0
 10
0.30129
 20
-6.38035
 30
0.0
 10
0.30129
 20
-8.06551
 30
0.0
 10
0.30129
 20
-8.06551
 30
0.0
  0
SPLINE
  5
94
330
1F
100
AcDbEntity
  8
Layer 1
 62
   242
100
AcDbSpline
210
0.0
220
0.0
230
1.0
 70
    11
 71
     3
 72
    28
 73
    24
 74
     0
 42
0.0000000001
 43
0.0000000001
 12
1.0
 22
0.0
 32
0.0
 13
1.0
 23
0.0
 33
0.0
 40
0.0
 40
0.0
 40
0.0
 40
0.0
 40
0.1428571428571428
 40
0.1428571428571428
 40
0.1428571428571428
 40
0.1428571428571428
 40
0.2857142857142857
 40
0.2857142857142857
 40
0.2857142857142857
 40
0.2857142857142857
 40
0.4285714285714285
 40
0.4285714285714285
 40
0.4285714285714285
 40
0.4285714285714285
 40
0.5714285714285714
 40
0.5714285714285714
 40
0.5714285714285714
 40
0.5714285714285714
 40
0.7142857142857143
 40
0.7142857142857143
 40
0.7142857142857143
 40
0.7142857142857143
 40
1.0
 40
1.0
 40
1.0
 40
1.0
 10
0.30129
 20
-6.1276
 30
0.0
 10
0.30129
 20
-6.1276
 30
0.0
 10
1.65924
 20
-4.58484
 30
0.0
 10
1.65924
 20
-4.58484
 30
0.0
 10
1.65924
 20
-4.58484
 30
0.0
 10
1.65924
 20
-4.58484
 30
0.0
 10
1.07421
 20
-4.06988
 30
0.0
 10
1.07421
 20
-4.06988
 30
0.0
 10
1.07421
 20
-4.06988
 30
0.0
 10
1.07421
 20
-4.06988
 30
0.0
 10
0.59609
 20
-4.61306
 30
0.0
 10
0.59609
 20
-4.61306
 30
0.0
 10
0.59609
 20
-4.61306
 30
0.0
 10
0.59609
 20
-4.61306
 30
0.0
 10
0.59603
 20
-4.61313
 30
0.0
 10
0.59603
 20
-4.61313
 30
0.0
 10
0.59603
 20
-4.61313
 30
0.0
 10
0.59603
 20
-4.61313
 30
0.0
 10
0.30129
 20
-4.35369
 30
0.0
 10
0.30129
 20
-4.35369
 30
0.0
 10
0.30129
 20
-4.35369
 30
0.0
 10
0.30129
 20
-4.35369
 30
0.0
 10
0.30129
 20
-6.1276
 30
0.0
 10
0.30129
 20
-6.1276
 30
0.0
  0
SPLINE
  5
95
330
1F
100
AcDbEntity
  8
Layer 1
 62
   242
100
AcDbSpline
210
0.0
220
0.0
230
1.0
 70
    11
 71
     3
 72
    28
 73
    24
 74
     0
 42
0.0000000001
 43
0.0000000001
 12
1.0
 22
0.0
 32
0.0
 13
1.0
 23
0.0
 33
0.0
 40
0.0
 40
0.0
 40
0.0
 40
0.0
 40
0.1428571428571428
 40
0.1428571428571428
 40
0.1428571428571428
 40
0.1428571428571428
 40
0.2857142857142857
 40
0.2857142857142857
 40
0.2857142857142857
 40
0.2857142857142857
 40
0.4285714285714285
 40
0.4285714285714285
 40
0.4285714285714285
 40
0.4285714285714285
 40
0.5714285714285714
 40
0.5714285714285714
 40
0.5714285714285714
 40
0.5714285714285714
 40
0.7142857142857143
 40
0.7142857142857143
 40
0.7142857142857143
 40
0.7142857142857143
 40
1.0
 40
1.0
 40
1.0
 40
1.0
 10
0.30129
 20
-4.13107
 30
0.0
 10
0.30129
 20
-4.13107
 30
0.0
 10
0.58107
 20
-4.37734
 30
0.0
 10
0.58107
 20
-4.37734
 30
0.0
 10
0.58107
 20
-4.37734
 30
0.0
 10
0.58107
 20
-4.37734
 30
0.0
 10
1.05918
 20
-3.83416
 30
0.0
 10
1.05918
 20
-3.83416
 30
0.0
 10
1.05918
 20
-3.83416
 30
0.0
 10
1.05918
 20
-3.83416
 30
0.0
 10
1.09603
 20
-3.7923
 30
0.0
 10
1.09603
 20
-3.7923
 30
0.0
 10
1.09603
 20
-3.7923
 30
0.0
 10
1.09603
 20
-3.7923
 30
0.0
 10
0.80352
 20
-3.53483
 30
0.0
 10
0.80352
 20
-3.53483
 30
0.0
 10
0.80352
 20
-3.53483
 30
0.0
 10
0.80352
 20
-3.53483
 30
0.0
 10
0.30129
 20
-3.09276
 30
0.0
 10
0.30129
 20
-3.09276
 30
0.0
 10
0.30129
 20
-3.09276
 30
0.0
 10
0.30129
 20
-3.09276
 30
0.0
 10
0.30129
 20
-4.13107
 30
0.0
 10
0.30129
 20
-4.13107
 30
0.0
  0
SPLINE
  5
96
330
1F
100
AcDbEntity
  8
Layer 1
 62
   242
100
AcDbSpline
210
0.0
220
0.0
230
1.0
 70
    11
 71
     3
 72
    40
 73
    36
 74
     0
 42
0.0000000001
 43
0.0000000001
 12
1.0
 22
0.0
 32
0.0
 13
1.0
 23
0.0
 33
0.0
 40
0.0
 40
0.0
 40
0.0
 40
0.0
 40
0.1
 40
0.1
 40
0.1
 40
0.1
 40
0.2
 40
0.2
 40
0.2
 40
0.2
 40
0.3
 40
0.3
 40
0.3
 40
0.3
 40
0.4
 40
0.4
 40
0.4
 40
0.4
 40
0.5
 40
0.5
 40
0.5
 40
0.5
 40
0.6
 40
0.6
 40
0.6
 40
0.6
 40
0.7
 40
0.7
 40
0.7
 40
0.7
 40
0.8
 40
0.8
 40
0.8
 40
0.8
 40
1.0
 40
1.0
 40
1.0
 40
1.0
 10
0.30129
 20
-2.87026
 30
0.0
 10
0.30129
 20
-2.87026
 30
0.0
 10
0.78843
 20
-3.29905
 30
0.0
 10
0.78843
 20
-3.29905
 30
0.0
 10
0.78843
 20
-3.29905
 30
0.0
 10
0.78843
 20
-3.29905
 30
0.0
 10
1.30332
 20
-2.71409
 30
0.0
 10
1.30332
 20
-2.71409
 30
0.0
 10
1.30332
 20
-2.71409
 30
0.0
 10
1.30332
 20
-2.71409
 30
0.0
 10
0.76014
 20
-2.23598
 30
0.0
 10
0.76014
 20
-2.23598
 30
0.0
 10
0.76014
 20
-2.23598
 30
0.0
 10
0.76014
 20
-2.23598
 30
0.0
 10
0.76021
 20
-2.23591
 30
0.0
 10
0.76021
 20
-2.23591
 30
0.0
 10
0.76021
 20
-2.23591
 30
0.0
 10
0.76021
 20
-2.23591
 30
0.0
 10
0.76014
 20
-2.23584
 30
0.0
 10
0.76014
 20
-2.23584
 30
0.0
 10
0.76014
 20
-2.23584
 30
0.0
 10
0.76014
 20
-2.23584
 30
0.0
 10
1.38538
 20
-1.52552
 30
0.0
 10
1.38538
 20
-1.52552
 30
0.0
 10
1.38538
 20
-1.52552
 30
0.0
 10
1.38538
 20
-1.52552
 30
0.0
 10
0.80042
 20
-1.01062
 30
0.0
 10
0.80042
 20
-1.01062
 30
0.0
 10
0.80042
 20
-1.01062
 30
0.0
 10
0.80042
 20
-1.01062
 30
0.0
 10
0.30129
 20
-1.57768
 30
0.0
 10
0.30129
 20
-1.57768
 30
0.0
 10
0.30129
 20
-1.57768
 30
0.0
 10
0.30129
 20
-1.57768
 30
0.0
 10
0.30129
 20
-2.87026
 30
0.0
 10
0.30129
 20
-2.87026
 30
0.0
  0
SPLINE
  5
97
330
1F
100
AcDbEntity
  8
Layer 1
 62
   242
100
AcDbSpline
210
0.0
220
0.0
230
1.0
 70
    11
 71
     3
 72
    16
 73
    12
 74
     0
 42
0.0000000001
 43
0.0000000001
 12
1.0
 22
0.0
 32
0.0
 13
1.0
 23
0.0
 33
0.0
 40
0.0
 40
0.0
 40
0.0
 40
0.0
 40
0.25
 40
0.25
 40
0.25
 40
0.25
 40
0.5
 40
0.5
 40
0.5
 40
0.5
 40
1.0
 40
1.0
 40
1.0
 40
1.0
 10
0.30129
 20
-1.32475
 30
0.0
 10
0.30129
 20
-1.32475
 30
0.0
 10
0.67504
 20
-0.90013
 30
0.0
 10
0.67504
 20
-0.90013
 30
0.0
 10
0.67504
 20
-0.90013
 30
0.0
 10
0.67504
 20
-0.90013
 30
0.0
 10
0.30129
 20
-0.57115
 30
0.0
 10
0.30129
 20
-0.57115
 30
0.0
 10
0.30129
 20
-0.57115
 30
0.0
 10
0.30129
 20
-0.57115
 30
0.0
 10
0.30129
 20
-1.32475
 30
0.0
 10
0.30129
 20
-1.32475
 30
0.0
  0
SPLINE
  5
98
330
1F
100
AcDbEntity
  8
Layer 1
 62
   242
100
AcDbSpline
210
0.0
220
0.0
230
1.0
 70
    11
 71
     3
 72
    16
 73
    12
 74
     0
 42
0.0000000001
 43
0.0000000001
 12
1.0
 22
0.0
 32
0.0
 13
1.0
 23
0.0
 33
0.0
 40
0.0
 40
0.0
 40
0.0
 40
0.0
 40
0.25
 40
0.25
 40
0.25
 40
0.25
 40
0.5
 40
0.5
 40
0.5
 40
0.5
 40
1.0
 40
1.0
 40
1.0
 40
1.0
 10
0.30129
 20
0.10748
 30
0.0
 10
0.30129
 20
0.10748
 30
0.0
 10
0.59002
 20
0.4355
 30
0.0
 10
0.59002
 20
0.4355
 30
0.0
 10
0.59002
 20
0.4355
 30
0.0
 10
0.59002
 20
0.4355
 30
0.0
 10
0.30129
 20
0.68964
 30
0.0
 10
0.30129
 20
0.68964
 30
0.0
 10
0.30129
 20
0.68964
 30
0.0
 10
0.30129
 20
0.68964
 30
0.0
 10
0.30129
 20
0.10748
 30
0.0
 10
0.30129
 20
0.10748
 30
0.0
  0
SPLINE
  5
99
330
1F
100
AcDbEntity
  8
Layer 1
 62
   242
100
AcDbSpline
210
0.0
220
0.0
230
1.0
 70
    11
 71
     3
 72
    16
 73
    12
 74
     0
 42
0.0000000001
 43
0.0000000001
 12
1.0
 22
0.0
 32
0.0
 13
1.0
 23
0.0
 33
0.0
 40
0.0
 40
0.0
 40
0.0
 40
0.0
 40
0.25
 40
0.25
 40
0.25
 40
0.25
 40
0.5
 40
0.5
 40
0.5
 40
0.5
 40
1.0
 40
1.0
 40
1.0
 40
1.0
 10
0.30129
 20
1.20282
 30
0.0
 10
0.30129
 20
1.20282
 30
0.0
 10
0.67208
 20
1.62408
 30
0.0
 10
0.67208
 20
1.62408
 30
0.0
 10
0.67208
 20
1.62408
 30
0.0
 10
0.67208
 20
1.62408
 30
0.0
 10
0.30129
 20
1.95046
 30
0.0
 10
0.30129
 20
1.95046
 30
0.0
 10
0.30129
 20
1.95046
 30
0.0
 10
0.30129
 20
1.95046
 30
0.0
 10
0.30129
 20
1.20282
 30
0.0
 10
0.30129
 20
1.20282
 30
0.0
  0
SPLINE
  5
9A
330
1F
100
AcDbEntity
  8
Layer 1
 62
   242
100
AcDbSpline
210
0.0
220
0.0
230
1.0
 70
    11
 71
     3
 72
    52
 73
    48
 74
     0
 42
0.0000000001
 43
0.0000000001
 12
1.0
 22
0.0
 32
0.0
 13
1.0
 23
0.0
 33
0.0
 40
0.0
 40
0.0
 40
0.0
 40
0.0
 40
0.0769230769230769
 40
0.0769230769230769
 40
0.0769230769230769
 40
0.0769230769230769
 40
0.1538461538461539
 40
0.1538461538461539
 40
0.1538461538461539
 40
0.1538461538461539
 40
0.2307692307692308
 40
0.2307692307692308
 40
0.2307692307692308
 40
0.2307692307692308
 40
0.3076923076923077
 40
0.3076923076923077
 40
0.3076923076923077
 40
0.3076923076923077
 40
0.3846153846153846
 40
0.3846153846153846
 40
0.3846153846153846
 40
0.3846153846153846
 40
0.4615384615384616
 40
0.4615384615384616
 40
0.4615384615384616
 40
0.4615384615384616
 40
0.5384615384615384
 40
0.5384615384615384
 40
0.5384615384615384
 40
0.5384615384615384
 40
0.6153846153846154
 40
0.6153846153846154
 40
0.6153846153846154
 40
0.6153846153846154
 40
0.6923076923076923
 40
0.6923076923076923
 40
0.6923076923076923
 40
0.6923076923076923
 40
0.7692307692307693
 40
0.7692307692307693
 40
0.7692307692307693
 40
0.7692307692307693
 40
0.8461538461538461
 40
0.8461538461538461
 40
0.8461538461538461
 40
0.8461538461538461
 40
1.0
 40
1.0
 40
1.0
 40
1.0
 10
0.30129
 20
2.46961
 30
0.0
 10
0.30129
 20
2.46961
 30
0.0
 10
0.5116
 20
2.28448
 30
0.0
 10
0.5116
 20
2.28448
 30
0.0
 10
0.5116
 20
2.28448
 30
0.0
 10
0.5116
 20
2.28448
 30
0.0
 10
0.98979
 20
2.82773
 30
0.0
 10
0.98979
 20
2.82773
 30
0.0
 10
0.98979
 20
2.82773
 30
0.0
 10
0.98979
 20
2.82773
 30
0.0
 10
0.98985
 20
2.82767
 30
0.0
 10
0.98985
 20
2.82767
 30
0.0
 10
0.98985
 20
2.82767
 30
0.0
 10
0.98985
 20
2.82767
 30
0.0
 10
1.70018
 20
2.20243
 30
0.0
 10
1.70018
 20
2.20243
 30
0.0
 10
1.70018
 20
2.20243
 30
0.0
 10
1.70018
 20
2.20243
 30
0.0
 10
2.21514
 20
2.78746
 30
0.0
 10
2.21514
 20
2.78746
 30
0.0
 10
2.21514
 20
2.78746
 30
0.0
 10
2.21514
 20
2.78746
 30
0.0
 10
1.5048
 20
3.4127
 30
0.0
 10
1.5048
 20
3.4127
 30
0.0
 10
1.5048
 20
3.4127
 30
0.0
 10
1.5048
 20
3.4127
 30
0.0
 10
2.13012
 20
4.1231
 30
0.0
 10
2.13012
 20
4.1231
 30
0.0
 10
2.13012
 20
4.1231
 30
0.0
 10
2.13012
 20
4.1231
 30
0.0
 10
1.58686
 20
4.60127
 30
0.0
 10
1.58686
 20
4.60127
 30
0.0
 10
1.58686
 20
4.60127
 30
0.0
 10
1.58686
 20
4.60127
 30
0.0
 10
1.54508
 20
4.63805
 30
0.0
 10
1.54508
 20
4.63805
 30
0.0
 10
1.54508
 20
4.63805
 30
0.0
 10
1.54508
 20
4.63805
 30
0.0
 10
1.2876
 20
4.34553
 30
0.0
 10
1.2876
 20
4.34553
 30
0.0
 10
1.2876
 20
4.34553
 30
0.0
 10
1.2876
 20
4.34553
 30
0.0
 10
0.30129
 20
3.225
 30
0.0
 10
0.30129
 20
3.225
 30
0.0
 10
0.30129
 20
3.225
 30
0.0
 10
0.30129
 20
3.225
 30
0.0
 10
0.30129
 20
2.46961
 30
0.0
 10
0.30129
 20
2.46961
 30
0.0
  0
SPLINE
  5
9B
330
1F
100
AcDbEntity
  8
Layer 1
 62
   242
100
AcDbSpline
210
0.0
220
0.0
230
1.0
 70
    11
 71
     3
 72
    20
 73
    16
 74
     0
 42
0.0000000001
 43
0.0000000001
 12
1.0
 22
0.0
 32
0.0
 13
1.0
 23
0.0
 33
0.0
 40
0.0
 40
0.0
 40
0.0
 40
0.0
 40
0.2
 40
0.2
 40
0.2
 40
0.2
 40
0.4
 40
0.4
 40
0.4
 40
0.4
 40
0.6
 40
0.6
 40
0.6
 40
0.6
 40
1.0
 40
1.0
 40
1.0
 40
1.0
 10
0.30129
 20
3.47778
 30
0.0
 10
0.30129
 20
3.47778
 30
0.0
 10
1.05182
 20
4.33044
 30
0.0
 10
1.05182
 20
4.33044
 30
0.0
 10
1.05182
 20
4.33044
 30
0.0
 10
1.05182
 20
4.33044
 30
0.0
 10
0.4668
 20
4.84541
 30
0.0
 10
0.4668
 20
4.84541
 30
0.0
 10
0.4668
 20
4.84541
 30
0.0
 10
0.4668
 20
4.84541
 30
0.0
 10
0.30129
 20
4.65737
 30
0.0
 10
0.30129
 20
4.65737
 30
0.0
 10
0.30129
 20
4.65737
 30
0.0
 10
0.30129
 20
4.65737
 30
0.0
 10
0.30129
 20
3.47778
 30
0.0
 10
0.30129
 20
3.47778
 30
0.0
  0
SPLINE
  5
9C
330
1F
100
AcDbEntity
  8
Layer 1
 62
   242
100
AcDbSpline
210
0.0
220
0.0
230
1.0
 70
    11
 71
     3
 72
    20
 73
    16
 74
     0
 42
0.0000000001
 43
0.0000000001
 12
1.0
 22
0.0
 32
0.0
 13
1.0
 23
0.0
 33
0.0
 40
0.0
 40
0.0
 40
0.0
 40
0.0
 40
0.2
 40
0.2
 40
0.2
 40
0.2
 40
0.4
 40
0.4
 40
0.4
 40
0.4
 40
0.6
 40
0.6
 40
0.6
 40
0.6
 40
1.0
 40
1.0
 40
1.0
 40
1.0
 10
0.30129
 20
4.91015
 30
0.0
 10
0.30129
 20
4.91015
 30
0.0
 10
0.45178
 20
5.08112
 30
0.0
 10
0.45178
 20
5.08112
 30
0.0
 10
0.45178
 20
5.08112
 30
0.0
 10
0.45178
 20
5.08112
 30
0.0
 10
0.48863
 20
5.12298
 30
0.0
 10
0.48863
 20
5.12298
 30
0.0
 10
0.48863
 20
5.12298
 30
0.0
 10
0.48863
 20
5.12298
 30
0.0
 10
0.30129
 20
5.28788
 30
0.0
 10
0.30129
 20
5.28788
 30
0.0
 10
0.30129
 20
5.28788
 30
0.0
 10
0.30129
 20
5.28788
 30
0.0
 10
0.30129
 20
4.91015
 30
0.0
 10
0.30129
 20
4.91015
 30
0.0
  0
SPLINE
  5
9D
330
1F
100
AcDbEntity
  8
Layer 1
 62
   242
100
AcDbSpline
210
0.0
220
0.0
230
1.0
 70
    11
 71
     3
 72
    16
 73
    12
 74
     0
 42
0.0000000001
 43
0.0000000001
 12
1.0
 22
0.0
 32
0.0
 13
1.0
 23
0.0
 33
0.0
 40
0.0
 40
0.0
 40
0.0
 40
0.0
 40
0.25
 40
0.25
 40
0.25
 40
0.25
 40
0.5
 40
0.5
 40
0.5
 40
0.5
 40
1.0
 40
1.0
 40
1.0
 40
1.0
 10
0.30129
 20
5.75287
 30
0.0
 10
0.30129
 20
5.75287
 30
0.0
 10
0.69592
 20
6.2012
 30
0.0
 10
0.69592
 20
6.2012
 30
0.0
 10
0.69592
 20
6.2012
 30
0.0
 10
0.69592
 20
6.2012
 30
0.0
 10
0.30129
 20
6.54855
 30
0.0
 10
0.30129
 20
6.54855
 30
0.0
 10
0.30129
 20
6.54855
 30
0.0
 10
0.30129
 20
6.54855
 30
0.0
 10
0.30129
 20
5.75287
 30
0.0
 10
0.30129
 20
5.75287
 30
0.0
  0
SPLINE
  5
9E
330
1F
100
AcDbEntity
  8
Layer 1
 62
   242
100
AcDbSpline
210
0.0
220
0.0
230
1.0
 70
    11
 71
     3
 72
    16
 73
    12
 74
     0
 42
0.0000000001
 43
0.0000000001
 12
1.0
 22
0.0
 32
0.0
 13
1.0
 23
0.0
 33
0.0
 40
0.0
 40
0.0
 40
0.0
 40
0.0
 40
0.25
 40
0.25
 40
0.25
 40
0.25
 40
0.5
 40
0.5
 40
0.5
 40
0.5
 40
1.0
 40
1.0
 40
1.0
 40
1.0
 10
0.30129
 20
6.84822
 30
0.0
 10
0.30129
 20
6.84822
 30
0.0
 10
0.77797
 20
7.38977
 30
0.0
 10
0.77797
 20
7.38977
 30
0.0
 10
0.77797
 20
7.38977
 30
0.0
 10
0.77797
 20
7.38977
 30
0.0
 10
0.30129
 20
7.80937
 30
0.0
 10
0.30129
 20
7.80937
 30
0.0
 10
0.30129
 20
7.80937
 30
0.0
 10
0.30129
 20
7.80937
 30
0.0
 10
0.30129
 20
6.84822
 30
0.0
 10
0.30129
 20
6.84822
 30
0.0
  0
SPLINE
  5
9F
330
1F
100
AcDbEntity
  8
Layer 1
 62
   242
100
AcDbSpline
210
0.0
220
0.0
230
1.0
 70
    11
 71
     3
 72
    36
 73
    32
 74
     0
 42
0.0000000001
 43
0.0000000001
 12
1.0
 22
0.0
 32
0.0
 13
1.0
 23
0.0
 33
0.0
 40
0.0
 40
0.0
 40
0.0
 40
0.0
 40
0.1111111111111111
 40
0.1111111111111111
 40
0.1111111111111111
 40
0.1111111111111111
 40
0.2222222222222222
 40
0.2222222222222222
 40
0.2222222222222222
 40
0.2222222222222222
 40
0.3333333333333333
 40
0.3333333333333333
 40
0.3333333333333333
 40
0.3333333333333333
 40
0.4444444444444444
 40
0.4444444444444444
 40
0.4444444444444444
 40
0.4444444444444444
 40
0.5555555555555556
 40
0.5555555555555556
 40
0.5555555555555556
 40
0.5555555555555556
 40
0.6666666666666666
 40
0.6666666666666666
 40
0.6666666666666666
 40
0.6666666666666666
 40
0.7777777777777778
 40
0.7777777777777778
 40
0.7777777777777778
 40
0.7777777777777778
 40
1.0
 40
1.0
 40
1.0
 40
1.0
 10
0.30129
 20
8.28045
 30
0.0
 10
0.30129
 20
8.28045
 30
0.0
 10
0.8033
 20
8.85078
 30
0.0
 10
0.8033
 20
8.85078
 30
0.0
 10
0.8033
 20
8.85078
 30
0.0
 10
0.8033
 20
8.85078
 30
0.0
 10
0.80336
 20
8.85085
 30
0.0
 10
0.80336
 20
8.85085
 30
0.0
 10
0.80336
 20
8.85085
 30
0.0
 10
0.80336
 20
8.85085
 30
0.0
 10
1.51376
 20
8.22554
 30
0.0
 10
1.51376
 20
8.22554
 30
0.0
 10
1.51376
 20
8.22554
 30
0.0
 10
1.51376
 20
8.22554
 30
0.0
 10
1.99187
 20
8.76872
 30
0.0
 10
1.99187
 20
8.76872
 30
0.0
 10
1.99187
 20
8.76872
 30
0.0
 10
1.99187
 20
8.76872
 30
0.0
 10
2.02871
 20
8.81058
 30
0.0
 10
2.02871
 20
8.81058
 30
0.0
 10
2.02871
 20
8.81058
 30
0.0
 10
2.02871
 20
8.81058
 30
0.0
 10
1.7362
 20
9.06805
 30
0.0
 10
1.7362
 20
9.06805
 30
0.0
 10
1.7362
 20
9.06805
 30
0.0
 10
1.7362
 20
9.06805
 30
0.0
 10
0.30129
 20
10.33109
 30
0.0
 10
0.30129
 20
10.33109
 30
0.0
 10
0.30129
 20
10.33109
 30
0.0
 10
0.30129
 20
10.33109
 30
0.0
 10
0.30129
 20
8.28045
 30
0.0
 10
0.30129
 20
8.28045
 30
0.0
  0
SPLINE
  5
A0
330
1F
100
AcDbEntity
  8
Layer 1
 62
   242
100
AcDbSpline
210
0.0
220
0.0
230
1.0
 70
    11
 71
     3
 72
    60
 73
    56
 74
     0
 42
0.0000000001
 43
0.0000000001
 12
1.0
 22
0.0
 32
0.0
 13
1.0
 23
0.0
 33
0.0
 40
0.0
 40
0.0
 40
0.0
 40
0.0
 40
0.0666666666666667
 40
0.0666666666666667
 40
0.0666666666666667
 40
0.0666666666666667
 40
0.1333333333333333
 40
0.1333333333333333
 40
0.1333333333333333
 40
0.1333333333333333
 40
0.2
 40
0.2
 40
0.2
 40
0.2
 40
0.2666666666666667
 40
0.2666666666666667
 40
0.2666666666666667
 40
0.2666666666666667
 40
0.3333333333333333
 40
0.3333333333333333
 40
0.3333333333333333
 40
0.3333333333333333
 40
0.4
 40
0.4
 40
0.4
 40
0.4
 40
0.4666666666666667
 40
0.4666666666666667
 40
0.4666666666666667
 40
0.4666666666666667
 40
0.5333333333333333
 40
0.5333333333333333
 40
0.5333333333333333
 40
0.5333333333333333
 40
0.6
 40
0.6
 40
0.6
 40
0.6
 40
0.6666666666666666
 40
0.6666666666666666
 40
0.6666666666666666
 40
0.6666666666666666
 40
0.7333333333333333
 40
0.7333333333333333
 40
0.7333333333333333
 40
0.7333333333333333
 40
0.8
 40
0.8
 40
0.8
 40
0.8
 40
0.8666666666666667
 40
0.8666666666666667
 40
0.8666666666666667
 40
0.8666666666666667
 40
1.0
 40
1.0
 40
1.0
 40
1.0
 10
5.9236
 20
8.3487
 30
0.0
 10
5.9236
 20
8.3487
 30
0.0
 10
5.38044
 20
8.82681
 30
0.0
 10
5.38044
 20
8.82681
 30
0.0
 10
5.38044
 20
8.82681
 30
0.0
 10
5.38044
 20
8.82681
 30
0.0
 10
5.38049
 20
8.82688
 30
0.0
 10
5.38049
 20
8.82688
 30
0.0
 10
5.38049
 20
8.82688
 30
0.0
 10
5.38049
 20
8.82688
 30
0.0
 10
5.38041
 20
8.82695
 30
0.0
 10
5.38041
 20
8.82695
 30
0.0
 10
5.38041
 20
8.82695
 30
0.0
 10
5.38041
 20
8.82695
 30
0.0
 10
6.00567
 20
9.53728
 30
0.0
 10
6.00567
 20
9.53728
 30
0.0
 10
6.00567
 20
9.53728
 30
0.0
 10
6.00567
 20
9.53728
 30
0.0
 10
5.42071
 20
10.05217
 30
0.0
 10
5.42071
 20
10.05217
 30
0.0
 10
5.42071
 20
10.05217
 30
0.0
 10
5.42071
 20
10.05217
 30
0.0
 10
4.79545
 20
9.34184
 30
0.0
 10
4.79545
 20
9.34184
 30
0.0
 10
4.79545
 20
9.34184
 30
0.0
 10
4.79545
 20
9.34184
 30
0.0
 10
4.79538
 20
9.3419
 30
0.0
 10
4.79538
 20
9.3419
 30
0.0
 10
4.79538
 20
9.3419
 30
0.0
 10
4.79538
 20
9.3419
 30
0.0
 10
4.08505
 20
9.96715
 30
0.0
 10
4.08505
 20
9.96715
 30
0.0
 10
4.08505
 20
9.96715
 30
0.0
 10
4.08505
 20
9.96715
 30
0.0
 10
3.60688
 20
9.42391
 30
0.0
 10
3.60688
 20
9.42391
 30
0.0
 10
3.60688
 20
9.42391
 30
0.0
 10
3.60688
 20
9.42391
 30
0.0
 10
3.60681
 20
9.42397
 30
0.0
 10
3.60681
 20
9.42397
 30
0.0
 10
3.60681
 20
9.42397
 30
0.0
 10
3.60681
 20
9.42397
 30
0.0
 10
3.57003
 20
9.38217
 30
0.0
 10
3.57003
 20
9.38217
 30
0.0
 10
3.57003
 20
9.38217
 30
0.0
 10
3.57003
 20
9.38217
 30
0.0
 10
3.86255
 20
9.12471
 30
0.0
 10
3.86255
 20
9.12471
 30
0.0
 10
3.86255
 20
9.12471
 30
0.0
 10
3.86255
 20
9.12471
 30
0.0
 10
5.40871
 20
7.76373
 30
0.0
 10
5.40871
 20
7.76373
 30
0.0
 10
5.40871
 20
7.76373
 30
0.0
 10
5.40871
 20
7.76373
 30
0.0
 10
5.9236
 20
8.3487
 30
0.0
 10
5.9236
 20
8.3487
 30
0.0
  0
SPLINE
  5
A1
330
1F
100
AcDbEntity
  8
Layer 1
 62
   242
100
AcDbSpline
210
0.0
220
0.0
230
1.0
 70
    11
 71
     3
 72
    52
 73
    48
 74
     0
 42
0.0000000001
 43
0.0000000001
 12
1.0
 22
0.0
 32
0.0
 13
1.0
 23
0.0
 33
0.0
 40
0.0
 40
0.0
 40
0.0
 40
0.0
 40
0.0769230769230769
 40
0.0769230769230769
 40
0.0769230769230769
 40
0.0769230769230769
 40
0.1538461538461539
 40
0.1538461538461539
 40
0.1538461538461539
 40
0.1538461538461539
 40
0.2307692307692308
 40
0.2307692307692308
 40
0.2307692307692308
 40
0.2307692307692308
 40
0.3076923076923077
 40
0.3076923076923077
 40
0.3076923076923077
 40
0.3076923076923077
 40
0.3846153846153846
 40
0.3846153846153846
 40
0.3846153846153846
 40
0.3846153846153846
 40
0.4615384615384616
 40
0.4615384615384616
 40
0.4615384615384616
 40
0.4615384615384616
 40
0.5384615384615384
 40
0.5384615384615384
 40
0.5384615384615384
 40
0.5384615384615384
 40
0.6153846153846154
 40
0.6153846153846154
 40
0.6153846153846154
 40
0.6153846153846154
 40
0.6923076923076923
 40
0.6923076923076923
 40
0.6923076923076923
 40
0.6923076923076923
 40
0.7692307692307693
 40
0.7692307692307693
 40
0.7692307692307693
 40
0.7692307692307693
 40
0.8461538461538461
 40
0.8461538461538461
 40
0.8461538461538461
 40
0.8461538461538461
 40
1.0
 40
1.0
 40
1.0
 40
1.0
 10
3.48144
 20
9.53431
 30
0.0
 10
3.48144
 20
9.53431
 30
0.0
 10
2.89649
 20
10.04921
 30
0.0
 10
2.89649
 20
10.04921
 30
0.0
 10
2.89649
 20
10.04921
 30
0.0
 10
2.89649
 20
10.04921
 30
0.0
 10
2.52859
 20
9.63125
 30
0.0
 10
2.52859
 20
9.63125
 30
0.0
 10
2.52859
 20
9.63125
 30
0.0
 10
2.52859
 20
9.63125
 30
0.0
 10
2.36138
 20
9.77845
 30
0.0
 10
2.36138
 20
9.77845
 30
0.0
 10
2.36138
 20
9.77845
 30
0.0
 10
2.36138
 20
9.77845
 30
0.0
 10
1.84647
 20
9.19349
 30
0.0
 10
1.84647
 20
9.19349
 30
0.0
 10
1.84647
 20
9.19349
 30
0.0
 10
1.84647
 20
9.19349
 30
0.0
 10
2.26443
 20
8.82559
 30
0.0
 10
2.26443
 20
8.82559
 30
0.0
 10
2.26443
 20
8.82559
 30
0.0
 10
2.26443
 20
8.82559
 30
0.0
 10
2.11724
 20
8.65837
 30
0.0
 10
2.11724
 20
8.65837
 30
0.0
 10
2.11724
 20
8.65837
 30
0.0
 10
2.11724
 20
8.65837
 30
0.0
 10
2.70228
 20
8.14341
 30
0.0
 10
2.70228
 20
8.14341
 30
0.0
 10
2.70228
 20
8.14341
 30
0.0
 10
2.70228
 20
8.14341
 30
0.0
 10
3.07016
 20
8.56137
 30
0.0
 10
3.07016
 20
8.56137
 30
0.0
 10
3.07016
 20
8.56137
 30
0.0
 10
3.07016
 20
8.56137
 30
0.0
 10
3.23731
 20
8.41423
 30
0.0
 10
3.23731
 20
8.41423
 30
0.0
 10
3.23731
 20
8.41423
 30
0.0
 10
3.23731
 20
8.41423
 30
0.0
 10
3.75226
 20
8.99926
 30
0.0
 10
3.75226
 20
8.99926
 30
0.0
 10
3.75226
 20
8.99926
 30
0.0
 10
3.75226
 20
8.99926
 30
0.0
 10
3.33432
 20
9.36716
 30
0.0
 10
3.33432
 20
9.36716
 30
0.0
 10
3.33432
 20
9.36716
 30
0.0
 10
3.33432
 20
9.36716
 30
0.0
 10
3.48144
 20
9.53431
 30
0.0
 10
3.48144
 20
9.53431
 30
0.0
  0
SPLINE
  5
A2
330
1F
100
AcDbEntity
  8
Layer 1
 62
   242
100
AcDbSpline
210
0.0
220
0.0
230
1.0
 70
    11
 71
     3
 72
    56
 73
    52
 74
     0
 42
0.0000000001
 43
0.0000000001
 12
1.0
 22
0.0
 32
0.0
 13
1.0
 23
0.0
 33
0.0
 40
0.0
 40
0.0
 40
0.0
 40
0.0
 40
0.0714285714285714
 40
0.0714285714285714
 40
0.0714285714285714
 40
0.0714285714285714
 40
0.1428571428571428
 40
0.1428571428571428
 40
0.1428571428571428
 40
0.1428571428571428
 40
0.2142857142857143
 40
0.2142857142857143
 40
0.2142857142857143
 40
0.2142857142857143
 40
0.2857142857142857
 40
0.2857142857142857
 40
0.2857142857142857
 40
0.2857142857142857
 40
0.3571428571428572
 40
0.3571428571428572
 40
0.3571428571428572
 40
0.3571428571428572
 40
0.4285714285714285
 40
0.4285714285714285
 40
0.4285714285714285
 40
0.4285714285714285
 40
0.5
 40
0.5
 40
0.5
 40
0.5
 40
0.5714285714285714
 40
0.5714285714285714
 40
0.5714285714285714
 40
0.5714285714285714
 40
0.6428571428571429
 40
0.6428571428571429
 40
0.6428571428571429
 40
0.6428571428571429
 40
0.7142857142857143
 40
0.7142857142857143
 40
0.7142857142857143
 40
0.7142857142857143
 40
0.7857142857142857
 40
0.7857142857142857
 40
0.7857142857142857
 40
0.7857142857142857
 40
0.8571428571428571
 40
0.8571428571428571
 40
0.8571428571428571
 40
0.8571428571428571
 40
1.0
 40
1.0
 40
1.0
 40
1.0
 10
4.80661
 20
-8.17091
 30
0.0
 10
4.80661
 20
-8.17091
 30
0.0
 10
5.2848
 20
-7.62767
 30
0.0
 10
5.2848
 20
-7.62767
 30
0.0
 10
5.2848
 20
-7.62767
 30
0.0
 10
5.2848
 20
-7.62767
 30
0.0
 10
5.28486
 20
-7.62772
 30
0.0
 10
5.28486
 20
-7.62772
 30
0.0
 10
5.28486
 20
-7.62772
 30
0.0
 10
5.28486
 20
-7.62772
 30
0.0
 10
5.99519
 20
-8.25296
 30
0.0
 10
5.99519
 20
-8.25296
 30
0.0
 10
5.99519
 20
-8.25296
 30
0.0
 10
5.99519
 20
-8.25296
 30
0.0
 10
6.31372
 20
-7.89109
 30
0.0
 10
6.31372
 20
-7.89109
 30
0.0
 10
6.31372
 20
-7.89109
 30
0.0
 10
6.31372
 20
-7.89109
 30
0.0
 10
6.31372
 20
-7.49502
 30
0.0
 10
6.31372
 20
-7.49502
 30
0.0
 10
6.31372
 20
-7.49502
 30
0.0
 10
6.31372
 20
-7.49502
 30
0.0
 10
5.79982
 20
-7.04269
 30
0.0
 10
5.79982
 20
-7.04269
 30
0.0
 10
5.79982
 20
-7.04269
 30
0.0
 10
5.79982
 20
-7.04269
 30
0.0
 10
6.31372
 20
-6.45886
 30
0.0
 10
6.31372
 20
-6.45886
 30
0.0
 10
6.31372
 20
-6.45886
 30
0.0
 10
6.31372
 20
-6.45886
 30
0.0
 10
6.31372
 20
-6.23421
 30
0.0
 10
6.31372
 20
-6.23421
 30
0.0
 10
6.31372
 20
-6.23421
 30
0.0
 10
6.31372
 20
-6.23421
 30
0.0
 10
5.88188
 20
-5.85411
 30
0.0
 10
5.88188
 20
-5.85411
 30
0.0
 10
5.88188
 20
-5.85411
 30
0.0
 10
5.88188
 20
-5.85411
 30
0.0
 10
5.84009
 20
-5.81733
 30
0.0
 10
5.84009
 20
-5.81733
 30
0.0
 10
5.84009
 20
-5.81733
 30
0.0
 10
5.84009
 20
-5.81733
 30
0.0
 10
5.58261
 20
-6.10984
 30
0.0
 10
5.58261
 20
-6.10984
 30
0.0
 10
5.58261
 20
-6.10984
 30
0.0
 10
5.58261
 20
-6.10984
 30
0.0
 10
4.22166
 20
-7.65602
 30
0.0
 10
4.22166
 20
-7.65602
 30
0.0
 10
4.22166
 20
-7.65602
 30
0.0
 10
4.22166
 20
-7.65602
 30
0.0
 10
4.80661
 20
-8.17091
 30
0.0
 10
4.80661
 20
-8.17091
 30
0.0
  0
SPLINE
  5
A3
330
1F
100
AcDbEntity
  8
Layer 1
 62
   242
100
AcDbSpline
210
0.0
220
0.0
230
1.0
 70
    11
 71
     3
 72
    56
 73
    52
 74
     0
 42
0.0000000001
 43
0.0000000001
 12
1.0
 22
0.0
 32
0.0
 13
1.0
 23
0.0
 33
0.0
 40
0.0
 40
0.0
 40
0.0
 40
0.0
 40
0.0714285714285714
 40
0.0714285714285714
 40
0.0714285714285714
 40
0.0714285714285714
 40
0.1428571428571428
 40
0.1428571428571428
 40
0.1428571428571428
 40
0.1428571428571428
 40
0.2142857142857143
 40
0.2142857142857143
 40
0.2142857142857143
 40
0.2142857142857143
 40
0.2857142857142857
 40
0.2857142857142857
 40
0.2857142857142857
 40
0.2857142857142857
 40
0.3571428571428572
 40
0.3571428571428572
 40
0.3571428571428572
 40
0.3571428571428572
 40
0.4285714285714285
 40
0.4285714285714285
 40
0.4285714285714285
 40
0.4285714285714285
 40
0.5
 40
0.5
 40
0.5
 40
0.5
 40
0.5714285714285714
 40
0.5714285714285714
 40
0.5714285714285714
 40
0.5714285714285714
 40
0.6428571428571429
 40
0.6428571428571429
 40
0.6428571428571429
 40
0.6428571428571429
 40
0.7142857142857143
 40
0.7142857142857143
 40
0.7142857142857143
 40
0.7142857142857143
 40
0.7857142857142857
 40
0.7857142857142857
 40
0.7857142857142857
 40
0.7857142857142857
 40
0.8571428571428571
 40
0.8571428571428571
 40
0.8571428571428571
 40
0.8571428571428571
 40
1.0
 40
1.0
 40
1.0
 40
1.0
 10
5.99223
 20
-5.72875
 30
0.0
 10
5.99223
 20
-5.72875
 30
0.0
 10
6.31372
 20
-5.36351
 30
0.0
 10
6.31372
 20
-5.36351
 30
0.0
 10
6.31372
 20
-5.36351
 30
0.0
 10
6.31372
 20
-5.36351
 30
0.0
 10
6.31372
 20
-4.97341
 30
0.0
 10
6.31372
 20
-4.97341
 30
0.0
 10
6.31372
 20
-4.97341
 30
0.0
 10
6.31372
 20
-4.97341
 30
0.0
 10
6.08923
 20
-4.77582
 30
0.0
 10
6.08923
 20
-4.77582
 30
0.0
 10
6.08923
 20
-4.77582
 30
0.0
 10
6.08923
 20
-4.77582
 30
0.0
 10
6.23637
 20
-4.60866
 30
0.0
 10
6.23637
 20
-4.60866
 30
0.0
 10
6.23637
 20
-4.60866
 30
0.0
 10
6.23637
 20
-4.60866
 30
0.0
 10
5.6514
 20
-4.09377
 30
0.0
 10
5.6514
 20
-4.09377
 30
0.0
 10
5.6514
 20
-4.09377
 30
0.0
 10
5.6514
 20
-4.09377
 30
0.0
 10
5.28351
 20
-4.51172
 30
0.0
 10
5.28351
 20
-4.51172
 30
0.0
 10
5.28351
 20
-4.51172
 30
0.0
 10
5.28351
 20
-4.51172
 30
0.0
 10
5.11629
 20
-4.36454
 30
0.0
 10
5.11629
 20
-4.36454
 30
0.0
 10
5.11629
 20
-4.36454
 30
0.0
 10
5.11629
 20
-4.36454
 30
0.0
 10
4.6014
 20
-4.9495
 30
0.0
 10
4.6014
 20
-4.9495
 30
0.0
 10
4.6014
 20
-4.9495
 30
0.0
 10
4.6014
 20
-4.9495
 30
0.0
 10
5.01934
 20
-5.31738
 30
0.0
 10
5.01934
 20
-5.31738
 30
0.0
 10
5.01934
 20
-5.31738
 30
0.0
 10
5.01934
 20
-5.31738
 30
0.0
 10
4.87216
 20
-5.48461
 30
0.0
 10
4.87216
 20
-5.48461
 30
0.0
 10
4.87216
 20
-5.48461
 30
0.0
 10
4.87216
 20
-5.48461
 30
0.0
 10
5.4572
 20
-5.99957
 30
0.0
 10
5.4572
 20
-5.99957
 30
0.0
 10
5.4572
 20
-5.99957
 30
0.0
 10
5.4572
 20
-5.99957
 30
0.0
 10
5.82508
 20
-5.58162
 30
0.0
 10
5.82508
 20
-5.58162
 30
0.0
 10
5.82508
 20
-5.58162
 30
0.0
 10
5.82508
 20
-5.58162
 30
0.0
 10
5.99223
 20
-5.72875
 30
0.0
 10
5.99223
 20
-5.72875
 30
0.0
  0
SPLINE
  5
A4
330
1F
100
AcDbEntity
  8
Layer 1
 62
   242
100
AcDbSpline
210
0.0
220
0.0
230
1.0
 70
    11
 71
     3
 72
    60
 73
    56
 74
     0
 42
0.0000000001
 43
0.0000000001
 12
1.0
 22
0.0
 32
0.0
 13
1.0
 23
0.0
 33
0.0
 40
0.0
 40
0.0
 40
0.0
 40
0.0
 40
0.0666666666666667
 40
0.0666666666666667
 40
0.0666666666666667
 40
0.0666666666666667
 40
0.1333333333333333
 40
0.1333333333333333
 40
0.1333333333333333
 40
0.1333333333333333
 40
0.2
 40
0.2
 40
0.2
 40
0.2
 40
0.2666666666666667
 40
0.2666666666666667
 40
0.2666666666666667
 40
0.2666666666666667
 40
0.3333333333333333
 40
0.3333333333333333
 40
0.3333333333333333
 40
0.3333333333333333
 40
0.4
 40
0.4
 40
0.4
 40
0.4
 40
0.4666666666666667
 40
0.4666666666666667
 40
0.4666666666666667
 40
0.4666666666666667
 40
0.5333333333333333
 40
0.5333333333333333
 40
0.5333333333333333
 40
0.5333333333333333
 40
0.6
 40
0.6
 40
0.6
 40
0.6
 40
0.6666666666666666
 40
0.6666666666666666
 40
0.6666666666666666
 40
0.6666666666666666
 40
0.7333333333333333
 40
0.7333333333333333
 40
0.7333333333333333
 40
0.7333333333333333
 40
0.8
 40
0.8
 40
0.8
 40
0.8
 40
0.8666666666666667
 40
0.8666666666666667
 40
0.8666666666666667
 40
0.8666666666666667
 40
1.0
 40
1.0
 40
1.0
 40
1.0
 10
3.05833
 20
-6.11288
 30
0.0
 10
3.05833
 20
-6.11288
 30
0.0
 10
3.76866
 20
-6.73813
 30
0.0
 10
3.76866
 20
-6.73813
 30
0.0
 10
3.76866
 20
-6.73813
 30
0.0
 10
3.76866
 20
-6.73813
 30
0.0
 10
3.76861
 20
-6.73819
 30
0.0
 10
3.76861
 20
-6.73819
 30
0.0
 10
3.76861
 20
-6.73819
 30
0.0
 10
3.76861
 20
-6.73819
 30
0.0
 10
3.76867
 20
-6.73825
 30
0.0
 10
3.76867
 20
-6.73825
 30
0.0
 10
3.76867
 20
-6.73825
 30
0.0
 10
3.76867
 20
-6.73825
 30
0.0
 10
3.14342
 20
-7.44859
 30
0.0
 10
3.14342
 20
-7.44859
 30
0.0
 10
3.14342
 20
-7.44859
 30
0.0
 10
3.14342
 20
-7.44859
 30
0.0
 10
3.68661
 20
-7.92669
 30
0.0
 10
3.68661
 20
-7.92669
 30
0.0
 10
3.68661
 20
-7.92669
 30
0.0
 10
3.68661
 20
-7.92669
 30
0.0
 10
3.68654
 20
-7.92677
 30
0.0
 10
3.68654
 20
-7.92677
 30
0.0
 10
3.68654
 20
-7.92677
 30
0.0
 10
3.68654
 20
-7.92677
 30
0.0
 10
3.72841
 20
-7.96362
 30
0.0
 10
3.72841
 20
-7.96362
 30
0.0
 10
3.72841
 20
-7.96362
 30
0.0
 10
3.72841
 20
-7.96362
 30
0.0
 10
3.98588
 20
-7.6711
 30
0.0
 10
3.98588
 20
-7.6711
 30
0.0
 10
3.98588
 20
-7.6711
 30
0.0
 10
3.98588
 20
-7.6711
 30
0.0
 10
5.34684
 20
-6.12494
 30
0.0
 10
5.34684
 20
-6.12494
 30
0.0
 10
5.34684
 20
-6.12494
 30
0.0
 10
5.34684
 20
-6.12494
 30
0.0
 10
4.76181
 20
-5.60998
 30
0.0
 10
4.76181
 20
-5.60998
 30
0.0
 10
4.76181
 20
-5.60998
 30
0.0
 10
4.76181
 20
-5.60998
 30
0.0
 10
4.28369
 20
-6.15315
 30
0.0
 10
4.28369
 20
-6.15315
 30
0.0
 10
4.28369
 20
-6.15315
 30
0.0
 10
4.28369
 20
-6.15315
 30
0.0
 10
4.28362
 20
-6.15323
 30
0.0
 10
4.28362
 20
-6.15323
 30
0.0
 10
4.28362
 20
-6.15323
 30
0.0
 10
4.28362
 20
-6.15323
 30
0.0
 10
3.57323
 20
-5.52791
 30
0.0
 10
3.57323
 20
-5.52791
 30
0.0
 10
3.57323
 20
-5.52791
 30
0.0
 10
3.57323
 20
-5.52791
 30
0.0
 10
3.05833
 20
-6.11288
 30
0.0
 10
3.05833
 20
-6.11288
 30
0.0
  0
SPLINE
  5
A5
330
1F
100
AcDbEntity
  8
Layer 1
 62
   242
100
AcDbSpline
210
0.0
220
0.0
230
1.0
 70
    11
 71
     3
 72
    48
 73
    44
 74
     0
 42
0.0000000001
 43
0.0000000001
 12
1.0
 22
0.0
 32
0.0
 13
1.0
 23
0.0
 33
0.0
 40
0.0
 40
0.0
 40
0.0
 40
0.0
 40
0.0833333333333333
 40
0.0833333333333333
 40
0.0833333333333333
 40
0.0833333333333333
 40
0.1666666666666667
 40
0.1666666666666667
 40
0.1666666666666667
 40
0.1666666666666667
 40
0.25
 40
0.25
 40
0.25
 40
0.25
 40
0.3333333333333333
 40
0.3333333333333333
 40
0.3333333333333333
 40
0.3333333333333333
 40
0.4166666666666667
 40
0.4166666666666667
 40
0.4166666666666667
 40
0.4166666666666667
 40
0.5
 40
0.5
 40
0.5
 40
0.5
 40
0.5833333333333334
 40
0.5833333333333334
 40
0.5833333333333334
 40
0.5833333333333334
 40
0.6666666666666666
 40
0.6666666666666666
 40
0.6666666666666666
 40
0.6666666666666666
 40
0.75
 40
0.75
 40
0.75
 40
0.75
 40
0.8333333333333334
 40
0.8333333333333334
 40
0.8333333333333334
 40
0.8333333333333334
 40
1.0
 40
1.0
 40
1.0
 40
1.0
 10
1.11902
 20
-6.63081
 30
0.0
 10
1.11902
 20
-6.63081
 30
0.0
 10
1.59719
 20
-6.08757
 30
0.0
 10
1.59719
 20
-6.08757
 30
0.0
 10
1.59719
 20
-6.08757
 30
0.0
 10
1.59719
 20
-6.08757
 30
0.0
 10
1.59726
 20
-6.08762
 30
0.0
 10
1.59726
 20
-6.08762
 30
0.0
 10
1.59726
 20
-6.08762
 30
0.0
 10
1.59726
 20
-6.08762
 30
0.0
 10
2.30759
 20
-6.71287
 30
0.0
 10
2.30759
 20
-6.71287
 30
0.0
 10
2.30759
 20
-6.71287
 30
0.0
 10
2.30759
 20
-6.71287
 30
0.0
 10
2.82254
 20
-6.12784
 30
0.0
 10
2.82254
 20
-6.12784
 30
0.0
 10
2.82254
 20
-6.12784
 30
0.0
 10
2.82254
 20
-6.12784
 30
0.0
 10
2.11221
 20
-5.50259
 30
0.0
 10
2.11221
 20
-5.50259
 30
0.0
 10
2.11221
 20
-5.50259
 30
0.0
 10
2.11221
 20
-5.50259
 30
0.0
 10
2.73752
 20
-4.79219
 30
0.0
 10
2.73752
 20
-4.79219
 30
0.0
 10
2.73752
 20
-4.79219
 30
0.0
 10
2.73752
 20
-4.79219
 30
0.0
 10
2.19428
 20
-4.31401
 30
0.0
 10
2.19428
 20
-4.31401
 30
0.0
 10
2.19428
 20
-4.31401
 30
0.0
 10
2.19428
 20
-4.31401
 30
0.0
 10
2.1525
 20
-4.27724
 30
0.0
 10
2.1525
 20
-4.27724
 30
0.0
 10
2.1525
 20
-4.27724
 30
0.0
 10
2.1525
 20
-4.27724
 30
0.0
 10
1.89501
 20
-4.56975
 30
0.0
 10
1.89501
 20
-4.56975
 30
0.0
 10
1.89501
 20
-4.56975
 30
0.0
 10
1.89501
 20
-4.56975
 30
0.0
 10
0.53406
 20
-6.11591
 30
0.0
 10
0.53406
 20
-6.11591
 30
0.0
 10
0.53406
 20
-6.11591
 30
0.0
 10
0.53406
 20
-6.11591
 30
0.0
 10
1.11902
 20
-6.63081
 30
0.0
 10
1.11902
 20
-6.63081
 30
0.0
  0
SPLINE
  5
A6
330
1F
100
AcDbEntity
  8
Layer 1
 62
   242
100
AcDbSpline
210
0.0
220
0.0
230
1.0
 70
    11
 71
     3
 72
    52
 73
    48
 74
     0
 42
0.0000000001
 43
0.0000000001
 12
1.0
 22
0.0
 32
0.0
 13
1.0
 23
0.0
 33
0.0
 40
0.0
 40
0.0
 40
0.0
 40
0.0
 40
0.0769230769230769
 40
0.0769230769230769
 40
0.0769230769230769
 40
0.0769230769230769
 40
0.1538461538461539
 40
0.1538461538461539
 40
0.1538461538461539
 40
0.1538461538461539
 40
0.2307692307692308
 40
0.2307692307692308
 40
0.2307692307692308
 40
0.2307692307692308
 40
0.3076923076923077
 40
0.3076923076923077
 40
0.3076923076923077
 40
0.3076923076923077
 40
0.3846153846153846
 40
0.3846153846153846
 40
0.3846153846153846
 40
0.3846153846153846
 40
0.4615384615384616
 40
0.4615384615384616
 40
0.4615384615384616
 40
0.4615384615384616
 40
0.5384615384615384
 40
0.5384615384615384
 40
0.5384615384615384
 40
0.5384615384615384
 40
0.6153846153846154
 40
0.6153846153846154
 40
0.6153846153846154
 40
0.6153846153846154
 40
0.6923076923076923
 40
0.6923076923076923
 40
0.6923076923076923
 40
0.6923076923076923
 40
0.7692307692307693
 40
0.7692307692307693
 40
0.7692307692307693
 40
0.7692307692307693
 40
0.8461538461538461
 40
0.8461538461538461
 40
0.8461538461538461
 40
0.8461538461538461
 40
1.0
 40
1.0
 40
1.0
 40
1.0
 10
2.30462
 20
-4.18865
 30
0.0
 10
2.30462
 20
-4.18865
 30
0.0
 10
2.81959
 20
-3.60362
 30
0.0
 10
2.81959
 20
-3.60362
 30
0.0
 10
2.81959
 20
-3.60362
 30
0.0
 10
2.81959
 20
-3.60362
 30
0.0
 10
2.40164
 20
-3.23573
 30
0.0
 10
2.40164
 20
-3.23573
 30
0.0
 10
2.40164
 20
-3.23573
 30
0.0
 10
2.40164
 20
-3.23573
 30
0.0
 10
2.54876
 20
-3.06858
 30
0.0
 10
2.54876
 20
-3.06858
 30
0.0
 10
2.54876
 20
-3.06858
 30
0.0
 10
2.54876
 20
-3.06858
 30
0.0
 10
1.9638
 20
-2.55368
 30
0.0
 10
1.9638
 20
-2.55368
 30
0.0
 10
1.9638
 20
-2.55368
 30
0.0
 10
1.9638
 20
-2.55368
 30
0.0
 10
1.59591
 20
-2.97164
 30
0.0
 10
1.59591
 20
-2.97164
 30
0.0
 10
1.59591
 20
-2.97164
 30
0.0
 10
1.59591
 20
-2.97164
 30
0.0
 10
1.42869
 20
-2.82444
 30
0.0
 10
1.42869
 20
-2.82444
 30
0.0
 10
1.42869
 20
-2.82444
 30
0.0
 10
1.42869
 20
-2.82444
 30
0.0
 10
0.91379
 20
-3.4094
 30
0.0
 10
0.91379
 20
-3.4094
 30
0.0
 10
0.91379
 20
-3.4094
 30
0.0
 10
0.91379
 20
-3.4094
 30
0.0
 10
1.33174
 20
-3.77729
 30
0.0
 10
1.33174
 20
-3.77729
 30
0.0
 10
1.33174
 20
-3.77729
 30
0.0
 10
1.33174
 20
-3.77729
 30
0.0
 10
1.18455
 20
-3.94452
 30
0.0
 10
1.18455
 20
-3.94452
 30
0.0
 10
1.18455
 20
-3.94452
 30
0.0
 10
1.18455
 20
-3.94452
 30
0.0
 10
1.76959
 20
-4.45947
 30
0.0
 10
1.76959
 20
-4.45947
 30
0.0
 10
1.76959
 20
-4.45947
 30
0.0
 10
1.76959
 20
-4.45947
 30
0.0
 10
2.13748
 20
-4.04152
 30
0.0
 10
2.13748
 20
-4.04152
 30
0.0
 10
2.13748
 20
-4.04152
 30
0.0
 10
2.13748
 20
-4.04152
 30
0.0
 10
2.30462
 20
-4.18865
 30
0.0
 10
2.30462
 20
-4.18865
 30
0.0
  0
SPLINE
  5
A7
330
1F
100
AcDbEntity
  8
Layer 1
 62
   242
100
AcDbSpline
210
0.0
220
0.0
230
1.0
 70
    11
 71
     3
 72
    48
 73
    44
 74
     0
 42
0.0000000001
 43
0.0000000001
 12
1.0
 22
0.0
 32
0.0
 13
1.0
 23
0.0
 33
0.0
 40
0.0
 40
0.0
 40
0.0
 40
0.0
 40
0.0833333333333333
 40
0.0833333333333333
 40
0.0833333333333333
 40
0.0833333333333333
 40
0.1666666666666667
 40
0.1666666666666667
 40
0.1666666666666667
 40
0.1666666666666667
 40
0.25
 40
0.25
 40
0.25
 40
0.25
 40
0.3333333333333333
 40
0.3333333333333333
 40
0.3333333333333333
 40
0.3333333333333333
 40
0.4166666666666667
 40
0.4166666666666667
 40
0.4166666666666667
 40
0.4166666666666667
 40
0.5
 40
0.5
 40
0.5
 40
0.5
 40
0.5833333333333334
 40
0.5833333333333334
 40
0.5833333333333334
 40
0.5833333333333334
 40
0.6666666666666666
 40
0.6666666666666666
 40
0.6666666666666666
 40
0.6666666666666666
 40
0.75
 40
0.75
 40
0.75
 40
0.75
 40
0.8333333333333334
 40
0.8333333333333334
 40
0.8333333333333334
 40
0.8333333333333334
 40
1.0
 40
1.0
 40
1.0
 40
1.0
 10
2.65911
 20
-2.94321
 30
0.0
 10
2.65911
 20
-2.94321
 30
0.0
 10
3.13729
 20
-2.39995
 30
0.0
 10
3.13729
 20
-2.39995
 30
0.0
 10
3.13729
 20
-2.39995
 30
0.0
 10
3.13729
 20
-2.39995
 30
0.0
 10
3.13736
 20
-2.40002
 30
0.0
 10
3.13736
 20
-2.40002
 30
0.0
 10
3.13736
 20
-2.40002
 30
0.0
 10
3.13736
 20
-2.40002
 30
0.0
 10
3.84769
 20
-3.02527
 30
0.0
 10
3.84769
 20
-3.02527
 30
0.0
 10
3.84769
 20
-3.02527
 30
0.0
 10
3.84769
 20
-3.02527
 30
0.0
 10
4.36264
 20
-2.44024
 30
0.0
 10
4.36264
 20
-2.44024
 30
0.0
 10
4.36264
 20
-2.44024
 30
0.0
 10
4.36264
 20
-2.44024
 30
0.0
 10
3.65232
 20
-1.81499
 30
0.0
 10
3.65232
 20
-1.81499
 30
0.0
 10
3.65232
 20
-1.81499
 30
0.0
 10
3.65232
 20
-1.81499
 30
0.0
 10
4.27763
 20
-1.10459
 30
0.0
 10
4.27763
 20
-1.10459
 30
0.0
 10
4.27763
 20
-1.10459
 30
0.0
 10
4.27763
 20
-1.10459
 30
0.0
 10
3.73437
 20
-0.62642
 30
0.0
 10
3.73437
 20
-0.62642
 30
0.0
 10
3.73437
 20
-0.62642
 30
0.0
 10
3.73437
 20
-0.62642
 30
0.0
 10
3.69259
 20
-0.58963
 30
0.0
 10
3.69259
 20
-0.58963
 30
0.0
 10
3.69259
 20
-0.58963
 30
0.0
 10
3.69259
 20
-0.58963
 30
0.0
 10
3.43511
 20
-0.88216
 30
0.0
 10
3.43511
 20
-0.88216
 30
0.0
 10
3.43511
 20
-0.88216
 30
0.0
 10
3.43511
 20
-0.88216
 30
0.0
 10
2.07415
 20
-2.42832
 30
0.0
 10
2.07415
 20
-2.42832
 30
0.0
 10
2.07415
 20
-2.42832
 30
0.0
 10
2.07415
 20
-2.42832
 30
0.0
 10
2.65911
 20
-2.94321
 30
0.0
 10
2.65911
 20
-2.94321
 30
0.0
  0
SPLINE
  5
A8
330
1F
100
AcDbEntity
  8
Layer 1
 62
   242
100
AcDbSpline
210
0.0
220
0.0
230
1.0
 70
    11
 71
     3
 72
    52
 73
    48
 74
     0
 42
0.0000000001
 43
0.0000000001
 12
1.0
 22
0.0
 32
0.0
 13
1.0
 23
0.0
 33
0.0
 40
0.0
 40
0.0
 40
0.0
 40
0.0
 40
0.0769230769230769
 40
0.0769230769230769
 40
0.0769230769230769
 40
0.0769230769230769
 40
0.1538461538461539
 40
0.1538461538461539
 40
0.1538461538461539
 40
0.1538461538461539
 40
0.2307692307692308
 40
0.2307692307692308
 40
0.2307692307692308
 40
0.2307692307692308
 40
0.3076923076923077
 40
0.3076923076923077
 40
0.3076923076923077
 40
0.3076923076923077
 40
0.3846153846153846
 40
0.3846153846153846
 40
0.3846153846153846
 40
0.3846153846153846
 40
0.4615384615384616
 40
0.4615384615384616
 40
0.4615384615384616
 40
0.4615384615384616
 40
0.5384615384615384
 40
0.5384615384615384
 40
0.5384615384615384
 40
0.5384615384615384
 40
0.6153846153846154
 40
0.6153846153846154
 40
0.6153846153846154
 40
0.6153846153846154
 40
0.6923076923076923
 40
0.6923076923076923
 40
0.6923076923076923
 40
0.6923076923076923
 40
0.7692307692307693
 40
0.7692307692307693
 40
0.7692307692307693
 40
0.7692307692307693
 40
0.8461538461538461
 40
0.8461538461538461
 40
0.8461538461538461
 40
0.8461538461538461
 40
1.0
 40
1.0
 40
1.0
 40
1.0
 10
3.84472
 20
-0.50104
 30
0.0
 10
3.84472
 20
-0.50104
 30
0.0
 10
4.35968
 20
0.08398
 30
0.0
 10
4.35968
 20
0.08398
 30
0.0
 10
4.35968
 20
0.08398
 30
0.0
 10
4.35968
 20
0.08398
 30
0.0
 10
3.94174
 20
0.45188
 30
0.0
 10
3.94174
 20
0.45188
 30
0.0
 10
3.94174
 20
0.45188
 30
0.0
 10
3.94174
 20
0.45188
 30
0.0
 10
4.08887
 20
0.61903
 30
0.0
 10
4.08887
 20
0.61903
 30
0.0
 10
4.08887
 20
0.61903
 30
0.0
 10
4.08887
 20
0.61903
 30
0.0
 10
3.50389
 20
1.13392
 30
0.0
 10
3.50389
 20
1.13392
 30
0.0
 10
3.50389
 20
1.13392
 30
0.0
 10
3.50389
 20
1.13392
 30
0.0
 10
3.13601
 20
0.71596
 30
0.0
 10
3.13601
 20
0.71596
 30
0.0
 10
3.13601
 20
0.71596
 30
0.0
 10
3.13601
 20
0.71596
 30
0.0
 10
2.96879
 20
0.86316
 30
0.0
 10
2.96879
 20
0.86316
 30
0.0
 10
2.96879
 20
0.86316
 30
0.0
 10
2.96879
 20
0.86316
 30
0.0
 10
2.45388
 20
0.2782
 30
0.0
 10
2.45388
 20
0.2782
 30
0.0
 10
2.45388
 20
0.2782
 30
0.0
 10
2.45388
 20
0.2782
 30
0.0
 10
2.87184
 20
-0.0897
 30
0.0
 10
2.87184
 20
-0.0897
 30
0.0
 10
2.87184
 20
-0.0897
 30
0.0
 10
2.87184
 20
-0.0897
 30
0.0
 10
2.72465
 20
-0.25692
 30
0.0
 10
2.72465
 20
-0.25692
 30
0.0
 10
2.72465
 20
-0.25692
 30
0.0
 10
2.72465
 20
-0.25692
 30
0.0
 10
3.30968
 20
-0.77187
 30
0.0
 10
3.30968
 20
-0.77187
 30
0.0
 10
3.30968
 20
-0.77187
 30
0.0
 10
3.30968
 20
-0.77187
 30
0.0
 10
3.67758
 20
-0.35393
 30
0.0
 10
3.67758
 20
-0.35393
 30
0.0
 10
3.67758
 20
-0.35393
 30
0.0
 10
3.67758
 20
-0.35393
 30
0.0
 10
3.84472
 20
-0.50104
 30
0.0
 10
3.84472
 20
-0.50104
 30
0.0
  0
SPLINE
  5
A9
330
1F
100
AcDbEntity
  8
Layer 1
 62
   242
100
AcDbSpline
210
0.0
220
0.0
230
1.0
 70
    11
 71
     3
 72
    48
 73
    44
 74
     0
 42
0.0000000001
 43
0.0000000001
 12
1.0
 22
0.0
 32
0.0
 13
1.0
 23
0.0
 33
0.0
 40
0.0
 40
0.0
 40
0.0
 40
0.0
 40
0.0833333333333333
 40
0.0833333333333333
 40
0.0833333333333333
 40
0.0833333333333333
 40
0.1666666666666667
 40
0.1666666666666667
 40
0.1666666666666667
 40
0.1666666666666667
 40
0.25
 40
0.25
 40
0.25
 40
0.25
 40
0.3333333333333333
 40
0.3333333333333333
 40
0.3333333333333333
 40
0.3333333333333333
 40
0.4166666666666667
 40
0.4166666666666667
 40
0.4166666666666667
 40
0.4166666666666667
 40
0.5
 40
0.5
 40
0.5
 40
0.5
 40
0.5833333333333334
 40
0.5833333333333334
 40
0.5833333333333334
 40
0.5833333333333334
 40
0.6666666666666666
 40
0.6666666666666666
 40
0.6666666666666666
 40
0.6666666666666666
 40
0.75
 40
0.75
 40
0.75
 40
0.75
 40
0.8333333333333334
 40
0.8333333333333334
 40
0.8333333333333334
 40
0.8333333333333334
 40
1.0
 40
1.0
 40
1.0
 40
1.0
 10
4.19921
 20
0.74439
 30
0.0
 10
4.19921
 20
0.74439
 30
0.0
 10
4.67739
 20
1.28763
 30
0.0
 10
4.67739
 20
1.28763
 30
0.0
 10
4.67739
 20
1.28763
 30
0.0
 10
4.67739
 20
1.28763
 30
0.0
 10
4.67745
 20
1.28757
 30
0.0
 10
4.67745
 20
1.28757
 30
0.0
 10
4.67745
 20
1.28757
 30
0.0
 10
4.67745
 20
1.28757
 30
0.0
 10
5.38779
 20
0.66233
 30
0.0
 10
5.38779
 20
0.66233
 30
0.0
 10
5.38779
 20
0.66233
 30
0.0
 10
5.38779
 20
0.66233
 30
0.0
 10
5.90273
 20
1.24737
 30
0.0
 10
5.90273
 20
1.24737
 30
0.0
 10
5.90273
 20
1.24737
 30
0.0
 10
5.90273
 20
1.24737
 30
0.0
 10
5.1924
 20
1.87262
 30
0.0
 10
5.1924
 20
1.87262
 30
0.0
 10
5.1924
 20
1.87262
 30
0.0
 10
5.1924
 20
1.87262
 30
0.0
 10
5.81772
 20
2.583
 30
0.0
 10
5.81772
 20
2.583
 30
0.0
 10
5.81772
 20
2.583
 30
0.0
 10
5.81772
 20
2.583
 30
0.0
 10
5.27448
 20
3.06118
 30
0.0
 10
5.27448
 20
3.06118
 30
0.0
 10
5.27448
 20
3.06118
 30
0.0
 10
5.27448
 20
3.06118
 30
0.0
 10
5.23268
 20
3.09798
 30
0.0
 10
5.23268
 20
3.09798
 30
0.0
 10
5.23268
 20
3.09798
 30
0.0
 10
5.23268
 20
3.09798
 30
0.0
 10
4.97519
 20
2.80546
 30
0.0
 10
4.97519
 20
2.80546
 30
0.0
 10
4.97519
 20
2.80546
 30
0.0
 10
4.97519
 20
2.80546
 30
0.0
 10
3.61424
 20
1.25929
 30
0.0
 10
3.61424
 20
1.25929
 30
0.0
 10
3.61424
 20
1.25929
 30
0.0
 10
3.61424
 20
1.25929
 30
0.0
 10
4.19921
 20
0.74439
 30
0.0
 10
4.19921
 20
0.74439
 30
0.0
  0
SPLINE
  5
AA
330
1F
100
AcDbEntity
  8
Layer 1
 62
   242
100
AcDbSpline
210
0.0
220
0.0
230
1.0
 70
    11
 71
     3
 72
    52
 73
    48
 74
     0
 42
0.0000000001
 43
0.0000000001
 12
1.0
 22
0.0
 32
0.0
 13
1.0
 23
0.0
 33
0.0
 40
0.0
 40
0.0
 40
0.0
 40
0.0
 40
0.0769230769230769
 40
0.0769230769230769
 40
0.0769230769230769
 40
0.0769230769230769
 40
0.1538461538461539
 40
0.1538461538461539
 40
0.1538461538461539
 40
0.1538461538461539
 40
0.2307692307692308
 40
0.2307692307692308
 40
0.2307692307692308
 40
0.2307692307692308
 40
0.3076923076923077
 40
0.3076923076923077
 40
0.3076923076923077
 40
0.3076923076923077
 40
0.3846153846153846
 40
0.3846153846153846
 40
0.3846153846153846
 40
0.3846153846153846
 40
0.4615384615384616
 40
0.4615384615384616
 40
0.4615384615384616
 40
0.4615384615384616
 40
0.5384615384615384
 40
0.5384615384615384
 40
0.5384615384615384
 40
0.5384615384615384
 40
0.6153846153846154
 40
0.6153846153846154
 40
0.6153846153846154
 40
0.6153846153846154
 40
0.6923076923076923
 40
0.6923076923076923
 40
0.6923076923076923
 40
0.6923076923076923
 40
0.7692307692307693
 40
0.7692307692307693
 40
0.7692307692307693
 40
0.7692307692307693
 40
0.8461538461538461
 40
0.8461538461538461
 40
0.8461538461538461
 40
0.8461538461538461
 40
1.0
 40
1.0
 40
1.0
 40
1.0
 10
5.38483
 20
3.18655
 30
0.0
 10
5.38483
 20
3.18655
 30
0.0
 10
5.89978
 20
3.77156
 30
0.0
 10
5.89978
 20
3.77156
 30
0.0
 10
5.89978
 20
3.77156
 30
0.0
 10
5.89978
 20
3.77156
 30
0.0
 10
5.48184
 20
4.13947
 30
0.0
 10
5.48184
 20
4.13947
 30
0.0
 10
5.48184
 20
4.13947
 30
0.0
 10
5.48184
 20
4.13947
 30
0.0
 10
5.62896
 20
4.30661
 30
0.0
 10
5.62896
 20
4.30661
 30
0.0
 10
5.62896
 20
4.30661
 30
0.0
 10
5.62896
 20
4.30661
 30
0.0
 10
5.04399
 20
4.82152
 30
0.0
 10
5.04399
 20
4.82152
 30
0.0
 10
5.04399
 20
4.82152
 30
0.0
 10
5.04399
 20
4.82152
 30
0.0
 10
4.6761
 20
4.40356
 30
0.0
 10
4.6761
 20
4.40356
 30
0.0
 10
4.6761
 20
4.40356
 30
0.0
 10
4.6761
 20
4.40356
 30
0.0
 10
4.50887
 20
4.55075
 30
0.0
 10
4.50887
 20
4.55075
 30
0.0
 10
4.50887
 20
4.55075
 30
0.0
 10
4.50887
 20
4.55075
 30
0.0
 10
3.99399
 20
3.96579
 30
0.0
 10
3.99399
 20
3.96579
 30
0.0
 10
3.99399
 20
3.96579
 30
0.0
 10
3.99399
 20
3.96579
 30
0.0
 10
4.41195
 20
3.5979
 30
0.0
 10
4.41195
 20
3.5979
 30
0.0
 10
4.41195
 20
3.5979
 30
0.0
 10
4.41195
 20
3.5979
 30
0.0
 10
4.26474
 20
3.43069
 30
0.0
 10
4.26474
 20
3.43069
 30
0.0
 10
4.26474
 20
3.43069
 30
0.0
 10
4.26474
 20
3.43069
 30
0.0
 10
4.84977
 20
2.91573
 30
0.0
 10
4.84977
 20
2.91573
 30
0.0
 10
4.84977
 20
2.91573
 30
0.0
 10
4.84977
 20
2.91573
 30
0.0
 10
5.21766
 20
3.33368
 30
0.0
 10
5.21766
 20
3.33368
 30
0.0
 10
5.21766
 20
3.33368
 30
0.0
 10
5.21766
 20
3.33368
 30
0.0
 10
5.38483
 20
3.18655
 30
0.0
 10
5.38483
 20
3.18655
 30
0.0
  0
SPLINE
  5
AB
330
1F
100
AcDbEntity
  8
Layer 1
 62
   242
100
AcDbSpline
210
0.0
220
0.0
230
1.0
 70
    11
 71
     3
 72
    68
 73
    64
 74
     0
 42
0.0000000001
 43
0.0000000001
 12
1.0
 22
0.0
 32
0.0
 13
1.0
 23
0.0
 33
0.0
 40
0.0
 40
0.0
 40
0.0
 40
0.0
 40
0.0588235294117647
 40
0.0588235294117647
 40
0.0588235294117647
 40
0.0588235294117647
 40
0.1176470588235294
 40
0.1176470588235294
 40
0.1176470588235294
 40
0.1176470588235294
 40
0.1764705882352941
 40
0.1764705882352941
 40
0.1764705882352941
 40
0.1764705882352941
 40
0.2352941176470588
 40
0.2352941176470588
 40
0.2352941176470588
 40
0.2352941176470588
 40
0.2941176470588235
 40
0.2941176470588235
 40
0.2941176470588235
 40
0.2941176470588235
 40
0.3529411764705883
 40
0.3529411764705883
 40
0.3529411764705883
 40
0.3529411764705883
 40
0.4117647058823529
 40
0.4117647058823529
 40
0.4117647058823529
 40
0.4117647058823529
 40
0.4705882352941176
 40
0.4705882352941176
 40
0.4705882352941176
 40
0.4705882352941176
 40
0.5294117647058824
 40
0.5294117647058824
 40
0.5294117647058824
 40
0.5294117647058824
 40
0.5882352941176471
 40
0.5882352941176471
 40
0.5882352941176471
 40
0.5882352941176471
 40
0.6470588235294118
 40
0.6470588235294118
 40
0.6470588235294118
 40
0.6470588235294118
 40
0.7058823529411765
 40
0.7058823529411765
 40
0.7058823529411765
 40
0.7058823529411765
 40
0.7647058823529411
 40
0.7647058823529411
 40
0.7647058823529411
 40
0.7647058823529411
 40
0.8235294117647058
 40
0.8235294117647058
 40
0.8235294117647058
 40
0.8235294117647058
 40
0.8823529411764706
 40
0.8823529411764706
 40
0.8823529411764706
 40
0.8823529411764706
 40
1.0
 40
1.0
 40
1.0
 40
1.0
 10
4.46995
 20
0.20941
 30
0.0
 10
4.46995
 20
0.20941
 30
0.0
 10
6.01613
 20
-1.15155
 30
0.0
 10
6.01613
 20
-1.15155
 30
0.0
 10
6.01613
 20
-1.15155
 30
0.0
 10
6.01613
 20
-1.15155
 30
0.0
 10
6.31372
 20
-0.81347
 30
0.0
 10
6.31372
 20
-0.81347
 30
0.0
 10
6.31372
 20
-0.81347
 30
0.0
 10
6.31372
 20
-0.81347
 30
0.0
 10
6.31372
 20
-0.3753
 30
0.0
 10
6.31372
 20
-0.3753
 30
0.0
 10
6.31372
 20
-0.3753
 30
0.0
 10
6.31372
 20
-0.3753
 30
0.0
 10
5.98784
 20
-0.08846
 30
0.0
 10
5.98784
 20
-0.08846
 30
0.0
 10
5.98784
 20
-0.08846
 30
0.0
 10
5.98784
 20
-0.08846
 30
0.0
 10
5.98791
 20
-0.0884
 30
0.0
 10
5.98791
 20
-0.0884
 30
0.0
 10
5.98791
 20
-0.0884
 30
0.0
 10
5.98791
 20
-0.0884
 30
0.0
 10
5.98784
 20
-0.08833
 30
0.0
 10
5.98784
 20
-0.08833
 30
0.0
 10
5.98784
 20
-0.08833
 30
0.0
 10
5.98784
 20
-0.08833
 30
0.0
 10
6.31372
 20
0.2819
 30
0.0
 10
6.31372
 20
0.2819
 30
0.0
 10
6.31372
 20
0.2819
 30
0.0
 10
6.31372
 20
0.2819
 30
0.0
 10
6.31372
 20
0.88549
 30
0.0
 10
6.31372
 20
0.88549
 30
0.0
 10
6.31372
 20
0.88549
 30
0.0
 10
6.31372
 20
0.88549
 30
0.0
 10
6.02812
 20
1.13689
 30
0.0
 10
6.02812
 20
1.13689
 30
0.0
 10
6.02812
 20
1.13689
 30
0.0
 10
6.02812
 20
1.13689
 30
0.0
 10
5.40288
 20
0.42655
 30
0.0
 10
5.40288
 20
0.42655
 30
0.0
 10
5.40288
 20
0.42655
 30
0.0
 10
5.40288
 20
0.42655
 30
0.0
 10
5.4028
 20
0.42661
 30
0.0
 10
5.4028
 20
0.42661
 30
0.0
 10
5.4028
 20
0.42661
 30
0.0
 10
5.4028
 20
0.42661
 30
0.0
 10
4.69246
 20
1.05186
 30
0.0
 10
4.69246
 20
1.05186
 30
0.0
 10
4.69246
 20
1.05186
 30
0.0
 10
4.69246
 20
1.05186
 30
0.0
 10
4.21429
 20
0.50861
 30
0.0
 10
4.21429
 20
0.50861
 30
0.0
 10
4.21429
 20
0.50861
 30
0.0
 10
4.21429
 20
0.50861
 30
0.0
 10
4.21422
 20
0.50869
 30
0.0
 10
4.21422
 20
0.50869
 30
0.0
 10
4.21422
 20
0.50869
 30
0.0
 10
4.21422
 20
0.50869
 30
0.0
 10
4.17744
 20
0.46689
 30
0.0
 10
4.17744
 20
0.46689
 30
0.0
 10
4.17744
 20
0.46689
 30
0.0
 10
4.17744
 20
0.46689
 30
0.0
 10
4.46995
 20
0.20941
 30
0.0
 10
4.46995
 20
0.20941
 30
0.0
  0
SPLINE
  5
AC
330
1F
100
AcDbEntity
  8
Layer 1
 62
   242
100
AcDbSpline
210
0.0
220
0.0
230
1.0
 70
    11
 71
     3
 72
    52
 73
    48
 74
     0
 42
0.0000000001
 43
0.0000000001
 12
1.0
 22
0.0
 32
0.0
 13
1.0
 23
0.0
 33
0.0
 40
0.0
 40
0.0
 40
0.0
 40
0.0
 40
0.0769230769230769
 40
0.0769230769230769
 40
0.0769230769230769
 40
0.0769230769230769
 40
0.1538461538461539
 40
0.1538461538461539
 40
0.1538461538461539
 40
0.1538461538461539
 40
0.2307692307692308
 40
0.2307692307692308
 40
0.2307692307692308
 40
0.2307692307692308
 40
0.3076923076923077
 40
0.3076923076923077
 40
0.3076923076923077
 40
0.3076923076923077
 40
0.3846153846153846
 40
0.3846153846153846
 40
0.3846153846153846
 40
0.3846153846153846
 40
0.4615384615384616
 40
0.4615384615384616
 40
0.4615384615384616
 40
0.4615384615384616
 40
0.5384615384615384
 40
0.5384615384615384
 40
0.5384615384615384
 40
0.5384615384615384
 40
0.6153846153846154
 40
0.6153846153846154
 40
0.6153846153846154
 40
0.6153846153846154
 40
0.6923076923076923
 40
0.6923076923076923
 40
0.6923076923076923
 40
0.6923076923076923
 40
0.7692307692307693
 40
0.7692307692307693
 40
0.7692307692307693
 40
0.7692307692307693
 40
0.8461538461538461
 40
0.8461538461538461
 40
0.8461538461538461
 40
0.8461538461538461
 40
1.0
 40
1.0
 40
1.0
 40
1.0
 10
5.80876
 20
-2.22984
 30
0.0
 10
5.80876
 20
-2.22984
 30
0.0
 10
5.09837
 20
-1.60453
 30
0.0
 10
5.09837
 20
-1.60453
 30
0.0
 10
5.09837
 20
-1.60453
 30
0.0
 10
5.09837
 20
-1.60453
 30
0.0
 10
5.0983
 20
-1.60461
 30
0.0
 10
5.0983
 20
-1.60461
 30
0.0
 10
5.0983
 20
-1.60461
 30
0.0
 10
5.0983
 20
-1.60461
 30
0.0
 10
4.47307
 20
-2.31492
 30
0.0
 10
4.47307
 20
-2.31492
 30
0.0
 10
4.47307
 20
-2.31492
 30
0.0
 10
4.47307
 20
-2.31492
 30
0.0
 10
3.88802
 20
-1.79998
 30
0.0
 10
3.88802
 20
-1.79998
 30
0.0
 10
3.88802
 20
-1.79998
 30
0.0
 10
3.88802
 20
-1.79998
 30
0.0
 10
4.51334
 20
-1.08957
 30
0.0
 10
4.51334
 20
-1.08957
 30
0.0
 10
4.51334
 20
-1.08957
 30
0.0
 10
4.51334
 20
-1.08957
 30
0.0
 10
3.97008
 20
-0.61141
 30
0.0
 10
3.97008
 20
-0.61141
 30
0.0
 10
3.97008
 20
-0.61141
 30
0.0
 10
3.97008
 20
-0.61141
 30
0.0
 10
4.48505
 20
-0.02637
 30
0.0
 10
4.48505
 20
-0.02637
 30
0.0
 10
4.48505
 20
-0.02637
 30
0.0
 10
4.48505
 20
-0.02637
 30
0.0
 10
6.03121
 20
-1.38733
 30
0.0
 10
6.03121
 20
-1.38733
 30
0.0
 10
6.03121
 20
-1.38733
 30
0.0
 10
6.03121
 20
-1.38733
 30
0.0
 10
6.31372
 20
-1.636
 30
0.0
 10
6.31372
 20
-1.636
 30
0.0
 10
6.31372
 20
-1.636
 30
0.0
 10
6.31372
 20
-1.636
 30
0.0
 10
6.31372
 20
-1.65618
 30
0.0
 10
6.31372
 20
-1.65618
 30
0.0
 10
6.31372
 20
-1.65618
 30
0.0
 10
6.31372
 20
-1.65618
 30
0.0
 10
6.28688
 20
-1.68667
 30
0.0
 10
6.28688
 20
-1.68667
 30
0.0
 10
6.28688
 20
-1.68667
 30
0.0
 10
6.28688
 20
-1.68667
 30
0.0
 10
5.80876
 20
-2.22984
 30
0.0
 10
5.80876
 20
-2.22984
 30
0.0
  0
SPLINE
  5
AD
330
1F
100
AcDbEntity
  8
Layer 1
 62
   242
100
AcDbSpline
210
0.0
220
0.0
230
1.0
 70
    11
 71
     3
 72
    60
 73
    56
 74
     0
 42
0.0000000001
 43
0.0000000001
 12
1.0
 22
0.0
 32
0.0
 13
1.0
 23
0.0
 33
0.0
 40
0.0
 40
0.0
 40
0.0
 40
0.0
 40
0.0666666666666667
 40
0.0666666666666667
 40
0.0666666666666667
 40
0.0666666666666667
 40
0.1333333333333333
 40
0.1333333333333333
 40
0.1333333333333333
 40
0.1333333333333333
 40
0.2
 40
0.2
 40
0.2
 40
0.2
 40
0.2666666666666667
 40
0.2666666666666667
 40
0.2666666666666667
 40
0.2666666666666667
 40
0.3333333333333333
 40
0.3333333333333333
 40
0.3333333333333333
 40
0.3333333333333333
 40
0.4
 40
0.4
 40
0.4
 40
0.4
 40
0.4666666666666667
 40
0.4666666666666667
 40
0.4666666666666667
 40
0.4666666666666667
 40
0.5333333333333333
 40
0.5333333333333333
 40
0.5333333333333333
 40
0.5333333333333333
 40
0.6
 40
0.6
 40
0.6
 40
0.6
 40
0.6666666666666666
 40
0.6666666666666666
 40
0.6666666666666666
 40
0.6666666666666666
 40
0.7333333333333333
 40
0.7333333333333333
 40
0.7333333333333333
 40
0.7333333333333333
 40
0.8
 40
0.8
 40
0.8
 40
0.8
 40
0.8666666666666667
 40
0.8666666666666667
 40
0.8666666666666667
 40
0.8666666666666667
 40
1.0
 40
1.0
 40
1.0
 40
1.0
 10
2.92985
 20
-3.4782
 30
0.0
 10
2.92985
 20
-3.4782
 30
0.0
 10
4.47603
 20
-4.83915
 30
0.0
 10
4.47603
 20
-4.83915
 30
0.0
 10
4.47603
 20
-4.83915
 30
0.0
 10
4.47603
 20
-4.83915
 30
0.0
 10
4.99093
 20
-4.25418
 30
0.0
 10
4.99093
 20
-4.25418
 30
0.0
 10
4.99093
 20
-4.25418
 30
0.0
 10
4.99093
 20
-4.25418
 30
0.0
 10
4.44774
 20
-3.77607
 30
0.0
 10
4.44774
 20
-3.77607
 30
0.0
 10
4.44774
 20
-3.77607
 30
0.0
 10
4.44774
 20
-3.77607
 30
0.0
 10
4.44782
 20
-3.77601
 30
0.0
 10
4.44782
 20
-3.77601
 30
0.0
 10
4.44782
 20
-3.77601
 30
0.0
 10
4.44782
 20
-3.77601
 30
0.0
 10
4.44775
 20
-3.77593
 30
0.0
 10
4.44775
 20
-3.77593
 30
0.0
 10
4.44775
 20
-3.77593
 30
0.0
 10
4.44775
 20
-3.77593
 30
0.0
 10
5.07299
 20
-3.06561
 30
0.0
 10
5.07299
 20
-3.06561
 30
0.0
 10
5.07299
 20
-3.06561
 30
0.0
 10
5.07299
 20
-3.06561
 30
0.0
 10
4.48802
 20
-2.55071
 30
0.0
 10
4.48802
 20
-2.55071
 30
0.0
 10
4.48802
 20
-2.55071
 30
0.0
 10
4.48802
 20
-2.55071
 30
0.0
 10
3.86277
 20
-3.26104
 30
0.0
 10
3.86277
 20
-3.26104
 30
0.0
 10
3.86277
 20
-3.26104
 30
0.0
 10
3.86277
 20
-3.26104
 30
0.0
 10
3.86269
 20
-3.26098
 30
0.0
 10
3.86269
 20
-3.26098
 30
0.0
 10
3.86269
 20
-3.26098
 30
0.0
 10
3.86269
 20
-3.26098
 30
0.0
 10
3.15237
 20
-2.63574
 30
0.0
 10
3.15237
 20
-2.63574
 30
0.0
 10
3.15237
 20
-2.63574
 30
0.0
 10
3.15237
 20
-2.63574
 30
0.0
 10
2.67419
 20
-3.17898
 30
0.0
 10
2.67419
 20
-3.17898
 30
0.0
 10
2.67419
 20
-3.17898
 30
0.0
 10
2.67419
 20
-3.17898
 30
0.0
 10
2.67413
 20
-3.17893
 30
0.0
 10
2.67413
 20
-3.17893
 30
0.0
 10
2.67413
 20
-3.17893
 30
0.0
 10
2.67413
 20
-3.17893
 30
0.0
 10
2.63735
 20
-3.22071
 30
0.0
 10
2.63735
 20
-3.22071
 30
0.0
 10
2.63735
 20
-3.22071
 30
0.0
 10
2.63735
 20
-3.22071
 30
0.0
 10
2.92985
 20
-3.4782
 30
0.0
 10
2.92985
 20
-3.4782
 30
0.0
  0
SPLINE
  5
AE
330
1F
100
AcDbEntity
  8
Layer 1
 62
   242
100
AcDbSpline
210
0.0
220
0.0
230
1.0
 70
    11
 71
     3
 72
    48
 73
    44
 74
     0
 42
0.0000000001
 43
0.0000000001
 12
1.0
 22
0.0
 32
0.0
 13
1.0
 23
0.0
 33
0.0
 40
0.0
 40
0.0
 40
0.0
 40
0.0
 40
0.0833333333333333
 40
0.0833333333333333
 40
0.0833333333333333
 40
0.0833333333333333
 40
0.1666666666666667
 40
0.1666666666666667
 40
0.1666666666666667
 40
0.1666666666666667
 40
0.25
 40
0.25
 40
0.25
 40
0.25
 40
0.3333333333333333
 40
0.3333333333333333
 40
0.3333333333333333
 40
0.3333333333333333
 40
0.4166666666666667
 40
0.4166666666666667
 40
0.4166666666666667
 40
0.4166666666666667
 40
0.5
 40
0.5
 40
0.5
 40
0.5
 40
0.5833333333333334
 40
0.5833333333333334
 40
0.5833333333333334
 40
0.5833333333333334
 40
0.6666666666666666
 40
0.6666666666666666
 40
0.6666666666666666
 40
0.6666666666666666
 40
0.75
 40
0.75
 40
0.75
 40
0.75
 40
0.8333333333333334
 40
0.8333333333333334
 40
0.8333333333333334
 40
0.8333333333333334
 40
1.0
 40
1.0
 40
1.0
 40
1.0
 10
4.26868
 20
-5.91744
 30
0.0
 10
4.26868
 20
-5.91744
 30
0.0
 10
3.55828
 20
-5.29213
 30
0.0
 10
3.55828
 20
-5.29213
 30
0.0
 10
3.55828
 20
-5.29213
 30
0.0
 10
3.55828
 20
-5.29213
 30
0.0
 10
3.55822
 20
-5.29221
 30
0.0
 10
3.55822
 20
-5.29221
 30
0.0
 10
3.55822
 20
-5.29221
 30
0.0
 10
3.55822
 20
-5.29221
 30
0.0
 10
2.93298
 20
-6.00253
 30
0.0
 10
2.93298
 20
-6.00253
 30
0.0
 10
2.93298
 20
-6.00253
 30
0.0
 10
2.93298
 20
-6.00253
 30
0.0
 10
2.34794
 20
-5.48757
 30
0.0
 10
2.34794
 20
-5.48757
 30
0.0
 10
2.34794
 20
-5.48757
 30
0.0
 10
2.34794
 20
-5.48757
 30
0.0
 10
2.97324
 20
-4.77718
 30
0.0
 10
2.97324
 20
-4.77718
 30
0.0
 10
2.97324
 20
-4.77718
 30
0.0
 10
2.97324
 20
-4.77718
 30
0.0
 10
2.42999
 20
-4.299
 30
0.0
 10
2.42999
 20
-4.299
 30
0.0
 10
2.42999
 20
-4.299
 30
0.0
 10
2.42999
 20
-4.299
 30
0.0
 10
2.94496
 20
-3.71397
 30
0.0
 10
2.94496
 20
-3.71397
 30
0.0
 10
2.94496
 20
-3.71397
 30
0.0
 10
2.94496
 20
-3.71397
 30
0.0
 10
4.49112
 20
-5.07493
 30
0.0
 10
4.49112
 20
-5.07493
 30
0.0
 10
4.49112
 20
-5.07493
 30
0.0
 10
4.49112
 20
-5.07493
 30
0.0
 10
4.78364
 20
-5.3324
 30
0.0
 10
4.78364
 20
-5.3324
 30
0.0
 10
4.78364
 20
-5.3324
 30
0.0
 10
4.78364
 20
-5.3324
 30
0.0
 10
4.74679
 20
-5.37427
 30
0.0
 10
4.74679
 20
-5.37427
 30
0.0
 10
4.74679
 20
-5.37427
 30
0.0
 10
4.74679
 20
-5.37427
 30
0.0
 10
4.26868
 20
-5.91744
 30
0.0
 10
4.26868
 20
-5.91744
 30
0.0
  0
SPLINE
  5
AF
330
1F
100
AcDbEntity
  8
Layer 1
 62
   242
100
AcDbSpline
210
0.0
220
0.0
230
1.0
 70
    11
 71
     3
 72
    60
 73
    56
 74
     0
 42
0.0000000001
 43
0.0000000001
 12
1.0
 22
0.0
 32
0.0
 13
1.0
 23
0.0
 33
0.0
 40
0.0
 40
0.0
 40
0.0
 40
0.0
 40
0.0666666666666667
 40
0.0666666666666667
 40
0.0666666666666667
 40
0.0666666666666667
 40
0.1333333333333333
 40
0.1333333333333333
 40
0.1333333333333333
 40
0.1333333333333333
 40
0.2
 40
0.2
 40
0.2
 40
0.2
 40
0.2666666666666667
 40
0.2666666666666667
 40
0.2666666666666667
 40
0.2666666666666667
 40
0.3333333333333333
 40
0.3333333333333333
 40
0.3333333333333333
 40
0.3333333333333333
 40
0.4
 40
0.4
 40
0.4
 40
0.4
 40
0.4666666666666667
 40
0.4666666666666667
 40
0.4666666666666667
 40
0.4666666666666667
 40
0.5333333333333333
 40
0.5333333333333333
 40
0.5333333333333333
 40
0.5333333333333333
 40
0.6
 40
0.6
 40
0.6
 40
0.6
 40
0.6666666666666666
 40
0.6666666666666666
 40
0.6666666666666666
 40
0.6666666666666666
 40
0.7333333333333333
 40
0.7333333333333333
 40
0.7333333333333333
 40
0.7333333333333333
 40
0.8
 40
0.8
 40
0.8
 40
0.8
 40
0.8666666666666667
 40
0.8666666666666667
 40
0.8666666666666667
 40
0.8666666666666667
 40
1.0
 40
1.0
 40
1.0
 40
1.0
 10
1.38978
 20
-7.16579
 30
0.0
 10
1.38978
 20
-7.16579
 30
0.0
 10
2.93593
 20
-8.52675
 30
0.0
 10
2.93593
 20
-8.52675
 30
0.0
 10
2.93593
 20
-8.52675
 30
0.0
 10
2.93593
 20
-8.52675
 30
0.0
 10
3.45084
 20
-7.94179
 30
0.0
 10
3.45084
 20
-7.94179
 30
0.0
 10
3.45084
 20
-7.94179
 30
0.0
 10
3.45084
 20
-7.94179
 30
0.0
 10
2.90765
 20
-7.46367
 30
0.0
 10
2.90765
 20
-7.46367
 30
0.0
 10
2.90765
 20
-7.46367
 30
0.0
 10
2.90765
 20
-7.46367
 30
0.0
 10
2.90771
 20
-7.4636
 30
0.0
 10
2.90771
 20
-7.4636
 30
0.0
 10
2.90771
 20
-7.4636
 30
0.0
 10
2.90771
 20
-7.4636
 30
0.0
 10
2.90764
 20
-7.46355
 30
0.0
 10
2.90764
 20
-7.46355
 30
0.0
 10
2.90764
 20
-7.46355
 30
0.0
 10
2.90764
 20
-7.46355
 30
0.0
 10
3.53289
 20
-6.75322
 30
0.0
 10
3.53289
 20
-6.75322
 30
0.0
 10
3.53289
 20
-6.75322
 30
0.0
 10
3.53289
 20
-6.75322
 30
0.0
 10
2.94792
 20
-6.23832
 30
0.0
 10
2.94792
 20
-6.23832
 30
0.0
 10
2.94792
 20
-6.23832
 30
0.0
 10
2.94792
 20
-6.23832
 30
0.0
 10
2.32268
 20
-6.94865
 30
0.0
 10
2.32268
 20
-6.94865
 30
0.0
 10
2.32268
 20
-6.94865
 30
0.0
 10
2.32268
 20
-6.94865
 30
0.0
 10
2.32261
 20
-6.94859
 30
0.0
 10
2.32261
 20
-6.94859
 30
0.0
 10
2.32261
 20
-6.94859
 30
0.0
 10
2.32261
 20
-6.94859
 30
0.0
 10
1.61228
 20
-6.32333
 30
0.0
 10
1.61228
 20
-6.32333
 30
0.0
 10
1.61228
 20
-6.32333
 30
0.0
 10
1.61228
 20
-6.32333
 30
0.0
 10
1.13411
 20
-6.86659
 30
0.0
 10
1.13411
 20
-6.86659
 30
0.0
 10
1.13411
 20
-6.86659
 30
0.0
 10
1.13411
 20
-6.86659
 30
0.0
 10
1.13404
 20
-6.86652
 30
0.0
 10
1.13404
 20
-6.86652
 30
0.0
 10
1.13404
 20
-6.86652
 30
0.0
 10
1.13404
 20
-6.86652
 30
0.0
 10
1.09725
 20
-6.90832
 30
0.0
 10
1.09725
 20
-6.90832
 30
0.0
 10
1.09725
 20
-6.90832
 30
0.0
 10
1.09725
 20
-6.90832
 30
0.0
 10
1.38978
 20
-7.16579
 30
0.0
 10
1.38978
 20
-7.16579
 30
0.0
  0
SPLINE
  5
B0
330
1F
100
AcDbEntity
  8
Layer 1
 62
   242
100
AcDbSpline
210
0.0
220
0.0
230
1.0
 70
    11
 71
     3
 72
    60
 73
    56
 74
     0
 42
0.0000000001
 43
0.0000000001
 12
1.0
 22
0.0
 32
0.0
 13
1.0
 23
0.0
 33
0.0
 40
0.0
 40
0.0
 40
0.0
 40
0.0
 40
0.0666666666666667
 40
0.0666666666666667
 40
0.0666666666666667
 40
0.0666666666666667
 40
0.1333333333333333
 40
0.1333333333333333
 40
0.1333333333333333
 40
0.1333333333333333
 40
0.2
 40
0.2
 40
0.2
 40
0.2
 40
0.2666666666666667
 40
0.2666666666666667
 40
0.2666666666666667
 40
0.2666666666666667
 40
0.3333333333333333
 40
0.3333333333333333
 40
0.3333333333333333
 40
0.3333333333333333
 40
0.4
 40
0.4
 40
0.4
 40
0.4
 40
0.4666666666666667
 40
0.4666666666666667
 40
0.4666666666666667
 40
0.4666666666666667
 40
0.5333333333333333
 40
0.5333333333333333
 40
0.5333333333333333
 40
0.5333333333333333
 40
0.6
 40
0.6
 40
0.6
 40
0.6
 40
0.6666666666666666
 40
0.6666666666666666
 40
0.6666666666666666
 40
0.6666666666666666
 40
0.7333333333333333
 40
0.7333333333333333
 40
0.7333333333333333
 40
0.7333333333333333
 40
0.8
 40
0.8
 40
0.8
 40
0.8
 40
0.8666666666666667
 40
0.8666666666666667
 40
0.8666666666666667
 40
0.8666666666666667
 40
1.0
 40
1.0
 40
1.0
 40
1.0
 10
3.99102
 20
6.49001
 30
0.0
 10
3.99102
 20
6.49001
 30
0.0
 10
4.70135
 20
5.86476
 30
0.0
 10
4.70135
 20
5.86476
 30
0.0
 10
4.70135
 20
5.86476
 30
0.0
 10
4.70135
 20
5.86476
 30
0.0
 10
4.70129
 20
5.86469
 30
0.0
 10
4.70129
 20
5.86469
 30
0.0
 10
4.70129
 20
5.86469
 30
0.0
 10
4.70129
 20
5.86469
 30
0.0
 10
4.70136
 20
5.86462
 30
0.0
 10
4.70136
 20
5.86462
 30
0.0
 10
4.70136
 20
5.86462
 30
0.0
 10
4.70136
 20
5.86462
 30
0.0
 10
4.0761
 20
5.1543
 30
0.0
 10
4.0761
 20
5.1543
 30
0.0
 10
4.0761
 20
5.1543
 30
0.0
 10
4.0761
 20
5.1543
 30
0.0
 10
4.61929
 20
4.67618
 30
0.0
 10
4.61929
 20
4.67618
 30
0.0
 10
4.61929
 20
4.67618
 30
0.0
 10
4.61929
 20
4.67618
 30
0.0
 10
4.61922
 20
4.67612
 30
0.0
 10
4.61922
 20
4.67612
 30
0.0
 10
4.61922
 20
4.67612
 30
0.0
 10
4.61922
 20
4.67612
 30
0.0
 10
4.66108
 20
4.63927
 30
0.0
 10
4.66108
 20
4.63927
 30
0.0
 10
4.66108
 20
4.63927
 30
0.0
 10
4.66108
 20
4.63927
 30
0.0
 10
4.91856
 20
4.9318
 30
0.0
 10
4.91856
 20
4.9318
 30
0.0
 10
4.91856
 20
4.9318
 30
0.0
 10
4.91856
 20
4.9318
 30
0.0
 10
6.27953
 20
6.47795
 30
0.0
 10
6.27953
 20
6.47795
 30
0.0
 10
6.27953
 20
6.47795
 30
0.0
 10
6.27953
 20
6.47795
 30
0.0
 10
5.69448
 20
6.9929
 30
0.0
 10
5.69448
 20
6.9929
 30
0.0
 10
5.69448
 20
6.9929
 30
0.0
 10
5.69448
 20
6.9929
 30
0.0
 10
5.21638
 20
6.44973
 30
0.0
 10
5.21638
 20
6.44973
 30
0.0
 10
5.21638
 20
6.44973
 30
0.0
 10
5.21638
 20
6.44973
 30
0.0
 10
5.21632
 20
6.44967
 30
0.0
 10
5.21632
 20
6.44967
 30
0.0
 10
5.21632
 20
6.44967
 30
0.0
 10
5.21632
 20
6.44967
 30
0.0
 10
4.50591
 20
7.07496
 30
0.0
 10
4.50591
 20
7.07496
 30
0.0
 10
4.50591
 20
7.07496
 30
0.0
 10
4.50591
 20
7.07496
 30
0.0
 10
3.99102
 20
6.49001
 30
0.0
 10
3.99102
 20
6.49001
 30
0.0
  0
SPLINE
  5
B1
330
1F
100
AcDbEntity
  8
Layer 1
 62
   242
100
AcDbSpline
210
0.0
220
0.0
230
1.0
 70
    11
 71
     3
 72
    60
 73
    56
 74
     0
 42
0.0000000001
 43
0.0000000001
 12
1.0
 22
0.0
 32
0.0
 13
1.0
 23
0.0
 33
0.0
 40
0.0
 40
0.0
 40
0.0
 40
0.0
 40
0.0666666666666667
 40
0.0666666666666667
 40
0.0666666666666667
 40
0.0666666666666667
 40
0.1333333333333333
 40
0.1333333333333333
 40
0.1333333333333333
 40
0.1333333333333333
 40
0.2
 40
0.2
 40
0.2
 40
0.2
 40
0.2666666666666667
 40
0.2666666666666667
 40
0.2666666666666667
 40
0.2666666666666667
 40
0.3333333333333333
 40
0.3333333333333333
 40
0.3333333333333333
 40
0.3333333333333333
 40
0.4
 40
0.4
 40
0.4
 40
0.4
 40
0.4666666666666667
 40
0.4666666666666667
 40
0.4666666666666667
 40
0.4666666666666667
 40
0.5333333333333333
 40
0.5333333333333333
 40
0.5333333333333333
 40
0.5333333333333333
 40
0.6
 40
0.6
 40
0.6
 40
0.6
 40
0.6666666666666666
 40
0.6666666666666666
 40
0.6666666666666666
 40
0.6666666666666666
 40
0.7333333333333333
 40
0.7333333333333333
 40
0.7333333333333333
 40
0.7333333333333333
 40
0.8
 40
0.8
 40
0.8
 40
0.8
 40
0.8666666666666667
 40
0.8666666666666667
 40
0.8666666666666667
 40
0.8666666666666667
 40
1.0
 40
1.0
 40
1.0
 40
1.0
 10
2.45094
 20
2.80242
 30
0.0
 10
2.45094
 20
2.80242
 30
0.0
 10
3.16125
 20
2.17717
 30
0.0
 10
3.16125
 20
2.17717
 30
0.0
 10
3.16125
 20
2.17717
 30
0.0
 10
3.16125
 20
2.17717
 30
0.0
 10
3.16119
 20
2.1771
 30
0.0
 10
3.16119
 20
2.1771
 30
0.0
 10
3.16119
 20
2.1771
 30
0.0
 10
3.16119
 20
2.1771
 30
0.0
 10
3.16127
 20
2.17704
 30
0.0
 10
3.16127
 20
2.17704
 30
0.0
 10
3.16127
 20
2.17704
 30
0.0
 10
3.16127
 20
2.17704
 30
0.0
 10
2.53601
 20
1.46671
 30
0.0
 10
2.53601
 20
1.46671
 30
0.0
 10
2.53601
 20
1.46671
 30
0.0
 10
2.53601
 20
1.46671
 30
0.0
 10
3.0792
 20
0.98859
 30
0.0
 10
3.0792
 20
0.98859
 30
0.0
 10
3.0792
 20
0.98859
 30
0.0
 10
3.0792
 20
0.98859
 30
0.0
 10
3.07913
 20
0.98853
 30
0.0
 10
3.07913
 20
0.98853
 30
0.0
 10
3.07913
 20
0.98853
 30
0.0
 10
3.07913
 20
0.98853
 30
0.0
 10
3.12099
 20
0.95168
 30
0.0
 10
3.12099
 20
0.95168
 30
0.0
 10
3.12099
 20
0.95168
 30
0.0
 10
3.12099
 20
0.95168
 30
0.0
 10
3.37847
 20
1.2442
 30
0.0
 10
3.37847
 20
1.2442
 30
0.0
 10
3.37847
 20
1.2442
 30
0.0
 10
3.37847
 20
1.2442
 30
0.0
 10
4.73943
 20
2.79036
 30
0.0
 10
4.73943
 20
2.79036
 30
0.0
 10
4.73943
 20
2.79036
 30
0.0
 10
4.73943
 20
2.79036
 30
0.0
 10
4.1544
 20
3.30532
 30
0.0
 10
4.1544
 20
3.30532
 30
0.0
 10
4.1544
 20
3.30532
 30
0.0
 10
4.1544
 20
3.30532
 30
0.0
 10
3.67628
 20
2.76214
 30
0.0
 10
3.67628
 20
2.76214
 30
0.0
 10
3.67628
 20
2.76214
 30
0.0
 10
3.67628
 20
2.76214
 30
0.0
 10
3.67621
 20
2.76207
 30
0.0
 10
3.67621
 20
2.76207
 30
0.0
 10
3.67621
 20
2.76207
 30
0.0
 10
3.67621
 20
2.76207
 30
0.0
 10
2.96582
 20
3.38737
 30
0.0
 10
2.96582
 20
3.38737
 30
0.0
 10
2.96582
 20
3.38737
 30
0.0
 10
2.96582
 20
3.38737
 30
0.0
 10
2.45094
 20
2.80242
 30
0.0
 10
2.45094
 20
2.80242
 30
0.0
  0
SPLINE
  5
B2
330
1F
100
AcDbEntity
  8
Layer 1
 62
   242
100
AcDbSpline
210
0.0
220
0.0
230
1.0
 70
    11
 71
     3
 72
    60
 73
    56
 74
     0
 42
0.0000000001
 43
0.0000000001
 12
1.0
 22
0.0
 32
0.0
 13
1.0
 23
0.0
 33
0.0
 40
0.0
 40
0.0
 40
0.0
 40
0.0
 40
0.0666666666666667
 40
0.0666666666666667
 40
0.0666666666666667
 40
0.0666666666666667
 40
0.1333333333333333
 40
0.1333333333333333
 40
0.1333333333333333
 40
0.1333333333333333
 40
0.2
 40
0.2
 40
0.2
 40
0.2
 40
0.2666666666666667
 40
0.2666666666666667
 40
0.2666666666666667
 40
0.2666666666666667
 40
0.3333333333333333
 40
0.3333333333333333
 40
0.3333333333333333
 40
0.3333333333333333
 40
0.4
 40
0.4
 40
0.4
 40
0.4
 40
0.4666666666666667
 40
0.4666666666666667
 40
0.4666666666666667
 40
0.4666666666666667
 40
0.5333333333333333
 40
0.5333333333333333
 40
0.5333333333333333
 40
0.5333333333333333
 40
0.6
 40
0.6
 40
0.6
 40
0.6
 40
0.6666666666666666
 40
0.6666666666666666
 40
0.6666666666666666
 40
0.6666666666666666
 40
0.7333333333333333
 40
0.7333333333333333
 40
0.7333333333333333
 40
0.7333333333333333
 40
0.8
 40
0.8
 40
0.8
 40
0.8
 40
0.8666666666666667
 40
0.8666666666666667
 40
0.8666666666666667
 40
0.8666666666666667
 40
1.0
 40
1.0
 40
1.0
 40
1.0
 10
0.91083
 20
-0.88519
 30
0.0
 10
0.91083
 20
-0.88519
 30
0.0
 10
1.62116
 20
-1.51042
 30
0.0
 10
1.62116
 20
-1.51042
 30
0.0
 10
1.62116
 20
-1.51042
 30
0.0
 10
1.62116
 20
-1.51042
 30
0.0
 10
1.62109
 20
-1.5105
 30
0.0
 10
1.62109
 20
-1.5105
 30
0.0
 10
1.62109
 20
-1.5105
 30
0.0
 10
1.62109
 20
-1.5105
 30
0.0
 10
1.62117
 20
-1.51056
 30
0.0
 10
1.62117
 20
-1.51056
 30
0.0
 10
1.62117
 20
-1.51056
 30
0.0
 10
1.62117
 20
-1.51056
 30
0.0
 10
0.99593
 20
-2.22089
 30
0.0
 10
0.99593
 20
-2.22089
 30
0.0
 10
0.99593
 20
-2.22089
 30
0.0
 10
0.99593
 20
-2.22089
 30
0.0
 10
1.53909
 20
-2.69901
 30
0.0
 10
1.53909
 20
-2.69901
 30
0.0
 10
1.53909
 20
-2.69901
 30
0.0
 10
1.53909
 20
-2.69901
 30
0.0
 10
1.53903
 20
-2.69907
 30
0.0
 10
1.53903
 20
-2.69907
 30
0.0
 10
1.53903
 20
-2.69907
 30
0.0
 10
1.53903
 20
-2.69907
 30
0.0
 10
1.5809
 20
-2.73592
 30
0.0
 10
1.5809
 20
-2.73592
 30
0.0
 10
1.5809
 20
-2.73592
 30
0.0
 10
1.5809
 20
-2.73592
 30
0.0
 10
1.83837
 20
-2.4434
 30
0.0
 10
1.83837
 20
-2.4434
 30
0.0
 10
1.83837
 20
-2.4434
 30
0.0
 10
1.83837
 20
-2.4434
 30
0.0
 10
3.19933
 20
-0.89723
 30
0.0
 10
3.19933
 20
-0.89723
 30
0.0
 10
3.19933
 20
-0.89723
 30
0.0
 10
3.19933
 20
-0.89723
 30
0.0
 10
2.6143
 20
-0.38228
 30
0.0
 10
2.6143
 20
-0.38228
 30
0.0
 10
2.6143
 20
-0.38228
 30
0.0
 10
2.6143
 20
-0.38228
 30
0.0
 10
2.13617
 20
-0.92544
 30
0.0
 10
2.13617
 20
-0.92544
 30
0.0
 10
2.13617
 20
-0.92544
 30
0.0
 10
2.13617
 20
-0.92544
 30
0.0
 10
2.13612
 20
-0.92553
 30
0.0
 10
2.13612
 20
-0.92553
 30
0.0
 10
2.13612
 20
-0.92553
 30
0.0
 10
2.13612
 20
-0.92553
 30
0.0
 10
1.42572
 20
-0.30022
 30
0.0
 10
1.42572
 20
-0.30022
 30
0.0
 10
1.42572
 20
-0.30022
 30
0.0
 10
1.42572
 20
-0.30022
 30
0.0
 10
0.91083
 20
-0.88519
 30
0.0
 10
0.91083
 20
-0.88519
 30
0.0
  0
SPLINE
  5
B3
330
1F
100
AcDbEntity
  8
Layer 1
 62
   242
100
AcDbSpline
210
0.0
220
0.0
230
1.0
 70
    11
 71
     3
 72
    52
 73
    48
 74
     0
 42
0.0000000001
 43
0.0000000001
 12
1.0
 22
0.0
 32
0.0
 13
1.0
 23
0.0
 33
0.0
 40
0.0
 40
0.0
 40
0.0
 40
0.0
 40
0.0769230769230769
 40
0.0769230769230769
 40
0.0769230769230769
 40
0.0769230769230769
 40
0.1538461538461539
 40
0.1538461538461539
 40
0.1538461538461539
 40
0.1538461538461539
 40
0.2307692307692308
 40
0.2307692307692308
 40
0.2307692307692308
 40
0.2307692307692308
 40
0.3076923076923077
 40
0.3076923076923077
 40
0.3076923076923077
 40
0.3076923076923077
 40
0.3846153846153846
 40
0.3846153846153846
 40
0.3846153846153846
 40
0.3846153846153846
 40
0.4615384615384616
 40
0.4615384615384616
 40
0.4615384615384616
 40
0.4615384615384616
 40
0.5384615384615384
 40
0.5384615384615384
 40
0.5384615384615384
 40
0.5384615384615384
 40
0.6153846153846154
 40
0.6153846153846154
 40
0.6153846153846154
 40
0.6153846153846154
 40
0.6923076923076923
 40
0.6923076923076923
 40
0.6923076923076923
 40
0.6923076923076923
 40
0.7692307692307693
 40
0.7692307692307693
 40
0.7692307692307693
 40
0.7692307692307693
 40
0.8461538461538461
 40
0.8461538461538461
 40
0.8461538461538461
 40
0.8461538461538461
 40
1.0
 40
1.0
 40
1.0
 40
1.0
 10
1.69722
 20
4.72664
 30
0.0
 10
1.69722
 20
4.72664
 30
0.0
 10
2.21218
 20
5.31167
 30
0.0
 10
2.21218
 20
5.31167
 30
0.0
 10
2.21218
 20
5.31167
 30
0.0
 10
2.21218
 20
5.31167
 30
0.0
 10
1.79424
 20
5.67955
 30
0.0
 10
1.79424
 20
5.67955
 30
0.0
 10
1.79424
 20
5.67955
 30
0.0
 10
1.79424
 20
5.67955
 30
0.0
 10
1.94135
 20
5.8467
 30
0.0
 10
1.94135
 20
5.8467
 30
0.0
 10
1.94135
 20
5.8467
 30
0.0
 10
1.94135
 20
5.8467
 30
0.0
 10
1.35639
 20
6.36161
 30
0.0
 10
1.35639
 20
6.36161
 30
0.0
 10
1.35639
 20
6.36161
 30
0.0
 10
1.35639
 20
6.36161
 30
0.0
 10
0.9885
 20
5.94366
 30
0.0
 10
0.9885
 20
5.94366
 30
0.0
 10
0.9885
 20
5.94366
 30
0.0
 10
0.9885
 20
5.94366
 30
0.0
 10
0.82127
 20
6.09084
 30
0.0
 10
0.82127
 20
6.09084
 30
0.0
 10
0.82127
 20
6.09084
 30
0.0
 10
0.82127
 20
6.09084
 30
0.0
 10
0.30637
 20
5.50588
 30
0.0
 10
0.30637
 20
5.50588
 30
0.0
 10
0.30637
 20
5.50588
 30
0.0
 10
0.30637
 20
5.50588
 30
0.0
 10
0.72433
 20
5.13799
 30
0.0
 10
0.72433
 20
5.13799
 30
0.0
 10
0.72433
 20
5.13799
 30
0.0
 10
0.72433
 20
5.13799
 30
0.0
 10
0.57714
 20
4.97077
 30
0.0
 10
0.57714
 20
4.97077
 30
0.0
 10
0.57714
 20
4.97077
 30
0.0
 10
0.57714
 20
4.97077
 30
0.0
 10
1.16218
 20
4.45582
 30
0.0
 10
1.16218
 20
4.45582
 30
0.0
 10
1.16218
 20
4.45582
 30
0.0
 10
1.16218
 20
4.45582
 30
0.0
 10
1.53007
 20
4.87377
 30
0.0
 10
1.53007
 20
4.87377
 30
0.0
 10
1.53007
 20
4.87377
 30
0.0
 10
1.53007
 20
4.87377
 30
0.0
 10
1.69722
 20
4.72664
 30
0.0
 10
1.69722
 20
4.72664
 30
0.0
  0
SPLINE
  5
B4
330
1F
100
AcDbEntity
  8
Layer 1
 62
   242
100
AcDbSpline
210
0.0
220
0.0
230
1.0
 70
    11
 71
     3
 72
    48
 73
    44
 74
     0
 42
0.0000000001
 43
0.0000000001
 12
1.0
 22
0.0
 32
0.0
 13
1.0
 23
0.0
 33
0.0
 40
0.0
 40
0.0
 40
0.0
 40
0.0
 40
0.0833333333333333
 40
0.0833333333333333
 40
0.0833333333333333
 40
0.0833333333333333
 40
0.1666666666666667
 40
0.1666666666666667
 40
0.1666666666666667
 40
0.1666666666666667
 40
0.25
 40
0.25
 40
0.25
 40
0.25
 40
0.3333333333333333
 40
0.3333333333333333
 40
0.3333333333333333
 40
0.3333333333333333
 40
0.4166666666666667
 40
0.4166666666666667
 40
0.4166666666666667
 40
0.4166666666666667
 40
0.5
 40
0.5
 40
0.5
 40
0.5
 40
0.5833333333333334
 40
0.5833333333333334
 40
0.5833333333333334
 40
0.5833333333333334
 40
0.6666666666666666
 40
0.6666666666666666
 40
0.6666666666666666
 40
0.6666666666666666
 40
0.75
 40
0.75
 40
0.75
 40
0.75
 40
0.8333333333333334
 40
0.8333333333333334
 40
0.8333333333333334
 40
0.8333333333333334
 40
1.0
 40
1.0
 40
1.0
 40
1.0
 10
2.05171
 20
5.97207
 30
0.0
 10
2.05171
 20
5.97207
 30
0.0
 10
2.52988
 20
6.51532
 30
0.0
 10
2.52988
 20
6.51532
 30
0.0
 10
2.52988
 20
6.51532
 30
0.0
 10
2.52988
 20
6.51532
 30
0.0
 10
2.52995
 20
6.51527
 30
0.0
 10
2.52995
 20
6.51527
 30
0.0
 10
2.52995
 20
6.51527
 30
0.0
 10
2.52995
 20
6.51527
 30
0.0
 10
3.24027
 20
5.89001
 30
0.0
 10
3.24027
 20
5.89001
 30
0.0
 10
3.24027
 20
5.89001
 30
0.0
 10
3.24027
 20
5.89001
 30
0.0
 10
3.75523
 20
6.47506
 30
0.0
 10
3.75523
 20
6.47506
 30
0.0
 10
3.75523
 20
6.47506
 30
0.0
 10
3.75523
 20
6.47506
 30
0.0
 10
3.04491
 20
7.10029
 30
0.0
 10
3.04491
 20
7.10029
 30
0.0
 10
3.04491
 20
7.10029
 30
0.0
 10
3.04491
 20
7.10029
 30
0.0
 10
3.67021
 20
7.81069
 30
0.0
 10
3.67021
 20
7.81069
 30
0.0
 10
3.67021
 20
7.81069
 30
0.0
 10
3.67021
 20
7.81069
 30
0.0
 10
3.12696
 20
8.28887
 30
0.0
 10
3.12696
 20
8.28887
 30
0.0
 10
3.12696
 20
8.28887
 30
0.0
 10
3.12696
 20
8.28887
 30
0.0
 10
3.08517
 20
8.32565
 30
0.0
 10
3.08517
 20
8.32565
 30
0.0
 10
3.08517
 20
8.32565
 30
0.0
 10
3.08517
 20
8.32565
 30
0.0
 10
2.8277
 20
8.03314
 30
0.0
 10
2.8277
 20
8.03314
 30
0.0
 10
2.8277
 20
8.03314
 30
0.0
 10
2.8277
 20
8.03314
 30
0.0
 10
1.46673
 20
6.48697
 30
0.0
 10
1.46673
 20
6.48697
 30
0.0
 10
1.46673
 20
6.48697
 30
0.0
 10
1.46673
 20
6.48697
 30
0.0
 10
2.05171
 20
5.97207
 30
0.0
 10
2.05171
 20
5.97207
 30
0.0
  0
SPLINE
  5
B5
330
1F
100
AcDbEntity
  8
Layer 1
 62
   242
100
AcDbSpline
210
0.0
220
0.0
230
1.0
 70
    11
 71
     3
 72
    48
 73
    44
 74
     0
 42
0.0000000001
 43
0.0000000001
 12
1.0
 22
0.0
 32
0.0
 13
1.0
 23
0.0
 33
0.0
 40
0.0
 40
0.0
 40
0.0
 40
0.0
 40
0.0833333333333333
 40
0.0833333333333333
 40
0.0833333333333333
 40
0.0833333333333333
 40
0.1666666666666667
 40
0.1666666666666667
 40
0.1666666666666667
 40
0.1666666666666667
 40
0.25
 40
0.25
 40
0.25
 40
0.25
 40
0.3333333333333333
 40
0.3333333333333333
 40
0.3333333333333333
 40
0.3333333333333333
 40
0.4166666666666667
 40
0.4166666666666667
 40
0.4166666666666667
 40
0.4166666666666667
 40
0.5
 40
0.5
 40
0.5
 40
0.5
 40
0.5833333333333334
 40
0.5833333333333334
 40
0.5833333333333334
 40
0.5833333333333334
 40
0.6666666666666666
 40
0.6666666666666666
 40
0.6666666666666666
 40
0.6666666666666666
 40
0.75
 40
0.75
 40
0.75
 40
0.75
 40
0.8333333333333334
 40
0.8333333333333334
 40
0.8333333333333334
 40
0.8333333333333334
 40
1.0
 40
1.0
 40
1.0
 40
1.0
 10
5.20136
 20
6.68544
 30
0.0
 10
5.20136
 20
6.68544
 30
0.0
 10
4.49097
 20
7.31076
 30
0.0
 10
4.49097
 20
7.31076
 30
0.0
 10
4.49097
 20
7.31076
 30
0.0
 10
4.49097
 20
7.31076
 30
0.0
 10
4.49089
 20
7.31068
 30
0.0
 10
4.49089
 20
7.31068
 30
0.0
 10
4.49089
 20
7.31068
 30
0.0
 10
4.49089
 20
7.31068
 30
0.0
 10
3.86566
 20
6.60036
 30
0.0
 10
3.86566
 20
6.60036
 30
0.0
 10
3.86566
 20
6.60036
 30
0.0
 10
3.86566
 20
6.60036
 30
0.0
 10
3.28062
 20
7.11532
 30
0.0
 10
3.28062
 20
7.11532
 30
0.0
 10
3.28062
 20
7.11532
 30
0.0
 10
3.28062
 20
7.11532
 30
0.0
 10
3.90593
 20
7.82572
 30
0.0
 10
3.90593
 20
7.82572
 30
0.0
 10
3.90593
 20
7.82572
 30
0.0
 10
3.90593
 20
7.82572
 30
0.0
 10
3.36267
 20
8.30389
 30
0.0
 10
3.36267
 20
8.30389
 30
0.0
 10
3.36267
 20
8.30389
 30
0.0
 10
3.36267
 20
8.30389
 30
0.0
 10
3.87763
 20
8.88892
 30
0.0
 10
3.87763
 20
8.88892
 30
0.0
 10
3.87763
 20
8.88892
 30
0.0
 10
3.87763
 20
8.88892
 30
0.0
 10
5.42379
 20
7.52797
 30
0.0
 10
5.42379
 20
7.52797
 30
0.0
 10
5.42379
 20
7.52797
 30
0.0
 10
5.42379
 20
7.52797
 30
0.0
 10
5.71632
 20
7.27049
 30
0.0
 10
5.71632
 20
7.27049
 30
0.0
 10
5.71632
 20
7.27049
 30
0.0
 10
5.71632
 20
7.27049
 30
0.0
 10
5.67947
 20
7.22863
 30
0.0
 10
5.67947
 20
7.22863
 30
0.0
 10
5.67947
 20
7.22863
 30
0.0
 10
5.67947
 20
7.22863
 30
0.0
 10
5.20136
 20
6.68544
 30
0.0
 10
5.20136
 20
6.68544
 30
0.0
  0
SPLINE
  5
B6
330
1F
100
AcDbEntity
  8
Layer 1
 62
   242
100
AcDbSpline
210
0.0
220
0.0
230
1.0
 70
    11
 71
     3
 72
    60
 73
    56
 74
     0
 42
0.0000000001
 43
0.0000000001
 12
1.0
 22
0.0
 32
0.0
 13
1.0
 23
0.0
 33
0.0
 40
0.0
 40
0.0
 40
0.0
 40
0.0
 40
0.0666666666666667
 40
0.0666666666666667
 40
0.0666666666666667
 40
0.0666666666666667
 40
0.1333333333333333
 40
0.1333333333333333
 40
0.1333333333333333
 40
0.1333333333333333
 40
0.2
 40
0.2
 40
0.2
 40
0.2
 40
0.2666666666666667
 40
0.2666666666666667
 40
0.2666666666666667
 40
0.2666666666666667
 40
0.3333333333333333
 40
0.3333333333333333
 40
0.3333333333333333
 40
0.3333333333333333
 40
0.4
 40
0.4
 40
0.4
 40
0.4
 40
0.4666666666666667
 40
0.4666666666666667
 40
0.4666666666666667
 40
0.4666666666666667
 40
0.5333333333333333
 40
0.5333333333333333
 40
0.5333333333333333
 40
0.5333333333333333
 40
0.6
 40
0.6
 40
0.6
 40
0.6
 40
0.6666666666666666
 40
0.6666666666666666
 40
0.6666666666666666
 40
0.6666666666666666
 40
0.7333333333333333
 40
0.7333333333333333
 40
0.7333333333333333
 40
0.7333333333333333
 40
0.8
 40
0.8
 40
0.8
 40
0.8
 40
0.8666666666666667
 40
0.8666666666666667
 40
0.8666666666666667
 40
0.8666666666666667
 40
1.0
 40
1.0
 40
1.0
 40
1.0
 10
2.32244
 20
5.43709
 30
0.0
 10
2.32244
 20
5.43709
 30
0.0
 10
3.86862
 20
4.07613
 30
0.0
 10
3.86862
 20
4.07613
 30
0.0
 10
3.86862
 20
4.07613
 30
0.0
 10
3.86862
 20
4.07613
 30
0.0
 10
4.38351
 20
4.66111
 30
0.0
 10
4.38351
 20
4.66111
 30
0.0
 10
4.38351
 20
4.66111
 30
0.0
 10
4.38351
 20
4.66111
 30
0.0
 10
3.84034
 20
5.13921
 30
0.0
 10
3.84034
 20
5.13921
 30
0.0
 10
3.84034
 20
5.13921
 30
0.0
 10
3.84034
 20
5.13921
 30
0.0
 10
3.84041
 20
5.13929
 30
0.0
 10
3.84041
 20
5.13929
 30
0.0
 10
3.84041
 20
5.13929
 30
0.0
 10
3.84041
 20
5.13929
 30
0.0
 10
3.84033
 20
5.13935
 30
0.0
 10
3.84033
 20
5.13935
 30
0.0
 10
3.84033
 20
5.13935
 30
0.0
 10
3.84033
 20
5.13935
 30
0.0
 10
4.46557
 20
5.84968
 30
0.0
 10
4.46557
 20
5.84968
 30
0.0
 10
4.46557
 20
5.84968
 30
0.0
 10
4.46557
 20
5.84968
 30
0.0
 10
3.8806
 20
6.36457
 30
0.0
 10
3.8806
 20
6.36457
 30
0.0
 10
3.8806
 20
6.36457
 30
0.0
 10
3.8806
 20
6.36457
 30
0.0
 10
3.25537
 20
5.65425
 30
0.0
 10
3.25537
 20
5.65425
 30
0.0
 10
3.25537
 20
5.65425
 30
0.0
 10
3.25537
 20
5.65425
 30
0.0
 10
3.2553
 20
5.65431
 30
0.0
 10
3.2553
 20
5.65431
 30
0.0
 10
3.2553
 20
5.65431
 30
0.0
 10
3.2553
 20
5.65431
 30
0.0
 10
2.54496
 20
6.27956
 30
0.0
 10
2.54496
 20
6.27956
 30
0.0
 10
2.54496
 20
6.27956
 30
0.0
 10
2.54496
 20
6.27956
 30
0.0
 10
2.06679
 20
5.7363
 30
0.0
 10
2.06679
 20
5.7363
 30
0.0
 10
2.06679
 20
5.7363
 30
0.0
 10
2.06679
 20
5.7363
 30
0.0
 10
2.06672
 20
5.73637
 30
0.0
 10
2.06672
 20
5.73637
 30
0.0
 10
2.06672
 20
5.73637
 30
0.0
 10
2.06672
 20
5.73637
 30
0.0
 10
2.02994
 20
5.69458
 30
0.0
 10
2.02994
 20
5.69458
 30
0.0
 10
2.02994
 20
5.69458
 30
0.0
 10
2.02994
 20
5.69458
 30
0.0
 10
2.32244
 20
5.43709
 30
0.0
 10
2.32244
 20
5.43709
 30
0.0
  0
SPLINE
  5
B7
330
1F
100
AcDbEntity
  8
Layer 1
 62
   242
100
AcDbSpline
210
0.0
220
0.0
230
1.0
 70
    11
 71
     3
 72
    48
 73
    44
 74
     0
 42
0.0000000001
 43
0.0000000001
 12
1.0
 22
0.0
 32
0.0
 13
1.0
 23
0.0
 33
0.0
 40
0.0
 40
0.0
 40
0.0
 40
0.0
 40
0.0833333333333333
 40
0.0833333333333333
 40
0.0833333333333333
 40
0.0833333333333333
 40
0.1666666666666667
 40
0.1666666666666667
 40
0.1666666666666667
 40
0.1666666666666667
 40
0.25
 40
0.25
 40
0.25
 40
0.25
 40
0.3333333333333333
 40
0.3333333333333333
 40
0.3333333333333333
 40
0.3333333333333333
 40
0.4166666666666667
 40
0.4166666666666667
 40
0.4166666666666667
 40
0.4166666666666667
 40
0.5
 40
0.5
 40
0.5
 40
0.5
 40
0.5833333333333334
 40
0.5833333333333334
 40
0.5833333333333334
 40
0.5833333333333334
 40
0.6666666666666666
 40
0.6666666666666666
 40
0.6666666666666666
 40
0.6666666666666666
 40
0.75
 40
0.75
 40
0.75
 40
0.75
 40
0.8333333333333334
 40
0.8333333333333334
 40
0.8333333333333334
 40
0.8333333333333334
 40
1.0
 40
1.0
 40
1.0
 40
1.0
 10
3.66126
 20
2.99786
 30
0.0
 10
3.66126
 20
2.99786
 30
0.0
 10
2.95086
 20
3.62316
 30
0.0
 10
2.95086
 20
3.62316
 30
0.0
 10
2.95086
 20
3.62316
 30
0.0
 10
2.95086
 20
3.62316
 30
0.0
 10
2.9508
 20
3.6231
 30
0.0
 10
2.9508
 20
3.6231
 30
0.0
 10
2.9508
 20
3.6231
 30
0.0
 10
2.9508
 20
3.6231
 30
0.0
 10
2.32556
 20
2.91275
 30
0.0
 10
2.32556
 20
2.91275
 30
0.0
 10
2.32556
 20
2.91275
 30
0.0
 10
2.32556
 20
2.91275
 30
0.0
 10
1.74053
 20
3.42772
 30
0.0
 10
1.74053
 20
3.42772
 30
0.0
 10
1.74053
 20
3.42772
 30
0.0
 10
1.74053
 20
3.42772
 30
0.0
 10
2.36583
 20
4.13811
 30
0.0
 10
2.36583
 20
4.13811
 30
0.0
 10
2.36583
 20
4.13811
 30
0.0
 10
2.36583
 20
4.13811
 30
0.0
 10
1.82257
 20
4.61629
 30
0.0
 10
1.82257
 20
4.61629
 30
0.0
 10
1.82257
 20
4.61629
 30
0.0
 10
1.82257
 20
4.61629
 30
0.0
 10
2.33754
 20
5.20132
 30
0.0
 10
2.33754
 20
5.20132
 30
0.0
 10
2.33754
 20
5.20132
 30
0.0
 10
2.33754
 20
5.20132
 30
0.0
 10
3.88371
 20
3.84036
 30
0.0
 10
3.88371
 20
3.84036
 30
0.0
 10
3.88371
 20
3.84036
 30
0.0
 10
3.88371
 20
3.84036
 30
0.0
 10
4.17622
 20
3.5829
 30
0.0
 10
4.17622
 20
3.5829
 30
0.0
 10
4.17622
 20
3.5829
 30
0.0
 10
4.17622
 20
3.5829
 30
0.0
 10
4.13938
 20
3.54103
 30
0.0
 10
4.13938
 20
3.54103
 30
0.0
 10
4.13938
 20
3.54103
 30
0.0
 10
4.13938
 20
3.54103
 30
0.0
 10
3.66126
 20
2.99786
 30
0.0
 10
3.66126
 20
2.99786
 30
0.0
  0
SPLINE
  5
B8
330
1F
100
AcDbEntity
  8
Layer 1
 62
   242
100
AcDbSpline
210
0.0
220
0.0
230
1.0
 70
    11
 71
     3
 72
    60
 73
    56
 74
     0
 42
0.0000000001
 43
0.0000000001
 12
1.0
 22
0.0
 32
0.0
 13
1.0
 23
0.0
 33
0.0
 40
0.0
 40
0.0
 40
0.0
 40
0.0
 40
0.0666666666666667
 40
0.0666666666666667
 40
0.0666666666666667
 40
0.0666666666666667
 40
0.1333333333333333
 40
0.1333333333333333
 40
0.1333333333333333
 40
0.1333333333333333
 40
0.2
 40
0.2
 40
0.2
 40
0.2
 40
0.2666666666666667
 40
0.2666666666666667
 40
0.2666666666666667
 40
0.2666666666666667
 40
0.3333333333333333
 40
0.3333333333333333
 40
0.3333333333333333
 40
0.3333333333333333
 40
0.4
 40
0.4
 40
0.4
 40
0.4
 40
0.4666666666666667
 40
0.4666666666666667
 40
0.4666666666666667
 40
0.4666666666666667
 40
0.5333333333333333
 40
0.5333333333333333
 40
0.5333333333333333
 40
0.5333333333333333
 40
0.6
 40
0.6
 40
0.6
 40
0.6
 40
0.6666666666666666
 40
0.6666666666666666
 40
0.6666666666666666
 40
0.6666666666666666
 40
0.7333333333333333
 40
0.7333333333333333
 40
0.7333333333333333
 40
0.7333333333333333
 40
0.8
 40
0.8
 40
0.8
 40
0.8
 40
0.8666666666666667
 40
0.8666666666666667
 40
0.8666666666666667
 40
0.8666666666666667
 40
1.0
 40
1.0
 40
1.0
 40
1.0
 10
0.78236
 20
1.7495
 30
0.0
 10
0.78236
 20
1.7495
 30
0.0
 10
2.32852
 20
0.38855
 30
0.0
 10
2.32852
 20
0.38855
 30
0.0
 10
2.32852
 20
0.38855
 30
0.0
 10
2.32852
 20
0.38855
 30
0.0
 10
2.84343
 20
0.97351
 30
0.0
 10
2.84343
 20
0.97351
 30
0.0
 10
2.84343
 20
0.97351
 30
0.0
 10
2.84343
 20
0.97351
 30
0.0
 10
2.30025
 20
1.45162
 30
0.0
 10
2.30025
 20
1.45162
 30
0.0
 10
2.30025
 20
1.45162
 30
0.0
 10
2.30025
 20
1.45162
 30
0.0
 10
2.3003
 20
1.45169
 30
0.0
 10
2.3003
 20
1.45169
 30
0.0
 10
2.3003
 20
1.45169
 30
0.0
 10
2.3003
 20
1.45169
 30
0.0
 10
2.30023
 20
1.45176
 30
0.0
 10
2.30023
 20
1.45176
 30
0.0
 10
2.30023
 20
1.45176
 30
0.0
 10
2.30023
 20
1.45176
 30
0.0
 10
2.92548
 20
2.16208
 30
0.0
 10
2.92548
 20
2.16208
 30
0.0
 10
2.92548
 20
2.16208
 30
0.0
 10
2.92548
 20
2.16208
 30
0.0
 10
2.34052
 20
2.67698
 30
0.0
 10
2.34052
 20
2.67698
 30
0.0
 10
2.34052
 20
2.67698
 30
0.0
 10
2.34052
 20
2.67698
 30
0.0
 10
1.71527
 20
1.96665
 30
0.0
 10
1.71527
 20
1.96665
 30
0.0
 10
1.71527
 20
1.96665
 30
0.0
 10
1.71527
 20
1.96665
 30
0.0
 10
1.71518
 20
1.96671
 30
0.0
 10
1.71518
 20
1.96671
 30
0.0
 10
1.71518
 20
1.96671
 30
0.0
 10
1.71518
 20
1.96671
 30
0.0
 10
1.00487
 20
2.59196
 30
0.0
 10
1.00487
 20
2.59196
 30
0.0
 10
1.00487
 20
2.59196
 30
0.0
 10
1.00487
 20
2.59196
 30
0.0
 10
0.52669
 20
2.04871
 30
0.0
 10
0.52669
 20
2.04871
 30
0.0
 10
0.52669
 20
2.04871
 30
0.0
 10
0.52669
 20
2.04871
 30
0.0
 10
0.52662
 20
2.04878
 30
0.0
 10
0.52662
 20
2.04878
 30
0.0
 10
0.52662
 20
2.04878
 30
0.0
 10
0.52662
 20
2.04878
 30
0.0
 10
0.48983
 20
2.00698
 30
0.0
 10
0.48983
 20
2.00698
 30
0.0
 10
0.48983
 20
2.00698
 30
0.0
 10
0.48983
 20
2.00698
 30
0.0
 10
0.78236
 20
1.7495
 30
0.0
 10
0.78236
 20
1.7495
 30
0.0
  0
SPLINE
  5
B9
330
1F
100
AcDbEntity
  8
Layer 1
 62
   242
100
AcDbSpline
210
0.0
220
0.0
230
1.0
 70
    11
 71
     3
 72
    56
 73
    52
 74
     0
 42
0.0000000001
 43
0.0000000001
 12
1.0
 22
0.0
 32
0.0
 13
1.0
 23
0.0
 33
0.0
 40
0.0
 40
0.0
 40
0.0
 40
0.0
 40
0.0714285714285714
 40
0.0714285714285714
 40
0.0714285714285714
 40
0.0714285714285714
 40
0.1428571428571428
 40
0.1428571428571428
 40
0.1428571428571428
 40
0.1428571428571428
 40
0.2142857142857143
 40
0.2142857142857143
 40
0.2142857142857143
 40
0.2142857142857143
 40
0.2857142857142857
 40
0.2857142857142857
 40
0.2857142857142857
 40
0.2857142857142857
 40
0.3571428571428572
 40
0.3571428571428572
 40
0.3571428571428572
 40
0.3571428571428572
 40
0.4285714285714285
 40
0.4285714285714285
 40
0.4285714285714285
 40
0.4285714285714285
 40
0.5
 40
0.5
 40
0.5
 40
0.5
 40
0.5714285714285714
 40
0.5714285714285714
 40
0.5714285714285714
 40
0.5714285714285714
 40
0.6428571428571429
 40
0.6428571428571429
 40
0.6428571428571429
 40
0.6428571428571429
 40
0.7142857142857143
 40
0.7142857142857143
 40
0.7142857142857143
 40
0.7142857142857143
 40
0.7857142857142857
 40
0.7857142857142857
 40
0.7857142857142857
 40
0.7857142857142857
 40
0.8571428571428571
 40
0.8571428571428571
 40
0.8571428571428571
 40
0.8571428571428571
 40
1.0
 40
1.0
 40
1.0
 40
1.0
 10
2.12117
 20
-0.68975
 30
0.0
 10
2.12117
 20
-0.68975
 30
0.0
 10
1.41076
 20
-0.06443
 30
0.0
 10
1.41076
 20
-0.06443
 30
0.0
 10
1.41076
 20
-0.06443
 30
0.0
 10
1.41076
 20
-0.06443
 30
0.0
 10
1.41071
 20
-0.06451
 30
0.0
 10
1.41071
 20
-0.06451
 30
0.0
 10
1.41071
 20
-0.06451
 30
0.0
 10
1.41071
 20
-0.06451
 30
0.0
 10
0.78546
 20
-0.77483
 30
0.0
 10
0.78546
 20
-0.77483
 30
0.0
 10
0.78546
 20
-0.77483
 30
0.0
 10
0.78546
 20
-0.77483
 30
0.0
 10
0.30129
 20
-0.34866
 30
0.0
 10
0.30129
 20
-0.34866
 30
0.0
 10
0.30129
 20
-0.34866
 30
0.0
 10
0.30129
 20
-0.34866
 30
0.0
 10
0.30129
 20
-0.1453
 30
0.0
 10
0.30129
 20
-0.1453
 30
0.0
 10
0.30129
 20
-0.1453
 30
0.0
 10
0.30129
 20
-0.1453
 30
0.0
 10
0.82574
 20
0.45051
 30
0.0
 10
0.82574
 20
0.45051
 30
0.0
 10
0.82574
 20
0.45051
 30
0.0
 10
0.82574
 20
0.45051
 30
0.0
 10
0.30129
 20
0.91215
 30
0.0
 10
0.30129
 20
0.91215
 30
0.0
 10
0.30129
 20
0.91215
 30
0.0
 10
0.30129
 20
0.91215
 30
0.0
 10
0.30129
 20
0.95006
 30
0.0
 10
0.30129
 20
0.95006
 30
0.0
 10
0.30129
 20
0.95006
 30
0.0
 10
0.30129
 20
0.95006
 30
0.0
 10
0.79745
 20
1.51373
 30
0.0
 10
0.79745
 20
1.51373
 30
0.0
 10
0.79745
 20
1.51373
 30
0.0
 10
0.79745
 20
1.51373
 30
0.0
 10
2.34361
 20
0.15277
 30
0.0
 10
2.34361
 20
0.15277
 30
0.0
 10
2.34361
 20
0.15277
 30
0.0
 10
2.34361
 20
0.15277
 30
0.0
 10
2.63612
 20
-0.1047
 30
0.0
 10
2.63612
 20
-0.1047
 30
0.0
 10
2.63612
 20
-0.1047
 30
0.0
 10
2.63612
 20
-0.1047
 30
0.0
 10
2.59928
 20
-0.14656
 30
0.0
 10
2.59928
 20
-0.14656
 30
0.0
 10
2.59928
 20
-0.14656
 30
0.0
 10
2.59928
 20
-0.14656
 30
0.0
 10
2.12117
 20
-0.68975
 30
0.0
 10
2.12117
 20
-0.68975
 30
0.0
  0
SPLINE
  5
BA
330
1F
100
AcDbEntity
  8
Layer 1
 62
   242
100
AcDbSpline
210
0.0
220
0.0
230
1.0
 70
    11
 71
     3
 72
    60
 73
    56
 74
     0
 42
0.0000000001
 43
0.0000000001
 12
1.0
 22
0.0
 32
0.0
 13
1.0
 23
0.0
 33
0.0
 40
0.0
 40
0.0
 40
0.0
 40
0.0
 40
0.0666666666666667
 40
0.0666666666666667
 40
0.0666666666666667
 40
0.0666666666666667
 40
0.1333333333333333
 40
0.1333333333333333
 40
0.1333333333333333
 40
0.1333333333333333
 40
0.2
 40
0.2
 40
0.2
 40
0.2
 40
0.2666666666666667
 40
0.2666666666666667
 40
0.2666666666666667
 40
0.2666666666666667
 40
0.3333333333333333
 40
0.3333333333333333
 40
0.3333333333333333
 40
0.3333333333333333
 40
0.4
 40
0.4
 40
0.4
 40
0.4
 40
0.4666666666666667
 40
0.4666666666666667
 40
0.4666666666666667
 40
0.4666666666666667
 40
0.5333333333333333
 40
0.5333333333333333
 40
0.5333333333333333
 40
0.5333333333333333
 40
0.6
 40
0.6
 40
0.6
 40
0.6
 40
0.6666666666666666
 40
0.6666666666666666
 40
0.6666666666666666
 40
0.6666666666666666
 40
0.7333333333333333
 40
0.7333333333333333
 40
0.7333333333333333
 40
0.7333333333333333
 40
0.8
 40
0.8
 40
0.8
 40
0.8
 40
0.8666666666666667
 40
0.8666666666666667
 40
0.8666666666666667
 40
0.8666666666666667
 40
1.0
 40
1.0
 40
1.0
 40
1.0
 10
0.30341
 20
8.03011
 30
0.0
 10
0.30341
 20
8.03011
 30
0.0
 10
1.01375
 20
7.40485
 30
0.0
 10
1.01375
 20
7.40485
 30
0.0
 10
1.01375
 20
7.40485
 30
0.0
 10
1.01375
 20
7.40485
 30
0.0
 10
1.01368
 20
7.40478
 30
0.0
 10
1.01368
 20
7.40478
 30
0.0
 10
1.01368
 20
7.40478
 30
0.0
 10
1.01368
 20
7.40478
 30
0.0
 10
1.01376
 20
7.40473
 30
0.0
 10
1.01376
 20
7.40473
 30
0.0
 10
1.01376
 20
7.40473
 30
0.0
 10
1.01376
 20
7.40473
 30
0.0
 10
0.38851
 20
6.69441
 30
0.0
 10
0.38851
 20
6.69441
 30
0.0
 10
0.38851
 20
6.69441
 30
0.0
 10
0.38851
 20
6.69441
 30
0.0
 10
0.93168
 20
6.21628
 30
0.0
 10
0.93168
 20
6.21628
 30
0.0
 10
0.93168
 20
6.21628
 30
0.0
 10
0.93168
 20
6.21628
 30
0.0
 10
0.93162
 20
6.2162
 30
0.0
 10
0.93162
 20
6.2162
 30
0.0
 10
0.93162
 20
6.2162
 30
0.0
 10
0.93162
 20
6.2162
 30
0.0
 10
0.97349
 20
6.17937
 30
0.0
 10
0.97349
 20
6.17937
 30
0.0
 10
0.97349
 20
6.17937
 30
0.0
 10
0.97349
 20
6.17937
 30
0.0
 10
1.23096
 20
6.47188
 30
0.0
 10
1.23096
 20
6.47188
 30
0.0
 10
1.23096
 20
6.47188
 30
0.0
 10
1.23096
 20
6.47188
 30
0.0
 10
2.59192
 20
8.01805
 30
0.0
 10
2.59192
 20
8.01805
 30
0.0
 10
2.59192
 20
8.01805
 30
0.0
 10
2.59192
 20
8.01805
 30
0.0
 10
2.00689
 20
8.53301
 30
0.0
 10
2.00689
 20
8.53301
 30
0.0
 10
2.00689
 20
8.53301
 30
0.0
 10
2.00689
 20
8.53301
 30
0.0
 10
1.52878
 20
7.98983
 30
0.0
 10
1.52878
 20
7.98983
 30
0.0
 10
1.52878
 20
7.98983
 30
0.0
 10
1.52878
 20
7.98983
 30
0.0
 10
1.52871
 20
7.98975
 30
0.0
 10
1.52871
 20
7.98975
 30
0.0
 10
1.52871
 20
7.98975
 30
0.0
 10
1.52871
 20
7.98975
 30
0.0
 10
0.81831
 20
8.61507
 30
0.0
 10
0.81831
 20
8.61507
 30
0.0
 10
0.81831
 20
8.61507
 30
0.0
 10
0.81831
 20
8.61507
 30
0.0
 10
0.30341
 20
8.03011
 30
0.0
 10
0.30341
 20
8.03011
 30
0.0
  0
ENDSEC
  0
SECTION
  2
OBJECTS
  0
DICTIONARY
  5
C
330
0
100
AcDbDictionary
281
     1
  3
ACAD_GROUP
350
D
  3
ACAD_LAYOUT
350
1A
  3
ACAD_MATERIAL
350
3B
  3
ACAD_MLEADERSTYLE
350
BD
  3
ACAD_MLINESTYLE
350
17
  3
ACAD_PLOTSETTINGS
350
19
  3
ACAD_PLOTSTYLENAME
350
E
  3
ACAD_VISUALSTYLE
350
2A
  3
AcDbVariableDictionary
350
BB
  0
DICTIONARY
  5
D
102
{ACAD_REACTORS
330
C
102
}
330
C
100
AcDbDictionary
281
     1
  0
DICTIONARY
  5
1A
102
{ACAD_REACTORS
330
C
102
}
330
C
100
AcDbDictionary
281
     1
  3
Layout1
350
1E
  3
Layout2
350
26
  3
Model
350
22
  0
DICTIONARY
  5
3B
102
{ACAD_REACTORS
330
C
102
}
330
C
100
AcDbDictionary
281
     1
  3
ByBlock
350
3D
  3
ByLayer
350
3C
  3
Global
350
3E
  0
DICTIONARY
  5
BD
102
{ACAD_REACTORS
330
C
102
}
330
C
100
AcDbDictionary
281
     1
  0
DICTIONARY
  5
17
102
{ACAD_REACTORS
330
C
102
}
330
C
100
AcDbDictionary
281
     1
  3
Standard
350
18
  0
DICTIONARY
  5
19
102
{ACAD_REACTORS
330
C
102
}
330
C
100
AcDbDictionary
281
     1
  0
ACDBDICTIONARYWDFLT
  5
E
102
{ACAD_REACTORS
330
C
102
}
330
C
100
AcDbDictionary
281
     1
  3
Normal
350
F
100
AcDbDictionaryWithDefault
340
F
  0
DICTIONARY
  5
2A
102
{ACAD_REACTORS
330
C
102
}
330
C
100
AcDbDictionary
281
     1
  3
2dWireframe
350
2F
  3
3D Hidden
350
31
  3
3dWireframe
350
30
  3
Basic
350
32
  3
Brighten
350
36
  3
ColorChange
350
3A
  3
Conceptual
350
34
  3
Dim
350
35
  3
Facepattern
350
39
  3
Flat
350
2B
  3
FlatWithEdges
350
2C
  3
Gouraud
350
2D
  3
GouraudWithEdges
350
2E
  3
Linepattern
350
38
  3
Realistic
350
33
  3
Thicken
350
37
  0
DICTIONARY
  5
BB
102
{ACAD_REACTORS
330
C
102
}
330
C
100
AcDbDictionary
281
     1
  3
DIMASSOC
350
BE
  3
HIDETEXT
350
BF
  0
LAYOUT
  5
1E
102
{ACAD_REACTORS
330
1A
102
}
330
1A
100
AcDbPlotSettings
  1

  2
none_device
  4

  6

 40
0.0
 41
0.0
 42
0.0
 43
0.0
 44
0.0
 45
0.0
 46
0.0
 47
0.0
 48
0.0
 49
0.0
140
0.0
141
0.0
142
1.0
143
1.0
 70
   688
 72
     0
 73
     0
 74
     5
  7

 75
    16
147
1.0
148
0.0
149
0.0
100
AcDbLayout
  1
Layout1
 70
     1
 71
     1
 10
0.0
 20
0.0
 11
12.0
 21
9.0
 12
0.0
 22
0.0
 32
0.0
 14
1.000000000000000E+20
 24
1.000000000000000E+20
 34
1.000000000000000E+20
 15
-1.000000000000000E+20
 25
-1.000000000000000E+20
 35
-1.000000000000000E+20
146
0.0
 13
0.0
 23
0.0
 33
0.0
 16
1.0
 26
0.0
 36
0.0
 17
0.0
 27
1.0
 37
0.0
 76
     0
330
1B
  0
LAYOUT
  5
26
102
{ACAD_REACTORS
330
1A
102
}
330
1A
100
AcDbPlotSettings
  1

  2
none_device
  4

  6

 40
0.0
 41
0.0
 42
0.0
 43
0.0
 44
0.0
 45
0.0
 46
0.0
 47
0.0
 48
0.0
 49
0.0
140
0.0
141
0.0
142
1.0
143
1.0
 70
   688
 72
     0
 73
     0
 74
     5
  7

 75
    16
147
1.0
148
0.0
149
0.0
100
AcDbLayout
  1
Layout2
 70
     1
 71
     2
 10
0.0
 20
0.0
 11
0.0
 21
0.0
 12
0.0
 22
0.0
 32
0.0
 14
0.0
 24
0.0
 34
0.0
 15
0.0
 25
0.0
 35
0.0
146
0.0
 13
0.0
 23
0.0
 33
0.0
 16
1.0
 26
0.0
 36
0.0
 17
0.0
 27
1.0
 37
0.0
 76
     0
330
23
  0
LAYOUT
  5
22
102
{ACAD_REACTORS
330
1A
102
}
330
1A
100
AcDbPlotSettings
  1

  2
none_device
  4

  6

 40
0.0
 41
0.0
 42
0.0
 43
0.0
 44
0.0
 45
0.0
 46
0.0
 47
0.0
 48
0.0
 49
0.0
140
0.0
141
0.0
142
1.0
143
1.0
 70
  1712
 72
     0
 73
     0
 74
     0
  7

 75
     0
147
1.0
148
0.0
149
0.0
100
AcDbLayout
  1
Model
 70
     1
 71
     0
 10
0.0
 20
0.0
 11
12.0
 21
9.0
 12
0.0
 22
0.0
 32
0.0
 14
-7.51274
 24
-9.52756
 34
0.0
 15
6.64774
 25
10.6885
 35
0.0
146
0.0
 13
0.0
 23
0.0
 33
0.0
 16
1.0
 26
0.0
 36
0.0
 17
0.0
 27
1.0
 37
0.0
 76
     0
330
1F
331
29
  0
MATERIAL
  5
3D
102
{ACAD_REACTORS
330
3B
102
}
102
{ACAD_XDICTIONARY
360
E2
102
}
330
3B
100
AcDbMaterial
  1
ByBlock
  0
MATERIAL
  5
3C
102
{ACAD_REACTORS
330
3B
102
}
102
{ACAD_XDICTIONARY
360
E0
102
}
330
3B
100
AcDbMaterial
  1
ByLayer
  0
MATERIAL
  5
3E
102
{ACAD_REACTORS
330
3B
102
}
102
{ACAD_XDICTIONARY
360
E4
102
}
330
3B
100
AcDbMaterial
  1
Global
  0
MLINESTYLE
  5
18
102
{ACAD_REACTORS
330
17
102
}
330
17
100
AcDbMlineStyle
  2
Standard
 70
     0
  3

 62
   256
 51
90.0
 52
90.0
 71
     2
 49
0.5
 62
   256
  6
BYLAYER
 49
-0.5
 62
   256
  6
BYLAYER
  0
ACDBPLACEHOLDER
  5
F
102
{ACAD_REACTORS
330
E
102
}
330
E
  0
VISUALSTYLE
  5
2F
102
{ACAD_REACTORS
330
2A
102
}
102
{ACAD_XDICTIONARY
360
C8
102
}
330
2A
100
AcDbVisualStyle
  2
2dWireframe
 70
     4
 71
     0
 72
     2
 73
     0
 90
        0
 40
-0.6
 41
-30.0
 62
     5
 63
     7
 74
     1
 91
        4
 64
     7
 65
   257
 75
     1
175
     1
 42
1.0
 92
        0
 66
   257
 43
1.0
 76
     1
 77
     6
 78
     2
 67
     7
 79
     5
170
     0
171
     0
290
     0
174
     0
 93
        1
 44
0.0
173
     0
291
     0
 45
0.0
1001
ACAD
1000
AcDbSavedByObjectVersion
1070
     0
  0
VISUALSTYLE
  5
31
102
{ACAD_REACTORS
330
2A
102
}
102
{ACAD_XDICTIONARY
360
CC
102
}
330
2A
100
AcDbVisualStyle
  2
3D Hidden
 70
     6
 71
     1
 72
     2
 73
     2
 90
        0
 40
-0.6
 41
-30.0
 62
     5
 63
     7
 74
     2
 91
        2
 64
     7
 65
   257
 75
     2
175
     1
 42
40.0
 92
        0
 66
   257
 43
1.0
 76
     1
 77
     6
 78
     2
 67
     7
 79
     3
170
     0
171
     0
290
     0
174
     0
 93
        1
 44
0.0
173
     0
291
     0
 45
0.0
1001
ACAD
1000
AcDbSavedByObjectVersion
1070
     0
  0
VISUALSTYLE
  5
30
102
{ACAD_REACTORS
330
2A
102
}
102
{ACAD_XDICTIONARY
360
CA
102
}
330
2A
100
AcDbVisualStyle
  2
3dWireframe
 70
     5
 71
     0
 72
     2
 73
     0
 90
        0
 40
-0.6
 41
-30.0
 62
     5
 63
     7
 74
     1
 91
        4
 64
     7
 65
   257
 75
     1
175
     1
 42
1.0
 92
        0
 66
   257
 43
1.0
 76
     1
 77
     6
 78
     2
 67
     7
 79
     5
170
     0
171
     0
290
     0
174
     0
 93
        1
 44
0.0
173
     0
291
     0
 45
0.0
1001
ACAD
1000
AcDbSavedByObjectVersion
1070
     0
  0
VISUALSTYLE
  5
32
102
{ACAD_REACTORS
330
2A
102
}
102
{ACAD_XDICTIONARY
360
CE
102
}
330
2A
100
AcDbVisualStyle
  2
Basic
 70
     7
 71
     1
 72
     0
 73
     1
 90
        0
 40
-0.6
 41
-30.0
 62
     5
 63
     7
 74
     0
 91
        4
 64
     7
 65
   257
 75
     1
175
     1
 42
1.0
 92
        8
 66
     7
 43
1.0
 76
     1
 77
     6
 78
     2
 67
     7
 79
     5
170
     0
171
     0
290
     0
174
     0
 93
        1
 44
0.0
173
     0
291
     1
 45
0.0
1001
ACAD
1000
AcDbSavedByObjectVersion
1070
     0
  0
VISUALSTYLE
  5
36
102
{ACAD_REACTORS
330
2A
102
}
102
{ACAD_XDICTIONARY
360
D6
102
}
330
2A
100
AcDbVisualStyle
  2
Brighten
 70
    12
 71
     2
 72
     2
 73
     0
 90
        0
 40
-0.6
 41
-30.0
 62
     5
 63
     7
 74
     1
 91
        4
 64
     7
 65
   257
 75
     1
175
     1
 42
1.0
 92
        8
 66
     7
 43
1.0
 76
     1
 77
     6
 78
     2
 67
     7
 79
     5
170
     0
171
     0
290
     0
174
     0
 93
        1
 44
50.0
173
     0
291
     1
 45
0.0
1001
ACAD
1000
AcDbSavedByObjectVersion
1070
     0
  0
VISUALSTYLE
  5
3A
102
{ACAD_REACTORS
330
2A
102
}
102
{ACAD_XDICTIONARY
360
DE
102
}
330
2A
100
AcDbVisualStyle
  2
ColorChange
 70
    16
 71
     2
 72
     2
 73
     3
 90
        0
 40
-0.6
 41
-30.0
 62
     5
 63
     8
 74
     1
 91
        4
 64
     7
 65
   257
 75
     1
175
     1
 42
1.0
 92
        8
 66
     8
 43
1.0
 76
     1
 77
     6
 78
     2
 67
     7
 79
     5
170
     0
171
     0
290
     0
174
     0
 93
        1
 44
0.0
173
     0
291
     1
 45
0.0
1001
ACAD
1000
AcDbSavedByObjectVersion
1070
     0
  0
VISUALSTYLE
  5
34
102
{ACAD_REACTORS
330
2A
102
}
102
{ACAD_XDICTIONARY
360
D2
102
}
330
2A
100
AcDbVisualStyle
  2
Conceptual
 70
     9
 71
     3
 72
     2
 73
     0
 90
        0
 40
-0.6
 41
-30.0
 62
     5
 63
     7
 74
     2
 91
        2
 64
     7
 65
   257
 75
     1
175
     1
 42
40.0
 92
        8
 66
     7
 43
1.0
 76
     1
 77
     6
 78
     2
 67
     7
 79
     3
170
     0
171
     0
290
     0
174
     0
 93
        1
 44
0.0
173
     0
291
     0
 45
0.0
1001
ACAD
1000
AcDbSavedByObjectVersion
1070
     0
  0
VISUALSTYLE
  5
35
102
{ACAD_REACTORS
330
2A
102
}
102
{ACAD_XDICTIONARY
360
D4
102
}
330
2A
100
AcDbVisualStyle
  2
Dim
 70
    11
 71
     2
 72
     2
 73
     0
 90
        0
 40
-0.6
 41
-30.0
 62
     5
 63
     7
 74
     1
 91
        4
 64
     7
 65
   257
 75
     1
175
     1
 42
1.0
 92
        8
 66
     7
 43
1.0
 76
     1
 77
     6
 78
     2
 67
     7
 79
     5
170
     0
171
     0
290
     0
174
     0
 93
        1
 44
-50.0
173
     0
291
     1
 45
0.0
1001
ACAD
1000
AcDbSavedByObjectVersion
1070
     0
  0
VISUALSTYLE
  5
39
102
{ACAD_REACTORS
330
2A
102
}
102
{ACAD_XDICTIONARY
360
DC
102
}
330
2A
100
AcDbVisualStyle
  2
Facepattern
 70
    15
 71
     2
 72
     2
 73
     0
 90
        0
 40
-0.6
 41
-30.0
 62
     5
 63
     7
 74
     1
 91
        4
 64
     7
 65
   257
 75
     1
175
     1
 42
1.0
 92
        8
 66
     7
 43
1.0
 76
     1
 77
     6
 78
     2
 67
     7
 79
     5
170
     0
171
     0
290
     0
174
     0
 93
        1
 44
0.0
173
     0
291
     1
 45
0.0
1001
ACAD
1000
AcDbSavedByObjectVersion
1070
     0
  0
VISUALSTYLE
  5
2B
102
{ACAD_REACTORS
330
2A
102
}
102
{ACAD_XDICTIONARY
360
C0
102
}
330
2A
100
AcDbVisualStyle
  2
Flat
 70
     0
 71
     2
 72
     1
 73
     1
 90
        2
 40
-0.6
 41
30.0
 62
     5
 63
     7
 74
     0
 91
        4
 64
     7
 65
   257
 75
     1
175
     1
 42
1.0
 92
        8
 66
     7
 43
1.0
 76
     1
 77
     6
 78
     2
 67
     7
 79
     5
170
     0
171
     0
290
     0
174
     0
 93
       13
 44
0.0
173
     0
291
     1
 45
0.0
1001
ACAD
1000
AcDbSavedByObjectVersion
1070
     0
  0
VISUALSTYLE
  5
2C
102
{ACAD_REACTORS
330
2A
102
}
102
{ACAD_XDICTIONARY
360
C2
102
}
330
2A
100
AcDbVisualStyle
  2
FlatWithEdges
 70
     1
 71
     2
 72
     1
 73
     1
 90
        2
 40
-0.6
 41
30.0
 62
     5
 63
     7
 74
     1
 91
        4
 64
     7
 65
   257
 75
     1
175
     1
 42
1.0
 92
        0
 66
   257
 43
1.0
 76
     1
 77
     6
 78
     2
 67
     7
 79
     5
170
     0
171
     0
290
     0
174
     0
 93
       13
 44
0.0
173
     0
291
     1
 45
0.0
1001
ACAD
1000
AcDbSavedByObjectVersion
1070
     0
  0
VISUALSTYLE
  5
2D
102
{ACAD_REACTORS
330
2A
102
}
102
{ACAD_XDICTIONARY
360
C4
102
}
330
2A
100
AcDbVisualStyle
  2
Gouraud
 70
     2
 71
     2
 72
     2
 73
     1
 90
        2
 40
-0.6
 41
30.0
 62
     5
 63
     7
 74
     0
 91
        4
 64
     7
 65
   257
 75
     1
175
     1
 42
1.0
 92
        0
 66
     7
 43
1.0
 76
     1
 77
     6
 78
     2
 67
     7
 79
     5
170
     0
171
     0
290
     0
174
     0
 93
       13
 44
0.0
173
     0
291
     1
 45
0.0
1001
ACAD
1000
AcDbSavedByObjectVersion
1070
     0
  0
VISUALSTYLE
  5
2E
102
{ACAD_REACTORS
330
2A
102
}
102
{ACAD_XDICTIONARY
360
C6
102
}
330
2A
100
AcDbVisualStyle
  2
GouraudWithEdges
 70
     3
 71
     2
 72
     2
 73
     1
 90
        2
 40
-0.6
 41
30.0
 62
     5
 63
     7
 74
     1
 91
        4
 64
     7
 65
   257
 75
     1
175
     1
 42
1.0
 92
        0
 66
   257
 43
1.0
 76
     1
 77
     6
 78
     2
 67
     7
 79
     5
170
     0
171
     0
290
     0
174
     0
 93
       13
 44
0.0
173
     0
291
     1
 45
0.0
1001
ACAD
1000
AcDbSavedByObjectVersion
1070
     0
  0
VISUALSTYLE
  5
38
102
{ACAD_REACTORS
330
2A
102
}
102
{ACAD_XDICTIONARY
360
DA
102
}
330
2A
100
AcDbVisualStyle
  2
Linepattern
 70
    14
 71
     2
 72
     2
 73
     0
 90
        0
 40
-0.6
 41
-30.0
 62
     5
 63
     7
 74
     1
 91
        4
 64
     7
 65
   257
 75
     7
175
     7
 42
1.0
 92
        8
 66
     7
 43
1.0
 76
     1
 77
     6
 78
     2
 67
     7
 79
     5
170
     0
171
     0
290
     0
174
     0
 93
        1
 44
0.0
173
     0
291
     1
 45
0.0
1001
ACAD
1000
AcDbSavedByObjectVersion
1070
     0
  0
VISUALSTYLE
  5
33
102
{ACAD_REACTORS
330
2A
102
}
102
{ACAD_XDICTIONARY
360
D0
102
}
330
2A
100
AcDbVisualStyle
  2
Realistic
 70
     8
 71
     2
 72
     2
 73
     0
 90
        0
 40
-0.6
 41
-30.0
 62
     5
 63
     7
 74
     1
 91
        0
 64
     7
 65
   257
 75
     1
175
     1
 42
1.0
 92
        8
 66
     8
 43
1.0
 76
     1
 77
     6
 78
     2
 67
     7
 79
     5
170
     0
171
     0
290
     0
174
     0
 93
       13
 44
0.0
173
     0
291
     0
 45
0.0
1001
ACAD
1000
AcDbSavedByObjectVersion
1070
     0
  0
VISUALSTYLE
  5
37
102
{ACAD_REACTORS
330
2A
102
}
102
{ACAD_XDICTIONARY
360
D8
102
}
330
2A
100
AcDbVisualStyle
  2
Thicken
 70
    13
 71
     2
 72
     2
 73
     0
 90
        0
 40
-0.6
 41
-30.0
 62
     5
 63
     7
 74
     1
 91
        4
 64
     7
 65
   257
 75
     1
175
     1
 42
1.0
 92
       12
 66
     7
 43
1.0
 76
     1
 77
     6
 78
     2
 67
     7
 79
     5
170
     0
171
     0
290
     0
174
     0
 93
        1
 44
0.0
173
     0
291
     1
 45
0.0
1001
ACAD
1000
AcDbSavedByObjectVersion
1070
     0
  0
DICTIONARYVAR
  5
BE
102
{ACAD_REACTORS
330
BB
102
}
330
BB
100
DictionaryVariables
280
     0
  1
2
  0
DICTIONARYVAR
  5
BF
102
{ACAD_REACTORS
330
BB
102
}
330
BB
100
DictionaryVariables
280
     0
  1
1
  0
DICTIONARY
  5
E2
330
3D
100
AcDbDictionary
280
     1
281
     1
  3
ACAD_XREC_ROUNDTRIP
360
E3
  0
DICTIONARY
  5
E0
330
3C
100
AcDbDictionary
280
     1
281
     1
  3
ACAD_XREC_ROUNDTRIP
360
E1
  0
DICTIONARY
  5
E4
330
3E
100
AcDbDictionary
280
     1
281
     1
  3
ACAD_XREC_ROUNDTRIP
360
E5
  0
DICTIONARY
  5
C8
330
2F
100
AcDbDictionary
280
     1
281
     1
  3
ACAD_XREC_ROUNDTRIP
360
C9
  0
DICTIONARY
  5
CC
330
31
100
AcDbDictionary
280
     1
281
     1
  3
ACAD_XREC_ROUNDTRIP
360
CD
  0
DICTIONARY
  5
CA
330
30
100
AcDbDictionary
280
     1
281
     1
  3
ACAD_XREC_ROUNDTRIP
360
CB
  0
DICTIONARY
  5
CE
330
32
100
AcDbDictionary
280
     1
281
     1
  3
ACAD_XREC_ROUNDTRIP
360
CF
  0
DICTIONARY
  5
D6
330
36
100
AcDbDictionary
280
     1
281
     1
  3
ACAD_XREC_ROUNDTRIP
360
D7
  0
DICTIONARY
  5
DE
330
3A
100
AcDbDictionary
280
     1
281
     1
  3
ACAD_XREC_ROUNDTRIP
360
DF
  0
DICTIONARY
  5
D2
330
34
100
AcDbDictionary
280
     1
281
     1
  3
ACAD_XREC_ROUNDTRIP
360
D3
  0
DICTIONARY
  5
D4
330
35
100
AcDbDictionary
280
     1
281
     1
  3
ACAD_XREC_ROUNDTRIP
360
D5
  0
DICTIONARY
  5
DC
330
39
100
AcDbDictionary
280
     1
281
     1
  3
ACAD_XREC_ROUNDTRIP
360
DD
  0
DICTIONARY
  5
C0
330
2B
100
AcDbDictionary
280
     1
281
     1
  3
ACAD_XREC_ROUNDTRIP
360
C1
  0
DICTIONARY
  5
C2
330
2C
100
AcDbDictionary
280
     1
281
     1
  3
ACAD_XREC_ROUNDTRIP
360
C3
  0
DICTIONARY
  5
C4
330
2D
100
AcDbDictionary
280
     1
281
     1
  3
ACAD_XREC_ROUNDTRIP
360
C5
  0
DICTIONARY
  5
C6
330
2E
100
AcDbDictionary
280
     1
281
     1
  3
ACAD_XREC_ROUNDTRIP
360
C7
  0
DICTIONARY
  5
DA
330
38
100
AcDbDictionary
280
     1
281
     1
  3
ACAD_XREC_ROUNDTRIP
360
DB
  0
DICTIONARY
  5
D0
330
33
100
AcDbDictionary
280
     1
281
     1
  3
ACAD_XREC_ROUNDTRIP
360
D1
  0
DICTIONARY
  5
D8
330
37
100
AcDbDictionary
280
     1
281
     1
  3
ACAD_XREC_ROUNDTRIP
360
D9
  0
XRECORD
  5
E3
102
{ACAD_REACTORS
330
E2
102
}
330
E2
100
AcDbXrecord
280
     1
102
MATERIAL
148
0.0
149
0.0
149
0.0
 93
        0
 94
      127
282
     0
 72
     1
 77
     1
171
     1
175
     1
179
     1
273
     0
  0
XRECORD
  5
E1
102
{ACAD_REACTORS
330
E0
102
}
330
E0
100
AcDbXrecord
280
     1
102
MATERIAL
148
0.0
149
0.0
149
0.0
 93
        0
 94
      127
282
     0
 72
     1
 77
     1
171
     1
175
     1
179
     1
273
     0
  0
XRECORD
  5
E5
102
{ACAD_REACTORS
330
E4
102
}
330
E4
100
AcDbXrecord
280
     1
102
MATERIAL
148
0.0
149
0.0
149
0.0
 93
        0
 94
      127
282
     0
 72
     1
 77
     1
171
     1
175
     1
179
     1
273
     0
  0
XRECORD
  5
C9
102
{ACAD_REACTORS
330
C8
102
}
330
C8
100
AcDbXrecord
280
     1
102
RTVSPropertyOp0
 70
     1
102
RTVSPropertyOp1
 70
     1
102
RTVSPropertyOp2
 70
     1
102
RTVSPropertyOp3
 70
     1
102
RTVSPropertyOp4
 70
     1
102
RTVSPropertyOp5
 70
     1
102
RTVSPropertyOp6
 70
     1
102
RTVSPropertyOp7
 70
     1
102
RTVSPropertyOp8
 70
     1
102
RTVSPropertyOp9
 70
     1
102
RTVSPropertyOp10
 70
     1
102
RTVSPropertyOp11
 70
     1
102
RTVSPropertyOp12
 70
     1
102
RTVSPropertyOp13
 70
     1
102
RTVSPropertyOp14
 70
     1
102
RTVSPropertyOp15
 70
     1
102
RTVSPropertyOp16
 70
     1
102
RTVSPropertyOp17
 70
     1
102
RTVSPropertyOp18
 70
     1
102
RTVSPropertyOp19
 70
     1
102
RTVSPropertyOp20
 70
     1
102
RTVSPropertyOp21
 70
     1
102
RTVSPropertyOp22
 70
     1
102
RTVSPropertyOp23
 70
     1
102
RTVSPropertyOp24
 70
     1
102
RTVSPropertyOp25
 70
     1
102
RTVSPropertyOp26
 70
     1
102
RTVSPropertyOp27
 70
     1
102
RTVSPropertyOp28
 70
     1
102
RTVSPropertyOp29
 70
     1
102
RTVSPropertyOp30
 70
     1
102
RTVSPropertyOp31
 70
     1
102
RTVSPropertyOp32
 70
     1
  0
XRECORD
  5
CD
102
{ACAD_REACTORS
330
CC
102
}
330
CC
100
AcDbXrecord
280
     1
102
RTVSPropertyOp0
 70
     1
102
RTVSPropertyOp1
 70
     1
102
RTVSPropertyOp2
 70
     1
102
RTVSPropertyOp3
 70
     1
102
RTVSPropertyOp4
 70
     1
102
RTVSPropertyOp5
 70
     1
102
RTVSPropertyOp6
 70
     1
102
RTVSPropertyOp7
 70
     1
102
RTVSPropertyOp8
 70
     1
102
RTVSPropertyOp9
 70
     1
102
RTVSPropertyOp10
 70
     1
102
RTVSPropertyOp11
 70
     1
102
RTVSPropertyOp12
 70
     1
102
RTVSPropertyOp13
 70
     1
102
RTVSPropertyOp14
 70
     1
102
RTVSPropertyOp15
 70
     1
102
RTVSPropertyOp16
 70
     1
102
RTVSPropertyOp17
 70
     1
102
RTVSPropertyOp18
 70
     1
102
RTVSPropertyOp19
 70
     1
102
RTVSPropertyOp20
 70
     1
102
RTVSPropertyOp21
 70
     1
102
RTVSPropertyOp22
 70
     1
102
RTVSPropertyOp23
 70
     1
102
RTVSPropertyOp24
 70
     1
102
RTVSPropertyOp25
 70
     1
102
RTVSPropertyOp26
 70
     1
102
RTVSPropertyOp27
 70
     1
102
RTVSPropertyOp28
 70
     1
102
RTVSPropertyOp29
 70
     1
102
RTVSPropertyOp30
 70
     1
102
RTVSPropertyOp31
 70
     1
102
RTVSPropertyOp32
 70
     1
  0
XRECORD
  5
CB
102
{ACAD_REACTORS
330
CA
102
}
330
CA
100
AcDbXrecord
280
     1
102
RTVSPropertyOp0
 70
     1
102
RTVSPropertyOp1
 70
     1
102
RTVSPropertyOp2
 70
     1
102
RTVSPropertyOp3
 70
     1
102
RTVSPropertyOp4
 70
     1
102
RTVSPropertyOp5
 70
     1
102
RTVSPropertyOp6
 70
     1
102
RTVSPropertyOp7
 70
     1
102
RTVSPropertyOp8
 70
     1
102
RTVSPropertyOp9
 70
     1
102
RTVSPropertyOp10
 70
     1
102
RTVSPropertyOp11
 70
     1
102
RTVSPropertyOp12
 70
     1
102
RTVSPropertyOp13
 70
     1
102
RTVSPropertyOp14
 70
     1
102
RTVSPropertyOp15
 70
     1
102
RTVSPropertyOp16
 70
     1
102
RTVSPropertyOp17
 70
     1
102
RTVSPropertyOp18
 70
     1
102
RTVSPropertyOp19
 70
     1
102
RTVSPropertyOp20
 70
     1
102
RTVSPropertyOp21
 70
     1
102
RTVSPropertyOp22
 70
     1
102
RTVSPropertyOp23
 70
     1
102
RTVSPropertyOp24
 70
     1
102
RTVSPropertyOp25
 70
     1
102
RTVSPropertyOp26
 70
     1
102
RTVSPropertyOp27
 70
     1
102
RTVSPropertyOp28
 70
     1
102
RTVSPropertyOp29
 70
     1
102
RTVSPropertyOp30
 70
     1
102
RTVSPropertyOp31
 70
     1
102
RTVSPropertyOp32
 70
     1
  0
XRECORD
  5
CF
102
{ACAD_REACTORS
330
CE
102
}
330
CE
100
AcDbXrecord
280
     1
102
RTVSPropertyOp0
 70
     1
102
RTVSPropertyOp1
 70
     1
102
RTVSPropertyOp2
 70
     1
102
RTVSPropertyOp3
 70
     1
102
RTVSPropertyOp4
 70
     1
102
RTVSPropertyOp5
 70
     1
102
RTVSPropertyOp6
 70
     1
102
RTVSPropertyOp7
 70
     1
102
RTVSPropertyOp8
 70
     1
102
RTVSPropertyOp9
 70
     1
102
RTVSPropertyOp10
 70
     1
102
RTVSPropertyOp11
 70
     1
102
RTVSPropertyOp12
 70
     1
102
RTVSPropertyOp13
 70
     1
102
RTVSPropertyOp14
 70
     1
102
RTVSPropertyOp15
 70
     1
102
RTVSPropertyOp16
 70
     1
102
RTVSPropertyOp17
 70
     1
102
RTVSPropertyOp18
 70
     1
102
RTVSPropertyOp19
 70
     1
102
RTVSPropertyOp20
 70
     1
102
RTVSPropertyOp21
 70
     1
102
RTVSPropertyOp22
 70
     1
102
RTVSPropertyOp23
 70
     1
102
RTVSPropertyOp24
 70
     1
102
RTVSPropertyOp25
 70
     1
102
RTVSPropertyOp26
 70
     1
102
RTVSPropertyOp27
 70
     1
102
RTVSPropertyOp28
 70
     1
102
RTVSPropertyOp29
 70
     1
102
RTVSPropertyOp30
 70
     1
102
RTVSPropertyOp31
 70
     1
102
RTVSPropertyOp32
 70
     1
  0
XRECORD
  5
D7
102
{ACAD_REACTORS
330
D6
102
}
330
D6
100
AcDbXrecord
280
     1
102
RTVSPropertyOp0
 70
     1
102
RTVSPropertyOp1
 70
     1
102
RTVSPropertyOp2
 70
     1
102
RTVSPropertyOp3
 70
     1
102
RTVSPropertyOp4
 70
     1
102
RTVSPropertyOp5
 70
     1
102
RTVSPropertyOp6
 70
     1
102
RTVSPropertyOp7
 70
     1
102
RTVSPropertyOp8
 70
     1
102
RTVSPropertyOp9
 70
     1
102
RTVSPropertyOp10
 70
     1
102
RTVSPropertyOp11
 70
     1
102
RTVSPropertyOp12
 70
     1
102
RTVSPropertyOp13
 70
     1
102
RTVSPropertyOp14
 70
     1
102
RTVSPropertyOp15
 70
     1
102
RTVSPropertyOp16
 70
     1
102
RTVSPropertyOp17
 70
     1
102
RTVSPropertyOp18
 70
     1
102
RTVSPropertyOp19
 70
     1
102
RTVSPropertyOp20
 70
     1
102
RTVSPropertyOp21
 70
     1
102
RTVSPropertyOp22
 70
     1
102
RTVSPropertyOp23
 70
     1
102
RTVSPropertyOp24
 70
     1
102
RTVSPropertyOp25
 70
     1
102
RTVSPropertyOp26
 70
     1
102
RTVSPropertyOp27
 70
     1
102
RTVSPropertyOp28
 70
     1
102
RTVSPropertyOp29
 70
     1
102
RTVSPropertyOp30
 70
     1
102
RTVSPropertyOp31
 70
     1
102
RTVSPropertyOp32
 70
     1
  0
XRECORD
  5
DF
102
{ACAD_REACTORS
330
DE
102
}
330
DE
100
AcDbXrecord
280
     1
102
RTVSPropertyOp0
 70
     1
102
RTVSPropertyOp1
 70
     1
102
RTVSPropertyOp2
 70
     1
102
RTVSPropertyOp3
 70
     1
102
RTVSPropertyOp4
 70
     1
102
RTVSPropertyOp5
 70
     1
102
RTVSPropertyOp6
 70
     1
102
RTVSPropertyOp7
 70
     1
102
RTVSPropertyOp8
 70
     1
102
RTVSPropertyOp9
 70
     1
102
RTVSPropertyOp10
 70
     1
102
RTVSPropertyOp11
 70
     1
102
RTVSPropertyOp12
 70
     1
102
RTVSPropertyOp13
 70
     1
102
RTVSPropertyOp14
 70
     1
102
RTVSPropertyOp15
 70
     1
102
RTVSPropertyOp16
 70
     1
102
RTVSPropertyOp17
 70
     1
102
RTVSPropertyOp18
 70
     1
102
RTVSPropertyOp19
 70
     1
102
RTVSPropertyOp20
 70
     1
102
RTVSPropertyOp21
 70
     1
102
RTVSPropertyOp22
 70
     1
102
RTVSPropertyOp23
 70
     1
102
RTVSPropertyOp24
 70
     1
102
RTVSPropertyOp25
 70
     1
102
RTVSPropertyOp26
 70
     1
102
RTVSPropertyOp27
 70
     1
102
RTVSPropertyOp28
 70
     1
102
RTVSPropertyOp29
 70
     1
102
RTVSPropertyOp30
 70
     1
102
RTVSPropertyOp31
 70
     1
102
RTVSPropertyOp32
 70
     1
  0
XRECORD
  5
D3
102
{ACAD_REACTORS
330
D2
102
}
330
D2
100
AcDbXrecord
280
     1
102
RTVSPropertyOp0
 70
     1
102
RTVSPropertyOp1
 70
     1
102
RTVSPropertyOp2
 70
     1
102
RTVSPropertyOp3
 70
     1
102
RTVSPropertyOp4
 70
     1
102
RTVSPropertyOp5
 70
     1
102
RTVSPropertyOp6
 70
     1
102
RTVSPropertyOp7
 70
     1
102
RTVSPropertyOp8
 70
     1
102
RTVSPropertyOp9
 70
     1
102
RTVSPropertyOp10
 70
     1
102
RTVSPropertyOp11
 70
     1
102
RTVSPropertyOp12
 70
     1
102
RTVSPropertyOp13
 70
     1
102
RTVSPropertyOp14
 70
     1
102
RTVSPropertyOp15
 70
     1
102
RTVSPropertyOp16
 70
     1
102
RTVSPropertyOp17
 70
     1
102
RTVSPropertyOp18
 70
     1
102
RTVSPropertyOp19
 70
     1
102
RTVSPropertyOp20
 70
     1
102
RTVSPropertyOp21
 70
     1
102
RTVSPropertyOp22
 70
     1
102
RTVSPropertyOp23
 70
     1
102
RTVSPropertyOp24
 70
     1
102
RTVSPropertyOp25
 70
     1
102
RTVSPropertyOp26
 70
     1
102
RTVSPropertyOp27
 70
     1
102
RTVSPropertyOp28
 70
     1
102
RTVSPropertyOp29
 70
     1
102
RTVSPropertyOp30
 70
     1
102
RTVSPropertyOp31
 70
     1
102
RTVSPropertyOp32
 70
     1
  0
XRECORD
  5
D5
102
{ACAD_REACTORS
330
D4
102
}
330
D4
100
AcDbXrecord
280
     1
102
RTVSPropertyOp0
 70
     1
102
RTVSPropertyOp1
 70
     1
102
RTVSPropertyOp2
 70
     1
102
RTVSPropertyOp3
 70
     1
102
RTVSPropertyOp4
 70
     1
102
RTVSPropertyOp5
 70
     1
102
RTVSPropertyOp6
 70
     1
102
RTVSPropertyOp7
 70
     1
102
RTVSPropertyOp8
 70
     1
102
RTVSPropertyOp9
 70
     1
102
RTVSPropertyOp10
 70
     1
102
RTVSPropertyOp11
 70
     1
102
RTVSPropertyOp12
 70
     1
102
RTVSPropertyOp13
 70
     1
102
RTVSPropertyOp14
 70
     1
102
RTVSPropertyOp15
 70
     1
102
RTVSPropertyOp16
 70
     1
102
RTVSPropertyOp17
 70
     1
102
RTVSPropertyOp18
 70
     1
102
RTVSPropertyOp19
 70
     1
102
RTVSPropertyOp20
 70
     1
102
RTVSPropertyOp21
 70
     1
102
RTVSPropertyOp22
 70
     1
102
RTVSPropertyOp23
 70
     1
102
RTVSPropertyOp24
 70
     1
102
RTVSPropertyOp25
 70
     1
102
RTVSPropertyOp26
 70
     1
102
RTVSPropertyOp27
 70
     1
102
RTVSPropertyOp28
 70
     1
102
RTVSPropertyOp29
 70
     1
102
RTVSPropertyOp30
 70
     1
102
RTVSPropertyOp31
 70
     1
102
RTVSPropertyOp32
 70
     1
  0
XRECORD
  5
DD
102
{ACAD_REACTORS
330
DC
102
}
330
DC
100
AcDbXrecord
280
     1
102
RTVSPropertyOp0
 70
     1
102
RTVSPropertyOp1
 70
     1
102
RTVSPropertyOp2
 70
     1
102
RTVSPropertyOp3
 70
     1
102
RTVSPropertyOp4
 70
     1
102
RTVSPropertyOp5
 70
     1
102
RTVSPropertyOp6
 70
     1
102
RTVSPropertyOp7
 70
     1
102
RTVSPropertyOp8
 70
     1
102
RTVSPropertyOp9
 70
     1
102
RTVSPropertyOp10
 70
     1
102
RTVSPropertyOp11
 70
     1
102
RTVSPropertyOp12
 70
     1
102
RTVSPropertyOp13
 70
     1
102
RTVSPropertyOp14
 70
     1
102
RTVSPropertyOp15
 70
     1
102
RTVSPropertyOp16
 70
     1
102
RTVSPropertyOp17
 70
     1
102
RTVSPropertyOp18
 70
     1
102
RTVSPropertyOp19
 70
     1
102
RTVSPropertyOp20
 70
     1
102
RTVSPropertyOp21
 70
     1
102
RTVSPropertyOp22
 70
     1
102
RTVSPropertyOp23
 70
     1
102
RTVSPropertyOp24
 70
     1
102
RTVSPropertyOp25
 70
     1
102
RTVSPropertyOp26
 70
     1
102
RTVSPropertyOp27
 70
     1
102
RTVSPropertyOp28
 70
     1
102
RTVSPropertyOp29
 70
     1
102
RTVSPropertyOp30
 70
     1
102
RTVSPropertyOp31
 70
     1
102
RTVSPropertyOp32
 70
     1
  0
XRECORD
  5
C1
102
{ACAD_REACTORS
330
C0
102
}
330
C0
100
AcDbXrecord
280
     1
102
RTVSPropertyOp0
 70
     1
102
RTVSPropertyOp1
 70
     1
102
RTVSPropertyOp2
 70
     1
102
RTVSPropertyOp3
 70
     1
102
RTVSPropertyOp4
 70
     1
102
RTVSPropertyOp5
 70
     1
102
RTVSPropertyOp6
 70
     1
102
RTVSPropertyOp7
 70
     1
102
RTVSPropertyOp8
 70
     1
102
RTVSPropertyOp9
 70
     1
102
RTVSPropertyOp10
 70
     1
102
RTVSPropertyOp11
 70
     1
102
RTVSPropertyOp12
 70
     1
102
RTVSPropertyOp13
 70
     1
102
RTVSPropertyOp14
 70
     1
102
RTVSPropertyOp15
 70
     1
102
RTVSPropertyOp16
 70
     1
102
RTVSPropertyOp17
 70
     1
102
RTVSPropertyOp18
 70
     1
102
RTVSPropertyOp19
 70
     1
102
RTVSPropertyOp20
 70
     1
102
RTVSPropertyOp21
 70
     1
102
RTVSPropertyOp22
 70
     1
102
RTVSPropertyOp23
 70
     1
102
RTVSPropertyOp24
 70
     1
102
RTVSPropertyOp25
 70
     1
102
RTVSPropertyOp26
 70
     1
102
RTVSPropertyOp27
 70
     1
102
RTVSPropertyOp28
 70
     1
102
RTVSPropertyOp29
 70
     1
102
RTVSPropertyOp30
 70
     1
102
RTVSPropertyOp31
 70
     1
102
RTVSPropertyOp32
 70
     1
  0
XRECORD
  5
C3
102
{ACAD_REACTORS
330
C2
102
}
330
C2
100
AcDbXrecord
280
     1
102
RTVSPropertyOp0
 70
     1
102
RTVSPropertyOp1
 70
     1
102
RTVSPropertyOp2
 70
     1
102
RTVSPropertyOp3
 70
     1
102
RTVSPropertyOp4
 70
     1
102
RTVSPropertyOp5
 70
     1
102
RTVSPropertyOp6
 70
     1
102
RTVSPropertyOp7
 70
     1
102
RTVSPropertyOp8
 70
     1
102
RTVSPropertyOp9
 70
     1
102
RTVSPropertyOp10
 70
     1
102
RTVSPropertyOp11
 70
     1
102
RTVSPropertyOp12
 70
     1
102
RTVSPropertyOp13
 70
     1
102
RTVSPropertyOp14
 70
     1
102
RTVSPropertyOp15
 70
     1
102
RTVSPropertyOp16
 70
     1
102
RTVSPropertyOp17
 70
     1
102
RTVSPropertyOp18
 70
     1
102
RTVSPropertyOp19
 70
     1
102
RTVSPropertyOp20
 70
     1
102
RTVSPropertyOp21
 70
     1
102
RTVSPropertyOp22
 70
     1
102
RTVSPropertyOp23
 70
     1
102
RTVSPropertyOp24
 70
     1
102
RTVSPropertyOp25
 70
     1
102
RTVSPropertyOp26
 70
     1
102
RTVSPropertyOp27
 70
     1
102
RTVSPropertyOp28
 70
     1
102
RTVSPropertyOp29
 70
     1
102
RTVSPropertyOp30
 70
     1
102
RTVSPropertyOp31
 70
     1
102
RTVSPropertyOp32
 70
     1
  0
XRECORD
  5
C5
102
{ACAD_REACTORS
330
C4
102
}
330
C4
100
AcDbXrecord
280
     1
102
RTVSPropertyOp0
 70
     1
102
RTVSPropertyOp1
 70
     1
102
RTVSPropertyOp2
 70
     1
102
RTVSPropertyOp3
 70
     1
102
RTVSPropertyOp4
 70
     1
102
RTVSPropertyOp5
 70
     1
102
RTVSPropertyOp6
 70
     1
102
RTVSPropertyOp7
 70
     1
102
RTVSPropertyOp8
 70
     1
102
RTVSPropertyOp9
 70
     1
102
RTVSPropertyOp10
 70
     1
102
RTVSPropertyOp11
 70
     1
102
RTVSPropertyOp12
 70
     1
102
RTVSPropertyOp13
 70
     1
102
RTVSPropertyOp14
 70
     1
102
RTVSPropertyOp15
 70
     1
102
RTVSPropertyOp16
 70
     1
102
RTVSPropertyOp17
 70
     1
102
RTVSPropertyOp18
 70
     1
102
RTVSPropertyOp19
 70
     1
102
RTVSPropertyOp20
 70
     1
102
RTVSPropertyOp21
 70
     1
102
RTVSPropertyOp22
 70
     1
102
RTVSPropertyOp23
 70
     1
102
RTVSPropertyOp24
 70
     1
102
RTVSPropertyOp25
 70
     1
102
RTVSPropertyOp26
 70
     1
102
RTVSPropertyOp27
 70
     1
102
RTVSPropertyOp28
 70
     1
102
RTVSPropertyOp29
 70
     1
102
RTVSPropertyOp30
 70
     1
102
RTVSPropertyOp31
 70
     1
102
RTVSPropertyOp32
 70
     1
  0
XRECORD
  5
C7
102
{ACAD_REACTORS
330
C6
102
}
330
C6
100
AcDbXrecord
280
     1
102
RTVSPropertyOp0
 70
     1
102
RTVSPropertyOp1
 70
     1
102
RTVSPropertyOp2
 70
     1
102
RTVSPropertyOp3
 70
     1
102
RTVSPropertyOp4
 70
     1
102
RTVSPropertyOp5
 70
     1
102
RTVSPropertyOp6
 70
     1
102
RTVSPropertyOp7
 70
     1
102
RTVSPropertyOp8
 70
     1
102
RTVSPropertyOp9
 70
     1
102
RTVSPropertyOp10
 70
     1
102
RTVSPropertyOp11
 70
     1
102
RTVSPropertyOp12
 70
     1
102
RTVSPropertyOp13
 70
     1
102
RTVSPropertyOp14
 70
     1
102
RTVSPropertyOp15
 70
     1
102
RTVSPropertyOp16
 70
     1
102
RTVSPropertyOp17
 70
     1
102
RTVSPropertyOp18
 70
     1
102
RTVSPropertyOp19
 70
     1
102
RTVSPropertyOp20
 70
     1
102
RTVSPropertyOp21
 70
     1
102
RTVSPropertyOp22
 70
     1
102
RTVSPropertyOp23
 70
     1
102
RTVSPropertyOp24
 70
     1
102
RTVSPropertyOp25
 70
     1
102
RTVSPropertyOp26
 70
     1
102
RTVSPropertyOp27
 70
     1
102
RTVSPropertyOp28
 70
     1
102
RTVSPropertyOp29
 70
     1
102
RTVSPropertyOp30
 70
     1
102
RTVSPropertyOp31
 70
     1
102
RTVSPropertyOp32
 70
     1
  0
XRECORD
  5
DB
102
{ACAD_REACTORS
330
DA
102
}
330
DA
100
AcDbXrecord
280
     1
102
RTVSPropertyOp0
 70
     1
102
RTVSPropertyOp1
 70
     1
102
RTVSPropertyOp2
 70
     1
102
RTVSPropertyOp3
 70
     1
102
RTVSPropertyOp4
 70
     1
102
RTVSPropertyOp5
 70
     1
102
RTVSPropertyOp6
 70
     1
102
RTVSPropertyOp7
 70
     1
102
RTVSPropertyOp8
 70
     1
102
RTVSPropertyOp9
 70
     1
102
RTVSPropertyOp10
 70
     1
102
RTVSPropertyOp11
 70
     1
102
RTVSPropertyOp12
 70
     1
102
RTVSPropertyOp13
 70
     1
102
RTVSPropertyOp14
 70
     1
102
RTVSPropertyOp15
 70
     1
102
RTVSPropertyOp16
 70
     1
102
RTVSPropertyOp17
 70
     1
102
RTVSPropertyOp18
 70
     1
102
RTVSPropertyOp19
 70
     1
102
RTVSPropertyOp20
 70
     1
102
RTVSPropertyOp21
 70
     1
102
RTVSPropertyOp22
 70
     1
102
RTVSPropertyOp23
 70
     1
102
RTVSPropertyOp24
 70
     1
102
RTVSPropertyOp25
 70
     1
102
RTVSPropertyOp26
 70
     1
102
RTVSPropertyOp27
 70
     1
102
RTVSPropertyOp28
 70
     1
102
RTVSPropertyOp29
 70
     1
102
RTVSPropertyOp30
 70
     1
102
RTVSPropertyOp31
 70
     1
102
RTVSPropertyOp32
 70
     1
  0
XRECORD
  5
D1
102
{ACAD_REACTORS
330
D0
102
}
330
D0
100
AcDbXrecord
280
     1
102
RTVSPropertyOp0
 70
     1
102
RTVSPropertyOp1
 70
     1
102
RTVSPropertyOp2
 70
     1
102
RTVSPropertyOp3
 70
     1
102
RTVSPropertyOp4
 70
     1
102
RTVSPropertyOp5
 70
     1
102
RTVSPropertyOp6
 70
     1
102
RTVSPropertyOp7
 70
     1
102
RTVSPropertyOp8
 70
     1
102
RTVSPropertyOp9
 70
     1
102
RTVSPropertyOp10
 70
     1
102
RTVSPropertyOp11
 70
     1
102
RTVSPropertyOp12
 70
     1
102
RTVSPropertyOp13
 70
     1
102
RTVSPropertyOp14
 70
     1
102
RTVSPropertyOp15
 70
     1
102
RTVSPropertyOp16
 70
     1
102
RTVSPropertyOp17
 70
     1
102
RTVSPropertyOp18
 70
     1
102
RTVSPropertyOp19
 70
     1
102
RTVSPropertyOp20
 70
     1
102
RTVSPropertyOp21
 70
     1
102
RTVSPropertyOp22
 70
     1
102
RTVSPropertyOp23
 70
     1
102
RTVSPropertyOp24
 70
     1
102
RTVSPropertyOp25
 70
     1
102
RTVSPropertyOp26
 70
     1
102
RTVSPropertyOp27
 70
     1
102
RTVSPropertyOp28
 70
     1
102
RTVSPropertyOp29
 70
     1
102
RTVSPropertyOp30
 70
     1
102
RTVSPropertyOp31
 70
     1
102
RTVSPropertyOp32
 70
     1
  0
XRECORD
  5
D9
102
{ACAD_REACTORS
330
D8
102
}
330
D8
100
AcDbXrecord
280
     1
102
RTVSPropertyOp0
 70
     1
102
RTVSPropertyOp1
 70
     1
102
RTVSPropertyOp2
 70
     1
102
RTVSPropertyOp3
 70
     1
102
RTVSPropertyOp4
 70
     1
102
RTVSPropertyOp5
 70
     1
102
RTVSPropertyOp6
 70
     1
102
RTVSPropertyOp7
 70
     1
102
RTVSPropertyOp8
 70
     1
102
RTVSPropertyOp9
 70
     1
102
RTVSPropertyOp10
 70
     1
102
RTVSPropertyOp11
 70
     1
102
RTVSPropertyOp12
 70
     1
102
RTVSPropertyOp13
 70
     1
102
RTVSPropertyOp14
 70
     1
102
RTVSPropertyOp15
 70
     1
102
RTVSPropertyOp16
 70
     1
102
RTVSPropertyOp17
 70
     1
102
RTVSPropertyOp18
 70
     1
102
RTVSPropertyOp19
 70
     1
102
RTVSPropertyOp20
 70
     1
102
RTVSPropertyOp21
 70
     1
102
RTVSPropertyOp22
 70
     1
102
RTVSPropertyOp23
 70
     1
102
RTVSPropertyOp24
 70
     1
102
RTVSPropertyOp25
 70
     1
102
RTVSPropertyOp26
 70
     1
102
RTVSPropertyOp27
 70
     1
102
RTVSPropertyOp28
 70
     1
102
RTVSPropertyOp29
 70
     1
102
RTVSPropertyOp30
 70
     1
102
RTVSPropertyOp31
 70
     1
102
RTVSPropertyOp32
 70
     1
  0
ENDSEC
  0
EOF
