0
SECTION
2
HEADER
9
$ACADVER
1
AC1003
9
$INSBASE
10
0.0
20
0.0
30
0.0
9
$EXTMIN
10
0.000
20
0.000
30
0.0
9
$EXTMAX
10
761.000
20
688.000
30
0.0
9
$LIMMIN
10
0.000
20
0.000
9
$LIMMAX
10
761.000
20
688.000
9
$LTSCALE
40
1.0
9
$LUNITS
70
2
9
$LUPREC
70
3
9
$LIMCHECK
70
0
9
$UCSNAME
2

9
$UCSORG
10
0.0
20
0.0
30
0.0
9
$UCSXDIR
10
1.0
20
0.0
30
0.0
9
$UCSYDIR
10
0.0
20
1.0
30
0.0
9
$WORLDVIEW
70
1
9
$UNITMODE
70
0
0
ENDSEC
0
SECTION
2
TABLES
0
TABLE
2
VPORT
70
1
0
VPORT
2
*ACTIVE
70
0
10
0.0
20
0.0
11
1.0
21
1.0
12
380.500
22
344.000
13
0.0
23
0.0
14
1.0
24
1.0
15
0.0
25
0.0
16
0.0
26
0.0
36
1.0
17
0.0
27
0.0
37
0.0
40
500.0
41
0.904
42
50.0
43
0.0
44
0.0
50
0.0
51
0.0
71
0
72
100
73
1
74
1
75
0
76
0
77
0
78
0
0
ENDTAB
0
TABLE
2
LTYPE
70
1
0
LTYPE
2
CONTINUOUS
70
64
3
Solid line
72
65
73
0
40
0.000
0
ENDTAB
0
TABLE
2
LAYER
70
1
0
LAYER
2
0
70
64
62
7
6
CONTINUOUS
0
ENDTAB
0
ENDSEC
0
SECTION
2
BLOCKS
0
ENDSEC
0
SECTION
2
ENTITIES
0
POLYLINE
8
0
6
CONTINUOUS
66
1
62
7
10
0.0
20
0.0
30
0.000000
0
VERTEX
8
0
10
84.000000
20
550.000000
0
VERTEX
8
0
10
83.000000
20
551.000000
0
VERTEX
8
0
10
84.000000
20
552.000000
0
VERTEX
8
0
10
85.000000
20
551.000000
0
SEQEND
0
POLYLINE
8
0
6
CONTINUOUS
66
1
62
7
10
0.0
20
0.0
30
0.000000
0
VERTEX
8
0
10
84.000000
20
550.000000
0
VERTEX
8
0
10
85.000000
20
551.000000
0
SEQEND
0
POLYLINE
8
0
6
CONTINUOUS
66
1
62
7
10
0.0
20
0.0
30
0.000000
0
VERTEX
8
0
10
117.000000
20
513.000000
0
VERTEX
8
0
10
113.200000
20
519.100000
0
VERTEX
8
0
10
111.752212
20
521.783186
0
VERTEX
8
0
10
85.000000
20
551.000000
0
SEQEND
0
POLYLINE
8
0
6
CONTINUOUS
66
1
62
7
10
0.0
20
0.0
30
0.000000
0
VERTEX
8
0
10
117.000000
20
513.000000
0
VERTEX
8
0
10
119.200000
20
516.900000
0
VERTEX
8
0
10
126.594595
20
545.067568
0
VERTEX
8
0
10
128.615385
20
556.076923
0
VERTEX
8
0
10
132.000000
20
575.000000
0
VERTEX
8
0
10
133.000000
20
576.000000
0
VERTEX
8
0
10
135.000000
20
575.000000
0
VERTEX
8
0
10
135.230769
20
574.153846
0
VERTEX
8
0
10
144.000000
20
556.000000
0
VERTEX
8
0
10
143.000000
20
516.000000
0
VERTEX
8
0
10
144.000000
20
515.000000
0
SEQEND
0
POLYLINE
8
0
6
CONTINUOUS
66
1
62
7
10
0.0
20
0.0
30
0.000000
0
VERTEX
8
0
10
117.000000
20
512.000000
0
VERTEX
8
0
10
117.000000
20
513.000000
0
SEQEND
0
POLYLINE
8
0
6
CONTINUOUS
66
1
62
7
10
0.0
20
0.0
30
0.000000
0
VERTEX
8
0
10
143.000000
20
511.000000
0
VERTEX
8
0
10
144.000000
20
515.000000
0
SEQEND
0
POLYLINE
8
0
6
CONTINUOUS
66
1
62
7
10
0.0
20
0.0
30
0.000000
0
VERTEX
8
0
10
138.000000
20
495.000000
0
VERTEX
8
0
10
138.000000
20
498.000000
0
SEQEND
0
POLYLINE
8
0
6
CONTINUOUS
66
1
62
7
10
0.0
20
0.0
30
0.000000
0
VERTEX
8
0
10
422.000000
20
474.000000
0
VERTEX
8
0
10
420.000000
20
475.000000
0
SEQEND
0
POLYLINE
8
0
6
CONTINUOUS
66
1
62
7
10
0.0
20
0.0
30
0.000000
0
VERTEX
8
0
10
311.000000
20
447.000000
0
VERTEX
8
0
10
300.000000
20
464.000000
0
VERTEX
8
0
10
300.000000
20
469.000000
0
VERTEX
8
0
10
302.000000
20
471.000000
0
VERTEX
8
0
10
310.940000
20
472.420000
0
VERTEX
8
0
10
313.750000
20
473.250000
0
VERTEX
8
0
10
314.000000
20
474.000000
0
VERTEX
8
0
10
312.230769
20
477.153846
0
VERTEX
8
0
10
311.769231
20
477.846154
0
VERTEX
8
0
10
302.200000
20
494.100000
0
VERTEX
8
0
10
302.250000
20
495.750000
0
VERTEX
8
0
10
311.955446
20
495.554455
0
VERTEX
8
0
10
317.932432
20
494.594595
0
VERTEX
8
0
10
328.900000
20
489.700000
0
VERTEX
8
0
10
336.900000
20
486.700000
0
VERTEX
8
0
10
352.900000
20
479.800000
0
VERTEX
8
0
10
360.900000
20
475.800000
0
VERTEX
8
0
10
370.100000
20
471.300000
0
VERTEX
8
0
10
372.000000
20
471.000000
0
VERTEX
8
0
10
373.000000
20
472.000000
0
VERTEX
8
0
10
371.200000
20
476.100000
0
VERTEX
8
0
10
370.200000
20
478.100000
0
VERTEX
8
0
10
369.000000
20
481.000000
0
VERTEX
8
0
10
370.000000
20
483.000000
0
VERTEX
8
0
10
374.000000
20
485.000000
0
VERTEX
8
0
10
385.940000
20
483.580000
0
VERTEX
8
0
10
410.100000
20
478.300000
0
VERTEX
8
0
10
420.000000
20
475.000000
0
SEQEND
0
POLYLINE
8
0
6
CONTINUOUS
66
1
62
7
10
0.0
20
0.0
30
0.000000
0
VERTEX
8
0
10
313.000000
20
446.000000
0
VERTEX
8
0
10
311.000000
20
447.000000
0
SEQEND
0
POLYLINE
8
0
6
CONTINUOUS
66
1
62
7
10
0.0
20
0.0
30
0.000000
0
VERTEX
8
0
10
494.000000
20
423.000000
0
VERTEX
8
0
10
494.800000
20
426.100000
0
VERTEX
8
0
10
503.300000
20
438.900000
0
VERTEX
8
0
10
505.000000
20
444.000000
0
VERTEX
8
0
10
505.000000
20
448.000000
0
VERTEX
8
0
10
502.000000
20
457.000000
0
VERTEX
8
0
10
489.000000
20
470.000000
0
VERTEX
8
0
10
474.900000
20
477.800000
0
VERTEX
8
0
10
474.100000
20
478.200000
0
VERTEX
8
0
10
446.923077
20
491.615385
0
VERTEX
8
0
10
443.076923
20
492.384615
0
VERTEX
8
0
10
418.000000
20
499.000000
0
VERTEX
8
0
10
410.000000
20
499.000000
0
VERTEX
8
0
10
407.000000
20
497.000000
0
VERTEX
8
0
10
420.000000
20
475.000000
0
SEQEND
0
POLYLINE
8
0
6
CONTINUOUS
66
1
62
7
10
0.0
20
0.0
30
0.000000
0
VERTEX
8
0
10
494.000000
20
423.000000
0
VERTEX
8
0
10
501.788235
20
427.247059
0
VERTEX
8
0
10
513.000000
20
437.000000
0
VERTEX
8
0
10
513.647059
20
439.088235
0
VERTEX
8
0
10
515.000000
20
446.000000
0
VERTEX
8
0
10
513.200000
20
452.100000
0
VERTEX
8
0
10
508.760000
20
459.820000
0
VERTEX
8
0
10
506.240000
20
463.180000
0
VERTEX
8
0
10
500.211765
20
469.247059
0
VERTEX
8
0
10
493.788235
20
474.752941
0
VERTEX
8
0
10
481.100000
20
483.200000
0
VERTEX
8
0
10
474.846154
20
486.769231
0
VERTEX
8
0
10
456.900000
20
494.800000
0
VERTEX
8
0
10
456.100000
20
495.200000
0
VERTEX
8
0
10
436.911765
20
502.647059
0
VERTEX
8
0
10
434.088235
20
503.352941
0
VERTEX
8
0
10
420.000000
20
508.000000
0
VERTEX
8
0
10
399.000000
20
508.000000
0
VERTEX
8
0
10
396.000000
20
507.000000
0
VERTEX
8
0
10
392.000000
20
503.000000
0
VERTEX
8
0
10
392.000000
20
500.000000
0
VERTEX
8
0
10
393.441176
20
497.264706
0
VERTEX
8
0
10
395.760000
20
493.820000
0
VERTEX
8
0
10
402.000000
20
487.000000
0
VERTEX
8
0
10
401.000000
20
486.000000
0
VERTEX
8
0
10
388.911765
20
488.647059
0
VERTEX
8
0
10
386.088235
20
489.352941
0
VERTEX
8
0
10
371.000000
20
493.000000
0
VERTEX
8
0
10
362.000000
20
492.000000
0
VERTEX
8
0
10
358.800000
20
488.100000
0
VERTEX
8
0
10
356.000000
20
484.000000
0
VERTEX
8
0
10
326.100000
20
499.200000
0
VERTEX
8
0
10
316.100000
20
503.300000
0
VERTEX
8
0
10
300.911765
20
508.647059
0
VERTEX
8
0
10
298.088235
20
509.352941
0
VERTEX
8
0
10
293.000000
20
511.000000
0
VERTEX
8
0
10
286.000000
20
511.000000
0
VERTEX
8
0
10
284.000000
20
510.000000
0
VERTEX
8
0
10
282.000000
20
507.000000
0
VERTEX
8
0
10
282.000000
20
504.000000
0
VERTEX
8
0
10
283.400000
20
501.200000
0
VERTEX
8
0
10
300.000000
20
479.000000
0
VERTEX
8
0
10
298.100000
20
477.800000
0
VERTEX
8
0
10
293.923077
20
476.384615
0
VERTEX
8
0
10
287.000000
20
475.000000
0
VERTEX
8
0
10
285.000000
20
472.000000
0
VERTEX
8
0
10
286.800000
20
467.900000
0
VERTEX
8
0
10
293.000000
20
461.000000
0
VERTEX
8
0
10
310.180000
20
447.240000
0
VERTEX
8
0
10
311.000000
20
447.000000
0
SEQEND
0
POLYLINE
8
0
6
CONTINUOUS
66
1
62
7
10
0.0
20
0.0
30
0.000000
0
VERTEX
8
0
10
493.000000
20
422.000000
0
VERTEX
8
0
10
494.000000
20
423.000000
0
SEQEND
0
POLYLINE
8
0
6
CONTINUOUS
66
1
62
7
10
0.0
20
0.0
30
0.000000
0
VERTEX
8
0
10
233.000000
20
388.000000
0
VERTEX
8
0
10
228.000000
20
388.000000
0
SEQEND
0
POLYLINE
8
0
6
CONTINUOUS
66
1
62
7
10
0.0
20
0.0
30
0.000000
0
VERTEX
8
0
10
282.000000
20
370.000000
0
VERTEX
8
0
10
285.000000
20
371.000000
0
SEQEND
0
POLYLINE
8
0
6
CONTINUOUS
66
1
62
7
10
0.0
20
0.0
30
0.000000
0
VERTEX
8
0
10
267.000000
20
366.000000
0
VERTEX
8
0
10
236.000000
20
368.000000
0
VERTEX
8
0
10
233.000000
20
371.000000
0
VERTEX
8
0
10
234.000000
20
377.000000
0
VERTEX
8
0
10
236.000000
20
379.000000
0
VERTEX
8
0
10
249.100000
20
374.200000
0
VERTEX
8
0
10
251.100000
20
373.300000
0
VERTEX
8
0
10
266.029183
20
371.466926
0
VERTEX
8
0
10
282.000000
20
370.000000
0
SEQEND
0
POLYLINE
8
0
6
CONTINUOUS
66
1
62
7
10
0.0
20
0.0
30
0.000000
0
VERTEX
8
0
10
267.000000
20
366.000000
0
VERTEX
8
0
10
270.000000
20
367.000000
0
SEQEND
0
POLYLINE
8
0
6
CONTINUOUS
66
1
62
7
10
0.0
20
0.0
30
0.000000
0
VERTEX
8
0
10
472.000000
20
356.000000
0
VERTEX
8
0
10
471.000000
20
357.000000
0
SEQEND
0
POLYLINE
8
0
6
CONTINUOUS
66
1
62
7
10
0.0
20
0.0
30
0.000000
0
VERTEX
8
0
10
472.000000
20
356.000000
0
VERTEX
8
0
10
473.000000
20
357.000000
0
VERTEX
8
0
10
472.000000
20
358.000000
0
VERTEX
8
0
10
471.000000
20
357.000000
0
SEQEND
0
POLYLINE
8
0
6
CONTINUOUS
66
1
62
7
10
0.0
20
0.0
30
0.000000
0
VERTEX
8
0
10
309.000000
20
344.000000
0
VERTEX
8
0
10
294.978351
20
345.523711
0
VERTEX
8
0
10
274.021649
20
346.476289
0
VERTEX
8
0
10
270.000000
20
348.000000
0
VERTEX
8
0
10
265.000000
20
353.000000
0
VERTEX
8
0
10
265.700000
20
356.100000
0
VERTEX
8
0
10
268.000000
20
361.000000
0
VERTEX
8
0
10
272.000000
20
365.000000
0
VERTEX
8
0
10
282.000000
20
370.000000
0
SEQEND
0
POLYLINE
8
0
6
CONTINUOUS
66
1
62
7
10
0.0
20
0.0
30
0.000000
0
VERTEX
8
0
10
309.000000
20
344.000000
0
VERTEX
8
0
10
315.000000
20
345.000000
0
SEQEND
0
POLYLINE
8
0
6
CONTINUOUS
66
1
62
7
10
0.0
20
0.0
30
0.000000
0
VERTEX
8
0
10
488.000000
20
341.000000
0
VERTEX
8
0
10
492.000000
20
351.000000
0
VERTEX
8
0
10
495.900000
20
354.200000
0
VERTEX
8
0
10
499.911765
20
355.352941
0
VERTEX
8
0
10
507.000000
20
357.000000
0
VERTEX
8
0
10
506.000000
20
359.000000
0
VERTEX
8
0
10
498.000000
20
363.000000
0
VERTEX
8
0
10
495.000000
20
363.000000
0
VERTEX
8
0
10
490.000000
20
360.000000
0
VERTEX
8
0
10
487.000000
20
357.000000
0
VERTEX
8
0
10
484.000000
20
351.000000
0
VERTEX
8
0
10
486.400000
20
343.200000
0
VERTEX
8
0
10
488.000000
20
341.000000
0
SEQEND
0
POLYLINE
8
0
6
CONTINUOUS
66
1
62
7
10
0.0
20
0.0
30
0.000000
0
VERTEX
8
0
10
488.000000
20
340.000000
0
VERTEX
8
0
10
488.000000
20
341.000000
0
SEQEND
0
POLYLINE
8
0
6
CONTINUOUS
66
1
62
7
10
0.0
20
0.0
30
0.000000
0
VERTEX
8
0
10
164.000000
20
339.000000
0
VERTEX
8
0
10
165.000000
20
341.000000
0
SEQEND
0
POLYLINE
8
0
6
CONTINUOUS
66
1
62
7
10
0.0
20
0.0
30
0.000000
0
VERTEX
8
0
10
671.000000
20
330.000000
0
VERTEX
8
0
10
670.750000
20
335.750000
0
VERTEX
8
0
10
670.000000
20
336.000000
0
VERTEX
8
0
10
669.000000
20
335.000000
0
VERTEX
8
0
10
669.000000
20
331.000000
0
VERTEX
8
0
10
670.000000
20
330.000000
0
VERTEX
8
0
10
671.000000
20
330.000000
0
SEQEND
0
POLYLINE
8
0
6
CONTINUOUS
66
1
62
7
10
0.0
20
0.0
30
0.000000
0
VERTEX
8
0
10
602.000000
20
327.000000
0
VERTEX
8
0
10
600.000000
20
327.000000
0
SEQEND
0
POLYLINE
8
0
6
CONTINUOUS
66
1
62
7
10
0.0
20
0.0
30
0.000000
0
VERTEX
8
0
10
602.000000
20
327.000000
0
VERTEX
8
0
10
605.911765
20
327.352941
0
VERTEX
8
0
10
617.000000
20
332.000000
0
VERTEX
8
0
10
618.000000
20
333.000000
0
VERTEX
8
0
10
618.000000
20
336.000000
0
VERTEX
8
0
10
615.760000
20
341.820000
0
VERTEX
8
0
10
610.000000
20
350.000000
0
VERTEX
8
0
10
617.000000
20
355.000000
0
VERTEX
8
0
10
618.000000
20
356.000000
0
VERTEX
8
0
10
618.000000
20
361.000000
0
VERTEX
8
0
10
616.000000
20
364.000000
0
VERTEX
8
0
10
612.100000
20
367.200000
0
VERTEX
8
0
10
605.000000
20
370.000000
0
VERTEX
8
0
10
603.000000
20
372.000000
0
VERTEX
8
0
10
600.700000
20
380.900000
0
VERTEX
8
0
10
600.200000
20
382.100000
0
VERTEX
8
0
10
593.000000
20
392.000000
0
VERTEX
8
0
10
591.000000
20
393.000000
0
VERTEX
8
0
10
589.000000
20
391.000000
0
VERTEX
8
0
10
588.200000
20
386.900000
0
VERTEX
8
0
10
586.000000
20
384.000000
0
VERTEX
8
0
10
571.000000
20
401.000000
0
VERTEX
8
0
10
563.846154
20
404.769231
0
VERTEX
8
0
10
560.000000
20
407.000000
0
VERTEX
8
0
10
558.200000
20
417.100000
0
VERTEX
8
0
10
558.000000
20
418.000000
0
VERTEX
8
0
10
554.100000
20
421.200000
0
VERTEX
8
0
10
553.000000
20
422.000000
0
VERTEX
8
0
10
532.000000
20
421.000000
0
VERTEX
8
0
10
528.000000
20
427.000000
0
VERTEX
8
0
10
520.900000
20
425.300000
0
VERTEX
8
0
10
501.100000
20
417.800000
0
VERTEX
8
0
10
500.000000
20
417.000000
0
VERTEX
8
0
10
493.923077
20
417.615385
0
VERTEX
8
0
10
486.000000
20
420.000000
0
VERTEX
8
0
10
484.000000
20
422.000000
0
VERTEX
8
0
10
484.000000
20
429.000000
0
VERTEX
8
0
10
485.000000
20
430.000000
0
VERTEX
8
0
10
484.000000
20
432.000000
0
VERTEX
8
0
10
478.000000
20
428.000000
0
VERTEX
8
0
10
474.800000
20
423.100000
0
VERTEX
8
0
10
473.352941
20
419.911765
0
VERTEX
8
0
10
470.000000
20
401.000000
0
VERTEX
8
0
10
468.000000
20
399.000000
0
VERTEX
8
0
10
460.900000
20
398.200000
0
VERTEX
8
0
10
460.000000
20
398.000000
0
VERTEX
8
0
10
456.700000
20
391.100000
0
VERTEX
8
0
10
456.000000
20
390.000000
0
VERTEX
8
0
10
456.000000
20
386.000000
0
VERTEX
8
0
10
457.000000
20
385.000000
0
VERTEX
8
0
10
460.180000
20
387.760000
0
VERTEX
8
0
10
464.044554
20
389.554455
0
VERTEX
8
0
10
475.000000
20
391.000000
0
VERTEX
8
0
10
476.000000
20
392.000000
0
VERTEX
8
0
10
478.569231
20
401.053846
0
VERTEX
8
0
10
480.000000
20
412.000000
0
VERTEX
8
0
10
481.000000
20
413.000000
0
VERTEX
8
0
10
483.900000
20
411.700000
0
VERTEX
8
0
10
498.000000
20
406.000000
0
VERTEX
8
0
10
513.100000
20
410.700000
0
VERTEX
8
0
10
516.088235
20
411.647059
0
VERTEX
8
0
10
526.000000
20
414.000000
0
VERTEX
8
0
10
528.000000
20
412.000000
0
VERTEX
8
0
10
528.250000
20
410.250000
0
VERTEX
8
0
10
537.932432
20
411.405405
0
VERTEX
8
0
10
539.000000
20
412.000000
0
VERTEX
8
0
10
545.000000
20
412.000000
0
VERTEX
8
0
10
548.000000
20
411.000000
0
VERTEX
8
0
10
552.200000
20
404.100000
0
VERTEX
8
0
10
554.000000
20
396.000000
0
VERTEX
8
0
10
557.900000
20
393.800000
0
VERTEX
8
0
10
563.100000
20
392.200000
0
VERTEX
8
0
10
576.000000
20
377.000000
0
VERTEX
8
0
10
589.000000
20
376.000000
0
VERTEX
8
0
10
591.000000
20
374.000000
0
VERTEX
8
0
10
593.000000
20
366.000000
0
VERTEX
8
0
10
596.000000
20
363.000000
0
VERTEX
8
0
10
598.100000
20
362.300000
0
VERTEX
8
0
10
599.900000
20
361.700000
0
VERTEX
8
0
10
603.000000
20
360.000000
0
VERTEX
8
0
10
604.600000
20
356.800000
0
VERTEX
8
0
10
606.000000
20
352.000000
0
VERTEX
8
0
10
601.600000
20
345.700000
0
VERTEX
8
0
10
602.230769
20
344.153846
0
VERTEX
8
0
10
604.230769
20
341.153846
0
VERTEX
8
0
10
606.000000
20
339.000000
0
VERTEX
8
0
10
606.000000
20
335.000000
0
VERTEX
8
0
10
602.000000
20
327.000000
0
SEQEND
0
POLYLINE
8
0
6
CONTINUOUS
66
1
62
7
10
0.0
20
0.0
30
0.000000
0
VERTEX
8
0
10
337.000000
20
320.000000
0
VERTEX
8
0
10
322.030973
20
320.464602
0
VERTEX
8
0
10
300.053846
20
322.430769
0
VERTEX
8
0
10
298.900000
20
322.700000
0
VERTEX
8
0
10
289.000000
20
327.000000
0
VERTEX
8
0
10
285.800000
20
330.900000
0
VERTEX
8
0
10
286.245902
20
333.795082
0
VERTEX
8
0
10
291.000000
20
339.000000
0
VERTEX
8
0
10
290.000000
20
340.000000
0
VERTEX
8
0
10
264.017808
20
340.480822
0
VERTEX
8
0
10
259.100000
20
342.300000
0
VERTEX
8
0
10
257.153846
20
343.230769
0
VERTEX
8
0
10
249.000000
20
349.000000
0
VERTEX
8
0
10
250.000000
20
354.000000
0
VERTEX
8
0
10
253.846154
20
357.230769
0
VERTEX
8
0
10
267.000000
20
366.000000
0
SEQEND
0
POLYLINE
8
0
6
CONTINUOUS
66
1
62
7
10
0.0
20
0.0
30
0.000000
0
VERTEX
8
0
10
337.000000
20
320.000000
0
VERTEX
8
0
10
337.000000
20
321.000000
0
VERTEX
8
0
10
313.088235
20
326.352941
0
VERTEX
8
0
10
311.911765
20
326.647059
0
VERTEX
8
0
10
307.000000
20
328.000000
0
VERTEX
8
0
10
302.000000
20
334.000000
0
VERTEX
8
0
10
302.000000
20
337.000000
0
VERTEX
8
0
10
305.000000
20
342.000000
0
VERTEX
8
0
10
309.000000
20
344.000000
0
SEQEND
0
POLYLINE
8
0
6
CONTINUOUS
66
1
62
7
10
0.0
20
0.0
30
0.000000
0
VERTEX
8
0
10
348.000000
20
320.000000
0
VERTEX
8
0
10
337.000000
20
320.000000
0
SEQEND
0
POLYLINE
8
0
6
CONTINUOUS
66
1
62
7
10
0.0
20
0.0
30
0.000000
0
VERTEX
8
0
10
433.000000
20
317.000000
0
VERTEX
8
0
10
420.060000
20
318.420000
0
VERTEX
8
0
10
415.100000
20
320.300000
0
VERTEX
8
0
10
410.000000
20
323.000000
0
VERTEX
8
0
10
406.800000
20
326.900000
0
VERTEX
8
0
10
405.000000
20
330.000000
0
VERTEX
8
0
10
405.000000
20
336.000000
0
VERTEX
8
0
10
407.200000
20
340.900000
0
VERTEX
8
0
10
409.769231
20
345.153846
0
VERTEX
8
0
10
433.200000
20
382.900000
0
VERTEX
8
0
10
437.200000
20
391.900000
0
VERTEX
8
0
10
442.000000
20
408.000000
0
VERTEX
8
0
10
441.405405
20
413.067568
0
VERTEX
8
0
10
439.400000
20
421.700000
0
VERTEX
8
0
10
437.240000
20
425.180000
0
VERTEX
8
0
10
432.000000
20
431.000000
0
VERTEX
8
0
10
417.100000
20
440.200000
0
VERTEX
8
0
10
412.100000
20
442.200000
0
VERTEX
8
0
10
403.067568
20
444.405405
0
VERTEX
8
0
10
392.000000
20
446.000000
0
VERTEX
8
0
10
378.000000
20
446.000000
0
VERTEX
8
0
10
359.088235
20
442.647059
0
VERTEX
8
0
10
333.088235
20
436.647059
0
VERTEX
8
0
10
311.100000
20
426.800000
0
VERTEX
8
0
10
281.100000
20
411.800000
0
VERTEX
8
0
10
268.946154
20
407.430769
0
VERTEX
8
0
10
262.053846
20
406.569231
0
VERTEX
8
0
10
251.000000
20
406.000000
0
VERTEX
8
0
10
221.000000
20
412.000000
0
VERTEX
8
0
10
215.000000
20
412.000000
0
VERTEX
8
0
10
213.000000
20
411.000000
0
VERTEX
8
0
10
210.800000
20
408.100000
0
VERTEX
8
0
10
210.000000
20
407.000000
0
VERTEX
8
0
10
211.200000
20
403.100000
0
VERTEX
8
0
10
212.000000
20
401.000000
0
VERTEX
8
0
10
221.846154
20
393.769231
0
VERTEX
8
0
10
225.000000
20
392.000000
0
VERTEX
8
0
10
226.000000
20
390.000000
0
VERTEX
8
0
10
225.000000
20
389.000000
0
VERTEX
8
0
10
215.100000
20
392.300000
0
VERTEX
8
0
10
211.900000
20
393.800000
0
VERTEX
8
0
10
201.000000
20
400.000000
0
VERTEX
8
0
10
198.000000
20
403.000000
0
VERTEX
8
0
10
197.200000
20
405.100000
0
VERTEX
8
0
10
196.800000
20
405.900000
0
VERTEX
8
0
10
195.000000
20
410.000000
0
VERTEX
8
0
10
196.000000
20
418.000000
0
VERTEX
8
0
10
199.000000
20
421.000000
0
VERTEX
8
0
10
201.911765
20
421.352941
0
VERTEX
8
0
10
203.000000
20
422.000000
0
VERTEX
8
0
10
218.000000
20
422.000000
0
VERTEX
8
0
10
225.946154
20
420.569231
0
VERTEX
8
0
10
227.000000
20
420.000000
0
VERTEX
8
0
10
231.000000
20
420.000000
0
VERTEX
8
0
10
233.000000
20
422.000000
0
VERTEX
8
0
10
232.420000
20
428.060000
0
VERTEX
8
0
10
231.300000
20
435.100000
0
VERTEX
8
0
10
223.200000
20
454.100000
0
VERTEX
8
0
10
221.000000
20
459.000000
0
VERTEX
8
0
10
215.000000
20
465.000000
0
VERTEX
8
0
10
212.900000
20
465.800000
0
VERTEX
8
0
10
212.100000
20
466.200000
0
VERTEX
8
0
10
208.000000
20
468.000000
0
VERTEX
8
0
10
203.000000
20
468.000000
0
VERTEX
8
0
10
196.100000
20
465.800000
0
VERTEX
8
0
10
184.100000
20
459.800000
0
VERTEX
8
0
10
162.911765
20
450.352941
0
VERTEX
8
0
10
154.000000
20
448.000000
0
VERTEX
8
0
10
142.911765
20
449.647059
0
VERTEX
8
0
10
140.000000
20
450.000000
0
VERTEX
8
0
10
135.800000
20
454.900000
0
VERTEX
8
0
10
132.000000
20
470.000000
0
VERTEX
8
0
10
132.594595
20
476.067568
0
VERTEX
8
0
10
136.000000
20
494.000000
0
VERTEX
8
0
10
138.000000
20
495.000000
0
SEQEND
0
POLYLINE
8
0
6
CONTINUOUS
66
1
62
7
10
0.0
20
0.0
30
0.000000
0
VERTEX
8
0
10
433.000000
20
317.000000
0
VERTEX
8
0
10
433.000000
20
318.000000
0
VERTEX
8
0
10
424.000000
20
323.000000
0
VERTEX
8
0
10
420.760000
20
326.820000
0
VERTEX
8
0
10
417.300000
20
332.100000
0
VERTEX
8
0
10
416.700000
20
333.900000
0
VERTEX
8
0
10
416.000000
20
335.000000
0
VERTEX
8
0
10
416.000000
20
340.000000
0
VERTEX
8
0
10
417.300000
20
342.900000
0
VERTEX
8
0
10
417.800000
20
344.100000
0
VERTEX
8
0
10
433.769231
20
369.153846
0
VERTEX
8
0
10
450.200000
20
394.900000
0
VERTEX
8
0
10
454.000000
20
407.000000
0
VERTEX
8
0
10
454.000000
20
412.000000
0
VERTEX
8
0
10
450.700000
20
422.900000
0
VERTEX
8
0
10
445.769231
20
430.846154
0
VERTEX
8
0
10
444.000000
20
434.000000
0
VERTEX
8
0
10
433.153846
20
443.230769
0
VERTEX
8
0
10
430.846154
20
444.769231
0
VERTEX
8
0
10
410.100000
20
453.300000
0
VERTEX
8
0
10
402.000000
20
456.000000
0
VERTEX
8
0
10
355.000000
20
456.000000
0
VERTEX
8
0
10
338.100000
20
450.700000
0
VERTEX
8
0
10
329.900000
20
448.300000
0
VERTEX
8
0
10
317.900000
20
443.200000
0
VERTEX
8
0
10
314.846154
20
441.230769
0
VERTEX
8
0
10
290.900000
20
427.200000
0
VERTEX
8
0
10
290.100000
20
426.800000
0
VERTEX
8
0
10
275.923077
20
420.384615
0
VERTEX
8
0
10
260.067568
20
417.594595
0
VERTEX
8
0
10
259.000000
20
417.000000
0
VERTEX
8
0
10
249.000000
20
417.000000
0
VERTEX
8
0
10
237.000000
20
419.000000
0
VERTEX
8
0
10
236.000000
20
420.000000
0
VERTEX
8
0
10
235.513141
20
457.987516
0
VERTEX
8
0
10
231.000000
20
468.000000
0
VERTEX
8
0
10
223.100000
20
474.200000
0
VERTEX
8
0
10
221.100000
20
475.200000
0
VERTEX
8
0
10
220.000000
20
476.000000
0
VERTEX
8
0
10
207.000000
20
476.000000
0
VERTEX
8
0
10
201.067568
20
474.594595
0
VERTEX
8
0
10
190.100000
20
470.700000
0
VERTEX
8
0
10
184.100000
20
467.800000
0
VERTEX
8
0
10
160.000000
20
458.000000
0
VERTEX
8
0
10
155.000000
20
458.000000
0
VERTEX
8
0
10
146.000000
20
462.000000
0
VERTEX
8
0
10
144.000000
20
464.000000
0
VERTEX
8
0
10
140.439024
20
472.048780
0
VERTEX
8
0
10
138.000000
20
495.000000
0
SEQEND
0
POLYLINE
8
0
6
CONTINUOUS
66
1
62
7
10
0.0
20
0.0
30
0.000000
0
VERTEX
8
0
10
436.000000
20
317.000000
0
VERTEX
8
0
10
433.000000
20
317.000000
0
SEQEND
0
POLYLINE
8
0
6
CONTINUOUS
66
1
62
7
10
0.0
20
0.0
30
0.000000
0
VERTEX
8
0
10
471.000000
20
357.000000
0
VERTEX
8
0
10
468.000000
20
356.000000
0
VERTEX
8
0
10
465.000000
20
353.000000
0
VERTEX
8
0
10
464.300000
20
350.900000
0
VERTEX
8
0
10
463.700000
20
349.100000
0
VERTEX
8
0
10
463.000000
20
348.000000
0
VERTEX
8
0
10
463.000000
20
340.000000
0
VERTEX
8
0
10
468.900000
20
334.800000
0
VERTEX
8
0
10
470.100000
20
334.200000
0
VERTEX
8
0
10
478.000000
20
330.000000
0
VERTEX
8
0
10
478.000000
20
329.000000
0
VERTEX
8
0
10
475.153846
20
326.769231
0
VERTEX
8
0
10
470.000000
20
324.000000
0
VERTEX
8
0
10
463.000000
20
324.000000
0
VERTEX
8
0
10
461.000000
20
325.000000
0
VERTEX
8
0
10
460.000000
20
326.000000
0
VERTEX
8
0
10
459.750000
20
332.750000
0
VERTEX
8
0
10
446.000000
20
333.000000
0
VERTEX
8
0
10
439.000000
20
342.000000
0
VERTEX
8
0
10
438.000000
20
343.000000
0
VERTEX
8
0
10
436.000000
20
341.000000
0
VERTEX
8
0
10
436.000000
20
334.000000
0
VERTEX
8
0
10
437.000000
20
330.000000
0
VERTEX
8
0
10
444.088235
20
325.352941
0
VERTEX
8
0
10
452.587629
20
323.072165
0
VERTEX
8
0
10
457.820000
20
319.760000
0
VERTEX
8
0
10
466.000000
20
316.000000
0
VERTEX
8
0
10
471.000000
20
316.000000
0
VERTEX
8
0
10
475.000000
20
318.000000
0
VERTEX
8
0
10
478.200000
20
321.900000
0
VERTEX
8
0
10
479.700000
20
325.100000
0
VERTEX
8
0
10
483.000000
20
334.000000
0
VERTEX
8
0
10
480.000000
20
337.000000
0
VERTEX
8
0
10
475.900000
20
338.800000
0
VERTEX
8
0
10
475.000000
20
339.000000
0
VERTEX
8
0
10
471.300000
20
345.100000
0
VERTEX
8
0
10
470.700000
20
346.900000
0
VERTEX
8
0
10
470.000000
20
348.000000
0
VERTEX
8
0
10
470.000000
20
352.000000
0
VERTEX
8
0
10
471.200000
20
353.900000
0
VERTEX
8
0
10
472.000000
20
356.000000
0
SEQEND
0
POLYLINE
8
0
6
CONTINUOUS
66
1
62
7
10
0.0
20
0.0
30
0.000000
0
VERTEX
8
0
10
560.000000
20
313.000000
0
VERTEX
8
0
10
560.000000
20
314.000000
0
VERTEX
8
0
10
554.000000
20
324.000000
0
VERTEX
8
0
10
554.000000
20
328.000000
0
VERTEX
8
0
10
556.240000
20
332.820000
0
VERTEX
8
0
10
560.000000
20
338.000000
0
VERTEX
8
0
10
560.000000
20
340.000000
0
VERTEX
8
0
10
558.760000
20
341.820000
0
VERTEX
8
0
10
553.000000
20
350.000000
0
VERTEX
8
0
10
550.100000
20
352.200000
0
VERTEX
8
0
10
549.000000
20
353.000000
0
VERTEX
8
0
10
546.000000
20
353.000000
0
VERTEX
8
0
10
537.100000
20
349.800000
0
VERTEX
8
0
10
535.000000
20
349.000000
0
VERTEX
8
0
10
531.800000
20
344.100000
0
VERTEX
8
0
10
530.000000
20
341.000000
0
VERTEX
8
0
10
526.100000
20
342.200000
0
VERTEX
8
0
10
525.000000
20
343.000000
0
VERTEX
8
0
10
520.000000
20
343.000000
0
VERTEX
8
0
10
517.100000
20
341.700000
0
VERTEX
8
0
10
511.000000
20
339.000000
0
VERTEX
8
0
10
508.800000
20
334.100000
0
VERTEX
8
0
10
508.000000
20
333.000000
0
VERTEX
8
0
10
508.000000
20
329.000000
0
VERTEX
8
0
10
510.000000
20
323.000000
0
VERTEX
8
0
10
511.000000
20
323.000000
0
VERTEX
8
0
10
514.230769
20
326.846154
0
VERTEX
8
0
10
520.000000
20
335.000000
0
VERTEX
8
0
10
522.040984
20
335.549180
0
VERTEX
8
0
10
531.622642
20
337.320755
0
VERTEX
8
0
10
536.846154
20
340.230769
0
VERTEX
8
0
10
539.153846
20
341.769231
0
VERTEX
8
0
10
546.000000
20
344.000000
0
VERTEX
8
0
10
550.000000
20
344.000000
0
VERTEX
8
0
10
553.000000
20
342.000000
0
VERTEX
8
0
10
555.000000
20
340.000000
0
VERTEX
8
0
10
546.800000
20
332.100000
0
VERTEX
8
0
10
545.000000
20
329.000000
0
VERTEX
8
0
10
545.000000
20
325.000000
0
VERTEX
8
0
10
545.700000
20
323.900000
0
VERTEX
8
0
10
547.000000
20
320.000000
0
VERTEX
8
0
10
551.000000
20
316.000000
0
VERTEX
8
0
10
554.200000
20
314.400000
0
VERTEX
8
0
10
560.000000
20
313.000000
0
SEQEND
0
POLYLINE
8
0
6
CONTINUOUS
66
1
62
7
10
0.0
20
0.0
30
0.000000
0
VERTEX
8
0
10
409.000000
20
309.000000
0
VERTEX
8
0
10
407.000000
20
309.000000
0
SEQEND
0
POLYLINE
8
0
6
CONTINUOUS
66
1
62
7
10
0.0
20
0.0
30
0.000000
0
VERTEX
8
0
10
595.000000
20
308.000000
0
VERTEX
8
0
10
592.700000
20
314.900000
0
VERTEX
8
0
10
592.000000
20
316.000000
0
VERTEX
8
0
10
592.000000
20
323.000000
0
VERTEX
8
0
10
594.245902
20
325.795082
0
VERTEX
8
0
10
599.000000
20
331.000000
0
VERTEX
8
0
10
597.000000
20
333.000000
0
VERTEX
8
0
10
591.911765
20
333.647059
0
VERTEX
8
0
10
585.153846
20
336.230769
0
VERTEX
8
0
10
582.100000
20
338.200000
0
VERTEX
8
0
10
581.000000
20
339.000000
0
VERTEX
8
0
10
575.000000
20
339.000000
0
VERTEX
8
0
10
573.900000
20
338.200000
0
VERTEX
8
0
10
571.000000
20
337.000000
0
VERTEX
8
0
10
566.769231
20
332.153846
0
VERTEX
8
0
10
565.000000
20
330.000000
0
VERTEX
8
0
10
565.000000
20
323.000000
0
VERTEX
8
0
10
566.000000
20
321.000000
0
VERTEX
8
0
10
567.000000
20
320.000000
0
VERTEX
8
0
10
574.000000
20
329.000000
0
VERTEX
8
0
10
579.000000
20
331.000000
0
VERTEX
8
0
10
583.000000
20
331.000000
0
VERTEX
8
0
10
586.000000
20
329.000000
0
VERTEX
8
0
10
585.300000
20
327.900000
0
VERTEX
8
0
10
583.000000
20
320.000000
0
VERTEX
8
0
10
586.200000
20
314.100000
0
VERTEX
8
0
10
588.000000
20
311.000000
0
VERTEX
8
0
10
594.000000
20
308.000000
0
VERTEX
8
0
10
595.000000
20
308.000000
0
SEQEND
0
POLYLINE
8
0
6
CONTINUOUS
66
1
62
7
10
0.0
20
0.0
30
0.000000
0
VERTEX
8
0
10
669.000000
20
300.000000
0
VERTEX
8
0
10
669.000000
20
319.000000
0
SEQEND
0
POLYLINE
8
0
6
CONTINUOUS
66
1
62
7
10
0.0
20
0.0
30
0.000000
0
VERTEX
8
0
10
84.000000
20
550.000000
0
VERTEX
8
0
10
86.352941
20
538.088235
0
VERTEX
8
0
10
89.569231
20
521.946154
0
VERTEX
8
0
10
92.580000
20
497.940000
0
VERTEX
8
0
10
98.352941
20
464.088235
0
VERTEX
8
0
10
101.352941
20
453.088235
0
VERTEX
8
0
10
104.800000
20
443.900000
0
VERTEX
8
0
10
108.769231
20
436.846154
0
VERTEX
8
0
10
112.000000
20
430.000000
0
VERTEX
8
0
10
125.000000
20
417.000000
0
VERTEX
8
0
10
131.100000
20
414.200000
0
VERTEX
8
0
10
174.100000
20
410.200000
0
VERTEX
8
0
10
182.900000
20
406.700000
0
VERTEX
8
0
10
189.804878
20
402.756098
0
VERTEX
8
0
10
198.000000
20
396.000000
0
VERTEX
8
0
10
205.800000
20
377.900000
0
VERTEX
8
0
10
206.700000
20
375.900000
0
VERTEX
8
0
10
215.200000
20
334.100000
0
VERTEX
8
0
10
218.769231
20
327.846154
0
VERTEX
8
0
10
220.000000
20
325.000000
0
VERTEX
8
0
10
235.195122
20
312.243902
0
VERTEX
8
0
10
257.100000
20
300.200000
0
VERTEX
8
0
10
274.153846
20
289.230769
0
VERTEX
8
0
10
289.100000
20
282.300000
0
VERTEX
8
0
10
297.900000
20
278.800000
0
VERTEX
8
0
10
303.000000
20
277.000000
0
VERTEX
8
0
10
317.000000
20
277.000000
0
VERTEX
8
0
10
331.900000
20
280.200000
0
VERTEX
8
0
10
371.088235
20
313.647059
0
VERTEX
8
0
10
373.911765
20
314.352941
0
VERTEX
8
0
10
380.000000
20
316.000000
0
VERTEX
8
0
10
388.000000
20
316.000000
0
VERTEX
8
0
10
403.900000
20
311.800000
0
VERTEX
8
0
10
407.000000
20
310.000000
0
VERTEX
8
0
10
407.000000
20
309.000000
0
SEQEND
0
POLYLINE
8
0
6
CONTINUOUS
66
1
62
7
10
0.0
20
0.0
30
0.000000
0
VERTEX
8
0
10
248.000000
20
273.000000
0
VERTEX
8
0
10
250.000000
20
274.000000
0
SEQEND
0
POLYLINE
8
0
6
CONTINUOUS
66
1
62
7
10
0.0
20
0.0
30
0.000000
0
VERTEX
8
0
10
165.000000
20
341.000000
0
VERTEX
8
0
10
171.000000
20
354.000000
0
VERTEX
8
0
10
170.352941
20
359.088235
0
VERTEX
8
0
10
170.000000
20
362.000000
0
VERTEX
8
0
10
165.000000
20
367.000000
0
VERTEX
8
0
10
150.932432
20
370.594595
0
VERTEX
8
0
10
146.067568
20
371.405405
0
VERTEX
8
0
10
141.153846
20
373.230769
0
VERTEX
8
0
10
128.820000
20
381.760000
0
VERTEX
8
0
10
117.900000
20
387.800000
0
VERTEX
8
0
10
116.000000
20
389.000000
0
VERTEX
8
0
10
109.932432
20
388.405405
0
VERTEX
8
0
10
103.900000
20
387.200000
0
VERTEX
8
0
10
83.900000
20
377.200000
0
VERTEX
8
0
10
79.900000
20
375.200000
0
VERTEX
8
0
10
70.000000
20
366.000000
0
VERTEX
8
0
10
68.000000
20
361.000000
0
VERTEX
8
0
10
70.000000
20
359.000000
0
VERTEX
8
0
10
95.000000
20
354.000000
0
VERTEX
8
0
10
106.240000
20
340.180000
0
VERTEX
8
0
10
115.760000
20
326.820000
0
VERTEX
8
0
10
120.800000
20
317.900000
0
VERTEX
8
0
10
124.300000
20
309.100000
0
VERTEX
8
0
10
127.535398
20
282.969027
0
VERTEX
8
0
10
129.000000
20
260.000000
0
VERTEX
8
0
10
130.000000
20
259.000000
0
VERTEX
8
0
10
131.000000
20
260.000000
0
VERTEX
8
0
10
131.538071
20
267.032995
0
VERTEX
8
0
10
134.000000
20
302.000000
0
VERTEX
8
0
10
129.647059
20
317.911765
0
VERTEX
8
0
10
120.769231
20
335.846154
0
VERTEX
8
0
10
119.230769
20
338.153846
0
VERTEX
8
0
10
112.000000
20
349.000000
0
VERTEX
8
0
10
100.000000
20
361.000000
0
VERTEX
8
0
10
97.900000
20
361.700000
0
VERTEX
8
0
10
94.911765
20
362.647059
0
VERTEX
8
0
10
85.000000
20
365.000000
0
VERTEX
8
0
10
83.000000
20
367.000000
0
VERTEX
8
0
10
83.000000
20
368.000000
0
VERTEX
8
0
10
85.000000
20
371.000000
0
VERTEX
8
0
10
85.900000
20
371.200000
0
VERTEX
8
0
10
102.000000
20
379.000000
0
VERTEX
8
0
10
112.000000
20
379.000000
0
VERTEX
8
0
10
138.900000
20
365.800000
0
VERTEX
8
0
10
150.088235
20
363.352941
0
VERTEX
8
0
10
161.000000
20
360.000000
0
VERTEX
8
0
10
162.000000
20
359.000000
0
VERTEX
8
0
10
165.000000
20
341.000000
0
SEQEND
0
POLYLINE
8
0
6
CONTINUOUS
66
1
62
7
10
0.0
20
0.0
30
0.000000
0
VERTEX
8
0
10
514.000000
20
257.000000
0
VERTEX
8
0
10
511.000000
20
258.000000
0
SEQEND
0
POLYLINE
8
0
6
CONTINUOUS
66
1
62
7
10
0.0
20
0.0
30
0.000000
0
VERTEX
8
0
10
423.000000
20
248.000000
0
VERTEX
8
0
10
422.000000
20
249.000000
0
VERTEX
8
0
10
423.000000
20
250.000000
0
VERTEX
8
0
10
424.000000
20
249.000000
0
SEQEND
0
POLYLINE
8
0
6
CONTINUOUS
66
1
62
7
10
0.0
20
0.0
30
0.000000
0
VERTEX
8
0
10
423.000000
20
248.000000
0
VERTEX
8
0
10
424.000000
20
249.000000
0
SEQEND
0
POLYLINE
8
0
6
CONTINUOUS
66
1
62
7
10
0.0
20
0.0
30
0.000000
0
VERTEX
8
0
10
147.000000
20
233.000000
0
VERTEX
8
0
10
148.000000
20
234.000000
0
VERTEX
8
0
10
146.000000
20
236.000000
0
VERTEX
8
0
10
145.000000
20
234.000000
0
VERTEX
8
0
10
147.000000
20
233.000000
0
SEQEND
0
POLYLINE
8
0
6
CONTINUOUS
66
1
62
7
10
0.0
20
0.0
30
0.000000
0
VERTEX
8
0
10
166.000000
20
222.000000
0
VERTEX
8
0
10
163.000000
20
223.000000
0
SEQEND
0
POLYLINE
8
0
6
CONTINUOUS
66
1
62
7
10
0.0
20
0.0
30
0.000000
0
VERTEX
8
0
10
168.000000
20
221.000000
0
VERTEX
8
0
10
166.000000
20
222.000000
0
SEQEND
0
POLYLINE
8
0
6
CONTINUOUS
66
1
62
7
10
0.0
20
0.0
30
0.000000
0
VERTEX
8
0
10
167.000000
20
220.000000
0
VERTEX
8
0
10
166.000000
20
222.000000
0
SEQEND
0
POLYLINE
8
0
6
CONTINUOUS
66
1
62
7
10
0.0
20
0.0
30
0.000000
0
VERTEX
8
0
10
167.000000
20
220.000000
0
VERTEX
8
0
10
168.000000
20
221.000000
0
SEQEND
0
POLYLINE
8
0
6
CONTINUOUS
66
1
62
7
10
0.0
20
0.0
30
0.000000
0
VERTEX
8
0
10
514.000000
20
257.000000
0
VERTEX
8
0
10
518.100000
20
258.700000
0
VERTEX
8
0
10
521.820000
20
260.240000
0
VERTEX
8
0
10
531.204918
20
267.754098
0
VERTEX
8
0
10
536.100000
20
270.800000
0
VERTEX
8
0
10
547.000000
20
275.000000
0
VERTEX
8
0
10
549.000000
20
277.000000
0
VERTEX
8
0
10
550.700000
20
281.100000
0
VERTEX
8
0
10
551.300000
20
282.900000
0
VERTEX
8
0
10
552.000000
20
291.000000
0
VERTEX
8
0
10
554.000000
20
293.000000
0
VERTEX
8
0
10
558.100000
20
293.800000
0
VERTEX
8
0
10
562.000000
20
296.000000
0
VERTEX
8
0
10
564.230769
20
298.846154
0
VERTEX
8
0
10
572.000000
20
311.000000
0
VERTEX
8
0
10
573.000000
20
310.000000
0
VERTEX
8
0
10
570.647059
20
301.088235
0
VERTEX
8
0
10
558.800000
20
284.100000
0
VERTEX
8
0
10
556.300000
20
277.900000
0
VERTEX
8
0
10
553.769231
20
270.153846
0
VERTEX
8
0
10
550.000000
20
265.000000
0
VERTEX
8
0
10
568.788235
20
247.752941
0
VERTEX
8
0
10
575.820000
20
241.760000
0
VERTEX
8
0
10
582.000000
20
238.000000
0
VERTEX
8
0
10
591.000000
20
238.000000
0
VERTEX
8
0
10
606.911765
20
242.352941
0
VERTEX
8
0
10
618.900000
20
248.200000
0
VERTEX
8
0
10
627.000000
20
253.000000
0
VERTEX
8
0
10
630.230769
20
257.846154
0
VERTEX
8
0
10
635.200000
20
265.900000
0
VERTEX
8
0
10
639.405405
20
287.932432
0
VERTEX
8
0
10
647.384615
20
331.923077
0
VERTEX
8
0
10
652.700000
20
357.100000
0
VERTEX
8
0
10
660.800000
20
380.100000
0
VERTEX
8
0
10
666.000000
20
389.000000
0
VERTEX
8
0
10
671.000000
20
394.000000
0
VERTEX
8
0
10
678.100000
20
398.800000
0
VERTEX
8
0
10
678.900000
20
399.200000
0
VERTEX
8
0
10
686.076923
20
401.615385
0
VERTEX
8
0
10
689.923077
20
402.384615
0
VERTEX
8
0
10
696.000000
20
404.000000
0
VERTEX
8
0
10
702.000000
20
404.000000
0
VERTEX
8
0
10
703.100000
20
403.300000
0
VERTEX
8
0
10
707.000000
20
402.000000
0
VERTEX
8
0
10
713.000000
20
396.000000
0
VERTEX
8
0
10
716.000000
20
389.000000
0
VERTEX
8
0
10
715.000000
20
388.000000
0
VERTEX
8
0
10
712.900000
20
388.800000
0
VERTEX
8
0
10
703.000000
20
395.000000
0
VERTEX
8
0
10
691.911765
20
393.352941
0
VERTEX
8
0
10
683.900000
20
390.200000
0
VERTEX
8
0
10
677.000000
20
386.000000
0
VERTEX
8
0
10
671.230769
20
376.846154
0
VERTEX
8
0
10
664.300000
20
357.900000
0
VERTEX
8
0
10
662.700000
20
353.100000
0
VERTEX
8
0
10
660.445545
20
341.955446
0
VERTEX
8
0
10
658.569231
20
325.053846
0
VERTEX
8
0
10
650.352941
20
272.911765
0
VERTEX
8
0
10
649.647059
20
270.088235
0
VERTEX
8
0
10
645.200000
20
257.900000
0
VERTEX
8
0
10
643.230769
20
254.846154
0
VERTEX
8
0
10
639.000000
20
247.000000
0
VERTEX
8
0
10
636.000000
20
244.000000
0
VERTEX
8
0
10
624.100000
20
236.800000
0
VERTEX
8
0
10
622.100000
20
235.800000
0
VERTEX
8
0
10
599.911765
20
227.352941
0
VERTEX
8
0
10
597.088235
20
226.647059
0
VERTEX
8
0
10
592.000000
20
225.000000
0
VERTEX
8
0
10
592.000000
20
224.000000
0
VERTEX
8
0
10
600.000000
20
216.000000
0
VERTEX
8
0
10
603.153846
20
214.230769
0
VERTEX
8
0
10
608.900000
20
210.800000
0
VERTEX
8
0
10
624.100000
20
215.700000
0
VERTEX
8
0
10
629.911765
20
217.352941
0
VERTEX
8
0
10
644.795082
20
224.245902
0
VERTEX
8
0
10
651.000000
20
229.000000
0
VERTEX
8
0
10
658.230769
20
237.846154
0
VERTEX
8
0
10
661.615385
20
244.076923
0
VERTEX
8
0
10
666.554455
20
287.044554
0
VERTEX
8
0
10
668.300000
20
298.900000
0
VERTEX
8
0
10
669.000000
20
300.000000
0
SEQEND
0
POLYLINE
8
0
6
CONTINUOUS
66
1
62
7
10
0.0
20
0.0
30
0.000000
0
VERTEX
8
0
10
559.000000
20
207.000000
0
VERTEX
8
0
10
558.200000
20
210.100000
0
VERTEX
8
0
10
552.751381
20
217.776243
0
VERTEX
8
0
10
535.000000
20
237.000000
0
VERTEX
8
0
10
519.846154
20
246.769231
0
VERTEX
8
0
10
508.000000
20
254.000000
0
VERTEX
8
0
10
498.000000
20
264.000000
0
VERTEX
8
0
10
490.200000
20
276.100000
0
VERTEX
8
0
10
475.000000
20
306.000000
0
VERTEX
8
0
10
457.000000
20
315.000000
0
VERTEX
8
0
10
456.000000
20
313.000000
0
VERTEX
8
0
10
458.000000
20
312.000000
0
VERTEX
8
0
10
469.000000
20
301.000000
0
VERTEX
8
0
10
479.800000
20
276.900000
0
VERTEX
8
0
10
481.800000
20
272.900000
0
VERTEX
8
0
10
495.000000
20
256.000000
0
VERTEX
8
0
10
500.000000
20
251.000000
0
VERTEX
8
0
10
513.900000
20
242.800000
0
VERTEX
8
0
10
515.100000
20
242.300000
0
VERTEX
8
0
10
520.846154
20
239.769231
0
VERTEX
8
0
10
533.204918
20
230.245902
0
VERTEX
8
0
10
549.000000
20
216.000000
0
VERTEX
8
0
10
549.000000
20
215.000000
0
VERTEX
8
0
10
557.000000
20
207.000000
0
VERTEX
8
0
10
559.000000
20
207.000000
0
SEQEND
0
POLYLINE
8
0
6
CONTINUOUS
66
1
62
7
10
0.0
20
0.0
30
0.000000
0
VERTEX
8
0
10
560.000000
20
206.000000
0
VERTEX
8
0
10
559.000000
20
207.000000
0
SEQEND
0
POLYLINE
8
0
6
CONTINUOUS
66
1
62
7
10
0.0
20
0.0
30
0.000000
0
VERTEX
8
0
10
562.000000
20
206.000000
0
VERTEX
8
0
10
561.000000
20
207.000000
0
VERTEX
8
0
10
560.000000
20
206.000000
0
SEQEND
0
POLYLINE
8
0
6
CONTINUOUS
66
1
62
7
10
0.0
20
0.0
30
0.000000
0
VERTEX
8
0
10
562.000000
20
205.000000
0
VERTEX
8
0
10
560.000000
20
206.000000
0
SEQEND
0
POLYLINE
8
0
6
CONTINUOUS
66
1
62
7
10
0.0
20
0.0
30
0.000000
0
VERTEX
8
0
10
562.000000
20
205.000000
0
VERTEX
8
0
10
562.000000
20
206.000000
0
SEQEND
0
POLYLINE
8
0
6
CONTINUOUS
66
1
62
7
10
0.0
20
0.0
30
0.000000
0
VERTEX
8
0
10
563.000000
20
203.000000
0
VERTEX
8
0
10
562.000000
20
205.000000
0
SEQEND
0
POLYLINE
8
0
6
CONTINUOUS
66
1
62
7
10
0.0
20
0.0
30
0.000000
0
VERTEX
8
0
10
563.000000
20
203.000000
0
VERTEX
8
0
10
563.000000
20
201.000000
0
VERTEX
8
0
10
564.000000
20
200.000000
0
VERTEX
8
0
10
565.000000
20
201.000000
0
VERTEX
8
0
10
565.000000
20
203.000000
0
VERTEX
8
0
10
564.000000
20
204.000000
0
VERTEX
8
0
10
563.000000
20
203.000000
0
SEQEND
0
POLYLINE
8
0
6
CONTINUOUS
66
1
62
7
10
0.0
20
0.0
30
0.000000
0
VERTEX
8
0
10
598.000000
20
200.000000
0
VERTEX
8
0
10
601.000000
20
202.000000
0
VERTEX
8
0
10
600.000000
20
203.000000
0
VERTEX
8
0
10
598.000000
20
203.000000
0
VERTEX
8
0
10
597.000000
20
201.000000
0
VERTEX
8
0
10
598.000000
20
200.000000
0
SEQEND
0
POLYLINE
8
0
6
CONTINUOUS
66
1
62
7
10
0.0
20
0.0
30
0.000000
0
VERTEX
8
0
10
168.000000
20
221.000000
0
VERTEX
8
0
10
185.100000
20
215.200000
0
VERTEX
8
0
10
196.000000
20
208.000000
0
VERTEX
8
0
10
210.000000
20
192.000000
0
VERTEX
8
0
10
215.000000
20
197.000000
0
VERTEX
8
0
10
215.800000
20
199.100000
0
VERTEX
8
0
10
218.200000
20
204.900000
0
VERTEX
8
0
10
224.352941
20
223.911765
0
VERTEX
8
0
10
224.700000
20
225.100000
0
VERTEX
8
0
10
232.000000
20
255.000000
0
VERTEX
8
0
10
232.000000
20
257.000000
0
VERTEX
8
0
10
229.000000
20
260.000000
0
VERTEX
8
0
10
214.923077
20
258.384615
0
VERTEX
8
0
10
206.100000
20
255.800000
0
VERTEX
8
0
10
198.100000
20
252.800000
0
VERTEX
8
0
10
191.000000
20
250.000000
0
VERTEX
8
0
10
190.000000
20
251.000000
0
VERTEX
8
0
10
190.000000
20
254.000000
0
VERTEX
8
0
10
193.000000
20
279.000000
0
VERTEX
8
0
10
193.000000
20
291.000000
0
VERTEX
8
0
10
191.700000
20
293.900000
0
VERTEX
8
0
10
171.800000
20
321.900000
0
VERTEX
8
0
10
171.000000
20
323.000000
0
VERTEX
8
0
10
171.000000
20
325.000000
0
VERTEX
8
0
10
172.000000
20
326.000000
0
VERTEX
8
0
10
175.788235
20
323.752941
0
VERTEX
8
0
10
190.000000
20
311.000000
0
VERTEX
8
0
10
195.769231
20
302.846154
0
VERTEX
8
0
10
198.300000
20
297.100000
0
VERTEX
8
0
10
200.569231
20
291.946154
0
VERTEX
8
0
10
202.000000
20
284.000000
0
VERTEX
8
0
10
201.439024
20
272.951220
0
VERTEX
8
0
10
201.250000
20
264.250000
0
VERTEX
8
0
10
218.955446
20
265.445545
0
VERTEX
8
0
10
237.923077
20
268.384615
0
VERTEX
8
0
10
241.900000
20
270.200000
0
VERTEX
8
0
10
248.000000
20
273.000000
0
SEQEND
0
POLYLINE
8
0
6
CONTINUOUS
66
1
62
7
10
0.0
20
0.0
30
0.000000
0
VERTEX
8
0
10
601.000000
20
191.000000
0
VERTEX
8
0
10
601.000000
20
193.000000
0
SEQEND
0
POLYLINE
8
0
6
CONTINUOUS
66
1
62
7
10
0.0
20
0.0
30
0.000000
0
VERTEX
8
0
10
300.000000
20
190.000000
0
VERTEX
8
0
10
299.000000
20
191.000000
0
VERTEX
8
0
10
301.405405
20
205.932432
0
VERTEX
8
0
10
302.000000
20
207.000000
0
VERTEX
8
0
10
302.000000
20
224.000000
0
VERTEX
8
0
10
300.594595
20
229.932432
0
VERTEX
8
0
10
297.300000
20
244.100000
0
VERTEX
8
0
10
294.230769
20
250.153846
0
VERTEX
8
0
10
291.230769
20
255.153846
0
VERTEX
8
0
10
283.752212
20
265.783186
0
VERTEX
8
0
10
277.247788
20
273.216814
0
VERTEX
8
0
10
270.211765
20
280.247059
0
VERTEX
8
0
10
263.788235
20
285.752941
0
VERTEX
8
0
10
248.846154
20
295.769231
0
VERTEX
8
0
10
211.000000
20
316.000000
0
VERTEX
8
0
10
205.000000
20
322.000000
0
VERTEX
8
0
10
199.300000
20
335.100000
0
VERTEX
8
0
10
198.700000
20
336.900000
0
VERTEX
8
0
10
191.800000
20
384.900000
0
VERTEX
8
0
10
187.000000
20
394.000000
0
VERTEX
8
0
10
184.153846
20
395.230769
0
VERTEX
8
0
10
174.000000
20
401.000000
0
VERTEX
8
0
10
147.000000
20
400.000000
0
VERTEX
8
0
10
125.900000
20
402.700000
0
VERTEX
8
0
10
120.900000
20
404.800000
0
VERTEX
8
0
10
113.180000
20
409.240000
0
VERTEX
8
0
10
103.000000
20
417.000000
0
VERTEX
8
0
10
98.200000
20
426.100000
0
VERTEX
8
0
10
97.200000
20
428.100000
0
VERTEX
8
0
10
91.352941
20
451.088235
0
VERTEX
8
0
10
90.647059
20
453.911765
0
VERTEX
8
0
10
84.594595
20
486.932432
0
VERTEX
8
0
10
78.615385
20
521.923077
0
VERTEX
8
0
10
73.647059
20
541.911765
0
VERTEX
8
0
10
68.300000
20
556.100000
0
VERTEX
8
0
10
58.769231
20
575.846154
0
VERTEX
8
0
10
57.230769
20
578.153846
0
VERTEX
8
0
10
52.000000
20
588.000000
0
VERTEX
8
0
10
53.000000
20
589.000000
0
VERTEX
8
0
10
66.820000
20
581.760000
0
VERTEX
8
0
10
85.000000
20
569.000000
0
VERTEX
8
0
10
98.230769
20
553.153846
0
VERTEX
8
0
10
99.769231
20
550.846154
0
VERTEX
8
0
10
107.000000
20
539.000000
0
VERTEX
8
0
10
110.000000
20
536.000000
0
VERTEX
8
0
10
111.000000
20
537.000000
0
VERTEX
8
0
10
117.700000
20
553.100000
0
VERTEX
8
0
10
120.300000
20
561.900000
0
VERTEX
8
0
10
121.000000
20
563.000000
0
VERTEX
8
0
10
121.000000
20
592.000000
0
VERTEX
8
0
10
120.000000
20
593.000000
0
VERTEX
8
0
10
120.000000
20
619.000000
0
VERTEX
8
0
10
121.000000
20
620.000000
0
VERTEX
8
0
10
124.000000
20
617.000000
0
VERTEX
8
0
10
140.800000
20
591.900000
0
VERTEX
8
0
10
141.200000
20
591.100000
0
VERTEX
8
0
10
146.647059
20
579.911765
0
VERTEX
8
0
10
147.352941
20
577.088235
0
VERTEX
8
0
10
151.000000
20
558.000000
0
VERTEX
8
0
10
151.000000
20
543.000000
0
VERTEX
8
0
10
149.560976
20
534.048780
0
VERTEX
8
0
10
145.700000
20
519.100000
0
VERTEX
8
0
10
144.000000
20
515.000000
0
SEQEND
0
POLYLINE
8
0
6
CONTINUOUS
66
1
62
7
10
0.0
20
0.0
30
0.000000
0
VERTEX
8
0
10
298.000000
20
185.000000
0
VERTEX
8
0
10
300.000000
20
190.000000
0
SEQEND
0
POLYLINE
8
0
6
CONTINUOUS
66
1
62
7
10
0.0
20
0.0
30
0.000000
0
VERTEX
8
0
10
295.000000
20
177.000000
0
VERTEX
8
0
10
294.750000
20
179.750000
0
VERTEX
8
0
10
294.000000
20
180.000000
0
VERTEX
8
0
10
293.000000
20
179.000000
0
VERTEX
8
0
10
293.000000
20
178.000000
0
VERTEX
8
0
10
294.000000
20
177.000000
0
VERTEX
8
0
10
295.000000
20
177.000000
0
SEQEND
0
POLYLINE
8
0
6
CONTINUOUS
66
1
62
7
10
0.0
20
0.0
30
0.000000
0
VERTEX
8
0
10
214.000000
20
175.000000
0
VERTEX
8
0
10
211.240000
20
178.180000
0
VERTEX
8
0
10
197.000000
20
196.000000
0
VERTEX
8
0
10
191.000000
20
202.000000
0
VERTEX
8
0
10
182.820000
20
207.760000
0
VERTEX
8
0
10
167.000000
20
220.000000
0
SEQEND
0
POLYLINE
8
0
6
CONTINUOUS
66
1
62
7
10
0.0
20
0.0
30
0.000000
0
VERTEX
8
0
10
214.000000
20
175.000000
0
VERTEX
8
0
10
215.200000
20
176.900000
0
VERTEX
8
0
10
225.700000
20
205.100000
0
VERTEX
8
0
10
227.200000
20
208.900000
0
VERTEX
8
0
10
233.615385
20
228.076923
0
VERTEX
8
0
10
238.352941
20
249.911765
0
VERTEX
8
0
10
241.800000
20
261.100000
0
VERTEX
8
0
10
248.000000
20
273.000000
0
SEQEND
0
POLYLINE
8
0
6
CONTINUOUS
66
1
62
7
10
0.0
20
0.0
30
0.000000
0
VERTEX
8
0
10
214.000000
20
174.000000
0
VERTEX
8
0
10
214.000000
20
175.000000
0
SEQEND
0
POLYLINE
8
0
6
CONTINUOUS
66
1
62
7
10
0.0
20
0.0
30
0.000000
0
VERTEX
8
0
10
424.000000
20
249.000000
0
VERTEX
8
0
10
437.000000
20
235.000000
0
VERTEX
8
0
10
453.153846
20
224.230769
0
VERTEX
8
0
10
456.900000
20
221.800000
0
VERTEX
8
0
10
493.846154
20
191.769231
0
VERTEX
8
0
10
499.153846
20
188.230769
0
VERTEX
8
0
10
510.100000
20
182.300000
0
VERTEX
8
0
10
513.900000
20
180.800000
0
VERTEX
8
0
10
531.100000
20
174.300000
0
VERTEX
8
0
10
537.100000
20
172.300000
0
VERTEX
8
0
10
550.846154
20
166.769231
0
VERTEX
8
0
10
560.153846
20
160.230769
0
VERTEX
8
0
10
570.000000
20
157.000000
0
VERTEX
8
0
10
580.067568
20
157.594595
0
VERTEX
8
0
10
586.846154
20
159.230769
0
VERTEX
8
0
10
590.000000
20
161.000000
0
VERTEX
8
0
10
597.200000
20
170.900000
0
VERTEX
8
0
10
601.000000
20
191.000000
0
SEQEND
0
POLYLINE
8
0
6
CONTINUOUS
66
1
62
7
10
0.0
20
0.0
30
0.000000
0
VERTEX
8
0
10
407.000000
20
309.000000
0
VERTEX
8
0
10
389.026154
20
308.529231
0
VERTEX
8
0
10
381.100000
20
306.700000
0
VERTEX
8
0
10
379.153846
20
305.769231
0
VERTEX
8
0
10
334.900000
20
273.200000
0
VERTEX
8
0
10
321.000000
20
269.000000
0
VERTEX
8
0
10
321.000000
20
267.000000
0
VERTEX
8
0
10
322.769231
20
264.846154
0
VERTEX
8
0
10
335.200000
20
247.100000
0
VERTEX
8
0
10
336.200000
20
245.100000
0
VERTEX
8
0
10
341.647059
20
229.911765
0
VERTEX
8
0
10
342.352941
20
227.088235
0
VERTEX
8
0
10
344.000000
20
222.000000
0
VERTEX
8
0
10
344.000000
20
203.000000
0
VERTEX
8
0
10
341.594595
20
191.067568
0
VERTEX
8
0
10
339.200000
20
182.900000
0
VERTEX
8
0
10
327.243902
20
165.804878
0
VERTEX
8
0
10
313.000000
20
149.000000
0
VERTEX
8
0
10
313.250000
20
148.250000
0
VERTEX
8
0
10
315.900000
20
148.300000
0
VERTEX
8
0
10
337.946154
20
151.430769
0
VERTEX
8
0
10
356.900000
20
156.300000
0
VERTEX
8
0
10
373.100000
20
162.800000
0
VERTEX
8
0
10
382.180000
20
168.760000
0
VERTEX
8
0
10
391.759088
20
176.249835
0
VERTEX
8
0
10
419.240912
20
202.750165
0
VERTEX
8
0
10
425.088235
20
204.647059
0
VERTEX
8
0
10
435.100000
20
207.800000
0
VERTEX
8
0
10
440.000000
20
211.000000
0
VERTEX
8
0
10
447.000000
20
218.000000
0
VERTEX
8
0
10
446.000000
20
220.000000
0
VERTEX
8
0
10
442.180000
20
223.240000
0
VERTEX
8
0
10
438.000000
20
226.000000
0
VERTEX
8
0
10
427.760000
20
237.820000
0
VERTEX
8
0
10
425.240000
20
241.180000
0
VERTEX
8
0
10
423.352941
20
245.088235
0
VERTEX
8
0
10
423.000000
20
248.000000
0
SEQEND
0
POLYLINE
8
0
6
CONTINUOUS
66
1
62
7
10
0.0
20
0.0
30
0.000000
0
VERTEX
8
0
10
292.000000
20
147.000000
0
VERTEX
8
0
10
286.000000
20
148.000000
0
SEQEND
0
POLYLINE
8
0
6
CONTINUOUS
66
1
62
7
10
0.0
20
0.0
30
0.000000
0
VERTEX
8
0
10
292.000000
20
147.000000
0
VERTEX
8
0
10
305.000000
20
148.000000
0
VERTEX
8
0
10
315.240000
20
158.820000
0
VERTEX
8
0
10
318.240000
20
162.820000
0
VERTEX
8
0
10
324.800000
20
173.100000
0
VERTEX
8
0
10
328.200000
20
180.900000
0
VERTEX
8
0
10
332.000000
20
196.000000
0
VERTEX
8
0
10
332.000000
20
219.000000
0
VERTEX
8
0
10
328.594595
20
235.932432
0
VERTEX
8
0
10
325.700000
20
244.900000
0
VERTEX
8
0
10
325.200000
20
246.100000
0
VERTEX
8
0
10
321.000000
20
253.000000
0
VERTEX
8
0
10
317.000000
20
257.000000
0
VERTEX
8
0
10
301.153846
20
269.230769
0
VERTEX
8
0
10
298.153846
20
271.230769
0
VERTEX
8
0
10
294.000000
20
274.000000
0
VERTEX
8
0
10
293.000000
20
273.000000
0
VERTEX
8
0
10
293.000000
20
271.000000
0
VERTEX
8
0
10
296.200000
20
264.100000
0
VERTEX
8
0
10
299.200000
20
257.100000
0
VERTEX
8
0
10
303.615385
20
244.923077
0
VERTEX
8
0
10
304.384615
20
241.076923
0
VERTEX
8
0
10
307.000000
20
231.000000
0
VERTEX
8
0
10
307.000000
20
209.000000
0
VERTEX
8
0
10
303.700000
20
199.100000
0
VERTEX
8
0
10
303.352941
20
197.911765
0
VERTEX
8
0
10
300.800000
20
191.100000
0
VERTEX
8
0
10
300.000000
20
190.000000
0
SEQEND
0
POLYLINE
8
0
6
CONTINUOUS
66
1
62
7
10
0.0
20
0.0
30
0.000000
0
VERTEX
8
0
10
285.000000
20
140.000000
0
VERTEX
8
0
10
284.000000
20
140.000000
0
SEQEND
0
POLYLINE
8
0
6
CONTINUOUS
66
1
62
7
10
0.0
20
0.0
30
0.000000
0
VERTEX
8
0
10
285.000000
20
140.000000
0
VERTEX
8
0
10
286.000000
20
141.000000
0
VERTEX
8
0
10
285.000000
20
142.000000
0
VERTEX
8
0
10
284.000000
20
140.000000
0
SEQEND
0
POLYLINE
8
0
6
CONTINUOUS
66
1
62
7
10
0.0
20
0.0
30
0.000000
0
VERTEX
8
0
10
575.000000
20
138.000000
0
VERTEX
8
0
10
576.000000
20
139.000000
0
VERTEX
8
0
10
575.000000
20
140.000000
0
VERTEX
8
0
10
574.000000
20
139.000000
0
VERTEX
8
0
10
575.000000
20
138.000000
0
SEQEND
0
POLYLINE
8
0
6
CONTINUOUS
66
1
62
7
10
0.0
20
0.0
30
0.000000
0
VERTEX
8
0
10
575.000000
20
137.000000
0
VERTEX
8
0
10
575.000000
20
138.000000
0
SEQEND
0
POLYLINE
8
0
6
CONTINUOUS
66
1
62
7
10
0.0
20
0.0
30
0.000000
0
VERTEX
8
0
10
573.000000
20
134.000000
0
VERTEX
8
0
10
573.000000
20
135.000000
0
VERTEX
8
0
10
574.000000
20
137.000000
0
VERTEX
8
0
10
575.000000
20
137.000000
0
SEQEND
0
POLYLINE
8
0
6
CONTINUOUS
66
1
62
7
10
0.0
20
0.0
30
0.000000
0
VERTEX
8
0
10
574.000000
20
134.000000
0
VERTEX
8
0
10
573.000000
20
134.000000
0
SEQEND
0
POLYLINE
8
0
6
CONTINUOUS
66
1
62
7
10
0.0
20
0.0
30
0.000000
0
VERTEX
8
0
10
574.000000
20
134.000000
0
VERTEX
8
0
10
575.000000
20
137.000000
0
SEQEND
0
POLYLINE
8
0
6
CONTINUOUS
66
1
62
7
10
0.0
20
0.0
30
0.000000
0
VERTEX
8
0
10
514.000000
20
257.000000
0
VERTEX
8
0
10
525.000000
20
254.000000
0
VERTEX
8
0
10
527.000000
20
254.000000
0
VERTEX
8
0
10
539.000000
20
262.000000
0
VERTEX
8
0
10
543.000000
20
262.000000
0
VERTEX
8
0
10
555.000000
20
252.000000
0
VERTEX
8
0
10
575.000000
20
232.000000
0
VERTEX
8
0
10
572.200000
20
225.900000
0
VERTEX
8
0
10
568.800000
20
217.100000
0
VERTEX
8
0
10
566.000000
20
210.000000
0
VERTEX
8
0
10
567.000000
20
205.000000
0
VERTEX
8
0
10
570.900000
20
201.800000
0
VERTEX
8
0
10
575.000000
20
200.000000
0
VERTEX
8
0
10
576.615385
20
204.076923
0
VERTEX
8
0
10
581.200000
20
217.900000
0
VERTEX
8
0
10
584.000000
20
222.000000
0
VERTEX
8
0
10
586.000000
20
222.000000
0
VERTEX
8
0
10
589.180000
20
219.240000
0
VERTEX
8
0
10
603.000000
20
204.000000
0
VERTEX
8
0
10
605.506711
20
203.295302
0
VERTEX
8
0
10
613.216814
20
197.247788
0
VERTEX
8
0
10
654.240200
20
158.249808
0
VERTEX
8
0
10
683.000000
20
131.000000
0
VERTEX
8
0
10
682.000000
20
129.000000
0
VERTEX
8
0
10
679.153846
20
127.769231
0
VERTEX
8
0
10
673.000000
20
123.000000
0
VERTEX
8
0
10
672.000000
20
119.000000
0
VERTEX
8
0
10
676.000000
20
113.000000
0
VERTEX
8
0
10
679.900000
20
109.800000
0
VERTEX
8
0
10
698.067568
20
103.405405
0
VERTEX
8
0
10
708.932432
20
101.594595
0
VERTEX
8
0
10
715.000000
20
101.000000
0
VERTEX
8
0
10
716.000000
20
102.000000
0
VERTEX
8
0
10
716.000000
20
106.000000
0
VERTEX
8
0
10
711.647059
20
128.911765
0
VERTEX
8
0
10
707.800000
20
135.900000
0
VERTEX
8
0
10
704.000000
20
142.000000
0
VERTEX
8
0
10
700.100000
20
144.200000
0
VERTEX
8
0
10
694.000000
20
146.000000
0
VERTEX
8
0
10
690.000000
20
143.000000
0
VERTEX
8
0
10
689.405405
20
139.932432
0
VERTEX
8
0
10
688.000000
20
133.000000
0
VERTEX
8
0
10
687.000000
20
132.000000
0
VERTEX
8
0
10
668.243335
20
150.249911
0
VERTEX
8
0
10
611.000000
20
206.000000
0
VERTEX
8
0
10
611.000000
20
207.000000
0
VERTEX
8
0
10
612.900000
20
208.200000
0
VERTEX
8
0
10
617.900000
20
210.300000
0
VERTEX
8
0
10
632.088235
20
214.647059
0
VERTEX
8
0
10
640.100000
20
216.700000
0
VERTEX
8
0
10
656.846154
20
223.230769
0
VERTEX
8
0
10
665.000000
20
229.000000
0
VERTEX
8
0
10
671.000000
20
240.000000
0
VERTEX
8
0
10
669.513141
20
298.987516
0
VERTEX
8
0
10
669.000000
20
300.000000
0
SEQEND
0
POLYLINE
8
0
6
CONTINUOUS
66
1
62
7
10
0.0
20
0.0
30
0.000000
0
VERTEX
8
0
10
284.000000
20
140.000000
0
VERTEX
8
0
10
280.230769
20
133.846154
0
VERTEX
8
0
10
265.000000
20
116.000000
0
VERTEX
8
0
10
253.735294
20
107.441176
0
VERTEX
8
0
10
242.000000
20
104.000000
0
VERTEX
8
0
10
234.000000
20
104.000000
0
VERTEX
8
0
10
226.053846
20
105.430769
0
VERTEX
8
0
10
218.100000
20
109.200000
0
VERTEX
8
0
10
214.900000
20
110.800000
0
VERTEX
8
0
10
198.000000
20
123.000000
0
VERTEX
8
0
10
186.000000
20
135.000000
0
VERTEX
8
0
10
161.760000
20
164.820000
0
VERTEX
8
0
10
158.760000
20
168.820000
0
VERTEX
8
0
10
143.000000
20
188.000000
0
VERTEX
8
0
10
139.000000
20
190.000000
0
VERTEX
8
0
10
127.900000
20
186.300000
0
VERTEX
8
0
10
124.100000
20
184.800000
0
VERTEX
8
0
10
112.923077
20
180.384615
0
VERTEX
8
0
10
109.000000
20
180.000000
0
VERTEX
8
0
10
107.000000
20
178.000000
0
VERTEX
8
0
10
107.000000
20
174.000000
0
VERTEX
8
0
10
108.000000
20
173.000000
0
VERTEX
8
0
10
108.000000
20
160.000000
0
VERTEX
8
0
10
106.000000
20
158.000000
0
VERTEX
8
0
10
102.846154
20
159.769231
0
VERTEX
8
0
10
102.000000
20
160.000000
0
VERTEX
8
0
10
96.769231
20
166.846154
0
VERTEX
8
0
10
95.230769
20
169.153846
0
VERTEX
8
0
10
92.300000
20
176.100000
0
VERTEX
8
0
10
91.700000
20
177.900000
0
VERTEX
8
0
10
91.000000
20
179.000000
0
VERTEX
8
0
10
91.000000
20
191.000000
0
VERTEX
8
0
10
95.200000
20
199.900000
0
VERTEX
8
0
10
96.800000
20
203.100000
0
VERTEX
8
0
10
110.240000
20
222.820000
0
VERTEX
8
0
10
112.760000
20
226.180000
0
VERTEX
8
0
10
123.000000
20
238.000000
0
VERTEX
8
0
10
127.100000
20
239.700000
0
VERTEX
8
0
10
128.900000
20
240.300000
0
VERTEX
8
0
10
133.000000
20
241.000000
0
VERTEX
8
0
10
134.088235
20
240.352941
0
VERTEX
8
0
10
144.000000
20
237.000000
0
VERTEX
8
0
10
145.000000
20
238.000000
0
VERTEX
8
0
10
141.180000
20
241.240000
0
VERTEX
8
0
10
132.000000
20
247.000000
0
VERTEX
8
0
10
124.000000
20
247.000000
0
VERTEX
8
0
10
122.153846
20
245.769231
0
VERTEX
8
0
10
119.846154
20
244.230769
0
VERTEX
8
0
10
106.000000
20
232.000000
0
VERTEX
8
0
10
101.245902
20
225.795082
0
VERTEX
8
0
10
93.200000
20
213.900000
0
VERTEX
8
0
10
92.769231
20
213.153846
0
VERTEX
8
0
10
84.800000
20
197.100000
0
VERTEX
8
0
10
82.000000
20
186.000000
0
VERTEX
8
0
10
82.594595
20
179.932432
0
VERTEX
8
0
10
84.441176
20
172.264706
0
VERTEX
8
0
10
86.760000
20
168.820000
0
VERTEX
8
0
10
97.000000
20
157.000000
0
VERTEX
8
0
10
105.846154
20
150.769231
0
VERTEX
8
0
10
114.100000
20
146.300000
0
VERTEX
8
0
10
116.000000
20
146.000000
0
VERTEX
8
0
10
118.000000
20
149.000000
0
VERTEX
8
0
10
117.420000
20
161.060000
0
VERTEX
8
0
10
116.000000
20
168.000000
0
VERTEX
8
0
10
116.000000
20
173.000000
0
VERTEX
8
0
10
118.000000
20
176.000000
0
VERTEX
8
0
10
125.088235
20
178.647059
0
VERTEX
8
0
10
127.911765
20
179.352941
0
VERTEX
8
0
10
137.000000
20
181.000000
0
VERTEX
8
0
10
160.247788
20
149.216814
0
VERTEX
8
0
10
173.752212
20
133.783186
0
VERTEX
8
0
10
186.000000
20
121.000000
0
VERTEX
8
0
10
197.226244
20
111.248869
0
VERTEX
8
0
10
223.100000
20
97.200000
0
VERTEX
8
0
10
236.000000
20
94.000000
0
VERTEX
8
0
10
243.067568
20
94.594595
0
VERTEX
8
0
10
251.911765
20
96.352941
0
VERTEX
8
0
10
260.900000
20
101.200000
0
VERTEX
8
0
10
262.100000
20
101.800000
0
VERTEX
8
0
10
269.000000
20
108.000000
0
VERTEX
8
0
10
278.769231
20
122.153846
0
VERTEX
8
0
10
279.800000
20
124.100000
0
VERTEX
8
0
10
284.700000
20
137.100000
0
VERTEX
8
0
10
285.000000
20
140.000000
0
SEQEND
0
POLYLINE
8
0
6
CONTINUOUS
66
1
62
7
10
0.0
20
0.0
30
0.000000
0
VERTEX
8
0
10
427.000000
20
92.000000
0
VERTEX
8
0
10
427.000000
20
93.000000
0
VERTEX
8
0
10
426.000000
20
94.000000
0
VERTEX
8
0
10
425.000000
20
94.000000
0
VERTEX
8
0
10
424.000000
20
93.000000
0
VERTEX
8
0
10
424.250000
20
92.250000
0
VERTEX
8
0
10
426.000000
20
92.000000
0
VERTEX
8
0
10
427.000000
20
92.000000
0
SEQEND
0
POLYLINE
8
0
6
CONTINUOUS
66
1
62
7
10
0.0
20
0.0
30
0.000000
0
VERTEX
8
0
10
438.000000
20
89.000000
0
VERTEX
8
0
10
427.000000
20
92.000000
0
SEQEND
0
POLYLINE
8
0
6
CONTINUOUS
66
1
62
7
10
0.0
20
0.0
30
0.000000
0
VERTEX
8
0
10
441.000000
20
88.000000
0
VERTEX
8
0
10
438.000000
20
89.000000
0
SEQEND
0
POLYLINE
8
0
6
CONTINUOUS
66
1
62
7
10
0.0
20
0.0
30
0.000000
0
VERTEX
8
0
10
441.000000
20
88.000000
0
VERTEX
8
0
10
441.000000
20
89.000000
0
VERTEX
8
0
10
439.000000
20
90.000000
0
VERTEX
8
0
10
438.000000
20
89.000000
0
SEQEND
0
POLYLINE
8
0
6
CONTINUOUS
66
1
62
7
10
0.0
20
0.0
30
0.000000
0
VERTEX
8
0
10
442.000000
20
88.000000
0
VERTEX
8
0
10
441.000000
20
88.000000
0
SEQEND
0
POLYLINE
8
0
6
CONTINUOUS
66
1
62
7
10
0.0
20
0.0
30
0.000000
0
VERTEX
8
0
10
442.000000
20
88.000000
0
VERTEX
8
0
10
443.000000
20
89.000000
0
VERTEX
8
0
10
470.946154
20
85.569231
0
VERTEX
8
0
10
472.000000
20
85.000000
0
VERTEX
8
0
10
499.000000
20
85.000000
0
VERTEX
8
0
10
519.088235
20
88.647059
0
VERTEX
8
0
10
533.100000
20
93.700000
0
VERTEX
8
0
10
540.846154
20
97.230769
0
VERTEX
8
0
10
546.153846
20
100.769231
0
VERTEX
8
0
10
553.000000
20
105.000000
0
VERTEX
8
0
10
562.752941
20
116.211765
0
VERTEX
8
0
10
567.800000
20
124.100000
0
VERTEX
8
0
10
573.000000
20
134.000000
0
SEQEND
0
POLYLINE
8
0
6
CONTINUOUS
66
1
62
7
10
0.0
20
0.0
30
0.000000
0
VERTEX
8
0
10
442.000000
20
88.000000
0
VERTEX
8
0
10
443.088235
20
87.352941
0
VERTEX
8
0
10
465.067568
20
82.405405
0
VERTEX
8
0
10
469.932432
20
81.594595
0
VERTEX
8
0
10
477.000000
20
80.000000
0
VERTEX
8
0
10
506.000000
20
80.000000
0
VERTEX
8
0
10
532.911765
20
85.352941
0
VERTEX
8
0
10
534.088235
20
85.647059
0
VERTEX
8
0
10
544.100000
20
89.800000
0
VERTEX
8
0
10
546.795082
20
91.245902
0
VERTEX
8
0
10
559.000000
20
102.000000
0
VERTEX
8
0
10
564.230769
20
108.846154
0
VERTEX
8
0
10
569.700000
20
118.100000
0
VERTEX
8
0
10
570.300000
20
119.900000
0
VERTEX
8
0
10
573.647059
20
130.088235
0
VERTEX
8
0
10
574.000000
20
134.000000
0
SEQEND
0
POLYLINE
8
0
6
CONTINUOUS
66
1
62
7
10
0.0
20
0.0
30
0.000000
0
VERTEX
8
0
10
292.000000
20
147.000000
0
VERTEX
8
0
10
296.923077
20
145.615385
0
VERTEX
8
0
10
327.000000
20
141.000000
0
VERTEX
8
0
10
338.000000
20
141.000000
0
VERTEX
8
0
10
347.955446
20
142.445545
0
VERTEX
8
0
10
359.911765
20
145.352941
0
VERTEX
8
0
10
374.100000
20
151.800000
0
VERTEX
8
0
10
391.783186
20
164.247788
0
VERTEX
8
0
10
399.216814
20
170.752212
0
VERTEX
8
0
10
407.247788
20
178.783186
0
VERTEX
8
0
10
414.247788
20
186.783186
0
VERTEX
8
0
10
425.000000
20
199.000000
0
VERTEX
8
0
10
437.088235
20
201.647059
0
VERTEX
8
0
10
441.846154
20
203.230769
0
VERTEX
8
0
10
456.000000
20
214.000000
0
VERTEX
8
0
10
459.100000
20
213.300000
0
VERTEX
8
0
10
461.000000
20
213.000000
0
VERTEX
8
0
10
472.000000
20
202.000000
0
VERTEX
8
0
10
474.760000
20
197.820000
0
VERTEX
8
0
10
477.760000
20
193.820000
0
VERTEX
8
0
10
482.795082
20
188.754098
0
VERTEX
8
0
10
488.204918
20
184.245902
0
VERTEX
8
0
10
498.100000
20
178.200000
0
VERTEX
8
0
10
498.900000
20
177.800000
0
VERTEX
8
0
10
513.088235
20
171.352941
0
VERTEX
8
0
10
530.100000
20
166.300000
0
VERTEX
8
0
10
548.000000
20
161.000000
0
VERTEX
8
0
10
550.000000
20
159.000000
0
VERTEX
8
0
10
550.000000
20
154.000000
0
VERTEX
8
0
10
548.615385
20
149.076923
0
VERTEX
8
0
10
548.300000
20
147.900000
0
VERTEX
8
0
10
545.769231
20
142.153846
0
VERTEX
8
0
10
542.200000
20
135.900000
0
VERTEX
8
0
10
537.000000
20
129.000000
0
VERTEX
8
0
10
530.000000
20
122.000000
0
VERTEX
8
0
10
524.804878
20
118.243902
0
VERTEX
8
0
10
524.100000
20
117.800000
0
VERTEX
8
0
10
510.932432
20
114.405405
0
VERTEX
8
0
10
506.067568
20
113.594595
0
VERTEX
8
0
10
479.029183
20
111.533074
0
VERTEX
8
0
10
436.000000
20
111.000000
0
VERTEX
8
0
10
415.000000
20
113.000000
0
VERTEX
8
0
10
401.000000
20
113.000000
0
VERTEX
8
0
10
381.088235
20
108.647059
0
VERTEX
8
0
10
377.900000
20
107.200000
0
VERTEX
8
0
10
367.820000
20
101.240000
0
VERTEX
8
0
10
359.000000
20
94.000000
0
VERTEX
8
0
10
353.700000
20
84.100000
0
VERTEX
8
0
10
352.000000
20
76.000000
0
VERTEX
8
0
10
355.000000
20
72.000000
0
VERTEX
8
0
10
363.000000
20
65.000000
0
VERTEX
8
0
10
364.000000
20
66.000000
0
VERTEX
8
0
10
362.647059
20
71.911765
0
VERTEX
8
0
10
362.000000
20
73.000000
0
VERTEX
8
0
10
362.647059
20
77.088235
0
VERTEX
8
0
10
366.200000
20
85.900000
0
VERTEX
8
0
10
369.000000
20
90.000000
0
VERTEX
8
0
10
376.846154
20
95.230769
0
VERTEX
8
0
10
386.088235
20
100.647059
0
VERTEX
8
0
10
388.911765
20
101.352941
0
VERTEX
8
0
10
397.000000
20
103.000000
0
VERTEX
8
0
10
426.000000
20
103.000000
0
VERTEX
8
0
10
442.020755
20
101.477358
0
VERTEX
8
0
10
463.979245
20
100.522642
0
VERTEX
8
0
10
486.000000
20
100.000000
0
VERTEX
8
0
10
509.900000
20
103.300000
0
VERTEX
8
0
10
512.900000
20
104.300000
0
VERTEX
8
0
10
529.100000
20
109.800000
0
VERTEX
8
0
10
546.000000
20
121.000000
0
VERTEX
8
0
10
555.800000
20
136.100000
0
VERTEX
8
0
10
557.800000
20
140.100000
0
VERTEX
8
0
10
561.000000
20
148.000000
0
VERTEX
8
0
10
563.000000
20
150.000000
0
VERTEX
8
0
10
572.000000
20
148.000000
0
VERTEX
8
0
10
587.000000
20
148.000000
0
VERTEX
8
0
10
589.820000
20
150.240000
0
VERTEX
8
0
10
594.000000
20
153.000000
0
VERTEX
8
0
10
598.243902
20
157.804878
0
VERTEX
8
0
10
602.300000
20
163.900000
0
VERTEX
8
0
10
604.000000
20
169.000000
0
VERTEX
8
0
10
604.000000
20
178.000000
0
VERTEX
8
0
10
601.800000
20
189.900000
0
VERTEX
8
0
10
601.000000
20
191.000000
0
SEQEND
0
ENDSEC
0
EOF
