  0
SECTION
  2
HEADER
  9
$ACADVER
  1
AC1009
  9
$INSBASE
 10
0.0
 20
0.0
 30
0.0
  9
$EXTMIN
 10
1068.9097812699349106
 20
405.9688529264296903
 30
0.0
  9
$EXTMAX
 10
2663.3852796635101186
 20
2110.3907249132289508
 30
0.0
  9
$LIMMIN
 10
0.0
 20
0.0
  9
$LIMMAX
 10
420.0
 20
297.0
  9
$ORTHOMODE
 70
     0
  9
$REGENMODE
 70
     1
  9
$FILLMODE
 70
     1
  9
$QTEXTMODE
 70
     0
  9
$MIRRTEXT
 70
     0
  9
$DRAGMODE
 70
     2
  9
$LTSCALE
 40
1.0
  9
$OSMODE
 70
  4095
  9
$ATTMODE
 70
     1
  9
$TEXTSIZE
 40
2.5
  9
$TRACEWID
 40
1.0
  9
$TEXTSTYLE
  7
STANDARD
  9
$CLAYER
  8
0
  9
$CELTYPE
  6
BYLAYER
  9
$CECOLOR
 62
   256
  9
$DIMSCALE
 40
1.0
  9
$DIMASZ
 40
2.5
  9
$DIMEXO
 40
0.625
  9
$DIMDLI
 40
3.75
  9
$DIMRND
 40
0.0
  9
$DIMDLE
 40
0.0
  9
$DIMEXE
 40
1.25
  9
$DIMTP
 40
0.0
  9
$DIMTM
 40
0.0
  9
$DIMTXT
 40
2.5
  9
$DIMCEN
 40
2.5
  9
$DIMTSZ
 40
0.0
  9
$DIMTOL
 70
     0
  9
$DIMLIM
 70
     0
  9
$DIMTIH
 70
     0
  9
$DIMTOH
 70
     0
  9
$DIMSE1
 70
     0
  9
$DIMSE2
 70
     0
  9
$DIMTAD
 70
     1
  9
$DIMZIN
 70
     8
  9
$DIMBLK
  1

  9
$DIMASO
 70
     1
  9
$DIMSHO
 70
     1
  9
$DIMPOST
  1

  9
$DIMAPOST
  1

  9
$DIMALT
 70
     0
  9
$DIMALTD
 70
     3
  9
$DIMALTF
 40
0.03937007874016
  9
$DIMLFAC
 40
1.0
  9
$DIMTOFL
 70
     1
  9
$DIMTVP
 40
0.0
  9
$DIMTIX
 70
     0
  9
$DIMSOXD
 70
     0
  9
$DIMSAH
 70
     0
  9
$DIMBLK1
  1

  9
$DIMBLK2
  1

  9
$DIMSTYLE
  2
ISO-25
  9
$DIMCLRD
 70
     0
  9
$DIMCLRE
 70
     0
  9
$DIMCLRT
 70
     0
  9
$DIMTFAC
 40
1.0
  9
$DIMGAP
 40
0.625
  9
$LUNITS
 70
     2
  9
$LUPREC
 70
     4
  9
$SKETCHINC
 40
1.0
  9
$FILLETRAD
 40
0.0
  9
$AUNITS
 70
     0
  9
$AUPREC
 70
     0
  9
$MENU
  1
.
  9
$ELEVATION
 40
0.0
  9
$PELEVATION
 40
0.0
  9
$THICKNESS
 40
0.0
  9
$LIMCHECK
 70
     0
  9
$BLIPMODE
 70
     0
  9
$CHAMFERA
 40
0.0
  9
$CHAMFERB
 40
0.0
  9
$SKPOLY
 70
     0
  9
$TDCREATE
 40
2458006.4737037038430572
  9
$TDUPDATE
 40
2458006.4755555549636483
  9
$TDINDWG
 40
0.0018518519
  9
$TDUSRTIMER
 40
0.0018518519
  9
$USRTIMER
 70
     1
  9
$ANGBASE
 50
0.0
  9
$ANGDIR
 70
     0
  9
$PDMODE
 70
     0
  9
$PDSIZE
 40
0.0
  9
$PLINEWID
 40
0.0
  9
$COORDS
 70
     1
  9
$SPLFRAME
 70
     0
  9
$SPLINETYPE
 70
     6
  9
$SPLINESEGS
 70
     8
  9
$ATTDIA
 70
     1
  9
$ATTREQ
 70
     1
  9
$HANDLING
 70
     1
  9
$HANDSEED
  5
645
  9
$SURFTAB1
 70
     6
  9
$SURFTAB2
 70
     6
  9
$SURFTYPE
 70
     6
  9
$SURFU
 70
     6
  9
$SURFV
 70
     6
  9
$UCSNAME
  2

  9
$UCSORG
 10
0.0
 20
0.0
 30
0.0
  9
$UCSXDIR
 10
1.0
 20
0.0
 30
0.0
  9
$UCSYDIR
 10
0.0
 20
1.0
 30
0.0
  9
$PUCSNAME
  2

  9
$PUCSORG
 10
0.0
 20
0.0
 30
0.0
  9
$PUCSXDIR
 10
1.0
 20
0.0
 30
0.0
  9
$PUCSYDIR
 10
0.0
 20
1.0
 30
0.0
  9
$USERI1
 70
     0
  9
$USERI2
 70
     0
  9
$USERI3
 70
     0
  9
$USERI4
 70
     0
  9
$USERI5
 70
     0
  9
$USERR1
 40
0.0
  9
$USERR2
 40
0.0
  9
$USERR3
 40
0.0
  9
$USERR4
 40
0.0
  9
$USERR5
 40
0.0
  9
$WORLDVIEW
 70
     1
  9
$SHADEDGE
 70
     3
  9
$SHADEDIF
 70
    70
  9
$TILEMODE
 70
     1
  9
$MAXACTVP
 70
    64
  9
$PLIMCHECK
 70
     0
  9
$PEXTMIN
 10
0.0
 20
0.0
 30
0.0
  9
$PEXTMAX
 10
0.0
 20
0.0
 30
0.0
  9
$PLIMMIN
 10
0.0
 20
0.0
  9
$PLIMMAX
 10
12.0
 20
9.0
  9
$UNITMODE
 70
     0
  9
$VISRETAIN
 70
     1
  9
$PLINEGEN
 70
     0
  9
$PSLTSCALE
 70
     1
  0
ENDSEC
  0
SECTION
  2
TABLES
  0
TABLE
  2
VPORT
 70
     1
  0
VPORT
  2
*ACTIVE
 70
     0
 10
0.0
 20
0.0
 11
1.0
 21
1.0
 12
1888.3980214623040865
 22
1250.7803107540401015
 13
0.0
 23
0.0
 14
10.0
 24
10.0
 15
10.0
 25
10.0
 16
0.0
 26
0.0
 36
1.0
 17
0.0
 27
0.0
 37
0.0
 40
2742.9610072613018019
 41
1.68157614483493
 42
50.0
 43
0.0
 44
0.0
 50
0.0
 51
0.0
 71
     0
 72
  1000
 73
     1
 74
     3
 75
     0
 76
     1
 77
     0
 78
     0
  0
ENDTAB
  0
TABLE
  2
LTYPE
 70
     1
  0
LTYPE
  2
CONTINUOUS
 70
     0
  3
Solid line
 72
    65
 73
     0
 40
0.0
  0
ENDTAB
  0
TABLE
  2
LAYER
 70
     1
  0
LAYER
  2
0
 70
     0
 62
     7
  6
CONTINUOUS
  0
ENDTAB
  0
TABLE
  2
STYLE
 70
     2
  0
STYLE
  2
STANDARD
 70
     0
 40
0.0
 41
1.0
 50
0.0
 71
     0
 42
2.5
  3
txt
  4

  0
STYLE
  2
ANNOTATIVE
 70
     0
 40
0.0
 41
1.0
 50
0.0
 71
     0
 42
2.5
  3
txt
  4

  0
ENDTAB
  0
TABLE
  2
VIEW
 70
     0
  0
ENDTAB
  0
TABLE
  2
UCS
 70
     0
  0
ENDTAB
  0
TABLE
  2
APPID
 70
     9
  0
APPID
  2
ACAD
 70
     0
  0
APPID
  2
ACAD_PSEXT
 70
     0
  0
APPID
  2
ACADANNOPO
 70
     0
  0
APPID
  2
ACADANNOTATIVE
 70
     0
  0
APPID
  2
ACAD_DSTYLE_DIMJAG
 70
     0
  0
APPID
  2
ACAD_DSTYLE_DIMTALN
 70
     0
  0
APPID
  2
ACAD_MLEADERVER
 70
     0
  0
APPID
  2
ACAD_NAV_VCDISPLAY
 70
     0
  0
APPID
  2
CONTENTBLOCKICON
 70
     0
  0
ENDTAB
  0
TABLE
  2
DIMSTYLE
 70
     3
  0
DIMSTYLE
  2
STANDARD
 70
     0
  3

  4

  5

  6

  7

 40
1.0
 41
0.18
 42
0.0625
 43
0.38
 44
0.18
 45
0.0
 46
0.0
 47
0.0
 48
0.0
140
0.18
141
0.09
142
0.0
143
25.3999999999999986
144
1.0
145
0.0
146
1.0
147
0.09
 71
     0
 72
     0
 73
     1
 74
     1
 75
     0
 76
     0
 77
     0
 78
     0
170
     0
171
     2
172
     0
173
     0
174
     0
175
     0
176
     0
177
     0
178
     0
  0
DIMSTYLE
  2
ANNOTATIVE
 70
     0
  3

  4

  5

  6

  7

 40
0.0
 41
2.5
 42
0.625
 43
3.75
 44
1.25
 45
0.0
 46
0.0
 47
0.0
 48
0.0
140
2.5
141
2.5
142
0.0
143
0.03937007874016
144
1.0
145
0.0
146
1.0
147
0.625
 71
     0
 72
     0
 73
     0
 74
     0
 75
     0
 76
     0
 77
     1
 78
     8
170
     0
171
     3
172
     1
173
     0
174
     0
175
     0
176
     0
177
     0
178
     0
  0
DIMSTYLE
  2
ISO-25
 70
     0
  3

  4

  5

  6

  7

 40
1.0
 41
2.5
 42
0.625
 43
3.75
 44
1.25
 45
0.0
 46
0.0
 47
0.0
 48
0.0
140
2.5
141
2.5
142
0.0
143
0.03937007874016
144
1.0
145
0.0
146
1.0
147
0.625
 71
     0
 72
     0
 73
     0
 74
     0
 75
     0
 76
     0
 77
     1
 78
     8
170
     0
171
     3
172
     1
173
     0
174
     0
175
     0
176
     0
177
     0
178
     0
  0
ENDTAB
  0
ENDSEC
  0
SECTION
  2
BLOCKS
  0
BLOCK
  8
0
  2
$MODEL_SPACE
 70
     0
 10
0.0
 20
0.0
 30
0.0
  3
$MODEL_SPACE
  1

  0
ENDBLK
  5
21
  8
0
  0
BLOCK
 67
     1
  8
0
  2
$PAPER_SPACE
 70
     0
 10
0.0
 20
0.0
 30
0.0
  3
$PAPER_SPACE
  1

  0
ENDBLK
  5
D5
 67
     1
  8
0
  0
BLOCK
  8
0
 62
     1
  2
�C
 70
     0
 10
0.0
 20
0.0
 30
0.0
  3
�C
  1

  0
ARC
  5
276
  8
0
 62
     5
 10
4464.1774895380858652
 20
2098.0092386855458244
 30
0.0
 40
21.2949861954411617
 50
123.9089753304568973
 51
184.9830723081360873
  0
ARC
  5
277
  8
0
 62
     5
 10
4413.1237421392806937
 20
2092.972545466264819
 30
0.0
 40
30.0089577386303716
 50
297.1648714420599049
 51
6.0963641287635211
  0
ARC
  5
278
  8
0
 62
     5
 10
4495.0342206704799537
 20
2077.7709139693488396
 30
0.0
 40
7.2987125394854191
 50
350.9722295493288016
 51
111.4592286754871964
  0
ARC
  5
279
  8
0
 62
     5
 10
4470.5987246744352888
 20
2087.6229482689877841
 30
0.0
 40
33.5003035126758988
 50
340.8359164826970868
 51
123.1134690757837973
  0
ARC
  5
27A
  8
0
 62
     5
 10
4464.3535785231533737
 20
2078.7955271323908164
 30
0.0
 40
53.1835511189684027
 50
9.7618458259075016
 51
61.2320460620659617
  0
ARC
  5
27B
  8
0
 62
     5
 10
4468.7869231128888714
 20
2100.5556264132051183
 30
0.0
 40
48.549293019830813
 50
8.7816678614876871
 51
43.0674775311667801
  0
ARC
  5
27C
  8
0
 62
     5
 10
4466.1974508922630775
 20
2063.574262740542963
 30
0.0
 40
53.9302646694500609
 50
104.9359137036454968
 51
132.1983311455859962
  0
ARC
  5
27D
  8
0
 62
     5
 10
4411.1764031975390026
 20
2096.6235599160600032
 30
0.0
 40
20.0238335112959405
 50
316.4707934931226987
 51
20.167539404962131
  0
ARC
  5
27E
  8
0
 62
     5
 10
4301.6157223711934421
 20
2265.9417338179951003
 30
0.0
 40
207.0120416983534142
 50
281.4177189698722259
 51
308.3194353800267891
  0
ARC
  5
27F
  8
0
 62
     5
 10
4336.5528592119753739
 20
2090.2676253766999253
 30
0.0
 40
27.9034002165220585
 50
138.8558663222069924
 51
282.5077104437215212
  0
ARC
  5
280
  8
0
 62
     5
 10
4339.607982091739359
 20
2058.1678656401900298
 30
0.0
 40
14.4866043660250003
 50
328.0150953153458886
 51
29.1336309613885795
  0
ARC
  5
281
  8
0
 62
     5
 10
4358.9864425259020209
 20
2063.6873951723678147
 30
0.0
 40
21.5387565971415391
 50
351.2954797852934803
 51
27.3531396670103817
  0
ARC
  5
282
  8
0
 62
     5
 10
4402.8328986669348524
 20
1821.2741771429189157
 30
0.0
 40
118.1138255680771039
 50
15.2878235829841298
 51
49.611119567081758
  0
ARC
  5
283
  8
0
 62
     5
 10
4425.9540830017840563
 20
1791.8883735429540138
 30
0.0
 40
99.6739077324837979
 50
24.342043432510259
 51
71.0668782186521213
  0
ARC
  5
284
  8
0
 62
     5
 10
4444.6105549213225459
 20
1794.9952327803819117
 30
0.0
 40
68.2608407023182053
 50
359.4611000582610814
 51
98.8361725246718947
  0
ARC
  5
285
  8
0
 62
     5
 10
4444.0646599366837108
 20
1797.1855242822039145
 30
0.0
 40
68.8619880070712043
 50
322.6215712618762836
 51
357.6427420403991846
  0
ARC
  5
286
  8
0
 62
     5
 10
4475.6231712000208063
 20
1771.7475572496730365
 30
0.0
 40
28.3610874329693416
 50
198.1952827095952046
 51
324.7547576387951835
  0
ARC
  5
287
  8
0
 62
     5
 10
4465.9767970259836147
 20
1766.8737296884710304
 30
0.0
 40
9.2856514007114175
 50
230.9078976513470991
 51
11.8734738422667796
  0
ARC
  5
288
  8
0
 62
     5
 10
4425.3364512729021953
 20
1749.0809932691120139
 30
0.0
 40
27.0484681746910383
 50
232.027337384592812
 51
29.8692069051446794
  0
ARC
  5
289
  8
0
 62
     5
 10
4430.4109840154251287
 20
1749.7787314515819617
 30
0.0
 40
10.0199951257260693
 50
286.3359844840126129
 51
42.4460069616800624
  0
ARC
  5
28A
  8
0
 62
     5
 10
4363.0124282924580257
 20
1737.5032312120310962
 30
0.0
 40
46.8176579721062467
 50
290.4338687988882839
 51
358.0801918746112165
  0
ARC
  5
28B
  8
0
 62
     5
 10
4373.8860268961097972
 20
1661.1468751444110694
 30
0.0
 40
32.9422590917043792
 50
80.4389369504661147
 51
159.8264073354087884
  0
ARC
  5
28C
  8
0
 62
     5
 10
4366.6978929718870859
 20
1678.869004258609948
 30
0.0
 40
24.7167849224299196
 50
112.2532149447360013
 51
236.3733626329546098
  0
ARC
  5
28D
  8
0
 62
     5
 10
4277.9714844687741788
 20
1853.6835599396349608
 30
0.0
 40
171.4186473122501013
 50
297.5806036856283185
 51
307.3189014112542736
  0
ARC
  5
28E
  8
0
 62
     5
 10
4365.1005073418336906
 20
1739.135853731502948
 30
0.0
 40
27.50027716973349
 50
307.638155633305189
 51
35.851883592195108
  0
ARC
  5
28F
  8
0
 62
     5
 10
4465.6032694944024115
 20
1810.0591650858070807
 30
0.0
 40
31.2925020422939006
 50
331.5009124403036935
 51
163.6727664279661099
  0
ARC
  5
290
  8
0
 62
     5
 10
4460.1524498206617864
 20
1809.8777147054049692
 30
0.0
 40
43.7265253311250603
 50
90.8935322971688748
 51
196.9667473226409982
  0
ARC
  5
291
  8
0
 62
     5
 10
4443.7894591408694396
 20
1820.6175392713739711
 30
0.0
 40
36.5194270071253371
 50
64.5711060242396542
 51
184.7341453026199076
  0
ARC
  5
292
  8
0
 62
     5
 10
4375.312101950728902
 20
1803.1544327413319024
 30
0.0
 40
20.5397014271247116
 50
144.5554902941497062
 51
283.7631968304274892
  0
ARC
  5
293
  8
0
 62
     5
 10
4376.7913973197892119
 20
1800.8305779761990379
 30
0.0
 40
17.9524077909123498
 50
280.9408853085636224
 51
3.751858970966429
  0
ARC
  5
294
  8
0
 62
     5
 10
4515.0445275234260407
 20
1803.8320432875430015
 30
0.0
 40
120.3530620967647025
 50
159.8748527682373037
 51
180.8696790508832066
  0
ARC
  5
295
  8
0
 62
     5
 10
4349.0031078846286619
 20
1811.6700348625820425
 30
0.0
 40
58.6922057907418022
 50
321.6626456490259898
 51
5.8022078431317148
  0
ARC
  5
296
  8
0
 62
     5
 10
4376.4239145419724082
 20
1792.0551823357300236
 30
0.0
 40
25.0698066643440889
 50
269.005470028725199
 51
317.9495667134477799
  0
ARC
  5
297
  8
0
 62
     5
 10
4376.5318841106573018
 20
1750.2130163329429706
 30
0.0
 40
11.9667767272222108
 50
257.0356843764383257
 51
24.8529504769266794
  0
ARC
  5
298
  8
0
 62
     5
 10
4358.6669368982420565
 20
1658.0920171160780683
 30
0.0
 40
5.6600755142246797
 50
178.0133754457665987
 51
356.6050062868816894
  0
ARC
  5
299
  8
0
 62
     5
 10
4364.3099524797371487
 20
1657.9167044618880027
 30
0.0
 40
11.3057951970844499
 50
339.5157379505542963
 51
178.1168330088210041
  0
ARC
  5
29A
  8
0
 62
     5
 10
4336.6690080338894404
 20
1621.0571369919300651
 30
0.0
 40
27.2129575147722207
 50
327.046791425137485
 51
85.5685066019096467
  0
ARC
  5
29B
  8
0
 62
     5
 10
4357.7176322311552212
 20
1661.3542987502930828
 30
0.0
 40
18.7065640100801609
 50
252.1817921043362958
 51
336.717470062945722
  0
ARC
  5
29C
  8
0
 62
     5
 10
4347.5733643945086442
 20
1611.2672630764091082
 30
0.0
 40
14.4678216934011896
 50
66.040409058314097
 51
149.1687467178562088
  0
ARC
  5
29D
  8
0
 62
     5
 10
4337.6226370347294505
 20
1608.7999811367380971
 30
0.0
 40
23.5232240628462215
 50
57.2481209284418213
 51
153.2348107620875908
  0
ARC
  5
29E
  8
0
 62
     5
 10
4345.3879689765190051
 20
1621.6075066137320846
 30
0.0
 40
8.5600238409626481
 50
271.2181877650875776
 51
54.5825902390487414
  0
ARC
  5
29F
  8
0
 62
     5
 10
4338.1439922960480544
 20
1604.3461819100400589
 30
0.0
 40
26.2623564100730391
 50
145.0434933448300114
 51
297.3019548357531789
  0
ARC
  5
2A0
  8
0
 62
     5
 10
4323.176494013258889
 20
1595.7221815352609156
 30
0.0
 40
30.7602908873346905
 50
258.4210838222289794
 51
331.4253059286091911
  0
ARC
  5
2A1
  8
0
 62
     5
 10
4304.6378575686685508
 20
1511.9226218190478903
 30
0.0
 40
55.0712436810514134
 50
287.673318764239923
 51
77.0254378413358864
  0
ARC
  5
2A2
  8
0
 62
     5
 10
4315.3929819824170409
 20
1480.330854962056037
 30
0.0
 40
21.7153016724205301
 50
149.7342140712135006
 51
285.9406461657047771
  0
ARC
  5
2A3
  8
0
 62
     5
 10
4306.0587373443504475
 20
1484.8175120076259645
 30
0.0
 40
17.0816082731804784
 50
312.7958181294533233
 51
56.9672517232352718
  0
ARC
  5
2A4
  8
0
 62
     5
 10
4313.9568940709168601
 20
1478.8358445949729685
 30
0.0
 40
7.5283303010267337
 50
123.8037974200989026
 51
299.4978267565120973
  0
ARC
  5
2A5
  8
0
 62
     5
 10
4304.5297554983226291
 20
1516.376325825935055
 30
0.0
 40
46.0075028500938075
 50
286.5872782069641858
 51
45.3695713817079422
  0
ARC
  5
2A6
  8
0
 62
     5
 10
4327.7422806191007112
 20
1539.9972138590310351
 30
0.0
 40
12.8903242253190999
 50
45.0355637170528382
 51
236.0421781518925002
  0
ARC
  5
2A7
  8
0
 62
     5
 10
4524.7773891716642538
 20
1707.6501099762749618
 30
0.0
 40
30.5117679198229794
 50
105.2203306845798068
 51
158.34698183052231
  0
ARC
  5
2A8
  8
0
 62
     5
 10
4494.5952832201810452
 20
1696.8109753639660084
 30
0.0
 40
22.1726130875872407
 50
359.5102632423913178
 51
85.2828965308166715
  0
ARC
  5
2A9
  8
0
 62
     5
 10
4492.1083778741858623
 20
1653.411928692624997
 30
0.0
 40
65.6382342892749051
 50
86.2348253781547953
 51
174.6131501473732897
  0
ARC
  5
2AA
  8
0
 62
     5
 10
4484.6556640027783942
 20
1680.099784536982952
 30
0.0
 40
20.5061793664864389
 50
322.0367105800374929
 51
123.4220342850289995
  0
ARC
  5
2AB
  8
0
 62
     5
 10
4521.2029031491592832
 20
1630.397322114238932
 30
0.0
 40
82.1794633513609654
 50
125.6030230305111957
 51
237.7261576551989037
  0
ARC
  5
2AC
  8
0
 62
     5
 10
4408.1512336051782768
 20
1481.2999490157260425
 30
0.0
 40
27.6507408116829616
 50
151.6122241584982078
 51
262.5878338251188211
  0
LINE
  5
2AD
  8
0
 62
     5
 10
4289.7194878048967439
 20
2124.1825806748947798
 30
0.0
 11
4289.7194878048967439
 21
2168.3246456989909348
 31
0.0
  0
LINE
  5
2AE
  8
0
 62
     5
 10
4269.7194878048976534
 20
1453.8802635568299593
 30
0.0
 11
4269.7194878048976534
 21
2188.3246456989900253
 31
0.0
  0
LINE
  5
2AF
  8
0
 62
     5
 10
4249.1700356655246651
 20
1453.8802635568299593
 30
0.0
 11
4249.7194878048976534
 21
2208.3246456989900253
 31
0.0
  0
LINE
  5
2B0
  8
0
 62
     5
 10
4289.7194878048967439
 20
2168.3246456989909348
 30
0.0
 11
4516.767086346267206
 21
2168.3246456989909348
 31
0.0
  0
LINE
  5
2B1
  8
0
 62
     5
 10
4269.7194878048976534
 20
2188.3246456989900253
 30
0.0
 11
4516.767086346267206
 21
2188.3246456989900253
 31
0.0
  0
LINE
  5
2B2
  8
0
 62
     5
 10
4249.7194878048976534
 20
2208.3246456989909348
 30
0.0
 11
4516.767086346267206
 21
2208.3246456989900253
 31
0.0
  0
ARC
  5
2B3
  8
0
 62
     5
 10
4353.8614519024049514
 20
1603.822194036124074
 30
0.0
 40
56.7042210325851102
 50
165.7240848572483003
 51
192.7557266608152986
  0
ENDBLK
  5
2B4
  8
0
 62
     1
  0
BLOCK
  8
0
 62
     5
  2
�CC
 70
     0
 10
0.0
 20
0.0
 30
0.0
  3
�CC
  1

  0
INSERT
  5
2B7
  8
0
 62
     1
  2
�C
 10
0.0
 20
0.0
 30
0.0
  0
LINE
  5
2B8
  8
0
 62
     5
 10
4289.7194878048967439
 20
2095.9339222970520495
 30
0.0
 11
4289.7194878048967439
 21
2072.0241164994117753
 31
0.0
  0
ENDBLK
  5
2B9
  8
0
 62
     5
  0
BLOCK
  8
0
 62
     5
  2
D�S_KESM
 70
     0
 10
0.0
 20
0.0
 30
0.0
  3
D�S_KESM
  1

  0
ARC
  5
2BC
  8
0
 62
     1
 10
4330.2840538579903296
 20
2085.0189952939549585
 30
0.0
 40
40.7307914384661132
 50
200.5307596328377997
 51
302.0452228105265817
  0
ARC
  5
2BD
  8
0
 62
     1
 10
4362.0366891829698943
 20
2056.6958286981448509
 30
0.0
 40
11.8871779698320506
 50
211.4458790194140079
 51
311.7409295675524845
  0
ARC
  5
2BE
  8
0
 62
     1
 10
4344.1496074338001563
 20
2079.5004260330752004
 30
0.0
 40
40.8529548620321208
 50
309.1653817526500916
 51
332.1692243159723148
  0
ARC
  5
2BF
  8
0
 62
     1
 10
4393.821148201064716
 20
2077.5417425346690834
 30
0.0
 40
21.8249797102117995
 50
231.6418746529130885
 51
336.1418387508975911
  0
ARC
  5
2C0
  8
0
 62
     1
 10
4452.7680150055894046
 20
2050.5491762583801574
 30
0.0
 40
43.0109121132375805
 50
132.9670242572614995
 51
155.0180256241224015
  0
ARC
  5
2C1
  8
0
 62
     1
 10
4414.9136960726264078
 20
2074.5865495625098447
 30
0.0
 40
14.5247657105466796
 50
325.0875769685293903
 51
28.4875885644346489
  0
ARC
  5
2C2
  8
0
 62
     1
 10
4425.3781027187551445
 20
2080.2020006347329399
 30
0.0
 40
2.649576683807036
 50
29.6912162979350214
 51
136.6073943119976946
  0
ARC
  5
2C3
  8
0
 62
     1
 10
4430.4477901340287644
 20
2064.285905659330183
 30
0.0
 40
4.1328143965708142
 50
151.2509626699873024
 51
279.2379750722731728
  0
ARC
  5
2C4
  8
0
 62
     1
 10
4423.4586784026232635
 20
2092.0983493399908184
 30
0.0
 40
32.7969451536299772
 50
283.4933166758179937
 51
359.6533882852364741
  0
ARC
  5
2C5
  8
0
 62
     1
 10
4469.1607568806666677
 20
2091.4723714810538695
 30
0.0
 40
12.9128143704758696
 50
88.8549290654648587
 51
178.1024560897606932
  0
ARC
  5
2C6
  8
0
 62
     1
 10
4470.8380214661292484
 20
2065.2803225433281114
 30
0.0
 40
39.1280313512604678
 50
57.1646964852534296
 51
92.0786355725368395
  0
ARC
  5
2C7
  8
0
 62
     1
 10
4487.7341817623946554
 20
2091.2583291124269635
 30
0.0
 40
8.1396772603544996
 50
304.6668998467093843
 51
57.9443282555107118
  0
ARC
  5
2C8
  8
0
 62
     1
 10
4497.8419027863601514
 20
2070.2035703207047845
 30
0.0
 40
15.36941902125597
 50
110.879970884593007
 51
354.7096101207010861
  0
ARC
  5
2C9
  8
0
 62
     1
 10
4517.320922815434642
 20
2068.1351040828130863
 30
0.0
 40
4.2255750149878066
 50
97.5312959282191656
 51
171.1327930833859909
  0
ARC
  5
2CA
  8
0
 62
     1
 10
4522.0496875326080044
 20
2125.4186068499611793
 30
0.0
 40
19.6310508253804983
 50
121.9251842186397994
 51
155.0228280362875921
  0
ARC
  5
2CB
  8
0
 62
     1
 10
4498.6888258525987112
 20
2126.8236825044377838
 30
0.0
 40
8.8527506870528381
 50
51.0452330746442868
 51
189.1563564372677035
  0
ARC
  5
2CC
  8
0
 62
     1
 10
4501.1194469363736061
 20
2206.2095885682751941
 30
0.0
 40
64.9911969850030147
 50
218.1625329072278134
 51
279.3413553178186817
  0
ARC
  5
2CD
  8
0
 62
     1
 10
4341.8266794323972135
 20
2252.48112499122999
 30
0.0
 40
138.4762647279142129
 50
247.8959535957351932
 51
321.3805593622871015
  0
LINE
  5
2CE
  8
0
 62
     1
 10
4289.7194878048967439
 20
2124.1825806748947798
 30
0.0
 11
4289.7194878048967439
 21
2095.9339222970520495
 31
0.0
  0
LINE
  5
2CF
  8
0
 62
     1
 10
4289.7194878048967439
 20
2072.0241164994117753
 30
0.0
 11
4289.7194878048967439
 21
1453.8802635568290498
 31
0.0
  0
ARC
  5
2D0
  8
0
 62
     1
 10
4290.2242493326730255
 20
2070.0547864459058474
 30
0.0
 40
2.0329891931747448
 50
19.5262979570571282
 51
104.3760739491410021
  0
ARC
  5
2D1
  8
0
 62
     1
 10
4307.490113384250435
 20
2092.9590073699428103
 30
0.0
 40
17.6148029709941198
 50
62.806544489901988
 51
170.167868135881406
  0
ARC
  5
2D2
  8
0
 62
     1
 10
4289.9229871122670374
 20
2095.9977889368678916
 30
0.0
 40
0.2132859952765542
 50
197.42405056597201
 51
351.6859541572778198
  0
ARC
  5
2D3
  8
0
 62
     1
 10
4341.8998608161309676
 20
2114.1431177122949521
 30
0.0
 40
26.9308571346413395
 50
191.8196543517406951
 51
258.3473965036155278
  0
ARC
  5
2D4
  8
0
 62
     1
 10
4353.7582761843350454
 20
2184.5028344918428047
 30
0.0
 40
98.2699282952115851
 50
259.8617646863286268
 51
317.9118826893748064
  0
ARC
  5
2D5
  8
0
 62
     1
 10
4462.8630910594301895
 20
2079.6082252521591727
 30
0.0
 40
53.2155621328843793
 50
59.4039240682398599
 51
132.8299263692406953
  0
ARC
  5
2D6
  8
0
 62
     1
 10
4500.8664192828027808
 20
1910.2826490589350215
 30
0.0
 40
21.5202396256499817
 50
42.3647242581320924
 51
177.4576633654241959
  0
ARC
  5
2D7
  8
0
 62
     1
 10
4476.015827202235414
 20
1892.6636809176729912
 30
0.0
 40
18.8735182706869402
 50
79.7712436446901165
 51
200.1255237506086075
  0
ARC
  5
2D8
  8
0
 62
     1
 10
4457.3857020533032482
 20
1862.9219382605690498
 30
0.0
 40
23.2655447387017205
 50
87.7608373608124737
 51
181.1723502332579017
  0
ARC
  5
2D9
  8
0
 62
     1
 10
4440.2058426611729374
 20
1813.9342500773038864
 30
0.0
 40
49.3642498137899111
 50
97.0815096942914124
 51
178.7315428127768939
  0
ARC
  5
2DA
  8
0
 62
     1
 10
4374.7166351230644068
 20
1815.3434855087209598
 30
0.0
 40
16.1401572895630601
 50
180.986164735922614
 51
358.8765238414366081
  0
ARC
  5
2DB
  8
0
 62
     1
 10
4379.4486019439118536
 20
1795.8472586876071091
 30
0.0
 40
28.3706568895302489
 50
137.358769129049108
 51
260.6160418926791067
  0
ARC
  5
2DC
  8
0
 62
     1
 10
4388.9607794078110601
 20
1751.1690841973420447
 30
0.0
 40
19.6883013989465603
 50
132.8690959277518004
 51
219.8573662864997118
  0
ARC
  5
2DD
  8
0
 62
     1
 10
4355.285589490287748
 20
1743.6356923014338918
 30
0.0
 40
19.2453886999587986
 50
279.6167063501334269
 51
344.6812335593260741
  0
ARC
  5
2DE
  8
0
 62
     1
 10
4368.3903751552443282
 20
1681.3283657178169506
 30
0.0
 40
44.4466233461065485
 50
102.8563750422967047
 51
228.2110932867834947
  0
ARC
  5
2DF
  8
0
 62
     1
 10
4374.7896343559386878
 20
1766.5941789951039027
 30
0.0
 40
1.2625181569970949
 50
307.9657278779524745
 51
88.4958812912370831
  0
ARC
  5
2E0
  8
0
 62
     1
 10
4336.4519873283888955
 20
1646.33716118288703
 30
0.0
 40
2.9680439909146852
 50
263.6370857877810749
 51
38.5969432779159689
  0
ARC
  5
2E1
  8
0
 62
     1
 10
4333.276822596160855
 20
1607.6470071708640717
 30
0.0
 40
35.8535459123936278
 50
85.4467907873677177
 51
162.3380120878514958
  0
ARC
  5
2E2
  8
0
 62
     1
 10
4294.462472508146675
 20
1619.4600774637669929
 30
0.0
 40
4.743902240801094
 50
178.8730914104422993
 51
348.6319979320327889
  0
ARC
  5
2E3
  8
0
 62
     1
 10
4294.9233305221587216
 20
1587.4880860100390692
 30
0.0
 40
5.2676933584411616
 50
46.3903497800840299
 51
171.0700366445520046
  0
ARC
  5
2E4
  8
0
 62
     1
 10
4327.703138369415683
 20
1594.8952751681770224
 30
0.0
 40
29.3670989602167687
 50
187.0277874094693118
 51
245.0979239734870987
  0
ARC
  5
2E5
  8
0
 62
     1
 10
4314.2877655241481989
 20
1565.7498472737499924
 30
0.0
 40
2.7194287488242388
 50
285.879596579309009
 51
67.2917024304432374
  0
ARC
  5
2E6
  8
0
 62
     1
 10
4324.6135244008028167
 20
1545.6036728044769006
 30
0.0
 40
19.9781821506433914
 50
118.659743265674706
 51
227.0462537432460977
  0
ARC
  5
2E7
  8
0
 62
     1
 10
4317.0761234271212743
 20
1537.5721906359428885
 30
0.0
 40
8.9639724115493067
 50
227.3271104370710987
 51
320.2318046429169272
  0
ARC
  5
2E8
  8
0
 62
     1
 10
4329.0432568341648221
 20
1527.2266752656389599
 30
0.0
 40
6.8587058109745778
 50
13.7171472774149805
 51
137.7517231391962014
  0
ARC
  5
2E9
  8
0
 62
     1
 10
4313.4766650877718348
 20
1522.2501758580510796
 30
0.0
 40
23.1895815307590283
 50
264.5437776265119965
 51
16.5430379295054486
  0
ARC
  5
2EA
  8
0
 62
     1
 10
4309.3623875080138532
 20
1485.1905174556020484
 30
0.0
 40
14.1049669010056196
 50
82.2203831346637912
 51
154.4425395578097095
  0
ARC
  5
2EB
  8
0
 62
     1
 10
4293.3478664180338455
 20
1493.0211608794340918
 30
0.0
 40
3.7240965954078469
 50
166.9815720965571018
 51
332.0491834587994049
  0
ARC
  5
2EC
  8
0
 62
     1
 10
4468.6257892030880612
 20
1798.8261946819629884
 30
0.0
 40
24.497722050577579
 50
14.1216908613165195
 51
151.5969049277406953
  0
ARC
  5
2ED
  8
0
 62
     1
 10
4461.2144487139457851
 20
1797.6170128887220017
 30
0.0
 40
31.9864240423714499
 50
295.6565201126485931
 51
12.9831045837083803
  0
ARC
  5
2EE
  8
0
 62
     1
 10
4435.2026258832956955
 20
1799.8348283727250418
 30
0.0
 40
15.9468296708556192
 50
193.4824834361317869
 51
41.8731087884862774
  0
ARC
  5
2EF
  8
0
 62
     1
 10
4390.7132946667907163
 20
1795.1473983866819708
 30
0.0
 40
26.1946489021995497
 50
276.7124852866689935
 51
1.4025797705411771
  0
ARC
  5
2F0
  8
0
 62
     1
 10
4418.329153062613841
 20
1795.6847637815581038
 30
0.0
 40
1.4328229534160439
 50
17.5517357969623795
 51
175.8453614555575939
  0
ARC
  5
2F1
  8
0
 62
     1
 10
4394.1997908155808545
 20
1767.5604655176400684
 30
0.0
 40
1.6282020456703461
 50
105.1191060264459054
 51
246.7391975009273892
  0
ARC
  5
2F2
  8
0
 62
     1
 10
4382.6981322966730659
 20
1740.7638747955800227
 30
0.0
 40
27.5324810314189605
 50
349.898336461196493
 51
66.7717962189606453
  0
ARC
  5
2F3
  8
0
 62
     1
 10
4420.3776684636723076
 20
1744.3584324900880347
 30
0.0
 40
13.51902408411331
 50
218.5424444757904041
 51
341.9216902335271016
  0
ARC
  5
2F4
  8
0
 62
     1
 10
4436.2292494652747337
 20
1753.5752467168360909
 30
0.0
 40
13.7434055594568196
 50
43.672616563213559
 51
257.3918157637086779
  0
ARC
  5
2F5
  8
0
 62
     1
 10
4447.5397780667126426
 20
1764.6348360748979758
 30
0.0
 40
2.083117025435075
 50
228.8791376829753972
 51
17.5067435124524913
  0
ARC
  5
2F6
  8
0
 62
     1
 10
4462.0964621396751681
 20
1768.4627759879140285
 30
0.0
 40
12.9712982656993105
 50
1.4201924888492241
 51
194.2881615891787987
  0
ARC
  5
2F7
  8
0
 62
     1
 10
4356.919092994176026
 20
1604.9301388475219028
 30
0.0
 40
25.7489145840260214
 50
147.718284373809098
 51
244.009225040526502
  0
ARC
  5
2F8
  8
0
 62
     1
 10
4337.8024440630806566
 20
1598.6868767043220032
 30
0.0
 40
22.9830127404411897
 50
316.368456967541988
 51
19.2246007054726391
  0
ARC
  5
2F9
  8
0
 62
     1
 10
4351.2053459392163859
 20
1620.0685765377500047
 30
0.0
 40
16.1149646351709599
 50
184.9353298229409006
 51
300.9943782454839152
  0
ARC
  5
2FA
  8
0
 62
     1
 10
4349.2287467660607945
 20
1589.123029729712016
 30
0.0
 40
8.1703634494725037
 50
243.907451521081299
 51
309.6057757546095104
  0
ARC
  5
2FB
  8
0
 62
     1
 10
4670.9363440110100782
 20
1506.6294357364840835
 30
0.0
 40
288.7269932123145963
 50
148.0961704953338085
 51
181.9673008615069989
  0
ARC
  5
2FC
  8
0
 62
     1
 10
4384.8029677540116609
 20
1496.6643261832530243
 30
0.0
 40
2.4240234123238191
 50
178.7385815918244134
 51
328.7475844335212969
  0
ARC
  5
2FD
  8
0
 62
     1
 10
4428.1412950639933115
 20
1468.7636351970938904
 30
0.0
 40
49.1196619597323902
 50
71.4744261873280635
 51
147.1520269054647088
  0
ARC
  5
2FE
  8
0
 62
     1
 10
4414.5544896890960445
 20
1421.8149569616919052
 30
0.0
 40
97.9735765060454185
 50
39.1856131820646425
 51
72.6640951054411346
  0
ARC
  5
2FF
  8
0
 62
     1
 10
4491.7656035918153066
 20
1485.2379059019749548
 30
0.0
 40
1.9815647782620669
 50
230.0845206935933049
 51
23.9298269366302101
  0
ARC
  5
300
  8
0
 62
     1
 10
4815.9061835498150685
 20
1748.6640525267919202
 30
0.0
 40
415.7724447672380279
 50
203.5408001525692043
 51
219.1719127693820894
  0
ARC
  5
301
  8
0
 62
     1
 10
4544.2856710390951775
 20
1631.7367513592510022
 30
0.0
 40
120.0632347570537064
 50
167.0069539747663896
 51
204.1562482107686094
  0
ARC
  5
302
  8
0
 62
     1
 10
4426.5101548953516613
 20
1658.8229239468300875
 30
0.0
 40
0.7915839523194156
 50
353.3243830928786906
 51
149.873362368472101
  0
ARC
  5
303
  8
0
 62
     1
 10
4515.327542422894112
 20
1684.0890481944491057
 30
0.0
 40
1.44044182461768
 50
357.9768568279396845
 51
109.7632043291610984
  0
ARC
  5
304
  8
0
 62
     1
 10
4494.9132501655367378
 20
1686.5480336984610403
 30
0.0
 40
19.9577548799784097
 50
287.2238049567683902
 51
356.8307181806831068
  0
ARC
  5
305
  8
0
 62
     1
 10
4485.6223855176722282
 20
1665.4974000936279026
 30
0.0
 40
15.32988758027156
 50
7.450709241319398
 51
141.1886531063202881
  0
ARC
  5
306
  8
0
 62
     1
 10
4540.6693550516256437
 20
1622.7142345273339288
 30
0.0
 40
85.0459109548928751
 50
141.9728023217051032
 51
208.4873808289632962
  0
ARC
  5
307
  8
0
 62
     1
 10
5094.0634288225701312
 20
1905.707061959765042
 30
0.0
 40
706.577931294337759
 50
207.2530249077364033
 51
215.2112818071827007
  0
ARC
  5
308
  8
0
 62
     1
 10
4424.1382198498304206
 20
1414.5628687511120916
 30
0.0
 40
75.9072929717283102
 50
31.1959115740701911
 51
82.7220757365409867
  0
ARC
  5
309
  8
0
 62
     1
 10
4430.4825485794117412
 20
1469.6989470861019527
 30
0.0
 40
20.423424844214189
 50
80.7816120268431774
 51
138.425030234715507
  0
ARC
  5
30A
  8
0
 62
     1
 10
4421.3017451514479035
 20
1477.8420309895529954
 30
0.0
 40
8.1516292934572441
 50
138.4205852606314977
 51
224.5347081838966119
  0
ARC
  5
30B
  8
0
 62
     1
 10
4411.9283980009340667
 20
1468.4504957427250247
 30
0.0
 40
5.1180257390007053
 50
287.9479750768114172
 51
45.8850877066239917
  0
ARC
  5
30C
  8
0
 62
     1
 10
4417.0991234362663818
 20
1451.3240549813228881
 30
0.0
 40
12.7733932053935
 50
106.3398339311883944
 51
168.4560367601976054
  0
ARC
  5
30D
  8
0
 62
     5
 10
4443.0152272836212433
 20
1816.9889773132770188
 30
0.0
 40
7.6731463355591991
 50
165.9159158354758858
 51
301.9617684963242255
  0
ARC
  5
30E
  8
0
 62
     5
 10
4441.7994681671343642
 20
1803.2773616500139724
 30
0.0
 40
12.4988346741259395
 50
118.4669827049156936
 51
226.8920787361142004
  0
ENDBLK
  5
30F
  8
0
 62
     5
  0
ENDSEC
  0
SECTION
  2
ENTITIES
  0
LINE
  5
478
  8
0
 62
     1
 10
1426.9395378385891036
 20
2102.3907249132289508
 30
0.0
 11
1076.9377554140939992
 21
2102.3907249132289508
 31
0.0
  0
LINE
  5
479
  8
0
 62
     1
 10
1076.9377554140939992
 20
2102.3907249132289508
 30
0.0
 11
1075.4475215100640071
 21
1258.1797889198289795
 31
0.0
  0
INSERT
  5
47A
  8
0
 62
     5
  2
�CC
 10
-3089.827548507677875
 20
-195.7004746370008093
 30
0.0
  0
INSERT
  5
47B
  8
0
 62
     5
  2
D�S_KESM
 10
-3089.827548507677875
 20
-195.7004746370008093
 30
0.0
  0
LINE
  5
47C
  8
0
 62
     1
 10
1426.9395378385891036
 20
2102.3907249132289508
 30
0.0
 11
1776.941320263083071
 21
2102.3907249132289508
 31
0.0
  0
LINE
  5
47D
  8
0
 62
     1
 10
1776.941320263083071
 20
2102.3907249132289508
 30
0.0
 11
1778.4315541671130632
 21
1258.1797889198289795
 31
0.0
  0
INSERT
  5
47E
  8
0
 62
     5
  2
�CC
 10
5943.7066241848560821
 20
-195.7004746370008093
 30
0.0
 41
-1.0
  0
INSERT
  5
47F
  8
0
 62
     5
  2
D�S_KESM
 10
5943.7066241848560821
 20
-195.7004746370008093
 30
0.0
 41
-1.0
  0
LINE
  5
480
  8
0
 62
     1
 10
1426.9395378385891036
 20
413.9688529264296903
 30
0.0
 11
1076.9377554140939992
 21
413.9688529264296903
 31
0.0
  0
LINE
  5
481
  8
0
 62
     1
 10
1076.9377554140939992
 20
413.9688529264296903
 30
0.0
 11
1075.4475215100640071
 21
1258.1797889198289795
 31
0.0
  0
INSERT
  5
482
  8
0
 62
     5
  2
�CC
 10
-3089.827548507677875
 20
2712.0600524766600756
 30
0.0
 41
-1.0
 50
180.0
  0
INSERT
  5
483
  8
0
 62
     5
  2
D�S_KESM
 10
-3089.827548507677875
 20
2712.0600524766600756
 30
0.0
 41
-1.0
 50
180.0
  0
LINE
  5
484
  8
0
 62
     1
 10
1426.9395378385891036
 20
413.9688529264296903
 30
0.0
 11
1776.941320263083071
 21
413.9688529264296903
 31
0.0
  0
LINE
  5
485
  8
0
 62
     1
 10
1776.941320263083071
 20
413.9688529264296903
 30
0.0
 11
1778.4315541671130632
 21
1258.1797889198289795
 31
0.0
  0
INSERT
  5
486
  8
0
 62
     5
  2
�CC
 10
5943.7066241848560821
 20
2712.0600524766600756
 30
0.0
 50
180.0
  0
INSERT
  5
487
  8
0
 62
     5
  2
D�S_KESM
 10
5943.7066241848560821
 20
2712.0600524766600756
 30
0.0
 50
180.0
  0
POLYLINE
  5
488
  8
0
 62
     7
 66
     1
 10
0.0
 20
0.0
 30
0.0
 70
     1
  0
VERTEX
  5
63B
  8
0
 62
     7
 10
1068.9097812699349106
 20
2110.3907249132289508
 30
0.0
  0
VERTEX
  5
63C
  8
0
 62
     7
 10
1784.9889705134949054
 20
2110.3907249132289508
 30
0.0
  0
VERTEX
  5
63D
  8
0
 62
     7
 10
1784.9889705134949054
 20
405.9688529264296903
 30
0.0
  0
VERTEX
  5
63E
  8
0
 62
     7
 10
1068.9097812699349106
 20
405.9688529264296903
 30
0.0
  0
SEQEND
  5
63F
  8
0
 62
     7
  0
LINE
  5
489
  8
0
 62
     1
 10
2305.335846988603862
 20
2102.3907249132289508
 30
0.0
 11
1955.3340645641098945
 21
2102.3907249132289508
 31
0.0
  0
LINE
  5
48A
  8
0
 62
     1
 10
1955.3340645641098945
 20
2102.3907249132289508
 30
0.0
 11
1953.8438306600799024
 21
1258.1797889198289795
 31
0.0
  0
ARC
  5
48B
  8
0
 62
     1
 10
2118.8528145003278951
 20
1889.3185206569539787
 30
0.0
 40
40.7307914384661132
 50
200.5307596328410966
 51
302.045222810529026
  0
ARC
  5
48C
  8
0
 62
     1
 10
2150.6054498253070051
 20
1860.9953540611440985
 30
0.0
 40
11.8871779698320506
 50
211.445879019410313
 51
311.7409295675590215
  0
ARC
  5
48D
  8
0
 62
     1
 10
2132.7183680761368123
 20
1883.7999513960739932
 30
0.0
 40
40.8529548620321208
 50
309.1653817526548096
 51
332.1692243159700979
  0
ARC
  5
48E
  8
0
 62
     1
 10
2182.389908843403191
 20
1881.8412678976681036
 30
0.0
 40
21.8249797102117995
 50
231.6418746529159023
 51
336.1418387508944079
  0
ARC
  5
48F
  8
0
 62
     1
 10
2241.3367756479260606
 20
1854.8487016213789502
 30
0.0
 40
43.0109121132375805
 50
132.967024257257691
 51
155.0180256241239931
  0
ARC
  5
490
  8
0
 62
     1
 10
2203.4824567149630639
 20
1878.8860749255090923
 30
0.0
 40
14.5247657105466796
 50
325.0875769685272871
 51
28.4875885644392
  0
ARC
  5
491
  8
0
 62
     1
 10
2213.9468633610918005
 20
1884.5015259977310507
 30
0.0
 40
2.649576683807036
 50
29.6912162979386416
 51
136.6073943120026115
  0
ARC
  5
492
  8
0
 62
     1
 10
2219.0165507763658752
 20
1868.5854310223289758
 30
0.0
 40
4.1328143965708142
 50
151.2509626699857961
 51
279.2379750722807898
  0
ARC
  5
493
  8
0
 62
     1
 10
2212.0274390449608291
 20
1896.397874702990066
 30
0.0
 40
32.7969451536299772
 50
283.493316675816402
 51
359.6533882852365878
  0
ARC
  5
494
  8
0
 62
     1
 10
2257.7295175230037785
 20
1895.7718968440528897
 30
0.0
 40
12.9128143704758696
 50
88.8549290654606239
 51
178.1024560897612901
  0
ARC
  5
495
  8
0
 62
     1
 10
2259.406782108466814
 20
1869.5798479063269042
 30
0.0
 40
39.1280313512604678
 50
57.1646964852567123
 51
92.0786355725463608
  0
ARC
  5
496
  8
0
 62
     1
 10
2276.3029424047322209
 20
1895.5578544754259838
 30
0.0
 40
8.1396772603544996
 50
304.6668998467035863
 51
57.944328255514769
  0
ARC
  5
497
  8
0
 62
     1
 10
2286.4106634286968074
 20
1874.5030956837040321
 30
0.0
 40
15.36941902125597
 50
110.8799708845983929
 51
354.709610120698926
  0
ARC
  5
498
  8
0
 62
     1
 10
2305.8896834577722075
 20
1872.4346294458121065
 30
0.0
 40
4.2255750149878066
 50
97.5312959282121739
 51
171.1327930833892026
  0
ARC
  5
499
  8
0
 62
     1
 10
2310.6184481749451152
 20
1929.7181322129599721
 30
0.0
 40
19.6310508253804983
 50
121.9251842186343993
 51
155.0228280362906901
  0
ARC
  5
49A
  8
0
 62
     1
 10
2287.257586494935822
 20
1931.1232078674370314
 30
0.0
 40
8.8527506870528381
 50
51.0452330746513212
 51
189.1563564372692952
  0
ARC
  5
49B
  8
0
 62
     1
 10
2289.6882075787111717
 20
2010.509113931273987
 30
0.0
 40
64.9911969850030147
 50
218.162532907221788
 51
279.3413553178301072
  0
ARC
  5
49C
  8
0
 62
     1
 10
2130.3954400747338696
 20
2056.7806503542287828
 30
0.0
 40
138.4762647279142129
 50
247.8959535957420997
 51
321.3805593622865899
  0
LINE
  5
49D
  8
0
 62
     1
 10
2078.2882484472352189
 20
1928.4821060378940274
 30
0.0
 11
2078.2882484472352189
 21
1900.2334476600510698
 31
0.0
  0
LINE
  5
49E
  8
0
 62
     1
 10
2078.2882484472352189
 20
1876.3236418624110229
 30
0.0
 11
2078.2882484472361284
 21
1423.6663045147779485
 31
0.0
  0
LINE
  5
49F
  8
0
 62
     1
 10
2078.2882484472352189
 20
1392.6052997565720943
 30
0.0
 11
2078.2882484472338547
 21
1298.1595927280800424
 31
0.0
  0
ARC
  5
4A0
  8
0
 62
     1
 10
2078.7930099750110458
 20
1874.3543118089060044
 30
0.0
 40
2.0329891931747448
 50
19.526297957058091
 51
104.3760739491417979
  0
ARC
  5
4A1
  8
0
 62
     1
 10
2096.0588740265870911
 20
1897.2585327329420579
 30
0.0
 40
17.6148029709941198
 50
62.8065444899066065
 51
170.1678681358816903
  0
ARC
  5
4A2
  8
0
 62
     1
 10
2078.4917477546041482
 20
1900.2973142998669118
 30
0.0
 40
0.2132859952765542
 50
197.4240505659763869
 51
351.6859541572786156
  0
ARC
  5
4A3
  8
0
 62
     1
 10
2130.4686214584689878
 20
1918.4426430752939723
 30
0.0
 40
26.9308571346413395
 50
191.8196543517400983
 51
258.3473965036239974
  0
ARC
  5
4A4
  8
0
 62
     1
 10
2142.3270368266721562
 20
1988.8023598548420523
 30
0.0
 40
98.2699282952115851
 50
259.8617646863222035
 51
317.9118826893737264
  0
ARC
  5
4A5
  8
0
 62
     1
 10
2251.4318517017668455
 20
1883.9077506151579655
 30
0.0
 40
53.2155621328843793
 50
59.4039240682476333
 51
132.8299263692341015
  0
ARC
  5
4A6
  8
0
 62
     1
 10
2289.4351799251408011
 20
1714.5821744219340417
 30
0.0
 40
21.5202396256499817
 50
42.3647242581370023
 51
177.4576633654245086
  0
ARC
  5
4A7
  8
0
 62
     1
 10
2264.5845878445729795
 20
1696.9632062806720114
 30
0.0
 40
18.8735182706869402
 50
79.7712436446950477
 51
200.125523750612814
  0
ARC
  5
4A8
  8
0
 62
     1
 10
2245.9544626956408138
 20
1667.22146362356807
 30
0.0
 40
23.2655447387017205
 50
87.7608373608148327
 51
181.1723502332579017
  0
ARC
  5
4A9
  8
0
 62
     1
 10
2228.7746033035100481
 20
1618.2337754403029066
 30
0.0
 40
49.3642498137899111
 50
97.0815096942983047
 51
178.7315428127770929
  0
ARC
  5
4AA
  8
0
 62
     1
 10
2163.2853957654019723
 20
1619.6430108717199801
 30
0.0
 40
16.1401572895630601
 50
180.9861647359238077
 51
358.8765238414371765
  0
ARC
  5
4AB
  8
0
 62
     1
 10
2168.0173625862489644
 20
1600.1467840506059019
 30
0.0
 40
28.3706568895302489
 50
137.3587691290472037
 51
260.6160418926780835
  0
ARC
  5
4AC
  8
0
 62
     1
 10
2177.5295400501481708
 20
1555.4686095603410649
 30
0.0
 40
19.6883013989465603
 50
132.8690959277539037
 51
219.8573662864974949
  0
ARC
  5
4AD
  8
0
 62
     1
 10
2143.8543501326262231
 20
1547.935217664432912
 30
0.0
 40
19.2453886999587986
 50
279.6167063501221151
 51
344.6812335593218108
  0
ARC
  5
4AE
  8
0
 62
     1
 10
2156.9591357975809842
 20
1485.6278910808159708
 30
0.0
 40
44.4466233461065485
 50
102.8563750422909067
 51
228.2110932867757072
  0
ARC
  5
4AF
  8
0
 62
     1
 10
2163.3583949982757986
 20
1570.8937043581029229
 30
0.0
 40
1.2625181569970949
 50
307.9657278779466765
 51
88.4958812912291251
  0
ARC
  5
4B0
  8
0
 62
     1
 10
2125.0207479707269158
 20
1450.6366865458869597
 30
0.0
 40
2.9680439909146852
 50
263.6370857877677736
 51
38.5969432779122599
  0
ARC
  5
4B1
  8
0
 62
     1
 10
2121.8455832384988753
 20
1411.9465325338630919
 30
0.0
 40
35.8535459123936278
 50
85.4467907873784469
 51
162.3380120878562991
  0
ARC
  5
4B2
  8
0
 62
     1
 10
2083.03123315048515
 20
1423.7596028267660131
 30
0.0
 40
4.743902240801094
 50
181.1269085884734977
 51
348.6319979320348921
  0
ARC
  5
4B3
  8
0
 62
     1
 10
2083.4920911644971966
 20
1391.7876113730380894
 30
0.0
 40
5.2676933584411616
 50
46.3903497800945601
 51
171.0700366445529141
  0
ARC
  5
4B4
  8
0
 62
     1
 10
2116.2718990117527937
 20
1399.1948005311760426
 30
0.0
 40
29.3670989602167687
 50
187.0277874094713866
 51
245.0979239734865018
  0
ARC
  5
4B5
  8
0
 62
     1
 10
2102.8565261664848549
 20
1370.0493726367490126
 30
0.0
 40
2.7194287488242388
 50
285.8795965793070195
 51
67.2917024304543929
  0
ARC
  5
4B6
  8
0
 62
     1
 10
2113.1822850431399274
 20
1349.9031981674759209
 30
0.0
 40
19.9781821506433914
 50
118.6597432656710964
 51
227.046253743237088
  0
ARC
  5
4B7
  8
0
 62
     1
 10
2105.6448840694588398
 20
1341.8717159989430456
 30
0.0
 40
8.9639724115493067
 50
227.3271104370627995
 51
320.2318046429211904
  0
ARC
  5
4B8
  8
0
 62
     1
 10
2117.6120174765028423
 20
1331.5262006286379801
 30
0.0
 40
6.8587058109745778
 50
13.7171472774177392
 51
137.7517231392012036
  0
ARC
  5
4B9
  8
0
 62
     1
 10
2102.0454257301098551
 20
1326.5497012210510093
 30
0.0
 40
23.1895815307590283
 50
264.5437776265071079
 51
16.5430379295077117
  0
ARC
  5
4BA
  8
0
 62
     1
 10
2097.931148150350964
 20
1289.4900428186010686
 30
0.0
 40
14.1049669010056196
 50
82.2203831346690066
 51
154.4425395578115001
  0
ARC
  5
4BB
  8
0
 62
     1
 10
2081.9166270603709563
 20
1297.3206862424331121
 30
0.0
 40
3.7240965954078469
 50
166.9815720965561923
 51
332.0491834587959943
  0
ARC
  5
4BC
  8
0
 62
     1
 10
2257.194549845425172
 20
1603.1257200449620086
 30
0.0
 40
24.497722050577579
 50
14.1216908613144803
 51
151.5969049277427132
  0
ARC
  5
4BD
  8
0
 62
     1
 10
2249.7832093562838054
 20
1601.9165382517210219
 30
0.0
 40
31.9864240423714499
 50
295.6565201126380202
 51
12.9831045837102295
  0
ARC
  5
4BE
  8
0
 62
     1
 10
2223.7713865256341705
 20
1604.1343537357240621
 30
0.0
 40
15.9468296708556192
 50
193.4824834361319859
 51
41.8731087884809412
  0
ARC
  5
4BF
  8
0
 62
     1
 10
2179.2820553091278271
 20
1599.446923749680991
 30
0.0
 40
26.1946489021995497
 50
276.7124852866741094
 51
1.40257977054205
  0
ARC
  5
4C0
  8
0
 62
     1
 10
2206.8979137049509518
 20
1599.9842891445580335
 30
0.0
 40
1.4328229534160439
 50
17.5517357969588801
 51
175.8453614555560875
  0
ARC
  5
4C1
  8
0
 62
     1
 10
2182.7685514579179653
 20
1571.8599908806390886
 30
0.0
 40
1.6282020456703461
 50
105.1191060264465023
 51
246.7391975009153953
  0
ARC
  5
4C2
  8
0
 62
     1
 10
2171.2668929390110861
 20
1545.0634001585790429
 30
0.0
 40
27.5324810314189605
 50
349.898336461196493
 51
66.7717962189645959
  0
ARC
  5
4C3
  8
0
 62
     1
 10
2208.9464291060089636
 20
1548.6579578530870549
 30
0.0
 40
13.51902408411331
 50
218.542444475787903
 51
341.9216902335285226
  0
ARC
  5
4C4
  8
0
 62
     1
 10
2224.7980101076118444
 20
1557.8747720798351111
 30
0.0
 40
13.7434055594568196
 50
43.6726165632118608
 51
257.3918157637165223
  0
ARC
  5
4C5
  8
0
 62
     1
 10
2236.1085387090502081
 20
1568.934361437896996
 30
0.0
 40
2.083117025435075
 50
228.8791376829757098
 51
17.5067435124526405
  0
ARC
  5
4C6
  8
0
 62
     1
 10
2250.6652227820131884
 20
1572.7623013509139582
 30
0.0
 40
12.9712982656993105
 50
1.4201924888494211
 51
194.2881615891805893
  0
ARC
  5
4C7
  8
0
 62
     1
 10
2145.4878536365131367
 20
1409.229664210520923
 30
0.0
 40
25.7489145840260214
 50
147.718284373812395
 51
244.0092250405249956
  0
ARC
  5
4C8
  8
0
 62
     1
 10
2126.3712047054182221
 20
1402.9864020673210234
 30
0.0
 40
22.9830127404411897
 50
316.3684569675418743
 51
19.2246007054767816
  0
ARC
  5
4C9
  8
0
 62
     1
 10
2139.7741065815530419
 20
1424.3681019007490249
 30
0.0
 40
16.1149646351709599
 50
184.9353298229397922
 51
300.9943782454872121
  0
ARC
  5
4CA
  8
0
 62
     1
 10
2137.7975074083979052
 20
1393.4225550927110362
 30
0.0
 40
8.1703634494725037
 50
243.9074515210868981
 51
309.6057757546136031
  0
ARC
  5
4CB
  8
0
 62
     1
 10
2459.5051046533458248
 20
1310.9289610994831037
 30
0.0
 40
288.7269932123145963
 50
148.0961704953381002
 51
181.9673008615079084
  0
ARC
  5
4CC
  8
0
 62
     1
 10
2173.3717283963501359
 20
1300.9638515462520445
 30
0.0
 40
2.4240234123238191
 50
178.7385815918237029
 51
328.7475844335223769
  0
ARC
  5
4CD
  8
0
 62
     1
 10
2216.710055706330877
 20
1273.0631605600940475
 30
0.0
 40
49.1196619597323902
 50
71.4744261873194802
 51
147.1520269054572907
  0
ARC
  5
4CE
  8
0
 62
     1
 10
2203.1232503314331552
 20
1226.1144823246909255
 30
0.0
 40
97.9735765060454185
 50
39.1856131820728493
 51
72.6640951054294391
  0
ARC
  5
4CF
  8
0
 62
     1
 10
2280.3343642341519626
 20
1289.537431264973975
 30
0.0
 40
1.9815647782620669
 50
230.0845206935890985
 51
23.9298269366270517
  0
ARC
  5
4D0
  8
0
 62
     1
 10
2604.4749441921521793
 20
1552.9635778897920773
 30
0.0
 40
415.7724447672380279
 50
203.5408001525657937
 51
219.1719127693770872
  0
ARC
  5
4D1
  8
0
 62
     1
 10
2332.8544316814331978
 20
1436.0362767222500224
 30
0.0
 40
120.0632347570537064
 50
167.0069539747686918
 51
204.1562482107663072
  0
ARC
  5
4D2
  8
0
 62
     1
 10
2215.0789155376901363
 20
1463.1224493098300172
 30
0.0
 40
0.7915839523194156
 50
353.324383092878179
 51
149.8733623684701968
  0
ARC
  5
4D3
  8
0
 62
     1
 10
2303.8963030652312227
 20
1488.3885735574478986
 30
0.0
 40
1.44044182461768
 50
357.976856827939514
 51
109.7632043291666974
  0
ARC
  5
4D4
  8
0
 62
     1
 10
2283.4820108078738485
 20
1490.8475590614600605
 30
0.0
 40
19.9577548799784097
 50
287.2238049567798157
 51
356.8307181806836184
  0
ARC
  5
4D5
  8
0
 62
     1
 10
2274.1911461600088842
 20
1469.7969254566280597
 30
0.0
 40
15.32988758027156
 50
7.450709241317802
 51
141.1886531063269103
  0
ARC
  5
4D6
  8
0
 62
     1
 10
2329.2381156939641187
 20
1427.0137598903340859
 30
0.0
 40
85.0459109548928751
 50
141.9728023217026021
 51
208.4873808289634098
  0
ARC
  5
4D7
  8
0
 62
     1
 10
2882.6321894649067872
 20
1710.0065873227640623
 30
0.0
 40
706.577931294337759
 50
207.2530249077393023
 51
215.2112818071900051
  0
ARC
  5
4D8
  8
0
 62
     1
 10
2212.7069804921679861
 20
1218.8623941141111118
 30
0.0
 40
75.9072929717283102
 50
31.1959115740626594
 51
82.7220757365396082
  0
ARC
  5
4D9
  8
0
 62
     1
 10
2219.0513092217502162
 20
1273.9984724491009729
 30
0.0
 40
20.423424844214189
 50
80.781612026837692
 51
138.4250302347188892
  0
ARC
  5
4DA
  8
0
 62
     1
 10
2209.8705057937850142
 20
1282.1415563525520156
 30
0.0
 40
8.1516292934572441
 50
138.4205852606291103
 51
224.5347081838999088
  0
ARC
  5
4DB
  8
0
 62
     1
 10
2200.4971586432711774
 20
1272.7500211057249544
 30
0.0
 40
5.1180257390007053
 50
287.9479750768214785
 51
45.8850877066145628
  0
ARC
  5
4DC
  8
0
 62
     1
 10
2205.6678840786039473
 20
1255.6235803443219083
 30
0.0
 40
12.7733932053935
 50
106.3398339311873997
 51
168.4560367601964117
  0
LINE
  5
4DD
  8
0
 62
     1
 10
2305.335846988603862
 20
2102.3907249132289508
 30
0.0
 11
2655.3376294130989663
 21
2102.3907249132289508
 31
0.0
  0
LINE
  5
4DE
  8
0
 62
     1
 10
2655.3376294130989663
 20
2102.3907249132289508
 30
0.0
 11
2656.8278633171289584
 21
1258.1797889198289795
 31
0.0
  0
ARC
  5
4DF
  8
0
 62
     1
 10
2491.8188794768811931
 20
1889.3185206569539787
 30
0.0
 40
40.7307914384661132
 50
237.9547771894999073
 51
339.4692403671530201
  0
ARC
  5
4E0
  8
0
 62
     1
 10
2460.0662441519020831
 20
1860.9953540611440985
 30
0.0
 40
11.8871779698320506
 50
228.2590704324410069
 51
328.5541209805567746
  0
ARC
  5
4E1
  8
0
 62
     1
 10
2477.9533259010718211
 20
1883.7999513960739932
 30
0.0
 40
40.8529548620321208
 50
207.8307756840299021
 51
230.8346182473329975
  0
ARC
  5
4E2
  8
0
 62
     1
 10
2428.2817851338058972
 20
1881.8412678976681036
 30
0.0
 40
21.8249797102117995
 50
203.8581612490872885
 51
308.358125347084183
  0
ARC
  5
4E3
  8
0
 62
     1
 10
2369.3349183292821181
 20
1854.8487016213789502
 30
0.0
 40
43.0109121132375805
 50
24.9819743758927615
 51
47.0329757427509634
  0
ARC
  5
4E4
  8
0
 62
     1
 10
2407.1892372622451148
 20
1878.8860749255090923
 30
0.0
 40
14.5247657105466796
 50
151.5124114355876941
 51
214.9124230314614863
  0
ARC
  5
4E5
  8
0
 62
     1
 10
2396.724830616116833
 20
1884.5015259977310507
 30
0.0
 40
2.649576683807036
 50
43.3926056880325319
 51
150.3087837020474922
  0
ARC
  5
4E6
  8
0
 62
     1
 10
2391.655143200843213
 20
1868.5854310223289758
 30
0.0
 40
4.1328143965708142
 50
260.7620249276926074
 51
28.7490373300141293
  0
ARC
  5
4E7
  8
0
 62
     1
 10
2398.6442549322478044
 20
1896.397874702990066
 30
0.0
 40
32.7969451536299772
 50
180.3466117147632986
 51
256.506683324183598
  0
ARC
  5
4E8
  8
0
 62
     1
 10
2352.942176454204855
 20
1895.7718968440528897
 30
0.0
 40
12.9128143704758696
 50
1.897543910238733
 51
91.1450709345133134
  0
ARC
  5
4E9
  8
0
 62
     1
 10
2351.2649118687418195
 20
1869.5798479063269042
 30
0.0
 40
39.1280313512604678
 50
87.9213644275058215
 51
122.8353035147781043
  0
ARC
  5
4EA
  8
0
 62
     1
 10
2334.3687515724768673
 20
1895.5578544754259838
 30
0.0
 40
8.1396772603544996
 50
122.0556717445196
 51
235.3331001532642972
  0
ARC
  5
4EB
  8
0
 62
     1
 10
2324.2610305485118261
 20
1874.5030956837040321
 30
0.0
 40
15.36941902125597
 50
185.2903898792978907
 51
69.120029115373427
  0
ARC
  5
4EC
  8
0
 62
     1
 10
2304.7820105194368807
 20
1872.4346294458121065
 30
0.0
 40
4.2255750149878066
 50
8.8672069166073211
 51
82.4687040717878546
  0
ARC
  5
4ED
  8
0
 62
     1
 10
2300.053245802263973
 20
1929.7181322129599721
 30
0.0
 40
19.6310508253804983
 50
24.9771719637092211
 51
58.0748157813656292
  0
ARC
  5
4EE
  8
0
 62
     1
 10
2323.4141074822728115
 20
1931.1232078674370314
 30
0.0
 40
8.8527506870528381
 50
350.8436435627306196
 51
128.9547669253803974
  0
ARC
  5
4EF
  8
0
 62
     1
 10
2320.983486398497007
 20
2010.509113931273987
 30
0.0
 40
64.9911969850030147
 50
260.6586446822225867
 51
321.8374670927469197
  0
ARC
  5
4F0
  8
0
 62
     1
 10
2480.2762539024738544
 20
2056.7806503542287828
 30
0.0
 40
138.4762647279142129
 50
218.6194406377238124
 51
292.1040464042293934
  0
LINE
  5
4F1
  8
0
 62
     1
 10
2532.3834455299738693
 20
1928.4821060378940274
 30
0.0
 11
2532.3834455299738693
 21
1900.2334476600510698
 31
0.0
  0
LINE
  5
4F2
  8
0
 62
     1
 10
2532.3834455299738693
 20
1876.3236418624110229
 30
0.0
 11
2532.3834455299747788
 21
1423.6663045148320634
 31
0.0
  0
LINE
  5
4F3
  8
0
 62
     1
 10
2532.3834455299738693
 20
1392.6052997565720943
 30
0.0
 11
2532.3834455299738693
 21
1298.1595927280800424
 31
0.0
  0
ARC
  5
4F4
  8
0
 62
     1
 10
2531.8786840021980424
 20
1874.3543118089060044
 30
0.0
 40
2.0329891931747448
 50
75.6239260508311162
 51
160.4737020429359973
  0
ARC
  5
4F5
  8
0
 62
     1
 10
2514.6128199506229066
 20
1897.2585327329420579
 30
0.0
 40
17.6148029709941198
 50
9.8321318641239337
 51
117.1934555101174027
  0
ARC
  5
4F6
  8
0
 62
     1
 10
2532.17994622260494
 20
1900.2973142998669118
 30
0.0
 40
0.2132859952765542
 50
188.314045842724596
 51
342.5759494340235847
  0
ARC
  5
4F7
  8
0
 62
     1
 10
2480.2030725187401003
 20
1918.4426430752939723
 30
0.0
 40
26.9308571346413395
 50
281.6526034964290943
 51
348.1803456482633123
  0
ARC
  5
4F8
  8
0
 62
     1
 10
2468.344657150536932
 20
1988.8023598548420523
 30
0.0
 40
98.2699282952115851
 50
222.0881173106407118
 51
280.1382353136248184
  0
ARC
  5
4F9
  8
0
 62
     1
 10
2359.2398422754408784
 20
1883.9077506151579655
 30
0.0
 40
53.2155621328843793
 50
47.1700736307699415
 51
120.5960759317197954
  0
ARC
  5
4FA
  8
0
 62
     1
 10
2321.2365140520678324
 20
1714.5821744219340417
 30
0.0
 40
21.5202396256499817
 50
2.542336634572234
 51
137.6352757418947022
  0
ARC
  5
4FB
  8
0
 62
     1
 10
2346.0871061326361087
 20
1696.9632062806720114
 30
0.0
 40
18.8735182706869402
 50
339.8744762493872145
 51
100.2287563553578025
  0
ARC
  5
4FC
  8
0
 62
     1
 10
2364.7172312815678197
 20
1667.22146362356807
 30
0.0
 40
23.2655447387017205
 50
358.8276497667420131
 51
92.239162639237307
  0
ARC
  5
4FD
  8
0
 62
     1
 10
2381.8970906736990401
 20
1618.2337754403029066
 30
0.0
 40
49.3642498137899111
 50
1.268457187222878
 51
82.9184903057279854
  0
ARC
  5
4FE
  8
0
 62
     1
 10
2447.3862982118071159
 20
1619.6430108717199801
 30
0.0
 40
16.1401572895630601
 50
181.1234761585627098
 51
359.0138352640760786
  0
ARC
  5
4FF
  8
0
 62
     1
 10
2442.6543313909601238
 20
1600.1467840506059019
 30
0.0
 40
28.3706568895302489
 50
279.3839581073482918
 51
42.6412308709671919
  0
ARC
  5
500
  8
0
 62
     1
 10
2433.1421539270609173
 20
1555.4686095603410649
 30
0.0
 40
19.6883013989465603
 50
320.1426337135023914
 51
47.1309040722461035
  0
ARC
  5
501
  8
0
 62
     1
 10
2466.8173438445828651
 20
1547.935217664432912
 30
0.0
 40
19.2453886999587986
 50
195.3187664406679005
 51
260.3832936499044877
  0
ARC
  5
502
  8
0
 62
     1
 10
2453.7125581796271945
 20
1485.6278910808159708
 30
0.0
 40
44.4466233461065485
 50
311.7889067132369973
 51
77.1436249576823627
  0
ARC
  5
503
  8
0
 62
     1
 10
2447.3132989789328349
 20
1570.8937043581029229
 30
0.0
 40
1.2625181569970949
 50
91.504118708744798
 51
232.0342721220249018
  0
ARC
  5
504
  8
0
 62
     1
 10
2485.6509460064821724
 20
1450.6366865458869597
 30
0.0
 40
2.9680439909146852
 50
141.403056722050195
 51
276.3629142122060784
  0
ARC
  5
505
  8
0
 62
     1
 10
2488.8261107387102129
 20
1411.9465325338630919
 30
0.0
 40
35.8535459123936278
 50
17.6619879121643315
 51
94.5532092126215815
  0
ARC
  5
506
  8
0
 62
     1
 10
2527.6404608267239382
 20
1423.7596028267660131
 30
0.0
 40
4.743902240801094
 50
191.368002067971787
 51
358.8730914125005143
  0
ARC
  5
507
  8
0
 62
     1
 10
2527.1796028127118916
 20
1391.7876113730380894
 30
0.0
 40
5.2676933584411616
 50
8.9299633554535696
 51
133.6096502198915914
  0
ARC
  5
508
  8
0
 62
     1
 10
2494.3997949654558397
 20
1399.1948005311760426
 30
0.0
 40
29.3670989602167687
 50
294.9020760264850765
 51
352.9722125905319103
  0
ARC
  5
509
  8
0
 62
     1
 10
2507.815167810722869
 20
1370.0493726367490126
 30
0.0
 40
2.7194287488242388
 50
112.7082975695984999
 51
254.1204034207200948
  0
ARC
  5
50A
  8
0
 62
     1
 10
2497.4894089340691608
 20
1349.9031981674759209
 30
0.0
 40
19.9781821506433914
 50
312.9537462567312787
 51
61.3402567343048872
  0
ARC
  5
50B
  8
0
 62
     1
 10
2505.0268099077511579
 20
1341.8717159989430456
 30
0.0
 40
8.9639724115493067
 50
219.7681953571101019
 51
312.6728895629042881
  0
ARC
  5
50C
  8
0
 62
     1
 10
2493.0596765007057911
 20
1331.5262006286379801
 30
0.0
 40
6.8587058109745778
 50
42.2482768608304866
 51
166.2828527225823052
  0
ARC
  5
50D
  8
0
 62
     1
 10
2508.6262682470987784
 20
1326.5497012210510093
 30
0.0
 40
23.1895815307590283
 50
163.4569620704832005
 51
275.4562223734405961
  0
ARC
  5
50E
  8
0
 62
     1
 10
2512.7405458268581242
 20
1289.4900428186010686
 30
0.0
 40
14.1049669010056196
 50
25.5574604421913598
 51
97.7796168653047459
  0
ARC
  5
50F
  8
0
 62
     1
 10
2528.7550669168381319
 20
1297.3206862424331121
 30
0.0
 40
3.7240965954078469
 50
207.950816541192296
 51
13.0184279034469892
  0
ARC
  5
510
  8
0
 62
     1
 10
2353.4771441317839162
 20
1603.1257200449620086
 30
0.0
 40
24.497722050577579
 50
28.4030950722572904
 51
165.8783091386854949
  0
ARC
  5
511
  8
0
 62
     1
 10
2360.8884846209248281
 20
1601.9165382517210219
 30
0.0
 40
31.9864240423714499
 50
167.0168954162928969
 51
244.3434798873929878
  0
ARC
  5
512
  8
0
 62
     1
 10
2386.9003074515749176
 20
1604.1343537357240621
 30
0.0
 40
15.9468296708556192
 50
138.1268912115189949
 51
346.5175165638739259
  0
ARC
  5
513
  8
0
 62
     1
 10
2431.3896386680808064
 20
1599.446923749680991
 30
0.0
 40
26.1946489021995497
 50
178.5974202294578959
 51
263.2875147132996858
  0
ARC
  5
514
  8
0
 62
     1
 10
2403.7737802722581364
 20
1599.9842891445580335
 30
0.0
 40
1.4328229534160439
 50
4.1546385444373923
 51
162.4482642030475006
  0
ARC
  5
515
  8
0
 62
     1
 10
2427.9031425192911229
 20
1571.8599908806390886
 30
0.0
 40
1.6282020456703461
 50
293.2608024990581725
 51
74.8808939735805126
  0
ARC
  5
516
  8
0
 62
     1
 10
2439.4048010381980021
 20
1545.0634001585790429
 30
0.0
 40
27.5324810314189605
 50
113.2282037810919064
 51
190.1016635387971121
  0
ARC
  5
517
  8
0
 62
     1
 10
2401.7252648711992151
 20
1548.6579578530870549
 30
0.0
 40
13.51902408411331
 50
198.0783097664892978
 51
321.457555524174893
  0
ARC
  5
518
  8
0
 62
     1
 10
2385.873683869596789
 20
1557.8747720798351111
 30
0.0
 40
13.7434055594568196
 50
282.6081842363103078
 51
136.3273834367782911
  0
ARC
  5
519
  8
0
 62
     1
 10
2374.5631552681588801
 20
1568.934361437896996
 30
0.0
 40
2.083117025435075
 50
162.4932564875502123
 51
311.1208623170243186
  0
ARC
  5
51A
  8
0
 62
     1
 10
2360.0064711951958998
 20
1572.7623013509139582
 30
0.0
 40
12.9712982656993105
 50
345.7118384108226223
 51
178.5798075111505909
  0
ARC
  5
51B
  8
0
 62
     1
 10
2465.1838403406959515
 20
1409.229664210520923
 30
0.0
 40
25.7489145840260214
 50
295.9907749595024029
 51
32.281715626217597
  0
ARC
  5
51C
  8
0
 62
     1
 10
2484.300489271790866
 20
1402.9864020673210234
 30
0.0
 40
22.9830127404411897
 50
160.7753992945386869
 51
223.6315430324206943
  0
ARC
  5
51D
  8
0
 62
     1
 10
2470.8975873956551368
 20
1424.3681019007490249
 30
0.0
 40
16.1149646351709599
 50
239.005621754546695
 51
355.0646701770593836
  0
ARC
  5
51E
  8
0
 62
     1
 10
2472.874186568811183
 20
1393.4225550927110362
 30
0.0
 40
8.1703634494725037
 50
230.3942242454099869
 51
296.0925484789403868
  0
ARC
  5
51F
  8
0
 62
     1
 10
2151.1665893238618992
 20
1310.9289610994831037
 30
0.0
 40
288.7269932123145963
 50
358.0326991384953885
 51
31.9038295046808216
  0
ARC
  5
520
  8
0
 62
     1
 10
2437.2999655808589523
 20
1300.9638515462520445
 30
0.0
 40
2.4240234123238191
 50
211.2524155665039132
 51
1.261418408176237
  0
ARC
  5
521
  8
0
 62
     1
 10
2393.9616382708782112
 20
1273.0631605600940475
 30
0.0
 40
49.1196619597323902
 50
32.8479730945558188
 51
108.5255738127095952
  0
ARC
  5
522
  8
0
 62
     1
 10
2407.548443645775933
 20
1226.1144823246909255
 30
0.0
 40
97.9735765060454185
 50
107.3359048945720957
 51
140.8143868179120943
  0
ARC
  5
523
  8
0
 62
     1
 10
2330.3373297430562161
 20
1289.537431264973975
 30
0.0
 40
1.9815647782620669
 50
156.0701730633670934
 51
309.91547930643992
  0
ARC
  5
524
  8
0
 62
     1
 10
2006.1967497850559994
 20
1552.9635778897920773
 30
0.0
 40
415.7724447672380279
 50
320.8280872305916205
 51
336.4591998474342063
  0
ARC
  5
525
  8
0
 62
     1
 10
2277.8172622957758904
 20
1436.0362767222500224
 30
0.0
 40
120.0632347570537064
 50
335.8437517892483015
 51
12.99304602522772
  0
ARC
  5
526
  8
0
 62
     1
 10
2395.5927784395189519
 20
1463.1224493098300172
 30
0.0
 40
0.7915839523194156
 50
30.126637631524769
 51
186.6756169071252032
  0
ARC
  5
527
  8
0
 62
     1
 10
2306.775390911976956
 20
1488.3885735574478986
 30
0.0
 40
1.44044182461768
 50
70.2367956708610421
 51
182.023143172060486
  0
ARC
  5
528
  8
0
 62
     1
 10
2327.1896831693347849
 20
1490.8475590614600605
 30
0.0
 40
19.9577548799784097
 50
183.1692818193164101
 51
252.776195043245707
  0
ARC
  5
529
  8
0
 62
     1
 10
2336.4805478171988398
 20
1469.7969254566280597
 30
0.0
 40
15.32988758027156
 50
38.8113468937001329
 51
172.5492907586854017
  0
ARC
  5
52A
  8
0
 62
     1
 10
2281.4335782832449695
 20
1427.0137598903340859
 30
0.0
 40
85.0459109548928751
 50
331.5126191710299963
 51
38.0271976783025991
  0
ARC
  5
52B
  8
0
 62
     1
 10
1728.0395045123009368
 20
1710.0065873227640623
 30
0.0
 40
706.577931294337759
 50
324.7887181927965798
 51
332.7469750922606977
  0
ARC
  5
52C
  8
0
 62
     1
 10
2397.9647134850411021
 20
1218.8623941141111118
 30
0.0
 40
75.9072929717283102
 50
97.2779242634866534
 51
148.8040884259416998
  0
ARC
  5
52D
  8
0
 62
     1
 10
2391.620384755458872
 20
1273.9984724491009729
 30
0.0
 40
20.423424844214189
 50
41.5749697653075501
 51
99.2183879731886833
  0
ARC
  5
52E
  8
0
 62
     1
 10
2400.8011881834240739
 20
1282.1415563525520156
 30
0.0
 40
8.1516292934572441
 50
315.4652918160908825
 51
41.5794147393760269
  0
ARC
  5
52F
  8
0
 62
     1
 10
2410.1745353339379108
 20
1272.7500211057249544
 30
0.0
 40
5.1180257390007053
 50
134.1149122933520061
 51
252.0520249232314995
  0
ARC
  5
530
  8
0
 62
     1
 10
2405.0038098986051409
 20
1255.6235803443219083
 30
0.0
 40
12.7733932053935
 50
11.54396323980008
 51
73.6601660687582154
  0
LINE
  5
531
  8
0
 62
     1
 10
2305.335846988603862
 20
413.9688529264296903
 30
0.0
 11
1955.3340645641098945
 21
413.9688529264296903
 31
0.0
  0
LINE
  5
532
  8
0
 62
     1
 10
1955.3340645641098945
 20
413.9688529264296903
 30
0.0
 11
1953.8438306600799024
 21
1258.1797889198289795
 31
0.0
  0
ARC
  5
533
  8
0
 62
     1
 10
2118.8528145003278951
 20
627.0410571827039803
 30
0.0
 40
40.7307914384661132
 50
57.9547771894710024
 51
159.4692403671735121
  0
ARC
  5
534
  8
0
 62
     1
 10
2150.6054498253070051
 20
655.3642237785140878
 30
0.0
 40
11.8871779698320506
 50
48.2590704324410424
 51
148.5541209805984977
  0
ARC
  5
535
  8
0
 62
     1
 10
2132.7183680761368123
 20
632.5596264435841931
 30
0.0
 40
40.8529548620321208
 50
27.8307756840357392
 51
50.8346182473683896
  0
ARC
  5
536
  8
0
 62
     1
 10
2182.389908843403191
 20
634.5183099419898554
 30
0.0
 40
21.8249797102117995
 50
23.8581612491085302
 51
128.3581253470863999
  0
ARC
  5
537
  8
0
 62
     1
 10
2241.3367756479260606
 20
661.5108762182788951
 30
0.0
 40
43.0109121132375805
 50
204.9819743758694131
 51
227.0329757427377046
  0
ARC
  5
538
  8
0
 62
     1
 10
2203.4824567149630639
 20
637.4735029141492078
 30
0.0
 40
14.5247657105466796
 50
331.5124114355587039
 51
34.912423031476898
  0
ARC
  5
539
  8
0
 62
     1
 10
2213.9468633610918005
 20
631.8580518419264536
 30
0.0
 40
2.649576683807036
 50
223.3926056880002875
 51
330.3087837020592019
  0
ARC
  5
53A
  8
0
 62
     1
 10
2219.0165507763658752
 20
647.7741468173287558
 30
0.0
 40
4.1328143965708142
 50
80.7620249277455571
 51
208.7490373300053079
  0
ARC
  5
53B
  8
0
 62
     1
 10
2212.0274390449608291
 20
619.9617031366677793
 30
0.0
 40
32.7969451536299772
 50
0.3466117147568743
 51
76.5066833241836548
  0
ARC
  5
53C
  8
0
 62
     1
 10
2257.7295175230037785
 20
620.5876809956051829
 30
0.0
 40
12.9128143704758696
 50
181.897543910235413
 51
271.1450709345393761
  0
ARC
  5
53D
  8
0
 62
     1
 10
2259.406782108466814
 20
646.7797299333312822
 30
0.0
 40
39.1280313512604678
 50
267.9213644274797161
 51
302.8353035147450782
  0
ARC
  5
53E
  8
0
 62
     1
 10
2276.3029424047322209
 20
620.8017233642320889
 30
0.0
 40
8.1396772603544996
 50
302.0556717444853234
 51
55.3331001532724827
  0
ARC
  5
53F
  8
0
 62
     1
 10
2286.4106634286968074
 20
641.8564821559538132
 30
0.0
 40
15.36941902125597
 50
5.2903898792946684
 51
249.1200291153996886
  0
ARC
  5
540
  8
0
 62
     1
 10
2305.8896834577722075
 20
643.9249483938464209
 30
0.0
 40
4.2255750149878066
 50
188.8672069166171923
 51
262.4687040717615787
  0
ARC
  5
541
  8
0
 62
     1
 10
2310.6184481749451152
 20
586.6414456266983279
 30
0.0
 40
19.6310508253804983
 50
204.9771719637004992
 51
238.0748157813656007
  0
ARC
  5
542
  8
0
 62
     1
 10
2287.257586494935822
 20
585.2363699722208139
 30
0.0
 40
8.8527506870528381
 50
170.8436435627436936
 51
308.9547669253486788
  0
ARC
  5
543
  8
0
 62
     1
 10
2289.6882075787111717
 20
505.8504639083838015
 30
0.0
 40
64.9911969850030147
 50
80.6586446821699496
 51
141.8374670927780983
  0
ARC
  5
544
  8
0
 62
     1
 10
2130.3954400747338696
 20
459.5789274854295172
 30
0.0
 40
138.4762647279142129
 50
38.6194406377133674
 51
112.1040464042578009
  0
LINE
  5
545
  8
0
 62
     1
 10
2078.2882484472352189
 20
587.8774718017638179
 30
0.0
 11
2078.2882484472352189
 21
616.126130179607344
 31
0.0
  0
LINE
  5
546
  8
0
 62
     1
 10
2078.2882484472352189
 20
640.0359359772468224
 30
0.0
 11
2078.2882484472352189
 21
1092.6932733248449949
 31
0.0
  0
LINE
  5
547
  8
0
 62
     1
 10
2078.2882484472352189
 20
1123.7542780830890479
 30
0.0
 11
2078.2882484472338547
 21
1218.1999851115779165
 31
0.0
  0
ARC
  5
548
  8
0
 62
     1
 10
2078.7930099750110458
 20
642.0052660307527503
 30
0.0
 40
2.0329891931747448
 50
255.6239260508581026
 51
340.4737020429359973
  0
ARC
  5
549
  8
0
 62
     1
 10
2096.0588740265870911
 20
619.1010451067157874
 30
0.0
 40
17.6148029709941198
 50
189.8321318641274047
 51
297.19345551009161
  0
ARC
  5
54A
  8
0
 62
     1
 10
2078.4917477546041482
 20
616.0622635397911608
 30
0.0
 40
0.2132859952765542
 50
8.3140458427149113
 51
162.5759494340175877
  0
ARC
  5
54B
  8
0
 62
     1
 10
2130.4686214584689878
 20
597.9169347643636456
 30
0.0
 40
26.9308571346413395
 50
101.6526034963759031
 51
168.1803456482566048
  0
ARC
  5
54C
  8
0
 62
     1
 10
2142.3270368266721562
 20
527.557217984815793
 30
0.0
 40
98.2699282952115851
 50
42.0881173106060729
 51
100.138235313677896
  0
ARC
  5
54D
  8
0
 62
     1
 10
2251.4318517017668455
 20
632.4518272245003345
 30
0.0
 40
53.2155621328843793
 50
227.1700736307417117
 51
300.5960759317505904
  0
ARC
  5
54E
  8
0
 62
     1
 10
2289.4351799251408011
 20
801.7774034177235762
 30
0.0
 40
21.5202396256499817
 50
182.5423366345787031
 51
317.6352757418629835
  0
ARC
  5
54F
  8
0
 62
     1
 10
2264.5845878445729795
 20
819.3963715589860612
 30
0.0
 40
18.8735182706869402
 50
159.8744762493936946
 51
280.2287563553048813
  0
ARC
  5
550
  8
0
 62
     1
 10
2245.9544626956408138
 20
849.1381142160897753
 30
0.0
 40
23.2655447387017205
 50
178.8276497667289959
 51
272.2391626391852242
  0
ARC
  5
551
  8
0
 62
     1
 10
2228.7746033035100481
 20
898.125802399354825
 30
0.0
 40
49.3642498137899111
 50
181.2684571872260904
 51
262.918490305728028
  0
ARC
  5
552
  8
0
 62
     1
 10
2163.2853957654019723
 20
896.7165669679377515
 30
0.0
 40
16.1401572895630601
 50
1.1234761585529569
 51
179.0138352640825872
  0
ARC
  5
553
  8
0
 62
     1
 10
2168.0173625862489644
 20
916.212793789051716
 30
0.0
 40
28.3706568895302489
 50
99.3839581073219449
 51
222.6412308709550985
  0
ARC
  5
554
  8
0
 62
     1
 10
2177.5295400501481708
 20
960.8909682793171214
 30
0.0
 40
19.6883013989465603
 50
140.1426337134973039
 51
227.1309040722437942
  0
ARC
  5
555
  8
0
 62
     1
 10
2143.8543501326262231
 20
968.424360175225047
 30
0.0
 40
19.2453886999587986
 50
15.3187664406647599
 51
80.3832936498779844
  0
ARC
  5
556
  8
0
 62
     1
 10
2156.9591357975809842
 20
1030.7316867588419882
 30
0.0
 40
44.4466233461065485
 50
131.7889067132283003
 51
257.1436249577089939
  0
ARC
  5
557
  8
0
 62
     1
 10
2163.3583949982757986
 20
945.465873481554695
 30
0.0
 40
1.2625181569970949
 50
271.5041187087447838
 51
52.0342721220492734
  0
ARC
  5
558
  8
0
 62
     1
 10
2125.0207479707269158
 20
1065.7228912937709993
 30
0.0
 40
2.9680439909146852
 50
321.4030567220889907
 51
96.3629142122322264
  0
ARC
  5
559
  8
0
 62
     1
 10
2121.8455832384988753
 20
1104.4130453057950945
 30
0.0
 40
35.8535459123936278
 50
197.6619879121643066
 51
274.5532092126476869
  0
ARC
  5
55A
  8
0
 62
     1
 10
2083.03123315048515
 20
1092.5999750128919459
 30
0.0
 40
4.743902240801094
 50
11.3680020679650795
 51
181.1269085895615945
  0
ARC
  5
55B
  8
0
 62
     1
 10
2083.4920911644971966
 20
1124.571966466620097
 30
0.0
 40
5.2676933584411616
 50
188.9299633554535944
 51
313.6096502199289944
  0
ARC
  5
55C
  8
0
 62
     1
 10
2116.2718990117527937
 20
1117.1647773084819164
 30
0.0
 40
29.3670989602167687
 50
114.9020760265135976
 51
172.9722125905352073
  0
ARC
  5
55D
  8
0
 62
     1
 10
2102.8565261664848549
 20
1146.3102052029089464
 30
0.0
 40
2.7194287488242388
 50
292.7082975695453229
 51
74.1204034206930515
  0
ARC
  5
55E
  8
0
 62
     1
 10
2113.1822850431399274
 20
1166.4563796721820381
 30
0.0
 40
19.9781821506433914
 50
132.9537462567652994
 51
241.3402567343308078
  0
ARC
  5
55F
  8
0
 62
     1
 10
2105.6448840694588398
 20
1174.4878618407149133
 30
0.0
 40
8.9639724115493067
 50
39.7681953570996498
 51
132.6728895629395026
  0
ARC
  5
560
  8
0
 62
     1
 10
2117.6120174765028423
 20
1184.8333772110199789
 30
0.0
 40
6.8587058109745778
 50
222.2482768608184074
 51
346.2828527225763082
  0
ARC
  5
561
  8
0
 62
     1
 10
2102.0454257301098551
 20
1189.8098766186080866
 30
0.0
 40
23.1895815307590283
 50
343.4569620704958766
 51
95.4562223734928637
  0
ARC
  5
562
  8
0
 62
     1
 10
2097.931148150350964
 20
1226.8695350210568904
 30
0.0
 40
14.1049669010056196
 50
205.557460442208793
 51
277.7796168653309792
  0
ARC
  5
563
  8
0
 62
     1
 10
2081.9166270603709563
 20
1219.0388915972250743
 30
0.0
 40
3.7240965954078469
 50
27.9508165412010889
 51
193.0184279034342865
  0
ARC
  5
564
  8
0
 62
     1
 10
2257.194549845425172
 20
913.2338577946956093
 30
0.0
 40
24.497722050577579
 50
208.4030950722572868
 51
345.8783091386957835
  0
ARC
  5
565
  8
0
 62
     1
 10
2249.7832093562838054
 20
914.4430395879370508
 30
0.0
 40
31.9864240423714499
 50
347.016895416289799
 51
64.343479887338745
  0
ARC
  5
566
  8
0
 62
     1
 10
2223.7713865256341705
 20
912.2252241039340106
 30
0.0
 40
15.9468296708556192
 50
318.1268912115214107
 51
166.5175165638613066
  0
ARC
  5
567
  8
0
 62
     1
 10
2179.2820553091278271
 20
916.9126540899767406
 30
0.0
 40
26.1946489021995497
 50
358.5974202294644897
 51
83.2875147133259617
  0
ARC
  5
568
  8
0
 62
     1
 10
2206.8979137049509518
 20
916.3752886951004939
 30
0.0
 40
1.4328229534160439
 50
184.1546385444374039
 51
342.4482642030321244
  0
ARC
  5
569
  8
0
 62
     1
 10
2182.7685514579179653
 20
944.4995869590192115
 30
0.0
 40
1.6282020456703461
 50
113.2608024990848037
 51
254.8808939735534125
  0
ARC
  5
56A
  8
0
 62
     1
 10
2171.2668929390110861
 20
971.2961776810788024
 30
0.0
 40
27.5324810314189605
 50
293.2282037810354041
 51
10.1016635388134901
  0
ARC
  5
56B
  8
0
 62
     1
 10
2208.9464291060089636
 20
967.7016199865709041
 30
0.0
 40
13.51902408411331
 50
18.0783097664651216
 51
141.4575555242143139
  0
ARC
  5
56C
  8
0
 62
     1
 10
2224.7980101076118444
 20
958.4848057598227342
 30
0.0
 40
13.7434055594568196
 50
102.6081842363101941
 51
316.3273834367857944
  0
ARC
  5
56D
  8
0
 62
     1
 10
2236.1085387090502081
 20
947.4252164017615314
 30
0.0
 40
2.083117025435075
 50
342.4932564875442154
 51
131.1208623170265923
  0
ARC
  5
56E
  8
0
 62
     1
 10
2250.6652227820131884
 20
943.5972764887444555
 30
0.0
 40
12.9712982656993105
 50
165.7118384108225086
 51
358.5798075111636081
  0
ARC
  5
56F
  8
0
 62
     1
 10
2145.4878536365131367
 20
1107.129913629137036
 30
0.0
 40
25.7489145840260214
 50
115.9907749594753028
 51
212.2817156262094898
  0
ARC
  5
570
  8
0
 62
     1
 10
2126.3712047054182221
 20
1113.3731757723369356
 30
0.0
 40
22.9830127404411897
 50
340.77539929453269
 51
43.6315430324580902
  0
ARC
  5
571
  8
0
 62
     1
 10
2139.7741065815530419
 20
1091.991475938908934
 30
0.0
 40
16.1149646351709599
 50
59.0056217545146566
 51
175.0646701770691038
  0
ARC
  5
572
  8
0
 62
     1
 10
2137.7975074083979052
 20
1122.9370227469469228
 30
0.0
 40
8.1703634494725037
 50
50.3942242453840521
 51
116.0925484789131019
  0
ARC
  5
573
  8
0
 62
     1
 10
2459.5051046533458248
 20
1205.4306167401750827
 30
0.0
 40
288.7269932123145963
 50
178.0326991384822861
 51
211.9038295046808003
  0
ARC
  5
574
  8
0
 62
     1
 10
2173.3717283963501359
 20
1215.3957262934059145
 30
0.0
 40
2.4240234123238191
 50
31.2524155664819396
 51
181.2614184081859889
  0
ARC
  5
575
  8
0
 62
     1
 10
2216.710055706330877
 20
1243.2964172795639115
 30
0.0
 40
49.1196619597323902
 50
212.8479730945448978
 51
288.5255738126563188
  0
ARC
  5
576
  8
0
 62
     1
 10
2203.1232503314331552
 20
1290.2450955149670335
 30
0.0
 40
97.9735765060454185
 50
287.3359048945466157
 51
320.8143868179225819
  0
ARC
  5
577
  8
0
 62
     1
 10
2280.3343642341519626
 20
1226.822146574683984
 30
0.0
 40
1.9815647782620669
 50
336.0701730633824127
 51
129.9154793064132036
  0
ARC
  5
578
  8
0
 62
     1
 10
2604.4749441921521793
 20
963.3959999498662228
 30
0.0
 40
415.7724447672380279
 50
140.8280872306033018
 51
156.4591998474276977
  0
ARC
  5
579
  8
0
 62
     1
 10
2332.8544316814331978
 20
1080.3233011174079365
 30
0.0
 40
120.0632347570537064
 50
155.8437517892168955
 51
192.993046025224487
  0
ARC
  5
57A
  8
0
 62
     1
 10
2215.0789155376901363
 20
1053.2371285298279417
 30
0.0
 40
0.7915839523194156
 50
210.1266376315356013
 51
6.6756169071218574
  0
ARC
  5
57B
  8
0
 62
     1
 10
2303.8963030652312227
 20
1027.9710042822100604
 30
0.0
 40
1.44044182461768
 50
250.2367956708332031
 51
2.0231431720475301
  0
ARC
  5
57C
  8
0
 62
     1
 10
2283.4820108078738485
 20
1025.5120187781969889
 30
0.0
 40
19.9577548799784097
 50
3.169281819326192
 51
72.7761950432202269
  0
ARC
  5
57D
  8
0
 62
     1
 10
2274.1911461600088842
 20
1046.5626523830298993
 30
0.0
 40
15.32988758027156
 50
218.8113468936730897
 51
352.5492907586723277
  0
ARC
  5
57E
  8
0
 62
     1
 10
2329.2381156939641187
 20
1089.3458179493241005
 30
0.0
 40
85.0459109548928751
 50
151.5126191710394892
 51
218.0271976782759111
  0
ARC
  5
57F
  8
0
 62
     1
 10
2882.6321894649067872
 20
806.3529905168938967
 30
0.0
 40
706.577931294337759
 50
144.7887181928099949
 51
152.7469750922527112
  0
ARC
  5
580
  8
0
 62
     1
 10
2212.7069804921679861
 20
1297.4971837255470746
 30
0.0
 40
75.9072929717283102
 50
277.2779242634604202
 51
328.8040884259394829
  0
ARC
  5
581
  8
0
 62
     1
 10
2219.0513092217502162
 20
1242.3611053905569861
 30
0.0
 40
20.423424844214189
 50
221.5749697652757959
 51
279.2183879731622937
  0
ARC
  5
582
  8
0
 62
     1
 10
2209.8705057937850142
 20
1234.2180214871059434
 30
0.0
 40
8.1516292934572441
 50
135.4652918161023933
 51
221.5794147393708045
  0
ARC
  5
583
  8
0
 62
     1
 10
2200.4971586432711774
 20
1243.6095567339330046
 30
0.0
 40
5.1180257390007053
 50
314.1149122933853732
 51
72.0520249231766741
  0
ARC
  5
584
  8
0
 62
     1
 10
2205.6678840786039473
 20
1260.7359974953360506
 30
0.0
 40
12.7733932053935
 50
191.5439632397967955
 51
253.6601660688126003
  0
LINE
  5
585
  8
0
 62
     1
 10
2305.335846988603862
 20
413.9688529264296903
 30
0.0
 11
2655.3376294130989663
 21
413.9688529264296903
 31
0.0
  0
LINE
  5
586
  8
0
 62
     1
 10
2655.3376294130989663
 20
413.9688529264296903
 30
0.0
 11
2656.8278633171289584
 21
1258.1797889198289795
 31
0.0
  0
ARC
  5
587
  8
0
 62
     1
 10
2491.8188794768811931
 20
627.0410571827048898
 30
0.0
 40
40.7307914384661132
 50
20.5307596328323712
 51
122.0452228105001069
  0
ARC
  5
588
  8
0
 62
     1
 10
2460.0662441519020831
 20
655.364223778515111
 30
0.0
 40
11.8871779698320506
 50
31.4458790194212199
 51
131.7409295675589078
  0
ARC
  5
589
  8
0
 62
     1
 10
2477.9533259010718211
 20
632.5596264435851026
 30
0.0
 40
40.8529548620321208
 50
129.1653817526652119
 51
152.1692243159641862
  0
ARC
  5
58A
  8
0
 62
     1
 10
2428.2817851338058972
 20
634.5183099419908785
 30
0.0
 40
21.8249797102117995
 50
51.6418746529135504
 51
156.1418387509096988
  0
ARC
  5
58B
  8
0
 62
     1
 10
2369.3349183292821181
 20
661.5108762182796909
 30
0.0
 40
43.0109121132375805
 50
312.9670242572531151
 51
335.0180256241123971
  0
ARC
  5
58C
  8
0
 62
     1
 10
2407.1892372622451148
 20
637.4735029141501172
 30
0.0
 40
14.5247657105466796
 50
145.0875769685331989
 51
208.4875885644152049
  0
ARC
  5
58D
  8
0
 62
     1
 10
2396.724830616116833
 20
631.8580518419273631
 30
0.0
 40
2.649576683807036
 50
209.6912162979554068
 51
316.607394311962878
  0
ARC
  5
58E
  8
0
 62
     1
 10
2391.655143200843213
 20
647.774146817329779
 30
0.0
 40
4.1328143965708142
 50
331.2509626699945784
 51
99.2379750723073357
  0
ARC
  5
58F
  8
0
 62
     1
 10
2398.6442549322478044
 20
619.9617031366685751
 30
0.0
 40
32.7969451536299772
 50
103.4933166758163026
 51
179.6533882852430963
  0
ARC
  5
590
  8
0
 62
     1
 10
2352.942176454204855
 20
620.5876809956060924
 30
0.0
 40
12.9128143704758696
 50
268.854929065486715
 51
358.1024560897644733
  0
ARC
  5
591
  8
0
 62
     1
 10
2351.2649118687418195
 20
646.7797299333323053
 30
0.0
 40
39.1280313512604678
 50
237.1646964851985047
 51
272.0786355724941927
  0
ARC
  5
592
  8
0
 62
     1
 10
2334.3687515724768673
 20
620.8017233642329984
 30
0.0
 40
8.1396772603544996
 50
124.6668998467596055
 51
237.9443282554560142
  0
ARC
  5
593
  8
0
 62
     1
 10
2324.2610305485118261
 20
641.8564821559547227
 30
0.0
 40
15.36941902125597
 50
290.8799708846281078
 51
174.7096101207085042
  0
ARC
  5
594
  8
0
 62
     1
 10
2304.7820105194368807
 20
643.9249483938473304
 30
0.0
 40
4.2255750149878066
 50
277.5312959282122165
 51
351.1327930833859909
  0
ARC
  5
595
  8
0
 62
     1
 10
2300.053245802263973
 20
586.6414456266992374
 30
0.0
 40
19.6310508253804983
 50
301.9251842186342856
 51
335.0228280362994724
  0
ARC
  5
596
  8
0
 62
     1
 10
2323.4141074822728115
 20
585.2363699722217234
 30
0.0
 40
8.8527506870528381
 50
231.0452330746196026
 51
9.1563564372562478
  0
ARC
  5
597
  8
0
 62
     1
 10
2320.983486398497007
 20
505.8504639083848247
 30
0.0
 40
64.9911969850030147
 50
38.1625329072531017
 51
99.3413553177773423
  0
ARC
  5
598
  8
0
 62
     1
 10
2480.2762539024738544
 20
459.5789274854304267
 30
0.0
 40
138.4762647279142129
 50
67.895953595770564
 51
141.3805593622761876
  0
LINE
  5
599
  8
0
 62
     1
 10
2532.3834455299738693
 20
587.8774718017647274
 30
0.0
 11
2532.3834455299738693
 21
616.1261301796082535
 31
0.0
  0
LINE
  5
59A
  8
0
 62
     1
 10
2532.3834455299738693
 20
640.0359359772477319
 30
0.0
 11
2532.3834455299729598
 21
1092.6932733248800105
 31
0.0
  0
LINE
  5
59B
  8
0
 62
     1
 10
2532.3834455299738693
 20
1123.754278083087911
 30
0.0
 11
2532.3834455299747788
 21
1218.1999851115790534
 31
0.0
  0
ARC
  5
59C
  8
0
 62
     1
 10
2531.8786840021980424
 20
642.0052660307535461
 30
0.0
 40
2.0329891931747448
 50
199.526297957069886
 51
284.3760739491689264
  0
ARC
  5
59D
  8
0
 62
     1
 10
2514.6128199506229066
 20
619.1010451067166969
 30
0.0
 40
17.6148029709941198
 50
242.8065444898824978
 51
350.1678681358609992
  0
ARC
  5
59E
  8
0
 62
     1
 10
2532.17994622260494
 20
616.0622635397919566
 30
0.0
 40
0.2132859952765542
 50
17.424050565982359
 51
171.6859541572819126
  0
ARC
  5
59F
  8
0
 62
     1
 10
2480.2030725187401003
 20
597.9169347643645551
 30
0.0
 40
26.9308571346413395
 50
11.8196543517366397
 51
78.3473965035708915
  0
ARC
  5
5A0
  8
0
 62
     1
 10
2468.344657150536932
 20
527.5572179848165888
 30
0.0
 40
98.2699282952115851
 50
79.8617646863751531
 51
137.9118826893615903
  0
ARC
  5
5A1
  8
0
 62
     1
 10
2359.2398422754408784
 20
632.451827224501244
 30
0.0
 40
53.2155621328843793
 50
239.4039240682801051
 51
312.8299263692341015
  0
ARC
  5
5A2
  8
0
 62
     1
 10
2321.2365140520678324
 20
801.7774034177244857
 30
0.0
 40
21.5202396256499817
 50
222.3647242581052978
 51
357.4576633654244802
  0
ARC
  5
5A3
  8
0
 62
     1
 10
2346.0871061326361087
 20
819.3963715589869707
 30
0.0
 40
18.8735182706869402
 50
259.7712436446421975
 51
20.1255237506062983
  0
ARC
  5
5A4
  8
0
 62
     1
 10
2364.7172312815678197
 20
849.1381142160906847
 30
0.0
 40
23.2655447387017205
 50
267.7608373607627072
 51
1.1723502332709721
  0
ARC
  5
5A5
  8
0
 62
     1
 10
2381.8970906736990401
 20
898.1258023993558481
 30
0.0
 40
49.3642498137899111
 50
277.081509694271972
 51
358.731542812773796
  0
ARC
  5
5A6
  8
0
 62
     1
 10
2447.3862982118071159
 20
896.716566967938661
 30
0.0
 40
16.1401572895630601
 50
0.9861647359173804
 51
178.8765238414470105
  0
ARC
  5
5A7
  8
0
 62
     1
 10
2442.6543313909601238
 20
916.2127937890526255
 30
0.0
 40
28.3706568895302489
 50
317.3587691290304065
 51
80.6160418926517082
  0
ARC
  5
5A8
  8
0
 62
     1
 10
2433.1421539270609173
 20
960.8909682793180309
 30
0.0
 40
19.6883013989465603
 50
312.8690959277561774
 51
39.8573662865027316
  0
ARC
  5
5A9
  8
0
 62
     1
 10
2466.8173438445828651
 20
968.4243601752259565
 30
0.0
 40
19.2453886999587986
 50
99.6167063500955408
 51
164.6812335593380112
  0
ARC
  5
5AA
  8
0
 62
     1
 10
2453.7125581796271945
 20
1030.7316867588428977
 30
0.0
 40
44.4466233461065485
 50
282.8563750423176089
 51
48.2110932867387874
  0
ARC
  5
5AB
  8
0
 62
     1
 10
2447.3132989789328349
 20
945.4658734815556045
 30
0.0
 40
1.2625181569970949
 50
127.9657278779792051
 51
268.4958812912552162
  0
ARC
  5
5AC
  8
0
 62
     1
 10
2485.6509460064821724
 20
1065.7228912937719087
 30
0.0
 40
2.9680439909146852
 50
83.6370857877939358
 51
218.5969432779475028
  0
ARC
  5
5AD
  8
0
 62
     1
 10
2488.8261107387102129
 20
1104.413045305796004
 30
0.0
 40
35.8535459123936278
 50
265.4467907873784043
 51
342.3380120878260868
  0
ARC
  5
5AE
  8
0
 62
     1
 10
2527.6404608267239382
 20
1092.5999750128930827
 30
0.0
 40
4.743902240801094
 50
358.8730914104384055
 51
168.6319979320317088
  0
ARC
  5
5AF
  8
0
 62
     1
 10
2527.1796028127118916
 20
1124.5719664666210065
 30
0.0
 40
5.2676933584411616
 50
226.3903497801038043
 51
351.0700366445365148
  0
ARC
  5
5B0
  8
0
 62
     1
 10
2494.3997949654558397
 20
1117.1647773084830533
 30
0.0
 40
29.3670989602167687
 50
7.0277874094615669
 51
65.0979239735148525
  0
ARC
  5
5B1
  8
0
 62
     1
 10
2507.815167810722869
 20
1146.3102052029100832
 30
0.0
 40
2.7194287488242388
 50
105.8795965792799052
 51
247.2917024304015001
  0
ARC
  5
5B2
  8
0
 62
     1
 10
2497.4894089340691608
 20
1166.4563796721829476
 30
0.0
 40
19.9781821506433914
 50
298.6597432656932938
 51
47.0462537432669592
  0
ARC
  5
5B3
  8
0
 62
     1
 10
2505.0268099077511579
 20
1174.4878618407160502
 30
0.0
 40
8.9639724115493067
 50
47.3271104370933529
 51
140.2318046428875959
  0
ARC
  5
5B4
  8
0
 62
     1
 10
2493.0596765007057911
 20
1184.8333772110208884
 30
0.0
 40
6.8587058109745778
 50
193.7171472774236065
 51
317.7517231391670975
  0
ARC
  5
5B5
  8
0
 62
     1
 10
2508.6262682470987784
 20
1189.8098766186080866
 30
0.0
 40
23.1895815307590283
 50
84.5437776265594749
 51
196.5430379295108025
  0
ARC
  5
5B6
  8
0
 62
     1
 10
2512.7405458268581242
 20
1226.8695350210580273
 30
0.0
 40
14.1049669010056196
 50
262.2203831346952825
 51
334.4425395577890185
  0
ARC
  5
5B7
  8
0
 62
     1
 10
2528.7550669168381319
 20
1219.0388915972259838
 30
0.0
 40
3.7240965954078469
 50
346.9815720965628998
 51
152.0491834588075903
  0
ARC
  5
5B8
  8
0
 62
     1
 10
2353.4771441317839162
 20
913.2338577946965188
 30
0.0
 40
24.497722050577579
 50
194.121690861304188
 51
331.5969049277426848
  0
ARC
  5
5B9
  8
0
 62
     1
 10
2360.8884846209248281
 20
914.4430395879379603
 30
0.0
 40
31.9864240423714499
 50
115.6565201126069979
 51
192.9831045837069894
  0
ARC
  5
5BA
  8
0
 62
     1
 10
2386.9003074515749176
 20
912.2252241039349201
 30
0.0
 40
15.9468296708556192
 50
13.4824834361320001
 51
221.8731087884785893
  0
ARC
  5
5BB
  8
0
 62
     1
 10
2431.3896386680808064
 20
916.9126540899777638
 30
0.0
 40
26.1946489021995497
 50
96.7124852867003
 51
181.4025797705355103
  0
ARC
  5
5BC
  8
0
 62
     1
 10
2403.7737802722581364
 20
916.3752886951014034
 30
0.0
 40
1.4328229534160439
 50
197.5517357969619923
 51
355.8453614555659215
  0
ARC
  5
5BD
  8
0
 62
     1
 10
2427.9031425192911229
 20
944.499586959020121
 30
0.0
 40
1.6282020456703461
 50
285.1191060264195016
 51
66.7391975009417564
  0
ARC
  5
5BE
  8
0
 62
     1
 10
2439.4048010381980021
 20
971.2961776810795982
 30
0.0
 40
27.5324810314189605
 50
169.8983364611929119
 51
246.7717962189080083
  0
ARC
  5
5BF
  8
0
 62
     1
 10
2401.7252648711992151
 20
967.7016199865718136
 30
0.0
 40
13.51902408411331
 50
38.5424444758221725
 51
161.921690233525311
  0
ARC
  5
5C0
  8
0
 62
     1
 10
2385.873683869596789
 20
958.4848057598236437
 30
0.0
 40
13.7434055594568196
 50
223.6726165632423999
 51
77.3918157636897632
  0
ARC
  5
5C1
  8
0
 62
     1
 10
2374.5631552681588801
 20
947.4252164017624409
 30
0.0
 40
2.083117025435075
 50
48.8791376829734219
 51
197.5067435124497877
  0
ARC
  5
5C2
  8
0
 62
     1
 10
2360.0064711951958998
 20
943.597276488745365
 30
0.0
 40
12.9712982656993105
 50
181.4201924888363919
 51
14.28816158917388
  0
ARC
  5
5C3
  8
0
 62
     1
 10
2465.1838403406959515
 20
1107.1299136291379455
 30
0.0
 40
25.7489145840260214
 50
327.718284373776612
 51
64.0092250404958776
  0
ARC
  5
5C4
  8
0
 62
     1
 10
2484.300489271790866
 20
1113.3731757723380724
 30
0.0
 40
22.9830127404411897
 50
136.3684569675793057
 51
199.2246007054438053
  0
ARC
  5
5C5
  8
0
 62
     1
 10
2470.8975873956551368
 20
1091.9914759389100709
 30
0.0
 40
16.1149646351709599
 50
4.9353298229308944
 51
120.9943782454283934
  0
ARC
  5
5C6
  8
0
 62
     1
 10
2472.874186568811183
 20
1122.9370227469480596
 30
0.0
 40
8.1703634494725037
 50
63.9074515210613967
 51
129.6057757545922868
  0
ARC
  5
5C7
  8
0
 62
     1
 10
2151.1665893238618992
 20
1205.4306167401759922
 30
0.0
 40
288.7269932123145963
 50
328.096170495316187
 51
1.967300861517703
  0
ARC
  5
5C8
  8
0
 62
     1
 10
2437.2999655808589523
 20
1215.3957262934070513
 30
0.0
 40
2.4240234123238191
 50
358.7385815918140111
 51
148.7475844334902888
  0
ARC
  5
5C9
  8
0
 62
     1
 10
2393.9616382708782112
 20
1243.2964172795650484
 30
0.0
 40
49.1196619597323902
 50
251.4744261872922095
 51
327.1520269054390155
  0
ARC
  5
5CA
  8
0
 62
     1
 10
2407.548443645775933
 20
1290.245095514967943
 30
0.0
 40
97.9735765060454185
 50
219.1856131820931068
 51
252.6640951054278901
  0
ARC
  5
5CB
  8
0
 62
     1
 10
2330.3373297430562161
 20
1226.8221465746848935
 30
0.0
 40
1.9815647782620669
 50
50.084520693559071
 51
203.9298269366240959
  0
ARC
  5
5CC
  8
0
 62
     1
 10
2006.1967497850559994
 20
963.395999949867587
 30
0.0
 40
415.7724447672380279
 50
23.5408001525722916
 51
39.1719127694113212
  0
ARC
  5
5CD
  8
0
 62
     1
 10
2277.8172622957758904
 20
1080.3233011174090734
 30
0.0
 40
120.0632347570537064
 50
347.0069539747789804
 51
24.1562482107611913
  0
ARC
  5
5CE
  8
0
 62
     1
 10
2395.5927784395189519
 20
1053.2371285298290786
 30
0.0
 40
0.7915839523194156
 50
173.3243830928747116
 51
329.8733623684702252
  0
ARC
  5
5CF
  8
0
 62
     1
 10
2306.775390911976956
 20
1027.9710042822100604
 30
0.0
 40
1.44044182461768
 50
177.9768568279525027
 51
289.7632043291388868
  0
ARC
  5
5D0
  8
0
 62
     1
 10
2327.1896831693347849
 20
1025.5120187781978984
 30
0.0
 40
19.9577548799784097
 50
107.2238049567541935
 51
176.8307181806738129
  0
ARC
  5
5D1
  8
0
 62
     1
 10
2336.4805478171988398
 20
1046.5626523830310362
 30
0.0
 40
15.32988758027156
 50
187.4507092413244038
 51
321.1886531062999097
  0
ARC
  5
5D2
  8
0
 62
     1
 10
2281.4335782832449695
 20
1089.34581794932501
 30
0.0
 40
85.0459109548928751
 50
321.9728023217026021
 51
28.4873808289634312
  0
ARC
  5
5D3
  8
0
 62
     1
 10
1728.0395045123009368
 20
806.352990516895261
 30
0.0
 40
706.577931294337759
 50
27.2530249077472888
 51
35.2112818072062765
  0
ARC
  5
5D4
  8
0
 62
     1
 10
2397.9647134850411021
 20
1297.4971837255479841
 30
0.0
 40
75.9072929717283102
 50
211.1959115740583002
 51
262.7220757365133181
  0
ARC
  5
5D5
  8
0
 62
     1
 10
2391.620384755458872
 20
1242.3611053905578956
 30
0.0
 40
20.423424844214189
 50
260.7816120268112741
 51
318.4250302347143133
  0
ARC
  5
5D6
  8
0
 62
     1
 10
2400.8011881834240739
 20
1234.2180214871070802
 30
0.0
 40
8.1516292934572441
 50
318.4205852606240228
 51
44.5347081839067869
  0
ARC
  5
5D7
  8
0
 62
     1
 10
2410.1745353339379108
 20
1243.6095567339339141
 30
0.0
 40
5.1180257390007053
 50
107.9479750767685005
 51
225.8850877066479939
  0
ARC
  5
5D8
  8
0
 62
     1
 10
2405.0038098986051409
 20
1260.7359974953369601
 30
0.0
 40
12.7733932053935
 50
286.3398339312417988
 51
348.4560367602031192
  0
POLYLINE
  5
5D9
  8
0
 62
     7
 66
     1
 10
0.0
 20
0.0
 30
0.0
 70
     1
  0
VERTEX
  5
640
  8
0
 62
     7
 10
1947.3060904199510333
 20
2110.3907249132289508
 30
0.0
  0
VERTEX
  5
641
  8
0
 62
     7
 10
2663.3852796635101186
 20
2110.3907249132289508
 30
0.0
  0
VERTEX
  5
642
  8
0
 62
     7
 10
2663.3852796635101186
 20
405.9688529264296903
 30
0.0
  0
VERTEX
  5
643
  8
0
 62
     7
 10
1947.3060904199510333
 20
405.9688529264296903
 30
0.0
  0
SEQEND
  5
644
  8
0
 62
     7
  0
ENDSEC
  0
EOF
