  0
SECTION
  2
HEADER
  9
$ACADVER
  1
AC1009
  9
$INSBASE
 10
0.0
 20
0.0
 30
0.0
  9
$EXTMIN
 10
1.6796016534062801
 20
23921.06545348914
 30
-0.0279476441129418
  9
$EXTMAX
 10
5898.5664256416212
 20
25407.278702078522
 30
0.0089034793937799
  9
$LIMMIN
 10
0.0
 20
0.0
  9
$LIMMAX
 10
420.0
 20
297.0
  9
$ORTHOMODE
 70
     0
  9
$REGENMODE
 70
     1
  9
$FILLMODE
 70
     1
  9
$QTEXTMODE
 70
     0
  9
$MIRRTEXT
 70
     0
  9
$DRAGMODE
 70
     2
  9
$LTSCALE
 40
1.0
  9
$OSMODE
 70
  3071
  9
$ATTMODE
 70
     1
  9
$TEXTSIZE
 40
2.5
  9
$TRACEWID
 40
1.0
  9
$TEXTSTYLE
  7
STANDARD
  9
$CLAYER
  8
0
  9
$CELTYPE
  6
BYLAYER
  9
$CECOLOR
 62
   256
  9
$DIMSCALE
 40
1.0
  9
$DIMASZ
 40
2.5
  9
$DIMEXO
 40
0.625
  9
$DIMDLI
 40
3.75
  9
$DIMRND
 40
0.0
  9
$DIMDLE
 40
0.0
  9
$DIMEXE
 40
1.25
  9
$DIMTP
 40
0.0
  9
$DIMTM
 40
0.0
  9
$DIMTXT
 40
2.5
  9
$DIMCEN
 40
2.5
  9
$DIMTSZ
 40
0.0
  9
$DIMTOL
 70
     0
  9
$DIMLIM
 70
     0
  9
$DIMTIH
 70
     0
  9
$DIMTOH
 70
     0
  9
$DIMSE1
 70
     0
  9
$DIMSE2
 70
     0
  9
$DIMTAD
 70
     1
  9
$DIMZIN
 70
     8
  9
$DIMBLK
  1

  9
$DIMASO
 70
     1
  9
$DIMSHO
 70
     1
  9
$DIMPOST
  1

  9
$DIMAPOST
  1

  9
$DIMALT
 70
     0
  9
$DIMALTD
 70
     3
  9
$DIMALTF
 40
0.03937007874016
  9
$DIMLFAC
 40
1.0
  9
$DIMTOFL
 70
     1
  9
$DIMTVP
 40
0.0
  9
$DIMTIX
 70
     0
  9
$DIMSOXD
 70
     0
  9
$DIMSAH
 70
     0
  9
$DIMBLK1
  1

  9
$DIMBLK2
  1

  9
$DIMSTYLE
  2
ISO-25
  9
$DIMCLRD
 70
     0
  9
$DIMCLRE
 70
     0
  9
$DIMCLRT
 70
     0
  9
$DIMTFAC
 40
1.0
  9
$DIMGAP
 40
0.625
  9
$LUNITS
 70
     2
  9
$LUPREC
 70
     4
  9
$SKETCHINC
 40
1.0
  9
$FILLETRAD
 40
40.0
  9
$AUNITS
 70
     0
  9
$AUPREC
 70
     0
  9
$MENU
  1
.
  9
$ELEVATION
 40
0.0
  9
$PELEVATION
 40
0.0
  9
$THICKNESS
 40
0.0
  9
$LIMCHECK
 70
     0
  9
$BLIPMODE
 70
     0
  9
$CHAMFERA
 40
0.0
  9
$CHAMFERB
 40
0.0
  9
$SKPOLY
 70
     0
  9
$TDCREATE
 40
2457253.0403553708
  9
$TDUPDATE
 40
2457861.6053075809
  9
$TDINDWG
 40
0.7187748611
  9
$TDUSRTIMER
 40
0.7187745023
  9
$USRTIMER
 70
     1
  9
$ANGBASE
 50
0.0
  9
$ANGDIR
 70
     0
  9
$PDMODE
 70
     0
  9
$PDSIZE
 40
0.0
  9
$PLINEWID
 40
0.0
  9
$COORDS
 70
     2
  9
$SPLFRAME
 70
     0
  9
$SPLINETYPE
 70
     6
  9
$SPLINESEGS
 70
     8
  9
$ATTDIA
 70
     1
  9
$ATTREQ
 70
     1
  9
$HANDLING
 70
     1
  9
$HANDSEED
  5
DBCA
  9
$SURFTAB1
 70
     6
  9
$SURFTAB2
 70
     6
  9
$SURFTYPE
 70
     6
  9
$SURFU
 70
     6
  9
$SURFV
 70
     6
  9
$UCSNAME
  2

  9
$UCSORG
 10
0.0
 20
0.0
 30
0.0
  9
$UCSXDIR
 10
1.0
 20
0.0
 30
0.0
  9
$UCSYDIR
 10
0.0
 20
1.0
 30
0.0
  9
$PUCSNAME
  2

  9
$PUCSORG
 10
0.0
 20
0.0
 30
0.0
  9
$PUCSXDIR
 10
1.0
 20
0.0
 30
0.0
  9
$PUCSYDIR
 10
0.0
 20
1.0
 30
0.0
  9
$USERI1
 70
     0
  9
$USERI2
 70
     0
  9
$USERI3
 70
     0
  9
$USERI4
 70
     0
  9
$USERI5
 70
     0
  9
$USERR1
 40
0.0
  9
$USERR2
 40
0.0
  9
$USERR3
 40
0.0
  9
$USERR4
 40
0.0
  9
$USERR5
 40
0.0
  9
$WORLDVIEW
 70
     1
  9
$SHADEDGE
 70
     3
  9
$SHADEDIF
 70
    70
  9
$TILEMODE
 70
     1
  9
$MAXACTVP
 70
    64
  9
$PLIMCHECK
 70
     0
  9
$PEXTMIN
 10
0.0
 20
0.0
 30
0.0
  9
$PEXTMAX
 10
0.0
 20
0.0
 30
0.0
  9
$PLIMMIN
 10
0.0
 20
0.0
  9
$PLIMMAX
 10
12.0
 20
9.0
  9
$UNITMODE
 70
     0
  9
$VISRETAIN
 70
     1
  9
$PLINEGEN
 70
     0
  9
$PSLTSCALE
 70
     1
  0
ENDSEC
  0
SECTION
  2
TABLES
  0
TABLE
  2
VPORT
 70
     1
  0
VPORT
  2
*ACTIVE
 70
     0
 10
0.0
 20
0.0
 11
1.0
 21
1.0
 12
3146.6811966580999
 22
22891.2744012244
 13
0.0
 23
0.0
 14
10.0
 24
10.0
 15
10.0
 25
10.0
 16
0.0
 26
0.0
 36
1.0
 17
189.56072235107411
 27
1448.7900390625
 37
0.0000000000000887
 40
4253.950087298369
 41
2.2241579558652731
 42
50.0
 43
0.0
 44
0.0
 50
0.0
 51
0.0
 71
     0
 72
 20000
 73
     1
 74
     3
 75
     0
 76
     0
 77
     0
 78
     0
  0
ENDTAB
  0
TABLE
  2
LTYPE
 70
     1
  0
LTYPE
  2
CONTINUOUS
 70
     0
  3
Solid line
 72
    65
 73
     0
 40
0.0
  0
ENDTAB
  0
TABLE
  2
LAYER
 70
     9
  0
LAYER
  2
0
 70
     0
 62
     7
  6
CONTINUOUS
  0
LAYER
  2
KATMAN_1
 70
     0
 62
     7
  6
CONTINUOUS
  0
LAYER
  2
PAFTA
 70
     0
 62
    52
  6
CONTINUOUS
  0
LAYER
  2
LAYER_1
 70
     0
 62
     7
  6
CONTINUOUS
  0
LAYER
  2
1_AHSAP_TAR_1
 70
     0
 62
    35
  6
CONTINUOUS
  0
LAYER
  2
DEFPOINTS
 70
     0
 62
     7
  6
CONTINUOUS
  0
LAYER
  2
OL��
 70
     0
 62
     7
  6
CONTINUOUS
  0
LAYER
  2
LAYER1
 70
     0
 62
     7
  6
CONTINUOUS
  0
LAYER
  2
DESEN
 70
     0
 62
     7
  6
CONTINUOUS
  0
ENDTAB
  0
TABLE
  2
STYLE
 70
     2
  0
STYLE
  2
STANDARD
 70
     0
 40
0.0
 41
1.0
 50
0.0
 71
     0
 42
2.5
  3
txt
  4

  0
STYLE
  2
ANNOTATIVE
 70
     0
 40
0.0
 41
1.0
 50
0.0
 71
     0
 42
2.5
  3
txt
  4

  0
ENDTAB
  0
TABLE
  2
VIEW
 70
     0
  0
ENDTAB
  0
TABLE
  2
UCS
 70
     0
  0
ENDTAB
  0
TABLE
  2
APPID
 70
    15
  0
APPID
  2
ACAD
 70
     0
  0
APPID
  2
ACADANNOTATIVE
 70
     0
  0
APPID
  2
ACAD_PSEXT
 70
     0
  0
APPID
  2
ACADANNOPO
 70
     0
  0
APPID
  2
ACAD_DSTYLE_DIMJAG
 70
     0
  0
APPID
  2
ACAD_DSTYLE_DIMTALN
 70
     0
  0
APPID
  2
ACAD_MLEADERVER
 70
     0
  0
APPID
  2
ACAD_NAV_VCDISPLAY
 70
     0
  0
APPID
  2
ACAD_EXEMPT_FROM_CAD_STANDARDS
 70
     0
  0
APPID
  2
ACAD_DSTYLE_DIMRADIAL_EXTENSION
 70
     0
  0
APPID
  2
ACAD_OBJECT_CHANGE_GUID
 70
     0
  0
APPID
  2
ACDBBLOCKREPETAG
 70
     0
  0
APPID
  2
GRADIENTCOLOR1ACI
 70
     0
  0
APPID
  2
GRADIENTCOLOR2ACI
 70
     0
  0
APPID
  2
ACAECLAYERSTANDARD
 70
     0
  0
ENDTAB
  0
TABLE
  2
DIMSTYLE
 70
     4
  0
DIMSTYLE
  2
STANDARD
 70
     0
  3

  4

  5

  6

  7

 40
1.0
 41
0.18
 42
0.0625
 43
0.38
 44
0.18
 45
0.0
 46
0.0
 47
0.0
 48
0.0
140
0.18
141
0.09
142
0.0
143
25.399999999999999
144
1.0
145
0.0
146
1.0
147
0.09
 71
     0
 72
     0
 73
     1
 74
     1
 75
     0
 76
     0
 77
     0
 78
     0
170
     0
171
     2
172
     0
173
     0
174
     0
175
     0
176
     0
177
     0
178
     0
  0
DIMSTYLE
  2
ANNOTATIVE
 70
     0
  3

  4

  5

  6

  7

 40
0.0
 41
2.5
 42
0.625
 43
3.75
 44
1.25
 45
0.0
 46
0.0
 47
0.0
 48
0.0
140
2.5
141
2.5
142
0.0
143
0.03937007874016
144
1.0
145
0.0
146
1.0
147
0.625
 71
     0
 72
     0
 73
     0
 74
     0
 75
     0
 76
     0
 77
     1
 78
     8
170
     0
171
     3
172
     1
173
     0
174
     0
175
     0
176
     0
177
     0
178
     0
  0
DIMSTYLE
  2
ISO-25
 70
     0
  3

  4

  5

  6

  7

 40
1.0
 41
2.5
 42
0.625
 43
3.75
 44
1.25
 45
0.0
 46
0.0
 47
0.0
 48
0.0
140
2.5
141
2.5
142
0.0
143
0.03937007874016
144
1.0
145
0.0
146
1.0
147
0.625
 71
     0
 72
     0
 73
     0
 74
     0
 75
     0
 76
     0
 77
     1
 78
     8
170
     0
171
     3
172
     1
173
     0
174
     0
175
     0
176
     0
177
     0
178
     0
  0
DIMSTYLE
  2
OZAN_B�Y�K
 70
     0
  3

  4

  5
OBLIQUE
  6

  7

 40
1.0
 41
5.0
 42
10.0
 43
5.0
 44
5.0
 45
0.0
 46
0.0
 47
0.0
 48
0.0
140
20.0
141
5.0
142
0.0
143
0.03937007874016
144
1.0
145
0.0
146
1.0
147
10.0
 71
     0
 72
     0
 73
     0
 74
     1
 75
     0
 76
     0
 77
     1
 78
     8
170
     0
171
     3
172
     1
173
     0
174
     0
175
     0
176
     0
177
     0
178
     0
  0
ENDTAB
  0
ENDSEC
  0
SECTION
  2
BLOCKS
  0
BLOCK
  8
0
  2
$MODEL_SPACE
 70
     0
 10
0.0
 20
0.0
 30
0.0
  3
$MODEL_SPACE
  1

  0
ENDBLK
  5
2597
  8
0
  0
BLOCK
 67
     1
  8
0
  2
$PAPER_SPACE
 70
     0
 10
0.0
 20
0.0
 30
0.0
  3
$PAPER_SPACE
  1

  0
ENDBLK
  5
2593
 67
     1
  8
0
  0
BLOCK
  8
0
  2
*D2
 70
     1
 10
0.0
 20
0.0
 30
0.0
  3
*D2
  1

  0
LINE
  5
B1FD
  8
0
  6
CONTINUOUS
 62
     0
 10
-1115.444657254264
 20
5627.7795670546438
 30
0.0
 11
-1115.444657254264
 21
5696.8739273423016
 31
0.0
  0
LINE
  5
B1FE
  8
0
  6
CONTINUOUS
 62
     0
 10
-505.44465725426369
 20
5627.7795670546438
 30
0.0
 11
-505.44465725426369
 21
5696.8739273423016
 31
0.0
  0
LINE
  5
B1FF
  8
0
  6
CONTINUOUS
 62
     0
 10
-1115.264657254264
 20
5696.6939273423022
 30
0.0
 11
-811.05965725426381
 21
5696.6939273423022
 31
0.0
  0
LINE
  5
B200
  8
0
  6
CONTINUOUS
 62
     0
 10
-505.6246572542637
 20
5696.6939273423022
 30
0.0
 11
-809.82965725426379
 21
5696.6939273423022
 31
0.0
  0
SOLID
  5
B201
  8
0
  6
CONTINUOUS
 62
     0
 10
-1115.264657254264
 20
5696.7239273423011
 30
0.0
 11
-1115.264657254264
 21
5696.6639273423016
 31
0.0
 12
-1115.444657254264
 22
5696.6939273423022
 32
0.0
 13
-1115.444657254264
 23
5696.6939273423022
 33
0.0
  0
SOLID
  5
B202
  8
0
  6
CONTINUOUS
 62
     0
 10
-505.6246572542637
 20
5696.7239273423011
 30
0.0
 11
-505.6246572542637
 21
5696.6639273423016
 31
0.0
 12
-505.44465725426369
 22
5696.6939273423022
 32
0.0
 13
-505.44465725426369
 23
5696.6939273423022
 33
0.0
  0
INSERT
  5
B203
  8
0
  2
*U20
 10
0.0
 20
0.0
 30
0.0
  0
POINT
  5
B204
  8
DEFPOINTS
  6
CONTINUOUS
 62
     0
 10
-1115.444657254264
 20
5627.7170670546438
 30
0.0
  0
POINT
  5
B205
  8
DEFPOINTS
  6
CONTINUOUS
 62
     0
 10
-505.44465725426369
 20
5627.7170670546438
 30
0.0
  0
POINT
  5
B206
  8
DEFPOINTS
  6
CONTINUOUS
 62
     0
 10
-505.44465725426369
 20
5696.6939273423022
 30
0.0
  0
ENDBLK
  5
B163
  8
0
  0
BLOCK
  8
0
  2
*D3
 70
     1
 10
0.0
 20
0.0
 30
0.0
  3
*D3
  1

  0
LINE
  5
B207
  8
0
  6
CONTINUOUS
 62
     0
 10
-505.3821572542638
 20
5627.7170670546438
 30
0.0
 11
-386.89813620724368
 21
5627.7170670546438
 31
0.0
  0
LINE
  5
B208
  8
0
  6
CONTINUOUS
 62
     0
 10
-505.3821572542638
 20
4917.7170670546438
 30
0.0
 11
-386.89813620724391
 21
4917.7170670546438
 31
0.0
  0
LINE
  5
B209
  8
0
  6
CONTINUOUS
 62
     0
 10
-387.07813620724369
 20
5627.5370670546426
 30
0.0
 11
-387.0781362072438
 21
5272.8970670546441
 31
0.0
  0
LINE
  5
B20A
  8
0
  6
CONTINUOUS
 62
     0
 10
-387.07813620724392
 20
4917.8970670546441
 30
0.0
 11
-387.0781362072438
 21
5272.5370670546436
 31
0.0
  0
SOLID
  5
B20B
  8
0
  6
CONTINUOUS
 62
     0
 10
-387.10813620724372
 20
5627.5370670546426
 30
0.0
 11
-387.04813620724377
 21
5627.5370670546426
 31
0.0
 12
-387.07813620724369
 22
5627.7170670546438
 32
0.0
 13
-387.07813620724369
 23
5627.7170670546438
 33
0.0
  0
SOLID
  5
B20C
  8
0
  6
CONTINUOUS
 62
     0
 10
-387.10813620724389
 20
4917.8970670546441
 30
0.0
 11
-387.04813620724389
 21
4917.8970670546441
 31
0.0
 12
-387.07813620724392
 22
4917.7170670546438
 32
0.0
 13
-387.07813620724392
 23
4917.7170670546438
 33
0.0
  0
INSERT
  5
B20D
  8
0
  2
*U21
 10
0.0
 20
0.0
 30
0.0
  0
POINT
  5
B20E
  8
DEFPOINTS
  6
CONTINUOUS
 62
     0
 10
-505.44465725426369
 20
5627.7170670546438
 30
0.0
  0
POINT
  5
B20F
  8
DEFPOINTS
  6
CONTINUOUS
 62
     0
 10
-505.44465725426369
 20
4917.7170670546438
 30
0.0
  0
POINT
  5
B210
  8
DEFPOINTS
  6
CONTINUOUS
 62
     0
 10
-387.07813620724392
 20
4917.7170670546438
 30
0.0
  0
ENDBLK
  5
B170
  8
0
  0
BLOCK
  8
0
  2
*D4
 70
     1
 10
0.0
 20
0.0
 30
0.0
  3
*D4
  1

  0
LINE
  5
B211
  8
0
  6
CONTINUOUS
 62
     0
 10
-2306.9577130910752
 20
5442.7795670546429
 30
0.0
 11
-2306.9577130910752
 21
5524.4328735094778
 31
0.0
  0
LINE
  5
B212
  8
0
  6
CONTINUOUS
 62
     0
 10
-1446.957713091075
 20
5442.7795670546429
 30
0.0
 11
-1446.957713091075
 21
5524.4328735094778
 31
0.0
  0
LINE
  5
B213
  8
0
  6
CONTINUOUS
 62
     0
 10
-2306.7777130910749
 20
5524.2528735094784
 30
0.0
 11
-1877.602713091075
 21
5524.2528735094784
 31
0.0
  0
LINE
  5
B214
  8
0
  6
CONTINUOUS
 62
     0
 10
-1447.1377130910751
 20
5524.2528735094784
 30
0.0
 11
-1876.312713091075
 21
5524.2528735094784
 31
0.0
  0
SOLID
  5
B215
  8
0
  6
CONTINUOUS
 62
     0
 10
-2306.7777130910749
 20
5524.2828735094781
 30
0.0
 11
-2306.7777130910749
 21
5524.2228735094777
 31
0.0
 12
-2306.9577130910752
 22
5524.2528735094784
 32
0.0
 13
-2306.9577130910752
 23
5524.2528735094784
 33
0.0
  0
SOLID
  5
B216
  8
0
  6
CONTINUOUS
 62
     0
 10
-1447.1377130910751
 20
5524.2828735094781
 30
0.0
 11
-1447.1377130910751
 21
5524.2228735094777
 31
0.0
 12
-1446.957713091075
 22
5524.2528735094784
 32
0.0
 13
-1446.957713091075
 23
5524.2528735094784
 33
0.0
  0
INSERT
  5
B217
  8
0
  2
*U22
 10
0.0
 20
0.0
 30
0.0
  0
POINT
  5
B218
  8
DEFPOINTS
  6
CONTINUOUS
 62
     0
 10
-2306.9577130910752
 20
5442.7170670546438
 30
0.0
  0
POINT
  5
B219
  8
DEFPOINTS
  6
CONTINUOUS
 62
     0
 10
-1446.957713091075
 20
5442.7170670546438
 30
0.0
  0
POINT
  5
B21A
  8
DEFPOINTS
  6
CONTINUOUS
 62
     0
 10
-1446.957713091075
 20
5524.2528735094784
 30
0.0
  0
ENDBLK
  5
B17D
  8
0
  0
BLOCK
  8
0
  2
*D5
 70
     1
 10
0.0
 20
0.0
 30
0.0
  3
*D5
  1

  0
LINE
  5
B21B
  8
0
  6
CONTINUOUS
 62
     0
 10
-1446.895213091075
 20
5442.7170670546438
 30
0.0
 11
-1339.464857011254
 21
5442.7170670546438
 31
0.0
  0
LINE
  5
B21C
  8
0
  6
CONTINUOUS
 62
     0
 10
-1446.895213091075
 20
4917.7170670546438
 30
0.0
 11
-1339.464857011254
 21
4917.7170670546438
 31
0.0
  0
LINE
  5
B21D
  8
0
  6
CONTINUOUS
 62
     0
 10
-1339.6448570112541
 20
5442.5370670546436
 30
0.0
 11
-1339.6448570112541
 21
5180.3970670546441
 31
0.0
  0
LINE
  5
B21E
  8
0
  6
CONTINUOUS
 62
     0
 10
-1339.6448570112541
 20
4917.8970670546441
 30
0.0
 11
-1339.6448570112541
 21
5180.0370670546436
 31
0.0
  0
SOLID
  5
B21F
  8
0
  6
CONTINUOUS
 62
     0
 10
-1339.6748570112541
 20
5442.5370670546436
 30
0.0
 11
-1339.6148570112539
 21
5442.5370670546436
 31
0.0
 12
-1339.6448570112541
 22
5442.7170670546438
 32
0.0
 13
-1339.6448570112541
 23
5442.7170670546438
 33
0.0
  0
SOLID
  5
B220
  8
0
  6
CONTINUOUS
 62
     0
 10
-1339.6748570112541
 20
4917.8970670546441
 30
0.0
 11
-1339.6148570112539
 21
4917.8970670546441
 31
0.0
 12
-1339.6448570112541
 22
4917.7170670546438
 32
0.0
 13
-1339.6448570112541
 23
4917.7170670546438
 33
0.0
  0
INSERT
  5
B221
  8
0
  2
*U23
 10
0.0
 20
0.0
 30
0.0
  0
POINT
  5
B222
  8
DEFPOINTS
  6
CONTINUOUS
 62
     0
 10
-1446.957713091075
 20
5442.7170670546438
 30
0.0
  0
POINT
  5
B223
  8
DEFPOINTS
  6
CONTINUOUS
 62
     0
 10
-1446.957713091075
 20
4917.7170670546438
 30
0.0
  0
POINT
  5
B224
  8
DEFPOINTS
  6
CONTINUOUS
 62
     0
 10
-1339.6448570112541
 20
4917.7170670546438
 30
0.0
  0
ENDBLK
  5
B18A
  8
0
  0
BLOCK
  8
0
  2
*D6
 70
     1
 10
0.0
 20
0.0
 30
0.0
  3
*D6
  1

  0
LINE
  5
B225
  8
0
  6
CONTINUOUS
 62
     0
 10
-3857.3848790177799
 20
6420.7793670546453
 30
0.0
 11
-3857.3848790177799
 21
6499.1341465844644
 31
0.0
  0
LINE
  5
B226
  8
0
  6
CONTINUOUS
 62
     0
 10
-2657.384879733328
 20
6420.7793670546453
 30
0.0
 11
-2657.384879733328
 21
6499.1341465844644
 31
0.0
  0
LINE
  5
B227
  8
0
  6
CONTINUOUS
 62
     0
 10
-3857.2048790177801
 20
6498.9541465844641
 30
0.0
 11
-3258.0748793755538
 21
6498.9541465844641
 31
0.0
  0
LINE
  5
B228
  8
0
  6
CONTINUOUS
 62
     0
 10
-2657.5648797333279
 20
6498.9541465844641
 30
0.0
 11
-3256.6948793755541
 21
6498.9541465844641
 31
0.0
  0
SOLID
  5
B229
  8
0
  6
CONTINUOUS
 62
     0
 10
-3857.2048790177801
 20
6498.9841465844629
 30
0.0
 11
-3857.2048790177801
 21
6498.9241465844634
 31
0.0
 12
-3857.3848790177799
 22
6498.9541465844641
 32
0.0
 13
-3857.3848790177799
 23
6498.9541465844641
 33
0.0
  0
SOLID
  5
B22A
  8
0
  6
CONTINUOUS
 62
     0
 10
-2657.5648797333279
 20
6498.9841465844629
 30
0.0
 11
-2657.5648797333279
 21
6498.9241465844634
 31
0.0
 12
-2657.384879733328
 22
6498.9541465844641
 32
0.0
 13
-2657.384879733328
 23
6498.9541465844641
 33
0.0
  0
INSERT
  5
B22B
  8
0
  2
*U24
 10
0.0
 20
0.0
 30
0.0
  0
POINT
  5
B22C
  8
DEFPOINTS
  6
CONTINUOUS
 62
     0
 10
-3857.3848790177799
 20
6420.7168670546453
 30
0.0
  0
POINT
  5
B22D
  8
DEFPOINTS
  6
CONTINUOUS
 62
     0
 10
-2657.384879733328
 20
6420.7168670546453
 30
0.0
  0
POINT
  5
B22E
  8
DEFPOINTS
  6
CONTINUOUS
 62
     0
 10
-2657.384879733328
 20
6498.9541465844641
 30
0.0
  0
ENDBLK
  5
B197
  8
0
  0
BLOCK
  8
0
  2
*D7
 70
     1
 10
0.0
 20
0.0
 30
0.0
  3
*D7
  1

  0
LINE
  5
B22F
  8
0
  6
CONTINUOUS
 62
     0
 10
-2657.322379733328
 20
6420.7168670546453
 30
0.0
 11
-2538.7621703606769
 21
6420.7168670546453
 31
0.0
  0
LINE
  5
B230
  8
0
  6
CONTINUOUS
 62
     0
 10
-2657.322379733328
 20
4917.7170670546438
 30
0.0
 11
-2538.7621703606769
 21
4917.7170670546438
 31
0.0
  0
LINE
  5
B231
  8
0
  6
CONTINUOUS
 62
     0
 10
-2538.9421703606772
 20
6420.536867054645
 30
0.0
 11
-2538.9421703606772
 21
5669.3969670546439
 31
0.0
  0
LINE
  5
B232
  8
0
  6
CONTINUOUS
 62
     0
 10
-2538.9421703606772
 20
4917.8970670546441
 30
0.0
 11
-2538.9421703606772
 21
5669.0369670546434
 31
0.0
  0
SOLID
  5
B233
  8
0
  6
CONTINUOUS
 62
     0
 10
-2538.972170360677
 20
6420.536867054645
 30
0.0
 11
-2538.9121703606761
 21
6420.536867054645
 31
0.0
 12
-2538.9421703606772
 22
6420.7168670546453
 32
0.0
 13
-2538.9421703606772
 23
6420.7168670546453
 33
0.0
  0
SOLID
  5
B234
  8
0
  6
CONTINUOUS
 62
     0
 10
-2538.972170360677
 20
4917.8970670546441
 30
0.0
 11
-2538.9121703606761
 21
4917.8970670546441
 31
0.0
 12
-2538.9421703606772
 22
4917.7170670546438
 32
0.0
 13
-2538.9421703606772
 23
4917.7170670546438
 33
0.0
  0
INSERT
  5
B235
  8
0
  2
*U25
 10
0.0
 20
0.0
 30
0.0
  0
POINT
  5
B236
  8
DEFPOINTS
  6
CONTINUOUS
 62
     0
 10
-2657.384879733328
 20
6420.7168670546453
 30
0.0
  0
POINT
  5
B237
  8
DEFPOINTS
  6
CONTINUOUS
 62
     0
 10
-2657.384879733328
 20
4917.7170670546438
 30
0.0
  0
POINT
  5
B238
  8
DEFPOINTS
  6
CONTINUOUS
 62
     0
 10
-2538.9421703606772
 20
4917.7170670546438
 30
0.0
  0
ENDBLK
  5
B1A4
  8
0
  0
BLOCK
  8
0
  2
*D8
 70
     1
 10
0.0
 20
0.0
 30
0.0
  3
*D8
  1

  0
LINE
  5
B239
  8
0
  6
CONTINUOUS
 62
     0
 10
-5098.8330137811108
 20
5557.7795670546438
 30
0.0
 11
-5098.8330137811108
 21
5644.6433327279919
 31
0.0
  0
LINE
  5
B23A
  8
0
  6
CONTINUOUS
 62
     0
 10
-4183.8330137811099
 20
5557.7795670546438
 30
0.0
 11
-4183.8330137811099
 21
5644.6433327279919
 31
0.0
  0
LINE
  5
B23B
  8
0
  6
CONTINUOUS
 62
     0
 10
-5098.6530137811114
 20
5644.4633327279907
 30
0.0
 11
-4641.96301378111
 21
5644.4633327279907
 31
0.0
  0
LINE
  5
B23C
  8
0
  6
CONTINUOUS
 62
     0
 10
-4184.0130137811102
 20
5644.4633327279907
 30
0.0
 11
-4640.7030137811098
 21
5644.4633327279907
 31
0.0
  0
SOLID
  5
B23D
  8
0
  6
CONTINUOUS
 62
     0
 10
-5098.6530137811114
 20
5644.4933327279914
 30
0.0
 11
-5098.6530137811114
 21
5644.4333327279919
 31
0.0
 12
-5098.8330137811108
 22
5644.4633327279907
 32
0.0
 13
-5098.8330137811108
 23
5644.4633327279907
 33
0.0
  0
SOLID
  5
B23E
  8
0
  6
CONTINUOUS
 62
     0
 10
-4184.0130137811102
 20
5644.4933327279914
 30
0.0
 11
-4184.0130137811102
 21
5644.4333327279919
 31
0.0
 12
-4183.8330137811099
 22
5644.4633327279907
 32
0.0
 13
-4183.8330137811099
 23
5644.4633327279907
 33
0.0
  0
INSERT
  5
B23F
  8
0
  2
*U26
 10
0.0
 20
0.0
 30
0.0
  0
POINT
  5
B240
  8
DEFPOINTS
  6
CONTINUOUS
 62
     0
 10
-5098.8330137811108
 20
5557.7170670546429
 30
0.0
  0
POINT
  5
B241
  8
DEFPOINTS
  6
CONTINUOUS
 62
     0
 10
-4183.8330137811099
 20
5557.7170670546429
 30
0.0
  0
POINT
  5
B242
  8
DEFPOINTS
  6
CONTINUOUS
 62
     0
 10
-4183.8330137811099
 20
5644.4633327279907
 30
0.0
  0
ENDBLK
  5
B1B1
  8
0
  0
BLOCK
  8
0
  2
*D9
 70
     1
 10
0.0
 20
0.0
 30
0.0
  3
*D9
  1

  0
LINE
  5
B243
  8
0
  6
CONTINUOUS
 62
     0
 10
-4183.7705137811099
 20
5557.7170670546429
 30
0.0
 11
-4061.0290773645879
 21
5557.7170670546429
 31
0.0
  0
LINE
  5
B244
  8
0
  6
CONTINUOUS
 62
     0
 10
-4183.7705137811099
 20
4917.7170670546438
 30
0.0
 11
-4061.0290773645879
 21
4917.7170670546438
 31
0.0
  0
LINE
  5
B245
  8
0
  6
CONTINUOUS
 62
     0
 10
-4061.2090773645882
 20
5557.5370670546426
 30
0.0
 11
-4061.2090773645882
 21
5237.8970670546441
 31
0.0
  0
LINE
  5
B246
  8
0
  6
CONTINUOUS
 62
     0
 10
-4061.2090773645891
 20
4917.8970670546441
 30
0.0
 11
-4061.2090773645882
 21
5237.5370670546436
 31
0.0
  0
SOLID
  5
B247
  8
0
  6
CONTINUOUS
 62
     0
 10
-4061.2390773645889
 20
5557.5370670546426
 30
0.0
 11
-4061.1790773645871
 21
5557.5370670546426
 31
0.0
 12
-4061.2090773645882
 22
5557.7170670546429
 32
0.0
 13
-4061.2090773645882
 23
5557.7170670546429
 33
0.0
  0
SOLID
  5
B248
  8
0
  6
CONTINUOUS
 62
     0
 10
-4061.2390773645889
 20
4917.8970670546441
 30
0.0
 11
-4061.179077364588
 21
4917.8970670546441
 31
0.0
 12
-4061.2090773645891
 22
4917.7170670546438
 32
0.0
 13
-4061.2090773645891
 23
4917.7170670546438
 33
0.0
  0
INSERT
  5
B249
  8
0
  2
*U27
 10
0.0
 20
0.0
 30
0.0
  0
POINT
  5
B24A
  8
DEFPOINTS
  6
CONTINUOUS
 62
     0
 10
-4183.8330137811099
 20
5557.7170670546429
 30
0.0
  0
POINT
  5
B24B
  8
DEFPOINTS
  6
CONTINUOUS
 62
     0
 10
-4183.8330137811099
 20
4917.7170670546438
 30
0.0
  0
POINT
  5
B24C
  8
DEFPOINTS
  6
CONTINUOUS
 62
     0
 10
-4061.2090773645891
 20
4917.7170670546438
 30
0.0
  0
ENDBLK
  5
B1BE
  8
0
  0
BLOCK
  8
0
  2
*D10
 70
     1
 10
0.0
 20
0.0
 30
0.0
  3
*D10
  1

  0
LINE
  5
B24D
  8
0
  6
CONTINUOUS
 62
     0
 10
-6278.1959331011076
 20
5557.7795670546438
 30
0.0
 11
-6278.1959331011076
 21
5644.6433327279919
 31
0.0
  0
LINE
  5
B24E
  8
0
  6
CONTINUOUS
 62
     0
 10
-5343.1959331011076
 20
5557.7795670546438
 30
0.0
 11
-5343.1959331011076
 21
5644.6433327279919
 31
0.0
  0
LINE
  5
B24F
  8
0
  6
CONTINUOUS
 62
     0
 10
-6278.0159331011082
 20
5644.4633327279907
 30
0.0
 11
-5811.3559331011083
 21
5644.4633327279907
 31
0.0
  0
LINE
  5
B250
  8
0
  6
CONTINUOUS
 62
     0
 10
-5343.3759331011079
 20
5644.4633327279907
 30
0.0
 11
-5810.0359331011077
 21
5644.4633327279907
 31
0.0
  0
SOLID
  5
B251
  8
0
  6
CONTINUOUS
 62
     0
 10
-6278.0159331011082
 20
5644.4933327279914
 30
0.0
 11
-6278.0159331011082
 21
5644.4333327279919
 31
0.0
 12
-6278.1959331011076
 22
5644.4633327279907
 32
0.0
 13
-6278.1959331011076
 23
5644.4633327279907
 33
0.0
  0
SOLID
  5
B252
  8
0
  6
CONTINUOUS
 62
     0
 10
-5343.3759331011079
 20
5644.4933327279914
 30
0.0
 11
-5343.3759331011079
 21
5644.4333327279919
 31
0.0
 12
-5343.1959331011076
 22
5644.4633327279907
 32
0.0
 13
-5343.1959331011076
 23
5644.4633327279907
 33
0.0
  0
INSERT
  5
B253
  8
0
  2
*U28
 10
0.0
 20
0.0
 30
0.0
  0
POINT
  5
B254
  8
DEFPOINTS
  6
CONTINUOUS
 62
     0
 10
-6278.1959331011076
 20
5557.7170670546429
 30
0.0
  0
POINT
  5
B255
  8
DEFPOINTS
  6
CONTINUOUS
 62
     0
 10
-5343.1959331011076
 20
5557.7170670546429
 30
0.0
  0
POINT
  5
B256
  8
DEFPOINTS
  6
CONTINUOUS
 62
     0
 10
-5343.1959331011076
 20
5644.4633327279907
 30
0.0
  0
ENDBLK
  5
B1CB
  8
0
  0
BLOCK
  8
0
  2
*D11
 70
     1
 10
0.0
 20
0.0
 30
0.0
  3
*D11
  1

  0
LINE
  5
B257
  8
0
  6
CONTINUOUS
 62
     0
 10
-5343.1334331011076
 20
5557.7170670546429
 30
0.0
 11
-5234.9333623321918
 21
5557.7170670546429
 31
0.0
  0
LINE
  5
B258
  8
0
  6
CONTINUOUS
 62
     0
 10
-5343.1334331011076
 20
4917.7170670546438
 30
0.0
 11
-5234.9333623321918
 21
4917.7170670546438
 31
0.0
  0
LINE
  5
B259
  8
0
  6
CONTINUOUS
 62
     0
 10
-5235.1133623321921
 20
5557.5370670546426
 30
0.0
 11
-5235.1133623321921
 21
5237.8970670546441
 31
0.0
  0
LINE
  5
B25A
  8
0
  6
CONTINUOUS
 62
     0
 10
-5235.1133623321921
 20
4917.8970670546441
 30
0.0
 11
-5235.1133623321921
 21
5237.5370670546436
 31
0.0
  0
SOLID
  5
B25B
  8
0
  6
CONTINUOUS
 62
     0
 10
-5235.1433623321927
 20
5557.5370670546426
 30
0.0
 11
-5235.0833623321932
 21
5557.5370670546426
 31
0.0
 12
-5235.1133623321921
 22
5557.7170670546429
 32
0.0
 13
-5235.1133623321921
 23
5557.7170670546429
 33
0.0
  0
SOLID
  5
B25C
  8
0
  6
CONTINUOUS
 62
     0
 10
-5235.1433623321927
 20
4917.8970670546441
 30
0.0
 11
-5235.0833623321932
 21
4917.8970670546441
 31
0.0
 12
-5235.1133623321921
 22
4917.7170670546438
 32
0.0
 13
-5235.1133623321921
 23
4917.7170670546438
 33
0.0
  0
INSERT
  5
B25D
  8
0
  2
*U29
 10
0.0
 20
0.0
 30
0.0
  0
POINT
  5
B25E
  8
DEFPOINTS
  6
CONTINUOUS
 62
     0
 10
-5343.1959331011076
 20
5557.7170670546429
 30
0.0
  0
POINT
  5
B25F
  8
DEFPOINTS
  6
CONTINUOUS
 62
     0
 10
-5343.1959331011076
 20
4917.7170670546438
 30
0.0
  0
POINT
  5
B260
  8
DEFPOINTS
  6
CONTINUOUS
 62
     0
 10
-5235.1133623321921
 20
4917.7170670546438
 30
0.0
  0
ENDBLK
  5
B1D8
  8
0
  0
BLOCK
  8
0
  2
*D12
 70
     1
 10
0.0
 20
0.0
 30
0.0
  3
*D12
  1

  0
LINE
  5
B261
  8
0
  6
CONTINUOUS
 62
     0
 10
-7840.9570519665494
 20
6937.7795670546438
 30
0.0
 11
-7840.9570519665494
 21
7029.449147570097
 31
0.0
  0
LINE
  5
B262
  8
0
  6
CONTINUOUS
 62
     0
 10
-6570.9570519665494
 20
6937.7795670546438
 30
0.0
 11
-6570.9570519665494
 21
7029.449147570097
 31
0.0
  0
LINE
  5
B263
  8
0
  6
CONTINUOUS
 62
     0
 10
-7840.7770519665492
 20
7029.2691475700958
 30
0.0
 11
-7206.6620519665494
 21
7029.2691475700958
 31
0.0
  0
LINE
  5
B264
  8
0
  6
CONTINUOUS
 62
     0
 10
-6571.1370519665488
 20
7029.2691475700958
 30
0.0
 11
-7205.2520519665486
 21
7029.2691475700958
 31
0.0
  0
SOLID
  5
B265
  8
0
  6
CONTINUOUS
 62
     0
 10
-7840.7770519665492
 20
7029.2991475700956
 30
0.0
 11
-7840.7770519665492
 21
7029.239147570097
 31
0.0
 12
-7840.9570519665494
 22
7029.2691475700958
 32
0.0
 13
-7840.9570519665494
 23
7029.2691475700958
 33
0.0
  0
SOLID
  5
B266
  8
0
  6
CONTINUOUS
 62
     0
 10
-6571.1370519665488
 20
7029.2991475700956
 30
0.0
 11
-6571.1370519665488
 21
7029.239147570097
 31
0.0
 12
-6570.9570519665494
 22
7029.2691475700958
 32
0.0
 13
-6570.9570519665494
 23
7029.2691475700958
 33
0.0
  0
INSERT
  5
B267
  8
0
  2
*U30
 10
0.0
 20
0.0
 30
0.0
  0
POINT
  5
B268
  8
DEFPOINTS
  6
CONTINUOUS
 62
     0
 10
-7840.9570519665494
 20
6937.7170670546429
 30
0.0
  0
POINT
  5
B269
  8
DEFPOINTS
  6
CONTINUOUS
 62
     0
 10
-6570.9570519665494
 20
6937.7170670546429
 30
0.0
  0
POINT
  5
B26A
  8
DEFPOINTS
  6
CONTINUOUS
 62
     0
 10
-6570.9570519665494
 20
7029.2691475700958
 30
0.0
  0
ENDBLK
  5
B1E5
  8
0
  0
BLOCK
  8
0
  2
*D13
 70
     1
 10
0.0
 20
0.0
 30
0.0
  3
*D13
  1

  0
LINE
  5
B26B
  8
0
  6
CONTINUOUS
 62
     0
 10
-6570.8945519665494
 20
6937.7170670546429
 30
0.0
 11
-6427.7835159524157
 21
6937.7170670546429
 31
0.0
  0
LINE
  5
B26C
  8
0
  6
CONTINUOUS
 62
     0
 10
-6570.8945519665494
 20
4917.7170670546438
 30
0.0
 11
-6427.7835159524166
 21
4917.7170670546438
 31
0.0
  0
LINE
  5
B26D
  8
0
  6
CONTINUOUS
 62
     0
 10
-6427.9635159524159
 20
6937.5370670546426
 30
0.0
 11
-6427.9635159524169
 21
5927.8970670546441
 31
0.0
  0
LINE
  5
B26E
  8
0
  6
CONTINUOUS
 62
     0
 10
-6427.9635159524169
 20
4917.8970670546441
 30
0.0
 11
-6427.9635159524169
 21
5927.5370670546426
 31
0.0
  0
SOLID
  5
B26F
  8
0
  6
CONTINUOUS
 62
     0
 10
-6427.9935159524148
 20
6937.5370670546426
 30
0.0
 11
-6427.9335159524171
 21
6937.5370670546426
 31
0.0
 12
-6427.9635159524159
 22
6937.7170670546429
 32
0.0
 13
-6427.9635159524159
 23
6937.7170670546429
 33
0.0
  0
SOLID
  5
B270
  8
0
  6
CONTINUOUS
 62
     0
 10
-6427.9935159524166
 20
4917.8970670546441
 30
0.0
 11
-6427.9335159524171
 21
4917.8970670546441
 31
0.0
 12
-6427.9635159524169
 22
4917.7170670546438
 32
0.0
 13
-6427.9635159524169
 23
4917.7170670546438
 33
0.0
  0
INSERT
  5
B271
  8
0
  2
*U31
 10
0.0
 20
0.0
 30
0.0
  0
POINT
  5
B272
  8
DEFPOINTS
  6
CONTINUOUS
 62
     0
 10
-6570.9570519665494
 20
6937.7170670546429
 30
0.0
  0
POINT
  5
B273
  8
DEFPOINTS
  6
CONTINUOUS
 62
     0
 10
-6570.9570519665494
 20
4917.7170670546438
 30
0.0
  0
POINT
  5
B274
  8
DEFPOINTS
  6
CONTINUOUS
 62
     0
 10
-6427.9635159524169
 20
4917.7170670546438
 30
0.0
  0
ENDBLK
  5
B1F2
  8
0
  0
BLOCK
  8
0
  2
_DOT
 70
     0
 10
0.0
 20
0.0
 30
0.0
  3
_DOT
  1

  0
POLYLINE
  5
B528
  8
OL��
 62
     0
 66
     1
 10
0.0
 20
0.0
 30
0.0
 70
     1
 40
0.5
 41
0.5
  0
VERTEX
  5
DBC5
  8
OL��
 62
     0
 10
-0.25
 20
0.0
 30
0.0
 42
1.0
  0
VERTEX
  5
DBC6
  8
OL��
 62
     0
 10
0.25
 20
0.0
 30
0.0
 42
1.0
  0
SEQEND
  5
DBC7
  8
OL��
 62
     0
  0
LINE
  5
B529
  8
OL��
 62
     0
 10
-0.5
 20
0.0
 30
0.0
 11
-1.0
 21
0.0
 31
0.0
  0
ENDBLK
  5
B52A
  8
0
  0
BLOCK
  8
0
  2
OK_1
 70
     0
 10
0.0
 20
0.0
 30
0.0
  3
OK_1
  1

  0
LINE
  5
B52D
  8
OL��
 10
0.0
 20
0.0
 30
0.0
 11
12.0
 21
0.0
 31
0.0
  0
CIRCLE
  5
B52E
  8
OL��
 10
0.0
 20
0.0
 30
0.0
 40
6.0
  0
LINE
  5
B52F
  8
OL��
 10
0.0
 20
0.0
 30
0.0
 11
0.0
 21
12.0
 31
0.0
  0
LINE
  5
B530
  8
OL��
 10
0.0
 20
0.0
 30
0.0
 11
-12.0
 21
0.0
 31
0.0
  0
LINE
  5
B531
  8
OL��
 10
0.0
 20
0.0
 30
0.0
 11
0.0
 21
12.0
 31
0.0
  0
LINE
  5
B532
  8
OL��
 10
0.0
 20
0.0
 30
0.0
 11
0.0
 21
-12.0
 31
0.0
  0
LINE
  5
B533
  8
OL��
 10
0.0
 20
0.0
 30
0.0
 11
0.0
 21
-12.0
 31
0.0
  0
ENDBLK
  5
B534
  8
0
  0
BLOCK
  8
0
  2
_OBLIQUE
 70
     0
 10
0.0
 20
0.0
 30
0.0
  3
_OBLIQUE
  1

  0
LINE
  5
B608
  8
0
  6
BYBLOCK
 62
     0
 10
-0.5
 20
-0.5
 30
0.0
 11
0.5
 21
0.5
 31
0.0
  0
ENDBLK
  5
B609
  8
0
  0
BLOCK
  8
0
  2
*U17
 70
     1
 10
0.0
 20
0.0
 30
0.0
  3
*U17
  1

  0
TEXT
  5
DAC4
  8
0
 10
4254.4147687656668
 20
25000.393446687802
 30
0.0
 40
50.0
  1
7 ADET
  0
ENDBLK
  5
DAC6
  8
0
  0
BLOCK
  8
0
  2
*U18
 70
     1
 10
0.0
 20
0.0
 30
0.0
  3
*U18
  1

  0
TEXT
  5
DB22
  8
0
 10
4937.6435212112137
 20
25000.393446687802
 30
0.0
 40
50.0
  1
9 ADET
  0
ENDBLK
  5
DB24
  8
0
  0
BLOCK
  8
0
  2
*U19
 70
     1
 10
0.0
 20
0.0
 30
0.0
  3
*U19
  1

  0
TEXT
  5
DB8D
  8
0
 10
4937.6435212112137
 20
25229.38902396839
 30
0.0
 40
50.0
  1
9 ADET
  0
ENDBLK
  5
DB8F
  8
0
  0
BLOCK
  8
0
  2
*U20
 70
     1
 10
0.0
 20
0.0
 30
0.0
  3
*U20
  1

  0
TEXT
  5
DB96
  8
0
 62
     0
 10
-810.96965725426378
 20
5696.6039273423021
 30
0.0
 40
0.18
  1
610.0000
  0
ENDBLK
  5
DB98
  8
0
  0
BLOCK
  8
0
  2
*U21
 70
     1
 10
0.0
 20
0.0
 30
0.0
  3
*U21
  1

  0
TEXT
  5
DB9A
  8
0
 62
     0
 10
-387.60313620724457
 20
5272.6270670546437
 30
0.0
 40
0.18
  1
710.0000
  0
ENDBLK
  5
DB9C
  8
0
  0
BLOCK
  8
0
  2
*U22
 70
     1
 10
0.0
 20
0.0
 30
0.0
  3
*U22
  1

  0
TEXT
  5
DB9E
  8
0
 62
     0
 10
-1877.5127130910751
 20
5524.1628735094782
 30
0.0
 40
0.18
  1
860.0000
  0
ENDBLK
  5
DBA0
  8
0
  0
BLOCK
  8
0
  2
*U23
 70
     1
 10
0.0
 20
0.0
 30
0.0
  3
*U23
  1

  0
TEXT
  5
DBA2
  8
0
 62
     0
 10
-1340.2148570112549
 20
5180.1270670546437
 30
0.0
 40
0.18
  1
525.0000
  0
ENDBLK
  5
DBA4
  8
0
  0
BLOCK
  8
0
  2
*U24
 70
     1
 10
0.0
 20
0.0
 30
0.0
  3
*U24
  1

  0
TEXT
  5
DBA6
  8
0
 62
     0
 10
-3257.9848793755541
 20
6498.864146584463
 30
0.0
 40
0.18
  1
1200.0000
  0
ENDBLK
  5
DBA8
  8
0
  0
BLOCK
  8
0
  2
*U25
 70
     1
 10
0.0
 20
0.0
 30
0.0
  3
*U25
  1

  0
TEXT
  5
DBAA
  8
0
 62
     0
 10
-2539.6171703606778
 20
5669.1269670546417
 30
0.0
 40
0.18
  1
1502.9998
  0
ENDBLK
  5
DBAC
  8
0
  0
BLOCK
  8
0
  2
*U26
 70
     1
 10
0.0
 20
0.0
 30
0.0
  3
*U26
  1

  0
TEXT
  5
DBAE
  8
0
 62
     0
 10
-4641.8730137811099
 20
5644.3733327279906
 30
0.0
 40
0.18
  1
915.0000
  0
ENDBLK
  5
DBB0
  8
0
  0
BLOCK
  8
0
  2
*U27
 70
     1
 10
0.0
 20
0.0
 30
0.0
  3
*U27
  1

  0
TEXT
  5
DBB2
  8
0
 62
     0
 10
-4061.764077364588
 20
5237.6270670546428
 30
0.0
 40
0.18
  1
640.0000
  0
ENDBLK
  5
DBB4
  8
0
  0
BLOCK
  8
0
  2
*U28
 70
     1
 10
0.0
 20
0.0
 30
0.0
  3
*U28
  1

  0
TEXT
  5
DBB6
  8
0
 62
     0
 10
-5811.2659331011082
 20
5644.3733327279906
 30
0.0
 40
0.18
  1
935.0000
  0
ENDBLK
  5
DBB8
  8
0
  0
BLOCK
  8
0
  2
*U29
 70
     1
 10
0.0
 20
0.0
 30
0.0
  3
*U29
  1

  0
TEXT
  5
DBBA
  8
0
 62
     0
 10
-5235.6683623321942
 20
5237.6270670546428
 30
0.0
 40
0.18
  1
640.0000
  0
ENDBLK
  5
DBBC
  8
0
  0
BLOCK
  8
0
  2
*U30
 70
     1
 10
0.0
 20
0.0
 30
0.0
  3
*U30
  1

  0
TEXT
  5
DBBE
  8
0
 62
     0
 10
-7206.5720519665492
 20
7029.1791475700957
 30
0.0
 40
0.18
  1
1270.0000
  0
ENDBLK
  5
DBC0
  8
0
  0
BLOCK
  8
0
  2
*U31
 70
     1
 10
0.0
 20
0.0
 30
0.0
  3
*U31
  1

  0
TEXT
  5
DBC2
  8
0
 62
     0
 10
-6428.5935159524179
 20
5927.6270670546419
 30
0.0
 40
0.18
  1
2020.0000
  0
ENDBLK
  5
DBC4
  8
0
  0
ENDSEC
  0
SECTION
  2
ENTITIES
  0
POLYLINE
  5
F95
  8
0
 62
     1
 66
     1
 10
0.0
 20
0.0
 30
0.0
 70
     1
210
0.0
220
0.0000000000000001
230
-1.0
  0
VERTEX
  5
D824
  8
0
 62
     1
 10
-655.44600218476171
 20
24262.14586649201
 30
0.0
 42
-0.3506177883309338
  0
VERTEX
  5
D825
  8
0
 62
     1
 10
-582.56286303944853
 20
24330.49080061898
 30
0.0
  0
VERTEX
  5
D826
  8
0
 62
     1
 10
-412.19974652440169
 20
24343.947586405549
 30
0.0
 42
-0.4082028332953425
  0
VERTEX
  5
D827
  8
0
 62
     1
 10
-326.29507497867229
 20
24272.134158807032
 30
0.0
  0
VERTEX
  5
D828
  8
0
 62
     1
 10
-325.0862402057474
 20
24260.011770340709
 30
0.0
 42
-0.420249947459481
  0
VERTEX
  5
D829
  8
0
 62
     1
 10
-343.41266501499098
 20
24238.089331090949
 30
0.0
  0
VERTEX
  5
D82A
  8
0
 62
     1
 10
-352.73683044395187
 20
24237.35282603409
 30
0.0
  0
VERTEX
  5
D82B
  8
0
 62
     1
 10
-351.27273984374727
 20
24222.67069130145
 30
0.0
 42
-0.9733012428498709
  0
VERTEX
  5
D82C
  8
0
 62
     1
 10
-350.75186952682679
 20
24217.44732044571
 30
0.0
  0
VERTEX
  5
D82D
  8
0
 62
     1
 10
-368.6997730778703
 20
24216.029636275889
 30
0.0
 42
-0.9787478472368925
  0
VERTEX
  5
D82E
  8
0
 62
     1
 10
-369.22071393460737
 20
24221.253714516191
 30
0.0
  0
VERTEX
  5
D82F
  8
0
 62
     1
 10
-370.6847339949955
 20
24235.935141864269
 30
0.0
  0
VERTEX
  5
D830
  8
0
 62
     1
 10
-609.55083796004874
 20
24217.067384227019
 30
0.0
  0
VERTEX
  5
D831
  8
0
 62
     1
 10
-608.08674735984584
 20
24202.385249494379
 30
0.0
 42
-0.9733012428498679
  0
VERTEX
  5
D832
  8
0
 62
     1
 10
-607.56587704292315
 20
24197.161878638639
 30
0.0
  0
VERTEX
  5
D833
  8
0
 62
     1
 10
-625.513780593967
 20
24195.744194468822
 30
0.0
 42
-0.9787478472368807
  0
VERTEX
  5
D834
  8
0
 62
     1
 10
-626.03472145070873
 20
24200.96827270912
 30
0.0
  0
VERTEX
  5
D835
  8
0
 62
     1
 10
-627.49874151109452
 20
24215.649700057202
 30
0.0
  0
VERTEX
  5
D836
  8
0
 62
     1
 10
-637.60553324323428
 20
24214.85137625266
 30
0.0
 42
-0.4808038345708159
  0
VERTEX
  5
D837
  8
0
 62
     1
 10
-658.97606110675315
 20
24237.64093887031
 30
0.0
  0
SEQEND
  5
D838
  8
0
 62
     1
  0
POLYLINE
  5
FEB
  8
0
 62
     1
 66
     1
 10
0.0
 20
0.0
 30
0.0
 70
     1
210
-0.0000000000000001
220
0.0
230
-1.0
  0
VERTEX
  5
D839
  8
0
 62
     1
 10
-1007.324054921735
 20
24059.860131522841
 30
0.0
  0
VERTEX
  5
D83A
  8
0
 62
     1
 10
-992.85115674649023
 20
24059.860131522841
 30
0.0
 42
-0.9999999999999998
  0
VERTEX
  5
D83B
  8
0
 62
     1
 10
-987.35115674649091
 20
24059.860131522841
 30
0.0
  0
VERTEX
  5
D83C
  8
0
 62
     1
 10
-987.10062407271027
 20
24041.936996452991
 30
0.0
 42
-1.014075862378053
  0
VERTEX
  5
D83D
  8
0
 62
     1
 10
-992.59954964145766
 20
24041.860131522852
 30
0.0
  0
VERTEX
  5
D83E
  8
0
 62
     1
 10
-1004.8584915992629
 20
24041.860131522852
 30
0.0
 42
0.0051725841772695
  0
VERTEX
  5
D83F
  8
0
 62
     1
 10
-1000.173312229481
 20
24011.39045936121
 30
0.0
 42
0.4152000808881338
  0
VERTEX
  5
D840
  8
0
 62
     1
 10
-994.41193300521741
 20
24007.270403584582
 30
0.0
  0
VERTEX
  5
D841
  8
0
 62
     1
 10
-964.82555494419285
 20
24012.235949552862
 30
0.0
 42
0.4132074122808341
  0
VERTEX
  5
D842
  8
0
 62
     1
 10
-960.71929184491501
 20
24017.977620220328
 30
0.0
 42
-0.0816034308277466
  0
VERTEX
  5
D843
  8
0
 62
     1
 10
-960.71929184491501
 20
24488.14660735194
 30
0.0
 42
0.41320741228074
  0
VERTEX
  5
D844
  8
0
 62
     1
 10
-964.8255549441925
 20
24493.888278019411
 30
0.0
  0
VERTEX
  5
D845
  8
0
 62
     1
 10
-994.41193300521695
 20
24498.853823987691
 30
0.0
 42
0.4152000808880583
  0
VERTEX
  5
D846
  8
0
 62
     1
 10
-1000.17331222948
 20
24494.733768211048
 30
0.0
 42
0.0051725841772695
  0
VERTEX
  5
D847
  8
0
 62
     1
 10
-1004.8584915992629
 20
24464.264096049421
 30
0.0
  0
VERTEX
  5
D848
  8
0
 62
     1
 10
-992.59954964145766
 20
24464.264096049421
 30
0.0
 42
-1.0140758623780941
  0
VERTEX
  5
D849
  8
0
 62
     1
 10
-987.10062407271027
 20
24464.187231119271
 30
0.0
  0
VERTEX
  5
D84A
  8
0
 62
     1
 10
-987.35115674649091
 20
24446.264096049421
 30
0.0
 42
-1.0000000000000799
  0
VERTEX
  5
D84B
  8
0
 62
     1
 10
-992.85115674649023
 20
24446.264096049421
 30
0.0
  0
VERTEX
  5
D84C
  8
0
 62
     1
 10
-1007.324054921735
 20
24446.264096049421
 30
0.0
 42
0.0651077074116682
  0
SEQEND
  5
D84D
  8
0
 62
     1
  0
POLYLINE
  5
FEC
  8
0
 62
     1
 66
     1
 10
0.0
 20
0.0
 30
0.0
 70
     1
210
-0.0000000000000001
220
0.0
230
-1.0
  0
VERTEX
  5
D84E
  8
0
 62
     1
 10
-1077.3240549217351
 20
24059.860131522841
 30
0.0
  0
VERTEX
  5
D84F
  8
0
 62
     1
 10
-1062.85115674649
 20
24059.860131522841
 30
0.0
 42
-0.9999999999999998
  0
VERTEX
  5
D850
  8
0
 62
     1
 10
-1057.3511567464909
 20
24059.860131522841
 30
0.0
  0
VERTEX
  5
D851
  8
0
 62
     1
 10
-1057.1006240727099
 20
24041.936996452991
 30
0.0
 42
-1.014075862378053
  0
VERTEX
  5
D852
  8
0
 62
     1
 10
-1062.5995496414571
 20
24041.860131522852
 30
0.0
  0
VERTEX
  5
D853
  8
0
 62
     1
 10
-1074.858491599264
 20
24041.860131522852
 30
0.0
 42
0.0051725841772695
  0
VERTEX
  5
D854
  8
0
 62
     1
 10
-1070.1733122294811
 20
24011.39045936121
 30
0.0
 42
0.4152000808881338
  0
VERTEX
  5
D855
  8
0
 62
     1
 10
-1064.411933005217
 20
24007.270403584582
 30
0.0
  0
VERTEX
  5
D856
  8
0
 62
     1
 10
-1034.8255549441931
 20
24012.235949552862
 30
0.0
 42
0.4132074122808341
  0
VERTEX
  5
D857
  8
0
 62
     1
 10
-1030.719291844915
 20
24017.977620220328
 30
0.0
 42
-0.0816034308277466
  0
VERTEX
  5
D858
  8
0
 62
     1
 10
-1030.719291844915
 20
24488.14660735194
 30
0.0
 42
0.41320741228074
  0
VERTEX
  5
D859
  8
0
 62
     1
 10
-1034.8255549441919
 20
24493.888278019411
 30
0.0
  0
VERTEX
  5
D85A
  8
0
 62
     1
 10
-1064.411933005217
 20
24498.853823987691
 30
0.0
 42
0.4152000808880583
  0
VERTEX
  5
D85B
  8
0
 62
     1
 10
-1070.17331222948
 20
24494.733768211048
 30
0.0
 42
0.0051725841772695
  0
VERTEX
  5
D85C
  8
0
 62
     1
 10
-1074.858491599264
 20
24464.264096049421
 30
0.0
  0
VERTEX
  5
D85D
  8
0
 62
     1
 10
-1062.5995496414571
 20
24464.264096049421
 30
0.0
 42
-1.0140758623780941
  0
VERTEX
  5
D85E
  8
0
 62
     1
 10
-1057.1006240727099
 20
24464.187231119271
 30
0.0
  0
VERTEX
  5
D85F
  8
0
 62
     1
 10
-1057.3511567464909
 20
24446.264096049421
 30
0.0
 42
-1.0000000000000799
  0
VERTEX
  5
D860
  8
0
 62
     1
 10
-1062.85115674649
 20
24446.264096049421
 30
0.0
  0
VERTEX
  5
D861
  8
0
 62
     1
 10
-1077.3240549217351
 20
24446.264096049421
 30
0.0
 42
0.0651077074116682
  0
SEQEND
  5
D862
  8
0
 62
     1
  0
POLYLINE
  5
FED
  8
0
 62
     1
 66
     1
 10
0.0
 20
0.0
 30
0.0
 70
     1
210
-0.0000000000000001
220
0.0
230
-1.0
  0
VERTEX
  5
D863
  8
0
 62
     1
 10
-1147.3240549217351
 20
24059.860131522841
 30
0.0
  0
VERTEX
  5
D864
  8
0
 62
     1
 10
-1132.85115674649
 20
24059.860131522841
 30
0.0
 42
-0.9999999999999998
  0
VERTEX
  5
D865
  8
0
 62
     1
 10
-1127.3511567464909
 20
24059.860131522841
 30
0.0
  0
VERTEX
  5
D866
  8
0
 62
     1
 10
-1127.1006240727099
 20
24041.936996452991
 30
0.0
 42
-1.014075862378053
  0
VERTEX
  5
D867
  8
0
 62
     1
 10
-1132.5995496414571
 20
24041.860131522852
 30
0.0
  0
VERTEX
  5
D868
  8
0
 62
     1
 10
-1144.858491599264
 20
24041.860131522852
 30
0.0
 42
0.0051725841772695
  0
VERTEX
  5
D869
  8
0
 62
     1
 10
-1140.1733122294811
 20
24011.39045936121
 30
0.0
 42
0.4152000808881338
  0
VERTEX
  5
D86A
  8
0
 62
     1
 10
-1134.411933005217
 20
24007.270403584582
 30
0.0
  0
VERTEX
  5
D86B
  8
0
 62
     1
 10
-1104.8255549441931
 20
24012.235949552862
 30
0.0
 42
0.4132074122808341
  0
VERTEX
  5
D86C
  8
0
 62
     1
 10
-1100.719291844915
 20
24017.977620220328
 30
0.0
 42
-0.0816034308277466
  0
VERTEX
  5
D86D
  8
0
 62
     1
 10
-1100.7192918449141
 20
24488.14660735194
 30
0.0
 42
0.41320741228074
  0
VERTEX
  5
D86E
  8
0
 62
     1
 10
-1104.8255549441919
 20
24493.888278019411
 30
0.0
  0
VERTEX
  5
D86F
  8
0
 62
     1
 10
-1134.411933005217
 20
24498.853823987691
 30
0.0
 42
0.4152000808880583
  0
VERTEX
  5
D870
  8
0
 62
     1
 10
-1140.17331222948
 20
24494.733768211048
 30
0.0
 42
0.0051725841772695
  0
VERTEX
  5
D871
  8
0
 62
     1
 10
-1144.858491599264
 20
24464.264096049421
 30
0.0
  0
VERTEX
  5
D872
  8
0
 62
     1
 10
-1132.5995496414571
 20
24464.264096049421
 30
0.0
 42
-1.0140758623780941
  0
VERTEX
  5
D873
  8
0
 62
     1
 10
-1127.1006240727099
 20
24464.187231119271
 30
0.0
  0
VERTEX
  5
D874
  8
0
 62
     1
 10
-1127.3511567464909
 20
24446.264096049421
 30
0.0
 42
-1.0000000000000799
  0
VERTEX
  5
D875
  8
0
 62
     1
 10
-1132.85115674649
 20
24446.264096049421
 30
0.0
  0
VERTEX
  5
D876
  8
0
 62
     1
 10
-1147.3240549217351
 20
24446.264096049421
 30
0.0
 42
0.0651077074116682
  0
SEQEND
  5
D877
  8
0
 62
     1
  0
POLYLINE
  5
FEE
  8
0
 62
     1
 66
     1
 10
0.0
 20
0.0
 30
0.0
 70
     1
210
-0.0000000000000001
220
0.0
230
-1.0
  0
VERTEX
  5
D878
  8
0
 62
     1
 10
-1217.3240549217351
 20
24059.860131522841
 30
0.0
  0
VERTEX
  5
D879
  8
0
 62
     1
 10
-1202.85115674649
 20
24059.860131522841
 30
0.0
 42
-0.9999999999999998
  0
VERTEX
  5
D87A
  8
0
 62
     1
 10
-1197.35115674649
 20
24059.860131522841
 30
0.0
  0
VERTEX
  5
D87B
  8
0
 62
     1
 10
-1197.1006240727099
 20
24041.936996452991
 30
0.0
 42
-1.014075862378053
  0
VERTEX
  5
D87C
  8
0
 62
     1
 10
-1202.5995496414571
 20
24041.860131522852
 30
0.0
  0
VERTEX
  5
D87D
  8
0
 62
     1
 10
-1214.8584915992631
 20
24041.860131522852
 30
0.0
 42
0.0051725841772695
  0
VERTEX
  5
D87E
  8
0
 62
     1
 10
-1210.1733122294811
 20
24011.39045936121
 30
0.0
 42
0.4152000808881338
  0
VERTEX
  5
D87F
  8
0
 62
     1
 10
-1204.411933005217
 20
24007.270403584582
 30
0.0
  0
VERTEX
  5
D880
  8
0
 62
     1
 10
-1174.8255549441931
 20
24012.235949552862
 30
0.0
 42
0.4132074122808341
  0
VERTEX
  5
D881
  8
0
 62
     1
 10
-1170.719291844915
 20
24017.977620220328
 30
0.0
 42
-0.0816034308277466
  0
VERTEX
  5
D882
  8
0
 62
     1
 10
-1170.7192918449141
 20
24488.14660735194
 30
0.0
 42
0.41320741228074
  0
VERTEX
  5
D883
  8
0
 62
     1
 10
-1174.8255549441931
 20
24493.888278019411
 30
0.0
  0
VERTEX
  5
D884
  8
0
 62
     1
 10
-1204.411933005216
 20
24498.853823987691
 30
0.0
 42
0.4152000808880583
  0
VERTEX
  5
D885
  8
0
 62
     1
 10
-1210.17331222948
 20
24494.733768211048
 30
0.0
 42
0.0051725841772695
  0
VERTEX
  5
D886
  8
0
 62
     1
 10
-1214.8584915992631
 20
24464.264096049421
 30
0.0
  0
VERTEX
  5
D887
  8
0
 62
     1
 10
-1202.5995496414571
 20
24464.264096049421
 30
0.0
 42
-1.0140758623780941
  0
VERTEX
  5
D888
  8
0
 62
     1
 10
-1197.1006240727099
 20
24464.187231119271
 30
0.0
  0
VERTEX
  5
D889
  8
0
 62
     1
 10
-1197.35115674649
 20
24446.264096049421
 30
0.0
 42
-1.0000000000000799
  0
VERTEX
  5
D88A
  8
0
 62
     1
 10
-1202.85115674649
 20
24446.264096049421
 30
0.0
  0
VERTEX
  5
D88B
  8
0
 62
     1
 10
-1217.3240549217351
 20
24446.264096049421
 30
0.0
 42
0.0651077074116682
  0
SEQEND
  5
D88C
  8
0
 62
     1
  0
POLYLINE
  5
FEF
  8
0
 62
     1
 66
     1
 10
0.0
 20
0.0
 30
0.0
 70
     1
210
-0.0000000000000001
220
0.0
230
-1.0
  0
VERTEX
  5
D88D
  8
0
 62
     1
 10
-1287.3240549217351
 20
24059.860131522841
 30
0.0
  0
VERTEX
  5
D88E
  8
0
 62
     1
 10
-1272.85115674649
 20
24059.860131522841
 30
0.0
 42
-0.9999999999999998
  0
VERTEX
  5
D88F
  8
0
 62
     1
 10
-1267.3511567464891
 20
24059.860131522841
 30
0.0
  0
VERTEX
  5
D890
  8
0
 62
     1
 10
-1267.1006240727099
 20
24041.936996452991
 30
0.0
 42
-1.014075862378053
  0
VERTEX
  5
D891
  8
0
 62
     1
 10
-1272.5995496414571
 20
24041.860131522852
 30
0.0
  0
VERTEX
  5
D892
  8
0
 62
     1
 10
-1284.8584915992631
 20
24041.860131522852
 30
0.0
 42
0.0051725841772695
  0
VERTEX
  5
D893
  8
0
 62
     1
 10
-1280.1733122294811
 20
24011.39045936121
 30
0.0
 42
0.4152000808881338
  0
VERTEX
  5
D894
  8
0
 62
     1
 10
-1274.411933005217
 20
24007.270403584582
 30
0.0
  0
VERTEX
  5
D895
  8
0
 62
     1
 10
-1244.8255549441931
 20
24012.235949552862
 30
0.0
 42
0.4132074122808341
  0
VERTEX
  5
D896
  8
0
 62
     1
 10
-1240.719291844915
 20
24017.977620220328
 30
0.0
 42
-0.0816034308277466
  0
VERTEX
  5
D897
  8
0
 62
     1
 10
-1240.7192918449141
 20
24488.14660735194
 30
0.0
 42
0.41320741228074
  0
VERTEX
  5
D898
  8
0
 62
     1
 10
-1244.8255549441919
 20
24493.888278019411
 30
0.0
  0
VERTEX
  5
D899
  8
0
 62
     1
 10
-1274.411933005216
 20
24498.853823987691
 30
0.0
 42
0.4152000808880583
  0
VERTEX
  5
D89A
  8
0
 62
     1
 10
-1280.17331222948
 20
24494.733768211048
 30
0.0
 42
0.0051725841772695
  0
VERTEX
  5
D89B
  8
0
 62
     1
 10
-1284.8584915992631
 20
24464.264096049421
 30
0.0
  0
VERTEX
  5
D89C
  8
0
 62
     1
 10
-1272.5995496414571
 20
24464.264096049421
 30
0.0
 42
-1.0140758623780941
  0
VERTEX
  5
D89D
  8
0
 62
     1
 10
-1267.1006240727099
 20
24464.187231119271
 30
0.0
  0
VERTEX
  5
D89E
  8
0
 62
     1
 10
-1267.3511567464891
 20
24446.264096049421
 30
0.0
 42
-1.0000000000000799
  0
VERTEX
  5
D89F
  8
0
 62
     1
 10
-1272.85115674649
 20
24446.264096049421
 30
0.0
  0
VERTEX
  5
D8A0
  8
0
 62
     1
 10
-1287.3240549217351
 20
24446.264096049421
 30
0.0
 42
0.0651077074116682
  0
SEQEND
  5
D8A1
  8
0
 62
     1
  0
POLYLINE
  5
FF0
  8
0
 62
     1
 66
     1
 10
0.0
 20
0.0
 30
0.0
 70
     1
210
-0.0000000000000001
220
0.0
230
-1.0
  0
VERTEX
  5
D8A2
  8
0
 62
     1
 10
-1357.3240549217351
 20
24059.860131522841
 30
0.0
  0
VERTEX
  5
D8A3
  8
0
 62
     1
 10
-1342.8511567464891
 20
24059.860131522841
 30
0.0
 42
-0.9999999999999998
  0
VERTEX
  5
D8A4
  8
0
 62
     1
 10
-1337.3511567464909
 20
24059.860131522841
 30
0.0
  0
VERTEX
  5
D8A5
  8
0
 62
     1
 10
-1337.1006240727111
 20
24041.936996452991
 30
0.0
 42
-1.014075862378053
  0
VERTEX
  5
D8A6
  8
0
 62
     1
 10
-1342.5995496414571
 20
24041.860131522852
 30
0.0
  0
VERTEX
  5
D8A7
  8
0
 62
     1
 10
-1354.858491599264
 20
24041.860131522852
 30
0.0
 42
0.0051725841772695
  0
VERTEX
  5
D8A8
  8
0
 62
     1
 10
-1350.17331222948
 20
24011.39045936121
 30
0.0
 42
0.4152000808881338
  0
VERTEX
  5
D8A9
  8
0
 62
     1
 10
-1344.411933005217
 20
24007.270403584582
 30
0.0
  0
VERTEX
  5
D8AA
  8
0
 62
     1
 10
-1314.8255549441931
 20
24012.235949552862
 30
0.0
 42
0.4132074122808341
  0
VERTEX
  5
D8AB
  8
0
 62
     1
 10
-1310.719291844915
 20
24017.977620220328
 30
0.0
 42
-0.0816034308277466
  0
VERTEX
  5
D8AC
  8
0
 62
     1
 10
-1310.7192918449141
 20
24488.14660735194
 30
0.0
 42
0.41320741228074
  0
VERTEX
  5
D8AD
  8
0
 62
     1
 10
-1314.8255549441919
 20
24493.888278019411
 30
0.0
  0
VERTEX
  5
D8AE
  8
0
 62
     1
 10
-1344.411933005216
 20
24498.853823987691
 30
0.0
 42
0.4152000808880583
  0
VERTEX
  5
D8AF
  8
0
 62
     1
 10
-1350.17331222948
 20
24494.733768211048
 30
0.0
 42
0.0051725841772695
  0
VERTEX
  5
D8B0
  8
0
 62
     1
 10
-1354.858491599264
 20
24464.264096049421
 30
0.0
  0
VERTEX
  5
D8B1
  8
0
 62
     1
 10
-1342.5995496414571
 20
24464.264096049421
 30
0.0
 42
-1.0140758623780941
  0
VERTEX
  5
D8B2
  8
0
 62
     1
 10
-1337.1006240727111
 20
24464.187231119271
 30
0.0
  0
VERTEX
  5
D8B3
  8
0
 62
     1
 10
-1337.3511567464909
 20
24446.264096049421
 30
0.0
 42
-1.0000000000000799
  0
VERTEX
  5
D8B4
  8
0
 62
     1
 10
-1342.8511567464891
 20
24446.264096049421
 30
0.0
  0
VERTEX
  5
D8B5
  8
0
 62
     1
 10
-1357.3240549217351
 20
24446.264096049421
 30
0.0
 42
0.0651077074116682
  0
SEQEND
  5
D8B6
  8
0
 62
     1
  0
POLYLINE
  5
FF1
  8
0
 62
     1
 66
     1
 10
0.0
 20
0.0
 30
0.0
 70
     1
210
-0.0000000000000001
220
0.0
230
-1.0
  0
VERTEX
  5
D8B7
  8
0
 62
     1
 10
-1427.3240549217351
 20
24059.860131522841
 30
0.0
  0
VERTEX
  5
D8B8
  8
0
 62
     1
 10
-1412.85115674649
 20
24059.860131522841
 30
0.0
 42
-0.9999999999999998
  0
VERTEX
  5
D8B9
  8
0
 62
     1
 10
-1407.3511567464891
 20
24059.860131522841
 30
0.0
  0
VERTEX
  5
D8BA
  8
0
 62
     1
 10
-1407.1006240727099
 20
24041.936996452991
 30
0.0
 42
-1.014075862378053
  0
VERTEX
  5
D8BB
  8
0
 62
     1
 10
-1412.5995496414571
 20
24041.860131522852
 30
0.0
  0
VERTEX
  5
D8BC
  8
0
 62
     1
 10
-1424.8584915992631
 20
24041.860131522852
 30
0.0
 42
0.0051725841772695
  0
VERTEX
  5
D8BD
  8
0
 62
     1
 10
-1420.1733122294811
 20
24011.39045936121
 30
0.0
 42
0.4152000808881338
  0
VERTEX
  5
D8BE
  8
0
 62
     1
 10
-1414.411933005217
 20
24007.270403584582
 30
0.0
  0
VERTEX
  5
D8BF
  8
0
 62
     1
 10
-1384.8255549441931
 20
24012.235949552862
 30
0.0
 42
0.4132074122808341
  0
VERTEX
  5
D8C0
  8
0
 62
     1
 10
-1380.719291844915
 20
24017.977620220328
 30
0.0
 42
-0.0816034308277466
  0
VERTEX
  5
D8C1
  8
0
 62
     1
 10
-1380.7192918449141
 20
24488.14660735194
 30
0.0
 42
0.41320741228074
  0
VERTEX
  5
D8C2
  8
0
 62
     1
 10
-1384.8255549441931
 20
24493.888278019411
 30
0.0
  0
VERTEX
  5
D8C3
  8
0
 62
     1
 10
-1414.411933005217
 20
24498.853823987691
 30
0.0
 42
0.4152000808880583
  0
VERTEX
  5
D8C4
  8
0
 62
     1
 10
-1420.17331222948
 20
24494.733768211048
 30
0.0
 42
0.0051725841772695
  0
VERTEX
  5
D8C5
  8
0
 62
     1
 10
-1424.8584915992631
 20
24464.264096049421
 30
0.0
  0
VERTEX
  5
D8C6
  8
0
 62
     1
 10
-1412.5995496414571
 20
24464.264096049421
 30
0.0
 42
-1.0140758623780941
  0
VERTEX
  5
D8C7
  8
0
 62
     1
 10
-1407.1006240727099
 20
24464.187231119271
 30
0.0
  0
VERTEX
  5
D8C8
  8
0
 62
     1
 10
-1407.3511567464891
 20
24446.264096049421
 30
0.0
 42
-1.0000000000000799
  0
VERTEX
  5
D8C9
  8
0
 62
     1
 10
-1412.85115674649
 20
24446.264096049421
 30
0.0
  0
VERTEX
  5
D8CA
  8
0
 62
     1
 10
-1427.3240549217351
 20
24446.264096049421
 30
0.0
 42
0.0651077074116682
  0
SEQEND
  5
D8CB
  8
0
 62
     1
  0
POLYLINE
  5
FF2
  8
0
 62
     1
 66
     1
 10
0.0
 20
0.0
 30
0.0
 70
     1
210
-0.0000000000000001
220
0.0
230
-1.0
  0
VERTEX
  5
D8CC
  8
0
 62
     1
 10
-1497.3240549217351
 20
24059.860131522841
 30
0.0
  0
VERTEX
  5
D8CD
  8
0
 62
     1
 10
-1482.85115674649
 20
24059.860131522841
 30
0.0
 42
-0.9999999999999998
  0
VERTEX
  5
D8CE
  8
0
 62
     1
 10
-1477.35115674649
 20
24059.860131522841
 30
0.0
  0
VERTEX
  5
D8CF
  8
0
 62
     1
 10
-1477.1006240727099
 20
24041.936996452991
 30
0.0
 42
-1.014075862378053
  0
VERTEX
  5
D8D0
  8
0
 62
     1
 10
-1482.5995496414571
 20
24041.860131522852
 30
0.0
  0
VERTEX
  5
D8D1
  8
0
 62
     1
 10
-1494.858491599264
 20
24041.860131522852
 30
0.0
 42
0.0051725841772695
  0
VERTEX
  5
D8D2
  8
0
 62
     1
 10
-1490.1733122294811
 20
24011.39045936121
 30
0.0
 42
0.4152000808881338
  0
VERTEX
  5
D8D3
  8
0
 62
     1
 10
-1484.411933005217
 20
24007.270403584582
 30
0.0
  0
VERTEX
  5
D8D4
  8
0
 62
     1
 10
-1454.8255549441931
 20
24012.235949552862
 30
0.0
 42
0.4132074122808341
  0
VERTEX
  5
D8D5
  8
0
 62
     1
 10
-1450.719291844915
 20
24017.977620220328
 30
0.0
 42
-0.0816034308277466
  0
VERTEX
  5
D8D6
  8
0
 62
     1
 10
-1450.7192918449141
 20
24488.14660735194
 30
0.0
 42
0.41320741228074
  0
VERTEX
  5
D8D7
  8
0
 62
     1
 10
-1454.8255549441919
 20
24493.888278019411
 30
0.0
  0
VERTEX
  5
D8D8
  8
0
 62
     1
 10
-1484.411933005216
 20
24498.853823987691
 30
0.0
 42
0.4152000808880583
  0
VERTEX
  5
D8D9
  8
0
 62
     1
 10
-1490.17331222948
 20
24494.733768211048
 30
0.0
 42
0.0051725841772695
  0
VERTEX
  5
D8DA
  8
0
 62
     1
 10
-1494.858491599264
 20
24464.264096049421
 30
0.0
  0
VERTEX
  5
D8DB
  8
0
 62
     1
 10
-1482.5995496414571
 20
24464.264096049421
 30
0.0
 42
-1.0140758623780941
  0
VERTEX
  5
D8DC
  8
0
 62
     1
 10
-1477.1006240727099
 20
24464.187231119271
 30
0.0
  0
VERTEX
  5
D8DD
  8
0
 62
     1
 10
-1477.35115674649
 20
24446.264096049421
 30
0.0
 42
-1.0000000000000799
  0
VERTEX
  5
D8DE
  8
0
 62
     1
 10
-1482.85115674649
 20
24446.264096049421
 30
0.0
  0
VERTEX
  5
D8DF
  8
0
 62
     1
 10
-1497.3240549217351
 20
24446.264096049421
 30
0.0
 42
0.0651077074116682
  0
SEQEND
  5
D8E0
  8
0
 62
     1
  0
POLYLINE
  5
FF3
  8
0
 62
     1
 66
     1
 10
0.0
 20
0.0
 30
0.0
 70
     1
210
-0.0000000000000001
220
0.0
230
-1.0
  0
VERTEX
  5
D8E1
  8
0
 62
     1
 10
-1567.3240549217351
 20
24059.860131522841
 30
0.0
  0
VERTEX
  5
D8E2
  8
0
 62
     1
 10
-1552.8511567464891
 20
24059.860131522841
 30
0.0
 42
-0.9999999999999998
  0
VERTEX
  5
D8E3
  8
0
 62
     1
 10
-1547.35115674649
 20
24059.860131522841
 30
0.0
  0
VERTEX
  5
D8E4
  8
0
 62
     1
 10
-1547.1006240727111
 20
24041.936996452991
 30
0.0
 42
-1.014075862378053
  0
VERTEX
  5
D8E5
  8
0
 62
     1
 10
-1552.5995496414571
 20
24041.860131522852
 30
0.0
  0
VERTEX
  5
D8E6
  8
0
 62
     1
 10
-1564.8584915992631
 20
24041.860131522852
 30
0.0
 42
0.0051725841772695
  0
VERTEX
  5
D8E7
  8
0
 62
     1
 10
-1560.1733122294811
 20
24011.39045936121
 30
0.0
 42
0.4152000808881338
  0
VERTEX
  5
D8E8
  8
0
 62
     1
 10
-1554.411933005217
 20
24007.270403584582
 30
0.0
  0
VERTEX
  5
D8E9
  8
0
 62
     1
 10
-1524.8255549441931
 20
24012.235949552862
 30
0.0
 42
0.4132074122808341
  0
VERTEX
  5
D8EA
  8
0
 62
     1
 10
-1520.719291844915
 20
24017.977620220328
 30
0.0
 42
-0.0816034308277466
  0
VERTEX
  5
D8EB
  8
0
 62
     1
 10
-1520.7192918449141
 20
24488.14660735194
 30
0.0
 42
0.41320741228074
  0
VERTEX
  5
D8EC
  8
0
 62
     1
 10
-1524.8255549441919
 20
24493.888278019411
 30
0.0
  0
VERTEX
  5
D8ED
  8
0
 62
     1
 10
-1554.411933005217
 20
24498.853823987691
 30
0.0
 42
0.4152000808880583
  0
VERTEX
  5
D8EE
  8
0
 62
     1
 10
-1560.17331222948
 20
24494.733768211048
 30
0.0
 42
0.0051725841772695
  0
VERTEX
  5
D8EF
  8
0
 62
     1
 10
-1564.8584915992631
 20
24464.264096049421
 30
0.0
  0
VERTEX
  5
D8F0
  8
0
 62
     1
 10
-1552.5995496414571
 20
24464.264096049421
 30
0.0
 42
-1.0140758623780941
  0
VERTEX
  5
D8F1
  8
0
 62
     1
 10
-1547.1006240727111
 20
24464.187231119271
 30
0.0
  0
VERTEX
  5
D8F2
  8
0
 62
     1
 10
-1547.35115674649
 20
24446.264096049421
 30
0.0
 42
-1.0000000000000799
  0
VERTEX
  5
D8F3
  8
0
 62
     1
 10
-1552.8511567464891
 20
24446.264096049421
 30
0.0
  0
VERTEX
  5
D8F4
  8
0
 62
     1
 10
-1567.3240549217351
 20
24446.264096049421
 30
0.0
 42
0.0651077074116682
  0
SEQEND
  5
D8F5
  8
0
 62
     1
  0
POLYLINE
  5
FF4
  8
0
 62
     1
 66
     1
 10
0.0
 20
0.0
 30
0.0
 70
     1
210
-0.0000000000000001
220
0.0
230
-1.0
  0
VERTEX
  5
D8F6
  8
0
 62
     1
 10
-1637.3240549217351
 20
24059.860131522841
 30
0.0
  0
VERTEX
  5
D8F7
  8
0
 62
     1
 10
-1622.85115674649
 20
24059.860131522841
 30
0.0
 42
-0.9999999999999998
  0
VERTEX
  5
D8F8
  8
0
 62
     1
 10
-1617.3511567464909
 20
24059.860131522841
 30
0.0
  0
VERTEX
  5
D8F9
  8
0
 62
     1
 10
-1617.1006240727099
 20
24041.936996452991
 30
0.0
 42
-1.014075862378053
  0
VERTEX
  5
D8FA
  8
0
 62
     1
 10
-1622.5995496414571
 20
24041.860131522852
 30
0.0
  0
VERTEX
  5
D8FB
  8
0
 62
     1
 10
-1634.858491599264
 20
24041.860131522852
 30
0.0
 42
0.0051725841772695
  0
VERTEX
  5
D8FC
  8
0
 62
     1
 10
-1630.1733122294811
 20
24011.39045936121
 30
0.0
 42
0.4152000808881338
  0
VERTEX
  5
D8FD
  8
0
 62
     1
 10
-1624.411933005217
 20
24007.270403584582
 30
0.0
  0
VERTEX
  5
D8FE
  8
0
 62
     1
 10
-1594.8255549441931
 20
24012.235949552862
 30
0.0
 42
0.4132074122808341
  0
VERTEX
  5
D8FF
  8
0
 62
     1
 10
-1590.719291844915
 20
24017.977620220328
 30
0.0
 42
-0.0816034308277466
  0
VERTEX
  5
D900
  8
0
 62
     1
 10
-1590.7192918449141
 20
24488.14660735194
 30
0.0
 42
0.41320741228074
  0
VERTEX
  5
D901
  8
0
 62
     1
 10
-1594.8255549441919
 20
24493.888278019411
 30
0.0
  0
VERTEX
  5
D902
  8
0
 62
     1
 10
-1624.411933005217
 20
24498.853823987691
 30
0.0
 42
0.4152000808880583
  0
VERTEX
  5
D903
  8
0
 62
     1
 10
-1630.17331222948
 20
24494.733768211048
 30
0.0
 42
0.0051725841772695
  0
VERTEX
  5
D904
  8
0
 62
     1
 10
-1634.858491599264
 20
24464.264096049421
 30
0.0
  0
VERTEX
  5
D905
  8
0
 62
     1
 10
-1622.5995496414571
 20
24464.264096049421
 30
0.0
 42
-1.0140758623780941
  0
VERTEX
  5
D906
  8
0
 62
     1
 10
-1617.1006240727099
 20
24464.187231119271
 30
0.0
  0
VERTEX
  5
D907
  8
0
 62
     1
 10
-1617.3511567464909
 20
24446.264096049421
 30
0.0
 42
-1.0000000000000799
  0
VERTEX
  5
D908
  8
0
 62
     1
 10
-1622.85115674649
 20
24446.264096049421
 30
0.0
  0
VERTEX
  5
D909
  8
0
 62
     1
 10
-1637.3240549217351
 20
24446.264096049421
 30
0.0
 42
0.0651077074116682
  0
SEQEND
  5
D90A
  8
0
 62
     1
  0
POLYLINE
  5
FF5
  8
0
 62
     1
 66
     1
 10
0.0
 20
0.0
 30
0.0
 70
     1
210
-0.0000000000000001
220
0.0
230
-1.0
  0
VERTEX
  5
D90B
  8
0
 62
     1
 10
-1707.3240549217351
 20
24059.860131522841
 30
0.0
  0
VERTEX
  5
D90C
  8
0
 62
     1
 10
-1692.85115674649
 20
24059.860131522841
 30
0.0
 42
-0.9999999999999998
  0
VERTEX
  5
D90D
  8
0
 62
     1
 10
-1687.3511567464891
 20
24059.860131522841
 30
0.0
  0
VERTEX
  5
D90E
  8
0
 62
     1
 10
-1687.1006240727099
 20
24041.936996452991
 30
0.0
 42
-1.014075862378053
  0
VERTEX
  5
D90F
  8
0
 62
     1
 10
-1692.5995496414571
 20
24041.860131522852
 30
0.0
  0
VERTEX
  5
D910
  8
0
 62
     1
 10
-1704.858491599264
 20
24041.860131522852
 30
0.0
 42
0.0051725841772695
  0
VERTEX
  5
D911
  8
0
 62
     1
 10
-1700.1733122294811
 20
24011.39045936121
 30
0.0
 42
0.4152000808881338
  0
VERTEX
  5
D912
  8
0
 62
     1
 10
-1694.411933005217
 20
24007.270403584582
 30
0.0
  0
VERTEX
  5
D913
  8
0
 62
     1
 10
-1664.8255549441931
 20
24012.235949552862
 30
0.0
 42
0.4132074122808341
  0
VERTEX
  5
D914
  8
0
 62
     1
 10
-1660.719291844915
 20
24017.977620220328
 30
0.0
 42
-0.0816034308277466
  0
VERTEX
  5
D915
  8
0
 62
     1
 10
-1660.7192918449141
 20
24488.14660735194
 30
0.0
 42
0.41320741228074
  0
VERTEX
  5
D916
  8
0
 62
     1
 10
-1664.8255549441931
 20
24493.888278019411
 30
0.0
  0
VERTEX
  5
D917
  8
0
 62
     1
 10
-1694.411933005216
 20
24498.853823987691
 30
0.0
 42
0.4152000808880583
  0
VERTEX
  5
D918
  8
0
 62
     1
 10
-1700.17331222948
 20
24494.733768211048
 30
0.0
 42
0.0051725841772695
  0
VERTEX
  5
D919
  8
0
 62
     1
 10
-1704.858491599264
 20
24464.264096049421
 30
0.0
  0
VERTEX
  5
D91A
  8
0
 62
     1
 10
-1692.5995496414571
 20
24464.264096049421
 30
0.0
 42
-1.0140758623780941
  0
VERTEX
  5
D91B
  8
0
 62
     1
 10
-1687.1006240727099
 20
24464.187231119271
 30
0.0
  0
VERTEX
  5
D91C
  8
0
 62
     1
 10
-1687.3511567464891
 20
24446.264096049421
 30
0.0
 42
-1.0000000000000799
  0
VERTEX
  5
D91D
  8
0
 62
     1
 10
-1692.85115674649
 20
24446.264096049421
 30
0.0
  0
VERTEX
  5
D91E
  8
0
 62
     1
 10
-1707.3240549217351
 20
24446.264096049421
 30
0.0
 42
0.0651077074116682
  0
SEQEND
  5
D91F
  8
0
 62
     1
  0
POLYLINE
  5
FF6
  8
0
 62
     1
 66
     1
 10
0.0
 20
0.0
 30
0.0
 70
     1
210
-0.0000000000000001
220
0.0
230
-1.0
  0
VERTEX
  5
D920
  8
0
 62
     1
 10
-1777.3240549217351
 20
24059.860131522841
 30
0.0
  0
VERTEX
  5
D921
  8
0
 62
     1
 10
-1762.8511567464891
 20
24059.860131522841
 30
0.0
 42
-0.9999999999999998
  0
VERTEX
  5
D922
  8
0
 62
     1
 10
-1757.35115674649
 20
24059.860131522841
 30
0.0
  0
VERTEX
  5
D923
  8
0
 62
     1
 10
-1757.1006240727111
 20
24041.936996452991
 30
0.0
 42
-1.014075862378053
  0
VERTEX
  5
D924
  8
0
 62
     1
 10
-1762.5995496414571
 20
24041.860131522852
 30
0.0
  0
VERTEX
  5
D925
  8
0
 62
     1
 10
-1774.8584915992631
 20
24041.860131522852
 30
0.0
 42
0.0051725841772695
  0
VERTEX
  5
D926
  8
0
 62
     1
 10
-1770.1733122294811
 20
24011.39045936121
 30
0.0
 42
0.4152000808881338
  0
VERTEX
  5
D927
  8
0
 62
     1
 10
-1764.411933005217
 20
24007.270403584582
 30
0.0
  0
VERTEX
  5
D928
  8
0
 62
     1
 10
-1734.8255549441931
 20
24012.235949552862
 30
0.0
 42
0.4132074122808341
  0
VERTEX
  5
D929
  8
0
 62
     1
 10
-1730.719291844915
 20
24017.977620220328
 30
0.0
 42
-0.0816034308277466
  0
VERTEX
  5
D92A
  8
0
 62
     1
 10
-1730.7192918449141
 20
24488.14660735194
 30
0.0
 42
0.41320741228074
  0
VERTEX
  5
D92B
  8
0
 62
     1
 10
-1734.8255549441919
 20
24493.888278019411
 30
0.0
  0
VERTEX
  5
D92C
  8
0
 62
     1
 10
-1764.411933005216
 20
24498.853823987691
 30
0.0
 42
0.4152000808880583
  0
VERTEX
  5
D92D
  8
0
 62
     1
 10
-1770.17331222948
 20
24494.733768211048
 30
0.0
 42
0.0051725841772695
  0
VERTEX
  5
D92E
  8
0
 62
     1
 10
-1774.8584915992631
 20
24464.264096049421
 30
0.0
  0
VERTEX
  5
D92F
  8
0
 62
     1
 10
-1762.5995496414571
 20
24464.264096049421
 30
0.0
 42
-1.0140758623780941
  0
VERTEX
  5
D930
  8
0
 62
     1
 10
-1757.1006240727111
 20
24464.187231119271
 30
0.0
  0
VERTEX
  5
D931
  8
0
 62
     1
 10
-1757.35115674649
 20
24446.264096049421
 30
0.0
 42
-1.0000000000000799
  0
VERTEX
  5
D932
  8
0
 62
     1
 10
-1762.8511567464891
 20
24446.264096049421
 30
0.0
  0
VERTEX
  5
D933
  8
0
 62
     1
 10
-1777.3240549217351
 20
24446.264096049421
 30
0.0
 42
0.0651077074116682
  0
SEQEND
  5
D934
  8
0
 62
     1
  0
POLYLINE
  5
FF7
  8
0
 62
     1
 66
     1
 10
0.0
 20
0.0
 30
0.0
 70
     1
210
-0.0000000000000001
220
0.0
230
-1.0
  0
VERTEX
  5
D935
  8
0
 62
     1
 10
-1847.3240549217351
 20
24059.860131522841
 30
0.0
  0
VERTEX
  5
D936
  8
0
 62
     1
 10
-1832.85115674649
 20
24059.860131522841
 30
0.0
 42
-0.9999999999999998
  0
VERTEX
  5
D937
  8
0
 62
     1
 10
-1827.35115674649
 20
24059.860131522841
 30
0.0
  0
VERTEX
  5
D938
  8
0
 62
     1
 10
-1827.1006240727111
 20
24041.936996452991
 30
0.0
 42
-1.014075862378053
  0
VERTEX
  5
D939
  8
0
 62
     1
 10
-1832.5995496414571
 20
24041.860131522852
 30
0.0
  0
VERTEX
  5
D93A
  8
0
 62
     1
 10
-1844.858491599264
 20
24041.860131522852
 30
0.0
 42
0.0051725841772695
  0
VERTEX
  5
D93B
  8
0
 62
     1
 10
-1840.1733122294811
 20
24011.39045936121
 30
0.0
 42
0.4152000808881338
  0
VERTEX
  5
D93C
  8
0
 62
     1
 10
-1834.411933005217
 20
24007.270403584582
 30
0.0
  0
VERTEX
  5
D93D
  8
0
 62
     1
 10
-1804.8255549441919
 20
24012.235949552862
 30
0.0
 42
0.4132074122808341
  0
VERTEX
  5
D93E
  8
0
 62
     1
 10
-1800.719291844915
 20
24017.977620220328
 30
0.0
 42
-0.0816034308277466
  0
VERTEX
  5
D93F
  8
0
 62
     1
 10
-1800.719291844915
 20
24488.14660735194
 30
0.0
 42
0.41320741228074
  0
VERTEX
  5
D940
  8
0
 62
     1
 10
-1804.8255549441919
 20
24493.888278019411
 30
0.0
  0
VERTEX
  5
D941
  8
0
 62
     1
 10
-1834.411933005217
 20
24498.853823987691
 30
0.0
 42
0.4152000808880583
  0
VERTEX
  5
D942
  8
0
 62
     1
 10
-1840.17331222948
 20
24494.733768211048
 30
0.0
 42
0.0051725841772695
  0
VERTEX
  5
D943
  8
0
 62
     1
 10
-1844.858491599264
 20
24464.264096049421
 30
0.0
  0
VERTEX
  5
D944
  8
0
 62
     1
 10
-1832.5995496414571
 20
24464.264096049421
 30
0.0
 42
-1.0140758623780941
  0
VERTEX
  5
D945
  8
0
 62
     1
 10
-1827.1006240727111
 20
24464.187231119271
 30
0.0
  0
VERTEX
  5
D946
  8
0
 62
     1
 10
-1827.35115674649
 20
24446.264096049421
 30
0.0
 42
-1.0000000000000799
  0
VERTEX
  5
D947
  8
0
 62
     1
 10
-1832.85115674649
 20
24446.264096049421
 30
0.0
  0
VERTEX
  5
D948
  8
0
 62
     1
 10
-1847.3240549217351
 20
24446.264096049421
 30
0.0
 42
0.0651077074116682
  0
SEQEND
  5
D949
  8
0
 62
     1
  0
POLYLINE
  5
FF8
  8
0
 62
     1
 66
     1
 10
0.0
 20
0.0
 30
0.0
 70
     1
210
-0.0000000000000001
220
0.0
230
-1.0
  0
VERTEX
  5
D94A
  8
0
 62
     1
 10
-1917.3240549217351
 20
24059.860131522841
 30
0.0
  0
VERTEX
  5
D94B
  8
0
 62
     1
 10
-1902.85115674649
 20
24059.860131522841
 30
0.0
 42
-0.9999999999999998
  0
VERTEX
  5
D94C
  8
0
 62
     1
 10
-1897.3511567464909
 20
24059.860131522841
 30
0.0
  0
VERTEX
  5
D94D
  8
0
 62
     1
 10
-1897.1006240727111
 20
24041.936996452991
 30
0.0
 42
-1.014075862378053
  0
VERTEX
  5
D94E
  8
0
 62
     1
 10
-1902.5995496414571
 20
24041.860131522852
 30
0.0
  0
VERTEX
  5
D94F
  8
0
 62
     1
 10
-1914.858491599264
 20
24041.860131522852
 30
0.0
 42
0.0051725841772695
  0
VERTEX
  5
D950
  8
0
 62
     1
 10
-1910.17331222948
 20
24011.39045936121
 30
0.0
 42
0.4152000808881338
  0
VERTEX
  5
D951
  8
0
 62
     1
 10
-1904.411933005217
 20
24007.270403584582
 30
0.0
  0
VERTEX
  5
D952
  8
0
 62
     1
 10
-1874.8255549441931
 20
24012.235949552862
 30
0.0
 42
0.4132074122808341
  0
VERTEX
  5
D953
  8
0
 62
     1
 10
-1870.719291844915
 20
24017.977620220328
 30
0.0
 42
-0.0816034308277466
  0
VERTEX
  5
D954
  8
0
 62
     1
 10
-1870.7192918449141
 20
24488.14660735194
 30
0.0
 42
0.41320741228074
  0
VERTEX
  5
D955
  8
0
 62
     1
 10
-1874.8255549441919
 20
24493.888278019411
 30
0.0
  0
VERTEX
  5
D956
  8
0
 62
     1
 10
-1904.411933005216
 20
24498.853823987691
 30
0.0
 42
0.4152000808880583
  0
VERTEX
  5
D957
  8
0
 62
     1
 10
-1910.17331222948
 20
24494.733768211048
 30
0.0
 42
0.0051725841772695
  0
VERTEX
  5
D958
  8
0
 62
     1
 10
-1914.858491599264
 20
24464.264096049421
 30
0.0
  0
VERTEX
  5
D959
  8
0
 62
     1
 10
-1902.5995496414571
 20
24464.264096049421
 30
0.0
 42
-1.0140758623780941
  0
VERTEX
  5
D95A
  8
0
 62
     1
 10
-1897.1006240727111
 20
24464.187231119271
 30
0.0
  0
VERTEX
  5
D95B
  8
0
 62
     1
 10
-1897.3511567464909
 20
24446.264096049421
 30
0.0
 42
-1.0000000000000799
  0
VERTEX
  5
D95C
  8
0
 62
     1
 10
-1902.85115674649
 20
24446.264096049421
 30
0.0
  0
VERTEX
  5
D95D
  8
0
 62
     1
 10
-1917.3240549217351
 20
24446.264096049421
 30
0.0
 42
0.0651077074116682
  0
SEQEND
  5
D95E
  8
0
 62
     1
  0
POLYLINE
  5
FF9
  8
0
 62
     1
 66
     1
 10
0.0
 20
0.0
 30
0.0
 70
     1
210
-0.0000000000000001
220
0.0
230
-1.0
  0
VERTEX
  5
D95F
  8
0
 62
     1
 10
-1987.3240549217351
 20
24059.860131522841
 30
0.0
  0
VERTEX
  5
D960
  8
0
 62
     1
 10
-1972.8511567464891
 20
24059.860131522841
 30
0.0
 42
-0.9999999999999998
  0
VERTEX
  5
D961
  8
0
 62
     1
 10
-1967.3511567464909
 20
24059.860131522841
 30
0.0
  0
VERTEX
  5
D962
  8
0
 62
     1
 10
-1967.1006240727099
 20
24041.936996452991
 30
0.0
 42
-1.014075862378053
  0
VERTEX
  5
D963
  8
0
 62
     1
 10
-1972.5995496414571
 20
24041.860131522852
 30
0.0
  0
VERTEX
  5
D964
  8
0
 62
     1
 10
-1984.8584915992631
 20
24041.860131522852
 30
0.0
 42
0.0051725841772695
  0
VERTEX
  5
D965
  8
0
 62
     1
 10
-1980.1733122294811
 20
24011.39045936121
 30
0.0
 42
0.4152000808881338
  0
VERTEX
  5
D966
  8
0
 62
     1
 10
-1974.411933005217
 20
24007.270403584582
 30
0.0
  0
VERTEX
  5
D967
  8
0
 62
     1
 10
-1944.8255549441931
 20
24012.235949552862
 30
0.0
 42
0.4132074122808341
  0
VERTEX
  5
D968
  8
0
 62
     1
 10
-1940.719291844915
 20
24017.977620220328
 30
0.0
 42
-0.0816034308277466
  0
VERTEX
  5
D969
  8
0
 62
     1
 10
-1940.7192918449141
 20
24488.14660735194
 30
0.0
 42
0.41320741228074
  0
VERTEX
  5
D96A
  8
0
 62
     1
 10
-1944.8255549441931
 20
24493.888278019411
 30
0.0
  0
VERTEX
  5
D96B
  8
0
 62
     1
 10
-1974.411933005216
 20
24498.853823987691
 30
0.0
 42
0.4152000808880583
  0
VERTEX
  5
D96C
  8
0
 62
     1
 10
-1980.17331222948
 20
24494.733768211048
 30
0.0
 42
0.0051725841772695
  0
VERTEX
  5
D96D
  8
0
 62
     1
 10
-1984.8584915992631
 20
24464.264096049421
 30
0.0
  0
VERTEX
  5
D96E
  8
0
 62
     1
 10
-1972.5995496414571
 20
24464.264096049421
 30
0.0
 42
-1.0140758623780941
  0
VERTEX
  5
D96F
  8
0
 62
     1
 10
-1967.1006240727099
 20
24464.187231119271
 30
0.0
  0
VERTEX
  5
D970
  8
0
 62
     1
 10
-1967.3511567464909
 20
24446.264096049421
 30
0.0
 42
-1.0000000000000799
  0
VERTEX
  5
D971
  8
0
 62
     1
 10
-1972.8511567464891
 20
24446.264096049421
 30
0.0
  0
VERTEX
  5
D972
  8
0
 62
     1
 10
-1987.3240549217351
 20
24446.264096049421
 30
0.0
 42
0.0651077074116682
  0
SEQEND
  5
D973
  8
0
 62
     1
  0
POLYLINE
  5
FFA
  8
0
 62
     1
 66
     1
 10
0.0
 20
0.0
 30
0.0
 70
     1
210
-0.0000000000000001
220
0.0
230
-1.0
  0
VERTEX
  5
D974
  8
0
 62
     1
 10
-2057.3240549217348
 20
24059.860131522841
 30
0.0
  0
VERTEX
  5
D975
  8
0
 62
     1
 10
-2042.85115674649
 20
24059.860131522841
 30
0.0
 42
-0.9999999999999998
  0
VERTEX
  5
D976
  8
0
 62
     1
 10
-2037.3511567464909
 20
24059.860131522841
 30
0.0
  0
VERTEX
  5
D977
  8
0
 62
     1
 10
-2037.1006240727099
 20
24041.936996452991
 30
0.0
 42
-1.014075862378053
  0
VERTEX
  5
D978
  8
0
 62
     1
 10
-2042.5995496414571
 20
24041.860131522852
 30
0.0
  0
VERTEX
  5
D979
  8
0
 62
     1
 10
-2054.8584915992642
 20
24041.860131522852
 30
0.0
 42
0.0051725841772695
  0
VERTEX
  5
D97A
  8
0
 62
     1
 10
-2050.1733122294809
 20
24011.39045936121
 30
0.0
 42
0.4152000808881338
  0
VERTEX
  5
D97B
  8
0
 62
     1
 10
-2044.4119330052181
 20
24007.270403584582
 30
0.0
  0
VERTEX
  5
D97C
  8
0
 62
     1
 10
-2014.8255549441931
 20
24012.235949552862
 30
0.0
 42
0.4132074122808341
  0
VERTEX
  5
D97D
  8
0
 62
     1
 10
-2010.719291844915
 20
24017.977620220328
 30
0.0
 42
-0.0816034308277466
  0
VERTEX
  5
D97E
  8
0
 62
     1
 10
-2010.7192918449141
 20
24488.14660735194
 30
0.0
 42
0.41320741228074
  0
VERTEX
  5
D97F
  8
0
 62
     1
 10
-2014.8255549441931
 20
24493.888278019411
 30
0.0
  0
VERTEX
  5
D980
  8
0
 62
     1
 10
-2044.4119330052181
 20
24498.853823987691
 30
0.0
 42
0.4152000808880583
  0
VERTEX
  5
D981
  8
0
 62
     1
 10
-2050.17331222948
 20
24494.733768211048
 30
0.0
 42
0.0051725841772695
  0
VERTEX
  5
D982
  8
0
 62
     1
 10
-2054.8584915992642
 20
24464.264096049421
 30
0.0
  0
VERTEX
  5
D983
  8
0
 62
     1
 10
-2042.5995496414571
 20
24464.264096049421
 30
0.0
 42
-1.0140758623780941
  0
VERTEX
  5
D984
  8
0
 62
     1
 10
-2037.1006240727099
 20
24464.187231119271
 30
0.0
  0
VERTEX
  5
D985
  8
0
 62
     1
 10
-2037.3511567464909
 20
24446.264096049421
 30
0.0
 42
-1.0000000000000799
  0
VERTEX
  5
D986
  8
0
 62
     1
 10
-2042.85115674649
 20
24446.264096049421
 30
0.0
  0
VERTEX
  5
D987
  8
0
 62
     1
 10
-2057.3240549217348
 20
24446.264096049421
 30
0.0
 42
0.0651077074116682
  0
SEQEND
  5
D988
  8
0
 62
     1
  0
POLYLINE
  5
FFB
  8
0
 62
     1
 66
     1
 10
0.0
 20
0.0
 30
0.0
 70
     1
210
-0.0000000000000001
220
0.0
230
-1.0
  0
VERTEX
  5
D989
  8
0
 62
     1
 10
-2127.3240549217348
 20
24059.860131522841
 30
0.0
  0
VERTEX
  5
D98A
  8
0
 62
     1
 10
-2112.8511567464898
 20
24059.860131522841
 30
0.0
 42
-0.9999999999999998
  0
VERTEX
  5
D98B
  8
0
 62
     1
 10
-2107.3511567464898
 20
24059.860131522841
 30
0.0
  0
VERTEX
  5
D98C
  8
0
 62
     1
 10
-2107.1006240727102
 20
24041.936996452991
 30
0.0
 42
-1.014075862378053
  0
VERTEX
  5
D98D
  8
0
 62
     1
 10
-2112.5995496414571
 20
24041.860131522852
 30
0.0
  0
VERTEX
  5
D98E
  8
0
 62
     1
 10
-2124.8584915992642
 20
24041.860131522852
 30
0.0
 42
0.0051725841772695
  0
VERTEX
  5
D98F
  8
0
 62
     1
 10
-2120.1733122294818
 20
24011.39045936121
 30
0.0
 42
0.4152000808881338
  0
VERTEX
  5
D990
  8
0
 62
     1
 10
-2114.4119330052181
 20
24007.270403584582
 30
0.0
  0
VERTEX
  5
D991
  8
0
 62
     1
 10
-2084.8255549441942
 20
24012.235949552862
 30
0.0
 42
0.4132074122808341
  0
VERTEX
  5
D992
  8
0
 62
     1
 10
-2080.719291844915
 20
24017.977620220328
 30
0.0
 42
-0.0816034308277466
  0
VERTEX
  5
D993
  8
0
 62
     1
 10
-2080.719291844915
 20
24488.14660735194
 30
0.0
 42
0.41320741228074
  0
VERTEX
  5
D994
  8
0
 62
     1
 10
-2084.8255549441928
 20
24493.888278019411
 30
0.0
  0
VERTEX
  5
D995
  8
0
 62
     1
 10
-2114.4119330052181
 20
24498.853823987691
 30
0.0
 42
0.4152000808880583
  0
VERTEX
  5
D996
  8
0
 62
     1
 10
-2120.17331222948
 20
24494.733768211048
 30
0.0
 42
0.0051725841772695
  0
VERTEX
  5
D997
  8
0
 62
     1
 10
-2124.8584915992642
 20
24464.264096049421
 30
0.0
  0
VERTEX
  5
D998
  8
0
 62
     1
 10
-2112.5995496414571
 20
24464.264096049421
 30
0.0
 42
-1.0140758623780941
  0
VERTEX
  5
D999
  8
0
 62
     1
 10
-2107.1006240727102
 20
24464.187231119271
 30
0.0
  0
VERTEX
  5
D99A
  8
0
 62
     1
 10
-2107.3511567464898
 20
24446.264096049421
 30
0.0
 42
-1.0000000000000799
  0
VERTEX
  5
D99B
  8
0
 62
     1
 10
-2112.8511567464898
 20
24446.264096049421
 30
0.0
  0
VERTEX
  5
D99C
  8
0
 62
     1
 10
-2127.3240549217348
 20
24446.264096049421
 30
0.0
 42
0.0651077074116682
  0
SEQEND
  5
D99D
  8
0
 62
     1
  0
POLYLINE
  5
FFC
  8
0
 62
     1
 66
     1
 10
0.0
 20
0.0
 30
0.0
 70
     1
210
-0.0000000000000001
220
0.0
230
-1.0
  0
VERTEX
  5
D99E
  8
0
 62
     1
 10
-2197.3240549217362
 20
24059.860131522841
 30
0.0
  0
VERTEX
  5
D99F
  8
0
 62
     1
 10
-2182.8511567464898
 20
24059.860131522841
 30
0.0
 42
-0.9999999999999998
  0
VERTEX
  5
D9A0
  8
0
 62
     1
 10
-2177.3511567464911
 20
24059.860131522841
 30
0.0
  0
VERTEX
  5
D9A1
  8
0
 62
     1
 10
-2177.1006240727102
 20
24041.936996452991
 30
0.0
 42
-1.014075862378053
  0
VERTEX
  5
D9A2
  8
0
 62
     1
 10
-2182.599549641458
 20
24041.860131522852
 30
0.0
  0
VERTEX
  5
D9A3
  8
0
 62
     1
 10
-2194.8584915992642
 20
24041.860131522852
 30
0.0
 42
0.0051725841772695
  0
VERTEX
  5
D9A4
  8
0
 62
     1
 10
-2190.1733122294809
 20
24011.39045936121
 30
0.0
 42
0.4152000808881338
  0
VERTEX
  5
D9A5
  8
0
 62
     1
 10
-2184.4119330052172
 20
24007.270403584582
 30
0.0
  0
VERTEX
  5
D9A6
  8
0
 62
     1
 10
-2154.8255549441928
 20
24012.235949552862
 30
0.0
 42
0.4132074122808341
  0
VERTEX
  5
D9A7
  8
0
 62
     1
 10
-2150.7192918449141
 20
24017.977620220328
 30
0.0
 42
-0.0816034308277466
  0
VERTEX
  5
D9A8
  8
0
 62
     1
 10
-2150.7192918449141
 20
24488.14660735194
 30
0.0
 42
0.41320741228074
  0
VERTEX
  5
D9A9
  8
0
 62
     1
 10
-2154.8255549441928
 20
24493.888278019411
 30
0.0
  0
VERTEX
  5
D9AA
  8
0
 62
     1
 10
-2184.4119330052172
 20
24498.853823987691
 30
0.0
 42
0.4152000808880583
  0
VERTEX
  5
D9AB
  8
0
 62
     1
 10
-2190.17331222948
 20
24494.733768211048
 30
0.0
 42
0.0051725841772695
  0
VERTEX
  5
D9AC
  8
0
 62
     1
 10
-2194.8584915992642
 20
24464.264096049421
 30
0.0
  0
VERTEX
  5
D9AD
  8
0
 62
     1
 10
-2182.599549641458
 20
24464.264096049421
 30
0.0
 42
-1.0140758623780941
  0
VERTEX
  5
D9AE
  8
0
 62
     1
 10
-2177.1006240727102
 20
24464.187231119271
 30
0.0
  0
VERTEX
  5
D9AF
  8
0
 62
     1
 10
-2177.3511567464911
 20
24446.264096049421
 30
0.0
 42
-1.0000000000000799
  0
VERTEX
  5
D9B0
  8
0
 62
     1
 10
-2182.8511567464898
 20
24446.264096049421
 30
0.0
  0
VERTEX
  5
D9B1
  8
0
 62
     1
 10
-2197.3240549217362
 20
24446.264096049421
 30
0.0
 42
0.0651077074116682
  0
SEQEND
  5
D9B2
  8
0
 62
     1
  0
ARC
  5
25CB
  8
0
 62
     1
 10
-221.55335532980371
 20
24316.82229161846
 30
0.0000000000023913
 40
58.265731022820951
210
0.0
220
0.0000000000000001
230
-1.0
 50
129.5748795079368
 51
188.82840581431131
  0
ARC
  5
25CC
  8
0
 62
     1
 10
-284.03475884290219
 20
24393.131742105601
 30
0.0000000000023913
 40
40.361635996892851
210
0.0
220
0.0000000000000001
230
-1.0
 50
308.92827731537881
 51
350.95835050889201
  0
ARC
  5
25CD
  8
0
 62
     1
 10
-249.1125136564701
 20
24387.574576324791
 30
0.0000000000023913
 40
4.9999999999997611
210
0.0
220
0.0000000000000001
230
-1.0
 50
350.95835050889178
 51
81.693526737657535
  0
ARC
  5
25CE
  8
0
 62
     1
 10
-410.80838495678648
 20
23280.065644240531
 30
0.0000000000023913
 40
1124.2504587633609
210
0.0
220
0.0000000000000001
230
-1.0
 50
81.693526737631373
 51
82.682756956224026
  0
LINE
  5
25CF
  8
0
 62
     1
 10
267.62034855907041
 20
24395.160384727711
 30
0.0000000000000483
 11
269.15839362460878
 21
24380.733532677368
 31
0.0000000000000468
210
0.0
220
0.0000000000000001
230
-1.0
  0
ARC
  5
25D0
  8
0
 62
     1
 10
-269.44991880518319
 20
24377.999028504932
 30
0.0000000000023913
 40
2.7499999999997669
210
0.0
220
0.0000000000000001
230
-1.0
 50
262.31301223994262
 51
83.914688507351627
  0
LINE
  5
25D1
  8
0
 62
     1
 10
269.81776189428052
 20
24375.273741095902
 30
0.0000000000000463
 11
287.61334409382653
 21
24377.422878488451
 31
0.0000000000000465
210
0.0
220
0.0000000000000001
230
-1.0
  0
ARC
  5
25D2
  8
0
 62
     1
 10
-287.32181891325132
 20
24380.157382660891
 30
0.0000000000023913
 40
2.7499999999998641
210
0.0
220
0.0000000000000001
230
-1.0
 50
83.914688507326005
 51
263.91468850732588
  0
LINE
  5
25D3
  8
0
 62
     1
 10
287.03029373267549
 20
24382.891886833331
 30
0.000000000000047
 11
285.49316885987218
 21
24397.310107482212
 31
0.0000000000000485
210
0.0
220
0.0000000000000001
230
-1.0
  0
ARC
  5
25D4
  8
0
 62
     1
 10
-410.80838495679097
 20
23280.065644240531
 30
0.0000000000023913
 40
1124.2504587633571
210
0.0
220
0.0000000000000001
230
-1.0
 50
83.600193956577115
 51
84.788379170101024
  0
LINE
  5
25D5
  8
0
 62
     1
 10
308.68758319894999
 20
24399.66844696923
 30
0.0000000000000487
 11
309.69452171247082
 21
24385.194825502851
 31
0.0000000000000473
210
0.0
220
0.0000000000000001
230
-1.0
  0
ARC
  5
25D6
  8
0
 62
     1
 10
-309.88537953451441
 20
24382.451456535371
 30
0.0000000000023913
 40
2.74999999999996
210
0.0
220
0.0000000000000001
230
-1.0
 50
264.41863442786689
 51
86.020310695245755
  0
LINE
  5
25D7
  8
0
 62
     1
 10
310.15284237490232
 20
24379.714494053162
 30
0.0000000000000467
 11
328.01537198589182
 21
24381.20833917542
 31
0.0000000000000469
210
0.0
220
0.0000000000000001
230
-1.0
  0
ARC
  5
25D8
  8
0
 62
     1
 10
-327.82451416384811
 20
24383.951708142911
 30
0.0000000000023913
 40
2.7500000000002429
210
0.0
220
0.0000000000000001
230
-1.0
 50
86.020310695245755
 51
266.02031069524571
  0
LINE
  5
25D9
  8
0
 62
     1
 10
327.633656341804
 20
24386.695077110391
 30
0.0000000000000474
 11
326.62732026730868
 21
24401.160039185648
 31
0.0000000000000489
210
0.0
220
0.0000000000000001
230
-1.0
  0
ARC
  5
25DA
  8
0
 62
     1
 10
-410.80838495677102
 20
23280.065644240531
 30
0.0000000000023913
 40
1124.250458763353
210
0.0
220
0.0000000000000001
230
-1.0
 50
85.705816170447065
 51
86.894001383972437
  0
LINE
  5
25DB
  8
0
 62
     1
 10
349.89272314604619
 20
24402.664582497539
 30
0.000000000000049
 11
350.3671953215744
 21
24388.163737006689
 31
0.0000000000000476
210
0.0
220
0.0000000000000001
230
-1.0
  0
ARC
  5
25DC
  8
0
 62
     1
 10
-350.45712804811768
 20
24385.41520792649
 30
0.0000000000023913
 40
2.7499999999998561
210
0.0
220
0.0000000000000001
230
-1.0
 50
266.52425661577581
 51
88.125932883167167
  0
LINE
  5
25DD
  8
0
 62
     1
 10
350.62384945437952
 20
24382.670266402041
 30
0.000000000000047
 11
368.52920467669719
 21
24383.506801945481
 31
0.0000000000000471
210
0.0
220
0.0000000000000001
230
-1.0
  0
ARC
  5
25DE
  8
0
 62
     1
 10
-368.43927195015158
 20
24386.255331025681
 30
0.0000000000023913
 40
2.7500000000000999
210
0.0
220
0.0000000000000001
230
-1.0
 50
88.125932883193187
 51
268.12593288311513
  0
LINE
  5
25DF
  8
0
 62
     1
 10
368.34933922360909
 20
24389.00386010588
 30
0.0000000000000476
 11
367.8751509192607
 21
24403.49602990966
 31
0.0000000000000491
210
0.0
220
0.0000000000000001
230
-1.0
  0
ARC
  5
25E0
  8
0
 62
     1
 10
-410.80838495677472
 20
23280.065644240502
 30
0.0000000000023913
 40
1124.2504587633809
210
0.0
220
0.0000000000000001
230
-1.0
 50
87.811438384330629
 51
88.99962359782927
  0
LINE
  5
25E1
  8
0
 62
     1
 10
391.18012442338699
 20
24404.144745290829
 30
0.0000000000000492
 11
391.12148952670219
 21
24389.636257930892
 31
0.0000000000000477
210
0.0
220
0.0000000000000001
230
-1.0
  0
ARC
  5
25E2
  8
0
 62
     1
 10
-391.11037571138382
 20
24386.88628038859
 30
0.0000000000023913
 40
2.7499999999999059
210
0.0
220
0.0000000000000001
230
-1.0
 50
268.62987880373959
 51
90.231555071065628
  0
LINE
  5
25E3
  8
0
 62
     1
 10
391.17613054069028
 20
24384.13706662782
 30
0.0000000000000472
 11
409.1001317419354
 21
24384.315162923602
 31
0.0000000000000472
210
0.0
220
0.0000000000000001
230
-1.0
  0
ARC
  5
25E4
  8
0
 62
     1
 10
-409.11124555725331
 20
24387.0651404659
 30
0.0000000000023913
 40
2.7500000000001892
210
0.0
220
0.0000000000000001
230
-1.0
 50
90.231555071117725
 51
270.2315550710656
  0
LINE
  5
25E5
  8
0
 62
     1
 10
409.1223593725739
 20
24389.815118008191
 30
0.0000000000000477
 11
409.18095918865117
 21
24404.314925100869
 31
0.0000000000000492
210
0.0
220
0.0000000000000001
230
-1.0
  0
ARC
  5
25E6
  8
0
 62
     1
 10
-410.80838495677148
 20
23280.065644240549
 30
0.0000000000023913
 40
1124.2504587633359
210
0.0
220
0.0000000000000001
230
-1.0
 50
89.917060598170792
 51
91.105245811643044
  0
LINE
  5
25E7
  8
0
 62
     1
 10
432.49403196718629
 20
24404.106936517361
 30
0.0000000000000492
 11
431.90236918108661
 21
24389.61039976338
 31
0.0000000000000477
210
0.0
220
0.0000000000000001
230
-1.0
  0
ARC
  5
25E8
  8
0
 62
     1
 10
-431.79022383214942
 20
24386.862687365639
 30
0.0000000000023913
 40
2.7499999999999458
210
0.0
220
0.0000000000000001
230
-1.0
 50
270.73550099163123
 51
92.337177259013188
  0
LINE
  5
25E9
  8
0
 62
     1
 10
431.75492328829739
 20
24384.112913943769
 30
0.0000000000000472
 11
449.67336565629188
 21
24383.632330488261
 31
0.0000000000000471
210
0.0
220
0.0000000000000001
230
-1.0
  0
ARC
  5
25EA
  8
0
 62
     1
 10
-449.78551100522958
 20
24386.380042886001
 30
0.0000000000023913
 40
2.750000000000306
210
0.0
220
0.0000000000000001
230
-1.0
 50
92.337177258987211
 51
272.33717725903909
  0
LINE
  5
25EB
  8
0
 62
     1
 10
449.89765635416501
 20
24389.127755283738
 30
0.0000000000000477
 11
450.48896515464128
 21
24403.61561891223
 31
0.0000000000000491
210
0.0
220
0.0000000000000001
230
-1.0
  0
ARC
  5
25EC
  8
0
 62
     1
 10
-410.8083849567833
 20
23280.065644240509
 30
0.0000000000023913
 40
1124.250458763373
210
0.0
220
0.0000000000000001
230
-1.0
 50
92.022682811992823
 51
93.210868025347423
  0
LINE
  5
25ED
  8
0
 62
     1
 10
473.77865491924513
 20
24402.551207234759
 30
0.000000000000049
 11
472.654763236615
 21
24388.086197423389
 31
0.0000000000000476
210
0.0
220
0.0000000000000001
230
-1.0
  0
ARC
  5
25EE
  8
0
 62
     1
 10
-472.44173779664601
 20
24385.344460717959
 30
0.0000000000023913
 40
2.7500000000002078
210
0.0
220
0.0000000000000001
230
-1.0
 50
272.84112317953691
 51
94.442799446959967
  0
LINE
  5
25EF
  8
0
 62
     1
 10
472.30542954996548
 20
24382.597840965991
 30
0.000000000000047
 11
490.1941157792503
 21
24381.459226745541
 31
0.0000000000000469
210
0.0
220
0.0000000000000001
230
-1.0
  0
ARC
  5
25F0
  8
0
 62
     1
 10
-490.40714121921877
 20
24384.200963450981
 30
0.0000000000023913
 40
2.7500000000000591
210
0.0
220
0.0000000000000001
230
-1.0
 50
94.442799446933634
 51
274.4427994469599
  0
LINE
  5
25F1
  8
0
 62
     1
 10
490.620166659186
 20
24386.942700156411
 30
0.0000000000000474
 11
491.74338592861108
 21
24401.39905569642
 31
0.0000000000000489
210
0.0
220
0.0000000000000001
230
-1.0
  0
ARC
  5
25F2
  8
0
 62
     1
 10
-410.80838495677739
 20
23280.06564424056
 30
0.0000000000023913
 40
1124.2504587633291
210
0.0
220
0.0000000000000001
230
-1.0
 50
94.128305025699007
 51
95.316490238937817
  0
LINE
  5
25F3
  8
0
 62
     1
 10
514.97824196768852
 20
24399.479658321088
 30
0.0000000000000487
 11
513.32363911250695
 21
24385.06570921425
 31
0.0000000000000473
210
0.0
220
0.0000000000000001
230
-1.0
  0
ARC
  5
25F4
  8
0
 62
     1
 10
-513.01002125392677
 20
24382.333650679229
 30
0.0000000000023913
 40
2.7499999999998068
210
0.0
220
0.0000000000000001
230
-1.0
 50
274.94674536746737
 51
96.548421634852374
  0
LINE
  5
25F5
  8
0
 62
     1
 10
512.77288937690355
 20
24379.593893669411
 30
0.0000000000000467
 11
530.60766234511311
 21
24377.798786283969
 31
0.0000000000000465
210
0.0
220
0.0000000000000001
230
-1.0
  0
ARC
  5
25F6
  8
0
 62
     1
 10
-530.92128020369307
 20
24380.53084481899
 30
0.0000000000023913
 40
2.7499999999999201
210
0.0
220
0.0000000000000001
230
-1.0
 50
96.548421634852374
 51
276.54842163485239
  0
LINE
  5
25F7
  8
0
 62
     1
 10
531.23489806227315
 20
24383.262903354011
 30
0.0000000000000471
 11
532.88851098411533
 21
24397.668228730548
 31
0.0000000000000485
210
0.0
220
0.0000000000000001
230
-1.0
  0
ARC
  5
25F8
  8
0
 62
     1
 10
-410.80838495676699
 20
23280.065644240542
 30
0.0000000000023913
 40
1124.2504587633441
210
0.0
220
0.0000000000000001
230
-1.0
 50
96.233927239282778
 51
97.422112452400484
  0
LINE
  5
25F9
  8
0
 62
     1
 10
556.0371566342983
 20
24394.896437637741
 30
0.0000000000000482
 11
553.85407701205747
 21
24380.553014043839
 31
0.0000000000000468
210
0.0
220
0.0000000000000001
230
-1.0
  0
ARC
  5
25FA
  8
0
 62
     1
 10
-553.4402902486363
 20
24377.834323087809
 30
0.0000000000023913
 40
2.7499999999998161
210
0.0
220
0.0000000000000001
230
-1.0
 50
277.05236755539369
 51
98.654043822779514
  0
LINE
  5
25FB
  8
0
 62
     1
 10
553.10265496734519
 20
24375.105128624818
 30
0.0000000000000463
 11
570.85943035730577
 21
24372.655952211539
 31
0.000000000000046
210
0.0
220
0.0000000000000001
230
-1.0
  0
ARC
  5
25FC
  8
0
 62
     1
 10
-571.27321712072614
 20
24375.374643167579
 30
0.0000000000023913
 40
2.7500000000004099
210
0.0
220
0.0000000000000001
230
-1.0
 50
98.654043822754304
 51
278.6540438227795
  0
LINE
  5
25FD
  8
0
 62
     1
 10
571.68700388414607
 20
24378.093334123609
 30
0.0000000000000466
 11
573.868777389152
 21
24392.428176173991
 31
0.000000000000048
210
0.0
220
0.0000000000000001
230
-1.0
  0
ARC
  5
25FE
  8
0
 62
     1
 10
-410.80838495679382
 20
23280.065644240549
 30
0.0000000000023913
 40
1124.2504587633291
210
0.0
220
0.0000000000000001
230
-1.0
 50
98.339549452699245
 51
99.527734665621949
  0
LINE
  5
25FF
  8
0
 62
     1
 10
596.89995240677115
 20
24388.807734428148
 30
0.0000000000000476
 11
594.19134408706304
 21
24374.554205916389
 31
0.0000000000000462
210
0.0
220
0.0000000000000001
230
-1.0
  0
ARC
  5
2600
  8
0
 62
     1
 10
-593.67794720200925
 20
24371.852553896158
 30
0.0000000000023913
 40
2.749999999999909
210
0.0
220
0.0000000000000001
230
-1.0
 50
279.15798974333381
 51
100.7596660107217
  0
LINE
  5
2601
  8
0
 62
     1
 10
593.24026446367407
 20
24369.13760752089
 30
0.0000000000000457
 11
610.8950632871879
 21
24366.037669480531
 31
0.0000000000000453
210
0.0
220
0.0000000000000001
230
-1.0
  0
ARC
  5
2602
  8
0
 62
     1
 10
-611.40846017224146
 20
24368.739321500761
 30
0.0000000000023913
 40
2.7500000000003562
210
0.0
220
0.0000000000000001
230
-1.0
 50
100.7596660107217
 51
280.75966601072179
  0
LINE
  5
2603
  8
0
 62
     1
 10
611.92185705729526
 20
24371.440973520999
 30
0.0000000000000459
 11
614.62884483909784
 21
24385.685974264801
 31
0.0000000000000473
210
0.0
220
0.0000000000000001
230
-1.0
  0
ARC
  5
2604
  8
0
 62
     1
 10
-410.723936373708
 20
23279.63005452654
 30
0.0000000000023913
 40
1124.694140326307
210
0.0
220
0.0000000000000001
230
-1.0
 50
100.44537947130971
 51
101.6330959565518
  0
LINE
  5
2605
  8
0
 62
     1
 10
637.51145002189185
 20
24381.221781500561
 30
0.0000000000000469
 11
634.28096834979976
 21
24367.077385703029
 31
0.0000000000000455
210
0.0
220
0.0000000000000001
230
-1.0
  0
ARC
  5
2606
  8
0
 62
     1
 10
-633.66865464116927
 20
24364.396420965812
 30
0.0000000000023913
 40
2.750000000000413
210
0.0
220
0.0000000000000001
230
-1.0
 50
281.26361193128719
 51
102.8652881986512
  0
LINE
  5
2607
  8
0
 62
     1
 10
633.13151549844315
 20
24361.699388978352
 30
0.0000000000000449
 11
650.66049647784155
 21
24357.952875508909
 31
0.0000000000000445
210
0.0
220
0.0000000000000001
230
-1.0
  0
ARC
  5
2608
  8
0
 62
     1
 10
-651.27281018647136
 20
24360.63384024613
 30
0.0000000000023913
 40
2.750000000000266
210
0.0
220
0.0000000000000001
230
-1.0
 50
102.8652881986511
 51
282.86528819865111
  0
LINE
  5
2609
  8
0
 62
     1
 10
651.88512389510151
 20
24363.314804983351
 30
0.0000000000000451
 11
655.11370370893474
 21
24377.450873652389
 31
0.0000000000000465
210
0.0
220
0.0000000000000001
230
-1.0
  0
ARC
  5
260E
  8
0
 62
     1
 10
-753.28393568761885
 20
24601.576979663449
 30
0.0000000000024622
 40
2.7499999999996381
210
0.0
220
0.0000000000000001
230
-1.0
 50
186.39834181301271
 51
8.0000180804409844
  0
LINE
  5
260F
  8
0
 62
     1
 10
756.01680633567321
 20
24601.270519191279
 30
-0.000000000000014
 11
758.26313572710706
 21
24619.05409424294
 31
-0.0000000000000122
210
0.0
220
0.0000000000000001
230
-1.0
  0
ARC
  5
2610
  8
0
 62
     1
 10
-755.53989865884205
 20
24619.43682112993
 30
0.0000000000024622
 40
2.7500000000000919
210
0.0
220
0.0000000000000001
230
-1.0
 50
8.0000180804408565
 51
188.00001808044081
  0
ARC
  5
2612
  8
0
 62
     1
 10
-1401.903857390455
 20
24528.596082850228
 30
0.0000000000023796
 40
669.95641967866493
210
0.0
220
0.0000000000000001
230
-1.0
 50
8.0000180804409844
 51
10.73652566818248
  0
ARC
  5
2614
  8
0
 62
     1
 10
-760.53110441728222
 20
24649.73652148683
 30
0.0000000000024342
 40
2.750000000000639
210
0.0
220
0.0000000000000001
230
-1.0
 50
190.67442439334559
 51
12.276100660618329
  0
LINE
  5
2615
  8
0
 62
     1
 10
763.23351725194334
 20
24649.227144542841
 30
0.0000000000000189
 11
766.79958069964857
 21
24666.793724427382
 31
0.0000000000000207
210
0.0
220
0.0000000000000001
230
-1.0
  0
ARC
  5
2616
  8
0
 62
     1
 10
-764.11246123954288
 20
24667.378437183459
 30
0.0000000000024342
 40
2.7500000000001221
210
0.0
220
0.0000000000000001
230
-1.0
 50
12.276100660617139
 51
192.2761006606174
  0
ARC
  5
2618
  8
0
 62
     1
 10
-1401.9038573904779
 20
24528.596082850239
 30
0.0000000000023796
 40
669.95641967868653
210
0.0
220
0.0000000000000001
230
-1.0
 50
12.276100660617731
 51
15.012608248342669
  0
ARC
  5
261A
  8
0
 62
     1
 10
-771.3489933295964
 20
24697.221637078081
 30
0.0000000000024694
 40
2.7500000000003819
210
0.0
220
0.0000000000000001
230
-1.0
 50
194.9505069735099
 51
16.552183240830789
  0
LINE
  5
261B
  8
0
 62
     1
 10
774.00590318405955
 20
24696.512179521029
 30
-0.0000000000000115
 11
778.87184731156356
 21
24713.763965663358
 31
-0.0000000000000097
210
0.0
220
0.0000000000000001
230
-1.0
  0
ARC
  5
261C
  8
0
 62
     1
 10
-776.23580548348036
 20
24714.547409012052
 30
0.0000000000024694
 40
2.7499999999998801
210
0.0
220
0.0000000000000001
230
-1.0
 50
16.552183240830239
 51
196.5521832408302
  0
ARC
  5
261E
  8
0
 62
     1
 10
-1401.903857390497
 20
24528.596082850221
 30
0.0000000000023796
 40
669.95641967870768
210
0.0
220
0.0000000000000001
230
-1.0
 50
16.552183240830789
 51
19.288690828485009
  0
ARC
  5
2620
  8
0
 62
     1
 10
-785.67737589624221
 20
24743.767962134491
 30
0.0000000000024414
 40
2.749999999999559
210
0.0
220
0.0000000000000001
230
-1.0
 50
199.22658955356781
 51
20.828265821059151
  0
LINE
  5
2621
  8
0
 62
     1
 10
788.27399093285112
 20
24742.8623737337
 30
0.0000000000000213
 11
794.41272552650889
 21
24759.703320112731
 31
0.0000000000000231
210
0.0
220
0.0000000000000001
230
-1.0
  0
ARC
  5
2622
  8
0
 62
     1
 10
-791.84243698935961
 20
24760.68113238295
 30
0.0000000000024414
 40
2.7500000000002092
210
0.0
220
0.0000000000000001
230
-1.0
 50
20.828265821060882
 51
200.82826582106171
  0
ARC
  5
2624
  8
0
 62
     1
 10
-1401.9038573904791
 20
24528.596082850261
 30
0.0000000000023796
 40
669.95641967867766
210
0.0
220
0.0000000000000001
230
-1.0
 50
20.828265821059968
 51
23.564773408552849
  0
ARC
  5
2626
  8
0
 62
     1
 10
-803.43648158661972
 20
24789.11635889018
 30
0.0000000000024765
 40
2.7499999999992442
210
0.0
220
0.0000000000000001
230
-1.0
 50
203.5026721337376
 51
25.1043484011205
  0
LINE
  5
2627
  8
0
 62
     1
 10
805.95834564758661
 20
24788.019681335922
 30
-0.0000000000000091
 11
813.33569447616992
 21
24804.35602920239
 31
-0.0000000000000073
210
0.0
220
0.0000000000000001
230
-1.0
  0
ARC
  5
2628
  8
0
 62
     1
 10
-810.84546881998949
 20
24805.522766611281
 30
0.0000000000024765
 40
2.7500000000001461
210
0.0
220
0.0000000000000001
230
-1.0
 50
25.10434840111807
 51
205.1043484011193
  0
ARC
  5
262A
  8
0
 62
     1
 10
-1401.903857390472
 20
24528.596082850261
 30
0.0000000000023796
 40
669.95641967866948
210
0.0
220
0.0000000000000001
230
-1.0
 50
25.104348401120511
 51
26.846492612881981
  0
ARC
  5
262B
  8
0
 62
     1
 10
-808.61666642860871
 20
24828.891519233261
 30
0.0000000000023796
 40
4.9999999999993729
210
0.0
220
0.0000000000000001
230
-1.0
 50
26.846492612881981
 51
117.27732024122329
  0
LINE
  5
262C
  8
0
 62
     1
 10
810.90815528589792
 20
24833.33551279952
 30
0.0000000000000924
 11
846.46117324042996
 21
24815.003050506039
 31
0.000000000000091
210
0.0
220
0.0000000000000001
230
-1.0
  0
LINE
  5
2631
  8
0
 62
     1
 10
764.82743900410833
 20
24140.774507149959
 30
0.0000000000000228
 11
790.53941759313227
 21
23978.331438106681
 31
0.0000000000000066
210
0.0
220
0.0000000000000001
230
-1.0
  0
ARC
  5
2632
  8
0
 62
     1
 10
-785.60089852174985
 20
23977.549754422838
 30
0.0000000000023913
 40
4.9999999999998037
210
0.0
220
0.0000000000000001
230
-1.0
 50
171.00566917041149
 51
271.40550950407152
  0
LINE
  5
2633
  8
0
 62
     1
 10
785.47825698014412
 20
23972.551258743901
 30
0.000000000000006
 11
744.25848944096549
 21
23973.562614191698
 31
0.0000000000000061
210
0.0
220
0.0000000000000001
230
-1.0
  0
ARC
  5
2634
  8
0
 62
     1
 10
-744.3811309825719
 20
23978.561109870629
 30
0.0000000000023913
 40
4.9999999999993241
210
0.0
220
0.0000000000000001
230
-1.0
 50
271.40550950407152
 51
344.81811738545008
  0
LINE
  5
2635
  8
0
 62
     1
 10
739.55563421982515
 20
23977.251689772751
 30
0.0000000000000065
 11
690.71728826445531
 21
24157.231576050792
 31
0.0000000000000245
210
0.0
220
0.0000000000000001
230
-1.0
  0
ARC
  5
2636
  8
0
 62
     1
 10
-671.41530121346659
 20
24151.993895659289
 30
0.0000000000023913
 40
20.00000000000022
210
0.0
220
0.0000000000000001
230
-1.0
 50
94.516350157554683
 51
164.8181173854496
  0
ARC
  5
2638
  8
0
 62
     1
 10
-337.15044447075252
 20
24178.397090583061
 30
0.0000000000023913
 40
20.000000000000121
210
0.0
220
0.0000000000000001
230
-1.0
 50
11.492472650345359
 51
94.516350157554683
  0
LINE
  5
2639
  8
0
 62
     1
 10
317.5514267001081
 20
24182.381874444949
 30
0.000000000000027
 11
278.25865414968621
 21
23989.121769464269
 31
0.0000000000000077
210
0.0
220
0.0000000000000001
230
-1.0
  0
ARC
  5
263A
  8
0
 62
     1
 10
-273.3588997070251
 20
23990.117965429741
 30
0.0000000000023913
 40
4.9999999999998757
210
0.0
220
0.0000000000000001
230
-1.0
 50
191.49247265034509
 51
271.40550950407152
  0
LINE
  5
263B
  8
0
 62
     1
 10
273.2362581654192
 20
23985.119469750811
 30
0.0000000000000073
 11
233.1613283428201
 21
23986.10273581502
 31
0.0000000000000074
210
0.0
220
0.0000000000000001
230
-1.0
  0
ARC
  5
263C
  8
0
 62
     1
 10
-233.28396988442589
 20
23991.101231493951
 30
0.0000000000023913
 40
5.0000000000001501
210
0.0
220
0.0000000000000001
230
-1.0
 50
271.40550950407152
 51
9.1298423111709965
  0
LINE
  5
263D
  8
0
 62
     1
 10
228.3473134007663
 20
23991.8945931784
 30
0.0000000000000079
 11
279.12877806137709
 21
24307.879914478999
 31
0.0000000000000395
210
0.0
220
0.0000000000000001
230
-1.0
  0
ARC
  5
2647
  8
0
 10
361.24592889024871
 20
24435.428380522178
 30
-0.0000000000001389
 40
424.96150436155392
 50
342.93898349974307
 51
4.1691959171029609
  0
ARC
  5
2648
  8
0
 10
1274.7925665191469
 20
24217.74621941405
 30
0.0000000000000539
 40
515.74128763392139
 50
169.61111942378059
 51
188.5831649404862
  0
LINE
  5
2649
  8
0
 10
736.20181225941224
 20
24603.977721045499
 30
0.0000000000000687
 11
750.56069861935475
 21
24601.959706550449
 31
-0.000000000000014
  0
LINE
  5
264A
  8
0
 10
752.81666159057738
 20
24619.819548016931
 30
-0.0000000000000122
 11
738.46743695744863
 21
24621.836204641739
 31
0.0
  0
LINE
  5
264B
  8
0
 10
743.67553689480292
 20
24653.404265138612
 30
0.0000000000000737
 11
757.84398495717642
 21
24650.321234242911
 31
0.0000000000000189
  0
LINE
  5
264C
  8
0
 10
754.81382186252995
 20
24702.135963537999
 30
0.0000000000000786
 11
768.71295150151298
 21
24698.005080426759
 31
-0.0000000000000114
  0
LINE
  5
264E
  8
0
 10
769.55465689048776
 20
24749.901511829521
 30
0.0000000000000836
 11
783.10708735909293
 21
24744.74577440471
 31
0.0000000000000215
  0
LINE
  5
264F
  8
0
 10
787.81597519785055
 20
24796.43498445502
 30
0.0000000000000884
 11
800.94625593043975
 21
24790.28309629907
 31
-0.0000000000000089
  0
LINE
  5
2650
  8
0
 10
761.42534177943753
 20
24667.96314993954
 30
0.0000000000000207
 11
747.26642730282219
 21
24671.044106342721
 31
0.0
  0
LINE
  5
2651
  8
0
 10
773.59976365539706
 20
24715.33085236073
 30
-0.0000000000000096
 11
759.70998638470701
 21
24719.458955906539
 31
-0.0000000000000425
  0
LINE
  5
2652
  8
0
 10
789.27214845221033
 20
24761.658944653169
 30
0.0000000000000232
 11
775.72883706690925
 21
24766.811212914341
 31
0.0000000000000853
  0
LINE
  5
2653
  8
0
 10
808.35524316380861
 20
24806.689504020171
 30
-0.0000000000000072
 11
795.23379746077444
 21
24812.837252728161
 31
0.0
  0
POLYLINE
  5
2654
  8
0
 62
     1
 66
     1
 10
0.0
 20
0.0
 30
0.0
210
0.0
220
0.0000000000000001
230
-1.0
  0
VERTEX
  5
D9EF
  8
0
 62
     1
 10
-655.11370370893474
 20
24377.450873652389
 30
0.0
 42
0.0017426456982444
  0
VERTEX
  5
D9F0
  8
0
 62
     1
 10
-662.85856333097706
 20
24375.69790595246
 30
0.0
 42
-0.2477853666047801
  0
VERTEX
  5
D9F1
  8
0
 62
     1
 10
-732.48128695259936
 20
24501.85610422213
 30
0.0
 42
0.0381884528845361
  0
VERTEX
  5
D9F2
  8
0
 62
     1
 10
-736.20181225941224
 20
24603.977721045499
 30
0.0
  0
SEQEND
  5
D9F3
  8
0
 62
     1
  0
POLYLINE
  5
2655
  8
0
 62
     1
 66
     1
 10
0.0
 20
0.0
 30
0.0
210
0.0
220
0.0000000000000001
230
-1.0
  0
VERTEX
  5
D9F4
  8
0
 62
     1
 10
-785.08286116432691
 20
24466.32393084473
 30
0.0
 42
0.1431392665561409
  0
VERTEX
  5
D9F5
  8
0
 62
     1
 10
-848.63186890869486
 20
24808.303195849221
 30
0.0
 42
-0.4118721649383845
  0
VERTEX
  5
D9F6
  8
0
 62
     1
 10
-846.46117324043053
 20
24815.003050506039
 30
0.0
  0
SEQEND
  5
D9F7
  8
0
 62
     1
  0
POLYLINE
  5
2656
  8
0
 62
     1
 66
     1
 10
0.0
 20
0.0
 30
0.0
  0
VERTEX
  5
D9F8
  8
0
 62
     1
 10
672.99017275206143
 20
24171.93179373398
 30
0.0
  0
VERTEX
  5
D9F9
  8
0
 62
     1
 10
338.7253160093473
 20
24198.33498865776
 30
0.0
  0
SEQEND
  5
D9FA
  8
0
 62
     1
  0
POLYLINE
  5
26A8
  8
0
 62
     1
 66
     1
 10
0.0
 20
0.0
 30
0.0
 70
     1
210
0.0
220
-0.0000000000000001
230
-1.0
  0
VERTEX
  5
D9FB
  8
0
 62
     1
 10
-250.4146795995556
 20
24568.615883881648
 30
0.0
 42
-0.3506177883309338
  0
VERTEX
  5
D9FC
  8
0
 62
     1
 10
-323.29781874486872
 20
24500.270949754689
 30
0.0
  0
VERTEX
  5
D9FD
  8
0
 62
     1
 10
-493.6609352599155
 20
24486.814163968109
 30
0.0
 42
-0.4082028332953425
  0
VERTEX
  5
D9FE
  8
0
 62
     1
 10
-579.56560680564485
 20
24558.62759156663
 30
0.0
  0
VERTEX
  5
D9FF
  8
0
 62
     1
 10
-580.77444157856985
 20
24570.74998003295
 30
0.0
 42
-0.420249947459481
  0
VERTEX
  5
DA00
  8
0
 62
     1
 10
-562.44801676932616
 20
24592.67241928271
 30
0.0
  0
VERTEX
  5
DA01
  8
0
 62
     1
 10
-553.12385134036526
 20
24593.408924339568
 30
0.0
  0
VERTEX
  5
DA02
  8
0
 62
     1
 10
-554.58794194056986
 20
24608.091059072209
 30
0.0
 42
-0.9733012428498709
  0
VERTEX
  5
DA03
  8
0
 62
     1
 10
-555.1088122574904
 20
24613.314429927948
 30
0.0
  0
VERTEX
  5
DA04
  8
0
 62
     1
 10
-537.16090870644689
 20
24614.732114097769
 30
0.0
 42
-0.9787478472368925
  0
VERTEX
  5
DA05
  8
0
 62
     1
 10
-536.63996784970993
 20
24609.508035857471
 30
0.0
  0
VERTEX
  5
DA06
  8
0
 62
     1
 10
-535.17594778932175
 20
24594.826608509389
 30
0.0
  0
VERTEX
  5
DA07
  8
0
 62
     1
 10
-296.30984382426851
 20
24613.694366146639
 30
0.0
  0
VERTEX
  5
DA08
  8
0
 62
     1
 10
-297.77393442447129
 20
24628.37650087928
 30
0.0
 42
-0.9733012428498679
  0
VERTEX
  5
DA09
  8
0
 62
     1
 10
-298.2948047413941
 20
24633.59987173503
 30
0.0
  0
VERTEX
  5
DA0A
  8
0
 62
     1
 10
-280.34690119035008
 20
24635.01755590484
 30
0.0
 42
-0.9787478472368807
  0
VERTEX
  5
DA0B
  8
0
 62
     1
 10
-279.82596033360852
 20
24629.793477664542
 30
0.0
  0
VERTEX
  5
DA0C
  8
0
 62
     1
 10
-278.36194027322267
 20
24615.11205031646
 30
0.0
  0
VERTEX
  5
DA0D
  8
0
 62
     1
 10
-268.25514854108297
 20
24615.910374120998
 30
0.0
 42
-0.4808038345708159
  0
VERTEX
  5
DA0E
  8
0
 62
     1
 10
-246.8846206775641
 20
24593.120811503351
 30
0.0
  0
SEQEND
  5
DA0F
  8
0
 62
     1
  0
ARC
  5
26A9
  8
0
 62
     1
 10
-684.30732645451337
 20
24513.939458755201
 30
-0.0000000000024918
 40
58.265731022820951
210
0.0
220
-0.0000000000000001
230
-1.0
 50
309.57487950793609
 51
8.8284058143115036
  0
ARC
  5
26AA
  8
0
 62
     1
 10
-621.825922941415
 20
24437.630008268061
 30
-0.0000000000024918
 40
40.361635996892851
210
0.0
220
-0.0000000000000001
230
-1.0
 50
128.92827731537821
 51
170.95835050889201
  0
ARC
  5
26AB
  8
0
 62
     1
 10
-656.74816812784695
 20
24443.187174048871
 30
-0.0000000000024918
 40
4.9999999999997611
210
0.0
220
-0.0000000000000001
230
-1.0
 50
170.95835050889201
 51
261.693526737659
  0
ARC
  5
26AC
  8
0
 62
     1
 10
-495.05229682753088
 20
25550.696106133139
 30
-0.0000000000024918
 40
1124.2504587633609
210
0.0
220
-0.0000000000000001
230
-1.0
 50
261.69352673763132
 51
262.68275695622401
  0
LINE
  5
26AD
  8
0
 62
     1
 10
638.24033322524679
 20
24435.601365645951
 30
0.0000000000000483
 11
636.70228815970825
 21
24450.02821769629
 31
0.0000000000000468
210
0.0
220
-0.0000000000000001
230
-1.0
  0
ARC
  5
26AE
  8
0
 62
     1
 10
-636.41076297913401
 20
24452.76272186873
 30
-0.0000000000024918
 40
2.7499999999997669
210
0.0
220
-0.0000000000000001
230
-1.0
 50
82.313012239942651
 51
263.91468850735163
  0
LINE
  5
26AF
  8
0
 62
     1
 10
636.04291989003673
 20
24455.48800927776
 30
0.0000000000000463
 11
618.24733769049067
 21
24453.338871885211
 31
0.0000000000000465
210
0.0
220
-0.0000000000000001
230
-1.0
  0
ARC
  5
26B0
  8
0
 62
     1
 10
-618.53886287106593
 20
24450.604367712771
 30
-0.0000000000024918
 40
2.7499999999998641
210
0.0
220
-0.0000000000000001
230
-1.0
 50
263.91468850732599
 51
83.914688507326005
  0
LINE
  5
26B1
  8
0
 62
     1
 10
618.83038805164165
 20
24447.869863540331
 30
0.000000000000047
 11
620.36751292444501
 21
24433.45164289145
 31
0.0000000000000485
210
0.0
220
-0.0000000000000001
230
-1.0
  0
ARC
  5
26B2
  8
0
 62
     1
 10
-495.05229682752628
 20
25550.696106133131
 30
-0.0000000000024918
 40
1124.2504587633571
210
0.0
220
-0.0000000000000001
230
-1.0
 50
263.60019395657702
 51
264.788379170101
  0
LINE
  5
26B3
  8
0
 62
     1
 10
597.17309858536714
 20
24431.093303404439
 30
0.0000000000000487
 11
596.16616007184643
 21
24445.566924870811
 31
0.0000000000000473
210
0.0
220
-0.0000000000000001
230
-1.0
  0
ARC
  5
26B4
  8
0
 62
     1
 10
-595.97530224980267
 20
24448.310293838291
 30
-0.0000000000024918
 40
2.74999999999996
210
0.0
220
-0.0000000000000001
230
-1.0
 50
84.41863442786692
 51
266.02031069524571
  0
LINE
  5
26B5
  8
0
 62
     1
 10
595.70783940941476
 20
24451.047256320511
 30
0.0000000000000467
 11
577.84530979842543
 21
24449.553411198242
 31
0.0000000000000469
210
0.0
220
-0.0000000000000001
230
-1.0
  0
ARC
  5
26B6
  8
0
 62
     1
 10
-578.03616762046897
 20
24446.810042230762
 30
-0.0000000000024918
 40
2.7500000000002429
210
0.0
220
-0.0000000000000001
230
-1.0
 50
266.02031069524571
 51
86.020310695245755
  0
LINE
  5
26B7
  8
0
 62
     1
 10
578.2270254425132
 20
24444.066673263271
 30
0.0000000000000474
 11
579.23336151700835
 21
24429.601711188021
 31
0.0000000000000489
210
0.0
220
-0.0000000000000001
230
-1.0
  0
ARC
  5
26B8
  8
0
 62
     1
 10
-495.05229682754629
 20
25550.696106133131
 30
-0.0000000000024918
 40
1124.250458763353
210
0.0
220
-0.0000000000000001
230
-1.0
 50
265.70581617044712
 51
266.89400138397252
  0
LINE
  5
26B9
  8
0
 62
     1
 10
555.96795863827106
 20
24428.09716787612
 30
0.000000000000049
 11
555.49348646274268
 21
24442.598013366969
 31
0.0000000000000476
210
0.0
220
-0.0000000000000001
230
-1.0
  0
ARC
  5
26BA
  8
0
 62
     1
 10
-555.40355373619946
 20
24445.346542447169
 30
-0.0000000000024918
 40
2.7499999999998561
210
0.0
220
-0.0000000000000001
230
-1.0
 50
86.524256615775883
 51
268.12593288316708
  0
LINE
  5
26BB
  8
0
 62
     1
 10
555.23683232993767
 20
24448.091483971621
 30
0.000000000000047
 11
537.33147710761989
 21
24447.254948428181
 31
0.0000000000000471
210
0.0
220
-0.0000000000000001
230
-1.0
  0
ARC
  5
26BC
  8
0
 62
     1
 10
-537.4214098341655
 20
24444.506419347981
 30
-0.0000000000024918
 40
2.7500000000000999
210
0.0
220
-0.0000000000000001
230
-1.0
 50
268.12593288319317
 51
88.125932883115127
  0
LINE
  5
26BD
  8
0
 62
     1
 10
537.51134256070804
 20
24441.757890267789
 30
0.0000000000000476
 11
537.98553086505638
 21
24427.265720464002
 31
0.0000000000000491
210
0.0
220
-0.0000000000000001
230
-1.0
  0
ARC
  5
26BE
  8
0
 62
     1
 10
-495.0522968275427
 20
25550.69610613316
 30
-0.0000000000024918
 40
1124.2504587633809
210
0.0
220
-0.0000000000000001
230
-1.0
 50
267.81143838433059
 51
268.99962359782933
  0
LINE
  5
26BF
  8
0
 62
     1
 10
514.68055736093015
 20
24426.61700508284
 30
0.0000000000000492
 11
514.73919225761495
 21
24441.125492442781
 31
0.0000000000000477
210
0.0
220
-0.0000000000000001
230
-1.0
  0
ARC
  5
26C0
  8
0
 62
     1
 10
-514.75030607293331
 20
24443.875469985069
 30
-0.0000000000024918
 40
2.7499999999999059
210
0.0
220
-0.0000000000000001
230
-1.0
 50
88.629878803739643
 51
270.2315550710656
  0
LINE
  5
26C1
  8
0
 62
     1
 10
514.68455124362686
 20
24446.624683745838
 30
0.0000000000000472
 11
496.76055004238168
 21
24446.44658745006
 31
0.0000000000000472
210
0.0
220
-0.0000000000000001
230
-1.0
  0
ARC
  5
26C2
  8
0
 62
     1
 10
-496.74943622706382
 20
24443.696609907769
 30
-0.0000000000024918
 40
2.7500000000001892
210
0.0
220
-0.0000000000000001
230
-1.0
 50
270.23155507111773
 51
90.231555071065628
  0
LINE
  5
26C3
  8
0
 62
     1
 10
496.73832241174318
 20
24440.946632365481
 30
0.0000000000000477
 11
496.67972259566602
 21
24426.4468252728
 31
0.0000000000000492
210
0.0
220
-0.0000000000000001
230
-1.0
  0
ARC
  5
26C4
  8
0
 62
     1
 10
-495.05229682754589
 20
25550.696106133109
 30
-0.0000000000024918
 40
1124.2504587633359
210
0.0
220
-0.0000000000000001
230
-1.0
 50
269.91706059817079
 51
271.1052458116431
  0
LINE
  5
26C5
  8
0
 62
     1
 10
473.36664981713091
 20
24426.654813856308
 30
0.0000000000000492
 11
473.95831260323058
 21
24441.151350610278
 31
0.0000000000000477
210
0.0
220
-0.0000000000000001
230
-1.0
  0
ARC
  5
26C6
  8
0
 62
     1
 10
-474.07045795216783
 20
24443.899063008019
 30
-0.0000000000024918
 40
2.7499999999999458
210
0.0
220
-0.0000000000000001
230
-1.0
 50
90.735500991631113
 51
272.33717725901312
  0
LINE
  5
26C7
  8
0
 62
     1
 10
474.10575849601969
 20
24446.648836429889
 30
0.0000000000000472
 11
456.18731612802532
 21
24447.129419885401
 31
0.0000000000000471
210
0.0
220
-0.0000000000000001
230
-1.0
  0
ARC
  5
26C8
  8
0
 62
     1
 10
-456.07517077908761
 20
24444.381707487661
 30
-0.0000000000024918
 40
2.750000000000306
210
0.0
220
-0.0000000000000001
230
-1.0
 50
272.3371772589872
 51
92.33717725903918
  0
LINE
  5
26C9
  8
0
 62
     1
 10
455.96302543015219
 20
24441.63399508992
 30
0.0000000000000477
 11
455.3717166296758
 21
24427.146131461432
 31
0.0000000000000491
210
0.0
220
-0.0000000000000001
230
-1.0
  0
ARC
  5
26CA
  8
0
 62
     1
 10
-495.05229682753412
 20
25550.696106133149
 30
-0.0000000000024918
 40
1124.250458763373
210
0.0
220
-0.0000000000000001
230
-1.0
 50
272.02268281199281
 51
273.21086802534739
  0
LINE
  5
26CB
  8
0
 62
     1
 10
432.08202686507212
 20
24428.210543138899
 30
0.000000000000049
 11
433.2059185477022
 21
24442.67555295027
 31
0.0000000000000476
210
0.0
220
-0.0000000000000001
230
-1.0
  0
ARC
  5
26CC
  8
0
 62
     1
 10
-433.41894398767118
 20
24445.417289655699
 30
-0.0000000000024918
 40
2.7500000000002078
210
0.0
220
-0.0000000000000001
230
-1.0
 50
92.841123179536964
 51
274.4427994469599
  0
LINE
  5
26CD
  8
0
 62
     1
 10
433.55525223435171
 20
24448.163909407671
 30
0.000000000000047
 11
415.6665660050669
 21
24449.302523628121
 31
0.0000000000000469
210
0.0
220
-0.0000000000000001
230
-1.0
  0
ARC
  5
26CE
  8
0
 62
     1
 10
-415.45354056509842
 20
24446.560786922681
 30
-0.0000000000024918
 40
2.7500000000000591
210
0.0
220
-0.0000000000000001
230
-1.0
 50
274.44279944693369
 51
94.442799446959967
  0
LINE
  5
26CF
  8
0
 62
     1
 10
415.2405151251312
 20
24443.819050217251
 30
0.0000000000000474
 11
414.11729585570612
 21
24429.362694677238
 31
0.0000000000000489
210
0.0
220
-0.0000000000000001
230
-1.0
  0
ARC
  5
26D0
  8
0
 62
     1
 10
-495.05229682753992
 20
25550.696106133109
 30
-0.0000000000024918
 40
1124.2504587633291
210
0.0
220
-0.0000000000000001
230
-1.0
 50
274.12830502569898
 51
275.31649023893777
  0
LINE
  5
26D1
  8
0
 62
     1
 10
390.88243981662879
 20
24431.282092052581
 30
0.0000000000000487
 11
392.5370426718103
 21
24445.696041159408
 31
0.0000000000000473
210
0.0
220
-0.0000000000000001
230
-1.0
  0
ARC
  5
26D2
  8
0
 62
     1
 10
-392.85066053039043
 20
24448.428099694429
 30
-0.0000000000024918
 40
2.7499999999998068
210
0.0
220
-0.0000000000000001
230
-1.0
 50
94.946745367467415
 51
276.54842163485239
  0
LINE
  5
26D3
  8
0
 62
     1
 10
393.0877924074137
 20
24451.167856704262
 30
0.0000000000000467
 11
375.25301943920408
 21
24452.962964089689
 31
0.0000000000000465
210
0.0
220
-0.0000000000000001
230
-1.0
  0
ARC
  5
26D4
  8
0
 62
     1
 10
-374.93940158062412
 20
24450.230905554668
 30
-0.0000000000024918
 40
2.7499999999999201
210
0.0
220
-0.0000000000000001
230
-1.0
 50
276.54842163485239
 51
96.548421634852403
  0
LINE
  5
26D5
  8
0
 62
     1
 10
374.62578372204399
 20
24447.498847019651
 30
0.0000000000000471
 11
372.97217080020192
 21
24433.093521643121
 31
0.0000000000000485
210
0.0
220
-0.0000000000000001
230
-1.0
  0
ARC
  5
26D6
  8
0
 62
     1
 10
-495.05229682755038
 20
25550.69610613312
 30
-0.0000000000024918
 40
1124.2504587633441
210
0.0
220
-0.0000000000000001
230
-1.0
 50
276.23392723928282
 51
277.42211245240048
  0
LINE
  5
26D7
  8
0
 62
     1
 10
349.82352515001901
 20
24435.865312735921
 30
0.0000000000000482
 11
352.00660477225972
 21
24450.20873632982
 31
0.0000000000000468
210
0.0
220
-0.0000000000000001
230
-1.0
  0
ARC
  5
26D8
  8
0
 62
     1
 10
-352.42039153568089
 20
24452.927427285849
 30
-0.0000000000024918
 40
2.7499999999998161
210
0.0
220
-0.0000000000000001
230
-1.0
 50
97.052367555393758
 51
278.6540438227795
  0
LINE
  5
26D9
  8
0
 62
     1
 10
352.75802681697212
 20
24455.65662174884
 30
0.0000000000000463
 11
335.00125142701143
 21
24458.10579816212
 31
0.000000000000046
210
0.0
220
-0.0000000000000001
230
-1.0
  0
ARC
  5
26DA
  8
0
 62
     1
 10
-334.58746466359099
 20
24455.38710720609
 30
-0.0000000000024918
 40
2.7500000000004099
210
0.0
220
-0.0000000000000001
230
-1.0
 50
278.65404382275432
 51
98.654043822779514
  0
LINE
  5
26DB
  8
0
 62
     1
 10
334.17367790017113
 20
24452.66841625005
 30
0.0000000000000466
 11
331.99190439516531
 21
24438.333574199671
 31
0.000000000000048
210
0.0
220
-0.0000000000000001
230
-1.0
  0
ARC
  5
26DC
  8
0
 62
     1
 10
-495.05229682752361
 20
25550.696106133109
 30
-0.0000000000024918
 40
1124.2504587633291
210
0.0
220
-0.0000000000000001
230
-1.0
 50
278.3395494526992
 51
279.52773466562189
  0
LINE
  5
26DD
  8
0
 62
     1
 10
308.96072937754599
 20
24441.95401594551
 30
0.0000000000000476
 11
311.66933769725421
 21
24456.207544457269
 31
0.0000000000000462
210
0.0
220
-0.0000000000000001
230
-1.0
  0
ARC
  5
26DE
  8
0
 62
     1
 10
-312.18273458230789
 20
24458.9091964775
 30
-0.0000000000024918
 40
2.749999999999909
210
0.0
220
-0.0000000000000001
230
-1.0
 50
99.157989743333843
 51
280.75966601072167
  0
LINE
  5
26DF
  8
0
 62
     1
 10
312.62041732064318
 20
24461.624142852761
 30
0.0000000000000457
 11
294.9656184971293
 21
24464.724080893131
 31
0.0000000000000453
210
0.0
220
-0.0000000000000001
230
-1.0
  0
ARC
  5
26E0
  8
0
 62
     1
 10
-294.45222161207568
 20
24462.0224288729
 30
-0.0000000000024918
 40
2.7500000000003562
210
0.0
220
-0.0000000000000001
230
-1.0
 50
280.75966601072167
 51
100.7596660107217
  0
LINE
  5
26E1
  8
0
 62
     1
 10
293.93882472702199
 20
24459.320776852659
 30
0.0000000000000459
 11
291.23183694521941
 21
24445.075776108861
 31
0.0000000000000473
210
0.0
220
-0.0000000000000001
230
-1.0
  0
ARC
  5
26E2
  8
0
 62
     1
 10
-495.13674541060931
 20
25551.131695847122
 30
-0.0000000000024918
 40
1124.694140326307
210
0.0
220
-0.0000000000000001
230
-1.0
 50
280.44537947130971
 51
281.63309595655193
  0
LINE
  5
26E3
  8
0
 62
     1
 10
268.34923176242529
 20
24449.539968873101
 30
0.0000000000000469
 11
271.57971343451737
 21
24463.684364670629
 31
0.0000000000000455
210
0.0
220
-0.0000000000000001
230
-1.0
  0
ARC
  5
26E4
  8
0
 62
     1
 10
-272.19202714314798
 20
24466.36532940785
 30
-0.0000000000024918
 40
2.750000000000413
210
0.0
220
-0.0000000000000001
230
-1.0
 50
101.2636119312872
 51
282.86528819865259
  0
LINE
  5
26E5
  8
0
 62
     1
 10
272.7291662858741
 20
24469.06236139531
 30
0.0000000000000449
 11
255.20018530647559
 21
24472.80887486475
 31
0.0000000000000445
210
0.0
220
-0.0000000000000001
230
-1.0
  0
ARC
  5
26E6
  8
0
 62
     1
 10
-254.58787159784589
 20
24470.127910127529
 30
-0.0000000000024918
 40
2.750000000000266
210
0.0
220
-0.0000000000000001
230
-1.0
 50
282.86528819865259
 51
102.86528819865261
  0
LINE
  5
26E7
  8
0
 62
     1
 10
253.97555788921571
 20
24467.446945390311
 30
0.0000000000000451
 11
250.74697807538249
 21
24453.310876721269
 31
0.0000000000000465
210
0.0
220
-0.0000000000000001
230
-1.0
  0
POLYLINE
  5
26E8
  8
0
 62
     1
 66
     1
 10
0.0
 20
0.0
 30
0.0
210
0.0
220
-0.0000000000000001
230
-1.0
  0
VERTEX
  5
DA10
  8
0
 62
     1
 10
-250.74697807538249
 20
24453.310876721269
 30
0.0
 42
0.0017426456982444
  0
VERTEX
  5
DA11
  8
0
 62
     1
 10
-243.0021184533401
 20
24455.063844421202
 30
0.0
 42
-0.2477853666047801
  0
VERTEX
  5
DA12
  8
0
 62
     1
 10
-173.37939483171769
 20
24328.905646151528
 30
0.0
 42
0.0381884528845361
  0
VERTEX
  5
DA13
  8
0
 62
     1
 10
-169.6588695249049
 20
24226.784029328159
 30
0.0
  0
SEQEND
  5
DA14
  8
0
 62
     1
  0
ARC
  5
26E9
  8
0
 62
     1
 10
-152.57674609669829
 20
24229.18477071021
 30
-0.0000000000023894
 40
2.7499999999996381
210
0.0
220
-0.0000000000000001
230
-1.0
 50
6.3983418130127312
 51
188.00001808044101
  0
LINE
  5
26EA
  8
0
 62
     1
 10
149.84387544864401
 20
24229.49123118239
 30
-0.000000000000014
 11
147.59754605721011
 21
24211.707656130719
 31
-0.0000000000000122
210
0.0
220
-0.0000000000000001
230
-1.0
  0
ARC
  5
26EB
  8
0
 62
     1
 10
-150.32078312547509
 20
24211.324929243729
 30
-0.0000000000023894
 40
2.7500000000000919
210
0.0
220
-0.0000000000000001
230
-1.0
 50
188.0000180804407
 51
8.0000180804409844
  0
ARC
  5
26EC
  8
0
 62
     1
 10
496.04317560613811
 20
24302.165667523419
 30
-0.000000000002472
 40
669.95641967866493
210
0.0
220
-0.0000000000000001
230
-1.0
 50
188.00001808044101
 51
190.73652566818271
  0
ARC
  5
26ED
  8
0
 62
     1
 10
-145.32957736703489
 20
24181.025228886829
 30
-0.0000000000024174
 40
2.750000000000639
210
0.0
220
-0.0000000000000001
230
-1.0
 50
10.6744243933456
 51
192.276100660618
  0
LINE
  5
26EE
  8
0
 62
     1
 10
142.6271645323738
 20
24181.534605830821
 30
0.0000000000000189
 11
139.06110108466851
 21
24163.96802594628
 31
0.0000000000000207
210
0.0
220
-0.0000000000000001
230
-1.0
  0
ARC
  5
26EF
  8
0
 62
     1
 10
-141.74822054477431
 20
24163.383313190199
 30
-0.0000000000024174
 40
2.7500000000001221
210
0.0
220
-0.0000000000000001
230
-1.0
 50
192.2761006606174
 51
12.276100660617431
  0
ARC
  5
26F0
  8
0
 62
     1
 10
496.0431756061613
 20
24302.165667523419
 30
-0.000000000002472
 40
669.95641967868653
210
0.0
220
-0.0000000000000001
230
-1.0
 50
192.2761006606174
 51
195.01260824814131
  0
ARC
  5
26F1
  8
0
 62
     1
 10
-134.5116884547208
 20
24133.540113295581
 30
-0.0000000000023822
 40
2.7500000000003819
210
0.0
220
-0.0000000000000001
230
-1.0
 50
14.950506973509921
 51
196.55218324083131
  0
LINE
  5
26F2
  8
0
 62
     1
 10
131.8547786002575
 20
24134.249570852629
 30
-0.0000000000000115
 11
126.9888344727535
 21
24116.9977847103
 31
-0.0000000000000097
210
0.0
220
-0.0000000000000001
230
-1.0
  0
ARC
  5
26F3
  8
0
 62
     1
 10
-129.6248763008368
 20
24116.21434136161
 30
-0.0000000000023822
 40
2.7499999999998801
210
0.0
220
-0.0000000000000001
230
-1.0
 50
196.5521832408302
 51
16.552183240830232
  0
ARC
  5
26F4
  8
0
 62
     1
 10
496.04317560617949
 20
24302.165667523441
 30
-0.000000000002472
 40
669.95641967870768
210
0.0
220
-0.0000000000000001
230
-1.0
 50
196.55218324083131
 51
199.28869082848499
  0
ARC
  5
26F5
  8
0
 62
     1
 10
-120.1833058880749
 20
24086.993788239171
 30
-0.0000000000024102
 40
2.749999999999559
210
0.0
220
-0.0000000000000001
230
-1.0
 50
19.226589553567049
 51
200.82826582086429
  0
LINE
  5
26F6
  8
0
 62
     1
 10
117.586690851466
 20
24087.899376639969
 30
0.0000000000000213
 11
111.4479562578083
 21
24071.058430260931
 31
0.0000000000000231
210
0.0
220
-0.0000000000000001
230
-1.0
  0
ARC
  5
26F7
  8
0
 62
     1
 10
-114.0182447949576
 20
24070.080617990709
 30
-0.0000000000024102
 40
2.7500000000002092
210
0.0
220
-0.0000000000000001
230
-1.0
 50
200.82826582106091
 51
20.82826582106086
  0
ARC
  5
26F8
  8
0
 62
     1
 10
496.0431756061617
 20
24302.165667523401
 30
-0.000000000002472
 40
669.95641967867766
210
0.0
220
-0.0000000000000001
230
-1.0
 50
200.82826582086429
 51
203.56477340855389
  0
ARC
  5
26F9
  8
0
 62
     1
 10
-102.4242001976974
 20
24041.645391483489
 30
-0.0000000000023751
 40
2.7499999999992442
210
0.0
220
-0.0000000000000001
230
-1.0
 50
23.502672133736532
 51
205.1043484011193
  0
LINE
  5
26FA
  8
0
 62
     1
 10
99.902336136730582
 20
24042.74206903774
 30
-0.0000000000000091
 11
92.524987308147274
 21
24026.405721171272
 31
-0.0000000000000073
210
0.0
220
-0.0000000000000001
230
-1.0
  0
ARC
  5
26FB
  8
0
 62
     1
 10
-95.015212964327702
 20
24025.238983762381
 30
-0.0000000000023751
 40
2.7500000000001461
210
0.0
220
-0.0000000000000001
230
-1.0
 50
205.1043484011193
 51
25.104348401119299
  0
ARC
  5
26FC
  8
0
 62
     1
 10
496.04317560615488
 20
24302.165667523401
 30
-0.000000000002472
 40
669.95641967866948
210
0.0
220
-0.0000000000000001
230
-1.0
 50
205.1043484011193
 51
206.84649261288189
  0
ARC
  5
26FD
  8
0
 62
     1
 10
-97.24401535570837
 20
24001.870231140401
 30
-0.000000000002472
 40
4.9999999999993729
210
0.0
220
-0.0000000000000001
230
-1.0
 50
206.84649261288189
 51
297.27732024122349
  0
LINE
  5
26FE
  8
0
 62
     1
 10
94.952526498419275
 20
23997.426237574138
 30
0.0000000000000924
 11
59.399508543887123
 21
24015.75869986762
 31
0.000000000000091
210
0.0
220
-0.0000000000000001
230
-1.0
  0
POLYLINE
  5
26FF
  8
0
 62
     1
 66
     1
 10
0.0
 20
0.0
 30
0.0
210
0.0
220
-0.0000000000000001
230
-1.0
  0
VERTEX
  5
DA15
  8
0
 62
     1
 10
-120.77782061999019
 20
24364.437819528928
 30
0.0
 42
0.1431392665561409
  0
VERTEX
  5
DA16
  8
0
 62
     1
 10
-57.228812875622452
 20
24022.458554524441
 30
0.0
 42
-0.4118721649383845
  0
VERTEX
  5
DA17
  8
0
 62
     1
 10
-59.399508543886661
 20
24015.75869986762
 30
0.0
  0
SEQEND
  5
DA18
  8
0
 62
     1
  0
LINE
  5
2700
  8
0
 62
     1
 10
141.03324278020901
 20
24689.987243223699
 30
0.0000000000000228
 11
115.32126419118489
 21
24852.430312266981
 31
0.0000000000000066
210
0.0
220
-0.0000000000000001
230
-1.0
  0
ARC
  5
2701
  8
0
 62
     1
 10
-120.2597832625673
 20
24853.211995950831
 30
-0.0000000000024918
 40
4.9999999999998037
210
0.0
220
-0.0000000000000001
230
-1.0
 50
351.00566917041152
 51
91.405509504071503
  0
LINE
  5
2702
  8
0
 62
     1
 10
120.3824248041732
 20
24858.21049162975
 30
0.000000000000006
 11
161.6021923433517
 21
24857.199136181971
 31
0.0000000000000061
210
0.0
220
-0.0000000000000001
230
-1.0
  0
ARC
  5
2703
  8
0
 62
     1
 10
-161.4795508017454
 20
24852.200640503041
 30
-0.0000000000024918
 40
4.9999999999993241
210
0.0
220
-0.0000000000000001
230
-1.0
 50
91.405509504071503
 51
164.81811738544971
  0
ARC
  5
2705
  8
0
 62
     1
 10
-234.44538057085069
 20
24678.767854714381
 30
-0.0000000000024918
 40
20.00000000000022
210
0.0
220
-0.0000000000000001
230
-1.0
 50
274.51635015755471
 51
344.81811738544968
  0
POLYLINE
  5
2706
  8
0
 62
     1
 66
     1
 10
0.0
 20
0.0
 30
0.0
  0
VERTEX
  5
DA19
  8
0
 62
     1
 10
232.8705090322558
 20
24658.829956639682
 30
0.0
  0
VERTEX
  5
DA1A
  8
0
 62
     1
 10
567.13536577496996
 20
24632.426761715909
 30
0.0
  0
SEQEND
  5
DA1B
  8
0
 62
     1
  0
ARC
  5
2707
  8
0
 62
     1
 10
-568.71023731356479
 20
24652.364659790601
 30
-0.0000000000024918
 40
20.000000000000121
210
0.0
220
-0.0000000000000001
230
-1.0
 50
191.49247265034541
 51
274.51635015755471
  0
LINE
  5
2708
  8
0
 62
     1
 10
588.30925508420921
 20
24648.379875928709
 30
0.000000000000027
 11
627.6020276346311
 21
24841.639980909389
 31
0.0000000000000077
210
0.0
220
-0.0000000000000001
230
-1.0
  0
ARC
  5
2709
  8
0
 62
     1
 10
-632.50178207729221
 20
24840.643784943921
 30
-0.0000000000024918
 40
4.9999999999998757
210
0.0
220
-0.0000000000000001
230
-1.0
 50
11.492472650345359
 51
91.405509504071503
  0
LINE
  5
270A
  8
0
 62
     1
 10
632.62442361889805
 20
24845.642280622851
 30
0.0000000000000073
 11
672.69935344149724
 21
24844.659014558642
 31
0.0000000000000074
210
0.0
220
-0.0000000000000001
230
-1.0
  0
ARC
  5
270B
  8
0
 62
     1
 10
-672.57671189989139
 20
24839.660518879711
 30
-0.0000000000024918
 40
5.0000000000001501
210
0.0
220
-0.0000000000000001
230
-1.0
 50
91.405509504071503
 51
189.12984231117099
  0
LINE
  5
270C
  8
0
 62
     1
 10
677.51336838355098
 20
24838.867157195269
 30
0.0000000000000079
 11
626.73190372294005
 21
24522.881835894659
 31
0.0000000000000395
210
0.0
220
-0.0000000000000001
230
-1.0
  0
ARC
  5
270D
  8
0
 10
544.61475289406837
 20
24395.333369851491
 30
-0.0000000000001389
 40
424.96150436155392
 50
162.9389834997431
 51
184.16919591710291
  0
ARC
  5
270E
  8
0
 10
-368.93188473482962
 20
24613.015530959619
 30
0.0000000000000539
 40
515.74128763392139
 50
349.61111942378039
 51
8.5831649404864319
  0
LINE
  5
270F
  8
0
 10
169.6588695249049
 20
24226.784029328159
 30
0.0000000000000687
 11
155.29998316496241
 21
24228.802043823209
 31
-0.000000000000014
  0
LINE
  5
2710
  8
0
 10
153.0440201937397
 20
24210.942202356739
 30
-0.0000000000000122
 11
167.39324482686851
 21
24208.92554573192
 31
0.0
  0
LINE
  5
2711
  8
0
 10
162.18514488951419
 20
24177.35748523505
 30
0.0000000000000737
 11
148.01669682714081
 21
24180.440516130751
 31
0.0000000000000189
  0
LINE
  5
2712
  8
0
 10
151.04685992178719
 20
24128.625786835659
 30
0.0000000000000786
 11
137.1477302828041
 21
24132.756669946899
 31
-0.0000000000000114
  0
LINE
  5
2713
  8
0
 10
136.30602489382929
 20
24080.860238544141
 30
0.0000000000000836
 11
122.75359442522419
 21
24086.015975968949
 31
0.0000000000000215
  0
LINE
  5
2714
  8
0
 10
118.0447065864666
 20
24034.326765918639
 30
0.0000000000000884
 11
104.9144258538774
 21
24040.478654074599
 31
-0.0000000000000089
  0
LINE
  5
2715
  8
0
 10
144.43534000487969
 20
24162.798600434129
 30
0.0000000000000207
 11
158.594254481495
 21
24159.717644030941
 31
0.0
  0
LINE
  5
2716
  8
0
 10
132.26091812892011
 20
24115.430898012932
 30
-0.0000000000000096
 11
146.15069539961021
 21
24111.302794467119
 31
-0.0000000000000425
  0
LINE
  5
2717
  8
0
 10
116.58853333210681
 20
24069.102805720489
 30
0.0000000000000232
 11
130.1318447174078
 21
24063.950537459321
 31
0.0000000000000853
  0
LINE
  5
2718
  8
0
 10
97.505438620508585
 20
24024.072246353498
 30
-0.0000000000000072
 11
110.6268843235427
 21
24017.924497645501
 31
0.0
  0
POLYLINE
  5
2719
  8
0
 62
     1
 66
     1
 10
0.0
 20
0.0
 30
0.0
  0
VERTEX
  5
DA1C
  8
0
 62
     1
 10
166.3050475644921
 20
24853.510060600911
 30
0.0
  0
VERTEX
  5
DA1D
  8
0
 62
     1
 10
215.14339351986189
 20
24673.53017432287
 30
0.0
  0
SEQEND
  5
DA1E
  8
0
 62
     1
  0
POLYLINE
  5
278B
  8
0
 66
     1
 10
0.0
 20
0.0
 30
0.0
 70
     1
  0
VERTEX
  5
DA1F
  8
0
 10
2.0458741168948791
 20
23928.73625521643
 30
0.0
  0
VERTEX
  5
DA20
  8
0
 10
2429.0053727470231
 20
23928.73625521643
 30
0.0
  0
VERTEX
  5
DA21
  8
0
 10
2429.0053727470231
 20
24929.342596172919
 30
0.0
  0
VERTEX
  5
DA22
  8
0
 10
2.0458741168948791
 20
24929.342596172919
 30
0.0
  0
SEQEND
  5
DA23
  8
0
  0
POLYLINE
  5
2ACF
  8
0
 66
     1
 10
0.0
 20
0.0
 30
0.0
 70
     1
  0
VERTEX
  5
DA26
  8
0
 10
4743.6794100761354
 20
24443.746910294511
 30
0.0
  0
VERTEX
  5
DA27
  8
0
 10
4725.1794100761626
 20
24443.746910294522
 30
0.0
  0
VERTEX
  5
DA28
  8
0
 10
4725.1794100761626
 20
24677.557875385181
 30
0.0
 42
0.2340008639952238
  0
VERTEX
  5
DA29
  8
0
 10
4709.4294100761635
 20
24645.746910294511
 30
0.0
  0
VERTEX
  5
DA2A
  8
0
 10
4709.4294100761635
 20
24230.746910294511
 30
0.0
 42
0.4142135623731804
  0
VERTEX
  5
DA2B
  8
0
 10
4734.4294100761626
 20
24205.746910294511
 30
0.0
  0
VERTEX
  5
DA2C
  8
0
 10
4734.4294100761626
 20
24205.746910294511
 30
0.0
 42
0.4142135623730524
  0
VERTEX
  5
DA2D
  8
0
 10
4759.4294100761635
 20
24230.746910294511
 30
0.0
  0
VERTEX
  5
DA2E
  8
0
 10
4759.4294100761635
 20
24545.746910294511
 30
0.0
 42
-0.4142135623730951
  0
VERTEX
  5
DA2F
  8
0
 10
4839.4294100761635
 20
24625.746910294511
 30
0.0
  0
VERTEX
  5
DA30
  8
0
 10
5059.4294100761626
 20
24625.746910294511
 30
0.0
 42
-0.4142135623730951
  0
VERTEX
  5
DA31
  8
0
 10
5139.4294100761626
 20
24545.746910294511
 30
0.0
  0
VERTEX
  5
DA32
  8
0
 10
5139.4294100761626
 20
24230.746910294511
 30
0.0
 42
0.4142135623730524
  0
VERTEX
  5
DA33
  8
0
 10
5164.4294100761626
 20
24205.746910294511
 30
0.0
  0
VERTEX
  5
DA34
  8
0
 10
5164.4294100761626
 20
24205.746910294511
 30
0.0
 42
0.4142135623731804
  0
VERTEX
  5
DA35
  8
0
 10
5189.4294100761626
 20
24230.746910294511
 30
0.0
  0
VERTEX
  5
DA36
  8
0
 10
5189.4294100761626
 20
24645.746910294511
 30
0.0
 42
0.2340008639952236
  0
VERTEX
  5
DA37
  8
0
 10
5173.6794100761635
 20
24677.557875385181
 30
0.0
  0
VERTEX
  5
DA38
  8
0
 10
5173.6794100761635
 20
24443.746910294522
 30
0.0
  0
VERTEX
  5
DA39
  8
0
 10
5155.1794100761917
 20
24443.746910294511
 30
0.0
  0
VERTEX
  5
DA3A
  8
0
 10
5155.1794100761635
 20
24685.331471678961
 30
0.0
 42
0.0360780755825059
  0
VERTEX
  5
DA3B
  8
0
 10
5149.4294100761626
 20
24685.746910294511
 30
0.0
  0
VERTEX
  5
DA3C
  8
0
 10
4749.4294100761626
 20
24685.746910294511
 30
0.0
 42
0.036078075582506
  0
VERTEX
  5
DA3D
  8
0
 10
4743.6794100761635
 20
24685.331471678961
 30
0.0
  0
SEQEND
  5
DA3E
  8
0
  0
POLYLINE
  5
2AD1
  8
0
 66
     1
 10
0.0
 20
0.0
 30
0.0
 70
     1
  0
VERTEX
  5
DA3F
  8
0
 10
5284.0184862308552
 20
24237.078320848479
 30
0.0
  0
VERTEX
  5
DA40
  8
0
 10
5284.0184862308552
 20
24237.078320848479
 30
0.0
 42
-0.4142135623730951
  0
VERTEX
  5
DA41
  8
0
 10
5259.0184862308543
 20
24262.078320848479
 30
0.0
  0
VERTEX
  5
DA42
  8
0
 10
5259.0184862308543
 20
24604.05572084849
 30
0.0
 42
-0.3070880349200582
  0
VERTEX
  5
DA43
  8
0
 10
5274.7684862308261
 20
24627.28151469928
 30
0.0
  0
VERTEX
  5
DA44
  8
0
 10
5274.7684862308261
 20
24432.965371926159
 30
0.0
  0
VERTEX
  5
DA45
  8
0
 10
5293.2684862308543
 20
24432.965371926151
 30
0.0
  0
VERTEX
  5
DA46
  8
0
 10
5293.2684862308543
 20
24627.281514699291
 30
0.0
 42
-0.3070880349207383
  0
VERTEX
  5
DA47
  8
0
 10
5309.0184862308543
 20
24604.05572084849
 30
0.0
  0
VERTEX
  5
DA48
  8
0
 10
5309.0184862308261
 20
24532.571251591598
 30
0.0
  0
VERTEX
  5
DA49
  8
0
 10
5689.0184862308543
 20
24532.571251591598
 30
0.0
  0
VERTEX
  5
DA4A
  8
0
 10
5689.0184862308543
 20
24604.05572084849
 30
0.0
 42
-0.3070880349210931
  0
VERTEX
  5
DA4B
  8
0
 10
5704.7684862308834
 20
24627.281514699302
 30
0.0
  0
VERTEX
  5
DA4C
  8
0
 10
5704.7684862308543
 20
24432.965371926151
 30
0.0
  0
VERTEX
  5
DA4D
  8
0
 10
5723.2684862308843
 20
24432.965371926159
 30
0.0
  0
VERTEX
  5
DA4E
  8
0
 10
5723.2684862308843
 20
24627.28151469928
 30
0.0
 42
-0.3070880349207088
  0
VERTEX
  5
DA4F
  8
0
 10
5739.0184862308543
 20
24604.05572084849
 30
0.0
  0
VERTEX
  5
DA50
  8
0
 10
5739.0184862308543
 20
24262.078320848479
 30
0.0
 42
-0.4142135623730951
  0
VERTEX
  5
DA51
  8
0
 10
5714.0184862308543
 20
24237.078320848479
 30
0.0
  0
VERTEX
  5
DA52
  8
0
 10
5714.0184862308543
 20
24237.078320848479
 30
0.0
 42
-0.4142135623730951
  0
VERTEX
  5
DA53
  8
0
 10
5689.0184862308543
 20
24262.078320848479
 30
0.0
  0
VERTEX
  5
DA54
  8
0
 10
5689.0184862308543
 20
24482.571251591598
 30
0.0
  0
VERTEX
  5
DA55
  8
0
 10
5309.0184862308261
 20
24482.571251591598
 30
0.0
  0
VERTEX
  5
DA56
  8
0
 10
5309.0184862308543
 20
24262.078320848479
 30
0.0
 42
-0.4142135623730951
  0
SEQEND
  5
DA57
  8
0
  0
POLYLINE
  5
2AD3
  8
0
 66
     1
 10
0.0
 20
0.0
 30
0.0
  0
VERTEX
  5
DA58
  8
0
 10
4136.8220020322642
 20
24738.543912968089
 30
0.0
  0
VERTEX
  5
DA59
  8
0
 10
4106.4622695464514
 20
24728.43022702328
 30
0.0
  0
VERTEX
  5
DA5A
  8
0
 10
4112.3092442333163
 20
24710.878506679921
 30
0.0
  0
VERTEX
  5
DA5B
  8
0
 10
4142.6689767192447
 20
24720.99219262477
 30
0.0
  0
VERTEX
  5
DA5C
  8
0
 10
4145.2964894289489
 20
24713.104802863501
 30
0.0
 42
0.3228737511617177
  0
VERTEX
  5
DA5D
  8
0
 10
4183.2461550362223
 20
24685.746910294511
 30
0.0
  0
VERTEX
  5
DA5E
  8
0
 10
4189.5932443161591
 20
24685.746910294511
 30
0.0
  0
VERTEX
  5
DA5F
  8
0
 10
4189.5932443161591
 20
24653.746910294511
 30
0.0
  0
VERTEX
  5
DA60
  8
0
 10
4208.0932443161601
 20
24653.746910294511
 30
0.0
  0
VERTEX
  5
DA61
  8
0
 10
4208.0932443161601
 20
24685.746910294511
 30
0.0
  0
VERTEX
  5
DA62
  8
0
 10
4233.5932443161601
 20
24685.746910294511
 30
0.0
  0
VERTEX
  5
DA63
  8
0
 10
4233.5932443161601
 20
24653.746910294511
 30
0.0
  0
VERTEX
  5
DA64
  8
0
 10
4252.0932443161591
 20
24653.746910294511
 30
0.0
  0
VERTEX
  5
DA65
  8
0
 10
4252.0932443161591
 20
24685.746910294511
 30
0.0
  0
VERTEX
  5
DA66
  8
0
 10
4277.5932443161601
 20
24685.746910294511
 30
0.0
  0
VERTEX
  5
DA67
  8
0
 10
4277.5932443161601
 20
24653.746910294511
 30
0.0
  0
VERTEX
  5
DA68
  8
0
 10
4296.0932443161601
 20
24653.746910294511
 30
0.0
  0
VERTEX
  5
DA69
  8
0
 10
4296.0932443161601
 20
24685.746910294511
 30
0.0
  0
VERTEX
  5
DA6A
  8
0
 10
4321.5932443161601
 20
24685.746910294511
 30
0.0
  0
VERTEX
  5
DA6B
  8
0
 10
4321.5932443161601
 20
24653.746910294511
 30
0.0
  0
VERTEX
  5
DA6C
  8
0
 10
4340.0932443161601
 20
24653.746910294511
 30
0.0
  0
VERTEX
  5
DA6D
  8
0
 10
4340.0932443161601
 20
24685.746910294511
 30
0.0
  0
VERTEX
  5
DA6E
  8
0
 10
4365.5932443161601
 20
24685.746910294511
 30
0.0
  0
VERTEX
  5
DA6F
  8
0
 10
4365.5932443161601
 20
24653.746910294511
 30
0.0
  0
VERTEX
  5
DA70
  8
0
 10
4384.0932443161601
 20
24653.746910294511
 30
0.0
  0
VERTEX
  5
DA71
  8
0
 10
4384.0932443161601
 20
24685.746910294511
 30
0.0
  0
VERTEX
  5
DA72
  8
0
 10
4409.5932443161601
 20
24685.746910294511
 30
0.0
  0
VERTEX
  5
DA73
  8
0
 10
4409.5932443161601
 20
24653.746910294511
 30
0.0
  0
VERTEX
  5
DA74
  8
0
 10
4428.0932443161601
 20
24653.746910294511
 30
0.0
  0
VERTEX
  5
DA75
  8
0
 10
4428.0932443161601
 20
24685.746910294511
 30
0.0
  0
VERTEX
  5
DA76
  8
0
 10
4453.5932443161591
 20
24685.746910294511
 30
0.0
  0
VERTEX
  5
DA77
  8
0
 10
4453.5932443161591
 20
24653.746910294511
 30
0.0
  0
VERTEX
  5
DA78
  8
0
 10
4472.0932443161601
 20
24653.746910294511
 30
0.0
  0
VERTEX
  5
DA79
  8
0
 10
4472.0932443161601
 20
24685.746910294511
 30
0.0
  0
VERTEX
  5
DA7A
  8
0
 10
4497.5932443161601
 20
24685.746910294511
 30
0.0
  0
VERTEX
  5
DA7B
  8
0
 10
4497.5932443161601
 20
24653.746910294511
 30
0.0
  0
VERTEX
  5
DA7C
  8
0
 10
4516.0932443161591
 20
24653.746910294511
 30
0.0
  0
VERTEX
  5
DA7D
  8
0
 10
4516.0932443161591
 20
24685.746910294511
 30
0.0
  0
VERTEX
  5
DA7E
  8
0
 10
4541.5932443161591
 20
24685.746910294511
 30
0.0
  0
VERTEX
  5
DA7F
  8
0
 10
4541.5932443161591
 20
24653.746910294511
 30
0.0
  0
VERTEX
  5
DA80
  8
0
 10
4560.0932443161601
 20
24653.746910294511
 30
0.0
  0
VERTEX
  5
DA81
  8
0
 10
4560.0932443161601
 20
24685.746910294511
 30
0.0
  0
VERTEX
  5
DA82
  8
0
 10
4580.0932443161018
 20
24685.746910294511
 30
0.0
 42
-0.4142135623730951
  0
VERTEX
  5
DA83
  8
0
 10
4620.0932443161018
 20
24645.746910294511
 30
0.0
  0
VERTEX
  5
DA84
  8
0
 10
4620.0932443161018
 20
24230.746910294511
 30
0.0
 42
-0.3070880349207385
  0
VERTEX
  5
DA85
  8
0
 10
4604.3432443161009
 20
24207.521116443699
 30
0.0
  0
VERTEX
  5
DA86
  8
0
 10
4604.34324431613
 20
24447.746910294511
 30
0.0
  0
VERTEX
  5
DA87
  8
0
 10
4585.8432443161309
 20
24447.746910294511
 30
0.0
  0
VERTEX
  5
DA88
  8
0
 10
4585.8432443161018
 20
24207.521116443699
 30
0.0
 42
-0.3070880349207385
  0
VERTEX
  5
DA89
  8
0
 10
4570.0932443161018
 20
24230.746910294511
 30
0.0
  0
VERTEX
  5
DA8A
  8
0
 10
4570.0932443161018
 20
24545.746910294511
 30
0.0
 42
0.4142135623730951
  0
VERTEX
  5
DA8B
  8
0
 10
4490.0932443161018
 20
24625.746910294511
 30
0.0
  0
VERTEX
  5
DA8C
  8
0
 10
4214.6122435525631
 20
24625.7469102945
 30
0.0
 42
0.3587199832369512
  0
VERTEX
  5
DA8D
  8
0
 10
4136.0992494925322
 20
24561.099752498088
 30
0.0
  0
VERTEX
  5
DA8E
  8
0
 10
4068.7681891246052
 20
24226.199472793211
 30
0.0
 42
-0.3036342407347395
  0
VERTEX
  5
DA8F
  8
0
 10
4048.6864099109239
 20
24206.221057164599
 30
0.0
  0
VERTEX
  5
DA90
  8
0
 10
4087.248899282903
 20
24398.028350948978
 30
0.0
  0
VERTEX
  5
DA91
  8
0
 10
4069.1118216109621
 20
24401.674775707728
 30
0.0
  0
VERTEX
  5
DA92
  8
0
 10
4030.0519565143491
 20
24207.393567679781
 30
0.0
 42
-0.3524090810119995
  0
VERTEX
  5
DA93
  8
0
 10
4018.3707083684139
 20
24229.585120845441
 30
0.0
  0
VERTEX
  5
DA94
  8
0
 10
4052.947814628963
 20
24406.409196962912
 30
0.0
 42
0.1293834213877431
  0
VERTEX
  5
DA95
  8
0
 10
4020.2770290598428
 20
24914.372410285509
 30
0.0
  0
VERTEX
  5
DA96
  8
0
 10
3993.8659840045311
 20
24993.654312741681
 30
0.0
 42
-0.9146054765242379
  0
VERTEX
  5
DA97
  8
0
 10
4046.046774214441
 20
25011.037210459359
 30
0.0
  0
VERTEX
  5
DA98
  8
0
 10
4053.3840929875901
 20
24989.011705976001
 30
0.0
  0
VERTEX
  5
DA99
  8
0
 10
4023.0243605017772
 20
24978.898020031182
 30
0.0
  0
VERTEX
  5
DA9A
  8
0
 10
4028.8713351886422
 20
24961.346299687819
 30
0.0
  0
VERTEX
  5
DA9B
  8
0
 10
4059.231067674571
 20
24971.4599856327
 30
0.0
  0
VERTEX
  5
DA9C
  8
0
 10
4067.2904111617122
 20
24947.26707380802
 30
0.0
  0
VERTEX
  5
DA9D
  8
0
 10
4036.9306786758989
 20
24937.153387863211
 30
0.0
  0
VERTEX
  5
DA9E
  8
0
 10
4042.7776533627348
 20
24919.601667519852
 30
0.0
  0
VERTEX
  5
DA9F
  8
0
 10
4073.1373858486932
 20
24929.715353464711
 30
0.0
  0
VERTEX
  5
DAA0
  8
0
 10
4081.1967293358048
 20
24905.522441640049
 30
0.0
  0
VERTEX
  5
DAA1
  8
0
 10
4050.836996850021
 20
24895.408755695229
 30
0.0
  0
VERTEX
  5
DAA2
  8
0
 10
4056.6839715368569
 20
24877.857035351881
 30
0.0
  0
VERTEX
  5
DAA3
  8
0
 10
4087.0437040227862
 20
24887.970721296741
 30
0.0
  0
VERTEX
  5
DAA4
  8
0
 10
4095.1030475099269
 20
24863.777809472049
 30
0.0
  0
VERTEX
  5
DAA5
  8
0
 10
4064.7433150241141
 20
24853.664123527229
 30
0.0
  0
VERTEX
  5
DAA6
  8
0
 10
4070.5902897109791
 20
24836.112403183881
 30
0.0
  0
VERTEX
  5
DAA7
  8
0
 10
4100.9500221969374
 20
24846.22608912873
 30
0.0
  0
VERTEX
  5
DAA8
  8
0
 10
4109.0093656841937
 20
24822.033177304111
 30
0.0
  0
VERTEX
  5
DAA9
  8
0
 10
4078.6496331982362
 20
24811.919491359258
 30
0.0
  0
VERTEX
  5
DAAA
  8
0
 10
4084.4966078851012
 20
24794.367771015899
 30
0.0
  0
VERTEX
  5
DAAB
  8
0
 10
4114.8563403710295
 20
24804.481456960759
 30
0.0
  0
VERTEX
  5
DAAC
  8
0
 10
4122.9156838582867
 20
24780.288545136151
 30
0.0
  0
VERTEX
  5
DAAD
  8
0
 10
4092.5559513723579
 20
24770.17485919128
 30
0.0
  0
VERTEX
  5
DAAE
  8
0
 10
4098.4029260591942
 20
24752.623138847928
 30
0.0
  0
VERTEX
  5
DAAF
  8
0
 10
4128.7626585451226
 20
24762.736824792781
 30
0.0
  0
VERTEX
  5
DAB0
  8
0
 10
4136.8220020324088
 20
24738.543912968129
 30
0.0
  0
SEQEND
  5
DAB1
  8
0
  0
CIRCLE
  5
2AD5
  8
0
 10
5276.2684862308261
 20
24434.465371926159
 30
0.0
 40
2.5
  0
CIRCLE
  5
2AD6
  8
0
 10
5291.7684862308834
 20
24434.465371926159
 30
0.0
 40
2.5
  0
CIRCLE
  5
2AD7
  8
0
 10
5721.7684862308834
 20
24434.465371926159
 30
0.0
 40
2.5
  0
CIRCLE
  5
2AD8
  8
0
 10
5706.2684862308251
 20
24434.465371926159
 30
0.0
 40
2.5
  0
CIRCLE
  5
2AD9
  8
0
 10
4191.0932443161309
 20
24655.246910294511
 30
0.0
 40
2.5
  0
CIRCLE
  5
2ADA
  8
0
 10
4206.5932443161892
 20
24655.246910294511
 30
0.0
 40
2.5
  0
CIRCLE
  5
2ADB
  8
0
 10
4235.0932443161309
 20
24655.246910294511
 30
0.0
 40
2.5
  0
CIRCLE
  5
2ADC
  8
0
 10
4250.5932443161882
 20
24655.246910294511
 30
0.0
 40
2.5
  0
CIRCLE
  5
2ADD
  8
0
 10
4279.0932443161309
 20
24655.246910294511
 30
0.0
 40
2.5
  0
CIRCLE
  5
2ADE
  8
0
 10
4294.5932443161892
 20
24655.246910294511
 30
0.0
 40
2.5
  0
CIRCLE
  5
2ADF
  8
0
 10
4323.09324431613
 20
24655.246910294511
 30
0.0
 40
2.5
  0
CIRCLE
  5
2AE0
  8
0
 10
4338.5932443161882
 20
24655.246910294511
 30
0.0
 40
2.5
  0
CIRCLE
  5
2AE1
  8
0
 10
4367.0932443161309
 20
24655.246910294511
 30
0.0
 40
2.5
  0
CIRCLE
  5
2AE2
  8
0
 10
4382.5932443161892
 20
24655.246910294511
 30
0.0
 40
2.5
  0
CIRCLE
  5
2AE3
  8
0
 10
4411.0932443161309
 20
24655.246910294511
 30
0.0
 40
2.5
  0
CIRCLE
  5
2AE4
  8
0
 10
4426.5932443161892
 20
24655.246910294511
 30
0.0
 40
2.5
  0
CIRCLE
  5
2AE5
  8
0
 10
4455.09324431613
 20
24655.246910294511
 30
0.0
 40
2.5
  0
CIRCLE
  5
2AE6
  8
0
 10
4470.5932443161892
 20
24655.246910294511
 30
0.0
 40
2.5
  0
CIRCLE
  5
2AE7
  8
0
 10
4499.0932443161309
 20
24655.246910294511
 30
0.0
 40
2.5
  0
CIRCLE
  5
2AE8
  8
0
 10
4514.5932443161892
 20
24655.246910294511
 30
0.0
 40
2.5
  0
CIRCLE
  5
2AE9
  8
0
 10
4543.0932443161309
 20
24655.246910294511
 30
0.0
 40
2.5
  0
CIRCLE
  5
2AEA
  8
0
 10
4558.5932443161892
 20
24655.246910294511
 30
0.0
 40
2.5
  0
CIRCLE
  5
2AEB
  8
0
 10
4726.6794100761344
 20
24445.246910294511
 30
0.0
 40
2.5
  0
CIRCLE
  5
2AEC
  8
0
 10
4742.1794100761917
 20
24445.246910294511
 30
0.0
 40
2.5
  0
CIRCLE
  5
2AED
  8
0
 10
5156.6794100761344
 20
24445.246910294511
 30
0.0
 40
2.5
  0
CIRCLE
  5
2AEE
  8
0
 10
5172.1794100761927
 20
24445.246910294511
 30
0.0
 40
2.5
  0
CIRCLE
  5
2AEF
  8
0
 10
4024.921551990717
 20
24977.948986599589
 30
0.0
 40
2.5
  0
CIRCLE
  5
2AF0
  8
0
 10
4029.8203686202628
 20
24963.243491176741
 30
0.0
 40
2.5
  0
CIRCLE
  5
2AF1
  8
0
 10
4038.8278701648101
 20
24936.204354431611
 30
0.0
 40
2.5
  0
CIRCLE
  5
2AF2
  8
0
 10
4043.7266867943558
 20
24921.498859008771
 30
0.0
 40
2.5
  0
CIRCLE
  5
2AF3
  8
0
 10
4052.7341883389322
 20
24894.45972226364
 30
0.0
 40
2.5
  0
CIRCLE
  5
2AF4
  8
0
 10
4057.6330049684789
 20
24879.754226840789
 30
0.0
 40
2.5
  0
CIRCLE
  5
2AF5
  8
0
 10
4066.6405065130548
 20
24852.71509009564
 30
0.0
 40
2.5
  0
CIRCLE
  5
2AF6
  8
0
 10
4071.539323142601
 20
24838.009594672782
 30
0.0
 40
2.5
  0
CIRCLE
  5
2AF7
  8
0
 10
4080.5468246871469
 20
24810.970457927659
 30
0.0
 40
2.5
  0
CIRCLE
  5
2AF8
  8
0
 10
4085.4456413166931
 20
24796.264962504811
 30
0.0
 40
2.5
  0
CIRCLE
  5
2AF9
  8
0
 10
4094.45314286127
 20
24769.225825759691
 30
0.0
 40
2.5
  0
CIRCLE
  5
2AFA
  8
0
 10
4099.3519594908157
 20
24754.520330336829
 30
0.0
 40
2.5
  0
CIRCLE
  5
2AFB
  8
0
 10
4108.3594610353921
 20
24727.48119359168
 30
0.0
 40
2.5
  0
CIRCLE
  5
2AFC
  8
0
 10
4113.2582776649379
 20
24712.775698168829
 30
0.0
 40
2.5
  0
CIRCLE
  5
2AFD
  8
0
 10
4602.8432443161601
 20
24446.2469102945
 30
0.0
 40
2.5
  0
CIRCLE
  5
2AFE
  8
0
 10
4587.3432443161018
 20
24446.2469102945
 30
0.0
 40
2.5
  0
CIRCLE
  5
2AFF
  8
0
 10
4070.2867394147488
 20
24399.908545780909
 30
0.0
 40
2.4999999999999991
  0
CIRCLE
  5
2B00
  8
0
 10
4085.4826693561199
 20
24396.853433145199
 30
0.0
 40
2.4999999999999991
  0
POLYLINE
  5
2B01
  8
0
 66
     1
 10
0.0
 20
0.0
 30
0.0
 70
     1
  0
VERTEX
  5
DAB2
  8
0
 10
4198.890660710882
 20
24889.80826894557
 30
0.0
  0
VERTEX
  5
DAB3
  8
0
 10
4198.890660710882
 20
24921.80826894557
 30
0.0
  0
VERTEX
  5
DAB4
  8
0
 10
4180.390660710882
 20
24921.80826894557
 30
0.0
  0
VERTEX
  5
DAB5
  8
0
 10
4180.390660710882
 20
24889.80826894557
 30
0.0
  0
VERTEX
  5
DAB6
  8
0
 10
4179.6406607109111
 20
24889.80826894557
 30
0.0
 42
-0.4142135623729001
  0
VERTEX
  5
DAB7
  8
0
 10
4164.6406607109111
 20
24904.808268945559
 30
0.0
  0
VERTEX
  5
DAB8
  8
0
 10
4164.640660710882
 20
24933.54989239011
 30
0.0
 42
-0.43714822877668
  0
VERTEX
  5
DAB9
  8
0
 10
4180.8044538143604
 20
24948.504677096778
 30
0.0
 42
0.0611894221275771
  0
VERTEX
  5
DABA
  8
0
 10
4628.4768676074327
 20
24948.504677096778
 30
0.0
 42
-0.4371482287765355
  0
VERTEX
  5
DABB
  8
0
 10
4644.6406607109111
 20
24933.549892390121
 30
0.0
  0
VERTEX
  5
DABC
  8
0
 10
4644.6406607109111
 20
24904.80826894557
 30
0.0
 42
-0.4142135623730951
  0
VERTEX
  5
DABD
  8
0
 10
4629.6406607109111
 20
24889.80826894557
 30
0.0
  0
VERTEX
  5
DABE
  8
0
 10
4628.8906607109111
 20
24889.80826894557
 30
0.0
  0
VERTEX
  5
DABF
  8
0
 10
4628.8906607109111
 20
24921.80826894557
 30
0.0
  0
VERTEX
  5
DAC0
  8
0
 10
4610.3906607109693
 20
24921.80826894557
 30
0.0
  0
VERTEX
  5
DAC1
  8
0
 10
4610.3906607109393
 20
24889.80826894557
 30
0.0
 42
-0.0486026731470255
  0
SEQEND
  5
DAC2
  8
0
  0
CIRCLE
  5
2B03
  8
0
 10
4197.3906607109111
 20
24920.308268945559
 30
0.0
 40
2.5
  0
CIRCLE
  5
2B04
  8
0
 10
4181.8906607108529
 20
24920.308268945559
 30
0.0
 40
2.5
  0
CIRCLE
  5
2B05
  8
0
 10
4627.3906607109693
 20
24920.308268945559
 30
0.0
 40
2.5
  0
CIRCLE
  5
2B06
  8
0
 10
4611.8906607109111
 20
24920.308268945559
 30
0.0
 40
2.5
  0
INSERT
  5
2B07
  8
0
  2
*U17
 10
0.0
 20
0.0
 30
0.0
  0
POLYLINE
  5
2B08
  8
0
 66
     1
 10
0.0
 20
0.0
 30
0.0
  0
VERTEX
  5
DAC7
  8
0
 10
3797.5854593850831
 20
24738.543912968089
 30
0.0
  0
VERTEX
  5
DAC8
  8
0
 10
3827.9451918708969
 20
24728.43022702328
 30
0.0
  0
VERTEX
  5
DAC9
  8
0
 10
3822.098217184031
 20
24710.878506679921
 30
0.0
  0
VERTEX
  5
DACA
  8
0
 10
3791.7384846981031
 20
24720.99219262477
 30
0.0
  0
VERTEX
  5
DACB
  8
0
 10
3789.1109719883989
 20
24713.104802863501
 30
0.0
 42
-0.3228737511617177
  0
VERTEX
  5
DACC
  8
0
 10
3751.1613063811251
 20
24685.746910294511
 30
0.0
  0
VERTEX
  5
DACD
  8
0
 10
3744.8142171011882
 20
24685.746910294511
 30
0.0
  0
VERTEX
  5
DACE
  8
0
 10
3744.8142171011882
 20
24653.746910294511
 30
0.0
  0
VERTEX
  5
DACF
  8
0
 10
3726.3142171011882
 20
24653.746910294511
 30
0.0
  0
VERTEX
  5
DAD0
  8
0
 10
3726.3142171011882
 20
24685.746910294511
 30
0.0
  0
VERTEX
  5
DAD1
  8
0
 10
3700.8142171011882
 20
24685.746910294511
 30
0.0
  0
VERTEX
  5
DAD2
  8
0
 10
3700.8142171011882
 20
24653.746910294511
 30
0.0
  0
VERTEX
  5
DAD3
  8
0
 10
3682.3142171011882
 20
24653.746910294511
 30
0.0
  0
VERTEX
  5
DAD4
  8
0
 10
3682.3142171011882
 20
24685.746910294511
 30
0.0
  0
VERTEX
  5
DAD5
  8
0
 10
3656.8142171011882
 20
24685.746910294511
 30
0.0
  0
VERTEX
  5
DAD6
  8
0
 10
3656.8142171011882
 20
24653.746910294511
 30
0.0
  0
VERTEX
  5
DAD7
  8
0
 10
3638.3142171011882
 20
24653.746910294511
 30
0.0
  0
VERTEX
  5
DAD8
  8
0
 10
3638.3142171011882
 20
24685.746910294511
 30
0.0
  0
VERTEX
  5
DAD9
  8
0
 10
3612.8142171011882
 20
24685.746910294511
 30
0.0
  0
VERTEX
  5
DADA
  8
0
 10
3612.8142171011882
 20
24653.746910294511
 30
0.0
  0
VERTEX
  5
DADB
  8
0
 10
3594.3142171011882
 20
24653.746910294511
 30
0.0
  0
VERTEX
  5
DADC
  8
0
 10
3594.3142171011882
 20
24685.746910294511
 30
0.0
  0
VERTEX
  5
DADD
  8
0
 10
3568.8142171011882
 20
24685.746910294511
 30
0.0
  0
VERTEX
  5
DADE
  8
0
 10
3568.8142171011882
 20
24653.746910294511
 30
0.0
  0
VERTEX
  5
DADF
  8
0
 10
3550.3142171011882
 20
24653.746910294511
 30
0.0
  0
VERTEX
  5
DAE0
  8
0
 10
3550.3142171011882
 20
24685.746910294511
 30
0.0
  0
VERTEX
  5
DAE1
  8
0
 10
3524.8142171011882
 20
24685.746910294511
 30
0.0
  0
VERTEX
  5
DAE2
  8
0
 10
3524.8142171011882
 20
24653.746910294511
 30
0.0
  0
VERTEX
  5
DAE3
  8
0
 10
3506.3142171011882
 20
24653.746910294511
 30
0.0
  0
VERTEX
  5
DAE4
  8
0
 10
3506.3142171011882
 20
24685.746910294511
 30
0.0
  0
VERTEX
  5
DAE5
  8
0
 10
3480.8142171011882
 20
24685.746910294511
 30
0.0
  0
VERTEX
  5
DAE6
  8
0
 10
3480.8142171011882
 20
24653.746910294511
 30
0.0
  0
VERTEX
  5
DAE7
  8
0
 10
3462.3142171011882
 20
24653.746910294511
 30
0.0
  0
VERTEX
  5
DAE8
  8
0
 10
3462.3142171011882
 20
24685.746910294511
 30
0.0
  0
VERTEX
  5
DAE9
  8
0
 10
3436.8142171011882
 20
24685.746910294511
 30
0.0
  0
VERTEX
  5
DAEA
  8
0
 10
3436.8142171011882
 20
24653.746910294511
 30
0.0
  0
VERTEX
  5
DAEB
  8
0
 10
3418.3142171011882
 20
24653.746910294511
 30
0.0
  0
VERTEX
  5
DAEC
  8
0
 10
3418.3142171011882
 20
24685.746910294511
 30
0.0
  0
VERTEX
  5
DAED
  8
0
 10
3392.8142171011882
 20
24685.746910294511
 30
0.0
  0
VERTEX
  5
DAEE
  8
0
 10
3392.8142171011882
 20
24653.746910294511
 30
0.0
  0
VERTEX
  5
DAEF
  8
0
 10
3374.3142171011882
 20
24653.746910294511
 30
0.0
  0
VERTEX
  5
DAF0
  8
0
 10
3374.3142171011882
 20
24685.746910294511
 30
0.0
  0
VERTEX
  5
DAF1
  8
0
 10
3354.314217101246
 20
24685.746910294511
 30
0.0
 42
0.4142135623730951
  0
VERTEX
  5
DAF2
  8
0
 10
3314.314217101246
 20
24645.746910294511
 30
0.0
  0
VERTEX
  5
DAF3
  8
0
 10
3314.314217101246
 20
24230.746910294511
 30
0.0
 42
0.3070880349207385
  0
VERTEX
  5
DAF4
  8
0
 10
3330.064217101246
 20
24207.521116443699
 30
0.0
  0
VERTEX
  5
DAF5
  8
0
 10
3330.0642171012169
 20
24447.746910294511
 30
0.0
  0
VERTEX
  5
DAF6
  8
0
 10
3348.5642171012169
 20
24447.746910294511
 30
0.0
  0
VERTEX
  5
DAF7
  8
0
 10
3348.564217101246
 20
24207.521116443699
 30
0.0
 42
0.3070880349207385
  0
VERTEX
  5
DAF8
  8
0
 10
3364.314217101246
 20
24230.746910294511
 30
0.0
  0
VERTEX
  5
DAF9
  8
0
 10
3364.314217101246
 20
24545.746910294511
 30
0.0
 42
-0.4142135623730951
  0
VERTEX
  5
DAFA
  8
0
 10
3444.314217101246
 20
24625.746910294511
 30
0.0
  0
VERTEX
  5
DAFB
  8
0
 10
3719.7952178647852
 20
24625.7469102945
 30
0.0
 42
-0.3587199832369512
  0
VERTEX
  5
DAFC
  8
0
 10
3798.3082119248161
 20
24561.099752498088
 30
0.0
  0
VERTEX
  5
DAFD
  8
0
 10
3865.639272292743
 20
24226.199472793211
 30
0.0
 42
0.3036342407347395
  0
VERTEX
  5
DAFE
  8
0
 10
3885.7210515064239
 20
24206.221057164599
 30
0.0
  0
VERTEX
  5
DAFF
  8
0
 10
3847.1585621344439
 20
24398.028350948978
 30
0.0
  0
VERTEX
  5
DB00
  8
0
 10
3865.2956398063852
 20
24401.674775707728
 30
0.0
  0
VERTEX
  5
DB01
  8
0
 10
3904.3555049029978
 20
24207.393567679781
 30
0.0
 42
0.3524090810119995
  0
VERTEX
  5
DB02
  8
0
 10
3916.036753048933
 20
24229.585120845441
 30
0.0
  0
VERTEX
  5
DB03
  8
0
 10
3881.4596467883839
 20
24406.409196962912
 30
0.0
 42
-0.1293834213877431
  0
VERTEX
  5
DB04
  8
0
 10
3914.1304323575041
 20
24914.372410285509
 30
0.0
  0
VERTEX
  5
DB05
  8
0
 10
3940.5414774128171
 20
24993.654312741681
 30
0.0
 42
0.9146054765242379
  0
VERTEX
  5
DB06
  8
0
 10
3888.3606872029068
 20
25011.037210459359
 30
0.0
  0
VERTEX
  5
DB07
  8
0
 10
3881.0233684297582
 20
24989.011705976001
 30
0.0
  0
VERTEX
  5
DB08
  8
0
 10
3911.383100915571
 20
24978.898020031182
 30
0.0
  0
VERTEX
  5
DB09
  8
0
 10
3905.536126228707
 20
24961.346299687819
 30
0.0
  0
VERTEX
  5
DB0A
  8
0
 10
3875.1763937427768
 20
24971.4599856327
 30
0.0
  0
VERTEX
  5
DB0B
  8
0
 10
3867.1170502556361
 20
24947.26707380802
 30
0.0
  0
VERTEX
  5
DB0C
  8
0
 10
3897.4767827414489
 20
24937.153387863211
 30
0.0
  0
VERTEX
  5
DB0D
  8
0
 10
3891.629808054613
 20
24919.601667519852
 30
0.0
  0
VERTEX
  5
DB0E
  8
0
 10
3861.2700755686551
 20
24929.715353464711
 30
0.0
  0
VERTEX
  5
DB0F
  8
0
 10
3853.2107320815439
 20
24905.522441640049
 30
0.0
  0
VERTEX
  5
DB10
  8
0
 10
3883.5704645673268
 20
24895.408755695229
 30
0.0
  0
VERTEX
  5
DB11
  8
0
 10
3877.7234898804909
 20
24877.857035351881
 30
0.0
  0
VERTEX
  5
DB12
  8
0
 10
3847.3637573945621
 20
24887.970721296741
 30
0.0
  0
VERTEX
  5
DB13
  8
0
 10
3839.3044139074218
 20
24863.777809472049
 30
0.0
  0
VERTEX
  5
DB14
  8
0
 10
3869.6641463932342
 20
24853.664123527229
 30
0.0
  0
VERTEX
  5
DB15
  8
0
 10
3863.8171717063692
 20
24836.112403183881
 30
0.0
  0
VERTEX
  5
DB16
  8
0
 10
3833.4574392204099
 20
24846.22608912873
 30
0.0
  0
VERTEX
  5
DB17
  8
0
 10
3825.3980957331542
 20
24822.033177304111
 30
0.0
  0
VERTEX
  5
DB18
  8
0
 10
3855.7578282191112
 20
24811.919491359258
 30
0.0
  0
VERTEX
  5
DB19
  8
0
 10
3849.9108535322471
 20
24794.367771015899
 30
0.0
  0
VERTEX
  5
DB1A
  8
0
 10
3819.5511210463178
 20
24804.481456960759
 30
0.0
  0
VERTEX
  5
DB1B
  8
0
 10
3811.4917775590611
 20
24780.288545136151
 30
0.0
  0
VERTEX
  5
DB1C
  8
0
 10
3841.851510044989
 20
24770.17485919128
 30
0.0
  0
VERTEX
  5
DB1D
  8
0
 10
3836.0045353581531
 20
24752.623138847928
 30
0.0
  0
VERTEX
  5
DB1E
  8
0
 10
3805.6448028722248
 20
24762.736824792781
 30
0.0
  0
VERTEX
  5
DB1F
  8
0
 10
3797.585459384939
 20
24738.543912968129
 30
0.0
  0
SEQEND
  5
DB20
  8
0
  0
CIRCLE
  5
2B0A
  8
0
 10
3743.3142171012169
 20
24655.246910294511
 30
0.0
 40
2.5
  0
CIRCLE
  5
2B0B
  8
0
 10
3727.8142171011591
 20
24655.246910294511
 30
0.0
 40
2.5
  0
CIRCLE
  5
2B0C
  8
0
 10
3699.3142171012169
 20
24655.246910294511
 30
0.0
 40
2.5
  0
CIRCLE
  5
2B0D
  8
0
 10
3683.8142171011591
 20
24655.246910294511
 30
0.0
 40
2.5
  0
CIRCLE
  5
2B0E
  8
0
 10
3655.3142171012169
 20
24655.246910294511
 30
0.0
 40
2.5
  0
CIRCLE
  5
2B0F
  8
0
 10
3639.8142171011591
 20
24655.246910294511
 30
0.0
 40
2.5
  0
CIRCLE
  5
2B10
  8
0
 10
3611.3142171012169
 20
24655.246910294511
 30
0.0
 40
2.5
  0
CIRCLE
  5
2B11
  8
0
 10
3595.8142171011591
 20
24655.246910294511
 30
0.0
 40
2.5
  0
CIRCLE
  5
2B12
  8
0
 10
3567.3142171012169
 20
24655.246910294511
 30
0.0
 40
2.5
  0
CIRCLE
  5
2B13
  8
0
 10
3551.8142171011591
 20
24655.246910294511
 30
0.0
 40
2.5
  0
CIRCLE
  5
2B14
  8
0
 10
3523.3142171012169
 20
24655.246910294511
 30
0.0
 40
2.5
  0
CIRCLE
  5
2B15
  8
0
 10
3507.8142171011591
 20
24655.246910294511
 30
0.0
 40
2.5
  0
CIRCLE
  5
2B16
  8
0
 10
3479.3142171012169
 20
24655.246910294511
 30
0.0
 40
2.5
  0
CIRCLE
  5
2B17
  8
0
 10
3463.8142171011591
 20
24655.246910294511
 30
0.0
 40
2.5
  0
CIRCLE
  5
2B18
  8
0
 10
3435.3142171012169
 20
24655.246910294511
 30
0.0
 40
2.5
  0
CIRCLE
  5
2B19
  8
0
 10
3419.8142171011591
 20
24655.246910294511
 30
0.0
 40
2.5
  0
CIRCLE
  5
2B1A
  8
0
 10
3391.3142171012169
 20
24655.246910294511
 30
0.0
 40
2.5
  0
CIRCLE
  5
2B1B
  8
0
 10
3375.8142171011582
 20
24655.246910294511
 30
0.0
 40
2.5
  0
CIRCLE
  5
2B1C
  8
0
 10
3909.4859094266299
 20
24977.948986599589
 30
0.0
 40
2.5
  0
CIRCLE
  5
2B1D
  8
0
 10
3904.587092797085
 20
24963.243491176741
 30
0.0
 40
2.5
  0
CIRCLE
  5
2B1E
  8
0
 10
3895.5795912525382
 20
24936.204354431611
 30
0.0
 40
2.5
  0
CIRCLE
  5
2B1F
  8
0
 10
3890.680774622992
 20
24921.498859008771
 30
0.0
 40
2.5
  0
CIRCLE
  5
2B20
  8
0
 10
3881.6732730784161
 20
24894.45972226364
 30
0.0
 40
2.5
  0
CIRCLE
  5
2B21
  8
0
 10
3876.7744564488689
 20
24879.754226840789
 30
0.0
 40
2.5
  0
CIRCLE
  5
2B22
  8
0
 10
3867.766954904293
 20
24852.71509009564
 30
0.0
 40
2.5
  0
CIRCLE
  5
2B23
  8
0
 10
3862.8681382747468
 20
24838.009594672782
 30
0.0
 40
2.5
  0
CIRCLE
  5
2B24
  8
0
 10
3853.8606367302
 20
24810.970457927659
 30
0.0
 40
2.5
  0
CIRCLE
  5
2B25
  8
0
 10
3848.9618201006551
 20
24796.264962504811
 30
0.0
 40
2.5
  0
CIRCLE
  5
2B26
  8
0
 10
3839.9543185560779
 20
24769.225825759691
 30
0.0
 40
2.5
  0
CIRCLE
  5
2B27
  8
0
 10
3835.0555019265321
 20
24754.520330336829
 30
0.0
 40
2.5
  0
CIRCLE
  5
2B28
  8
0
 10
3826.0480003819562
 20
24727.48119359168
 30
0.0
 40
2.5
  0
CIRCLE
  5
2B29
  8
0
 10
3821.14918375241
 20
24712.775698168829
 30
0.0
 40
2.5
  0
CIRCLE
  5
2B2A
  8
0
 10
3331.5642171011882
 20
24446.2469102945
 30
0.0
 40
2.5
  0
CIRCLE
  5
2B2B
  8
0
 10
3347.064217101246
 20
24446.2469102945
 30
0.0
 40
2.5
  0
CIRCLE
  5
2B2C
  8
0
 10
3864.120722002599
 20
24399.908545780909
 30
0.0
 40
2.4999999999999991
  0
CIRCLE
  5
2B2D
  8
0
 10
3848.924792061227
 20
24396.853433145199
 30
0.0
 40
2.4999999999999991
  0
INSERT
  5
2B2E
  8
0
  2
*U18
 10
0.0
 20
0.0
 30
0.0
  0
POLYLINE
  5
2B2F
  8
0
 66
     1
 10
0.0
 20
0.0
 30
0.0
 70
     1
  0
VERTEX
  5
DB25
  8
0
 10
5080.0181700675621
 20
24934.340799100959
 30
0.0
 42
0.0034727076425694
  0
VERTEX
  5
DB26
  8
0
 10
5105.5181700675621
 20
24934.639592900399
 30
0.0
  0
VERTEX
  5
DB27
  8
0
 10
5105.5181700675621
 20
24905.117571701408
 30
0.0
  0
VERTEX
  5
DB28
  8
0
 10
5124.0181700675621
 20
24905.526593794872
 30
0.0
  0
VERTEX
  5
DB29
  8
0
 10
5124.0181700675621
 20
24935.078164178762
 30
0.0
 42
0.0034746822291754
  0
VERTEX
  5
DB2A
  8
0
 10
5149.5181700675621
 20
24935.98867933275
 30
0.0
  0
VERTEX
  5
DB2B
  8
0
 10
5149.5181700675912
 20
24906.374235036259
 30
0.0
  0
VERTEX
  5
DB2C
  8
0
 10
5168.0181700675921
 20
24907.197509214318
 30
0.0
  0
VERTEX
  5
DB2D
  8
0
 10
5168.0181700675621
 20
24936.871517919939
 30
0.0
 42
0.003478663866856
  0
VERTEX
  5
DB2E
  8
0
 10
5193.5181700675621
 20
24938.395328707789
 30
0.0
  0
VERTEX
  5
DB2F
  8
0
 10
5193.518170067533
 20
24908.615901355781
 30
0.0
  0
VERTEX
  5
DB30
  8
0
 10
5212.0181700675621
 20
24909.85468698719
 30
0.0
  0
VERTEX
  5
DB31
  8
0
 10
5212.0181700675621
 20
24939.723964021701
 30
0.0
 42
0.0034846733000553
  0
VERTEX
  5
DB32
  8
0
 10
5237.518170067563
 20
24941.863717222899
 30
0.0
  0
VERTEX
  5
DB33
  8
0
 10
5237.518170067563
 20
24911.845997166769
 30
0.0
  0
VERTEX
  5
DB34
  8
0
 10
5256.0181700675621
 20
24913.502199118251
 30
0.0
  0
VERTEX
  5
DB35
  8
0
 10
5256.0181700675621
 20
24943.64046424003
 30
0.0
 42
0.0053545772481213
  0
VERTEX
  5
DB36
  8
0
 10
5295.094489950674
 20
24948.01630839827
 30
0.0
 42
-0.4371482287765355
  0
VERTEX
  5
DB37
  8
0
 10
5311.2582830541533
 20
24933.061523691598
 30
0.0
  0
VERTEX
  5
DB38
  8
0
 10
5311.2582830541533
 20
24904.31990024705
 30
0.0
 42
-0.4142135623730951
  0
VERTEX
  5
DB39
  8
0
 10
5296.2582830541523
 20
24889.31990024705
 30
0.0
  0
VERTEX
  5
DB3A
  8
0
 10
5295.5082830541533
 20
24889.31990024705
 30
0.0
  0
VERTEX
  5
DB3B
  8
0
 10
5295.5082830541533
 20
24921.31990024705
 30
0.0
  0
VERTEX
  5
DB3C
  8
0
 10
5277.0082830542106
 20
24921.31990024705
 30
0.0
  0
VERTEX
  5
DB3D
  8
0
 10
5277.0082830541824
 20
24889.31990024705
 30
0.0
 42
-0.0486026731470255
  0
VERTEX
  5
DB3E
  8
0
 10
4865.5082830541232
 20
24889.31990024705
 30
0.0
  0
VERTEX
  5
DB3F
  8
0
 10
4865.5082830541232
 20
24921.31990024705
 30
0.0
  0
VERTEX
  5
DB40
  8
0
 10
4847.0082830541232
 20
24921.31990024705
 30
0.0
  0
VERTEX
  5
DB41
  8
0
 10
4847.0082830541232
 20
24889.31990024705
 30
0.0
  0
VERTEX
  5
DB42
  8
0
 10
4846.2582830541523
 20
24889.31990024705
 30
0.0
 42
-0.4142135623729001
  0
VERTEX
  5
DB43
  8
0
 10
4831.2582830541523
 20
24904.31990024705
 30
0.0
  0
VERTEX
  5
DB44
  8
0
 10
4831.2582830541232
 20
24933.061523691591
 30
0.0
 42
-0.43714822877668
  0
VERTEX
  5
DB45
  8
0
 10
4847.4220761576016
 20
24948.01630839827
 30
0.0
 42
0.0052204078047068
  0
VERTEX
  5
DB46
  8
0
 10
4885.5181700675621
 20
24943.739881020381
 30
0.0
  0
VERTEX
  5
DB47
  8
0
 10
4885.518170067533
 20
24913.594775142381
 30
0.0
  0
VERTEX
  5
DB48
  8
0
 10
4904.0181700675621
 20
24911.92924732031
 30
0.0
  0
VERTEX
  5
DB49
  8
0
 10
4904.0181700675621
 20
24941.95311853163
 30
0.0
 42
0.0034848304895007
  0
VERTEX
  5
DB4A
  8
0
 10
4929.5181700675621
 20
24939.79960495502
 30
0.0
  0
VERTEX
  5
DB4B
  8
0
 10
4929.5181700675621
 20
24909.92514224851
 30
0.0
  0
VERTEX
  5
DB4C
  8
0
 10
4948.0181700675912
 20
24908.67708063887
 30
0.0
  0
VERTEX
  5
DB4D
  8
0
 10
4948.0181700675621
 20
24938.461014830002
 30
0.0
 42
0.0034787755629346
  0
VERTEX
  5
DB4E
  8
0
 10
4973.518170067563
 20
24936.923515003349
 30
0.0
  0
VERTEX
  5
DB4F
  8
0
 10
4973.518170067563
 20
24907.245951992369
 30
0.0
  0
VERTEX
  5
DB50
  8
0
 10
4992.0181700675912
 20
24906.413437196228
 30
0.0
  0
VERTEX
  5
DB51
  8
0
 10
4992.0181700675621
 20
24936.030764560099
 30
0.0
 42
0.003474749015657
  0
VERTEX
  5
DB52
  8
0
 10
5017.5181700675621
 20
24935.10660758333
 30
0.0
  0
VERTEX
  5
DB53
  8
0
 10
5017.5181700675621
 20
24905.553098123451
 30
0.0
  0
VERTEX
  5
DB54
  8
0
 10
5036.018170067533
 20
24905.134856518122
 30
0.0
  0
VERTEX
  5
DB55
  8
0
 10
5036.018170067563
 20
24934.658150073861
 30
0.0
 42
0.0034727298663683
  0
VERTEX
  5
DB56
  8
0
 10
5061.5181700675621
 20
24934.345737957949
 30
0.0
  0
VERTEX
  5
DB57
  8
0
 10
5061.5181700675621
 20
24904.843997858989
 30
0.0
  0
VERTEX
  5
DB58
  8
0
 10
5080.018170067533
 20
24904.83939161168
 30
0.0
  0
SEQEND
  5
DB59
  8
0
  0
CIRCLE
  5
2B31
  8
0
 10
4864.0082830541523
 20
24919.81990024705
 30
0.0
 40
2.5
  0
CIRCLE
  5
2B32
  8
0
 10
4848.5082830540941
 20
24919.81990024705
 30
0.0
 40
2.5
  0
CIRCLE
  5
2B33
  8
0
 10
5294.0082830542106
 20
24919.81990024705
 30
0.0
 40
2.5
  0
CIRCLE
  5
2B34
  8
0
 10
5278.5082830541523
 20
24919.81990024705
 30
0.0
 40
2.5
  0
CIRCLE
  5
2B35
  8
0
 10
5294.0082830542106
 20
25161.81585709627
 30
0.0
 40
2.5
  0
CIRCLE
  5
2B36
  8
0
 10
5278.5082830541523
 20
25161.81585709627
 30
0.0
 40
2.5
  0
CIRCLE
  5
2B37
  8
0
 10
4887.0181700675039
 20
24915.094775142388
 30
0.0
 40
2.5
  0
CIRCLE
  5
2B38
  8
0
 10
4931.018170067533
 20
24911.42514224851
 30
0.0
 40
2.5
  0
CIRCLE
  5
2B39
  8
0
 10
4975.018170067533
 20
24908.745951992369
 30
0.0
 40
2.5
  0
CIRCLE
  5
2B3A
  8
0
 10
5019.018170067533
 20
24907.053098123441
 30
0.0
 40
2.5
  0
CIRCLE
  5
2B3B
  8
0
 10
5063.0181700675321
 20
24906.343997858989
 30
0.0
 40
2.5
  0
CIRCLE
  5
2B3C
  8
0
 10
5107.018170067533
 20
24906.617571701408
 30
0.0
 40
2.5
  0
CIRCLE
  5
2B3D
  8
0
 10
5151.0181700675621
 20
24907.874235036259
 30
0.0
 40
2.5
  0
CIRCLE
  5
2B3E
  8
0
 10
5195.0181700675039
 20
24910.115901355781
 30
0.0
 40
2.5
  0
CIRCLE
  5
2B3F
  8
0
 10
5239.018170067533
 20
24913.345997166762
 30
0.0
 40
2.5
  0
CIRCLE
  5
2B40
  8
0
 10
4902.5181700675912
 20
24913.42924732031
 30
0.0
 40
2.5
  0
CIRCLE
  5
2B41
  8
0
 10
4946.5181700676203
 20
24910.17708063887
 30
0.0
 40
2.5
  0
CIRCLE
  5
2B42
  8
0
 10
4990.5181700676203
 20
24907.913437196228
 30
0.0
 40
2.5
  0
CIRCLE
  5
2B43
  8
0
 10
5034.5181700675621
 20
24906.634856518122
 30
0.0
 40
2.5
  0
CIRCLE
  5
2B44
  8
0
 10
5078.5181700675621
 20
24906.33939161168
 30
0.0
 40
2.5
  0
CIRCLE
  5
2B45
  8
0
 10
5122.5181700675912
 20
24907.026593794879
 30
0.0
 40
2.5
  0
CIRCLE
  5
2B46
  8
0
 10
5166.5181700676212
 20
24908.697509214318
 30
0.0
 40
2.5
  0
CIRCLE
  5
2B47
  8
0
 10
5210.5181700675912
 20
24911.35468698719
 30
0.0
 40
2.5
  0
CIRCLE
  5
2B48
  8
0
 10
5254.5181700675912
 20
24915.002199118251
 30
0.0
 40
2.5
  0
CIRCLE
  5
2B49
  8
0
 10
5078.5181700675912
 20
25149.337651708549
 30
0.0
 40
2.5
  0
CIRCLE
  5
2B4A
  8
0
 10
5063.0181700675321
 20
25149.337651708549
 30
0.0
 40
2.5
  0
CIRCLE
  5
2B4B
  8
0
 10
5019.0181700675621
 20
25150.047773930492
 30
0.0
 40
2.5
  0
CIRCLE
  5
2B4C
  8
0
 10
4975.018170067563
 20
25151.743653813501
 30
0.0
 40
2.5
  0
CIRCLE
  5
2B4D
  8
0
 10
4931.0181700675621
 20
25154.42788809671
 30
0.0
 40
2.5
  0
CIRCLE
  5
2B4E
  8
0
 10
4887.018170067563
 20
25158.104606426539
 30
0.0
 40
2.5
  0
CIRCLE
  5
2B4F
  8
0
 10
5239.0181700675621
 20
25156.355648150329
 30
0.0
 40
2.5
  0
CIRCLE
  5
2B50
  8
0
 10
5195.0181700675621
 20
25153.11851270574
 30
0.0
 40
2.5
  0
CIRCLE
  5
2B51
  8
0
 10
5151.0181700675621
 20
25150.871847535469
 30
0.0
 40
2.5
  0
CIRCLE
  5
2B52
  8
0
 10
5107.0181700675612
 20
25149.612202950018
 30
0.0
 40
2.5
  0
CIRCLE
  5
2B53
  8
0
 10
5034.5181700675921
 20
25149.634138572492
 30
0.0
 40
2.5
  0
CIRCLE
  5
2B54
  8
0
 10
4990.5181700675912
 20
25150.91574526468
 30
0.0
 40
2.5
  0
CIRCLE
  5
2B55
  8
0
 10
4946.5181700675912
 20
25153.18443273439
 30
0.0
 40
2.5
  0
CIRCLE
  5
2B56
  8
0
 10
4902.5181700675621
 20
25156.443684851769
 30
0.0
 40
2.5
  0
CIRCLE
  5
2B57
  8
0
 10
5122.5181700675621
 20
25150.025831290812
 30
0.0
 40
2.5
  0
CIRCLE
  5
2B58
  8
0
 10
5254.5181700675621
 20
25158.016456349149
 30
0.0
 40
2.5
  0
CIRCLE
  5
2B59
  8
0
 10
5210.5181700675621
 20
25154.361904584461
 30
0.0
 40
2.5
  0
CIRCLE
  5
2B5A
  8
0
 10
5166.5181700675912
 20
25151.69972796084
 30
0.0
 40
2.5
  0
POLYLINE
  5
2B5B
  8
0
 66
     1
 10
0.0
 20
0.0
 30
0.0
 70
     1
  0
VERTEX
  5
DB5A
  8
0
 10
4831.2582830541523
 20
25146.31585709627
 30
0.0
  0
VERTEX
  5
DB5B
  8
0
 10
4831.2582830541232
 20
25175.057480540821
 30
0.0
 42
-0.4371482287766481
  0
VERTEX
  5
DB5C
  8
0
 10
4847.4220761576016
 20
25190.012265247489
 30
0.0
 42
0.0611894221275771
  0
VERTEX
  5
DB5D
  8
0
 10
5295.094489950674
 20
25190.012265247489
 30
0.0
 42
-0.4371482287765037
  0
VERTEX
  5
DB5E
  8
0
 10
5311.2582830541533
 20
25175.057480540821
 30
0.0
  0
VERTEX
  5
DB5F
  8
0
 10
5311.2582830541533
 20
25146.31585709627
 30
0.0
 42
-0.4142135623730951
  0
VERTEX
  5
DB60
  8
0
 10
5296.2582830541523
 20
25131.31585709627
 30
0.0
  0
VERTEX
  5
DB61
  8
0
 10
5295.5082830541533
 20
25131.31585709627
 30
0.0
  0
VERTEX
  5
DB62
  8
0
 10
5295.5082830541533
 20
25163.315857096281
 30
0.0
  0
VERTEX
  5
DB63
  8
0
 10
5277.0082830542106
 20
25163.315857096281
 30
0.0
  0
VERTEX
  5
DB64
  8
0
 10
5277.0082830541824
 20
25131.31585709627
 30
0.0
 42
-0.0024838769620959
  0
VERTEX
  5
DB65
  8
0
 10
5256.0181700675621
 20
25129.37588810371
 30
0.0
  0
VERTEX
  5
DB66
  8
0
 10
5256.018170067533
 20
25159.514153225489
 30
0.0
  0
VERTEX
  5
DB67
  8
0
 10
5237.518170067563
 20
25157.857951273989
 30
0.0
  0
VERTEX
  5
DB68
  8
0
 10
5237.518170067563
 20
25127.84023121784
 30
0.0
 42
-0.0030126561187956
  0
VERTEX
  5
DB69
  8
0
 10
5212.0181700675621
 20
25125.990324426279
 30
0.0
  0
VERTEX
  5
DB6A
  8
0
 10
5212.018170067533
 20
25155.859601460801
 30
0.0
  0
VERTEX
  5
DB6B
  8
0
 10
5193.5181700675621
 20
25154.62081582941
 30
0.0
  0
VERTEX
  5
DB6C
  8
0
 10
5193.5181700675621
 20
25124.841388477391
 30
0.0
 42
-0.003008770373498
  0
VERTEX
  5
DB6D
  8
0
 10
5168.0181700675621
 20
25123.523416131578
 30
0.0
  0
VERTEX
  5
DB6E
  8
0
 10
5168.0181700675621
 20
25153.197424837192
 30
0.0
  0
VERTEX
  5
DB6F
  8
0
 10
5149.5181700675621
 20
25152.37415065914
 30
0.0
  0
VERTEX
  5
DB70
  8
0
 10
5149.5181700675621
 20
25122.759706362649
 30
0.0
 42
-0.0030061930200387
  0
VERTEX
  5
DB71
  8
0
 10
5124.0181700675621
 20
25121.97195778328
 30
0.0
  0
VERTEX
  5
DB72
  8
0
 10
5124.0181700675321
 20
25151.523528167148
 30
0.0
  0
VERTEX
  5
DB73
  8
0
 10
5105.5181700675621
 20
25151.114506073689
 30
0.0
  0
VERTEX
  5
DB74
  8
0
 10
5105.5181700675621
 20
25121.592484874702
 30
0.0
 42
-0.0030049140236631
  0
VERTEX
  5
DB75
  8
0
 10
5080.0181700675621
 20
25121.33394109564
 30
0.0
  0
VERTEX
  5
DB76
  8
0
 10
5080.0181700675621
 20
25150.8353485849
 30
0.0
  0
VERTEX
  5
DB77
  8
0
 10
5061.5181700675321
 20
25150.83995483222
 30
0.0
  0
VERTEX
  5
DB78
  8
0
 10
5061.5181700675621
 20
25121.338214733281
 30
0.0
 42
-0.003004928421706
  0
VERTEX
  5
DB79
  8
0
 10
5036.018170067563
 20
25121.608541893111
 30
0.0
  0
VERTEX
  5
DB7A
  8
0
 10
5036.018170067563
 20
25151.131835448839
 30
0.0
  0
VERTEX
  5
DB7B
  8
0
 10
5017.5181700675621
 20
25151.550077054151
 30
0.0
  0
VERTEX
  5
DB7C
  8
0
 10
5017.5181700675621
 20
25121.996567594269
 30
0.0
 42
-0.0030062362699713
  0
VERTEX
  5
DB7D
  8
0
 10
4992.0181700675621
 20
25122.79611477716
 30
0.0
  0
VERTEX
  5
DB7E
  8
0
 10
4992.0181700675621
 20
25152.413442141031
 30
0.0
  0
VERTEX
  5
DB7F
  8
0
 10
4973.518170067563
 20
25153.245956937171
 30
0.0
  0
VERTEX
  5
DB80
  8
0
 10
4973.518170067563
 20
25123.568393926209
 30
0.0
 42
-0.0030088426433322
  0
VERTEX
  5
DB81
  8
0
 10
4948.0181700675621
 20
25124.898195419559
 30
0.0
  0
VERTEX
  5
DB82
  8
0
 10
4948.0181700675621
 20
25154.68212961073
 30
0.0
  0
VERTEX
  5
DB83
  8
0
 10
4929.5181700675621
 20
25155.93019122037
 30
0.0
  0
VERTEX
  5
DB84
  8
0
 10
4929.5181700675621
 20
25126.055728513871
 30
0.0
 42
-0.0030127576905721
  0
VERTEX
  5
DB85
  8
0
 10
4904.0181700675621
 20
25127.9175105168
 30
0.0
  0
VERTEX
  5
DB86
  8
0
 10
4904.0181700675339
 20
25157.941381728109
 30
0.0
  0
VERTEX
  5
DB87
  8
0
 10
4885.5181700675621
 20
25159.606909550199
 30
0.0
  0
VERTEX
  5
DB88
  8
0
 10
4885.5181700675621
 20
25129.46180367222
 30
0.0
  0
VERTEX
  5
DB89
  8
0
 10
4847.0082830541232
 20
25131.31585709627
 30
0.0
  0
VERTEX
  5
DB8A
  8
0
 10
4846.2582830541523
 20
25131.31585709627
 30
0.0
 42
-0.4142135623728108
  0
SEQEND
  5
DB8B
  8
0
  0
INSERT
  5
2B5D
  8
0
  2
*U19
 10
0.0
 20
0.0
 30
0.0
  0
POLYLINE
  5
2B5E
  8
0
 66
     1
 10
0.0
 20
0.0
 30
0.0
 70
     1
  0
VERTEX
  5
DB90
  8
0
 10
3102.5741569486959
 20
23921.105242751499
 30
0.0
  0
VERTEX
  5
DB91
  8
0
 10
5896.5204269727783
 20
23921.105242751499
 30
0.0
  0
VERTEX
  5
DB92
  8
0
 10
5896.5204269727783
 20
25406.610983998129
 30
0.0
  0
VERTEX
  5
DB93
  8
0
 10
3102.5741569486959
 20
25406.610983998129
 30
0.0
  0
SEQEND
  5
DB94
  8
0
  0
ENDSEC
  0
EOF
