  0
SECTION
  2
HEADER
  9
$ACADVER
  1
AC1014
  9
$ACADMAINTVER
 70
        0
  9
$DWGCODEPAGE
  3
ANSI_1252
  9
$INSBASE
 10
0.0
 20
0.0
 30
0.0
  9
$EXTMIN
 10
1.000000000E+20
 20
1.000000000E+20
 30
1.000000000E+20
  9
$EXTMAX
 10
-1.000000000E+20
 20
-1.000000000E+20
 30
-1.000000000E+20
  9
$LIMMIN
 10
0.0
 20
0.0
  9
$LIMMAX
 10
0.0
 20
0.0
  9
$ORTHOMODE
 70
        0
  9
$REGENMODE
 70
        1
  9
$FILLMODE
 70
        1
  9
$QTEXTMODE
 70
        0
  9
$MIRRTEXT
 70
        1
  9
$DRAGMODE
 70
        2
  9
$LTSCALE
 40
1.0
  9
$OSMODE
 70
        0
  9
$ATTMODE
 70
        1
  9
$TEXTSIZE
 40
0.2
  9
$TRACEWID
 40
0.05
  9
$TEXTSTYLE
  7
STANDARD
  9
$CLAYER
  8
0
  9
$CELTYPE
  6
CONTINUOUS
  9
$CECOLOR
 62
      256
  9
$CELTSCALE
 40
1.0
  9
$DELOBJ
 70
        1
  9
$DISPSILH
 70
        0
  9
$DIMSCALE
 40
1.0
  9
$DIMASZ
 40
0.18
  9
$DIMEXO
 40
0.0625
  9
$DIMDLI
 40
0.38
  9
$DIMRND
 40
0.0
  9
$DIMDLE
 40
0.0
  9
$DIMEXE
 40
0.18
  9
$DIMTP
 40
0.0
  9
$DIMTM
 40
0.0
  9
$DIMTXT
 40
0.18
  9
$DIMCEN
 40
0.09
  9
$DIMTSZ
 40
0.0
  9
$DIMTOL
 70
        0
  9
$DIMLIM
 70
        0
  9
$DIMTIH
 70
        1
  9
$DIMTOH
 70
        1
  9
$DIMSE1
 70
        0
  9
$DIMSE2
 70
        0
  9
$DIMTAD
 70
        0
  9
$DIMZIN
 70
        0
  9
$DIMBLK
  1

  9
$DIMASO
 70
        1
  9
$DIMSHO
 70
        1
  9
$DIMPOST
  1

  9
$DIMAPOST
  1

  9
$DIMALT
 70
        0
  9
$DIMALTD
 70
        2
  9
$DIMALTF
 40
25.4
  9
$DIMLFAC
 40
1.0
  9
$DIMTOFL
 70
        0
  9
$DIMTVP
 40
0.0
  9
$DIMTIX
 70
        0
  9
$DIMSOXD
 70
        0
  9
$DIMSAH
 70
        0
  9
$DIMBLK1
  1

  9
$DIMBLK2
  1

  9
$DIMSTYLE
  2
STANDARD
  9
$DIMCLRD
 70
        0
  9
$DIMCLRE
 70
        0
  9
$DIMCLRT
 70
        0
  9
$DIMTFAC
 40
1.0
  9
$DIMGAP
 40
0.09
  9
$DIMJUST
 70
        0
  9
$DIMSD1
 70
        0
  9
$DIMSD2
 70
        0
  9
$DIMTOLJ
 70
        1
  9
$DIMTZIN
 70
        0
  9
$DIMALTZ
 70
        0
  9
$DIMALTTZ
 70
        0
  9
$DIMFIT
 70
        3
  9
$DIMUPT
 70
        0
  9
$DIMUNIT
 70
        2
  9
$DIMDEC
 70
        4
  9
$DIMTDEC
 70
        4
  9
$DIMALTU
 70
        2
  9
$DIMALTTD
 70
        2
  9
$DIMTXSTY
  7
STANDARD
  9
$DIMAUNIT
 70
        0
  9
$LUNITS
 70
        2
  9
$LUPREC
 70
        4
  9
$SKETCHINC
 40
0.1
  9
$FILLETRAD
 40
0.0
  9
$AUNITS
 70
        0
  9
$AUPREC
 70
        0
  9
$MENU
  1
acad
  9
$ELEVATION
 40
0.0
  9
$PELEVATION
 40
0.0
  9
$THICKNESS
 40
0.0
  9
$LIMCHECK
 70
        0
  9
$BLIPMODE
 70
        1
  9
$CHAMFERA
 40
0.0
  9
$CHAMFERB
 40
0.0
  9
$CHAMFERC
 40
0.0
  9
$CHAMFERD
 40
0.0
  9
$SKPOLY
 70
        0
  9
$TDCREATE
 40
0.000000000
  9
$TDUPDATE
 40
0.000000000
  9
$TDINDWG
 40
0.0000000000
  9
$TDUSRTIMER
 40
0.0000000000
  9
$USRTIMER
 70
        1
  9
$ANGBASE
 50
0.0
  9
$ANGDIR
 70
        0
  9
$PDMODE
 70
        2
  9
$PDSIZE
 40
-1.0
  9
$PLINEWID
 40
0.0
  9
$COORDS
 70
        0
  9
$SPLFRAME
 70
        0
  9
$SPLINETYPE
 70
        6
  9
$SPLINESEGS
 70
        8
  9
$ATTDIA
 70
        0
  9
$ATTREQ
 70
        1
  9
$HANDLING
 70
        1
  9
$HANDSEED
  5
9C4
  9
$SURFTAB1
 70
        6
  9
$SURFTAB2
 70
        6
  9
$SURFTYPE
 70
        6
  9
$SURFU
 70
        6
  9
$SURFV
 70
        6
  9
$UCSNAME
  2

  9
$UCSORG
 10
0.0
 20
0.0
 30
0.0
  9
$UCSXDIR
 10
1.0
 20
0.0
 30
0.0
  9
$UCSYDIR
 10
0.0
 20
1.0
 30
0.0
  9
$PUCSNAME
  2

  9
$PUCSORG
 10
0.0
 20
0.0
 30
0.0
  9
$PUCSXDIR
 10
1.0
 20
0.0
 30
0.0
  9
$PUCSYDIR
 10
0.0
 20
1.0
 30
0.0
  9
$USERI1
 70
        0
  9
$USERI2
 70
        0
  9
$USERI3
 70
        0
  9
$USERI4
 70
        0
  9
$USERI5
 70
        0
  9
$USERR1
 40
0.0
  9
$USERR2
 40
0.0
  9
$USERR3
 40
0.0
  9
$USERR4
 40
0.0
  9
$USERR5
 40
0.0
  9
$WORLDVIEW
 70
        1
  9
$SHADEDGE
 70
        3
  9
$SHADEDIF
 70
       70
  9
$TILEMODE
 70
        1
  9
$MAXACTVP
 70
       16
  9
$PINSBASE
 10
0.0
 20
0.0
 30
0.0
  9
$PLIMCHECK
 70
        0
  9
$PEXTMIN
 10
1.000000000E+20
 20
1.000000000E+20
 30
1.000000000E+20
  9
$PEXTMAX
 10
-1.000000000E+20
 20
-1.000000000E+20
 30
-1.000000000E+20
  9
$PLIMMIN
 10
0.0
 20
0.0
  9
$PLIMMAX
 10
12.0
 20
9.0
  9
$UNITMODE
 70
        0
  9
$VISRETAIN
 70
        0
  9
$PLINEGEN
 70
        1
  9
$PSLTSCALE
 70
        0
  9
$TREEDEPTH
 70
     3020
  9
$PICKSTYLE
 70
        1
  9
$CMLSTYLE
  2
STANDARD
  9
$CMLJUST
 70
        0
  9
$CMLSCALE
 40
1.0
  9
$PROXYGRAPHICS
 70
        0
  9
$MEASUREMENT
 70
        1
  0
ENDSEC
  0
SECTION
  2
CLASSES
  0
CLASS
  1
LWPOLYLINE
  2
AcDbPolyline
  3
\"AutoCAD\"
 90
        0
280
        0
281
        1
  0
CLASS
  1
IMAGE
  2
AcDbRasterImage
  3
ISM
 90
      127
280
        0
281
        1
  0
CLASS
  1
OLE2FRAME
  2
AcDbOle2Frame
  3
\"\"
 90
        0
280
        0
281
        1
  0
CLASS
  1
HATCH
  2
AcDbHatch
  3
\"ACAD_SEDONA\"
 90
        0
280
        0
281
        1
  0
CLASS
  1
DICTIONARYVAR
  2
AcDbDictionaryVar
  3
\"AutoCAD\"
 90
        0
280
        0
281
        0
  0
CLASS
  1
RASTERVARIABLES
  2
AcDbRasterVariables
  3
ISM
 90
        0
280
        0
281
        0
  0
CLASS
  1
IMAGEDEF
  2
AcDbRasterImageDef
  3
ISM
 90
        0
280
        0
281
        0
  0
CLASS
  1
IMAGEDEF_REACTOR
  2
AcDbRasterImageDefReactor
  3
ISM
 90
        1
280
        0
281
        0
  0
CLASS
  1
IDBUFFER
  2
AcDbIdBuffer
  3
\"Acad\"
 90
        0
280
        0
281
        0
  0
CLASS
  1
SPATIAL_FILTER
  2
AcDbSpatialFilter
  3
\"Acad\"
 90
        0
280
        0
281
        0
  0
CLASS
  1
XRECORD
  2
AcDbXrecord
  3
\"<Built In>\"
 90
        0
280
        0
281
        0
  0
CLASS
  1
SORTENTSTABLE
  2
AcDbSortentsTable
  3
\"AutoCAD\"
 90
        0
280
        0
281
        0
  0
CLASS
  1
LAYER_INDEX
  2
AcDbLayerIndex
  3
\"Acad\"
 90
        0
280
        0
281
        0
  0
CLASS
  1
SPATIAL_INDEX
  2
AcDbSpatialIndex
  3
\"Acad\"
 90
        0
280
        0
281
        0
  0
CLASS
  1
OBJECT_PTR
  2
CAseDLPNTableRecord
  3
\"ASE-LPNTableRecord\"
 90
        1
280
        0
281
        0
  0
CLASS
  1
LAYOUT
  2
AcDbLayout
  3
\"AutoCAD 2000\"
 90
        1
280
        0
281
        0
  0
CLASS
  1
PLOTSETTINGS
  2
AcDbPlotSettings
  3
\"AutoCAD 2000\"
 90
        1
280
        0
281
        0
  0
CLASS
  1
ACDBDICTIONARYWDFLT
  2
AcDbDictionaryWithDefault
  3
\"AutoCAD 2000\"
 90
        1
280
        0
281
        0
  0
CLASS
  1
ACDBPLACEHOLDER
  2
AcDbPlaceHolder
  3
\"AutoCAD 2000\"
 90
        1
280
        0
281
        0
  0
CLASS
  1
VBA_PROJECT
  2
AcDbVbaProject
  3
\"acadvba\"
 90
        1
280
        0
281
        0
  0
CLASS
  1
WIPEOUT
  2
AcDbWipeout
  3
WipeOut|AutoCAD Express Tool|expresstools@autodesk.com
 90
      127
280
        0
281
        1
  0
CLASS
  1
WIPEOUTVARIABLES
  2
AcDbWipeoutVariables
  3
WipeOut|AutoCAD Express Tool|expresstools@autodesk.com
 90
        0
280
        0
281
        0
  0
CLASS
  1
RTEXT
  2
RText
  3
RText|AutoCAD Express Tool|expresstools@autodesk.com
 90
        0
280
        0
281
        1
  0
CLASS
  1
ARCALIGNEDTEXT
  2
AcDbArcAlignedText
  3
ATEXT|AutoCAD Express Tool|expresstools@autodesk.com
 90
        0
280
        0
281
        1
  0
ENDSEC
  0
SECTION
  2
TABLES
  0
TABLE
  2
VPORT
  5
7
100
AcDbSymbolTable
 70
        1
  0
VPORT
  5
15
100
AcDbSymbolTableRecord
100
AcDbViewportTableRecord
  2
*ACTIVE
 70
        0
 10
0.0
 20
0.0
 11
1.0
 21
1.0
 12
6.591288
 22
4.579184
 13
0.0
 23
0.0
 14
1.0
 24
1.0
 15
0.0
 25
0.0
 16
0.0
 26
0.0
 36
1.0
 17
0.0
 27
0.0
 37
0.0
 40
9.158369
 41
0.688564
 42
50.0
 43
0.0
 44
0.0
 50
0.0
 51
0.0
 71
        0
 72
      100
 73
        1
 74
        1
 75
        0
 76
        0
 77
        0
 78
        0
  0
ENDTAB
  0
TABLE
  2
LTYPE
  5
4
100
AcDbSymbolTable
 70
        6
  0
LTYPE
  5
11
100
AcDbSymbolTableRecord
100
AcDbLinetypeTableRecord
  2
BYBLOCK
 70
       64
  3

 72
       65
 73
        0
 40
0.0
  0
LTYPE
  5
12
100
AcDbSymbolTableRecord
100
AcDbLinetypeTableRecord
  2
BYLAYER
 70
       64
  3

 72
       65
 73
        0
 40
0.0
  0
LTYPE
  5
13
100
AcDbSymbolTableRecord
100
AcDbLinetypeTableRecord
  2
CONTINUOUS
 70
       64
  3
Solid line
 72
       65
 73
        0
 40
0.0
  0
LTYPE
  5
1E
100
AcDbSymbolTableRecord
100
AcDbLinetypeTableRecord
  2
CENTER
 70
       64
  3
Center ____ _ ____ _ ____ _ ____ _ ____ _ ____
 72
       65
 73
        4
 40
8.0
 49
4.5
 74
        0
 49
-1.5
 74
        0
 49
0.5
 74
        0
 49
-1.5
 74
        0
  0
LTYPE
  5
20
100
AcDbSymbolTableRecord
100
AcDbLinetypeTableRecord
  2
SOLID
 70
       64
  3
Solid line
 72
       65
 73
        0
 40
0.0
  0
LTYPE
  5
215
100
AcDbSymbolTableRecord
100
AcDbLinetypeTableRecord
  2
DASH
 70
       64
  3
Dash __ __ __ __ __ __ __ __ __ __ __ __ __ _
 72
       65
 73
        2
 40
8.0
 49
4.0
 74
        0
 49
-4.0
 74
        0
  0
ENDTAB
  0
TABLE
  2
LAYER
  5
2
100
AcDbSymbolTable
 70
        1
  0
LAYER
  5
1D
100
AcDbSymbolTableRecord
100
AcDbLayerTableRecord
  2
0
 70
        0
 62
        7
  6
CONTINUOUS
  0
ENDTAB
  0
TABLE
  2
STYLE
  5
3
100
AcDbSymbolTable
 70
        1
  0
STYLE
  5
17
100
AcDbSymbolTableRecord
100
AcDbTextStyleTableRecord
  2
STANDARD
 70
        0
 40
0.0
 41
1.0
 50
0.0
 71
        0
 42
0.0
  3
txt
  4

  0
ENDTAB
  0
TABLE
  2
VIEW
  5
5
100
AcDbSymbolTable
 70
        0
  0
ENDTAB
  0
TABLE
  2
UCS
  5
6
100
AcDbSymbolTable
 70
        0
  0
ENDTAB
  0
TABLE
  2
APPID
  5
8
100
AcDbSymbolTable
 70
        1
  0
APPID
  5
16
100
AcDbSymbolTableRecord
100
AcDbRegAppTableRecord
  2
ACAD
 70
        0
  0
ENDTAB
  0
TABLE
  2
DIMSTYLE
  5
9
100
AcDbSymbolTable
 70
        1
  0
DIMSTYLE
105
18
100
AcDbSymbolTableRecord
100
AcDbDimStyleTableRecord
  2
STANDARD
 70
        0
  3

  4

  5

  6

  7

 40
1.0
 41
0.18
 42
0.0625
 43
0.38
 44
0.18
 45
0.0
 46
0.0
 47
0.0
 48
0.0
 71
        0
 72
        0
 73
        1
 74
        1
 75
        0
 76
        0
 77
        0
 78
        0
140
0.18
141
0.09
142
0.0
143
25.4
144
1.0
145
0.0
146
1.0
147
0.09
170
        0
171
        2
172
        0
173
        0
174
        0
175
        0
176
        0
177
        0
178
        0
270
        2
271
        4
272
        4
273
        2
274
        2
275
        0
280
        0
281
        0
282
        0
283
        1
284
        0
285
        0
286
        0
287
        0
288
        0
340
17
  0
ENDTAB
  0
TABLE
  2
BLOCK_RECORD
  5
1
100
AcDbSymbolTable
 70
      400
  0
BLOCK_RECORD
  5
A
100
AcDbSymbolTableRecord
100
AcDbBlockTableRecord
  2
*MODEL_SPACE
  0
BLOCK_RECORD
  5
B
100
AcDbSymbolTableRecord
100
AcDbBlockTableRecord
  2
*PAPER_SPACE
  0
BLOCK_RECORD
  5
4A
100
AcDbSymbolTableRecord
100
AcDbBlockTableRecord
  2
*H0
  0
BLOCK_RECORD
  5
4E
100
AcDbSymbolTableRecord
100
AcDbBlockTableRecord
  2
*H1
  0
BLOCK_RECORD
  5
52
100
AcDbSymbolTableRecord
100
AcDbBlockTableRecord
  2
*H2
  0
BLOCK_RECORD
  5
56
100
AcDbSymbolTableRecord
100
AcDbBlockTableRecord
  2
*H3
  0
BLOCK_RECORD
  5
5A
100
AcDbSymbolTableRecord
100
AcDbBlockTableRecord
  2
*H4
  0
BLOCK_RECORD
  5
5E
100
AcDbSymbolTableRecord
100
AcDbBlockTableRecord
  2
*H5
  0
BLOCK_RECORD
  5
62
100
AcDbSymbolTableRecord
100
AcDbBlockTableRecord
  2
*H6
  0
BLOCK_RECORD
  5
66
100
AcDbSymbolTableRecord
100
AcDbBlockTableRecord
  2
*H7
  0
BLOCK_RECORD
  5
6C
100
AcDbSymbolTableRecord
100
AcDbBlockTableRecord
  2
*H8
  0
BLOCK_RECORD
  5
70
100
AcDbSymbolTableRecord
100
AcDbBlockTableRecord
  2
*H9
  0
BLOCK_RECORD
  5
74
100
AcDbSymbolTableRecord
100
AcDbBlockTableRecord
  2
*H10
  0
BLOCK_RECORD
  5
78
100
AcDbSymbolTableRecord
100
AcDbBlockTableRecord
  2
*H11
  0
BLOCK_RECORD
  5
87
100
AcDbSymbolTableRecord
100
AcDbBlockTableRecord
  2
*H12
  0
BLOCK_RECORD
  5
8B
100
AcDbSymbolTableRecord
100
AcDbBlockTableRecord
  2
*H13
  0
BLOCK_RECORD
  5
8F
100
AcDbSymbolTableRecord
100
AcDbBlockTableRecord
  2
*H14
  0
BLOCK_RECORD
  5
93
100
AcDbSymbolTableRecord
100
AcDbBlockTableRecord
  2
*H15
  0
BLOCK_RECORD
  5
99
100
AcDbSymbolTableRecord
100
AcDbBlockTableRecord
  2
*H16
  0
BLOCK_RECORD
  5
9D
100
AcDbSymbolTableRecord
100
AcDbBlockTableRecord
  2
*H17
  0
BLOCK_RECORD
  5
A1
100
AcDbSymbolTableRecord
100
AcDbBlockTableRecord
  2
*H18
  0
BLOCK_RECORD
  5
A5
100
AcDbSymbolTableRecord
100
AcDbBlockTableRecord
  2
*H19
  0
BLOCK_RECORD
  5
A9
100
AcDbSymbolTableRecord
100
AcDbBlockTableRecord
  2
*H20
  0
BLOCK_RECORD
  5
AD
100
AcDbSymbolTableRecord
100
AcDbBlockTableRecord
  2
*H21
  0
BLOCK_RECORD
  5
B1
100
AcDbSymbolTableRecord
100
AcDbBlockTableRecord
  2
*H22
  0
BLOCK_RECORD
  5
B6
100
AcDbSymbolTableRecord
100
AcDbBlockTableRecord
  2
*H23
  0
BLOCK_RECORD
  5
BA
100
AcDbSymbolTableRecord
100
AcDbBlockTableRecord
  2
*H24
  0
BLOCK_RECORD
  5
BE
100
AcDbSymbolTableRecord
100
AcDbBlockTableRecord
  2
*H25
  0
BLOCK_RECORD
  5
C2
100
AcDbSymbolTableRecord
100
AcDbBlockTableRecord
  2
*H26
  0
BLOCK_RECORD
  5
C6
100
AcDbSymbolTableRecord
100
AcDbBlockTableRecord
  2
*H27
  0
BLOCK_RECORD
  5
CA
100
AcDbSymbolTableRecord
100
AcDbBlockTableRecord
  2
*H28
  0
BLOCK_RECORD
  5
CE
100
AcDbSymbolTableRecord
100
AcDbBlockTableRecord
  2
*H29
  0
BLOCK_RECORD
  5
D2
100
AcDbSymbolTableRecord
100
AcDbBlockTableRecord
  2
*H30
  0
BLOCK_RECORD
  5
D6
100
AcDbSymbolTableRecord
100
AcDbBlockTableRecord
  2
*H31
  0
BLOCK_RECORD
  5
DA
100
AcDbSymbolTableRecord
100
AcDbBlockTableRecord
  2
*H32
  0
BLOCK_RECORD
  5
DE
100
AcDbSymbolTableRecord
100
AcDbBlockTableRecord
  2
*H33
  0
BLOCK_RECORD
  5
E2
100
AcDbSymbolTableRecord
100
AcDbBlockTableRecord
  2
*H34
  0
BLOCK_RECORD
  5
E6
100
AcDbSymbolTableRecord
100
AcDbBlockTableRecord
  2
*H35
  0
BLOCK_RECORD
  5
EA
100
AcDbSymbolTableRecord
100
AcDbBlockTableRecord
  2
*H36
  0
BLOCK_RECORD
  5
EE
100
AcDbSymbolTableRecord
100
AcDbBlockTableRecord
  2
*H37
  0
BLOCK_RECORD
  5
F2
100
AcDbSymbolTableRecord
100
AcDbBlockTableRecord
  2
*H38
  0
BLOCK_RECORD
  5
F6
100
AcDbSymbolTableRecord
100
AcDbBlockTableRecord
  2
*H39
  0
BLOCK_RECORD
  5
FA
100
AcDbSymbolTableRecord
100
AcDbBlockTableRecord
  2
*H40
  0
BLOCK_RECORD
  5
FE
100
AcDbSymbolTableRecord
100
AcDbBlockTableRecord
  2
*H41
  0
BLOCK_RECORD
  5
102
100
AcDbSymbolTableRecord
100
AcDbBlockTableRecord
  2
*H42
  0
BLOCK_RECORD
  5
106
100
AcDbSymbolTableRecord
100
AcDbBlockTableRecord
  2
*H43
  0
BLOCK_RECORD
  5
10A
100
AcDbSymbolTableRecord
100
AcDbBlockTableRecord
  2
*H44
  0
BLOCK_RECORD
  5
10E
100
AcDbSymbolTableRecord
100
AcDbBlockTableRecord
  2
*H45
  0
BLOCK_RECORD
  5
112
100
AcDbSymbolTableRecord
100
AcDbBlockTableRecord
  2
*H46
  0
BLOCK_RECORD
  5
116
100
AcDbSymbolTableRecord
100
AcDbBlockTableRecord
  2
*H47
  0
BLOCK_RECORD
  5
11A
100
AcDbSymbolTableRecord
100
AcDbBlockTableRecord
  2
*H48
  0
BLOCK_RECORD
  5
11E
100
AcDbSymbolTableRecord
100
AcDbBlockTableRecord
  2
*H49
  0
BLOCK_RECORD
  5
122
100
AcDbSymbolTableRecord
100
AcDbBlockTableRecord
  2
*H50
  0
BLOCK_RECORD
  5
126
100
AcDbSymbolTableRecord
100
AcDbBlockTableRecord
  2
*H51
  0
BLOCK_RECORD
  5
12A
100
AcDbSymbolTableRecord
100
AcDbBlockTableRecord
  2
*H52
  0
BLOCK_RECORD
  5
12E
100
AcDbSymbolTableRecord
100
AcDbBlockTableRecord
  2
*H53
  0
BLOCK_RECORD
  5
132
100
AcDbSymbolTableRecord
100
AcDbBlockTableRecord
  2
*H54
  0
BLOCK_RECORD
  5
136
100
AcDbSymbolTableRecord
100
AcDbBlockTableRecord
  2
*H55
  0
BLOCK_RECORD
  5
13A
100
AcDbSymbolTableRecord
100
AcDbBlockTableRecord
  2
*H56
  0
BLOCK_RECORD
  5
13E
100
AcDbSymbolTableRecord
100
AcDbBlockTableRecord
  2
*H57
  0
BLOCK_RECORD
  5
142
100
AcDbSymbolTableRecord
100
AcDbBlockTableRecord
  2
*H58
  0
BLOCK_RECORD
  5
146
100
AcDbSymbolTableRecord
100
AcDbBlockTableRecord
  2
*H59
  0
BLOCK_RECORD
  5
15C
100
AcDbSymbolTableRecord
100
AcDbBlockTableRecord
  2
*H60
  0
BLOCK_RECORD
  5
160
100
AcDbSymbolTableRecord
100
AcDbBlockTableRecord
  2
*H61
  0
BLOCK_RECORD
  5
164
100
AcDbSymbolTableRecord
100
AcDbBlockTableRecord
  2
*H62
  0
BLOCK_RECORD
  5
223
100
AcDbSymbolTableRecord
100
AcDbBlockTableRecord
  2
*H63
  0
BLOCK_RECORD
  5
227
100
AcDbSymbolTableRecord
100
AcDbBlockTableRecord
  2
*H64
  0
BLOCK_RECORD
  5
22B
100
AcDbSymbolTableRecord
100
AcDbBlockTableRecord
  2
*H65
  0
BLOCK_RECORD
  5
22F
100
AcDbSymbolTableRecord
100
AcDbBlockTableRecord
  2
*H66
  0
BLOCK_RECORD
  5
233
100
AcDbSymbolTableRecord
100
AcDbBlockTableRecord
  2
*H67
  0
BLOCK_RECORD
  5
237
100
AcDbSymbolTableRecord
100
AcDbBlockTableRecord
  2
*H68
  0
BLOCK_RECORD
  5
23B
100
AcDbSymbolTableRecord
100
AcDbBlockTableRecord
  2
*H69
  0
BLOCK_RECORD
  5
23F
100
AcDbSymbolTableRecord
100
AcDbBlockTableRecord
  2
*H70
  0
BLOCK_RECORD
  5
243
100
AcDbSymbolTableRecord
100
AcDbBlockTableRecord
  2
*H71
  0
BLOCK_RECORD
  5
247
100
AcDbSymbolTableRecord
100
AcDbBlockTableRecord
  2
*H72
  0
BLOCK_RECORD
  5
24B
100
AcDbSymbolTableRecord
100
AcDbBlockTableRecord
  2
*H73
  0
BLOCK_RECORD
  5
250
100
AcDbSymbolTableRecord
100
AcDbBlockTableRecord
  2
*H74
  0
BLOCK_RECORD
  5
254
100
AcDbSymbolTableRecord
100
AcDbBlockTableRecord
  2
*H75
  0
BLOCK_RECORD
  5
258
100
AcDbSymbolTableRecord
100
AcDbBlockTableRecord
  2
*H76
  0
BLOCK_RECORD
  5
25C
100
AcDbSymbolTableRecord
100
AcDbBlockTableRecord
  2
*H77
  0
BLOCK_RECORD
  5
260
100
AcDbSymbolTableRecord
100
AcDbBlockTableRecord
  2
*H78
  0
BLOCK_RECORD
  5
264
100
AcDbSymbolTableRecord
100
AcDbBlockTableRecord
  2
*H79
  0
BLOCK_RECORD
  5
268
100
AcDbSymbolTableRecord
100
AcDbBlockTableRecord
  2
*H80
  0
BLOCK_RECORD
  5
26C
100
AcDbSymbolTableRecord
100
AcDbBlockTableRecord
  2
*H81
  0
BLOCK_RECORD
  5
270
100
AcDbSymbolTableRecord
100
AcDbBlockTableRecord
  2
*H82
  0
BLOCK_RECORD
  5
274
100
AcDbSymbolTableRecord
100
AcDbBlockTableRecord
  2
*H83
  0
BLOCK_RECORD
  5
278
100
AcDbSymbolTableRecord
100
AcDbBlockTableRecord
  2
*H84
  0
BLOCK_RECORD
  5
27C
100
AcDbSymbolTableRecord
100
AcDbBlockTableRecord
  2
*H85
  0
BLOCK_RECORD
  5
280
100
AcDbSymbolTableRecord
100
AcDbBlockTableRecord
  2
*H86
  0
BLOCK_RECORD
  5
284
100
AcDbSymbolTableRecord
100
AcDbBlockTableRecord
  2
*H87
  0
BLOCK_RECORD
  5
288
100
AcDbSymbolTableRecord
100
AcDbBlockTableRecord
  2
*H88
  0
BLOCK_RECORD
  5
28C
100
AcDbSymbolTableRecord
100
AcDbBlockTableRecord
  2
*H89
  0
BLOCK_RECORD
  5
290
100
AcDbSymbolTableRecord
100
AcDbBlockTableRecord
  2
*H90
  0
BLOCK_RECORD
  5
294
100
AcDbSymbolTableRecord
100
AcDbBlockTableRecord
  2
*H91
  0
BLOCK_RECORD
  5
298
100
AcDbSymbolTableRecord
100
AcDbBlockTableRecord
  2
*H92
  0
BLOCK_RECORD
  5
29C
100
AcDbSymbolTableRecord
100
AcDbBlockTableRecord
  2
*H93
  0
BLOCK_RECORD
  5
2A0
100
AcDbSymbolTableRecord
100
AcDbBlockTableRecord
  2
*H94
  0
BLOCK_RECORD
  5
2A4
100
AcDbSymbolTableRecord
100
AcDbBlockTableRecord
  2
*H95
  0
BLOCK_RECORD
  5
2A8
100
AcDbSymbolTableRecord
100
AcDbBlockTableRecord
  2
*H96
  0
BLOCK_RECORD
  5
2AC
100
AcDbSymbolTableRecord
100
AcDbBlockTableRecord
  2
*H97
  0
BLOCK_RECORD
  5
2B0
100
AcDbSymbolTableRecord
100
AcDbBlockTableRecord
  2
*H98
  0
BLOCK_RECORD
  5
2B4
100
AcDbSymbolTableRecord
100
AcDbBlockTableRecord
  2
*H99
  0
BLOCK_RECORD
  5
2B8
100
AcDbSymbolTableRecord
100
AcDbBlockTableRecord
  2
*H100
  0
BLOCK_RECORD
  5
2BC
100
AcDbSymbolTableRecord
100
AcDbBlockTableRecord
  2
*H101
  0
BLOCK_RECORD
  5
2C0
100
AcDbSymbolTableRecord
100
AcDbBlockTableRecord
  2
*H102
  0
BLOCK_RECORD
  5
2C4
100
AcDbSymbolTableRecord
100
AcDbBlockTableRecord
  2
*H103
  0
BLOCK_RECORD
  5
2C8
100
AcDbSymbolTableRecord
100
AcDbBlockTableRecord
  2
*H104
  0
BLOCK_RECORD
  5
2CC
100
AcDbSymbolTableRecord
100
AcDbBlockTableRecord
  2
*H105
  0
BLOCK_RECORD
  5
2D0
100
AcDbSymbolTableRecord
100
AcDbBlockTableRecord
  2
*H106
  0
BLOCK_RECORD
  5
2D4
100
AcDbSymbolTableRecord
100
AcDbBlockTableRecord
  2
*H107
  0
BLOCK_RECORD
  5
2D8
100
AcDbSymbolTableRecord
100
AcDbBlockTableRecord
  2
*H108
  0
BLOCK_RECORD
  5
2DC
100
AcDbSymbolTableRecord
100
AcDbBlockTableRecord
  2
*H109
  0
BLOCK_RECORD
  5
2E0
100
AcDbSymbolTableRecord
100
AcDbBlockTableRecord
  2
*H110
  0
BLOCK_RECORD
  5
2E4
100
AcDbSymbolTableRecord
100
AcDbBlockTableRecord
  2
*H111
  0
BLOCK_RECORD
  5
2E8
100
AcDbSymbolTableRecord
100
AcDbBlockTableRecord
  2
*H112
  0
BLOCK_RECORD
  5
2EC
100
AcDbSymbolTableRecord
100
AcDbBlockTableRecord
  2
*H113
  0
BLOCK_RECORD
  5
2F0
100
AcDbSymbolTableRecord
100
AcDbBlockTableRecord
  2
*H114
  0
BLOCK_RECORD
  5
2F4
100
AcDbSymbolTableRecord
100
AcDbBlockTableRecord
  2
*H115
  0
BLOCK_RECORD
  5
2F8
100
AcDbSymbolTableRecord
100
AcDbBlockTableRecord
  2
*H116
  0
BLOCK_RECORD
  5
2FC
100
AcDbSymbolTableRecord
100
AcDbBlockTableRecord
  2
*H117
  0
BLOCK_RECORD
  5
300
100
AcDbSymbolTableRecord
100
AcDbBlockTableRecord
  2
*H118
  0
BLOCK_RECORD
  5
304
100
AcDbSymbolTableRecord
100
AcDbBlockTableRecord
  2
*H119
  0
BLOCK_RECORD
  5
308
100
AcDbSymbolTableRecord
100
AcDbBlockTableRecord
  2
*H120
  0
BLOCK_RECORD
  5
30C
100
AcDbSymbolTableRecord
100
AcDbBlockTableRecord
  2
*H121
  0
BLOCK_RECORD
  5
310
100
AcDbSymbolTableRecord
100
AcDbBlockTableRecord
  2
*H122
  0
BLOCK_RECORD
  5
314
100
AcDbSymbolTableRecord
100
AcDbBlockTableRecord
  2
*H123
  0
BLOCK_RECORD
  5
319
100
AcDbSymbolTableRecord
100
AcDbBlockTableRecord
  2
*H124
  0
BLOCK_RECORD
  5
31D
100
AcDbSymbolTableRecord
100
AcDbBlockTableRecord
  2
*H125
  0
BLOCK_RECORD
  5
321
100
AcDbSymbolTableRecord
100
AcDbBlockTableRecord
  2
*H126
  0
BLOCK_RECORD
  5
325
100
AcDbSymbolTableRecord
100
AcDbBlockTableRecord
  2
*H127
  0
BLOCK_RECORD
  5
329
100
AcDbSymbolTableRecord
100
AcDbBlockTableRecord
  2
*H128
  0
BLOCK_RECORD
  5
32D
100
AcDbSymbolTableRecord
100
AcDbBlockTableRecord
  2
*H129
  0
BLOCK_RECORD
  5
334
100
AcDbSymbolTableRecord
100
AcDbBlockTableRecord
  2
*H130
  0
BLOCK_RECORD
  5
338
100
AcDbSymbolTableRecord
100
AcDbBlockTableRecord
  2
*H131
  0
BLOCK_RECORD
  5
33C
100
AcDbSymbolTableRecord
100
AcDbBlockTableRecord
  2
*H132
  0
BLOCK_RECORD
  5
340
100
AcDbSymbolTableRecord
100
AcDbBlockTableRecord
  2
*H133
  0
BLOCK_RECORD
  5
344
100
AcDbSymbolTableRecord
100
AcDbBlockTableRecord
  2
*H134
  0
BLOCK_RECORD
  5
348
100
AcDbSymbolTableRecord
100
AcDbBlockTableRecord
  2
*H135
  0
BLOCK_RECORD
  5
34C
100
AcDbSymbolTableRecord
100
AcDbBlockTableRecord
  2
*H136
  0
BLOCK_RECORD
  5
350
100
AcDbSymbolTableRecord
100
AcDbBlockTableRecord
  2
*H137
  0
BLOCK_RECORD
  5
354
100
AcDbSymbolTableRecord
100
AcDbBlockTableRecord
  2
*H138
  0
BLOCK_RECORD
  5
358
100
AcDbSymbolTableRecord
100
AcDbBlockTableRecord
  2
*H139
  0
BLOCK_RECORD
  5
35C
100
AcDbSymbolTableRecord
100
AcDbBlockTableRecord
  2
*H140
  0
BLOCK_RECORD
  5
360
100
AcDbSymbolTableRecord
100
AcDbBlockTableRecord
  2
*H141
  0
BLOCK_RECORD
  5
365
100
AcDbSymbolTableRecord
100
AcDbBlockTableRecord
  2
*H142
  0
BLOCK_RECORD
  5
369
100
AcDbSymbolTableRecord
100
AcDbBlockTableRecord
  2
*H143
  0
BLOCK_RECORD
  5
36E
100
AcDbSymbolTableRecord
100
AcDbBlockTableRecord
  2
*H144
  0
BLOCK_RECORD
  5
372
100
AcDbSymbolTableRecord
100
AcDbBlockTableRecord
  2
*H145
  0
BLOCK_RECORD
  5
376
100
AcDbSymbolTableRecord
100
AcDbBlockTableRecord
  2
*H146
  0
BLOCK_RECORD
  5
37A
100
AcDbSymbolTableRecord
100
AcDbBlockTableRecord
  2
*H147
  0
BLOCK_RECORD
  5
37E
100
AcDbSymbolTableRecord
100
AcDbBlockTableRecord
  2
*H148
  0
BLOCK_RECORD
  5
382
100
AcDbSymbolTableRecord
100
AcDbBlockTableRecord
  2
*H149
  0
BLOCK_RECORD
  5
386
100
AcDbSymbolTableRecord
100
AcDbBlockTableRecord
  2
*H150
  0
BLOCK_RECORD
  5
38A
100
AcDbSymbolTableRecord
100
AcDbBlockTableRecord
  2
*H151
  0
BLOCK_RECORD
  5
38E
100
AcDbSymbolTableRecord
100
AcDbBlockTableRecord
  2
*H152
  0
BLOCK_RECORD
  5
392
100
AcDbSymbolTableRecord
100
AcDbBlockTableRecord
  2
*H153
  0
BLOCK_RECORD
  5
397
100
AcDbSymbolTableRecord
100
AcDbBlockTableRecord
  2
*H154
  0
BLOCK_RECORD
  5
39B
100
AcDbSymbolTableRecord
100
AcDbBlockTableRecord
  2
*H155
  0
BLOCK_RECORD
  5
39F
100
AcDbSymbolTableRecord
100
AcDbBlockTableRecord
  2
*H156
  0
BLOCK_RECORD
  5
3A3
100
AcDbSymbolTableRecord
100
AcDbBlockTableRecord
  2
*H157
  0
BLOCK_RECORD
  5
3A7
100
AcDbSymbolTableRecord
100
AcDbBlockTableRecord
  2
*H158
  0
BLOCK_RECORD
  5
3AC
100
AcDbSymbolTableRecord
100
AcDbBlockTableRecord
  2
*H159
  0
BLOCK_RECORD
  5
3B1
100
AcDbSymbolTableRecord
100
AcDbBlockTableRecord
  2
*H160
  0
BLOCK_RECORD
  5
3B5
100
AcDbSymbolTableRecord
100
AcDbBlockTableRecord
  2
*H161
  0
BLOCK_RECORD
  5
3C3
100
AcDbSymbolTableRecord
100
AcDbBlockTableRecord
  2
*H162
  0
BLOCK_RECORD
  5
3C7
100
AcDbSymbolTableRecord
100
AcDbBlockTableRecord
  2
*H163
  0
BLOCK_RECORD
  5
3CB
100
AcDbSymbolTableRecord
100
AcDbBlockTableRecord
  2
*H164
  0
BLOCK_RECORD
  5
3CF
100
AcDbSymbolTableRecord
100
AcDbBlockTableRecord
  2
*H165
  0
BLOCK_RECORD
  5
3D3
100
AcDbSymbolTableRecord
100
AcDbBlockTableRecord
  2
*H166
  0
BLOCK_RECORD
  5
3D7
100
AcDbSymbolTableRecord
100
AcDbBlockTableRecord
  2
*H167
  0
BLOCK_RECORD
  5
3DB
100
AcDbSymbolTableRecord
100
AcDbBlockTableRecord
  2
*H168
  0
BLOCK_RECORD
  5
3DF
100
AcDbSymbolTableRecord
100
AcDbBlockTableRecord
  2
*H169
  0
BLOCK_RECORD
  5
3E3
100
AcDbSymbolTableRecord
100
AcDbBlockTableRecord
  2
*H170
  0
BLOCK_RECORD
  5
3E8
100
AcDbSymbolTableRecord
100
AcDbBlockTableRecord
  2
*H171
  0
BLOCK_RECORD
  5
3EC
100
AcDbSymbolTableRecord
100
AcDbBlockTableRecord
  2
*H172
  0
BLOCK_RECORD
  5
3F0
100
AcDbSymbolTableRecord
100
AcDbBlockTableRecord
  2
*H173
  0
BLOCK_RECORD
  5
3F6
100
AcDbSymbolTableRecord
100
AcDbBlockTableRecord
  2
*H174
  0
BLOCK_RECORD
  5
420
100
AcDbSymbolTableRecord
100
AcDbBlockTableRecord
  2
*H175
  0
BLOCK_RECORD
  5
424
100
AcDbSymbolTableRecord
100
AcDbBlockTableRecord
  2
*H176
  0
BLOCK_RECORD
  5
428
100
AcDbSymbolTableRecord
100
AcDbBlockTableRecord
  2
*H177
  0
BLOCK_RECORD
  5
42C
100
AcDbSymbolTableRecord
100
AcDbBlockTableRecord
  2
*H178
  0
BLOCK_RECORD
  5
430
100
AcDbSymbolTableRecord
100
AcDbBlockTableRecord
  2
*H179
  0
BLOCK_RECORD
  5
434
100
AcDbSymbolTableRecord
100
AcDbBlockTableRecord
  2
*H180
  0
BLOCK_RECORD
  5
438
100
AcDbSymbolTableRecord
100
AcDbBlockTableRecord
  2
*H181
  0
BLOCK_RECORD
  5
43C
100
AcDbSymbolTableRecord
100
AcDbBlockTableRecord
  2
*H182
  0
BLOCK_RECORD
  5
440
100
AcDbSymbolTableRecord
100
AcDbBlockTableRecord
  2
*H183
  0
BLOCK_RECORD
  5
444
100
AcDbSymbolTableRecord
100
AcDbBlockTableRecord
  2
*H184
  0
BLOCK_RECORD
  5
448
100
AcDbSymbolTableRecord
100
AcDbBlockTableRecord
  2
*H185
  0
BLOCK_RECORD
  5
44C
100
AcDbSymbolTableRecord
100
AcDbBlockTableRecord
  2
*H186
  0
BLOCK_RECORD
  5
45C
100
AcDbSymbolTableRecord
100
AcDbBlockTableRecord
  2
*H187
  0
BLOCK_RECORD
  5
469
100
AcDbSymbolTableRecord
100
AcDbBlockTableRecord
  2
*H188
  0
BLOCK_RECORD
  5
46D
100
AcDbSymbolTableRecord
100
AcDbBlockTableRecord
  2
*H189
  0
BLOCK_RECORD
  5
471
100
AcDbSymbolTableRecord
100
AcDbBlockTableRecord
  2
*H190
  0
BLOCK_RECORD
  5
475
100
AcDbSymbolTableRecord
100
AcDbBlockTableRecord
  2
*H191
  0
BLOCK_RECORD
  5
479
100
AcDbSymbolTableRecord
100
AcDbBlockTableRecord
  2
*H192
  0
BLOCK_RECORD
  5
47E
100
AcDbSymbolTableRecord
100
AcDbBlockTableRecord
  2
*H193
  0
BLOCK_RECORD
  5
482
100
AcDbSymbolTableRecord
100
AcDbBlockTableRecord
  2
*H194
  0
BLOCK_RECORD
  5
486
100
AcDbSymbolTableRecord
100
AcDbBlockTableRecord
  2
*H195
  0
BLOCK_RECORD
  5
48A
100
AcDbSymbolTableRecord
100
AcDbBlockTableRecord
  2
*H196
  0
BLOCK_RECORD
  5
490
100
AcDbSymbolTableRecord
100
AcDbBlockTableRecord
  2
*H197
  0
BLOCK_RECORD
  5
494
100
AcDbSymbolTableRecord
100
AcDbBlockTableRecord
  2
*H198
  0
BLOCK_RECORD
  5
498
100
AcDbSymbolTableRecord
100
AcDbBlockTableRecord
  2
*H199
  0
BLOCK_RECORD
  5
49C
100
AcDbSymbolTableRecord
100
AcDbBlockTableRecord
  2
*H200
  0
BLOCK_RECORD
  5
4A0
100
AcDbSymbolTableRecord
100
AcDbBlockTableRecord
  2
*H201
  0
BLOCK_RECORD
  5
4A4
100
AcDbSymbolTableRecord
100
AcDbBlockTableRecord
  2
*H202
  0
BLOCK_RECORD
  5
4A8
100
AcDbSymbolTableRecord
100
AcDbBlockTableRecord
  2
*H203
  0
BLOCK_RECORD
  5
4AC
100
AcDbSymbolTableRecord
100
AcDbBlockTableRecord
  2
*H204
  0
BLOCK_RECORD
  5
4B0
100
AcDbSymbolTableRecord
100
AcDbBlockTableRecord
  2
*H205
  0
BLOCK_RECORD
  5
4B4
100
AcDbSymbolTableRecord
100
AcDbBlockTableRecord
  2
*H206
  0
BLOCK_RECORD
  5
4B8
100
AcDbSymbolTableRecord
100
AcDbBlockTableRecord
  2
*H207
  0
BLOCK_RECORD
  5
4BC
100
AcDbSymbolTableRecord
100
AcDbBlockTableRecord
  2
*H208
  0
BLOCK_RECORD
  5
4C0
100
AcDbSymbolTableRecord
100
AcDbBlockTableRecord
  2
*H209
  0
BLOCK_RECORD
  5
4C4
100
AcDbSymbolTableRecord
100
AcDbBlockTableRecord
  2
*H210
  0
BLOCK_RECORD
  5
4C8
100
AcDbSymbolTableRecord
100
AcDbBlockTableRecord
  2
*H211
  0
BLOCK_RECORD
  5
4CC
100
AcDbSymbolTableRecord
100
AcDbBlockTableRecord
  2
*H212
  0
BLOCK_RECORD
  5
4D0
100
AcDbSymbolTableRecord
100
AcDbBlockTableRecord
  2
*H213
  0
BLOCK_RECORD
  5
4D4
100
AcDbSymbolTableRecord
100
AcDbBlockTableRecord
  2
*H214
  0
BLOCK_RECORD
  5
4D8
100
AcDbSymbolTableRecord
100
AcDbBlockTableRecord
  2
*H215
  0
BLOCK_RECORD
  5
4DC
100
AcDbSymbolTableRecord
100
AcDbBlockTableRecord
  2
*H216
  0
BLOCK_RECORD
  5
4E0
100
AcDbSymbolTableRecord
100
AcDbBlockTableRecord
  2
*H217
  0
BLOCK_RECORD
  5
4E4
100
AcDbSymbolTableRecord
100
AcDbBlockTableRecord
  2
*H218
  0
BLOCK_RECORD
  5
4E8
100
AcDbSymbolTableRecord
100
AcDbBlockTableRecord
  2
*H219
  0
BLOCK_RECORD
  5
4EC
100
AcDbSymbolTableRecord
100
AcDbBlockTableRecord
  2
*H220
  0
BLOCK_RECORD
  5
4F0
100
AcDbSymbolTableRecord
100
AcDbBlockTableRecord
  2
*H221
  0
BLOCK_RECORD
  5
4F4
100
AcDbSymbolTableRecord
100
AcDbBlockTableRecord
  2
*H222
  0
BLOCK_RECORD
  5
4F8
100
AcDbSymbolTableRecord
100
AcDbBlockTableRecord
  2
*H223
  0
BLOCK_RECORD
  5
4FC
100
AcDbSymbolTableRecord
100
AcDbBlockTableRecord
  2
*H224
  0
BLOCK_RECORD
  5
500
100
AcDbSymbolTableRecord
100
AcDbBlockTableRecord
  2
*H225
  0
BLOCK_RECORD
  5
504
100
AcDbSymbolTableRecord
100
AcDbBlockTableRecord
  2
*H226
  0
BLOCK_RECORD
  5
508
100
AcDbSymbolTableRecord
100
AcDbBlockTableRecord
  2
*H227
  0
BLOCK_RECORD
  5
50C
100
AcDbSymbolTableRecord
100
AcDbBlockTableRecord
  2
*H228
  0
BLOCK_RECORD
  5
513
100
AcDbSymbolTableRecord
100
AcDbBlockTableRecord
  2
*H229
  0
BLOCK_RECORD
  5
517
100
AcDbSymbolTableRecord
100
AcDbBlockTableRecord
  2
*H230
  0
BLOCK_RECORD
  5
51B
100
AcDbSymbolTableRecord
100
AcDbBlockTableRecord
  2
*H231
  0
BLOCK_RECORD
  5
51F
100
AcDbSymbolTableRecord
100
AcDbBlockTableRecord
  2
*H232
  0
BLOCK_RECORD
  5
523
100
AcDbSymbolTableRecord
100
AcDbBlockTableRecord
  2
*H233
  0
BLOCK_RECORD
  5
527
100
AcDbSymbolTableRecord
100
AcDbBlockTableRecord
  2
*H234
  0
BLOCK_RECORD
  5
52B
100
AcDbSymbolTableRecord
100
AcDbBlockTableRecord
  2
*H235
  0
BLOCK_RECORD
  5
52F
100
AcDbSymbolTableRecord
100
AcDbBlockTableRecord
  2
*H236
  0
BLOCK_RECORD
  5
533
100
AcDbSymbolTableRecord
100
AcDbBlockTableRecord
  2
*H237
  0
BLOCK_RECORD
  5
537
100
AcDbSymbolTableRecord
100
AcDbBlockTableRecord
  2
*H238
  0
BLOCK_RECORD
  5
53B
100
AcDbSymbolTableRecord
100
AcDbBlockTableRecord
  2
*H239
  0
BLOCK_RECORD
  5
53F
100
AcDbSymbolTableRecord
100
AcDbBlockTableRecord
  2
*H240
  0
BLOCK_RECORD
  5
543
100
AcDbSymbolTableRecord
100
AcDbBlockTableRecord
  2
*H241
  0
BLOCK_RECORD
  5
547
100
AcDbSymbolTableRecord
100
AcDbBlockTableRecord
  2
*H242
  0
BLOCK_RECORD
  5
54B
100
AcDbSymbolTableRecord
100
AcDbBlockTableRecord
  2
*H243
  0
BLOCK_RECORD
  5
54F
100
AcDbSymbolTableRecord
100
AcDbBlockTableRecord
  2
*H244
  0
BLOCK_RECORD
  5
553
100
AcDbSymbolTableRecord
100
AcDbBlockTableRecord
  2
*H245
  0
BLOCK_RECORD
  5
557
100
AcDbSymbolTableRecord
100
AcDbBlockTableRecord
  2
*H246
  0
BLOCK_RECORD
  5
55B
100
AcDbSymbolTableRecord
100
AcDbBlockTableRecord
  2
*H247
  0
BLOCK_RECORD
  5
55F
100
AcDbSymbolTableRecord
100
AcDbBlockTableRecord
  2
*H248
  0
BLOCK_RECORD
  5
563
100
AcDbSymbolTableRecord
100
AcDbBlockTableRecord
  2
*H249
  0
BLOCK_RECORD
  5
567
100
AcDbSymbolTableRecord
100
AcDbBlockTableRecord
  2
*H250
  0
BLOCK_RECORD
  5
56B
100
AcDbSymbolTableRecord
100
AcDbBlockTableRecord
  2
*H251
  0
BLOCK_RECORD
  5
56F
100
AcDbSymbolTableRecord
100
AcDbBlockTableRecord
  2
*H252
  0
BLOCK_RECORD
  5
573
100
AcDbSymbolTableRecord
100
AcDbBlockTableRecord
  2
*H253
  0
BLOCK_RECORD
  5
577
100
AcDbSymbolTableRecord
100
AcDbBlockTableRecord
  2
*H254
  0
BLOCK_RECORD
  5
57B
100
AcDbSymbolTableRecord
100
AcDbBlockTableRecord
  2
*H255
  0
BLOCK_RECORD
  5
57F
100
AcDbSymbolTableRecord
100
AcDbBlockTableRecord
  2
*H256
  0
BLOCK_RECORD
  5
583
100
AcDbSymbolTableRecord
100
AcDbBlockTableRecord
  2
*H257
  0
BLOCK_RECORD
  5
587
100
AcDbSymbolTableRecord
100
AcDbBlockTableRecord
  2
*H258
  0
BLOCK_RECORD
  5
58B
100
AcDbSymbolTableRecord
100
AcDbBlockTableRecord
  2
*H259
  0
BLOCK_RECORD
  5
58F
100
AcDbSymbolTableRecord
100
AcDbBlockTableRecord
  2
*H260
  0
BLOCK_RECORD
  5
593
100
AcDbSymbolTableRecord
100
AcDbBlockTableRecord
  2
*H261
  0
BLOCK_RECORD
  5
597
100
AcDbSymbolTableRecord
100
AcDbBlockTableRecord
  2
*H262
  0
BLOCK_RECORD
  5
59B
100
AcDbSymbolTableRecord
100
AcDbBlockTableRecord
  2
*H263
  0
BLOCK_RECORD
  5
59F
100
AcDbSymbolTableRecord
100
AcDbBlockTableRecord
  2
*H264
  0
BLOCK_RECORD
  5
5A3
100
AcDbSymbolTableRecord
100
AcDbBlockTableRecord
  2
*H265
  0
BLOCK_RECORD
  5
5A7
100
AcDbSymbolTableRecord
100
AcDbBlockTableRecord
  2
*H266
  0
BLOCK_RECORD
  5
5AC
100
AcDbSymbolTableRecord
100
AcDbBlockTableRecord
  2
*H267
  0
BLOCK_RECORD
  5
5B0
100
AcDbSymbolTableRecord
100
AcDbBlockTableRecord
  2
*H268
  0
BLOCK_RECORD
  5
5B4
100
AcDbSymbolTableRecord
100
AcDbBlockTableRecord
  2
*H269
  0
BLOCK_RECORD
  5
5B8
100
AcDbSymbolTableRecord
100
AcDbBlockTableRecord
  2
*H270
  0
BLOCK_RECORD
  5
5BC
100
AcDbSymbolTableRecord
100
AcDbBlockTableRecord
  2
*H271
  0
BLOCK_RECORD
  5
5C0
100
AcDbSymbolTableRecord
100
AcDbBlockTableRecord
  2
*H272
  0
BLOCK_RECORD
  5
5C4
100
AcDbSymbolTableRecord
100
AcDbBlockTableRecord
  2
*H273
  0
BLOCK_RECORD
  5
5C8
100
AcDbSymbolTableRecord
100
AcDbBlockTableRecord
  2
*H274
  0
BLOCK_RECORD
  5
5CC
100
AcDbSymbolTableRecord
100
AcDbBlockTableRecord
  2
*H275
  0
BLOCK_RECORD
  5
5D0
100
AcDbSymbolTableRecord
100
AcDbBlockTableRecord
  2
*H276
  0
BLOCK_RECORD
  5
5D4
100
AcDbSymbolTableRecord
100
AcDbBlockTableRecord
  2
*H277
  0
BLOCK_RECORD
  5
5D8
100
AcDbSymbolTableRecord
100
AcDbBlockTableRecord
  2
*H278
  0
BLOCK_RECORD
  5
5DC
100
AcDbSymbolTableRecord
100
AcDbBlockTableRecord
  2
*H279
  0
BLOCK_RECORD
  5
5E0
100
AcDbSymbolTableRecord
100
AcDbBlockTableRecord
  2
*H280
  0
BLOCK_RECORD
  5
5E4
100
AcDbSymbolTableRecord
100
AcDbBlockTableRecord
  2
*H281
  0
BLOCK_RECORD
  5
5E8
100
AcDbSymbolTableRecord
100
AcDbBlockTableRecord
  2
*H282
  0
BLOCK_RECORD
  5
5EC
100
AcDbSymbolTableRecord
100
AcDbBlockTableRecord
  2
*H283
  0
BLOCK_RECORD
  5
5F0
100
AcDbSymbolTableRecord
100
AcDbBlockTableRecord
  2
*H284
  0
BLOCK_RECORD
  5
5F4
100
AcDbSymbolTableRecord
100
AcDbBlockTableRecord
  2
*H285
  0
BLOCK_RECORD
  5
5F8
100
AcDbSymbolTableRecord
100
AcDbBlockTableRecord
  2
*H286
  0
BLOCK_RECORD
  5
5FC
100
AcDbSymbolTableRecord
100
AcDbBlockTableRecord
  2
*H287
  0
BLOCK_RECORD
  5
600
100
AcDbSymbolTableRecord
100
AcDbBlockTableRecord
  2
*H288
  0
BLOCK_RECORD
  5
604
100
AcDbSymbolTableRecord
100
AcDbBlockTableRecord
  2
*H289
  0
BLOCK_RECORD
  5
608
100
AcDbSymbolTableRecord
100
AcDbBlockTableRecord
  2
*H290
  0
BLOCK_RECORD
  5
60C
100
AcDbSymbolTableRecord
100
AcDbBlockTableRecord
  2
*H291
  0
BLOCK_RECORD
  5
610
100
AcDbSymbolTableRecord
100
AcDbBlockTableRecord
  2
*H292
  0
BLOCK_RECORD
  5
614
100
AcDbSymbolTableRecord
100
AcDbBlockTableRecord
  2
*H293
  0
BLOCK_RECORD
  5
618
100
AcDbSymbolTableRecord
100
AcDbBlockTableRecord
  2
*H294
  0
BLOCK_RECORD
  5
61C
100
AcDbSymbolTableRecord
100
AcDbBlockTableRecord
  2
*H295
  0
BLOCK_RECORD
  5
620
100
AcDbSymbolTableRecord
100
AcDbBlockTableRecord
  2
*H296
  0
BLOCK_RECORD
  5
68D
100
AcDbSymbolTableRecord
100
AcDbBlockTableRecord
  2
*H297
  0
BLOCK_RECORD
  5
705
100
AcDbSymbolTableRecord
100
AcDbBlockTableRecord
  2
*H298
  0
BLOCK_RECORD
  5
709
100
AcDbSymbolTableRecord
100
AcDbBlockTableRecord
  2
*H299
  0
BLOCK_RECORD
  5
70D
100
AcDbSymbolTableRecord
100
AcDbBlockTableRecord
  2
*H300
  0
BLOCK_RECORD
  5
711
100
AcDbSymbolTableRecord
100
AcDbBlockTableRecord
  2
*H301
  0
BLOCK_RECORD
  5
715
100
AcDbSymbolTableRecord
100
AcDbBlockTableRecord
  2
*H302
  0
BLOCK_RECORD
  5
721
100
AcDbSymbolTableRecord
100
AcDbBlockTableRecord
  2
*H303
  0
BLOCK_RECORD
  5
743
100
AcDbSymbolTableRecord
100
AcDbBlockTableRecord
  2
*H304
  0
BLOCK_RECORD
  5
76A
100
AcDbSymbolTableRecord
100
AcDbBlockTableRecord
  2
*H305
  0
BLOCK_RECORD
  5
793
100
AcDbSymbolTableRecord
100
AcDbBlockTableRecord
  2
*H306
  0
BLOCK_RECORD
  5
7F6
100
AcDbSymbolTableRecord
100
AcDbBlockTableRecord
  2
*H307
  0
BLOCK_RECORD
  5
818
100
AcDbSymbolTableRecord
100
AcDbBlockTableRecord
  2
*H308
  0
BLOCK_RECORD
  5
81E
100
AcDbSymbolTableRecord
100
AcDbBlockTableRecord
  2
*H309
  0
BLOCK_RECORD
  5
822
100
AcDbSymbolTableRecord
100
AcDbBlockTableRecord
  2
*H310
  0
BLOCK_RECORD
  5
826
100
AcDbSymbolTableRecord
100
AcDbBlockTableRecord
  2
*H311
  0
BLOCK_RECORD
  5
82A
100
AcDbSymbolTableRecord
100
AcDbBlockTableRecord
  2
*H312
  0
BLOCK_RECORD
  5
82E
100
AcDbSymbolTableRecord
100
AcDbBlockTableRecord
  2
*H313
  0
BLOCK_RECORD
  5
832
100
AcDbSymbolTableRecord
100
AcDbBlockTableRecord
  2
*H314
  0
BLOCK_RECORD
  5
83B
100
AcDbSymbolTableRecord
100
AcDbBlockTableRecord
  2
*H315
  0
BLOCK_RECORD
  5
83F
100
AcDbSymbolTableRecord
100
AcDbBlockTableRecord
  2
*H316
  0
BLOCK_RECORD
  5
843
100
AcDbSymbolTableRecord
100
AcDbBlockTableRecord
  2
*H317
  0
BLOCK_RECORD
  5
847
100
AcDbSymbolTableRecord
100
AcDbBlockTableRecord
  2
*H318
  0
BLOCK_RECORD
  5
84B
100
AcDbSymbolTableRecord
100
AcDbBlockTableRecord
  2
*H319
  0
BLOCK_RECORD
  5
84F
100
AcDbSymbolTableRecord
100
AcDbBlockTableRecord
  2
*H320
  0
BLOCK_RECORD
  5
853
100
AcDbSymbolTableRecord
100
AcDbBlockTableRecord
  2
*H321
  0
BLOCK_RECORD
  5
857
100
AcDbSymbolTableRecord
100
AcDbBlockTableRecord
  2
*H322
  0
BLOCK_RECORD
  5
85B
100
AcDbSymbolTableRecord
100
AcDbBlockTableRecord
  2
*H323
  0
BLOCK_RECORD
  5
85F
100
AcDbSymbolTableRecord
100
AcDbBlockTableRecord
  2
*H324
  0
BLOCK_RECORD
  5
863
100
AcDbSymbolTableRecord
100
AcDbBlockTableRecord
  2
*H325
  0
BLOCK_RECORD
  5
867
100
AcDbSymbolTableRecord
100
AcDbBlockTableRecord
  2
*H326
  0
BLOCK_RECORD
  5
86B
100
AcDbSymbolTableRecord
100
AcDbBlockTableRecord
  2
*H327
  0
BLOCK_RECORD
  5
86F
100
AcDbSymbolTableRecord
100
AcDbBlockTableRecord
  2
*H328
  0
BLOCK_RECORD
  5
873
100
AcDbSymbolTableRecord
100
AcDbBlockTableRecord
  2
*H329
  0
BLOCK_RECORD
  5
877
100
AcDbSymbolTableRecord
100
AcDbBlockTableRecord
  2
*H330
  0
BLOCK_RECORD
  5
87B
100
AcDbSymbolTableRecord
100
AcDbBlockTableRecord
  2
*H331
  0
BLOCK_RECORD
  5
87F
100
AcDbSymbolTableRecord
100
AcDbBlockTableRecord
  2
*H332
  0
BLOCK_RECORD
  5
883
100
AcDbSymbolTableRecord
100
AcDbBlockTableRecord
  2
*H333
  0
BLOCK_RECORD
  5
887
100
AcDbSymbolTableRecord
100
AcDbBlockTableRecord
  2
*H334
  0
BLOCK_RECORD
  5
88B
100
AcDbSymbolTableRecord
100
AcDbBlockTableRecord
  2
*H335
  0
BLOCK_RECORD
  5
88F
100
AcDbSymbolTableRecord
100
AcDbBlockTableRecord
  2
*H336
  0
BLOCK_RECORD
  5
893
100
AcDbSymbolTableRecord
100
AcDbBlockTableRecord
  2
*H337
  0
BLOCK_RECORD
  5
897
100
AcDbSymbolTableRecord
100
AcDbBlockTableRecord
  2
*H338
  0
BLOCK_RECORD
  5
89B
100
AcDbSymbolTableRecord
100
AcDbBlockTableRecord
  2
*H339
  0
BLOCK_RECORD
  5
8D4
100
AcDbSymbolTableRecord
100
AcDbBlockTableRecord
  2
*H340
  0
BLOCK_RECORD
  5
8D8
100
AcDbSymbolTableRecord
100
AcDbBlockTableRecord
  2
*H341
  0
BLOCK_RECORD
  5
8DC
100
AcDbSymbolTableRecord
100
AcDbBlockTableRecord
  2
*H342
  0
BLOCK_RECORD
  5
8E0
100
AcDbSymbolTableRecord
100
AcDbBlockTableRecord
  2
*H343
  0
BLOCK_RECORD
  5
8E4
100
AcDbSymbolTableRecord
100
AcDbBlockTableRecord
  2
*H344
  0
BLOCK_RECORD
  5
8E8
100
AcDbSymbolTableRecord
100
AcDbBlockTableRecord
  2
*H345
  0
BLOCK_RECORD
  5
8EC
100
AcDbSymbolTableRecord
100
AcDbBlockTableRecord
  2
*H346
  0
BLOCK_RECORD
  5
8F0
100
AcDbSymbolTableRecord
100
AcDbBlockTableRecord
  2
*H347
  0
BLOCK_RECORD
  5
8F4
100
AcDbSymbolTableRecord
100
AcDbBlockTableRecord
  2
*H348
  0
BLOCK_RECORD
  5
8F8
100
AcDbSymbolTableRecord
100
AcDbBlockTableRecord
  2
*H349
  0
BLOCK_RECORD
  5
8FC
100
AcDbSymbolTableRecord
100
AcDbBlockTableRecord
  2
*H350
  0
BLOCK_RECORD
  5
900
100
AcDbSymbolTableRecord
100
AcDbBlockTableRecord
  2
*H351
  0
BLOCK_RECORD
  5
904
100
AcDbSymbolTableRecord
100
AcDbBlockTableRecord
  2
*H352
  0
BLOCK_RECORD
  5
908
100
AcDbSymbolTableRecord
100
AcDbBlockTableRecord
  2
*H353
  0
BLOCK_RECORD
  5
90C
100
AcDbSymbolTableRecord
100
AcDbBlockTableRecord
  2
*H354
  0
BLOCK_RECORD
  5
910
100
AcDbSymbolTableRecord
100
AcDbBlockTableRecord
  2
*H355
  0
BLOCK_RECORD
  5
914
100
AcDbSymbolTableRecord
100
AcDbBlockTableRecord
  2
*H356
  0
BLOCK_RECORD
  5
918
100
AcDbSymbolTableRecord
100
AcDbBlockTableRecord
  2
*H357
  0
BLOCK_RECORD
  5
91C
100
AcDbSymbolTableRecord
100
AcDbBlockTableRecord
  2
*H358
  0
BLOCK_RECORD
  5
920
100
AcDbSymbolTableRecord
100
AcDbBlockTableRecord
  2
*H359
  0
BLOCK_RECORD
  5
924
100
AcDbSymbolTableRecord
100
AcDbBlockTableRecord
  2
*H360
  0
BLOCK_RECORD
  5
928
100
AcDbSymbolTableRecord
100
AcDbBlockTableRecord
  2
*H361
  0
BLOCK_RECORD
  5
92C
100
AcDbSymbolTableRecord
100
AcDbBlockTableRecord
  2
*H362
  0
BLOCK_RECORD
  5
930
100
AcDbSymbolTableRecord
100
AcDbBlockTableRecord
  2
*H363
  0
BLOCK_RECORD
  5
934
100
AcDbSymbolTableRecord
100
AcDbBlockTableRecord
  2
*H364
  0
BLOCK_RECORD
  5
938
100
AcDbSymbolTableRecord
100
AcDbBlockTableRecord
  2
*H365
  0
BLOCK_RECORD
  5
93C
100
AcDbSymbolTableRecord
100
AcDbBlockTableRecord
  2
*H366
  0
BLOCK_RECORD
  5
940
100
AcDbSymbolTableRecord
100
AcDbBlockTableRecord
  2
*H367
  0
BLOCK_RECORD
  5
944
100
AcDbSymbolTableRecord
100
AcDbBlockTableRecord
  2
*H368
  0
BLOCK_RECORD
  5
948
100
AcDbSymbolTableRecord
100
AcDbBlockTableRecord
  2
*H369
  0
BLOCK_RECORD
  5
94C
100
AcDbSymbolTableRecord
100
AcDbBlockTableRecord
  2
*H370
  0
BLOCK_RECORD
  5
950
100
AcDbSymbolTableRecord
100
AcDbBlockTableRecord
  2
*H371
  0
BLOCK_RECORD
  5
954
100
AcDbSymbolTableRecord
100
AcDbBlockTableRecord
  2
*H372
  0
BLOCK_RECORD
  5
958
100
AcDbSymbolTableRecord
100
AcDbBlockTableRecord
  2
*H373
  0
BLOCK_RECORD
  5
95C
100
AcDbSymbolTableRecord
100
AcDbBlockTableRecord
  2
*H374
  0
BLOCK_RECORD
  5
960
100
AcDbSymbolTableRecord
100
AcDbBlockTableRecord
  2
*H375
  0
BLOCK_RECORD
  5
964
100
AcDbSymbolTableRecord
100
AcDbBlockTableRecord
  2
*H376
  0
BLOCK_RECORD
  5
968
100
AcDbSymbolTableRecord
100
AcDbBlockTableRecord
  2
*H377
  0
BLOCK_RECORD
  5
96C
100
AcDbSymbolTableRecord
100
AcDbBlockTableRecord
  2
*H378
  0
BLOCK_RECORD
  5
970
100
AcDbSymbolTableRecord
100
AcDbBlockTableRecord
  2
*H379
  0
BLOCK_RECORD
  5
974
100
AcDbSymbolTableRecord
100
AcDbBlockTableRecord
  2
*H380
  0
BLOCK_RECORD
  5
978
100
AcDbSymbolTableRecord
100
AcDbBlockTableRecord
  2
*H381
  0
BLOCK_RECORD
  5
97C
100
AcDbSymbolTableRecord
100
AcDbBlockTableRecord
  2
*H382
  0
BLOCK_RECORD
  5
980
100
AcDbSymbolTableRecord
100
AcDbBlockTableRecord
  2
*H383
  0
BLOCK_RECORD
  5
984
100
AcDbSymbolTableRecord
100
AcDbBlockTableRecord
  2
*H384
  0
BLOCK_RECORD
  5
988
100
AcDbSymbolTableRecord
100
AcDbBlockTableRecord
  2
*H385
  0
BLOCK_RECORD
  5
98C
100
AcDbSymbolTableRecord
100
AcDbBlockTableRecord
  2
*H386
  0
BLOCK_RECORD
  5
990
100
AcDbSymbolTableRecord
100
AcDbBlockTableRecord
  2
*H387
  0
BLOCK_RECORD
  5
994
100
AcDbSymbolTableRecord
100
AcDbBlockTableRecord
  2
*H388
  0
BLOCK_RECORD
  5
998
100
AcDbSymbolTableRecord
100
AcDbBlockTableRecord
  2
*H389
  0
BLOCK_RECORD
  5
99C
100
AcDbSymbolTableRecord
100
AcDbBlockTableRecord
  2
*H390
  0
BLOCK_RECORD
  5
9A0
100
AcDbSymbolTableRecord
100
AcDbBlockTableRecord
  2
*H391
  0
BLOCK_RECORD
  5
9A4
100
AcDbSymbolTableRecord
100
AcDbBlockTableRecord
  2
*H392
  0
BLOCK_RECORD
  5
9A8
100
AcDbSymbolTableRecord
100
AcDbBlockTableRecord
  2
*H393
  0
BLOCK_RECORD
  5
9AC
100
AcDbSymbolTableRecord
100
AcDbBlockTableRecord
  2
*H394
  0
BLOCK_RECORD
  5
9B0
100
AcDbSymbolTableRecord
100
AcDbBlockTableRecord
  2
*H395
  0
BLOCK_RECORD
  5
9B4
100
AcDbSymbolTableRecord
100
AcDbBlockTableRecord
  2
*H396
  0
BLOCK_RECORD
  5
9B8
100
AcDbSymbolTableRecord
100
AcDbBlockTableRecord
  2
*H397
  0
BLOCK_RECORD
  5
9BC
100
AcDbSymbolTableRecord
100
AcDbBlockTableRecord
  2
*H398
  0
BLOCK_RECORD
  5
9C0
100
AcDbSymbolTableRecord
100
AcDbBlockTableRecord
  2
*H399
  0
ENDTAB
  0
ENDSEC
  0
SECTION
  2
BLOCKS
  0
BLOCK
  5
D
100
AcDbEntity
  8
0
100
AcDbBlockBegin
  2
*MODEL_SPACE
 70
        0
 10
0.0
 20
0.0
 30
0.0
  3
*MODEL_SPACE
  1

  0
ENDBLK
  5
E
100
AcDbEntity
  8
0
100
AcDbBlockEnd
  0
BLOCK
  5
F
100
AcDbEntity
 67
        1
  8
0
100
AcDbBlockBegin
  2
*PAPER_SPACE
 70
        0
 10
0.0
 20
0.0
 30
0.0
  3
*PAPER_SPACE
  1

  0
ENDBLK
  5
10
100
AcDbEntity
 67
        1
  8
0
100
AcDbBlockEnd
  0
BLOCK
  5
4B
100
AcDbEntity
  8
0
100
AcDbBlockBegin
  2
*H0
 70
        0
 10
0.0
 20
0.0
 30
0.0
  3
*H0
  1

  0
ENDBLK
  5
4C
100
AcDbEntity
  8
0
100
AcDbBlockEnd
  0
BLOCK
  5
4F
100
AcDbEntity
  8
0
100
AcDbBlockBegin
  2
*H1
 70
        0
 10
0.0
 20
0.0
 30
0.0
  3
*H1
  1

  0
ENDBLK
  5
50
100
AcDbEntity
  8
0
100
AcDbBlockEnd
  0
BLOCK
  5
53
100
AcDbEntity
  8
0
100
AcDbBlockBegin
  2
*H2
 70
        0
 10
0.0
 20
0.0
 30
0.0
  3
*H2
  1

  0
ENDBLK
  5
54
100
AcDbEntity
  8
0
100
AcDbBlockEnd
  0
BLOCK
  5
57
100
AcDbEntity
  8
0
100
AcDbBlockBegin
  2
*H3
 70
        0
 10
0.0
 20
0.0
 30
0.0
  3
*H3
  1

  0
ENDBLK
  5
58
100
AcDbEntity
  8
0
100
AcDbBlockEnd
  0
BLOCK
  5
5B
100
AcDbEntity
  8
0
100
AcDbBlockBegin
  2
*H4
 70
        0
 10
0.0
 20
0.0
 30
0.0
  3
*H4
  1

  0
ENDBLK
  5
5C
100
AcDbEntity
  8
0
100
AcDbBlockEnd
  0
BLOCK
  5
5F
100
AcDbEntity
  8
0
100
AcDbBlockBegin
  2
*H5
 70
        0
 10
0.0
 20
0.0
 30
0.0
  3
*H5
  1

  0
ENDBLK
  5
60
100
AcDbEntity
  8
0
100
AcDbBlockEnd
  0
BLOCK
  5
63
100
AcDbEntity
  8
0
100
AcDbBlockBegin
  2
*H6
 70
        0
 10
0.0
 20
0.0
 30
0.0
  3
*H6
  1

  0
ENDBLK
  5
64
100
AcDbEntity
  8
0
100
AcDbBlockEnd
  0
BLOCK
  5
67
100
AcDbEntity
  8
0
100
AcDbBlockBegin
  2
*H7
 70
        0
 10
0.0
 20
0.0
 30
0.0
  3
*H7
  1

  0
ENDBLK
  5
68
100
AcDbEntity
  8
0
100
AcDbBlockEnd
  0
BLOCK
  5
6D
100
AcDbEntity
  8
0
100
AcDbBlockBegin
  2
*H8
 70
        0
 10
0.0
 20
0.0
 30
0.0
  3
*H8
  1

  0
ENDBLK
  5
6E
100
AcDbEntity
  8
0
100
AcDbBlockEnd
  0
BLOCK
  5
71
100
AcDbEntity
  8
0
100
AcDbBlockBegin
  2
*H9
 70
        0
 10
0.0
 20
0.0
 30
0.0
  3
*H9
  1

  0
ENDBLK
  5
72
100
AcDbEntity
  8
0
100
AcDbBlockEnd
  0
BLOCK
  5
75
100
AcDbEntity
  8
0
100
AcDbBlockBegin
  2
*H10
 70
        0
 10
0.0
 20
0.0
 30
0.0
  3
*H10
  1

  0
ENDBLK
  5
76
100
AcDbEntity
  8
0
100
AcDbBlockEnd
  0
BLOCK
  5
79
100
AcDbEntity
  8
0
100
AcDbBlockBegin
  2
*H11
 70
        0
 10
0.0
 20
0.0
 30
0.0
  3
*H11
  1

  0
ENDBLK
  5
7A
100
AcDbEntity
  8
0
100
AcDbBlockEnd
  0
BLOCK
  5
88
100
AcDbEntity
  8
0
100
AcDbBlockBegin
  2
*H12
 70
        0
 10
0.0
 20
0.0
 30
0.0
  3
*H12
  1

  0
ENDBLK
  5
89
100
AcDbEntity
  8
0
100
AcDbBlockEnd
  0
BLOCK
  5
8C
100
AcDbEntity
  8
0
100
AcDbBlockBegin
  2
*H13
 70
        0
 10
0.0
 20
0.0
 30
0.0
  3
*H13
  1

  0
ENDBLK
  5
8D
100
AcDbEntity
  8
0
100
AcDbBlockEnd
  0
BLOCK
  5
90
100
AcDbEntity
  8
0
100
AcDbBlockBegin
  2
*H14
 70
        0
 10
0.0
 20
0.0
 30
0.0
  3
*H14
  1

  0
ENDBLK
  5
91
100
AcDbEntity
  8
0
100
AcDbBlockEnd
  0
BLOCK
  5
94
100
AcDbEntity
  8
0
100
AcDbBlockBegin
  2
*H15
 70
        0
 10
0.0
 20
0.0
 30
0.0
  3
*H15
  1

  0
ENDBLK
  5
95
100
AcDbEntity
  8
0
100
AcDbBlockEnd
  0
BLOCK
  5
9A
100
AcDbEntity
  8
0
100
AcDbBlockBegin
  2
*H16
 70
        0
 10
0.0
 20
0.0
 30
0.0
  3
*H16
  1

  0
ENDBLK
  5
9B
100
AcDbEntity
  8
0
100
AcDbBlockEnd
  0
BLOCK
  5
9E
100
AcDbEntity
  8
0
100
AcDbBlockBegin
  2
*H17
 70
        0
 10
0.0
 20
0.0
 30
0.0
  3
*H17
  1

  0
ENDBLK
  5
9F
100
AcDbEntity
  8
0
100
AcDbBlockEnd
  0
BLOCK
  5
A2
100
AcDbEntity
  8
0
100
AcDbBlockBegin
  2
*H18
 70
        0
 10
0.0
 20
0.0
 30
0.0
  3
*H18
  1

  0
ENDBLK
  5
A3
100
AcDbEntity
  8
0
100
AcDbBlockEnd
  0
BLOCK
  5
A6
100
AcDbEntity
  8
0
100
AcDbBlockBegin
  2
*H19
 70
        0
 10
0.0
 20
0.0
 30
0.0
  3
*H19
  1

  0
ENDBLK
  5
A7
100
AcDbEntity
  8
0
100
AcDbBlockEnd
  0
BLOCK
  5
AA
100
AcDbEntity
  8
0
100
AcDbBlockBegin
  2
*H20
 70
        0
 10
0.0
 20
0.0
 30
0.0
  3
*H20
  1

  0
ENDBLK
  5
AB
100
AcDbEntity
  8
0
100
AcDbBlockEnd
  0
BLOCK
  5
AE
100
AcDbEntity
  8
0
100
AcDbBlockBegin
  2
*H21
 70
        0
 10
0.0
 20
0.0
 30
0.0
  3
*H21
  1

  0
ENDBLK
  5
AF
100
AcDbEntity
  8
0
100
AcDbBlockEnd
  0
BLOCK
  5
B2
100
AcDbEntity
  8
0
100
AcDbBlockBegin
  2
*H22
 70
        0
 10
0.0
 20
0.0
 30
0.0
  3
*H22
  1

  0
ENDBLK
  5
B3
100
AcDbEntity
  8
0
100
AcDbBlockEnd
  0
BLOCK
  5
B7
100
AcDbEntity
  8
0
100
AcDbBlockBegin
  2
*H23
 70
        0
 10
0.0
 20
0.0
 30
0.0
  3
*H23
  1

  0
ENDBLK
  5
B8
100
AcDbEntity
  8
0
100
AcDbBlockEnd
  0
BLOCK
  5
BB
100
AcDbEntity
  8
0
100
AcDbBlockBegin
  2
*H24
 70
        0
 10
0.0
 20
0.0
 30
0.0
  3
*H24
  1

  0
ENDBLK
  5
BC
100
AcDbEntity
  8
0
100
AcDbBlockEnd
  0
BLOCK
  5
BF
100
AcDbEntity
  8
0
100
AcDbBlockBegin
  2
*H25
 70
        0
 10
0.0
 20
0.0
 30
0.0
  3
*H25
  1

  0
ENDBLK
  5
C0
100
AcDbEntity
  8
0
100
AcDbBlockEnd
  0
BLOCK
  5
C3
100
AcDbEntity
  8
0
100
AcDbBlockBegin
  2
*H26
 70
        0
 10
0.0
 20
0.0
 30
0.0
  3
*H26
  1

  0
ENDBLK
  5
C4
100
AcDbEntity
  8
0
100
AcDbBlockEnd
  0
BLOCK
  5
C7
100
AcDbEntity
  8
0
100
AcDbBlockBegin
  2
*H27
 70
        0
 10
0.0
 20
0.0
 30
0.0
  3
*H27
  1

  0
ENDBLK
  5
C8
100
AcDbEntity
  8
0
100
AcDbBlockEnd
  0
BLOCK
  5
CB
100
AcDbEntity
  8
0
100
AcDbBlockBegin
  2
*H28
 70
        0
 10
0.0
 20
0.0
 30
0.0
  3
*H28
  1

  0
ENDBLK
  5
CC
100
AcDbEntity
  8
0
100
AcDbBlockEnd
  0
BLOCK
  5
CF
100
AcDbEntity
  8
0
100
AcDbBlockBegin
  2
*H29
 70
        0
 10
0.0
 20
0.0
 30
0.0
  3
*H29
  1

  0
ENDBLK
  5
D0
100
AcDbEntity
  8
0
100
AcDbBlockEnd
  0
BLOCK
  5
D3
100
AcDbEntity
  8
0
100
AcDbBlockBegin
  2
*H30
 70
        0
 10
0.0
 20
0.0
 30
0.0
  3
*H30
  1

  0
ENDBLK
  5
D4
100
AcDbEntity
  8
0
100
AcDbBlockEnd
  0
BLOCK
  5
D7
100
AcDbEntity
  8
0
100
AcDbBlockBegin
  2
*H31
 70
        0
 10
0.0
 20
0.0
 30
0.0
  3
*H31
  1

  0
ENDBLK
  5
D8
100
AcDbEntity
  8
0
100
AcDbBlockEnd
  0
BLOCK
  5
DB
100
AcDbEntity
  8
0
100
AcDbBlockBegin
  2
*H32
 70
        0
 10
0.0
 20
0.0
 30
0.0
  3
*H32
  1

  0
ENDBLK
  5
DC
100
AcDbEntity
  8
0
100
AcDbBlockEnd
  0
BLOCK
  5
DF
100
AcDbEntity
  8
0
100
AcDbBlockBegin
  2
*H33
 70
        0
 10
0.0
 20
0.0
 30
0.0
  3
*H33
  1

  0
ENDBLK
  5
E0
100
AcDbEntity
  8
0
100
AcDbBlockEnd
  0
BLOCK
  5
E3
100
AcDbEntity
  8
0
100
AcDbBlockBegin
  2
*H34
 70
        0
 10
0.0
 20
0.0
 30
0.0
  3
*H34
  1

  0
ENDBLK
  5
E4
100
AcDbEntity
  8
0
100
AcDbBlockEnd
  0
BLOCK
  5
E7
100
AcDbEntity
  8
0
100
AcDbBlockBegin
  2
*H35
 70
        0
 10
0.0
 20
0.0
 30
0.0
  3
*H35
  1

  0
ENDBLK
  5
E8
100
AcDbEntity
  8
0
100
AcDbBlockEnd
  0
BLOCK
  5
EB
100
AcDbEntity
  8
0
100
AcDbBlockBegin
  2
*H36
 70
        0
 10
0.0
 20
0.0
 30
0.0
  3
*H36
  1

  0
ENDBLK
  5
EC
100
AcDbEntity
  8
0
100
AcDbBlockEnd
  0
BLOCK
  5
EF
100
AcDbEntity
  8
0
100
AcDbBlockBegin
  2
*H37
 70
        0
 10
0.0
 20
0.0
 30
0.0
  3
*H37
  1

  0
ENDBLK
  5
F0
100
AcDbEntity
  8
0
100
AcDbBlockEnd
  0
BLOCK
  5
F3
100
AcDbEntity
  8
0
100
AcDbBlockBegin
  2
*H38
 70
        0
 10
0.0
 20
0.0
 30
0.0
  3
*H38
  1

  0
ENDBLK
  5
F4
100
AcDbEntity
  8
0
100
AcDbBlockEnd
  0
BLOCK
  5
F7
100
AcDbEntity
  8
0
100
AcDbBlockBegin
  2
*H39
 70
        0
 10
0.0
 20
0.0
 30
0.0
  3
*H39
  1

  0
ENDBLK
  5
F8
100
AcDbEntity
  8
0
100
AcDbBlockEnd
  0
BLOCK
  5
FB
100
AcDbEntity
  8
0
100
AcDbBlockBegin
  2
*H40
 70
        0
 10
0.0
 20
0.0
 30
0.0
  3
*H40
  1

  0
ENDBLK
  5
FC
100
AcDbEntity
  8
0
100
AcDbBlockEnd
  0
BLOCK
  5
FF
100
AcDbEntity
  8
0
100
AcDbBlockBegin
  2
*H41
 70
        0
 10
0.0
 20
0.0
 30
0.0
  3
*H41
  1

  0
ENDBLK
  5
100
100
AcDbEntity
  8
0
100
AcDbBlockEnd
  0
BLOCK
  5
103
100
AcDbEntity
  8
0
100
AcDbBlockBegin
  2
*H42
 70
        0
 10
0.0
 20
0.0
 30
0.0
  3
*H42
  1

  0
ENDBLK
  5
104
100
AcDbEntity
  8
0
100
AcDbBlockEnd
  0
BLOCK
  5
107
100
AcDbEntity
  8
0
100
AcDbBlockBegin
  2
*H43
 70
        0
 10
0.0
 20
0.0
 30
0.0
  3
*H43
  1

  0
ENDBLK
  5
108
100
AcDbEntity
  8
0
100
AcDbBlockEnd
  0
BLOCK
  5
10B
100
AcDbEntity
  8
0
100
AcDbBlockBegin
  2
*H44
 70
        0
 10
0.0
 20
0.0
 30
0.0
  3
*H44
  1

  0
ENDBLK
  5
10C
100
AcDbEntity
  8
0
100
AcDbBlockEnd
  0
BLOCK
  5
10F
100
AcDbEntity
  8
0
100
AcDbBlockBegin
  2
*H45
 70
        0
 10
0.0
 20
0.0
 30
0.0
  3
*H45
  1

  0
ENDBLK
  5
110
100
AcDbEntity
  8
0
100
AcDbBlockEnd
  0
BLOCK
  5
113
100
AcDbEntity
  8
0
100
AcDbBlockBegin
  2
*H46
 70
        0
 10
0.0
 20
0.0
 30
0.0
  3
*H46
  1

  0
ENDBLK
  5
114
100
AcDbEntity
  8
0
100
AcDbBlockEnd
  0
BLOCK
  5
117
100
AcDbEntity
  8
0
100
AcDbBlockBegin
  2
*H47
 70
        0
 10
0.0
 20
0.0
 30
0.0
  3
*H47
  1

  0
ENDBLK
  5
118
100
AcDbEntity
  8
0
100
AcDbBlockEnd
  0
BLOCK
  5
11B
100
AcDbEntity
  8
0
100
AcDbBlockBegin
  2
*H48
 70
        0
 10
0.0
 20
0.0
 30
0.0
  3
*H48
  1

  0
ENDBLK
  5
11C
100
AcDbEntity
  8
0
100
AcDbBlockEnd
  0
BLOCK
  5
11F
100
AcDbEntity
  8
0
100
AcDbBlockBegin
  2
*H49
 70
        0
 10
0.0
 20
0.0
 30
0.0
  3
*H49
  1

  0
ENDBLK
  5
120
100
AcDbEntity
  8
0
100
AcDbBlockEnd
  0
BLOCK
  5
123
100
AcDbEntity
  8
0
100
AcDbBlockBegin
  2
*H50
 70
        0
 10
0.0
 20
0.0
 30
0.0
  3
*H50
  1

  0
ENDBLK
  5
124
100
AcDbEntity
  8
0
100
AcDbBlockEnd
  0
BLOCK
  5
127
100
AcDbEntity
  8
0
100
AcDbBlockBegin
  2
*H51
 70
        0
 10
0.0
 20
0.0
 30
0.0
  3
*H51
  1

  0
ENDBLK
  5
128
100
AcDbEntity
  8
0
100
AcDbBlockEnd
  0
BLOCK
  5
12B
100
AcDbEntity
  8
0
100
AcDbBlockBegin
  2
*H52
 70
        0
 10
0.0
 20
0.0
 30
0.0
  3
*H52
  1

  0
ENDBLK
  5
12C
100
AcDbEntity
  8
0
100
AcDbBlockEnd
  0
BLOCK
  5
12F
100
AcDbEntity
  8
0
100
AcDbBlockBegin
  2
*H53
 70
        0
 10
0.0
 20
0.0
 30
0.0
  3
*H53
  1

  0
ENDBLK
  5
130
100
AcDbEntity
  8
0
100
AcDbBlockEnd
  0
BLOCK
  5
133
100
AcDbEntity
  8
0
100
AcDbBlockBegin
  2
*H54
 70
        0
 10
0.0
 20
0.0
 30
0.0
  3
*H54
  1

  0
ENDBLK
  5
134
100
AcDbEntity
  8
0
100
AcDbBlockEnd
  0
BLOCK
  5
137
100
AcDbEntity
  8
0
100
AcDbBlockBegin
  2
*H55
 70
        0
 10
0.0
 20
0.0
 30
0.0
  3
*H55
  1

  0
ENDBLK
  5
138
100
AcDbEntity
  8
0
100
AcDbBlockEnd
  0
BLOCK
  5
13B
100
AcDbEntity
  8
0
100
AcDbBlockBegin
  2
*H56
 70
        0
 10
0.0
 20
0.0
 30
0.0
  3
*H56
  1

  0
ENDBLK
  5
13C
100
AcDbEntity
  8
0
100
AcDbBlockEnd
  0
BLOCK
  5
13F
100
AcDbEntity
  8
0
100
AcDbBlockBegin
  2
*H57
 70
        0
 10
0.0
 20
0.0
 30
0.0
  3
*H57
  1

  0
ENDBLK
  5
140
100
AcDbEntity
  8
0
100
AcDbBlockEnd
  0
BLOCK
  5
143
100
AcDbEntity
  8
0
100
AcDbBlockBegin
  2
*H58
 70
        0
 10
0.0
 20
0.0
 30
0.0
  3
*H58
  1

  0
ENDBLK
  5
144
100
AcDbEntity
  8
0
100
AcDbBlockEnd
  0
BLOCK
  5
147
100
AcDbEntity
  8
0
100
AcDbBlockBegin
  2
*H59
 70
        0
 10
0.0
 20
0.0
 30
0.0
  3
*H59
  1

  0
ENDBLK
  5
148
100
AcDbEntity
  8
0
100
AcDbBlockEnd
  0
BLOCK
  5
15D
100
AcDbEntity
  8
0
100
AcDbBlockBegin
  2
*H60
 70
        0
 10
0.0
 20
0.0
 30
0.0
  3
*H60
  1

  0
ENDBLK
  5
15E
100
AcDbEntity
  8
0
100
AcDbBlockEnd
  0
BLOCK
  5
161
100
AcDbEntity
  8
0
100
AcDbBlockBegin
  2
*H61
 70
        0
 10
0.0
 20
0.0
 30
0.0
  3
*H61
  1

  0
ENDBLK
  5
162
100
AcDbEntity
  8
0
100
AcDbBlockEnd
  0
BLOCK
  5
165
100
AcDbEntity
  8
0
100
AcDbBlockBegin
  2
*H62
 70
        0
 10
0.0
 20
0.0
 30
0.0
  3
*H62
  1

  0
ENDBLK
  5
166
100
AcDbEntity
  8
0
100
AcDbBlockEnd
  0
BLOCK
  5
224
100
AcDbEntity
  8
0
100
AcDbBlockBegin
  2
*H63
 70
        0
 10
0.0
 20
0.0
 30
0.0
  3
*H63
  1

  0
ENDBLK
  5
225
100
AcDbEntity
  8
0
100
AcDbBlockEnd
  0
BLOCK
  5
228
100
AcDbEntity
  8
0
100
AcDbBlockBegin
  2
*H64
 70
        0
 10
0.0
 20
0.0
 30
0.0
  3
*H64
  1

  0
ENDBLK
  5
229
100
AcDbEntity
  8
0
100
AcDbBlockEnd
  0
BLOCK
  5
22C
100
AcDbEntity
  8
0
100
AcDbBlockBegin
  2
*H65
 70
        0
 10
0.0
 20
0.0
 30
0.0
  3
*H65
  1

  0
ENDBLK
  5
22D
100
AcDbEntity
  8
0
100
AcDbBlockEnd
  0
BLOCK
  5
230
100
AcDbEntity
  8
0
100
AcDbBlockBegin
  2
*H66
 70
        0
 10
0.0
 20
0.0
 30
0.0
  3
*H66
  1

  0
ENDBLK
  5
231
100
AcDbEntity
  8
0
100
AcDbBlockEnd
  0
BLOCK
  5
234
100
AcDbEntity
  8
0
100
AcDbBlockBegin
  2
*H67
 70
        0
 10
0.0
 20
0.0
 30
0.0
  3
*H67
  1

  0
ENDBLK
  5
235
100
AcDbEntity
  8
0
100
AcDbBlockEnd
  0
BLOCK
  5
238
100
AcDbEntity
  8
0
100
AcDbBlockBegin
  2
*H68
 70
        0
 10
0.0
 20
0.0
 30
0.0
  3
*H68
  1

  0
ENDBLK
  5
239
100
AcDbEntity
  8
0
100
AcDbBlockEnd
  0
BLOCK
  5
23C
100
AcDbEntity
  8
0
100
AcDbBlockBegin
  2
*H69
 70
        0
 10
0.0
 20
0.0
 30
0.0
  3
*H69
  1

  0
ENDBLK
  5
23D
100
AcDbEntity
  8
0
100
AcDbBlockEnd
  0
BLOCK
  5
240
100
AcDbEntity
  8
0
100
AcDbBlockBegin
  2
*H70
 70
        0
 10
0.0
 20
0.0
 30
0.0
  3
*H70
  1

  0
ENDBLK
  5
241
100
AcDbEntity
  8
0
100
AcDbBlockEnd
  0
BLOCK
  5
244
100
AcDbEntity
  8
0
100
AcDbBlockBegin
  2
*H71
 70
        0
 10
0.0
 20
0.0
 30
0.0
  3
*H71
  1

  0
ENDBLK
  5
245
100
AcDbEntity
  8
0
100
AcDbBlockEnd
  0
BLOCK
  5
248
100
AcDbEntity
  8
0
100
AcDbBlockBegin
  2
*H72
 70
        0
 10
0.0
 20
0.0
 30
0.0
  3
*H72
  1

  0
ENDBLK
  5
249
100
AcDbEntity
  8
0
100
AcDbBlockEnd
  0
BLOCK
  5
24C
100
AcDbEntity
  8
0
100
AcDbBlockBegin
  2
*H73
 70
        0
 10
0.0
 20
0.0
 30
0.0
  3
*H73
  1

  0
ENDBLK
  5
24D
100
AcDbEntity
  8
0
100
AcDbBlockEnd
  0
BLOCK
  5
251
100
AcDbEntity
  8
0
100
AcDbBlockBegin
  2
*H74
 70
        0
 10
0.0
 20
0.0
 30
0.0
  3
*H74
  1

  0
ENDBLK
  5
252
100
AcDbEntity
  8
0
100
AcDbBlockEnd
  0
BLOCK
  5
255
100
AcDbEntity
  8
0
100
AcDbBlockBegin
  2
*H75
 70
        0
 10
0.0
 20
0.0
 30
0.0
  3
*H75
  1

  0
ENDBLK
  5
256
100
AcDbEntity
  8
0
100
AcDbBlockEnd
  0
BLOCK
  5
259
100
AcDbEntity
  8
0
100
AcDbBlockBegin
  2
*H76
 70
        0
 10
0.0
 20
0.0
 30
0.0
  3
*H76
  1

  0
ENDBLK
  5
25A
100
AcDbEntity
  8
0
100
AcDbBlockEnd
  0
BLOCK
  5
25D
100
AcDbEntity
  8
0
100
AcDbBlockBegin
  2
*H77
 70
        0
 10
0.0
 20
0.0
 30
0.0
  3
*H77
  1

  0
ENDBLK
  5
25E
100
AcDbEntity
  8
0
100
AcDbBlockEnd
  0
BLOCK
  5
261
100
AcDbEntity
  8
0
100
AcDbBlockBegin
  2
*H78
 70
        0
 10
0.0
 20
0.0
 30
0.0
  3
*H78
  1

  0
ENDBLK
  5
262
100
AcDbEntity
  8
0
100
AcDbBlockEnd
  0
BLOCK
  5
265
100
AcDbEntity
  8
0
100
AcDbBlockBegin
  2
*H79
 70
        0
 10
0.0
 20
0.0
 30
0.0
  3
*H79
  1

  0
ENDBLK
  5
266
100
AcDbEntity
  8
0
100
AcDbBlockEnd
  0
BLOCK
  5
269
100
AcDbEntity
  8
0
100
AcDbBlockBegin
  2
*H80
 70
        0
 10
0.0
 20
0.0
 30
0.0
  3
*H80
  1

  0
ENDBLK
  5
26A
100
AcDbEntity
  8
0
100
AcDbBlockEnd
  0
BLOCK
  5
26D
100
AcDbEntity
  8
0
100
AcDbBlockBegin
  2
*H81
 70
        0
 10
0.0
 20
0.0
 30
0.0
  3
*H81
  1

  0
ENDBLK
  5
26E
100
AcDbEntity
  8
0
100
AcDbBlockEnd
  0
BLOCK
  5
271
100
AcDbEntity
  8
0
100
AcDbBlockBegin
  2
*H82
 70
        0
 10
0.0
 20
0.0
 30
0.0
  3
*H82
  1

  0
ENDBLK
  5
272
100
AcDbEntity
  8
0
100
AcDbBlockEnd
  0
BLOCK
  5
275
100
AcDbEntity
  8
0
100
AcDbBlockBegin
  2
*H83
 70
        0
 10
0.0
 20
0.0
 30
0.0
  3
*H83
  1

  0
ENDBLK
  5
276
100
AcDbEntity
  8
0
100
AcDbBlockEnd
  0
BLOCK
  5
279
100
AcDbEntity
  8
0
100
AcDbBlockBegin
  2
*H84
 70
        0
 10
0.0
 20
0.0
 30
0.0
  3
*H84
  1

  0
ENDBLK
  5
27A
100
AcDbEntity
  8
0
100
AcDbBlockEnd
  0
BLOCK
  5
27D
100
AcDbEntity
  8
0
100
AcDbBlockBegin
  2
*H85
 70
        0
 10
0.0
 20
0.0
 30
0.0
  3
*H85
  1

  0
ENDBLK
  5
27E
100
AcDbEntity
  8
0
100
AcDbBlockEnd
  0
BLOCK
  5
281
100
AcDbEntity
  8
0
100
AcDbBlockBegin
  2
*H86
 70
        0
 10
0.0
 20
0.0
 30
0.0
  3
*H86
  1

  0
ENDBLK
  5
282
100
AcDbEntity
  8
0
100
AcDbBlockEnd
  0
BLOCK
  5
285
100
AcDbEntity
  8
0
100
AcDbBlockBegin
  2
*H87
 70
        0
 10
0.0
 20
0.0
 30
0.0
  3
*H87
  1

  0
ENDBLK
  5
286
100
AcDbEntity
  8
0
100
AcDbBlockEnd
  0
BLOCK
  5
289
100
AcDbEntity
  8
0
100
AcDbBlockBegin
  2
*H88
 70
        0
 10
0.0
 20
0.0
 30
0.0
  3
*H88
  1

  0
ENDBLK
  5
28A
100
AcDbEntity
  8
0
100
AcDbBlockEnd
  0
BLOCK
  5
28D
100
AcDbEntity
  8
0
100
AcDbBlockBegin
  2
*H89
 70
        0
 10
0.0
 20
0.0
 30
0.0
  3
*H89
  1

  0
ENDBLK
  5
28E
100
AcDbEntity
  8
0
100
AcDbBlockEnd
  0
BLOCK
  5
291
100
AcDbEntity
  8
0
100
AcDbBlockBegin
  2
*H90
 70
        0
 10
0.0
 20
0.0
 30
0.0
  3
*H90
  1

  0
ENDBLK
  5
292
100
AcDbEntity
  8
0
100
AcDbBlockEnd
  0
BLOCK
  5
295
100
AcDbEntity
  8
0
100
AcDbBlockBegin
  2
*H91
 70
        0
 10
0.0
 20
0.0
 30
0.0
  3
*H91
  1

  0
ENDBLK
  5
296
100
AcDbEntity
  8
0
100
AcDbBlockEnd
  0
BLOCK
  5
299
100
AcDbEntity
  8
0
100
AcDbBlockBegin
  2
*H92
 70
        0
 10
0.0
 20
0.0
 30
0.0
  3
*H92
  1

  0
ENDBLK
  5
29A
100
AcDbEntity
  8
0
100
AcDbBlockEnd
  0
BLOCK
  5
29D
100
AcDbEntity
  8
0
100
AcDbBlockBegin
  2
*H93
 70
        0
 10
0.0
 20
0.0
 30
0.0
  3
*H93
  1

  0
ENDBLK
  5
29E
100
AcDbEntity
  8
0
100
AcDbBlockEnd
  0
BLOCK
  5
2A1
100
AcDbEntity
  8
0
100
AcDbBlockBegin
  2
*H94
 70
        0
 10
0.0
 20
0.0
 30
0.0
  3
*H94
  1

  0
ENDBLK
  5
2A2
100
AcDbEntity
  8
0
100
AcDbBlockEnd
  0
BLOCK
  5
2A5
100
AcDbEntity
  8
0
100
AcDbBlockBegin
  2
*H95
 70
        0
 10
0.0
 20
0.0
 30
0.0
  3
*H95
  1

  0
ENDBLK
  5
2A6
100
AcDbEntity
  8
0
100
AcDbBlockEnd
  0
BLOCK
  5
2A9
100
AcDbEntity
  8
0
100
AcDbBlockBegin
  2
*H96
 70
        0
 10
0.0
 20
0.0
 30
0.0
  3
*H96
  1

  0
ENDBLK
  5
2AA
100
AcDbEntity
  8
0
100
AcDbBlockEnd
  0
BLOCK
  5
2AD
100
AcDbEntity
  8
0
100
AcDbBlockBegin
  2
*H97
 70
        0
 10
0.0
 20
0.0
 30
0.0
  3
*H97
  1

  0
ENDBLK
  5
2AE
100
AcDbEntity
  8
0
100
AcDbBlockEnd
  0
BLOCK
  5
2B1
100
AcDbEntity
  8
0
100
AcDbBlockBegin
  2
*H98
 70
        0
 10
0.0
 20
0.0
 30
0.0
  3
*H98
  1

  0
ENDBLK
  5
2B2
100
AcDbEntity
  8
0
100
AcDbBlockEnd
  0
BLOCK
  5
2B5
100
AcDbEntity
  8
0
100
AcDbBlockBegin
  2
*H99
 70
        0
 10
0.0
 20
0.0
 30
0.0
  3
*H99
  1

  0
ENDBLK
  5
2B6
100
AcDbEntity
  8
0
100
AcDbBlockEnd
  0
BLOCK
  5
2B9
100
AcDbEntity
  8
0
100
AcDbBlockBegin
  2
*H100
 70
        0
 10
0.0
 20
0.0
 30
0.0
  3
*H100
  1

  0
ENDBLK
  5
2BA
100
AcDbEntity
  8
0
100
AcDbBlockEnd
  0
BLOCK
  5
2BD
100
AcDbEntity
  8
0
100
AcDbBlockBegin
  2
*H101
 70
        0
 10
0.0
 20
0.0
 30
0.0
  3
*H101
  1

  0
ENDBLK
  5
2BE
100
AcDbEntity
  8
0
100
AcDbBlockEnd
  0
BLOCK
  5
2C1
100
AcDbEntity
  8
0
100
AcDbBlockBegin
  2
*H102
 70
        0
 10
0.0
 20
0.0
 30
0.0
  3
*H102
  1

  0
ENDBLK
  5
2C2
100
AcDbEntity
  8
0
100
AcDbBlockEnd
  0
BLOCK
  5
2C5
100
AcDbEntity
  8
0
100
AcDbBlockBegin
  2
*H103
 70
        0
 10
0.0
 20
0.0
 30
0.0
  3
*H103
  1

  0
ENDBLK
  5
2C6
100
AcDbEntity
  8
0
100
AcDbBlockEnd
  0
BLOCK
  5
2C9
100
AcDbEntity
  8
0
100
AcDbBlockBegin
  2
*H104
 70
        0
 10
0.0
 20
0.0
 30
0.0
  3
*H104
  1

  0
ENDBLK
  5
2CA
100
AcDbEntity
  8
0
100
AcDbBlockEnd
  0
BLOCK
  5
2CD
100
AcDbEntity
  8
0
100
AcDbBlockBegin
  2
*H105
 70
        0
 10
0.0
 20
0.0
 30
0.0
  3
*H105
  1

  0
ENDBLK
  5
2CE
100
AcDbEntity
  8
0
100
AcDbBlockEnd
  0
BLOCK
  5
2D1
100
AcDbEntity
  8
0
100
AcDbBlockBegin
  2
*H106
 70
        0
 10
0.0
 20
0.0
 30
0.0
  3
*H106
  1

  0
ENDBLK
  5
2D2
100
AcDbEntity
  8
0
100
AcDbBlockEnd
  0
BLOCK
  5
2D5
100
AcDbEntity
  8
0
100
AcDbBlockBegin
  2
*H107
 70
        0
 10
0.0
 20
0.0
 30
0.0
  3
*H107
  1

  0
ENDBLK
  5
2D6
100
AcDbEntity
  8
0
100
AcDbBlockEnd
  0
BLOCK
  5
2D9
100
AcDbEntity
  8
0
100
AcDbBlockBegin
  2
*H108
 70
        0
 10
0.0
 20
0.0
 30
0.0
  3
*H108
  1

  0
ENDBLK
  5
2DA
100
AcDbEntity
  8
0
100
AcDbBlockEnd
  0
BLOCK
  5
2DD
100
AcDbEntity
  8
0
100
AcDbBlockBegin
  2
*H109
 70
        0
 10
0.0
 20
0.0
 30
0.0
  3
*H109
  1

  0
ENDBLK
  5
2DE
100
AcDbEntity
  8
0
100
AcDbBlockEnd
  0
BLOCK
  5
2E1
100
AcDbEntity
  8
0
100
AcDbBlockBegin
  2
*H110
 70
        0
 10
0.0
 20
0.0
 30
0.0
  3
*H110
  1

  0
ENDBLK
  5
2E2
100
AcDbEntity
  8
0
100
AcDbBlockEnd
  0
BLOCK
  5
2E5
100
AcDbEntity
  8
0
100
AcDbBlockBegin
  2
*H111
 70
        0
 10
0.0
 20
0.0
 30
0.0
  3
*H111
  1

  0
ENDBLK
  5
2E6
100
AcDbEntity
  8
0
100
AcDbBlockEnd
  0
BLOCK
  5
2E9
100
AcDbEntity
  8
0
100
AcDbBlockBegin
  2
*H112
 70
        0
 10
0.0
 20
0.0
 30
0.0
  3
*H112
  1

  0
ENDBLK
  5
2EA
100
AcDbEntity
  8
0
100
AcDbBlockEnd
  0
BLOCK
  5
2ED
100
AcDbEntity
  8
0
100
AcDbBlockBegin
  2
*H113
 70
        0
 10
0.0
 20
0.0
 30
0.0
  3
*H113
  1

  0
ENDBLK
  5
2EE
100
AcDbEntity
  8
0
100
AcDbBlockEnd
  0
BLOCK
  5
2F1
100
AcDbEntity
  8
0
100
AcDbBlockBegin
  2
*H114
 70
        0
 10
0.0
 20
0.0
 30
0.0
  3
*H114
  1

  0
ENDBLK
  5
2F2
100
AcDbEntity
  8
0
100
AcDbBlockEnd
  0
BLOCK
  5
2F5
100
AcDbEntity
  8
0
100
AcDbBlockBegin
  2
*H115
 70
        0
 10
0.0
 20
0.0
 30
0.0
  3
*H115
  1

  0
ENDBLK
  5
2F6
100
AcDbEntity
  8
0
100
AcDbBlockEnd
  0
BLOCK
  5
2F9
100
AcDbEntity
  8
0
100
AcDbBlockBegin
  2
*H116
 70
        0
 10
0.0
 20
0.0
 30
0.0
  3
*H116
  1

  0
ENDBLK
  5
2FA
100
AcDbEntity
  8
0
100
AcDbBlockEnd
  0
BLOCK
  5
2FD
100
AcDbEntity
  8
0
100
AcDbBlockBegin
  2
*H117
 70
        0
 10
0.0
 20
0.0
 30
0.0
  3
*H117
  1

  0
ENDBLK
  5
2FE
100
AcDbEntity
  8
0
100
AcDbBlockEnd
  0
BLOCK
  5
301
100
AcDbEntity
  8
0
100
AcDbBlockBegin
  2
*H118
 70
        0
 10
0.0
 20
0.0
 30
0.0
  3
*H118
  1

  0
ENDBLK
  5
302
100
AcDbEntity
  8
0
100
AcDbBlockEnd
  0
BLOCK
  5
305
100
AcDbEntity
  8
0
100
AcDbBlockBegin
  2
*H119
 70
        0
 10
0.0
 20
0.0
 30
0.0
  3
*H119
  1

  0
ENDBLK
  5
306
100
AcDbEntity
  8
0
100
AcDbBlockEnd
  0
BLOCK
  5
309
100
AcDbEntity
  8
0
100
AcDbBlockBegin
  2
*H120
 70
        0
 10
0.0
 20
0.0
 30
0.0
  3
*H120
  1

  0
ENDBLK
  5
30A
100
AcDbEntity
  8
0
100
AcDbBlockEnd
  0
BLOCK
  5
30D
100
AcDbEntity
  8
0
100
AcDbBlockBegin
  2
*H121
 70
        0
 10
0.0
 20
0.0
 30
0.0
  3
*H121
  1

  0
ENDBLK
  5
30E
100
AcDbEntity
  8
0
100
AcDbBlockEnd
  0
BLOCK
  5
311
100
AcDbEntity
  8
0
100
AcDbBlockBegin
  2
*H122
 70
        0
 10
0.0
 20
0.0
 30
0.0
  3
*H122
  1

  0
ENDBLK
  5
312
100
AcDbEntity
  8
0
100
AcDbBlockEnd
  0
BLOCK
  5
315
100
AcDbEntity
  8
0
100
AcDbBlockBegin
  2
*H123
 70
        0
 10
0.0
 20
0.0
 30
0.0
  3
*H123
  1

  0
ENDBLK
  5
316
100
AcDbEntity
  8
0
100
AcDbBlockEnd
  0
BLOCK
  5
31A
100
AcDbEntity
  8
0
100
AcDbBlockBegin
  2
*H124
 70
        0
 10
0.0
 20
0.0
 30
0.0
  3
*H124
  1

  0
ENDBLK
  5
31B
100
AcDbEntity
  8
0
100
AcDbBlockEnd
  0
BLOCK
  5
31E
100
AcDbEntity
  8
0
100
AcDbBlockBegin
  2
*H125
 70
        0
 10
0.0
 20
0.0
 30
0.0
  3
*H125
  1

  0
ENDBLK
  5
31F
100
AcDbEntity
  8
0
100
AcDbBlockEnd
  0
BLOCK
  5
322
100
AcDbEntity
  8
0
100
AcDbBlockBegin
  2
*H126
 70
        0
 10
0.0
 20
0.0
 30
0.0
  3
*H126
  1

  0
ENDBLK
  5
323
100
AcDbEntity
  8
0
100
AcDbBlockEnd
  0
BLOCK
  5
326
100
AcDbEntity
  8
0
100
AcDbBlockBegin
  2
*H127
 70
        0
 10
0.0
 20
0.0
 30
0.0
  3
*H127
  1

  0
ENDBLK
  5
327
100
AcDbEntity
  8
0
100
AcDbBlockEnd
  0
BLOCK
  5
32A
100
AcDbEntity
  8
0
100
AcDbBlockBegin
  2
*H128
 70
        0
 10
0.0
 20
0.0
 30
0.0
  3
*H128
  1

  0
ENDBLK
  5
32B
100
AcDbEntity
  8
0
100
AcDbBlockEnd
  0
BLOCK
  5
32E
100
AcDbEntity
  8
0
100
AcDbBlockBegin
  2
*H129
 70
        0
 10
0.0
 20
0.0
 30
0.0
  3
*H129
  1

  0
ENDBLK
  5
32F
100
AcDbEntity
  8
0
100
AcDbBlockEnd
  0
BLOCK
  5
335
100
AcDbEntity
  8
0
100
AcDbBlockBegin
  2
*H130
 70
        0
 10
0.0
 20
0.0
 30
0.0
  3
*H130
  1

  0
ENDBLK
  5
336
100
AcDbEntity
  8
0
100
AcDbBlockEnd
  0
BLOCK
  5
339
100
AcDbEntity
  8
0
100
AcDbBlockBegin
  2
*H131
 70
        0
 10
0.0
 20
0.0
 30
0.0
  3
*H131
  1

  0
ENDBLK
  5
33A
100
AcDbEntity
  8
0
100
AcDbBlockEnd
  0
BLOCK
  5
33D
100
AcDbEntity
  8
0
100
AcDbBlockBegin
  2
*H132
 70
        0
 10
0.0
 20
0.0
 30
0.0
  3
*H132
  1

  0
ENDBLK
  5
33E
100
AcDbEntity
  8
0
100
AcDbBlockEnd
  0
BLOCK
  5
341
100
AcDbEntity
  8
0
100
AcDbBlockBegin
  2
*H133
 70
        0
 10
0.0
 20
0.0
 30
0.0
  3
*H133
  1

  0
ENDBLK
  5
342
100
AcDbEntity
  8
0
100
AcDbBlockEnd
  0
BLOCK
  5
345
100
AcDbEntity
  8
0
100
AcDbBlockBegin
  2
*H134
 70
        0
 10
0.0
 20
0.0
 30
0.0
  3
*H134
  1

  0
ENDBLK
  5
346
100
AcDbEntity
  8
0
100
AcDbBlockEnd
  0
BLOCK
  5
349
100
AcDbEntity
  8
0
100
AcDbBlockBegin
  2
*H135
 70
        0
 10
0.0
 20
0.0
 30
0.0
  3
*H135
  1

  0
ENDBLK
  5
34A
100
AcDbEntity
  8
0
100
AcDbBlockEnd
  0
BLOCK
  5
34D
100
AcDbEntity
  8
0
100
AcDbBlockBegin
  2
*H136
 70
        0
 10
0.0
 20
0.0
 30
0.0
  3
*H136
  1

  0
ENDBLK
  5
34E
100
AcDbEntity
  8
0
100
AcDbBlockEnd
  0
BLOCK
  5
351
100
AcDbEntity
  8
0
100
AcDbBlockBegin
  2
*H137
 70
        0
 10
0.0
 20
0.0
 30
0.0
  3
*H137
  1

  0
ENDBLK
  5
352
100
AcDbEntity
  8
0
100
AcDbBlockEnd
  0
BLOCK
  5
355
100
AcDbEntity
  8
0
100
AcDbBlockBegin
  2
*H138
 70
        0
 10
0.0
 20
0.0
 30
0.0
  3
*H138
  1

  0
ENDBLK
  5
356
100
AcDbEntity
  8
0
100
AcDbBlockEnd
  0
BLOCK
  5
359
100
AcDbEntity
  8
0
100
AcDbBlockBegin
  2
*H139
 70
        0
 10
0.0
 20
0.0
 30
0.0
  3
*H139
  1

  0
ENDBLK
  5
35A
100
AcDbEntity
  8
0
100
AcDbBlockEnd
  0
BLOCK
  5
35D
100
AcDbEntity
  8
0
100
AcDbBlockBegin
  2
*H140
 70
        0
 10
0.0
 20
0.0
 30
0.0
  3
*H140
  1

  0
ENDBLK
  5
35E
100
AcDbEntity
  8
0
100
AcDbBlockEnd
  0
BLOCK
  5
361
100
AcDbEntity
  8
0
100
AcDbBlockBegin
  2
*H141
 70
        0
 10
0.0
 20
0.0
 30
0.0
  3
*H141
  1

  0
ENDBLK
  5
362
100
AcDbEntity
  8
0
100
AcDbBlockEnd
  0
BLOCK
  5
366
100
AcDbEntity
  8
0
100
AcDbBlockBegin
  2
*H142
 70
        0
 10
0.0
 20
0.0
 30
0.0
  3
*H142
  1

  0
ENDBLK
  5
367
100
AcDbEntity
  8
0
100
AcDbBlockEnd
  0
BLOCK
  5
36A
100
AcDbEntity
  8
0
100
AcDbBlockBegin
  2
*H143
 70
        0
 10
0.0
 20
0.0
 30
0.0
  3
*H143
  1

  0
ENDBLK
  5
36B
100
AcDbEntity
  8
0
100
AcDbBlockEnd
  0
BLOCK
  5
36F
100
AcDbEntity
  8
0
100
AcDbBlockBegin
  2
*H144
 70
        0
 10
0.0
 20
0.0
 30
0.0
  3
*H144
  1

  0
ENDBLK
  5
370
100
AcDbEntity
  8
0
100
AcDbBlockEnd
  0
BLOCK
  5
373
100
AcDbEntity
  8
0
100
AcDbBlockBegin
  2
*H145
 70
        0
 10
0.0
 20
0.0
 30
0.0
  3
*H145
  1

  0
ENDBLK
  5
374
100
AcDbEntity
  8
0
100
AcDbBlockEnd
  0
BLOCK
  5
377
100
AcDbEntity
  8
0
100
AcDbBlockBegin
  2
*H146
 70
        0
 10
0.0
 20
0.0
 30
0.0
  3
*H146
  1

  0
ENDBLK
  5
378
100
AcDbEntity
  8
0
100
AcDbBlockEnd
  0
BLOCK
  5
37B
100
AcDbEntity
  8
0
100
AcDbBlockBegin
  2
*H147
 70
        0
 10
0.0
 20
0.0
 30
0.0
  3
*H147
  1

  0
ENDBLK
  5
37C
100
AcDbEntity
  8
0
100
AcDbBlockEnd
  0
BLOCK
  5
37F
100
AcDbEntity
  8
0
100
AcDbBlockBegin
  2
*H148
 70
        0
 10
0.0
 20
0.0
 30
0.0
  3
*H148
  1

  0
ENDBLK
  5
380
100
AcDbEntity
  8
0
100
AcDbBlockEnd
  0
BLOCK
  5
383
100
AcDbEntity
  8
0
100
AcDbBlockBegin
  2
*H149
 70
        0
 10
0.0
 20
0.0
 30
0.0
  3
*H149
  1

  0
ENDBLK
  5
384
100
AcDbEntity
  8
0
100
AcDbBlockEnd
  0
BLOCK
  5
387
100
AcDbEntity
  8
0
100
AcDbBlockBegin
  2
*H150
 70
        0
 10
0.0
 20
0.0
 30
0.0
  3
*H150
  1

  0
ENDBLK
  5
388
100
AcDbEntity
  8
0
100
AcDbBlockEnd
  0
BLOCK
  5
38B
100
AcDbEntity
  8
0
100
AcDbBlockBegin
  2
*H151
 70
        0
 10
0.0
 20
0.0
 30
0.0
  3
*H151
  1

  0
ENDBLK
  5
38C
100
AcDbEntity
  8
0
100
AcDbBlockEnd
  0
BLOCK
  5
38F
100
AcDbEntity
  8
0
100
AcDbBlockBegin
  2
*H152
 70
        0
 10
0.0
 20
0.0
 30
0.0
  3
*H152
  1

  0
ENDBLK
  5
390
100
AcDbEntity
  8
0
100
AcDbBlockEnd
  0
BLOCK
  5
393
100
AcDbEntity
  8
0
100
AcDbBlockBegin
  2
*H153
 70
        0
 10
0.0
 20
0.0
 30
0.0
  3
*H153
  1

  0
ENDBLK
  5
394
100
AcDbEntity
  8
0
100
AcDbBlockEnd
  0
BLOCK
  5
398
100
AcDbEntity
  8
0
100
AcDbBlockBegin
  2
*H154
 70
        0
 10
0.0
 20
0.0
 30
0.0
  3
*H154
  1

  0
ENDBLK
  5
399
100
AcDbEntity
  8
0
100
AcDbBlockEnd
  0
BLOCK
  5
39C
100
AcDbEntity
  8
0
100
AcDbBlockBegin
  2
*H155
 70
        0
 10
0.0
 20
0.0
 30
0.0
  3
*H155
  1

  0
ENDBLK
  5
39D
100
AcDbEntity
  8
0
100
AcDbBlockEnd
  0
BLOCK
  5
3A0
100
AcDbEntity
  8
0
100
AcDbBlockBegin
  2
*H156
 70
        0
 10
0.0
 20
0.0
 30
0.0
  3
*H156
  1

  0
ENDBLK
  5
3A1
100
AcDbEntity
  8
0
100
AcDbBlockEnd
  0
BLOCK
  5
3A4
100
AcDbEntity
  8
0
100
AcDbBlockBegin
  2
*H157
 70
        0
 10
0.0
 20
0.0
 30
0.0
  3
*H157
  1

  0
ENDBLK
  5
3A5
100
AcDbEntity
  8
0
100
AcDbBlockEnd
  0
BLOCK
  5
3A8
100
AcDbEntity
  8
0
100
AcDbBlockBegin
  2
*H158
 70
        0
 10
0.0
 20
0.0
 30
0.0
  3
*H158
  1

  0
ENDBLK
  5
3A9
100
AcDbEntity
  8
0
100
AcDbBlockEnd
  0
BLOCK
  5
3AD
100
AcDbEntity
  8
0
100
AcDbBlockBegin
  2
*H159
 70
        0
 10
0.0
 20
0.0
 30
0.0
  3
*H159
  1

  0
ENDBLK
  5
3AE
100
AcDbEntity
  8
0
100
AcDbBlockEnd
  0
BLOCK
  5
3B2
100
AcDbEntity
  8
0
100
AcDbBlockBegin
  2
*H160
 70
        0
 10
0.0
 20
0.0
 30
0.0
  3
*H160
  1

  0
ENDBLK
  5
3B3
100
AcDbEntity
  8
0
100
AcDbBlockEnd
  0
BLOCK
  5
3B6
100
AcDbEntity
  8
0
100
AcDbBlockBegin
  2
*H161
 70
        0
 10
0.0
 20
0.0
 30
0.0
  3
*H161
  1

  0
ENDBLK
  5
3B7
100
AcDbEntity
  8
0
100
AcDbBlockEnd
  0
BLOCK
  5
3C4
100
AcDbEntity
  8
0
100
AcDbBlockBegin
  2
*H162
 70
        0
 10
0.0
 20
0.0
 30
0.0
  3
*H162
  1

  0
ENDBLK
  5
3C5
100
AcDbEntity
  8
0
100
AcDbBlockEnd
  0
BLOCK
  5
3C8
100
AcDbEntity
  8
0
100
AcDbBlockBegin
  2
*H163
 70
        0
 10
0.0
 20
0.0
 30
0.0
  3
*H163
  1

  0
ENDBLK
  5
3C9
100
AcDbEntity
  8
0
100
AcDbBlockEnd
  0
BLOCK
  5
3CC
100
AcDbEntity
  8
0
100
AcDbBlockBegin
  2
*H164
 70
        0
 10
0.0
 20
0.0
 30
0.0
  3
*H164
  1

  0
ENDBLK
  5
3CD
100
AcDbEntity
  8
0
100
AcDbBlockEnd
  0
BLOCK
  5
3D0
100
AcDbEntity
  8
0
100
AcDbBlockBegin
  2
*H165
 70
        0
 10
0.0
 20
0.0
 30
0.0
  3
*H165
  1

  0
ENDBLK
  5
3D1
100
AcDbEntity
  8
0
100
AcDbBlockEnd
  0
BLOCK
  5
3D4
100
AcDbEntity
  8
0
100
AcDbBlockBegin
  2
*H166
 70
        0
 10
0.0
 20
0.0
 30
0.0
  3
*H166
  1

  0
ENDBLK
  5
3D5
100
AcDbEntity
  8
0
100
AcDbBlockEnd
  0
BLOCK
  5
3D8
100
AcDbEntity
  8
0
100
AcDbBlockBegin
  2
*H167
 70
        0
 10
0.0
 20
0.0
 30
0.0
  3
*H167
  1

  0
ENDBLK
  5
3D9
100
AcDbEntity
  8
0
100
AcDbBlockEnd
  0
BLOCK
  5
3DC
100
AcDbEntity
  8
0
100
AcDbBlockBegin
  2
*H168
 70
        0
 10
0.0
 20
0.0
 30
0.0
  3
*H168
  1

  0
ENDBLK
  5
3DD
100
AcDbEntity
  8
0
100
AcDbBlockEnd
  0
BLOCK
  5
3E0
100
AcDbEntity
  8
0
100
AcDbBlockBegin
  2
*H169
 70
        0
 10
0.0
 20
0.0
 30
0.0
  3
*H169
  1

  0
ENDBLK
  5
3E1
100
AcDbEntity
  8
0
100
AcDbBlockEnd
  0
BLOCK
  5
3E4
100
AcDbEntity
  8
0
100
AcDbBlockBegin
  2
*H170
 70
        0
 10
0.0
 20
0.0
 30
0.0
  3
*H170
  1

  0
ENDBLK
  5
3E5
100
AcDbEntity
  8
0
100
AcDbBlockEnd
  0
BLOCK
  5
3E9
100
AcDbEntity
  8
0
100
AcDbBlockBegin
  2
*H171
 70
        0
 10
0.0
 20
0.0
 30
0.0
  3
*H171
  1

  0
ENDBLK
  5
3EA
100
AcDbEntity
  8
0
100
AcDbBlockEnd
  0
BLOCK
  5
3ED
100
AcDbEntity
  8
0
100
AcDbBlockBegin
  2
*H172
 70
        0
 10
0.0
 20
0.0
 30
0.0
  3
*H172
  1

  0
ENDBLK
  5
3EE
100
AcDbEntity
  8
0
100
AcDbBlockEnd
  0
BLOCK
  5
3F1
100
AcDbEntity
  8
0
100
AcDbBlockBegin
  2
*H173
 70
        0
 10
0.0
 20
0.0
 30
0.0
  3
*H173
  1

  0
ENDBLK
  5
3F2
100
AcDbEntity
  8
0
100
AcDbBlockEnd
  0
BLOCK
  5
3F7
100
AcDbEntity
  8
0
100
AcDbBlockBegin
  2
*H174
 70
        0
 10
0.0
 20
0.0
 30
0.0
  3
*H174
  1

  0
ENDBLK
  5
3F8
100
AcDbEntity
  8
0
100
AcDbBlockEnd
  0
BLOCK
  5
421
100
AcDbEntity
  8
0
100
AcDbBlockBegin
  2
*H175
 70
        0
 10
0.0
 20
0.0
 30
0.0
  3
*H175
  1

  0
ENDBLK
  5
422
100
AcDbEntity
  8
0
100
AcDbBlockEnd
  0
BLOCK
  5
425
100
AcDbEntity
  8
0
100
AcDbBlockBegin
  2
*H176
 70
        0
 10
0.0
 20
0.0
 30
0.0
  3
*H176
  1

  0
ENDBLK
  5
426
100
AcDbEntity
  8
0
100
AcDbBlockEnd
  0
BLOCK
  5
429
100
AcDbEntity
  8
0
100
AcDbBlockBegin
  2
*H177
 70
        0
 10
0.0
 20
0.0
 30
0.0
  3
*H177
  1

  0
ENDBLK
  5
42A
100
AcDbEntity
  8
0
100
AcDbBlockEnd
  0
BLOCK
  5
42D
100
AcDbEntity
  8
0
100
AcDbBlockBegin
  2
*H178
 70
        0
 10
0.0
 20
0.0
 30
0.0
  3
*H178
  1

  0
ENDBLK
  5
42E
100
AcDbEntity
  8
0
100
AcDbBlockEnd
  0
BLOCK
  5
431
100
AcDbEntity
  8
0
100
AcDbBlockBegin
  2
*H179
 70
        0
 10
0.0
 20
0.0
 30
0.0
  3
*H179
  1

  0
ENDBLK
  5
432
100
AcDbEntity
  8
0
100
AcDbBlockEnd
  0
BLOCK
  5
435
100
AcDbEntity
  8
0
100
AcDbBlockBegin
  2
*H180
 70
        0
 10
0.0
 20
0.0
 30
0.0
  3
*H180
  1

  0
ENDBLK
  5
436
100
AcDbEntity
  8
0
100
AcDbBlockEnd
  0
BLOCK
  5
439
100
AcDbEntity
  8
0
100
AcDbBlockBegin
  2
*H181
 70
        0
 10
0.0
 20
0.0
 30
0.0
  3
*H181
  1

  0
ENDBLK
  5
43A
100
AcDbEntity
  8
0
100
AcDbBlockEnd
  0
BLOCK
  5
43D
100
AcDbEntity
  8
0
100
AcDbBlockBegin
  2
*H182
 70
        0
 10
0.0
 20
0.0
 30
0.0
  3
*H182
  1

  0
ENDBLK
  5
43E
100
AcDbEntity
  8
0
100
AcDbBlockEnd
  0
BLOCK
  5
441
100
AcDbEntity
  8
0
100
AcDbBlockBegin
  2
*H183
 70
        0
 10
0.0
 20
0.0
 30
0.0
  3
*H183
  1

  0
ENDBLK
  5
442
100
AcDbEntity
  8
0
100
AcDbBlockEnd
  0
BLOCK
  5
445
100
AcDbEntity
  8
0
100
AcDbBlockBegin
  2
*H184
 70
        0
 10
0.0
 20
0.0
 30
0.0
  3
*H184
  1

  0
ENDBLK
  5
446
100
AcDbEntity
  8
0
100
AcDbBlockEnd
  0
BLOCK
  5
449
100
AcDbEntity
  8
0
100
AcDbBlockBegin
  2
*H185
 70
        0
 10
0.0
 20
0.0
 30
0.0
  3
*H185
  1

  0
ENDBLK
  5
44A
100
AcDbEntity
  8
0
100
AcDbBlockEnd
  0
BLOCK
  5
44D
100
AcDbEntity
  8
0
100
AcDbBlockBegin
  2
*H186
 70
        0
 10
0.0
 20
0.0
 30
0.0
  3
*H186
  1

  0
ENDBLK
  5
44E
100
AcDbEntity
  8
0
100
AcDbBlockEnd
  0
BLOCK
  5
45D
100
AcDbEntity
  8
0
100
AcDbBlockBegin
  2
*H187
 70
        0
 10
0.0
 20
0.0
 30
0.0
  3
*H187
  1

  0
ENDBLK
  5
45E
100
AcDbEntity
  8
0
100
AcDbBlockEnd
  0
BLOCK
  5
46A
100
AcDbEntity
  8
0
100
AcDbBlockBegin
  2
*H188
 70
        0
 10
0.0
 20
0.0
 30
0.0
  3
*H188
  1

  0
ENDBLK
  5
46B
100
AcDbEntity
  8
0
100
AcDbBlockEnd
  0
BLOCK
  5
46E
100
AcDbEntity
  8
0
100
AcDbBlockBegin
  2
*H189
 70
        0
 10
0.0
 20
0.0
 30
0.0
  3
*H189
  1

  0
ENDBLK
  5
46F
100
AcDbEntity
  8
0
100
AcDbBlockEnd
  0
BLOCK
  5
472
100
AcDbEntity
  8
0
100
AcDbBlockBegin
  2
*H190
 70
        0
 10
0.0
 20
0.0
 30
0.0
  3
*H190
  1

  0
ENDBLK
  5
473
100
AcDbEntity
  8
0
100
AcDbBlockEnd
  0
BLOCK
  5
476
100
AcDbEntity
  8
0
100
AcDbBlockBegin
  2
*H191
 70
        0
 10
0.0
 20
0.0
 30
0.0
  3
*H191
  1

  0
ENDBLK
  5
477
100
AcDbEntity
  8
0
100
AcDbBlockEnd
  0
BLOCK
  5
47A
100
AcDbEntity
  8
0
100
AcDbBlockBegin
  2
*H192
 70
        0
 10
0.0
 20
0.0
 30
0.0
  3
*H192
  1

  0
ENDBLK
  5
47B
100
AcDbEntity
  8
0
100
AcDbBlockEnd
  0
BLOCK
  5
47F
100
AcDbEntity
  8
0
100
AcDbBlockBegin
  2
*H193
 70
        0
 10
0.0
 20
0.0
 30
0.0
  3
*H193
  1

  0
ENDBLK
  5
480
100
AcDbEntity
  8
0
100
AcDbBlockEnd
  0
BLOCK
  5
483
100
AcDbEntity
  8
0
100
AcDbBlockBegin
  2
*H194
 70
        0
 10
0.0
 20
0.0
 30
0.0
  3
*H194
  1

  0
ENDBLK
  5
484
100
AcDbEntity
  8
0
100
AcDbBlockEnd
  0
BLOCK
  5
487
100
AcDbEntity
  8
0
100
AcDbBlockBegin
  2
*H195
 70
        0
 10
0.0
 20
0.0
 30
0.0
  3
*H195
  1

  0
ENDBLK
  5
488
100
AcDbEntity
  8
0
100
AcDbBlockEnd
  0
BLOCK
  5
48B
100
AcDbEntity
  8
0
100
AcDbBlockBegin
  2
*H196
 70
        0
 10
0.0
 20
0.0
 30
0.0
  3
*H196
  1

  0
ENDBLK
  5
48C
100
AcDbEntity
  8
0
100
AcDbBlockEnd
  0
BLOCK
  5
491
100
AcDbEntity
  8
0
100
AcDbBlockBegin
  2
*H197
 70
        0
 10
0.0
 20
0.0
 30
0.0
  3
*H197
  1

  0
ENDBLK
  5
492
100
AcDbEntity
  8
0
100
AcDbBlockEnd
  0
BLOCK
  5
495
100
AcDbEntity
  8
0
100
AcDbBlockBegin
  2
*H198
 70
        0
 10
0.0
 20
0.0
 30
0.0
  3
*H198
  1

  0
ENDBLK
  5
496
100
AcDbEntity
  8
0
100
AcDbBlockEnd
  0
BLOCK
  5
499
100
AcDbEntity
  8
0
100
AcDbBlockBegin
  2
*H199
 70
        0
 10
0.0
 20
0.0
 30
0.0
  3
*H199
  1

  0
ENDBLK
  5
49A
100
AcDbEntity
  8
0
100
AcDbBlockEnd
  0
BLOCK
  5
49D
100
AcDbEntity
  8
0
100
AcDbBlockBegin
  2
*H200
 70
        0
 10
0.0
 20
0.0
 30
0.0
  3
*H200
  1

  0
ENDBLK
  5
49E
100
AcDbEntity
  8
0
100
AcDbBlockEnd
  0
BLOCK
  5
4A1
100
AcDbEntity
  8
0
100
AcDbBlockBegin
  2
*H201
 70
        0
 10
0.0
 20
0.0
 30
0.0
  3
*H201
  1

  0
ENDBLK
  5
4A2
100
AcDbEntity
  8
0
100
AcDbBlockEnd
  0
BLOCK
  5
4A5
100
AcDbEntity
  8
0
100
AcDbBlockBegin
  2
*H202
 70
        0
 10
0.0
 20
0.0
 30
0.0
  3
*H202
  1

  0
ENDBLK
  5
4A6
100
AcDbEntity
  8
0
100
AcDbBlockEnd
  0
BLOCK
  5
4A9
100
AcDbEntity
  8
0
100
AcDbBlockBegin
  2
*H203
 70
        0
 10
0.0
 20
0.0
 30
0.0
  3
*H203
  1

  0
ENDBLK
  5
4AA
100
AcDbEntity
  8
0
100
AcDbBlockEnd
  0
BLOCK
  5
4AD
100
AcDbEntity
  8
0
100
AcDbBlockBegin
  2
*H204
 70
        0
 10
0.0
 20
0.0
 30
0.0
  3
*H204
  1

  0
ENDBLK
  5
4AE
100
AcDbEntity
  8
0
100
AcDbBlockEnd
  0
BLOCK
  5
4B1
100
AcDbEntity
  8
0
100
AcDbBlockBegin
  2
*H205
 70
        0
 10
0.0
 20
0.0
 30
0.0
  3
*H205
  1

  0
ENDBLK
  5
4B2
100
AcDbEntity
  8
0
100
AcDbBlockEnd
  0
BLOCK
  5
4B5
100
AcDbEntity
  8
0
100
AcDbBlockBegin
  2
*H206
 70
        0
 10
0.0
 20
0.0
 30
0.0
  3
*H206
  1

  0
ENDBLK
  5
4B6
100
AcDbEntity
  8
0
100
AcDbBlockEnd
  0
BLOCK
  5
4B9
100
AcDbEntity
  8
0
100
AcDbBlockBegin
  2
*H207
 70
        0
 10
0.0
 20
0.0
 30
0.0
  3
*H207
  1

  0
ENDBLK
  5
4BA
100
AcDbEntity
  8
0
100
AcDbBlockEnd
  0
BLOCK
  5
4BD
100
AcDbEntity
  8
0
100
AcDbBlockBegin
  2
*H208
 70
        0
 10
0.0
 20
0.0
 30
0.0
  3
*H208
  1

  0
ENDBLK
  5
4BE
100
AcDbEntity
  8
0
100
AcDbBlockEnd
  0
BLOCK
  5
4C1
100
AcDbEntity
  8
0
100
AcDbBlockBegin
  2
*H209
 70
        0
 10
0.0
 20
0.0
 30
0.0
  3
*H209
  1

  0
ENDBLK
  5
4C2
100
AcDbEntity
  8
0
100
AcDbBlockEnd
  0
BLOCK
  5
4C5
100
AcDbEntity
  8
0
100
AcDbBlockBegin
  2
*H210
 70
        0
 10
0.0
 20
0.0
 30
0.0
  3
*H210
  1

  0
ENDBLK
  5
4C6
100
AcDbEntity
  8
0
100
AcDbBlockEnd
  0
BLOCK
  5
4C9
100
AcDbEntity
  8
0
100
AcDbBlockBegin
  2
*H211
 70
        0
 10
0.0
 20
0.0
 30
0.0
  3
*H211
  1

  0
ENDBLK
  5
4CA
100
AcDbEntity
  8
0
100
AcDbBlockEnd
  0
BLOCK
  5
4CD
100
AcDbEntity
  8
0
100
AcDbBlockBegin
  2
*H212
 70
        0
 10
0.0
 20
0.0
 30
0.0
  3
*H212
  1

  0
ENDBLK
  5
4CE
100
AcDbEntity
  8
0
100
AcDbBlockEnd
  0
BLOCK
  5
4D1
100
AcDbEntity
  8
0
100
AcDbBlockBegin
  2
*H213
 70
        0
 10
0.0
 20
0.0
 30
0.0
  3
*H213
  1

  0
ENDBLK
  5
4D2
100
AcDbEntity
  8
0
100
AcDbBlockEnd
  0
BLOCK
  5
4D5
100
AcDbEntity
  8
0
100
AcDbBlockBegin
  2
*H214
 70
        0
 10
0.0
 20
0.0
 30
0.0
  3
*H214
  1

  0
ENDBLK
  5
4D6
100
AcDbEntity
  8
0
100
AcDbBlockEnd
  0
BLOCK
  5
4D9
100
AcDbEntity
  8
0
100
AcDbBlockBegin
  2
*H215
 70
        0
 10
0.0
 20
0.0
 30
0.0
  3
*H215
  1

  0
ENDBLK
  5
4DA
100
AcDbEntity
  8
0
100
AcDbBlockEnd
  0
BLOCK
  5
4DD
100
AcDbEntity
  8
0
100
AcDbBlockBegin
  2
*H216
 70
        0
 10
0.0
 20
0.0
 30
0.0
  3
*H216
  1

  0
ENDBLK
  5
4DE
100
AcDbEntity
  8
0
100
AcDbBlockEnd
  0
BLOCK
  5
4E1
100
AcDbEntity
  8
0
100
AcDbBlockBegin
  2
*H217
 70
        0
 10
0.0
 20
0.0
 30
0.0
  3
*H217
  1

  0
ENDBLK
  5
4E2
100
AcDbEntity
  8
0
100
AcDbBlockEnd
  0
BLOCK
  5
4E5
100
AcDbEntity
  8
0
100
AcDbBlockBegin
  2
*H218
 70
        0
 10
0.0
 20
0.0
 30
0.0
  3
*H218
  1

  0
ENDBLK
  5
4E6
100
AcDbEntity
  8
0
100
AcDbBlockEnd
  0
BLOCK
  5
4E9
100
AcDbEntity
  8
0
100
AcDbBlockBegin
  2
*H219
 70
        0
 10
0.0
 20
0.0
 30
0.0
  3
*H219
  1

  0
ENDBLK
  5
4EA
100
AcDbEntity
  8
0
100
AcDbBlockEnd
  0
BLOCK
  5
4ED
100
AcDbEntity
  8
0
100
AcDbBlockBegin
  2
*H220
 70
        0
 10
0.0
 20
0.0
 30
0.0
  3
*H220
  1

  0
ENDBLK
  5
4EE
100
AcDbEntity
  8
0
100
AcDbBlockEnd
  0
BLOCK
  5
4F1
100
AcDbEntity
  8
0
100
AcDbBlockBegin
  2
*H221
 70
        0
 10
0.0
 20
0.0
 30
0.0
  3
*H221
  1

  0
ENDBLK
  5
4F2
100
AcDbEntity
  8
0
100
AcDbBlockEnd
  0
BLOCK
  5
4F5
100
AcDbEntity
  8
0
100
AcDbBlockBegin
  2
*H222
 70
        0
 10
0.0
 20
0.0
 30
0.0
  3
*H222
  1

  0
ENDBLK
  5
4F6
100
AcDbEntity
  8
0
100
AcDbBlockEnd
  0
BLOCK
  5
4F9
100
AcDbEntity
  8
0
100
AcDbBlockBegin
  2
*H223
 70
        0
 10
0.0
 20
0.0
 30
0.0
  3
*H223
  1

  0
ENDBLK
  5
4FA
100
AcDbEntity
  8
0
100
AcDbBlockEnd
  0
BLOCK
  5
4FD
100
AcDbEntity
  8
0
100
AcDbBlockBegin
  2
*H224
 70
        0
 10
0.0
 20
0.0
 30
0.0
  3
*H224
  1

  0
ENDBLK
  5
4FE
100
AcDbEntity
  8
0
100
AcDbBlockEnd
  0
BLOCK
  5
501
100
AcDbEntity
  8
0
100
AcDbBlockBegin
  2
*H225
 70
        0
 10
0.0
 20
0.0
 30
0.0
  3
*H225
  1

  0
ENDBLK
  5
502
100
AcDbEntity
  8
0
100
AcDbBlockEnd
  0
BLOCK
  5
505
100
AcDbEntity
  8
0
100
AcDbBlockBegin
  2
*H226
 70
        0
 10
0.0
 20
0.0
 30
0.0
  3
*H226
  1

  0
ENDBLK
  5
506
100
AcDbEntity
  8
0
100
AcDbBlockEnd
  0
BLOCK
  5
509
100
AcDbEntity
  8
0
100
AcDbBlockBegin
  2
*H227
 70
        0
 10
0.0
 20
0.0
 30
0.0
  3
*H227
  1

  0
ENDBLK
  5
50A
100
AcDbEntity
  8
0
100
AcDbBlockEnd
  0
BLOCK
  5
50D
100
AcDbEntity
  8
0
100
AcDbBlockBegin
  2
*H228
 70
        0
 10
0.0
 20
0.0
 30
0.0
  3
*H228
  1

  0
ENDBLK
  5
50E
100
AcDbEntity
  8
0
100
AcDbBlockEnd
  0
BLOCK
  5
514
100
AcDbEntity
  8
0
100
AcDbBlockBegin
  2
*H229
 70
        0
 10
0.0
 20
0.0
 30
0.0
  3
*H229
  1

  0
ENDBLK
  5
515
100
AcDbEntity
  8
0
100
AcDbBlockEnd
  0
BLOCK
  5
518
100
AcDbEntity
  8
0
100
AcDbBlockBegin
  2
*H230
 70
        0
 10
0.0
 20
0.0
 30
0.0
  3
*H230
  1

  0
ENDBLK
  5
519
100
AcDbEntity
  8
0
100
AcDbBlockEnd
  0
BLOCK
  5
51C
100
AcDbEntity
  8
0
100
AcDbBlockBegin
  2
*H231
 70
        0
 10
0.0
 20
0.0
 30
0.0
  3
*H231
  1

  0
ENDBLK
  5
51D
100
AcDbEntity
  8
0
100
AcDbBlockEnd
  0
BLOCK
  5
520
100
AcDbEntity
  8
0
100
AcDbBlockBegin
  2
*H232
 70
        0
 10
0.0
 20
0.0
 30
0.0
  3
*H232
  1

  0
ENDBLK
  5
521
100
AcDbEntity
  8
0
100
AcDbBlockEnd
  0
BLOCK
  5
524
100
AcDbEntity
  8
0
100
AcDbBlockBegin
  2
*H233
 70
        0
 10
0.0
 20
0.0
 30
0.0
  3
*H233
  1

  0
ENDBLK
  5
525
100
AcDbEntity
  8
0
100
AcDbBlockEnd
  0
BLOCK
  5
528
100
AcDbEntity
  8
0
100
AcDbBlockBegin
  2
*H234
 70
        0
 10
0.0
 20
0.0
 30
0.0
  3
*H234
  1

  0
ENDBLK
  5
529
100
AcDbEntity
  8
0
100
AcDbBlockEnd
  0
BLOCK
  5
52C
100
AcDbEntity
  8
0
100
AcDbBlockBegin
  2
*H235
 70
        0
 10
0.0
 20
0.0
 30
0.0
  3
*H235
  1

  0
ENDBLK
  5
52D
100
AcDbEntity
  8
0
100
AcDbBlockEnd
  0
BLOCK
  5
530
100
AcDbEntity
  8
0
100
AcDbBlockBegin
  2
*H236
 70
        0
 10
0.0
 20
0.0
 30
0.0
  3
*H236
  1

  0
ENDBLK
  5
531
100
AcDbEntity
  8
0
100
AcDbBlockEnd
  0
BLOCK
  5
534
100
AcDbEntity
  8
0
100
AcDbBlockBegin
  2
*H237
 70
        0
 10
0.0
 20
0.0
 30
0.0
  3
*H237
  1

  0
ENDBLK
  5
535
100
AcDbEntity
  8
0
100
AcDbBlockEnd
  0
BLOCK
  5
538
100
AcDbEntity
  8
0
100
AcDbBlockBegin
  2
*H238
 70
        0
 10
0.0
 20
0.0
 30
0.0
  3
*H238
  1

  0
ENDBLK
  5
539
100
AcDbEntity
  8
0
100
AcDbBlockEnd
  0
BLOCK
  5
53C
100
AcDbEntity
  8
0
100
AcDbBlockBegin
  2
*H239
 70
        0
 10
0.0
 20
0.0
 30
0.0
  3
*H239
  1

  0
ENDBLK
  5
53D
100
AcDbEntity
  8
0
100
AcDbBlockEnd
  0
BLOCK
  5
540
100
AcDbEntity
  8
0
100
AcDbBlockBegin
  2
*H240
 70
        0
 10
0.0
 20
0.0
 30
0.0
  3
*H240
  1

  0
ENDBLK
  5
541
100
AcDbEntity
  8
0
100
AcDbBlockEnd
  0
BLOCK
  5
544
100
AcDbEntity
  8
0
100
AcDbBlockBegin
  2
*H241
 70
        0
 10
0.0
 20
0.0
 30
0.0
  3
*H241
  1

  0
ENDBLK
  5
545
100
AcDbEntity
  8
0
100
AcDbBlockEnd
  0
BLOCK
  5
548
100
AcDbEntity
  8
0
100
AcDbBlockBegin
  2
*H242
 70
        0
 10
0.0
 20
0.0
 30
0.0
  3
*H242
  1

  0
ENDBLK
  5
549
100
AcDbEntity
  8
0
100
AcDbBlockEnd
  0
BLOCK
  5
54C
100
AcDbEntity
  8
0
100
AcDbBlockBegin
  2
*H243
 70
        0
 10
0.0
 20
0.0
 30
0.0
  3
*H243
  1

  0
ENDBLK
  5
54D
100
AcDbEntity
  8
0
100
AcDbBlockEnd
  0
BLOCK
  5
550
100
AcDbEntity
  8
0
100
AcDbBlockBegin
  2
*H244
 70
        0
 10
0.0
 20
0.0
 30
0.0
  3
*H244
  1

  0
ENDBLK
  5
551
100
AcDbEntity
  8
0
100
AcDbBlockEnd
  0
BLOCK
  5
554
100
AcDbEntity
  8
0
100
AcDbBlockBegin
  2
*H245
 70
        0
 10
0.0
 20
0.0
 30
0.0
  3
*H245
  1

  0
ENDBLK
  5
555
100
AcDbEntity
  8
0
100
AcDbBlockEnd
  0
BLOCK
  5
558
100
AcDbEntity
  8
0
100
AcDbBlockBegin
  2
*H246
 70
        0
 10
0.0
 20
0.0
 30
0.0
  3
*H246
  1

  0
ENDBLK
  5
559
100
AcDbEntity
  8
0
100
AcDbBlockEnd
  0
BLOCK
  5
55C
100
AcDbEntity
  8
0
100
AcDbBlockBegin
  2
*H247
 70
        0
 10
0.0
 20
0.0
 30
0.0
  3
*H247
  1

  0
ENDBLK
  5
55D
100
AcDbEntity
  8
0
100
AcDbBlockEnd
  0
BLOCK
  5
560
100
AcDbEntity
  8
0
100
AcDbBlockBegin
  2
*H248
 70
        0
 10
0.0
 20
0.0
 30
0.0
  3
*H248
  1

  0
ENDBLK
  5
561
100
AcDbEntity
  8
0
100
AcDbBlockEnd
  0
BLOCK
  5
564
100
AcDbEntity
  8
0
100
AcDbBlockBegin
  2
*H249
 70
        0
 10
0.0
 20
0.0
 30
0.0
  3
*H249
  1

  0
ENDBLK
  5
565
100
AcDbEntity
  8
0
100
AcDbBlockEnd
  0
BLOCK
  5
568
100
AcDbEntity
  8
0
100
AcDbBlockBegin
  2
*H250
 70
        0
 10
0.0
 20
0.0
 30
0.0
  3
*H250
  1

  0
ENDBLK
  5
569
100
AcDbEntity
  8
0
100
AcDbBlockEnd
  0
BLOCK
  5
56C
100
AcDbEntity
  8
0
100
AcDbBlockBegin
  2
*H251
 70
        0
 10
0.0
 20
0.0
 30
0.0
  3
*H251
  1

  0
ENDBLK
  5
56D
100
AcDbEntity
  8
0
100
AcDbBlockEnd
  0
BLOCK
  5
570
100
AcDbEntity
  8
0
100
AcDbBlockBegin
  2
*H252
 70
        0
 10
0.0
 20
0.0
 30
0.0
  3
*H252
  1

  0
ENDBLK
  5
571
100
AcDbEntity
  8
0
100
AcDbBlockEnd
  0
BLOCK
  5
574
100
AcDbEntity
  8
0
100
AcDbBlockBegin
  2
*H253
 70
        0
 10
0.0
 20
0.0
 30
0.0
  3
*H253
  1

  0
ENDBLK
  5
575
100
AcDbEntity
  8
0
100
AcDbBlockEnd
  0
BLOCK
  5
578
100
AcDbEntity
  8
0
100
AcDbBlockBegin
  2
*H254
 70
        0
 10
0.0
 20
0.0
 30
0.0
  3
*H254
  1

  0
ENDBLK
  5
579
100
AcDbEntity
  8
0
100
AcDbBlockEnd
  0
BLOCK
  5
57C
100
AcDbEntity
  8
0
100
AcDbBlockBegin
  2
*H255
 70
        0
 10
0.0
 20
0.0
 30
0.0
  3
*H255
  1

  0
ENDBLK
  5
57D
100
AcDbEntity
  8
0
100
AcDbBlockEnd
  0
BLOCK
  5
580
100
AcDbEntity
  8
0
100
AcDbBlockBegin
  2
*H256
 70
        0
 10
0.0
 20
0.0
 30
0.0
  3
*H256
  1

  0
ENDBLK
  5
581
100
AcDbEntity
  8
0
100
AcDbBlockEnd
  0
BLOCK
  5
584
100
AcDbEntity
  8
0
100
AcDbBlockBegin
  2
*H257
 70
        0
 10
0.0
 20
0.0
 30
0.0
  3
*H257
  1

  0
ENDBLK
  5
585
100
AcDbEntity
  8
0
100
AcDbBlockEnd
  0
BLOCK
  5
588
100
AcDbEntity
  8
0
100
AcDbBlockBegin
  2
*H258
 70
        0
 10
0.0
 20
0.0
 30
0.0
  3
*H258
  1

  0
ENDBLK
  5
589
100
AcDbEntity
  8
0
100
AcDbBlockEnd
  0
BLOCK
  5
58C
100
AcDbEntity
  8
0
100
AcDbBlockBegin
  2
*H259
 70
        0
 10
0.0
 20
0.0
 30
0.0
  3
*H259
  1

  0
ENDBLK
  5
58D
100
AcDbEntity
  8
0
100
AcDbBlockEnd
  0
BLOCK
  5
590
100
AcDbEntity
  8
0
100
AcDbBlockBegin
  2
*H260
 70
        0
 10
0.0
 20
0.0
 30
0.0
  3
*H260
  1

  0
ENDBLK
  5
591
100
AcDbEntity
  8
0
100
AcDbBlockEnd
  0
BLOCK
  5
594
100
AcDbEntity
  8
0
100
AcDbBlockBegin
  2
*H261
 70
        0
 10
0.0
 20
0.0
 30
0.0
  3
*H261
  1

  0
ENDBLK
  5
595
100
AcDbEntity
  8
0
100
AcDbBlockEnd
  0
BLOCK
  5
598
100
AcDbEntity
  8
0
100
AcDbBlockBegin
  2
*H262
 70
        0
 10
0.0
 20
0.0
 30
0.0
  3
*H262
  1

  0
ENDBLK
  5
599
100
AcDbEntity
  8
0
100
AcDbBlockEnd
  0
BLOCK
  5
59C
100
AcDbEntity
  8
0
100
AcDbBlockBegin
  2
*H263
 70
        0
 10
0.0
 20
0.0
 30
0.0
  3
*H263
  1

  0
ENDBLK
  5
59D
100
AcDbEntity
  8
0
100
AcDbBlockEnd
  0
BLOCK
  5
5A0
100
AcDbEntity
  8
0
100
AcDbBlockBegin
  2
*H264
 70
        0
 10
0.0
 20
0.0
 30
0.0
  3
*H264
  1

  0
ENDBLK
  5
5A1
100
AcDbEntity
  8
0
100
AcDbBlockEnd
  0
BLOCK
  5
5A4
100
AcDbEntity
  8
0
100
AcDbBlockBegin
  2
*H265
 70
        0
 10
0.0
 20
0.0
 30
0.0
  3
*H265
  1

  0
ENDBLK
  5
5A5
100
AcDbEntity
  8
0
100
AcDbBlockEnd
  0
BLOCK
  5
5A8
100
AcDbEntity
  8
0
100
AcDbBlockBegin
  2
*H266
 70
        0
 10
0.0
 20
0.0
 30
0.0
  3
*H266
  1

  0
ENDBLK
  5
5A9
100
AcDbEntity
  8
0
100
AcDbBlockEnd
  0
BLOCK
  5
5AD
100
AcDbEntity
  8
0
100
AcDbBlockBegin
  2
*H267
 70
        0
 10
0.0
 20
0.0
 30
0.0
  3
*H267
  1

  0
ENDBLK
  5
5AE
100
AcDbEntity
  8
0
100
AcDbBlockEnd
  0
BLOCK
  5
5B1
100
AcDbEntity
  8
0
100
AcDbBlockBegin
  2
*H268
 70
        0
 10
0.0
 20
0.0
 30
0.0
  3
*H268
  1

  0
ENDBLK
  5
5B2
100
AcDbEntity
  8
0
100
AcDbBlockEnd
  0
BLOCK
  5
5B5
100
AcDbEntity
  8
0
100
AcDbBlockBegin
  2
*H269
 70
        0
 10
0.0
 20
0.0
 30
0.0
  3
*H269
  1

  0
ENDBLK
  5
5B6
100
AcDbEntity
  8
0
100
AcDbBlockEnd
  0
BLOCK
  5
5B9
100
AcDbEntity
  8
0
100
AcDbBlockBegin
  2
*H270
 70
        0
 10
0.0
 20
0.0
 30
0.0
  3
*H270
  1

  0
ENDBLK
  5
5BA
100
AcDbEntity
  8
0
100
AcDbBlockEnd
  0
BLOCK
  5
5BD
100
AcDbEntity
  8
0
100
AcDbBlockBegin
  2
*H271
 70
        0
 10
0.0
 20
0.0
 30
0.0
  3
*H271
  1

  0
ENDBLK
  5
5BE
100
AcDbEntity
  8
0
100
AcDbBlockEnd
  0
BLOCK
  5
5C1
100
AcDbEntity
  8
0
100
AcDbBlockBegin
  2
*H272
 70
        0
 10
0.0
 20
0.0
 30
0.0
  3
*H272
  1

  0
ENDBLK
  5
5C2
100
AcDbEntity
  8
0
100
AcDbBlockEnd
  0
BLOCK
  5
5C5
100
AcDbEntity
  8
0
100
AcDbBlockBegin
  2
*H273
 70
        0
 10
0.0
 20
0.0
 30
0.0
  3
*H273
  1

  0
ENDBLK
  5
5C6
100
AcDbEntity
  8
0
100
AcDbBlockEnd
  0
BLOCK
  5
5C9
100
AcDbEntity
  8
0
100
AcDbBlockBegin
  2
*H274
 70
        0
 10
0.0
 20
0.0
 30
0.0
  3
*H274
  1

  0
ENDBLK
  5
5CA
100
AcDbEntity
  8
0
100
AcDbBlockEnd
  0
BLOCK
  5
5CD
100
AcDbEntity
  8
0
100
AcDbBlockBegin
  2
*H275
 70
        0
 10
0.0
 20
0.0
 30
0.0
  3
*H275
  1

  0
ENDBLK
  5
5CE
100
AcDbEntity
  8
0
100
AcDbBlockEnd
  0
BLOCK
  5
5D1
100
AcDbEntity
  8
0
100
AcDbBlockBegin
  2
*H276
 70
        0
 10
0.0
 20
0.0
 30
0.0
  3
*H276
  1

  0
ENDBLK
  5
5D2
100
AcDbEntity
  8
0
100
AcDbBlockEnd
  0
BLOCK
  5
5D5
100
AcDbEntity
  8
0
100
AcDbBlockBegin
  2
*H277
 70
        0
 10
0.0
 20
0.0
 30
0.0
  3
*H277
  1

  0
ENDBLK
  5
5D6
100
AcDbEntity
  8
0
100
AcDbBlockEnd
  0
BLOCK
  5
5D9
100
AcDbEntity
  8
0
100
AcDbBlockBegin
  2
*H278
 70
        0
 10
0.0
 20
0.0
 30
0.0
  3
*H278
  1

  0
ENDBLK
  5
5DA
100
AcDbEntity
  8
0
100
AcDbBlockEnd
  0
BLOCK
  5
5DD
100
AcDbEntity
  8
0
100
AcDbBlockBegin
  2
*H279
 70
        0
 10
0.0
 20
0.0
 30
0.0
  3
*H279
  1

  0
ENDBLK
  5
5DE
100
AcDbEntity
  8
0
100
AcDbBlockEnd
  0
BLOCK
  5
5E1
100
AcDbEntity
  8
0
100
AcDbBlockBegin
  2
*H280
 70
        0
 10
0.0
 20
0.0
 30
0.0
  3
*H280
  1

  0
ENDBLK
  5
5E2
100
AcDbEntity
  8
0
100
AcDbBlockEnd
  0
BLOCK
  5
5E5
100
AcDbEntity
  8
0
100
AcDbBlockBegin
  2
*H281
 70
        0
 10
0.0
 20
0.0
 30
0.0
  3
*H281
  1

  0
ENDBLK
  5
5E6
100
AcDbEntity
  8
0
100
AcDbBlockEnd
  0
BLOCK
  5
5E9
100
AcDbEntity
  8
0
100
AcDbBlockBegin
  2
*H282
 70
        0
 10
0.0
 20
0.0
 30
0.0
  3
*H282
  1

  0
ENDBLK
  5
5EA
100
AcDbEntity
  8
0
100
AcDbBlockEnd
  0
BLOCK
  5
5ED
100
AcDbEntity
  8
0
100
AcDbBlockBegin
  2
*H283
 70
        0
 10
0.0
 20
0.0
 30
0.0
  3
*H283
  1

  0
ENDBLK
  5
5EE
100
AcDbEntity
  8
0
100
AcDbBlockEnd
  0
BLOCK
  5
5F1
100
AcDbEntity
  8
0
100
AcDbBlockBegin
  2
*H284
 70
        0
 10
0.0
 20
0.0
 30
0.0
  3
*H284
  1

  0
ENDBLK
  5
5F2
100
AcDbEntity
  8
0
100
AcDbBlockEnd
  0
BLOCK
  5
5F5
100
AcDbEntity
  8
0
100
AcDbBlockBegin
  2
*H285
 70
        0
 10
0.0
 20
0.0
 30
0.0
  3
*H285
  1

  0
ENDBLK
  5
5F6
100
AcDbEntity
  8
0
100
AcDbBlockEnd
  0
BLOCK
  5
5F9
100
AcDbEntity
  8
0
100
AcDbBlockBegin
  2
*H286
 70
        0
 10
0.0
 20
0.0
 30
0.0
  3
*H286
  1

  0
ENDBLK
  5
5FA
100
AcDbEntity
  8
0
100
AcDbBlockEnd
  0
BLOCK
  5
5FD
100
AcDbEntity
  8
0
100
AcDbBlockBegin
  2
*H287
 70
        0
 10
0.0
 20
0.0
 30
0.0
  3
*H287
  1

  0
ENDBLK
  5
5FE
100
AcDbEntity
  8
0
100
AcDbBlockEnd
  0
BLOCK
  5
601
100
AcDbEntity
  8
0
100
AcDbBlockBegin
  2
*H288
 70
        0
 10
0.0
 20
0.0
 30
0.0
  3
*H288
  1

  0
ENDBLK
  5
602
100
AcDbEntity
  8
0
100
AcDbBlockEnd
  0
BLOCK
  5
605
100
AcDbEntity
  8
0
100
AcDbBlockBegin
  2
*H289
 70
        0
 10
0.0
 20
0.0
 30
0.0
  3
*H289
  1

  0
ENDBLK
  5
606
100
AcDbEntity
  8
0
100
AcDbBlockEnd
  0
BLOCK
  5
609
100
AcDbEntity
  8
0
100
AcDbBlockBegin
  2
*H290
 70
        0
 10
0.0
 20
0.0
 30
0.0
  3
*H290
  1

  0
ENDBLK
  5
60A
100
AcDbEntity
  8
0
100
AcDbBlockEnd
  0
BLOCK
  5
60D
100
AcDbEntity
  8
0
100
AcDbBlockBegin
  2
*H291
 70
        0
 10
0.0
 20
0.0
 30
0.0
  3
*H291
  1

  0
ENDBLK
  5
60E
100
AcDbEntity
  8
0
100
AcDbBlockEnd
  0
BLOCK
  5
611
100
AcDbEntity
  8
0
100
AcDbBlockBegin
  2
*H292
 70
        0
 10
0.0
 20
0.0
 30
0.0
  3
*H292
  1

  0
ENDBLK
  5
612
100
AcDbEntity
  8
0
100
AcDbBlockEnd
  0
BLOCK
  5
615
100
AcDbEntity
  8
0
100
AcDbBlockBegin
  2
*H293
 70
        0
 10
0.0
 20
0.0
 30
0.0
  3
*H293
  1

  0
ENDBLK
  5
616
100
AcDbEntity
  8
0
100
AcDbBlockEnd
  0
BLOCK
  5
619
100
AcDbEntity
  8
0
100
AcDbBlockBegin
  2
*H294
 70
        0
 10
0.0
 20
0.0
 30
0.0
  3
*H294
  1

  0
ENDBLK
  5
61A
100
AcDbEntity
  8
0
100
AcDbBlockEnd
  0
BLOCK
  5
61D
100
AcDbEntity
  8
0
100
AcDbBlockBegin
  2
*H295
 70
        0
 10
0.0
 20
0.0
 30
0.0
  3
*H295
  1

  0
ENDBLK
  5
61E
100
AcDbEntity
  8
0
100
AcDbBlockEnd
  0
BLOCK
  5
621
100
AcDbEntity
  8
0
100
AcDbBlockBegin
  2
*H296
 70
        0
 10
0.0
 20
0.0
 30
0.0
  3
*H296
  1

  0
ENDBLK
  5
622
100
AcDbEntity
  8
0
100
AcDbBlockEnd
  0
BLOCK
  5
68E
100
AcDbEntity
  8
0
100
AcDbBlockBegin
  2
*H297
 70
        0
 10
0.0
 20
0.0
 30
0.0
  3
*H297
  1

  0
ENDBLK
  5
68F
100
AcDbEntity
  8
0
100
AcDbBlockEnd
  0
BLOCK
  5
706
100
AcDbEntity
  8
0
100
AcDbBlockBegin
  2
*H298
 70
        0
 10
0.0
 20
0.0
 30
0.0
  3
*H298
  1

  0
ENDBLK
  5
707
100
AcDbEntity
  8
0
100
AcDbBlockEnd
  0
BLOCK
  5
70A
100
AcDbEntity
  8
0
100
AcDbBlockBegin
  2
*H299
 70
        0
 10
0.0
 20
0.0
 30
0.0
  3
*H299
  1

  0
ENDBLK
  5
70B
100
AcDbEntity
  8
0
100
AcDbBlockEnd
  0
BLOCK
  5
70E
100
AcDbEntity
  8
0
100
AcDbBlockBegin
  2
*H300
 70
        0
 10
0.0
 20
0.0
 30
0.0
  3
*H300
  1

  0
ENDBLK
  5
70F
100
AcDbEntity
  8
0
100
AcDbBlockEnd
  0
BLOCK
  5
712
100
AcDbEntity
  8
0
100
AcDbBlockBegin
  2
*H301
 70
        0
 10
0.0
 20
0.0
 30
0.0
  3
*H301
  1

  0
ENDBLK
  5
713
100
AcDbEntity
  8
0
100
AcDbBlockEnd
  0
BLOCK
  5
716
100
AcDbEntity
  8
0
100
AcDbBlockBegin
  2
*H302
 70
        0
 10
0.0
 20
0.0
 30
0.0
  3
*H302
  1

  0
ENDBLK
  5
717
100
AcDbEntity
  8
0
100
AcDbBlockEnd
  0
BLOCK
  5
722
100
AcDbEntity
  8
0
100
AcDbBlockBegin
  2
*H303
 70
        0
 10
0.0
 20
0.0
 30
0.0
  3
*H303
  1

  0
LINE
  5
723
100
AcDbEntity
  8
0
  6
SOLID
 62
        7
100
AcDbLine
 10
1267.530639648
 20
48.331085205
 30
0.0
 11
1267.459960938
 21
48.401824951
 31
0.0
  0
LINE
  5
724
100
AcDbEntity
  8
0
  6
SOLID
 62
        7
100
AcDbLine
 10
1267.459960938
 20
48.543243408
 30
0.0
 11
1267.672119141
 21
48.331115723
 31
0.0
  0
LINE
  5
725
100
AcDbEntity
  8
0
  6
SOLID
 62
        7
100
AcDbLine
 10
1267.813476563
 20
48.331115723
 30
0.0
 11
1267.459960938
 21
48.684661865
 31
0.0
  0
LINE
  5
726
100
AcDbEntity
  8
0
  6
SOLID
 62
        7
100
AcDbLine
 10
1267.459960938
 20
48.826080322
 30
0.0
 11
1267.954956055
 21
48.331085205
 31
0.0
  0
LINE
  5
727
100
AcDbEntity
  8
0
  6
SOLID
 62
        7
100
AcDbLine
 10
1268.096313477
 20
48.331085205
 30
0.0
 11
1267.459960938
 21
48.967498779
 31
0.0
  0
LINE
  5
728
100
AcDbEntity
  8
0
  6
SOLID
 62
        7
100
AcDbLine
 10
1267.459960938
 20
49.108917236
 30
0.0
 11
1268.237792969
 21
48.331115723
 31
0.0
  0
LINE
  5
729
100
AcDbEntity
  8
0
  6
SOLID
 62
        7
100
AcDbLine
 10
1268.379150391
 20
48.331115723
 30
0.0
 11
1267.459960938
 21
49.250366211
 31
0.0
  0
LINE
  5
72A
100
AcDbEntity
  8
0
  6
SOLID
 62
        7
100
AcDbLine
 10
1267.459960938
 20
49.39175415
 30
0.0
 11
1268.520629883
 21
48.331085205
 31
0.0
  0
LINE
  5
72B
100
AcDbEntity
  8
0
  6
SOLID
 62
        7
100
AcDbLine
 10
1268.661987305
 20
48.331085205
 30
0.0
 11
1267.459960938
 21
49.533172607
 31
0.0
  0
LINE
  5
72C
100
AcDbEntity
  8
0
  6
SOLID
 62
        7
100
AcDbLine
 10
1267.459960938
 20
49.674621582
 30
0.0
 11
1268.803466797
 21
48.331115723
 31
0.0
  0
LINE
  5
72D
100
AcDbEntity
  8
0
  6
SOLID
 62
        7
100
AcDbLine
 10
1268.944824219
 20
48.331115723
 30
0.0
 11
1267.459960938
 21
49.816009521
 31
0.0
  0
LINE
  5
72E
100
AcDbEntity
  8
0
  6
SOLID
 62
        7
100
AcDbLine
 10
1267.459960938
 20
49.957427979
 30
0.0
 11
1269.086303711
 21
48.331085205
 31
0.0
  0
LINE
  5
72F
100
AcDbEntity
  8
0
  6
SOLID
 62
        7
100
AcDbLine
 10
1269.227661133
 20
48.331085205
 30
0.0
 11
1267.459960938
 21
50.098846436
 31
0.0
  0
LINE
  5
730
100
AcDbEntity
  8
0
  6
SOLID
 62
        7
100
AcDbLine
 10
1267.459960938
 20
50.24029541
 30
0.0
 11
1269.369140625
 21
48.331085205
 31
0.0
  0
LINE
  5
731
100
AcDbEntity
  8
0
  6
SOLID
 62
        7
100
AcDbLine
 10
1269.510498047
 20
48.331115723
 30
0.0
 11
1267.459960938
 21
50.381713867
 31
0.0
  0
LINE
  5
732
100
AcDbEntity
  8
0
  6
SOLID
 62
        7
100
AcDbLine
 10
1267.459960938
 20
50.523101807
 30
0.0
 11
1269.651977539
 21
48.331085205
 31
0.0
  0
LINE
  5
733
100
AcDbEntity
  8
0
  6
SOLID
 62
        7
100
AcDbLine
 10
1269.793334961
 20
48.331115723
 30
0.0
 11
1267.459960938
 21
50.664550781
 31
0.0
  0
LINE
  5
734
100
AcDbEntity
  8
0
  6
SOLID
 62
        7
100
AcDbLine
 10
1267.459960938
 20
50.805969238
 30
0.0
 11
1269.934814453
 21
48.331085205
 31
0.0
  0
LINE
  5
735
100
AcDbEntity
  8
0
  6
SOLID
 62
        7
100
AcDbLine
 10
1270.076171875
 20
48.331115723
 30
0.0
 11
1267.459960938
 21
50.947387695
 31
0.0
  0
LINE
  5
736
100
AcDbEntity
  8
0
  6
SOLID
 62
        7
100
AcDbLine
 10
1267.459960938
 20
51.088806152
 30
0.0
 11
1270.217651367
 21
48.331115723
 31
0.0
  0
LINE
  5
737
100
AcDbEntity
  8
0
  6
SOLID
 62
        7
100
AcDbLine
 10
1270.359008789
 20
48.331115723
 30
0.0
 11
1267.459960938
 21
51.230224609
 31
0.0
  0
LINE
  5
738
100
AcDbEntity
  8
0
  6
SOLID
 62
        7
100
AcDbLine
 10
1267.508056641
 20
51.323486328
 30
0.0
 11
1270.452392578
 21
48.379211426
 31
0.0
  0
LINE
  5
739
100
AcDbEntity
  8
0
  6
SOLID
 62
        7
100
AcDbLine
 10
1270.42578125
 20
48.547271729
 30
0.0
 11
1267.676147461
 21
51.296875
 31
0.0
  0
LINE
  5
73A
100
AcDbEntity
  8
0
  6
SOLID
 62
        7
100
AcDbLine
 10
1267.844116211
 20
51.270263672
 30
0.0
 11
1270.399169922
 21
48.715301514
 31
0.0
  0
LINE
  5
73B
100
AcDbEntity
  8
0
  6
SOLID
 62
        7
100
AcDbLine
 10
1270.372558594
 20
48.883331299
 30
0.0
 11
1268.012207031
 21
51.243652344
 31
0.0
  0
LINE
  5
73C
100
AcDbEntity
  8
0
  6
SOLID
 62
        7
100
AcDbLine
 10
1268.180297852
 20
51.21697998
 30
0.0
 11
1270.345947266
 21
49.051361084
 31
0.0
  0
LINE
  5
73D
100
AcDbEntity
  8
0
  6
SOLID
 62
        7
100
AcDbLine
 10
1270.319335938
 20
49.219390869
 30
0.0
 11
1268.348266602
 21
51.190368652
 31
0.0
  0
LINE
  5
73E
100
AcDbEntity
  8
0
  6
SOLID
 62
        7
100
AcDbLine
 10
1268.608886719
 20
51.07119751
 30
0.0
 11
1270.200073242
 21
49.479980469
 31
0.0
  0
LINE
  5
73F
100
AcDbEntity
  8
0
  6
SOLID
 62
        7
100
AcDbLine
 10
1270.053222656
 20
49.768310547
 30
0.0
 11
1268.897216797
 21
50.924316406
 31
0.0
  0
LINE
  5
740
100
AcDbEntity
  8
0
  6
SOLID
 62
        7
100
AcDbLine
 10
1269.185546875
 20
50.777404785
 30
0.0
 11
1269.90625
 21
50.056640625
 31
0.0
  0
ENDBLK
  5
741
100
AcDbEntity
  8
0
100
AcDbBlockEnd
  0
BLOCK
  5
744
100
AcDbEntity
  8
0
100
AcDbBlockBegin
  2
*H304
 70
        0
 10
0.0
 20
0.0
 30
0.0
  3
*H304
  1

  0
LINE
  5
745
100
AcDbEntity
  8
0
  6
SOLID
 62
        7
100
AcDbLine
 10
1265.714477539
 20
45.915496826
 30
0.0
 11
1264.981933594
 21
46.648071289
 31
0.0
  0
LINE
  5
746
100
AcDbEntity
  8
0
  6
SOLID
 62
        7
100
AcDbLine
 10
1264.77331543
 20
46.99810791
 30
0.0
 11
1266.119750977
 21
45.651702881
 31
0.0
  0
LINE
  5
747
100
AcDbEntity
  8
0
  6
SOLID
 62
        7
100
AcDbLine
 10
1266.345214844
 20
45.567626953
 30
0.0
 11
1264.676025391
 21
47.236785889
 31
0.0
  0
LINE
  5
748
100
AcDbEntity
  8
0
  6
SOLID
 62
        7
100
AcDbLine
 10
1264.591796875
 20
47.462402344
 30
0.0
 11
1266.570678711
 21
45.483520508
 31
0.0
  0
LINE
  5
749
100
AcDbEntity
  8
0
  6
SOLID
 62
        7
100
AcDbLine
 10
1266.783691406
 20
45.41192627
 30
0.0
 11
1264.548095703
 21
47.647583008
 31
0.0
  0
LINE
  5
74A
100
AcDbEntity
  8
0
  6
SOLID
 62
        7
100
AcDbLine
 10
1264.504272461
 20
47.832824707
 30
0.0
 11
1266.944335938
 21
45.392700195
 31
0.0
  0
LINE
  5
74B
100
AcDbEntity
  8
0
  6
SOLID
 62
        7
100
AcDbLine
 10
1267.104980469
 20
45.373535156
 30
0.0
 11
1264.486206055
 21
47.99230957
 31
0.0
  0
LINE
  5
74C
100
AcDbEntity
  8
0
  6
SOLID
 62
        7
100
AcDbLine
 10
1264.474365234
 20
48.145568848
 30
0.0
 11
1267.265625
 21
45.354309082
 31
0.0
  0
LINE
  5
74D
100
AcDbEntity
  8
0
  6
SOLID
 62
        7
100
AcDbLine
 10
1267.426269531
 20
45.335144043
 30
0.0
 11
1264.462402344
 21
48.29888916
 31
0.0
  0
LINE
  5
74E
100
AcDbEntity
  8
0
  6
SOLID
 62
        7
100
AcDbLine
 10
1264.571655273
 20
48.331115723
 30
0.0
 11
1267.459960938
 21
45.442810059
 31
0.0
  0
LINE
  5
74F
100
AcDbEntity
  8
0
  6
SOLID
 62
        7
100
AcDbLine
 10
1267.459960938
 20
45.584228516
 30
0.0
 11
1264.713134766
 21
48.331115723
 31
0.0
  0
LINE
  5
750
100
AcDbEntity
  8
0
  6
SOLID
 62
        7
100
AcDbLine
 10
1264.854492188
 20
48.331115723
 30
0.0
 11
1267.459960938
 21
45.725646973
 31
0.0
  0
LINE
  5
751
100
AcDbEntity
  8
0
  6
SOLID
 62
        7
100
AcDbLine
 10
1267.459960938
 20
45.86706543
 30
0.0
 11
1264.99597168
 21
48.331085205
 31
0.0
  0
LINE
  5
752
100
AcDbEntity
  8
0
  6
SOLID
 62
        7
100
AcDbLine
 10
1265.137329102
 20
48.331115723
 30
0.0
 11
1267.459960938
 21
46.008483887
 31
0.0
  0
LINE
  5
753
100
AcDbEntity
  8
0
  6
SOLID
 62
        7
100
AcDbLine
 10
1267.459960938
 20
46.149902344
 30
0.0
 11
1265.278808594
 21
48.331115723
 31
0.0
  0
LINE
  5
754
100
AcDbEntity
  8
0
  6
SOLID
 62
        7
100
AcDbLine
 10
1265.420166016
 20
48.331115723
 30
0.0
 11
1267.459960938
 21
46.291320801
 31
0.0
  0
LINE
  5
755
100
AcDbEntity
  8
0
  6
SOLID
 62
        7
100
AcDbLine
 10
1267.459960938
 20
46.432739258
 30
0.0
 11
1265.561645508
 21
48.331085205
 31
0.0
  0
LINE
  5
756
100
AcDbEntity
  8
0
  6
SOLID
 62
        7
100
AcDbLine
 10
1265.70300293
 20
48.331115723
 30
0.0
 11
1267.459960938
 21
46.574188232
 31
0.0
  0
LINE
  5
757
100
AcDbEntity
  8
0
  6
SOLID
 62
        7
100
AcDbLine
 10
1267.459960938
 20
46.715606689
 30
0.0
 11
1265.844482422
 21
48.331115723
 31
0.0
  0
LINE
  5
758
100
AcDbEntity
  8
0
  6
SOLID
 62
        7
100
AcDbLine
 10
1265.985839844
 20
48.331115723
 30
0.0
 11
1267.459960938
 21
46.857025146
 31
0.0
  0
LINE
  5
759
100
AcDbEntity
  8
0
  6
SOLID
 62
        7
100
AcDbLine
 10
1267.459960938
 20
46.998443604
 30
0.0
 11
1266.127319336
 21
48.331085205
 31
0.0
  0
LINE
  5
75A
100
AcDbEntity
  8
0
  6
SOLID
 62
        7
100
AcDbLine
 10
1266.268676758
 20
48.331115723
 30
0.0
 11
1267.459960938
 21
47.139862061
 31
0.0
  0
LINE
  5
75B
100
AcDbEntity
  8
0
  6
SOLID
 62
        7
100
AcDbLine
 10
1267.459960938
 20
47.281280518
 30
0.0
 11
1266.41015625
 21
48.331115723
 31
0.0
  0
LINE
  5
75C
100
AcDbEntity
  8
0
  6
SOLID
 62
        7
100
AcDbLine
 10
1266.551513672
 20
48.331085205
 30
0.0
 11
1267.459960938
 21
47.422698975
 31
0.0
  0
LINE
  5
75D
100
AcDbEntity
  8
0
  6
SOLID
 62
        7
100
AcDbLine
 10
1267.459960938
 20
47.564117432
 30
0.0
 11
1266.692993164
 21
48.331085205
 31
0.0
  0
LINE
  5
75E
100
AcDbEntity
  8
0
  6
SOLID
 62
        7
100
AcDbLine
 10
1266.834350586
 20
48.331115723
 30
0.0
 11
1267.459960938
 21
47.705535889
 31
0.0
  0
LINE
  5
75F
100
AcDbEntity
  8
0
  6
SOLID
 62
        7
100
AcDbLine
 10
1267.459960938
 20
47.846954346
 30
0.0
 11
1266.975830078
 21
48.331115723
 31
0.0
  0
LINE
  5
760
100
AcDbEntity
  8
0
  6
SOLID
 62
        7
100
AcDbLine
 10
1267.1171875
 20
48.331085205
 30
0.0
 11
1267.459960938
 21
47.988372803
 31
0.0
  0
LINE
  5
761
100
AcDbEntity
  8
0
  6
SOLID
 62
        7
100
AcDbLine
 10
1267.459960938
 20
48.12979126
 30
0.0
 11
1267.258666992
 21
48.331085205
 31
0.0
  0
LINE
  5
762
100
AcDbEntity
  8
0
  6
SOLID
 62
        7
100
AcDbLine
 10
1267.400024414
 20
48.331115723
 30
0.0
 11
1267.459960938
 21
48.271209717
 31
0.0
  0
ENDBLK
  5
763
100
AcDbEntity
  8
0
100
AcDbBlockEnd
  0
BLOCK
  5
76B
100
AcDbEntity
  8
0
100
AcDbBlockBegin
  2
*H305
 70
        0
 10
0.0
 20
0.0
 30
0.0
  3
*H305
  1

  0
ENDBLK
  5
76C
100
AcDbEntity
  8
0
100
AcDbBlockEnd
  0
BLOCK
  5
794
100
AcDbEntity
  8
0
100
AcDbBlockBegin
  2
*H306
 70
        0
 10
0.0
 20
0.0
 30
0.0
  3
*H306
  1

  0
LINE
  5
795
100
AcDbEntity
  8
0
  6
SOLID
 62
        7
100
AcDbLine
 10
1115.714477539
 20
125.915496826
 30
0.0
 11
1114.981933594
 21
126.648071289
 31
0.0
  0
LINE
  5
796
100
AcDbEntity
  8
0
  6
SOLID
 62
        7
100
AcDbLine
 10
1114.77331543
 20
126.99810791
 30
0.0
 11
1116.119750977
 21
125.651702881
 31
0.0
  0
LINE
  5
797
100
AcDbEntity
  8
0
  6
SOLID
 62
        7
100
AcDbLine
 10
1116.345214844
 20
125.567626953
 30
0.0
 11
1114.676025391
 21
127.236785889
 31
0.0
  0
LINE
  5
798
100
AcDbEntity
  8
0
  6
SOLID
 62
        7
100
AcDbLine
 10
1114.591796875
 20
127.462402344
 30
0.0
 11
1116.570678711
 21
125.483520508
 31
0.0
  0
LINE
  5
799
100
AcDbEntity
  8
0
  6
SOLID
 62
        7
100
AcDbLine
 10
1116.783691406
 20
125.41192627
 30
0.0
 11
1114.548095703
 21
127.647583008
 31
0.0
  0
LINE
  5
79A
100
AcDbEntity
  8
0
  6
SOLID
 62
        7
100
AcDbLine
 10
1114.504272461
 20
127.832824707
 30
0.0
 11
1116.944335938
 21
125.392700195
 31
0.0
  0
LINE
  5
79B
100
AcDbEntity
  8
0
  6
SOLID
 62
        7
100
AcDbLine
 10
1117.104980469
 20
125.373535156
 30
0.0
 11
1114.486206055
 21
127.99230957
 31
0.0
  0
LINE
  5
79C
100
AcDbEntity
  8
0
  6
SOLID
 62
        7
100
AcDbLine
 10
1114.474365234
 20
128.145568848
 30
0.0
 11
1117.265625
 21
125.354309082
 31
0.0
  0
LINE
  5
79D
100
AcDbEntity
  8
0
  6
SOLID
 62
        7
100
AcDbLine
 10
1117.426269531
 20
125.335144043
 30
0.0
 11
1114.462402344
 21
128.29888916
 31
0.0
  0
LINE
  5
79E
100
AcDbEntity
  8
0
  6
SOLID
 62
        7
100
AcDbLine
 10
1114.571655273
 20
128.331115723
 30
0.0
 11
1117.459960938
 21
125.442810059
 31
0.0
  0
LINE
  5
79F
100
AcDbEntity
  8
0
  6
SOLID
 62
        7
100
AcDbLine
 10
1117.459960938
 20
125.584228516
 30
0.0
 11
1114.713134766
 21
128.331115723
 31
0.0
  0
LINE
  5
7A0
100
AcDbEntity
  8
0
  6
SOLID
 62
        7
100
AcDbLine
 10
1114.854492188
 20
128.331115723
 30
0.0
 11
1117.459960938
 21
125.725646973
 31
0.0
  0
LINE
  5
7A1
100
AcDbEntity
  8
0
  6
SOLID
 62
        7
100
AcDbLine
 10
1117.459960938
 20
125.86706543
 30
0.0
 11
1114.99597168
 21
128.331085205
 31
0.0
  0
LINE
  5
7A2
100
AcDbEntity
  8
0
  6
SOLID
 62
        7
100
AcDbLine
 10
1115.137329102
 20
128.331115723
 30
0.0
 11
1117.459960938
 21
126.008483887
 31
0.0
  0
LINE
  5
7A3
100
AcDbEntity
  8
0
  6
SOLID
 62
        7
100
AcDbLine
 10
1117.459960938
 20
126.149902344
 30
0.0
 11
1115.278808594
 21
128.331115723
 31
0.0
  0
LINE
  5
7A4
100
AcDbEntity
  8
0
  6
SOLID
 62
        7
100
AcDbLine
 10
1115.420166016
 20
128.331115723
 30
0.0
 11
1117.459960938
 21
126.291320801
 31
0.0
  0
LINE
  5
7A5
100
AcDbEntity
  8
0
  6
SOLID
 62
        7
100
AcDbLine
 10
1117.459960938
 20
126.432739258
 30
0.0
 11
1115.561645508
 21
128.331085205
 31
0.0
  0
LINE
  5
7A6
100
AcDbEntity
  8
0
  6
SOLID
 62
        7
100
AcDbLine
 10
1115.70300293
 20
128.331115723
 30
0.0
 11
1117.459960938
 21
126.574188232
 31
0.0
  0
LINE
  5
7A7
100
AcDbEntity
  8
0
  6
SOLID
 62
        7
100
AcDbLine
 10
1117.459960938
 20
126.715606689
 30
0.0
 11
1115.844482422
 21
128.331115723
 31
0.0
  0
LINE
  5
7A8
100
AcDbEntity
  8
0
  6
SOLID
 62
        7
100
AcDbLine
 10
1115.985839844
 20
128.331115723
 30
0.0
 11
1117.459960938
 21
126.857025146
 31
0.0
  0
LINE
  5
7A9
100
AcDbEntity
  8
0
  6
SOLID
 62
        7
100
AcDbLine
 10
1117.459960938
 20
126.998443604
 30
0.0
 11
1116.127319336
 21
128.331085205
 31
0.0
  0
LINE
  5
7AA
100
AcDbEntity
  8
0
  6
SOLID
 62
        7
100
AcDbLine
 10
1116.268676758
 20
128.331115723
 30
0.0
 11
1117.459960938
 21
127.139862061
 31
0.0
  0
LINE
  5
7AB
100
AcDbEntity
  8
0
  6
SOLID
 62
        7
100
AcDbLine
 10
1117.459960938
 20
127.281280518
 30
0.0
 11
1116.41015625
 21
128.331115723
 31
0.0
  0
LINE
  5
7AC
100
AcDbEntity
  8
0
  6
SOLID
 62
        7
100
AcDbLine
 10
1116.551513672
 20
128.331085205
 30
0.0
 11
1117.459960938
 21
127.422698975
 31
0.0
  0
LINE
  5
7AD
100
AcDbEntity
  8
0
  6
SOLID
 62
        7
100
AcDbLine
 10
1117.459960938
 20
127.564117432
 30
0.0
 11
1116.692993164
 21
128.331085205
 31
0.0
  0
LINE
  5
7AE
100
AcDbEntity
  8
0
  6
SOLID
 62
        7
100
AcDbLine
 10
1116.834350586
 20
128.331115723
 30
0.0
 11
1117.459960938
 21
127.705535889
 31
0.0
  0
LINE
  5
7AF
100
AcDbEntity
  8
0
  6
SOLID
 62
        7
100
AcDbLine
 10
1117.459960938
 20
127.846954346
 30
0.0
 11
1116.975830078
 21
128.331115723
 31
0.0
  0
LINE
  5
7B0
100
AcDbEntity
  8
0
  6
SOLID
 62
        7
100
AcDbLine
 10
1117.1171875
 20
128.331085205
 30
0.0
 11
1117.459960938
 21
127.988372803
 31
0.0
  0
LINE
  5
7B1
100
AcDbEntity
  8
0
  6
SOLID
 62
        7
100
AcDbLine
 10
1117.459960938
 20
128.12979126
 30
0.0
 11
1117.258666992
 21
128.331085205
 31
0.0
  0
LINE
  5
7B2
100
AcDbEntity
  8
0
  6
SOLID
 62
        7
100
AcDbLine
 10
1117.400024414
 20
128.331115723
 30
0.0
 11
1117.459960938
 21
128.271209717
 31
0.0
  0
ENDBLK
  5
7B3
100
AcDbEntity
  8
0
100
AcDbBlockEnd
  0
BLOCK
  5
7F7
100
AcDbEntity
  8
0
100
AcDbBlockBegin
  2
*H307
 70
        0
 10
0.0
 20
0.0
 30
0.0
  3
*H307
  1

  0
LINE
  5
7F8
100
AcDbEntity
  8
0
  6
SOLID
 62
        7
100
AcDbLine
 10
1117.530639648
 20
128.331085205
 30
0.0
 11
1117.459960938
 21
128.401824951
 31
0.0
  0
LINE
  5
7F9
100
AcDbEntity
  8
0
  6
SOLID
 62
        7
100
AcDbLine
 10
1117.459960938
 20
128.543243408
 30
0.0
 11
1117.672119141
 21
128.331115723
 31
0.0
  0
LINE
  5
7FA
100
AcDbEntity
  8
0
  6
SOLID
 62
        7
100
AcDbLine
 10
1117.813476563
 20
128.331115723
 30
0.0
 11
1117.459960938
 21
128.684661865
 31
0.0
  0
LINE
  5
7FB
100
AcDbEntity
  8
0
  6
SOLID
 62
        7
100
AcDbLine
 10
1117.459960938
 20
128.826080322
 30
0.0
 11
1117.954956055
 21
128.331085205
 31
0.0
  0
LINE
  5
7FC
100
AcDbEntity
  8
0
  6
SOLID
 62
        7
100
AcDbLine
 10
1118.096313477
 20
128.331085205
 30
0.0
 11
1117.459960938
 21
128.967498779
 31
0.0
  0
LINE
  5
7FD
100
AcDbEntity
  8
0
  6
SOLID
 62
        7
100
AcDbLine
 10
1117.459960938
 20
129.108917236
 30
0.0
 11
1118.237792969
 21
128.331115723
 31
0.0
  0
LINE
  5
7FE
100
AcDbEntity
  8
0
  6
SOLID
 62
        7
100
AcDbLine
 10
1118.379150391
 20
128.331115723
 30
0.0
 11
1117.459960938
 21
129.250366211
 31
0.0
  0
LINE
  5
7FF
100
AcDbEntity
  8
0
  6
SOLID
 62
        7
100
AcDbLine
 10
1117.459960938
 20
129.39175415
 30
0.0
 11
1118.520629883
 21
128.331085205
 31
0.0
  0
LINE
  5
800
100
AcDbEntity
  8
0
  6
SOLID
 62
        7
100
AcDbLine
 10
1118.661987305
 20
128.331085205
 30
0.0
 11
1117.459960938
 21
129.533172607
 31
0.0
  0
LINE
  5
801
100
AcDbEntity
  8
0
  6
SOLID
 62
        7
100
AcDbLine
 10
1117.459960938
 20
129.674621582
 30
0.0
 11
1118.803466797
 21
128.331115723
 31
0.0
  0
LINE
  5
802
100
AcDbEntity
  8
0
  6
SOLID
 62
        7
100
AcDbLine
 10
1118.944824219
 20
128.331115723
 30
0.0
 11
1117.459960938
 21
129.816009521
 31
0.0
  0
LINE
  5
803
100
AcDbEntity
  8
0
  6
SOLID
 62
        7
100
AcDbLine
 10
1117.459960938
 20
129.957427979
 30
0.0
 11
1119.086303711
 21
128.331085205
 31
0.0
  0
LINE
  5
804
100
AcDbEntity
  8
0
  6
SOLID
 62
        7
100
AcDbLine
 10
1119.227661133
 20
128.331085205
 30
0.0
 11
1117.459960938
 21
130.098846436
 31
0.0
  0
LINE
  5
805
100
AcDbEntity
  8
0
  6
SOLID
 62
        7
100
AcDbLine
 10
1117.459960938
 20
130.24029541
 30
0.0
 11
1119.369140625
 21
128.331085205
 31
0.0
  0
LINE
  5
806
100
AcDbEntity
  8
0
  6
SOLID
 62
        7
100
AcDbLine
 10
1119.510498047
 20
128.331115723
 30
0.0
 11
1117.459960938
 21
130.381713867
 31
0.0
  0
LINE
  5
807
100
AcDbEntity
  8
0
  6
SOLID
 62
        7
100
AcDbLine
 10
1117.459960938
 20
130.523101807
 30
0.0
 11
1119.651977539
 21
128.331085205
 31
0.0
  0
LINE
  5
808
100
AcDbEntity
  8
0
  6
SOLID
 62
        7
100
AcDbLine
 10
1119.793334961
 20
128.331115723
 30
0.0
 11
1117.459960938
 21
130.664550781
 31
0.0
  0
LINE
  5
809
100
AcDbEntity
  8
0
  6
SOLID
 62
        7
100
AcDbLine
 10
1117.459960938
 20
130.805969238
 30
0.0
 11
1119.934814453
 21
128.331085205
 31
0.0
  0
LINE
  5
80A
100
AcDbEntity
  8
0
  6
SOLID
 62
        7
100
AcDbLine
 10
1120.076171875
 20
128.331115723
 30
0.0
 11
1117.459960938
 21
130.947387695
 31
0.0
  0
LINE
  5
80B
100
AcDbEntity
  8
0
  6
SOLID
 62
        7
100
AcDbLine
 10
1117.459960938
 20
131.088806152
 30
0.0
 11
1120.217651367
 21
128.331115723
 31
0.0
  0
LINE
  5
80C
100
AcDbEntity
  8
0
  6
SOLID
 62
        7
100
AcDbLine
 10
1120.359008789
 20
128.331115723
 30
0.0
 11
1117.459960938
 21
131.230224609
 31
0.0
  0
LINE
  5
80D
100
AcDbEntity
  8
0
  6
SOLID
 62
        7
100
AcDbLine
 10
1117.508056641
 20
131.323486328
 30
0.0
 11
1120.452392578
 21
128.379211426
 31
0.0
  0
LINE
  5
80E
100
AcDbEntity
  8
0
  6
SOLID
 62
        7
100
AcDbLine
 10
1120.42578125
 20
128.547271729
 30
0.0
 11
1117.676147461
 21
131.296875
 31
0.0
  0
LINE
  5
80F
100
AcDbEntity
  8
0
  6
SOLID
 62
        7
100
AcDbLine
 10
1117.844116211
 20
131.270263672
 30
0.0
 11
1120.399169922
 21
128.715301514
 31
0.0
  0
LINE
  5
810
100
AcDbEntity
  8
0
  6
SOLID
 62
        7
100
AcDbLine
 10
1120.372558594
 20
128.883331299
 30
0.0
 11
1118.012207031
 21
131.243652344
 31
0.0
  0
LINE
  5
811
100
AcDbEntity
  8
0
  6
SOLID
 62
        7
100
AcDbLine
 10
1118.180297852
 20
131.21697998
 30
0.0
 11
1120.345947266
 21
129.051361084
 31
0.0
  0
LINE
  5
812
100
AcDbEntity
  8
0
  6
SOLID
 62
        7
100
AcDbLine
 10
1120.319335938
 20
129.219390869
 30
0.0
 11
1118.348266602
 21
131.190368652
 31
0.0
  0
LINE
  5
813
100
AcDbEntity
  8
0
  6
SOLID
 62
        7
100
AcDbLine
 10
1118.608886719
 20
131.07119751
 30
0.0
 11
1120.200073242
 21
129.479980469
 31
0.0
  0
LINE
  5
814
100
AcDbEntity
  8
0
  6
SOLID
 62
        7
100
AcDbLine
 10
1120.053222656
 20
129.768310547
 30
0.0
 11
1118.897216797
 21
130.924316406
 31
0.0
  0
LINE
  5
815
100
AcDbEntity
  8
0
  6
SOLID
 62
        7
100
AcDbLine
 10
1119.185546875
 20
130.777404785
 30
0.0
 11
1119.90625
 21
130.056640625
 31
0.0
  0
ENDBLK
  5
816
100
AcDbEntity
  8
0
100
AcDbBlockEnd
  0
BLOCK
  5
819
100
AcDbEntity
  8
0
100
AcDbBlockBegin
  2
*H308
 70
        0
 10
0.0
 20
0.0
 30
0.0
  3
*H308
  1

  0
ENDBLK
  5
81A
100
AcDbEntity
  8
0
100
AcDbBlockEnd
  0
BLOCK
  5
81F
100
AcDbEntity
  8
0
100
AcDbBlockBegin
  2
*H309
 70
        0
 10
0.0
 20
0.0
 30
0.0
  3
*H309
  1

  0
ENDBLK
  5
820
100
AcDbEntity
  8
0
100
AcDbBlockEnd
  0
BLOCK
  5
823
100
AcDbEntity
  8
0
100
AcDbBlockBegin
  2
*H310
 70
        0
 10
0.0
 20
0.0
 30
0.0
  3
*H310
  1

  0
ENDBLK
  5
824
100
AcDbEntity
  8
0
100
AcDbBlockEnd
  0
BLOCK
  5
827
100
AcDbEntity
  8
0
100
AcDbBlockBegin
  2
*H311
 70
        0
 10
0.0
 20
0.0
 30
0.0
  3
*H311
  1

  0
ENDBLK
  5
828
100
AcDbEntity
  8
0
100
AcDbBlockEnd
  0
BLOCK
  5
82B
100
AcDbEntity
  8
0
100
AcDbBlockBegin
  2
*H312
 70
        0
 10
0.0
 20
0.0
 30
0.0
  3
*H312
  1

  0
ENDBLK
  5
82C
100
AcDbEntity
  8
0
100
AcDbBlockEnd
  0
BLOCK
  5
82F
100
AcDbEntity
  8
0
100
AcDbBlockBegin
  2
*H313
 70
        0
 10
0.0
 20
0.0
 30
0.0
  3
*H313
  1

  0
ENDBLK
  5
830
100
AcDbEntity
  8
0
100
AcDbBlockEnd
  0
BLOCK
  5
833
100
AcDbEntity
  8
0
100
AcDbBlockBegin
  2
*H314
 70
        0
 10
0.0
 20
0.0
 30
0.0
  3
*H314
  1

  0
ENDBLK
  5
834
100
AcDbEntity
  8
0
100
AcDbBlockEnd
  0
BLOCK
  5
83C
100
AcDbEntity
  8
0
100
AcDbBlockBegin
  2
*H315
 70
        0
 10
0.0
 20
0.0
 30
0.0
  3
*H315
  1

  0
ENDBLK
  5
83D
100
AcDbEntity
  8
0
100
AcDbBlockEnd
  0
BLOCK
  5
840
100
AcDbEntity
  8
0
100
AcDbBlockBegin
  2
*H316
 70
        0
 10
0.0
 20
0.0
 30
0.0
  3
*H316
  1

  0
ENDBLK
  5
841
100
AcDbEntity
  8
0
100
AcDbBlockEnd
  0
BLOCK
  5
844
100
AcDbEntity
  8
0
100
AcDbBlockBegin
  2
*H317
 70
        0
 10
0.0
 20
0.0
 30
0.0
  3
*H317
  1

  0
ENDBLK
  5
845
100
AcDbEntity
  8
0
100
AcDbBlockEnd
  0
BLOCK
  5
848
100
AcDbEntity
  8
0
100
AcDbBlockBegin
  2
*H318
 70
        0
 10
0.0
 20
0.0
 30
0.0
  3
*H318
  1

  0
ENDBLK
  5
849
100
AcDbEntity
  8
0
100
AcDbBlockEnd
  0
BLOCK
  5
84C
100
AcDbEntity
  8
0
100
AcDbBlockBegin
  2
*H319
 70
        0
 10
0.0
 20
0.0
 30
0.0
  3
*H319
  1

  0
ENDBLK
  5
84D
100
AcDbEntity
  8
0
100
AcDbBlockEnd
  0
BLOCK
  5
850
100
AcDbEntity
  8
0
100
AcDbBlockBegin
  2
*H320
 70
        0
 10
0.0
 20
0.0
 30
0.0
  3
*H320
  1

  0
ENDBLK
  5
851
100
AcDbEntity
  8
0
100
AcDbBlockEnd
  0
BLOCK
  5
854
100
AcDbEntity
  8
0
100
AcDbBlockBegin
  2
*H321
 70
        0
 10
0.0
 20
0.0
 30
0.0
  3
*H321
  1

  0
ENDBLK
  5
855
100
AcDbEntity
  8
0
100
AcDbBlockEnd
  0
BLOCK
  5
858
100
AcDbEntity
  8
0
100
AcDbBlockBegin
  2
*H322
 70
        0
 10
0.0
 20
0.0
 30
0.0
  3
*H322
  1

  0
ENDBLK
  5
859
100
AcDbEntity
  8
0
100
AcDbBlockEnd
  0
BLOCK
  5
85C
100
AcDbEntity
  8
0
100
AcDbBlockBegin
  2
*H323
 70
        0
 10
0.0
 20
0.0
 30
0.0
  3
*H323
  1

  0
ENDBLK
  5
85D
100
AcDbEntity
  8
0
100
AcDbBlockEnd
  0
BLOCK
  5
860
100
AcDbEntity
  8
0
100
AcDbBlockBegin
  2
*H324
 70
        0
 10
0.0
 20
0.0
 30
0.0
  3
*H324
  1

  0
ENDBLK
  5
861
100
AcDbEntity
  8
0
100
AcDbBlockEnd
  0
BLOCK
  5
864
100
AcDbEntity
  8
0
100
AcDbBlockBegin
  2
*H325
 70
        0
 10
0.0
 20
0.0
 30
0.0
  3
*H325
  1

  0
ENDBLK
  5
865
100
AcDbEntity
  8
0
100
AcDbBlockEnd
  0
BLOCK
  5
868
100
AcDbEntity
  8
0
100
AcDbBlockBegin
  2
*H326
 70
        0
 10
0.0
 20
0.0
 30
0.0
  3
*H326
  1

  0
ENDBLK
  5
869
100
AcDbEntity
  8
0
100
AcDbBlockEnd
  0
BLOCK
  5
86C
100
AcDbEntity
  8
0
100
AcDbBlockBegin
  2
*H327
 70
        0
 10
0.0
 20
0.0
 30
0.0
  3
*H327
  1

  0
ENDBLK
  5
86D
100
AcDbEntity
  8
0
100
AcDbBlockEnd
  0
BLOCK
  5
870
100
AcDbEntity
  8
0
100
AcDbBlockBegin
  2
*H328
 70
        0
 10
0.0
 20
0.0
 30
0.0
  3
*H328
  1

  0
ENDBLK
  5
871
100
AcDbEntity
  8
0
100
AcDbBlockEnd
  0
BLOCK
  5
874
100
AcDbEntity
  8
0
100
AcDbBlockBegin
  2
*H329
 70
        0
 10
0.0
 20
0.0
 30
0.0
  3
*H329
  1

  0
ENDBLK
  5
875
100
AcDbEntity
  8
0
100
AcDbBlockEnd
  0
BLOCK
  5
878
100
AcDbEntity
  8
0
100
AcDbBlockBegin
  2
*H330
 70
        0
 10
0.0
 20
0.0
 30
0.0
  3
*H330
  1

  0
ENDBLK
  5
879
100
AcDbEntity
  8
0
100
AcDbBlockEnd
  0
BLOCK
  5
87C
100
AcDbEntity
  8
0
100
AcDbBlockBegin
  2
*H331
 70
        0
 10
0.0
 20
0.0
 30
0.0
  3
*H331
  1

  0
ENDBLK
  5
87D
100
AcDbEntity
  8
0
100
AcDbBlockEnd
  0
BLOCK
  5
880
100
AcDbEntity
  8
0
100
AcDbBlockBegin
  2
*H332
 70
        0
 10
0.0
 20
0.0
 30
0.0
  3
*H332
  1

  0
ENDBLK
  5
881
100
AcDbEntity
  8
0
100
AcDbBlockEnd
  0
BLOCK
  5
884
100
AcDbEntity
  8
0
100
AcDbBlockBegin
  2
*H333
 70
        0
 10
0.0
 20
0.0
 30
0.0
  3
*H333
  1

  0
ENDBLK
  5
885
100
AcDbEntity
  8
0
100
AcDbBlockEnd
  0
BLOCK
  5
888
100
AcDbEntity
  8
0
100
AcDbBlockBegin
  2
*H334
 70
        0
 10
0.0
 20
0.0
 30
0.0
  3
*H334
  1

  0
ENDBLK
  5
889
100
AcDbEntity
  8
0
100
AcDbBlockEnd
  0
BLOCK
  5
88C
100
AcDbEntity
  8
0
100
AcDbBlockBegin
  2
*H335
 70
        0
 10
0.0
 20
0.0
 30
0.0
  3
*H335
  1

  0
ENDBLK
  5
88D
100
AcDbEntity
  8
0
100
AcDbBlockEnd
  0
BLOCK
  5
890
100
AcDbEntity
  8
0
100
AcDbBlockBegin
  2
*H336
 70
        0
 10
0.0
 20
0.0
 30
0.0
  3
*H336
  1

  0
ENDBLK
  5
891
100
AcDbEntity
  8
0
100
AcDbBlockEnd
  0
BLOCK
  5
894
100
AcDbEntity
  8
0
100
AcDbBlockBegin
  2
*H337
 70
        0
 10
0.0
 20
0.0
 30
0.0
  3
*H337
  1

  0
ENDBLK
  5
895
100
AcDbEntity
  8
0
100
AcDbBlockEnd
  0
BLOCK
  5
898
100
AcDbEntity
  8
0
100
AcDbBlockBegin
  2
*H338
 70
        0
 10
0.0
 20
0.0
 30
0.0
  3
*H338
  1

  0
ENDBLK
  5
899
100
AcDbEntity
  8
0
100
AcDbBlockEnd
  0
BLOCK
  5
89C
100
AcDbEntity
  8
0
100
AcDbBlockBegin
  2
*H339
 70
        0
 10
0.0
 20
0.0
 30
0.0
  3
*H339
  1

  0
ENDBLK
  5
89D
100
AcDbEntity
  8
0
100
AcDbBlockEnd
  0
BLOCK
  5
8D5
100
AcDbEntity
  8
0
100
AcDbBlockBegin
  2
*H340
 70
        0
 10
0.0
 20
0.0
 30
0.0
  3
*H340
  1

  0
ENDBLK
  5
8D6
100
AcDbEntity
  8
0
100
AcDbBlockEnd
  0
BLOCK
  5
8D9
100
AcDbEntity
  8
0
100
AcDbBlockBegin
  2
*H341
 70
        0
 10
0.0
 20
0.0
 30
0.0
  3
*H341
  1

  0
ENDBLK
  5
8DA
100
AcDbEntity
  8
0
100
AcDbBlockEnd
  0
BLOCK
  5
8DD
100
AcDbEntity
  8
0
100
AcDbBlockBegin
  2
*H342
 70
        0
 10
0.0
 20
0.0
 30
0.0
  3
*H342
  1

  0
ENDBLK
  5
8DE
100
AcDbEntity
  8
0
100
AcDbBlockEnd
  0
BLOCK
  5
8E1
100
AcDbEntity
  8
0
100
AcDbBlockBegin
  2
*H343
 70
        0
 10
0.0
 20
0.0
 30
0.0
  3
*H343
  1

  0
ENDBLK
  5
8E2
100
AcDbEntity
  8
0
100
AcDbBlockEnd
  0
BLOCK
  5
8E5
100
AcDbEntity
  8
0
100
AcDbBlockBegin
  2
*H344
 70
        0
 10
0.0
 20
0.0
 30
0.0
  3
*H344
  1

  0
ENDBLK
  5
8E6
100
AcDbEntity
  8
0
100
AcDbBlockEnd
  0
BLOCK
  5
8E9
100
AcDbEntity
  8
0
100
AcDbBlockBegin
  2
*H345
 70
        0
 10
0.0
 20
0.0
 30
0.0
  3
*H345
  1

  0
ENDBLK
  5
8EA
100
AcDbEntity
  8
0
100
AcDbBlockEnd
  0
BLOCK
  5
8ED
100
AcDbEntity
  8
0
100
AcDbBlockBegin
  2
*H346
 70
        0
 10
0.0
 20
0.0
 30
0.0
  3
*H346
  1

  0
ENDBLK
  5
8EE
100
AcDbEntity
  8
0
100
AcDbBlockEnd
  0
BLOCK
  5
8F1
100
AcDbEntity
  8
0
100
AcDbBlockBegin
  2
*H347
 70
        0
 10
0.0
 20
0.0
 30
0.0
  3
*H347
  1

  0
ENDBLK
  5
8F2
100
AcDbEntity
  8
0
100
AcDbBlockEnd
  0
BLOCK
  5
8F5
100
AcDbEntity
  8
0
100
AcDbBlockBegin
  2
*H348
 70
        0
 10
0.0
 20
0.0
 30
0.0
  3
*H348
  1

  0
ENDBLK
  5
8F6
100
AcDbEntity
  8
0
100
AcDbBlockEnd
  0
BLOCK
  5
8F9
100
AcDbEntity
  8
0
100
AcDbBlockBegin
  2
*H349
 70
        0
 10
0.0
 20
0.0
 30
0.0
  3
*H349
  1

  0
ENDBLK
  5
8FA
100
AcDbEntity
  8
0
100
AcDbBlockEnd
  0
BLOCK
  5
8FD
100
AcDbEntity
  8
0
100
AcDbBlockBegin
  2
*H350
 70
        0
 10
0.0
 20
0.0
 30
0.0
  3
*H350
  1

  0
ENDBLK
  5
8FE
100
AcDbEntity
  8
0
100
AcDbBlockEnd
  0
BLOCK
  5
901
100
AcDbEntity
  8
0
100
AcDbBlockBegin
  2
*H351
 70
        0
 10
0.0
 20
0.0
 30
0.0
  3
*H351
  1

  0
ENDBLK
  5
902
100
AcDbEntity
  8
0
100
AcDbBlockEnd
  0
BLOCK
  5
905
100
AcDbEntity
  8
0
100
AcDbBlockBegin
  2
*H352
 70
        0
 10
0.0
 20
0.0
 30
0.0
  3
*H352
  1

  0
ENDBLK
  5
906
100
AcDbEntity
  8
0
100
AcDbBlockEnd
  0
BLOCK
  5
909
100
AcDbEntity
  8
0
100
AcDbBlockBegin
  2
*H353
 70
        0
 10
0.0
 20
0.0
 30
0.0
  3
*H353
  1

  0
ENDBLK
  5
90A
100
AcDbEntity
  8
0
100
AcDbBlockEnd
  0
BLOCK
  5
90D
100
AcDbEntity
  8
0
100
AcDbBlockBegin
  2
*H354
 70
        0
 10
0.0
 20
0.0
 30
0.0
  3
*H354
  1

  0
ENDBLK
  5
90E
100
AcDbEntity
  8
0
100
AcDbBlockEnd
  0
BLOCK
  5
911
100
AcDbEntity
  8
0
100
AcDbBlockBegin
  2
*H355
 70
        0
 10
0.0
 20
0.0
 30
0.0
  3
*H355
  1

  0
ENDBLK
  5
912
100
AcDbEntity
  8
0
100
AcDbBlockEnd
  0
BLOCK
  5
915
100
AcDbEntity
  8
0
100
AcDbBlockBegin
  2
*H356
 70
        0
 10
0.0
 20
0.0
 30
0.0
  3
*H356
  1

  0
ENDBLK
  5
916
100
AcDbEntity
  8
0
100
AcDbBlockEnd
  0
BLOCK
  5
919
100
AcDbEntity
  8
0
100
AcDbBlockBegin
  2
*H357
 70
        0
 10
0.0
 20
0.0
 30
0.0
  3
*H357
  1

  0
ENDBLK
  5
91A
100
AcDbEntity
  8
0
100
AcDbBlockEnd
  0
BLOCK
  5
91D
100
AcDbEntity
  8
0
100
AcDbBlockBegin
  2
*H358
 70
        0
 10
0.0
 20
0.0
 30
0.0
  3
*H358
  1

  0
ENDBLK
  5
91E
100
AcDbEntity
  8
0
100
AcDbBlockEnd
  0
BLOCK
  5
921
100
AcDbEntity
  8
0
100
AcDbBlockBegin
  2
*H359
 70
        0
 10
0.0
 20
0.0
 30
0.0
  3
*H359
  1

  0
ENDBLK
  5
922
100
AcDbEntity
  8
0
100
AcDbBlockEnd
  0
BLOCK
  5
925
100
AcDbEntity
  8
0
100
AcDbBlockBegin
  2
*H360
 70
        0
 10
0.0
 20
0.0
 30
0.0
  3
*H360
  1

  0
ENDBLK
  5
926
100
AcDbEntity
  8
0
100
AcDbBlockEnd
  0
BLOCK
  5
929
100
AcDbEntity
  8
0
100
AcDbBlockBegin
  2
*H361
 70
        0
 10
0.0
 20
0.0
 30
0.0
  3
*H361
  1

  0
ENDBLK
  5
92A
100
AcDbEntity
  8
0
100
AcDbBlockEnd
  0
BLOCK
  5
92D
100
AcDbEntity
  8
0
100
AcDbBlockBegin
  2
*H362
 70
        0
 10
0.0
 20
0.0
 30
0.0
  3
*H362
  1

  0
ENDBLK
  5
92E
100
AcDbEntity
  8
0
100
AcDbBlockEnd
  0
BLOCK
  5
931
100
AcDbEntity
  8
0
100
AcDbBlockBegin
  2
*H363
 70
        0
 10
0.0
 20
0.0
 30
0.0
  3
*H363
  1

  0
ENDBLK
  5
932
100
AcDbEntity
  8
0
100
AcDbBlockEnd
  0
BLOCK
  5
935
100
AcDbEntity
  8
0
100
AcDbBlockBegin
  2
*H364
 70
        0
 10
0.0
 20
0.0
 30
0.0
  3
*H364
  1

  0
ENDBLK
  5
936
100
AcDbEntity
  8
0
100
AcDbBlockEnd
  0
BLOCK
  5
939
100
AcDbEntity
  8
0
100
AcDbBlockBegin
  2
*H365
 70
        0
 10
0.0
 20
0.0
 30
0.0
  3
*H365
  1

  0
ENDBLK
  5
93A
100
AcDbEntity
  8
0
100
AcDbBlockEnd
  0
BLOCK
  5
93D
100
AcDbEntity
  8
0
100
AcDbBlockBegin
  2
*H366
 70
        0
 10
0.0
 20
0.0
 30
0.0
  3
*H366
  1

  0
ENDBLK
  5
93E
100
AcDbEntity
  8
0
100
AcDbBlockEnd
  0
BLOCK
  5
941
100
AcDbEntity
  8
0
100
AcDbBlockBegin
  2
*H367
 70
        0
 10
0.0
 20
0.0
 30
0.0
  3
*H367
  1

  0
ENDBLK
  5
942
100
AcDbEntity
  8
0
100
AcDbBlockEnd
  0
BLOCK
  5
945
100
AcDbEntity
  8
0
100
AcDbBlockBegin
  2
*H368
 70
        0
 10
0.0
 20
0.0
 30
0.0
  3
*H368
  1

  0
ENDBLK
  5
946
100
AcDbEntity
  8
0
100
AcDbBlockEnd
  0
BLOCK
  5
949
100
AcDbEntity
  8
0
100
AcDbBlockBegin
  2
*H369
 70
        0
 10
0.0
 20
0.0
 30
0.0
  3
*H369
  1

  0
ENDBLK
  5
94A
100
AcDbEntity
  8
0
100
AcDbBlockEnd
  0
BLOCK
  5
94D
100
AcDbEntity
  8
0
100
AcDbBlockBegin
  2
*H370
 70
        0
 10
0.0
 20
0.0
 30
0.0
  3
*H370
  1

  0
ENDBLK
  5
94E
100
AcDbEntity
  8
0
100
AcDbBlockEnd
  0
BLOCK
  5
951
100
AcDbEntity
  8
0
100
AcDbBlockBegin
  2
*H371
 70
        0
 10
0.0
 20
0.0
 30
0.0
  3
*H371
  1

  0
ENDBLK
  5
952
100
AcDbEntity
  8
0
100
AcDbBlockEnd
  0
BLOCK
  5
955
100
AcDbEntity
  8
0
100
AcDbBlockBegin
  2
*H372
 70
        0
 10
0.0
 20
0.0
 30
0.0
  3
*H372
  1

  0
ENDBLK
  5
956
100
AcDbEntity
  8
0
100
AcDbBlockEnd
  0
BLOCK
  5
959
100
AcDbEntity
  8
0
100
AcDbBlockBegin
  2
*H373
 70
        0
 10
0.0
 20
0.0
 30
0.0
  3
*H373
  1

  0
ENDBLK
  5
95A
100
AcDbEntity
  8
0
100
AcDbBlockEnd
  0
BLOCK
  5
95D
100
AcDbEntity
  8
0
100
AcDbBlockBegin
  2
*H374
 70
        0
 10
0.0
 20
0.0
 30
0.0
  3
*H374
  1

  0
ENDBLK
  5
95E
100
AcDbEntity
  8
0
100
AcDbBlockEnd
  0
BLOCK
  5
961
100
AcDbEntity
  8
0
100
AcDbBlockBegin
  2
*H375
 70
        0
 10
0.0
 20
0.0
 30
0.0
  3
*H375
  1

  0
ENDBLK
  5
962
100
AcDbEntity
  8
0
100
AcDbBlockEnd
  0
BLOCK
  5
965
100
AcDbEntity
  8
0
100
AcDbBlockBegin
  2
*H376
 70
        0
 10
0.0
 20
0.0
 30
0.0
  3
*H376
  1

  0
ENDBLK
  5
966
100
AcDbEntity
  8
0
100
AcDbBlockEnd
  0
BLOCK
  5
969
100
AcDbEntity
  8
0
100
AcDbBlockBegin
  2
*H377
 70
        0
 10
0.0
 20
0.0
 30
0.0
  3
*H377
  1

  0
ENDBLK
  5
96A
100
AcDbEntity
  8
0
100
AcDbBlockEnd
  0
BLOCK
  5
96D
100
AcDbEntity
  8
0
100
AcDbBlockBegin
  2
*H378
 70
        0
 10
0.0
 20
0.0
 30
0.0
  3
*H378
  1

  0
ENDBLK
  5
96E
100
AcDbEntity
  8
0
100
AcDbBlockEnd
  0
BLOCK
  5
971
100
AcDbEntity
  8
0
100
AcDbBlockBegin
  2
*H379
 70
        0
 10
0.0
 20
0.0
 30
0.0
  3
*H379
  1

  0
ENDBLK
  5
972
100
AcDbEntity
  8
0
100
AcDbBlockEnd
  0
BLOCK
  5
975
100
AcDbEntity
  8
0
100
AcDbBlockBegin
  2
*H380
 70
        0
 10
0.0
 20
0.0
 30
0.0
  3
*H380
  1

  0
ENDBLK
  5
976
100
AcDbEntity
  8
0
100
AcDbBlockEnd
  0
BLOCK
  5
979
100
AcDbEntity
  8
0
100
AcDbBlockBegin
  2
*H381
 70
        0
 10
0.0
 20
0.0
 30
0.0
  3
*H381
  1

  0
ENDBLK
  5
97A
100
AcDbEntity
  8
0
100
AcDbBlockEnd
  0
BLOCK
  5
97D
100
AcDbEntity
  8
0
100
AcDbBlockBegin
  2
*H382
 70
        0
 10
0.0
 20
0.0
 30
0.0
  3
*H382
  1

  0
ENDBLK
  5
97E
100
AcDbEntity
  8
0
100
AcDbBlockEnd
  0
BLOCK
  5
981
100
AcDbEntity
  8
0
100
AcDbBlockBegin
  2
*H383
 70
        0
 10
0.0
 20
0.0
 30
0.0
  3
*H383
  1

  0
ENDBLK
  5
982
100
AcDbEntity
  8
0
100
AcDbBlockEnd
  0
BLOCK
  5
985
100
AcDbEntity
  8
0
100
AcDbBlockBegin
  2
*H384
 70
        0
 10
0.0
 20
0.0
 30
0.0
  3
*H384
  1

  0
ENDBLK
  5
986
100
AcDbEntity
  8
0
100
AcDbBlockEnd
  0
BLOCK
  5
989
100
AcDbEntity
  8
0
100
AcDbBlockBegin
  2
*H385
 70
        0
 10
0.0
 20
0.0
 30
0.0
  3
*H385
  1

  0
ENDBLK
  5
98A
100
AcDbEntity
  8
0
100
AcDbBlockEnd
  0
BLOCK
  5
98D
100
AcDbEntity
  8
0
100
AcDbBlockBegin
  2
*H386
 70
        0
 10
0.0
 20
0.0
 30
0.0
  3
*H386
  1

  0
ENDBLK
  5
98E
100
AcDbEntity
  8
0
100
AcDbBlockEnd
  0
BLOCK
  5
991
100
AcDbEntity
  8
0
100
AcDbBlockBegin
  2
*H387
 70
        0
 10
0.0
 20
0.0
 30
0.0
  3
*H387
  1

  0
ENDBLK
  5
992
100
AcDbEntity
  8
0
100
AcDbBlockEnd
  0
BLOCK
  5
995
100
AcDbEntity
  8
0
100
AcDbBlockBegin
  2
*H388
 70
        0
 10
0.0
 20
0.0
 30
0.0
  3
*H388
  1

  0
ENDBLK
  5
996
100
AcDbEntity
  8
0
100
AcDbBlockEnd
  0
BLOCK
  5
999
100
AcDbEntity
  8
0
100
AcDbBlockBegin
  2
*H389
 70
        0
 10
0.0
 20
0.0
 30
0.0
  3
*H389
  1

  0
ENDBLK
  5
99A
100
AcDbEntity
  8
0
100
AcDbBlockEnd
  0
BLOCK
  5
99D
100
AcDbEntity
  8
0
100
AcDbBlockBegin
  2
*H390
 70
        0
 10
0.0
 20
0.0
 30
0.0
  3
*H390
  1

  0
ENDBLK
  5
99E
100
AcDbEntity
  8
0
100
AcDbBlockEnd
  0
BLOCK
  5
9A1
100
AcDbEntity
  8
0
100
AcDbBlockBegin
  2
*H391
 70
        0
 10
0.0
 20
0.0
 30
0.0
  3
*H391
  1

  0
ENDBLK
  5
9A2
100
AcDbEntity
  8
0
100
AcDbBlockEnd
  0
BLOCK
  5
9A5
100
AcDbEntity
  8
0
100
AcDbBlockBegin
  2
*H392
 70
        0
 10
0.0
 20
0.0
 30
0.0
  3
*H392
  1

  0
ENDBLK
  5
9A6
100
AcDbEntity
  8
0
100
AcDbBlockEnd
  0
BLOCK
  5
9A9
100
AcDbEntity
  8
0
100
AcDbBlockBegin
  2
*H393
 70
        0
 10
0.0
 20
0.0
 30
0.0
  3
*H393
  1

  0
ENDBLK
  5
9AA
100
AcDbEntity
  8
0
100
AcDbBlockEnd
  0
BLOCK
  5
9AD
100
AcDbEntity
  8
0
100
AcDbBlockBegin
  2
*H394
 70
        0
 10
0.0
 20
0.0
 30
0.0
  3
*H394
  1

  0
ENDBLK
  5
9AE
100
AcDbEntity
  8
0
100
AcDbBlockEnd
  0
BLOCK
  5
9B1
100
AcDbEntity
  8
0
100
AcDbBlockBegin
  2
*H395
 70
        0
 10
0.0
 20
0.0
 30
0.0
  3
*H395
  1

  0
ENDBLK
  5
9B2
100
AcDbEntity
  8
0
100
AcDbBlockEnd
  0
BLOCK
  5
9B5
100
AcDbEntity
  8
0
100
AcDbBlockBegin
  2
*H396
 70
        0
 10
0.0
 20
0.0
 30
0.0
  3
*H396
  1

  0
ENDBLK
  5
9B6
100
AcDbEntity
  8
0
100
AcDbBlockEnd
  0
BLOCK
  5
9B9
100
AcDbEntity
  8
0
100
AcDbBlockBegin
  2
*H397
 70
        0
 10
0.0
 20
0.0
 30
0.0
  3
*H397
  1

  0
ENDBLK
  5
9BA
100
AcDbEntity
  8
0
100
AcDbBlockEnd
  0
BLOCK
  5
9BD
100
AcDbEntity
  8
0
100
AcDbBlockBegin
  2
*H398
 70
        0
 10
0.0
 20
0.0
 30
0.0
  3
*H398
  1

  0
ENDBLK
  5
9BE
100
AcDbEntity
  8
0
100
AcDbBlockEnd
  0
BLOCK
  5
9C1
100
AcDbEntity
  8
0
100
AcDbBlockBegin
  2
*H399
 70
        0
 10
0.0
 20
0.0
 30
0.0
  3
*H399
  1

  0
ENDBLK
  5
9C2
100
AcDbEntity
  8
0
100
AcDbBlockEnd
  0
ENDSEC
  0
SECTION
  2
ENTITIES
  0
LINE
  5
1F
100
AcDbEntity
  8
0
  6
CENTER
 62
        2
100
AcDbLine
 10
1218.351196289
 20
-224.0
 30
0.0
 11
1193.11353039
 21
-224.0
 31
0.0
  0
LINE
  5
21
100
AcDbEntity
  8
0
  6
SOLID
 62
        6
100
AcDbLine
 10
1160.99148218
 20
40.421250863
 30
0.0
 11
1159.268760557
 21
36.262228473
 31
0.0
  0
LINE
  5
22
100
AcDbEntity
  8
0
  6
CENTER
 62
        2
100
AcDbLine
 10
1153.709960938
 20
88.331108093
 30
0.0
 11
1211.209960938
 21
88.331108093
 31
0.0
  0
LINE
  5
23
100
AcDbEntity
  8
0
  6
CENTER
 62
        2
100
AcDbLine
 10
1182.459960938
 20
59.581108093
 30
0.0
 11
1182.459960938
 21
117.081108093
 31
0.0
  0
ARC
  5
24
100
AcDbEntity
  8
0
  6
SOLID
 62
        6
100
AcDbCircle
 10
1182.459960938
 20
88.331108093
 30
0.0
 40
57.0
100
AcDbArc
 50
245.992064575
 51
249.007980084
  0
LINE
  5
25
100
AcDbEntity
  8
0
  6
SOLID
 62
        6
100
AcDbLine
 10
1163.763121226
 20
39.273201648
 30
0.0
 11
1162.040399602
 21
35.114179256
 31
0.0
  0
LINE
  5
26
100
AcDbEntity
  8
0
  6
SOLID
 62
        7
100
AcDbLine
 10
869.738464355
 20
66.499989406
 30
0.0
 11
701.738464355
 21
66.499989406
 31
0.0
  0
LINE
  5
27
100
AcDbEntity
  8
0
  6
SOLID
 62
        3
100
AcDbLine
 10
676.238464355
 20
38.749966518
 30
0.0
 11
676.238464355
 21
-38.750033482
 31
0.0
  0
LINE
  5
28
100
AcDbEntity
  8
0
  6
SOLID
 62
        2
100
AcDbLine
 10
1138.310058594
 20
160.564404226
 30
0.0
 11
1146.310058594
 21
165.79074734
 31
0.0
  0
LINE
  5
29
100
AcDbEntity
  8
0
  6
CENTER
 62
        2
100
AcDbLine
 10
1158.951360511
 20
178.0
 30
0.0
 11
1142.066057914
 21
178.0
 31
0.0
  0
ARC
  5
2A
100
AcDbEntity
  8
0
  6
SOLID
 62
        2
100
AcDbCircle
 10
754.738443497
 20
152.21427512
 30
0.0
 40
13.785714286
100
AcDbArc
 50
29.487125673
 51
150.512874327
  0
ARC
  5
2B
100
AcDbEntity
  8
0
  6
SOLID
 62
        2
100
AcDbCircle
 10
754.738443497
 20
177.999989406
 30
0.0
 40
20.0
100
AcDbArc
 50
310.705706831
 51
229.294293169
  0
LINE
  5
2C
100
AcDbEntity
  8
0
  6
SOLID
 62
        2
100
AcDbLine
 10
1154.310058594
 20
161.800928996
 30
0.0
 11
1154.310058594
 21
193.999999984
 31
0.0
  0
LINE
  5
2D
100
AcDbEntity
  8
0
  6
SOLID
 62
        2
100
AcDbLine
 10
1146.310058594
 20
161.800928996
 30
0.0
 11
1146.310058594
 21
193.999999984
 31
0.0
  0
LINE
  5
2E
100
AcDbEntity
  8
0
  6
SOLID
 62
        2
100
AcDbLine
 10
1162.459960938
 20
160.466474091
 30
0.0
 11
1154.310058594
 21
165.79074734
 31
0.0
  0
ARC
  5
2F
100
AcDbEntity
  8
0
  6
SOLID
 62
        2
100
AcDbCircle
 10
1150.310058594
 20
193.999999984
 30
0.0
 40
4.0
100
AcDbArc
 50
0.0
 51
180.0
  0
CIRCLE
  5
30
100
AcDbEntity
  8
0
  6
SOLID
 62
        2
100
AcDbCircle
 10
754.738443497
 20
177.999989406
 30
0.0
 40
12.0
  0
LINE
  5
31
100
AcDbEntity
  8
0
  6
SOLID
 62
        2
100
AcDbLine
 10
766.738443497
 20
158.999989406
 30
0.0
 11
742.738443497
 21
158.999989406
 31
0.0
  0
ARC
  5
32
100
AcDbEntity
  8
0
  6
SOLID
 62
        2
100
AcDbCircle
 10
739.738443497
 20
160.564393632
 30
0.0
 40
3.0
100
AcDbArc
 50
0.0
 51
49.294293169
  0
LINE
  5
33
100
AcDbEntity
  8
0
  6
SOLID
 62
        2
100
AcDbLine
 10
742.738443497
 20
152.999989406
 30
0.0
 11
742.738443497
 21
160.564393632
 31
0.0
  0
LINE
  5
34
100
AcDbEntity
  8
0
  6
SOLID
 62
        1
100
AcDbLine
 10
1287.960022993
 20
384.479873511
 30
0.0
 11
1371.460031853
 21
384.479873511
 31
0.0
  0
CIRCLE
  5
35
100
AcDbEntity
  8
0
  6
SOLID
 62
        2
100
AcDbCircle
 10
1150.310058594
 20
-219.0
 30
0.0
 40
9.0
  0
LINE
  5
36
100
AcDbEntity
  8
0
  6
SOLID
 62
        2
100
AcDbLine
 10
1147.310058594
 20
-217.267949192
 30
0.0
 11
1150.310058594
 21
-215.535898385
 31
0.0
  0
LINE
  5
37
100
AcDbEntity
  8
0
  6
SOLID
 62
        2
100
AcDbLine
 10
1150.310058594
 20
-215.535898385
 30
0.0
 11
1153.310058594
 21
-217.267949192
 31
0.0
  0
LINE
  5
38
100
AcDbEntity
  8
0
  6
SOLID
 62
        2
100
AcDbLine
 10
1153.310058594
 20
-217.267949192
 30
0.0
 11
1153.310058594
 21
-220.732050808
 31
0.0
  0
LINE
  5
39
100
AcDbEntity
  8
0
  6
CENTER
 62
        2
100
AcDbLine
 10
1134.218589783
 20
-219.0
 30
0.0
 11
1167.037963867
 21
-219.0
 31
0.0
  0
LINE
  5
3A
100
AcDbEntity
  8
0
  6
SOLID
 62
        7
100
AcDbLine
 10
839.738464355
 20
-208.0
 30
0.0
 11
839.738464355
 21
-222.000008816
 31
0.0
  0
LINE
  5
3B
100
AcDbEntity
  8
0
  6
SOLID
 62
        7
100
AcDbLine
 10
849.738464355
 20
-198.0
 30
0.0
 11
839.738464355
 21
-208.0
 31
0.0
  0
LINE
  5
3C
100
AcDbEntity
  8
0
  6
SOLID
 62
        7
100
AcDbLine
 10
849.738464355
 20
-198.0
 30
0.0
 11
869.738464355
 21
-198.0
 31
0.0
  0
LINE
  5
3D
100
AcDbEntity
  8
0
  6
SOLID
 62
        2
100
AcDbLine
 10
1153.310058594
 20
-220.732050808
 30
0.0
 11
1150.310058594
 21
-222.464101615
 31
0.0
  0
CIRCLE
  5
3E
100
AcDbEntity
  8
0
  6
SOLID
 62
        1
100
AcDbCircle
 10
1035.310016877
 20
299.479873657
 30
0.0
 40
7.0
  0
ARC
  5
3F
100
AcDbEntity
  8
0
  6
SOLID
 62
        1
100
AcDbCircle
 10
1035.310016877
 20
299.479873657
 30
0.0
 40
8.0
100
AcDbArc
 50
90.0
 51
0.0
  0
LINE
  5
40
100
AcDbEntity
  8
0
  6
CENTER
 62
        2
100
AcDbLine
 10
1022.819012029
 20
299.479873657
 30
0.0
 11
1047.412796372
 21
299.479873657
 31
0.0
  0
LINE
  5
41
100
AcDbEntity
  8
0
  6
SOLID
 62
        1
100
AcDbLine
 10
1282.460017455
 20
407.479875838
 30
0.0
 11
1280.310016877
 21
407.479875838
 31
0.0
  0
LINE
  5
42
100
AcDbEntity
  8
0
  6
CENTER
 62
        2
100
AcDbLine
 10
1035.310016877
 20
425.355076081
 30
0.0
 11
1035.310016877
 21
450.402195222
 31
0.0
  0
LINE
  5
43
100
AcDbEntity
  8
0
  6
SOLID
 62
        7
100
AcDbLine
 10
1280.310016877
 20
284.479873657
 30
0.0
 11
1280.310016877
 21
452.479873657
 31
0.0
  0
LINE
  5
44
100
AcDbEntity
  8
0
  6
CENTER
 62
        2
100
AcDbLine
 10
1150.310016877
 20
271.536279592
 30
0.0
 11
1150.310016877
 21
492.035131947
 31
0.0
  0
ARC
  5
45
100
AcDbEntity
  8
0
  6
SOLID
 62
        1
100
AcDbCircle
 10
1265.310016877
 20
437.479873657
 30
0.0
 40
8.0
100
AcDbArc
 50
0.0
 51
270.0
  0
LINE
  5
46
100
AcDbEntity
  8
0
  6
CENTER
 62
        2
100
AcDbLine
 10
1035.310016877
 20
286.096194045
 30
0.0
 11
1035.310016877
 21
312.402195222
 31
0.0
  0
CIRCLE
  5
47
100
AcDbEntity
  8
0
  6
SOLID
 62
        1
100
AcDbCircle
 10
1265.310016877
 20
437.479873657
 30
0.0
 40
7.0
  0
LINE
  5
48
100
AcDbEntity
  8
0
  6
CENTER
 62
        2
100
AcDbLine
 10
1265.310016877
 20
449.604671233
 30
0.0
 11
1265.310016877
 21
424.557552093
 31
0.0
  0
LINE
  5
49
100
AcDbEntity
  8
0
  6
CENTER
 62
        2
100
AcDbLine
 10
1252.778320313
 20
437.479873657
 30
0.0
 11
1277.683195362
 21
437.479873657
 31
0.0
  0
INSERT
  5
4D
100
AcDbEntity
  8
0
100
AcDbBlockReference
  2
*H0
 10
0.0
 20
0.0
 30
0.0
  0
INSERT
  5
51
100
AcDbEntity
  8
0
100
AcDbBlockReference
  2
*H1
 10
0.0
 20
0.0
 30
0.0
  0
INSERT
  5
55
100
AcDbEntity
  8
0
100
AcDbBlockReference
  2
*H2
 10
0.0
 20
0.0
 30
0.0
  0
INSERT
  5
59
100
AcDbEntity
  8
0
100
AcDbBlockReference
  2
*H3
 10
0.0
 20
0.0
 30
0.0
  0
INSERT
  5
5D
100
AcDbEntity
  8
0
100
AcDbBlockReference
  2
*H4
 10
0.0
 20
0.0
 30
0.0
  0
INSERT
  5
61
100
AcDbEntity
  8
0
100
AcDbBlockReference
  2
*H5
 10
0.0
 20
0.0
 30
0.0
  0
INSERT
  5
65
100
AcDbEntity
  8
0
100
AcDbBlockReference
  2
*H6
 10
0.0
 20
0.0
 30
0.0
  0
INSERT
  5
69
100
AcDbEntity
  8
0
100
AcDbBlockReference
  2
*H7
 10
0.0
 20
0.0
 30
0.0
  0
LINE
  5
6A
100
AcDbEntity
  8
0
  6
CENTER
 62
        2
100
AcDbLine
 10
782.009898994
 20
177.999989406
 30
0.0
 11
727.590611424
 21
177.999989406
 31
0.0
  0
LINE
  5
6B
100
AcDbEntity
  8
0
  6
CENTER
 62
        2
100
AcDbLine
 10
754.738443497
 20
141.811119352
 30
0.0
 11
754.738443497
 21
205.567764575
 31
0.0
  0
INSERT
  5
6F
100
AcDbEntity
  8
0
100
AcDbBlockReference
  2
*H8
 10
0.0
 20
0.0
 30
0.0
  0
INSERT
  5
73
100
AcDbEntity
  8
0
100
AcDbBlockReference
  2
*H9
 10
0.0
 20
0.0
 30
0.0
  0
INSERT
  5
77
100
AcDbEntity
  8
0
100
AcDbBlockReference
  2
*H10
 10
0.0
 20
0.0
 30
0.0
  0
INSERT
  5
7B
100
AcDbEntity
  8
0
100
AcDbBlockReference
  2
*H11
 10
0.0
 20
0.0
 30
0.0
  0
LINE
  5
7C
100
AcDbEntity
  8
0
  6
SOLID
 62
        1
100
AcDbLine
 10
1371.460031349
 20
320.47987366
 30
0.0
 11
1371.460031349
 21
384.479873511
 31
0.0
  0
LINE
  5
7D
100
AcDbEntity
  8
0
  6
SOLID
 62
        5
100
AcDbLine
 10
1475.960029536
 20
379.479872281
 30
0.0
 11
1371.460031814
 21
379.479872281
 31
0.0
  0
LINE
  5
7E
100
AcDbEntity
  8
0
  6
SOLID
 62
        1
100
AcDbLine
 10
1300.460017271
 20
351.979873657
 30
0.0
 11
1300.960017271
 21
352.479873657
 31
0.0
  0
LINE
  5
7F
100
AcDbEntity
  8
0
  6
SOLID
 62
        1
100
AcDbLine
 10
1313.960017271
 20
352.479873657
 30
0.0
 11
1314.460017271
 21
351.979873657
 31
0.0
  0
LINE
  5
80
100
AcDbEntity
  8
0
  6
SOLID
 62
        7
100
AcDbLine
 10
1020.310016877
 20
452.479873657
 30
0.0
 11
1280.310016877
 21
452.479873657
 31
0.0
  0
LINE
  5
81
100
AcDbEntity
  8
0
  6
SOLID
 62
        3
100
AcDbLine
 10
1020.310016877
 20
452.479873657
 30
0.0
 11
1020.310016877
 21
467.479873657
 31
0.0
  0
LINE
  5
82
100
AcDbEntity
  8
0
  6
SOLID
 62
        3
100
AcDbLine
 10
1020.310016877
 20
467.479873657
 30
0.0
 11
1280.310016877
 21
467.479873657
 31
0.0
  0
LINE
  5
83
100
AcDbEntity
  8
0
  6
SOLID
 62
        5
100
AcDbLine
 10
1476.46002954
 20
325.979875033
 30
0.0
 11
1475.960029536
 21
325.479875033
 31
0.0
  0
LINE
  5
84
100
AcDbEntity
  8
0
  6
SOLID
 62
        7
100
AcDbLine
 10
1280.309998179
 20
357.479869739
 30
0.0
 11
1261.309998178
 21
357.479870312
 31
0.0
  0
LINE
  5
85
100
AcDbEntity
  8
0
  6
CENTER
 62
        2
100
AcDbLine
 10
1287.28501626
 20
349.479869545
 30
0.0
 11
1012.410392598
 21
349.479877715
 31
0.0
  0
LINE
  5
86
100
AcDbEntity
  8
0
  6
SOLID
 62
        7
100
AcDbLine
 10
1280.309997697
 20
341.479869739
 30
0.0
 11
1261.309997671
 21
341.479870312
 31
0.0
  0
INSERT
  5
8A
100
AcDbEntity
  8
0
100
AcDbBlockReference
  2
*H12
 10
0.0
 20
0.0
 30
0.0
  0
INSERT
  5
8E
100
AcDbEntity
  8
0
100
AcDbBlockReference
  2
*H13
 10
0.0
 20
0.0
 30
0.0
  0
INSERT
  5
92
100
AcDbEntity
  8
0
100
AcDbBlockReference
  2
*H14
 10
0.0
 20
0.0
 30
0.0
  0
INSERT
  5
96
100
AcDbEntity
  8
0
100
AcDbBlockReference
  2
*H15
 10
0.0
 20
0.0
 30
0.0
  0
ARC
  5
97
100
AcDbEntity
  8
0
  6
SOLID
 62
        2
100
AcDbCircle
 10
769.738443497
 20
160.564393632
 30
0.0
 40
3.0
100
AcDbArc
 50
130.705706831
 51
180.0
  0
LINE
  5
98
100
AcDbEntity
  8
0
  6
SOLID
 62
        2
100
AcDbLine
 10
766.738443497
 20
152.999989406
 30
0.0
 11
766.738443497
 21
160.564393632
 31
0.0
  0
INSERT
  5
9C
100
AcDbEntity
  8
0
100
AcDbBlockReference
  2
*H16
 10
0.0
 20
0.0
 30
0.0
  0
INSERT
  5
A0
100
AcDbEntity
  8
0
100
AcDbBlockReference
  2
*H17
 10
0.0
 20
0.0
 30
0.0
  0
INSERT
  5
A4
100
AcDbEntity
  8
0
100
AcDbBlockReference
  2
*H18
 10
0.0
 20
0.0
 30
0.0
  0
INSERT
  5
A8
100
AcDbEntity
  8
0
100
AcDbBlockReference
  2
*H19
 10
0.0
 20
0.0
 30
0.0
  0
INSERT
  5
AC
100
AcDbEntity
  8
0
100
AcDbBlockReference
  2
*H20
 10
0.0
 20
0.0
 30
0.0
  0
INSERT
  5
B0
100
AcDbEntity
  8
0
100
AcDbBlockReference
  2
*H21
 10
0.0
 20
0.0
 30
0.0
  0
INSERT
  5
B4
100
AcDbEntity
  8
0
100
AcDbBlockReference
  2
*H22
 10
0.0
 20
0.0
 30
0.0
  0
ARC
  5
B5
100
AcDbEntity
  8
0
  6
SOLID
 62
        7
100
AcDbCircle
 10
1261.309976075
 20
349.479908328
 30
0.0
 40
8.0
100
AcDbArc
 50
90.0
 51
270.0
  0
INSERT
  5
B9
100
AcDbEntity
  8
0
100
AcDbBlockReference
  2
*H23
 10
0.0
 20
0.0
 30
0.0
  0
INSERT
  5
BD
100
AcDbEntity
  8
0
100
AcDbBlockReference
  2
*H24
 10
0.0
 20
0.0
 30
0.0
  0
INSERT
  5
C1
100
AcDbEntity
  8
0
100
AcDbBlockReference
  2
*H25
 10
0.0
 20
0.0
 30
0.0
  0
INSERT
  5
C5
100
AcDbEntity
  8
0
100
AcDbBlockReference
  2
*H26
 10
0.0
 20
0.0
 30
0.0
  0
INSERT
  5
C9
100
AcDbEntity
  8
0
100
AcDbBlockReference
  2
*H27
 10
0.0
 20
0.0
 30
0.0
  0
INSERT
  5
CD
100
AcDbEntity
  8
0
100
AcDbBlockReference
  2
*H28
 10
0.0
 20
0.0
 30
0.0
  0
INSERT
  5
D1
100
AcDbEntity
  8
0
100
AcDbBlockReference
  2
*H29
 10
0.0
 20
0.0
 30
0.0
  0
INSERT
  5
D5
100
AcDbEntity
  8
0
100
AcDbBlockReference
  2
*H30
 10
0.0
 20
0.0
 30
0.0
  0
INSERT
  5
D9
100
AcDbEntity
  8
0
100
AcDbBlockReference
  2
*H31
 10
0.0
 20
0.0
 30
0.0
  0
INSERT
  5
DD
100
AcDbEntity
  8
0
100
AcDbBlockReference
  2
*H32
 10
0.0
 20
0.0
 30
0.0
  0
INSERT
  5
E1
100
AcDbEntity
  8
0
100
AcDbBlockReference
  2
*H33
 10
0.0
 20
0.0
 30
0.0
  0
INSERT
  5
E5
100
AcDbEntity
  8
0
100
AcDbBlockReference
  2
*H34
 10
0.0
 20
0.0
 30
0.0
  0
INSERT
  5
E9
100
AcDbEntity
  8
0
100
AcDbBlockReference
  2
*H35
 10
0.0
 20
0.0
 30
0.0
  0
INSERT
  5
ED
100
AcDbEntity
  8
0
100
AcDbBlockReference
  2
*H36
 10
0.0
 20
0.0
 30
0.0
  0
INSERT
  5
F1
100
AcDbEntity
  8
0
100
AcDbBlockReference
  2
*H37
 10
0.0
 20
0.0
 30
0.0
  0
INSERT
  5
F5
100
AcDbEntity
  8
0
100
AcDbBlockReference
  2
*H38
 10
0.0
 20
0.0
 30
0.0
  0
INSERT
  5
F9
100
AcDbEntity
  8
0
100
AcDbBlockReference
  2
*H39
 10
0.0
 20
0.0
 30
0.0
  0
INSERT
  5
FD
100
AcDbEntity
  8
0
100
AcDbBlockReference
  2
*H40
 10
0.0
 20
0.0
 30
0.0
  0
INSERT
  5
101
100
AcDbEntity
  8
0
100
AcDbBlockReference
  2
*H41
 10
0.0
 20
0.0
 30
0.0
  0
INSERT
  5
105
100
AcDbEntity
  8
0
100
AcDbBlockReference
  2
*H42
 10
0.0
 20
0.0
 30
0.0
  0
INSERT
  5
109
100
AcDbEntity
  8
0
100
AcDbBlockReference
  2
*H43
 10
0.0
 20
0.0
 30
0.0
  0
INSERT
  5
10D
100
AcDbEntity
  8
0
100
AcDbBlockReference
  2
*H44
 10
0.0
 20
0.0
 30
0.0
  0
INSERT
  5
111
100
AcDbEntity
  8
0
100
AcDbBlockReference
  2
*H45
 10
0.0
 20
0.0
 30
0.0
  0
INSERT
  5
115
100
AcDbEntity
  8
0
100
AcDbBlockReference
  2
*H46
 10
0.0
 20
0.0
 30
0.0
  0
INSERT
  5
119
100
AcDbEntity
  8
0
100
AcDbBlockReference
  2
*H47
 10
0.0
 20
0.0
 30
0.0
  0
INSERT
  5
11D
100
AcDbEntity
  8
0
100
AcDbBlockReference
  2
*H48
 10
0.0
 20
0.0
 30
0.0
  0
INSERT
  5
121
100
AcDbEntity
  8
0
100
AcDbBlockReference
  2
*H49
 10
0.0
 20
0.0
 30
0.0
  0
INSERT
  5
125
100
AcDbEntity
  8
0
100
AcDbBlockReference
  2
*H50
 10
0.0
 20
0.0
 30
0.0
  0
INSERT
  5
129
100
AcDbEntity
  8
0
100
AcDbBlockReference
  2
*H51
 10
0.0
 20
0.0
 30
0.0
  0
INSERT
  5
12D
100
AcDbEntity
  8
0
100
AcDbBlockReference
  2
*H52
 10
0.0
 20
0.0
 30
0.0
  0
INSERT
  5
131
100
AcDbEntity
  8
0
100
AcDbBlockReference
  2
*H53
 10
0.0
 20
0.0
 30
0.0
  0
INSERT
  5
135
100
AcDbEntity
  8
0
100
AcDbBlockReference
  2
*H54
 10
0.0
 20
0.0
 30
0.0
  0
INSERT
  5
139
100
AcDbEntity
  8
0
100
AcDbBlockReference
  2
*H55
 10
0.0
 20
0.0
 30
0.0
  0
INSERT
  5
13D
100
AcDbEntity
  8
0
100
AcDbBlockReference
  2
*H56
 10
0.0
 20
0.0
 30
0.0
  0
INSERT
  5
141
100
AcDbEntity
  8
0
100
AcDbBlockReference
  2
*H57
 10
0.0
 20
0.0
 30
0.0
  0
INSERT
  5
145
100
AcDbEntity
  8
0
100
AcDbBlockReference
  2
*H58
 10
0.0
 20
0.0
 30
0.0
  0
INSERT
  5
149
100
AcDbEntity
  8
0
100
AcDbBlockReference
  2
*H59
 10
0.0
 20
0.0
 30
0.0
  0
CIRCLE
  5
14A
100
AcDbEntity
  8
0
  6
SOLID
 62
        1
100
AcDbCircle
 10
1035.310016877
 20
437.479873657
 30
0.0
 40
7.0
  0
ARC
  5
14B
100
AcDbEntity
  8
0
  6
SOLID
 62
        1
100
AcDbCircle
 10
1265.310016877
 20
299.479873657
 30
0.0
 40
8.0
100
AcDbArc
 50
90.0
 51
0.0
  0
CIRCLE
  5
14C
100
AcDbEntity
  8
0
  6
SOLID
 62
        1
100
AcDbCircle
 10
1265.310016877
 20
299.479873657
 30
0.0
 40
7.0
  0
LINE
  5
14D
100
AcDbEntity
  8
0
  6
SOLID
 62
        3
100
AcDbLine
 10
1280.310016877
 20
452.479873657
 30
0.0
 11
1280.310016877
 21
467.479873657
 31
0.0
  0
LINE
  5
14E
100
AcDbEntity
  8
0
  6
SOLID
 62
        7
100
AcDbLine
 10
1020.310016877
 20
284.479873657
 30
0.0
 11
1020.310016877
 21
452.479873657
 31
0.0
  0
LINE
  5
14F
100
AcDbEntity
  8
0
  6
SOLID
 62
        7
100
AcDbLine
 10
1020.310016877
 20
284.479873657
 30
0.0
 11
1280.310016877
 21
284.479873657
 31
0.0
  0
LINE
  5
150
100
AcDbEntity
  8
0
  6
CENTER
 62
        2
100
AcDbLine
 10
1265.310016877
 20
286.865018736
 30
0.0
 11
1265.310016877
 21
312.402195222
 31
0.0
  0
LINE
  5
151
100
AcDbEntity
  8
0
  6
CENTER
 62
        2
100
AcDbLine
 10
1022.68120218
 20
437.479873657
 30
0.0
 11
1047.388538606
 21
437.479873657
 31
0.0
  0
ARC
  5
152
100
AcDbEntity
  8
0
  6
SOLID
 62
        1
100
AcDbCircle
 10
1035.310016877
 20
437.479873657
 30
0.0
 40
8.0
100
AcDbArc
 50
90.0
 51
0.0
  0
ARC
  5
153
100
AcDbEntity
  8
0
  6
SOLID
 62
        7
100
AcDbCircle
 10
1039.310016877
 20
349.479873657
 30
0.0
 40
8.0
100
AcDbArc
 50
-90.0
 51
90.0
  0
LINE
  5
154
100
AcDbEntity
  8
0
  6
SOLID
 62
        7
100
AcDbLine
 10
1020.310016877
 20
357.479873657
 30
0.0
 11
1039.310016878
 21
357.479873657
 31
0.0
  0
LINE
  5
155
100
AcDbEntity
  8
0
  6
SOLID
 62
        7
100
AcDbLine
 10
1020.310016877
 20
341.479873657
 30
0.0
 11
1039.310016903
 21
341.479873657
 31
0.0
  0
CIRCLE
  5
156
100
AcDbEntity
  8
0
  6
CENTER
 62
        3
100
AcDbCircle
 10
1150.310058594
 20
0.0
 30
0.0
 40
33.5
  0
LINE
  5
157
100
AcDbEntity
  8
0
  6
SOLID
 62
        5
100
AcDbLine
 10
1476.46002954
 20
378.979872281
 30
0.0
 11
1475.960029536
 21
379.479872281
 31
0.0
  0
LINE
  5
158
100
AcDbEntity
  8
0
  6
SOLID
 62
        5
100
AcDbLine
 10
1475.960029536
 20
325.479875033
 30
0.0
 11
1371.460031389
 21
325.479875033
 31
0.0
  0
LINE
  5
159
100
AcDbEntity
  8
0
  6
CENTER
 62
        2
100
AcDbLine
 10
1485.07421875
 20
352.479873657
 30
0.0
 11
1011.387822776
 21
352.479873657
 31
0.0
  0
LINE
  5
15A
100
AcDbEntity
  8
0
  6
SOLID
 62
        1
100
AcDbLine
 10
1287.960023333
 20
320.479873804
 30
0.0
 11
1371.460031349
 21
320.479873804
 31
0.0
  0
LINE
  5
15B
100
AcDbEntity
  8
0
  6
SOLID
 62
        5
100
AcDbLine
 10
1476.46002954
 20
325.979875033
 30
0.0
 11
1476.46002954
 21
378.979871864
 31
0.0
  0
INSERT
  5
15F
100
AcDbEntity
  8
0
100
AcDbBlockReference
  2
*H60
 10
0.0
 20
0.0
 30
0.0
  0
INSERT
  5
163
100
AcDbEntity
  8
0
100
AcDbBlockReference
  2
*H61
 10
0.0
 20
0.0
 30
0.0
  0
INSERT
  5
167
100
AcDbEntity
  8
0
100
AcDbBlockReference
  2
*H62
 10
0.0
 20
0.0
 30
0.0
  0
LINE
  5
168
100
AcDbEntity
  8
0
  6
SOLID
 62
        1
100
AcDbLine
 10
1286.46002229
 20
413.479872949
 30
0.0
 11
1287.960022877
 21
411.979874454
 31
0.0
  0
LINE
  5
169
100
AcDbEntity
  8
0
  6
SOLID
 62
        1
100
AcDbLine
 10
1286.460023291
 20
291.479871358
 30
0.0
 11
1287.960023851
 21
292.979872958
 31
0.0
  0
LINE
  5
16A
100
AcDbEntity
  8
0
  6
SOLID
 62
        1
100
AcDbLine
 10
1286.460023285
 20
291.479871352
 30
0.0
 11
1282.460026957
 21
291.479871397
 31
0.0
  0
LINE
  5
16B
100
AcDbEntity
  8
0
  6
SOLID
 62
        1
100
AcDbLine
 10
1282.460016845
 20
352.479873657
 30
0.0
 11
1282.460017521
 21
291.479871815
 31
0.0
  0
LINE
  5
16C
100
AcDbEntity
  8
0
  6
SOLID
 62
        1
100
AcDbLine
 10
1282.460017455
 20
297.479871476
 30
0.0
 11
1280.310016877
 21
297.479871476
 31
0.0
  0
LINE
  5
16D
100
AcDbEntity
  8
0
  6
SOLID
 62
        1
100
AcDbLine
 10
1282.460016845
 20
352.479873657
 30
0.0
 11
1282.460016845
 21
413.479875693
 31
0.0
  0
LINE
  5
16E
100
AcDbEntity
  8
0
  6
SOLID
 62
        1
100
AcDbLine
 10
1286.460025445
 20
413.479869794
 30
0.0
 11
1282.460025957
 21
413.479869794
 31
0.0
  0
LINE
  5
16F
100
AcDbEntity
  8
0
  6
SOLID
 62
        1
100
AcDbLine
 10
1287.960022846
 20
411.979872913
 30
0.0
 11
1287.960022846
 21
292.979872585
 31
0.0
  0
LINE
  5
170
100
AcDbEntity
  8
0
  6
CENTER
 62
        2
100
AcDbLine
 10
1252.778320313
 20
299.479873657
 30
0.0
 11
1277.342138175
 21
299.479873657
 31
0.0
  0
LINE
  5
171
100
AcDbEntity
  8
0
  6
SOLID
 62
        1
100
AcDbLine
 10
1287.960064563
 20
-93.500000745
 30
0.0
 11
1287.960064563
 21
-212.500001072
 31
0.0
  0
LINE
  5
172
100
AcDbEntity
  8
0
  6
SOLID
 62
        1
100
AcDbLine
 10
1286.460067161
 20
-92.000003863
 30
0.0
 11
1282.460067674
 21
-92.000003863
 31
0.0
  0
LINE
  5
173
100
AcDbEntity
  8
0
  6
SOLID
 62
        1
100
AcDbLine
 10
1282.460058562
 20
-153.0
 30
0.0
 11
1282.460058562
 21
-91.999997965
 31
0.0
  0
LINE
  5
174
100
AcDbEntity
  8
0
  6
SOLID
 62
        1
100
AcDbLine
 10
1286.460064007
 20
-92.000000709
 30
0.0
 11
1287.960064593
 21
-93.499999203
 31
0.0
  0
LINE
  5
175
100
AcDbEntity
  8
0
  6
SOLID
 62
        5
100
AcDbLine
 10
1476.460071257
 20
-179.499998624
 30
0.0
 11
1476.460071257
 21
-126.500001793
 31
0.0
  0
LINE
  5
176
100
AcDbEntity
  8
0
  6
SOLID
 62
        5
100
AcDbLine
 10
1476.460071257
 20
-126.500001376
 30
0.0
 11
1475.960071253
 21
-126.000001376
 31
0.0
  0
LINE
  5
177
100
AcDbEntity
  8
0
  6
CENTER
 62
        2
100
AcDbLine
 10
1307.460058987
 20
-83.875152588
 30
0.0
 11
1307.460058987
 21
-216.697906494
 31
0.0
  0
LINE
  5
178
100
AcDbEntity
  8
0
  6
SOLID
 62
        5
100
AcDbLine
 10
1475.960071253
 20
-126.000001376
 30
0.0
 11
1371.46007353
 21
-126.000001376
 31
0.0
  0
LINE
  5
179
100
AcDbEntity
  8
0
  6
SOLID
 62
        1
100
AcDbLine
 10
1371.460073066
 20
-184.999999997
 30
0.0
 11
1371.460073066
 21
-121.000000147
 31
0.0
  0
LINE
  5
17A
100
AcDbEntity
  8
0
  6
SOLID
 62
        1
100
AcDbLine
 10
1282.460059171
 20
-97.999997819
 30
0.0
 11
1280.310058594
 21
-97.999997819
 31
0.0
  0
LINE
  5
17B
100
AcDbEntity
  8
0
  6
SOLID
 62
        1
100
AcDbLine
 10
1287.960064709
 20
-121.000000147
 30
0.0
 11
1371.460073569
 21
-121.000000147
 31
0.0
  0
LINE
  5
17C
100
AcDbEntity
  8
0
  6
SOLID
 62
        1
100
AcDbLine
 10
1282.460059171
 20
-208.000002181
 30
0.0
 11
1280.310058594
 21
-208.000002181
 31
0.0
  0
LINE
  5
17D
100
AcDbEntity
  8
0
  6
SOLID
 62
        1
100
AcDbLine
 10
1282.460058562
 20
-153.0
 30
0.0
 11
1282.460059238
 21
-214.000001842
 31
0.0
  0
LINE
  5
17E
100
AcDbEntity
  8
0
  6
SOLID
 62
        1
100
AcDbLine
 10
1286.460065002
 20
-214.000002305
 30
0.0
 11
1282.460068674
 21
-214.00000226
 31
0.0
  0
LINE
  5
17F
100
AcDbEntity
  8
0
  6
SOLID
 62
        1
100
AcDbLine
 10
1286.460065007
 20
-214.000002299
 30
0.0
 11
1287.960065568
 21
-212.5000007
 31
0.0
  0
LINE
  5
180
100
AcDbEntity
  8
0
  6
SOLID
 62
        1
100
AcDbLine
 10
1287.960065049
 20
-184.999999853
 30
0.0
 11
1371.460073066
 21
-184.999999853
 31
0.0
  0
LINE
  5
181
100
AcDbEntity
  8
0
  6
SOLID
 62
        5
100
AcDbLine
 10
1475.960071253
 20
-179.999998624
 30
0.0
 11
1371.460073105
 21
-179.999998624
 31
0.0
  0
LINE
  5
182
100
AcDbEntity
  8
0
  6
SOLID
 62
        5
100
AcDbLine
 10
1476.460071257
 20
-179.499998624
 30
0.0
 11
1475.960071253
 21
-179.999998624
 31
0.0
  0
LINE
  5
183
100
AcDbEntity
  8
0
  6
CENTER
 62
        2
100
AcDbLine
 10
1417.460058987
 20
-83.875152588
 30
0.0
 11
1417.460058987
 21
-216.697906494
 31
0.0
  0
CIRCLE
  5
184
100
AcDbEntity
  8
0
  6
SOLID
 62
        3
100
AcDbCircle
 10
1150.310058594
 20
-33.5
 30
0.0
 40
4.5
  0
ARC
  5
185
100
AcDbEntity
  8
0
  6
SOLID
 62
        3
100
AcDbCircle
 10
1150.310058594
 20
0.0
 30
0.0
 40
39.25
100
AcDbArc
 50
93.3128068
 51
46.687183763
  0
CIRCLE
  5
186
100
AcDbEntity
  8
0
  6
SOLID
 62
        2
100
AcDbCircle
 10
1150.310058594
 20
-33.5
 30
0.0
 40
4.25
  0
LINE
  5
187
100
AcDbEntity
  8
0
  6
SOLID
 62
        2
100
AcDbLine
 10
1150.310058594
 20
-31.190598923
 30
0.0
 11
1148.310058594
 21
-32.345299462
 31
0.0
  0
LINE
  5
188
100
AcDbEntity
  8
0
  6
SOLID
 62
        2
100
AcDbLine
 10
1148.310058594
 20
-32.345299462
 30
0.0
 11
1148.310058594
 21
-34.654700538
 31
0.0
  0
LINE
  5
189
100
AcDbEntity
  8
0
  6
SOLID
 62
        2
100
AcDbLine
 10
1148.310058594
 20
-34.654700538
 30
0.0
 11
1150.310058594
 21
-35.809401077
 31
0.0
  0
LINE
  5
18A
100
AcDbEntity
  8
0
  6
SOLID
 62
        2
100
AcDbLine
 10
1150.310058594
 20
-35.809401077
 30
0.0
 11
1152.310058594
 21
-34.654700538
 31
0.0
  0
LINE
  5
18B
100
AcDbEntity
  8
0
  6
SOLID
 62
        2
100
AcDbLine
 10
1152.310058594
 20
-34.654700538
 30
0.0
 11
1152.310058594
 21
-32.345299462
 31
0.0
  0
LINE
  5
18C
100
AcDbEntity
  8
0
  6
SOLID
 62
        2
100
AcDbLine
 10
1152.310058594
 20
-32.345299462
 30
0.0
 11
1150.310058594
 21
-31.190598923
 31
0.0
  0
CIRCLE
  5
18D
100
AcDbEntity
  8
0
  6
SOLID
 62
        3
100
AcDbCircle
 10
1179.321909621
 20
-16.75
 30
0.0
 40
4.5
  0
CIRCLE
  5
18E
100
AcDbEntity
  8
0
  6
SOLID
 62
        2
100
AcDbCircle
 10
1179.321909621
 20
-16.75
 30
0.0
 40
4.25
  0
LINE
  5
18F
100
AcDbEntity
  8
0
  6
SOLID
 62
        2
100
AcDbLine
 10
1181.321909621
 20
-15.595299462
 30
0.0
 11
1179.321909621
 21
-14.440598923
 31
0.0
  0
LINE
  5
190
100
AcDbEntity
  8
0
  6
SOLID
 62
        2
100
AcDbLine
 10
1179.321909621
 20
-14.440598923
 30
0.0
 11
1177.321909621
 21
-15.595299462
 31
0.0
  0
LINE
  5
191
100
AcDbEntity
  8
0
  6
SOLID
 62
        2
100
AcDbLine
 10
1177.321909621
 20
-15.595299462
 30
0.0
 11
1177.321909621
 21
-17.904700538
 31
0.0
  0
LINE
  5
192
100
AcDbEntity
  8
0
  6
SOLID
 62
        2
100
AcDbLine
 10
1177.321909621
 20
-17.904700538
 30
0.0
 11
1179.321909621
 21
-19.059401077
 31
0.0
  0
LINE
  5
193
100
AcDbEntity
  8
0
  6
SOLID
 62
        2
100
AcDbLine
 10
1179.321909621
 20
-19.059401077
 30
0.0
 11
1181.321909621
 21
-17.904700538
 31
0.0
  0
LINE
  5
194
100
AcDbEntity
  8
0
  6
SOLID
 62
        2
100
AcDbLine
 10
1181.321909621
 20
-17.904700538
 30
0.0
 11
1181.321909621
 21
-15.595299462
 31
0.0
  0
CIRCLE
  5
195
100
AcDbEntity
  8
0
  6
SOLID
 62
        3
100
AcDbCircle
 10
1179.321909621
 20
16.75
 30
0.0
 40
4.5
  0
CIRCLE
  5
196
100
AcDbEntity
  8
0
  6
SOLID
 62
        2
100
AcDbCircle
 10
1179.321909621
 20
16.75
 30
0.0
 40
4.25
  0
LINE
  5
197
100
AcDbEntity
  8
0
  6
SOLID
 62
        2
100
AcDbLine
 10
1179.321909621
 20
19.059401077
 30
0.0
 11
1177.321909621
 21
17.904700538
 31
0.0
  0
LINE
  5
198
100
AcDbEntity
  8
0
  6
SOLID
 62
        2
100
AcDbLine
 10
1177.321909621
 20
17.904700538
 30
0.0
 11
1177.321909621
 21
15.595299462
 31
0.0
  0
LINE
  5
199
100
AcDbEntity
  8
0
  6
SOLID
 62
        2
100
AcDbLine
 10
1177.321909621
 20
15.595299462
 30
0.0
 11
1179.321909621
 21
14.440598923
 31
0.0
  0
LINE
  5
19A
100
AcDbEntity
  8
0
  6
SOLID
 62
        2
100
AcDbLine
 10
1179.321909621
 20
14.440598923
 30
0.0
 11
1181.321909621
 21
15.595299462
 31
0.0
  0
LINE
  5
19B
100
AcDbEntity
  8
0
  6
SOLID
 62
        2
100
AcDbLine
 10
1181.321909621
 20
15.595299462
 30
0.0
 11
1181.321909621
 21
17.904700538
 31
0.0
  0
LINE
  5
19C
100
AcDbEntity
  8
0
  6
SOLID
 62
        2
100
AcDbLine
 10
1181.321909621
 20
17.904700538
 30
0.0
 11
1179.321909621
 21
19.059401077
 31
0.0
  0
ARC
  5
19D
100
AcDbEntity
  8
0
  6
SOLID
 62
        3
100
AcDbCircle
 10
1150.310058594
 20
33.5
 30
0.0
 40
4.5
100
AcDbArc
 50
96.036248787
 51
23.193789826
  0
ARC
  5
19E
100
AcDbEntity
  8
0
  6
SOLID
 62
        2
100
AcDbCircle
 10
1150.310058594
 20
33.5
 30
0.0
 40
4.25
100
AcDbArc
 50
91.624679008
 51
27.605359605
  0
LINE
  5
19F
100
AcDbEntity
  8
0
  6
SOLID
 62
        2
100
AcDbLine
 10
1148.310058594
 20
34.654700538
 30
0.0
 11
1148.310058594
 21
32.345299462
 31
0.0
  0
LINE
  5
1A0
100
AcDbEntity
  8
0
  6
SOLID
 62
        2
100
AcDbLine
 10
1148.310058594
 20
32.345299462
 30
0.0
 11
1150.310058594
 21
31.190598923
 31
0.0
  0
LINE
  5
1A1
100
AcDbEntity
  8
0
  6
SOLID
 62
        2
100
AcDbLine
 10
1150.310058594
 20
31.190598923
 30
0.0
 11
1152.310058594
 21
32.345299462
 31
0.0
  0
LINE
  5
1A2
100
AcDbEntity
  8
0
  6
SOLID
 62
        2
100
AcDbLine
 10
1152.310058594
 20
32.345299462
 30
0.0
 11
1152.310058594
 21
34.654700538
 31
0.0
  0
LINE
  5
1A3
100
AcDbEntity
  8
0
  6
SOLID
 62
        2
100
AcDbLine
 10
1152.310058594
 20
34.654700538
 30
0.0
 11
1150.310058594
 21
35.809401077
 31
0.0
  0
LINE
  5
1A4
100
AcDbEntity
  8
0
  6
SOLID
 62
        2
100
AcDbLine
 10
1150.310058594
 20
35.809401077
 30
0.0
 11
1148.310058594
 21
34.654700538
 31
0.0
  0
CIRCLE
  5
1A5
100
AcDbEntity
  8
0
  6
SOLID
 62
        3
100
AcDbCircle
 10
1121.298207567
 20
16.75
 30
0.0
 40
4.5
  0
CIRCLE
  5
1A6
100
AcDbEntity
  8
0
  6
SOLID
 62
        2
100
AcDbCircle
 10
1121.298207567
 20
16.75
 30
0.0
 40
4.25
  0
LINE
  5
1A7
100
AcDbEntity
  8
0
  6
SOLID
 62
        2
100
AcDbLine
 10
1119.298207567
 20
15.595299462
 30
0.0
 11
1121.298207567
 21
14.440598923
 31
0.0
  0
LINE
  5
1A8
100
AcDbEntity
  8
0
  6
SOLID
 62
        2
100
AcDbLine
 10
1121.298207567
 20
14.440598923
 30
0.0
 11
1123.298207567
 21
15.595299462
 31
0.0
  0
LINE
  5
1A9
100
AcDbEntity
  8
0
  6
SOLID
 62
        2
100
AcDbLine
 10
1123.298207567
 20
15.595299462
 30
0.0
 11
1123.298207567
 21
17.904700538
 31
0.0
  0
LINE
  5
1AA
100
AcDbEntity
  8
0
  6
SOLID
 62
        2
100
AcDbLine
 10
1123.298207567
 20
17.904700538
 30
0.0
 11
1121.298207567
 21
19.059401077
 31
0.0
  0
LINE
  5
1AB
100
AcDbEntity
  8
0
  6
SOLID
 62
        2
100
AcDbLine
 10
1121.298207567
 20
19.059401077
 30
0.0
 11
1119.298207567
 21
17.904700538
 31
0.0
  0
LINE
  5
1AC
100
AcDbEntity
  8
0
  6
SOLID
 62
        2
100
AcDbLine
 10
1119.298207567
 20
17.904700538
 30
0.0
 11
1119.298207567
 21
15.595299462
 31
0.0
  0
CIRCLE
  5
1AD
100
AcDbEntity
  8
0
  6
SOLID
 62
        3
100
AcDbCircle
 10
1121.298207567
 20
-16.75
 30
0.0
 40
4.5
  0
CIRCLE
  5
1AE
100
AcDbEntity
  8
0
  6
SOLID
 62
        2
100
AcDbCircle
 10
1121.298207567
 20
-16.75
 30
0.0
 40
4.25
  0
LINE
  5
1AF
100
AcDbEntity
  8
0
  6
SOLID
 62
        2
100
AcDbLine
 10
1121.298207567
 20
-19.059401077
 30
0.0
 11
1123.298207567
 21
-17.904700538
 31
0.0
  0
LINE
  5
1B0
100
AcDbEntity
  8
0
  6
SOLID
 62
        2
100
AcDbLine
 10
1123.298207567
 20
-17.904700538
 30
0.0
 11
1123.298207567
 21
-15.595299462
 31
0.0
  0
LINE
  5
1B1
100
AcDbEntity
  8
0
  6
SOLID
 62
        2
100
AcDbLine
 10
1123.298207567
 20
-15.595299462
 30
0.0
 11
1121.298207567
 21
-14.440598923
 31
0.0
  0
LINE
  5
1B2
100
AcDbEntity
  8
0
  6
SOLID
 62
        2
100
AcDbLine
 10
1121.298207567
 20
-14.440598923
 30
0.0
 11
1119.298207567
 21
-15.595299462
 31
0.0
  0
LINE
  5
1B3
100
AcDbEntity
  8
0
  6
SOLID
 62
        2
100
AcDbLine
 10
1119.298207567
 20
-15.595299462
 30
0.0
 11
1119.298207567
 21
-17.904700538
 31
0.0
  0
LINE
  5
1B4
100
AcDbEntity
  8
0
  6
SOLID
 62
        2
100
AcDbLine
 10
1119.298207567
 20
-17.904700538
 30
0.0
 11
1121.298207567
 21
-19.059401077
 31
0.0
  0
LINE
  5
1B5
100
AcDbEntity
  8
0
  6
SOLID
 62
        3
100
AcDbLine
 10
676.738464355
 20
39.249966518
 30
0.0
 11
676.238464355
 21
38.749966518
 31
0.0
  0
LINE
  5
1B6
100
AcDbEntity
  8
0
  6
SOLID
 62
        3
100
AcDbLine
 10
676.238464355
 20
-38.750033482
 30
0.0
 11
676.738464355
 21
-39.250033482
 31
0.0
  0
LINE
  5
1B7
100
AcDbEntity
  8
0
  6
SOLID
 62
        3
100
AcDbLine
 10
676.738464355
 20
-39.250033482
 30
0.0
 11
676.738464355
 21
39.249966518
 31
0.0
  0
LINE
  5
1B8
100
AcDbEntity
  8
0
  6
SOLID
 62
        3
100
AcDbLine
 10
1111.560004376
 20
477.979873657
 30
0.0
 11
1111.060004376
 21
477.479873657
 31
0.0
  0
LINE
  5
1B9
100
AcDbEntity
  8
0
  6
SOLID
 62
        3
100
AcDbLine
 10
1189.060004376
 20
477.979873657
 30
0.0
 11
1111.560004376
 21
477.979873657
 31
0.0
  0
LINE
  5
1BA
100
AcDbEntity
  8
0
  6
SOLID
 62
        3
100
AcDbLine
 10
1111.060004376
 20
477.479873657
 30
0.0
 11
1111.060004376
 21
467.479873657
 31
0.0
  0
LINE
  5
1BB
100
AcDbEntity
  8
0
  6
SOLID
 62
        3
100
AcDbLine
 10
1111.060004376
 20
477.479873657
 30
0.0
 11
1189.560004376
 21
477.479873657
 31
0.0
  0
LINE
  5
1BC
100
AcDbEntity
  8
0
  6
SOLID
 62
        3
100
AcDbLine
 10
1189.560004376
 20
477.479873657
 30
0.0
 11
1189.060004376
 21
477.979873657
 31
0.0
  0
LINE
  5
1BD
100
AcDbEntity
  8
0
  6
SOLID
 62
        3
100
AcDbLine
 10
1189.560004376
 20
467.479873657
 30
0.0
 11
1189.560004376
 21
477.479873657
 31
0.0
  0
LINE
  5
1BE
100
AcDbEntity
  8
0
  6
CENTER
 62
        2
100
AcDbLine
 10
1232.459960938
 20
573.921088262
 30
0.0
 11
1232.459960938
 21
497.046920961
 31
0.0
  0
LINE
  5
1BF
100
AcDbEntity
  8
0
  6
SOLID
 62
        6
100
AcDbLine
 10
1242.458906949
 20
570.479891241
 30
0.0
 11
1242.458906949
 21
564.764539947
 31
0.0
  0
CIRCLE
  5
1C0
100
AcDbEntity
  8
0
  6
SOLID
 62
        6
100
AcDbCircle
 10
1232.459960938
 20
536.479896081
 30
0.0
 40
30.0
  0
LINE
  5
1C1
100
AcDbEntity
  8
0
  6
SOLID
 62
        6
100
AcDbLine
 10
1188.461129914
 20
596.479894999
 30
0.0
 11
1188.461129914
 21
587.979894999
 31
0.0
  0
LINE
  5
1C2
100
AcDbEntity
  8
0
  6
CENTER
 62
        2
100
AcDbLine
 10
1182.460018403
 20
619.329971313
 30
0.0
 11
1182.460018403
 21
418.341659546
 31
0.0
  0
LINE
  5
1C3
100
AcDbEntity
  8
0
  6
SOLID
 62
        6
100
AcDbLine
 10
1176.461129857
 20
596.479894316
 30
0.0
 11
1176.461129857
 21
587.979894316
 31
0.0
  0
LINE
  5
1C4
100
AcDbEntity
  8
0
  6
SOLID
 62
        6
100
AcDbLine
 10
1242.458906949
 20
508.195252214
 30
0.0
 11
1242.458906949
 21
502.479894657
 31
0.0
  0
LINE
  5
1C5
100
AcDbEntity
  8
0
  6
SOLID
 62
        2
100
AcDbLine
 10
1109.459950135
 20
487.479894657
 30
0.0
 11
1109.459950135
 21
467.479873657
 31
0.0
  0
LINE
  5
1C6
100
AcDbEntity
  8
0
  6
SOLID
 62
        6
100
AcDbLine
 10
1128.461129857
 20
502.479894657
 30
0.0
 11
1128.461129857
 21
487.479894657
 31
0.0
  0
LINE
  5
1C7
100
AcDbEntity
  8
0
  6
SOLID
 62
        6
100
AcDbLine
 10
1189.461129857
 20
595.479895056
 30
0.0
 11
1175.461129857
 21
595.479895056
 31
0.0
  0
LINE
  5
1C8
100
AcDbEntity
  8
0
  6
SOLID
 62
        2
100
AcDbLine
 10
1277.459960938
 20
467.479873657
 30
0.0
 11
1277.459960938
 21
487.479894657
 31
0.0
  0
LINE
  5
1C9
100
AcDbEntity
  8
0
  6
SOLID
 62
        6
100
AcDbLine
 10
1162.459960938
 20
165.331108093
 30
0.0
 11
1302.459960938
 21
165.331108093
 31
0.0
  0
CIRCLE
  5
1CA
100
AcDbEntity
  8
0
  6
SOLID
 62
        5
100
AcDbCircle
 10
801.738464355
 20
-153.0
 30
0.0
 40
26.999998624
  0
LINE
  5
1CB
100
AcDbEntity
  8
0
  6
SOLID
 62
        6
100
AcDbLine
 10
1122.461129857
 20
502.479894657
 30
0.0
 11
1242.461129857
 21
502.479894657
 31
0.0
  0
LINE
  5
1CC
100
AcDbEntity
  8
0
  6
SOLID
 62
        6
100
AcDbLine
 10
1236.461129857
 20
502.479894657
 30
0.0
 11
1236.461129857
 21
487.479894657
 31
0.0
  0
CIRCLE
  5
1CD
100
AcDbEntity
  8
0
  6
SOLID
 62
        1
100
AcDbCircle
 10
801.738464355
 20
-153.0
 30
0.0
 40
31.999999853
  0
LINE
  5
1CE
100
AcDbEntity
  8
0
  6
SOLID
 62
        3
100
AcDbLine
 10
1070.310058594
 20
479.07983379
 30
0.0
 11
1070.310058594
 21
484.07983379
 31
0.0
  0
LINE
  5
1CF
100
AcDbEntity
  8
0
  6
SOLID
 62
        3
100
AcDbLine
 10
1067.310058594
 20
479.07983379
 30
0.0
 11
1067.310058594
 21
484.07983379
 31
0.0
  0
LINE
  5
1D0
100
AcDbEntity
  8
0
  6
SOLID
 62
        3
100
AcDbLine
 10
1064.310058594
 20
479.07983379
 30
0.0
 11
1064.310058594
 21
484.07983379
 31
0.0
  0
LINE
  5
1D1
100
AcDbEntity
  8
0
  6
SOLID
 62
        3
100
AcDbLine
 10
1066.810058594
 20
478.479797169
 30
0.0
 11
1066.810058594
 21
479.079797193
 31
0.0
  0
LINE
  5
1D2
100
AcDbEntity
  8
0
  6
CENTER
 62
        7
100
AcDbLine
 10
1080.310058594
 20
461.357803345
 30
0.0
 11
1080.310058594
 21
495.054824829
 31
0.0
  0
LINE
  5
1D3
100
AcDbEntity
  8
0
  6
SOLID
 62
        3
100
AcDbLine
 10
1107.810058594
 20
467.479873657
 30
0.0
 11
1107.810058594
 21
477.979797169
 31
0.0
  0
LINE
  5
1D4
100
AcDbEntity
  8
0
  6
SOLID
 62
        3
100
AcDbLine
 10
1107.310058594
 20
478.479797169
 30
0.0
 11
1107.810058594
 21
477.979797169
 31
0.0
  0
LINE
  5
1D5
100
AcDbEntity
  8
0
  6
SOLID
 62
        3
100
AcDbLine
 10
1082.310058594
 20
479.07983379
 30
0.0
 11
1082.310058594
 21
484.07983379
 31
0.0
  0
LINE
  5
1D6
100
AcDbEntity
  8
0
  6
SOLID
 62
        7
100
AcDbLine
 10
1089.310058594
 20
488.479873657
 30
0.0
 11
1089.310058594
 21
492.479873657
 31
0.0
  0
LINE
  5
1D7
100
AcDbEntity
  8
0
  6
SOLID
 62
        7
100
AcDbLine
 10
1089.810058594
 20
492.479873657
 30
0.0
 11
1090.310058594
 21
491.979873657
 31
0.0
  0
LINE
  5
1D8
100
AcDbEntity
  8
0
  6
SOLID
 62
        7
100
AcDbLine
 10
1090.310058594
 20
488.479873657
 30
0.0
 11
1090.310058594
 21
491.979873657
 31
0.0
  0
LINE
  5
1D9
100
AcDbEntity
  8
0
  6
SOLID
 62
        3
100
AcDbLine
 10
1090.310058594
 20
479.07983379
 30
0.0
 11
1090.310058594
 21
484.07983379
 31
0.0
  0
LINE
  5
1DA
100
AcDbEntity
  8
0
  6
SOLID
 62
        3
100
AcDbLine
 10
1093.310058594
 20
479.07983379
 30
0.0
 11
1093.310058594
 21
484.07983379
 31
0.0
  0
LINE
  5
1DB
100
AcDbEntity
  8
0
  6
SOLID
 62
        6
100
AcDbLine
 10
1122.461129857
 20
570.479891241
 30
0.0
 11
1242.461129857
 21
570.479898073
 31
0.0
  0
LINE
  5
1DC
100
AcDbEntity
  8
0
  6
SOLID
 62
        6
100
AcDbLine
 10
1128.461129857
 20
585.479891583
 30
0.0
 11
1236.461129857
 21
585.479897732
 31
0.0
  0
LINE
  5
1DD
100
AcDbEntity
  8
0
  6
SOLID
 62
        6
100
AcDbLine
 10
1236.461129857
 20
585.479897732
 30
0.0
 11
1236.461129857
 21
570.479897732
 31
0.0
  0
LINE
  5
1DE
100
AcDbEntity
  8
0
  6
SOLID
 62
        6
100
AcDbLine
 10
1176.461129857
 20
596.479894316
 30
0.0
 11
1188.461129914
 21
596.479894999
 31
0.0
  0
LINE
  5
1DF
100
AcDbEntity
  8
0
  6
SOLID
 62
        6
100
AcDbLine
 10
1189.461129857
 20
595.479895056
 30
0.0
 11
1189.461129857
 21
587.979895056
 31
0.0
  0
LINE
  5
1E0
100
AcDbEntity
  8
0
  6
SOLID
 62
        6
100
AcDbLine
 10
1189.461129857
 20
595.479895056
 30
0.0
 11
1188.461129914
 21
596.479894999
 31
0.0
  0
LINE
  5
1E1
100
AcDbEntity
  8
0
  6
SOLID
 62
        2
100
AcDbLine
 10
1187.461129857
 20
601.479894885
 30
0.0
 11
1187.461129857
 21
596.479894942
 31
0.0
  0
ARC
  5
1E2
100
AcDbEntity
  8
0
  6
SOLID
 62
        2
100
AcDbCircle
 10
1186.461129857
 20
601.479894885
 30
0.0
 40
1.0
100
AcDbArc
 50
0.0
 51
90.000003262
  0
LINE
  5
1E3
100
AcDbEntity
  8
0
  6
SOLID
 62
        2
100
AcDbLine
 10
1178.4611298
 20
602.47989443
 30
0.0
 11
1186.4611298
 21
602.479894885
 31
0.0
  0
LINE
  5
1E4
100
AcDbEntity
  8
0
  6
SOLID
 62
        2
100
AcDbLine
 10
1177.461129857
 20
601.47989443
 30
0.0
 11
1177.461129857
 21
596.479894373
 31
0.0
  0
ARC
  5
1E5
100
AcDbEntity
  8
0
  6
SOLID
 62
        2
100
AcDbCircle
 10
1178.461129857
 20
601.47989443
 30
0.0
 40
1.0
100
AcDbArc
 50
90.000003262
 51
180.0
  0
LINE
  5
1E6
100
AcDbEntity
  8
0
  6
SOLID
 62
        6
100
AcDbLine
 10
1175.461129857
 20
595.479894202
 30
0.0
 11
1175.461129857
 21
587.979894259
 31
0.0
  0
LINE
  5
1E7
100
AcDbEntity
  8
0
  6
SOLID
 62
        6
100
AcDbLine
 10
1176.461129857
 20
596.479894316
 30
0.0
 11
1175.461129857
 21
595.479894202
 31
0.0
  0
LINE
  5
1E8
100
AcDbEntity
  8
0
  6
SOLID
 62
        6
100
AcDbLine
 10
1217.461129857
 20
587.97989665
 30
0.0
 11
1217.461129857
 21
585.47989665
 31
0.0
  0
LINE
  5
1E9
100
AcDbEntity
  8
0
  6
SOLID
 62
        6
100
AcDbLine
 10
1147.461129857
 20
587.979892664
 30
0.0
 11
1217.461129857
 21
587.97989665
 31
0.0
  0
LINE
  5
1EA
100
AcDbEntity
  8
0
  6
SOLID
 62
        6
100
AcDbLine
 10
1147.461129857
 20
587.979892664
 30
0.0
 11
1147.461129857
 21
585.479892664
 31
0.0
  0
LINE
  5
1EB
100
AcDbEntity
  8
0
  6
SOLID
 62
        6
100
AcDbLine
 10
1128.461129857
 20
585.479891583
 30
0.0
 11
1128.461129857
 21
570.479891583
 31
0.0
  0
LINE
  5
1EC
100
AcDbEntity
  8
0
  6
SOLID
 62
        6
100
AcDbLine
 10
1122.461129857
 20
570.479891241
 30
0.0
 11
1122.461129857
 21
502.479894657
 31
0.0
  0
LINE
  5
1ED
100
AcDbEntity
  8
0
  6
SOLID
 62
        3
100
AcDbLine
 10
1093.810058594
 20
478.479797169
 30
0.0
 11
1093.810058594
 21
479.079797193
 31
0.0
  0
LINE
  5
1EE
100
AcDbEntity
  8
0
  6
SOLID
 62
        3
100
AcDbLine
 10
1096.310058594
 20
479.07983379
 30
0.0
 11
1096.310058594
 21
484.07983379
 31
0.0
  0
LINE
  5
1EF
100
AcDbEntity
  8
0
  6
SOLID
 62
        3
100
AcDbLine
 10
1094.296630859
 20
486.778503224
 30
0.0
 11
1096.310204099
 21
484.079837512
 31
0.0
  0
ARC
  5
1F0
100
AcDbEntity
  8
0
  6
SOLID
 62
        3
100
AcDbCircle
 10
1092.810058594
 20
486.979797169
 30
0.0
 40
1.5
100
AcDbArc
 50
352.286316096
 51
89.999999146
  0
LINE
  5
1F1
100
AcDbEntity
  8
0
  6
SOLID
 62
        3
100
AcDbLine
 10
1096.310058594
 20
484.07983379
 30
0.0
 11
1080.310058594
 21
484.07983379
 31
0.0
  0
LINE
  5
1F2
100
AcDbEntity
  8
0
  6
SOLID
 62
        3
100
AcDbLine
 10
1094.296630859
 20
486.778503224
 30
0.0
 11
1080.310204099
 21
486.778503224
 31
0.0
  0
LINE
  5
1F3
100
AcDbEntity
  8
0
  6
SOLID
 62
        3
100
AcDbLine
 10
1092.810058594
 20
488.479797169
 30
0.0
 11
1080.310058594
 21
488.479797169
 31
0.0
  0
LINE
  5
1F4
100
AcDbEntity
  8
0
  6
SOLID
 62
        3
100
AcDbLine
 10
1080.310058594
 20
479.07983379
 30
0.0
 11
1096.310058594
 21
479.07983379
 31
0.0
  0
LINE
  5
1F5
100
AcDbEntity
  8
0
  6
SOLID
 62
        7
100
AcDbLine
 10
1071.310058594
 20
488.479873657
 30
0.0
 11
1071.310058594
 21
492.479873657
 31
0.0
  0
LINE
  5
1F6
100
AcDbEntity
  8
0
  6
SOLID
 62
        7
100
AcDbLine
 10
1070.310058594
 20
491.979873657
 30
0.0
 11
1090.310058594
 21
491.979873657
 31
0.0
  0
LINE
  5
1F7
100
AcDbEntity
  8
0
  6
SOLID
 62
        7
100
AcDbLine
 10
1070.810058594
 20
492.479873657
 30
0.0
 11
1070.310058594
 21
491.979873657
 31
0.0
  0
LINE
  5
1F8
100
AcDbEntity
  8
0
  6
SOLID
 62
        7
100
AcDbLine
 10
1070.810058594
 20
492.479873657
 30
0.0
 11
1089.810058594
 21
492.479873657
 31
0.0
  0
LINE
  5
1F9
100
AcDbEntity
  8
0
  6
SOLID
 62
        7
100
AcDbLine
 10
1070.310058594
 20
488.479873657
 30
0.0
 11
1070.310058594
 21
491.979873657
 31
0.0
  0
LINE
  5
1FA
100
AcDbEntity
  8
0
  6
SOLID
 62
        3
100
AcDbLine
 10
1078.310058594
 20
479.07983379
 30
0.0
 11
1078.310058594
 21
484.07983379
 31
0.0
  0
LINE
  5
1FB
100
AcDbEntity
  8
0
  6
SOLID
 62
        3
100
AcDbLine
 10
1066.323730469
 20
486.778503224
 30
0.0
 11
1064.310154453
 21
484.07983379
 31
0.0
  0
ARC
  5
1FC
100
AcDbEntity
  8
0
  6
SOLID
 62
        3
100
AcDbCircle
 10
1067.810054661
 20
486.979822256
 30
0.0
 40
1.5
100
AcDbArc
 50
90.0
 51
187.71368305
  0
LINE
  5
1FD
100
AcDbEntity
  8
0
  6
SOLID
 62
        3
100
AcDbLine
 10
1064.310154453
 20
484.07983379
 30
0.0
 11
1080.310058594
 21
484.07983379
 31
0.0
  0
LINE
  5
1FE
100
AcDbEntity
  8
0
  6
SOLID
 62
        3
100
AcDbLine
 10
1066.323730469
 20
486.778503224
 30
0.0
 11
1080.310157229
 21
486.778503224
 31
0.0
  0
LINE
  5
1FF
100
AcDbEntity
  8
0
  6
SOLID
 62
        3
100
AcDbLine
 10
1067.810058594
 20
488.479797169
 30
0.0
 11
1080.310058594
 21
488.479797169
 31
0.0
  0
LINE
  5
200
100
AcDbEntity
  8
0
  6
SOLID
 62
        3
100
AcDbLine
 10
1080.310058594
 20
479.07983379
 30
0.0
 11
1064.310058594
 21
479.07983379
 31
0.0
  0
LINE
  5
201
100
AcDbEntity
  8
0
  6
SOLID
 62
        3
100
AcDbLine
 10
1107.310061351
 20
478.479797169
 30
0.0
 11
1053.310058594
 21
478.479797169
 31
0.0
  0
LINE
  5
202
100
AcDbEntity
  8
0
  6
SOLID
 62
        3
100
AcDbLine
 10
1053.310058594
 20
478.479797169
 30
0.0
 11
1052.810058594
 21
477.979797169
 31
0.0
  0
LINE
  5
203
100
AcDbEntity
  8
0
  6
SOLID
 62
        3
100
AcDbLine
 10
1052.810058594
 20
467.479797169
 30
0.0
 11
1052.810058594
 21
477.979797169
 31
0.0
  0
LINE
  5
204
100
AcDbEntity
  8
0
  6
SOLID
 62
        3
100
AcDbLine
 10
1052.810058594
 20
477.979797169
 30
0.0
 11
1107.810064109
 21
477.979797169
 31
0.0
  0
LINE
  5
205
100
AcDbEntity
  8
0
  6
SOLID
 62
        6
100
AcDbLine
 10
1162.459960938
 20
165.331108093
 30
0.0
 11
1162.459960938
 21
155.331108093
 31
0.0
  0
LINE
  5
206
100
AcDbEntity
  8
0
  6
CENTER
 62
        2
100
AcDbLine
 10
1104.298313378
 20
536.479892432
 30
0.0
 11
1273.603225625
 21
536.479897252
 31
0.0
  0
LINE
  5
207
100
AcDbEntity
  8
0
  6
SOLID
 62
        6
100
AcDbLine
 10
1162.459960938
 20
155.331108093
 30
0.0
 11
1302.459960938
 21
155.331108093
 31
0.0
  0
LINE
  5
208
100
AcDbEntity
  8
0
  6
SOLID
 62
        6
100
AcDbLine
 10
1302.459960938
 20
165.331108093
 30
0.0
 11
1302.459960938
 21
155.331108093
 31
0.0
  0
LINE
  5
209
100
AcDbEntity
  8
0
  6
SOLID
 62
        6
100
AcDbLine
 10
547.738443355
 20
165.32998085
 30
0.0
 11
687.738443355
 21
165.32998085
 31
0.0
  0
LINE
  5
20A
100
AcDbEntity
  8
0
  6
SOLID
 62
        2
100
AcDbLine
 10
1109.459950135
 20
487.479894657
 30
0.0
 11
1277.459960938
 21
487.479894657
 31
0.0
  0
LINE
  5
20B
100
AcDbEntity
  8
0
  6
SOLID
 62
        6
100
AcDbLine
 10
547.738443355
 20
165.32998085
 30
0.0
 11
547.738443355
 21
155.32998085
 31
0.0
  0
LINE
  5
20C
100
AcDbEntity
  8
0
  6
SOLID
 62
        6
100
AcDbLine
 10
547.738443355
 20
155.32998085
 30
0.0
 11
687.738443355
 21
155.32998085
 31
0.0
  0
LINE
  5
20D
100
AcDbEntity
  8
0
  6
SOLID
 62
        6
100
AcDbLine
 10
687.738443355
 20
165.32998085
 30
0.0
 11
687.738443355
 21
155.32998085
 31
0.0
  0
LINE
  5
20E
100
AcDbEntity
  8
0
  6
SOLID
 62
        6
100
AcDbLine
 10
646.738442961
 20
148.331092304
 30
0.0
 11
651.738443355
 21
148.331092304
 31
0.0
  0
ARC
  5
20F
100
AcDbEntity
  8
0
  6
SOLID
 62
        6
100
AcDbCircle
 10
1232.459960938
 20
536.479896081
 30
0.0
 40
70.0
100
AcDbArc
 50
310.005200885
 51
127.898824833
  0
LINE
  5
210
100
AcDbEntity
  8
0
  6
CENTER
 62
        2
100
AcDbLine
 10
804.738464355
 20
-242.776120322
 30
0.0
 11
804.738464355
 21
-209.501215218
 31
0.0
  0
LINE
  5
211
100
AcDbEntity
  8
0
  6
SOLID
 62
        7
100
AcDbLine
 10
812.738464355
 20
-233.0
 30
0.0
 11
812.738464355
 21
-216.0
 31
0.0
  0
LINE
  5
212
100
AcDbEntity
  8
0
  6
SOLID
 62
        7
100
AcDbLine
 10
796.738464355
 20
-233.0
 30
0.0
 11
796.738464355
 21
-216.0
 31
0.0
  0
LINE
  5
213
100
AcDbEntity
  8
0
  6
SOLID
 62
        7
100
AcDbLine
 10
796.738464355
 20
-216.0
 30
0.0
 11
812.738464355
 21
-216.0
 31
0.0
  0
LINE
  5
214
100
AcDbEntity
  8
0
  6
SOLID
 62
        7
100
AcDbLine
 10
796.738464355
 20
-222.000008816
 30
0.0
 11
731.738464355
 21
-222.000008816
 31
0.0
  0
LINE
  5
216
100
AcDbEntity
  8
0
  6
DASH
 62
        7
100
AcDbLine
 10
1280.310058594
 20
-216.0
 30
0.0
 11
1253.310058594
 21
-216.0
 31
0.0
  0
LINE
  5
217
100
AcDbEntity
  8
0
  6
DASH
 62
        7
100
AcDbLine
 10
1047.310058594
 20
-216.0
 30
0.0
 11
1047.310058594
 21
-231.5
 31
0.0
  0
LINE
  5
218
100
AcDbEntity
  8
0
  6
DASH
 62
        7
100
AcDbLine
 10
1253.310058594
 20
-231.5
 30
0.0
 11
1253.310058594
 21
-216.0
 31
0.0
  0
LINE
  5
219
100
AcDbEntity
  8
0
  6
DASH
 62
        7
100
AcDbLine
 10
1047.310058594
 20
-216.0
 30
0.0
 11
1020.310058594
 21
-216.0
 31
0.0
  0
LINE
  5
21A
100
AcDbEntity
  8
0
  6
SOLID
 62
        6
100
AcDbLine
 10
588.738442961
 20
148.331092304
 30
0.0
 11
588.738442961
 21
155.32998085
 31
0.0
  0
LINE
  5
21B
100
AcDbEntity
  8
0
  6
SOLID
 62
        6
100
AcDbLine
 10
646.738442961
 20
148.331092304
 30
0.0
 11
646.738442961
 21
155.32998085
 31
0.0
  0
LINE
  5
21C
100
AcDbEntity
  8
0
  6
SOLID
 62
        3
100
AcDbLine
 10
686.738464355
 20
39.249966518
 30
0.0
 11
676.738464355
 21
39.249966518
 31
0.0
  0
LINE
  5
21D
100
AcDbEntity
  8
0
  6
SOLID
 62
        3
100
AcDbLine
 10
676.738464355
 20
-39.250033482
 30
0.0
 11
686.738464355
 21
-39.250033482
 31
0.0
  0
LINE
  5
21E
100
AcDbEntity
  8
0
  6
SOLID
 62
        7
100
AcDbLine
 10
839.738464355
 20
-222.000008816
 30
0.0
 11
812.738464355
 21
-222.000008816
 31
0.0
  0
LINE
  5
21F
100
AcDbEntity
  8
0
  6
SOLID
 62
        7
100
AcDbLine
 10
701.738464355
 20
-88.0
 30
0.0
 11
869.738464355
 21
-88.0
 31
0.0
  0
LINE
  5
220
100
AcDbEntity
  8
0
  6
SOLID
 62
        2
100
AcDbLine
 10
666.738443355
 20
32.749973304
 30
0.0
 11
676.238464355
 21
32.749973304
 31
0.0
  0
LINE
  5
221
100
AcDbEntity
  8
0
  6
SOLID
 62
        1
100
AcDbLine
 10
724.52659734
 20
-151.175831153
 30
0.0
 11
740.90055807
 21
-148.555997436
 31
0.0
  0
CIRCLE
  5
222
100
AcDbEntity
  8
0
  6
SOLID
 62
        1
100
AcDbCircle
 10
726.738464355
 20
-165.0
 30
0.0
 40
14.0
  0
INSERT
  5
226
100
AcDbEntity
  8
0
100
AcDbBlockReference
  2
*H63
 10
0.0
 20
0.0
 30
0.0
  0
INSERT
  5
22A
100
AcDbEntity
  8
0
100
AcDbBlockReference
  2
*H64
 10
0.0
 20
0.0
 30
0.0
  0
INSERT
  5
22E
100
AcDbEntity
  8
0
100
AcDbBlockReference
  2
*H65
 10
0.0
 20
0.0
 30
0.0
  0
INSERT
  5
232
100
AcDbEntity
  8
0
100
AcDbBlockReference
  2
*H66
 10
0.0
 20
0.0
 30
0.0
  0
INSERT
  5
236
100
AcDbEntity
  8
0
100
AcDbBlockReference
  2
*H67
 10
0.0
 20
0.0
 30
0.0
  0
INSERT
  5
23A
100
AcDbEntity
  8
0
100
AcDbBlockReference
  2
*H68
 10
0.0
 20
0.0
 30
0.0
  0
INSERT
  5
23E
100
AcDbEntity
  8
0
100
AcDbBlockReference
  2
*H69
 10
0.0
 20
0.0
 30
0.0
  0
INSERT
  5
242
100
AcDbEntity
  8
0
100
AcDbBlockReference
  2
*H70
 10
0.0
 20
0.0
 30
0.0
  0
INSERT
  5
246
100
AcDbEntity
  8
0
100
AcDbBlockReference
  2
*H71
 10
0.0
 20
0.0
 30
0.0
  0
INSERT
  5
24A
100
AcDbEntity
  8
0
100
AcDbBlockReference
  2
*H72
 10
0.0
 20
0.0
 30
0.0
  0
INSERT
  5
24E
100
AcDbEntity
  8
0
100
AcDbBlockReference
  2
*H73
 10
0.0
 20
0.0
 30
0.0
  0
LINE
  5
24F
100
AcDbEntity
  8
0
  6
SOLID
 62
        2
100
AcDbLine
 10
1150.310058594
 20
-222.464101615
 30
0.0
 11
1147.310058594
 21
-220.732050808
 31
0.0
  0
INSERT
  5
253
100
AcDbEntity
  8
0
100
AcDbBlockReference
  2
*H74
 10
0.0
 20
0.0
 30
0.0
  0
INSERT
  5
257
100
AcDbEntity
  8
0
100
AcDbBlockReference
  2
*H75
 10
0.0
 20
0.0
 30
0.0
  0
INSERT
  5
25B
100
AcDbEntity
  8
0
100
AcDbBlockReference
  2
*H76
 10
0.0
 20
0.0
 30
0.0
  0
INSERT
  5
25F
100
AcDbEntity
  8
0
100
AcDbBlockReference
  2
*H77
 10
0.0
 20
0.0
 30
0.0
  0
INSERT
  5
263
100
AcDbEntity
  8
0
100
AcDbBlockReference
  2
*H78
 10
0.0
 20
0.0
 30
0.0
  0
INSERT
  5
267
100
AcDbEntity
  8
0
100
AcDbBlockReference
  2
*H79
 10
0.0
 20
0.0
 30
0.0
  0
INSERT
  5
26B
100
AcDbEntity
  8
0
100
AcDbBlockReference
  2
*H80
 10
0.0
 20
0.0
 30
0.0
  0
INSERT
  5
26F
100
AcDbEntity
  8
0
100
AcDbBlockReference
  2
*H81
 10
0.0
 20
0.0
 30
0.0
  0
INSERT
  5
273
100
AcDbEntity
  8
0
100
AcDbBlockReference
  2
*H82
 10
0.0
 20
0.0
 30
0.0
  0
INSERT
  5
277
100
AcDbEntity
  8
0
100
AcDbBlockReference
  2
*H83
 10
0.0
 20
0.0
 30
0.0
  0
INSERT
  5
27B
100
AcDbEntity
  8
0
100
AcDbBlockReference
  2
*H84
 10
0.0
 20
0.0
 30
0.0
  0
INSERT
  5
27F
100
AcDbEntity
  8
0
100
AcDbBlockReference
  2
*H85
 10
0.0
 20
0.0
 30
0.0
  0
INSERT
  5
283
100
AcDbEntity
  8
0
100
AcDbBlockReference
  2
*H86
 10
0.0
 20
0.0
 30
0.0
  0
INSERT
  5
287
100
AcDbEntity
  8
0
100
AcDbBlockReference
  2
*H87
 10
0.0
 20
0.0
 30
0.0
  0
INSERT
  5
28B
100
AcDbEntity
  8
0
100
AcDbBlockReference
  2
*H88
 10
0.0
 20
0.0
 30
0.0
  0
INSERT
  5
28F
100
AcDbEntity
  8
0
100
AcDbBlockReference
  2
*H89
 10
0.0
 20
0.0
 30
0.0
  0
INSERT
  5
293
100
AcDbEntity
  8
0
100
AcDbBlockReference
  2
*H90
 10
0.0
 20
0.0
 30
0.0
  0
INSERT
  5
297
100
AcDbEntity
  8
0
100
AcDbBlockReference
  2
*H91
 10
0.0
 20
0.0
 30
0.0
  0
INSERT
  5
29B
100
AcDbEntity
  8
0
100
AcDbBlockReference
  2
*H92
 10
0.0
 20
0.0
 30
0.0
  0
INSERT
  5
29F
100
AcDbEntity
  8
0
100
AcDbBlockReference
  2
*H93
 10
0.0
 20
0.0
 30
0.0
  0
INSERT
  5
2A3
100
AcDbEntity
  8
0
100
AcDbBlockReference
  2
*H94
 10
0.0
 20
0.0
 30
0.0
  0
INSERT
  5
2A7
100
AcDbEntity
  8
0
100
AcDbBlockReference
  2
*H95
 10
0.0
 20
0.0
 30
0.0
  0
INSERT
  5
2AB
100
AcDbEntity
  8
0
100
AcDbBlockReference
  2
*H96
 10
0.0
 20
0.0
 30
0.0
  0
INSERT
  5
2AF
100
AcDbEntity
  8
0
100
AcDbBlockReference
  2
*H97
 10
0.0
 20
0.0
 30
0.0
  0
INSERT
  5
2B3
100
AcDbEntity
  8
0
100
AcDbBlockReference
  2
*H98
 10
0.0
 20
0.0
 30
0.0
  0
INSERT
  5
2B7
100
AcDbEntity
  8
0
100
AcDbBlockReference
  2
*H99
 10
0.0
 20
0.0
 30
0.0
  0
INSERT
  5
2BB
100
AcDbEntity
  8
0
100
AcDbBlockReference
  2
*H100
 10
0.0
 20
0.0
 30
0.0
  0
INSERT
  5
2BF
100
AcDbEntity
  8
0
100
AcDbBlockReference
  2
*H101
 10
0.0
 20
0.0
 30
0.0
  0
INSERT
  5
2C3
100
AcDbEntity
  8
0
100
AcDbBlockReference
  2
*H102
 10
0.0
 20
0.0
 30
0.0
  0
INSERT
  5
2C7
100
AcDbEntity
  8
0
100
AcDbBlockReference
  2
*H103
 10
0.0
 20
0.0
 30
0.0
  0
INSERT
  5
2CB
100
AcDbEntity
  8
0
100
AcDbBlockReference
  2
*H104
 10
0.0
 20
0.0
 30
0.0
  0
INSERT
  5
2CF
100
AcDbEntity
  8
0
100
AcDbBlockReference
  2
*H105
 10
0.0
 20
0.0
 30
0.0
  0
INSERT
  5
2D3
100
AcDbEntity
  8
0
100
AcDbBlockReference
  2
*H106
 10
0.0
 20
0.0
 30
0.0
  0
INSERT
  5
2D7
100
AcDbEntity
  8
0
100
AcDbBlockReference
  2
*H107
 10
0.0
 20
0.0
 30
0.0
  0
INSERT
  5
2DB
100
AcDbEntity
  8
0
100
AcDbBlockReference
  2
*H108
 10
0.0
 20
0.0
 30
0.0
  0
INSERT
  5
2DF
100
AcDbEntity
  8
0
100
AcDbBlockReference
  2
*H109
 10
0.0
 20
0.0
 30
0.0
  0
INSERT
  5
2E3
100
AcDbEntity
  8
0
100
AcDbBlockReference
  2
*H110
 10
0.0
 20
0.0
 30
0.0
  0
INSERT
  5
2E7
100
AcDbEntity
  8
0
100
AcDbBlockReference
  2
*H111
 10
0.0
 20
0.0
 30
0.0
  0
INSERT
  5
2EB
100
AcDbEntity
  8
0
100
AcDbBlockReference
  2
*H112
 10
0.0
 20
0.0
 30
0.0
  0
INSERT
  5
2EF
100
AcDbEntity
  8
0
100
AcDbBlockReference
  2
*H113
 10
0.0
 20
0.0
 30
0.0
  0
INSERT
  5
2F3
100
AcDbEntity
  8
0
100
AcDbBlockReference
  2
*H114
 10
0.0
 20
0.0
 30
0.0
  0
INSERT
  5
2F7
100
AcDbEntity
  8
0
100
AcDbBlockReference
  2
*H115
 10
0.0
 20
0.0
 30
0.0
  0
INSERT
  5
2FB
100
AcDbEntity
  8
0
100
AcDbBlockReference
  2
*H116
 10
0.0
 20
0.0
 30
0.0
  0
INSERT
  5
2FF
100
AcDbEntity
  8
0
100
AcDbBlockReference
  2
*H117
 10
0.0
 20
0.0
 30
0.0
  0
INSERT
  5
303
100
AcDbEntity
  8
0
100
AcDbBlockReference
  2
*H118
 10
0.0
 20
0.0
 30
0.0
  0
INSERT
  5
307
100
AcDbEntity
  8
0
100
AcDbBlockReference
  2
*H119
 10
0.0
 20
0.0
 30
0.0
  0
INSERT
  5
30B
100
AcDbEntity
  8
0
100
AcDbBlockReference
  2
*H120
 10
0.0
 20
0.0
 30
0.0
  0
INSERT
  5
30F
100
AcDbEntity
  8
0
100
AcDbBlockReference
  2
*H121
 10
0.0
 20
0.0
 30
0.0
  0
INSERT
  5
313
100
AcDbEntity
  8
0
100
AcDbBlockReference
  2
*H122
 10
0.0
 20
0.0
 30
0.0
  0
INSERT
  5
317
100
AcDbEntity
  8
0
100
AcDbBlockReference
  2
*H123
 10
0.0
 20
0.0
 30
0.0
  0
LINE
  5
318
100
AcDbEntity
  8
0
  6
SOLID
 62
        2
100
AcDbLine
 10
1147.310058594
 20
-220.732050808
 30
0.0
 11
1147.310058594
 21
-217.267949192
 31
0.0
  0
INSERT
  5
31C
100
AcDbEntity
  8
0
100
AcDbBlockReference
  2
*H124
 10
0.0
 20
0.0
 30
0.0
  0
INSERT
  5
320
100
AcDbEntity
  8
0
100
AcDbBlockReference
  2
*H125
 10
0.0
 20
0.0
 30
0.0
  0
INSERT
  5
324
100
AcDbEntity
  8
0
100
AcDbBlockReference
  2
*H126
 10
0.0
 20
0.0
 30
0.0
  0
INSERT
  5
328
100
AcDbEntity
  8
0
100
AcDbBlockReference
  2
*H127
 10
0.0
 20
0.0
 30
0.0
  0
INSERT
  5
32C
100
AcDbEntity
  8
0
100
AcDbBlockReference
  2
*H128
 10
0.0
 20
0.0
 30
0.0
  0
INSERT
  5
330
100
AcDbEntity
  8
0
100
AcDbBlockReference
  2
*H129
 10
0.0
 20
0.0
 30
0.0
  0
LINE
  5
331
100
AcDbEntity
  8
0
  6
SOLID
 62
        2
100
AcDbLine
 10
1033.365534576
 20
70.982041476
 30
0.0
 11
1030.365534473
 21
72.714092105
 31
0.0
  0
CIRCLE
  5
332
100
AcDbEntity
  8
0
  6
SOLID
 62
        2
100
AcDbCircle
 10
1030.365534679
 20
69.24999049
 30
0.0
 40
6.25
  0
LINE
  5
333
100
AcDbEntity
  8
0
  6
CENTER
 62
        2
100
AcDbLine
 10
1001.738464355
 20
-153.0
 30
0.0
 11
1486.220703125
 21
-153.0
 31
0.0
  0
INSERT
  5
337
100
AcDbEntity
  8
0
100
AcDbBlockReference
  2
*H130
 10
0.0
 20
0.0
 30
0.0
  0
INSERT
  5
33B
100
AcDbEntity
  8
0
100
AcDbBlockReference
  2
*H131
 10
0.0
 20
0.0
 30
0.0
  0
INSERT
  5
33F
100
AcDbEntity
  8
0
100
AcDbBlockReference
  2
*H132
 10
0.0
 20
0.0
 30
0.0
  0
INSERT
  5
343
100
AcDbEntity
  8
0
100
AcDbBlockReference
  2
*H133
 10
0.0
 20
0.0
 30
0.0
  0
INSERT
  5
347
100
AcDbEntity
  8
0
100
AcDbBlockReference
  2
*H134
 10
0.0
 20
0.0
 30
0.0
  0
INSERT
  5
34B
100
AcDbEntity
  8
0
100
AcDbBlockReference
  2
*H135
 10
0.0
 20
0.0
 30
0.0
  0
INSERT
  5
34F
100
AcDbEntity
  8
0
100
AcDbBlockReference
  2
*H136
 10
0.0
 20
0.0
 30
0.0
  0
INSERT
  5
353
100
AcDbEntity
  8
0
100
AcDbBlockReference
  2
*H137
 10
0.0
 20
0.0
 30
0.0
  0
INSERT
  5
357
100
AcDbEntity
  8
0
100
AcDbBlockReference
  2
*H138
 10
0.0
 20
0.0
 30
0.0
  0
INSERT
  5
35B
100
AcDbEntity
  8
0
100
AcDbBlockReference
  2
*H139
 10
0.0
 20
0.0
 30
0.0
  0
INSERT
  5
35F
100
AcDbEntity
  8
0
100
AcDbBlockReference
  2
*H140
 10
0.0
 20
0.0
 30
0.0
  0
INSERT
  5
363
100
AcDbEntity
  8
0
100
AcDbBlockReference
  2
*H141
 10
0.0
 20
0.0
 30
0.0
  0
LINE
  5
364
100
AcDbEntity
  8
0
  6
SOLID
 62
        2
100
AcDbLine
 10
1030.365534473
 20
72.714092105
 30
0.0
 11
1027.365534576
 21
70.982041119
 31
0.0
  0
INSERT
  5
368
100
AcDbEntity
  8
0
100
AcDbBlockReference
  2
*H142
 10
0.0
 20
0.0
 30
0.0
  0
INSERT
  5
36C
100
AcDbEntity
  8
0
100
AcDbBlockReference
  2
*H143
 10
0.0
 20
0.0
 30
0.0
  0
LINE
  5
36D
100
AcDbEntity
  8
0
  6
SOLID
 62
        2
100
AcDbLine
 10
1027.365534576
 20
70.982041119
 30
0.0
 11
1027.365534782
 21
67.517939504
 31
0.0
  0
INSERT
  5
371
100
AcDbEntity
  8
0
100
AcDbBlockReference
  2
*H144
 10
0.0
 20
0.0
 30
0.0
  0
INSERT
  5
375
100
AcDbEntity
  8
0
100
AcDbBlockReference
  2
*H145
 10
0.0
 20
0.0
 30
0.0
  0
INSERT
  5
379
100
AcDbEntity
  8
0
100
AcDbBlockReference
  2
*H146
 10
0.0
 20
0.0
 30
0.0
  0
INSERT
  5
37D
100
AcDbEntity
  8
0
100
AcDbBlockReference
  2
*H147
 10
0.0
 20
0.0
 30
0.0
  0
INSERT
  5
381
100
AcDbEntity
  8
0
100
AcDbBlockReference
  2
*H148
 10
0.0
 20
0.0
 30
0.0
  0
INSERT
  5
385
100
AcDbEntity
  8
0
100
AcDbBlockReference
  2
*H149
 10
0.0
 20
0.0
 30
0.0
  0
INSERT
  5
389
100
AcDbEntity
  8
0
100
AcDbBlockReference
  2
*H150
 10
0.0
 20
0.0
 30
0.0
  0
INSERT
  5
38D
100
AcDbEntity
  8
0
100
AcDbBlockReference
  2
*H151
 10
0.0
 20
0.0
 30
0.0
  0
INSERT
  5
391
100
AcDbEntity
  8
0
100
AcDbBlockReference
  2
*H152
 10
0.0
 20
0.0
 30
0.0
  0
INSERT
  5
395
100
AcDbEntity
  8
0
100
AcDbBlockReference
  2
*H153
 10
0.0
 20
0.0
 30
0.0
  0
LINE
  5
396
100
AcDbEntity
  8
0
  6
SOLID
 62
        2
100
AcDbLine
 10
1267.459961143
 20
106.867006478
 30
0.0
 11
1270.45996104
 21
108.599057464
 31
0.0
  0
INSERT
  5
39A
100
AcDbEntity
  8
0
100
AcDbBlockReference
  2
*H154
 10
0.0
 20
0.0
 30
0.0
  0
INSERT
  5
39E
100
AcDbEntity
  8
0
100
AcDbBlockReference
  2
*H155
 10
0.0
 20
0.0
 30
0.0
  0
INSERT
  5
3A2
100
AcDbEntity
  8
0
100
AcDbBlockReference
  2
*H156
 10
0.0
 20
0.0
 30
0.0
  0
INSERT
  5
3A6
100
AcDbEntity
  8
0
100
AcDbBlockReference
  2
*H157
 10
0.0
 20
0.0
 30
0.0
  0
INSERT
  5
3AA
100
AcDbEntity
  8
0
100
AcDbBlockReference
  2
*H158
 10
0.0
 20
0.0
 30
0.0
  0
LINE
  5
3AB
100
AcDbEntity
  8
0
  6
SOLID
 62
        2
100
AcDbLine
 10
1027.365534782
 20
67.517939504
 30
0.0
 11
1030.365534885
 21
65.785888875
 31
0.0
  0
INSERT
  5
3AF
100
AcDbEntity
  8
0
100
AcDbBlockReference
  2
*H159
 10
0.0
 20
0.0
 30
0.0
  0
LINE
  5
3B0
100
AcDbEntity
  8
0
  6
SOLID
 62
        3
100
AcDbLine
 10
1280.310058594
 20
-231.5
 30
0.0
 11
1280.310058594
 21
115.0
 31
0.0
  0
INSERT
  5
3B4
100
AcDbEntity
  8
0
100
AcDbBlockReference
  2
*H160
 10
0.0
 20
0.0
 30
0.0
  0
INSERT
  5
3B8
100
AcDbEntity
  8
0
100
AcDbBlockReference
  2
*H161
 10
0.0
 20
0.0
 30
0.0
  0
LINE
  5
3B9
100
AcDbEntity
  8
0
  6
SOLID
 62
        3
100
AcDbLine
 10
1202.459960938
 20
148.0
 30
0.0
 11
1053.310058594
 21
148.0
 31
0.0
  0
CIRCLE
  5
3BA
100
AcDbEntity
  8
0
  6
SOLID
 62
        1
100
AcDbCircle
 10
801.738464355
 20
-153.0
 30
0.0
 40
61.0
  0
LINE
  5
3BB
100
AcDbEntity
  8
0
  6
SOLID
 62
        3
100
AcDbLine
 10
1020.310058594
 20
115.0
 30
0.0
 11
1020.310058594
 21
-231.5
 31
0.0
  0
LINE
  5
3BC
100
AcDbEntity
  8
0
  6
SOLID
 62
        1
100
AcDbLine
 10
728.950331371
 20
-178.824168847
 30
0.0
 11
745.324292101
 21
-176.20433513
 31
0.0
  0
LINE
  5
3BD
100
AcDbEntity
  8
0
  6
SOLID
 62
        7
100
AcDbLine
 10
731.738464355
 20
-208.0
 30
0.0
 11
731.738464355
 21
-222.000008816
 31
0.0
  0
LINE
  5
3BE
100
AcDbEntity
  8
0
  6
SOLID
 62
        7
100
AcDbLine
 10
721.738464355
 20
-198.0
 30
0.0
 11
731.738464355
 21
-208.0
 31
0.0
  0
LINE
  5
3BF
100
AcDbEntity
  8
0
  6
SOLID
 62
        7
100
AcDbLine
 10
721.738464355
 20
-198.0
 30
0.0
 11
701.738464355
 21
-198.0
 31
0.0
  0
LINE
  5
3C0
100
AcDbEntity
  8
0
  6
CENTER
 62
        7
100
AcDbLine
 10
666.923197946
 20
-0.000020981
 30
0.0
 11
877.780452651
 21
-0.000020981
 31
0.0
  0
LINE
  5
3C1
100
AcDbEntity
  8
0
  6
SOLID
 62
        6
100
AcDbLine
 10
557.738443014
 20
94.331092361
 30
0.0
 11
566.238443014
 21
94.331092361
 31
0.0
  0
LINE
  5
3C2
100
AcDbEntity
  8
0
  6
CENTER
 62
        7
100
AcDbLine
 10
705.024715292
 20
-165.0
 30
0.0
 11
746.575587563
 21
-165.0
 31
0.0
  0
INSERT
  5
3C6
100
AcDbEntity
  8
0
100
AcDbBlockReference
  2
*H162
 10
0.0
 20
0.0
 30
0.0
  0
INSERT
  5
3CA
100
AcDbEntity
  8
0
100
AcDbBlockReference
  2
*H163
 10
0.0
 20
0.0
 30
0.0
  0
INSERT
  5
3CE
100
AcDbEntity
  8
0
100
AcDbBlockReference
  2
*H164
 10
0.0
 20
0.0
 30
0.0
  0
INSERT
  5
3D2
100
AcDbEntity
  8
0
100
AcDbBlockReference
  2
*H165
 10
0.0
 20
0.0
 30
0.0
  0
INSERT
  5
3D6
100
AcDbEntity
  8
0
100
AcDbBlockReference
  2
*H166
 10
0.0
 20
0.0
 30
0.0
  0
INSERT
  5
3DA
100
AcDbEntity
  8
0
100
AcDbBlockReference
  2
*H167
 10
0.0
 20
0.0
 30
0.0
  0
INSERT
  5
3DE
100
AcDbEntity
  8
0
100
AcDbBlockReference
  2
*H168
 10
0.0
 20
0.0
 30
0.0
  0
INSERT
  5
3E2
100
AcDbEntity
  8
0
100
AcDbBlockReference
  2
*H169
 10
0.0
 20
0.0
 30
0.0
  0
INSERT
  5
3E6
100
AcDbEntity
  8
0
100
AcDbBlockReference
  2
*H170
 10
0.0
 20
0.0
 30
0.0
  0
LINE
  5
3E7
100
AcDbEntity
  8
0
  6
SOLID
 62
        3
100
AcDbLine
 10
1053.310058594
 20
148.0
 30
0.0
 11
1020.310058594
 21
115.0
 31
0.0
  0
INSERT
  5
3EB
100
AcDbEntity
  8
0
100
AcDbBlockReference
  2
*H171
 10
0.0
 20
0.0
 30
0.0
  0
INSERT
  5
3EF
100
AcDbEntity
  8
0
100
AcDbBlockReference
  2
*H172
 10
0.0
 20
0.0
 30
0.0
  0
INSERT
  5
3F3
100
AcDbEntity
  8
0
100
AcDbBlockReference
  2
*H173
 10
0.0
 20
0.0
 30
0.0
  0
LINE
  5
3F4
100
AcDbEntity
  8
0
  6
SOLID
 62
        2
100
AcDbLine
 10
787.838464737
 20
152.999989406
 30
0.0
 11
815.638463974
 21
152.999989406
 31
0.0
  0
LINE
  5
3F5
100
AcDbEntity
  8
0
  6
SOLID
 62
        7
100
AcDbLine
 10
686.738464355
 20
-194.100000381
 30
0.0
 11
686.738464355
 21
-221.899999619
 31
0.0
  0
INSERT
  5
3F9
100
AcDbEntity
  8
0
100
AcDbBlockReference
  2
*H174
 10
0.0
 20
0.0
 30
0.0
  0
LINE
  5
3FA
100
AcDbEntity
  8
0
  6
CENTER
 62
        2
100
AcDbLine
 10
874.460510509
 20
-153.0
 30
0.0
 11
732.159188954
 21
-153.0
 31
0.0
  0
LINE
  5
3FB
100
AcDbEntity
  8
0
  6
CENTER
 62
        2
100
AcDbLine
 10
716.738464355
 20
-201.194595337
 30
0.0
 11
716.738464355
 21
-239.911376953
 31
0.0
  0
LINE
  5
3FC
100
AcDbEntity
  8
0
  6
CENTER
 62
        2
100
AcDbLine
 10
854.738464355
 20
-199.552368164
 30
0.0
 11
854.738464355
 21
-240.112976074
 31
0.0
  0
LINE
  5
3FD
100
AcDbEntity
  8
0
  6
DASH
 62
        1
100
AcDbLine
 10
708.738506072
 20
-233.0
 30
0.0
 11
708.738506072
 21
-213.0
 31
0.0
  0
LINE
  5
3FE
100
AcDbEntity
  8
0
  6
SOLID
 62
        3
100
AcDbLine
 10
1262.459960938
 20
132.850097656
 30
0.0
 11
1280.310058594
 21
115.0
 31
0.0
  0
LINE
  5
3FF
100
AcDbEntity
  8
0
  6
DASH
 62
        1
100
AcDbLine
 10
709.738464355
 20
-233.0
 30
0.0
 11
709.738464355
 21
-207.041451884
 31
0.0
  0
LINE
  5
400
100
AcDbEntity
  8
0
  6
DASH
 62
        1
100
AcDbLine
 10
724.738506072
 20
-213.0
 30
0.0
 11
708.738506072
 21
-213.0
 31
0.0
  0
LINE
  5
401
100
AcDbEntity
  8
0
  6
DASH
 62
        1
100
AcDbLine
 10
709.738464355
 20
-207.041451884
 30
0.0
 11
723.738464355
 21
-207.041451884
 31
0.0
  0
LINE
  5
402
100
AcDbEntity
  8
0
  6
DASH
 62
        1
100
AcDbLine
 10
716.738464355
 20
-203.0
 30
0.0
 11
709.738464355
 21
-207.041451884
 31
0.0
  0
LINE
  5
403
100
AcDbEntity
  8
0
  6
DASH
 62
        1
100
AcDbLine
 10
716.738464355
 20
-203.0
 30
0.0
 11
723.738464355
 21
-207.041451884
 31
0.0
  0
LINE
  5
404
100
AcDbEntity
  8
0
  6
DASH
 62
        1
100
AcDbLine
 10
723.738464355
 20
-233.0
 30
0.0
 11
723.738464355
 21
-207.041451884
 31
0.0
  0
LINE
  5
405
100
AcDbEntity
  8
0
  6
DASH
 62
        1
100
AcDbLine
 10
724.738506072
 20
-233.0
 30
0.0
 11
724.738506072
 21
-213.0
 31
0.0
  0
LINE
  5
406
100
AcDbEntity
  8
0
  6
CENTER
 62
        7
100
AcDbLine
 10
726.738464355
 20
-140.962661743
 30
0.0
 11
726.738464355
 21
-186.560627846
 31
0.0
  0
LINE
  5
407
100
AcDbEntity
  8
0
  6
CENTER
 62
        2
100
AcDbLine
 10
1080.310058594
 20
110.841339111
 30
0.0
 11
1080.310058594
 21
54.507610321
 31
0.0
  0
LINE
  5
408
100
AcDbEntity
  8
0
  6
SOLID
 62
        3
100
AcDbLine
 10
686.738464355
 20
147.999974147
 30
0.0
 11
686.738464355
 21
-231.000010387
 31
0.0
  0
LINE
  5
409
100
AcDbEntity
  8
0
  6
SOLID
 62
        7
100
AcDbLine
 10
701.738464355
 20
-233.0
 30
0.0
 11
869.738464355
 21
-233.0
 31
0.0
  0
LINE
  5
40A
100
AcDbEntity
  8
0
  6
SOLID
 62
        2
100
AcDbLine
 10
1082.792099713
 20
122.944513036
 30
0.0
 11
1079.327998098
 21
122.944512831
 31
0.0
  0
LINE
  5
40B
100
AcDbEntity
  8
0
  6
SOLID
 62
        7
100
AcDbLine
 10
869.738464355
 20
145.999989406
 30
0.0
 11
701.738464355
 21
145.999989406
 31
0.0
  0
LINE
  5
40C
100
AcDbEntity
  8
0
  6
SOLID
 62
        2
100
AcDbLine
 10
787.838464737
 20
153.999989406
 30
0.0
 11
815.638463974
 21
153.999989406
 31
0.0
  0
LINE
  5
40D
100
AcDbEntity
  8
0
  6
SOLID
 62
        2
100
AcDbLine
 10
814.638463974
 20
160.066822902
 30
0.0
 11
814.638463974
 21
154.499989406
 31
0.0
  0
LINE
  5
40E
100
AcDbEntity
  8
0
  6
SOLID
 62
        2
100
AcDbLine
 10
808.538463883
 20
160.066822902
 30
0.0
 11
808.038463876
 21
160.066822902
 31
0.0
  0
LINE
  5
40F
100
AcDbEntity
  8
0
  6
SOLID
 62
        2
100
AcDbLine
 10
1196.525023961
 20
30.002950209
 30
0.0
 11
1202.459960938
 21
27.842809918
 31
0.0
  0
LINE
  5
410
100
AcDbEntity
  8
0
  6
SOLID
 62
        2
100
AcDbLine
 10
811.538463796
 20
160.999989406
 30
0.0
 11
801.738464355
 21
160.999989406
 31
0.0
  0
LINE
  5
411
100
AcDbEntity
  8
0
  6
SOLID
 62
        2
100
AcDbLine
 10
791.938464915
 20
160.999989406
 30
0.0
 11
801.738464355
 21
160.999989406
 31
0.0
  0
LINE
  5
412
100
AcDbEntity
  8
0
  6
SOLID
 62
        2
100
AcDbLine
 10
794.938464828
 20
160.066822902
 30
0.0
 11
795.438464835
 21
160.066822902
 31
0.0
  0
LINE
  5
413
100
AcDbEntity
  8
0
  6
SOLID
 62
        2
100
AcDbLine
 10
788.838464737
 20
160.066822902
 30
0.0
 11
788.838464737
 21
154.499989406
 31
0.0
  0
LINE
  5
414
100
AcDbEntity
  8
0
  6
SOLID
 62
        2
100
AcDbLine
 10
1220.350715583
 20
21.331108093
 30
0.0
 11
1228.459960938
 21
18.379584313
 31
0.0
  0
LINE
  5
415
100
AcDbEntity
  8
0
  6
SOLID
 62
        2
100
AcDbLine
 10
787.838464737
 20
153.999989406
 30
0.0
 11
787.838464737
 21
152.999989406
 31
0.0
  0
LINE
  5
416
100
AcDbEntity
  8
0
  6
SOLID
 62
        2
100
AcDbLine
 10
794.938464828
 20
160.066822902
 30
0.0
 11
794.938464828
 21
154.499989406
 31
0.0
  0
LINE
  5
417
100
AcDbEntity
  8
0
  6
SOLID
 62
        2
100
AcDbLine
 10
795.438464835
 20
160.066822902
 30
0.0
 11
795.438464835
 21
154.499989406
 31
0.0
  0
LINE
  5
418
100
AcDbEntity
  8
0
  6
SOLID
 62
        2
100
AcDbLine
 10
1030.365534885
 20
65.785888875
 30
0.0
 11
1033.365534782
 21
67.517939861
 31
0.0
  0
LINE
  5
419
100
AcDbEntity
  8
0
  6
SOLID
 62
        2
100
AcDbLine
 10
808.038463876
 20
160.066822902
 30
0.0
 11
808.038463876
 21
154.499989406
 31
0.0
  0
LINE
  5
41A
100
AcDbEntity
  8
0
  6
SOLID
 62
        2
100
AcDbLine
 10
808.538463883
 20
160.066822902
 30
0.0
 11
808.538463883
 21
154.499989406
 31
0.0
  0
LINE
  5
41B
100
AcDbEntity
  8
0
  6
SOLID
 62
        2
100
AcDbLine
 10
814.638463974
 20
154.499989406
 30
0.0
 11
788.838464737
 21
154.499989406
 31
0.0
  0
ARC
  5
41C
100
AcDbEntity
  8
0
  6
SOLID
 62
        7
100
AcDbCircle
 10
1133.310058594
 20
150.0
 30
0.0
 40
3.0
100
AcDbArc
 50
90.0
 51
180.0
  0
LINE
  5
41D
100
AcDbEntity
  8
0
  6
SOLID
 62
        2
100
AcDbLine
 10
815.638463974
 20
153.999989406
 30
0.0
 11
815.638463974
 21
152.999989406
 31
0.0
  0
LINE
  5
41E
100
AcDbEntity
  8
0
  6
SOLID
 62
        2
100
AcDbLine
 10
788.838464737
 20
154.499989406
 30
0.0
 11
787.838464737
 21
153.999989406
 31
0.0
  0
LINE
  5
41F
100
AcDbEntity
  8
0
  6
SOLID
 62
        2
100
AcDbLine
 10
815.638463974
 20
153.999989406
 30
0.0
 11
814.638463974
 21
154.499989406
 31
0.0
  0
INSERT
  5
423
100
AcDbEntity
  8
0
100
AcDbBlockReference
  2
*H175
 10
0.0
 20
0.0
 30
0.0
  0
INSERT
  5
427
100
AcDbEntity
  8
0
100
AcDbBlockReference
  2
*H176
 10
0.0
 20
0.0
 30
0.0
  0
INSERT
  5
42B
100
AcDbEntity
  8
0
100
AcDbBlockReference
  2
*H177
 10
0.0
 20
0.0
 30
0.0
  0
INSERT
  5
42F
100
AcDbEntity
  8
0
100
AcDbBlockReference
  2
*H178
 10
0.0
 20
0.0
 30
0.0
  0
INSERT
  5
433
100
AcDbEntity
  8
0
100
AcDbBlockReference
  2
*H179
 10
0.0
 20
0.0
 30
0.0
  0
INSERT
  5
437
100
AcDbEntity
  8
0
100
AcDbBlockReference
  2
*H180
 10
0.0
 20
0.0
 30
0.0
  0
INSERT
  5
43B
100
AcDbEntity
  8
0
100
AcDbBlockReference
  2
*H181
 10
0.0
 20
0.0
 30
0.0
  0
INSERT
  5
43F
100
AcDbEntity
  8
0
100
AcDbBlockReference
  2
*H182
 10
0.0
 20
0.0
 30
0.0
  0
INSERT
  5
443
100
AcDbEntity
  8
0
100
AcDbBlockReference
  2
*H183
 10
0.0
 20
0.0
 30
0.0
  0
INSERT
  5
447
100
AcDbEntity
  8
0
100
AcDbBlockReference
  2
*H184
 10
0.0
 20
0.0
 30
0.0
  0
INSERT
  5
44B
100
AcDbEntity
  8
0
100
AcDbBlockReference
  2
*H185
 10
0.0
 20
0.0
 30
0.0
  0
INSERT
  5
44F
100
AcDbEntity
  8
0
100
AcDbBlockReference
  2
*H186
 10
0.0
 20
0.0
 30
0.0
  0
LINE
  5
450
100
AcDbEntity
  8
0
  6
CENTER
 62
        2
100
AcDbLine
 10
534.888366699
 20
88.32998085
 30
0.0
 11
695.945451106
 21
88.32998085
 31
0.0
  0
LINE
  5
451
100
AcDbEntity
  8
0
  6
SOLID
 62
        7
100
AcDbLine
 10
869.738464355
 20
145.999989406
 30
0.0
 11
869.738464355
 21
-233.0
 31
0.0
  0
LINE
  5
452
100
AcDbEntity
  8
0
  6
SOLID
 62
        3
100
AcDbLine
 10
701.738464355
 20
147.999974147
 30
0.0
 11
701.738464355
 21
-233.000010594
 31
0.0
  0
LINE
  5
453
100
AcDbEntity
  8
0
  6
SOLID
 62
        7
100
AcDbLine
 10
818.738443497
 20
152.999989406
 30
0.0
 11
737.738443497
 21
152.999989406
 31
0.0
  0
LINE
  5
454
100
AcDbEntity
  8
0
  6
SOLID
 62
        7
100
AcDbLine
 10
734.738443497
 20
148.999989406
 30
0.0
 11
734.738443497
 21
149.999989406
 31
0.0
  0
CIRCLE
  5
455
100
AcDbEntity
  8
0
  6
SOLID
 62
        6
100
AcDbCircle
 10
1027.810058594
 20
-168.0
 30
0.0
 40
6.75
  0
ARC
  5
456
100
AcDbEntity
  8
0
  6
SOLID
 62
        7
100
AcDbCircle
 10
731.738443497
 20
148.999989406
 30
0.0
 40
3.0
100
AcDbArc
 50
270.0
 51
0.0
  0
ARC
  5
457
100
AcDbEntity
  8
0
  6
SOLID
 62
        7
100
AcDbCircle
 10
818.738443497
 20
149.999989406
 30
0.0
 40
3.0
100
AcDbArc
 50
41.810782295
 51
90.0
  0
ARC
  5
458
100
AcDbEntity
  8
0
  6
SOLID
 62
        7
100
AcDbCircle
 10
737.738443497
 20
149.999989406
 30
0.0
 40
3.0
100
AcDbArc
 50
90.0
 51
180.0
  0
LINE
  5
459
100
AcDbEntity
  8
0
  6
SOLID
 62
        6
100
AcDbLine
 10
557.738443697
 20
82.331092304
 30
0.0
 11
566.238443697
 21
82.331092304
 31
0.0
  0
LINE
  5
45A
100
AcDbEntity
  8
0
  6
SOLID
 62
        2
100
AcDbLine
 10
666.738443355
 20
147.32998085
 30
0.0
 11
686.738464355
 21
147.32998085
 31
0.0
  0
LINE
  5
45B
100
AcDbEntity
  8
0
  6
SOLID
 62
        3
100
AcDbLine
 10
701.738464355
 20
114.999974147
 30
0.0
 11
686.738464355
 21
114.999974147
 31
0.0
  0
INSERT
  5
45F
100
AcDbEntity
  8
0
100
AcDbBlockReference
  2
*H187
 10
0.0
 20
0.0
 30
0.0
  0
LINE
  5
460
100
AcDbEntity
  8
0
  6
DASH
 62
        1
100
AcDbLine
 10
846.738506072
 20
-233.0
 30
0.0
 11
846.738506072
 21
-213.0
 31
0.0
  0
LINE
  5
461
100
AcDbEntity
  8
0
  6
DASH
 62
        1
100
AcDbLine
 10
847.738464355
 20
-233.0
 30
0.0
 11
847.738464355
 21
-207.041451884
 31
0.0
  0
LINE
  5
462
100
AcDbEntity
  8
0
  6
DASH
 62
        1
100
AcDbLine
 10
862.738506072
 20
-213.0
 30
0.0
 11
846.738506072
 21
-213.0
 31
0.0
  0
LINE
  5
463
100
AcDbEntity
  8
0
  6
DASH
 62
        1
100
AcDbLine
 10
847.738464355
 20
-207.041451884
 30
0.0
 11
861.738464355
 21
-207.041451884
 31
0.0
  0
ARC
  5
464
100
AcDbEntity
  8
0
  6
SOLID
 62
        7
100
AcDbCircle
 10
1167.310058594
 20
150.0
 30
0.0
 40
3.0
100
AcDbArc
 50
0.0
 51
90.0
  0
LINE
  5
465
100
AcDbEntity
  8
0
  6
DASH
 62
        1
100
AcDbLine
 10
854.738464355
 20
-203.0
 30
0.0
 11
847.738464355
 21
-207.041451884
 31
0.0
  0
LINE
  5
466
100
AcDbEntity
  8
0
  6
DASH
 62
        1
100
AcDbLine
 10
854.738464355
 20
-203.0
 30
0.0
 11
861.738464355
 21
-207.041451884
 31
0.0
  0
LINE
  5
467
100
AcDbEntity
  8
0
  6
DASH
 62
        1
100
AcDbLine
 10
861.738464355
 20
-233.0
 30
0.0
 11
861.738464355
 21
-207.041451884
 31
0.0
  0
LINE
  5
468
100
AcDbEntity
  8
0
  6
DASH
 62
        1
100
AcDbLine
 10
862.738506072
 20
-233.0
 30
0.0
 11
862.738506072
 21
-213.0
 31
0.0
  0
INSERT
  5
46C
100
AcDbEntity
  8
0
100
AcDbBlockReference
  2
*H188
 10
0.0
 20
0.0
 30
0.0
  0
INSERT
  5
470
100
AcDbEntity
  8
0
100
AcDbBlockReference
  2
*H189
 10
0.0
 20
0.0
 30
0.0
  0
INSERT
  5
474
100
AcDbEntity
  8
0
100
AcDbBlockReference
  2
*H190
 10
0.0
 20
0.0
 30
0.0
  0
INSERT
  5
478
100
AcDbEntity
  8
0
100
AcDbBlockReference
  2
*H191
 10
0.0
 20
0.0
 30
0.0
  0
INSERT
  5
47C
100
AcDbEntity
  8
0
100
AcDbBlockReference
  2
*H192
 10
0.0
 20
0.0
 30
0.0
  0
LINE
  5
47D
100
AcDbEntity
  8
0
  6
SOLID
 62
        2
100
AcDbLine
 10
1033.365534782
 20
67.517939861
 30
0.0
 11
1033.365534576
 21
70.982041476
 31
0.0
  0
INSERT
  5
481
100
AcDbEntity
  8
0
100
AcDbBlockReference
  2
*H193
 10
0.0
 20
0.0
 30
0.0
  0
INSERT
  5
485
100
AcDbEntity
  8
0
100
AcDbBlockReference
  2
*H194
 10
0.0
 20
0.0
 30
0.0
  0
INSERT
  5
489
100
AcDbEntity
  8
0
100
AcDbBlockReference
  2
*H195
 10
0.0
 20
0.0
 30
0.0
  0
INSERT
  5
48D
100
AcDbEntity
  8
0
100
AcDbBlockReference
  2
*H196
 10
0.0
 20
0.0
 30
0.0
  0
LINE
  5
48E
100
AcDbEntity
  8
0
  6
SOLID
 62
        2
100
AcDbLine
 10
1264.45996104
 20
108.599057108
 30
0.0
 11
1267.459961143
 21
106.867006478
 31
0.0
  0
LINE
  5
48F
100
AcDbEntity
  8
0
  6
SOLID
 62
        2
100
AcDbLine
 10
1171.551243638
 20
147.331107135
 30
0.0
 11
1119.459950135
 21
147.331107135
 31
0.0
  0
INSERT
  5
493
100
AcDbEntity
  8
0
100
AcDbBlockReference
  2
*H197
 10
0.0
 20
0.0
 30
0.0
  0
INSERT
  5
497
100
AcDbEntity
  8
0
100
AcDbBlockReference
  2
*H198
 10
0.0
 20
0.0
 30
0.0
  0
INSERT
  5
49B
100
AcDbEntity
  8
0
100
AcDbBlockReference
  2
*H199
 10
0.0
 20
0.0
 30
0.0
  0
INSERT
  5
49F
100
AcDbEntity
  8
0
100
AcDbBlockReference
  2
*H200
 10
0.0
 20
0.0
 30
0.0
  0
INSERT
  5
4A3
100
AcDbEntity
  8
0
100
AcDbBlockReference
  2
*H201
 10
0.0
 20
0.0
 30
0.0
  0
INSERT
  5
4A7
100
AcDbEntity
  8
0
100
AcDbBlockReference
  2
*H202
 10
0.0
 20
0.0
 30
0.0
  0
INSERT
  5
4AB
100
AcDbEntity
  8
0
100
AcDbBlockReference
  2
*H203
 10
0.0
 20
0.0
 30
0.0
  0
INSERT
  5
4AF
100
AcDbEntity
  8
0
100
AcDbBlockReference
  2
*H204
 10
0.0
 20
0.0
 30
0.0
  0
INSERT
  5
4B3
100
AcDbEntity
  8
0
100
AcDbBlockReference
  2
*H205
 10
0.0
 20
0.0
 30
0.0
  0
INSERT
  5
4B7
100
AcDbEntity
  8
0
100
AcDbBlockReference
  2
*H206
 10
0.0
 20
0.0
 30
0.0
  0
INSERT
  5
4BB
100
AcDbEntity
  8
0
100
AcDbBlockReference
  2
*H207
 10
0.0
 20
0.0
 30
0.0
  0
INSERT
  5
4BF
100
AcDbEntity
  8
0
100
AcDbBlockReference
  2
*H208
 10
0.0
 20
0.0
 30
0.0
  0
INSERT
  5
4C3
100
AcDbEntity
  8
0
100
AcDbBlockReference
  2
*H209
 10
0.0
 20
0.0
 30
0.0
  0
INSERT
  5
4C7
100
AcDbEntity
  8
0
100
AcDbBlockReference
  2
*H210
 10
0.0
 20
0.0
 30
0.0
  0
INSERT
  5
4CB
100
AcDbEntity
  8
0
100
AcDbBlockReference
  2
*H211
 10
0.0
 20
0.0
 30
0.0
  0
INSERT
  5
4CF
100
AcDbEntity
  8
0
100
AcDbBlockReference
  2
*H212
 10
0.0
 20
0.0
 30
0.0
  0
INSERT
  5
4D3
100
AcDbEntity
  8
0
100
AcDbBlockReference
  2
*H213
 10
0.0
 20
0.0
 30
0.0
  0
INSERT
  5
4D7
100
AcDbEntity
  8
0
100
AcDbBlockReference
  2
*H214
 10
0.0
 20
0.0
 30
0.0
  0
INSERT
  5
4DB
100
AcDbEntity
  8
0
100
AcDbBlockReference
  2
*H215
 10
0.0
 20
0.0
 30
0.0
  0
INSERT
  5
4DF
100
AcDbEntity
  8
0
100
AcDbBlockReference
  2
*H216
 10
0.0
 20
0.0
 30
0.0
  0
INSERT
  5
4E3
100
AcDbEntity
  8
0
100
AcDbBlockReference
  2
*H217
 10
0.0
 20
0.0
 30
0.0
  0
INSERT
  5
4E7
100
AcDbEntity
  8
0
100
AcDbBlockReference
  2
*H218
 10
0.0
 20
0.0
 30
0.0
  0
INSERT
  5
4EB
100
AcDbEntity
  8
0
100
AcDbBlockReference
  2
*H219
 10
0.0
 20
0.0
 30
0.0
  0
INSERT
  5
4EF
100
AcDbEntity
  8
0
100
AcDbBlockReference
  2
*H220
 10
0.0
 20
0.0
 30
0.0
  0
INSERT
  5
4F3
100
AcDbEntity
  8
0
100
AcDbBlockReference
  2
*H221
 10
0.0
 20
0.0
 30
0.0
  0
INSERT
  5
4F7
100
AcDbEntity
  8
0
100
AcDbBlockReference
  2
*H222
 10
0.0
 20
0.0
 30
0.0
  0
INSERT
  5
4FB
100
AcDbEntity
  8
0
100
AcDbBlockReference
  2
*H223
 10
0.0
 20
0.0
 30
0.0
  0
INSERT
  5
4FF
100
AcDbEntity
  8
0
100
AcDbBlockReference
  2
*H224
 10
0.0
 20
0.0
 30
0.0
  0
INSERT
  5
503
100
AcDbEntity
  8
0
100
AcDbBlockReference
  2
*H225
 10
0.0
 20
0.0
 30
0.0
  0
INSERT
  5
507
100
AcDbEntity
  8
0
100
AcDbBlockReference
  2
*H226
 10
0.0
 20
0.0
 30
0.0
  0
INSERT
  5
50B
100
AcDbEntity
  8
0
100
AcDbBlockReference
  2
*H227
 10
0.0
 20
0.0
 30
0.0
  0
INSERT
  5
50F
100
AcDbEntity
  8
0
100
AcDbBlockReference
  2
*H228
 10
0.0
 20
0.0
 30
0.0
  0
LINE
  5
510
100
AcDbEntity
  8
0
  6
SOLID
 62
        6
100
AcDbLine
 10
621.238443355
 20
130.331095721
 30
0.0
 11
643.738443355
 21
130.331095721
 31
0.0
  0
CIRCLE
  5
511
100
AcDbEntity
  8
0
  6
SOLID
 62
        6
100
AcDbCircle
 10
1150.310058594
 20
-219.0
 30
0.0
 40
9.5
  0
LINE
  5
512
100
AcDbEntity
  8
0
  6
SOLID
 62
        6
100
AcDbLine
 10
647.738456014
 20
28.331092304
 30
0.0
 11
651.738443355
 21
28.331092304
 31
0.0
  0
INSERT
  5
516
100
AcDbEntity
  8
0
100
AcDbBlockReference
  2
*H229
 10
0.0
 20
0.0
 30
0.0
  0
INSERT
  5
51A
100
AcDbEntity
  8
0
100
AcDbBlockReference
  2
*H230
 10
0.0
 20
0.0
 30
0.0
  0
INSERT
  5
51E
100
AcDbEntity
  8
0
100
AcDbBlockReference
  2
*H231
 10
0.0
 20
0.0
 30
0.0
  0
INSERT
  5
522
100
AcDbEntity
  8
0
100
AcDbBlockReference
  2
*H232
 10
0.0
 20
0.0
 30
0.0
  0
INSERT
  5
526
100
AcDbEntity
  8
0
100
AcDbBlockReference
  2
*H233
 10
0.0
 20
0.0
 30
0.0
  0
INSERT
  5
52A
100
AcDbEntity
  8
0
100
AcDbBlockReference
  2
*H234
 10
0.0
 20
0.0
 30
0.0
  0
INSERT
  5
52E
100
AcDbEntity
  8
0
100
AcDbBlockReference
  2
*H235
 10
0.0
 20
0.0
 30
0.0
  0
INSERT
  5
532
100
AcDbEntity
  8
0
100
AcDbBlockReference
  2
*H236
 10
0.0
 20
0.0
 30
0.0
  0
INSERT
  5
536
100
AcDbEntity
  8
0
100
AcDbBlockReference
  2
*H237
 10
0.0
 20
0.0
 30
0.0
  0
INSERT
  5
53A
100
AcDbEntity
  8
0
100
AcDbBlockReference
  2
*H238
 10
0.0
 20
0.0
 30
0.0
  0
INSERT
  5
53E
100
AcDbEntity
  8
0
100
AcDbBlockReference
  2
*H239
 10
0.0
 20
0.0
 30
0.0
  0
INSERT
  5
542
100
AcDbEntity
  8
0
100
AcDbBlockReference
  2
*H240
 10
0.0
 20
0.0
 30
0.0
  0
INSERT
  5
546
100
AcDbEntity
  8
0
100
AcDbBlockReference
  2
*H241
 10
0.0
 20
0.0
 30
0.0
  0
INSERT
  5
54A
100
AcDbEntity
  8
0
100
AcDbBlockReference
  2
*H242
 10
0.0
 20
0.0
 30
0.0
  0
INSERT
  5
54E
100
AcDbEntity
  8
0
100
AcDbBlockReference
  2
*H243
 10
0.0
 20
0.0
 30
0.0
  0
INSERT
  5
552
100
AcDbEntity
  8
0
100
AcDbBlockReference
  2
*H244
 10
0.0
 20
0.0
 30
0.0
  0
INSERT
  5
556
100
AcDbEntity
  8
0
100
AcDbBlockReference
  2
*H245
 10
0.0
 20
0.0
 30
0.0
  0
INSERT
  5
55A
100
AcDbEntity
  8
0
100
AcDbBlockReference
  2
*H246
 10
0.0
 20
0.0
 30
0.0
  0
INSERT
  5
55E
100
AcDbEntity
  8
0
100
AcDbBlockReference
  2
*H247
 10
0.0
 20
0.0
 30
0.0
  0
INSERT
  5
562
100
AcDbEntity
  8
0
100
AcDbBlockReference
  2
*H248
 10
0.0
 20
0.0
 30
0.0
  0
INSERT
  5
566
100
AcDbEntity
  8
0
100
AcDbBlockReference
  2
*H249
 10
0.0
 20
0.0
 30
0.0
  0
INSERT
  5
56A
100
AcDbEntity
  8
0
100
AcDbBlockReference
  2
*H250
 10
0.0
 20
0.0
 30
0.0
  0
INSERT
  5
56E
100
AcDbEntity
  8
0
100
AcDbBlockReference
  2
*H251
 10
0.0
 20
0.0
 30
0.0
  0
INSERT
  5
572
100
AcDbEntity
  8
0
100
AcDbBlockReference
  2
*H252
 10
0.0
 20
0.0
 30
0.0
  0
INSERT
  5
576
100
AcDbEntity
  8
0
100
AcDbBlockReference
  2
*H253
 10
0.0
 20
0.0
 30
0.0
  0
INSERT
  5
57A
100
AcDbEntity
  8
0
100
AcDbBlockReference
  2
*H254
 10
0.0
 20
0.0
 30
0.0
  0
INSERT
  5
57E
100
AcDbEntity
  8
0
100
AcDbBlockReference
  2
*H255
 10
0.0
 20
0.0
 30
0.0
  0
INSERT
  5
582
100
AcDbEntity
  8
0
100
AcDbBlockReference
  2
*H256
 10
0.0
 20
0.0
 30
0.0
  0
INSERT
  5
586
100
AcDbEntity
  8
0
100
AcDbBlockReference
  2
*H257
 10
0.0
 20
0.0
 30
0.0
  0
INSERT
  5
58A
100
AcDbEntity
  8
0
100
AcDbBlockReference
  2
*H258
 10
0.0
 20
0.0
 30
0.0
  0
INSERT
  5
58E
100
AcDbEntity
  8
0
100
AcDbBlockReference
  2
*H259
 10
0.0
 20
0.0
 30
0.0
  0
INSERT
  5
592
100
AcDbEntity
  8
0
100
AcDbBlockReference
  2
*H260
 10
0.0
 20
0.0
 30
0.0
  0
INSERT
  5
596
100
AcDbEntity
  8
0
100
AcDbBlockReference
  2
*H261
 10
0.0
 20
0.0
 30
0.0
  0
INSERT
  5
59A
100
AcDbEntity
  8
0
100
AcDbBlockReference
  2
*H262
 10
0.0
 20
0.0
 30
0.0
  0
INSERT
  5
59E
100
AcDbEntity
  8
0
100
AcDbBlockReference
  2
*H263
 10
0.0
 20
0.0
 30
0.0
  0
INSERT
  5
5A2
100
AcDbEntity
  8
0
100
AcDbBlockReference
  2
*H264
 10
0.0
 20
0.0
 30
0.0
  0
INSERT
  5
5A6
100
AcDbEntity
  8
0
100
AcDbBlockReference
  2
*H265
 10
0.0
 20
0.0
 30
0.0
  0
INSERT
  5
5AA
100
AcDbEntity
  8
0
100
AcDbBlockReference
  2
*H266
 10
0.0
 20
0.0
 30
0.0
  0
LINE
  5
5AB
100
AcDbEntity
  8
0
  6
CENTER
 62
        2
100
AcDbLine
 10
801.738464355
 20
-248.962684684
 30
0.0
 11
801.738464355
 21
-77.069388311
 31
0.0
  0
INSERT
  5
5AF
100
AcDbEntity
  8
0
100
AcDbBlockReference
  2
*H267
 10
0.0
 20
0.0
 30
0.0
  0
INSERT
  5
5B3
100
AcDbEntity
  8
0
100
AcDbBlockReference
  2
*H268
 10
0.0
 20
0.0
 30
0.0
  0
INSERT
  5
5B7
100
AcDbEntity
  8
0
100
AcDbBlockReference
  2
*H269
 10
0.0
 20
0.0
 30
0.0
  0
INSERT
  5
5BB
100
AcDbEntity
  8
0
100
AcDbBlockReference
  2
*H270
 10
0.0
 20
0.0
 30
0.0
  0
INSERT
  5
5BF
100
AcDbEntity
  8
0
100
AcDbBlockReference
  2
*H271
 10
0.0
 20
0.0
 30
0.0
  0
INSERT
  5
5C3
100
AcDbEntity
  8
0
100
AcDbBlockReference
  2
*H272
 10
0.0
 20
0.0
 30
0.0
  0
INSERT
  5
5C7
100
AcDbEntity
  8
0
100
AcDbBlockReference
  2
*H273
 10
0.0
 20
0.0
 30
0.0
  0
INSERT
  5
5CB
100
AcDbEntity
  8
0
100
AcDbBlockReference
  2
*H274
 10
0.0
 20
0.0
 30
0.0
  0
INSERT
  5
5CF
100
AcDbEntity
  8
0
100
AcDbBlockReference
  2
*H275
 10
0.0
 20
0.0
 30
0.0
  0
INSERT
  5
5D3
100
AcDbEntity
  8
0
100
AcDbBlockReference
  2
*H276
 10
0.0
 20
0.0
 30
0.0
  0
INSERT
  5
5D7
100
AcDbEntity
  8
0
100
AcDbBlockReference
  2
*H277
 10
0.0
 20
0.0
 30
0.0
  0
INSERT
  5
5DB
100
AcDbEntity
  8
0
100
AcDbBlockReference
  2
*H278
 10
0.0
 20
0.0
 30
0.0
  0
INSERT
  5
5DF
100
AcDbEntity
  8
0
100
AcDbBlockReference
  2
*H279
 10
0.0
 20
0.0
 30
0.0
  0
INSERT
  5
5E3
100
AcDbEntity
  8
0
100
AcDbBlockReference
  2
*H280
 10
0.0
 20
0.0
 30
0.0
  0
INSERT
  5
5E7
100
AcDbEntity
  8
0
100
AcDbBlockReference
  2
*H281
 10
0.0
 20
0.0
 30
0.0
  0
INSERT
  5
5EB
100
AcDbEntity
  8
0
100
AcDbBlockReference
  2
*H282
 10
0.0
 20
0.0
 30
0.0
  0
INSERT
  5
5EF
100
AcDbEntity
  8
0
100
AcDbBlockReference
  2
*H283
 10
0.0
 20
0.0
 30
0.0
  0
INSERT
  5
5F3
100
AcDbEntity
  8
0
100
AcDbBlockReference
  2
*H284
 10
0.0
 20
0.0
 30
0.0
  0
INSERT
  5
5F7
100
AcDbEntity
  8
0
100
AcDbBlockReference
  2
*H285
 10
0.0
 20
0.0
 30
0.0
  0
INSERT
  5
5FB
100
AcDbEntity
  8
0
100
AcDbBlockReference
  2
*H286
 10
0.0
 20
0.0
 30
0.0
  0
INSERT
  5
5FF
100
AcDbEntity
  8
0
100
AcDbBlockReference
  2
*H287
 10
0.0
 20
0.0
 30
0.0
  0
INSERT
  5
603
100
AcDbEntity
  8
0
100
AcDbBlockReference
  2
*H288
 10
0.0
 20
0.0
 30
0.0
  0
INSERT
  5
607
100
AcDbEntity
  8
0
100
AcDbBlockReference
  2
*H289
 10
0.0
 20
0.0
 30
0.0
  0
INSERT
  5
60B
100
AcDbEntity
  8
0
100
AcDbBlockReference
  2
*H290
 10
0.0
 20
0.0
 30
0.0
  0
INSERT
  5
60F
100
AcDbEntity
  8
0
100
AcDbBlockReference
  2
*H291
 10
0.0
 20
0.0
 30
0.0
  0
INSERT
  5
613
100
AcDbEntity
  8
0
100
AcDbBlockReference
  2
*H292
 10
0.0
 20
0.0
 30
0.0
  0
INSERT
  5
617
100
AcDbEntity
  8
0
100
AcDbBlockReference
  2
*H293
 10
0.0
 20
0.0
 30
0.0
  0
INSERT
  5
61B
100
AcDbEntity
  8
0
100
AcDbBlockReference
  2
*H294
 10
0.0
 20
0.0
 30
0.0
  0
INSERT
  5
61F
100
AcDbEntity
  8
0
100
AcDbBlockReference
  2
*H295
 10
0.0
 20
0.0
 30
0.0
  0
INSERT
  5
623
100
AcDbEntity
  8
0
100
AcDbBlockReference
  2
*H296
 10
0.0
 20
0.0
 30
0.0
  0
LINE
  5
624
100
AcDbEntity
  8
0
  6
SOLID
 62
        3
100
AcDbLine
 10
701.738464355
 20
147.999974147
 30
0.0
 11
686.738464355
 21
147.999974147
 31
0.0
  0
LINE
  5
625
100
AcDbEntity
  8
0
  6
SOLID
 62
        6
100
AcDbLine
 10
651.738443355
 20
34.331092304
 30
0.0
 11
666.738443355
 21
34.331092304
 31
0.0
  0
LINE
  5
626
100
AcDbEntity
  8
0
  6
SOLID
 62
        6
100
AcDbLine
 10
558.738442957
 20
95.331092304
 30
0.0
 11
558.738442957
 21
81.331092304
 31
0.0
  0
LINE
  5
627
100
AcDbEntity
  8
0
  6
SOLID
 62
        2
100
AcDbLine
 10
666.738443355
 20
47.361124039
 30
0.0
 11
686.738464355
 21
47.361124039
 31
0.0
  0
LINE
  5
628
100
AcDbEntity
  8
0
  6
SOLID
 62
        2
100
AcDbLine
 10
666.738443355
 20
32.749973304
 30
0.0
 11
666.738443355
 21
147.32998085
 31
0.0
  0
LINE
  5
629
100
AcDbEntity
  8
0
  6
SOLID
 62
        6
100
AcDbLine
 10
583.738439939
 20
148.331092304
 30
0.0
 11
588.738442961
 21
148.331092304
 31
0.0
  0
LINE
  5
62A
100
AcDbEntity
  8
0
  6
SOLID
 62
        6
100
AcDbLine
 10
646.738446772
 20
133.331092304
 30
0.0
 11
646.738446772
 21
148.331092304
 31
0.0
  0
LINE
  5
62B
100
AcDbEntity
  8
0
  6
SOLID
 62
        6
100
AcDbLine
 10
646.738446772
 20
148.331092304
 30
0.0
 11
646.738446772
 21
150.331086414
 31
0.0
  0
LINE
  5
62C
100
AcDbEntity
  8
0
  6
SOLID
 62
        6
100
AcDbLine
 10
651.738443355
 20
28.331092304
 30
0.0
 11
651.738443355
 21
148.331092304
 31
0.0
  0
LINE
  5
62D
100
AcDbEntity
  8
0
  6
SOLID
 62
        6
100
AcDbLine
 10
651.738443355
 20
142.331092304
 30
0.0
 11
666.738443355
 21
142.331092304
 31
0.0
  0
LINE
  5
62E
100
AcDbEntity
  8
0
  6
SOLID
 62
        6
100
AcDbLine
 10
591.738443355
 20
130.331095721
 30
0.0
 11
614.238443355
 21
130.331095721
 31
0.0
  0
LINE
  5
62F
100
AcDbEntity
  8
0
  6
SOLID
 62
        6
100
AcDbLine
 10
646.738446772
 20
133.331092304
 30
0.0
 11
643.738443355
 21
130.331088888
 31
0.0
  0
LINE
  5
630
100
AcDbEntity
  8
0
  6
SOLID
 62
        6
100
AcDbLine
 10
588.738446772
 20
133.331092304
 30
0.0
 11
646.738446772
 21
133.331092304
 31
0.0
  0
LINE
  5
631
100
AcDbEntity
  8
0
  6
SOLID
 62
        6
100
AcDbLine
 10
643.738443355
 20
130.331088888
 30
0.0
 11
643.738443355
 21
38.831104593
 31
0.0
  0
LINE
  5
632
100
AcDbEntity
  8
0
  6
SOLID
 62
        6
100
AcDbLine
 10
621.238443355
 20
133.331092304
 30
0.0
 11
621.238443355
 21
100.328553455
 31
0.0
  0
LINE
  5
633
100
AcDbEntity
  8
0
  6
SOLID
 62
        6
100
AcDbLine
 10
614.238443355
 20
133.331092304
 30
0.0
 11
614.238443355
 21
100.328812855
 31
0.0
  0
ARC
  5
634
100
AcDbEntity
  8
0
  6
SOLID
 62
        6
100
AcDbCircle
 10
617.738436307
 20
88.331092304
 30
0.0
 40
12.498541335
100
AcDbArc
 50
106.254901973
 51
253.745137749
  0
ARC
  5
635
100
AcDbEntity
  8
0
  6
SOLID
 62
        6
100
AcDbCircle
 10
617.738436307
 20
88.331092304
 30
0.0
 40
12.498541335
100
AcDbArc
 50
286.269334526
 51
73.730611865
  0
LINE
  5
636
100
AcDbEntity
  8
0
  6
SOLID
 62
        6
100
AcDbLine
 10
621.238443355
 20
35.543339985
 30
0.0
 11
621.238443355
 21
76.332474964
 31
0.0
  0
LINE
  5
637
100
AcDbEntity
  8
0
  6
SOLID
 62
        6
100
AcDbLine
 10
614.238443355
 20
35.543339985
 30
0.0
 11
614.238443355
 21
76.331589954
 31
0.0
  0
LINE
  5
638
100
AcDbEntity
  8
0
  6
SOLID
 62
        6
100
AcDbLine
 10
588.738446772
 20
133.331092304
 30
0.0
 11
591.738443355
 21
130.331095721
 31
0.0
  0
LINE
  5
639
100
AcDbEntity
  8
0
  6
SOLID
 62
        6
100
AcDbLine
 10
588.738446772
 20
133.331092304
 30
0.0
 11
588.738446772
 21
148.331092304
 31
0.0
  0
LINE
  5
63A
100
AcDbEntity
  8
0
  6
SOLID
 62
        6
100
AcDbLine
 10
591.738443355
 20
130.331095721
 30
0.0
 11
591.738443355
 21
38.831096518
 31
0.0
  0
LINE
  5
63B
100
AcDbEntity
  8
0
  6
SOLID
 62
        6
100
AcDbLine
 10
588.738446772
 20
148.331092304
 30
0.0
 11
588.738446772
 21
150.331086414
 31
0.0
  0
LINE
  5
63C
100
AcDbEntity
  8
0
  6
SOLID
 62
        6
100
AcDbLine
 10
583.738446772
 20
28.331092304
 30
0.0
 11
583.738439939
 21
148.331092304
 31
0.0
  0
LINE
  5
63D
100
AcDbEntity
  8
0
  6
SOLID
 62
        6
100
AcDbLine
 10
568.73844643
 20
34.331092304
 30
0.0
 11
568.738440281
 21
142.331092304
 31
0.0
  0
LINE
  5
63E
100
AcDbEntity
  8
0
  6
SOLID
 62
        6
100
AcDbLine
 10
568.738440281
 20
142.331092304
 30
0.0
 11
583.738440281
 21
142.331092304
 31
0.0
  0
LINE
  5
63F
100
AcDbEntity
  8
0
  6
SOLID
 62
        6
100
AcDbLine
 10
557.738443697
 20
82.331092304
 30
0.0
 11
557.738443014
 21
94.331092361
 31
0.0
  0
LINE
  5
640
100
AcDbEntity
  8
0
  6
SOLID
 62
        6
100
AcDbLine
 10
558.738442957
 20
95.331092304
 30
0.0
 11
566.238442957
 21
95.331092304
 31
0.0
  0
LINE
  5
641
100
AcDbEntity
  8
0
  6
SOLID
 62
        6
100
AcDbLine
 10
558.738442957
 20
95.331092304
 30
0.0
 11
557.738443014
 21
94.331092361
 31
0.0
  0
LINE
  5
642
100
AcDbEntity
  8
0
  6
SOLID
 62
        2
100
AcDbLine
 10
552.738443128
 20
93.331092304
 30
0.0
 11
557.738443071
 21
93.331092304
 31
0.0
  0
ARC
  5
643
100
AcDbEntity
  8
0
  6
SOLID
 62
        2
100
AcDbCircle
 10
552.738443128
 20
92.331092304
 30
0.0
 40
1.0
100
AcDbArc
 50
90.0
 51
180.000003262
  0
LINE
  5
644
100
AcDbEntity
  8
0
  6
SOLID
 62
        2
100
AcDbLine
 10
551.738443583
 20
84.331092247
 30
0.0
 11
551.738443128
 21
92.331092247
 31
0.0
  0
LINE
  5
645
100
AcDbEntity
  8
0
  6
SOLID
 62
        2
100
AcDbLine
 10
552.738443583
 20
83.331092304
 30
0.0
 11
557.73844364
 21
83.331092304
 31
0.0
  0
ARC
  5
646
100
AcDbEntity
  8
0
  6
SOLID
 62
        2
100
AcDbCircle
 10
552.738443583
 20
84.331092304
 30
0.0
 40
1.0
100
AcDbArc
 50
180.000003262
 51
270.0
  0
LINE
  5
647
100
AcDbEntity
  8
0
  6
SOLID
 62
        6
100
AcDbLine
 10
558.738443811
 20
81.331092304
 30
0.0
 11
566.238443754
 21
81.331092304
 31
0.0
  0
LINE
  5
648
100
AcDbEntity
  8
0
  6
SOLID
 62
        6
100
AcDbLine
 10
557.738443697
 20
82.331092304
 30
0.0
 11
558.738443811
 21
81.331092304
 31
0.0
  0
LINE
  5
649
100
AcDbEntity
  8
0
  6
SOLID
 62
        6
100
AcDbLine
 10
566.238441363
 20
123.331092304
 30
0.0
 11
568.738441363
 21
123.331092304
 31
0.0
  0
LINE
  5
64A
100
AcDbEntity
  8
0
  6
SOLID
 62
        6
100
AcDbLine
 10
566.238445348
 20
53.331092304
 30
0.0
 11
566.238441363
 21
123.331092304
 31
0.0
  0
LINE
  5
64B
100
AcDbEntity
  8
0
  6
SOLID
 62
        6
100
AcDbLine
 10
566.238445348
 20
53.331092304
 30
0.0
 11
568.738445348
 21
53.331092304
 31
0.0
  0
LINE
  5
64C
100
AcDbEntity
  8
0
  6
SOLID
 62
        6
100
AcDbLine
 10
568.73844643
 20
34.331092304
 30
0.0
 11
583.73844643
 21
34.331092304
 31
0.0
  0
LINE
  5
64D
100
AcDbEntity
  8
0
  6
SOLID
 62
        6
100
AcDbLine
 10
583.738446772
 20
28.331092304
 30
0.0
 11
587.738439142
 21
28.331092304
 31
0.0
  0
LINE
  5
64E
100
AcDbEntity
  8
0
  6
SOLID
 62
        6
100
AcDbLine
 10
621.238443355
 20
35.543339985
 30
0.0
 11
614.238443355
 21
35.543339985
 31
0.0
  0
LINE
  5
64F
100
AcDbEntity
  8
0
  6
SOLID
 62
        6
100
AcDbLine
 10
591.738443355
 20
38.831096518
 30
0.0
 11
614.238443355
 21
38.831096518
 31
0.0
  0
LINE
  5
650
100
AcDbEntity
  8
0
  6
SOLID
 62
        6
100
AcDbLine
 10
587.738439142
 20
28.331092304
 30
0.0
 11
587.738439142
 21
34.831092304
 31
0.0
  0
LINE
  5
651
100
AcDbEntity
  8
0
  6
SOLID
 62
        6
100
AcDbLine
 10
587.738439142
 20
34.831092304
 30
0.0
 11
591.738443355
 21
38.831096518
 31
0.0
  0
LINE
  5
652
100
AcDbEntity
  8
0
  6
SOLID
 62
        6
100
AcDbLine
 10
587.738439142
 20
34.831092304
 30
0.0
 11
647.738455644
 21
34.831092304
 31
0.0
  0
LINE
  5
653
100
AcDbEntity
  8
0
  6
SOLID
 62
        6
100
AcDbLine
 10
587.738439142
 20
19.831092304
 30
0.0
 11
587.738439142
 21
28.331092304
 31
0.0
  0
LINE
  5
654
100
AcDbEntity
  8
0
  6
SOLID
 62
        6
100
AcDbLine
 10
647.738456498
 20
19.831092304
 30
0.0
 11
647.738456014
 21
28.331092304
 31
0.0
  0
LINE
  5
655
100
AcDbEntity
  8
0
  6
SOLID
 62
        6
100
AcDbLine
 10
647.738456014
 20
28.331092304
 30
0.0
 11
647.738455644
 21
34.831092304
 31
0.0
  0
LINE
  5
656
100
AcDbEntity
  8
0
  6
SOLID
 62
        6
100
AcDbLine
 10
621.238443355
 20
38.831096518
 30
0.0
 11
643.738443355
 21
38.831096518
 31
0.0
  0
LINE
  5
657
100
AcDbEntity
  8
0
  6
SOLID
 62
        6
100
AcDbLine
 10
647.738455644
 20
34.831092304
 30
0.0
 11
643.738443355
 21
38.831104593
 31
0.0
  0
LINE
  5
658
100
AcDbEntity
  8
0
  6
SOLID
 62
        6
100
AcDbLine
 10
644.007871592
 20
19.831094212
 30
0.0
 11
644.007871592
 21
16.331094212
 31
0.0
  0
LINE
  5
659
100
AcDbEntity
  8
0
  6
SOLID
 62
        6
100
AcDbLine
 10
641.698474503
 20
19.831092304
 30
0.0
 11
641.698474503
 21
16.331092304
 31
0.0
  0
LINE
  5
65A
100
AcDbEntity
  8
0
  6
SOLID
 62
        6
100
AcDbLine
 10
637.079671741
 20
19.831094212
 30
0.0
 11
637.079671741
 21
16.331094212
 31
0.0
  0
LINE
  5
65B
100
AcDbEntity
  8
0
  6
SOLID
 62
        6
100
AcDbLine
 10
634.770265987
 20
19.831098026
 30
0.0
 11
634.770265987
 21
16.331098026
 31
0.0
  0
LINE
  5
65C
100
AcDbEntity
  8
0
  6
SOLID
 62
        6
100
AcDbLine
 10
644.007871592
 20
16.33108849
 30
0.0
 11
634.770265161
 21
16.331103749
 31
0.0
  0
LINE
  5
65D
100
AcDbEntity
  8
0
  6
SOLID
 62
        6
100
AcDbLine
 10
587.738439142
 20
19.831092304
 30
0.0
 11
647.738456498
 21
19.831092304
 31
0.0
  0
LINE
  5
65E
100
AcDbEntity
  8
0
  6
SOLID
 62
        6
100
AcDbLine
 10
620.047848711
 20
19.831098026
 30
0.0
 11
620.047848711
 21
16.331098026
 31
0.0
  0
LINE
  5
65F
100
AcDbEntity
  8
0
  6
SOLID
 62
        6
100
AcDbLine
 10
622.357247858
 20
19.831099934
 30
0.0
 11
622.357247858
 21
16.331099934
 31
0.0
  0
LINE
  5
660
100
AcDbEntity
  8
0
  6
SOLID
 62
        6
100
AcDbLine
 10
622.357247858
 20
16.331105656
 30
0.0
 11
613.119638419
 21
16.331098026
 31
0.0
  0
LINE
  5
661
100
AcDbEntity
  8
0
  6
SOLID
 62
        6
100
AcDbLine
 10
615.429001064
 20
19.831097895
 30
0.0
 11
615.429001263
 21
16.331097895
 31
0.0
  0
LINE
  5
662
100
AcDbEntity
  8
0
  6
SOLID
 62
        6
100
AcDbLine
 10
613.119637908
 20
19.831092304
 30
0.0
 11
613.119637908
 21
16.331092304
 31
0.0
  0
LINE
  5
663
100
AcDbEntity
  8
0
  6
SOLID
 62
        6
100
AcDbLine
 10
600.706608483
 20
19.831094212
 30
0.0
 11
600.706608483
 21
16.331094212
 31
0.0
  0
LINE
  5
664
100
AcDbEntity
  8
0
  6
SOLID
 62
        6
100
AcDbLine
 10
598.397209336
 20
19.831098026
 30
0.0
 11
598.397209336
 21
16.331098026
 31
0.0
  0
LINE
  5
665
100
AcDbEntity
  8
0
  6
SOLID
 62
        6
100
AcDbLine
 10
591.469002878
 20
19.831098026
 30
0.0
 11
591.469002878
 21
16.331098026
 31
0.0
  0
LINE
  5
666
100
AcDbEntity
  8
0
  6
SOLID
 62
        6
100
AcDbLine
 10
591.469002878
 20
19.831098026
 30
0.0
 11
591.469002878
 21
16.331098026
 31
0.0
  0
LINE
  5
667
100
AcDbEntity
  8
0
  6
CENTER
 62
        2
100
AcDbLine
 10
617.738445581
 20
10.168275825
 30
0.0
 11
617.738440683
 21
182.218756575
 31
0.0
  0
LINE
  5
668
100
AcDbEntity
  8
0
  6
SOLID
 62
        6
100
AcDbLine
 10
593.778406533
 20
19.831099934
 30
0.0
 11
593.778406533
 21
16.331099934
 31
0.0
  0
LINE
  5
669
100
AcDbEntity
  8
0
  6
SOLID
 62
        6
100
AcDbLine
 10
591.469002878
 20
19.831098026
 30
0.0
 11
591.469002878
 21
16.331098026
 31
0.0
  0
LINE
  5
66A
100
AcDbEntity
  8
0
  6
SOLID
 62
        6
100
AcDbLine
 10
600.706608483
 20
16.331105656
 30
0.0
 11
591.469002012
 21
16.331098026
 31
0.0
  0
LINE
  5
66B
100
AcDbEntity
  8
0
  6
SOLID
 62
        2
100
AcDbLine
 10
1109.459950135
 20
137.331107135
 30
0.0
 11
1109.459950135
 21
61.6920439
 31
0.0
  0
LINE
  5
66C
100
AcDbEntity
  8
0
  6
SOLID
 62
        3
100
AcDbLine
 10
686.738464355
 20
-231.000010387
 30
0.0
 11
701.738464355
 21
-231.000010387
 31
0.0
  0
LINE
  5
66D
100
AcDbEntity
  8
0
  6
SOLID
 62
        6
100
AcDbLine
 10
1169.315157716
 20
52.677017889
 30
0.0
 11
1164.911667782
 21
42.046041308
 31
0.0
  0
LINE
  5
66E
100
AcDbEntity
  8
0
  6
SOLID
 62
        6
100
AcDbLine
 10
1166.543518666
 20
53.825067094
 30
0.0
 11
1162.140028735
 21
43.194090521
 31
0.0
  0
CIRCLE
  5
66F
100
AcDbEntity
  8
0
  6
SOLID
 62
        6
100
AcDbCircle
 10
1182.459960938
 20
88.331108093
 30
0.0
 40
49.5
  0
LINE
  5
670
100
AcDbEntity
  8
0
  6
CENTER
 62
        2
100
AcDbLine
 10
1253.310058594
 20
-209.762542725
 30
0.0
 11
1253.310058594
 21
-188.02281189
 31
0.0
  0
LINE
  5
671
100
AcDbEntity
  8
0
  6
SOLID
 62
        2
100
AcDbLine
 10
1264.459960835
 20
112.063158723
 30
0.0
 11
1264.45996104
 21
108.599057108
 31
0.0
  0
LINE
  5
672
100
AcDbEntity
  8
0
  6
SOLID
 62
        2
100
AcDbLine
 10
1242.330536067
 20
13.331108093
 30
0.0
 11
1267.459960938
 21
13.331108093
 31
0.0
  0
LINE
  5
673
100
AcDbEntity
  8
0
  6
SOLID
 62
        2
100
AcDbLine
 10
1277.459960938
 20
23.331108093
 30
0.0
 11
1267.459960938
 21
13.331108093
 31
0.0
  0
LINE
  5
674
100
AcDbEntity
  8
0
  6
SOLID
 62
        2
100
AcDbLine
 10
1277.459960938
 20
23.331108093
 30
0.0
 11
1277.459960938
 21
115.331108093
 31
0.0
  0
LINE
  5
675
100
AcDbEntity
  8
0
  6
SOLID
 62
        2
100
AcDbLine
 10
1267.459960732
 20
113.795209708
 30
0.0
 11
1264.459960835
 21
112.063158723
 31
0.0
  0
ARC
  5
676
100
AcDbEntity
  8
0
  6
SOLID
 62
        6
100
AcDbCircle
 10
1267.459960938
 20
28.331108093
 30
0.0
 40
6.75
100
AcDbArc
 50
222.205446404
 51
137.794553596
  0
LINE
  5
677
100
AcDbEntity
  8
0
  6
SOLID
 62
        2
100
AcDbLine
 10
1270.459960835
 20
112.063159079
 30
0.0
 11
1267.459960732
 21
113.795209708
 31
0.0
  0
LINE
  5
678
100
AcDbEntity
  8
0
  6
CENTER
 62
        2
100
AcDbLine
 10
1267.459960938
 20
19.416592121
 30
0.0
 11
1267.459960938
 21
121.436836243
 31
0.0
  0
LINE
  5
679
100
AcDbEntity
  8
0
  6
CENTER
 62
        2
100
AcDbLine
 10
1259.704273224
 20
48.331108093
 30
0.0
 11
1274.516845703
 21
48.331108093
 31
0.0
  0
LINE
  5
67A
100
AcDbEntity
  8
0
  6
CENTER
 62
        2
100
AcDbLine
 10
1259.704273224
 20
28.331108093
 30
0.0
 11
1275.596252441
 21
28.331108093
 31
0.0
  0
LINE
  5
67B
100
AcDbEntity
  8
0
  6
SOLID
 62
        2
100
AcDbLine
 10
1262.459960938
 20
130.331108093
 30
0.0
 11
1277.459960938
 21
115.331108093
 31
0.0
  0
ARC
  5
67C
100
AcDbEntity
  8
0
  6
SOLID
 62
        6
100
AcDbCircle
 10
1267.459960938
 20
110.331108093
 30
0.0
 40
6.75
100
AcDbArc
 50
222.205446404
 51
137.794553596
  0
LINE
  5
67D
100
AcDbEntity
  8
0
  6
SOLID
 62
        2
100
AcDbLine
 10
1270.45996104
 20
108.599057464
 30
0.0
 11
1270.459960835
 21
112.063159079
 31
0.0
  0
LINE
  5
67E
100
AcDbEntity
  8
0
  6
CENTER
 62
        2
100
AcDbLine
 10
1258.407400131
 20
110.331108093
 30
0.0
 11
1275.885070801
 21
110.331108093
 31
0.0
  0
LINE
  5
67F
100
AcDbEntity
  8
0
  6
SOLID
 62
        2
100
AcDbLine
 10
1267.459961143
 20
24.867006478
 30
0.0
 11
1270.45996104
 21
26.599057464
 31
0.0
  0
LINE
  5
680
100
AcDbEntity
  8
0
  6
SOLID
 62
        2
100
AcDbLine
 10
1264.45996104
 20
26.599057108
 30
0.0
 11
1267.459961143
 21
24.867006478
 31
0.0
  0
LINE
  5
681
100
AcDbEntity
  8
0
  6
SOLID
 62
        2
100
AcDbLine
 10
1264.459960835
 20
30.063158723
 30
0.0
 11
1264.45996104
 21
26.599057108
 31
0.0
  0
LINE
  5
682
100
AcDbEntity
  8
0
  6
SOLID
 62
        2
100
AcDbLine
 10
1267.459960732
 20
31.795209708
 30
0.0
 11
1264.459960835
 21
30.063158723
 31
0.0
  0
LINE
  5
683
100
AcDbEntity
  8
0
  6
SOLID
 62
        2
100
AcDbLine
 10
1270.459960835
 20
30.063159079
 30
0.0
 11
1267.459960732
 21
31.795209708
 31
0.0
  0
LINE
  5
684
100
AcDbEntity
  8
0
  6
SOLID
 62
        2
100
AcDbLine
 10
1270.45996104
 20
26.599057464
 30
0.0
 11
1270.459960835
 21
30.063159079
 31
0.0
  0
ARC
  5
685
100
AcDbEntity
  8
0
  6
SOLID
 62
        2
100
AcDbCircle
 10
1267.459960938
 20
110.331108093
 30
0.0
 40
6.25
100
AcDbArc
 50
216.869897646
 51
143.130102396
  0
ARC
  5
686
100
AcDbEntity
  8
0
  6
SOLID
 62
        2
100
AcDbCircle
 10
1267.459960938
 20
28.331108093
 30
0.0
 40
6.25
100
AcDbArc
 50
216.869897646
 51
143.130102396
  0
CIRCLE
  5
687
100
AcDbEntity
  8
0
  6
SOLID
 62
        6
100
AcDbCircle
 10
1182.459960938
 20
88.331108093
 30
0.0
 40
35.0
  0
CIRCLE
  5
688
100
AcDbEntity
  8
0
  6
SOLID
 62
        6
100
AcDbCircle
 10
1182.459960938
 20
88.331108093
 30
0.0
 40
31.0
  0
CIRCLE
  5
689
100
AcDbEntity
  8
0
  6
SOLID
 62
        1
100
AcDbCircle
 10
1150.310058594
 20
0.0
 30
0.0
 40
26.0
  0
CIRCLE
  5
68A
100
AcDbEntity
  8
0
  6
SOLID
 62
        6
100
AcDbCircle
 10
1182.459960938
 20
88.331108093
 30
0.0
 40
20.0
  0
LINE
  5
68B
100
AcDbEntity
  8
0
  6
SOLID
 62
        2
100
AcDbLine
 10
1119.459950135
 20
147.331107135
 30
0.0
 11
1109.459950135
 21
137.331107135
 31
0.0
  0
LINE
  5
68C
100
AcDbEntity
  8
0
  6
SOLID
 62
        2
100
AcDbLine
 10
1234.088103385
 20
16.331108093
 30
0.0
 11
1242.330536067
 21
13.331108093
 31
0.0
  0
INSERT
  5
690
100
AcDbEntity
  8
0
100
AcDbBlockReference
  2
*H297
 10
0.0
 20
0.0
 30
0.0
  0
LINE
  5
691
100
AcDbEntity
  8
0
  6
SOLID
 62
        2
100
AcDbLine
 10
1027.810058799
 20
-171.464101615
 30
0.0
 11
1030.810058697
 21
-169.732050629
 31
0.0
  0
LINE
  5
692
100
AcDbEntity
  8
0
  6
SOLID
 62
        2
100
AcDbLine
 10
1030.810058697
 20
-169.732050629
 30
0.0
 11
1030.810058491
 21
-166.267949014
 31
0.0
  0
LINE
  5
693
100
AcDbEntity
  8
0
  6
SOLID
 62
        6
100
AcDbLine
 10
1193.459960938
 20
81.980255132
 30
0.0
 11
1193.459960938
 21
94.681961054
 31
0.0
  0
LINE
  5
694
100
AcDbEntity
  8
0
  6
SOLID
 62
        6
100
AcDbLine
 10
1193.459960938
 20
94.681961054
 30
0.0
 11
1182.459960937
 21
101.032814015
 31
0.0
  0
LINE
  5
695
100
AcDbEntity
  8
0
  6
SOLID
 62
        6
100
AcDbLine
 10
1182.459960937
 20
101.032814015
 30
0.0
 11
1171.459960938
 21
94.681961054
 31
0.0
  0
LINE
  5
696
100
AcDbEntity
  8
0
  6
SOLID
 62
        6
100
AcDbLine
 10
1171.459960938
 20
94.681961054
 30
0.0
 11
1171.459960938
 21
81.980255132
 31
0.0
  0
LINE
  5
697
100
AcDbEntity
  8
0
  6
SOLID
 62
        6
100
AcDbLine
 10
1171.459960938
 20
81.980255132
 30
0.0
 11
1182.459960938
 21
75.629402171
 31
0.0
  0
LINE
  5
698
100
AcDbEntity
  8
0
  6
SOLID
 62
        6
100
AcDbLine
 10
1182.459960938
 20
75.629402171
 30
0.0
 11
1193.459960938
 21
81.980255132
 31
0.0
  0
CIRCLE
  5
699
100
AcDbEntity
  8
0
  6
SOLID
 62
        6
100
AcDbCircle
 10
1182.459960938
 20
88.331108093
 30
0.0
 40
11.0
  0
CIRCLE
  5
69A
100
AcDbEntity
  8
0
  6
SOLID
 62
        6
100
AcDbCircle
 10
1182.459960938
 20
88.331108093
 30
0.0
 40
7.0
  0
LINE
  5
69B
100
AcDbEntity
  8
0
  6
SOLID
 62
        2
100
AcDbLine
 10
1024.810058697
 20
-169.732050986
 30
0.0
 11
1027.810058799
 21
-171.464101615
 31
0.0
  0
ARC
  5
69C
100
AcDbEntity
  8
0
  6
SOLID
 62
        6
100
AcDbCircle
 10
1182.459960938
 20
88.331108093
 30
0.0
 40
5.5
100
AcDbArc
 50
0.0
 51
270.0
  0
LINE
  5
69D
100
AcDbEntity
  8
0
  6
SOLID
 62
        2
100
AcDbLine
 10
1024.810058491
 20
-166.267949371
 30
0.0
 11
1024.810058697
 21
-169.732050986
 31
0.0
  0
LINE
  5
69E
100
AcDbEntity
  8
0
  6
SOLID
 62
        2
100
AcDbLine
 10
1027.810058388
 20
-164.535898385
 30
0.0
 11
1024.810058491
 21
-166.267949371
 31
0.0
  0
CIRCLE
  5
69F
100
AcDbEntity
  8
0
  6
SOLID
 62
        6
100
AcDbCircle
 10
1182.459960938
 20
88.331108093
 30
0.0
 40
60.0
  0
CIRCLE
  5
6A0
100
AcDbEntity
  8
0
  6
SOLID
 62
        6
100
AcDbCircle
 10
1182.459960938
 20
88.331108093
 30
0.0
 40
52.5
  0
LINE
  5
6A1
100
AcDbEntity
  8
0
  6
SOLID
 62
        6
100
AcDbLine
 10
1206.959960938
 20
16.331108093
 30
0.0
 11
1206.959960938
 21
21.331108093
 31
0.0
  0
LINE
  5
6A2
100
AcDbEntity
  8
0
  6
SOLID
 62
        6
100
AcDbLine
 10
1257.959960938
 20
16.331108093
 30
0.0
 11
1257.959960938
 21
21.331108093
 31
0.0
  0
LINE
  5
6A3
100
AcDbEntity
  8
0
  6
SOLID
 62
        6
100
AcDbLine
 10
1206.959960938
 20
16.331108093
 30
0.0
 11
1214.959960938
 21
16.331108093
 31
0.0
  0
LINE
  5
6A4
100
AcDbEntity
  8
0
  6
SOLID
 62
        6
100
AcDbLine
 10
1202.459960938
 20
21.331108093
 30
0.0
 11
1262.459960938
 21
21.331108093
 31
0.0
  0
LINE
  5
6A5
100
AcDbEntity
  8
0
  6
SOLID
 62
        6
100
AcDbLine
 10
1228.459960938
 20
16.331108093
 30
0.0
 11
1228.459960938
 21
21.331108093
 31
0.0
  0
LINE
  5
6A6
100
AcDbEntity
  8
0
  6
SOLID
 62
        2
100
AcDbLine
 10
1030.810058491
 20
-166.267949014
 30
0.0
 11
1027.810058388
 21
-164.535898385
 31
0.0
  0
LINE
  5
6A7
100
AcDbEntity
  8
0
  6
SOLID
 62
        6
100
AcDbLine
 10
1236.459960938
 20
16.331108093
 30
0.0
 11
1236.459960938
 21
21.331108093
 31
0.0
  0
CIRCLE
  5
6A8
100
AcDbEntity
  8
0
  6
SOLID
 62
        2
100
AcDbCircle
 10
1027.810058594
 20
-168.0
 30
0.0
 40
6.25
  0
LINE
  5
6A9
100
AcDbEntity
  8
0
  6
SOLID
 62
        2
100
AcDbLine
 10
1065.310058799
 20
-227.464101615
 30
0.0
 11
1068.310058697
 21
-225.732050629
 31
0.0
  0
LINE
  5
6AA
100
AcDbEntity
  8
0
  6
SOLID
 62
        6
100
AcDbLine
 10
1202.459960938
 20
144.899650588
 30
0.0
 11
1202.459960938
 21
155.331108093
 31
0.0
  0
LINE
  5
6AB
100
AcDbEntity
  8
0
  6
SOLID
 62
        6
100
AcDbLine
 10
1262.459960938
 20
21.331108093
 30
0.0
 11
1262.459960938
 21
155.331108093
 31
0.0
  0
CIRCLE
  5
6AC
100
AcDbEntity
  8
0
  6
SOLID
 62
        1
100
AcDbCircle
 10
1080.310058594
 20
82.0
 30
0.0
 40
10.0
  0
LINE
  5
6AD
100
AcDbEntity
  8
0
  6
SOLID
 62
        6
100
AcDbLine
 10
1249.959960938
 20
16.331108093
 30
0.0
 11
1249.959960938
 21
21.331108093
 31
0.0
  0
LINE
  5
6AE
100
AcDbEntity
  8
0
  6
SOLID
 62
        2
100
AcDbLine
 10
1084.524150699
 20
119.944513139
 30
0.0
 11
1082.792099713
 21
122.944513036
 31
0.0
  0
LINE
  5
6AF
100
AcDbEntity
  8
0
  6
CENTER
 62
        2
100
AcDbLine
 10
1085.395118404
 20
112.435953647
 30
0.0
 11
1076.702857795
 21
127.49138859
 31
0.0
  0
LINE
  5
6B0
100
AcDbEntity
  8
0
  6
SOLID
 62
        6
100
AcDbLine
 10
1214.959960938
 20
16.331108093
 30
0.0
 11
1214.959960938
 21
21.331108093
 31
0.0
  0
LINE
  5
6B1
100
AcDbEntity
  8
0
  6
SOLID
 62
        6
100
AcDbLine
 10
1228.459960938
 20
16.331108093
 30
0.0
 11
1236.459960938
 21
16.331108093
 31
0.0
  0
LINE
  5
6B2
100
AcDbEntity
  8
0
  6
SOLID
 62
        6
100
AcDbLine
 10
1249.959960938
 20
16.331108093
 30
0.0
 11
1257.959960938
 21
16.331108093
 31
0.0
  0
LINE
  5
6B3
100
AcDbEntity
  8
0
  6
SOLID
 62
        6
100
AcDbLine
 10
1202.459960938
 20
21.331108093
 30
0.0
 11
1202.459960938
 21
31.762565598
 31
0.0
  0
LINE
  5
6B4
100
AcDbEntity
  8
0
  6
SOLID
 62
        2
100
AcDbLine
 10
1079.327998454
 20
116.944512831
 30
0.0
 11
1082.79210007
 21
116.944513036
 31
0.0
  0
LINE
  5
6B5
100
AcDbEntity
  8
0
  6
CENTER
 62
        2
100
AcDbLine
 10
1089.240705568
 20
0.0
 30
0.0
 11
1204.277616142
 21
0.0
 31
0.0
  0
LINE
  5
6B6
100
AcDbEntity
  8
0
  6
SOLID
 62
        2
100
AcDbLine
 10
1082.79210007
 20
116.944513036
 30
0.0
 11
1084.524150699
 21
119.944513139
 31
0.0
  0
CIRCLE
  5
6B7
100
AcDbEntity
  8
0
  6
CENTER
 62
        2
100
AcDbCircle
 10
1080.310058594
 20
82.0
 30
0.0
 40
22.0
  0
LINE
  5
6B8
100
AcDbEntity
  8
0
  6
CENTER
 62
        2
100
AcDbLine
 10
1110.55090332
 20
128.331107135
 30
0.0
 11
1124.102676392
 21
128.331107135
 31
0.0
  0
CIRCLE
  5
6B9
100
AcDbEntity
  8
0
  6
SOLID
 62
        2
100
AcDbCircle
 10
1081.060049084
 20
119.944512934
 30
0.0
 40
6.25
  0
LINE
  5
6BA
100
AcDbEntity
  8
0
  6
CENTER
 62
        2
100
AcDbLine
 10
1117.459950135
 20
134.754790301
 30
0.0
 11
1117.459950135
 21
121.390849101
 31
0.0
  0
LINE
  5
6BB
100
AcDbEntity
  8
0
  6
SOLID
 62
        2
100
AcDbLine
 10
1077.595947469
 20
119.944512728
 30
0.0
 11
1079.327998454
 21
116.944512831
 31
0.0
  0
LINE
  5
6BC
100
AcDbEntity
  8
0
  6
SOLID
 62
        2
100
AcDbLine
 10
1079.327998098
 20
122.944512831
 30
0.0
 11
1077.595947469
 21
119.944512728
 31
0.0
  0
LINE
  5
6BD
100
AcDbEntity
  8
0
  6
SOLID
 62
        2
100
AcDbLine
 10
1068.310058697
 20
-225.732050629
 30
0.0
 11
1068.310058491
 21
-222.267949014
 31
0.0
  0
LINE
  5
6BE
100
AcDbEntity
  8
0
  6
SOLID
 62
        2
100
AcDbLine
 10
1062.310058697
 20
-225.732050986
 30
0.0
 11
1065.310058799
 21
-227.464101615
 31
0.0
  0
LINE
  5
6BF
100
AcDbEntity
  8
0
  6
SOLID
 62
        2
100
AcDbLine
 10
1062.310058491
 20
-222.267949371
 30
0.0
 11
1062.310058697
 21
-225.732050986
 31
0.0
  0
LINE
  5
6C0
100
AcDbEntity
  8
0
  6
CENTER
 62
        2
100
AcDbLine
 10
1205.310058594
 20
-235.585586548
 30
0.0
 11
1205.310058594
 21
-212.820358276
 31
0.0
  0
LINE
  5
6C1
100
AcDbEntity
  8
0
  6
DASH
 62
        1
100
AcDbLine
 10
1028.310058594
 20
-233.0
 30
0.0
 11
1028.310058594
 21
-207.041451884
 31
0.0
  0
CIRCLE
  5
6C2
100
AcDbEntity
  8
0
  6
SOLID
 62
        2
100
AcDbCircle
 10
1127.459950135
 20
138.331107135
 30
0.0
 40
6.25
  0
LINE
  5
6C3
100
AcDbEntity
  8
0
  6
SOLID
 62
        2
100
AcDbLine
 10
1065.310058388
 20
-220.535898385
 30
0.0
 11
1062.310058491
 21
-222.267949371
 31
0.0
  0
LINE
  5
6C4
100
AcDbEntity
  8
0
  6
SOLID
 62
        2
100
AcDbLine
 10
1068.310058491
 20
-222.267949014
 30
0.0
 11
1065.310058388
 21
-220.535898385
 31
0.0
  0
CIRCLE
  5
6C5
100
AcDbEntity
  8
0
  6
SOLID
 62
        2
100
AcDbCircle
 10
1065.310058594
 20
-224.0
 30
0.0
 40
6.25
  0
LINE
  5
6C6
100
AcDbEntity
  8
0
  6
CENTER
 62
        2
100
AcDbLine
 10
1272.810058594
 20
-81.363090515
 30
0.0
 11
1272.810058594
 21
-58.563186646
 31
0.0
  0
LINE
  5
6C7
100
AcDbEntity
  8
0
  6
DASH
 62
        1
100
AcDbLine
 10
1042.310058594
 20
-233.0
 30
0.0
 11
1042.310058594
 21
-207.041451884
 31
0.0
  0
LINE
  5
6C8
100
AcDbEntity
  8
0
  6
CENTER
 62
        2
100
AcDbLine
 10
1065.310058594
 20
-235.413116455
 30
0.0
 11
1065.310058594
 21
-212.992828369
 31
0.0
  0
LINE
  5
6C9
100
AcDbEntity
  8
0
  6
SOLID
 62
        2
100
AcDbLine
 10
1124.459950238
 20
136.599056149
 30
0.0
 11
1127.459950341
 21
134.867005519
 31
0.0
  0
LINE
  5
6CA
100
AcDbEntity
  8
0
  6
SOLID
 62
        2
100
AcDbLine
 10
1127.459950341
 20
134.867005519
 30
0.0
 11
1130.459950238
 21
136.599056505
 31
0.0
  0
LINE
  5
6CB
100
AcDbEntity
  8
0
  6
SOLID
 62
        2
100
AcDbLine
 10
1130.459950238
 20
136.599056505
 30
0.0
 11
1130.459950032
 21
140.06315812
 31
0.0
  0
LINE
  5
6CC
100
AcDbEntity
  8
0
  6
CENTER
 62
        2
100
AcDbLine
 10
1037.87409448
 20
64.914922062
 30
0.0
 11
1022.818658505
 21
73.607180883
 31
0.0
  0
LINE
  5
6CD
100
AcDbEntity
  8
0
  6
CENTER
 62
        2
100
AcDbLine
 10
1027.810058594
 20
-80.161499023
 30
0.0
 11
1027.810058594
 21
-59.589050293
 31
0.0
  0
CIRCLE
  5
6CE
100
AcDbEntity
  8
0
  6
SOLID
 62
        6
100
AcDbCircle
 10
1065.310058594
 20
-224.0
 30
0.0
 40
6.75
  0
LINE
  5
6CF
100
AcDbEntity
  8
0
  6
DASH
 62
        1
100
AcDbLine
 10
1035.310058594
 20
-203.0
 30
0.0
 11
1042.310058594
 21
-207.041451884
 31
0.0
  0
LINE
  5
6D0
100
AcDbEntity
  8
0
  6
DASH
 62
        1
100
AcDbLine
 10
1035.310058594
 20
-203.0
 30
0.0
 11
1028.310058594
 21
-207.041451884
 31
0.0
  0
LINE
  5
6D1
100
AcDbEntity
  8
0
  6
CENTER
 62
        2
100
AcDbLine
 10
1242.312713623
 20
-198.0
 30
0.0
 11
1263.880859375
 21
-198.0
 31
0.0
  0
LINE
  5
6D2
100
AcDbEntity
  8
0
  6
SOLID
 62
        2
100
AcDbLine
 10
1205.310058799
 20
-227.464101615
 30
0.0
 11
1208.310058697
 21
-225.732050629
 31
0.0
  0
CIRCLE
  5
6D3
100
AcDbEntity
  8
0
  6
SOLID
 62
        6
100
AcDbCircle
 10
1127.459950135
 20
138.331107135
 30
0.0
 40
6.75
  0
LINE
  5
6D4
100
AcDbEntity
  8
0
  6
SOLID
 62
        2
100
AcDbLine
 10
1208.310058697
 20
-225.732050629
 30
0.0
 11
1208.310058491
 21
-222.267949014
 31
0.0
  0
CIRCLE
  5
6D5
100
AcDbEntity
  8
0
  6
SOLID
 62
        6
100
AcDbCircle
 10
1205.310058594
 20
-224.0
 30
0.0
 40
6.75
  0
LINE
  5
6D6
100
AcDbEntity
  8
0
  6
SOLID
 62
        3
100
AcDbLine
 10
1020.310058594
 20
-231.5
 30
0.0
 11
1280.310058594
 21
-231.5
 31
0.0
  0
LINE
  5
6D7
100
AcDbEntity
  8
0
  6
CENTER
 62
        2
100
AcDbLine
 10
1127.459950135
 20
127.305362415
 30
0.0
 11
1127.459950135
 21
149.433314991
 31
0.0
  0
LINE
  5
6D8
100
AcDbEntity
  8
0
  6
SOLID
 62
        2
100
AcDbLine
 10
1095.268690798
 20
99.787059329
 30
0.0
 11
1093.635697637
 21
98.154066168
 31
0.0
  0
LINE
  5
6D9
100
AcDbEntity
  8
0
  6
CENTER
 62
        2
100
AcDbLine
 10
1099.373283386
 20
101.063224792
 30
0.0
 11
1092.194347382
 21
93.884288788
 31
0.0
  0
LINE
  5
6DA
100
AcDbEntity
  8
0
  6
SOLID
 62
        2
100
AcDbLine
 10
1093.635697637
 20
98.154066168
 30
0.0
 11
1094.233414618
 21
95.923356024
 31
0.0
  0
LINE
  5
6DB
100
AcDbEntity
  8
0
  6
SOLID
 62
        2
100
AcDbLine
 10
1202.310058697
 20
-225.732050986
 30
0.0
 11
1205.310058799
 21
-227.464101615
 31
0.0
  0
LINE
  5
6DC
100
AcDbEntity
  8
0
  6
SOLID
 62
        2
100
AcDbLine
 10
1024.810058491
 20
-68.267949371
 30
0.0
 11
1024.810058697
 21
-71.732050986
 31
0.0
  0
LINE
  5
6DD
100
AcDbEntity
  8
0
  6
SOLID
 62
        2
100
AcDbLine
 10
1024.810058697
 20
-71.732050986
 30
0.0
 11
1027.810058799
 21
-73.464101615
 31
0.0
  0
LINE
  5
6DE
100
AcDbEntity
  8
0
  6
SOLID
 62
        2
100
AcDbLine
 10
1027.810058799
 20
-73.464101615
 30
0.0
 11
1030.810058697
 21
-71.732050629
 31
0.0
  0
LINE
  5
6DF
100
AcDbEntity
  8
0
  6
SOLID
 62
        2
100
AcDbLine
 10
1030.810058697
 20
-71.732050629
 30
0.0
 11
1030.810058491
 21
-68.267949014
 31
0.0
  0
LINE
  5
6E0
100
AcDbEntity
  8
0
  6
SOLID
 62
        2
100
AcDbLine
 10
1127.459949929
 20
141.79520875
 30
0.0
 11
1124.459950032
 21
140.063157764
 31
0.0
  0
LINE
  5
6E1
100
AcDbEntity
  8
0
  6
SOLID
 62
        2
100
AcDbLine
 10
1130.459950032
 20
140.06315812
 30
0.0
 11
1127.459949929
 21
141.79520875
 31
0.0
  0
LINE
  5
6E2
100
AcDbEntity
  8
0
  6
CENTER
 62
        2
100
AcDbLine
 10
1115.451588319
 20
138.331107135
 30
0.0
 11
1138.807118104
 21
138.331107135
 31
0.0
  0
LINE
  5
6E3
100
AcDbEntity
  8
0
  6
DASH
 62
        1
100
AcDbLine
 10
1257.31010031
 20
-233.0
 30
0.0
 11
1257.31010031
 21
-213.0
 31
0.0
  0
LINE
  5
6E4
100
AcDbEntity
  8
0
  6
SOLID
 62
        2
100
AcDbLine
 10
1124.459950032
 20
140.063157764
 30
0.0
 11
1124.459950238
 21
136.599056149
 31
0.0
  0
CIRCLE
  5
6E5
100
AcDbEntity
  8
0
  6
SOLID
 62
        2
100
AcDbCircle
 10
1117.459950135
 20
68.331107135
 30
0.0
 40
6.25
  0
LINE
  5
6E6
100
AcDbEntity
  8
0
  6
DASH
 62
        1
100
AcDbLine
 10
1258.310058594
 20
-233.0
 30
0.0
 11
1258.310058594
 21
-207.041451884
 31
0.0
  0
LINE
  5
6E7
100
AcDbEntity
  8
0
  6
SOLID
 62
        2
100
AcDbLine
 10
1114.459950238
 20
66.599056149
 30
0.0
 11
1117.459950341
 21
64.867005519
 31
0.0
  0
LINE
  5
6E8
100
AcDbEntity
  8
0
  6
SOLID
 62
        2
100
AcDbLine
 10
1117.459950341
 20
64.867005519
 30
0.0
 11
1120.459950238
 21
66.599056505
 31
0.0
  0
LINE
  5
6E9
100
AcDbEntity
  8
0
  6
DASH
 62
        1
100
AcDbLine
 10
1027.310096741
 20
-233.0
 30
0.0
 11
1027.310096741
 21
-213.0
 31
0.0
  0
LINE
  5
6EA
100
AcDbEntity
  8
0
  6
SOLID
 62
        2
100
AcDbLine
 10
1120.459950238
 20
66.599056505
 30
0.0
 11
1120.459950032
 21
70.06315812
 31
0.0
  0
LINE
  5
6EB
100
AcDbEntity
  8
0
  6
CENTER
 62
        2
100
AcDbLine
 10
1117.459950135
 20
57.305362415
 30
0.0
 11
1117.459950135
 21
79.433314991
 31
0.0
  0
LINE
  5
6EC
100
AcDbEntity
  8
0
  6
SOLID
 62
        2
100
AcDbLine
 10
1030.810058491
 20
-68.267949014
 30
0.0
 11
1027.810058388
 21
-66.535898385
 31
0.0
  0
LINE
  5
6ED
100
AcDbEntity
  8
0
  6
SOLID
 62
        2
100
AcDbLine
 10
1027.810058388
 20
-66.535898385
 30
0.0
 11
1024.810058491
 21
-68.267949371
 31
0.0
  0
LINE
  5
6EE
100
AcDbEntity
  8
0
  6
SOLID
 62
        2
100
AcDbLine
 10
1117.459949929
 20
71.79520875
 30
0.0
 11
1114.459950032
 21
70.063157764
 31
0.0
  0
LINE
  5
6EF
100
AcDbEntity
  8
0
  6
SOLID
 62
        2
100
AcDbLine
 10
1120.459950032
 20
70.06315812
 30
0.0
 11
1117.459949929
 21
71.79520875
 31
0.0
  0
LINE
  5
6F0
100
AcDbEntity
  8
0
  6
DASH
 62
        1
100
AcDbLine
 10
1028.310058594
 20
-207.041451884
 30
0.0
 11
1042.310058594
 21
-207.041451884
 31
0.0
  0
LINE
  5
6F1
100
AcDbEntity
  8
0
  6
SOLID
 62
        7
100
AcDbLine
 10
1280.310058594
 20
-233.0
 30
0.0
 11
1020.310058594
 21
-233.0
 31
0.0
  0
LINE
  5
6F2
100
AcDbEntity
  8
0
  6
SOLID
 62
        2
100
AcDbLine
 10
1109.459950135
 20
61.6920439
 30
0.0
 11
1134.192881558
 21
52.689993517
 31
0.0
  0
LINE
  5
6F3
100
AcDbEntity
  8
0
  6
SOLID
 62
        7
100
AcDbLine
 10
1280.310058594
 20
-233.0
 30
0.0
 11
1280.310058594
 21
-231.5
 31
0.0
  0
LINE
  5
6F4
100
AcDbEntity
  8
0
  6
SOLID
 62
        7
100
AcDbLine
 10
1020.310058594
 20
-233.0
 30
0.0
 11
1020.310058594
 21
-231.5
 31
0.0
  0
LINE
  5
6F5
100
AcDbEntity
  8
0
  6
SOLID
 62
        7
100
AcDbLine
 10
1167.310058594
 20
153.0
 30
0.0
 11
1133.310058594
 21
153.0
 31
0.0
  0
LINE
  5
6F6
100
AcDbEntity
  8
0
  6
CENTER
 62
        2
100
AcDbLine
 10
1038.638183594
 20
-168.0
 30
0.0
 11
1016.581542969
 21
-168.0
 31
0.0
  0
CIRCLE
  5
6F7
100
AcDbEntity
  8
0
  6
SOLID
 62
        2
100
AcDbCircle
 10
1027.810058594
 20
-70.0
 30
0.0
 40
6.25
  0
LINE
  5
6F8
100
AcDbEntity
  8
0
  6
DASH
 62
        1
100
AcDbLine
 10
1273.31010031
 20
-213.0
 30
0.0
 11
1257.31010031
 21
-213.0
 31
0.0
  0
CIRCLE
  5
6F9
100
AcDbEntity
  8
0
  6
SOLID
 62
        3
100
AcDbCircle
 10
1080.310058594
 20
82.0
 30
0.0
 40
27.75
  0
LINE
  5
6FA
100
AcDbEntity
  8
0
  6
DASH
 62
        1
100
AcDbLine
 10
1258.310058594
 20
-207.041451884
 30
0.0
 11
1272.310058594
 21
-207.041451884
 31
0.0
  0
CIRCLE
  5
6FB
100
AcDbEntity
  8
0
  6
SOLID
 62
        6
100
AcDbCircle
 10
1117.459950135
 20
68.331107135
 30
0.0
 40
6.75
  0
LINE
  5
6FC
100
AcDbEntity
  8
0
  6
DASH
 62
        1
100
AcDbLine
 10
1265.310058594
 20
-203.0
 30
0.0
 11
1258.310058594
 21
-207.041451884
 31
0.0
  0
LINE
  5
6FD
100
AcDbEntity
  8
0
  6
SOLID
 62
        2
100
AcDbLine
 10
1202.310058491
 20
-222.267949371
 30
0.0
 11
1202.310058697
 21
-225.732050986
 31
0.0
  0
LINE
  5
6FE
100
AcDbEntity
  8
0
  6
SOLID
 62
        2
100
AcDbLine
 10
1205.310058388
 20
-220.535898385
 30
0.0
 11
1202.310058491
 21
-222.267949371
 31
0.0
  0
CIRCLE
  5
6FF
100
AcDbEntity
  8
0
  6
SOLID
 62
        6
100
AcDbCircle
 10
1117.459953308
 20
128.331115723
 30
0.0
 40
3.0
  0
LINE
  5
700
100
AcDbEntity
  8
0
  6
CENTER
 62
        2
100
AcDbLine
 10
1105.451588319
 20
68.331107135
 30
0.0
 11
1128.807118104
 21
68.331107135
 31
0.0
  0
LINE
  5
701
100
AcDbEntity
  8
0
  6
CENTER
 62
        2
100
AcDbLine
 10
1265.310058594
 20
-241.779129028
 30
0.0
 11
1265.310058594
 21
-200.641830444
 31
0.0
  0
CIRCLE
  5
702
100
AcDbEntity
  8
0
  6
SOLID
 62
        6
100
AcDbCircle
 10
1253.310058594
 20
-198.0
 30
0.0
 40
6.75
  0
LINE
  5
703
100
AcDbEntity
  8
0
  6
SOLID
 62
        2
100
AcDbLine
 10
1208.310058491
 20
-222.267949014
 30
0.0
 11
1205.310058388
 21
-220.535898385
 31
0.0
  0
LINE
  5
704
100
AcDbEntity
  8
0
  6
DASH
 62
        1
100
AcDbLine
 10
1265.310058594
 20
-203.0
 30
0.0
 11
1272.310058594
 21
-207.041451884
 31
0.0
  0
INSERT
  5
708
100
AcDbEntity
  8
0
100
AcDbBlockReference
  2
*H298
 10
0.0
 20
0.0
 30
0.0
  0
INSERT
  5
70C
100
AcDbEntity
  8
0
100
AcDbBlockReference
  2
*H299
 10
0.0
 20
0.0
 30
0.0
  0
INSERT
  5
710
100
AcDbEntity
  8
0
100
AcDbBlockReference
  2
*H300
 10
0.0
 20
0.0
 30
0.0
  0
INSERT
  5
714
100
AcDbEntity
  8
0
100
AcDbBlockReference
  2
*H301
 10
0.0
 20
0.0
 30
0.0
  0
INSERT
  5
718
100
AcDbEntity
  8
0
100
AcDbBlockReference
  2
*H302
 10
0.0
 20
0.0
 30
0.0
  0
LINE
  5
719
100
AcDbEntity
  8
0
  6
DASH
 62
        1
100
AcDbLine
 10
1272.310058594
 20
-233.0
 30
0.0
 11
1272.310058594
 21
-207.041451884
 31
0.0
  0
LINE
  5
71A
100
AcDbEntity
  8
0
  6
DASH
 62
        1
100
AcDbLine
 10
1273.31010031
 20
-233.0
 30
0.0
 11
1273.31010031
 21
-213.0
 31
0.0
  0
CIRCLE
  5
71B
100
AcDbEntity
  8
0
  6
SOLID
 62
        2
100
AcDbCircle
 10
1205.310058594
 20
-224.0
 30
0.0
 40
6.25
  0
LINE
  5
71C
100
AcDbEntity
  8
0
  6
DASH
 62
        1
100
AcDbLine
 10
1043.310096741
 20
-233.0
 30
0.0
 11
1043.310096741
 21
-213.0
 31
0.0
  0
LINE
  5
71D
100
AcDbEntity
  8
0
  6
SOLID
 62
        2
100
AcDbLine
 10
1114.459950032
 20
70.063157764
 30
0.0
 11
1114.459950238
 21
66.599056149
 31
0.0
  0
CIRCLE
  5
71E
100
AcDbEntity
  8
0
  6
SOLID
 62
        6
100
AcDbCircle
 10
1267.459960938
 20
48.331108093
 30
0.0
 40
3.0
  0
LINE
  5
71F
100
AcDbEntity
  8
0
  6
DASH
 62
        1
100
AcDbLine
 10
1043.31010031
 20
-213.0
 30
0.0
 11
1027.31010031
 21
-213.0
 31
0.0
  0
LINE
  5
720
100
AcDbEntity
  8
0
  6
SOLID
 62
        2
100
AcDbLine
 10
1253.310058799
 20
-201.464101615
 30
0.0
 11
1256.310058697
 21
-199.732050629
 31
0.0
  0
INSERT
  5
742
100
AcDbEntity
  8
0
100
AcDbBlockReference
  2
*H303
 10
0.0
 20
0.0
 30
0.0
  0
INSERT
  5
764
100
AcDbEntity
  8
0
100
AcDbBlockReference
  2
*H304
 10
0.0
 20
0.0
 30
0.0
  0
LINE
  5
765
100
AcDbEntity
  8
0
  6
CENTER
 62
        2
100
AcDbLine
 10
1253.310058594
 20
-144.025741577
 30
0.0
 11
1253.310058594
 21
-121.897789001
 31
0.0
  0
LINE
  5
766
100
AcDbEntity
  8
0
  6
SOLID
 62
        2
100
AcDbLine
 10
1256.310058697
 20
-199.732050629
 30
0.0
 11
1256.310058491
 21
-196.267949014
 31
0.0
  0
LINE
  5
767
100
AcDbEntity
  8
0
  6
CENTER
 62
        2
100
AcDbLine
 10
1074.725027596
 20
-224.0
 30
0.0
 11
1055.408489227
 21
-224.0
 31
0.0
  0
LINE
  5
768
100
AcDbEntity
  8
0
  6
CENTER
 62
        2
100
AcDbLine
 10
1284.155883789
 20
-70.0
 30
0.0
 11
1259.857666016
 21
-70.0
 31
0.0
  0
LINE
  5
769
100
AcDbEntity
  8
0
  6
CENTER
 62
        2
100
AcDbLine
 10
1027.810058594
 20
-178.117645264
 30
0.0
 11
1027.810058594
 21
-157.517593384
 31
0.0
  0
INSERT
  5
76D
100
AcDbEntity
  8
0
100
AcDbBlockReference
  2
*H305
 10
0.0
 20
0.0
 30
0.0
  0
LINE
  5
76E
100
AcDbEntity
  8
0
  6
SOLID
 62
        7
100
AcDbLine
 10
1130.310058594
 20
148.0
 30
0.0
 11
1130.310058594
 21
150.0
 31
0.0
  0
LINE
  5
76F
100
AcDbEntity
  8
0
  6
SOLID
 62
        2
100
AcDbLine
 10
1250.310058697
 20
-199.732050986
 30
0.0
 11
1253.310058799
 21
-201.464101615
 31
0.0
  0
LINE
  5
770
100
AcDbEntity
  8
0
  6
SOLID
 62
        2
100
AcDbLine
 10
1250.310058491
 20
-196.267949371
 30
0.0
 11
1250.310058697
 21
-199.732050986
 31
0.0
  0
LINE
  5
771
100
AcDbEntity
  8
0
  6
SOLID
 62
        2
100
AcDbLine
 10
1253.310058388
 20
-194.535898385
 30
0.0
 11
1250.310058491
 21
-196.267949371
 31
0.0
  0
LINE
  5
772
100
AcDbEntity
  8
0
  6
SOLID
 62
        2
100
AcDbLine
 10
1256.310058491
 20
-196.267949014
 30
0.0
 11
1253.310058388
 21
-194.535898385
 31
0.0
  0
CIRCLE
  5
773
100
AcDbEntity
  8
0
  6
SOLID
 62
        2
100
AcDbCircle
 10
1253.310058594
 20
-198.0
 30
0.0
 40
6.25
  0
LINE
  5
774
100
AcDbEntity
  8
0
  6
SOLID
 62
        2
100
AcDbLine
 10
1253.310058799
 20
-136.464098473
 30
0.0
 11
1256.310058697
 21
-134.732047487
 31
0.0
  0
LINE
  5
775
100
AcDbEntity
  8
0
  6
SOLID
 62
        2
100
AcDbLine
 10
1256.310058697
 20
-134.732047487
 30
0.0
 11
1256.310058491
 21
-131.267945872
 31
0.0
  0
LINE
  5
776
100
AcDbEntity
  8
0
  6
SOLID
 62
        2
100
AcDbLine
 10
1250.310058697
 20
-134.732047844
 30
0.0
 11
1253.310058799
 21
-136.464098473
 31
0.0
  0
LINE
  5
777
100
AcDbEntity
  8
0
  6
SOLID
 62
        2
100
AcDbLine
 10
1250.310058491
 20
-131.267946229
 30
0.0
 11
1250.310058697
 21
-134.732047844
 31
0.0
  0
LINE
  5
778
100
AcDbEntity
  8
0
  6
SOLID
 62
        2
100
AcDbLine
 10
1253.310058388
 20
-129.535895243
 30
0.0
 11
1250.310058491
 21
-131.267946229
 31
0.0
  0
LINE
  5
779
100
AcDbEntity
  8
0
  6
SOLID
 62
        2
100
AcDbLine
 10
1256.310058491
 20
-131.267945872
 30
0.0
 11
1253.310058388
 21
-129.535895243
 31
0.0
  0
CIRCLE
  5
77A
100
AcDbEntity
  8
0
  6
SOLID
 62
        2
100
AcDbCircle
 10
1253.310058594
 20
-132.999996858
 30
0.0
 40
6.25
  0
LINE
  5
77B
100
AcDbEntity
  8
0
  6
SOLID
 62
        2
100
AcDbLine
 10
1272.810058799
 20
-73.464101615
 30
0.0
 11
1275.810058697
 21
-71.732050629
 31
0.0
  0
LINE
  5
77C
100
AcDbEntity
  8
0
  6
SOLID
 62
        2
100
AcDbLine
 10
1275.810058697
 20
-71.732050629
 30
0.0
 11
1275.810058491
 21
-68.267949014
 31
0.0
  0
LINE
  5
77D
100
AcDbEntity
  8
0
  6
SOLID
 62
        2
100
AcDbLine
 10
1269.810058697
 20
-71.732050986
 30
0.0
 11
1272.810058799
 21
-73.464101615
 31
0.0
  0
LINE
  5
77E
100
AcDbEntity
  8
0
  6
SOLID
 62
        2
100
AcDbLine
 10
1269.810058491
 20
-68.267949371
 30
0.0
 11
1269.810058697
 21
-71.732050986
 31
0.0
  0
LINE
  5
77F
100
AcDbEntity
  8
0
  6
SOLID
 62
        2
100
AcDbLine
 10
1272.810058388
 20
-66.535898385
 30
0.0
 11
1269.810058491
 21
-68.267949371
 31
0.0
  0
LINE
  5
780
100
AcDbEntity
  8
0
  6
SOLID
 62
        2
100
AcDbLine
 10
1275.810058491
 20
-68.267949014
 30
0.0
 11
1272.810058388
 21
-66.535898385
 31
0.0
  0
CIRCLE
  5
781
100
AcDbEntity
  8
0
  6
SOLID
 62
        2
100
AcDbCircle
 10
1272.810058594
 20
-70.0
 30
0.0
 40
6.25
  0
CIRCLE
  5
782
100
AcDbEntity
  8
0
  6
SOLID
 62
        6
100
AcDbCircle
 10
1095.86640778
 20
97.556349186
 30
0.0
 40
4.75
  0
LINE
  5
783
100
AcDbEntity
  8
0
  6
SOLID
 62
        7
100
AcDbLine
 10
1170.310058594
 20
148.0
 30
0.0
 11
1170.310058594
 21
150.0
 31
0.0
  0
LINE
  5
784
100
AcDbEntity
  8
0
  6
CENTER
 62
        2
100
AcDbLine
 10
1241.301696777
 20
-132.999996858
 30
0.0
 11
1264.657226563
 21
-132.999996858
 31
0.0
  0
ARC
  5
785
100
AcDbEntity
  8
0
  6
SOLID
 62
        1
100
AcDbCircle
 10
1080.310058594
 20
82.0
 30
0.0
 40
8.5
100
AcDbArc
 50
0.0
 51
270.0
  0
LINE
  5
786
100
AcDbEntity
  8
0
  6
SOLID
 62
        2
100
AcDbLine
 10
1094.233414618
 20
95.923356024
 30
0.0
 11
1096.464124761
 21
95.325639043
 31
0.0
  0
LINE
  5
787
100
AcDbEntity
  8
0
  6
SOLID
 62
        2
100
AcDbLine
 10
1096.464124761
 20
95.325639043
 30
0.0
 11
1098.097117923
 21
96.958632205
 31
0.0
  0
LINE
  5
788
100
AcDbEntity
  8
0
  6
SOLID
 62
        2
100
AcDbLine
 10
1098.097117923
 20
96.958632205
 30
0.0
 11
1097.499400942
 21
99.189342348
 31
0.0
  0
LINE
  5
789
100
AcDbEntity
  8
0
  6
SOLID
 62
        2
100
AcDbLine
 10
1097.499400942
 20
99.189342348
 30
0.0
 11
1095.268690798
 21
99.787059329
 31
0.0
  0
CIRCLE
  5
78A
100
AcDbEntity
  8
0
  6
SOLID
 62
        2
100
AcDbCircle
 10
1095.86640778
 20
97.556349186
 30
0.0
 40
4.25
  0
LINE
  5
78B
100
AcDbEntity
  8
0
  6
SOLID
 62
        2
100
AcDbLine
 10
1095.310058594
 20
87.773502692
 30
0.0
 11
1095.310058594
 21
76.226497308
 31
0.0
  0
LINE
  5
78C
100
AcDbEntity
  8
0
  6
SOLID
 62
        2
100
AcDbLine
 10
1082.810058594
 20
97.877132403
 30
0.0
 11
1092.810058594
 21
92.103629711
 31
0.0
  0
LINE
  5
78D
100
AcDbEntity
  8
0
  6
SOLID
 62
        2
100
AcDbLine
 10
1067.810058594
 20
92.103629711
 30
0.0
 11
1077.810058594
 21
97.877132403
 31
0.0
  0
LINE
  5
78E
100
AcDbEntity
  8
0
  6
SOLID
 62
        2
100
AcDbLine
 10
1065.310058594
 20
76.226497308
 30
0.0
 11
1065.310058594
 21
87.773502692
 31
0.0
  0
LINE
  5
78F
100
AcDbEntity
  8
0
  6
SOLID
 62
        2
100
AcDbLine
 10
1077.810058594
 20
66.122867597
 30
0.0
 11
1067.810058594
 21
71.896370289
 31
0.0
  0
LINE
  5
790
100
AcDbEntity
  8
0
  6
SOLID
 62
        2
100
AcDbLine
 10
1092.810058594
 20
71.896370289
 30
0.0
 11
1082.810058594
 21
66.122867597
 31
0.0
  0
ARC
  5
791
100
AcDbEntity
  8
0
  6
SOLID
 62
        2
100
AcDbCircle
 10
1080.310058594
 20
93.547005384
 30
0.0
 40
5.0
100
AcDbArc
 50
60.0
 51
120.0
  0
ARC
  5
792
100
AcDbEntity
  8
0
  6
SOLID
 62
        2
100
AcDbCircle
 10
1090.310058594
 20
87.773502692
 30
0.0
 40
5.0
100
AcDbArc
 50
0.0
 51
60.0
  0
INSERT
  5
7B4
100
AcDbEntity
  8
0
100
AcDbBlockReference
  2
*H306
 10
0.0
 20
0.0
 30
0.0
  0
LINE
  5
7B5
100
AcDbEntity
  8
0
  6
CENTER
 62
        2
100
AcDbLine
 10
1038.909667969
 20
-70.0
 30
0.0
 11
1017.317168951
 21
-70.0
 31
0.0
  0
ARC
  5
7B6
100
AcDbEntity
  8
0
  6
SOLID
 62
        2
100
AcDbCircle
 10
1090.310058594
 20
76.226497308
 30
0.0
 40
5.0
100
AcDbArc
 50
300.0
 51
0.0
  0
ARC
  5
7B7
100
AcDbEntity
  8
0
  6
SOLID
 62
        2
100
AcDbCircle
 10
1080.310058594
 20
70.452994616
 30
0.0
 40
5.0
100
AcDbArc
 50
240.0
 51
300.0
  0
ARC
  5
7B8
100
AcDbEntity
  8
0
  6
SOLID
 62
        2
100
AcDbCircle
 10
1070.310058594
 20
76.226497308
 30
0.0
 40
5.0
100
AcDbArc
 50
180.0
 51
240.0
  0
ARC
  5
7B9
100
AcDbEntity
  8
0
  6
SOLID
 62
        2
100
AcDbCircle
 10
1070.310058594
 20
87.773502692
 30
0.0
 40
5.0
100
AcDbArc
 50
120.0
 51
180.0
  0
CIRCLE
  5
7BA
100
AcDbEntity
  8
0
  6
SOLID
 62
        6
100
AcDbCircle
 10
1080.310058594
 20
104.0
 30
0.0
 40
4.75
  0
CIRCLE
  5
7BB
100
AcDbEntity
  8
0
  6
SOLID
 62
        2
100
AcDbCircle
 10
1080.310058594
 20
104.0
 30
0.0
 40
4.25
  0
LINE
  5
7BC
100
AcDbEntity
  8
0
  6
SOLID
 62
        2
100
AcDbLine
 10
1078.310058594
 20
102.845299462
 30
0.0
 11
1080.310058594
 21
101.690598923
 31
0.0
  0
LINE
  5
7BD
100
AcDbEntity
  8
0
  6
SOLID
 62
        2
100
AcDbLine
 10
1080.310058594
 20
101.690598923
 30
0.0
 11
1082.310058594
 21
102.845299462
 31
0.0
  0
LINE
  5
7BE
100
AcDbEntity
  8
0
  6
SOLID
 62
        2
100
AcDbLine
 10
1082.310058594
 20
102.845299462
 30
0.0
 11
1082.310058594
 21
105.154700538
 31
0.0
  0
LINE
  5
7BF
100
AcDbEntity
  8
0
  6
SOLID
 62
        2
100
AcDbLine
 10
1082.310058594
 20
105.154700538
 30
0.0
 11
1080.310058594
 21
106.309401077
 31
0.0
  0
LINE
  5
7C0
100
AcDbEntity
  8
0
  6
SOLID
 62
        2
100
AcDbLine
 10
1080.310058594
 20
106.309401077
 30
0.0
 11
1078.310058594
 21
105.154700538
 31
0.0
  0
LINE
  5
7C1
100
AcDbEntity
  8
0
  6
SOLID
 62
        2
100
AcDbLine
 10
1078.310058594
 20
105.154700538
 30
0.0
 11
1078.310058594
 21
102.845299462
 31
0.0
  0
CIRCLE
  5
7C2
100
AcDbEntity
  8
0
  6
SOLID
 62
        6
100
AcDbCircle
 10
1064.753709408
 20
97.556349186
 30
0.0
 40
4.75
  0
CIRCLE
  5
7C3
100
AcDbEntity
  8
0
  6
SOLID
 62
        2
100
AcDbCircle
 10
1064.753709408
 20
97.556349186
 30
0.0
 40
4.25
  0
LINE
  5
7C4
100
AcDbEntity
  8
0
  6
CENTER
 62
        2
100
AcDbLine
 10
1061.246833801
 20
101.063224792
 30
0.0
 11
1068.425769806
 21
93.884288788
 31
0.0
  0
LINE
  5
7C5
100
AcDbEntity
  8
0
  6
SOLID
 62
        2
100
AcDbLine
 10
1064.155992426
 20
95.325639043
 30
0.0
 11
1066.38670257
 21
95.923356024
 31
0.0
  0
LINE
  5
7C6
100
AcDbEntity
  8
0
  6
SOLID
 62
        2
100
AcDbLine
 10
1066.38670257
 20
95.923356024
 30
0.0
 11
1066.984419551
 21
98.154066168
 31
0.0
  0
LINE
  5
7C7
100
AcDbEntity
  8
0
  6
SOLID
 62
        2
100
AcDbLine
 10
1066.984419551
 20
98.154066168
 30
0.0
 11
1065.351426389
 21
99.787059329
 31
0.0
  0
LINE
  5
7C8
100
AcDbEntity
  8
0
  6
SOLID
 62
        2
100
AcDbLine
 10
1065.351426389
 20
99.787059329
 30
0.0
 11
1063.120716246
 21
99.189342348
 31
0.0
  0
LINE
  5
7C9
100
AcDbEntity
  8
0
  6
SOLID
 62
        2
100
AcDbLine
 10
1063.120716246
 20
99.189342348
 30
0.0
 11
1062.522999264
 21
96.958632205
 31
0.0
  0
LINE
  5
7CA
100
AcDbEntity
  8
0
  6
SOLID
 62
        2
100
AcDbLine
 10
1062.522999264
 20
96.958632205
 30
0.0
 11
1064.155992426
 21
95.325639043
 31
0.0
  0
CIRCLE
  5
7CB
100
AcDbEntity
  8
0
  6
SOLID
 62
        6
100
AcDbCircle
 10
1058.310058594
 20
82.0
 30
0.0
 40
4.75
  0
CIRCLE
  5
7CC
100
AcDbEntity
  8
0
  6
SOLID
 62
        2
100
AcDbCircle
 10
1058.310058594
 20
82.0
 30
0.0
 40
4.25
  0
LINE
  5
7CD
100
AcDbEntity
  8
0
  6
SOLID
 62
        2
100
AcDbLine
 10
1059.464759132
 20
80.0
 30
0.0
 11
1060.619459671
 21
82.0
 31
0.0
  0
LINE
  5
7CE
100
AcDbEntity
  8
0
  6
SOLID
 62
        2
100
AcDbLine
 10
1060.619459671
 20
82.0
 30
0.0
 11
1059.464759132
 21
84.0
 31
0.0
  0
LINE
  5
7CF
100
AcDbEntity
  8
0
  6
SOLID
 62
        2
100
AcDbLine
 10
1059.464759132
 20
84.0
 30
0.0
 11
1057.155358055
 21
84.0
 31
0.0
  0
LINE
  5
7D0
100
AcDbEntity
  8
0
  6
SOLID
 62
        2
100
AcDbLine
 10
1057.155358055
 20
84.0
 30
0.0
 11
1056.000657517
 21
82.0
 31
0.0
  0
LINE
  5
7D1
100
AcDbEntity
  8
0
  6
SOLID
 62
        2
100
AcDbLine
 10
1056.000657517
 20
82.0
 30
0.0
 11
1057.155358055
 21
80.0
 31
0.0
  0
LINE
  5
7D2
100
AcDbEntity
  8
0
  6
SOLID
 62
        2
100
AcDbLine
 10
1057.155358055
 20
80.0
 30
0.0
 11
1059.464759132
 21
80.0
 31
0.0
  0
CIRCLE
  5
7D3
100
AcDbEntity
  8
0
  6
SOLID
 62
        6
100
AcDbCircle
 10
1064.753709408
 20
66.443650814
 30
0.0
 40
4.75
  0
CIRCLE
  5
7D4
100
AcDbEntity
  8
0
  6
SOLID
 62
        2
100
AcDbCircle
 10
1064.753709408
 20
66.443650814
 30
0.0
 40
4.25
  0
LINE
  5
7D5
100
AcDbEntity
  8
0
  6
CENTER
 62
        2
100
AcDbLine
 10
1061.246833801
 20
62.936775208
 30
0.0
 11
1068.425769806
 21
70.115711212
 31
0.0
  0
LINE
  5
7D6
100
AcDbEntity
  8
0
  6
SOLID
 62
        2
100
AcDbLine
 10
1066.984419551
 20
65.845933832
 30
0.0
 11
1066.38670257
 21
68.076643976
 31
0.0
  0
LINE
  5
7D7
100
AcDbEntity
  8
0
  6
SOLID
 62
        2
100
AcDbLine
 10
1066.38670257
 20
68.076643976
 30
0.0
 11
1064.155992426
 21
68.674360957
 31
0.0
  0
LINE
  5
7D8
100
AcDbEntity
  8
0
  6
SOLID
 62
        2
100
AcDbLine
 10
1064.155992426
 20
68.674360957
 30
0.0
 11
1062.522999264
 21
67.041367795
 31
0.0
  0
LINE
  5
7D9
100
AcDbEntity
  8
0
  6
SOLID
 62
        2
100
AcDbLine
 10
1062.522999264
 20
67.041367795
 30
0.0
 11
1063.120716246
 21
64.810657652
 31
0.0
  0
LINE
  5
7DA
100
AcDbEntity
  8
0
  6
SOLID
 62
        2
100
AcDbLine
 10
1063.120716246
 20
64.810657652
 30
0.0
 11
1065.351426389
 21
64.212940671
 31
0.0
  0
LINE
  5
7DB
100
AcDbEntity
  8
0
  6
SOLID
 62
        2
100
AcDbLine
 10
1065.351426389
 20
64.212940671
 30
0.0
 11
1066.984419551
 21
65.845933832
 31
0.0
  0
CIRCLE
  5
7DC
100
AcDbEntity
  8
0
  6
SOLID
 62
        6
100
AcDbCircle
 10
1080.310058594
 20
60.0
 30
0.0
 40
4.75
  0
CIRCLE
  5
7DD
100
AcDbEntity
  8
0
  6
SOLID
 62
        2
100
AcDbCircle
 10
1080.310058594
 20
60.0
 30
0.0
 40
4.25
  0
LINE
  5
7DE
100
AcDbEntity
  8
0
  6
SOLID
 62
        2
100
AcDbLine
 10
1082.310058594
 20
61.154700538
 30
0.0
 11
1080.310058594
 21
62.309401077
 31
0.0
  0
LINE
  5
7DF
100
AcDbEntity
  8
0
  6
SOLID
 62
        2
100
AcDbLine
 10
1080.310058594
 20
62.309401077
 30
0.0
 11
1078.310058594
 21
61.154700538
 31
0.0
  0
LINE
  5
7E0
100
AcDbEntity
  8
0
  6
SOLID
 62
        2
100
AcDbLine
 10
1078.310058594
 20
61.154700538
 30
0.0
 11
1078.310058594
 21
58.845299462
 31
0.0
  0
LINE
  5
7E1
100
AcDbEntity
  8
0
  6
SOLID
 62
        2
100
AcDbLine
 10
1078.310058594
 20
58.845299462
 30
0.0
 11
1080.310058594
 21
57.690598923
 31
0.0
  0
LINE
  5
7E2
100
AcDbEntity
  8
0
  6
SOLID
 62
        2
100
AcDbLine
 10
1080.310058594
 20
57.690598923
 30
0.0
 11
1082.310058594
 21
58.845299462
 31
0.0
  0
LINE
  5
7E3
100
AcDbEntity
  8
0
  6
SOLID
 62
        2
100
AcDbLine
 10
1082.310058594
 20
58.845299462
 30
0.0
 11
1082.310058594
 21
61.154700538
 31
0.0
  0
CIRCLE
  5
7E4
100
AcDbEntity
  8
0
  6
SOLID
 62
        6
100
AcDbCircle
 10
1095.86640778
 20
66.443650814
 30
0.0
 40
4.75
  0
CIRCLE
  5
7E5
100
AcDbEntity
  8
0
  6
SOLID
 62
        2
100
AcDbCircle
 10
1095.86640778
 20
66.443650814
 30
0.0
 40
4.25
  0
LINE
  5
7E6
100
AcDbEntity
  8
0
  6
CENTER
 62
        2
100
AcDbLine
 10
1099.373283386
 20
62.936775208
 30
0.0
 11
1092.194347382
 21
70.115711212
 31
0.0
  0
LINE
  5
7E7
100
AcDbEntity
  8
0
  6
SOLID
 62
        2
100
AcDbLine
 10
1096.464124761
 20
68.674360957
 30
0.0
 11
1094.233414618
 21
68.076643976
 31
0.0
  0
LINE
  5
7E8
100
AcDbEntity
  8
0
  6
SOLID
 62
        2
100
AcDbLine
 10
1094.233414618
 20
68.076643976
 30
0.0
 11
1093.635697637
 21
65.845933832
 31
0.0
  0
LINE
  5
7E9
100
AcDbEntity
  8
0
  6
SOLID
 62
        2
100
AcDbLine
 10
1093.635697637
 20
65.845933832
 30
0.0
 11
1095.268690798
 21
64.212940671
 31
0.0
  0
LINE
  5
7EA
100
AcDbEntity
  8
0
  6
SOLID
 62
        2
100
AcDbLine
 10
1095.268690798
 20
64.212940671
 30
0.0
 11
1097.499400942
 21
64.810657652
 31
0.0
  0
LINE
  5
7EB
100
AcDbEntity
  8
0
  6
SOLID
 62
        2
100
AcDbLine
 10
1097.499400942
 20
64.810657652
 30
0.0
 11
1098.097117923
 21
67.041367795
 31
0.0
  0
LINE
  5
7EC
100
AcDbEntity
  8
0
  6
SOLID
 62
        2
100
AcDbLine
 10
1098.097117923
 20
67.041367795
 30
0.0
 11
1096.464124761
 21
68.674360957
 31
0.0
  0
CIRCLE
  5
7ED
100
AcDbEntity
  8
0
  6
SOLID
 62
        6
100
AcDbCircle
 10
1102.310058594
 20
82.0
 30
0.0
 40
4.75
  0
CIRCLE
  5
7EE
100
AcDbEntity
  8
0
  6
SOLID
 62
        2
100
AcDbCircle
 10
1102.310058594
 20
82.0
 30
0.0
 40
4.25
  0
LINE
  5
7EF
100
AcDbEntity
  8
0
  6
SOLID
 62
        2
100
AcDbLine
 10
1101.155358055
 20
84.0
 30
0.0
 11
1100.000657517
 21
82.0
 31
0.0
  0
LINE
  5
7F0
100
AcDbEntity
  8
0
  6
SOLID
 62
        2
100
AcDbLine
 10
1100.000657517
 20
82.0
 30
0.0
 11
1101.155358055
 21
80.0
 31
0.0
  0
LINE
  5
7F1
100
AcDbEntity
  8
0
  6
SOLID
 62
        2
100
AcDbLine
 10
1101.155358055
 20
80.0
 30
0.0
 11
1103.464759132
 21
80.0
 31
0.0
  0
LINE
  5
7F2
100
AcDbEntity
  8
0
  6
SOLID
 62
        2
100
AcDbLine
 10
1103.464759132
 20
80.0
 30
0.0
 11
1104.619459671
 21
82.0
 31
0.0
  0
LINE
  5
7F3
100
AcDbEntity
  8
0
  6
SOLID
 62
        2
100
AcDbLine
 10
1104.619459671
 20
82.0
 30
0.0
 11
1103.464759132
 21
84.0
 31
0.0
  0
LINE
  5
7F4
100
AcDbEntity
  8
0
  6
SOLID
 62
        2
100
AcDbLine
 10
1103.464759132
 20
84.0
 30
0.0
 11
1101.155358055
 21
84.0
 31
0.0
  0
CIRCLE
  5
7F5
100
AcDbEntity
  8
0
  6
SOLID
 62
        6
100
AcDbCircle
 10
1253.310058594
 20
-132.999996858
 30
0.0
 40
6.75
  0
INSERT
  5
817
100
AcDbEntity
  8
0
100
AcDbBlockReference
  2
*H307
 10
0.0
 20
0.0
 30
0.0
  0
INSERT
  5
81B
100
AcDbEntity
  8
0
100
AcDbBlockReference
  2
*H308
 10
0.0
 20
0.0
 30
0.0
  0
LINE
  5
81C
100
AcDbEntity
  8
0
  6
CENTER
 62
        2
100
AcDbLine
 10
1150.310058594
 20
202.479845111
 30
0.0
 11
1150.310058594
 21
-243.709353845
 31
0.0
  0
LINE
  5
81D
100
AcDbEntity
  8
0
  6
CENTER
 62
        2
100
AcDbLine
 10
1035.310016877
 20
-242.928985596
 30
0.0
 11
1035.310016877
 21
-198.043121338
 31
0.0
  0
INSERT
  5
821
100
AcDbEntity
  8
0
100
AcDbBlockReference
  2
*H309
 10
0.0
 20
0.0
 30
0.0
  0
INSERT
  5
825
100
AcDbEntity
  8
0
100
AcDbBlockReference
  2
*H310
 10
0.0
 20
0.0
 30
0.0
  0
INSERT
  5
829
100
AcDbEntity
  8
0
100
AcDbBlockReference
  2
*H311
 10
0.0
 20
0.0
 30
0.0
  0
INSERT
  5
82D
100
AcDbEntity
  8
0
100
AcDbBlockReference
  2
*H312
 10
0.0
 20
0.0
 30
0.0
  0
INSERT
  5
831
100
AcDbEntity
  8
0
100
AcDbBlockReference
  2
*H313
 10
0.0
 20
0.0
 30
0.0
  0
INSERT
  5
835
100
AcDbEntity
  8
0
100
AcDbBlockReference
  2
*H314
 10
0.0
 20
0.0
 30
0.0
  0
LINE
  5
836
100
AcDbEntity
  8
0
  6
CENTER
 62
        2
100
AcDbLine
 10
1050.994506836
 20
82.0
 30
0.0
 11
1108.008178711
 21
82.0
 31
0.0
  0
CIRCLE
  5
837
100
AcDbEntity
  8
0
  6
SOLID
 62
        6
100
AcDbCircle
 10
1272.810058594
 20
-70.0
 30
0.0
 40
6.75
  0
CIRCLE
  5
838
100
AcDbEntity
  8
0
  6
SOLID
 62
        6
100
AcDbCircle
 10
1081.060049084
 20
119.944512934
 30
0.0
 40
6.75
  0
CIRCLE
  5
839
100
AcDbEntity
  8
0
  6
SOLID
 62
        6
100
AcDbCircle
 10
1030.365534679
 20
69.24999049
 30
0.0
 40
6.75
  0
CIRCLE
  5
83A
100
AcDbEntity
  8
0
  6
SOLID
 62
        6
100
AcDbCircle
 10
1027.810058594
 20
-70.0
 30
0.0
 40
6.75
  0
INSERT
  5
83E
100
AcDbEntity
  8
0
100
AcDbBlockReference
  2
*H315
 10
0.0
 20
0.0
 30
0.0
  0
INSERT
  5
842
100
AcDbEntity
  8
0
100
AcDbBlockReference
  2
*H316
 10
0.0
 20
0.0
 30
0.0
  0
INSERT
  5
846
100
AcDbEntity
  8
0
100
AcDbBlockReference
  2
*H317
 10
0.0
 20
0.0
 30
0.0
  0
INSERT
  5
84A
100
AcDbEntity
  8
0
100
AcDbBlockReference
  2
*H318
 10
0.0
 20
0.0
 30
0.0
  0
INSERT
  5
84E
100
AcDbEntity
  8
0
100
AcDbBlockReference
  2
*H319
 10
0.0
 20
0.0
 30
0.0
  0
INSERT
  5
852
100
AcDbEntity
  8
0
100
AcDbBlockReference
  2
*H320
 10
0.0
 20
0.0
 30
0.0
  0
INSERT
  5
856
100
AcDbEntity
  8
0
100
AcDbBlockReference
  2
*H321
 10
0.0
 20
0.0
 30
0.0
  0
INSERT
  5
85A
100
AcDbEntity
  8
0
100
AcDbBlockReference
  2
*H322
 10
0.0
 20
0.0
 30
0.0
  0
INSERT
  5
85E
100
AcDbEntity
  8
0
100
AcDbBlockReference
  2
*H323
 10
0.0
 20
0.0
 30
0.0
  0
INSERT
  5
862
100
AcDbEntity
  8
0
100
AcDbBlockReference
  2
*H324
 10
0.0
 20
0.0
 30
0.0
  0
INSERT
  5
866
100
AcDbEntity
  8
0
100
AcDbBlockReference
  2
*H325
 10
0.0
 20
0.0
 30
0.0
  0
INSERT
  5
86A
100
AcDbEntity
  8
0
100
AcDbBlockReference
  2
*H326
 10
0.0
 20
0.0
 30
0.0
  0
INSERT
  5
86E
100
AcDbEntity
  8
0
100
AcDbBlockReference
  2
*H327
 10
0.0
 20
0.0
 30
0.0
  0
INSERT
  5
872
100
AcDbEntity
  8
0
100
AcDbBlockReference
  2
*H328
 10
0.0
 20
0.0
 30
0.0
  0
INSERT
  5
876
100
AcDbEntity
  8
0
100
AcDbBlockReference
  2
*H329
 10
0.0
 20
0.0
 30
0.0
  0
INSERT
  5
87A
100
AcDbEntity
  8
0
100
AcDbBlockReference
  2
*H330
 10
0.0
 20
0.0
 30
0.0
  0
INSERT
  5
87E
100
AcDbEntity
  8
0
100
AcDbBlockReference
  2
*H331
 10
0.0
 20
0.0
 30
0.0
  0
INSERT
  5
882
100
AcDbEntity
  8
0
100
AcDbBlockReference
  2
*H332
 10
0.0
 20
0.0
 30
0.0
  0
INSERT
  5
886
100
AcDbEntity
  8
0
100
AcDbBlockReference
  2
*H333
 10
0.0
 20
0.0
 30
0.0
  0
INSERT
  5
88A
100
AcDbEntity
  8
0
100
AcDbBlockReference
  2
*H334
 10
0.0
 20
0.0
 30
0.0
  0
INSERT
  5
88E
100
AcDbEntity
  8
0
100
AcDbBlockReference
  2
*H335
 10
0.0
 20
0.0
 30
0.0
  0
INSERT
  5
892
100
AcDbEntity
  8
0
100
AcDbBlockReference
  2
*H336
 10
0.0
 20
0.0
 30
0.0
  0
INSERT
  5
896
100
AcDbEntity
  8
0
100
AcDbBlockReference
  2
*H337
 10
0.0
 20
0.0
 30
0.0
  0
INSERT
  5
89A
100
AcDbEntity
  8
0
100
AcDbBlockReference
  2
*H338
 10
0.0
 20
0.0
 30
0.0
  0
INSERT
  5
89E
100
AcDbEntity
  8
0
100
AcDbBlockReference
  2
*H339
 10
0.0
 20
0.0
 30
0.0
  0
LINE
  5
89F
100
AcDbEntity
  8
0
  6
SOLID
 62
        2
100
AcDbLine
 10
1136.410058975
 20
154.0
 30
0.0
 11
1164.210058212
 21
154.0
 31
0.0
  0
LINE
  5
8A0
100
AcDbEntity
  8
0
  6
SOLID
 62
        2
100
AcDbLine
 10
1140.510059154
 20
161.0
 30
0.0
 11
1150.310058594
 21
161.0
 31
0.0
  0
LINE
  5
8A1
100
AcDbEntity
  8
0
  6
SOLID
 62
        2
100
AcDbLine
 10
1143.510059066
 20
160.066833496
 30
0.0
 11
1144.010059074
 21
160.066833496
 31
0.0
  0
LINE
  5
8A2
100
AcDbEntity
  8
0
  6
SOLID
 62
        2
100
AcDbLine
 10
1137.410058975
 20
160.066833496
 30
0.0
 11
1137.410058975
 21
154.5
 31
0.0
  0
LINE
  5
8A3
100
AcDbEntity
  8
0
  6
SOLID
 62
        2
100
AcDbLine
 10
1136.410058975
 20
154.0
 30
0.0
 11
1136.410058975
 21
153.0
 31
0.0
  0
LINE
  5
8A4
100
AcDbEntity
  8
0
  6
SOLID
 62
        2
100
AcDbLine
 10
1143.510059066
 20
160.066833496
 30
0.0
 11
1143.510059066
 21
154.5
 31
0.0
  0
LINE
  5
8A5
100
AcDbEntity
  8
0
  6
SOLID
 62
        2
100
AcDbLine
 10
1144.010059074
 20
160.066833496
 30
0.0
 11
1144.010059074
 21
154.5
 31
0.0
  0
LINE
  5
8A6
100
AcDbEntity
  8
0
  6
SOLID
 62
        2
100
AcDbLine
 10
1163.210058212
 20
154.5
 30
0.0
 11
1137.410058975
 21
154.5
 31
0.0
  0
LINE
  5
8A7
100
AcDbEntity
  8
0
  6
SOLID
 62
        2
100
AcDbLine
 10
1137.410058975
 20
154.5
 30
0.0
 11
1136.410058975
 21
154.0
 31
0.0
  0
LINE
  5
8A8
100
AcDbEntity
  8
0
  6
SOLID
 62
        2
100
AcDbLine
 10
1163.210058212
 20
155.331108093
 30
0.0
 11
1163.210058212
 21
154.5
 31
0.0
  0
LINE
  5
8A9
100
AcDbEntity
  8
0
  6
SOLID
 62
        2
100
AcDbLine
 10
1157.110058121
 20
160.066833496
 30
0.0
 11
1156.610058114
 21
160.066833496
 31
0.0
  0
LINE
  5
8AA
100
AcDbEntity
  8
0
  6
SOLID
 62
        2
100
AcDbLine
 10
1160.110058034
 20
161.0
 30
0.0
 11
1150.310058594
 21
161.0
 31
0.0
  0
LINE
  5
8AB
100
AcDbEntity
  8
0
  6
SOLID
 62
        2
100
AcDbLine
 10
1156.610058114
 20
160.066833496
 30
0.0
 11
1156.610058114
 21
154.5
 31
0.0
  0
LINE
  5
8AC
100
AcDbEntity
  8
0
  6
CENTER
 62
        2
100
AcDbLine
 10
1232.459960938
 20
172.462073981
 30
0.0
 11
1232.459960938
 21
3.772590617
 31
0.0
  0
LINE
  5
8AD
100
AcDbEntity
  8
0
  6
SOLID
 62
        2
100
AcDbLine
 10
1157.110058121
 20
160.066833496
 30
0.0
 11
1157.110058121
 21
154.5
 31
0.0
  0
LINE
  5
8AE
100
AcDbEntity
  8
0
  6
SOLID
 62
        2
100
AcDbLine
 10
1164.210058212
 20
154.0
 30
0.0
 11
1164.210058212
 21
153.0
 31
0.0
  0
LINE
  5
8AF
100
AcDbEntity
  8
0
  6
SOLID
 62
        2
100
AcDbLine
 10
1164.210058212
 20
154.0
 30
0.0
 11
1163.210058212
 21
154.5
 31
0.0
  0
CIRCLE
  5
8B0
100
AcDbEntity
  8
0
  6
SOLID
 62
        6
100
AcDbCircle
 10
1182.459960938
 20
88.331108093
 30
0.0
 40
38.0
  0
ARC
  5
8B1
100
AcDbEntity
  8
0
  6
SOLID
 62
        6
100
AcDbCircle
 10
1182.459960938
 20
88.331108093
 30
0.0
 40
57.0
100
AcDbArc
 50
20.992064575
 51
24.007980084
  0
LINE
  5
8B2
100
AcDbEntity
  8
0
  6
SOLID
 62
        6
100
AcDbLine
 10
1230.369801403
 20
109.799624265
 30
0.0
 11
1234.528822481
 21
111.522349059
 31
0.0
  0
LINE
  5
8B3
100
AcDbEntity
  8
0
  6
SOLID
 62
        6
100
AcDbLine
 10
1216.965989393
 20
104.247577558
 30
0.0
 11
1227.596962618
 21
108.651075596
 31
0.0
  0
LINE
  5
8B4
100
AcDbEntity
  8
0
  6
SOLID
 62
        6
100
AcDbLine
 10
1231.517852782
 20
107.027986116
 30
0.0
 11
1235.676873859
 21
108.750710909
 31
0.0
  0
LINE
  5
8B5
100
AcDbEntity
  8
0
  6
SOLID
 62
        6
100
AcDbLine
 10
1218.114040782
 20
101.475939413
 30
0.0
 11
1228.745013999
 21
105.879437447
 31
0.0
  0
LINE
  5
8B6
100
AcDbEntity
  8
0
  6
SOLID
 62
        6
100
AcDbLine
 10
1195.604764159
 20
123.985198297
 30
0.0
 11
1200.008254094
 21
134.616174878
 31
0.0
  0
LINE
  5
8B7
100
AcDbEntity
  8
0
  6
SOLID
 62
        6
100
AcDbLine
 10
1198.376403209
 20
122.837149092
 30
0.0
 11
1202.77989314
 21
133.468125665
 31
0.0
  0
ARC
  5
8B8
100
AcDbEntity
  8
0
  6
SOLID
 62
        6
100
AcDbCircle
 10
1182.459960938
 20
88.331108093
 30
0.0
 40
57.0
100
AcDbArc
 50
65.992064575
 51
69.007980084
  0
LINE
  5
8B9
100
AcDbEntity
  8
0
  6
SOLID
 62
        6
100
AcDbLine
 10
1201.156800649
 20
137.389014539
 30
0.0
 11
1202.879522273
 21
141.548036931
 31
0.0
  0
LINE
  5
8BA
100
AcDbEntity
  8
0
  6
SOLID
 62
        6
100
AcDbLine
 10
1203.928439695
 20
136.240965324
 30
0.0
 11
1205.651161318
 21
140.399987714
 31
0.0
  0
LINE
  5
8BB
100
AcDbEntity
  8
0
  6
SOLID
 62
        6
100
AcDbLine
 10
1166.543491473
 20
122.837136549
 30
0.0
 11
1162.139993435
 21
133.468109774
 31
0.0
  0
LINE
  5
8BC
100
AcDbEntity
  8
0
  6
SOLID
 62
        6
100
AcDbLine
 10
1169.315129618
 20
123.985187938
 30
0.0
 11
1164.911631583
 21
134.616161155
 31
0.0
  0
ARC
  5
8BD
100
AcDbEntity
  8
0
  6
SOLID
 62
        6
100
AcDbCircle
 10
1182.459960938
 20
88.331108093
 30
0.0
 40
57.0
100
AcDbArc
 50
110.992064575
 51
114.007980084
  0
LINE
  5
8BE
100
AcDbEntity
  8
0
  6
SOLID
 62
        6
100
AcDbLine
 10
1160.991444766
 20
136.240948558
 30
0.0
 11
1159.268719972
 21
140.399969637
 31
0.0
  0
LINE
  5
8BF
100
AcDbEntity
  8
0
  6
SOLID
 62
        6
100
AcDbLine
 10
1163.763082915
 20
137.388999938
 30
0.0
 11
1162.040358122
 21
141.548021014
 31
0.0
  0
LINE
  5
8C0
100
AcDbEntity
  8
0
  6
SOLID
 62
        6
100
AcDbLine
 10
1146.805870734
 20
101.475911315
 30
0.0
 11
1136.174894152
 21
105.879401249
 31
0.0
  0
LINE
  5
8C1
100
AcDbEntity
  8
0
  6
SOLID
 62
        6
100
AcDbLine
 10
1147.953919939
 20
104.247550365
 30
0.0
 11
1137.322943366
 21
108.651040296
 31
0.0
  0
ARC
  5
8C2
100
AcDbEntity
  8
0
  6
SOLID
 62
        6
100
AcDbCircle
 10
1182.459960938
 20
88.331108093
 30
0.0
 40
57.0
100
AcDbArc
 50
155.992064575
 51
159.007980084
  0
LINE
  5
8C3
100
AcDbEntity
  8
0
  6
SOLID
 62
        6
100
AcDbLine
 10
1133.402054492
 20
107.027947805
 30
0.0
 11
1129.2430321
 21
108.750669429
 31
0.0
  0
LINE
  5
8C4
100
AcDbEntity
  8
0
  6
SOLID
 62
        6
100
AcDbLine
 10
1134.550103707
 20
109.799586851
 30
0.0
 11
1130.391081317
 21
111.522308474
 31
0.0
  0
LINE
  5
8C5
100
AcDbEntity
  8
0
  6
SOLID
 62
        6
100
AcDbLine
 10
1147.953932482
 20
72.414638628
 30
0.0
 11
1137.322959257
 21
68.011140591
 31
0.0
  0
LINE
  5
8C6
100
AcDbEntity
  8
0
  6
SOLID
 62
        6
100
AcDbLine
 10
1146.805881093
 20
75.186276773
 30
0.0
 11
1136.174907876
 21
70.782778739
 31
0.0
  0
ARC
  5
8C7
100
AcDbEntity
  8
0
  6
SOLID
 62
        6
100
AcDbCircle
 10
1182.459960938
 20
88.331108093
 30
0.0
 40
57.0
100
AcDbArc
 50
200.992064575
 51
204.007980084
  0
LINE
  5
8C8
100
AcDbEntity
  8
0
  6
SOLID
 62
        6
100
AcDbLine
 10
1134.550120472
 20
66.862591922
 30
0.0
 11
1130.391099394
 21
65.139867128
 31
0.0
  0
LINE
  5
8C9
100
AcDbEntity
  8
0
  6
SOLID
 62
        6
100
AcDbLine
 10
1133.402069093
 20
69.634230071
 30
0.0
 11
1129.243048016
 21
67.911505278
 31
0.0
  0
LINE
  5
8CA
100
AcDbEntity
  8
0
  6
SOLID
 62
        6
100
AcDbLine
 10
1198.376430402
 20
53.825079638
 30
0.0
 11
1202.77992844
 21
43.194106413
 31
0.0
  0
LINE
  5
8CB
100
AcDbEntity
  8
0
  6
SOLID
 62
        6
100
AcDbLine
 10
1195.604792257
 20
52.677028249
 30
0.0
 11
1200.008290292
 21
42.046055032
 31
0.0
  0
ARC
  5
8CC
100
AcDbEntity
  8
0
  6
SOLID
 62
        6
100
AcDbCircle
 10
1182.459960938
 20
88.331108093
 30
0.0
 40
57.0
100
AcDbArc
 50
290.992064575
 51
294.007980084
  0
LINE
  5
8CD
100
AcDbEntity
  8
0
  6
SOLID
 62
        6
100
AcDbLine
 10
1203.928477109
 20
40.421267628
 30
0.0
 11
1205.651201903
 21
36.262246549
 31
0.0
  0
LINE
  5
8CE
100
AcDbEntity
  8
0
  6
SOLID
 62
        6
100
AcDbLine
 10
1201.15683896
 20
39.273216249
 30
0.0
 11
1202.879563753
 21
35.114195172
 31
0.0
  0
LINE
  5
8CF
100
AcDbEntity
  8
0
  6
SOLID
 62
        6
100
AcDbLine
 10
1218.114051141
 20
75.186304872
 30
0.0
 11
1228.745027723
 21
70.782814937
 31
0.0
  0
LINE
  5
8D0
100
AcDbEntity
  8
0
  6
SOLID
 62
        6
100
AcDbLine
 10
1216.966001936
 20
72.414665822
 30
0.0
 11
1227.596978509
 21
68.011175891
 31
0.0
  0
ARC
  5
8D1
100
AcDbEntity
  8
0
  6
SOLID
 62
        6
100
AcDbCircle
 10
1182.459960938
 20
88.331108093
 30
0.0
 40
57.0
100
AcDbArc
 50
335.992064575
 51
339.007980084
  0
LINE
  5
8D2
100
AcDbEntity
  8
0
  6
SOLID
 62
        6
100
AcDbLine
 10
1231.517867383
 20
69.634268382
 30
0.0
 11
1235.676889775
 21
67.911546758
 31
0.0
  0
LINE
  5
8D3
100
AcDbEntity
  8
0
  6
SOLID
 62
        6
100
AcDbLine
 10
1230.369818168
 20
66.862629336
 30
0.0
 11
1234.528840558
 21
65.139907713
 31
0.0
  0
INSERT
  5
8D7
100
AcDbEntity
  8
0
100
AcDbBlockReference
  2
*H340
 10
0.0
 20
0.0
 30
0.0
  0
INSERT
  5
8DB
100
AcDbEntity
  8
0
100
AcDbBlockReference
  2
*H341
 10
0.0
 20
0.0
 30
0.0
  0
INSERT
  5
8DF
100
AcDbEntity
  8
0
100
AcDbBlockReference
  2
*H342
 10
0.0
 20
0.0
 30
0.0
  0
INSERT
  5
8E3
100
AcDbEntity
  8
0
100
AcDbBlockReference
  2
*H343
 10
0.0
 20
0.0
 30
0.0
  0
INSERT
  5
8E7
100
AcDbEntity
  8
0
100
AcDbBlockReference
  2
*H344
 10
0.0
 20
0.0
 30
0.0
  0
INSERT
  5
8EB
100
AcDbEntity
  8
0
100
AcDbBlockReference
  2
*H345
 10
0.0
 20
0.0
 30
0.0
  0
INSERT
  5
8EF
100
AcDbEntity
  8
0
100
AcDbBlockReference
  2
*H346
 10
0.0
 20
0.0
 30
0.0
  0
INSERT
  5
8F3
100
AcDbEntity
  8
0
100
AcDbBlockReference
  2
*H347
 10
0.0
 20
0.0
 30
0.0
  0
INSERT
  5
8F7
100
AcDbEntity
  8
0
100
AcDbBlockReference
  2
*H348
 10
0.0
 20
0.0
 30
0.0
  0
INSERT
  5
8FB
100
AcDbEntity
  8
0
100
AcDbBlockReference
  2
*H349
 10
0.0
 20
0.0
 30
0.0
  0
INSERT
  5
8FF
100
AcDbEntity
  8
0
100
AcDbBlockReference
  2
*H350
 10
0.0
 20
0.0
 30
0.0
  0
INSERT
  5
903
100
AcDbEntity
  8
0
100
AcDbBlockReference
  2
*H351
 10
0.0
 20
0.0
 30
0.0
  0
INSERT
  5
907
100
AcDbEntity
  8
0
100
AcDbBlockReference
  2
*H352
 10
0.0
 20
0.0
 30
0.0
  0
INSERT
  5
90B
100
AcDbEntity
  8
0
100
AcDbBlockReference
  2
*H353
 10
0.0
 20
0.0
 30
0.0
  0
INSERT
  5
90F
100
AcDbEntity
  8
0
100
AcDbBlockReference
  2
*H354
 10
0.0
 20
0.0
 30
0.0
  0
INSERT
  5
913
100
AcDbEntity
  8
0
100
AcDbBlockReference
  2
*H355
 10
0.0
 20
0.0
 30
0.0
  0
INSERT
  5
917
100
AcDbEntity
  8
0
100
AcDbBlockReference
  2
*H356
 10
0.0
 20
0.0
 30
0.0
  0
INSERT
  5
91B
100
AcDbEntity
  8
0
100
AcDbBlockReference
  2
*H357
 10
0.0
 20
0.0
 30
0.0
  0
INSERT
  5
91F
100
AcDbEntity
  8
0
100
AcDbBlockReference
  2
*H358
 10
0.0
 20
0.0
 30
0.0
  0
INSERT
  5
923
100
AcDbEntity
  8
0
100
AcDbBlockReference
  2
*H359
 10
0.0
 20
0.0
 30
0.0
  0
INSERT
  5
927
100
AcDbEntity
  8
0
100
AcDbBlockReference
  2
*H360
 10
0.0
 20
0.0
 30
0.0
  0
INSERT
  5
92B
100
AcDbEntity
  8
0
100
AcDbBlockReference
  2
*H361
 10
0.0
 20
0.0
 30
0.0
  0
INSERT
  5
92F
100
AcDbEntity
  8
0
100
AcDbBlockReference
  2
*H362
 10
0.0
 20
0.0
 30
0.0
  0
INSERT
  5
933
100
AcDbEntity
  8
0
100
AcDbBlockReference
  2
*H363
 10
0.0
 20
0.0
 30
0.0
  0
INSERT
  5
937
100
AcDbEntity
  8
0
100
AcDbBlockReference
  2
*H364
 10
0.0
 20
0.0
 30
0.0
  0
INSERT
  5
93B
100
AcDbEntity
  8
0
100
AcDbBlockReference
  2
*H365
 10
0.0
 20
0.0
 30
0.0
  0
INSERT
  5
93F
100
AcDbEntity
  8
0
100
AcDbBlockReference
  2
*H366
 10
0.0
 20
0.0
 30
0.0
  0
INSERT
  5
943
100
AcDbEntity
  8
0
100
AcDbBlockReference
  2
*H367
 10
0.0
 20
0.0
 30
0.0
  0
INSERT
  5
947
100
AcDbEntity
  8
0
100
AcDbBlockReference
  2
*H368
 10
0.0
 20
0.0
 30
0.0
  0
INSERT
  5
94B
100
AcDbEntity
  8
0
100
AcDbBlockReference
  2
*H369
 10
0.0
 20
0.0
 30
0.0
  0
INSERT
  5
94F
100
AcDbEntity
  8
0
100
AcDbBlockReference
  2
*H370
 10
0.0
 20
0.0
 30
0.0
  0
INSERT
  5
953
100
AcDbEntity
  8
0
100
AcDbBlockReference
  2
*H371
 10
0.0
 20
0.0
 30
0.0
  0
INSERT
  5
957
100
AcDbEntity
  8
0
100
AcDbBlockReference
  2
*H372
 10
0.0
 20
0.0
 30
0.0
  0
INSERT
  5
95B
100
AcDbEntity
  8
0
100
AcDbBlockReference
  2
*H373
 10
0.0
 20
0.0
 30
0.0
  0
INSERT
  5
95F
100
AcDbEntity
  8
0
100
AcDbBlockReference
  2
*H374
 10
0.0
 20
0.0
 30
0.0
  0
INSERT
  5
963
100
AcDbEntity
  8
0
100
AcDbBlockReference
  2
*H375
 10
0.0
 20
0.0
 30
0.0
  0
INSERT
  5
967
100
AcDbEntity
  8
0
100
AcDbBlockReference
  2
*H376
 10
0.0
 20
0.0
 30
0.0
  0
INSERT
  5
96B
100
AcDbEntity
  8
0
100
AcDbBlockReference
  2
*H377
 10
0.0
 20
0.0
 30
0.0
  0
INSERT
  5
96F
100
AcDbEntity
  8
0
100
AcDbBlockReference
  2
*H378
 10
0.0
 20
0.0
 30
0.0
  0
INSERT
  5
973
100
AcDbEntity
  8
0
100
AcDbBlockReference
  2
*H379
 10
0.0
 20
0.0
 30
0.0
  0
INSERT
  5
977
100
AcDbEntity
  8
0
100
AcDbBlockReference
  2
*H380
 10
0.0
 20
0.0
 30
0.0
  0
INSERT
  5
97B
100
AcDbEntity
  8
0
100
AcDbBlockReference
  2
*H381
 10
0.0
 20
0.0
 30
0.0
  0
INSERT
  5
97F
100
AcDbEntity
  8
0
100
AcDbBlockReference
  2
*H382
 10
0.0
 20
0.0
 30
0.0
  0
INSERT
  5
983
100
AcDbEntity
  8
0
100
AcDbBlockReference
  2
*H383
 10
0.0
 20
0.0
 30
0.0
  0
INSERT
  5
987
100
AcDbEntity
  8
0
100
AcDbBlockReference
  2
*H384
 10
0.0
 20
0.0
 30
0.0
  0
INSERT
  5
98B
100
AcDbEntity
  8
0
100
AcDbBlockReference
  2
*H385
 10
0.0
 20
0.0
 30
0.0
  0
INSERT
  5
98F
100
AcDbEntity
  8
0
100
AcDbBlockReference
  2
*H386
 10
0.0
 20
0.0
 30
0.0
  0
INSERT
  5
993
100
AcDbEntity
  8
0
100
AcDbBlockReference
  2
*H387
 10
0.0
 20
0.0
 30
0.0
  0
INSERT
  5
997
100
AcDbEntity
  8
0
100
AcDbBlockReference
  2
*H388
 10
0.0
 20
0.0
 30
0.0
  0
INSERT
  5
99B
100
AcDbEntity
  8
0
100
AcDbBlockReference
  2
*H389
 10
0.0
 20
0.0
 30
0.0
  0
INSERT
  5
99F
100
AcDbEntity
  8
0
100
AcDbBlockReference
  2
*H390
 10
0.0
 20
0.0
 30
0.0
  0
INSERT
  5
9A3
100
AcDbEntity
  8
0
100
AcDbBlockReference
  2
*H391
 10
0.0
 20
0.0
 30
0.0
  0
INSERT
  5
9A7
100
AcDbEntity
  8
0
100
AcDbBlockReference
  2
*H392
 10
0.0
 20
0.0
 30
0.0
  0
INSERT
  5
9AB
100
AcDbEntity
  8
0
100
AcDbBlockReference
  2
*H393
 10
0.0
 20
0.0
 30
0.0
  0
INSERT
  5
9AF
100
AcDbEntity
  8
0
100
AcDbBlockReference
  2
*H394
 10
0.0
 20
0.0
 30
0.0
  0
INSERT
  5
9B3
100
AcDbEntity
  8
0
100
AcDbBlockReference
  2
*H395
 10
0.0
 20
0.0
 30
0.0
  0
INSERT
  5
9B7
100
AcDbEntity
  8
0
100
AcDbBlockReference
  2
*H396
 10
0.0
 20
0.0
 30
0.0
  0
INSERT
  5
9BB
100
AcDbEntity
  8
0
100
AcDbBlockReference
  2
*H397
 10
0.0
 20
0.0
 30
0.0
  0
INSERT
  5
9BF
100
AcDbEntity
  8
0
100
AcDbBlockReference
  2
*H398
 10
0.0
 20
0.0
 30
0.0
  0
INSERT
  5
9C3
100
AcDbEntity
  8
0
100
AcDbBlockReference
  2
*H399
 10
0.0
 20
0.0
 30
0.0
  0
ENDSEC
  0
SECTION
  2
OBJECTS
  0
DICTIONARY
  5
19
100
AcDbDictionary
  3
ACAD_GROUP
350
1A
  3
ACAD_MLINESTYLE
350
1B
  0
DICTIONARY
  5
1A
102
{ACAD_REACTORS
330
19
102
}
100
AcDbDictionary
  0
DICTIONARY
  5
1B
102
{ACAD_REACTORS
330
19
102
}
100
AcDbDictionary
  3
STANDARD
350
1C
  0
MLINESTYLE
  5
1C
102
{ACAD_REACTORS
330
1B
102
}
100
AcDbMlineStyle
  2
STANDARD
 70
        0
  3

 62
        0
 51
90.0
 52
90.0
 71
        2
 49
0.5
 62
      256
  6
BYLAYER
 49
-0.5
 62
      256
  6
BYLAYER
  0
ENDSEC
  0
EOF
