  0
SECTION
  2
HEADER
  9
$ACADVER
  1
AC1014
  9
$HANDSEED
  5
FFFF
  9
$MEASUREMENT
 70
     1
  0
ENDSEC
  0
SECTION
  2
TABLES
  0
TABLE
  2
VPORT
  5
8
330
0
100
AcDbSymbolTable
 70
     4
  0
VPORT
  5
2E
330
8
100
AcDbSymbolTableRecord
100
AcDbViewportTableRecord
  2
*ACTIVE
 70
     0
 10
0.0
 20
0.0
 11
1.0
 21
1.0
 12
210.0
 22
148.5
 13
0.0
 23
0.0
 14
10.0
 24
10.0
 15
10.0
 25
10.0
 16
0.0
 26
0.0
 36
1.0
 17
0.0
 27
0.0
 37
0.0
 40
341.0
 41
1.24
 42
50.0
 43
0.0
 44
0.0
 50
0.0
 51
0.0
 71
     0
 72
   100
 73
     1
 74
     3
 75
     0
 76
     0
 77
     0
 78
     0
  0
ENDTAB
  0
TABLE
  2
LTYPE
  5
5
330
0
100
AcDbSymbolTable
 70
     1
  0
LTYPE
  5
14
330
5
100
AcDbSymbolTableRecord
100
AcDbLinetypeTableRecord
  2
BYBLOCK
 70
     0
  3

 72
    65
 73
     0
 40
0.0
  0
LTYPE
  5
15
330
5
100
AcDbSymbolTableRecord
100
AcDbLinetypeTableRecord
  2
BYLAYER
 70
     0
  3

 72
    65
 73
     0
 40
0.0
  0
LTYPE
  5
16
330
5
100
AcDbSymbolTableRecord
100
AcDbLinetypeTableRecord
  2
CONTINUOUS
 70
     0
  3
Solid line
 72
    65
 73
     0
 40
0.0
  0
ENDTAB
  0
TABLE
  2
LAYER
  5
2
100
AcDbSymbolTable
 70
1
  0
LAYER
  5
50
100
AcDbSymbolTableRecord
100
AcDbLayerTableRecord
  2
0
 70
0
  6
CONTINUOUS
  0
ENDTAB
  0
TABLE
  2
STYLE
  5
3
330
0
100
AcDbSymbolTable
 70
     1
  0
STYLE
  5
11
330
3
100
AcDbSymbolTableRecord
100
AcDbTextStyleTableRecord
  2
STANDARD
 70
     0
 40
0.0
 41
1.0
 50
0.0
 71
     0
 42
2.5
  3
txt
  4

  0
ENDTAB
  0
TABLE
  2
VIEW
  5
6
330
0
100
AcDbSymbolTable
 70
     0
  0
ENDTAB
  0
TABLE
  2
UCS
  5
7
330
0
100
AcDbSymbolTable
 70
     0
  0
ENDTAB
  0
TABLE
  2
APPID
  5
9
330
0
100
AcDbSymbolTable
 70
     2
  0
APPID
  5
12
330
9
100
AcDbSymbolTableRecord
100
AcDbRegAppTableRecord
  2
ACAD
 70
     0
  0
ENDTAB
  0
TABLE
  2
DIMSTYLE
  5
A
330
0
100
AcDbSymbolTable
 70
     1
  0
DIMSTYLE
105
27
330
A
100
AcDbSymbolTableRecord
100
AcDbDimStyleTableRecord
  2
ISO-25
 70
     0
  3

  4

  5

  6

  7

 40
1.0
 41
2.5
 42
0.625
 43
3.75
 44
1.25
 45
0.0
 46
0.0
 47
0.0
 48
0.0
140
2.5
141
2.5
142
0.0
143
0.03937007874016
144
1.0
145
0.0
146
1.0
147
0.625
 71
     0
 72
     0
 73
     0
 74
     0
 75
     0
 76
     0
 77
     1
 78
     8
170
     0
171
     3
172
     1
173
     0
174
     0
175
     0
176
     0
177
     0
178
     0
270
     2
271
     2
272
     2
273
     2
274
     3
340
11
275
     0
280
     0
281
     0
282
     0
283
     0
284
     8
285
     0
286
     0
287
     3
288
     0
  0
ENDTAB
  0
TABLE
  2
BLOCK_RECORD
  5
1
330
0
100
AcDbSymbolTable
 70
     1
  0
BLOCK_RECORD
  5
1F
330
1
100
AcDbSymbolTableRecord
100
AcDbBlockTableRecord
  2
*MODEL_SPACE
  0
BLOCK_RECORD
  5
1B
330
1
100
AcDbSymbolTableRecord
100
AcDbBlockTableRecord
  2
*PAPER_SPACE
  0
ENDTAB
  0
ENDSEC
  0
SECTION
  2
BLOCKS
  0
BLOCK
  5
20
330
1F
100
AcDbEntity
  8
0
100
AcDbBlockBegin
  2
*MODEL_SPACE
 70
     0
 10
0.0
 20
0.0
 30
0.0
  3
*MODEL_SPACE
  1

  0
ENDBLK
  5
21
330
1F
100
AcDbEntity
  8
0
100
AcDbBlockEnd
  0
BLOCK
  5
1C
330
1B
100
AcDbEntity
 67
     1
  8
0
100
AcDbBlockBegin
  2
*PAPER_SPACE
  1

  0
ENDBLK
  5
1D
330
1B
100
AcDbEntity
 67
     1
  8
0
100
AcDbBlockEnd
  0
ENDSEC
  0
SECTION
  2
ENTITIES
  0
SPLINE
  5
100
100
AcDbEntity
  8
0
 62
7
100
AcDbSpline
 70
8
 71
3
 72
8
 73
4
 74
0
 40
0
 40
0
 40
0
 40
0
 40
1
 40
1
 40
1
 40
1
 10
0.375378
 20
-0.448363
 30
0.0
 10
-0.021909
 20
-0.009366
 30
0.0
 10
-0.061846
 20
1.493075
 30
0.0
 10
-0.055387
 20
15.757372
 30
0.0
  0
SPLINE
  5
101
100
AcDbEntity
  8
0
 62
7
100
AcDbSpline
 70
8
 71
3
 72
8
 73
4
 74
0
 40
0
 40
0
 40
0
 40
0
 40
1
 40
1
 40
1
 40
1
 10
0.744335
 20
30.553213
 30
0.0
 10
2.801999
 20
28.149140
 30
0.0
 10
4.520084
 20
23.159609
 30
0.0
 10
4.865413
 20
18.585103
 30
0.0
  0
SPLINE
  5
102
100
AcDbEntity
  8
0
 62
7
100
AcDbSpline
 70
8
 71
3
 72
8
 73
4
 74
0
 40
0
 40
0
 40
0
 40
0
 40
1
 40
1
 40
1
 40
1
 10
4.865413
 20
18.585103
 30
0.0
 10
4.977546
 20
17.099685
 30
0.0
 10
5.151084
 20
16.265715
 30
0.0
 10
5.348042
 20
16.265715
 30
0.0
  0
SPLINE
  5
103
100
AcDbEntity
  8
0
 62
7
100
AcDbSpline
 70
8
 71
3
 72
8
 73
4
 74
0
 40
0
 40
0
 40
0
 40
0
 40
1
 40
1
 40
1
 40
1
 10
5.348042
 20
16.265715
 30
0.0
 10
6.145203
 20
16.265715
 30
0.0
 10
9.076471
 20
17.469588
 30
0.0
 10
10.465917
 20
18.367632
 30
0.0
  0
SPLINE
  5
104
100
AcDbEntity
  8
0
 62
7
100
AcDbSpline
 70
8
 71
3
 72
8
 73
4
 74
0
 40
0
 40
0
 40
0
 40
0
 40
1
 40
1
 40
1
 40
1
 10
10.465917
 20
18.367632
 30
0.0
 10
12.930815
 20
19.960773
 30
0.0
 10
14.680071
 20
22.449951
 30
0.0
 10
15.644647
 20
25.736934
 30
0.0
  0
SPLINE
  5
105
100
AcDbEntity
  8
0
 62
7
100
AcDbSpline
 70
8
 71
3
 72
8
 73
4
 74
0
 40
0
 40
0
 40
0
 40
0
 40
1
 40
1
 40
1
 40
1
 10
15.644647
 20
25.736934
 30
0.0
 10
16.128765
 20
27.386661
 30
0.0
 10
16.283666
 20
27.283537
 30
0.0
 10
13.034371
 20
27.474693
 30
0.0
  0
SPLINE
  5
106
100
AcDbEntity
  8
0
 62
7
100
AcDbSpline
 70
8
 71
3
 72
8
 73
4
 74
0
 40
0
 40
0
 40
0
 40
0
 40
1
 40
1
 40
1
 40
1
 10
13.034371
 20
27.474693
 30
0.0
 10
8.621764
 20
27.734286
 30
0.0
 10
4.591405
 20
29.182661
 30
0.0
 10
1.619478
 20
31.576820
 30
0.0
  0
LWPOLYLINE
  5
107
100
AcDbEntity
  8
0
 62
7
100
AcDbPolyline
 90
3
 70
0
 10
-0.055387
 20
15.757372
 30
0.0
 10
-0.048270
 20
31.479255
 30
0.0
 10
0.744335
 20
30.553213
 30
0.0
  0
SPLINE
  5
108
100
AcDbEntity
  8
0
 62
7
100
AcDbSpline
 70
8
 71
3
 72
8
 73
4
 74
0
 40
0
 40
0
 40
0
 40
0
 40
1
 40
1
 40
1
 40
1
 10
0.731730
 20
63.626130
 30
0.0
 10
2.827926
 20
61.145830
 30
0.0
 10
4.491255
 20
56.310504
 30
0.0
 10
4.857841
 20
51.631453
 30
0.0
  0
LWPOLYLINE
  5
109
100
AcDbEntity
  8
0
 62
7
100
AcDbPolyline
 90
5
 70
0
 10
1.619478
 20
31.576820
 30
0.0
 10
0.069787
 20
32.825238
 30
0.0
 10
0.009441
 20
48.688704
 30
0.0
 10
-0.050905
 20
64.552171
 30
0.0
 10
0.731730
 20
63.626130
 30
0.0
  0
SPLINE
  5
10a
100
AcDbEntity
  8
0
 62
7
100
AcDbSpline
 70
8
 71
3
 72
8
 73
4
 74
0
 40
0
 40
0
 40
0
 40
0
 40
1
 40
1
 40
1
 40
1
 10
5.994959
 20
49.462798
 30
0.0
 10
6.519657
 20
49.555601
 30
0.0
 10
7.819121
 20
50.039315
 30
0.0
 10
8.882656
 20
50.537721
 30
0.0
  0
SPLINE
  5
10b
100
AcDbEntity
  8
0
 62
7
100
AcDbSpline
 70
8
 71
3
 72
8
 73
4
 74
0
 40
0
 40
0
 40
0
 40
0
 40
1
 40
1
 40
1
 40
1
 10
8.882656
 20
50.537721
 30
0.0
 10
12.182478
 20
52.084113
 30
0.0
 10
14.703463
 20
55.160974
 30
0.0
 10
15.668726
 20
58.820116
 30
0.0
  0
LWPOLYLINE
  5
10c
100
AcDbEntity
  8
0
 62
7
100
AcDbPolyline
 90
3
 70
0
 10
4.857841
 20
51.631453
 30
0.0
 10
5.040964
 20
49.294068
 30
0.0
 10
5.994959
 20
49.462798
 30
0.0
  0
SPLINE
  5
10d
100
AcDbEntity
  8
0
 62
7
100
AcDbSpline
 70
8
 71
3
 72
8
 73
4
 74
0
 40
0
 40
0
 40
0
 40
0
 40
1
 40
1
 40
1
 40
1
 10
14.925448
 20
60.297647
 30
0.0
 10
14.321918
 20
60.372109
 30
0.0
 10
13.013326
 20
60.507303
 30
0.0
 10
12.017463
 20
60.598079
 30
0.0
  0
SPLINE
  5
10e
100
AcDbEntity
  8
0
 62
7
100
AcDbSpline
 70
8
 71
3
 72
8
 73
4
 74
0
 40
0
 40
0
 40
0
 40
0
 40
1
 40
1
 40
1
 40
1
 10
12.017463
 20
60.598079
 30
0.0
 10
8.047647
 20
60.959939
 30
0.0
 10
3.703125
 20
62.700207
 30
0.0
 10
1.283627
 20
64.897683
 30
0.0
  0
LWPOLYLINE
  5
10f
100
AcDbEntity
  8
0
 62
7
100
AcDbPolyline
 90
3
 70
0
 10
15.668726
 20
58.820116
 30
0.0
 10
16.022779
 20
60.162265
 30
0.0
 10
14.925448
 20
60.297647
 30
0.0
  0
SPLINE
  5
110
100
AcDbEntity
  8
0
 62
7
100
AcDbSpline
 70
8
 71
3
 72
8
 73
4
 74
0
 40
0
 40
0
 40
0
 40
0
 40
1
 40
1
 40
1
 40
1
 10
1.205694
 20
95.952818
 30
0.0
 10
3.272185
 20
93.006693
 30
0.0
 10
4.259081
 20
90.070263
 30
0.0
 10
4.762509
 20
85.369797
 30
0.0
  0
LWPOLYLINE
  5
111
100
AcDbEntity
  8
0
 62
7
100
AcDbPolyline
 90
5
 70
0
 10
1.283627
 20
64.897683
 30
0.0
 10
-0.083846
 20
66.139671
 30
0.0
 10
-0.007029
 20
81.855956
 30
0.0
 10
0.069787
 20
97.572240
 30
0.0
 10
1.205694
 20
95.952818
 30
0.0
  0
SPLINE
  5
112
100
AcDbEntity
  8
0
 62
7
100
AcDbSpline
 70
8
 71
3
 72
8
 73
4
 74
0
 40
0
 40
0
 40
0
 40
0
 40
1
 40
1
 40
1
 40
1
 10
6.016110
 20
82.539684
 30
0.0
 10
7.555644
 20
82.811604
 30
0.0
 10
10.672054
 20
84.412825
 30
0.0
 10
11.944462
 20
85.585689
 30
0.0
  0
SPLINE
  5
113
100
AcDbEntity
  8
0
 62
7
100
AcDbSpline
 70
8
 71
3
 72
8
 73
4
 74
0
 40
0
 40
0
 40
0
 40
0
 40
1
 40
1
 40
1
 40
1
 10
11.944462
 20
85.585689
 30
0.0
 10
13.521376
 20
87.039238
 30
0.0
 10
14.660788
 20
88.859371
 30
0.0
 10
15.445188
 20
91.177861
 30
0.0
  0
SPLINE
  5
114
100
AcDbEntity
  8
0
 62
7
100
AcDbSpline
 70
8
 71
3
 72
8
 73
4
 74
0
 40
0
 40
0
 40
0
 40
0
 40
1
 40
1
 40
1
 40
1
 10
15.445188
 20
91.177861
 30
0.0
 10
15.797944
 20
92.220513
 30
0.0
 10
16.054661
 20
93.102644
 30
0.0
 10
16.015674
 20
93.138151
 30
0.0
  0
SPLINE
  5
115
100
AcDbEntity
  8
0
 62
7
100
AcDbSpline
 70
8
 71
3
 72
8
 73
4
 74
0
 40
0
 40
0
 40
0
 40
0
 40
1
 40
1
 40
1
 40
1
 10
16.015674
 20
93.138151
 30
0.0
 10
15.976685
 20
93.173658
 30
0.0
 10
14.718621
 20
93.334663
 30
0.0
 10
13.219973
 20
93.495937
 30
0.0
  0
SPLINE
  5
116
100
AcDbEntity
  8
0
 62
7
100
AcDbSpline
 70
8
 71
3
 72
8
 73
4
 74
0
 40
0
 40
0
 40
0
 40
0
 40
1
 40
1
 40
1
 40
1
 10
13.219973
 20
93.495937
 30
0.0
 10
11.721326
 20
93.657211
 30
0.0
 10
9.697263
 20
93.981378
 30
0.0
 10
8.722057
 20
94.216307
 30
0.0
  0
SPLINE
  5
117
100
AcDbEntity
  8
0
 62
7
100
AcDbSpline
 70
8
 71
3
 72
8
 73
4
 74
0
 40
0
 40
0
 40
0
 40
0
 40
1
 40
1
 40
1
 40
1
 10
8.722057
 20
94.216307
 30
0.0
 10
6.143925
 20
94.837385
 30
0.0
 10
2.840110
 20
96.494558
 30
0.0
 10
1.272570
 20
97.952922
 30
0.0
  0
LWPOLYLINE
  5
118
100
AcDbEntity
  8
0
 62
7
100
AcDbPolyline
 90
3
 70
0
 10
4.762509
 20
85.369797
 30
0.0
 10
5.083266
 20
82.374920
 30
0.0
 10
6.016110
 20
82.539684
 30
0.0
  0
SPLINE
  5
119
100
AcDbEntity
  8
0
 62
7
100
AcDbSpline
 70
8
 71
3
 72
8
 73
4
 74
0
 40
0
 40
0
 40
0
 40
0
 40
1
 40
1
 40
1
 40
1
 10
1.239709
 20
128.977242
 30
0.0
 10
3.308531
 20
126.027802
 30
0.0
 10
4.462736
 20
122.420801
 30
0.0
 10
4.858793
 20
117.667275
 30
0.0
  0
SPLINE
  5
11a
100
AcDbEntity
  8
0
 62
7
100
AcDbSpline
 70
8
 71
3
 72
8
 73
4
 74
0
 40
0
 40
0
 40
0
 40
0
 40
1
 40
1
 40
1
 40
1
 10
4.858793
 20
117.667275
 30
0.0
 10
5.067055
 20
115.167677
 30
0.0
 10
5.050616
 20
115.178446
 30
0.0
 10
7.415996
 20
115.992256
 30
0.0
  0
SPLINE
  5
11b
100
AcDbEntity
  8
0
 62
7
100
AcDbSpline
 70
8
 71
3
 72
8
 73
4
 74
0
 40
0
 40
0
 40
0
 40
0
 40
1
 40
1
 40
1
 40
1
 10
7.415996
 20
115.992256
 30
0.0
 10
10.309850
 20
116.987886
 30
0.0
 10
12.812856
 20
119.026395
 30
0.0
 10
14.305286
 20
121.603056
 30
0.0
  0
SPLINE
  5
11c
100
AcDbEntity
  8
0
 62
7
100
AcDbSpline
 70
8
 71
3
 72
8
 73
4
 74
0
 40
0
 40
0
 40
0
 40
0
 40
1
 40
1
 40
1
 40
1
 10
14.305286
 20
121.603056
 30
0.0
 10
14.906621
 20
122.641249
 30
0.0
 10
16.176898
 20
126.072799
 30
0.0
 10
16.011031
 20
126.210981
 30
0.0
  0
SPLINE
  5
11d
100
AcDbEntity
  8
0
 62
7
100
AcDbSpline
 70
8
 71
3
 72
8
 73
4
 74
0
 40
0
 40
0
 40
0
 40
0
 40
1
 40
1
 40
1
 40
1
 10
16.011031
 20
126.210981
 30
0.0
 10
15.974598
 20
126.241334
 30
0.0
 10
14.630877
 20
126.401227
 30
0.0
 10
13.024989
 20
126.566300
 30
0.0
  0
SPLINE
  5
11e
100
AcDbEntity
  8
0
 62
7
100
AcDbSpline
 70
8
 71
3
 72
8
 73
4
 74
0
 40
0
 40
0
 40
0
 40
0
 40
1
 40
1
 40
1
 40
1
 10
13.024989
 20
126.566300
 30
0.0
 10
7.991090
 20
127.083743
 30
0.0
 10
3.928079
 20
128.614374
 30
0.0
 10
1.288262
 20
130.987795
 30
0.0
  0
LWPOLYLINE
  5
11f
100
AcDbEntity
  8
0
 62
7
100
AcDbPolyline
 90
5
 70
0
 10
1.272570
 20
97.952922
 30
0.0
 10
-0.081396
 20
99.212588
 30
0.0
 10
-0.005804
 20
114.928872
 30
0.0
 10
0.069787
 20
130.645157
 30
0.0
 10
1.239709
 20
128.977242
 30
0.0
  0
SPLINE
  5
120
100
AcDbEntity
  8
0
 62
7
100
AcDbSpline
 70
8
 71
3
 72
8
 73
4
 74
0
 40
0
 40
0
 40
0
 40
0
 40
1
 40
1
 40
1
 40
1
 10
0.757069
 20
162.682822
 30
0.0
 10
2.961313
 20
159.916490
 30
0.0
 10
4.334749
 20
156.082820
 30
0.0
 10
4.775214
 20
151.466992
 30
0.0
  0
LWPOLYLINE
  5
121
100
AcDbEntity
  8
0
 62
7
100
AcDbPolyline
 90
5
 70
0
 10
1.288262
 20
130.987795
 30
0.0
 10
-0.062504
 20
132.202251
 30
0.0
 10
-0.062504
 20
147.956820
 30
0.0
 10
-0.062504
 20
163.711393
 30
0.0
 10
0.757069
 20
162.682822
 30
0.0
  0
SPLINE
  5
122
100
AcDbEntity
  8
0
 62
7
100
AcDbSpline
 70
8
 71
3
 72
8
 73
4
 74
0
 40
0
 40
0
 40
0
 40
0
 40
1
 40
1
 40
1
 40
1
 10
6.317177
 20
148.697500
 30
0.0
 10
10.897492
 20
149.905765
 30
0.0
 10
14.314425
 20
153.235692
 30
0.0
 10
15.654068
 20
157.796645
 30
0.0
  0
SPLINE
  5
123
100
AcDbEntity
  8
0
 62
7
100
AcDbSpline
 70
8
 71
3
 72
8
 73
4
 74
0
 40
0
 40
0
 40
0
 40
0
 40
1
 40
1
 40
1
 40
1
 10
15.654068
 20
157.796645
 30
0.0
 10
15.885735
 20
158.585379
 30
0.0
 10
16.045922
 20
159.249917
 30
0.0
 10
16.010034
 20
159.273396
 30
0.0
  0
SPLINE
  5
124
100
AcDbEntity
  8
0
 62
7
100
AcDbSpline
 70
8
 71
3
 72
8
 73
4
 74
0
 40
0
 40
0
 40
0
 40
0
 40
1
 40
1
 40
1
 40
1
 10
16.010034
 20
159.273396
 30
0.0
 10
15.974148
 20
159.296865
 30
0.0
 10
14.635100
 20
159.450860
 30
0.0
 10
13.034371
 20
159.615576
 30
0.0
  0
SPLINE
  5
125
100
AcDbEntity
  8
0
 62
7
100
AcDbSpline
 70
8
 71
3
 72
8
 73
4
 74
0
 40
0
 40
0
 40
0
 40
0
 40
1
 40
1
 40
1
 40
1
 10
13.034371
 20
159.615576
 30
0.0
 10
11.433641
 20
159.780295
 30
0.0
 10
9.409579
 20
160.101103
 30
0.0
 10
8.536454
 20
160.328483
 30
0.0
  0
SPLINE
  5
126
100
AcDbEntity
  8
0
 62
7
100
AcDbSpline
 70
8
 71
3
 72
8
 73
4
 74
0
 40
0
 40
0
 40
0
 40
0
 40
1
 40
1
 40
1
 40
1
 10
8.536454
 20
160.328483
 30
0.0
 10
6.125171
 20
160.956432
 30
0.0
 10
2.876625
 20
162.619806
 30
0.0
 10
1.326558
 20
164.020217
 30
0.0
  0
LWPOLYLINE
  5
127
100
AcDbEntity
  8
0
 62
7
100
AcDbPolyline
 90
3
 70
0
 10
4.775214
 20
151.466992
 30
0.0
 10
5.070865
 20
148.368729
 30
0.0
 10
6.317177
 20
148.697500
 30
0.0
  0
SPLINE
  5
128
100
AcDbEntity
  8
0
 62
7
100
AcDbSpline
 70
8
 71
3
 72
8
 73
4
 74
0
 40
0
 40
0
 40
0
 40
0
 40
1
 40
1
 40
1
 40
1
 10
0.582092
 20
195.933637
 30
0.0
 10
1.366092
 20
195.197106
 30
0.0
 10
2.949335
 20
192.237201
 30
0.0
 10
3.668208
 20
190.164080
 30
0.0
  0
SPLINE
  5
129
100
AcDbEntity
  8
0
 62
7
100
AcDbSpline
 70
8
 71
3
 72
8
 73
4
 74
0
 40
0
 40
0
 40
0
 40
0
 40
1
 40
1
 40
1
 40
1
 10
3.668208
 20
190.164080
 30
0.0
 10
4.246722
 20
188.495734
 30
0.0
 10
4.960557
 20
184.265083
 30
0.0
 10
4.963021
 20
182.490192
 30
0.0
  0
SPLINE
  5
12a
100
AcDbEntity
  8
0
 62
7
100
AcDbSpline
 70
8
 71
3
 72
8
 73
4
 74
0
 40
0
 40
0
 40
0
 40
0
 40
1
 40
1
 40
1
 40
1
 10
4.963021
 20
182.490192
 30
0.0
 10
4.963814
 20
181.871728
 30
0.0
 10
5.002499
 20
181.365713
 30
0.0
 10
5.048849
 20
181.365713
 30
0.0
  0
SPLINE
  5
12b
100
AcDbEntity
  8
0
 62
7
100
AcDbSpline
 70
8
 71
3
 72
8
 73
4
 74
0
 40
0
 40
0
 40
0
 40
0
 40
1
 40
1
 40
1
 40
1
 10
5.048849
 20
181.365713
 30
0.0
 10
5.095196
 20
181.365713
 30
0.0
 10
5.779805
 20
181.557586
 30
0.0
 10
6.570203
 20
181.792094
 30
0.0
  0
SPLINE
  5
12c
100
AcDbEntity
  8
0
 62
7
100
AcDbSpline
 70
8
 71
3
 72
8
 73
4
 74
0
 40
0
 40
0
 40
0
 40
0
 40
1
 40
1
 40
1
 40
1
 10
6.570203
 20
181.792094
 30
0.0
 10
11.091437
 20
183.133542
 30
0.0
 10
14.333689
 20
186.374270
 30
0.0
 10
15.654968
 20
190.872589
 30
0.0
  0
SPLINE
  5
12d
100
AcDbEntity
  8
0
 62
7
100
AcDbSpline
 70
8
 71
3
 72
8
 73
4
 74
0
 40
0
 40
0
 40
0
 40
0
 40
1
 40
1
 40
1
 40
1
 10
15.654968
 20
190.872589
 30
0.0
 10
15.887129
 20
191.662987
 30
0.0
 10
16.077079
 20
192.347596
 30
0.0
 10
16.077079
 20
192.393943
 30
0.0
  0
SPLINE
  5
12e
100
AcDbEntity
  8
0
 62
7
100
AcDbSpline
 70
8
 71
3
 72
8
 73
4
 74
0
 40
0
 40
0
 40
0
 40
0
 40
1
 40
1
 40
1
 40
1
 10
16.077079
 20
192.393943
 30
0.0
 10
16.077079
 20
192.440293
 30
0.0
 10
15.571063
 20
192.478914
 30
0.0
 10
14.952600
 20
192.479774
 30
0.0
  0
SPLINE
  5
12f
100
AcDbEntity
  8
0
 62
7
100
AcDbSpline
 70
8
 71
3
 72
8
 73
4
 74
0
 40
0
 40
0
 40
0
 40
0
 40
1
 40
1
 40
1
 40
1
 10
14.952600
 20
192.479774
 30
0.0
 10
12.864532
 20
192.482658
 30
0.0
 10
8.767877
 20
193.241345
 30
0.0
 10
6.632809
 20
194.020548
 30
0.0
  0
SPLINE
  5
130
100
AcDbEntity
  8
0
 62
7
100
AcDbSpline
 70
8
 71
3
 72
8
 73
4
 74
0
 40
0
 40
0
 40
0
 40
0
 40
1
 40
1
 40
1
 40
1
 10
6.632809
 20
194.020548
 30
0.0
 10
4.372653
 20
194.845403
 30
0.0
 10
2.201710
 20
196.116731
 30
0.0
 10
0.797391
 20
197.437830
 30
0.0
  0
LWPOLYLINE
  5
131
100
AcDbEntity
  8
0
 62
7
100
AcDbPolyline
 90
5
 70
0
 10
1.326558
 20
164.020217
 30
0.0
 10
-0.062504
 20
165.275167
 30
0.0
 10
-0.062504
 20
180.907185
 30
0.0
 10
-0.062504
 20
196.539205
 30
0.0
 10
0.582092
 20
195.933637
 30
0.0
  0
SPLINE
  5
132
100
AcDbEntity
  8
0
 62
7
100
AcDbSpline
 70
8
 71
3
 72
8
 73
4
 74
0
 40
0
 40
0
 40
0
 40
0
 40
1
 40
1
 40
1
 40
1
 10
0.770952
 20
228.726130
 30
0.0
 10
2.993139
 20
226.191757
 30
0.0
 10
4.938353
 20
220.076080
 30
0.0
 10
4.959316
 20
215.558068
 30
0.0
  0
SPLINE
  5
133
100
AcDbEntity
  8
0
 62
7
100
AcDbSpline
 70
8
 71
3
 72
8
 73
4
 74
0
 40
0
 40
0
 40
0
 40
0
 40
1
 40
1
 40
1
 40
1
 10
4.959316
 20
215.558068
 30
0.0
 10
4.964396
 20
214.461026
 30
0.0
 10
4.985484
 20
214.433534
 30
0.0
 10
5.692162
 20
214.601981
 30
0.0
  0
SPLINE
  5
134
100
AcDbEntity
  8
0
 62
7
100
AcDbSpline
 70
8
 71
3
 72
8
 73
4
 74
0
 40
0
 40
0
 40
0
 40
0
 40
1
 40
1
 40
1
 40
1
 10
5.692162
 20
214.601981
 30
0.0
 10
10.969020
 20
215.859775
 30
0.0
 10
14.656880
 20
219.537164
 30
0.0
 10
15.903989
 20
224.784801
 30
0.0
  0
LWPOLYLINE
  5
135
100
AcDbEntity
  8
0
 62
7
100
AcDbPolyline
 90
5
 70
0
 10
0.797391
 20
197.437830
 30
0.0
 10
-0.062504
 20
198.246770
 30
0.0
 10
-0.051762
 20
213.949470
 30
0.0
 10
-0.041020
 20
229.652171
 30
0.0
 10
0.770952
 20
228.726130
 30
0.0
  0
SPLINE
  5
136
100
AcDbEntity
  8
0
 62
7
100
AcDbSpline
 70
8
 71
3
 72
8
 73
4
 74
0
 40
0
 40
0
 40
0
 40
0
 40
1
 40
1
 40
1
 40
1
 10
13.624984
 20
225.646911
 30
0.0
 10
8.699437
 20
225.996209
 30
0.0
 10
4.523680
 20
227.465583
 30
0.0
 10
1.458829
 20
229.927960
 30
0.0
  0
LWPOLYLINE
  5
137
100
AcDbEntity
  8
0
 62
7
100
AcDbPolyline
 90
3
 70
0
 10
15.903989
 20
224.784801
 30
0.0
 10
16.067702
 20
225.473683
 30
0.0
 10
13.624984
 20
225.646911
 30
0.0
  0
SPLINE
  5
138
100
AcDbEntity
  8
0
 62
7
100
AcDbSpline
 70
8
 71
3
 72
8
 73
4
 74
0
 40
0
 40
0
 40
0
 40
0
 40
1
 40
1
 40
1
 40
1
 10
0.757000
 20
261.799047
 30
0.0
 10
3.021471
 20
259.171366
 30
0.0
 10
4.938174
 20
253.167600
 30
0.0
 10
4.959295
 20
248.636026
 30
0.0
  0
SPLINE
  5
139
100
AcDbEntity
  8
0
 62
7
100
AcDbSpline
 70
8
 71
3
 72
8
 73
4
 74
0
 40
0
 40
0
 40
0
 40
0
 40
1
 40
1
 40
1
 40
1
 10
4.959295
 20
248.636026
 30
0.0
 10
4.962179
 20
248.017562
 30
0.0
 10
5.064959
 20
247.511547
 30
0.0
 10
5.187699
 20
247.511547
 30
0.0
  0
SPLINE
  5
13a
100
AcDbEntity
  8
0
 62
7
100
AcDbSpline
 70
8
 71
3
 72
8
 73
4
 74
0
 40
0
 40
0
 40
0
 40
0
 40
1
 40
1
 40
1
 40
1
 10
5.187699
 20
247.511547
 30
0.0
 10
5.619822
 20
247.511547
 30
0.0
 10
8.310894
 20
248.511566
 30
0.0
 10
9.469846
 20
249.102817
 30
0.0
  0
SPLINE
  5
13b
100
AcDbEntity
  8
0
 62
7
100
AcDbSpline
 70
8
 71
3
 72
8
 73
4
 74
0
 40
0
 40
0
 40
0
 40
0
 40
1
 40
1
 40
1
 40
1
 10
9.469846
 20
249.102817
 30
0.0
 10
12.598896
 20
250.699141
 30
0.0
 10
14.958786
 20
253.910598
 30
0.0
 10
15.902716
 20
257.856989
 30
0.0
  0
LWPOLYLINE
  5
13c
100
AcDbEntity
  8
0
 62
7
100
AcDbPolyline
 90
5
 70
0
 10
1.458829
 20
229.927960
 30
0.0
 10
-0.062526
 20
231.150250
 30
0.0
 10
-0.051783
 20
246.937671
 30
0.0
 10
-0.041041
 20
262.725088
 30
0.0
 10
0.757000
 20
261.799047
 30
0.0
  0
SPLINE
  5
13d
100
AcDbEntity
  8
0
 62
7
100
AcDbSpline
 70
8
 71
3
 72
8
 73
4
 74
0
 40
0
 40
0
 40
0
 40
0
 40
1
 40
1
 40
1
 40
1
 10
13.476264
 20
258.714941
 30
0.0
 10
10.704471
 20
258.896588
 30
0.0
 10
7.768890
 20
259.550441
 30
0.0
 10
5.625995
 20
260.463462
 30
0.0
  0
SPLINE
  5
13e
100
AcDbEntity
  8
0
 62
7
100
AcDbSpline
 70
8
 71
3
 72
8
 73
4
 74
0
 40
0
 40
0
 40
0
 40
0
 40
1
 40
1
 40
1
 40
1
 10
5.625995
 20
260.463462
 30
0.0
 10
4.172448
 20
261.082774
 30
0.0
 10
0.995787
 20
263.132163
 30
0.0
 10
0.995787
 20
263.450591
 30
0.0
  0
SPLINE
  5
13f
100
AcDbEntity
  8
0
 62
7
100
AcDbSpline
 70
8
 71
3
 72
8
 73
4
 74
0
 40
0
 40
0
 40
0
 40
0
 40
1
 40
1
 40
1
 40
1
 10
0.995787
 20
263.450591
 30
0.0
 10
0.995787
 20
263.560887
 30
0.0
 10
8.009441
 20
263.651130
 30
0.0
 10
16.581684
 20
263.651130
 30
0.0
  0
LWPOLYLINE
  5
140
100
AcDbEntity
  8
0
 62
7
100
AcDbPolyline
 90
3
 70
0
 10
15.902716
 20
257.856989
 30
0.0
 10
16.067313
 20
258.545140
 30
0.0
 10
13.476264
 20
258.714941
 30
0.0
  0
SPLINE
  5
141
100
AcDbEntity
  8
0
 62
7
100
AcDbSpline
 70
8
 71
3
 72
8
 73
4
 74
0
 40
0
 40
0
 40
0
 40
0
 40
1
 40
1
 40
1
 40
1
 10
33.396349
 20
262.284445
 30
0.0
 10
34.780590
 20
260.744837
 30
0.0
 10
36.473323
 20
257.430658
 30
0.0
 10
37.090268
 20
255.052172
 30
0.0
  0
SPLINE
  5
142
100
AcDbEntity
  8
0
 62
7
100
AcDbSpline
 70
8
 71
3
 72
8
 73
4
 74
0
 40
0
 40
0
 40
0
 40
0
 40
1
 40
1
 40
1
 40
1
 10
37.090268
 20
255.052172
 30
0.0
 10
37.316746
 20
254.179047
 30
0.0
 10
37.643890
 20
252.154984
 30
0.0
 10
37.817256
 20
250.554255
 30
0.0
  0
SPLINE
  5
143
100
AcDbEntity
  8
0
 62
7
100
AcDbSpline
 70
8
 71
3
 72
8
 73
4
 74
0
 40
0
 40
0
 40
0
 40
0
 40
1
 40
1
 40
1
 40
1
 10
37.817256
 20
250.554255
 30
0.0
 10
37.990624
 20
248.953526
 30
0.0
 10
38.158878
 20
247.605974
 30
0.0
 10
38.191154
 20
247.559693
 30
0.0
  0
SPLINE
  5
144
100
AcDbEntity
  8
0
 62
7
100
AcDbSpline
 70
8
 71
3
 72
8
 73
4
 74
0
 40
0
 40
0
 40
0
 40
0
 40
1
 40
1
 40
1
 40
1
 10
38.191154
 20
247.559693
 30
0.0
 10
38.223433
 20
247.513412
 30
0.0
 10
38.859291
 20
247.656533
 30
0.0
 10
39.604169
 20
247.877738
 30
0.0
  0
SPLINE
  5
145
100
AcDbEntity
  8
0
 62
7
100
AcDbSpline
 70
8
 71
3
 72
8
 73
4
 74
0
 40
0
 40
0
 40
0
 40
0
 40
1
 40
1
 40
1
 40
1
 10
39.604169
 20
247.877738
 30
0.0
 10
42.769248
 20
248.817665
 30
0.0
 10
45.749062
 20
251.023700
 30
0.0
 10
47.201648
 20
253.502354
 30
0.0
  0
SPLINE
  5
146
100
AcDbEntity
  8
0
 62
7
100
AcDbSpline
 70
8
 71
3
 72
8
 73
4
 74
0
 40
0
 40
0
 40
0
 40
0
 40
1
 40
1
 40
1
 40
1
 10
47.201648
 20
253.502354
 30
0.0
 10
47.995250
 20
254.856534
 30
0.0
 10
49.175292
 20
258.104413
 30
0.0
 10
48.985355
 20
258.411735
 30
0.0
  0
SPLINE
  5
147
100
AcDbEntity
  8
0
 62
7
100
AcDbSpline
 70
8
 71
3
 72
8
 73
4
 74
0
 40
0
 40
0
 40
0
 40
0
 40
1
 40
1
 40
1
 40
1
 10
48.985355
 20
258.411735
 30
0.0
 10
48.913187
 20
258.528506
 30
0.0
 10
48.295618
 20
258.624526
 30
0.0
 10
47.612983
 20
258.625111
 30
0.0
  0
SPLINE
  5
148
100
AcDbEntity
  8
0
 62
7
100
AcDbSpline
 70
8
 71
3
 72
8
 73
4
 74
0
 40
0
 40
0
 40
0
 40
0
 40
1
 40
1
 40
1
 40
1
 10
47.612983
 20
258.625111
 30
0.0
 10
45.831165
 20
258.626645
 30
0.0
 10
41.864714
 20
259.311704
 30
0.0
 10
40.081279
 20
259.925949
 30
0.0
  0
SPLINE
  5
149
100
AcDbEntity
  8
0
 62
7
100
AcDbSpline
 70
8
 71
3
 72
8
 73
4
 74
0
 40
0
 40
0
 40
0
 40
0
 40
1
 40
1
 40
1
 40
1
 10
40.081279
 20
259.925949
 30
0.0
 10
38.158380
 20
260.588228
 30
0.0
 10
35.800895
 20
261.849421
 30
0.0
 10
34.597869
 20
262.859430
 30
0.0
  0
LWPOLYLINE
  5
14a
100
AcDbEntity
  8
0
 62
7
100
AcDbPolyline
 90
3
 70
0
 10
16.581684
 20
263.651130
 30
0.0
 10
32.167581
 20
263.651130
 30
0.0
 10
33.396349
 20
262.284445
 30
0.0
  0
SPLINE
  5
14b
100
AcDbEntity
  8
0
 62
7
100
AcDbSpline
 70
8
 71
3
 72
8
 73
4
 74
0
 40
0
 40
0
 40
0
 40
0
 40
1
 40
1
 40
1
 40
1
 10
66.464156
 20
262.262067
 30
0.0
 10
67.907858
 20
260.612432
 30
0.0
 10
69.571656
 20
257.313403
 30
0.0
 10
70.167045
 20
254.919880
 30
0.0
  0
SPLINE
  5
14c
100
AcDbEntity
  8
0
 62
7
100
AcDbSpline
 70
8
 71
3
 72
8
 73
4
 74
0
 40
0
 40
0
 40
0
 40
0
 40
1
 40
1
 40
1
 40
1
 10
70.167045
 20
254.919880
 30
0.0
 10
70.402331
 20
253.973994
 30
0.0
 10
70.728470
 20
251.920166
 30
0.0
 10
70.891794
 20
250.355817
 30
0.0
  0
SPLINE
  5
14d
100
AcDbEntity
  8
0
 62
7
100
AcDbSpline
 70
8
 71
3
 72
8
 73
4
 74
0
 40
0
 40
0
 40
0
 40
0
 40
1
 40
1
 40
1
 40
1
 10
70.891794
 20
250.355817
 30
0.0
 10
71.055116
 20
248.791468
 30
0.0
 10
71.271535
 20
247.511546
 30
0.0
 10
71.372719
 20
247.511546
 30
0.0
  0
SPLINE
  5
14e
100
AcDbEntity
  8
0
 62
7
100
AcDbSpline
 70
8
 71
3
 72
8
 73
4
 74
0
 40
0
 40
0
 40
0
 40
0
 40
1
 40
1
 40
1
 40
1
 10
71.372719
 20
247.511546
 30
0.0
 10
71.845241
 20
247.511546
 30
0.0
 10
74.708298
 20
248.623034
 30
0.0
 10
75.883823
 20
249.262836
 30
0.0
  0
SPLINE
  5
14f
100
AcDbEntity
  8
0
 62
7
100
AcDbSpline
 70
8
 71
3
 72
8
 73
4
 74
0
 40
0
 40
0
 40
0
 40
0
 40
1
 40
1
 40
1
 40
1
 10
75.883823
 20
249.262836
 30
0.0
 10
78.626877
 20
250.755793
 30
0.0
 10
81.375168
 20
254.554474
 30
0.0
 10
81.846994
 20
257.505117
 30
0.0
  0
LWPOLYLINE
  5
150
100
AcDbEntity
  8
0
 62
7
100
AcDbPolyline
 90
5
 70
0
 10
34.597869
 20
262.859430
 30
0.0
 10
33.671827
 20
263.636895
 30
0.0
 10
49.460163
 20
263.644012
 30
0.0
 10
65.248502
 20
263.651130
 30
0.0
 10
66.464156
 20
262.262067
 30
0.0
  0
SPLINE
  5
151
100
AcDbEntity
  8
0
 62
7
100
AcDbSpline
 70
8
 71
3
 72
8
 73
4
 74
0
 40
0
 40
0
 40
0
 40
0
 40
1
 40
1
 40
1
 40
1
 10
79.501579
 20
258.718631
 30
0.0
 10
78.120441
 20
258.815719
 30
0.0
 10
76.054344
 20
259.131115
 30
0.0
 10
74.910294
 20
259.419512
 30
0.0
  0
SPLINE
  5
152
100
AcDbEntity
  8
0
 62
7
100
AcDbSpline
 70
8
 71
3
 72
8
 73
4
 74
0
 40
0
 40
0
 40
0
 40
0
 40
1
 40
1
 40
1
 40
1
 10
74.910294
 20
259.419512
 30
0.0
 10
72.549986
 20
260.014509
 30
0.0
 10
69.047236
 20
261.672848
 30
0.0
 10
67.670828
 20
262.846958
 30
0.0
  0
LWPOLYLINE
  5
153
100
AcDbEntity
  8
0
 62
7
100
AcDbPolyline
 90
3
 70
0
 10
81.846994
 20
257.505117
 30
0.0
 10
82.012816
 20
258.542108
 30
0.0
 10
79.501579
 20
258.718631
 30
0.0
  0
SPLINE
  5
154
100
AcDbEntity
  8
0
 62
7
100
AcDbSpline
 70
8
 71
3
 72
8
 73
4
 74
0
 40
0
 40
0
 40
0
 40
0
 40
1
 40
1
 40
1
 40
1
 10
99.530104
 20
262.269468
 30
0.0
 10
101.891634
 20
259.569883
 30
0.0
 10
103.396881
 20
255.535987
 30
0.0
 10
103.938864
 20
250.454480
 30
0.0
  0
SPLINE
  5
155
100
AcDbEntity
  8
0
 62
7
100
AcDbSpline
 70
8
 71
3
 72
8
 73
4
 74
0
 40
0
 40
0
 40
0
 40
0
 40
1
 40
1
 40
1
 40
1
 10
103.938864
 20
250.454480
 30
0.0
 10
104.103739
 20
248.908628
 30
0.0
 10
104.265476
 20
247.614477
 30
0.0
 10
104.298279
 20
247.578592
 30
0.0
  0
SPLINE
  5
156
100
AcDbEntity
  8
0
 62
7
100
AcDbSpline
 70
8
 71
3
 72
8
 73
4
 74
0
 40
0
 40
0
 40
0
 40
0
 40
1
 40
1
 40
1
 40
1
 10
104.298279
 20
247.578592
 30
0.0
 10
104.331082
 20
247.542704
 30
0.0
 10
105.003245
 20
247.704811
 30
0.0
 10
105.791979
 20
247.938827
 30
0.0
  0
SPLINE
  5
157
100
AcDbEntity
  8
0
 62
7
100
AcDbSpline
 70
8
 71
3
 72
8
 73
4
 74
0
 40
0
 40
0
 40
0
 40
0
 40
1
 40
1
 40
1
 40
1
 10
105.791979
 20
247.938827
 30
0.0
 10
109.996803
 20
249.186393
 30
0.0
 10
112.868157
 20
251.830999
 30
0.0
 10
114.380613
 20
255.849222
 30
0.0
  0
SPLINE
  5
158
100
AcDbEntity
  8
0
 62
7
100
AcDbSpline
 70
8
 71
3
 72
8
 73
4
 74
0
 40
0
 40
0
 40
0
 40
0
 40
1
 40
1
 40
1
 40
1
 10
114.380613
 20
255.849222
 30
0.0
 10
115.402389
 20
258.563835
 30
0.0
 10
115.431504
 20
258.517520
 30
0.0
 10
112.583849
 20
258.707590
 30
0.0
  0
SPLINE
  5
159
100
AcDbEntity
  8
0
 62
7
100
AcDbSpline
 70
8
 71
3
 72
8
 73
4
 74
0
 40
0
 40
0
 40
0
 40
0
 40
1
 40
1
 40
1
 40
1
 10
112.583849
 20
258.707590
 30
0.0
 10
111.237781
 20
258.797436
 30
0.0
 10
109.183953
 20
259.112354
 30
0.0
 10
108.019787
 20
259.407408
 30
0.0
  0
SPLINE
  5
15a
100
AcDbEntity
  8
0
 62
7
100
AcDbSpline
 70
8
 71
3
 72
8
 73
4
 74
0
 40
0
 40
0
 40
0
 40
0
 40
1
 40
1
 40
1
 40
1
 10
108.019787
 20
259.407408
 30
0.0
 10
105.624212
 20
260.014559
 30
0.0
 10
102.124992
 20
261.668719
 30
0.0
 10
100.743745
 20
262.846958
 30
0.0
  0
LWPOLYLINE
  5
15b
100
AcDbEntity
  8
0
 62
7
100
AcDbPolyline
 90
5
 70
0
 10
67.670828
 20
262.846958
 30
0.0
 10
66.744787
 20
263.636895
 30
0.0
 10
82.533122
 20
263.644012
 30
0.0
 10
98.321461
 20
263.651130
 30
0.0
 10
99.530104
 20
262.269468
 30
0.0
  0
SPLINE
  5
15c
100
AcDbEntity
  8
0
 62
7
100
AcDbSpline
 70
8
 71
3
 72
8
 73
4
 74
0
 40
0
 40
0
 40
0
 40
0
 40
1
 40
1
 40
1
 40
1
 10
115.585550
 20
263.644012
 30
0.0
 10
130.530243
 20
263.650759
 30
0.0
 10
131.376256
 20
263.625869
 30
0.0
 10
131.791279
 20
263.167275
 30
0.0
  0
SPLINE
  5
15d
100
AcDbEntity
  8
0
 62
7
100
AcDbSpline
 70
8
 71
3
 72
8
 73
4
 74
0
 40
0
 40
0
 40
0
 40
0
 40
1
 40
1
 40
1
 40
1
 10
131.791279
 20
263.167275
 30
0.0
 10
132.188566
 20
262.728279
 30
0.0
 10
132.228503
 20
261.225838
 30
0.0
 10
132.222044
 20
246.961546
 30
0.0
  0
LWPOLYLINE
  5
15e
100
AcDbEntity
  8
0
 62
7
100
AcDbPolyline
 90
3
 70
0
 10
100.743745
 20
262.846958
 30
0.0
 10
99.817703
 20
263.636894
 30
0.0
 10
115.585550
 20
263.644012
 30
0.0
  0
SPLINE
  5
15f
100
AcDbEntity
  8
0
 62
7
100
AcDbSpline
 70
8
 71
3
 72
8
 73
4
 74
0
 40
0
 40
0
 40
0
 40
0
 40
1
 40
1
 40
1
 40
1
 10
131.422323
 20
232.165713
 30
0.0
 10
129.364669
 20
234.569775
 30
0.0
 10
127.674590
 20
239.490932
 30
0.0
 10
127.310626
 20
244.138108
 30
0.0
  0
SPLINE
  5
160
100
AcDbEntity
  8
0
 62
7
100
AcDbSpline
 70
8
 71
3
 72
8
 73
4
 74
0
 40
0
 40
0
 40
0
 40
0
 40
1
 40
1
 40
1
 40
1
 10
127.310626
 20
244.138108
 30
0.0
 10
127.190770
 20
245.668445
 30
0.0
 10
127.021151
 20
246.453213
 30
0.0
 10
126.810238
 20
246.453213
 30
0.0
  0
SPLINE
  5
161
100
AcDbEntity
  8
0
 62
7
100
AcDbSpline
 70
8
 71
3
 72
8
 73
4
 74
0
 40
0
 40
0
 40
0
 40
0
 40
1
 40
1
 40
1
 40
1
 10
126.810238
 20
246.453213
 30
0.0
 10
126.195497
 20
246.453213
 30
0.0
 10
123.397013
 20
245.386032
 30
0.0
 10
122.251769
 20
244.714874
 30
0.0
  0
SPLINE
  5
162
100
AcDbEntity
  8
0
 62
7
100
AcDbSpline
 70
8
 71
3
 72
8
 73
4
 74
0
 40
0
 40
0
 40
0
 40
0
 40
1
 40
1
 40
1
 40
1
 10
122.251769
 20
244.714874
 30
0.0
 10
120.553681
 20
243.719728
 30
0.0
 10
119.423699
 20
242.646665
 30
0.0
 10
118.315134
 20
240.976541
 30
0.0
  0
SPLINE
  5
163
100
AcDbEntity
  8
0
 62
7
100
AcDbSpline
 70
8
 71
3
 72
8
 73
4
 74
0
 40
0
 40
0
 40
0
 40
0
 40
1
 40
1
 40
1
 40
1
 10
118.315134
 20
240.976541
 30
0.0
 10
117.366902
 20
239.547971
 30
0.0
 10
116.008650
 20
235.950294
 30
0.0
 10
116.262486
 20
235.539579
 30
0.0
  0
SPLINE
  5
164
100
AcDbEntity
  8
0
 62
7
100
AcDbSpline
 70
8
 71
3
 72
8
 73
4
 74
0
 40
0
 40
0
 40
0
 40
0
 40
1
 40
1
 40
1
 40
1
 10
116.262486
 20
235.539579
 30
0.0
 10
116.330084
 20
235.430203
 30
0.0
 10
117.077143
 20
235.340713
 30
0.0
 10
117.922619
 20
235.340713
 30
0.0
  0
SPLINE
  5
165
100
AcDbEntity
  8
0
 62
7
100
AcDbSpline
 70
8
 71
3
 72
8
 73
4
 74
0
 40
0
 40
0
 40
0
 40
0
 40
1
 40
1
 40
1
 40
1
 10
117.922619
 20
235.340713
 30
0.0
 10
122.759168
 20
235.340713
 30
0.0
 10
128.422696
 20
233.301275
 30
0.0
 10
131.369266
 20
230.498571
 30
0.0
  0
LWPOLYLINE
  5
166
100
AcDbEntity
  8
0
 62
7
100
AcDbPolyline
 90
3
 70
0
 10
132.222044
 20
246.961546
 30
0.0
 10
132.214927
 20
231.239671
 30
0.0
 10
131.422323
 20
232.165713
 30
0.0
  0
SPLINE
  5
167
100
AcDbEntity
  8
0
 62
7
100
AcDbSpline
 70
8
 71
3
 72
8
 73
4
 74
0
 40
0
 40
0
 40
0
 40
0
 40
1
 40
1
 40
1
 40
1
 10
131.433610
 20
199.092796
 30
0.0
 10
130.380841
 20
200.340574
 30
0.0
 10
128.651355
 20
203.888657
 30
0.0
 10
128.144897
 20
205.839671
 30
0.0
  0
SPLINE
  5
168
100
AcDbEntity
  8
0
 62
7
100
AcDbSpline
 70
8
 71
3
 72
8
 73
4
 74
0
 40
0
 40
0
 40
0
 40
0
 40
1
 40
1
 40
1
 40
1
 10
128.144897
 20
205.839671
 30
0.0
 10
127.918247
 20
206.712796
 30
0.0
 10
127.586684
 20
208.774866
 30
0.0
 10
127.408096
 20
210.422045
 30
0.0
  0
LWPOLYLINE
  5
169
100
AcDbEntity
  8
0
 62
7
100
AcDbPolyline
 90
5
 70
0
 10
131.369266
 20
230.498571
 30
0.0
 10
132.229162
 20
229.680659
 30
0.0
 10
132.222044
 20
213.923705
 30
0.0
 10
132.214927
 20
198.166755
 30
0.0
 10
131.433610
 20
199.092796
 30
0.0
  0
SPLINE
  5
16a
100
AcDbEntity
  8
0
 62
7
100
AcDbSpline
 70
8
 71
3
 72
8
 73
4
 74
0
 40
0
 40
0
 40
0
 40
0
 40
1
 40
1
 40
1
 40
1
 10
126.150547
 20
213.252158
 30
0.0
 10
124.658184
 20
212.988570
 30
0.0
 10
121.618145
 20
211.430039
 30
0.0
 10
120.286989
 20
210.246100
 30
0.0
  0
SPLINE
  5
16b
100
AcDbEntity
  8
0
 62
7
100
AcDbSpline
 70
8
 71
3
 72
8
 73
4
 74
0
 40
0
 40
0
 40
0
 40
0
 40
1
 40
1
 40
1
 40
1
 10
120.286989
 20
210.246100
 30
0.0
 10
119.612389
 20
209.646105
 30
0.0
 10
118.678484
 20
208.559966
 30
0.0
 10
118.211642
 20
207.832457
 30
0.0
  0
SPLINE
  5
16c
100
AcDbEntity
  8
0
 62
7
100
AcDbSpline
 70
8
 71
3
 72
8
 73
4
 74
0
 40
0
 40
0
 40
0
 40
0
 40
1
 40
1
 40
1
 40
1
 10
118.211642
 20
207.832457
 30
0.0
 10
117.400583
 20
206.568532
 30
0.0
 10
115.958578
 20
202.839770
 30
0.0
 10
116.190972
 20
202.607373
 30
0.0
  0
SPLINE
  5
16d
100
AcDbEntity
  8
0
 62
7
100
AcDbSpline
 70
8
 71
3
 72
8
 73
4
 74
0
 40
0
 40
0
 40
0
 40
0
 40
1
 40
1
 40
1
 40
1
 10
116.190972
 20
202.607373
 30
0.0
 10
116.251953
 20
202.546392
 30
0.0
 10
117.534010
 20
202.380802
 30
0.0
 10
119.039984
 20
202.239396
 30
0.0
  0
SPLINE
  5
16e
100
AcDbEntity
  8
0
 62
7
100
AcDbSpline
 70
8
 71
3
 72
8
 73
4
 74
0
 40
0
 40
0
 40
0
 40
0
 40
1
 40
1
 40
1
 40
1
 10
119.039984
 20
202.239396
 30
0.0
 10
122.062901
 20
201.955551
 30
0.0
 10
124.181410
 20
201.473554
 30
0.0
 10
126.440234
 20
200.555712
 30
0.0
  0
SPLINE
  5
16f
100
AcDbEntity
  8
0
 62
7
100
AcDbSpline
 70
8
 71
3
 72
8
 73
4
 74
0
 40
0
 40
0
 40
0
 40
0
 40
1
 40
1
 40
1
 40
1
 10
126.440234
 20
200.555712
 30
0.0
 10
128.085839
 20
199.887041
 30
0.0
 10
130.706572
 20
198.186717
 30
0.0
 10
131.635966
 20
197.184732
 30
0.0
  0
LWPOLYLINE
  5
170
100
AcDbEntity
  8
0
 62
7
100
AcDbPolyline
 90
3
 70
0
 10
127.408096
 20
210.422045
 30
0.0
 10
127.083391
 20
213.416922
 30
0.0
 10
126.150547
 20
213.252158
 30
0.0
  0
SPLINE
  5
171
100
AcDbEntity
  8
0
 62
7
100
AcDbSpline
 70
8
 71
3
 72
8
 73
4
 74
0
 40
0
 40
0
 40
0
 40
0
 40
1
 40
1
 40
1
 40
1
 10
130.961821
 20
166.764883
 30
0.0
 10
128.879335
 20
169.733815
 30
0.0
 10
127.652844
 20
173.509234
 30
0.0
 10
127.305260
 20
178.020618
 30
0.0
  0
LWPOLYLINE
  5
172
100
AcDbEntity
  8
0
 62
7
100
AcDbPolyline
 90
5
 70
0
 10
131.635966
 20
197.184732
 30
0.0
 10
132.233395
 20
196.540641
 30
0.0
 10
132.165132
 20
180.843663
 30
0.0
 10
132.096870
 20
165.146686
 30
0.0
 10
130.961821
 20
166.764883
 30
0.0
  0
SPLINE
  5
173
100
AcDbEntity
  8
0
 62
7
100
AcDbSpline
 70
8
 71
3
 72
8
 73
4
 74
0
 40
0
 40
0
 40
0
 40
0
 40
1
 40
1
 40
1
 40
1
 10
126.196598
 20
180.213450
 30
0.0
 10
124.708634
 20
179.971986
 30
0.0
 10
121.516346
 20
178.326142
 30
0.0
 10
120.222195
 20
177.133237
 30
0.0
  0
SPLINE
  5
174
100
AcDbEntity
  8
0
 62
7
100
AcDbSpline
 70
8
 71
3
 72
8
 73
4
 74
0
 40
0
 40
0
 40
0
 40
0
 40
1
 40
1
 40
1
 40
1
 10
120.222195
 20
177.133237
 30
0.0
 10
118.645281
 20
175.679687
 30
0.0
 10
117.505869
 20
173.859555
 30
0.0
 10
116.721469
 20
171.541064
 30
0.0
  0
SPLINE
  5
175
100
AcDbEntity
  8
0
 62
7
100
AcDbSpline
 70
8
 71
3
 72
8
 73
4
 74
0
 40
0
 40
0
 40
0
 40
0
 40
1
 40
1
 40
1
 40
1
 10
116.721469
 20
171.541064
 30
0.0
 10
116.368714
 20
170.498413
 30
0.0
 10
116.111996
 20
169.615956
 30
0.0
 10
116.150983
 20
169.580052
 30
0.0
  0
SPLINE
  5
176
100
AcDbEntity
  8
0
 62
7
100
AcDbSpline
 70
8
 71
3
 72
8
 73
4
 74
0
 40
0
 40
0
 40
0
 40
0
 40
1
 40
1
 40
1
 40
1
 10
116.150983
 20
169.580052
 30
0.0
 10
116.189972
 20
169.544151
 30
0.0
 10
117.508168
 20
169.377558
 30
0.0
 10
119.080312
 20
169.209850
 30
0.0
  0
SPLINE
  5
177
100
AcDbEntity
  8
0
 62
7
100
AcDbSpline
 70
8
 71
3
 72
8
 73
4
 74
0
 40
0
 40
0
 40
0
 40
0
 40
1
 40
1
 40
1
 40
1
 10
119.080312
 20
169.209850
 30
0.0
 10
124.284229
 20
168.654727
 30
0.0
 10
128.224420
 20
167.163388
 30
0.0
 10
130.894116
 20
164.738397
 30
0.0
  0
LWPOLYLINE
  5
178
100
AcDbEntity
  8
0
 62
7
100
AcDbPolyline
 90
3
 70
0
 10
127.305260
 20
178.020618
 30
0.0
 10
127.124709
 20
180.364061
 30
0.0
 10
126.196598
 20
180.213450
 30
0.0
  0
SPLINE
  5
179
100
AcDbEntity
  8
0
 62
7
100
AcDbSpline
 70
8
 71
3
 72
8
 73
4
 74
0
 40
0
 40
0
 40
0
 40
0
 40
1
 40
1
 40
1
 40
1
 10
130.699357
 20
134.137588
 30
0.0
 10
128.906214
 20
136.853472
 30
0.0
 10
127.845211
 20
140.096777
 30
0.0
 10
127.410427
 20
144.191281
 30
0.0
  0
SPLINE
  5
17a
100
AcDbEntity
  8
0
 62
7
100
AcDbSpline
 70
8
 71
3
 72
8
 73
4
 74
0
 40
0
 40
0
 40
0
 40
0
 40
1
 40
1
 40
1
 40
1
 10
127.410427
 20
144.191281
 30
0.0
 10
127.037907
 20
147.699434
 30
0.0
 10
127.150733
 20
147.608946
 30
0.0
 10
124.427253
 20
146.583831
 30
0.0
  0
SPLINE
  5
17b
100
AcDbEntity
  8
0
 62
7
100
AcDbSpline
 70
8
 71
3
 72
8
 73
4
 74
0
 40
0
 40
0
 40
0
 40
0
 40
1
 40
1
 40
1
 40
1
 10
124.427253
 20
146.583831
 30
0.0
 10
120.506220
 20
145.107956
 30
0.0
 10
117.988681
 20
142.417139
 30
0.0
 10
116.640171
 20
138.260778
 30
0.0
  0
SPLINE
  5
17c
100
AcDbEntity
  8
0
 62
7
100
AcDbSpline
 70
8
 71
3
 72
8
 73
4
 74
0
 40
0
 40
0
 40
0
 40
0
 40
1
 40
1
 40
1
 40
1
 10
116.640171
 20
138.260778
 30
0.0
 10
116.337236
 20
137.327074
 30
0.0
 10
116.119190
 20
136.541769
 30
0.0
 10
116.155626
 20
136.515655
 30
0.0
  0
SPLINE
  5
17d
100
AcDbEntity
  8
0
 62
7
100
AcDbSpline
 70
8
 71
3
 72
8
 73
4
 74
0
 40
0
 40
0
 40
0
 40
0
 40
1
 40
1
 40
1
 40
1
 10
116.155626
 20
136.515655
 30
0.0
 10
116.192059
 20
136.489541
 30
0.0
 10
117.534116
 20
136.330126
 30
0.0
 10
119.137972
 20
136.161394
 30
0.0
  0
SPLINE
  5
17e
100
AcDbEntity
  8
0
 62
7
100
AcDbSpline
 70
8
 71
3
 72
8
 73
4
 74
0
 40
0
 40
0
 40
0
 40
0
 40
1
 40
1
 40
1
 40
1
 10
119.137972
 20
136.161394
 30
0.0
 10
124.236835
 20
135.624975
 30
0.0
 10
128.353293
 20
134.057416
 30
0.0
 10
130.909772
 20
131.678664
 30
0.0
  0
LWPOLYLINE
  5
17f
100
AcDbEntity
  8
0
 62
7
100
AcDbPolyline
 90
5
 70
0
 10
130.894116
 20
164.738397
 30
0.0
 10
132.250503
 20
163.506338
 30
0.0
 10
132.173686
 20
147.763630
 30
0.0
 10
132.096870
 20
132.020921
 30
0.0
 10
130.699357
 20
134.137588
 30
0.0
  0
SPLINE
  5
180
100
AcDbEntity
  8
0
 62
7
100
AcDbSpline
 70
8
 71
3
 72
8
 73
4
 74
0
 40
0
 40
0
 40
0
 40
0
 40
1
 40
1
 40
1
 40
1
 10
130.870426
 20
100.800088
 30
0.0
 10
128.728623
 20
104.034479
 30
0.0
 10
127.644845
 20
107.406601
 30
0.0
 10
127.318566
 20
111.851530
 30
0.0
  0
LWPOLYLINE
  5
181
100
AcDbEntity
  8
0
 62
7
100
AcDbPolyline
 90
5
 70
0
 10
130.909772
 20
131.678664
 30
0.0
 10
132.248053
 20
130.433421
 30
0.0
 10
132.172461
 20
114.690713
 30
0.0
 10
132.096870
 20
98.948005
 30
0.0
 10
130.870426
 20
100.800088
 30
0.0
  0
SPLINE
  5
182
100
AcDbEntity
  8
0
 62
7
100
AcDbSpline
 70
8
 71
3
 72
8
 73
4
 74
0
 40
0
 40
0
 40
0
 40
0
 40
1
 40
1
 40
1
 40
1
 10
125.813831
 20
114.012020
 30
0.0
 10
123.483161
 20
113.397202
 30
0.0
 10
121.581868
 20
112.284150
 30
0.0
 10
119.774851
 20
110.476694
 30
0.0
  0
SPLINE
  5
183
100
AcDbEntity
  8
0
 62
7
100
AcDbSpline
 70
8
 71
3
 72
8
 73
4
 74
0
 40
0
 40
0
 40
0
 40
0
 40
1
 40
1
 40
1
 40
1
 10
119.774851
 20
110.476694
 30
0.0
 10
118.396734
 20
109.098241
 30
0.0
 10
117.868647
 20
108.326071
 30
0.0
 10
117.228374
 20
106.753213
 30
0.0
  0
SPLINE
  5
184
100
AcDbEntity
  8
0
 62
7
100
AcDbSpline
 70
8
 71
3
 72
8
 73
4
 74
0
 40
0
 40
0
 40
0
 40
0
 40
1
 40
1
 40
1
 40
1
 10
117.228374
 20
106.753213
 30
0.0
 10
116.784086
 20
105.661807
 30
0.0
 10
116.346991
 20
104.453986
 30
0.0
 10
116.257049
 20
104.069166
 30
0.0
  0
LWPOLYLINE
  5
185
100
AcDbEntity
  8
0
 62
7
100
AcDbPolyline
 90
3
 70
0
 10
127.318566
 20
111.851530
 30
0.0
 10
127.134403
 20
114.360381
 30
0.0
 10
125.813831
 20
114.012020
 30
0.0
  0
SPLINE
  5
186
100
AcDbEntity
  8
0
 62
7
100
AcDbSpline
 70
8
 71
3
 72
8
 73
4
 74
0
 40
0
 40
0
 40
0
 40
0
 40
1
 40
1
 40
1
 40
1
 10
118.538945
 20
103.179806
 30
0.0
 10
123.582639
 20
102.788567
 30
0.0
 10
128.132493
 20
101.127015
 30
0.0
 10
130.849603
 20
98.684101
 30
0.0
  0
LWPOLYLINE
  5
187
100
AcDbEntity
  8
0
 62
7
100
AcDbPolyline
 90
3
 70
0
 10
116.257049
 20
104.069166
 30
0.0
 10
116.093518
 20
103.369496
 30
0.0
 10
118.538945
 20
103.179806
 30
0.0
  0
SPLINE
  5
188
100
AcDbEntity
  8
0
 62
7
100
AcDbSpline
 70
8
 71
3
 72
8
 73
4
 74
0
 40
0
 40
0
 40
0
 40
0
 40
1
 40
1
 40
1
 40
1
 10
131.546383
 20
66.821156
 30
0.0
 10
130.650514
 20
67.662774
 30
0.0
 10
128.630209
 20
71.801384
 30
0.0
 10
128.133441
 20
73.812588
 30
0.0
  0
SPLINE
  5
189
100
AcDbEntity
  8
0
 62
7
100
AcDbSpline
 70
8
 71
3
 72
8
 73
4
 74
0
 40
0
 40
0
 40
0
 40
0
 40
1
 40
1
 40
1
 40
1
 10
128.133441
 20
73.812588
 30
0.0
 10
127.640374
 20
75.808816
 30
0.0
 10
127.214156
 20
78.761624
 30
0.0
 10
127.207320
 20
80.228734
 30
0.0
  0
SPLINE
  5
18a
100
AcDbEntity
  8
0
 62
7
100
AcDbSpline
 70
8
 71
3
 72
8
 73
4
 74
0
 40
0
 40
0
 40
0
 40
0
 40
1
 40
1
 40
1
 40
1
 10
127.207320
 20
80.228734
 30
0.0
 10
127.204436
 20
80.847197
 30
0.0
 10
127.164158
 20
81.353213
 30
0.0
 10
127.117808
 20
81.353213
 30
0.0
  0
SPLINE
  5
18b
100
AcDbEntity
  8
0
 62
7
100
AcDbSpline
 70
8
 71
3
 72
8
 73
4
 74
0
 40
0
 40
0
 40
0
 40
0
 40
1
 40
1
 40
1
 40
1
 10
127.117808
 20
81.353213
 30
0.0
 10
127.071461
 20
81.353213
 30
0.0
 10
126.386852
 20
81.161340
 30
0.0
 10
125.596454
 20
80.926832
 30
0.0
  0
SPLINE
  5
18c
100
AcDbEntity
  8
0
 62
7
100
AcDbSpline
 70
8
 71
3
 72
8
 73
4
 74
0
 40
0
 40
0
 40
0
 40
0
 40
1
 40
1
 40
1
 40
1
 10
125.596454
 20
80.926832
 30
0.0
 10
121.075220
 20
79.585383
 30
0.0
 10
117.832968
 20
76.344656
 30
0.0
 10
116.511689
 20
71.846337
 30
0.0
  0
SPLINE
  5
18d
100
AcDbEntity
  8
0
 62
7
100
AcDbSpline
 70
8
 71
3
 72
8
 73
4
 74
0
 40
0
 40
0
 40
0
 40
0
 40
1
 40
1
 40
1
 40
1
 10
116.511689
 20
71.846337
 30
0.0
 10
116.279528
 20
71.055939
 30
0.0
 10
116.089578
 20
70.388414
 30
0.0
 10
116.089578
 20
70.362945
 30
0.0
  0
SPLINE
  5
18e
100
AcDbEntity
  8
0
 62
7
100
AcDbSpline
 70
8
 71
3
 72
8
 73
4
 74
0
 40
0
 40
0
 40
0
 40
0
 40
1
 40
1
 40
1
 40
1
 10
116.089578
 20
70.362945
 30
0.0
 10
116.089578
 20
70.337466
 30
0.0
 10
117.131375
 20
70.236916
 30
0.0
 10
118.404682
 20
70.139478
 30
0.0
  0
SPLINE
  5
18f
100
AcDbEntity
  8
0
 62
7
100
AcDbSpline
 70
8
 71
3
 72
8
 73
4
 74
0
 40
0
 40
0
 40
0
 40
0
 40
1
 40
1
 40
1
 40
1
 10
118.404682
 20
70.139478
 30
0.0
 10
123.904359
 20
69.718624
 30
0.0
 10
128.285931
 20
68.071251
 30
0.0
 10
131.369266
 20
65.265083
 30
0.0
  0
LWPOLYLINE
  5
190
100
AcDbEntity
  8
0
 62
7
100
AcDbPolyline
 90
5
 70
0
 10
130.849603
 20
98.684101
 30
0.0
 10
132.229162
 20
97.443758
 30
0.0
 10
132.229162
 20
81.811741
 30
0.0
 10
132.229162
 20
66.179721
 30
0.0
 10
131.546383
 20
66.821156
 30
0.0
  0
SPLINE
  5
191
100
AcDbEntity
  8
0
 62
7
100
AcDbSpline
 70
8
 71
3
 72
8
 73
4
 74
0
 40
0
 40
0
 40
0
 40
0
 40
1
 40
1
 40
1
 40
1
 10
131.395705
 20
33.992796
 30
0.0
 10
129.173518
 20
36.527168
 30
0.0
 10
127.228304
 20
42.642846
 30
0.0
 10
127.207341
 20
47.160857
 30
0.0
  0
SPLINE
  5
192
100
AcDbEntity
  8
0
 62
7
100
AcDbSpline
 70
8
 71
3
 72
8
 73
4
 74
0
 40
0
 40
0
 40
0
 40
0
 40
1
 40
1
 40
1
 40
1
 10
127.207341
 20
47.160857
 30
0.0
 10
127.202261
 20
48.257899
 30
0.0
 10
127.181173
 20
48.285392
 30
0.0
 10
126.474495
 20
48.116945
 30
0.0
  0
SPLINE
  5
193
100
AcDbEntity
  8
0
 62
7
100
AcDbSpline
 70
8
 71
3
 72
8
 73
4
 74
0
 40
0
 40
0
 40
0
 40
0
 40
1
 40
1
 40
1
 40
1
 10
126.474495
 20
48.116945
 30
0.0
 10
121.177672
 20
46.854390
 30
0.0
 10
117.514494
 20
43.201619
 30
0.0
 10
116.262669
 20
37.934125
 30
0.0
  0
LWPOLYLINE
  5
194
100
AcDbEntity
  8
0
 62
7
100
AcDbPolyline
 90
5
 70
0
 10
131.369266
 20
65.265083
 30
0.0
 10
132.229162
 20
64.482485
 30
0.0
 10
132.218419
 20
48.774620
 30
0.0
 10
132.207677
 20
33.066755
 30
0.0
 10
131.395705
 20
33.992796
 30
0.0
  0
SPLINE
  5
195
100
AcDbEntity
  8
0
 62
7
100
AcDbSpline
 70
8
 71
3
 72
8
 73
4
 74
0
 40
0
 40
0
 40
0
 40
0
 40
1
 40
1
 40
1
 40
1
 10
118.541673
 20
37.072014
 30
0.0
 10
123.445159
 20
36.724280
 30
0.0
 10
127.615061
 20
35.263672
 30
0.0
 10
130.707829
 20
32.810527
 30
0.0
  0
LWPOLYLINE
  5
196
100
AcDbEntity
  8
0
 62
7
100
AcDbPolyline
 90
3
 70
0
 10
116.262669
 20
37.934125
 30
0.0
 10
116.098955
 20
37.245242
 30
0.0
 10
118.541673
 20
37.072014
 30
0.0
  0
SPLINE
  5
197
100
AcDbEntity
  8
0
 62
7
100
AcDbSpline
 70
8
 71
3
 72
8
 73
4
 74
0
 40
0
 40
0
 40
0
 40
0
 40
1
 40
1
 40
1
 40
1
 10
131.409657
 20
0.919882
 30
0.0
 10
129.145186
 20
3.547565
 30
0.0
 10
127.228484
 20
9.551331
 30
0.0
 10
127.207362
 20
14.082903
 30
0.0
  0
SPLINE
  5
198
100
AcDbEntity
  8
0
 62
7
100
AcDbSpline
 70
8
 71
3
 72
8
 73
4
 74
0
 40
0
 40
0
 40
0
 40
0
 40
1
 40
1
 40
1
 40
1
 10
127.207362
 20
14.082903
 30
0.0
 10
127.201435
 20
15.355575
 30
0.0
 10
127.246676
 20
15.335599
 30
0.0
 10
125.542175
 20
14.818392
 30
0.0
  0
SPLINE
  5
199
100
AcDbEntity
  8
0
 62
7
100
AcDbSpline
 70
8
 71
3
 72
8
 73
4
 74
0
 40
0
 40
0
 40
0
 40
0
 40
1
 40
1
 40
1
 40
1
 10
125.542175
 20
14.818392
 30
0.0
 10
123.795152
 20
14.288299
 30
0.0
 10
121.819509
 20
13.262562
 30
0.0
 10
120.567773
 20
12.235741
 30
0.0
  0
SPLINE
  5
19a
100
AcDbEntity
  8
0
 62
7
100
AcDbSpline
 70
8
 71
3
 72
8
 73
4
 74
0
 40
0
 40
0
 40
0
 40
0
 40
1
 40
1
 40
1
 40
1
 10
120.567773
 20
12.235741
 30
0.0
 10
118.746675
 20
10.741877
 30
0.0
 10
116.923005
 20
7.617386
 30
0.0
 10
116.263973
 20
4.862068
 30
0.0
  0
LWPOLYLINE
  5
19b
100
AcDbEntity
  8
0
 62
7
100
AcDbPolyline
 90
5
 70
0
 10
130.707829
 20
32.810527
 30
0.0
 10
132.229183
 20
31.603807
 30
0.0
 10
132.218441
 20
15.798832
 30
0.0
 10
132.207699
 20
-0.006165
 30
0.0
 10
131.409657
 20
0.919882
 30
0.0
  0
SPLINE
  5
19c
100
AcDbEntity
  8
0
 62
7
100
AcDbSpline
 70
8
 71
3
 72
8
 73
4
 74
0
 40
0
 40
0
 40
0
 40
0
 40
1
 40
1
 40
1
 40
1
 10
118.600381
 20
4.009766
 30
0.0
 10
123.141079
 20
3.711501
 30
0.0
 10
127.846534
 20
2.108073
 30
0.0
 10
130.371204
 20
-0.001217
 30
0.0
  0
LWPOLYLINE
  5
19d
100
AcDbEntity
  8
0
 62
7
100
AcDbPolyline
 90
3
 70
0
 10
116.263973
 20
4.862068
 30
0.0
 10
116.099407
 20
4.174045
 30
0.0
 10
118.600381
 20
4.009766
 30
0.0
  0
SPLINE
  5
19e
100
AcDbEntity
  8
0
 62
7
100
AcDbSpline
 70
8
 71
3
 72
8
 73
4
 74
0
 40
0
 40
0
 40
0
 40
0
 40
1
 40
1
 40
1
 40
1
 10
98.763902
 20
0.456861
 30
0.0
 10
97.364026
 20
2.041398
 30
0.0
 10
95.681408
 20
5.332259
 30
0.0
 10
95.077478
 20
7.666757
 30
0.0
  0
SPLINE
  5
19f
100
AcDbEntity
  8
0
 62
7
100
AcDbSpline
 70
8
 71
3
 72
8
 73
4
 74
0
 40
0
 40
0
 40
0
 40
0
 40
1
 40
1
 40
1
 40
1
 10
95.077478
 20
7.666757
 30
0.0
 10
94.851601
 20
8.539882
 30
0.0
 10
94.527468
 20
10.563945
 30
0.0
 10
94.357182
 20
12.164674
 30
0.0
  0
SPLINE
  5
1a0
100
AcDbEntity
  8
0
 62
7
100
AcDbSpline
 70
8
 71
3
 72
8
 73
4
 74
0
 40
0
 40
0
 40
0
 40
0
 40
1
 40
1
 40
1
 40
1
 10
94.357182
 20
12.164674
 30
0.0
 10
94.186896
 20
13.765403
 30
0.0
 10
94.018150
 20
15.112952
 30
0.0
 10
93.982193
 20
15.159228
 30
0.0
  0
SPLINE
  5
1a1
100
AcDbEntity
  8
0
 62
7
100
AcDbSpline
 70
8
 71
3
 72
8
 73
4
 74
0
 40
0
 40
0
 40
0
 40
0
 40
1
 40
1
 40
1
 40
1
 10
93.982193
 20
15.159228
 30
0.0
 10
93.826251
 20
15.359941
 30
0.0
 10
91.072018
 20
14.366430
 30
0.0
 10
89.580455
 20
13.571437
 30
0.0
  0
SPLINE
  5
1a2
100
AcDbEntity
  8
0
 62
7
100
AcDbSpline
 70
8
 71
3
 72
8
 73
4
 74
0
 40
0
 40
0
 40
0
 40
0
 40
1
 40
1
 40
1
 40
1
 10
89.580455
 20
13.571437
 30
0.0
 10
87.562378
 20
12.495800
 30
0.0
 10
85.725987
 20
10.660623
 30
0.0
 10
84.668087
 20
8.662278
 30
0.0
  0
SPLINE
  5
1a3
100
AcDbEntity
  8
0
 62
7
100
AcDbSpline
 70
8
 71
3
 72
8
 73
4
 74
0
 40
0
 40
0
 40
0
 40
0
 40
1
 40
1
 40
1
 40
1
 10
84.668087
 20
8.662278
 30
0.0
 10
83.791190
 20
7.005854
 30
0.0
 10
82.965179
 20
4.499192
 30
0.0
 10
83.214186
 20
4.250166
 30
0.0
  0
SPLINE
  5
1a4
100
AcDbEntity
  8
0
 62
7
100
AcDbSpline
 70
8
 71
3
 72
8
 73
4
 74
0
 40
0
 40
0
 40
0
 40
0
 40
1
 40
1
 40
1
 40
1
 10
83.214186
 20
4.250166
 30
0.0
 10
83.299599
 20
4.164759
 30
0.0
 10
83.915184
 20
4.094406
 30
0.0
 10
84.582156
 20
4.093824
 30
0.0
  0
SPLINE
  5
1a5
100
AcDbEntity
  8
0
 62
7
100
AcDbSpline
 70
8
 71
3
 72
8
 73
4
 74
0
 40
0
 40
0
 40
0
 40
0
 40
1
 40
1
 40
1
 40
1
 10
84.582156
 20
4.093824
 30
0.0
 10
86.339040
 20
4.091178
 30
0.0
 10
90.313629
 20
3.403208
 30
0.0
 10
92.085377
 20
2.792973
 30
0.0
  0
SPLINE
  5
1a6
100
AcDbEntity
  8
0
 62
7
100
AcDbSpline
 70
8
 71
3
 72
8
 73
4
 74
0
 40
0
 40
0
 40
0
 40
0
 40
1
 40
1
 40
1
 40
1
 10
92.085377
 20
2.792973
 30
0.0
 10
94.008276
 20
2.130695
 30
0.0
 10
96.365761
 20
0.869505
 30
0.0
 10
97.568787
 20
-0.140520
 30
0.0
  0
LWPOLYLINE
  5
1a7
100
AcDbEntity
  8
0
 62
7
100
AcDbPolyline
 90
5
 70
0
 10
130.371204
 20
-0.001217
 30
0.0
 10
131.485521
 20
-0.932206
 30
0.0
 10
115.738296
 20
-0.932206
 30
0.0
 10
99.991071
 20
-0.932206
 30
0.0
 10
98.763902
 20
0.456861
 30
0.0
  0
SPLINE
  5
1a8
100
AcDbEntity
  8
0
 62
7
100
AcDbSpline
 70
8
 71
3
 72
8
 73
4
 74
0
 40
0
 40
0
 40
0
 40
0
 40
1
 40
1
 40
1
 40
1
 10
65.835861
 20
0.301763
 30
0.0
 10
63.164503
 20
3.336586
 30
0.0
 10
61.659905
 20
7.453979
 30
0.0
 10
61.186655
 20
13.024517
 30
0.0
  0
SPLINE
  5
1a9
100
AcDbEntity
  8
0
 62
7
100
AcDbSpline
 70
8
 71
3
 72
8
 73
4
 74
0
 40
0
 40
0
 40
0
 40
0
 40
1
 40
1
 40
1
 40
1
 10
61.186655
 20
13.024517
 30
0.0
 10
61.084661
 20
14.225064
 30
0.0
 10
60.975682
 20
15.207329
 30
0.0
 10
60.944480
 20
15.207329
 30
0.0
  0
SPLINE
  5
1aa
100
AcDbEntity
  8
0
 62
7
100
AcDbSpline
 70
8
 71
3
 72
8
 73
4
 74
0
 40
0
 40
0
 40
0
 40
0
 40
1
 40
1
 40
1
 40
1
 10
60.944480
 20
15.207329
 30
0.0
 10
60.449651
 20
15.207329
 30
0.0
 10
57.652859
 20
14.172147
 30
0.0
 10
56.502625
 20
13.563261
 30
0.0
  0
SPLINE
  5
1ab
100
AcDbEntity
  8
0
 62
7
100
AcDbSpline
 70
8
 71
3
 72
8
 73
4
 74
0
 40
0
 40
0
 40
0
 40
0
 40
1
 40
1
 40
1
 40
1
 10
56.502625
 20
13.563261
 30
0.0
 10
53.586324
 20
12.019497
 30
0.0
 10
50.807998
 20
8.267626
 30
0.0
 10
50.319662
 20
5.213752
 30
0.0
  0
LWPOLYLINE
  5
1ac
100
AcDbEntity
  8
0
 62
7
100
AcDbPolyline
 90
5
 70
0
 10
97.568787
 20
-0.140520
 30
0.0
 10
98.494829
 20
-0.917972
 30
0.0
 10
82.708462
 20
-0.925116
 30
0.0
 10
66.922092
 20
-0.932259
 30
0.0
 10
65.835861
 20
0.301763
 30
0.0
  0
SPLINE
  5
1ad
100
AcDbEntity
  8
0
 62
7
100
AcDbSpline
 70
8
 71
3
 72
8
 73
4
 74
0
 40
0
 40
0
 40
0
 40
0
 40
1
 40
1
 40
1
 40
1
 10
52.665077
 20
4.000241
 30
0.0
 10
54.046258
 20
3.903165
 30
0.0
 10
56.112354
 20
3.587755
 30
0.0
 10
57.256405
 20
3.299359
 30
0.0
  0
SPLINE
  5
1ae
100
AcDbEntity
  8
0
 62
7
100
AcDbSpline
 70
8
 71
3
 72
8
 73
4
 74
0
 40
0
 40
0
 40
0
 40
0
 40
1
 40
1
 40
1
 40
1
 10
57.256405
 20
3.299359
 30
0.0
 10
59.616713
 20
2.704364
 30
0.0
 10
63.119463
 20
1.046035
 30
0.0
 10
64.495871
 20
-0.128085
 30
0.0
  0
LWPOLYLINE
  5
1af
100
AcDbEntity
  8
0
 62
7
100
AcDbPolyline
 90
3
 70
0
 10
50.319662
 20
5.213752
 30
0.0
 10
50.153840
 20
4.176771
 30
0.0
 10
52.665077
 20
4.000241
 30
0.0
  0
SPLINE
  5
1b0
100
AcDbEntity
  8
0
 62
7
100
AcDbSpline
 70
8
 71
3
 72
8
 73
4
 74
0
 40
0
 40
0
 40
0
 40
0
 40
1
 40
1
 40
1
 40
1
 10
32.974788
 20
0.059880
 30
0.0
 10
30.187553
 20
3.163681
 30
0.0
 10
28.622776
 20
7.382939
 30
0.0
 10
28.117623
 20
13.156755
 30
0.0
  0
SPLINE
  5
1b1
100
AcDbEntity
  8
0
 62
7
100
AcDbSpline
 70
8
 71
3
 72
8
 73
4
 74
0
 40
0
 40
0
 40
0
 40
0
 40
1
 40
1
 40
1
 40
1
 10
28.117623
 20
13.156755
 30
0.0
 10
28.018952
 20
14.284542
 30
0.0
 10
27.847957
 20
15.207276
 30
0.0
 10
27.737633
 20
15.207276
 30
0.0
  0
SPLINE
  5
1b2
100
AcDbEntity
  8
0
 62
7
100
AcDbSpline
 70
8
 71
3
 72
8
 73
4
 74
0
 40
0
 40
0
 40
0
 40
0
 40
1
 40
1
 40
1
 40
1
 10
27.737633
 20
15.207276
 30
0.0
 10
27.627310
 20
15.207276
 30
0.0
 10
26.887601
 20
14.983836
 30
0.0
 10
26.093836
 20
14.710733
 30
0.0
  0
SPLINE
  5
1b3
100
AcDbEntity
  8
0
 62
7
100
AcDbSpline
 70
8
 71
3
 72
8
 73
4
 74
0
 40
0
 40
0
 40
0
 40
0
 40
1
 40
1
 40
1
 40
1
 10
26.093836
 20
14.710733
 30
0.0
 10
21.854558
 20
13.252217
 30
0.0
 10
19.270483
 20
10.813262
 30
0.0
 10
17.786086
 20
6.869594
 30
0.0
  0
SPLINE
  5
1b4
100
AcDbEntity
  8
0
 62
7
100
AcDbSpline
 70
8
 71
3
 72
8
 73
4
 74
0
 40
0
 40
0
 40
0
 40
0
 40
1
 40
1
 40
1
 40
1
 10
17.786086
 20
6.869594
 30
0.0
 10
16.762853
 20
4.151106
 30
0.0
 10
16.730796
 20
4.201324
 30
0.0
 10
19.619426
 20
3.998283
 30
0.0
  0
SPLINE
  5
1b5
100
AcDbEntity
  8
0
 62
7
100
AcDbSpline
 70
8
 71
3
 72
8
 73
4
 74
0
 40
0
 40
0
 40
0
 40
0
 40
1
 40
1
 40
1
 40
1
 10
19.619426
 20
3.998283
 30
0.0
 10
20.985610
 20
3.902239
 30
0.0
 10
23.039439
 20
3.587702
 30
0.0
 10
24.183489
 20
3.299307
 30
0.0
  0
SPLINE
  5
1b6
100
AcDbEntity
  8
0
 62
7
100
AcDbSpline
 70
8
 71
3
 72
8
 73
4
 74
0
 40
0
 40
0
 40
0
 40
0
 40
1
 40
1
 40
1
 40
1
 10
24.183489
 20
3.299307
 30
0.0
 10
26.543796
 20
2.704312
 30
0.0
 10
30.046546
 20
1.045983
 30
0.0
 10
31.422954
 20
-0.128138
 30
0.0
  0
LWPOLYLINE
  5
1b7
100
AcDbEntity
  8
0
 62
7
100
AcDbPolyline
 90
5
 70
0
 10
64.495871
 20
-0.128085
 30
0.0
 10
65.421912
 20
-0.918025
 30
0.0
 10
49.643845
 20
-0.925169
 30
0.0
 10
33.865778
 20
-0.932312
 30
0.0
 10
32.974788
 20
0.059880
 30
0.0
  0
SPLINE
  5
1b8
100
AcDbEntity
  8
0
 62
7
100
AcDbSpline
 70
8
 71
3
 72
8
 73
4
 74
0
 40
0
 40
0
 40
0
 40
0
 40
1
 40
1
 40
1
 40
1
 10
16.581150
 20
-0.925221
 30
0.0
 10
1.636414
 20
-0.932101
 30
0.0
 10
0.790401
 20
-0.906965
 30
0.0
 10
0.375378
 20
-0.448495
 30
0.0
  0
LWPOLYLINE
  5
1b9
100
AcDbEntity
  8
0
 62
7
100
AcDbPolyline
 90
3
 70
0
 10
31.422954
 20
-0.128138
 30
0.0
 10
32.348996
 20
-0.918078
 30
0.0
 10
16.581150
 20
-0.925221
 30
0.0
  0
SPLINE
  5
1ba
100
AcDbEntity
  8
0
 62
7
100
AcDbSpline
 70
8
 71
3
 72
8
 73
4
 74
0
 40
0
 40
0
 40
0
 40
0
 40
1
 40
1
 40
1
 40
1
 10
11.674613
 20
2.044361
 30
0.0
 10
12.241036
 20
10.031709
 30
0.0
 10
15.427670
 20
15.419763
 30
0.0
 10
21.330770
 20
18.371286
 30
0.0
  0
SPLINE
  5
1bb
100
AcDbEntity
  8
0
 62
7
100
AcDbSpline
 70
8
 71
3
 72
8
 73
4
 74
0
 40
0
 40
0
 40
0
 40
0
 40
1
 40
1
 40
1
 40
1
 10
21.330770
 20
18.371286
 30
0.0
 10
23.449802
 20
19.430794
 30
0.0
 10
26.128846
 20
20.120300
 30
0.0
 10
29.618456
 20
20.504288
 30
0.0
  0
SPLINE
  5
1bc
100
AcDbEntity
  8
0
 62
7
100
AcDbSpline
 70
8
 71
3
 72
8
 73
4
 74
0
 40
0
 40
0
 40
0
 40
0
 40
1
 40
1
 40
1
 40
1
 10
29.618456
 20
20.504288
 30
0.0
 10
31.118387
 20
20.669335
 30
0.0
 10
32.393636
 20
20.852410
 30
0.0
 10
32.452347
 20
20.911121
 30
0.0
  0
SPLINE
  5
1bd
100
AcDbEntity
  8
0
 62
7
100
AcDbSpline
 70
8
 71
3
 72
8
 73
4
 74
0
 40
0
 40
0
 40
0
 40
0
 40
1
 40
1
 40
1
 40
1
 10
32.452347
 20
20.911121
 30
0.0
 10
32.644829
 20
21.103603
 30
0.0
 10
31.417723
 20
24.514715
 30
0.0
 10
30.739948
 20
25.671248
 30
0.0
  0
SPLINE
  5
1be
100
AcDbEntity
  8
0
 62
7
100
AcDbSpline
 70
8
 71
3
 72
8
 73
4
 74
0
 40
0
 40
0
 40
0
 40
0
 40
1
 40
1
 40
1
 40
1
 10
30.739948
 20
25.671248
 30
0.0
 10
29.329073
 20
28.078726
 30
0.0
 10
26.770460
 20
30.088702
 30
0.0
 10
23.828066
 20
31.101035
 30
0.0
  0
SPLINE
  5
1bf
100
AcDbEntity
  8
0
 62
7
100
AcDbSpline
 70
8
 71
3
 72
8
 73
4
 74
0
 40
0
 40
0
 40
0
 40
0
 40
1
 40
1
 40
1
 40
1
 10
23.828066
 20
31.101035
 30
0.0
 10
21.408822
 20
31.933377
 30
0.0
 10
21.467639
 20
31.981375
 30
0.0
 10
21.292622
 20
29.031859
 30
0.0
  0
SPLINE
  5
1c0
100
AcDbEntity
  8
0
 62
7
100
AcDbSpline
 70
8
 71
3
 72
8
 73
4
 74
0
 40
0
 40
0
 40
0
 40
0
 40
1
 40
1
 40
1
 40
1
 10
21.292622
 20
29.031859
 30
0.0
 10
21.105551
 20
25.879179
 30
0.0
 10
20.364215
 20
22.938295
 30
0.0
 10
19.083111
 20
20.266700
 30
0.0
  0
SPLINE
  5
1c1
100
AcDbEntity
  8
0
 62
7
100
AcDbSpline
 70
8
 71
3
 72
8
 73
4
 74
0
 40
0
 40
0
 40
0
 40
0
 40
1
 40
1
 40
1
 40
1
 10
19.083111
 20
20.266700
 30
0.0
 10
17.813317
 20
17.618702
 30
0.0
 10
14.921921
 20
14.688164
 30
0.0
 10
12.171485
 20
13.261504
 30
0.0
  0
SPLINE
  5
1c2
100
AcDbEntity
  8
0
 62
7
100
AcDbSpline
 70
8
 71
3
 72
8
 73
4
 74
0
 40
0
 40
0
 40
0
 40
0
 40
1
 40
1
 40
1
 40
1
 10
12.171485
 20
13.261504
 30
0.0
 10
9.825761
 20
12.044765
 30
0.0
 10
6.180072
 20
11.088164
 30
0.0
 10
2.915532
 20
10.832788
 30
0.0
  0
LWPOLYLINE
  5
1c3
100
AcDbEntity
  8
0
 62
7
100
AcDbPolyline
 90
2
 70
0
 10
0.375378
 20
-0.448495
 30
0.0
 10
0.375378
 20
-0.448363
 30
0.0
  0
SPLINE
  5
1c4
100
AcDbEntity
  8
0
 62
7
100
AcDbSpline
 70
8
 71
3
 72
8
 73
4
 74
0
 40
0
 40
0
 40
0
 40
0
 40
1
 40
1
 40
1
 40
1
 10
0.638509
 20
9.947995
 30
0.0
 10
1.492648
 20
6.355350
 30
0.0
 10
3.735642
 20
3.146695
 30
0.0
 10
6.552079
 20
1.488551
 30
0.0
  0
SPLINE
  5
1c5
100
AcDbEntity
  8
0
 62
7
100
AcDbSpline
 70
8
 71
3
 72
8
 73
4
 74
0
 40
0
 40
0
 40
0
 40
0
 40
1
 40
1
 40
1
 40
1
 10
6.552079
 20
1.488551
 30
0.0
 10
7.545375
 20
0.903769
 30
0.0
 10
10.788656
 20
-0.372507
 30
0.0
 10
11.341672
 20
-0.396214
 30
0.0
  0
SPLINE
  5
1c6
100
AcDbEntity
  8
0
 62
7
100
AcDbSpline
 70
8
 71
3
 72
8
 73
4
 74
0
 40
0
 40
0
 40
0
 40
0
 40
1
 40
1
 40
1
 40
1
 10
11.341672
 20
-0.396214
 30
0.0
 10
11.429334
 20
-0.399918
 30
0.0
 10
11.579157
 20
0.698294
 30
0.0
 10
11.674613
 20
2.044361
 30
0.0
  0
LWPOLYLINE
  5
1c7
100
AcDbEntity
  8
0
 62
7
100
AcDbPolyline
 90
3
 70
0
 10
2.915532
 20
10.832788
 30
0.0
 10
0.473576
 20
10.641759
 30
0.0
 10
0.638509
 20
9.947995
 30
0.0
  0
SPLINE
  5
1c8
100
AcDbEntity
  8
0
 62
7
100
AcDbSpline
 70
8
 71
3
 72
8
 73
4
 74
0
 40
0
 40
0
 40
0
 40
0
 40
1
 40
1
 40
1
 40
1
 10
44.747953
 20
2.336620
 30
0.0
 10
45.519351
 20
13.310637
 30
0.0
 10
51.427137
 20
19.309903
 30
0.0
 10
62.642070
 20
20.507812
 30
0.0
  0
SPLINE
  5
1c9
100
AcDbEntity
  8
0
 62
7
100
AcDbSpline
 70
8
 71
3
 72
8
 73
4
 74
0
 40
0
 40
0
 40
0
 40
0
 40
1
 40
1
 40
1
 40
1
 10
62.642070
 20
20.507812
 30
0.0
 10
64.169115
 20
20.670922
 30
0.0
 10
65.457139
 20
20.842994
 30
0.0
 10
65.504340
 20
20.890196
 30
0.0
  0
SPLINE
  5
1ca
100
AcDbEntity
  8
0
 62
7
100
AcDbSpline
 70
8
 71
3
 72
8
 73
4
 74
0
 40
0
 40
0
 40
0
 40
0
 40
1
 40
1
 40
1
 40
1
 10
65.504340
 20
20.890196
 30
0.0
 10
65.551542
 20
20.937400
 30
0.0
 10
65.416131
 20
21.562044
 30
0.0
 10
65.203427
 20
22.278295
 30
0.0
  0
SPLINE
  5
1cb
100
AcDbEntity
  8
0
 62
7
100
AcDbSpline
 70
8
 71
3
 72
8
 73
4
 74
0
 40
0
 40
0
 40
0
 40
0
 40
1
 40
1
 40
1
 40
1
 10
65.203427
 20
22.278295
 30
0.0
 10
63.927929
 20
26.573364
 30
0.0
 10
60.991668
 20
29.693632
 30
0.0
 10
56.900982
 20
31.101035
 30
0.0
  0
SPLINE
  5
1cc
100
AcDbEntity
  8
0
 62
7
100
AcDbSpline
 70
8
 71
3
 72
8
 73
4
 74
0
 40
0
 40
0
 40
0
 40
0
 40
1
 40
1
 40
1
 40
1
 10
56.900982
 20
31.101035
 30
0.0
 10
54.486543
 20
31.931724
 30
0.0
 10
54.545725
 20
31.979777
 30
0.0
 10
54.352571
 20
29.031859
 30
0.0
  0
SPLINE
  5
1cd
100
AcDbEntity
  8
0
 62
7
100
AcDbSpline
 70
8
 71
3
 72
8
 73
4
 74
0
 40
0
 40
0
 40
0
 40
0
 40
1
 40
1
 40
1
 40
1
 10
54.352571
 20
29.031859
 30
0.0
 10
53.746231
 20
19.777837
 30
0.0
 10
49.049313
 20
13.717513
 30
0.0
 10
40.876791
 20
11.644397
 30
0.0
  0
SPLINE
  5
1ce
100
AcDbEntity
  8
0
 62
7
100
AcDbSpline
 70
8
 71
3
 72
8
 73
4
 74
0
 40
0
 40
0
 40
0
 40
0
 40
1
 40
1
 40
1
 40
1
 10
40.876791
 20
11.644397
 30
0.0
 10
39.531279
 20
11.303058
 30
0.0
 10
37.329970
 20
10.937722
 30
0.0
 10
35.984992
 20
10.832497
 30
0.0
  0
SPLINE
  5
1cf
100
AcDbEntity
  8
0
 62
7
100
AcDbSpline
 70
8
 71
3
 72
8
 73
4
 74
0
 40
0
 40
0
 40
0
 40
0
 40
1
 40
1
 40
1
 40
1
 10
35.984992
 20
10.832497
 30
0.0
 10
34.640015
 20
10.727298
 30
0.0
 10
33.540867
 20
10.567278
 30
0.0
 10
33.542441
 20
10.476897
 30
0.0
  0
SPLINE
  5
1d0
100
AcDbEntity
  8
0
 62
7
100
AcDbSpline
 70
8
 71
3
 72
8
 73
4
 74
0
 40
0
 40
0
 40
0
 40
0
 40
1
 40
1
 40
1
 40
1
 10
33.542441
 20
10.476897
 30
0.0
 10
33.544028
 20
10.386515
 30
0.0
 10
33.709687
 20
9.776809
 30
0.0
 10
33.910598
 20
9.121965
 30
0.0
  0
SPLINE
  5
1d1
100
AcDbEntity
  8
0
 62
7
100
AcDbSpline
 70
8
 71
3
 72
8
 73
4
 74
0
 40
0
 40
0
 40
0
 40
0
 40
1
 40
1
 40
1
 40
1
 10
33.910598
 20
9.121965
 30
0.0
 10
35.062372
 20
5.367872
 30
0.0
 10
37.222763
 20
2.685420
 30
0.0
 10
40.418745
 20
1.041061
 30
0.0
  0
SPLINE
  5
1d2
100
AcDbEntity
  8
0
 62
7
100
AcDbSpline
 70
8
 71
3
 72
8
 73
4
 74
0
 40
0
 40
0
 40
0
 40
0
 40
1
 40
1
 40
1
 40
1
 10
40.418745
 20
1.041061
 30
0.0
 10
41.516451
 20
0.476282
 30
0.0
 10
44.187589
 20
-0.388144
 30
0.0
 10
44.413961
 20
-0.251857
 30
0.0
  0
SPLINE
  5
1d3
100
AcDbEntity
  8
0
 62
7
100
AcDbSpline
 70
8
 71
3
 72
8
 73
4
 74
0
 40
0
 40
0
 40
0
 40
0
 40
1
 40
1
 40
1
 40
1
 10
44.413961
 20
-0.251857
 30
0.0
 10
44.501279
 20
-0.199284
 30
0.0
 10
44.651575
 20
0.965523
 30
0.0
 10
44.747953
 20
2.336620
 30
0.0
  0
LWPOLYLINE
  5
1d4
100
AcDbEntity
  8
0
 62
7
100
AcDbPolyline
 90
1
 70
1
 10
11.674613
 20
2.044361
 30
0.0
  0
SPLINE
  5
1d5
100
AcDbEntity
  8
0
 62
7
100
AcDbSpline
 70
8
 71
3
 72
8
 73
4
 74
0
 40
0
 40
0
 40
0
 40
0
 40
1
 40
1
 40
1
 40
1
 10
77.724995
 20
1.489239
 30
0.0
 10
77.724995
 20
4.210267
 30
0.0
 10
78.683215
 20
8.202803
 30
0.0
 10
79.969614
 20
10.841757
 30
0.0
  0
SPLINE
  5
1d6
100
AcDbEntity
  8
0
 62
7
100
AcDbSpline
 70
8
 71
3
 72
8
 73
4
 74
0
 40
0
 40
0
 40
0
 40
0
 40
1
 40
1
 40
1
 40
1
 10
79.969614
 20
10.841757
 30
0.0
 10
82.848561
 20
16.747680
 30
0.0
 10
87.635879
 20
19.682486
 30
0.0
 10
95.748827
 20
20.515032
 30
0.0
  0
SPLINE
  5
1d7
100
AcDbEntity
  8
0
 62
7
100
AcDbSpline
 70
8
 71
3
 72
8
 73
4
 74
0
 40
0
 40
0
 40
0
 40
0
 40
1
 40
1
 40
1
 40
1
 10
95.748827
 20
20.515032
 30
0.0
 10
97.252420
 20
20.669329
 30
0.0
 10
98.514728
 20
20.827669
 30
0.0
 10
98.553955
 20
20.866896
 30
0.0
  0
SPLINE
  5
1d8
100
AcDbEntity
  8
0
 62
7
100
AcDbSpline
 70
8
 71
3
 72
8
 73
4
 74
0
 40
0
 40
0
 40
0
 40
0
 40
1
 40
1
 40
1
 40
1
 10
98.553955
 20
20.866896
 30
0.0
 10
98.593185
 20
20.906126
 30
0.0
 10
98.433813
 20
21.583547
 30
0.0
 10
98.199797
 20
22.372280
 30
0.0
  0
SPLINE
  5
1d9
100
AcDbEntity
  8
0
 62
7
100
AcDbSpline
 70
8
 71
3
 72
8
 73
4
 74
0
 40
0
 40
0
 40
0
 40
0
 40
1
 40
1
 40
1
 40
1
 10
98.199797
 20
22.372280
 30
0.0
 10
96.943556
 20
26.606341
 30
0.0
 10
94.233042
 20
29.502277
 30
0.0
 10
90.084341
 20
31.042904
 30
0.0
  0
SPLINE
  5
1da
100
AcDbEntity
  8
0
 62
7
100
AcDbSpline
 70
8
 71
3
 72
8
 73
4
 74
0
 40
0
 40
0
 40
0
 40
0
 40
1
 40
1
 40
1
 40
1
 10
90.084341
 20
31.042904
 30
0.0
 10
87.594035
 20
31.967683
 30
0.0
 10
87.619356
 20
31.985611
 30
0.0
 10
87.431033
 20
29.164150
 30
0.0
  0
SPLINE
  5
1db
100
AcDbEntity
  8
0
 62
7
100
AcDbSpline
 70
8
 71
3
 72
8
 73
4
 74
0
 40
0
 40
0
 40
0
 40
0
 40
1
 40
1
 40
1
 40
1
 10
87.431033
 20
29.164150
 30
0.0
 10
86.925523
 20
21.590574
 30
0.0
 10
83.496849
 20
15.792217
 30
0.0
 10
77.948965
 20
13.128657
 30
0.0
  0
SPLINE
  5
1dc
100
AcDbEntity
  8
0
 62
7
100
AcDbSpline
 70
8
 71
3
 72
8
 73
4
 74
0
 40
0
 40
0
 40
0
 40
0
 40
1
 40
1
 40
1
 40
1
 10
77.948965
 20
13.128657
 30
0.0
 10
75.200293
 20
11.809021
 30
0.0
 10
73.384307
 20
11.328961
 30
0.0
 10
69.580834
 20
10.916555
 30
0.0
  0
LWPOLYLINE
  5
1dd
100
AcDbEntity
  8
0
 62
7
100
AcDbPolyline
 90
1
 70
1
 10
44.747953
 20
2.336620
 30
0.0
  0
SPLINE
  5
1de
100
AcDbEntity
  8
0
 62
7
100
AcDbSpline
 70
8
 71
3
 72
8
 73
4
 74
0
 40
0
 40
0
 40
0
 40
0
 40
1
 40
1
 40
1
 40
1
 10
66.768337
 20
9.791282
 30
0.0
 10
67.451819
 20
6.611202
 30
0.0
 10
69.763550
 20
3.247660
 30
0.0
 10
72.317949
 20
1.716675
 30
0.0
  0
SPLINE
  5
1df
100
AcDbEntity
  8
0
 62
7
100
AcDbSpline
 70
8
 71
3
 72
8
 73
4
 74
0
 40
0
 40
0
 40
0
 40
0
 40
1
 40
1
 40
1
 40
1
 10
72.317949
 20
1.716675
 30
0.0
 10
73.926795
 20
0.752374
 30
0.0
 10
77.153463
 20
-0.460454
 30
0.0
 10
77.515212
 20
-0.236881
 30
0.0
  0
SPLINE
  5
1e0
100
AcDbEntity
  8
0
 62
7
100
AcDbSpline
 70
8
 71
3
 72
8
 73
4
 74
0
 40
0
 40
0
 40
0
 40
0
 40
1
 40
1
 40
1
 40
1
 10
77.515212
 20
-0.236881
 30
0.0
 10
77.630592
 20
-0.165576
 30
0.0
 10
77.724995
 20
0.611193
 30
0.0
 10
77.724995
 20
1.489239
 30
0.0
  0
LWPOLYLINE
  5
1e1
100
AcDbEntity
  8
0
 62
7
100
AcDbPolyline
 90
3
 70
0
 10
69.580834
 20
10.916555
 30
0.0
 10
66.596048
 20
10.592917
 30
0.0
 10
66.768337
 20
9.791282
 30
0.0
  0
SPLINE
  5
1e2
100
AcDbEntity
  8
0
 62
7
100
AcDbSpline
 70
8
 71
3
 72
8
 73
4
 74
0
 40
0
 40
0
 40
0
 40
0
 40
1
 40
1
 40
1
 40
1
 10
110.874434
 20
2.432770
 30
0.0
 10
111.516724
 20
13.199168
 30
0.0
 10
117.629929
 20
19.377340
 30
0.0
 10
128.761170
 20
20.509614
 30
0.0
  0
SPLINE
  5
1e3
100
AcDbEntity
  8
0
 62
7
100
AcDbSpline
 70
8
 71
3
 72
8
 73
4
 74
0
 40
0
 40
0
 40
0
 40
0
 40
1
 40
1
 40
1
 40
1
 10
128.761170
 20
20.509614
 30
0.0
 10
130.297028
 20
20.665842
 30
0.0
 10
131.586166
 20
20.826190
 30
0.0
 10
131.625919
 20
20.865941
 30
0.0
  0
SPLINE
  5
1e4
100
AcDbEntity
  8
0
 62
7
100
AcDbSpline
 70
8
 71
3
 72
8
 73
4
 74
0
 40
0
 40
0
 40
0
 40
0
 40
1
 40
1
 40
1
 40
1
 10
131.625919
 20
20.865941
 30
0.0
 10
131.665673
 20
20.905695
 30
0.0
 10
131.506730
 20
21.583547
 30
0.0
 10
131.272714
 20
22.372280
 30
0.0
  0
SPLINE
  5
1e5
100
AcDbEntity
  8
0
 62
7
100
AcDbSpline
 70
8
 71
3
 72
8
 73
4
 74
0
 40
0
 40
0
 40
0
 40
0
 40
1
 40
1
 40
1
 40
1
 10
131.272714
 20
22.372280
 30
0.0
 10
130.034239
 20
26.546458
 30
0.0
 10
127.351256
 20
29.459484
 30
0.0
 10
123.362320
 20
30.960915
 30
0.0
  0
SPLINE
  5
1e6
100
AcDbEntity
  8
0
 62
7
100
AcDbSpline
 70
8
 71
3
 72
8
 73
4
 74
0
 40
0
 40
0
 40
0
 40
0
 40
1
 40
1
 40
1
 40
1
 10
123.362320
 20
30.960915
 30
0.0
 10
120.808509
 20
31.922164
 30
0.0
 10
120.587717
 20
31.873952
 30
0.0
 10
120.586431
 20
30.354775
 30
0.0
  0
SPLINE
  5
1e7
100
AcDbEntity
  8
0
 62
7
100
AcDbSpline
 70
8
 71
3
 72
8
 73
4
 74
0
 40
0
 40
0
 40
0
 40
0
 40
1
 40
1
 40
1
 40
1
 10
120.586431
 20
30.354775
 30
0.0
 10
120.584844
 20
28.559276
 30
0.0
 10
119.902023
 20
24.597233
 30
0.0
 10
119.285594
 20
22.807456
 30
0.0
  0
SPLINE
  5
1e8
100
AcDbEntity
  8
0
 62
7
100
AcDbSpline
 70
8
 71
3
 72
8
 73
4
 74
0
 40
0
 40
0
 40
0
 40
0
 40
1
 40
1
 40
1
 40
1
 10
119.285594
 20
22.807456
 30
0.0
 10
117.769031
 20
18.404184
 30
0.0
 10
114.828024
 20
14.956134
 30
0.0
 10
111.035817
 20
13.135404
 30
0.0
  0
SPLINE
  5
1e9
100
AcDbEntity
  8
0
 62
7
100
AcDbSpline
 70
8
 71
3
 72
8
 73
4
 74
0
 40
0
 40
0
 40
0
 40
0
 40
1
 40
1
 40
1
 40
1
 10
111.035817
 20
13.135404
 30
0.0
 10
108.274578
 20
11.809656
 30
0.0
 10
106.461507
 20
11.329437
 30
0.0
 10
102.661974
 20
10.917428
 30
0.0
  0
SPLINE
  5
1ea
100
AcDbEntity
  8
0
 62
7
100
AcDbSpline
 70
8
 71
3
 72
8
 73
4
 74
0
 40
0
 40
0
 40
0
 40
0
 40
1
 40
1
 40
1
 40
1
 10
102.661974
 20
10.917428
 30
0.0
 10
100.889610
 20
10.725235
 30
0.0
 10
99.685412
 20
10.478114
 30
0.0
 10
99.685412
 20
10.306558
 30
0.0
  0
SPLINE
  5
1eb
100
AcDbEntity
  8
0
 62
7
100
AcDbSpline
 70
8
 71
3
 72
8
 73
4
 74
0
 40
0
 40
0
 40
0
 40
0
 40
1
 40
1
 40
1
 40
1
 10
99.685412
 20
10.306558
 30
0.0
 10
99.685412
 20
10.148099
 30
0.0
 10
99.933374
 20
9.284208
 30
0.0
 10
100.236435
 20
8.386794
 30
0.0
  0
SPLINE
  5
1ec
100
AcDbEntity
  8
0
 62
7
100
AcDbSpline
 70
8
 71
3
 72
8
 73
4
 74
0
 40
0
 40
0
 40
0
 40
0
 40
1
 40
1
 40
1
 40
1
 10
100.236435
 20
8.386794
 30
0.0
 10
101.324849
 20
5.163825
 30
0.0
 10
103.470252
 20
2.611072
 30
0.0
 10
106.299995
 20
1.171898
 30
0.0
  0
SPLINE
  5
1ed
100
AcDbEntity
  8
0
 62
7
100
AcDbSpline
 70
8
 71
3
 72
8
 73
4
 74
0
 40
0
 40
0
 40
0
 40
0
 40
1
 40
1
 40
1
 40
1
 10
106.299995
 20
1.171898
 30
0.0
 10
107.625721
 20
0.497660
 30
0.0
 10
110.313401
 20
-0.400209
 30
0.0
 10
110.560535
 20
-0.251407
 30
0.0
  0
SPLINE
  5
1ee
100
AcDbEntity
  8
0
 62
7
100
AcDbSpline
 70
8
 71
3
 72
8
 73
4
 74
0
 40
0
 40
0
 40
0
 40
0
 40
1
 40
1
 40
1
 40
1
 10
110.560535
 20
-0.251407
 30
0.0
 10
110.648258
 20
-0.198570
 30
0.0
 10
110.789514
 20
1.009311
 30
0.0
 10
110.874434
 20
2.432770
 30
0.0
  0
LWPOLYLINE
  5
1ef
100
AcDbEntity
  8
0
 62
7
100
AcDbPolyline
 90
1
 70
1
 10
77.724995
 20
1.489239
 30
0.0
  0
SPLINE
  5
1f0
100
AcDbEntity
  8
0
 62
7
100
AcDbSpline
 70
8
 71
3
 72
8
 73
4
 74
0
 40
0
 40
0
 40
0
 40
0
 40
1
 40
1
 40
1
 40
1
 10
40.360169
 20
16.816737
 30
0.0
 10
43.645365
 20
17.926164
 30
0.0
 10
46.156311
 20
20.064984
 30
0.0
 10
47.634020
 20
23.012588
 30
0.0
  0
SPLINE
  5
1f1
100
AcDbEntity
  8
0
 62
7
100
AcDbSpline
 70
8
 71
3
 72
8
 73
4
 74
0
 40
0
 40
0
 40
0
 40
0
 40
1
 40
1
 40
1
 40
1
 10
47.634020
 20
23.012588
 30
0.0
 10
48.412360
 20
24.565155
 30
0.0
 10
49.174987
 20
27.000443
 30
0.0
 10
48.952512
 20
27.222916
 30
0.0
  0
SPLINE
  5
1f2
100
AcDbEntity
  8
0
 62
7
100
AcDbSpline
 70
8
 71
3
 72
8
 73
4
 74
0
 40
0
 40
0
 40
0
 40
0
 40
1
 40
1
 40
1
 40
1
 10
48.952512
 20
27.222916
 30
0.0
 10
48.867100
 20
27.308328
 30
0.0
 10
48.056308
 20
27.378213
 30
0.0
 10
47.150750
 20
27.378213
 30
0.0
  0
SPLINE
  5
1f3
100
AcDbEntity
  8
0
 62
7
100
AcDbSpline
 70
8
 71
3
 72
8
 73
4
 74
0
 40
0
 40
0
 40
0
 40
0
 40
1
 40
1
 40
1
 40
1
 10
47.150750
 20
27.378213
 30
0.0
 10
46.245195
 20
27.378213
 30
0.0
 10
44.519540
 20
27.565017
 30
0.0
 10
43.315964
 20
27.793331
 30
0.0
  0
SPLINE
  5
1f4
100
AcDbEntity
  8
0
 62
7
100
AcDbSpline
 70
8
 71
3
 72
8
 73
4
 74
0
 40
0
 40
0
 40
0
 40
0
 40
1
 40
1
 40
1
 40
1
 10
43.315964
 20
27.793331
 30
0.0
 10
34.185262
 20
29.525394
 30
0.0
 10
29.311484
 20
35.178955
 30
0.0
 10
28.232941
 20
45.289563
 30
0.0
  0
SPLINE
  5
1f5
100
AcDbEntity
  8
0
 62
7
100
AcDbSpline
 70
8
 71
3
 72
8
 73
4
 74
0
 40
0
 40
0
 40
0
 40
0
 40
1
 40
1
 40
1
 40
1
 10
28.232941
 20
45.289563
 30
0.0
 10
28.065233
 20
46.861706
 30
0.0
 10
27.901180
 20
48.177365
 30
0.0
 10
27.868377
 20
48.213251
 30
0.0
  0
SPLINE
  5
1f6
100
AcDbEntity
  8
0
 62
7
100
AcDbSpline
 70
8
 71
3
 72
8
 73
4
 74
0
 40
0
 40
0
 40
0
 40
0
 40
1
 40
1
 40
1
 40
1
 10
27.868377
 20
48.213251
 30
0.0
 10
27.690289
 20
48.408082
 30
0.0
 10
24.721556
 20
47.318951
 30
0.0
 10
23.353121
 20
46.556753
 30
0.0
  0
SPLINE
  5
1f7
100
AcDbEntity
  8
0
 62
7
100
AcDbSpline
 70
8
 71
3
 72
8
 73
4
 74
0
 40
0
 40
0
 40
0
 40
0
 40
1
 40
1
 40
1
 40
1
 10
23.353121
 20
46.556753
 30
0.0
 10
20.760159
 20
45.112509
 30
0.0
 10
18.902212
 20
42.908003
 30
0.0
 10
17.791920
 20
39.958232
 30
0.0
  0
SPLINE
  5
1f8
100
AcDbEntity
  8
0
 62
7
100
AcDbSpline
 70
8
 71
3
 72
8
 73
4
 74
0
 40
0
 40
0
 40
0
 40
0
 40
1
 40
1
 40
1
 40
1
 10
17.791920
 20
39.958232
 30
0.0
 10
16.769467
 20
37.241824
 30
0.0
 10
16.750676
 20
37.274344
 30
0.0
 10
19.453763
 20
37.082473
 30
0.0
  0
SPLINE
  5
1f9
100
AcDbEntity
  8
0
 62
7
100
AcDbSpline
 70
8
 71
3
 72
8
 73
4
 74
0
 40
0
 40
0
 40
0
 40
0
 40
1
 40
1
 40
1
 40
1
 10
19.453763
 20
37.082473
 30
0.0
 10
30.774436
 20
36.278910
 30
0.0
 10
36.922943
 20
30.074171
 30
0.0
 10
37.918837
 20
18.448525
 30
0.0
  0
SPLINE
  5
1fa
100
AcDbEntity
  8
0
 62
7
100
AcDbSpline
 70
8
 71
3
 72
8
 73
4
 74
0
 40
0
 40
0
 40
0
 40
0
 40
1
 40
1
 40
1
 40
1
 10
37.918837
 20
18.448525
 30
0.0
 10
38.038029
 20
17.057119
 30
0.0
 10
38.218703
 20
16.265715
 30
0.0
 10
38.417159
 20
16.265715
 30
0.0
  0
SPLINE
  5
1fb
100
AcDbEntity
  8
0
 62
7
100
AcDbSpline
 70
8
 71
3
 72
8
 73
4
 74
0
 40
0
 40
0
 40
0
 40
0
 40
1
 40
1
 40
1
 40
1
 10
38.417159
 20
16.265715
 30
0.0
 10
38.588394
 20
16.265715
 30
0.0
 10
39.462750
 20
16.513683
 30
0.0
 10
40.360169
 20
16.816737
 30
0.0
  0
LWPOLYLINE
  5
1fc
100
AcDbEntity
  8
0
 62
7
100
AcDbPolyline
 90
1
 70
1
 10
110.874434
 20
2.432770
 30
0.0
  0
SPLINE
  5
1fd
100
AcDbEntity
  8
0
 62
7
100
AcDbSpline
 70
8
 71
3
 72
8
 73
4
 74
0
 40
0
 40
0
 40
0
 40
0
 40
1
 40
1
 40
1
 40
1
 10
73.965506
 20
17.044956
 30
0.0
 10
76.313170
 20
17.971127
 30
0.0
 10
78.473779
 20
19.556915
 30
0.0
 10
79.581370
 20
21.166741
 30
0.0
  0
SPLINE
  5
1fe
100
AcDbEntity
  8
0
 62
7
100
AcDbSpline
 70
8
 71
3
 72
8
 73
4
 74
0
 40
0
 40
0
 40
0
 40
0
 40
1
 40
1
 40
1
 40
1
 10
79.581370
 20
21.166741
 30
0.0
 10
80.682510
 20
22.767192
 30
0.0
 10
81.629745
 20
24.882409
 30
0.0
 10
81.840784
 20
26.212112
 30
0.0
  0
LWPOLYLINE
  5
1ff
100
AcDbEntity
  8
0
 62
7
100
AcDbPolyline
 90
1
 70
1
 10
40.360169
 20
16.816737
 30
0.0
  0
SPLINE
  5
200
100
AcDbEntity
  8
0
 62
7
100
AcDbSpline
 70
8
 71
3
 72
8
 73
4
 74
0
 40
0
 40
0
 40
0
 40
0
 40
1
 40
1
 40
1
 40
1
 10
79.405800
 20
27.458151
 30
0.0
 10
71.186188
 20
27.972687
 30
0.0
 10
65.295325
 20
31.867692
 30
0.0
 10
62.800677
 20
38.437365
 30
0.0
  0
SPLINE
  5
201
100
AcDbEntity
  8
0
 62
7
100
AcDbSpline
 70
8
 71
3
 72
8
 73
4
 74
0
 40
0
 40
0
 40
0
 40
0
 40
1
 40
1
 40
1
 40
1
 10
62.800677
 20
38.437365
 30
0.0
 10
61.980358
 20
40.597675
 30
0.0
 10
61.433276
 20
43.194049
 30
0.0
 10
61.186613
 20
46.097484
 30
0.0
  0
SPLINE
  5
202
100
AcDbEntity
  8
0
 62
7
100
AcDbSpline
 70
8
 71
3
 72
8
 73
4
 74
0
 40
0
 40
0
 40
0
 40
0
 40
1
 40
1
 40
1
 40
1
 10
61.186613
 20
46.097484
 30
0.0
 10
61.084619
 20
47.298031
 30
0.0
 10
60.975640
 20
48.280296
 30
0.0
 10
60.944437
 20
48.280296
 30
0.0
  0
SPLINE
  5
203
100
AcDbEntity
  8
0
 62
7
100
AcDbSpline
 70
8
 71
3
 72
8
 73
4
 74
0
 40
0
 40
0
 40
0
 40
0
 40
1
 40
1
 40
1
 40
1
 10
60.944437
 20
48.280296
 30
0.0
 10
60.913235
 20
48.280296
 30
0.0
 10
60.241019
 20
48.088423
 30
0.0
 10
59.450621
 20
47.853915
 30
0.0
  0
SPLINE
  5
204
100
AcDbEntity
  8
0
 62
7
100
AcDbSpline
 70
8
 71
3
 72
8
 73
4
 74
0
 40
0
 40
0
 40
0
 40
0
 40
1
 40
1
 40
1
 40
1
 10
59.450621
 20
47.853915
 30
0.0
 10
55.196999
 20
46.591866
 30
0.0
 10
52.123507
 20
43.709855
 30
0.0
 10
50.738654
 20
39.684703
 30
0.0
  0
SPLINE
  5
205
100
AcDbEntity
  8
0
 62
7
100
AcDbSpline
 70
8
 71
3
 72
8
 73
4
 74
0
 40
0
 40
0
 40
0
 40
0
 40
1
 40
1
 40
1
 40
1
 10
50.738654
 20
39.684703
 30
0.0
 10
49.894075
 20
37.229894
 30
0.0
 10
49.865579
 20
37.271365
 30
0.0
 10
52.526679
 20
37.082473
 30
0.0
  0
SPLINE
  5
206
100
AcDbEntity
  8
0
 62
7
100
AcDbSpline
 70
8
 71
3
 72
8
 73
4
 74
0
 40
0
 40
0
 40
0
 40
0
 40
1
 40
1
 40
1
 40
1
 10
52.526679
 20
37.082473
 30
0.0
 10
55.296612
 20
36.885859
 30
0.0
 10
59.412105
 20
35.886371
 30
0.0
 10
61.212074
 20
34.973141
 30
0.0
  0
SPLINE
  5
207
100
AcDbEntity
  8
0
 62
7
100
AcDbSpline
 70
8
 71
3
 72
8
 73
4
 74
0
 40
0
 40
0
 40
0
 40
0
 40
1
 40
1
 40
1
 40
1
 10
61.212074
 20
34.973141
 30
0.0
 10
67.027920
 20
32.022423
 30
0.0
 10
70.019241
 20
27.121795
 30
0.0
 10
70.886754
 20
19.123279
 30
0.0
  0
SPLINE
  5
208
100
AcDbEntity
  8
0
 62
7
100
AcDbSpline
 70
8
 71
3
 72
8
 73
4
 74
0
 40
0
 40
0
 40
0
 40
0
 40
1
 40
1
 40
1
 40
1
 10
70.886754
 20
19.123279
 30
0.0
 10
71.137341
 20
16.812847
 30
0.0
 10
71.277080
 20
16.267462
 30
0.0
 10
71.616567
 20
16.274817
 30
0.0
  0
SPLINE
  5
209
100
AcDbEntity
  8
0
 62
7
100
AcDbSpline
 70
8
 71
3
 72
8
 73
4
 74
0
 40
0
 40
0
 40
0
 40
0
 40
1
 40
1
 40
1
 40
1
 10
71.616567
 20
16.274817
 30
0.0
 10
71.847506
 20
16.279844
 30
0.0
 10
72.904527
 20
16.626395
 30
0.0
 10
73.965506
 20
17.044956
 30
0.0
  0
LWPOLYLINE
  5
20a
100
AcDbEntity
  8
0
 62
7
100
AcDbPolyline
 90
3
 70
0
 10
81.840784
 20
26.212112
 30
0.0
 10
82.012650
 20
27.294967
 30
0.0
 10
79.405800
 20
27.458151
 30
0.0
  0
SPLINE
  5
20b
100
AcDbEntity
  8
0
 62
7
100
AcDbSpline
 70
8
 71
3
 72
8
 73
4
 74
0
 40
0
 40
0
 40
0
 40
0
 40
1
 40
1
 40
1
 40
1
 10
107.289658
 20
17.109683
 30
0.0
 10
108.984558
 20
17.739312
 30
0.0
 10
111.137920
 20
19.322775
 30
0.0
 10
112.348791
 20
20.829889
 30
0.0
  0
SPLINE
  5
20c
100
AcDbEntity
  8
0
 62
7
100
AcDbSpline
 70
8
 71
3
 72
8
 73
4
 74
0
 40
0
 40
0
 40
0
 40
0
 40
1
 40
1
 40
1
 40
1
 10
112.348791
 20
20.829889
 30
0.0
 10
113.436546
 20
22.183767
 30
0.0
 10
114.692142
 20
24.834628
 30
0.0
 10
114.919697
 20
26.257681
 30
0.0
  0
LWPOLYLINE
  5
20d
100
AcDbEntity
  8
0
 62
7
100
AcDbPolyline
 90
1
 70
1
 10
73.965506
 20
17.044956
 30
0.0
  0
SPLINE
  5
20e
100
AcDbEntity
  8
0
 62
7
100
AcDbSpline
 70
8
 71
3
 72
8
 73
4
 74
0
 40
0
 40
0
 40
0
 40
0
 40
1
 40
1
 40
1
 40
1
 10
113.284855
 20
27.351355
 30
0.0
 10
107.535983
 20
27.537466
 30
0.0
 10
102.449736
 20
29.588111
 30
0.0
 10
99.248177
 20
33.010589
 30
0.0
  0
SPLINE
  5
20f
100
AcDbEntity
  8
0
 62
7
100
AcDbSpline
 70
8
 71
3
 72
8
 73
4
 74
0
 40
0
 40
0
 40
0
 40
0
 40
1
 40
1
 40
1
 40
1
 10
99.248177
 20
33.010589
 30
0.0
 10
96.416971
 20
36.037158
 30
0.0
 10
94.931802
 20
39.740462
 30
0.0
 10
94.344961
 20
45.236876
 30
0.0
  0
SPLINE
  5
210
100
AcDbEntity
  8
0
 62
7
100
AcDbSpline
 70
8
 71
3
 72
8
 73
4
 74
0
 40
0
 40
0
 40
0
 40
0
 40
1
 40
1
 40
1
 40
1
 10
94.344961
 20
45.236876
 30
0.0
 10
94.174011
 20
46.837997
 30
0.0
 10
94.016240
 20
48.177365
 30
0.0
 10
93.994356
 20
48.213251
 30
0.0
  0
SPLINE
  5
211
100
AcDbEntity
  8
0
 62
7
100
AcDbSpline
 70
8
 71
3
 72
8
 73
4
 74
0
 40
0
 40
0
 40
0
 40
0
 40
1
 40
1
 40
1
 40
1
 10
93.994356
 20
48.213251
 30
0.0
 10
93.897297
 20
48.372421
 30
0.0
 10
90.964962
 20
47.366010
 30
0.0
 10
89.785410
 20
46.768689
 30
0.0
  0
SPLINE
  5
212
100
AcDbEntity
  8
0
 62
7
100
AcDbSpline
 70
8
 71
3
 72
8
 73
4
 74
0
 40
0
 40
0
 40
0
 40
0
 40
1
 40
1
 40
1
 40
1
 10
89.785410
 20
46.768689
 30
0.0
 10
88.176354
 20
45.953870
 30
0.0
 10
85.832032
 20
43.769029
 30
0.0
 10
84.947765
 20
42.260139
 30
0.0
  0
SPLINE
  5
213
100
AcDbEntity
  8
0
 62
7
100
AcDbSpline
 70
8
 71
3
 72
8
 73
4
 74
0
 40
0
 40
0
 40
0
 40
0
 40
1
 40
1
 40
1
 40
1
 10
84.947765
 20
42.260139
 30
0.0
 10
84.441557
 20
41.396359
 30
0.0
 10
83.016662
 20
37.746622
 30
0.0
 10
83.016662
 20
37.313796
 30
0.0
  0
SPLINE
  5
214
100
AcDbEntity
  8
0
 62
7
100
AcDbSpline
 70
8
 71
3
 72
8
 73
4
 74
0
 40
0
 40
0
 40
0
 40
0
 40
1
 40
1
 40
1
 40
1
 10
83.016662
 20
37.313796
 30
0.0
 10
83.016662
 20
37.276453
 30
0.0
 10
84.117990
 20
37.167801
 30
0.0
 10
85.464057
 20
37.072345
 30
0.0
  0
SPLINE
  5
215
100
AcDbEntity
  8
0
 62
7
100
AcDbSpline
 70
8
 71
3
 72
8
 73
4
 74
0
 40
0
 40
0
 40
0
 40
0
 40
1
 40
1
 40
1
 40
1
 10
85.464057
 20
37.072345
 30
0.0
 10
96.589615
 20
36.283379
 30
0.0
 10
102.764066
 20
30.381736
 30
0.0
 10
103.910728
 20
19.440713
 30
0.0
  0
SPLINE
  5
216
100
AcDbEntity
  8
0
 62
7
100
AcDbSpline
 70
8
 71
3
 72
8
 73
4
 74
0
 40
0
 40
0
 40
0
 40
0
 40
1
 40
1
 40
1
 40
1
 10
103.910728
 20
19.440713
 30
0.0
 10
104.055614
 20
18.058265
 30
0.0
 10
104.176221
 20
16.768874
 30
0.0
 10
104.178743
 20
16.575410
 30
0.0
  0
SPLINE
  5
217
100
AcDbEntity
  8
0
 62
7
100
AcDbSpline
 70
8
 71
3
 72
8
 73
4
 74
0
 40
0
 40
0
 40
0
 40
0
 40
1
 40
1
 40
1
 40
1
 10
104.178743
 20
16.575410
 30
0.0
 10
104.184220
 20
16.156072
 30
0.0
 10
105.185493
 20
16.328025
 30
0.0
 10
107.289658
 20
17.109683
 30
0.0
  0
LWPOLYLINE
  5
218
100
AcDbEntity
  8
0
 62
7
100
AcDbPolyline
 90
3
 70
0
 10
114.919697
 20
26.257681
 30
0.0
 10
115.085262
 20
27.293070
 30
0.0
 10
113.284855
 20
27.351355
 30
0.0
  0
SPLINE
  5
219
100
AcDbEntity
  8
0
 62
7
100
AcDbSpline
 70
8
 71
3
 72
8
 73
4
 74
0
 40
0
 40
0
 40
0
 40
0
 40
1
 40
1
 40
1
 40
1
 10
11.674613
 20
35.117275
 30
0.0
 10
12.475536
 20
46.411404
 30
0.0
 10
18.549285
 20
52.597010
 30
0.0
 10
29.774512
 20
53.550510
 30
0.0
  0
SPLINE
  5
21a
100
AcDbEntity
  8
0
 62
7
100
AcDbSpline
 70
8
 71
3
 72
8
 73
4
 74
0
 40
0
 40
0
 40
0
 40
0
 40
1
 40
1
 40
1
 40
1
 10
29.774512
 20
53.550510
 30
0.0
 10
31.123464
 20
53.665094
 30
0.0
 10
32.292150
 20
53.823838
 30
0.0
 10
32.371588
 20
53.903279
 30
0.0
  0
SPLINE
  5
21b
100
AcDbEntity
  8
0
 62
7
100
AcDbSpline
 70
8
 71
3
 72
8
 73
4
 74
0
 40
0
 40
0
 40
0
 40
0
 40
1
 40
1
 40
1
 40
1
 10
32.371588
 20
53.903279
 30
0.0
 10
32.607499
 20
54.139187
 30
0.0
 10
31.955126
 20
56.235060
 30
0.0
 10
31.115849
 20
57.937588
 30
0.0
  0
SPLINE
  5
21c
100
AcDbEntity
  8
0
 62
7
100
AcDbSpline
 70
8
 71
3
 72
8
 73
4
 74
0
 40
0
 40
0
 40
0
 40
0
 40
1
 40
1
 40
1
 40
1
 10
31.115849
 20
57.937588
 30
0.0
 10
29.748030
 20
60.712297
 30
0.0
 10
27.150772
 20
62.959091
 30
0.0
 10
24.042776
 20
64.056244
 30
0.0
  0
SPLINE
  5
21d
100
AcDbEntity
  8
0
 62
7
100
AcDbSpline
 70
8
 71
3
 72
8
 73
4
 74
0
 40
0
 40
0
 40
0
 40
0
 40
1
 40
1
 40
1
 40
1
 10
24.042776
 20
64.056244
 30
0.0
 10
21.362835
 20
65.002291
 30
0.0
 10
21.469023
 20
65.077642
 30
0.0
 10
21.292622
 20
62.104775
 30
0.0
  0
SPLINE
  5
21e
100
AcDbEntity
  8
0
 62
7
100
AcDbSpline
 70
8
 71
3
 72
8
 73
4
 74
0
 40
0
 40
0
 40
0
 40
0
 40
1
 40
1
 40
1
 40
1
 10
21.292622
 20
62.104775
 30
0.0
 10
20.687602
 20
51.908456
 30
0.0
 10
15.101788
 20
45.671290
 30
0.0
 10
5.229162
 20
44.168184
 30
0.0
  0
SPLINE
  5
21f
100
AcDbEntity
  8
0
 62
7
100
AcDbSpline
 70
8
 71
3
 72
8
 73
4
 74
0
 40
0
 40
0
 40
0
 40
0
 40
1
 40
1
 40
1
 40
1
 10
5.229162
 20
44.168184
 30
0.0
 10
3.846714
 20
43.957708
 30
0.0
 10
2.209605
 20
43.784798
 30
0.0
 10
1.591141
 20
43.783941
 30
0.0
  0
SPLINE
  5
220
100
AcDbEntity
  8
0
 62
7
100
AcDbSpline
 70
8
 71
3
 72
8
 73
4
 74
0
 40
0
 40
0
 40
0
 40
0
 40
1
 40
1
 40
1
 40
1
 10
1.591141
 20
43.783941
 30
0.0
 10
0.972678
 20
43.783147
 30
0.0
 10
0.466662
 20
43.744459
 30
0.0
 10
0.466662
 20
43.698110
 30
0.0
  0
SPLINE
  5
221
100
AcDbEntity
  8
0
 62
7
100
AcDbSpline
 70
8
 71
3
 72
8
 73
4
 74
0
 40
0
 40
0
 40
0
 40
0
 40
1
 40
1
 40
1
 40
1
 10
0.466662
 20
43.698110
 30
0.0
 10
0.466662
 20
43.651763
 30
0.0
 10
0.658644
 20
42.967153
 30
0.0
 10
0.893287
 20
42.176756
 30
0.0
  0
SPLINE
  5
222
100
AcDbEntity
  8
0
 62
7
100
AcDbSpline
 70
8
 71
3
 72
8
 73
4
 74
0
 40
0
 40
0
 40
0
 40
0
 40
1
 40
1
 40
1
 40
1
 10
0.893287
 20
42.176756
 30
0.0
 10
2.240617
 20
37.638262
 30
0.0
 10
4.959578
 20
34.812840
 30
0.0
 10
9.462496
 20
33.272024
 30
0.0
  0
SPLINE
  5
223
100
AcDbEntity
  8
0
 62
7
100
AcDbSpline
 70
8
 71
3
 72
8
 73
4
 74
0
 40
0
 40
0
 40
0
 40
0
 40
1
 40
1
 40
1
 40
1
 10
9.462496
 20
33.272024
 30
0.0
 10
10.408381
 20
32.948359
 30
0.0
 10
11.254011
 20
32.680468
 30
0.0
 10
11.341672
 20
32.676711
 30
0.0
  0
SPLINE
  5
224
100
AcDbEntity
  8
0
 62
7
100
AcDbSpline
 70
8
 71
3
 72
8
 73
4
 74
0
 40
0
 40
0
 40
0
 40
0
 40
1
 40
1
 40
1
 40
1
 10
11.341672
 20
32.676711
 30
0.0
 10
11.429334
 20
32.672954
 30
0.0
 10
11.579157
 20
33.771208
 30
0.0
 10
11.674613
 20
35.117275
 30
0.0
  0
LWPOLYLINE
  5
225
100
AcDbEntity
  8
0
 62
7
100
AcDbPolyline
 90
1
 70
1
 10
107.289658
 20
17.109683
 30
0.0
  0
SPLINE
  5
226
100
AcDbEntity
  8
0
 62
7
100
AcDbSpline
 70
8
 71
3
 72
8
 73
4
 74
0
 40
0
 40
0
 40
0
 40
0
 40
1
 40
1
 40
1
 40
1
 10
44.652078
 20
34.078463
 30
0.0
 10
44.652078
 20
36.052919
 30
0.0
 10
45.393864
 20
40.165597
 30
0.0
 10
46.103670
 20
42.126498
 30
0.0
  0
SPLINE
  5
227
100
AcDbEntity
  8
0
 62
7
100
AcDbSpline
 70
8
 71
3
 72
8
 73
4
 74
0
 40
0
 40
0
 40
0
 40
0
 40
1
 40
1
 40
1
 40
1
 10
46.103670
 20
42.126498
 30
0.0
 10
47.630220
 20
46.343742
 30
0.0
 10
50.374476
 20
49.438970
 30
0.0
 10
54.222195
 20
51.283336
 30
0.0
  0
SPLINE
  5
228
100
AcDbEntity
  8
0
 62
7
100
AcDbSpline
 70
8
 71
3
 72
8
 73
4
 74
0
 40
0
 40
0
 40
0
 40
0
 40
1
 40
1
 40
1
 40
1
 10
54.222195
 20
51.283336
 30
0.0
 10
56.960759
 20
52.596037
 30
0.0
 10
59.322316
 20
53.254817
 30
0.0
 10
62.033221
 20
53.462304
 30
0.0
  0
SPLINE
  5
229
100
AcDbEntity
  8
0
 62
7
100
AcDbSpline
 70
8
 71
3
 72
8
 73
4
 74
0
 40
0
 40
0
 40
0
 40
0
 40
1
 40
1
 40
1
 40
1
 10
62.033221
 20
53.462304
 30
0.0
 10
65.559943
 20
53.732229
 30
0.0
 10
65.613912
 20
53.752200
 30
0.0
 10
65.410006
 20
54.711746
 30
0.0
  0
SPLINE
  5
22a
100
AcDbEntity
  8
0
 62
7
100
AcDbSpline
 70
8
 71
3
 72
8
 73
4
 74
0
 40
0
 40
0
 40
0
 40
0
 40
1
 40
1
 40
1
 40
1
 10
65.410006
 20
54.711746
 30
0.0
 10
64.790077
 20
57.629033
 30
0.0
 10
62.314074
 20
61.182409
 30
0.0
 10
59.773442
 20
62.800918
 30
0.0
  0
SPLINE
  5
22b
100
AcDbEntity
  8
0
 62
7
100
AcDbSpline
 70
8
 71
3
 72
8
 73
4
 74
0
 40
0
 40
0
 40
0
 40
0
 40
1
 40
1
 40
1
 40
1
 10
59.773442
 20
62.800918
 30
0.0
 10
58.596138
 20
63.550922
 30
0.0
 10
55.655324
 20
64.684463
 30
0.0
 10
54.886852
 20
64.684463
 30
0.0
  0
SPLINE
  5
22c
100
AcDbEntity
  8
0
 62
7
100
AcDbSpline
 70
8
 71
3
 72
8
 73
4
 74
0
 40
0
 40
0
 40
0
 40
0
 40
1
 40
1
 40
1
 40
1
 10
54.886852
 20
64.684463
 30
0.0
 10
54.612315
 20
64.684463
 30
0.0
 10
54.481262
 20
64.043753
 30
0.0
 10
54.359194
 20
62.104775
 30
0.0
  0
SPLINE
  5
22d
100
AcDbEntity
  8
0
 62
7
100
AcDbSpline
 70
8
 71
3
 72
8
 73
4
 74
0
 40
0
 40
0
 40
0
 40
0
 40
1
 40
1
 40
1
 40
1
 10
54.359194
 20
62.104775
 30
0.0
 10
53.820367
 20
53.545886
 30
0.0
 10
49.628533
 20
47.606733
 30
0.0
 10
42.343668
 20
45.080719
 30
0.0
  0
SPLINE
  5
22e
100
AcDbEntity
  8
0
 62
7
100
AcDbSpline
 70
8
 71
3
 72
8
 73
4
 74
0
 40
0
 40
0
 40
0
 40
0
 40
1
 40
1
 40
1
 40
1
 10
42.343668
 20
45.080719
 30
0.0
 10
40.662048
 20
44.497620
 30
0.0
 10
36.438533
 20
43.786385
 30
0.0
 10
34.643034
 20
43.783941
 30
0.0
  0
LWPOLYLINE
  5
22f
100
AcDbEntity
  8
0
 62
7
100
AcDbPolyline
 90
1
 70
1
 10
11.674613
 20
35.117275
 30
0.0
  0
SPLINE
  5
230
100
AcDbEntity
  8
0
 62
7
100
AcDbSpline
 70
8
 71
3
 72
8
 73
4
 74
0
 40
0
 40
0
 40
0
 40
0
 40
1
 40
1
 40
1
 40
1
 10
33.679614
 20
42.922457
 30
0.0
 10
34.450578
 20
39.281534
 30
0.0
 10
37.018841
 20
35.839360
 30
0.0
 10
40.154162
 20
34.244799
 30
0.0
  0
SPLINE
  5
231
100
AcDbEntity
  8
0
 62
7
100
AcDbSpline
 70
8
 71
3
 72
8
 73
4
 74
0
 40
0
 40
0
 40
0
 40
0
 40
1
 40
1
 40
1
 40
1
 10
40.154162
 20
34.244799
 30
0.0
 10
41.211553
 20
33.707028
 30
0.0
 10
43.925196
 20
32.721973
 30
0.0
 10
44.453641
 20
32.684082
 30
0.0
  0
SPLINE
  5
232
100
AcDbEntity
  8
0
 62
7
100
AcDbSpline
 70
8
 71
3
 72
8
 73
4
 74
0
 40
0
 40
0
 40
0
 40
0
 40
1
 40
1
 40
1
 40
1
 10
44.453641
 20
32.684082
 30
0.0
 10
44.562781
 20
32.676251
 30
0.0
 10
44.652078
 20
33.303715
 30
0.0
 10
44.652078
 20
34.078437
 30
0.0
  0
LWPOLYLINE
  5
233
100
AcDbEntity
  8
0
 62
7
100
AcDbPolyline
 90
3
 70
0
 10
34.643034
 20
43.783941
 30
0.0
 10
33.497533
 20
43.782353
 30
0.0
 10
33.679614
 20
42.922457
 30
0.0
  0
SPLINE
  5
234
100
AcDbEntity
  8
0
 62
7
100
AcDbSpline
 70
8
 71
3
 72
8
 73
4
 74
0
 40
0
 40
0
 40
0
 40
0
 40
1
 40
1
 40
1
 40
1
 10
77.807921
 20
35.372429
 30
0.0
 10
78.536956
 20
46.295580
 30
0.0
 10
84.802731
 20
52.613867
 30
0.0
 10
95.828631
 20
53.544166
 30
0.0
  0
SPLINE
  5
235
100
AcDbEntity
  8
0
 62
7
100
AcDbSpline
 70
8
 71
3
 72
8
 73
4
 74
0
 40
0
 40
0
 40
0
 40
0
 40
1
 40
1
 40
1
 40
1
 10
95.828631
 20
53.544166
 30
0.0
 10
97.228025
 20
53.662239
 30
0.0
 10
98.429752
 20
53.815610
 30
0.0
 10
98.499134
 20
53.884991
 30
0.0
  0
SPLINE
  5
236
100
AcDbEntity
  8
0
 62
7
100
AcDbSpline
 70
8
 71
3
 72
8
 73
4
 74
0
 40
0
 40
0
 40
0
 40
0
 40
1
 40
1
 40
1
 40
1
 10
98.499134
 20
53.884991
 30
0.0
 10
98.723513
 20
54.109369
 30
0.0
 10
97.805179
 20
56.837088
 30
0.0
 10
96.981259
 20
58.393518
 30
0.0
  0
SPLINE
  5
237
100
AcDbEntity
  8
0
 62
7
100
AcDbSpline
 70
8
 71
3
 72
8
 73
4
 74
0
 40
0
 40
0
 40
0
 40
0
 40
1
 40
1
 40
1
 40
1
 10
96.981259
 20
58.393518
 30
0.0
 10
96.540378
 20
59.226363
 30
0.0
 10
95.541555
 20
60.511275
 30
0.0
 10
94.761651
 20
61.248877
 30
0.0
  0
SPLINE
  5
238
100
AcDbEntity
  8
0
 62
7
100
AcDbSpline
 70
8
 71
3
 72
8
 73
4
 74
0
 40
0
 40
0
 40
0
 40
0
 40
1
 40
1
 40
1
 40
1
 10
94.761651
 20
61.248877
 30
0.0
 10
93.292896
 20
62.637964
 30
0.0
 10
90.251312
 20
64.258513
 30
0.0
 10
88.547345
 20
64.559844
 30
0.0
  0
LWPOLYLINE
  5
239
100
AcDbEntity
  8
0
 62
7
100
AcDbPolyline
 90
1
 70
1
 10
44.652078
 20
34.078437
 30
0.0
  0
SPLINE
  5
23a
100
AcDbEntity
  8
0
 62
7
100
AcDbSpline
 70
8
 71
3
 72
8
 73
4
 74
0
 40
0
 40
0
 40
0
 40
0
 40
1
 40
1
 40
1
 40
1
 10
87.442741
 20
62.391192
 30
0.0
 10
87.223738
 20
59.045975
 30
0.0
 10
86.572267
 20
56.444639
 30
0.0
 10
85.244416
 20
53.613235
 30
0.0
  0
SPLINE
  5
23b
100
AcDbEntity
  8
0
 62
7
100
AcDbSpline
 70
8
 71
3
 72
8
 73
4
 74
0
 40
0
 40
0
 40
0
 40
0
 40
1
 40
1
 40
1
 40
1
 10
85.244416
 20
53.613235
 30
0.0
 10
82.711219
 20
48.211634
 30
0.0
 10
77.968933
 20
45.092951
 30
0.0
 10
70.713537
 20
44.057245
 30
0.0
  0
SPLINE
  5
23c
100
AcDbEntity
  8
0
 62
7
100
AcDbSpline
 70
8
 71
3
 72
8
 73
4
 74
0
 40
0
 40
0
 40
0
 40
0
 40
1
 40
1
 40
1
 40
1
 10
70.713537
 20
44.057245
 30
0.0
 10
69.694891
 20
43.911835
 30
0.0
 10
68.355438
 20
43.790502
 30
0.0
 10
67.736974
 20
43.787621
 30
0.0
  0
SPLINE
  5
23d
100
AcDbEntity
  8
0
 62
7
100
AcDbSpline
 70
8
 71
3
 72
8
 73
4
 74
0
 40
0
 40
0
 40
0
 40
0
 40
1
 40
1
 40
1
 40
1
 10
67.736974
 20
43.787621
 30
0.0
 10
67.118510
 20
43.784737
 30
0.0
 10
66.612495
 20
43.675858
 30
0.0
 10
66.612495
 20
43.545667
 30
0.0
  0
SPLINE
  5
23e
100
AcDbEntity
  8
0
 62
7
100
AcDbSpline
 70
8
 71
3
 72
8
 73
4
 74
0
 40
0
 40
0
 40
0
 40
0
 40
1
 40
1
 40
1
 40
1
 10
66.612495
 20
43.545667
 30
0.0
 10
66.612495
 20
43.415474
 30
0.0
 10
66.851723
 20
42.534419
 30
0.0
 10
67.144114
 20
41.587767
 30
0.0
  0
SPLINE
  5
23f
100
AcDbEntity
  8
0
 62
7
100
AcDbSpline
 70
8
 71
3
 72
8
 73
4
 74
0
 40
0
 40
0
 40
0
 40
0
 40
1
 40
1
 40
1
 40
1
 10
67.144114
 20
41.587767
 30
0.0
 10
68.121260
 20
38.424141
 30
0.0
 10
70.386797
 20
35.689336
 30
0.0
 10
73.227078
 20
34.244825
 30
0.0
  0
SPLINE
  5
240
100
AcDbEntity
  8
0
 62
7
100
AcDbSpline
 70
8
 71
3
 72
8
 73
4
 74
0
 40
0
 40
0
 40
0
 40
0
 40
1
 40
1
 40
1
 40
1
 10
73.227078
 20
34.244825
 30
0.0
 10
74.548786
 20
33.572630
 30
0.0
 10
77.240201
 20
32.672568
 30
0.0
 10
77.486034
 20
32.820546
 30
0.0
  0
SPLINE
  5
241
100
AcDbEntity
  8
0
 62
7
100
AcDbSpline
 70
8
 71
3
 72
8
 73
4
 74
0
 40
0
 40
0
 40
0
 40
0
 40
1
 40
1
 40
1
 40
1
 10
77.486034
 20
32.820546
 30
0.0
 10
77.572883
 20
32.872826
 30
0.0
 10
77.717735
 20
34.021173
 30
0.0
 10
77.807921
 20
35.372429
 30
0.0
  0
LWPOLYLINE
  5
242
100
AcDbEntity
  8
0
 62
7
100
AcDbPolyline
 90
3
 70
0
 10
88.547345
 20
64.559844
 30
0.0
 10
87.595734
 20
64.728130
 30
0.0
 10
87.442741
 20
62.391192
 30
0.0
  0
SPLINE
  5
243
100
AcDbEntity
  8
0
 62
7
100
AcDbSpline
 70
8
 71
3
 72
8
 73
4
 74
0
 40
0
 40
0
 40
0
 40
0
 40
1
 40
1
 40
1
 40
1
 10
110.882348
 20
35.504707
 30
0.0
 10
111.088313
 20
38.726446
 30
0.0
 10
111.634402
 20
40.927925
 30
0.0
 10
112.902852
 20
43.650088
 30
0.0
  0
SPLINE
  5
244
100
AcDbEntity
  8
0
 62
7
100
AcDbSpline
 70
8
 71
3
 72
8
 73
4
 74
0
 40
0
 40
0
 40
0
 40
0
 40
1
 40
1
 40
1
 40
1
 10
112.902852
 20
43.650088
 30
0.0
 10
115.716238
 20
49.687763
 30
0.0
 10
120.833975
 20
52.859406
 30
0.0
 10
128.861135
 20
53.539993
 30
0.0
  0
SPLINE
  5
245
100
AcDbEntity
  8
0
 62
7
100
AcDbSpline
 70
8
 71
3
 72
8
 73
4
 74
0
 40
0
 40
0
 40
0
 40
0
 40
1
 40
1
 40
1
 40
1
 10
128.861135
 20
53.539993
 30
0.0
 10
130.282939
 20
53.660543
 30
0.0
 10
131.505052
 20
53.817994
 30
0.0
 10
131.576942
 20
53.889884
 30
0.0
  0
SPLINE
  5
246
100
AcDbEntity
  8
0
 62
7
100
AcDbSpline
 70
8
 71
3
 72
8
 73
4
 74
0
 40
0
 40
0
 40
0
 40
0
 40
1
 40
1
 40
1
 40
1
 10
131.576942
 20
53.889884
 30
0.0
 10
131.648835
 20
53.961773
 30
0.0
 10
131.469561
 20
54.791443
 30
0.0
 10
131.178562
 20
55.733593
 30
0.0
  0
SPLINE
  5
247
100
AcDbEntity
  8
0
 62
7
100
AcDbSpline
 70
8
 71
3
 72
8
 73
4
 74
0
 40
0
 40
0
 40
0
 40
0
 40
1
 40
1
 40
1
 40
1
 10
131.178562
 20
55.733593
 30
0.0
 10
130.538104
 20
57.807159
 30
0.0
 10
129.015916
 20
60.222810
 30
0.0
 10
127.479491
 20
61.603866
 30
0.0
  0
SPLINE
  5
248
100
AcDbEntity
  8
0
 62
7
100
AcDbSpline
 70
8
 71
3
 72
8
 73
4
 74
0
 40
0
 40
0
 40
0
 40
0
 40
1
 40
1
 40
1
 40
1
 10
127.479491
 20
61.603866
 30
0.0
 10
126.221355
 20
62.734777
 30
0.0
 10
123.114649
 20
64.295338
 30
0.0
 10
121.579682
 20
64.567459
 30
0.0
  0
LWPOLYLINE
  5
249
100
AcDbEntity
  8
0
 62
7
100
AcDbPolyline
 90
1
 70
1
 10
77.807921
 20
35.372429
 30
0.0
  0
SPLINE
  5
24a
100
AcDbEntity
  8
0
 62
7
100
AcDbSpline
 70
8
 71
3
 72
8
 73
4
 74
0
 40
0
 40
0
 40
0
 40
0
 40
1
 40
1
 40
1
 40
1
 10
120.586436
 20
63.457137
 30
0.0
 10
120.584849
 20
61.635820
 30
0.0
 10
119.906105
 20
57.681987
 30
0.0
 10
119.285599
 20
55.880373
 30
0.0
  0
SPLINE
  5
24b
100
AcDbEntity
  8
0
 62
7
100
AcDbSpline
 70
8
 71
3
 72
8
 73
4
 74
0
 40
0
 40
0
 40
0
 40
0
 40
1
 40
1
 40
1
 40
1
 10
119.285599
 20
55.880373
 30
0.0
 10
117.850563
 20
51.713813
 30
0.0
 10
114.906528
 20
48.153690
 30
0.0
 10
111.390239
 20
46.332783
 30
0.0
  0
SPLINE
  5
24c
100
AcDbEntity
  8
0
 62
7
100
AcDbSpline
 70
8
 71
3
 72
8
 73
4
 74
0
 40
0
 40
0
 40
0
 40
0
 40
1
 40
1
 40
1
 40
1
 10
111.390239
 20
46.332783
 30
0.0
 10
109.047195
 20
45.119441
 30
0.0
 10
105.270742
 20
44.128092
 30
0.0
 10
102.071720
 20
43.886596
 30
0.0
  0
SPLINE
  5
24d
100
AcDbEntity
  8
0
 62
7
100
AcDbSpline
 70
8
 71
3
 72
8
 73
4
 74
0
 40
0
 40
0
 40
0
 40
0
 40
1
 40
1
 40
1
 40
1
 10
102.071720
 20
43.886596
 30
0.0
 10
100.492211
 20
43.767359
 30
0.0
 10
99.685417
 20
43.599113
 30
0.0
 10
99.685417
 20
43.388963
 30
0.0
  0
SPLINE
  5
24e
100
AcDbEntity
  8
0
 62
7
100
AcDbSpline
 70
8
 71
3
 72
8
 73
4
 74
0
 40
0
 40
0
 40
0
 40
0
 40
1
 40
1
 40
1
 40
1
 10
99.685417
 20
43.388963
 30
0.0
 10
99.685417
 20
42.775563
 30
0.0
 10
100.753399
 20
39.975946
 30
0.0
 10
101.423756
 20
38.832070
 30
0.0
  0
SPLINE
  5
24f
100
AcDbEntity
  8
0
 62
7
100
AcDbSpline
 70
8
 71
3
 72
8
 73
4
 74
0
 40
0
 40
0
 40
0
 40
0
 40
1
 40
1
 40
1
 40
1
 10
101.423756
 20
38.832070
 30
0.0
 10
103.009089
 20
36.126904
 30
0.0
 10
104.991890
 20
34.557904
 30
0.0
 10
108.251593
 20
33.429173
 30
0.0
  0
SPLINE
  5
250
100
AcDbEntity
  8
0
 62
7
100
AcDbSpline
 70
8
 71
3
 72
8
 73
4
 74
0
 40
0
 40
0
 40
0
 40
0
 40
1
 40
1
 40
1
 40
1
 10
108.251593
 20
33.429173
 30
0.0
 10
109.413529
 20
33.026832
 30
0.0
 10
110.443544
 20
32.746677
 30
0.0
 10
110.540517
 20
32.806611
 30
0.0
  0
SPLINE
  5
251
100
AcDbEntity
  8
0
 62
7
100
AcDbSpline
 70
8
 71
3
 72
8
 73
4
 74
0
 40
0
 40
0
 40
0
 40
0
 40
1
 40
1
 40
1
 40
1
 10
110.540517
 20
32.806611
 30
0.0
 10
110.637489
 20
32.866542
 30
0.0
 10
110.791315
 20
34.080685
 30
0.0
 10
110.882353
 20
35.504707
 30
0.0
  0
LWPOLYLINE
  5
252
100
AcDbEntity
  8
0
 62
7
100
AcDbPolyline
 90
3
 70
0
 10
121.579682
 20
64.567459
 30
0.0
 10
120.587495
 20
64.743354
 30
0.0
 10
120.586436
 20
63.457137
 30
0.0
  0
SPLINE
  5
253
100
AcDbEntity
  8
0
 62
7
100
AcDbSpline
 70
8
 71
3
 72
8
 73
4
 74
0
 40
0
 40
0
 40
0
 40
0
 40
1
 40
1
 40
1
 40
1
 10
40.360169
 20
49.889653
 30
0.0
 10
44.555622
 20
51.306481
 30
0.0
 10
47.379946
 20
54.316664
 30
0.0
 10
48.705349
 20
58.784011
 30
0.0
  0
LWPOLYLINE
  5
254
100
AcDbEntity
  8
0
 62
7
100
AcDbPolyline
 90
1
 70
1
 10
110.882353
 20
35.504707
 30
0.0
  0
SPLINE
  5
255
100
AcDbEntity
  8
0
 62
7
100
AcDbSpline
 70
8
 71
3
 72
8
 73
4
 74
0
 40
0
 40
0
 40
0
 40
0
 40
1
 40
1
 40
1
 40
1
 10
48.007254
 20
60.296317
 30
0.0
 10
47.398834
 20
60.371508
 30
0.0
 10
46.086242
 20
60.507303
 30
0.0
 10
45.090379
 20
60.598079
 30
0.0
  0
SPLINE
  5
256
100
AcDbEntity
  8
0
 62
7
100
AcDbSpline
 70
8
 71
3
 72
8
 73
4
 74
0
 40
0
 40
0
 40
0
 40
0
 40
1
 40
1
 40
1
 40
1
 10
45.090379
 20
60.598079
 30
0.0
 10
40.819882
 20
60.987347
 30
0.0
 10
36.678992
 20
62.738259
 30
0.0
 10
33.866360
 20
65.343976
 30
0.0
  0
SPLINE
  5
257
100
AcDbEntity
  8
0
 62
7
100
AcDbSpline
 70
8
 71
3
 72
8
 73
4
 74
0
 40
0
 40
0
 40
0
 40
0
 40
1
 40
1
 40
1
 40
1
 10
33.866360
 20
65.343976
 30
0.0
 10
30.669103
 20
68.306021
 30
0.0
 10
28.859641
 20
72.487581
 30
0.0
 10
28.232941
 20
78.362479
 30
0.0
  0
SPLINE
  5
258
100
AcDbEntity
  8
0
 62
7
100
AcDbSpline
 70
8
 71
3
 72
8
 73
4
 74
0
 40
0
 40
0
 40
0
 40
0
 40
1
 40
1
 40
1
 40
1
 10
28.232941
 20
78.362479
 30
0.0
 10
28.065233
 20
79.934623
 30
0.0
 10
27.898640
 20
81.252819
 30
0.0
 10
27.862739
 20
81.291808
 30
0.0
  0
SPLINE
  5
259
100
AcDbEntity
  8
0
 62
7
100
AcDbSpline
 70
8
 71
3
 72
8
 73
4
 74
0
 40
0
 40
0
 40
0
 40
0
 40
1
 40
1
 40
1
 40
1
 10
27.862739
 20
81.291808
 30
0.0
 10
27.826835
 20
81.330795
 30
0.0
 10
26.944378
 20
81.074077
 30
0.0
 10
25.901728
 20
80.721322
 30
0.0
  0
SPLINE
  5
25a
100
AcDbEntity
  8
0
 62
7
100
AcDbSpline
 70
8
 71
3
 72
8
 73
4
 74
0
 40
0
 40
0
 40
0
 40
0
 40
1
 40
1
 40
1
 40
1
 10
25.901728
 20
80.721322
 30
0.0
 10
23.583237
 20
79.936922
 30
0.0
 10
21.763104
 20
78.797510
 30
0.0
 10
20.309555
 20
77.220596
 30
0.0
  0
SPLINE
  5
25b
100
AcDbEntity
  8
0
 62
7
100
AcDbSpline
 70
8
 71
3
 72
8
 73
4
 74
0
 40
0
 40
0
 40
0
 40
0
 40
1
 40
1
 40
1
 40
1
 10
20.309555
 20
77.220596
 30
0.0
 10
19.116649
 20
75.926445
 30
0.0
 10
17.470806
 20
72.734157
 30
0.0
 10
17.229342
 20
71.246193
 30
0.0
  0
LWPOLYLINE
  5
25c
100
AcDbEntity
  8
0
 62
7
100
AcDbPolyline
 90
3
 70
0
 10
48.705349
 20
58.784011
 30
0.0
 10
49.113472
 20
60.159601
 30
0.0
 10
48.007254
 20
60.296317
 30
0.0
  0
SPLINE
  5
25d
100
AcDbEntity
  8
0
 62
7
100
AcDbSpline
 70
8
 71
3
 72
8
 73
4
 74
0
 40
0
 40
0
 40
0
 40
0
 40
1
 40
1
 40
1
 40
1
 10
19.422174
 20
70.134467
 30
0.0
 10
30.555779
 20
69.262109
 30
0.0
 10
36.672142
 20
63.372717
 30
0.0
 10
37.813215
 20
52.425888
 30
0.0
  0
SPLINE
  5
25e
100
AcDbEntity
  8
0
 62
7
100
AcDbSpline
 70
8
 71
3
 72
8
 73
4
 74
0
 40
0
 40
0
 40
0
 40
0
 40
1
 40
1
 40
1
 40
1
 10
37.813215
 20
52.425888
 30
0.0
 10
38.012674
 20
50.512393
 30
0.0
 10
38.247844
 20
49.338630
 30
0.0
 10
38.431761
 20
49.338630
 30
0.0
  0
SPLINE
  5
25f
100
AcDbEntity
  8
0
 62
7
100
AcDbSpline
 70
8
 71
3
 72
8
 73
4
 74
0
 40
0
 40
0
 40
0
 40
0
 40
1
 40
1
 40
1
 40
1
 10
38.431761
 20
49.338630
 30
0.0
 10
38.594964
 20
49.338630
 30
0.0
 10
39.462750
 20
49.586592
 30
0.0
 10
40.360169
 20
49.889653
 30
0.0
  0
LWPOLYLINE
  5
260
100
AcDbEntity
  8
0
 62
7
100
AcDbPolyline
 90
3
 70
0
 10
17.229342
 20
71.246193
 30
0.0
 10
17.078731
 20
70.318082
 30
0.0
 10
19.422174
 20
70.134467
 30
0.0
  0
SPLINE
  5
261
100
AcDbEntity
  8
0
 62
7
100
AcDbSpline
 70
8
 71
3
 72
8
 73
4
 74
0
 40
0
 40
0
 40
0
 40
0
 40
1
 40
1
 40
1
 40
1
 10
73.646115
 20
49.979662
 30
0.0
 10
75.793960
 20
50.759289
 30
0.0
 10
77.986541
 20
52.230269
 30
0.0
 10
79.190120
 20
53.699079
 30
0.0
  0
SPLINE
  5
262
100
AcDbEntity
  8
0
 62
7
100
AcDbSpline
 70
8
 71
3
 72
8
 73
4
 74
0
 40
0
 40
0
 40
0
 40
0
 40
1
 40
1
 40
1
 40
1
 10
79.190120
 20
53.699079
 30
0.0
 10
80.244064
 20
54.985280
 30
0.0
 10
81.654483
 20
57.887510
 30
0.0
 10
81.869492
 20
59.212443
 30
0.0
  0
SPLINE
  5
263
100
AcDbEntity
  8
0
 62
7
100
AcDbSpline
 70
8
 71
3
 72
8
 73
4
 74
0
 40
0
 40
0
 40
0
 40
0
 40
1
 40
1
 40
1
 40
1
 10
81.869492
 20
59.212443
 30
0.0
 10
82.039386
 20
60.259381
 30
0.0
 10
82.233029
 20
60.189978
 30
0.0
 10
78.029903
 20
60.588565
 30
0.0
  0
SPLINE
  5
264
100
AcDbEntity
  8
0
 62
7
100
AcDbSpline
 70
8
 71
3
 72
8
 73
4
 74
0
 40
0
 40
0
 40
0
 40
0
 40
1
 40
1
 40
1
 40
1
 10
78.029903
 20
60.588565
 30
0.0
 10
75.793613
 20
60.800636
 30
0.0
 10
72.160035
 20
61.874707
 30
0.0
 10
70.191484
 20
62.905571
 30
0.0
  0
SPLINE
  5
265
100
AcDbEntity
  8
0
 62
7
100
AcDbSpline
 70
8
 71
3
 72
8
 73
4
 74
0
 40
0
 40
0
 40
0
 40
0
 40
1
 40
1
 40
1
 40
1
 10
70.191484
 20
62.905571
 30
0.0
 10
69.274166
 20
63.385938
 30
0.0
 10
67.741848
 20
64.587242
 30
0.0
 10
66.583827
 20
65.733893
 30
0.0
  0
SPLINE
  5
266
100
AcDbEntity
  8
0
 62
7
100
AcDbSpline
 70
8
 71
3
 72
8
 73
4
 74
0
 40
0
 40
0
 40
0
 40
0
 40
1
 40
1
 40
1
 40
1
 10
66.583827
 20
65.733893
 30
0.0
 10
63.356921
 20
68.929115
 30
0.0
 10
61.695436
 20
73.063407
 30
0.0
 10
61.183978
 20
79.170400
 30
0.0
  0
SPLINE
  5
267
100
AcDbEntity
  8
0
 62
7
100
AcDbSpline
 70
8
 71
3
 72
8
 73
4
 74
0
 40
0
 40
0
 40
0
 40
0
 40
1
 40
1
 40
1
 40
1
 10
61.183978
 20
79.170400
 30
0.0
 10
61.083433
 20
80.370947
 30
0.0
 10
60.973692
 20
81.353213
 30
0.0
 10
60.940111
 20
81.353213
 30
0.0
  0
SPLINE
  5
268
100
AcDbEntity
  8
0
 62
7
100
AcDbSpline
 70
8
 71
3
 72
8
 73
4
 74
0
 40
0
 40
0
 40
0
 40
0
 40
1
 40
1
 40
1
 40
1
 10
60.940111
 20
81.353213
 30
0.0
 10
60.906533
 20
81.353213
 30
0.0
 10
60.115252
 20
81.105401
 30
0.0
 10
59.181714
 20
80.802520
 30
0.0
  0
SPLINE
  5
269
100
AcDbEntity
  8
0
 62
7
100
AcDbSpline
 70
8
 71
3
 72
8
 73
4
 74
0
 40
0
 40
0
 40
0
 40
0
 40
1
 40
1
 40
1
 40
1
 10
59.181714
 20
80.802520
 30
0.0
 10
54.979316
 20
79.439079
 30
0.0
 10
52.090328
 20
76.686331
 30
0.0
 10
50.738654
 20
72.757620
 30
0.0
  0
SPLINE
  5
26a
100
AcDbEntity
  8
0
 62
7
100
AcDbSpline
 70
8
 71
3
 72
8
 73
4
 74
0
 40
0
 40
0
 40
0
 40
0
 40
1
 40
1
 40
1
 40
1
 10
50.738654
 20
72.757620
 30
0.0
 10
49.891728
 20
70.295990
 30
0.0
 10
49.798780
 20
70.399376
 30
0.0
 10
53.184891
 20
70.036698
 30
0.0
  0
SPLINE
  5
26b
100
AcDbEntity
  8
0
 62
7
100
AcDbSpline
 70
8
 71
3
 72
8
 73
4
 74
0
 40
0
 40
0
 40
0
 40
0
 40
1
 40
1
 40
1
 40
1
 10
53.184891
 20
70.036698
 30
0.0
 10
54.822000
 20
69.861353
 30
0.0
 10
56.952986
 20
69.490212
 30
0.0
 10
57.920416
 20
69.211939
 30
0.0
  0
SPLINE
  5
26c
100
AcDbEntity
  8
0
 62
7
100
AcDbSpline
 70
8
 71
3
 72
8
 73
4
 74
0
 40
0
 40
0
 40
0
 40
0
 40
1
 40
1
 40
1
 40
1
 10
57.920416
 20
69.211939
 30
0.0
 10
65.922877
 20
66.910111
 30
0.0
 10
70.192649
 20
61.086370
 30
0.0
 10
70.987489
 20
51.389150
 30
0.0
  0
SPLINE
  5
26d
100
AcDbEntity
  8
0
 62
7
100
AcDbSpline
 70
8
 71
3
 72
8
 73
4
 74
0
 40
0
 40
0
 40
0
 40
0
 40
1
 40
1
 40
1
 40
1
 10
70.987489
 20
51.389150
 30
0.0
 10
71.108583
 20
49.911757
 30
0.0
 10
71.256813
 20
49.338630
 30
0.0
 10
71.517825
 20
49.338630
 30
0.0
  0
SPLINE
  5
26e
100
AcDbEntity
  8
0
 62
7
100
AcDbSpline
 70
8
 71
3
 72
8
 73
4
 74
0
 40
0
 40
0
 40
0
 40
0
 40
1
 40
1
 40
1
 40
1
 10
71.517825
 20
49.338630
 30
0.0
 10
71.717072
 20
49.338630
 30
0.0
 10
72.674800
 20
49.627094
 30
0.0
 10
73.646115
 20
49.979662
 30
0.0
  0
LWPOLYLINE
  5
26f
100
AcDbEntity
  8
0
 62
7
100
AcDbPolyline
 90
1
 70
1
 10
40.360169
 20
49.889653
 30
0.0
  0
SPLINE
  5
270
100
AcDbEntity
  8
0
 62
7
100
AcDbSpline
 70
8
 71
3
 72
8
 73
4
 74
0
 40
0
 40
0
 40
0
 40
0
 40
1
 40
1
 40
1
 40
1
 10
107.164883
 20
50.132223
 30
0.0
 10
110.903687
 20
51.531089
 30
0.0
 10
114.188751
 20
55.381750
 30
0.0
 10
114.906272
 20
59.206463
 30
0.0
  0
LWPOLYLINE
  5
271
100
AcDbEntity
  8
0
 62
7
100
AcDbPolyline
 90
1
 70
1
 10
73.646115
 20
49.979662
 30
0.0
  0
SPLINE
  5
272
100
AcDbEntity
  8
0
 62
7
100
AcDbSpline
 70
8
 71
3
 72
8
 73
4
 74
0
 40
0
 40
0
 40
0
 40
0
 40
1
 40
1
 40
1
 40
1
 10
113.932449
 20
60.277521
 30
0.0
 10
105.847623
 20
61.199062
 30
0.0
 10
102.701558
 20
62.442881
 30
0.0
 10
99.264494
 20
66.076600
 30
0.0
  0
SPLINE
  5
273
100
AcDbEntity
  8
0
 62
7
100
AcDbSpline
 70
8
 71
3
 72
8
 73
4
 74
0
 40
0
 40
0
 40
0
 40
0
 40
1
 40
1
 40
1
 40
1
 10
99.264494
 20
66.076600
 30
0.0
 10
96.378932
 20
69.127262
 30
0.0
 10
94.676367
 20
73.485737
 30
0.0
 10
94.252209
 20
78.907799
 30
0.0
  0
SPLINE
  5
274
100
AcDbEntity
  8
0
 62
7
100
AcDbSpline
 70
8
 71
3
 72
8
 73
4
 74
0
 40
0
 40
0
 40
0
 40
0
 40
1
 40
1
 40
1
 40
1
 10
94.252209
 20
78.907799
 30
0.0
 10
94.146992
 20
80.252776
 30
0.0
 10
94.038343
 20
81.353213
 30
0.0
 10
94.010766
 20
81.353213
 30
0.0
  0
SPLINE
  5
275
100
AcDbEntity
  8
0
 62
7
100
AcDbSpline
 70
8
 71
3
 72
8
 73
4
 74
0
 40
0
 40
0
 40
0
 40
0
 40
1
 40
1
 40
1
 40
1
 10
94.010766
 20
81.353213
 30
0.0
 10
93.983186
 20
81.353213
 30
0.0
 10
93.313935
 20
81.163263
 30
0.0
 10
92.523538
 20
80.931102
 30
0.0
  0
SPLINE
  5
276
100
AcDbEntity
  8
0
 62
7
100
AcDbSpline
 70
8
 71
3
 72
8
 73
4
 74
0
 40
0
 40
0
 40
0
 40
0
 40
1
 40
1
 40
1
 40
1
 10
92.523538
 20
80.931102
 30
0.0
 10
87.980882
 20
79.596800
 30
0.0
 10
84.624444
 20
76.153965
 30
0.0
 10
83.421844
 20
71.595126
 30
0.0
  0
LWPOLYLINE
  5
277
100
AcDbEntity
  8
0
 62
7
100
AcDbPolyline
 90
3
 70
0
 10
114.906272
 20
59.206463
 30
0.0
 10
115.082608
 20
60.146419
 30
0.0
 10
113.932449
 20
60.277521
 30
0.0
  0
SPLINE
  5
278
100
AcDbEntity
  8
0
 62
7
100
AcDbSpline
 70
8
 71
3
 72
8
 73
4
 74
0
 40
0
 40
0
 40
0
 40
0
 40
1
 40
1
 40
1
 40
1
 10
84.165088
 20
70.239125
 30
0.0
 10
86.265112
 20
70.236162
 30
0.0
 10
90.350536
 20
69.468550
 30
0.0
 10
92.562079
 20
68.661436
 30
0.0
  0
SPLINE
  5
279
100
AcDbEntity
  8
0
 62
7
100
AcDbSpline
 70
8
 71
3
 72
8
 73
4
 74
0
 40
0
 40
0
 40
0
 40
0
 40
1
 40
1
 40
1
 40
1
 10
92.562079
 20
68.661436
 30
0.0
 10
99.623396
 20
66.084376
 30
0.0
 10
103.173628
 20
60.662100
 30
0.0
 10
104.062853
 20
51.096286
 30
0.0
  0
SPLINE
  5
27a
100
AcDbEntity
  8
0
 62
7
100
AcDbSpline
 70
8
 71
3
 72
8
 73
4
 74
0
 40
0
 40
0
 40
0
 40
0
 40
1
 40
1
 40
1
 40
1
 10
104.062853
 20
51.096286
 30
0.0
 10
104.229903
 20
49.299267
 30
0.0
 10
104.238224
 20
49.283437
 30
0.0
 10
104.941857
 20
49.424164
 30
0.0
  0
SPLINE
  5
27b
100
AcDbEntity
  8
0
 62
7
100
AcDbSpline
 70
8
 71
3
 72
8
 73
4
 74
0
 40
0
 40
0
 40
0
 40
0
 40
1
 40
1
 40
1
 40
1
 10
104.941857
 20
49.424164
 30
0.0
 10
105.332554
 20
49.502303
 30
0.0
 10
106.332917
 20
49.820917
 30
0.0
 10
107.164883
 20
50.132197
 30
0.0
  0
LWPOLYLINE
  5
27c
100
AcDbEntity
  8
0
 62
7
100
AcDbPolyline
 90
3
 70
0
 10
83.421844
 20
71.595126
 30
0.0
 10
83.064556
 20
70.240713
 30
0.0
 10
84.165088
 20
70.239125
 30
0.0
  0
SPLINE
  5
27d
100
AcDbEntity
  8
0
 62
7
100
AcDbSpline
 70
8
 71
3
 72
8
 73
4
 74
0
 40
0
 40
0
 40
0
 40
0
 40
1
 40
1
 40
1
 40
1
 10
11.674894
 20
68.215820
 30
0.0
 10
12.463537
 20
79.435187
 30
0.0
 10
18.907819
 20
85.916720
 30
0.0
 10
29.923557
 20
86.569968
 30
0.0
  0
LWPOLYLINE
  5
27e
100
AcDbEntity
  8
0
 62
7
100
AcDbPolyline
 90
1
 70
1
 10
107.164883
 20
50.132197
 30
0.0
  0
SPLINE
  5
27f
100
AcDbEntity
  8
0
 62
7
100
AcDbSpline
 70
8
 71
3
 72
8
 73
4
 74
0
 40
0
 40
0
 40
0
 40
0
 40
1
 40
1
 40
1
 40
1
 10
32.356795
 20
87.676755
 30
0.0
 10
32.050874
 20
89.406571
 30
0.0
 10
30.435018
 20
92.422909
 30
0.0
 10
29.003331
 20
93.936709
 30
0.0
  0
SPLINE
  5
280
100
AcDbEntity
  8
0
 62
7
100
AcDbSpline
 70
8
 71
3
 72
8
 73
4
 74
0
 40
0
 40
0
 40
0
 40
0
 40
1
 40
1
 40
1
 40
1
 10
29.003331
 20
93.936709
 30
0.0
 10
27.540879
 20
95.483034
 30
0.0
 10
24.264780
 20
97.319780
 30
0.0
 10
22.400621
 20
97.638521
 30
0.0
  0
LWPOLYLINE
  5
281
100
AcDbEntity
  8
0
 62
7
100
AcDbPolyline
 90
3
 70
0
 10
29.923557
 20
86.569968
 30
0.0
 10
32.525245
 20
86.724252
 30
0.0
 10
32.356795
 20
87.676755
 30
0.0
  0
SPLINE
  5
282
100
AcDbEntity
  8
0
 62
7
100
AcDbSpline
 70
8
 71
3
 72
8
 73
4
 74
0
 40
0
 40
0
 40
0
 40
0
 40
1
 40
1
 40
1
 40
1
 10
21.293834
 20
95.199692
 30
0.0
 10
20.639123
 20
84.159278
 30
0.0
 10
14.183837
 20
77.749942
 30
0.0
 10
2.914058
 20
76.950747
 30
0.0
  0
SPLINE
  5
283
100
AcDbEntity
  8
0
 62
7
100
AcDbSpline
 70
8
 71
3
 72
8
 73
4
 74
0
 40
0
 40
0
 40
0
 40
0
 40
1
 40
1
 40
1
 40
1
 10
2.914058
 20
76.950747
 30
0.0
 10
1.567990
 20
76.855291
 30
0.0
 10
0.466662
 20
76.756845
 30
0.0
 10
0.466662
 20
76.731974
 30
0.0
  0
SPLINE
  5
284
100
AcDbEntity
  8
0
 62
7
100
AcDbSpline
 70
8
 71
3
 72
8
 73
4
 74
0
 40
0
 40
0
 40
0
 40
0
 40
1
 40
1
 40
1
 40
1
 10
0.466662
 20
76.731974
 30
0.0
 10
0.466662
 20
76.707103
 30
0.0
 10
0.658644
 20
76.040070
 30
0.0
 10
0.893287
 20
75.249672
 30
0.0
  0
SPLINE
  5
285
100
AcDbEntity
  8
0
 62
7
100
AcDbSpline
 70
8
 71
3
 72
8
 73
4
 74
0
 40
0
 40
0
 40
0
 40
0
 40
1
 40
1
 40
1
 40
1
 10
0.893287
 20
75.249672
 30
0.0
 10
2.257672
 20
70.653727
 30
0.0
 10
4.902577
 20
67.905262
 30
0.0
 10
9.462496
 20
66.344940
 30
0.0
  0
SPLINE
  5
286
100
AcDbEntity
  8
0
 62
7
100
AcDbSpline
 70
8
 71
3
 72
8
 73
4
 74
0
 40
0
 40
0
 40
0
 40
0
 40
1
 40
1
 40
1
 40
1
 10
9.462496
 20
66.344940
 30
0.0
 10
10.408381
 20
66.021275
 30
0.0
 10
11.254011
 20
65.753385
 30
0.0
 10
11.341672
 20
65.749628
 30
0.0
  0
SPLINE
  5
287
100
AcDbEntity
  8
0
 62
7
100
AcDbSpline
 70
8
 71
3
 72
8
 73
4
 74
0
 40
0
 40
0
 40
0
 40
0
 40
1
 40
1
 40
1
 40
1
 10
11.341672
 20
65.749628
 30
0.0
 10
11.429334
 20
65.745871
 30
0.0
 10
11.579284
 20
66.855657
 30
0.0
 10
11.674894
 20
68.215820
 30
0.0
  0
LWPOLYLINE
  5
288
100
AcDbEntity
  8
0
 62
7
100
AcDbPolyline
 90
3
 70
0
 10
22.400621
 20
97.638521
 30
0.0
 10
21.448118
 20
97.801380
 30
0.0
 10
21.293834
 20
95.199692
 30
0.0
  0
SPLINE
  5
289
100
AcDbEntity
  8
0
 62
7
100
AcDbSpline
 70
8
 71
3
 72
8
 73
4
 74
0
 40
0
 40
0
 40
0
 40
0
 40
1
 40
1
 40
1
 40
1
 10
44.740460
 20
68.190181
 30
0.0
 10
45.514964
 20
79.460156
 30
0.0
 10
51.916666
 20
85.912608
 30
0.0
 10
62.974474
 20
86.568746
 30
0.0
  0
SPLINE
  5
28a
100
AcDbEntity
  8
0
 62
7
100
AcDbSpline
 70
8
 71
3
 72
8
 73
4
 74
0
 40
0
 40
0
 40
0
 40
0
 40
1
 40
1
 40
1
 40
1
 10
62.974474
 20
86.568746
 30
0.0
 10
64.716980
 20
86.672142
 30
0.0
 10
65.554161
 20
86.824685
 30
0.0
 10
65.554161
 20
87.038796
 30
0.0
  0
SPLINE
  5
28b
100
AcDbEntity
  8
0
 62
7
100
AcDbSpline
 70
8
 71
3
 72
8
 73
4
 74
0
 40
0
 40
0
 40
0
 40
0
 40
1
 40
1
 40
1
 40
1
 10
65.554161
 20
87.038796
 30
0.0
 10
65.554161
 20
87.625687
 30
0.0
 10
64.522403
 20
90.360889
 30
0.0
 10
63.801125
 20
91.686115
 30
0.0
  0
SPLINE
  5
28c
100
AcDbEntity
  8
0
 62
7
100
AcDbSpline
 70
8
 71
3
 72
8
 73
4
 74
0
 40
0
 40
0
 40
0
 40
0
 40
1
 40
1
 40
1
 40
1
 10
63.801125
 20
91.686115
 30
0.0
 10
62.381392
 20
94.294635
 30
0.0
 10
58.442386
 20
97.107909
 30
0.0
 10
55.475140
 20
97.632618
 30
0.0
  0
LWPOLYLINE
  5
28d
100
AcDbEntity
  8
0
 62
7
100
AcDbPolyline
 90
1
 70
1
 10
11.674894
 20
68.215820
 30
0.0
  0
SPLINE
  5
28e
100
AcDbEntity
  8
0
 62
7
100
AcDbSpline
 70
8
 71
3
 72
8
 73
4
 74
0
 40
0
 40
0
 40
0
 40
0
 40
1
 40
1
 40
1
 40
1
 10
54.361390
 20
95.199380
 30
0.0
 10
53.888756
 20
87.649547
 30
0.0
 10
50.630188
 20
82.091996
 30
0.0
 10
45.072147
 20
79.356400
 30
0.0
  0
SPLINE
  5
28f
100
AcDbEntity
  8
0
 62
7
100
AcDbSpline
 70
8
 71
3
 72
8
 73
4
 74
0
 40
0
 40
0
 40
0
 40
0
 40
1
 40
1
 40
1
 40
1
 10
45.072147
 20
79.356400
 30
0.0
 10
42.181042
 20
77.933436
 30
0.0
 10
39.369270
 20
77.186967
 30
0.0
 10
36.011295
 20
76.950925
 30
0.0
  0
LWPOLYLINE
  5
290
100
AcDbEntity
  8
0
 62
7
100
AcDbPolyline
 90
3
 70
0
 10
55.475140
 20
97.632618
 30
0.0
 10
54.524241
 20
97.800769
 30
0.0
 10
54.361390
 20
95.199380
 30
0.0
  0
SPLINE
  5
291
100
AcDbEntity
  8
0
 62
7
100
AcDbSpline
 70
8
 71
3
 72
8
 73
4
 74
0
 40
0
 40
0
 40
0
 40
0
 40
1
 40
1
 40
1
 40
1
 10
33.690044
 20
75.955475
 30
0.0
 10
34.026845
 20
74.377169
 30
0.0
 10
35.129851
 20
72.004904
 30
0.0
 10
36.163382
 20
70.636003
 30
0.0
  0
SPLINE
  5
292
100
AcDbEntity
  8
0
 62
7
100
AcDbSpline
 70
8
 71
3
 72
8
 73
4
 74
0
 40
0
 40
0
 40
0
 40
0
 40
1
 40
1
 40
1
 40
1
 10
36.163382
 20
70.636003
 30
0.0
 10
37.772099
 20
68.505271
 30
0.0
 10
40.022920
 20
67.048560
 30
0.0
 10
43.329161
 20
65.998373
 30
0.0
  0
SPLINE
  5
293
100
AcDbEntity
  8
0
 62
7
100
AcDbSpline
 70
8
 71
3
 72
8
 73
4
 74
0
 40
0
 40
0
 40
0
 40
0
 40
1
 40
1
 40
1
 40
1
 10
43.329161
 20
65.998373
 30
0.0
 10
44.539114
 20
65.614047
 30
0.0
 10
44.566324
 20
65.656304
 30
0.0
 10
44.740460
 20
68.190181
 30
0.0
  0
LWPOLYLINE
  5
294
100
AcDbEntity
  8
0
 62
7
100
AcDbPolyline
 90
3
 70
0
 10
36.011295
 20
76.950925
 30
0.0
 10
33.515067
 20
76.775458
 30
0.0
 10
33.690044
 20
75.955475
 30
0.0
  0
SPLINE
  5
295
100
AcDbEntity
  8
0
 62
7
100
AcDbSpline
 70
8
 71
3
 72
8
 73
4
 74
0
 40
0
 40
0
 40
0
 40
0
 40
1
 40
1
 40
1
 40
1
 10
77.806590
 20
68.322473
 30
0.0
 10
78.015021
 20
71.651217
 30
0.0
 10
78.770623
 20
74.577638
 30
0.0
 10
80.142141
 20
77.368006
 30
0.0
  0
SPLINE
  5
296
100
AcDbEntity
  8
0
 62
7
100
AcDbSpline
 70
8
 71
3
 72
8
 73
4
 74
0
 40
0
 40
0
 40
0
 40
0
 40
1
 40
1
 40
1
 40
1
 10
80.142141
 20
77.368006
 30
0.0
 10
82.772078
 20
82.718635
 30
0.0
 10
88.558132
 20
86.119277
 30
0.0
 10
95.792250
 20
86.566052
 30
0.0
  0
SPLINE
  5
297
100
AcDbEntity
  8
0
 62
7
100
AcDbSpline
 70
8
 71
3
 72
8
 73
4
 74
0
 40
0
 40
0
 40
0
 40
0
 40
1
 40
1
 40
1
 40
1
 10
95.792250
 20
86.566052
 30
0.0
 10
97.216272
 20
86.654000
 30
0.0
 10
98.436419
 20
86.815015
 30
0.0
 10
98.503692
 20
86.923861
 30
0.0
  0
SPLINE
  5
298
100
AcDbEntity
  8
0
 62
7
100
AcDbSpline
 70
8
 71
3
 72
8
 73
4
 74
0
 40
0
 40
0
 40
0
 40
0
 40
1
 40
1
 40
1
 40
1
 10
98.503692
 20
86.923861
 30
0.0
 10
98.757936
 20
87.335236
 30
0.0
 10
97.536153
 20
90.582004
 30
0.0
 10
96.557058
 20
92.096855
 30
0.0
  0
SPLINE
  5
299
100
AcDbEntity
  8
0
 62
7
100
AcDbSpline
 70
8
 71
3
 72
8
 73
4
 74
0
 40
0
 40
0
 40
0
 40
0
 40
1
 40
1
 40
1
 40
1
 10
96.557058
 20
92.096855
 30
0.0
 10
95.996334
 20
92.964402
 30
0.0
 10
95.012312
 20
94.132257
 30
0.0
 10
94.370340
 20
94.692086
 30
0.0
  0
SPLINE
  5
29a
100
AcDbEntity
  8
0
 62
7
100
AcDbSpline
 70
8
 71
3
 72
8
 73
4
 74
0
 40
0
 40
0
 40
0
 40
0
 40
1
 40
1
 40
1
 40
1
 10
94.370340
 20
94.692086
 30
0.0
 10
93.074019
 20
95.822540
 30
0.0
 10
90.035454
 20
97.345503
 30
0.0
 10
88.506766
 20
97.630975
 30
0.0
  0
LWPOLYLINE
  5
29b
100
AcDbEntity
  8
0
 62
7
100
AcDbPolyline
 90
1
 70
1
 10
44.740460
 20
68.190181
 30
0.0
  0
SPLINE
  5
29c
100
AcDbEntity
  8
0
 62
7
100
AcDbSpline
 70
8
 71
3
 72
8
 73
4
 74
0
 40
0
 40
0
 40
0
 40
0
 40
1
 40
1
 40
1
 40
1
 10
87.514578
 20
96.366264
 30
0.0
 10
87.514578
 20
94.610388
 30
0.0
 10
86.880412
 20
90.839335
 30
0.0
 10
86.293153
 20
89.103076
 30
0.0
  0
SPLINE
  5
29d
100
AcDbEntity
  8
0
 62
7
100
AcDbSpline
 70
8
 71
3
 72
8
 73
4
 74
0
 40
0
 40
0
 40
0
 40
0
 40
1
 40
1
 40
1
 40
1
 10
86.293153
 20
89.103076
 30
0.0
 10
84.762650
 20
84.578084
 30
0.0
 10
81.891600
 20
81.179427
 30
0.0
 10
77.989578
 20
79.273567
 30
0.0
  0
SPLINE
  5
29e
100
AcDbEntity
  8
0
 62
7
100
AcDbSpline
 70
8
 71
3
 72
8
 73
4
 74
0
 40
0
 40
0
 40
0
 40
0
 40
1
 40
1
 40
1
 40
1
 10
77.989578
 20
79.273567
 30
0.0
 10
75.237613
 20
77.929428
 30
0.0
 10
72.375932
 20
77.182311
 30
0.0
 10
69.096467
 20
76.951787
 30
0.0
  0
SPLINE
  5
29f
100
AcDbEntity
  8
0
 62
7
100
AcDbSpline
 70
8
 71
3
 72
8
 73
4
 74
0
 40
0
 40
0
 40
0
 40
0
 40
1
 40
1
 40
1
 40
1
 10
69.096467
 20
76.951787
 30
0.0
 10
67.730283
 20
76.855754
 30
0.0
 10
66.612495
 20
76.688233
 30
0.0
 10
66.612495
 20
76.579521
 30
0.0
  0
SPLINE
  5
2a0
100
AcDbEntity
  8
0
 62
7
100
AcDbSpline
 70
8
 71
3
 72
8
 73
4
 74
0
 40
0
 40
0
 40
0
 40
0
 40
1
 40
1
 40
1
 40
1
 10
66.612495
 20
76.579521
 30
0.0
 10
66.612495
 20
75.770401
 30
0.0
 10
67.846358
 20
72.700475
 30
0.0
 10
68.689326
 20
71.412243
 30
0.0
  0
SPLINE
  5
2a1
100
AcDbEntity
  8
0
 62
7
100
AcDbSpline
 70
8
 71
3
 72
8
 73
4
 74
0
 40
0
 40
0
 40
0
 40
0
 40
1
 40
1
 40
1
 40
1
 10
68.689326
 20
71.412243
 30
0.0
 10
69.851931
 20
69.635534
 30
0.0
 10
70.719468
 20
68.778038
 30
0.0
 10
72.433328
 20
67.711574
 30
0.0
  0
SPLINE
  5
2a2
100
AcDbEntity
  8
0
 62
7
100
AcDbSpline
 70
8
 71
3
 72
8
 73
4
 74
0
 40
0
 40
0
 40
0
 40
0
 40
1
 40
1
 40
1
 40
1
 10
72.433328
 20
67.711574
 30
0.0
 10
73.516043
 20
67.037844
 30
0.0
 10
76.644143
 20
65.796216
 30
0.0
 10
77.354298
 20
65.758306
 30
0.0
  0
SPLINE
  5
2a3
100
AcDbEntity
  8
0
 62
7
100
AcDbSpline
 70
8
 71
3
 72
8
 73
4
 74
0
 40
0
 40
0
 40
0
 40
0
 40
1
 40
1
 40
1
 40
1
 10
77.354298
 20
65.758306
 30
0.0
 10
77.536413
 20
65.748596
 30
0.0
 10
77.705416
 20
66.706713
 30
0.0
 10
77.806590
 20
68.322473
 30
0.0
  0
LWPOLYLINE
  5
2a4
100
AcDbEntity
  8
0
 62
7
100
AcDbPolyline
 90
3
 70
0
 10
88.506766
 20
97.630975
 30
0.0
 10
87.514578
 20
97.816260
 30
0.0
 10
87.514578
 20
96.366264
 30
0.0
  0
SPLINE
  5
2a5
100
AcDbEntity
  8
0
 62
7
100
AcDbSpline
 70
8
 71
3
 72
8
 73
4
 74
0
 40
0
 40
0
 40
0
 40
0
 40
1
 40
1
 40
1
 40
1
 10
110.838681
 20
68.356469
 30
0.0
 10
111.079124
 20
71.744962
 30
0.0
 10
111.711129
 20
74.190580
 30
0.0
 10
113.093815
 20
77.082978
 30
0.0
  0
SPLINE
  5
2a6
100
AcDbEntity
  8
0
 62
7
100
AcDbSpline
 70
8
 71
3
 72
8
 73
4
 74
0
 40
0
 40
0
 40
0
 40
0
 40
1
 40
1
 40
1
 40
1
 10
113.093815
 20
77.082978
 30
0.0
 10
115.804760
 20
82.753917
 30
0.0
 10
121.311313
 20
86.061539
 30
0.0
 10
128.865167
 20
86.556355
 30
0.0
  0
SPLINE
  5
2a7
100
AcDbEntity
  8
0
 62
7
100
AcDbSpline
 70
8
 71
3
 72
8
 73
4
 74
0
 40
0
 40
0
 40
0
 40
0
 40
1
 40
1
 40
1
 40
1
 10
128.865167
 20
86.556355
 30
0.0
 10
130.289189
 20
86.649634
 30
0.0
 10
131.509336
 20
86.815015
 30
0.0
 10
131.576609
 20
86.923861
 30
0.0
  0
SPLINE
  5
2a8
100
AcDbEntity
  8
0
 62
7
100
AcDbSpline
 70
8
 71
3
 72
8
 73
4
 74
0
 40
0
 40
0
 40
0
 40
0
 40
1
 40
1
 40
1
 40
1
 10
131.576609
 20
86.923861
 30
0.0
 10
131.830852
 20
87.335236
 30
0.0
 10
130.609070
 20
90.582004
 30
0.0
 10
129.629974
 20
92.096855
 30
0.0
  0
SPLINE
  5
2a9
100
AcDbEntity
  8
0
 62
7
100
AcDbSpline
 70
8
 71
3
 72
8
 73
4
 74
0
 40
0
 40
0
 40
0
 40
0
 40
1
 40
1
 40
1
 40
1
 10
129.629974
 20
92.096855
 30
0.0
 10
127.987814
 20
94.637595
 30
0.0
 10
125.970445
 20
96.149951
 30
0.0
 10
122.741613
 20
97.260831
 30
0.0
  0
SPLINE
  5
2aa
100
AcDbEntity
  8
0
 62
7
100
AcDbSpline
 70
8
 71
3
 72
8
 73
4
 74
0
 40
0
 40
0
 40
0
 40
0
 40
1
 40
1
 40
1
 40
1
 10
122.741613
 20
97.260831
 30
0.0
 10
120.658483
 20
97.977534
 30
0.0
 10
120.587659
 20
97.952552
 30
0.0
 10
120.586431
 20
96.500598
 30
0.0
  0
SPLINE
  5
2ab
100
AcDbEntity
  8
0
 62
7
100
AcDbSpline
 70
8
 71
3
 72
8
 73
4
 74
0
 40
0
 40
0
 40
0
 40
0
 40
1
 40
1
 40
1
 40
1
 10
120.586431
 20
96.500598
 30
0.0
 10
120.584844
 20
94.705099
 30
0.0
 10
119.902023
 20
90.743056
 30
0.0
 10
119.285594
 20
88.953279
 30
0.0
  0
SPLINE
  5
2ac
100
AcDbEntity
  8
0
 62
7
100
AcDbSpline
 70
8
 71
3
 72
8
 73
4
 74
0
 40
0
 40
0
 40
0
 40
0
 40
1
 40
1
 40
1
 40
1
 10
119.285594
 20
88.953279
 30
0.0
 10
116.796095
 20
81.725127
 30
0.0
 10
110.859686
 20
77.562654
 30
0.0
 10
102.169383
 20
76.951787
 30
0.0
  0
SPLINE
  5
2ad
100
AcDbEntity
  8
0
 62
7
100
AcDbSpline
 70
8
 71
3
 72
8
 73
4
 74
0
 40
0
 40
0
 40
0
 40
0
 40
1
 40
1
 40
1
 40
1
 10
102.169383
 20
76.951787
 30
0.0
 10
100.515923
 20
76.835561
 30
0.0
 10
99.685412
 20
76.671392
 30
0.0
 10
99.685412
 20
76.460779
 30
0.0
  0
SPLINE
  5
2ae
100
AcDbEntity
  8
0
 62
7
100
AcDbSpline
 70
8
 71
3
 72
8
 73
4
 74
0
 40
0
 40
0
 40
0
 40
0
 40
1
 40
1
 40
1
 40
1
 10
99.685412
 20
76.460779
 30
0.0
 10
99.685412
 20
75.970233
 30
0.0
 10
100.618674
 20
73.374933
 30
0.0
 10
101.213132
 20
72.212351
 30
0.0
  0
SPLINE
  5
2af
100
AcDbEntity
  8
0
 62
7
100
AcDbSpline
 70
8
 71
3
 72
8
 73
4
 74
0
 40
0
 40
0
 40
0
 40
0
 40
1
 40
1
 40
1
 40
1
 10
101.213132
 20
72.212351
 30
0.0
 10
101.981791
 20
70.709089
 30
0.0
 10
103.703924
 20
68.846216
 30
0.0
 10
105.230626
 20
67.866533
 30
0.0
  0
SPLINE
  5
2b0
100
AcDbEntity
  8
0
 62
7
100
AcDbSpline
 70
8
 71
3
 72
8
 73
4
 74
0
 40
0
 40
0
 40
0
 40
0
 40
1
 40
1
 40
1
 40
1
 10
105.230626
 20
67.866533
 30
0.0
 10
106.577283
 20
67.002385
 30
0.0
 10
109.922545
 20
65.688676
 30
0.0
 10
110.401037
 20
65.836075
 30
0.0
  0
SPLINE
  5
2b1
100
AcDbEntity
  8
0
 62
7
100
AcDbSpline
 70
8
 71
3
 72
8
 73
4
 74
0
 40
0
 40
0
 40
0
 40
0
 40
1
 40
1
 40
1
 40
1
 10
110.401037
 20
65.836075
 30
0.0
 10
110.546557
 20
65.880901
 30
0.0
 10
110.743497
 20
67.015080
 30
0.0
 10
110.838681
 20
68.356469
 30
0.0
  0
LWPOLYLINE
  5
2b2
100
AcDbEntity
  8
0
 62
7
100
AcDbPolyline
 90
1
 70
1
 10
77.806590
 20
68.322473
 30
0.0
  0
SPLINE
  5
2b3
100
AcDbEntity
  8
0
 62
7
100
AcDbSpline
 70
8
 71
3
 72
8
 73
4
 74
0
 40
0
 40
0
 40
0
 40
0
 40
1
 40
1
 40
1
 40
1
 10
41.955572
 20
83.610638
 30
0.0
 10
45.258834
 20
85.158643
 30
0.0
 10
47.560127
 20
87.967659
 30
0.0
 10
48.705476
 20
91.849736
 30
0.0
  0
LWPOLYLINE
  5
2b4
100
AcDbEntity
  8
0
 62
7
100
AcDbPolyline
 90
1
 70
1
 10
110.838681
 20
68.356469
 30
0.0
  0
SPLINE
  5
2b5
100
AcDbEntity
  8
0
 62
7
100
AcDbSpline
 70
8
 71
3
 72
8
 73
4
 74
0
 40
0
 40
0
 40
0
 40
0
 40
1
 40
1
 40
1
 40
1
 10
47.079077
 20
93.398425
 30
0.0
 10
40.747738
 20
93.960688
 30
0.0
 10
36.563874
 20
95.616800
 30
0.0
 10
33.428895
 20
98.801618
 30
0.0
  0
SPLINE
  5
2b6
100
AcDbEntity
  8
0
 62
7
100
AcDbSpline
 70
8
 71
3
 72
8
 73
4
 74
0
 40
0
 40
0
 40
0
 40
0
 40
1
 40
1
 40
1
 40
1
 10
33.428895
 20
98.801618
 30
0.0
 10
30.259001
 20
102.021905
 30
0.0
 10
28.700661
 20
106.029800
 30
0.0
 10
28.108045
 20
112.486308
 30
0.0
  0
LWPOLYLINE
  5
2b7
100
AcDbEntity
  8
0
 62
7
100
AcDbPolyline
 90
3
 70
0
 10
48.705476
 20
91.849736
 30
0.0
 10
49.109201
 20
93.218138
 30
0.0
 10
47.079077
 20
93.398425
 30
0.0
  0
SPLINE
  5
2b8
100
AcDbEntity
  8
0
 62
7
100
AcDbSpline
 70
8
 71
3
 72
8
 73
4
 74
0
 40
0
 40
0
 40
0
 40
0
 40
1
 40
1
 40
1
 40
1
 10
26.569580
 20
113.982169
 30
0.0
 10
24.255016
 20
113.302285
 30
0.0
 10
21.703457
 20
111.803238
 30
0.0
 10
20.393198
 20
110.353533
 30
0.0
  0
SPLINE
  5
2b9
100
AcDbEntity
  8
0
 62
7
100
AcDbSpline
 70
8
 71
3
 72
8
 73
4
 74
0
 40
0
 40
0
 40
0
 40
0
 40
1
 40
1
 40
1
 40
1
 10
20.393198
 20
110.353533
 30
0.0
 10
19.084066
 20
108.905072
 30
0.0
 10
17.475579
 20
105.836500
 30
0.0
 10
17.229014
 20
104.317091
 30
0.0
  0
LWPOLYLINE
  5
2ba
100
AcDbEntity
  8
0
 62
7
100
AcDbPolyline
 90
3
 70
0
 10
28.108045
 20
112.486308
 30
0.0
 10
27.933960
 20
114.382947
 30
0.0
 10
26.569580
 20
113.982169
 30
0.0
  0
SPLINE
  5
2bb
100
AcDbEntity
  8
0
 62
7
100
AcDbSpline
 70
8
 71
3
 72
8
 73
4
 74
0
 40
0
 40
0
 40
0
 40
0
 40
1
 40
1
 40
1
 40
1
 10
19.289557
 20
103.197192
 30
0.0
 10
23.917689
 20
102.800052
 30
0.0
 10
27.399276
 20
101.713083
 30
0.0
 10
30.370933
 20
99.737529
 30
0.0
  0
SPLINE
  5
2bc
100
AcDbEntity
  8
0
 62
7
100
AcDbSpline
 70
8
 71
3
 72
8
 73
4
 74
0
 40
0
 40
0
 40
0
 40
0
 40
1
 40
1
 40
1
 40
1
 10
30.370933
 20
99.737529
 30
0.0
 10
34.850292
 20
96.759657
 30
0.0
 10
37.296360
 20
91.845932
 30
0.0
 10
37.920536
 20
84.571694
 30
0.0
  0
LWPOLYLINE
  5
2bd
100
AcDbEntity
  8
0
 62
7
100
AcDbPolyline
 90
3
 70
0
 10
17.229014
 20
104.317091
 30
0.0
 10
17.078074
 20
103.386959
 30
0.0
 10
19.289557
 20
103.197192
 30
0.0
  0
SPLINE
  5
2be
100
AcDbEntity
  8
0
 62
7
100
AcDbSpline
 70
8
 71
3
 72
8
 73
4
 74
0
 40
0
 40
0
 40
0
 40
0
 40
1
 40
1
 40
1
 40
1
 10
39.065824
 20
82.535332
 30
0.0
 10
39.591649
 20
82.628346
 30
0.0
 10
40.892037
 20
83.112232
 30
0.0
 10
41.955572
 20
83.610638
 30
0.0
  0
LWPOLYLINE
  5
2bf
100
AcDbEntity
  8
0
 62
7
100
AcDbPolyline
 90
3
 70
0
 10
37.920536
 20
84.571694
 30
0.0
 10
38.109779
 20
82.366215
 30
0.0
 10
39.065824
 20
82.535332
 30
0.0
  0
SPLINE
  5
2c0
100
AcDbEntity
  8
0
 62
7
100
AcDbSpline
 70
8
 71
3
 72
8
 73
4
 74
0
 40
0
 40
0
 40
0
 40
0
 40
1
 40
1
 40
1
 40
1
 10
75.021040
 20
83.607092
 30
0.0
 10
78.283131
 20
85.135723
 30
0.0
 10
80.634552
 20
88.005057
 30
0.0
 10
81.775890
 20
91.849728
 30
0.0
  0
LWPOLYLINE
  5
2c1
100
AcDbEntity
  8
0
 62
7
100
AcDbPolyline
 90
1
 70
1
 10
41.955572
 20
83.610638
 30
0.0
  0
SPLINE
  5
2c2
100
AcDbEntity
  8
0
 62
7
100
AcDbSpline
 70
8
 71
3
 72
8
 73
4
 74
0
 40
0
 40
0
 40
0
 40
0
 40
1
 40
1
 40
1
 40
1
 10
80.151994
 20
93.393998
 30
0.0
 10
73.830225
 20
93.941657
 30
0.0
 10
69.845285
 20
95.525577
 30
0.0
 10
66.583827
 20
98.787037
 30
0.0
  0
SPLINE
  5
2c3
100
AcDbEntity
  8
0
 62
7
100
AcDbSpline
 70
8
 71
3
 72
8
 73
4
 74
0
 40
0
 40
0
 40
0
 40
0
 40
1
 40
1
 40
1
 40
1
 10
66.583827
 20
98.787037
 30
0.0
 10
63.391730
 20
101.979132
 30
0.0
 10
61.923057
 20
105.489692
 30
0.0
 10
61.240972
 20
111.558012
 30
0.0
  0
LWPOLYLINE
  5
2c4
100
AcDbEntity
  8
0
 62
7
100
AcDbPolyline
 90
3
 70
0
 10
81.775890
 20
91.849728
 30
0.0
 10
82.182118
 20
93.218130
 30
0.0
 10
80.151994
 20
93.393998
 30
0.0
  0
SPLINE
  5
2c5
100
AcDbEntity
  8
0
 62
7
100
AcDbSpline
 70
8
 71
3
 72
8
 73
4
 74
0
 40
0
 40
0
 40
0
 40
0
 40
1
 40
1
 40
1
 40
1
 10
59.008285
 20
113.770058
 30
0.0
 10
54.595551
 20
112.368626
 30
0.0
 10
51.767597
 20
109.403915
 30
0.0
 10
50.391999
 20
104.737090
 30
0.0
  0
LWPOLYLINE
  5
2c6
100
AcDbEntity
  8
0
 62
7
100
AcDbPolyline
 90
3
 70
0
 10
61.240972
 20
111.558012
 30
0.0
 10
60.923953
 20
114.378449
 30
0.0
 10
59.008285
 20
113.770058
 30
0.0
  0
SPLINE
  5
2c7
100
AcDbEntity
  8
0
 62
7
100
AcDbSpline
 70
8
 71
3
 72
8
 73
4
 74
0
 40
0
 40
0
 40
0
 40
0
 40
1
 40
1
 40
1
 40
1
 10
52.283326
 20
103.197361
 30
0.0
 10
63.589741
 20
102.283882
 30
0.0
 10
69.607486
 20
96.614948
 30
0.0
 10
70.837303
 20
85.718838
 30
0.0
  0
SPLINE
  5
2c8
100
AcDbEntity
  8
0
 62
7
100
AcDbSpline
 70
8
 71
3
 72
8
 73
4
 74
0
 40
0
 40
0
 40
0
 40
0
 40
1
 40
1
 40
1
 40
1
 10
70.837303
 20
85.718838
 30
0.0
 10
70.985126
 20
84.409150
 30
0.0
 10
71.107046
 20
83.115978
 30
0.0
 10
71.108242
 20
82.845122
 30
0.0
  0
SPLINE
  5
2c9
100
AcDbEntity
  8
0
 62
7
100
AcDbSpline
 70
8
 71
3
 72
8
 73
4
 74
0
 40
0
 40
0
 40
0
 40
0
 40
1
 40
1
 40
1
 40
1
 10
71.108242
 20
82.845122
 30
0.0
 10
71.110094
 20
82.421370
 30
0.0
 10
71.248857
 20
82.377198
 30
0.0
 10
72.102599
 20
82.528550
 30
0.0
  0
SPLINE
  5
2ca
100
AcDbEntity
  8
0
 62
7
100
AcDbSpline
 70
8
 71
3
 72
8
 73
4
 74
0
 40
0
 40
0
 40
0
 40
0
 40
1
 40
1
 40
1
 40
1
 10
72.102599
 20
82.528550
 30
0.0
 10
72.648302
 20
82.625295
 30
0.0
 10
73.961601
 20
83.110641
 30
0.0
 10
75.021040
 20
83.607100
 30
0.0
  0
LWPOLYLINE
  5
2cb
100
AcDbEntity
  8
0
 62
7
100
AcDbPolyline
 90
3
 70
0
 10
50.391999
 20
104.737090
 30
0.0
 10
49.992698
 20
103.382429
 30
0.0
 10
52.283326
 20
103.197361
 30
0.0
  0
SPLINE
  5
2cc
100
AcDbEntity
  8
0
 62
7
100
AcDbSpline
 70
8
 71
3
 72
8
 73
4
 74
0
 40
0
 40
0
 40
0
 40
0
 40
1
 40
1
 40
1
 40
1
 10
108.091952
 20
83.629476
 30
0.0
 10
110.666644
 20
84.878627
 30
0.0
 10
112.556679
 20
86.758208
 30
0.0
 10
113.784668
 20
89.290700
 30
0.0
  0
SPLINE
  5
2cd
100
AcDbEntity
  8
0
 62
7
100
AcDbSpline
 70
8
 71
3
 72
8
 73
4
 74
0
 40
0
 40
0
 40
0
 40
0
 40
1
 40
1
 40
1
 40
1
 10
113.784668
 20
89.290700
 30
0.0
 10
114.313885
 20
90.382106
 30
0.0
 10
114.821684
 20
91.708613
 30
0.0
 10
114.913111
 20
92.238491
 30
0.0
  0
LWPOLYLINE
  5
2ce
100
AcDbEntity
  8
0
 62
7
100
AcDbPolyline
 90
1
 70
1
 10
75.021040
 20
83.607100
 30
0.0
  0
SPLINE
  5
2cf
100
AcDbEntity
  8
0
 62
7
100
AcDbSpline
 70
8
 71
3
 72
8
 73
4
 74
0
 40
0
 40
0
 40
0
 40
0
 40
1
 40
1
 40
1
 40
1
 10
113.401647
 20
93.373596
 30
0.0
 10
106.572529
 20
94.072445
 30
0.0
 10
102.667252
 20
95.602719
 30
0.0
 10
99.465450
 20
98.834459
 30
0.0
  0
SPLINE
  5
2d0
100
AcDbEntity
  8
0
 62
7
100
AcDbSpline
 70
8
 71
3
 72
8
 73
4
 74
0
 40
0
 40
0
 40
0
 40
0
 40
1
 40
1
 40
1
 40
1
 10
99.465450
 20
98.834459
 30
0.0
 10
96.569705
 20
101.757279
 30
0.0
 10
94.679669
 20
106.516440
 30
0.0
 10
94.254074
 20
111.956861
 30
0.0
  0
LWPOLYLINE
  5
2d1
100
AcDbEntity
  8
0
 62
7
100
AcDbPolyline
 90
3
 70
0
 10
114.913111
 20
92.238491
 30
0.0
 10
115.079341
 20
93.201911
 30
0.0
 10
113.401647
 20
93.373596
 30
0.0
  0
SPLINE
  5
2d2
100
AcDbEntity
  8
0
 62
7
100
AcDbSpline
 70
8
 71
3
 72
8
 73
4
 74
0
 40
0
 40
0
 40
0
 40
0
 40
1
 40
1
 40
1
 40
1
 10
92.707836
 20
113.988869
 30
0.0
 10
88.004198
 20
112.638358
 30
0.0
 10
84.634308
 20
109.264265
 30
0.0
 10
83.430181
 20
104.699631
 30
0.0
  0
LWPOLYLINE
  5
2d3
100
AcDbEntity
  8
0
 62
7
100
AcDbPolyline
 90
3
 70
0
 10
94.254074
 20
111.956861
 30
0.0
 10
94.064638
 20
114.378433
 30
0.0
 10
92.707836
 20
113.988869
 30
0.0
  0
SPLINE
  5
2d4
100
AcDbEntity
  8
0
 62
7
100
AcDbSpline
 70
8
 71
3
 72
8
 73
4
 74
0
 40
0
 40
0
 40
0
 40
0
 40
1
 40
1
 40
1
 40
1
 10
85.494360
 20
103.188045
 30
0.0
 10
88.640981
 20
102.941887
 30
0.0
 10
92.252776
 20
102.011491
 30
0.0
 10
94.547206
 20
100.856034
 30
0.0
  0
SPLINE
  5
2d5
100
AcDbEntity
  8
0
 62
7
100
AcDbSpline
 70
8
 71
3
 72
8
 73
4
 74
0
 40
0
 40
0
 40
0
 40
0
 40
1
 40
1
 40
1
 40
1
 10
94.547206
 20
100.856034
 30
0.0
 10
100.319546
 20
97.949131
 30
0.0
 10
103.261581
 20
92.790740
 30
0.0
 10
104.062504
 20
84.172478
 30
0.0
  0
LWPOLYLINE
  5
2d6
100
AcDbEntity
  8
0
 62
7
100
AcDbPolyline
 90
3
 70
0
 10
83.430181
 20
104.699631
 30
0.0
 10
83.081230
 20
103.376820
 30
0.0
 10
85.494360
 20
103.188045
 30
0.0
  0
SPLINE
  5
2d7
100
AcDbEntity
  8
0
 62
7
100
AcDbSpline
 70
8
 71
3
 72
8
 73
4
 74
0
 40
0
 40
0
 40
0
 40
0
 40
1
 40
1
 40
1
 40
1
 10
105.199251
 20
82.528722
 30
0.0
 10
105.731900
 20
82.620670
 30
0.0
 10
107.033616
 20
83.116010
 30
0.0
 10
108.091952
 20
83.629476
 30
0.0
  0
LWPOLYLINE
  5
2d8
100
AcDbEntity
  8
0
 62
7
100
AcDbPolyline
 90
3
 70
0
 10
104.062504
 20
84.172478
 30
0.0
 10
104.230800
 20
82.361548
 30
0.0
 10
105.199251
 20
82.528722
 30
0.0
  0
SPLINE
  5
2d9
100
AcDbEntity
  8
0
 62
7
100
AcDbSpline
 70
8
 71
3
 72
8
 73
4
 74
0
 40
0
 40
0
 40
0
 40
0
 40
1
 40
1
 40
1
 40
1
 10
11.579162
 20
99.987193
 30
0.0
 10
11.579162
 20
103.347999
 30
0.0
 10
12.832806
 20
108.324031
 30
0.0
 10
14.383629
 20
111.118838
 30
0.0
  0
SPLINE
  5
2da
100
AcDbEntity
  8
0
 62
7
100
AcDbSpline
 70
8
 71
3
 72
8
 73
4
 74
0
 40
0
 40
0
 40
0
 40
0
 40
1
 40
1
 40
1
 40
1
 10
14.383629
 20
111.118838
 30
0.0
 10
14.787373
 20
111.846442
 30
0.0
 10
16.018175
 20
113.340795
 30
0.0
 10
17.118749
 20
114.439623
 30
0.0
  0
SPLINE
  5
2db
100
AcDbEntity
  8
0
 62
7
100
AcDbSpline
 70
8
 71
3
 72
8
 73
4
 74
0
 40
0
 40
0
 40
0
 40
0
 40
1
 40
1
 40
1
 40
1
 10
17.118749
 20
114.439623
 30
0.0
 10
20.317342
 20
117.633149
 30
0.0
 10
24.403733
 20
119.291992
 30
0.0
 10
29.923256
 20
119.637524
 30
0.0
  0
LWPOLYLINE
  5
2dc
100
AcDbEntity
  8
0
 62
7
100
AcDbPolyline
 90
1
 70
1
 10
108.091952
 20
83.629476
 30
0.0
  0
SPLINE
  5
2dd
100
AcDbEntity
  8
0
 62
7
100
AcDbSpline
 70
8
 71
3
 72
8
 73
4
 74
0
 40
0
 40
0
 40
0
 40
0
 40
1
 40
1
 40
1
 40
1
 10
32.356494
 20
120.751275
 30
0.0
 10
32.055295
 20
122.454575
 30
0.0
 10
30.434521
 20
125.496349
 30
0.0
 10
29.045659
 20
126.964869
 30
0.0
  0
SPLINE
  5
2de
100
AcDbEntity
  8
0
 62
7
100
AcDbSpline
 70
8
 71
3
 72
8
 73
4
 74
0
 40
0
 40
0
 40
0
 40
0
 40
1
 40
1
 40
1
 40
1
 10
29.045659
 20
126.964869
 30
0.0
 10
28.308057
 20
127.744773
 30
0.0
 10
27.023145
 20
128.740400
 30
0.0
 10
26.190301
 20
129.177373
 30
0.0
  0
SPLINE
  5
2df
100
AcDbEntity
  8
0
 62
7
100
AcDbSpline
 70
8
 71
3
 72
8
 73
4
 74
0
 40
0
 40
0
 40
0
 40
0
 40
1
 40
1
 40
1
 40
1
 10
26.190301
 20
129.177373
 30
0.0
 10
24.344520
 20
130.145806
 30
0.0
 10
22.006770
 20
130.928803
 30
0.0
 10
21.639274
 20
130.701680
 30
0.0
  0
SPLINE
  5
2e0
100
AcDbEntity
  8
0
 62
7
100
AcDbSpline
 70
8
 71
3
 72
8
 73
4
 74
0
 40
0
 40
0
 40
0
 40
0
 40
1
 40
1
 40
1
 40
1
 10
21.639274
 20
130.701680
 30
0.0
 10
21.490483
 20
130.609721
 30
0.0
 10
21.367182
 20
129.797368
 30
0.0
 10
21.365269
 20
128.896451
 30
0.0
  0
SPLINE
  5
2e1
100
AcDbEntity
  8
0
 62
7
100
AcDbSpline
 70
8
 71
3
 72
8
 73
4
 74
0
 40
0
 40
0
 40
0
 40
0
 40
1
 40
1
 40
1
 40
1
 10
21.365269
 20
128.896451
 30
0.0
 10
21.361115
 20
126.939040
 30
0.0
 10
20.594257
 20
123.098248
 30
0.0
 10
19.776049
 20
120.936877
 30
0.0
  0
SPLINE
  5
2e2
100
AcDbEntity
  8
0
 62
7
100
AcDbSpline
 70
8
 71
3
 72
8
 73
4
 74
0
 40
0
 40
0
 40
0
 40
0
 40
1
 40
1
 40
1
 40
1
 10
19.776049
 20
120.936877
 30
0.0
 10
18.821475
 20
118.415289
 30
0.0
 10
16.722951
 20
115.583343
 30
0.0
 10
14.621871
 20
113.981349
 30
0.0
  0
SPLINE
  5
2e3
100
AcDbEntity
  8
0
 62
7
100
AcDbSpline
 70
8
 71
3
 72
8
 73
4
 74
0
 40
0
 40
0
 40
0
 40
0
 40
1
 40
1
 40
1
 40
1
 10
14.621871
 20
113.981349
 30
0.0
 10
11.497689
 20
111.599279
 30
0.0
 10
7.772941
 20
110.336909
 30
0.0
 10
2.914058
 20
110.013411
 30
0.0
  0
SPLINE
  5
2e4
100
AcDbEntity
  8
0
 62
7
100
AcDbSpline
 70
8
 71
3
 72
8
 73
4
 74
0
 40
0
 40
0
 40
0
 40
0
 40
1
 40
1
 40
1
 40
1
 10
2.914058
 20
110.013411
 30
0.0
 10
1.567990
 20
109.923792
 30
0.0
 10
0.466662
 20
109.755993
 30
0.0
 10
0.466662
 20
109.640523
 30
0.0
  0
SPLINE
  5
2e5
100
AcDbEntity
  8
0
 62
7
100
AcDbSpline
 70
8
 71
3
 72
8
 73
4
 74
0
 40
0
 40
0
 40
0
 40
0
 40
1
 40
1
 40
1
 40
1
 10
0.466662
 20
109.640523
 30
0.0
 10
0.466662
 20
109.525057
 30
0.0
 10
0.779328
 20
108.560285
 30
0.0
 10
1.161477
 20
107.496586
 30
0.0
  0
SPLINE
  5
2e6
100
AcDbEntity
  8
0
 62
7
100
AcDbSpline
 70
8
 71
3
 72
8
 73
4
 74
0
 40
0
 40
0
 40
0
 40
0
 40
1
 40
1
 40
1
 40
1
 10
1.161477
 20
107.496586
 30
0.0
 10
2.663019
 20
103.317069
 30
0.0
 10
5.063149
 20
100.892962
 30
0.0
 10
9.115841
 20
99.462757
 30
0.0
  0
SPLINE
  5
2e7
100
AcDbEntity
  8
0
 62
7
100
AcDbSpline
 70
8
 71
3
 72
8
 73
4
 74
0
 40
0
 40
0
 40
0
 40
0
 40
1
 40
1
 40
1
 40
1
 10
9.115841
 20
99.462757
 30
0.0
 10
11.551005
 20
98.603379
 30
0.0
 10
11.579162
 20
98.609375
 30
0.0
 10
11.579162
 20
99.987193
 30
0.0
  0
LWPOLYLINE
  5
2e8
100
AcDbEntity
  8
0
 62
7
100
AcDbPolyline
 90
3
 70
0
 10
29.923256
 20
119.637524
 30
0.0
 10
32.524644
 20
119.800375
 30
0.0
 10
32.356494
 20
120.751275
 30
0.0
  0
SPLINE
  5
2e9
100
AcDbEntity
  8
0
 62
7
100
AcDbSpline
 70
8
 71
3
 72
8
 73
4
 74
0
 40
0
 40
0
 40
0
 40
0
 40
1
 40
1
 40
1
 40
1
 10
44.740460
 20
101.263109
 30
0.0
 10
45.512101
 20
112.491438
 30
0.0
 10
51.915557
 20
118.943736
 30
0.0
 10
62.974474
 20
119.636201
 30
0.0
  0
SPLINE
  5
2ea
100
AcDbEntity
  8
0
 62
7
100
AcDbSpline
 70
8
 71
3
 72
8
 73
4
 74
0
 40
0
 40
0
 40
0
 40
0
 40
1
 40
1
 40
1
 40
1
 10
62.974474
 20
119.636201
 30
0.0
 10
64.705050
 20
119.744564
 30
0.0
 10
65.554161
 20
119.901576
 30
0.0
 10
65.554161
 20
120.113219
 30
0.0
  0
SPLINE
  5
2eb
100
AcDbEntity
  8
0
 62
7
100
AcDbSpline
 70
8
 71
3
 72
8
 73
4
 74
0
 40
0
 40
0
 40
0
 40
0
 40
1
 40
1
 40
1
 40
1
 10
65.554161
 20
120.113219
 30
0.0
 10
65.554161
 20
120.622576
 30
0.0
 10
64.610570
 20
123.218133
 30
0.0
 10
63.966267
 20
124.481066
 30
0.0
  0
SPLINE
  5
2ec
100
AcDbEntity
  8
0
 62
7
100
AcDbSpline
 70
8
 71
3
 72
8
 73
4
 74
0
 40
0
 40
0
 40
0
 40
0
 40
1
 40
1
 40
1
 40
1
 10
63.966267
 20
124.481066
 30
0.0
 10
63.201973
 20
125.979211
 30
0.0
 10
60.703076
 20
128.478108
 30
0.0
 10
59.204931
 20
129.242402
 30
0.0
  0
SPLINE
  5
2ed
100
AcDbEntity
  8
0
 62
7
100
AcDbSpline
 70
8
 71
3
 72
8
 73
4
 74
0
 40
0
 40
0
 40
0
 40
0
 40
1
 40
1
 40
1
 40
1
 10
59.204931
 20
129.242402
 30
0.0
 10
57.941998
 20
129.886705
 30
0.0
 10
55.346441
 20
130.830296
 30
0.0
 10
54.837084
 20
130.830296
 30
0.0
  0
SPLINE
  5
2ee
100
AcDbEntity
  8
0
 62
7
100
AcDbSpline
 70
8
 71
3
 72
8
 73
4
 74
0
 40
0
 40
0
 40
0
 40
0
 40
1
 40
1
 40
1
 40
1
 10
54.837084
 20
130.830296
 30
0.0
 10
54.625441
 20
130.830296
 30
0.0
 10
54.468429
 20
129.981185
 30
0.0
 10
54.360067
 20
128.250609
 30
0.0
  0
SPLINE
  5
2ef
100
AcDbEntity
  8
0
 62
7
100
AcDbSpline
 70
8
 71
3
 72
8
 73
4
 74
0
 40
0
 40
0
 40
0
 40
0
 40
1
 40
1
 40
1
 40
1
 10
54.360067
 20
128.250609
 30
0.0
 10
53.667602
 20
117.191692
 30
0.0
 10
47.215303
 20
110.788236
 30
0.0
 10
35.986974
 20
110.016594
 30
0.0
  0
SPLINE
  5
2f0
100
AcDbEntity
  8
0
 62
7
100
AcDbSpline
 70
8
 71
3
 72
8
 73
4
 74
0
 40
0
 40
0
 40
0
 40
0
 40
1
 40
1
 40
1
 40
1
 10
35.986974
 20
110.016594
 30
0.0
 10
34.640906
 20
109.924088
 30
0.0
 10
33.539578
 20
109.759837
 30
0.0
 10
33.539578
 20
109.651594
 30
0.0
  0
SPLINE
  5
2f1
100
AcDbEntity
  8
0
 62
7
100
AcDbSpline
 70
8
 71
3
 72
8
 73
4
 74
0
 40
0
 40
0
 40
0
 40
0
 40
1
 40
1
 40
1
 40
1
 10
33.539578
 20
109.651594
 30
0.0
 10
33.539578
 20
109.543350
 30
0.0
 10
33.775946
 20
108.689516
 30
0.0
 10
34.064840
 20
107.754187
 30
0.0
  0
SPLINE
  5
2f2
100
AcDbEntity
  8
0
 62
7
100
AcDbSpline
 70
8
 71
3
 72
8
 73
4
 74
0
 40
0
 40
0
 40
0
 40
0
 40
1
 40
1
 40
1
 40
1
 10
34.064840
 20
107.754187
 30
0.0
 10
34.979650
 20
104.792380
 30
0.0
 10
36.908079
 20
102.316960
 30
0.0
 10
39.675215
 20
100.552451
 30
0.0
  0
SPLINE
  5
2f3
100
AcDbEntity
  8
0
 62
7
100
AcDbSpline
 70
8
 71
3
 72
8
 73
4
 74
0
 40
0
 40
0
 40
0
 40
0
 40
1
 40
1
 40
1
 40
1
 10
39.675215
 20
100.552451
 30
0.0
 10
40.398441
 20
100.091277
 30
0.0
 10
43.750473
 20
98.831482
 30
0.0
 10
44.281445
 20
98.821293
 30
0.0
  0
SPLINE
  5
2f4
100
AcDbEntity
  8
0
 62
7
100
AcDbSpline
 70
8
 71
3
 72
8
 73
4
 74
0
 40
0
 40
0
 40
0
 40
0
 40
1
 40
1
 40
1
 40
1
 10
44.281445
 20
98.821293
 30
0.0
 10
44.460414
 20
98.817853
 30
0.0
 10
44.636955
 20
99.756992
 30
0.0
 10
44.740460
 20
101.263109
 30
0.0
  0
LWPOLYLINE
  5
2f5
100
AcDbEntity
  8
0
 62
7
100
AcDbPolyline
 90
1
 70
1
 10
11.579162
 20
99.987193
 30
0.0
  0
SPLINE
  5
2f6
100
AcDbEntity
  8
0
 62
7
100
AcDbSpline
 70
8
 71
3
 72
8
 73
4
 74
0
 40
0
 40
0
 40
0
 40
0
 40
1
 40
1
 40
1
 40
1
 10
77.806590
 20
101.395400
 30
0.0
 10
78.498044
 20
112.438169
 30
0.0
 10
85.004622
 20
118.944747
 30
0.0
 10
96.047391
 20
119.636201
 30
0.0
  0
SPLINE
  5
2f7
100
AcDbEntity
  8
0
 62
7
100
AcDbSpline
 70
8
 71
3
 72
8
 73
4
 74
0
 40
0
 40
0
 40
0
 40
0
 40
1
 40
1
 40
1
 40
1
 10
96.047391
 20
119.636201
 30
0.0
 10
97.466219
 20
119.725043
 30
0.0
 10
98.627078
 20
119.902565
 30
0.0
 10
98.627078
 20
120.030695
 30
0.0
  0
SPLINE
  5
2f8
100
AcDbEntity
  8
0
 62
7
100
AcDbSpline
 70
8
 71
3
 72
8
 73
4
 74
0
 40
0
 40
0
 40
0
 40
0
 40
1
 40
1
 40
1
 40
1
 10
98.627078
 20
120.030695
 30
0.0
 10
98.627078
 20
120.589561
 30
0.0
 10
97.471780
 20
123.652740
 30
0.0
 10
96.870076
 20
124.689248
 30
0.0
  0
SPLINE
  5
2f9
100
AcDbEntity
  8
0
 62
7
100
AcDbSpline
 70
8
 71
3
 72
8
 73
4
 74
0
 40
0
 40
0
 40
0
 40
0
 40
1
 40
1
 40
1
 40
1
 10
96.870076
 20
124.689248
 30
0.0
 10
95.336048
 20
127.331790
 30
0.0
 10
92.738519
 20
129.363012
 30
0.0
 10
89.688604
 20
130.305035
 30
0.0
  0
SPLINE
  5
2fa
100
AcDbEntity
  8
0
 62
7
100
AcDbSpline
 70
8
 71
3
 72
8
 73
4
 74
0
 40
0
 40
0
 40
0
 40
0
 40
1
 40
1
 40
1
 40
1
 10
89.688604
 20
130.305035
 30
0.0
 10
88.753275
 20
130.593928
 30
0.0
 10
87.899441
 20
130.830296
 30
0.0
 10
87.791197
 20
130.830296
 30
0.0
  0
SPLINE
  5
2fb
100
AcDbEntity
  8
0
 62
7
100
AcDbSpline
 70
8
 71
3
 72
8
 73
4
 74
0
 40
0
 40
0
 40
0
 40
0
 40
1
 40
1
 40
1
 40
1
 10
87.791197
 20
130.830296
 30
0.0
 10
87.682954
 20
130.830296
 30
0.0
 10
87.518703
 20
129.728968
 30
0.0
 10
87.426197
 20
128.382900
 30
0.0
  0
SPLINE
  5
2fc
100
AcDbEntity
  8
0
 62
7
100
AcDbSpline
 70
8
 71
3
 72
8
 73
4
 74
0
 40
0
 40
0
 40
0
 40
0
 40
1
 40
1
 40
1
 40
1
 10
87.426197
 20
128.382900
 30
0.0
 10
87.203251
 20
125.138759
 30
0.0
 10
86.390255
 20
121.885755
 30
0.0
 10
85.194479
 20
119.453213
 30
0.0
  0
SPLINE
  5
2fd
100
AcDbEntity
  8
0
 62
7
100
AcDbSpline
 70
8
 71
3
 72
8
 73
4
 74
0
 40
0
 40
0
 40
0
 40
0
 40
1
 40
1
 40
1
 40
1
 10
85.194479
 20
119.453213
 30
0.0
 10
83.829880
 20
116.677242
 30
0.0
 10
80.723655
 20
113.566300
 30
0.0
 10
77.989578
 20
112.237372
 30
0.0
  0
SPLINE
  5
2fe
100
AcDbEntity
  8
0
 62
7
100
AcDbSpline
 70
8
 71
3
 72
8
 73
4
 74
0
 40
0
 40
0
 40
0
 40
0
 40
1
 40
1
 40
1
 40
1
 10
77.989578
 20
112.237372
 30
0.0
 10
75.544140
 20
111.048739
 30
0.0
 10
72.285162
 20
110.238244
 30
0.0
 10
69.059891
 20
110.016594
 30
0.0
  0
SPLINE
  5
2ff
100
AcDbEntity
  8
0
 62
7
100
AcDbSpline
 70
8
 71
3
 72
8
 73
4
 74
0
 40
0
 40
0
 40
0
 40
0
 40
1
 40
1
 40
1
 40
1
 10
69.059891
 20
110.016594
 30
0.0
 10
67.713823
 20
109.924088
 30
0.0
 10
66.612495
 20
109.759837
 30
0.0
 10
66.612495
 20
109.651594
 30
0.0
  0
SPLINE
  5
300
100
AcDbEntity
  8
0
 62
7
100
AcDbSpline
 70
8
 71
3
 72
8
 73
4
 74
0
 40
0
 40
0
 40
0
 40
0
 40
1
 40
1
 40
1
 40
1
 10
66.612495
 20
109.651594
 30
0.0
 10
66.612495
 20
108.853343
 30
0.0
 10
67.843556
 20
105.774723
 30
0.0
 10
68.678414
 20
104.485170
 30
0.0
  0
SPLINE
  5
301
100
AcDbEntity
  8
0
 62
7
100
AcDbSpline
 70
8
 71
3
 72
8
 73
4
 74
0
 40
0
 40
0
 40
0
 40
0
 40
1
 40
1
 40
1
 40
1
 10
68.678414
 20
104.485170
 30
0.0
 10
69.809564
 20
102.737957
 30
0.0
 10
71.020630
 20
101.581998
 30
0.0
 10
72.832309
 20
100.520283
 30
0.0
  0
SPLINE
  5
302
100
AcDbEntity
  8
0
 62
7
100
AcDbSpline
 70
8
 71
3
 72
8
 73
4
 74
0
 40
0
 40
0
 40
0
 40
0
 40
1
 40
1
 40
1
 40
1
 10
72.832309
 20
100.520283
 30
0.0
 10
73.934235
 20
99.874512
 30
0.0
 10
76.634419
 20
98.865169
 30
0.0
 10
77.354298
 20
98.829942
 30
0.0
  0
SPLINE
  5
303
100
AcDbEntity
  8
0
 62
7
100
AcDbSpline
 70
8
 71
3
 72
8
 73
4
 74
0
 40
0
 40
0
 40
0
 40
0
 40
1
 40
1
 40
1
 40
1
 10
77.354298
 20
98.829942
 30
0.0
 10
77.536268
 20
98.821026
 30
0.0
 10
77.705498
 20
99.780929
 30
0.0
 10
77.806590
 20
101.395400
 30
0.0
  0
LWPOLYLINE
  5
304
100
AcDbEntity
  8
0
 62
7
100
AcDbPolyline
 90
1
 70
1
 10
44.740460
 20
101.263109
 30
0.0
  0
SPLINE
  5
305
100
AcDbEntity
  8
0
 62
7
100
AcDbSpline
 70
8
 71
3
 72
8
 73
4
 74
0
 40
0
 40
0
 40
0
 40
0
 40
1
 40
1
 40
1
 40
1
 10
110.851318
 20
101.482877
 30
0.0
 10
111.676521
 20
112.557716
 30
0.0
 10
118.106044
 20
118.946533
 30
0.0
 10
129.120307
 20
119.636201
 30
0.0
  0
SPLINE
  5
306
100
AcDbEntity
  8
0
 62
7
100
AcDbSpline
 70
8
 71
3
 72
8
 73
4
 74
0
 40
0
 40
0
 40
0
 40
0
 40
1
 40
1
 40
1
 40
1
 10
129.120307
 20
119.636201
 30
0.0
 10
130.539135
 20
119.725043
 30
0.0
 10
131.699995
 20
119.902565
 30
0.0
 10
131.699995
 20
120.030695
 30
0.0
  0
SPLINE
  5
307
100
AcDbEntity
  8
0
 62
7
100
AcDbSpline
 70
8
 71
3
 72
8
 73
4
 74
0
 40
0
 40
0
 40
0
 40
0
 40
1
 40
1
 40
1
 40
1
 10
131.699995
 20
120.030695
 30
0.0
 10
131.699995
 20
120.694093
 30
0.0
 10
130.484663
 20
123.736034
 30
0.0
 10
129.710852
 20
125.009463
 30
0.0
  0
SPLINE
  5
308
100
AcDbEntity
  8
0
 62
7
100
AcDbSpline
 70
8
 71
3
 72
8
 73
4
 74
0
 40
0
 40
0
 40
0
 40
0
 40
1
 40
1
 40
1
 40
1
 10
129.710852
 20
125.009463
 30
0.0
 10
128.165844
 20
127.552016
 30
0.0
 10
125.769301
 20
129.375165
 30
0.0
 10
122.742436
 20
130.310620
 30
0.0
  0
SPLINE
  5
309
100
AcDbEntity
  8
0
 62
7
100
AcDbSpline
 70
8
 71
3
 72
8
 73
4
 74
0
 40
0
 40
0
 40
0
 40
0
 40
1
 40
1
 40
1
 40
1
 10
122.742436
 20
130.310620
 30
0.0
 10
121.817604
 20
130.596442
 30
0.0
 10
120.971974
 20
130.830296
 30
0.0
 10
120.863259
 20
130.830296
 30
0.0
  0
SPLINE
  5
30a
100
AcDbEntity
  8
0
 62
7
100
AcDbSpline
 70
8
 71
3
 72
8
 73
4
 74
0
 40
0
 40
0
 40
0
 40
0
 40
1
 40
1
 40
1
 40
1
 10
120.863259
 20
130.830296
 30
0.0
 10
120.754547
 20
130.830296
 30
0.0
 10
120.587027
 20
129.712508
 30
0.0
 10
120.490993
 20
128.346324
 30
0.0
  0
SPLINE
  5
30b
100
AcDbEntity
  8
0
 62
7
100
AcDbSpline
 70
8
 71
3
 72
8
 73
4
 74
0
 40
0
 40
0
 40
0
 40
0
 40
1
 40
1
 40
1
 40
1
 10
120.490993
 20
128.346324
 30
0.0
 10
119.873638
 20
119.563721
 30
0.0
 10
115.645123
 20
113.577232
 30
0.0
 10
108.339705
 20
111.143230
 30
0.0
  0
SPLINE
  5
30c
100
AcDbEntity
  8
0
 62
7
100
AcDbSpline
 70
8
 71
3
 72
8
 73
4
 74
0
 40
0
 40
0
 40
0
 40
0
 40
1
 40
1
 40
1
 40
1
 10
108.339705
 20
111.143230
 30
0.0
 10
106.584832
 20
110.558546
 30
0.0
 10
102.816798
 20
109.928213
 30
0.0
 10
101.076517
 20
109.928213
 30
0.0
  0
LWPOLYLINE
  5
30d
100
AcDbEntity
  8
0
 62
7
100
AcDbPolyline
 90
1
 70
1
 10
77.806590
 20
101.395400
 30
0.0
  0
SPLINE
  5
30e
100
AcDbEntity
  8
0
 62
7
100
AcDbSpline
 70
8
 71
3
 72
8
 73
4
 74
0
 40
0
 40
0
 40
0
 40
0
 40
1
 40
1
 40
1
 40
1
 10
99.811806
 20
108.936025
 30
0.0
 10
100.118616
 20
107.293069
 30
0.0
 10
101.673141
 20
104.235438
 30
0.0
 10
102.851622
 20
102.956934
 30
0.0
  0
SPLINE
  5
30f
100
AcDbEntity
  8
0
 62
7
100
AcDbSpline
 70
8
 71
3
 72
8
 73
4
 74
0
 40
0
 40
0
 40
0
 40
0
 40
1
 40
1
 40
1
 40
1
 10
102.851622
 20
102.956934
 30
0.0
 10
103.460820
 20
102.296037
 30
0.0
 10
104.572467
 20
101.361782
 30
0.0
 10
105.321949
 20
100.880820
 30
0.0
  0
SPLINE
  5
310
100
AcDbEntity
  8
0
 62
7
100
AcDbSpline
 70
8
 71
3
 72
8
 73
4
 74
0
 40
0
 40
0
 40
0
 40
0
 40
1
 40
1
 40
1
 40
1
 10
105.321949
 20
100.880820
 30
0.0
 10
106.683572
 20
100.007031
 30
0.0
 10
109.901188
 20
98.758764
 30
0.0
 10
110.401037
 20
98.910399
 30
0.0
  0
SPLINE
  5
311
100
AcDbEntity
  8
0
 62
7
100
AcDbSpline
 70
8
 71
3
 72
8
 73
4
 74
0
 40
0
 40
0
 40
0
 40
0
 40
1
 40
1
 40
1
 40
1
 10
110.401037
 20
98.910399
 30
0.0
 10
110.546557
 20
98.954545
 30
0.0
 10
110.749183
 20
100.112161
 30
0.0
 10
110.851318
 20
101.482877
 30
0.0
  0
LWPOLYLINE
  5
312
100
AcDbEntity
  8
0
 62
7
100
AcDbPolyline
 90
3
 70
0
 10
101.076517
 20
109.928213
 30
0.0
 10
99.626521
 20
109.928213
 30
0.0
 10
99.811806
 20
108.936025
 30
0.0
  0
SPLINE
  5
313
100
AcDbEntity
  8
0
 62
7
100
AcDbSpline
 70
8
 71
3
 72
8
 73
4
 74
0
 40
0
 40
0
 40
0
 40
0
 40
1
 40
1
 40
1
 40
1
 10
42.246701
 20
116.765843
 30
0.0
 10
45.206944
 20
118.209097
 30
0.0
 10
47.404372
 20
120.853719
 30
0.0
 10
48.493923
 20
124.284420
 30
0.0
  0
LWPOLYLINE
  5
314
100
AcDbEntity
  8
0
 62
7
100
AcDbPolyline
 90
1
 70
1
 10
110.851318
 20
101.482877
 30
0.0
  0
SPLINE
  5
315
100
AcDbEntity
  8
0
 62
7
100
AcDbSpline
 70
8
 71
3
 72
8
 73
4
 74
0
 40
0
 40
0
 40
0
 40
0
 40
1
 40
1
 40
1
 40
1
 10
46.281885
 20
126.517106
 30
0.0
 10
42.554401
 20
126.936079
 30
0.0
 10
40.485052
 20
127.476319
 30
0.0
 10
37.811004
 20
128.728578
 30
0.0
  0
SPLINE
  5
316
100
AcDbEntity
  8
0
 62
7
100
AcDbSpline
 70
8
 71
3
 72
8
 73
4
 74
0
 40
0
 40
0
 40
0
 40
0
 40
1
 40
1
 40
1
 40
1
 10
37.811004
 20
128.728578
 30
0.0
 10
36.048561
 20
129.553933
 30
0.0
 10
35.184109
 20
130.180646
 30
0.0
 10
33.549003
 20
131.818467
 30
0.0
  0
SPLINE
  5
317
100
AcDbEntity
  8
0
 62
7
100
AcDbSpline
 70
8
 71
3
 72
8
 73
4
 74
0
 40
0
 40
0
 40
0
 40
0
 40
1
 40
1
 40
1
 40
1
 10
33.549003
 20
131.818467
 30
0.0
 10
30.409036
 20
134.963641
 30
0.0
 10
28.904343
 20
138.482089
 30
0.0
 10
28.257458
 20
144.191755
 30
0.0
  0
SPLINE
  5
318
100
AcDbEntity
  8
0
 62
7
100
AcDbSpline
 70
8
 71
3
 72
8
 73
4
 74
0
 40
0
 40
0
 40
0
 40
0
 40
1
 40
1
 40
1
 40
1
 10
28.257458
 20
144.191755
 30
0.0
 10
28.109074
 20
145.501442
 30
0.0
 10
27.986694
 20
146.737411
 30
0.0
 10
27.985498
 20
146.938352
 30
0.0
  0
SPLINE
  5
319
100
AcDbEntity
  8
0
 62
7
100
AcDbSpline
 70
8
 71
3
 72
8
 73
4
 74
0
 40
0
 40
0
 40
0
 40
0
 40
1
 40
1
 40
1
 40
1
 10
27.985498
 20
146.938352
 30
0.0
 10
27.978566
 20
148.106437
 30
0.0
 10
22.806558
 20
145.796370
 30
0.0
 10
20.690031
 20
143.679844
 30
0.0
  0
SPLINE
  5
31a
100
AcDbEntity
  8
0
 62
7
100
AcDbSpline
 70
8
 71
3
 72
8
 73
4
 74
0
 40
0
 40
0
 40
0
 40
0
 40
1
 40
1
 40
1
 40
1
 10
20.690031
 20
143.679844
 30
0.0
 10
19.155789
 20
142.145602
 30
0.0
 10
17.514809
 20
139.151148
 30
0.0
 10
17.223063
 20
137.353342
 30
0.0
  0
SPLINE
  5
31b
100
AcDbEntity
  8
0
 62
7
100
AcDbSpline
 70
8
 71
3
 72
8
 73
4
 74
0
 40
0
 40
0
 40
0
 40
0
 40
1
 40
1
 40
1
 40
1
 10
17.223063
 20
137.353342
 30
0.0
 10
17.089160
 20
136.528183
 30
0.0
 10
17.139079
 20
136.386229
 30
0.0
 10
17.563815
 20
136.384377
 30
0.0
  0
SPLINE
  5
31c
100
AcDbEntity
  8
0
 62
7
100
AcDbSpline
 70
8
 71
3
 72
8
 73
4
 74
0
 40
0
 40
0
 40
0
 40
0
 40
1
 40
1
 40
1
 40
1
 10
17.563815
 20
136.384377
 30
0.0
 10
17.837516
 20
136.383054
 30
0.0
 10
19.133016
 20
136.261261
 30
0.0
 10
20.442704
 20
136.113438
 30
0.0
  0
SPLINE
  5
31d
100
AcDbEntity
  8
0
 62
7
100
AcDbSpline
 70
8
 71
3
 72
8
 73
4
 74
0
 40
0
 40
0
 40
0
 40
0
 40
1
 40
1
 40
1
 40
1
 10
20.442704
 20
136.113438
 30
0.0
 10
27.892192
 20
135.272632
 30
0.0
 10
32.852648
 20
132.212929
 30
0.0
 10
35.493920
 20
126.829566
 30
0.0
  0
SPLINE
  5
31e
100
AcDbEntity
  8
0
 62
7
100
AcDbSpline
 70
8
 71
3
 72
8
 73
4
 74
0
 40
0
 40
0
 40
0
 40
0
 40
1
 40
1
 40
1
 40
1
 10
35.493920
 20
126.829566
 30
0.0
 10
36.964824
 20
123.831615
 30
0.0
 10
37.437039
 20
122.096260
 30
0.0
 10
37.835165
 20
118.225676
 30
0.0
  0
LWPOLYLINE
  5
31f
100
AcDbEntity
  8
0
 62
7
100
AcDbPolyline
 90
3
 70
0
 10
48.493923
 20
124.284420
 30
0.0
 10
49.102314
 20
126.200088
 30
0.0
 10
46.281885
 20
126.517106
 30
0.0
  0
SPLINE
  5
320
100
AcDbEntity
  8
0
 62
7
100
AcDbSpline
 70
8
 71
3
 72
8
 73
4
 74
0
 40
0
 40
0
 40
0
 40
0
 40
1
 40
1
 40
1
 40
1
 10
39.476974
 20
115.673235
 30
0.0
 10
40.213230
 20
115.890424
 30
0.0
 10
41.459608
 20
116.382099
 30
0.0
 10
42.246701
 20
116.765843
 30
0.0
  0
LWPOLYLINE
  5
321
100
AcDbEntity
  8
0
 62
7
100
AcDbPolyline
 90
3
 70
0
 10
37.835165
 20
118.225676
 30
0.0
 10
38.138325
 20
115.278344
 30
0.0
 10
39.476974
 20
115.673235
 30
0.0
  0
SPLINE
  5
322
100
AcDbEntity
  8
0
 62
7
100
AcDbSpline
 70
8
 71
3
 72
8
 73
4
 74
0
 40
0
 40
0
 40
0
 40
0
 40
1
 40
1
 40
1
 40
1
 10
75.683851
 20
117.002864
 30
0.0
 10
78.539364
 20
118.495186
 30
0.0
 10
80.700065
 20
121.298655
 30
0.0
 10
81.768408
 20
124.897457
 30
0.0
  0
LWPOLYLINE
  5
323
100
AcDbEntity
  8
0
 62
7
100
AcDbPolyline
 90
1
 70
1
 10
42.246701
 20
116.765843
 30
0.0
  0
SPLINE
  5
324
100
AcDbEntity
  8
0
 62
7
100
AcDbSpline
 70
8
 71
3
 72
8
 73
4
 74
0
 40
0
 40
0
 40
0
 40
0
 40
1
 40
1
 40
1
 40
1
 10
79.218470
 20
126.548803
 30
0.0
 10
72.611970
 20
127.239191
 30
0.0
 10
68.504483
 20
129.214062
 30
0.0
 10
65.194519
 20
133.291487
 30
0.0
  0
SPLINE
  5
325
100
AcDbEntity
  8
0
 62
7
100
AcDbSpline
 70
8
 71
3
 72
8
 73
4
 74
0
 40
0
 40
0
 40
0
 40
0
 40
1
 40
1
 40
1
 40
1
 10
65.194519
 20
133.291487
 30
0.0
 10
63.092867
 20
135.880435
 30
0.0
 10
61.781349
 20
139.626909
 30
0.0
 10
61.272669
 20
144.494605
 30
0.0
  0
LWPOLYLINE
  5
326
100
AcDbEntity
  8
0
 62
7
100
AcDbPolyline
 90
3
 70
0
 10
81.768408
 20
124.897457
 30
0.0
 10
82.167153
 20
126.240662
 30
0.0
 10
79.218470
 20
126.548803
 30
0.0
  0
SPLINE
  5
327
100
AcDbEntity
  8
0
 62
7
100
AcDbSpline
 70
8
 71
3
 72
8
 73
4
 74
0
 40
0
 40
0
 40
0
 40
0
 40
1
 40
1
 40
1
 40
1
 10
59.621322
 20
147.044542
 30
0.0
 10
54.950056
 20
145.657829
 30
0.0
 10
51.783983
 20
142.489433
 30
0.0
 10
50.395386
 20
137.811830
 30
0.0
  0
LWPOLYLINE
  5
328
100
AcDbEntity
  8
0
 62
7
100
AcDbPolyline
 90
3
 70
0
 10
61.272669
 20
144.494605
 30
0.0
 10
60.964527
 20
147.443288
 30
0.0
 10
59.621322
 20
147.044542
 30
0.0
  0
SPLINE
  5
329
100
AcDbEntity
  8
0
 62
7
100
AcDbSpline
 70
8
 71
3
 72
8
 73
4
 74
0
 40
0
 40
0
 40
0
 40
0
 40
1
 40
1
 40
1
 40
1
 10
52.945326
 20
136.159708
 30
0.0
 10
58.666729
 20
135.579570
 30
0.0
 10
62.692576
 20
133.917121
 30
0.0
 10
65.678608
 20
130.901575
 30
0.0
  0
SPLINE
  5
32a
100
AcDbEntity
  8
0
 62
7
100
AcDbSpline
 70
8
 71
3
 72
8
 73
4
 74
0
 40
0
 40
0
 40
0
 40
0
 40
1
 40
1
 40
1
 40
1
 10
65.678608
 20
130.901575
 30
0.0
 10
68.669913
 20
127.880705
 30
0.0
 10
70.298593
 20
123.921800
 30
0.0
 10
70.893988
 20
118.224321
 30
0.0
  0
LWPOLYLINE
  5
32b
100
AcDbEntity
  8
0
 62
7
100
AcDbPolyline
 90
3
 70
0
 10
50.395386
 20
137.811830
 30
0.0
 10
49.993780
 20
136.458989
 30
0.0
 10
52.945326
 20
136.159708
 30
0.0
  0
SPLINE
  5
32c
100
AcDbEntity
  8
0
 62
7
100
AcDbSpline
 70
8
 71
3
 72
8
 73
4
 74
0
 40
0
 40
0
 40
0
 40
0
 40
1
 40
1
 40
1
 40
1
 10
72.545334
 20
115.670126
 30
0.0
 10
73.284096
 20
115.887095
 30
0.0
 10
74.696428
 20
116.486826
 30
0.0
 10
75.683851
 20
117.002864
 30
0.0
  0
LWPOLYLINE
  5
32d
100
AcDbEntity
  8
0
 62
7
100
AcDbPolyline
 90
3
 70
0
 10
70.893988
 20
118.224321
 30
0.0
 10
71.202129
 20
115.275638
 30
0.0
 10
72.545334
 20
115.670126
 30
0.0
  0
SPLINE
  5
32e
100
AcDbEntity
  8
0
 62
7
100
AcDbSpline
 70
8
 71
3
 72
8
 73
4
 74
0
 40
0
 40
0
 40
0
 40
0
 40
1
 40
1
 40
1
 40
1
 10
108.068565
 20
116.655837
 30
0.0
 10
110.654264
 20
117.883779
 30
0.0
 10
112.631929
 20
119.861444
 30
0.0
 10
113.859871
 20
122.447143
 30
0.0
  0
SPLINE
  5
32f
100
AcDbEntity
  8
0
 62
7
100
AcDbSpline
 70
8
 71
3
 72
8
 73
4
 74
0
 40
0
 40
0
 40
0
 40
0
 40
1
 40
1
 40
1
 40
1
 10
113.859871
 20
122.447143
 30
0.0
 10
114.369628
 20
123.520547
 30
0.0
 10
114.857302
 20
124.833846
 30
0.0
 10
114.943594
 20
125.365584
 30
0.0
  0
SPLINE
  5
330
100
AcDbEntity
  8
0
 62
7
100
AcDbSpline
 70
8
 71
3
 72
8
 73
4
 74
0
 40
0
 40
0
 40
0
 40
0
 40
1
 40
1
 40
1
 40
1
 10
114.943594
 20
125.365584
 30
0.0
 10
115.077497
 20
126.190743
 30
0.0
 10
115.027578
 20
126.332697
 30
0.0
 10
114.602842
 20
126.334549
 30
0.0
  0
SPLINE
  5
331
100
AcDbEntity
  8
0
 62
7
100
AcDbSpline
 70
8
 71
3
 72
8
 73
4
 74
0
 40
0
 40
0
 40
0
 40
0
 40
1
 40
1
 40
1
 40
1
 10
114.602842
 20
126.334549
 30
0.0
 10
114.329141
 20
126.335872
 30
0.0
 10
113.033641
 20
126.457665
 30
0.0
 10
111.723953
 20
126.605488
 30
0.0
  0
SPLINE
  5
332
100
AcDbEntity
  8
0
 62
7
100
AcDbSpline
 70
8
 71
3
 72
8
 73
4
 74
0
 40
0
 40
0
 40
0
 40
0
 40
1
 40
1
 40
1
 40
1
 10
111.723953
 20
126.605488
 30
0.0
 10
100.805242
 20
127.837859
 30
0.0
 10
95.160806
 20
133.829597
 30
0.0
 10
94.245430
 20
145.159465
 30
0.0
  0
LWPOLYLINE
  5
333
100
AcDbEntity
  8
0
 62
7
100
AcDbPolyline
 90
1
 70
1
 10
75.683851
 20
117.002864
 30
0.0
  0
SPLINE
  5
334
100
AcDbEntity
  8
0
 62
7
100
AcDbSpline
 70
8
 71
3
 72
8
 73
4
 74
0
 40
0
 40
0
 40
0
 40
0
 40
1
 40
1
 40
1
 40
1
 10
92.705701
 20
147.050448
 30
0.0
 10
87.954586
 20
145.648796
 30
0.0
 10
84.864924
 20
142.559680
 30
0.0
 10
83.465458
 20
137.811830
 30
0.0
  0
LWPOLYLINE
  5
335
100
AcDbEntity
  8
0
 62
7
100
AcDbPolyline
 90
3
 70
0
 10
94.245430
 20
145.159465
 30
0.0
 10
94.060362
 20
147.450093
 30
0.0
 10
92.705701
 20
147.050448
 30
0.0
  0
SPLINE
  5
336
100
AcDbEntity
  8
0
 62
7
100
AcDbSpline
 70
8
 71
3
 72
8
 73
4
 74
0
 40
0
 40
0
 40
0
 40
0
 40
1
 40
1
 40
1
 40
1
 10
86.018243
 20
136.159708
 30
0.0
 10
91.894247
 20
135.563893
 30
0.0
 10
95.393084
 20
134.089304
 30
0.0
 10
98.635981
 20
130.841943
 30
0.0
  0
SPLINE
  5
337
100
AcDbEntity
  8
0
 62
7
100
AcDbSpline
 70
8
 71
3
 72
8
 73
4
 74
0
 40
0
 40
0
 40
0
 40
0
 40
1
 40
1
 40
1
 40
1
 10
98.635981
 20
130.841943
 30
0.0
 10
102.073056
 20
127.400135
 30
0.0
 10
103.308891
 20
124.244801
 30
0.0
 10
104.067210
 20
116.974914
 30
0.0
  0
LWPOLYLINE
  5
338
100
AcDbEntity
  8
0
 62
7
100
AcDbPolyline
 90
3
 70
0
 10
83.465458
 20
137.811830
 30
0.0
 10
83.066697
 20
136.458989
 30
0.0
 10
86.018243
 20
136.159708
 30
0.0
  0
SPLINE
  5
339
100
AcDbEntity
  8
0
 62
7
100
AcDbSpline
 70
8
 71
3
 72
8
 73
4
 74
0
 40
0
 40
0
 40
0
 40
0
 40
1
 40
1
 40
1
 40
1
 10
105.173023
 20
115.575831
 30
0.0
 10
105.692168
 20
115.660077
 30
0.0
 10
106.995161
 20
116.146080
 30
0.0
 10
108.068565
 20
116.655837
 30
0.0
  0
LWPOLYLINE
  5
33a
100
AcDbEntity
  8
0
 62
7
100
AcDbPolyline
 90
3
 70
0
 10
104.067210
 20
116.974914
 30
0.0
 10
104.229128
 20
115.422659
 30
0.0
 10
105.173023
 20
115.575831
 30
0.0
  0
SPLINE
  5
33b
100
AcDbEntity
  8
0
 62
7
100
AcDbSpline
 70
8
 71
3
 72
8
 73
4
 74
0
 40
0
 40
0
 40
0
 40
0
 40
1
 40
1
 40
1
 40
1
 10
11.675664
 20
134.372601
 30
0.0
 10
12.292807
 20
143.152191
 30
0.0
 10
16.508051
 20
149.118955
 30
0.0
 10
23.826950
 20
151.573002
 30
0.0
  0
SPLINE
  5
33c
100
AcDbEntity
  8
0
 62
7
100
AcDbSpline
 70
8
 71
3
 72
8
 73
4
 74
0
 40
0
 40
0
 40
0
 40
0
 40
1
 40
1
 40
1
 40
1
 10
23.826950
 20
151.573002
 30
0.0
 10
25.573882
 20
152.158753
 30
0.0
 10
29.343292
 20
152.790713
 30
0.0
 10
31.090140
 20
152.790713
 30
0.0
  0
LWPOLYLINE
  5
33d
100
AcDbEntity
  8
0
 62
7
100
AcDbPolyline
 90
1
 70
1
 10
108.068565
 20
116.655837
 30
0.0
  0
SPLINE
  5
33e
100
AcDbEntity
  8
0
 62
7
100
AcDbSpline
 70
8
 71
3
 72
8
 73
4
 74
0
 40
0
 40
0
 40
0
 40
0
 40
1
 40
1
 40
1
 40
1
 10
32.354851
 20
153.782900
 30
0.0
 10
32.031181
 20
155.516146
 30
0.0
 10
30.457264
 20
158.535127
 30
0.0
 10
29.147103
 20
159.935796
 30
0.0
  0
SPLINE
  5
33f
100
AcDbEntity
  8
0
 62
7
100
AcDbSpline
 70
8
 71
3
 72
8
 73
4
 74
0
 40
0
 40
0
 40
0
 40
0
 40
1
 40
1
 40
1
 40
1
 10
29.147103
 20
159.935796
 30
0.0
 10
28.451453
 20
160.679500
 30
0.0
 10
27.160879
 20
161.687566
 30
0.0
 10
26.279161
 20
162.175936
 30
0.0
  0
SPLINE
  5
340
100
AcDbEntity
  8
0
 62
7
100
AcDbSpline
 70
8
 71
3
 72
8
 73
4
 74
0
 40
0
 40
0
 40
0
 40
0
 40
1
 40
1
 40
1
 40
1
 10
26.279161
 20
162.175936
 30
0.0
 10
24.655397
 20
163.075316
 30
0.0
 10
21.992863
 20
163.993126
 30
0.0
 10
21.640073
 20
163.775088
 30
0.0
  0
SPLINE
  5
341
100
AcDbEntity
  8
0
 62
7
100
AcDbSpline
 70
8
 71
3
 72
8
 73
4
 74
0
 40
0
 40
0
 40
0
 40
0
 40
1
 40
1
 40
1
 40
1
 10
21.640073
 20
163.775088
 30
0.0
 10
21.534176
 20
163.709641
 30
0.0
 10
21.377435
 20
162.550837
 30
0.0
 10
21.291755
 20
161.199965
 30
0.0
  0
SPLINE
  5
342
100
AcDbEntity
  8
0
 62
7
100
AcDbSpline
 70
8
 71
3
 72
8
 73
4
 74
0
 40
0
 40
0
 40
0
 40
0
 40
1
 40
1
 40
1
 40
1
 10
21.291755
 20
161.199965
 30
0.0
 10
20.909350
 20
155.170680
 30
0.0
 10
18.480316
 20
149.946648
 30
0.0
 10
14.704950
 20
147.033975
 30
0.0
  0
SPLINE
  5
343
100
AcDbEntity
  8
0
 62
7
100
AcDbSpline
 70
8
 71
3
 72
8
 73
4
 74
0
 40
0
 40
0
 40
0
 40
0
 40
1
 40
1
 40
1
 40
1
 10
14.704950
 20
147.033975
 30
0.0
 10
11.787741
 20
144.783363
 30
0.0
 10
7.609240
 20
143.368419
 30
0.0
 10
3.034266
 20
143.081986
 30
0.0
  0
LWPOLYLINE
  5
344
100
AcDbEntity
  8
0
 62
7
100
AcDbPolyline
 90
3
 70
0
 10
31.090140
 20
152.790713
 30
0.0
 10
32.540136
 20
152.790713
 30
0.0
 10
32.354851
 20
153.782900
 30
0.0
  0
SPLINE
  5
345
100
AcDbEntity
  8
0
 62
7
100
AcDbSpline
 70
8
 71
3
 72
8
 73
4
 74
0
 40
0
 40
0
 40
0
 40
0
 40
1
 40
1
 40
1
 40
1
 10
0.617303
 20
142.100530
 30
0.0
 10
1.141831
 20
139.642421
 30
0.0
 10
2.847296
 20
136.609659
 30
0.0
 10
4.541664
 20
135.121986
 30
0.0
  0
SPLINE
  5
346
100
AcDbEntity
  8
0
 62
7
100
AcDbSpline
 70
8
 71
3
 72
8
 73
4
 74
0
 40
0
 40
0
 40
0
 40
0
 40
1
 40
1
 40
1
 40
1
 10
4.541664
 20
135.121986
 30
0.0
 10
6.199339
 20
133.666526
 30
0.0
 10
9.699872
 20
131.976495
 30
0.0
 10
11.209381
 20
131.902859
 30
0.0
  0
SPLINE
  5
347
100
AcDbEntity
  8
0
 62
7
100
AcDbSpline
 70
8
 71
3
 72
8
 73
4
 74
0
 40
0
 40
0
 40
0
 40
0
 40
1
 40
1
 40
1
 40
1
 10
11.209381
 20
131.902859
 30
0.0
 10
11.390506
 20
131.894022
 30
0.0
 10
11.567238
 20
132.830107
 30
0.0
 10
11.675664
 20
134.372601
 30
0.0
  0
LWPOLYLINE
  5
348
100
AcDbEntity
  8
0
 62
7
100
AcDbPolyline
 90
3
 70
0
 10
3.034266
 20
143.081986
 30
0.0
 10
0.442498
 20
142.919720
 30
0.0
 10
0.617303
 20
142.100530
 30
0.0
  0
SPLINE
  5
349
100
AcDbEntity
  8
0
 62
7
100
AcDbSpline
 70
8
 71
3
 72
8
 73
4
 74
0
 40
0
 40
0
 40
0
 40
0
 40
1
 40
1
 40
1
 40
1
 10
44.653086
 20
133.277692
 30
0.0
 10
44.654409
 20
135.218747
 30
0.0
 10
45.281546
 20
138.843491
 30
0.0
 10
45.968997
 20
140.884463
 30
0.0
  0
SPLINE
  5
34a
100
AcDbEntity
  8
0
 62
7
100
AcDbSpline
 70
8
 71
3
 72
8
 73
4
 74
0
 40
0
 40
0
 40
0
 40
0
 40
1
 40
1
 40
1
 40
1
 10
45.968997
 20
140.884463
 30
0.0
 10
47.659467
 20
145.903289
 30
0.0
 10
51.525845
 20
149.766729
 30
0.0
 10
56.565877
 20
151.473294
 30
0.0
  0
SPLINE
  5
34b
100
AcDbEntity
  8
0
 62
7
100
AcDbSpline
 70
8
 71
3
 72
8
 73
4
 74
0
 40
0
 40
0
 40
0
 40
0
 40
1
 40
1
 40
1
 40
1
 10
56.565877
 20
151.473294
 30
0.0
 10
58.594744
 20
152.160274
 30
0.0
 10
62.220118
 20
152.788295
 30
0.0
 10
64.165099
 20
152.789705
 30
0.0
  0
SPLINE
  5
34c
100
AcDbEntity
  8
0
 62
7
100
AcDbSpline
 70
8
 71
3
 72
8
 73
4
 74
0
 40
0
 40
0
 40
0
 40
0
 40
1
 40
1
 40
1
 40
1
 10
64.165099
 20
152.789705
 30
0.0
 10
65.773109
 20
152.790763
 30
0.0
 10
65.786553
 20
152.826159
 30
0.0
 10
65.023762
 20
155.043254
 30
0.0
  0
SPLINE
  5
34d
100
AcDbEntity
  8
0
 62
7
100
AcDbSpline
 70
8
 71
3
 72
8
 73
4
 74
0
 40
0
 40
0
 40
0
 40
0
 40
1
 40
1
 40
1
 40
1
 10
65.023762
 20
155.043254
 30
0.0
 10
63.965272
 20
158.119805
 30
0.0
 10
62.370761
 20
160.227812
 30
0.0
 10
59.884704
 20
161.837293
 30
0.0
  0
SPLINE
  5
34e
100
AcDbEntity
  8
0
 62
7
100
AcDbSpline
 70
8
 71
3
 72
8
 73
4
 74
0
 40
0
 40
0
 40
0
 40
0
 40
1
 40
1
 40
1
 40
1
 10
59.884704
 20
161.837293
 30
0.0
 10
58.595202
 20
162.672120
 30
0.0
 10
55.516539
 20
163.903213
 30
0.0
 10
54.718344
 20
163.903213
 30
0.0
  0
SPLINE
  5
34f
100
AcDbEntity
  8
0
 62
7
100
AcDbSpline
 70
8
 71
3
 72
8
 73
4
 74
0
 40
0
 40
0
 40
0
 40
0
 40
1
 40
1
 40
1
 40
1
 10
54.718344
 20
163.903213
 30
0.0
 10
54.610132
 20
163.903213
 30
0.0
 10
54.448908
 20
162.742353
 30
0.0
 10
54.360067
 20
161.323525
 30
0.0
  0
SPLINE
  5
350
100
AcDbEntity
  8
0
 62
7
100
AcDbSpline
 70
8
 71
3
 72
8
 73
4
 74
0
 40
0
 40
0
 40
0
 40
0
 40
1
 40
1
 40
1
 40
1
 10
54.360067
 20
161.323525
 30
0.0
 10
53.667509
 20
150.263140
 30
0.0
 10
47.179651
 20
143.775282
 30
0.0
 10
36.119266
 20
143.082724
 30
0.0
  0
SPLINE
  5
351
100
AcDbEntity
  8
0
 62
7
100
AcDbSpline
 70
8
 71
3
 72
8
 73
4
 74
0
 40
0
 40
0
 40
0
 40
0
 40
1
 40
1
 40
1
 40
1
 10
36.119266
 20
143.082724
 30
0.0
 10
34.700438
 20
142.993883
 30
0.0
 10
33.539578
 20
142.832659
 30
0.0
 10
33.539578
 20
142.724447
 30
0.0
  0
SPLINE
  5
352
100
AcDbEntity
  8
0
 62
7
100
AcDbSpline
 70
8
 71
3
 72
8
 73
4
 74
0
 40
0
 40
0
 40
0
 40
0
 40
1
 40
1
 40
1
 40
1
 10
33.539578
 20
142.724447
 30
0.0
 10
33.539578
 20
141.926252
 30
0.0
 10
34.770671
 20
138.847589
 30
0.0
 10
35.605498
 20
137.558087
 30
0.0
  0
SPLINE
  5
353
100
AcDbEntity
  8
0
 62
7
100
AcDbSpline
 70
8
 71
3
 72
8
 73
4
 74
0
 40
0
 40
0
 40
0
 40
0
 40
1
 40
1
 40
1
 40
1
 10
35.605498
 20
137.558087
 30
0.0
 10
37.228142
 20
135.051697
 30
0.0
 10
39.487123
 20
133.357030
 30
0.0
 10
42.481886
 20
132.399487
 30
0.0
  0
SPLINE
  5
354
100
AcDbEntity
  8
0
 62
7
100
AcDbSpline
 70
8
 71
3
 72
8
 73
4
 74
0
 40
0
 40
0
 40
0
 40
0
 40
1
 40
1
 40
1
 40
1
 10
42.481886
 20
132.399487
 30
0.0
 10
44.664437
 20
131.701641
 30
0.0
 10
44.651938
 20
131.696587
 30
0.0
 10
44.653086
 20
133.277692
 30
0.0
  0
LWPOLYLINE
  5
355
100
AcDbEntity
  8
0
 62
7
100
AcDbPolyline
 90
1
 70
1
 10
11.675664
 20
134.372601
 30
0.0
  0
SPLINE
  5
356
100
AcDbEntity
  8
0
 62
7
100
AcDbSpline
 70
8
 71
3
 72
8
 73
4
 74
0
 40
0
 40
0
 40
0
 40
0
 40
1
 40
1
 40
1
 40
1
 10
77.806590
 20
134.468317
 30
0.0
 10
78.499912
 20
145.540915
 30
0.0
 10
84.937462
 20
151.929735
 30
0.0
 10
96.179682
 20
152.702331
 30
0.0
  0
SPLINE
  5
357
100
AcDbEntity
  8
0
 62
7
100
AcDbSpline
 70
8
 71
3
 72
8
 73
4
 74
0
 40
0
 40
0
 40
0
 40
0
 40
1
 40
1
 40
1
 40
1
 10
96.179682
 20
152.702331
 30
0.0
 10
97.525750
 20
152.794838
 30
0.0
 10
98.627078
 20
152.959088
 30
0.0
 10
98.627078
 20
153.067332
 30
0.0
  0
SPLINE
  5
358
100
AcDbEntity
  8
0
 62
7
100
AcDbSpline
 70
8
 71
3
 72
8
 73
4
 74
0
 40
0
 40
0
 40
0
 40
0
 40
1
 40
1
 40
1
 40
1
 10
98.627078
 20
153.067332
 30
0.0
 10
98.627078
 20
153.772365
 30
0.0
 10
97.450251
 20
156.846299
 30
0.0
 10
96.757763
 20
157.950088
 30
0.0
  0
SPLINE
  5
359
100
AcDbEntity
  8
0
 62
7
100
AcDbSpline
 70
8
 71
3
 72
8
 73
4
 74
0
 40
0
 40
0
 40
0
 40
0
 40
1
 40
1
 40
1
 40
1
 10
96.757763
 20
157.950088
 30
0.0
 10
95.601819
 20
159.792596
 30
0.0
 10
94.771774
 20
160.639273
 30
0.0
 10
92.957621
 20
161.826382
 30
0.0
  0
SPLINE
  5
35a
100
AcDbEntity
  8
0
 62
7
100
AcDbSpline
 70
8
 71
3
 72
8
 73
4
 74
0
 40
0
 40
0
 40
0
 40
0
 40
1
 40
1
 40
1
 40
1
 10
92.957621
 20
161.826382
 30
0.0
 10
91.670031
 20
162.668926
 30
0.0
 10
88.599566
 20
163.903213
 30
0.0
 10
87.791197
 20
163.903213
 30
0.0
  0
SPLINE
  5
35b
100
AcDbEntity
  8
0
 62
7
100
AcDbSpline
 70
8
 71
3
 72
8
 73
4
 74
0
 40
0
 40
0
 40
0
 40
0
 40
1
 40
1
 40
1
 40
1
 10
87.791197
 20
163.903213
 30
0.0
 10
87.682954
 20
163.903213
 30
0.0
 10
87.518703
 20
162.801885
 30
0.0
 10
87.426197
 20
161.455817
 30
0.0
  0
SPLINE
  5
35c
100
AcDbEntity
  8
0
 62
7
100
AcDbSpline
 70
8
 71
3
 72
8
 73
4
 74
0
 40
0
 40
0
 40
0
 40
0
 40
1
 40
1
 40
1
 40
1
 10
87.426197
 20
161.455817
 30
0.0
 10
86.654886
 20
150.232298
 30
0.0
 10
80.246360
 20
143.774893
 30
0.0
 10
69.192182
 20
143.082724
 30
0.0
  0
SPLINE
  5
35d
100
AcDbEntity
  8
0
 62
7
100
AcDbSpline
 70
8
 71
3
 72
8
 73
4
 74
0
 40
0
 40
0
 40
0
 40
0
 40
1
 40
1
 40
1
 40
1
 10
69.192182
 20
143.082724
 30
0.0
 10
67.461606
 20
142.974362
 30
0.0
 10
66.612495
 20
142.817350
 30
0.0
 10
66.612495
 20
142.605707
 30
0.0
  0
SPLINE
  5
35e
100
AcDbEntity
  8
0
 62
7
100
AcDbSpline
 70
8
 71
3
 72
8
 73
4
 74
0
 40
0
 40
0
 40
0
 40
0
 40
1
 40
1
 40
1
 40
1
 10
66.612495
 20
142.605707
 30
0.0
 10
66.612495
 20
142.432191
 30
0.0
 10
66.845955
 20
141.611652
 30
0.0
 10
67.131298
 20
140.782291
 30
0.0
  0
SPLINE
  5
35f
100
AcDbEntity
  8
0
 62
7
100
AcDbSpline
 70
8
 71
3
 72
8
 73
4
 74
0
 40
0
 40
0
 40
0
 40
0
 40
1
 40
1
 40
1
 40
1
 10
67.131298
 20
140.782291
 30
0.0
 10
68.611178
 20
136.480947
 30
0.0
 10
71.135087
 20
133.944617
 30
0.0
 10
75.472944
 20
132.399585
 30
0.0
  0
SPLINE
  5
360
100
AcDbEntity
  8
0
 62
7
100
AcDbSpline
 70
8
 71
3
 72
8
 73
4
 74
0
 40
0
 40
0
 40
0
 40
0
 40
1
 40
1
 40
1
 40
1
 10
75.472944
 20
132.399585
 30
0.0
 10
77.686569
 20
131.611148
 30
0.0
 10
77.624223
 20
131.555879
 30
0.0
 10
77.806590
 20
134.468317
 30
0.0
  0
LWPOLYLINE
  5
361
100
AcDbEntity
  8
0
 62
7
100
AcDbPolyline
 90
1
 70
1
 10
44.653086
 20
133.277692
 30
0.0
  0
SPLINE
  5
362
100
AcDbEntity
  8
0
 62
7
100
AcDbSpline
 70
8
 71
3
 72
8
 73
4
 74
0
 40
0
 40
0
 40
0
 40
0
 40
1
 40
1
 40
1
 40
1
 10
110.874035
 20
134.468317
 30
0.0
 10
111.527016
 20
145.472917
 30
0.0
 10
118.027728
 20
151.974259
 30
0.0
 10
129.104083
 20
152.700138
 30
0.0
  0
SPLINE
  5
363
100
AcDbEntity
  8
0
 62
7
100
AcDbSpline
 70
8
 71
3
 72
8
 73
4
 74
0
 40
0
 40
0
 40
0
 40
0
 40
1
 40
1
 40
1
 40
1
 10
129.104083
 20
152.700138
 30
0.0
 10
130.531836
 20
152.793703
 30
0.0
 10
131.699995
 20
152.960017
 30
0.0
 10
131.699995
 20
153.069724
 30
0.0
  0
SPLINE
  5
364
100
AcDbEntity
  8
0
 62
7
100
AcDbSpline
 70
8
 71
3
 72
8
 73
4
 74
0
 40
0
 40
0
 40
0
 40
0
 40
1
 40
1
 40
1
 40
1
 10
131.699995
 20
153.069724
 30
0.0
 10
131.699995
 20
153.840937
 30
0.0
 10
130.218095
 20
157.382591
 30
0.0
 10
129.395897
 20
158.576386
 30
0.0
  0
SPLINE
  5
365
100
AcDbEntity
  8
0
 62
7
100
AcDbSpline
 70
8
 71
3
 72
8
 73
4
 74
0
 40
0
 40
0
 40
0
 40
0
 40
1
 40
1
 40
1
 40
1
 10
129.395897
 20
158.576386
 30
0.0
 10
127.706678
 20
161.029060
 30
0.0
 10
124.539481
 20
163.094612
 30
0.0
 10
121.447391
 20
163.760169
 30
0.0
  0
LWPOLYLINE
  5
366
100
AcDbEntity
  8
0
 62
7
100
AcDbPolyline
 90
1
 70
1
 10
77.806590
 20
134.468317
 30
0.0
  0
SPLINE
  5
367
100
AcDbEntity
  8
0
 62
7
100
AcDbSpline
 70
8
 71
3
 72
8
 73
4
 74
0
 40
0
 40
0
 40
0
 40
0
 40
1
 40
1
 40
1
 40
1
 10
120.587495
 20
162.752754
 30
0.0
 10
120.587495
 20
159.149812
 30
0.0
 10
119.215659
 20
153.953766
 30
0.0
 10
117.533203
 20
151.184147
 30
0.0
  0
SPLINE
  5
368
100
AcDbEntity
  8
0
 62
7
100
AcDbSpline
 70
8
 71
3
 72
8
 73
4
 74
0
 40
0
 40
0
 40
0
 40
0
 40
1
 40
1
 40
1
 40
1
 10
117.533203
 20
151.184147
 30
0.0
 10
114.672724
 20
146.475289
 30
0.0
 10
109.081676
 20
143.512664
 30
0.0
 10
102.243401
 20
143.082275
 30
0.0
  0
LWPOLYLINE
  5
369
100
AcDbEntity
  8
0
 62
7
100
AcDbPolyline
 90
3
 70
0
 10
121.447391
 20
163.760169
 30
0.0
 10
120.587495
 20
163.945258
 30
0.0
 10
120.587495
 20
162.752754
 30
0.0
  0
SPLINE
  5
36a
100
AcDbEntity
  8
0
 62
7
100
AcDbSpline
 70
8
 71
3
 72
8
 73
4
 74
0
 40
0
 40
0
 40
0
 40
0
 40
1
 40
1
 40
1
 40
1
 10
99.810163
 20
141.967651
 30
0.0
 10
100.101022
 20
140.322832
 30
0.0
 10
101.720716
 20
137.244611
 30
0.0
 10
103.034190
 20
135.840399
 30
0.0
  0
SPLINE
  5
36b
100
AcDbEntity
  8
0
 62
7
100
AcDbSpline
 70
8
 71
3
 72
8
 73
4
 74
0
 40
0
 40
0
 40
0
 40
0
 40
1
 40
1
 40
1
 40
1
 10
103.034190
 20
135.840399
 30
0.0
 10
104.467184
 20
134.308411
 30
0.0
 10
105.913952
 20
133.387491
 30
0.0
 10
108.254694
 20
132.517359
 30
0.0
  0
SPLINE
  5
36c
100
AcDbEntity
  8
0
 62
7
100
AcDbSpline
 70
8
 71
3
 72
8
 73
4
 74
0
 40
0
 40
0
 40
0
 40
0
 40
1
 40
1
 40
1
 40
1
 10
108.254694
 20
132.517359
 30
0.0
 10
110.787490
 20
131.575834
 30
0.0
 10
110.698468
 20
131.509529
 30
0.0
 10
110.874035
 20
134.468317
 30
0.0
  0
LWPOLYLINE
  5
36d
100
AcDbEntity
  8
0
 62
7
100
AcDbPolyline
 90
3
 70
0
 10
102.243401
 20
143.082275
 30
0.0
 10
99.642012
 20
142.918550
 30
0.0
 10
99.810163
 20
141.967651
 30
0.0
  0
SPLINE
  5
36e
100
AcDbEntity
  8
0
 62
7
100
AcDbSpline
 70
8
 71
3
 72
8
 73
4
 74
0
 40
0
 40
0
 40
0
 40
0
 40
1
 40
1
 40
1
 40
1
 10
42.236178
 20
149.780294
 30
0.0
 10
45.164925
 20
151.205544
 30
0.0
 10
47.827835
 20
154.574785
 30
0.0
 10
48.730736
 20
157.997522
 30
0.0
  0
LWPOLYLINE
  5
36f
100
AcDbEntity
  8
0
 62
7
100
AcDbPolyline
 90
1
 70
1
 10
110.874035
 20
134.468317
 30
0.0
  0
SPLINE
  5
370
100
AcDbEntity
  8
0
 62
7
100
AcDbSpline
 70
8
 71
3
 72
8
 73
4
 74
0
 40
0
 40
0
 40
0
 40
0
 40
1
 40
1
 40
1
 40
1
 10
46.135409
 20
159.612756
 30
0.0
 10
40.399475
 20
160.226034
 30
0.0
 10
36.470310
 20
161.854425
 30
0.0
 10
33.457981
 20
164.866754
 30
0.0
  0
SPLINE
  5
371
100
AcDbEntity
  8
0
 62
7
100
AcDbSpline
 70
8
 71
3
 72
8
 73
4
 74
0
 40
0
 40
0
 40
0
 40
0
 40
1
 40
1
 40
1
 40
1
 10
33.457981
 20
164.866754
 30
0.0
 10
30.293588
 20
168.031147
 30
0.0
 10
28.746016
 20
171.990605
 30
0.0
 10
28.111209
 20
178.546435
 30
0.0
  0
LWPOLYLINE
  5
372
100
AcDbEntity
  8
0
 62
7
100
AcDbPolyline
 90
3
 70
0
 10
48.730736
 20
157.997522
 30
0.0
 10
49.073946
 20
159.298574
 30
0.0
 10
46.135409
 20
159.612756
 30
0.0
  0
SPLINE
  5
373
100
AcDbEntity
  8
0
 62
7
100
AcDbSpline
 70
8
 71
3
 72
8
 73
4
 74
0
 40
0
 40
0
 40
0
 40
0
 40
1
 40
1
 40
1
 40
1
 10
26.967405
 20
180.190190
 30
0.0
 10
25.273099
 20
179.897715
 30
0.0
 10
22.223826
 20
178.227487
 30
0.0
 10
20.740797
 20
176.779589
 30
0.0
  0
SPLINE
  5
374
100
AcDbEntity
  8
0
 62
7
100
AcDbSpline
 70
8
 71
3
 72
8
 73
4
 74
0
 40
0
 40
0
 40
0
 40
0
 40
1
 40
1
 40
1
 40
1
 10
20.740797
 20
176.779589
 30
0.0
 10
19.264676
 20
175.338430
 30
0.0
 10
17.598232
 20
172.318484
 30
0.0
 10
17.262066
 20
170.475386
 30
0.0
  0
LWPOLYLINE
  5
375
100
AcDbEntity
  8
0
 62
7
100
AcDbPolyline
 90
3
 70
0
 10
28.111209
 20
178.546435
 30
0.0
 10
27.935857
 20
180.357365
 30
0.0
 10
26.967405
 20
180.190190
 30
0.0
  0
SPLINE
  5
376
100
AcDbEntity
  8
0
 62
7
100
AcDbSpline
 70
8
 71
3
 72
8
 73
4
 74
0
 40
0
 40
0
 40
0
 40
0
 40
1
 40
1
 40
1
 40
1
 10
18.896357
 20
169.347457
 30
0.0
 10
30.804220
 20
168.298812
 30
0.0
 10
36.604194
 20
162.772574
 30
0.0
 10
37.830035
 20
151.307382
 30
0.0
  0
LWPOLYLINE
  5
377
100
AcDbEntity
  8
0
 62
7
100
AcDbPolyline
 90
3
 70
0
 10
17.262066
 20
170.475386
 30
0.0
 10
17.085427
 20
169.506934
 30
0.0
 10
18.896357
 20
169.347457
 30
0.0
  0
SPLINE
  5
378
100
AcDbEntity
  8
0
 62
7
100
AcDbSpline
 70
8
 71
3
 72
8
 73
4
 74
0
 40
0
 40
0
 40
0
 40
0
 40
1
 40
1
 40
1
 40
1
 10
39.445269
 20
148.712055
 30
0.0
 10
40.160845
 20
148.900822
 30
0.0
 10
41.416756
 20
149.381530
 30
0.0
 10
42.236178
 20
149.780294
 30
0.0
  0
LWPOLYLINE
  5
379
100
AcDbEntity
  8
0
 62
7
100
AcDbPolyline
 90
3
 70
0
 10
37.830035
 20
151.307382
 30
0.0
 10
38.144217
 20
148.368845
 30
0.0
 10
39.445269
 20
148.712055
 30
0.0
  0
SPLINE
  5
37a
100
AcDbEntity
  8
0
 62
7
100
AcDbSpline
 70
8
 71
3
 72
8
 73
4
 74
0
 40
0
 40
0
 40
0
 40
0
 40
1
 40
1
 40
1
 40
1
 10
75.262303
 20
149.776511
 30
0.0
 10
78.019119
 20
151.094755
 30
0.0
 10
80.418040
 20
153.919182
 30
0.0
 10
81.514196
 20
157.137322
 30
0.0
  0
SPLINE
  5
37b
100
AcDbEntity
  8
0
 62
7
100
AcDbSpline
 70
8
 71
3
 72
8
 73
4
 74
0
 40
0
 40
0
 40
0
 40
0
 40
1
 40
1
 40
1
 40
1
 10
81.514196
 20
157.137322
 30
0.0
 10
82.260040
 20
159.327006
 30
0.0
 10
82.316473
 20
159.268843
 30
0.0
 10
79.114057
 20
159.611089
 30
0.0
  0
SPLINE
  5
37c
100
AcDbEntity
  8
0
 62
7
100
AcDbSpline
 70
8
 71
3
 72
8
 73
4
 74
0
 40
0
 40
0
 40
0
 40
0
 40
1
 40
1
 40
1
 40
1
 10
79.114057
 20
159.611089
 30
0.0
 10
75.330100
 20
160.015489
 30
0.0
 10
73.573129
 20
160.496681
 30
0.0
 10
70.656352
 20
161.927458
 30
0.0
  0
SPLINE
  5
37d
100
AcDbEntity
  8
0
 62
7
100
AcDbSpline
 70
8
 71
3
 72
8
 73
4
 74
0
 40
0
 40
0
 40
0
 40
0
 40
1
 40
1
 40
1
 40
1
 10
70.656352
 20
161.927458
 30
0.0
 10
65.113974
 20
164.646181
 30
0.0
 10
62.132694
 20
169.587034
 30
0.0
 10
61.277632
 20
177.470739
 30
0.0
  0
LWPOLYLINE
  5
37e
100
AcDbEntity
  8
0
 62
7
100
AcDbPolyline
 90
1
 70
1
 10
42.236178
 20
149.780294
 30
0.0
  0
SPLINE
  5
37f
100
AcDbEntity
  8
0
 62
7
100
AcDbSpline
 70
8
 71
3
 72
8
 73
4
 74
0
 40
0
 40
0
 40
0
 40
0
 40
1
 40
1
 40
1
 40
1
 10
60.018652
 20
180.186121
 30
0.0
 10
58.288671
 20
179.888084
 30
0.0
 10
55.179928
 20
178.169737
 30
0.0
 10
53.708279
 20
176.698090
 30
0.0
  0
SPLINE
  5
380
100
AcDbEntity
  8
0
 62
7
100
AcDbSpline
 70
8
 71
3
 72
8
 73
4
 74
0
 40
0
 40
0
 40
0
 40
0
 40
1
 40
1
 40
1
 40
1
 10
53.708279
 20
176.698090
 30
0.0
 10
51.677689
 20
174.667500
 30
0.0
 10
49.379058
 20
169.464104
 30
0.0
 10
50.509612
 20
169.457291
 30
0.0
  0
SPLINE
  5
381
100
AcDbEntity
  8
0
 62
7
100
AcDbSpline
 70
8
 71
3
 72
8
 73
4
 74
0
 40
0
 40
0
 40
0
 40
0
 40
1
 40
1
 40
1
 40
1
 10
50.509612
 20
169.457291
 30
0.0
 10
51.627389
 20
169.450544
 30
0.0
 10
55.876526
 20
168.856663
 30
0.0
 10
57.352078
 20
168.500938
 30
0.0
  0
SPLINE
  5
382
100
AcDbEntity
  8
0
 62
7
100
AcDbSpline
 70
8
 71
3
 72
8
 73
4
 74
0
 40
0
 40
0
 40
0
 40
0
 40
1
 40
1
 40
1
 40
1
 10
57.352078
 20
168.500938
 30
0.0
 10
62.364702
 20
167.292499
 30
0.0
 10
66.606108
 20
163.984117
 30
0.0
 10
68.673662
 20
159.669877
 30
0.0
  0
SPLINE
  5
383
100
AcDbEntity
  8
0
 62
7
100
AcDbSpline
 70
8
 71
3
 72
8
 73
4
 74
0
 40
0
 40
0
 40
0
 40
0
 40
1
 40
1
 40
1
 40
1
 10
68.673662
 20
159.669877
 30
0.0
 10
70.013796
 20
156.873501
 30
0.0
 10
70.491519
 20
155.059229
 30
0.0
 10
70.879044
 20
151.294375
 30
0.0
  0
LWPOLYLINE
  5
384
100
AcDbEntity
  8
0
 62
7
100
AcDbPolyline
 90
3
 70
0
 10
61.277632
 20
177.470739
 30
0.0
 10
60.965432
 20
180.349231
 30
0.0
 10
60.018652
 20
180.186121
 30
0.0
  0
SPLINE
  5
385
100
AcDbEntity
  8
0
 62
7
100
AcDbSpline
 70
8
 71
3
 72
8
 73
4
 74
0
 40
0
 40
0
 40
0
 40
0
 40
1
 40
1
 40
1
 40
1
 10
72.535695
 20
148.731219
 30
0.0
 10
73.279759
 20
148.944833
 30
0.0
 10
74.506733
 20
149.415214
 30
0.0
 10
75.262303
 20
149.776511
 30
0.0
  0
LWPOLYLINE
  5
386
100
AcDbEntity
  8
0
 62
7
100
AcDbPolyline
 90
3
 70
0
 10
70.879044
 20
151.294375
 30
0.0
 10
71.182854
 20
148.342829
 30
0.0
 10
72.535695
 20
148.731219
 30
0.0
  0
SPLINE
  5
387
100
AcDbEntity
  8
0
 62
7
100
AcDbSpline
 70
8
 71
3
 72
8
 73
4
 74
0
 40
0
 40
0
 40
0
 40
0
 40
1
 40
1
 40
1
 40
1
 10
108.407562
 20
149.841394
 30
0.0
 10
111.359640
 20
151.271100
 30
0.0
 10
114.434639
 20
155.302185
 30
0.0
 10
114.937643
 20
158.401832
 30
0.0
  0
LWPOLYLINE
  5
388
100
AcDbEntity
  8
0
 62
7
100
AcDbPolyline
 90
1
 70
1
 10
75.262303
 20
149.776511
 30
0.0
  0
SPLINE
  5
389
100
AcDbEntity
  8
0
 62
7
100
AcDbSpline
 70
8
 71
3
 72
8
 73
4
 74
0
 40
0
 40
0
 40
0
 40
0
 40
1
 40
1
 40
1
 40
1
 10
112.877100
 20
159.521731
 30
0.0
 10
101.136651
 20
160.529177
 30
0.0
 10
95.253167
 20
166.410928
 30
0.0
 10
94.246121
 20
178.147229
 30
0.0
  0
LWPOLYLINE
  5
38a
100
AcDbEntity
  8
0
 62
7
100
AcDbPolyline
 90
3
 70
0
 10
114.937643
 20
158.401832
 30
0.0
 10
115.088583
 20
159.331964
 30
0.0
 10
112.877100
 20
159.521731
 30
0.0
  0
SPLINE
  5
38b
100
AcDbEntity
  8
0
 62
7
100
AcDbSpline
 70
8
 71
3
 72
8
 73
4
 74
0
 40
0
 40
0
 40
0
 40
0
 40
1
 40
1
 40
1
 40
1
 10
93.100832
 20
180.183592
 30
0.0
 10
91.597485
 20
179.917661
 30
0.0
 10
88.482718
 20
178.346534
 30
0.0
 10
87.238941
 20
177.226780
 30
0.0
  0
SPLINE
  5
38c
100
AcDbEntity
  8
0
 62
7
100
AcDbSpline
 70
8
 71
3
 72
8
 73
4
 74
0
 40
0
 40
0
 40
0
 40
0
 40
1
 40
1
 40
1
 40
1
 10
87.238941
 20
177.226780
 30
0.0
 10
85.719200
 20
175.858580
 30
0.0
 10
84.490256
 20
173.882809
 30
0.0
 10
83.700866
 20
171.538641
 30
0.0
  0
SPLINE
  5
38d
100
AcDbEntity
  8
0
 62
7
100
AcDbSpline
 70
8
 71
3
 72
8
 73
4
 74
0
 40
0
 40
0
 40
0
 40
0
 40
1
 40
1
 40
1
 40
1
 10
83.700866
 20
171.538641
 30
0.0
 10
83.342430
 20
170.474230
 30
0.0
 10
83.074351
 20
169.578160
 30
0.0
 10
83.105136
 20
169.547376
 30
0.0
  0
SPLINE
  5
38e
100
AcDbEntity
  8
0
 62
7
100
AcDbSpline
 70
8
 71
3
 72
8
 73
4
 74
0
 40
0
 40
0
 40
0
 40
0
 40
1
 40
1
 40
1
 40
1
 10
83.105136
 20
169.547376
 30
0.0
 10
83.135920
 20
169.516592
 30
0.0
 10
84.407531
 20
169.363496
 30
0.0
 10
85.930938
 20
169.207164
 30
0.0
  0
SPLINE
  5
38f
100
AcDbEntity
  8
0
 62
7
100
AcDbSpline
 70
8
 71
3
 72
8
 73
4
 74
0
 40
0
 40
0
 40
0
 40
0
 40
1
 40
1
 40
1
 40
1
 10
85.930938
 20
169.207164
 30
0.0
 10
91.585288
 20
168.626920
 30
0.0
 10
95.295238
 20
167.159977
 30
0.0
 10
98.302625
 20
164.315307
 30
0.0
  0
SPLINE
  5
390
100
AcDbEntity
  8
0
 62
7
100
AcDbSpline
 70
8
 71
3
 72
8
 73
4
 74
0
 40
0
 40
0
 40
0
 40
0
 40
1
 40
1
 40
1
 40
1
 10
98.302625
 20
164.315307
 30
0.0
 10
101.776649
 20
161.029250
 30
0.0
 10
103.460563
 20
156.937578
 30
0.0
 10
104.044366
 20
150.363711
 30
0.0
  0
LWPOLYLINE
  5
391
100
AcDbEntity
  8
0
 62
7
100
AcDbPolyline
 90
3
 70
0
 10
94.246121
 20
178.147229
 30
0.0
 10
94.056877
 20
180.352708
 30
0.0
 10
93.100832
 20
180.183592
 30
0.0
  0
SPLINE
  5
392
100
AcDbEntity
  8
0
 62
7
100
AcDbSpline
 70
8
 71
3
 72
8
 73
4
 74
0
 40
0
 40
0
 40
0
 40
0
 40
1
 40
1
 40
1
 40
1
 10
105.593055
 20
148.737312
 30
0.0
 10
106.345673
 20
148.959361
 30
0.0
 10
107.612204
 20
149.456198
 30
0.0
 10
108.407562
 20
149.841394
 30
0.0
  0
LWPOLYLINE
  5
393
100
AcDbEntity
  8
0
 62
7
100
AcDbPolyline
 90
3
 70
0
 10
104.044366
 20
150.363711
 30
0.0
 10
104.224653
 20
148.333587
 30
0.0
 10
105.593055
 20
148.737312
 30
0.0
  0
SPLINE
  5
394
100
AcDbEntity
  8
0
 62
7
100
AcDbSpline
 70
8
 71
3
 72
8
 73
4
 74
0
 40
0
 40
0
 40
0
 40
0
 40
1
 40
1
 40
1
 40
1
 10
11.580226
 20
166.218317
 30
0.0
 10
11.581813
 20
168.013817
 30
0.0
 10
12.264634
 20
171.975859
 30
0.0
 10
12.881066
 20
173.765636
 30
0.0
  0
SPLINE
  5
395
100
AcDbEntity
  8
0
 62
7
100
AcDbSpline
 70
8
 71
3
 72
8
 73
4
 74
0
 40
0
 40
0
 40
0
 40
0
 40
1
 40
1
 40
1
 40
1
 10
12.881066
 20
173.765636
 30
0.0
 10
14.702336
 20
179.053617
 30
0.0
 10
18.389175
 20
182.740456
 30
0.0
 10
23.677156
 20
184.561729
 30
0.0
  0
SPLINE
  5
396
100
AcDbEntity
  8
0
 62
7
100
AcDbSpline
 70
8
 71
3
 72
8
 73
4
 74
0
 40
0
 40
0
 40
0
 40
0
 40
1
 40
1
 40
1
 40
1
 10
23.677156
 20
184.561729
 30
0.0
 10
25.466932
 20
185.178158
 30
0.0
 10
29.428974
 20
185.861045
 30
0.0
 10
31.224474
 20
185.862566
 30
0.0
  0
SPLINE
  5
397
100
AcDbEntity
  8
0
 62
7
100
AcDbSpline
 70
8
 71
3
 72
8
 73
4
 74
0
 40
0
 40
0
 40
0
 40
0
 40
1
 40
1
 40
1
 40
1
 10
31.224474
 20
185.862566
 30
0.0
 10
32.676428
 20
185.863889
 30
0.0
 10
32.701410
 20
185.934617
 30
0.0
 10
31.984707
 20
188.017748
 30
0.0
  0
SPLINE
  5
398
100
AcDbEntity
  8
0
 62
7
100
AcDbSpline
 70
8
 71
3
 72
8
 73
4
 74
0
 40
0
 40
0
 40
0
 40
0
 40
1
 40
1
 40
1
 40
1
 10
31.984707
 20
188.017748
 30
0.0
 10
30.492004
 20
192.356364
 30
0.0
 10
28.007601
 20
194.869681
 30
0.0
 10
23.746932
 20
196.351395
 30
0.0
  0
SPLINE
  5
399
100
AcDbEntity
  8
0
 62
7
100
AcDbSpline
 70
8
 71
3
 72
8
 73
4
 74
0
 40
0
 40
0
 40
0
 40
0
 40
1
 40
1
 40
1
 40
1
 10
23.746932
 20
196.351395
 30
0.0
 10
22.722603
 20
196.707622
 30
0.0
 10
21.786713
 20
196.938635
 30
0.0
 10
21.667174
 20
196.864756
 30
0.0
  0
SPLINE
  5
39a
100
AcDbEntity
  8
0
 62
7
100
AcDbSpline
 70
8
 71
3
 72
8
 73
4
 74
0
 40
0
 40
0
 40
0
 40
0
 40
1
 40
1
 40
1
 40
1
 10
21.667174
 20
196.864756
 30
0.0
 10
21.547636
 20
196.790876
 30
0.0
 10
21.377876
 20
195.565324
 30
0.0
 10
21.289929
 20
194.141302
 30
0.0
  0
SPLINE
  5
39b
100
AcDbEntity
  8
0
 62
7
100
AcDbSpline
 70
8
 71
3
 72
8
 73
4
 74
0
 40
0
 40
0
 40
0
 40
0
 40
1
 40
1
 40
1
 40
1
 10
21.289929
 20
194.141302
 30
0.0
 10
21.098580
 20
191.042988
 30
0.0
 10
20.149400
 20
187.570835
 30
0.0
 10
18.776609
 20
184.947438
 30
0.0
  0
SPLINE
  5
39c
100
AcDbEntity
  8
0
 62
7
100
AcDbSpline
 70
8
 71
3
 72
8
 73
4
 74
0
 40
0
 40
0
 40
0
 40
0
 40
1
 40
1
 40
1
 40
1
 10
18.776609
 20
184.947438
 30
0.0
 10
16.112933
 20
179.857154
 30
0.0
 10
10.426883
 20
176.629309
 30
0.0
 10
3.301490
 20
176.162560
 30
0.0
  0
SPLINE
  5
39d
100
AcDbEntity
  8
0
 62
7
100
AcDbSpline
 70
8
 71
3
 72
8
 73
4
 74
0
 40
0
 40
0
 40
0
 40
0
 40
1
 40
1
 40
1
 40
1
 10
3.301490
 20
176.162560
 30
0.0
 10
1.877468
 20
176.069281
 30
0.0
 10
0.651916
 20
175.895156
 30
0.0
 10
0.578036
 20
175.775617
 30
0.0
  0
SPLINE
  5
39e
100
AcDbEntity
  8
0
 62
7
100
AcDbSpline
 70
8
 71
3
 72
8
 73
4
 74
0
 40
0
 40
0
 40
0
 40
0
 40
1
 40
1
 40
1
 40
1
 10
0.578036
 20
175.775617
 30
0.0
 10
0.504156
 20
175.656079
 30
0.0
 10
0.735169
 20
174.720189
 30
0.0
 10
1.091396
 20
173.695860
 30
0.0
  0
SPLINE
  5
39f
100
AcDbEntity
  8
0
 62
7
100
AcDbSpline
 70
8
 71
3
 72
8
 73
4
 74
0
 40
0
 40
0
 40
0
 40
0
 40
1
 40
1
 40
1
 40
1
 10
1.091396
 20
173.695860
 30
0.0
 10
2.556529
 20
169.482871
 30
0.0
 10
5.045711
 20
166.997425
 30
0.0
 10
9.327111
 20
165.472502
 30
0.0
  0
SPLINE
  5
3a0
100
AcDbEntity
  8
0
 62
7
100
AcDbSpline
 70
8
 71
3
 72
8
 73
4
 74
0
 40
0
 40
0
 40
0
 40
0
 40
1
 40
1
 40
1
 40
1
 10
9.327111
 20
165.472502
 30
0.0
 10
11.441291
 20
164.719484
 30
0.0
 10
11.578996
 20
164.765067
 30
0.0
 10
11.580226
 20
166.218317
 30
0.0
  0
LWPOLYLINE
  5
3a1
100
AcDbEntity
  8
0
 62
7
100
AcDbPolyline
 90
1
 70
1
 10
108.407562
 20
149.841394
 30
0.0
  0
SPLINE
  5
3a2
100
AcDbEntity
  8
0
 62
7
100
AcDbSpline
 70
8
 71
3
 72
8
 73
4
 74
0
 40
0
 40
0
 40
0
 40
0
 40
1
 40
1
 40
1
 40
1
 10
44.652078
 20
166.382097
 30
0.0
 10
44.652078
 20
170.003959
 30
0.0
 10
46.162362
 20
175.333663
 30
0.0
 10
47.953258
 20
178.031759
 30
0.0
  0
SPLINE
  5
3a3
100
AcDbEntity
  8
0
 62
7
100
AcDbSpline
 70
8
 71
3
 72
8
 73
4
 74
0
 40
0
 40
0
 40
0
 40
0
 40
1
 40
1
 40
1
 40
1
 10
47.953258
 20
178.031759
 30
0.0
 10
49.876673
 20
180.929508
 30
0.0
 10
53.055673
 20
183.289313
 30
0.0
 10
56.750072
 20
184.561729
 30
0.0
  0
SPLINE
  5
3a4
100
AcDbEntity
  8
0
 62
7
100
AcDbSpline
 70
8
 71
3
 72
8
 73
4
 74
0
 40
0
 40
0
 40
0
 40
0
 40
1
 40
1
 40
1
 40
1
 10
56.750072
 20
184.561729
 30
0.0
 10
58.539848
 20
185.178158
 30
0.0
 10
62.501891
 20
185.861045
 30
0.0
 10
64.297391
 20
185.862566
 30
0.0
  0
SPLINE
  5
3a5
100
AcDbEntity
  8
0
 62
7
100
AcDbSpline
 70
8
 71
3
 72
8
 73
4
 74
0
 40
0
 40
0
 40
0
 40
0
 40
1
 40
1
 40
1
 40
1
 10
64.297391
 20
185.862566
 30
0.0
 10
64.988615
 20
185.863095
 30
0.0
 10
65.554161
 20
185.970151
 30
0.0
 10
65.554161
 20
186.100342
 30
0.0
  0
SPLINE
  5
3a6
100
AcDbEntity
  8
0
 62
7
100
AcDbSpline
 70
8
 71
3
 72
8
 73
4
 74
0
 40
0
 40
0
 40
0
 40
0
 40
1
 40
1
 40
1
 40
1
 10
65.554161
 20
186.100342
 30
0.0
 10
65.554161
 20
186.933721
 30
0.0
 10
64.342576
 20
189.987036
 30
0.0
 10
63.488242
 20
191.306672
 30
0.0
  0
SPLINE
  5
3a7
100
AcDbEntity
  8
0
 62
7
100
AcDbSpline
 70
8
 71
3
 72
8
 73
4
 74
0
 40
0
 40
0
 40
0
 40
0
 40
1
 40
1
 40
1
 40
1
 10
63.488242
 20
191.306672
 30
0.0
 10
61.851913
 20
193.834200
 30
0.0
 10
59.791936
 20
195.372821
 30
0.0
 10
56.632822
 20
196.427066
 30
0.0
  0
SPLINE
  5
3a8
100
AcDbEntity
  8
0
 62
7
100
AcDbSpline
 70
8
 71
3
 72
8
 73
4
 74
0
 40
0
 40
0
 40
0
 40
0
 40
1
 40
1
 40
1
 40
1
 10
56.632822
 20
196.427066
 30
0.0
 10
55.727907
 20
196.729051
 30
0.0
 10
54.882688
 20
196.976130
 30
0.0
 10
54.754560
 20
196.976130
 30
0.0
  0
SPLINE
  5
3a9
100
AcDbEntity
  8
0
 62
7
100
AcDbSpline
 70
8
 71
3
 72
8
 73
4
 74
0
 40
0
 40
0
 40
0
 40
0
 40
1
 40
1
 40
1
 40
1
 10
54.754560
 20
196.976130
 30
0.0
 10
54.626431
 20
196.976130
 30
0.0
 10
54.448908
 20
195.815270
 30
0.0
 10
54.360067
 20
194.396442
 30
0.0
  0
SPLINE
  5
3aa
100
AcDbEntity
  8
0
 62
7
100
AcDbSpline
 70
8
 71
3
 72
8
 73
4
 74
0
 40
0
 40
0
 40
0
 40
0
 40
1
 40
1
 40
1
 40
1
 10
54.360067
 20
194.396442
 30
0.0
 10
53.672131
 20
183.409889
 30
0.0
 10
47.092740
 20
176.781010
 30
0.0
 10
36.251557
 20
176.151733
 30
0.0
  0
SPLINE
  5
3ab
100
AcDbEntity
  8
0
 62
7
100
AcDbSpline
 70
8
 71
3
 72
8
 73
4
 74
0
 40
0
 40
0
 40
0
 40
0
 40
1
 40
1
 40
1
 40
1
 10
36.251557
 20
176.151733
 30
0.0
 10
34.759969
 20
176.065154
 30
0.0
 10
33.539578
 20
175.914804
 30
0.0
 10
33.539578
 20
175.817620
 30
0.0
  0
SPLINE
  5
3ac
100
AcDbEntity
  8
0
 62
7
100
AcDbSpline
 70
8
 71
3
 72
8
 73
4
 74
0
 40
0
 40
0
 40
0
 40
0
 40
1
 40
1
 40
1
 40
1
 10
33.539578
 20
175.817620
 30
0.0
 10
33.539578
 20
175.298642
 30
0.0
 10
34.479672
 20
172.594302
 30
0.0
 10
35.055074
 20
171.458035
 30
0.0
  0
SPLINE
  5
3ad
100
AcDbEntity
  8
0
 62
7
100
AcDbSpline
 70
8
 71
3
 72
8
 73
4
 74
0
 40
0
 40
0
 40
0
 40
0
 40
1
 40
1
 40
1
 40
1
 10
35.055074
 20
171.458035
 30
0.0
 10
36.362881
 20
168.875469
 30
0.0
 10
39.512743
 20
166.345611
 30
0.0
 10
42.658369
 20
165.351336
 30
0.0
  0
SPLINE
  5
3ae
100
AcDbEntity
  8
0
 62
7
100
AcDbSpline
 70
8
 71
3
 72
8
 73
4
 74
0
 40
0
 40
0
 40
0
 40
0
 40
1
 40
1
 40
1
 40
1
 10
42.658369
 20
165.351336
 30
0.0
 10
44.570557
 20
164.746927
 30
0.0
 10
44.652078
 20
164.789072
 30
0.0
 10
44.652078
 20
166.382097
 30
0.0
  0
LWPOLYLINE
  5
3af
100
AcDbEntity
  8
0
 62
7
100
AcDbPolyline
 90
1
 70
1
 10
11.580226
 20
166.218317
 30
0.0
  0
SPLINE
  5
3b0
100
AcDbEntity
  8
0
 62
7
100
AcDbSpline
 70
8
 71
3
 72
8
 73
4
 74
0
 40
0
 40
0
 40
0
 40
0
 40
1
 40
1
 40
1
 40
1
 10
77.806590
 20
167.541234
 30
0.0
 10
78.230981
 20
174.318925
 30
0.0
 10
81.238291
 20
179.990287
 30
0.0
 10
85.893669
 20
182.792328
 30
0.0
  0
SPLINE
  5
3b1
100
AcDbEntity
  8
0
 62
7
100
AcDbSpline
 70
8
 71
3
 72
8
 73
4
 74
0
 40
0
 40
0
 40
0
 40
0
 40
1
 40
1
 40
1
 40
1
 10
85.893669
 20
182.792328
 30
0.0
 10
88.742816
 20
184.507211
 30
0.0
 10
93.748347
 20
185.863630
 30
0.0
 10
97.227551
 20
185.863630
 30
0.0
  0
LWPOLYLINE
  5
3b2
100
AcDbEntity
  8
0
 62
7
100
AcDbPolyline
 90
1
 70
1
 10
44.652078
 20
166.382097
 30
0.0
  0
SPLINE
  5
3b3
100
AcDbEntity
  8
0
 62
7
100
AcDbSpline
 70
8
 71
3
 72
8
 73
4
 74
0
 40
0
 40
0
 40
0
 40
0
 40
1
 40
1
 40
1
 40
1
 10
98.482931
 20
186.723525
 30
0.0
 10
97.707193
 20
190.306119
 30
0.0
 10
95.443479
 20
193.441931
 30
0.0
 10
92.277078
 20
195.320179
 30
0.0
  0
SPLINE
  5
3b4
100
AcDbEntity
  8
0
 62
7
100
AcDbSpline
 70
8
 71
3
 72
8
 73
4
 74
0
 40
0
 40
0
 40
0
 40
0
 40
1
 40
1
 40
1
 40
1
 10
92.277078
 20
195.320179
 30
0.0
 10
91.432798
 20
195.820990
 30
0.0
 10
88.264709
 20
196.976130
 30
0.0
 10
87.735463
 20
196.976130
 30
0.0
  0
SPLINE
  5
3b5
100
AcDbEntity
  8
0
 62
7
100
AcDbSpline
 70
8
 71
3
 72
8
 73
4
 74
0
 40
0
 40
0
 40
0
 40
0
 40
1
 40
1
 40
1
 40
1
 10
87.735463
 20
196.976130
 30
0.0
 10
87.613977
 20
196.976130
 30
0.0
 10
87.514414
 20
196.291520
 30
0.0
 10
87.514216
 20
195.454775
 30
0.0
  0
SPLINE
  5
3b6
100
AcDbEntity
  8
0
 62
7
100
AcDbSpline
 70
8
 71
3
 72
8
 73
4
 74
0
 40
0
 40
0
 40
0
 40
0
 40
1
 40
1
 40
1
 40
1
 10
87.514216
 20
195.454775
 30
0.0
 10
87.513422
 20
191.999010
 30
0.0
 10
86.213704
 20
187.119286
 30
0.0
 10
84.556746
 20
184.350872
 30
0.0
  0
SPLINE
  5
3b7
100
AcDbEntity
  8
0
 62
7
100
AcDbSpline
 70
8
 71
3
 72
8
 73
4
 74
0
 40
0
 40
0
 40
0
 40
0
 40
1
 40
1
 40
1
 40
1
 10
84.556746
 20
184.350872
 30
0.0
 10
83.377839
 20
182.381178
 30
0.0
 10
81.087008
 20
180.130050
 30
0.0
 10
79.021485
 20
178.911546
 30
0.0
  0
SPLINE
  5
3b8
100
AcDbEntity
  8
0
 62
7
100
AcDbSpline
 70
8
 71
3
 72
8
 73
4
 74
0
 40
0
 40
0
 40
0
 40
0
 40
1
 40
1
 40
1
 40
1
 10
79.021485
 20
178.911546
 30
0.0
 10
76.163683
 20
177.225661
 30
0.0
 10
71.819370
 20
176.080341
 30
0.0
 10
68.266141
 20
176.076044
 30
0.0
  0
SPLINE
  5
3b9
100
AcDbEntity
  8
0
 62
7
100
AcDbSpline
 70
8
 71
3
 72
8
 73
4
 74
0
 40
0
 40
0
 40
0
 40
0
 40
1
 40
1
 40
1
 40
1
 10
68.266141
 20
176.076044
 30
0.0
 10
66.367176
 20
176.073663
 30
0.0
 10
66.367673
 20
176.074721
 30
0.0
 10
67.131298
 20
173.855208
 30
0.0
  0
SPLINE
  5
3ba
100
AcDbEntity
  8
0
 62
7
100
AcDbSpline
 70
8
 71
3
 72
8
 73
4
 74
0
 40
0
 40
0
 40
0
 40
0
 40
1
 40
1
 40
1
 40
1
 10
67.131298
 20
173.855208
 30
0.0
 10
68.619957
 20
169.528344
 30
0.0
 10
71.496420
 20
166.681010
 30
0.0
 10
75.740620
 20
165.333069
 30
0.0
  0
SPLINE
  5
3bb
100
AcDbEntity
  8
0
 62
7
100
AcDbSpline
 70
8
 71
3
 72
8
 73
4
 74
0
 40
0
 40
0
 40
0
 40
0
 40
1
 40
1
 40
1
 40
1
 10
75.740620
 20
165.333069
 30
0.0
 10
77.666339
 20
164.721466
 30
0.0
 10
77.627422
 20
164.679871
 30
0.0
 10
77.806590
 20
167.541234
 30
0.0
  0
LWPOLYLINE
  5
3bc
100
AcDbEntity
  8
0
 62
7
100
AcDbPolyline
 90
3
 70
0
 10
97.227551
 20
185.863630
 30
0.0
 10
98.669123
 20
185.863630
 30
0.0
 10
98.482931
 20
186.723525
 30
0.0
  0
SPLINE
  5
3bd
100
AcDbEntity
  8
0
 62
7
100
AcDbSpline
 70
8
 71
3
 72
8
 73
4
 74
0
 40
0
 40
0
 40
0
 40
0
 40
1
 40
1
 40
1
 40
1
 10
110.801388
 20
166.747484
 30
0.0
 10
110.805410
 20
168.812480
 30
0.0
 10
111.548193
 20
172.629991
 30
0.0
 10
112.366195
 20
174.789711
 30
0.0
  0
SPLINE
  5
3be
100
AcDbEntity
  8
0
 62
7
100
AcDbSpline
 70
8
 71
3
 72
8
 73
4
 74
0
 40
0
 40
0
 40
0
 40
0
 40
1
 40
1
 40
1
 40
1
 10
112.366195
 20
174.789711
 30
0.0
 10
114.840681
 20
181.322959
 30
0.0
 10
120.775108
 20
185.167397
 30
0.0
 10
129.322094
 20
185.774081
 30
0.0
  0
SPLINE
  5
3bf
100
AcDbEntity
  8
0
 62
7
100
AcDbSpline
 70
8
 71
3
 72
8
 73
4
 74
0
 40
0
 40
0
 40
0
 40
0
 40
1
 40
1
 40
1
 40
1
 10
129.322094
 20
185.774081
 30
0.0
 10
131.339990
 20
185.917313
 30
0.0
 10
131.690912
 20
186.009190
 30
0.0
 10
131.585406
 20
186.366634
 30
0.0
  0
SPLINE
  5
3c0
100
AcDbEntity
  8
0
 62
7
100
AcDbSpline
 70
8
 71
3
 72
8
 73
4
 74
0
 40
0
 40
0
 40
0
 40
0
 40
1
 40
1
 40
1
 40
1
 10
131.585406
 20
186.366634
 30
0.0
 10
131.516731
 20
186.599303
 30
0.0
 10
131.378137
 20
187.146859
 30
0.0
 10
131.277421
 20
187.583421
 30
0.0
  0
SPLINE
  5
3c1
100
AcDbEntity
  8
0
 62
7
100
AcDbSpline
 70
8
 71
3
 72
8
 73
4
 74
0
 40
0
 40
0
 40
0
 40
0
 40
1
 40
1
 40
1
 40
1
 10
131.277421
 20
187.583421
 30
0.0
 10
131.176705
 20
188.019984
 30
0.0
 10
130.684222
 20
189.198877
 30
0.0
 10
130.183014
 20
190.203182
 30
0.0
  0
SPLINE
  5
3c2
100
AcDbEntity
  8
0
 62
7
100
AcDbSpline
 70
8
 71
3
 72
8
 73
4
 74
0
 40
0
 40
0
 40
0
 40
0
 40
1
 40
1
 40
1
 40
1
 10
130.183014
 20
190.203182
 30
0.0
 10
128.643570
 20
193.287888
 30
0.0
 10
125.936253
 20
195.438292
 30
0.0
 10
122.193119
 20
196.549505
 30
0.0
  0
SPLINE
  5
3c3
100
AcDbEntity
  8
0
 62
7
100
AcDbSpline
 70
8
 71
3
 72
8
 73
4
 74
0
 40
0
 40
0
 40
0
 40
0
 40
1
 40
1
 40
1
 40
1
 10
122.193119
 20
196.549505
 30
0.0
 10
121.402721
 20
196.784148
 30
0.0
 10
120.735685
 20
196.976130
 30
0.0
 10
120.710817
 20
196.976130
 30
0.0
  0
SPLINE
  5
3c4
100
AcDbEntity
  8
0
 62
7
100
AcDbSpline
 70
8
 71
3
 72
8
 73
4
 74
0
 40
0
 40
0
 40
0
 40
0
 40
1
 40
1
 40
1
 40
1
 10
120.710817
 20
196.976130
 30
0.0
 10
120.685946
 20
196.976130
 30
0.0
 10
120.587373
 20
195.863268
 30
0.0
 10
120.491763
 20
194.503106
 30
0.0
  0
SPLINE
  5
3c5
100
AcDbEntity
  8
0
 62
7
100
AcDbSpline
 70
8
 71
3
 72
8
 73
4
 74
0
 40
0
 40
0
 40
0
 40
0
 40
1
 40
1
 40
1
 40
1
 10
120.491763
 20
194.503106
 30
0.0
 10
120.272056
 20
191.377499
 30
0.0
 10
119.464294
 20
188.144007
 30
0.0
 10
118.267432
 20
185.599046
 30
0.0
  0
SPLINE
  5
3c6
100
AcDbEntity
  8
0
 62
7
100
AcDbSpline
 70
8
 71
3
 72
8
 73
4
 74
0
 40
0
 40
0
 40
0
 40
0
 40
1
 40
1
 40
1
 40
1
 10
118.267432
 20
185.599046
 30
0.0
 10
116.978287
 20
182.857860
 30
0.0
 10
113.863279
 20
179.729916
 30
0.0
 10
111.062495
 20
178.364192
 30
0.0
  0
SPLINE
  5
3c7
100
AcDbEntity
  8
0
 62
7
100
AcDbSpline
 70
8
 71
3
 72
8
 73
4
 74
0
 40
0
 40
0
 40
0
 40
0
 40
1
 40
1
 40
1
 40
1
 10
111.062495
 20
178.364192
 30
0.0
 10
108.458497
 20
177.094425
 30
0.0
 10
105.451944
 20
176.339246
 30
0.0
 10
102.243099
 20
176.148958
 30
0.0
  0
LWPOLYLINE
  5
3c8
100
AcDbEntity
  8
0
 62
7
100
AcDbPolyline
 90
1
 70
1
 10
77.806590
 20
167.541234
 30
0.0
  0
SPLINE
  5
3c9
100
AcDbEntity
  8
0
 62
7
100
AcDbSpline
 70
8
 71
3
 72
8
 73
4
 74
0
 40
0
 40
0
 40
0
 40
0
 40
1
 40
1
 40
1
 40
1
 10
99.809861
 20
175.042171
 30
0.0
 10
100.111359
 20
173.337371
 30
0.0
 10
101.731630
 20
170.296025
 30
0.0
 10
103.120997
 20
168.826974
 30
0.0
  0
SPLINE
  5
3ca
100
AcDbEntity
  8
0
 62
7
100
AcDbSpline
 70
8
 71
3
 72
8
 73
4
 74
0
 40
0
 40
0
 40
0
 40
0
 40
1
 40
1
 40
1
 40
1
 10
103.120997
 20
168.826974
 30
0.0
 10
104.473100
 20
167.397327
 30
0.0
 10
106.821301
 20
165.952411
 30
0.0
 10
108.799543
 20
165.332807
 30
0.0
  0
SPLINE
  5
3cb
100
AcDbEntity
  8
0
 62
7
100
AcDbSpline
 70
8
 71
3
 72
8
 73
4
 74
0
 40
0
 40
0
 40
0
 40
0
 40
1
 40
1
 40
1
 40
1
 10
108.799543
 20
165.332807
 30
0.0
 10
110.760608
 20
164.718585
 30
0.0
 10
110.797488
 20
164.744646
 30
0.0
 10
110.801388
 20
166.747484
 30
0.0
  0
LWPOLYLINE
  5
3cc
100
AcDbEntity
  8
0
 62
7
100
AcDbPolyline
 90
3
 70
0
 10
102.243099
 20
176.148958
 30
0.0
 10
99.641411
 20
175.994674
 30
0.0
 10
99.809861
 20
175.042171
 30
0.0
  0
SPLINE
  5
3cd
100
AcDbEntity
  8
0
 62
7
100
AcDbSpline
 70
8
 71
3
 72
8
 73
4
 74
0
 40
0
 40
0
 40
0
 40
0
 40
1
 40
1
 40
1
 40
1
 10
39.643119
 20
181.787824
 30
0.0
 10
44.237524
 20
183.137326
 30
0.0
 10
47.530277
 20
186.519717
 30
0.0
 10
48.749693
 20
191.142305
 30
0.0
  0
LWPOLYLINE
  5
3ce
100
AcDbEntity
  8
0
 62
7
100
AcDbPolyline
 90
1
 70
1
 10
110.801388
 20
166.747484
 30
0.0
  0
SPLINE
  5
3cf
100
AcDbEntity
  8
0
 62
7
100
AcDbSpline
 70
8
 71
3
 72
8
 73
4
 74
0
 40
0
 40
0
 40
0
 40
0
 40
1
 40
1
 40
1
 40
1
 10
46.883167
 20
192.574389
 30
0.0
 10
35.416728
 20
193.455769
 30
0.0
 10
29.444011
 20
199.188152
 30
0.0
 10
28.239146
 20
210.468205
 30
0.0
  0
SPLINE
  5
3d0
100
AcDbEntity
  8
0
 62
7
100
AcDbSpline
 70
8
 71
3
 72
8
 73
4
 74
0
 40
0
 40
0
 40
0
 40
0
 40
1
 40
1
 40
1
 40
1
 10
28.239146
 20
210.468205
 30
0.0
 10
28.076036
 20
211.995250
 30
0.0
 10
27.889502
 20
213.297733
 30
0.0
 10
27.824626
 20
213.362609
 30
0.0
  0
SPLINE
  5
3d1
100
AcDbEntity
  8
0
 62
7
100
AcDbSpline
 70
8
 71
3
 72
8
 73
4
 74
0
 40
0
 40
0
 40
0
 40
0
 40
1
 40
1
 40
1
 40
1
 10
27.824626
 20
213.362609
 30
0.0
 10
27.552372
 20
213.634865
 30
0.0
 10
23.962506
 20
212.235280
 30
0.0
 10
22.487036
 20
211.281640
 30
0.0
  0
SPLINE
  5
3d2
100
AcDbEntity
  8
0
 62
7
100
AcDbSpline
 70
8
 71
3
 72
8
 73
4
 74
0
 40
0
 40
0
 40
0
 40
0
 40
1
 40
1
 40
1
 40
1
 10
22.487036
 20
211.281640
 30
0.0
 10
20.072353
 20
209.720955
 30
0.0
 10
17.788124
 20
206.325555
 30
0.0
 10
17.260386
 20
203.512462
 30
0.0
  0
LWPOLYLINE
  5
3d3
100
AcDbEntity
  8
0
 62
7
100
AcDbPolyline
 90
3
 70
0
 10
48.749693
 20
191.142305
 30
0.0
 10
49.082867
 20
192.405307
 30
0.0
 10
46.883167
 20
192.574389
 30
0.0
  0
SPLINE
  5
3d4
100
AcDbEntity
  8
0
 62
7
100
AcDbSpline
 70
8
 71
3
 72
8
 73
4
 74
0
 40
0
 40
0
 40
0
 40
0
 40
1
 40
1
 40
1
 40
1
 10
18.234211
 20
202.434814
 30
0.0
 10
23.021574
 20
201.861690
 30
0.0
 10
24.290029
 20
201.627584
 30
0.0
 10
26.123599
 20
200.978733
 30
0.0
  0
SPLINE
  5
3d5
100
AcDbEntity
  8
0
 62
7
100
AcDbSpline
 70
8
 71
3
 72
8
 73
4
 74
0
 40
0
 40
0
 40
0
 40
0
 40
1
 40
1
 40
1
 40
1
 10
26.123599
 20
200.978733
 30
0.0
 10
28.988298
 20
199.964998
 30
0.0
 10
30.922566
 20
198.735246
 30
0.0
 10
32.837795
 20
196.710038
 30
0.0
  0
SPLINE
  5
3d6
100
AcDbEntity
  8
0
 62
7
100
AcDbSpline
 70
8
 71
3
 72
8
 73
4
 74
0
 40
0
 40
0
 40
0
 40
0
 40
1
 40
1
 40
1
 40
1
 10
32.837795
 20
196.710038
 30
0.0
 10
35.759602
 20
193.620453
 30
0.0
 10
37.491276
 20
189.220568
 30
0.0
 10
37.914448
 20
183.811127
 30
0.0
  0
SPLINE
  5
3d7
100
AcDbEntity
  8
0
 62
7
100
AcDbSpline
 70
8
 71
3
 72
8
 73
4
 74
0
 40
0
 40
0
 40
0
 40
0
 40
1
 40
1
 40
1
 40
1
 10
37.914448
 20
183.811127
 30
0.0
 10
38.019665
 20
182.466149
 30
0.0
 10
38.128313
 20
181.365713
 30
0.0
 10
38.155891
 20
181.365713
 30
0.0
  0
SPLINE
  5
3d8
100
AcDbEntity
  8
0
 62
7
100
AcDbSpline
 70
8
 71
3
 72
8
 73
4
 74
0
 40
0
 40
0
 40
0
 40
0
 40
1
 40
1
 40
1
 40
1
 10
38.155891
 20
181.365713
 30
0.0
 10
38.183471
 20
181.365713
 30
0.0
 10
38.852721
 20
181.555663
 30
0.0
 10
39.643119
 20
181.787824
 30
0.0
  0
LWPOLYLINE
  5
3d9
100
AcDbEntity
  8
0
 62
7
100
AcDbPolyline
 90
3
 70
0
 10
17.260386
 20
203.512462
 30
0.0
 10
17.084049
 20
202.572506
 30
0.0
 10
18.234211
 20
202.434814
 30
0.0
  0
SPLINE
  5
3da
100
AcDbEntity
  8
0
 62
7
100
AcDbSpline
 70
8
 71
3
 72
8
 73
4
 74
0
 40
0
 40
0
 40
0
 40
0
 40
1
 40
1
 40
1
 40
1
 10
72.984942
 20
181.916406
 30
0.0
 10
77.187340
 20
183.279846
 30
0.0
 10
80.076328
 20
186.032595
 30
0.0
 10
81.428003
 20
189.961306
 30
0.0
  0
SPLINE
  5
3db
100
AcDbEntity
  8
0
 62
7
100
AcDbSpline
 70
8
 71
3
 72
8
 73
4
 74
0
 40
0
 40
0
 40
0
 40
0
 40
1
 40
1
 40
1
 40
1
 10
81.428003
 20
189.961306
 30
0.0
 10
82.274929
 20
192.422936
 30
0.0
 10
82.367877
 20
192.319550
 30
0.0
 10
78.981766
 20
192.682228
 30
0.0
  0
SPLINE
  5
3dc
100
AcDbEntity
  8
0
 62
7
100
AcDbSpline
 70
8
 71
3
 72
8
 73
4
 74
0
 40
0
 40
0
 40
0
 40
0
 40
1
 40
1
 40
1
 40
1
 10
78.981766
 20
192.682228
 30
0.0
 10
72.486240
 20
193.377947
 30
0.0
 10
68.106467
 20
195.503620
 30
0.0
 10
65.170584
 20
199.385335
 30
0.0
  0
SPLINE
  5
3dd
100
AcDbEntity
  8
0
 62
7
100
AcDbSpline
 70
8
 71
3
 72
8
 73
4
 74
0
 40
0
 40
0
 40
0
 40
0
 40
1
 40
1
 40
1
 40
1
 10
65.170584
 20
199.385335
 30
0.0
 10
62.955519
 20
202.314014
 30
0.0
 10
61.815856
 20
205.581218
 30
0.0
 10
61.277307
 20
210.546656
 30
0.0
  0
LWPOLYLINE
  5
3de
100
AcDbEntity
  8
0
 62
7
100
AcDbPolyline
 90
1
 70
1
 10
39.643119
 20
181.787824
 30
0.0
  0
SPLINE
  5
3df
100
AcDbEntity
  8
0
 62
7
100
AcDbSpline
 70
8
 71
3
 72
8
 73
4
 74
0
 40
0
 40
0
 40
0
 40
0
 40
1
 40
1
 40
1
 40
1
 10
60.276071
 20
213.290407
 30
0.0
 10
55.985249
 20
212.432244
 30
0.0
 10
52.337817
 20
209.262430
 30
0.0
 10
50.746192
 20
205.008432
 30
0.0
  0
SPLINE
  5
3e0
100
AcDbEntity
  8
0
 62
7
100
AcDbSpline
 70
8
 71
3
 72
8
 73
4
 74
0
 40
0
 40
0
 40
0
 40
0
 40
1
 40
1
 40
1
 40
1
 10
50.746192
 20
205.008432
 30
0.0
 10
49.940824
 20
202.855896
 30
0.0
 10
50.001948
 20
202.588072
 30
0.0
 10
51.332807
 20
202.438021
 30
0.0
  0
SPLINE
  5
3e1
100
AcDbEntity
  8
0
 62
7
100
AcDbSpline
 70
8
 71
3
 72
8
 73
4
 74
0
 40
0
 40
0
 40
0
 40
0
 40
1
 40
1
 40
1
 40
1
 10
51.332807
 20
202.438021
 30
0.0
 10
59.199653
 20
201.551048
 30
0.0
 10
62.693026
 20
200.161390
 30
0.0
 10
66.033962
 20
196.589917
 30
0.0
  0
SPLINE
  5
3e2
100
AcDbEntity
  8
0
 62
7
100
AcDbSpline
 70
8
 71
3
 72
8
 73
4
 74
0
 40
0
 40
0
 40
0
 40
0
 40
1
 40
1
 40
1
 40
1
 10
66.033962
 20
196.589917
 30
0.0
 10
68.819615
 20
193.612048
 30
0.0
 10
70.305591
 20
189.825141
 30
0.0
 10
70.891837
 20
184.209984
 30
0.0
  0
SPLINE
  5
3e3
100
AcDbEntity
  8
0
 62
7
100
AcDbSpline
 70
8
 71
3
 72
8
 73
4
 74
0
 40
0
 40
0
 40
0
 40
0
 40
1
 40
1
 40
1
 40
1
 10
70.891837
 20
184.209984
 30
0.0
 10
71.055159
 20
182.645635
 30
0.0
 10
71.211022
 20
181.365713
 30
0.0
 10
71.238195
 20
181.365713
 30
0.0
  0
SPLINE
  5
3e4
100
AcDbEntity
  8
0
 62
7
100
AcDbSpline
 70
8
 71
3
 72
8
 73
4
 74
0
 40
0
 40
0
 40
0
 40
0
 40
1
 40
1
 40
1
 40
1
 10
71.238195
 20
181.365713
 30
0.0
 10
71.265367
 20
181.365713
 30
0.0
 10
72.051405
 20
181.613524
 30
0.0
 10
72.984942
 20
181.916406
 30
0.0
  0
LWPOLYLINE
  5
3e5
100
AcDbEntity
  8
0
 62
7
100
AcDbPolyline
 90
3
 70
0
 10
61.277307
 20
210.546656
 30
0.0
 10
60.964781
 20
213.428149
 30
0.0
 10
60.276071
 20
213.290407
 30
0.0
  0
SPLINE
  5
3e6
100
AcDbEntity
  8
0
 62
7
100
AcDbSpline
 70
8
 71
3
 72
8
 73
4
 74
0
 40
0
 40
0
 40
0
 40
0
 40
1
 40
1
 40
1
 40
1
 10
106.057859
 20
181.916406
 30
0.0
 10
110.240707
 20
183.273504
 30
0.0
 10
112.958351
 20
185.857705
 30
0.0
 10
114.462602
 20
189.908450
 30
0.0
  0
SPLINE
  5
3e7
100
AcDbEntity
  8
0
 62
7
100
AcDbSpline
 70
8
 71
3
 72
8
 73
4
 74
0
 40
0
 40
0
 40
0
 40
0
 40
1
 40
1
 40
1
 40
1
 10
114.462602
 20
189.908450
 30
0.0
 10
115.382207
 20
192.384826
 30
0.0
 10
115.388440
 20
192.375324
 30
0.0
 10
112.711854
 20
192.577379
 30
0.0
  0
SPLINE
  5
3e8
100
AcDbEntity
  8
0
 62
7
100
AcDbSpline
 70
8
 71
3
 72
8
 73
4
 74
0
 40
0
 40
0
 40
0
 40
0
 40
1
 40
1
 40
1
 40
1
 10
112.711854
 20
192.577379
 30
0.0
 10
101.333162
 20
193.436356
 30
0.0
 10
95.199086
 20
199.638706
 30
0.0
 10
94.229449
 20
211.265492
 30
0.0
  0
LWPOLYLINE
  5
3e9
100
AcDbEntity
  8
0
 62
7
100
AcDbPolyline
 90
1
 70
1
 10
72.984942
 20
181.916406
 30
0.0
  0
SPLINE
  5
3ea
100
AcDbEntity
  8
0
 62
7
100
AcDbSpline
 70
8
 71
3
 72
8
 73
4
 74
0
 40
0
 40
0
 40
0
 40
0
 40
1
 40
1
 40
1
 40
1
 10
93.097101
 20
213.246422
 30
0.0
 10
92.573329
 20
213.148630
 30
0.0
 10
91.281552
 20
212.670229
 30
0.0
 10
90.226483
 20
212.183305
 30
0.0
  0
SPLINE
  5
3eb
100
AcDbEntity
  8
0
 62
7
100
AcDbSpline
 70
8
 71
3
 72
8
 73
4
 74
0
 40
0
 40
0
 40
0
 40
0
 40
1
 40
1
 40
1
 40
1
 10
90.226483
 20
212.183305
 30
0.0
 10
86.976069
 20
210.683213
 30
0.0
 10
84.607887
 20
207.796429
 30
0.0
 10
83.462487
 20
203.938082
 30
0.0
  0
LWPOLYLINE
  5
3ec
100
AcDbEntity
  8
0
 62
7
100
AcDbPolyline
 90
3
 70
0
 10
94.229449
 20
211.265492
 30
0.0
 10
94.049416
 20
213.424228
 30
0.0
 10
93.097101
 20
213.246422
 30
0.0
  0
SPLINE
  5
3ed
100
AcDbEntity
  8
0
 62
7
100
AcDbSpline
 70
8
 71
3
 72
8
 73
4
 74
0
 40
0
 40
0
 40
0
 40
0
 40
1
 40
1
 40
1
 40
1
 10
84.557219
 20
202.410002
 30
0.0
 10
92.009764
 20
201.637757
 30
0.0
 10
95.203222
 20
200.405251
 30
0.0
 10
98.629711
 20
196.978762
 30
0.0
  0
SPLINE
  5
3ee
100
AcDbEntity
  8
0
 62
7
100
AcDbSpline
 70
8
 71
3
 72
8
 73
4
 74
0
 40
0
 40
0
 40
0
 40
0
 40
1
 40
1
 40
1
 40
1
 10
98.629711
 20
196.978762
 30
0.0
 10
102.004559
 20
193.603914
 30
0.0
 10
103.446670
 20
189.967529
 30
0.0
 10
104.060781
 20
183.283942
 30
0.0
  0
SPLINE
  5
3ef
100
AcDbEntity
  8
0
 62
7
100
AcDbSpline
 70
8
 71
3
 72
8
 73
4
 74
0
 40
0
 40
0
 40
0
 40
0
 40
1
 40
1
 40
1
 40
1
 10
104.060781
 20
183.283942
 30
0.0
 10
104.157719
 20
182.228916
 30
0.0
 10
104.264817
 20
181.365713
 30
0.0
 10
104.298776
 20
181.365713
 30
0.0
  0
SPLINE
  5
3f0
100
AcDbEntity
  8
0
 62
7
100
AcDbSpline
 70
8
 71
3
 72
8
 73
4
 74
0
 40
0
 40
0
 40
0
 40
0
 40
1
 40
1
 40
1
 40
1
 10
104.298776
 20
181.365713
 30
0.0
 10
104.332733
 20
181.365713
 30
0.0
 10
105.124321
 20
181.613524
 30
0.0
 10
106.057859
 20
181.916406
 30
0.0
  0
LWPOLYLINE
  5
3f1
100
AcDbEntity
  8
0
 62
7
100
AcDbPolyline
 90
3
 70
0
 10
83.462487
 20
203.938082
 30
0.0
 10
83.055066
 20
202.565659
 30
0.0
 10
84.557219
 20
202.410002
 30
0.0
  0
SPLINE
  5
3f2
100
AcDbEntity
  8
0
 62
7
100
AcDbSpline
 70
8
 71
3
 72
8
 73
4
 74
0
 40
0
 40
0
 40
0
 40
0
 40
1
 40
1
 40
1
 40
1
 10
11.580226
 20
199.291234
 30
0.0
 10
11.581813
 20
201.086733
 30
0.0
 10
12.264634
 20
205.048776
 30
0.0
 10
12.881066
 20
206.838553
 30
0.0
  0
SPLINE
  5
3f3
100
AcDbEntity
  8
0
 62
7
100
AcDbSpline
 70
8
 71
3
 72
8
 73
4
 74
0
 40
0
 40
0
 40
0
 40
0
 40
1
 40
1
 40
1
 40
1
 10
12.881066
 20
206.838553
 30
0.0
 10
14.404902
 20
211.262947
 30
0.0
 10
17.313712
 20
214.672516
 30
0.0
 10
21.144776
 20
216.524888
 30
0.0
  0
SPLINE
  5
3f4
100
AcDbEntity
  8
0
 62
7
100
AcDbSpline
 70
8
 71
3
 72
8
 73
4
 74
0
 40
0
 40
0
 40
0
 40
0
 40
1
 40
1
 40
1
 40
1
 10
21.144776
 20
216.524888
 30
0.0
 10
24.153472
 20
217.979630
 30
0.0
 10
28.128185
 20
218.916258
 30
0.0
 10
31.356766
 20
218.931305
 30
0.0
  0
SPLINE
  5
3f5
100
AcDbEntity
  8
0
 62
7
100
AcDbSpline
 70
8
 71
3
 72
8
 73
4
 74
0
 40
0
 40
0
 40
0
 40
0
 40
1
 40
1
 40
1
 40
1
 10
31.356766
 20
218.931305
 30
0.0
 10
32.673398
 20
218.937443
 30
0.0
 10
32.690649
 20
219.007468
 30
0.0
 10
31.930221
 20
221.259220
 30
0.0
  0
SPLINE
  5
3f6
100
AcDbEntity
  8
0
 62
7
100
AcDbSpline
 70
8
 71
3
 72
8
 73
4
 74
0
 40
0
 40
0
 40
0
 40
0
 40
1
 40
1
 40
1
 40
1
 10
31.930221
 20
221.259220
 30
0.0
 10
30.505276
 20
225.478713
 30
0.0
 10
27.492791
 20
228.301132
 30
0.0
 10
23.010025
 20
229.616614
 30
0.0
  0
SPLINE
  5
3f7
100
AcDbEntity
  8
0
 62
7
100
AcDbSpline
 70
8
 71
3
 72
8
 73
4
 74
0
 40
0
 40
0
 40
0
 40
0
 40
1
 40
1
 40
1
 40
1
 10
23.010025
 20
229.616614
 30
0.0
 10
21.363988
 20
230.099650
 30
0.0
 10
21.465459
 20
230.247978
 30
0.0
 10
21.271612
 20
227.075426
 30
0.0
  0
SPLINE
  5
3f8
100
AcDbEntity
  8
0
 62
7
100
AcDbSpline
 70
8
 71
3
 72
8
 73
4
 74
0
 40
0
 40
0
 40
0
 40
0
 40
1
 40
1
 40
1
 40
1
 10
21.271612
 20
227.075426
 30
0.0
 10
21.078760
 20
223.919127
 30
0.0
 10
20.480066
 20
221.637635
 30
0.0
 10
19.076115
 20
218.708854
 30
0.0
  0
SPLINE
  5
3f9
100
AcDbEntity
  8
0
 62
7
100
AcDbSpline
 70
8
 71
3
 72
8
 73
4
 74
0
 40
0
 40
0
 40
0
 40
0
 40
1
 40
1
 40
1
 40
1
 10
19.076115
 20
218.708854
 30
0.0
 10
16.358368
 20
213.039362
 30
0.0
 10
11.057616
 20
209.836200
 30
0.0
 10
3.305522
 20
209.178932
 30
0.0
  0
SPLINE
  5
3fa
100
AcDbEntity
  8
0
 62
7
100
AcDbSpline
 70
8
 71
3
 72
8
 73
4
 74
0
 40
0
 40
0
 40
0
 40
0
 40
1
 40
1
 40
1
 40
1
 10
3.305522
 20
209.178932
 30
0.0
 10
1.883718
 20
209.058383
 30
0.0
 10
0.661605
 20
208.900932
 30
0.0
 10
0.589715
 20
208.829042
 30
0.0
  0
SPLINE
  5
3fb
100
AcDbEntity
  8
0
 62
7
100
AcDbSpline
 70
8
 71
3
 72
8
 73
4
 74
0
 40
0
 40
0
 40
0
 40
0
 40
1
 40
1
 40
1
 40
1
 10
0.589715
 20
208.829042
 30
0.0
 10
0.302491
 20
208.541818
 30
0.0
 10
1.578105
 20
205.178081
 30
0.0
 10
2.536683
 20
203.694977
 30
0.0
  0
SPLINE
  5
3fc
100
AcDbEntity
  8
0
 62
7
100
AcDbSpline
 70
8
 71
3
 72
8
 73
4
 74
0
 40
0
 40
0
 40
0
 40
0
 40
1
 40
1
 40
1
 40
1
 10
2.536683
 20
203.694977
 30
0.0
 10
4.140883
 20
201.212966
 30
0.0
 10
6.630361
 20
199.347476
 30
0.0
 10
9.594787
 20
198.405985
 30
0.0
  0
SPLINE
  5
3fd
100
AcDbEntity
  8
0
 62
7
100
AcDbSpline
 70
8
 71
3
 72
8
 73
4
 74
0
 40
0
 40
0
 40
0
 40
0
 40
1
 40
1
 40
1
 40
1
 10
9.594787
 20
198.405985
 30
0.0
 10
11.445318
 20
197.818264
 30
0.0
 10
11.579030
 20
197.877882
 30
0.0
 10
11.580226
 20
199.291234
 30
0.0
  0
LWPOLYLINE
  5
3fe
100
AcDbEntity
  8
0
 62
7
100
AcDbPolyline
 90
1
 70
1
 10
106.057859
 20
181.916406
 30
0.0
  0
SPLINE
  5
3ff
100
AcDbEntity
  8
0
 62
7
100
AcDbSpline
 70
8
 71
3
 72
8
 73
4
 74
0
 40
0
 40
0
 40
0
 40
0
 40
1
 40
1
 40
1
 40
1
 10
44.735623
 20
200.481859
 30
0.0
 10
45.241991
 20
208.068312
 30
0.0
 10
48.613983
 20
213.793411
 30
0.0
 10
54.177078
 20
216.511928
 30
0.0
  0
SPLINE
  5
400
100
AcDbEntity
  8
0
 62
7
100
AcDbSpline
 70
8
 71
3
 72
8
 73
4
 74
0
 40
0
 40
0
 40
0
 40
0
 40
1
 40
1
 40
1
 40
1
 10
54.177078
 20
216.511928
 30
0.0
 10
57.166320
 20
217.972682
 30
0.0
 10
61.164190
 20
218.916086
 30
0.0
 10
64.429682
 20
218.931305
 30
0.0
  0
SPLINE
  5
401
100
AcDbEntity
  8
0
 62
7
100
AcDbSpline
 70
8
 71
3
 72
8
 73
4
 74
0
 40
0
 40
0
 40
0
 40
0
 40
1
 40
1
 40
1
 40
1
 10
64.429682
 20
218.931305
 30
0.0
 10
65.048146
 20
218.934189
 30
0.0
 10
65.554161
 20
219.043067
 30
0.0
 10
65.554161
 20
219.173258
 30
0.0
  0
SPLINE
  5
402
100
AcDbEntity
  8
0
 62
7
100
AcDbSpline
 70
8
 71
3
 72
8
 73
4
 74
0
 40
0
 40
0
 40
0
 40
0
 40
1
 40
1
 40
1
 40
1
 10
65.554161
 20
219.173258
 30
0.0
 10
65.554161
 20
220.050728
 30
0.0
 10
64.313192
 20
223.118497
 30
0.0
 10
63.412817
 20
224.466817
 30
0.0
  0
SPLINE
  5
403
100
AcDbEntity
  8
0
 62
7
100
AcDbSpline
 70
8
 71
3
 72
8
 73
4
 74
0
 40
0
 40
0
 40
0
 40
0
 40
1
 40
1
 40
1
 40
1
 10
63.412817
 20
224.466817
 30
0.0
 10
61.738388
 20
226.974294
 30
0.0
 10
59.369931
 20
228.636849
 30
0.0
 10
56.082941
 20
229.612076
 30
0.0
  0
SPLINE
  5
404
100
AcDbEntity
  8
0
 62
7
100
AcDbSpline
 70
8
 71
3
 72
8
 73
4
 74
0
 40
0
 40
0
 40
0
 40
0
 40
1
 40
1
 40
1
 40
1
 10
56.082941
 20
229.612076
 30
0.0
 10
54.441079
 20
230.099203
 30
0.0
 10
54.543515
 20
230.244907
 30
0.0
 10
54.333955
 20
227.124363
 30
0.0
  0
SPLINE
  5
405
100
AcDbEntity
  8
0
 62
7
100
AcDbSpline
 70
8
 71
3
 72
8
 73
4
 74
0
 40
0
 40
0
 40
0
 40
0
 40
1
 40
1
 40
1
 40
1
 10
54.333955
 20
227.124363
 30
0.0
 10
54.128630
 20
224.066928
 30
0.0
 10
53.343564
 20
221.107455
 30
0.0
 10
52.027593
 20
218.430036
 30
0.0
  0
SPLINE
  5
406
100
AcDbEntity
  8
0
 62
7
100
AcDbSpline
 70
8
 71
3
 72
8
 73
4
 74
0
 40
0
 40
0
 40
0
 40
0
 40
1
 40
1
 40
1
 40
1
 10
52.027593
 20
218.430036
 30
0.0
 10
49.351755
 20
212.985900
 30
0.0
 10
43.958851
 20
209.817758
 30
0.0
 10
36.262080
 20
209.168352
 30
0.0
  0
SPLINE
  5
407
100
AcDbEntity
  8
0
 62
7
100
AcDbSpline
 70
8
 71
3
 72
8
 73
4
 74
0
 40
0
 40
0
 40
0
 40
0
 40
1
 40
1
 40
1
 40
1
 10
36.262080
 20
209.168352
 30
0.0
 10
34.904455
 20
209.053803
 30
0.0
 10
33.724368
 20
208.890783
 30
0.0
 10
33.639667
 20
208.806079
 30
0.0
  0
SPLINE
  5
408
100
AcDbEntity
  8
0
 62
7
100
AcDbSpline
 70
8
 71
3
 72
8
 73
4
 74
0
 40
0
 40
0
 40
0
 40
0
 40
1
 40
1
 40
1
 40
1
 10
33.639667
 20
208.806079
 30
0.0
 10
33.434499
 20
208.600913
 30
0.0
 10
34.245682
 20
206.160693
 30
0.0
 10
35.058263
 20
204.538628
 30
0.0
  0
SPLINE
  5
409
100
AcDbEntity
  8
0
 62
7
100
AcDbSpline
 70
8
 71
3
 72
8
 73
4
 74
0
 40
0
 40
0
 40
0
 40
0
 40
1
 40
1
 40
1
 40
1
 10
35.058263
 20
204.538628
 30
0.0
 10
36.380931
 20
201.898337
 30
0.0
 10
39.472410
 20
199.402139
 30
0.0
 10
42.653709
 20
198.405724
 30
0.0
  0
SPLINE
  5
40a
100
AcDbEntity
  8
0
 62
7
100
AcDbSpline
 70
8
 71
3
 72
8
 73
4
 74
0
 40
0
 40
0
 40
0
 40
0
 40
1
 40
1
 40
1
 40
1
 10
42.653709
 20
198.405724
 30
0.0
 10
44.588078
 20
197.799862
 30
0.0
 10
44.554365
 20
197.766241
 30
0.0
 10
44.735623
 20
200.481859
 30
0.0
  0
LWPOLYLINE
  5
40b
100
AcDbEntity
  8
0
 62
7
100
AcDbPolyline
 90
1
 70
1
 10
11.580226
 20
199.291234
 30
0.0
  0
SPLINE
  5
40c
100
AcDbEntity
  8
0
 62
7
100
AcDbSpline
 70
8
 71
3
 72
8
 73
4
 74
0
 40
0
 40
0
 40
0
 40
0
 40
1
 40
1
 40
1
 40
1
 10
77.807463
 20
200.614150
 30
0.0
 10
78.346289
 20
209.173040
 30
0.0
 10
82.538123
 20
215.112193
 30
0.0
 10
89.822988
 20
217.638207
 30
0.0
  0
SPLINE
  5
40d
100
AcDbEntity
  8
0
 62
7
100
AcDbSpline
 70
8
 71
3
 72
8
 73
4
 74
0
 40
0
 40
0
 40
0
 40
0
 40
1
 40
1
 40
1
 40
1
 10
89.822988
 20
217.638207
 30
0.0
 10
91.496187
 20
218.218385
 30
0.0
 10
95.725345
 20
218.932522
 30
0.0
 10
97.502599
 20
218.934985
 30
0.0
  0
SPLINE
  5
40e
100
AcDbEntity
  8
0
 62
7
100
AcDbSpline
 70
8
 71
3
 72
8
 73
4
 74
0
 40
0
 40
0
 40
0
 40
0
 40
1
 40
1
 40
1
 40
1
 10
97.502599
 20
218.934985
 30
0.0
 10
98.121063
 20
218.935779
 30
0.0
 10
98.627078
 20
219.059366
 30
0.0
 10
98.627078
 20
219.209477
 30
0.0
  0
SPLINE
  5
40f
100
AcDbEntity
  8
0
 62
7
100
AcDbSpline
 70
8
 71
3
 72
8
 73
4
 74
0
 40
0
 40
0
 40
0
 40
0
 40
1
 40
1
 40
1
 40
1
 10
98.627078
 20
219.209477
 30
0.0
 10
98.627078
 20
219.771751
 30
0.0
 10
97.502932
 20
222.807437
 30
0.0
 10
96.964545
 20
223.699046
 30
0.0
  0
SPLINE
  5
410
100
AcDbEntity
  8
0
 62
7
100
AcDbSpline
 70
8
 71
3
 72
8
 73
4
 74
0
 40
0
 40
0
 40
0
 40
0
 40
1
 40
1
 40
1
 40
1
 10
96.964545
 20
223.699046
 30
0.0
 10
95.065985
 20
226.843201
 30
0.0
 10
92.072624
 20
228.965982
 30
0.0
 10
88.242182
 20
229.884629
 30
0.0
  0
SPLINE
  5
411
100
AcDbEntity
  8
0
 62
7
100
AcDbSpline
 70
8
 71
3
 72
8
 73
4
 74
0
 40
0
 40
0
 40
0
 40
0
 40
1
 40
1
 40
1
 40
1
 10
88.242182
 20
229.884629
 30
0.0
 10
87.522973
 20
230.057113
 30
0.0
 10
87.514578
 20
230.044024
 30
0.0
 10
87.514578
 20
228.750315
 30
0.0
  0
SPLINE
  5
412
100
AcDbEntity
  8
0
 62
7
100
AcDbSpline
 70
8
 71
3
 72
8
 73
4
 74
0
 40
0
 40
0
 40
0
 40
0
 40
1
 40
1
 40
1
 40
1
 10
87.514578
 20
228.750315
 30
0.0
 10
87.514578
 20
225.062166
 30
0.0
 10
86.281427
 20
220.321600
 30
0.0
 10
84.568512
 20
217.424844
 30
0.0
  0
SPLINE
  5
413
100
AcDbEntity
  8
0
 62
7
100
AcDbSpline
 70
8
 71
3
 72
8
 73
4
 74
0
 40
0
 40
0
 40
0
 40
0
 40
1
 40
1
 40
1
 40
1
 10
84.568512
 20
217.424844
 30
0.0
 10
84.078797
 20
216.596672
 30
0.0
 10
82.923541
 20
215.166834
 30
0.0
 10
82.001281
 20
214.247428
 30
0.0
  0
SPLINE
  5
414
100
AcDbEntity
  8
0
 62
7
100
AcDbSpline
 70
8
 71
3
 72
8
 73
4
 74
0
 40
0
 40
0
 40
0
 40
0
 40
1
 40
1
 40
1
 40
1
 10
82.001281
 20
214.247428
 30
0.0
 10
79.361969
 20
211.616287
 30
0.0
 10
74.912471
 20
209.700839
 30
0.0
 10
70.448953
 20
209.274309
 30
0.0
  0
SPLINE
  5
415
100
AcDbEntity
  8
0
 62
7
100
AcDbSpline
 70
8
 71
3
 72
8
 73
4
 74
0
 40
0
 40
0
 40
0
 40
0
 40
1
 40
1
 40
1
 40
1
 10
70.448953
 20
209.274309
 30
0.0
 10
66.395351
 20
208.886952
 30
0.0
 10
66.557864
 20
208.942884
 30
0.0
 10
66.757407
 20
208.003738
 30
0.0
  0
SPLINE
  5
416
100
AcDbEntity
  8
0
 62
7
100
AcDbSpline
 70
8
 71
3
 72
8
 73
4
 74
0
 40
0
 40
0
 40
0
 40
0
 40
1
 40
1
 40
1
 40
1
 10
66.757407
 20
208.003738
 30
0.0
 10
67.130073
 20
206.249789
 30
0.0
 10
68.711635
 20
203.312982
 30
0.0
 10
70.039815
 20
201.908630
 30
0.0
  0
SPLINE
  5
417
100
AcDbEntity
  8
0
 62
7
100
AcDbSpline
 70
8
 71
3
 72
8
 73
4
 74
0
 40
0
 40
0
 40
0
 40
0
 40
1
 40
1
 40
1
 40
1
 10
70.039815
 20
201.908630
 30
0.0
 10
71.399225
 20
200.471254
 30
0.0
 10
73.744796
 20
199.026452
 30
0.0
 10
75.726626
 20
198.405724
 30
0.0
  0
SPLINE
  5
418
100
AcDbEntity
  8
0
 62
7
100
AcDbSpline
 70
8
 71
3
 72
8
 73
4
 74
0
 40
0
 40
0
 40
0
 40
0
 40
1
 40
1
 40
1
 40
1
 10
75.726626
 20
198.405724
 30
0.0
 10
77.670319
 20
197.796941
 30
0.0
 10
77.627226
 20
197.751208
 30
0.0
 10
77.807463
 20
200.614150
 30
0.0
  0
LWPOLYLINE
  5
419
100
AcDbEntity
  8
0
 62
7
100
AcDbPolyline
 90
1
 70
1
 10
44.735623
 20
200.481859
 30
0.0
  0
SPLINE
  5
41a
100
AcDbEntity
  8
0
 62
7
100
AcDbSpline
 70
8
 71
3
 72
8
 73
4
 74
0
 40
0
 40
0
 40
0
 40
0
 40
1
 40
1
 40
1
 40
1
 10
110.879506
 20
200.614150
 30
0.0
 10
111.350854
 20
208.141737
 30
0.0
 10
114.616521
 20
213.704302
 30
0.0
 10
120.167426
 20
216.434702
 30
0.0
  0
SPLINE
  5
41b
100
AcDbEntity
  8
0
 62
7
100
AcDbSpline
 70
8
 71
3
 72
8
 73
4
 74
0
 40
0
 40
0
 40
0
 40
0
 40
1
 40
1
 40
1
 40
1
 10
120.167426
 20
216.434702
 30
0.0
 10
122.990584
 20
217.823365
 30
0.0
 10
125.851057
 20
218.576422
 30
0.0
 10
129.271398
 20
218.831435
 30
0.0
  0
SPLINE
  5
41c
100
AcDbEntity
  8
0
 62
7
100
AcDbSpline
 70
8
 71
3
 72
8
 73
4
 74
0
 40
0
 40
0
 40
0
 40
0
 40
1
 40
1
 40
1
 40
1
 10
129.271398
 20
218.831435
 30
0.0
 10
132.082638
 20
219.041035
 30
0.0
 10
131.963739
 20
218.827519
 30
0.0
 10
130.880922
 20
221.721622
 30
0.0
  0
SPLINE
  5
41d
100
AcDbEntity
  8
0
 62
7
100
AcDbSpline
 70
8
 71
3
 72
8
 73
4
 74
0
 40
0
 40
0
 40
0
 40
0
 40
1
 40
1
 40
1
 40
1
 10
130.880922
 20
221.721622
 30
0.0
 10
129.410370
 20
225.652020
 30
0.0
 10
126.423065
 20
228.368905
 30
0.0
 10
122.193119
 20
229.622985
 30
0.0
  0
SPLINE
  5
41e
100
AcDbEntity
  8
0
 62
7
100
AcDbSpline
 70
8
 71
3
 72
8
 73
4
 74
0
 40
0
 40
0
 40
0
 40
0
 40
1
 40
1
 40
1
 40
1
 10
122.193119
 20
229.622985
 30
0.0
 10
121.402721
 20
229.857319
 30
0.0
 10
120.735685
 20
230.049046
 30
0.0
 10
120.710817
 20
230.049046
 30
0.0
  0
SPLINE
  5
41f
100
AcDbEntity
  8
0
 62
7
100
AcDbSpline
 70
8
 71
3
 72
8
 73
4
 74
0
 40
0
 40
0
 40
0
 40
0
 40
1
 40
1
 40
1
 40
1
 10
120.710817
 20
230.049046
 30
0.0
 10
120.685946
 20
230.049046
 30
0.0
 10
120.587500
 20
228.947718
 30
0.0
 10
120.492044
 20
227.601650
 30
0.0
  0
SPLINE
  5
420
100
AcDbEntity
  8
0
 62
7
100
AcDbSpline
 70
8
 71
3
 72
8
 73
4
 74
0
 40
0
 40
0
 40
0
 40
0
 40
1
 40
1
 40
1
 40
1
 10
120.492044
 20
227.601650
 30
0.0
 10
120.162212
 20
222.950535
 30
0.0
 10
118.950340
 20
219.226659
 30
0.0
 10
116.774050
 20
216.176860
 30
0.0
  0
SPLINE
  5
421
100
AcDbEntity
  8
0
 62
7
100
AcDbSpline
 70
8
 71
3
 72
8
 73
4
 74
0
 40
0
 40
0
 40
0
 40
0
 40
1
 40
1
 40
1
 40
1
 10
116.774050
 20
216.176860
 30
0.0
 10
113.956010
 20
212.227731
 30
0.0
 10
108.972757
 20
209.772155
 30
0.0
 10
102.550219
 20
209.167844
 30
0.0
  0
SPLINE
  5
422
100
AcDbEntity
  8
0
 62
7
100
AcDbSpline
 70
8
 71
3
 72
8
 73
4
 74
0
 40
0
 40
0
 40
0
 40
0
 40
1
 40
1
 40
1
 40
1
 10
102.550219
 20
209.167844
 30
0.0
 10
101.091323
 20
209.030573
 30
0.0
 10
99.842095
 20
208.862673
 30
0.0
 10
99.774155
 20
208.794736
 30
0.0
  0
SPLINE
  5
423
100
AcDbEntity
  8
0
 62
7
100
AcDbSpline
 70
8
 71
3
 72
8
 73
4
 74
0
 40
0
 40
0
 40
0
 40
0
 40
1
 40
1
 40
1
 40
1
 10
99.774155
 20
208.794736
 30
0.0
 10
99.573747
 20
208.594328
 30
0.0
 10
100.199759
 20
206.546892
 30
0.0
 10
100.938489
 20
204.986670
 30
0.0
  0
SPLINE
  5
424
100
AcDbEntity
  8
0
 62
7
100
AcDbSpline
 70
8
 71
3
 72
8
 73
4
 74
0
 40
0
 40
0
 40
0
 40
0
 40
1
 40
1
 40
1
 40
1
 10
100.938489
 20
204.986670
 30
0.0
 10
101.737284
 20
203.299592
 30
0.0
 10
103.833877
 20
200.908393
 30
0.0
 10
105.363394
 20
199.939997
 30
0.0
  0
SPLINE
  5
425
100
AcDbEntity
  8
0
 62
7
100
AcDbSpline
 70
8
 71
3
 72
8
 73
4
 74
0
 40
0
 40
0
 40
0
 40
0
 40
1
 40
1
 40
1
 40
1
 10
105.363394
 20
199.939997
 30
0.0
 10
106.472651
 20
199.237679
 30
0.0
 10
109.555941
 20
198.049793
 30
0.0
 10
110.294923
 20
198.040043
 30
0.0
  0
SPLINE
  5
426
100
AcDbEntity
  8
0
 62
7
100
AcDbSpline
 70
8
 71
3
 72
8
 73
4
 74
0
 40
0
 40
0
 40
0
 40
0
 40
1
 40
1
 40
1
 40
1
 10
110.294923
 20
198.040043
 30
0.0
 10
110.643191
 20
198.035439
 30
0.0
 10
110.746529
 20
198.490475
 30
0.0
 10
110.879506
 20
200.614150
 30
0.0
  0
LWPOLYLINE
  5
427
100
AcDbEntity
  8
0
 62
7
100
AcDbPolyline
 90
1
 70
1
 10
77.807463
 20
200.614150
 30
0.0
  0
SPLINE
  5
428
100
AcDbEntity
  8
0
 62
7
100
AcDbSpline
 70
8
 71
3
 72
8
 73
4
 74
0
 40
0
 40
0
 40
0
 40
0
 40
1
 40
1
 40
1
 40
1
 10
39.643119
 20
214.860740
 30
0.0
 10
44.225578
 20
216.206731
 30
0.0
 10
47.865686
 20
219.979438
 30
0.0
 10
48.837604
 20
224.390151
 30
0.0
  0
LWPOLYLINE
  5
429
100
AcDbEntity
  8
0
 62
7
100
AcDbPolyline
 90
1
 70
1
 10
110.879506
 20
200.614150
 30
0.0
  0
SPLINE
  5
42a
100
AcDbEntity
  8
0
 62
7
100
AcDbSpline
 70
8
 71
3
 72
8
 73
4
 74
0
 40
0
 40
0
 40
0
 40
0
 40
1
 40
1
 40
1
 40
1
 10
46.666274
 20
225.649134
 30
0.0
 10
35.502392
 20
226.440923
 30
0.0
 10
29.369282
 20
232.386444
 30
0.0
 10
28.237344
 20
243.514388
 30
0.0
  0
SPLINE
  5
42b
100
AcDbEntity
  8
0
 62
7
100
AcDbSpline
 70
8
 71
3
 72
8
 73
4
 74
0
 40
0
 40
0
 40
0
 40
0
 40
1
 40
1
 40
1
 40
1
 10
28.237344
 20
243.514388
 30
0.0
 10
28.081116
 20
245.050247
 30
0.0
 10
27.909348
 20
246.350804
 30
0.0
 10
27.855638
 20
246.404514
 30
0.0
  0
SPLINE
  5
42c
100
AcDbEntity
  8
0
 62
7
100
AcDbSpline
 70
8
 71
3
 72
8
 73
4
 74
0
 40
0
 40
0
 40
0
 40
0
 40
1
 40
1
 40
1
 40
1
 10
27.855638
 20
246.404514
 30
0.0
 10
27.643225
 20
246.616930
 30
0.0
 10
24.599538
 20
245.570079
 30
0.0
 10
23.329933
 20
244.847936
 30
0.0
  0
SPLINE
  5
42d
100
AcDbEntity
  8
0
 62
7
100
AcDbSpline
 70
8
 71
3
 72
8
 73
4
 74
0
 40
0
 40
0
 40
0
 40
0
 40
1
 40
1
 40
1
 40
1
 10
23.329933
 20
244.847936
 30
0.0
 10
20.438629
 20
243.203387
 30
0.0
 10
17.729709
 20
239.483919
 30
0.0
 10
17.253827
 20
236.505176
 30
0.0
  0
LWPOLYLINE
  5
42e
100
AcDbEntity
  8
0
 62
7
100
AcDbPolyline
 90
3
 70
0
 10
48.837604
 20
224.390151
 30
0.0
 10
49.077346
 20
225.478131
 30
0.0
 10
46.666274
 20
225.649134
 30
0.0
  0
SPLINE
  5
42f
100
AcDbEntity
  8
0
 62
7
100
AcDbSpline
 70
8
 71
3
 72
8
 73
4
 74
0
 40
0
 40
0
 40
0
 40
0
 40
1
 40
1
 40
1
 40
1
 10
19.687678
 20
235.266100
 30
0.0
 10
25.161675
 20
234.941533
 30
0.0
 10
29.267261
 20
233.277727
 30
0.0
 10
32.465574
 20
230.087802
 30
0.0
  0
SPLINE
  5
430
100
AcDbEntity
  8
0
 62
7
100
AcDbSpline
 70
8
 71
3
 72
8
 73
4
 74
0
 40
0
 40
0
 40
0
 40
0
 40
1
 40
1
 40
1
 40
1
 10
32.465574
 20
230.087802
 30
0.0
 10
35.735580
 20
226.826376
 30
0.0
 10
37.196654
 20
223.377437
 30
0.0
 10
37.834073
 20
217.415192
 30
0.0
  0
SPLINE
  5
431
100
AcDbEntity
  8
0
 62
7
100
AcDbSpline
 70
8
 71
3
 72
8
 73
4
 74
0
 40
0
 40
0
 40
0
 40
0
 40
1
 40
1
 40
1
 40
1
 10
37.834073
 20
217.415192
 30
0.0
 10
38.009094
 20
215.778083
 30
0.0
 10
38.164384
 20
214.438630
 30
0.0
 10
38.179163
 20
214.438630
 30
0.0
  0
SPLINE
  5
432
100
AcDbEntity
  8
0
 62
7
100
AcDbSpline
 70
8
 71
3
 72
8
 73
4
 74
0
 40
0
 40
0
 40
0
 40
0
 40
1
 40
1
 40
1
 40
1
 10
38.179163
 20
214.438630
 30
0.0
 10
38.193954
 20
214.438630
 30
0.0
 10
38.852721
 20
214.628579
 30
0.0
 10
39.643119
 20
214.860740
 30
0.0
  0
LWPOLYLINE
  5
433
100
AcDbEntity
  8
0
 62
7
100
AcDbPolyline
 90
3
 70
0
 10
17.253827
 20
236.505176
 30
0.0
 10
17.080569
 20
235.420683
 30
0.0
 10
19.687678
 20
235.266100
 30
0.0
  0
SPLINE
  5
434
100
AcDbEntity
  8
0
 62
7
100
AcDbSpline
 70
8
 71
3
 72
8
 73
4
 74
0
 40
0
 40
0
 40
0
 40
0
 40
1
 40
1
 40
1
 40
1
 10
72.716035
 20
214.865000
 30
0.0
 10
77.023487
 20
216.143020
 30
0.0
 10
80.032450
 20
218.977967
 30
0.0
 10
81.447817
 20
223.091798
 30
0.0
  0
SPLINE
  5
435
100
AcDbEntity
  8
0
 62
7
100
AcDbSpline
 70
8
 71
3
 72
8
 73
4
 74
0
 40
0
 40
0
 40
0
 40
0
 40
1
 40
1
 40
1
 40
1
 10
81.447817
 20
223.091798
 30
0.0
 10
82.272640
 20
225.489188
 30
0.0
 10
82.301853
 20
225.449262
 30
0.0
 10
79.572025
 20
225.655336
 30
0.0
  0
SPLINE
  5
436
100
AcDbEntity
  8
0
 62
7
100
AcDbSpline
 70
8
 71
3
 72
8
 73
4
 74
0
 40
0
 40
0
 40
0
 40
0
 40
1
 40
1
 40
1
 40
1
 10
79.572025
 20
225.655336
 30
0.0
 10
76.722335
 20
225.870460
 30
0.0
 10
72.752932
 20
226.833366
 30
0.0
 10
70.954583
 20
227.745774
 30
0.0
  0
SPLINE
  5
437
100
AcDbEntity
  8
0
 62
7
100
AcDbSpline
 70
8
 71
3
 72
8
 73
4
 74
0
 40
0
 40
0
 40
0
 40
0
 40
1
 40
1
 40
1
 40
1
 10
70.954583
 20
227.745774
 30
0.0
 10
65.135646
 20
230.698061
 30
0.0
 10
62.147500
 20
235.596353
 30
0.0
 10
61.278680
 20
243.606916
 30
0.0
  0
LWPOLYLINE
  5
438
100
AcDbEntity
  8
0
 62
7
100
AcDbPolyline
 90
1
 70
1
 10
39.643119
 20
214.860740
 30
0.0
  0
SPLINE
  5
439
100
AcDbEntity
  8
0
 62
7
100
AcDbSpline
 70
8
 71
3
 72
8
 73
4
 74
0
 40
0
 40
0
 40
0
 40
0
 40
1
 40
1
 40
1
 40
1
 10
60.151989
 20
246.300036
 30
0.0
 10
55.377191
 20
245.271195
 30
0.0
 10
51.941039
 20
242.020535
 30
0.0
 10
50.454108
 20
237.125666
 30
0.0
  0
SPLINE
  5
43a
100
AcDbEntity
  8
0
 62
7
100
AcDbSpline
 70
8
 71
3
 72
8
 73
4
 74
0
 40
0
 40
0
 40
0
 40
0
 40
1
 40
1
 40
1
 40
1
 10
50.454108
 20
237.125666
 30
0.0
 10
49.911902
 20
235.340763
 30
0.0
 10
49.724710
 20
235.467292
 30
0.0
 10
53.251037
 20
235.235149
 30
0.0
  0
SPLINE
  5
43b
100
AcDbEntity
  8
0
 62
7
100
AcDbSpline
 70
8
 71
3
 72
8
 73
4
 74
0
 40
0
 40
0
 40
0
 40
0
 40
1
 40
1
 40
1
 40
1
 10
53.251037
 20
235.235149
 30
0.0
 10
56.053487
 20
235.050658
 30
0.0
 10
59.115042
 20
234.238035
 30
0.0
 10
61.570060
 20
233.027045
 30
0.0
  0
SPLINE
  5
43c
100
AcDbEntity
  8
0
 62
7
100
AcDbSpline
 70
8
 71
3
 72
8
 73
4
 74
0
 40
0
 40
0
 40
0
 40
0
 40
1
 40
1
 40
1
 40
1
 10
61.570060
 20
233.027045
 30
0.0
 10
63.858301
 20
231.898322
 30
0.0
 10
66.852797
 20
229.139718
 30
0.0
 10
68.071278
 20
227.037963
 30
0.0
  0
SPLINE
  5
43d
100
AcDbEntity
  8
0
 62
7
100
AcDbSpline
 70
8
 71
3
 72
8
 73
4
 74
0
 40
0
 40
0
 40
0
 40
0
 40
1
 40
1
 40
1
 40
1
 10
68.071278
 20
227.037963
 30
0.0
 10
69.609401
 20
224.384862
 30
0.0
 10
70.631431
 20
220.724886
 30
0.0
 10
70.980043
 20
216.621431
 30
0.0
  0
SPLINE
  5
43e
100
AcDbEntity
  8
0
 62
7
100
AcDbSpline
 70
8
 71
3
 72
8
 73
4
 74
0
 40
0
 40
0
 40
0
 40
0
 40
1
 40
1
 40
1
 40
1
 10
70.980043
 20
216.621431
 30
0.0
 10
71.082038
 20
215.420885
 30
0.0
 10
71.191017
 20
214.438619
 30
0.0
 10
71.222219
 20
214.438619
 30
0.0
  0
SPLINE
  5
43f
100
AcDbEntity
  8
0
 62
7
100
AcDbSpline
 70
8
 71
3
 72
8
 73
4
 74
0
 40
0
 40
0
 40
0
 40
0
 40
1
 40
1
 40
1
 40
1
 10
71.222219
 20
214.438619
 30
0.0
 10
71.253421
 20
214.438619
 30
0.0
 10
71.925638
 20
214.630492
 30
0.0
 10
72.716035
 20
214.865000
 30
0.0
  0
LWPOLYLINE
  5
440
100
AcDbEntity
  8
0
 62
7
100
AcDbPolyline
 90
3
 70
0
 10
61.278680
 20
243.606916
 30
0.0
 10
60.967525
 20
246.475761
 30
0.0
 10
60.151989
 20
246.300036
 30
0.0
  0
SPLINE
  5
441
100
AcDbEntity
  8
0
 62
7
100
AcDbSpline
 70
8
 71
3
 72
8
 73
4
 74
0
 40
0
 40
0
 40
0
 40
0
 40
1
 40
1
 40
1
 40
1
 10
105.788952
 20
214.865000
 30
0.0
 10
109.966329
 20
216.104428
 30
0.0
 10
112.878751
 20
218.786215
 30
0.0
 10
114.380613
 20
222.776293
 30
0.0
  0
SPLINE
  5
442
100
AcDbEntity
  8
0
 62
7
100
AcDbSpline
 70
8
 71
3
 72
8
 73
4
 74
0
 40
0
 40
0
 40
0
 40
0
 40
1
 40
1
 40
1
 40
1
 10
114.380613
 20
222.776293
 30
0.0
 10
115.323178
 20
225.280463
 30
0.0
 10
115.277241
 20
225.549973
 30
0.0
 10
113.906766
 20
225.556360
 30
0.0
  0
SPLINE
  5
443
100
AcDbEntity
  8
0
 62
7
100
AcDbSpline
 70
8
 71
3
 72
8
 73
4
 74
0
 40
0
 40
0
 40
0
 40
0
 40
1
 40
1
 40
1
 40
1
 10
113.906766
 20
225.556360
 30
0.0
 10
113.288302
 20
225.559244
 30
0.0
 10
111.948849
 20
225.680574
 30
0.0
 10
110.930203
 20
225.825984
 30
0.0
  0
SPLINE
  5
444
100
AcDbEntity
  8
0
 62
7
100
AcDbSpline
 70
8
 71
3
 72
8
 73
4
 74
0
 40
0
 40
0
 40
0
 40
0
 40
1
 40
1
 40
1
 40
1
 10
110.930203
 20
225.825984
 30
0.0
 10
103.844071
 20
226.837539
 30
0.0
 10
99.094338
 20
229.903234
 30
0.0
 10
96.598814
 20
235.076130
 30
0.0
  0
SPLINE
  5
445
100
AcDbEntity
  8
0
 62
7
100
AcDbSpline
 70
8
 71
3
 72
8
 73
4
 74
0
 40
0
 40
0
 40
0
 40
0
 40
1
 40
1
 40
1
 40
1
 10
96.598814
 20
235.076130
 30
0.0
 10
95.286661
 20
237.796051
 30
0.0
 10
94.739219
 20
239.851825
 30
0.0
 10
94.326567
 20
243.608943
 30
0.0
  0
SPLINE
  5
446
100
AcDbEntity
  8
0
 62
7
100
AcDbSpline
 70
8
 71
3
 72
8
 73
4
 74
0
 40
0
 40
0
 40
0
 40
0
 40
1
 40
1
 40
1
 40
1
 10
94.326567
 20
243.608943
 30
0.0
 10
94.116237
 20
245.523960
 30
0.0
 10
93.907226
 20
246.453213
 30
0.0
 10
93.686828
 20
246.453213
 30
0.0
  0
SPLINE
  5
447
100
AcDbEntity
  8
0
 62
7
100
AcDbSpline
 70
8
 71
3
 72
8
 73
4
 74
0
 40
0
 40
0
 40
0
 40
0
 40
1
 40
1
 40
1
 40
1
 10
93.686828
 20
246.453213
 30
0.0
 10
92.891382
 20
246.453213
 30
0.0
 10
89.701325
 20
245.084294
 30
0.0
 10
88.386478
 20
244.178725
 30
0.0
  0
SPLINE
  5
448
100
AcDbEntity
  8
0
 62
7
100
AcDbSpline
 70
8
 71
3
 72
8
 73
4
 74
0
 40
0
 40
0
 40
0
 40
0
 40
1
 40
1
 40
1
 40
1
 10
88.386478
 20
244.178725
 30
0.0
 10
86.045577
 20
242.566484
 30
0.0
 10
84.398197
 20
240.165652
 30
0.0
 10
83.457709
 20
236.995719
 30
0.0
  0
SPLINE
  5
449
100
AcDbEntity
  8
0
 62
7
100
AcDbSpline
 70
8
 71
3
 72
8
 73
4
 74
0
 40
0
 40
0
 40
0
 40
0
 40
1
 40
1
 40
1
 40
1
 10
83.457709
 20
236.995719
 30
0.0
 10
82.974841
 20
235.368208
 30
0.0
 10
82.815417
 20
235.466133
 30
0.0
 10
86.323953
 20
235.235160
 30
0.0
  0
SPLINE
  5
44a
100
AcDbEntity
  8
0
 62
7
100
AcDbSpline
 70
8
 71
3
 72
8
 73
4
 74
0
 40
0
 40
0
 40
0
 40
0
 40
1
 40
1
 40
1
 40
1
 10
86.323953
 20
235.235160
 30
0.0
 10
92.449753
 20
234.831885
 30
0.0
 10
97.784518
 20
232.041594
 30
0.0
 10
100.632191
 20
227.751391
 30
0.0
  0
SPLINE
  5
44b
100
AcDbEntity
  8
0
 62
7
100
AcDbSpline
 70
8
 71
3
 72
8
 73
4
 74
0
 40
0
 40
0
 40
0
 40
0
 40
1
 40
1
 40
1
 40
1
 10
100.632191
 20
227.751391
 30
0.0
 10
102.476356
 20
224.973039
 30
0.0
 10
103.635527
 20
221.082859
 30
0.0
 10
104.066880
 20
216.224567
 30
0.0
  0
SPLINE
  5
44c
100
AcDbEntity
  8
0
 62
7
100
AcDbSpline
 70
8
 71
3
 72
8
 73
4
 74
0
 40
0
 40
0
 40
0
 40
0
 40
1
 40
1
 40
1
 40
1
 10
104.066880
 20
216.224567
 30
0.0
 10
104.154092
 20
215.242301
 30
0.0
 10
104.253893
 20
214.438630
 30
0.0
 10
104.288656
 20
214.438630
 30
0.0
  0
SPLINE
  5
44d
100
AcDbEntity
  8
0
 62
7
100
AcDbSpline
 70
8
 71
3
 72
8
 73
4
 74
0
 40
0
 40
0
 40
0
 40
0
 40
1
 40
1
 40
1
 40
1
 10
104.288656
 20
214.438630
 30
0.0
 10
104.323422
 20
214.438630
 30
0.0
 10
104.998554
 20
214.630503
 30
0.0
 10
105.788952
 20
214.865011
 30
0.0
  0
LWPOLYLINE
  5
44e
100
AcDbEntity
  8
0
 62
7
100
AcDbPolyline
 90
1
 70
1
 10
72.716035
 20
214.865000
 30
0.0
  0
SPLINE
  5
44f
100
AcDbEntity
  8
0
 62
7
100
AcDbSpline
 70
8
 71
3
 72
8
 73
4
 74
0
 40
0
 40
0
 40
0
 40
0
 40
1
 40
1
 40
1
 40
1
 10
11.580226
 20
232.364150
 30
0.0
 10
11.581813
 20
234.159650
 30
0.0
 10
12.264634
 20
238.121693
 30
0.0
 10
12.881066
 20
239.911470
 30
0.0
  0
SPLINE
  5
450
100
AcDbEntity
  8
0
 62
7
100
AcDbSpline
 70
8
 71
3
 72
8
 73
4
 74
0
 40
0
 40
0
 40
0
 40
0
 40
1
 40
1
 40
1
 40
1
 10
12.881066
 20
239.911470
 30
0.0
 10
13.806004
 20
242.596988
 30
0.0
 10
15.084376
 20
244.669107
 30
0.0
 10
17.014008
 20
246.610564
 30
0.0
  0
SPLINE
  5
451
100
AcDbEntity
  8
0
 62
7
100
AcDbSpline
 70
8
 71
3
 72
8
 73
4
 74
0
 40
0
 40
0
 40
0
 40
0
 40
1
 40
1
 40
1
 40
1
 10
17.014008
 20
246.610564
 30
0.0
 10
20.026858
 20
249.641876
 30
0.0
 10
23.767786
 20
251.194708
 30
0.0
 10
29.504682
 20
251.795352
 30
0.0
  0
SPLINE
  5
452
100
AcDbEntity
  8
0
 62
7
100
AcDbSpline
 70
8
 71
3
 72
8
 73
4
 74
0
 40
0
 40
0
 40
0
 40
0
 40
1
 40
1
 40
1
 40
1
 10
29.504682
 20
251.795352
 30
0.0
 10
31.571226
 20
252.011715
 30
0.0
 10
32.481245
 20
252.209740
 30
0.0
 10
32.481245
 20
252.443068
 30
0.0
  0
SPLINE
  5
453
100
AcDbEntity
  8
0
 62
7
100
AcDbSpline
 70
8
 71
3
 72
8
 73
4
 74
0
 40
0
 40
0
 40
0
 40
0
 40
1
 40
1
 40
1
 40
1
 10
32.481245
 20
252.443068
 30
0.0
 10
32.481245
 20
253.246062
 30
0.0
 10
31.116945
 20
256.430593
 30
0.0
 10
30.206757
 20
257.752146
 30
0.0
  0
SPLINE
  5
454
100
AcDbEntity
  8
0
 62
7
100
AcDbSpline
 70
8
 71
3
 72
8
 73
4
 74
0
 40
0
 40
0
 40
0
 40
0
 40
1
 40
1
 40
1
 40
1
 10
30.206757
 20
257.752146
 30
0.0
 10
28.591973
 20
260.096738
 30
0.0
 10
26.194124
 20
261.740294
 30
0.0
 10
23.010025
 20
262.684993
 30
0.0
  0
SPLINE
  5
455
100
AcDbEntity
  8
0
 62
7
100
AcDbSpline
 70
8
 71
3
 72
8
 73
4
 74
0
 40
0
 40
0
 40
0
 40
0
 40
1
 40
1
 40
1
 40
1
 10
23.010025
 20
262.684993
 30
0.0
 10
21.364306
 20
263.173265
 30
0.0
 10
21.465456
 20
263.320862
 30
0.0
 10
21.271612
 20
260.148342
 30
0.0
  0
SPLINE
  5
456
100
AcDbEntity
  8
0
 62
7
100
AcDbSpline
 70
8
 71
3
 72
8
 73
4
 74
0
 40
0
 40
0
 40
0
 40
0
 40
1
 40
1
 40
1
 40
1
 10
21.271612
 20
260.148342
 30
0.0
 10
21.078641
 20
256.990109
 30
0.0
 10
20.479949
 20
254.710290
 30
0.0
 10
19.072631
 20
251.774609
 30
0.0
  0
SPLINE
  5
457
100
AcDbEntity
  8
0
 62
7
100
AcDbSpline
 70
8
 71
3
 72
8
 73
4
 74
0
 40
0
 40
0
 40
0
 40
0
 40
1
 40
1
 40
1
 40
1
 10
19.072631
 20
251.774609
 30
0.0
 10
16.336431
 20
246.066866
 30
0.0
 10
11.340058
 20
243.016419
 30
0.0
 10
3.405487
 20
242.209313
 30
0.0
  0
SPLINE
  5
458
100
AcDbEntity
  8
0
 62
7
100
AcDbSpline
 70
8
 71
3
 72
8
 73
4
 74
0
 40
0
 40
0
 40
0
 40
0
 40
1
 40
1
 40
1
 40
1
 10
3.405487
 20
242.209313
 30
0.0
 10
1.869629
 20
242.053084
 30
0.0
 10
0.580491
 20
241.892736
 30
0.0
 10
0.540738
 20
241.852982
 30
0.0
  0
SPLINE
  5
459
100
AcDbEntity
  8
0
 62
7
100
AcDbSpline
 70
8
 71
3
 72
8
 73
4
 74
0
 40
0
 40
0
 40
0
 40
0
 40
1
 40
1
 40
1
 40
1
 10
0.540738
 20
241.852982
 30
0.0
 10
0.392195
 20
241.704443
 30
0.0
 10
1.341436
 20
238.869231
 30
0.0
 10
1.923821
 20
237.721963
 30
0.0
  0
SPLINE
  5
45a
100
AcDbEntity
  8
0
 62
7
100
AcDbSpline
 70
8
 71
3
 72
8
 73
4
 74
0
 40
0
 40
0
 40
0
 40
0
 40
1
 40
1
 40
1
 40
1
 10
1.923821
 20
237.721963
 30
0.0
 10
2.759885
 20
236.074958
 30
0.0
 10
4.562261
 20
234.098383
 30
0.0
 10
6.147145
 20
233.090461
 30
0.0
  0
SPLINE
  5
45b
100
AcDbEntity
  8
0
 62
7
100
AcDbSpline
 70
8
 71
3
 72
8
 73
4
 74
0
 40
0
 40
0
 40
0
 40
0
 40
1
 40
1
 40
1
 40
1
 10
6.147145
 20
233.090461
 30
0.0
 10
7.648462
 20
232.135683
 30
0.0
 10
10.089294
 20
231.141881
 30
0.0
 10
10.983850
 20
231.121167
 30
0.0
  0
SPLINE
  5
45c
100
AcDbEntity
  8
0
 62
7
100
AcDbSpline
 70
8
 71
3
 72
8
 73
4
 74
0
 40
0
 40
0
 40
0
 40
0
 40
1
 40
1
 40
1
 40
1
 10
10.983850
 20
231.121167
 30
0.0
 10
11.519448
 20
231.108758
 30
0.0
 10
11.579268
 20
231.233440
 30
0.0
 10
11.580226
 20
232.364150
 30
0.0
  0
LWPOLYLINE
  5
45d
100
AcDbEntity
  8
0
 62
7
100
AcDbPolyline
 90
1
 70
1
 10
105.788952
 20
214.865011
 30
0.0
  0
SPLINE
  5
45e
100
AcDbEntity
  8
0
 62
7
100
AcDbSpline
 70
8
 71
3
 72
8
 73
4
 74
0
 40
0
 40
0
 40
0
 40
0
 40
1
 40
1
 40
1
 40
1
 10
44.735623
 20
233.554775
 30
0.0
 10
45.239509
 20
241.104016
 30
0.0
 10
48.682428
 20
246.932588
 30
0.0
 10
54.203756
 20
249.583528
 30
0.0
  0
SPLINE
  5
45f
100
AcDbEntity
  8
0
 62
7
100
AcDbSpline
 70
8
 71
3
 72
8
 73
4
 74
0
 40
0
 40
0
 40
0
 40
0
 40
1
 40
1
 40
1
 40
1
 10
54.203756
 20
249.583528
 30
0.0
 10
56.966361
 20
250.909929
 30
0.0
 10
58.778024
 20
251.389500
 30
0.0
 10
62.585822
 20
251.802374
 30
0.0
  0
LWPOLYLINE
  5
460
100
AcDbEntity
  8
0
 62
7
100
AcDbPolyline
 90
1
 70
1
 10
11.580226
 20
232.364150
 30
0.0
  0
SPLINE
  5
461
100
AcDbEntity
  8
0
 62
7
100
AcDbSpline
 70
8
 71
3
 72
8
 73
4
 74
0
 40
0
 40
0
 40
0
 40
0
 40
1
 40
1
 40
1
 40
1
 10
65.399663
 20
252.927631
 30
0.0
 10
64.399755
 20
257.616515
 30
0.0
 10
60.911454
 20
261.271397
 30
0.0
 10
56.082941
 20
262.689264
 30
0.0
  0
SPLINE
  5
462
100
AcDbEntity
  8
0
 62
7
100
AcDbSpline
 70
8
 71
3
 72
8
 73
4
 74
0
 40
0
 40
0
 40
0
 40
0
 40
1
 40
1
 40
1
 40
1
 10
56.082941
 20
262.689264
 30
0.0
 10
54.440778
 20
263.171477
 30
0.0
 10
54.543518
 20
263.317864
 30
0.0
 10
54.333955
 20
260.197281
 30
0.0
  0
SPLINE
  5
463
100
AcDbEntity
  8
0
 62
7
100
AcDbSpline
 70
8
 71
3
 72
8
 73
4
 74
0
 40
0
 40
0
 40
0
 40
0
 40
1
 40
1
 40
1
 40
1
 10
54.333955
 20
260.197281
 30
0.0
 10
54.142076
 20
257.340059
 30
0.0
 10
53.361923
 20
254.257512
 30
0.0
 10
52.228242
 20
251.877172
 30
0.0
  0
SPLINE
  5
464
100
AcDbEntity
  8
0
 62
7
100
AcDbSpline
 70
8
 71
3
 72
8
 73
4
 74
0
 40
0
 40
0
 40
0
 40
0
 40
1
 40
1
 40
1
 40
1
 10
52.228242
 20
251.877172
 30
0.0
 10
49.495427
 20
246.139198
 30
0.0
 10
44.407172
 20
243.015829
 30
0.0
 10
36.478403
 20
242.209313
 30
0.0
  0
SPLINE
  5
465
100
AcDbEntity
  8
0
 62
7
100
AcDbSpline
 70
8
 71
3
 72
8
 73
4
 74
0
 40
0
 40
0
 40
0
 40
0
 40
1
 40
1
 40
1
 40
1
 10
36.478403
 20
242.209313
 30
0.0
 10
34.942545
 20
242.053084
 30
0.0
 10
33.653407
 20
241.892736
 30
0.0
 10
33.613654
 20
241.852982
 30
0.0
  0
SPLINE
  5
466
100
AcDbEntity
  8
0
 62
7
100
AcDbSpline
 70
8
 71
3
 72
8
 73
4
 74
0
 40
0
 40
0
 40
0
 40
0
 40
1
 40
1
 40
1
 40
1
 10
33.613654
 20
241.852982
 30
0.0
 10
33.573900
 20
241.813231
 30
0.0
 10
33.732843
 20
241.135379
 30
0.0
 10
33.966859
 20
240.346646
 30
0.0
  0
SPLINE
  5
467
100
AcDbEntity
  8
0
 62
7
100
AcDbSpline
 70
8
 71
3
 72
8
 73
4
 74
0
 40
0
 40
0
 40
0
 40
0
 40
1
 40
1
 40
1
 40
1
 10
33.966859
 20
240.346646
 30
0.0
 10
35.203336
 20
236.179199
 30
0.0
 10
37.837070
 20
233.297770
 30
0.0
 10
41.805879
 20
231.770386
 30
0.0
  0
SPLINE
  5
468
100
AcDbEntity
  8
0
 62
7
100
AcDbSpline
 70
8
 71
3
 72
8
 73
4
 74
0
 40
0
 40
0
 40
0
 40
0
 40
1
 40
1
 40
1
 40
1
 10
41.805879
 20
231.770386
 30
0.0
 10
44.557143
 20
230.711571
 30
0.0
 10
44.545369
 20
230.704401
 30
0.0
 10
44.735623
 20
233.554775
 30
0.0
  0
LWPOLYLINE
  5
469
100
AcDbEntity
  8
0
 62
7
100
AcDbPolyline
 90
3
 70
0
 10
62.585822
 20
251.802374
 30
0.0
 10
65.570608
 20
252.126007
 30
0.0
 10
65.399663
 20
252.927631
 30
0.0
  0
SPLINE
  5
46a
100
AcDbEntity
  8
0
 62
7
100
AcDbSpline
 70
8
 71
3
 72
8
 73
4
 74
0
 40
0
 40
0
 40
0
 40
0
 40
1
 40
1
 40
1
 40
1
 10
77.794538
 20
233.554775
 30
0.0
 10
78.457179
 20
244.565385
 30
0.0
 10
84.916441
 20
251.005153
 30
0.0
 10
96.181664
 20
251.886416
 30
0.0
  0
SPLINE
  5
46b
100
AcDbEntity
  8
0
 62
7
100
AcDbSpline
 70
8
 71
3
 72
8
 73
4
 74
0
 40
0
 40
0
 40
0
 40
0
 40
1
 40
1
 40
1
 40
1
 10
96.181664
 20
251.886416
 30
0.0
 10
97.526642
 20
251.991633
 30
0.0
 10
98.625790
 20
252.151658
 30
0.0
 10
98.624215
 20
252.242027
 30
0.0
  0
SPLINE
  5
46c
100
AcDbEntity
  8
0
 62
7
100
AcDbSpline
 70
8
 71
3
 72
8
 73
4
 74
0
 40
0
 40
0
 40
0
 40
0
 40
1
 40
1
 40
1
 40
1
 10
98.624215
 20
252.242027
 30
0.0
 10
98.614002
 20
252.827706
 30
0.0
 10
97.715837
 20
255.198538
 30
0.0
 10
96.983968
 20
256.571663
 30
0.0
  0
SPLINE
  5
46d
100
AcDbEntity
  8
0
 62
7
100
AcDbSpline
 70
8
 71
3
 72
8
 73
4
 74
0
 40
0
 40
0
 40
0
 40
0
 40
1
 40
1
 40
1
 40
1
 10
96.983968
 20
256.571663
 30
0.0
 10
95.887294
 20
258.629232
 30
0.0
 10
94.146124
 20
260.377447
 30
0.0
 10
92.130597
 20
261.444672
 30
0.0
  0
SPLINE
  5
46e
100
AcDbEntity
  8
0
 62
7
100
AcDbSpline
 70
8
 71
3
 72
8
 73
4
 74
0
 40
0
 40
0
 40
0
 40
0
 40
1
 40
1
 40
1
 40
1
 10
92.130597
 20
261.444672
 30
0.0
 10
90.433702
 20
262.343180
 30
0.0
 10
87.921857
 20
263.176465
 30
0.0
 10
87.669875
 20
262.924482
 30
0.0
  0
SPLINE
  5
46f
100
AcDbEntity
  8
0
 62
7
100
AcDbSpline
 70
8
 71
3
 72
8
 73
4
 74
0
 40
0
 40
0
 40
0
 40
0
 40
1
 40
1
 40
1
 40
1
 10
87.669875
 20
262.924482
 30
0.0
 10
87.584463
 20
262.839069
 30
0.0
 10
87.514414
 20
262.163951
 30
0.0
 10
87.514216
 20
261.424220
 30
0.0
  0
SPLINE
  5
470
100
AcDbEntity
  8
0
 62
7
100
AcDbSpline
 70
8
 71
3
 72
8
 73
4
 74
0
 40
0
 40
0
 40
0
 40
0
 40
1
 40
1
 40
1
 40
1
 10
87.514216
 20
261.424220
 30
0.0
 10
87.513687
 20
259.777527
 30
0.0
 10
86.879105
 20
256.068913
 30
0.0
 10
86.289483
 20
254.267640
 30
0.0
  0
SPLINE
  5
471
100
AcDbEntity
  8
0
 62
7
100
AcDbSpline
 70
8
 71
3
 72
8
 73
4
 74
0
 40
0
 40
0
 40
0
 40
0
 40
1
 40
1
 40
1
 40
1
 10
86.289483
 20
254.267640
 30
0.0
 10
84.224982
 20
247.960650
 30
0.0
 10
79.385274
 20
243.900384
 30
0.0
 10
72.426468
 20
242.637281
 30
0.0
  0
SPLINE
  5
472
100
AcDbEntity
  8
0
 62
7
100
AcDbSpline
 70
8
 71
3
 72
8
 73
4
 74
0
 40
0
 40
0
 40
0
 40
0
 40
1
 40
1
 40
1
 40
1
 10
72.426468
 20
242.637281
 30
0.0
 10
71.193313
 20
242.413449
 30
0.0
 10
69.373488
 20
242.158187
 30
0.0
 10
68.382412
 20
242.070031
 30
0.0
  0
LWPOLYLINE
  5
473
100
AcDbEntity
  8
0
 62
7
100
AcDbPolyline
 90
1
 70
1
 10
44.735623
 20
233.554775
 30
0.0
  0
SPLINE
  5
474
100
AcDbEntity
  8
0
 62
7
100
AcDbSpline
 70
8
 71
3
 72
8
 73
4
 74
0
 40
0
 40
0
 40
0
 40
0
 40
1
 40
1
 40
1
 40
1
 10
66.748866
 20
241.072626
 30
0.0
 10
67.073616
 20
239.458408
 30
0.0
 10
68.710106
 20
236.396713
 30
0.0
 10
69.970375
 20
235.045528
 30
0.0
  0
SPLINE
  5
475
100
AcDbEntity
  8
0
 62
7
100
AcDbSpline
 70
8
 71
3
 72
8
 73
4
 74
0
 40
0
 40
0
 40
0
 40
0
 40
1
 40
1
 40
1
 40
1
 10
69.970375
 20
235.045528
 30
0.0
 10
71.494917
 20
233.411006
 30
0.0
 10
72.817524
 20
232.530052
 30
0.0
 10
74.946870
 20
231.730812
 30
0.0
  0
SPLINE
  5
476
100
AcDbEntity
  8
0
 62
7
100
AcDbSpline
 70
8
 71
3
 72
8
 73
4
 74
0
 40
0
 40
0
 40
0
 40
0
 40
1
 40
1
 40
1
 40
1
 10
74.946870
 20
231.730812
 30
0.0
 10
77.634745
 20
230.721929
 30
0.0
 10
77.623622
 20
230.714804
 30
0.0
 10
77.794538
 20
233.554775
 30
0.0
  0
LWPOLYLINE
  5
477
100
AcDbEntity
  8
0
 62
7
100
AcDbPolyline
 90
3
 70
0
 10
68.382412
 20
242.070031
 30
0.0
 10
66.580454
 20
241.909746
 30
0.0
 10
66.748866
 20
241.072626
 30
0.0
  0
SPLINE
  5
478
100
AcDbEntity
  8
0
 62
7
100
AcDbSpline
 70
8
 71
3
 72
8
 73
4
 74
0
 40
0
 40
0
 40
0
 40
0
 40
1
 40
1
 40
1
 40
1
 10
110.874035
 20
233.687067
 30
0.0
 10
111.402617
 20
242.595181
 30
0.0
 10
116.034500
 20
248.791807
 30
0.0
 10
123.766104
 20
250.934345
 30
0.0
  0
SPLINE
  5
479
100
AcDbEntity
  8
0
 62
7
100
AcDbSpline
 70
8
 71
3
 72
8
 73
4
 74
0
 40
0
 40
0
 40
0
 40
0
 40
1
 40
1
 40
1
 40
1
 10
123.766104
 20
250.934345
 30
0.0
 10
124.854740
 20
251.236023
 30
0.0
 10
127.055451
 20
251.622717
 30
0.0
 10
128.656575
 20
251.793664
 30
0.0
  0
SPLINE
  5
47a
100
AcDbEntity
  8
0
 62
7
100
AcDbSpline
 70
8
 71
3
 72
8
 73
4
 74
0
 40
0
 40
0
 40
0
 40
0
 40
1
 40
1
 40
1
 40
1
 10
128.656575
 20
251.793664
 30
0.0
 10
130.257696
 20
251.964614
 30
0.0
 10
131.597064
 20
252.122385
 30
0.0
 10
131.632949
 20
252.144266
 30
0.0
  0
SPLINE
  5
47b
100
AcDbEntity
  8
0
 62
7
100
AcDbSpline
 70
8
 71
3
 72
8
 73
4
 74
0
 40
0
 40
0
 40
0
 40
0
 40
1
 40
1
 40
1
 40
1
 10
131.632949
 20
252.144266
 30
0.0
 10
131.668838
 20
252.166147
 30
0.0
 10
131.508651
 20
252.829381
 30
0.0
 10
131.276984
 20
253.618114
 30
0.0
  0
SPLINE
  5
47c
100
AcDbEntity
  8
0
 62
7
100
AcDbSpline
 70
8
 71
3
 72
8
 73
4
 74
0
 40
0
 40
0
 40
0
 40
0
 40
1
 40
1
 40
1
 40
1
 10
131.276984
 20
253.618114
 30
0.0
 10
129.867459
 20
258.416983
 30
0.0
 10
126.297222
 20
261.774089
 30
0.0
 10
121.353823
 20
262.948894
 30
0.0
  0
LWPOLYLINE
  5
47d
100
AcDbEntity
  8
0
 62
7
100
AcDbPolyline
 90
1
 70
1
 10
77.794538
 20
233.554775
 30
0.0
  0
SPLINE
  5
47e
100
AcDbEntity
  8
0
 62
7
100
AcDbSpline
 70
8
 71
3
 72
8
 73
4
 74
0
 40
0
 40
0
 40
0
 40
0
 40
1
 40
1
 40
1
 40
1
 10
120.491713
 20
260.669889
 30
0.0
 10
119.696193
 20
249.452083
 30
0.0
 10
113.784909
 20
243.344579
 30
0.0
 10
102.624236
 20
242.209313
 30
0.0
  0
SPLINE
  5
47f
100
AcDbEntity
  8
0
 62
7
100
AcDbSpline
 70
8
 71
3
 72
8
 73
4
 74
0
 40
0
 40
0
 40
0
 40
0
 40
1
 40
1
 40
1
 40
1
 10
102.624236
 20
242.209313
 30
0.0
 10
101.088378
 20
242.053084
 30
0.0
 10
99.781320
 20
241.874816
 30
0.0
 10
99.719664
 20
241.813163
 30
0.0
  0
SPLINE
  5
480
100
AcDbEntity
  8
0
 62
7
100
AcDbSpline
 70
8
 71
3
 72
8
 73
4
 74
0
 40
0
 40
0
 40
0
 40
0
 40
1
 40
1
 40
1
 40
1
 10
99.719664
 20
241.813163
 30
0.0
 10
99.526246
 20
241.619742
 30
0.0
 10
100.733974
 20
238.229696
 30
0.0
 10
101.402163
 20
237.090458
 30
0.0
  0
SPLINE
  5
481
100
AcDbEntity
  8
0
 62
7
100
AcDbSpline
 70
8
 71
3
 72
8
 73
4
 74
0
 40
0
 40
0
 40
0
 40
0
 40
1
 40
1
 40
1
 40
1
 10
101.402163
 20
237.090458
 30
0.0
 10
102.807770
 20
234.693947
 30
0.0
 10
105.133463
 20
232.796913
 30
0.0
 10
107.947465
 20
231.751553
 30
0.0
  0
SPLINE
  5
482
100
AcDbEntity
  8
0
 62
7
100
AcDbSpline
 70
8
 71
3
 72
8
 73
4
 74
0
 40
0
 40
0
 40
0
 40
0
 40
1
 40
1
 40
1
 40
1
 10
107.947465
 20
231.751553
 30
0.0
 10
110.735906
 20
230.715685
 30
0.0
 10
110.696161
 20
230.689399
 30
0.0
 10
110.874035
 20
233.687067
 30
0.0
  0
LWPOLYLINE
  5
483
100
AcDbEntity
  8
0
 62
7
100
AcDbPolyline
 90
3
 70
0
 10
121.353823
 20
262.948894
 30
0.0
 10
120.664941
 20
263.112607
 30
0.0
 10
120.491713
 20
260.669889
 30
0.0
  0
LWPOLYLINE
  5
484
100
AcDbEntity
  8
0
 62
7
100
AcDbPolyline
 90
1
 70
1
 10
110.874035
 20
233.687067
 30
0.0
  0
ENDSEC
  0
SECTION
  2
OBJECTS
  0
DICTIONARY
  5
C
330
0
100
AcDbDictionary
  3
ACAD_GROUP
350
D
  3
ACAD_MLINESTYLE
350
17
  0
DICTIONARY
  5
D
330
C
100
AcDbDictionary
  0
DICTIONARY
  5
1A
330
C
100
AcDbDictionary
  0
DICTIONARY
  5
17
330
C
100
AcDbDictionary
  3
STANDARD
350
18
  0
DICTIONARY
  5
19
330
C
100
AcDbDictionary
  0
ENDSEC
  0
EOF
