  0
SECTION
  2
HEADER
  9
$ACADVER
  1
AC1018
  9
$ACADMAINTVER
 70
     0
  9
$DWGCODEPAGE
  3
ANSI_1251
  9
$INSBASE
 10
0.0
 20
0.0
 30
0.0
  9
$EXTMIN
 10
1.000000000000000E+20
 20
1.000000000000000E+20
 30
1.000000000000000E+20
  9
$EXTMAX
 10
-1.000000000000000E+20
 20
-1.000000000000000E+20
 30
-1.000000000000000E+20
  9
$LIMMIN
 10
0.0
 20
0.0
  9
$LIMMAX
 10
12.0
 20
9.0
  9
$ORTHOMODE
 70
     0
  9
$REGENMODE
 70
     1
  9
$FILLMODE
 70
     1
  9
$QTEXTMODE
 70
     0
  9
$MIRRTEXT
 70
     1
  9
$LTSCALE
 40
1.0
  9
$ATTMODE
 70
     1
  9
$TEXTSIZE
 40
0.2
  9
$TRACEWID
 40
0.05
  9
$TEXTSTYLE
  7
Standard
  9
$CLAYER
  8
0
  9
$CELTYPE
  6
ByLayer
  9
$CECOLOR
 62
   256
  9
$CELTSCALE
 40
1.0
  9
$DISPSILH
 70
     0
  9
$DIMSCALE
 40
1.0
  9
$DIMASZ
 40
0.18
  9
$DIMEXO
 40
0.0625
  9
$DIMDLI
 40
0.38
  9
$DIMRND
 40
0.0
  9
$DIMDLE
 40
0.0
  9
$DIMEXE
 40
0.18
  9
$DIMTP
 40
0.0
  9
$DIMTM
 40
0.0
  9
$DIMTXT
 40
0.18
  9
$DIMCEN
 40
0.09
  9
$DIMTSZ
 40
0.0
  9
$DIMTOL
 70
     0
  9
$DIMLIM
 70
     0
  9
$DIMTIH
 70
     1
  9
$DIMTOH
 70
     1
  9
$DIMSE1
 70
     0
  9
$DIMSE2
 70
     0
  9
$DIMTAD
 70
     0
  9
$DIMZIN
 70
     0
  9
$DIMBLK
  1

  9
$DIMASO
 70
     1
  9
$DIMSHO
 70
     1
  9
$DIMPOST
  1

  9
$DIMAPOST
  1

  9
$DIMALT
 70
     0
  9
$DIMALTD
 70
     2
  9
$DIMALTF
 40
25.4
  9
$DIMLFAC
 40
1.0
  9
$DIMTOFL
 70
     0
  9
$DIMTVP
 40
0.0
  9
$DIMTIX
 70
     0
  9
$DIMSOXD
 70
     0
  9
$DIMSAH
 70
     0
  9
$DIMBLK1
  1

  9
$DIMBLK2
  1

  9
$DIMSTYLE
  2
Standard
  9
$DIMCLRD
 70
     0
  9
$DIMCLRE
 70
     0
  9
$DIMCLRT
 70
     0
  9
$DIMTFAC
 40
1.0
  9
$DIMGAP
 40
0.09
  9
$DIMJUST
 70
     0
  9
$DIMSD1
 70
     0
  9
$DIMSD2
 70
     0
  9
$DIMTOLJ
 70
     1
  9
$DIMTZIN
 70
     0
  9
$DIMALTZ
 70
     0
  9
$DIMALTTZ
 70
     0
  9
$DIMUPT
 70
     0
  9
$DIMDEC
 70
     4
  9
$DIMTDEC
 70
     4
  9
$DIMALTU
 70
     2
  9
$DIMALTTD
 70
     2
  9
$DIMTXSTY
  7
Standard
  9
$DIMAUNIT
 70
     0
  9
$DIMADEC
 70
     0
  9
$DIMALTRND
 40
0.0
  9
$DIMAZIN
 70
     0
  9
$DIMDSEP
 70
    46
  9
$DIMATFIT
 70
     3
  9
$DIMFRAC
 70
     0
  9
$DIMLDRBLK
  1

  9
$DIMLUNIT
 70
     2
  9
$DIMLWD
 70
    -2
  9
$DIMLWE
 70
    -2
  9
$DIMTMOVE
 70
     0
  9
$LUNITS
 70
     2
  9
$LUPREC
 70
     4
  9
$SKETCHINC
 40
0.1
  9
$FILLETRAD
 40
0.5
  9
$AUNITS
 70
     0
  9
$AUPREC
 70
     0
  9
$MENU
  1
.
  9
$ELEVATION
 40
0.0
  9
$PELEVATION
 40
0.0
  9
$THICKNESS
 40
0.0
  9
$LIMCHECK
 70
     0
  9
$CHAMFERA
 40
0.5
  9
$CHAMFERB
 40
0.5
  9
$CHAMFERC
 40
1.0
  9
$CHAMFERD
 40
0.0
  9
$SKPOLY
 70
     0
  9
$TDCREATE
 40
2457123.718514352
  9
$TDUCREATE
 40
2457123.551847685
  9
$TDUPDATE
 40
2457123.718514363
  9
$TDUUPDATE
 40
2457123.551847697
  9
$TDINDWG
 40
0.0000000116
  9
$TDUSRTIMER
 40
0.0000000116
  9
$USRTIMER
 70
     1
  9
$ANGBASE
 50
0.0
  9
$ANGDIR
 70
     0
  9
$PDMODE
 70
     0
  9
$PDSIZE
 40
0.0
  9
$PLINEWID
 40
0.0
  9
$SPLFRAME
 70
     0
  9
$SPLINETYPE
 70
     6
  9
$SPLINESEGS
 70
     8
  9
$HANDSEED
  5
4D
  9
$SURFTAB1
 70
     6
  9
$SURFTAB2
 70
     6
  9
$SURFTYPE
 70
     6
  9
$SURFU
 70
     6
  9
$SURFV
 70
     6
  9
$UCSBASE
  2

  9
$UCSNAME
  2

  9
$UCSORG
 10
0.0
 20
0.0
 30
0.0
  9
$UCSXDIR
 10
1.0
 20
0.0
 30
0.0
  9
$UCSYDIR
 10
0.0
 20
1.0
 30
0.0
  9
$UCSORTHOREF
  2

  9
$UCSORTHOVIEW
 70
     0
  9
$UCSORGTOP
 10
0.0
 20
0.0
 30
0.0
  9
$UCSORGBOTTOM
 10
0.0
 20
0.0
 30
0.0
  9
$UCSORGLEFT
 10
0.0
 20
0.0
 30
0.0
  9
$UCSORGRIGHT
 10
0.0
 20
0.0
 30
0.0
  9
$UCSORGFRONT
 10
0.0
 20
0.0
 30
0.0
  9
$UCSORGBACK
 10
0.0
 20
0.0
 30
0.0
  9
$PUCSBASE
  2

  9
$PUCSNAME
  2

  9
$PUCSORG
 10
0.0
 20
0.0
 30
0.0
  9
$PUCSXDIR
 10
1.0
 20
0.0
 30
0.0
  9
$PUCSYDIR
 10
0.0
 20
1.0
 30
0.0
  9
$PUCSORTHOREF
  2

  9
$PUCSORTHOVIEW
 70
     0
  9
$PUCSORGTOP
 10
0.0
 20
0.0
 30
0.0
  9
$PUCSORGBOTTOM
 10
0.0
 20
0.0
 30
0.0
  9
$PUCSORGLEFT
 10
0.0
 20
0.0
 30
0.0
  9
$PUCSORGRIGHT
 10
0.0
 20
0.0
 30
0.0
  9
$PUCSORGFRONT
 10
0.0
 20
0.0
 30
0.0
  9
$PUCSORGBACK
 10
0.0
 20
0.0
 30
0.0
  9
$USERI1
 70
     0
  9
$USERI2
 70
     0
  9
$USERI3
 70
     0
  9
$USERI4
 70
     0
  9
$USERI5
 70
     0
  9
$USERR1
 40
0.0
  9
$USERR2
 40
0.0
  9
$USERR3
 40
0.0
  9
$USERR4
 40
0.0
  9
$USERR5
 40
0.0
  9
$WORLDVIEW
 70
     1
  9
$SHADEDGE
 70
     3
  9
$SHADEDIF
 70
    70
  9
$TILEMODE
 70
     1
  9
$MAXACTVP
 70
    64
  9
$PINSBASE
 10
0.0
 20
0.0
 30
0.0
  9
$PLIMCHECK
 70
     0
  9
$PEXTMIN
 10
1.000000000000000E+20
 20
1.000000000000000E+20
 30
1.000000000000000E+20
  9
$PEXTMAX
 10
-1.000000000000000E+20
 20
-1.000000000000000E+20
 30
-1.000000000000000E+20
  9
$PLIMMIN
 10
0.0
 20
0.0
  9
$PLIMMAX
 10
12.0
 20
9.0
  9
$UNITMODE
 70
     0
  9
$VISRETAIN
 70
     1
  9
$PLINEGEN
 70
     0
  9
$PSLTSCALE
 70
     1
  9
$TREEDEPTH
 70
  3020
  9
$CMLSTYLE
  2
Standard
  9
$CMLJUST
 70
     0
  9
$CMLSCALE
 40
1.0
  9
$PROXYGRAPHICS
 70
     1
  9
$MEASUREMENT
 70
     0
  9
$CELWEIGHT
370
    -1
  9
$ENDCAPS
280
     0
  9
$JOINSTYLE
280
     0
  9
$LWDISPLAY
290
     1
  9
$INSUNITS
 70
     1
  9
$HYPERLINKBASE
  1

  9
$STYLESHEET
  1

  9
$XEDIT
290
     1
  9
$CEPSNTYPE
380
     0
  9
$PSTYLEMODE
290
     1
  9
$FINGERPRINTGUID
  2
{860DFBB9-A596-49FC-ACC8-287E0D4F3653}
  9
$VERSIONGUID
  2
{FAEB1C32-E019-11D5-929B-00C0DF256EC4}
  9
$EXTNAMES
290
     1
  9
$PSVPSCALE
 40
0.0
  9
$OLESTARTUP
290
     0
  9
$SORTENTS
280
   127
  9
$INDEXCTL
280
     0
  9
$HIDETEXT
280
     1
  9
$XCLIPFRAME
290
     0
  9
$HALOGAP
280
     0
  9
$OBSCOLOR
 70
   257
  9
$OBSLTYPE
280
     0
  9
$INTERSECTIONDISPLAY
280
     0
  9
$INTERSECTIONCOLOR
 70
   257
  9
$DIMASSOC
280
     2
  9
$PROJECTNAME
  1

  0
ENDSEC
  0
SECTION
  2
CLASSES
  0
CLASS
  1
ACDBDICTIONARYWDFLT
  2
AcDbDictionaryWithDefault
  3
ObjectDBX Classes
 90
        0
 91
        3
280
     0
281
     0
  0
CLASS
  1
VISUALSTYLE
  2
AcDbVisualStyle
  3
ObjectDBX Classes
 90
     4095
 91
        3
280
     0
281
     0
  0
ENDSEC
  0
SECTION
  2
TABLES
  0
TABLE
  2
VPORT
  5
8
330
0
100
AcDbSymbolTable
 70
     1
  0
VPORT
  5
29
330
8
100
AcDbSymbolTableRecord
100
AcDbViewportTableRecord
  2
*Active
 70
     0
 10
0.0
 20
0.0
 11
1.0
 21
1.0
 12
0.0
 22
0.0
 13
0.0
 23
0.0
 14
0.5
 24
0.5
 15
0.5
 25
0.5
 16
0.0
 26
0.0
 36
1.0
 17
107.9499999730125
 27
-139.699999965075
 37
0.0
 40
279.39999993015
 41
0.7727272727272728
 42
50.0
 43
0.0
 44
0.0
 50
0.0
 51
0.0
 71
     0
 72
   100
 73
     1
 74
     3
 75
     0
 76
     0
 77
     0
 78
     0
281
     0
 65
     1
110
0.0
120
0.0
130
0.0
111
1.0
121
0.0
131
0.0
112
0.0
122
1.0
132
0.0
 79
     0
146
0.0
  0
ENDTAB
  0
TABLE
  2
LTYPE
  5
5
330
0
100
AcDbSymbolTable
 70
     1
  0
LTYPE
  5
14
330
5
100
AcDbSymbolTableRecord
100
AcDbLinetypeTableRecord
  2
ByBlock
 70
     0
  3

 72
    65
 73
     0
 40
0.0
  0
LTYPE
  5
15
330
5
100
AcDbSymbolTableRecord
100
AcDbLinetypeTableRecord
  2
ByLayer
 70
     0
  3

 72
    65
 73
     0
 40
0.0
  0
LTYPE
  5
16
330
5
100
AcDbSymbolTableRecord
100
AcDbLinetypeTableRecord
  2
Continuous
 70
     0
  3
Solid line
 72
    65
 73
     0
 40
0.0
  0
ENDTAB
  0
TABLE
  2
LAYER
  5
2
330
0
100
AcDbSymbolTable
 70
     2
  0
LAYER
  5
10
330
2
100
AcDbSymbolTableRecord
100
AcDbLayerTableRecord
  2
0
 70
     0
 62
     7
  6
Continuous
370
    -3
390
F
  0
LAYER
  5
3B
330
2
100
AcDbSymbolTableRecord
100
AcDbLayerTableRecord
  2
Layer 1
 70
     0
 62
     7
  6
Continuous
370
    -3
390
F
  0
ENDTAB
  0
TABLE
  2
STYLE
  5
3
330
0
100
AcDbSymbolTable
 70
     1
  0
STYLE
  5
11
330
3
100
AcDbSymbolTableRecord
100
AcDbTextStyleTableRecord
  2
Standard
 70
     0
 40
0.0
 41
1.0
 50
0.0
 71
     0
 42
0.2
  3
txt
  4

  0
ENDTAB
  0
TABLE
  2
VIEW
  5
6
330
0
100
AcDbSymbolTable
 70
     0
  0
ENDTAB
  0
TABLE
  2
UCS
  5
7
330
0
100
AcDbSymbolTable
 70
     0
  0
ENDTAB
  0
TABLE
  2
APPID
  5
9
330
0
100
AcDbSymbolTable
 70
     1
  0
APPID
  5
12
330
9
100
AcDbSymbolTableRecord
100
AcDbRegAppTableRecord
  2
ACAD
 70
     0
  0
ENDTAB
  0
TABLE
  2
DIMSTYLE
  5
A
330
0
100
AcDbSymbolTable
 70
     1
100
AcDbDimStyleTable
  0
DIMSTYLE
105
27
330
A
100
AcDbSymbolTableRecord
100
AcDbDimStyleTableRecord
  2
Standard
 70
     0
340
11
  0
ENDTAB
  0
TABLE
  2
BLOCK_RECORD
  5
1
330
0
100
AcDbSymbolTable
 70
     2
  0
BLOCK_RECORD
  5
1F
330
1
100
AcDbSymbolTableRecord
100
AcDbBlockTableRecord
  2
*Model_Space
340
22
  0
BLOCK_RECORD
  5
1B
330
1
100
AcDbSymbolTableRecord
100
AcDbBlockTableRecord
  2
*Paper_Space
340
1E
  0
BLOCK_RECORD
  5
23
330
1
100
AcDbSymbolTableRecord
100
AcDbBlockTableRecord
  2
*Paper_Space0
340
26
  0
BLOCK_RECORD
  5
3C
330
1
100
AcDbSymbolTableRecord
100
AcDbBlockTableRecord
  2
block 2
340
0
102
{BLKREFS
331
3D
102
}
  0
ENDTAB
  0
ENDSEC
  0
SECTION
  2
BLOCKS
  0
BLOCK
  5
20
330
1F
100
AcDbEntity
  8
0
100
AcDbBlockBegin
  2
*Model_Space
 70
     0
 71
     0
 10
0.0
 20
0.0
 30
0.0
  3
*Model_Space
  1

  0
ENDBLK
  5
21
330
1F
100
AcDbEntity
  8
0
100
AcDbBlockEnd
  0
BLOCK
  5
1C
330
1B
100
AcDbEntity
 67
     1
  8
0
100
AcDbBlockBegin
  2
*Paper_Space
 70
     0
 71
     0
 10
0.0
 20
0.0
 30
0.0
  3
*Paper_Space
  1

  0
ENDBLK
  5
1D
330
1B
100
AcDbEntity
 67
     1
  8
0
100
AcDbBlockEnd
  0
BLOCK
  5
24
330
23
100
AcDbEntity
  8
0
100
AcDbBlockBegin
  2
*Paper_Space0
 70
     0
 71
     0
 10
0.0
 20
0.0
 30
0.0
  3
*Paper_Space0
  1

  0
ENDBLK
  5
25
330
23
100
AcDbEntity
  8
0
100
AcDbBlockEnd
  0
BLOCK
  5
3E
330
3C
100
AcDbEntity
  8
0
100
AcDbBlockBegin
  2
block 2
 70
     0
 71
     0
 10
0.0
 20
0.0
 30
0.0
  3
block 2
  1

  0
SPLINE
  5
40
330
3C
100
AcDbEntity
  8
Layer 1
370
     0
100
AcDbSpline
210
0.0
220
0.0
230
1.0
 70
    11
 71
     3
 72
   209
 73
   205
 74
     0
 42
0.0000000001
 43
0.0000000001
 40
0.0
 40
0.0
 40
0.0
 40
0.0
 40
1.0
 40
1.0
 40
1.0
 40
2.0
 40
2.0
 40
2.0
 40
3.0
 40
3.0
 40
3.0
 40
4.0
 40
4.0
 40
4.0
 40
5.0
 40
5.0
 40
5.0
 40
6.0
 40
6.0
 40
6.0
 40
7.0
 40
7.0
 40
7.0
 40
8.0
 40
8.0
 40
8.0
 40
9.0
 40
9.0
 40
9.0
 40
10.0
 40
10.0
 40
10.0
 40
11.0
 40
11.0
 40
11.0
 40
12.0
 40
12.0
 40
12.0
 40
13.0
 40
13.0
 40
13.0
 40
14.0
 40
14.0
 40
14.0
 40
15.0
 40
15.0
 40
15.0
 40
16.0
 40
16.0
 40
16.0
 40
17.0
 40
17.0
 40
17.0
 40
18.0
 40
18.0
 40
18.0
 40
19.0
 40
19.0
 40
19.0
 40
20.0
 40
20.0
 40
20.0
 40
21.0
 40
21.0
 40
21.0
 40
22.0
 40
22.0
 40
22.0
 40
23.0
 40
23.0
 40
23.0
 40
24.0
 40
24.0
 40
24.0
 40
25.0
 40
25.0
 40
25.0
 40
26.0
 40
26.0
 40
26.0
 40
27.0
 40
27.0
 40
27.0
 40
28.0
 40
28.0
 40
28.0
 40
29.0
 40
29.0
 40
29.0
 40
30.0
 40
30.0
 40
30.0
 40
31.0
 40
31.0
 40
31.0
 40
32.0
 40
32.0
 40
32.0
 40
33.0
 40
33.0
 40
33.0
 40
34.0
 40
34.0
 40
34.0
 40
35.0
 40
35.0
 40
35.0
 40
36.0
 40
36.0
 40
36.0
 40
37.0
 40
37.0
 40
37.0
 40
38.0
 40
38.0
 40
38.0
 40
39.0
 40
39.0
 40
39.0
 40
40.0
 40
40.0
 40
40.0
 40
41.0
 40
41.0
 40
41.0
 40
42.0
 40
42.0
 40
42.0
 40
43.0
 40
43.0
 40
43.0
 40
44.0
 40
44.0
 40
44.0
 40
45.0
 40
45.0
 40
45.0
 40
46.0
 40
46.0
 40
46.0
 40
47.0
 40
47.0
 40
47.0
 40
48.0
 40
48.0
 40
48.0
 40
49.0
 40
49.0
 40
49.0
 40
50.0
 40
50.0
 40
50.0
 40
51.0
 40
51.0
 40
51.0
 40
52.0
 40
52.0
 40
52.0
 40
53.0
 40
53.0
 40
53.0
 40
54.0
 40
54.0
 40
54.0
 40
55.0
 40
55.0
 40
55.0
 40
56.0
 40
56.0
 40
56.0
 40
57.0
 40
57.0
 40
57.0
 40
58.0
 40
58.0
 40
58.0
 40
59.0
 40
59.0
 40
59.0
 40
60.0
 40
60.0
 40
60.0
 40
61.0
 40
61.0
 40
61.0
 40
62.0
 40
62.0
 40
62.0
 40
63.0
 40
63.0
 40
63.0
 40
64.0
 40
64.0
 40
64.0
 40
65.0
 40
65.0
 40
65.0
 40
66.0
 40
66.0
 40
66.0
 40
67.0
 40
67.0
 40
67.0
 40
68.0
 40
68.0
 40
68.0
 40
68.0
 10
131.508940939345
 20
-132.9546752597301
 30
0.0
 10
131.91649573525
 20
-132.7464192376467
 30
0.0
 10
132.1590304574116
 20
-132.391574402666
 30
0.0
 10
132.1590304574116
 20
-131.887556933174
 30
0.0
 10
132.1590304574116
 20
-131.2257540904575
 30
0.0
 10
131.6229735999068
 20
-130.6903862520496
 30
0.0
 10
130.9591036998991
 20
-130.6903862520496
 30
0.0
 10
130.2997124240223
 20
-130.6903862520496
 30
0.0
 10
129.7619330187748
 20
-131.2257540904575
 30
0.0
 10
129.7619330187748
 20
-131.887556933174
 30
0.0
 10
129.7619330187748
 20
-132.1504177186985
 30
0.0
 10
129.8487494250031
 20
-132.3943304790542
 30
0.0
 10
129.992409906738
 20
-132.5903564121649
 30
0.0
 10
128.5492594079668
 20
-132.5093966682616
 30
0.0
 10
125.9840413096498
 20
-130.7951171548012
 30
0.0
 10
123.2586262712687
 20
-129.9552028754973
 30
0.0
 10
120.3309841279034
 20
-129.053965896556
 30
0.0
 10
116.0845594327844
 20
-128.2974229279951
 30
0.0
 10
113.2096272503434
 20
-129.8659749024293
 30
0.0
 10
112.2611924632541
 20
-130.3837727538624
 30
0.0
 10
112.0910047462828
 20
-131.2567599498247
 30
0.0
 10
112.7555636653875
 20
-131.7879936736502
 30
0.0
 10
112.5430012739476
 20
-131.9547362951363
 30
0.0
 10
112.3376735830267
 20
-132.1586859478631
 30
0.0
 10
112.1512939172747
 20
-132.3898518549234
 30
0.0
 10
112.045184976329
 20
-132.3888183262778
 30
0.0
 10
111.900835475497
 20
-132.3877847976322
 30
0.0
 10
111.7278916821375
 20
-132.3869235237609
 30
0.0
 10
111.7278916821375
 20
-132.3869235237609
 30
0.0
 10
111.7278916821375
 20
-126.3940076723946
 30
0.0
 10
111.7278916821375
 20
-126.3940076723946
 30
0.0
 10
111.8453694381845
 20
-125.1604912339009
 30
0.0
 10
112.1592176368908
 20
-123.9771009347175
 30
0.0
 10
113.0056775976166
 20
-122.9964545048412
 30
0.0
 10
114.624183456587
 20
-121.4813015104283
 30
0.0
 10
117.3902506216941
 20
-121.2349771832329
 30
0.0
 10
118.0086452612965
 20
-124.1574516833704
 30
0.0
 10
118.0703124704824
 20
-124.4568304810386
 30
0.0
 10
118.0830593237778
 20
-124.7065999037192
 30
0.0
 10
118.0499864071194
 20
-125.0152804591976
 30
0.0
 10
118.0289713246594
 20
-125.227498341089
 30
0.0
 10
118.1144096926936
 20
-125.3353298297773
 30
0.0
 10
118.4055202611972
 20
-125.1889132716542
 30
0.0
 10
119.9027587590868
 20
-124.4406385322579
 30
0.0
 10
120.0622666800539
 20
-123.3747259891216
 30
0.0
 10
120.2207410723754
 20
-121.9901421135997
 30
0.0
 10
120.4708550046045
 20
-122.0828151821529
 30
0.0
 10
120.7357828474202
 20
-122.166875511993
 30
0.0
 10
120.9741834549995
 20
-122.0524983418827
 30
0.0
 10
121.2139621007729
 20
-120.8970133161299
 30
0.0
 10
120.2937770966627
 20
-119.6051025091612
 30
0.0
 10
120.2937770966627
 20
-119.6051025091612
 30
0.0
 10
121.4458170269302
 20
-119.7208577174656
 30
0.0
 10
123.4928927642657
 20
-121.9567246873928
 30
0.0
 10
122.0452636413637
 20
-124.5853325426384
 30
0.0
 10
121.9491454773252
 20
-124.4220350166376
 30
0.0
 10
121.8389024217972
 20
-124.2611490574764
 30
0.0
 10
121.704888207421
 20
-124.1288573908428
 30
0.0
 10
120.2627712372954
 20
-122.7105115795654
 30
0.0
 10
118.3059570016735
 20
-126.0567328243886
 30
0.0
 10
120.0336723875263
 20
-126.9948323250221
 30
0.0
 10
121.3569335634108
 20
-127.7124457145997
 30
0.0
 10
123.0419297652465
 20
-126.454641352935
 30
0.0
 10
123.5986571956628
 20
-124.9043483845725
 30
0.0
 10
124.9432779635559
 20
-121.1609076303001
 30
0.0
 10
122.2161403774321
 20
-118.4203341717838
 30
0.0
 10
120.4033311330936
 20
-117.8150308950254
 30
0.0
 10
121.8909233636245
 20
-117.7078884254341
 30
0.0
 10
122.4483398131379
 20
-116.4459499491871
 30
0.0
 10
123.7678113839886
 20
-115.8530490161756
 30
0.0
 10
124.1557291356277
 20
-115.6780381655249
 30
0.0
 10
124.0578884238466
 20
-115.3738362341774
 30
0.0
 10
123.7326714100391
 20
-115.5519476707648
 30
0.0
 10
122.7911268139203
 20
-116.0690565031008
 30
0.0
 10
121.9315754903504
 20
-115.0865152707075
 30
0.0
 10
121.0926947396921
 20
-114.9280408783861
 30
0.0
 10
119.9313530516144
 20
-114.5973117118021
 30
0.0
 10
118.9405435900565
 20
-114.5621717378525
 30
0.0
 10
117.7902262075316
 20
-115.1089083913617
 30
0.0
 10
117.6637912032229
 20
-114.7898925494275
 30
0.0
 10
117.9028808298993
 20
-114.397151664109
 30
0.0
 10
117.8388020538736
 20
-114.1225775539346
 30
0.0
 10
115.9526122756994
 20
-114.2236911064267
 30
0.0
 10
113.3329616687154
 20
-116.1579399666202
 30
0.0
 10
111.7278916821375
 20
-119.4176893147636
 30
0.0
 10
111.7278916821375
 20
-119.4176893147636
 30
0.0
 10
111.7278916821375
 20
-119.0320108751899
 30
0.0
 10
111.7278916821375
 20
-119.0320108751899
 30
0.0
 10
111.7278916821375
 20
-116.386177542518
 30
0.0
 10
112.1688639042495
 20
-112.4174275435102
 30
0.0
 10
116.9313639030588
 20
-111.8882608769759
 30
0.0
 10
116.9313639030588
 20
-111.8882608769759
 30
0.0
 10
116.9313639030588
 20
-108.8896497666144
 30
0.0
 10
116.9313639030588
 20
-108.8896497666144
 30
0.0
 10
116.9313639030588
 20
-108.8896497666144
 30
0.0
 10
98.85150279646768
 20
-108.8896497666144
 30
0.0
 10
98.85150279646768
 20
-108.8896497666144
 30
0.0
 10
98.85150279646768
 20
-108.8896497666144
 30
0.0
 10
98.85150279646768
 20
-111.8882608769759
 30
0.0
 10
98.85150279646768
 20
-111.8882608769759
 30
0.0
 10
103.7021972396995
 20
-112.3292330990878
 30
0.0
 10
104.1431694618114
 20
-116.4743719869404
 30
0.0
 10
104.1431694618114
 20
-119.0320108751899
 30
0.0
 10
104.1431694618114
 20
-119.0320108751899
 30
0.0
 10
104.1431694618114
 20
-119.4784952500783
 30
0.0
 10
104.1431694618114
 20
-119.4784952500783
 30
0.0
 10
102.5412000611703
 20
-116.182055635017
 30
0.0
 10
99.90087888127478
 20
-114.2243801255238
 30
0.0
 10
98.00332028799917
 20
-114.1225775539346
 30
0.0
 10
97.93855249287648
 20
-114.397151664109
 30
0.0
 10
98.17833113864987
 20
-114.7898925494275
 30
0.0
 10
98.05155162479267
 20
-115.1089083913617
 30
0.0
 10
96.90088973271922
 20
-114.5621717378525
 30
0.0
 10
95.91076929025843
 20
-114.5973117118021
 30
0.0
 10
94.74908309263218
 20
-114.9280408783861
 30
0.0
 10
93.91054685152237
 20
-115.0865152707075
 30
0.0
 10
93.05065101840401
 20
-116.0690565031008
 30
0.0
 10
92.1087619127367
 20
-115.5519476707648
 30
0.0
 10
91.78423391802617
 20
-115.3738362341774
 30
0.0
 10
91.68604869669655
 20
-115.6780381655249
 30
0.0
 10
92.07362193878716
 20
-115.8530490161756
 30
0.0
 10
93.39343801918636
 20
-116.4459499491871
 30
0.0
 10
93.95050995915126
 20
-117.7078884254341
 30
0.0
 10
95.4387912087792
 20
-117.8150308950254
 30
0.0
 10
93.62598196444073
 20
-118.4203341717838
 30
0.0
 10
90.89815535921991
 20
-121.1609076303001
 30
0.0
 10
92.24312063666144
 20
-124.9043483845725
 30
0.0
 10
92.79984806707782
 20
-126.454641352935
 30
0.0
 10
94.48518877846205
 20
-127.7124457145997
 30
0.0
 10
95.80810544479797
 20
-126.9948323250221
 30
0.0
 10
97.53582083065078
 20
-126.0567328243886
 30
0.0
 10
95.57900659502886
 20
-122.7105115795654
 30
0.0
 10
94.13688962490328
 20
-124.1288573908428
 30
0.0
 10
94.00287541052707
 20
-124.2611490574764
 30
0.0
 10
93.89263235499907
 20
-124.4220350166376
 30
0.0
 10
93.79685870050912
 20
-124.5853325426384
 30
0.0
 10
92.34888506805862
 20
-121.9567246873928
 30
0.0
 10
94.3963053149426
 20
-119.7208577174656
 30
0.0
 10
95.54765622611309
 20
-119.6051025091612
 30
0.0
 10
95.54765622611309
 20
-119.6051025091612
 30
0.0
 10
94.62781573155138
 20
-120.8970133161299
 30
0.0
 10
94.86759437732478
 20
-122.0524983418827
 30
0.0
 10
95.10599498490406
 20
-122.166875511993
 30
0.0
 10
95.37126733726829
 20
-122.0828151821529
 30
0.0
 10
95.62069225040038
 20
-121.9901421135997
 30
0.0
 10
95.7795111522704
 20
-123.3747259891216
 30
0.0
 10
95.93901907323747
 20
-124.4406385322579
 30
0.0
 10
97.43625757112706
 20
-125.1889132716542
 30
0.0
 10
97.72702363008214
 20
-125.3353298297773
 30
0.0
 10
97.81315101721339
 20
-125.227498341089
 30
0.0
 10
97.79179142520483
 20
-125.0152804591976
 30
0.0
 10
97.75871850854644
 20
-124.7065999037192
 30
0.0
 10
97.77112085229334
 20
-124.4568304810386
 30
0.0
 10
97.83313257102783
 20
-124.1574516833704
 30
0.0
 10
98.45118270108165
 20
-121.2349771832329
 30
0.0
 10
101.2175943757373
 20
-121.4813015104283
 30
0.0
 10
102.8361002347076
 20
-122.9964545048412
 30
0.0
 10
103.7652424870795
 20
-124.0727023344332
 30
0.0
 10
104.0529079600979
 20
-125.3932074339295
 30
0.0
 10
104.1431694618114
 20
-126.7564317174428
 30
0.0
 10
104.1431694618114
 20
-126.7564317174428
 30
0.0
 10
104.1431694618114
 20
-132.3867512689866
 30
0.0
 10
104.1431694618114
 20
-132.3867512689866
 30
0.0
 10
103.9561007769624
 20
-132.3877847976322
 30
0.0
 10
103.8017604992232
 20
-132.3888183262778
 30
0.0
 10
103.6891058768555
 20
-132.3898518549234
 30
0.0
 10
103.5041042492976
 20
-132.1586859478631
 30
0.0
 10
103.2987765583767
 20
-131.9547362951363
 30
0.0
 10
103.0872476955824
 20
-131.7879936736502
 30
0.0
 10
103.7507730860415
 20
-131.2567599498247
 30
0.0
 10
103.5816188977157
 20
-130.3837727538624
 30
0.0
 10
102.6331841106264
 20
-129.8659749024293
 30
0.0
 10
99.75721839953987
 20
-128.2974229279951
 30
0.0
 10
95.51148272351797
 20
-129.053965896556
 30
0.0
 10
92.58418508970118
 20
-129.9552028754973
 30
0.0
 10
89.85773652267446
 20
-130.7951171548012
 30
0.0
 10
87.293551953003
 20
-132.5093966682616
 30
0.0
 10
85.85040145423184
 20
-132.5903564121649
 30
0.0
 10
85.99302840732119
 20
-132.3943304790542
 30
0.0
 10
86.08053383264654
 20
-132.1504177186985
 30
0.0
 10
86.08053383264654
 20
-131.887556933174
 30
0.0
 10
86.08053383264654
 20
-131.2257540904575
 30
0.0
 10
85.54275442739903
 20
-130.6903862520496
 30
0.0
 10
84.88164060377959
 20
-130.6903862520496
 30
0.0
 10
84.218459722869
 20
-130.6903862520496
 30
0.0
 10
83.68274737491265
 20
-131.2257540904575
 30
0.0
 10
83.68274737491265
 20
-131.887556933174
 30
0.0
 10
83.68274737491265
 20
-132.391574402666
 30
0.0
 10
83.92493758752572
 20
-132.7464192376467
 30
0.0
 10
84.33249238343078
 20
-132.9546752597301
 30
0.0
 10
84.33249238343078
 20
-132.9546752597301
 30
0.0
 10
73.46648896817852
 20
-132.9546752597301
 30
0.0
 10
73.46648896817852
 20
-132.9546752597301
 30
0.0
 10
73.46648896817852
 20
-132.9546752597301
 30
0.0
 10
73.46648896817852
 20
-134.56629092773
 30
0.0
 10
73.46648896817852
 20
-134.56629092773
 30
0.0
 10
73.46648896817852
 20
-134.56629092773
 30
0.0
 10
142.37546111892
 20
-134.56629092773
 30
0.0
 10
142.37546111892
 20
-134.56629092773
 30
0.0
 10
142.37546111892
 20
-134.56629092773
 30
0.0
 10
142.37546111892
 20
-132.9546752597301
 30
0.0
 10
142.37546111892
 20
-132.9546752597301
 30
0.0
 10
142.37546111892
 20
-132.9546752597301
 30
0.0
 10
131.508940939345
 20
-132.9546752597301
 30
0.0
 10
131.508940939345
 20
-132.9546752597301
 30
0.0
  0
SPLINE
  5
41
330
3C
100
AcDbEntity
  8
Layer 1
370
     0
100
AcDbSpline
210
0.0
220
0.0
230
1.0
 70
    11
 71
     3
 72
    14
 73
    10
 74
     0
 42
0.0000000001
 43
0.0000000001
 40
0.0
 40
0.0
 40
0.0
 40
0.0
 40
1.0
 40
1.0
 40
1.0
 40
2.0
 40
2.0
 40
2.0
 40
3.0
 40
3.0
 40
3.0
 40
3.0
 10
120.1542507295101
 20
-116.4566297451914
 30
0.0
 10
120.2007595185609
 20
-116.4593858215796
 30
0.0
 10
120.1973144230757
 20
-116.4693765984868
 30
0.0
 10
120.1497721053792
 20
-116.4831569804278
 30
0.0
 10
117.5693955869271
 20
-117.2259195670477
 30
0.0
 10
114.5439127317807
 20
-118.3228379695512
 30
0.0
 10
112.6332627756611
 20
-120.4560410940179
 30
0.0
 10
113.9241400539842
 20
-117.9735052873469
 30
0.0
 10
117.3592447623269
 20
-116.2912651618994
 30
0.0
 10
120.1542507295101
 20
-116.4566297451914
 30
0.0
  0
SPLINE
  5
42
330
3C
100
AcDbEntity
  8
Layer 1
370
     0
100
AcDbSpline
210
0.0
220
0.0
230
1.0
 70
    11
 71
     3
 72
    14
 73
    10
 74
     0
 42
0.0000000001
 43
0.0000000001
 40
0.0
 40
0.0
 40
0.0
 40
0.0
 40
1.0
 40
1.0
 40
1.0
 40
2.0
 40
2.0
 40
2.0
 40
3.0
 40
3.0
 40
3.0
 40
3.0
 10
118.0341389678873
 20
-122.2437011413141
 30
0.0
 10
118.0482638593768
 20
-122.3856390753064
 30
0.0
 10
117.9927978220643
 20
-122.3281059807027
 30
0.0
 10
117.9483560903046
 20
-122.2492132940905
 30
0.0
 10
117.1394476703679
 20
-120.8122639671928
 30
0.0
 10
113.9761609958115
 20
-120.3892062416041
 30
0.0
 10
112.3783257097526
 20
-121.9736056552705
 30
0.0
 10
113.3233154013567
 20
-119.8655517278461
 30
0.0
 10
117.7860920929493
 20
-119.7243028129509
 30
0.0
 10
118.0341389678873
 20
-122.2437011413141
 30
0.0
  0
SPLINE
  5
43
330
3C
100
AcDbEntity
  8
Layer 1
370
     0
100
AcDbSpline
210
0.0
220
0.0
230
1.0
 70
    11
 71
     3
 72
    14
 73
    10
 74
     0
 42
0.0000000001
 43
0.0000000001
 40
0.0
 40
0.0
 40
0.0
 40
0.0
 40
1.0
 40
1.0
 40
1.0
 40
2.0
 40
2.0
 40
2.0
 40
3.0
 40
3.0
 40
3.0
 40
3.0
 10
95.69235023649358
 20
-116.4831569804278
 30
0.0
 10
95.64446340924862
 20
-116.4693765984868
 30
0.0
 10
95.64101831376335
 20
-116.4593858215796
 30
0.0
 10
95.68752710281423
 20
-116.4566297451914
 30
0.0
 10
98.48287757954596
 20
-116.2912651618994
 30
0.0
 10
101.91763777834
 20
-117.9735052873469
 30
0.0
 10
103.2088595662117
 20
-120.4560410940179
 30
0.0
 10
101.2978651005436
 20
-118.3228379695512
 30
0.0
 10
98.27238224539718
 20
-117.2259195670477
 30
0.0
 10
95.69235023649358
 20
-116.4831569804278
 30
0.0
  0
SPLINE
  5
44
330
3C
100
AcDbEntity
  8
Layer 1
370
     0
100
AcDbSpline
210
0.0
220
0.0
230
1.0
 70
    11
 71
     3
 72
    14
 73
    10
 74
     0
 42
0.0000000001
 43
0.0000000001
 40
0.0
 40
0.0
 40
0.0
 40
0.0
 40
1.0
 40
1.0
 40
1.0
 40
2.0
 40
2.0
 40
2.0
 40
3.0
 40
3.0
 40
3.0
 40
3.0
 10
97.89342174201971
 20
-122.2492132940905
 30
0.0
 10
97.84898001025998
 20
-122.3281059807027
 30
0.0
 10
97.79385848249598
 20
-122.3856390753064
 30
0.0
 10
97.80763886443698
 20
-122.2437011413141
 30
0.0
 10
98.05568573937497
 20
-119.7243028129509
 30
0.0
 10
102.5184624309676
 20
-119.8655517278461
 30
0.0
 10
103.4637966321202
 20
-121.9736056552705
 30
0.0
 10
101.8659613460613
 20
-120.3892062416041
 30
0.0
 10
98.7026746715049
 20
-120.8122639671928
 30
0.0
 10
97.89342174201971
 20
-122.2492132940905
 30
0.0
  0
SPLINE
  5
45
330
3C
100
AcDbEntity
  8
Layer 1
370
     0
100
AcDbSpline
210
0.0
220
0.0
230
1.0
 70
    11
 71
     3
 72
    14
 73
    10
 74
     0
 42
0.0000000001
 43
0.0000000001
 40
0.0
 40
0.0
 40
0.0
 40
0.0
 40
1.0
 40
1.0
 40
1.0
 40
2.0
 40
2.0
 40
2.0
 40
3.0
 40
3.0
 40
3.0
 40
3.0
 10
128.7842149200609
 20
-132.881811490217
 30
0.0
 10
128.8672417212554
 20
-132.908683235002
 30
0.0
 10
128.9485459747073
 20
-132.9314208652046
 30
0.0
 10
129.0298502281592
 20
-132.9546752597301
 30
0.0
 10
129.0298502281592
 20
-132.9546752597301
 30
0.0
 10
113.1097194812712
 20
-132.9546752597301
 30
0.0
 10
113.1097194812712
 20
-132.9546752597301
 30
0.0
 10
116.230631481359
 20
-128.6975707686069
 30
0.0
 10
127.6859184793633
 20
-132.5255886170422
 30
0.0
 10
128.7842149200609
 20
-132.881811490217
 30
0.0
  0
SPLINE
  5
46
330
3C
100
AcDbEntity
  8
Layer 1
370
     0
100
AcDbSpline
210
0.0
220
0.0
230
1.0
 70
    11
 71
     3
 72
    14
 73
    10
 74
     0
 42
0.0000000001
 43
0.0000000001
 40
0.0
 40
0.0
 40
0.0
 40
0.0
 40
1.0
 40
1.0
 40
1.0
 40
2.0
 40
2.0
 40
2.0
 40
3.0
 40
3.0
 40
3.0
 40
3.0
 10
87.05859644090897
 20
-132.881811490217
 30
0.0
 10
88.15792641025219
 20
-132.5255886170422
 30
0.0
 10
99.6114908605138
 20
-128.6975707686069
 30
0.0
 10
102.7320583510531
 20
-132.9546752597301
 30
0.0
 10
102.7320583510531
 20
-132.9546752597301
 30
0.0
 10
86.81261662326213
 20
-132.9546752597301
 30
0.0
 10
86.81261662326213
 20
-132.9546752597301
 30
0.0
 10
86.89426538626255
 20
-132.9314208652046
 30
0.0
 10
86.97556963971445
 20
-132.908683235002
 30
0.0
 10
87.05859644090897
 20
-132.881811490217
 30
0.0
  0
HATCH
  5
47
330
3C
100
AcDbEntity
  8
Layer 1
 62
   250
420
  2301728
100
AcDbHatch
 10
0.0
 20
0.0
 30
0.0
210
0.0
220
0.0
230
1.0
  2
SOLID
 70
     1
 71
     0
 91
        7
 92
        1
 93
        1
 72
     4
 94
        3
 73
     0
 74
     1
 95
      209
 96
      205
 40
0.0
 40
0.0
 40
0.0
 40
0.0
 40
1.0
 40
1.0
 40
1.0
 40
2.0
 40
2.0
 40
2.0
 40
3.0
 40
3.0
 40
3.0
 40
4.0
 40
4.0
 40
4.0
 40
5.0
 40
5.0
 40
5.0
 40
6.0
 40
6.0
 40
6.0
 40
7.0
 40
7.0
 40
7.0
 40
8.0
 40
8.0
 40
8.0
 40
9.0
 40
9.0
 40
9.0
 40
10.0
 40
10.0
 40
10.0
 40
11.0
 40
11.0
 40
11.0
 40
12.0
 40
12.0
 40
12.0
 40
13.0
 40
13.0
 40
13.0
 40
14.0
 40
14.0
 40
14.0
 40
15.0
 40
15.0
 40
15.0
 40
16.0
 40
16.0
 40
16.0
 40
17.0
 40
17.0
 40
17.0
 40
18.0
 40
18.0
 40
18.0
 40
19.0
 40
19.0
 40
19.0
 40
20.0
 40
20.0
 40
20.0
 40
21.0
 40
21.0
 40
21.0
 40
22.0
 40
22.0
 40
22.0
 40
23.0
 40
23.0
 40
23.0
 40
24.0
 40
24.0
 40
24.0
 40
25.0
 40
25.0
 40
25.0
 40
26.0
 40
26.0
 40
26.0
 40
27.0
 40
27.0
 40
27.0
 40
28.0
 40
28.0
 40
28.0
 40
29.0
 40
29.0
 40
29.0
 40
30.0
 40
30.0
 40
30.0
 40
31.0
 40
31.0
 40
31.0
 40
32.0
 40
32.0
 40
32.0
 40
33.0
 40
33.0
 40
33.0
 40
34.0
 40
34.0
 40
34.0
 40
35.0
 40
35.0
 40
35.0
 40
36.0
 40
36.0
 40
36.0
 40
37.0
 40
37.0
 40
37.0
 40
38.0
 40
38.0
 40
38.0
 40
39.0
 40
39.0
 40
39.0
 40
40.0
 40
40.0
 40
40.0
 40
41.0
 40
41.0
 40
41.0
 40
42.0
 40
42.0
 40
42.0
 40
43.0
 40
43.0
 40
43.0
 40
44.0
 40
44.0
 40
44.0
 40
45.0
 40
45.0
 40
45.0
 40
46.0
 40
46.0
 40
46.0
 40
47.0
 40
47.0
 40
47.0
 40
48.0
 40
48.0
 40
48.0
 40
49.0
 40
49.0
 40
49.0
 40
50.0
 40
50.0
 40
50.0
 40
51.0
 40
51.0
 40
51.0
 40
52.0
 40
52.0
 40
52.0
 40
53.0
 40
53.0
 40
53.0
 40
54.0
 40
54.0
 40
54.0
 40
55.0
 40
55.0
 40
55.0
 40
56.0
 40
56.0
 40
56.0
 40
57.0
 40
57.0
 40
57.0
 40
58.0
 40
58.0
 40
58.0
 40
59.0
 40
59.0
 40
59.0
 40
60.0
 40
60.0
 40
60.0
 40
61.0
 40
61.0
 40
61.0
 40
62.0
 40
62.0
 40
62.0
 40
63.0
 40
63.0
 40
63.0
 40
64.0
 40
64.0
 40
64.0
 40
65.0
 40
65.0
 40
65.0
 40
66.0
 40
66.0
 40
66.0
 40
67.0
 40
67.0
 40
67.0
 40
68.0
 40
68.0
 40
68.0
 40
68.0
 10
131.508940939345
 20
-132.9546752597301
 10
131.91649573525
 20
-132.7464192376467
 10
132.1590304574116
 20
-132.391574402666
 10
132.1590304574116
 20
-131.887556933174
 10
132.1590304574116
 20
-131.2257540904575
 10
131.6229735999068
 20
-130.6903862520496
 10
130.9591036998991
 20
-130.6903862520496
 10
130.2997124240223
 20
-130.6903862520496
 10
129.7619330187748
 20
-131.2257540904575
 10
129.7619330187748
 20
-131.887556933174
 10
129.7619330187748
 20
-132.1504177186985
 10
129.8487494250031
 20
-132.3943304790542
 10
129.992409906738
 20
-132.5903564121649
 10
128.5492594079668
 20
-132.5093966682616
 10
125.9840413096498
 20
-130.7951171548012
 10
123.2586262712687
 20
-129.9552028754973
 10
120.3309841279034
 20
-129.053965896556
 10
116.0845594327844
 20
-128.2974229279951
 10
113.2096272503434
 20
-129.8659749024293
 10
112.2611924632541
 20
-130.3837727538624
 10
112.0910047462828
 20
-131.2567599498247
 10
112.7555636653875
 20
-131.7879936736502
 10
112.5430012739476
 20
-131.9547362951363
 10
112.3376735830267
 20
-132.1586859478631
 10
112.1512939172747
 20
-132.3898518549234
 10
112.045184976329
 20
-132.3888183262778
 10
111.900835475497
 20
-132.3877847976322
 10
111.7278916821375
 20
-132.3869235237609
 10
111.7278916821375
 20
-132.3869235237609
 10
111.7278916821375
 20
-126.3940076723946
 10
111.7278916821375
 20
-126.3940076723946
 10
111.8453694381845
 20
-125.1604912339009
 10
112.1592176368908
 20
-123.9771009347175
 10
113.0056775976166
 20
-122.9964545048412
 10
114.624183456587
 20
-121.4813015104283
 10
117.3902506216941
 20
-121.2349771832329
 10
118.0086452612965
 20
-124.1574516833704
 10
118.0703124704824
 20
-124.4568304810386
 10
118.0830593237778
 20
-124.7065999037192
 10
118.0499864071194
 20
-125.0152804591976
 10
118.0289713246594
 20
-125.227498341089
 10
118.1144096926936
 20
-125.3353298297773
 10
118.4055202611972
 20
-125.1889132716542
 10
119.9027587590868
 20
-124.4406385322579
 10
120.0622666800539
 20
-123.3747259891216
 10
120.2207410723754
 20
-121.9901421135997
 10
120.4708550046045
 20
-122.0828151821529
 10
120.7357828474202
 20
-122.166875511993
 10
120.9741834549995
 20
-122.0524983418827
 10
121.2139621007729
 20
-120.8970133161299
 10
120.2937770966627
 20
-119.6051025091612
 10
120.2937770966627
 20
-119.6051025091612
 10
121.4458170269302
 20
-119.7208577174656
 10
123.4928927642657
 20
-121.9567246873928
 10
122.0452636413637
 20
-124.5853325426384
 10
121.9491454773252
 20
-124.4220350166376
 10
121.8389024217972
 20
-124.2611490574764
 10
121.704888207421
 20
-124.1288573908428
 10
120.2627712372954
 20
-122.7105115795654
 10
118.3059570016735
 20
-126.0567328243886
 10
120.0336723875263
 20
-126.9948323250221
 10
121.3569335634108
 20
-127.7124457145997
 10
123.0419297652465
 20
-126.454641352935
 10
123.5986571956628
 20
-124.9043483845725
 10
124.9432779635559
 20
-121.1609076303001
 10
122.2161403774321
 20
-118.4203341717838
 10
120.4033311330936
 20
-117.8150308950254
 10
121.8909233636245
 20
-117.7078884254341
 10
122.4483398131379
 20
-116.4459499491871
 10
123.7678113839886
 20
-115.8530490161756
 10
124.1557291356277
 20
-115.6780381655249
 10
124.0578884238466
 20
-115.3738362341774
 10
123.7326714100391
 20
-115.5519476707648
 10
122.7911268139203
 20
-116.0690565031008
 10
121.9315754903504
 20
-115.0865152707075
 10
121.0926947396921
 20
-114.9280408783861
 10
119.9313530516144
 20
-114.5973117118021
 10
118.9405435900565
 20
-114.5621717378525
 10
117.7902262075316
 20
-115.1089083913617
 10
117.6637912032229
 20
-114.7898925494275
 10
117.9028808298993
 20
-114.397151664109
 10
117.8388020538736
 20
-114.1225775539346
 10
115.9526122756994
 20
-114.2236911064267
 10
113.3329616687154
 20
-116.1579399666202
 10
111.7278916821375
 20
-119.4176893147636
 10
111.7278916821375
 20
-119.4176893147636
 10
111.7278916821375
 20
-119.0320108751899
 10
111.7278916821375
 20
-119.0320108751899
 10
111.7278916821375
 20
-116.386177542518
 10
112.1688639042495
 20
-112.4174275435102
 10
116.9313639030588
 20
-111.8882608769759
 10
116.9313639030588
 20
-111.8882608769759
 10
116.9313639030588
 20
-108.8896497666144
 10
116.9313639030588
 20
-108.8896497666144
 10
116.9313639030588
 20
-108.8896497666144
 10
98.85150279646768
 20
-108.8896497666144
 10
98.85150279646768
 20
-108.8896497666144
 10
98.85150279646768
 20
-108.8896497666144
 10
98.85150279646768
 20
-111.8882608769759
 10
98.85150279646768
 20
-111.8882608769759
 10
103.7021972396995
 20
-112.3292330990878
 10
104.1431694618114
 20
-116.4743719869404
 10
104.1431694618114
 20
-119.0320108751899
 10
104.1431694618114
 20
-119.0320108751899
 10
104.1431694618114
 20
-119.4784952500783
 10
104.1431694618114
 20
-119.4784952500783
 10
102.5412000611703
 20
-116.182055635017
 10
99.90087888127478
 20
-114.2243801255238
 10
98.00332028799917
 20
-114.1225775539346
 10
97.93855249287648
 20
-114.397151664109
 10
98.17833113864987
 20
-114.7898925494275
 10
98.05155162479267
 20
-115.1089083913617
 10
96.90088973271922
 20
-114.5621717378525
 10
95.91076929025843
 20
-114.5973117118021
 10
94.74908309263218
 20
-114.9280408783861
 10
93.91054685152237
 20
-115.0865152707075
 10
93.05065101840401
 20
-116.0690565031008
 10
92.1087619127367
 20
-115.5519476707648
 10
91.78423391802617
 20
-115.3738362341774
 10
91.68604869669655
 20
-115.6780381655249
 10
92.07362193878716
 20
-115.8530490161756
 10
93.39343801918636
 20
-116.4459499491871
 10
93.95050995915126
 20
-117.7078884254341
 10
95.4387912087792
 20
-117.8150308950254
 10
93.62598196444073
 20
-118.4203341717838
 10
90.89815535921991
 20
-121.1609076303001
 10
92.24312063666144
 20
-124.9043483845725
 10
92.79984806707782
 20
-126.454641352935
 10
94.48518877846205
 20
-127.7124457145997
 10
95.80810544479797
 20
-126.9948323250221
 10
97.53582083065078
 20
-126.0567328243886
 10
95.57900659502886
 20
-122.7105115795654
 10
94.13688962490328
 20
-124.1288573908428
 10
94.00287541052707
 20
-124.2611490574764
 10
93.89263235499907
 20
-124.4220350166376
 10
93.79685870050912
 20
-124.5853325426384
 10
92.34888506805862
 20
-121.9567246873928
 10
94.3963053149426
 20
-119.7208577174656
 10
95.54765622611309
 20
-119.6051025091612
 10
95.54765622611309
 20
-119.6051025091612
 10
94.62781573155138
 20
-120.8970133161299
 10
94.86759437732478
 20
-122.0524983418827
 10
95.10599498490406
 20
-122.166875511993
 10
95.37126733726829
 20
-122.0828151821529
 10
95.62069225040038
 20
-121.9901421135997
 10
95.7795111522704
 20
-123.3747259891216
 10
95.93901907323747
 20
-124.4406385322579
 10
97.43625757112706
 20
-125.1889132716542
 10
97.72702363008214
 20
-125.3353298297773
 10
97.81315101721339
 20
-125.227498341089
 10
97.79179142520483
 20
-125.0152804591976
 10
97.75871850854644
 20
-124.7065999037192
 10
97.77112085229334
 20
-124.4568304810386
 10
97.83313257102783
 20
-124.1574516833704
 10
98.45118270108165
 20
-121.2349771832329
 10
101.2175943757373
 20
-121.4813015104283
 10
102.8361002347076
 20
-122.9964545048412
 10
103.7652424870795
 20
-124.0727023344332
 10
104.0529079600979
 20
-125.3932074339295
 10
104.1431694618114
 20
-126.7564317174428
 10
104.1431694618114
 20
-126.7564317174428
 10
104.1431694618114
 20
-132.3867512689866
 10
104.1431694618114
 20
-132.3867512689866
 10
103.9561007769624
 20
-132.3877847976322
 10
103.8017604992232
 20
-132.3888183262778
 10
103.6891058768555
 20
-132.3898518549234
 10
103.5041042492976
 20
-132.1586859478631
 10
103.2987765583767
 20
-131.9547362951363
 10
103.0872476955824
 20
-131.7879936736502
 10
103.7507730860415
 20
-131.2567599498247
 10
103.5816188977157
 20
-130.3837727538624
 10
102.6331841106264
 20
-129.8659749024293
 10
99.75721839953987
 20
-128.2974229279951
 10
95.51148272351797
 20
-129.053965896556
 10
92.58418508970118
 20
-129.9552028754973
 10
89.85773652267446
 20
-130.7951171548012
 10
87.293551953003
 20
-132.5093966682616
 10
85.85040145423184
 20
-132.5903564121649
 10
85.99302840732119
 20
-132.3943304790542
 10
86.08053383264654
 20
-132.1504177186985
 10
86.08053383264654
 20
-131.887556933174
 10
86.08053383264654
 20
-131.2257540904575
 10
85.54275442739903
 20
-130.6903862520496
 10
84.88164060377959
 20
-130.6903862520496
 10
84.218459722869
 20
-130.6903862520496
 10
83.68274737491265
 20
-131.2257540904575
 10
83.68274737491265
 20
-131.887556933174
 10
83.68274737491265
 20
-132.391574402666
 10
83.92493758752572
 20
-132.7464192376467
 10
84.33249238343078
 20
-132.9546752597301
 10
84.33249238343078
 20
-132.9546752597301
 10
73.46648896817852
 20
-132.9546752597301
 10
73.46648896817852
 20
-132.9546752597301
 10
73.46648896817852
 20
-132.9546752597301
 10
73.46648896817852
 20
-134.56629092773
 10
73.46648896817852
 20
-134.56629092773
 10
73.46648896817852
 20
-134.56629092773
 10
142.37546111892
 20
-134.56629092773
 10
142.37546111892
 20
-134.56629092773
 10
142.37546111892
 20
-134.56629092773
 10
142.37546111892
 20
-132.9546752597301
 10
142.37546111892
 20
-132.9546752597301
 10
142.37546111892
 20
-132.9546752597301
 10
131.508940939345
 20
-132.9546752597301
 10
131.508940939345
 20
-132.9546752597301
 97
        0
 92
        1
 93
        1
 72
     4
 94
        3
 73
     0
 74
     1
 95
       14
 96
       10
 40
0.0
 40
0.0
 40
0.0
 40
0.0
 40
1.0
 40
1.0
 40
1.0
 40
2.0
 40
2.0
 40
2.0
 40
3.0
 40
3.0
 40
3.0
 40
3.0
 10
120.1542507295101
 20
-116.4566297451914
 10
120.2007595185609
 20
-116.4593858215796
 10
120.1973144230757
 20
-116.4693765984868
 10
120.1497721053792
 20
-116.4831569804278
 10
117.5693955869271
 20
-117.2259195670477
 10
114.5439127317807
 20
-118.3228379695512
 10
112.6332627756611
 20
-120.4560410940179
 10
113.9241400539842
 20
-117.9735052873469
 10
117.3592447623269
 20
-116.2912651618994
 10
120.1542507295101
 20
-116.4566297451914
 97
        0
 92
        1
 93
        1
 72
     4
 94
        3
 73
     0
 74
     1
 95
       14
 96
       10
 40
0.0
 40
0.0
 40
0.0
 40
0.0
 40
1.0
 40
1.0
 40
1.0
 40
2.0
 40
2.0
 40
2.0
 40
3.0
 40
3.0
 40
3.0
 40
3.0
 10
118.0341389678873
 20
-122.2437011413141
 10
118.0482638593768
 20
-122.3856390753064
 10
117.9927978220643
 20
-122.3281059807027
 10
117.9483560903046
 20
-122.2492132940905
 10
117.1394476703679
 20
-120.8122639671928
 10
113.9761609958115
 20
-120.3892062416041
 10
112.3783257097526
 20
-121.9736056552705
 10
113.3233154013567
 20
-119.8655517278461
 10
117.7860920929493
 20
-119.7243028129509
 10
118.0341389678873
 20
-122.2437011413141
 97
        0
 92
        1
 93
        1
 72
     4
 94
        3
 73
     0
 74
     1
 95
       14
 96
       10
 40
0.0
 40
0.0
 40
0.0
 40
0.0
 40
1.0
 40
1.0
 40
1.0
 40
2.0
 40
2.0
 40
2.0
 40
3.0
 40
3.0
 40
3.0
 40
3.0
 10
95.69235023649358
 20
-116.4831569804278
 10
95.64446340924862
 20
-116.4693765984868
 10
95.64101831376335
 20
-116.4593858215796
 10
95.68752710281423
 20
-116.4566297451914
 10
98.48287757954596
 20
-116.2912651618994
 10
101.91763777834
 20
-117.9735052873469
 10
103.2088595662117
 20
-120.4560410940179
 10
101.2978651005436
 20
-118.3228379695512
 10
98.27238224539718
 20
-117.2259195670477
 10
95.69235023649358
 20
-116.4831569804278
 97
        0
 92
        1
 93
        1
 72
     4
 94
        3
 73
     0
 74
     1
 95
       14
 96
       10
 40
0.0
 40
0.0
 40
0.0
 40
0.0
 40
1.0
 40
1.0
 40
1.0
 40
2.0
 40
2.0
 40
2.0
 40
3.0
 40
3.0
 40
3.0
 40
3.0
 10
97.89342174201971
 20
-122.2492132940905
 10
97.84898001025998
 20
-122.3281059807027
 10
97.79385848249598
 20
-122.3856390753064
 10
97.80763886443698
 20
-122.2437011413141
 10
98.05568573937497
 20
-119.7243028129509
 10
102.5184624309676
 20
-119.8655517278461
 10
103.4637966321202
 20
-121.9736056552705
 10
101.8659613460613
 20
-120.3892062416041
 10
98.7026746715049
 20
-120.8122639671928
 10
97.89342174201971
 20
-122.2492132940905
 97
        0
 92
        1
 93
        1
 72
     4
 94
        3
 73
     0
 74
     1
 95
       14
 96
       10
 40
0.0
 40
0.0
 40
0.0
 40
0.0
 40
1.0
 40
1.0
 40
1.0
 40
2.0
 40
2.0
 40
2.0
 40
3.0
 40
3.0
 40
3.0
 40
3.0
 10
128.7842149200609
 20
-132.881811490217
 10
128.8672417212554
 20
-132.908683235002
 10
128.9485459747073
 20
-132.9314208652046
 10
129.0298502281592
 20
-132.9546752597301
 10
129.0298502281592
 20
-132.9546752597301
 10
113.1097194812712
 20
-132.9546752597301
 10
113.1097194812712
 20
-132.9546752597301
 10
116.230631481359
 20
-128.6975707686069
 10
127.6859184793633
 20
-132.5255886170422
 10
128.7842149200609
 20
-132.881811490217
 97
        0
 92
        1
 93
        1
 72
     4
 94
        3
 73
     0
 74
     1
 95
       14
 96
       10
 40
0.0
 40
0.0
 40
0.0
 40
0.0
 40
1.0
 40
1.0
 40
1.0
 40
2.0
 40
2.0
 40
2.0
 40
3.0
 40
3.0
 40
3.0
 40
3.0
 10
87.05859644090897
 20
-132.881811490217
 10
88.15792641025219
 20
-132.5255886170422
 10
99.6114908605138
 20
-128.6975707686069
 10
102.7320583510531
 20
-132.9546752597301
 10
102.7320583510531
 20
-132.9546752597301
 10
86.81261662326213
 20
-132.9546752597301
 10
86.81261662326213
 20
-132.9546752597301
 10
86.89426538626255
 20
-132.9314208652046
 10
86.97556963971445
 20
-132.908683235002
 10
87.05859644090897
 20
-132.881811490217
 97
        0
 75
     2
 76
     1
 98
        0
  0
SPLINE
  5
48
330
3C
100
AcDbEntity
  8
Layer 1
370
     0
100
AcDbSpline
210
0.0
220
0.0
230
1.0
 70
    11
 71
     3
 72
   209
 73
   205
 74
     0
 42
0.0000000001
 43
0.0000000001
 40
0.0
 40
0.0
 40
0.0
 40
0.0
 40
1.0
 40
1.0
 40
1.0
 40
2.0
 40
2.0
 40
2.0
 40
3.0
 40
3.0
 40
3.0
 40
4.0
 40
4.0
 40
4.0
 40
5.0
 40
5.0
 40
5.0
 40
6.0
 40
6.0
 40
6.0
 40
7.0
 40
7.0
 40
7.0
 40
8.0
 40
8.0
 40
8.0
 40
9.0
 40
9.0
 40
9.0
 40
10.0
 40
10.0
 40
10.0
 40
11.0
 40
11.0
 40
11.0
 40
12.0
 40
12.0
 40
12.0
 40
13.0
 40
13.0
 40
13.0
 40
14.0
 40
14.0
 40
14.0
 40
15.0
 40
15.0
 40
15.0
 40
16.0
 40
16.0
 40
16.0
 40
17.0
 40
17.0
 40
17.0
 40
18.0
 40
18.0
 40
18.0
 40
19.0
 40
19.0
 40
19.0
 40
20.0
 40
20.0
 40
20.0
 40
21.0
 40
21.0
 40
21.0
 40
22.0
 40
22.0
 40
22.0
 40
23.0
 40
23.0
 40
23.0
 40
24.0
 40
24.0
 40
24.0
 40
25.0
 40
25.0
 40
25.0
 40
26.0
 40
26.0
 40
26.0
 40
27.0
 40
27.0
 40
27.0
 40
28.0
 40
28.0
 40
28.0
 40
29.0
 40
29.0
 40
29.0
 40
30.0
 40
30.0
 40
30.0
 40
31.0
 40
31.0
 40
31.0
 40
32.0
 40
32.0
 40
32.0
 40
33.0
 40
33.0
 40
33.0
 40
34.0
 40
34.0
 40
34.0
 40
35.0
 40
35.0
 40
35.0
 40
36.0
 40
36.0
 40
36.0
 40
37.0
 40
37.0
 40
37.0
 40
38.0
 40
38.0
 40
38.0
 40
39.0
 40
39.0
 40
39.0
 40
40.0
 40
40.0
 40
40.0
 40
41.0
 40
41.0
 40
41.0
 40
42.0
 40
42.0
 40
42.0
 40
43.0
 40
43.0
 40
43.0
 40
44.0
 40
44.0
 40
44.0
 40
45.0
 40
45.0
 40
45.0
 40
46.0
 40
46.0
 40
46.0
 40
47.0
 40
47.0
 40
47.0
 40
48.0
 40
48.0
 40
48.0
 40
49.0
 40
49.0
 40
49.0
 40
50.0
 40
50.0
 40
50.0
 40
51.0
 40
51.0
 40
51.0
 40
52.0
 40
52.0
 40
52.0
 40
53.0
 40
53.0
 40
53.0
 40
54.0
 40
54.0
 40
54.0
 40
55.0
 40
55.0
 40
55.0
 40
56.0
 40
56.0
 40
56.0
 40
57.0
 40
57.0
 40
57.0
 40
58.0
 40
58.0
 40
58.0
 40
59.0
 40
59.0
 40
59.0
 40
60.0
 40
60.0
 40
60.0
 40
61.0
 40
61.0
 40
61.0
 40
62.0
 40
62.0
 40
62.0
 40
63.0
 40
63.0
 40
63.0
 40
64.0
 40
64.0
 40
64.0
 40
65.0
 40
65.0
 40
65.0
 40
66.0
 40
66.0
 40
66.0
 40
67.0
 40
67.0
 40
67.0
 40
68.0
 40
68.0
 40
68.0
 40
68.0
 10
73.46648896817852
 20
-146.5605631144015
 30
0.0
 10
73.46648896817852
 20
-146.5605631144015
 30
0.0
 10
84.33249238343078
 20
-146.5605631144015
 30
0.0
 10
84.33249238343078
 20
-146.5605631144015
 30
0.0
 10
83.92493758752572
 20
-146.7689913912591
 30
0.0
 10
83.68274737491265
 20
-147.1238362262399
 30
0.0
 10
83.68274737491265
 20
-147.6278536957319
 30
0.0
 10
83.68274737491265
 20
-148.2896565384484
 30
0.0
 10
84.218459722869
 20
-148.8250243768562
 30
0.0
 10
84.88164060377959
 20
-148.8250243768562
 30
0.0
 10
85.54275442739903
 20
-148.8250243768562
 30
0.0
 10
86.08053383264654
 20
-148.2896565384484
 30
0.0
 10
86.08053383264654
 20
-147.6278536957319
 30
0.0
 10
86.08053383264654
 20
-147.3649929102074
 30
0.0
 10
85.99302840732119
 20
-147.1210801498517
 30
0.0
 10
85.85040145423184
 20
-146.925054216741
 30
0.0
 10
87.293551953003
 20
-147.0060139606443
 30
0.0
 10
89.85773652267446
 20
-148.7202934741047
 30
0.0
 10
92.58418508970118
 20
-149.5602077534086
 30
0.0
 10
94.94958764987372
 20
-150.2885009389904
 30
0.0
 10
98.17557506226167
 20
-150.9206759605337
 30
0.0
 10
100.8444905346847
 20
-150.3095160214504
 30
0.0
 10
100.9922851310019
 20
-150.6726290855957
 30
0.0
 10
100.966102405314
 20
-151.0571017417496
 30
0.0
 10
100.8579264070772
 20
-151.3712944500044
 30
0.0
 10
100.3521863898425
 20
-152.3248968803216
 30
0.0
 10
99.42855629024703
 20
-152.3414333386508
 30
0.0
 10
98.29443085650279
 20
-152.0299967067842
 30
0.0
 10
96.73897024491248
 20
-151.5997042806765
 30
0.0
 10
96.5074598283037
 20
-151.1883598797376
 30
0.0
 10
95.05259600488269
 20
-151.1842257651553
 30
0.0
 10
94.30638832277758
 20
-151.1825032174127
 30
0.0
 10
93.74035913455103
 20
-151.1163573840959
 30
0.0
 10
93.47680932992941
 20
-150.8896701011665
 30
0.0
 10
93.23220755047667
 20
-150.6802082956633
 30
0.0
 10
93.05478513298631
 20
-150.635422054355
 30
0.0
 10
93.2229057926665
 20
-151.0509005698762
 30
0.0
 10
93.98117130896999
 20
-152.93020015708
 30
0.0
 10
96.08509112181207
 20
-154.1249592713646
 30
0.0
 10
97.27364906422326
 20
-154.2717203390362
 30
0.0
 10
97.33221568747251
 20
-154.2789550395553
 30
0.0
 10
97.3294596110843
 20
-154.2913573833022
 30
0.0
 10
97.26882593054391
 20
-154.2982475742727
 30
0.0
 10
95.47772078776252
 20
-154.4980631124172
 30
0.0
 10
94.7756103278686
 20
-153.4331840979264
 30
0.0
 10
92.65928817127963
 20
-152.5391818195041
 30
0.0
 10
91.93926321486241
 20
-152.234635378608
 30
0.0
 10
90.96257864479408
 20
-151.8577419325217
 30
0.0
 10
89.72613387513792
 20
-152.3200737466422
 30
0.0
 10
89.64414060258896
 20
-152.3517686251065
 30
0.0
 10
89.4956569871747
 20
-152.4079236815161
 30
0.0
 10
89.7230332892012
 20
-152.5026638073604
 30
0.0
 10
90.5739718740579
 20
-152.8595756996323
 30
0.0
 10
91.20201278101895
 20
-153.6519476612398
 30
0.0
 10
91.87415091019119
 20
-154.37128359856
 30
0.0
 10
93.41583113984049
 20
-156.0183837500579
 30
0.0
 10
96.3076442901592
 20
-156.4548773480391
 30
0.0
 10
98.4725422930902
 20
-155.3266085766197
 30
0.0
 10
98.31682397715691
 20
-155.8929822743948
 30
0.0
 10
98.40880802661309
 20
-156.5875135242212
 30
0.0
 10
98.85012475827358
 20
-157.0346869182066
 30
0.0
 10
99.90466848630857
 20
-158.2401258284955
 30
0.0
 10
102.7616861722262
 20
-157.0122937975525
 30
0.0
 10
101.9613904910027
 20
-156.0018472917287
 30
0.0
 10
101.1796983253995
 20
-156.2268120269155
 30
0.0
 10
100.7528509947771
 20
-156.0759168446616
 30
0.0
 10
100.5413221319827
 20
-155.7479437544658
 30
0.0
 10
100.0879475661238
 20
-155.0392876131499
 30
0.0
 10
100.2605468499349
 20
-154.13770612466
 30
0.0
 10
101.2689262984675
 20
-152.7076469887328
 30
0.0
 10
101.9796494970745
 20
-151.6996120497487
 30
0.0
 10
102.1129746923537
 20
-150.7546223581447
 30
0.0
 10
101.848735868635
 20
-150.0022135041661
 30
0.0
 10
102.1184868451301
 20
-149.8992051491572
 30
0.0
 10
102.3827256688488
 20
-149.7862060172409
 30
0.0
 10
102.6331841106264
 20
-149.6494357264765
 30
0.0
 10
103.5816188977157
 20
-149.1316378750435
 30
0.0
 10
103.7507730860415
 20
-148.2586506790812
 30
0.0
 10
103.0872476955824
 20
-147.7274169552556
 30
0.0
 10
103.2987765583767
 20
-147.5606743337696
 30
0.0
 10
103.5041042492976
 20
-147.3567246810428
 30
0.0
 10
103.6891058768555
 20
-147.1255587739825
 30
0.0
 10
103.8017604992232
 20
-147.1265923026281
 30
0.0
 10
103.9561007769624
 20
-147.1276258312737
 30
0.0
 10
104.1431694618114
 20
-147.1286593599192
 30
0.0
 10
104.1431694618114
 20
-147.1286593599192
 30
0.0
 10
104.1431694618114
 20
-151.8405164550954
 30
0.0
 10
104.1431694618114
 20
-151.8405164550954
 30
0.0
 10
104.1431694618114
 20
-158.9842664533095
 30
0.0
 10
103.1730305731651
 20
-167.1863497845923
 30
0.0
 10
97.88136390782132
 20
-167.1863497845923
 30
0.0
 10
96.02928057495102
 20
-167.1863497845923
 30
0.0
 10
95.50011390841664
 20
-166.2162108959459
 30
0.0
 10
95.50011390841664
 20
-165.5106553405668
 30
0.0
 10
95.50011390841664
 20
-164.89329422961
 30
0.0
 10
95.67650279726143
 20
-165.2460720072996
 30
0.0
 10
95.67650279726143
 20
-163.9231553409637
 30
0.0
 10
95.67650279726143
 20
-161.541905341559
 30
0.0
 10
93.55983613112393
 20
-160.7481553417574
 30
0.0
 10
92.0605305759432
 20
-160.7481553417574
 30
0.0
 10
89.9438639098057
 20
-160.7481553417574
 30
0.0
 10
88.35636391020257
 20
-162.6002386746277
 30
0.0
 10
88.35636391020257
 20
-164.9814886740324
 30
0.0
 10
88.35636391020257
 20
-167.7155164511267
 30
0.0
 10
91.09039168729684
 20
-170.7141275614881
 30
0.0
 10
96.02928057495102
 20
-170.7141275614881
 30
0.0
 10
102.7320583510531
 20
-170.7141275614881
 30
0.0
 10
111.7278916821375
 20
-164.6287108963428
 30
0.0
 10
111.7278916821375
 20
-148.4891275670444
 30
0.0
 10
111.7278916821375
 20
-148.4891275670444
 30
0.0
 10
111.7278916821375
 20
-147.1283148503707
 30
0.0
 10
111.7278916821375
 20
-147.1283148503707
 30
0.0
 10
111.900835475497
 20
-147.1276258312737
 30
0.0
 10
112.045184976329
 20
-147.1265923026281
 30
0.0
 10
112.1512939172747
 20
-147.1255587739825
 30
0.0
 10
112.3376735830267
 20
-147.3567246810428
 30
0.0
 10
112.5430012739476
 20
-147.5606743337696
 30
0.0
 10
112.7555636653875
 20
-147.7274169552556
 30
0.0
 10
112.0910047462828
 20
-148.2586506790812
 30
0.0
 10
112.2611924632541
 20
-149.1316378750435
 30
0.0
 10
113.2096272503434
 20
-149.6494357264765
 30
0.0
 10
113.3391628405888
 20
-149.7200601839241
 30
0.0
 10
113.4742105836106
 20
-149.7806938644646
 30
0.0
 10
113.6089138170839
 20
-149.842016564102
 30
0.0
 10
113.3212483440655
 20
-150.648513417199
 30
0.0
 10
113.4618082398637
 20
-151.6627495280565
 30
0.0
 10
114.2248968898466
 20
-152.745198529522
 30
0.0
 10
115.3032117767298
 20
-154.2744764154244
 30
0.0
 10
115.4878688947392
 20
-155.2380696226488
 30
0.0
 10
115.002799450416
 20
-155.9956461198553
 30
0.0
 10
114.7768011865836
 20
-156.3467013498022
 30
0.0
 10
114.3206705443365
 20
-156.5079318185119
 30
0.0
 10
113.4848903796149
 20
-156.2674641536415
 30
0.0
 10
112.6287841515303
 20
-157.3478460978158
 30
0.0
 10
115.6835503183013
 20
-158.660427477696
 30
0.0
 10
116.8107855610751
 20
-157.3719617662126
 30
0.0
 10
117.2827636425543
 20
-156.8934380033114
 30
0.0
 10
117.3809488638839
 20
-156.15101992624
 30
0.0
 10
117.2145507519464
 20
-155.5453721399331
 30
0.0
 10
119.5293104084857
 20
-156.7518445788676
 30
0.0
 10
122.6212836064975
 20
-156.2846896310677
 30
0.0
 10
124.269417286641
 20
-154.5242458381051
 30
0.0
 10
124.9880642048641
 20
-153.7553005257973
 30
0.0
 10
125.6598578244878
 20
-152.9078070364258
 30
0.0
 10
126.5693630325938
 20
-152.5260904566601
 30
0.0
 10
126.8125867738524
 20
-152.4248046493938
 30
0.0
 10
126.6537678719824
 20
-152.3648599879505
 30
0.0
 10
126.5659179371085
 20
-152.3314425617435
 30
0.0
 10
125.2440347994182
 20
-151.8370713596102
 30
0.0
 10
124.1998263578389
 20
-152.2394585122874
 30
0.0
 10
123.4298475168856
 20
-152.5650200356435
 30
0.0
 10
121.167453311722
 20
-153.5210340328003
 30
0.0
 10
120.4167670054861
 20
-154.6592935811269
 30
0.0
 10
118.5016384252357
 20
-154.4456976610414
 30
0.0
 10
118.436870630113
 20
-154.4388074700709
 30
0.0
 10
118.4341145537248
 20
-154.4250270881299
 30
0.0
 10
118.4964707820078
 20
-154.4174478780623
 30
0.0
 10
119.7673665065165
 20
-154.261040543032
 30
0.0
 10
122.0166693488361
 20
-152.9835991371013
 30
0.0
 10
122.8273003165154
 20
-150.9740749405551
 30
0.0
 10
123.0071343008455
 20
-150.5300021325064
 30
0.0
 10
122.8176540491567
 20
-150.5778889597514
 30
0.0
 10
122.5558267922777
 20
-150.8014756567441
 30
0.0
 10
122.2740179815843
 20
-151.0440103789057
 30
0.0
 10
121.6690592143744
 20
-151.1149793459018
 30
0.0
 10
120.8711750999906
 20
-151.1167018936444
 30
0.0
 10
119.3153699788517
 20
-151.1211805177753
 30
0.0
 10
119.0680121230108
 20
-151.5607747016931
 30
0.0
 10
117.4054090418292
 20
-152.0210394585225
 30
0.0
 10
116.1927354310213
 20
-152.3541801919462
 30
0.0
 10
115.2053710649487
 20
-152.3366102049714
 30
0.0
 10
114.6644910737644
 20
-151.3168619413375
 30
0.0
 10
114.5525254704938
 20
-150.9919894370784
 30
0.0
 10
114.5222086302236
 20
-150.5968369849202
 30
0.0
 10
114.6627685260218
 20
-150.2202880483824
 30
0.0
 10
117.3926621885338
 20
-150.9702853355213
 30
0.0
 10
120.7922824133783
 20
-150.3195067983576
 30
0.0
 10
123.2586262712687
 20
-149.5602077534086
 30
0.0
 10
125.9840413096498
 20
-148.7202934741047
 30
0.0
 10
128.5492594079668
 20
-147.0060139606443
 30
0.0
 10
129.992409906738
 20
-146.925054216741
 30
0.0
 10
129.8487494250031
 20
-147.1210801498517
 30
0.0
 10
129.7619330187748
 20
-147.3649929102074
 30
0.0
 10
129.7619330187748
 20
-147.6278536957319
 30
0.0
 10
129.7619330187748
 20
-148.2896565384484
 30
0.0
 10
130.2997124240223
 20
-148.8250243768562
 30
0.0
 10
130.9591036998991
 20
-148.8250243768562
 30
0.0
 10
131.6229735999068
 20
-148.8250243768562
 30
0.0
 10
132.1590304574116
 20
-148.2896565384484
 30
0.0
 10
132.1590304574116
 20
-147.6278536957319
 30
0.0
 10
132.1590304574116
 20
-147.1238362262399
 30
0.0
 10
131.91649573525
 20
-146.7689913912591
 30
0.0
 10
131.508940939345
 20
-146.5605631144015
 30
0.0
 10
131.508940939345
 20
-146.5605631144015
 30
0.0
 10
142.37546111892
 20
-146.5605631144015
 30
0.0
 10
142.37546111892
 20
-146.5605631144015
 30
0.0
 10
142.37546111892
 20
-146.5605631144015
 30
0.0
 10
142.37546111892
 20
-144.9489474464017
 30
0.0
 10
142.37546111892
 20
-144.9489474464017
 30
0.0
 10
142.37546111892
 20
-144.9489474464017
 30
0.0
 10
73.46648896817852
 20
-144.9489474464017
 30
0.0
 10
73.46648896817852
 20
-144.9489474464017
 30
0.0
 10
73.46648896817852
 20
-144.9489474464017
 30
0.0
 10
73.46648896817852
 20
-146.5605631144015
 30
0.0
 10
73.46648896817852
 20
-146.5605631144015
 30
0.0
  0
SPLINE
  5
49
330
3C
100
AcDbEntity
  8
Layer 1
370
     0
100
AcDbSpline
210
0.0
220
0.0
230
1.0
 70
    11
 71
     3
 72
    14
 73
    10
 74
     0
 42
0.0000000001
 43
0.0000000001
 40
0.0
 40
0.0
 40
0.0
 40
0.0
 40
1.0
 40
1.0
 40
1.0
 40
2.0
 40
2.0
 40
2.0
 40
3.0
 40
3.0
 40
3.0
 40
3.0
 10
87.05859644090897
 20
-146.6335991386888
 30
0.0
 10
86.97556963971445
 20
-146.6067273939039
 30
0.0
 10
86.89426538626255
 20
-146.5839897637012
 30
0.0
 10
86.81261662326213
 20
-146.5605631144015
 30
0.0
 10
86.81261662326213
 20
-146.5605631144015
 30
0.0
 10
102.7320583510531
 20
-146.5605631144015
 30
0.0
 10
102.7320583510531
 20
-146.5605631144015
 30
0.0
 10
99.6114908605138
 20
-150.8180121150733
 30
0.0
 10
88.15792641025219
 20
-146.9898220118637
 30
0.0
 10
87.05859644090897
 20
-146.6335991386888
 30
0.0
  0
SPLINE
  5
4A
330
3C
100
AcDbEntity
  8
Layer 1
370
     0
100
AcDbSpline
210
0.0
220
0.0
230
1.0
 70
    11
 71
     3
 72
    14
 73
    10
 74
     0
 42
0.0000000001
 43
0.0000000001
 40
0.0
 40
0.0
 40
0.0
 40
0.0
 40
1.0
 40
1.0
 40
1.0
 40
2.0
 40
2.0
 40
2.0
 40
3.0
 40
3.0
 40
3.0
 40
3.0
 10
128.7842149200609
 20
-146.6335991386888
 30
0.0
 10
127.6859184793633
 20
-146.9898220118637
 30
0.0
 10
116.230631481359
 20
-150.8180121150733
 30
0.0
 10
113.1097194812712
 20
-146.5605631144015
 30
0.0
 10
113.1097194812712
 20
-146.5605631144015
 30
0.0
 10
129.0298502281592
 20
-146.5605631144015
 30
0.0
 10
129.0298502281592
 20
-146.5605631144015
 30
0.0
 10
128.9485459747073
 20
-146.5839897637012
 30
0.0
 10
128.8672417212554
 20
-146.6067273939039
 30
0.0
 10
128.7842149200609
 20
-146.6335991386888
 30
0.0
  0
HATCH
  5
4B
330
3C
100
AcDbEntity
  8
Layer 1
 62
   250
420
  2301728
100
AcDbHatch
 10
0.0
 20
0.0
 30
0.0
210
0.0
220
0.0
230
1.0
  2
SOLID
 70
     1
 71
     0
 91
        3
 92
        1
 93
        1
 72
     4
 94
        3
 73
     0
 74
     1
 95
      209
 96
      205
 40
0.0
 40
0.0
 40
0.0
 40
0.0
 40
1.0
 40
1.0
 40
1.0
 40
2.0
 40
2.0
 40
2.0
 40
3.0
 40
3.0
 40
3.0
 40
4.0
 40
4.0
 40
4.0
 40
5.0
 40
5.0
 40
5.0
 40
6.0
 40
6.0
 40
6.0
 40
7.0
 40
7.0
 40
7.0
 40
8.0
 40
8.0
 40
8.0
 40
9.0
 40
9.0
 40
9.0
 40
10.0
 40
10.0
 40
10.0
 40
11.0
 40
11.0
 40
11.0
 40
12.0
 40
12.0
 40
12.0
 40
13.0
 40
13.0
 40
13.0
 40
14.0
 40
14.0
 40
14.0
 40
15.0
 40
15.0
 40
15.0
 40
16.0
 40
16.0
 40
16.0
 40
17.0
 40
17.0
 40
17.0
 40
18.0
 40
18.0
 40
18.0
 40
19.0
 40
19.0
 40
19.0
 40
20.0
 40
20.0
 40
20.0
 40
21.0
 40
21.0
 40
21.0
 40
22.0
 40
22.0
 40
22.0
 40
23.0
 40
23.0
 40
23.0
 40
24.0
 40
24.0
 40
24.0
 40
25.0
 40
25.0
 40
25.0
 40
26.0
 40
26.0
 40
26.0
 40
27.0
 40
27.0
 40
27.0
 40
28.0
 40
28.0
 40
28.0
 40
29.0
 40
29.0
 40
29.0
 40
30.0
 40
30.0
 40
30.0
 40
31.0
 40
31.0
 40
31.0
 40
32.0
 40
32.0
 40
32.0
 40
33.0
 40
33.0
 40
33.0
 40
34.0
 40
34.0
 40
34.0
 40
35.0
 40
35.0
 40
35.0
 40
36.0
 40
36.0
 40
36.0
 40
37.0
 40
37.0
 40
37.0
 40
38.0
 40
38.0
 40
38.0
 40
39.0
 40
39.0
 40
39.0
 40
40.0
 40
40.0
 40
40.0
 40
41.0
 40
41.0
 40
41.0
 40
42.0
 40
42.0
 40
42.0
 40
43.0
 40
43.0
 40
43.0
 40
44.0
 40
44.0
 40
44.0
 40
45.0
 40
45.0
 40
45.0
 40
46.0
 40
46.0
 40
46.0
 40
47.0
 40
47.0
 40
47.0
 40
48.0
 40
48.0
 40
48.0
 40
49.0
 40
49.0
 40
49.0
 40
50.0
 40
50.0
 40
50.0
 40
51.0
 40
51.0
 40
51.0
 40
52.0
 40
52.0
 40
52.0
 40
53.0
 40
53.0
 40
53.0
 40
54.0
 40
54.0
 40
54.0
 40
55.0
 40
55.0
 40
55.0
 40
56.0
 40
56.0
 40
56.0
 40
57.0
 40
57.0
 40
57.0
 40
58.0
 40
58.0
 40
58.0
 40
59.0
 40
59.0
 40
59.0
 40
60.0
 40
60.0
 40
60.0
 40
61.0
 40
61.0
 40
61.0
 40
62.0
 40
62.0
 40
62.0
 40
63.0
 40
63.0
 40
63.0
 40
64.0
 40
64.0
 40
64.0
 40
65.0
 40
65.0
 40
65.0
 40
66.0
 40
66.0
 40
66.0
 40
67.0
 40
67.0
 40
67.0
 40
68.0
 40
68.0
 40
68.0
 40
68.0
 10
73.46648896817852
 20
-146.5605631144015
 10
73.46648896817852
 20
-146.5605631144015
 10
84.33249238343078
 20
-146.5605631144015
 10
84.33249238343078
 20
-146.5605631144015
 10
83.92493758752572
 20
-146.7689913912591
 10
83.68274737491265
 20
-147.1238362262399
 10
83.68274737491265
 20
-147.6278536957319
 10
83.68274737491265
 20
-148.2896565384484
 10
84.218459722869
 20
-148.8250243768562
 10
84.88164060377959
 20
-148.8250243768562
 10
85.54275442739903
 20
-148.8250243768562
 10
86.08053383264654
 20
-148.2896565384484
 10
86.08053383264654
 20
-147.6278536957319
 10
86.08053383264654
 20
-147.3649929102074
 10
85.99302840732119
 20
-147.1210801498517
 10
85.85040145423184
 20
-146.925054216741
 10
87.293551953003
 20
-147.0060139606443
 10
89.85773652267446
 20
-148.7202934741047
 10
92.58418508970118
 20
-149.5602077534086
 10
94.94958764987372
 20
-150.2885009389904
 10
98.17557506226167
 20
-150.9206759605337
 10
100.8444905346847
 20
-150.3095160214504
 10
100.9922851310019
 20
-150.6726290855957
 10
100.966102405314
 20
-151.0571017417496
 10
100.8579264070772
 20
-151.3712944500044
 10
100.3521863898425
 20
-152.3248968803216
 10
99.42855629024703
 20
-152.3414333386508
 10
98.29443085650279
 20
-152.0299967067842
 10
96.73897024491248
 20
-151.5997042806765
 10
96.5074598283037
 20
-151.1883598797376
 10
95.05259600488269
 20
-151.1842257651553
 10
94.30638832277758
 20
-151.1825032174127
 10
93.74035913455103
 20
-151.1163573840959
 10
93.47680932992941
 20
-150.8896701011665
 10
93.23220755047667
 20
-150.6802082956633
 10
93.05478513298631
 20
-150.635422054355
 10
93.2229057926665
 20
-151.0509005698762
 10
93.98117130896999
 20
-152.93020015708
 10
96.08509112181207
 20
-154.1249592713646
 10
97.27364906422326
 20
-154.2717203390362
 10
97.33221568747251
 20
-154.2789550395553
 10
97.3294596110843
 20
-154.2913573833022
 10
97.26882593054391
 20
-154.2982475742727
 10
95.47772078776252
 20
-154.4980631124172
 10
94.7756103278686
 20
-153.4331840979264
 10
92.65928817127963
 20
-152.5391818195041
 10
91.93926321486241
 20
-152.234635378608
 10
90.96257864479408
 20
-151.8577419325217
 10
89.72613387513792
 20
-152.3200737466422
 10
89.64414060258896
 20
-152.3517686251065
 10
89.4956569871747
 20
-152.4079236815161
 10
89.7230332892012
 20
-152.5026638073604
 10
90.5739718740579
 20
-152.8595756996323
 10
91.20201278101895
 20
-153.6519476612398
 10
91.87415091019119
 20
-154.37128359856
 10
93.41583113984049
 20
-156.0183837500579
 10
96.3076442901592
 20
-156.4548773480391
 10
98.4725422930902
 20
-155.3266085766197
 10
98.31682397715691
 20
-155.8929822743948
 10
98.40880802661309
 20
-156.5875135242212
 10
98.85012475827358
 20
-157.0346869182066
 10
99.90466848630857
 20
-158.2401258284955
 10
102.7616861722262
 20
-157.0122937975525
 10
101.9613904910027
 20
-156.0018472917287
 10
101.1796983253995
 20
-156.2268120269155
 10
100.7528509947771
 20
-156.0759168446616
 10
100.5413221319827
 20
-155.7479437544658
 10
100.0879475661238
 20
-155.0392876131499
 10
100.2605468499349
 20
-154.13770612466
 10
101.2689262984675
 20
-152.7076469887328
 10
101.9796494970745
 20
-151.6996120497487
 10
102.1129746923537
 20
-150.7546223581447
 10
101.848735868635
 20
-150.0022135041661
 10
102.1184868451301
 20
-149.8992051491572
 10
102.3827256688488
 20
-149.7862060172409
 10
102.6331841106264
 20
-149.6494357264765
 10
103.5816188977157
 20
-149.1316378750435
 10
103.7507730860415
 20
-148.2586506790812
 10
103.0872476955824
 20
-147.7274169552556
 10
103.2987765583767
 20
-147.5606743337696
 10
103.5041042492976
 20
-147.3567246810428
 10
103.6891058768555
 20
-147.1255587739825
 10
103.8017604992232
 20
-147.1265923026281
 10
103.9561007769624
 20
-147.1276258312737
 10
104.1431694618114
 20
-147.1286593599192
 10
104.1431694618114
 20
-147.1286593599192
 10
104.1431694618114
 20
-151.8405164550954
 10
104.1431694618114
 20
-151.8405164550954
 10
104.1431694618114
 20
-158.9842664533095
 10
103.1730305731651
 20
-167.1863497845923
 10
97.88136390782132
 20
-167.1863497845923
 10
96.02928057495102
 20
-167.1863497845923
 10
95.50011390841664
 20
-166.2162108959459
 10
95.50011390841664
 20
-165.5106553405668
 10
95.50011390841664
 20
-164.89329422961
 10
95.67650279726143
 20
-165.2460720072996
 10
95.67650279726143
 20
-163.9231553409637
 10
95.67650279726143
 20
-161.541905341559
 10
93.55983613112393
 20
-160.7481553417574
 10
92.0605305759432
 20
-160.7481553417574
 10
89.9438639098057
 20
-160.7481553417574
 10
88.35636391020257
 20
-162.6002386746277
 10
88.35636391020257
 20
-164.9814886740324
 10
88.35636391020257
 20
-167.7155164511267
 10
91.09039168729684
 20
-170.7141275614881
 10
96.02928057495102
 20
-170.7141275614881
 10
102.7320583510531
 20
-170.7141275614881
 10
111.7278916821375
 20
-164.6287108963428
 10
111.7278916821375
 20
-148.4891275670444
 10
111.7278916821375
 20
-148.4891275670444
 10
111.7278916821375
 20
-147.1283148503707
 10
111.7278916821375
 20
-147.1283148503707
 10
111.900835475497
 20
-147.1276258312737
 10
112.045184976329
 20
-147.1265923026281
 10
112.1512939172747
 20
-147.1255587739825
 10
112.3376735830267
 20
-147.3567246810428
 10
112.5430012739476
 20
-147.5606743337696
 10
112.7555636653875
 20
-147.7274169552556
 10
112.0910047462828
 20
-148.2586506790812
 10
112.2611924632541
 20
-149.1316378750435
 10
113.2096272503434
 20
-149.6494357264765
 10
113.3391628405888
 20
-149.7200601839241
 10
113.4742105836106
 20
-149.7806938644646
 10
113.6089138170839
 20
-149.842016564102
 10
113.3212483440655
 20
-150.648513417199
 10
113.4618082398637
 20
-151.6627495280565
 10
114.2248968898466
 20
-152.745198529522
 10
115.3032117767298
 20
-154.2744764154244
 10
115.4878688947392
 20
-155.2380696226488
 10
115.002799450416
 20
-155.9956461198553
 10
114.7768011865836
 20
-156.3467013498022
 10
114.3206705443365
 20
-156.5079318185119
 10
113.4848903796149
 20
-156.2674641536415
 10
112.6287841515303
 20
-157.3478460978158
 10
115.6835503183013
 20
-158.660427477696
 10
116.8107855610751
 20
-157.3719617662126
 10
117.2827636425543
 20
-156.8934380033114
 10
117.3809488638839
 20
-156.15101992624
 10
117.2145507519464
 20
-155.5453721399331
 10
119.5293104084857
 20
-156.7518445788676
 10
122.6212836064975
 20
-156.2846896310677
 10
124.269417286641
 20
-154.5242458381051
 10
124.9880642048641
 20
-153.7553005257973
 10
125.6598578244878
 20
-152.9078070364258
 10
126.5693630325938
 20
-152.5260904566601
 10
126.8125867738524
 20
-152.4248046493938
 10
126.6537678719824
 20
-152.3648599879505
 10
126.5659179371085
 20
-152.3314425617435
 10
125.2440347994182
 20
-151.8370713596102
 10
124.1998263578389
 20
-152.2394585122874
 10
123.4298475168856
 20
-152.5650200356435
 10
121.167453311722
 20
-153.5210340328003
 10
120.4167670054861
 20
-154.6592935811269
 10
118.5016384252357
 20
-154.4456976610414
 10
118.436870630113
 20
-154.4388074700709
 10
118.4341145537248
 20
-154.4250270881299
 10
118.4964707820078
 20
-154.4174478780623
 10
119.7673665065165
 20
-154.261040543032
 10
122.0166693488361
 20
-152.9835991371013
 10
122.8273003165154
 20
-150.9740749405551
 10
123.0071343008455
 20
-150.5300021325064
 10
122.8176540491567
 20
-150.5778889597514
 10
122.5558267922777
 20
-150.8014756567441
 10
122.2740179815843
 20
-151.0440103789057
 10
121.6690592143744
 20
-151.1149793459018
 10
120.8711750999906
 20
-151.1167018936444
 10
119.3153699788517
 20
-151.1211805177753
 10
119.0680121230108
 20
-151.5607747016931
 10
117.4054090418292
 20
-152.0210394585225
 10
116.1927354310213
 20
-152.3541801919462
 10
115.2053710649487
 20
-152.3366102049714
 10
114.6644910737644
 20
-151.3168619413375
 10
114.5525254704938
 20
-150.9919894370784
 10
114.5222086302236
 20
-150.5968369849202
 10
114.6627685260218
 20
-150.2202880483824
 10
117.3926621885338
 20
-150.9702853355213
 10
120.7922824133783
 20
-150.3195067983576
 10
123.2586262712687
 20
-149.5602077534086
 10
125.9840413096498
 20
-148.7202934741047
 10
128.5492594079668
 20
-147.0060139606443
 10
129.992409906738
 20
-146.925054216741
 10
129.8487494250031
 20
-147.1210801498517
 10
129.7619330187748
 20
-147.3649929102074
 10
129.7619330187748
 20
-147.6278536957319
 10
129.7619330187748
 20
-148.2896565384484
 10
130.2997124240223
 20
-148.8250243768562
 10
130.9591036998991
 20
-148.8250243768562
 10
131.6229735999068
 20
-148.8250243768562
 10
132.1590304574116
 20
-148.2896565384484
 10
132.1590304574116
 20
-147.6278536957319
 10
132.1590304574116
 20
-147.1238362262399
 10
131.91649573525
 20
-146.7689913912591
 10
131.508940939345
 20
-146.5605631144015
 10
131.508940939345
 20
-146.5605631144015
 10
142.37546111892
 20
-146.5605631144015
 10
142.37546111892
 20
-146.5605631144015
 10
142.37546111892
 20
-146.5605631144015
 10
142.37546111892
 20
-144.9489474464017
 10
142.37546111892
 20
-144.9489474464017
 10
142.37546111892
 20
-144.9489474464017
 10
73.46648896817852
 20
-144.9489474464017
 10
73.46648896817852
 20
-144.9489474464017
 10
73.46648896817852
 20
-144.9489474464017
 10
73.46648896817852
 20
-146.5605631144015
 10
73.46648896817852
 20
-146.5605631144015
 97
        0
 92
        1
 93
        1
 72
     4
 94
        3
 73
     0
 74
     1
 95
       14
 96
       10
 40
0.0
 40
0.0
 40
0.0
 40
0.0
 40
1.0
 40
1.0
 40
1.0
 40
2.0
 40
2.0
 40
2.0
 40
3.0
 40
3.0
 40
3.0
 40
3.0
 10
87.05859644090897
 20
-146.6335991386888
 10
86.97556963971445
 20
-146.6067273939039
 10
86.89426538626255
 20
-146.5839897637012
 10
86.81261662326213
 20
-146.5605631144015
 10
86.81261662326213
 20
-146.5605631144015
 10
102.7320583510531
 20
-146.5605631144015
 10
102.7320583510531
 20
-146.5605631144015
 10
99.6114908605138
 20
-150.8180121150733
 10
88.15792641025219
 20
-146.9898220118637
 10
87.05859644090897
 20
-146.6335991386888
 97
        0
 92
        1
 93
        1
 72
     4
 94
        3
 73
     0
 74
     1
 95
       14
 96
       10
 40
0.0
 40
0.0
 40
0.0
 40
0.0
 40
1.0
 40
1.0
 40
1.0
 40
2.0
 40
2.0
 40
2.0
 40
3.0
 40
3.0
 40
3.0
 40
3.0
 10
128.7842149200609
 20
-146.6335991386888
 10
127.6859184793633
 20
-146.9898220118637
 10
116.230631481359
 20
-150.8180121150733
 10
113.1097194812712
 20
-146.5605631144015
 10
113.1097194812712
 20
-146.5605631144015
 10
129.0298502281592
 20
-146.5605631144015
 10
129.0298502281592
 20
-146.5605631144015
 10
128.9485459747073
 20
-146.5839897637012
 10
128.8672417212554
 20
-146.6067273939039
 10
128.7842149200609
 20
-146.6335991386888
 97
        0
 75
     2
 76
     1
 98
        0
  0
ENDBLK
  5
3F
330
3C
100
AcDbEntity
  8
0
100
AcDbBlockEnd
  0
ENDSEC
  0
SECTION
  2
ENTITIES
  0
INSERT
  5
3D
330
1F
100
AcDbEntity
  8
Layer 1
100
AcDbBlockReference
  2
block 2
 10
0.0
 20
0.0
 30
0.0
  0
ENDSEC
  0
SECTION
  2
OBJECTS
  0
DICTIONARY
  5
C
330
0
100
AcDbDictionary
281
     1
  3
ACAD_GROUP
350
D
  3
ACAD_LAYOUT
350
1A
  3
ACAD_MLINESTYLE
350
17
  3
ACAD_PLOTSETTINGS
350
19
  3
ACAD_PLOTSTYLENAME
350
E
  3
ACAD_TABLESTYLE
350
4C
  3
ACAD_VISUALSTYLE
350
2A
  0
DICTIONARY
  5
D
102
{ACAD_REACTORS
330
C
102
}
330
C
100
AcDbDictionary
281
     1
  0
DICTIONARY
  5
1A
102
{ACAD_REACTORS
330
C
102
}
330
C
100
AcDbDictionary
281
     1
  3
Layout1
350
1E
  3
Layout2
350
26
  3
Model
350
22
  0
DICTIONARY
  5
17
102
{ACAD_REACTORS
330
C
102
}
330
C
100
AcDbDictionary
281
     1
  3
Standard
350
18
  0
DICTIONARY
  5
19
102
{ACAD_REACTORS
330
C
102
}
330
C
100
AcDbDictionary
281
     1
  0
ACDBDICTIONARYWDFLT
  5
E
102
{ACAD_REACTORS
330
C
102
}
330
C
100
AcDbDictionary
281
     1
  3
Normal
350
F
100
AcDbDictionaryWithDefault
340
F
  0
DICTIONARY
  5
4C
102
{ACAD_REACTORS
330
C
102
}
330
C
100
AcDbDictionary
281
     1
  0
DICTIONARY
  5
2A
102
{ACAD_REACTORS
330
C
102
}
330
C
100
AcDbDictionary
281
     1
  3
2dWireframe
350
2F
  3
3D Hidden
350
31
  3
3dWireframe
350
30
  3
Basic
350
32
  3
Brighten
350
36
  3
ColorChange
350
3A
  3
Conceptual
350
34
  3
Dim
350
35
  3
Facepattern
350
39
  3
Flat
350
2B
  3
FlatWithEdges
350
2C
  3
Gouraud
350
2D
  3
GouraudWithEdges
350
2E
  3
Linepattern
350
38
  3
Realistic
350
33
  3
Thicken
350
37
  0
LAYOUT
  5
1E
102
{ACAD_REACTORS
330
1A
102
}
330
1A
100
AcDbPlotSettings
  1

  2
none_device
  4

  6

 40
0.0
 41
0.0
 42
0.0
 43
0.0
 44
0.0
 45
0.0
 46
0.0
 47
0.0
 48
0.0
 49
0.0
140
0.0
141
0.0
142
1.0
143
1.0
 70
   688
 72
     0
 73
     0
 74
     5
  7

 75
    16
 76
     0
 77
     2
 78
   300
147
1.0
148
0.0
149
0.0
100
AcDbLayout
  1
Layout1
 70
     1
 71
     1
 10
0.0
 20
0.0
 11
12.0
 21
9.0
 12
0.0
 22
0.0
 32
0.0
 14
1.000000000000000E+20
 24
1.000000000000000E+20
 34
1.000000000000000E+20
 15
-1.000000000000000E+20
 25
-1.000000000000000E+20
 35
-1.000000000000000E+20
146
0.0
 13
0.0
 23
0.0
 33
0.0
 16
1.0
 26
0.0
 36
0.0
 17
0.0
 27
1.0
 37
0.0
 76
     0
330
1B
  0
LAYOUT
  5
26
102
{ACAD_REACTORS
330
1A
102
}
330
1A
100
AcDbPlotSettings
  1

  2
none_device
  4

  6

 40
0.0
 41
0.0
 42
0.0
 43
0.0
 44
0.0
 45
0.0
 46
0.0
 47
0.0
 48
0.0
 49
0.0
140
0.0
141
0.0
142
1.0
143
1.0
 70
   688
 72
     0
 73
     0
 74
     5
  7

 75
    16
 76
     0
 77
     2
 78
   300
147
1.0
148
0.0
149
0.0
100
AcDbLayout
  1
Layout2
 70
     1
 71
     2
 10
0.0
 20
0.0
 11
0.0
 21
0.0
 12
0.0
 22
0.0
 32
0.0
 14
0.0
 24
0.0
 34
0.0
 15
0.0
 25
0.0
 35
0.0
146
0.0
 13
0.0
 23
0.0
 33
0.0
 16
1.0
 26
0.0
 36
0.0
 17
0.0
 27
1.0
 37
0.0
 76
     0
330
23
  0
LAYOUT
  5
22
102
{ACAD_REACTORS
330
1A
102
}
330
1A
100
AcDbPlotSettings
  1

  2
none_device
  4

  6

 40
0.0
 41
0.0
 42
0.0
 43
0.0
 44
0.0
 45
0.0
 46
0.0
 47
0.0
 48
0.0
 49
0.0
140
0.0
141
0.0
142
1.0
143
1.0
 70
  1712
 72
     0
 73
     0
 74
     0
  7

 75
     0
 76
     0
 77
     2
 78
   300
147
1.0
148
0.0
149
0.0
100
AcDbLayout
  1
Model
 70
     1
 71
     0
 10
0.0
 20
0.0
 11
12.0
 21
9.0
 12
0.0
 22
0.0
 32
0.0
 14
1.000000000000000E+20
 24
1.000000000000000E+20
 34
1.000000000000000E+20
 15
-1.000000000000000E+20
 25
-1.000000000000000E+20
 35
-1.000000000000000E+20
146
0.0
 13
0.0
 23
0.0
 33
0.0
 16
1.0
 26
0.0
 36
0.0
 17
0.0
 27
1.0
 37
0.0
 76
     0
330
1F
331
29
  0
MLINESTYLE
  5
18
102
{ACAD_REACTORS
330
17
102
}
330
17
100
AcDbMlineStyle
  2
Standard
 70
     0
  3

 62
   256
 51
90.0
 52
90.0
 71
     2
 49
0.5
 62
   256
  6
BYLAYER
 49
-0.5
 62
   256
  6
BYLAYER
  0
ACDBPLACEHOLDER
  5
F
102
{ACAD_REACTORS
330
E
102
}
330
E
  0
VISUALSTYLE
  5
2F
102
{ACAD_REACTORS
330
2A
102
}
330
2A
100
AcDbVisualStyle
  2
2dWireframe
 70
     4
 71
     0
 72
     2
 73
     0
 90
        0
 40
-0.6
 41
-30.0
 62
     5
 63
     7
421
 16777215
 74
     1
 91
        4
 64
     7
 65
   257
 75
     1
175
     1
 42
1.0
 92
        0
 66
   257
 43
1.0
 76
     1
 77
     6
 78
     2
 67
     7
 79
     5
170
     0
171
     0
290
     0
174
     0
 93
        1
 44
0.0
173
     0
291
     0
 45
0.0
1001
ACAD
1000
AcDbSavedByObjectVersion
1070
     0
  0
VISUALSTYLE
  5
31
102
{ACAD_REACTORS
330
2A
102
}
330
2A
100
AcDbVisualStyle
  2
3D Hidden
 70
     6
 71
     1
 72
     2
 73
     2
 90
        0
 40
-0.6
 41
-30.0
 62
     5
 63
     7
421
 16777215
 74
     2
 91
        2
 64
     7
 65
   257
 75
     2
175
     1
 42
40.0
 92
        0
 66
   257
 43
1.0
 76
     1
 77
     6
 78
     2
 67
     7
 79
     3
170
     0
171
     0
290
     0
174
     0
 93
        1
 44
0.0
173
     0
291
     0
 45
0.0
1001
ACAD
1000
AcDbSavedByObjectVersion
1070
     0
  0
VISUALSTYLE
  5
30
102
{ACAD_REACTORS
330
2A
102
}
330
2A
100
AcDbVisualStyle
  2
3dWireframe
 70
     5
 71
     0
 72
     2
 73
     0
 90
        0
 40
-0.6
 41
-30.0
 62
     5
 63
     7
421
 16777215
 74
     1
 91
        4
 64
     7
 65
   257
 75
     1
175
     1
 42
1.0
 92
        0
 66
   257
 43
1.0
 76
     1
 77
     6
 78
     2
 67
     7
 79
     5
170
     0
171
     0
290
     0
174
     0
 93
        1
 44
0.0
173
     0
291
     0
 45
0.0
1001
ACAD
1000
AcDbSavedByObjectVersion
1070
     0
  0
VISUALSTYLE
  5
32
102
{ACAD_REACTORS
330
2A
102
}
330
2A
100
AcDbVisualStyle
  2
Basic
 70
     7
 71
     1
 72
     0
 73
     1
 90
        0
 40
-0.6
 41
-30.0
 62
     5
 63
     7
421
 16777215
 74
     0
 91
        4
 64
     7
 65
   257
 75
     1
175
     1
 42
1.0
 92
        8
 66
     7
 43
1.0
 76
     1
 77
     6
 78
     2
 67
     7
 79
     5
170
     0
171
     0
290
     0
174
     0
 93
        1
 44
0.0
173
     0
291
     1
 45
0.0
1001
ACAD
1000
AcDbSavedByObjectVersion
1070
     0
  0
VISUALSTYLE
  5
36
102
{ACAD_REACTORS
330
2A
102
}
330
2A
100
AcDbVisualStyle
  2
Brighten
 70
    12
 71
     2
 72
     2
 73
     0
 90
        0
 40
-0.6
 41
-30.0
 62
     5
 63
     7
421
 16777215
 74
     1
 91
        4
 64
     7
 65
   257
 75
     1
175
     1
 42
1.0
 92
        8
 66
     7
 43
1.0
 76
     1
 77
     6
 78
     2
 67
     7
 79
     5
170
     0
171
     0
290
     0
174
     0
 93
        1
 44
50.0
173
     0
291
     1
 45
0.0
1001
ACAD
1000
AcDbSavedByObjectVersion
1070
     0
  0
VISUALSTYLE
  5
3A
102
{ACAD_REACTORS
330
2A
102
}
330
2A
100
AcDbVisualStyle
  2
ColorChange
 70
    16
 71
     2
 72
     2
 73
     3
 90
        0
 40
-0.6
 41
-30.0
 62
     5
 63
     8
421
  8421504
 74
     1
 91
        4
 64
     7
 65
   257
 75
     1
175
     1
 42
1.0
 92
        8
 66
     8
424
  8421504
 43
1.0
 76
     1
 77
     6
 78
     2
 67
     7
 79
     5
170
     0
171
     0
290
     0
174
     0
 93
        1
 44
0.0
173
     0
291
     1
 45
0.0
1001
ACAD
1000
AcDbSavedByObjectVersion
1070
     0
  0
VISUALSTYLE
  5
34
102
{ACAD_REACTORS
330
2A
102
}
330
2A
100
AcDbVisualStyle
  2
Conceptual
 70
     9
 71
     3
 72
     2
 73
     0
 90
        0
 40
-0.6
 41
-30.0
 62
     5
 63
     7
421
 16777215
 74
     2
 91
        2
 64
     7
 65
   257
 75
     1
175
     1
 42
40.0
 92
        8
 66
     7
 43
1.0
 76
     1
 77
     6
 78
     2
 67
     7
 79
     3
170
     0
171
     0
290
     0
174
     0
 93
        1
 44
0.0
173
     0
291
     0
 45
0.0
1001
ACAD
1000
AcDbSavedByObjectVersion
1070
     0
  0
VISUALSTYLE
  5
35
102
{ACAD_REACTORS
330
2A
102
}
330
2A
100
AcDbVisualStyle
  2
Dim
 70
    11
 71
     2
 72
     2
 73
     0
 90
        0
 40
-0.6
 41
-30.0
 62
     5
 63
     7
421
 16777215
 74
     1
 91
        4
 64
     7
 65
   257
 75
     1
175
     1
 42
1.0
 92
        8
 66
     7
 43
1.0
 76
     1
 77
     6
 78
     2
 67
     7
 79
     5
170
     0
171
     0
290
     0
174
     0
 93
        1
 44
-50.0
173
     0
291
     1
 45
0.0
1001
ACAD
1000
AcDbSavedByObjectVersion
1070
     0
  0
VISUALSTYLE
  5
39
102
{ACAD_REACTORS
330
2A
102
}
330
2A
100
AcDbVisualStyle
  2
Facepattern
 70
    15
 71
     2
 72
     2
 73
     0
 90
        0
 40
-0.6
 41
-30.0
 62
     5
 63
     7
421
 16777215
 74
     1
 91
        4
 64
     7
 65
   257
 75
     1
175
     1
 42
1.0
 92
        8
 66
     7
 43
1.0
 76
     1
 77
     6
 78
     2
 67
     7
 79
     5
170
     0
171
     0
290
     0
174
     0
 93
        1
 44
0.0
173
     0
291
     1
 45
0.0
1001
ACAD
1000
AcDbSavedByObjectVersion
1070
     0
  0
VISUALSTYLE
  5
2B
102
{ACAD_REACTORS
330
2A
102
}
330
2A
100
AcDbVisualStyle
  2
Flat
 70
     0
 71
     2
 72
     1
 73
     1
 90
        2
 40
-0.6
 41
30.0
 62
     5
 63
     7
421
 16777215
 74
     0
 91
        4
 64
     7
 65
   257
 75
     1
175
     1
 42
1.0
 92
        8
 66
     7
 43
1.0
 76
     1
 77
     6
 78
     2
 67
     7
 79
     5
170
     0
171
     0
290
     0
174
     0
 93
       13
 44
0.0
173
     0
291
     1
 45
0.0
1001
ACAD
1000
AcDbSavedByObjectVersion
1070
     0
  0
VISUALSTYLE
  5
2C
102
{ACAD_REACTORS
330
2A
102
}
330
2A
100
AcDbVisualStyle
  2
FlatWithEdges
 70
     1
 71
     2
 72
     1
 73
     1
 90
        2
 40
-0.6
 41
30.0
 62
     5
 63
     7
421
 16777215
 74
     1
 91
        4
 64
     7
 65
   257
 75
     1
175
     1
 42
1.0
 92
        0
 66
   257
 43
1.0
 76
     1
 77
     6
 78
     2
 67
     7
 79
     5
170
     0
171
     0
290
     0
174
     0
 93
       13
 44
0.0
173
     0
291
     1
 45
0.0
1001
ACAD
1000
AcDbSavedByObjectVersion
1070
     0
  0
VISUALSTYLE
  5
2D
102
{ACAD_REACTORS
330
2A
102
}
330
2A
100
AcDbVisualStyle
  2
Gouraud
 70
     2
 71
     2
 72
     2
 73
     1
 90
        2
 40
-0.6
 41
30.0
 62
     5
 63
     7
421
 16777215
 74
     0
 91
        4
 64
     7
 65
   257
 75
     1
175
     1
 42
1.0
 92
        0
 66
     7
 43
1.0
 76
     1
 77
     6
 78
     2
 67
     7
 79
     5
170
     0
171
     0
290
     0
174
     0
 93
       13
 44
0.0
173
     0
291
     1
 45
0.0
1001
ACAD
1000
AcDbSavedByObjectVersion
1070
     0
  0
VISUALSTYLE
  5
2E
102
{ACAD_REACTORS
330
2A
102
}
330
2A
100
AcDbVisualStyle
  2
GouraudWithEdges
 70
     3
 71
     2
 72
     2
 73
     1
 90
        2
 40
-0.6
 41
30.0
 62
     5
 63
     7
421
 16777215
 74
     1
 91
        4
 64
     7
 65
   257
 75
     1
175
     1
 42
1.0
 92
        0
 66
   257
 43
1.0
 76
     1
 77
     6
 78
     2
 67
     7
 79
     5
170
     0
171
     0
290
     0
174
     0
 93
       13
 44
0.0
173
     0
291
     1
 45
0.0
1001
ACAD
1000
AcDbSavedByObjectVersion
1070
     0
  0
VISUALSTYLE
  5
38
102
{ACAD_REACTORS
330
2A
102
}
330
2A
100
AcDbVisualStyle
  2
Linepattern
 70
    14
 71
     2
 72
     2
 73
     0
 90
        0
 40
-0.6
 41
-30.0
 62
     5
 63
     7
421
 16777215
 74
     1
 91
        4
 64
     7
 65
   257
 75
     7
175
     7
 42
1.0
 92
        8
 66
     7
 43
1.0
 76
     1
 77
     6
 78
     2
 67
     7
 79
     5
170
     0
171
     0
290
     0
174
     0
 93
        1
 44
0.0
173
     0
291
     1
 45
0.0
1001
ACAD
1000
AcDbSavedByObjectVersion
1070
     0
  0
VISUALSTYLE
  5
33
102
{ACAD_REACTORS
330
2A
102
}
330
2A
100
AcDbVisualStyle
  2
Realistic
 70
     8
 71
     2
 72
     2
 73
     0
 90
        0
 40
-0.6
 41
-30.0
 62
     5
 63
     7
421
 16777215
 74
     1
 91
        0
 64
     7
 65
   257
 75
     1
175
     1
 42
1.0
 92
        8
 66
     8
424
  7895160
 43
1.0
 76
     1
 77
     6
 78
     2
 67
     7
 79
     5
170
     0
171
     0
290
     0
174
     0
 93
       13
 44
0.0
173
     0
291
     0
 45
0.0
1001
ACAD
1000
AcDbSavedByObjectVersion
1070
     0
  0
VISUALSTYLE
  5
37
102
{ACAD_REACTORS
330
2A
102
}
330
2A
100
AcDbVisualStyle
  2
Thicken
 70
    13
 71
     2
 72
     2
 73
     0
 90
        0
 40
-0.6
 41
-30.0
 62
     5
 63
     7
421
 16777215
 74
     1
 91
        4
 64
     7
 65
   257
 75
     1
175
     1
 42
1.0
 92
       12
 66
     7
 43
1.0
 76
     1
 77
     6
 78
     2
 67
     7
 79
     5
170
     0
171
     0
290
     0
174
     0
 93
        1
 44
0.0
173
     0
291
     1
 45
0.0
1001
ACAD
1000
AcDbSavedByObjectVersion
1070
     0
  0
ENDSEC
  0
EOF
