  0
SECTION
  2
HEADER
  9
$ACADVER
  1
AC1014
  9
$ACADMAINTVER
 70
     9
  9
$DWGCODEPAGE
  3
ANSI_1252
  9
$INSBASE
 10
0.0
 20
0.0
 30
0.0
  9
$EXTMIN
 10
-43.2592
 20
-19.0812
 30
0.0
  9
$EXTMAX
 10
78.8411
 20
85.2518
 30
0.0
  9
$LIMMIN
 10
0.0
 20
0.0
  9
$LIMMAX
 10
12.0
 20
9.0
  9
$ORTHOMODE
 70
     0
  9
$REGENMODE
 70
     1
  9
$FILLMODE
 70
     1
  9
$QTEXTMODE
 70
     0
  9
$MIRRTEXT
 70
     1
  9
$DRAGMODE
 70
     2
  9
$LTSCALE
 40
1.0
  9
$OSMODE
 70
    37
  9
$ATTMODE
 70
     1
  9
$TEXTSIZE
 40
0.2
  9
$TRACEWID
 40
0.05
  9
$TEXTSTYLE
  7
STANDARD
  9
$CLAYER
  8
0
  9
$CELTYPE
  6
BYLAYER
  9
$CECOLOR
 62
   256
  9
$CELTSCALE
 40
1.0
  9
$DELOBJ
 70
     1
  9
$DISPSILH
 70
     0
  9
$DIMSCALE
 40
1.0
  9
$DIMASZ
 40
0.18
  9
$DIMEXO
 40
0.0625
  9
$DIMDLI
 40
0.38
  9
$DIMRND
 40
0.0
  9
$DIMDLE
 40
0.0
  9
$DIMEXE
 40
0.18
  9
$DIMTP
 40
0.0
  9
$DIMTM
 40
0.0
  9
$DIMTXT
 40
0.18
  9
$DIMCEN
 40
0.09
  9
$DIMTSZ
 40
0.0
  9
$DIMTOL
 70
     0
  9
$DIMLIM
 70
     0
  9
$DIMTIH
 70
     1
  9
$DIMTOH
 70
     1
  9
$DIMSE1
 70
     0
  9
$DIMSE2
 70
     0
  9
$DIMTAD
 70
     0
  9
$DIMZIN
 70
     0
  9
$DIMBLK
  1

  9
$DIMASO
 70
     1
  9
$DIMSHO
 70
     1
  9
$DIMPOST
  1

  9
$DIMAPOST
  1

  9
$DIMALT
 70
     0
  9
$DIMALTD
 70
     2
  9
$DIMALTF
 40
25.4
  9
$DIMLFAC
 40
1.0
  9
$DIMTOFL
 70
     0
  9
$DIMTVP
 40
0.0
  9
$DIMTIX
 70
     0
  9
$DIMSOXD
 70
     0
  9
$DIMSAH
 70
     0
  9
$DIMBLK1
  1

  9
$DIMBLK2
  1

  9
$DIMSTYLE
  2
STANDARD
  9
$DIMCLRD
 70
     0
  9
$DIMCLRE
 70
     0
  9
$DIMCLRT
 70
     0
  9
$DIMTFAC
 40
1.0
  9
$DIMGAP
 40
0.09
  9
$DIMJUST
 70
     0
  9
$DIMSD1
 70
     0
  9
$DIMSD2
 70
     0
  9
$DIMTOLJ
 70
     1
  9
$DIMTZIN
 70
     0
  9
$DIMALTZ
 70
     0
  9
$DIMALTTZ
 70
     0
  9
$DIMFIT
 70
     3
  9
$DIMUPT
 70
     0
  9
$DIMUNIT
 70
     2
  9
$DIMDEC
 70
     4
  9
$DIMTDEC
 70
     4
  9
$DIMALTU
 70
     2
  9
$DIMALTTD
 70
     2
  9
$DIMTXSTY
  7
STANDARD
  9
$DIMAUNIT
 70
     0
  9
$LUNITS
 70
     2
  9
$LUPREC
 70
     4
  9
$SKETCHINC
 40
0.1
  9
$FILLETRAD
 40
0.5
  9
$AUNITS
 70
     0
  9
$AUPREC
 70
     0
  9
$MENU
  1
.
  9
$ELEVATION
 40
0.0
  9
$PELEVATION
 40
0.0
  9
$THICKNESS
 40
0.0
  9
$LIMCHECK
 70
     0
  9
$CHAMFERA
 40
0.5
  9
$CHAMFERB
 40
0.5
  9
$CHAMFERC
 40
1.0
  9
$CHAMFERD
 40
0.0
  9
$SKPOLY
 70
     0
  9
$TDCREATE
 40
2455641.646994201
  9
$TDUPDATE
 40
2455641.646994213
  9
$TDINDWG
 40
0.0000000116
  9
$TDUSRTIMER
 40
0.0000000116
  9
$USRTIMER
 70
     1
  9
$ANGBASE
 50
0.0
  9
$ANGDIR
 70
     0
  9
$PDMODE
 70
     0
  9
$PDSIZE
 40
0.0
  9
$PLINEWID
 40
0.0
  9
$COORDS
 70
     1
  9
$SPLFRAME
 70
     0
  9
$SPLINETYPE
 70
     6
  9
$SPLINESEGS
 70
     8
  9
$ATTDIA
 70
     0
  9
$ATTREQ
 70
     1
  9
$HANDLING
 70
     1
  9
$HANDSEED
  5
14A
  9
$SURFTAB1
 70
     6
  9
$SURFTAB2
 70
     6
  9
$SURFTYPE
 70
     6
  9
$SURFU
 70
     6
  9
$SURFV
 70
     6
  9
$UCSNAME
  2

  9
$UCSORG
 10
0.0
 20
0.0
 30
0.0
  9
$UCSXDIR
 10
1.0
 20
0.0
 30
0.0
  9
$UCSYDIR
 10
0.0
 20
1.0
 30
0.0
  9
$PUCSNAME
  2

  9
$PUCSORG
 10
0.0
 20
0.0
 30
0.0
  9
$PUCSXDIR
 10
1.0
 20
0.0
 30
0.0
  9
$PUCSYDIR
 10
0.0
 20
1.0
 30
0.0
  9
$USERI1
 70
     0
  9
$USERI2
 70
     0
  9
$USERI3
 70
     0
  9
$USERI4
 70
     0
  9
$USERI5
 70
     0
  9
$USERR1
 40
0.0
  9
$USERR2
 40
0.0
  9
$USERR3
 40
0.0
  9
$USERR4
 40
0.0
  9
$USERR5
 40
0.0
  9
$WORLDVIEW
 70
     1
  9
$SHADEDGE
 70
     3
  9
$SHADEDIF
 70
    70
  9
$TILEMODE
 70
     1
  9
$MAXACTVP
 70
    64
  9
$PINSBASE
 10
0.0
 20
0.0
 30
0.0
  9
$PLIMCHECK
 70
     0
  9
$PEXTMIN
 10
1.000000000000000E+20
 20
1.000000000000000E+20
 30
1.000000000000000E+20
  9
$PEXTMAX
 10
-1.000000000000000E+20
 20
-1.000000000000000E+20
 30
-1.000000000000000E+20
  9
$PLIMMIN
 10
0.0
 20
0.0
  9
$PLIMMAX
 10
12.0
 20
9.0
  9
$UNITMODE
 70
     0
  9
$VISRETAIN
 70
     1
  9
$PLINEGEN
 70
     0
  9
$PSLTSCALE
 70
     1
  9
$TREEDEPTH
 70
  3020
  9
$PICKSTYLE
 70
     1
  9
$CMLSTYLE
  2
STANDARD
  9
$CMLJUST
 70
     0
  9
$CMLSCALE
 40
1.0
  9
$PROXYGRAPHICS
 70
     1
  9
$MEASUREMENT
 70
     0
  0
ENDSEC
  0
SECTION
  2
CLASSES
  0
CLASS
  1
ACDBDICTIONARYWDFLT
  2
AcDbDictionaryWithDefault
  3
ObjectDBX Classes
 90
        0
280
     0
281
     0
  0
CLASS
  1
VISUALSTYLE
  2
AcDbVisualStyle
  3
ObjectDBX Classes
 90
     4095
280
     0
281
     0
  0
CLASS
  1
MATERIAL
  2
AcDbMaterial
  3
ObjectDBX Classes
 90
     1153
280
     0
281
     0
  0
CLASS
  1
DICTIONARYVAR
  2
AcDbDictionaryVar
  3
ObjectDBX Classes
 90
        0
280
     0
281
     0
  0
CLASS
  1
XRECORD
  2
AcDbXrecord
  3
AutoCAD 2000
 90
        0
280
     0
281
     0
  0
CLASS
  1
LWPOLYLINE
  2
AcDbPolyline
  3
AutoCAD 2000
 90
        0
280
     0
281
     1
  0
CLASS
  1
HATCH
  2
AcDbHatch
  3
AutoCAD 2000
 90
        0
280
     0
281
     1
  0
CLASS
  1
ACDBPLACEHOLDER
  2
AcDbPlaceHolder
  3
ObjectDBX Classes
 90
        0
280
     0
281
     0
  0
CLASS
  1
LAYOUT
  2
AcDbLayout
  3
ObjectDBX Classes
 90
        0
280
     0
281
     0
  0
ENDSEC
  0
SECTION
  2
TABLES
  0
TABLE
  2
VPORT
  5
8
330
0
100
AcDbSymbolTable
 70
     1
  0
VPORT
  5
29
330
8
100
AcDbSymbolTableRecord
100
AcDbViewportTableRecord
  2
*ACTIVE
 70
     0
 10
0.0
 20
0.0
 11
1.0
 21
1.0
 12
10.42990654205607
 22
4.5
 13
0.0
 23
0.0
 14
0.5
 24
0.5
 15
0.5
 25
0.5
 16
0.0
 26
0.0
 36
1.0
 17
0.0
 27
0.0
 37
0.0
 40
9.0
 41
1.972972972850329
 42
50.0
 43
0.0
 44
0.0
 50
0.0
 51
0.0
 71
     0
 72
   100
 73
     1
 74
     3
 75
     0
 76
     0
 77
     0
 78
     0
  0
ENDTAB
  0
TABLE
  2
LTYPE
  5
5
330
0
100
AcDbSymbolTable
 70
     1
  0
LTYPE
  5
14
330
5
100
AcDbSymbolTableRecord
100
AcDbLinetypeTableRecord
  2
BYBLOCK
 70
     0
  3

 72
    65
 73
     0
 40
0.0
  0
LTYPE
  5
15
330
5
100
AcDbSymbolTableRecord
100
AcDbLinetypeTableRecord
  2
BYLAYER
 70
     0
  3

 72
    65
 73
     0
 40
0.0
  0
LTYPE
  5
16
330
5
100
AcDbSymbolTableRecord
100
AcDbLinetypeTableRecord
  2
CONTINUOUS
 70
     0
  3
Solid line
 72
    65
 73
     0
 40
0.0
  0
ENDTAB
  0
TABLE
  2
LAYER
  5
2
330
0
100
AcDbSymbolTable
 70
     2
  0
LAYER
  5
10
330
2
100
AcDbSymbolTableRecord
100
AcDbLayerTableRecord
  2
0
 70
     0
 62
     7
  6
CONTINUOUS
  0
LAYER
  5
40
330
2
100
AcDbSymbolTableRecord
100
AcDbLayerTableRecord
  2
LAYER_1
 70
     0
 62
     7
  6
CONTINUOUS
  0
ENDTAB
  0
TABLE
  2
STYLE
  5
3
330
0
100
AcDbSymbolTable
 70
     1
  0
STYLE
  5
11
330
3
100
AcDbSymbolTableRecord
100
AcDbTextStyleTableRecord
  2
STANDARD
 70
     0
 40
0.0
 41
1.0
 50
0.0
 71
     0
 42
0.2
  3
txt
  4

  0
ENDTAB
  0
TABLE
  2
VIEW
  5
6
330
0
100
AcDbSymbolTable
 70
     0
  0
ENDTAB
  0
TABLE
  2
UCS
  5
7
330
0
100
AcDbSymbolTable
 70
     0
  0
ENDTAB
  0
TABLE
  2
APPID
  5
9
330
0
100
AcDbSymbolTable
 70
     2
  0
APPID
  5
12
330
9
100
AcDbSymbolTableRecord
100
AcDbRegAppTableRecord
  2
ACAD
 70
     0
  0
APPID
  5
3F
330
9
100
AcDbSymbolTableRecord
100
AcDbRegAppTableRecord
  2
ODA
 70
     0
  0
ENDTAB
  0
TABLE
  2
DIMSTYLE
  5
A
330
0
100
AcDbSymbolTable
 70
     1
  0
DIMSTYLE
105
27
330
A
100
AcDbSymbolTableRecord
100
AcDbDimStyleTableRecord
  2
STANDARD
 70
     0
  3

  4

  5

  6

  7

 40
1.0
 41
0.18
 42
0.0625
 43
0.38
 44
0.18
 45
0.0
 46
0.0
 47
0.0
 48
0.0
140
0.18
141
0.09
142
0.0
143
25.4
144
1.0
145
0.0
146
1.0
147
0.09
 71
     0
 72
     0
 73
     1
 74
     1
 75
     0
 76
     0
 77
     0
 78
     0
170
     0
171
     2
172
     0
173
     0
174
     0
175
     0
176
     0
177
     0
178
     0
270
     2
271
     4
272
     4
273
     2
274
     2
340
11
275
     0
280
     0
281
     0
282
     0
283
     1
284
     0
285
     0
286
     0
287
     3
288
     0
  0
ENDTAB
  0
TABLE
  2
BLOCK_RECORD
  5
1
330
0
100
AcDbSymbolTable
 70
     1
  0
BLOCK_RECORD
  5
1F
330
1
100
AcDbSymbolTableRecord
100
AcDbBlockTableRecord
  2
*MODEL_SPACE
  0
BLOCK_RECORD
  5
1B
330
1
100
AcDbSymbolTableRecord
100
AcDbBlockTableRecord
  2
*PAPER_SPACE
  0
ENDTAB
  0
ENDSEC
  0
SECTION
  2
BLOCKS
  0
BLOCK
  5
20
330
1F
100
AcDbEntity
  8
0
100
AcDbBlockBegin
  2
*MODEL_SPACE
 70
     0
 10
0.0
 20
0.0
 30
0.0
  3
*MODEL_SPACE
  1

  0
ENDBLK
  5
21
330
1F
100
AcDbEntity
  8
0
100
AcDbBlockEnd
  0
BLOCK
  5
1C
330
1B
100
AcDbEntity
 67
     1
  8
0
100
AcDbBlockBegin
  2
*PAPER_SPACE
 70
     0
 10
0.0
 20
0.0
 30
0.0
  3
*PAPER_SPACE
  1

  0
ENDBLK
  5
1D
330
1B
100
AcDbEntity
 67
     1
  8
0
100
AcDbBlockEnd
  0
ENDSEC
  0
SECTION
  2
ENTITIES
  0
SPLINE
  5
41
330
1F
100
AcDbEntity
  8
LAYER_1
 62
   250
100
AcDbSpline
210
0.0
220
0.0
230
1.0
 70
    24
 71
     3
 72
     8
 73
     4
 74
     0
 42
0.0000000001
 43
0.0000000001
 40
0.0
 40
0.0
 40
0.0
 40
0.0
 40
1.0
 40
1.0
 40
1.0
 40
1.0
 10
-40.2211
 20
-19.0431
 30
0.0
 10
-40.2211
 20
-19.0431
 30
0.0
 10
17.1287
 20
-19.0431
 30
0.0
 10
17.1287
 20
-19.0431
 30
0.0
  0
SPLINE
  5
42
330
1F
100
AcDbEntity
  8
LAYER_1
 62
   250
100
AcDbSpline
210
0.0
220
0.0
230
1.0
 70
    24
 71
     3
 72
     8
 73
     4
 74
     0
 42
0.0000000001
 43
0.0000000001
 40
0.0
 40
0.0
 40
0.0
 40
0.0
 40
1.0
 40
1.0
 40
1.0
 40
1.0
 10
-22.1968
 20
-13.0945
 30
0.0
 10
-22.1968
 20
-13.0945
 30
0.0
 10
-22.1968
 20
-15.9945
 30
0.0
 10
-22.1968
 20
-15.9945
 30
0.0
  0
SPLINE
  5
43
330
1F
100
AcDbEntity
  8
LAYER_1
 62
   250
100
AcDbSpline
210
0.0
220
0.0
230
1.0
 70
     8
 71
     3
 72
    12
 73
     8
 74
     0
 42
0.0000000001
 43
0.0000000001
 40
0.0
 40
0.0
 40
0.0
 40
0.0
 40
0.3333333333333333
 40
0.3333333333333333
 40
0.3333333333333333
 40
0.3333333333333333
 40
1.0
 40
1.0
 40
1.0
 40
1.0
 10
-22.1968
 20
-15.9945
 30
0.0
 10
-22.1968
 20
-15.9945
 30
0.0
 10
-19.297
 20
-15.9945
 30
0.0
 10
-19.297
 20
-15.9945
 30
0.0
 10
-19.297
 20
-15.9945
 30
0.0
 10
-19.297
 20
-15.9945
 30
0.0
 10
-19.297
 20
-13.0945
 30
0.0
 10
-19.297
 20
-13.0945
 30
0.0
  0
SPLINE
  5
44
330
1F
100
AcDbEntity
  8
LAYER_1
 62
   250
100
AcDbSpline
210
0.0
220
0.0
230
1.0
 70
    24
 71
     3
 72
     8
 73
     4
 74
     0
 42
0.0000000001
 43
0.0000000001
 40
0.0
 40
0.0
 40
0.0
 40
0.0
 40
1.0
 40
1.0
 40
1.0
 40
1.0
 10
1.7775
 20
-13.0945
 30
0.0
 10
1.7775
 20
-13.0945
 30
0.0
 10
1.7775
 20
-15.9943
 30
0.0
 10
1.7775
 20
-15.9943
 30
0.0
  0
SPLINE
  5
45
330
1F
100
AcDbEntity
  8
LAYER_1
 62
   250
100
AcDbSpline
210
0.0
220
0.0
230
1.0
 70
    24
 71
     3
 72
     8
 73
     4
 74
     0
 42
0.0000000001
 43
0.0000000001
 40
0.0
 40
0.0
 40
0.0
 40
0.0
 40
1.0
 40
1.0
 40
1.0
 40
1.0
 10
4.6771
 20
-13.0945
 30
0.0
 10
4.6771
 20
-13.0945
 30
0.0
 10
4.6771
 20
-15.9943
 30
0.0
 10
4.6771
 20
-15.9943
 30
0.0
  0
SPLINE
  5
46
330
1F
100
AcDbEntity
  8
LAYER_1
 62
   250
100
AcDbSpline
210
0.0
220
0.0
230
1.0
 70
    24
 71
     3
 72
     8
 73
     4
 74
     0
 42
0.0000000001
 43
0.0000000001
 40
0.0
 40
0.0
 40
0.0
 40
0.0
 40
1.0
 40
1.0
 40
1.0
 40
1.0
 10
25.7517
 20
-13.0945
 30
0.0
 10
25.7517
 20
-13.0945
 30
0.0
 10
25.7517
 20
-15.9943
 30
0.0
 10
25.7517
 20
-15.9943
 30
0.0
  0
SPLINE
  5
47
330
1F
100
AcDbEntity
  8
LAYER_1
 62
   250
100
AcDbSpline
210
0.0
220
0.0
230
1.0
 70
    24
 71
     3
 72
     8
 73
     4
 74
     0
 42
0.0000000001
 43
0.0000000001
 40
0.0
 40
0.0
 40
0.0
 40
0.0
 40
1.0
 40
1.0
 40
1.0
 40
1.0
 10
28.6513
 20
-13.0945
 30
0.0
 10
28.6513
 20
-13.0945
 30
0.0
 10
28.6513
 20
-15.9943
 30
0.0
 10
28.6513
 20
-15.9943
 30
0.0
  0
SPLINE
  5
48
330
1F
100
AcDbEntity
  8
LAYER_1
 62
   250
100
AcDbSpline
210
0.0
220
0.0
230
1.0
 70
    24
 71
     3
 72
     8
 73
     4
 74
     0
 42
0.0000000001
 43
0.0000000001
 40
0.0
 40
0.0
 40
0.0
 40
0.0
 40
1.0
 40
1.0
 40
1.0
 40
1.0
 10
49.7259
 20
-13.0945
 30
0.0
 10
49.7259
 20
-13.0945
 30
0.0
 10
49.7259
 20
-15.9943
 30
0.0
 10
49.7259
 20
-15.9943
 30
0.0
  0
SPLINE
  5
49
330
1F
100
AcDbEntity
  8
LAYER_1
 62
   250
100
AcDbSpline
210
0.0
220
0.0
230
1.0
 70
    24
 71
     3
 72
     8
 73
     4
 74
     0
 42
0.0000000001
 43
0.0000000001
 40
0.0
 40
0.0
 40
0.0
 40
0.0
 40
1.0
 40
1.0
 40
1.0
 40
1.0
 10
52.6255
 20
-13.0945
 30
0.0
 10
52.6255
 20
-13.0945
 30
0.0
 10
52.6255
 20
-15.9943
 30
0.0
 10
52.6255
 20
-15.9943
 30
0.0
  0
SPLINE
  5
4A
330
1F
100
AcDbEntity
  8
LAYER_1
 62
   250
100
AcDbSpline
210
0.0
220
0.0
230
1.0
 70
    24
 71
     3
 72
     8
 73
     4
 74
     0
 42
0.0000000001
 43
0.0000000001
 40
0.0
 40
0.0
 40
0.0
 40
0.0
 40
1.0
 40
1.0
 40
1.0
 40
1.0
 10
1.7775
 20
-15.9943
 30
0.0
 10
1.7775
 20
-15.9943
 30
0.0
 10
4.6771
 20
-15.9943
 30
0.0
 10
4.6771
 20
-15.9943
 30
0.0
  0
SPLINE
  5
4B
330
1F
100
AcDbEntity
  8
LAYER_1
 62
   250
100
AcDbSpline
210
0.0
220
0.0
230
1.0
 70
    24
 71
     3
 72
     8
 73
     4
 74
     0
 42
0.0000000001
 43
0.0000000001
 40
0.0
 40
0.0
 40
0.0
 40
0.0
 40
1.0
 40
1.0
 40
1.0
 40
1.0
 10
25.7517
 20
-15.9943
 30
0.0
 10
25.7517
 20
-15.9943
 30
0.0
 10
28.6513
 20
-15.9943
 30
0.0
 10
28.6513
 20
-15.9943
 30
0.0
  0
SPLINE
  5
4C
330
1F
100
AcDbEntity
  8
LAYER_1
 62
   250
100
AcDbSpline
210
0.0
220
0.0
230
1.0
 70
    24
 71
     3
 72
     8
 73
     4
 74
     0
 42
0.0000000001
 43
0.0000000001
 40
0.0
 40
0.0
 40
0.0
 40
0.0
 40
1.0
 40
1.0
 40
1.0
 40
1.0
 10
49.7259
 20
-15.9943
 30
0.0
 10
49.7259
 20
-15.9943
 30
0.0
 10
52.6255
 20
-15.9943
 30
0.0
 10
52.6255
 20
-15.9943
 30
0.0
  0
SPLINE
  5
4D
330
1F
100
AcDbEntity
  8
LAYER_1
 62
   250
100
AcDbSpline
210
0.0
220
0.0
230
1.0
 70
    24
 71
     3
 72
     8
 73
     4
 74
     0
 42
0.0000000001
 43
0.0000000001
 40
0.0
 40
0.0
 40
0.0
 40
0.0
 40
1.0
 40
1.0
 40
1.0
 40
1.0
 10
-19.297
 20
-13.0945
 30
0.0
 10
-19.297
 20
-13.0945
 30
0.0
 10
1.7775
 20
-13.0945
 30
0.0
 10
1.7775
 20
-13.0945
 30
0.0
  0
SPLINE
  5
4E
330
1F
100
AcDbEntity
  8
LAYER_1
 62
   250
100
AcDbSpline
210
0.0
220
0.0
230
1.0
 70
    24
 71
     3
 72
     8
 73
     4
 74
     0
 42
0.0000000001
 43
0.0000000001
 40
0.0
 40
0.0
 40
0.0
 40
0.0
 40
1.0
 40
1.0
 40
1.0
 40
1.0
 10
4.6771
 20
-13.0945
 30
0.0
 10
4.6771
 20
-13.0945
 30
0.0
 10
25.7517
 20
-13.0945
 30
0.0
 10
25.7517
 20
-13.0945
 30
0.0
  0
SPLINE
  5
4F
330
1F
100
AcDbEntity
  8
LAYER_1
 62
   250
100
AcDbSpline
210
0.0
220
0.0
230
1.0
 70
    24
 71
     3
 72
     8
 73
     4
 74
     0
 42
0.0000000001
 43
0.0000000001
 40
0.0
 40
0.0
 40
0.0
 40
0.0
 40
1.0
 40
1.0
 40
1.0
 40
1.0
 10
28.6513
 20
-13.0945
 30
0.0
 10
28.6513
 20
-13.0945
 30
0.0
 10
49.7259
 20
-13.0945
 30
0.0
 10
49.7259
 20
-13.0945
 30
0.0
  0
SPLINE
  5
50
330
1F
100
AcDbEntity
  8
LAYER_1
 62
   250
100
AcDbSpline
210
0.0
220
0.0
230
1.0
 70
    24
 71
     3
 72
     8
 73
     4
 74
     0
 42
0.0000000001
 43
0.0000000001
 40
0.0
 40
0.0
 40
0.0
 40
0.0
 40
1.0
 40
1.0
 40
1.0
 40
1.0
 10
17.1282
 20
-13.0946
 30
0.0
 10
17.1282
 20
-13.0946
 30
0.0
 10
17.1284
 20
-13.0946
 30
0.0
 10
17.1287
 20
-13.0946
 30
0.0
  0
SPLINE
  5
51
330
1F
100
AcDbEntity
  8
LAYER_1
 62
   250
100
AcDbSpline
210
0.0
220
0.0
230
1.0
 70
    24
 71
     3
 72
     8
 73
     4
 74
     0
 42
0.0000000001
 43
0.0000000001
 40
0.0
 40
0.0
 40
0.0
 40
0.0
 40
1.0
 40
1.0
 40
1.0
 40
1.0
 10
17.1282
 20
-13.0949
 30
0.0
 10
17.1282
 20
-13.0949
 30
0.0
 10
17.1282
 20
-13.0946
 30
0.0
 10
17.1282
 20
-13.0946
 30
0.0
  0
SPLINE
  5
52
330
1F
100
AcDbEntity
  8
LAYER_1
 62
   250
100
AcDbSpline
210
0.0
220
0.0
230
1.0
 70
    24
 71
     3
 72
     8
 73
     4
 74
     0
 42
0.0000000001
 43
0.0000000001
 40
0.0
 40
0.0
 40
0.0
 40
0.0
 40
1.0
 40
1.0
 40
1.0
 40
1.0
 10
-39.598
 20
-5.42
 30
0.0
 10
-39.598
 20
-5.42
 30
0.0
 10
-39.598
 20
-4.635
 30
0.0
 10
-39.598
 20
-4.635
 30
0.0
  0
SPLINE
  5
53
330
1F
100
AcDbEntity
  8
LAYER_1
 62
   250
100
AcDbSpline
210
0.0
220
0.0
230
1.0
 70
    24
 71
     3
 72
     8
 73
     4
 74
     0
 42
0.0000000001
 43
0.0000000001
 40
0.0
 40
0.0
 40
0.0
 40
0.0
 40
1.0
 40
1.0
 40
1.0
 40
1.0
 10
-40.1417
 20
-4.1435
 30
0.0
 10
-40.1417
 20
-4.1435
 30
0.0
 10
-42.2296
 20
-4.1435
 30
0.0
 10
-42.2296
 20
-4.1435
 30
0.0
  0
SPLINE
  5
54
330
1F
100
AcDbEntity
  8
LAYER_1
 62
   250
100
AcDbSpline
210
0.0
220
0.0
230
1.0
 70
    24
 71
     3
 72
     8
 73
     4
 74
     0
 42
0.0000000001
 43
0.0000000001
 40
0.0
 40
0.0
 40
0.0
 40
0.0
 40
1.0
 40
1.0
 40
1.0
 40
1.0
 10
-43.2211
 20
-5.1263
 30
0.0
 10
-43.2211
 20
-5.1263
 30
0.0
 10
-43.2211
 20
-16.0432
 30
0.0
 10
-43.2211
 20
-16.0432
 30
0.0
  0
SPLINE
  5
55
330
1F
100
AcDbEntity
  8
LAYER_1
 62
   250
100
AcDbSpline
210
0.0
220
0.0
230
1.0
 70
     8
 71
     3
 72
    12
 73
     8
 74
     0
 42
0.0000000001
 43
0.0000000001
 40
0.0
 40
0.0
 40
0.0
 40
0.0
 40
0.3333333333333333
 40
0.3333333333333333
 40
0.3333333333333333
 40
0.3333333333333333
 40
1.0
 40
1.0
 40
1.0
 40
1.0
 10
-42.2296
 20
-4.1435
 30
0.0
 10
-42.4926
 20
-4.1435
 30
0.0
 10
-42.7448
 20
-4.2471
 30
0.0
 10
-42.9307
 20
-4.4314
 30
0.0
 10
-42.9307
 20
-4.4314
 30
0.0
 10
-43.1166
 20
-4.6157
 30
0.0
 10
-43.2211
 20
-4.8657
 30
0.0
 10
-43.2211
 20
-5.1263
 30
0.0
  0
SPLINE
  5
56
330
1F
100
AcDbEntity
  8
LAYER_1
 62
   250
100
AcDbSpline
210
0.0
220
0.0
230
1.0
 70
     8
 71
     3
 72
    12
 73
     8
 74
     0
 42
0.0000000001
 43
0.0000000001
 40
0.0
 40
0.0
 40
0.0
 40
0.0
 40
0.3333333333333333
 40
0.3333333333333333
 40
0.3333333333333333
 40
0.3333333333333333
 40
1.0
 40
1.0
 40
1.0
 40
1.0
 10
-39.598
 20
-4.635
 30
0.0
 10
-39.598
 20
-4.5046
 30
0.0
 10
-39.6552
 20
-4.3796
 30
0.0
 10
-39.7572
 20
-4.2875
 30
0.0
 10
-39.7572
 20
-4.2875
 30
0.0
 10
-39.8592
 20
-4.1953
 30
0.0
 10
-39.9975
 20
-4.1435
 30
0.0
 10
-40.1417
 20
-4.1435
 30
0.0
  0
SPLINE
  5
57
330
1F
100
AcDbEntity
  8
LAYER_1
 62
   250
100
AcDbSpline
210
0.0
220
0.0
230
1.0
 70
    24
 71
     3
 72
     8
 73
     4
 74
     0
 42
0.0000000001
 43
0.0000000001
 40
0.0
 40
0.0
 40
0.0
 40
0.0
 40
1.0
 40
1.0
 40
1.0
 40
1.0
 10
-40.2469
 20
-5.4691
 30
0.0
 10
-40.2469
 20
-5.4691
 30
0.0
 10
-40.2469
 20
-6.5657
 30
0.0
 10
-40.2469
 20
-6.5657
 30
0.0
  0
SPLINE
  5
58
330
1F
100
AcDbEntity
  8
LAYER_1
 62
   250
100
AcDbSpline
210
0.0
220
0.0
230
1.0
 70
    24
 71
     3
 72
     8
 73
     4
 74
     0
 42
0.0000000001
 43
0.0000000001
 40
0.0
 40
0.0
 40
0.0
 40
0.0
 40
1.0
 40
1.0
 40
1.0
 40
1.0
 10
-39.2555
 20
-13.0945
 30
0.0
 10
-39.2555
 20
-13.0945
 30
0.0
 10
-22.1968
 20
-13.0945
 30
0.0
 10
-22.1968
 20
-13.0945
 30
0.0
  0
SPLINE
  5
59
330
1F
100
AcDbEntity
  8
LAYER_1
 62
   250
100
AcDbSpline
210
0.0
220
0.0
230
1.0
 70
     8
 71
     3
 72
    12
 73
     8
 74
     0
 42
0.0000000001
 43
0.0000000001
 40
0.0
 40
0.0
 40
0.0
 40
0.0
 40
0.3333333333333333
 40
0.3333333333333333
 40
0.3333333333333333
 40
0.3333333333333333
 40
1.0
 40
1.0
 40
1.0
 40
1.0
 10
-40.2469
 20
-12.1116
 30
0.0
 10
-40.2469
 20
-12.3723
 30
0.0
 10
-40.1425
 20
-12.6222
 30
0.0
 10
-39.9565
 20
-12.8067
 30
0.0
 10
-39.9565
 20
-12.8067
 30
0.0
 10
-39.7707
 20
-12.991
 30
0.0
 10
-39.5184
 20
-13.0946
 30
0.0
 10
-39.2556
 20
-13.0946
 30
0.0
  0
SPLINE
  5
5A
330
1F
100
AcDbEntity
  8
LAYER_1
 62
   250
100
AcDbSpline
210
0.0
220
0.0
230
1.0
 70
    24
 71
     3
 72
     8
 73
     4
 74
     0
 42
0.0000000001
 43
0.0000000001
 40
0.0
 40
0.0
 40
0.0
 40
0.0
 40
1.0
 40
1.0
 40
1.0
 40
1.0
 10
-40.2469
 20
-5.4691
 30
0.0
 10
-40.2469
 20
-5.4691
 30
0.0
 10
-39.6524
 20
-5.4691
 30
0.0
 10
-39.6524
 20
-5.4691
 30
0.0
  0
SPLINE
  5
5B
330
1F
100
AcDbEntity
  8
LAYER_1
 62
   250
100
AcDbSpline
210
0.0
220
0.0
230
1.0
 70
     8
 71
     3
 72
     8
 73
     4
 74
     0
 42
0.0000000001
 43
0.0000000001
 40
0.0
 40
0.0
 40
0.0
 40
0.0
 40
1.0
 40
1.0
 40
1.0
 40
1.0
 10
-39.6524
 20
-5.4691
 30
0.0
 10
-39.6224
 20
-5.4691
 30
0.0
 10
-39.598
 20
-5.4471
 30
0.0
 10
-39.598
 20
-5.42
 30
0.0
  0
SPLINE
  5
5C
330
1F
100
AcDbEntity
  8
LAYER_1
 62
   250
100
AcDbSpline
210
0.0
220
0.0
230
1.0
 70
    24
 71
     3
 72
     8
 73
     4
 74
     0
 42
0.0000000001
 43
0.0000000001
 40
0.0
 40
0.0
 40
0.0
 40
0.0
 40
1.0
 40
1.0
 40
1.0
 40
1.0
 10
74.3991
 20
-4.1435
 30
0.0
 10
74.3991
 20
-4.1435
 30
0.0
 10
76.487
 20
-4.1435
 30
0.0
 10
76.487
 20
-4.1435
 30
0.0
  0
SPLINE
  5
5D
330
1F
100
AcDbEntity
  8
LAYER_1
 62
   250
100
AcDbSpline
210
0.0
220
0.0
230
1.0
 70
     8
 71
     3
 72
    12
 73
     8
 74
     0
 42
0.0000000001
 43
0.0000000001
 40
0.0
 40
0.0
 40
0.0
 40
0.0
 40
0.3333333333333333
 40
0.3333333333333333
 40
0.3333333333333333
 40
0.3333333333333333
 40
1.0
 40
1.0
 40
1.0
 40
1.0
 10
77.4785
 20
-5.1263
 30
0.0
 10
77.4785
 20
-4.8657
 30
0.0
 10
77.374
 20
-4.6157
 30
0.0
 10
77.1881
 20
-4.4314
 30
0.0
 10
77.1881
 20
-4.4314
 30
0.0
 10
77.0022
 20
-4.2471
 30
0.0
 10
76.75
 20
-4.1435
 30
0.0
 10
76.487
 20
-4.1435
 30
0.0
  0
SPLINE
  5
5E
330
1F
100
AcDbEntity
  8
LAYER_1
 62
   250
100
AcDbSpline
210
0.0
220
0.0
230
1.0
 70
    24
 71
     3
 72
     8
 73
     4
 74
     0
 42
0.0000000001
 43
0.0000000001
 40
0.0
 40
0.0
 40
0.0
 40
0.0
 40
1.0
 40
1.0
 40
1.0
 40
1.0
 10
74.5043
 20
-5.4691
 30
0.0
 10
74.5043
 20
-5.4691
 30
0.0
 10
74.5043
 20
-12.1116
 30
0.0
 10
74.5043
 20
-12.1116
 30
0.0
  0
SPLINE
  5
5F
330
1F
100
AcDbEntity
  8
LAYER_1
 62
   250
100
AcDbSpline
210
0.0
220
0.0
230
1.0
 70
    24
 71
     3
 72
     8
 73
     4
 74
     0
 42
0.0000000001
 43
0.0000000001
 40
0.0
 40
0.0
 40
0.0
 40
0.0
 40
1.0
 40
1.0
 40
1.0
 40
1.0
 10
73.5129
 20
-13.0945
 30
0.0
 10
73.5129
 20
-13.0945
 30
0.0
 10
52.6255
 20
-13.0945
 30
0.0
 10
52.6255
 20
-13.0945
 30
0.0
  0
SPLINE
  5
60
330
1F
100
AcDbEntity
  8
LAYER_1
 62
   250
100
AcDbSpline
210
0.0
220
0.0
230
1.0
 70
     8
 71
     3
 72
     8
 73
     4
 74
     0
 42
0.0000000001
 43
0.0000000001
 40
0.0
 40
0.0
 40
0.0
 40
0.0
 40
1.0
 40
1.0
 40
1.0
 40
1.0
 10
73.513
 20
-13.0946
 30
0.0
 10
74.0605
 20
-13.0946
 30
0.0
 10
74.5043
 20
-12.6545
 30
0.0
 10
74.5043
 20
-12.1116
 30
0.0
  0
SPLINE
  5
61
330
1F
100
AcDbEntity
  8
LAYER_1
 62
   250
100
AcDbSpline
210
0.0
220
0.0
230
1.0
 70
    24
 71
     3
 72
     8
 73
     4
 74
     0
 42
0.0000000001
 43
0.0000000001
 40
0.0
 40
0.0
 40
0.0
 40
0.0
 40
1.0
 40
1.0
 40
1.0
 40
1.0
 10
73.8554
 20
-5.42
 30
0.0
 10
73.8554
 20
-5.42
 30
0.0
 10
73.8554
 20
-4.635
 30
0.0
 10
73.8554
 20
-4.635
 30
0.0
  0
SPLINE
  5
62
330
1F
100
AcDbEntity
  8
LAYER_1
 62
   250
100
AcDbSpline
210
0.0
220
0.0
230
1.0
 70
     8
 71
     3
 72
    12
 73
     8
 74
     0
 42
0.0000000001
 43
0.0000000001
 40
0.0
 40
0.0
 40
0.0
 40
0.0
 40
0.3333333333333333
 40
0.3333333333333333
 40
0.3333333333333333
 40
0.3333333333333333
 40
1.0
 40
1.0
 40
1.0
 40
1.0
 10
73.8554
 20
-4.635
 30
0.0
 10
73.8554
 20
-4.5046
 30
0.0
 10
73.9126
 20
-4.3796
 30
0.0
 10
74.0146
 20
-4.2875
 30
0.0
 10
74.0146
 20
-4.2875
 30
0.0
 10
74.1166
 20
-4.1953
 30
0.0
 10
74.2549
 20
-4.1435
 30
0.0
 10
74.3991
 20
-4.1435
 30
0.0
  0
SPLINE
  5
63
330
1F
100
AcDbEntity
  8
LAYER_1
 62
   250
100
AcDbSpline
210
0.0
220
0.0
230
1.0
 70
    24
 71
     3
 72
     8
 73
     4
 74
     0
 42
0.0000000001
 43
0.0000000001
 40
0.0
 40
0.0
 40
0.0
 40
0.0
 40
1.0
 40
1.0
 40
1.0
 40
1.0
 10
74.5043
 20
-5.4691
 30
0.0
 10
74.5043
 20
-5.4691
 30
0.0
 10
73.9098
 20
-5.4691
 30
0.0
 10
73.9098
 20
-5.4691
 30
0.0
  0
SPLINE
  5
64
330
1F
100
AcDbEntity
  8
LAYER_1
 62
   250
100
AcDbSpline
210
0.0
220
0.0
230
1.0
 70
     8
 71
     3
 72
     8
 73
     4
 74
     0
 42
0.0000000001
 43
0.0000000001
 40
0.0
 40
0.0
 40
0.0
 40
0.0
 40
1.0
 40
1.0
 40
1.0
 40
1.0
 10
73.9098
 20
-5.4691
 30
0.0
 10
73.8798
 20
-5.4691
 30
0.0
 10
73.8554
 20
-5.4471
 30
0.0
 10
73.8554
 20
-5.42
 30
0.0
  0
SPLINE
  5
65
330
1F
100
AcDbEntity
  8
LAYER_1
 62
   250
100
AcDbSpline
210
0.0
220
0.0
230
1.0
 70
     8
 71
     3
 72
    12
 73
     8
 74
     0
 42
0.0000000001
 43
0.0000000001
 40
0.0
 40
0.0
 40
0.0
 40
0.0
 40
0.3333333333333333
 40
0.3333333333333333
 40
0.3333333333333333
 40
0.3333333333333333
 40
1.0
 40
1.0
 40
1.0
 40
1.0
 10
-43.2211
 20
-16.0432
 30
0.0
 10
-43.2211
 20
-16.8388
 30
0.0
 10
-42.9049
 20
-17.6016
 30
0.0
 10
-42.3424
 20
-18.1644
 30
0.0
 10
-42.3424
 20
-18.1644
 30
0.0
 10
-41.7799
 20
-18.7269
 30
0.0
 10
-41.0167
 20
-19.0431
 30
0.0
 10
-40.2211
 20
-19.0431
 30
0.0
  0
SPLINE
  5
66
330
1F
100
AcDbEntity
  8
LAYER_1
 62
   250
100
AcDbSpline
210
0.0
220
0.0
230
1.0
 70
    24
 71
     3
 72
     8
 73
     4
 74
     0
 42
0.0000000001
 43
0.0000000001
 40
0.0
 40
0.0
 40
0.0
 40
0.0
 40
1.0
 40
1.0
 40
1.0
 40
1.0
 10
74.4785
 20
-19.0431
 30
0.0
 10
74.4785
 20
-19.0431
 30
0.0
 10
17.1287
 20
-19.0431
 30
0.0
 10
17.1287
 20
-19.0431
 30
0.0
  0
SPLINE
  5
67
330
1F
100
AcDbEntity
  8
LAYER_1
 62
   250
100
AcDbSpline
210
0.0
220
0.0
230
1.0
 70
    24
 71
     3
 72
     8
 73
     4
 74
     0
 42
0.0000000001
 43
0.0000000001
 40
0.0
 40
0.0
 40
0.0
 40
0.0
 40
1.0
 40
1.0
 40
1.0
 40
1.0
 10
77.4785
 20
-5.1264
 30
0.0
 10
77.4785
 20
-5.1264
 30
0.0
 10
77.4785
 20
-16.0431
 30
0.0
 10
77.4785
 20
-16.0431
 30
0.0
  0
SPLINE
  5
68
330
1F
100
AcDbEntity
  8
LAYER_1
 62
   250
100
AcDbSpline
210
0.0
220
0.0
230
1.0
 70
     8
 71
     3
 72
    12
 73
     8
 74
     0
 42
0.0000000001
 43
0.0000000001
 40
0.0
 40
0.0
 40
0.0
 40
0.0
 40
0.3333333333333333
 40
0.3333333333333333
 40
0.3333333333333333
 40
0.3333333333333333
 40
1.0
 40
1.0
 40
1.0
 40
1.0
 10
77.4785
 20
-16.0432
 30
0.0
 10
77.4785
 20
-16.8388
 30
0.0
 10
77.1623
 20
-17.6016
 30
0.0
 10
76.5998
 20
-18.1644
 30
0.0
 10
76.5998
 20
-18.1644
 30
0.0
 10
76.0373
 20
-18.7269
 30
0.0
 10
75.2741
 20
-19.0431
 30
0.0
 10
74.4785
 20
-19.0431
 30
0.0
  0
SPLINE
  5
69
330
1F
100
AcDbEntity
  8
LAYER_1
 62
   250
100
AcDbSpline
210
0.0
220
0.0
230
1.0
 70
     8
 71
     3
 72
    16
 73
    12
 74
     0
 42
0.0000000001
 43
0.0000000001
 40
0.0
 40
0.0
 40
0.0
 40
0.0
 40
0.25
 40
0.25
 40
0.25
 40
0.25
 40
0.5
 40
0.5
 40
0.5
 40
0.5
 40
1.0
 40
1.0
 40
1.0
 40
1.0
 10
-40.2469
 20
-6.5657
 30
0.0
 10
-40.2469
 20
-6.5657
 30
0.0
 10
-40.9969
 20
-6.5657
 30
0.0
 10
-40.9969
 20
-6.5657
 30
0.0
 10
-40.9969
 20
-6.5657
 30
0.0
 10
-40.9969
 20
-6.5657
 30
0.0
 10
-40.9969
 20
-10.0657
 30
0.0
 10
-40.9969
 20
-10.0657
 30
0.0
 10
-40.9969
 20
-10.0657
 30
0.0
 10
-40.9969
 20
-10.0657
 30
0.0
 10
-40.2469
 20
-10.0657
 30
0.0
 10
-40.2469
 20
-10.0657
 30
0.0
  0
SPLINE
  5
6A
330
1F
100
AcDbEntity
  8
LAYER_1
 62
   250
100
AcDbSpline
210
0.0
220
0.0
230
1.0
 70
    24
 71
     3
 72
     8
 73
     4
 74
     0
 42
0.0000000001
 43
0.0000000001
 40
0.0
 40
0.0
 40
0.0
 40
0.0
 40
1.0
 40
1.0
 40
1.0
 40
1.0
 10
-40.2469
 20
-10.0657
 30
0.0
 10
-40.2469
 20
-10.0657
 30
0.0
 10
-40.2469
 20
-12.1116
 30
0.0
 10
-40.2469
 20
-12.1116
 30
0.0
  0
SPLINE
  5
6B
330
1F
100
AcDbEntity
  8
LAYER_1
 62
   250
100
AcDbSpline
210
0.0
220
0.0
230
1.0
 70
    24
 71
     3
 72
     8
 73
     4
 74
     0
 42
0.0000000001
 43
0.0000000001
 40
0.0
 40
0.0
 40
0.0
 40
0.0
 40
1.0
 40
1.0
 40
1.0
 40
1.0
 10
16.731
 20
76.2626
 30
0.0
 10
16.731
 20
76.2626
 30
0.0
 10
16.7312
 20
76.2626
 30
0.0
 10
16.7315
 20
76.2626
 30
0.0
  0
SPLINE
  5
6C
330
1F
100
AcDbEntity
  8
LAYER_1
 62
   250
100
AcDbSpline
210
0.0
220
0.0
230
1.0
 70
    24
 71
     3
 72
     8
 73
     4
 74
     0
 42
0.0000000001
 43
0.0000000001
 40
0.0
 40
0.0
 40
0.0
 40
0.0
 40
1.0
 40
1.0
 40
1.0
 40
1.0
 10
16.731
 20
76.2623
 30
0.0
 10
16.731
 20
76.2623
 30
0.0
 10
16.731
 20
76.2626
 30
0.0
 10
16.731
 20
76.2626
 30
0.0
  0
SPLINE
  5
6D
330
1F
100
AcDbEntity
  8
LAYER_1
 62
   250
100
AcDbSpline
210
0.0
220
0.0
230
1.0
 70
    24
 71
     3
 72
     8
 73
     4
 74
     0
 42
0.0000000001
 43
0.0000000001
 40
0.0
 40
0.0
 40
0.0
 40
0.0
 40
1.0
 40
1.0
 40
1.0
 40
1.0
 10
-11.7124
 20
83.9372
 30
0.0
 10
-11.7124
 20
83.9372
 30
0.0
 10
-11.7124
 20
84.7222
 30
0.0
 10
-11.7124
 20
84.7222
 30
0.0
  0
SPLINE
  5
6E
330
1F
100
AcDbEntity
  8
LAYER_1
 62
   250
100
AcDbSpline
210
0.0
220
0.0
230
1.0
 70
    24
 71
     3
 72
     8
 73
     4
 74
     0
 42
0.0000000001
 43
0.0000000001
 40
0.0
 40
0.0
 40
0.0
 40
0.0
 40
1.0
 40
1.0
 40
1.0
 40
1.0
 10
-12.2572
 20
85.2137
 30
0.0
 10
-12.2572
 20
85.2137
 30
0.0
 10
-14.3497
 20
85.2137
 30
0.0
 10
-14.3497
 20
85.2137
 30
0.0
  0
SPLINE
  5
6F
330
1F
100
AcDbEntity
  8
LAYER_1
 62
   250
100
AcDbSpline
210
0.0
220
0.0
230
1.0
 70
    24
 71
     3
 72
     8
 73
     4
 74
     0
 42
0.0000000001
 43
0.0000000001
 40
0.0
 40
0.0
 40
0.0
 40
0.0
 40
1.0
 40
1.0
 40
1.0
 40
1.0
 10
-15.3433
 20
84.2309
 30
0.0
 10
-15.3433
 20
84.2309
 30
0.0
 10
-15.3433
 20
73.314
 30
0.0
 10
-15.3433
 20
73.314
 30
0.0
  0
SPLINE
  5
70
330
1F
100
AcDbEntity
  8
LAYER_1
 62
   250
100
AcDbSpline
210
0.0
220
0.0
230
1.0
 70
     8
 71
     3
 72
    12
 73
     8
 74
     0
 42
0.0000000001
 43
0.0000000001
 40
0.0
 40
0.0
 40
0.0
 40
0.0
 40
0.3333333333333333
 40
0.3333333333333333
 40
0.3333333333333333
 40
0.3333333333333333
 40
1.0
 40
1.0
 40
1.0
 40
1.0
 10
-14.3497
 20
85.2137
 30
0.0
 10
-14.6132
 20
85.2137
 30
0.0
 10
-14.866
 20
85.1101
 30
0.0
 10
-15.0523
 20
84.9258
 30
0.0
 10
-15.0523
 20
84.9258
 30
0.0
 10
-15.2386
 20
84.7415
 30
0.0
 10
-15.3433
 20
84.4915
 30
0.0
 10
-15.3433
 20
84.2309
 30
0.0
  0
SPLINE
  5
71
330
1F
100
AcDbEntity
  8
LAYER_1
 62
   250
100
AcDbSpline
210
0.0
220
0.0
230
1.0
 70
     8
 71
     3
 72
    12
 73
     8
 74
     0
 42
0.0000000001
 43
0.0000000001
 40
0.0
 40
0.0
 40
0.0
 40
0.0
 40
0.3333333333333333
 40
0.3333333333333333
 40
0.3333333333333333
 40
0.3333333333333333
 40
1.0
 40
1.0
 40
1.0
 40
1.0
 10
-11.7124
 20
84.7222
 30
0.0
 10
-11.7124
 20
84.8526
 30
0.0
 10
-11.7697
 20
84.9776
 30
0.0
 10
-11.8719
 20
85.0697
 30
0.0
 10
-11.8719
 20
85.0697
 30
0.0
 10
-11.9741
 20
85.1619
 30
0.0
 10
-12.1127
 20
85.2137
 30
0.0
 10
-12.2572
 20
85.2137
 30
0.0
  0
SPLINE
  5
72
330
1F
100
AcDbEntity
  8
LAYER_1
 62
   250
100
AcDbSpline
210
0.0
220
0.0
230
1.0
 70
    24
 71
     3
 72
     8
 73
     4
 74
     0
 42
0.0000000001
 43
0.0000000001
 40
0.0
 40
0.0
 40
0.0
 40
0.0
 40
1.0
 40
1.0
 40
1.0
 40
1.0
 10
-12.3627
 20
83.8881
 30
0.0
 10
-12.3627
 20
83.8881
 30
0.0
 10
-12.3627
 20
77.2456
 30
0.0
 10
-12.3627
 20
77.2456
 30
0.0
  0
SPLINE
  5
73
330
1F
100
AcDbEntity
  8
LAYER_1
 62
   250
100
AcDbSpline
210
0.0
220
0.0
230
1.0
 70
    24
 71
     3
 72
     8
 73
     4
 74
     0
 42
0.0000000001
 43
0.0000000001
 40
0.0
 40
0.0
 40
0.0
 40
0.0
 40
1.0
 40
1.0
 40
1.0
 40
1.0
 10
-12.3431
 20
70.3141
 30
0.0
 10
-12.3431
 20
70.3141
 30
0.0
 10
1.3803
 20
70.3141
 30
0.0
 10
1.3803
 20
70.3141
 30
0.0
  0
SPLINE
  5
74
330
1F
100
AcDbEntity
  8
LAYER_1
 62
   250
100
AcDbSpline
210
0.0
220
0.0
230
1.0
 70
    24
 71
     3
 72
     8
 73
     4
 74
     0
 42
0.0000000001
 43
0.0000000001
 40
0.0
 40
0.0
 40
0.0
 40
0.0
 40
1.0
 40
1.0
 40
1.0
 40
1.0
 10
-11.3692
 20
76.2626
 30
0.0
 10
-11.3692
 20
76.2626
 30
0.0
 10
16.7315
 20
76.2626
 30
0.0
 10
16.7315
 20
76.2626
 30
0.0
  0
SPLINE
  5
75
330
1F
100
AcDbEntity
  8
LAYER_1
 62
   250
100
AcDbSpline
210
0.0
220
0.0
230
1.0
 70
     8
 71
     3
 72
    12
 73
     8
 74
     0
 42
0.0000000001
 43
0.0000000001
 40
0.0
 40
0.0
 40
0.0
 40
0.0
 40
0.3333333333333333
 40
0.3333333333333333
 40
0.3333333333333333
 40
0.3333333333333333
 40
1.0
 40
1.0
 40
1.0
 40
1.0
 10
-12.3627
 20
77.2456
 30
0.0
 10
-12.3627
 20
76.9849
 30
0.0
 10
-12.258
 20
76.735
 30
0.0
 10
-12.0716
 20
76.5505
 30
0.0
 10
-12.0716
 20
76.5505
 30
0.0
 10
-11.8854
 20
76.3662
 30
0.0
 10
-11.6326
 20
76.2626
 30
0.0
 10
-11.3692
 20
76.2626
 30
0.0
  0
SPLINE
  5
76
330
1F
100
AcDbEntity
  8
LAYER_1
 62
   250
100
AcDbSpline
210
0.0
220
0.0
230
1.0
 70
    24
 71
     3
 72
     8
 73
     4
 74
     0
 42
0.0000000001
 43
0.0000000001
 40
0.0
 40
0.0
 40
0.0
 40
0.0
 40
1.0
 40
1.0
 40
1.0
 40
1.0
 10
-12.3627
 20
83.8881
 30
0.0
 10
-12.3627
 20
83.8881
 30
0.0
 10
-11.7669
 20
83.8881
 30
0.0
 10
-11.7669
 20
83.8881
 30
0.0
  0
SPLINE
  5
77
330
1F
100
AcDbEntity
  8
LAYER_1
 62
   250
100
AcDbSpline
210
0.0
220
0.0
230
1.0
 70
     8
 71
     3
 72
     8
 73
     4
 74
     0
 42
0.0000000001
 43
0.0000000001
 40
0.0
 40
0.0
 40
0.0
 40
0.0
 40
1.0
 40
1.0
 40
1.0
 40
1.0
 10
-11.7669
 20
83.8881
 30
0.0
 10
-11.7368
 20
83.8881
 30
0.0
 10
-11.7124
 20
83.9101
 30
0.0
 10
-11.7124
 20
83.9372
 30
0.0
  0
SPLINE
  5
78
330
1F
100
AcDbEntity
  8
LAYER_1
 62
   250
100
AcDbSpline
210
0.0
220
0.0
230
1.0
 70
    24
 71
     3
 72
     8
 73
     4
 74
     0
 42
0.0000000001
 43
0.0000000001
 40
0.0
 40
0.0
 40
0.0
 40
0.0
 40
1.0
 40
1.0
 40
1.0
 40
1.0
 10
45.7202
 20
85.2137
 30
0.0
 10
45.7202
 20
85.2137
 30
0.0
 10
47.8127
 20
85.2137
 30
0.0
 10
47.8127
 20
85.2137
 30
0.0
  0
SPLINE
  5
79
330
1F
100
AcDbEntity
  8
LAYER_1
 62
   250
100
AcDbSpline
210
0.0
220
0.0
230
1.0
 70
     8
 71
     3
 72
    12
 73
     8
 74
     0
 42
0.0000000001
 43
0.0000000001
 40
0.0
 40
0.0
 40
0.0
 40
0.0
 40
0.3333333333333333
 40
0.3333333333333333
 40
0.3333333333333333
 40
0.3333333333333333
 40
1.0
 40
1.0
 40
1.0
 40
1.0
 10
48.8063
 20
84.2309
 30
0.0
 10
48.8063
 20
84.4915
 30
0.0
 10
48.7016
 20
84.7415
 30
0.0
 10
48.5153
 20
84.9258
 30
0.0
 10
48.5153
 20
84.9258
 30
0.0
 10
48.329
 20
85.1101
 30
0.0
 10
48.0762
 20
85.2137
 30
0.0
 10
47.8127
 20
85.2137
 30
0.0
  0
SPLINE
  5
7A
330
1F
100
AcDbEntity
  8
LAYER_1
 62
   250
100
AcDbSpline
210
0.0
220
0.0
230
1.0
 70
    24
 71
     3
 72
     8
 73
     4
 74
     0
 42
0.0000000001
 43
0.0000000001
 40
0.0
 40
0.0
 40
0.0
 40
0.0
 40
1.0
 40
1.0
 40
1.0
 40
1.0
 10
45.8257
 20
83.8881
 30
0.0
 10
45.8257
 20
83.8881
 30
0.0
 10
45.8257
 20
77.2456
 30
0.0
 10
45.8257
 20
77.2456
 30
0.0
  0
SPLINE
  5
7B
330
1F
100
AcDbEntity
  8
LAYER_1
 62
   250
100
AcDbSpline
210
0.0
220
0.0
230
1.0
 70
    24
 71
     3
 72
    12
 73
     8
 74
     0
 42
0.0000000001
 43
0.0000000001
 40
0.0
 40
0.0
 40
0.0
 40
0.0
 40
0.3333333333333333
 40
0.3333333333333333
 40
0.3333333333333333
 40
0.3333333333333333
 40
1.0
 40
1.0
 40
1.0
 40
1.0
 10
4.2799
 20
70.3141
 30
0.0
 10
4.2799
 20
70.3141
 30
0.0
 10
16.7135
 20
70.3141
 30
0.0
 10
16.7135
 20
70.3141
 30
0.0
 10
16.7135
 20
70.3141
 30
0.0
 10
16.7135
 20
70.3141
 30
0.0
 10
25.3545
 20
70.3141
 30
0.0
 10
25.3545
 20
70.3141
 30
0.0
  0
SPLINE
  5
7C
330
1F
100
AcDbEntity
  8
LAYER_1
 62
   250
100
AcDbSpline
210
0.0
220
0.0
230
1.0
 70
    24
 71
     3
 72
     8
 73
     4
 74
     0
 42
0.0000000001
 43
0.0000000001
 40
0.0
 40
0.0
 40
0.0
 40
0.0
 40
1.0
 40
1.0
 40
1.0
 40
1.0
 10
44.8322
 20
76.2626
 30
0.0
 10
44.8322
 20
76.2626
 30
0.0
 10
16.7315
 20
76.2626
 30
0.0
 10
16.7315
 20
76.2626
 30
0.0
  0
SPLINE
  5
7D
330
1F
100
AcDbEntity
  8
LAYER_1
 62
   250
100
AcDbSpline
210
0.0
220
0.0
230
1.0
 70
     8
 71
     3
 72
     8
 73
     4
 74
     0
 42
0.0000000001
 43
0.0000000001
 40
0.0
 40
0.0
 40
0.0
 40
0.0
 40
1.0
 40
1.0
 40
1.0
 40
1.0
 10
44.8322
 20
76.2626
 30
0.0
 10
45.3809
 20
76.2626
 30
0.0
 10
45.8257
 20
76.7027
 30
0.0
 10
45.8257
 20
77.2456
 30
0.0
  0
SPLINE
  5
7E
330
1F
100
AcDbEntity
  8
LAYER_1
 62
   250
100
AcDbSpline
210
0.0
220
0.0
230
1.0
 70
    24
 71
     3
 72
     8
 73
     4
 74
     0
 42
0.0000000001
 43
0.0000000001
 40
0.0
 40
0.0
 40
0.0
 40
0.0
 40
1.0
 40
1.0
 40
1.0
 40
1.0
 10
45.1754
 20
83.9372
 30
0.0
 10
45.1754
 20
83.9372
 30
0.0
 10
45.1754
 20
84.7222
 30
0.0
 10
45.1754
 20
84.7222
 30
0.0
  0
SPLINE
  5
7F
330
1F
100
AcDbEntity
  8
LAYER_1
 62
   250
100
AcDbSpline
210
0.0
220
0.0
230
1.0
 70
     8
 71
     3
 72
    12
 73
     8
 74
     0
 42
0.0000000001
 43
0.0000000001
 40
0.0
 40
0.0
 40
0.0
 40
0.0
 40
0.3333333333333333
 40
0.3333333333333333
 40
0.3333333333333333
 40
0.3333333333333333
 40
1.0
 40
1.0
 40
1.0
 40
1.0
 10
45.1754
 20
84.7222
 30
0.0
 10
45.1754
 20
84.8526
 30
0.0
 10
45.2327
 20
84.9776
 30
0.0
 10
45.3349
 20
85.0697
 30
0.0
 10
45.3349
 20
85.0697
 30
0.0
 10
45.4371
 20
85.1619
 30
0.0
 10
45.5757
 20
85.2137
 30
0.0
 10
45.7202
 20
85.2137
 30
0.0
  0
SPLINE
  5
80
330
1F
100
AcDbEntity
  8
LAYER_1
 62
   250
100
AcDbSpline
210
0.0
220
0.0
230
1.0
 70
    24
 71
     3
 72
     8
 73
     4
 74
     0
 42
0.0000000001
 43
0.0000000001
 40
0.0
 40
0.0
 40
0.0
 40
0.0
 40
1.0
 40
1.0
 40
1.0
 40
1.0
 10
45.8257
 20
83.8881
 30
0.0
 10
45.8257
 20
83.8881
 30
0.0
 10
45.2299
 20
83.8881
 30
0.0
 10
45.2299
 20
83.8881
 30
0.0
  0
SPLINE
  5
81
330
1F
100
AcDbEntity
  8
LAYER_1
 62
   250
100
AcDbSpline
210
0.0
220
0.0
230
1.0
 70
     8
 71
     3
 72
     8
 73
     4
 74
     0
 42
0.0000000001
 43
0.0000000001
 40
0.0
 40
0.0
 40
0.0
 40
0.0
 40
1.0
 40
1.0
 40
1.0
 40
1.0
 10
45.2299
 20
83.8881
 30
0.0
 10
45.1998
 20
83.8881
 30
0.0
 10
45.1754
 20
83.9101
 30
0.0
 10
45.1754
 20
83.9372
 30
0.0
  0
SPLINE
  5
82
330
1F
100
AcDbEntity
  8
LAYER_1
 62
   250
100
AcDbSpline
210
0.0
220
0.0
230
1.0
 70
    24
 71
     3
 72
     8
 73
     4
 74
     0
 42
0.0000000001
 43
0.0000000001
 40
0.0
 40
0.0
 40
0.0
 40
0.0
 40
1.0
 40
1.0
 40
1.0
 40
1.0
 10
4.2799
 20
70.3141
 30
0.0
 10
4.2799
 20
70.3141
 30
0.0
 10
4.2799
 20
73.2139
 30
0.0
 10
4.2799
 20
73.2139
 30
0.0
  0
SPLINE
  5
83
330
1F
100
AcDbEntity
  8
LAYER_1
 62
   250
100
AcDbSpline
210
0.0
220
0.0
230
1.0
 70
    24
 71
     3
 72
     8
 73
     4
 74
     0
 42
0.0000000001
 43
0.0000000001
 40
0.0
 40
0.0
 40
0.0
 40
0.0
 40
1.0
 40
1.0
 40
1.0
 40
1.0
 10
1.3803
 20
70.3141
 30
0.0
 10
1.3803
 20
70.3141
 30
0.0
 10
1.3803
 20
73.2139
 30
0.0
 10
1.3803
 20
73.2139
 30
0.0
  0
SPLINE
  5
84
330
1F
100
AcDbEntity
  8
LAYER_1
 62
   250
100
AcDbSpline
210
0.0
220
0.0
230
1.0
 70
    24
 71
     3
 72
     8
 73
     4
 74
     0
 42
0.0000000001
 43
0.0000000001
 40
0.0
 40
0.0
 40
0.0
 40
0.0
 40
1.0
 40
1.0
 40
1.0
 40
1.0
 10
28.2541
 20
70.3141
 30
0.0
 10
28.2541
 20
70.3141
 30
0.0
 10
28.2541
 20
73.2139
 30
0.0
 10
28.2541
 20
73.2139
 30
0.0
  0
SPLINE
  5
85
330
1F
100
AcDbEntity
  8
LAYER_1
 62
   250
100
AcDbSpline
210
0.0
220
0.0
230
1.0
 70
    24
 71
     3
 72
     8
 73
     4
 74
     0
 42
0.0000000001
 43
0.0000000001
 40
0.0
 40
0.0
 40
0.0
 40
0.0
 40
1.0
 40
1.0
 40
1.0
 40
1.0
 10
25.3545
 20
70.3141
 30
0.0
 10
25.3545
 20
70.3141
 30
0.0
 10
25.3545
 20
73.2139
 30
0.0
 10
25.3545
 20
73.2139
 30
0.0
  0
SPLINE
  5
86
330
1F
100
AcDbEntity
  8
LAYER_1
 62
   250
100
AcDbSpline
210
0.0
220
0.0
230
1.0
 70
    24
 71
     3
 72
     8
 73
     4
 74
     0
 42
0.0000000001
 43
0.0000000001
 40
0.0
 40
0.0
 40
0.0
 40
0.0
 40
1.0
 40
1.0
 40
1.0
 40
1.0
 10
4.2799
 20
73.2139
 30
0.0
 10
4.2799
 20
73.2139
 30
0.0
 10
1.3803
 20
73.2139
 30
0.0
 10
1.3803
 20
73.2139
 30
0.0
  0
SPLINE
  5
87
330
1F
100
AcDbEntity
  8
LAYER_1
 62
   250
100
AcDbSpline
210
0.0
220
0.0
230
1.0
 70
    24
 71
     3
 72
     8
 73
     4
 74
     0
 42
0.0000000001
 43
0.0000000001
 40
0.0
 40
0.0
 40
0.0
 40
0.0
 40
1.0
 40
1.0
 40
1.0
 40
1.0
 10
28.2541
 20
73.2139
 30
0.0
 10
28.2541
 20
73.2139
 30
0.0
 10
25.3545
 20
73.2139
 30
0.0
 10
25.3545
 20
73.2139
 30
0.0
  0
SPLINE
  5
88
330
1F
100
AcDbEntity
  8
LAYER_1
 62
   250
100
AcDbSpline
210
0.0
220
0.0
230
1.0
 70
    24
 71
     3
 72
     8
 73
     4
 74
     0
 42
0.0000000001
 43
0.0000000001
 40
0.0
 40
0.0
 40
0.0
 40
0.0
 40
1.0
 40
1.0
 40
1.0
 40
1.0
 10
16.731
 20
76.2626
 30
0.0
 10
16.731
 20
76.2626
 30
0.0
 10
16.7312
 20
76.2626
 30
0.0
 10
16.7315
 20
76.2626
 30
0.0
  0
SPLINE
  5
89
330
1F
100
AcDbEntity
  8
LAYER_1
 62
   250
100
AcDbSpline
210
0.0
220
0.0
230
1.0
 70
    24
 71
     3
 72
     8
 73
     4
 74
     0
 42
0.0000000001
 43
0.0000000001
 40
0.0
 40
0.0
 40
0.0
 40
0.0
 40
1.0
 40
1.0
 40
1.0
 40
1.0
 10
16.731
 20
76.2623
 30
0.0
 10
16.731
 20
76.2623
 30
0.0
 10
16.731
 20
76.2626
 30
0.0
 10
16.731
 20
76.2626
 30
0.0
  0
SPLINE
  5
8A
330
1F
100
AcDbEntity
  8
LAYER_1
 62
   250
100
AcDbSpline
210
0.0
220
0.0
230
1.0
 70
     8
 71
     3
 72
    12
 73
     8
 74
     0
 42
0.0000000001
 43
0.0000000001
 40
0.0
 40
0.0
 40
0.0
 40
0.0
 40
0.3333333333333333
 40
0.3333333333333333
 40
0.3333333333333333
 40
0.3333333333333333
 40
1.0
 40
1.0
 40
1.0
 40
1.0
 10
-15.3433
 20
73.314
 30
0.0
 10
-15.3433
 20
72.5184
 30
0.0
 10
-15.027
 20
71.7556
 30
0.0
 10
-14.4645
 20
71.1928
 30
0.0
 10
-14.4645
 20
71.1928
 30
0.0
 10
-13.902
 20
70.6303
 30
0.0
 10
-13.1388
 20
70.3141
 30
0.0
 10
-12.3431
 20
70.3141
 30
0.0
  0
SPLINE
  5
8B
330
1F
100
AcDbEntity
  8
LAYER_1
 62
   250
100
AcDbSpline
210
0.0
220
0.0
230
1.0
 70
    24
 71
     3
 72
     8
 73
     4
 74
     0
 42
0.0000000001
 43
0.0000000001
 40
0.0
 40
0.0
 40
0.0
 40
0.0
 40
1.0
 40
1.0
 40
1.0
 40
1.0
 10
48.8063
 20
84.2309
 30
0.0
 10
48.8063
 20
84.2309
 30
0.0
 10
48.8063
 20
73.3142
 30
0.0
 10
48.8063
 20
73.3142
 30
0.0
  0
SPLINE
  5
8C
330
1F
100
AcDbEntity
  8
LAYER_1
 62
   250
100
AcDbSpline
210
0.0
220
0.0
230
1.0
 70
    24
 71
     3
 72
     8
 73
     4
 74
     0
 42
0.0000000001
 43
0.0000000001
 40
0.0
 40
0.0
 40
0.0
 40
0.0
 40
1.0
 40
1.0
 40
1.0
 40
1.0
 10
45.8061
 20
70.3142
 30
0.0
 10
45.8061
 20
70.3142
 30
0.0
 10
28.2541
 20
70.3142
 30
0.0
 10
28.2541
 20
70.3142
 30
0.0
  0
SPLINE
  5
8D
330
1F
100
AcDbEntity
  8
LAYER_1
 62
   250
100
AcDbSpline
210
0.0
220
0.0
230
1.0
 70
     8
 71
     3
 72
    12
 73
     8
 74
     0
 42
0.0000000001
 43
0.0000000001
 40
0.0
 40
0.0
 40
0.0
 40
0.0
 40
0.3333333333333333
 40
0.3333333333333333
 40
0.3333333333333333
 40
0.3333333333333333
 40
1.0
 40
1.0
 40
1.0
 40
1.0
 10
48.8063
 20
73.3141
 30
0.0
 10
48.8063
 20
72.5185
 30
0.0
 10
48.49
 20
71.7557
 30
0.0
 10
47.9275
 20
71.1929
 30
0.0
 10
47.9275
 20
71.1929
 30
0.0
 10
47.365
 20
70.6304
 30
0.0
 10
46.6018
 20
70.3142
 30
0.0
 10
45.8061
 20
70.3142
 30
0.0
  0
SPLINE
  5
8E
330
1F
100
AcDbEntity
  8
LAYER_1
 62
   250
100
AcDbSpline
210
0.0
220
0.0
230
1.0
 70
    24
 71
     3
 72
     8
 73
     4
 74
     0
 42
0.0000000001
 43
0.0000000001
 40
0.0
 40
0.0
 40
0.0
 40
0.0
 40
1.0
 40
1.0
 40
1.0
 40
1.0
 10
16.4135
 20
58.2709
 30
0.0
 10
16.4135
 20
58.2709
 30
0.0
 10
16.4137
 20
58.2709
 30
0.0
 10
16.414
 20
58.2709
 30
0.0
  0
SPLINE
  5
8F
330
1F
100
AcDbEntity
  8
LAYER_1
 62
   250
100
AcDbSpline
210
0.0
220
0.0
230
1.0
 70
    24
 71
     3
 72
     8
 73
     4
 74
     0
 42
0.0000000001
 43
0.0000000001
 40
0.0
 40
0.0
 40
0.0
 40
0.0
 40
1.0
 40
1.0
 40
1.0
 40
1.0
 10
16.4135
 20
58.2706
 30
0.0
 10
16.4135
 20
58.2706
 30
0.0
 10
16.4135
 20
58.2709
 30
0.0
 10
16.4135
 20
58.2709
 30
0.0
  0
SPLINE
  5
90
330
1F
100
AcDbEntity
  8
LAYER_1
 62
   250
100
AcDbSpline
210
0.0
220
0.0
230
1.0
 70
    24
 71
     3
 72
     8
 73
     4
 74
     0
 42
0.0000000001
 43
0.0000000001
 40
0.0
 40
0.0
 40
0.0
 40
0.0
 40
1.0
 40
1.0
 40
1.0
 40
1.0
 10
-12.0299
 20
65.9455
 30
0.0
 10
-12.0299
 20
65.9455
 30
0.0
 10
-12.0299
 20
66.7305
 30
0.0
 10
-12.0299
 20
66.7305
 30
0.0
  0
SPLINE
  5
91
330
1F
100
AcDbEntity
  8
LAYER_1
 62
   250
100
AcDbSpline
210
0.0
220
0.0
230
1.0
 70
    24
 71
     3
 72
     8
 73
     4
 74
     0
 42
0.0000000001
 43
0.0000000001
 40
0.0
 40
0.0
 40
0.0
 40
0.0
 40
1.0
 40
1.0
 40
1.0
 40
1.0
 10
-12.5747
 20
67.222
 30
0.0
 10
-12.5747
 20
67.222
 30
0.0
 10
-14.6672
 20
67.222
 30
0.0
 10
-14.6672
 20
67.222
 30
0.0
  0
SPLINE
  5
92
330
1F
100
AcDbEntity
  8
LAYER_1
 62
   250
100
AcDbSpline
210
0.0
220
0.0
230
1.0
 70
    24
 71
     3
 72
     8
 73
     4
 74
     0
 42
0.0000000001
 43
0.0000000001
 40
0.0
 40
0.0
 40
0.0
 40
0.0
 40
1.0
 40
1.0
 40
1.0
 40
1.0
 10
-15.6608
 20
66.2392
 30
0.0
 10
-15.6608
 20
66.2392
 30
0.0
 10
-15.6608
 20
55.3223
 30
0.0
 10
-15.6608
 20
55.3223
 30
0.0
  0
SPLINE
  5
93
330
1F
100
AcDbEntity
  8
LAYER_1
 62
   250
100
AcDbSpline
210
0.0
220
0.0
230
1.0
 70
     8
 71
     3
 72
    12
 73
     8
 74
     0
 42
0.0000000001
 43
0.0000000001
 40
0.0
 40
0.0
 40
0.0
 40
0.0
 40
0.3333333333333333
 40
0.3333333333333333
 40
0.3333333333333333
 40
0.3333333333333333
 40
1.0
 40
1.0
 40
1.0
 40
1.0
 10
-14.6672
 20
67.222
 30
0.0
 10
-14.9307
 20
67.222
 30
0.0
 10
-15.1835
 20
67.1184
 30
0.0
 10
-15.3698
 20
66.9341
 30
0.0
 10
-15.3698
 20
66.9341
 30
0.0
 10
-15.5561
 20
66.7498
 30
0.0
 10
-15.6608
 20
66.4998
 30
0.0
 10
-15.6608
 20
66.2392
 30
0.0
  0
SPLINE
  5
94
330
1F
100
AcDbEntity
  8
LAYER_1
 62
   250
100
AcDbSpline
210
0.0
220
0.0
230
1.0
 70
     8
 71
     3
 72
    12
 73
     8
 74
     0
 42
0.0000000001
 43
0.0000000001
 40
0.0
 40
0.0
 40
0.0
 40
0.0
 40
0.3333333333333333
 40
0.3333333333333333
 40
0.3333333333333333
 40
0.3333333333333333
 40
1.0
 40
1.0
 40
1.0
 40
1.0
 10
-12.0299
 20
66.7305
 30
0.0
 10
-12.0299
 20
66.8609
 30
0.0
 10
-12.0872
 20
66.9859
 30
0.0
 10
-12.1894
 20
67.078
 30
0.0
 10
-12.1894
 20
67.078
 30
0.0
 10
-12.2916
 20
67.1702
 30
0.0
 10
-12.4302
 20
67.222
 30
0.0
 10
-12.5747
 20
67.222
 30
0.0
  0
SPLINE
  5
95
330
1F
100
AcDbEntity
  8
LAYER_1
 62
   250
100
AcDbSpline
210
0.0
220
0.0
230
1.0
 70
    24
 71
     3
 72
     8
 73
     4
 74
     0
 42
0.0000000001
 43
0.0000000001
 40
0.0
 40
0.0
 40
0.0
 40
0.0
 40
1.0
 40
1.0
 40
1.0
 40
1.0
 10
-12.6802
 20
65.8964
 30
0.0
 10
-12.6802
 20
65.8964
 30
0.0
 10
-12.6802
 20
59.2539
 30
0.0
 10
-12.6802
 20
59.2539
 30
0.0
  0
SPLINE
  5
96
330
1F
100
AcDbEntity
  8
LAYER_1
 62
   250
100
AcDbSpline
210
0.0
220
0.0
230
1.0
 70
    24
 71
     3
 72
     8
 73
     4
 74
     0
 42
0.0000000001
 43
0.0000000001
 40
0.0
 40
0.0
 40
0.0
 40
0.0
 40
1.0
 40
1.0
 40
1.0
 40
1.0
 10
-12.6606
 20
52.3224
 30
0.0
 10
-12.6606
 20
52.3224
 30
0.0
 10
1.0628
 20
52.3224
 30
0.0
 10
1.0628
 20
52.3224
 30
0.0
  0
SPLINE
  5
97
330
1F
100
AcDbEntity
  8
LAYER_1
 62
   250
100
AcDbSpline
210
0.0
220
0.0
230
1.0
 70
    24
 71
     3
 72
     8
 73
     4
 74
     0
 42
0.0000000001
 43
0.0000000001
 40
0.0
 40
0.0
 40
0.0
 40
0.0
 40
1.0
 40
1.0
 40
1.0
 40
1.0
 10
-11.6867
 20
58.2709
 30
0.0
 10
-11.6867
 20
58.2709
 30
0.0
 10
16.414
 20
58.2709
 30
0.0
 10
16.414
 20
58.2709
 30
0.0
  0
SPLINE
  5
98
330
1F
100
AcDbEntity
  8
LAYER_1
 62
   250
100
AcDbSpline
210
0.0
220
0.0
230
1.0
 70
     8
 71
     3
 72
    12
 73
     8
 74
     0
 42
0.0000000001
 43
0.0000000001
 40
0.0
 40
0.0
 40
0.0
 40
0.0
 40
0.3333333333333333
 40
0.3333333333333333
 40
0.3333333333333333
 40
0.3333333333333333
 40
1.0
 40
1.0
 40
1.0
 40
1.0
 10
-12.6802
 20
59.2539
 30
0.0
 10
-12.6802
 20
58.9932
 30
0.0
 10
-12.5755
 20
58.7433
 30
0.0
 10
-12.3891
 20
58.5588
 30
0.0
 10
-12.3891
 20
58.5588
 30
0.0
 10
-12.2029
 20
58.3745
 30
0.0
 10
-11.9501
 20
58.2709
 30
0.0
 10
-11.6867
 20
58.2709
 30
0.0
  0
SPLINE
  5
99
330
1F
100
AcDbEntity
  8
LAYER_1
 62
   250
100
AcDbSpline
210
0.0
220
0.0
230
1.0
 70
    24
 71
     3
 72
     8
 73
     4
 74
     0
 42
0.0000000001
 43
0.0000000001
 40
0.0
 40
0.0
 40
0.0
 40
0.0
 40
1.0
 40
1.0
 40
1.0
 40
1.0
 10
-12.6802
 20
65.8964
 30
0.0
 10
-12.6802
 20
65.8964
 30
0.0
 10
-12.0844
 20
65.8964
 30
0.0
 10
-12.0844
 20
65.8964
 30
0.0
  0
SPLINE
  5
9A
330
1F
100
AcDbEntity
  8
LAYER_1
 62
   250
100
AcDbSpline
210
0.0
220
0.0
230
1.0
 70
     8
 71
     3
 72
     8
 73
     4
 74
     0
 42
0.0000000001
 43
0.0000000001
 40
0.0
 40
0.0
 40
0.0
 40
0.0
 40
1.0
 40
1.0
 40
1.0
 40
1.0
 10
-12.0844
 20
65.8964
 30
0.0
 10
-12.0543
 20
65.8964
 30
0.0
 10
-12.0299
 20
65.9184
 30
0.0
 10
-12.0299
 20
65.9455
 30
0.0
  0
SPLINE
  5
9B
330
1F
100
AcDbEntity
  8
LAYER_1
 62
   250
100
AcDbSpline
210
0.0
220
0.0
230
1.0
 70
    24
 71
     3
 72
     8
 73
     4
 74
     0
 42
0.0000000001
 43
0.0000000001
 40
0.0
 40
0.0
 40
0.0
 40
0.0
 40
1.0
 40
1.0
 40
1.0
 40
1.0
 10
45.4027
 20
67.222
 30
0.0
 10
45.4027
 20
67.222
 30
0.0
 10
47.4952
 20
67.222
 30
0.0
 10
47.4952
 20
67.222
 30
0.0
  0
SPLINE
  5
9C
330
1F
100
AcDbEntity
  8
LAYER_1
 62
   250
100
AcDbSpline
210
0.0
220
0.0
230
1.0
 70
     8
 71
     3
 72
    12
 73
     8
 74
     0
 42
0.0000000001
 43
0.0000000001
 40
0.0
 40
0.0
 40
0.0
 40
0.0
 40
0.3333333333333333
 40
0.3333333333333333
 40
0.3333333333333333
 40
0.3333333333333333
 40
1.0
 40
1.0
 40
1.0
 40
1.0
 10
48.4888
 20
66.2392
 30
0.0
 10
48.4888
 20
66.4998
 30
0.0
 10
48.3841
 20
66.7498
 30
0.0
 10
48.1978
 20
66.9341
 30
0.0
 10
48.1978
 20
66.9341
 30
0.0
 10
48.0115
 20
67.1184
 30
0.0
 10
47.7587
 20
67.222
 30
0.0
 10
47.4952
 20
67.222
 30
0.0
  0
SPLINE
  5
9D
330
1F
100
AcDbEntity
  8
LAYER_1
 62
   250
100
AcDbSpline
210
0.0
220
0.0
230
1.0
 70
    24
 71
     3
 72
     8
 73
     4
 74
     0
 42
0.0000000001
 43
0.0000000001
 40
0.0
 40
0.0
 40
0.0
 40
0.0
 40
1.0
 40
1.0
 40
1.0
 40
1.0
 10
45.5082
 20
65.8964
 30
0.0
 10
45.5082
 20
65.8964
 30
0.0
 10
45.5082
 20
59.2539
 30
0.0
 10
45.5082
 20
59.2539
 30
0.0
  0
SPLINE
  5
9E
330
1F
100
AcDbEntity
  8
LAYER_1
 62
   250
100
AcDbSpline
210
0.0
220
0.0
230
1.0
 70
    24
 71
     3
 72
    12
 73
     8
 74
     0
 42
0.0000000001
 43
0.0000000001
 40
0.0
 40
0.0
 40
0.0
 40
0.0
 40
0.3333333333333333
 40
0.3333333333333333
 40
0.3333333333333333
 40
0.3333333333333333
 40
1.0
 40
1.0
 40
1.0
 40
1.0
 10
3.9624
 20
52.3224
 30
0.0
 10
3.9624
 20
52.3224
 30
0.0
 10
16.396
 20
52.3224
 30
0.0
 10
16.396
 20
52.3224
 30
0.0
 10
16.396
 20
52.3224
 30
0.0
 10
16.396
 20
52.3224
 30
0.0
 10
25.037
 20
52.3224
 30
0.0
 10
25.037
 20
52.3224
 30
0.0
  0
SPLINE
  5
9F
330
1F
100
AcDbEntity
  8
LAYER_1
 62
   250
100
AcDbSpline
210
0.0
220
0.0
230
1.0
 70
    24
 71
     3
 72
     8
 73
     4
 74
     0
 42
0.0000000001
 43
0.0000000001
 40
0.0
 40
0.0
 40
0.0
 40
0.0
 40
1.0
 40
1.0
 40
1.0
 40
1.0
 10
44.5147
 20
58.2709
 30
0.0
 10
44.5147
 20
58.2709
 30
0.0
 10
16.414
 20
58.2709
 30
0.0
 10
16.414
 20
58.2709
 30
0.0
  0
SPLINE
  5
A0
330
1F
100
AcDbEntity
  8
LAYER_1
 62
   250
100
AcDbSpline
210
0.0
220
0.0
230
1.0
 70
     8
 71
     3
 72
     8
 73
     4
 74
     0
 42
0.0000000001
 43
0.0000000001
 40
0.0
 40
0.0
 40
0.0
 40
0.0
 40
1.0
 40
1.0
 40
1.0
 40
1.0
 10
44.5147
 20
58.2709
 30
0.0
 10
45.0634
 20
58.2709
 30
0.0
 10
45.5082
 20
58.711
 30
0.0
 10
45.5082
 20
59.2539
 30
0.0
  0
SPLINE
  5
A1
330
1F
100
AcDbEntity
  8
LAYER_1
 62
   250
100
AcDbSpline
210
0.0
220
0.0
230
1.0
 70
    24
 71
     3
 72
     8
 73
     4
 74
     0
 42
0.0000000001
 43
0.0000000001
 40
0.0
 40
0.0
 40
0.0
 40
0.0
 40
1.0
 40
1.0
 40
1.0
 40
1.0
 10
44.8579
 20
65.9455
 30
0.0
 10
44.8579
 20
65.9455
 30
0.0
 10
44.8579
 20
66.7305
 30
0.0
 10
44.8579
 20
66.7305
 30
0.0
  0
SPLINE
  5
A2
330
1F
100
AcDbEntity
  8
LAYER_1
 62
   250
100
AcDbSpline
210
0.0
220
0.0
230
1.0
 70
     8
 71
     3
 72
    12
 73
     8
 74
     0
 42
0.0000000001
 43
0.0000000001
 40
0.0
 40
0.0
 40
0.0
 40
0.0
 40
0.3333333333333333
 40
0.3333333333333333
 40
0.3333333333333333
 40
0.3333333333333333
 40
1.0
 40
1.0
 40
1.0
 40
1.0
 10
44.8579
 20
66.7305
 30
0.0
 10
44.8579
 20
66.8609
 30
0.0
 10
44.9152
 20
66.9859
 30
0.0
 10
45.0174
 20
67.078
 30
0.0
 10
45.0174
 20
67.078
 30
0.0
 10
45.1196
 20
67.1702
 30
0.0
 10
45.2582
 20
67.222
 30
0.0
 10
45.4027
 20
67.222
 30
0.0
  0
SPLINE
  5
A3
330
1F
100
AcDbEntity
  8
LAYER_1
 62
   250
100
AcDbSpline
210
0.0
220
0.0
230
1.0
 70
    24
 71
     3
 72
     8
 73
     4
 74
     0
 42
0.0000000001
 43
0.0000000001
 40
0.0
 40
0.0
 40
0.0
 40
0.0
 40
1.0
 40
1.0
 40
1.0
 40
1.0
 10
45.5082
 20
65.8964
 30
0.0
 10
45.5082
 20
65.8964
 30
0.0
 10
44.9124
 20
65.8964
 30
0.0
 10
44.9124
 20
65.8964
 30
0.0
  0
SPLINE
  5
A4
330
1F
100
AcDbEntity
  8
LAYER_1
 62
   250
100
AcDbSpline
210
0.0
220
0.0
230
1.0
 70
     8
 71
     3
 72
     8
 73
     4
 74
     0
 42
0.0000000001
 43
0.0000000001
 40
0.0
 40
0.0
 40
0.0
 40
0.0
 40
1.0
 40
1.0
 40
1.0
 40
1.0
 10
44.9124
 20
65.8964
 30
0.0
 10
44.8823
 20
65.8964
 30
0.0
 10
44.8579
 20
65.9184
 30
0.0
 10
44.8579
 20
65.9455
 30
0.0
  0
SPLINE
  5
A5
330
1F
100
AcDbEntity
  8
LAYER_1
 62
   250
100
AcDbSpline
210
0.0
220
0.0
230
1.0
 70
    24
 71
     3
 72
     8
 73
     4
 74
     0
 42
0.0000000001
 43
0.0000000001
 40
0.0
 40
0.0
 40
0.0
 40
0.0
 40
1.0
 40
1.0
 40
1.0
 40
1.0
 10
3.9624
 20
52.3224
 30
0.0
 10
3.9624
 20
52.3224
 30
0.0
 10
3.9624
 20
55.2222
 30
0.0
 10
3.9624
 20
55.2222
 30
0.0
  0
SPLINE
  5
A6
330
1F
100
AcDbEntity
  8
LAYER_1
 62
   250
100
AcDbSpline
210
0.0
220
0.0
230
1.0
 70
    24
 71
     3
 72
     8
 73
     4
 74
     0
 42
0.0000000001
 43
0.0000000001
 40
0.0
 40
0.0
 40
0.0
 40
0.0
 40
1.0
 40
1.0
 40
1.0
 40
1.0
 10
1.0628
 20
52.3224
 30
0.0
 10
1.0628
 20
52.3224
 30
0.0
 10
1.0628
 20
55.2222
 30
0.0
 10
1.0628
 20
55.2222
 30
0.0
  0
SPLINE
  5
A7
330
1F
100
AcDbEntity
  8
LAYER_1
 62
   250
100
AcDbSpline
210
0.0
220
0.0
230
1.0
 70
    24
 71
     3
 72
     8
 73
     4
 74
     0
 42
0.0000000001
 43
0.0000000001
 40
0.0
 40
0.0
 40
0.0
 40
0.0
 40
1.0
 40
1.0
 40
1.0
 40
1.0
 10
27.9366
 20
52.3224
 30
0.0
 10
27.9366
 20
52.3224
 30
0.0
 10
27.9366
 20
55.2222
 30
0.0
 10
27.9366
 20
55.2222
 30
0.0
  0
SPLINE
  5
A8
330
1F
100
AcDbEntity
  8
LAYER_1
 62
   250
100
AcDbSpline
210
0.0
220
0.0
230
1.0
 70
    24
 71
     3
 72
     8
 73
     4
 74
     0
 42
0.0000000001
 43
0.0000000001
 40
0.0
 40
0.0
 40
0.0
 40
0.0
 40
1.0
 40
1.0
 40
1.0
 40
1.0
 10
25.037
 20
52.3224
 30
0.0
 10
25.037
 20
52.3224
 30
0.0
 10
25.037
 20
55.2222
 30
0.0
 10
25.037
 20
55.2222
 30
0.0
  0
SPLINE
  5
A9
330
1F
100
AcDbEntity
  8
LAYER_1
 62
   250
100
AcDbSpline
210
0.0
220
0.0
230
1.0
 70
    24
 71
     3
 72
     8
 73
     4
 74
     0
 42
0.0000000001
 43
0.0000000001
 40
0.0
 40
0.0
 40
0.0
 40
0.0
 40
1.0
 40
1.0
 40
1.0
 40
1.0
 10
3.9624
 20
55.2222
 30
0.0
 10
3.9624
 20
55.2222
 30
0.0
 10
1.0628
 20
55.2222
 30
0.0
 10
1.0628
 20
55.2222
 30
0.0
  0
SPLINE
  5
AA
330
1F
100
AcDbEntity
  8
LAYER_1
 62
   250
100
AcDbSpline
210
0.0
220
0.0
230
1.0
 70
    24
 71
     3
 72
     8
 73
     4
 74
     0
 42
0.0000000001
 43
0.0000000001
 40
0.0
 40
0.0
 40
0.0
 40
0.0
 40
1.0
 40
1.0
 40
1.0
 40
1.0
 10
27.9366
 20
55.2222
 30
0.0
 10
27.9366
 20
55.2222
 30
0.0
 10
25.037
 20
55.2222
 30
0.0
 10
25.037
 20
55.2222
 30
0.0
  0
SPLINE
  5
AB
330
1F
100
AcDbEntity
  8
LAYER_1
 62
   250
100
AcDbSpline
210
0.0
220
0.0
230
1.0
 70
    24
 71
     3
 72
     8
 73
     4
 74
     0
 42
0.0000000001
 43
0.0000000001
 40
0.0
 40
0.0
 40
0.0
 40
0.0
 40
1.0
 40
1.0
 40
1.0
 40
1.0
 10
16.4135
 20
58.2709
 30
0.0
 10
16.4135
 20
58.2709
 30
0.0
 10
16.4137
 20
58.2709
 30
0.0
 10
16.414
 20
58.2709
 30
0.0
  0
SPLINE
  5
AC
330
1F
100
AcDbEntity
  8
LAYER_1
 62
   250
100
AcDbSpline
210
0.0
220
0.0
230
1.0
 70
    24
 71
     3
 72
     8
 73
     4
 74
     0
 42
0.0000000001
 43
0.0000000001
 40
0.0
 40
0.0
 40
0.0
 40
0.0
 40
1.0
 40
1.0
 40
1.0
 40
1.0
 10
16.4135
 20
58.2706
 30
0.0
 10
16.4135
 20
58.2706
 30
0.0
 10
16.4135
 20
58.2709
 30
0.0
 10
16.4135
 20
58.2709
 30
0.0
  0
SPLINE
  5
AD
330
1F
100
AcDbEntity
  8
LAYER_1
 62
   250
100
AcDbSpline
210
0.0
220
0.0
230
1.0
 70
     8
 71
     3
 72
    12
 73
     8
 74
     0
 42
0.0000000001
 43
0.0000000001
 40
0.0
 40
0.0
 40
0.0
 40
0.0
 40
0.3333333333333333
 40
0.3333333333333333
 40
0.3333333333333333
 40
0.3333333333333333
 40
1.0
 40
1.0
 40
1.0
 40
1.0
 10
-15.6608
 20
55.3223
 30
0.0
 10
-15.6608
 20
54.5267
 30
0.0
 10
-15.3445
 20
53.7639
 30
0.0
 10
-14.782
 20
53.2011
 30
0.0
 10
-14.782
 20
53.2011
 30
0.0
 10
-14.2195
 20
52.6386
 30
0.0
 10
-13.4563
 20
52.3224
 30
0.0
 10
-12.6606
 20
52.3224
 30
0.0
  0
SPLINE
  5
AE
330
1F
100
AcDbEntity
  8
LAYER_1
 62
   250
100
AcDbSpline
210
0.0
220
0.0
230
1.0
 70
    24
 71
     3
 72
     8
 73
     4
 74
     0
 42
0.0000000001
 43
0.0000000001
 40
0.0
 40
0.0
 40
0.0
 40
0.0
 40
1.0
 40
1.0
 40
1.0
 40
1.0
 10
48.4888
 20
66.2392
 30
0.0
 10
48.4888
 20
66.2392
 30
0.0
 10
48.4888
 20
55.3225
 30
0.0
 10
48.4888
 20
55.3225
 30
0.0
  0
SPLINE
  5
AF
330
1F
100
AcDbEntity
  8
LAYER_1
 62
   250
100
AcDbSpline
210
0.0
220
0.0
230
1.0
 70
    24
 71
     3
 72
     8
 73
     4
 74
     0
 42
0.0000000001
 43
0.0000000001
 40
0.0
 40
0.0
 40
0.0
 40
0.0
 40
1.0
 40
1.0
 40
1.0
 40
1.0
 10
45.4886
 20
52.3225
 30
0.0
 10
45.4886
 20
52.3225
 30
0.0
 10
27.9366
 20
52.3225
 30
0.0
 10
27.9366
 20
52.3225
 30
0.0
  0
SPLINE
  5
B0
330
1F
100
AcDbEntity
  8
LAYER_1
 62
   250
100
AcDbSpline
210
0.0
220
0.0
230
1.0
 70
     8
 71
     3
 72
    12
 73
     8
 74
     0
 42
0.0000000001
 43
0.0000000001
 40
0.0
 40
0.0
 40
0.0
 40
0.0
 40
0.3333333333333333
 40
0.3333333333333333
 40
0.3333333333333333
 40
0.3333333333333333
 40
1.0
 40
1.0
 40
1.0
 40
1.0
 10
48.4888
 20
55.3224
 30
0.0
 10
48.4888
 20
54.5268
 30
0.0
 10
48.1725
 20
53.764
 30
0.0
 10
47.61
 20
53.2012
 30
0.0
 10
47.61
 20
53.2012
 30
0.0
 10
47.0475
 20
52.6387
 30
0.0
 10
46.2843
 20
52.3225
 30
0.0
 10
45.4886
 20
52.3225
 30
0.0
  0
SPLINE
  5
B1
330
1F
100
AcDbEntity
  8
LAYER_1
 62
   250
100
AcDbSpline
210
0.0
220
0.0
230
1.0
 70
    24
 71
     3
 72
     8
 73
     4
 74
     0
 42
0.0000000001
 43
0.0000000001
 40
0.0
 40
0.0
 40
0.0
 40
0.0
 40
1.0
 40
1.0
 40
1.0
 40
1.0
 10
16.5389
 20
39.7864
 30
0.0
 10
16.5389
 20
39.7864
 30
0.0
 10
16.5391
 20
39.7864
 30
0.0
 10
16.5394
 20
39.7864
 30
0.0
  0
SPLINE
  5
B2
330
1F
100
AcDbEntity
  8
LAYER_1
 62
   250
100
AcDbSpline
210
0.0
220
0.0
230
1.0
 70
    24
 71
     3
 72
     8
 73
     4
 74
     0
 42
0.0000000001
 43
0.0000000001
 40
0.0
 40
0.0
 40
0.0
 40
0.0
 40
1.0
 40
1.0
 40
1.0
 40
1.0
 10
16.5389
 20
39.7861
 30
0.0
 10
16.5389
 20
39.7861
 30
0.0
 10
16.5389
 20
39.7864
 30
0.0
 10
16.5389
 20
39.7864
 30
0.0
  0
SPLINE
  5
B3
330
1F
100
AcDbEntity
  8
LAYER_1
 62
   250
100
AcDbSpline
210
0.0
220
0.0
230
1.0
 70
    24
 71
     3
 72
     8
 73
     4
 74
     0
 42
0.0000000001
 43
0.0000000001
 40
0.0
 40
0.0
 40
0.0
 40
0.0
 40
1.0
 40
1.0
 40
1.0
 40
1.0
 10
-11.9045
 20
47.461
 30
0.0
 10
-11.9045
 20
47.461
 30
0.0
 10
-11.9045
 20
48.246
 30
0.0
 10
-11.9045
 20
48.246
 30
0.0
  0
SPLINE
  5
B4
330
1F
100
AcDbEntity
  8
LAYER_1
 62
   250
100
AcDbSpline
210
0.0
220
0.0
230
1.0
 70
    24
 71
     3
 72
     8
 73
     4
 74
     0
 42
0.0000000001
 43
0.0000000001
 40
0.0
 40
0.0
 40
0.0
 40
0.0
 40
1.0
 40
1.0
 40
1.0
 40
1.0
 10
-12.4493
 20
48.7375
 30
0.0
 10
-12.4493
 20
48.7375
 30
0.0
 10
-14.5418
 20
48.7375
 30
0.0
 10
-14.5418
 20
48.7375
 30
0.0
  0
SPLINE
  5
B5
330
1F
100
AcDbEntity
  8
LAYER_1
 62
   250
100
AcDbSpline
210
0.0
220
0.0
230
1.0
 70
    24
 71
     3
 72
     8
 73
     4
 74
     0
 42
0.0000000001
 43
0.0000000001
 40
0.0
 40
0.0
 40
0.0
 40
0.0
 40
1.0
 40
1.0
 40
1.0
 40
1.0
 10
-15.5354
 20
47.7547
 30
0.0
 10
-15.5354
 20
47.7547
 30
0.0
 10
-15.5354
 20
36.8378
 30
0.0
 10
-15.5354
 20
36.8378
 30
0.0
  0
SPLINE
  5
B6
330
1F
100
AcDbEntity
  8
LAYER_1
 62
   250
100
AcDbSpline
210
0.0
220
0.0
230
1.0
 70
     8
 71
     3
 72
    12
 73
     8
 74
     0
 42
0.0000000001
 43
0.0000000001
 40
0.0
 40
0.0
 40
0.0
 40
0.0
 40
0.3333333333333333
 40
0.3333333333333333
 40
0.3333333333333333
 40
0.3333333333333333
 40
1.0
 40
1.0
 40
1.0
 40
1.0
 10
-14.5418
 20
48.7375
 30
0.0
 10
-14.8053
 20
48.7375
 30
0.0
 10
-15.0581
 20
48.6339
 30
0.0
 10
-15.2444
 20
48.4496
 30
0.0
 10
-15.2444
 20
48.4496
 30
0.0
 10
-15.4307
 20
48.2653
 30
0.0
 10
-15.5354
 20
48.0153
 30
0.0
 10
-15.5354
 20
47.7547
 30
0.0
  0
SPLINE
  5
B7
330
1F
100
AcDbEntity
  8
LAYER_1
 62
   250
100
AcDbSpline
210
0.0
220
0.0
230
1.0
 70
     8
 71
     3
 72
    12
 73
     8
 74
     0
 42
0.0000000001
 43
0.0000000001
 40
0.0
 40
0.0
 40
0.0
 40
0.0
 40
0.3333333333333333
 40
0.3333333333333333
 40
0.3333333333333333
 40
0.3333333333333333
 40
1.0
 40
1.0
 40
1.0
 40
1.0
 10
-11.9045
 20
48.246
 30
0.0
 10
-11.9045
 20
48.3764
 30
0.0
 10
-11.9618
 20
48.5014
 30
0.0
 10
-12.064
 20
48.5935
 30
0.0
 10
-12.064
 20
48.5935
 30
0.0
 10
-12.1662
 20
48.6857
 30
0.0
 10
-12.3048
 20
48.7375
 30
0.0
 10
-12.4493
 20
48.7375
 30
0.0
  0
SPLINE
  5
B8
330
1F
100
AcDbEntity
  8
LAYER_1
 62
   250
100
AcDbSpline
210
0.0
220
0.0
230
1.0
 70
    24
 71
     3
 72
     8
 73
     4
 74
     0
 42
0.0000000001
 43
0.0000000001
 40
0.0
 40
0.0
 40
0.0
 40
0.0
 40
1.0
 40
1.0
 40
1.0
 40
1.0
 10
-12.5548
 20
47.4119
 30
0.0
 10
-12.5548
 20
47.4119
 30
0.0
 10
-12.5548
 20
40.7694
 30
0.0
 10
-12.5548
 20
40.7694
 30
0.0
  0
SPLINE
  5
B9
330
1F
100
AcDbEntity
  8
LAYER_1
 62
   250
100
AcDbSpline
210
0.0
220
0.0
230
1.0
 70
    24
 71
     3
 72
     8
 73
     4
 74
     0
 42
0.0000000001
 43
0.0000000001
 40
0.0
 40
0.0
 40
0.0
 40
0.0
 40
1.0
 40
1.0
 40
1.0
 40
1.0
 10
-12.5352
 20
33.8379
 30
0.0
 10
-12.5352
 20
33.8379
 30
0.0
 10
1.1882
 20
33.8379
 30
0.0
 10
1.1882
 20
33.8379
 30
0.0
  0
SPLINE
  5
BA
330
1F
100
AcDbEntity
  8
LAYER_1
 62
   250
100
AcDbSpline
210
0.0
220
0.0
230
1.0
 70
    24
 71
     3
 72
     8
 73
     4
 74
     0
 42
0.0000000001
 43
0.0000000001
 40
0.0
 40
0.0
 40
0.0
 40
0.0
 40
1.0
 40
1.0
 40
1.0
 40
1.0
 10
-11.5613
 20
39.7864
 30
0.0
 10
-11.5613
 20
39.7864
 30
0.0
 10
16.5394
 20
39.7864
 30
0.0
 10
16.5394
 20
39.7864
 30
0.0
  0
SPLINE
  5
BB
330
1F
100
AcDbEntity
  8
LAYER_1
 62
   250
100
AcDbSpline
210
0.0
220
0.0
230
1.0
 70
     8
 71
     3
 72
    12
 73
     8
 74
     0
 42
0.0000000001
 43
0.0000000001
 40
0.0
 40
0.0
 40
0.0
 40
0.0
 40
0.3333333333333333
 40
0.3333333333333333
 40
0.3333333333333333
 40
0.3333333333333333
 40
1.0
 40
1.0
 40
1.0
 40
1.0
 10
-12.5548
 20
40.7694
 30
0.0
 10
-12.5548
 20
40.5087
 30
0.0
 10
-12.4501
 20
40.2588
 30
0.0
 10
-12.2637
 20
40.0743
 30
0.0
 10
-12.2637
 20
40.0743
 30
0.0
 10
-12.0775
 20
39.89
 30
0.0
 10
-11.8247
 20
39.7864
 30
0.0
 10
-11.5613
 20
39.7864
 30
0.0
  0
SPLINE
  5
BC
330
1F
100
AcDbEntity
  8
LAYER_1
 62
   250
100
AcDbSpline
210
0.0
220
0.0
230
1.0
 70
    24
 71
     3
 72
     8
 73
     4
 74
     0
 42
0.0000000001
 43
0.0000000001
 40
0.0
 40
0.0
 40
0.0
 40
0.0
 40
1.0
 40
1.0
 40
1.0
 40
1.0
 10
-12.5548
 20
47.4119
 30
0.0
 10
-12.5548
 20
47.4119
 30
0.0
 10
-11.959
 20
47.4119
 30
0.0
 10
-11.959
 20
47.4119
 30
0.0
  0
SPLINE
  5
BD
330
1F
100
AcDbEntity
  8
LAYER_1
 62
   250
100
AcDbSpline
210
0.0
220
0.0
230
1.0
 70
     8
 71
     3
 72
     8
 73
     4
 74
     0
 42
0.0000000001
 43
0.0000000001
 40
0.0
 40
0.0
 40
0.0
 40
0.0
 40
1.0
 40
1.0
 40
1.0
 40
1.0
 10
-11.959
 20
47.4119
 30
0.0
 10
-11.9289
 20
47.4119
 30
0.0
 10
-11.9045
 20
47.4339
 30
0.0
 10
-11.9045
 20
47.461
 30
0.0
  0
SPLINE
  5
BE
330
1F
100
AcDbEntity
  8
LAYER_1
 62
   250
100
AcDbSpline
210
0.0
220
0.0
230
1.0
 70
    24
 71
     3
 72
     8
 73
     4
 74
     0
 42
0.0000000001
 43
0.0000000001
 40
0.0
 40
0.0
 40
0.0
 40
0.0
 40
1.0
 40
1.0
 40
1.0
 40
1.0
 10
45.5281
 20
48.7375
 30
0.0
 10
45.5281
 20
48.7375
 30
0.0
 10
47.6206
 20
48.7375
 30
0.0
 10
47.6206
 20
48.7375
 30
0.0
  0
SPLINE
  5
BF
330
1F
100
AcDbEntity
  8
LAYER_1
 62
   250
100
AcDbSpline
210
0.0
220
0.0
230
1.0
 70
     8
 71
     3
 72
    12
 73
     8
 74
     0
 42
0.0000000001
 43
0.0000000001
 40
0.0
 40
0.0
 40
0.0
 40
0.0
 40
0.3333333333333333
 40
0.3333333333333333
 40
0.3333333333333333
 40
0.3333333333333333
 40
1.0
 40
1.0
 40
1.0
 40
1.0
 10
48.6142
 20
47.7547
 30
0.0
 10
48.6142
 20
48.0153
 30
0.0
 10
48.5095
 20
48.2653
 30
0.0
 10
48.3232
 20
48.4496
 30
0.0
 10
48.3232
 20
48.4496
 30
0.0
 10
48.1369
 20
48.6339
 30
0.0
 10
47.8841
 20
48.7375
 30
0.0
 10
47.6206
 20
48.7375
 30
0.0
  0
SPLINE
  5
C0
330
1F
100
AcDbEntity
  8
LAYER_1
 62
   250
100
AcDbSpline
210
0.0
220
0.0
230
1.0
 70
    24
 71
     3
 72
     8
 73
     4
 74
     0
 42
0.0000000001
 43
0.0000000001
 40
0.0
 40
0.0
 40
0.0
 40
0.0
 40
1.0
 40
1.0
 40
1.0
 40
1.0
 10
45.6336
 20
47.4119
 30
0.0
 10
45.6336
 20
47.4119
 30
0.0
 10
45.6336
 20
40.7694
 30
0.0
 10
45.6336
 20
40.7694
 30
0.0
  0
SPLINE
  5
C1
330
1F
100
AcDbEntity
  8
LAYER_1
 62
   250
100
AcDbSpline
210
0.0
220
0.0
230
1.0
 70
    24
 71
     3
 72
    12
 73
     8
 74
     0
 42
0.0000000001
 43
0.0000000001
 40
0.0
 40
0.0
 40
0.0
 40
0.0
 40
0.3333333333333333
 40
0.3333333333333333
 40
0.3333333333333333
 40
0.3333333333333333
 40
1.0
 40
1.0
 40
1.0
 40
1.0
 10
4.0878
 20
33.8379
 30
0.0
 10
4.0878
 20
33.8379
 30
0.0
 10
16.5214
 20
33.8379
 30
0.0
 10
16.5214
 20
33.8379
 30
0.0
 10
16.5214
 20
33.8379
 30
0.0
 10
16.5214
 20
33.8379
 30
0.0
 10
25.1624
 20
33.8379
 30
0.0
 10
25.1624
 20
33.8379
 30
0.0
  0
SPLINE
  5
C2
330
1F
100
AcDbEntity
  8
LAYER_1
 62
   250
100
AcDbSpline
210
0.0
220
0.0
230
1.0
 70
    24
 71
     3
 72
     8
 73
     4
 74
     0
 42
0.0000000001
 43
0.0000000001
 40
0.0
 40
0.0
 40
0.0
 40
0.0
 40
1.0
 40
1.0
 40
1.0
 40
1.0
 10
44.6401
 20
39.7864
 30
0.0
 10
44.6401
 20
39.7864
 30
0.0
 10
16.5394
 20
39.7864
 30
0.0
 10
16.5394
 20
39.7864
 30
0.0
  0
SPLINE
  5
C3
330
1F
100
AcDbEntity
  8
LAYER_1
 62
   250
100
AcDbSpline
210
0.0
220
0.0
230
1.0
 70
     8
 71
     3
 72
     8
 73
     4
 74
     0
 42
0.0000000001
 43
0.0000000001
 40
0.0
 40
0.0
 40
0.0
 40
0.0
 40
1.0
 40
1.0
 40
1.0
 40
1.0
 10
44.6401
 20
39.7864
 30
0.0
 10
45.1888
 20
39.7864
 30
0.0
 10
45.6336
 20
40.2265
 30
0.0
 10
45.6336
 20
40.7694
 30
0.0
  0
SPLINE
  5
C4
330
1F
100
AcDbEntity
  8
LAYER_1
 62
   250
100
AcDbSpline
210
0.0
220
0.0
230
1.0
 70
    24
 71
     3
 72
     8
 73
     4
 74
     0
 42
0.0000000001
 43
0.0000000001
 40
0.0
 40
0.0
 40
0.0
 40
0.0
 40
1.0
 40
1.0
 40
1.0
 40
1.0
 10
44.9833
 20
47.461
 30
0.0
 10
44.9833
 20
47.461
 30
0.0
 10
44.9833
 20
48.246
 30
0.0
 10
44.9833
 20
48.246
 30
0.0
  0
SPLINE
  5
C5
330
1F
100
AcDbEntity
  8
LAYER_1
 62
   250
100
AcDbSpline
210
0.0
220
0.0
230
1.0
 70
     8
 71
     3
 72
    12
 73
     8
 74
     0
 42
0.0000000001
 43
0.0000000001
 40
0.0
 40
0.0
 40
0.0
 40
0.0
 40
0.3333333333333333
 40
0.3333333333333333
 40
0.3333333333333333
 40
0.3333333333333333
 40
1.0
 40
1.0
 40
1.0
 40
1.0
 10
44.9833
 20
48.246
 30
0.0
 10
44.9833
 20
48.3764
 30
0.0
 10
45.0406
 20
48.5014
 30
0.0
 10
45.1428
 20
48.5935
 30
0.0
 10
45.1428
 20
48.5935
 30
0.0
 10
45.245
 20
48.6857
 30
0.0
 10
45.3836
 20
48.7375
 30
0.0
 10
45.5281
 20
48.7375
 30
0.0
  0
SPLINE
  5
C6
330
1F
100
AcDbEntity
  8
LAYER_1
 62
   250
100
AcDbSpline
210
0.0
220
0.0
230
1.0
 70
    24
 71
     3
 72
     8
 73
     4
 74
     0
 42
0.0000000001
 43
0.0000000001
 40
0.0
 40
0.0
 40
0.0
 40
0.0
 40
1.0
 40
1.0
 40
1.0
 40
1.0
 10
45.6336
 20
47.4119
 30
0.0
 10
45.6336
 20
47.4119
 30
0.0
 10
45.0378
 20
47.4119
 30
0.0
 10
45.0378
 20
47.4119
 30
0.0
  0
SPLINE
  5
C7
330
1F
100
AcDbEntity
  8
LAYER_1
 62
   250
100
AcDbSpline
210
0.0
220
0.0
230
1.0
 70
     8
 71
     3
 72
     8
 73
     4
 74
     0
 42
0.0000000001
 43
0.0000000001
 40
0.0
 40
0.0
 40
0.0
 40
0.0
 40
1.0
 40
1.0
 40
1.0
 40
1.0
 10
45.0378
 20
47.4119
 30
0.0
 10
45.0077
 20
47.4119
 30
0.0
 10
44.9833
 20
47.4339
 30
0.0
 10
44.9833
 20
47.461
 30
0.0
  0
SPLINE
  5
C8
330
1F
100
AcDbEntity
  8
LAYER_1
 62
   250
100
AcDbSpline
210
0.0
220
0.0
230
1.0
 70
    24
 71
     3
 72
     8
 73
     4
 74
     0
 42
0.0000000001
 43
0.0000000001
 40
0.0
 40
0.0
 40
0.0
 40
0.0
 40
1.0
 40
1.0
 40
1.0
 40
1.0
 10
4.0878
 20
33.8379
 30
0.0
 10
4.0878
 20
33.8379
 30
0.0
 10
4.0878
 20
36.7377
 30
0.0
 10
4.0878
 20
36.7377
 30
0.0
  0
SPLINE
  5
C9
330
1F
100
AcDbEntity
  8
LAYER_1
 62
   250
100
AcDbSpline
210
0.0
220
0.0
230
1.0
 70
    24
 71
     3
 72
     8
 73
     4
 74
     0
 42
0.0000000001
 43
0.0000000001
 40
0.0
 40
0.0
 40
0.0
 40
0.0
 40
1.0
 40
1.0
 40
1.0
 40
1.0
 10
1.1882
 20
33.8379
 30
0.0
 10
1.1882
 20
33.8379
 30
0.0
 10
1.1882
 20
36.7377
 30
0.0
 10
1.1882
 20
36.7377
 30
0.0
  0
SPLINE
  5
CA
330
1F
100
AcDbEntity
  8
LAYER_1
 62
   250
100
AcDbSpline
210
0.0
220
0.0
230
1.0
 70
    24
 71
     3
 72
     8
 73
     4
 74
     0
 42
0.0000000001
 43
0.0000000001
 40
0.0
 40
0.0
 40
0.0
 40
0.0
 40
1.0
 40
1.0
 40
1.0
 40
1.0
 10
28.062
 20
33.8379
 30
0.0
 10
28.062
 20
33.8379
 30
0.0
 10
28.062
 20
36.7377
 30
0.0
 10
28.062
 20
36.7377
 30
0.0
  0
SPLINE
  5
CB
330
1F
100
AcDbEntity
  8
LAYER_1
 62
   250
100
AcDbSpline
210
0.0
220
0.0
230
1.0
 70
    24
 71
     3
 72
     8
 73
     4
 74
     0
 42
0.0000000001
 43
0.0000000001
 40
0.0
 40
0.0
 40
0.0
 40
0.0
 40
1.0
 40
1.0
 40
1.0
 40
1.0
 10
25.1624
 20
33.8379
 30
0.0
 10
25.1624
 20
33.8379
 30
0.0
 10
25.1624
 20
36.7377
 30
0.0
 10
25.1624
 20
36.7377
 30
0.0
  0
SPLINE
  5
CC
330
1F
100
AcDbEntity
  8
LAYER_1
 62
   250
100
AcDbSpline
210
0.0
220
0.0
230
1.0
 70
    24
 71
     3
 72
     8
 73
     4
 74
     0
 42
0.0000000001
 43
0.0000000001
 40
0.0
 40
0.0
 40
0.0
 40
0.0
 40
1.0
 40
1.0
 40
1.0
 40
1.0
 10
4.0878
 20
36.7377
 30
0.0
 10
4.0878
 20
36.7377
 30
0.0
 10
1.1882
 20
36.7377
 30
0.0
 10
1.1882
 20
36.7377
 30
0.0
  0
SPLINE
  5
CD
330
1F
100
AcDbEntity
  8
LAYER_1
 62
   250
100
AcDbSpline
210
0.0
220
0.0
230
1.0
 70
    24
 71
     3
 72
     8
 73
     4
 74
     0
 42
0.0000000001
 43
0.0000000001
 40
0.0
 40
0.0
 40
0.0
 40
0.0
 40
1.0
 40
1.0
 40
1.0
 40
1.0
 10
28.062
 20
36.7377
 30
0.0
 10
28.062
 20
36.7377
 30
0.0
 10
25.1624
 20
36.7377
 30
0.0
 10
25.1624
 20
36.7377
 30
0.0
  0
SPLINE
  5
CE
330
1F
100
AcDbEntity
  8
LAYER_1
 62
   250
100
AcDbSpline
210
0.0
220
0.0
230
1.0
 70
    24
 71
     3
 72
     8
 73
     4
 74
     0
 42
0.0000000001
 43
0.0000000001
 40
0.0
 40
0.0
 40
0.0
 40
0.0
 40
1.0
 40
1.0
 40
1.0
 40
1.0
 10
16.5389
 20
39.7864
 30
0.0
 10
16.5389
 20
39.7864
 30
0.0
 10
16.5391
 20
39.7864
 30
0.0
 10
16.5394
 20
39.7864
 30
0.0
  0
SPLINE
  5
CF
330
1F
100
AcDbEntity
  8
LAYER_1
 62
   250
100
AcDbSpline
210
0.0
220
0.0
230
1.0
 70
    24
 71
     3
 72
     8
 73
     4
 74
     0
 42
0.0000000001
 43
0.0000000001
 40
0.0
 40
0.0
 40
0.0
 40
0.0
 40
1.0
 40
1.0
 40
1.0
 40
1.0
 10
16.5389
 20
39.7861
 30
0.0
 10
16.5389
 20
39.7861
 30
0.0
 10
16.5389
 20
39.7864
 30
0.0
 10
16.5389
 20
39.7864
 30
0.0
  0
SPLINE
  5
D0
330
1F
100
AcDbEntity
  8
LAYER_1
 62
   250
100
AcDbSpline
210
0.0
220
0.0
230
1.0
 70
     8
 71
     3
 72
    12
 73
     8
 74
     0
 42
0.0000000001
 43
0.0000000001
 40
0.0
 40
0.0
 40
0.0
 40
0.0
 40
0.3333333333333333
 40
0.3333333333333333
 40
0.3333333333333333
 40
0.3333333333333333
 40
1.0
 40
1.0
 40
1.0
 40
1.0
 10
-15.5354
 20
36.8378
 30
0.0
 10
-15.5354
 20
36.0422
 30
0.0
 10
-15.2191
 20
35.2794
 30
0.0
 10
-14.6566
 20
34.7166
 30
0.0
 10
-14.6566
 20
34.7166
 30
0.0
 10
-14.0941
 20
34.1541
 30
0.0
 10
-13.3309
 20
33.8379
 30
0.0
 10
-12.5352
 20
33.8379
 30
0.0
  0
SPLINE
  5
D1
330
1F
100
AcDbEntity
  8
LAYER_1
 62
   250
100
AcDbSpline
210
0.0
220
0.0
230
1.0
 70
    24
 71
     3
 72
     8
 73
     4
 74
     0
 42
0.0000000001
 43
0.0000000001
 40
0.0
 40
0.0
 40
0.0
 40
0.0
 40
1.0
 40
1.0
 40
1.0
 40
1.0
 10
48.6142
 20
47.7547
 30
0.0
 10
48.6142
 20
47.7547
 30
0.0
 10
48.6142
 20
36.838
 30
0.0
 10
48.6142
 20
36.838
 30
0.0
  0
SPLINE
  5
D2
330
1F
100
AcDbEntity
  8
LAYER_1
 62
   250
100
AcDbSpline
210
0.0
220
0.0
230
1.0
 70
    24
 71
     3
 72
     8
 73
     4
 74
     0
 42
0.0000000001
 43
0.0000000001
 40
0.0
 40
0.0
 40
0.0
 40
0.0
 40
1.0
 40
1.0
 40
1.0
 40
1.0
 10
45.614
 20
33.838
 30
0.0
 10
45.614
 20
33.838
 30
0.0
 10
28.062
 20
33.838
 30
0.0
 10
28.062
 20
33.838
 30
0.0
  0
SPLINE
  5
D3
330
1F
100
AcDbEntity
  8
LAYER_1
 62
   250
100
AcDbSpline
210
0.0
220
0.0
230
1.0
 70
     8
 71
     3
 72
    12
 73
     8
 74
     0
 42
0.0000000001
 43
0.0000000001
 40
0.0
 40
0.0
 40
0.0
 40
0.0
 40
0.3333333333333333
 40
0.3333333333333333
 40
0.3333333333333333
 40
0.3333333333333333
 40
1.0
 40
1.0
 40
1.0
 40
1.0
 10
48.6142
 20
36.8379
 30
0.0
 10
48.6142
 20
36.0423
 30
0.0
 10
48.2979
 20
35.2795
 30
0.0
 10
47.7354
 20
34.7167
 30
0.0
 10
47.7354
 20
34.7167
 30
0.0
 10
47.1729
 20
34.1542
 30
0.0
 10
46.4097
 20
33.838
 30
0.0
 10
45.614
 20
33.838
 30
0.0
  0
SPLINE
  5
D4
330
1F
100
AcDbEntity
  8
LAYER_1
 62
   250
100
AcDbSpline
210
0.0
220
0.0
230
1.0
 70
    24
 71
     3
 72
     8
 73
     4
 74
     0
 42
0.0000000001
 43
0.0000000001
 40
0.0
 40
0.0
 40
0.0
 40
0.0
 40
1.0
 40
1.0
 40
1.0
 40
1.0
 10
15.6922
 20
19.8898
 30
0.0
 10
15.6922
 20
19.8898
 30
0.0
 10
15.6924
 20
19.8898
 30
0.0
 10
15.6927
 20
19.8898
 30
0.0
  0
SPLINE
  5
D5
330
1F
100
AcDbEntity
  8
LAYER_1
 62
   250
100
AcDbSpline
210
0.0
220
0.0
230
1.0
 70
    24
 71
     3
 72
     8
 73
     4
 74
     0
 42
0.0000000001
 43
0.0000000001
 40
0.0
 40
0.0
 40
0.0
 40
0.0
 40
1.0
 40
1.0
 40
1.0
 40
1.0
 10
15.6922
 20
19.8895
 30
0.0
 10
15.6922
 20
19.8895
 30
0.0
 10
15.6922
 20
19.8898
 30
0.0
 10
15.6922
 20
19.8898
 30
0.0
  0
SPLINE
  5
D6
330
1F
100
AcDbEntity
  8
LAYER_1
 62
   250
100
AcDbSpline
210
0.0
220
0.0
230
1.0
 70
    24
 71
     3
 72
     8
 73
     4
 74
     0
 42
0.0000000001
 43
0.0000000001
 40
0.0
 40
0.0
 40
0.0
 40
0.0
 40
1.0
 40
1.0
 40
1.0
 40
1.0
 10
-12.7512
 20
27.5644
 30
0.0
 10
-12.7512
 20
27.5644
 30
0.0
 10
-12.7512
 20
28.3494
 30
0.0
 10
-12.7512
 20
28.3494
 30
0.0
  0
SPLINE
  5
D7
330
1F
100
AcDbEntity
  8
LAYER_1
 62
   250
100
AcDbSpline
210
0.0
220
0.0
230
1.0
 70
    24
 71
     3
 72
     8
 73
     4
 74
     0
 42
0.0000000001
 43
0.0000000001
 40
0.0
 40
0.0
 40
0.0
 40
0.0
 40
1.0
 40
1.0
 40
1.0
 40
1.0
 10
-13.296
 20
28.8409
 30
0.0
 10
-13.296
 20
28.8409
 30
0.0
 10
-15.3885
 20
28.8409
 30
0.0
 10
-15.3885
 20
28.8409
 30
0.0
  0
SPLINE
  5
D8
330
1F
100
AcDbEntity
  8
LAYER_1
 62
   250
100
AcDbSpline
210
0.0
220
0.0
230
1.0
 70
    24
 71
     3
 72
     8
 73
     4
 74
     0
 42
0.0000000001
 43
0.0000000001
 40
0.0
 40
0.0
 40
0.0
 40
0.0
 40
1.0
 40
1.0
 40
1.0
 40
1.0
 10
-16.3821
 20
27.8581
 30
0.0
 10
-16.3821
 20
27.8581
 30
0.0
 10
-16.3821
 20
16.9412
 30
0.0
 10
-16.3821
 20
16.9412
 30
0.0
  0
SPLINE
  5
D9
330
1F
100
AcDbEntity
  8
LAYER_1
 62
   250
100
AcDbSpline
210
0.0
220
0.0
230
1.0
 70
     8
 71
     3
 72
    12
 73
     8
 74
     0
 42
0.0000000001
 43
0.0000000001
 40
0.0
 40
0.0
 40
0.0
 40
0.0
 40
0.3333333333333333
 40
0.3333333333333333
 40
0.3333333333333333
 40
0.3333333333333333
 40
1.0
 40
1.0
 40
1.0
 40
1.0
 10
-15.3885
 20
28.8409
 30
0.0
 10
-15.652
 20
28.8409
 30
0.0
 10
-15.9048
 20
28.7373
 30
0.0
 10
-16.0911
 20
28.553
 30
0.0
 10
-16.0911
 20
28.553
 30
0.0
 10
-16.2774
 20
28.3687
 30
0.0
 10
-16.3821
 20
28.1187
 30
0.0
 10
-16.3821
 20
27.8581
 30
0.0
  0
SPLINE
  5
DA
330
1F
100
AcDbEntity
  8
LAYER_1
 62
   250
100
AcDbSpline
210
0.0
220
0.0
230
1.0
 70
     8
 71
     3
 72
    12
 73
     8
 74
     0
 42
0.0000000001
 43
0.0000000001
 40
0.0
 40
0.0
 40
0.0
 40
0.0
 40
0.3333333333333333
 40
0.3333333333333333
 40
0.3333333333333333
 40
0.3333333333333333
 40
1.0
 40
1.0
 40
1.0
 40
1.0
 10
-12.7512
 20
28.3494
 30
0.0
 10
-12.7512
 20
28.4798
 30
0.0
 10
-12.8085
 20
28.6048
 30
0.0
 10
-12.9107
 20
28.6969
 30
0.0
 10
-12.9107
 20
28.6969
 30
0.0
 10
-13.0129
 20
28.7891
 30
0.0
 10
-13.1515
 20
28.8409
 30
0.0
 10
-13.296
 20
28.8409
 30
0.0
  0
SPLINE
  5
DB
330
1F
100
AcDbEntity
  8
LAYER_1
 62
   250
100
AcDbSpline
210
0.0
220
0.0
230
1.0
 70
    24
 71
     3
 72
     8
 73
     4
 74
     0
 42
0.0000000001
 43
0.0000000001
 40
0.0
 40
0.0
 40
0.0
 40
0.0
 40
1.0
 40
1.0
 40
1.0
 40
1.0
 10
-13.4015
 20
27.5153
 30
0.0
 10
-13.4015
 20
27.5153
 30
0.0
 10
-13.4015
 20
20.8728
 30
0.0
 10
-13.4015
 20
20.8728
 30
0.0
  0
SPLINE
  5
DC
330
1F
100
AcDbEntity
  8
LAYER_1
 62
   250
100
AcDbSpline
210
0.0
220
0.0
230
1.0
 70
    24
 71
     3
 72
     8
 73
     4
 74
     0
 42
0.0000000001
 43
0.0000000001
 40
0.0
 40
0.0
 40
0.0
 40
0.0
 40
1.0
 40
1.0
 40
1.0
 40
1.0
 10
-13.3819
 20
13.9413
 30
0.0
 10
-13.3819
 20
13.9413
 30
0.0
 10
0.3415
 20
13.9413
 30
0.0
 10
0.3415
 20
13.9413
 30
0.0
  0
SPLINE
  5
DD
330
1F
100
AcDbEntity
  8
LAYER_1
 62
   250
100
AcDbSpline
210
0.0
220
0.0
230
1.0
 70
    24
 71
     3
 72
     8
 73
     4
 74
     0
 42
0.0000000001
 43
0.0000000001
 40
0.0
 40
0.0
 40
0.0
 40
0.0
 40
1.0
 40
1.0
 40
1.0
 40
1.0
 10
-12.408
 20
19.8898
 30
0.0
 10
-12.408
 20
19.8898
 30
0.0
 10
15.6927
 20
19.8898
 30
0.0
 10
15.6927
 20
19.8898
 30
0.0
  0
SPLINE
  5
DE
330
1F
100
AcDbEntity
  8
LAYER_1
 62
   250
100
AcDbSpline
210
0.0
220
0.0
230
1.0
 70
     8
 71
     3
 72
    12
 73
     8
 74
     0
 42
0.0000000001
 43
0.0000000001
 40
0.0
 40
0.0
 40
0.0
 40
0.0
 40
0.3333333333333333
 40
0.3333333333333333
 40
0.3333333333333333
 40
0.3333333333333333
 40
1.0
 40
1.0
 40
1.0
 40
1.0
 10
-13.4015
 20
20.8728
 30
0.0
 10
-13.4015
 20
20.6121
 30
0.0
 10
-13.2968
 20
20.3622
 30
0.0
 10
-13.1104
 20
20.1777
 30
0.0
 10
-13.1104
 20
20.1777
 30
0.0
 10
-12.9242
 20
19.9934
 30
0.0
 10
-12.6714
 20
19.8898
 30
0.0
 10
-12.408
 20
19.8898
 30
0.0
  0
SPLINE
  5
DF
330
1F
100
AcDbEntity
  8
LAYER_1
 62
   250
100
AcDbSpline
210
0.0
220
0.0
230
1.0
 70
    24
 71
     3
 72
     8
 73
     4
 74
     0
 42
0.0000000001
 43
0.0000000001
 40
0.0
 40
0.0
 40
0.0
 40
0.0
 40
1.0
 40
1.0
 40
1.0
 40
1.0
 10
-13.4015
 20
27.5153
 30
0.0
 10
-13.4015
 20
27.5153
 30
0.0
 10
-12.8057
 20
27.5153
 30
0.0
 10
-12.8057
 20
27.5153
 30
0.0
  0
SPLINE
  5
E0
330
1F
100
AcDbEntity
  8
LAYER_1
 62
   250
100
AcDbSpline
210
0.0
220
0.0
230
1.0
 70
     8
 71
     3
 72
     8
 73
     4
 74
     0
 42
0.0000000001
 43
0.0000000001
 40
0.0
 40
0.0
 40
0.0
 40
0.0
 40
1.0
 40
1.0
 40
1.0
 40
1.0
 10
-12.8057
 20
27.5153
 30
0.0
 10
-12.7756
 20
27.5153
 30
0.0
 10
-12.7512
 20
27.5373
 30
0.0
 10
-12.7512
 20
27.5644
 30
0.0
  0
SPLINE
  5
E1
330
1F
100
AcDbEntity
  8
LAYER_1
 62
   250
100
AcDbSpline
210
0.0
220
0.0
230
1.0
 70
    24
 71
     3
 72
     8
 73
     4
 74
     0
 42
0.0000000001
 43
0.0000000001
 40
0.0
 40
0.0
 40
0.0
 40
0.0
 40
1.0
 40
1.0
 40
1.0
 40
1.0
 10
44.6814
 20
28.8409
 30
0.0
 10
44.6814
 20
28.8409
 30
0.0
 10
46.7739
 20
28.8409
 30
0.0
 10
46.7739
 20
28.8409
 30
0.0
  0
SPLINE
  5
E2
330
1F
100
AcDbEntity
  8
LAYER_1
 62
   250
100
AcDbSpline
210
0.0
220
0.0
230
1.0
 70
     8
 71
     3
 72
    12
 73
     8
 74
     0
 42
0.0000000001
 43
0.0000000001
 40
0.0
 40
0.0
 40
0.0
 40
0.0
 40
0.3333333333333333
 40
0.3333333333333333
 40
0.3333333333333333
 40
0.3333333333333333
 40
1.0
 40
1.0
 40
1.0
 40
1.0
 10
47.7675
 20
27.8581
 30
0.0
 10
47.7675
 20
28.1187
 30
0.0
 10
47.6628
 20
28.3687
 30
0.0
 10
47.4765
 20
28.553
 30
0.0
 10
47.4765
 20
28.553
 30
0.0
 10
47.2902
 20
28.7373
 30
0.0
 10
47.0374
 20
28.8409
 30
0.0
 10
46.7739
 20
28.8409
 30
0.0
  0
SPLINE
  5
E3
330
1F
100
AcDbEntity
  8
LAYER_1
 62
   250
100
AcDbSpline
210
0.0
220
0.0
230
1.0
 70
    24
 71
     3
 72
     8
 73
     4
 74
     0
 42
0.0000000001
 43
0.0000000001
 40
0.0
 40
0.0
 40
0.0
 40
0.0
 40
1.0
 40
1.0
 40
1.0
 40
1.0
 10
44.7869
 20
27.5153
 30
0.0
 10
44.7869
 20
27.5153
 30
0.0
 10
44.7869
 20
20.8728
 30
0.0
 10
44.7869
 20
20.8728
 30
0.0
  0
SPLINE
  5
E4
330
1F
100
AcDbEntity
  8
LAYER_1
 62
   250
100
AcDbSpline
210
0.0
220
0.0
230
1.0
 70
    24
 71
     3
 72
    12
 73
     8
 74
     0
 42
0.0000000001
 43
0.0000000001
 40
0.0
 40
0.0
 40
0.0
 40
0.0
 40
0.3333333333333333
 40
0.3333333333333333
 40
0.3333333333333333
 40
0.3333333333333333
 40
1.0
 40
1.0
 40
1.0
 40
1.0
 10
3.2411
 20
13.9413
 30
0.0
 10
3.2411
 20
13.9413
 30
0.0
 10
15.6747
 20
13.9413
 30
0.0
 10
15.6747
 20
13.9413
 30
0.0
 10
15.6747
 20
13.9413
 30
0.0
 10
15.6747
 20
13.9413
 30
0.0
 10
24.3157
 20
13.9413
 30
0.0
 10
24.3157
 20
13.9413
 30
0.0
  0
SPLINE
  5
E5
330
1F
100
AcDbEntity
  8
LAYER_1
 62
   250
100
AcDbSpline
210
0.0
220
0.0
230
1.0
 70
    24
 71
     3
 72
     8
 73
     4
 74
     0
 42
0.0000000001
 43
0.0000000001
 40
0.0
 40
0.0
 40
0.0
 40
0.0
 40
1.0
 40
1.0
 40
1.0
 40
1.0
 10
43.7934
 20
19.8898
 30
0.0
 10
43.7934
 20
19.8898
 30
0.0
 10
15.6927
 20
19.8898
 30
0.0
 10
15.6927
 20
19.8898
 30
0.0
  0
SPLINE
  5
E6
330
1F
100
AcDbEntity
  8
LAYER_1
 62
   250
100
AcDbSpline
210
0.0
220
0.0
230
1.0
 70
     8
 71
     3
 72
     8
 73
     4
 74
     0
 42
0.0000000001
 43
0.0000000001
 40
0.0
 40
0.0
 40
0.0
 40
0.0
 40
1.0
 40
1.0
 40
1.0
 40
1.0
 10
43.7934
 20
19.8898
 30
0.0
 10
44.3421
 20
19.8898
 30
0.0
 10
44.7869
 20
20.3299
 30
0.0
 10
44.7869
 20
20.8728
 30
0.0
  0
SPLINE
  5
E7
330
1F
100
AcDbEntity
  8
LAYER_1
 62
   250
100
AcDbSpline
210
0.0
220
0.0
230
1.0
 70
    24
 71
     3
 72
     8
 73
     4
 74
     0
 42
0.0000000001
 43
0.0000000001
 40
0.0
 40
0.0
 40
0.0
 40
0.0
 40
1.0
 40
1.0
 40
1.0
 40
1.0
 10
44.1366
 20
27.5644
 30
0.0
 10
44.1366
 20
27.5644
 30
0.0
 10
44.1366
 20
28.3494
 30
0.0
 10
44.1366
 20
28.3494
 30
0.0
  0
SPLINE
  5
E8
330
1F
100
AcDbEntity
  8
LAYER_1
 62
   250
100
AcDbSpline
210
0.0
220
0.0
230
1.0
 70
     8
 71
     3
 72
    12
 73
     8
 74
     0
 42
0.0000000001
 43
0.0000000001
 40
0.0
 40
0.0
 40
0.0
 40
0.0
 40
0.3333333333333333
 40
0.3333333333333333
 40
0.3333333333333333
 40
0.3333333333333333
 40
1.0
 40
1.0
 40
1.0
 40
1.0
 10
44.1366
 20
28.3494
 30
0.0
 10
44.1366
 20
28.4798
 30
0.0
 10
44.1939
 20
28.6048
 30
0.0
 10
44.2961
 20
28.6969
 30
0.0
 10
44.2961
 20
28.6969
 30
0.0
 10
44.3983
 20
28.7891
 30
0.0
 10
44.5369
 20
28.8409
 30
0.0
 10
44.6814
 20
28.8409
 30
0.0
  0
SPLINE
  5
E9
330
1F
100
AcDbEntity
  8
LAYER_1
 62
   250
100
AcDbSpline
210
0.0
220
0.0
230
1.0
 70
    24
 71
     3
 72
     8
 73
     4
 74
     0
 42
0.0000000001
 43
0.0000000001
 40
0.0
 40
0.0
 40
0.0
 40
0.0
 40
1.0
 40
1.0
 40
1.0
 40
1.0
 10
44.7869
 20
27.5153
 30
0.0
 10
44.7869
 20
27.5153
 30
0.0
 10
44.1911
 20
27.5153
 30
0.0
 10
44.1911
 20
27.5153
 30
0.0
  0
SPLINE
  5
EA
330
1F
100
AcDbEntity
  8
LAYER_1
 62
   250
100
AcDbSpline
210
0.0
220
0.0
230
1.0
 70
     8
 71
     3
 72
     8
 73
     4
 74
     0
 42
0.0000000001
 43
0.0000000001
 40
0.0
 40
0.0
 40
0.0
 40
0.0
 40
1.0
 40
1.0
 40
1.0
 40
1.0
 10
44.1911
 20
27.5153
 30
0.0
 10
44.161
 20
27.5153
 30
0.0
 10
44.1366
 20
27.5373
 30
0.0
 10
44.1366
 20
27.5644
 30
0.0
  0
SPLINE
  5
EB
330
1F
100
AcDbEntity
  8
LAYER_1
 62
   250
100
AcDbSpline
210
0.0
220
0.0
230
1.0
 70
    24
 71
     3
 72
     8
 73
     4
 74
     0
 42
0.0000000001
 43
0.0000000001
 40
0.0
 40
0.0
 40
0.0
 40
0.0
 40
1.0
 40
1.0
 40
1.0
 40
1.0
 10
3.2411
 20
13.9413
 30
0.0
 10
3.2411
 20
13.9413
 30
0.0
 10
3.2411
 20
16.8411
 30
0.0
 10
3.2411
 20
16.8411
 30
0.0
  0
SPLINE
  5
EC
330
1F
100
AcDbEntity
  8
LAYER_1
 62
   250
100
AcDbSpline
210
0.0
220
0.0
230
1.0
 70
    24
 71
     3
 72
     8
 73
     4
 74
     0
 42
0.0000000001
 43
0.0000000001
 40
0.0
 40
0.0
 40
0.0
 40
0.0
 40
1.0
 40
1.0
 40
1.0
 40
1.0
 10
0.3415
 20
13.9413
 30
0.0
 10
0.3415
 20
13.9413
 30
0.0
 10
0.3415
 20
16.8411
 30
0.0
 10
0.3415
 20
16.8411
 30
0.0
  0
SPLINE
  5
ED
330
1F
100
AcDbEntity
  8
LAYER_1
 62
   250
100
AcDbSpline
210
0.0
220
0.0
230
1.0
 70
    24
 71
     3
 72
     8
 73
     4
 74
     0
 42
0.0000000001
 43
0.0000000001
 40
0.0
 40
0.0
 40
0.0
 40
0.0
 40
1.0
 40
1.0
 40
1.0
 40
1.0
 10
27.2153
 20
13.9413
 30
0.0
 10
27.2153
 20
13.9413
 30
0.0
 10
27.2153
 20
16.8411
 30
0.0
 10
27.2153
 20
16.8411
 30
0.0
  0
SPLINE
  5
EE
330
1F
100
AcDbEntity
  8
LAYER_1
 62
   250
100
AcDbSpline
210
0.0
220
0.0
230
1.0
 70
    24
 71
     3
 72
     8
 73
     4
 74
     0
 42
0.0000000001
 43
0.0000000001
 40
0.0
 40
0.0
 40
0.0
 40
0.0
 40
1.0
 40
1.0
 40
1.0
 40
1.0
 10
24.3157
 20
13.9413
 30
0.0
 10
24.3157
 20
13.9413
 30
0.0
 10
24.3157
 20
16.8411
 30
0.0
 10
24.3157
 20
16.8411
 30
0.0
  0
SPLINE
  5
EF
330
1F
100
AcDbEntity
  8
LAYER_1
 62
   250
100
AcDbSpline
210
0.0
220
0.0
230
1.0
 70
    24
 71
     3
 72
     8
 73
     4
 74
     0
 42
0.0000000001
 43
0.0000000001
 40
0.0
 40
0.0
 40
0.0
 40
0.0
 40
1.0
 40
1.0
 40
1.0
 40
1.0
 10
3.2411
 20
16.8411
 30
0.0
 10
3.2411
 20
16.8411
 30
0.0
 10
0.3415
 20
16.8411
 30
0.0
 10
0.3415
 20
16.8411
 30
0.0
  0
SPLINE
  5
F0
330
1F
100
AcDbEntity
  8
LAYER_1
 62
   250
100
AcDbSpline
210
0.0
220
0.0
230
1.0
 70
    24
 71
     3
 72
     8
 73
     4
 74
     0
 42
0.0000000001
 43
0.0000000001
 40
0.0
 40
0.0
 40
0.0
 40
0.0
 40
1.0
 40
1.0
 40
1.0
 40
1.0
 10
27.2153
 20
16.8411
 30
0.0
 10
27.2153
 20
16.8411
 30
0.0
 10
24.3157
 20
16.8411
 30
0.0
 10
24.3157
 20
16.8411
 30
0.0
  0
SPLINE
  5
F1
330
1F
100
AcDbEntity
  8
LAYER_1
 62
   250
100
AcDbSpline
210
0.0
220
0.0
230
1.0
 70
    24
 71
     3
 72
     8
 73
     4
 74
     0
 42
0.0000000001
 43
0.0000000001
 40
0.0
 40
0.0
 40
0.0
 40
0.0
 40
1.0
 40
1.0
 40
1.0
 40
1.0
 10
15.6922
 20
19.8898
 30
0.0
 10
15.6922
 20
19.8898
 30
0.0
 10
15.6924
 20
19.8898
 30
0.0
 10
15.6927
 20
19.8898
 30
0.0
  0
SPLINE
  5
F2
330
1F
100
AcDbEntity
  8
LAYER_1
 62
   250
100
AcDbSpline
210
0.0
220
0.0
230
1.0
 70
    24
 71
     3
 72
     8
 73
     4
 74
     0
 42
0.0000000001
 43
0.0000000001
 40
0.0
 40
0.0
 40
0.0
 40
0.0
 40
1.0
 40
1.0
 40
1.0
 40
1.0
 10
15.6922
 20
19.8895
 30
0.0
 10
15.6922
 20
19.8895
 30
0.0
 10
15.6922
 20
19.8898
 30
0.0
 10
15.6922
 20
19.8898
 30
0.0
  0
SPLINE
  5
F3
330
1F
100
AcDbEntity
  8
LAYER_1
 62
   250
100
AcDbSpline
210
0.0
220
0.0
230
1.0
 70
     8
 71
     3
 72
    12
 73
     8
 74
     0
 42
0.0000000001
 43
0.0000000001
 40
0.0
 40
0.0
 40
0.0
 40
0.0
 40
0.3333333333333333
 40
0.3333333333333333
 40
0.3333333333333333
 40
0.3333333333333333
 40
1.0
 40
1.0
 40
1.0
 40
1.0
 10
-16.3821
 20
16.9412
 30
0.0
 10
-16.3821
 20
16.1456
 30
0.0
 10
-16.0658
 20
15.3828
 30
0.0
 10
-15.5033
 20
14.82
 30
0.0
 10
-15.5033
 20
14.82
 30
0.0
 10
-14.9408
 20
14.2575
 30
0.0
 10
-14.1776
 20
13.9413
 30
0.0
 10
-13.3819
 20
13.9413
 30
0.0
  0
SPLINE
  5
F4
330
1F
100
AcDbEntity
  8
LAYER_1
 62
   250
100
AcDbSpline
210
0.0
220
0.0
230
1.0
 70
    24
 71
     3
 72
     8
 73
     4
 74
     0
 42
0.0000000001
 43
0.0000000001
 40
0.0
 40
0.0
 40
0.0
 40
0.0
 40
1.0
 40
1.0
 40
1.0
 40
1.0
 10
47.7675
 20
27.8581
 30
0.0
 10
47.7675
 20
27.8581
 30
0.0
 10
47.7675
 20
16.9414
 30
0.0
 10
47.7675
 20
16.9414
 30
0.0
  0
SPLINE
  5
F5
330
1F
100
AcDbEntity
  8
LAYER_1
 62
   250
100
AcDbSpline
210
0.0
220
0.0
230
1.0
 70
    24
 71
     3
 72
     8
 73
     4
 74
     0
 42
0.0000000001
 43
0.0000000001
 40
0.0
 40
0.0
 40
0.0
 40
0.0
 40
1.0
 40
1.0
 40
1.0
 40
1.0
 10
44.7673
 20
13.9414
 30
0.0
 10
44.7673
 20
13.9414
 30
0.0
 10
27.2153
 20
13.9414
 30
0.0
 10
27.2153
 20
13.9414
 30
0.0
  0
SPLINE
  5
F6
330
1F
100
AcDbEntity
  8
LAYER_1
 62
   250
100
AcDbSpline
210
0.0
220
0.0
230
1.0
 70
     8
 71
     3
 72
    12
 73
     8
 74
     0
 42
0.0000000001
 43
0.0000000001
 40
0.0
 40
0.0
 40
0.0
 40
0.0
 40
0.3333333333333333
 40
0.3333333333333333
 40
0.3333333333333333
 40
0.3333333333333333
 40
1.0
 40
1.0
 40
1.0
 40
1.0
 10
47.7675
 20
16.9413
 30
0.0
 10
47.7675
 20
16.1457
 30
0.0
 10
47.4512
 20
15.3829
 30
0.0
 10
46.8887
 20
14.8201
 30
0.0
 10
46.8887
 20
14.8201
 30
0.0
 10
46.3262
 20
14.2576
 30
0.0
 10
45.563
 20
13.9414
 30
0.0
 10
44.7673
 20
13.9414
 30
0.0
  0
SPLINE
  5
F7
330
1F
100
AcDbEntity
  8
LAYER_1
 62
   250
100
AcDbSpline
210
0.0
220
0.0
230
1.0
 70
    24
 71
     3
 72
     8
 73
     4
 74
     0
 42
0.0000000001
 43
0.0000000001
 40
0.0
 40
0.0
 40
0.0
 40
0.0
 40
1.0
 40
1.0
 40
1.0
 40
1.0
 10
-38.8966
 20
1.2412
 30
0.0
 10
-38.8966
 20
1.2412
 30
0.0
 10
18.4532
 20
1.2412
 30
0.0
 10
18.4532
 20
1.2412
 30
0.0
  0
SPLINE
  5
F8
330
1F
100
AcDbEntity
  8
LAYER_1
 62
   250
100
AcDbSpline
210
0.0
220
0.0
230
1.0
 70
    24
 71
     3
 72
     8
 73
     4
 74
     0
 42
0.0000000001
 43
0.0000000001
 40
0.0
 40
0.0
 40
0.0
 40
0.0
 40
1.0
 40
1.0
 40
1.0
 40
1.0
 10
-20.8723
 20
7.1898
 30
0.0
 10
-20.8723
 20
7.1898
 30
0.0
 10
-20.8723
 20
4.2898
 30
0.0
 10
-20.8723
 20
4.2898
 30
0.0
  0
SPLINE
  5
F9
330
1F
100
AcDbEntity
  8
LAYER_1
 62
   250
100
AcDbSpline
210
0.0
220
0.0
230
1.0
 70
     8
 71
     3
 72
    12
 73
     8
 74
     0
 42
0.0000000001
 43
0.0000000001
 40
0.0
 40
0.0
 40
0.0
 40
0.0
 40
0.3333333333333333
 40
0.3333333333333333
 40
0.3333333333333333
 40
0.3333333333333333
 40
1.0
 40
1.0
 40
1.0
 40
1.0
 10
-20.8723
 20
4.2898
 30
0.0
 10
-20.8723
 20
4.2898
 30
0.0
 10
-17.9725
 20
4.2898
 30
0.0
 10
-17.9725
 20
4.2898
 30
0.0
 10
-17.9725
 20
4.2898
 30
0.0
 10
-17.9725
 20
4.2898
 30
0.0
 10
-17.9725
 20
7.1898
 30
0.0
 10
-17.9725
 20
7.1898
 30
0.0
  0
SPLINE
  5
FA
330
1F
100
AcDbEntity
  8
LAYER_1
 62
   250
100
AcDbSpline
210
0.0
220
0.0
230
1.0
 70
    24
 71
     3
 72
     8
 73
     4
 74
     0
 42
0.0000000001
 43
0.0000000001
 40
0.0
 40
0.0
 40
0.0
 40
0.0
 40
1.0
 40
1.0
 40
1.0
 40
1.0
 10
3.102
 20
7.1898
 30
0.0
 10
3.102
 20
7.1898
 30
0.0
 10
3.102
 20
4.29
 30
0.0
 10
3.102
 20
4.29
 30
0.0
  0
SPLINE
  5
FB
330
1F
100
AcDbEntity
  8
LAYER_1
 62
   250
100
AcDbSpline
210
0.0
220
0.0
230
1.0
 70
    24
 71
     3
 72
     8
 73
     4
 74
     0
 42
0.0000000001
 43
0.0000000001
 40
0.0
 40
0.0
 40
0.0
 40
0.0
 40
1.0
 40
1.0
 40
1.0
 40
1.0
 10
6.0016
 20
7.1898
 30
0.0
 10
6.0016
 20
7.1898
 30
0.0
 10
6.0016
 20
4.29
 30
0.0
 10
6.0016
 20
4.29
 30
0.0
  0
SPLINE
  5
FC
330
1F
100
AcDbEntity
  8
LAYER_1
 62
   250
100
AcDbSpline
210
0.0
220
0.0
230
1.0
 70
    24
 71
     3
 72
     8
 73
     4
 74
     0
 42
0.0000000001
 43
0.0000000001
 40
0.0
 40
0.0
 40
0.0
 40
0.0
 40
1.0
 40
1.0
 40
1.0
 40
1.0
 10
27.0762
 20
7.1898
 30
0.0
 10
27.0762
 20
7.1898
 30
0.0
 10
27.0762
 20
4.29
 30
0.0
 10
27.0762
 20
4.29
 30
0.0
  0
SPLINE
  5
FD
330
1F
100
AcDbEntity
  8
LAYER_1
 62
   250
100
AcDbSpline
210
0.0
220
0.0
230
1.0
 70
    24
 71
     3
 72
     8
 73
     4
 74
     0
 42
0.0000000001
 43
0.0000000001
 40
0.0
 40
0.0
 40
0.0
 40
0.0
 40
1.0
 40
1.0
 40
1.0
 40
1.0
 10
29.9758
 20
7.1898
 30
0.0
 10
29.9758
 20
7.1898
 30
0.0
 10
29.9758
 20
4.29
 30
0.0
 10
29.9758
 20
4.29
 30
0.0
  0
SPLINE
  5
FE
330
1F
100
AcDbEntity
  8
LAYER_1
 62
   250
100
AcDbSpline
210
0.0
220
0.0
230
1.0
 70
    24
 71
     3
 72
     8
 73
     4
 74
     0
 42
0.0000000001
 43
0.0000000001
 40
0.0
 40
0.0
 40
0.0
 40
0.0
 40
1.0
 40
1.0
 40
1.0
 40
1.0
 10
51.0504
 20
7.1898
 30
0.0
 10
51.0504
 20
7.1898
 30
0.0
 10
51.0504
 20
4.29
 30
0.0
 10
51.0504
 20
4.29
 30
0.0
  0
SPLINE
  5
FF
330
1F
100
AcDbEntity
  8
LAYER_1
 62
   250
100
AcDbSpline
210
0.0
220
0.0
230
1.0
 70
    24
 71
     3
 72
     8
 73
     4
 74
     0
 42
0.0000000001
 43
0.0000000001
 40
0.0
 40
0.0
 40
0.0
 40
0.0
 40
1.0
 40
1.0
 40
1.0
 40
1.0
 10
53.95
 20
7.1898
 30
0.0
 10
53.95
 20
7.1898
 30
0.0
 10
53.95
 20
4.29
 30
0.0
 10
53.95
 20
4.29
 30
0.0
  0
SPLINE
  5
100
330
1F
100
AcDbEntity
  8
LAYER_1
 62
   250
100
AcDbSpline
210
0.0
220
0.0
230
1.0
 70
    24
 71
     3
 72
     8
 73
     4
 74
     0
 42
0.0000000001
 43
0.0000000001
 40
0.0
 40
0.0
 40
0.0
 40
0.0
 40
1.0
 40
1.0
 40
1.0
 40
1.0
 10
3.102
 20
4.29
 30
0.0
 10
3.102
 20
4.29
 30
0.0
 10
6.0016
 20
4.29
 30
0.0
 10
6.0016
 20
4.29
 30
0.0
  0
SPLINE
  5
101
330
1F
100
AcDbEntity
  8
LAYER_1
 62
   250
100
AcDbSpline
210
0.0
220
0.0
230
1.0
 70
    24
 71
     3
 72
     8
 73
     4
 74
     0
 42
0.0000000001
 43
0.0000000001
 40
0.0
 40
0.0
 40
0.0
 40
0.0
 40
1.0
 40
1.0
 40
1.0
 40
1.0
 10
27.0762
 20
4.29
 30
0.0
 10
27.0762
 20
4.29
 30
0.0
 10
29.9758
 20
4.29
 30
0.0
 10
29.9758
 20
4.29
 30
0.0
  0
SPLINE
  5
102
330
1F
100
AcDbEntity
  8
LAYER_1
 62
   250
100
AcDbSpline
210
0.0
220
0.0
230
1.0
 70
    24
 71
     3
 72
     8
 73
     4
 74
     0
 42
0.0000000001
 43
0.0000000001
 40
0.0
 40
0.0
 40
0.0
 40
0.0
 40
1.0
 40
1.0
 40
1.0
 40
1.0
 10
51.0504
 20
4.29
 30
0.0
 10
51.0504
 20
4.29
 30
0.0
 10
53.95
 20
4.29
 30
0.0
 10
53.95
 20
4.29
 30
0.0
  0
SPLINE
  5
103
330
1F
100
AcDbEntity
  8
LAYER_1
 62
   250
100
AcDbSpline
210
0.0
220
0.0
230
1.0
 70
    24
 71
     3
 72
     8
 73
     4
 74
     0
 42
0.0000000001
 43
0.0000000001
 40
0.0
 40
0.0
 40
0.0
 40
0.0
 40
1.0
 40
1.0
 40
1.0
 40
1.0
 10
-17.9725
 20
7.1898
 30
0.0
 10
-17.9725
 20
7.1898
 30
0.0
 10
3.102
 20
7.1898
 30
0.0
 10
3.102
 20
7.1898
 30
0.0
  0
SPLINE
  5
104
330
1F
100
AcDbEntity
  8
LAYER_1
 62
   250
100
AcDbSpline
210
0.0
220
0.0
230
1.0
 70
    24
 71
     3
 72
     8
 73
     4
 74
     0
 42
0.0000000001
 43
0.0000000001
 40
0.0
 40
0.0
 40
0.0
 40
0.0
 40
1.0
 40
1.0
 40
1.0
 40
1.0
 10
6.0016
 20
7.1898
 30
0.0
 10
6.0016
 20
7.1898
 30
0.0
 10
27.0762
 20
7.1898
 30
0.0
 10
27.0762
 20
7.1898
 30
0.0
  0
SPLINE
  5
105
330
1F
100
AcDbEntity
  8
LAYER_1
 62
   250
100
AcDbSpline
210
0.0
220
0.0
230
1.0
 70
    24
 71
     3
 72
     8
 73
     4
 74
     0
 42
0.0000000001
 43
0.0000000001
 40
0.0
 40
0.0
 40
0.0
 40
0.0
 40
1.0
 40
1.0
 40
1.0
 40
1.0
 10
29.9758
 20
7.1898
 30
0.0
 10
29.9758
 20
7.1898
 30
0.0
 10
51.0504
 20
7.1898
 30
0.0
 10
51.0504
 20
7.1898
 30
0.0
  0
SPLINE
  5
106
330
1F
100
AcDbEntity
  8
LAYER_1
 62
   250
100
AcDbSpline
210
0.0
220
0.0
230
1.0
 70
    24
 71
     3
 72
     8
 73
     4
 74
     0
 42
0.0000000001
 43
0.0000000001
 40
0.0
 40
0.0
 40
0.0
 40
0.0
 40
1.0
 40
1.0
 40
1.0
 40
1.0
 10
18.4527
 20
7.1897
 30
0.0
 10
18.4527
 20
7.1897
 30
0.0
 10
18.4529
 20
7.1897
 30
0.0
 10
18.4532
 20
7.1897
 30
0.0
  0
SPLINE
  5
107
330
1F
100
AcDbEntity
  8
LAYER_1
 62
   250
100
AcDbSpline
210
0.0
220
0.0
230
1.0
 70
    24
 71
     3
 72
     8
 73
     4
 74
     0
 42
0.0000000001
 43
0.0000000001
 40
0.0
 40
0.0
 40
0.0
 40
0.0
 40
1.0
 40
1.0
 40
1.0
 40
1.0
 10
18.4527
 20
7.1894
 30
0.0
 10
18.4527
 20
7.1894
 30
0.0
 10
18.4527
 20
7.1897
 30
0.0
 10
18.4527
 20
7.1897
 30
0.0
  0
SPLINE
  5
108
330
1F
100
AcDbEntity
  8
LAYER_1
 62
   250
100
AcDbSpline
210
0.0
220
0.0
230
1.0
 70
    24
 71
     3
 72
     8
 73
     4
 74
     0
 42
0.0000000001
 43
0.0000000001
 40
0.0
 40
0.0
 40
0.0
 40
0.0
 40
1.0
 40
1.0
 40
1.0
 40
1.0
 10
-38.2735
 20
14.8643
 30
0.0
 10
-38.2735
 20
14.8643
 30
0.0
 10
-38.2735
 20
15.6493
 30
0.0
 10
-38.2735
 20
15.6493
 30
0.0
  0
SPLINE
  5
109
330
1F
100
AcDbEntity
  8
LAYER_1
 62
   250
100
AcDbSpline
210
0.0
220
0.0
230
1.0
 70
    24
 71
     3
 72
     8
 73
     4
 74
     0
 42
0.0000000001
 43
0.0000000001
 40
0.0
 40
0.0
 40
0.0
 40
0.0
 40
1.0
 40
1.0
 40
1.0
 40
1.0
 10
-38.8172
 20
16.1408
 30
0.0
 10
-38.8172
 20
16.1408
 30
0.0
 10
-40.9051
 20
16.1408
 30
0.0
 10
-40.9051
 20
16.1408
 30
0.0
  0
SPLINE
  5
10A
330
1F
100
AcDbEntity
  8
LAYER_1
 62
   250
100
AcDbSpline
210
0.0
220
0.0
230
1.0
 70
    24
 71
     3
 72
     8
 73
     4
 74
     0
 42
0.0000000001
 43
0.0000000001
 40
0.0
 40
0.0
 40
0.0
 40
0.0
 40
1.0
 40
1.0
 40
1.0
 40
1.0
 10
-41.8966
 20
15.158
 30
0.0
 10
-41.8966
 20
15.158
 30
0.0
 10
-41.8966
 20
4.2411
 30
0.0
 10
-41.8966
 20
4.2411
 30
0.0
  0
SPLINE
  5
10B
330
1F
100
AcDbEntity
  8
LAYER_1
 62
   250
100
AcDbSpline
210
0.0
220
0.0
230
1.0
 70
     8
 71
     3
 72
    12
 73
     8
 74
     0
 42
0.0000000001
 43
0.0000000001
 40
0.0
 40
0.0
 40
0.0
 40
0.0
 40
0.3333333333333333
 40
0.3333333333333333
 40
0.3333333333333333
 40
0.3333333333333333
 40
1.0
 40
1.0
 40
1.0
 40
1.0
 10
-40.9051
 20
16.1408
 30
0.0
 10
-41.1681
 20
16.1408
 30
0.0
 10
-41.4203
 20
16.0372
 30
0.0
 10
-41.6062
 20
15.8529
 30
0.0
 10
-41.6062
 20
15.8529
 30
0.0
 10
-41.7921
 20
15.6686
 30
0.0
 10
-41.8966
 20
15.4186
 30
0.0
 10
-41.8966
 20
15.158
 30
0.0
  0
SPLINE
  5
10C
330
1F
100
AcDbEntity
  8
LAYER_1
 62
   250
100
AcDbSpline
210
0.0
220
0.0
230
1.0
 70
     8
 71
     3
 72
    12
 73
     8
 74
     0
 42
0.0000000001
 43
0.0000000001
 40
0.0
 40
0.0
 40
0.0
 40
0.0
 40
0.3333333333333333
 40
0.3333333333333333
 40
0.3333333333333333
 40
0.3333333333333333
 40
1.0
 40
1.0
 40
1.0
 40
1.0
 10
-38.2735
 20
15.6493
 30
0.0
 10
-38.2735
 20
15.7797
 30
0.0
 10
-38.3307
 20
15.9047
 30
0.0
 10
-38.4327
 20
15.9968
 30
0.0
 10
-38.4327
 20
15.9968
 30
0.0
 10
-38.5347
 20
16.089
 30
0.0
 10
-38.673
 20
16.1408
 30
0.0
 10
-38.8172
 20
16.1408
 30
0.0
  0
SPLINE
  5
10D
330
1F
100
AcDbEntity
  8
LAYER_1
 62
   250
100
AcDbSpline
210
0.0
220
0.0
230
1.0
 70
    24
 71
     3
 72
     8
 73
     4
 74
     0
 42
0.0000000001
 43
0.0000000001
 40
0.0
 40
0.0
 40
0.0
 40
0.0
 40
1.0
 40
1.0
 40
1.0
 40
1.0
 10
-37.931
 20
7.1898
 30
0.0
 10
-37.931
 20
7.1898
 30
0.0
 10
-20.8723
 20
7.1898
 30
0.0
 10
-20.8723
 20
7.1898
 30
0.0
  0
SPLINE
  5
10E
330
1F
100
AcDbEntity
  8
LAYER_1
 62
   250
100
AcDbSpline
210
0.0
220
0.0
230
1.0
 70
     8
 71
     3
 72
    12
 73
     8
 74
     0
 42
0.0000000001
 43
0.0000000001
 40
0.0
 40
0.0
 40
0.0
 40
0.0
 40
0.3333333333333333
 40
0.3333333333333333
 40
0.3333333333333333
 40
0.3333333333333333
 40
1.0
 40
1.0
 40
1.0
 40
1.0
 10
-38.9224
 20
8.1727
 30
0.0
 10
-38.9224
 20
7.912
 30
0.0
 10
-38.818
 20
7.6621
 30
0.0
 10
-38.632
 20
7.4776
 30
0.0
 10
-38.632
 20
7.4776
 30
0.0
 10
-38.4462
 20
7.2933
 30
0.0
 10
-38.1939
 20
7.1897
 30
0.0
 10
-37.9311
 20
7.1897
 30
0.0
  0
SPLINE
  5
10F
330
1F
100
AcDbEntity
  8
LAYER_1
 62
   250
100
AcDbSpline
210
0.0
220
0.0
230
1.0
 70
    24
 71
     3
 72
     8
 73
     4
 74
     0
 42
0.0000000001
 43
0.0000000001
 40
0.0
 40
0.0
 40
0.0
 40
0.0
 40
1.0
 40
1.0
 40
1.0
 40
1.0
 10
-38.9224
 20
14.8152
 30
0.0
 10
-38.9224
 20
14.8152
 30
0.0
 10
-38.3279
 20
14.8152
 30
0.0
 10
-38.3279
 20
14.8152
 30
0.0
  0
SPLINE
  5
110
330
1F
100
AcDbEntity
  8
LAYER_1
 62
   250
100
AcDbSpline
210
0.0
220
0.0
230
1.0
 70
     8
 71
     3
 72
     8
 73
     4
 74
     0
 42
0.0000000001
 43
0.0000000001
 40
0.0
 40
0.0
 40
0.0
 40
0.0
 40
1.0
 40
1.0
 40
1.0
 40
1.0
 10
-38.3279
 20
14.8152
 30
0.0
 10
-38.2979
 20
14.8152
 30
0.0
 10
-38.2735
 20
14.8372
 30
0.0
 10
-38.2735
 20
14.8643
 30
0.0
  0
SPLINE
  5
111
330
1F
100
AcDbEntity
  8
LAYER_1
 62
   250
100
AcDbSpline
210
0.0
220
0.0
230
1.0
 70
    24
 71
     3
 72
     8
 73
     4
 74
     0
 42
0.0000000001
 43
0.0000000001
 40
0.0
 40
0.0
 40
0.0
 40
0.0
 40
1.0
 40
1.0
 40
1.0
 40
1.0
 10
75.7236
 20
16.1408
 30
0.0
 10
75.7236
 20
16.1408
 30
0.0
 10
77.8115
 20
16.1408
 30
0.0
 10
77.8115
 20
16.1408
 30
0.0
  0
SPLINE
  5
112
330
1F
100
AcDbEntity
  8
LAYER_1
 62
   250
100
AcDbSpline
210
0.0
220
0.0
230
1.0
 70
     8
 71
     3
 72
    12
 73
     8
 74
     0
 42
0.0000000001
 43
0.0000000001
 40
0.0
 40
0.0
 40
0.0
 40
0.0
 40
0.3333333333333333
 40
0.3333333333333333
 40
0.3333333333333333
 40
0.3333333333333333
 40
1.0
 40
1.0
 40
1.0
 40
1.0
 10
78.803
 20
15.158
 30
0.0
 10
78.803
 20
15.4186
 30
0.0
 10
78.6985
 20
15.6686
 30
0.0
 10
78.5126
 20
15.8529
 30
0.0
 10
78.5126
 20
15.8529
 30
0.0
 10
78.3267
 20
16.0372
 30
0.0
 10
78.0745
 20
16.1408
 30
0.0
 10
77.8115
 20
16.1408
 30
0.0
  0
SPLINE
  5
113
330
1F
100
AcDbEntity
  8
LAYER_1
 62
   250
100
AcDbSpline
210
0.0
220
0.0
230
1.0
 70
    24
 71
     3
 72
     8
 73
     4
 74
     0
 42
0.0000000001
 43
0.0000000001
 40
0.0
 40
0.0
 40
0.0
 40
0.0
 40
1.0
 40
1.0
 40
1.0
 40
1.0
 10
75.8288
 20
14.8152
 30
0.0
 10
75.8288
 20
14.8152
 30
0.0
 10
75.8288
 20
8.1727
 30
0.0
 10
75.8288
 20
8.1727
 30
0.0
  0
SPLINE
  5
114
330
1F
100
AcDbEntity
  8
LAYER_1
 62
   250
100
AcDbSpline
210
0.0
220
0.0
230
1.0
 70
    24
 71
     3
 72
     8
 73
     4
 74
     0
 42
0.0000000001
 43
0.0000000001
 40
0.0
 40
0.0
 40
0.0
 40
0.0
 40
1.0
 40
1.0
 40
1.0
 40
1.0
 10
74.8374
 20
7.1898
 30
0.0
 10
74.8374
 20
7.1898
 30
0.0
 10
53.95
 20
7.1898
 30
0.0
 10
53.95
 20
7.1898
 30
0.0
  0
SPLINE
  5
115
330
1F
100
AcDbEntity
  8
LAYER_1
 62
   250
100
AcDbSpline
210
0.0
220
0.0
230
1.0
 70
     8
 71
     3
 72
     8
 73
     4
 74
     0
 42
0.0000000001
 43
0.0000000001
 40
0.0
 40
0.0
 40
0.0
 40
0.0
 40
1.0
 40
1.0
 40
1.0
 40
1.0
 10
74.8375
 20
7.1897
 30
0.0
 10
75.385
 20
7.1897
 30
0.0
 10
75.8288
 20
7.6298
 30
0.0
 10
75.8288
 20
8.1727
 30
0.0
  0
SPLINE
  5
116
330
1F
100
AcDbEntity
  8
LAYER_1
 62
   250
100
AcDbSpline
210
0.0
220
0.0
230
1.0
 70
    24
 71
     3
 72
     8
 73
     4
 74
     0
 42
0.0000000001
 43
0.0000000001
 40
0.0
 40
0.0
 40
0.0
 40
0.0
 40
1.0
 40
1.0
 40
1.0
 40
1.0
 10
75.1799
 20
14.8643
 30
0.0
 10
75.1799
 20
14.8643
 30
0.0
 10
75.1799
 20
15.6493
 30
0.0
 10
75.1799
 20
15.6493
 30
0.0
  0
SPLINE
  5
117
330
1F
100
AcDbEntity
  8
LAYER_1
 62
   250
100
AcDbSpline
210
0.0
220
0.0
230
1.0
 70
     8
 71
     3
 72
    12
 73
     8
 74
     0
 42
0.0000000001
 43
0.0000000001
 40
0.0
 40
0.0
 40
0.0
 40
0.0
 40
0.3333333333333333
 40
0.3333333333333333
 40
0.3333333333333333
 40
0.3333333333333333
 40
1.0
 40
1.0
 40
1.0
 40
1.0
 10
75.1799
 20
15.6493
 30
0.0
 10
75.1799
 20
15.7797
 30
0.0
 10
75.2371
 20
15.9047
 30
0.0
 10
75.3391
 20
15.9968
 30
0.0
 10
75.3391
 20
15.9968
 30
0.0
 10
75.4411
 20
16.089
 30
0.0
 10
75.5794
 20
16.1408
 30
0.0
 10
75.7236
 20
16.1408
 30
0.0
  0
SPLINE
  5
118
330
1F
100
AcDbEntity
  8
LAYER_1
 62
   250
100
AcDbSpline
210
0.0
220
0.0
230
1.0
 70
    24
 71
     3
 72
     8
 73
     4
 74
     0
 42
0.0000000001
 43
0.0000000001
 40
0.0
 40
0.0
 40
0.0
 40
0.0
 40
1.0
 40
1.0
 40
1.0
 40
1.0
 10
75.8288
 20
14.8152
 30
0.0
 10
75.8288
 20
14.8152
 30
0.0
 10
75.2343
 20
14.8152
 30
0.0
 10
75.2343
 20
14.8152
 30
0.0
  0
SPLINE
  5
119
330
1F
100
AcDbEntity
  8
LAYER_1
 62
   250
100
AcDbSpline
210
0.0
220
0.0
230
1.0
 70
     8
 71
     3
 72
     8
 73
     4
 74
     0
 42
0.0000000001
 43
0.0000000001
 40
0.0
 40
0.0
 40
0.0
 40
0.0
 40
1.0
 40
1.0
 40
1.0
 40
1.0
 10
75.2343
 20
14.8152
 30
0.0
 10
75.2043
 20
14.8152
 30
0.0
 10
75.1799
 20
14.8372
 30
0.0
 10
75.1799
 20
14.8643
 30
0.0
  0
SPLINE
  5
11A
330
1F
100
AcDbEntity
  8
LAYER_1
 62
   250
100
AcDbSpline
210
0.0
220
0.0
230
1.0
 70
     8
 71
     3
 72
    12
 73
     8
 74
     0
 42
0.0000000001
 43
0.0000000001
 40
0.0
 40
0.0
 40
0.0
 40
0.0
 40
0.3333333333333333
 40
0.3333333333333333
 40
0.3333333333333333
 40
0.3333333333333333
 40
1.0
 40
1.0
 40
1.0
 40
1.0
 10
-41.8966
 20
4.2411
 30
0.0
 10
-41.8966
 20
3.4455
 30
0.0
 10
-41.5804
 20
2.6827
 30
0.0
 10
-41.0179
 20
2.1199
 30
0.0
 10
-41.0179
 20
2.1199
 30
0.0
 10
-40.4554
 20
1.5574
 30
0.0
 10
-39.6922
 20
1.2412
 30
0.0
 10
-38.8966
 20
1.2412
 30
0.0
  0
SPLINE
  5
11B
330
1F
100
AcDbEntity
  8
LAYER_1
 62
   250
100
AcDbSpline
210
0.0
220
0.0
230
1.0
 70
    24
 71
     3
 72
     8
 73
     4
 74
     0
 42
0.0000000001
 43
0.0000000001
 40
0.0
 40
0.0
 40
0.0
 40
0.0
 40
1.0
 40
1.0
 40
1.0
 40
1.0
 10
75.803
 20
1.2412
 30
0.0
 10
75.803
 20
1.2412
 30
0.0
 10
18.4532
 20
1.2412
 30
0.0
 10
18.4532
 20
1.2412
 30
0.0
  0
SPLINE
  5
11C
330
1F
100
AcDbEntity
  8
LAYER_1
 62
   250
100
AcDbSpline
210
0.0
220
0.0
230
1.0
 70
    24
 71
     3
 72
     8
 73
     4
 74
     0
 42
0.0000000001
 43
0.0000000001
 40
0.0
 40
0.0
 40
0.0
 40
0.0
 40
1.0
 40
1.0
 40
1.0
 40
1.0
 10
78.803
 20
15.1579
 30
0.0
 10
78.803
 20
15.1579
 30
0.0
 10
78.803
 20
4.2412
 30
0.0
 10
78.803
 20
4.2412
 30
0.0
  0
SPLINE
  5
11D
330
1F
100
AcDbEntity
  8
LAYER_1
 62
   250
100
AcDbSpline
210
0.0
220
0.0
230
1.0
 70
     8
 71
     3
 72
    12
 73
     8
 74
     0
 42
0.0000000001
 43
0.0000000001
 40
0.0
 40
0.0
 40
0.0
 40
0.0
 40
0.3333333333333333
 40
0.3333333333333333
 40
0.3333333333333333
 40
0.3333333333333333
 40
1.0
 40
1.0
 40
1.0
 40
1.0
 10
78.803
 20
4.2411
 30
0.0
 10
78.803
 20
3.4455
 30
0.0
 10
78.4868
 20
2.6827
 30
0.0
 10
77.9243
 20
2.1199
 30
0.0
 10
77.9243
 20
2.1199
 30
0.0
 10
77.3618
 20
1.5574
 30
0.0
 10
76.5986
 20
1.2412
 30
0.0
 10
75.803
 20
1.2412
 30
0.0
  0
SPLINE
  5
11E
330
1F
100
AcDbEntity
  8
LAYER_1
 62
   250
100
AcDbSpline
210
0.0
220
0.0
230
1.0
 70
    24
 71
     3
 72
     8
 73
     4
 74
     0
 42
0.0000000001
 43
0.0000000001
 40
0.0
 40
0.0
 40
0.0
 40
0.0
 40
1.0
 40
1.0
 40
1.0
 40
1.0
 10
-38.9224
 20
14.8152
 30
0.0
 10
-38.9224
 20
14.8152
 30
0.0
 10
-38.9224
 20
8.1727
 30
0.0
 10
-38.9224
 20
8.1727
 30
0.0
  0
ENDSEC
  0
SECTION
  2
OBJECTS
  0
DICTIONARY
  5
C
330
0
100
AcDbDictionary
  3
ACAD_GROUP
350
D
  3
ACAD_LAYOUT
350
1A
  3
ACAD_MATERIAL
350
3B
  3
ACAD_MLEADERSTYLE
350
141
  3
ACAD_MLINESTYLE
350
17
  3
ACAD_PLOTSETTINGS
350
19
  3
ACAD_VISUALSTYLE
350
2A
  3
ACDBHEADERROUNDTRIPXREC
350
11F
  3
ACDBVARIABLEDICTIONARY
350
13F
  0
DICTIONARY
  5
D
102
{ACAD_REACTORS
330
C
102
}
330
C
100
AcDbDictionary
  0
DICTIONARY
  5
1A
102
{ACAD_REACTORS
330
C
102
}
330
C
100
AcDbDictionary
  0
DICTIONARY
  5
3B
102
{ACAD_REACTORS
330
C
102
}
330
C
100
AcDbDictionary
  3
BYBLOCK
350
3D
  3
BYLAYER
350
3C
  3
GLOBAL
350
3E
  0
DICTIONARY
  5
141
102
{ACAD_REACTORS
330
C
102
}
330
C
100
AcDbDictionary
  0
DICTIONARY
  5
17
102
{ACAD_REACTORS
330
C
102
}
330
C
100
AcDbDictionary
  3
STANDARD
350
18
  0
DICTIONARY
  5
19
102
{ACAD_REACTORS
330
C
102
}
330
C
100
AcDbDictionary
  0
DICTIONARY
  5
2A
102
{ACAD_REACTORS
330
C
102
}
330
C
100
AcDbDictionary
  3
2DWIREFRAME
350
2F
  3
3D_HIDDEN
350
31
  3
3DWIREFRAME
350
30
  3
BASIC
350
32
  3
BRIGHTEN
350
36
  3
COLORCHANGE
350
3A
  3
CONCEPTUAL
350
34
  3
DIM
350
35
  3
FACEPATTERN
350
39
  3
FLAT
350
2B
  3
FLATWITHEDGES
350
2C
  3
GOURAUD
350
2D
  3
GOURAUDWITHEDGES
350
2E
  3
LINEPATTERN
350
38
  3
REALISTIC
350
33
  3
THICKEN
350
37
  0
DICTIONARY
  5
11F
102
{ACAD_REACTORS
330
C
102
}
330
C
100
AcDbDictionary
  3
CEPSNTYPE
350
128
  3
DIMSTYLEDATA
350
13E
  3
FINGERPRINTGUID
350
129
  3
HYPERLINKBASE
350
122
  3
INSUNITS
350
127
  3
LAYOUTDICT
350
124
  3
LWETCUNION
350
126
  3
PLOTSETDICT
350
125
  3
PSVPSCALE
350
12B
  3
PUCSBASE
350
12E
  3
PUCSORGBACK
350
134
  3
PUCSORGBOTTOM
350
130
  3
PUCSORGFRONT
350
133
  3
PUCSORGLEFT
350
131
  3
PUCSORGRIGHT
350
132
  3
PUCSORGTOP
350
12F
  3
PUCSORTHOREF
350
12C
  3
PUCSORTHOVIEW
350
12D
  3
STYLESHEET
350
123
  3
TSTACKALIGN
350
120
  3
TSTACKSIZE
350
121
  3
UCSBASE
350
137
  3
UCSORGBACK
350
13D
  3
UCSORGBOTTOM
350
139
  3
UCSORGFRONT
350
13C
  3
UCSORGLEFT
350
13A
  3
UCSORGRIGHT
350
13B
  3
UCSORGTOP
350
138
  3
UCSORTHOREF
350
135
  3
UCSORTHOVIEW
350
136
  3
VERSIONGUID
350
12A
  0
DICTIONARY
  5
13F
102
{ACAD_REACTORS
330
C
102
}
330
C
100
AcDbDictionary
  3
DIMASSOC
350
142
  3
HIDETEXT
350
143
  0
MATERIAL
  5
3D
102
{ACAD_REACTORS
330
3B
102
}
102
{ACAD_XDICTIONARY
360
146
102
}
330
3B
100
AcDbMaterial
  1
ByBlock
  0
MATERIAL
  5
3C
102
{ACAD_REACTORS
330
3B
102
}
102
{ACAD_XDICTIONARY
360
144
102
}
330
3B
100
AcDbMaterial
  1
ByLayer
  0
MATERIAL
  5
3E
102
{ACAD_REACTORS
330
3B
102
}
102
{ACAD_XDICTIONARY
360
148
102
}
330
3B
100
AcDbMaterial
  1
Global
  0
MLINESTYLE
  5
18
102
{ACAD_REACTORS
330
17
102
}
330
17
100
AcDbMlineStyle
  2
Standard
 70
     0
  3

 62
   256
 51
90.0
 52
90.0
 71
     2
 49
0.5
 62
   256
  6
BYLAYER
 49
-0.5
 62
   256
  6
BYLAYER
  0
ACAD_PROXY_OBJECT
  5
2F
102
{ACAD_REACTORS
330
2A
102
}
330
2A
100
AcDbProxyObject
 90
      499
 91
      501
 93
      436
310
42CC9915DA5C99599C985B595049028333333333333E3BF0000000000000FB0107901411070040501600405405064090741402480A0340
1001
ACAD
1000
AcDbSavedByObjectVersion
1070
     0
  0
ACAD_PROXY_OBJECT
  5
31
102
{ACAD_REACTORS
330
2A
102
}
330
2A
100
AcDbProxyObject
 90
      499
 91
      501
 93
      500
310
424CD108121A5919195B90640502408333333333333E3BF0000000000000FB01079024090700405020000000000001110200405405064090740C02480A0340
1001
ACAD
1000
AcDbSavedByObjectVersion
1070
     0
  0
ACAD_PROXY_OBJECT
  5
30
102
{ACAD_REACTORS
330
2A
102
}
330
2A
100
AcDbProxyObject
 90
      499
 91
      501
 93
      436
310
42CCD915DA5C99599C985B595059028333333333333E3BF0000000000000FB0107901411070040501600405405064090741402480A0340
1001
ACAD
1000
AcDbSavedByObjectVersion
1070
     0
  0
ACAD_PROXY_OBJECT
  5
32
102
{ACAD_REACTORS
330
2A
102
}
330
2A
100
AcDbProxyObject
 90
      499
 91
      501
 93
      388
310
4150985CDA58D07406404333333333333E3BF0000000000000FB0107A41107004050150841D405064090741402480A0350
1001
ACAD
1000
AcDbSavedByObjectVersion
1070
     0
  0
ACAD_PROXY_OBJECT
  5
36
102
{ACAD_REACTORS
330
2A
102
}
330
2A
100
AcDbProxyObject
 90
      499
 91
      501
 93
      428
310
42109C9A59DA1D195B90C409028333333333333E3BF0000000000000FB010790141107004050150841D405064090741402480A029950
1001
ACAD
1000
AcDbSavedByObjectVersion
1070
     0
  0
ACAD_PROXY_OBJECT
  5
3A
102
{ACAD_REACTORS
330
2A
102
}
330
2A
100
AcDbProxyObject
 90
      499
 91
      501
 93
      452
310
42D0DBDB1BDC90DA185B99D95104090240C333333333333E3BF0000000000000FB0108901411070040501508421405064090741402480A0350
1001
ACAD
1000
AcDbSavedByObjectVersion
1070
     0
  0
ACAD_PROXY_OBJECT
  5
34
102
{ACAD_REACTORS
330
2A
102
}
330
2A
100
AcDbProxyObject
 90
      499
 91
      501
 93
      500
310
4290DBDB98D95C1D1D585B10940D028333333333333E3BF0000000000000FB0107902409070040501000000000000111010841D405064090740C02480A0340
1001
ACAD
1000
AcDbSavedByObjectVersion
1070
     0
  0
ACAD_PROXY_OBJECT
  5
35
102
{ACAD_REACTORS
330
2A
102
}
330
2A
100
AcDbProxyObject
 90
      499
 91
      501
 93
      412
310
40D11A5B50B409028333333333333E3BF0000000000000FB010790141107004050150841D405064090741402480A02677FFFFFD0
1001
ACAD
1000
AcDbSavedByObjectVersion
1070
     0
  0
ACAD_PROXY_OBJECT
  5
39
102
{ACAD_REACTORS
330
2A
102
}
330
2A
100
AcDbProxyObject
 90
      499
 91
      501
 93
      444
310
42D19858D95C185D1D195C9B90F409028333333333333E3BF0000000000000FB010790141107004050150841D405064090741402480A0350
1001
ACAD
1000
AcDbSavedByObjectVersion
1070
     0
  0
ACAD_PROXY_OBJECT
  5
2B
102
{ACAD_REACTORS
330
2A
102
}
330
2A
100
AcDbProxyObject
 90
      499
 91
      501
 93
      388
310
41119B185D240901404333333333333E3BF0000000000000F9010740A41107004050150841D405064090741402480A1B50
1001
ACAD
1000
AcDbSavedByObjectVersion
1070
     0
  0
ACAD_PROXY_OBJECT
  5
2C
102
{ACAD_REACTORS
330
2A
102
}
330
2A
100
AcDbProxyObject
 90
      499
 91
      501
 93
      476
310
43519B185D15DA5D1A115919D95CD0140901404333333333333E3BF0000000000000F9010740901411070040501600405405064090741402480A1B50
1001
ACAD
1000
AcDbSavedByObjectVersion
1070
     0
  0
ACAD_PROXY_OBJECT
  5
2D
102
{ACAD_REACTORS
330
2A
102
}
330
2A
100
AcDbProxyObject
 90
      499
 91
      501
 93
      412
310
41D1DBDD5C985D5910240902404333333333333E3BF0000000000000F9010740A411070040501641D405064090741402480A1B50
1001
ACAD
1000
AcDbSavedByObjectVersion
1070
     0
  0
ACAD_PROXY_OBJECT
  5
2E
102
{ACAD_REACTORS
330
2A
102
}
330
2A
100
AcDbProxyObject
 90
      499
 91
      501
 93
      500
310
4411DBDD5C985D5915DA5D1A115919D95CD0340902404333333333333E3BF0000000000000F9010740901411070040501600405405064090741402480A1B50
1001
ACAD
1000
AcDbSavedByObjectVersion
1070
     0
  0
ACAD_PROXY_OBJECT
  5
38
102
{ACAD_REACTORS
330
2A
102
}
330
2A
100
AcDbProxyObject
 90
      499
 91
      501
 93
      444
310
42D31A5B995C185D1D195C9B90E409028333333333333E3BF0000000000000FB010790141107004050750841D405064090741402483A0350
1001
ACAD
1000
AcDbSavedByObjectVersion
1070
     0
  0
ACAD_PROXY_OBJECT
  5
33
102
{ACAD_REACTORS
330
2A
102
}
330
2A
100
AcDbProxyObject
 90
      499
 91
      501
 93
      420
310
425499585B1A5CDD1A58D08409028333333333333E3BF0000000000000FB01079019070040501508421405064090741402480A1B40
1001
ACAD
1000
AcDbSavedByObjectVersion
1070
     0
  0
ACAD_PROXY_OBJECT
  5
37
102
{ACAD_REACTORS
330
2A
102
}
330
2A
100
AcDbProxyObject
 90
      499
 91
      501
 93
      412
310
41D51A1A58DAD95B90D409028333333333333E3BF0000000000000FB010790141107004050150C41D405064090741402480A0350
1001
ACAD
1000
AcDbSavedByObjectVersion
1070
     0
  0
XRECORD
  5
128
102
{ACAD_REACTORS
330
11F
102
}
330
11F
100
AcDbXrecord
 90
        0
  0
XRECORD
  5
13E
102
{ACAD_REACTORS
330
11F
102
}
330
11F
100
AcDbXrecord
1000
DSTYLE
1002
{
1070
   340
340
11
1002
}
  0
XRECORD
  5
129
102
{ACAD_REACTORS
330
11F
102
}
330
11F
100
AcDbXrecord
  1
{9DC19091-EBDE-4C98-9078-68C2A5C61F23}
  0
XRECORD
  5
122
102
{ACAD_REACTORS
330
11F
102
}
330
11F
100
AcDbXrecord
  1

  0
XRECORD
  5
127
102
{ACAD_REACTORS
330
11F
102
}
330
11F
100
AcDbXrecord
 90
        4
  0
XRECORD
  5
124
102
{ACAD_REACTORS
330
11F
102
}
330
11F
100
AcDbXrecord
340
1A
  0
XRECORD
  5
126
102
{ACAD_REACTORS
330
11F
102
}
330
11F
100
AcDbXrecord
 90
    10781
  0
XRECORD
  5
125
102
{ACAD_REACTORS
330
11F
102
}
330
11F
100
AcDbXrecord
340
19
  0
XRECORD
  5
12B
102
{ACAD_REACTORS
330
11F
102
}
330
11F
100
AcDbXrecord
 40
0.0
  0
XRECORD
  5
12E
102
{ACAD_REACTORS
330
11F
102
}
330
11F
100
AcDbXrecord
340
0
  0
XRECORD
  5
134
102
{ACAD_REACTORS
330
11F
102
}
330
11F
100
AcDbXrecord
 10
0.0
 20
0.0
 30
0.0
  0
XRECORD
  5
130
102
{ACAD_REACTORS
330
11F
102
}
330
11F
100
AcDbXrecord
 10
0.0
 20
0.0
 30
0.0
  0
XRECORD
  5
133
102
{ACAD_REACTORS
330
11F
102
}
330
11F
100
AcDbXrecord
 10
0.0
 20
0.0
 30
0.0
  0
XRECORD
  5
131
102
{ACAD_REACTORS
330
11F
102
}
330
11F
100
AcDbXrecord
 10
0.0
 20
0.0
 30
0.0
  0
XRECORD
  5
132
102
{ACAD_REACTORS
330
11F
102
}
330
11F
100
AcDbXrecord
 10
0.0
 20
0.0
 30
0.0
  0
XRECORD
  5
12F
102
{ACAD_REACTORS
330
11F
102
}
330
11F
100
AcDbXrecord
 10
0.0
 20
0.0
 30
0.0
  0
XRECORD
  5
12C
102
{ACAD_REACTORS
330
11F
102
}
330
11F
100
AcDbXrecord
340
0
  0
XRECORD
  5
12D
102
{ACAD_REACTORS
330
11F
102
}
330
11F
100
AcDbXrecord
 70
     0
  0
XRECORD
  5
123
102
{ACAD_REACTORS
330
11F
102
}
330
11F
100
AcDbXrecord
  1

  0
XRECORD
  5
120
102
{ACAD_REACTORS
330
11F
102
}
330
11F
100
AcDbXrecord
 90
        1
  0
XRECORD
  5
121
102
{ACAD_REACTORS
330
11F
102
}
330
11F
100
AcDbXrecord
 90
       70
  0
XRECORD
  5
137
102
{ACAD_REACTORS
330
11F
102
}
330
11F
100
AcDbXrecord
340
0
  0
XRECORD
  5
13D
102
{ACAD_REACTORS
330
11F
102
}
330
11F
100
AcDbXrecord
 10
0.0
 20
0.0
 30
0.0
  0
XRECORD
  5
139
102
{ACAD_REACTORS
330
11F
102
}
330
11F
100
AcDbXrecord
 10
0.0
 20
0.0
 30
0.0
  0
XRECORD
  5
13C
102
{ACAD_REACTORS
330
11F
102
}
330
11F
100
AcDbXrecord
 10
0.0
 20
0.0
 30
0.0
  0
XRECORD
  5
13A
102
{ACAD_REACTORS
330
11F
102
}
330
11F
100
AcDbXrecord
 10
0.0
 20
0.0
 30
0.0
  0
XRECORD
  5
13B
102
{ACAD_REACTORS
330
11F
102
}
330
11F
100
AcDbXrecord
 10
0.0
 20
0.0
 30
0.0
  0
XRECORD
  5
138
102
{ACAD_REACTORS
330
11F
102
}
330
11F
100
AcDbXrecord
 10
0.0
 20
0.0
 30
0.0
  0
XRECORD
  5
135
102
{ACAD_REACTORS
330
11F
102
}
330
11F
100
AcDbXrecord
340
0
  0
XRECORD
  5
136
102
{ACAD_REACTORS
330
11F
102
}
330
11F
100
AcDbXrecord
 70
     0
  0
XRECORD
  5
12A
102
{ACAD_REACTORS
330
11F
102
}
330
11F
100
AcDbXrecord
  1
{FAEB1C32-E019-11D5-929B-00C0DF256EC4}
  0
DICTIONARYVAR
  5
142
102
{ACAD_REACTORS
330
13F
102
}
330
13F
100
DictionaryVariables
280
     0
  1
2
  0
DICTIONARYVAR
  5
143
102
{ACAD_REACTORS
330
13F
102
}
330
13F
100
DictionaryVariables
280
     0
  1
1
  0
DICTIONARY
  5
146
330
3D
100
AcDbDictionary
280
     1
  3
ACAD_XREC_ROUNDTRIP
360
147
  0
DICTIONARY
  5
144
330
3C
100
AcDbDictionary
280
     1
  3
ACAD_XREC_ROUNDTRIP
360
145
  0
DICTIONARY
  5
148
330
3E
100
AcDbDictionary
280
     1
  3
ACAD_XREC_ROUNDTRIP
360
149
  0
XRECORD
  5
147
102
{ACAD_REACTORS
330
146
102
}
330
146
100
AcDbXrecord
102
MATERIAL
148
0.0
149
0.0
149
0.0
 93
        0
 94
      127
282
     0
 72
     1
 77
     1
171
     1
175
     1
179
     1
273
     0
  0
XRECORD
  5
145
102
{ACAD_REACTORS
330
144
102
}
330
144
100
AcDbXrecord
102
MATERIAL
148
0.0
149
0.0
149
0.0
 93
        0
 94
      127
282
     0
 72
     1
 77
     1
171
     1
175
     1
179
     1
273
     0
  0
XRECORD
  5
149
102
{ACAD_REACTORS
330
148
102
}
330
148
100
AcDbXrecord
102
MATERIAL
148
0.0
149
0.0
149
0.0
 93
        0
 94
      127
282
     0
 72
     1
 77
     1
171
     1
175
     1
179
     1
273
     0
  0
ENDSEC
  0
EOF
