  0
SECTION
  2
ENTITIES
  0
LINE
  8
PG-LP
 10
762436.15
 20
4137934.66
 11
762432.84
 21
4137935.81
  0
LINE
  8
PG-LP
 10
762432.84
 20
4137935.81
 11
762434.40
 21
4137940.26
  0
LINE
  8
PG-LP
 10
762434.40
 20
4137940.26
 11
762435.05
 21
4137942.14
  0
LINE
  8
PG-LP
 10
762435.05
 20
4137942.14
 11
762438.30
 21
4137941.00
  0
LINE
  8
PG-LP
 10
762438.30
 20
4137941.00
 11
762438.35
 21
4137940.99
  0
LINE
  8
PG-LP
 10
762445.38
 20
4137931.46
 11
762445.12
 21
4137931.55
  0
LINE
  8
PG-LP
 10
762445.12
 20
4137931.55
 11
762442.50
 21
4137932.45
  0
LINE
  8
PG-LP
 10
762442.50
 20
4137932.45
 11
762442.10
 21
4137932.59
  0
LINE
  8
PG-LP
 10
762442.10
 20
4137932.59
 11
762440.25
 21
4137933.23
  0
LINE
  8
PG-LP
 10
762438.35
 20
4137940.99
 11
762439.99
 21
4137940.68
  0
LINE
  8
PG-LP
 10
762439.99
 20
4137940.68
 11
762445.54
 21
4137938.96
  0
LINE
  8
PG-LP
 10
762445.54
 20
4137938.96
 11
762447.41
 21
4137938.09
  0
LINE
  8
PG-LP
 10
762447.41
 20
4137938.09
 11
762450.66
 21
4137936.58
  0
LINE
  8
PG-LP
 10
762450.66
 20
4137936.58
 11
762452.93
 21
4137935.80
  0
LINE
  8
PG-LP
 10
762452.93
 20
4137935.80
 11
762450.92
 21
4137929.98
  0
LINE
  8
PG-LP
 10
762450.92
 20
4137929.98
 11
762445.57
 21
4137931.40
  0
LINE
  8
PG-LP
 10
762445.57
 20
4137931.40
 11
762445.38
 21
4137931.46
  0
LINE
  8
PG-LP
 10
762440.25
 20
4137933.23
 11
762436.15
 21
4137934.66
  0
LINE
  8
PG-LI
 10
762436.15
 20
4137934.66
 11
762437.70
 21
4137939.11
  0
LINE
  8
PG-LI
 10
762445.38
 20
4137931.46
 11
762446.37
 21
4137934.30
  0
LINE
  8
PG-LI
 10
762437.70
 20
4137939.11
 11
762438.32
 21
4137940.90
  0
LINE
  8
PG-LI
 10
762446.37
 20
4137934.30
 11
762448.75
 21
4137933.46
  0
LINE
  8
PG-LI
 10
762448.75
 20
4137933.46
 11
762449.94
 21
4137936.84
  0
LINE
  8
PG-LI
 10
762449.94
 20
4137936.84
 11
762447.29
 21
4137937.77
  0
LINE
  8
PG-LI
 10
762443.09
 20
4137935.44
 11
762442.10
 21
4137932.59
  0
LINE
  8
PG-LI
 10
762447.29
 20
4137937.77
 11
762438.32
 21
4137940.90
  0
LINE
  8
PG-LI
 10
762437.70
 20
4137939.11
 11
762434.40
 21
4137940.26
  0
LINE
  8
PG-LI
 10
762446.37
 20
4137934.30
 11
762446.11
 21
4137934.39
  0
LINE
  8
PG-LI
 10
762438.32
 20
4137940.90
 11
762438.35
 21
4137940.99
  0
LINE
  8
PG-LI
 10
762447.29
 20
4137937.77
 11
762446.11
 21
4137934.39
  0
LINE
  8
PG-LI
 10
762443.09
 20
4137935.44
 11
762441.25
 21
4137936.08
  0
LINE
  8
PG-LI
 10
762441.25
 20
4137936.08
 11
762440.25
 21
4137933.23
  0
LINE
  8
PG-LI
 10
762446.11
 20
4137934.39
 11
762443.09
 21
4137935.44
  0
LINE
  8
PG-LA
 10
762445.12
 20
4137931.55
 11
762446.11
 21
4137934.39
  0
LINE
  8
PG-LA
 10
762450.66
 20
4137936.58
 11
762449.48
 21
4137933.21
  0
LINE
  8
PG-LA
 10
762449.48
 20
4137933.21
 11
762448.75
 21
4137933.46
  0
LINE
  8
PG-LA
 10
762447.29
 20
4137937.77
 11
762447.41
 21
4137938.09
  0
TEXT
  8
PG-CO
 10
762438.35
 20
4137943.63
 30
0.0
 40
0.5
  1
3,44
 50
160.68
 72
1
 73
3
 11
762437.34
 21
4137943.46
 31
0.0
  0
LINE
  8
PG-CO
 10
762435.71
 20
4137944.03
 11
762438.96
 21
4137942.89
  0
TEXT
  8
PG-CO
 10
762440.50
 20
4137943.13
 30
0.0
 40
0.5
  1
1,72
 50
169.25
 72
1
 73
3
 11
762439.52
 21
4137942.80
 31
0.0
  0
LINE
  8
PG-CO
 10
762438.67
 20
4137942.96
 11
762440.36
 21
4137942.64
  0
TEXT
  8
PG-CO
 10
762444.36
 20
4137941.94
 30
0.0
 40
0.5
  1
5,81
 50
162.79
 72
1
 73
3
 11
762443.36
 21
4137941.73
 31
0.0
  0
LINE
  8
PG-CO
 10
762440.58
 20
4137942.59
 11
762446.13
 21
4137940.87
  0
TEXT
  8
PG-CO
 10
762449.97
 20
4137939.66
 30
0.0
 40
0.5
  1
5,65
 50
155.06
 72
1
 73
3
 11
762448.94
 21
4137939.58
 31
0.0
  0
LINE
  8
PG-CO
 10
762446.38
 20
4137940.77
 11
762451.50
 21
4137938.39
  0
TEXT
  8
PG-CO
 10
762453.46
 20
4137938.26
 30
0.0
 40
0.5
  1
2,40
 50
161.05
 72
1
 73
3
 11
762452.44
 21
4137938.08
 31
0.0
  0
LINE
  8
PG-CO
 10
762451.31
 20
4137938.47
 11
762453.58
 21
4137937.69
  0
TEXT
  8
PG-CO
 10
762453.99
 20
4137931.22
 30
0.0
 40
0.5
  1
6,16
 50
70.95
 72
1
 73
3
 11
762453.82
 21
4137932.24
 31
0.0
  0
LINE
  8
PG-CO
 10
762454.82
 20
4137935.15
 11
762452.81
 21
4137929.33
  0
TEXT
  8
PG-CO
 10
762446.73
 20
4137928.50
 30
0.0
 40
0.5
  1
5,54
 50
345.13
 72
1
 73
3
 11
762447.73
 21
4137928.76
 31
0.0
  0
LINE
  8
PG-CO
 10
762450.41
 20
4137928.05
 11
762445.06
 21
4137929.47
  0
TEXT
  8
PG-CO
 10
762437.32
 20
4137931.61
 30
0.0
 40
0.5
  1
13,47
 50
340.89
 72
1
 73
3
 11
762438.55
 21
4137931.72
 31
0.0
  0
LINE
  8
PG-CO
 10
762444.92
 20
4137929.51
 11
762432.18
 21
4137933.92
  0
TEXT
  8
PG-CO
 10
762431.88
 20
4137940.65
 30
0.0
 40
0.5
  1
6,70
 50
250.75
 72
1
 73
3
 11
762432.06
 21
4137939.63
 31
0.0
  0
LINE
  8
PG-CO
 10
762430.95
 20
4137936.47
 11
762433.16
 21
4137942.80
  0
TEXT
  8
PG-AA
 10
762449.03
 20
4137931.71
 30
0.0
 40
0.5
  1
P
 72
1
 73
3
 11
762449.25
 21
4137932.21
 31
0.0
  0
TEXT
  8
PG-AS
 10
762448.80
 20
4137932.21
 30
0.0
 40
0.5
  1
32
 72
1
 73
1
 11
762449.25
 21
4137932.21
 31
0.0
  0
TEXT
  8
PG-AA
 10
762435.19
 20
4137937.15
 30
0.0
 40
0.5
  1
P
 72
1
 73
3
 11
762435.41
 21
4137937.65
 31
0.0
  0
TEXT
  8
PG-AS
 10
762434.96
 20
4137937.65
 30
0.0
 40
0.5
  1
17
 72
1
 73
1
 11
762435.41
 21
4137937.65
 31
0.0
  0
TEXT
  8
PG-AA
 10
762441.24
 20
4137934.16
 30
0.0
 40
0.5
  1
II
 72
1
 73
3
 11
762441.69
 21
4137934.66
 31
0.0
  0
TEXT
  8
PG-AS
 10
762441.47
 20
4137934.66
 30
0.0
 40
0.5
  1
6
 72
1
 73
1
 11
762441.69
 21
4137934.66
 31
0.0
  0
TEXT
  8
PG-AA
 10
762442.20
 20
4137937.57
 30
0.0
 40
0.5
  1
II
 72
1
 73
3
 11
762442.65
 21
4137938.07
 31
0.0
  0
TEXT
  8
PG-AS
 10
762442.20
 20
4137938.07
 30
0.0
 40
0.5
  1
46
 72
1
 73
1
 11
762442.65
 21
4137938.07
 31
0.0
  0
TEXT
  8
PG-AA
 10
762443.96
 20
4137933.20
 30
0.0
 40
0.5
  1
II
 72
1
 73
3
 11
762444.41
 21
4137933.70
 31
0.0
  0
TEXT
  8
PG-AS
 10
762443.96
 20
4137933.70
 30
0.0
 40
0.5
  1
10
 72
1
 73
1
 11
762444.41
 21
4137933.70
 31
0.0
  0
TEXT
  8
PG-AA
 10
762448.02
 20
4137935.44
 30
0.0
 40
0.5
  1
I
 72
1
 73
3
 11
762448.24
 21
4137935.94
 31
0.0
  0
TEXT
  8
PG-AS
 10
762447.79
 20
4137935.94
 30
0.0
 40
0.5
  1
11
 72
1
 73
1
 11
762448.24
 21
4137935.94
 31
0.0
  0
TEXT
  8
PG-AA
 10
762436.09
 20
4137940.18
 30
0.0
 40
0.5
  1
I
 72
1
 73
3
 11
762436.32
 21
4137940.68
 31
0.0
  0
TEXT
  8
PG-AS
 10
762436.09
 20
4137940.68
 30
0.0
 40
0.5
  1
7
 72
1
 73
1
 11
762436.32
 21
4137940.68
 31
0.0
  0
TEXT
  8
PG-TL
 10
762455.03
 20
4137925.63
 30
0.0
 40
1.0
  1
UR BUS EL, 42
 50
70.95
 72
1
 73
2
 11
762456.46
 21
4137931.32
 31
0.0
  0
POLYLINE
  8
PG-LF
 66
1
  0
VERTEX
  8
PG-LF
 10
762454.65
 20
4137931.95
  0
VERTEX
  8
PG-LF
 10
762454.96
 20
4137931.14
  0
VERTEX
  8
PG-LF
 10
762455.06
 20
4137931.45
  0
VERTEX
  8
PG-LF
 10
762455.59
 20
4137931.27
  0
VERTEX
  8
PG-LF
 10
762455.81
 20
4137931.90
  0
VERTEX
  8
PG-LF
 10
762455.28
 20
4137932.08
  0
VERTEX
  8
PG-LF
 10
762455.39
 20
4137932.40
  0
VERTEX
  8
PG-LF
 10
762454.65
 20
4137931.95
  0
SEQEND
  0
LINE
  8
PS01-LP
 10
762440.25
 20
4137933.23
 11
762436.15
 21
4137934.66
  0
LINE
  8
PS01-LP
 10
762445.38
 20
4137931.46
 11
762442.50
 21
4137932.45
  0
LINE
  8
PS01-LP
 10
762442.50
 20
4137932.45
 11
762442.10
 21
4137932.59
  0
LINE
  8
PS01-LP
 10
762436.15
 20
4137934.66
 11
762432.84
 21
4137935.81
  0
LINE
  8
PS01-LP
 10
762432.84
 20
4137935.81
 11
762434.40
 21
4137940.26
  0
LINE
  8
PS01-LP
 10
762434.40
 20
4137940.26
 11
762435.05
 21
4137942.14
  0
LINE
  8
PS01-LP
 10
762435.05
 20
4137942.14
 11
762438.30
 21
4137941.00
  0
LINE
  8
PS01-LP
 10
762438.30
 20
4137941.00
 11
762438.35
 21
4137940.99
  0
LINE
  8
PS01-LP
 10
762442.10
 20
4137932.59
 11
762440.25
 21
4137933.23
  0
LINE
  8
PS01-LP
 10
762438.35
 20
4137940.99
 11
762439.99
 21
4137940.68
  0
LINE
  8
PS01-LP
 10
762439.99
 20
4137940.68
 11
762445.54
 21
4137938.96
  0
LINE
  8
PS01-LP
 10
762445.54
 20
4137938.96
 11
762450.66
 21
4137936.58
  0
LINE
  8
PS01-LP
 10
762450.66
 20
4137936.58
 11
762452.93
 21
4137935.80
  0
LINE
  8
PS01-LP
 10
762452.93
 20
4137935.80
 11
762450.92
 21
4137929.98
  0
LINE
  8
PS01-LP
 10
762450.92
 20
4137929.98
 11
762445.57
 21
4137931.40
  0
LINE
  8
PS01-LP
 10
762445.57
 20
4137931.40
 11
762445.38
 21
4137931.46
  0
LINE
  8
PS01-LI
 10
762436.15
 20
4137934.66
 11
762437.70
 21
4137939.11
  0
LINE
  8
PS01-LI
 10
762445.38
 20
4137931.46
 11
762446.37
 21
4137934.30
  0
LINE
  8
PS01-LI
 10
762440.25
 20
4137933.23
 11
762441.25
 21
4137936.08
  0
LINE
  8
PS01-LI
 10
762441.25
 20
4137936.08
 11
762443.09
 21
4137935.44
  0
LINE
  8
PS01-LI
 10
762437.70
 20
4137939.11
 11
762434.40
 21
4137940.26
  0
LINE
  8
PS01-LI
 10
762446.37
 20
4137934.30
 11
762443.09
 21
4137935.44
  0
LINE
  8
PS01-LI
 10
762438.32
 20
4137940.90
 11
762438.35
 21
4137940.99
  0
LINE
  8
PS01-LI
 10
762437.70
 20
4137939.11
 11
762438.32
 21
4137940.90
  0
LINE
  8
PS01-LI
 10
762446.37
 20
4137934.30
 11
762448.75
 21
4137933.46
  0
LINE
  8
PS01-LI
 10
762448.75
 20
4137933.46
 11
762449.94
 21
4137936.84
  0
LINE
  8
PS01-LI
 10
762449.94
 20
4137936.84
 11
762447.29
 21
4137937.77
  0
LINE
  8
PS01-LI
 10
762443.09
 20
4137935.44
 11
762442.10
 21
4137932.59
  0
LINE
  8
PS01-LI
 10
762438.32
 20
4137940.90
 11
762447.29
 21
4137937.77
  0
TEXT
  8
PS01-AU
 10
762448.58
 20
4137931.71
 30
0.0
 40
0.5
  1
PTO
 72
1
 73
3
 11
762449.25
 21
4137932.21
 31
0.0
  0
TEXT
  8
PS01-AS
 10
762448.80
 20
4137932.21
 30
0.0
 40
0.5
  1
32
 72
1
 73
1
 11
762449.25
 21
4137932.21
 31
0.0
  0
TEXT
  8
PS01-AU
 10
762434.74
 20
4137937.15
 30
0.0
 40
0.5
  1
PTO
 72
1
 73
3
 11
762435.41
 21
4137937.65
 31
0.0
  0
TEXT
  8
PS01-AS
 10
762434.96
 20
4137937.65
 30
0.0
 40
0.5
  1
17
 72
1
 73
1
 11
762435.41
 21
4137937.65
 31
0.0
  0
TEXT
  8
PS01-AU
 10
762440.34
 20
4137934.16
 30
0.0
 40
0.5
  1
V.02.1
 72
1
 73
3
 11
762441.69
 21
4137934.66
 31
0.0
  0
TEXT
  8
PS01-AS
 10
762441.47
 20
4137934.66
 30
0.0
 40
0.5
  1
6
 72
1
 73
1
 11
762441.69
 21
4137934.66
 31
0.0
  0
TEXT
  8
PS01-AU
 10
762441.06
 20
4137936.16
 30
0.0
 40
0.5
  1
V.01.1
 72
1
 73
3
 11
762442.41
 21
4137936.66
 31
0.0
  0
TEXT
  8
PS01-AS
 10
762441.96
 20
4137936.66
 30
0.0
 40
0.5
  1
57
 72
1
 73
1
 11
762442.41
 21
4137936.66
 31
0.0
  0
TEXT
  8
PS01-AU
 10
762442.61
 20
4137933.20
 30
0.0
 40
0.5
  1
YPO.01.1
 72
1
 73
3
 11
762444.41
 21
4137933.70
 31
0.0
  0
TEXT
  8
PS01-AS
 10
762443.96
 20
4137933.70
 30
0.0
 40
0.5
  1
10
 72
1
 73
1
 11
762444.41
 21
4137933.70
 31
0.0
  0
TEXT
  8
PS01-AU
 10
762434.52
 20
4137940.18
 30
0.0
 40
0.5
  1
AAL.01.1
 72
1
 73
3
 11
762436.32
 21
4137940.68
 31
0.0
  0
TEXT
  8
PS01-AS
 10
762436.09
 20
4137940.68
 30
0.0
 40
0.5
  1
7
 72
1
 73
1
 11
762436.32
 21
4137940.68
 31
0.0
  0
LINE
  8
PS02-LP
 10
762436.15
 20
4137934.66
 11
762438.32
 21
4137940.90
  0
LINE
  8
PS02-LP
 10
762438.32
 20
4137940.90
 11
762447.29
 21
4137937.77
  0
LINE
  8
PS02-LP
 10
762447.29
 20
4137937.77
 11
762446.11
 21
4137934.39
  0
LINE
  8
PS02-LP
 10
762445.38
 20
4137931.46
 11
762446.37
 21
4137934.30
  0
LINE
  8
PS02-LP
 10
762446.37
 20
4137934.30
 11
762446.11
 21
4137934.39
  0
LINE
  8
PS02-LP
 10
762445.38
 20
4137931.46
 11
762442.50
 21
4137932.45
  0
LINE
  8
PS02-LP
 10
762442.50
 20
4137932.45
 11
762440.25
 21
4137933.23
  0
LINE
  8
PS02-LP
 10
762440.25
 20
4137933.23
 11
762436.15
 21
4137934.66
  0
LINE
  8
PS02-LI
 10
762446.11
 20
4137934.39
 11
762441.25
 21
4137936.08
  0
LINE
  8
PS02-LI
 10
762441.25
 20
4137936.08
 11
762440.25
 21
4137933.23
  0
LINE
  8
PS02-LA
 10
762436.15
 20
4137934.66
 11
762432.84
 21
4137935.81
  0
LINE
  8
PS02-LA
 10
762432.84
 20
4137935.81
 11
762435.05
 21
4137942.14
  0
LINE
  8
PS02-LA
 10
762435.05
 20
4137942.14
 11
762438.35
 21
4137940.99
  0
LINE
  8
PS02-LA
 10
762438.35
 20
4137940.99
 11
762439.99
 21
4137940.68
  0
LINE
  8
PS02-LA
 10
762439.99
 20
4137940.68
 11
762445.54
 21
4137938.96
  0
LINE
  8
PS02-LA
 10
762445.54
 20
4137938.96
 11
762450.66
 21
4137936.58
  0
LINE
  8
PS02-LA
 10
762450.66
 20
4137936.58
 11
762452.93
 21
4137935.80
  0
LINE
  8
PS02-LA
 10
762452.93
 20
4137935.80
 11
762450.92
 21
4137929.98
  0
LINE
  8
PS02-LA
 10
762450.92
 20
4137929.98
 11
762445.57
 21
4137931.40
  0
LINE
  8
PS02-LA
 10
762445.57
 20
4137931.40
 11
762445.38
 21
4137931.46
  0
TEXT
  8
PS02-AU
 10
762441.93
 20
4137933.09
 30
0.0
 40
0.5
  1
V.02.1
 72
1
 73
3
 11
762443.28
 21
4137933.59
 31
0.0
  0
TEXT
  8
PS02-AS
 10
762442.83
 20
4137933.59
 30
0.0
 40
0.5
  1
16
 72
1
 73
1
 11
762443.28
 21
4137933.59
 31
0.0
  0
TEXT
  8
PS02-AU
 10
762441.30
 20
4137937.57
 30
0.0
 40
0.5
  1
V.01.1
 72
1
 73
3
 11
762442.65
 21
4137938.07
 31
0.0
  0
TEXT
  8
PS02-AS
 10
762442.20
 20
4137938.07
 30
0.0
 40
0.5
  1
46
 72
1
 73
1
 11
762442.65
 21
4137938.07
 31
0.0
  0
ENDSEC
  0
EOF