999
\"DXF R12 Output\" (www.mydxf.blogspot.com)
 0 
SECTION
 2 
HEADER
 9 
$ACADVER
 1 
AC1009
 9 
$EXTMIN
 10 
 0 
 20 
 0 
 9 
$EXTMAX
 10 
 8.5 
 20 
 11 
 0 
ENDSEC
 0 
SECTION
 2 
ENTITIES
0
LINE
8
Layer 1
10
104.616352
20
251.894761
11
99.350964
21
251.658166
0
LINE
8
Layer 1
10
99.350964
20
251.658166
11
94.283240
21
250.948647
0
LINE
8
Layer 1
10
94.283240
20
250.948647
11
89.413276
21
249.766370
0
LINE
8
Layer 1
10
89.413276
20
249.766370
11
84.741172
21
248.111500
0
LINE
8
Layer 1
10
84.741172
20
248.111500
11
80.267024
21
245.984203
0
LINE
8
Layer 1
10
80.267024
20
245.984203
11
75.990930
21
243.384645
0
LINE
8
Layer 1
10
75.990930
20
243.384645
11
71.912988
21
240.312993
0
LINE
8
Layer 1
10
71.912988
20
240.312993
11
68.033296
21
236.769410
0
LINE
8
Layer 1
10
68.033296
20
236.769410
11
64.489263
21
232.890777
0
LINE
8
Layer 1
10
64.489263
20
232.890777
11
61.418202
21
228.814136
0
LINE
8
Layer 1
10
61.418202
20
228.814136
11
58.819979
21
224.539469
0
LINE
8
Layer 1
10
58.819979
20
224.539469
11
56.694462
21
220.066760
0
LINE
8
Layer 1
10
56.694462
20
220.066760
11
55.041515
21
215.395993
0
LINE
8
Layer 1
10
55.041515
20
215.395993
11
53.861007
21
210.527151
0
LINE
8
Layer 1
10
53.861007
20
210.527151
11
53.152804
21
205.460217
0
LINE
8
Layer 1
10
53.152804
20
205.460217
11
52.916771
21
200.195174
0
LINE
8
Layer 1
10
52.916771
20
200.195174
11
52.916771
21
177.635035
0
LINE
8
Layer 1
10
52.916771
20
177.635035
11
50.790607
21
176.220895
0
LINE
8
Layer 1
10
50.790607
20
176.220895
11
48.723167
21
174.663521
0
LINE
8
Layer 1
10
48.723167
20
174.663521
11
44.767604
21
171.117466
0
LINE
8
Layer 1
10
44.767604
20
171.117466
11
41.769046
21
167.835845
0
LINE
8
Layer 1
10
41.769046
20
167.835845
11
39.170822
21
164.388663
0
LINE
8
Layer 1
10
39.170822
20
164.388663
11
36.972770
21
160.775973
0
LINE
8
Layer 1
10
36.972770
20
160.775973
11
35.174728
21
156.997828
0
LINE
8
Layer 1
10
35.174728
20
156.997828
11
33.776533
21
153.054281
0
LINE
8
Layer 1
10
33.776533
20
153.054281
11
32.778023
21
148.945388
0
LINE
8
Layer 1
10
32.778023
20
148.945388
11
32.179036
21
144.671200
0
LINE
8
Layer 1
10
32.179036
20
144.671200
11
31.979410
21
140.231772
0
LINE
8
Layer 1
10
31.979410
20
140.231772
11
32.093504
21
136.852044
0
LINE
8
Layer 1
10
32.093504
20
136.852044
11
32.435788
21
133.433880
0
LINE
8
Layer 1
10
32.435788
20
133.433880
11
33.006264
21
129.977284
0
LINE
8
Layer 1
10
33.006264
20
129.977284
11
33.804937
21
126.482263
0
LINE
8
Layer 1
10
33.804937
20
126.482263
11
34.831809
21
122.948824
0
LINE
8
Layer 1
10
34.831809
20
122.948824
11
36.086882
21
119.376973
0
LINE
8
Layer 1
10
36.086882
20
119.376973
11
37.570161
21
115.766715
0
LINE
8
Layer 1
10
37.570161
20
115.766715
11
39.281648
21
112.118059
0
LINE
8
Layer 1
10
39.281648
20
112.118059
11
41.221347
21
108.431009
0
LINE
8
Layer 1
10
41.221347
20
108.431009
11
43.389259
21
104.705573
0
LINE
8
Layer 1
10
43.389259
20
104.705573
11
45.785389
21
100.941756
0
LINE
8
Layer 1
10
45.785389
20
100.941756
11
48.409740
21
97.139565
0
LINE
8
Layer 1
10
48.409740
20
97.139565
11
51.262314
21
93.299007
0
LINE
8
Layer 1
10
51.262314
20
93.299007
11
54.343114
21
89.420087
0
LINE
8
Layer 1
10
54.343114
20
89.420087
11
61.189407
21
81.547188
0
LINE
8
Layer 1
10
61.189407
20
81.547188
11
65.733141
21
76.805092
0
LINE
8
Layer 1
10
65.733141
20
76.805092
11
70.446456
21
72.143648
0
LINE
8
Layer 1
10
70.446456
20
72.143648
11
75.329359
21
67.562924
0
LINE
8
Layer 1
10
75.329359
20
67.562924
11
80.381861
21
63.062991
0
LINE
8
Layer 1
10
80.381861
20
63.062991
11
85.603968
21
58.643916
0
LINE
8
Layer 1
10
85.603968
20
58.643916
11
90.995692
21
54.305769
0
LINE
8
Layer 1
10
90.995692
20
54.305769
11
96.557039
21
50.048619
0
LINE
8
Layer 1
10
96.557039
20
50.048619
11
102.288018
21
45.872535
0
LINE
8
Layer 1
10
102.288018
20
45.872535
11
103.644789
21
45.295622
0
LINE
8
Layer 1
10
103.644789
20
45.295622
11
105.127879
21
45.105244
0
LINE
8
Layer 1
10
105.127879
20
45.105244
11
106.419873
21
45.295619
0
LINE
8
Layer 1
10
106.419873
20
45.295619
11
107.711977
21
45.872535
0
LINE
8
Layer 1
10
107.711977
20
45.872535
11
113.442910
21
50.048621
0
LINE
8
Layer 1
10
113.442910
20
50.048621
11
119.004223
21
54.305771
0
LINE
8
Layer 1
10
119.004223
20
54.305771
11
124.395926
21
58.643918
0
LINE
8
Layer 1
10
124.395926
20
58.643918
11
129.618026
21
63.062993
0
LINE
8
Layer 1
10
129.618026
20
63.062993
11
134.670534
21
67.562926
0
LINE
8
Layer 1
10
134.670534
20
67.562926
11
139.553457
21
72.143649
0
LINE
8
Layer 1
10
139.553457
20
72.143649
11
144.266806
21
76.805092
0
LINE
8
Layer 1
10
144.266806
20
76.805092
11
148.810588
21
81.547188
0
LINE
8
Layer 1
10
148.810588
20
81.547188
11
155.656834
21
89.420087
0
LINE
8
Layer 1
10
155.656834
20
89.420087
11
158.737616
21
93.299007
0
LINE
8
Layer 1
10
158.737616
20
93.299007
11
161.590175
21
97.139566
0
LINE
8
Layer 1
10
161.590175
20
97.139566
11
164.214514
21
100.941757
0
LINE
8
Layer 1
10
164.214514
20
100.941757
11
166.610635
21
104.705574
0
LINE
8
Layer 1
10
166.610635
20
104.705574
11
168.778543
21
108.431011
0
LINE
8
Layer 1
10
168.778543
20
108.431011
11
170.718239
21
112.118061
0
LINE
8
Layer 1
10
170.718239
20
112.118061
11
172.429728
21
115.766718
0
LINE
8
Layer 1
10
172.429728
20
115.766718
11
173.913012
21
119.376975
0
LINE
8
Layer 1
10
173.913012
20
119.376975
11
175.168094
21
122.948826
0
LINE
8
Layer 1
10
175.168094
20
122.948826
11
176.194977
21
126.482266
0
LINE
8
Layer 1
10
176.194977
20
126.482266
11
176.993666
21
129.977286
0
LINE
8
Layer 1
10
176.993666
20
129.977286
11
177.564161
21
133.433881
0
LINE
8
Layer 1
10
177.564161
20
133.433881
11
177.906468
21
136.852045
0
LINE
8
Layer 1
10
177.906468
20
136.852045
11
178.020588
21
140.231772
0
LINE
8
Layer 1
10
178.020588
20
140.231772
11
177.820914
21
144.671198
0
LINE
8
Layer 1
10
177.820914
20
144.671198
11
177.221893
21
148.945385
0
LINE
8
Layer 1
10
177.221893
20
148.945385
11
176.223363
21
153.054279
0
LINE
8
Layer 1
10
176.223363
20
153.054279
11
174.825162
21
156.997825
0
LINE
8
Layer 1
10
174.825162
20
156.997825
11
173.027127
21
160.775971
0
LINE
8
Layer 1
10
173.027127
20
160.775971
11
170.829096
21
164.388662
0
LINE
8
Layer 1
10
170.829096
20
164.388662
11
168.230905
21
167.835845
0
LINE
8
Layer 1
10
168.230905
20
167.835845
11
165.232393
21
171.117466
0
LINE
8
Layer 1
10
165.232393
20
171.117466
11
163.107639
21
173.119789
0
LINE
8
Layer 1
10
163.107639
20
173.119789
11
160.910955
21
174.950794
0
LINE
8
Layer 1
10
160.910955
20
174.950794
11
158.643671
21
176.611385
0
LINE
8
Layer 1
10
158.643671
20
176.611385
11
156.307115
21
178.102466
0
LINE
8
Layer 1
10
156.307115
20
178.102466
11
156.307115
21
200.195174
0
LINE
8
Layer 1
10
156.307115
20
200.195174
11
156.070927
21
205.460217
0
LINE
8
Layer 1
10
156.070927
20
205.460217
11
155.362426
21
210.527151
0
LINE
8
Layer 1
10
155.362426
20
210.527151
11
154.181573
21
215.395993
0
LINE
8
Layer 1
10
154.181573
20
215.395993
11
152.528326
21
220.066760
0
LINE
8
Layer 1
10
152.528326
20
220.066760
11
150.402645
21
224.539469
0
LINE
8
Layer 1
10
150.402645
20
224.539469
11
147.804489
21
228.814136
0
LINE
8
Layer 1
10
147.804489
20
228.814136
11
144.733817
21
232.890777
0
LINE
8
Layer 1
10
144.733817
20
232.890777
11
141.190588
21
236.769410
0
LINE
8
Layer 1
10
141.190588
20
236.769410
11
137.311981
21
240.312993
0
LINE
8
Layer 1
10
137.311981
20
240.312993
11
133.235358
21
243.384645
0
LINE
8
Layer 1
10
133.235358
20
243.384645
11
128.960702
21
245.984203
0
LINE
8
Layer 1
10
128.960702
20
245.984203
11
124.487997
21
248.111500
0
LINE
8
Layer 1
10
124.487997
20
248.111500
11
119.817225
21
249.766370
0
LINE
8
Layer 1
10
119.817225
20
249.766370
11
114.948372
21
250.948647
0
LINE
8
Layer 1
10
114.948372
20
250.948647
11
109.881419
21
251.658166
0
LINE
8
Layer 1
10
109.881419
20
251.658166
11
104.616352
21
251.894761
0
LINE
8
Layer 1
10
104.616352
20
251.894761
11
104.616352
21
251.894761
0
LINE
8
Layer 1
10
104.616352
20
240.773438
11
108.740116
21
240.587596
0
LINE
8
Layer 1
10
108.740116
20
240.587596
11
112.710258
21
240.030228
0
LINE
8
Layer 1
10
112.710258
20
240.030228
11
116.526794
21
239.101348
0
LINE
8
Layer 1
10
116.526794
20
239.101348
11
120.189742
21
237.800972
0
LINE
8
Layer 1
10
120.189742
20
237.800972
11
123.699120
21
236.129116
0
LINE
8
Layer 1
10
123.699120
20
236.129116
11
127.054944
21
234.085796
0
LINE
8
Layer 1
10
127.054944
20
234.085796
11
130.257233
21
231.671028
0
LINE
8
Layer 1
10
130.257233
20
231.671028
11
133.306004
21
228.884827
0
LINE
8
Layer 1
10
133.306004
20
228.884827
11
136.092232
21
225.836029
0
LINE
8
Layer 1
10
136.092232
20
225.836029
11
138.507019
21
222.633721
0
LINE
8
Layer 1
10
138.507019
20
222.633721
11
140.550350
21
219.277886
0
LINE
8
Layer 1
10
140.550350
20
219.277886
11
142.222209
21
215.768505
0
LINE
8
Layer 1
10
142.222209
20
215.768505
11
143.522581
21
212.105561
0
LINE
8
Layer 1
10
143.522581
20
212.105561
11
144.451450
21
208.289036
0
LINE
8
Layer 1
10
144.451450
20
208.289036
11
145.008800
21
204.318913
0
LINE
8
Layer 1
10
145.008800
20
204.318913
11
145.194615
21
200.195174
0
LINE
8
Layer 1
10
145.194615
20
200.195174
11
145.194615
21
182.644480
0
LINE
8
Layer 1
10
145.194615
20
182.644480
11
142.578861
21
183.197250
0
LINE
8
Layer 1
10
142.578861
20
183.197250
11
139.897237
21
183.591246
0
LINE
8
Layer 1
10
139.897237
20
183.591246
11
137.150119
21
183.827154
0
LINE
8
Layer 1
10
137.150119
20
183.827154
11
134.337879
21
183.905660
0
LINE
8
Layer 1
10
134.337879
20
183.905660
11
131.771671
21
183.680676
0
LINE
8
Layer 1
10
131.771671
20
183.680676
11
128.979379
21
183.005211
0
LINE
8
Layer 1
10
128.979379
20
183.005211
11
125.960330
21
181.878182
0
LINE
8
Layer 1
10
125.960330
20
181.878182
11
122.713852
21
180.298508
0
LINE
8
Layer 1
10
122.713852
20
180.298508
11
112.368643
21
174.089619
0
LINE
8
Layer 1
10
112.368643
20
174.089619
11
110.591391
21
172.669059
0
LINE
8
Layer 1
10
110.591391
20
172.669059
11
108.364615
21
170.473647
0
LINE
8
Layer 1
10
108.364615
20
170.473647
11
106.263330
21
168.535635
0
LINE
8
Layer 1
10
106.263330
20
168.535635
11
105.478421
21
168.051043
0
LINE
8
Layer 1
10
105.478421
20
168.051043
11
104.872115
21
167.889549
0
LINE
8
Layer 1
10
104.872115
20
167.889549
11
104.385526
21
168.051044
0
LINE
8
Layer 1
10
104.385526
20
168.051044
11
103.706373
21
168.535637
0
LINE
8
Layer 1
10
103.706373
20
168.535637
11
101.767671
21
170.473647
0
LINE
8
Layer 1
10
101.767671
20
170.473647
11
99.569300
21
172.669059
0
LINE
8
Layer 1
10
99.569300
20
172.669059
11
97.631352
21
174.089619
0
LINE
8
Layer 1
10
97.631352
20
174.089619
11
87.286143
21
180.298508
0
LINE
8
Layer 1
10
87.286143
20
180.298508
11
84.137201
21
181.878181
0
LINE
8
Layer 1
10
84.137201
20
181.878181
11
81.150664
21
183.005210
0
LINE
8
Layer 1
10
81.150664
20
183.005210
11
78.325859
21
183.680675
0
LINE
8
Layer 1
10
78.325859
20
183.680675
11
75.662115
21
183.905660
0
LINE
8
Layer 1
10
75.662115
20
183.905660
11
72.640407
21
183.814026
0
LINE
8
Layer 1
10
72.640407
20
183.814026
11
69.694177
21
183.539337
0
LINE
8
Layer 1
10
69.694177
20
183.539337
11
66.823704
21
183.081802
0
LINE
8
Layer 1
10
66.823704
20
183.081802
11
64.029268
21
182.441633
0
LINE
8
Layer 1
10
64.029268
20
182.441633
11
64.029268
21
200.195174
0
LINE
8
Layer 1
10
64.029268
20
200.195174
11
64.214927
21
204.318913
0
LINE
8
Layer 1
10
64.214927
20
204.318913
11
64.771980
21
208.289036
0
LINE
8
Layer 1
10
64.771980
20
208.289036
11
65.700505
21
212.105561
0
LINE
8
Layer 1
10
65.700505
20
212.105561
11
67.000577
21
215.768505
0
LINE
8
Layer 1
10
67.000577
20
215.768505
11
68.672274
21
219.277886
0
LINE
8
Layer 1
10
68.672274
20
219.277886
11
70.715672
21
222.633721
0
LINE
8
Layer 1
10
70.715672
20
222.633721
11
73.130848
21
225.836029
0
LINE
8
Layer 1
10
73.130848
20
225.836029
11
75.917879
21
228.884827
0
LINE
8
Layer 1
10
75.917879
20
228.884827
11
78.967737
21
231.671028
0
LINE
8
Layer 1
10
78.967737
20
231.671028
11
82.171346
21
234.085797
0
LINE
8
Layer 1
10
82.171346
20
234.085797
11
85.528608
21
236.129117
0
LINE
8
Layer 1
10
85.528608
20
236.129117
11
89.039428
21
237.800973
0
LINE
8
Layer 1
10
89.039428
20
237.800973
11
92.703708
21
239.101349
0
LINE
8
Layer 1
10
92.703708
20
239.101349
11
96.521354
21
240.030229
0
LINE
8
Layer 1
10
96.521354
20
240.030229
11
100.492267
21
240.587597
0
LINE
8
Layer 1
10
100.492267
20
240.587597
11
104.616352
21
240.773438
0
LINE
8
Layer 1
10
104.616352
20
240.773438
11
104.616352
21
240.773438
0
LINE
8
Layer 1
10
105.127879
20
140.372883
11
106.870161
21
140.211267
0
LINE
8
Layer 1
10
106.870161
20
140.211267
11
108.484232
21
139.726634
0
LINE
8
Layer 1
10
108.484232
20
139.726634
11
109.970144
21
138.919101
0
LINE
8
Layer 1
10
109.970144
20
138.919101
11
111.327949
21
137.788785
0
LINE
8
Layer 1
10
111.327949
20
137.788785
11
112.460760
21
136.432825
0
LINE
8
Layer 1
10
112.460760
20
136.432825
11
113.271202
21
134.948020
0
LINE
8
Layer 1
10
113.271202
20
134.948020
11
113.758247
21
133.333581
0
LINE
8
Layer 1
10
113.758247
20
133.333581
11
113.920865
21
131.588716
0
LINE
8
Layer 1
10
113.920865
20
131.588716
11
113.848012
21
130.337347
0
LINE
8
Layer 1
10
113.848012
20
130.337347
11
113.629548
21
129.166743
0
LINE
8
Layer 1
10
113.629548
20
129.166743
11
113.265532
21
128.076853
0
LINE
8
Layer 1
10
113.265532
20
128.076853
11
112.756023
21
127.067629
0
LINE
8
Layer 1
10
112.756023
20
127.067629
11
112.101076
21
126.139023
0
LINE
8
Layer 1
10
112.101076
20
126.139023
11
111.300752
21
125.290986
0
LINE
8
Layer 1
10
111.300752
20
125.290986
11
109.264199
21
123.836424
0
LINE
8
Layer 1
10
109.264199
20
123.836424
11
112.104060
21
100.059202
0
LINE
8
Layer 1
10
112.104060
20
100.059202
11
97.887115
21
100.059202
0
LINE
8
Layer 1
10
97.887115
20
100.059202
11
100.991560
21
123.836424
0
LINE
8
Layer 1
10
100.991560
20
123.836424
11
99.841297
21
124.523472
0
LINE
8
Layer 1
10
99.841297
20
124.523472
11
98.843965
21
125.290989
0
LINE
8
Layer 1
10
98.843965
20
125.290989
11
97.999699
21
126.139026
0
LINE
8
Layer 1
10
97.999699
20
126.139026
11
97.308637
21
127.067630
0
LINE
8
Layer 1
10
97.308637
20
127.067630
11
96.770913
21
128.076852
0
LINE
8
Layer 1
10
96.770913
20
128.076852
11
96.386663
21
129.166741
0
LINE
8
Layer 1
10
96.386663
20
129.166741
11
96.156023
21
130.337346
0
LINE
8
Layer 1
10
96.156023
20
130.337346
11
96.079129
21
131.588716
0
LINE
8
Layer 1
10
96.079129
20
131.588716
11
96.249125
21
133.333582
0
LINE
8
Layer 1
10
96.249125
20
133.333582
11
96.758865
21
134.948020
0
LINE
8
Layer 1
10
96.758865
20
134.948020
11
97.607835
21
136.432823
0
LINE
8
Layer 1
10
97.607835
20
136.432823
11
98.795518
21
137.788785
0
LINE
8
Layer 1
10
98.795518
20
137.788785
11
100.208671
21
138.919103
0
LINE
8
Layer 1
10
100.208671
20
138.919103
11
101.734854
21
139.726634
0
LINE
8
Layer 1
10
101.734854
20
139.726634
11
103.374459
21
140.211266
0
LINE
8
Layer 1
10
103.374459
20
140.211266
11
105.127879
21
140.372883
0
LINE
8
Layer 1
10
105.127879
20
140.372883
11
105.127879
21
140.372883
 0 
ENDSEC
 0 
EOF
