  0
SECTION
  2
HEADER
  9
$ACADVER
  1
AC1015
  9
$ACADMAINTVER
 70
     6
  9
$DWGCODEPAGE
  3
ANSI_1252
  9
$INSBASE
 10
0.0
 20
0.0
 30
0.0
  9
$EXTMIN
 10
-1.438099
 20
88.816116
 30
0.0
  9
$EXTMAX
 10
1.438096
 20
98.593307
 30
0.0
  9
$LIMMIN
 10
-36.527748
 20
51.204712
  9
$LIMMAX
 10
36.527744
 20
299.545685
  9
$ORTHOMODE
 70
     0
  9
$REGENMODE
 70
     1
  9
$FILLMODE
 70
     1
  9
$QTEXTMODE
 70
     0
  9
$MIRRTEXT
 70
     1
  9
$LTSCALE
 40
1.0
  9
$ATTMODE
 70
     1
  9
$TEXTSIZE
 40
0.2
  9
$TRACEWID
 40
0.05
  9
$TEXTSTYLE
  7
STANDARD
  9
$CLAYER
  8
0
  9
$CELTYPE
  6
Continuous
  9
$CECOLOR
 62
   256
  9
$CELTSCALE
 40
1.0
  9
$DISPSILH
 70
     0
  9
$DIMSCALE
 40
1.0
  9
$DIMASZ
 40
0.18
  9
$DIMEXO
 40
0.0625
  9
$DIMDLI
 40
0.38
  9
$DIMRND
 40
0.0
  9
$DIMDLE
 40
0.0
  9
$DIMEXE
 40
0.18
  9
$DIMTP
 40
0.0
  9
$DIMTM
 40
0.0
  9
$DIMTXT
 40
0.18
  9
$DIMCEN
 40
0.09
  9
$DIMTSZ
 40
0.0
  9
$DIMTOL
 70
     0
  9
$DIMLIM
 70
     0
  9
$DIMTIH
 70
     1
  9
$DIMTOH
 70
     1
  9
$DIMSE1
 70
     0
  9
$DIMSE2
 70
     0
  9
$DIMTAD
 70
     0
  9
$DIMZIN
 70
     0
  9
$DIMBLK
  1

  9
$DIMASO
 70
     0
  9
$DIMSHO
 70
     1
  9
$DIMPOST
  1
<>
  9
$DIMAPOST
  1
<>
  9
$DIMALT
 70
     0
  9
$DIMALTD
 70
     2
  9
$DIMALTF
 40
25.4
  9
$DIMLFAC
 40
1.0
  9
$DIMTOFL
 70
     0
  9
$DIMTVP
 40
0.0
  9
$DIMTIX
 70
     0
  9
$DIMSOXD
 70
     0
  9
$DIMSAH
 70
     0
  9
$DIMBLK1
  1

  9
$DIMBLK2
  1

  9
$DIMSTYLE
  2
STANDARD
  9
$DIMCLRD
 70
     0
  9
$DIMCLRE
 70
     0
  9
$DIMCLRT
 70
     0
  9
$DIMTFAC
 40
1.0
  9
$DIMGAP
 40
0.09
  9
$DIMJUST
 70
     0
  9
$DIMSD1
 70
     0
  9
$DIMSD2
 70
     0
  9
$DIMTOLJ
 70
     1
  9
$DIMTZIN
 70
     0
  9
$DIMALTZ
 70
     0
  9
$DIMALTTZ
 70
     0
  9
$DIMUPT
 70
     0
  9
$DIMDEC
 70
     4
  9
$DIMTDEC
 70
     4
  9
$DIMALTU
 70
     2
  9
$DIMALTTD
 70
     2
  9
$DIMTXSTY
  7
STANDARD
  9
$DIMAUNIT
 70
     0
  9
$DIMADEC
 70
     4
  9
$DIMALTRND
 40
0.0
  9
$DIMAZIN
 70
     0
  9
$DIMDSEP
 70
     0
  9
$DIMATFIT
 70
     0
  9
$DIMFRAC
 70
     0
  9
$DIMLDRBLK
  1

  9
$DIMLUNIT
 70
     2
  9
$DIMLWD
 70
     0
  9
$DIMLWE
 70
     0
  9
$DIMTMOVE
 70
     0
  9
$LUNITS
 70
     2
  9
$LUPREC
 70
     4
  9
$SKETCHINC
 40
0.1
  9
$FILLETRAD
 40
0.0
  9
$AUNITS
 70
     0
  9
$AUPREC
 70
     0
  9
$MENU
  1
acad
  9
$ELEVATION
 40
0.0
  9
$PELEVATION
 40
0.0
  9
$THICKNESS
 40
0.0
  9
$LIMCHECK
 70
     0
  9
$CHAMFERA
 40
0.0
  9
$CHAMFERB
 40
0.0
  9
$CHAMFERC
 40
0.0
  9
$CHAMFERD
 40
0.0
  9
$SKPOLY
 70
     0
  9
$TDCREATE
 40
0.000000000
  9
$TDUCREATE
 40
0.000000000
  9
$TDUPDATE
 40
0.000000000
  9
$TDUUPDATE
 40
0.000000000
  9
$TDINDWG
 40
0.0000000000
  9
$TDUSRTIMER
 40
0.0000000000
  9
$USRTIMER
 70
     1
  9
$ANGBASE
 50
0.0
  9
$ANGDIR
 70
     0
  9
$PDMODE
 70
     0
  9
$PDSIZE
 40
0.0
  9
$PLINEWID
 40
0.0
  9
$SPLFRAME
 70
     0
  9
$SPLINETYPE
 70
     6
  9
$SPLINESEGS
 70
     8
  9
$HANDSEED
  5
1A5
  9
$SURFTAB1
 70
     6
  9
$SURFTAB2
 70
     6
  9
$SURFTYPE
 70
     6
  9
$SURFU
 70
     6
  9
$SURFV
 70
     6
  9
$UCSBASE
  2

  9
$UCSNAME
  2

  9
$UCSORG
 10
0.0
 20
0.0
 30
0.0
  9
$UCSXDIR
 10
1.0
 20
0.0
 30
0.0
  9
$UCSYDIR
 10
0.0
 20
1.0
 30
0.0
  9
$UCSORTHOREF
  2

  9
$UCSORTHOVIEW
 70
     0
  9
$UCSORGTOP
 10
0.0
 20
0.0
 30
0.0
  9
$UCSORGBOTTOM
 10
0.0
 20
0.0
 30
0.0
  9
$UCSORGLEFT
 10
0.0
 20
0.0
 30
0.0
  9
$UCSORGRIGHT
 10
0.0
 20
0.0
 30
0.0
  9
$UCSORGFRONT
 10
0.0
 20
0.0
 30
0.0
  9
$UCSORGBACK
 10
0.0
 20
0.0
 30
0.0
  9
$PUCSBASE
  2

  9
$PUCSNAME
  2

  9
$PUCSORG
 10
0.0
 20
0.0
 30
0.0
  9
$PUCSXDIR
 10
1.0
 20
0.0
 30
0.0
  9
$PUCSYDIR
 10
0.0
 20
1.0
 30
0.0
  9
$PUCSORTHOREF
  2

  9
$PUCSORTHOVIEW
 70
     0
  9
$PUCSORGTOP
 10
0.0
 20
0.0
 30
0.0
  9
$PUCSORGBOTTOM
 10
0.0
 20
0.0
 30
0.0
  9
$PUCSORGLEFT
 10
0.0
 20
0.0
 30
0.0
  9
$PUCSORGRIGHT
 10
0.0
 20
0.0
 30
0.0
  9
$PUCSORGFRONT
 10
0.0
 20
0.0
 30
0.0
  9
$PUCSORGBACK
 10
0.0
 20
0.0
 30
0.0
  9
$USERI1
 70
     0
  9
$USERI2
 70
     0
  9
$USERI3
 70
     0
  9
$USERI4
 70
     0
  9
$USERI5
 70
     0
  9
$USERR1
 40
0.0
  9
$USERR2
 40
0.0
  9
$USERR3
 40
0.0
  9
$USERR4
 40
0.0
  9
$USERR5
 40
0.0
  9
$WORLDVIEW
 70
     1
  9
$SHADEDGE
 70
     3
  9
$SHADEDIF
 70
    70
  9
$TILEMODE
 70
     1
  9
$MAXACTVP
 70
    16
  9
$PINSBASE
 10
0.0
 20
0.0
 30
0.0
  9
$PLIMCHECK
 70
     0
  9
$PEXTMIN
 10
0.0
 20
0.0
 30
0.0
  9
$PEXTMAX
 10
0.0
 20
0.0
 30
0.0
  9
$PLIMMIN
 10
0.0
 20
0.0
  9
$PLIMMAX
 10
0.0
 20
0.0
  9
$UNITMODE
 70
     0
  9
$VISRETAIN
 70
     0
  9
$PLINEGEN
 70
     1
  9
$PSLTSCALE
 70
     0
  9
$TREEDEPTH
 70
  3020
  9
$CMLSTYLE
  2
STANDARD
  9
$CMLJUST
 70
     0
  9
$CMLSCALE
 40
1.0
  9
$PROXYGRAPHICS
 70
     0
  9
$MEASUREMENT
 70
     0
  9
$CELWEIGHT
370
     0
  9
$ENDCAPS
280
     0
  9
$JOINSTYLE
280
     0
  9
$LWDISPLAY
290
     0
  9
$INSUNITS
 70
     0
  9
$HYPERLINKBASE
  1

  9
$XEDIT
290
     1
  9
$CEPSNTYPE
380
     0
  9
$PSTYLEMODE
290
     1
  9
$FINGERPRINTGUID
  2

  9
$VERSIONGUID
  2

  9
$EXTNAMES
290
     1
  9
$PSVPSCALE
 40
0.0
  0
ENDSEC
  0
SECTION
  2
CLASSES
  0
CLASS
  1
LWPOLYLINE
  2
AcDbPolyline
  3
AutoCAD 2000
 90
    32768
280
     0
281
     1
  0
CLASS
  1
IMAGE
  2
AcDbRasterImage
  3
ISM
 90
    32895
280
     0
281
     1
  0
CLASS
  1
OLE2FRAME
  2
AcDbOle2Frame
  3
AutoCAD 2000
 90
    32768
280
     0
281
     1
  0
CLASS
  1
HATCH
  2
AcDbHatch
  3
AutoCAD 2000
 90
    32768
280
     0
281
     1
  0
CLASS
  1
DICTIONARYVAR
  2
AcDbDictionaryVar
  3
AutoCAD 2000
 90
    32768
280
     0
281
     0
  0
CLASS
  1
RASTERVARIABLES
  2
AcDbRasterVariables
  3
ISM
 90
    32768
280
     0
281
     0
  0
CLASS
  1
IMAGEDEF
  2
AcDbRasterImageDef
  3
ISM
 90
    32768
280
     0
281
     0
  0
CLASS
  1
IMAGEDEF_REACTOR
  2
AcDbRasterImageDefReactor
  3
ISM
 90
    32769
280
     0
281
     0
  0
CLASS
  1
IDBUFFER
  2
AcDbIdBuffer
  3
AutoCAD 2000
 90
    32768
280
     0
281
     0
  0
CLASS
  1
SPATIAL_FILTER
  2
AcDbSpatialFilter
  3
AutoCAD 2000
 90
    32768
280
     0
281
     0
  0
CLASS
  1
XRECORD
  2
AcDbXrecord
  3
AutoCAD 2000
 90
    32768
280
     0
281
     0
  0
CLASS
  1
SORTENTSTABLE
  2
AcDbSortentsTable
  3
AutoCAD 2000
 90
    32768
280
     0
281
     0
  0
CLASS
  1
LAYER_INDEX
  2
AcDbLayerIndex
  3
AutoCAD 2000
 90
    32768
280
     0
281
     0
  0
CLASS
  1
SPATIAL_INDEX
  2
AcDbSpatialIndex
  3
AutoCAD 2000
 90
    32768
280
     0
281
     0
  0
CLASS
  1
OBJECT_PTR
  2
CAseDLPNTableRecord
  3
\"ASE-LPNTableRecord\"
 90
    32769
280
     0
281
     0
  0
CLASS
  1
LAYOUT
  2
AcDbLayout
  3
AutoCAD 2000
 90
        0
280
     0
281
     0
  0
CLASS
  1
PLOTSETTINGS
  2
AcDbPlotSettings
  3
AutoCAD 2000
 90
    32768
280
     0
281
     0
  0
CLASS
  1
ACDBDICTIONARYWDFLT
  2
AcDbDictionaryWithDefault
  3
AutoCAD 2000
 90
        0
280
     0
281
     0
  0
CLASS
  1
ACDBPLACEHOLDER
  2
AcDbPlaceHolder
  3
AutoCAD 2000
 90
        0
280
     0
281
     0
  0
ENDSEC
  0
SECTION
  2
TABLES
  0
TABLE
  2
VPORT
  5
7
100
AcDbSymbolTable
 70
     1
  0
VPORT
  5
15
100
AcDbSymbolTableRecord
100
AcDbViewportTableRecord
  2
*ACTIVE
 70
     0
 10
0.0
 20
0.0
 11
1.0
 21
1.0
 12
0.0
 22
0.0
 13
0.0
 23
0.0
 14
0.0
 24
0.0
 15
0.0
 25
0.0
 16
0.0
 26
0.0
 36
1.0
 17
0.14657
 27
98.151191
 37
1.0
 40
0.57605
 41
1.416268
 42
50.0
 43
0.0
 44
0.0
 50
0.0
 51
0.0
 71
     0
 72
   100
 73
     1
 74
     1
 75
     0
 76
     0
 77
     0
 78
     0
281
     0
 65
     0
110
0.0
120
0.0
130
0.0
111
1.0
121
0.0
131
0.0
112
0.0
122
1.0
132
0.0
345
0
346
0
 79
     0
146
0.0
  0
ENDTAB
  0
TABLE
  2
LTYPE
  5
4
100
AcDbSymbolTable
 70
    15
  0
LTYPE
  5
11
100
AcDbSymbolTableRecord
100
AcDbLinetypeTableRecord
  2
ByBlock
 70
    64
  3

 72
    65
 73
     0
 40
0.0
  0
LTYPE
  5
12
100
AcDbSymbolTableRecord
100
AcDbLinetypeTableRecord
  2
ByLayer
 70
    64
  3

 72
    65
 73
     0
 40
0.0
  0
LTYPE
  5
13
100
AcDbSymbolTableRecord
100
AcDbLinetypeTableRecord
  2
Continuous
 70
    64
  3
Solid line
 72
    65
 73
     0
 40
0.0
  0
LTYPE
  5
24
100
AcDbSymbolTableRecord
100
AcDbLinetypeTableRecord
  2
BORDER
 70
     0
  3
BORDER
 72
    65
 73
     6
 40
1.75
 49
0.5
 74
     0
 49
-0.25
 74
     0
 49
0.5
 74
     0
 49
-0.25
 74
     0
 49
0.0
 74
     0
 49
-0.25
 74
     0
  0
LTYPE
  5
25
100
AcDbSymbolTableRecord
100
AcDbLinetypeTableRecord
  2
CENTER
 70
     0
  3
CENTER
 72
    65
 73
     4
 40
2.0
 49
1.25
 74
     0
 49
-0.25
 74
     0
 49
0.25
 74
     0
 49
-0.25
 74
     0
  0
LTYPE
  5
26
100
AcDbSymbolTableRecord
100
AcDbLinetypeTableRecord
  2
DASHDOT
 70
     0
  3
DASHDOT
 72
    65
 73
     4
 40
1.0
 49
0.5
 74
     0
 49
-0.25
 74
     0
 49
0.0
 74
     0
 49
-0.25
 74
     0
  0
LTYPE
  5
27
100
AcDbSymbolTableRecord
100
AcDbLinetypeTableRecord
  2
DASHED
 70
     0
  3
DASHED
 72
    65
 73
     2
 40
0.75
 49
0.5
 74
     0
 49
-0.25
 74
     0
  0
LTYPE
  5
28
100
AcDbSymbolTableRecord
100
AcDbLinetypeTableRecord
  2
DIVIDE
 70
     0
  3
DIVIDE
 72
    65
 73
     6
 40
1.25
 49
0.5
 74
     0
 49
-0.25
 74
     0
 49
0.0
 74
     0
 49
-0.25
 74
     0
 49
0.0
 74
     0
 49
-0.25
 74
     0
  0
LTYPE
  5
29
100
AcDbSymbolTableRecord
100
AcDbLinetypeTableRecord
  2
DOT
 70
     0
  3
DOT
 72
    65
 73
     2
 40
0.25
 49
0.0
 74
     0
 49
-0.25
 74
     0
  0
LTYPE
  5
2A
100
AcDbSymbolTableRecord
100
AcDbLinetypeTableRecord
  2
HIDDEN
 70
     0
  3
HIDDEN
 72
    65
 73
     2
 40
0.375
 49
0.25
 74
     0
 49
-0.125
 74
     0
  0
LTYPE
  5
2B
100
AcDbSymbolTableRecord
100
AcDbLinetypeTableRecord
  2
PHANTOM
 70
     0
  3
PHANTOM
 72
    65
 73
     6
 40
2.5
 49
1.25
 74
     0
 49
-0.25
 74
     0
 49
0.25
 74
     0
 49
-0.25
 74
     0
 49
0.25
 74
     0
 49
-0.25
 74
     0
  0
LTYPE
  5
2C
100
AcDbSymbolTableRecord
100
AcDbLinetypeTableRecord
  2
$INVISIBLE
 70
     0
  3
$INVISIBLE
 72
    65
 73
     2
 40
200.0
 49
-100.0
 74
     0
 49
-100.0
 74
     0
  0
LTYPE
  5
2D
100
AcDbSymbolTableRecord
100
AcDbLinetypeTableRecord
  2
CENTRE
 70
     0
  3
CENTRE
 72
    65
 73
     4
 40
2.0
 49
1.25
 74
     0
 49
-0.25
 74
     0
 49
0.25
 74
     0
 49
-0.25
 74
     0
  0
LTYPE
  5
2E
100
AcDbSymbolTableRecord
100
AcDbLinetypeTableRecord
  2
$SNAPEXT
 70
     0
  3
$SNAPEXT
 72
    65
 73
     2
 40
0.04
 49
0.02
 74
     0
 49
-0.02
 74
     0
  0
LTYPE
  5
2F
100
AcDbSymbolTableRecord
100
AcDbLinetypeTableRecord
  2
$AUXILIARY
 70
     0
  3
$AUXILIARY
 72
    65
 73
     2
 40
0.1
 49
0.05
 74
     0
 49
-0.05
 74
     0
  0
ENDTAB
  0
TABLE
  2
LAYER
  5
2
100
AcDbSymbolTable
 70
    18
  0
LAYER
  5
14
100
AcDbSymbolTableRecord
100
AcDbLayerTableRecord
  2
0
 70
     0
 62
     7
  6
Continuous
290
     1
370
    -3
390
0
1001
TCAD
1000
TCW_LAYER_ORDER
1002
{
1071
        0
1002
}
  0
LAYER
  5
30
100
AcDbSymbolTableRecord
100
AcDbLayerTableRecord
  2
BLACK
 70
     0
 62
     7
  6
Continuous
290
     1
370
    -3
390
0
1001
TCAD
1000
TCW_LAYER_ORDER
1002
{
1071
        0
1002
}
  0
LAYER
  5
31
100
AcDbSymbolTableRecord
100
AcDbLayerTableRecord
  2
DARK_BLUE
 70
     0
 62
   172
  6
Continuous
290
     1
370
    -3
390
0
1001
TCAD
1000
TCW_LAYER_ORDER
1002
{
1071
        0
1002
}
  0
LAYER
  5
32
100
AcDbSymbolTableRecord
100
AcDbLayerTableRecord
  2
DARK_GREEN
 70
     0
 62
    92
  6
Continuous
290
     1
370
    -3
390
0
1001
TCAD
1000
TCW_LAYER_ORDER
1002
{
1071
        0
1002
}
  0
LAYER
  5
33
100
AcDbSymbolTableRecord
100
AcDbLayerTableRecord
  2
DARK_CYAN
 70
     0
 62
   132
  6
Continuous
290
     1
370
    -3
390
0
1001
TCAD
1000
TCW_LAYER_ORDER
1002
{
1071
        0
1002
}
  0
LAYER
  5
34
100
AcDbSymbolTableRecord
100
AcDbLayerTableRecord
  2
DARK_RED
 70
     0
 62
    12
  6
Continuous
290
     1
370
    -3
390
0
1001
TCAD
1000
TCW_LAYER_ORDER
1002
{
1071
        0
1002
}
  0
LAYER
  5
35
100
AcDbSymbolTableRecord
100
AcDbLayerTableRecord
  2
DARK_MAGENTA
 70
     0
 62
   212
  6
Continuous
290
     1
370
    -3
390
0
1001
TCAD
1000
TCW_LAYER_ORDER
1002
{
1071
        0
1002
}
  0
LAYER
  5
36
100
AcDbSymbolTableRecord
100
AcDbLayerTableRecord
  2
BROWN
 70
     0
 62
    32
  6
Continuous
290
     1
370
    -3
390
0
1001
TCAD
1000
TCW_LAYER_ORDER
1002
{
1071
        0
1002
}
  0
LAYER
  5
37
100
AcDbSymbolTableRecord
100
AcDbLayerTableRecord
  2
LIGHT_GREY
 70
     0
 62
     9
  6
Continuous
290
     1
370
    -3
390
0
1001
TCAD
1000
TCW_LAYER_ORDER
1002
{
1071
        0
1002
}
  0
LAYER
  5
38
100
AcDbSymbolTableRecord
100
AcDbLayerTableRecord
  2
DARK_GREY
 70
     0
 62
     8
  6
Continuous
290
     1
370
    -3
390
0
1001
TCAD
1000
TCW_LAYER_ORDER
1002
{
1071
        0
1002
}
  0
LAYER
  5
39
100
AcDbSymbolTableRecord
100
AcDbLayerTableRecord
  2
BLUE
 70
     0
 62
     5
  6
Continuous
290
     1
370
    -3
390
0
1001
TCAD
1000
TCW_LAYER_ORDER
1002
{
1071
        0
1002
}
  0
LAYER
  5
3A
100
AcDbSymbolTableRecord
100
AcDbLayerTableRecord
  2
GREEN
 70
     0
 62
     3
  6
Continuous
290
     1
370
    -3
390
0
1001
TCAD
1000
TCW_LAYER_ORDER
1002
{
1071
        0
1002
}
  0
LAYER
  5
3B
100
AcDbSymbolTableRecord
100
AcDbLayerTableRecord
  2
CYAN
 70
     0
 62
     4
  6
Continuous
290
     1
370
    -3
390
0
1001
TCAD
1000
TCW_LAYER_ORDER
1002
{
1071
        0
1002
}
  0
LAYER
  5
3C
100
AcDbSymbolTableRecord
100
AcDbLayerTableRecord
  2
RED
 70
     0
 62
     1
  6
Continuous
290
     1
370
    -3
390
0
1001
TCAD
1000
TCW_LAYER_ORDER
1002
{
1071
        0
1002
}
  0
LAYER
  5
3D
100
AcDbSymbolTableRecord
100
AcDbLayerTableRecord
  2
MAGENTA
 70
     0
 62
     6
  6
Continuous
290
     1
370
    -3
390
0
1001
TCAD
1000
TCW_LAYER_ORDER
1002
{
1071
        0
1002
}
  0
LAYER
  5
3E
100
AcDbSymbolTableRecord
100
AcDbLayerTableRecord
  2
YELLOW
 70
     0
 62
     2
  6
Continuous
290
     1
370
    -3
390
0
1001
TCAD
1000
TCW_LAYER_ORDER
1002
{
1071
        0
1002
}
  0
LAYER
  5
3F
100
AcDbSymbolTableRecord
100
AcDbLayerTableRecord
  2
WHITE
 70
     0
 62
     7
  6
Continuous
290
     1
370
    -3
390
0
1001
TCAD
1000
TCW_LAYER_ORDER
1002
{
1071
        0
1002
}
  0
LAYER
  5
40
100
AcDbSymbolTableRecord
100
AcDbLayerTableRecord
  2
SHEET
 70
     0
 62
     3
  6
Continuous
290
     1
370
    -3
390
0
1001
TCAD
1000
TCW_LAYER_ORDER
1002
{
1071
        0
1002
}
  0
ENDTAB
  0
TABLE
  2
STYLE
  5
3
100
AcDbSymbolTable
 70
     1
  0
STYLE
  5
17
100
AcDbSymbolTableRecord
100
AcDbTextStyleTableRecord
  2
STANDARD
 70
     0
 40
0.0
 41
1.0
 50
0.0
 71
     0
 42
0.0
  3
TXT.SHX
  4

  0
ENDTAB
  0
TABLE
  2
VIEW
  5
5
100
AcDbSymbolTable
 70
     1
  0
VIEW
  5
41
100
AcDbSymbolTableRecord
100
AcDbViewTableRecord
  2
View_0
 70
     0
 40
8.267716
 10
5.846457
 20
4.133858
 41
11.692913
 11
0.0
 21
0.0
 31
1.0
 12
0.0
 22
0.0
 32
0.0
 42
50.0
 43
0.0
 44
0.0
 50
0.0
 71
     0
281
     0
 72
     0
110
0.0
120
0.0
130
0.0
111
1.0
121
0.0
131
0.0
112
0.0
122
1.0
132
0.0
  0
ENDTAB
  0
TABLE
  2
UCS
  5
6
100
AcDbSymbolTable
 70
     0
  0
ENDTAB
  0
TABLE
  2
APPID
  5
8
100
AcDbSymbolTable
 70
     2
  0
APPID
  5
16
100
AcDbSymbolTableRecord
100
AcDbRegAppTableRecord
  2
ACAD
 70
     0
  0
APPID
  5
23
100
AcDbSymbolTableRecord
100
AcDbRegAppTableRecord
  2
TCAD
 70
     0
  0
ENDTAB
  0
TABLE
  2
DIMSTYLE
  5
9
100
AcDbSymbolTable
 70
     1
100
AcDbDimStyleTable
 71
     0
  0
DIMSTYLE
105
18
100
AcDbSymbolTableRecord
100
AcDbDimStyleTableRecord
  2
STANDARD
 70
     0
  3
<>
  4
<>
 40
1.0
 41
0.18
 42
0.0625
 43
0.38
 44
0.18
 45
0.0
 46
0.0
 47
0.0
 48
0.0
 71
     0
 72
     0
 73
     1
 74
     1
 75
     0
 76
     0
 77
     0
 78
     0
 79
     0
140
0.18
141
0.09
142
0.0
143
25.4
144
1.0
145
0.0
146
1.0
147
0.09
148
0.01
170
     0
171
     2
172
     0
173
     0
174
     0
175
     0
176
     0
177
     0
178
     0
179
     4
271
     4
272
     4
273
     2
274
     2
275
     0
276
     0
277
     2
278
    46
279
     0
280
     0
281
     0
282
     0
283
     1
284
     0
285
     0
286
     0
288
     0
340
17
341
0
342
0
343
0
344
0
371
    -2
372
    -2
  0
ENDTAB
  0
TABLE
  2
BLOCK_RECORD
  5
1
100
AcDbSymbolTable
 70
     0
  0
BLOCK_RECORD
  5
A
100
AcDbSymbolTableRecord
100
AcDbBlockTableRecord
  2
*MODEL_SPACE
340
1A3
  0
BLOCK_RECORD
  5
B
100
AcDbSymbolTableRecord
100
AcDbBlockTableRecord
  2
*PAPER_SPACE
340
1A4
  0
ENDTAB
  0
ENDSEC
  0
SECTION
  2
BLOCKS
  0
BLOCK
  5
D
100
AcDbEntity
  8
0
100
AcDbBlockBegin
  2
*MODEL_SPACE
 70
     0
 10
0.0
 20
0.0
 30
0.0
  3
*MODEL_SPACE
  1

  0
ENDBLK
  5
E
100
AcDbEntity
  8
0
100
AcDbBlockEnd
  0
BLOCK
  5
F
100
AcDbEntity
 67
     1
  8
0
100
AcDbBlockBegin
  2
*PAPER_SPACE
 70
     0
 10
0.0
 20
0.0
 30
0.0
  3
*PAPER_SPACE
  1

  0
ENDBLK
  5
10
100
AcDbEntity
 67
     1
  8
0
100
AcDbBlockEnd
  0
ENDSEC
  0
SECTION
  2
ENTITIES
  0
ARC
  5
42
100
AcDbEntity
  8
CYAN
100
AcDbCircle
 10
1.435089
 20
92.513383
 30
0.0
 40
1.548246
100
AcDbArc
 50
94.978486
 51
132.741872
  0
ARC
  5
43
100
AcDbEntity
  8
CYAN
100
AcDbCircle
 10
-1.435092
 20
93.075918
 30
0.0
 40
1.548246
100
AcDbArc
 50
47.258134
 51
85.021512
  0
ARC
  5
44
100
AcDbEntity
  8
CYAN
100
AcDbCircle
 10
1.435089
 20
93.638452
 30
0.0
 40
1.548246
100
AcDbArc
 50
94.978486
 51
132.741872
  0
ARC
  5
45
100
AcDbEntity
  8
CYAN
100
AcDbCircle
 10
-1.435092
 20
94.200986
 30
0.0
 40
1.548246
100
AcDbArc
 50
47.258134
 51
85.021512
  0
ARC
  5
46
100
AcDbEntity
  8
CYAN
100
AcDbCircle
 10
1.435089
 20
94.763521
 30
0.0
 40
1.548246
100
AcDbArc
 50
94.978486
 51
132.741872
  0
ARC
  5
47
100
AcDbEntity
  8
CYAN
100
AcDbCircle
 10
-0.100992
 20
96.503336
 30
0.0
 40
0.406275
100
AcDbArc
 50
-179.086973
 51
-136.321396
  0
LINE
  5
48
100
AcDbEntity
  8
CYAN
100
AcDbLine
 10
-0.507215
 20
96.496862
 30
0.0
 11
-0.312521
 21
96.834082
 31
0.0
  0
ARC
  5
49
100
AcDbEntity
  8
CYAN
100
AcDbCircle
 10
-0.263721
 20
96.106443
 30
0.0
 40
0.65629
100
AcDbArc
 50
13.256948
 51
46.568035
  0
ARC
  5
4A
100
AcDbEntity
  8
CYAN
100
AcDbCircle
 10
0.439478
 20
96.61418
 30
0.0
 40
0.253922
100
AcDbArc
 50
52.954617
 51
187.045376
  0
ARC
  5
4B
100
AcDbEntity
  8
CYAN
100
AcDbCircle
 10
1.230791
 20
96.9693
 30
0.0
 40
0.65629
100
AcDbArc
 50
-166.568028
 51
-133.25695
  0
ARC
  5
4C
100
AcDbEntity
  8
CYAN
100
AcDbCircle
 10
-1.230794
 20
96.9693
 30
0.0
 40
0.65629
100
AcDbArc
 50
-46.743052
 51
-13.431966
  0
ARC
  5
4D
100
AcDbEntity
  8
CYAN
100
AcDbCircle
 10
-0.439482
 20
96.61418
 30
0.0
 40
0.253922
100
AcDbArc
 50
-7.045385
 51
127.045371
  0
ARC
  5
4E
100
AcDbEntity
  8
CYAN
100
AcDbCircle
 10
0.263717
 20
96.106443
 30
0.0
 40
0.65629
100
AcDbArc
 50
133.431966
 51
166.743045
  0
ARC
  5
4F
100
AcDbEntity
  8
CYAN
100
AcDbCircle
 10
-0.70472
 20
96.851899
 30
0.0
 40
0.406275
100
AcDbArc
 50
-103.678611
 51
-60.913027
  0
LINE
  5
50
100
AcDbEntity
  8
CYAN
100
AcDbLine
 10
0.490154
 20
96.526407
 30
0.0
 11
0.312517
 21
96.834082
 31
0.0
  0
ARC
  5
51
100
AcDbEntity
  8
CYAN
100
AcDbCircle
 10
0.805706
 20
97.026819
 30
0.0
 40
0.406275
100
AcDbArc
 50
16.321393
 51
59.086976
  0
LINE
  5
52
100
AcDbEntity
  8
CYAN
100
AcDbLine
 10
1.014425
 20
97.375381
 30
0.0
 11
0.625036
 21
97.375381
 31
0.0
  0
ARC
  5
53
100
AcDbEntity
  8
CYAN
100
AcDbCircle
 10
0.967072
 20
96.512524
 30
0.0
 40
0.65629
100
AcDbArc
 50
73.256948
 51
106.568033
  0
ARC
  5
54
100
AcDbEntity
  8
CYAN
100
AcDbCircle
 10
0.878958
 20
97.375381
 30
0.0
 40
0.253922
100
AcDbArc
 50
112.954615
 51
247.045378
  0
ARC
  5
55
100
AcDbEntity
  8
CYAN
100
AcDbCircle
 10
0.967072
 20
98.238238
 30
0.0
 40
0.65629
100
AcDbArc
 50
-106.568033
 51
-73.256955
  0
ARC
  5
56
100
AcDbEntity
  8
CYAN
100
AcDbCircle
 10
-0.967075
 20
98.238238
 30
0.0
 40
0.65629
100
AcDbArc
 50
-106.74305
 51
-73.431965
  0
ARC
  5
57
100
AcDbEntity
  8
CYAN
100
AcDbCircle
 10
-0.878962
 20
97.375381
 30
0.0
 40
0.253922
100
AcDbArc
 50
-67.045383
 51
67.045383
  0
ARC
  5
58
100
AcDbEntity
  8
CYAN
100
AcDbCircle
 10
-0.967075
 20
96.512524
 30
0.0
 40
0.65629
100
AcDbArc
 50
73.431972
 51
106.743057
  0
ARC
  5
59
100
AcDbEntity
  8
CYAN
100
AcDbCircle
 10
0.805706
 20
97.723944
 30
0.0
 40
0.406275
100
AcDbArc
 50
-59.086976
 51
-16.321393
  0
LINE
  5
5A
100
AcDbEntity
  8
CYAN
100
AcDbLine
 10
-0.980313
 20
97.375381
 30
0.0
 11
-0.62504
 21
97.375381
 31
0.0
  0
ARC
  5
5B
100
AcDbEntity
  8
CYAN
100
AcDbCircle
 10
1.230791
 20
97.781463
 30
0.0
 40
0.65629
100
AcDbArc
 50
133.25695
 51
166.568028
  0
ARC
  5
5C
100
AcDbEntity
  8
CYAN
100
AcDbCircle
 10
0.439478
 20
98.136583
 30
0.0
 40
0.253922
100
AcDbArc
 50
172.95461
 51
307.045386
  0
ARC
  5
5D
100
AcDbEntity
  8
CYAN
100
AcDbCircle
 10
-0.263721
 20
98.64432
 30
0.0
 40
0.65629
100
AcDbArc
 50
-46.568032
 51
-13.256945
  0
ARC
  5
5E
100
AcDbEntity
  8
CYAN
100
AcDbCircle
 10
0.263717
 20
98.64432
 30
0.0
 40
0.65629
100
AcDbArc
 50
-166.743059
 51
-133.431966
  0
ARC
  5
5F
100
AcDbEntity
  8
CYAN
100
AcDbCircle
 10
-0.439482
 20
98.136583
 30
0.0
 40
0.253922
100
AcDbArc
 50
-127.045384
 51
7.045388
  0
ARC
  5
60
100
AcDbEntity
  8
CYAN
100
AcDbCircle
 10
-1.230794
 20
97.781463
 30
0.0
 40
0.65629
100
AcDbArc
 50
13.431963
 51
46.743048
  0
LINE
  5
61
100
AcDbEntity
  8
CYAN
100
AcDbLine
 10
0.490154
 20
98.224356
 30
0.0
 11
0.312517
 21
97.91668
 31
0.0
  0
LINE
  5
62
100
AcDbEntity
  8
CYAN
100
AcDbLine
 10
-0.312521
 20
97.91668
 30
0.0
 11
-0.507215
 21
98.2539
 31
0.0
  0
ARC
  5
63
100
AcDbEntity
  8
CYAN
100
AcDbCircle
 10
-0.100992
 20
98.247426
 30
0.0
 40
0.406275
100
AcDbArc
 50
136.321396
 51
179.086973
  0
ARC
  5
64
100
AcDbEntity
  8
CYAN
100
AcDbCircle
 10
-0.70472
 20
97.898864
 30
0.0
 40
0.406275
100
AcDbArc
 50
60.913027
 51
103.678611
  0
LINE
  5
65
100
AcDbEntity
  8
CYAN
100
AcDbLine
 10
1.394697
 20
96.302073
 30
0.0
 11
1.435793
 21
96.369139
 31
0.0
  0
ARC
  5
66
100
AcDbEntity
  8
CYAN
100
AcDbCircle
 10
1.42247
 20
96.377304
 30
0.0
 40
0.015626
100
AcDbArc
 50
-31.498872
 51
90.651766
  0
LINE
  5
67
100
AcDbEntity
  8
CYAN
100
AcDbLine
 10
1.422292
 20
96.392929
 30
0.0
 11
1.203669
 21
96.390442
 31
0.0
  0
ARC
  5
68
100
AcDbEntity
  8
CYAN
100
AcDbCircle
 10
1.199403
 20
96.76544
 30
0.0
 40
0.375023
100
AcDbArc
 50
-97.765163
 51
-89.348259
  0
LINE
  5
69
100
AcDbEntity
  8
CYAN
100
AcDbLine
 10
1.148733
 20
96.393856
 30
0.0
 11
0.969141
 21
96.418346
 31
0.0
  0
ARC
  5
6A
100
AcDbEntity
  8
CYAN
100
AcDbCircle
 10
0.918471
 20
96.046762
 30
0.0
 40
0.375023
100
AcDbArc
 50
82.234849
 51
98.03029
  0
LINE
  5
6B
100
AcDbEntity
  8
CYAN
100
AcDbLine
 10
0.866082
 20
96.418108
 30
0.0
 11
0.775677
 21
96.405353
 31
0.0
  0
ARC
  5
6C
100
AcDbEntity
  8
CYAN
100
AcDbCircle
 10
0.828066
 20
96.034008
 30
0.0
 40
0.375023
100
AcDbArc
 50
98.030263
 51
114.999991
  0
LINE
  5
6D
100
AcDbEntity
  8
CYAN
100
AcDbLine
 10
0.669575
 20
96.373894
 30
0.0
 11
0.577525
 21
96.33097
 31
0.0
  0
ARC
  5
6E
100
AcDbEntity
  8
CYAN
100
AcDbCircle
 10
0.736016
 20
95.991084
 30
0.0
 40
0.375023
100
AcDbArc
 50
114.999991
 51
140.296402
  0
LINE
  5
6F
100
AcDbEntity
  8
CYAN
100
AcDbLine
 10
0.447489
 20
96.230655
 30
0.0
 11
0.399902
 21
96.173343
 31
0.0
  0
ARC
  5
70
100
AcDbEntity
  8
CYAN
100
AcDbCircle
 10
0.688429
 20
95.933773
 30
0.0
 40
0.375023
100
AcDbArc
 50
140.296402
 51
170.160148
  0
LINE
  5
71
100
AcDbEntity
  8
CYAN
100
AcDbLine
 10
0.318923
 20
95.997862
 30
0.0
 11
0.301765
 21
95.898934
 31
0.0
  0
LINE
  5
72
100
AcDbEntity
  8
CYAN
100
AcDbLine
 10
0.301765
 20
95.898934
 30
0.0
 11
0.056605
 21
95.784614
 31
0.0
  0
ARC
  5
73
100
AcDbEntity
  8
CYAN
100
AcDbCircle
 10
0.050001
 20
95.798776
 30
0.0
 40
0.015626
100
AcDbArc
 50
180.000005
 51
294.999999
  0
LINE
  5
74
100
AcDbEntity
  8
CYAN
100
AcDbLine
 10
0.034375
 20
95.798776
 30
0.0
 11
0.034375
 21
97.375381
 31
0.0
  0
ARC
  5
75
100
AcDbEntity
  8
CYAN
100
AcDbCircle
 10
0.04785
 20
97.375381
 30
0.0
 40
0.013475
100
AcDbArc
 50
0.0
 51
180.000005
  0
LINE
  5
76
100
AcDbEntity
  8
CYAN
100
AcDbLine
 10
0.061324
 20
97.375381
 30
0.0
 11
0.061324
 21
97.235846
 31
0.0
  0
ARC
  5
77
100
AcDbEntity
  8
CYAN
100
AcDbCircle
 10
0.07695
 20
97.235846
 30
0.0
 40
0.015626
100
AcDbArc
 50
179.999882
 51
209.999839
  0
LINE
  5
78
100
AcDbEntity
  8
CYAN
100
AcDbLine
 10
0.063418
 20
97.228033
 30
0.0
 11
0.217961
 21
96.960356
 31
0.0
  0
ARC
  5
79
100
AcDbEntity
  8
CYAN
100
AcDbCircle
 10
0.823159
 20
96.572543
 30
0.0
 40
0.718794
100
AcDbArc
 50
147.348067
 51
180.237508
  0
ARC
  5
7A
100
AcDbEntity
  8
CYAN
100
AcDbCircle
 10
-0.312808
 20
96.062929
 30
0.0
 40
0.65629
100
AcDbArc
 50
9.469236
 51
50.530771
  0
ARC
  5
7B
100
AcDbEntity
  8
CYAN
100
AcDbCircle
 10
0.100988
 20
96.503336
 30
0.0
 40
0.406275
100
AcDbArc
 50
-54.910175
 51
-0.913027
  0
ARC
  5
7C
100
AcDbEntity
  8
CYAN
100
AcDbCircle
 10
0.704716
 20
96.851899
 30
0.0
 40
0.406275
100
AcDbArc
 50
-119.086971
 51
-65.089818
  0
ARC
  5
7D
100
AcDbEntity
  8
CYAN
100
AcDbCircle
 10
1.293018
 20
96.990054
 30
0.0
 40
0.65629
100
AcDbArc
 50
-170.530767
 51
-129.469227
  0
ARC
  5
7E
100
AcDbEntity
  8
CYAN
100
AcDbCircle
 10
0.283696
 20
96.261084
 30
0.0
 40
0.718794
100
AcDbArc
 50
59.762496
 51
92.651933
  0
LINE
  5
7F
100
AcDbEntity
  8
CYAN
100
AcDbLine
 10
0.250439
 20
96.979108
 30
0.0
 11
0.097191
 21
97.244541
 31
0.0
  0
ARC
  5
80
100
AcDbEntity
  8
CYAN
100
AcDbCircle
 10
0.103957
 20
97.248447
 30
0.0
 40
0.007813
100
AcDbArc
 50
129.317351
 51
209.999921
  0
ARC
  5
81
100
AcDbEntity
  8
CYAN
100
AcDbCircle
 10
-0.000002
 20
97.375381
 30
0.0
 40
0.15626
100
AcDbArc
 50
-50.682524
 51
-40.588843
  0
ARC
  5
82
100
AcDbEntity
  8
CYAN
100
AcDbCircle
 10
0.124594
 20
97.268631
 30
0.0
 40
0.007813
100
AcDbArc
 50
22.450854
 51
139.411169
  0
ARC
  5
83
100
AcDbEntity
  8
CYAN
100
AcDbCircle
 10
0.635806
 20
97.479868
 30
0.0
 40
0.545322
100
AcDbArc
 50
-157.549173
 51
-119.025199
  0
ARC
  5
84
100
AcDbEntity
  8
CYAN
100
AcDbCircle
 10
1.704475
 20
100.426126
 30
0.0
 40
3.67357
100
AcDbArc
 50
-111.280358
 51
-102.024619
  0
ARC
  5
85
100
AcDbEntity
  8
CYAN
100
AcDbCircle
 10
-1.789786
 20
94.37389
 30
0.0
 40
3.67357
100
AcDbArc
 50
42.02461
 51
51.280353
  0
ARC
  5
86
100
AcDbEntity
  8
CYAN
100
AcDbCircle
 10
0.227414
 20
96.772512
 30
0.0
 40
0.545322
100
AcDbArc
 50
59.025204
 51
97.549178
  0
ARC
  5
87
100
AcDbEntity
  8
CYAN
100
AcDbCircle
 10
0.154744
 20
97.320853
 30
0.0
 40
0.007813
100
AcDbArc
 50
160.588662
 51
277.549139
  0
ARC
  5
88
100
AcDbEntity
  8
CYAN
100
AcDbCircle
 10
-0.000002
 20
97.375381
 30
0.0
 40
0.15626
100
AcDbArc
 50
-19.41114
 51
-9.31745
  0
ARC
  5
89
100
AcDbEntity
  8
CYAN
100
AcDbCircle
 10
0.161906
 20
97.348817
 30
0.0
 40
0.007813
100
AcDbArc
 50
90.000003
 51
170.68252
  0
LINE
  5
8A
100
AcDbEntity
  8
CYAN
100
AcDbLine
 10
0.161906
 20
97.35663
 30
0.0
 11
0.468402
 21
97.35663
 31
0.0
  0
ARC
  5
8B
100
AcDbEntity
  8
CYAN
100
AcDbCircle
 10
1.106857
 20
97.68684
 30
0.0
 40
0.718794
100
AcDbArc
 50
-152.651928
 51
-119.76249
  0
ARC
  5
8C
100
AcDbEntity
  8
CYAN
100
AcDbCircle
 10
0.980212
 20
96.448257
 30
0.0
 40
0.65629
100
AcDbArc
 50
69.469233
 51
110.530766
  0
ARC
  5
8D
100
AcDbEntity
  8
CYAN
100
AcDbCircle
 10
1.615052
 20
97.026819
 30
0.0
 40
0.406275
100
AcDbArc
 50
120.913022
 51
174.910175
  0
ARC
  5
8E
100
AcDbEntity
  8
CYAN
100
AcDbCircle
 10
1.615052
 20
97.723944
 30
0.0
 40
0.406275
100
AcDbArc
 50
-174.910175
 51
-120.913022
  0
ARC
  5
8F
100
AcDbEntity
  8
CYAN
100
AcDbCircle
 10
0.980212
 20
98.302505
 30
0.0
 40
0.65629
100
AcDbArc
 50
-110.530766
 51
-69.469233
  0
ARC
  5
90
100
AcDbEntity
  8
CYAN
100
AcDbCircle
 10
1.106857
 20
97.063922
 30
0.0
 40
0.718794
100
AcDbArc
 50
119.76249
 51
152.651928
  0
LINE
  5
91
100
AcDbEntity
  8
CYAN
100
AcDbLine
 10
0.468402
 20
97.394132
 30
0.0
 11
0.161906
 21
97.394132
 31
0.0
  0
ARC
  5
92
100
AcDbEntity
  8
CYAN
100
AcDbCircle
 10
0.161906
 20
97.401945
 30
0.0
 40
0.007813
100
AcDbArc
 50
-170.682561
 51
-90.00005
  0
ARC
  5
93
100
AcDbEntity
  8
CYAN
100
AcDbCircle
 10
-0.000002
 20
97.375381
 30
0.0
 40
0.15626
100
AcDbArc
 50
9.317531
 51
19.411213
  0
ARC
  5
94
100
AcDbEntity
  8
CYAN
100
AcDbCircle
 10
0.154744
 20
97.42991
 30
0.0
 40
0.007813
100
AcDbArc
 50
82.450895
 51
199.411229
  0
ARC
  5
95
100
AcDbEntity
  8
CYAN
100
AcDbCircle
 10
0.227414
 20
97.978251
 30
0.0
 40
0.545322
100
AcDbArc
 50
-97.549178
 51
-59.025204
  0
ARC
  5
96
100
AcDbEntity
  8
CYAN
100
AcDbCircle
 10
-1.789786
 20
100.376873
 30
0.0
 40
3.67357
100
AcDbArc
 50
-51.280357
 51
-42.024617
  0
ARC
  5
97
100
AcDbEntity
  8
CYAN
100
AcDbCircle
 10
1.704474
 20
94.324637
 30
0.0
 40
3.67357
100
AcDbArc
 50
102.024612
 51
111.280352
  0
ARC
  5
98
100
AcDbEntity
  8
CYAN
100
AcDbCircle
 10
0.635806
 20
97.270894
 30
0.0
 40
0.545322
100
AcDbArc
 50
119.025199
 51
157.549173
  0
ARC
  5
99
100
AcDbEntity
  8
CYAN
100
AcDbCircle
 10
0.124595
 20
97.482131
 30
0.0
 40
0.007813
100
AcDbArc
 50
-139.411251
 51
-22.45089
  0
ARC
  5
9A
100
AcDbEntity
  8
CYAN
100
AcDbCircle
 10
-0.000002
 20
97.375381
 30
0.0
 40
0.15626
100
AcDbArc
 50
40.588881
 51
50.682572
  0
ARC
  5
9B
100
AcDbEntity
  8
CYAN
100
AcDbCircle
 10
0.103957
 20
97.502315
 30
0.0
 40
0.007813
100
AcDbArc
 50
150.000079
 51
230.682567
  0
LINE
  5
9C
100
AcDbEntity
  8
CYAN
100
AcDbLine
 10
0.097191
 20
97.506222
 30
0.0
 11
0.250439
 21
97.771655
 31
0.0
  0
ARC
  5
9D
100
AcDbEntity
  8
CYAN
100
AcDbCircle
 10
0.283696
 20
98.489679
 30
0.0
 40
0.718794
100
AcDbArc
 50
-92.651933
 51
-59.762496
  0
ARC
  5
9E
100
AcDbEntity
  8
CYAN
100
AcDbCircle
 10
1.293018
 20
97.760709
 30
0.0
 40
0.65629
100
AcDbArc
 50
129.469227
 51
170.530767
  0
ARC
  5
9F
100
AcDbEntity
  8
CYAN
100
AcDbCircle
 10
0.704716
 20
97.898864
 30
0.0
 40
0.406275
100
AcDbArc
 50
65.089824
 51
119.086971
  0
ARC
  5
A0
100
AcDbEntity
  8
CYAN
100
AcDbCircle
 10
0.100988
 20
98.247427
 30
0.0
 40
0.406275
100
AcDbArc
 50
0.913026
 51
54.910182
  0
ARC
  5
A1
100
AcDbEntity
  8
CYAN
100
AcDbCircle
 10
-0.312808
 20
98.687833
 30
0.0
 40
0.65629
100
AcDbArc
 50
-50.530767
 51
-9.469231
  0
ARC
  5
A2
100
AcDbEntity
  8
CYAN
100
AcDbCircle
 10
0.823159
 20
98.17822
 30
0.0
 40
0.718794
100
AcDbArc
 50
179.762492
 51
212.651933
  0
LINE
  5
A3
100
AcDbEntity
  8
CYAN
100
AcDbLine
 10
0.217961
 20
97.790406
 30
0.0
 11
0.064713
 21
97.524973
 31
0.0
  0
ARC
  5
A4
100
AcDbEntity
  8
CYAN
100
AcDbCircle
 10
0.057947
 20
97.52888
 30
0.0
 40
0.007813
100
AcDbArc
 50
-110.68243
 51
-30.000093
  0
ARC
  5
A5
100
AcDbEntity
  8
CYAN
100
AcDbCircle
 10
-0.000002
 20
97.375381
 30
0.0
 40
0.15626
100
AcDbArc
 50
69.317486
 51
79.411174
  0
ARC
  5
A6
100
AcDbEntity
  8
CYAN
100
AcDbCircle
 10
0.030148
 20
97.53666
 30
0.0
 40
0.007813
100
AcDbArc
 50
142.450931
 51
259.411265
  0
ARC
  5
A7
100
AcDbEntity
  8
CYAN
100
AcDbCircle
 10
-0.408394
 20
97.873764
 30
0.0
 40
0.545322
100
AcDbArc
 50
-37.549177
 51
0.974797
  0
ARC
  5
A8
100
AcDbEntity
  8
CYAN
100
AcDbCircle
 10
-3.494262
 20
97.326129
 30
0.0
 40
3.67357
100
AcDbArc
 50
8.719644
 51
17.975384
  0
ARC
  5
A9
100
AcDbEntity
  8
CYAN
100
AcDbCircle
 10
3.494258
 20
97.326129
 30
0.0
 40
3.67357
100
AcDbArc
 50
162.024614
 51
171.280353
  0
ARC
  5
AA
100
AcDbEntity
  8
CYAN
100
AcDbCircle
 10
0.408391
 20
97.873764
 30
0.0
 40
0.545322
100
AcDbArc
 50
179.0252
 51
217.549179
  0
ARC
  5
AB
100
AcDbEntity
  8
CYAN
100
AcDbCircle
 10
-0.030152
 20
97.53666
 30
0.0
 40
0.007813
100
AcDbArc
 50
-79.411194
 51
37.549156
  0
ARC
  5
AC
100
AcDbEntity
  8
CYAN
100
AcDbCircle
 10
-0.000002
 20
97.375381
 30
0.0
 40
0.15626
100
AcDbArc
 50
100.588852
 51
110.682546
  0
ARC
  5
AD
100
AcDbEntity
  8
CYAN
100
AcDbCircle
 10
-0.057951
 20
97.52888
 30
0.0
 40
0.007813
100
AcDbArc
 50
-149.999997
 51
-69.317432
  0
LINE
  5
AE
100
AcDbEntity
  8
CYAN
100
AcDbLine
 10
-0.064717
 20
97.524973
 30
0.0
 11
-0.217965
 21
97.790406
 31
0.0
  0
ARC
  5
AF
100
AcDbEntity
  8
CYAN
100
AcDbCircle
 10
-0.823163
 20
98.17822
 30
0.0
 40
0.718794
100
AcDbArc
 50
-32.651931
 51
0.237505
  0
ARC
  5
B0
100
AcDbEntity
  8
CYAN
100
AcDbCircle
 10
0.312805
 20
98.687833
 30
0.0
 40
0.65629
100
AcDbArc
 50
-170.530767
 51
-129.469241
  0
ARC
  5
B1
100
AcDbEntity
  8
CYAN
100
AcDbCircle
 10
-0.505665
 20
98.94834
 30
0.0
 40
0.406275
100
AcDbArc
 50
-119.086971
 51
-65.089818
  0
ARC
  5
B2
100
AcDbEntity
  8
CYAN
100
AcDbCircle
 10
-1.109393
 20
98.599778
 30
0.0
 40
0.406275
100
AcDbArc
 50
-54.910182
 51
-0.913032
  0
ARC
  5
B3
100
AcDbEntity
  8
CYAN
100
AcDbCircle
 10
-1.293022
 20
97.760709
 30
0.0
 40
0.65629
100
AcDbArc
 50
9.469231
 51
50.530767
  0
ARC
  5
B4
100
AcDbEntity
  8
CYAN
100
AcDbCircle
 10
-0.2837
 20
98.489679
 30
0.0
 40
0.718794
100
AcDbArc
 50
-120.237503
 51
-87.348065
  0
LINE
  5
B5
100
AcDbEntity
  8
CYAN
100
AcDbLine
 10
-0.250443
 20
97.771655
 30
0.0
 11
-0.097195
 21
97.506222
 31
0.0
  0
ARC
  5
B6
100
AcDbEntity
  8
CYAN
100
AcDbCircle
 10
-0.103961
 20
97.502315
 30
0.0
 40
0.007813
100
AcDbArc
 50
-50.68234
 51
30.000021
  0
ARC
  5
B7
100
AcDbEntity
  8
CYAN
100
AcDbCircle
 10
-0.000002
 20
97.375381
 30
0.0
 40
0.15626
100
AcDbArc
 50
129.317474
 51
139.411169
  0
ARC
  5
B8
100
AcDbEntity
  8
CYAN
100
AcDbCircle
 10
-0.124598
 20
97.482131
 30
0.0
 40
0.007813
100
AcDbArc
 50
-157.549146
 51
-40.588833
  0
ARC
  5
B9
100
AcDbEntity
  8
CYAN
100
AcDbCircle
 10
-0.63581
 20
97.270894
 30
0.0
 40
0.545322
100
AcDbArc
 50
22.450827
 51
60.974799
  0
ARC
  5
BA
100
AcDbEntity
  8
CYAN
100
AcDbCircle
 10
-1.704478
 20
94.324637
 30
0.0
 40
3.67357
100
AcDbArc
 50
68.719647
 51
77.975386
  0
ARC
  5
BB
100
AcDbEntity
  8
CYAN
100
AcDbCircle
 10
1.789782
 20
100.376873
 30
0.0
 40
3.67357
100
AcDbArc
 50
-137.975381
 51
-128.719641
  0
ARC
  5
BC
100
AcDbEntity
  8
CYAN
100
AcDbCircle
 10
-0.227417
 20
97.978251
 30
0.0
 40
0.545322
100
AcDbArc
 50
-120.974808
 51
-82.450833
  0
ARC
  5
BD
100
AcDbEntity
  8
CYAN
100
AcDbCircle
 10
-0.154748
 20
97.42991
 30
0.0
 40
0.007813
100
AcDbArc
 50
-19.410935
 51
97.549192
  0
ARC
  5
BE
100
AcDbEntity
  8
CYAN
100
AcDbCircle
 10
-0.000002
 20
97.375381
 30
0.0
 40
0.15626
100
AcDbArc
 50
160.588785
 51
170.682466
  0
ARC
  5
BF
100
AcDbEntity
  8
CYAN
100
AcDbCircle
 10
-0.16191
 20
97.401945
 30
0.0
 40
0.007813
100
AcDbArc
 50
-90.000003
 51
-9.317472
  0
LINE
  5
C0
100
AcDbEntity
  8
CYAN
100
AcDbLine
 10
-0.16191
 20
97.394132
 30
0.0
 11
-0.468405
 21
97.394132
 31
0.0
  0
ARC
  5
C1
100
AcDbEntity
  8
CYAN
100
AcDbCircle
 10
-1.106861
 20
97.063922
 30
0.0
 40
0.718794
100
AcDbArc
 50
27.348069
 51
60.237501
  0
ARC
  5
C2
100
AcDbEntity
  8
CYAN
100
AcDbCircle
 10
-0.980215
 20
98.302505
 30
0.0
 40
0.65629
100
AcDbArc
 50
-110.530766
 51
-69.469233
  0
ARC
  5
C3
100
AcDbEntity
  8
CYAN
100
AcDbCircle
 10
-0.80571
 20
97.723944
 30
0.0
 40
0.406275
100
AcDbArc
 50
-174.910175
 51
-120.913022
  0
ARC
  5
C4
100
AcDbEntity
  8
CYAN
100
AcDbCircle
 10
-0.80571
 20
97.026819
 30
0.0
 40
0.406275
100
AcDbArc
 50
120.913022
 51
174.910175
  0
ARC
  5
C5
100
AcDbEntity
  8
CYAN
100
AcDbCircle
 10
-0.980215
 20
96.448257
 30
0.0
 40
0.65629
100
AcDbArc
 50
69.469233
 51
110.530766
  0
ARC
  5
C6
100
AcDbEntity
  8
CYAN
100
AcDbCircle
 10
-1.106861
 20
97.68684
 30
0.0
 40
0.718794
100
AcDbArc
 50
-60.237508
 51
-27.348071
  0
LINE
  5
C7
100
AcDbEntity
  8
CYAN
100
AcDbLine
 10
-0.468405
 20
97.35663
 30
0.0
 11
-0.16191
 21
97.35663
 31
0.0
  0
ARC
  5
C8
100
AcDbEntity
  8
CYAN
100
AcDbCircle
 10
-0.16191
 20
97.348817
 30
0.0
 40
0.007813
100
AcDbArc
 50
9.317555
 51
90.000119
  0
ARC
  5
C9
100
AcDbEntity
  8
CYAN
100
AcDbCircle
 10
-0.000002
 20
97.375381
 30
0.0
 40
0.15626
100
AcDbArc
 50
-170.682575
 51
-160.588881
  0
ARC
  5
CA
100
AcDbEntity
  8
CYAN
100
AcDbCircle
 10
-0.154748
 20
97.320853
 30
0.0
 40
0.007813
100
AcDbArc
 50
-97.549226
 51
19.411147
  0
ARC
  5
CB
100
AcDbEntity
  8
CYAN
100
AcDbCircle
 10
-0.227417
 20
96.772512
 30
0.0
 40
0.545322
100
AcDbArc
 50
82.450827
 51
120.974808
  0
ARC
  5
CC
100
AcDbEntity
  8
CYAN
100
AcDbCircle
 10
1.789782
 20
94.373889
 30
0.0
 40
3.67357
100
AcDbArc
 50
128.719641
 51
137.975381
  0
ARC
  5
CD
100
AcDbEntity
  8
CYAN
100
AcDbCircle
 10
-1.704478
 20
100.426126
 30
0.0
 40
3.67357
100
AcDbArc
 50
-77.975393
 51
-68.719647
  0
ARC
  5
CE
100
AcDbEntity
  8
CYAN
100
AcDbCircle
 10
-0.63581
 20
97.479868
 30
0.0
 40
0.545322
100
AcDbArc
 50
-60.974799
 51
-22.450827
  0
ARC
  5
CF
100
AcDbEntity
  8
CYAN
100
AcDbCircle
 10
-0.124598
 20
97.268631
 30
0.0
 40
0.007813
100
AcDbArc
 50
40.588908
 51
157.549242
  0
ARC
  5
D0
100
AcDbEntity
  8
CYAN
100
AcDbCircle
 10
-0.000002
 20
97.375381
 30
0.0
 40
0.15626
100
AcDbArc
 50
-139.411196
 51
-126.892142
  0
LINE
  5
D1
100
AcDbEntity
  8
CYAN
100
AcDbLine
 10
-0.093806
 20
97.25041
 30
0.0
 11
-0.250443
 21
96.979108
 31
0.0
  0
ARC
  5
D2
100
AcDbEntity
  8
CYAN
100
AcDbCircle
 10
-0.2837
 20
96.261084
 30
0.0
 40
0.718794
100
AcDbArc
 50
87.348072
 51
120.237503
  0
ARC
  5
D3
100
AcDbEntity
  8
CYAN
100
AcDbCircle
 10
-1.293022
 20
96.990054
 30
0.0
 40
0.65629
100
AcDbArc
 50
-50.530767
 51
-9.469231
  0
ARC
  5
D4
100
AcDbEntity
  8
CYAN
100
AcDbCircle
 10
-1.109393
 20
96.150985
 30
0.0
 40
0.406275
100
AcDbArc
 50
0.913027
 51
54.910179
  0
ARC
  5
D5
100
AcDbEntity
  8
CYAN
100
AcDbCircle
 10
-0.505665
 20
95.802422
 30
0.0
 40
0.406275
100
AcDbArc
 50
65.089824
 51
119.086971
  0
ARC
  5
D6
100
AcDbEntity
  8
CYAN
100
AcDbCircle
 10
0.312805
 20
96.062929
 30
0.0
 40
0.65629
100
AcDbArc
 50
129.469227
 51
170.530767
  0
ARC
  5
D7
100
AcDbEntity
  8
CYAN
100
AcDbCircle
 10
-0.823163
 20
96.572543
 30
0.0
 40
0.718794
100
AcDbArc
 50
-0.237506
 51
32.651928
  0
LINE
  5
D8
100
AcDbEntity
  8
CYAN
100
AcDbLine
 10
-0.217965
 20
96.960356
 30
0.0
 11
-0.063422
 21
97.228033
 31
0.0
  0
ARC
  5
D9
100
AcDbEntity
  8
CYAN
100
AcDbCircle
 10
-0.076954
 20
97.235846
 30
0.0
 40
0.015626
100
AcDbArc
 50
-30.000001
 51
0.0
  0
LINE
  5
DA
100
AcDbEntity
  8
CYAN
100
AcDbLine
 10
-0.061328
 20
97.235846
 30
0.0
 11
-0.061328
 21
97.375381
 31
0.0
  0
ARC
  5
DB
100
AcDbEntity
  8
CYAN
100
AcDbCircle
 10
-0.047854
 20
97.375381
 30
0.0
 40
0.013475
100
AcDbArc
 50
0.0
 51
180.000005
  0
LINE
  5
DC
100
AcDbEntity
  8
CYAN
100
AcDbLine
 10
-0.034379
 20
97.375381
 30
0.0
 11
-0.034379
 21
95.236242
 31
0.0
  0
ARC
  5
DD
100
AcDbEntity
  8
CYAN
100
AcDbCircle
 10
-0.050005
 20
95.236242
 30
0.0
 40
0.015626
100
AcDbArc
 50
-115.000045
 51
0.000034
  0
LINE
  5
DE
100
AcDbEntity
  8
CYAN
100
AcDbLine
 10
-0.056609
 20
95.22208
 30
0.0
 11
-0.301768
 21
95.336399
 31
0.0
  0
LINE
  5
DF
100
AcDbEntity
  8
CYAN
100
AcDbLine
 10
-0.301768
 20
95.336399
 30
0.0
 11
-0.318927
 21
95.435328
 31
0.0
  0
ARC
  5
E0
100
AcDbEntity
  8
CYAN
100
AcDbCircle
 10
-0.688433
 20
95.371238
 30
0.0
 40
0.375023
100
AcDbArc
 50
9.839843
 51
39.703579
  0
LINE
  5
E1
100
AcDbEntity
  8
CYAN
100
AcDbLine
 10
-0.399906
 20
95.610809
 30
0.0
 11
-0.447493
 21
95.66812
 31
0.0
  0
ARC
  5
E2
100
AcDbEntity
  8
CYAN
100
AcDbCircle
 10
-0.73602
 20
95.42855
 30
0.0
 40
0.375023
100
AcDbArc
 50
39.703575
 51
64.999987
  0
LINE
  5
E3
100
AcDbEntity
  8
CYAN
100
AcDbLine
 10
-0.577528
 20
95.768436
 30
0.0
 11
-0.669579
 21
95.81136
 31
0.0
  0
ARC
  5
E4
100
AcDbEntity
  8
CYAN
100
AcDbCircle
 10
-0.82807
 20
95.471474
 30
0.0
 40
0.375023
100
AcDbArc
 50
64.999994
 51
81.969722
  0
LINE
  5
E5
100
AcDbEntity
  8
CYAN
100
AcDbLine
 10
-0.775681
 20
95.842819
 30
0.0
 11
-0.866085
 21
95.855573
 31
0.0
  0
ARC
  5
E6
100
AcDbEntity
  8
CYAN
100
AcDbCircle
 10
-0.918474
 20
95.484228
 30
0.0
 40
0.375023
100
AcDbArc
 50
81.969742
 51
97.765183
  0
LINE
  5
E7
100
AcDbEntity
  8
CYAN
100
AcDbLine
 10
-0.969145
 20
95.855812
 30
0.0
 11
-1.148736
 21
95.831322
 31
0.0
  0
ARC
  5
E8
100
AcDbEntity
  8
CYAN
100
AcDbCircle
 10
-1.199407
 20
96.202906
 30
0.0
 40
0.375023
100
AcDbArc
 50
-90.651719
 51
-82.234822
  0
LINE
  5
E9
100
AcDbEntity
  8
CYAN
100
AcDbLine
 10
-1.203673
 20
95.827907
 30
0.0
 11
-1.422296
 21
95.830394
 31
0.0
  0
ARC
  5
EA
100
AcDbEntity
  8
CYAN
100
AcDbCircle
 10
-1.422473
 20
95.814769
 30
0.0
 40
0.015626
100
AcDbArc
 50
89.348293
 51
211.498765
  0
LINE
  5
EB
100
AcDbEntity
  8
CYAN
100
AcDbLine
 10
-1.435797
 20
95.806605
 30
0.0
 11
-1.3947
 21
95.739539
 31
0.0
  0
ARC
  5
EC
100
AcDbEntity
  8
CYAN
100
AcDbCircle
 10
-1.527935
 20
95.657896
 30
0.0
 40
0.15626
100
AcDbArc
 50
22.619867
 51
31.498838
  0
LINE
  5
ED
100
AcDbEntity
  8
CYAN
100
AcDbLine
 10
-1.383696
 20
95.717996
 30
0.0
 11
-1.325865
 21
95.579201
 31
0.0
  0
ARC
  5
EE
100
AcDbEntity
  8
CYAN
100
AcDbCircle
 10
-1.037385
 20
95.699401
 30
0.0
 40
0.312519
100
AcDbArc
 50
-157.380153
 51
-149.767184
  0
LINE
  5
EF
100
AcDbEntity
  8
CYAN
100
AcDbLine
 10
-1.307398
 20
95.542043
 30
0.0
 11
-1.204867
 21
95.36611
 31
0.0
  0
ARC
  5
F0
100
AcDbEntity
  8
CYAN
100
AcDbCircle
 10
-0.934855
 20
95.523468
 30
0.0
 40
0.312519
100
AcDbArc
 50
-149.767156
 51
-119.818853
  0
LINE
  5
F1
100
AcDbEntity
  8
CYAN
100
AcDbLine
 10
-1.090258
 20
95.252326
 30
0.0
 11
-1.018973
 21
95.211469
 31
0.0
  0
LINE
  5
F2
100
AcDbEntity
  8
CYAN
100
AcDbLine
 10
-1.018973
 20
95.211469
 30
0.0
 11
-1.01168
 21
95.205696
 31
0.0
  0
ARC
  5
F3
100
AcDbEntity
  8
CYAN
100
AcDbCircle
 10
-0.856495
 20
95.401719
 30
0.0
 40
0.250015
100
AcDbArc
 50
-128.367477
 51
-98.1301
  0
LINE
  5
F4
100
AcDbEntity
  8
CYAN
100
AcDbLine
 10
-0.891853
 20
95.154217
 30
0.0
 11
-0.725421
 21
95.130441
 31
0.0
  0
ARC
  5
F5
100
AcDbEntity
  8
CYAN
100
AcDbCircle
 10
-0.672385
 20
95.501694
 30
0.0
 40
0.375023
100
AcDbArc
 50
-98.1301
 51
-69.227738
  0
LINE
  5
F6
100
AcDbEntity
  8
CYAN
100
AcDbLine
 10
-0.539381
 20
95.151049
 30
0.0
 11
-0.50206
 21
95.165205
 31
0.0
  0
ARC
  5
F7
100
AcDbEntity
  8
CYAN
100
AcDbCircle
 10
-0.635064
 20
95.515851
 30
0.0
 40
0.375023
100
AcDbArc
 50
-69.227731
 51
-55.349172
  0
LINE
  5
F8
100
AcDbEntity
  8
CYAN
100
AcDbLine
 10
-0.421836
 20
95.207345
 30
0.0
 11
-0.333467
 21
95.268422
 31
0.0
  0
LINE
  5
F9
100
AcDbEntity
  8
CYAN
100
AcDbLine
 10
-0.333467
 20
95.268422
 30
0.0
 11
-0.043401
 21
95.133163
 31
0.0
  0
ARC
  5
FA
100
AcDbEntity
  8
CYAN
100
AcDbCircle
 10
-0.050005
 20
95.119001
 30
0.0
 40
0.015626
100
AcDbArc
 50
0.0
 51
65.000001
  0
LINE
  5
FB
100
AcDbEntity
  8
CYAN
100
AcDbLine
 10
-0.034379
 20
95.119001
 30
0.0
 11
-0.034379
 21
94.111173
 31
0.0
  0
ARC
  5
FC
100
AcDbEntity
  8
CYAN
100
AcDbCircle
 10
-0.050005
 20
94.111173
 30
0.0
 40
0.015626
100
AcDbArc
 50
-115.000045
 51
0.000034
  0
LINE
  5
FD
100
AcDbEntity
  8
CYAN
100
AcDbLine
 10
-0.056609
 20
94.097011
 30
0.0
 11
-0.301768
 21
94.211331
 31
0.0
  0
LINE
  5
FE
100
AcDbEntity
  8
CYAN
100
AcDbLine
 10
-0.301768
 20
94.211331
 30
0.0
 11
-0.318927
 21
94.310259
 31
0.0
  0
ARC
  5
FF
100
AcDbEntity
  8
CYAN
100
AcDbCircle
 10
-0.688433
 20
94.24617
 30
0.0
 40
0.375023
100
AcDbArc
 50
9.839843
 51
39.703579
  0
LINE
  5
100
100
AcDbEntity
  8
CYAN
100
AcDbLine
 10
-0.399906
 20
94.48574
 30
0.0
 11
-0.447493
 21
94.543052
 31
0.0
  0
ARC
  5
101
100
AcDbEntity
  8
CYAN
100
AcDbCircle
 10
-0.73602
 20
94.303481
 30
0.0
 40
0.375023
100
AcDbArc
 50
39.703575
 51
64.999987
  0
LINE
  5
102
100
AcDbEntity
  8
CYAN
100
AcDbLine
 10
-0.577528
 20
94.643367
 30
0.0
 11
-0.669579
 21
94.686291
 31
0.0
  0
ARC
  5
103
100
AcDbEntity
  8
CYAN
100
AcDbCircle
 10
-0.82807
 20
94.346405
 30
0.0
 40
0.375023
100
AcDbArc
 50
64.999994
 51
81.969722
  0
LINE
  5
104
100
AcDbEntity
  8
CYAN
100
AcDbLine
 10
-0.775681
 20
94.71775
 30
0.0
 11
-0.866085
 21
94.730505
 31
0.0
  0
ARC
  5
105
100
AcDbEntity
  8
CYAN
100
AcDbCircle
 10
-0.918474
 20
94.359159
 30
0.0
 40
0.375023
100
AcDbArc
 50
81.969742
 51
97.765183
  0
LINE
  5
106
100
AcDbEntity
  8
CYAN
100
AcDbLine
 10
-0.969145
 20
94.730743
 30
0.0
 11
-1.148736
 21
94.706253
 31
0.0
  0
ARC
  5
107
100
AcDbEntity
  8
CYAN
100
AcDbCircle
 10
-1.199407
 20
95.077837
 30
0.0
 40
0.375023
100
AcDbArc
 50
-90.651719
 51
-82.234822
  0
LINE
  5
108
100
AcDbEntity
  8
CYAN
100
AcDbLine
 10
-1.203673
 20
94.702839
 30
0.0
 11
-1.422296
 21
94.705326
 31
0.0
  0
ARC
  5
109
100
AcDbEntity
  8
CYAN
100
AcDbCircle
 10
-1.422473
 20
94.689701
 30
0.0
 40
0.015626
100
AcDbArc
 50
89.348293
 51
211.498765
  0
LINE
  5
10A
100
AcDbEntity
  8
CYAN
100
AcDbLine
 10
-1.435797
 20
94.681536
 30
0.0
 11
-1.3947
 21
94.61447
 31
0.0
  0
ARC
  5
10B
100
AcDbEntity
  8
CYAN
100
AcDbCircle
 10
-1.527935
 20
94.532828
 30
0.0
 40
0.15626
100
AcDbArc
 50
22.619867
 51
31.498838
  0
LINE
  5
10C
100
AcDbEntity
  8
CYAN
100
AcDbLine
 10
-1.383696
 20
94.592928
 30
0.0
 11
-1.325865
 21
94.454133
 31
0.0
  0
ARC
  5
10D
100
AcDbEntity
  8
CYAN
100
AcDbCircle
 10
-1.037385
 20
94.574332
 30
0.0
 40
0.312519
100
AcDbArc
 50
-157.380153
 51
-149.767184
  0
LINE
  5
10E
100
AcDbEntity
  8
CYAN
100
AcDbLine
 10
-1.307398
 20
94.416974
 30
0.0
 11
-1.204867
 21
94.241041
 31
0.0
  0
ARC
  5
10F
100
AcDbEntity
  8
CYAN
100
AcDbCircle
 10
-0.934855
 20
94.398399
 30
0.0
 40
0.312519
100
AcDbArc
 50
-149.767156
 51
-119.818853
  0
LINE
  5
110
100
AcDbEntity
  8
CYAN
100
AcDbLine
 10
-1.090258
 20
94.127257
 30
0.0
 11
-1.018973
 21
94.0864
 31
0.0
  0
LINE
  5
111
100
AcDbEntity
  8
CYAN
100
AcDbLine
 10
-1.018973
 20
94.0864
 30
0.0
 11
-1.01168
 21
94.080627
 31
0.0
  0
ARC
  5
112
100
AcDbEntity
  8
CYAN
100
AcDbCircle
 10
-0.856495
 20
94.276651
 30
0.0
 40
0.250015
100
AcDbArc
 50
-128.367477
 51
-98.1301
  0
LINE
  5
113
100
AcDbEntity
  8
CYAN
100
AcDbLine
 10
-0.891853
 20
94.029148
 30
0.0
 11
-0.725421
 21
94.005372
 31
0.0
  0
ARC
  5
114
100
AcDbEntity
  8
CYAN
100
AcDbCircle
 10
-0.672385
 20
94.376626
 30
0.0
 40
0.375023
100
AcDbArc
 50
-98.1301
 51
-69.227738
  0
LINE
  5
115
100
AcDbEntity
  8
CYAN
100
AcDbLine
 10
-0.539381
 20
94.02598
 30
0.0
 11
-0.50206
 21
94.040137
 31
0.0
  0
ARC
  5
116
100
AcDbEntity
  8
CYAN
100
AcDbCircle
 10
-0.635064
 20
94.390782
 30
0.0
 40
0.375023
100
AcDbArc
 50
-69.227731
 51
-55.349172
  0
LINE
  5
117
100
AcDbEntity
  8
CYAN
100
AcDbLine
 10
-0.421836
 20
94.082276
 30
0.0
 11
-0.333467
 21
94.143354
 31
0.0
  0
LINE
  5
118
100
AcDbEntity
  8
CYAN
100
AcDbLine
 10
-0.333467
 20
94.143354
 30
0.0
 11
-0.043401
 21
94.008094
 31
0.0
  0
ARC
  5
119
100
AcDbEntity
  8
CYAN
100
AcDbCircle
 10
-0.050005
 20
93.993932
 30
0.0
 40
0.015626
100
AcDbArc
 50
0.0
 51
65.000001
  0
LINE
  5
11A
100
AcDbEntity
  8
CYAN
100
AcDbLine
 10
-0.034379
 20
93.993932
 30
0.0
 11
-0.034379
 21
92.594982
 31
0.0
  0
LINE
  5
11B
100
AcDbEntity
  8
CYAN
100
AcDbLine
 10
-0.034379
 20
92.594982
 30
0.0
 11
-0.065631
 21
90.727145
 31
0.0
  0
ARC
  5
11C
100
AcDbEntity
  8
CYAN
100
AcDbCircle
 10
-0.069537
 20
90.727145
 30
0.0
 40
0.003906
100
AcDbArc
 50
180.000005
 51
360.0
  0
LINE
  5
11D
100
AcDbEntity
  8
CYAN
100
AcDbLine
 10
-0.073444
 20
90.727145
 30
0.0
 11
-0.073444
 21
91.055559
 31
0.0
  0
ARC
  5
11E
100
AcDbEntity
  8
CYAN
100
AcDbCircle
 10
-0.120322
 20
91.055559
 30
0.0
 40
0.046878
100
AcDbArc
 50
0.0
 51
96.599331
  0
ARC
  5
11F
100
AcDbEntity
  8
CYAN
100
AcDbCircle
 10
-0.000002
 20
90.015557
 30
0.0
 40
1.093817
100
AcDbArc
 50
96.599318
 51
107.186794
  0
ARC
  5
120
100
AcDbEntity
  8
CYAN
100
AcDbCircle
 10
-0.316799
 20
91.039798
 30
0.0
 40
0.021703
100
AcDbArc
 50
107.18678
 51
147.269042
  0
LINE
  5
121
100
AcDbEntity
  8
CYAN
100
AcDbLine
 10
-0.335055
 20
91.051532
 30
0.0
 11
-0.34624
 21
91.034131
 31
0.0
  0
ARC
  5
122
100
AcDbEntity
  8
CYAN
100
AcDbCircle
 10
-0.364497
 20
91.045866
 30
0.0
 40
0.021703
100
AcDbArc
 50
-104.861797
 51
-32.731059
  0
LINE
  5
123
100
AcDbEntity
  8
CYAN
100
AcDbLine
 10
-0.370063
 20
91.024889
 30
0.0
 11
-0.397345
 21
91.032129
 31
0.0
  0
ARC
  5
124
100
AcDbEntity
  8
CYAN
100
AcDbCircle
 10
-0.391778
 20
91.053105
 30
0.0
 40
0.021703
100
AcDbArc
 50
-125.597494
 51
-104.861838
  0
LINE
  5
125
100
AcDbEntity
  8
CYAN
100
AcDbLine
 10
-0.404411
 20
91.035458
 30
0.0
 11
-0.459575
 21
91.074948
 31
0.0
  0
ARC
  5
126
100
AcDbEntity
  8
CYAN
100
AcDbCircle
 10
-0.510107
 20
91.00436
 30
0.0
 40
0.086811
100
AcDbArc
 50
54.402583
 51
117.288364
  0
ARC
  5
127
100
AcDbEntity
  8
CYAN
100
AcDbCircle
 10
-0.000002
 20
90.015557
 30
0.0
 40
1.199438
100
AcDbArc
 50
117.288364
 51
145.245025
  0
ARC
  5
128
100
AcDbEntity
  8
CYAN
100
AcDbCircle
 10
-0.824979
 20
90.58797
 30
0.0
 40
0.195324
100
AcDbArc
 50
145.245025
 51
205.461192
  0
LINE
  5
129
100
AcDbEntity
  8
CYAN
100
AcDbLine
 10
-1.001333
 20
90.504
 30
0.0
 11
-0.962163
 21
90.421737
 31
0.0
  0
ARC
  5
12A
100
AcDbEntity
  8
CYAN
100
AcDbCircle
 10
-1.001353
 20
90.403077
 30
0.0
 40
0.043405
100
AcDbArc
 50
-23.962418
 51
25.461204
  0
LINE
  5
12B
100
AcDbEntity
  8
CYAN
100
AcDbLine
 10
-0.961689
 20
90.385448
 30
0.0
 11
-0.967706
 21
90.37191
 31
0.0
  0
ARC
  5
12C
100
AcDbEntity
  8
CYAN
100
AcDbCircle
 10
-0.975639
 20
90.375435
 30
0.0
 40
0.008681
100
AcDbArc
 50
-84.695432
 51
-23.962421
  0
LINE
  5
12D
100
AcDbEntity
  8
CYAN
100
AcDbLine
 10
-0.974836
 20
90.366791
 30
0.0
 11
-0.993307
 21
90.365076
 31
0.0
  0
ARC
  5
12E
100
AcDbEntity
  8
CYAN
100
AcDbCircle
 10
-0.985282
 20
90.278637
 30
0.0
 40
0.086811
100
AcDbArc
 50
95.304423
 51
151.526449
  0
ARC
  5
12F
100
AcDbEntity
  8
CYAN
100
AcDbCircle
 10
-0.336567
 20
89.926802
 30
0.0
 40
0.824794
100
AcDbArc
 50
151.526449
 51
233.200175
  0
ARC
  5
130
100
AcDbEntity
  8
CYAN
100
AcDbCircle
 10
-0.726633
 20
89.405386
 30
0.0
 40
0.173622
100
AcDbArc
 50
-126.799825
 51
-60.860476
  0
LINE
  5
131
100
AcDbEntity
  8
CYAN
100
AcDbLine
 10
-0.64209
 20
89.253739
 30
0.0
 11
-0.631365
 21
89.259718
 31
0.0
  0
ARC
  5
132
100
AcDbEntity
  8
CYAN
100
AcDbCircle
 10
-0.62291
 20
89.244553
 30
0.0
 40
0.017362
100
AcDbArc
 50
47.935784
 51
119.13955
  0
LINE
  5
133
100
AcDbEntity
  8
CYAN
100
AcDbLine
 10
-0.611278
 20
89.257443
 30
0.0
 11
-0.60616
 21
89.252824
 31
0.0
  0
ARC
  5
134
100
AcDbEntity
  8
CYAN
100
AcDbCircle
 10
-0.617792
 20
89.239935
 30
0.0
 40
0.017362
100
AcDbArc
 50
-17.740937
 51
47.935681
  0
LINE
  5
135
100
AcDbEntity
  8
CYAN
100
AcDbLine
 10
-0.601256
 20
89.234644
 30
0.0
 11
-0.621795
 21
89.170444
 31
0.0
  0
ARC
  5
136
100
AcDbEntity
  8
CYAN
100
AcDbCircle
 10
-0.43576
 20
89.110926
 30
0.0
 40
0.195324
100
AcDbArc
 50
162.259039
 51
244.280053
  0
ARC
  5
137
100
AcDbEntity
  8
CYAN
100
AcDbCircle
 10
-0.000002
 20
90.015557
 30
0.0
 40
1.199438
100
AcDbArc
 50
-115.719961
 51
-65.103621
  0
ARC
  5
138
100
AcDbEntity
  8
CYAN
100
AcDbCircle
 10
0.395299
 20
89.163814
 30
0.0
 40
0.260433
100
AcDbArc
 50
-65.103621
 51
27.268714
  0
LINE
  5
139
100
AcDbEntity
  8
CYAN
100
AcDbLine
 10
0.626789
 20
89.283134
 30
0.0
 11
0.542009
 21
89.447614
 31
0.0
  0
ARC
  5
13A
100
AcDbEntity
  8
CYAN
100
AcDbCircle
 10
0.557442
 20
89.455568
 30
0.0
 40
0.017362
100
AcDbArc
 50
148.392608
 51
207.268774
  0
LINE
  5
13B
100
AcDbEntity
  8
CYAN
100
AcDbLine
 10
0.542655
 20
89.464668
 30
0.0
 11
0.545154
 21
89.468729
 31
0.0
  0
ARC
  5
13C
100
AcDbEntity
  8
CYAN
100
AcDbCircle
 10
0.552547
 20
89.464179
 30
0.0
 40
0.008681
100
AcDbArc
 50
46.24496
 51
148.39254
  0
LINE
  5
13D
100
AcDbEntity
  8
CYAN
100
AcDbLine
 10
0.558551
 20
89.47045
 30
0.0
 11
0.685185
 21
89.349202
 31
0.0
  0
ARC
  5
13E
100
AcDbEntity
  8
CYAN
100
AcDbCircle
 10
0.77524
 20
89.443258
 30
0.0
 40
0.130216
100
AcDbArc
 50
-133.755075
 51
-36.435511
  0
ARC
  5
13F
100
AcDbEntity
  8
CYAN
100
AcDbCircle
 10
-0.000002
 20
90.015557
 30
0.0
 40
1.093817
100
AcDbArc
 50
-36.435514
 51
-13.985655
  0
ARC
  5
140
100
AcDbEntity
  8
CYAN
100
AcDbCircle
 10
0.977153
 20
89.772185
 30
0.0
 40
0.086811
100
AcDbArc
 50
-13.985653
 51
63.809861
  0
LINE
  5
141
100
AcDbEntity
  8
CYAN
100
AcDbLine
 10
1.015467
 20
89.850084
 30
0.0
 11
0.979626
 21
89.867712
 31
0.0
  0
ARC
  5
142
100
AcDbEntity
  8
CYAN
100
AcDbCircle
 10
0.998783
 20
89.906661
 30
0.0
 40
0.043405
100
AcDbArc
 50
162.646024
 51
243.809876
  0
LINE
  5
143
100
AcDbEntity
  8
CYAN
100
AcDbLine
 10
0.957354
 20
89.919608
 30
0.0
 11
0.961831
 21
89.933934
 31
0.0
  0
ARC
  5
144
100
AcDbEntity
  8
CYAN
100
AcDbCircle
 10
0.972188
 20
89.930697
 30
0.0
 40
0.010851
100
AcDbArc
 50
91.739146
 51
162.64597
  0
LINE
  5
145
100
AcDbEntity
  8
CYAN
100
AcDbLine
 10
0.971859
 20
89.941544
 30
0.0
 11
0.978515
 21
89.941746
 31
0.0
  0
ARC
  5
146
100
AcDbEntity
  8
CYAN
100
AcDbCircle
 10
0.971928
 20
90.158673
 30
0.0
 40
0.217027
100
AcDbArc
 50
-88.260838
 51
8.376537
  0
ARC
  5
147
100
AcDbEntity
  8
CYAN
100
AcDbCircle
 10
-0.000002
 20
90.015557
 30
0.0
 40
1.199437
100
AcDbArc
 50
8.376538
 51
44.203444
  0
ARC
  5
148
100
AcDbEntity
  8
CYAN
100
AcDbCircle
 10
0.766489
 20
90.761027
 30
0.0
 40
0.130216
100
AcDbArc
 50
44.203441
 51
127.522419
  0
LINE
  5
149
100
AcDbEntity
  8
CYAN
100
AcDbLine
 10
0.687178
 20
90.864304
 30
0.0
 11
0.57529
 21
90.778379
 31
0.0
  0
ARC
  5
14A
100
AcDbEntity
  8
CYAN
100
AcDbCircle
 10
0.567358
 20
90.788706
 30
0.0
 40
0.013022
100
AcDbArc
 50
-131.633646
 51
-52.477641
  0
LINE
  5
14B
100
AcDbEntity
  8
CYAN
100
AcDbLine
 10
0.558707
 20
90.778974
 30
0.0
 11
0.557215
 21
90.780301
 31
0.0
  0
ARC
  5
14C
100
AcDbEntity
  8
CYAN
100
AcDbCircle
 10
0.562982
 20
90.786789
 30
0.0
 40
0.008681
100
AcDbArc
 50
159.026652
 51
228.366395
  0
LINE
  5
14D
100
AcDbEntity
  8
CYAN
100
AcDbLine
 10
0.554876
 20
90.789896
 30
0.0
 11
0.567608
 21
90.82311
 31
0.0
  0
ARC
  5
14E
100
AcDbEntity
  8
CYAN
100
AcDbCircle
 10
0.446019
 20
90.869719
 30
0.0
 40
0.130216
100
AcDbArc
 50
-20.973204
 51
62.427622
  0
ARC
  5
14F
100
AcDbEntity
  8
CYAN
100
AcDbCircle
 10
-0.000002
 20
90.015557
 30
0.0
 40
1.093817
100
AcDbArc
 50
62.427615
 51
83.400681
  0
ARC
  5
150
100
AcDbEntity
  8
CYAN
100
AcDbCircle
 10
0.120318
 20
91.055559
 30
0.0
 40
0.046878
100
AcDbArc
 50
83.400681
 51
180.000005
  0
LINE
  5
151
100
AcDbEntity
  8
CYAN
100
AcDbLine
 10
0.07344
 20
91.055559
 30
0.0
 11
0.07344
 21
90.727145
 31
0.0
  0
ARC
  5
152
100
AcDbEntity
  8
CYAN
100
AcDbCircle
 10
0.069534
 20
90.727145
 30
0.0
 40
0.003906
100
AcDbArc
 50
180.000005
 51
360.0
  0
LINE
  5
153
100
AcDbEntity
  8
CYAN
100
AcDbLine
 10
0.065627
 20
90.727145
 30
0.0
 11
0.034375
 21
93.431398
 31
0.0
  0
ARC
  5
154
100
AcDbEntity
  8
CYAN
100
AcDbCircle
 10
0.050001
 20
93.431398
 30
0.0
 40
0.015626
100
AcDbArc
 50
115.000127
 51
179.999978
  0
LINE
  5
155
100
AcDbEntity
  8
CYAN
100
AcDbLine
 10
0.043397
 20
93.44556
 30
0.0
 11
0.333463
 21
93.580819
 31
0.0
  0
LINE
  5
156
100
AcDbEntity
  8
CYAN
100
AcDbLine
 10
0.333463
 20
93.580819
 30
0.0
 11
0.421832
 21
93.519742
 31
0.0
  0
ARC
  5
157
100
AcDbEntity
  8
CYAN
100
AcDbCircle
 10
0.63506
 20
93.828248
 30
0.0
 40
0.375023
100
AcDbArc
 50
-124.650816
 51
-110.772254
  0
LINE
  5
158
100
AcDbEntity
  8
CYAN
100
AcDbLine
 10
0.502057
 20
93.477602
 30
0.0
 11
0.539378
 21
93.463446
 31
0.0
  0
ARC
  5
159
100
AcDbEntity
  8
CYAN
100
AcDbCircle
 10
0.672381
 20
93.814092
 30
0.0
 40
0.375023
100
AcDbArc
 50
-110.772254
 51
-81.869899
  0
LINE
  5
15A
100
AcDbEntity
  8
CYAN
100
AcDbLine
 10
0.725417
 20
93.442838
 30
0.0
 11
0.891849
 21
93.466614
 31
0.0
  0
ARC
  5
15B
100
AcDbEntity
  8
CYAN
100
AcDbCircle
 10
0.856491
 20
93.714116
 30
0.0
 40
0.250015
100
AcDbArc
 50
-81.869905
 51
-51.632521
  0
LINE
  5
15C
100
AcDbEntity
  8
CYAN
100
AcDbLine
 10
1.011677
 20
93.518093
 30
0.0
 11
1.018969
 21
93.523866
 31
0.0
  0
LINE
  5
15D
100
AcDbEntity
  8
CYAN
100
AcDbLine
 10
1.018969
 20
93.523866
 30
0.0
 11
1.090254
 21
93.564723
 31
0.0
  0
ARC
  5
15E
100
AcDbEntity
  8
CYAN
100
AcDbCircle
 10
0.934851
 20
93.835865
 30
0.0
 40
0.312519
100
AcDbArc
 50
-60.181145
 51
-30.232845
  0
LINE
  5
15F
100
AcDbEntity
  8
CYAN
100
AcDbLine
 10
1.204863
 20
93.678507
 30
0.0
 11
1.307394
 21
93.85444
 31
0.0
  0
ARC
  5
160
100
AcDbEntity
  8
CYAN
100
AcDbCircle
 10
1.037382
 20
94.011798
 30
0.0
 40
0.312519
100
AcDbArc
 50
-30.232859
 51
-22.619886
  0
LINE
  5
161
100
AcDbEntity
  8
CYAN
100
AcDbLine
 10
1.325861
 20
93.891598
 30
0.0
 11
1.383692
 21
94.030393
 31
0.0
  0
ARC
  5
162
100
AcDbEntity
  8
CYAN
100
AcDbCircle
 10
1.527932
 20
93.970293
 30
0.0
 40
0.15626
100
AcDbArc
 50
148.501208
 51
157.380181
  0
LINE
  5
163
100
AcDbEntity
  8
CYAN
100
AcDbLine
 10
1.394697
 20
94.051936
 30
0.0
 11
1.435793
 21
94.119002
 31
0.0
  0
ARC
  5
164
100
AcDbEntity
  8
CYAN
100
AcDbCircle
 10
1.42247
 20
94.127166
 30
0.0
 40
0.015626
100
AcDbArc
 50
-31.498872
 51
90.651766
  0
LINE
  5
165
100
AcDbEntity
  8
CYAN
100
AcDbLine
 10
1.422292
 20
94.142791
 30
0.0
 11
1.203669
 21
94.140304
 31
0.0
  0
ARC
  5
166
100
AcDbEntity
  8
CYAN
100
AcDbCircle
 10
1.199403
 20
94.515303
 30
0.0
 40
0.375023
100
AcDbArc
 50
-97.765163
 51
-89.348259
  0
LINE
  5
167
100
AcDbEntity
  8
CYAN
100
AcDbLine
 10
1.148733
 20
94.143719
 30
0.0
 11
0.969141
 21
94.168209
 31
0.0
  0
ARC
  5
168
100
AcDbEntity
  8
CYAN
100
AcDbCircle
 10
0.918471
 20
93.796625
 30
0.0
 40
0.375023
100
AcDbArc
 50
82.234849
 51
98.03029
  0
LINE
  5
169
100
AcDbEntity
  8
CYAN
100
AcDbLine
 10
0.866082
 20
94.16797
 30
0.0
 11
0.775677
 21
94.155216
 31
0.0
  0
ARC
  5
16A
100
AcDbEntity
  8
CYAN
100
AcDbCircle
 10
0.828066
 20
93.783871
 30
0.0
 40
0.375023
100
AcDbArc
 50
98.030263
 51
114.999991
  0
LINE
  5
16B
100
AcDbEntity
  8
CYAN
100
AcDbLine
 10
0.669575
 20
94.123757
 30
0.0
 11
0.577525
 21
94.080833
 31
0.0
  0
ARC
  5
16C
100
AcDbEntity
  8
CYAN
100
AcDbCircle
 10
0.736016
 20
93.740947
 30
0.0
 40
0.375023
100
AcDbArc
 50
114.999991
 51
140.296402
  0
LINE
  5
16D
100
AcDbEntity
  8
CYAN
100
AcDbLine
 10
0.447489
 20
93.980518
 30
0.0
 11
0.399902
 21
93.923206
 31
0.0
  0
ARC
  5
16E
100
AcDbEntity
  8
CYAN
100
AcDbCircle
 10
0.688429
 20
93.683635
 30
0.0
 40
0.375023
100
AcDbArc
 50
140.296402
 51
170.160148
  0
LINE
  5
16F
100
AcDbEntity
  8
CYAN
100
AcDbLine
 10
0.318923
 20
93.747725
 30
0.0
 11
0.301765
 21
93.648797
 31
0.0
  0
LINE
  5
170
100
AcDbEntity
  8
CYAN
100
AcDbLine
 10
0.301765
 20
93.648797
 30
0.0
 11
0.056605
 21
93.534477
 31
0.0
  0
ARC
  5
171
100
AcDbEntity
  8
CYAN
100
AcDbCircle
 10
0.050001
 20
93.548639
 30
0.0
 40
0.015626
100
AcDbArc
 50
180.000005
 51
294.999999
  0
LINE
  5
172
100
AcDbEntity
  8
CYAN
100
AcDbLine
 10
0.034375
 20
93.548639
 30
0.0
 11
0.034375
 21
94.556466
 31
0.0
  0
ARC
  5
173
100
AcDbEntity
  8
CYAN
100
AcDbCircle
 10
0.050001
 20
94.556466
 30
0.0
 40
0.015626
100
AcDbArc
 50
115.000127
 51
179.999978
  0
LINE
  5
174
100
AcDbEntity
  8
CYAN
100
AcDbLine
 10
0.043397
 20
94.570628
 30
0.0
 11
0.333463
 21
94.705888
 31
0.0
  0
LINE
  5
175
100
AcDbEntity
  8
CYAN
100
AcDbLine
 10
0.333463
 20
94.705888
 30
0.0
 11
0.421832
 21
94.64481
 31
0.0
  0
ARC
  5
176
100
AcDbEntity
  8
CYAN
100
AcDbCircle
 10
0.63506
 20
94.953316
 30
0.0
 40
0.375023
100
AcDbArc
 50
-124.650816
 51
-110.772254
  0
LINE
  5
177
100
AcDbEntity
  8
CYAN
100
AcDbLine
 10
0.502057
 20
94.602671
 30
0.0
 11
0.539378
 21
94.588515
 31
0.0
  0
ARC
  5
178
100
AcDbEntity
  8
CYAN
100
AcDbCircle
 10
0.672381
 20
94.93916
 30
0.0
 40
0.375023
100
AcDbArc
 50
-110.772254
 51
-81.869899
  0
LINE
  5
179
100
AcDbEntity
  8
CYAN
100
AcDbLine
 10
0.725417
 20
94.567906
 30
0.0
 11
0.891849
 21
94.591682
 31
0.0
  0
ARC
  5
17A
100
AcDbEntity
  8
CYAN
100
AcDbCircle
 10
0.856491
 20
94.839185
 30
0.0
 40
0.250015
100
AcDbArc
 50
-81.869905
 51
-51.632521
  0
LINE
  5
17B
100
AcDbEntity
  8
CYAN
100
AcDbLine
 10
1.011677
 20
94.643161
 30
0.0
 11
1.018969
 21
94.648935
 31
0.0
  0
LINE
  5
17C
100
AcDbEntity
  8
CYAN
100
AcDbLine
 10
1.018969
 20
94.648935
 30
0.0
 11
1.090254
 21
94.689791
 31
0.0
  0
ARC
  5
17D
100
AcDbEntity
  8
CYAN
100
AcDbCircle
 10
0.934851
 20
94.960933
 30
0.0
 40
0.312519
100
AcDbArc
 50
-60.181145
 51
-30.232845
  0
LINE
  5
17E
100
AcDbEntity
  8
CYAN
100
AcDbLine
 10
1.204863
 20
94.803575
 30
0.0
 11
1.307394
 21
94.979509
 31
0.0
  0
ARC
  5
17F
100
AcDbEntity
  8
CYAN
100
AcDbCircle
 10
1.037382
 20
95.136867
 30
0.0
 40
0.312519
100
AcDbArc
 50
-30.232859
 51
-22.619886
  0
LINE
  5
180
100
AcDbEntity
  8
CYAN
100
AcDbLine
 10
1.325861
 20
95.016667
 30
0.0
 11
1.383692
 21
95.155462
 31
0.0
  0
ARC
  5
181
100
AcDbEntity
  8
CYAN
100
AcDbCircle
 10
1.527932
 20
95.095362
 30
0.0
 40
0.15626
100
AcDbArc
 50
148.501208
 51
157.380181
  0
LINE
  5
182
100
AcDbEntity
  8
CYAN
100
AcDbLine
 10
1.394697
 20
95.177005
 30
0.0
 11
1.435793
 21
95.244071
 31
0.0
  0
ARC
  5
183
100
AcDbEntity
  8
CYAN
100
AcDbCircle
 10
1.42247
 20
95.252235
 30
0.0
 40
0.015626
100
AcDbArc
 50
-31.498872
 51
90.651766
  0
LINE
  5
184
100
AcDbEntity
  8
CYAN
100
AcDbLine
 10
1.422292
 20
95.26786
 30
0.0
 11
1.203669
 21
95.265373
 31
0.0
  0
ARC
  5
185
100
AcDbEntity
  8
CYAN
100
AcDbCircle
 10
1.199403
 20
95.640372
 30
0.0
 40
0.375023
100
AcDbArc
 50
-97.765163
 51
-89.348259
  0
LINE
  5
186
100
AcDbEntity
  8
CYAN
100
AcDbLine
 10
1.148733
 20
95.268788
 30
0.0
 11
0.969141
 21
95.293277
 31
0.0
  0
ARC
  5
187
100
AcDbEntity
  8
CYAN
100
AcDbCircle
 10
0.918471
 20
94.921693
 30
0.0
 40
0.375023
100
AcDbArc
 50
82.234849
 51
98.03029
  0
LINE
  5
188
100
AcDbEntity
  8
CYAN
100
AcDbLine
 10
0.866082
 20
95.293039
 30
0.0
 11
0.775677
 21
95.280285
 31
0.0
  0
ARC
  5
189
100
AcDbEntity
  8
CYAN
100
AcDbCircle
 10
0.828066
 20
94.908939
 30
0.0
 40
0.375023
100
AcDbArc
 50
98.030263
 51
114.999991
  0
LINE
  5
18A
100
AcDbEntity
  8
CYAN
100
AcDbLine
 10
0.669575
 20
95.248825
 30
0.0
 11
0.577525
 21
95.205902
 31
0.0
  0
ARC
  5
18B
100
AcDbEntity
  8
CYAN
100
AcDbCircle
 10
0.736016
 20
94.866016
 30
0.0
 40
0.375023
100
AcDbArc
 50
114.999991
 51
140.296402
  0
LINE
  5
18C
100
AcDbEntity
  8
CYAN
100
AcDbLine
 10
0.447489
 20
95.105586
 30
0.0
 11
0.399902
 21
95.048275
 31
0.0
  0
ARC
  5
18D
100
AcDbEntity
  8
CYAN
100
AcDbCircle
 10
0.688429
 20
94.808704
 30
0.0
 40
0.375023
100
AcDbArc
 50
140.296402
 51
170.160148
  0
LINE
  5
18E
100
AcDbEntity
  8
CYAN
100
AcDbLine
 10
0.318923
 20
94.872794
 30
0.0
 11
0.301765
 21
94.773865
 31
0.0
  0
LINE
  5
18F
100
AcDbEntity
  8
CYAN
100
AcDbLine
 10
0.301765
 20
94.773865
 30
0.0
 11
0.056605
 21
94.659545
 31
0.0
  0
ARC
  5
190
100
AcDbEntity
  8
CYAN
100
AcDbCircle
 10
0.050001
 20
94.673707
 30
0.0
 40
0.015626
100
AcDbArc
 50
180.000005
 51
294.999999
  0
LINE
  5
191
100
AcDbEntity
  8
CYAN
100
AcDbLine
 10
0.034375
 20
94.673707
 30
0.0
 11
0.034375
 21
95.681535
 31
0.0
  0
ARC
  5
192
100
AcDbEntity
  8
CYAN
100
AcDbCircle
 10
0.050001
 20
95.681535
 30
0.0
 40
0.015626
100
AcDbArc
 50
115.000127
 51
179.999978
  0
LINE
  5
193
100
AcDbEntity
  8
CYAN
100
AcDbLine
 10
0.043397
 20
95.695697
 30
0.0
 11
0.333463
 21
95.830957
 31
0.0
  0
LINE
  5
194
100
AcDbEntity
  8
CYAN
100
AcDbLine
 10
0.333463
 20
95.830957
 30
0.0
 11
0.421832
 21
95.769879
 31
0.0
  0
ARC
  5
195
100
AcDbEntity
  8
CYAN
100
AcDbCircle
 10
0.63506
 20
96.078385
 30
0.0
 40
0.375023
100
AcDbArc
 50
-124.650816
 51
-110.772254
  0
LINE
  5
196
100
AcDbEntity
  8
CYAN
100
AcDbLine
 10
0.502057
 20
95.72774
 30
0.0
 11
0.539378
 21
95.713583
 31
0.0
  0
ARC
  5
197
100
AcDbEntity
  8
CYAN
100
AcDbCircle
 10
0.672381
 20
96.064229
 30
0.0
 40
0.375023
100
AcDbArc
 50
-110.772254
 51
-81.869899
  0
LINE
  5
198
100
AcDbEntity
  8
CYAN
100
AcDbLine
 10
0.725417
 20
95.692975
 30
0.0
 11
0.891849
 21
95.716751
 31
0.0
  0
ARC
  5
199
100
AcDbEntity
  8
CYAN
100
AcDbCircle
 10
0.856491
 20
95.964254
 30
0.0
 40
0.250015
100
AcDbArc
 50
-81.869905
 51
-51.632521
  0
LINE
  5
19A
100
AcDbEntity
  8
CYAN
100
AcDbLine
 10
1.011677
 20
95.76823
 30
0.0
 11
1.018969
 21
95.774003
 31
0.0
  0
LINE
  5
19B
100
AcDbEntity
  8
CYAN
100
AcDbLine
 10
1.018969
 20
95.774003
 30
0.0
 11
1.090254
 21
95.81486
 31
0.0
  0
ARC
  5
19C
100
AcDbEntity
  8
CYAN
100
AcDbCircle
 10
0.934851
 20
96.086002
 30
0.0
 40
0.312519
100
AcDbArc
 50
-60.181145
 51
-30.232845
  0
LINE
  5
19D
100
AcDbEntity
  8
CYAN
100
AcDbLine
 10
1.204863
 20
95.928644
 30
0.0
 11
1.307394
 21
96.104577
 31
0.0
  0
ARC
  5
19E
100
AcDbEntity
  8
CYAN
100
AcDbCircle
 10
1.037382
 20
96.261935
 30
0.0
 40
0.312519
100
AcDbArc
 50
-30.232859
 51
-22.619886
  0
LINE
  5
19F
100
AcDbEntity
  8
CYAN
100
AcDbLine
 10
1.325861
 20
96.141736
 30
0.0
 11
1.383692
 21
96.28053
 31
0.0
  0
ARC
  5
1A0
100
AcDbEntity
  8
CYAN
100
AcDbCircle
 10
1.527932
 20
96.220431
 30
0.0
 40
0.15626
100
AcDbArc
 50
148.501153
 51
157.38014
  0
CIRCLE
  5
1A1
100
AcDbEntity
  8
CYAN
100
AcDbCircle
 10
-0.000002
 20
90.015557
 30
0.0
 40
0.468779
  0
POINT
  5
1A2
100
AcDbEntity
  8
RED
  6
Continuous
100
AcDbPoint
 10
-0.000002
 20
90.015557
 30
0.0
1001
TCAD
1000
TC25ExternalObject
1002
{
1000
TCW30POINT
1000

1070
     0
1071
       -3
1040
1.0
1040
0.0
1000
Continuous
1000
RED
1070
    15
1070
    21
1071
        1
1071
      242
1010
-0.000002
1020
90.015557
1030
0.0
1070
     3
1071
        3
1000
$POINTSIZE
1070
     5
1040
0.25
1000
$POINTTYPE
1070
    18
1070
     5
1000
ExplodeScale
1070
     5
1040
1.0
1002
}
  0
ENDSEC
  0
SECTION
  2
OBJECTS
  0
DICTIONARY
  5
19
100
AcDbDictionary
280
     0
281
     1
  3
ACAD_GROUP
350
1A
  3
ACAD_MLINESTYLE
350
1B
  3
ACAD_LAYOUT
350
1E
  3
ACAD_PLOTSETTINGS
350
22
  3
ACAD_PLOTSTYLENAME
350
1F
  0
DICTIONARY
  5
1A
102
{ACAD_REACTORS
330
19
102
}
100
AcDbDictionary
280
     0
281
     1
  0
DICTIONARY
  5
1B
102
{ACAD_REACTORS
330
19
102
}
100
AcDbDictionary
280
     0
281
     1
  3
Standard
350
1C
  0
MLINESTYLE
  5
1C
100
AcDbMlineStyle
  2
STANDARD
 70
     0
  3

 62
   256
 51
90.0
 52
90.0
 71
     2
 49
0.5
 62
   256
  6
BYLAYER
 49
-0.5
 62
   256
  6
BYLAYER
  0
ACDBDICTIONARYWDFLT
  5
1F
102
{ACAD_REACTORS
330
19
102
}
100
AcDbDictionary
281
     1
  3
Normal
350
1D
100
AcDbDictionaryWithDefault
340
1D
  0
ACDBPLACEHOLDER
  5
1D
102
{ACAD_REACTORS
330
1F
102
}
  0
LAYOUT
  5
21
102
{ACAD_REACTORS
330
1E
102
}
100
AcDbPlotSettings
  1

  2

  4

  6

 40
0.0
 41
0.0
 42
0.0
 43
0.0
 44
0.0
 45
0.0
 46
0.0
 47
0.0
 48
0.0
 49
0.0
140
0.0
141
0.0
142
1.0
143
1.0
 70
     0
 72
     0
 73
     0
 74
     0
  7

 75
     0
147
1.0
148
0.0
149
0.0
100
AcDbLayout
  1
Layout1
 70
     0
 71
     0
 10
0.0
 20
0.0
 11
0.0
 21
0.0
 12
0.0
 22
0.0
 32
0.0
 14
0.0
 24
0.0
 34
0.0
 15
0.0
 25
0.0
 35
0.0
146
0.0
 13
0.0
 23
0.0
 33
0.0
 16
0.0
 26
0.0
 36
0.0
 17
0.0
 27
0.0
 37
0.0
 76
     0
330
B
331
0
345
0
346
0
  0
DICTIONARY
  5
1E
102
{ACAD_REACTORS
330
19
102
}
100
AcDbDictionary
280
     0
281
     1
  3
Model
350
1A3
  3
_Paper_Space
350
1A4
  0
DICTIONARY
  5
22
102
{ACAD_REACTORS
330
19
102
}
100
AcDbDictionary
280
     0
281
     1
  0
LAYOUT
  5
1A3
100
AcDbPlotSettings
  1

  2

  4

  6

 40
0.0
 41
0.0
 42
0.0
 43
0.0
 44
0.0
 45
0.0
 46
0.0
 47
0.0
 48
0.0
 49
0.0
140
0.0
141
0.0
142
1.0
143
1.0
 70
     0
 72
     0
 73
     0
 74
     0
  7

 75
     0
147
1.0
148
0.0
149
0.0
100
AcDbLayout
  1
Model
 70
     0
 71
     0
 10
0.0
 20
0.0
 11
0.0
 21
0.0
 12
0.0
 22
0.0
 32
0.0
 14
0.0
 24
0.0
 34
0.0
 15
0.0
 25
0.0
 35
0.0
146
0.0
 13
0.0
 23
0.0
 33
0.0
 16
0.0
 26
0.0
 36
0.0
 17
0.0
 27
0.0
 37
0.0
 76
     0
330
A
331
0
345
0
346
0
  0
LAYOUT
  5
1A4
100
AcDbPlotSettings
  1

  2

  4

  6

 40
0.0
 41
0.0
 42
0.0
 43
0.0
 44
0.0
 45
0.0
 46
0.0
 47
0.0
 48
0.0
 49
0.0
140
0.0
141
0.0
142
1.0
143
1.0
 70
     0
 72
     0
 73
     0
 74
     0
  7

 75
     0
147
1.0
148
0.0
149
0.0
100
AcDbLayout
  1
_Paper_Space
 70
     1
 71
     1
 10
0.0
 20
0.0
 11
0.0
 21
0.0
 12
0.0
 22
0.0
 32
0.0
 14
0.0
 24
0.0
 34
0.0
 15
0.0
 25
0.0
 35
0.0
146
0.0
 13
0.0
 23
0.0
 33
0.0
 16
0.0
 26
0.0
 36
0.0
 17
0.0
 27
0.0
 37
0.0
 76
     0
330
B
331
0
345
0
346
0
  0
ENDSEC
  0
EOF
