0
SECTION
2
HEADER
9
$ACADVER
1
AC1003
9
$INSBASE
10
0.0
20
0.0
30
0.0
9
$EXTMIN
10
0.000
20
0.000
30
0.0
9
$EXTMAX
10
157.000
20
220.000
30
0.0
9
$LIMMIN
10
0.000
20
0.000
9
$LIMMAX
10
157.000
20
220.000
9
$LTSCALE
40
1.0
9
$LUNITS
70
2
9
$LUPREC
70
3
9
$LIMCHECK
70
0
9
$UCSNAME
2

9
$UCSORG
10
0.0
20
0.0
30
0.0
9
$UCSXDIR
10
1.0
20
0.0
30
0.0
9
$UCSYDIR
10
0.0
20
1.0
30
0.0
9
$WORLDVIEW
70
1
9
$UNITMODE
70
0
0
ENDSEC
0
SECTION
2
TABLES
0
TABLE
2
VPORT
70
1
0
VPORT
2
*ACTIVE
70
0
10
0.0
20
0.0
11
1.0
21
1.0
12
78.500
22
110.000
13
0.0
23
0.0
14
1.0
24
1.0
15
0.0
25
0.0
16
0.0
26
0.0
36
1.0
17
0.0
27
0.0
37
0.0
40
500.0
41
1.401
42
50.0
43
0.0
44
0.0
50
0.0
51
0.0
71
0
72
100
73
1
74
1
75
0
76
0
77
0
78
0
0
ENDTAB
0
TABLE
2
LTYPE
70
1
0
LTYPE
2
CONTINUOUS
70
64
3
Solid line
72
65
73
0
40
0.000
0
ENDTAB
0
TABLE
2
LAYER
70
1
0
LAYER
2
0
70
64
62
7
6
CONTINUOUS
0
ENDTAB
0
ENDSEC
0
SECTION
2
BLOCKS
0
ENDSEC
0
SECTION
2
ENTITIES
0
POLYLINE
8
0
6
CONTINUOUS
66
1
62
251
10
0.0
20
0.0
30
0.000000
0
VERTEX
8
0
10
48.000000
20
193.000000
0
VERTEX
8
0
10
47.000000
20
193.000000
0
SEQEND
0
POLYLINE
8
0
6
CONTINUOUS
66
1
62
250
10
0.0
20
0.0
30
0.000000
0
VERTEX
8
0
10
47.000000
20
192.000000
0
VERTEX
8
0
10
47.000000
20
193.000000
0
SEQEND
0
POLYLINE
8
0
6
CONTINUOUS
66
1
62
250
10
0.0
20
0.0
30
0.000000
0
VERTEX
8
0
10
39.000000
20
176.000000
0
VERTEX
8
0
10
40.769231
20
178.153846
0
VERTEX
8
0
10
46.594595
20
187.067568
0
VERTEX
8
0
10
47.000000
20
192.000000
0
SEQEND
0
POLYLINE
8
0
6
CONTINUOUS
66
1
62
251
10
0.0
20
0.0
30
0.000000
0
VERTEX
8
0
10
39.000000
20
176.000000
0
VERTEX
8
0
10
40.000000
20
174.000000
0
VERTEX
8
0
10
43.000000
20
173.000000
0
VERTEX
8
0
10
46.000000
20
174.000000
0
VERTEX
8
0
10
51.000000
20
179.000000
0
VERTEX
8
0
10
52.000000
20
183.000000
0
VERTEX
8
0
10
51.000000
20
191.000000
0
VERTEX
8
0
10
49.000000
20
193.000000
0
VERTEX
8
0
10
48.000000
20
193.000000
0
SEQEND
0
POLYLINE
8
0
6
CONTINUOUS
66
1
62
252
10
0.0
20
0.0
30
0.000000
0
VERTEX
8
0
10
58.000000
20
173.000000
0
VERTEX
8
0
10
57.560976
20
180.951220
0
VERTEX
8
0
10
55.800000
20
185.900000
0
VERTEX
8
0
10
55.000000
20
187.000000
0
SEQEND
0
POLYLINE
8
0
6
CONTINUOUS
66
1
62
7
10
0.0
20
0.0
30
0.000000
0
VERTEX
8
0
10
18.000000
20
161.000000
0
VERTEX
8
0
10
16.000000
20
165.000000
0
VERTEX
8
0
10
16.000000
20
172.000000
0
VERTEX
8
0
10
18.200000
20
178.900000
0
VERTEX
8
0
10
19.800000
20
183.100000
0
VERTEX
8
0
10
22.000000
20
187.000000
0
VERTEX
8
0
10
30.000000
20
194.000000
0
VERTEX
8
0
10
35.000000
20
194.000000
0
VERTEX
8
0
10
36.615385
20
189.923077
0
VERTEX
8
0
10
39.000000
20
176.000000
0
SEQEND
0
POLYLINE
8
0
6
CONTINUOUS
66
1
62
7
10
0.0
20
0.0
30
0.000000
0
VERTEX
8
0
10
18.000000
20
160.000000
0
VERTEX
8
0
10
18.000000
20
161.000000
0
SEQEND
0
POLYLINE
8
0
6
CONTINUOUS
66
1
62
7
10
0.0
20
0.0
30
0.000000
0
VERTEX
8
0
10
19.000000
20
160.000000
0
VERTEX
8
0
10
18.000000
20
160.000000
0
SEQEND
0
POLYLINE
8
0
6
CONTINUOUS
66
1
62
250
10
0.0
20
0.0
30
0.000000
0
VERTEX
8
0
10
18.000000
20
159.000000
0
VERTEX
8
0
10
18.000000
20
160.000000
0
SEQEND
0
POLYLINE
8
0
6
CONTINUOUS
66
1
62
250
10
0.0
20
0.0
30
0.000000
0
VERTEX
8
0
10
22.000000
20
159.000000
0
VERTEX
8
0
10
21.000000
20
160.000000
0
VERTEX
8
0
10
19.000000
20
160.000000
0
SEQEND
0
POLYLINE
8
0
6
CONTINUOUS
66
1
62
251
10
0.0
20
0.0
30
0.000000
0
VERTEX
8
0
10
23.000000
20
159.000000
0
VERTEX
8
0
10
22.000000
20
159.000000
0
SEQEND
0
POLYLINE
8
0
6
CONTINUOUS
66
1
62
7
10
0.0
20
0.0
30
0.000000
0
VERTEX
8
0
10
24.000000
20
159.000000
0
VERTEX
8
0
10
23.000000
20
159.000000
0
SEQEND
0
POLYLINE
8
0
6
CONTINUOUS
66
1
62
7
10
0.0
20
0.0
30
0.000000
0
VERTEX
8
0
10
23.000000
20
158.000000
0
VERTEX
8
0
10
23.000000
20
159.000000
0
SEQEND
0
POLYLINE
8
0
6
CONTINUOUS
66
1
62
250
10
0.0
20
0.0
30
0.000000
0
VERTEX
8
0
10
116.000000
20
158.000000
0
VERTEX
8
0
10
116.000000
20
159.000000
0
SEQEND
0
POLYLINE
8
0
6
CONTINUOUS
66
1
62
250
10
0.0
20
0.0
30
0.000000
0
VERTEX
8
0
10
117.000000
20
158.000000
0
VERTEX
8
0
10
116.000000
20
158.000000
0
SEQEND
0
POLYLINE
8
0
6
CONTINUOUS
66
1
62
7
10
0.0
20
0.0
30
0.000000
0
VERTEX
8
0
10
99.000000
20
157.000000
0
VERTEX
8
0
10
98.000000
20
157.000000
0
SEQEND
0
POLYLINE
8
0
6
CONTINUOUS
66
1
62
7
10
0.0
20
0.0
30
0.000000
0
VERTEX
8
0
10
100.000000
20
157.000000
0
VERTEX
8
0
10
99.000000
20
157.000000
0
SEQEND
0
POLYLINE
8
0
6
CONTINUOUS
66
1
62
250
10
0.0
20
0.0
30
0.000000
0
VERTEX
8
0
10
85.000000
20
156.000000
0
VERTEX
8
0
10
86.000000
20
157.000000
0
VERTEX
8
0
10
98.000000
20
157.000000
0
SEQEND
0
POLYLINE
8
0
6
CONTINUOUS
66
1
62
250
10
0.0
20
0.0
30
0.000000
0
VERTEX
8
0
10
99.000000
20
156.000000
0
VERTEX
8
0
10
99.000000
20
157.000000
0
SEQEND
0
POLYLINE
8
0
6
CONTINUOUS
66
1
62
251
10
0.0
20
0.0
30
0.000000
0
VERTEX
8
0
10
85.000000
20
155.000000
0
VERTEX
8
0
10
84.000000
20
155.000000
0
SEQEND
0
POLYLINE
8
0
6
CONTINUOUS
66
1
62
253
10
0.0
20
0.0
30
0.000000
0
VERTEX
8
0
10
85.000000
20
155.000000
0
VERTEX
8
0
10
85.000000
20
156.000000
0
SEQEND
0
POLYLINE
8
0
6
CONTINUOUS
66
1
62
250
10
0.0
20
0.0
30
0.000000
0
VERTEX
8
0
10
103.000000
20
155.000000
0
VERTEX
8
0
10
101.000000
20
157.000000
0
VERTEX
8
0
10
100.000000
20
157.000000
0
SEQEND
0
POLYLINE
8
0
6
CONTINUOUS
66
1
62
7
10
0.0
20
0.0
30
0.000000
0
VERTEX
8
0
10
104.000000
20
155.000000
0
VERTEX
8
0
10
103.000000
20
155.000000
0
SEQEND
0
POLYLINE
8
0
6
CONTINUOUS
66
1
62
250
10
0.0
20
0.0
30
0.000000
0
VERTEX
8
0
10
105.000000
20
155.000000
0
VERTEX
8
0
10
104.000000
20
155.000000
0
SEQEND
0
POLYLINE
8
0
6
CONTINUOUS
66
1
62
250
10
0.0
20
0.0
30
0.000000
0
VERTEX
8
0
10
109.000000
20
155.000000
0
VERTEX
8
0
10
111.200000
20
160.900000
0
VERTEX
8
0
10
114.000000
20
165.000000
0
VERTEX
8
0
10
115.647059
20
161.911765
0
VERTEX
8
0
10
116.000000
20
159.000000
0
SEQEND
0
POLYLINE
8
0
6
CONTINUOUS
66
1
62
250
10
0.0
20
0.0
30
0.000000
0
VERTEX
8
0
10
37.000000
20
154.000000
0
VERTEX
8
0
10
27.000000
20
163.000000
0
VERTEX
8
0
10
25.769231
20
161.153846
0
VERTEX
8
0
10
24.000000
20
159.000000
0
SEQEND
0
POLYLINE
8
0
6
CONTINUOUS
66
1
62
251
10
0.0
20
0.0
30
0.000000
0
VERTEX
8
0
10
104.000000
20
154.000000
0
VERTEX
8
0
10
104.000000
20
155.000000
0
SEQEND
0
POLYLINE
8
0
6
CONTINUOUS
66
1
62
250
10
0.0
20
0.0
30
0.000000
0
VERTEX
8
0
10
108.000000
20
154.000000
0
VERTEX
8
0
10
106.000000
20
154.000000
0
VERTEX
8
0
10
105.000000
20
155.000000
0
SEQEND
0
POLYLINE
8
0
6
CONTINUOUS
66
1
62
7
10
0.0
20
0.0
30
0.000000
0
VERTEX
8
0
10
109.000000
20
154.000000
0
VERTEX
8
0
10
108.000000
20
154.000000
0
SEQEND
0
POLYLINE
8
0
6
CONTINUOUS
66
1
62
7
10
0.0
20
0.0
30
0.000000
0
VERTEX
8
0
10
109.000000
20
154.000000
0
VERTEX
8
0
10
109.000000
20
155.000000
0
SEQEND
0
POLYLINE
8
0
6
CONTINUOUS
66
1
62
7
10
0.0
20
0.0
30
0.000000
0
VERTEX
8
0
10
110.000000
20
154.000000
0
VERTEX
8
0
10
109.000000
20
154.000000
0
SEQEND
0
POLYLINE
8
0
6
CONTINUOUS
66
1
62
7
10
0.0
20
0.0
30
0.000000
0
VERTEX
8
0
10
112.000000
20
154.000000
0
VERTEX
8
0
10
113.000000
20
156.000000
0
VERTEX
8
0
10
114.900000
20
157.200000
0
VERTEX
8
0
10
116.000000
20
158.000000
0
SEQEND
0
POLYLINE
8
0
6
CONTINUOUS
66
1
62
250
10
0.0
20
0.0
30
0.000000
0
VERTEX
8
0
10
111.000000
20
153.000000
0
VERTEX
8
0
10
110.000000
20
154.000000
0
SEQEND
0
POLYLINE
8
0
6
CONTINUOUS
66
1
62
7
10
0.0
20
0.0
30
0.000000
0
VERTEX
8
0
10
112.000000
20
153.000000
0
VERTEX
8
0
10
111.000000
20
153.000000
0
SEQEND
0
POLYLINE
8
0
6
CONTINUOUS
66
1
62
7
10
0.0
20
0.0
30
0.000000
0
VERTEX
8
0
10
112.000000
20
153.000000
0
VERTEX
8
0
10
112.000000
20
154.000000
0
SEQEND
0
POLYLINE
8
0
6
CONTINUOUS
66
1
62
251
10
0.0
20
0.0
30
0.000000
0
VERTEX
8
0
10
121.000000
20
152.000000
0
VERTEX
8
0
10
121.000000
20
155.000000
0
VERTEX
8
0
10
120.000000
20
156.000000
0
SEQEND
0
POLYLINE
8
0
6
CONTINUOUS
66
1
62
251
10
0.0
20
0.0
30
0.000000
0
VERTEX
8
0
10
120.000000
20
151.000000
0
VERTEX
8
0
10
121.000000
20
152.000000
0
SEQEND
0
POLYLINE
8
0
6
CONTINUOUS
66
1
62
252
10
0.0
20
0.0
30
0.000000
0
VERTEX
8
0
10
122.000000
20
151.000000
0
VERTEX
8
0
10
121.000000
20
152.000000
0
SEQEND
0
POLYLINE
8
0
6
CONTINUOUS
66
1
62
252
10
0.0
20
0.0
30
0.000000
0
VERTEX
8
0
10
123.000000
20
151.000000
0
VERTEX
8
0
10
122.000000
20
151.000000
0
SEQEND
0
POLYLINE
8
0
6
CONTINUOUS
66
1
62
250
10
0.0
20
0.0
30
0.000000
0
VERTEX
8
0
10
123.000000
20
151.000000
0
VERTEX
8
0
10
125.000000
20
154.000000
0
VERTEX
8
0
10
125.000000
20
159.000000
0
VERTEX
8
0
10
123.000000
20
162.000000
0
VERTEX
8
0
10
117.000000
20
158.000000
0
SEQEND
0
POLYLINE
8
0
6
CONTINUOUS
66
1
62
252
10
0.0
20
0.0
30
0.000000
0
VERTEX
8
0
10
105.000000
20
150.000000
0
VERTEX
8
0
10
104.000000
20
154.000000
0
SEQEND
0
POLYLINE
8
0
6
CONTINUOUS
66
1
62
7
10
0.0
20
0.0
30
0.000000
0
VERTEX
8
0
10
123.000000
20
150.000000
0
VERTEX
8
0
10
123.000000
20
151.000000
0
SEQEND
0
POLYLINE
8
0
6
CONTINUOUS
66
1
62
251
10
0.0
20
0.0
30
0.000000
0
VERTEX
8
0
10
104.000000
20
149.000000
0
VERTEX
8
0
10
99.000000
20
156.000000
0
SEQEND
0
POLYLINE
8
0
6
CONTINUOUS
66
1
62
253
10
0.0
20
0.0
30
0.000000
0
VERTEX
8
0
10
105.000000
20
149.000000
0
VERTEX
8
0
10
104.000000
20
149.000000
0
SEQEND
0
POLYLINE
8
0
6
CONTINUOUS
66
1
62
253
10
0.0
20
0.0
30
0.000000
0
VERTEX
8
0
10
105.000000
20
149.000000
0
VERTEX
8
0
10
105.000000
20
150.000000
0
SEQEND
0
POLYLINE
8
0
6
CONTINUOUS
66
1
62
7
10
0.0
20
0.0
30
0.000000
0
VERTEX
8
0
10
115.000000
20
148.000000
0
VERTEX
8
0
10
115.000000
20
150.000000
0
VERTEX
8
0
10
112.000000
20
153.000000
0
SEQEND
0
POLYLINE
8
0
6
CONTINUOUS
66
1
62
250
10
0.0
20
0.0
30
0.000000
0
VERTEX
8
0
10
115.000000
20
147.000000
0
VERTEX
8
0
10
115.000000
20
148.000000
0
SEQEND
0
POLYLINE
8
0
6
CONTINUOUS
66
1
62
7
10
0.0
20
0.0
30
0.000000
0
VERTEX
8
0
10
116.000000
20
147.000000
0
VERTEX
8
0
10
115.000000
20
147.000000
0
SEQEND
0
POLYLINE
8
0
6
CONTINUOUS
66
1
62
250
10
0.0
20
0.0
30
0.000000
0
VERTEX
8
0
10
118.000000
20
145.000000
0
VERTEX
8
0
10
116.000000
20
147.000000
0
SEQEND
0
POLYLINE
8
0
6
CONTINUOUS
66
1
62
250
10
0.0
20
0.0
30
0.000000
0
VERTEX
8
0
10
118.000000
20
145.000000
0
VERTEX
8
0
10
123.000000
20
150.000000
0
SEQEND
0
POLYLINE
8
0
6
CONTINUOUS
66
1
62
250
10
0.0
20
0.0
30
0.000000
0
VERTEX
8
0
10
19.000000
20
143.000000
0
VERTEX
8
0
10
16.700000
20
147.900000
0
VERTEX
8
0
10
16.000000
20
149.000000
0
VERTEX
8
0
10
16.000000
20
154.000000
0
VERTEX
8
0
10
18.000000
20
159.000000
0
SEQEND
0
POLYLINE
8
0
6
CONTINUOUS
66
1
62
250
10
0.0
20
0.0
30
0.000000
0
VERTEX
8
0
10
19.000000
20
143.000000
0
VERTEX
8
0
10
20.000000
20
144.000000
0
VERTEX
8
0
10
23.000000
20
143.000000
0
VERTEX
8
0
10
25.000000
20
145.000000
0
VERTEX
8
0
10
25.000000
20
149.000000
0
VERTEX
8
0
10
23.700000
20
151.900000
0
VERTEX
8
0
10
23.300000
20
153.100000
0
VERTEX
8
0
10
22.000000
20
157.000000
0
VERTEX
8
0
10
23.000000
20
158.000000
0
SEQEND
0
POLYLINE
8
0
6
CONTINUOUS
66
1
62
252
10
0.0
20
0.0
30
0.000000
0
VERTEX
8
0
10
39.000000
20
143.000000
0
VERTEX
8
0
10
28.000000
20
147.000000
0
SEQEND
0
POLYLINE
8
0
6
CONTINUOUS
66
1
62
251
10
0.0
20
0.0
30
0.000000
0
VERTEX
8
0
10
85.000000
20
142.000000
0
VERTEX
8
0
10
84.000000
20
142.000000
0
SEQEND
0
POLYLINE
8
0
6
CONTINUOUS
66
1
62
7
10
0.0
20
0.0
30
0.000000
0
VERTEX
8
0
10
113.000000
20
142.000000
0
VERTEX
8
0
10
115.000000
20
147.000000
0
SEQEND
0
POLYLINE
8
0
6
CONTINUOUS
66
1
62
7
10
0.0
20
0.0
30
0.000000
0
VERTEX
8
0
10
72.000000
20
141.000000
0
VERTEX
8
0
10
71.000000
20
142.000000
0
VERTEX
8
0
10
71.000000
20
145.000000
0
VERTEX
8
0
10
74.000000
20
149.000000
0
VERTEX
8
0
10
78.900000
20
153.200000
0
VERTEX
8
0
10
84.000000
20
155.000000
0
SEQEND
0
POLYLINE
8
0
6
CONTINUOUS
66
1
62
251
10
0.0
20
0.0
30
0.000000
0
VERTEX
8
0
10
72.000000
20
141.000000
0
VERTEX
8
0
10
75.000000
20
144.000000
0
VERTEX
8
0
10
80.000000
20
144.000000
0
VERTEX
8
0
10
82.900000
20
142.700000
0
VERTEX
8
0
10
84.000000
20
142.000000
0
SEQEND
0
POLYLINE
8
0
6
CONTINUOUS
66
1
62
251
10
0.0
20
0.0
30
0.000000
0
VERTEX
8
0
10
84.000000
20
141.000000
0
VERTEX
8
0
10
84.000000
20
142.000000
0
SEQEND
0
POLYLINE
8
0
6
CONTINUOUS
66
1
62
251
10
0.0
20
0.0
30
0.000000
0
VERTEX
8
0
10
109.000000
20
141.000000
0
VERTEX
8
0
10
108.700000
20
142.900000
0
VERTEX
8
0
10
105.800000
20
147.900000
0
VERTEX
8
0
10
105.000000
20
149.000000
0
SEQEND
0
POLYLINE
8
0
6
CONTINUOUS
66
1
62
7
10
0.0
20
0.0
30
0.000000
0
VERTEX
8
0
10
113.000000
20
141.000000
0
VERTEX
8
0
10
112.000000
20
141.000000
0
SEQEND
0
POLYLINE
8
0
6
CONTINUOUS
66
1
62
7
10
0.0
20
0.0
30
0.000000
0
VERTEX
8
0
10
113.000000
20
141.000000
0
VERTEX
8
0
10
113.000000
20
142.000000
0
SEQEND
0
POLYLINE
8
0
6
CONTINUOUS
66
1
62
7
10
0.0
20
0.0
30
0.000000
0
VERTEX
8
0
10
114.000000
20
141.000000
0
VERTEX
8
0
10
113.000000
20
141.000000
0
SEQEND
0
POLYLINE
8
0
6
CONTINUOUS
66
1
62
250
10
0.0
20
0.0
30
0.000000
0
VERTEX
8
0
10
72.000000
20
140.000000
0
VERTEX
8
0
10
71.000000
20
140.000000
0
SEQEND
0
POLYLINE
8
0
6
CONTINUOUS
66
1
62
250
10
0.0
20
0.0
30
0.000000
0
VERTEX
8
0
10
72.000000
20
140.000000
0
VERTEX
8
0
10
72.000000
20
141.000000
0
SEQEND
0
POLYLINE
8
0
6
CONTINUOUS
66
1
62
7
10
0.0
20
0.0
30
0.000000
0
VERTEX
8
0
10
100.000000
20
140.000000
0
VERTEX
8
0
10
94.100000
20
144.200000
0
VERTEX
8
0
10
93.000000
20
145.000000
0
VERTEX
8
0
10
89.000000
20
145.000000
0
VERTEX
8
0
10
87.153846
20
143.769231
0
VERTEX
8
0
10
85.000000
20
142.000000
0
SEQEND
0
POLYLINE
8
0
6
CONTINUOUS
66
1
62
251
10
0.0
20
0.0
30
0.000000
0
VERTEX
8
0
10
109.000000
20
140.000000
0
VERTEX
8
0
10
109.000000
20
141.000000
0
SEQEND
0
POLYLINE
8
0
6
CONTINUOUS
66
1
62
7
10
0.0
20
0.0
30
0.000000
0
VERTEX
8
0
10
110.000000
20
140.000000
0
VERTEX
8
0
10
109.000000
20
140.000000
0
SEQEND
0
POLYLINE
8
0
6
CONTINUOUS
66
1
62
7
10
0.0
20
0.0
30
0.000000
0
VERTEX
8
0
10
110.000000
20
140.000000
0
VERTEX
8
0
10
112.000000
20
141.000000
0
SEQEND
0
POLYLINE
8
0
6
CONTINUOUS
66
1
62
250
10
0.0
20
0.0
30
0.000000
0
VERTEX
8
0
10
116.000000
20
140.000000
0
VERTEX
8
0
10
114.000000
20
141.000000
0
SEQEND
0
POLYLINE
8
0
6
CONTINUOUS
66
1
62
250
10
0.0
20
0.0
30
0.000000
0
VERTEX
8
0
10
117.000000
20
140.000000
0
VERTEX
8
0
10
116.000000
20
140.000000
0
SEQEND
0
POLYLINE
8
0
6
CONTINUOUS
66
1
62
250
10
0.0
20
0.0
30
0.000000
0
VERTEX
8
0
10
117.000000
20
140.000000
0
VERTEX
8
0
10
118.000000
20
141.000000
0
VERTEX
8
0
10
118.000000
20
145.000000
0
SEQEND
0
POLYLINE
8
0
6
CONTINUOUS
66
1
62
252
10
0.0
20
0.0
30
0.000000
0
VERTEX
8
0
10
69.000000
20
139.000000
0
VERTEX
8
0
10
71.000000
20
140.000000
0
SEQEND
0
POLYLINE
8
0
6
CONTINUOUS
66
1
62
250
10
0.0
20
0.0
30
0.000000
0
VERTEX
8
0
10
72.000000
20
139.000000
0
VERTEX
8
0
10
72.000000
20
140.000000
0
SEQEND
0
POLYLINE
8
0
6
CONTINUOUS
66
1
62
251
10
0.0
20
0.0
30
0.000000
0
VERTEX
8
0
10
100.000000
20
139.000000
0
VERTEX
8
0
10
100.000000
20
140.000000
0
SEQEND
0
POLYLINE
8
0
6
CONTINUOUS
66
1
62
253
10
0.0
20
0.0
30
0.000000
0
VERTEX
8
0
10
101.000000
20
139.000000
0
VERTEX
8
0
10
100.000000
20
139.000000
0
SEQEND
0
POLYLINE
8
0
6
CONTINUOUS
66
1
62
251
10
0.0
20
0.0
30
0.000000
0
VERTEX
8
0
10
106.000000
20
139.000000
0
VERTEX
8
0
10
106.000000
20
140.000000
0
VERTEX
8
0
10
98.000000
20
148.000000
0
VERTEX
8
0
10
88.900000
20
152.700000
0
VERTEX
8
0
10
85.000000
20
155.000000
0
SEQEND
0
POLYLINE
8
0
6
CONTINUOUS
66
1
62
253
10
0.0
20
0.0
30
0.000000
0
VERTEX
8
0
10
116.000000
20
139.000000
0
VERTEX
8
0
10
115.000000
20
139.000000
0
SEQEND
0
POLYLINE
8
0
6
CONTINUOUS
66
1
62
250
10
0.0
20
0.0
30
0.000000
0
VERTEX
8
0
10
116.000000
20
139.000000
0
VERTEX
8
0
10
116.000000
20
140.000000
0
SEQEND
0
POLYLINE
8
0
6
CONTINUOUS
66
1
62
252
10
0.0
20
0.0
30
0.000000
0
VERTEX
8
0
10
68.000000
20
138.000000
0
VERTEX
8
0
10
68.000000
20
139.000000
0
VERTEX
8
0
10
69.000000
20
139.000000
0
SEQEND
0
POLYLINE
8
0
6
CONTINUOUS
66
1
62
251
10
0.0
20
0.0
30
0.000000
0
VERTEX
8
0
10
106.000000
20
138.000000
0
VERTEX
8
0
10
106.000000
20
139.000000
0
SEQEND
0
POLYLINE
8
0
6
CONTINUOUS
66
1
62
7
10
0.0
20
0.0
30
0.000000
0
VERTEX
8
0
10
107.000000
20
138.000000
0
VERTEX
8
0
10
106.000000
20
138.000000
0
SEQEND
0
POLYLINE
8
0
6
CONTINUOUS
66
1
62
7
10
0.0
20
0.0
30
0.000000
0
VERTEX
8
0
10
107.000000
20
138.000000
0
VERTEX
8
0
10
109.000000
20
140.000000
0
SEQEND
0
POLYLINE
8
0
6
CONTINUOUS
66
1
62
250
10
0.0
20
0.0
30
0.000000
0
VERTEX
8
0
10
113.000000
20
138.000000
0
VERTEX
8
0
10
112.000000
20
138.000000
0
SEQEND
0
POLYLINE
8
0
6
CONTINUOUS
66
1
62
251
10
0.0
20
0.0
30
0.000000
0
VERTEX
8
0
10
113.000000
20
138.000000
0
VERTEX
8
0
10
115.000000
20
139.000000
0
SEQEND
0
POLYLINE
8
0
6
CONTINUOUS
66
1
62
251
10
0.0
20
0.0
30
0.000000
0
VERTEX
8
0
10
75.000000
20
137.000000
0
VERTEX
8
0
10
73.000000
20
137.000000
0
VERTEX
8
0
10
72.000000
20
139.000000
0
SEQEND
0
POLYLINE
8
0
6
CONTINUOUS
66
1
62
250
10
0.0
20
0.0
30
0.000000
0
VERTEX
8
0
10
95.000000
20
137.000000
0
VERTEX
8
0
10
94.000000
20
137.000000
0
SEQEND
0
POLYLINE
8
0
6
CONTINUOUS
66
1
62
251
10
0.0
20
0.0
30
0.000000
0
VERTEX
8
0
10
96.000000
20
137.000000
0
VERTEX
8
0
10
95.000000
20
137.000000
0
SEQEND
0
POLYLINE
8
0
6
CONTINUOUS
66
1
62
252
10
0.0
20
0.0
30
0.000000
0
VERTEX
8
0
10
96.000000
20
137.000000
0
VERTEX
8
0
10
98.000000
20
137.000000
0
VERTEX
8
0
10
100.000000
20
139.000000
0
SEQEND
0
POLYLINE
8
0
6
CONTINUOUS
66
1
62
251
10
0.0
20
0.0
30
0.000000
0
VERTEX
8
0
10
104.000000
20
137.000000
0
VERTEX
8
0
10
102.000000
20
139.000000
0
VERTEX
8
0
10
101.000000
20
139.000000
0
SEQEND
0
POLYLINE
8
0
6
CONTINUOUS
66
1
62
251
10
0.0
20
0.0
30
0.000000
0
VERTEX
8
0
10
105.000000
20
137.000000
0
VERTEX
8
0
10
104.000000
20
137.000000
0
SEQEND
0
POLYLINE
8
0
6
CONTINUOUS
66
1
62
7
10
0.0
20
0.0
30
0.000000
0
VERTEX
8
0
10
105.000000
20
137.000000
0
VERTEX
8
0
10
106.000000
20
138.000000
0
SEQEND
0
POLYLINE
8
0
6
CONTINUOUS
66
1
62
250
10
0.0
20
0.0
30
0.000000
0
VERTEX
8
0
10
110.000000
20
137.000000
0
VERTEX
8
0
10
112.000000
20
138.000000
0
SEQEND
0
POLYLINE
8
0
6
CONTINUOUS
66
1
62
250
10
0.0
20
0.0
30
0.000000
0
VERTEX
8
0
10
113.000000
20
137.000000
0
VERTEX
8
0
10
113.000000
20
138.000000
0
SEQEND
0
POLYLINE
8
0
6
CONTINUOUS
66
1
62
251
10
0.0
20
0.0
30
0.000000
0
VERTEX
8
0
10
76.000000
20
136.000000
0
VERTEX
8
0
10
76.000000
20
137.000000
0
VERTEX
8
0
10
75.000000
20
137.000000
0
SEQEND
0
POLYLINE
8
0
6
CONTINUOUS
66
1
62
250
10
0.0
20
0.0
30
0.000000
0
VERTEX
8
0
10
95.000000
20
136.000000
0
VERTEX
8
0
10
95.000000
20
137.000000
0
SEQEND
0
POLYLINE
8
0
6
CONTINUOUS
66
1
62
250
10
0.0
20
0.0
30
0.000000
0
VERTEX
8
0
10
105.000000
20
136.000000
0
VERTEX
8
0
10
105.000000
20
137.000000
0
SEQEND
0
POLYLINE
8
0
6
CONTINUOUS
66
1
62
253
10
0.0
20
0.0
30
0.000000
0
VERTEX
8
0
10
147.000000
20
134.000000
0
VERTEX
8
0
10
146.000000
20
135.000000
0
SEQEND
0
POLYLINE
8
0
6
CONTINUOUS
66
1
62
7
10
0.0
20
0.0
30
0.000000
0
VERTEX
8
0
10
96.000000
20
133.000000
0
VERTEX
8
0
10
95.000000
20
136.000000
0
SEQEND
0
POLYLINE
8
0
6
CONTINUOUS
66
1
62
252
10
0.0
20
0.0
30
0.000000
0
VERTEX
8
0
10
147.000000
20
133.000000
0
VERTEX
8
0
10
146.000000
20
133.000000
0
SEQEND
0
POLYLINE
8
0
6
CONTINUOUS
66
1
62
254
10
0.0
20
0.0
30
0.000000
0
VERTEX
8
0
10
147.000000
20
133.000000
0
VERTEX
8
0
10
147.000000
20
134.000000
0
SEQEND
0
POLYLINE
8
0
6
CONTINUOUS
66
1
62
251
10
0.0
20
0.0
30
0.000000
0
VERTEX
8
0
10
76.000000
20
132.000000
0
VERTEX
8
0
10
76.000000
20
136.000000
0
SEQEND
0
POLYLINE
8
0
6
CONTINUOUS
66
1
62
251
10
0.0
20
0.0
30
0.000000
0
VERTEX
8
0
10
78.000000
20
132.000000
0
VERTEX
8
0
10
84.000000
20
141.000000
0
SEQEND
0
POLYLINE
8
0
6
CONTINUOUS
66
1
62
7
10
0.0
20
0.0
30
0.000000
0
VERTEX
8
0
10
93.000000
20
132.000000
0
VERTEX
8
0
10
93.000000
20
133.000000
0
SEQEND
0
POLYLINE
8
0
6
CONTINUOUS
66
1
62
7
10
0.0
20
0.0
30
0.000000
0
VERTEX
8
0
10
96.000000
20
132.000000
0
VERTEX
8
0
10
96.000000
20
133.000000
0
SEQEND
0
POLYLINE
8
0
6
CONTINUOUS
66
1
62
250
10
0.0
20
0.0
30
0.000000
0
VERTEX
8
0
10
97.000000
20
132.000000
0
VERTEX
8
0
10
96.000000
20
132.000000
0
SEQEND
0
POLYLINE
8
0
6
CONTINUOUS
66
1
62
251
10
0.0
20
0.0
30
0.000000
0
VERTEX
8
0
10
111.000000
20
132.000000
0
VERTEX
8
0
10
114.000000
20
135.000000
0
VERTEX
8
0
10
113.000000
20
137.000000
0
SEQEND
0
POLYLINE
8
0
6
CONTINUOUS
66
1
62
7
10
0.0
20
0.0
30
0.000000
0
VERTEX
8
0
10
75.000000
20
131.000000
0
VERTEX
8
0
10
73.100000
20
132.200000
0
VERTEX
8
0
10
72.000000
20
133.000000
0
VERTEX
8
0
10
71.000000
20
131.000000
0
SEQEND
0
POLYLINE
8
0
6
CONTINUOUS
66
1
62
7
10
0.0
20
0.0
30
0.000000
0
VERTEX
8
0
10
76.000000
20
131.000000
0
VERTEX
8
0
10
75.000000
20
131.000000
0
SEQEND
0
POLYLINE
8
0
6
CONTINUOUS
66
1
62
252
10
0.0
20
0.0
30
0.000000
0
VERTEX
8
0
10
76.000000
20
131.000000
0
VERTEX
8
0
10
76.000000
20
132.000000
0
SEQEND
0
POLYLINE
8
0
6
CONTINUOUS
66
1
62
250
10
0.0
20
0.0
30
0.000000
0
VERTEX
8
0
10
77.000000
20
131.000000
0
VERTEX
8
0
10
76.000000
20
131.000000
0
SEQEND
0
POLYLINE
8
0
6
CONTINUOUS
66
1
62
7
10
0.0
20
0.0
30
0.000000
0
VERTEX
8
0
10
78.000000
20
131.000000
0
VERTEX
8
0
10
77.000000
20
131.000000
0
SEQEND
0
POLYLINE
8
0
6
CONTINUOUS
66
1
62
252
10
0.0
20
0.0
30
0.000000
0
VERTEX
8
0
10
78.000000
20
131.000000
0
VERTEX
8
0
10
78.000000
20
132.000000
0
SEQEND
0
POLYLINE
8
0
6
CONTINUOUS
66
1
62
7
10
0.0
20
0.0
30
0.000000
0
VERTEX
8
0
10
96.000000
20
131.000000
0
VERTEX
8
0
10
96.000000
20
132.000000
0
SEQEND
0
POLYLINE
8
0
6
CONTINUOUS
66
1
62
251
10
0.0
20
0.0
30
0.000000
0
VERTEX
8
0
10
70.000000
20
130.000000
0
VERTEX
8
0
10
69.000000
20
130.000000
0
VERTEX
8
0
10
67.000000
20
132.000000
0
VERTEX
8
0
10
67.000000
20
136.000000
0
VERTEX
8
0
10
68.000000
20
138.000000
0
SEQEND
0
POLYLINE
8
0
6
CONTINUOUS
66
1
62
251
10
0.0
20
0.0
30
0.000000
0
VERTEX
8
0
10
71.000000
20
130.000000
0
VERTEX
8
0
10
70.000000
20
130.000000
0
SEQEND
0
POLYLINE
8
0
6
CONTINUOUS
66
1
62
7
10
0.0
20
0.0
30
0.000000
0
VERTEX
8
0
10
71.000000
20
130.000000
0
VERTEX
8
0
10
71.000000
20
131.000000
0
SEQEND
0
POLYLINE
8
0
6
CONTINUOUS
66
1
62
7
10
0.0
20
0.0
30
0.000000
0
VERTEX
8
0
10
78.000000
20
130.000000
0
VERTEX
8
0
10
78.000000
20
131.000000
0
SEQEND
0
POLYLINE
8
0
6
CONTINUOUS
66
1
62
251
10
0.0
20
0.0
30
0.000000
0
VERTEX
8
0
10
104.000000
20
130.000000
0
VERTEX
8
0
10
98.000000
20
133.000000
0
VERTEX
8
0
10
97.000000
20
132.000000
0
SEQEND
0
POLYLINE
8
0
6
CONTINUOUS
66
1
62
251
10
0.0
20
0.0
30
0.000000
0
VERTEX
8
0
10
105.000000
20
130.000000
0
VERTEX
8
0
10
104.000000
20
130.000000
0
SEQEND
0
POLYLINE
8
0
6
CONTINUOUS
66
1
62
253
10
0.0
20
0.0
30
0.000000
0
VERTEX
8
0
10
105.000000
20
130.000000
0
VERTEX
8
0
10
108.000000
20
132.000000
0
VERTEX
8
0
10
106.000000
20
133.000000
0
VERTEX
8
0
10
104.000000
20
135.000000
0
VERTEX
8
0
10
105.000000
20
136.000000
0
SEQEND
0
POLYLINE
8
0
6
CONTINUOUS
66
1
62
250
10
0.0
20
0.0
30
0.000000
0
VERTEX
8
0
10
113.000000
20
130.000000
0
VERTEX
8
0
10
117.000000
20
134.000000
0
VERTEX
8
0
10
117.000000
20
138.000000
0
VERTEX
8
0
10
116.000000
20
139.000000
0
SEQEND
0
POLYLINE
8
0
6
CONTINUOUS
66
1
62
252
10
0.0
20
0.0
30
0.000000
0
VERTEX
8
0
10
141.000000
20
130.000000
0
VERTEX
8
0
10
140.000000
20
131.000000
0
SEQEND
0
POLYLINE
8
0
6
CONTINUOUS
66
1
62
251
10
0.0
20
0.0
30
0.000000
0
VERTEX
8
0
10
142.000000
20
130.000000
0
VERTEX
8
0
10
141.000000
20
130.000000
0
SEQEND
0
POLYLINE
8
0
6
CONTINUOUS
66
1
62
251
10
0.0
20
0.0
30
0.000000
0
VERTEX
8
0
10
142.000000
20
130.000000
0
VERTEX
8
0
10
146.000000
20
133.000000
0
SEQEND
0
POLYLINE
8
0
6
CONTINUOUS
66
1
62
250
10
0.0
20
0.0
30
0.000000
0
VERTEX
8
0
10
71.000000
20
129.000000
0
VERTEX
8
0
10
71.000000
20
130.000000
0
SEQEND
0
POLYLINE
8
0
6
CONTINUOUS
66
1
62
7
10
0.0
20
0.0
30
0.000000
0
VERTEX
8
0
10
78.000000
20
129.000000
0
VERTEX
8
0
10
77.000000
20
129.000000
0
SEQEND
0
POLYLINE
8
0
6
CONTINUOUS
66
1
62
7
10
0.0
20
0.0
30
0.000000
0
VERTEX
8
0
10
78.000000
20
129.000000
0
VERTEX
8
0
10
78.000000
20
130.000000
0
SEQEND
0
POLYLINE
8
0
6
CONTINUOUS
66
1
62
250
10
0.0
20
0.0
30
0.000000
0
VERTEX
8
0
10
79.000000
20
129.000000
0
VERTEX
8
0
10
78.000000
20
129.000000
0
SEQEND
0
POLYLINE
8
0
6
CONTINUOUS
66
1
62
7
10
0.0
20
0.0
30
0.000000
0
VERTEX
8
0
10
85.000000
20
129.000000
0
VERTEX
8
0
10
85.000000
20
131.000000
0
VERTEX
8
0
10
92.900000
20
136.200000
0
VERTEX
8
0
10
94.000000
20
137.000000
0
SEQEND
0
POLYLINE
8
0
6
CONTINUOUS
66
1
62
252
10
0.0
20
0.0
30
0.000000
0
VERTEX
8
0
10
105.000000
20
129.000000
0
VERTEX
8
0
10
105.000000
20
130.000000
0
SEQEND
0
POLYLINE
8
0
6
CONTINUOUS
66
1
62
250
10
0.0
20
0.0
30
0.000000
0
VERTEX
8
0
10
113.000000
20
129.000000
0
VERTEX
8
0
10
112.000000
20
129.000000
0
SEQEND
0
POLYLINE
8
0
6
CONTINUOUS
66
1
62
250
10
0.0
20
0.0
30
0.000000
0
VERTEX
8
0
10
113.000000
20
129.000000
0
VERTEX
8
0
10
113.000000
20
130.000000
0
SEQEND
0
POLYLINE
8
0
6
CONTINUOUS
66
1
62
251
10
0.0
20
0.0
30
0.000000
0
VERTEX
8
0
10
141.000000
20
129.000000
0
VERTEX
8
0
10
141.000000
20
130.000000
0
SEQEND
0
POLYLINE
8
0
6
CONTINUOUS
66
1
62
252
10
0.0
20
0.0
30
0.000000
0
VERTEX
8
0
10
84.000000
20
128.000000
0
VERTEX
8
0
10
79.000000
20
129.000000
0
SEQEND
0
POLYLINE
8
0
6
CONTINUOUS
66
1
62
253
10
0.0
20
0.0
30
0.000000
0
VERTEX
8
0
10
85.000000
20
128.000000
0
VERTEX
8
0
10
84.000000
20
128.000000
0
SEQEND
0
POLYLINE
8
0
6
CONTINUOUS
66
1
62
250
10
0.0
20
0.0
30
0.000000
0
VERTEX
8
0
10
85.000000
20
128.000000
0
VERTEX
8
0
10
85.000000
20
129.000000
0
SEQEND
0
POLYLINE
8
0
6
CONTINUOUS
66
1
62
252
10
0.0
20
0.0
30
0.000000
0
VERTEX
8
0
10
86.000000
20
128.000000
0
VERTEX
8
0
10
85.000000
20
128.000000
0
SEQEND
0
POLYLINE
8
0
6
CONTINUOUS
66
1
62
7
10
0.0
20
0.0
30
0.000000
0
VERTEX
8
0
10
105.000000
20
128.000000
0
VERTEX
8
0
10
105.000000
20
129.000000
0
SEQEND
0
POLYLINE
8
0
6
CONTINUOUS
66
1
62
251
10
0.0
20
0.0
30
0.000000
0
VERTEX
8
0
10
72.000000
20
127.000000
0
VERTEX
8
0
10
71.000000
20
129.000000
0
SEQEND
0
POLYLINE
8
0
6
CONTINUOUS
66
1
62
7
10
0.0
20
0.0
30
0.000000
0
VERTEX
8
0
10
75.000000
20
127.000000
0
VERTEX
8
0
10
77.000000
20
129.000000
0
SEQEND
0
POLYLINE
8
0
6
CONTINUOUS
66
1
62
253
10
0.0
20
0.0
30
0.000000
0
VERTEX
8
0
10
85.000000
20
127.000000
0
VERTEX
8
0
10
85.000000
20
128.000000
0
SEQEND
0
POLYLINE
8
0
6
CONTINUOUS
66
1
62
250
10
0.0
20
0.0
30
0.000000
0
VERTEX
8
0
10
86.000000
20
128.000000
0
VERTEX
8
0
10
88.000000
20
127.000000
0
VERTEX
8
0
10
91.000000
20
127.000000
0
VERTEX
8
0
10
96.000000
20
131.000000
0
SEQEND
0
POLYLINE
8
0
6
CONTINUOUS
66
1
62
7
10
0.0
20
0.0
30
0.000000
0
VERTEX
8
0
10
105.000000
20
127.000000
0
VERTEX
8
0
10
105.000000
20
128.000000
0
SEQEND
0
POLYLINE
8
0
6
CONTINUOUS
66
1
62
250
10
0.0
20
0.0
30
0.000000
0
VERTEX
8
0
10
106.000000
20
127.000000
0
VERTEX
8
0
10
105.000000
20
127.000000
0
SEQEND
0
POLYLINE
8
0
6
CONTINUOUS
66
1
62
250
10
0.0
20
0.0
30
0.000000
0
VERTEX
8
0
10
106.000000
20
127.000000
0
VERTEX
8
0
10
112.000000
20
129.000000
0
SEQEND
0
POLYLINE
8
0
6
CONTINUOUS
66
1
62
250
10
0.0
20
0.0
30
0.000000
0
VERTEX
8
0
10
50.000000
20
126.000000
0
VERTEX
8
0
10
52.800000
20
131.100000
0
VERTEX
8
0
10
59.615385
20
149.076923
0
VERTEX
8
0
10
61.300000
20
155.900000
0
VERTEX
8
0
10
63.000000
20
162.000000
0
VERTEX
8
0
10
63.000000
20
183.000000
0
VERTEX
8
0
10
60.700000
20
189.900000
0
VERTEX
8
0
10
60.300000
20
191.100000
0
VERTEX
8
0
10
53.000000
20
204.000000
0
VERTEX
8
0
10
51.000000
20
205.000000
0
VERTEX
8
0
10
46.000000
20
205.000000
0
VERTEX
8
0
10
44.000000
20
203.000000
0
VERTEX
8
0
10
44.000000
20
196.000000
0
VERTEX
8
0
10
47.000000
20
193.000000
0
SEQEND
0
POLYLINE
8
0
6
CONTINUOUS
66
1
62
251
10
0.0
20
0.0
30
0.000000
0
VERTEX
8
0
10
72.000000
20
126.000000
0
VERTEX
8
0
10
72.000000
20
127.000000
0
SEQEND
0
POLYLINE
8
0
6
CONTINUOUS
66
1
62
254
10
0.0
20
0.0
30
0.000000
0
VERTEX
8
0
10
73.000000
20
126.000000
0
VERTEX
8
0
10
72.000000
20
126.000000
0
SEQEND
0
POLYLINE
8
0
6
CONTINUOUS
66
1
62
252
10
0.0
20
0.0
30
0.000000
0
VERTEX
8
0
10
74.000000
20
126.000000
0
VERTEX
8
0
10
73.000000
20
126.000000
0
SEQEND
0
POLYLINE
8
0
6
CONTINUOUS
66
1
62
250
10
0.0
20
0.0
30
0.000000
0
VERTEX
8
0
10
75.000000
20
126.000000
0
VERTEX
8
0
10
74.000000
20
126.000000
0
SEQEND
0
POLYLINE
8
0
6
CONTINUOUS
66
1
62
7
10
0.0
20
0.0
30
0.000000
0
VERTEX
8
0
10
75.000000
20
126.000000
0
VERTEX
8
0
10
75.000000
20
127.000000
0
SEQEND
0
POLYLINE
8
0
6
CONTINUOUS
66
1
62
250
10
0.0
20
0.0
30
0.000000
0
VERTEX
8
0
10
105.000000
20
126.000000
0
VERTEX
8
0
10
105.000000
20
127.000000
0
SEQEND
0
POLYLINE
8
0
6
CONTINUOUS
66
1
62
251
10
0.0
20
0.0
30
0.000000
0
VERTEX
8
0
10
18.000000
20
125.000000
0
VERTEX
8
0
10
25.911765
20
126.352941
0
VERTEX
8
0
10
32.900000
20
129.200000
0
VERTEX
8
0
10
36.000000
20
131.000000
0
SEQEND
0
POLYLINE
8
0
6
CONTINUOUS
66
1
62
253
10
0.0
20
0.0
30
0.000000
0
VERTEX
8
0
10
48.000000
20
125.000000
0
VERTEX
8
0
10
47.000000
20
125.000000
0
SEQEND
0
POLYLINE
8
0
6
CONTINUOUS
66
1
62
251
10
0.0
20
0.0
30
0.000000
0
VERTEX
8
0
10
48.000000
20
125.000000
0
VERTEX
8
0
10
48.000000
20
126.000000
0
SEQEND
0
POLYLINE
8
0
6
CONTINUOUS
66
1
62
252
10
0.0
20
0.0
30
0.000000
0
VERTEX
8
0
10
49.000000
20
125.000000
0
VERTEX
8
0
10
48.000000
20
125.000000
0
SEQEND
0
POLYLINE
8
0
6
CONTINUOUS
66
1
62
250
10
0.0
20
0.0
30
0.000000
0
VERTEX
8
0
10
50.000000
20
125.000000
0
VERTEX
8
0
10
49.000000
20
125.000000
0
SEQEND
0
POLYLINE
8
0
6
CONTINUOUS
66
1
62
251
10
0.0
20
0.0
30
0.000000
0
VERTEX
8
0
10
50.000000
20
125.000000
0
VERTEX
8
0
10
50.000000
20
126.000000
0
SEQEND
0
POLYLINE
8
0
6
CONTINUOUS
66
1
62
250
10
0.0
20
0.0
30
0.000000
0
VERTEX
8
0
10
51.000000
20
125.000000
0
VERTEX
8
0
10
50.000000
20
125.000000
0
SEQEND
0
POLYLINE
8
0
6
CONTINUOUS
66
1
62
250
10
0.0
20
0.0
30
0.000000
0
VERTEX
8
0
10
104.000000
20
125.000000
0
VERTEX
8
0
10
105.000000
20
126.000000
0
SEQEND
0
POLYLINE
8
0
6
CONTINUOUS
66
1
62
251
10
0.0
20
0.0
30
0.000000
0
VERTEX
8
0
10
146.000000
20
125.000000
0
VERTEX
8
0
10
148.000000
20
132.000000
0
VERTEX
8
0
10
147.000000
20
133.000000
0
SEQEND
0
POLYLINE
8
0
6
CONTINUOUS
66
1
62
250
10
0.0
20
0.0
30
0.000000
0
VERTEX
8
0
10
75.000000
20
126.000000
0
VERTEX
8
0
10
77.000000
20
124.000000
0
VERTEX
8
0
10
82.793103
20
125.517241
0
VERTEX
8
0
10
85.000000
20
127.000000
0
SEQEND
0
POLYLINE
8
0
6
CONTINUOUS
66
1
62
251
10
0.0
20
0.0
30
0.000000
0
VERTEX
8
0
10
90.000000
20
124.000000
0
VERTEX
8
0
10
88.000000
20
124.000000
0
VERTEX
8
0
10
85.000000
20
127.000000
0
SEQEND
0
POLYLINE
8
0
6
CONTINUOUS
66
1
62
250
10
0.0
20
0.0
30
0.000000
0
VERTEX
8
0
10
91.000000
20
124.000000
0
VERTEX
8
0
10
90.000000
20
124.000000
0
SEQEND
0
POLYLINE
8
0
6
CONTINUOUS
66
1
62
250
10
0.0
20
0.0
30
0.000000
0
VERTEX
8
0
10
92.000000
20
124.000000
0
VERTEX
8
0
10
91.000000
20
124.000000
0
SEQEND
0
POLYLINE
8
0
6
CONTINUOUS
66
1
62
250
10
0.0
20
0.0
30
0.000000
0
VERTEX
8
0
10
92.000000
20
124.000000
0
VERTEX
8
0
10
94.000000
20
125.000000
0
SEQEND
0
POLYLINE
8
0
6
CONTINUOUS
66
1
62
250
10
0.0
20
0.0
30
0.000000
0
VERTEX
8
0
10
147.000000
20
124.000000
0
VERTEX
8
0
10
146.000000
20
124.000000
0
VERTEX
8
0
10
146.000000
20
125.000000
0
SEQEND
0
POLYLINE
8
0
6
CONTINUOUS
66
1
62
251
10
0.0
20
0.0
30
0.000000
0
VERTEX
8
0
10
91.000000
20
123.000000
0
VERTEX
8
0
10
91.000000
20
124.000000
0
SEQEND
0
POLYLINE
8
0
6
CONTINUOUS
66
1
62
252
10
0.0
20
0.0
30
0.000000
0
VERTEX
8
0
10
16.000000
20
122.000000
0
VERTEX
8
0
10
22.946154
20
122.430769
0
VERTEX
8
0
10
32.000000
20
125.000000
0
SEQEND
0
POLYLINE
8
0
6
CONTINUOUS
66
1
62
252
10
0.0
20
0.0
30
0.000000
0
VERTEX
8
0
10
46.000000
20
122.000000
0
VERTEX
8
0
10
44.800000
20
123.900000
0
VERTEX
8
0
10
44.000000
20
125.000000
0
VERTEX
8
0
10
45.000000
20
126.000000
0
VERTEX
8
0
10
47.000000
20
125.000000
0
SEQEND
0
POLYLINE
8
0
6
CONTINUOUS
66
1
62
252
10
0.0
20
0.0
30
0.000000
0
VERTEX
8
0
10
47.000000
20
122.000000
0
VERTEX
8
0
10
46.000000
20
122.000000
0
SEQEND
0
POLYLINE
8
0
6
CONTINUOUS
66
1
62
252
10
0.0
20
0.0
30
0.000000
0
VERTEX
8
0
10
48.000000
20
122.000000
0
VERTEX
8
0
10
47.000000
20
122.000000
0
SEQEND
0
POLYLINE
8
0
6
CONTINUOUS
66
1
62
252
10
0.0
20
0.0
30
0.000000
0
VERTEX
8
0
10
49.000000
20
122.000000
0
VERTEX
8
0
10
48.000000
20
122.000000
0
SEQEND
0
POLYLINE
8
0
6
CONTINUOUS
66
1
62
252
10
0.0
20
0.0
30
0.000000
0
VERTEX
8
0
10
51.000000
20
122.000000
0
VERTEX
8
0
10
49.000000
20
122.000000
0
SEQEND
0
POLYLINE
8
0
6
CONTINUOUS
66
1
62
252
10
0.0
20
0.0
30
0.000000
0
VERTEX
8
0
10
98.000000
20
122.000000
0
VERTEX
8
0
10
97.000000
20
122.000000
0
SEQEND
0
POLYLINE
8
0
6
CONTINUOUS
66
1
62
250
10
0.0
20
0.0
30
0.000000
0
VERTEX
8
0
10
99.000000
20
122.000000
0
VERTEX
8
0
10
98.000000
20
122.000000
0
SEQEND
0
POLYLINE
8
0
6
CONTINUOUS
66
1
62
7
10
0.0
20
0.0
30
0.000000
0
VERTEX
8
0
10
99.000000
20
122.000000
0
VERTEX
8
0
10
103.100000
20
124.800000
0
VERTEX
8
0
10
104.000000
20
125.000000
0
SEQEND
0
POLYLINE
8
0
6
CONTINUOUS
66
1
62
251
10
0.0
20
0.0
30
0.000000
0
VERTEX
8
0
10
106.000000
20
127.000000
0
VERTEX
8
0
10
107.000000
20
125.000000
0
VERTEX
8
0
10
109.900000
20
122.800000
0
VERTEX
8
0
10
111.000000
20
122.000000
0
VERTEX
8
0
10
114.000000
20
122.000000
0
VERTEX
8
0
10
116.000000
20
124.000000
0
VERTEX
8
0
10
114.769231
20
126.846154
0
VERTEX
8
0
10
113.000000
20
129.000000
0
SEQEND
0
POLYLINE
8
0
6
CONTINUOUS
66
1
62
252
10
0.0
20
0.0
30
0.000000
0
VERTEX
8
0
10
48.000000
20
121.000000
0
VERTEX
8
0
10
48.000000
20
122.000000
0
SEQEND
0
POLYLINE
8
0
6
CONTINUOUS
66
1
62
251
10
0.0
20
0.0
30
0.000000
0
VERTEX
8
0
10
98.000000
20
121.000000
0
VERTEX
8
0
10
98.000000
20
122.000000
0
SEQEND
0
POLYLINE
8
0
6
CONTINUOUS
66
1
62
252
10
0.0
20
0.0
30
0.000000
0
VERTEX
8
0
10
79.000000
20
120.000000
0
VERTEX
8
0
10
79.000000
20
122.000000
0
SEQEND
0
POLYLINE
8
0
6
CONTINUOUS
66
1
62
252
10
0.0
20
0.0
30
0.000000
0
VERTEX
8
0
10
81.000000
20
120.000000
0
VERTEX
8
0
10
81.000000
20
122.000000
0
SEQEND
0
POLYLINE
8
0
6
CONTINUOUS
66
1
62
251
10
0.0
20
0.0
30
0.000000
0
VERTEX
8
0
10
98.000000
20
120.000000
0
VERTEX
8
0
10
98.000000
20
121.000000
0
SEQEND
0
POLYLINE
8
0
6
CONTINUOUS
66
1
62
251
10
0.0
20
0.0
30
0.000000
0
VERTEX
8
0
10
76.000000
20
119.000000
0
VERTEX
8
0
10
74.000000
20
120.000000
0
VERTEX
8
0
10
71.000000
20
123.000000
0
VERTEX
8
0
10
71.000000
20
125.000000
0
VERTEX
8
0
10
72.000000
20
126.000000
0
SEQEND
0
POLYLINE
8
0
6
CONTINUOUS
66
1
62
251
10
0.0
20
0.0
30
0.000000
0
VERTEX
8
0
10
77.000000
20
119.000000
0
VERTEX
8
0
10
76.000000
20
119.000000
0
SEQEND
0
POLYLINE
8
0
6
CONTINUOUS
66
1
62
250
10
0.0
20
0.0
30
0.000000
0
VERTEX
8
0
10
78.000000
20
119.000000
0
VERTEX
8
0
10
77.000000
20
119.000000
0
SEQEND
0
POLYLINE
8
0
6
CONTINUOUS
66
1
62
250
10
0.0
20
0.0
30
0.000000
0
VERTEX
8
0
10
79.000000
20
119.000000
0
VERTEX
8
0
10
78.000000
20
119.000000
0
SEQEND
0
POLYLINE
8
0
6
CONTINUOUS
66
1
62
251
10
0.0
20
0.0
30
0.000000
0
VERTEX
8
0
10
79.000000
20
119.000000
0
VERTEX
8
0
10
79.000000
20
120.000000
0
SEQEND
0
POLYLINE
8
0
6
CONTINUOUS
66
1
62
251
10
0.0
20
0.0
30
0.000000
0
VERTEX
8
0
10
80.000000
20
119.000000
0
VERTEX
8
0
10
79.000000
20
119.000000
0
SEQEND
0
POLYLINE
8
0
6
CONTINUOUS
66
1
62
251
10
0.0
20
0.0
30
0.000000
0
VERTEX
8
0
10
81.000000
20
119.000000
0
VERTEX
8
0
10
80.000000
20
119.000000
0
SEQEND
0
POLYLINE
8
0
6
CONTINUOUS
66
1
62
251
10
0.0
20
0.0
30
0.000000
0
VERTEX
8
0
10
81.000000
20
119.000000
0
VERTEX
8
0
10
81.000000
20
120.000000
0
SEQEND
0
POLYLINE
8
0
6
CONTINUOUS
66
1
62
251
10
0.0
20
0.0
30
0.000000
0
VERTEX
8
0
10
82.000000
20
119.000000
0
VERTEX
8
0
10
81.000000
20
119.000000
0
SEQEND
0
POLYLINE
8
0
6
CONTINUOUS
66
1
62
251
10
0.0
20
0.0
30
0.000000
0
VERTEX
8
0
10
82.000000
20
119.000000
0
VERTEX
8
0
10
86.932432
20
119.405405
0
VERTEX
8
0
10
90.000000
20
121.000000
0
VERTEX
8
0
10
91.000000
20
123.000000
0
SEQEND
0
POLYLINE
8
0
6
CONTINUOUS
66
1
62
250
10
0.0
20
0.0
30
0.000000
0
VERTEX
8
0
10
98.000000
20
119.000000
0
VERTEX
8
0
10
97.000000
20
119.000000
0
SEQEND
0
POLYLINE
8
0
6
CONTINUOUS
66
1
62
253
10
0.0
20
0.0
30
0.000000
0
VERTEX
8
0
10
98.000000
20
119.000000
0
VERTEX
8
0
10
98.000000
20
120.000000
0
SEQEND
0
POLYLINE
8
0
6
CONTINUOUS
66
1
62
253
10
0.0
20
0.0
30
0.000000
0
VERTEX
8
0
10
43.000000
20
118.000000
0
VERTEX
8
0
10
42.000000
20
118.000000
0
SEQEND
0
POLYLINE
8
0
6
CONTINUOUS
66
1
62
251
10
0.0
20
0.0
30
0.000000
0
VERTEX
8
0
10
43.000000
20
118.000000
0
VERTEX
8
0
10
46.000000
20
122.000000
0
SEQEND
0
POLYLINE
8
0
6
CONTINUOUS
66
1
62
251
10
0.0
20
0.0
30
0.000000
0
VERTEX
8
0
10
76.000000
20
118.000000
0
VERTEX
8
0
10
76.000000
20
119.000000
0
SEQEND
0
POLYLINE
8
0
6
CONTINUOUS
66
1
62
252
10
0.0
20
0.0
30
0.000000
0
VERTEX
8
0
10
98.000000
20
118.000000
0
VERTEX
8
0
10
98.000000
20
119.000000
0
SEQEND
0
POLYLINE
8
0
6
CONTINUOUS
66
1
62
250
10
0.0
20
0.0
30
0.000000
0
VERTEX
8
0
10
40.000000
20
117.000000
0
VERTEX
8
0
10
37.000000
20
117.000000
0
VERTEX
8
0
10
36.000000
20
118.000000
0
VERTEX
8
0
10
38.200000
20
123.900000
0
VERTEX
8
0
10
39.200000
20
125.900000
0
VERTEX
8
0
10
42.647059
20
136.088235
0
VERTEX
8
0
10
46.200000
20
148.900000
0
VERTEX
8
0
10
46.800000
20
150.100000
0
VERTEX
8
0
10
54.000000
20
164.000000
0
VERTEX
8
0
10
56.000000
20
166.000000
0
VERTEX
8
0
10
58.000000
20
166.000000
0
VERTEX
8
0
10
59.000000
20
165.000000
0
VERTEX
8
0
10
57.569231
20
157.053846
0
VERTEX
8
0
10
56.580000
20
150.060000
0
VERTEX
8
0
10
51.600000
20
134.200000
0
VERTEX
8
0
10
48.300000
20
127.900000
0
VERTEX
8
0
10
48.000000
20
126.000000
0
SEQEND
0
POLYLINE
8
0
6
CONTINUOUS
66
1
62
251
10
0.0
20
0.0
30
0.000000
0
VERTEX
8
0
10
40.000000
20
117.000000
0
VERTEX
8
0
10
42.000000
20
118.000000
0
SEQEND
0
POLYLINE
8
0
6
CONTINUOUS
66
1
62
250
10
0.0
20
0.0
30
0.000000
0
VERTEX
8
0
10
43.000000
20
117.000000
0
VERTEX
8
0
10
43.000000
20
118.000000
0
SEQEND
0
POLYLINE
8
0
6
CONTINUOUS
66
1
62
250
10
0.0
20
0.0
30
0.000000
0
VERTEX
8
0
10
44.000000
20
117.000000
0
VERTEX
8
0
10
43.000000
20
117.000000
0
SEQEND
0
POLYLINE
8
0
6
CONTINUOUS
66
1
62
251
10
0.0
20
0.0
30
0.000000
0
VERTEX
8
0
10
55.000000
20
117.000000
0
VERTEX
8
0
10
54.800000
20
117.900000
0
VERTEX
8
0
10
53.000000
20
124.000000
0
VERTEX
8
0
10
51.000000
20
125.000000
0
SEQEND
0
POLYLINE
8
0
6
CONTINUOUS
66
1
62
251
10
0.0
20
0.0
30
0.000000
0
VERTEX
8
0
10
41.000000
20
116.000000
0
VERTEX
8
0
10
40.000000
20
117.000000
0
SEQEND
0
POLYLINE
8
0
6
CONTINUOUS
66
1
62
7
10
0.0
20
0.0
30
0.000000
0
VERTEX
8
0
10
42.000000
20
116.000000
0
VERTEX
8
0
10
41.000000
20
116.000000
0
SEQEND
0
POLYLINE
8
0
6
CONTINUOUS
66
1
62
7
10
0.0
20
0.0
30
0.000000
0
VERTEX
8
0
10
42.000000
20
116.000000
0
VERTEX
8
0
10
43.000000
20
117.000000
0
SEQEND
0
POLYLINE
8
0
6
CONTINUOUS
66
1
62
252
10
0.0
20
0.0
30
0.000000
0
VERTEX
8
0
10
50.000000
20
116.000000
0
VERTEX
8
0
10
48.000000
20
118.000000
0
VERTEX
8
0
10
48.000000
20
121.000000
0
SEQEND
0
POLYLINE
8
0
6
CONTINUOUS
66
1
62
251
10
0.0
20
0.0
30
0.000000
0
VERTEX
8
0
10
55.000000
20
116.000000
0
VERTEX
8
0
10
55.000000
20
117.000000
0
SEQEND
0
POLYLINE
8
0
6
CONTINUOUS
66
1
62
250
10
0.0
20
0.0
30
0.000000
0
VERTEX
8
0
10
56.000000
20
116.000000
0
VERTEX
8
0
10
55.000000
20
116.000000
0
SEQEND
0
POLYLINE
8
0
6
CONTINUOUS
66
1
62
250
10
0.0
20
0.0
30
0.000000
0
VERTEX
8
0
10
89.000000
20
116.000000
0
VERTEX
8
0
10
96.100000
20
121.800000
0
VERTEX
8
0
10
97.000000
20
122.000000
0
SEQEND
0
POLYLINE
8
0
6
CONTINUOUS
66
1
62
7
10
0.0
20
0.0
30
0.000000
0
VERTEX
8
0
10
41.000000
20
115.000000
0
VERTEX
8
0
10
41.000000
20
116.000000
0
SEQEND
0
POLYLINE
8
0
6
CONTINUOUS
66
1
62
250
10
0.0
20
0.0
30
0.000000
0
VERTEX
8
0
10
78.000000
20
115.000000
0
VERTEX
8
0
10
76.000000
20
117.000000
0
VERTEX
8
0
10
76.000000
20
118.000000
0
SEQEND
0
POLYLINE
8
0
6
CONTINUOUS
66
1
62
250
10
0.0
20
0.0
30
0.000000
0
VERTEX
8
0
10
79.000000
20
115.000000
0
VERTEX
8
0
10
78.000000
20
115.000000
0
SEQEND
0
POLYLINE
8
0
6
CONTINUOUS
66
1
62
251
10
0.0
20
0.0
30
0.000000
0
VERTEX
8
0
10
89.000000
20
115.000000
0
VERTEX
8
0
10
89.000000
20
116.000000
0
SEQEND
0
POLYLINE
8
0
6
CONTINUOUS
66
1
62
252
10
0.0
20
0.0
30
0.000000
0
VERTEX
8
0
10
90.000000
20
115.000000
0
VERTEX
8
0
10
89.000000
20
115.000000
0
SEQEND
0
POLYLINE
8
0
6
CONTINUOUS
66
1
62
251
10
0.0
20
0.0
30
0.000000
0
VERTEX
8
0
10
98.000000
20
115.000000
0
VERTEX
8
0
10
98.000000
20
118.000000
0
SEQEND
0
POLYLINE
8
0
6
CONTINUOUS
66
1
62
250
10
0.0
20
0.0
30
0.000000
0
VERTEX
8
0
10
78.000000
20
114.000000
0
VERTEX
8
0
10
78.000000
20
115.000000
0
SEQEND
0
POLYLINE
8
0
6
CONTINUOUS
66
1
62
252
10
0.0
20
0.0
30
0.000000
0
VERTEX
8
0
10
88.000000
20
114.000000
0
VERTEX
8
0
10
89.000000
20
115.000000
0
SEQEND
0
POLYLINE
8
0
6
CONTINUOUS
66
1
62
250
10
0.0
20
0.0
30
0.000000
0
VERTEX
8
0
10
90.000000
20
115.000000
0
VERTEX
8
0
10
92.100000
20
114.800000
0
VERTEX
8
0
10
96.000000
20
119.000000
0
VERTEX
8
0
10
97.000000
20
119.000000
0
SEQEND
0
POLYLINE
8
0
6
CONTINUOUS
66
1
62
7
10
0.0
20
0.0
30
0.000000
0
VERTEX
8
0
10
87.000000
20
113.000000
0
VERTEX
8
0
10
86.000000
20
113.000000
0
SEQEND
0
POLYLINE
8
0
6
CONTINUOUS
66
1
62
7
10
0.0
20
0.0
30
0.000000
0
VERTEX
8
0
10
87.000000
20
113.000000
0
VERTEX
8
0
10
88.000000
20
114.000000
0
SEQEND
0
POLYLINE
8
0
6
CONTINUOUS
66
1
62
250
10
0.0
20
0.0
30
0.000000
0
VERTEX
8
0
10
48.000000
20
112.000000
0
VERTEX
8
0
10
44.000000
20
117.000000
0
SEQEND
0
POLYLINE
8
0
6
CONTINUOUS
66
1
62
251
10
0.0
20
0.0
30
0.000000
0
VERTEX
8
0
10
49.000000
20
112.000000
0
VERTEX
8
0
10
48.000000
20
112.000000
0
SEQEND
0
POLYLINE
8
0
6
CONTINUOUS
66
1
62
250
10
0.0
20
0.0
30
0.000000
0
VERTEX
8
0
10
49.000000
20
112.000000
0
VERTEX
8
0
10
55.000000
20
116.000000
0
SEQEND
0
POLYLINE
8
0
6
CONTINUOUS
66
1
62
250
10
0.0
20
0.0
30
0.000000
0
VERTEX
8
0
10
79.000000
20
115.000000
0
VERTEX
8
0
10
80.100000
20
114.200000
0
VERTEX
8
0
10
85.000000
20
112.000000
0
VERTEX
8
0
10
86.000000
20
113.000000
0
SEQEND
0
POLYLINE
8
0
6
CONTINUOUS
66
1
62
250
10
0.0
20
0.0
30
0.000000
0
VERTEX
8
0
10
87.000000
20
112.000000
0
VERTEX
8
0
10
87.000000
20
113.000000
0
SEQEND
0
POLYLINE
8
0
6
CONTINUOUS
66
1
62
251
10
0.0
20
0.0
30
0.000000
0
VERTEX
8
0
10
49.000000
20
111.000000
0
VERTEX
8
0
10
49.000000
20
112.000000
0
SEQEND
0
POLYLINE
8
0
6
CONTINUOUS
66
1
62
7
10
0.0
20
0.0
30
0.000000
0
VERTEX
8
0
10
90.000000
20
111.000000
0
VERTEX
8
0
10
88.000000
20
114.000000
0
SEQEND
0
POLYLINE
8
0
6
CONTINUOUS
66
1
62
253
10
0.0
20
0.0
30
0.000000
0
VERTEX
8
0
10
49.000000
20
110.000000
0
VERTEX
8
0
10
49.000000
20
111.000000
0
SEQEND
0
POLYLINE
8
0
6
CONTINUOUS
66
1
62
251
10
0.0
20
0.0
30
0.000000
0
VERTEX
8
0
10
72.000000
20
110.000000
0
VERTEX
8
0
10
57.100000
20
115.200000
0
VERTEX
8
0
10
56.000000
20
116.000000
0
SEQEND
0
POLYLINE
8
0
6
CONTINUOUS
66
1
62
250
10
0.0
20
0.0
30
0.000000
0
VERTEX
8
0
10
72.000000
20
110.000000
0
VERTEX
8
0
10
78.000000
20
114.000000
0
SEQEND
0
POLYLINE
8
0
6
CONTINUOUS
66
1
62
7
10
0.0
20
0.0
30
0.000000
0
VERTEX
8
0
10
90.000000
20
110.000000
0
VERTEX
8
0
10
90.000000
20
111.000000
0
SEQEND
0
POLYLINE
8
0
6
CONTINUOUS
66
1
62
7
10
0.0
20
0.0
30
0.000000
0
VERTEX
8
0
10
91.000000
20
110.000000
0
VERTEX
8
0
10
90.000000
20
110.000000
0
SEQEND
0
POLYLINE
8
0
6
CONTINUOUS
66
1
62
250
10
0.0
20
0.0
30
0.000000
0
VERTEX
8
0
10
91.000000
20
110.000000
0
VERTEX
8
0
10
93.000000
20
110.000000
0
VERTEX
8
0
10
98.000000
20
115.000000
0
SEQEND
0
POLYLINE
8
0
6
CONTINUOUS
66
1
62
250
10
0.0
20
0.0
30
0.000000
0
VERTEX
8
0
10
19.000000
20
143.000000
0
VERTEX
8
0
10
11.900000
20
138.200000
0
VERTEX
8
0
10
4.000000
20
131.000000
0
VERTEX
8
0
10
3.800000
20
130.100000
0
VERTEX
8
0
10
2.000000
20
126.000000
0
VERTEX
8
0
10
2.000000
20
113.000000
0
VERTEX
8
0
10
7.035294
20
110.458824
0
VERTEX
8
0
10
26.000000
20
109.000000
0
VERTEX
8
0
10
36.846154
20
112.230769
0
VERTEX
8
0
10
41.000000
20
115.000000
0
SEQEND
0
POLYLINE
8
0
6
CONTINUOUS
66
1
62
251
10
0.0
20
0.0
30
0.000000
0
VERTEX
8
0
10
50.000000
20
109.000000
0
VERTEX
8
0
10
49.000000
20
109.000000
0
VERTEX
8
0
10
49.000000
20
110.000000
0
SEQEND
0
POLYLINE
8
0
6
CONTINUOUS
66
1
62
250
10
0.0
20
0.0
30
0.000000
0
VERTEX
8
0
10
90.000000
20
109.000000
0
VERTEX
8
0
10
90.000000
20
110.000000
0
SEQEND
0
POLYLINE
8
0
6
CONTINUOUS
66
1
62
250
10
0.0
20
0.0
30
0.000000
0
VERTEX
8
0
10
88.000000
20
105.000000
0
VERTEX
8
0
10
87.000000
20
112.000000
0
SEQEND
0
POLYLINE
8
0
6
CONTINUOUS
66
1
62
251
10
0.0
20
0.0
30
0.000000
0
VERTEX
8
0
10
70.000000
20
104.000000
0
VERTEX
8
0
10
72.000000
20
110.000000
0
SEQEND
0
POLYLINE
8
0
6
CONTINUOUS
66
1
62
250
10
0.0
20
0.0
30
0.000000
0
VERTEX
8
0
10
88.000000
20
104.000000
0
VERTEX
8
0
10
87.000000
20
104.000000
0
SEQEND
0
POLYLINE
8
0
6
CONTINUOUS
66
1
62
7
10
0.0
20
0.0
30
0.000000
0
VERTEX
8
0
10
88.000000
20
104.000000
0
VERTEX
8
0
10
88.000000
20
105.000000
0
SEQEND
0
POLYLINE
8
0
6
CONTINUOUS
66
1
62
250
10
0.0
20
0.0
30
0.000000
0
VERTEX
8
0
10
112.000000
20
104.000000
0
VERTEX
8
0
10
104.000000
20
125.000000
0
SEQEND
0
POLYLINE
8
0
6
CONTINUOUS
66
1
62
252
10
0.0
20
0.0
30
0.000000
0
VERTEX
8
0
10
113.000000
20
104.000000
0
VERTEX
8
0
10
112.000000
20
104.000000
0
SEQEND
0
POLYLINE
8
0
6
CONTINUOUS
66
1
62
254
10
0.0
20
0.0
30
0.000000
0
VERTEX
8
0
10
69.000000
20
103.000000
0
VERTEX
8
0
10
70.000000
20
104.000000
0
SEQEND
0
POLYLINE
8
0
6
CONTINUOUS
66
1
62
7
10
0.0
20
0.0
30
0.000000
0
VERTEX
8
0
10
88.000000
20
103.000000
0
VERTEX
8
0
10
88.000000
20
104.000000
0
SEQEND
0
POLYLINE
8
0
6
CONTINUOUS
66
1
62
252
10
0.0
20
0.0
30
0.000000
0
VERTEX
8
0
10
112.000000
20
103.000000
0
VERTEX
8
0
10
112.000000
20
104.000000
0
SEQEND
0
POLYLINE
8
0
6
CONTINUOUS
66
1
62
250
10
0.0
20
0.0
30
0.000000
0
VERTEX
8
0
10
121.000000
20
103.000000
0
VERTEX
8
0
10
120.000000
20
103.000000
0
SEQEND
0
POLYLINE
8
0
6
CONTINUOUS
66
1
62
250
10
0.0
20
0.0
30
0.000000
0
VERTEX
8
0
10
121.000000
20
103.000000
0
VERTEX
8
0
10
121.000000
20
104.000000
0
SEQEND
0
POLYLINE
8
0
6
CONTINUOUS
66
1
62
252
10
0.0
20
0.0
30
0.000000
0
VERTEX
8
0
10
71.000000
20
102.000000
0
VERTEX
8
0
10
70.000000
20
104.000000
0
SEQEND
0
POLYLINE
8
0
6
CONTINUOUS
66
1
62
251
10
0.0
20
0.0
30
0.000000
0
VERTEX
8
0
10
122.000000
20
101.000000
0
VERTEX
8
0
10
121.000000
20
103.000000
0
SEQEND
0
POLYLINE
8
0
6
CONTINUOUS
66
1
62
250
10
0.0
20
0.0
30
0.000000
0
VERTEX
8
0
10
136.000000
20
100.000000
0
VERTEX
8
0
10
135.384615
20
107.076923
0
VERTEX
8
0
10
133.700000
20
113.900000
0
VERTEX
8
0
10
133.000000
20
115.000000
0
VERTEX
8
0
10
133.000000
20
126.000000
0
VERTEX
8
0
10
133.800000
20
127.100000
0
VERTEX
8
0
10
136.000000
20
132.000000
0
VERTEX
8
0
10
143.000000
20
138.000000
0
VERTEX
8
0
10
150.000000
20
138.000000
0
VERTEX
8
0
10
154.000000
20
134.000000
0
VERTEX
8
0
10
154.000000
20
128.000000
0
VERTEX
8
0
10
150.000000
20
124.000000
0
VERTEX
8
0
10
147.000000
20
124.000000
0
SEQEND
0
POLYLINE
8
0
6
CONTINUOUS
66
1
62
251
10
0.0
20
0.0
30
0.000000
0
VERTEX
8
0
10
117.000000
20
99.000000
0
VERTEX
8
0
10
113.000000
20
104.000000
0
SEQEND
0
POLYLINE
8
0
6
CONTINUOUS
66
1
62
7
10
0.0
20
0.0
30
0.000000
0
VERTEX
8
0
10
117.000000
20
99.000000
0
VERTEX
8
0
10
120.000000
20
103.000000
0
SEQEND
0
POLYLINE
8
0
6
CONTINUOUS
66
1
62
252
10
0.0
20
0.0
30
0.000000
0
VERTEX
8
0
10
135.000000
20
99.000000
0
VERTEX
8
0
10
136.000000
20
99.000000
0
VERTEX
8
0
10
136.000000
20
100.000000
0
SEQEND
0
POLYLINE
8
0
6
CONTINUOUS
66
1
62
250
10
0.0
20
0.0
30
0.000000
0
VERTEX
8
0
10
50.000000
20
109.000000
0
VERTEX
8
0
10
51.647059
20
109.411765
0
VERTEX
8
0
10
62.846154
20
100.769231
0
VERTEX
8
0
10
66.900000
20
98.700000
0
VERTEX
8
0
10
71.000000
20
98.000000
0
VERTEX
8
0
10
87.000000
20
104.000000
0
SEQEND
0
POLYLINE
8
0
6
CONTINUOUS
66
1
62
250
10
0.0
20
0.0
30
0.000000
0
VERTEX
8
0
10
133.000000
20
98.000000
0
VERTEX
8
0
10
132.000000
20
99.000000
0
VERTEX
8
0
10
132.000000
20
104.000000
0
VERTEX
8
0
10
128.000000
20
108.000000
0
VERTEX
8
0
10
121.000000
20
104.000000
0
SEQEND
0
POLYLINE
8
0
6
CONTINUOUS
66
1
62
253
10
0.0
20
0.0
30
0.000000
0
VERTEX
8
0
10
133.000000
20
98.000000
0
VERTEX
8
0
10
135.000000
20
99.000000
0
SEQEND
0
POLYLINE
8
0
6
CONTINUOUS
66
1
62
251
10
0.0
20
0.0
30
0.000000
0
VERTEX
8
0
10
91.000000
20
97.000000
0
VERTEX
8
0
10
88.000000
20
103.000000
0
SEQEND
0
POLYLINE
8
0
6
CONTINUOUS
66
1
62
250
10
0.0
20
0.0
30
0.000000
0
VERTEX
8
0
10
101.000000
20
97.000000
0
VERTEX
8
0
10
100.000000
20
98.000000
0
VERTEX
8
0
10
99.200000
20
113.100000
0
VERTEX
8
0
10
98.000000
20
115.000000
0
SEQEND
0
POLYLINE
8
0
6
CONTINUOUS
66
1
62
251
10
0.0
20
0.0
30
0.000000
0
VERTEX
8
0
10
118.000000
20
97.000000
0
VERTEX
8
0
10
117.000000
20
99.000000
0
SEQEND
0
POLYLINE
8
0
6
CONTINUOUS
66
1
62
252
10
0.0
20
0.0
30
0.000000
0
VERTEX
8
0
10
119.000000
20
97.000000
0
VERTEX
8
0
10
118.000000
20
97.000000
0
SEQEND
0
POLYLINE
8
0
6
CONTINUOUS
66
1
62
252
10
0.0
20
0.0
30
0.000000
0
VERTEX
8
0
10
119.000000
20
97.000000
0
VERTEX
8
0
10
121.000000
20
99.000000
0
SEQEND
0
POLYLINE
8
0
6
CONTINUOUS
66
1
62
253
10
0.0
20
0.0
30
0.000000
0
VERTEX
8
0
10
89.000000
20
96.000000
0
VERTEX
8
0
10
88.000000
20
96.000000
0
SEQEND
0
POLYLINE
8
0
6
CONTINUOUS
66
1
62
252
10
0.0
20
0.0
30
0.000000
0
VERTEX
8
0
10
90.000000
20
96.000000
0
VERTEX
8
0
10
89.000000
20
96.000000
0
SEQEND
0
POLYLINE
8
0
6
CONTINUOUS
66
1
62
251
10
0.0
20
0.0
30
0.000000
0
VERTEX
8
0
10
91.000000
20
96.000000
0
VERTEX
8
0
10
90.000000
20
96.000000
0
SEQEND
0
POLYLINE
8
0
6
CONTINUOUS
66
1
62
250
10
0.0
20
0.0
30
0.000000
0
VERTEX
8
0
10
91.000000
20
96.000000
0
VERTEX
8
0
10
91.000000
20
97.000000
0
SEQEND
0
POLYLINE
8
0
6
CONTINUOUS
66
1
62
250
10
0.0
20
0.0
30
0.000000
0
VERTEX
8
0
10
92.000000
20
96.000000
0
VERTEX
8
0
10
91.000000
20
96.000000
0
SEQEND
0
POLYLINE
8
0
6
CONTINUOUS
66
1
62
251
10
0.0
20
0.0
30
0.000000
0
VERTEX
8
0
10
101.000000
20
96.000000
0
VERTEX
8
0
10
101.000000
20
97.000000
0
SEQEND
0
POLYLINE
8
0
6
CONTINUOUS
66
1
62
252
10
0.0
20
0.0
30
0.000000
0
VERTEX
8
0
10
102.000000
20
96.000000
0
VERTEX
8
0
10
101.000000
20
96.000000
0
SEQEND
0
POLYLINE
8
0
6
CONTINUOUS
66
1
62
250
10
0.0
20
0.0
30
0.000000
0
VERTEX
8
0
10
119.000000
20
96.000000
0
VERTEX
8
0
10
119.000000
20
97.000000
0
SEQEND
0
POLYLINE
8
0
6
CONTINUOUS
66
1
62
253
10
0.0
20
0.0
30
0.000000
0
VERTEX
8
0
10
89.000000
20
95.000000
0
VERTEX
8
0
10
89.000000
20
96.000000
0
SEQEND
0
POLYLINE
8
0
6
CONTINUOUS
66
1
62
250
10
0.0
20
0.0
30
0.000000
0
VERTEX
8
0
10
92.000000
20
96.000000
0
VERTEX
8
0
10
95.000000
20
95.000000
0
VERTEX
8
0
10
97.000000
20
97.000000
0
VERTEX
8
0
10
94.000000
20
100.000000
0
VERTEX
8
0
10
93.000000
20
100.000000
0
VERTEX
8
0
10
91.000000
20
102.000000
0
VERTEX
8
0
10
90.352941
20
106.088235
0
VERTEX
8
0
10
90.000000
20
109.000000
0
SEQEND
0
POLYLINE
8
0
6
CONTINUOUS
66
1
62
251
10
0.0
20
0.0
30
0.000000
0
VERTEX
8
0
10
109.000000
20
95.000000
0
VERTEX
8
0
10
103.000000
20
95.000000
0
VERTEX
8
0
10
102.000000
20
96.000000
0
SEQEND
0
POLYLINE
8
0
6
CONTINUOUS
66
1
62
251
10
0.0
20
0.0
30
0.000000
0
VERTEX
8
0
10
101.000000
20
93.000000
0
VERTEX
8
0
10
100.000000
20
94.000000
0
VERTEX
8
0
10
101.000000
20
96.000000
0
SEQEND
0
POLYLINE
8
0
6
CONTINUOUS
66
1
62
251
10
0.0
20
0.0
30
0.000000
0
VERTEX
8
0
10
101.000000
20
92.000000
0
VERTEX
8
0
10
101.000000
20
93.000000
0
SEQEND
0
POLYLINE
8
0
6
CONTINUOUS
66
1
62
252
10
0.0
20
0.0
30
0.000000
0
VERTEX
8
0
10
102.000000
20
92.000000
0
VERTEX
8
0
10
101.000000
20
92.000000
0
SEQEND
0
POLYLINE
8
0
6
CONTINUOUS
66
1
62
251
10
0.0
20
0.0
30
0.000000
0
VERTEX
8
0
10
133.000000
20
90.000000
0
VERTEX
8
0
10
133.000000
20
98.000000
0
SEQEND
0
POLYLINE
8
0
6
CONTINUOUS
66
1
62
252
10
0.0
20
0.0
30
0.000000
0
VERTEX
8
0
10
104.000000
20
89.000000
0
VERTEX
8
0
10
104.000000
20
90.000000
0
VERTEX
8
0
10
102.000000
20
92.000000
0
SEQEND
0
POLYLINE
8
0
6
CONTINUOUS
66
1
62
252
10
0.0
20
0.0
30
0.000000
0
VERTEX
8
0
10
133.000000
20
89.000000
0
VERTEX
8
0
10
133.000000
20
90.000000
0
SEQEND
0
POLYLINE
8
0
6
CONTINUOUS
66
1
62
250
10
0.0
20
0.0
30
0.000000
0
VERTEX
8
0
10
134.000000
20
89.000000
0
VERTEX
8
0
10
133.000000
20
89.000000
0
SEQEND
0
POLYLINE
8
0
6
CONTINUOUS
66
1
62
251
10
0.0
20
0.0
30
0.000000
0
VERTEX
8
0
10
134.000000
20
89.000000
0
VERTEX
8
0
10
139.000000
20
96.000000
0
VERTEX
8
0
10
139.000000
20
106.000000
0
VERTEX
8
0
10
137.000000
20
112.000000
0
VERTEX
8
0
10
137.000000
20
123.000000
0
VERTEX
8
0
10
139.230769
20
126.846154
0
VERTEX
8
0
10
141.000000
20
129.000000
0
SEQEND
0
POLYLINE
8
0
6
CONTINUOUS
66
1
62
251
10
0.0
20
0.0
30
0.000000
0
VERTEX
8
0
10
99.000000
20
87.000000
0
VERTEX
8
0
10
101.000000
20
92.000000
0
SEQEND
0
POLYLINE
8
0
6
CONTINUOUS
66
1
62
252
10
0.0
20
0.0
30
0.000000
0
VERTEX
8
0
10
98.000000
20
86.000000
0
VERTEX
8
0
10
97.000000
20
89.000000
0
VERTEX
8
0
10
91.153846
20
93.230769
0
VERTEX
8
0
10
89.000000
20
95.000000
0
SEQEND
0
POLYLINE
8
0
6
CONTINUOUS
66
1
62
250
10
0.0
20
0.0
30
0.000000
0
VERTEX
8
0
10
99.000000
20
86.000000
0
VERTEX
8
0
10
98.000000
20
86.000000
0
SEQEND
0
POLYLINE
8
0
6
CONTINUOUS
66
1
62
7
10
0.0
20
0.0
30
0.000000
0
VERTEX
8
0
10
99.000000
20
86.000000
0
VERTEX
8
0
10
99.000000
20
87.000000
0
SEQEND
0
POLYLINE
8
0
6
CONTINUOUS
66
1
62
7
10
0.0
20
0.0
30
0.000000
0
VERTEX
8
0
10
99.000000
20
85.000000
0
VERTEX
8
0
10
99.000000
20
86.000000
0
SEQEND
0
POLYLINE
8
0
6
CONTINUOUS
66
1
62
250
10
0.0
20
0.0
30
0.000000
0
VERTEX
8
0
10
119.000000
20
82.000000
0
VERTEX
8
0
10
118.000000
20
89.000000
0
VERTEX
8
0
10
118.000000
20
94.000000
0
VERTEX
8
0
10
119.000000
20
96.000000
0
SEQEND
0
POLYLINE
8
0
6
CONTINUOUS
66
1
62
250
10
0.0
20
0.0
30
0.000000
0
VERTEX
8
0
10
109.000000
20
81.000000
0
VERTEX
8
0
10
113.700000
20
90.100000
0
VERTEX
8
0
10
115.000000
20
94.000000
0
VERTEX
8
0
10
112.384615
20
99.076923
0
VERTEX
8
0
10
112.000000
20
103.000000
0
SEQEND
0
POLYLINE
8
0
6
CONTINUOUS
66
1
62
251
10
0.0
20
0.0
30
0.000000
0
VERTEX
8
0
10
119.000000
20
81.000000
0
VERTEX
8
0
10
118.000000
20
81.000000
0
SEQEND
0
POLYLINE
8
0
6
CONTINUOUS
66
1
62
7
10
0.0
20
0.0
30
0.000000
0
VERTEX
8
0
10
119.000000
20
81.000000
0
VERTEX
8
0
10
119.000000
20
82.000000
0
SEQEND
0
POLYLINE
8
0
6
CONTINUOUS
66
1
62
7
10
0.0
20
0.0
30
0.000000
0
VERTEX
8
0
10
119.000000
20
80.000000
0
VERTEX
8
0
10
119.000000
20
81.000000
0
SEQEND
0
POLYLINE
8
0
6
CONTINUOUS
66
1
62
250
10
0.0
20
0.0
30
0.000000
0
VERTEX
8
0
10
109.000000
20
81.000000
0
VERTEX
8
0
10
111.000000
20
79.000000
0
VERTEX
8
0
10
117.100000
20
80.800000
0
VERTEX
8
0
10
118.000000
20
81.000000
0
SEQEND
0
POLYLINE
8
0
6
CONTINUOUS
66
1
62
251
10
0.0
20
0.0
30
0.000000
0
VERTEX
8
0
10
99.000000
20
77.000000
0
VERTEX
8
0
10
98.000000
20
79.000000
0
VERTEX
8
0
10
98.615385
20
81.076923
0
VERTEX
8
0
10
99.000000
20
85.000000
0
SEQEND
0
POLYLINE
8
0
6
CONTINUOUS
66
1
62
250
10
0.0
20
0.0
30
0.000000
0
VERTEX
8
0
10
96.000000
20
76.000000
0
VERTEX
8
0
10
94.900000
20
76.800000
0
VERTEX
8
0
10
87.000000
20
80.000000
0
VERTEX
8
0
10
82.000000
20
85.000000
0
VERTEX
8
0
10
79.300000
20
91.100000
0
VERTEX
8
0
10
78.000000
20
95.000000
0
VERTEX
8
0
10
80.900000
20
96.300000
0
VERTEX
8
0
10
82.000000
20
97.000000
0
VERTEX
8
0
10
87.000000
20
97.000000
0
VERTEX
8
0
10
88.000000
20
96.000000
0
SEQEND
0
POLYLINE
8
0
6
CONTINUOUS
66
1
62
252
10
0.0
20
0.0
30
0.000000
0
VERTEX
8
0
10
97.000000
20
76.000000
0
VERTEX
8
0
10
96.000000
20
76.000000
0
SEQEND
0
POLYLINE
8
0
6
CONTINUOUS
66
1
62
7
10
0.0
20
0.0
30
0.000000
0
VERTEX
8
0
10
98.000000
20
76.000000
0
VERTEX
8
0
10
97.000000
20
76.000000
0
SEQEND
0
POLYLINE
8
0
6
CONTINUOUS
66
1
62
7
10
0.0
20
0.0
30
0.000000
0
VERTEX
8
0
10
99.000000
20
76.000000
0
VERTEX
8
0
10
98.000000
20
76.000000
0
SEQEND
0
POLYLINE
8
0
6
CONTINUOUS
66
1
62
250
10
0.0
20
0.0
30
0.000000
0
VERTEX
8
0
10
99.000000
20
76.000000
0
VERTEX
8
0
10
99.000000
20
77.000000
0
SEQEND
0
POLYLINE
8
0
6
CONTINUOUS
66
1
62
7
10
0.0
20
0.0
30
0.000000
0
VERTEX
8
0
10
119.000000
20
76.000000
0
VERTEX
8
0
10
119.000000
20
80.000000
0
SEQEND
0
POLYLINE
8
0
6
CONTINUOUS
66
1
62
250
10
0.0
20
0.0
30
0.000000
0
VERTEX
8
0
10
124.000000
20
76.000000
0
VERTEX
8
0
10
133.000000
20
89.000000
0
SEQEND
0
POLYLINE
8
0
6
CONTINUOUS
66
1
62
252
10
0.0
20
0.0
30
0.000000
0
VERTEX
8
0
10
96.000000
20
75.000000
0
VERTEX
8
0
10
96.000000
20
76.000000
0
SEQEND
0
POLYLINE
8
0
6
CONTINUOUS
66
1
62
250
10
0.0
20
0.0
30
0.000000
0
VERTEX
8
0
10
99.000000
20
75.000000
0
VERTEX
8
0
10
99.000000
20
76.000000
0
SEQEND
0
POLYLINE
8
0
6
CONTINUOUS
66
1
62
250
10
0.0
20
0.0
30
0.000000
0
VERTEX
8
0
10
119.000000
20
75.000000
0
VERTEX
8
0
10
119.000000
20
76.000000
0
SEQEND
0
POLYLINE
8
0
6
CONTINUOUS
66
1
62
7
10
0.0
20
0.0
30
0.000000
0
VERTEX
8
0
10
120.000000
20
75.000000
0
VERTEX
8
0
10
119.000000
20
75.000000
0
SEQEND
0
POLYLINE
8
0
6
CONTINUOUS
66
1
62
250
10
0.0
20
0.0
30
0.000000
0
VERTEX
8
0
10
123.000000
20
75.000000
0
VERTEX
8
0
10
120.000000
20
75.000000
0
SEQEND
0
POLYLINE
8
0
6
CONTINUOUS
66
1
62
251
10
0.0
20
0.0
30
0.000000
0
VERTEX
8
0
10
124.000000
20
75.000000
0
VERTEX
8
0
10
123.000000
20
75.000000
0
SEQEND
0
POLYLINE
8
0
6
CONTINUOUS
66
1
62
251
10
0.0
20
0.0
30
0.000000
0
VERTEX
8
0
10
124.000000
20
75.000000
0
VERTEX
8
0
10
124.000000
20
76.000000
0
SEQEND
0
POLYLINE
8
0
6
CONTINUOUS
66
1
62
7
10
0.0
20
0.0
30
0.000000
0
VERTEX
8
0
10
99.000000
20
74.000000
0
VERTEX
8
0
10
99.000000
20
75.000000
0
SEQEND
0
POLYLINE
8
0
6
CONTINUOUS
66
1
62
7
10
0.0
20
0.0
30
0.000000
0
VERTEX
8
0
10
119.000000
20
74.000000
0
VERTEX
8
0
10
119.000000
20
75.000000
0
SEQEND
0
POLYLINE
8
0
6
CONTINUOUS
66
1
62
251
10
0.0
20
0.0
30
0.000000
0
VERTEX
8
0
10
124.000000
20
74.000000
0
VERTEX
8
0
10
124.000000
20
75.000000
0
SEQEND
0
POLYLINE
8
0
6
CONTINUOUS
66
1
62
7
10
0.0
20
0.0
30
0.000000
0
VERTEX
8
0
10
99.000000
20
73.000000
0
VERTEX
8
0
10
99.000000
20
74.000000
0
SEQEND
0
POLYLINE
8
0
6
CONTINUOUS
66
1
62
7
10
0.0
20
0.0
30
0.000000
0
VERTEX
8
0
10
100.000000
20
73.000000
0
VERTEX
8
0
10
99.000000
20
73.000000
0
SEQEND
0
POLYLINE
8
0
6
CONTINUOUS
66
1
62
251
10
0.0
20
0.0
30
0.000000
0
VERTEX
8
0
10
125.000000
20
73.000000
0
VERTEX
8
0
10
124.000000
20
74.000000
0
SEQEND
0
POLYLINE
8
0
6
CONTINUOUS
66
1
62
253
10
0.0
20
0.0
30
0.000000
0
VERTEX
8
0
10
126.000000
20
73.000000
0
VERTEX
8
0
10
125.000000
20
73.000000
0
SEQEND
0
POLYLINE
8
0
6
CONTINUOUS
66
1
62
251
10
0.0
20
0.0
30
0.000000
0
VERTEX
8
0
10
127.000000
20
73.000000
0
VERTEX
8
0
10
126.000000
20
73.000000
0
SEQEND
0
POLYLINE
8
0
6
CONTINUOUS
66
1
62
250
10
0.0
20
0.0
30
0.000000
0
VERTEX
8
0
10
128.000000
20
73.000000
0
VERTEX
8
0
10
127.000000
20
73.000000
0
SEQEND
0
POLYLINE
8
0
6
CONTINUOUS
66
1
62
250
10
0.0
20
0.0
30
0.000000
0
VERTEX
8
0
10
88.000000
20
72.000000
0
VERTEX
8
0
10
87.000000
20
72.000000
0
SEQEND
0
POLYLINE
8
0
6
CONTINUOUS
66
1
62
251
10
0.0
20
0.0
30
0.000000
0
VERTEX
8
0
10
89.000000
20
72.000000
0
VERTEX
8
0
10
88.000000
20
72.000000
0
SEQEND
0
POLYLINE
8
0
6
CONTINUOUS
66
1
62
250
10
0.0
20
0.0
30
0.000000
0
VERTEX
8
0
10
89.000000
20
72.000000
0
VERTEX
8
0
10
96.000000
20
75.000000
0
SEQEND
0
POLYLINE
8
0
6
CONTINUOUS
66
1
62
7
10
0.0
20
0.0
30
0.000000
0
VERTEX
8
0
10
99.000000
20
72.000000
0
VERTEX
8
0
10
99.000000
20
73.000000
0
SEQEND
0
POLYLINE
8
0
6
CONTINUOUS
66
1
62
250
10
0.0
20
0.0
30
0.000000
0
VERTEX
8
0
10
108.000000
20
72.000000
0
VERTEX
8
0
10
106.000000
20
74.000000
0
VERTEX
8
0
10
106.000000
20
77.000000
0
VERTEX
8
0
10
108.200000
20
79.900000
0
VERTEX
8
0
10
109.000000
20
81.000000
0
SEQEND
0
POLYLINE
8
0
6
CONTINUOUS
66
1
62
250
10
0.0
20
0.0
30
0.000000
0
VERTEX
8
0
10
109.000000
20
72.000000
0
VERTEX
8
0
10
108.000000
20
72.000000
0
SEQEND
0
POLYLINE
8
0
6
CONTINUOUS
66
1
62
253
10
0.0
20
0.0
30
0.000000
0
VERTEX
8
0
10
124.000000
20
72.000000
0
VERTEX
8
0
10
125.000000
20
73.000000
0
SEQEND
0
POLYLINE
8
0
6
CONTINUOUS
66
1
62
251
10
0.0
20
0.0
30
0.000000
0
VERTEX
8
0
10
127.000000
20
72.000000
0
VERTEX
8
0
10
127.000000
20
73.000000
0
SEQEND
0
POLYLINE
8
0
6
CONTINUOUS
66
1
62
251
10
0.0
20
0.0
30
0.000000
0
VERTEX
8
0
10
88.000000
20
71.000000
0
VERTEX
8
0
10
88.000000
20
72.000000
0
SEQEND
0
POLYLINE
8
0
6
CONTINUOUS
66
1
62
250
10
0.0
20
0.0
30
0.000000
0
VERTEX
8
0
10
99.000000
20
71.000000
0
VERTEX
8
0
10
98.000000
20
71.000000
0
SEQEND
0
POLYLINE
8
0
6
CONTINUOUS
66
1
62
250
10
0.0
20
0.0
30
0.000000
0
VERTEX
8
0
10
99.000000
20
71.000000
0
VERTEX
8
0
10
99.000000
20
72.000000
0
SEQEND
0
POLYLINE
8
0
6
CONTINUOUS
66
1
62
250
10
0.0
20
0.0
30
0.000000
0
VERTEX
8
0
10
106.000000
20
71.000000
0
VERTEX
8
0
10
100.000000
20
73.000000
0
SEQEND
0
POLYLINE
8
0
6
CONTINUOUS
66
1
62
251
10
0.0
20
0.0
30
0.000000
0
VERTEX
8
0
10
107.000000
20
71.000000
0
VERTEX
8
0
10
106.000000
20
71.000000
0
SEQEND
0
POLYLINE
8
0
6
CONTINUOUS
66
1
62
251
10
0.0
20
0.0
30
0.000000
0
VERTEX
8
0
10
107.000000
20
71.000000
0
VERTEX
8
0
10
108.000000
20
72.000000
0
SEQEND
0
POLYLINE
8
0
6
CONTINUOUS
66
1
62
253
10
0.0
20
0.0
30
0.000000
0
VERTEX
8
0
10
126.000000
20
71.000000
0
VERTEX
8
0
10
127.000000
20
72.000000
0
SEQEND
0
POLYLINE
8
0
6
CONTINUOUS
66
1
62
251
10
0.0
20
0.0
30
0.000000
0
VERTEX
8
0
10
87.000000
20
70.000000
0
VERTEX
8
0
10
88.000000
20
71.000000
0
SEQEND
0
POLYLINE
8
0
6
CONTINUOUS
66
1
62
250
10
0.0
20
0.0
30
0.000000
0
VERTEX
8
0
10
99.000000
20
70.000000
0
VERTEX
8
0
10
99.000000
20
71.000000
0
SEQEND
0
POLYLINE
8
0
6
CONTINUOUS
66
1
62
252
10
0.0
20
0.0
30
0.000000
0
VERTEX
8
0
10
107.000000
20
70.000000
0
VERTEX
8
0
10
107.000000
20
71.000000
0
SEQEND
0
POLYLINE
8
0
6
CONTINUOUS
66
1
62
252
10
0.0
20
0.0
30
0.000000
0
VERTEX
8
0
10
92.000000
20
69.000000
0
VERTEX
8
0
10
91.000000
20
70.000000
0
SEQEND
0
POLYLINE
8
0
6
CONTINUOUS
66
1
62
250
10
0.0
20
0.0
30
0.000000
0
VERTEX
8
0
10
93.000000
20
69.000000
0
VERTEX
8
0
10
92.000000
20
69.000000
0
SEQEND
0
POLYLINE
8
0
6
CONTINUOUS
66
1
62
250
10
0.0
20
0.0
30
0.000000
0
VERTEX
8
0
10
93.000000
20
69.000000
0
VERTEX
8
0
10
96.100000
20
70.700000
0
VERTEX
8
0
10
98.000000
20
71.000000
0
SEQEND
0
POLYLINE
8
0
6
CONTINUOUS
66
1
62
251
10
0.0
20
0.0
30
0.000000
0
VERTEX
8
0
10
99.000000
20
69.000000
0
VERTEX
8
0
10
99.000000
20
70.000000
0
SEQEND
0
POLYLINE
8
0
6
CONTINUOUS
66
1
62
7
10
0.0
20
0.0
30
0.000000
0
VERTEX
8
0
10
82.000000
20
68.000000
0
VERTEX
8
0
10
82.000000
20
69.000000
0
VERTEX
8
0
10
87.000000
20
72.000000
0
SEQEND
0
POLYLINE
8
0
6
CONTINUOUS
66
1
62
252
10
0.0
20
0.0
30
0.000000
0
VERTEX
8
0
10
93.000000
20
68.000000
0
VERTEX
8
0
10
93.000000
20
69.000000
0
SEQEND
0
POLYLINE
8
0
6
CONTINUOUS
66
1
62
250
10
0.0
20
0.0
30
0.000000
0
VERTEX
8
0
10
99.000000
20
68.000000
0
VERTEX
8
0
10
98.000000
20
68.000000
0
SEQEND
0
POLYLINE
8
0
6
CONTINUOUS
66
1
62
250
10
0.0
20
0.0
30
0.000000
0
VERTEX
8
0
10
99.000000
20
68.000000
0
VERTEX
8
0
10
99.000000
20
69.000000
0
SEQEND
0
POLYLINE
8
0
6
CONTINUOUS
66
1
62
251
10
0.0
20
0.0
30
0.000000
0
VERTEX
8
0
10
83.000000
20
67.000000
0
VERTEX
8
0
10
82.000000
20
67.000000
0
VERTEX
8
0
10
82.000000
20
68.000000
0
SEQEND
0
POLYLINE
8
0
6
CONTINUOUS
66
1
62
251
10
0.0
20
0.0
30
0.000000
0
VERTEX
8
0
10
93.000000
20
68.000000
0
VERTEX
8
0
10
94.000000
20
67.000000
0
VERTEX
8
0
10
97.100000
20
67.800000
0
VERTEX
8
0
10
98.000000
20
68.000000
0
SEQEND
0
POLYLINE
8
0
6
CONTINUOUS
66
1
62
250
10
0.0
20
0.0
30
0.000000
0
VERTEX
8
0
10
83.000000
20
67.000000
0
VERTEX
8
0
10
85.000000
20
66.000000
0
VERTEX
8
0
10
90.100000
20
67.800000
0
VERTEX
8
0
10
92.000000
20
69.000000
0
SEQEND
0
POLYLINE
8
0
6
CONTINUOUS
66
1
62
250
10
0.0
20
0.0
30
0.000000
0
VERTEX
8
0
10
107.000000
20
70.000000
0
VERTEX
8
0
10
110.000000
20
66.000000
0
VERTEX
8
0
10
111.000000
20
68.000000
0
VERTEX
8
0
10
109.000000
20
72.000000
0
SEQEND
0
POLYLINE
8
0
6
CONTINUOUS
66
1
62
251
10
0.0
20
0.0
30
0.000000
0
VERTEX
8
0
10
119.000000
20
74.000000
0
VERTEX
8
0
10
117.000000
20
70.000000
0
VERTEX
8
0
10
119.900000
20
67.800000
0
VERTEX
8
0
10
129.000000
20
66.000000
0
VERTEX
8
0
10
136.000000
20
66.000000
0
VERTEX
8
0
10
137.000000
20
67.000000
0
VERTEX
8
0
10
137.000000
20
68.000000
0
VERTEX
8
0
10
135.000000
20
70.000000
0
VERTEX
8
0
10
132.900000
20
70.700000
0
VERTEX
8
0
10
128.000000
20
73.000000
0
SEQEND
0
POLYLINE
8
0
6
CONTINUOUS
66
1
62
250
10
0.0
20
0.0
30
0.000000
0
VERTEX
8
0
10
99.000000
20
68.000000
0
VERTEX
8
0
10
102.180000
20
65.240000
0
VERTEX
8
0
10
109.000000
20
63.000000
0
VERTEX
8
0
10
111.000000
20
63.000000
0
VERTEX
8
0
10
114.000000
20
66.000000
0
VERTEX
8
0
10
113.000000
20
72.000000
0
VERTEX
8
0
10
111.000000
20
74.000000
0
VERTEX
8
0
10
109.000000
20
72.000000
0
SEQEND
0
ENDSEC
0
EOF
