  0
SECTION
  2
HEADER
  9
$ACADVER
  1
AC1014
  9
$ACADMAINTVER
 70
     0
  9
$DWGCODEPAGE
  3
ANSI_1252
  9
$INSBASE
 10
0.0
 20
0.0
 30
0.0
  9
$EXTMIN
 10
-163.937023
 20
-483.20076
 30
0.0
  9
$EXTMAX
 10
96.843549
 20
-333.480796
 30
0.0
  9
$LIMMIN
 10
0.0
 20
0.0
  9
$LIMMAX
 10
420.0
 20
297.0
  9
$ORTHOMODE
 70
     0
  9
$REGENMODE
 70
     1
  9
$FILLMODE
 70
     1
  9
$QTEXTMODE
 70
     0
  9
$MIRRTEXT
 70
     1
  9
$DRAGMODE
 70
     2
  9
$LTSCALE
 40
1.0
  9
$OSMODE
 70
    39
  9
$ATTMODE
 70
     1
  9
$TEXTSIZE
 40
2.5
  9
$TRACEWID
 40
1.0
  9
$TEXTSTYLE
  7
STANDARD
  9
$CLAYER
  8
0
  9
$CELTYPE
  6
BYLAYER
  9
$CECOLOR
 62
   256
  9
$CELTSCALE
 40
1.0
  9
$DELOBJ
 70
     1
  9
$DISPSILH
 70
     0
  9
$DIMSCALE
 40
1.0
  9
$DIMASZ
 40
2.5
  9
$DIMEXO
 40
0.625
  9
$DIMDLI
 40
3.75
  9
$DIMRND
 40
0.0
  9
$DIMDLE
 40
0.0
  9
$DIMEXE
 40
1.25
  9
$DIMTP
 40
0.0
  9
$DIMTM
 40
0.0
  9
$DIMTXT
 40
2.5
  9
$DIMCEN
 40
2.5
  9
$DIMTSZ
 40
0.0
  9
$DIMTOL
 70
     0
  9
$DIMLIM
 70
     0
  9
$DIMTIH
 70
     0
  9
$DIMTOH
 70
     0
  9
$DIMSE1
 70
     0
  9
$DIMSE2
 70
     0
  9
$DIMTAD
 70
     1
  9
$DIMZIN
 70
     8
  9
$DIMBLK
  1

  9
$DIMASO
 70
     1
  9
$DIMSHO
 70
     1
  9
$DIMPOST
  1

  9
$DIMAPOST
  1

  9
$DIMALT
 70
     0
  9
$DIMALTD
 70
     4
  9
$DIMALTF
 40
0.0394
  9
$DIMLFAC
 40
1.0
  9
$DIMTOFL
 70
     1
  9
$DIMTVP
 40
0.0
  9
$DIMTIX
 70
     0
  9
$DIMSOXD
 70
     0
  9
$DIMSAH
 70
     0
  9
$DIMBLK1
  1

  9
$DIMBLK2
  1

  9
$DIMSTYLE
  2
STANDARD
  9
$DIMCLRD
 70
     0
  9
$DIMCLRE
 70
     0
  9
$DIMCLRT
 70
     0
  9
$DIMTFAC
 40
1.0
  9
$DIMGAP
 40
0.625
  9
$DIMJUST
 70
     0
  9
$DIMSD1
 70
     0
  9
$DIMSD2
 70
     0
  9
$DIMTOLJ
 70
     1
  9
$DIMTZIN
 70
     0
  9
$DIMALTZ
 70
     0
  9
$DIMALTTZ
 70
     0
  9
$DIMFIT
 70
     3
  9
$DIMUPT
 70
     0
  9
$DIMUNIT
 70
     8
  9
$DIMDEC
 70
     4
  9
$DIMTDEC
 70
     4
  9
$DIMALTU
 70
     8
  9
$DIMALTTD
 70
     4
  9
$DIMTXSTY
  7
STANDARD
  9
$DIMAUNIT
 70
     0
  9
$LUNITS
 70
     2
  9
$LUPREC
 70
     4
  9
$SKETCHINC
 40
1.0
  9
$FILLETRAD
 40
10.0
  9
$AUNITS
 70
     0
  9
$AUPREC
 70
     0
  9
$MENU
  1
.
  9
$ELEVATION
 40
0.0
  9
$PELEVATION
 40
0.0
  9
$THICKNESS
 40
0.0
  9
$LIMCHECK
 70
     0
  9
$BLIPMODE
 70
     0
  9
$CHAMFERA
 40
10.0
  9
$CHAMFERB
 40
10.0
  9
$CHAMFERC
 40
20.0
  9
$CHAMFERD
 40
0.0
  9
$SKPOLY
 70
     0
  9
$TDCREATE
 40
2454702.850511967
  9
$TDUPDATE
 40
2455291.890316654
  9
$TDINDWG
 40
0.3268798843
  9
$TDUSRTIMER
 40
0.3268798843
  9
$USRTIMER
 70
     1
  9
$ANGBASE
 50
0.0
  9
$ANGDIR
 70
     0
  9
$PDMODE
 70
     0
  9
$PDSIZE
 40
0.0
  9
$PLINEWID
 40
0.0
  9
$COORDS
 70
     1
  9
$SPLFRAME
 70
     0
  9
$SPLINETYPE
 70
     6
  9
$SPLINESEGS
 70
     8
  9
$ATTDIA
 70
     0
  9
$ATTREQ
 70
     1
  9
$HANDLING
 70
     1
  9
$HANDSEED
  5
364E
  9
$SURFTAB1
 70
     6
  9
$SURFTAB2
 70
     6
  9
$SURFTYPE
 70
     6
  9
$SURFU
 70
     6
  9
$SURFV
 70
     6
  9
$UCSNAME
  2

  9
$UCSORG
 10
0.0
 20
0.0
 30
0.0
  9
$UCSXDIR
 10
1.0
 20
0.0
 30
0.0
  9
$UCSYDIR
 10
0.0
 20
1.0
 30
0.0
  9
$PUCSNAME
  2

  9
$PUCSORG
 10
0.0
 20
0.0
 30
0.0
  9
$PUCSXDIR
 10
1.0
 20
0.0
 30
0.0
  9
$PUCSYDIR
 10
0.0
 20
1.0
 30
0.0
  9
$USERI1
 70
     0
  9
$USERI2
 70
     0
  9
$USERI3
 70
     0
  9
$USERI4
 70
     0
  9
$USERI5
 70
     0
  9
$USERR1
 40
0.0
  9
$USERR2
 40
0.0
  9
$USERR3
 40
0.0
  9
$USERR4
 40
0.0
  9
$USERR5
 40
0.0
  9
$WORLDVIEW
 70
     1
  9
$SHADEDGE
 70
     3
  9
$SHADEDIF
 70
    70
  9
$TILEMODE
 70
     1
  9
$MAXACTVP
 70
    48
  9
$PINSBASE
 10
0.0
 20
0.0
 30
0.0
  9
$PLIMCHECK
 70
     0
  9
$PEXTMIN
 10
1.000000E+20
 20
1.000000E+20
 30
1.000000E+20
  9
$PEXTMAX
 10
-1.000000E+20
 20
-1.000000E+20
 30
-1.000000E+20
  9
$PLIMMIN
 10
0.0
 20
0.0
  9
$PLIMMAX
 10
420.0
 20
297.0
  9
$UNITMODE
 70
     0
  9
$VISRETAIN
 70
     1
  9
$PLINEGEN
 70
     0
  9
$PSLTSCALE
 70
     1
  9
$TREEDEPTH
 70
  3020
  9
$PICKSTYLE
 70
     1
  9
$CMLSTYLE
  2
STANDARD
  9
$CMLJUST
 70
     0
  9
$CMLSCALE
 40
20.0
  9
$PROXYGRAPHICS
 70
     1
  9
$MEASUREMENT
 70
     1
  0
ENDSEC
  0
SECTION
  2
CLASSES
  0
CLASS
  1
LWPOLYLINE
  2
AcDbPolyline
  3
\"AutoCAD\"
 90
        0
280
     0
281
     1
  0
ENDSEC
  0
SECTION
  2
TABLES
  0
TABLE
  2
VPORT
  5
8
100
AcDbSymbolTable
 70
     1
  0
VPORT
  5
364A
100
AcDbSymbolTableRecord
100
AcDbViewportTableRecord
  2
*ACTIVE
 70
     0
 10
0.0
 20
0.0
 11
1.0
 21
1.0
 12
-24.461151
 22
-417.221039
 13
0.0
 23
0.0
 14
10.0
 24
10.0
 15
10.0
 25
10.0
 16
0.0
 26
0.0
 36
1.0
 17
0.0
 27
0.0
 37
0.0
 40
196.683587
 41
1.87415
 42
50.0
 43
0.0
 44
0.0
 50
0.0
 51
0.0
 71
     0
 72
   100
 73
     1
 74
     1
 75
     0
 76
     0
 77
     0
 78
     0
  0
ENDTAB
  0
TABLE
  2
LTYPE
  5
5
100
AcDbSymbolTable
 70
     1
  0
LTYPE
  5
12
100
AcDbSymbolTableRecord
100
AcDbLinetypeTableRecord
  2
BYBLOCK
 70
     0
  3

 72
    65
 73
     0
 40
0.0
  0
LTYPE
  5
13
100
AcDbSymbolTableRecord
100
AcDbLinetypeTableRecord
  2
BYLAYER
 70
     0
  3

 72
    65
 73
     0
 40
0.0
  0
LTYPE
  5
14
100
AcDbSymbolTableRecord
100
AcDbLinetypeTableRecord
  2
CONTINUOUS
 70
     0
  3
Solid line
 72
    65
 73
     0
 40
0.0
  0
ENDTAB
  0
TABLE
  2
LAYER
  5
2
100
AcDbSymbolTable
 70
     2
  0
LAYER
  5
E
100
AcDbSymbolTableRecord
100
AcDbLayerTableRecord
  2
0
 70
     0
 62
     7
  6
CONTINUOUS
  0
LAYER
  5
14D2
100
AcDbSymbolTableRecord
100
AcDbLayerTableRecord
  2
DEFPOINTS
 70
     0
 62
     7
  6
CONTINUOUS
  0
ENDTAB
  0
TABLE
  2
STYLE
  5
3
100
AcDbSymbolTable
 70
     1
  0
STYLE
  5
F
100
AcDbSymbolTableRecord
100
AcDbTextStyleTableRecord
  2
STANDARD
 70
     0
 40
0.0
 41
1.0
 50
0.0
 71
     0
 42
2.5
  3
txt
  4

  0
ENDTAB
  0
TABLE
  2
VIEW
  5
6
100
AcDbSymbolTable
 70
     0
  0
ENDTAB
  0
TABLE
  2
UCS
  5
7
100
AcDbSymbolTable
 70
     0
  0
ENDTAB
  0
TABLE
  2
APPID
  5
9
100
AcDbSymbolTable
 70
     1
  0
APPID
  5
10
100
AcDbSymbolTableRecord
100
AcDbRegAppTableRecord
  2
ACAD
 70
     0
  0
ENDTAB
  0
TABLE
  2
DIMSTYLE
  5
A
100
AcDbSymbolTable
 70
     1
  0
DIMSTYLE
105
1D
100
AcDbSymbolTableRecord
100
AcDbDimStyleTableRecord
  2
STANDARD
 70
     0
  3

  4

  5

  6

  7

 40
1.0
 41
0.18
 42
0.0625
 43
0.38
 44
0.18
 45
0.0
 46
0.0
 47
0.0
 48
0.0
140
0.18
141
0.09
142
0.0
143
25.4
144
1.0
145
0.0
146
1.0
147
0.09
 71
     0
 72
     0
 73
     1
 74
     1
 75
     0
 76
     0
 77
     0
 78
     0
170
     0
171
     2
172
     0
173
     0
174
     0
175
     0
176
     0
177
     0
178
     0
270
     2
271
     4
272
     4
273
     2
274
     2
340
F
275
     0
280
     0
281
     0
282
     0
283
     1
284
     0
285
     0
286
     0
287
     3
288
     0
  0
ENDTAB
  0
TABLE
  2
BLOCK_RECORD
  5
1
100
AcDbSymbolTable
 70
     0
  0
BLOCK_RECORD
  5
18
100
AcDbSymbolTableRecord
100
AcDbBlockTableRecord
  2
*MODEL_SPACE
  0
BLOCK_RECORD
  5
15
100
AcDbSymbolTableRecord
100
AcDbBlockTableRecord
  2
*PAPER_SPACE
  0
ENDTAB
  0
ENDSEC
  0
SECTION
  2
BLOCKS
  0
BLOCK
  5
19
100
AcDbEntity
  8
0
100
AcDbBlockBegin
  2
*MODEL_SPACE
 70
     0
 10
0.0
 20
0.0
 30
0.0
  3
*MODEL_SPACE
  1

  0
ENDBLK
  5
1A
100
AcDbEntity
  8
0
100
AcDbBlockEnd
  0
BLOCK
  5
16
100
AcDbEntity
 67
     1
  8
0
100
AcDbBlockBegin
  2
*PAPER_SPACE
 70
     0
 10
0.0
 20
0.0
 30
0.0
  3
*PAPER_SPACE
  1

  0
ENDBLK
  5
17
100
AcDbEntity
 67
     1
  8
0
100
AcDbBlockEnd
  0
ENDSEC
  0
SECTION
  2
ENTITIES
  0
ARC
  5
2BAA
100
AcDbEntity
  8
0
100
AcDbCircle
 10
-49.276368
 20
-351.986609
 30
0.0
 40
4.561176
100
AcDbArc
 50
89.883218
 51
158.235201
  0
ARC
  5
2BAD
100
AcDbEntity
  8
0
100
AcDbCircle
 10
-47.868993
 20
-350.618474
 30
0.0
 40
6.522754
100
AcDbArc
 50
229.625385
 51
276.128322
  0
ARC
  5
2C15
100
AcDbEntity
  8
0
100
AcDbCircle
 10
-33.546737
 20
-344.389444
 30
0.0
 40
1.966439
100
AcDbArc
 50
108.253404
 51
248.775734
  0
LINE
  5
2C16
100
AcDbEntity
  8
0
100
AcDbLine
 10
-34.162666
 20
-342.521954
 30
0.0
 11
-38.213562
 21
-338.161041
 31
0.0
  0
ARC
  5
2C17
100
AcDbEntity
  8
0
100
AcDbCircle
 10
-39.325466
 20
-353.948185
 30
0.0
 40
6.522754
100
AcDbArc
 50
52.856668
 51
96.128322
  0
ARC
  5
2C1B
100
AcDbEntity
  8
0
100
AcDbCircle
 10
-47.829986
 20
-350.981767
 30
0.0
 40
6.157373
100
AcDbArc
 50
276.128322
 51
338.312974
  0
ARC
  5
2C1C
100
AcDbEntity
  8
0
100
AcDbCircle
 10
-37.921792
 20
-354.57922
 30
0.0
 40
2.562002
100
AcDbArc
 50
89.893962
 51
260.113709
  0
ARC
  5
2C1D
100
AcDbEntity
  8
0
100
AcDbCircle
 10
-38.019218
 20
-354.883372
 30
0.0
 40
4.400737
100
AcDbArc
 50
94.673221
 51
158.312974
  0
ARC
  5
2C1E
100
AcDbEntity
  8
0
100
AcDbCircle
 10
-37.895877
 20
-354.767187
 30
0.0
 40
0.804085
100
AcDbArc
 50
91.765631
 51
271.765631
  0
ARC
  5
2C1F
100
AcDbEntity
  8
0
100
AcDbCircle
 10
-37.918091
 20
-352.580049
 30
0.0
 40
4.561176
100
AcDbArc
 50
300.03784
 51
343.412142
  0
ARC
  5
2C20
100
AcDbEntity
  8
0
100
AcDbCircle
 10
-37.923943
 20
-353.014057
 30
0.0
 40
2.55738
100
AcDbArc
 50
271.183935
 51
100.221457
  0
ARC
  5
2C21
100
AcDbEntity
  8
0
100
AcDbCircle
 10
-37.918851
 20
-352.990353
 30
0.0
 40
0.973133
100
AcDbArc
 50
269.893962
 51
89.893962
  0
ARC
  5
2C2E
100
AcDbEntity
  8
0
100
AcDbCircle
 10
-33.546737
 20
-348.055556
 30
0.0
 40
1.966439
100
AcDbArc
 50
111.224266
 51
200.640074
  0
ARC
  5
2C35
100
AcDbEntity
  8
0
100
AcDbCircle
 10
-39.364473
 20
-353.584892
 30
0.0
 40
6.157373
100
AcDbArc
 50
96.128322
 51
158.312974
  0
ARC
  5
2C36
100
AcDbEntity
  8
0
100
AcDbCircle
 10
-49.298582
 20
-349.799471
 30
0.0
 40
0.804085
100
AcDbArc
 50
271.765631
 51
91.765631
  0
ARC
  5
2C37
100
AcDbEntity
  8
0
100
AcDbCircle
 10
-49.270517
 20
-351.552602
 30
0.0
 40
2.55738
100
AcDbArc
 50
91.183935
 51
280.221457
  0
ARC
  5
2C38
100
AcDbEntity
  8
0
100
AcDbCircle
 10
-49.275608
 20
-351.576305
 30
0.0
 40
0.973133
100
AcDbArc
 50
89.893962
 51
269.893962
  0
ARC
  5
2C39
100
AcDbEntity
  8
0
100
AcDbCircle
 10
-49.175241
 20
-349.683286
 30
0.0
 40
4.400737
100
AcDbArc
 50
274.673221
 51
338.312974
  0
ARC
  5
2C3B
100
AcDbEntity
  8
0
100
AcDbCircle
 10
-49.272668
 20
-349.987438
 30
0.0
 40
2.562002
100
AcDbArc
 50
269.893962
 51
89.893962
  0
ARC
  5
2C3C
100
AcDbEntity
  8
0
100
AcDbCircle
 10
-36.173155
 20
-336.265688
 30
0.0
 40
2.784892
100
AcDbArc
 50
19.421956
 51
222.88932
  0
LINE
  5
2C3D
100
AcDbEntity
  8
0
100
AcDbLine
 10
-33.546737
 20
-340.671913
 30
0.0
 11
-35.879111
 21
-338.161042
 31
0.0
  0
ARC
  5
2C3F
100
AcDbEntity
  8
0
100
AcDbCircle
 10
-34.778564
 20
-337.138731
 30
0.0
 40
1.502106
100
AcDbArc
 50
34.908571
 51
222.88932
  0
LINE
  5
2D4B
100
AcDbEntity
  8
0
100
AcDbLine
 10
-163.546737
 20
-483.20076
 30
0.0
 11
-163.546737
 21
-458.383886
 31
0.0
  0
ARC
  5
2D7D
100
AcDbEntity
  8
0
100
AcDbCircle
 10
-57.574507
 20
-351.933863
 30
0.0
 40
4.400737
100
AcDbArc
 50
231.687026
 51
295.326779
  0
ARC
  5
2D7E
100
AcDbEntity
  8
0
100
AcDbCircle
 10
-65.669293
 20
-360.426062
 30
0.0
 40
0.973133
100
AcDbArc
 50
120.106038
 51
300.106038
  0
ARC
  5
2D7F
100
AcDbEntity
  8
0
100
AcDbCircle
 10
-64.872313
 20
-361.80059
 30
0.0
 40
2.562002
100
AcDbArc
 50
309.886279
 51
120.106038
  0
ARC
  5
2D80
100
AcDbEntity
  8
0
100
AcDbCircle
 10
-56.541076
 20
-353.523081
 30
0.0
 40
0.973133
100
AcDbArc
 50
300.106038
 51
120.106038
  0
ARC
  5
2D81
100
AcDbEntity
  8
0
100
AcDbCircle
 10
-73.242016
 20
-364.798176
 30
0.0
 40
0.973133
100
AcDbArc
 50
299.893962
 51
119.893962
  0
ARC
  5
2D82
100
AcDbEntity
  8
0
100
AcDbCircle
 10
-72.45013
 20
-366.175645
 30
0.0
 40
2.562002
100
AcDbArc
 50
119.893962
 51
290.113699
  0
ARC
  5
2D83
100
AcDbEntity
  8
0
100
AcDbCircle
 10
-73.234574
 20
-364.821249
 30
0.0
 40
2.55738
100
AcDbArc
 50
301.183935
 51
130.221457
  0
ARC
  5
2D84
100
AcDbEntity
  8
0
100
AcDbCircle
 10
-83.784281
 20
-369.251953
 30
0.0
 40
0.973133
100
AcDbArc
 50
119.893962
 51
299.893962
  0
ARC
  5
2D85
100
AcDbEntity
  8
0
100
AcDbCircle
 10
-84.64387
 20
-367.562366
 30
0.0
 40
4.400737
100
AcDbArc
 50
304.673221
 51
8.312974
  0
ARC
  5
2D86
100
AcDbEntity
  8
0
100
AcDbCircle
 10
-65.653032
 20
-360.444044
 30
0.0
 40
2.55738
100
AcDbArc
 50
109.778543
 51
298.816065
  0
ARC
  5
2D87
100
AcDbEntity
  8
0
100
AcDbCircle
 10
-83.579787
 20
-369.607666
 30
0.0
 40
4.561176
100
AcDbArc
 50
119.883218
 51
188.235201
  0
ARC
  5
2D88
100
AcDbEntity
  8
0
100
AcDbCircle
 10
-84.576168
 20
-367.874483
 30
0.0
 40
2.562002
100
AcDbArc
 50
299.893962
 51
119.893962
  0
ARC
  5
2D89
100
AcDbEntity
  8
0
100
AcDbCircle
 10
-83.791723
 20
-369.228879
 30
0.0
 40
2.55738
100
AcDbArc
 50
121.183935
 51
310.221457
  0
ARC
  5
2D8A
100
AcDbEntity
  8
0
100
AcDbCircle
 10
-72.382428
 20
-366.487762
 30
0.0
 40
4.400737
100
AcDbArc
 50
124.673221
 51
188.312974
  0
ARC
  5
2D8B
100
AcDbEntity
  8
0
100
AcDbCircle
 10
-56.557338
 20
-353.505099
 30
0.0
 40
2.55738
100
AcDbArc
 50
289.778543
 51
118.816065
  0
ARC
  5
2D8C
100
AcDbEntity
  8
0
100
AcDbCircle
 10
-56.335267
 20
-353.878035
 30
0.0
 40
4.561176
100
AcDbArc
 50
51.764799
 51
120.116782
  0
ARC
  5
2D8D
100
AcDbEntity
  8
0
100
AcDbCircle
 10
-64.635863
 20
-362.015281
 30
0.0
 40
4.400737
100
AcDbArc
 50
51.687026
 51
115.326779
  0
ARC
  5
2D8E
100
AcDbEntity
  8
0
100
AcDbCircle
 10
-57.338057
 20
-352.148553
 30
0.0
 40
2.562002
100
AcDbArc
 50
120.106038
 51
300.106038
  0
ARC
  5
2D8F
100
AcDbEntity
  8
0
100
AcDbCircle
 10
-65.875103
 20
-360.071108
 30
0.0
 40
4.561176
100
AcDbArc
 50
226.587858
 51
269.962158
  0
ARC
  5
2D90
100
AcDbEntity
  8
0
100
AcDbCircle
 10
-82.829604
 20
-368.014256
 30
0.0
 40
6.157373
100
AcDbArc
 50
306.128322
 51
8.312974
  0
ARC
  5
2D91
100
AcDbEntity
  8
0
100
AcDbCircle
 10
-83.045032
 20
-367.719139
 30
0.0
 40
6.522754
100
AcDbArc
 50
259.625385
 51
306.128322
  0
ARC
  5
2D92
100
AcDbEntity
  8
0
100
AcDbCircle
 10
-73.44651
 20
-364.442462
 30
0.0
 40
4.561176
100
AcDbArc
 50
330.037837
 51
13.412142
  0
ARC
  5
2D93
100
AcDbEntity
  8
0
100
AcDbCircle
 10
-72.333703
 20
-366.325471
 30
0.0
 40
0.804085
100
AcDbArc
 50
121.765631
 51
301.765631
  0
ARC
  5
2D94
100
AcDbEntity
  8
0
100
AcDbCircle
 10
-58.238157
 20
-353.396883
 30
0.0
 40
6.522754
100
AcDbArc
 50
293.871678
 51
340.374615
  0
ARC
  5
2D95
100
AcDbEntity
  8
0
100
AcDbCircle
 10
-58.090291
 20
-353.731007
 30
0.0
 40
6.157373
100
AcDbArc
 50
231.687026
 51
293.871678
  0
ARC
  5
2D96
100
AcDbEntity
  8
0
100
AcDbCircle
 10
-64.800772
 20
-361.976332
 30
0.0
 40
0.804085
100
AcDbArc
 50
298.234369
 51
118.234369
  0
ARC
  5
2D97
100
AcDbEntity
  8
0
100
AcDbCircle
 10
-75.543443
 20
-346.814924
 30
0.0
 40
2.784892
100
AcDbArc
 50
347.11068
 51
190.578044
  0
ARC
  5
2D98
100
AcDbEntity
  8
0
100
AcDbCircle
 10
-76.314672
 20
-348.268298
 30
0.0
 40
1.502106
100
AcDbArc
 50
347.11068
 51
175.091429
  0
LINE
  5
2D99
100
AcDbEntity
  8
0
100
AcDbLine
 10
-74.156444
 20
-353.238255
 30
0.0
 11
-72.828722
 21
-347.436145
 31
0.0
  0
ARC
  5
2D9A
100
AcDbEntity
  8
0
100
AcDbCircle
 10
-63.972212
 20
-360.55226
 30
0.0
 40
6.522754
100
AcDbArc
 50
113.871678
 51
157.143332
  0
ARC
  5
2D9B
100
AcDbEntity
  8
0
100
AcDbCircle
 10
-84.692594
 20
-367.724656
 30
0.0
 40
0.804085
100
AcDbArc
 50
301.765631
 51
121.765631
  0
ARC
  5
2D9C
100
AcDbEntity
  8
0
100
AcDbCircle
 10
-80.092532
 20
-349.441343
 30
0.0
 40
2.784892
100
AcDbArc
 50
49.421956
 51
252.88932
  0
ARC
  5
2D9D
100
AcDbEntity
  8
0
100
AcDbCircle
 10
-78.448259
 20
-349.500125
 30
0.0
 40
1.502106
100
AcDbArc
 50
64.908571
 51
252.88932
  0
ARC
  5
2D9E
100
AcDbEntity
  8
0
100
AcDbCircle
 10
-73.981265
 20
-366.33099
 30
0.0
 40
6.522754
100
AcDbArc
 50
82.856668
 51
126.128322
  0
ARC
  5
2D9F
100
AcDbEntity
  8
0
100
AcDbCircle
 10
-74.196693
 20
-366.035872
 30
0.0
 40
6.157373
100
AcDbArc
 50
126.128322
 51
188.312974
  0
ARC
  5
2DA0
100
AcDbEntity
  8
0
100
AcDbCircle
 10
-73.756109
 20
-355.163513
 30
0.0
 40
1.966439
100
AcDbArc
 50
321.224266
 51
101.746596
  0
ARC
  5
2DA1
100
AcDbEntity
  8
0
100
AcDbCircle
 10
-73.756109
 20
-355.163513
 30
0.0
 40
1.966439
100
AcDbArc
 50
138.253404
 51
278.775734
  0
ARC
  5
2DA2
100
AcDbEntity
  8
0
100
AcDbCircle
 10
-71.923053
 20
-358.338459
 30
0.0
 40
1.966439
100
AcDbArc
 50
141.224266
 51
230.640074
  0
LINE
  5
2DA3
100
AcDbEntity
  8
0
100
AcDbLine
 10
-75.223264
 20
-353.854184
 30
0.0
 11
-80.911899
 21
-352.10297
 31
0.0
  0
LINE
  5
2DA4
100
AcDbEntity
  8
0
100
AcDbLine
 10
-75.614875
 20
-351.944037
 30
0.0
 11
-78.890206
 21
-350.935745
 31
0.0
  0
ARC
  5
2DA5
100
AcDbEntity
  8
0
100
AcDbCircle
 10
-71.923053
 20
-358.338459
 30
0.0
 40
1.966439
100
AcDbArc
 50
9.359926
 51
98.775734
  0
LINE
  5
2DA6
100
AcDbEntity
  8
0
100
AcDbLine
 10
-75.614875
 20
-351.944037
 30
0.0
 11
-74.850415
 21
-348.603371
 31
0.0
  0
ARC
  5
2DAA
100
AcDbEntity
  8
0
100
AcDbCircle
 10
-64.120078
 20
-360.218136
 30
0.0
 40
6.157373
100
AcDbArc
 50
51.687026
 51
113.871678
  0
ARC
  5
2DAB
100
AcDbEntity
  8
0
100
AcDbCircle
 10
-57.409597
 20
-351.972811
 30
0.0
 40
0.804085
100
AcDbArc
 50
118.234369
 51
298.234369
  0
ARC
  5
2DB8
100
AcDbEntity
  8
0
100
AcDbCircle
 10
-90.480442
 20
-373.778758
 30
0.0
 40
2.562002
100
AcDbArc
 50
150.106038
 51
330.106038
  0
ARC
  5
2DB9
100
AcDbEntity
  8
0
100
AcDbCircle
 10
-89.126046
 20
-374.563202
 30
0.0
 40
2.55738
100
AcDbArc
 50
319.778543
 51
148.816065
  0
ARC
  5
2DBA
100
AcDbEntity
  8
0
100
AcDbCircle
 10
-90.630268
 20
-373.662332
 30
0.0
 40
0.804085
100
AcDbArc
 50
148.234369
 51
328.234369
  0
ARC
  5
2DBB
100
AcDbEntity
  8
0
100
AcDbCircle
 10
-92.319053
 20
-384.158233
 30
0.0
 40
6.157373
100
AcDbArc
 50
81.687026
 51
143.871678
  0
ARC
  5
2DBC
100
AcDbEntity
  8
0
100
AcDbCircle
 10
-90.792559
 20
-373.711056
 30
0.0
 40
4.400737
100
AcDbArc
 50
261.687026
 51
325.326779
  0
ARC
  5
2DBD
100
AcDbEntity
  8
0
100
AcDbCircle
 10
-90.340669
 20
-375.525321
 30
0.0
 40
6.157373
100
AcDbArc
 50
261.687026
 51
323.871678
  0
ARC
  5
2DBE
100
AcDbEntity
  8
0
100
AcDbCircle
 10
-89.102973
 20
-374.570645
 30
0.0
 40
0.973133
100
AcDbArc
 50
330.106038
 51
150.106038
  0
ARC
  5
2DBF
100
AcDbEntity
  8
0
100
AcDbCircle
 10
-88.747259
 20
-374.775139
 30
0.0
 40
4.561176
100
AcDbArc
 50
81.764799
 51
150.116782
  0
ARC
  5
2DC0
100
AcDbEntity
  8
0
100
AcDbCircle
 10
-90.635787
 20
-375.309894
 30
0.0
 40
6.522754
100
AcDbArc
 50
323.871678
 51
10.374615
  0
ARC
  5
2DC1
100
AcDbEntity
  8
0
100
AcDbCircle
 10
-91.867164
 20
-385.972498
 30
0.0
 40
4.400737
100
AcDbArc
 50
81.687026
 51
145.326779
  0
ARC
  5
2DC2
100
AcDbEntity
  8
0
100
AcDbCircle
 10
-92.179281
 20
-385.904796
 30
0.0
 40
2.562002
100
AcDbArc
 50
339.886273
 51
150.106038
  0
ARC
  5
2DC3
100
AcDbEntity
  8
0
100
AcDbCircle
 10
-92.029454
 20
-386.021222
 30
0.0
 40
0.804085
100
AcDbArc
 50
328.234369
 51
148.234369
  0
ARC
  5
2DC4
100
AcDbEntity
  8
0
100
AcDbCircle
 10
-93.55675
 20
-385.112909
 30
0.0
 40
0.973133
100
AcDbArc
 50
150.106038
 51
330.106038
  0
ARC
  5
2DC5
100
AcDbEntity
  8
0
100
AcDbCircle
 10
-93.533676
 20
-385.120351
 30
0.0
 40
2.55738
100
AcDbArc
 50
139.778543
 51
328.816065
  0
ARC
  5
2DC6
100
AcDbEntity
  8
0
100
AcDbCircle
 10
-93.912463
 20
-384.908415
 30
0.0
 40
4.561176
100
AcDbArc
 50
198.207151
 51
299.962154
  0
ARC
  5
2DC7
100
AcDbEntity
  8
0
100
AcDbCircle
 10
-92.023936
 20
-384.37366
 30
0.0
 40
6.522754
100
AcDbArc
 50
143.871678
 51
197.486005
  0
ARC
  5
2E36
100
AcDbEntity
  8
0
100
AcDbCircle
 10
-121.541076
 20
-408.298764
 30
0.0
 40
0.973133
100
AcDbArc
 50
300.106038
 51
120.106038
  0
ARC
  5
2E37
100
AcDbEntity
  8
0
100
AcDbCircle
 10
-138.756109
 20
-409.939195
 30
0.0
 40
1.966439
100
AcDbArc
 50
321.224266
 51
101.746596
  0
LINE
  5
2E38
100
AcDbEntity
  8
0
100
AcDbLine
 10
-140.223264
 20
-408.629866
 30
0.0
 11
-145.911899
 21
-406.878653
 31
0.0
  0
ARC
  5
2E39
100
AcDbEntity
  8
0
100
AcDbCircle
 10
-114.270517
 20
-406.328285
 30
0.0
 40
2.55738
100
AcDbArc
 50
91.183935
 51
280.221457
  0
ARC
  5
2E3A
100
AcDbEntity
  8
0
100
AcDbCircle
 10
-114.175241
 20
-404.458969
 30
0.0
 40
4.400737
100
AcDbArc
 50
274.673221
 51
338.312974
  0
LINE
  5
2E3B
100
AcDbEntity
  8
0
100
AcDbLine
 10
-139.156444
 20
-408.013938
 30
0.0
 11
-137.828722
 21
-402.211828
 31
0.0
  0
ARC
  5
2E3C
100
AcDbEntity
  8
0
100
AcDbCircle
 10
-122.409597
 20
-406.748494
 30
0.0
 40
0.804085
100
AcDbArc
 50
118.234369
 51
298.234369
  0
ARC
  5
2E3D
100
AcDbEntity
  8
0
100
AcDbCircle
 10
-121.557338
 20
-408.280782
 30
0.0
 40
2.55738
100
AcDbArc
 50
289.778543
 51
118.816065
  0
ARC
  5
2E3E
100
AcDbEntity
  8
0
100
AcDbCircle
 10
-122.338057
 20
-406.924236
 30
0.0
 40
2.562002
100
AcDbArc
 50
120.106038
 51
300.106038
  0
ARC
  5
2E3F
100
AcDbEntity
  8
0
100
AcDbCircle
 10
-130.875103
 20
-414.846791
 30
0.0
 40
4.561176
100
AcDbArc
 50
226.587858
 51
269.962158
  0
ARC
  5
2E40
100
AcDbEntity
  8
0
100
AcDbCircle
 10
-130.653032
 20
-415.219726
 30
0.0
 40
2.55738
100
AcDbArc
 50
109.778543
 51
298.816065
  0
ARC
  5
2E41
100
AcDbEntity
  8
0
100
AcDbCircle
 10
-129.120078
 20
-414.993819
 30
0.0
 40
6.157373
100
AcDbArc
 50
51.687026
 51
113.871678
  0
ARC
  5
2E42
100
AcDbEntity
  8
0
100
AcDbCircle
 10
-129.872313
 20
-416.576273
 30
0.0
 40
2.562002
100
AcDbArc
 50
309.886279
 51
120.106038
  0
ARC
  5
2E43
100
AcDbEntity
  8
0
100
AcDbCircle
 10
-129.635863
 20
-416.790963
 30
0.0
 40
4.400737
100
AcDbArc
 50
51.687026
 51
115.326779
  0
ARC
  5
2E44
100
AcDbEntity
  8
0
100
AcDbCircle
 10
-157.319053
 20
-438.933916
 30
0.0
 40
6.157373
100
AcDbArc
 50
81.687026
 51
143.871678
  0
ARC
  5
2E45
100
AcDbEntity
  8
0
100
AcDbCircle
 10
-158.533676
 20
-439.896034
 30
0.0
 40
2.55738
100
AcDbArc
 50
139.778543
 51
328.816065
  0
ARC
  5
2E46
100
AcDbEntity
  8
0
100
AcDbCircle
 10
-157.179281
 20
-440.680479
 30
0.0
 40
2.562002
100
AcDbArc
 50
339.886273
 51
150.106038
  0
ARC
  5
2E47
100
AcDbEntity
  8
0
100
AcDbCircle
 10
-157.029454
 20
-440.796905
 30
0.0
 40
0.804085
100
AcDbArc
 50
328.234369
 51
148.234369
  0
ARC
  5
2E48
100
AcDbEntity
  8
0
100
AcDbCircle
 10
-158.55675
 20
-439.888592
 30
0.0
 40
0.973133
100
AcDbArc
 50
150.106038
 51
330.106038
  0
ARC
  5
2E49
100
AcDbEntity
  8
0
100
AcDbCircle
 10
-158.912463
 20
-439.684098
 30
0.0
 40
4.561176
100
AcDbArc
 50
198.207151
 51
299.962154
  0
ARC
  5
2E4A
100
AcDbEntity
  8
0
100
AcDbCircle
 10
-139.196693
 20
-420.811555
 30
0.0
 40
6.157373
100
AcDbArc
 50
126.128322
 51
188.312974
  0
ARC
  5
2E4B
100
AcDbEntity
  8
0
100
AcDbCircle
 10
-148.045032
 20
-422.494821
 30
0.0
 40
6.522754
100
AcDbArc
 50
259.625385
 51
306.128322
  0
ARC
  5
2E4C
100
AcDbEntity
  8
0
100
AcDbCircle
 10
-149.64387
 20
-422.338049
 30
0.0
 40
4.400737
100
AcDbArc
 50
304.673221
 51
8.312974
  0
ARC
  5
2E4D
100
AcDbEntity
  8
0
100
AcDbCircle
 10
-148.784281
 20
-424.027636
 30
0.0
 40
0.973133
100
AcDbArc
 50
119.893962
 51
299.893962
  0
ARC
  5
2E4E
100
AcDbEntity
  8
0
100
AcDbCircle
 10
-148.791723
 20
-424.004562
 30
0.0
 40
2.55738
100
AcDbArc
 50
121.183935
 51
310.221457
  0
ARC
  5
2E4F
100
AcDbEntity
  8
0
100
AcDbCircle
 10
-149.576168
 20
-422.650166
 30
0.0
 40
2.562002
100
AcDbArc
 50
299.893962
 51
119.893962
  0
ARC
  5
2E50
100
AcDbEntity
  8
0
100
AcDbCircle
 10
-149.692594
 20
-422.500339
 30
0.0
 40
0.804085
100
AcDbArc
 50
301.765631
 51
121.765631
  0
ARC
  5
2E51
100
AcDbEntity
  8
0
100
AcDbCircle
 10
-148.579787
 20
-424.383349
 30
0.0
 40
4.561176
100
AcDbArc
 50
119.883218
 51
188.235201
  0
ARC
  5
2E52
100
AcDbEntity
  8
0
100
AcDbCircle
 10
-154.102973
 20
-429.346327
 30
0.0
 40
0.973133
100
AcDbArc
 50
330.106038
 51
150.106038
  0
ARC
  5
2E53
100
AcDbEntity
  8
0
100
AcDbCircle
 10
-154.126046
 20
-429.338885
 30
0.0
 40
2.55738
100
AcDbArc
 50
319.778543
 51
148.816065
  0
ARC
  5
2E54
100
AcDbEntity
  8
0
100
AcDbCircle
 10
-155.792559
 20
-428.486739
 30
0.0
 40
4.400737
100
AcDbArc
 50
261.687026
 51
325.326779
  0
ARC
  5
2E55
100
AcDbEntity
  8
0
100
AcDbCircle
 10
-153.747259
 20
-429.550822
 30
0.0
 40
4.561176
100
AcDbArc
 50
81.764799
 51
150.116782
  0
ARC
  5
2E56
100
AcDbEntity
  8
0
100
AcDbCircle
 10
-155.340669
 20
-430.301004
 30
0.0
 40
6.157373
100
AcDbArc
 50
261.687026
 51
323.871678
  0
ARC
  5
2E57
100
AcDbEntity
  8
0
100
AcDbCircle
 10
-155.630268
 20
-428.438014
 30
0.0
 40
0.804085
100
AcDbArc
 50
148.234369
 51
328.234369
  0
ARC
  5
2E58
100
AcDbEntity
  8
0
100
AcDbCircle
 10
-155.480442
 20
-428.554441
 30
0.0
 40
2.562002
100
AcDbArc
 50
150.106038
 51
330.106038
  0
ARC
  5
2E59
100
AcDbEntity
  8
0
100
AcDbCircle
 10
-156.867164
 20
-440.748181
 30
0.0
 40
4.400737
100
AcDbArc
 50
81.687026
 51
145.326779
  0
ARC
  5
2E5A
100
AcDbEntity
  8
0
100
AcDbCircle
 10
-155.635787
 20
-430.085576
 30
0.0
 40
6.522754
100
AcDbArc
 50
323.871678
 51
10.374615
  0
ARC
  5
2E5B
100
AcDbEntity
  8
0
100
AcDbCircle
 10
-137.45013
 20
-420.951328
 30
0.0
 40
2.562002
100
AcDbArc
 50
119.893962
 51
290.113699
  0
ARC
  5
2E5C
100
AcDbEntity
  8
0
100
AcDbCircle
 10
-138.44651
 20
-419.218145
 30
0.0
 40
4.561176
100
AcDbArc
 50
330.037837
 51
13.412142
  0
ARC
  5
2E5D
100
AcDbEntity
  8
0
100
AcDbCircle
 10
-147.829604
 20
-422.789939
 30
0.0
 40
6.157373
100
AcDbArc
 50
306.128322
 51
8.312974
  0
ARC
  5
2E5E
100
AcDbEntity
  8
0
100
AcDbCircle
 10
-136.923053
 20
-413.114141
 30
0.0
 40
1.966439
100
AcDbArc
 50
9.359926
 51
98.775734
  0
ARC
  5
2E5F
100
AcDbEntity
  8
0
100
AcDbCircle
 10
-138.234574
 20
-419.596932
 30
0.0
 40
2.55738
100
AcDbArc
 50
301.183935
 51
130.221457
  0
ARC
  5
2E60
100
AcDbEntity
  8
0
100
AcDbCircle
 10
-138.756109
 20
-409.939195
 30
0.0
 40
1.966439
100
AcDbArc
 50
138.253404
 51
278.775734
  0
ARC
  5
2E61
100
AcDbEntity
  8
0
100
AcDbCircle
 10
-136.923053
 20
-413.114141
 30
0.0
 40
1.966439
100
AcDbArc
 50
141.224266
 51
230.640074
  0
ARC
  5
2E62
100
AcDbEntity
  8
0
100
AcDbCircle
 10
-138.242016
 20
-419.573858
 30
0.0
 40
0.973133
100
AcDbArc
 50
299.893962
 51
119.893962
  0
ARC
  5
2E63
100
AcDbEntity
  8
0
100
AcDbCircle
 10
-137.382428
 20
-421.263445
 30
0.0
 40
4.400737
100
AcDbArc
 50
124.673221
 51
188.312974
  0
ARC
  5
2E64
100
AcDbEntity
  8
0
100
AcDbCircle
 10
-137.333703
 20
-421.101154
 30
0.0
 40
0.804085
100
AcDbArc
 50
121.765631
 51
301.765631
  0
ARC
  5
2E65
100
AcDbEntity
  8
0
100
AcDbCircle
 10
-138.981265
 20
-421.106673
 30
0.0
 40
6.522754
100
AcDbArc
 50
82.856668
 51
126.128322
  0
ARC
  5
2E66
100
AcDbEntity
  8
0
100
AcDbCircle
 10
-130.669293
 20
-415.201745
 30
0.0
 40
0.973133
100
AcDbArc
 50
120.106038
 51
300.106038
  0
ARC
  5
2E67
100
AcDbEntity
  8
0
100
AcDbCircle
 10
-129.800772
 20
-416.752015
 30
0.0
 40
0.804085
100
AcDbArc
 50
298.234369
 51
118.234369
  0
ARC
  5
2E68
100
AcDbEntity
  8
0
100
AcDbCircle
 10
-128.972212
 20
-415.327943
 30
0.0
 40
6.522754
100
AcDbArc
 50
113.871678
 51
157.143332
  0
ARC
  5
2E69
100
AcDbEntity
  8
0
100
AcDbCircle
 10
-112.868993
 20
-405.394156
 30
0.0
 40
6.522754
100
AcDbArc
 50
229.625385
 51
276.128322
  0
ARC
  5
2E6A
100
AcDbEntity
  8
0
100
AcDbCircle
 10
-123.238157
 20
-408.172566
 30
0.0
 40
6.522754
100
AcDbArc
 50
293.871678
 51
340.374615
  0
ARC
  5
2E6B
100
AcDbEntity
  8
0
100
AcDbCircle
 10
-123.090291
 20
-408.50669
 30
0.0
 40
6.157373
100
AcDbArc
 50
231.687026
 51
293.871678
  0
ARC
  5
2E6C
100
AcDbEntity
  8
0
100
AcDbCircle
 10
-122.574507
 20
-406.709545
 30
0.0
 40
4.400737
100
AcDbArc
 50
231.687026
 51
295.326779
  0
ARC
  5
2E6D
100
AcDbEntity
  8
0
100
AcDbCircle
 10
-112.829986
 20
-405.757449
 30
0.0
 40
6.157373
100
AcDbArc
 50
276.128322
 51
338.312974
  0
ARC
  5
2E6E
100
AcDbEntity
  8
0
100
AcDbCircle
 10
-145.092532
 20
-404.217025
 30
0.0
 40
2.784892
100
AcDbArc
 50
49.421956
 51
252.88932
  0
LINE
  5
2E6F
100
AcDbEntity
  8
0
100
AcDbLine
 10
-140.614875
 20
-406.71972
 30
0.0
 11
-139.850415
 21
-403.379054
 31
0.0
  0
ARC
  5
2E70
100
AcDbEntity
  8
0
100
AcDbCircle
 10
-140.543443
 20
-401.590607
 30
0.0
 40
2.784892
100
AcDbArc
 50
347.11068
 51
190.578044
  0
ARC
  5
2E71
100
AcDbEntity
  8
0
100
AcDbCircle
 10
-141.314672
 20
-403.043981
 30
0.0
 40
1.502106
100
AcDbArc
 50
347.11068
 51
175.091429
  0
LINE
  5
2E72
100
AcDbEntity
  8
0
100
AcDbLine
 10
-140.614875
 20
-406.71972
 30
0.0
 11
-143.890206
 21
-405.711428
 31
0.0
  0
ARC
  5
2E73
100
AcDbEntity
  8
0
100
AcDbCircle
 10
-143.448259
 20
-404.275808
 30
0.0
 40
1.502106
100
AcDbArc
 50
64.908571
 51
252.88932
  0
ARC
  5
2E74
100
AcDbEntity
  8
0
100
AcDbCircle
 10
-114.272668
 20
-404.763121
 30
0.0
 40
2.562002
100
AcDbArc
 50
269.893962
 51
89.893962
  0
ARC
  5
2E75
100
AcDbEntity
  8
0
100
AcDbCircle
 10
-121.335267
 20
-408.653718
 30
0.0
 40
4.561176
100
AcDbArc
 50
51.764799
 51
120.116782
  0
ARC
  5
2E76
100
AcDbEntity
  8
0
100
AcDbCircle
 10
-114.298582
 20
-404.575154
 30
0.0
 40
0.804085
100
AcDbArc
 50
271.765631
 51
91.765631
  0
ARC
  5
2E77
100
AcDbEntity
  8
0
100
AcDbCircle
 10
-114.276368
 20
-406.762292
 30
0.0
 40
4.561176
100
AcDbArc
 50
89.883218
 51
158.235201
  0
ARC
  5
2E78
100
AcDbEntity
  8
0
100
AcDbCircle
 10
-114.275608
 20
-406.351988
 30
0.0
 40
0.973133
100
AcDbArc
 50
89.893962
 51
269.893962
  0
ARC
  5
2E79
100
AcDbEntity
  8
0
100
AcDbCircle
 10
-104.364473
 20
-408.360575
 30
0.0
 40
6.157373
100
AcDbArc
 50
96.128322
 51
158.312974
  0
ARC
  5
2E7A
100
AcDbEntity
  8
0
100
AcDbCircle
 10
-157.023936
 20
-439.149343
 30
0.0
 40
6.522754
100
AcDbArc
 50
143.871678
 51
197.486005
  0
ARC
  5
2E7B
100
AcDbEntity
  8
0
100
AcDbCircle
 10
-103.019218
 20
-409.659055
 30
0.0
 40
4.400737
100
AcDbArc
 50
94.673221
 51
158.312974
  0
ARC
  5
2E7C
100
AcDbEntity
  8
0
100
AcDbCircle
 10
-102.923943
 20
-407.789739
 30
0.0
 40
2.55738
100
AcDbArc
 50
271.183935
 51
100.221457
  0
ARC
  5
2E7D
100
AcDbEntity
  8
0
100
AcDbCircle
 10
-102.921792
 20
-409.354903
 30
0.0
 40
2.562002
100
AcDbArc
 50
89.893962
 51
260.113709
  0
ARC
  5
2E7E
100
AcDbEntity
  8
0
100
AcDbCircle
 10
-102.918851
 20
-407.766036
 30
0.0
 40
0.973133
100
AcDbArc
 50
269.893962
 51
89.893962
  0
ARC
  5
2E7F
100
AcDbEntity
  8
0
100
AcDbCircle
 10
-102.895877
 20
-409.54287
 30
0.0
 40
0.804085
100
AcDbArc
 50
91.765631
 51
271.765631
  0
ARC
  5
2E80
100
AcDbEntity
  8
0
100
AcDbCircle
 10
-104.325466
 20
-408.723868
 30
0.0
 40
6.522754
100
AcDbArc
 50
27.633319
 51
96.128322
  0
LINE
  5
2E8E
100
AcDbEntity
  8
0
100
AcDbLine
 10
-98.546737
 20
-483.20076
 30
0.0
 11
-98.546737
 21
-405.698541
 31
0.0
  0
ARC
  5
2E9A
100
AcDbEntity
  8
0
100
AcDbCircle
 10
-36.435797
 20
-359.485469
 30
0.0
 40
3.063381
100
AcDbArc
 50
19.421956
 51
74.844247
  0
ARC
  5
2E9B
100
AcDbEntity
  8
0
100
AcDbCircle
 10
-34.901746
 20
-360.445817
 30
0.0
 40
1.652316
100
AcDbArc
 50
34.908571
 51
222.88932
  0
LINE
  5
2E9C
100
AcDbEntity
  8
0
100
AcDbLine
 10
-33.546737
 20
-364.332317
 30
0.0
 11
-36.112349
 21
-361.570359
 31
0.0
  0
ARC
  5
305D
100
AcDbEntity
  8
0
100
AcDbCircle
 10
-47.735077
 20
-360.979548
 30
0.0
 40
3.063381
100
AcDbArc
 50
29.421956
 51
171.777341
  0
ARC
  5
305E
100
AcDbEntity
  8
0
100
AcDbCircle
 10
-42.04474
 20
-359.976188
 30
0.0
 40
3.063381
100
AcDbArc
 50
28.22266
 51
170.578044
  0
LINE
  5
305F
100
AcDbEntity
  8
0
100
AcDbLine
 10
-44.048262
 20
-365.251082
 30
0.0
 11
-42.001237
 21
-362.08557
 31
0.0
  0
ARC
  5
3060
100
AcDbEntity
  8
0
100
AcDbCircle
 10
-43.388722
 20
-361.188332
 30
0.0
 40
1.652316
100
AcDbArc
 50
327.11068
 51
155.091429
  0
ARC
  5
3061
100
AcDbEntity
  8
0
100
AcDbCircle
 10
-46.057569
 20
-361.658921
 30
0.0
 40
1.652316
100
AcDbArc
 50
44.908571
 51
232.88932
  0
LINE
  5
3062
100
AcDbEntity
  8
0
100
AcDbLine
 10
-44.048262
 20
-365.251082
 30
0.0
 11
-47.054506
 21
-362.976597
 31
0.0
  0
ARC
  5
3063
100
AcDbEntity
  8
0
100
AcDbCircle
 10
-58.603251
 20
-364.413028
 30
0.0
 40
3.063381
100
AcDbArc
 50
39.421956
 51
181.777341
  0
ARC
  5
3064
100
AcDbEntity
  8
0
100
AcDbCircle
 10
-53.173595
 20
-362.436795
 30
0.0
 40
3.063381
100
AcDbArc
 50
38.22266
 51
180.578044
  0
LINE
  5
3065
100
AcDbEntity
  8
0
100
AcDbLine
 10
-54.230703
 20
-367.979459
 30
0.0
 11
-52.764463
 21
-364.506576
 31
0.0
  0
ARC
  5
3066
100
AcDbEntity
  8
0
100
AcDbCircle
 10
-54.286672
 20
-363.863903
 30
0.0
 40
1.652316
100
AcDbArc
 50
337.11068
 51
165.091429
  0
ARC
  5
3067
100
AcDbEntity
  8
0
100
AcDbCircle
 10
-56.833257
 20
-364.790784
 30
0.0
 40
1.652316
100
AcDbArc
 50
54.908571
 51
242.88932
  0
LINE
  5
3068
100
AcDbEntity
  8
0
100
AcDbLine
 10
-54.230703
 20
-367.979459
 30
0.0
 11
-57.586235
 21
-366.261557
 31
0.0
  0
ARC
  5
3069
100
AcDbEntity
  8
0
100
AcDbCircle
 10
-68.710096
 20
-369.681585
 30
0.0
 40
3.063381
100
AcDbArc
 50
49.421956
 51
104.84424
  0
ARC
  5
306A
100
AcDbEntity
  8
0
100
AcDbCircle
 10
-63.706098
 20
-366.792525
 30
0.0
 40
3.063381
100
AcDbArc
 50
48.22266
 51
81.047502
  0
LINE
  5
306B
100
AcDbEntity
  8
0
100
AcDbLine
 10
-63.784673
 20
-372.434548
 30
0.0
 11
-62.943767
 21
-368.759816
 31
0.0
  0
ARC
  5
306C
100
AcDbEntity
  8
0
100
AcDbCircle
 10
-64.55445
 20
-368.391236
 30
0.0
 40
1.652316
100
AcDbArc
 50
347.11068
 51
175.091429
  0
ARC
  5
306D
100
AcDbEntity
  8
0
100
AcDbCircle
 10
-66.901396
 20
-369.746245
 30
0.0
 40
1.652316
100
AcDbArc
 50
64.908571
 51
252.88932
  0
LINE
  5
306E
100
AcDbEntity
  8
0
100
AcDbLine
 10
-63.784673
 20
-372.434548
 30
0.0
 11
-67.387537
 21
-371.325427
 31
0.0
  0
ARC
  5
306F
100
AcDbEntity
  8
0
100
AcDbCircle
 10
-77.74852
 20
-376.625135
 30
0.0
 40
3.063381
100
AcDbArc
 50
59.421956
 51
201.777341
  0
ARC
  5
3070
100
AcDbEntity
  8
0
100
AcDbCircle
 10
-73.322224
 20
-372.911031
 30
0.0
 40
3.063381
100
AcDbArc
 50
58.22266
 51
200.578044
  0
LINE
  5
3071
100
AcDbEntity
  8
0
100
AcDbLine
 10
-72.419878
 20
-378.480984
 30
0.0
 11
-72.229858
 21
-374.716057
 31
0.0
  0
ARC
  5
3072
100
AcDbEntity
  8
0
100
AcDbCircle
 10
-73.880075
 20
-374.632769
 30
0.0
 40
1.652316
100
AcDbArc
 50
357.11068
 51
185.091429
  0
ARC
  5
3073
100
AcDbEntity
  8
0
100
AcDbCircle
 10
-75.95607
 20
-376.374736
 30
0.0
 40
1.652316
100
AcDbArc
 50
74.908571
 51
262.88932
  0
LINE
  5
3074
100
AcDbEntity
  8
0
100
AcDbLine
 10
-72.419878
 20
-378.480984
 30
0.0
 11
-76.160604
 21
-378.014344
 31
0.0
  0
ARC
  5
3075
100
AcDbEntity
  8
0
100
AcDbCircle
 10
-85.443896
 20
-385.032703
 30
0.0
 40
3.063381
100
AcDbArc
 50
69.421956
 51
211.777341
  0
ARC
  5
3076
100
AcDbEntity
  8
0
100
AcDbCircle
 10
-81.729792
 20
-380.606406
 30
0.0
 40
3.063381
100
AcDbArc
 50
68.22266
 51
210.578044
  0
LINE
  5
3077
100
AcDbEntity
  8
0
100
AcDbLine
 10
-79.873943
 20
-385.935049
 30
0.0
 11
-80.340582
 21
-382.194323
 31
0.0
  0
ARC
  5
3078
100
AcDbEntity
  8
0
100
AcDbCircle
 10
-81.980191
 20
-382.398857
 30
0.0
 40
1.652316
100
AcDbArc
 50
7.11068
 51
195.091429
  0
ARC
  5
3079
100
AcDbEntity
  8
0
100
AcDbCircle
 10
-83.722158
 20
-384.474852
 30
0.0
 40
1.652316
100
AcDbArc
 50
84.908571
 51
272.88932
  0
LINE
  5
307A
100
AcDbEntity
  8
0
100
AcDbLine
 10
-79.873943
 20
-385.935049
 30
0.0
 11
-83.638869
 21
-386.125068
 31
0.0
  0
ARC
  5
307B
100
AcDbEntity
  8
0
100
AcDbCircle
 10
-91.562402
 20
-394.648829
 30
0.0
 40
3.063381
100
AcDbArc
 50
79.421956
 51
221.777341
  0
ARC
  5
307C
100
AcDbEntity
  8
0
100
AcDbCircle
 10
-88.673342
 20
-389.64483
 30
0.0
 40
3.063381
100
AcDbArc
 50
78.22266
 51
111.047497
  0
LINE
  5
307D
100
AcDbEntity
  8
0
100
AcDbLine
 10
-85.920378
 20
-394.570254
 30
0.0
 11
-87.029499
 21
-390.967389
 31
0.0
  0
ARC
  5
307E
100
AcDbEntity
  8
0
100
AcDbCircle
 10
-88.608681
 20
-391.453531
 30
0.0
 40
1.652316
100
AcDbArc
 50
17.11068
 51
205.091429
  0
ARC
  5
307F
100
AcDbEntity
  8
0
100
AcDbCircle
 10
-89.963691
 20
-393.800476
 30
0.0
 40
1.652316
100
AcDbArc
 50
94.908571
 51
282.88932
  0
LINE
  5
3080
100
AcDbEntity
  8
0
100
AcDbLine
 10
-85.920378
 20
-394.570254
 30
0.0
 11
-89.595111
 21
-395.411159
 31
0.0
  0
LINE
  5
3083
100
AcDbEntity
  8
0
100
AcDbLine
 10
-90.375467
 20
-404.124223
 30
0.0
 11
-92.093369
 21
-400.768691
 31
0.0
  0
ARC
  5
3084
100
AcDbEntity
  8
0
100
AcDbCircle
 10
-93.564142
 20
-401.52167
 30
0.0
 40
1.652316
100
AcDbArc
 50
27.11068
 51
215.091429
  0
ARC
  5
3085
100
AcDbEntity
  8
0
100
AcDbCircle
 10
-94.491023
 20
-404.068254
 30
0.0
 40
1.652316
100
AcDbArc
 50
104.908571
 51
292.88932
  0
LINE
  5
3086
100
AcDbEntity
  8
0
100
AcDbLine
 10
-90.375467
 20
-404.124223
 30
0.0
 11
-93.848351
 21
-405.590464
 31
0.0
  0
ARC
  5
312F
100
AcDbEntity
  8
0
100
AcDbCircle
 10
-63.706098
 20
-366.792525
 30
0.0
 40
3.063381
100
AcDbArc
 50
135.155744
 51
190.578044
  0
ARC
  5
3130
100
AcDbEntity
  8
0
100
AcDbCircle
 10
-36.435797
 20
-359.485469
 30
0.0
 40
3.063381
100
AcDbArc
 50
128.952497
 51
161.777341
  0
ARC
  5
3131
100
AcDbEntity
  8
0
100
AcDbCircle
 10
-88.673342
 20
-389.64483
 30
0.0
 40
3.063381
100
AcDbArc
 50
165.155741
 51
220.578044
  0
ARC
  5
3132
100
AcDbEntity
  8
0
100
AcDbCircle
 10
-68.710096
 20
-369.681585
 30
0.0
 40
3.063381
100
AcDbArc
 50
158.952493
 51
191.777341
  0
ARC
  5
3138
100
AcDbEntity
  8
0
100
AcDbCircle
 10
-101.435797
 20
-414.261152
 30
0.0
 40
3.063381
100
AcDbArc
 50
128.952497
 51
161.777341
  0
ARC
  5
3139
100
AcDbEntity
  8
0
100
AcDbCircle
 10
-107.04474
 20
-414.751871
 30
0.0
 40
3.063381
100
AcDbArc
 50
28.22266
 51
170.578044
  0
ARC
  5
313A
100
AcDbEntity
  8
0
100
AcDbCircle
 10
-112.735077
 20
-415.755231
 30
0.0
 40
3.063381
100
AcDbArc
 50
29.421956
 51
171.777341
  0
ARC
  5
313B
100
AcDbEntity
  8
0
100
AcDbCircle
 10
-111.057569
 20
-416.434604
 30
0.0
 40
1.652316
100
AcDbArc
 50
44.908571
 51
232.88932
  0
ARC
  5
313C
100
AcDbEntity
  8
0
100
AcDbCircle
 10
-118.173595
 20
-417.212478
 30
0.0
 40
3.063381
100
AcDbArc
 50
38.22266
 51
180.578044
  0
ARC
  5
313D
100
AcDbEntity
  8
0
100
AcDbCircle
 10
-119.286672
 20
-418.639586
 30
0.0
 40
1.652316
100
AcDbArc
 50
337.11068
 51
165.091429
  0
LINE
  5
313E
100
AcDbEntity
  8
0
100
AcDbLine
 10
-119.230703
 20
-422.755142
 30
0.0
 11
-117.764463
 21
-419.282258
 31
0.0
  0
LINE
  5
313F
100
AcDbEntity
  8
0
100
AcDbLine
 10
-109.048262
 20
-420.026765
 30
0.0
 11
-112.054506
 21
-417.75228
 31
0.0
  0
ARC
  5
3140
100
AcDbEntity
  8
0
100
AcDbCircle
 10
-108.388722
 20
-415.964015
 30
0.0
 40
1.652316
100
AcDbArc
 50
327.11068
 51
155.091429
  0
LINE
  5
3141
100
AcDbEntity
  8
0
100
AcDbLine
 10
-109.048262
 20
-420.026765
 30
0.0
 11
-107.001237
 21
-416.861252
 31
0.0
  0
LINE
  5
3142
100
AcDbEntity
  8
0
100
AcDbLine
 10
-119.230703
 20
-422.755142
 30
0.0
 11
-122.586235
 21
-421.03724
 31
0.0
  0
ARC
  5
3143
100
AcDbEntity
  8
0
100
AcDbCircle
 10
-121.833257
 20
-419.566467
 30
0.0
 40
1.652316
100
AcDbArc
 50
54.908571
 51
242.88932
  0
ARC
  5
3144
100
AcDbEntity
  8
0
100
AcDbCircle
 10
-123.603251
 20
-419.188711
 30
0.0
 40
3.063381
100
AcDbArc
 50
39.421956
 51
181.777341
  0
ARC
  5
3145
100
AcDbEntity
  8
0
100
AcDbCircle
 10
-128.706098
 20
-421.568207
 30
0.0
 40
3.063381
100
AcDbArc
 50
48.22266
 51
81.047502
  0
ARC
  5
3146
100
AcDbEntity
  8
0
100
AcDbCircle
 10
-129.55445
 20
-423.166919
 30
0.0
 40
1.652316
100
AcDbArc
 50
347.11068
 51
175.091429
  0
LINE
  5
3147
100
AcDbEntity
  8
0
100
AcDbLine
 10
-128.784673
 20
-427.210231
 30
0.0
 11
-127.943767
 21
-423.535499
 31
0.0
  0
ARC
  5
3148
100
AcDbEntity
  8
0
100
AcDbCircle
 10
-131.901396
 20
-424.521928
 30
0.0
 40
1.652316
100
AcDbArc
 50
64.908571
 51
252.88932
  0
LINE
  5
3149
100
AcDbEntity
  8
0
100
AcDbLine
 10
-128.784673
 20
-427.210231
 30
0.0
 11
-132.387537
 21
-426.10111
 31
0.0
  0
ARC
  5
314A
100
AcDbEntity
  8
0
100
AcDbCircle
 10
-133.710096
 20
-424.457267
 30
0.0
 40
3.063381
100
AcDbArc
 50
49.421956
 51
104.84424
  0
ARC
  5
314B
100
AcDbEntity
  8
0
100
AcDbCircle
 10
-128.706098
 20
-421.568207
 30
0.0
 40
3.063381
100
AcDbArc
 50
135.155744
 51
190.578044
  0
ARC
  5
314C
100
AcDbEntity
  8
0
100
AcDbCircle
 10
-138.322224
 20
-427.686714
 30
0.0
 40
3.063381
100
AcDbArc
 50
58.22266
 51
200.578044
  0
LINE
  5
314D
100
AcDbEntity
  8
0
100
AcDbLine
 10
-137.419878
 20
-433.256667
 30
0.0
 11
-141.160604
 21
-432.790027
 31
0.0
  0
ARC
  5
314E
100
AcDbEntity
  8
0
100
AcDbCircle
 10
-140.95607
 20
-431.150418
 30
0.0
 40
1.652316
100
AcDbArc
 50
74.908571
 51
262.88932
  0
ARC
  5
314F
100
AcDbEntity
  8
0
100
AcDbCircle
 10
-138.880075
 20
-429.408452
 30
0.0
 40
1.652316
100
AcDbArc
 50
357.11068
 51
185.091429
  0
LINE
  5
3150
100
AcDbEntity
  8
0
100
AcDbLine
 10
-137.419878
 20
-433.256667
 30
0.0
 11
-137.229858
 21
-429.49174
 31
0.0
  0
ARC
  5
3151
100
AcDbEntity
  8
0
100
AcDbCircle
 10
-133.710096
 20
-424.457267
 30
0.0
 40
3.063381
100
AcDbArc
 50
158.952493
 51
191.777341
  0
ARC
  5
3152
100
AcDbEntity
  8
0
100
AcDbCircle
 10
-142.74852
 20
-431.400818
 30
0.0
 40
3.063381
100
AcDbArc
 50
59.421956
 51
201.777341
  0
LINE
  5
3153
100
AcDbEntity
  8
0
100
AcDbLine
 10
-144.873943
 20
-440.710731
 30
0.0
 11
-148.638869
 21
-440.900751
 31
0.0
  0
LINE
  5
3154
100
AcDbEntity
  8
0
100
AcDbLine
 10
-144.873943
 20
-440.710731
 30
0.0
 11
-145.340582
 21
-436.970006
 31
0.0
  0
ARC
  5
3155
100
AcDbEntity
  8
0
100
AcDbCircle
 10
-146.729792
 20
-435.382089
 30
0.0
 40
3.063381
100
AcDbArc
 50
68.22266
 51
210.578044
  0
ARC
  5
3156
100
AcDbEntity
  8
0
100
AcDbCircle
 10
-146.980191
 20
-437.17454
 30
0.0
 40
1.652316
100
AcDbArc
 50
7.11068
 51
195.091429
  0
ARC
  5
3157
100
AcDbEntity
  8
0
100
AcDbCircle
 10
-150.443896
 20
-439.808386
 30
0.0
 40
3.063381
100
AcDbArc
 50
69.421956
 51
211.777341
  0
ARC
  5
3158
100
AcDbEntity
  8
0
100
AcDbCircle
 10
-148.722158
 20
-439.250535
 30
0.0
 40
1.652316
100
AcDbArc
 50
84.908571
 51
272.88932
  0
ARC
  5
3159
100
AcDbEntity
  8
0
100
AcDbCircle
 10
-153.673342
 20
-444.420513
 30
0.0
 40
3.063381
100
AcDbArc
 50
78.22266
 51
111.047497
  0
ARC
  5
315A
100
AcDbEntity
  8
0
100
AcDbCircle
 10
-153.608681
 20
-446.229214
 30
0.0
 40
1.652316
100
AcDbArc
 50
17.11068
 51
205.091429
  0
LINE
  5
315B
100
AcDbEntity
  8
0
100
AcDbLine
 10
-150.920378
 20
-449.345937
 30
0.0
 11
-154.595111
 21
-450.186842
 31
0.0
  0
LINE
  5
315C
100
AcDbEntity
  8
0
100
AcDbLine
 10
-150.920378
 20
-449.345937
 30
0.0
 11
-152.029499
 21
-445.743072
 31
0.0
  0
ARC
  5
315D
100
AcDbEntity
  8
0
100
AcDbCircle
 10
-154.963691
 20
-448.576159
 30
0.0
 40
1.652316
100
AcDbArc
 50
94.908571
 51
282.88932
  0
ARC
  5
315E
100
AcDbEntity
  8
0
100
AcDbCircle
 10
-153.673342
 20
-444.420513
 30
0.0
 40
3.063381
100
AcDbArc
 50
165.155741
 51
220.578044
  0
ARC
  5
3160
100
AcDbEntity
  8
0
100
AcDbCircle
 10
-156.562402
 20
-449.424512
 30
0.0
 40
3.063381
100
AcDbArc
 50
79.421956
 51
221.777341
  0
ARC
  5
3166
100
AcDbEntity
  8
0
100
AcDbCircle
 10
-159.491023
 20
-458.843937
 30
0.0
 40
1.652316
100
AcDbArc
 50
104.908571
 51
292.88932
  0
ARC
  5
3167
100
AcDbEntity
  8
0
100
AcDbCircle
 10
-160.918132
 20
-459.957015
 30
0.0
 40
3.063381
100
AcDbArc
 50
89.421956
 51
149.100942
  0
ARC
  5
3168
100
AcDbEntity
  8
0
100
AcDbCircle
 10
-158.941898
 20
-454.527358
 30
0.0
 40
3.063381
100
AcDbArc
 50
88.222659
 51
230.578044
  0
ARC
  5
3169
100
AcDbEntity
  8
0
100
AcDbCircle
 10
-158.564142
 20
-456.297353
 30
0.0
 40
1.652316
100
AcDbArc
 50
27.11068
 51
215.091429
  0
LINE
  5
316A
100
AcDbEntity
  8
0
100
AcDbLine
 10
-155.375468
 20
-458.899906
 30
0.0
 11
-157.093369
 21
-455.544374
 31
0.0
  0
LINE
  5
316B
100
AcDbEntity
  8
0
100
AcDbLine
 10
-155.375468
 20
-458.899906
 30
0.0
 11
-158.848351
 21
-460.366147
 31
0.0
  0
ARC
  5
316D
100
AcDbEntity
  8
0
100
AcDbCircle
 10
-95.918132
 20
-405.181332
 30
0.0
 40
3.063381
100
AcDbArc
 50
89.421956
 51
149.100942
  0
ARC
  5
316E
100
AcDbEntity
  8
0
100
AcDbCircle
 10
-93.941898
 20
-399.751675
 30
0.0
 40
3.063381
100
AcDbArc
 50
88.222659
 51
230.578044
  0
LINE
  5
3170
100
AcDbEntity
  8
0
100
AcDbLine
 10
-98.546737
 20
-403.608203
 30
0.0
 11
-98.546737
 21
-405.698541
 31
0.0
  0
ARC
  5
3171
100
AcDbEntity
  8
0
100
AcDbCircle
 10
-29.171682
 20
-354.57922
 30
0.0
 40
2.562002
100
AcDbArc
 50
279.886291
 51
90.106038
  0
ARC
  5
3172
100
AcDbEntity
  8
0
100
AcDbCircle
 10
-29.175383
 20
-352.580049
 30
0.0
 40
4.561176
100
AcDbArc
 50
196.587858
 51
239.96216
  0
ARC
  5
3173
100
AcDbEntity
  8
0
100
AcDbCircle
 10
-29.197597
 20
-354.767187
 30
0.0
 40
0.804085
100
AcDbArc
 50
268.234369
 51
88.234369
  0
ARC
  5
3174
100
AcDbEntity
  8
0
100
AcDbCircle
 10
-19.263488
 20
-350.981767
 30
0.0
 40
6.157373
100
AcDbArc
 50
201.687026
 51
263.871678
  0
ARC
  5
3175
100
AcDbEntity
  8
0
100
AcDbCircle
 10
-3.121262
 20
-360.55226
 30
0.0
 40
6.522754
100
AcDbArc
 50
22.856668
 51
66.128322
  0
ARC
  5
3176
100
AcDbEntity
  8
0
100
AcDbCircle
 10
6.662635
 20
-355.163513
 30
0.0
 40
1.966439
100
AcDbArc
 50
261.224266
 51
41.746596
  0
ARC
  5
3177
100
AcDbEntity
  8
0
100
AcDbCircle
 10
-2.973396
 20
-360.218136
 30
0.0
 40
6.157373
100
AcDbArc
 50
66.128322
 51
128.312974
  0
ARC
  5
3178
100
AcDbEntity
  8
0
100
AcDbCircle
 10
-9.755417
 20
-352.148553
 30
0.0
 40
2.562002
100
AcDbArc
 50
239.893962
 51
59.893962
  0
ARC
  5
3179
100
AcDbEntity
  8
0
100
AcDbCircle
 10
-10.536136
 20
-353.505099
 30
0.0
 40
2.55738
100
AcDbArc
 50
61.183935
 51
250.221457
  0
ARC
  5
317A
100
AcDbEntity
  8
0
100
AcDbCircle
 10
-29.169532
 20
-353.014057
 30
0.0
 40
2.55738
100
AcDbArc
 50
79.778543
 51
268.816065
  0
ARC
  5
317B
100
AcDbEntity
  8
0
100
AcDbCircle
 10
6.662635
 20
-355.163513
 30
0.0
 40
1.966439
100
AcDbArc
 50
78.253404
 51
218.775734
  0
ARC
  5
317C
100
AcDbEntity
  8
0
100
AcDbCircle
 10
62.778839
 20
-416.576273
 30
0.0
 40
2.562002
100
AcDbArc
 50
59.893962
 51
230.113721
  0
LINE
  5
317D
100
AcDbEntity
  8
0
100
AcDbLine
 10
61.691199
 20
-427.210231
 30
0.0
 11
65.294063
 21
-426.10111
 31
0.0
  0
ARC
  5
317E
100
AcDbEntity
  8
0
100
AcDbCircle
 10
62.460976
 20
-423.166919
 30
0.0
 40
1.652316
100
AcDbArc
 50
4.908571
 51
192.88932
  0
ARC
  5
317F
100
AcDbEntity
  8
0
100
AcDbCircle
 10
63.559558
 20
-415.219726
 30
0.0
 40
2.55738
100
AcDbArc
 50
241.183935
 51
70.221457
  0
ARC
  5
3180
100
AcDbEntity
  8
0
100
AcDbCircle
 10
62.026604
 20
-414.993819
 30
0.0
 40
6.157373
100
AcDbArc
 50
66.128322
 51
128.312974
  0
ARC
  5
3181
100
AcDbEntity
  8
0
100
AcDbCircle
 10
62.542388
 20
-416.790963
 30
0.0
 40
4.400737
100
AcDbArc
 50
64.673221
 51
128.312974
  0
ARC
  5
3182
100
AcDbEntity
  8
0
100
AcDbCircle
 10
62.707298
 20
-416.752015
 30
0.0
 40
0.804085
100
AcDbArc
 50
61.765631
 51
241.765631
  0
LINE
  5
3183
100
AcDbEntity
  8
0
100
AcDbLine
 10
96.453263
 20
-483.20076
 30
0.0
 11
96.453263
 21
-458.383886
 31
0.0
  0
ARC
  5
3184
100
AcDbEntity
  8
0
100
AcDbCircle
 10
71.1411
 20
-419.596932
 30
0.0
 40
2.55738
100
AcDbArc
 50
49.778543
 51
238.816065
  0
ARC
  5
3185
100
AcDbEntity
  8
0
100
AcDbCircle
 10
72.103219
 20
-420.811555
 30
0.0
 40
6.157373
100
AcDbArc
 50
351.687026
 51
53.871678
  0
ARC
  5
3186
100
AcDbEntity
  8
0
100
AcDbCircle
 10
93.824658
 20
-459.957015
 30
0.0
 40
3.063381
100
AcDbArc
 50
30.899058
 51
90.578044
  0
ARC
  5
3187
100
AcDbEntity
  8
0
100
AcDbCircle
 10
91.848424
 20
-454.527358
 30
0.0
 40
3.063381
100
AcDbArc
 50
309.421956
 51
91.777341
  0
ARC
  5
3188
100
AcDbEntity
  8
0
100
AcDbCircle
 10
91.818989
 20
-439.684098
 30
0.0
 40
4.561176
100
AcDbArc
 50
240.037846
 51
341.792849
  0
ARC
  5
3189
100
AcDbEntity
  8
0
100
AcDbCircle
 10
90.225579
 20
-438.933916
 30
0.0
 40
6.157373
100
AcDbArc
 50
36.128322
 51
98.312974
  0
ARC
  5
318A
100
AcDbEntity
  8
0
100
AcDbCircle
 10
89.930462
 20
-439.149343
 30
0.0
 40
6.522754
100
AcDbArc
 50
342.513995
 51
36.128322
  0
ARC
  5
318B
100
AcDbEntity
  8
0
100
AcDbCircle
 10
89.468928
 20
-449.424512
 30
0.0
 40
3.063381
100
AcDbArc
 50
318.222659
 51
100.578044
  0
ARC
  5
318C
100
AcDbEntity
  8
0
100
AcDbCircle
 10
87.870217
 20
-448.576159
 30
0.0
 40
1.652316
100
AcDbArc
 50
257.11068
 51
85.091429
  0
LINE
  5
318D
100
AcDbEntity
  8
0
100
AcDbLine
 10
83.826904
 20
-449.345937
 30
0.0
 11
84.936025
 21
-445.743072
 31
0.0
  0
LINE
  5
318E
100
AcDbEntity
  8
0
100
AcDbLine
 10
83.826904
 20
-449.345937
 30
0.0
 11
87.501637
 21
-450.186842
 31
0.0
  0
LINE
  5
318F
100
AcDbEntity
  8
0
100
AcDbLine
 10
88.281993
 20
-458.899906
 30
0.0
 11
91.754877
 21
-460.366147
 31
0.0
  0
LINE
  5
3190
100
AcDbEntity
  8
0
100
AcDbLine
 10
88.281993
 20
-458.899906
 30
0.0
 11
89.999895
 21
-455.544374
 31
0.0
  0
ARC
  5
3191
100
AcDbEntity
  8
0
100
AcDbCircle
 10
91.470668
 20
-456.297353
 30
0.0
 40
1.652316
100
AcDbArc
 50
324.908571
 51
152.88932
  0
ARC
  5
3192
100
AcDbEntity
  8
0
100
AcDbCircle
 10
92.397549
 20
-458.843937
 30
0.0
 40
1.652316
100
AcDbArc
 50
247.11068
 51
75.091429
  0
ARC
  5
3193
100
AcDbEntity
  8
0
100
AcDbCircle
 10
79.886717
 20
-437.17454
 30
0.0
 40
1.652316
100
AcDbArc
 50
344.908571
 51
172.88932
  0
LINE
  5
3194
100
AcDbEntity
  8
0
100
AcDbLine
 10
77.780468
 20
-440.710731
 30
0.0
 11
81.545395
 21
-440.900751
 31
0.0
  0
ARC
  5
3195
100
AcDbEntity
  8
0
100
AcDbCircle
 10
75.655046
 20
-431.400818
 30
0.0
 40
3.063381
100
AcDbArc
 50
338.222659
 51
120.578044
  0
ARC
  5
3196
100
AcDbEntity
  8
0
100
AcDbCircle
 10
80.951558
 20
-422.494821
 30
0.0
 40
6.522754
100
AcDbArc
 50
233.871678
 51
280.374615
  0
ARC
  5
3197
100
AcDbEntity
  8
0
100
AcDbCircle
 10
82.550395
 20
-422.338049
 30
0.0
 40
4.400737
100
AcDbArc
 50
171.687026
 51
235.326779
  0
ARC
  5
3198
100
AcDbEntity
  8
0
100
AcDbCircle
 10
79.636318
 20
-435.382089
 30
0.0
 40
3.063381
100
AcDbArc
 50
329.421956
 51
111.77734
  0
ARC
  5
3199
100
AcDbEntity
  8
0
100
AcDbCircle
 10
88.699085
 20
-428.486739
 30
0.0
 40
4.400737
100
AcDbArc
 50
214.673221
 51
278.312974
  0
ARC
  5
319A
100
AcDbEntity
  8
0
100
AcDbCircle
 10
88.542313
 20
-430.085576
 30
0.0
 40
6.522754
100
AcDbArc
 50
169.625385
 51
216.128322
  0
ARC
  5
319B
100
AcDbEntity
  8
0
100
AcDbCircle
 10
86.515207
 20
-446.229214
 30
0.0
 40
1.652316
100
AcDbArc
 50
334.908571
 51
162.88932
  0
ARC
  5
319C
100
AcDbEntity
  8
0
100
AcDbCircle
 10
86.579868
 20
-444.420513
 30
0.0
 40
3.063381
100
AcDbArc
 50
68.952503
 51
101.77734
  0
ARC
  5
319D
100
AcDbEntity
  8
0
100
AcDbCircle
 10
83.350422
 20
-439.808386
 30
0.0
 40
3.063381
100
AcDbArc
 50
328.222659
 51
110.578044
  0
ARC
  5
319E
100
AcDbEntity
  8
0
100
AcDbCircle
 10
88.247195
 20
-430.301004
 30
0.0
 40
6.157373
100
AcDbArc
 50
216.128322
 51
278.312974
  0
ARC
  5
319F
100
AcDbEntity
  8
0
100
AcDbCircle
 10
90.085806
 20
-440.680479
 30
0.0
 40
2.562002
100
AcDbArc
 50
29.893962
 51
200.113727
  0
ARC
  5
31A0
100
AcDbEntity
  8
0
100
AcDbCircle
 10
86.579868
 20
-444.420513
 30
0.0
 40
3.063381
100
AcDbArc
 50
319.421956
 51
14.844259
  0
ARC
  5
31A1
100
AcDbEntity
  8
0
100
AcDbCircle
 10
91.440202
 20
-439.896034
 30
0.0
 40
2.55738
100
AcDbArc
 50
211.183935
 51
40.221457
  0
ARC
  5
31A2
100
AcDbEntity
  8
0
100
AcDbCircle
 10
89.93598
 20
-440.796905
 30
0.0
 40
0.804085
100
AcDbArc
 50
31.765631
 51
211.765631
  0
ARC
  5
31A3
100
AcDbEntity
  8
0
100
AcDbCircle
 10
91.463276
 20
-439.888592
 30
0.0
 40
0.973133
100
AcDbArc
 50
209.893962
 51
29.893962
  0
ARC
  5
31A4
100
AcDbEntity
  8
0
100
AcDbCircle
 10
89.77369
 20
-440.748181
 30
0.0
 40
4.400737
100
AcDbArc
 50
34.673221
 51
98.312974
  0
ARC
  5
31A5
100
AcDbEntity
  8
0
100
AcDbCircle
 10
81.628683
 20
-439.250535
 30
0.0
 40
1.652316
100
AcDbArc
 50
267.11068
 51
95.091429
  0
ARC
  5
31A6
100
AcDbEntity
  8
0
100
AcDbCircle
 10
86.653785
 20
-429.550822
 30
0.0
 40
4.561176
100
AcDbArc
 50
29.883218
 51
98.235201
  0
ARC
  5
31A7
100
AcDbEntity
  8
0
100
AcDbCircle
 10
87.009498
 20
-429.346327
 30
0.0
 40
0.973133
100
AcDbArc
 50
29.893962
 51
209.893962
  0
ARC
  5
31A8
100
AcDbEntity
  8
0
100
AcDbCircle
 10
87.032572
 20
-429.338885
 30
0.0
 40
2.55738
100
AcDbArc
 50
31.183935
 51
220.221457
  0
ARC
  5
31A9
100
AcDbEntity
  8
0
100
AcDbCircle
 10
88.386968
 20
-428.554441
 30
0.0
 40
2.562002
100
AcDbArc
 50
209.893962
 51
29.893962
  0
ARC
  5
31AA
100
AcDbEntity
  8
0
100
AcDbCircle
 10
81.486313
 20
-424.383349
 30
0.0
 40
4.561176
100
AcDbArc
 50
351.764799
 51
60.116782
  0
ARC
  5
31AB
100
AcDbEntity
  8
0
100
AcDbCircle
 10
88.536794
 20
-428.438014
 30
0.0
 40
0.804085
100
AcDbArc
 50
211.765631
 51
31.765631
  0
ARC
  5
31AC
100
AcDbEntity
  8
0
100
AcDbCircle
 10
81.690807
 20
-424.027636
 30
0.0
 40
0.973133
100
AcDbArc
 50
240.106038
 51
60.106038
  0
ARC
  5
31AD
100
AcDbEntity
  8
0
100
AcDbCircle
 10
81.698249
 20
-424.004562
 30
0.0
 40
2.55738
100
AcDbArc
 50
229.778543
 51
58.816065
  0
ARC
  5
31AE
100
AcDbEntity
  8
0
100
AcDbCircle
 10
82.482693
 20
-422.650166
 30
0.0
 40
2.562002
100
AcDbArc
 50
60.106038
 51
240.106038
  0
ARC
  5
31AF
100
AcDbEntity
  8
0
100
AcDbCircle
 10
82.599119
 20
-422.500339
 30
0.0
 40
0.804085
100
AcDbArc
 50
58.234369
 51
238.234369
  0
LINE
  5
31B0
100
AcDbEntity
  8
0
100
AcDbLine
 10
70.326404
 20
-433.256667
 30
0.0
 11
70.136384
 21
-429.49174
 31
0.0
  0
LINE
  5
31B1
100
AcDbEntity
  8
0
100
AcDbLine
 10
70.326404
 20
-433.256667
 30
0.0
 11
74.06713
 21
-432.790027
 31
0.0
  0
LINE
  5
31B2
100
AcDbEntity
  8
0
100
AcDbLine
 10
77.780468
 20
-440.710731
 30
0.0
 11
78.247108
 21
-436.970006
 31
0.0
  0
ARC
  5
31B3
100
AcDbEntity
  8
0
100
AcDbCircle
 10
70.356655
 20
-420.951328
 30
0.0
 40
2.562002
100
AcDbArc
 50
249.886301
 51
60.106038
  0
ARC
  5
31B4
100
AcDbEntity
  8
0
100
AcDbCircle
 10
71.22875
 20
-427.686714
 30
0.0
 40
3.063381
100
AcDbArc
 50
339.421956
 51
121.77734
  0
ARC
  5
31B5
100
AcDbEntity
  8
0
100
AcDbCircle
 10
70.240229
 20
-421.101154
 30
0.0
 40
0.804085
100
AcDbArc
 50
238.234369
 51
58.234369
  0
ARC
  5
31B6
100
AcDbEntity
  8
0
100
AcDbCircle
 10
71.148542
 20
-419.573858
 30
0.0
 40
0.973133
100
AcDbArc
 50
60.106038
 51
240.106038
  0
ARC
  5
31B7
100
AcDbEntity
  8
0
100
AcDbCircle
 10
71.786601
 20
-429.408452
 30
0.0
 40
1.652316
100
AcDbArc
 50
354.908571
 51
182.88932
  0
ARC
  5
31B8
100
AcDbEntity
  8
0
100
AcDbCircle
 10
73.862596
 20
-431.150418
 30
0.0
 40
1.652316
100
AcDbArc
 50
277.11068
 51
105.091429
  0
ARC
  5
31B9
100
AcDbEntity
  8
0
100
AcDbCircle
 10
80.73613
 20
-422.789939
 30
0.0
 40
6.157373
100
AcDbArc
 50
171.687026
 51
233.871678
  0
ARC
  5
31BA
100
AcDbEntity
  8
0
100
AcDbCircle
 10
70.288954
 20
-421.263445
 30
0.0
 40
4.400737
100
AcDbArc
 50
351.687026
 51
55.326779
  0
ARC
  5
31BB
100
AcDbEntity
  8
0
100
AcDbCircle
 10
63.781628
 20
-414.846791
 30
0.0
 40
4.561176
100
AcDbArc
 50
270.037842
 51
313.412142
  0
ARC
  5
31BC
100
AcDbEntity
  8
0
100
AcDbCircle
 10
71.353036
 20
-419.218145
 30
0.0
 40
4.561176
100
AcDbArc
 50
166.587858
 51
209.962163
  0
ARC
  5
31BD
100
AcDbEntity
  8
0
100
AcDbCircle
 10
66.616622
 20
-424.457267
 30
0.0
 40
3.063381
100
AcDbArc
 50
348.222659
 51
21.047507
  0
ARC
  5
31BE
100
AcDbEntity
  8
0
100
AcDbCircle
 10
61.612624
 20
-421.568207
 30
0.0
 40
3.063381
100
AcDbArc
 50
349.421956
 51
44.844256
  0
ARC
  5
31BF
100
AcDbEntity
  8
0
100
AcDbCircle
 10
66.616622
 20
-424.457267
 30
0.0
 40
3.063381
100
AcDbArc
 50
75.15576
 51
130.578044
  0
ARC
  5
31C0
100
AcDbEntity
  8
0
100
AcDbCircle
 10
64.807921
 20
-424.521928
 30
0.0
 40
1.652316
100
AcDbArc
 50
287.11068
 51
115.091429
  0
LINE
  5
31C1
100
AcDbEntity
  8
0
100
AcDbLine
 10
73.12979
 20
-408.629866
 30
0.0
 11
78.818425
 21
-406.878653
 31
0.0
  0
ARC
  5
31C2
100
AcDbEntity
  8
0
100
AcDbCircle
 10
77.999058
 20
-404.217025
 30
0.0
 40
2.784892
100
AcDbArc
 50
287.11068
 51
130.578044
  0
ARC
  5
31C3
100
AcDbEntity
  8
0
100
AcDbCircle
 10
74.221198
 20
-403.043981
 30
0.0
 40
1.502106
100
AcDbArc
 50
4.908571
 51
192.88932
  0
ARC
  5
31C4
100
AcDbEntity
  8
0
100
AcDbCircle
 10
73.449968
 20
-401.590607
 30
0.0
 40
2.784892
100
AcDbArc
 50
349.421956
 51
192.88932
  0
ARC
  5
31C5
100
AcDbEntity
  8
0
100
AcDbCircle
 10
71.662635
 20
-409.939195
 30
0.0
 40
1.966439
100
AcDbArc
 50
78.253404
 51
218.775734
  0
ARC
  5
31C6
100
AcDbEntity
  8
0
100
AcDbCircle
 10
69.829579
 20
-413.114141
 30
0.0
 40
1.966439
100
AcDbArc
 50
81.224266
 51
170.640074
  0
ARC
  5
31C7
100
AcDbEntity
  8
0
100
AcDbCircle
 10
71.662635
 20
-409.939195
 30
0.0
 40
1.966439
100
AcDbArc
 50
261.224266
 51
41.746596
  0
ARC
  5
31C8
100
AcDbEntity
  8
0
100
AcDbCircle
 10
69.829579
 20
-413.114141
 30
0.0
 40
1.966439
100
AcDbArc
 50
309.359926
 51
38.775734
  0
ARC
  5
31C9
100
AcDbEntity
  8
0
100
AcDbCircle
 10
71.887791
 20
-421.106673
 30
0.0
 40
6.522754
100
AcDbArc
 50
53.871678
 51
97.143332
  0
LINE
  5
31CA
100
AcDbEntity
  8
0
100
AcDbLine
 10
73.5214
 20
-406.71972
 30
0.0
 11
72.756941
 21
-403.379054
 31
0.0
  0
LINE
  5
31CB
100
AcDbEntity
  8
0
100
AcDbLine
 10
73.5214
 20
-406.71972
 30
0.0
 11
76.796732
 21
-405.711428
 31
0.0
  0
ARC
  5
31CC
100
AcDbEntity
  8
0
100
AcDbCircle
 10
76.354785
 20
-404.275808
 30
0.0
 40
1.502106
100
AcDbArc
 50
287.11068
 51
115.091429
  0
LINE
  5
31CD
100
AcDbEntity
  8
0
100
AcDbLine
 10
72.06297
 20
-408.013938
 30
0.0
 11
70.735248
 21
-402.211828
 31
0.0
  0
ARC
  5
31CE
100
AcDbEntity
  8
0
100
AcDbCircle
 10
61.878738
 20
-415.327943
 30
0.0
 40
6.522754
100
AcDbArc
 50
22.856668
 51
66.128322
  0
ARC
  5
31CF
100
AcDbEntity
  8
0
100
AcDbCircle
 10
63.575819
 20
-415.201745
 30
0.0
 40
0.973133
100
AcDbArc
 50
239.893962
 51
59.893962
  0
LINE
  5
31D0
100
AcDbEntity
  8
0
100
AcDbLine
 10
31.453263
 20
-483.20076
 30
0.0
 11
31.453263
 21
-405.698541
 31
0.0
  0
ARC
  5
31D1
100
AcDbEntity
  8
0
100
AcDbCircle
 10
-2.221161
 20
-361.80059
 30
0.0
 40
2.562002
100
AcDbArc
 50
59.893962
 51
230.113721
  0
ARC
  5
31D2
100
AcDbEntity
  8
0
100
AcDbCircle
 10
-2.539024
 20
-368.391236
 30
0.0
 40
1.652316
100
AcDbArc
 50
4.908571
 51
192.88932
  0
LINE
  5
31D3
100
AcDbEntity
  8
0
100
AcDbLine
 10
-3.308801
 20
-372.434548
 30
0.0
 11
-4.149707
 21
-368.759816
 31
0.0
  0
ARC
  5
31D4
100
AcDbEntity
  8
0
100
AcDbCircle
 10
-2.457612
 20
-362.015281
 30
0.0
 40
4.400737
100
AcDbArc
 50
64.673221
 51
128.312974
  0
ARC
  5
31D5
100
AcDbEntity
  8
0
100
AcDbCircle
 10
-1.440442
 20
-360.444044
 30
0.0
 40
2.55738
100
AcDbArc
 50
241.183935
 51
70.221457
  0
ARC
  5
31D6
100
AcDbEntity
  8
0
100
AcDbCircle
 10
56.509777
 20
-419.188711
 30
0.0
 40
3.063381
100
AcDbArc
 50
358.222659
 51
140.578044
  0
LINE
  5
31D7
100
AcDbEntity
  8
0
100
AcDbLine
 10
41.954788
 20
-420.026765
 30
0.0
 11
39.907763
 21
-416.861252
 31
0.0
  0
ARC
  5
31D8
100
AcDbEntity
  8
0
100
AcDbCircle
 10
41.295248
 20
-415.964015
 30
0.0
 40
1.652316
100
AcDbArc
 50
24.908571
 51
212.88932
  0
ARC
  5
31D9
100
AcDbEntity
  8
0
100
AcDbCircle
 10
52.193198
 20
-418.639586
 30
0.0
 40
1.652316
100
AcDbArc
 50
14.908571
 51
202.88932
  0
ARC
  5
31DA
100
AcDbEntity
  8
0
100
AcDbCircle
 10
43.964095
 20
-416.434604
 30
0.0
 40
1.652316
100
AcDbArc
 50
307.11068
 51
135.091429
  0
ARC
  5
31DB
100
AcDbEntity
  8
0
100
AcDbCircle
 10
54.739783
 20
-419.566467
 30
0.0
 40
1.652316
100
AcDbArc
 50
297.11068
 51
125.091429
  0
LINE
  5
31DC
100
AcDbEntity
  8
0
100
AcDbLine
 10
52.137229
 20
-422.755142
 30
0.0
 11
55.492761
 21
-421.03724
 31
0.0
  0
LINE
  5
31DD
100
AcDbEntity
  8
0
100
AcDbLine
 10
61.691199
 20
-427.210231
 30
0.0
 11
60.850293
 21
-423.535499
 31
0.0
  0
ARC
  5
31DE
100
AcDbEntity
  8
0
100
AcDbCircle
 10
61.612624
 20
-421.568207
 30
0.0
 40
3.063381
100
AcDbArc
 50
98.952498
 51
131.77734
  0
LINE
  5
31DF
100
AcDbEntity
  8
0
100
AcDbLine
 10
52.137229
 20
-422.755142
 30
0.0
 11
50.670988
 21
-419.282258
 31
0.0
  0
LINE
  5
31E0
100
AcDbEntity
  8
0
100
AcDbLine
 10
41.954788
 20
-420.026765
 30
0.0
 11
44.961031
 21
-417.75228
 31
0.0
  0
ARC
  5
31E1
100
AcDbEntity
  8
0
100
AcDbCircle
 10
28.824658
 20
-405.181332
 30
0.0
 40
3.063381
100
AcDbArc
 50
30.899058
 51
90.578044
  0
ARC
  5
31E2
100
AcDbEntity
  8
0
100
AcDbCircle
 10
26.848424
 20
-399.751675
 30
0.0
 40
3.063381
100
AcDbArc
 50
309.421956
 51
91.777341
  0
ARC
  5
31E3
100
AcDbEntity
  8
0
100
AcDbCircle
 10
26.818989
 20
-384.908415
 30
0.0
 40
4.561176
100
AcDbArc
 50
240.037846
 51
341.792849
  0
ARC
  5
31E4
100
AcDbEntity
  8
0
100
AcDbCircle
 10
25.225579
 20
-384.158233
 30
0.0
 40
6.157373
100
AcDbArc
 50
36.128322
 51
98.312974
  0
ARC
  5
31E5
100
AcDbEntity
  8
0
100
AcDbCircle
 10
24.930462
 20
-384.37366
 30
0.0
 40
6.522754
100
AcDbArc
 50
342.513995
 51
36.128322
  0
ARC
  5
31E6
100
AcDbEntity
  8
0
100
AcDbCircle
 10
45.641603
 20
-415.755231
 30
0.0
 40
3.063381
100
AcDbArc
 50
8.222659
 51
150.578044
  0
ARC
  5
31E7
100
AcDbEntity
  8
0
100
AcDbCircle
 10
45.775519
 20
-405.394156
 30
0.0
 40
6.522754
100
AcDbArc
 50
263.871678
 51
310.374615
  0
ARC
  5
31E8
100
AcDbEntity
  8
0
100
AcDbCircle
 10
47.177043
 20
-406.328285
 30
0.0
 40
2.55738
100
AcDbArc
 50
259.778543
 51
88.816065
  0
ARC
  5
31E9
100
AcDbEntity
  8
0
100
AcDbCircle
 10
47.081767
 20
-404.458969
 30
0.0
 40
4.400737
100
AcDbArc
 50
201.687026
 51
265.326779
  0
ARC
  5
31EA
100
AcDbEntity
  8
0
100
AcDbCircle
 10
47.179194
 20
-404.763121
 30
0.0
 40
2.562002
100
AcDbArc
 50
90.106038
 51
270.106038
  0
ARC
  5
31EB
100
AcDbEntity
  8
0
100
AcDbCircle
 10
47.182894
 20
-406.762292
 30
0.0
 40
4.561176
100
AcDbArc
 50
21.764799
 51
90.116782
  0
ARC
  5
31EC
100
AcDbEntity
  8
0
100
AcDbCircle
 10
51.080121
 20
-417.212478
 30
0.0
 40
3.063381
100
AcDbArc
 50
359.421956
 51
141.77734
  0
ARC
  5
31ED
100
AcDbEntity
  8
0
100
AcDbCircle
 10
55.481033
 20
-406.709545
 30
0.0
 40
4.400737
100
AcDbArc
 50
244.673221
 51
308.312974
  0
ARC
  5
31EE
100
AcDbEntity
  8
0
100
AcDbCircle
 10
55.996817
 20
-408.50669
 30
0.0
 40
6.157373
100
AcDbArc
 50
246.128322
 51
308.312974
  0
ARC
  5
31EF
100
AcDbEntity
  8
0
100
AcDbCircle
 10
54.447602
 20
-408.298764
 30
0.0
 40
0.973133
100
AcDbArc
 50
59.893962
 51
239.893962
  0
ARC
  5
31F0
100
AcDbEntity
  8
0
100
AcDbCircle
 10
54.463864
 20
-408.280782
 30
0.0
 40
2.55738
100
AcDbArc
 50
61.183935
 51
250.221457
  0
ARC
  5
31F1
100
AcDbEntity
  8
0
100
AcDbCircle
 10
54.241793
 20
-408.653718
 30
0.0
 40
4.561176
100
AcDbArc
 50
59.883218
 51
128.235201
  0
ARC
  5
31F2
100
AcDbEntity
  8
0
100
AcDbCircle
 10
55.316123
 20
-406.748494
 30
0.0
 40
0.804085
100
AcDbArc
 50
241.765631
 51
61.765631
  0
ARC
  5
31F3
100
AcDbEntity
  8
0
100
AcDbCircle
 10
55.244583
 20
-406.924236
 30
0.0
 40
2.562002
100
AcDbArc
 50
239.893962
 51
59.893962
  0
ARC
  5
31F4
100
AcDbEntity
  8
0
100
AcDbCircle
 10
56.144683
 20
-408.172566
 30
0.0
 40
6.522754
100
AcDbArc
 50
199.625385
 51
246.128322
  0
ARC
  5
31F5
100
AcDbEntity
  8
0
100
AcDbCircle
 10
47.205108
 20
-404.575154
 30
0.0
 40
0.804085
100
AcDbArc
 50
88.234369
 51
268.234369
  0
ARC
  5
31F6
100
AcDbEntity
  8
0
100
AcDbCircle
 10
47.182134
 20
-406.351988
 30
0.0
 40
0.973133
100
AcDbArc
 50
270.106038
 51
90.106038
  0
ARC
  5
31F7
100
AcDbEntity
  8
0
100
AcDbCircle
 10
37.231992
 20
-408.723868
 30
0.0
 40
6.522754
100
AcDbArc
 50
83.871678
 51
152.366681
  0
ARC
  5
31F8
100
AcDbEntity
  8
0
100
AcDbCircle
 10
37.270999
 20
-408.360575
 30
0.0
 40
6.157373
100
AcDbArc
 50
21.687026
 51
83.871678
  0
ARC
  5
31F9
100
AcDbEntity
  8
0
100
AcDbCircle
 10
35.828318
 20
-409.354903
 30
0.0
 40
2.562002
100
AcDbArc
 50
279.886291
 51
90.106038
  0
ARC
  5
31FA
100
AcDbEntity
  8
0
100
AcDbCircle
 10
39.951266
 20
-414.751871
 30
0.0
 40
3.063381
100
AcDbArc
 50
9.421956
 51
151.77734
  0
ARC
  5
31FB
100
AcDbEntity
  8
0
100
AcDbCircle
 10
35.925744
 20
-409.659055
 30
0.0
 40
4.400737
100
AcDbArc
 50
21.687026
 51
85.326779
  0
ARC
  5
31FC
100
AcDbEntity
  8
0
100
AcDbCircle
 10
35.830468
 20
-407.789739
 30
0.0
 40
2.55738
100
AcDbArc
 50
79.778543
 51
268.816065
  0
ARC
  5
31FD
100
AcDbEntity
  8
0
100
AcDbCircle
 10
45.736512
 20
-405.757449
 30
0.0
 40
6.157373
100
AcDbArc
 50
201.687026
 51
263.871678
  0
LINE
  5
31FE
100
AcDbEntity
  8
0
100
AcDbLine
 10
31.453263
 20
-403.608203
 30
0.0
 11
31.453263
 21
-405.698541
 31
0.0
  0
ARC
  5
31FF
100
AcDbEntity
  8
0
100
AcDbCircle
 10
34.342323
 20
-414.261152
 30
0.0
 40
3.063381
100
AcDbArc
 50
18.222659
 51
51.047503
  0
ARC
  5
3200
100
AcDbEntity
  8
0
100
AcDbCircle
 10
35.825377
 20
-407.766036
 30
0.0
 40
0.973133
100
AcDbArc
 50
90.106038
 51
270.106038
  0
ARC
  5
3201
100
AcDbEntity
  8
0
100
AcDbCircle
 10
35.802403
 20
-409.54287
 30
0.0
 40
0.804085
100
AcDbArc
 50
268.234369
 51
88.234369
  0
ARC
  5
3202
100
AcDbEntity
  8
0
100
AcDbCircle
 10
18.350422
 20
-385.032703
 30
0.0
 40
3.063381
100
AcDbArc
 50
328.222659
 51
110.578044
  0
ARC
  5
3203
100
AcDbEntity
  8
0
100
AcDbCircle
 10
25.085806
 20
-385.904796
 30
0.0
 40
2.562002
100
AcDbArc
 50
29.893962
 51
200.113727
  0
LINE
  5
3204
100
AcDbEntity
  8
0
100
AcDbLine
 10
12.780468
 20
-385.935049
 30
0.0
 11
16.545395
 21
-386.125068
 31
0.0
  0
ARC
  5
3205
100
AcDbEntity
  8
0
100
AcDbCircle
 10
16.628683
 20
-384.474852
 30
0.0
 40
1.652316
100
AcDbArc
 50
267.11068
 51
95.091429
  0
ARC
  5
3206
100
AcDbEntity
  8
0
100
AcDbCircle
 10
26.463276
 20
-385.112909
 30
0.0
 40
0.973133
100
AcDbArc
 50
209.893962
 51
29.893962
  0
ARC
  5
3207
100
AcDbEntity
  8
0
100
AcDbCircle
 10
24.93598
 20
-386.021222
 30
0.0
 40
0.804085
100
AcDbArc
 50
31.765631
 51
211.765631
  0
ARC
  5
3208
100
AcDbEntity
  8
0
100
AcDbCircle
 10
26.440202
 20
-385.120351
 30
0.0
 40
2.55738
100
AcDbArc
 50
211.183935
 51
40.221457
  0
ARC
  5
3209
100
AcDbEntity
  8
0
100
AcDbCircle
 10
26.470668
 20
-401.52167
 30
0.0
 40
1.652316
100
AcDbArc
 50
324.908571
 51
152.88932
  0
LINE
  5
320A
100
AcDbEntity
  8
0
100
AcDbLine
 10
23.281993
 20
-404.124223
 30
0.0
 11
24.999895
 21
-400.768691
 31
0.0
  0
LINE
  5
320B
100
AcDbEntity
  8
0
100
AcDbLine
 10
23.281993
 20
-404.124223
 30
0.0
 11
26.754877
 21
-405.590464
 31
0.0
  0
ARC
  5
320C
100
AcDbEntity
  8
0
100
AcDbCircle
 10
27.397549
 20
-404.068254
 30
0.0
 40
1.652316
100
AcDbArc
 50
247.11068
 51
75.091429
  0
ARC
  5
320D
100
AcDbEntity
  8
0
100
AcDbCircle
 10
21.579868
 20
-389.64483
 30
0.0
 40
3.063381
100
AcDbArc
 50
68.952503
 51
101.77734
  0
LINE
  5
320E
100
AcDbEntity
  8
0
100
AcDbLine
 10
18.826904
 20
-394.570254
 30
0.0
 11
22.501637
 21
-395.411159
 31
0.0
  0
ARC
  5
320F
100
AcDbEntity
  8
0
100
AcDbCircle
 10
21.515207
 20
-391.453531
 30
0.0
 40
1.652316
100
AcDbArc
 50
334.908571
 51
162.88932
  0
ARC
  5
3210
100
AcDbEntity
  8
0
100
AcDbCircle
 10
24.468928
 20
-394.648829
 30
0.0
 40
3.063381
100
AcDbArc
 50
318.222659
 51
100.578044
  0
ARC
  5
3211
100
AcDbEntity
  8
0
100
AcDbCircle
 10
21.579868
 20
-389.64483
 30
0.0
 40
3.063381
100
AcDbArc
 50
319.421956
 51
14.844259
  0
ARC
  5
3212
100
AcDbEntity
  8
0
100
AcDbCircle
 10
22.870217
 20
-393.800476
 30
0.0
 40
1.652316
100
AcDbArc
 50
257.11068
 51
85.091429
  0
LINE
  5
3213
100
AcDbEntity
  8
0
100
AcDbLine
 10
18.826904
 20
-394.570254
 30
0.0
 11
19.936025
 21
-390.967389
 31
0.0
  0
ARC
  5
3214
100
AcDbEntity
  8
0
100
AcDbCircle
 10
10.655046
 20
-376.625135
 30
0.0
 40
3.063381
100
AcDbArc
 50
338.222659
 51
120.578044
  0
LINE
  5
3215
100
AcDbEntity
  8
0
100
AcDbLine
 10
12.780468
 20
-385.935049
 30
0.0
 11
13.247108
 21
-382.194323
 31
0.0
  0
ARC
  5
3216
100
AcDbEntity
  8
0
100
AcDbCircle
 10
17.550395
 20
-367.562366
 30
0.0
 40
4.400737
100
AcDbArc
 50
171.687026
 51
235.326779
  0
ARC
  5
3217
100
AcDbEntity
  8
0
100
AcDbCircle
 10
15.951558
 20
-367.719139
 30
0.0
 40
6.522754
100
AcDbArc
 50
233.871678
 51
280.374615
  0
ARC
  5
3218
100
AcDbEntity
  8
0
100
AcDbCircle
 10
7.103219
 20
-366.035872
 30
0.0
 40
6.157373
100
AcDbArc
 50
351.687026
 51
53.871678
  0
ARC
  5
3219
100
AcDbEntity
  8
0
100
AcDbCircle
 10
21.653785
 20
-374.775139
 30
0.0
 40
4.561176
100
AcDbArc
 50
29.883218
 51
98.235201
  0
ARC
  5
321A
100
AcDbEntity
  8
0
100
AcDbCircle
 10
16.698249
 20
-369.228879
 30
0.0
 40
2.55738
100
AcDbArc
 50
229.778543
 51
58.816065
  0
ARC
  5
321B
100
AcDbEntity
  8
0
100
AcDbCircle
 10
23.247195
 20
-375.525321
 30
0.0
 40
6.157373
100
AcDbArc
 50
216.128322
 51
278.312974
  0
ARC
  5
321C
100
AcDbEntity
  8
0
100
AcDbCircle
 10
23.699085
 20
-373.711056
 30
0.0
 40
4.400737
100
AcDbArc
 50
214.673221
 51
278.312974
  0
ARC
  5
321D
100
AcDbEntity
  8
0
100
AcDbCircle
 10
22.032572
 20
-374.563202
 30
0.0
 40
2.55738
100
AcDbArc
 50
31.183935
 51
220.221457
  0
ARC
  5
321E
100
AcDbEntity
  8
0
100
AcDbCircle
 10
22.009498
 20
-374.570645
 30
0.0
 40
0.973133
100
AcDbArc
 50
29.893962
 51
209.893962
  0
ARC
  5
321F
100
AcDbEntity
  8
0
100
AcDbCircle
 10
24.77369
 20
-385.972498
 30
0.0
 40
4.400737
100
AcDbArc
 50
34.673221
 51
98.312974
  0
ARC
  5
3220
100
AcDbEntity
  8
0
100
AcDbCircle
 10
23.386968
 20
-373.778758
 30
0.0
 40
2.562002
100
AcDbArc
 50
209.893962
 51
29.893962
  0
ARC
  5
3221
100
AcDbEntity
  8
0
100
AcDbCircle
 10
23.536794
 20
-373.662332
 30
0.0
 40
0.804085
100
AcDbArc
 50
211.765631
 51
31.765631
  0
ARC
  5
3222
100
AcDbEntity
  8
0
100
AcDbCircle
 10
14.636318
 20
-380.606406
 30
0.0
 40
3.063381
100
AcDbArc
 50
329.421956
 51
111.77734
  0
ARC
  5
3223
100
AcDbEntity
  8
0
100
AcDbCircle
 10
14.886717
 20
-382.398857
 30
0.0
 40
1.652316
100
AcDbArc
 50
344.908571
 51
172.88932
  0
ARC
  5
3224
100
AcDbEntity
  8
0
100
AcDbCircle
 10
23.542313
 20
-375.309894
 30
0.0
 40
6.522754
100
AcDbArc
 50
169.625385
 51
216.128322
  0
ARC
  5
3225
100
AcDbEntity
  8
0
100
AcDbCircle
 10
16.486313
 20
-369.607666
 30
0.0
 40
4.561176
100
AcDbArc
 50
351.764799
 51
60.116782
  0
ARC
  5
3226
100
AcDbEntity
  8
0
100
AcDbCircle
 10
17.599119
 20
-367.724656
 30
0.0
 40
0.804085
100
AcDbArc
 50
58.234369
 51
238.234369
  0
ARC
  5
3227
100
AcDbEntity
  8
0
100
AcDbCircle
 10
17.482693
 20
-367.874483
 30
0.0
 40
2.562002
100
AcDbArc
 50
60.106038
 51
240.106038
  0
ARC
  5
3228
100
AcDbEntity
  8
0
100
AcDbCircle
 10
16.690807
 20
-369.251953
 30
0.0
 40
0.973133
100
AcDbArc
 50
240.106038
 51
60.106038
  0
ARC
  5
3229
100
AcDbEntity
  8
0
100
AcDbCircle
 10
6.22875
 20
-372.911031
 30
0.0
 40
3.063381
100
AcDbArc
 50
339.421956
 51
121.77734
  0
ARC
  5
322A
100
AcDbEntity
  8
0
100
AcDbCircle
 10
-0.192079
 20
-369.746245
 30
0.0
 40
1.652316
100
AcDbArc
 50
287.11068
 51
115.091429
  0
ARC
  5
322B
100
AcDbEntity
  8
0
100
AcDbCircle
 10
15.73613
 20
-368.014256
 30
0.0
 40
6.157373
100
AcDbArc
 50
171.687026
 51
233.871678
  0
LINE
  5
322C
100
AcDbEntity
  8
0
100
AcDbLine
 10
5.326404
 20
-378.480984
 30
0.0
 11
9.06713
 21
-378.014344
 31
0.0
  0
ARC
  5
322D
100
AcDbEntity
  8
0
100
AcDbCircle
 10
8.862596
 20
-376.374736
 30
0.0
 40
1.652316
100
AcDbArc
 50
277.11068
 51
105.091429
  0
ARC
  5
322E
100
AcDbEntity
  8
0
100
AcDbCircle
 10
6.786601
 20
-374.632769
 30
0.0
 40
1.652316
100
AcDbArc
 50
354.908571
 51
182.88932
  0
LINE
  5
322F
100
AcDbEntity
  8
0
100
AcDbLine
 10
5.326404
 20
-378.480984
 30
0.0
 11
5.136384
 21
-374.716057
 31
0.0
  0
LINE
  5
3230
100
AcDbEntity
  8
0
100
AcDbLine
 10
-3.308801
 20
-372.434548
 30
0.0
 11
0.294063
 21
-371.325427
 31
0.0
  0
ARC
  5
3231
100
AcDbEntity
  8
0
100
AcDbCircle
 10
5.356655
 20
-366.175645
 30
0.0
 40
2.562002
100
AcDbArc
 50
249.886301
 51
60.106038
  0
ARC
  5
3232
100
AcDbEntity
  8
0
100
AcDbCircle
 10
6.1411
 20
-364.821249
 30
0.0
 40
2.55738
100
AcDbArc
 50
49.778543
 51
238.816065
  0
ARC
  5
3233
100
AcDbEntity
  8
0
100
AcDbCircle
 10
4.829579
 20
-358.338459
 30
0.0
 40
1.966439
100
AcDbArc
 50
81.224266
 51
170.640074
  0
ARC
  5
3234
100
AcDbEntity
  8
0
100
AcDbCircle
 10
6.887791
 20
-366.33099
 30
0.0
 40
6.522754
100
AcDbArc
 50
53.871678
 51
97.143332
  0
ARC
  5
3235
100
AcDbEntity
  8
0
100
AcDbCircle
 10
5.240229
 20
-366.325471
 30
0.0
 40
0.804085
100
AcDbArc
 50
238.234369
 51
58.234369
  0
ARC
  5
3236
100
AcDbEntity
  8
0
100
AcDbCircle
 10
5.288954
 20
-366.487762
 30
0.0
 40
4.400737
100
AcDbArc
 50
351.687026
 51
55.326779
  0
ARC
  5
3237
100
AcDbEntity
  8
0
100
AcDbCircle
 10
6.148542
 20
-364.798176
 30
0.0
 40
0.973133
100
AcDbArc
 50
60.106038
 51
240.106038
  0
ARC
  5
3238
100
AcDbEntity
  8
0
100
AcDbCircle
 10
4.829579
 20
-358.338459
 30
0.0
 40
1.966439
100
AcDbArc
 50
309.359926
 51
38.775734
  0
ARC
  5
3239
100
AcDbEntity
  8
0
100
AcDbCircle
 10
1.616622
 20
-369.681585
 30
0.0
 40
3.063381
100
AcDbArc
 50
348.222659
 51
21.047507
  0
ARC
  5
323A
100
AcDbEntity
  8
0
100
AcDbCircle
 10
1.616622
 20
-369.681585
 30
0.0
 40
3.063381
100
AcDbArc
 50
75.15576
 51
130.578044
  0
ARC
  5
323B
100
AcDbEntity
  8
0
100
AcDbCircle
 10
6.353036
 20
-364.442462
 30
0.0
 40
4.561176
100
AcDbArc
 50
166.587858
 51
209.962163
  0
ARC
  5
323C
100
AcDbEntity
  8
0
100
AcDbCircle
 10
-1.218372
 20
-360.071108
 30
0.0
 40
4.561176
100
AcDbArc
 50
270.037842
 51
313.412142
  0
ARC
  5
323D
100
AcDbEntity
  8
0
100
AcDbCircle
 10
-3.387376
 20
-366.792525
 30
0.0
 40
3.063381
100
AcDbArc
 50
349.421956
 51
44.844256
  0
ARC
  5
323E
100
AcDbEntity
  8
0
100
AcDbCircle
 10
-2.292702
 20
-361.976332
 30
0.0
 40
0.804085
100
AcDbArc
 50
61.765631
 51
241.765631
  0
ARC
  5
323F
100
AcDbEntity
  8
0
100
AcDbCircle
 10
-1.424181
 20
-360.426062
 30
0.0
 40
0.973133
100
AcDbArc
 50
239.893962
 51
59.893962
  0
ARC
  5
3240
100
AcDbEntity
  8
0
100
AcDbCircle
 10
-19.358397
 20
-360.979548
 30
0.0
 40
3.063381
100
AcDbArc
 50
8.222659
 51
150.578044
  0
ARC
  5
3241
100
AcDbEntity
  8
0
100
AcDbCircle
 10
-21.035905
 20
-361.658921
 30
0.0
 40
1.652316
100
AcDbArc
 50
307.11068
 51
135.091429
  0
ARC
  5
3242
100
AcDbEntity
  8
0
100
AcDbCircle
 10
-19.224481
 20
-350.618474
 30
0.0
 40
6.522754
100
AcDbArc
 50
263.871678
 51
310.374615
  0
ARC
  5
3243
100
AcDbEntity
  8
0
100
AcDbCircle
 10
-13.919879
 20
-362.436795
 30
0.0
 40
3.063381
100
AcDbArc
 50
359.421956
 51
141.77734
  0
LINE
  5
3244
100
AcDbEntity
  8
0
100
AcDbLine
 10
-12.862771
 20
-367.979459
 30
0.0
 11
-9.507239
 21
-366.261557
 31
0.0
  0
ARC
  5
3245
100
AcDbEntity
  8
0
100
AcDbCircle
 10
-10.260217
 20
-364.790784
 30
0.0
 40
1.652316
100
AcDbArc
 50
297.11068
 51
125.091429
  0
ARC
  5
3246
100
AcDbEntity
  8
0
100
AcDbCircle
 10
-12.806802
 20
-363.863903
 30
0.0
 40
1.652316
100
AcDbArc
 50
14.908571
 51
202.88932
  0
ARC
  5
3247
100
AcDbEntity
  8
0
100
AcDbCircle
 10
-8.855317
 20
-353.396883
 30
0.0
 40
6.522754
100
AcDbArc
 50
199.625385
 51
246.128322
  0
ARC
  5
3248
100
AcDbEntity
  8
0
100
AcDbCircle
 10
-3.387376
 20
-366.792525
 30
0.0
 40
3.063381
100
AcDbArc
 50
98.952498
 51
131.77734
  0
ARC
  5
3249
100
AcDbEntity
  8
0
100
AcDbCircle
 10
-8.490223
 20
-364.413028
 30
0.0
 40
3.063381
100
AcDbArc
 50
358.222659
 51
140.578044
  0
ARC
  5
324A
100
AcDbEntity
  8
0
100
AcDbCircle
 10
-9.518967
 20
-351.933863
 30
0.0
 40
4.400737
100
AcDbArc
 50
244.673221
 51
308.312974
  0
ARC
  5
324B
100
AcDbEntity
  8
0
100
AcDbCircle
 10
-9.003183
 20
-353.731007
 30
0.0
 40
6.157373
100
AcDbArc
 50
246.128322
 51
308.312974
  0
LINE
  5
324C
100
AcDbEntity
  8
0
100
AcDbLine
 10
-12.862771
 20
-367.979459
 30
0.0
 11
-14.329012
 21
-364.506576
 31
0.0
  0
ARC
  5
324D
100
AcDbEntity
  8
0
100
AcDbCircle
 10
-30.657677
 20
-359.485469
 30
0.0
 40
3.063381
100
AcDbArc
 50
18.222659
 51
51.047503
  0
ARC
  5
324E
100
AcDbEntity
  8
0
100
AcDbCircle
 10
-25.048734
 20
-359.976188
 30
0.0
 40
3.063381
100
AcDbArc
 50
9.421956
 51
151.77734
  0
LINE
  5
324F
100
AcDbEntity
  8
0
100
AcDbLine
 10
-23.045212
 20
-365.251082
 30
0.0
 11
-20.038969
 21
-362.976597
 31
0.0
  0
ARC
  5
3250
100
AcDbEntity
  8
0
100
AcDbCircle
 10
-23.704752
 20
-361.188332
 30
0.0
 40
1.652316
100
AcDbArc
 50
24.908571
 51
212.88932
  0
LINE
  5
3251
100
AcDbEntity
  8
0
100
AcDbLine
 10
-23.045212
 20
-365.251082
 30
0.0
 11
-25.092237
 21
-362.08557
 31
0.0
  0
ARC
  5
3252
100
AcDbEntity
  8
0
100
AcDbCircle
 10
-30.657677
 20
-359.485469
 30
0.0
 40
3.063381
100
AcDbArc
 50
105.155753
 51
160.578044
  0
LINE
  5
3253
100
AcDbEntity
  8
0
100
AcDbLine
 10
-33.546737
 20
-364.332317
 30
0.0
 11
-30.981125
 21
-361.570359
 31
0.0
  0
ARC
  5
3254
100
AcDbEntity
  8
0
100
AcDbCircle
 10
-32.191728
 20
-360.445817
 30
0.0
 40
1.652316
100
AcDbArc
 50
317.11068
 51
145.091429
  0
ARC
  5
3255
100
AcDbEntity
  8
0
100
AcDbCircle
 10
12.999058
 20
-349.441343
 30
0.0
 40
2.784892
100
AcDbArc
 50
287.11068
 51
130.578044
  0
LINE
  5
3256
100
AcDbEntity
  8
0
100
AcDbLine
 10
8.12979
 20
-353.854184
 30
0.0
 11
13.818425
 21
-352.10297
 31
0.0
  0
ARC
  5
3257
100
AcDbEntity
  8
0
100
AcDbCircle
 10
11.354785
 20
-349.500125
 30
0.0
 40
1.502106
100
AcDbArc
 50
287.11068
 51
115.091429
  0
LINE
  5
3258
100
AcDbEntity
  8
0
100
AcDbLine
 10
8.5214
 20
-351.944037
 30
0.0
 11
11.796732
 21
-350.935745
 31
0.0
  0
ARC
  5
3259
100
AcDbEntity
  8
0
100
AcDbCircle
 10
9.221198
 20
-348.268298
 30
0.0
 40
1.502106
100
AcDbArc
 50
4.908571
 51
192.88932
  0
ARC
  5
325A
100
AcDbEntity
  8
0
100
AcDbCircle
 10
8.449968
 20
-346.814924
 30
0.0
 40
2.784892
100
AcDbArc
 50
349.421956
 51
192.88932
  0
LINE
  5
325B
100
AcDbEntity
  8
0
100
AcDbLine
 10
8.5214
 20
-351.944037
 30
0.0
 11
7.756941
 21
-348.603371
 31
0.0
  0
LINE
  5
325C
100
AcDbEntity
  8
0
100
AcDbLine
 10
7.06297
 20
-353.238255
 30
0.0
 11
5.735248
 21
-347.436145
 31
0.0
  0
ARC
  5
325D
100
AcDbEntity
  8
0
100
AcDbCircle
 10
-17.820806
 20
-349.987438
 30
0.0
 40
2.562002
100
AcDbArc
 50
90.106038
 51
270.106038
  0
ARC
  5
325E
100
AcDbEntity
  8
0
100
AcDbCircle
 10
-17.918233
 20
-349.683286
 30
0.0
 40
4.400737
100
AcDbArc
 50
201.687026
 51
265.326779
  0
ARC
  5
325F
100
AcDbEntity
  8
0
100
AcDbCircle
 10
-17.822957
 20
-351.552602
 30
0.0
 40
2.55738
100
AcDbArc
 50
259.778543
 51
88.816065
  0
ARC
  5
3260
100
AcDbEntity
  8
0
100
AcDbCircle
 10
-10.758207
 20
-353.878035
 30
0.0
 40
4.561176
100
AcDbArc
 50
59.883218
 51
128.235201
  0
ARC
  5
3261
100
AcDbEntity
  8
0
100
AcDbCircle
 10
-10.552398
 20
-353.523081
 30
0.0
 40
0.973133
100
AcDbArc
 50
59.893962
 51
239.893962
  0
ARC
  5
3262
100
AcDbEntity
  8
0
100
AcDbCircle
 10
-9.683877
 20
-351.972811
 30
0.0
 40
0.804085
100
AcDbArc
 50
241.765631
 51
61.765631
  0
ARC
  5
3263
100
AcDbEntity
  8
0
100
AcDbCircle
 10
-17.817866
 20
-351.576305
 30
0.0
 40
0.973133
100
AcDbArc
 50
270.106038
 51
90.106038
  0
ARC
  5
3264
100
AcDbEntity
  8
0
100
AcDbCircle
 10
-17.817106
 20
-351.986609
 30
0.0
 40
4.561176
100
AcDbArc
 50
21.764799
 51
90.116782
  0
ARC
  5
3265
100
AcDbEntity
  8
0
100
AcDbCircle
 10
-17.794892
 20
-349.799471
 30
0.0
 40
0.804085
100
AcDbArc
 50
88.234369
 51
268.234369
  0
LINE
  5
3266
100
AcDbEntity
  8
0
100
AcDbLine
 10
-32.930809
 20
-342.521954
 30
0.0
 11
-28.879912
 21
-338.161041
 31
0.0
  0
LINE
  5
3267
100
AcDbEntity
  8
0
100
AcDbLine
 10
-33.546737
 20
-340.671913
 30
0.0
 11
-31.214363
 21
-338.161042
 31
0.0
  0
ARC
  5
3268
100
AcDbEntity
  8
0
100
AcDbCircle
 10
-30.920319
 20
-336.265688
 30
0.0
 40
2.784892
100
AcDbArc
 50
317.11068
 51
160.578044
  0
ARC
  5
3269
100
AcDbEntity
  8
0
100
AcDbCircle
 10
-27.768008
 20
-353.948185
 30
0.0
 40
6.522754
100
AcDbArc
 50
83.871678
 51
127.143332
  0
ARC
  5
326A
100
AcDbEntity
  8
0
100
AcDbCircle
 10
-29.074256
 20
-354.883372
 30
0.0
 40
4.400737
100
AcDbArc
 50
21.687026
 51
85.326779
  0
ARC
  5
326B
100
AcDbEntity
  8
0
100
AcDbCircle
 10
-27.729001
 20
-353.584892
 30
0.0
 40
6.157373
100
AcDbArc
 50
21.687026
 51
83.871678
  0
ARC
  5
326C
100
AcDbEntity
  8
0
100
AcDbCircle
 10
-33.546737
 20
-344.389444
 30
0.0
 40
1.966439
100
AcDbArc
 50
291.224266
 51
71.746596
  0
ARC
  5
326D
100
AcDbEntity
  8
0
100
AcDbCircle
 10
-33.546737
 20
-348.055556
 30
0.0
 40
1.966439
100
AcDbArc
 50
339.359926
 51
68.775734
  0
ARC
  5
326E
100
AcDbEntity
  8
0
100
AcDbCircle
 10
-29.174623
 20
-352.990353
 30
0.0
 40
0.973133
100
AcDbArc
 50
90.106038
 51
270.106038
  0
ARC
  5
326F
100
AcDbEntity
  8
0
100
AcDbCircle
 10
-32.31491
 20
-337.138731
 30
0.0
 40
1.502106
100
AcDbArc
 50
317.11068
 51
145.091429
  0
LINE
  5
3270
100
AcDbEntity
  8
0
100
AcDbLine
 10
-163.546737
 20
-483.20076
 30
0.0
 11
96.453263
 21
-483.20076
 31
0.0
  0
ARC
  5
359D
100
AcDbEntity
  8
0
100
AcDbCircle
 10
-39.792538
 20
-371.419702
 30
0.0
 40
0.846217
100
AcDbArc
 50
133.234325
 51
313.234325
  0
ARC
  5
359E
100
AcDbEntity
  8
0
100
AcDbCircle
 10
-39.970783
 20
-371.425027
 30
0.0
 40
4.631323
100
AcDbArc
 50
246.686982
 51
310.326735
  0
ARC
  5
359F
100
AcDbEntity
  8
0
100
AcDbCircle
 10
-40.005592
 20
-373.392381
 30
0.0
 40
6.48
100
AcDbArc
 50
246.686982
 51
308.871634
  0
ARC
  5
35A0
100
AcDbEntity
  8
0
100
AcDbCircle
 10
-38.50882
 20
-372.745192
 30
0.0
 40
2.691379
100
AcDbArc
 50
304.778499
 51
133.816021
  0
ARC
  5
35A1
100
AcDbEntity
  8
0
100
AcDbCircle
 10
-39.671946
 20
-371.578863
 30
0.0
 40
2.696243
100
AcDbArc
 50
135.105994
 51
315.105994
  0
ARC
  5
35A2
100
AcDbEntity
  8
0
100
AcDbCircle
 10
-38.181497
 20
-373.063808
 30
0.0
 40
4.800168
100
AcDbArc
 50
15.084935
 51
135.116737
  0
ARC
  5
35A3
100
AcDbEntity
  8
0
100
AcDbCircle
 10
-46.192231
 20
-381.957756
 30
0.0
 40
4.800168
100
AcDbArc
 50
183.207107
 51
315.116737
  0
ARC
  5
35A4
100
AcDbEntity
  8
0
100
AcDbCircle
 10
-44.126816
 20
-381.928557
 30
0.0
 40
6.864526
100
AcDbArc
 50
128.871634
 51
182.485961
  0
ARC
  5
35A5
100
AcDbEntity
  8
0
100
AcDbCircle
 10
-45.864908
 20
-382.276371
 30
0.0
 40
2.691379
100
AcDbArc
 50
124.778499
 51
313.816021
  0
ARC
  5
35A6
100
AcDbEntity
  8
0
100
AcDbCircle
 10
-45.886336
 20
-382.262521
 30
0.0
 40
1.024122
100
AcDbArc
 50
135.105994
 51
315.105994
  0
ARC
  5
35A7
100
AcDbEntity
  8
0
100
AcDbCircle
 10
-44.58119
 20
-383.601862
 30
0.0
 40
0.846217
100
AcDbArc
 50
313.234325
 51
133.234325
  0
ARC
  5
35A8
100
AcDbEntity
  8
0
100
AcDbCircle
 10
-44.368136
 20
-381.629182
 30
0.0
 40
6.48
100
AcDbArc
 50
66.686982
 51
128.871634
  0
ARC
  5
35A9
100
AcDbEntity
  8
0
100
AcDbCircle
 10
-44.701782
 20
-383.4427
 30
0.0
 40
2.696243
100
AcDbArc
 50
315.105994
 51
135.105994
  0
ARC
  5
35AA
100
AcDbEntity
  8
0
100
AcDbCircle
 10
-44.402945
 20
-383.596536
 30
0.0
 40
4.631323
100
AcDbArc
 50
66.686982
 51
130.326735
  0
ARC
  5
35AB
100
AcDbEntity
  8
0
100
AcDbCircle
 10
-22.391701
 20
-383.442709
 30
0.0
 40
2.696243
100
AcDbArc
 50
44.893962
 51
224.893962
  0
ARC
  5
35AC
100
AcDbEntity
  8
0
100
AcDbCircle
 10
-20.90125
 20
-381.957765
 30
0.0
 40
4.800168
100
AcDbArc
 50
224.883218
 51
356.792849
  0
ARC
  5
35AD
100
AcDbEntity
  8
0
100
AcDbCircle
 10
-21.228574
 20
-382.276381
 30
0.0
 40
2.691379
100
AcDbArc
 50
226.183935
 51
55.221457
  0
ARC
  5
35AE
100
AcDbEntity
  8
0
100
AcDbCircle
 10
-22.690539
 20
-383.596545
 30
0.0
 40
4.631323
100
AcDbArc
 50
49.673221
 51
113.312974
  0
ARC
  5
35AF
100
AcDbEntity
  8
0
100
AcDbCircle
 10
-22.725346
 20
-381.629191
 30
0.0
 40
6.48
100
AcDbArc
 50
51.128322
 51
113.312974
  0
ARC
  5
35B0
100
AcDbEntity
  8
0
100
AcDbCircle
 10
-27.421528
 20
-371.578868
 30
0.0
 40
2.696243
100
AcDbArc
 50
224.893962
 51
44.893962
  0
ARC
  5
35B1
100
AcDbEntity
  8
0
100
AcDbCircle
 10
-28.911979
 20
-373.063811
 30
0.0
 40
4.800168
100
AcDbArc
 50
44.883218
 51
164.915021
  0
ARC
  5
35B2
100
AcDbEntity
  8
0
100
AcDbCircle
 10
-28.584655
 20
-372.745196
 30
0.0
 40
2.691379
100
AcDbArc
 50
46.183935
 51
235.221457
  0
ARC
  5
35B3
100
AcDbEntity
  8
0
100
AcDbCircle
 10
-26.846563
 20
-373.093012
 30
0.0
 40
6.864526
100
AcDbArc
 50
192.562867
 51
231.128322
  0
ARC
  5
35B4
100
AcDbEntity
  8
0
100
AcDbCircle
 10
-38.487392
 20
-372.759042
 30
0.0
 40
1.024122
100
AcDbArc
 50
315.105994
 51
135.105994
  0
ARC
  5
35B5
100
AcDbEntity
  8
0
100
AcDbCircle
 10
-40.246912
 20
-373.093007
 30
0.0
 40
6.864526
100
AcDbArc
 50
308.871634
 51
347.437089
  0
ARC
  5
35B6
100
AcDbEntity
  8
0
100
AcDbCircle
 10
-27.300935
 20
-371.419707
 30
0.0
 40
0.846217
100
AcDbArc
 50
226.765631
 51
46.765631
  0
ARC
  5
35B7
100
AcDbEntity
  8
0
100
AcDbCircle
 10
-28.606083
 20
-372.759046
 30
0.0
 40
1.024122
100
AcDbArc
 50
44.893962
 51
224.893962
  0
ARC
  5
35B8
100
AcDbEntity
  8
0
100
AcDbCircle
 10
-27.12269
 20
-371.425032
 30
0.0
 40
4.631323
100
AcDbArc
 50
229.673221
 51
293.312974
  0
ARC
  5
35B9
100
AcDbEntity
  8
0
100
AcDbCircle
 10
-27.087883
 20
-373.392386
 30
0.0
 40
6.48
100
AcDbArc
 50
231.128322
 51
293.312974
  0
ARC
  5
35BA
100
AcDbEntity
  8
0
100
AcDbCircle
 10
-22.512293
 20
-383.60187
 30
0.0
 40
0.846217
100
AcDbArc
 50
46.765631
 51
226.765631
  0
ARC
  5
35BB
100
AcDbEntity
  8
0
100
AcDbCircle
 10
-21.207146
 20
-382.262531
 30
0.0
 40
1.024122
100
AcDbArc
 50
224.893962
 51
44.893962
  0
ARC
  5
35BC
100
AcDbEntity
  8
0
100
AcDbCircle
 10
-22.966666
 20
-381.928565
 30
0.0
 40
6.864526
100
AcDbArc
 50
357.513995
 51
51.128322
  0
ARC
  5
35BD
100
AcDbEntity
  8
0
100
AcDbCircle
 10
-136.534446
 20
-453.159025
 30
0.0
 40
1.738892
100
AcDbArc
 50
106.908571
 51
294.88932
  0
ARC
  5
35BE
100
AcDbEntity
  8
0
100
AcDbCircle
 10
-135.653125
 20
-450.446597
 30
0.0
 40
1.738892
100
AcDbArc
 50
29.11068
 51
217.091429
  0
LINE
  5
35C4
100
AcDbEntity
  8
0
100
AcDbLine
 10
-128.112917
 20
-450.094512
 30
0.0
 11
-125.412876
 21
-447.187834
 31
0.0
  0
LINE
  5
35C5
100
AcDbEntity
  8
0
100
AcDbLine
 10
-128.112917
 20
-450.094512
 30
0.0
 11
-130.812959
 21
-447.187834
 31
0.0
  0
ARC
  5
35C8
100
AcDbEntity
  8
0
100
AcDbCircle
 10
-119.691389
 20
-453.159025
 30
0.0
 40
1.738892
100
AcDbArc
 50
245.11068
 51
73.091429
  0
ARC
  5
35C9
100
AcDbEntity
  8
0
100
AcDbCircle
 10
-120.57271
 20
-450.446597
 30
0.0
 40
1.738892
100
AcDbArc
 50
322.908571
 51
150.88932
  0
ARC
  5
35D1
100
AcDbEntity
  8
0
100
AcDbCircle
 10
-134.19903
 20
-460.346698
 30
0.0
 40
1.738892
100
AcDbArc
 50
101.11068
 51
289.091429
  0
LINE
  5
35D2
100
AcDbEntity
  8
0
100
AcDbLine
 10
-130.641241
 20
-457.875891
 30
0.0
 11
-134.534122
 21
-458.640398
 31
0.0
  0
LINE
  5
35D3
100
AcDbEntity
  8
0
100
AcDbLine
 10
-132.203831
 20
-453.066734
 30
0.0
 11
-135.802604
 21
-454.736413
 31
0.0
  0
LINE
  5
35D4
100
AcDbEntity
  8
0
100
AcDbLine
 10
-132.203831
 20
-453.066734
 30
0.0
 11
-134.133887
 21
-449.600629
 31
0.0
  0
ARC
  5
35D5
100
AcDbEntity
  8
0
100
AcDbCircle
 10
-131.891701
 20
-462.02307
 30
0.0
 40
1.738892
100
AcDbArc
 50
178.908571
 51
6.88932
  0
LINE
  5
35D6
100
AcDbEntity
  8
0
100
AcDbLine
 10
-130.641241
 20
-457.875891
 30
0.0
 11
-130.165364
 21
-461.814487
 31
0.0
  0
LINE
  5
35D9
100
AcDbEntity
  8
0
100
AcDbLine
 10
-125.584594
 20
-457.875891
 30
0.0
 11
-126.060471
 21
-461.814487
 31
0.0
  0
ARC
  5
35DA
100
AcDbEntity
  8
0
100
AcDbCircle
 10
-124.334134
 20
-462.02307
 30
0.0
 40
1.738892
100
AcDbArc
 50
173.11068
 51
1.091429
  0
ARC
  5
35E0
100
AcDbEntity
  8
0
100
AcDbCircle
 10
-122.026805
 20
-460.346698
 30
0.0
 40
1.738892
100
AcDbArc
 50
250.908571
 51
78.88932
  0
LINE
  5
35E1
100
AcDbEntity
  8
0
100
AcDbLine
 10
-125.584594
 20
-457.875891
 30
0.0
 11
-121.691712
 21
-458.640398
 31
0.0
  0
LINE
  5
35E2
100
AcDbEntity
  8
0
100
AcDbLine
 10
-124.022004
 20
-453.066734
 30
0.0
 11
-122.091948
 21
-449.600629
 31
0.0
  0
LINE
  5
35E3
100
AcDbEntity
  8
0
100
AcDbLine
 10
-124.022004
 20
-453.066734
 30
0.0
 11
-120.423231
 21
-454.736413
 31
0.0
  0
ARC
  5
35E5
100
AcDbEntity
  8
0
100
AcDbCircle
 10
-126.68691
 20
-446.004371
 30
0.0
 40
1.738892
100
AcDbArc
 50
317.11068
 51
145.091429
  0
ARC
  5
35E7
100
AcDbEntity
  8
0
100
AcDbCircle
 10
-129.538925
 20
-446.004371
 30
0.0
 40
1.738892
100
AcDbArc
 50
34.908571
 51
222.88932
  0
LINE
  5
35EF
100
AcDbEntity
  8
0
100
AcDbLine
 10
61.019443
 20
-450.094512
 30
0.0
 11
63.719484
 21
-447.187834
 31
0.0
  0
LINE
  5
35F0
100
AcDbEntity
  8
0
100
AcDbLine
 10
61.019443
 20
-450.094512
 30
0.0
 11
58.319402
 21
-447.187834
 31
0.0
  0
ARC
  5
35F6
100
AcDbEntity
  8
0
100
AcDbCircle
 10
64.798226
 20
-462.02307
 30
0.0
 40
1.738892
100
AcDbArc
 50
173.11068
 51
1.091429
  0
LINE
  5
35F7
100
AcDbEntity
  8
0
100
AcDbLine
 10
65.110356
 20
-453.066734
 30
0.0
 11
67.040413
 21
-449.600629
 31
0.0
  0
LINE
  5
35F8
100
AcDbEntity
  8
0
100
AcDbLine
 10
65.110356
 20
-453.066734
 30
0.0
 11
68.70913
 21
-454.736413
 31
0.0
  0
LINE
  5
35F9
100
AcDbEntity
  8
0
100
AcDbLine
 10
63.547767
 20
-457.875891
 30
0.0
 11
67.440648
 21
-458.640398
 31
0.0
  0
ARC
  5
35FA
100
AcDbEntity
  8
0
100
AcDbCircle
 10
67.105555
 20
-460.346698
 30
0.0
 40
1.738892
100
AcDbArc
 50
250.908571
 51
78.88932
  0
ARC
  5
35FE
100
AcDbEntity
  8
0
100
AcDbCircle
 10
68.559651
 20
-450.446597
 30
0.0
 40
1.738892
100
AcDbArc
 50
322.908571
 51
150.88932
  0
ARC
  5
35FF
100
AcDbEntity
  8
0
100
AcDbCircle
 10
69.440972
 20
-453.159025
 30
0.0
 40
1.738892
100
AcDbArc
 50
245.11068
 51
73.091429
  0
LINE
  5
3601
100
AcDbEntity
  8
0
100
AcDbLine
 10
58.49112
 20
-457.875891
 30
0.0
 11
54.598238
 21
-458.640398
 31
0.0
  0
ARC
  5
3604
100
AcDbEntity
  8
0
100
AcDbCircle
 10
57.24066
 20
-462.02307
 30
0.0
 40
1.738892
100
AcDbArc
 50
178.908571
 51
6.88932
  0
LINE
  5
3608
100
AcDbEntity
  8
0
100
AcDbLine
 10
58.49112
 20
-457.875891
 30
0.0
 11
58.966997
 21
-461.814487
 31
0.0
  0
LINE
  5
3609
100
AcDbEntity
  8
0
100
AcDbLine
 10
63.547767
 20
-457.875891
 30
0.0
 11
63.07189
 21
-461.814487
 31
0.0
  0
LINE
  5
360E
100
AcDbEntity
  8
0
100
AcDbLine
 10
56.92853
 20
-453.066734
 30
0.0
 11
53.329757
 21
-454.736413
 31
0.0
  0
LINE
  5
360F
100
AcDbEntity
  8
0
100
AcDbLine
 10
56.92853
 20
-453.066734
 30
0.0
 11
54.998474
 21
-449.600629
 31
0.0
  0
ARC
  5
3610
100
AcDbEntity
  8
0
100
AcDbCircle
 10
54.933331
 20
-460.346698
 30
0.0
 40
1.738892
100
AcDbArc
 50
101.11068
 51
289.091429
  0
ARC
  5
3611
100
AcDbEntity
  8
0
100
AcDbCircle
 10
53.479236
 20
-450.446597
 30
0.0
 40
1.738892
100
AcDbArc
 50
29.11068
 51
217.091429
  0
ARC
  5
3612
100
AcDbEntity
  8
0
100
AcDbCircle
 10
52.597915
 20
-453.159025
 30
0.0
 40
1.738892
100
AcDbArc
 50
106.908571
 51
294.88932
  0
ARC
  5
3615
100
AcDbEntity
  8
0
100
AcDbCircle
 10
62.445451
 20
-446.004371
 30
0.0
 40
1.738892
100
AcDbArc
 50
317.11068
 51
145.091429
  0
ARC
  5
3616
100
AcDbEntity
  8
0
100
AcDbCircle
 10
59.593435
 20
-446.004371
 30
0.0
 40
1.738892
100
AcDbArc
 50
34.908571
 51
222.88932
  0
ARC
  5
361B
100
AcDbEntity
  8
0
100
AcDbCircle
 10
75.912153
 20
-367.449019
 30
0.0
 40
1.738892
100
AcDbArc
 50
250.908571
 51
78.88932
  0
LINE
  5
361C
100
AcDbEntity
  8
0
100
AcDbLine
 10
70.542342
 20
-363.468771
 30
0.0
 11
69.82604
 21
-369.397233
 31
0.0
  0
LINE
  5
361D
100
AcDbEntity
  8
0
100
AcDbLine
 10
72.354364
 20
-364.978212
 30
0.0
 11
71.878487
 21
-368.916808
 31
0.0
  0
LINE
  5
361E
100
AcDbEntity
  8
0
100
AcDbLine
 10
67.297717
 20
-364.978212
 30
0.0
 11
67.773594
 21
-368.916808
 31
0.0
  0
ARC
  5
361F
100
AcDbEntity
  8
0
100
AcDbCircle
 10
63.739928
 20
-367.449019
 30
0.0
 40
1.738892
100
AcDbArc
 50
101.11068
 51
289.091429
  0
LINE
  5
3620
100
AcDbEntity
  8
0
100
AcDbLine
 10
69.109739
 20
-363.468771
 30
0.0
 11
69.82604
 21
-369.397233
 31
0.0
  0
ARC
  5
3621
100
AcDbEntity
  8
0
100
AcDbCircle
 10
77.81231
 20
-367.31773
 30
0.0
 40
3.223892
100
AcDbArc
 50
235.421951
 51
54.036494
  0
ARC
  5
3622
100
AcDbEntity
  8
0
100
AcDbCircle
 10
61.839771
 20
-367.317728
 30
0.0
 40
3.223892
100
AcDbArc
 50
125.963499
 51
304.578039
  0
ARC
  5
3623
100
AcDbEntity
  8
0
100
AcDbCircle
 10
73.604824
 20
-369.125392
 30
0.0
 40
1.738892
100
AcDbArc
 50
173.11068
 51
1.091429
  0
ARC
  5
3624
100
AcDbEntity
  8
0
100
AcDbCircle
 10
72.892778
 20
-370.891978
 30
0.0
 40
3.223892
100
AcDbArc
 50
197.963499
 51
16.578039
  0
ARC
  5
3625
100
AcDbEntity
  8
0
100
AcDbCircle
 10
66.047257
 20
-369.125392
 30
0.0
 40
1.738892
100
AcDbArc
 50
178.908571
 51
6.88932
  0
ARC
  5
3626
100
AcDbEntity
  8
0
100
AcDbCircle
 10
66.759302
 20
-370.891978
 30
0.0
 40
3.223892
100
AcDbArc
 50
163.421951
 51
342.036494
  0
ARC
  5
3627
100
AcDbEntity
  8
0
100
AcDbCircle
 10
59.944423
 20
-361.484446
 30
0.0
 40
3.223892
100
AcDbArc
 50
91.421951
 51
270.036494
  0
ARC
  5
3628
100
AcDbEntity
  8
0
100
AcDbCircle
 10
61.823517
 20
-355.70119
 30
0.0
 40
3.223892
100
AcDbArc
 50
53.963499
 51
232.578039
  0
ARC
  5
3629
100
AcDbEntity
  8
0
100
AcDbCircle
 10
72.866479
 20
-352.096024
 30
0.0
 40
3.223892
100
AcDbArc
 50
341.963499
 51
160.578039
  0
LINE
  5
362A
100
AcDbEntity
  8
0
100
AcDbLine
 10
73.916954
 20
-360.169055
 30
0.0
 11
77.515727
 21
-361.838734
 31
0.0
  0
LINE
  5
362B
100
AcDbEntity
  8
0
100
AcDbLine
 10
73.916954
 20
-360.169055
 30
0.0
 11
75.84701
 21
-356.702951
 31
0.0
  0
LINE
  5
362C
100
AcDbEntity
  8
0
100
AcDbLine
 10
72.354364
 20
-364.978212
 30
0.0
 11
76.247246
 21
-365.74272
 31
0.0
  0
LINE
  5
362D
100
AcDbEntity
  8
0
100
AcDbLine
 10
71.921444
 20
-361.425948
 30
0.0
 11
77.338397
 21
-363.939187
 31
0.0
  0
LINE
  5
362E
100
AcDbEntity
  8
0
100
AcDbLine
 10
71.478746
 20
-362.788434
 30
0.0
 11
77.338397
 21
-363.939187
 31
0.0
  0
ARC
  5
362F
100
AcDbEntity
  8
0
100
AcDbCircle
 10
66.785604
 20
-352.096024
 30
0.0
 40
3.223892
100
AcDbArc
 50
19.421951
 51
198.036494
  0
ARC
  5
3630
100
AcDbEntity
  8
0
100
AcDbCircle
 10
68.400033
 20
-353.106692
 30
0.0
 40
1.738892
100
AcDbArc
 50
34.908571
 51
222.88932
  0
LINE
  5
3631
100
AcDbEntity
  8
0
100
AcDbLine
 10
68.173336
 20
-362.788434
 30
0.0
 11
62.313684
 21
-363.939186
 31
0.0
  0
LINE
  5
3632
100
AcDbEntity
  8
0
100
AcDbLine
 10
67.730637
 20
-361.425948
 30
0.0
 11
62.313684
 21
-363.939186
 31
0.0
  0
LINE
  5
3633
100
AcDbEntity
  8
0
100
AcDbLine
 10
67.297717
 20
-364.978212
 30
0.0
 11
63.404836
 21
-365.74272
 31
0.0
  0
LINE
  5
3634
100
AcDbEntity
  8
0
100
AcDbLine
 10
68.088312
 20
-360.325139
 30
0.0
 11
65.183149
 21
-355.107881
 31
0.0
  0
LINE
  5
3635
100
AcDbEntity
  8
0
100
AcDbLine
 10
69.247311
 20
-359.483077
 30
0.0
 11
65.183149
 21
-355.107881
 31
0.0
  0
LINE
  5
3636
100
AcDbEntity
  8
0
100
AcDbLine
 10
65.735127
 20
-360.169055
 30
0.0
 11
63.805071
 21
-356.702951
 31
0.0
  0
LINE
  5
3637
100
AcDbEntity
  8
0
100
AcDbLine
 10
65.735127
 20
-360.169055
 30
0.0
 11
62.136354
 21
-361.838734
 31
0.0
  0
ARC
  5
3638
100
AcDbEntity
  8
0
100
AcDbCircle
 10
62.285833
 20
-357.548918
 30
0.0
 40
1.738892
100
AcDbArc
 50
29.11068
 51
217.091429
  0
ARC
  5
3639
100
AcDbEntity
  8
0
100
AcDbCircle
 10
61.404512
 20
-360.261346
 30
0.0
 40
1.738892
100
AcDbArc
 50
106.908571
 51
294.88932
  0
ARC
  5
363A
100
AcDbEntity
  8
0
100
AcDbCircle
 10
71.252048
 20
-353.106692
 30
0.0
 40
1.738892
100
AcDbArc
 50
317.11068
 51
145.091429
  0
ARC
  5
363B
100
AcDbEntity
  8
0
100
AcDbCircle
 10
69.826041
 20
-361.498274
 30
0.0
 40
2.096651
100
AcDbArc
 50
34.023139
 51
73.976857
  0
ARC
  5
363C
100
AcDbEntity
  8
0
100
AcDbCircle
 10
69.826041
 20
-361.498274
 30
0.0
 40
2.096651
100
AcDbArc
 50
322.023139
 51
1.976857
  0
ARC
  5
363D
100
AcDbEntity
  8
0
100
AcDbCircle
 10
69.826041
 20
-361.498274
 30
0.0
 40
2.096651
100
AcDbArc
 50
178.023139
 51
217.976857
  0
ARC
  5
363E
100
AcDbEntity
  8
0
100
AcDbCircle
 10
69.826041
 20
-361.498274
 30
0.0
 40
2.096651
100
AcDbArc
 50
106.023139
 51
145.976857
  0
ARC
  5
363F
100
AcDbEntity
  8
0
100
AcDbCircle
 10
69.826041
 20
-361.498274
 30
0.0
 40
2.096651
100
AcDbArc
 50
250.023139
 51
289.976857
  0
LINE
  5
3640
100
AcDbEntity
  8
0
100
AcDbLine
 10
69.826041
 20
-357.196833
 30
0.0
 11
67.125999
 21
-354.290155
 31
0.0
  0
LINE
  5
3641
100
AcDbEntity
  8
0
100
AcDbLine
 10
69.826041
 20
-357.196833
 30
0.0
 11
72.526082
 21
-354.290155
 31
0.0
  0
LINE
  5
3642
100
AcDbEntity
  8
0
100
AcDbLine
 10
71.56377
 20
-360.325139
 30
0.0
 11
74.468933
 21
-355.107882
 31
0.0
  0
LINE
  5
3643
100
AcDbEntity
  8
0
100
AcDbLine
 10
70.40477
 20
-359.483077
 30
0.0
 11
74.468933
 21
-355.107882
 31
0.0
  0
ARC
  5
3644
100
AcDbEntity
  8
0
100
AcDbCircle
 10
79.707658
 20
-361.484448
 30
0.0
 40
3.223892
100
AcDbArc
 50
269.963499
 51
88.578039
  0
ARC
  5
3645
100
AcDbEntity
  8
0
100
AcDbCircle
 10
77.366248
 20
-357.548918
 30
0.0
 40
1.738892
100
AcDbArc
 50
322.908571
 51
150.88932
  0
ARC
  5
3646
100
AcDbEntity
  8
0
100
AcDbCircle
 10
78.247569
 20
-360.261346
 30
0.0
 40
1.738892
100
AcDbArc
 50
245.11068
 51
73.091429
  0
ARC
  5
3647
100
AcDbEntity
  8
0
100
AcDbCircle
 10
77.828565
 20
-355.701191
 30
0.0
 40
3.223892
100
AcDbArc
 50
307.421951
 51
126.036494
  0
ENDSEC
  0
SECTION
  2
OBJECTS
  0
DICTIONARY
  5
C
100
AcDbDictionary
  3
ACAD_GROUP
350
D
  3
ACAD_MLINESTYLE
350
1B
  0
DICTIONARY
  5
D
102
{ACAD_REACTORS
330
C
102
}
100
AcDbDictionary
  0
DICTIONARY
  5
1B
102
{ACAD_REACTORS
330
C
102
}
100
AcDbDictionary
  3
STANDARD
350
1C
  0
MLINESTYLE
  5
1C
102
{ACAD_REACTORS
330
1B
102
}
100
AcDbMlineStyle
  2
STANDARD
 70
     0
  3

 62
   256
 51
90.0
 52
90.0
 71
     2
 49
0.5
 62
   256
  6
BYLAYER
 49
-0.5
 62
   256
  6
BYLAYER
  0
ENDSEC
  0
EOF
