  0
SECTION
  2
HEADER
  9
$ACADVER
  1
AC1018
  9
$ACADMAINTVER
 70
     0
  9
$DWGCODEPAGE
  3
ANSI_1256
  9
$INSBASE
 10
0.0
 20
0.0
 30
0.0
  9
$EXTMIN
 10
0.0
 20
0.0
 30
0.0
  9
$EXTMAX
 10
47.7144
 20
47.7144
 30
0.0
  9
$LIMMIN
 10
0.0
 20
0.0
  9
$LIMMAX
 10
12.0
 20
9.0
  9
$ORTHOMODE
 70
     0
  9
$REGENMODE
 70
     1
  9
$FILLMODE
 70
     1
  9
$QTEXTMODE
 70
     0
  9
$MIRRTEXT
 70
     1
  9
$LTSCALE
 40
1.0
  9
$ATTMODE
 70
     1
  9
$TEXTSIZE
 40
0.2
  9
$TRACEWID
 40
0.05
  9
$TEXTSTYLE
  7
Standard
  9
$CLAYER
  8
0
  9
$CELTYPE
  6
ByBlock
  9
$CECOLOR
 62
   256
  9
$CELTSCALE
 40
1.0
  9
$DISPSILH
 70
     0
  9
$DIMSCALE
 40
1.0
  9
$DIMASZ
 40
0.18
  9
$DIMEXO
 40
0.0625
  9
$DIMDLI
 40
0.38
  9
$DIMRND
 40
0.0
  9
$DIMDLE
 40
0.0
  9
$DIMEXE
 40
0.18
  9
$DIMTP
 40
0.0
  9
$DIMTM
 40
0.0
  9
$DIMTXT
 40
0.18
  9
$DIMCEN
 40
0.09
  9
$DIMTSZ
 40
0.0
  9
$DIMTOL
 70
     0
  9
$DIMLIM
 70
     0
  9
$DIMTIH
 70
     1
  9
$DIMTOH
 70
     1
  9
$DIMSE1
 70
     0
  9
$DIMSE2
 70
     0
  9
$DIMTAD
 70
     0
  9
$DIMZIN
 70
     0
  9
$DIMBLK
  1

  9
$DIMASO
 70
     1
  9
$DIMSHO
 70
     1
  9
$DIMPOST
  1

  9
$DIMAPOST
  1

  9
$DIMALT
 70
     0
  9
$DIMALTD
 70
     2
  9
$DIMALTF
 40
25.4
  9
$DIMLFAC
 40
1.0
  9
$DIMTOFL
 70
     0
  9
$DIMTVP
 40
0.0
  9
$DIMTIX
 70
     0
  9
$DIMSOXD
 70
     0
  9
$DIMSAH
 70
     0
  9
$DIMBLK1
  1

  9
$DIMBLK2
  1

  9
$DIMSTYLE
  2
Standard
  9
$DIMCLRD
 70
     0
  9
$DIMCLRE
 70
     0
  9
$DIMCLRT
 70
     0
  9
$DIMTFAC
 40
1.0
  9
$DIMGAP
 40
0.09
  9
$DIMJUST
 70
     0
  9
$DIMSD1
 70
     0
  9
$DIMSD2
 70
     0
  9
$DIMTOLJ
 70
     1
  9
$DIMTZIN
 70
     0
  9
$DIMALTZ
 70
     0
  9
$DIMALTTZ
 70
     0
  9
$DIMUPT
 70
     0
  9
$DIMDEC
 70
     4
  9
$DIMTDEC
 70
     4
  9
$DIMALTU
 70
     2
  9
$DIMALTTD
 70
     2
  9
$DIMTXSTY
  7
Standard
  9
$DIMAUNIT
 70
     0
  9
$DIMADEC
 70
     0
  9
$DIMALTRND
 40
0.0
  9
$DIMAZIN
 70
     0
  9
$DIMDSEP
 70
    46
  9
$DIMATFIT
 70
     3
  9
$DIMFRAC
 70
     0
  9
$DIMLDRBLK
  1

  9
$DIMLUNIT
 70
     2
  9
$DIMLWD
 70
    -2
  9
$DIMLWE
 70
    -2
  9
$DIMTMOVE
 70
     2
  9
$LUNITS
 70
     2
  9
$LUPREC
 70
     4
  9
$SKETCHINC
 40
0.1
  9
$FILLETRAD
 40
0.5
  9
$AUNITS
 70
     0
  9
$AUPREC
 70
     0
  9
$MENU
  1
.
  9
$ELEVATION
 40
0.0
  9
$PELEVATION
 40
0.0
  9
$THICKNESS
 40
0.0
  9
$LIMCHECK
 70
     0
  9
$CHAMFERA
 40
0.0
  9
$CHAMFERB
 40
0.0
  9
$CHAMFERC
 40
0.0
  9
$CHAMFERD
 40
0.0
  9
$SKPOLY
 70
     0
  9
$TDCREATE
 40
2457958.699089954
  9
$TDUCREATE
 40
2457958.574089954
  9
$TDUPDATE
 40
2457958.699090671
  9
$TDUUPDATE
 40
2457958.574090671
  9
$TDINDWG
 40
0.0000000116
  9
$TDUSRTIMER
 40
0.0000000116
  9
$USRTIMER
 70
     1
  9
$ANGBASE
 50
0.0
  9
$ANGDIR
 70
     0
  9
$PDMODE
 70
     0
  9
$PDSIZE
 40
0.0
  9
$PLINEWID
 40
0.0
  9
$SPLFRAME
 70
     0
  9
$SPLINETYPE
 70
     6
  9
$SPLINESEGS
 70
     8
  9
$HANDSEED
  5
1320
  9
$SURFTAB1
 70
     6
  9
$SURFTAB2
 70
     6
  9
$SURFTYPE
 70
     6
  9
$SURFU
 70
     6
  9
$SURFV
 70
     6
  9
$UCSBASE
  2

  9
$UCSNAME
  2

  9
$UCSORG
 10
0.0
 20
0.0
 30
0.0
  9
$UCSXDIR
 10
1.0
 20
0.0
 30
0.0
  9
$UCSYDIR
 10
0.0
 20
1.0
 30
0.0
  9
$UCSORTHOREF
  2

  9
$UCSORTHOVIEW
 70
     0
  9
$UCSORGTOP
 10
0.0
 20
0.0
 30
0.0
  9
$UCSORGBOTTOM
 10
0.0
 20
0.0
 30
0.0
  9
$UCSORGLEFT
 10
0.0
 20
0.0
 30
0.0
  9
$UCSORGRIGHT
 10
0.0
 20
0.0
 30
0.0
  9
$UCSORGFRONT
 10
0.0
 20
0.0
 30
0.0
  9
$UCSORGBACK
 10
0.0
 20
0.0
 30
0.0
  9
$PUCSBASE
  2

  9
$PUCSNAME
  2

  9
$PUCSORG
 10
0.0
 20
0.0
 30
0.0
  9
$PUCSXDIR
 10
1.0
 20
0.0
 30
0.0
  9
$PUCSYDIR
 10
0.0
 20
1.0
 30
0.0
  9
$PUCSORTHOREF
  2

  9
$PUCSORTHOVIEW
 70
     0
  9
$PUCSORGTOP
 10
0.0
 20
0.0
 30
0.0
  9
$PUCSORGBOTTOM
 10
0.0
 20
0.0
 30
0.0
  9
$PUCSORGLEFT
 10
0.0
 20
0.0
 30
0.0
  9
$PUCSORGRIGHT
 10
0.0
 20
0.0
 30
0.0
  9
$PUCSORGFRONT
 10
0.0
 20
0.0
 30
0.0
  9
$PUCSORGBACK
 10
0.0
 20
0.0
 30
0.0
  9
$USERI1
 70
     0
  9
$USERI2
 70
     0
  9
$USERI3
 70
     0
  9
$USERI4
 70
     0
  9
$USERI5
 70
     0
  9
$USERR1
 40
0.0
  9
$USERR2
 40
0.0
  9
$USERR3
 40
0.0
  9
$USERR4
 40
0.0
  9
$USERR5
 40
0.0
  9
$WORLDVIEW
 70
     1
  9
$SHADEDGE
 70
     3
  9
$SHADEDIF
 70
    70
  9
$TILEMODE
 70
     1
  9
$MAXACTVP
 70
    64
  9
$PINSBASE
 10
0.0
 20
0.0
 30
0.0
  9
$PLIMCHECK
 70
     0
  9
$PEXTMIN
 10
1.000000000000000E+20
 20
1.000000000000000E+20
 30
1.000000000000000E+20
  9
$PEXTMAX
 10
-1.000000000000000E+20
 20
-1.000000000000000E+20
 30
-1.000000000000000E+20
  9
$PLIMMIN
 10
0.0
 20
0.0
  9
$PLIMMAX
 10
12.0
 20
9.0
  9
$UNITMODE
 70
     0
  9
$VISRETAIN
 70
     1
  9
$PLINEGEN
 70
     0
  9
$PSLTSCALE
 70
     1
  9
$TREEDEPTH
 70
  3020
  9
$CMLSTYLE
  2
Standard
  9
$CMLJUST
 70
     0
  9
$CMLSCALE
 40
1.0
  9
$PROXYGRAPHICS
 70
     1
  9
$MEASUREMENT
 70
     0
  9
$CELWEIGHT
370
    -1
  9
$ENDCAPS
280
     0
  9
$JOINSTYLE
280
     0
  9
$LWDISPLAY
290
     0
  9
$INSUNITS
 70
     0
  9
$HYPERLINKBASE
  1

  9
$STYLESHEET
  1

  9
$XEDIT
290
     1
  9
$CEPSNTYPE
380
     0
  9
$PSTYLEMODE
290
     1
  9
$FINGERPRINTGUID
  2
{BCB75AF2-252E-4B7F-BCE9-43FEC7F351E8}
  9
$VERSIONGUID
  2
{FAEB1C32-E019-11D5-929B-00C0DF256EC4}
  9
$EXTNAMES
290
     1
  9
$PSVPSCALE
 40
0.0
  9
$OLESTARTUP
290
     0
  9
$SORTENTS
280
   127
  9
$INDEXCTL
280
     0
  9
$HIDETEXT
280
     1
  9
$XCLIPFRAME
290
     0
  9
$HALOGAP
280
     0
  9
$OBSCOLOR
 70
   257
  9
$OBSLTYPE
280
     0
  9
$INTERSECTIONDISPLAY
280
     0
  9
$INTERSECTIONCOLOR
 70
   257
  9
$DIMASSOC
280
     2
  9
$PROJECTNAME
  1

  0
ENDSEC
  0
SECTION
  2
CLASSES
  0
CLASS
  1
ACDBDICTIONARYWDFLT
  2
AcDbDictionaryWithDefault
  3
ObjectDBX Classes
 90
        0
 91
        4
280
     0
281
     0
  0
CLASS
  1
SCALE
  2
AcDbScale
  3
ObjectDBX Classes
 90
     1153
 91
        4
280
     0
281
     0
  0
CLASS
  1
VISUALSTYLE
  2
AcDbVisualStyle
  3
ObjectDBX Classes
 90
     4095
 91
        4
280
     0
281
     0
  0
CLASS
  1
MATERIAL
  2
AcDbMaterial
  3
ObjectDBX Classes
 90
     1153
 91
        4
280
     0
281
     0
  0
CLASS
  1
TABLESTYLE
  2
AcDbTableStyle
  3
ObjectDBX Classes
 90
     4095
 91
        4
280
     0
281
     0
  0
CLASS
  1
MLEADERSTYLE
  2
AcDbMLeaderStyle
  3
ACDB_MLEADERSTYLE_CLASS
 90
     4095
 91
        4
280
     0
281
     0
  0
CLASS
  1
DICTIONARYVAR
  2
AcDbDictionaryVar
  3
ObjectDBX Classes
 90
        0
 91
        4
280
     0
281
     0
  0
CLASS
  1
CELLSTYLEMAP
  2
AcDbCellStyleMap
  3
ObjectDBX Classes
 90
     1152
 91
        4
280
     0
281
     0
  0
ENDSEC
  0
SECTION
  2
TABLES
  0
TABLE
  2
VPORT
  5
8
102
{ACAD_XDICTIONARY
360
12D9
102
}
330
0
100
AcDbSymbolTable
 70
     1
  0
VPORT
  5
21
330
8
100
AcDbSymbolTableRecord
100
AcDbViewportTableRecord
  2
*Active
 70
     0
 10
0.0
 20
0.0
 11
1.0
 21
1.0
 12
10.42990654205607
 22
4.5
 13
0.0
 23
0.0
 14
0.5
 24
0.5
 15
0.5
 25
0.5
 16
0.0
 26
0.0
 36
1.0
 17
0.0
 27
0.0
 37
0.0
 40
9.0
 41
1.972972972850329
 42
50.0
 43
0.0
 44
0.0
 50
0.0
 51
0.0
 71
     0
 72
   100
 73
     1
 74
     3
 75
     0
 76
     0
 77
     0
 78
     0
281
     0
 65
     1
110
0.0
120
0.0
130
0.0
111
1.0
121
0.0
131
0.0
112
0.0
122
1.0
132
0.0
 79
     0
146
0.0
  0
ENDTAB
  0
TABLE
  2
LTYPE
  5
5
330
0
100
AcDbSymbolTable
 70
     1
  0
LTYPE
  5
14
330
5
100
AcDbSymbolTableRecord
100
AcDbLinetypeTableRecord
  2
ByBlock
 70
     0
  3

 72
    65
 73
     0
 40
0.0
  0
LTYPE
  5
15
330
5
100
AcDbSymbolTableRecord
100
AcDbLinetypeTableRecord
  2
ByLayer
 70
     0
  3

 72
    65
 73
     0
 40
0.0
  0
LTYPE
  5
16
330
5
100
AcDbSymbolTableRecord
100
AcDbLinetypeTableRecord
  2
Continuous
 70
     0
  3
Solid line
 72
    65
 73
     0
 40
0.0
  0
ENDTAB
  0
TABLE
  2
LAYER
  5
2
330
0
100
AcDbSymbolTable
 70
     1
  0
LAYER
  5
10
330
2
100
AcDbSymbolTableRecord
100
AcDbLayerTableRecord
  2
0
 70
     0
 62
     7
  6
Continuous
370
    -3
390
F
  0
ENDTAB
  0
TABLE
  2
STYLE
  5
3
330
0
100
AcDbSymbolTable
 70
     1
  0
STYLE
  5
11
330
3
100
AcDbSymbolTableRecord
100
AcDbTextStyleTableRecord
  2
Standard
 70
     0
 40
0.0
 41
1.0
 50
0.0
 71
     0
 42
0.2
  3
txt
  4

  0
ENDTAB
  0
TABLE
  2
VIEW
  5
6
330
0
100
AcDbSymbolTable
 70
     0
  0
ENDTAB
  0
TABLE
  2
UCS
  5
7
330
0
100
AcDbSymbolTable
 70
     0
  0
ENDTAB
  0
TABLE
  2
APPID
  5
9
330
0
100
AcDbSymbolTable
 70
     2
  0
APPID
  5
12
330
9
100
AcDbSymbolTableRecord
100
AcDbRegAppTableRecord
  2
ACAD
 70
     0
  0
APPID
  5
1317
330
9
100
AcDbSymbolTableRecord
100
AcDbRegAppTableRecord
  2
ACAD_MLEADERVER
 70
     0
  0
ENDTAB
  0
TABLE
  2
DIMSTYLE
  5
A
330
0
100
AcDbSymbolTable
 70
     1
100
AcDbDimStyleTable
  0
DIMSTYLE
105
20
330
A
100
AcDbSymbolTableRecord
100
AcDbDimStyleTableRecord
  2
Standard
 70
     0
178
     0
340
11
  0
ENDTAB
  0
TABLE
  2
BLOCK_RECORD
  5
1
330
0
100
AcDbSymbolTable
 70
     0
  0
BLOCK_RECORD
  5
1D
330
1
100
AcDbSymbolTableRecord
100
AcDbBlockTableRecord
  2
*Model_Space
340
1E
  0
BLOCK_RECORD
  5
1B
330
1
100
AcDbSymbolTableRecord
100
AcDbBlockTableRecord
  2
*Paper_Space
340
1C
  0
ENDTAB
  0
ENDSEC
  0
SECTION
  2
BLOCKS
  0
BLOCK
  5
12B4
330
1D
100
AcDbEntity
  8
0
100
AcDbBlockBegin
  2
*Model_Space
 70
     0
 10
0.0
 20
0.0
 30
0.0
  3
*Model_Space
  1

  0
ENDBLK
  5
12B5
330
1D
100
AcDbEntity
  8
0
100
AcDbBlockEnd
  0
BLOCK
  5
12B6
330
1B
100
AcDbEntity
 67
     1
  8
0
100
AcDbBlockBegin
  2
*Paper_Space
 70
     0
 10
0.0
 20
0.0
 30
0.0
  3
*Paper_Space
  1

  0
ENDBLK
  5
12B7
330
1B
100
AcDbEntity
 67
     1
  8
0
100
AcDbBlockEnd
  0
ENDSEC
  0
SECTION
  2
ENTITIES
  0
LWPOLYLINE
  5
22
330
1D
100
AcDbEntity
  8
0
100
AcDbPolyline
 90
       66
 70
     1
 43
0.0
 10
6.95835
 20
43.906603
 10
3.807
 20
43.9074
 10
3.807
 20
40.7772
 10
3.807
 20
37.647
 10
4.16655
 20
37.649679
 42
0.039172
 10
4.390248
 20
37.66891
 42
0.122056
 10
4.528105
 20
37.728332
 42
0.073568
 10
4.65889
 20
37.862121
 42
0.008495
 10
4.900226
 20
38.207288
 42
-0.018747
 10
5.075803
 20
38.447753
 42
-0.012262
 10
5.295081
 20
38.711983
 42
-0.012339
 10
5.521771
 20
38.959309
 42
-0.023015
 10
5.719044
 20
39.146137
 10
6.163737
 20
39.530056
 10
5.943656
 20
39.86262
 42
-0.034773
 10
5.846748
 20
40.033821
 42
-0.03152
 10
5.770859
 20
40.222424
 42
-0.030716
 10
5.717622
 20
40.424076
 42
-0.02917
 10
5.688352
 20
40.634242
 42
-0.02102
 10
5.679246
 20
40.873653
 42
-0.054286
 10
5.698629
 20
41.045246
 42
-0.061133
 10
5.752656
 20
41.196504
 42
-0.032966
 10
5.853028
 20
41.367387
 42
-0.028952
 10
5.950259
 20
41.494002
 42
-0.017876
 10
6.078056
 20
41.631592
 42
-0.017911
 10
6.214551
 20
41.758932
 42
-0.030485
 10
6.338374
 20
41.853837
 42
-0.038809
 10
6.489635
 20
41.939524
 42
-0.0405
 10
6.650216
 20
41.999396
 42
-0.038733
 10
6.824745
 20
42.034502
 42
-0.030277
 10
7.017748
 20
42.0462
 42
-0.032959
 10
7.223323
 20
42.032634
 42
-0.042765
 10
7.407656
 20
41.991943
 42
-0.040657
 10
7.589442
 20
41.918488
 42
-0.025922
 10
7.787787
 20
41.805682
 42
-0.024162
 10
7.959152
 20
41.68405
 42
-0.011864
 10
8.165638
 20
41.513871
 42
-0.011741
 10
8.37222
 20
41.326562
 42
-0.016728
 10
8.545931
 20
41.150032
 42
-0.004145
 10
8.706582
 20
40.97253
 42
-0.003517
 10
8.873387
 20
40.782454
 42
-0.003546
 10
9.022882
 20
40.607169
 42
-0.009951
 10
9.124207
 20
40.481655
 42
0.010118
 10
9.250192
 20
40.325699
 42
0.145416
 10
9.309078
 20
40.286929
 42
0.275329
 10
9.361513
 20
40.299977
 42
0.039568
 10
9.436603
 20
40.387257
 42
-0.10037
 10
9.526438
 20
40.469179
 42
-0.095833
 10
9.642557
 20
40.511329
 42
-0.04746
 10
9.827332
 20
40.52285
 42
-0.007878
 10
10.183679
 20
40.505613
 10
10.814604
 20
40.465123
 10
10.732209
 20
40.681839
 42
0.014388
 10
10.69516
 20
40.771435
 42
0.013187
 10
10.651992
 20
40.861433
 42
0.013322
 10
10.609217
 20
40.939686
 42
0.041481
 10
10.574835
 20
40.988899
 42
-0.084814
 10
10.53711
 20
41.054256
 42
-0.006418
 10
10.468445
 20
41.247483
 42
-0.008702
 10
10.393088
 20
41.481763
 42
-0.00651
 10
10.317944
 20
41.74232
 42
-0.018368
 10
10.241151
 20
42.068786
 42
-0.014283
 10
10.180967
 20
42.428599
 42
-0.014056
 10
10.140464
 20
42.798526
 42
-0.015851
 10
10.122866
 20
43.155602
 10
10.1097
 20
43.905806
  0
LWPOLYLINE
  5
66
330
1D
100
AcDbEntity
  8
0
100
AcDbPolyline
 90
       70
 70
     1
 43
0.0
 10
19.9656
 20
43.9074
 10
16.8354
 20
43.9074
 10
16.8354
 20
43.319253
 10
16.8354
 20
42.731105
 10
17.36415
 20
42.423028
 42
-0.008297
 10
17.598178
 20
42.281419
 42
-0.005332
 10
17.865072
 20
42.109814
 42
-0.005359
 10
18.122761
 20
41.93623
 42
-0.010016
 10
18.326916
 20
41.789386
 10
18.760932
 20
41.463821
 10
18.952707
 20
41.667955
 42
-0.041715
 10
19.047339
 20
41.753195
 42
-0.02369
 10
19.174419
 20
41.840597
 42
-0.023519
 10
19.311717
 20
41.91705
 42
-0.035583
 10
19.438172
 20
41.969017
 42
-0.037779
 10
19.576406
 20
42.003321
 42
-0.020296
 10
19.750791
 20
42.025614
 42
-0.0201
 10
19.931435
 20
42.033995
 42
-0.02961
 10
20.089989
 20
42.025577
 42
-0.038628
 10
20.247135
 20
41.995443
 42
-0.024843
 10
20.423576
 20
41.937686
 42
-0.02495
 10
20.591619
 20
41.863463
 42
-0.042227
 10
20.722703
 20
41.783056
 42
-0.029124
 10
20.836886
 20
41.688268
 42
-0.021076
 10
20.952921
 20
41.570402
 42
-0.021399
 10
21.053947
 20
41.448649
 42
-0.042744
 10
21.120831
 20
41.343005
 42
-0.049917
 10
21.168536
 20
41.223294
 42
-0.021333
 10
21.209005
 20
41.055605
 42
-0.020854
 10
21.237254
 20
40.871733
 42
-0.025754
 10
21.247518
 20
40.698688
 42
-0.027633
 10
21.239249
 20
40.524756
 42
-0.021779
 10
21.211758
 20
40.338201
 42
-0.022263
 10
21.170819
 20
40.166741
 42
-0.049629
 10
21.121361
 20
40.042218
 42
-0.050843
 10
21.041917
 20
39.920654
 42
-0.015405
 10
20.897917
 20
39.753545
 42
-0.015257
 10
20.723952
 20
39.575059
 42
-0.016056
 10
20.542278
 20
39.410634
 42
-0.010224
 10
20.300405
 20
39.21382
 42
-0.002855
 10
19.913982
 20
38.915837
 42
-0.002879
 10
19.472855
 20
38.583668
 42
-0.003023
 10
19.035
 20
38.261991
 42
0.004489
 10
18.612499
 20
37.949684
 42
0.005257
 10
18.217544
 20
37.645657
 42
0.004665
 10
17.889069
 20
37.382263
 42
0.031889
 10
17.737169
 20
37.241046
 10
17.496839
 20
36.987208
 10
17.944099
 20
36.440754
 10
18.39136
 20
35.8943
 10
18.60743
 20
36.100056
 42
-0.015865
 10
18.715719
 20
36.196815
 42
-0.006657
 10
18.867202
 20
36.320365
 42
-0.006578
 10
19.032835
 20
36.448309
 42
-0.0085
 10
19.188342
 20
36.561111
 42
-0.017728
 10
19.365578
 20
36.675995
 42
-0.008429
 10
19.601215
 20
36.811789
 42
-0.008343
 10
19.852585
 20
36.945626
 42
-0.011719
 10
20.081536
 20
37.055977
 42
-0.012996
 10
20.322516
 20
37.157778
 42
-0.007968
 10
20.611375
 20
37.265773
 42
-0.007986
 10
20.900898
 20
37.363607
 42
-0.014088
 10
21.143301
 20
37.433764
 42
-0.017443
 10
21.398042
 20
37.490373
 42
-0.00836
 10
21.728452
 20
37.546092
 42
-0.008277
 10
22.075635
 20
37.592822
 42
-0.011697
 10
22.386257
 20
37.622058
 10
23.0958
 20
37.672132
 10
23.0958
 20
40.789766
 10
23.0958
 20
43.9074
  0
LWPOLYLINE
  5
AE
330
1D
100
AcDbEntity
  8
0
100
AcDbPolyline
 90
       86
 70
     1
 43
0.0
 10
27.7488
 20
43.9074
 10
24.6186
 20
43.9074
 10
24.6186
 20
40.789868
 10
24.6186
 20
37.672336
 10
25.363084
 20
37.619491
 42
-0.015781
 10
25.697055
 20
37.585165
 42
-0.00978
 10
26.086757
 20
37.524855
 42
-0.009808
 10
26.469562
 20
37.450156
 42
-0.017401
 10
26.781204
 20
37.371534
 42
-0.016989
 10
27.082035
 20
37.273209
 42
-0.010348
 10
27.430603
 20
37.137784
 42
-0.010366
 10
27.770982
 20
36.989037
 42
-0.018025
 10
28.045969
 20
36.849777
 42
-0.026078
 10
28.349271
 20
36.660902
 42
-0.017792
 10
28.673968
 20
36.416776
 42
-0.016034
 10
29.016607
 20
36.120875
 42
-0.012086
 10
29.374344
 20
35.774981
 42
-0.010732
 10
29.761732
 20
35.364606
 42
-0.024318
 10
30.032259
 20
35.034485
 42
-0.027783
 10
30.247023
 20
34.708343
 42
-0.018999
 10
30.455335
 20
34.31665
 42
-0.012765
 10
30.594257
 20
34.009909
 42
-0.01045
 10
30.7274
 20
33.675427
 42
-0.010593
 10
30.836928
 20
33.362559
 42
-0.027208
 10
30.898805
 20
33.131035
 10
30.998529
 20
32.6556
 10
31.730733
 20
32.6556
 10
32.462937
 20
32.6556
 10
32.42392
 20
32.88825
 42
0.01674
 10
32.398277
 20
33.01499
 42
0.003867
 10
32.346322
 20
33.226518
 42
0.00399
 10
32.282626
 20
33.469313
 42
0.003891
 10
32.214545
 20
33.7131
 42
0.014647
 10
32.128578
 20
33.982028
 42
0.008281
 10
32.00954
 20
34.302889
 42
0.008261
 10
31.878685
 20
34.62274
 42
0.01343
 10
31.755883
 20
34.889294
 42
0.012532
 10
31.618788
 20
35.150305
 42
0.007537
 10
31.443807
 20
35.453258
 42
0.007546
 10
31.26062
 20
35.749418
 42
0.013061
 10
31.098349
 20
35.989094
 42
0.016714
 10
30.918439
 20
36.223462
 42
0.008697
 10
30.679423
 20
36.504076
 42
0.008638
 10
30.423785
 20
36.783944
 42
0.013026
 10
30.19071
 20
37.017902
 42
0.016322
 10
29.897653
 20
37.279424
 42
0.00457
 10
29.422785
 20
37.668813
 42
0.004604
 10
28.877313
 20
38.099605
 42
0.00483
 10
28.332562
 20
38.513383
 42
-0.004416
 10
27.810949
 20
38.908904
 42
-0.005557
 10
27.335288
 20
39.284754
 42
-0.004487
 10
26.943245
 20
39.607533
 42
-0.043406
 10
26.790837
 20
39.759677
 42
-0.032506
 10
26.699717
 20
39.883472
 42
-0.020684
 10
26.609522
 20
40.03806
 42
-0.020768
 10
26.533306
 20
40.197762
 42
-0.035834
 10
26.48532
 20
40.336897
 42
-0.034602
 10
26.457282
 20
40.481675
 42
-0.024519
 10
26.445194
 20
40.64678
 42
-0.02466
 10
26.449331
 20
40.810616
 42
-0.0375
 10
26.470533
 20
40.951354
 42
-0.023623
 10
26.506958
 20
41.082085
 42
-0.016373
 10
26.559828
 20
41.226159
 42
-0.016548
 10
26.619867
 20
41.361495
 42
-0.032362
 10
26.677982
 20
41.464101
 42
-0.052017
 10
26.75536
 20
41.559013
 42
-0.021467
 10
26.877959
 20
41.670945
 42
-0.020961
 10
27.020842
 20
41.780721
 42
-0.025294
 10
27.163974
 20
41.870979
 42
-0.027666
 10
27.356565
 20
41.965612
 42
-0.049793
 10
27.524428
 20
42.017887
 42
-0.0489
 10
27.701374
 20
42.036476
 42
-0.025691
 10
27.922564
 20
42.026644
 42
-0.03158
 10
28.122247
 20
41.994638
 42
-0.035629
 10
28.30818
 20
41.938483
 42
-0.036324
 10
28.481097
 20
41.85768
 42
-0.035475
 10
28.641946
 20
41.75214
 10
28.950025
 20
41.517157
 10
29.428062
 20
41.850933
 42
-0.007194
 10
29.646345
 20
41.998718
 42
-0.004364
 10
29.908571
 20
42.167548
 42
-0.004371
 10
30.17176
 20
42.330567
 42
-0.007684
 10
30.39255
 20
42.460064
 10
30.879
 20
42.735418
 10
30.879
 20
43.321409
 10
30.879
 20
43.9074
  0
LWPOLYLINE
  5
106
330
1D
100
AcDbEntity
  8
0
100
AcDbPolyline
 90
       72
 70
     1
 43
0.0
 10
40.7772
 20
43.9074
 10
37.647
 20
43.9074
 10
37.647
 20
43.534739
 42
0.026704
 10
37.659193
 20
43.306605
 42
0.120351
 10
37.704174
 20
43.181965
 42
0.099812
 10
37.805717
 20
43.080311
 42
0.015439
 10
38.04885
 20
42.929195
 42
-0.032025
 10
38.242241
 20
42.799917
 42
-0.011522
 10
38.500549
 20
42.592597
 42
-0.011375
 10
38.773959
 20
42.351771
 42
-0.013244
 10
39.02225
 20
42.110356
 10
39.593799
 20
41.5244
 10
39.84959
 20
41.739634
 42
-0.036293
 10
39.968937
 20
41.826096
 42
-0.024294
 10
40.11649
 20
41.907823
 42
-0.0245
 10
40.268033
 20
41.973373
 42
-0.043481
 10
40.39899
 20
42.009949
 42
-0.028953
 10
40.532705
 20
42.027098
 42
-0.017418
 10
40.6926
 20
42.03267
 42
-0.017418
 10
40.852495
 20
42.027098
 42
-0.028953
 10
40.98621
 20
42.009949
 42
-0.045046
 10
41.117991
 20
41.972699
 42
-0.024437
 10
41.272236
 20
41.904856
 42
-0.024153
 10
41.423642
 20
41.81986
 42
-0.034933
 10
41.547613
 20
41.729534
 42
-0.032468
 10
41.658598
 20
41.623111
 42
-0.022259
 10
41.77064
 20
41.489263
 42
-0.022499
 10
41.8674
 20
41.350066
 42
-0.041694
 10
41.930803
 20
41.228017
 42
-0.03288
 10
41.97506
 20
41.098828
 42
-0.018634
 10
42.012302
 20
40.937625
 42
-0.018542
 10
42.037844
 20
40.771657
 42
-0.028913
 10
42.0462
 20
40.62728
 42
-0.046718
 10
42.030848
 20
40.463335
 42
-0.035998
 10
41.984866
 20
40.289578
 42
-0.033075
 10
41.909411
 20
40.1095
 42
-0.026513
 10
41.805682
 20
39.926613
 42
-0.024162
 10
41.68405
 20
39.755248
 42
-0.011864
 10
41.513871
 20
39.548762
 42
-0.011741
 10
41.326562
 20
39.34218
 42
-0.016728
 10
41.150032
 20
39.168469
 42
-0.004036
 10
40.973128
 20
39.008289
 42
-0.003487
 10
40.78486
 20
38.842906
 42
-0.003511
 10
40.612084
 20
38.695362
 42
-0.010187
 10
40.489846
 20
38.596637
 42
0.012711
 10
40.338409
 20
38.47306
 42
0.152485
 10
40.298942
 20
38.40987
 42
0.221117
 10
40.310407
 20
38.346709
 42
0.030199
 10
40.396438
 20
38.239269
 42
-0.075594
 10
40.472233
 20
38.124749
 42
-0.075279
 10
40.5107
 20
37.992712
 42
-0.044393
 10
40.519139
 20
37.803112
 42
-0.009849
 10
40.498364
 20
37.478651
 42
0.006311
 10
40.482186
 20
37.251242
 42
0.010583
 10
40.475055
 20
37.059809
 42
0.004448
 10
40.473913
 20
36.900496
 42
0.413708
 10
40.488835
 20
36.8856
 42
0.104297
 10
40.516681
 20
36.891473
 42
0.002662
 10
40.634436
 20
36.944201
 42
0.005562
 10
40.772242
 20
37.00865
 42
0.003754
 10
40.928062
 20
37.085093
 42
-0.023047
 10
41.124167
 20
37.172083
 42
-0.010204
 10
41.39022
 20
37.269507
 42
-0.010075
 10
41.676763
 20
37.36144
 42
-0.013378
 10
41.941014
 20
37.432745
 42
-0.018154
 10
42.224847
 20
37.490428
 42
-0.010189
 10
42.573199
 20
37.540876
 42
-0.010157
 10
42.927577
 20
37.577553
 42
-0.016306
 10
43.231042
 20
37.592801
 10
43.907157
 20
37.6047
 10
43.907278
 20
40.75605
 10
43.9074
 20
43.9074
  0
LWPOLYLINE
  5
150
330
1D
100
AcDbEntity
  8
0
100
AcDbPolyline
 90
       84
 70
     1
 43
0.0
 10
13.0707
 20
43.609186
 42
0.009115
 10
12.718883
 20
43.617791
 42
0.008693
 10
12.361382
 20
43.613801
 42
0.008667
 10
12.045818
 20
43.599313
 42
0.030403
 10
11.844
 20
43.574158
 42
0.009409
 10
11.66451
 20
43.537099
 42
0.004545
 10
11.436117
 20
43.483257
 42
0.004505
 10
11.199035
 20
43.422817
 42
0.006454
 10
10.990063
 20
43.364636
 42
0.011916
 10
10.797475
 20
43.303312
 42
0.01231
 10
10.610127
 20
43.233494
 42
0.012102
 10
10.451064
 20
43.165201
 42
0.050449
 10
10.361211
 20
43.112487
 42
0.097926
 10
10.278116
 20
43.022247
 42
0.132345
 10
10.246988
 20
42.916315
 42
0.04989
 10
10.260601
 20
42.73998
 42
0.004443
 10
10.342854
 20
42.301993
 42
0.004063
 10
10.398297
 20
42.032152
 42
0.006153
 10
10.451321
 20
41.798416
 42
0.002647
 10
10.499951
 20
41.600278
 42
0.13568
 10
10.519358
 20
41.566042
 42
0.27744
 10
10.55022
 20
41.558354
 42
0.013323
 10
10.655101
 20
41.593551
 42
0.018574
 10
10.782571
 20
41.645586
 42
0.011971
 10
10.926352
 20
41.714801
 42
-0.01739
 10
11.097673
 20
41.794999
 42
-0.009832
 10
11.31033
 20
41.880771
 42
-0.009806
 10
11.52843
 20
41.958929
 42
-0.015868
 10
11.7171
 20
42.015799
 42
-0.029382
 10
11.929007
 20
42.059258
 42
-0.011332
 10
12.227079
 20
42.095463
 42
-0.011174
 10
12.552879
 20
42.120227
 42
-0.013542
 10
12.8592
 20
42.128327
 42
-0.014015
 10
13.176904
 20
42.119214
 42
-0.009515
 10
13.537767
 20
42.091833
 42
-0.009593
 10
13.88545
 20
42.052042
 42
-0.018913
 10
14.159415
 20
42.004744
 42
-0.010021
 10
14.415238
 20
41.945163
 42
-0.006803
 10
14.704079
 20
41.867561
 42
-0.006857
 10
14.98103
 20
41.78498
 42
-0.013632
 10
15.197558
 20
41.710629
 42
-0.008559
 10
15.40328
 20
41.629618
 42
-0.005134
 10
15.644891
 20
41.526745
 42
-0.00514
 10
15.883243
 20
41.419424
 42
-0.008918
 10
16.078609
 20
41.324765
 42
-0.008819
 10
16.275586
 20
41.220542
 42
-0.004463
 10
16.520142
 20
41.08271
 42
-0.004431
 10
16.770201
 20
40.935857
 42
-0.006585
 10
16.986265
 20
40.80248
 42
-0.011755
 10
17.213515
 20
40.650415
 42
-0.005448
 10
17.501791
 20
40.442812
 42
-0.005393
 10
17.800037
 20
40.218051
 42
-0.007478
 10
18.0621
 20
40.009769
 42
-0.006698
 10
18.316089
 20
39.79588
 42
-0.005044
 10
18.589747
 20
39.554221
 42
-0.0051
 10
18.842468
 20
39.321759
 42
-0.011711
 10
19.026746
 20
39.140446
 10
19.399191
 20
38.756416
 10
19.745846
 20
38.996421
 42
0.012835
 10
19.893537
 20
39.104385
 42
0.009609
 10
20.050744
 20
39.230507
 42
0.009729
 10
20.19426
 20
39.355065
 42
0.02183
 10
20.297006
 20
39.456283
 10
20.501511
 20
39.676141
 10
19.704806
 20
40.442773
 42
0.013152
 10
19.336132
 20
40.779312
 42
0.008014
 10
18.884169
 20
41.15809
 42
0.008029
 10
18.42379
 20
41.519425
 42
0.014071
 10
18.029927
 20
41.801349
 42
0.005832
 10
17.658843
 20
42.045236
 42
0.005294
 10
17.270061
 20
42.288544
 42
0.005305
 10
16.91759
 20
42.498865
 42
0.01693
 10
16.676327
 20
42.628646
 42
0.006401
 10
16.460547
 20
42.732046
 42
0.003931
 10
16.203875
 20
42.848583
 42
0.003941
 10
15.948063
 20
42.959906
 42
0.007023
 10
15.7356
 20
43.046875
 42
0.012712
 10
15.509649
 20
43.129113
 42
0.005663
 10
15.208172
 20
43.226454
 42
0.005602
 10
14.886656
 20
43.322322
 42
0.007549
 10
14.5935
 20
43.401402
 42
0.018717
 10
14.273832
 20
43.469855
 42
0.009478
 10
13.866998
 20
43.533244
 42
0.009401
 10
13.443972
 20
43.582884
 42
0.013832
  0
LWPOLYLINE
  5
1A6
330
1D
100
AcDbEntity
  8
0
100
AcDbPolyline
 90
       94
 70
     1
 43
0.0
 10
35.1936
 20
43.604987
 42
0.00608
 10
34.896575
 20
43.61485
 42
0.00604
 10
34.598756
 20
43.617517
 42
0.005937
 10
34.338376
 20
43.613611
 42
0.023374
 10
34.1784
 20
43.601814
 42
0.016643
 10
34.016668
 20
43.576768
 42
0.003824
 10
33.745618
 20
43.523355
 42
0.003948
 10
33.434118
 20
43.456924
 42
0.003844
 10
33.1209
 20
43.385006
 42
0.01223
 10
32.780281
 20
43.295179
 42
0.007572
 10
32.384575
 20
43.173878
 42
0.007594
 10
31.997206
 20
43.042155
 42
0.01355
 10
31.683463
 20
42.920442
 42
0.013591
 10
31.369087
 20
42.77841
 42
0.006737
 10
30.977845
 20
42.582129
 42
0.006681
 10
30.577377
 20
42.36758
 42
0.009728
 10
30.230689
 20
42.166934
 42
0.011746
 10
29.885213
 20
41.946665
 42
0.007176
 10
29.487589
 20
41.671449
 42
0.007191
 10
29.10131
 20
41.387329
 42
0.012665
 10
28.791726
 20
41.140096
 42
0.002993
 10
28.511354
 20
40.90144
 42
0.002502
 10
28.216499
 20
40.644814
 42
0.002524
 10
27.949197
 20
40.407405
 42
0.006901
 10
27.763442
 20
40.236051
 42
0.008793
 10
27.617647
 20
40.092834
 42
0.009802
 10
27.482275
 20
39.949583
 42
0.009211
 10
27.371767
 20
39.823358
 42
0.049841
 10
27.320319
 20
39.748331
 42
0.193475
 10
27.309248
 20
39.655938
 42
0.094029
 10
27.361877
 20
39.54712
 42
0.045264
 10
27.493215
 20
39.399901
 42
0.009498
 10
27.750058
 20
39.16871
 10
28.256863
 20
38.729658
 10
28.943686
 20
39.375772
 42
-0.00803
 10
29.246515
 20
39.65162
 42
-0.005991
 10
29.588917
 20
39.94638
 42
-0.006058
 10
29.918398
 20
40.21647
 42
-0.013692
 10
30.175744
 20
40.410957
 42
-0.008643
 10
30.431225
 20
40.586681
 42
-0.004655
 10
30.751771
 20
40.794822
 42
-0.004634
 10
31.082489
 20
41.000935
 42
-0.007262
 10
31.371039
 20
41.171374
 42
-0.017759
 10
31.677693
 20
41.332387
 42
-0.009547
 10
32.066231
 20
41.510056
 42
-0.009496
 10
32.469756
 20
41.676307
 42
-0.014692
 10
32.8248
 20
41.802871
 42
-0.01371
 10
33.249773
 20
41.927668
 42
-0.018889
 10
33.63799
 20
42.014661
 42
-0.018869
 10
34.031988
 20
42.072167
 42
-0.013636
 10
34.4745
 20
42.107612
 42
-0.010399
 10
34.907113
 20
42.121401
 42
-0.019788
 10
35.255092
 20
42.111479
 42
-0.023022
 10
35.563094
 20
42.076178
 42
-0.022191
 10
35.8704
 20
42.012435
 42
-0.014107
 10
36.112882
 20
41.943466
 42
-0.009321
 10
36.387526
 20
41.851241
 42
-0.009383
 10
36.65136
 20
41.75152
 42
-0.017916
 10
36.858628
 20
41.65996
 42
-0.03255
 10
37.059432
 20
41.54582
 42
-0.015291
 10
37.303888
 20
41.374044
 42
-0.015079
 10
37.549983
 20
41.177765
 42
-0.020498
 10
37.758883
 20
40.985326
 42
0.010998
 10
38.035818
 20
40.720313
 42
0.058238
 10
38.205784
 20
40.597669
 42
0.086009
 10
38.367829
 20
40.540871
 42
0.040508
 10
38.589554
 20
40.522078
 42
-0.023072
 10
38.766575
 20
40.51327
 42
-0.010238
 10
38.998883
 20
40.486122
 42
-0.010109
 10
39.244148
 20
40.44729
 42
-0.013442
 10
39.465202
 20
40.401531
 42
0.007134
 10
39.661873
 20
40.358224
 42
0.011052
 10
39.832911
 20
40.327036
 42
0.005541
 10
39.976576
 20
40.305737
 42
0.234539
 10
40.005155
 20
40.315355
 42
0.318027
 10
40.009981
 20
40.343539
 42
0.003477
 10
39.919914
 20
40.528476
 42
0.00921
 10
39.807894
 20
40.744397
 42
0.005675
 10
39.668561
 20
40.994462
 42
0.020901
 10
39.474105
 20
41.3036
 42
0.017372
 10
39.242715
 20
41.615665
 42
0.0171
 10
38.985793
 20
41.916419
 42
0.018348
 10
38.714663
 20
42.191673
 42
0.017315
 10
38.425988
 20
42.445694
 42
0.018392
 10
38.126027
 20
42.673832
 42
0.019194
 10
37.823993
 20
42.86959
 42
0.024019
 10
37.529155
 20
43.026341
 42
0.012164
 10
37.261907
 20
43.1445
 42
0.008508
 10
36.955411
 20
43.265127
 42
0.008589
 10
36.65757
 20
43.370737
 42
0.01764
 10
36.4203
 20
43.441102
 42
0.020664
 10
36.175031
 20
43.493816
 42
0.009392
 10
35.850572
 20
43.543383
 42
0.009282
 10
35.506043
 20
43.582917
 42
0.012583
  0
LWPOLYLINE
  5
206
330
1D
100
AcDbEntity
  8
0
100
AcDbPolyline
 90
       42
 70
     1
 43
0.0
 10
8.613896
 20
40.850168
 10
8.217891
 20
41.285039
 10
8.053441
 20
41.052269
 42
0.03733
 10
7.975566
 20
40.922486
 42
0.009976
 10
7.871621
 20
40.705014
 42
0.010054
 10
7.763078
 20
40.452389
 42
0.010223
 10
7.66541
 20
40.196992
 42
0.017996
 10
7.574854
 20
39.913146
 42
0.011056
 10
7.487768
 20
39.573117
 42
0.011081
 10
7.41642
 20
39.232453
 42
0.019392
 10
7.374635
 20
38.947323
 42
0.006115
 10
7.351594
 20
38.704244
 42
0.009408
 10
7.338194
 20
38.493373
 42
0.004407
 10
7.331822
 20
38.315586
 42
0.205943
 10
7.344943
 20
38.282657
 42
0.216456
 10
7.3694
 20
38.273478
 42
0.041674
 10
7.417368
 20
38.280755
 42
0.037572
 10
7.476202
 20
38.299535
 42
0.026833
 10
7.538832
 20
38.328848
 42
-0.120878
 10
7.641793
 20
38.355227
 42
-0.066644
 10
7.771505
 20
38.339208
 42
-0.040921
 10
7.947989
 20
38.277223
 42
-0.01198
 10
8.207871
 20
38.153757
 42
0.013227
 10
8.410184
 20
38.058258
 42
0.019208
 10
8.593796
 20
37.985737
 42
0.015163
 10
8.745986
 20
37.937418
 42
0.210707
 10
8.801762
 20
37.945178
 42
0.179601
 10
8.833352
 20
37.98573
 42
0.027681
 10
8.859136
 20
38.08627
 42
0.027937
 10
8.87706
 20
38.213609
 42
0.020998
 10
8.883
 20
38.354986
 42
-0.031293
 10
8.894554
 20
38.539406
 42
-0.009933
 10
8.934376
 20
38.812118
 42
-0.009873
 10
8.990943
 20
39.11504
 42
-0.010833
 10
9.057897
 20
39.406209
 42
0.006983
 10
9.148422
 20
39.78645
 42
0.036336
 10
9.180007
 20
39.999595
 42
0.069524
 10
9.170833
 20
40.141971
 42
0.102599
 10
9.121347
 20
40.256564
 42
0.019958
 10
9.05463
 20
40.343954
 42
0.003839
 10
8.926311
 20
40.496413
 42
0.004082
 10
8.773677
 20
40.672036
 42
0.003753
  0
LWPOLYLINE
  5
232
330
1D
100
AcDbEntity
  8
0
100
AcDbPolyline
 90
       34
 70
     1
 43
0.0
 10
37.291287
 20
41.2002
 42
0.258043
 10
37.258039
 20
41.181817
 42
0.005733
 10
37.159025
 20
41.020028
 42
0.011519
 10
37.047002
 20
40.821944
 42
0.007351
 10
36.925519
 20
40.58685
 42
0.005805
 10
36.796914
 20
40.321052
 42
0.004528
 10
36.663172
 20
40.029415
 42
0.004579
 10
36.543522
 20
39.755446
 42
0.011105
 10
36.461571
 20
39.5505
 42
0.009854
 10
36.391455
 20
39.35132
 42
0.005053
 10
36.311021
 20
39.099062
 42
0.005019
 10
36.233399
 20
38.837532
 42
0.007534
 10
36.171414
 20
38.607688
 42
0.010585
 10
36.120954
 20
38.389404
 42
0.009784
 10
36.07832
 20
38.163392
 42
0.009823
 10
36.048259
 20
37.960687
 42
0.031907
 10
36.0396
 20
37.825138
 10
36.0396
 20
37.5624
 10
36.741517
 20
37.5624
 10
37.443433
 20
37.5624
 10
37.536471
 20
38.105552
 42
-0.0239
 10
37.593413
 20
38.363289
 42
-0.010779
 10
37.691377
 20
38.695466
 42
-0.010643
 10
37.810072
 20
39.042418
 42
-0.014291
 10
37.93316
 20
39.351045
 10
38.236812
 20
40.053385
 10
38.012348
 20
40.394143
 42
0.011006
 10
37.910489
 20
40.541605
 42
0.007735
 10
37.78972
 20
40.703143
 42
0.00781
 10
37.669264
 20
40.854232
 42
0.01618
 10
37.569667
 20
40.96755
 42
0.012774
 10
37.481697
 20
41.056663
 42
0.01754
 10
37.397878
 20
41.131859
 42
0.014329
 10
37.325548
 20
41.188868
 42
0.161081
  0
LWPOLYLINE
  5
256
330
1D
100
AcDbEntity
  8
0
100
AcDbPolyline
 90
       48
 70
     1
 43
0.0
 10
16.439414
 20
40.9464
 42
0.223798
 10
16.386218
 20
40.921334
 42
0.016717
 10
16.285817
 20
40.79108
 42
0.0206
 10
16.173379
 20
40.620233
 42
0.014061
 10
16.05933
 20
40.41765
 42
-0.030721
 10
15.895688
 20
40.148363
 42
-0.016759
 10
15.664376
 20
39.838327
 42
-0.015249
 10
15.381752
 20
39.506168
 42
-0.012477
 10
15.060319
 20
39.168281
 42
-0.012427
 10
14.718513
 20
38.843056
 42
-0.01572
 10
14.386115
 20
38.560655
 42
-0.017386
 10
14.074835
 20
38.329835
 42
-0.029641
 10
13.797876
 20
38.162301
 42
-0.014491
 10
13.542475
 20
38.037106
 42
-0.007656
 10
13.218966
 20
37.895929
 42
-0.007611
 10
12.883224
 20
37.76146
 42
-0.011658
 10
12.587979
 20
37.65622
 10
11.919906
 20
37.4355
 10
11.882444
 20
36.730197
 10
11.844982
 20
36.024894
 10
12.204041
 20
36.084339
 42
0.020302
 10
12.388628
 20
36.122655
 42
0.006252
 10
12.663551
 20
36.195134
 42
0.006243
 10
12.969395
 20
36.283995
 42
0.006812
 10
13.26412
 20
36.378037
 42
0.018193
 10
13.582061
 20
36.497303
 42
0.010121
 10
13.960776
 20
36.664387
 42
0.010084
 10
14.337684
 20
36.849209
 42
0.016062
 10
14.651304
 20
37.023895
 42
0.021423
 10
14.983055
 20
37.242748
 42
0.012491
 10
15.362272
 20
37.531617
 42
0.011987
 10
15.751125
 20
37.859099
 42
0.01293
 10
16.1139
 20
38.1969
 42
0.009929
 10
16.440152
 20
38.529799
 42
0.007954
 10
16.778443
 20
38.900625
 42
0.008053
 10
17.080435
 20
39.253729
 42
0.02018
 10
17.285866
 20
39.52336
 42
0.003611
 10
17.437458
 20
39.743289
 42
0.005546
 10
17.565212
 20
39.936095
 42
0.002108
 10
17.672086
 20
40.102881
 42
0.142365
 10
17.6814
 20
40.134928
 42
0.232237
 10
17.667687
 20
40.16286
 42
0.003245
 10
17.513919
 20
40.280128
 42
0.008278
 10
17.329796
 20
40.413951
 42
0.005261
 10
17.111253
 20
40.563918
 42
0.00766
 10
16.885443
 20
40.710437
 42
0.010677
 10
16.678715
 20
40.834046
 42
0.007356
 10
16.503403
 20
40.930465
 42
0.12264
  0
LWPOLYLINE
  5
288
330
1D
100
AcDbEntity
  8
0
100
AcDbPolyline
 90
      114
 70
     1
 43
0.0
 10
31.318189
 20
40.944957
 42
0.109387
 10
31.280203
 20
40.935558
 42
0.005274
 10
31.163293
 20
40.876021
 42
0.008396
 10
31.025409
 20
40.800988
 42
0.005935
 10
30.873016
 20
40.712307
 42
0.007606
 10
30.707883
 20
40.610129
 42
0.005919
 10
30.531386
 20
40.494203
 42
0.005988
 10
30.369418
 20
40.38221
 42
0.014421
 10
30.253023
 20
40.294499
 10
30.019713
 20
40.107897
 10
30.290599
 20
39.714179
 42
0.013164
 10
30.431053
 20
39.521122
 42
0.004869
 10
30.638619
 20
39.256435
 42
0.004821
 10
30.870855
 20
38.971825
 42
0.00579
 10
31.094957
 20
38.708782
 10
31.628431
 20
38.097104
 10
31.13253
 20
37.660594
 42
0.012826
 10
30.938685
 20
37.480934
 42
0.01545
 10
30.766357
 20
37.302077
 42
0.014168
 10
30.631376
 20
37.144266
 42
0.093247
 10
30.582355
 20
37.053084
 42
0.134403
 10
30.578144
 20
36.948194
 42
0.069666
 10
30.625446
 20
36.824845
 42
0.043291
 10
30.730908
 20
36.667954
 42
0.013491
 10
30.915041
 20
36.451692
 42
-0.00952
 10
31.063279
 20
36.280365
 42
-0.013402
 10
31.188331
 20
36.121685
 42
-0.009589
 10
31.285378
 20
35.986163
 42
-0.151716
 10
31.302
 20
35.932645
 42
0.602065
 10
31.324072
 20
35.920959
 42
0.022114
 10
31.420043
 20
35.992588
 42
0.01971
 10
31.549579
 20
36.107305
 42
0.009984
 10
31.70385
 20
36.261203
 42
-0.008975
 10
31.880903
 20
36.438542
 42
-0.006843
 10
32.080803
 20
36.626482
 42
-0.006924
 10
32.273035
 20
36.79749
 42
-0.01612
 10
32.422795
 20
36.918831
 10
32.739889
 20
37.159245
 10
33.522595
 20
36.767049
 42
0.014108
 10
33.870822
 20
36.604684
 42
0.009937
 10
34.270755
 20
36.441127
 42
0.010038
 10
34.659879
 20
36.299853
 42
0.020695
 10
34.970405
 20
36.20827
 42
0.015339
 10
35.280635
 20
36.140608
 42
0.00822
 10
35.667232
 20
36.075192
 42
0.008177
 10
36.064208
 20
36.02134
 42
0.012662
 10
36.408605
 20
35.989165
 42
0.013898
 10
36.750291
 20
35.975477
 42
0.009513
 10
37.138589
 20
35.978111
 42
0.009595
 10
37.512931
 20
35.994966
 42
0.019105
 10
37.808034
 20
36.025288
 42
0.013575
 10
38.052552
 20
36.066694
 42
0.018799
 10
38.268946
 20
36.117929
 42
0.015579
 10
38.441938
 20
36.171676
 42
0.1729
 10
38.497562
 20
36.216181
 42
0.078981
 10
38.52687
 20
36.286295
 42
0.006908
 10
38.569922
 20
36.474839
 42
0.008929
 10
38.614387
 20
36.702589
 42
0.006827
 10
38.655155
 20
36.953136
 42
0.005816
 10
38.688798
 20
37.198947
 42
0.009036
 10
38.711504
 20
37.41172
 42
0.003964
 10
38.726004
 20
37.591871
 42
0.217795
 10
38.714418
 20
37.622982
 42
0.234156
 10
38.685832
 20
37.632626
 42
0.010799
 10
38.581475
 20
37.616187
 42
0.01603
 10
38.45479
 20
37.589198
 42
0.01062
 10
38.31119
 20
37.550505
 42
-0.042467
 10
38.095703
 20
37.506924
 42
-0.010649
 10
37.73835
 20
37.473461
 42
-0.01031
 10
37.309297
 20
37.451365
 42
-0.008081
 10
36.8433
 20
37.444527
 42
-0.006669
 10
36.208318
 20
37.453942
 42
-0.025137
 10
35.811732
 20
37.485108
 42
-0.031811
 10
35.468985
 20
37.551839
 42
-0.015934
 10
35.04555
 20
37.677163
 42
-0.008937
 10
34.778019
 20
37.771044
 42
-0.014132
 10
34.552623
 20
37.86202
 42
-0.008045
 10
34.371146
 20
37.944806
 42
-0.289376
 10
34.3476
 20
37.982084
 42
-0.243527
 10
34.36619
 20
38.017988
 42
-0.022464
 10
34.453218
 20
38.073815
 42
-0.024974
 10
34.569393
 20
38.133636
 42
-0.016873
 10
34.70715
 20
38.190556
 42
-0.003363
 10
34.877773
 20
38.253101
 42
-0.001625
 10
35.097003
 20
38.330992
 42
-0.001611
 10
35.32601
 20
38.410693
 42
-0.002314
 10
35.529408
 20
38.479695
 10
35.992116
 20
38.634284
 10
36.234029
 20
39.303892
 42
0.000891
 10
36.32987
 20
39.570661
 42
0.001117
 10
36.417745
 20
39.81838
 42
0.000894
 10
36.490653
 20
40.026561
 42
0.008754
 10
36.519736
 20
40.115039
 42
0.179644
 10
36.515913
 20
40.183933
 42
0.291938
 10
36.468921
 20
40.215518
 42
0.056752
 10
36.34016
 20
40.203938
 42
0.003956
 10
35.984314
 20
40.127726
 42
0.008347
 10
35.716917
 20
40.063538
 42
0.004472
 10
35.38886
 20
39.975836
 42
0.004451
 10
35.055647
 20
39.880353
 42
0.006944
 10
34.7706
 20
39.791595
 42
0.010192
 10
34.479538
 20
39.6899
 42
0.005548
 10
34.126191
 20
39.553818
 42
0.005525
 10
33.769816
 20
39.407427
 42
0.008727
 10
33.467867
 20
39.273212
 10
32.799634
 20
38.962109
 10
32.347559
 20
39.467565
 42
-0.015936
 10
32.15551
 20
39.696576
 42
-0.010963
 10
31.952081
 20
39.967508
 42
-0.011064
 10
31.767626
 20
40.237131
 42
-0.022046
 10
31.636081
 20
40.459711
 42
0.008867
 10
31.532431
 20
40.646135
 42
0.013701
 10
31.435696
 20
40.803011
 42
0.007968
 10
31.350485
 20
40.928668
 42
0.250986
  0
LWPOLYLINE
  5
2FC
330
1D
100
AcDbEntity
  8
0
100
AcDbPolyline
 90
       36
 70
     1
 43
0.0
 10
10.078621
 20
40.379127
 10
9.624542
 20
40.415871
 10
9.426939
 20
39.983185
 42
0.016387
 10
9.347291
 20
39.792481
 42
0.012148
 10
9.271418
 20
39.577007
 42
0.012308
 10
9.20969
 20
39.369888
 42
0.026919
 10
9.174991
 20
39.208053
 10
9.120644
 20
38.865605
 10
9.995872
 20
38.855998
 42
-0.012373
 10
10.418852
 20
38.840882
 42
-0.01425
 10
10.821012
 20
38.80501
 42
-0.015053
 10
11.198649
 20
38.748875
 42
-0.018336
 10
11.5479
 20
38.672849
 42
-0.009145
 10
11.845937
 20
38.590591
 42
-0.006188
 10
12.182631
 20
38.486453
 42
-0.006236
 10
12.505597
 20
38.377699
 42
-0.012365
 10
12.758286
 20
38.282006
 10
13.291872
 20
38.064704
 10
13.688886
 20
38.281421
 42
0.015201
 10
13.864954
 20
38.384598
 42
0.009282
 10
14.066597
 20
38.516428
 42
0.0093
 10
14.261703
 20
38.654597
 42
0.016272
 10
14.417203
 20
38.777119
 10
14.748506
 20
39.0561
 10
14.17195
 20
39.325903
 42
0.013699
 10
13.89359
 20
39.446982
 42
0.006361
 10
13.52616
 20
39.589567
 42
0.006296
 10
13.136269
 20
39.72962
 42
0.008728
 10
12.783147
 20
39.84461
 42
0.008782
 10
12.41981
 20
39.949007
 42
0.005774
 10
11.998262
 20
40.056952
 42
0.005809
 10
11.58542
 20
40.152534
 42
0.011138
 10
11.2518
 20
40.217949
 42
0.004822
 10
10.943219
 20
40.268287
 42
0.003881
 10
10.61055
 20
40.316625
 42
0.003923
 10
10.302517
 20
40.356484
 42
0.010024
  0
LWPOLYLINE
  5
322
330
1D
100
AcDbEntity
  8
0
100
AcDbPolyline
 90
       42
 70
     1
 43
0.0
 10
38.605376
 20
40.3542
 42
0.008267
 10
38.378473
 20
40.350448
 42
0.12621
 10
38.303751
 20
40.328625
 42
0.337391
 10
38.28492
 20
40.282121
 42
0.056397
 10
38.322895
 20
40.186691
 42
-0.106795
 10
38.354136
 20
40.077477
 42
-0.077025
 10
38.342975
 20
39.950852
 42
-0.045083
 10
38.283816
 20
39.77913
 42
-0.011402
 10
38.156671
 20
39.512304
 42
0.0064
 10
38.05866
 20
39.311805
 42
0.008768
 10
37.975962
 20
39.128761
 42
0.006097
 10
37.911603
 20
38.974221
 42
0.095897
 10
37.9008
 20
38.918413
 42
0.298965
 10
37.923012
 20
38.884584
 42
0.0417
 10
38.006418
 20
38.856442
 42
0.03648
 10
38.122554
 20
38.836609
 42
0.022831
 10
38.26035
 20
38.829637
 42
-0.024634
 10
38.436439
 20
38.82009
 42
-0.009892
 10
38.675815
 20
38.790449
 42
-0.00976
 10
38.932923
 20
38.748297
 42
-0.012172
 10
39.1698
 20
38.698707
 42
0.000819
 10
39.396185
 20
38.645922
 42
0.00083
 10
39.621673
 20
38.59413
 42
0.000807
 10
39.817998
 20
38.549713
 42
0.00341
 10
39.93589
 20
38.524084
 42
0.112872
 10
40.073347
 20
38.526497
 42
0.074382
 10
40.220142
 20
38.586981
 42
0.040462
 10
40.412697
 20
38.724506
 42
0.008793
 10
40.72027
 20
38.993544
 10
41.28846
 20
39.508461
 10
41.01168
 20
39.678192
 42
0.020285
 10
40.873351
 20
39.755481
 42
0.008375
 10
40.680358
 20
39.849235
 42
0.00827
 10
40.469775
 20
39.943005
 42
0.010535
 10
40.272445
 20
40.022122
 42
0.012012
 10
40.065077
 20
40.094597
 42
0.007929
 10
39.823566
 20
40.168339
 42
0.00798
 10
39.586321
 20
40.232604
 42
0.015288
 10
39.393748
 20
40.275261
 42
0.013281
 10
39.2073
 20
40.305515
 42
0.008626
 10
38.990464
 20
40.331012
 42
0.008675
 10
38.777782
 20
40.348586
 42
0.016276
  0
LWPOLYLINE
  5
34E
330
1D
100
AcDbEntity
  8
0
100
AcDbPolyline
 90
       98
 70
     1
 43
0.0
 10
7.390401
 20
40.012429
 42
0.078287
 10
7.346923
 20
40.003493
 42
0.008662
 10
7.252218
 20
39.966072
 42
0.010389
 10
7.140489
 20
39.916926
 42
0.008234
 10
7.0218
 20
39.859352
 42
0.00975
 10
6.884211
 20
39.786386
 42
0.004902
 10
6.713274
 20
39.689213
 42
0.004865
 10
6.538443
 20
39.585257
 42
0.007188
 10
6.3873
 20
39.490381
 42
0.026081
 10
6.224486
 20
39.372398
 42
0.009647
 10
6.007495
 20
39.190176
 42
0.00953
 10
5.777878
 20
38.981827
 42
0.011332
 10
5.569546
 20
38.776308
 42
0.0148
 10
5.367313
 20
38.554798
 42
0.010867
 10
5.155949
 20
38.297975
 42
0.011
 10
4.966398
 20
38.045961
 42
0.023883
 10
4.834691
 20
37.842777
 42
0.022209
 10
4.72168
 20
37.627256
 42
0.009996
 10
4.591821
 20
37.335326
 42
0.009874
 10
4.466716
 20
37.021014
 42
0.013271
 10
4.366687
 20
36.731363
 42
0.015471
 10
4.28113
 20
36.428177
 42
0.009952
 10
4.199907
 20
36.071981
 42
0.010003
 10
4.134285
 20
35.719939
 42
0.01848
 10
4.097332
 20
35.43129
 42
0.019444
 10
4.081899
 20
35.131807
 42
0.010868
 10
4.08523
 20
34.766858
 42
0.010696
 10
4.105004
 20
34.388792
 42
0.014295
 10
4.140068
 20
34.047004
 42
0.017353
 10
4.199098
 20
33.693644
 42
0.008698
 10
4.296866
 20
33.251502
 42
0.008625
 10
4.413992
 20
32.797102
 42
0.012614
 10
4.534
 20
32.4018
 42
0.015144
 10
4.680344
 20
32.001207
 42
0.00879
 10
4.878964
 20
31.528958
 42
0.008781
 10
5.094911
 20
31.062125
 42
0.014618
 10
5.295012
 20
30.677823
 42
0.009872
 10
5.509543
 20
30.310868
 42
0.006556
 10
5.769347
 20
29.89821
 42
0.0066
 10
6.03223
 20
29.504055
 42
0.012781
 10
6.254449
 20
29.197323
 42
0.006962
 10
6.481321
 20
28.908861
 42
0.00422
 10
6.757376
 20
28.573575
 42
0.004227
 10
7.037033
 20
28.245372
 42
0.007426
 10
7.274565
 20
27.97942
 42
0.006406
 10
7.487129
 20
27.754279
 42
0.008094
 10
7.689676
 20
27.551844
 42
0.006604
 10
7.863886
 20
27.387676
 42
0.062863
 10
7.947181
 20
27.328593
 42
0.184155
 10
8.042442
 20
27.316413
 42
0.097738
 10
8.152035
 20
27.36693
 42
0.046291
 10
8.300054
 20
27.496568
 42
0.0093
 10
8.536648
 20
27.75548
 10
8.980845
 20
28.260114
 10
8.36793
 20
28.913907
 42
-0.00814
 10
8.098489
 20
29.210862
 42
-0.005205
 10
7.79472
 20
29.564155
 42
-0.005229
 10
7.504205
 20
29.916653
 42
-0.009721
 10
7.277265
 20
30.209424
 42
-0.013531
 10
7.065916
 20
30.50996
 42
-0.007567
 10
6.824416
 20
30.88615
 42
-0.007545
 10
6.591628
 20
31.274077
 42
-0.012162
 10
6.406536
 20
31.612026
 42
-0.016937
 10
6.237597
 20
31.968216
 42
-0.010859
 10
6.064729
 20
32.392031
 42
-0.01086
 10
5.910477
 20
32.82281
 42
-0.016984
 10
5.798579
 20
33.200314
 42
-0.012737
 10
5.701312
 20
33.61812
 42
-0.016585
 10
5.634835
 20
34.00518
 42
-0.017394
 10
5.596423
 20
34.379943
 42
-0.01684
 10
5.5836
 20
34.760543
 42
-0.015352
 10
5.594112
 20
35.102835
 42
-0.014716
 10
5.625618
 20
35.448727
 42
-0.015296
 10
5.675285
 20
35.775468
 42
-0.022267
 10
5.740568
 20
36.059436
 42
-0.020342
 10
5.821452
 20
36.310923
 42
-0.012575
 10
5.935786
 20
36.599689
 42
-0.012607
 10
6.063327
 20
36.879731
 42
-0.022072
 10
6.184718
 20
37.103681
 42
-0.022994
 10
6.32087
 20
37.30843
 42
-0.015696
 10
6.493158
 20
37.528506
 42
-0.015846
 10
6.673063
 20
37.730639
 42
-0.030543
 10
6.83145
 20
37.878417
 42
0.018282
 10
7.032877
 20
38.057323
 42
0.076725
 10
7.131192
 20
38.185361
 42
0.092343
 10
7.177039
 20
38.324866
 42
0.033351
 10
7.191
 20
38.533944
 42
-0.01671
 10
7.196586
 20
38.701046
 42
-0.008694
 10
7.214133
 20
38.908896
 42
-0.008636
 10
7.239572
 20
39.121878
 42
-0.013023
 10
7.26975
 20
39.306303
 42
-0.006061
 10
7.304098
 20
39.475429
 42
-0.006272
 10
7.34217
 20
39.641754
 42
-0.006075
 10
7.37868
 20
39.784903
 42
-0.026712
 10
7.405702
 20
39.86775
 42
0.040572
 10
7.422421
 20
39.924275
 42
0.078123
 10
7.424802
 20
39.97132
 42
0.131886
 10
7.413178
 20
40.001505
 42
0.251984
  0
LWPOLYLINE
  5
3B2
330
1D
100
AcDbEntity
  8
0
100
AcDbPolyline
 90
      120
 70
     1
 43
0.0
 10
10.329385
 20
38.720618
 42
0.011565
 10
10.151296
 20
38.747243
 42
0.178146
 10
10.09186
 20
38.733494
 42
0.292513
 10
10.071595
 20
38.688328
 42
0.02999
 10
10.096849
 20
38.568297
 42
-0.016633
 10
10.124061
 20
38.454174
 42
-0.00344
 10
10.163858
 20
38.251537
 42
-0.003612
 10
10.206775
 20
38.015451
 42
-0.003397
 10
10.247196
 20
37.7739
 42
-0.020217
 10
10.280347
 20
37.495647
 42
-0.010333
 10
10.300559
 20
37.144423
 42
-0.01025
 10
10.306489
 20
36.781104
 42
-0.015157
 10
10.2955
 20
36.4626
 42
-0.018153
 10
10.261503
 20
36.127481
 42
-0.012373
 10
10.199664
 20
35.749455
 42
-0.012351
 10
10.118959
 20
35.373747
 42
-0.017689
 10
10.027538
 20
35.04555
 42
-0.008962
 10
9.937403
 20
34.778016
 42
-0.014197
 10
9.849648
 20
34.552623
 42
-0.008089
 10
9.769508
 20
34.371151
 42
-0.29264
 10
9.732715
 20
34.3476
 42
-0.271896
 10
9.695046
 20
34.369719
 42
-0.010028
 10
9.614394
 20
34.521355
 42
-0.015794
 10
9.525111
 20
34.712399
 42
-0.01015
 10
9.433165
 20
34.939106
 42
-0.003511
 10
9.342083
 20
35.18258
 42
-0.003612
 10
9.255307
 20
35.425009
 42
-0.003495
 10
9.183064
 20
35.636254
 42
-0.015302
 10
9.14509
 20
35.76262
 42
0.067117
 10
9.097031
 20
35.877777
 42
0.079758
 10
9.022254
 20
35.968643
 42
0.065917
 10
8.910834
 20
36.043471
 42
0.030858
 10
8.750371
 20
36.110948
 42
-0.002861
 10
8.591322
 20
36.167583
 42
-0.001303
 10
8.38406
 20
36.243337
 42
-0.00129
 10
8.166036
 20
36.324309
 42
-0.001775
 10
7.97051
 20
36.398293
 42
0.009312
 10
7.796447
 20
36.461173
 42
0.014445
 10
7.643839
 20
36.508238
 42
0.008645
 10
7.516985
 20
36.541031
 42
0.260964
 10
7.486409
 20
36.532409
 42
0.252081
 10
7.476363
 20
36.498931
 42
0.002281
 10
7.5319
 20
36.234358
 42
0.007044
 10
7.602381
 20
35.927201
 42
0.004407
 10
7.693105
 20
35.569599
 42
0.005363
 10
7.799682
 20
35.181486
 42
0.004797
 10
7.918461
 20
34.78099
 42
0.004815
 10
8.032066
 20
34.423309
 42
0.014925
 10
8.118189
 20
34.18517
 42
0.006385
 10
8.203981
 20
33.976242
 42
0.003631
 10
8.312804
 20
33.725634
 42
0.003624
 10
8.426081
 20
33.474792
 42
0.005978
 10
8.525864
 20
33.264686
 10
8.752061
 20
32.802732
 10
8.325079
 20
32.411916
 42
-0.01852
 10
8.121011
 20
32.238573
 42
-0.009958
 10
7.85754
 20
32.039434
 42
-0.009903
 10
7.580494
 20
31.846832
 42
-0.015306
 10
7.333049
 20
31.692699
 42
0.007462
 10
7.116481
 20
31.56247
 42
0.011571
 10
6.933983
 20
31.443044
 42
0.005958
 10
6.785526
 20
31.338282
 42
0.240577
 10
6.768
 20
31.303965
 42
0.131649
 10
6.778864
 20
31.26342
 42
0.003511
 10
6.873467
 20
31.102182
 42
0.007108
 10
6.989456
 20
30.91378
 42
0.004779
 10
7.127038
 20
30.701766
 42
0.000607
 10
7.268698
 20
30.488533
 42
0.000822
 10
7.397276
 20
30.296187
 42
0.00055
 10
7.505663
 20
30.135006
 42
0.009093
 10
7.542818
 20
30.081989
 42
0.223912
 10
7.580397
 20
30.061422
 42
0.072546
 10
7.645197
 20
30.066919
 42
0.054333
 10
7.726855
 20
30.095622
 42
0.033377
 10
7.815767
 20
30.145743
 42
0.020635
 10
7.941839
 20
30.235996
 42
0.002852
 10
8.194811
 20
30.435703
 42
0.003266
 10
8.49165
 20
30.675995
 42
0.002761
 10
8.802517
 20
30.933906
 10
9.573059
 20
31.580404
 10
10.16139
 20
30.997052
 42
0.010147
 10
10.407958
 20
30.7623
 42
0.022833
 10
10.606229
 20
30.597018
 42
0.023144
 10
10.757319
 20
30.492994
 42
0.404632
 10
10.810411
 20
30.504438
 42
-0.059571
 10
10.856196
 20
30.557866
 42
-0.004736
 10
10.994797
 20
30.682857
 42
-0.006366
 10
11.163934
 20
30.82871
 42
-0.004836
 10
11.352884
 20
30.984405
 10
11.834668
 20
31.373636
 10
11.542031
 20
31.596841
 42
-0.029637
 10
11.40558
 20
31.714329
 42
-0.011987
 10
11.233376
 20
31.889552
 42
-0.011811
 10
11.05658
 20
32.08746
 42
-0.0147
 10
10.902225
 20
32.279869
 10
10.555055
 20
32.739692
 10
10.947301
 20
33.522496
 42
0.014181
 10
11.11001
 20
33.871593
 42
0.009868
 10
11.274572
 20
34.274161
 42
0.009963
 10
11.417259
 20
34.667012
 42
0.02023
 10
11.510604
 20
34.9821
 42
0.016308
 10
11.579775
 20
35.298934
 42
0.008599
 10
11.645977
 20
35.696177
 42
0.008546
 10
11.699856
 20
36.105599
 42
0.013037
 10
11.731239
 20
36.4626
 42
0.013277
 10
11.743531
 20
36.813092
 42
0.00974
 10
11.73926
 20
37.202085
 42
0.009856
 10
11.720768
 20
37.570388
 42
0.021478
 10
11.688927
 20
37.851394
 42
0.014267
 10
11.646291
 20
38.080094
 42
0.019465
 10
11.594063
 20
38.283138
 42
0.01662
 10
11.539674
 20
38.445126
 42
0.166528
 10
11.495022
 20
38.499538
 42
0.067806
 10
11.432749
 20
38.527211
 42
0.012019
 10
11.309042
 20
38.559951
 42
0.012812
 10
11.161124
 20
38.591334
 42
0.011229
 10
11.005154
 20
38.616663
 42
-0.002049
 10
10.83562
 20
38.641009
 42
-0.001477
 10
10.646657
 20
38.669507
 42
-0.001491
 10
10.467123
 20
38.697673
 42
-0.003234
  0
LWPOLYLINE
  5
42C
330
1D
100
AcDbEntity
  8
0
100
AcDbPolyline
 90
       38
 70
     1
 43
0.0
 10
39.203485
 20
38.53159
 10
38.856471
 20
38.588237
 10
38.851555
 20
37.758068
 42
-0.012399
 10
38.840447
 20
37.396566
 42
-0.009089
 10
38.810901
 20
36.996368
 42
-0.009195
 10
38.769043
 20
36.618266
 42
-0.020066
 10
38.720062
 20
36.330814
 42
-0.014279
 10
38.653211
 20
36.054592
 42
-0.007453
 10
38.555025
 20
35.714319
 42
-0.007406
 10
38.443828
 20
35.367945
 42
-0.011233
 10
38.33598
 20
35.070569
 42
0.00621
 10
38.181235
 20
34.656899
 42
0.052881
 10
38.134217
 20
34.464666
 42
0.100876
 10
38.143984
 20
34.318801
 42
0.049907
 10
38.210984
 20
34.144855
 42
0.021659
 10
38.284697
 20
34.013291
 42
0.007008
 10
38.404812
 20
33.825081
 42
0.006972
 10
38.544379
 20
33.619311
 42
0.007777
 10
38.684747
 20
33.424958
 10
39.026001
 20
32.967616
 10
39.221045
 20
33.340358
 42
0.011626
 10
39.310721
 20
33.521889
 42
0.005165
 10
39.420887
 20
33.76514
 42
0.005109
 10
39.532284
 20
34.025197
 42
0.006877
 10
39.627469
 20
34.263
 42
0.013144
 10
39.724093
 20
34.535547
 42
0.0053
 10
39.842214
 20
34.912305
 42
0.00524
 10
39.960895
 20
35.320826
 42
0.006618
 10
40.061682
 20
35.7012
 42
0.012659
 10
40.15043
 20
36.09721
 42
0.008488
 10
40.232674
 20
36.553921
 42
0.008551
 10
40.297293
 20
36.999268
 42
0.016661
 10
40.33087
 20
37.356679
 10
40.377225
 20
38.123859
 10
39.963863
 20
38.299401
 42
0.015423
 10
39.780262
 20
38.37077
 42
0.010884
 10
39.56999
 20
38.440017
 42
0.010998
 10
39.365859
 20
38.497474
 42
0.022644
  0
LWPOLYLINE
  5
454
330
1D
100
AcDbEntity
  8
0
100
AcDbPolyline
 90
       40
 70
     1
 43
0.0
 10
7.6986
 20
38.201998
 42
0.126611
 10
7.632775
 20
38.203966
 42
0.036358
 10
7.534423
 20
38.174114
 42
0.034073
 10
7.424383
 20
38.122914
 42
0.030441
 10
7.3179
 20
38.055489
 42
0.011269
 10
7.201018
 20
37.967026
 42
0.005729
 10
7.057887
 20
37.850839
 42
0.005688
 10
6.912908
 20
37.727555
 42
0.008469
 10
6.78915
 20
37.616128
 42
0.010479
 10
6.683817
 20
37.513803
 42
0.014915
 10
6.594967
 20
37.418256
 42
0.010837
 10
6.526134
 20
37.336135
 42
0.170608
 10
6.5142
 20
37.302179
 42
0.267872
 10
6.532879
 20
37.269815
 42
0.003482
 10
6.744074
 20
37.149754
 42
0.008917
 10
6.99677
 20
37.014278
 42
0.005597
 10
7.29675
 20
36.864494
 42
0.002895
 10
7.614962
 20
36.712302
 42
0.003216
 10
7.92398
 20
36.569122
 42
0.002977
 10
8.189023
 20
36.450281
 42
0.016727
 10
8.3331
 20
36.392384
 42
0.013037
 10
8.465274
 20
36.348204
 42
0.004107
 10
8.665041
 20
36.288963
 42
0.004099
 10
8.889085
 20
36.226503
 42
0.004535
 10
9.106712
 20
36.169864
 42
0.010473
 10
9.324996
 20
36.119997
 42
0.009676
 10
9.551008
 20
36.077865
 42
0.009714
 10
9.753712
 20
36.048157
 42
0.031534
 10
9.889262
 20
36.0396
 10
10.152
 20
36.0396
 10
10.152
 20
36.746916
 10
10.152
 20
37.454232
 10
9.726772
 20
37.504594
 42
-0.033366
 10
9.513504
 20
37.544415
 42
-0.011327
 10
9.209661
 20
37.629801
 42
-0.011207
 10
8.877268
 20
37.739592
 42
-0.01266
 10
8.563522
 20
37.860111
 42
0.001682
 10
8.271596
 20
37.979667
 42
0.002228
 10
8.005017
 20
38.086417
 42
0.001589
 10
7.780901
 20
38.174183
 42
0.022082
  0
LWPOLYLINE
  5
47E
330
1D
100
AcDbEntity
  8
0
100
AcDbPolyline
 90
       78
 70
     1
 43
0.0
 10
16.195042
 20
37.983285
 42
0.145918
 10
16.148561
 20
37.968054
 42
0.010993
 10
16.040025
 20
37.889181
 42
0.014443
 10
15.91326
 20
37.786818
 42
0.010462
 10
15.7779
 20
37.6659
 42
-0.007363
 10
15.634177
 20
37.535902
 42
-0.006705
 10
15.482181
 20
37.406004
 42
-0.006723
 10
15.343187
 20
37.293534
 42
-0.021492
 10
15.246397
 20
37.223866
 10
15.053294
 20
37.0971
 10
15.551094
 20
36.6741
 42
-0.017143
 10
15.774619
 20
36.470565
 42
-0.009207
 10
16.036822
 20
36.205236
 42
-0.009158
 10
16.294557
 20
35.924521
 42
-0.014171
 10
16.505597
 20
35.671969
 42
-0.008012
 10
16.698228
 20
35.419482
 42
-0.006268
 10
16.899421
 20
35.139542
 42
-0.006342
 10
17.080157
 20
34.874194
 42
-0.015382
 10
17.204947
 20
34.672699
 42
-0.017032
 10
17.312211
 20
34.471444
 42
-0.00847
 10
17.434983
 20
34.209764
 42
-0.008397
 10
17.553171
 20
33.934034
 42
-0.01221
 10
17.647312
 20
33.68673
 42
-0.018157
 10
17.723915
 20
33.441704
 42
-0.014596
 10
17.788888
 20
33.173301
 42
-0.014844
 10
17.834349
 20
32.921511
 42
-0.0361
 10
17.848816
 20
32.733457
 10
17.8506
 20
32.346014
 10
17.385339
 20
32.430346
 42
0.014503
 10
17.202491
 20
32.458038
 42
0.02041
 10
17.038098
 20
32.471298
 42
0.017181
 10
16.904593
 20
32.472008
 42
0.191076
 10
16.856589
 20
32.451335
 42
0.166717
 10
16.831446
 20
32.400093
 42
0.008994
 10
16.81175
 20
32.218051
 42
0.013239
 10
16.797714
 20
31.996641
 42
0.009208
 10
16.7931
 20
31.746124
 10
16.7931
 20
31.104255
 10
17.3853
 20
30.957259
 42
-0.008968
 10
17.645965
 20
30.887572
 42
-0.006091
 10
17.9402
 20
30.799334
 42
-0.006138
 10
18.222274
 20
30.707167
 42
-0.012231
 10
18.442721
 20
30.626061
 42
-0.019103
 10
18.656633
 20
30.53176
 42
-0.009772
 10
18.917819
 20
30.398115
 42
-0.009696
 10
19.181894
 20
30.249747
 42
-0.014373
 10
19.406786
 20
30.108743
 42
0.010997
 10
19.601666
 20
29.984716
 42
0.017544
 10
19.774
 20
29.888387
 42
0.011778
 10
19.916808
 20
29.819216
 42
0.312874
 10
19.956372
 20
29.826372
 42
0.174829
 10
19.977555
 20
29.871457
 42
0.003122
 10
20.001083
 20
30.141719
 42
0.007397
 10
20.022074
 20
30.460287
 42
0.004818
 10
20.037321
 20
30.828636
 42
0.009094
 10
20.043694
 20
31.299107
 42
0.016619
 10
20.02916
 20
31.682638
 42
0.01985
 10
19.992652
 20
32.010755
 42
0.025078
 10
19.931804
 20
32.309932
 42
0.012223
 10
19.861579
 20
32.558598
 42
0.005943
 10
19.760393
 20
32.872781
 42
0.005891
 10
19.647274
 20
33.197474
 42
0.008462
 10
19.538867
 20
33.482073
 42
0.014484
 10
19.410266
 20
33.778093
 42
0.007494
 10
19.233417
 20
34.140685
 42
0.007444
 10
19.040361
 20
34.508217
 42
0.011207
 10
18.860234
 20
34.822114
 42
0.008873
 10
18.664098
 20
35.134178
 42
0.005374
 10
18.421494
 20
35.496814
 42
0.005383
 10
18.172849
 20
35.851715
 42
0.009432
 10
17.958429
 20
36.139246
 42
0.009849
 10
17.731194
 20
36.420639
 42
0.005391
 10
17.44228
 20
36.756907
 42
0.00537
 10
17.14139
 20
37.092236
 42
0.008527
 10
16.875912
 20
37.37205
 42
0.006264
 10
16.639457
 20
37.606952
 42
0.009504
 10
16.427529
 20
37.804607
 42
0.004744
 10
16.244837
 20
37.96551
 42
0.186995
  0
LWPOLYLINE
  5
4CE
330
1D
100
AcDbEntity
  8
0
100
AcDbPolyline
 90
       38
 70
     1
 43
0.0
 10
26.038514
 20
37.428885
 42
0.066522
 10
25.907963
 20
37.439919
 42
0.104664
 10
25.799544
 20
37.411413
 42
0.072784
 10
25.686194
 20
37.332026
 42
0.019252
 10
25.530914
 20
37.173801
 42
-0.025002
 10
25.401439
 20
37.044869
 42
-0.016741
 10
25.241516
 20
36.910215
 42
-0.01688
 10
25.077372
 20
36.789884
 42
-0.031608
 10
24.93585
 20
36.705889
 10
24.6186
 20
36.543761
 10
24.6186
 20
31.466417
 10
24.6186
 20
26.389073
 10
25.44345
 20
26.413286
 10
26.2683
 20
26.4375
 10
26.315556
 20
30.7521
 42
-0.001492
 10
26.341343
 20
32.602296
 42
-0.003314
 10
26.374541
 20
34.011698
 42
-0.001848
 10
26.411818
 20
35.111688
 42
-0.065962
 10
26.454743
 20
35.3628
 42
-0.004617
 10
26.499052
 20
35.500995
 42
-0.002357
 10
26.557108
 20
35.673742
 42
-0.002341
 10
26.618624
 20
35.851244
 42
-0.003513
 10
26.674125
 20
36.005527
 42
-0.010064
 10
26.736101
 20
36.164152
 42
-0.005524
 10
26.818015
 20
36.355941
 42
-0.005504
 10
26.905485
 20
36.54885
 42
-0.008759
 10
26.984989
 20
36.711675
 42
0.007987
 10
27.053352
 20
36.851136
 42
0.01287
 10
27.106579
 20
36.972254
 42
0.006594
 10
27.146585
 20
37.073849
 42
0.318861
 10
27.141352
 20
37.093892
 42
0.090724
 10
27.11917
 20
37.106508
 42
0.001868
 10
26.99799
 20
37.148343
 42
0.004316
 10
26.855358
 20
37.195619
 42
0.002883
 10
26.6913
 20
37.247386
 42
0.003819
 10
26.512501
 20
37.301181
 42
0.003357
 10
26.325057
 20
37.354656
 42
0.003374
 10
26.155261
 20
37.400633
 42
0.010132
  0
LWPOLYLINE
  5
4F6
330
1D
100
AcDbEntity
  8
0
100
AcDbPolyline
 90
       82
 70
     1
 43
0.0
 10
42.911177
 20
37.46791
 42
0.015519
 10
42.828113
 20
37.459682
 42
0.002877
 10
42.67597
 20
37.438937
 42
0.003083
 10
42.498293
 20
37.412549
 42
0.002808
 10
42.315321
 20
37.383167
 42
0.011655
 10
42.131055
 20
37.348083
 42
0.011819
 10
41.949487
 20
37.304594
 42
0.011673
 10
41.793501
 20
37.259389
 42
0.046528
 10
41.701813
 20
37.220796
 42
0.048556
 10
41.608176
 20
37.158313
 42
0.228916
 10
41.581685
 20
37.101343
 42
0.107244
 10
41.601023
 20
37.018193
 42
0.007393
 10
41.708045
 20
36.800519
 42
-0.021254
 10
41.782123
 20
36.638673
 42
-0.009857
 10
41.865097
 20
36.422847
 42
-0.009744
 10
41.94348
 20
36.192379
 42
-0.013385
 10
42.004303
 20
35.982106
 42
-0.026362
 10
42.052842
 20
35.745204
 42
-0.011521
 10
42.093274
 20
35.426885
 42
-0.011364
 10
42.120789
 20
35.086137
 42
-0.014895
 10
42.12955
 20
34.773976
 42
-0.014651
 10
42.119717
 20
34.457198
 42
-0.01034
 10
42.090895
 20
34.102194
 42
-0.010447
 10
42.049185
 20
33.763642
 42
-0.02156
 10
41.999715
 20
33.5016
 42
-0.008791
 10
41.938014
 20
33.257196
 42
-0.00569
 10
41.858453
 20
32.976551
 42
-0.00572
 10
41.774437
 20
32.704046
 42
-0.01077
 10
41.69939
 20
32.4864
 42
-0.014415
 10
41.609751
 20
32.263536
 42
-0.006201
 10
41.478012
 20
31.971397
 42
-0.00613
 10
41.329959
 20
31.663573
 42
-0.008059
 10
41.18693
 20
31.3866
 42
-0.009131
 10
41.029317
 20
31.105526
 42
-0.005836
 10
40.836442
 20
30.784484
 42
-0.005863
 10
40.63999
 20
30.474172
 42
-0.010878
 10
40.472237
 20
30.227843
 42
-0.014808
 10
40.281914
 20
29.977088
 42
-0.006086
 10
40.009834
 20
29.648113
 42
-0.006015
 10
39.709084
 20
29.301886
 42
-0.007678
 10
39.423253
 20
28.990484
 10
38.748243
 20
28.277383
 10
38.930912
 20
28.034242
 42
0.009593
 10
39.018775
 20
27.921849
 42
0.004838
 10
39.133629
 20
27.783359
 42
0.004803
 10
39.255104
 20
27.642504
 42
0.007114
 10
39.364497
 20
27.521608
 42
0.012498
 10
39.526716
 20
27.355883
 42
0.124803
 10
39.610144
 20
27.307808
 42
0.182272
 10
39.692367
 20
27.314908
 42
0.033342
 10
39.827678
 20
27.391198
 42
0.04711
 10
39.947563
 20
27.486997
 42
0.006002
 10
40.182495
 20
27.719567
 42
0.006987
 10
40.454856
 20
28.003571
 42
0.005763
 10
40.737488
 20
28.313743
 42
0.009959
 10
41.040284
 20
28.66779
 42
0.006612
 10
41.374031
 20
29.085275
 42
0.006656
 10
41.687444
 20
29.499392
 42
0.012885
 10
41.924916
 20
29.840053
 42
0.011053
 10
42.138764
 20
30.180466
 42
0.006721
 10
42.377115
 20
30.591635
 42
0.006733
 10
42.602638
 20
31.005983
 42
0.01181
 10
42.77639
 20
31.355483
 42
0.014907
 10
42.931569
 20
31.714552
 42
0.008391
 10
43.099453
 20
32.158773
 42
0.008368
 10
43.254015
 20
32.613246
 42
0.013542
 10
43.368418
 20
33.005183
 42
0.011799
 10
43.484463
 20
33.493481
 42
0.020903
 10
43.553623
 20
33.901447
 42
0.020221
 10
43.589822
 20
34.322833
 42
0.010249
 10
43.603005
 20
34.8552
 42
0.009524
 10
43.595907
 20
35.335163
 42
0.015834
 10
43.56943
 20
35.738819
 42
0.018291
 10
43.521814
 20
36.092728
 42
0.022093
 10
43.450453
 20
36.4203
 42
0.007961
 10
43.381774
 20
36.664087
 42
0.007834
 10
43.305019
 20
36.906882
 42
0.007742
 10
43.23115
 20
37.117488
 42
0.029449
 10
43.175405
 20
37.24515
 42
0.04766
 10
43.119277
 20
37.333526
 42
0.052363
 10
43.048979
 20
37.406647
 42
0.058997
 10
42.975698
 20
37.45493
 42
0.133899
  0
LWPOLYLINE
  5
54A
330
1D
100
AcDbEntity
  8
0
100
AcDbPolyline
 90
       32
 70
     1
 43
0.0
 10
21.662922
 20
37.386521
 42
0.030302
 10
21.520414
 20
37.374703
 42
0.014243
 10
21.338212
 20
37.343087
 42
0.014055
 10
21.148597
 20
37.299009
 42
0.019199
 10
20.9808
 20
37.248039
 42
0.002844
 10
20.832974
 20
37.195916
 42
0.004213
 10
20.704047
 20
37.148401
 42
0.001945
 10
20.594866
 20
37.106628
 42
0.08121
 10
20.573262
 20
37.09393
 42
0.324594
 10
20.568134
 20
37.073815
 42
0.004896
 10
20.616489
 20
36.955469
 42
0.011031
 10
20.678885
 20
36.815648
 42
0.006805
 10
20.758104
 20
36.653895
 42
-0.01129
 10
20.853203
 20
36.455225
 42
-0.005616
 10
20.965136
 20
36.199534
 42
-0.005571
 10
21.075234
 20
35.931888
 42
-0.008153
 10
21.165642
 20
35.693733
 10
21.3615
 20
35.1513
 10
21.4038
 20
29.2293
 10
21.4461
 20
23.3073
 10
22.27095
 20
23.283086
 10
23.0958
 20
23.258873
 10
23.0958
 20
29.901317
 10
23.0958
 20
36.543761
 10
22.77855
 20
36.706933
 42
-0.026503
 10
22.639036
 20
36.788309
 42
-0.015738
 10
22.481502
 20
36.899002
 42
-0.015728
 10
22.330936
 20
37.019626
 42
-0.026039
 10
22.212822
 20
37.131652
 42
0.030425
 10
22.075963
 20
37.259197
 42
0.063923
 10
21.953149
 20
37.336483
 42
0.070199
 10
21.822526
 20
37.37601
 42
0.043986
  0
LWPOLYLINE
  5
56C
330
1D
100
AcDbEntity
  8
0
100
AcDbPolyline
 90
       62
 70
     1
 43
0.0
 10
36.729668
 20
35.820057
 10
36.023837
 20
35.875674
 10
36.082104
 20
35.513487
 42
0.019969
 10
36.118909
 20
35.331401
 42
0.006882
 10
36.186192
 20
35.071308
 42
0.006825
 10
36.268323
 20
34.786281
 42
0.007861
 10
36.354622
 20
34.5168
 42
0.006757
 10
36.449077
 20
34.249066
 42
0.005761
 10
36.555732
 20
33.969279
 42
0.005812
 10
36.658656
 20
33.716983
 42
0.016358
 10
36.738387
 20
33.5439
 42
0.017413
 10
36.831592
 20
33.37297
 42
0.005562
 10
36.981767
 20
33.125348
 42
0.005543
 10
37.15527
 20
32.853085
 42
0.006161
 10
37.328871
 20
32.594242
 42
0.017958
 10
37.533706
 20
32.318557
 42
0.009641
 10
37.804874
 20
31.9928
 42
0.009588
 10
38.094564
 20
31.67082
 42
0.014814
 10
38.358157
 20
31.405142
 42
0.009454
 10
38.632238
 20
31.154477
 42
0.006383
 10
38.95379
 20
30.87858
 42
0.006432
 10
39.271638
 20
30.619703
 42
0.012714
 10
39.53161
 20
30.424028
 42
0.011798
 10
39.754034
 20
30.2731
 42
0.01801
 10
39.954468
 20
30.153884
 42
0.012864
 10
40.121963
 20
30.06778
 42
0.256057
 10
40.177534
 20
30.070686
 42
0.090176
 10
40.223871
 20
30.112442
 42
0.005599
 10
40.335652
 20
30.260619
 42
0.008143
 10
40.464691
 20
30.441824
 42
0.005941
 10
40.602361
 20
30.647152
 42
0.008788
 10
40.734136
 20
30.856784
 42
0.011879
 10
40.845339
 20
31.05107
 42
0.008971
 10
40.930699
 20
31.215775
 42
0.115563
 10
40.9464
 20
31.282799
 42
0.117973
 10
40.935447
 20
31.328577
 42
0.066542
 10
40.90291
 20
31.37587
 42
0.060576
 10
40.854961
 20
31.417444
 42
0.060207
 10
40.79835
 20
31.446416
 42
-0.036295
 10
40.712187
 20
31.485444
 42
-0.004954
 10
40.539382
 20
31.581601
 42
-0.005677
 10
40.336764
 20
31.700058
 42
-0.004767
 10
40.124657
 20
31.830082
 42
-0.025866
 10
39.882037
 20
32.000082
 42
-0.011801
 10
39.582607
 20
32.245459
 42
-0.01165
 10
39.27858
 20
32.519408
 42
-0.015718
 10
39.017516
 20
32.781906
 42
-0.016739
 10
38.741665
 20
33.09785
 42
-0.01785
 10
38.493688
 20
33.425011
 42
-0.018219
 10
38.27439
 20
33.762336
 42
-0.019245
 10
38.084461
 20
34.108735
 42
-0.010792
 10
37.942399
 20
34.409349
 42
-0.009362
 10
37.806261
 20
34.730308
 42
-0.009459
 10
37.693921
 20
35.025608
 42
-0.027094
 10
37.631069
 20
35.2359
 42
0.00707
 10
37.588646
 20
35.40177
 42
0.0096
 10
37.545379
 20
35.550145
 42
0.006917
 10
37.50532
 20
35.672349
 42
0.099226
 10
37.482366
 20
35.71167
 42
0.171938
 10
37.440897
 20
35.734543
 42
0.00512
 10
37.241929
 20
35.765276
 42
0.009649
 10
37.003542
 20
35.79492
 42
0.006446
  0
LWPOLYLINE
  5
5AC
330
1D
100
AcDbEntity
  8
0
100
AcDbPolyline
 90
       80
 70
     1
 43
0.0
 10
29.632617
 20
35.35413
 10
29.389221
 20
35.641561
 10
29.077885
 20
35.172514
 42
0.011677
 10
28.934899
 20
34.945777
 42
0.005467
 10
28.759969
 20
34.646087
 42
0.005414
 10
28.583317
 20
34.32773
 42
0.007563
 10
28.432813
 20
34.039084
 42
0.010031
 10
28.292158
 20
33.744489
 42
0.007066
 10
28.14541
 20
33.408003
 42
0.007134
 10
28.014129
 20
33.082017
 42
0.014854
 10
27.923075
 20
32.823688
 42
0.015164
 10
27.850443
 20
32.569998
 42
0.008758
 10
27.777743
 20
32.260904
 42
0.008747
 10
27.715591
 20
31.947861
 42
0.014492
 10
27.675479
 20
31.681588
 42
0.018958
 10
27.653
 20
31.410159
 42
0.010772
 10
27.645363
 20
31.080655
 42
0.010744
 10
27.65197
 20
30.747953
 42
0.017414
 10
27.673495
 20
30.465896
 42
0.00462
 10
27.702723
 20
30.223974
 42
0.007025
 10
27.733007
 20
30.014422
 42
0.003074
 10
27.762314
 20
29.837017
 42
0.155109
 10
27.778335
 20
29.806065
 42
0.312977
 10
27.805518
 20
29.801153
 42
0.012924
 10
27.89932
 20
29.846897
 42
0.018461
 10
28.012779
 20
29.911332
 42
0.011581
 10
28.140731
 20
29.994537
 42
-0.012882
 10
28.300119
 20
30.097594
 42
-0.005861
 10
28.513467
 20
30.224464
 42
-0.005799
 10
28.741613
 20
30.35303
 42
-0.007928
 10
28.950189
 20
30.463135
 42
-0.018825
 10
29.181433
 20
30.569809
 42
-0.009276
 10
29.482635
 20
30.688723
 42
-0.00919
 10
29.800274
 20
30.800757
 42
-0.013238
 10
30.085513
 20
30.887193
 42
-0.018665
 10
30.447811
 20
30.972188
 42
-0.020695
 10
30.803202
 20
31.026527
 42
-0.018203
 10
31.198425
 20
31.055802
 42
-0.009884
 10
31.685519
 20
31.064457
 42
-0.009384
 10
32.2457
 20
31.052822
 42
-0.029813
 10
32.618362
 20
31.015754
 42
-0.030607
 10
32.978802
 20
30.935173
 42
-0.01031
 10
33.493254
 20
30.775041
 10
34.354019
 20
30.487518
 10
34.75266
 20
30.723127
 42
0.008326
 10
34.91924
 20
30.825361
 42
0.007269
 10
35.090115
 20
30.937713
 42
0.007328
 10
35.241621
 20
31.04379
 42
0.021458
 10
35.34165
 20
31.122778
 42
0.021108
 10
35.414527
 20
31.19115
 42
0.02612
 10
35.476085
 20
31.260934
 42
0.026012
 10
35.520547
 20
31.323399
 42
0.142603
 10
35.532
 20
31.362738
 42
0.244014
 10
35.510942
 20
31.403317
 42
0.010936
 10
35.375916
 20
31.494034
 42
0.016276
 10
35.204274
 20
31.596259
 42
0.010704
 10
35.000649
 20
31.703098
 42
0.011309
 10
34.748983
 20
31.821324
 42
0.005736
 10
34.427337
 20
31.959247
 42
0.005695
 10
34.091969
 20
32.094062
 42
0.008463
 10
33.795099
 20
32.203746
 42
0.017809
 10
33.363687
 20
32.337845
 42
0.037214
 10
33.018608
 20
32.404698
 42
0.024658
 10
32.588315
 20
32.433858
 42
0.004206
 10
31.7673
 20
32.442025
 42
0.004193
 10
31.228846
 20
32.438335
 42
0.005283
 10
30.730553
 20
32.425473
 42
0.004251
 10
30.3134
 20
32.406741
 42
0.041551
 10
30.13875
 20
32.382765
 10
29.8638
 20
32.32143
 10
29.8638
 20
32.706955
 42
-0.038564
 10
29.878573
 20
32.898209
 42
-0.014212
 10
29.927747
 20
33.164503
 42
-0.013988
 10
29.99815
 20
33.453445
 42
-0.016345
 10
30.081492
 20
33.72319
 10
30.299185
 20
34.353902
 10
30.087599
 20
34.710301
 42
0.012161
 10
29.988922
 20
34.867666
 42
0.007699
 10
29.866668
 20
35.04644
 42
0.007731
 10
29.741087
 20
35.218441
 42
0.014129
  0
LWPOLYLINE
  5
5FE
330
1D
100
AcDbEntity
  8
0
100
AcDbPolyline
 90
       86
 70
     1
 43
0.0
 10
16.338569
 20
35.532
 42
0.247038
 10
16.291517
 20
35.507242
 42
0.011543
 10
16.189926
 20
35.351828
 42
0.016824
 10
16.075898
 20
35.153698
 42
0.011061
 10
15.957545
 20
34.91865
 42
0.010711
 10
15.832857
 20
34.641615
 42
0.006858
 10
15.699427
 20
34.314954
 42
0.006891
 10
15.577466
 20
33.991219
 42
0.012783
 10
15.488904
 20
33.724814
 42
0.016015
 10
15.41549
 20
33.452515
 42
0.008424
 10
15.340888
 20
33.110029
 42
0.008372
 10
15.276199
 20
32.756314
 42
0.012751
 10
15.233049
 20
32.44708
 42
0.016437
 10
15.205774
 20
32.108032
 42
0.01125
 10
15.196157
 20
31.721904
 42
0.011032
 10
15.203972
 20
31.324437
 42
0.013152
 10
15.229454
 20
30.950427
 42
0.004743
 10
15.262444
 20
30.63379
 42
0.006116
 10
15.299056
 20
30.343662
 42
0.004742
 10
15.334934
 20
30.101769
 42
0.052467
 10
15.360194
 20
30.007411
 42
-0.128545
 10
15.36835
 20
29.934045
 42
-0.26257
 10
15.334021
 20
29.889677
 42
-0.089528
 10
15.238773
 20
29.868362
 42
-0.010394
 10
15.019318
 20
29.8638
 42
-0.037135
 10
14.823478
 20
29.878365
 42
-0.013933
 10
14.552348
 20
29.926676
 42
-0.013714
 10
14.258857
 20
29.995898
 42
-0.016206
 10
13.985696
 20
30.077848
 10
13.34806
 20
30.291895
 10
12.99788
 20
30.083954
 42
0.012547
 10
12.84243
 20
29.986289
 42
0.007709
 10
12.664122
 20
29.863919
 42
0.007728
 10
12.491348
 20
29.737329
 42
0.013672
 10
12.353424
 20
29.626902
 10
12.059148
 20
29.377791
 10
12.658931
 20
28.989793
 42
0.014178
 10
12.942536
 20
28.817534
 42
0.007489
 10
13.303426
 20
28.619202
 42
0.007445
 10
13.679107
 20
28.42712
 42
0.011407
 10
14.010707
 20
28.273056
 42
0.008928
 10
14.339559
 20
28.136236
 42
0.006692
 10
14.706221
 20
27.996954
 42
0.006769
 10
15.054996
 20
27.875104
 42
0.015373
 10
15.322422
 20
27.794768
 42
0.022962
 10
15.644744
 20
27.724324
 42
0.023082
 10
15.971609
 20
27.683884
 42
0.018749
 10
16.355291
 20
27.66874
 42
0.008422
 10
16.859715
 20
27.676252
 42
0.00469
 10
17.238051
 20
27.691815
 42
0.007216
 10
17.565029
 20
27.713074
 42
0.002977
 10
17.842803
 20
27.736829
 42
0.175297
 10
17.888028
 20
27.758028
 42
0.312382
 10
17.895223
 20
27.797603
 42
0.011793
 10
17.826379
 20
27.940377
 42
0.017554
 10
17.730452
 20
28.112686
 42
0.011007
 10
17.606902
 20
28.307536
 42
-0.015312
 10
17.464272
 20
28.536817
 42
-0.009396
 10
17.309732
 20
28.815003
 42
-0.009418
 10
17.167026
 20
29.09632
 42
-0.016557
 10
17.061288
 20
29.334692
 42
-0.012061
 10
16.971732
 20
29.57242
 42
-0.007854
 10
16.87932
 20
29.850868
 42
-0.007899
 10
16.797677
 20
30.125518
 42
-0.014897
 10
16.741971
 20
30.349892
 42
-0.022878
 10
16.701363
 20
30.589602
 42
-0.009422
 10
16.66741
 20
30.917361
 42
-0.009299
 10
16.644118
 20
31.270933
 42
-0.011797
 10
16.636398
 20
31.5981
 42
-0.01208
 10
16.64434
 20
31.926773
 42
-0.009287
 10
16.668334
 20
32.284946
 42
-0.009407
 10
16.703315
 20
32.619185
 42
-0.021979
 10
16.745117
 20
32.8671
 42
-0.013503
 10
16.800671
 20
33.096098
 42
-0.008005
 10
16.878603
 20
33.366083
 42
-0.008007
 10
16.965039
 20
33.63313
 42
-0.013641
 10
17.046866
 20
33.852966
 10
17.239896
 20
34.331233
 10
16.99778
 20
34.741266
 42
0.008138
 10
16.893053
 20
34.912209
 42
0.00721
 10
16.778599
 20
35.086768
 42
0.007258
 10
16.670985
 20
35.240971
 42
0.021877
 10
16.591622
 20
35.34165
 42
0.024646
 10
16.522286
 20
35.414515
 42
0.029011
 10
16.44962
 20
35.476085
 42
0.029956
 10
16.38339
 20
35.519953
 42
0.132042
  0
LWPOLYLINE
  5
656
330
1D
100
AcDbEntity
  8
0
100
AcDbPolyline
 90
       80
 70
     1
 43
0.0
 10
37.146368
 20
32.587494
 42
0.400523
 10
37.110837
 20
32.591469
 42
0.019271
 10
37.010083
 20
32.508477
 42
0.022614
 10
36.88763
 20
32.389072
 42
0.013247
 10
36.751604
 20
32.235935
 42
-0.013904
 10
36.583643
 20
32.047344
 42
-0.006875
 10
36.360575
 20
31.816912
 42
-0.006817
 10
36.122458
 20
31.584043
 42
-0.009904
 10
35.905604
 20
31.385713
 42
-0.015997
 10
35.668339
 20
31.190281
 42
-0.008733
 10
35.365739
 20
30.96519
 42
-0.008695
 10
35.049957
 20
30.746964
 42
-0.013671
 10
34.7706
 20
30.571831
 42
-0.014596
 10
34.488398
 20
30.4164
 42
-0.010457
 10
34.164546
 20
30.258626
 42
-0.010573
 10
33.849521
 20
30.121227
 42
-0.022244
 10
33.598439
 20
30.030809
 42
-0.016192
 10
33.366286
 20
29.966861
 42
-0.013064
 10
33.113275
 20
29.912859
 42
-0.01327
 10
32.876907
 20
29.875291
 42
-0.032782
 10
32.701832
 20
29.8638
 10
32.342887
 20
29.8638
 10
32.423888
 20
30.333955
 42
0.009636
 10
32.451835
 20
30.517203
 42
0.01435
 10
32.468571
 20
30.678527
 42
0.00932
 10
32.476037
 20
30.811625
 42
0.208649
 10
32.462252
 20
30.846748
 42
0.146394
 10
32.427449
 20
30.865521
 42
0.00688
 10
32.29505
 20
30.89101
 42
0.010853
 10
32.134827
 20
30.916001
 42
0.007544
 10
31.952929
 20
30.937553
 42
0.013425
 10
31.759505
 20
30.952281
 42
0.013154
 10
31.564251
 20
30.956741
 42
0.01315
 10
31.392924
 20
30.95164
 42
0.047496
 10
31.285111
 20
30.935237
 42
0.111845
 10
31.174102
 20
30.879034
 42
0.102249
 10
31.093836
 20
30.778873
 42
0.051491
 10
31.024451
 20
30.599394
 42
0.009355
 10
30.936976
 20
30.252902
 42
-0.012639
 10
30.864899
 20
29.975104
 42
-0.008548
 10
30.769378
 20
29.662139
 42
-0.008615
 10
30.666607
 20
29.362646
 42
-0.016959
 10
30.572854
 20
29.129075
 42
-0.015422
 10
30.468416
 20
28.910903
 42
-0.009563
 10
30.333126
 20
28.66114
 42
-0.009591
 10
30.189986
 20
28.419467
 42
-0.017039
 10
30.061654
 20
28.226963
 42
0.010639
 10
29.951882
 20
28.06678
 42
0.017101
 10
29.866017
 20
27.925246
 42
0.011193
 10
29.803491
 20
27.807661
 42
0.323567
 10
29.808621
 20
27.775779
 42
0.148358
 10
29.843725
 20
27.757017
 42
0.004171
 10
30.013927
 20
27.724651
 42
0.008178
 10
30.216916
 20
27.691221
 42
0.005489
 10
30.449897
 20
27.659365
 42
0.018409
 10
30.735597
 20
27.63413
 42
0.013528
 10
31.053472
 20
27.626426
 42
0.013489
 10
31.372684
 20
27.635942
 42
0.017798
 10
31.662513
 20
27.66279
 42
0.01375
 10
31.93692
 20
27.705796
 42
0.00853
 10
32.256545
 20
27.770593
 42
0.008555
 10
32.570087
 20
27.845393
 42
0.015256
 10
32.8248
 20
27.919134
 42
0.015681
 10
33.088923
 20
28.013658
 42
0.006664
 10
33.436828
 20
28.156
 42
0.006586
 10
33.804343
 20
28.317862
 42
0.008581
 10
34.1361
 20
28.476157
 42
0.013515
 10
34.482511
 20
28.660653
 42
0.007388
 10
34.8975
 20
28.904465
 42
0.007358
 10
35.312073
 20
29.164773
 42
0.011621
 10
35.6589
 20
29.401355
 42
0.011511
 10
36.008124
 20
29.664036
 42
0.005963
 10
36.432726
 20
30.007284
 42
0.005925
 10
36.860863
 20
30.370555
 42
0.008956
 10
37.224
 20
30.697748
 10
38.0277
 20
31.448412
 10
37.611668
 20
31.988556
 42
0.00043
 10
37.448699
 20
32.199767
 42
0.00061
 10
37.303373
 20
32.387304
 42
0.00034
 10
37.180255
 20
32.54556
 42
0.008907
  0
LWPOLYLINE
  5
6A8
330
1D
100
AcDbEntity
  8
0
100
AcDbPolyline
 90
       94
 70
     1
 43
0.0
 10
14.99535
 20
32.481268
 42
0.040065
 10
14.950637
 20
32.474016
 42
0.001265
 10
14.771483
 20
32.429526
 42
0.002451
 10
14.560503
 20
32.375465
 42
0.001696
 10
14.322349
 20
32.312331
 42
0.007014
 10
14.056893
 20
32.236987
 42
0.005061
 10
13.762912
 20
32.14582
 42
0.005112
 10
13.485136
 20
32.053443
 42
0.011047
 10
13.273847
 20
31.975508
 42
0.011104
 10
13.077499
 20
31.893031
 42
0.006782
 10
12.849364
 20
31.787451
 42
0.006796
 10
12.626079
 20
31.676657
 42
0.011976
 10
12.445198
 20
31.578277
 42
0.012685
 10
12.262858
 20
31.467119
 42
0.006008
 10
12.033292
 20
31.315117
 42
0.005951
 10
11.796801
 20
31.150262
 42
0.008377
 10
11.5902
 20
30.997264
 42
0.012199
 10
11.379096
 20
30.827049
 42
0.006593
 10
11.127241
 20
30.60786
 42
0.006562
 10
10.876476
 20
30.377752
 42
0.010277
 10
10.66757
 20
30.172675
 42
0.019575
 10
10.425093
 20
29.90441
 42
0.004319
 10
10.031598
 20
29.424879
 42
0.004485
 10
9.58623
 20
28.862214
 42
0.004303
 10
9.14477
 20
28.283881
 42
-0.005971
 10
8.715729
 20
27.72569
 42
-0.007704
 10
8.30784
 20
27.224032
 42
-0.006044
 10
7.955846
 20
26.814647
 42
-0.06529
 10
7.791839
 20
26.671338
 42
-0.039589
 10
7.629534
 20
26.580845
 42
-0.045909
 10
7.462707
 20
26.522258
 42
-0.040186
 10
7.270397
 20
26.490107
 42
-0.021333
 10
7.028928
 20
26.4798
 42
-0.021317
 10
6.781479
 20
26.490354
 42
-0.043437
 10
6.589977
 20
26.523636
 42
-0.048924
 10
6.422182
 20
26.586156
 42
-0.035618
 10
6.249829
 20
26.686134
 42
-0.037063
 10
6.123393
 20
26.786497
 42
-0.025102
 10
5.99455
 20
26.917897
 42
-0.025344
 10
5.882287
 20
27.058236
 42
-0.045271
 10
5.807191
 20
27.185369
 42
-0.032267
 10
5.75393
 20
27.319279
 42
-0.020849
 10
5.709029
 20
27.48005
 42
-0.020961
 10
5.678178
 20
27.641557
 42
-0.036723
 10
5.6682
 20
27.777228
 42
-0.02484
 10
5.674754
 20
27.909068
 42
-0.016778
 10
5.694707
 20
28.058325
 42
-0.016928
 10
5.72381
 20
28.201676
 42
-0.032017
 10
5.758435
 20
28.314343
 42
-0.030679
 10
5.805686
 20
28.419159
 42
-0.018379
 10
5.873779
 20
28.537643
 42
-0.018368
 10
5.950516
 20
28.650999
 42
-0.030236
 10
6.024382
 20
28.740082
 10
6.200092
 20
28.927663
 10
5.732616
 20
29.628382
 42
-0.00393
 10
5.543449
 20
29.916817
 42
-0.004106
 10
5.361617
 20
30.204031
 42
-0.003948
 10
5.208537
 20
30.454673
 42
-0.01805
 10
5.126097
 20
30.60405
 42
0.040491
 10
5.025092
 20
30.769114
 42
0.146048
 10
4.928023
 20
30.84301
 42
0.082535
 10
4.776564
 20
30.873072
 42
0.007809
 10
4.397027
 20
30.879
 10
3.807
 20
30.879
 10
3.807
 20
27.7488
 10
3.807
 20
24.6186
 10
6.92444
 20
24.6186
 10
10.041881
 20
24.6186
 10
10.095007
 20
25.40115
 42
-0.013391
 10
10.127384
 20
25.742494
 42
-0.009634
 10
10.18104
 20
26.121556
 42
-0.009741
 10
10.246114
 20
26.480461
 42
-0.020677
 10
10.313281
 20
26.754697
 42
-0.017913
 10
10.399567
 20
27.017389
 42
-0.009372
 10
10.524692
 20
27.338151
 42
-0.00931
 10
10.665465
 20
27.662668
 42
-0.014078
 10
10.80107
 20
27.939097
 42
-0.02504
 10
10.993127
 20
28.263686
 42
-0.020579
 10
11.22893
 20
28.590163
 42
-0.017902
 10
11.522785
 20
28.937299
 42
-0.011015
 10
11.891838
 20
29.325363
 42
-0.009792
 10
12.323046
 20
29.742563
 42
-0.026006
 10
12.651554
 20
30.017751
 42
-0.030365
 10
12.976006
 20
30.232458
 42
-0.018275
 10
13.383946
 20
30.448654
 42
-0.012551
 10
13.695978
 20
30.590133
 42
-0.010387
 10
14.034918
 20
30.725437
 42
-0.010527
 10
14.351002
 20
30.836533
 42
-0.027552
 10
14.583365
 20
30.898805
 10
15.0588
 20
30.998529
 10
15.0588
 20
31.742464
 42
0.008002
 10
15.05424
 20
32.027358
 42
0.013417
 10
15.040162
 20
32.266361
 42
0.007062
 10
15.020733
 20
32.4604
 42
0.404519
  0
LWPOLYLINE
  5
708
330
1D
100
AcDbEntity
  8
0
100
AcDbPolyline
 90
       76
 70
     1
 43
0.0
 10
43.324842
 20
30.879
 10
42.742283
 20
30.879
 10
42.394565
 20
30.293704
 42
-0.006816
 10
42.240263
 20
30.041858
 42
-0.005123
 10
42.063936
 20
29.768913
 42
-0.00518
 10
41.892753
 20
29.515541
 42
-0.011859
 10
41.757304
 20
29.329086
 10
41.467762
 20
28.949765
 10
41.669926
 20
28.759842
 42
-0.042031
 10
41.754409
 20
28.66593
 42
-0.023682
 10
41.841176
 20
28.539437
 42
-0.023495
 10
41.917188
 20
28.40255
 42
-0.035299
 10
41.969017
 20
28.276228
 42
-0.038164
 10
42.003289
 20
28.13767
 42
-0.020275
 10
42.025454
 20
27.962194
 42
-0.020064
 10
42.033655
 20
27.78
 42
-0.029283
 10
42.025035
 20
27.619595
 42
-0.035441
 10
41.995749
 20
27.461437
 42
-0.023886
 10
41.941173
 20
27.28607
 42
-0.024106
 10
41.871694
 20
27.120667
 42
-0.043251
 10
41.796993
 20
26.993851
 42
-0.033219
 10
41.706953
 20
26.88368
 42
-0.022306
 10
41.590696
 20
26.769909
 42
-0.022503
 10
41.467686
 20
26.669417
 42
-0.040707
 10
41.357485
 20
26.600539
 42
-0.047167
 10
41.232687
 20
26.55026
 42
-0.021781
 10
41.062743
 20
26.50774
 42
-0.021348
 10
40.878842
 20
26.478266
 42
-0.027719
 10
40.708505
 20
26.467895
 42
-0.018361
 10
40.54091
 20
26.473149
 42
-0.015755
 10
40.365313
 20
26.490689
 42
-0.01604
 10
40.206789
 20
26.516784
 42
-0.043141
 10
40.097126
 20
26.54849
 42
-0.058706
 10
39.994096
 20
26.602779
 42
-0.019274
 10
39.856432
 20
26.705442
 42
-0.018901
 10
39.711115
 20
26.832154
 42
-0.020296
 10
39.579337
 20
26.966621
 42
-0.011892
 10
39.42958
 20
27.140525
 42
-0.004063
 10
39.220506
 20
27.399588
 42
-0.004037
 10
38.994273
 20
27.689396
 42
-0.00465
 10
38.783296
 20
27.969561
 42
0.000538
 10
38.561826
 20
28.26875
 42
0.00034
 10
38.302887
 20
28.617275
 42
0.000341
 10
38.047997
 20
28.959376
 42
0.00063
 10
37.840195
 20
29.23715
 42
0.005704
 10
37.653068
 20
29.480792
 42
0.005949
 10
37.462997
 20
29.716675
 42
0.00574
 10
37.294014
 20
29.916635
 42
0.02588
 10
37.188139
 20
30.026951
 10
36.986158
 20
30.216702
 10
36.437416
 20
29.767569
 10
35.888674
 20
29.318435
 10
36.250483
 20
28.916017
 42
-0.028381
 10
36.413425
 20
28.712682
 42
-0.012421
 10
36.606835
 20
28.426287
 42
-0.012247
 10
36.797645
 20
28.111291
 42
-0.016018
 10
36.955525
 20
27.813949
 42
-0.012344
 10
37.096952
 20
27.506706
 42
-0.009232
 10
37.238064
 20
27.161694
 42
-0.009345
 10
37.35896
 20
26.831618
 42
-0.020969
 10
37.435372
 20
26.575993
 42
-0.016836
 10
37.491352
 20
26.319482
 42
-0.008142
 10
37.546521
 20
25.987994
 42
-0.008064
 10
37.592852
 20
25.640391
 42
-0.011482
 10
37.621912
 20
25.330214
 10
37.671839
 20
24.622741
 10
40.648594
 20
24.599521
 42
0.000893
 10
41.799743
 20
24.592597
 42
0.001389
 10
42.792353
 20
24.591156
 42
0.000388
 10
43.656871
 20
24.592973
 42
0.047211
 10
43.766374
 20
24.603653
 42
0.327482
 10
43.851477
 20
24.695691
 42
0.01715
 10
43.88511
 20
25.12045
 42
0.010203
 10
43.903749
 20
25.88688
 42
0.000977
 10
43.9074
 20
27.755003
 10
43.9074
 20
30.879
  0
LWPOLYLINE
  5
756
330
1D
100
AcDbEntity
  8
0
100
AcDbPolyline
 90
       34
 70
     1
 43
0.0
 10
10.622476
 20
27.1566
 42
0.305932
 10
10.601518
 20
27.142452
 42
0.00719
 10
10.556554
 20
27.026131
 42
0.013408
 10
10.507803
 20
26.882709
 42
0.008385
 10
10.458092
 20
26.71245
 42
0.004745
 10
10.408263
 20
26.523478
 42
0.004025
 10
10.359129
 20
26.322935
 42
0.004059
 10
10.31732
 20
26.13951
 42
0.011365
 10
10.292002
 20
26.01014
 42
0.049686
 10
10.281597
 20
25.864333
 42
0.109854
 10
10.308712
 20
25.756742
 42
0.085743
 10
10.384224
 20
25.654637
 42
0.022374
 10
10.538376
 20
25.519921
 42
-0.033379
 10
10.662175
 20
25.406836
 42
-0.020094
 10
10.793923
 20
25.257732
 42
-0.020081
 10
10.913493
 20
25.098252
 42
-0.032871
 10
10.999923
 20
24.953231
 10
11.170639
 20
24.6186
 10
16.247983
 20
24.6186
 10
21.325327
 20
24.6186
 10
21.301114
 20
25.44345
 10
21.2769
 20
26.2683
 10
16.9623
 20
26.311365
 42
-0.000671
 10
14.154759
 20
26.343157
 42
-0.009168
 10
13.133742
 20
26.37482
 42
-0.02601
 10
12.543038
 20
26.434892
 42
-0.042815
 10
12.0555
 20
26.553649
 42
-0.008604
 10
11.799577
 20
26.644674
 42
-0.006391
 10
11.520041
 20
26.753646
 42
-0.006463
 10
11.258861
 20
26.863277
 42
-0.014501
 10
11.064262
 20
26.954734
 42
0.00402
 10
10.90826
 20
27.032084
 42
0.005915
 10
10.769885
 20
27.097302
 42
0.002967
 10
10.651859
 20
27.150387
 42
0.104563
  0
LWPOLYLINE
  5
77A
330
1D
100
AcDbEntity
  8
0
100
AcDbPolyline
 90
       34
 70
     1
 43
0.0
 10
37.064802
 20
27.150281
 42
0.076354
 10
37.028009
 20
27.139994
 42
0.001618
 10
36.856055
 20
27.061487
 42
0.003707
 10
36.655539
 20
26.967346
 42
0.002486
 10
36.427621
 20
26.856875
 42
-0.018212
 10
36.160171
 20
26.737477
 42
-0.011301
 10
35.838441
 20
26.616061
 42
-0.011333
 10
35.515034
 20
26.510466
 42
-0.020026
 10
35.243221
 20
26.440226
 42
-0.040369
 10
34.71218
 20
26.369642
 42
-0.00685
 10
33.690268
 20
26.331051
 42
-0.004308
 10
32.046339
 20
26.305683
 42
-0.000769
 10
28.9755
 20
26.289482
 10
23.3073
 20
26.2683
 10
23.283086
 20
25.44345
 10
23.258873
 20
24.6186
 10
29.901317
 20
24.6186
 10
36.543761
 20
24.6186
 10
36.710971
 20
24.946358
 42
-0.030801
 10
36.795101
 20
25.088855
 42
-0.018803
 10
36.910627
 20
25.246469
 42
-0.018819
 10
37.03735
 20
25.394575
 42
-0.031487
 10
37.155845
 20
25.507755
 42
0.027233
 10
37.286866
 20
25.630786
 42
0.064099
 10
37.366214
 20
25.738622
 42
0.081944
 10
37.404259
 20
25.845217
 42
0.073604
 10
37.408056
 20
25.962547
 42
0.020696
 10
37.38971
 20
26.079214
 42
0.005649
 10
37.351085
 20
26.261631
 42
0.005703
 10
37.302541
 20
26.46769
 42
0.00591
 10
37.249853
 20
26.67015
 42
0.009689
 10
37.195192
 20
26.85618
 42
0.015678
 10
37.140735
 20
27.011849
 42
0.009496
 10
37.090325
 20
27.135588
 42
0.332825
  0
LWPOLYLINE
  5
79E
330
1D
100
AcDbEntity
  8
0
100
AcDbPolyline
 90
       34
 70
     1
 43
0.0
 10
25.44345
 20
24.431314
 10
24.6186
 20
24.455527
 10
24.6186
 20
17.813083
 10
24.6186
 20
11.170639
 10
24.93585
 20
11.007467
 42
-0.026503
 10
25.075364
 20
10.926091
 42
-0.015738
 10
25.232898
 20
10.815398
 42
-0.015728
 10
25.383464
 20
10.694774
 42
-0.026039
 10
25.501578
 20
10.582748
 42
0.031982
 10
25.630223
 20
10.463604
 42
0.053095
 10
25.754009
 20
10.383025
 42
0.060098
 10
25.880097
 20
10.33687
 42
0.057776
 10
26.015257
 20
10.3212
 42
0.036353
 10
26.145806
 20
10.330704
 42
0.013974
 10
26.325026
 20
10.362077
 42
0.013751
 10
26.518314
 20
10.407077
 42
0.016477
 10
26.697379
 20
10.460355
 42
0.001987
 10
26.858799
 20
10.514945
 42
0.003027
 10
26.998473
 20
10.563747
 42
0.001101
 10
27.118351
 20
10.606747
 42
0.077531
 10
27.136917
 20
10.616922
 42
0.336959
 10
27.141491
 20
10.6338
 42
0.001956
 10
27.075776
 20
10.794007
 42
0.006915
 10
26.996041
 20
10.978978
 42
0.004214
 10
26.897019
 20
11.195316
 42
-0.008601
 10
26.78642
 20
11.442656
 42
-0.006182
 10
26.671115
 20
11.722434
 42
-0.006245
 10
26.567977
 20
11.991483
 42
-0.01339
 10
26.496623
 20
12.201999
 42
-0.060162
 10
26.417218
 20
12.638758
 42
-0.007681
 10
26.374877
 20
13.593907
 42
-0.004666
 10
26.343437
 20
15.197211
 42
-0.000646
 10
26.313521
 20
18.5274
 10
26.2683
 20
24.4071
  0
LWPOLYLINE
  5
7C2
330
1D
100
AcDbEntity
  8
0
100
AcDbPolyline
 90
       84
 70
     1
 43
0.0
 10
6.959958
 20
23.114929
 42
0.001079
 10
5.775532
 20
23.121276
 42
0.001769
 10
4.772541
 20
23.120939
 42
0.000177
 10
3.876435
 20
23.11715
 42
0.197975
 10
3.842181
 20
23.10285
 42
0.195581
 10
3.82776
 20
23.068561
 42
0.000172
 10
3.817335
 20
22.1626
 42
0.001734
 10
3.809532
 20
21.148778
 42
0.001057
 10
3.807
 20
19.9515
 10
3.807
 20
16.8354
 10
4.389558
 20
16.8354
 10
4.972117
 20
16.8354
 10
5.319835
 20
17.420696
 42
-0.006816
 10
5.474137
 20
17.672542
 42
-0.005123
 10
5.650464
 20
17.945487
 42
-0.00518
 10
5.821647
 20
18.198859
 42
-0.011859
 10
5.957096
 20
18.385314
 10
6.246638
 20
18.764635
 10
6.044474
 20
18.954558
 42
-0.042031
 10
5.959991
 20
19.04847
 42
-0.023682
 10
5.873224
 20
19.174963
 42
-0.023495
 10
5.797212
 20
19.31185
 42
-0.035299
 10
5.745383
 20
19.438172
 42
-0.038164
 10
5.711111
 20
19.57673
 42
-0.020275
 10
5.688946
 20
19.752206
 42
-0.020064
 10
5.680745
 20
19.9344
 42
-0.029283
 10
5.689365
 20
20.094805
 42
-0.035441
 10
5.718651
 20
20.252963
 42
-0.023886
 10
5.773227
 20
20.42833
 42
-0.024106
 10
5.842706
 20
20.593733
 42
-0.043251
 10
5.917407
 20
20.720549
 42
-0.034852
 10
6.008562
 20
20.831345
 42
-0.022374
 10
6.128377
 20
20.947045
 42
-0.022477
 10
6.256494
 20
21.050278
 42
-0.038687
 10
6.37282
 20
21.122555
 42
-0.047516
 10
6.504242
 20
21.175607
 42
-0.023709
 10
6.678609
 20
21.218517
 42
-0.023235
 10
6.865603
 20
21.246286
 42
-0.03071
 10
7.037644
 20
21.253095
 42
-0.027201
 10
7.208281
 20
21.240062
 42
-0.020661
 10
7.393157
 20
21.207959
 42
-0.021052
 10
7.564509
 20
21.163228
 42
-0.044981
 10
7.691053
 20
21.111603
 42
-0.054306
 10
7.817275
 20
21.027864
 42
-0.015162
 10
7.995029
 20
20.870515
 42
-0.01511
 10
8.186565
 20
20.679086
 42
-0.015348
 10
8.36516
 20
20.477407
 42
-0.006643
 10
8.554257
 20
20.243944
 42
-0.003672
 10
8.779328
 20
19.954038
 42
-0.00366
 10
9.003161
 20
19.656832
 42
-0.005878
 10
9.189182
 20
19.399771
 42
0.004194
 10
9.376328
 20
19.139314
 42
0.002475
 10
9.603976
 20
18.831246
 42
0.002476
 10
9.834386
 20
18.525813
 42
0.004239
 10
10.030018
 20
18.2736
 42
0.004794
 10
10.206136
 20
18.054824
 42
0.005731
 10
10.376365
 20
17.852244
 42
0.00498
 10
10.523336
 20
17.684762
 42
0.037126
 10
10.59955
 20
17.611398
 42
0.15251
 10
10.694123
 20
17.572583
 42
0.130488
 10
10.800598
 20
17.591162
 42
0.05384
 10
10.95412
 20
17.683153
 42
0.007836
 10
11.241355
 20
17.907498
 42
0.007465
 10
11.435799
 20
18.069185
 42
0.011096
 10
11.60067
 20
18.21697
 42
0.0064
 10
11.733573
 20
18.34476
 42
0.17954
 10
11.753542
 20
18.387518
 42
0.171056
 10
11.741908
 20
18.431746
 42
0.008944
 10
11.65609
 20
18.55351
 42
0.013291
 10
11.545638
 20
18.696296
 42
0.009201
 10
11.413563
 20
18.852028
 42
-0.028108
 10
11.257997
 20
19.050177
 42
-0.012331
 10
11.073731
 20
19.328549
 42
-0.012159
 10
10.892211
 20
19.634312
 42
-0.015934
 10
10.742331
 20
19.922509
 42
-0.012153
 10
10.607689
 20
20.221281
 42
-0.008876
 10
10.472201
 20
20.559185
 42
-0.008977
 10
10.35517
 20
20.884189
 42
-0.019506
 10
10.279676
 20
21.138407
 42
-0.016939
 10
10.223446
 20
21.394923
 42
-0.008194
 10
10.168068
 20
21.726421
 42
-0.008116
 10
10.121593
 20
22.07404
 42
-0.011556
 10
10.092484
 20
22.384235
 10
10.042554
 20
23.091757
  0
LWPOLYLINE
  5
818
330
1D
100
AcDbEntity
  8
0
100
AcDbPolyline
 90
       30
 70
     1
 43
0.0
 10
23.796732
 20
23.110162
 42
0.009996
 10
23.332083
 20
23.120572
 42
0.000368
 10
21.573768
 20
23.123515
 42
0.000671
 10
19.494544
 20
23.122675
 42
0.000471
 10
17.154082
 20
23.116387
 10
11.170064
 20
23.094673
 10
10.999635
 20
22.760606
 42
-0.032122
 10
10.913919
 20
22.616292
 42
-0.020054
 10
10.796399
 20
22.458546
 42
-0.020103
 10
10.667522
 20
22.311781
 42
-0.034146
 10
10.547093
 20
22.201434
 42
0.022931
 10
10.379925
 20
22.055016
 42
0.117356
 10
10.313595
 20
21.95198
 42
0.106766
 10
10.297611
 20
21.825395
 42
0.017417
 10
10.327879
 20
21.578421
 42
0.016251
 10
10.361412
 20
21.403383
 42
0.010962
 10
10.410488
 20
21.20601
 42
0.01105
 10
10.466416
 20
21.017022
 42
0.021492
 10
10.520771
 20
20.869402
 10
10.650761
 20
20.558291
 10
10.930131
 20
20.718598
 42
-0.024124
 10
11.081646
 20
20.796079
 42
-0.006707
 10
11.326245
 20
20.902695
 42
-0.006753
 10
11.606696
 20
21.016058
 42
-0.007037
 10
11.8863
 20
21.120202
 10
12.5631
 20
21.3615
 10
18.4851
 20
21.4038
 10
24.4071
 20
21.4461
 10
24.431232
 20
22.264162
 10
24.455363
 20
23.082224
  0
LWPOLYLINE
  5
838
330
1D
100
AcDbEntity
  8
0
100
AcDbPolyline
 90
       34
 70
     1
 43
0.0
 10
31.466417
 20
23.0958
 10
26.389073
 20
23.0958
 10
26.413286
 20
22.27095
 10
26.4375
 20
21.4461
 10
30.7521
 20
21.403035
 42
-0.000671
 10
33.559641
 20
21.371243
 42
-0.009168
 10
34.580658
 20
21.33958
 42
-0.02601
 10
35.171362
 20
21.279508
 42
-0.042815
 10
35.6589
 20
21.160751
 42
-0.008604
 10
35.914823
 20
21.069726
 42
-0.006391
 10
36.194359
 20
20.960754
 42
-0.006463
 10
36.455539
 20
20.851123
 42
-0.014501
 10
36.650138
 20
20.759666
 42
0.00402
 10
36.80614
 20
20.682316
 42
0.005915
 10
36.944515
 20
20.617098
 42
0.002967
 10
37.062541
 20
20.564013
 42
0.104563
 10
37.091924
 20
20.5578
 42
0.305932
 10
37.112882
 20
20.571948
 42
0.00719
 10
37.157846
 20
20.688269
 42
0.013408
 10
37.206597
 20
20.831691
 42
0.008385
 10
37.256308
 20
21.00195
 42
0.004745
 10
37.306137
 20
21.190922
 42
0.004025
 10
37.355271
 20
21.391465
 42
0.004059
 10
37.39708
 20
21.57489
 42
0.011365
 10
37.422398
 20
21.70426
 42
0.049686
 10
37.432803
 20
21.850067
 42
0.109854
 10
37.405688
 20
21.957658
 42
0.085743
 10
37.330176
 20
22.059763
 42
0.022374
 10
37.176024
 20
22.194479
 42
-0.033379
 10
37.052225
 20
22.307564
 42
-0.020094
 10
36.920477
 20
22.456668
 42
-0.020081
 10
36.800907
 20
22.616148
 42
-0.032871
 10
36.714477
 20
22.761169
 10
36.543761
 20
23.0958
  0
LWPOLYLINE
  5
85C
330
1D
100
AcDbEntity
  8
0
100
AcDbPolyline
 90
       88
 70
     1
 43
0.0
 10
40.789723
 20
23.0958
 10
37.672045
 20
23.0958
 10
37.621186
 20
22.35555
 42
-0.01095
 10
37.592097
 20
22.034995
 42
-0.008219
 10
37.546579
 20
21.683641
 42
-0.008318
 10
37.492785
 20
21.354298
 42
-0.018833
 10
37.438623
 20
21.1077
 42
-0.021523
 10
37.363729
 20
20.862909
 42
-0.008867
 10
37.242281
 20
20.537972
 42
-0.008754
 10
37.099501
 20
20.193488
 42
-0.011125
 10
36.955173
 20
19.881
 42
-0.018636
 10
36.739755
 20
19.47926
 42
-0.029002
 10
36.522025
 20
19.152275
 42
-0.024968
 10
36.244911
 20
18.820161
 42
-0.010027
 10
35.835064
 20
18.393536
 42
-0.010039
 10
35.408663
 20
17.983923
 42
-0.024913
 10
35.076337
 20
17.706598
 42
-0.028926
 10
34.749157
 20
17.488584
 42
-0.018642
 10
34.3476
 20
17.273025
 42
-0.010828
 10
34.038181
 20
17.129722
 42
-0.008982
 10
33.703054
 20
16.990355
 42
-0.009093
 10
33.391253
 20
16.87372
 42
-0.024057
 10
33.1632
 20
16.805252
 10
32.6979
 20
16.689628
 10
32.673421
 20
15.956367
 10
32.648941
 20
15.223105
 10
32.884921
 20
15.275918
 42
0.005268
 10
33.008893
 20
15.305039
 42
0.001503
 10
33.200689
 20
15.35284
 42
0.001513
 10
33.416855
 20
15.408102
 42
0.001604
 10
33.6285
 20
15.463616
 42
0.013916
 10
33.860868
 20
15.532339
 42
0.007604
 10
34.141984
 20
15.628815
 42
0.007572
 10
34.424832
 20
15.735585
 42
0.011949
 10
34.66373
 20
15.836584
 42
0.011173
 10
34.900125
 20
15.949677
 42
0.006723
 10
35.175612
 20
16.093804
 42
0.006731
 10
35.445777
 20
16.244541
 42
0.011679
 10
35.66538
 20
16.377895
 42
0.020736
 10
35.891548
 20
16.536158
 42
0.008346
 10
36.187524
 20
16.770029
 42
0.008241
 10
36.498323
 20
17.032818
 42
0.010334
 10
36.777249
 20
17.287011
 42
0.022012
 10
37.094601
 20
17.616213
 42
0.006656
 10
37.547096
 20
18.142931
 42
0.006654
 10
38.039269
 20
18.747684
 42
0.007194
 10
38.502302
 20
19.349959
 42
-0.005572
 10
38.98045
 20
19.976088
 42
-0.009896
 10
39.390138
 20
20.479492
 42
-0.010204
 10
39.724478
 20
20.858152
 42
-0.060691
 10
39.92489
 20
21.028966
 42
-0.030122
 10
40.110355
 20
21.136237
 42
-0.047172
 10
40.282062
 20
21.202812
 42
-0.045382
 10
40.467986
 20
21.237588
 42
-0.025493
 10
40.69772
 20
21.247525
 42
-0.025846
 10
40.920188
 20
21.234289
 42
-0.040902
 10
41.107561
 20
21.197696
 42
-0.043369
 10
41.278448
 20
21.133119
 42
-0.034166
 10
41.450561
 20
21.035418
 42
-0.037199
 10
41.581581
 20
20.933949
 42
-0.025645
 10
41.71447
 20
20.80127
 42
-0.025941
 10
41.829726
 20
20.659625
 42
-0.04706
 10
41.906078
 20
20.531414
 42
-0.032054
 10
41.959771
 20
20.396586
 42
-0.020834
 10
42.005039
 20
20.23505
 42
-0.020957
 10
42.036147
 20
20.073007
 42
-0.036955
 10
42.0462
 20
19.937172
 42
-0.02484
 10
42.039646
 20
19.805332
 42
-0.016778
 10
42.019693
 20
19.656075
 42
-0.016928
 10
41.99059
 20
19.512724
 42
-0.032017
 10
41.955965
 20
19.400057
 42
-0.029862
 10
41.909115
 20
19.295677
 42
-0.018354
 10
41.842338
 20
19.178585
 42
-0.018382
 10
41.767486
 20
19.067214
 42
-0.031053
 10
41.695865
 20
18.980542
 10
41.526001
 20
18.799184
 10
41.994331
 20
18.073214
 42
-0.002872
 10
42.183334
 20
17.776508
 42
-0.003107
 10
42.363964
 20
17.485321
 42
-0.002927
 10
42.515814
 20
17.233803
 42
-0.015015
 10
42.595003
 20
17.091322
 42
0.047361
 10
42.691761
 20
16.940995
 42
0.141881
 10
42.790059
 20
16.870468
 42
0.077315
 10
42.944755
 20
16.841332
 42
0.00796
 10
43.317373
 20
16.8354
 10
43.9074
 20
16.8354
 10
43.9074
 20
19.9656
 10
43.9074
 20
23.0958
  0
LWPOLYLINE
  5
8B6
330
1D
100
AcDbEntity
  8
0
100
AcDbPolyline
 90
       34
 70
     1
 43
0.0
 10
22.3062
 20
21.3192
 42
0.006664
 10
21.999535
 20
21.315113
 42
0.009979
 10
21.731977
 20
21.302632
 42
0.00536
 10
21.508452
 20
21.285322
 42
0.176136
 10
21.4602
 20
21.2628
 42
0.195046
 10
21.437099
 20
21.208182
 42
0.000251
 10
21.419942
 20
20.015611
 42
0.002098
 10
21.406966
 20
18.676142
 42
0.001284
 10
21.40235
 20
17.09625
 42
-0.000908
 10
21.397051
 20
14.652396
 42
-0.007484
 10
21.375977
 20
13.540502
 42
-0.016608
 10
21.330941
 20
12.870648
 42
-0.038467
 10
21.24215
 20
12.374942
 42
-0.014285
 10
21.162287
 20
12.100011
 42
-0.008514
 10
21.052404
 20
11.777423
 42
-0.008519
 10
20.931867
 20
11.459474
 42
-0.014572
 10
20.819133
 20
11.199058
 42
0.005987
 10
20.719987
 20
10.980407
 42
0.009618
 10
20.641304
 20
10.791412
 42
0.003875
 10
20.579257
 20
10.630254
 42
0.294378
 10
20.584855
 20
10.604345
 42
0.123428
 10
20.611312
 20
10.588493
 42
0.001745
 10
20.790254
 20
10.534962
 42
0.004732
 10
20.999451
 20
10.475321
 42
0.003085
 10
21.241972
 20
10.410261
 10
21.8691
 20
10.246166
 10
22.143229
 20
10.535345
 42
-0.025666
 10
22.272794
 20
10.658684
 42
-0.015914
 10
22.436479
 20
10.790413
 42
-0.015954
 10
22.606818
 20
10.910461
 42
-0.027573
 10
22.756579
 20
10.997581
 10
23.0958
 20
11.170639
 10
23.0958
 20
16.244919
 10
23.0958
 20
21.3192
  0
LWPOLYLINE
  5
8DA
330
1D
100
AcDbEntity
  8
0
100
AcDbPolyline
 90
       82
 70
     1
 43
0.0
 10
8.188194
 20
20.369311
 42
0.142374
 10
8.102225
 20
20.406258
 42
0.146132
 10
8.010813
 20
20.390835
 42
0.063922
 10
7.8874
 20
20.309088
 42
0.010287
 10
7.672511
 20
20.115511
 42
0.009498
 10
7.489455
 20
19.936995
 42
0.004099
 10
7.252083
 20
19.69257
 42
0.004054
 10
7.00363
 20
19.428244
 42
0.005358
 10
6.781862
 20
19.183227
 42
0.012166
 10
6.554621
 20
18.913756
 42
0.006594
 10
6.287755
 20
18.572073
 42
0.006565
 10
6.025151
 20
18.216964
 42
0.010308
 10
5.809902
 20
17.904355
 42
0.006789
 10
5.613314
 20
17.596847
 42
0.005318
 10
5.40815
 20
17.258123
 42
0.005379
 10
5.223965
 20
16.938815
 42
0.013108
 10
5.097012
 20
16.698628
 42
0.006195
 10
4.98928
 20
16.474248
 42
0.003934
 10
4.869124
 20
16.210426
 42
0.003951
 10
4.755254
 20
15.949577
 42
0.007304
 10
4.667525
 20
15.7356
 42
0.012377
 10
4.585736
 20
15.51135
 42
0.005717
 10
4.489968
 20
15.215986
 42
0.005658
 10
4.396313
 20
14.90305
 42
0.007823
 10
4.31988
 20
14.620103
 42
0.013779
 10
4.252657
 20
14.32038
 42
0.007814
 10
4.187003
 20
13.954276
 42
0.007797
 10
4.132323
 20
13.583004
 42
0.012726
 10
4.09891
 20
13.266503
 42
0.015985
 10
4.081527
 20
12.902829
 42
0.017116
 10
4.088087
 20
12.547017
 42
0.01658
 10
4.119452
 20
12.182445
 42
0.01326
 10
4.176618
 20
11.792316
 42
0.010557
 10
4.23973
 20
11.469595
 42
0.009425
 10
4.318613
 20
11.137317
 42
0.009499
 10
4.400805
 20
10.84141
 42
0.028765
 10
4.471965
 20
10.64491
 42
0.015532
 10
4.57968
 20
10.413727
 42
0.121668
 10
4.656348
 20
10.324389
 42
0.150049
 10
4.758755
 20
10.290277
 42
0.027513
 10
4.960452
 20
10.296601
 42
0.012819
 10
5.11732
 20
10.314243
 42
0.005716
 10
5.322939
 20
10.345122
 42
0.005653
 10
5.539869
 20
10.382761
 42
0.007622
 10
5.73519
 20
10.422018
 42
0.018103
 10
5.912003
 20
10.467127
 42
0.037033
 10
6.045872
 20
10.51752
 42
0.0499
 10
6.130504
 20
10.567538
 42
0.353611
 10
6.141822
 20
10.610511
 42
-0.005598
 10
6.115551
 20
10.67078
 42
-0.000414
 10
6.045638
 20
10.836588
 42
-0.000575
 10
5.96264
 20
11.034519
 42
-0.000436
 10
5.872045
 20
11.2518
 42
-0.021774
 10
5.760786
 20
11.556007
 42
-0.026431
 10
5.684436
 20
11.849832
 42
-0.023851
 10
5.634272
 20
12.173656
 42
-0.013286
 10
5.602592
 20
12.571696
 42
-0.01419
 10
5.594339
 20
12.908867
 42
-0.010172
 10
5.603481
 20
13.285808
 42
-0.010284
 10
5.626898
 20
13.64469
 42
-0.021676
 10
5.662818
 20
13.921445
 42
-0.013428
 10
5.716198
 20
14.185773
 42
-0.007592
 10
5.794309
 20
14.503168
 42
-0.007574
 10
5.882848
 20
14.82106
 42
-0.012335
 10
5.968674
 20
15.087657
 42
-0.014119
 10
6.071939
 20
15.358418
 42
-0.007304
 10
6.215404
 20
15.691045
 42
-0.007255
 10
6.372942
 20
16.028896
 42
-0.010925
 10
6.52088
 20
16.318207
 42
-0.008891
 10
6.681032
 20
16.602974
 42
-0.005747
 10
6.876022
 20
16.927098
 42
-0.005777
 10
7.073959
 20
17.239586
 42
-0.010859
 10
7.242163
 20
17.486557
 42
-0.014832
 10
7.432587
 20
17.73742
 42
-0.006082
 10
7.705048
 20
18.066796
 42
-0.006011
 10
8.006328
 20
18.413582
 42
-0.007662
 10
8.292787
 20
18.725648
 10
8.969437
 20
19.440482
 10
8.644173
 20
19.851091
 42
0.00615
 10
8.510058
 20
20.016183
 42
0.006765
 10
8.376057
 20
20.172694
 42
0.00635
 10
8.258142
 20
20.303322
 42
0.033774
  0
LWPOLYLINE
  5
92E
330
1D
100
AcDbEntity
  8
0
100
AcDbPolyline
 90
       90
 70
     1
 43
0.0
 10
39.805458
 20
20.337762
 42
0.086123
 10
39.678521
 20
20.392664
 42
0.195997
 10
39.577078
 20
20.37726
 42
0.073594
 10
39.453573
 20
20.276422
 42
0.005827
 10
39.171524
 20
19.959675
 10
38.731925
 20
19.454257
 10
39.408862
 20
18.739119
 42
-0.009722
 10
39.701772
 20
18.417374
 42
-0.006627
 10
40.022687
 20
18.040842
 42
-0.006681
 10
40.322669
 20
17.669279
 42
-0.013355
 10
40.547887
 20
17.366241
 42
-0.009968
 10
40.746464
 20
17.071253
 42
-0.006753
 10
40.961366
 20
16.727753
 42
-0.006806
 10
41.160052
 20
16.390148
 42
-0.013496
 10
41.306587
 20
16.1163
 42
-0.013529
 10
41.43672
 20
15.837921
 42
-0.007191
 10
41.583445
 20
15.486823
 42
-0.007152
 10
41.723202
 20
15.123435
 42
-0.011025
 10
41.83256
 20
14.805
 42
-0.01663
 10
41.938227
 20
14.431205
 42
-0.017133
 10
42.01764
 20
14.054889
 42
-0.016542
 10
42.073268
 20
13.661944
 42
-0.013455
 10
42.107522
 20
13.238107
 42
-0.011279
 10
42.119189
 20
12.86405
 42
-0.012139
 10
42.113472
 20
12.498913
 42
-0.012925
 10
42.092162
 20
12.175425
 42
-0.029917
 10
42.055457
 20
11.934911
 42
-0.022711
 10
41.99927
 20
11.720837
 42
-0.01066
 10
41.908279
 20
11.449369
 42
-0.010538
 10
41.800665
 20
11.168422
 42
-0.014568
 10
41.691576
 20
10.921504
 42
-0.024693
 10
41.553245
 20
10.66496
 42
-0.019058
 10
41.378517
 20
10.399434
 42
-0.019093
 10
41.184559
 20
10.148645
 42
-0.025183
 10
40.988252
 20
9.936586
 42
0.013618
 10
40.715143
 20
9.654913
 42
0.078045
 10
40.600266
 20
9.482206
 42
0.074872
 10
40.541633
 20
9.279612
 42
0.011981
 10
40.496957
 20
8.868667
 42
-0.009592
 10
40.46968
 20
8.606101
 42
-0.009865
 10
40.432559
 20
8.347231
 42
-0.00965
 10
40.391648
 20
8.124248
 42
-0.040664
 10
40.353819
 20
7.993698
 42
0.017387
 10
40.322368
 20
7.901442
 42
0.025141
 10
40.301602
 20
7.817855
 42
0.02295
 10
40.291547
 20
7.750107
 42
0.225419
 10
40.300972
 20
7.723628
 42
0.295758
 10
40.33129
 20
7.717157
 42
0.00593
 10
40.484307
 20
7.777689
 42
0.012041
 10
40.665814
 20
7.857149
 42
0.007546
 10
40.874389
 20
7.95837
 42
0.029204
 10
41.146557
 20
8.116124
 42
0.019044
 10
41.441793
 20
8.327687
 42
0.017351
 10
41.751081
 20
8.585329
 42
0.01392
 10
42.066017
 20
8.882922
 42
0.012926
 10
42.395564
 20
9.229637
 42
0.023863
 10
42.641962
 20
9.530348
 42
0.026803
 10
42.838944
 20
9.827661
 42
0.022577
 10
43.015502
 20
10.161563
 42
0.011912
 10
43.139395
 20
10.440917
 42
0.008082
 10
43.267664
 20
10.764458
 42
0.008147
 10
43.381453
 20
11.0811
 42
0.016124
 10
43.459435
 20
11.3364
 42
0.024477
 10
43.526556
 20
11.643383
 42
0.018335
 10
43.571311
 20
11.986633
 42
0.015656
 10
43.595886
 20
12.384572
 42
0.009327
 10
43.601446
 20
12.8592
 42
0.010268
 10
43.587738
 20
13.35796
 42
0.016521
 10
43.553311
 20
13.781778
 42
0.017959
 10
43.493802
 20
14.175523
 42
0.015789
 10
43.4041
 20
14.581438
 42
0.009764
 10
43.313012
 20
14.912373
 42
0.006497
 10
43.196307
 20
15.288161
 42
0.006542
 10
43.0735
 20
15.650004
 42
0.012701
 10
42.96436
 20
15.935038
 42
0.008348
 10
42.847547
 20
16.205445
 42
0.005146
 10
42.701563
 20
16.519794
 42
0.005159
 10
42.550801
 20
16.827659
 42
0.009212
 10
42.4196
 20
17.077158
 42
0.012744
 10
42.27264
 20
17.329116
 42
0.006019
 10
42.070912
 20
17.646942
 42
0.00596
 10
41.851663
 20
17.974745
 42
0.008373
 10
41.647693
 20
18.261558
 42
0.008224
 10
41.423184
 20
18.556047
 42
0.004517
 10
41.13923
 20
18.909458
 42
0.004501
 10
40.844512
 20
19.263012
 42
0.007179
 10
40.585594
 20
19.559265
 42
0.006177
 10
40.347064
 20
19.817911
 42
0.007284
 10
40.114785
 20
20.056554
 42
0.006467
 10
39.913452
 20
20.252333
 42
0.044639
  0
LWPOLYLINE
  5
98A
330
1D
100
AcDbEntity
  8
0
100
AcDbPolyline
 90
       88
 70
     1
 43
0.0
 10
16.5816
 20
20.120939
 42
0.010785
 10
16.506309
 20
20.114367
 42
0.001586
 10
16.354254
 20
20.097293
 42
0.00179
 10
16.174664
 20
20.075899
 42
0.001537
 10
15.985857
 20
20.052132
 42
0.017587
 10
15.76485
 20
20.015679
 42
0.008406
 10
15.483614
 20
19.954132
 42
0.008322
 10
15.191745
 20
19.879946
 42
0.011735
 10
14.934469
 20
19.803449
 42
0.008626
 10
14.672623
 20
19.713838
 42
0.005233
 10
14.365895
 20
19.599275
 42
0.005242
 10
14.063826
 20
19.479184
 42
0.009202
 10
13.816937
 20
19.372673
 42
0.015516
 10
13.562788
 20
19.24779
 42
0.006825
 10
13.234116
 20
19.067636
 42
0.006747
 10
12.890426
 20
18.866934
 42
0.008993
 10
12.584124
 20
18.674888
 42
0.010851
 10
12.262355
 20
18.454891
 42
0.005543
 10
11.867625
 20
18.165576
 42
0.005504
 10
11.467242
 20
17.858295
 42
0.00823
 10
11.1249
 20
17.58029
 42
0.004503
 10
10.809478
 20
17.310532
 42
0.004195
 10
10.491364
 20
17.028744
 42
0.004183
 10
10.212862
 20
16.773591
 42
0.014178
 10
10.037383
 20
16.600552
 10
9.711265
 20
16.260204
 10
10.140691
 20
15.699931
 42
0.008481
 10
10.31005
 20
15.486563
 42
0.013348
 10
10.463329
 20
15.309872
 42
0.00733
 10
10.595652
 20
15.169509
 42
0.277701
 10
10.636009
 20
15.158839
 42
0.118692
 10
10.673658
 20
15.180374
 42
0.008964
 10
10.758344
 20
15.263113
 42
0.011966
 10
10.856301
 20
15.367178
 42
0.00881
 10
10.959942
 20
15.486877
 42
-0.017493
 10
11.095844
 20
15.638436
 42
-0.006073
 10
11.301918
 20
15.847535
 42
-0.006024
 10
11.53465
 20
16.072526
 42
-0.006976
 10
11.76176
 20
16.280936
 42
-0.014161
 10
12.01182
 20
16.49165
 42
-0.008898
 10
12.315192
 20
16.724243
 42
-0.008931
 10
12.62214
 20
16.942653
 42
-0.016131
 10
12.882184
 20
17.108718
 42
-0.013239
 10
13.142986
 20
17.254458
 42
-0.008641
 10
13.451013
 20
17.409312
 42
-0.008692
 10
13.756795
 20
17.549981
 42
-0.016398
 10
14.008864
 20
17.650949
 42
-0.020104
 10
14.249203
 20
17.727404
 42
-0.015496
 10
14.516678
 20
17.791952
 42
-0.015751
 10
14.770724
 20
17.836689
 42
-0.035718
 10
14.965205
 20
17.8506
 10
15.371513
 20
17.8506
 10
15.290512
 20
17.380445
 42
0.009636
 10
15.262565
 20
17.197197
 42
0.01435
 10
15.245829
 20
17.035873
 42
0.00932
 10
15.238363
 20
16.902775
 42
0.208649
 10
15.252148
 20
16.867652
 42
0.146394
 10
15.286951
 20
16.848879
 42
0.00688
 10
15.41935
 20
16.82339
 42
0.010853
 10
15.579573
 20
16.798399
 42
0.007544
 10
15.761471
 20
16.776847
 42
0.013834
 10
15.955383
 20
16.762242
 42
0.013355
 10
16.152101
 20
16.758149
 42
0.013395
 10
16.325372
 20
16.763816
 42
0.046639
 10
16.435932
 20
16.78083
 42
0.093029
 10
16.548716
 20
16.83275
 42
0.11573
 10
16.624917
 20
16.919037
 42
0.062887
 10
16.683284
 20
17.070702
 42
0.011876
 10
16.747582
 20
17.36095
 42
-0.015306
 10
16.802544
 20
17.601238
 42
-0.008659
 10
16.88303
 20
17.888924
 42
-0.008637
 10
16.974303
 20
18.176447
 42
-0.014033
 10
17.062819
 20
18.416902
 42
-0.018444
 10
17.167889
 20
18.653661
 42
-0.010713
 10
17.310433
 20
18.93017
 42
-0.0107
 10
17.465389
 20
19.201554
 42
-0.017716
 10
17.608952
 20
19.42278
 42
0.008909
 10
17.734419
 20
19.608858
 42
0.0144
 10
17.833684
 20
19.771995
 42
0.008106
 10
17.908691
 20
19.908767
 42
0.32884
 10
17.903894
 20
19.940506
 42
0.147454
 10
17.869881
 20
19.958762
 42
0.004204
 10
17.706042
 20
19.990508
 42
0.008196
 10
17.510574
 20
20.023376
 42
0.005507
 10
17.286284
 20
20.054798
 42
0.003856
 10
17.055751
 20
20.082704
 42
0.004792
 10
16.840947
 20
20.104944
 42
0.003934
 10
16.660467
 20
20.120453
 42
0.035854
  0
LWPOLYLINE
  5
9E4
330
1D
100
AcDbEntity
  8
0
100
AcDbPolyline
 90
       86
 70
     1
 43
0.0
 10
31.5135
 20
20.067043
 42
0.017119
 10
31.307983
 20
20.074677
 42
0.007306
 10
31.032838
 20
20.071454
 42
0.007219
 10
30.739271
 20
20.059479
 42
0.00942
 10
30.471204
 20
20.039595
 42
0.005709
 10
30.230832
 20
20.014433
 42
0.008528
 10
30.021439
 20
19.986467
 42
0.004359
 10
29.845908
 20
19.958401
 42
0.155776
 10
29.809741
 20
19.939741
 42
0.32142
 10
29.804358
 20
19.907097
 42
0.011762
 10
29.865902
 20
19.789483
 42
0.017561
 10
29.951032
 20
19.647699
 42
0.010944
 10
30.06014
 20
19.487437
 42
-0.020787
 10
30.190096
 20
19.288237
 42
-0.01009
 10
30.340198
 20
19.023819
 42
-0.009988
 10
30.485644
 20
18.741801
 42
-0.014186
 10
30.602692
 20
18.4851
 42
-0.010162
 10
30.705354
 20
18.227405
 42
-0.007847
 10
30.807094
 20
17.942603
 42
-0.007944
 10
30.893743
 20
17.673507
 42
-0.018789
 10
30.947484
 20
17.4699
 42
-0.011805
 10
30.987627
 20
17.268639
 42
-0.005685
 10
31.030027
 20
17.009033
 42
-0.005634
 10
31.068132
 20
16.737182
 42
-0.008037
 10
31.095351
 20
16.494991
 42
-0.023351
 10
31.109433
 20
16.208734
 42
-0.015975
 10
31.099835
 20
15.883341
 42
-0.014794
 10
31.067599
 20
15.530151
 42
-0.012571
 10
31.013213
 20
15.159647
 42
-0.012364
 10
30.946457
 20
14.822751
 42
-0.009479
 10
30.857492
 20
14.458102
 42
-0.009603
 10
30.761166
 20
14.119891
 42
-0.022326
 10
30.672952
 20
13.871552
 10
30.467891
 20
13.366892
 10
30.860107
 20
12.774646
 42
0.011634
 10
31.018099
 20
12.54773
 42
0.017042
 10
31.168324
 20
12.356372
 42
0.012494
 10
31.299611
 20
12.208072
 42
0.20823
 10
31.358582
 20
12.1824
 42
0.237774
 10
31.413694
 20
12.210179
 42
0.015283
 10
31.519407
 20
12.362572
 42
0.019696
 10
31.637254
 20
12.560731
 42
0.013199
 10
31.756855
 20
12.79575
 42
0.010825
 10
31.881835
 20
13.073604
 42
0.006831
 10
32.01618
 20
13.402887
 42
0.006858
 10
32.139441
 20
13.730357
 42
0.012517
 10
32.229605
 20
14.0013
 42
0.018364
 10
32.303844
 20
14.280945
 42
0.009392
 10
32.377408
 20
14.636565
 42
0.009319
 10
32.439561
 20
15.006258
 42
0.013827
 10
32.478966
 20
15.332306
 42
0.014038
 10
32.500595
 20
15.666938
 42
0.008506
 10
32.50832
 20
16.063774
 42
0.008519
 10
32.502567
 20
16.458233
 42
0.014819
 10
32.482528
 20
16.784938
 42
0.005048
 10
32.453527
 20
17.071138
 42
0.005991
 10
32.420177
 20
17.340754
 42
0.005254
 10
32.386965
 20
17.567312
 42
0.037834
 10
32.361632
 20
17.674682
 42
-0.074136
 10
32.345944
 20
17.772313
 42
-0.282592
 10
32.376287
 20
17.822993
 42
-0.111215
 10
32.463868
 20
17.846195
 42
-0.009362
 10
32.699139
 20
17.8506
 42
-0.038069
 10
32.893505
 20
17.83578
 42
-0.014315
 10
33.162207
 20
17.786653
 42
-0.014085
 10
33.452874
 20
17.716252
 42
-0.01664
 10
33.72319
 20
17.632908
 10
34.353902
 20
17.415215
 10
34.710301
 20
17.626801
 42
0.012198
 10
34.867746
 20
17.725545
 42
0.0077
 10
35.046777
 20
17.848012
 42
0.007731
 10
35.219141
 20
17.973899
 42
0.014085
 10
35.355275
 20
18.082739
 10
35.64385
 20
18.32709
 10
35.059175
 20
18.71479
 42
0.017148
 10
34.777978
 20
18.887672
 42
0.008485
 10
34.410161
 20
19.088599
 42
0.00841
 10
34.021195
 20
19.284318
 42
0.012179
 10
33.6708
 20
19.442904
 42
0.006431
 10
33.32898
 20
19.582528
 42
0.005549
 10
32.966505
 20
19.720553
 42
0.005593
 10
32.635
 20
19.838397
 42
0.016108
 10
32.4018
 20
19.910062
 42
0.013797
 10
32.19287
 20
19.960824
 42
0.008959
 10
31.948926
 20
20.008456
 42
0.00901
 10
31.70892
 20
20.046424
 42
0.01688
  0
LWPOLYLINE
  5
A3C
330
1D
100
AcDbEntity
  8
0
100
AcDbPolyline
 90
       84
 70
     1
 43
0.0
 10
19.891575
 20
17.934262
 42
0.128839
 10
19.859396
 20
17.925217
 42
0.009259
 10
19.779678
 20
17.876474
 42
0.012512
 10
19.68597
 20
17.813414
 42
0.009113
 10
19.5849
 20
17.738855
 42
-0.011398
 10
19.465277
 20
17.65145
 42
-0.006104
 10
19.31385
 20
17.548739
 42
-0.006074
 10
19.156705
 20
17.447647
 42
-0.009447
 10
19.018577
 20
17.364735
 42
-0.021069
 10
18.856736
 20
17.280565
 42
-0.007279
 10
18.616386
 20
17.172397
 42
-0.007218
 10
18.347715
 20
17.060732
 42
-0.008318
 10
18.088278
 20
16.96224
 42
-0.020733
 10
17.796361
 20
16.870424
 42
-0.012768
 10
17.446261
 20
16.785587
 42
-0.012691
 10
17.087434
 20
16.717758
 42
-0.0185
 10
16.768098
 20
16.677811
 42
-0.013687
 10
16.451572
 20
16.65877
 42
-0.008504
 10
16.079497
 20
16.652928
 42
-0.00853
 10
15.711896
 20
16.65968
 42
-0.015238
 10
15.410278
 20
16.679585
 42
-0.020807
 10
15.109466
 20
16.721356
 42
-0.011329
 10
14.744089
 20
16.796275
 42
-0.011271
 10
14.375424
 20
16.889408
 42
-0.017535
 10
14.062773
 20
16.987855
 10
13.370684
 20
17.232766
 10
12.966892
 20
16.994216
 42
0.00885
 10
12.796861
 20
16.889662
 42
0.007375
 10
12.619863
 20
16.772745
 42
0.007457
 10
12.461015
 20
16.660912
 42
0.020026
 10
12.352544
 20
16.57526
 10
12.141989
 20
16.394855
 10
12.388654
 20
16.198171
 42
0.040262
 10
12.526445
 20
16.105382
 42
0.011191
 10
12.756424
 20
15.982774
 42
0.01122
 10
13.023893
 20
15.855226
 42
0.011551
 10
13.294256
 20
15.7411
 42
0.00996
 10
13.588368
 20
15.631598
 42
0.006703
 10
13.928228
 20
15.517806
 42
0.006752
 10
14.260192
 20
15.416506
 42
0.013284
 10
14.527146
 20
15.346602
 42
0.024484
 10
14.868564
 20
15.284268
 42
0.019335
 10
15.242534
 20
15.249404
 42
0.014801
 10
15.704279
 20
15.237999
 42
0.006159
 10
16.3278
 20
15.248739
 42
0.004595
 10
16.808504
 20
15.267366
 42
0.006428
 10
17.237647
 20
15.293479
 42
0.004039
 10
17.596769
 20
15.322887
 42
0.081382
 10
17.70255
 20
15.350145
 42
-0.109823
 10
17.779972
 20
15.365503
 42
-0.289684
 10
17.825031
 20
15.335537
 42
-0.095773
 10
17.846305
 20
15.244278
 42
-0.009516
 10
17.8506
 20
15.018612
 42
-0.037861
 10
17.83576
 20
14.822914
 42
-0.014358
 10
17.786653
 20
14.553177
 42
-0.014124
 10
17.716253
 20
14.26177
 42
-0.016766
 10
17.632908
 20
13.99121
 10
17.415215
 20
13.360498
 10
17.626801
 20
13.004099
 42
0.012127
 10
17.725418
 20
12.846808
 42
0.007698
 10
17.847474
 20
12.668267
 42
0.007731
 10
17.972776
 20
12.4966
 42
0.014171
 10
18.080908
 20
12.361318
 10
18.323429
 20
12.074935
 10
18.674936
 20
12.615118
 42
0.014048
 10
18.836138
 20
12.878763
 42
0.006349
 10
19.03319
 20
13.232708
 42
0.00628
 10
19.231862
 20
13.611784
 42
0.008538
 10
19.400918
 20
13.959
 42
0.011025
 10
19.554367
 20
14.308246
 42
0.008649
 10
19.705753
 20
14.693254
 42
0.00876
 10
19.834131
 20
15.056385
 42
0.021168
 10
19.912796
 20
15.329987
 42
0.02264
 10
19.965569
 20
15.600933
 42
0.010879
 10
20.009838
 20
15.952293
 42
0.010763
 10
20.0402
 20
16.321508
 42
0.015132
 10
20.0502
 20
16.651862
 42
0.006297
 10
20.046317
 20
16.960143
 42
0.006664
 10
20.034668
 20
17.26245
 42
0.006393
 10
20.017839
 20
17.522471
 42
0.030003
 10
19.997325
 20
17.670825
 42
0.018117
 10
19.973232
 20
17.772069
 42
0.027977
 10
19.94445
 20
17.857264
 42
0.026783
 10
19.915078
 20
17.920424
 42
0.282067
  0
LWPOLYLINE
  5
A92
330
1D
100
AcDbEntity
  8
0
100
AcDbPolyline
 90
       78
 70
     1
 43
0.0
 10
27.833591
 20
17.9352
 42
0.292301
 10
27.8014
 20
17.914623
 42
0.026031
 10
27.763923
 20
17.821128
 42
0.02749
 10
27.728638
 20
17.695693
 42
0.017602
 10
27.700934
 20
17.546869
 42
0.026804
 10
27.681291
 20
17.341285
 42
0.007608
 10
27.672796
 20
17.020127
 42
0.007641
 10
27.67427
 20
16.656572
 42
0.008017
 10
27.686921
 20
16.299019
 42
0.012133
 10
27.719674
 20
15.867006
 42
0.018695
 10
27.770965
 20
15.495838
 42
0.020521
 10
27.845241
 20
15.156912
 42
0.02019
 10
27.947386
 20
14.823344
 42
0.014792
 10
28.060574
 20
14.528995
 42
0.006452
 10
28.227302
 20
14.14496
 42
0.006378
 10
28.415013
 20
13.741275
 42
0.008459
 10
28.596633
 20
13.37919
 42
0.01263
 10
28.803151
 20
13.007458
 42
0.007394
 10
29.068118
 20
12.572504
 42
0.007391
 10
29.346265
 20
12.144903
 42
0.012454
 10
29.593641
 20
11.795746
 42
0.010212
 10
29.856716
 20
11.457989
 42
0.006052
 10
30.1834
 20
11.06559
 42
0.006055
 10
30.518951
 20
10.681829
 42
0.010359
 10
30.809325
 20
10.370947
 42
0.004507
 10
31.206483
 20
9.970309
 42
0.046824
 10
31.385664
 20
9.823276
 42
0.143856
 10
31.507858
 20
9.784425
 42
0.164904
 10
31.624274
 20
9.821047
 42
0.007836
 10
31.713856
 20
9.888769
 42
0.001699
 10
31.866321
 20
10.008666
 42
0.001771
 10
32.041838
 20
10.148674
 42
0.001694
 10
32.218994
 20
10.292008
 10
32.650447
 20
10.643517
 10
32.442208
 20
10.77996
 42
-0.035056
 10
32.331934
 20
10.863812
 42
-0.007361
 10
32.152044
 20
11.026403
 42
-0.007683
 10
31.948608
 20
11.22171
 42
-0.007209
 10
31.746835
 20
11.427314
 42
-0.013366
 10
31.528736
 20
11.668657
 42
-0.00735
 10
31.274291
 20
11.974811
 42
-0.007322
 10
31.025083
 20
12.293224
 42
-0.01163
 10
30.822236
 20
12.573683
 42
-0.014233
 10
30.638058
 20
12.858232
 42
-0.009966
 10
30.446279
 20
13.188526
 42
-0.010065
 10
30.275102
 20
13.51257
 42
-0.020593
 10
30.156693
 20
13.77442
 42
-0.020678
 10
30.066173
 20
14.028574
 42
-0.01386
 10
29.982952
 20
14.3257
 42
-0.013971
 10
29.918267
 20
14.618497
 42
-0.026612
 10
29.885518
 20
14.857319
 10
29.842422
 20
15.374938
 10
30.329585
 20
15.298543
 42
0.011267
 10
30.520031
 20
15.27306
 42
0.016384
 10
30.689
 20
15.259902
 42
0.011921
 10
30.827345
 20
15.256981
 42
0.197838
 10
30.869024
 20
15.274278
 42
0.173147
 10
30.889835
 20
15.318039
 42
0.006571
 10
30.905944
 20
15.500888
 42
0.01114
 10
30.917508
 20
15.72116
 42
0.007543
 10
30.9213
 20
15.972513
 10
30.9213
 20
16.618619
 10
30.461456
 20
16.721396
 42
-0.011219
 10
30.249405
 20
16.773812
 42
-0.005995
 10
29.98969
 20
16.847582
 42
-0.005965
 10
29.726225
 20
16.929275
 42
-0.00926
 10
29.501181
 20
17.00664
 42
-0.015034
 10
29.273836
 20
17.097366
 42
-0.008372
 10
29.002293
 20
17.220757
 42
-0.008345
 10
28.731491
 20
17.354908
 42
-0.013373
 10
28.505576
 20
17.479319
 42
-0.007349
 10
28.312181
 20
17.596517
 42
-0.009888
 10
28.140821
 20
17.708615
 42
-0.007307
 10
28.001592
 20
17.806691
 42
-0.097538
 10
27.959208
 20
17.852366
 42
0.058284
 10
27.934105
 20
17.884051
 42
0.050389
 10
27.901191
 20
17.910868
 42
0.052977
 10
27.865833
 20
17.929145
 42
0.093081
  0
LWPOLYLINE
  5
AE2
330
1D
100
AcDbEntity
  8
0
100
AcDbPolyline
 90
       62
 70
     1
 43
0.0
 10
7.582637
 20
17.6814
 42
0.207418
 10
7.552232
 20
17.66822
 42
0.008089
 10
7.468412
 20
17.575782
 42
0.01321
 10
7.371772
 20
17.459629
 42
0.008815
 10
7.267053
 20
17.32185
 42
0.010349
 10
7.156461
 20
17.164149
 42
0.00793
 10
7.041956
 20
16.987463
 42
0.008028
 10
6.940034
 20
16.818623
 42
0.018761
 10
6.87066
 20
16.688412
 42
0.013762
 10
6.822314
 20
16.581448
 42
0.021655
 10
6.787406
 20
16.486894
 42
0.017264
 10
6.765729
 20
16.410313
 42
0.299371
 10
6.773988
 20
16.387
 42
0.021385
 10
6.802251
 20
16.367421
 42
0.000273
 10
6.986018
 20
16.251562
 42
0.000796
 10
7.199001
 20
16.117919
 42
0.000522
 10
7.4448
 20
15.964586
 42
-0.009002
 10
7.709567
 20
15.793116
 42
-0.007857
 10
7.980422
 20
15.604445
 42
-0.007925
 10
8.219916
 20
15.426136
 42
-0.023131
 10
8.377195
 20
15.293098
 42
-0.013064
 10
8.513252
 20
15.159984
 42
-0.006637
 10
8.677675
 20
14.98592
 42
-0.006588
 10
8.842663
 20
14.801735
 42
-0.009788
 10
8.981784
 20
14.6358
 42
-0.017149
 10
9.120554
 20
14.450909
 42
-0.00828
 10
9.286006
 20
14.205398
 42
-0.0082
 10
9.450185
 20
13.943552
 42
-0.011657
 10
9.586759
 20
13.7052
 42
-0.016193
 10
9.71409
 20
13.451162
 42
-0.00955
 10
9.850389
 20
13.140242
 42
-0.009549
 10
9.974786
 20
12.824163
 42
-0.016111
 10
10.065358
 20
12.554139
 10
10.245676
 20
11.952979
 10
10.933487
 20
11.899938
 42
0.004968
 10
11.199583
 20
11.882076
 42
0.00773
 10
11.429283
 20
11.872508
 42
0.003088
 10
11.624805
 20
11.868598
 42
0.202506
 10
11.65544
 20
11.88104
 42
0.226038
 10
11.665832
 20
11.910343
 42
0.006127
 10
11.649635
 20
12.049263
 42
0.011565
 10
11.624298
 20
12.215281
 42
0.007529
 10
11.587736
 20
12.405771
 42
0.016428
 10
11.530794
 20
12.640955
 42
0.007158
 10
11.440528
 20
12.949385
 42
0.007074
 10
11.335204
 20
13.274628
 42
0.009363
 10
11.22962
 20
13.567461
 42
0.02063
 10
11.096576
 20
13.876927
 42
0.010353
 10
10.904588
 20
14.256772
 42
0.010262
 10
10.689482
 20
14.642038
 42
0.014951
 10
10.482994
 20
14.971653
 42
0.017029
 10
10.250202
 20
15.295269
 42
0.010289
 10
9.953863
 20
15.663058
 42
0.010302
 10
9.644125
 20
16.016631
 42
0.01777
 10
9.370282
 20
16.295922
 42
0.00916
 10
9.091408
 20
16.551271
 42
0.006347
 10
8.767254
 20
16.830104
 42
0.006402
 10
8.448936
 20
17.090095
 42
0.013073
 10
8.191369
 20
17.28425
 42
0.004137
 10
7.974299
 20
17.436453
 42
0.00629
 10
7.782975
 20
17.564737
 42
0.002657
 10
7.618103
 20
17.671059
 42
0.142821
  0
LWPOLYLINE
  5
B22
330
1D
100
AcDbEntity
  8
0
100
AcDbPolyline
 90
      120
 70
     1
 43
0.0
 10
40.1004
 20
17.67842
 42
0.162409
 10
40.071689
 20
17.670511
 42
0.002733
 10
39.933844
 20
17.576954
 42
0.006704
 10
39.77419
 20
17.464137
 42
0.004369
 10
39.5928
 20
17.329842
 42
0.006518
 10
39.378768
 20
17.164044
 42
0.003451
 10
39.117545
 20
16.953225
 42
0.003434
 10
38.853275
 20
16.733869
 42
0.005309
 10
38.62831
 20
16.540397
 10
38.129119
 20
16.101782
 10
37.549364
 20
16.701241
 42
0.005499
 10
37.217968
 20
17.036443
 42
0.045264
 10
37.052557
 20
17.172864
 42
0.142321
 10
36.947228
 20
17.207352
 42
0.236412
 10
36.864154
 20
17.169192
 42
-0.037661
 10
36.797753
 20
17.098082
 42
-0.006438
 10
36.659971
 20
16.974417
 42
-0.006989
 10
36.49393
 20
16.83325
 42
-0.006183
 10
36.317149
 20
16.690801
 10
35.875597
 20
16.343918
 10
36.152171
 20
16.132965
 42
-0.030252
 10
36.283377
 20
16.019713
 42
-0.011183
 10
36.45449
 20
15.845301
 42
-0.011036
 10
36.633242
 20
15.64613
 42
-0.013059
 10
36.792963
 20
15.449917
 10
37.157181
 20
14.977823
 10
36.771349
 20
14.193461
 42
0.013287
 10
36.61073
 20
13.843775
 42
0.009215
 10
36.447123
 20
13.440696
 42
0.0093
 10
36.304242
 20
13.047501
 42
0.018848
 10
36.209407
 20
12.7323
 42
0.016867
 10
36.138278
 20
12.415457
 42
0.008911
 10
36.070384
 20
12.018223
 42
0.008856
 10
36.015296
 20
11.6088
 42
0.013521
 10
35.983441
 20
11.2518
 42
0.013297
 10
35.971041
 20
10.901299
 42
0.009757
 10
35.97522
 20
10.512313
 42
0.009873
 10
35.993651
 20
10.144018
 42
0.021512
 10
36.025473
 20
9.863006
 42
0.014062
 10
36.068
 20
9.634371
 42
0.019242
 10
36.119902
 20
9.431531
 42
0.016309
 10
36.173844
 20
9.269621
 42
0.167288
 10
36.217896
 20
9.215778
 42
0.079356
 10
36.287088
 20
9.186915
 42
0.006762
 10
36.475343
 20
9.144167
 42
0.008816
 10
36.702712
 20
9.099935
 42
0.006714
 10
36.953136
 20
9.059245
 42
0.005816
 10
37.198947
 20
9.025602
 42
0.009036
 10
37.41172
 20
9.002896
 42
0.003964
 10
37.591871
 20
8.988396
 42
0.217795
 10
37.622982
 20
8.999982
 42
0.234156
 10
37.632626
 20
9.028568
 42
0.010799
 10
37.616187
 20
9.132925
 42
0.01603
 10
37.589198
 20
9.25961
 42
0.01062
 10
37.550505
 20
9.40321
 42
-0.042434
 10
37.50708
 20
9.617853
 42
-0.01036
 10
37.473143
 20
9.977509
 42
-0.010137
 10
37.450286
 20
10.407685
 42
-0.008143
 10
37.442627
 20
10.8711
 42
-0.006388
 10
37.450691
 20
11.514318
 42
-0.026507
 10
37.481059
 20
11.9013
 42
-0.034353
 10
37.548166
 20
12.23236
 42
-0.016352
 10
37.677272
 20
12.6477
 42
-0.004858
 10
37.771738
 20
12.911566
 42
-0.006896
 10
37.861241
 20
13.144184
 42
-0.004147
 10
37.940607
 20
13.3376
 42
-0.094275
 10
37.973679
 20
13.387459
 42
-0.507661
 10
38.008894
 20
13.382411
 42
-0.011041
 10
38.099716
 20
13.202194
 42
-0.015938
 10
38.204115
 20
12.963858
 42
-0.008953
 10
38.316381
 20
12.668359
 42
-0.000901
 10
38.426028
 20
12.361684
 42
-0.001265
 10
38.522731
 20
12.087467
 42
-0.000743
 10
38.60334
 20
11.85593
 42
-0.017142
 10
38.623969
 20
11.789066
 42
0.169026
 10
38.653909
 20
11.745289
 42
0.030894
 10
38.737536
 20
11.691181
 42
0.030138
 10
38.847856
 20
11.637584
 42
0.023372
 10
38.973527
 20
11.592384
 42
-0.007383
 10
39.128816
 20
11.542077
 42
-0.003236
 10
39.33313
 20
11.471059
 42
-0.003202
 10
39.54904
 20
11.392879
 42
-0.004281
 10
39.74389
 20
11.319009
 42
0.009315
 10
39.917954
 20
11.255016
 42
0.014464
 10
40.070561
 20
11.207015
 42
0.008649
 10
40.197431
 20
11.173465
 42
0.262444
 10
40.227991
 20
11.181991
 42
0.252228
 10
40.238026
 20
11.215467
 42
0.002281
 10
40.182335
 20
11.480042
 42
0.007045
 10
40.111673
 20
11.787199
 42
0.004408
 10
40.020734
 20
12.144801
 42
0.002649
 10
39.920228
 20
12.517899
 42
0.003037
 10
39.820148
 20
12.873271
 42
0.002738
 10
39.731799
 20
13.173647
 42
0.017355
 10
39.680761
 20
13.3245
 42
0.011164
 10
39.624824
 20
13.463229
 42
0.002506
 10
39.523112
 20
13.696855
 42
0.002598
 10
39.402924
 20
13.965396
 42
0.002513
 10
39.278619
 20
14.235692
 10
38.972283
 20
14.893085
 10
39.219091
 20
15.156617
 42
-0.030713
 10
39.35406
 20
15.284066
 42
-0.009728
 10
39.570232
 20
15.457409
 42
-0.009672
 10
39.819311
 20
15.641733
 42
-0.010608
 10
40.067882
 20
15.810525
 42
-0.001004
 10
40.309345
 20
15.966422
 42
-0.001207
 10
40.537023
 20
16.111997
 42
-0.00103
 10
40.72936
 20
16.233767
 42
-0.008111
 10
40.819624
 20
16.288628
 42
0.05246
 10
40.902185
 20
16.349425
 42
0.209994
 10
40.927041
 20
16.405494
 42
0.108726
 10
40.909826
 20
16.48497
 42
0.00981
 10
40.820879
 20
16.669328
 42
0.016674
 10
40.745305
 20
16.80685
 42
0.007659
 10
40.638201
 20
16.981089
 42
0.007576
 10
40.519801
 20
17.161167
 42
0.010393
 10
40.407537
 20
17.319234
 42
0.006855
 10
40.30298
 20
17.456186
 42
0.010419
 10
40.20807
 20
17.57198
 42
0.0054
 10
40.125627
 20
17.666313
 42
0.199736
  0
LWPOLYLINE
  5
B9C
330
1D
100
AcDbEntity
  8
0
100
AcDbPolyline
 90
       92
 70
     1
 43
0.0
 10
15.982858
 20
15.0588
 10
15.249845
 20
15.0588
 10
15.324447
 20
14.65695
 42
0.007887
 10
15.359898
 20
14.481462
 42
0.005631
 10
15.404878
 20
14.286164
 42
0.005687
 10
15.451983
 20
14.100915
 42
0.012098
 10
15.493495
 20
13.959
 42
0.009948
 10
15.544046
 20
13.810769
 42
0.003531
 10
15.622039
 20
13.600772
 42
0.003502
 10
15.710941
 20
13.371346
 42
0.004118
 10
15.798467
 20
13.1553
 42
0.016357
 10
15.904682
 20
12.921156
 42
0.008326
 10
16.052573
 20
12.633746
 42
0.008263
 10
16.215089
 20
12.342118
 42
0.012247
 10
16.367874
 20
12.092598
 42
0.016041
 10
16.54384
 20
11.838671
 42
0.00821
 10
16.779821
 20
11.531133
 42
0.008149
 10
17.033524
 20
11.22199
 42
0.012137
 10
17.266288
 20
10.960732
 42
0.024025
 10
17.568087
 20
10.667679
 42
0.00641
 10
18.07631
 20
10.230994
 42
0.006483
 10
18.667505
 20
9.748946
 42
0.006647
 10
19.266162
 20
9.286443
 42
-0.003695
 10
19.84075
 20
8.847926
 42
-0.004834
 10
20.359074
 20
8.438171
 42
-0.003604
 10
20.786953
 20
8.088023
 42
-0.044595
 10
20.936025
 20
7.939913
 42
-0.034108
 10
21.022483
 20
7.82166
 42
-0.020629
 10
21.109003
 20
7.671207
 42
-0.020621
 10
21.182911
 20
7.513966
 42
-0.033793
 10
21.230659
 20
7.374836
 42
-0.032173
 10
21.263138
 20
7.213543
 42
-0.035959
 10
21.273039
 20
7.055337
 42
-0.03543
 10
21.260174
 20
6.895309
 42
-0.029597
 10
21.224591
 20
6.728549
 42
-0.016465
 10
21.181048
 20
6.588939
 42
-0.013418
 10
21.125578
 20
6.442499
 42
-0.013634
 10
21.067166
 20
6.310347
 42
-0.03416
 10
21.015563
 20
6.21847
 42
-0.057864
 10
20.946717
 20
6.136007
 42
-0.020246
 10
20.830315
 20
6.034105
 42
-0.019792
 10
20.692024
 20
5.931356
 42
-0.021852
 10
20.550426
 20
5.843421
 42
-0.027665
 10
20.358025
 20
5.748881
 42
-0.049675
 10
20.190204
 20
5.696575
 42
-0.04886
 10
20.013476
 20
5.67791
 42
-0.02585
 10
19.793079
 20
5.687637
 42
-0.028889
 10
19.619351
 20
5.714525
 42
-0.023211
 10
19.436447
 20
5.762738
 42
-0.023785
 10
19.271194
 20
5.82338
 42
-0.053802
 10
19.154842
 20
5.887969
 42
-0.001128
 10
19.060347
 20
5.954936
 42
-0.001091
 10
18.965104
 20
6.023069
 42
-0.001077
 10
18.881535
 20
6.083401
 42
-0.004017
 10
18.829343
 20
6.121896
 42
0.24302
 10
18.758581
 20
6.133805
 42
0.033088
 10
18.614478
 20
6.076879
 42
0.028118
 10
18.424169
 20
5.973259
 42
0.012567
 10
18.185559
 20
5.816947
 42
-0.004797
 10
17.946945
 20
5.655277
 42
-0.00361
 10
17.681579
 20
5.48192
 42
-0.003649
 10
17.429649
 20
5.322509
 42
-0.008394
 10
17.23725
 20
5.207161
 10
16.8354
 20
4.975322
 10
16.8354
 20
4.391161
 10
16.8354
 20
3.807
 10
19.9656
 20
3.807
 10
23.0958
 20
3.807
 10
23.0958
 20
6.924634
 10
23.0958
 20
10.042268
 10
22.386257
 20
10.092342
 42
-0.011454
 10
22.075285
 20
10.121459
 42
-0.00806
 10
21.727014
 20
10.167836
 42
-0.008138
 10
21.395053
 20
10.223038
 42
-0.016871
 10
21.138407
 20
10.279028
 42
-0.021035
 10
20.88154
 20
10.355849
 42
-0.009153
 10
20.546992
 20
10.478335
 42
-0.009039
 10
20.195706
 20
10.621647
 42
-0.011896
 10
19.881
 20
10.76568
 42
-0.018634
 10
19.476586
 20
10.981532
 42
-0.029835
 10
19.150883
 20
11.198285
 42
-0.02542
 10
18.819182
 20
11.476356
 42
-0.00971
 10
18.38551
 20
11.895127
 42
-0.009745
 10
17.969861
 20
12.328984
 42
-0.02512
 10
17.692299
 20
12.662391
 42
-0.029493
 10
17.475988
 20
12.988941
 42
-0.018825
 10
17.26222
 20
13.391232
 42
-0.012663
 10
17.12209
 20
13.700472
 42
-0.010421
 10
16.987927
 20
14.037059
 42
-0.010562
 10
16.877659
 20
14.351444
 42
-0.027371
 10
16.815595
 20
14.583365
 10
16.715871
 20
15.0588
  0
LWPOLYLINE
  5
BFA
330
1D
100
AcDbEntity
  8
0
100
AcDbPolyline
 90
       36
 70
     1
 43
0.0
 10
8.939642
 20
14.414391
 10
8.663023
 20
14.742881
 10
8.351598
 20
14.061594
 42
0.011621
 10
8.217075
 20
13.748242
 42
0.006798
 10
8.069853
 20
13.367173
 42
0.006796
 10
7.932829
 20
12.981633
 42
0.011459
 10
7.829787
 20
12.654309
 42
0.007699
 10
7.740023
 20
12.325709
 42
0.004747
 10
7.644068
 20
11.936593
 42
0.00476
 10
7.55651
 20
11.550056
 42
0.008507
 10
7.492988
 20
11.230506
 42
0.007476
 10
7.443056
 20
10.929271
 42
0.005851
 10
7.397595
 20
10.600999
 42
0.005919
 10
7.362472
 20
10.294428
 42
0.014385
 10
7.345764
 20
10.0674
 10
7.324954
 20
9.6021
 10
7.786727
 20
9.418791
 42
0.010332
 10
7.985847
 20
9.344471
 42
0.008364
 10
8.202362
 20
9.27276
 42
0.008469
 10
8.404352
 20
9.213325
 42
0.021553
 10
8.553209
 20
9.179078
 10
8.857917
 20
9.122675
 10
8.862839
 20
9.954588
 42
-0.012378
 10
8.87395
 20
10.31676
 42
-0.009085
 10
8.903497
 20
10.71752
 42
-0.009191
 10
8.945356
 20
11.096022
 42
-0.020096
 10
8.994338
 20
11.383586
 42
-0.014327
 10
9.061265
 20
11.660006
 42
-0.007451
 10
9.159714
 20
12.000954
 42
-0.007402
 10
9.271283
 20
12.348282
 42
-0.011192
 10
9.379574
 20
12.646802
 10
9.638233
 20
13.312933
 10
9.427248
 20
13.699416
 42
0.015422
 10
9.326454
 20
13.871231
 42
0.009289
 10
9.196982
 20
14.068865
 42
0.009299
 10
9.060857
 20
14.2607
 42
0.01604
  0
LWPOLYLINE
  5
C20
330
1D
100
AcDbEntity
  8
0
100
AcDbPolyline
 90
      112
 70
     1
 43
0.0
 10
16.486233
 20
11.645306
 42
0.0656
 10
16.402928
 20
11.741184
 42
0.290225
 10
16.332457
 20
11.752521
 42
0.095791
 10
16.238711
 20
11.688878
 42
0.005165
 10
15.987279
 20
11.431158
 42
-0.009692
 10
15.81918
 20
11.261947
 42
-0.007149
 10
15.626856
 20
11.080969
 42
-0.007229
 10
15.440067
 20
10.915062
 42
-0.016019
 10
15.291928
 20
10.795326
 10
14.975157
 20
10.555648
 10
14.314854
 20
10.899175
 42
0.016014
 10
14.007413
 20
11.046813
 42
0.009043
 10
13.62608
 20
11.206954
 42
0.009019
 10
13.235208
 20
11.354733
 42
0.014613
 10
12.897325
 20
11.464534
 42
0.016064
 10
12.501817
 20
11.566727
 42
0.015782
 10
12.098227
 20
11.643997
 42
0.01503
 10
11.672295
 20
11.698621
 42
0.011917
 10
11.2095
 20
11.732772
 42
0.010353
 10
10.803442
 20
11.744601
 42
0.01051
 10
10.399281
 20
11.739506
 42
0.011029
 10
10.039023
 20
11.719426
 42
0.027085
 10
9.776213
 20
11.684561
 42
0.01526
 10
9.579319
 20
11.64124
 42
0.02029
 10
9.403583
 20
11.589246
 42
0.018022
 10
9.263672
 20
11.5359
 42
0.155461
 10
9.213586
 20
11.492956
 42
0.080136
 10
9.185648
 20
11.425689
 42
0.006456
 10
9.143523
 20
11.238015
 42
0.008578
 10
9.099774
 20
11.011434
 42
0.006482
 10
9.059245
 20
10.761264
 42
0.004677
 10
9.025099
 20
10.515932
 42
0.00737
 10
9.000871
 20
10.304705
 42
0.00267
 10
8.983802
 20
10.123887
 42
0.222092
 10
8.993088
 20
10.098312
 42
0.237566
 10
9.018555
 20
10.089903
 42
0.002804
 10
9.197741
 20
10.117567
 42
0.007715
 10
9.407051
 20
10.154405
 42
0.004874
 10
9.650117
 20
10.203524
 42
-0.019078
 10
9.983621
 20
10.261113
 42
-0.017375
 10
10.331112
 20
10.29531
 42
-0.016011
 10
10.70664
 20
10.307078
 42
-0.011612
 10
11.1249
 20
10.297074
 42
-0.013102
 10
11.552097
 20
10.265688
 42
-0.01767
 10
11.936119
 20
10.213576
 42
-0.018517
 10
12.30066
 20
10.136926
 42
-0.017048
 10
12.66885
 20
10.031703
 42
-0.009091
 10
12.936381
 20
9.939876
 42
-0.014377
 10
13.161777
 20
9.850484
 42
-0.008295
 10
13.34297
 20
9.768935
 42
-0.290614
 10
13.3668
 20
9.731398
 42
-0.257316
 10
13.346344
 20
9.694281
 42
-0.016693
 10
13.236331
 20
9.629822
 42
-0.020975
 10
13.092849
 20
9.559682
 42
-0.013838
 10
12.92265
 20
9.490702
 42
-0.004465
 10
12.725713
 20
9.419159
 42
-0.003046
 10
12.500659
 20
9.341207
 42
-0.00307
 10
12.28269
 20
9.268684
 42
-0.006184
 10
12.109784
 20
9.214686
 42
0.029233
 10
11.951889
 20
9.157269
 42
0.042969
 10
11.821889
 20
9.087408
 42
0.051124
 10
11.726589
 20
9.01016
 42
0.10638
 10
11.674785
 20
8.930313
 42
0.001236
 10
11.636068
 20
8.827791
 42
0.000194
 10
11.560412
 20
8.625706
 42
0.000216
 10
11.471424
 20
8.387414
 42
0.000188
 10
11.378509
 20
8.137993
 42
0.005536
 10
11.292541
 20
7.898887
 42
0.008855
 10
11.225033
 20
7.692668
 42
0.003387
 10
11.172097
 20
7.516487
 42
0.276793
 10
11.179007
 20
7.489974
 42
0.250299
 10
11.206984
 20
7.48177
 42
0.001454
 10
11.481529
 20
7.539764
 42
0.005573
 10
11.797144
 20
7.611081
 42
0.003459
 10
12.166049
 20
7.701475
 42
0.013535
 10
12.597343
 20
7.82283
 42
0.008004
 10
13.105403
 20
7.989708
 42
0.008005
 10
13.607579
 20
8.172662
 42
0.013603
 10
14.02061
 20
8.343692
 10
14.918622
 20
8.744498
 10
15.330418
 20
8.296651
 42
-0.017732
 10
15.510636
 20
8.086142
 42
-0.010302
 10
15.71255
 20
7.821616
 42
-0.01029
 10
15.904229
 20
7.547822
 42
-0.017065
 10
16.053027
 20
7.308402
 42
0.006952
 10
16.17602
 20
7.101273
 42
0.010842
 10
16.288243
 20
6.926743
 42
0.005252
 10
16.38678
 20
6.783826
 42
0.243835
 10
16.417303
 20
6.768
 42
0.133596
 10
16.453708
 20
6.777904
 42
0.002863
 10
16.614236
 20
6.873467
 42
0.006385
 10
16.801107
 20
6.989447
 42
0.004238
 10
17.012634
 20
7.127038
 42
0.000628
 10
17.225595
 20
7.26853
 42
0.000858
 10
17.417094
 20
7.396585
 42
0.000557
 10
17.577688
 20
7.504632
 42
0.009953
 10
17.628601
 20
7.540464
 42
0.313253
 10
17.643032
 20
7.582525
 42
0.032002
 10
17.605893
 20
7.687305
 42
0.03094
 10
17.539799
 20
7.818565
 42
0.019268
 10
17.447238
 20
7.963976
 42
0.01254
 10
17.31251
 20
8.148575
 42
0.004227
 10
17.107181
 20
8.410963
 42
0.004202
 10
16.875126
 20
8.697419
 42
0.004805
 10
16.648334
 20
8.967291
 10
16.104896
 20
9.601482
 10
16.702798
 20
10.1664
 10
17.3007
 20
10.731318
 10
16.953654
 20
11.097309
 42
-0.006661
 10
16.81196
 20
11.250781
 42
-0.006495
 10
16.673192
 20
11.409254
 42
-0.006423
 10
16.554924
 20
11.551572
 42
-0.024052
  0
LWPOLYLINE
  5
C92
330
1D
100
AcDbEntity
  8
0
100
AcDbPolyline
 90
       72
 70
     1
 43
0.0
 10
29.360189
 20
11.765332
 42
0.311761
 10
29.329546
 20
11.771592
 42
0.038084
 10
29.265369
 20
11.73826
 42
0.034321
 10
29.18681
 20
11.681726
 42
0.021241
 10
29.1024
 20
11.605442
 42
-0.024797
 10
28.988754
 20
11.504196
 42
-0.00799
 10
28.810753
 20
11.365421
 42
-0.007947
 10
28.607503
 20
11.217126
 42
-0.008827
 10
28.40656
 20
11.080602
 42
-0.01556
 10
28.182322
 20
10.943734
 42
-0.009209
 10
27.906991
 20
10.793865
 42
-0.00921
 10
27.626426
 20
10.654287
 42
-0.015609
 10
27.386036
 20
10.549233
 42
-0.015433
 10
27.134296
 20
10.457362
 42
-0.008191
 10
26.81737
 20
10.358394
 42
-0.008144
 10
26.489758
 20
10.267721
 42
-0.012508
 10
26.203092
 20
10.200992
 42
-0.012078
 10
25.921171
 20
10.149826
 42
-0.009051
 10
25.608589
 20
10.106643
 42
-0.009163
 10
25.312702
 20
10.0767
 42
-0.020635
 10
25.087467
 20
10.0674
 10
24.6186
 20
10.0674
 10
24.6186
 20
6.9372
 10
24.6186
 20
3.807
 10
27.7488
 20
3.807
 10
30.879
 20
3.807
 10
30.879
 20
4.393445
 10
30.879
 20
4.979889
 10
30.197428
 20
5.385317
 42
-0.006169
 10
29.91684
 20
5.556945
 42
-0.005964
 10
29.637373
 20
5.737348
 42
-0.005907
 10
29.395176
 20
5.901968
 42
-0.021714
 10
29.247959
 20
6.014396
 10
28.980062
 20
6.238046
 10
28.651832
 20
5.974273
 42
-0.026826
 10
28.45269
 20
5.831108
 42
-0.06715
 10
28.290712
 20
5.755726
 42
-0.058656
 10
28.101812
 20
5.720513
 42
-0.016781
 10
27.803551
 20
5.7105
 42
-0.016805
 10
27.529942
 20
5.719698
 42
-0.044419
 10
27.33657
 20
5.75011
 42
-0.056078
 10
27.179206
 20
5.80877
 42
-0.043823
 10
27.024248
 20
5.905154
 42
-0.029431
 10
26.913557
 20
5.998932
 42
-0.018458
 10
26.79513
 20
6.120537
 42
-0.018516
 10
26.687026
 20
6.249344
 42
-0.03192
 10
26.608326
 20
6.36503
 42
-0.045924
 10
26.542328
 20
6.504571
 42
-0.034026
 10
26.494822
 20
6.668562
 42
-0.031701
 10
26.467258
 20
6.850241
 42
-0.027497
 10
26.461053
 20
7.042857
 42
-0.030078
 10
26.476009
 20
7.222823
 42
-0.023954
 10
26.512997
 20
7.414169
 42
-0.024588
 10
26.565391
 20
7.591027
 42
-0.047373
 10
26.627173
 20
7.725081
 42
-0.054759
 10
26.727596
 20
7.861108
 42
-0.012818
 10
26.925311
 20
8.064607
 42
-0.013062
 10
27.166242
 20
8.288182
 42
-0.012495
 10
27.422037
 20
8.5023
 42
-0.00387
 10
27.727212
 20
8.741213
 42
-0.001832
 10
28.1242
 20
9.044767
 42
-0.001816
 10
28.541894
 20
9.359351
 42
-0.002568
 10
28.916265
 20
9.636196
 42
0.004858
 10
29.260579
 20
9.893263
 42
0.005428
 10
29.587217
 20
10.147763
 42
0.005024
 10
29.860809
 20
10.370278
 42
0.028499
 10
29.998194
 20
10.498222
 10
30.224038
 20
10.733952
 10
29.815258
 20
11.225526
 42
0.000691
 10
29.655278
 20
11.417368
 42
0.000992
 10
29.51296
 20
11.586868
 42
0.000524
 10
29.391976
 20
11.730074
 42
0.015581
  0
LWPOLYLINE
  5
CDC
330
1D
100
AcDbEntity
  8
0
100
AcDbPolyline
 90
       62
 70
     1
 43
0.0
 10
35.734134
 20
11.664986
 42
0.013366
 10
35.660738
 20
11.658507
 42
0.007404
 10
35.571549
 20
11.646884
 42
0.007379
 10
35.48149
 20
11.632428
 42
0.011796
 10
35.4051
 20
11.617141
 42
0.014702
 10
35.303139
 20
11.591052
 42
0.001895
 10
35.086793
 20
11.527975
 42
0.002212
 10
34.830634
 20
11.451002
 42
0.001844
 10
34.5591
 20
11.367001
 42
0.013901
 10
34.259935
 20
11.264027
 42
0.009001
 10
33.919577
 20
11.129146
 42
0.00905
 10
33.591572
 20
10.985255
 42
0.016897
 10
33.3324
 20
10.855134
 42
0.014213
 10
33.084298
 20
10.710597
 42
0.008013
 10
32.791355
 20
10.522019
 42
0.007992
 10
32.501628
 20
10.322114
 42
0.012966
 10
32.262746
 20
10.142062
 42
0.012364
 10
32.0297
 20
9.947145
 42
0.007051
 10
31.757413
 20
9.700825
 42
0.007038
 10
31.490192
 20
9.445036
 42
0.01157
 10
31.272331
 20
9.220378
 42
0.009902
 10
31.063319
 20
8.985454
 42
0.005884
 10
30.823238
 20
8.697817
 42
0.005888
 10
30.590523
 20
8.405271
 42
0.010105
 10
30.404429
 20
8.155324
 10
30.007187
 20
7.598639
 10
30.252743
 20
7.396044
 42
0.014153
 10
30.371883
 20
7.303288
 42
0.006746
 10
30.529998
 20
7.190473
 42
0.006681
 10
30.698493
 20
7.076954
 42
0.009438
 10
30.851765
 20
6.980725
 42
0.009885
 10
30.993392
 20
6.899259
 42
0.012792
 10
31.126581
 20
6.830488
 42
0.010548
 10
31.239652
 20
6.778636
 42
0.102574
 10
31.290954
 20
6.768
 42
0.233137
 10
31.336716
 20
6.790564
 42
0.012889
 10
31.433274
 20
6.92332
 42
0.01775
 10
31.542178
 20
7.094141
 42
0.011859
 10
31.65507
 20
7.29675
 42
-0.030734
 10
31.818609
 20
7.565851
 42
-0.01666
 10
32.050229
 20
7.876395
 42
-0.015175
 10
32.333037
 20
8.2091
 42
-0.012483
 10
32.654081
 20
8.547001
 42
-0.012046
 10
33.013785
 20
8.890198
 42
-0.018311
 10
33.343827
 20
9.168873
 42
-0.020728
 10
33.657404
 20
9.394229
 42
-0.025837
 10
33.9669
 20
9.57558
 42
-0.014094
 10
34.238102
 20
9.706646
 42
-0.008578
 10
34.565313
 20
9.846859
 42
-0.008593
 10
34.894793
 20
9.974842
 42
-0.015015
 10
35.17245
 20
10.067869
 42
0.007013
 10
35.558557
 20
10.190395
 42
0.07844
 10
35.701297
 20
10.264322
 42
0.171286
 10
35.765421
 20
10.358641
 42
0.063849
 10
35.786535
 20
10.51979
 42
-0.013311
 10
35.790439
 20
10.652633
 42
-0.004985
 10
35.802726
 20
10.838623
 42
-0.004935
 10
35.820138
 20
11.041056
 42
-0.005967
 10
35.840619
 20
11.23065
 42
0.008132
 10
35.867732
 20
11.492231
 42
0.082044
 10
35.859364
 20
11.601111
 42
0.235881
 10
35.81737
 20
11.650593
 42
0.116803
  0
LWPOLYLINE
  5
D1C
330
1D
100
AcDbEntity
  8
0
100
AcDbPolyline
 90
       36
 70
     1
 43
0.0
 10
37.825138
 20
11.6748
 10
37.5624
 20
11.6748
 10
37.5624
 20
10.967484
 10
37.5624
 20
10.260168
 10
37.987628
 20
10.209806
 42
-0.033998
 10
38.200888
 20
10.169708
 42
-0.011522
 10
38.504739
 20
10.083364
 42
-0.011398
 10
38.837132
 20
9.972213
 42
-0.012857
 10
39.150878
 20
9.850085
 42
0.008581
 10
39.447528
 20
9.73168
 42
0.01054
 10
39.728514
 20
9.631803
 42
0.009113
 10
39.966738
 20
9.557532
 42
0.072024
 10
40.080926
 20
9.541417
 42
0.114063
 10
40.183316
 20
9.565472
 42
0.021583
 10
40.352733
 20
9.658257
 42
0.022045
 10
40.544993
 20
9.786511
 42
0.018658
 10
40.736576
 20
9.938196
 42
0.007292
 10
40.914243
 20
10.094522
 42
0.010985
 10
41.06401
 20
10.236338
 42
0.006032
 10
41.184818
 20
10.358794
 42
0.194021
 10
41.2002
 20
10.396941
 42
0.252294
 10
41.181395
 20
10.431837
 42
0.005968
 10
41.020028
 20
10.53534
 42
0.011712
 10
40.821939
 20
10.652728
 42
0.007505
 10
40.58685
 20
10.780099
 42
0.007154
 10
40.321047
 20
10.914185
 42
0.005627
 10
40.029415
 20
11.052067
 42
0.005692
 10
39.755404
 20
11.174108
 42
0.013949
 10
39.5505
 20
11.255885
 42
0.009301
 10
39.351327
 20
11.324827
 42
0.004759
 10
39.099062
 20
11.404277
 42
0.004727
 10
38.837533
 20
11.481222
 42
0.007086
 10
38.607688
 20
11.542986
 42
0.010585
 10
38.389404
 20
11.593446
 42
0.009784
 10
38.163392
 20
11.63608
 42
0.009823
 10
37.960687
 20
11.666141
 42
0.031907
  0
LWPOLYLINE
  5
D42
330
1D
100
AcDbEntity
  8
0
100
AcDbPolyline
 90
       68
 70
     1
 43
0.0
 10
7.200854
 20
10.824861
 42
0.087583
 10
7.165987
 20
10.815954
 42
0.00349
 10
7.046406
 20
10.76085
 42
0.00606
 10
6.9055
 20
10.692627
 42
0.00424
 10
6.748312
 20
10.612483
 42
-0.023811
 10
6.554289
 20
10.522942
 42
-0.011374
 10
6.297363
 20
10.425643
 42
-0.011247
 10
6.023875
 20
10.335989
 42
-0.015716
 10
5.775412
 20
10.269133
 42
-0.019144
 10
5.506193
 20
10.21648
 42
-0.00988
 10
5.166096
 20
10.170251
 42
-0.009806
 10
4.813998
 20
10.136442
 42
-0.014638
 10
4.505096
 20
10.121962
 10
3.807292
 20
10.1097
 10
3.807146
 20
6.95835
 10
3.807
 20
3.807
 10
6.95896
 20
3.807
 10
10.110919
 20
3.807
 10
10.081167
 20
4.181089
 42
0.036189
 10
10.046111
 20
4.410379
 42
0.110962
 10
9.978852
 20
4.551383
 42
0.072866
 10
9.84198
 20
4.681271
 42
0.009922
 10
9.514019
 20
4.902719
 42
-0.021097
 10
9.277304
 20
5.070375
 42
-0.012527
 10
9.009208
 20
5.288726
 42
-0.012526
 10
8.752313
 20
5.520294
 42
-0.021046
 10
8.550151
 20
5.728752
 10
8.123677
 20
6.207245
 10
7.932288
 20
6.036014
 42
-0.030958
 10
7.83915
 20
5.962532
 42
-0.016539
 10
7.715885
 20
5.883
 42
-0.016406
 10
7.584205
 20
5.809841
 42
-0.02455
 10
7.464353
 20
5.755566
 42
-0.04326
 10
7.330515
 20
5.715677
 42
-0.026097
 10
7.166752
 20
5.690756
 42
-0.025551
 10
6.995224
 20
5.682561
 42
-0.032507
 10
6.837178
 20
5.693379
 42
-0.031068
 10
6.687287
 20
5.723054
 42
-0.023325
 10
6.526802
 20
5.773439
 42
-0.023778
 10
6.379753
 20
5.835332
 42
-0.048884
 10
6.272952
 20
5.899881
 42
-0.023197
 10
6.179193
 20
5.976904
 42
-0.013454
 10
6.073603
 20
6.077464
 42
-0.01343
 10
5.972948
 20
6.184212
 42
-0.021965
 10
5.894264
 20
6.280475
 42
-0.058486
 10
5.827965
 20
6.395073
 42
-0.024808
 10
5.765665
 20
6.561576
 42
-0.024134
 10
5.716075
 20
6.747852
 42
-0.02904
 10
5.688307
 20
6.926904
 42
-0.024488
 10
5.677178
 20
7.1644
 42
-0.054966
 10
5.697315
 20
7.3435
 42
-0.054085
 10
5.756258
 20
7.515669
 42
-0.023048
 10
5.869751
 20
7.731555
 42
-0.039399
 10
5.999864
 20
7.918176
 42
-0.011968
 10
6.225198
 20
8.179521
 42
-0.011904
 10
6.492672
 20
8.461344
 42
-0.012712
 10
6.767604
 20
8.723851
 42
0.004166
 10
7.182257
 20
9.106433
 42
0.051134
 10
7.323332
 20
9.268882
 42
0.177296
 10
7.353141
 20
9.380058
 42
0.16307
 10
7.305578
 20
9.488816
 42
-0.088841
 10
7.239461
 20
9.594662
 42
-0.063679
 10
7.204337
 20
9.729993
 42
-0.039086
 10
7.194854
 20
9.924873
 42
-0.01048
 10
7.210509
 20
10.234814
 42
0.008154
 10
7.223061
 20
10.462308
 42
0.013795
 10
7.225204
 20
10.653159
 42
0.007522
 10
7.220352
 20
10.807605
 42
0.422715
  0
LWPOLYLINE
  5
D88
330
1D
100
AcDbEntity
  8
0
100
AcDbPolyline
 90
       36
 70
     1
 43
0.0
 10
10.9557
 20
10.152
 10
10.2366
 20
10.152
 10
10.2366
 20
9.908999
 42
-0.048109
 10
10.223697
 20
9.775207
 42
-0.010249
 10
10.17427
 20
9.546438
 42
-0.010629
 10
10.105641
 20
9.282663
 42
-0.009934
 10
10.024414
 20
9.015984
 42
-0.007404
 10
9.930678
 20
8.742622
 42
-0.00642
 10
9.824486
 20
8.458763
 42
-0.006472
 10
9.721679
 20
8.204157
 42
-0.018761
 10
9.64177
 20
8.031845
 42
0.016326
 10
9.548698
 20
7.833682
 42
0.080286
 10
9.518682
 20
7.714246
 42
0.104747
 10
9.531894
 20
7.607148
 42
0.037783
 10
9.592952
 20
7.465509
 42
0.027352
 10
9.660636
 20
7.351883
 42
0.009541
 10
9.769893
 20
7.195894
 42
0.009443
 10
9.896924
 20
7.028435
 42
0.010877
 10
10.024489
 20
6.87375
 42
0.009687
 10
10.147954
 20
6.735992
 42
0.014094
 10
10.262489
 20
6.619818
 42
0.009558
 10
10.361163
 20
6.528775
 42
0.183541
 10
10.399529
 20
6.5142
 42
0.26241
 10
10.435956
 20
6.534731
 42
0.00426
 10
10.560245
 20
6.744074
 42
0.009868
 10
10.70078
 20
6.996783
 42
0.006236
 10
10.855165
 20
7.29675
 42
0.013206
 10
11.020342
 20
7.650878
 42
0.008485
 10
11.193979
 20
8.069654
 42
0.008527
 10
11.35009
 20
8.485619
 42
0.015807
 10
11.460228
 20
8.829014
 42
0.009086
 10
11.542368
 20
9.137063
 42
0.009563
 10
11.611769
 20
9.442699
 42
0.009261
 10
11.661642
 20
9.708258
 42
0.041804
 10
11.6748
 20
9.865364
 10
11.6748
 20
10.152
  0
LWPOLYLINE
  5
DAE
330
1D
100
AcDbEntity
  8
0
100
AcDbPolyline
 90
       72
 70
     1
 43
0.0
 10
43.54785
 20
10.065067
 42
0.036607
 10
43.32565
 20
10.047327
 42
0.121423
 10
43.191254
 20
9.991372
 42
0.07829
 10
43.067431
 20
9.865793
 42
0.009784
 10
42.8499
 20
9.549548
 42
-0.020854
 10
42.684594
 20
9.320267
 42
-0.011527
 10
42.464925
 20
9.053796
 42
-0.011477
 10
42.229476
 20
8.793555
 42
-0.018085
 10
42.014548
 20
8.582525
 10
41.517597
 20
8.128686
 10
41.736232
 20
7.868853
 42
-0.035824
 10
41.823995
 20
7.747948
 42
-0.024249
 10
41.906823
 20
7.599098
 42
-0.024483
 10
41.973145
 20
7.446645
 42
-0.044013
 10
42.009949
 20
7.31541
 42
-0.028953
 10
42.027098
 20
7.181695
 42
-0.017418
 10
42.03267
 20
7.0218
 42
-0.017418
 10
42.027098
 20
6.861905
 42
-0.028953
 10
42.009949
 20
6.72819
 42
-0.043947
 10
41.973174
 20
6.596989
 42
-0.024485
 10
41.906948
 20
6.444651
 42
-0.024255
 10
41.824257
 20
6.295962
 42
-0.035882
 10
41.736657
 20
6.175252
 42
-0.025475
 10
41.635619
 20
6.066892
 42
-0.018108
 10
41.512186
 20
5.955716
 42
-0.018344
 10
41.386322
 20
5.857972
 42
-0.036609
 10
41.278924
 20
5.792061
 42
-0.044862
 10
41.162462
 20
5.744518
 42
-0.022365
 10
41.008133
 20
5.704584
 42
-0.022003
 10
40.843423
 20
5.677246
 42
-0.030129
 10
40.693431
 20
5.6682
 42
-0.037187
 10
40.538163
 20
5.679764
 42
-0.022406
 10
40.356886
 20
5.715282
 42
-0.022377
 10
40.178896
 20
5.767049
 42
-0.036102
 10
40.03358
 20
5.828479
 42
-0.042521
 10
39.881413
 20
5.923268
 42
-0.013989
 10
39.67454
 20
6.087191
 42
-0.013821
 10
39.454145
 20
6.282724
 42
-0.015221
 10
39.252084
 20
6.484129
 42
-0.004114
 10
39.058736
 20
6.69236
 42
-0.00385
 10
38.864473
 20
6.908375
 42
-0.003834
 10
38.694983
 20
7.102772
 42
-0.013142
 10
38.589209
 20
7.232745
 42
0.010276
 10
38.464427
 20
7.387881
 42
0.144235
 10
38.405468
 20
7.427049
 42
0.275519
 10
38.353045
 20
7.414341
 42
0.040999
 10
38.278925
 20
7.328685
 42
-0.09988
 10
38.191161
 20
7.248496
 42
-0.092599
 10
38.076818
 20
7.205907
 42
-0.048189
 10
37.897687
 20
7.192342
 42
-0.00893
 10
37.567051
 20
7.205106
 42
0.010069
 10
37.303468
 20
7.21468
 42
0.028642
 10
37.119934
 20
7.207133
 42
0.039017
 10
37.000911
 20
7.185922
 42
0.341531
 10
36.9702
 20
7.146206
 42
0.079955
 10
36.978933
 20
7.091942
 42
0.010681
 10
37.017764
 20
6.982343
 42
0.012128
 10
37.070122
 20
6.853549
 42
0.009926
 10
37.132121
 20
6.718443
 42
-0.020232
 10
37.20371
 20
6.553556
 42
-0.008792
 10
37.286009
 20
6.329195
 42
-0.008683
 10
37.365255
 20
6.08733
 42
-0.011428
 10
37.428618
 20
5.86396
 42
-0.018768
 10
37.484142
 20
5.610935
 42
-0.008173
 10
37.539692
 20
5.271335
 42
-0.008075
 10
37.587041
 20
4.908163
 42
-0.010659
 10
37.617765
 20
4.575807
 10
37.672336
 20
3.807
 10
40.789868
 20
3.807
 10
43.9074
 20
3.807
 10
43.9074
 20
6.9372
 10
43.9074
 20
10.0674
  0
LWPOLYLINE
  5
DF8
330
1D
100
AcDbEntity
  8
0
100
AcDbPolyline
 90
       52
 70
     1
 43
0.0
 10
38.912019
 20
9.8136
 42
0.323442
 10
38.880583
 20
9.790888
 42
0.030987
 10
38.855082
 20
9.694075
 42
0.030258
 10
38.837221
 20
9.562675
 42
0.018653
 10
38.8314
 20
9.406707
 42
-0.029009
 10
38.819586
 20
9.203258
 42
-0.010471
 10
38.780024
 20
8.916175
 42
-0.010345
 10
38.723464
 20
8.60282
 42
-0.012106
 10
38.656503
 20
8.308191
 42
0.006411
 10
38.561583
 20
7.911503
 42
0.040002
 10
38.532034
 20
7.70493
 42
0.080524
 10
38.545754
 20
7.566204
 42
0.08816
 10
38.602728
 20
7.443643
 42
0.020215
 10
38.671886
 20
7.352942
 42
0.005028
 10
38.792414
 20
7.210401
 42
0.005132
 10
38.933768
 20
7.049961
 42
0.005132
 10
39.078383
 20
6.892459
 42
0.009204
 10
39.219317
 20
6.747534
 42
0.013345
 10
39.349396
 20
6.625314
 42
0.008916
 10
39.461105
 20
6.529347
 42
0.174724
 10
39.503128
 20
6.5142
 42
0.163942
 10
39.538058
 20
6.525969
 42
0.031161
 10
39.589576
 20
6.570456
 42
0.030282
 10
39.645633
 20
6.632386
 42
0.023773
 10
39.698822
 20
6.705709
 42
0.036065
 10
39.76102
 20
6.817443
 42
0.007414
 10
39.853282
 20
7.023484
 42
0.007765
 10
39.953421
 20
7.266642
 42
0.007234
 10
40.048437
 20
7.518567
 42
0.018119
 10
40.139204
 20
7.801967
 42
0.011122
 10
40.226469
 20
8.141624
 42
0.011146
 10
40.297938
 20
8.482027
 42
0.019483
 10
40.339765
 20
8.767077
 42
0.005679
 10
40.363002
 20
9.009969
 42
0.008788
 10
40.376994
 20
9.220239
 42
0.003867
 10
40.384319
 20
9.398211
 42
0.207607
 10
40.37214
 20
9.42906
 42
0.229978
 10
40.347505
 20
9.437589
 42
0.02834
 10
40.289866
 20
9.427371
 42
0.028864
 10
40.218712
 20
9.40615
 42
0.019997
 10
40.140955
 20
9.374412
 42
-0.053797
 10
40.031093
 20
9.338
 42
-0.095052
 10
39.935922
 20
9.33581
 42
-0.079289
 10
39.835283
 20
9.369694
 42
-0.028511
 10
39.705246
 20
9.447646
 42
0.013703
 10
39.596403
 20
9.517353
 42
0.008822
 10
39.466698
 20
9.592408
 42
0.008867
 10
39.337109
 20
9.661396
 42
0.016456
 10
39.229269
 20
9.711975
 42
0.01122
 10
39.132763
 20
9.75088
 42
0.012692
 10
39.038467
 20
9.783748
 42
0.011967
 10
38.957245
 20
9.807638
 42
0.065628
  0
LWPOLYLINE
  5
E2E
330
1D
100
AcDbEntity
  8
0
100
AcDbPolyline
 90
       42
 70
     1
 43
0.0
 10
34.391487
 20
9.6444
 42
0.133564
 10
34.382872
 20
9.642057
 42
0.000192
 10
34.237943
 20
9.556849
 42
0.001568
 10
34.075581
 20
9.46062
 42
0.000965
 10
33.884989
 20
9.346352
 42
0.010522
 10
33.680586
 20
9.21733
 42
0.009649
 10
33.475715
 20
9.076146
 42
0.009697
 10
33.297806
 20
8.943106
 42
0.030989
 10
33.186762
 20
8.845035
 10
32.983493
 20
8.641765
 10
33.390596
 20
8.458025
 42
0.005587
 10
33.584969
 20
8.372899
 42
0.00265
 10
33.837198
 20
8.267352
 42
0.002626
 10
34.102187
 20
8.159738
 42
0.003718
 10
34.339263
 20
8.066946
 42
0.012205
 10
34.603922
 20
7.972961
 42
0.005257
 10
34.961003
 20
7.86003
 42
0.005198
 10
35.343854
 20
7.747699
 42
0.006849
 10
35.695331
 20
7.653707
 42
0.012058
 10
36.06467
 20
7.569762
 42
0.007406
 10
36.503329
 20
7.48787
 42
0.007423
 10
36.940005
 20
7.41968
 42
0.013138
 10
37.302192
 20
7.37829
 10
38.094548
 20
7.308774
 10
38.286224
 20
7.736337
 42
0.016331
 10
38.36366
 20
7.925376
 42
0.011889
 10
38.437785
 20
8.140139
 42
0.012035
 10
38.498399
 20
8.347416
 42
0.025701
 10
38.533011
 20
8.510576
 10
38.588122
 20
8.857252
 10
37.758011
 20
8.859527
 42
-0.0137
 10
37.352366
 20
8.871757
 42
-0.014121
 10
36.952089
 20
8.906176
 42
-0.01444
 10
36.56352
 20
8.962082
 42
-0.016126
 10
36.193001
 20
9.038744
 42
-0.009349
 10
35.873079
 20
9.12213
 42
-0.006724
 10
35.519014
 20
9.226676
 42
-0.006794
 10
35.184704
 20
9.335298
 42
-0.014556
 10
34.930565
 20
9.430043
 42
0.000714
 10
34.727485
 20
9.512224
 42
0.001158
 10
34.554602
 20
9.581433
 42
0.000144
 10
34.40041
 20
9.642694
 42
0.094755
  0
LWPOLYLINE
  5
E5A
330
1D
100
AcDbEntity
  8
0
100
AcDbPolyline
 90
       48
 70
     1
 43
0.0
 10
7.781608
 20
9.189861
 42
0.094919
 10
7.655291
 20
9.192243
 42
0.074714
 10
7.52511
 20
9.149166
 42
0.047617
 10
7.367627
 20
9.049579
 42
0.014123
 10
7.147108
 20
8.868582
 42
0.000606
 10
6.974318
 20
8.718027
 42
0.000625
 10
6.803609
 20
8.568544
 42
0.000603
 10
6.655954
 20
8.438608
 42
0.002666
 10
6.569513
 20
8.361532
 42
0.021125
 10
6.47693
 20
8.270714
 42
0.230947
 10
6.462005
 20
8.222269
 42
0.196578
 10
6.489948
 20
8.175998
 42
0.015042
 10
6.611813
 20
8.090966
 42
0.019297
 10
6.714253
 20
8.029484
 42
0.006826
 10
6.865381
 20
7.949203
 42
0.006763
 10
7.033961
 20
7.865444
 42
0.007899
 10
7.196295
 20
7.790639
 42
0.014761
 10
7.379739
 20
7.715985
 42
0.007407
 10
7.615465
 20
7.632028
 42
0.007347
 10
7.862037
 20
7.552323
 42
0.010788
 10
8.08122
 20
7.490155
 42
0.017938
 10
8.305047
 20
7.440353
 42
0.011758
 10
8.565923
 20
7.398374
 42
0.011834
 10
8.822275
 20
7.369447
 42
0.022178
 10
9.030651
 20
7.3602
 42
0.006306
 10
9.310249
 20
7.363726
 42
0.102703
 10
9.401166
 20
7.385005
 42
0.346589
 10
9.425507
 20
7.433053
 42
0.073397
 10
9.391505
 20
7.527709
 42
-0.106795
 10
9.360264
 20
7.636923
 42
-0.077025
 10
9.371425
 20
7.763548
 42
-0.045083
 10
9.430584
 20
7.93527
 42
-0.011402
 10
9.557729
 20
8.202096
 42
0.0064
 10
9.65574
 20
8.402595
 42
0.008768
 10
9.738438
 20
8.585639
 42
0.006097
 10
9.802797
 20
8.740179
 42
0.095897
 10
9.8136
 20
8.795987
 42
0.298965
 10
9.791388
 20
8.829816
 42
0.0417
 10
9.707982
 20
8.857958
 42
0.03648
 10
9.591846
 20
8.877791
 42
0.022831
 10
9.45405
 20
8.884763
 42
-0.024634
 10
9.277961
 20
8.89431
 42
-0.009892
 10
9.038585
 20
8.923951
 42
-0.00976
 10
8.781477
 20
8.966103
 42
-0.012172
 10
8.5446
 20
9.015693
 42
0.000778
 10
8.318442
 20
9.068444
 42
0.000793
 10
8.093637
 20
9.120136
 42
0.000769
 10
7.89819
 20
9.164435
 42
0.003305
  0
LWPOLYLINE
  5
E8C
330
1D
100
AcDbEntity
  8
0
100
AcDbPolyline
 90
       96
 70
     1
 43
0.0
 10
19.404212
 20
8.952158
 42
0.130609
 10
19.357163
 20
8.928382
 42
0.002886
 10
19.166192
 20
8.756298
 42
0.006357
 10
18.945047
 20
8.549489
 42
0.00423
 10
18.6966
 20
8.307086
 42
-0.012329
 10
18.404556
 20
8.031238
 42
-0.007693
 10
18.049674
 20
7.721959
 42
-0.007719
 10
17.690249
 20
7.427709
 42
-0.013884
 10
17.3853
 20
7.199323
 42
-0.009082
 10
17.082988
 20
6.993879
 42
-0.006249
 10
16.733351
 20
6.77163
 42
-0.006302
 10
16.39142
 20
6.566144
 42
-0.012758
 10
16.1163
 20
6.414769
 42
-0.014745
 10
15.837895
 20
6.280969
 42
-0.007891
 10
15.486823
 20
6.131404
 42
-0.007849
 10
15.12343
 20
5.989932
 42
-0.012152
 10
14.805
 20
5.880414
 42
-0.016665
 10
14.432306
 20
5.775812
 42
-0.016891
 10
14.055137
 20
5.696792
 42
-0.016329
 10
13.66165
 20
5.641307
 42
-0.013532
 10
13.2399
 20
5.607338
 42
-0.010374
 10
12.806739
 20
5.593229
 42
-0.019878
 10
12.459145
 20
5.602941
 42
-0.023148
 10
12.151567
 20
5.63815
 42
-0.022163
 10
11.844
 20
5.701965
 42
-0.014486
 10
11.600516
 20
5.771418
 42
-0.009358
 10
11.322707
 20
5.865198
 42
-0.009408
 10
11.054369
 20
5.967148
 42
-0.0175
 10
10.841585
 20
6.061381
 42
-0.031395
 10
10.636996
 20
6.177076
 42
-0.015851
 10
10.393901
 20
6.346666
 42
-0.015678
 10
10.152978
 20
6.538397
 42
-0.022466
 10
9.953002
 20
6.72412
 42
0.013533
 10
9.663755
 20
7.002537
 42
0.077952
 10
9.487009
 20
7.119264
 42
0.07282
 10
9.278053
 20
7.179961
 42
0.01097
 10
8.843682
 20
7.230299
 42
-0.007833
 10
8.570869
 20
7.260182
 42
-0.008635
 10
8.307876
 20
7.29779
 42
-0.008139
 10
8.084635
 20
7.337395
 42
-0.042892
 10
7.965081
 20
7.371461
 42
0.021223
 10
7.883608
 20
7.39854
 42
0.029637
 10
7.808685
 20
7.41523
 42
0.029674
 10
7.748004
 20
7.421355
 42
0.20966
 10
7.721028
 20
7.410828
 42
0.298972
 10
7.714375
 20
7.378725
 42
0.006769
 10
7.77685
 20
7.226821
 42
0.012942
 10
7.859687
 20
7.046015
 42
0.008116
 10
7.965411
 20
6.838772
 42
0.025048
 10
8.110845
 20
6.595073
 42
0.012379
 10
8.318238
 20
6.30016
 42
0.012252
 10
8.549005
 20
6.004137
 42
0.017513
 10
8.768994
 20
5.75416
 42
0.016466
 10
9.002945
 20
5.52218
 42
0.012194
 10
9.27591
 20
5.280905
 42
0.012354
 10
9.545127
 20
5.065523
 42
0.026971
 10
9.763759
 20
4.91719
 42
0.015718
 10
9.984425
 20
4.793538
 42
0.00901
 10
10.257692
 20
4.657702
 42
0.008994
 10
10.537597
 20
4.530919
 42
0.014783
 10
10.779236
 20
4.435033
 42
0.019616
 10
11.037836
 20
4.352492
 42
0.009593
 10
11.373123
 20
4.266683
 42
0.009501
 10
11.725594
 20
4.190685
 42
0.013593
 10
12.040987
 20
4.137787
 42
0.013609
 10
12.430339
 20
4.094085
 42
0.02065
 10
12.770626
 20
4.079353
 42
0.020172
 10
13.116752
 20
4.09264
 42
0.012211
 10
13.52473
 20
4.134864
 42
0.012032
 10
13.870862
 20
4.187748
 42
0.00705
 10
14.282579
 20
4.266833
 42
0.007048
 10
14.692429
 20
4.35761
 42
0.011895
 10
15.032915
 20
4.446677
 42
0.014291
 10
15.369913
 20
4.553967
 42
0.00825
 10
15.769244
 20
4.701231
 42
0.00824
 10
16.165487
 20
4.862389
 42
0.013666
 10
16.493418
 20
5.012822
 42
0.010535
 10
16.819489
 20
5.181953
 42
0.005815
 10
17.21104
 20
5.401582
 42
0.005795
 10
17.602977
 20
5.633552
 42
0.009265
 10
17.931618
 20
5.841672
 42
0.014778
 10
18.269332
 20
6.079021
 42
0.006862
 10
18.694078
 20
6.405878
 42
0.006791
 10
19.131069
 20
6.761569
 42
0.009405
 10
19.512396
 20
7.093049
 42
0.004775
 10
19.844572
 20
7.398765
 42
0.006873
 10
20.132218
 20
7.676147
 42
0.003914
 10
20.368898
 20
7.914448
 42
0.102292
 10
20.417442
 20
7.990136
 42
0.229669
 10
20.410958
 20
8.066146
 42
0.036384
 10
20.322816
 20
8.192435
 42
0.030015
 10
20.177742
 20
8.350651
 42
0.013701
 10
19.970859
 20
8.540044
 42
0.008511
 10
19.776437
 20
8.702765
 42
0.012761
 10
19.600824
 20
8.837469
 42
0.007665
 10
19.451086
 20
8.9429
 42
0.20435
  0
LWPOLYLINE
  5
EEE
330
1D
100
AcDbEntity
  8
0
100
AcDbPolyline
 90
       72
 70
     1
 43
0.0
 10
29.013672
 20
8.272875
 10
28.290443
 20
8.95101
 10
27.913872
 20
8.675432
 42
0.009619
 10
27.757836
 20
8.556568
 42
0.00859
 10
27.600397
 20
8.427313
 42
0.00865
 10
27.462934
 20
8.306289
 42
0.026321
 10
27.375528
 20
8.217753
 10
27.213756
 20
8.035652
 10
27.922661
 20
7.345544
 42
0.009118
 10
28.242408
 20
7.045436
 42
0.006117
 10
28.618233
 20
6.71364
 42
0.006161
 10
28.990205
 20
6.401159
 42
0.012092
 10
29.295082
 20
6.163469
 42
0.010664
 10
29.599348
 20
5.947771
 42
0.006503
 10
29.967216
 20
5.705518
 42
0.006516
 10
30.338219
 20
5.474819
 42
0.011471
 10
30.651449
 20
5.295334
 42
0.008549
 10
30.962896
 20
5.133073
 42
0.005592
 10
31.32716
 20
4.956205
 42
0.005625
 10
31.686103
 20
4.791767
 42
0.010725
 10
31.9788
 20
4.669089
 42
0.01188
 10
32.270661
 20
4.561995
 42
0.006901
 10
32.625726
 20
4.446644
 42
0.006896
 10
32.984986
 20
4.340794
 42
0.011545
 10
33.2901
 20
4.263001
 42
0.018817
 10
33.655657
 20
4.193105
 42
0.015719
 10
34.048056
 20
4.145846
 42
0.014071
 10
34.484086
 20
4.119528
 42
0.009515
 10
34.9821
 20
4.112997
 42
0.008028
 10
35.554514
 20
4.125575
 42
0.024609
 10
35.940921
 20
4.15937
 42
0.029275
 10
36.284513
 20
4.227225
 42
0.015665
 10
36.699879
 20
4.348844
 42
0.012542
 10
36.972368
 20
4.445616
 42
0.017681
 10
37.209588
 20
4.546384
 42
0.01397
 10
37.397408
 20
4.640609
 42
0.179766
 10
37.448459
 20
4.698564
 42
0.109753
 10
37.460139
 20
4.777025
 42
0.010193
 10
37.442175
 20
4.973355
 42
0.012729
 10
37.409662
 20
5.209047
 42
0.009658
 10
37.36247
 20
5.465682
 42
0.003899
 10
37.309325
 20
5.716289
 42
0.00592
 10
37.258859
 20
5.933187
 42
0.002479
 10
37.212736
 20
6.117346
 42
0.134563
 10
37.195101
 20
6.148299
 42
0.27848
 10
37.167359
 20
6.155153
 42
0.013589
 10
37.073938
 20
6.123344
 42
0.018792
 10
36.960353
 20
6.076265
 42
0.012107
 10
36.832311
 20
6.013666
 42
-0.024608
 10
36.668566
 20
5.938622
 42
-0.010103
 10
36.439855
 20
5.852451
 42
-0.009967
 10
36.190174
 20
5.769659
 42
-0.012595
 10
35.956057
 20
5.703588
 42
-0.022864
 10
35.647679
 20
5.639743
 42
-0.022131
 10
35.331388
 20
5.603474
 42
-0.018756
 10
34.969333
 20
5.591735
 42
-0.009779
 10
34.517857
 20
5.602868
 42
-0.011858
 10
34.033198
 20
5.63584
 42
-0.022504
 10
33.645794
 20
5.689107
 42
-0.023015
 10
33.270496
 20
5.776057
 42
-0.013054
 10
32.8248
 20
5.913826
 42
-0.011567
 10
32.470843
 20
6.042643
 42
-0.007683
 10
32.070802
 20
6.205931
 42
-0.007736
 10
31.68712
 20
6.376525
 42
-0.01494
 10
31.3866
 20
6.526813
 42
-0.008951
 10
31.1067
 20
6.683931
 42
-0.005851
 10
30.789377
 20
6.874622
 42
-0.005885
 10
30.484356
 20
7.067807
 42
-0.011205
 10
30.2445
 20
7.231465
 42
-0.014526
 10
29.999663
 20
7.417675
 42
-0.005741
 10
29.673559
 20
7.68723
 42
-0.005676
 10
29.327748
 20
7.986624
 42
-0.007075
  0
LWPOLYLINE
  5
F38
330
1D
100
AcDbEntity
  8
0
100
AcDbPolyline
 90
       36
 70
     1
 43
0.0
 10
28.983148
 20
2.7072
 42
0.034569
 10
28.890655
 20
2.700798
 42
0.111492
 10
28.833322
 20
2.679198
 42
0.196425
 10
28.808712
 20
2.643267
 42
0.145775
 10
28.812447
 20
2.594786
 42
-0.164911
 10
28.814432
 20
2.544594
 42
-0.086408
 10
28.78638
 20
2.487937
 42
-0.069855
 10
28.733137
 20
2.433205
 42
-0.052762
 10
28.661742
 20
2.389012
 10
28.4679
 20
2.295652
 10
28.664522
 20
2.289926
 42
-0.07538
 10
28.774149
 20
2.270024
 42
-0.22192
 10
28.827976
 20
2.21816
 42
-0.096339
 10
28.847036
 20
2.11044
 42
-0.009017
 10
28.837571
 20
1.84005
 42
0.009866
 10
28.829164
 20
1.587652
 42
0.078364
 10
28.845734
 20
1.472437
 42
0.197329
 10
28.89159
 20
1.416753
 42
0.123685
 10
28.974598
 20
1.3959
 42
0.131768
 10
29.057999
 20
1.418268
 42
0.193865
 10
29.104179
 20
1.47731
 42
0.073126
 10
29.120887
 20
1.600514
 42
0.008772
 10
29.112974
 20
1.875703
 42
-0.009108
 10
29.104875
 20
2.164146
 42
-0.083652
 10
29.124403
 20
2.287458
 42
-0.184412
 10
29.178924
 20
2.353693
 42
-0.081434
 10
29.286924
 20
2.393713
 10
29.4831
 20
2.43192
 10
29.293702
 20
2.494578
 42
-0.041505
 10
29.224508
 20
2.524034
 42
-0.070286
 10
29.173552
 20
2.560856
 42
-0.104769
 10
29.147853
 20
2.598751
 42
-0.239613
 10
29.150644
 20
2.632218
 42
0.296494
 10
29.149995
 20
2.660572
 42
0.138504
 10
29.120558
 20
2.685174
 42
0.071688
 10
29.061947
 20
2.701887
 42
0.033674
  0
LWPOLYLINE
  5
F5E
330
1D
100
AcDbEntity
  8
0
100
AcDbPolyline
 90
       28
 70
     1
 43
0.0
 10
33.819214
 20
2.6226
 42
0.386605
 10
33.807958
 20
2.612367
 42
0.002069
 10
33.793402
 20
2.452914
 42
0.007192
 10
33.779857
 20
2.26644
 42
0.004331
 10
33.768892
 20
2.044947
 42
0.01111
 10
33.763505
 20
1.755152
 42
0.038082
 10
33.7785
 20
1.567549
 42
0.061768
 10
33.8146
 20
1.441659
 42
0.11942
 10
33.876831
 20
1.358139
 42
0.062628
 10
33.954259
 20
1.308768
 42
0.132978
 10
34.023682
 20
1.296269
 42
0.098599
 10
34.103503
 20
1.319468
 42
0.025166
 10
34.220276
 20
1.387843
 42
0.052035
 10
34.32361
 20
1.472093
 42
0.087359
 10
34.387455
 20
1.563728
 42
0.076989
 10
34.420941
 20
1.679929
 42
0.032764
 10
34.430905
 20
1.842
 42
0.017853
 10
34.425844
 20
1.969057
 42
0.020275
 10
34.411732
 20
2.090106
 42
0.019933
 10
34.39164
 20
2.191056
 42
0.096914
 10
34.367455
 20
2.243854
 42
0.055445
 10
34.328999
 20
2.286519
 42
0.013359
 10
34.256091
 20
2.347899
 42
0.013552
 10
34.168112
 20
2.414219
 42
0.013074
 10
34.075627
 20
2.476504
 42
0.004913
 10
33.985681
 20
2.532485
 42
0.00725
 10
33.905565
 20
2.579684
 42
0.003737
 10
33.837145
 20
2.617993
 42
0.126403
  0
LWPOLYLINE
  5
F7C
330
1D
100
AcDbEntity
  8
0
100
AcDbPolyline
 90
       16
 70
     1
 43
0.0
 10
34.0938
 20
2.2419
 42
-0.158284
 10
34.126503
 20
2.203329
 42
-0.036095
 10
34.153549
 20
2.120927
 42
-0.033884
 10
34.172187
 20
2.016868
 42
-0.02738
 10
34.1784
 20
1.9035
 42
-0.02738
 10
34.172187
 20
1.790132
 42
-0.033884
 10
34.153549
 20
1.686073
 42
-0.036095
 10
34.126503
 20
1.603671
 42
-0.158284
 10
34.0938
 20
1.5651
 42
-0.400129
 10
34.059298
 20
1.572369
 42
-0.089468
 10
34.032099
 20
1.632717
 42
-0.044569
 10
34.01451
 20
1.744625
 42
-0.016707
 10
34.0092
 20
1.9035
 42
-0.016707
 10
34.01451
 20
2.062375
 42
-0.044569
 10
34.032099
 20
2.174283
 42
-0.089468
 10
34.059298
 20
2.234631
 42
-0.400129
  0
LWPOLYLINE
  5
F8E
330
1D
100
AcDbEntity
  8
0
100
AcDbPolyline
 90
       30
 70
     1
 43
0.0
 10
38.674419
 20
2.482338
 10
38.4084
 20
2.638175
 10
38.4084
 20
2.080488
 42
-0.000744
 10
38.408075
 20
1.862219
 42
-0.001054
 10
38.407087
 20
1.667982
 42
-0.000594
 10
38.405712
 20
1.503915
 42
-0.015187
 10
38.403931
 20
1.45935
 42
0.183365
 10
38.411846
 20
1.433056
 42
0.073586
 10
38.439278
 20
1.40652
 42
0.059531
 10
38.480704
 20
1.383729
 42
0.044714
 10
38.530535
 20
1.368604
 42
0.065186
 10
38.581908
 20
1.364737
 42
0.180585
 10
38.614584
 20
1.379031
 42
0.208019
 10
38.627107
 20
1.409418
 42
0.087002
 10
38.618442
 20
1.453793
 42
-0.159278
 10
38.615944
 20
1.50321
 42
-0.089855
 10
38.642017
 20
1.557934
 42
-0.073422
 10
38.692302
 20
1.609747
 42
-0.05673
 10
38.759869
 20
1.650289
 42
0.040089
 10
38.837215
 20
1.693273
 42
0.02809
 10
38.916993
 20
1.753111
 42
0.028467
 10
38.987364
 20
1.819545
 42
0.051471
 10
39.035547
 20
1.88235
 42
0.053483
 10
39.072146
 20
1.959153
 42
0.086368
 10
39.084047
 20
2.0304
 42
0.086086
 10
39.07119
 20
2.101644
 42
0.052815
 10
39.033536
 20
2.17845
 42
0.056158
 10
38.979583
 20
2.246056
 42
0.020694
 10
38.889642
 20
2.328788
 42
0.020205
 10
38.78309
 20
2.411805
 42
0.022893
  0
LWPOLYLINE
  5
FAE
330
1D
100
AcDbEntity
  8
0
100
AcDbPolyline
 90
       16
 70
     1
 43
0.0
 10
38.725085
 20
2.172972
 42
-0.056042
 10
38.769136
 20
2.11776
 42
-0.064133
 10
38.797477
 20
2.056512
 42
-0.074129
 10
38.806635
 20
1.998774
 42
-0.141658
 10
38.794117
 20
1.953918
 42
-0.048908
 10
38.767081
 20
1.91845
 42
-0.047191
 10
38.733369
 20
1.888436
 42
-0.050966
 10
38.698373
 20
1.867871
 42
-0.107773
 10
38.667782
 20
1.8612
 42
-0.263413
 10
38.641222
 20
1.876236
 42
-0.058883
 10
38.619028
 20
1.925547
 42
-0.0465
 10
38.603767
 20
1.99633
 42
-0.029864
 10
38.59875
 20
2.080254
 42
-0.011706
 10
38.601732
 20
2.207607
 42
-0.22647
 10
38.6199
 20
2.241485
 42
-0.345898
 10
38.651512
 20
2.240444
 42
-0.021617
  0
LWPOLYLINE
  5
FC0
330
1D
100
AcDbEntity
  8
0
100
AcDbPolyline
 90
       28
 70
     1
 43
0.0
 10
30.531182
 20
2.538019
 42
0.102582
 10
30.470404
 20
2.525408
 42
0.186141
 10
30.43472
 20
2.490311
 42
0.120856
 10
30.42292
 20
2.427278
 42
0.033365
 10
30.435294
 20
2.3265
 42
-0.032936
 10
30.448281
 20
2.221481
 42
-0.137365
 10
30.434759
 20
2.159808
 42
-0.194995
 10
30.394713
 20
2.126298
 42
-0.078065
 10
30.322793
 20
2.115
 42
0.012007
 10
30.231503
 20
2.112807
 42
0.360954
 10
30.215702
 20
2.098356
 42
0.26146
 10
30.224818
 20
2.075151
 42
0.008085
 10
30.308195
 20
2.00925
 42
-0.094178
 10
30.363154
 20
1.947876
 42
-0.038659
 10
30.413498
 20
1.847585
 42
-0.036496
 10
30.452296
 20
1.728511
 42
-0.038727
 10
30.472415
 20
1.6074
 42
0.024606
 10
30.487594
 20
1.49681
 42
0.047021
 10
30.512314
 20
1.410705
 42
0.074214
 10
30.541822
 20
1.359372
 42
0.371447
 10
30.571892
 20
1.3536
 42
0.218475
 10
30.601436
 20
1.395077
 42
0.01292
 10
30.6271
 20
1.551226
 42
0.017558
 10
30.646933
 20
1.745088
 42
0.011891
 10
30.656492
 20
1.966969
 42
0.008029
 10
30.657482
 20
2.274642
 42
0.050837
 10
30.639627
 20
2.429993
 42
0.132177
 10
30.599047
 20
2.50816
 42
0.210337
  0
LWPOLYLINE
  5
FDE
330
1D
100
AcDbEntity
  8
0
100
AcDbPolyline
 90
       28
 70
     1
 43
0.0
 10
31.45797
 20
2.538
 42
0.08351
 10
31.397323
 20
2.5278
 42
0.18149
 10
31.361516
 20
2.498105
 42
0.146073
 10
31.349536
 20
2.446776
 42
0.048782
 10
31.361818
 20
2.369828
 42
-0.066197
 10
31.371297
 20
2.293517
 42
-0.106801
 10
31.356974
 20
2.229891
 42
-0.112902
 10
31.31851
 20
2.180236
 42
-0.080289
 10
31.257429
 20
2.144722
 42
0.0181
 10
31.168247
 20
2.106743
 42
0.291851
 10
31.151553
 20
2.080355
 42
0.225967
 10
31.166621
 20
2.049029
 42
0.011657
 10
31.258069
 20
1.978831
 42
-0.076973
 10
31.323012
 20
1.913938
 42
-0.084752
 10
31.362696
 20
1.834449
 42
-0.071692
 10
31.377743
 20
1.735424
 42
-0.038366
 10
31.369191
 20
1.611737
 42
0.024347
 10
31.356868
 20
1.485155
 42
0.101027
 10
31.368509
 20
1.40967
 42
0.183125
 10
31.404098
 20
1.368815
 42
0.123609
 10
31.464702
 20
1.3536
 42
0.223798
 10
31.531129
 20
1.3849
 42
0.117677
 10
31.572186
 20
1.468642
 42
0.047352
 10
31.593032
 20
1.632
 42
0.008074
 10
31.5981
 20
1.9458
 42
0.007723
 10
31.593132
 20
2.267434
 42
0.050408
 10
31.571945
 20
2.427468
 42
0.131955
 10
31.528771
 20
2.507494
 42
0.206267
  0
LWPOLYLINE
  5
FFC
330
1D
100
AcDbEntity
  8
0
100
AcDbPolyline
 90
       12
 70
     1
 43
0.0
 10
36.090712
 20
2.515087
 42
0.296942
 10
36.072197
 20
2.518997
 42
0.208169
 10
36.056576
 20
2.503554
 42
0.077125
 10
36.047209
 20
2.462947
 42
0.028489
 10
36.046279
 20
2.40405
 42
0.018894
 10
36.051274
 20
2.340911
 42
0.168741
 10
36.06323
 20
2.316228
 42
0.470617
 10
36.078648
 20
2.317687
 42
0.054073
 10
36.097391
 20
2.352937
 42
0.051402
 10
36.110592
 20
2.399203
 42
0.05415
 10
36.113758
 20
2.446372
 42
0.060344
 10
36.107061
 20
2.487429
 42
0.126455
  0
LWPOLYLINE
  5
100A
330
1D
100
AcDbEntity
  8
0
100
AcDbPolyline
 90
       44
 70
     1
 43
0.0
 10
40.750943
 20
2.538046
 42
0.309877
 10
40.706113
 20
2.507342
 42
0.053193
 10
40.677821
 20
2.402258
 42
0.033822
 10
40.662649
 20
2.232422
 42
0.010947
 10
40.662755
 20
1.979922
 42
0.015097
 10
40.674346
 20
1.759353
 42
0.01956
 10
40.698956
 20
1.558308
 42
0.017597
 10
40.731386
 20
1.395073
 42
0.139416
 10
40.768505
 20
1.328455
 42
0.129591
 10
40.810764
 20
1.303828
 42
0.349454
 10
40.84065
 20
1.31655
 42
0.108219
 10
40.857754
 20
1.375951
 42
0.01619
 10
40.8618
 20
1.500887
 42
-0.029439
 10
40.868021
 20
1.606446
 42
-0.035585
 10
40.886651
 20
1.703916
 42
-0.03837
 10
40.913743
 20
1.781312
 42
-0.15211
 10
40.9464
 20
1.8189
 42
-0.303124
 10
40.979612
 20
1.817735
 42
-0.142837
 10
41.007265
 20
1.782349
 42
-0.067799
 10
41.025408
 20
1.709534
 42
-0.027206
 10
41.031
 20
1.606831
 42
-0.028412
 10
41.024475
 20
1.492096
 42
-0.020706
 10
41.004746
 20
1.365849
 42
-0.021032
 10
40.975934
 20
1.247337
 42
-0.042514
 10
40.941623
 20
1.157688
 42
0.003086
 10
40.884595
 20
1.0379
 42
0.607504
 10
40.89102
 20
1.029512
 42
0.170065
 10
40.910363
 20
1.040373
 42
0.001411
 10
41.026223
 20
1.172622
 42
0.056776
 10
41.106563
 20
1.289256
 42
0.054034
 10
41.160217
 20
1.422893
 42
0.044998
 10
41.190501
 20
1.58572
 42
0.023493
 10
41.2002
 20
1.792015
 42
0.004707
 10
41.19767
 20
2.060704
 42
0.120992
 10
41.179096
 20
2.130629
 42
0.455218
 10
41.14041
 20
2.139116
 42
0.037533
 10
41.05215
 20
2.062727
 42
-0.023223
 10
40.960094
 20
1.97833
 42
-0.378675
 10
40.921444
 20
1.979428
 42
-0.178422
 10
40.897369
 20
2.02738
 42
-0.00706
 10
40.877843
 20
2.225884
 42
0.030271
 10
40.860452
 20
2.345441
 42
0.045316
 10
40.829735
 20
2.44633
 42
0.055505
 10
40.79148
 20
2.516856
 42
0.24536
  0
LWPOLYLINE
  5
1038
330
1D
100
AcDbEntity
  8
0
100
AcDbPolyline
 90
       34
 70
     1
 43
0.0
 10
34.850935
 20
2.202637
 10
34.592869
 20
2.386396
 10
34.618285
 20
1.855563
 42
0.015233
 10
34.63441
 20
1.65006
 42
0.022791
 10
34.66209
 20
1.472141
 42
0.019295
 10
34.695909
 20
1.333044
 42
0.248799
 10
34.731721
 20
1.295724
 42
0.127216
 10
34.776856
 20
1.292775
 42
0.040149
 10
34.842544
 20
1.31082
 42
0.037143
 10
34.915506
 20
1.343629
 42
0.033645
 10
34.985388
 20
1.387843
 42
0.040106
 10
35.044376
 20
1.438703
 42
0.064923
 10
35.084377
 20
1.491385
 42
0.092491
 10
35.10048
 20
1.537598
 42
0.23843
 10
35.089761
 20
1.570239
 42
0.176316
 10
35.056696
 20
1.585658
 42
0.081002
 10
35.00861
 20
1.582077
 42
0.065152
 10
34.95341
 20
1.560913
 42
0.049162
 10
34.899544
 20
1.524497
 42
-0.019474
 10
34.829168
 20
1.470576
 42
-0.214509
 10
34.795129
 20
1.463951
 42
-0.30932
 10
34.775474
 20
1.485458
 42
-0.035131
 10
34.7706
 20
1.554741
 42
-0.111853
 10
34.783009
 20
1.609516
 42
-0.11138
 10
34.817822
 20
1.653693
 42
-0.099021
 10
34.872072
 20
1.682222
 42
-0.071811
 10
34.9398
 20
1.692
 42
0.071996
 10
35.012737
 20
1.702557
 42
0.12073
 10
35.065955
 20
1.73358
 42
0.123688
 10
35.097987
 20
1.785061
 42
0.077772
 10
35.109
 20
1.855439
 42
0.117074
 10
35.091052
 20
1.931043
 42
0.043281
 10
35.033193
 20
2.024847
 42
0.039951
 10
34.949679
 20
2.12025
 42
0.038298
  0
LWPOLYLINE
  5
105C
330
1D
100
AcDbEntity
  8
0
100
AcDbPolyline
 90
       16
 70
     1
 43
0.0
 10
34.8552
 20
1.9881
 42
-0.06081
 10
34.887561
 20
1.962195
 42
-0.051032
 10
34.914949
 20
1.927789
 42
-0.053229
 10
34.933599
 20
1.890519
 42
-0.089642
 10
34.9398
 20
1.856207
 42
-0.105429
 10
34.933323
 20
1.825833
 42
-0.099231
 10
34.914949
 20
1.799985
 42
-0.096318
 10
34.887495
 20
1.782659
 42
-0.092995
 10
34.8552
 20
1.7766
 42
-0.153634
 10
34.822935
 20
1.786754
 42
-0.097988
 10
34.795451
 20
1.815344
 42
-0.080552
 10
34.776906
 20
1.858062
 42
-0.062283
 10
34.7706
 20
1.908493
 42
-0.066118
 10
34.776798
 20
1.955161
 42
-0.138808
 10
34.795451
 20
1.986283
 42
-0.191142
 10
34.823082
 20
1.997232
 42
-0.139169
  0
LWPOLYLINE
  5
106E
330
1D
100
AcDbEntity
  8
0
100
AcDbPolyline
 90
       56
 70
     1
 43
0.0
 10
35.441665
 20
2.20267
 42
0.048902
 10
35.370048
 20
2.232416
 42
0.141514
 10
35.316891
 20
2.233201
 42
0.163992
 10
35.276338
 20
2.205962
 42
0.072082
 10
35.244357
 20
2.148831
 42
0.031791
 10
35.224883
 20
2.086508
 42
0.017163
 10
35.20851
 20
2.007746
 42
0.017031
 10
35.197283
 20
1.926059
 42
0.025637
 10
35.1936
 20
1.854281
 42
0.078953
 10
35.204672
 20
1.784602
 42
0.123399
 10
35.236802
 20
1.733435
 42
0.119873
 10
35.290058
 20
1.702522
 42
0.071952
 10
35.3628
 20
1.692
 42
-0.053388
 10
35.427532
 20
1.685068
 42
-0.073174
 10
35.482298
 20
1.66449
 42
-0.092966
 10
35.519067
 20
1.634086
 42
-0.175384
 10
35.532
 20
1.598349
 42
-0.158089
 10
35.521742
 20
1.566715
 42
-0.151946
 10
35.494723
 20
1.546512
 42
-0.112257
 10
35.453652
 20
1.541689
 42
-0.06502
 10
35.4051
 20
1.553394
 42
0.048206
 10
35.356479
 20
1.566854
 42
0.088276
 10
35.315477
 20
1.566757
 42
0.138104
 10
35.288594
 20
1.553674
 42
0.21403
 10
35.2782
 20
1.530504
 42
0.114247
 10
35.286099
 20
1.496387
 42
0.037515
 10
35.312327
 20
1.451623
 42
0.035105
 10
35.349918
 20
1.404677
 42
0.033188
 10
35.394377
 20
1.362499
 42
0.077253
 10
35.449351
 20
1.329657
 42
0.05594
 10
35.518168
 20
1.310421
 42
0.055845
 10
35.589681
 20
1.306898
 42
0.076161
 10
35.65265
 20
1.320608
 42
0.096942
 10
35.70825
 20
1.355442
 42
0.089279
 10
35.748541
 20
1.409587
 42
0.082707
 10
35.769511
 20
1.478198
 42
0.068432
 10
35.769123
 20
1.554718
 42
0.079705
 10
35.745367
 20
1.631299
 42
0.087764
 10
35.699347
 20
1.693764
 42
0.085206
 10
35.633423
 20
1.737977
 42
0.070052
 10
35.551895
 20
1.761498
 42
-0.037941
 10
35.48155
 20
1.776997
 42
-0.072974
 10
35.429393
 20
1.801449
 42
-0.123961
 10
35.403056
 20
1.83029
 42
-0.267886
 10
35.40393
 20
1.859306
 42
-0.176704
 10
35.434004
 20
1.883007
 42
-0.056466
 10
35.49064
 20
1.894772
 42
-0.048274
 10
35.5618
 20
1.894454
 42
-0.037832
 10
35.637834
 20
1.880887
 42
0.009276
 10
35.752412
 20
1.853618
 42
0.298244
 10
35.778003
 20
1.863385
 42
0.329141
 10
35.777756
 20
1.889517
 42
0.010428
 10
35.708158
 20
1.978048
 42
0.027562
 10
35.651565
 20
2.039754
 42
0.018288
 10
35.580399
 20
2.104334
 42
0.018428
 10
35.506452
 20
2.162139
 42
0.033824
  0
LWPOLYLINE
  5
10A8
330
1D
100
AcDbEntity
  8
0
100
AcDbPolyline
 90
       48
 70
     1
 43
0.0
 10
40.072713
 20
2.2842
 42
0.212977
 10
40.054543
 20
2.276093
 42
0.034648
 10
40.030219
 20
2.244891
 42
0.032998
 10
40.005051
 20
2.201632
 42
0.02364
 10
39.982551
 20
2.150381
 42
0.045709
 10
39.962751
 20
2.080218
 42
0.014974
 10
39.946284
 20
1.973967
 42
0.014778
 10
39.934972
 20
1.854304
 42
0.016176
 10
39.9312
 20
1.73774
 42
0.042163
 10
39.940892
 20
1.623012
 42
0.039435
 10
39.969724
 20
1.508849
 42
0.041922
 10
40.011999
 20
1.411586
 42
0.096364
 10
40.062346
 20
1.350076
 42
0.048818
 10
40.136554
 20
1.299833
 42
0.153189
 10
40.194943
 20
1.288386
 42
0.134964
 10
40.254003
 20
1.311888
 42
0.034604
 10
40.33226
 20
1.380003
 42
0.038741
 10
40.381275
 20
1.437265
 42
0.057806
 10
40.413707
 20
1.494567
 42
0.075992
 10
40.426059
 20
1.54338
 42
0.224028
 10
40.414659
 20
1.575141
 42
0.172287
 10
40.384469
 20
1.589508
 42
0.082191
 10
40.340986
 20
1.58685
 42
0.066422
 10
40.291288
 20
1.568272
 42
0.050631
 10
40.243015
 20
1.535842
 42
-0.093625
 10
40.185096
 20
1.503747
 42
-0.34402
 10
40.148206
 20
1.516936
 42
-0.119155
 10
40.126553
 20
1.580655
 42
-0.013201
 10
40.116647
 20
1.735287
 42
-0.020773
 10
40.117095
 20
1.848406
 42
-0.033889
 10
40.127936
 20
1.94371
 42
-0.037537
 10
40.146029
 20
2.012824
 42
-0.320248
 10
40.170656
 20
2.0304
 42
-0.10515
 10
40.202533
 20
2.023621
 42
-0.032049
 10
40.246457
 20
2.000578
 42
-0.030516
 10
40.29363
 20
1.967733
 42
-0.029048
 10
40.33728
 20
1.92888
 42
0.027593
 10
40.389419
 20
1.882199
 42
0.267255
 10
40.41765
 20
1.877852
 42
0.277924
 10
40.434809
 20
1.900003
 42
0.029237
 10
40.4388
 20
1.968203
 42
0.0986
 10
40.426782
 20
2.028552
 42
0.05719
 10
40.390731
 20
2.0934
 42
0.054004
 10
40.337746
 20
2.152661
 42
0.060561
 10
40.275162
 20
2.196623
 42
0.009095
 10
40.209659
 20
2.230161
 42
0.011686
 10
40.148192
 20
2.258474
 42
0.009611
 10
40.096119
 20
2.279822
 42
0.092723
  0
LWPOLYLINE
  5
10DA
330
1D
100
AcDbEntity
  8
0
100
AcDbPolyline
 90
       40
 70
     1
 43
0.0
 10
43.092919
 20
2.172189
 42
0.018742
 10
42.989147
 20
2.235277
 42
0.147961
 10
42.934767
 20
2.247151
 42
0.233133
 10
42.896083
 20
2.224126
 42
0.0524
 10
42.860269
 20
2.153815
 42
0.049209
 10
42.839924
 20
2.079749
 42
0.014036
 10
42.823072
 20
1.961578
 42
0.013989
 10
42.811471
 20
1.826407
 42
0.01441
 10
42.8076
 20
1.692131
 42
0.029378
 10
42.815191
 20
1.563056
 42
0.041644
 10
42.838116
 20
1.450378
 42
0.048488
 10
42.871879
 20
1.366057
 42
0.189406
 10
42.91335
 20
1.329782
 42
0.083996
 10
42.96447
 20
1.320654
 42
0.039666
 10
43.031526
 20
1.32537
 42
0.037846
 10
43.102692
 20
1.341669
 42
0.043585
 10
43.16715
 20
1.368008
 42
0.043022
 10
43.223792
 20
1.403601
 42
0.046993
 10
43.27171
 20
1.447437
 42
0.052334
 10
43.304706
 20
1.492561
 42
0.132466
 10
43.3152
 20
1.531478
 42
0.224927
 10
43.301094
 20
1.561247
 42
0.130503
 10
43.264325
 20
1.577945
 42
0.079591
 10
43.20684
 20
1.578399
 42
0.039114
 10
43.135406
 20
1.561737
 42
-0.021768
 10
43.056744
 20
1.540491
 42
-0.128686
 10
43.014473
 20
1.542001
 42
-0.359143
 10
43.001153
 20
1.561915
 42
-0.113869
 10
43.013498
 20
1.598336
 42
-0.084325
 10
43.045058
 20
1.634187
 42
-0.053432
 10
43.09192
 20
1.664486
 42
-0.051919
 10
43.146001
 20
1.685056
 42
-0.065018
 10
43.199177
 20
1.692
 42
0.117348
 10
43.251477
 20
1.704446
 42
0.149801
 10
43.287052
 20
1.738575
 42
0.113462
 10
43.30349
 20
1.795142
 42
0.051392
 10
43.299934
 20
1.872655
 42
0.072051
 10
43.276499
 20
1.950507
 42
0.042149
 10
43.227972
 20
2.035163
 42
0.041189
 10
43.163794
 20
2.113388
 42
0.054469
  0
LWPOLYLINE
  5
1104
330
1D
100
AcDbEntity
  8
0
100
AcDbPolyline
 90
       16
 70
     1
 43
0.0
 10
43.0614
 20
1.9881
 42
-0.064269
 10
43.093762
 20
1.961827
 42
-0.051777
 10
43.121149
 20
1.926322
 42
-0.053414
 10
43.139779
 20
1.887442
 42
-0.085235
 10
43.146
 20
1.851214
 42
-0.117858
 10
43.139296
 20
1.82317
 42
-0.186277
 10
43.121149
 20
1.806824
 42
-0.154201
 10
43.09375
 20
1.80521
 42
-0.076764
 10
43.0614
 20
1.8189
 42
-0.064269
 10
43.029038
 20
1.845173
 42
-0.051777
 10
43.001651
 20
1.880678
 42
-0.053414
 10
42.983021
 20
1.919558
 42
-0.085235
 10
42.9768
 20
1.955786
 42
-0.117858
 10
42.983504
 20
1.98383
 42
-0.186277
 10
43.001651
 20
2.000176
 42
-0.154201
 10
43.02905
 20
2.00179
 42
-0.076764
  0
LWPOLYLINE
  5
1116
330
1D
100
AcDbEntity
  8
0
100
AcDbPolyline
 90
       28
 70
     1
 43
0.0
 10
29.742943
 20
2.1996
 42
0.083576
 10
29.687149
 20
2.190208
 42
0.037263
 10
29.618536
 20
2.160548
 42
0.035542
 10
29.548933
 20
2.117532
 42
0.040215
 10
29.489143
 20
2.066657
 42
0.049888
 10
29.438257
 20
2.00446
 42
0.037983
 10
29.395252
 20
1.927592
 42
0.03894
 10
29.365807
 20
1.84848
 42
0.06973
 10
29.3562
 20
1.779929
 42
0.072212
 10
29.366649
 20
1.707955
 42
0.031721
 10
29.399907
 20
1.617343
 42
0.030566
 10
29.448042
 20
1.524044
 42
0.035826
 10
29.504991
 20
1.442396
 42
0.045848
 10
29.576048
 20
1.369451
 42
0.069294
 10
29.65065
 20
1.32179
 42
0.083828
 10
29.723787
 20
1.302109
 42
0.116021
 10
29.790852
 20
1.311246
 42
0.114695
 10
29.850653
 20
1.351703
 42
0.104803
 10
29.888876
 20
1.415648
 42
0.075293
 10
29.905615
 20
1.507837
 42
0.031961
 10
29.901261
 20
1.633672
 42
-0.002936
 10
29.890658
 20
1.747833
 42
-0.002542
 10
29.880846
 20
1.867728
 42
-0.002558
 10
29.873065
 20
1.976443
 42
-0.00747
 10
29.869201
 20
2.05155
 42
0.079555
 10
29.858017
 20
2.108104
 42
0.088255
 10
29.829885
 20
2.15611
 42
0.096784
 10
29.789464
 20
2.188246
 42
0.120261
  0
LWPOLYLINE
  5
1134
330
1D
100
AcDbEntity
  8
0
100
AcDbPolyline
 90
       16
 70
     1
 43
0.0
 10
29.661351
 20
2.0304
 42
-0.366875
 10
29.674421
 20
2.019319
 42
-0.013294
 10
29.684077
 20
1.949633
 42
-0.018768
 10
29.690621
 20
1.860867
 42
-0.011351
 10
29.692027
 20
1.75545
 42
-0.008622
 10
29.6882
 20
1.611604
 42
-0.130597
 10
29.673401
 20
1.564358
 42
-0.504855
 10
29.649037
 20
1.56259
 42
-0.045008
 10
29.607293
 20
1.621279
 42
-0.059672
 10
29.579646
 20
1.685047
 42
-0.044724
 10
29.564389
 20
1.760117
 42
-0.045608
 10
29.562904
 20
1.83456
 42
-0.073938
 10
29.576616
 20
1.896229
 42
-0.020203
 10
29.59876
 20
1.947625
 42
-0.029029
 10
29.622745
 20
1.990987
 42
-0.02861
 10
29.645482
 20
2.022802
 42
-0.22706
  0
LWPOLYLINE
  5
1146
330
1D
100
AcDbEntity
  8
0
100
AcDbPolyline
 90
       32
 70
     1
 43
0.0
 10
32.286827
 20
2.1996
 42
0.076017
 10
32.23929
 20
2.192331
 42
0.038375
 10
32.182858
 20
2.169778
 42
0.036989
 10
32.126909
 20
2.136933
 42
0.045181
 10
32.08032
 20
2.09808
 42
0.077122
 10
32.041376
 20
2.044831
 42
0.038241
 10
32.008622
 20
1.96759
 42
0.036792
 10
31.986283
 20
1.880496
 42
0.044411
 10
31.9788
 20
1.796418
 42
0.035831
 10
31.985155
 20
1.707857
 42
0.02325
 10
32.004526
 20
1.606999
 42
0.023378
 10
32.032798
 20
1.509777
 42
0.040436
 10
32.066377
 20
1.432638
 42
0.033268
 10
32.10546
 20
1.370008
 42
0.039898
 10
32.150429
 20
1.317069
 42
0.044109
 10
32.194511
 20
1.280037
 42
0.153833
 10
32.229534
 20
1.269
 42
0.114347
 10
32.267548
 20
1.277809
 42
0.029128
 10
32.323012
 20
1.309099
 42
0.028143
 10
32.383812
 20
1.353259
 42
0.025247
 10
32.441623
 20
1.405508
 42
0.072711
 10
32.496041
 20
1.478562
 42
0.059493
 10
32.531863
 20
1.569244
 42
0.055482
 10
32.547042
 20
1.672091
 42
0.048034
 10
32.540463
 20
1.781023
 42
0.015039
 10
32.521965
 20
1.879111
 42
0.014909
 10
32.49756
 20
1.976196
 42
0.014931
 10
32.471176
 20
2.059721
 42
0.054492
 10
32.447305
 20
2.109815
 42
0.073871
 10
32.418309
 20
2.144167
 42
0.053093
 10
32.377275
 20
2.173226
 42
0.053149
 10
32.331099
 20
2.192961
 42
0.074564
  0
LWPOLYLINE
  5
1168
330
1D
100
AcDbEntity
  8
0
100
AcDbPolyline
 90
       12
 70
     1
 43
0.0
 10
32.290727
 20
1.925636
 42
-0.041951
 10
32.302901
 20
1.855635
 42
-0.020826
 10
32.30711
 20
1.765568
 42
-0.020511
 10
32.303716
 20
1.671251
 42
-0.028254
 10
32.292434
 20
1.587236
 42
-0.082665
 10
32.278572
 20
1.549835
 42
-0.67161
 10
32.265948
 20
1.55151
 42
-0.053901
 10
32.256697
 20
1.613415
 42
-0.008901
 10
32.253935
 20
1.7343
 42
-0.009782
 10
32.255702
 20
1.855991
 42
-0.038992
 10
32.264038
 20
1.930095
 42
-0.417468
 10
32.276912
 20
1.938712
 42
-0.285845
  0
LWPOLYLINE
  5
1176
330
1D
100
AcDbEntity
  8
0
100
AcDbPolyline
 90
       28
 70
     1
 43
0.0
 10
32.965643
 20
2.1996
 42
0.074929
 10
32.917325
 20
2.192318
 42
0.038498
 10
32.860251
 20
2.169778
 42
0.037176
 10
32.803857
 20
2.136934
 42
0.045954
 10
32.75712
 20
2.09808
 42
0.096592
 10
32.718055
 20
2.040089
 42
0.034429
 10
32.685422
 20
1.945247
 42
0.032625
 10
32.663087
 20
1.833543
 42
0.03304
 10
32.6556
 20
1.720357
 42
0.039054
 10
32.665302
 20
1.596332
 42
0.061814
 10
32.69469
 20
1.493981
 42
0.073886
 10
32.742823
 20
1.415577
 42
0.095618
 10
32.808208
 20
1.36248
 42
0.048899
 10
32.873153
 20
1.335504
 42
0.049103
 10
32.94201
 20
1.321702
 42
0.05368
 10
33.004446
 20
1.322174
 42
0.11584
 10
33.049401
 20
1.338353
 42
0.114966
 10
33.086677
 20
1.377124
 42
0.031241
 10
33.125783
 20
1.453285
 42
0.02988
 10
33.160503
 20
1.547768
 42
0.027128
 10
33.185031
 20
1.6488
 42
0.035883
 10
33.197172
 20
1.756558
 42
0.030403
 10
33.194842
 20
1.871164
 42
0.031524
 10
33.179674
 20
1.975664
 42
0.071176
 10
33.152363
 20
2.05065
 42
0.051062
 10
33.113932
 20
2.107624
 42
0.050538
 10
33.064631
 20
2.155846
 42
0.055103
 10
33.012422
 20
2.188816
 42
0.113778
  0
LWPOLYLINE
  5
1194
330
1D
100
AcDbEntity
  8
0
100
AcDbPolyline
 90
       16
 70
     1
 43
0.0
 10
32.949045
 20
2.0304
 42
-0.358438
 10
32.966507
 20
2.016037
 42
-0.017772
 10
32.979112
 20
1.937208
 42
-0.021965
 10
32.987232
 20
1.83478
 42
-0.013308
 10
32.988274
 20
1.71315
 42
-0.004093
 10
32.983188
 20
1.51929
 42
-0.149388
 10
32.96889
 20
1.477683
 42
-0.54684
 10
32.946405
 20
1.47898
 42
-0.015563
 10
32.89283
 20
1.581579
 42
-0.04396
 10
32.862224
 20
1.662341
 42
-0.037856
 10
32.844298
 20
1.751364
 42
-0.039623
 10
32.840626
 20
1.835111
 42
-0.082947
 10
32.853601
 20
1.898829
 42
-0.027842
 10
32.876225
 20
1.949208
 42
-0.037476
 10
32.902464
 20
1.991751
 42
-0.041295
 10
32.928425
 20
2.021946
 42
-0.197024
  0
LWPOLYLINE
  5
11A6
330
1D
100
AcDbEntity
  8
0
100
AcDbPolyline
 90
       16
 70
     1
 43
0.0
 10
36.1242
 20
2.199391
 42
0.20016
 10
36.064397
 20
2.174277
 42
0.121933
 10
36.02471
 20
2.107381
 42
0.058749
 10
36.002859
 20
1.984098
 42
0.014144
 10
35.996671
 20
1.776338
 42
0.017306
 10
36.002573
 20
1.598212
 42
0.039805
 10
36.022242
 20
1.46565
 42
0.056998
 10
36.052793
 20
1.379485
 42
0.286522
 10
36.094256
 20
1.3536
 42
0.282288
 10
36.135823
 20
1.379099
 42
0.044403
 10
36.17316
 20
1.472166
 42
0.036354
 10
36.203348
 20
1.607096
 42
0.019565
 10
36.221785
 20
1.776653
 42
0.012194
 10
36.231487
 20
1.993073
 42
0.061898
 10
36.219072
 20
2.112905
 42
0.14473
 10
36.183776
 20
2.17537
 42
0.195297
  0
LWPOLYLINE
  5
11B8
330
1D
100
AcDbEntity
  8
0
100
AcDbPolyline
 90
       28
 70
     1
 43
0.0
 10
36.79322
 20
2.181349
 42
0.079611
 10
36.735204
 20
2.182991
 42
0.05761
 10
36.672365
 20
2.167234
 42
0.05733
 10
36.614436
 20
2.13742
 42
0.076543
 10
36.570924
 20
2.097478
 42
0.03777
 10
36.533272
 20
2.042427
 42
0.01729
 10
36.492307
 20
1.965586
 42
0.01701
 10
36.454551
 20
1.881309
 42
0.022488
 10
36.426327
 20
1.802078
 42
0.070713
 10
36.411379
 20
1.707068
 42
0.084642
 10
36.425258
 20
1.617673
 42
0.074318
 10
36.470306
 20
1.529268
 42
0.041464
 10
36.548533
 20
1.436867
 42
-0.02732
 10
36.637561
 20
1.33754
 42
-0.109711
 10
36.673372
 20
1.264821
 42
-0.148889
 10
36.669491
 20
1.19627
 42
-0.06608
 10
36.626905
 20
1.115289
 42
0.092416
 10
36.61541
 20
1.090343
 42
0.718055
 10
36.62222
 20
1.085951
 42
0.030906
 10
36.670442
 20
1.129496
 42
0.005822
 10
36.752529
 20
1.215365
 42
0.033854
 10
36.866304
 20
1.355042
 42
0.072233
 10
36.929418
 20
1.478782
 42
0.070024
 10
36.955819
 20
1.617837
 42
0.030219
 10
36.953435
 20
1.806835
 42
0.023894
 10
36.934236
 20
1.964977
 42
0.058979
 10
36.90127
 20
2.076911
 42
0.089329
 10
36.854444
 20
2.148006
 42
0.157024
  0
LWPOLYLINE
  5
11D6
330
1D
100
AcDbEntity
  8
0
100
AcDbPolyline
 90
       12
 70
     1
 43
0.0
 10
36.687292
 20
1.88396
 42
-0.06278
 10
36.700699
 20
1.833374
 42
-0.030339
 10
36.705594
 20
1.766449
 42
-0.029507
 10
36.702263
 20
1.695099
 42
-0.037336
 10
36.690427
 20
1.63016
 42
-0.087174
 10
36.675509
 20
1.597532
 42
-0.597527
 10
36.661963
 20
1.599016
 42
-0.080377
 10
36.651728
 20
1.64393
 42
-0.012823
 10
36.648293
 20
1.7343
 42
-0.014395
 10
36.649795
 20
1.825678
 42
-0.052471
 10
36.658456
 20
1.882955
 42
-0.333666
 10
36.672165
 20
1.893856
 42
-0.31318
  0
LWPOLYLINE
  5
11E4
330
1D
100
AcDbEntity
  8
0
100
AcDbPolyline
 90
       32
 70
     1
 43
0.0
 10
37.427759
 20
2.18281
 42
0.032475
 10
37.264641
 20
2.188081
 42
0.241371
 10
37.198843
 20
2.151595
 42
0.137255
 10
37.169589
 20
2.062725
 42
0.008768
 10
37.161946
 20
1.786505
 42
0.017887
 10
37.166841
 20
1.59565
 42
0.044275
 10
37.187719
 20
1.457416
 42
0.065367
 10
37.223459
 20
1.364983
 42
0.17807
 10
37.275437
 20
1.3195
 42
0.187328
 10
37.329855
 20
1.319715
 42
0.204099
 10
37.367409
 20
1.356644
 42
0.081405
 10
37.387884
 20
1.444607
 42
0.016561
 10
37.3932
 20
1.605062
 42
-0.023738
 10
37.399398
 20
1.735533
 42
-0.03062
 10
37.418051
 20
1.854015
 42
-0.031545
 10
37.444997
 20
1.947566
 42
-0.170038
 10
37.4778
 20
1.9881
 42
-0.369423
 10
37.511862
 20
1.982807
 42
-0.106919
 10
37.53926
 20
1.932157
 42
-0.051222
 10
37.557013
 20
1.834858
 42
-0.019531
 10
37.5624
 20
1.696993
 42
0.024543
 10
37.568863
 20
1.565398
 42
0.039042
 10
37.588613
 20
1.454472
 42
0.046211
 10
37.617128
 20
1.37552
 42
0.290763
 10
37.651635
 20
1.3536
 42
0.313452
 10
37.686824
 20
1.378064
 42
0.049838
 10
37.709305
 20
1.463882
 42
0.037361
 10
37.719756
 20
1.591183
 42
0.017828
 10
37.715085
 20
1.75545
 42
0.013366
 10
37.69267
 20
2.001617
 42
0.119153
 10
37.65518
 20
2.102834
 42
0.181925
 10
37.581859
 20
2.155064
 42
0.040479
  0
LWPOLYLINE
  5
1206
330
1D
100
AcDbEntity
  8
0
100
AcDbPolyline
 90
       28
 70
     1
 43
0.0
 10
39.547492
 20
2.1996
 42
0.088281
 10
39.495234
 20
2.190301
 42
0.036362
 10
39.429477
 20
2.160548
 42
0.034539
 10
39.361866
 20
2.117531
 42
0.037444
 10
39.302743
 20
2.066657
 42
0.049888
 10
39.251857
 20
2.00446
 42
0.037983
 10
39.208852
 20
1.927592
 42
0.03894
 10
39.179407
 20
1.84848
 42
0.06973
 10
39.1698
 20
1.779929
 42
0.072212
 10
39.180249
 20
1.707955
 42
0.031721
 10
39.213507
 20
1.617343
 42
0.030566
 10
39.261642
 20
1.524044
 42
0.035826
 10
39.318591
 20
1.442396
 42
0.044103
 10
39.39254
 20
1.365952
 42
0.077161
 10
39.467008
 20
1.319282
 42
0.093801
 10
39.541273
 20
1.302772
 42
0.099857
 10
39.614691
 20
1.315175
 42
0.109968
 10
39.679155
 20
1.357915
 42
0.088685
 10
39.72546
 20
1.427167
 42
0.068277
 10
39.753101
 20
1.524714
 42
0.034959
 10
39.762
 20
1.651832
 42
0.016108
 10
39.758228
 20
1.768897
 42
0.01475
 10
39.746916
 20
1.888983
 42
0.014941
 10
39.73045
 20
1.995545
 42
0.045838
 10
39.710649
 20
2.065781
 42
0.067114
 10
39.68267
 20
2.116943
 42
0.062433
 10
39.641539
 20
2.160291
 42
0.066608
 10
39.594069
 20
2.189651
 42
0.105613
  0
LWPOLYLINE
  5
1224
330
1D
100
AcDbEntity
  8
0
100
AcDbPolyline
 90
       16
 70
     1
 43
0.0
 10
39.474951
 20
2.0304
 42
-0.366875
 10
39.488021
 20
2.019319
 42
-0.013294
 10
39.497677
 20
1.949633
 42
-0.018768
 10
39.504221
 20
1.860867
 42
-0.011351
 10
39.505627
 20
1.75545
 42
-0.008622
 10
39.5018
 20
1.611604
 42
-0.130597
 10
39.487001
 20
1.564358
 42
-0.504855
 10
39.462637
 20
1.56259
 42
-0.045008
 10
39.420893
 20
1.621279
 42
-0.059672
 10
39.393246
 20
1.685047
 42
-0.044724
 10
39.377989
 20
1.760117
 42
-0.045608
 10
39.376504
 20
1.83456
 42
-0.073938
 10
39.390216
 20
1.896229
 42
-0.020203
 10
39.41236
 20
1.947625
 42
-0.029029
 10
39.436345
 20
1.990987
 42
-0.02861
 10
39.459082
 20
2.022802
 42
-0.22706
  0
LWPOLYLINE
  5
1236
330
1D
100
AcDbEntity
  8
0
100
AcDbPolyline
 90
       24
 70
     1
 43
0.0
 10
41.747624
 20
2.1996
 42
0.087991
 10
41.695158
 20
2.190295
 42
0.036422
 10
41.629233
 20
2.160548
 42
0.034603
 10
41.561505
 20
2.117531
 42
0.037608
 10
41.502343
 20
2.066657
 42
0.049888
 10
41.451457
 20
2.00446
 42
0.037983
 10
41.408452
 20
1.927592
 42
0.03894
 10
41.379007
 20
1.84848
 42
0.06973
 10
41.3694
 20
1.779929
 42
0.075788
 10
41.380501
 20
1.70711
 42
0.031062
 10
41.416254
 20
1.613457
 42
0.029848
 10
41.467857
 20
1.515881
 42
0.033642
 10
41.528904
 20
1.429166
 42
0.026757
 10
41.614415
 20
1.33441
 42
0.109132
 10
41.679503
 20
1.293082
 42
0.170193
 10
41.739593
 20
1.29241
 42
0.091943
 10
41.804962
 20
1.32892
 42
0.120318
 10
41.854103
 20
1.395116
 42
0.055956
 10
41.88461
 20
1.498359
 42
0.042446
 10
41.897204
 20
1.63689
 42
0.021302
 10
41.89074
 20
1.812626
 42
0.020309
 10
41.870643
 20
1.979328
 42
0.048448
 10
41.838928
 20
2.0998
 42
0.074401
 10
41.797677
 20
2.174817
 42
0.234013
  0
LWPOLYLINE
  5
1250
330
1D
100
AcDbEntity
  8
0
100
AcDbPolyline
 90
       16
 70
     1
 43
0.0
 10
41.670493
 20
1.9458
 42
-0.346621
 10
41.685014
 20
1.934359
 42
-0.02199
 10
41.696085
 20
1.877459
 42
-0.024749
 10
41.703525
 20
1.80234
 42
-0.015072
 10
41.705227
 20
1.71315
 42
-0.007077
 10
41.701861
 20
1.579653
 42
-0.196561
 10
41.68767
 20
1.548507
 42
-0.460563
 10
41.665516
 20
1.550912
 42
-0.018036
 10
41.616049
 20
1.62922
 42
-0.046456
 10
41.586761
 20
1.692331
 42
-0.048398
 10
41.57012
 20
1.758908
 42
-0.053382
 10
41.567621
 20
1.819028
 42
-0.122724
 10
41.581314
 20
1.86187
 42
-0.029736
 10
41.603913
 20
1.893996
 42
-0.035822
 10
41.628907
 20
1.921146
 42
-0.03868
 10
41.652687
 20
1.940288
 42
-0.151248
  0
LWPOLYLINE
  5
1262
330
1D
100
AcDbEntity
  8
0
100
AcDbPolyline
 90
       28
 70
     1
 43
0.0
 10
42.453758
 20
2.182793
 42
0.11285
 10
42.392595
 20
2.180517
 42
0.071423
 10
42.326701
 20
2.152304
 42
0.065939
 10
42.266271
 20
2.103553
 42
0.067321
 10
42.221108
 20
2.041066
 42
0.033634
 10
42.186514
 20
1.964456
 42
0.023053
 10
42.157328
 20
1.873598
 42
0.023303
 10
42.137259
 20
1.783052
 42
0.042906
 10
42.1308
 20
1.707921
 42
0.06818
 10
42.14053
 20
1.636899
 42
0.044554
 10
42.169805
 20
1.55944
 42
0.044227
 10
42.212756
 20
1.487589
 42
0.062803
 10
42.263582
 20
1.433319
 42
-0.078349
 10
42.313133
 20
1.377014
 42
-0.065843
 10
42.346578
 20
1.304819
 42
-0.064963
 10
42.36042
 20
1.225415
 42
-0.072107
 10
42.352565
 20
1.14801
 42
0.011982
 10
42.329571
 20
1.045723
 42
0.546447
 10
42.342535
 20
1.03321
 42
0.159853
 10
42.371683
 20
1.051062
 42
0.003637
 10
42.477632
 20
1.177622
 42
0.052239
 10
42.556144
 20
1.296074
 42
0.060737
 10
42.603676
 20
1.422501
 42
0.051176
 10
42.624358
 20
1.573597
 42
0.024714
 10
42.621298
 20
1.769061
 42
0.019271
 10
42.602053
 20
1.954152
 42
0.060731
 10
42.56961
 20
2.074437
 42
0.101335
 10
42.521181
 20
2.147278
 42
0.149732
  0
LWPOLYLINE
  5
1280
330
1D
100
AcDbEntity
  8
0
100
AcDbPolyline
 90
       16
 70
     1
 43
0.0
 10
42.432601
 20
2.0304
 42
-0.357002
 10
42.447052
 20
2.018575
 42
-0.016207
 10
42.458449
 20
1.950876
 42
-0.020902
 10
42.466564
 20
1.86347
 42
-0.012696
 10
42.4692
 20
1.75968
 42
-0.015997
 10
42.465136
 20
1.632684
 42
-0.104921
 10
42.44805
 20
1.571674
 42
-0.346059
 10
42.41815
 20
1.558238
 42
-0.136187
 10
42.376196
 20
1.581964
 42
-0.105734
 10
42.34471
 20
1.63058
 42
-0.057476
 10
42.327081
 20
1.699852
 42
-0.053485
 10
42.324936
 20
1.777803
 42
-0.057055
 10
42.339597
 20
1.852684
 42
-0.017522
 10
42.363866
 20
1.920776
 42
-0.026186
 10
42.390184
 20
1.978196
 42
-0.024144
 10
42.415313
 20
2.021044
 42
-0.25324
  0
ENDSEC
  0
SECTION
  2
OBJECTS
  0
DICTIONARY
  5
C
330
0
100
AcDbDictionary
281
     1
  3
ACAD_DETAILVIEWSTYLE
350
131E
  3
ACAD_GROUP
350
D
  3
ACAD_LAYOUT
350
1A
  3
ACAD_MATERIAL
350
12D1
  3
ACAD_MLEADERSTYLE
350
12D7
  3
ACAD_MLINESTYLE
350
17
  3
ACAD_PLOTSETTINGS
350
19
  3
ACAD_PLOTSTYLENAME
350
E
  3
ACAD_SCALELIST
350
1292
  3
ACAD_SECTIONVIEWSTYLE
350
131F
  3
ACAD_TABLESTYLE
350
12D5
  3
ACAD_VISUALSTYLE
350
12B8
  3
ACDB_RECOMPOSE_DATA
350
131A
  3
AcDbVariableDictionary
350
12DB
  0
DICTIONARY
  5
12D9
330
8
100
AcDbDictionary
280
     1
281
     1
  3
ACAD_XREC_ROUNDTRIP
360
12DA
  0
DICTIONARY
  5
131E
102
{ACAD_REACTORS
330
C
102
}
330
C
100
AcDbDictionary
281
     1
  0
DICTIONARY
  5
D
102
{ACAD_REACTORS
330
C
102
}
330
C
100
AcDbDictionary
281
     1
  0
DICTIONARY
  5
1A
102
{ACAD_REACTORS
330
C
102
}
330
C
100
AcDbDictionary
281
     1
  3
Layout1
350
1C
  3
Model
350
1E
  0
DICTIONARY
  5
12D1
102
{ACAD_REACTORS
330
C
102
}
330
C
100
AcDbDictionary
281
     1
  3
ByBlock
350
12D3
  3
ByLayer
350
12D2
  3
Global
350
12D4
  0
DICTIONARY
  5
12D7
102
{ACAD_REACTORS
330
C
102
}
330
C
100
AcDbDictionary
281
     1
  3
Standard
350
12D8
  0
DICTIONARY
  5
17
102
{ACAD_REACTORS
330
C
102
}
330
C
100
AcDbDictionary
281
     1
  3
Standard
350
18
  0
DICTIONARY
  5
19
102
{ACAD_REACTORS
330
C
102
}
330
C
100
AcDbDictionary
281
     1
  0
ACDBDICTIONARYWDFLT
  5
E
102
{ACAD_REACTORS
330
C
102
}
330
C
100
AcDbDictionary
281
     1
  3
Normal
350
F
100
AcDbDictionaryWithDefault
340
F
  0
DICTIONARY
  5
1292
102
{ACAD_REACTORS
330
C
102
}
330
C
100
AcDbDictionary
281
     1
  3
A0
350
1293
  3
A1
350
1294
  3
A2
350
1295
  3
A3
350
1296
  3
A4
350
1297
  3
A5
350
1298
  3
A6
350
1299
  3
A7
350
129A
  3
A8
350
129B
  3
A9
350
129C
  3
B0
350
129D
  3
B1
350
129E
  3
B2
350
129F
  3
B3
350
12A0
  3
B4
350
12A1
  3
B5
350
12A2
  3
B6
350
12A3
  3
B7
350
12A4
  3
B8
350
12A5
  3
B9
350
12A6
  3
C0
350
12A7
  3
C1
350
12A8
  3
C2
350
12A9
  3
C3
350
12AA
  3
C4
350
12AB
  3
C5
350
12AC
  3
C6
350
12AD
  3
C7
350
12AE
  3
C8
350
12AF
  3
C9
350
12B0
  3
D0
350
12B1
  3
D1
350
12B2
  3
D2
350
12B3
  0
DICTIONARY
  5
131F
102
{ACAD_REACTORS
330
C
102
}
330
C
100
AcDbDictionary
281
     1
  0
DICTIONARY
  5
12D5
102
{ACAD_REACTORS
330
C
102
}
330
C
100
AcDbDictionary
281
     1
  3
Standard
350
12D6
  0
DICTIONARY
  5
12B8
102
{ACAD_REACTORS
330
C
102
}
330
C
100
AcDbDictionary
281
     1
  3
2dWireframe
350
12BD
  3
Basic
350
12C0
  3
Brighten
350
12C4
  3
ColorChange
350
12C8
  3
Conceptual
350
12C2
  3
Dim
350
12C3
  3
EdgeColorOff
350
12CB
  3
Facepattern
350
12C7
  3
Flat
350
12B9
  3
FlatWithEdges
350
12BA
  3
Gouraud
350
12BB
  3
GouraudWithEdges
350
12BC
  3
Hidden
350
12BF
  3
JitterOff
350
12C9
  3
Linepattern
350
12C6
  3
OverhangOff
350
12CA
  3
Realistic
350
12C1
  3
Shaded
350
12D0
  3
Shaded with edges
350
12CF
  3
Shades of Gray
350
12CC
  3
Sketchy
350
12CD
  3
Thicken
350
12C5
  3
Wireframe
350
12BE
  3
X-Ray
350
12CE
  0
XRECORD
  5
131A
102
{ACAD_REACTORS
330
C
102
}
330
C
100
AcDbXrecord
280
     1
 90
        1
330
12D6
  0
DICTIONARY
  5
12DB
102
{ACAD_REACTORS
330
C
102
}
330
C
100
AcDbDictionary
281
     1
  3
CANNOSCALE
350
12DC
  3
CMLEADERSTYLE
350
131C
  3
CTABLESTYLE
350
131B
  3
MSLTSCALE
350
131D
  3
XCLIPFRAME
350
12DD
  0
XRECORD
  5
12DA
102
{ACAD_REACTORS
330
12D9
102
}
330
12D9
100
AcDbXrecord
280
     1
102
VTR_0.000_0.000_1.000_1.000_VISUALSTYLE
340
12BD
102
VTR_0.000_0.000_1.000_1.000_GRIDDISPLAY
 70
     3
102
VTR_0.000_0.000_1.000_1.000_GRIDMAJOR
 70
     5
102
VTR_0.000_0.000_1.000_1.000_DEFAULTLIGHTING
280
     1
102
VTR_0.000_0.000_1.000_1.000_DEFAULTLIGHTINGTYPE
 70
     1
102
VTR_0.000_0.000_1.000_1.000_BRIGHTNESS
141
0.0
102
VTR_0.000_0.000_1.000_1.000_CONTRAST
142
0.0
  0
LAYOUT
  5
1C
102
{ACAD_REACTORS
330
1A
102
}
330
1A
100
AcDbPlotSettings
  1

  2
none_device
  4

  6

 40
0.0
 41
0.0
 42
0.0
 43
0.0
 44
0.0
 45
0.0
 46
0.0
 47
0.0
 48
0.0
 49
0.0
140
0.0
141
0.0
142
1.0
143
1.0
 70
   688
 72
     0
 73
     0
 74
     5
  7

 75
    16
 76
     0
 77
     2
 78
   300
147
1.0
148
0.0
149
0.0
100
AcDbLayout
  1
Layout1
 70
     1
 71
     1
 10
0.0
 20
0.0
 11
12.0
 21
9.0
 12
0.0
 22
0.0
 32
0.0
 14
1.000000000000000E+20
 24
1.000000000000000E+20
 34
1.000000000000000E+20
 15
-1.000000000000000E+20
 25
-1.000000000000000E+20
 35
-1.000000000000000E+20
146
0.0
 13
0.0
 23
0.0
 33
0.0
 16
1.0
 26
0.0
 36
0.0
 17
0.0
 27
1.0
 37
0.0
 76
     0
330
1B
  0
LAYOUT
  5
1E
102
{ACAD_REACTORS
330
1A
102
}
330
1A
100
AcDbPlotSettings
  1

  2
none_device
  4
Letter_(8.50_x_11.00_Inches)
  6

 40
6.35
 41
6.35
 42
6.35000508
 43
6.35000508
 44
215.9
 45
279.4
 46
0.0
 47
0.0
 48
0.0
 49
0.0
140
0.0
141
0.0
142
1.0
143
1.0
 70
  1712
 72
     0
 73
     0
 74
     0
  7

 75
     0
 76
     0
 77
     2
 78
   300
147
1.0
148
0.0
149
0.0
100
AcDbLayout
  1
Model
 70
     1
 71
     0
 10
0.0
 20
0.0
 11
12.0
 21
9.0
 12
0.0
 22
0.0
 32
0.0
 14
0.0
 24
0.0
 34
0.0
 15
47.7144
 25
47.7144
 35
0.0
146
0.0
 13
0.0
 23
0.0
 33
0.0
 16
1.0
 26
0.0
 36
0.0
 17
0.0
 27
1.0
 37
0.0
 76
     0
330
1D
331
21
  0
MATERIAL
  5
12D3
102
{ACAD_REACTORS
330
12D1
102
}
102
{ACAD_XDICTIONARY
360
1310
102
}
330
12D1
100
AcDbMaterial
  1
ByBlock
  0
MATERIAL
  5
12D2
102
{ACAD_REACTORS
330
12D1
102
}
102
{ACAD_XDICTIONARY
360
130E
102
}
330
12D1
100
AcDbMaterial
  1
ByLayer
  0
MATERIAL
  5
12D4
102
{ACAD_REACTORS
330
12D1
102
}
102
{ACAD_XDICTIONARY
360
1312
102
}
330
12D1
100
AcDbMaterial
  1
Global
  0
MLEADERSTYLE
  5
12D8
102
{ACAD_REACTORS
330
12D7
102
}
102
{ACAD_XDICTIONARY
360
1318
102
}
330
12D7
100
AcDbMLeaderStyle
170
     2
171
     1
172
     0
 90
        2
 40
0.0
 41
0.0
173
     1
 91
-1056964608
340
14
 92
       -2
290
     1
 42
0.09
291
     1
 43
0.36
  3
Standard
341
0
 44
0.18
300

342
11
174
     1
178
     6
175
     1
176
     0
 93
-1056964608
 45
0.18
292
     0
297
     0
 46
0.18
343
0
 94
-1056964608
 47
1.0
 49
1.0
140
1.0
293
     1
141
0.0
294
     1
177
     0
142
1.0
295
     0
296
     0
143
0.125
1001
ACAD_MLEADERVER
1070
     2
  0
MLINESTYLE
  5
18
102
{ACAD_REACTORS
330
17
102
}
330
17
100
AcDbMlineStyle
  2
Standard
 70
     0
  3

 62
   256
 51
90.0
 52
90.0
 71
     2
 49
0.5
 62
   256
  6
BYLAYER
 49
-0.5
 62
   256
  6
BYLAYER
  0
ACDBPLACEHOLDER
  5
F
102
{ACAD_REACTORS
330
E
102
}
330
E
  0
SCALE
  5
1293
102
{ACAD_REACTORS
330
1292
102
}
330
1292
100
AcDbScale
 70
     0
300
1:1
140
1.0
141
1.0
290
     1
  0
SCALE
  5
1294
102
{ACAD_REACTORS
330
1292
102
}
330
1292
100
AcDbScale
 70
     0
300
1:2
140
1.0
141
2.0
290
     0
  0
SCALE
  5
1295
102
{ACAD_REACTORS
330
1292
102
}
330
1292
100
AcDbScale
 70
     0
300
1:4
140
1.0
141
4.0
290
     0
  0
SCALE
  5
1296
102
{ACAD_REACTORS
330
1292
102
}
330
1292
100
AcDbScale
 70
     0
300
1:5
140
1.0
141
5.0
290
     0
  0
SCALE
  5
1297
102
{ACAD_REACTORS
330
1292
102
}
330
1292
100
AcDbScale
 70
     0
300
1:8
140
1.0
141
8.0
290
     0
  0
SCALE
  5
1298
102
{ACAD_REACTORS
330
1292
102
}
330
1292
100
AcDbScale
 70
     0
300
1:10
140
1.0
141
10.0
290
     0
  0
SCALE
  5
1299
102
{ACAD_REACTORS
330
1292
102
}
330
1292
100
AcDbScale
 70
     0
300
1:16
140
1.0
141
16.0
290
     0
  0
SCALE
  5
129A
102
{ACAD_REACTORS
330
1292
102
}
330
1292
100
AcDbScale
 70
     0
300
1:20
140
1.0
141
20.0
290
     0
  0
SCALE
  5
129B
102
{ACAD_REACTORS
330
1292
102
}
330
1292
100
AcDbScale
 70
     0
300
1:30
140
1.0
141
30.0
290
     0
  0
SCALE
  5
129C
102
{ACAD_REACTORS
330
1292
102
}
330
1292
100
AcDbScale
 70
     0
300
1:40
140
1.0
141
40.0
290
     0
  0
SCALE
  5
129D
102
{ACAD_REACTORS
330
1292
102
}
330
1292
100
AcDbScale
 70
     0
300
1:50
140
1.0
141
50.0
290
     0
  0
SCALE
  5
129E
102
{ACAD_REACTORS
330
1292
102
}
330
1292
100
AcDbScale
 70
     0
300
1:100
140
1.0
141
100.0
290
     0
  0
SCALE
  5
129F
102
{ACAD_REACTORS
330
1292
102
}
330
1292
100
AcDbScale
 70
     0
300
2:1
140
2.0
141
1.0
290
     0
  0
SCALE
  5
12A0
102
{ACAD_REACTORS
330
1292
102
}
330
1292
100
AcDbScale
 70
     0
300
4:1
140
4.0
141
1.0
290
     0
  0
SCALE
  5
12A1
102
{ACAD_REACTORS
330
1292
102
}
330
1292
100
AcDbScale
 70
     0
300
8:1
140
8.0
141
1.0
290
     0
  0
SCALE
  5
12A2
102
{ACAD_REACTORS
330
1292
102
}
330
1292
100
AcDbScale
 70
     0
300
10:1
140
10.0
141
1.0
290
     0
  0
SCALE
  5
12A3
102
{ACAD_REACTORS
330
1292
102
}
330
1292
100
AcDbScale
 70
     0
300
100:1
140
100.0
141
1.0
290
     0
  0
SCALE
  5
12A4
102
{ACAD_REACTORS
330
1292
102
}
330
1292
100
AcDbScale
 70
     0
300
1/128\" = 1\'-0\"
140
0.0078125
141
12.0
290
     0
  0
SCALE
  5
12A5
102
{ACAD_REACTORS
330
1292
102
}
330
1292
100
AcDbScale
 70
     0
300
1/64\" = 1\'-0\"
140
0.015625
141
12.0
290
     0
  0
SCALE
  5
12A6
102
{ACAD_REACTORS
330
1292
102
}
330
1292
100
AcDbScale
 70
     0
300
1/32\" = 1\'-0\"
140
0.03125
141
12.0
290
     0
  0
SCALE
  5
12A7
102
{ACAD_REACTORS
330
1292
102
}
330
1292
100
AcDbScale
 70
     0
300
1/16\" = 1\'-0\"
140
0.0625
141
12.0
290
     0
  0
SCALE
  5
12A8
102
{ACAD_REACTORS
330
1292
102
}
330
1292
100
AcDbScale
 70
     0
300
3/32\" = 1\'-0\"
140
0.09375
141
12.0
290
     0
  0
SCALE
  5
12A9
102
{ACAD_REACTORS
330
1292
102
}
330
1292
100
AcDbScale
 70
     0
300
1/8\" = 1\'-0\"
140
0.125
141
12.0
290
     0
  0
SCALE
  5
12AA
102
{ACAD_REACTORS
330
1292
102
}
330
1292
100
AcDbScale
 70
     0
300
3/16\" = 1\'-0\"
140
0.1875
141
12.0
290
     0
  0
SCALE
  5
12AB
102
{ACAD_REACTORS
330
1292
102
}
330
1292
100
AcDbScale
 70
     0
300
1/4\" = 1\'-0\"
140
0.25
141
12.0
290
     0
  0
SCALE
  5
12AC
102
{ACAD_REACTORS
330
1292
102
}
330
1292
100
AcDbScale
 70
     0
300
3/8\" = 1\'-0\"
140
0.375
141
12.0
290
     0
  0
SCALE
  5
12AD
102
{ACAD_REACTORS
330
1292
102
}
330
1292
100
AcDbScale
 70
     0
300
1/2\" = 1\'-0\"
140
0.5
141
12.0
290
     0
  0
SCALE
  5
12AE
102
{ACAD_REACTORS
330
1292
102
}
330
1292
100
AcDbScale
 70
     0
300
3/4\" = 1\'-0\"
140
0.75
141
12.0
290
     0
  0
SCALE
  5
12AF
102
{ACAD_REACTORS
330
1292
102
}
330
1292
100
AcDbScale
 70
     0
300
1\" = 1\'-0\"
140
1.0
141
12.0
290
     0
  0
SCALE
  5
12B0
102
{ACAD_REACTORS
330
1292
102
}
330
1292
100
AcDbScale
 70
     0
300
1-1/2\" = 1\'-0\"
140
1.5
141
12.0
290
     0
  0
SCALE
  5
12B1
102
{ACAD_REACTORS
330
1292
102
}
330
1292
100
AcDbScale
 70
     0
300
3\" = 1\'-0\"
140
3.0
141
12.0
290
     0
  0
SCALE
  5
12B2
102
{ACAD_REACTORS
330
1292
102
}
330
1292
100
AcDbScale
 70
     0
300
6\" = 1\'-0\"
140
6.0
141
12.0
290
     0
  0
SCALE
  5
12B3
102
{ACAD_REACTORS
330
1292
102
}
330
1292
100
AcDbScale
 70
     0
300
1\'-0\" = 1\'-0\"
140
12.0
141
12.0
290
     0
  0
TABLESTYLE
  5
12D6
102
{ACAD_REACTORS
330
12D5
102
}
102
{ACAD_XDICTIONARY
360
1314
102
}
330
12D5
100
AcDbTableStyle
  3
Standard
 70
     0
 71
     0
 40
0.06
 41
0.06
280
     0
281
     0
  7
Standard
140
0.18
170
     2
 62
     0
 63
   257
283
     0
274
    -2
284
     1
 64
     0
275
    -2
285
     1
 65
     0
276
    -2
286
     1
 66
     0
277
    -2
287
     1
 67
     0
278
    -2
288
     1
 68
     0
279
    -2
289
     1
 69
     0
  7
Standard
140
0.25
170
     5
 62
     0
 63
   257
283
     0
274
    -2
284
     1
 64
     0
275
    -2
285
     1
 65
     0
276
    -2
286
     1
 66
     0
277
    -2
287
     1
 67
     0
278
    -2
288
     1
 68
     0
279
    -2
289
     1
 69
     0
  7
Standard
140
0.18
170
     5
 62
     0
 63
   257
283
     0
274
    -2
284
     1
 64
     0
275
    -2
285
     1
 65
     0
276
    -2
286
     1
 66
     0
277
    -2
287
     1
 67
     0
278
    -2
288
     1
 68
     0
279
    -2
289
     1
 69
     0
  0
VISUALSTYLE
  5
12BD
102
{ACAD_REACTORS
330
12B8
102
}
102
{ACAD_XDICTIONARY
360
12E6
102
}
330
12B8
100
AcDbVisualStyle
  2
2dWireframe
 70
     4
 71
     0
 72
     2
 73
     0
 90
        0
 40
0.6
 41
30.0
 62
     5
 63
     7
421
 16777215
 74
     1
 91
        4
 64
     7
 65
   257
 75
     1
175
     1
 42
1.0
 92
        0
 66
   257
 43
1.0
 76
     1
 77
     6
 78
     2
 67
     7
 79
     5
170
     0
171
     0
290
     0
174
     0
 93
        1
 44
0.0
173
     0
291
     0
 45
0.0
1001
ACAD
1000
AcDbSavedByObjectVersion
1070
     0
  0
VISUALSTYLE
  5
12C0
102
{ACAD_REACTORS
330
12B8
102
}
102
{ACAD_XDICTIONARY
360
12EC
102
}
330
12B8
100
AcDbVisualStyle
  2
Basic
 70
     7
 71
     1
 72
     0
 73
     1
 90
        0
 40
0.6
 41
30.0
 62
     5
 63
     7
421
 16777215
 74
     0
 91
        4
 64
     7
 65
   257
 75
     1
175
     1
 42
1.0
 92
        8
 66
     7
 43
1.0
 76
     1
 77
     6
 78
     2
 67
     7
 79
     5
170
     0
171
     0
290
     0
174
     0
 93
        1
 44
0.0
173
     0
291
     1
 45
0.0
1001
ACAD
1000
AcDbSavedByObjectVersion
1070
     0
  0
VISUALSTYLE
  5
12C4
102
{ACAD_REACTORS
330
12B8
102
}
102
{ACAD_XDICTIONARY
360
12F4
102
}
330
12B8
100
AcDbVisualStyle
  2
Brighten
 70
    12
 71
     2
 72
     2
 73
     0
 90
        0
 40
0.6
 41
30.0
 62
     5
 63
     7
421
 16777215
 74
     1
 91
        4
 64
     7
 65
   257
 75
     1
175
     1
 42
1.0
 92
        8
 66
     7
 43
1.0
 76
     1
 77
     6
 78
     2
 67
     7
 79
     5
170
     0
171
     0
290
     0
174
     0
 93
        1
 44
50.0
173
     0
291
     1
 45
0.0
1001
ACAD
1000
AcDbSavedByObjectVersion
1070
     0
  0
VISUALSTYLE
  5
12C8
102
{ACAD_REACTORS
330
12B8
102
}
102
{ACAD_XDICTIONARY
360
12FC
102
}
330
12B8
100
AcDbVisualStyle
  2
ColorChange
 70
    16
 71
     2
 72
     2
 73
     3
 90
        0
 40
0.6
 41
30.0
 62
     5
 63
     8
421
  8421504
 74
     1
 91
        4
 64
     7
 65
   257
 75
     1
175
     1
 42
1.0
 92
        8
 66
     8
424
  8421504
 43
1.0
 76
     1
 77
     6
 78
     2
 67
     7
 79
     5
170
     0
171
     0
290
     0
174
     0
 93
        1
 44
0.0
173
     0
291
     1
 45
0.0
1001
ACAD
1000
AcDbSavedByObjectVersion
1070
     0
  0
VISUALSTYLE
  5
12C2
102
{ACAD_REACTORS
330
12B8
102
}
102
{ACAD_XDICTIONARY
360
12F0
102
}
330
12B8
100
AcDbVisualStyle
  2
Conceptual
 70
     9
 71
     3
 72
     2
 73
     0
 90
        0
 40
0.6
 41
30.0
 62
     5
 63
     7
421
 16777215
 74
     2
 91
        2
 64
     7
 65
   257
 75
     1
175
     1
 42
179.0
 92
        8
 66
     7
 43
1.0
 76
     1
 77
     6
 78
     2
 67
     7
 79
     3
170
     0
171
     0
290
     0
174
     0
 93
        1
 44
0.0
173
     0
291
     0
 45
0.0
1001
ACAD
1000
AcDbSavedByObjectVersion
1070
     0
  0
VISUALSTYLE
  5
12C3
102
{ACAD_REACTORS
330
12B8
102
}
102
{ACAD_XDICTIONARY
360
12F2
102
}
330
12B8
100
AcDbVisualStyle
  2
Dim
 70
    11
 71
     2
 72
     2
 73
     0
 90
        0
 40
0.6
 41
30.0
 62
     5
 63
     7
421
 16777215
 74
     1
 91
        4
 64
     7
 65
   257
 75
     1
175
     1
 42
1.0
 92
        8
 66
     7
 43
1.0
 76
     1
 77
     6
 78
     2
 67
     7
 79
     5
170
     0
171
     0
290
     0
174
     0
 93
        1
 44
-50.0
173
     0
291
     1
 45
0.0
1001
ACAD
1000
AcDbSavedByObjectVersion
1070
     0
  0
VISUALSTYLE
  5
12CB
102
{ACAD_REACTORS
330
12B8
102
}
102
{ACAD_XDICTIONARY
360
1302
102
}
330
12B8
100
AcDbVisualStyle
  2
EdgeColorOff
 70
    22
 71
     2
 72
     2
 73
     0
 90
        0
 40
0.6
 41
30.0
 62
     5
 63
     7
421
 16777215
 74
     1
 91
        4
 64
     7
 65
   257
 75
     1
175
     1
 42
1.0
 92
        8
 66
     7
 43
1.0
 76
     1
 77
     6
 78
     2
 67
     7
 79
     5
170
     0
171
     0
290
     0
174
     0
 93
        1
 44
0.0
173
     0
291
     1
 45
0.0
1001
ACAD
1000
AcDbSavedByObjectVersion
1070
     0
  0
VISUALSTYLE
  5
12C7
102
{ACAD_REACTORS
330
12B8
102
}
102
{ACAD_XDICTIONARY
360
12FA
102
}
330
12B8
100
AcDbVisualStyle
  2
Facepattern
 70
    15
 71
     2
 72
     2
 73
     0
 90
        0
 40
0.6
 41
30.0
 62
     5
 63
     7
421
 16777215
 74
     1
 91
        4
 64
     7
 65
   257
 75
     1
175
     1
 42
1.0
 92
        8
 66
     7
 43
1.0
 76
     1
 77
     6
 78
     2
 67
     7
 79
     5
170
     0
171
     0
290
     0
174
     0
 93
        1
 44
0.0
173
     0
291
     1
 45
0.0
1001
ACAD
1000
AcDbSavedByObjectVersion
1070
     0
  0
VISUALSTYLE
  5
12B9
102
{ACAD_REACTORS
330
12B8
102
}
102
{ACAD_XDICTIONARY
360
12DE
102
}
330
12B8
100
AcDbVisualStyle
  2
Flat
 70
     0
 71
     2
 72
     1
 73
     1
 90
        2
 40
0.6
 41
30.0
 62
     5
 63
     7
421
 16777215
 74
     0
 91
        0
 64
     7
 65
   257
 75
     1
175
     1
 42
1.0
 92
        8
 66
     7
 43
1.0
 76
     1
 77
     6
 78
     2
 67
     7
 79
     5
170
     0
171
     0
290
     0
174
     0
 93
       13
 44
0.0
173
     0
291
     1
 45
0.0
1001
ACAD
1000
AcDbSavedByObjectVersion
1070
     0
  0
VISUALSTYLE
  5
12BA
102
{ACAD_REACTORS
330
12B8
102
}
102
{ACAD_XDICTIONARY
360
12E0
102
}
330
12B8
100
AcDbVisualStyle
  2
FlatWithEdges
 70
     1
 71
     2
 72
     1
 73
     1
 90
        2
 40
0.6
 41
30.0
 62
     5
 63
     7
421
 16777215
 74
     1
 91
        0
 64
     7
 65
   257
 75
     1
175
     1
 42
1.0
 92
        0
 66
   257
 43
1.0
 76
     1
 77
     6
 78
     2
 67
     7
 79
     5
170
     0
171
     0
290
     0
174
     0
 93
       13
 44
0.0
173
     0
291
     1
 45
0.0
1001
ACAD
1000
AcDbSavedByObjectVersion
1070
     0
  0
VISUALSTYLE
  5
12BB
102
{ACAD_REACTORS
330
12B8
102
}
102
{ACAD_XDICTIONARY
360
12E2
102
}
330
12B8
100
AcDbVisualStyle
  2
Gouraud
 70
     2
 71
     2
 72
     2
 73
     1
 90
        2
 40
0.6
 41
30.0
 62
     5
 63
     7
421
 16777215
 74
     0
 91
        0
 64
     7
 65
   257
 75
     1
175
     1
 42
1.0
 92
        0
 66
     7
 43
1.0
 76
     1
 77
     6
 78
     2
 67
     7
 79
     5
170
     0
171
     0
290
     0
174
     0
 93
       13
 44
0.0
173
     0
291
     1
 45
0.0
1001
ACAD
1000
AcDbSavedByObjectVersion
1070
     0
  0
VISUALSTYLE
  5
12BC
102
{ACAD_REACTORS
330
12B8
102
}
102
{ACAD_XDICTIONARY
360
12E4
102
}
330
12B8
100
AcDbVisualStyle
  2
GouraudWithEdges
 70
     3
 71
     2
 72
     2
 73
     1
 90
        2
 40
0.6
 41
30.0
 62
     5
 63
     7
421
 16777215
 74
     1
 91
        0
 64
     7
 65
   257
 75
     1
175
     1
 42
1.0
 92
        0
 66
   257
 43
1.0
 76
     1
 77
     6
 78
     2
 67
     7
 79
     5
170
     0
171
     0
290
     0
174
     0
 93
       13
 44
0.0
173
     0
291
     1
 45
0.0
1001
ACAD
1000
AcDbSavedByObjectVersion
1070
     0
  0
VISUALSTYLE
  5
12BF
102
{ACAD_REACTORS
330
12B8
102
}
102
{ACAD_XDICTIONARY
360
12EA
102
}
330
12B8
100
AcDbVisualStyle
  2
Hidden
 70
     6
 71
     1
 72
     2
 73
     2
 90
        0
 40
0.6
 41
30.0
 62
     5
 63
     7
421
 16777215
 74
     2
 91
        2
 64
     7
 65
   257
 75
     2
175
     1
 42
40.0
 92
        0
 66
   257
 43
1.0
 76
     1
 77
     6
 78
     2
 67
     7
 79
     3
170
     0
171
     0
290
     0
174
     0
 93
        1
 44
0.0
173
     0
291
     0
 45
0.0
1001
ACAD
1000
AcDbSavedByObjectVersion
1070
     0
  0
VISUALSTYLE
  5
12C9
102
{ACAD_REACTORS
330
12B8
102
}
102
{ACAD_XDICTIONARY
360
12FE
102
}
330
12B8
100
AcDbVisualStyle
  2
JitterOff
 70
    20
 71
     2
 72
     2
 73
     0
 90
        0
 40
0.6
 41
30.0
 62
     5
 63
     7
421
 16777215
 74
     1
 91
        4
 64
     7
 65
   257
 75
     1
175
     1
 42
1.0
 92
       10
 66
     7
 43
1.0
 76
     1
 77
     6
 78
     2
 67
     7
 79
     5
170
     0
171
     0
290
     0
174
     0
 93
        1
 44
0.0
173
     0
291
     1
 45
0.0
1001
ACAD
1000
AcDbSavedByObjectVersion
1070
     0
  0
VISUALSTYLE
  5
12C6
102
{ACAD_REACTORS
330
12B8
102
}
102
{ACAD_XDICTIONARY
360
12F8
102
}
330
12B8
100
AcDbVisualStyle
  2
Linepattern
 70
    14
 71
     2
 72
     2
 73
     0
 90
        0
 40
0.6
 41
30.0
 62
     5
 63
     7
421
 16777215
 74
     1
 91
        4
 64
     7
 65
   257
 75
     7
175
     7
 42
1.0
 92
        8
 66
     7
 43
1.0
 76
     1
 77
     6
 78
     2
 67
     7
 79
     5
170
     0
171
     0
290
     0
174
     0
 93
        1
 44
0.0
173
     0
291
     1
 45
0.0
1001
ACAD
1000
AcDbSavedByObjectVersion
1070
     0
  0
VISUALSTYLE
  5
12CA
102
{ACAD_REACTORS
330
12B8
102
}
102
{ACAD_XDICTIONARY
360
1300
102
}
330
12B8
100
AcDbVisualStyle
  2
OverhangOff
 70
    21
 71
     2
 72
     2
 73
     0
 90
        0
 40
0.6
 41
30.0
 62
     5
 63
     7
421
 16777215
 74
     1
 91
        4
 64
     7
 65
   257
 75
     1
175
     1
 42
1.0
 92
        9
 66
     7
 43
1.0
 76
     1
 77
     6
 78
     2
 67
     7
 79
     5
170
     0
171
     0
290
     0
174
     0
 93
        1
 44
0.0
173
     0
291
     1
 45
0.0
1001
ACAD
1000
AcDbSavedByObjectVersion
1070
     0
  0
VISUALSTYLE
  5
12C1
102
{ACAD_REACTORS
330
12B8
102
}
102
{ACAD_XDICTIONARY
360
12EE
102
}
330
12B8
100
AcDbVisualStyle
  2
Realistic
 70
     8
 71
     2
 72
     3
 73
     0
 90
        2
 40
0.6
 41
30.0
 62
     5
 63
     7
421
 16777215
 74
     0
 91
        0
 64
     7
 65
   257
 75
     1
175
     1
 42
1.0
 92
        8
 66
   257
 43
1.0
 76
     1
 77
     6
 78
     2
 67
     7
 79
     3
170
     0
171
     0
290
     0
174
     0
 93
       13
 44
0.0
173
     0
291
     0
 45
0.0
1001
ACAD
1000
AcDbSavedByObjectVersion
1070
     0
  0
VISUALSTYLE
  5
12D0
102
{ACAD_REACTORS
330
12B8
102
}
102
{ACAD_XDICTIONARY
360
130C
102
}
330
12B8
100
AcDbVisualStyle
  2
Shaded
 70
    27
 71
     2
 72
     2
 73
     1
 90
        2
 40
0.6
 41
30.0
 62
     5
 63
     7
421
 16777215
 74
     0
 91
        4
 64
     7
 65
   257
 75
     1
175
     1
 42
1.0
 92
        8
 66
   257
 43
1.0
 76
     1
 77
     6
 78
     2
 67
     8
425
  7895160
 79
     3
170
     0
171
     0
290
     0
174
     0
 93
        5
 44
0.0
173
     0
291
     0
 45
0.0
1001
ACAD
1000
AcDbSavedByObjectVersion
1070
     0
  0
VISUALSTYLE
  5
12CF
102
{ACAD_REACTORS
330
12B8
102
}
102
{ACAD_XDICTIONARY
360
130A
102
}
330
12B8
100
AcDbVisualStyle
  2
Shaded with edges
 70
    26
 71
     2
 72
     2
 73
     1
 90
        2
 40
0.6
 41
30.0
 62
     5
 63
     7
421
 16777215
 74
     1
 91
       10
 64
     7
 65
   257
 75
     2
175
     1
 42
1.0
 92
        8
 66
   257
 43
1.0
 76
     1
 77
     6
 78
     2
 67
     7
 79
     3
170
     0
171
     0
290
     0
174
     0
 93
        5
 44
0.0
173
     0
291
     0
 45
0.0
1001
ACAD
1000
AcDbSavedByObjectVersion
1070
     0
  0
VISUALSTYLE
  5
12CC
102
{ACAD_REACTORS
330
12B8
102
}
102
{ACAD_XDICTIONARY
360
1304
102
}
330
12B8
100
AcDbVisualStyle
  2
Shades of Gray
 70
    23
 71
     2
 72
     2
 73
     3
 90
        0
 40
0.6
 41
30.0
 62
     5
 63
     7
421
 16777215
 74
     2
 91
        2
 64
     7
 65
     7
 75
     1
175
     1
 42
40.0
 92
        8
 66
     7
 43
1.0
 76
     1
 77
     6
 78
     2
 67
     7
 79
     3
170
     0
171
     0
290
     0
174
     0
 93
        1
 44
0.0
173
     0
291
     0
 45
0.0
1001
ACAD
1000
AcDbSavedByObjectVersion
1070
     0
  0
VISUALSTYLE
  5
12CD
102
{ACAD_REACTORS
330
12B8
102
}
102
{ACAD_XDICTIONARY
360
1306
102
}
330
12B8
100
AcDbVisualStyle
  2
Sketchy
 70
    24
 71
     1
 72
     2
 73
     2
 90
        0
 40
0.6
 41
30.0
 62
     5
 63
     7
421
 16777215
 74
     2
 91
        2
 64
     7
 65
     7
 75
     1
175
     1
 42
40.0
 92
       11
 66
     7
 43
1.0
 76
     1
 77
     6
 78
     2
 67
     7
 79
     6
170
     0
171
     0
290
     0
174
     0
 93
        1
 44
0.0
173
     0
291
     0
 45
0.0
1001
ACAD
1000
AcDbSavedByObjectVersion
1070
     0
  0
VISUALSTYLE
  5
12C5
102
{ACAD_REACTORS
330
12B8
102
}
102
{ACAD_XDICTIONARY
360
12F6
102
}
330
12B8
100
AcDbVisualStyle
  2
Thicken
 70
    13
 71
     2
 72
     2
 73
     0
 90
        0
 40
0.6
 41
30.0
 62
     5
 63
     7
421
 16777215
 74
     1
 91
        4
 64
     7
 65
   257
 75
     1
175
     1
 42
1.0
 92
       12
 66
     7
 43
1.0
 76
     1
 77
     6
 78
     2
 67
     7
 79
     5
170
     0
171
     0
290
     0
174
     0
 93
        1
 44
0.0
173
     0
291
     1
 45
0.0
1001
ACAD
1000
AcDbSavedByObjectVersion
1070
     0
  0
VISUALSTYLE
  5
12BE
102
{ACAD_REACTORS
330
12B8
102
}
102
{ACAD_XDICTIONARY
360
12E8
102
}
330
12B8
100
AcDbVisualStyle
  2
Wireframe
 70
     5
 71
     0
 72
     2
 73
     0
 90
        0
 40
0.6
 41
30.0
 62
     5
 63
     7
421
 16777215
 74
     1
 91
        4
 64
     7
 65
   257
 75
     1
175
     1
 42
1.0
 92
        0
 66
   257
 43
1.0
 76
     1
 77
     6
 78
     2
 67
     7
 79
     3
170
     0
171
     0
290
     0
174
     0
 93
        1
 44
0.0
173
     0
291
     0
 45
0.0
1001
ACAD
1000
AcDbSavedByObjectVersion
1070
     0
  0
VISUALSTYLE
  5
12CE
102
{ACAD_REACTORS
330
12B8
102
}
102
{ACAD_XDICTIONARY
360
1308
102
}
330
12B8
100
AcDbVisualStyle
  2
X-Ray
 70
    25
 71
     2
 72
     2
 73
     1
 90
        1
 40
0.5
 41
30.0
 62
     5
 63
     7
421
 16777215
 74
     1
 91
        0
 64
     7
 65
   257
 75
     1
175
     1
 42
1.0
 92
        8
 66
     7
 43
1.0
 76
     1
 77
     6
 78
     2
 67
     7
 79
     3
170
     0
171
     0
290
     0
174
     0
 93
       13
 44
0.0
173
     0
291
     0
 45
0.0
1001
ACAD
1000
AcDbSavedByObjectVersion
1070
     0
  0
DICTIONARYVAR
  5
12DC
102
{ACAD_REACTORS
330
12DB
102
}
330
12DB
100
DictionaryVariables
280
     0
  1
1:1
  0
DICTIONARYVAR
  5
131C
102
{ACAD_REACTORS
330
12DB
102
}
330
12DB
100
DictionaryVariables
280
     0
  1
Standard
  0
DICTIONARYVAR
  5
131B
102
{ACAD_REACTORS
330
12DB
102
}
330
12DB
100
DictionaryVariables
280
     0
  1
Standard
  0
DICTIONARYVAR
  5
131D
102
{ACAD_REACTORS
330
12DB
102
}
330
12DB
100
DictionaryVariables
280
     0
  1
0
  0
DICTIONARYVAR
  5
12DD
102
{ACAD_REACTORS
330
12DB
102
}
330
12DB
100
DictionaryVariables
280
     0
  1
2
  0
DICTIONARY
  5
1310
330
12D3
100
AcDbDictionary
280
     1
281
     1
  3
ACAD_XREC_ROUNDTRIP
360
1311
  0
DICTIONARY
  5
130E
330
12D2
100
AcDbDictionary
280
     1
281
     1
  3
ACAD_XREC_ROUNDTRIP
360
130F
  0
DICTIONARY
  5
1312
330
12D4
100
AcDbDictionary
280
     1
281
     1
  3
ACAD_XREC_ROUNDTRIP
360
1313
  0
DICTIONARY
  5
1318
330
12D8
100
AcDbDictionary
280
     1
281
     1
  3
ACAD_XREC_ROUNDTRIP
360
1319
  0
DICTIONARY
  5
1314
330
12D6
100
AcDbDictionary
280
     1
281
     1
  3
ACAD_ROUNDTRIP_2008_TABLESTYLE_CELLSTYLEMAP
360
1316
  3
ACAD_XREC_ROUNDTRIP
360
1315
  0
DICTIONARY
  5
12E6
330
12BD
100
AcDbDictionary
280
     1
281
     1
  3
ACAD_XREC_ROUNDTRIP
360
12E7
  0
DICTIONARY
  5
12EC
330
12C0
100
AcDbDictionary
280
     1
281
     1
  3
ACAD_XREC_ROUNDTRIP
360
12ED
  0
DICTIONARY
  5
12F4
330
12C4
100
AcDbDictionary
280
     1
281
     1
  3
ACAD_XREC_ROUNDTRIP
360
12F5
  0
DICTIONARY
  5
12FC
330
12C8
100
AcDbDictionary
280
     1
281
     1
  3
ACAD_XREC_ROUNDTRIP
360
12FD
  0
DICTIONARY
  5
12F0
330
12C2
100
AcDbDictionary
280
     1
281
     1
  3
ACAD_XREC_ROUNDTRIP
360
12F1
  0
DICTIONARY
  5
12F2
330
12C3
100
AcDbDictionary
280
     1
281
     1
  3
ACAD_XREC_ROUNDTRIP
360
12F3
  0
DICTIONARY
  5
1302
330
12CB
100
AcDbDictionary
280
     1
281
     1
  3
ACAD_XREC_ROUNDTRIP
360
1303
  0
DICTIONARY
  5
12FA
330
12C7
100
AcDbDictionary
280
     1
281
     1
  3
ACAD_XREC_ROUNDTRIP
360
12FB
  0
DICTIONARY
  5
12DE
330
12B9
100
AcDbDictionary
280
     1
281
     1
  3
ACAD_XREC_ROUNDTRIP
360
12DF
  0
DICTIONARY
  5
12E0
330
12BA
100
AcDbDictionary
280
     1
281
     1
  3
ACAD_XREC_ROUNDTRIP
360
12E1
  0
DICTIONARY
  5
12E2
330
12BB
100
AcDbDictionary
280
     1
281
     1
  3
ACAD_XREC_ROUNDTRIP
360
12E3
  0
DICTIONARY
  5
12E4
330
12BC
100
AcDbDictionary
280
     1
281
     1
  3
ACAD_XREC_ROUNDTRIP
360
12E5
  0
DICTIONARY
  5
12EA
330
12BF
100
AcDbDictionary
280
     1
281
     1
  3
ACAD_XREC_ROUNDTRIP
360
12EB
  0
DICTIONARY
  5
12FE
330
12C9
100
AcDbDictionary
280
     1
281
     1
  3
ACAD_XREC_ROUNDTRIP
360
12FF
  0
DICTIONARY
  5
12F8
330
12C6
100
AcDbDictionary
280
     1
281
     1
  3
ACAD_XREC_ROUNDTRIP
360
12F9
  0
DICTIONARY
  5
1300
330
12CA
100
AcDbDictionary
280
     1
281
     1
  3
ACAD_XREC_ROUNDTRIP
360
1301
  0
DICTIONARY
  5
12EE
330
12C1
100
AcDbDictionary
280
     1
281
     1
  3
ACAD_XREC_ROUNDTRIP
360
12EF
  0
DICTIONARY
  5
130C
330
12D0
100
AcDbDictionary
280
     1
281
     1
  3
ACAD_XREC_ROUNDTRIP
360
130D
  0
DICTIONARY
  5
130A
330
12CF
100
AcDbDictionary
280
     1
281
     1
  3
ACAD_XREC_ROUNDTRIP
360
130B
  0
DICTIONARY
  5
1304
330
12CC
100
AcDbDictionary
280
     1
281
     1
  3
ACAD_XREC_ROUNDTRIP
360
1305
  0
DICTIONARY
  5
1306
330
12CD
100
AcDbDictionary
280
     1
281
     1
  3
ACAD_XREC_ROUNDTRIP
360
1307
  0
DICTIONARY
  5
12F6
330
12C5
100
AcDbDictionary
280
     1
281
     1
  3
ACAD_XREC_ROUNDTRIP
360
12F7
  0
DICTIONARY
  5
12E8
330
12BE
100
AcDbDictionary
280
     1
281
     1
  3
ACAD_XREC_ROUNDTRIP
360
12E9
  0
DICTIONARY
  5
1308
330
12CE
100
AcDbDictionary
280
     1
281
     1
  3
ACAD_XREC_ROUNDTRIP
360
1309
  0
XRECORD
  5
1311
102
{ACAD_REACTORS
330
1310
102
}
330
1310
100
AcDbXrecord
280
     1
102
MATERIAL
148
0.0
149
0.0
149
0.0
 93
        0
 94
      127
282
     0
 72
     1
 77
     1
171
     1
175
     1
179
     1
273
     0
  0
XRECORD
  5
130F
102
{ACAD_REACTORS
330
130E
102
}
330
130E
100
AcDbXrecord
280
     1
102
MATERIAL
148
0.0
149
0.0
149
0.0
 93
        0
 94
      127
282
     0
 72
     1
 77
     1
171
     1
175
     1
179
     1
273
     0
  0
XRECORD
  5
1313
102
{ACAD_REACTORS
330
1312
102
}
330
1312
100
AcDbXrecord
280
     1
102
MATERIAL
148
0.0
149
0.0
149
0.0
 93
        0
 94
      127
282
     0
 72
     1
 77
     1
171
     1
175
     1
179
     1
273
     0
  0
XRECORD
  5
1319
102
{ACAD_REACTORS
330
1318
102
}
330
1318
100
AcDbXrecord
280
     1
102
ACAD_ROUNDTRIP_2010_MLEADER_STYLE
  0
CELLSTYLEMAP
  5
1316
102
{ACAD_REACTORS
330
1314
102
}
330
1314
100
AcDbCellStyleMap
 90
        3
300
CELLSTYLE
  1
TABLEFORMAT_BEGIN
 90
        5
170
     1
 91
        0
 92
    32768
 62
   257
 93
        1
300
CONTENTFORMAT
  1
CONTENTFORMAT_BEGIN
 90
        0
 91
        0
 92
        4
 93
        0
300

 40
0.0
140
1.0
 94
        5
 62
     0
340
11
144
0.25
309
CONTENTFORMAT_END
171
     1
301
MARGIN
  1
CELLMARGIN_BEGIN
 40
0.06
 40
0.06
 40
0.06
 40
0.06
 40
0.06
 40
0.06
309
CELLMARGIN_END
 94
        6
 95
        1
302
GRIDFORMAT
  1
GRIDFORMAT_BEGIN
 90
        0
 91
        1
 62
     0
 92
       -2
340
14
 93
        0
 40
0.045
309
GRIDFORMAT_END
 95
        2
302
GRIDFORMAT
  1
GRIDFORMAT_BEGIN
 90
        0
 91
        1
 62
     0
 92
       -2
340
14
 93
        0
 40
0.045
309
GRIDFORMAT_END
 95
        4
302
GRIDFORMAT
  1
GRIDFORMAT_BEGIN
 90
        0
 91
        1
 62
     0
 92
       -2
340
14
 93
        0
 40
0.045
309
GRIDFORMAT_END
 95
        8
302
GRIDFORMAT
  1
GRIDFORMAT_BEGIN
 90
        0
 91
        1
 62
     0
 92
       -2
340
14
 93
        0
 40
0.045
309
GRIDFORMAT_END
 95
       16
302
GRIDFORMAT
  1
GRIDFORMAT_BEGIN
 90
        0
 91
        1
 62
     0
 92
       -2
340
14
 93
        0
 40
0.045
309
GRIDFORMAT_END
 95
       32
302
GRIDFORMAT
  1
GRIDFORMAT_BEGIN
 90
        0
 91
        1
 62
     0
 92
       -2
340
14
 93
        0
 40
0.045
309
GRIDFORMAT_END
309
TABLEFORMAT_END
  1
CELLSTYLE_BEGIN
 90
        1
 91
        1
300
_TITLE
309
CELLSTYLE_END
300
CELLSTYLE
  1
TABLEFORMAT_BEGIN
 90
        5
170
     1
 91
        0
 92
        0
 62
   257
 93
        1
300
CONTENTFORMAT
  1
CONTENTFORMAT_BEGIN
 90
        0
 91
        0
 92
        4
 93
        0
300

 40
0.0
140
1.0
 94
        5
 62
     0
340
11
144
0.18
309
CONTENTFORMAT_END
171
     1
301
MARGIN
  1
CELLMARGIN_BEGIN
 40
0.06
 40
0.06
 40
0.06
 40
0.06
 40
0.06
 40
0.06
309
CELLMARGIN_END
 94
        6
 95
        1
302
GRIDFORMAT
  1
GRIDFORMAT_BEGIN
 90
        0
 91
        1
 62
     0
 92
       -2
340
14
 93
        0
 40
0.045
309
GRIDFORMAT_END
 95
        2
302
GRIDFORMAT
  1
GRIDFORMAT_BEGIN
 90
        0
 91
        1
 62
     0
 92
       -2
340
14
 93
        0
 40
0.045
309
GRIDFORMAT_END
 95
        4
302
GRIDFORMAT
  1
GRIDFORMAT_BEGIN
 90
        0
 91
        1
 62
     0
 92
       -2
340
14
 93
        0
 40
0.045
309
GRIDFORMAT_END
 95
        8
302
GRIDFORMAT
  1
GRIDFORMAT_BEGIN
 90
        0
 91
        1
 62
     0
 92
       -2
340
14
 93
        0
 40
0.045
309
GRIDFORMAT_END
 95
       16
302
GRIDFORMAT
  1
GRIDFORMAT_BEGIN
 90
        0
 91
        1
 62
     0
 92
       -2
340
14
 93
        0
 40
0.045
309
GRIDFORMAT_END
 95
       32
302
GRIDFORMAT
  1
GRIDFORMAT_BEGIN
 90
        0
 91
        1
 62
     0
 92
       -2
340
14
 93
        0
 40
0.045
309
GRIDFORMAT_END
309
TABLEFORMAT_END
  1
CELLSTYLE_BEGIN
 90
        2
 91
        1
300
_HEADER
309
CELLSTYLE_END
300
CELLSTYLE
  1
TABLEFORMAT_BEGIN
 90
        5
170
     1
 91
        0
 92
        0
 62
   257
 93
        1
300
CONTENTFORMAT
  1
CONTENTFORMAT_BEGIN
 90
        0
 91
        0
 92
        4
 93
        0
300

 40
0.0
140
1.0
 94
        2
 62
     0
340
11
144
0.18
309
CONTENTFORMAT_END
171
     1
301
MARGIN
  1
CELLMARGIN_BEGIN
 40
0.06
 40
0.06
 40
0.06
 40
0.06
 40
0.06
 40
0.06
309
CELLMARGIN_END
 94
        6
 95
        1
302
GRIDFORMAT
  1
GRIDFORMAT_BEGIN
 90
        0
 91
        1
 62
     0
 92
       -2
340
14
 93
        0
 40
0.045
309
GRIDFORMAT_END
 95
        2
302
GRIDFORMAT
  1
GRIDFORMAT_BEGIN
 90
        0
 91
        1
 62
     0
 92
       -2
340
14
 93
        0
 40
0.045
309
GRIDFORMAT_END
 95
        4
302
GRIDFORMAT
  1
GRIDFORMAT_BEGIN
 90
        0
 91
        1
 62
     0
 92
       -2
340
14
 93
        0
 40
0.045
309
GRIDFORMAT_END
 95
        8
302
GRIDFORMAT
  1
GRIDFORMAT_BEGIN
 90
        0
 91
        1
 62
     0
 92
       -2
340
14
 93
        0
 40
0.045
309
GRIDFORMAT_END
 95
       16
302
GRIDFORMAT
  1
GRIDFORMAT_BEGIN
 90
        0
 91
        1
 62
     0
 92
       -2
340
14
 93
        0
 40
0.045
309
GRIDFORMAT_END
 95
       32
302
GRIDFORMAT
  1
GRIDFORMAT_BEGIN
 90
        0
 91
        1
 62
     0
 92
       -2
340
14
 93
        0
 40
0.045
309
GRIDFORMAT_END
309
TABLEFORMAT_END
  1
CELLSTYLE_BEGIN
 90
        3
 91
        2
300
_DATA
309
CELLSTYLE_END
  0
XRECORD
  5
1315
102
{ACAD_REACTORS
330
1314
102
}
330
1314
100
AcDbXrecord
280
     1
102
ACAD_ROUNDTRIP_PRE2007_TABLESTYLE
 90
        4
 91
        0
  1

 92
        4
 93
        0
  2

 94
        4
 95
        0
  3

  0
XRECORD
  5
12E7
102
{ACAD_REACTORS
330
12E6
102
}
330
12E6
100
AcDbXrecord
280
     1
102
RTVSPropertyOp0
 70
     1
102
RTVSPropertyOp1
 70
     1
102
RTVSPropertyOp2
 70
     1
102
RTVSPropertyOp3
 70
     1
102
RTVSPropertyOp4
 70
     1
102
RTVSPropertyOp5
 70
     1
102
RTVSPropertyOp6
 70
     1
102
RTVSPropertyOp7
 70
     1
102
RTVSPropertyOp8
 70
     1
102
RTVSPropertyOp9
 70
     1
102
RTVSPropertyOp10
 70
     1
102
RTVSPropertyOp11
 70
     1
102
RTVSPropertyOp12
 70
     1
102
RTVSPropertyOp13
 70
     1
102
RTVSPropertyOp14
 70
     1
102
RTVSPropertyOp15
 70
     1
102
RTVSPropertyOp16
 70
     1
102
RTVSPropertyOp17
 70
     1
102
RTVSPropertyOp18
 70
     1
102
RTVSPropertyOp19
 70
     1
102
RTVSPropertyOp20
 70
     1
102
RTVSPropertyOp21
 70
     1
102
RTVSPropertyOp22
 70
     1
102
RTVSPropertyOp23
 70
     1
102
RTVSPropertyOp24
 70
     1
102
RTVSPropertyOp25
 70
     1
102
RTVSPropertyOp26
 70
     1
102
RTVSPropertyOp27
 70
     1
102
RTVSPropertyOp28
 70
     1
102
RTVSPropertyOp29
 70
     1
102
RTVSPropertyOp30
 70
     1
102
RTVSPropertyOp31
 70
     1
102
RTVSPropertyOp32
 70
     1
102
RTVSPropertyOp33
 70
     1
102
RTVSPropertyOp34
 70
     1
102
RTVSPropertyOp35
 70
     1
102
RTVSPropertyOp36
 70
     1
102
RTVSPropertyOp37
 70
     1
102
RTVSPropertyOp38
 70
     1
102
RTVSPropertyOp39
 70
     1
102
RTVSPropertyOp40
 70
     1
102
RTVSPropertyOp41
 70
     1
102
RTVSPropertyOp42
 70
     1
102
RTVSPropertyOp43
 70
     1
102
RTVSPropertyOp44
 70
     1
102
RTVSPropertyOp45
 70
     1
102
RTVSPropertyOp46
 70
     1
102
RTVSPropertyOp47
 70
     1
102
RTVSPropertyOp48
 70
     1
102
RTVSPropertyOp49
 70
     1
102
RTVSPropertyOp50
 70
     1
102
RTVSPropertyOp51
 70
     0
102
RTVSPropertyOp52
 70
     0
102
RTVSPropertyOp53
 70
     1
102
RTVSPropertyOp54
 70
     1
102
RTVSPropertyOp55
 70
     1
102
RTVSPropertyOp56
 70
     1
102
RTVSPropertyOp57
 70
     1
102
RTVSPost2010Prop28
280
     1
102
RTVSPost2010PropOp28
 70
     1
102
RTVSPost2010Prop29
280
     1
102
RTVSPost2010PropOp29
 70
     1
102
RTVSPost2010Prop30
280
     0
102
RTVSPost2010PropOp30
 70
     1
102
RTVSPost2010Prop31
280
     0
102
RTVSPost2010PropOp31
 70
     1
102
RTVSPost2010Prop32
280
     0
102
RTVSPost2010PropOp32
 70
     1
102
RTVSPost2010Prop33
280
     0
102
RTVSPost2010PropOp33
 70
     1
102
RTVSPost2010Prop34
280
     0
102
RTVSPost2010PropOp34
 70
     1
102
RTVSPost2010Prop35
280
     0
102
RTVSPost2010PropOp35
 70
     1
102
RTVSPost2010Prop36
280
     0
102
RTVSPost2010PropOp36
 70
     1
102
RTVSPost2010Prop37
 90
       50
102
RTVSPost2010PropOp37
 70
     1
102
RTVSPost2010Prop38
140
0.0
102
RTVSPost2010PropOp38
 70
     1
102
RTVSPost2010Prop39
140
1.0
102
RTVSPost2010PropOp39
 70
     1
102
RTVSPost2010Prop40
 90
        0
102
RTVSPost2010PropOp40
 70
     1
102
RTVSPost2010Prop41ColorIndex
 90
       18
102
RTVSPost2010Prop41ColorRGB
 90
        0
102
RTVSPost2010PropOp41
 70
     1
102
RTVSPost2010Prop42
 90
       50
102
RTVSPost2010PropOp42
 70
     1
102
RTVSPost2010Prop43
 90
        3
102
RTVSPost2010PropOp43
 70
     1
102
RTVSPost2010Prop44ColorIndex
 90
        5
102
RTVSPost2010Prop44ColorRGB
 90
      255
102
RTVSPost2010PropOp44
 70
     1
102
RTVSPost2010Prop45
280
     0
102
RTVSPost2010PropOp45
 70
     1
102
RTVSPost2010Prop46
 90
       50
102
RTVSPost2010PropOp46
 70
     1
102
RTVSPost2010Prop47
 90
       50
102
RTVSPost2010PropOp47
 70
     1
102
RTVSPost2010Prop48
 90
       50
102
RTVSPost2010PropOp48
 70
     1
102
RTVSPost2010Prop49
280
     0
102
RTVSPost2010PropOp49
 70
     1
102
RTVSPost2010Prop50
 90
       50
102
RTVSPost2010PropOp50
 70
     1
102
RTVSPost2010Prop51ColorIndex
 90
      256
102
RTVSPost2010Prop51ColorRGB
 90
-16777216
102
RTVSPost2010PropOp51
 70
     0
102
RTVSPost2010Prop52
140
1.0
102
RTVSPost2010PropOp52
 70
     0
102
RTVSPost2010Prop53
 90
        2
102
RTVSPost2010PropOp53
 70
     1
102
RTVSPost2010Prop54
  1
strokes_ogs.tif
102
RTVSPost2010PropOp54
 70
     1
102
RTVSPost2010Prop55
280
     0
102
RTVSPost2010PropOp55
 70
     1
102
RTVSPost2010Prop56
140
1.0
102
RTVSPost2010PropOp56
 70
     1
102
RTVSPost2010Prop57
140
1.0
102
RTVSPost2010PropOp57
 70
     1
  0
XRECORD
  5
12ED
102
{ACAD_REACTORS
330
12EC
102
}
330
12EC
100
AcDbXrecord
280
     1
102
RTVSPropertyOp0
 70
     1
102
RTVSPropertyOp1
 70
     1
102
RTVSPropertyOp2
 70
     1
102
RTVSPropertyOp3
 70
     1
102
RTVSPropertyOp4
 70
     1
102
RTVSPropertyOp5
 70
     1
102
RTVSPropertyOp6
 70
     1
102
RTVSPropertyOp7
 70
     1
102
RTVSPropertyOp8
 70
     1
102
RTVSPropertyOp9
 70
     1
102
RTVSPropertyOp10
 70
     1
102
RTVSPropertyOp11
 70
     1
102
RTVSPropertyOp12
 70
     1
102
RTVSPropertyOp13
 70
     1
102
RTVSPropertyOp14
 70
     1
102
RTVSPropertyOp15
 70
     1
102
RTVSPropertyOp16
 70
     1
102
RTVSPropertyOp17
 70
     1
102
RTVSPropertyOp18
 70
     1
102
RTVSPropertyOp19
 70
     1
102
RTVSPropertyOp20
 70
     1
102
RTVSPropertyOp21
 70
     1
102
RTVSPropertyOp22
 70
     1
102
RTVSPropertyOp23
 70
     1
102
RTVSPropertyOp24
 70
     1
102
RTVSPropertyOp25
 70
     1
102
RTVSPropertyOp26
 70
     1
102
RTVSPropertyOp27
 70
     1
102
RTVSPropertyOp28
 70
     1
102
RTVSPropertyOp29
 70
     1
102
RTVSPropertyOp30
 70
     1
102
RTVSPropertyOp31
 70
     1
102
RTVSPropertyOp32
 70
     1
102
RTVSPropertyOp33
 70
     1
102
RTVSPropertyOp34
 70
     1
102
RTVSPropertyOp35
 70
     1
102
RTVSPropertyOp36
 70
     1
102
RTVSPropertyOp37
 70
     1
102
RTVSPropertyOp38
 70
     1
102
RTVSPropertyOp39
 70
     1
102
RTVSPropertyOp40
 70
     1
102
RTVSPropertyOp41
 70
     1
102
RTVSPropertyOp42
 70
     1
102
RTVSPropertyOp43
 70
     1
102
RTVSPropertyOp44
 70
     1
102
RTVSPropertyOp45
 70
     1
102
RTVSPropertyOp46
 70
     1
102
RTVSPropertyOp47
 70
     1
102
RTVSPropertyOp48
 70
     1
102
RTVSPropertyOp49
 70
     1
102
RTVSPropertyOp50
 70
     1
102
RTVSPropertyOp51
 70
     0
102
RTVSPropertyOp52
 70
     0
102
RTVSPropertyOp53
 70
     1
102
RTVSPropertyOp54
 70
     1
102
RTVSPropertyOp55
 70
     1
102
RTVSPropertyOp56
 70
     1
102
RTVSPropertyOp57
 70
     1
102
RTVSPost2010Prop28
280
     0
102
RTVSPost2010PropOp28
 70
     1
102
RTVSPost2010Prop29
280
     1
102
RTVSPost2010PropOp29
 70
     1
102
RTVSPost2010Prop30
280
     1
102
RTVSPost2010PropOp30
 70
     1
102
RTVSPost2010Prop31
280
     0
102
RTVSPost2010PropOp31
 70
     1
102
RTVSPost2010Prop32
280
     0
102
RTVSPost2010PropOp32
 70
     1
102
RTVSPost2010Prop33
280
     0
102
RTVSPost2010PropOp33
 70
     1
102
RTVSPost2010Prop34
280
     0
102
RTVSPost2010PropOp34
 70
     1
102
RTVSPost2010Prop35
280
     0
102
RTVSPost2010PropOp35
 70
     1
102
RTVSPost2010Prop36
280
     0
102
RTVSPost2010PropOp36
 70
     1
102
RTVSPost2010Prop37
 90
       50
102
RTVSPost2010PropOp37
 70
     1
102
RTVSPost2010Prop38
140
0.0
102
RTVSPost2010PropOp38
 70
     1
102
RTVSPost2010Prop39
140
1.0
102
RTVSPost2010PropOp39
 70
     1
102
RTVSPost2010Prop40
 90
        0
102
RTVSPost2010PropOp40
 70
     1
102
RTVSPost2010Prop41ColorIndex
 90
       18
102
RTVSPost2010Prop41ColorRGB
 90
        0
102
RTVSPost2010PropOp41
 70
     1
102
RTVSPost2010Prop42
 90
       50
102
RTVSPost2010PropOp42
 70
     1
102
RTVSPost2010Prop43
 90
        3
102
RTVSPost2010PropOp43
 70
     1
102
RTVSPost2010Prop44ColorIndex
 90
        5
102
RTVSPost2010Prop44ColorRGB
 90
      255
102
RTVSPost2010PropOp44
 70
     1
102
RTVSPost2010Prop45
280
     0
102
RTVSPost2010PropOp45
 70
     1
102
RTVSPost2010Prop46
 90
       50
102
RTVSPost2010PropOp46
 70
     1
102
RTVSPost2010Prop47
 90
       50
102
RTVSPost2010PropOp47
 70
     1
102
RTVSPost2010Prop48
 90
       50
102
RTVSPost2010PropOp48
 70
     1
102
RTVSPost2010Prop49
280
     0
102
RTVSPost2010PropOp49
 70
     1
102
RTVSPost2010Prop50
 90
       50
102
RTVSPost2010PropOp50
 70
     1
102
RTVSPost2010Prop51ColorIndex
 90
      256
102
RTVSPost2010Prop51ColorRGB
 90
-16777216
102
RTVSPost2010PropOp51
 70
     0
102
RTVSPost2010Prop52
140
1.0
102
RTVSPost2010PropOp52
 70
     0
102
RTVSPost2010Prop53
 90
        2
102
RTVSPost2010PropOp53
 70
     1
102
RTVSPost2010Prop54
  1
strokes_ogs.tif
102
RTVSPost2010PropOp54
 70
     1
102
RTVSPost2010Prop55
280
     0
102
RTVSPost2010PropOp55
 70
     1
102
RTVSPost2010Prop56
140
1.0
102
RTVSPost2010PropOp56
 70
     1
102
RTVSPost2010Prop57
140
1.0
102
RTVSPost2010PropOp57
 70
     1
  0
XRECORD
  5
12F5
102
{ACAD_REACTORS
330
12F4
102
}
330
12F4
100
AcDbXrecord
280
     1
102
RTVSPropertyOp0
 70
     1
102
RTVSPropertyOp1
 70
     1
102
RTVSPropertyOp2
 70
     1
102
RTVSPropertyOp3
 70
     1
102
RTVSPropertyOp4
 70
     1
102
RTVSPropertyOp5
 70
     1
102
RTVSPropertyOp6
 70
     1
102
RTVSPropertyOp7
 70
     1
102
RTVSPropertyOp8
 70
     1
102
RTVSPropertyOp9
 70
     1
102
RTVSPropertyOp10
 70
     1
102
RTVSPropertyOp11
 70
     1
102
RTVSPropertyOp12
 70
     1
102
RTVSPropertyOp13
 70
     1
102
RTVSPropertyOp14
 70
     1
102
RTVSPropertyOp15
 70
     1
102
RTVSPropertyOp16
 70
     1
102
RTVSPropertyOp17
 70
     1
102
RTVSPropertyOp18
 70
     1
102
RTVSPropertyOp19
 70
     1
102
RTVSPropertyOp20
 70
     1
102
RTVSPropertyOp21
 70
     1
102
RTVSPropertyOp22
 70
     1
102
RTVSPropertyOp23
 70
     1
102
RTVSPropertyOp24
 70
     1
102
RTVSPropertyOp25
 70
     1
102
RTVSPropertyOp26
 70
     1
102
RTVSPropertyOp27
 70
     1
102
RTVSPropertyOp28
 70
     1
102
RTVSPropertyOp29
 70
     1
102
RTVSPropertyOp30
 70
     1
102
RTVSPropertyOp31
 70
     1
102
RTVSPropertyOp32
 70
     1
102
RTVSPropertyOp33
 70
     1
102
RTVSPropertyOp34
 70
     1
102
RTVSPropertyOp35
 70
     1
102
RTVSPropertyOp36
 70
     1
102
RTVSPropertyOp37
 70
     1
102
RTVSPropertyOp38
 70
     1
102
RTVSPropertyOp39
 70
     1
102
RTVSPropertyOp40
 70
     1
102
RTVSPropertyOp41
 70
     1
102
RTVSPropertyOp42
 70
     1
102
RTVSPropertyOp43
 70
     1
102
RTVSPropertyOp44
 70
     1
102
RTVSPropertyOp45
 70
     1
102
RTVSPropertyOp46
 70
     1
102
RTVSPropertyOp47
 70
     1
102
RTVSPropertyOp48
 70
     1
102
RTVSPropertyOp49
 70
     1
102
RTVSPropertyOp50
 70
     1
102
RTVSPropertyOp51
 70
     0
102
RTVSPropertyOp52
 70
     0
102
RTVSPropertyOp53
 70
     1
102
RTVSPropertyOp54
 70
     1
102
RTVSPropertyOp55
 70
     1
102
RTVSPropertyOp56
 70
     1
102
RTVSPropertyOp57
 70
     1
102
RTVSPost2010Prop28
280
     0
102
RTVSPost2010PropOp28
 70
     1
102
RTVSPost2010Prop29
280
     1
102
RTVSPost2010PropOp29
 70
     1
102
RTVSPost2010Prop30
280
     1
102
RTVSPost2010PropOp30
 70
     1
102
RTVSPost2010Prop31
280
     0
102
RTVSPost2010PropOp31
 70
     1
102
RTVSPost2010Prop32
280
     0
102
RTVSPost2010PropOp32
 70
     1
102
RTVSPost2010Prop33
280
     0
102
RTVSPost2010PropOp33
 70
     1
102
RTVSPost2010Prop34
280
     0
102
RTVSPost2010PropOp34
 70
     1
102
RTVSPost2010Prop35
280
     0
102
RTVSPost2010PropOp35
 70
     1
102
RTVSPost2010Prop36
280
     0
102
RTVSPost2010PropOp36
 70
     1
102
RTVSPost2010Prop37
 90
       50
102
RTVSPost2010PropOp37
 70
     1
102
RTVSPost2010Prop38
140
0.0
102
RTVSPost2010PropOp38
 70
     1
102
RTVSPost2010Prop39
140
1.0
102
RTVSPost2010PropOp39
 70
     1
102
RTVSPost2010Prop40
 90
        0
102
RTVSPost2010PropOp40
 70
     1
102
RTVSPost2010Prop41ColorIndex
 90
       18
102
RTVSPost2010Prop41ColorRGB
 90
        0
102
RTVSPost2010PropOp41
 70
     1
102
RTVSPost2010Prop42
 90
       50
102
RTVSPost2010PropOp42
 70
     1
102
RTVSPost2010Prop43
 90
        3
102
RTVSPost2010PropOp43
 70
     1
102
RTVSPost2010Prop44ColorIndex
 90
        5
102
RTVSPost2010Prop44ColorRGB
 90
      255
102
RTVSPost2010PropOp44
 70
     1
102
RTVSPost2010Prop45
280
     0
102
RTVSPost2010PropOp45
 70
     1
102
RTVSPost2010Prop46
 90
       50
102
RTVSPost2010PropOp46
 70
     1
102
RTVSPost2010Prop47
 90
       50
102
RTVSPost2010PropOp47
 70
     1
102
RTVSPost2010Prop48
 90
       50
102
RTVSPost2010PropOp48
 70
     1
102
RTVSPost2010Prop49
280
     0
102
RTVSPost2010PropOp49
 70
     1
102
RTVSPost2010Prop50
 90
       50
102
RTVSPost2010PropOp50
 70
     1
102
RTVSPost2010Prop51ColorIndex
 90
      256
102
RTVSPost2010Prop51ColorRGB
 90
-16777216
102
RTVSPost2010PropOp51
 70
     0
102
RTVSPost2010Prop52
140
1.0
102
RTVSPost2010PropOp52
 70
     0
102
RTVSPost2010Prop53
 90
        2
102
RTVSPost2010PropOp53
 70
     1
102
RTVSPost2010Prop54
  1
strokes_ogs.tif
102
RTVSPost2010PropOp54
 70
     1
102
RTVSPost2010Prop55
280
     0
102
RTVSPost2010PropOp55
 70
     1
102
RTVSPost2010Prop56
140
1.0
102
RTVSPost2010PropOp56
 70
     1
102
RTVSPost2010Prop57
140
1.0
102
RTVSPost2010PropOp57
 70
     1
  0
XRECORD
  5
12FD
102
{ACAD_REACTORS
330
12FC
102
}
330
12FC
100
AcDbXrecord
280
     1
102
RTVSPropertyOp0
 70
     1
102
RTVSPropertyOp1
 70
     1
102
RTVSPropertyOp2
 70
     1
102
RTVSPropertyOp3
 70
     1
102
RTVSPropertyOp4
 70
     1
102
RTVSPropertyOp5
 70
     1
102
RTVSPropertyOp6
 70
     1
102
RTVSPropertyOp7
 70
     1
102
RTVSPropertyOp8
 70
     1
102
RTVSPropertyOp9
 70
     1
102
RTVSPropertyOp10
 70
     1
102
RTVSPropertyOp11
 70
     1
102
RTVSPropertyOp12
 70
     1
102
RTVSPropertyOp13
 70
     1
102
RTVSPropertyOp14
 70
     1
102
RTVSPropertyOp15
 70
     1
102
RTVSPropertyOp16
 70
     1
102
RTVSPropertyOp17
 70
     1
102
RTVSPropertyOp18
 70
     1
102
RTVSPropertyOp19
 70
     1
102
RTVSPropertyOp20
 70
     1
102
RTVSPropertyOp21
 70
     1
102
RTVSPropertyOp22
 70
     1
102
RTVSPropertyOp23
 70
     1
102
RTVSPropertyOp24
 70
     1
102
RTVSPropertyOp25
 70
     1
102
RTVSPropertyOp26
 70
     1
102
RTVSPropertyOp27
 70
     1
102
RTVSPropertyOp28
 70
     1
102
RTVSPropertyOp29
 70
     1
102
RTVSPropertyOp30
 70
     1
102
RTVSPropertyOp31
 70
     1
102
RTVSPropertyOp32
 70
     1
102
RTVSPropertyOp33
 70
     1
102
RTVSPropertyOp34
 70
     1
102
RTVSPropertyOp35
 70
     1
102
RTVSPropertyOp36
 70
     1
102
RTVSPropertyOp37
 70
     1
102
RTVSPropertyOp38
 70
     1
102
RTVSPropertyOp39
 70
     1
102
RTVSPropertyOp40
 70
     1
102
RTVSPropertyOp41
 70
     1
102
RTVSPropertyOp42
 70
     1
102
RTVSPropertyOp43
 70
     1
102
RTVSPropertyOp44
 70
     1
102
RTVSPropertyOp45
 70
     1
102
RTVSPropertyOp46
 70
     1
102
RTVSPropertyOp47
 70
     1
102
RTVSPropertyOp48
 70
     1
102
RTVSPropertyOp49
 70
     1
102
RTVSPropertyOp50
 70
     1
102
RTVSPropertyOp51
 70
     0
102
RTVSPropertyOp52
 70
     0
102
RTVSPropertyOp53
 70
     1
102
RTVSPropertyOp54
 70
     1
102
RTVSPropertyOp55
 70
     1
102
RTVSPropertyOp56
 70
     1
102
RTVSPropertyOp57
 70
     1
102
RTVSPost2010Prop28
280
     0
102
RTVSPost2010PropOp28
 70
     1
102
RTVSPost2010Prop29
280
     1
102
RTVSPost2010PropOp29
 70
     1
102
RTVSPost2010Prop30
280
     1
102
RTVSPost2010PropOp30
 70
     1
102
RTVSPost2010Prop31
280
     0
102
RTVSPost2010PropOp31
 70
     1
102
RTVSPost2010Prop32
280
     0
102
RTVSPost2010PropOp32
 70
     1
102
RTVSPost2010Prop33
280
     0
102
RTVSPost2010PropOp33
 70
     1
102
RTVSPost2010Prop34
280
     0
102
RTVSPost2010PropOp34
 70
     1
102
RTVSPost2010Prop35
280
     0
102
RTVSPost2010PropOp35
 70
     1
102
RTVSPost2010Prop36
280
     0
102
RTVSPost2010PropOp36
 70
     1
102
RTVSPost2010Prop37
 90
       50
102
RTVSPost2010PropOp37
 70
     1
102
RTVSPost2010Prop38
140
0.0
102
RTVSPost2010PropOp38
 70
     1
102
RTVSPost2010Prop39
140
1.0
102
RTVSPost2010PropOp39
 70
     1
102
RTVSPost2010Prop40
 90
        0
102
RTVSPost2010PropOp40
 70
     1
102
RTVSPost2010Prop41ColorIndex
 90
       18
102
RTVSPost2010Prop41ColorRGB
 90
        0
102
RTVSPost2010PropOp41
 70
     1
102
RTVSPost2010Prop42
 90
       50
102
RTVSPost2010PropOp42
 70
     1
102
RTVSPost2010Prop43
 90
        3
102
RTVSPost2010PropOp43
 70
     1
102
RTVSPost2010Prop44ColorIndex
 90
        5
102
RTVSPost2010Prop44ColorRGB
 90
      255
102
RTVSPost2010PropOp44
 70
     1
102
RTVSPost2010Prop45
280
     0
102
RTVSPost2010PropOp45
 70
     1
102
RTVSPost2010Prop46
 90
       50
102
RTVSPost2010PropOp46
 70
     1
102
RTVSPost2010Prop47
 90
       50
102
RTVSPost2010PropOp47
 70
     1
102
RTVSPost2010Prop48
 90
       50
102
RTVSPost2010PropOp48
 70
     1
102
RTVSPost2010Prop49
280
     0
102
RTVSPost2010PropOp49
 70
     1
102
RTVSPost2010Prop50
 90
       50
102
RTVSPost2010PropOp50
 70
     1
102
RTVSPost2010Prop51ColorIndex
 90
      256
102
RTVSPost2010Prop51ColorRGB
 90
-16777216
102
RTVSPost2010PropOp51
 70
     0
102
RTVSPost2010Prop52
140
1.0
102
RTVSPost2010PropOp52
 70
     0
102
RTVSPost2010Prop53
 90
        2
102
RTVSPost2010PropOp53
 70
     1
102
RTVSPost2010Prop54
  1
strokes_ogs.tif
102
RTVSPost2010PropOp54
 70
     1
102
RTVSPost2010Prop55
280
     0
102
RTVSPost2010PropOp55
 70
     1
102
RTVSPost2010Prop56
140
1.0
102
RTVSPost2010PropOp56
 70
     1
102
RTVSPost2010Prop57
140
1.0
102
RTVSPost2010PropOp57
 70
     1
  0
XRECORD
  5
12F1
102
{ACAD_REACTORS
330
12F0
102
}
330
12F0
100
AcDbXrecord
280
     1
102
RTVSPropertyOp0
 70
     1
102
RTVSPropertyOp1
 70
     1
102
RTVSPropertyOp2
 70
     1
102
RTVSPropertyOp3
 70
     1
102
RTVSPropertyOp4
 70
     1
102
RTVSPropertyOp5
 70
     1
102
RTVSPropertyOp6
 70
     1
102
RTVSPropertyOp7
 70
     1
102
RTVSPropertyOp8
 70
     1
102
RTVSPropertyOp9
 70
     1
102
RTVSPropertyOp10
 70
     1
102
RTVSPropertyOp11
 70
     1
102
RTVSPropertyOp12
 70
     1
102
RTVSPropertyOp13
 70
     1
102
RTVSPropertyOp14
 70
     1
102
RTVSPropertyOp15
 70
     1
102
RTVSPropertyOp16
 70
     1
102
RTVSPropertyOp17
 70
     1
102
RTVSPropertyOp18
 70
     1
102
RTVSPropertyOp19
 70
     1
102
RTVSPropertyOp20
 70
     1
102
RTVSPropertyOp21
 70
     1
102
RTVSPropertyOp22
 70
     1
102
RTVSPropertyOp23
 70
     1
102
RTVSPropertyOp24
 70
     1
102
RTVSPropertyOp25
 70
     1
102
RTVSPropertyOp26
 70
     1
102
RTVSPropertyOp27
 70
     1
102
RTVSPropertyOp28
 70
     1
102
RTVSPropertyOp29
 70
     1
102
RTVSPropertyOp30
 70
     1
102
RTVSPropertyOp31
 70
     1
102
RTVSPropertyOp32
 70
     1
102
RTVSPropertyOp33
 70
     1
102
RTVSPropertyOp34
 70
     1
102
RTVSPropertyOp35
 70
     1
102
RTVSPropertyOp36
 70
     1
102
RTVSPropertyOp37
 70
     1
102
RTVSPropertyOp38
 70
     1
102
RTVSPropertyOp39
 70
     1
102
RTVSPropertyOp40
 70
     1
102
RTVSPropertyOp41
 70
     1
102
RTVSPropertyOp42
 70
     1
102
RTVSPropertyOp43
 70
     1
102
RTVSPropertyOp44
 70
     1
102
RTVSPropertyOp45
 70
     1
102
RTVSPropertyOp46
 70
     1
102
RTVSPropertyOp47
 70
     1
102
RTVSPropertyOp48
 70
     1
102
RTVSPropertyOp49
 70
     1
102
RTVSPropertyOp50
 70
     1
102
RTVSPropertyOp51
 70
     0
102
RTVSPropertyOp52
 70
     0
102
RTVSPropertyOp53
 70
     1
102
RTVSPropertyOp54
 70
     1
102
RTVSPropertyOp55
 70
     1
102
RTVSPropertyOp56
 70
     1
102
RTVSPropertyOp57
 70
     1
102
RTVSPost2010Prop28
280
     0
102
RTVSPost2010PropOp28
 70
     1
102
RTVSPost2010Prop29
280
     1
102
RTVSPost2010PropOp29
 70
     1
102
RTVSPost2010Prop30
280
     1
102
RTVSPost2010PropOp30
 70
     1
102
RTVSPost2010Prop31
280
     0
102
RTVSPost2010PropOp31
 70
     1
102
RTVSPost2010Prop32
280
     0
102
RTVSPost2010PropOp32
 70
     1
102
RTVSPost2010Prop33
280
     0
102
RTVSPost2010PropOp33
 70
     1
102
RTVSPost2010Prop34
280
     0
102
RTVSPost2010PropOp34
 70
     1
102
RTVSPost2010Prop35
280
     0
102
RTVSPost2010PropOp35
 70
     1
102
RTVSPost2010Prop36
280
     0
102
RTVSPost2010PropOp36
 70
     1
102
RTVSPost2010Prop37
 90
       50
102
RTVSPost2010PropOp37
 70
     1
102
RTVSPost2010Prop38
140
0.0
102
RTVSPost2010PropOp38
 70
     1
102
RTVSPost2010Prop39
140
1.0
102
RTVSPost2010PropOp39
 70
     1
102
RTVSPost2010Prop40
 90
        0
102
RTVSPost2010PropOp40
 70
     1
102
RTVSPost2010Prop41ColorIndex
 90
       18
102
RTVSPost2010Prop41ColorRGB
 90
        0
102
RTVSPost2010PropOp41
 70
     1
102
RTVSPost2010Prop42
 90
       50
102
RTVSPost2010PropOp42
 70
     1
102
RTVSPost2010Prop43
 90
        3
102
RTVSPost2010PropOp43
 70
     1
102
RTVSPost2010Prop44ColorIndex
 90
        5
102
RTVSPost2010Prop44ColorRGB
 90
      255
102
RTVSPost2010PropOp44
 70
     1
102
RTVSPost2010Prop45
280
     0
102
RTVSPost2010PropOp45
 70
     1
102
RTVSPost2010Prop46
 90
       50
102
RTVSPost2010PropOp46
 70
     1
102
RTVSPost2010Prop47
 90
       50
102
RTVSPost2010PropOp47
 70
     1
102
RTVSPost2010Prop48
 90
       50
102
RTVSPost2010PropOp48
 70
     1
102
RTVSPost2010Prop49
280
     0
102
RTVSPost2010PropOp49
 70
     1
102
RTVSPost2010Prop50
 90
       50
102
RTVSPost2010PropOp50
 70
     1
102
RTVSPost2010Prop51ColorIndex
 90
      256
102
RTVSPost2010Prop51ColorRGB
 90
-16777216
102
RTVSPost2010PropOp51
 70
     0
102
RTVSPost2010Prop52
140
1.0
102
RTVSPost2010PropOp52
 70
     0
102
RTVSPost2010Prop53
 90
        2
102
RTVSPost2010PropOp53
 70
     1
102
RTVSPost2010Prop54
  1
strokes_ogs.tif
102
RTVSPost2010PropOp54
 70
     1
102
RTVSPost2010Prop55
280
     0
102
RTVSPost2010PropOp55
 70
     1
102
RTVSPost2010Prop56
140
1.0
102
RTVSPost2010PropOp56
 70
     1
102
RTVSPost2010Prop57
140
1.0
102
RTVSPost2010PropOp57
 70
     1
  0
XRECORD
  5
12F3
102
{ACAD_REACTORS
330
12F2
102
}
330
12F2
100
AcDbXrecord
280
     1
102
RTVSPropertyOp0
 70
     1
102
RTVSPropertyOp1
 70
     1
102
RTVSPropertyOp2
 70
     1
102
RTVSPropertyOp3
 70
     1
102
RTVSPropertyOp4
 70
     1
102
RTVSPropertyOp5
 70
     1
102
RTVSPropertyOp6
 70
     1
102
RTVSPropertyOp7
 70
     1
102
RTVSPropertyOp8
 70
     1
102
RTVSPropertyOp9
 70
     1
102
RTVSPropertyOp10
 70
     1
102
RTVSPropertyOp11
 70
     1
102
RTVSPropertyOp12
 70
     1
102
RTVSPropertyOp13
 70
     1
102
RTVSPropertyOp14
 70
     1
102
RTVSPropertyOp15
 70
     1
102
RTVSPropertyOp16
 70
     1
102
RTVSPropertyOp17
 70
     1
102
RTVSPropertyOp18
 70
     1
102
RTVSPropertyOp19
 70
     1
102
RTVSPropertyOp20
 70
     1
102
RTVSPropertyOp21
 70
     1
102
RTVSPropertyOp22
 70
     1
102
RTVSPropertyOp23
 70
     1
102
RTVSPropertyOp24
 70
     1
102
RTVSPropertyOp25
 70
     1
102
RTVSPropertyOp26
 70
     1
102
RTVSPropertyOp27
 70
     1
102
RTVSPropertyOp28
 70
     1
102
RTVSPropertyOp29
 70
     1
102
RTVSPropertyOp30
 70
     1
102
RTVSPropertyOp31
 70
     1
102
RTVSPropertyOp32
 70
     1
102
RTVSPropertyOp33
 70
     1
102
RTVSPropertyOp34
 70
     1
102
RTVSPropertyOp35
 70
     1
102
RTVSPropertyOp36
 70
     1
102
RTVSPropertyOp37
 70
     1
102
RTVSPropertyOp38
 70
     1
102
RTVSPropertyOp39
 70
     1
102
RTVSPropertyOp40
 70
     1
102
RTVSPropertyOp41
 70
     1
102
RTVSPropertyOp42
 70
     1
102
RTVSPropertyOp43
 70
     1
102
RTVSPropertyOp44
 70
     1
102
RTVSPropertyOp45
 70
     1
102
RTVSPropertyOp46
 70
     1
102
RTVSPropertyOp47
 70
     1
102
RTVSPropertyOp48
 70
     1
102
RTVSPropertyOp49
 70
     1
102
RTVSPropertyOp50
 70
     1
102
RTVSPropertyOp51
 70
     0
102
RTVSPropertyOp52
 70
     0
102
RTVSPropertyOp53
 70
     1
102
RTVSPropertyOp54
 70
     1
102
RTVSPropertyOp55
 70
     1
102
RTVSPropertyOp56
 70
     1
102
RTVSPropertyOp57
 70
     1
102
RTVSPost2010Prop28
280
     0
102
RTVSPost2010PropOp28
 70
     1
102
RTVSPost2010Prop29
280
     1
102
RTVSPost2010PropOp29
 70
     1
102
RTVSPost2010Prop30
280
     1
102
RTVSPost2010PropOp30
 70
     1
102
RTVSPost2010Prop31
280
     0
102
RTVSPost2010PropOp31
 70
     1
102
RTVSPost2010Prop32
280
     0
102
RTVSPost2010PropOp32
 70
     1
102
RTVSPost2010Prop33
280
     0
102
RTVSPost2010PropOp33
 70
     1
102
RTVSPost2010Prop34
280
     0
102
RTVSPost2010PropOp34
 70
     1
102
RTVSPost2010Prop35
280
     0
102
RTVSPost2010PropOp35
 70
     1
102
RTVSPost2010Prop36
280
     0
102
RTVSPost2010PropOp36
 70
     1
102
RTVSPost2010Prop37
 90
       50
102
RTVSPost2010PropOp37
 70
     1
102
RTVSPost2010Prop38
140
0.0
102
RTVSPost2010PropOp38
 70
     1
102
RTVSPost2010Prop39
140
1.0
102
RTVSPost2010PropOp39
 70
     1
102
RTVSPost2010Prop40
 90
        0
102
RTVSPost2010PropOp40
 70
     1
102
RTVSPost2010Prop41ColorIndex
 90
       18
102
RTVSPost2010Prop41ColorRGB
 90
        0
102
RTVSPost2010PropOp41
 70
     1
102
RTVSPost2010Prop42
 90
       50
102
RTVSPost2010PropOp42
 70
     1
102
RTVSPost2010Prop43
 90
        3
102
RTVSPost2010PropOp43
 70
     1
102
RTVSPost2010Prop44ColorIndex
 90
        5
102
RTVSPost2010Prop44ColorRGB
 90
      255
102
RTVSPost2010PropOp44
 70
     1
102
RTVSPost2010Prop45
280
     0
102
RTVSPost2010PropOp45
 70
     1
102
RTVSPost2010Prop46
 90
       50
102
RTVSPost2010PropOp46
 70
     1
102
RTVSPost2010Prop47
 90
       50
102
RTVSPost2010PropOp47
 70
     1
102
RTVSPost2010Prop48
 90
       50
102
RTVSPost2010PropOp48
 70
     1
102
RTVSPost2010Prop49
280
     0
102
RTVSPost2010PropOp49
 70
     1
102
RTVSPost2010Prop50
 90
       50
102
RTVSPost2010PropOp50
 70
     1
102
RTVSPost2010Prop51ColorIndex
 90
      256
102
RTVSPost2010Prop51ColorRGB
 90
-16777216
102
RTVSPost2010PropOp51
 70
     0
102
RTVSPost2010Prop52
140
1.0
102
RTVSPost2010PropOp52
 70
     0
102
RTVSPost2010Prop53
 90
        2
102
RTVSPost2010PropOp53
 70
     1
102
RTVSPost2010Prop54
  1
strokes_ogs.tif
102
RTVSPost2010PropOp54
 70
     1
102
RTVSPost2010Prop55
280
     0
102
RTVSPost2010PropOp55
 70
     1
102
RTVSPost2010Prop56
140
1.0
102
RTVSPost2010PropOp56
 70
     1
102
RTVSPost2010Prop57
140
1.0
102
RTVSPost2010PropOp57
 70
     1
  0
XRECORD
  5
1303
102
{ACAD_REACTORS
330
1302
102
}
330
1302
100
AcDbXrecord
280
     1
102
RTVSPropertyOp0
 70
     0
102
RTVSPropertyOp1
 70
     0
102
RTVSPropertyOp2
 70
     0
102
RTVSPropertyOp3
 70
     0
102
RTVSPropertyOp4
 70
     0
102
RTVSPropertyOp5
 70
     0
102
RTVSPropertyOp6
 70
     0
102
RTVSPropertyOp7
 70
     0
102
RTVSPropertyOp8
 70
     0
102
RTVSPropertyOp9
 70
     0
102
RTVSPropertyOp10
 70
     0
102
RTVSPropertyOp11
 70
     0
102
RTVSPropertyOp12
 70
     0
102
RTVSPropertyOp13
 70
     0
102
RTVSPropertyOp14
 70
     2
102
RTVSPropertyOp15
 70
     0
102
RTVSPropertyOp16
 70
     0
102
RTVSPropertyOp17
 70
     0
102
RTVSPropertyOp18
 70
     0
102
RTVSPropertyOp19
 70
     0
102
RTVSPropertyOp20
 70
     0
102
RTVSPropertyOp21
 70
     0
102
RTVSPropertyOp22
 70
     0
102
RTVSPropertyOp23
 70
     0
102
RTVSPropertyOp24
 70
     0
102
RTVSPropertyOp25
 70
     0
102
RTVSPropertyOp26
 70
     0
102
RTVSPropertyOp27
 70
     0
102
RTVSPropertyOp28
 70
     0
102
RTVSPropertyOp29
 70
     0
102
RTVSPropertyOp30
 70
     0
102
RTVSPropertyOp31
 70
     0
102
RTVSPropertyOp32
 70
     0
102
RTVSPropertyOp33
 70
     0
102
RTVSPropertyOp34
 70
     0
102
RTVSPropertyOp35
 70
     0
102
RTVSPropertyOp36
 70
     0
102
RTVSPropertyOp37
 70
     0
102
RTVSPropertyOp38
 70
     0
102
RTVSPropertyOp39
 70
     0
102
RTVSPropertyOp40
 70
     0
102
RTVSPropertyOp41
 70
     0
102
RTVSPropertyOp42
 70
     0
102
RTVSPropertyOp43
 70
     0
102
RTVSPropertyOp44
 70
     0
102
RTVSPropertyOp45
 70
     0
102
RTVSPropertyOp46
 70
     0
102
RTVSPropertyOp47
 70
     0
102
RTVSPropertyOp48
 70
     0
102
RTVSPropertyOp49
 70
     0
102
RTVSPropertyOp50
 70
     0
102
RTVSPropertyOp51
 70
     0
102
RTVSPropertyOp52
 70
     0
102
RTVSPropertyOp53
 70
     0
102
RTVSPropertyOp54
 70
     0
102
RTVSPropertyOp55
 70
     0
102
RTVSPropertyOp56
 70
     0
102
RTVSPropertyOp57
 70
     0
102
RTVSPost2010Prop28
280
     0
102
RTVSPost2010PropOp28
 70
     0
102
RTVSPost2010Prop29
280
     1
102
RTVSPost2010PropOp29
 70
     0
102
RTVSPost2010Prop30
280
     1
102
RTVSPost2010PropOp30
 70
     0
102
RTVSPost2010Prop31
280
     0
102
RTVSPost2010PropOp31
 70
     0
102
RTVSPost2010Prop32
280
     0
102
RTVSPost2010PropOp32
 70
     0
102
RTVSPost2010Prop33
280
     0
102
RTVSPost2010PropOp33
 70
     0
102
RTVSPost2010Prop34
280
     0
102
RTVSPost2010PropOp34
 70
     0
102
RTVSPost2010Prop35
280
     0
102
RTVSPost2010PropOp35
 70
     0
102
RTVSPost2010Prop36
280
     0
102
RTVSPost2010PropOp36
 70
     0
102
RTVSPost2010Prop37
 90
       50
102
RTVSPost2010PropOp37
 70
     0
102
RTVSPost2010Prop38
140
0.0
102
RTVSPost2010PropOp38
 70
     0
102
RTVSPost2010Prop39
140
1.0
102
RTVSPost2010PropOp39
 70
     0
102
RTVSPost2010Prop40
 90
        0
102
RTVSPost2010PropOp40
 70
     0
102
RTVSPost2010Prop41ColorIndex
 90
       18
102
RTVSPost2010Prop41ColorRGB
 90
        0
102
RTVSPost2010PropOp41
 70
     0
102
RTVSPost2010Prop42
 90
       50
102
RTVSPost2010PropOp42
 70
     0
102
RTVSPost2010Prop43
 90
        3
102
RTVSPost2010PropOp43
 70
     0
102
RTVSPost2010Prop44ColorIndex
 90
        5
102
RTVSPost2010Prop44ColorRGB
 90
      255
102
RTVSPost2010PropOp44
 70
     0
102
RTVSPost2010Prop45
280
     0
102
RTVSPost2010PropOp45
 70
     0
102
RTVSPost2010Prop46
 90
       50
102
RTVSPost2010PropOp46
 70
     0
102
RTVSPost2010Prop47
 90
       50
102
RTVSPost2010PropOp47
 70
     0
102
RTVSPost2010Prop48
 90
       50
102
RTVSPost2010PropOp48
 70
     0
102
RTVSPost2010Prop49
280
     0
102
RTVSPost2010PropOp49
 70
     0
102
RTVSPost2010Prop50
 90
       50
102
RTVSPost2010PropOp50
 70
     0
102
RTVSPost2010Prop51ColorIndex
 90
      256
102
RTVSPost2010Prop51ColorRGB
 90
-16777216
102
RTVSPost2010PropOp51
 70
     0
102
RTVSPost2010Prop52
140
1.0
102
RTVSPost2010PropOp52
 70
     0
102
RTVSPost2010Prop53
 90
        2
102
RTVSPost2010PropOp53
 70
     0
102
RTVSPost2010Prop54
  1
strokes_ogs.tif
102
RTVSPost2010PropOp54
 70
     0
102
RTVSPost2010Prop55
280
     0
102
RTVSPost2010PropOp55
 70
     0
102
RTVSPost2010Prop56
140
1.0
102
RTVSPost2010PropOp56
 70
     0
102
RTVSPost2010Prop57
140
1.0
102
RTVSPost2010PropOp57
 70
     0
  0
XRECORD
  5
12FB
102
{ACAD_REACTORS
330
12FA
102
}
330
12FA
100
AcDbXrecord
280
     1
102
RTVSPropertyOp0
 70
     1
102
RTVSPropertyOp1
 70
     1
102
RTVSPropertyOp2
 70
     1
102
RTVSPropertyOp3
 70
     1
102
RTVSPropertyOp4
 70
     1
102
RTVSPropertyOp5
 70
     1
102
RTVSPropertyOp6
 70
     1
102
RTVSPropertyOp7
 70
     1
102
RTVSPropertyOp8
 70
     1
102
RTVSPropertyOp9
 70
     1
102
RTVSPropertyOp10
 70
     1
102
RTVSPropertyOp11
 70
     1
102
RTVSPropertyOp12
 70
     1
102
RTVSPropertyOp13
 70
     1
102
RTVSPropertyOp14
 70
     1
102
RTVSPropertyOp15
 70
     1
102
RTVSPropertyOp16
 70
     1
102
RTVSPropertyOp17
 70
     1
102
RTVSPropertyOp18
 70
     1
102
RTVSPropertyOp19
 70
     1
102
RTVSPropertyOp20
 70
     1
102
RTVSPropertyOp21
 70
     1
102
RTVSPropertyOp22
 70
     1
102
RTVSPropertyOp23
 70
     1
102
RTVSPropertyOp24
 70
     1
102
RTVSPropertyOp25
 70
     1
102
RTVSPropertyOp26
 70
     1
102
RTVSPropertyOp27
 70
     1
102
RTVSPropertyOp28
 70
     1
102
RTVSPropertyOp29
 70
     1
102
RTVSPropertyOp30
 70
     1
102
RTVSPropertyOp31
 70
     1
102
RTVSPropertyOp32
 70
     1
102
RTVSPropertyOp33
 70
     1
102
RTVSPropertyOp34
 70
     1
102
RTVSPropertyOp35
 70
     1
102
RTVSPropertyOp36
 70
     1
102
RTVSPropertyOp37
 70
     1
102
RTVSPropertyOp38
 70
     1
102
RTVSPropertyOp39
 70
     1
102
RTVSPropertyOp40
 70
     1
102
RTVSPropertyOp41
 70
     1
102
RTVSPropertyOp42
 70
     1
102
RTVSPropertyOp43
 70
     1
102
RTVSPropertyOp44
 70
     1
102
RTVSPropertyOp45
 70
     1
102
RTVSPropertyOp46
 70
     1
102
RTVSPropertyOp47
 70
     1
102
RTVSPropertyOp48
 70
     1
102
RTVSPropertyOp49
 70
     1
102
RTVSPropertyOp50
 70
     1
102
RTVSPropertyOp51
 70
     0
102
RTVSPropertyOp52
 70
     0
102
RTVSPropertyOp53
 70
     1
102
RTVSPropertyOp54
 70
     1
102
RTVSPropertyOp55
 70
     1
102
RTVSPropertyOp56
 70
     1
102
RTVSPropertyOp57
 70
     1
102
RTVSPost2010Prop28
280
     0
102
RTVSPost2010PropOp28
 70
     1
102
RTVSPost2010Prop29
280
     1
102
RTVSPost2010PropOp29
 70
     1
102
RTVSPost2010Prop30
280
     1
102
RTVSPost2010PropOp30
 70
     1
102
RTVSPost2010Prop31
280
     0
102
RTVSPost2010PropOp31
 70
     1
102
RTVSPost2010Prop32
280
     0
102
RTVSPost2010PropOp32
 70
     1
102
RTVSPost2010Prop33
280
     0
102
RTVSPost2010PropOp33
 70
     1
102
RTVSPost2010Prop34
280
     0
102
RTVSPost2010PropOp34
 70
     1
102
RTVSPost2010Prop35
280
     0
102
RTVSPost2010PropOp35
 70
     1
102
RTVSPost2010Prop36
280
     0
102
RTVSPost2010PropOp36
 70
     1
102
RTVSPost2010Prop37
 90
       50
102
RTVSPost2010PropOp37
 70
     1
102
RTVSPost2010Prop38
140
0.0
102
RTVSPost2010PropOp38
 70
     1
102
RTVSPost2010Prop39
140
1.0
102
RTVSPost2010PropOp39
 70
     1
102
RTVSPost2010Prop40
 90
        0
102
RTVSPost2010PropOp40
 70
     1
102
RTVSPost2010Prop41ColorIndex
 90
       18
102
RTVSPost2010Prop41ColorRGB
 90
        0
102
RTVSPost2010PropOp41
 70
     1
102
RTVSPost2010Prop42
 90
       50
102
RTVSPost2010PropOp42
 70
     1
102
RTVSPost2010Prop43
 90
        3
102
RTVSPost2010PropOp43
 70
     1
102
RTVSPost2010Prop44ColorIndex
 90
        5
102
RTVSPost2010Prop44ColorRGB
 90
      255
102
RTVSPost2010PropOp44
 70
     1
102
RTVSPost2010Prop45
280
     0
102
RTVSPost2010PropOp45
 70
     1
102
RTVSPost2010Prop46
 90
       50
102
RTVSPost2010PropOp46
 70
     1
102
RTVSPost2010Prop47
 90
       50
102
RTVSPost2010PropOp47
 70
     1
102
RTVSPost2010Prop48
 90
       50
102
RTVSPost2010PropOp48
 70
     1
102
RTVSPost2010Prop49
280
     0
102
RTVSPost2010PropOp49
 70
     1
102
RTVSPost2010Prop50
 90
       50
102
RTVSPost2010PropOp50
 70
     1
102
RTVSPost2010Prop51ColorIndex
 90
      256
102
RTVSPost2010Prop51ColorRGB
 90
-16777216
102
RTVSPost2010PropOp51
 70
     0
102
RTVSPost2010Prop52
140
1.0
102
RTVSPost2010PropOp52
 70
     0
102
RTVSPost2010Prop53
 90
        2
102
RTVSPost2010PropOp53
 70
     1
102
RTVSPost2010Prop54
  1
strokes_ogs.tif
102
RTVSPost2010PropOp54
 70
     1
102
RTVSPost2010Prop55
280
     0
102
RTVSPost2010PropOp55
 70
     1
102
RTVSPost2010Prop56
140
1.0
102
RTVSPost2010PropOp56
 70
     1
102
RTVSPost2010Prop57
140
1.0
102
RTVSPost2010PropOp57
 70
     1
  0
XRECORD
  5
12DF
102
{ACAD_REACTORS
330
12DE
102
}
330
12DE
100
AcDbXrecord
280
     1
102
RTVSPropertyOp0
 70
     1
102
RTVSPropertyOp1
 70
     1
102
RTVSPropertyOp2
 70
     1
102
RTVSPropertyOp3
 70
     1
102
RTVSPropertyOp4
 70
     1
102
RTVSPropertyOp5
 70
     1
102
RTVSPropertyOp6
 70
     1
102
RTVSPropertyOp7
 70
     1
102
RTVSPropertyOp8
 70
     1
102
RTVSPropertyOp9
 70
     1
102
RTVSPropertyOp10
 70
     1
102
RTVSPropertyOp11
 70
     1
102
RTVSPropertyOp12
 70
     1
102
RTVSPropertyOp13
 70
     1
102
RTVSPropertyOp14
 70
     1
102
RTVSPropertyOp15
 70
     1
102
RTVSPropertyOp16
 70
     1
102
RTVSPropertyOp17
 70
     1
102
RTVSPropertyOp18
 70
     1
102
RTVSPropertyOp19
 70
     1
102
RTVSPropertyOp20
 70
     1
102
RTVSPropertyOp21
 70
     1
102
RTVSPropertyOp22
 70
     1
102
RTVSPropertyOp23
 70
     1
102
RTVSPropertyOp24
 70
     1
102
RTVSPropertyOp25
 70
     1
102
RTVSPropertyOp26
 70
     1
102
RTVSPropertyOp27
 70
     1
102
RTVSPropertyOp28
 70
     1
102
RTVSPropertyOp29
 70
     1
102
RTVSPropertyOp30
 70
     1
102
RTVSPropertyOp31
 70
     1
102
RTVSPropertyOp32
 70
     1
102
RTVSPropertyOp33
 70
     1
102
RTVSPropertyOp34
 70
     1
102
RTVSPropertyOp35
 70
     1
102
RTVSPropertyOp36
 70
     1
102
RTVSPropertyOp37
 70
     1
102
RTVSPropertyOp38
 70
     1
102
RTVSPropertyOp39
 70
     1
102
RTVSPropertyOp40
 70
     1
102
RTVSPropertyOp41
 70
     1
102
RTVSPropertyOp42
 70
     1
102
RTVSPropertyOp43
 70
     1
102
RTVSPropertyOp44
 70
     1
102
RTVSPropertyOp45
 70
     1
102
RTVSPropertyOp46
 70
     1
102
RTVSPropertyOp47
 70
     1
102
RTVSPropertyOp48
 70
     1
102
RTVSPropertyOp49
 70
     1
102
RTVSPropertyOp50
 70
     1
102
RTVSPropertyOp51
 70
     0
102
RTVSPropertyOp52
 70
     0
102
RTVSPropertyOp53
 70
     1
102
RTVSPropertyOp54
 70
     1
102
RTVSPropertyOp55
 70
     1
102
RTVSPropertyOp56
 70
     1
102
RTVSPropertyOp57
 70
     1
102
RTVSPost2010Prop28
280
     0
102
RTVSPost2010PropOp28
 70
     1
102
RTVSPost2010Prop29
280
     1
102
RTVSPost2010PropOp29
 70
     1
102
RTVSPost2010Prop30
280
     1
102
RTVSPost2010PropOp30
 70
     1
102
RTVSPost2010Prop31
280
     0
102
RTVSPost2010PropOp31
 70
     1
102
RTVSPost2010Prop32
280
     0
102
RTVSPost2010PropOp32
 70
     1
102
RTVSPost2010Prop33
280
     0
102
RTVSPost2010PropOp33
 70
     1
102
RTVSPost2010Prop34
280
     0
102
RTVSPost2010PropOp34
 70
     1
102
RTVSPost2010Prop35
280
     0
102
RTVSPost2010PropOp35
 70
     1
102
RTVSPost2010Prop36
280
     0
102
RTVSPost2010PropOp36
 70
     1
102
RTVSPost2010Prop37
 90
       50
102
RTVSPost2010PropOp37
 70
     1
102
RTVSPost2010Prop38
140
0.0
102
RTVSPost2010PropOp38
 70
     1
102
RTVSPost2010Prop39
140
1.0
102
RTVSPost2010PropOp39
 70
     1
102
RTVSPost2010Prop40
 90
        0
102
RTVSPost2010PropOp40
 70
     1
102
RTVSPost2010Prop41ColorIndex
 90
       18
102
RTVSPost2010Prop41ColorRGB
 90
        0
102
RTVSPost2010PropOp41
 70
     1
102
RTVSPost2010Prop42
 90
       50
102
RTVSPost2010PropOp42
 70
     1
102
RTVSPost2010Prop43
 90
        3
102
RTVSPost2010PropOp43
 70
     1
102
RTVSPost2010Prop44ColorIndex
 90
        5
102
RTVSPost2010Prop44ColorRGB
 90
      255
102
RTVSPost2010PropOp44
 70
     1
102
RTVSPost2010Prop45
280
     0
102
RTVSPost2010PropOp45
 70
     1
102
RTVSPost2010Prop46
 90
       50
102
RTVSPost2010PropOp46
 70
     1
102
RTVSPost2010Prop47
 90
       50
102
RTVSPost2010PropOp47
 70
     1
102
RTVSPost2010Prop48
 90
       50
102
RTVSPost2010PropOp48
 70
     1
102
RTVSPost2010Prop49
280
     0
102
RTVSPost2010PropOp49
 70
     1
102
RTVSPost2010Prop50
 90
       50
102
RTVSPost2010PropOp50
 70
     1
102
RTVSPost2010Prop51ColorIndex
 90
      256
102
RTVSPost2010Prop51ColorRGB
 90
-16777216
102
RTVSPost2010PropOp51
 70
     0
102
RTVSPost2010Prop52
140
1.0
102
RTVSPost2010PropOp52
 70
     0
102
RTVSPost2010Prop53
 90
        2
102
RTVSPost2010PropOp53
 70
     1
102
RTVSPost2010Prop54
  1
strokes_ogs.tif
102
RTVSPost2010PropOp54
 70
     1
102
RTVSPost2010Prop55
280
     0
102
RTVSPost2010PropOp55
 70
     1
102
RTVSPost2010Prop56
140
1.0
102
RTVSPost2010PropOp56
 70
     1
102
RTVSPost2010Prop57
140
1.0
102
RTVSPost2010PropOp57
 70
     1
  0
XRECORD
  5
12E1
102
{ACAD_REACTORS
330
12E0
102
}
330
12E0
100
AcDbXrecord
280
     1
102
RTVSPropertyOp0
 70
     1
102
RTVSPropertyOp1
 70
     1
102
RTVSPropertyOp2
 70
     1
102
RTVSPropertyOp3
 70
     1
102
RTVSPropertyOp4
 70
     1
102
RTVSPropertyOp5
 70
     1
102
RTVSPropertyOp6
 70
     1
102
RTVSPropertyOp7
 70
     1
102
RTVSPropertyOp8
 70
     1
102
RTVSPropertyOp9
 70
     1
102
RTVSPropertyOp10
 70
     1
102
RTVSPropertyOp11
 70
     1
102
RTVSPropertyOp12
 70
     1
102
RTVSPropertyOp13
 70
     1
102
RTVSPropertyOp14
 70
     1
102
RTVSPropertyOp15
 70
     1
102
RTVSPropertyOp16
 70
     1
102
RTVSPropertyOp17
 70
     1
102
RTVSPropertyOp18
 70
     1
102
RTVSPropertyOp19
 70
     1
102
RTVSPropertyOp20
 70
     1
102
RTVSPropertyOp21
 70
     1
102
RTVSPropertyOp22
 70
     1
102
RTVSPropertyOp23
 70
     1
102
RTVSPropertyOp24
 70
     1
102
RTVSPropertyOp25
 70
     1
102
RTVSPropertyOp26
 70
     1
102
RTVSPropertyOp27
 70
     1
102
RTVSPropertyOp28
 70
     1
102
RTVSPropertyOp29
 70
     1
102
RTVSPropertyOp30
 70
     1
102
RTVSPropertyOp31
 70
     1
102
RTVSPropertyOp32
 70
     1
102
RTVSPropertyOp33
 70
     1
102
RTVSPropertyOp34
 70
     1
102
RTVSPropertyOp35
 70
     1
102
RTVSPropertyOp36
 70
     1
102
RTVSPropertyOp37
 70
     1
102
RTVSPropertyOp38
 70
     1
102
RTVSPropertyOp39
 70
     1
102
RTVSPropertyOp40
 70
     1
102
RTVSPropertyOp41
 70
     1
102
RTVSPropertyOp42
 70
     1
102
RTVSPropertyOp43
 70
     1
102
RTVSPropertyOp44
 70
     1
102
RTVSPropertyOp45
 70
     1
102
RTVSPropertyOp46
 70
     1
102
RTVSPropertyOp47
 70
     1
102
RTVSPropertyOp48
 70
     1
102
RTVSPropertyOp49
 70
     1
102
RTVSPropertyOp50
 70
     1
102
RTVSPropertyOp51
 70
     0
102
RTVSPropertyOp52
 70
     0
102
RTVSPropertyOp53
 70
     1
102
RTVSPropertyOp54
 70
     1
102
RTVSPropertyOp55
 70
     1
102
RTVSPropertyOp56
 70
     1
102
RTVSPropertyOp57
 70
     1
102
RTVSPost2010Prop28
280
     0
102
RTVSPost2010PropOp28
 70
     1
102
RTVSPost2010Prop29
280
     1
102
RTVSPost2010PropOp29
 70
     1
102
RTVSPost2010Prop30
280
     1
102
RTVSPost2010PropOp30
 70
     1
102
RTVSPost2010Prop31
280
     0
102
RTVSPost2010PropOp31
 70
     1
102
RTVSPost2010Prop32
280
     0
102
RTVSPost2010PropOp32
 70
     1
102
RTVSPost2010Prop33
280
     0
102
RTVSPost2010PropOp33
 70
     1
102
RTVSPost2010Prop34
280
     0
102
RTVSPost2010PropOp34
 70
     1
102
RTVSPost2010Prop35
280
     0
102
RTVSPost2010PropOp35
 70
     1
102
RTVSPost2010Prop36
280
     0
102
RTVSPost2010PropOp36
 70
     1
102
RTVSPost2010Prop37
 90
       50
102
RTVSPost2010PropOp37
 70
     1
102
RTVSPost2010Prop38
140
0.0
102
RTVSPost2010PropOp38
 70
     1
102
RTVSPost2010Prop39
140
1.0
102
RTVSPost2010PropOp39
 70
     1
102
RTVSPost2010Prop40
 90
        0
102
RTVSPost2010PropOp40
 70
     1
102
RTVSPost2010Prop41ColorIndex
 90
       18
102
RTVSPost2010Prop41ColorRGB
 90
        0
102
RTVSPost2010PropOp41
 70
     1
102
RTVSPost2010Prop42
 90
       50
102
RTVSPost2010PropOp42
 70
     1
102
RTVSPost2010Prop43
 90
        3
102
RTVSPost2010PropOp43
 70
     1
102
RTVSPost2010Prop44ColorIndex
 90
        5
102
RTVSPost2010Prop44ColorRGB
 90
      255
102
RTVSPost2010PropOp44
 70
     1
102
RTVSPost2010Prop45
280
     0
102
RTVSPost2010PropOp45
 70
     1
102
RTVSPost2010Prop46
 90
       50
102
RTVSPost2010PropOp46
 70
     1
102
RTVSPost2010Prop47
 90
       50
102
RTVSPost2010PropOp47
 70
     1
102
RTVSPost2010Prop48
 90
       50
102
RTVSPost2010PropOp48
 70
     1
102
RTVSPost2010Prop49
280
     0
102
RTVSPost2010PropOp49
 70
     1
102
RTVSPost2010Prop50
 90
       50
102
RTVSPost2010PropOp50
 70
     1
102
RTVSPost2010Prop51ColorIndex
 90
      256
102
RTVSPost2010Prop51ColorRGB
 90
-16777216
102
RTVSPost2010PropOp51
 70
     0
102
RTVSPost2010Prop52
140
1.0
102
RTVSPost2010PropOp52
 70
     0
102
RTVSPost2010Prop53
 90
        2
102
RTVSPost2010PropOp53
 70
     1
102
RTVSPost2010Prop54
  1
strokes_ogs.tif
102
RTVSPost2010PropOp54
 70
     1
102
RTVSPost2010Prop55
280
     0
102
RTVSPost2010PropOp55
 70
     1
102
RTVSPost2010Prop56
140
1.0
102
RTVSPost2010PropOp56
 70
     1
102
RTVSPost2010Prop57
140
1.0
102
RTVSPost2010PropOp57
 70
     1
  0
XRECORD
  5
12E3
102
{ACAD_REACTORS
330
12E2
102
}
330
12E2
100
AcDbXrecord
280
     1
102
RTVSPropertyOp0
 70
     1
102
RTVSPropertyOp1
 70
     1
102
RTVSPropertyOp2
 70
     1
102
RTVSPropertyOp3
 70
     1
102
RTVSPropertyOp4
 70
     1
102
RTVSPropertyOp5
 70
     1
102
RTVSPropertyOp6
 70
     1
102
RTVSPropertyOp7
 70
     1
102
RTVSPropertyOp8
 70
     1
102
RTVSPropertyOp9
 70
     1
102
RTVSPropertyOp10
 70
     1
102
RTVSPropertyOp11
 70
     1
102
RTVSPropertyOp12
 70
     1
102
RTVSPropertyOp13
 70
     1
102
RTVSPropertyOp14
 70
     1
102
RTVSPropertyOp15
 70
     1
102
RTVSPropertyOp16
 70
     1
102
RTVSPropertyOp17
 70
     1
102
RTVSPropertyOp18
 70
     1
102
RTVSPropertyOp19
 70
     1
102
RTVSPropertyOp20
 70
     1
102
RTVSPropertyOp21
 70
     1
102
RTVSPropertyOp22
 70
     1
102
RTVSPropertyOp23
 70
     1
102
RTVSPropertyOp24
 70
     1
102
RTVSPropertyOp25
 70
     1
102
RTVSPropertyOp26
 70
     1
102
RTVSPropertyOp27
 70
     1
102
RTVSPropertyOp28
 70
     1
102
RTVSPropertyOp29
 70
     1
102
RTVSPropertyOp30
 70
     1
102
RTVSPropertyOp31
 70
     1
102
RTVSPropertyOp32
 70
     1
102
RTVSPropertyOp33
 70
     1
102
RTVSPropertyOp34
 70
     1
102
RTVSPropertyOp35
 70
     1
102
RTVSPropertyOp36
 70
     1
102
RTVSPropertyOp37
 70
     1
102
RTVSPropertyOp38
 70
     1
102
RTVSPropertyOp39
 70
     1
102
RTVSPropertyOp40
 70
     1
102
RTVSPropertyOp41
 70
     1
102
RTVSPropertyOp42
 70
     1
102
RTVSPropertyOp43
 70
     1
102
RTVSPropertyOp44
 70
     1
102
RTVSPropertyOp45
 70
     1
102
RTVSPropertyOp46
 70
     1
102
RTVSPropertyOp47
 70
     1
102
RTVSPropertyOp48
 70
     1
102
RTVSPropertyOp49
 70
     1
102
RTVSPropertyOp50
 70
     1
102
RTVSPropertyOp51
 70
     0
102
RTVSPropertyOp52
 70
     0
102
RTVSPropertyOp53
 70
     1
102
RTVSPropertyOp54
 70
     1
102
RTVSPropertyOp55
 70
     1
102
RTVSPropertyOp56
 70
     1
102
RTVSPropertyOp57
 70
     1
102
RTVSPost2010Prop28
280
     0
102
RTVSPost2010PropOp28
 70
     1
102
RTVSPost2010Prop29
280
     1
102
RTVSPost2010PropOp29
 70
     1
102
RTVSPost2010Prop30
280
     1
102
RTVSPost2010PropOp30
 70
     1
102
RTVSPost2010Prop31
280
     0
102
RTVSPost2010PropOp31
 70
     1
102
RTVSPost2010Prop32
280
     0
102
RTVSPost2010PropOp32
 70
     1
102
RTVSPost2010Prop33
280
     0
102
RTVSPost2010PropOp33
 70
     1
102
RTVSPost2010Prop34
280
     0
102
RTVSPost2010PropOp34
 70
     1
102
RTVSPost2010Prop35
280
     0
102
RTVSPost2010PropOp35
 70
     1
102
RTVSPost2010Prop36
280
     0
102
RTVSPost2010PropOp36
 70
     1
102
RTVSPost2010Prop37
 90
       50
102
RTVSPost2010PropOp37
 70
     1
102
RTVSPost2010Prop38
140
0.0
102
RTVSPost2010PropOp38
 70
     1
102
RTVSPost2010Prop39
140
1.0
102
RTVSPost2010PropOp39
 70
     1
102
RTVSPost2010Prop40
 90
        0
102
RTVSPost2010PropOp40
 70
     1
102
RTVSPost2010Prop41ColorIndex
 90
       18
102
RTVSPost2010Prop41ColorRGB
 90
        0
102
RTVSPost2010PropOp41
 70
     1
102
RTVSPost2010Prop42
 90
       50
102
RTVSPost2010PropOp42
 70
     1
102
RTVSPost2010Prop43
 90
        3
102
RTVSPost2010PropOp43
 70
     1
102
RTVSPost2010Prop44ColorIndex
 90
        5
102
RTVSPost2010Prop44ColorRGB
 90
      255
102
RTVSPost2010PropOp44
 70
     1
102
RTVSPost2010Prop45
280
     0
102
RTVSPost2010PropOp45
 70
     1
102
RTVSPost2010Prop46
 90
       50
102
RTVSPost2010PropOp46
 70
     1
102
RTVSPost2010Prop47
 90
       50
102
RTVSPost2010PropOp47
 70
     1
102
RTVSPost2010Prop48
 90
       50
102
RTVSPost2010PropOp48
 70
     1
102
RTVSPost2010Prop49
280
     0
102
RTVSPost2010PropOp49
 70
     1
102
RTVSPost2010Prop50
 90
       50
102
RTVSPost2010PropOp50
 70
     1
102
RTVSPost2010Prop51ColorIndex
 90
      256
102
RTVSPost2010Prop51ColorRGB
 90
-16777216
102
RTVSPost2010PropOp51
 70
     0
102
RTVSPost2010Prop52
140
1.0
102
RTVSPost2010PropOp52
 70
     0
102
RTVSPost2010Prop53
 90
        2
102
RTVSPost2010PropOp53
 70
     1
102
RTVSPost2010Prop54
  1
strokes_ogs.tif
102
RTVSPost2010PropOp54
 70
     1
102
RTVSPost2010Prop55
280
     0
102
RTVSPost2010PropOp55
 70
     1
102
RTVSPost2010Prop56
140
1.0
102
RTVSPost2010PropOp56
 70
     1
102
RTVSPost2010Prop57
140
1.0
102
RTVSPost2010PropOp57
 70
     1
  0
XRECORD
  5
12E5
102
{ACAD_REACTORS
330
12E4
102
}
330
12E4
100
AcDbXrecord
280
     1
102
RTVSPropertyOp0
 70
     1
102
RTVSPropertyOp1
 70
     1
102
RTVSPropertyOp2
 70
     1
102
RTVSPropertyOp3
 70
     1
102
RTVSPropertyOp4
 70
     1
102
RTVSPropertyOp5
 70
     1
102
RTVSPropertyOp6
 70
     1
102
RTVSPropertyOp7
 70
     1
102
RTVSPropertyOp8
 70
     1
102
RTVSPropertyOp9
 70
     1
102
RTVSPropertyOp10
 70
     1
102
RTVSPropertyOp11
 70
     1
102
RTVSPropertyOp12
 70
     1
102
RTVSPropertyOp13
 70
     1
102
RTVSPropertyOp14
 70
     1
102
RTVSPropertyOp15
 70
     1
102
RTVSPropertyOp16
 70
     1
102
RTVSPropertyOp17
 70
     1
102
RTVSPropertyOp18
 70
     1
102
RTVSPropertyOp19
 70
     1
102
RTVSPropertyOp20
 70
     1
102
RTVSPropertyOp21
 70
     1
102
RTVSPropertyOp22
 70
     1
102
RTVSPropertyOp23
 70
     1
102
RTVSPropertyOp24
 70
     1
102
RTVSPropertyOp25
 70
     1
102
RTVSPropertyOp26
 70
     1
102
RTVSPropertyOp27
 70
     1
102
RTVSPropertyOp28
 70
     1
102
RTVSPropertyOp29
 70
     1
102
RTVSPropertyOp30
 70
     1
102
RTVSPropertyOp31
 70
     1
102
RTVSPropertyOp32
 70
     1
102
RTVSPropertyOp33
 70
     1
102
RTVSPropertyOp34
 70
     1
102
RTVSPropertyOp35
 70
     1
102
RTVSPropertyOp36
 70
     1
102
RTVSPropertyOp37
 70
     1
102
RTVSPropertyOp38
 70
     1
102
RTVSPropertyOp39
 70
     1
102
RTVSPropertyOp40
 70
     1
102
RTVSPropertyOp41
 70
     1
102
RTVSPropertyOp42
 70
     1
102
RTVSPropertyOp43
 70
     1
102
RTVSPropertyOp44
 70
     1
102
RTVSPropertyOp45
 70
     1
102
RTVSPropertyOp46
 70
     1
102
RTVSPropertyOp47
 70
     1
102
RTVSPropertyOp48
 70
     1
102
RTVSPropertyOp49
 70
     1
102
RTVSPropertyOp50
 70
     1
102
RTVSPropertyOp51
 70
     0
102
RTVSPropertyOp52
 70
     0
102
RTVSPropertyOp53
 70
     1
102
RTVSPropertyOp54
 70
     1
102
RTVSPropertyOp55
 70
     1
102
RTVSPropertyOp56
 70
     1
102
RTVSPropertyOp57
 70
     1
102
RTVSPost2010Prop28
280
     0
102
RTVSPost2010PropOp28
 70
     1
102
RTVSPost2010Prop29
280
     1
102
RTVSPost2010PropOp29
 70
     1
102
RTVSPost2010Prop30
280
     1
102
RTVSPost2010PropOp30
 70
     1
102
RTVSPost2010Prop31
280
     0
102
RTVSPost2010PropOp31
 70
     1
102
RTVSPost2010Prop32
280
     0
102
RTVSPost2010PropOp32
 70
     1
102
RTVSPost2010Prop33
280
     0
102
RTVSPost2010PropOp33
 70
     1
102
RTVSPost2010Prop34
280
     0
102
RTVSPost2010PropOp34
 70
     1
102
RTVSPost2010Prop35
280
     0
102
RTVSPost2010PropOp35
 70
     1
102
RTVSPost2010Prop36
280
     0
102
RTVSPost2010PropOp36
 70
     1
102
RTVSPost2010Prop37
 90
       50
102
RTVSPost2010PropOp37
 70
     1
102
RTVSPost2010Prop38
140
0.0
102
RTVSPost2010PropOp38
 70
     1
102
RTVSPost2010Prop39
140
1.0
102
RTVSPost2010PropOp39
 70
     1
102
RTVSPost2010Prop40
 90
        0
102
RTVSPost2010PropOp40
 70
     1
102
RTVSPost2010Prop41ColorIndex
 90
       18
102
RTVSPost2010Prop41ColorRGB
 90
        0
102
RTVSPost2010PropOp41
 70
     1
102
RTVSPost2010Prop42
 90
       50
102
RTVSPost2010PropOp42
 70
     1
102
RTVSPost2010Prop43
 90
        3
102
RTVSPost2010PropOp43
 70
     1
102
RTVSPost2010Prop44ColorIndex
 90
        5
102
RTVSPost2010Prop44ColorRGB
 90
      255
102
RTVSPost2010PropOp44
 70
     1
102
RTVSPost2010Prop45
280
     0
102
RTVSPost2010PropOp45
 70
     1
102
RTVSPost2010Prop46
 90
       50
102
RTVSPost2010PropOp46
 70
     1
102
RTVSPost2010Prop47
 90
       50
102
RTVSPost2010PropOp47
 70
     1
102
RTVSPost2010Prop48
 90
       50
102
RTVSPost2010PropOp48
 70
     1
102
RTVSPost2010Prop49
280
     0
102
RTVSPost2010PropOp49
 70
     1
102
RTVSPost2010Prop50
 90
       50
102
RTVSPost2010PropOp50
 70
     1
102
RTVSPost2010Prop51ColorIndex
 90
      256
102
RTVSPost2010Prop51ColorRGB
 90
-16777216
102
RTVSPost2010PropOp51
 70
     0
102
RTVSPost2010Prop52
140
1.0
102
RTVSPost2010PropOp52
 70
     0
102
RTVSPost2010Prop53
 90
        2
102
RTVSPost2010PropOp53
 70
     1
102
RTVSPost2010Prop54
  1
strokes_ogs.tif
102
RTVSPost2010PropOp54
 70
     1
102
RTVSPost2010Prop55
280
     0
102
RTVSPost2010PropOp55
 70
     1
102
RTVSPost2010Prop56
140
1.0
102
RTVSPost2010PropOp56
 70
     1
102
RTVSPost2010Prop57
140
1.0
102
RTVSPost2010PropOp57
 70
     1
  0
XRECORD
  5
12EB
102
{ACAD_REACTORS
330
12EA
102
}
330
12EA
100
AcDbXrecord
280
     1
102
RTVSPropertyOp0
 70
     1
102
RTVSPropertyOp1
 70
     1
102
RTVSPropertyOp2
 70
     1
102
RTVSPropertyOp3
 70
     1
102
RTVSPropertyOp4
 70
     1
102
RTVSPropertyOp5
 70
     1
102
RTVSPropertyOp6
 70
     1
102
RTVSPropertyOp7
 70
     1
102
RTVSPropertyOp8
 70
     1
102
RTVSPropertyOp9
 70
     1
102
RTVSPropertyOp10
 70
     1
102
RTVSPropertyOp11
 70
     1
102
RTVSPropertyOp12
 70
     1
102
RTVSPropertyOp13
 70
     1
102
RTVSPropertyOp14
 70
     1
102
RTVSPropertyOp15
 70
     1
102
RTVSPropertyOp16
 70
     1
102
RTVSPropertyOp17
 70
     1
102
RTVSPropertyOp18
 70
     1
102
RTVSPropertyOp19
 70
     1
102
RTVSPropertyOp20
 70
     1
102
RTVSPropertyOp21
 70
     1
102
RTVSPropertyOp22
 70
     1
102
RTVSPropertyOp23
 70
     1
102
RTVSPropertyOp24
 70
     1
102
RTVSPropertyOp25
 70
     1
102
RTVSPropertyOp26
 70
     1
102
RTVSPropertyOp27
 70
     1
102
RTVSPropertyOp28
 70
     1
102
RTVSPropertyOp29
 70
     1
102
RTVSPropertyOp30
 70
     1
102
RTVSPropertyOp31
 70
     1
102
RTVSPropertyOp32
 70
     1
102
RTVSPropertyOp33
 70
     1
102
RTVSPropertyOp34
 70
     1
102
RTVSPropertyOp35
 70
     1
102
RTVSPropertyOp36
 70
     1
102
RTVSPropertyOp37
 70
     1
102
RTVSPropertyOp38
 70
     1
102
RTVSPropertyOp39
 70
     1
102
RTVSPropertyOp40
 70
     1
102
RTVSPropertyOp41
 70
     1
102
RTVSPropertyOp42
 70
     1
102
RTVSPropertyOp43
 70
     1
102
RTVSPropertyOp44
 70
     1
102
RTVSPropertyOp45
 70
     1
102
RTVSPropertyOp46
 70
     1
102
RTVSPropertyOp47
 70
     1
102
RTVSPropertyOp48
 70
     1
102
RTVSPropertyOp49
 70
     1
102
RTVSPropertyOp50
 70
     1
102
RTVSPropertyOp51
 70
     0
102
RTVSPropertyOp52
 70
     0
102
RTVSPropertyOp53
 70
     1
102
RTVSPropertyOp54
 70
     1
102
RTVSPropertyOp55
 70
     1
102
RTVSPropertyOp56
 70
     1
102
RTVSPropertyOp57
 70
     1
102
RTVSPost2010Prop28
280
     0
102
RTVSPost2010PropOp28
 70
     1
102
RTVSPost2010Prop29
280
     1
102
RTVSPost2010PropOp29
 70
     1
102
RTVSPost2010Prop30
280
     1
102
RTVSPost2010PropOp30
 70
     1
102
RTVSPost2010Prop31
280
     0
102
RTVSPost2010PropOp31
 70
     1
102
RTVSPost2010Prop32
280
     0
102
RTVSPost2010PropOp32
 70
     1
102
RTVSPost2010Prop33
280
     0
102
RTVSPost2010PropOp33
 70
     1
102
RTVSPost2010Prop34
280
     0
102
RTVSPost2010PropOp34
 70
     1
102
RTVSPost2010Prop35
280
     0
102
RTVSPost2010PropOp35
 70
     1
102
RTVSPost2010Prop36
280
     0
102
RTVSPost2010PropOp36
 70
     1
102
RTVSPost2010Prop37
 90
       50
102
RTVSPost2010PropOp37
 70
     1
102
RTVSPost2010Prop38
140
0.0
102
RTVSPost2010PropOp38
 70
     1
102
RTVSPost2010Prop39
140
1.0
102
RTVSPost2010PropOp39
 70
     1
102
RTVSPost2010Prop40
 90
        0
102
RTVSPost2010PropOp40
 70
     1
102
RTVSPost2010Prop41ColorIndex
 90
       18
102
RTVSPost2010Prop41ColorRGB
 90
        0
102
RTVSPost2010PropOp41
 70
     1
102
RTVSPost2010Prop42
 90
       50
102
RTVSPost2010PropOp42
 70
     1
102
RTVSPost2010Prop43
 90
        3
102
RTVSPost2010PropOp43
 70
     1
102
RTVSPost2010Prop44ColorIndex
 90
        5
102
RTVSPost2010Prop44ColorRGB
 90
      255
102
RTVSPost2010PropOp44
 70
     1
102
RTVSPost2010Prop45
280
     0
102
RTVSPost2010PropOp45
 70
     1
102
RTVSPost2010Prop46
 90
       50
102
RTVSPost2010PropOp46
 70
     1
102
RTVSPost2010Prop47
 90
       50
102
RTVSPost2010PropOp47
 70
     1
102
RTVSPost2010Prop48
 90
       50
102
RTVSPost2010PropOp48
 70
     1
102
RTVSPost2010Prop49
280
     0
102
RTVSPost2010PropOp49
 70
     1
102
RTVSPost2010Prop50
 90
       50
102
RTVSPost2010PropOp50
 70
     1
102
RTVSPost2010Prop51ColorIndex
 90
      256
102
RTVSPost2010Prop51ColorRGB
 90
-16777216
102
RTVSPost2010PropOp51
 70
     0
102
RTVSPost2010Prop52
140
1.0
102
RTVSPost2010PropOp52
 70
     0
102
RTVSPost2010Prop53
 90
        2
102
RTVSPost2010PropOp53
 70
     1
102
RTVSPost2010Prop54
  1
strokes_ogs.tif
102
RTVSPost2010PropOp54
 70
     1
102
RTVSPost2010Prop55
280
     0
102
RTVSPost2010PropOp55
 70
     1
102
RTVSPost2010Prop56
140
1.0
102
RTVSPost2010PropOp56
 70
     1
102
RTVSPost2010Prop57
140
1.0
102
RTVSPost2010PropOp57
 70
     1
  0
XRECORD
  5
12FF
102
{ACAD_REACTORS
330
12FE
102
}
330
12FE
100
AcDbXrecord
280
     1
102
RTVSPropertyOp0
 70
     0
102
RTVSPropertyOp1
 70
     0
102
RTVSPropertyOp2
 70
     0
102
RTVSPropertyOp3
 70
     0
102
RTVSPropertyOp4
 70
     0
102
RTVSPropertyOp5
 70
     0
102
RTVSPropertyOp6
 70
     0
102
RTVSPropertyOp7
 70
     0
102
RTVSPropertyOp8
 70
     0
102
RTVSPropertyOp9
 70
     0
102
RTVSPropertyOp10
 70
     0
102
RTVSPropertyOp11
 70
     0
102
RTVSPropertyOp12
 70
     0
102
RTVSPropertyOp13
 70
     0
102
RTVSPropertyOp14
 70
     2
102
RTVSPropertyOp15
 70
     0
102
RTVSPropertyOp16
 70
     0
102
RTVSPropertyOp17
 70
     0
102
RTVSPropertyOp18
 70
     0
102
RTVSPropertyOp19
 70
     0
102
RTVSPropertyOp20
 70
     0
102
RTVSPropertyOp21
 70
     0
102
RTVSPropertyOp22
 70
     0
102
RTVSPropertyOp23
 70
     0
102
RTVSPropertyOp24
 70
     0
102
RTVSPropertyOp25
 70
     0
102
RTVSPropertyOp26
 70
     0
102
RTVSPropertyOp27
 70
     0
102
RTVSPropertyOp28
 70
     0
102
RTVSPropertyOp29
 70
     0
102
RTVSPropertyOp30
 70
     0
102
RTVSPropertyOp31
 70
     0
102
RTVSPropertyOp32
 70
     0
102
RTVSPropertyOp33
 70
     0
102
RTVSPropertyOp34
 70
     0
102
RTVSPropertyOp35
 70
     0
102
RTVSPropertyOp36
 70
     0
102
RTVSPropertyOp37
 70
     0
102
RTVSPropertyOp38
 70
     0
102
RTVSPropertyOp39
 70
     0
102
RTVSPropertyOp40
 70
     0
102
RTVSPropertyOp41
 70
     0
102
RTVSPropertyOp42
 70
     0
102
RTVSPropertyOp43
 70
     0
102
RTVSPropertyOp44
 70
     0
102
RTVSPropertyOp45
 70
     0
102
RTVSPropertyOp46
 70
     0
102
RTVSPropertyOp47
 70
     0
102
RTVSPropertyOp48
 70
     0
102
RTVSPropertyOp49
 70
     0
102
RTVSPropertyOp50
 70
     0
102
RTVSPropertyOp51
 70
     0
102
RTVSPropertyOp52
 70
     0
102
RTVSPropertyOp53
 70
     0
102
RTVSPropertyOp54
 70
     0
102
RTVSPropertyOp55
 70
     0
102
RTVSPropertyOp56
 70
     0
102
RTVSPropertyOp57
 70
     0
102
RTVSPost2010Prop28
280
     0
102
RTVSPost2010PropOp28
 70
     0
102
RTVSPost2010Prop29
280
     1
102
RTVSPost2010PropOp29
 70
     0
102
RTVSPost2010Prop30
280
     1
102
RTVSPost2010PropOp30
 70
     0
102
RTVSPost2010Prop31
280
     0
102
RTVSPost2010PropOp31
 70
     0
102
RTVSPost2010Prop32
280
     0
102
RTVSPost2010PropOp32
 70
     0
102
RTVSPost2010Prop33
280
     0
102
RTVSPost2010PropOp33
 70
     0
102
RTVSPost2010Prop34
280
     0
102
RTVSPost2010PropOp34
 70
     0
102
RTVSPost2010Prop35
280
     0
102
RTVSPost2010PropOp35
 70
     0
102
RTVSPost2010Prop36
280
     0
102
RTVSPost2010PropOp36
 70
     0
102
RTVSPost2010Prop37
 90
       50
102
RTVSPost2010PropOp37
 70
     0
102
RTVSPost2010Prop38
140
0.0
102
RTVSPost2010PropOp38
 70
     0
102
RTVSPost2010Prop39
140
1.0
102
RTVSPost2010PropOp39
 70
     0
102
RTVSPost2010Prop40
 90
        0
102
RTVSPost2010PropOp40
 70
     0
102
RTVSPost2010Prop41ColorIndex
 90
       18
102
RTVSPost2010Prop41ColorRGB
 90
        0
102
RTVSPost2010PropOp41
 70
     0
102
RTVSPost2010Prop42
 90
       50
102
RTVSPost2010PropOp42
 70
     0
102
RTVSPost2010Prop43
 90
        3
102
RTVSPost2010PropOp43
 70
     0
102
RTVSPost2010Prop44ColorIndex
 90
        5
102
RTVSPost2010Prop44ColorRGB
 90
      255
102
RTVSPost2010PropOp44
 70
     0
102
RTVSPost2010Prop45
280
     0
102
RTVSPost2010PropOp45
 70
     0
102
RTVSPost2010Prop46
 90
       50
102
RTVSPost2010PropOp46
 70
     0
102
RTVSPost2010Prop47
 90
       50
102
RTVSPost2010PropOp47
 70
     0
102
RTVSPost2010Prop48
 90
       50
102
RTVSPost2010PropOp48
 70
     0
102
RTVSPost2010Prop49
280
     0
102
RTVSPost2010PropOp49
 70
     0
102
RTVSPost2010Prop50
 90
       50
102
RTVSPost2010PropOp50
 70
     0
102
RTVSPost2010Prop51ColorIndex
 90
      256
102
RTVSPost2010Prop51ColorRGB
 90
-16777216
102
RTVSPost2010PropOp51
 70
     0
102
RTVSPost2010Prop52
140
1.0
102
RTVSPost2010PropOp52
 70
     0
102
RTVSPost2010Prop53
 90
        2
102
RTVSPost2010PropOp53
 70
     0
102
RTVSPost2010Prop54
  1
strokes_ogs.tif
102
RTVSPost2010PropOp54
 70
     0
102
RTVSPost2010Prop55
280
     0
102
RTVSPost2010PropOp55
 70
     0
102
RTVSPost2010Prop56
140
1.0
102
RTVSPost2010PropOp56
 70
     0
102
RTVSPost2010Prop57
140
1.0
102
RTVSPost2010PropOp57
 70
     0
  0
XRECORD
  5
12F9
102
{ACAD_REACTORS
330
12F8
102
}
330
12F8
100
AcDbXrecord
280
     1
102
RTVSPropertyOp0
 70
     1
102
RTVSPropertyOp1
 70
     1
102
RTVSPropertyOp2
 70
     1
102
RTVSPropertyOp3
 70
     1
102
RTVSPropertyOp4
 70
     1
102
RTVSPropertyOp5
 70
     1
102
RTVSPropertyOp6
 70
     1
102
RTVSPropertyOp7
 70
     1
102
RTVSPropertyOp8
 70
     1
102
RTVSPropertyOp9
 70
     1
102
RTVSPropertyOp10
 70
     1
102
RTVSPropertyOp11
 70
     1
102
RTVSPropertyOp12
 70
     1
102
RTVSPropertyOp13
 70
     1
102
RTVSPropertyOp14
 70
     1
102
RTVSPropertyOp15
 70
     1
102
RTVSPropertyOp16
 70
     1
102
RTVSPropertyOp17
 70
     1
102
RTVSPropertyOp18
 70
     1
102
RTVSPropertyOp19
 70
     1
102
RTVSPropertyOp20
 70
     1
102
RTVSPropertyOp21
 70
     1
102
RTVSPropertyOp22
 70
     1
102
RTVSPropertyOp23
 70
     1
102
RTVSPropertyOp24
 70
     1
102
RTVSPropertyOp25
 70
     1
102
RTVSPropertyOp26
 70
     1
102
RTVSPropertyOp27
 70
     1
102
RTVSPropertyOp28
 70
     1
102
RTVSPropertyOp29
 70
     1
102
RTVSPropertyOp30
 70
     1
102
RTVSPropertyOp31
 70
     1
102
RTVSPropertyOp32
 70
     1
102
RTVSPropertyOp33
 70
     1
102
RTVSPropertyOp34
 70
     1
102
RTVSPropertyOp35
 70
     1
102
RTVSPropertyOp36
 70
     1
102
RTVSPropertyOp37
 70
     1
102
RTVSPropertyOp38
 70
     1
102
RTVSPropertyOp39
 70
     1
102
RTVSPropertyOp40
 70
     1
102
RTVSPropertyOp41
 70
     1
102
RTVSPropertyOp42
 70
     1
102
RTVSPropertyOp43
 70
     1
102
RTVSPropertyOp44
 70
     1
102
RTVSPropertyOp45
 70
     1
102
RTVSPropertyOp46
 70
     1
102
RTVSPropertyOp47
 70
     1
102
RTVSPropertyOp48
 70
     1
102
RTVSPropertyOp49
 70
     1
102
RTVSPropertyOp50
 70
     1
102
RTVSPropertyOp51
 70
     0
102
RTVSPropertyOp52
 70
     0
102
RTVSPropertyOp53
 70
     1
102
RTVSPropertyOp54
 70
     1
102
RTVSPropertyOp55
 70
     1
102
RTVSPropertyOp56
 70
     1
102
RTVSPropertyOp57
 70
     1
102
RTVSPost2010Prop28
280
     0
102
RTVSPost2010PropOp28
 70
     1
102
RTVSPost2010Prop29
280
     1
102
RTVSPost2010PropOp29
 70
     1
102
RTVSPost2010Prop30
280
     1
102
RTVSPost2010PropOp30
 70
     1
102
RTVSPost2010Prop31
280
     0
102
RTVSPost2010PropOp31
 70
     1
102
RTVSPost2010Prop32
280
     0
102
RTVSPost2010PropOp32
 70
     1
102
RTVSPost2010Prop33
280
     0
102
RTVSPost2010PropOp33
 70
     1
102
RTVSPost2010Prop34
280
     0
102
RTVSPost2010PropOp34
 70
     1
102
RTVSPost2010Prop35
280
     0
102
RTVSPost2010PropOp35
 70
     1
102
RTVSPost2010Prop36
280
     0
102
RTVSPost2010PropOp36
 70
     1
102
RTVSPost2010Prop37
 90
       50
102
RTVSPost2010PropOp37
 70
     1
102
RTVSPost2010Prop38
140
0.0
102
RTVSPost2010PropOp38
 70
     1
102
RTVSPost2010Prop39
140
1.0
102
RTVSPost2010PropOp39
 70
     1
102
RTVSPost2010Prop40
 90
        0
102
RTVSPost2010PropOp40
 70
     1
102
RTVSPost2010Prop41ColorIndex
 90
       18
102
RTVSPost2010Prop41ColorRGB
 90
        0
102
RTVSPost2010PropOp41
 70
     1
102
RTVSPost2010Prop42
 90
       50
102
RTVSPost2010PropOp42
 70
     1
102
RTVSPost2010Prop43
 90
        3
102
RTVSPost2010PropOp43
 70
     1
102
RTVSPost2010Prop44ColorIndex
 90
        5
102
RTVSPost2010Prop44ColorRGB
 90
      255
102
RTVSPost2010PropOp44
 70
     1
102
RTVSPost2010Prop45
280
     0
102
RTVSPost2010PropOp45
 70
     1
102
RTVSPost2010Prop46
 90
       50
102
RTVSPost2010PropOp46
 70
     1
102
RTVSPost2010Prop47
 90
       50
102
RTVSPost2010PropOp47
 70
     1
102
RTVSPost2010Prop48
 90
       50
102
RTVSPost2010PropOp48
 70
     1
102
RTVSPost2010Prop49
280
     0
102
RTVSPost2010PropOp49
 70
     1
102
RTVSPost2010Prop50
 90
       50
102
RTVSPost2010PropOp50
 70
     1
102
RTVSPost2010Prop51ColorIndex
 90
      256
102
RTVSPost2010Prop51ColorRGB
 90
-16777216
102
RTVSPost2010PropOp51
 70
     0
102
RTVSPost2010Prop52
140
1.0
102
RTVSPost2010PropOp52
 70
     0
102
RTVSPost2010Prop53
 90
        2
102
RTVSPost2010PropOp53
 70
     1
102
RTVSPost2010Prop54
  1
strokes_ogs.tif
102
RTVSPost2010PropOp54
 70
     1
102
RTVSPost2010Prop55
280
     0
102
RTVSPost2010PropOp55
 70
     1
102
RTVSPost2010Prop56
140
1.0
102
RTVSPost2010PropOp56
 70
     1
102
RTVSPost2010Prop57
140
1.0
102
RTVSPost2010PropOp57
 70
     1
  0
XRECORD
  5
1301
102
{ACAD_REACTORS
330
1300
102
}
330
1300
100
AcDbXrecord
280
     1
102
RTVSPropertyOp0
 70
     0
102
RTVSPropertyOp1
 70
     0
102
RTVSPropertyOp2
 70
     0
102
RTVSPropertyOp3
 70
     0
102
RTVSPropertyOp4
 70
     0
102
RTVSPropertyOp5
 70
     0
102
RTVSPropertyOp6
 70
     0
102
RTVSPropertyOp7
 70
     0
102
RTVSPropertyOp8
 70
     0
102
RTVSPropertyOp9
 70
     0
102
RTVSPropertyOp10
 70
     0
102
RTVSPropertyOp11
 70
     0
102
RTVSPropertyOp12
 70
     0
102
RTVSPropertyOp13
 70
     0
102
RTVSPropertyOp14
 70
     2
102
RTVSPropertyOp15
 70
     0
102
RTVSPropertyOp16
 70
     0
102
RTVSPropertyOp17
 70
     0
102
RTVSPropertyOp18
 70
     0
102
RTVSPropertyOp19
 70
     0
102
RTVSPropertyOp20
 70
     0
102
RTVSPropertyOp21
 70
     0
102
RTVSPropertyOp22
 70
     0
102
RTVSPropertyOp23
 70
     0
102
RTVSPropertyOp24
 70
     0
102
RTVSPropertyOp25
 70
     0
102
RTVSPropertyOp26
 70
     0
102
RTVSPropertyOp27
 70
     0
102
RTVSPropertyOp28
 70
     0
102
RTVSPropertyOp29
 70
     0
102
RTVSPropertyOp30
 70
     0
102
RTVSPropertyOp31
 70
     0
102
RTVSPropertyOp32
 70
     0
102
RTVSPropertyOp33
 70
     0
102
RTVSPropertyOp34
 70
     0
102
RTVSPropertyOp35
 70
     0
102
RTVSPropertyOp36
 70
     0
102
RTVSPropertyOp37
 70
     0
102
RTVSPropertyOp38
 70
     0
102
RTVSPropertyOp39
 70
     0
102
RTVSPropertyOp40
 70
     0
102
RTVSPropertyOp41
 70
     0
102
RTVSPropertyOp42
 70
     0
102
RTVSPropertyOp43
 70
     0
102
RTVSPropertyOp44
 70
     0
102
RTVSPropertyOp45
 70
     0
102
RTVSPropertyOp46
 70
     0
102
RTVSPropertyOp47
 70
     0
102
RTVSPropertyOp48
 70
     0
102
RTVSPropertyOp49
 70
     0
102
RTVSPropertyOp50
 70
     0
102
RTVSPropertyOp51
 70
     0
102
RTVSPropertyOp52
 70
     0
102
RTVSPropertyOp53
 70
     0
102
RTVSPropertyOp54
 70
     0
102
RTVSPropertyOp55
 70
     0
102
RTVSPropertyOp56
 70
     0
102
RTVSPropertyOp57
 70
     0
102
RTVSPost2010Prop28
280
     0
102
RTVSPost2010PropOp28
 70
     0
102
RTVSPost2010Prop29
280
     1
102
RTVSPost2010PropOp29
 70
     0
102
RTVSPost2010Prop30
280
     1
102
RTVSPost2010PropOp30
 70
     0
102
RTVSPost2010Prop31
280
     0
102
RTVSPost2010PropOp31
 70
     0
102
RTVSPost2010Prop32
280
     0
102
RTVSPost2010PropOp32
 70
     0
102
RTVSPost2010Prop33
280
     0
102
RTVSPost2010PropOp33
 70
     0
102
RTVSPost2010Prop34
280
     0
102
RTVSPost2010PropOp34
 70
     0
102
RTVSPost2010Prop35
280
     0
102
RTVSPost2010PropOp35
 70
     0
102
RTVSPost2010Prop36
280
     0
102
RTVSPost2010PropOp36
 70
     0
102
RTVSPost2010Prop37
 90
       50
102
RTVSPost2010PropOp37
 70
     0
102
RTVSPost2010Prop38
140
0.0
102
RTVSPost2010PropOp38
 70
     0
102
RTVSPost2010Prop39
140
1.0
102
RTVSPost2010PropOp39
 70
     0
102
RTVSPost2010Prop40
 90
        0
102
RTVSPost2010PropOp40
 70
     0
102
RTVSPost2010Prop41ColorIndex
 90
       18
102
RTVSPost2010Prop41ColorRGB
 90
        0
102
RTVSPost2010PropOp41
 70
     0
102
RTVSPost2010Prop42
 90
       50
102
RTVSPost2010PropOp42
 70
     0
102
RTVSPost2010Prop43
 90
        3
102
RTVSPost2010PropOp43
 70
     0
102
RTVSPost2010Prop44ColorIndex
 90
        5
102
RTVSPost2010Prop44ColorRGB
 90
      255
102
RTVSPost2010PropOp44
 70
     0
102
RTVSPost2010Prop45
280
     0
102
RTVSPost2010PropOp45
 70
     0
102
RTVSPost2010Prop46
 90
       50
102
RTVSPost2010PropOp46
 70
     0
102
RTVSPost2010Prop47
 90
       50
102
RTVSPost2010PropOp47
 70
     0
102
RTVSPost2010Prop48
 90
       50
102
RTVSPost2010PropOp48
 70
     0
102
RTVSPost2010Prop49
280
     0
102
RTVSPost2010PropOp49
 70
     0
102
RTVSPost2010Prop50
 90
       50
102
RTVSPost2010PropOp50
 70
     0
102
RTVSPost2010Prop51ColorIndex
 90
      256
102
RTVSPost2010Prop51ColorRGB
 90
-16777216
102
RTVSPost2010PropOp51
 70
     0
102
RTVSPost2010Prop52
140
1.0
102
RTVSPost2010PropOp52
 70
     0
102
RTVSPost2010Prop53
 90
        2
102
RTVSPost2010PropOp53
 70
     0
102
RTVSPost2010Prop54
  1
strokes_ogs.tif
102
RTVSPost2010PropOp54
 70
     0
102
RTVSPost2010Prop55
280
     0
102
RTVSPost2010PropOp55
 70
     0
102
RTVSPost2010Prop56
140
1.0
102
RTVSPost2010PropOp56
 70
     0
102
RTVSPost2010Prop57
140
1.0
102
RTVSPost2010PropOp57
 70
     0
  0
XRECORD
  5
12EF
102
{ACAD_REACTORS
330
12EE
102
}
330
12EE
100
AcDbXrecord
280
     1
102
RTVSPropertyOp0
 70
     1
102
RTVSPropertyOp1
 70
     1
102
RTVSPropertyOp2
 70
     1
102
RTVSPropertyOp3
 70
     1
102
RTVSPropertyOp4
 70
     1
102
RTVSPropertyOp5
 70
     1
102
RTVSPropertyOp6
 70
     1
102
RTVSPropertyOp7
 70
     1
102
RTVSPropertyOp8
 70
     1
102
RTVSPropertyOp9
 70
     1
102
RTVSPropertyOp10
 70
     1
102
RTVSPropertyOp11
 70
     1
102
RTVSPropertyOp12
 70
     1
102
RTVSPropertyOp13
 70
     1
102
RTVSPropertyOp14
 70
     1
102
RTVSPropertyOp15
 70
     1
102
RTVSPropertyOp16
 70
     1
102
RTVSPropertyOp17
 70
     1
102
RTVSPropertyOp18
 70
     1
102
RTVSPropertyOp19
 70
     1
102
RTVSPropertyOp20
 70
     1
102
RTVSPropertyOp21
 70
     1
102
RTVSPropertyOp22
 70
     1
102
RTVSPropertyOp23
 70
     1
102
RTVSPropertyOp24
 70
     1
102
RTVSPropertyOp25
 70
     1
102
RTVSPropertyOp26
 70
     1
102
RTVSPropertyOp27
 70
     1
102
RTVSPropertyOp28
 70
     1
102
RTVSPropertyOp29
 70
     1
102
RTVSPropertyOp30
 70
     1
102
RTVSPropertyOp31
 70
     1
102
RTVSPropertyOp32
 70
     1
102
RTVSPropertyOp33
 70
     1
102
RTVSPropertyOp34
 70
     1
102
RTVSPropertyOp35
 70
     1
102
RTVSPropertyOp36
 70
     1
102
RTVSPropertyOp37
 70
     1
102
RTVSPropertyOp38
 70
     1
102
RTVSPropertyOp39
 70
     1
102
RTVSPropertyOp40
 70
     1
102
RTVSPropertyOp41
 70
     1
102
RTVSPropertyOp42
 70
     1
102
RTVSPropertyOp43
 70
     1
102
RTVSPropertyOp44
 70
     1
102
RTVSPropertyOp45
 70
     1
102
RTVSPropertyOp46
 70
     1
102
RTVSPropertyOp47
 70
     1
102
RTVSPropertyOp48
 70
     1
102
RTVSPropertyOp49
 70
     1
102
RTVSPropertyOp50
 70
     1
102
RTVSPropertyOp51
 70
     0
102
RTVSPropertyOp52
 70
     0
102
RTVSPropertyOp53
 70
     1
102
RTVSPropertyOp54
 70
     1
102
RTVSPropertyOp55
 70
     1
102
RTVSPropertyOp56
 70
     1
102
RTVSPropertyOp57
 70
     1
102
RTVSPost2010Prop28
280
     0
102
RTVSPost2010PropOp28
 70
     1
102
RTVSPost2010Prop29
280
     1
102
RTVSPost2010PropOp29
 70
     1
102
RTVSPost2010Prop30
280
     1
102
RTVSPost2010PropOp30
 70
     1
102
RTVSPost2010Prop31
280
     0
102
RTVSPost2010PropOp31
 70
     1
102
RTVSPost2010Prop32
280
     0
102
RTVSPost2010PropOp32
 70
     1
102
RTVSPost2010Prop33
280
     0
102
RTVSPost2010PropOp33
 70
     1
102
RTVSPost2010Prop34
280
     0
102
RTVSPost2010PropOp34
 70
     1
102
RTVSPost2010Prop35
280
     0
102
RTVSPost2010PropOp35
 70
     1
102
RTVSPost2010Prop36
280
     0
102
RTVSPost2010PropOp36
 70
     1
102
RTVSPost2010Prop37
 90
       50
102
RTVSPost2010PropOp37
 70
     1
102
RTVSPost2010Prop38
140
0.0
102
RTVSPost2010PropOp38
 70
     1
102
RTVSPost2010Prop39
140
1.0
102
RTVSPost2010PropOp39
 70
     1
102
RTVSPost2010Prop40
 90
        0
102
RTVSPost2010PropOp40
 70
     1
102
RTVSPost2010Prop41ColorIndex
 90
       18
102
RTVSPost2010Prop41ColorRGB
 90
        0
102
RTVSPost2010PropOp41
 70
     1
102
RTVSPost2010Prop42
 90
       50
102
RTVSPost2010PropOp42
 70
     1
102
RTVSPost2010Prop43
 90
        3
102
RTVSPost2010PropOp43
 70
     1
102
RTVSPost2010Prop44ColorIndex
 90
        5
102
RTVSPost2010Prop44ColorRGB
 90
      255
102
RTVSPost2010PropOp44
 70
     1
102
RTVSPost2010Prop45
280
     0
102
RTVSPost2010PropOp45
 70
     1
102
RTVSPost2010Prop46
 90
       50
102
RTVSPost2010PropOp46
 70
     1
102
RTVSPost2010Prop47
 90
       50
102
RTVSPost2010PropOp47
 70
     1
102
RTVSPost2010Prop48
 90
       50
102
RTVSPost2010PropOp48
 70
     1
102
RTVSPost2010Prop49
280
     0
102
RTVSPost2010PropOp49
 70
     1
102
RTVSPost2010Prop50
 90
       50
102
RTVSPost2010PropOp50
 70
     1
102
RTVSPost2010Prop51ColorIndex
 90
      256
102
RTVSPost2010Prop51ColorRGB
 90
-16777216
102
RTVSPost2010PropOp51
 70
     0
102
RTVSPost2010Prop52
140
1.0
102
RTVSPost2010PropOp52
 70
     0
102
RTVSPost2010Prop53
 90
        2
102
RTVSPost2010PropOp53
 70
     1
102
RTVSPost2010Prop54
  1
strokes_ogs.tif
102
RTVSPost2010PropOp54
 70
     1
102
RTVSPost2010Prop55
280
     0
102
RTVSPost2010PropOp55
 70
     1
102
RTVSPost2010Prop56
140
1.0
102
RTVSPost2010PropOp56
 70
     1
102
RTVSPost2010Prop57
140
1.0
102
RTVSPost2010PropOp57
 70
     1
  0
XRECORD
  5
130D
102
{ACAD_REACTORS
330
130C
102
}
330
130C
100
AcDbXrecord
280
     1
102
RTVSPropertyOp0
 70
     1
102
RTVSPropertyOp1
 70
     1
102
RTVSPropertyOp2
 70
     1
102
RTVSPropertyOp3
 70
     1
102
RTVSPropertyOp4
 70
     1
102
RTVSPropertyOp5
 70
     1
102
RTVSPropertyOp6
 70
     1
102
RTVSPropertyOp7
 70
     1
102
RTVSPropertyOp8
 70
     1
102
RTVSPropertyOp9
 70
     1
102
RTVSPropertyOp10
 70
     1
102
RTVSPropertyOp11
 70
     1
102
RTVSPropertyOp12
 70
     1
102
RTVSPropertyOp13
 70
     1
102
RTVSPropertyOp14
 70
     1
102
RTVSPropertyOp15
 70
     1
102
RTVSPropertyOp16
 70
     1
102
RTVSPropertyOp17
 70
     1
102
RTVSPropertyOp18
 70
     1
102
RTVSPropertyOp19
 70
     1
102
RTVSPropertyOp20
 70
     1
102
RTVSPropertyOp21
 70
     1
102
RTVSPropertyOp22
 70
     1
102
RTVSPropertyOp23
 70
     1
102
RTVSPropertyOp24
 70
     1
102
RTVSPropertyOp25
 70
     1
102
RTVSPropertyOp26
 70
     1
102
RTVSPropertyOp27
 70
     1
102
RTVSPropertyOp28
 70
     1
102
RTVSPropertyOp29
 70
     1
102
RTVSPropertyOp30
 70
     1
102
RTVSPropertyOp31
 70
     1
102
RTVSPropertyOp32
 70
     1
102
RTVSPropertyOp33
 70
     1
102
RTVSPropertyOp34
 70
     1
102
RTVSPropertyOp35
 70
     1
102
RTVSPropertyOp36
 70
     1
102
RTVSPropertyOp37
 70
     1
102
RTVSPropertyOp38
 70
     1
102
RTVSPropertyOp39
 70
     1
102
RTVSPropertyOp40
 70
     1
102
RTVSPropertyOp41
 70
     1
102
RTVSPropertyOp42
 70
     1
102
RTVSPropertyOp43
 70
     1
102
RTVSPropertyOp44
 70
     1
102
RTVSPropertyOp45
 70
     1
102
RTVSPropertyOp46
 70
     1
102
RTVSPropertyOp47
 70
     1
102
RTVSPropertyOp48
 70
     1
102
RTVSPropertyOp49
 70
     1
102
RTVSPropertyOp50
 70
     1
102
RTVSPropertyOp51
 70
     0
102
RTVSPropertyOp52
 70
     0
102
RTVSPropertyOp53
 70
     1
102
RTVSPropertyOp54
 70
     1
102
RTVSPropertyOp55
 70
     1
102
RTVSPropertyOp56
 70
     1
102
RTVSPropertyOp57
 70
     1
102
RTVSPost2010Prop28
280
     0
102
RTVSPost2010PropOp28
 70
     1
102
RTVSPost2010Prop29
280
     1
102
RTVSPost2010PropOp29
 70
     1
102
RTVSPost2010Prop30
280
     1
102
RTVSPost2010PropOp30
 70
     1
102
RTVSPost2010Prop31
280
     0
102
RTVSPost2010PropOp31
 70
     1
102
RTVSPost2010Prop32
280
     0
102
RTVSPost2010PropOp32
 70
     1
102
RTVSPost2010Prop33
280
     0
102
RTVSPost2010PropOp33
 70
     1
102
RTVSPost2010Prop34
280
     0
102
RTVSPost2010PropOp34
 70
     1
102
RTVSPost2010Prop35
280
     0
102
RTVSPost2010PropOp35
 70
     1
102
RTVSPost2010Prop36
280
     0
102
RTVSPost2010PropOp36
 70
     1
102
RTVSPost2010Prop37
 90
       50
102
RTVSPost2010PropOp37
 70
     1
102
RTVSPost2010Prop38
140
0.0
102
RTVSPost2010PropOp38
 70
     1
102
RTVSPost2010Prop39
140
1.0
102
RTVSPost2010PropOp39
 70
     1
102
RTVSPost2010Prop40
 90
        0
102
RTVSPost2010PropOp40
 70
     1
102
RTVSPost2010Prop41ColorIndex
 90
       18
102
RTVSPost2010Prop41ColorRGB
 90
        0
102
RTVSPost2010PropOp41
 70
     1
102
RTVSPost2010Prop42
 90
       50
102
RTVSPost2010PropOp42
 70
     1
102
RTVSPost2010Prop43
 90
        3
102
RTVSPost2010PropOp43
 70
     1
102
RTVSPost2010Prop44ColorIndex
 90
        5
102
RTVSPost2010Prop44ColorRGB
 90
      255
102
RTVSPost2010PropOp44
 70
     1
102
RTVSPost2010Prop45
280
     0
102
RTVSPost2010PropOp45
 70
     1
102
RTVSPost2010Prop46
 90
       50
102
RTVSPost2010PropOp46
 70
     1
102
RTVSPost2010Prop47
 90
       50
102
RTVSPost2010PropOp47
 70
     1
102
RTVSPost2010Prop48
 90
       50
102
RTVSPost2010PropOp48
 70
     1
102
RTVSPost2010Prop49
280
     0
102
RTVSPost2010PropOp49
 70
     1
102
RTVSPost2010Prop50
 90
       50
102
RTVSPost2010PropOp50
 70
     1
102
RTVSPost2010Prop51ColorIndex
 90
      256
102
RTVSPost2010Prop51ColorRGB
 90
-16777216
102
RTVSPost2010PropOp51
 70
     0
102
RTVSPost2010Prop52
140
1.0
102
RTVSPost2010PropOp52
 70
     0
102
RTVSPost2010Prop53
 90
        2
102
RTVSPost2010PropOp53
 70
     1
102
RTVSPost2010Prop54
  1
strokes_ogs.tif
102
RTVSPost2010PropOp54
 70
     1
102
RTVSPost2010Prop55
280
     0
102
RTVSPost2010PropOp55
 70
     1
102
RTVSPost2010Prop56
140
1.0
102
RTVSPost2010PropOp56
 70
     1
102
RTVSPost2010Prop57
140
1.0
102
RTVSPost2010PropOp57
 70
     1
  0
XRECORD
  5
130B
102
{ACAD_REACTORS
330
130A
102
}
330
130A
100
AcDbXrecord
280
     1
102
RTVSPropertyOp0
 70
     1
102
RTVSPropertyOp1
 70
     1
102
RTVSPropertyOp2
 70
     1
102
RTVSPropertyOp3
 70
     1
102
RTVSPropertyOp4
 70
     1
102
RTVSPropertyOp5
 70
     1
102
RTVSPropertyOp6
 70
     1
102
RTVSPropertyOp7
 70
     1
102
RTVSPropertyOp8
 70
     1
102
RTVSPropertyOp9
 70
     1
102
RTVSPropertyOp10
 70
     1
102
RTVSPropertyOp11
 70
     1
102
RTVSPropertyOp12
 70
     1
102
RTVSPropertyOp13
 70
     1
102
RTVSPropertyOp14
 70
     1
102
RTVSPropertyOp15
 70
     1
102
RTVSPropertyOp16
 70
     1
102
RTVSPropertyOp17
 70
     1
102
RTVSPropertyOp18
 70
     1
102
RTVSPropertyOp19
 70
     1
102
RTVSPropertyOp20
 70
     1
102
RTVSPropertyOp21
 70
     1
102
RTVSPropertyOp22
 70
     1
102
RTVSPropertyOp23
 70
     1
102
RTVSPropertyOp24
 70
     1
102
RTVSPropertyOp25
 70
     1
102
RTVSPropertyOp26
 70
     1
102
RTVSPropertyOp27
 70
     1
102
RTVSPropertyOp28
 70
     1
102
RTVSPropertyOp29
 70
     1
102
RTVSPropertyOp30
 70
     1
102
RTVSPropertyOp31
 70
     1
102
RTVSPropertyOp32
 70
     1
102
RTVSPropertyOp33
 70
     1
102
RTVSPropertyOp34
 70
     1
102
RTVSPropertyOp35
 70
     1
102
RTVSPropertyOp36
 70
     1
102
RTVSPropertyOp37
 70
     1
102
RTVSPropertyOp38
 70
     1
102
RTVSPropertyOp39
 70
     1
102
RTVSPropertyOp40
 70
     1
102
RTVSPropertyOp41
 70
     1
102
RTVSPropertyOp42
 70
     1
102
RTVSPropertyOp43
 70
     1
102
RTVSPropertyOp44
 70
     1
102
RTVSPropertyOp45
 70
     1
102
RTVSPropertyOp46
 70
     1
102
RTVSPropertyOp47
 70
     1
102
RTVSPropertyOp48
 70
     1
102
RTVSPropertyOp49
 70
     1
102
RTVSPropertyOp50
 70
     1
102
RTVSPropertyOp51
 70
     0
102
RTVSPropertyOp52
 70
     0
102
RTVSPropertyOp53
 70
     1
102
RTVSPropertyOp54
 70
     1
102
RTVSPropertyOp55
 70
     1
102
RTVSPropertyOp56
 70
     1
102
RTVSPropertyOp57
 70
     1
102
RTVSPost2010Prop28
280
     0
102
RTVSPost2010PropOp28
 70
     1
102
RTVSPost2010Prop29
280
     1
102
RTVSPost2010PropOp29
 70
     1
102
RTVSPost2010Prop30
280
     1
102
RTVSPost2010PropOp30
 70
     1
102
RTVSPost2010Prop31
280
     0
102
RTVSPost2010PropOp31
 70
     1
102
RTVSPost2010Prop32
280
     0
102
RTVSPost2010PropOp32
 70
     1
102
RTVSPost2010Prop33
280
     0
102
RTVSPost2010PropOp33
 70
     1
102
RTVSPost2010Prop34
280
     0
102
RTVSPost2010PropOp34
 70
     1
102
RTVSPost2010Prop35
280
     0
102
RTVSPost2010PropOp35
 70
     1
102
RTVSPost2010Prop36
280
     0
102
RTVSPost2010PropOp36
 70
     1
102
RTVSPost2010Prop37
 90
       50
102
RTVSPost2010PropOp37
 70
     1
102
RTVSPost2010Prop38
140
0.0
102
RTVSPost2010PropOp38
 70
     1
102
RTVSPost2010Prop39
140
1.0
102
RTVSPost2010PropOp39
 70
     1
102
RTVSPost2010Prop40
 90
        0
102
RTVSPost2010PropOp40
 70
     1
102
RTVSPost2010Prop41ColorIndex
 90
       18
102
RTVSPost2010Prop41ColorRGB
 90
        0
102
RTVSPost2010PropOp41
 70
     1
102
RTVSPost2010Prop42
 90
       50
102
RTVSPost2010PropOp42
 70
     1
102
RTVSPost2010Prop43
 90
        3
102
RTVSPost2010PropOp43
 70
     1
102
RTVSPost2010Prop44ColorIndex
 90
        5
102
RTVSPost2010Prop44ColorRGB
 90
      255
102
RTVSPost2010PropOp44
 70
     1
102
RTVSPost2010Prop45
280
     0
102
RTVSPost2010PropOp45
 70
     1
102
RTVSPost2010Prop46
 90
       50
102
RTVSPost2010PropOp46
 70
     1
102
RTVSPost2010Prop47
 90
       50
102
RTVSPost2010PropOp47
 70
     1
102
RTVSPost2010Prop48
 90
       50
102
RTVSPost2010PropOp48
 70
     1
102
RTVSPost2010Prop49
280
     0
102
RTVSPost2010PropOp49
 70
     1
102
RTVSPost2010Prop50
 90
       50
102
RTVSPost2010PropOp50
 70
     1
102
RTVSPost2010Prop51ColorIndex
 90
      256
102
RTVSPost2010Prop51ColorRGB
 90
-16777216
102
RTVSPost2010PropOp51
 70
     0
102
RTVSPost2010Prop52
140
1.0
102
RTVSPost2010PropOp52
 70
     0
102
RTVSPost2010Prop53
 90
        2
102
RTVSPost2010PropOp53
 70
     1
102
RTVSPost2010Prop54
  1
strokes_ogs.tif
102
RTVSPost2010PropOp54
 70
     1
102
RTVSPost2010Prop55
280
     0
102
RTVSPost2010PropOp55
 70
     1
102
RTVSPost2010Prop56
140
1.0
102
RTVSPost2010PropOp56
 70
     1
102
RTVSPost2010Prop57
140
1.0
102
RTVSPost2010PropOp57
 70
     1
  0
XRECORD
  5
1305
102
{ACAD_REACTORS
330
1304
102
}
330
1304
100
AcDbXrecord
280
     1
102
RTVSPropertyOp0
 70
     1
102
RTVSPropertyOp1
 70
     1
102
RTVSPropertyOp2
 70
     1
102
RTVSPropertyOp3
 70
     1
102
RTVSPropertyOp4
 70
     1
102
RTVSPropertyOp5
 70
     1
102
RTVSPropertyOp6
 70
     1
102
RTVSPropertyOp7
 70
     1
102
RTVSPropertyOp8
 70
     1
102
RTVSPropertyOp9
 70
     1
102
RTVSPropertyOp10
 70
     1
102
RTVSPropertyOp11
 70
     1
102
RTVSPropertyOp12
 70
     1
102
RTVSPropertyOp13
 70
     1
102
RTVSPropertyOp14
 70
     1
102
RTVSPropertyOp15
 70
     1
102
RTVSPropertyOp16
 70
     1
102
RTVSPropertyOp17
 70
     1
102
RTVSPropertyOp18
 70
     1
102
RTVSPropertyOp19
 70
     1
102
RTVSPropertyOp20
 70
     1
102
RTVSPropertyOp21
 70
     1
102
RTVSPropertyOp22
 70
     1
102
RTVSPropertyOp23
 70
     1
102
RTVSPropertyOp24
 70
     1
102
RTVSPropertyOp25
 70
     1
102
RTVSPropertyOp26
 70
     1
102
RTVSPropertyOp27
 70
     1
102
RTVSPropertyOp28
 70
     1
102
RTVSPropertyOp29
 70
     1
102
RTVSPropertyOp30
 70
     1
102
RTVSPropertyOp31
 70
     1
102
RTVSPropertyOp32
 70
     1
102
RTVSPropertyOp33
 70
     1
102
RTVSPropertyOp34
 70
     1
102
RTVSPropertyOp35
 70
     1
102
RTVSPropertyOp36
 70
     1
102
RTVSPropertyOp37
 70
     1
102
RTVSPropertyOp38
 70
     1
102
RTVSPropertyOp39
 70
     1
102
RTVSPropertyOp40
 70
     1
102
RTVSPropertyOp41
 70
     1
102
RTVSPropertyOp42
 70
     1
102
RTVSPropertyOp43
 70
     1
102
RTVSPropertyOp44
 70
     1
102
RTVSPropertyOp45
 70
     1
102
RTVSPropertyOp46
 70
     1
102
RTVSPropertyOp47
 70
     1
102
RTVSPropertyOp48
 70
     1
102
RTVSPropertyOp49
 70
     1
102
RTVSPropertyOp50
 70
     1
102
RTVSPropertyOp51
 70
     0
102
RTVSPropertyOp52
 70
     0
102
RTVSPropertyOp53
 70
     1
102
RTVSPropertyOp54
 70
     1
102
RTVSPropertyOp55
 70
     1
102
RTVSPropertyOp56
 70
     1
102
RTVSPropertyOp57
 70
     1
102
RTVSPost2010Prop28
280
     0
102
RTVSPost2010PropOp28
 70
     1
102
RTVSPost2010Prop29
280
     1
102
RTVSPost2010PropOp29
 70
     1
102
RTVSPost2010Prop30
280
     1
102
RTVSPost2010PropOp30
 70
     1
102
RTVSPost2010Prop31
280
     0
102
RTVSPost2010PropOp31
 70
     1
102
RTVSPost2010Prop32
280
     0
102
RTVSPost2010PropOp32
 70
     1
102
RTVSPost2010Prop33
280
     0
102
RTVSPost2010PropOp33
 70
     1
102
RTVSPost2010Prop34
280
     0
102
RTVSPost2010PropOp34
 70
     1
102
RTVSPost2010Prop35
280
     0
102
RTVSPost2010PropOp35
 70
     1
102
RTVSPost2010Prop36
280
     0
102
RTVSPost2010PropOp36
 70
     1
102
RTVSPost2010Prop37
 90
       50
102
RTVSPost2010PropOp37
 70
     1
102
RTVSPost2010Prop38
140
0.0
102
RTVSPost2010PropOp38
 70
     1
102
RTVSPost2010Prop39
140
1.0
102
RTVSPost2010PropOp39
 70
     1
102
RTVSPost2010Prop40
 90
        0
102
RTVSPost2010PropOp40
 70
     1
102
RTVSPost2010Prop41ColorIndex
 90
       18
102
RTVSPost2010Prop41ColorRGB
 90
        0
102
RTVSPost2010PropOp41
 70
     1
102
RTVSPost2010Prop42
 90
       50
102
RTVSPost2010PropOp42
 70
     1
102
RTVSPost2010Prop43
 90
        3
102
RTVSPost2010PropOp43
 70
     1
102
RTVSPost2010Prop44ColorIndex
 90
        5
102
RTVSPost2010Prop44ColorRGB
 90
      255
102
RTVSPost2010PropOp44
 70
     1
102
RTVSPost2010Prop45
280
     0
102
RTVSPost2010PropOp45
 70
     1
102
RTVSPost2010Prop46
 90
       50
102
RTVSPost2010PropOp46
 70
     1
102
RTVSPost2010Prop47
 90
       50
102
RTVSPost2010PropOp47
 70
     1
102
RTVSPost2010Prop48
 90
       50
102
RTVSPost2010PropOp48
 70
     1
102
RTVSPost2010Prop49
280
     0
102
RTVSPost2010PropOp49
 70
     1
102
RTVSPost2010Prop50
 90
       50
102
RTVSPost2010PropOp50
 70
     1
102
RTVSPost2010Prop51ColorIndex
 90
      256
102
RTVSPost2010Prop51ColorRGB
 90
-16777216
102
RTVSPost2010PropOp51
 70
     0
102
RTVSPost2010Prop52
140
1.0
102
RTVSPost2010PropOp52
 70
     0
102
RTVSPost2010Prop53
 90
        2
102
RTVSPost2010PropOp53
 70
     1
102
RTVSPost2010Prop54
  1
strokes_ogs.tif
102
RTVSPost2010PropOp54
 70
     1
102
RTVSPost2010Prop55
280
     0
102
RTVSPost2010PropOp55
 70
     1
102
RTVSPost2010Prop56
140
1.0
102
RTVSPost2010PropOp56
 70
     1
102
RTVSPost2010Prop57
140
1.0
102
RTVSPost2010PropOp57
 70
     1
  0
XRECORD
  5
1307
102
{ACAD_REACTORS
330
1306
102
}
330
1306
100
AcDbXrecord
280
     1
102
RTVSPropertyOp0
 70
     1
102
RTVSPropertyOp1
 70
     1
102
RTVSPropertyOp2
 70
     1
102
RTVSPropertyOp3
 70
     1
102
RTVSPropertyOp4
 70
     1
102
RTVSPropertyOp5
 70
     1
102
RTVSPropertyOp6
 70
     1
102
RTVSPropertyOp7
 70
     1
102
RTVSPropertyOp8
 70
     1
102
RTVSPropertyOp9
 70
     1
102
RTVSPropertyOp10
 70
     1
102
RTVSPropertyOp11
 70
     1
102
RTVSPropertyOp12
 70
     1
102
RTVSPropertyOp13
 70
     1
102
RTVSPropertyOp14
 70
     1
102
RTVSPropertyOp15
 70
     1
102
RTVSPropertyOp16
 70
     1
102
RTVSPropertyOp17
 70
     1
102
RTVSPropertyOp18
 70
     1
102
RTVSPropertyOp19
 70
     1
102
RTVSPropertyOp20
 70
     1
102
RTVSPropertyOp21
 70
     1
102
RTVSPropertyOp22
 70
     1
102
RTVSPropertyOp23
 70
     1
102
RTVSPropertyOp24
 70
     1
102
RTVSPropertyOp25
 70
     1
102
RTVSPropertyOp26
 70
     1
102
RTVSPropertyOp27
 70
     1
102
RTVSPropertyOp28
 70
     1
102
RTVSPropertyOp29
 70
     1
102
RTVSPropertyOp30
 70
     1
102
RTVSPropertyOp31
 70
     1
102
RTVSPropertyOp32
 70
     1
102
RTVSPropertyOp33
 70
     1
102
RTVSPropertyOp34
 70
     1
102
RTVSPropertyOp35
 70
     1
102
RTVSPropertyOp36
 70
     1
102
RTVSPropertyOp37
 70
     1
102
RTVSPropertyOp38
 70
     1
102
RTVSPropertyOp39
 70
     1
102
RTVSPropertyOp40
 70
     1
102
RTVSPropertyOp41
 70
     1
102
RTVSPropertyOp42
 70
     1
102
RTVSPropertyOp43
 70
     1
102
RTVSPropertyOp44
 70
     1
102
RTVSPropertyOp45
 70
     1
102
RTVSPropertyOp46
 70
     1
102
RTVSPropertyOp47
 70
     1
102
RTVSPropertyOp48
 70
     1
102
RTVSPropertyOp49
 70
     1
102
RTVSPropertyOp50
 70
     1
102
RTVSPropertyOp51
 70
     0
102
RTVSPropertyOp52
 70
     0
102
RTVSPropertyOp53
 70
     1
102
RTVSPropertyOp54
 70
     1
102
RTVSPropertyOp55
 70
     1
102
RTVSPropertyOp56
 70
     1
102
RTVSPropertyOp57
 70
     1
102
RTVSPost2010Prop28
280
     0
102
RTVSPost2010PropOp28
 70
     1
102
RTVSPost2010Prop29
280
     1
102
RTVSPost2010PropOp29
 70
     1
102
RTVSPost2010Prop30
280
     1
102
RTVSPost2010PropOp30
 70
     1
102
RTVSPost2010Prop31
280
     0
102
RTVSPost2010PropOp31
 70
     1
102
RTVSPost2010Prop32
280
     0
102
RTVSPost2010PropOp32
 70
     1
102
RTVSPost2010Prop33
280
     0
102
RTVSPost2010PropOp33
 70
     1
102
RTVSPost2010Prop34
280
     0
102
RTVSPost2010PropOp34
 70
     1
102
RTVSPost2010Prop35
280
     0
102
RTVSPost2010PropOp35
 70
     1
102
RTVSPost2010Prop36
280
     0
102
RTVSPost2010PropOp36
 70
     1
102
RTVSPost2010Prop37
 90
       50
102
RTVSPost2010PropOp37
 70
     1
102
RTVSPost2010Prop38
140
0.0
102
RTVSPost2010PropOp38
 70
     1
102
RTVSPost2010Prop39
140
1.0
102
RTVSPost2010PropOp39
 70
     1
102
RTVSPost2010Prop40
 90
        0
102
RTVSPost2010PropOp40
 70
     1
102
RTVSPost2010Prop41ColorIndex
 90
       18
102
RTVSPost2010Prop41ColorRGB
 90
        0
102
RTVSPost2010PropOp41
 70
     1
102
RTVSPost2010Prop42
 90
       50
102
RTVSPost2010PropOp42
 70
     1
102
RTVSPost2010Prop43
 90
        3
102
RTVSPost2010PropOp43
 70
     1
102
RTVSPost2010Prop44ColorIndex
 90
        5
102
RTVSPost2010Prop44ColorRGB
 90
      255
102
RTVSPost2010PropOp44
 70
     1
102
RTVSPost2010Prop45
280
     0
102
RTVSPost2010PropOp45
 70
     1
102
RTVSPost2010Prop46
 90
       50
102
RTVSPost2010PropOp46
 70
     1
102
RTVSPost2010Prop47
 90
       50
102
RTVSPost2010PropOp47
 70
     1
102
RTVSPost2010Prop48
 90
       50
102
RTVSPost2010PropOp48
 70
     1
102
RTVSPost2010Prop49
280
     0
102
RTVSPost2010PropOp49
 70
     1
102
RTVSPost2010Prop50
 90
       50
102
RTVSPost2010PropOp50
 70
     1
102
RTVSPost2010Prop51ColorIndex
 90
      256
102
RTVSPost2010Prop51ColorRGB
 90
-16777216
102
RTVSPost2010PropOp51
 70
     0
102
RTVSPost2010Prop52
140
1.0
102
RTVSPost2010PropOp52
 70
     0
102
RTVSPost2010Prop53
 90
        2
102
RTVSPost2010PropOp53
 70
     1
102
RTVSPost2010Prop54
  1
strokes_ogs.tif
102
RTVSPost2010PropOp54
 70
     1
102
RTVSPost2010Prop55
280
     0
102
RTVSPost2010PropOp55
 70
     1
102
RTVSPost2010Prop56
140
1.0
102
RTVSPost2010PropOp56
 70
     1
102
RTVSPost2010Prop57
140
1.0
102
RTVSPost2010PropOp57
 70
     1
  0
XRECORD
  5
12F7
102
{ACAD_REACTORS
330
12F6
102
}
330
12F6
100
AcDbXrecord
280
     1
102
RTVSPropertyOp0
 70
     1
102
RTVSPropertyOp1
 70
     1
102
RTVSPropertyOp2
 70
     1
102
RTVSPropertyOp3
 70
     1
102
RTVSPropertyOp4
 70
     1
102
RTVSPropertyOp5
 70
     1
102
RTVSPropertyOp6
 70
     1
102
RTVSPropertyOp7
 70
     1
102
RTVSPropertyOp8
 70
     1
102
RTVSPropertyOp9
 70
     1
102
RTVSPropertyOp10
 70
     1
102
RTVSPropertyOp11
 70
     1
102
RTVSPropertyOp12
 70
     1
102
RTVSPropertyOp13
 70
     1
102
RTVSPropertyOp14
 70
     1
102
RTVSPropertyOp15
 70
     1
102
RTVSPropertyOp16
 70
     1
102
RTVSPropertyOp17
 70
     1
102
RTVSPropertyOp18
 70
     1
102
RTVSPropertyOp19
 70
     1
102
RTVSPropertyOp20
 70
     1
102
RTVSPropertyOp21
 70
     1
102
RTVSPropertyOp22
 70
     1
102
RTVSPropertyOp23
 70
     1
102
RTVSPropertyOp24
 70
     1
102
RTVSPropertyOp25
 70
     1
102
RTVSPropertyOp26
 70
     1
102
RTVSPropertyOp27
 70
     1
102
RTVSPropertyOp28
 70
     1
102
RTVSPropertyOp29
 70
     1
102
RTVSPropertyOp30
 70
     1
102
RTVSPropertyOp31
 70
     1
102
RTVSPropertyOp32
 70
     1
102
RTVSPropertyOp33
 70
     1
102
RTVSPropertyOp34
 70
     1
102
RTVSPropertyOp35
 70
     1
102
RTVSPropertyOp36
 70
     1
102
RTVSPropertyOp37
 70
     1
102
RTVSPropertyOp38
 70
     1
102
RTVSPropertyOp39
 70
     1
102
RTVSPropertyOp40
 70
     1
102
RTVSPropertyOp41
 70
     1
102
RTVSPropertyOp42
 70
     1
102
RTVSPropertyOp43
 70
     1
102
RTVSPropertyOp44
 70
     1
102
RTVSPropertyOp45
 70
     1
102
RTVSPropertyOp46
 70
     1
102
RTVSPropertyOp47
 70
     1
102
RTVSPropertyOp48
 70
     1
102
RTVSPropertyOp49
 70
     1
102
RTVSPropertyOp50
 70
     1
102
RTVSPropertyOp51
 70
     0
102
RTVSPropertyOp52
 70
     0
102
RTVSPropertyOp53
 70
     1
102
RTVSPropertyOp54
 70
     1
102
RTVSPropertyOp55
 70
     1
102
RTVSPropertyOp56
 70
     1
102
RTVSPropertyOp57
 70
     1
102
RTVSPost2010Prop28
280
     0
102
RTVSPost2010PropOp28
 70
     1
102
RTVSPost2010Prop29
280
     1
102
RTVSPost2010PropOp29
 70
     1
102
RTVSPost2010Prop30
280
     1
102
RTVSPost2010PropOp30
 70
     1
102
RTVSPost2010Prop31
280
     0
102
RTVSPost2010PropOp31
 70
     1
102
RTVSPost2010Prop32
280
     0
102
RTVSPost2010PropOp32
 70
     1
102
RTVSPost2010Prop33
280
     0
102
RTVSPost2010PropOp33
 70
     1
102
RTVSPost2010Prop34
280
     0
102
RTVSPost2010PropOp34
 70
     1
102
RTVSPost2010Prop35
280
     0
102
RTVSPost2010PropOp35
 70
     1
102
RTVSPost2010Prop36
280
     0
102
RTVSPost2010PropOp36
 70
     1
102
RTVSPost2010Prop37
 90
       50
102
RTVSPost2010PropOp37
 70
     1
102
RTVSPost2010Prop38
140
0.0
102
RTVSPost2010PropOp38
 70
     1
102
RTVSPost2010Prop39
140
1.0
102
RTVSPost2010PropOp39
 70
     1
102
RTVSPost2010Prop40
 90
        0
102
RTVSPost2010PropOp40
 70
     1
102
RTVSPost2010Prop41ColorIndex
 90
       18
102
RTVSPost2010Prop41ColorRGB
 90
        0
102
RTVSPost2010PropOp41
 70
     1
102
RTVSPost2010Prop42
 90
       50
102
RTVSPost2010PropOp42
 70
     1
102
RTVSPost2010Prop43
 90
        3
102
RTVSPost2010PropOp43
 70
     1
102
RTVSPost2010Prop44ColorIndex
 90
        5
102
RTVSPost2010Prop44ColorRGB
 90
      255
102
RTVSPost2010PropOp44
 70
     1
102
RTVSPost2010Prop45
280
     0
102
RTVSPost2010PropOp45
 70
     1
102
RTVSPost2010Prop46
 90
       50
102
RTVSPost2010PropOp46
 70
     1
102
RTVSPost2010Prop47
 90
       50
102
RTVSPost2010PropOp47
 70
     1
102
RTVSPost2010Prop48
 90
       50
102
RTVSPost2010PropOp48
 70
     1
102
RTVSPost2010Prop49
280
     0
102
RTVSPost2010PropOp49
 70
     1
102
RTVSPost2010Prop50
 90
       50
102
RTVSPost2010PropOp50
 70
     1
102
RTVSPost2010Prop51ColorIndex
 90
      256
102
RTVSPost2010Prop51ColorRGB
 90
-16777216
102
RTVSPost2010PropOp51
 70
     0
102
RTVSPost2010Prop52
140
1.0
102
RTVSPost2010PropOp52
 70
     0
102
RTVSPost2010Prop53
 90
        2
102
RTVSPost2010PropOp53
 70
     1
102
RTVSPost2010Prop54
  1
strokes_ogs.tif
102
RTVSPost2010PropOp54
 70
     1
102
RTVSPost2010Prop55
280
     0
102
RTVSPost2010PropOp55
 70
     1
102
RTVSPost2010Prop56
140
1.0
102
RTVSPost2010PropOp56
 70
     1
102
RTVSPost2010Prop57
140
1.0
102
RTVSPost2010PropOp57
 70
     1
  0
XRECORD
  5
12E9
102
{ACAD_REACTORS
330
12E8
102
}
330
12E8
100
AcDbXrecord
280
     1
102
RTVSPropertyOp0
 70
     1
102
RTVSPropertyOp1
 70
     1
102
RTVSPropertyOp2
 70
     1
102
RTVSPropertyOp3
 70
     1
102
RTVSPropertyOp4
 70
     1
102
RTVSPropertyOp5
 70
     1
102
RTVSPropertyOp6
 70
     1
102
RTVSPropertyOp7
 70
     1
102
RTVSPropertyOp8
 70
     1
102
RTVSPropertyOp9
 70
     1
102
RTVSPropertyOp10
 70
     1
102
RTVSPropertyOp11
 70
     1
102
RTVSPropertyOp12
 70
     1
102
RTVSPropertyOp13
 70
     1
102
RTVSPropertyOp14
 70
     1
102
RTVSPropertyOp15
 70
     1
102
RTVSPropertyOp16
 70
     1
102
RTVSPropertyOp17
 70
     1
102
RTVSPropertyOp18
 70
     1
102
RTVSPropertyOp19
 70
     1
102
RTVSPropertyOp20
 70
     1
102
RTVSPropertyOp21
 70
     1
102
RTVSPropertyOp22
 70
     1
102
RTVSPropertyOp23
 70
     1
102
RTVSPropertyOp24
 70
     1
102
RTVSPropertyOp25
 70
     1
102
RTVSPropertyOp26
 70
     1
102
RTVSPropertyOp27
 70
     1
102
RTVSPropertyOp28
 70
     1
102
RTVSPropertyOp29
 70
     1
102
RTVSPropertyOp30
 70
     1
102
RTVSPropertyOp31
 70
     1
102
RTVSPropertyOp32
 70
     1
102
RTVSPropertyOp33
 70
     1
102
RTVSPropertyOp34
 70
     1
102
RTVSPropertyOp35
 70
     1
102
RTVSPropertyOp36
 70
     1
102
RTVSPropertyOp37
 70
     1
102
RTVSPropertyOp38
 70
     1
102
RTVSPropertyOp39
 70
     1
102
RTVSPropertyOp40
 70
     1
102
RTVSPropertyOp41
 70
     1
102
RTVSPropertyOp42
 70
     1
102
RTVSPropertyOp43
 70
     1
102
RTVSPropertyOp44
 70
     1
102
RTVSPropertyOp45
 70
     1
102
RTVSPropertyOp46
 70
     1
102
RTVSPropertyOp47
 70
     1
102
RTVSPropertyOp48
 70
     1
102
RTVSPropertyOp49
 70
     1
102
RTVSPropertyOp50
 70
     1
102
RTVSPropertyOp51
 70
     0
102
RTVSPropertyOp52
 70
     0
102
RTVSPropertyOp53
 70
     1
102
RTVSPropertyOp54
 70
     1
102
RTVSPropertyOp55
 70
     1
102
RTVSPropertyOp56
 70
     1
102
RTVSPropertyOp57
 70
     1
102
RTVSPost2010Prop28
280
     0
102
RTVSPost2010PropOp28
 70
     1
102
RTVSPost2010Prop29
280
     1
102
RTVSPost2010PropOp29
 70
     1
102
RTVSPost2010Prop30
280
     1
102
RTVSPost2010PropOp30
 70
     1
102
RTVSPost2010Prop31
280
     0
102
RTVSPost2010PropOp31
 70
     1
102
RTVSPost2010Prop32
280
     0
102
RTVSPost2010PropOp32
 70
     1
102
RTVSPost2010Prop33
280
     0
102
RTVSPost2010PropOp33
 70
     1
102
RTVSPost2010Prop34
280
     0
102
RTVSPost2010PropOp34
 70
     1
102
RTVSPost2010Prop35
280
     0
102
RTVSPost2010PropOp35
 70
     1
102
RTVSPost2010Prop36
280
     0
102
RTVSPost2010PropOp36
 70
     1
102
RTVSPost2010Prop37
 90
       50
102
RTVSPost2010PropOp37
 70
     1
102
RTVSPost2010Prop38
140
0.0
102
RTVSPost2010PropOp38
 70
     1
102
RTVSPost2010Prop39
140
1.0
102
RTVSPost2010PropOp39
 70
     1
102
RTVSPost2010Prop40
 90
        0
102
RTVSPost2010PropOp40
 70
     1
102
RTVSPost2010Prop41ColorIndex
 90
       18
102
RTVSPost2010Prop41ColorRGB
 90
        0
102
RTVSPost2010PropOp41
 70
     1
102
RTVSPost2010Prop42
 90
       50
102
RTVSPost2010PropOp42
 70
     1
102
RTVSPost2010Prop43
 90
        3
102
RTVSPost2010PropOp43
 70
     1
102
RTVSPost2010Prop44ColorIndex
 90
        5
102
RTVSPost2010Prop44ColorRGB
 90
      255
102
RTVSPost2010PropOp44
 70
     1
102
RTVSPost2010Prop45
280
     0
102
RTVSPost2010PropOp45
 70
     1
102
RTVSPost2010Prop46
 90
       50
102
RTVSPost2010PropOp46
 70
     1
102
RTVSPost2010Prop47
 90
       50
102
RTVSPost2010PropOp47
 70
     1
102
RTVSPost2010Prop48
 90
       50
102
RTVSPost2010PropOp48
 70
     1
102
RTVSPost2010Prop49
280
     0
102
RTVSPost2010PropOp49
 70
     1
102
RTVSPost2010Prop50
 90
       50
102
RTVSPost2010PropOp50
 70
     1
102
RTVSPost2010Prop51ColorIndex
 90
      256
102
RTVSPost2010Prop51ColorRGB
 90
-16777216
102
RTVSPost2010PropOp51
 70
     0
102
RTVSPost2010Prop52
140
1.0
102
RTVSPost2010PropOp52
 70
     0
102
RTVSPost2010Prop53
 90
        2
102
RTVSPost2010PropOp53
 70
     1
102
RTVSPost2010Prop54
  1
strokes_ogs.tif
102
RTVSPost2010PropOp54
 70
     1
102
RTVSPost2010Prop55
280
     0
102
RTVSPost2010PropOp55
 70
     1
102
RTVSPost2010Prop56
140
1.0
102
RTVSPost2010PropOp56
 70
     1
102
RTVSPost2010Prop57
140
1.0
102
RTVSPost2010PropOp57
 70
     1
  0
XRECORD
  5
1309
102
{ACAD_REACTORS
330
1308
102
}
330
1308
100
AcDbXrecord
280
     1
102
RTVSPropertyOp0
 70
     1
102
RTVSPropertyOp1
 70
     1
102
RTVSPropertyOp2
 70
     1
102
RTVSPropertyOp3
 70
     1
102
RTVSPropertyOp4
 70
     1
102
RTVSPropertyOp5
 70
     1
102
RTVSPropertyOp6
 70
     1
102
RTVSPropertyOp7
 70
     1
102
RTVSPropertyOp8
 70
     1
102
RTVSPropertyOp9
 70
     1
102
RTVSPropertyOp10
 70
     1
102
RTVSPropertyOp11
 70
     1
102
RTVSPropertyOp12
 70
     1
102
RTVSPropertyOp13
 70
     1
102
RTVSPropertyOp14
 70
     1
102
RTVSPropertyOp15
 70
     1
102
RTVSPropertyOp16
 70
     1
102
RTVSPropertyOp17
 70
     1
102
RTVSPropertyOp18
 70
     1
102
RTVSPropertyOp19
 70
     1
102
RTVSPropertyOp20
 70
     1
102
RTVSPropertyOp21
 70
     1
102
RTVSPropertyOp22
 70
     1
102
RTVSPropertyOp23
 70
     1
102
RTVSPropertyOp24
 70
     1
102
RTVSPropertyOp25
 70
     1
102
RTVSPropertyOp26
 70
     1
102
RTVSPropertyOp27
 70
     1
102
RTVSPropertyOp28
 70
     1
102
RTVSPropertyOp29
 70
     1
102
RTVSPropertyOp30
 70
     1
102
RTVSPropertyOp31
 70
     1
102
RTVSPropertyOp32
 70
     1
102
RTVSPropertyOp33
 70
     1
102
RTVSPropertyOp34
 70
     1
102
RTVSPropertyOp35
 70
     1
102
RTVSPropertyOp36
 70
     1
102
RTVSPropertyOp37
 70
     1
102
RTVSPropertyOp38
 70
     1
102
RTVSPropertyOp39
 70
     1
102
RTVSPropertyOp40
 70
     1
102
RTVSPropertyOp41
 70
     1
102
RTVSPropertyOp42
 70
     1
102
RTVSPropertyOp43
 70
     1
102
RTVSPropertyOp44
 70
     1
102
RTVSPropertyOp45
 70
     1
102
RTVSPropertyOp46
 70
     1
102
RTVSPropertyOp47
 70
     1
102
RTVSPropertyOp48
 70
     1
102
RTVSPropertyOp49
 70
     1
102
RTVSPropertyOp50
 70
     1
102
RTVSPropertyOp51
 70
     0
102
RTVSPropertyOp52
 70
     0
102
RTVSPropertyOp53
 70
     1
102
RTVSPropertyOp54
 70
     1
102
RTVSPropertyOp55
 70
     1
102
RTVSPropertyOp56
 70
     1
102
RTVSPropertyOp57
 70
     1
102
RTVSPost2010Prop28
280
     0
102
RTVSPost2010PropOp28
 70
     1
102
RTVSPost2010Prop29
280
     1
102
RTVSPost2010PropOp29
 70
     1
102
RTVSPost2010Prop30
280
     1
102
RTVSPost2010PropOp30
 70
     1
102
RTVSPost2010Prop31
280
     0
102
RTVSPost2010PropOp31
 70
     1
102
RTVSPost2010Prop32
280
     0
102
RTVSPost2010PropOp32
 70
     1
102
RTVSPost2010Prop33
280
     0
102
RTVSPost2010PropOp33
 70
     1
102
RTVSPost2010Prop34
280
     0
102
RTVSPost2010PropOp34
 70
     1
102
RTVSPost2010Prop35
280
     0
102
RTVSPost2010PropOp35
 70
     1
102
RTVSPost2010Prop36
280
     0
102
RTVSPost2010PropOp36
 70
     1
102
RTVSPost2010Prop37
 90
       50
102
RTVSPost2010PropOp37
 70
     1
102
RTVSPost2010Prop38
140
0.0
102
RTVSPost2010PropOp38
 70
     1
102
RTVSPost2010Prop39
140
1.0
102
RTVSPost2010PropOp39
 70
     1
102
RTVSPost2010Prop40
 90
        0
102
RTVSPost2010PropOp40
 70
     1
102
RTVSPost2010Prop41ColorIndex
 90
       18
102
RTVSPost2010Prop41ColorRGB
 90
        0
102
RTVSPost2010PropOp41
 70
     1
102
RTVSPost2010Prop42
 90
       50
102
RTVSPost2010PropOp42
 70
     1
102
RTVSPost2010Prop43
 90
        3
102
RTVSPost2010PropOp43
 70
     1
102
RTVSPost2010Prop44ColorIndex
 90
        5
102
RTVSPost2010Prop44ColorRGB
 90
      255
102
RTVSPost2010PropOp44
 70
     1
102
RTVSPost2010Prop45
280
     0
102
RTVSPost2010PropOp45
 70
     1
102
RTVSPost2010Prop46
 90
       50
102
RTVSPost2010PropOp46
 70
     1
102
RTVSPost2010Prop47
 90
       50
102
RTVSPost2010PropOp47
 70
     1
102
RTVSPost2010Prop48
 90
       50
102
RTVSPost2010PropOp48
 70
     1
102
RTVSPost2010Prop49
280
     0
102
RTVSPost2010PropOp49
 70
     1
102
RTVSPost2010Prop50
 90
       50
102
RTVSPost2010PropOp50
 70
     1
102
RTVSPost2010Prop51ColorIndex
 90
      256
102
RTVSPost2010Prop51ColorRGB
 90
-16777216
102
RTVSPost2010PropOp51
 70
     0
102
RTVSPost2010Prop52
140
1.0
102
RTVSPost2010PropOp52
 70
     0
102
RTVSPost2010Prop53
 90
        2
102
RTVSPost2010PropOp53
 70
     1
102
RTVSPost2010Prop54
  1
strokes_ogs.tif
102
RTVSPost2010PropOp54
 70
     1
102
RTVSPost2010Prop55
280
     0
102
RTVSPost2010PropOp55
 70
     1
102
RTVSPost2010Prop56
140
1.0
102
RTVSPost2010PropOp56
 70
     1
102
RTVSPost2010Prop57
140
1.0
102
RTVSPost2010PropOp57
 70
     1
  0
ENDSEC
  0
EOF
