  0
SECTION
  2
HEADER
  9
$ACADVER
  1
AC1018
  9
$ACADMAINTVER
 70
     0
  9
$DWGCODEPAGE
  3
ANSI_1256
  9
$INSBASE
 10
0.0
 20
0.0
 30
0.0
  9
$EXTMIN
 10
0.0
 20
0.0
 30
0.0
  9
$EXTMAX
 10
176.022
 20
350.012
 30
0.0
  9
$LIMMIN
 10
0.0
 20
0.0
  9
$LIMMAX
 10
12.0
 20
9.0
  9
$ORTHOMODE
 70
     0
  9
$REGENMODE
 70
     1
  9
$FILLMODE
 70
     1
  9
$QTEXTMODE
 70
     0
  9
$MIRRTEXT
 70
     1
  9
$LTSCALE
 40
1.0
  9
$ATTMODE
 70
     1
  9
$TEXTSIZE
 40
0.2
  9
$TRACEWID
 40
0.05
  9
$TEXTSTYLE
  7
Standard
  9
$CLAYER
  8
0
  9
$CELTYPE
  6
ByBlock
  9
$CECOLOR
 62
   256
  9
$CELTSCALE
 40
1.0
  9
$DISPSILH
 70
     0
  9
$DIMSCALE
 40
1.0
  9
$DIMASZ
 40
0.18
  9
$DIMEXO
 40
0.0625
  9
$DIMDLI
 40
0.38
  9
$DIMRND
 40
0.0
  9
$DIMDLE
 40
0.0
  9
$DIMEXE
 40
0.18
  9
$DIMTP
 40
0.0
  9
$DIMTM
 40
0.0
  9
$DIMTXT
 40
0.18
  9
$DIMCEN
 40
0.09
  9
$DIMTSZ
 40
0.0
  9
$DIMTOL
 70
     0
  9
$DIMLIM
 70
     0
  9
$DIMTIH
 70
     1
  9
$DIMTOH
 70
     1
  9
$DIMSE1
 70
     0
  9
$DIMSE2
 70
     0
  9
$DIMTAD
 70
     0
  9
$DIMZIN
 70
     0
  9
$DIMBLK
  1

  9
$DIMASO
 70
     1
  9
$DIMSHO
 70
     1
  9
$DIMPOST
  1

  9
$DIMAPOST
  1

  9
$DIMALT
 70
     0
  9
$DIMALTD
 70
     2
  9
$DIMALTF
 40
25.4
  9
$DIMLFAC
 40
1.0
  9
$DIMTOFL
 70
     0
  9
$DIMTVP
 40
0.0
  9
$DIMTIX
 70
     0
  9
$DIMSOXD
 70
     0
  9
$DIMSAH
 70
     0
  9
$DIMBLK1
  1

  9
$DIMBLK2
  1

  9
$DIMSTYLE
  2
Standard
  9
$DIMCLRD
 70
     0
  9
$DIMCLRE
 70
     0
  9
$DIMCLRT
 70
     0
  9
$DIMTFAC
 40
1.0
  9
$DIMGAP
 40
0.09
  9
$DIMJUST
 70
     0
  9
$DIMSD1
 70
     0
  9
$DIMSD2
 70
     0
  9
$DIMTOLJ
 70
     1
  9
$DIMTZIN
 70
     0
  9
$DIMALTZ
 70
     0
  9
$DIMALTTZ
 70
     0
  9
$DIMUPT
 70
     0
  9
$DIMDEC
 70
     4
  9
$DIMTDEC
 70
     4
  9
$DIMALTU
 70
     2
  9
$DIMALTTD
 70
     2
  9
$DIMTXSTY
  7
Standard
  9
$DIMAUNIT
 70
     0
  9
$DIMADEC
 70
     0
  9
$DIMALTRND
 40
0.0
  9
$DIMAZIN
 70
     0
  9
$DIMDSEP
 70
    46
  9
$DIMATFIT
 70
     3
  9
$DIMFRAC
 70
     0
  9
$DIMLDRBLK
  1

  9
$DIMLUNIT
 70
     2
  9
$DIMLWD
 70
    -2
  9
$DIMLWE
 70
    -2
  9
$DIMTMOVE
 70
     2
  9
$LUNITS
 70
     2
  9
$LUPREC
 70
     4
  9
$SKETCHINC
 40
0.1
  9
$FILLETRAD
 40
0.5
  9
$AUNITS
 70
     0
  9
$AUPREC
 70
     0
  9
$MENU
  1
.
  9
$ELEVATION
 40
0.0
  9
$PELEVATION
 40
0.0
  9
$THICKNESS
 40
0.0
  9
$LIMCHECK
 70
     0
  9
$CHAMFERA
 40
0.0
  9
$CHAMFERB
 40
0.0
  9
$CHAMFERC
 40
0.0
  9
$CHAMFERD
 40
0.0
  9
$SKPOLY
 70
     0
  9
$TDCREATE
 40
2457948.495759248
  9
$TDUCREATE
 40
2457948.370759248
  9
$TDUPDATE
 40
2457948.495760717
  9
$TDUUPDATE
 40
2457948.370760717
  9
$TDINDWG
 40
0.0000000116
  9
$TDUSRTIMER
 40
0.0000000116
  9
$USRTIMER
 70
     1
  9
$ANGBASE
 50
0.0
  9
$ANGDIR
 70
     0
  9
$PDMODE
 70
     0
  9
$PDSIZE
 40
0.0
  9
$PLINEWID
 40
0.0
  9
$SPLFRAME
 70
     0
  9
$SPLINETYPE
 70
     6
  9
$SPLINESEGS
 70
     8
  9
$HANDSEED
  5
9AA
  9
$SURFTAB1
 70
     6
  9
$SURFTAB2
 70
     6
  9
$SURFTYPE
 70
     6
  9
$SURFU
 70
     6
  9
$SURFV
 70
     6
  9
$UCSBASE
  2

  9
$UCSNAME
  2

  9
$UCSORG
 10
0.0
 20
0.0
 30
0.0
  9
$UCSXDIR
 10
1.0
 20
0.0
 30
0.0
  9
$UCSYDIR
 10
0.0
 20
1.0
 30
0.0
  9
$UCSORTHOREF
  2

  9
$UCSORTHOVIEW
 70
     0
  9
$UCSORGTOP
 10
0.0
 20
0.0
 30
0.0
  9
$UCSORGBOTTOM
 10
0.0
 20
0.0
 30
0.0
  9
$UCSORGLEFT
 10
0.0
 20
0.0
 30
0.0
  9
$UCSORGRIGHT
 10
0.0
 20
0.0
 30
0.0
  9
$UCSORGFRONT
 10
0.0
 20
0.0
 30
0.0
  9
$UCSORGBACK
 10
0.0
 20
0.0
 30
0.0
  9
$PUCSBASE
  2

  9
$PUCSNAME
  2

  9
$PUCSORG
 10
0.0
 20
0.0
 30
0.0
  9
$PUCSXDIR
 10
1.0
 20
0.0
 30
0.0
  9
$PUCSYDIR
 10
0.0
 20
1.0
 30
0.0
  9
$PUCSORTHOREF
  2

  9
$PUCSORTHOVIEW
 70
     0
  9
$PUCSORGTOP
 10
0.0
 20
0.0
 30
0.0
  9
$PUCSORGBOTTOM
 10
0.0
 20
0.0
 30
0.0
  9
$PUCSORGLEFT
 10
0.0
 20
0.0
 30
0.0
  9
$PUCSORGRIGHT
 10
0.0
 20
0.0
 30
0.0
  9
$PUCSORGFRONT
 10
0.0
 20
0.0
 30
0.0
  9
$PUCSORGBACK
 10
0.0
 20
0.0
 30
0.0
  9
$USERI1
 70
     0
  9
$USERI2
 70
     0
  9
$USERI3
 70
     0
  9
$USERI4
 70
     0
  9
$USERI5
 70
     0
  9
$USERR1
 40
0.0
  9
$USERR2
 40
0.0
  9
$USERR3
 40
0.0
  9
$USERR4
 40
0.0
  9
$USERR5
 40
0.0
  9
$WORLDVIEW
 70
     1
  9
$SHADEDGE
 70
     3
  9
$SHADEDIF
 70
    70
  9
$TILEMODE
 70
     1
  9
$MAXACTVP
 70
    64
  9
$PINSBASE
 10
0.0
 20
0.0
 30
0.0
  9
$PLIMCHECK
 70
     0
  9
$PEXTMIN
 10
1.000000000000000E+20
 20
1.000000000000000E+20
 30
1.000000000000000E+20
  9
$PEXTMAX
 10
-1.000000000000000E+20
 20
-1.000000000000000E+20
 30
-1.000000000000000E+20
  9
$PLIMMIN
 10
0.0
 20
0.0
  9
$PLIMMAX
 10
12.0
 20
9.0
  9
$UNITMODE
 70
     0
  9
$VISRETAIN
 70
     1
  9
$PLINEGEN
 70
     0
  9
$PSLTSCALE
 70
     1
  9
$TREEDEPTH
 70
  3020
  9
$CMLSTYLE
  2
Standard
  9
$CMLJUST
 70
     0
  9
$CMLSCALE
 40
1.0
  9
$PROXYGRAPHICS
 70
     1
  9
$MEASUREMENT
 70
     0
  9
$CELWEIGHT
370
    -1
  9
$ENDCAPS
280
     0
  9
$JOINSTYLE
280
     0
  9
$LWDISPLAY
290
     0
  9
$INSUNITS
 70
     0
  9
$HYPERLINKBASE
  1

  9
$STYLESHEET
  1

  9
$XEDIT
290
     1
  9
$CEPSNTYPE
380
     0
  9
$PSTYLEMODE
290
     1
  9
$FINGERPRINTGUID
  2
{A9316FC9-F649-4344-B095-733F7F539E46}
  9
$VERSIONGUID
  2
{FAEB1C32-E019-11D5-929B-00C0DF256EC4}
  9
$EXTNAMES
290
     1
  9
$PSVPSCALE
 40
0.0
  9
$OLESTARTUP
290
     0
  9
$SORTENTS
280
   127
  9
$INDEXCTL
280
     0
  9
$HIDETEXT
280
     1
  9
$XCLIPFRAME
290
     0
  9
$HALOGAP
280
     0
  9
$OBSCOLOR
 70
   257
  9
$OBSLTYPE
280
     0
  9
$INTERSECTIONDISPLAY
280
     0
  9
$INTERSECTIONCOLOR
 70
   257
  9
$DIMASSOC
280
     2
  9
$PROJECTNAME
  1

  0
ENDSEC
  0
SECTION
  2
CLASSES
  0
CLASS
  1
ACDBDICTIONARYWDFLT
  2
AcDbDictionaryWithDefault
  3
ObjectDBX Classes
 90
        0
 91
        4
280
     0
281
     0
  0
CLASS
  1
SCALE
  2
AcDbScale
  3
ObjectDBX Classes
 90
     1153
 91
        4
280
     0
281
     0
  0
CLASS
  1
VISUALSTYLE
  2
AcDbVisualStyle
  3
ObjectDBX Classes
 90
     4095
 91
        4
280
     0
281
     0
  0
CLASS
  1
MATERIAL
  2
AcDbMaterial
  3
ObjectDBX Classes
 90
     1153
 91
        4
280
     0
281
     0
  0
CLASS
  1
TABLESTYLE
  2
AcDbTableStyle
  3
ObjectDBX Classes
 90
     4095
 91
        4
280
     0
281
     0
  0
CLASS
  1
MLEADERSTYLE
  2
AcDbMLeaderStyle
  3
ACDB_MLEADERSTYLE_CLASS
 90
     4095
 91
        4
280
     0
281
     0
  0
CLASS
  1
DICTIONARYVAR
  2
AcDbDictionaryVar
  3
ObjectDBX Classes
 90
        0
 91
        4
280
     0
281
     0
  0
CLASS
  1
CELLSTYLEMAP
  2
AcDbCellStyleMap
  3
ObjectDBX Classes
 90
     1152
 91
        4
280
     0
281
     0
  0
ENDSEC
  0
SECTION
  2
TABLES
  0
TABLE
  2
VPORT
  5
8
102
{ACAD_XDICTIONARY
360
963
102
}
330
0
100
AcDbSymbolTable
 70
     1
  0
VPORT
  5
21
330
8
100
AcDbSymbolTableRecord
100
AcDbViewportTableRecord
  2
*Active
 70
     0
 10
0.0
 20
0.0
 11
1.0
 21
1.0
 12
10.42990654205607
 22
4.5
 13
0.0
 23
0.0
 14
0.5
 24
0.5
 15
0.5
 25
0.5
 16
0.0
 26
0.0
 36
1.0
 17
0.0
 27
0.0
 37
0.0
 40
9.0
 41
1.972972972850329
 42
50.0
 43
0.0
 44
0.0
 50
0.0
 51
0.0
 71
     0
 72
   100
 73
     1
 74
     3
 75
     0
 76
     0
 77
     0
 78
     0
281
     0
 65
     1
110
0.0
120
0.0
130
0.0
111
1.0
121
0.0
131
0.0
112
0.0
122
1.0
132
0.0
 79
     0
146
0.0
  0
ENDTAB
  0
TABLE
  2
LTYPE
  5
5
330
0
100
AcDbSymbolTable
 70
     1
  0
LTYPE
  5
14
330
5
100
AcDbSymbolTableRecord
100
AcDbLinetypeTableRecord
  2
ByBlock
 70
     0
  3

 72
    65
 73
     0
 40
0.0
  0
LTYPE
  5
15
330
5
100
AcDbSymbolTableRecord
100
AcDbLinetypeTableRecord
  2
ByLayer
 70
     0
  3

 72
    65
 73
     0
 40
0.0
  0
LTYPE
  5
16
330
5
100
AcDbSymbolTableRecord
100
AcDbLinetypeTableRecord
  2
Continuous
 70
     0
  3
Solid line
 72
    65
 73
     0
 40
0.0
  0
ENDTAB
  0
TABLE
  2
LAYER
  5
2
330
0
100
AcDbSymbolTable
 70
     1
  0
LAYER
  5
10
330
2
100
AcDbSymbolTableRecord
100
AcDbLayerTableRecord
  2
0
 70
     0
 62
     7
  6
Continuous
370
    -3
390
F
  0
ENDTAB
  0
TABLE
  2
STYLE
  5
3
330
0
100
AcDbSymbolTable
 70
     1
  0
STYLE
  5
11
330
3
100
AcDbSymbolTableRecord
100
AcDbTextStyleTableRecord
  2
Standard
 70
     0
 40
0.0
 41
1.0
 50
0.0
 71
     0
 42
0.2
  3
txt
  4

  0
ENDTAB
  0
TABLE
  2
VIEW
  5
6
330
0
100
AcDbSymbolTable
 70
     0
  0
ENDTAB
  0
TABLE
  2
UCS
  5
7
330
0
100
AcDbSymbolTable
 70
     0
  0
ENDTAB
  0
TABLE
  2
APPID
  5
9
330
0
100
AcDbSymbolTable
 70
     2
  0
APPID
  5
12
330
9
100
AcDbSymbolTableRecord
100
AcDbRegAppTableRecord
  2
ACAD
 70
     0
  0
APPID
  5
9A1
330
9
100
AcDbSymbolTableRecord
100
AcDbRegAppTableRecord
  2
ACAD_MLEADERVER
 70
     0
  0
ENDTAB
  0
TABLE
  2
DIMSTYLE
  5
A
330
0
100
AcDbSymbolTable
 70
     1
100
AcDbDimStyleTable
  0
DIMSTYLE
105
20
330
A
100
AcDbSymbolTableRecord
100
AcDbDimStyleTableRecord
  2
Standard
 70
     0
178
     0
340
11
  0
ENDTAB
  0
TABLE
  2
BLOCK_RECORD
  5
1
330
0
100
AcDbSymbolTable
 70
     0
  0
BLOCK_RECORD
  5
1D
330
1
100
AcDbSymbolTableRecord
100
AcDbBlockTableRecord
  2
*Model_Space
340
1E
  0
BLOCK_RECORD
  5
1B
330
1
100
AcDbSymbolTableRecord
100
AcDbBlockTableRecord
  2
*Paper_Space
340
1C
  0
ENDTAB
  0
ENDSEC
  0
SECTION
  2
BLOCKS
  0
BLOCK
  5
93E
330
1D
100
AcDbEntity
  8
0
100
AcDbBlockBegin
  2
*Model_Space
 70
     0
 10
0.0
 20
0.0
 30
0.0
  3
*Model_Space
  1

  0
ENDBLK
  5
93F
330
1D
100
AcDbEntity
  8
0
100
AcDbBlockEnd
  0
BLOCK
  5
940
330
1B
100
AcDbEntity
 67
     1
  8
0
100
AcDbBlockBegin
  2
*Paper_Space
 70
     0
 10
0.0
 20
0.0
 30
0.0
  3
*Paper_Space
  1

  0
ENDBLK
  5
941
330
1B
100
AcDbEntity
 67
     1
  8
0
100
AcDbBlockEnd
  0
ENDSEC
  0
SECTION
  2
ENTITIES
  0
LWPOLYLINE
  5
22
330
1D
100
AcDbEntity
  8
0
100
AcDbPolyline
 90
        8
 70
     1
 43
0.0
 10
88.0095
 20
350.012
 10
0.000961
 20
350.012
 10
0.000367
 20
175.006
 10
-0.000226
 20
0.0
 10
88.011406
 20
0.0
 10
176.023038
 20
0.0
 10
176.020539
 20
175.006
 10
176.01804
 20
350.012
  0
LWPOLYLINE
  5
2C
330
1D
100
AcDbEntity
  8
0
100
AcDbPolyline
 90
       40
 70
     1
 43
0.0
 10
93.218
 20
342.993291
 42
-0.003911
 10
93.697179
 20
342.936635
 42
-0.003537
 10
94.191765
 20
342.870673
 42
-0.003543
 10
94.633882
 20
342.805324
 42
-0.011276
 10
94.92788
 20
342.752923
 42
-0.089834
 10
95.172948
 20
342.655574
 42
-0.044303
 10
95.441515
 20
342.45316
 42
-0.042041
 10
95.690927
 20
342.1867
 42
-0.047807
 10
95.88038
 20
341.892934
 42
-0.109799
 10
96.107964
 20
341.032323
 42
-0.005042
 10
96.198697
 20
337.980246
 42
-0.004339
 10
96.253826
 20
332.948578
 42
-0.000569
 10
96.266
 20
322.255889
 10
96.266
 20
303.364552
 10
95.652943
 20
302.788614
 42
-0.047847
 10
95.365416
 20
302.566123
 42
-0.034584
 10
95.008341
 20
302.373913
 42
-0.035176
 10
94.639868
 20
302.237594
 42
-0.061702
 10
94.319443
 20
302.185629
 42
-0.008828
 10
93.974704
 20
302.178778
 42
-0.004049
 10
93.525094
 20
302.181423
 42
-0.004008
 10
93.051774
 20
302.191836
 42
-0.005527
 10
92.626962
 20
302.209291
 42
-0.041639
 10
92.137681
 20
302.275922
 42
-0.053733
 10
91.708365
 20
302.42103
 42
-0.052098
 10
91.309832
 20
302.658518
 42
-0.035989
 10
90.912462
 20
303.002462
 10
90.17
 20
303.744923
 10
90.17
 20
322.666688
 42
-0.000816
 10
90.181891
 20
329.951699
 42
-0.001316
 10
90.218473
 20
336.156502
 42
-0.000195
 10
90.267577
 20
341.663722
 42
-0.089514
 10
90.335014
 20
342.018471
 42
-0.096349
 10
90.452826
 20
342.207007
 42
-0.035822
 10
90.682879
 20
342.420709
 42
-0.03387
 10
90.973989
 20
342.623841
 42
-0.034723
 10
91.287514
 20
342.783934
 42
-0.047183
 10
91.680388
 20
342.909086
 42
-0.026524
 10
92.175077
 20
342.989457
 42
-0.025521
 10
92.707504
 20
343.019836
 42
-0.028966
  0
LWPOLYLINE
  5
56
330
1D
100
AcDbEntity
  8
0
100
AcDbPolyline
 90
       38
 70
     1
 43
0.0
 10
82.056164
 20
342.9
 42
-0.011902
 10
82.967917
 20
342.878293
 42
-0.040591
 10
83.55628
 20
342.802124
 42
-0.062973
 10
83.97061
 20
342.65758
 42
-0.081167
 10
84.297432
 20
342.422568
 42
-0.167128
 10
84.591636
 20
341.819999
 42
-0.017656
 10
84.730718
 20
340.238223
 42
-0.008654
 10
84.832178
 20
337.347806
 42
-0.000735
 10
84.953461
 20
329.913068
 42
-0.001362
 10
85.015657
 20
324.781097
 42
-0.001124
 10
85.054765
 20
319.309574
 42
-0.001135
 10
85.067969
 20
314.2887
 42
-0.003038
 10
85.047529
 20
310.712163
 42
-0.001272
 10
84.983074
 20
306.216134
 42
-0.015429
 10
84.90071
 20
304.492009
 42
-0.042021
 10
84.748215
 20
303.562342
 42
-0.135622
 10
84.441957
 20
303.022675
 42
-0.07475
 10
84.124628
 20
302.788476
 42
-0.032696
 10
83.646147
 20
302.574105
 42
-0.02857
 10
83.050814
 20
302.390785
 42
-0.020482
 10
82.36832
 20
302.251986
 42
-0.01544
 10
81.664735
 20
302.160862
 42
-0.023781
 10
81.051905
 20
302.12997
 42
-0.027784
 10
80.545089
 20
302.156725
 42
-0.063843
 10
80.174307
 20
302.245816
 42
-0.043014
 10
79.911078
 20
302.372741
 42
-0.033965
 10
79.650556
 20
302.552191
 42
-0.034998
 10
79.430292
 20
302.753733
 42
-0.068721
 10
79.292041
 20
302.946342
 42
-0.117216
 10
79.185265
 20
303.361101
 42
-0.000402
 10
79.092407
 20
308.577868
 42
-0.002024
 10
79.012471
 20
314.752233
 42
-0.001021
 10
78.959097
 20
322.537334
 10
78.867
 20
341.671667
 10
79.579664
 20
342.285834
 42
-0.047078
 10
80.032659
 20
342.607329
 42
-0.070123
 10
80.482767
 20
342.788733
 42
-0.048597
 10
81.076823
 20
342.876071
 42
-0.012215
  0
LWPOLYLINE
  5
7E
330
1D
100
AcDbEntity
  8
0
100
AcDbPolyline
 90
       72
 70
     1
 43
0.0
 10
109.601
 20
340.194468
 42
-0.026584
 10
110.078377
 20
340.080879
 42
-0.00254
 10
111.225109
 20
339.736387
 42
-0.003234
 10
112.588429
 20
339.309607
 42
-0.002545
 10
114.05984
 20
338.83025
 42
-0.00595
 10
115.669143
 20
338.275557
 42
-0.0043
 10
117.450098
 20
337.620558
 42
-0.004344
 10
119.13197
 20
336.968777
 42
-0.009422
 10
120.40984
 20
336.43265
 42
-0.004758
 10
121.591856
 20
335.896833
 42
-0.003047
 10
122.954859
 20
335.253138
 42
-0.003061
 10
124.282478
 20
334.606205
 42
-0.005717
 10
125.348022
 20
334.063629
 42
-0.011736
 10
126.337054
 20
333.515736
 42
-0.021106
 10
127.116997
 20
333.014099
 42
-0.024195
 10
127.683278
 20
332.572654
 42
-0.100363
 10
127.947778
 20
332.232
 42
-0.111082
 10
128.122386
 20
331.515069
 42
-0.001266
 10
128.197323
 20
326.555764
 42
-0.002561
 10
128.250766
 20
319.386819
 42
-0.000545
 10
128.266256
 20
306.912035
 42
-0.000835
 10
128.25167
 20
297.306563
 42
-0.001397
 10
128.203341
 20
289.228703
 42
-0.000226
 10
128.137815
 20
282.128815
 42
-0.088641
 10
128.04438
 20
281.633645
 42
-0.060551
 10
127.911736
 20
281.381498
 42
-0.035182
 10
127.697525
 20
281.114185
 42
-0.034674
 10
127.441364
 20
280.872863
 42
-0.048754
 10
127.180427
 20
280.698593
 42
-0.044624
 10
126.846415
 20
280.556505
 42
-0.05887
 10
126.522109
 20
280.492312
 42
-0.057658
 10
126.186524
 20
280.504862
 42
-0.040529
 10
125.818547
 20
280.592413
 42
-0.093235
 10
125.413985
 20
280.813704
 42
-0.033091
 10
124.930561
 20
281.26643
 42
-0.025604
 10
124.365839
 20
281.93577
 42
-0.011813
 10
123.698
 20
282.859461
 42
0.004901
 10
123.068137
 20
283.756488
 42
0.003243
 10
122.328026
 20
284.774847
 42
0.003263
 10
121.595889
 20
285.755154
 42
0.006332
 10
120.996003
 20
286.527032
 42
0.014087
 10
120.338506
 20
287.305263
 42
0.00591
 10
119.412247
 20
288.316641
 42
0.005842
 10
118.395568
 20
289.375665
 42
0.007558
 10
117.43704
 20
290.322
 42
0.00553
 10
116.471887
 20
291.226234
 42
0.004729
 10
115.435678
 20
292.157865
 42
0.004768
 10
114.47765
 20
292.986849
 42
0.013534
 10
113.789037
 20
293.539965
 42
0.009607
 10
113.097099
 20
294.044922
 42
0.003939
 10
112.13982
 20
294.704532
 42
0.003896
 10
111.100669
 20
295.396796
 42
0.004981
 10
110.132265
 20
296.017392
 42
-0.009201
 10
109.236288
 20
296.602299
 42
-0.011013
 10
108.415456
 20
297.186786
 42
-0.009828
 10
107.74728
 20
297.705853
 42
-0.068672
 10
107.465265
 20
298.006427
 42
-0.145376
 10
107.217431
 20
298.735455
 42
-0.00488
 10
107.127562
 20
301.811786
 42
-0.004379
 10
107.072409
 20
306.972043
 42
-0.000483
 10
107.061
 20
318.79412
 42
-0.00053
 10
107.073012
 20
330.129172
 42
-0.003972
 10
107.127079
 20
335.501493
 42
-0.003137
 10
107.208806
 20
338.866547
 42
-0.166974
 10
107.433182
 20
339.460033
 42
-0.036603
 10
107.613244
 20
339.647398
 42
-0.02317
 10
107.84785
 20
339.839364
 42
-0.023242
 10
108.097227
 20
340.007407
 42
-0.039189
 10
108.322182
 20
340.121153
 42
-0.05648
 10
108.574425
 20
340.19286
 42
-0.026722
 10
108.911022
 20
340.230274
 42
-0.026078
 10
109.271366
 20
340.23212
 42
-0.033369
  0
LWPOLYLINE
  5
C8
330
1D
100
AcDbEntity
  8
0
100
AcDbPolyline
 90
       64
 70
     1
 43
0.0
 10
66.064133
 20
340.092481
 42
-0.03836
 10
66.497791
 20
340.065613
 42
-0.054666
 10
66.871577
 20
339.971051
 42
-0.059702
 10
67.190588
 20
339.80648
 42
-0.059978
 10
67.461133
 20
339.571413
 42
-0.169701
 10
67.772442
 20
338.833946
 42
-0.009327
 10
67.885981
 20
336.289225
 42
-0.005391
 10
67.956222
 20
331.653958
 42
-0.000379
 10
68.003077
 20
318.679913
 42
-0.000653
 10
68.01901
 20
308.379616
 42
-0.003121
 10
67.983727
 20
302.499346
 42
-0.001355
 10
67.922644
 20
298.413989
 42
-0.165371
 10
67.749077
 20
297.931676
 42
-0.06398
 10
67.514691
 20
297.704489
 42
-0.004582
 10
66.782548
 20
297.167467
 42
-0.006382
 10
65.892622
 20
296.544255
 42
-0.004775
 10
64.897
 20
295.879632
 42
0.006746
 10
63.782035
 20
295.128973
 42
0.004548
 10
62.529178
 20
294.243711
 42
0.004581
 10
61.332781
 20
293.365164
 42
0.009073
 10
60.403139
 20
292.642616
 42
0.012458
 10
59.510078
 20
291.884639
 42
0.006442
 10
58.430186
 20
290.895504
 42
0.0064
 10
57.345609
 20
289.849605
 42
0.009652
 10
56.430422
 20
288.90852
 42
0.011124
 10
55.549079
 20
287.923483
 42
0.007115
 10
54.567421
 20
286.742331
 42
0.007148
 10
53.638096
 20
285.556933
 42
0.013234
 10
52.923283
 20
284.564362
 42
-0.006962
 10
52.285812
 20
283.655361
 42
-0.006275
 10
51.601164
 20
282.732079
 42
-0.006299
 10
50.966633
 20
281.919889
 42
-0.019735
 10
50.512382
 20
281.397003
 42
-0.026266
 10
50.114009
 20
281.015676
 42
-0.030806
 10
49.697617
 20
280.699511
 42
-0.032956
 10
49.315847
 20
280.479936
 42
-0.114511
 10
49.040337
 20
280.416
 42
-0.081665
 10
48.787947
 20
280.4575
 42
-0.037585
 10
48.480376
 20
280.587928
 42
-0.035929
 10
48.170126
 20
280.777306
 42
-0.041407
 10
47.905623
 20
281.001286
 10
47.320338
 20
281.586571
 10
47.175869
 20
291.732786
 42
-0.001311
 10
47.1185
 20
296.671335
 42
-0.000553
 10
47.066145
 20
303.307554
 42
-0.000547
 10
47.02579
 20
310.399243
 42
-0.000713
 10
47.005214
 20
316.888377
 10
46.979027
 20
331.897755
 10
47.675168
 20
332.593895
 42
-0.058496
 10
48.131592
 20
332.954416
 42
-0.008434
 10
49.15495
 20
333.560656
 42
-0.00947
 10
50.39621
 20
334.237159
 42
-0.007971
 10
51.735164
 20
334.907436
 42
-0.0049
 10
53.235456
 20
335.610784
 42
-0.003266
 10
54.967329
 20
336.388457
 42
-0.003288
 10
56.657291
 20
337.120845
 42
-0.006435
 10
58.014566
 20
337.677965
 42
-0.005253
 10
59.285195
 20
338.165139
 42
-0.003941
 10
60.693612
 20
338.675643
 42
-0.003984
 10
62.026845
 20
339.135123
 42
-0.009117
 10
63.040555
 20
339.455028
 42
-0.009958
 10
63.91552
 20
339.694863
 42
-0.00996
 10
64.79929
 20
339.899652
 42
-0.009835
 10
65.577199
 20
340.04774
 42
-0.038429
  0
LWPOLYLINE
  5
10A
330
1D
100
AcDbEntity
  8
0
100
AcDbPolyline
 90
       12
 70
     1
 43
0.0
 10
46.127458
 20
331.401208
 42
-0.126455
 10
46.176541
 20
331.318167
 42
-0.060344
 10
46.19665
 20
331.194899
 42
-0.05415
 10
46.187144
 20
331.05328
 42
-0.051402
 10
46.147511
 20
330.914375
 42
-0.054073
 10
46.091237
 20
330.808539
 42
-0.470617
 10
46.044946
 20
330.804159
 42
-0.168741
 10
46.00905
 20
330.878267
 42
-0.018894
 10
45.994053
 20
331.067833
 42
-0.028489
 10
45.996846
 20
331.244663
 42
-0.077125
 10
46.024969
 20
331.366581
 42
-0.208169
 10
46.071869
 20
331.412947
 42
-0.296942
  0
LWPOLYLINE
  5
118
330
1D
100
AcDbEntity
  8
0
100
AcDbPolyline
 90
       12
 70
     1
 43
0.0
 10
46.153256
 20
330.0095
 42
-0.029693
 10
46.187525
 20
329.749224
 42
-0.017887
 10
46.198662
 20
329.438
 42
-0.017887
 10
46.187525
 20
329.126776
 42
-0.029693
 10
46.153256
 20
328.8665
 42
-0.142433
 10
46.112934
 20
328.787754
 42
-0.611425
 10
46.075515
 20
328.798634
 42
-0.039503
 10
46.049802
 20
329.028682
 42
-0.008087
 10
46.04318
 20
329.438
 42
-0.008087
 10
46.049802
 20
329.847318
 42
-0.039503
 10
46.075515
 20
330.077366
 42
-0.611425
 10
46.112934
 20
330.088246
 42
-0.142433
  0
LWPOLYLINE
  5
126
330
1D
100
AcDbEntity
  8
0
100
AcDbPolyline
 90
       12
 70
     1
 43
0.0
 10
46.142219
 20
327.7235
 42
-0.057986
 10
46.181928
 20
327.578718
 42
-0.037979
 10
46.195066
 20
327.406
 42
-0.037979
 10
46.181928
 20
327.233282
 42
-0.057986
 10
46.142219
 20
327.0885
 42
-0.174857
 10
46.09465
 20
327.035317
 42
-0.447206
 10
46.051739
 20
327.050797
 42
-0.078554
 10
46.022029
 20
327.179574
 42
-0.017491
 10
46.014105
 20
327.406
 42
-0.017491
 10
46.022029
 20
327.632426
 42
-0.078554
 10
46.051739
 20
327.761203
 42
-0.447206
 10
46.09465
 20
327.776683
 42
-0.174857
  0
LWPOLYLINE
  5
134
330
1D
100
AcDbEntity
  8
0
100
AcDbPolyline
 90
       12
 70
     1
 43
0.0
 10
169.840219
 20
322.6435
 42
-0.057986
 10
169.879928
 20
322.498718
 42
-0.037979
 10
169.893066
 20
322.326
 42
-0.037979
 10
169.879928
 20
322.153282
 42
-0.057986
 10
169.840219
 20
322.0085
 42
-0.174857
 10
169.79265
 20
321.955317
 42
-0.447206
 10
169.749739
 20
321.970797
 42
-0.078554
 10
169.720029
 20
322.099574
 42
-0.017491
 10
169.712105
 20
322.326
 42
-0.017491
 10
169.720029
 20
322.552426
 42
-0.078554
 10
169.749739
 20
322.681203
 42
-0.447206
 10
169.79265
 20
322.696683
 42
-0.174857
  0
LWPOLYLINE
  5
142
330
1D
100
AcDbEntity
  8
0
100
AcDbPolyline
 90
       12
 70
     1
 43
0.0
 10
46.127458
 20
322.257208
 42
-0.126455
 10
46.176541
 20
322.174167
 42
-0.060344
 10
46.19665
 20
322.050899
 42
-0.05415
 10
46.187144
 20
321.90928
 42
-0.051402
 10
46.147511
 20
321.770375
 42
-0.054073
 10
46.091237
 20
321.664539
 42
-0.470617
 10
46.044946
 20
321.660159
 42
-0.168741
 10
46.00905
 20
321.734267
 42
-0.018894
 10
45.994053
 20
321.923833
 42
-0.028489
 10
45.996846
 20
322.100663
 42
-0.077125
 10
46.024969
 20
322.222581
 42
-0.208169
 10
46.071869
 20
322.268947
 42
-0.296942
  0
LWPOLYLINE
  5
150
330
1D
100
AcDbEntity
  8
0
100
AcDbPolyline
 90
       12
 70
     1
 43
0.0
 10
46.127458
 20
320.225208
 42
-0.126455
 10
46.176541
 20
320.142167
 42
-0.060344
 10
46.19665
 20
320.018899
 42
-0.05415
 10
46.187144
 20
319.87728
 42
-0.051402
 10
46.147511
 20
319.738375
 42
-0.054073
 10
46.091237
 20
319.632539
 42
-0.470617
 10
46.044946
 20
319.628159
 42
-0.168741
 10
46.00905
 20
319.702267
 42
-0.018894
 10
45.994053
 20
319.891833
 42
-0.028489
 10
45.996846
 20
320.068663
 42
-0.077125
 10
46.024969
 20
320.190581
 42
-0.208169
 10
46.071869
 20
320.236947
 42
-0.296942
  0
LWPOLYLINE
  5
15E
330
1D
100
AcDbEntity
  8
0
100
AcDbPolyline
 90
       12
 70
     1
 43
0.0
 10
78.146219
 20
317.8175
 42
-0.057986
 10
78.185928
 20
317.672718
 42
-0.037979
 10
78.199066
 20
317.5
 42
-0.037979
 10
78.185928
 20
317.327282
 42
-0.057986
 10
78.146219
 20
317.1825
 42
-0.174857
 10
78.09865
 20
317.129317
 42
-0.447206
 10
78.055739
 20
317.144797
 42
-0.078554
 10
78.026029
 20
317.273574
 42
-0.017491
 10
78.018105
 20
317.5
 42
-0.017491
 10
78.026029
 20
317.726426
 42
-0.078554
 10
78.055739
 20
317.855203
 42
-0.447206
 10
78.09865
 20
317.870683
 42
-0.174857
  0
LWPOLYLINE
  5
16C
330
1D
100
AcDbEntity
  8
0
100
AcDbPolyline
 90
       72
 70
     1
 43
0.0
 10
28.672019
 20
317.23583
 42
-0.146598
 10
28.737283
 20
317.223503
 42
-0.004572
 10
28.980315
 20
317.094823
 42
-0.008575
 10
29.265484
 20
316.934094
 42
-0.005795
 10
29.585296
 20
316.741525
 10
30.401553
 20
316.237051
 10
30.567777
 20
313.145647
 42
-0.011367
 10
30.633473
 20
311.026092
 42
-0.00057
 10
30.682799
 20
304.091054
 42
-0.000916
 10
30.716915
 20
295.848307
 42
-0.000663
 10
30.725922
 20
286.662622
 42
-0.000577
 10
30.708327
 20
274.920982
 42
-0.002673
 10
30.654068
 20
268.13626
 42
-0.000998
 10
30.580825
 20
263.361545
 42
-0.160724
 10
30.408422
 20
262.867989
 42
-0.039123
 10
30.25028
 20
262.692336
 42
-0.019967
 10
30.02692
 20
262.496563
 42
-0.019711
 10
29.779258
 20
262.312042
 42
-0.027888
 10
29.544198
 20
262.169489
 42
-0.113325
 10
28.991093
 20
262.020157
 42
-0.003227
 10
26.525451
 20
261.942316
 42
-0.004849
 10
23.073075
 20
261.889118
 42
-0.001427
 10
17.77716
 20
261.874
 10
6.564923
 20
261.874
 10
5.822462
 20
262.616462
 42
-0.035351
 10
5.41826
 20
263.082251
 42
-0.082118
 10
5.205293
 20
263.491139
 42
-0.063953
 10
5.106694
 20
264.007767
 42
-0.015214
 10
5.08
 20
264.884872
 42
-0.019047
 10
5.111894
 20
265.721823
 42
-0.004364
 10
5.231936
 20
267.132245
 42
-0.004506
 10
5.399228
 20
268.756313
 42
-0.004379
 10
5.59723
 20
270.392681
 42
-0.003468
 10
5.824239
 20
272.050215
 42
-0.003267
 10
6.078569
 20
273.737799
 42
-0.003248
 10
6.323423
 20
275.230263
 42
-0.011324
 10
6.509509
 20
276.18877
 42
0.000355
 10
6.688192
 20
277.012167
 42
0.000212
 10
6.899738
 20
277.992357
 42
0.000212
 10
7.109678
 20
278.969117
 42
0.000367
 10
7.283198
 20
279.781
 42
-0.016671
 10
7.522438
 20
280.745398
 42
-0.00391
 10
7.989156
 20
282.342431
 42
-0.004025
 10
8.55544
 20
284.171827
 42
-0.003946
 10
9.154754
 20
286.004
 42
-0.009267
 10
9.879282
 20
288.035651
 42
-0.00515
 10
10.833736
 20
290.486306
 42
-0.005135
 10
11.851241
 20
292.947884
 42
-0.008271
 10
12.774002
 20
295.021
 42
-0.006514
 10
13.714433
 20
296.976078
 42
-0.005119
 10
14.782694
 20
299.070713
 42
-0.005178
 10
15.816048
 20
300.997788
 42
-0.012693
 10
16.626188
 20
302.387
 42
-0.001738
 10
17.367412
 20
303.577697
 42
-0.001424
 10
18.167638
 20
304.845244
 42
-0.001438
 10
18.91006
 20
306.006453
 42
-0.003799
 10
19.450137
 20
306.832
 42
-0.006503
 10
19.999887
 20
307.635692
 42
-0.002622
 10
20.770391
 20
308.719138
 42
-0.002594
 10
21.61221
 20
309.877096
 42
-0.003286
 10
22.402615
 20
310.937875
 42
-0.006798
 10
23.220911
 20
311.991069
 42
-0.00513
 10
24.147314
 20
313.126429
 42
-0.005188
 10
25.039985
 20
314.175487
 42
-0.011948
 10
25.737987
 20
314.940998
 42
-0.009889
 10
26.354719
 20
315.560724
 42
-0.010522
 10
26.9831
 20
316.142608
 42
-0.010169
 10
27.543646
 20
316.620158
 42
-0.046978
 10
27.896987
 20
316.857453
 42
-0.004497
 10
28.163789
 20
316.999252
 42
-0.006337
 10
28.404333
 20
317.120487
 42
-0.003875
 10
28.608167
 20
317.218052
 42
-0.083753
  0
LWPOLYLINE
  5
1B6
330
1D
100
AcDbEntity
  8
0
100
AcDbPolyline
 90
       60
 70
     1
 43
0.0
 10
146.642017
 20
317.246
 42
-0.085196
 10
147.172656
 20
317.154922
 42
-0.068749
 10
147.687139
 20
316.888875
 42
-0.037119
 10
148.341176
 20
316.350469
 42
-0.007214
 10
149.431531
 20
315.2775
 42
-0.011179
 10
150.315017
 20
314.341697
 42
-0.005869
 10
151.37344
 20
313.141122
 42
-0.005835
 10
152.429719
 20
311.884891
 42
-0.008923
 10
153.313122
 20
310.769
 42
-0.005637
 10
154.188237
 20
309.594889
 42
-0.003194
 10
155.222838
 20
308.154387
 42
-0.003188
 10
156.247208
 20
306.689009
 42
-0.005244
 10
157.092704
 20
305.435
 42
-0.006566
 10
157.918704
 20
304.145206
 42
-0.003745
 10
158.884482
 20
302.566387
 42
-0.003739
 10
159.83283
 20
300.962621
 42
-0.006185
 10
160.606454
 20
299.593
 42
-0.007418
 10
161.350229
 20
298.188314
 42
-0.004254
 10
162.207513
 20
296.473627
 42
-0.004249
 10
163.040098
 20
294.735035
 42
-0.00706
 10
163.708584
 20
293.254029
 42
-0.00607
 10
164.336774
 20
291.758786
 42
-0.003689
 10
165.044884
 20
289.976698
 42
-0.003696
 10
165.721238
 20
288.198441
 42
-0.006514
 10
166.249791
 20
286.718519
 42
-0.006901
 10
166.738802
 20
285.22388
 42
-0.003901
 10
167.29231
 20
283.399675
 42
-0.003893
 10
167.821935
 20
281.550957
 42
-0.006381
 10
168.238186
 20
279.976489
 42
-0.005943
 10
168.612093
 20
278.406569
 42
-0.003798
 10
169.011056
 20
276.573731
 42
-0.003815
 10
169.374775
 20
274.771174
 42
-0.007102
 10
169.637625
 20
273.304
 42
-0.004472
 10
169.858065
 20
271.885092
 42
-0.002901
 10
170.088727
 20
270.240919
 42
-0.002917
 10
170.295287
 20
268.632739
 42
-0.005532
 10
170.439727
 20
267.335
 42
-0.007639
 10
170.535474
 20
266.204634
 42
-0.008672
 10
170.591865
 20
265.118682
 42
-0.00801
 10
170.608949
 20
264.196274
 42
-0.046835
 10
170.564851
 20
263.713578
 42
-0.051992
 10
170.455218
 20
263.344296
 42
-0.046594
 10
170.268672
 20
262.990828
 42
-0.047072
 10
170.02227
 20
262.681598
 42
-0.055978
 10
169.735097
 20
262.443578
 42
-0.120481
 10
169.001535
 20
262.183731
 42
-0.016095
 10
167.352039
 20
262.070658
 42
-0.008216
 10
164.428324
 20
262.012691
 42
-0.000848
 10
157.533468
 20
262.001
 10
146.007002
 20
262.001
 10
145.393501
 20
262.713664
 10
144.78
 20
263.426328
 10
144.78
 20
289.828164
 42
-0.000262
 10
144.789092
 20
307.162178
 42
-0.004457
 10
144.845944
 20
312.868714
 42
-0.007358
 10
144.950341
 20
315.975448
 42
-0.186388
 10
145.288
 20
316.738
 42
-0.061748
 10
145.552602
 20
316.944233
 42
-0.044978
 10
145.888994
 20
317.106242
 42
-0.043381
 10
146.26352
 20
317.210791
 42
-0.046412
  0
LWPOLYLINE
  5
1F4
330
1D
100
AcDbEntity
  8
0
100
AcDbPolyline
 90
       12
 70
     1
 43
0.0
 10
46.148518
 20
315.407461
 42
-0.041951
 10
46.18507
 20
315.197291
 42
-0.020826
 10
46.197705
 20
314.926877
 42
-0.020511
 10
46.187515
 20
314.643704
 42
-0.028254
 10
46.153644
 20
314.391461
 42
-0.082665
 10
46.112026
 20
314.279169
 42
-0.67161
 10
46.074123
 20
314.284198
 42
-0.053901
 10
46.046348
 20
314.47006
 42
-0.008901
 10
46.038055
 20
314.833
 42
-0.009782
 10
46.043359
 20
315.19836
 42
-0.038992
 10
46.068389
 20
315.420848
 42
-0.417468
 10
46.10704
 20
315.44672
 42
-0.285845
  0
LWPOLYLINE
  5
202
330
1D
100
AcDbEntity
  8
0
100
AcDbPolyline
 90
       12
 70
     1
 43
0.0
 10
143.930608
 20
311.980334
 42
-0.06278
 10
143.970859
 20
311.828456
 42
-0.030339
 10
143.985555
 20
311.627522
 42
-0.029507
 10
143.975555
 20
311.413305
 42
-0.037336
 10
143.94002
 20
311.218334
 42
-0.087174
 10
143.895232
 20
311.120373
 42
-0.597527
 10
143.854559
 20
311.124829
 42
-0.080377
 10
143.823831
 20
311.259675
 42
-0.012823
 10
143.813517
 20
311.531
 42
-0.014395
 10
143.818027
 20
311.805349
 42
-0.052471
 10
143.84403
 20
311.977317
 42
-0.333666
 10
143.885191
 20
312.010046
 42
-0.31318
  0
LWPOLYLINE
  5
210
330
1D
100
AcDbEntity
  8
0
100
AcDbPolyline
 90
       12
 70
     1
 43
0.0
 10
128.931458
 20
300.667208
 42
-0.126455
 10
128.980541
 20
300.584167
 42
-0.060344
 10
129.00065
 20
300.460899
 42
-0.05415
 10
128.991144
 20
300.31928
 42
-0.051402
 10
128.951511
 20
300.180375
 42
-0.054073
 10
128.895237
 20
300.074539
 42
-0.470617
 10
128.848946
 20
300.070159
 42
-0.168741
 10
128.81305
 20
300.144267
 42
-0.018894
 10
128.798053
 20
300.333833
 42
-0.028489
 10
128.800846
 20
300.510663
 42
-0.077125
 10
128.828969
 20
300.632581
 42
-0.208169
 10
128.875869
 20
300.678947
 42
-0.296942
  0
LWPOLYLINE
  5
21E
330
1D
100
AcDbEntity
  8
0
100
AcDbPolyline
 90
       12
 70
     1
 43
0.0
 10
31.408608
 20
295.724334
 42
-0.06278
 10
31.448859
 20
295.572456
 42
-0.030339
 10
31.463555
 20
295.371522
 42
-0.029507
 10
31.453555
 20
295.157305
 42
-0.037336
 10
31.41802
 20
294.962334
 42
-0.087174
 10
31.373232
 20
294.864373
 42
-0.597527
 10
31.332559
 20
294.868829
 42
-0.080377
 10
31.301831
 20
295.003675
 42
-0.012823
 10
31.291517
 20
295.275
 42
-0.014395
 10
31.296027
 20
295.549349
 42
-0.052471
 10
31.32203
 20
295.721317
 42
-0.333666
 10
31.363191
 20
295.754046
 42
-0.31318
  0
LWPOLYLINE
  5
22C
330
1D
100
AcDbEntity
  8
0
100
AcDbPolyline
 90
       42
 70
     1
 43
0.0
 10
77.423198
 20
295.903505
 42
-0.035577
 10
77.682318
 20
295.887918
 42
-0.023721
 10
77.975085
 20
295.835055
 42
-0.023913
 10
78.255601
 20
295.756244
 42
-0.042448
 10
78.475982
 20
295.661362
 42
-0.079998
 10
78.673613
 20
295.510792
 42
-0.034873
 10
78.884284
 20
295.255729
 42
-0.033375
 10
79.074836
 20
294.947652
 42
-0.037961
 10
79.213553
 20
294.629635
 42
-0.07797
 10
79.34437
 20
293.909935
 42
-0.001606
 10
79.421321
 20
290.240272
 42
-0.003096
 10
79.477253
 20
285.403417
 42
-0.001153
 10
79.49808
 20
278.606545
 10
79.509621
 20
263.366544
 10
78.763349
 20
262.620272
 10
78.017077
 20
261.874
 10
73.540993
 20
261.874
 42
-0.002087
 10
70.627083
 20
261.886161
 42
-0.028334
 10
69.566617
 20
261.955189
 42
-0.081503
 10
68.9547
 20
262.134001
 42
-0.084815
 10
68.441455
 20
262.497455
 42
-0.081007
 10
68.079739
 20
263.000139
 42
-0.082979
 10
67.900275
 20
263.587574
 42
-0.030145
 10
67.829393
 20
264.589185
 42
-0.002375
 10
67.814358
 20
267.259955
 42
0.002078
 10
67.803172
 20
269.481152
 42
0.000539
 10
67.76644
 20
273.057838
 42
0.000548
 10
67.715708
 20
277.134932
 42
0.000559
 10
67.656345
 20
281.185155
 10
67.501974
 20
290.97131
 10
68.146787
 20
291.737627
 42
-0.057325
 10
68.531606
 20
292.101016
 42
-0.015222
 10
69.223967
 20
292.586777
 42
-0.015234
 10
70.050662
 20
293.094644
 42
-0.015147
 10
70.9083
 20
293.552247
 42
-0.009126
 10
71.857429
 20
294.000927
 42
-0.006037
 10
72.962813
 20
294.483029
 42
-0.006076
 10
74.048745
 20
294.925659
 42
-0.011727
 10
74.93
 20
295.248781
 42
-0.008285
 10
75.702471
 20
295.497432
 42
-0.00951
 10
76.44819
 20
295.708501
 42
-0.008739
 10
77.085462
 20
295.863998
 42
-0.052751
  0
LWPOLYLINE
  5
258
330
1D
100
AcDbEntity
  8
0
100
AcDbPolyline
 90
       36
 70
     1
 43
0.0
 10
97.758216
 20
295.91
 42
-0.054546
 10
98.182746
 20
295.863549
 42
-0.010056
 10
98.949044
 20
295.677583
 42
-0.010689
 10
99.840385
 20
295.421691
 42
-0.009553
 10
100.754262
 20
295.118792
 42
-0.008879
 10
101.7335
 20
294.753652
 42
-0.00623
 10
102.823177
 20
294.309387
 42
-0.006288
 10
103.856228
 20
293.857729
 42
-0.013055
 10
104.648
 20
293.474429
 42
-0.005041
 10
105.309652
 20
293.124025
 42
-0.005834
 10
105.932403
 20
292.776674
 42
-0.005247
 10
106.452734
 20
292.471139
 42
-0.03399
 10
106.702011
 20
292.297138
 42
-0.036601
 10
106.877672
 20
292.133321
 42
-0.018902
 10
107.073437
 20
291.905242
 42
-0.018687
 10
107.257981
 20
291.654323
 42
-0.026851
 10
107.400511
 20
291.418198
 42
-0.115336
 10
107.552628
 20
290.845757
 42
-0.002356
 10
107.628574
 20
287.851941
 42
-0.004036
 10
107.681237
 20
283.665173
 42
-0.001126
 10
107.696
 20
277.11116
 10
107.696
 20
263.358923
 10
106.953538
 20
262.616462
 10
106.211077
 20
261.874
 10
101.760702
 20
261.874
 42
-0.002248
 10
98.905821
 20
261.886838
 42
-0.027298
 10
97.812913
 20
261.956414
 42
-0.073169
 10
97.162942
 20
262.132272
 42
-0.075134
 10
96.597664
 20
262.486909
 10
95.885
 20
263.099818
 10
95.815855
 20
278.87581
 10
95.74671
 20
294.651801
 10
96.37581
 20
295.280901
 42
-0.044761
 10
96.68661
 20
295.540533
 42
-0.044882
 10
97.038387
 20
295.74044
 42
-0.046778
 10
97.404603
 20
295.867345
 42
-0.060095
  0
LWPOLYLINE
  5
27E
330
1D
100
AcDbEntity
  8
0
100
AcDbPolyline
 90
       12
 70
     1
 43
0.0
 10
31.395458
 20
293.301208
 42
-0.126455
 10
31.444541
 20
293.218167
 42
-0.060344
 10
31.46465
 20
293.094899
 42
-0.05415
 10
31.455144
 20
292.95328
 42
-0.051402
 10
31.415511
 20
292.814375
 42
-0.054073
 10
31.359237
 20
292.708539
 42
-0.470617
 10
31.312946
 20
292.704159
 42
-0.168741
 10
31.27705
 20
292.778267
 42
-0.018894
 10
31.262053
 20
292.967833
 42
-0.028489
 10
31.264846
 20
293.144663
 42
-0.077125
 10
31.292969
 20
293.266581
 42
-0.208169
 10
31.339869
 20
293.312947
 42
-0.296942
  0
LWPOLYLINE
  5
28C
330
1D
100
AcDbEntity
  8
0
100
AcDbPolyline
 90
       12
 70
     1
 43
0.0
 10
31.395458
 20
287.967208
 42
-0.126455
 10
31.444541
 20
287.884167
 42
-0.060344
 10
31.46465
 20
287.760899
 42
-0.05415
 10
31.455144
 20
287.61928
 42
-0.051402
 10
31.415511
 20
287.480375
 42
-0.054073
 10
31.359237
 20
287.374539
 42
-0.470617
 10
31.312946
 20
287.370159
 42
-0.168741
 10
31.27705
 20
287.444267
 42
-0.018894
 10
31.262053
 20
287.633833
 42
-0.028489
 10
31.264846
 20
287.810663
 42
-0.077125
 10
31.292969
 20
287.932581
 42
-0.208169
 10
31.339869
 20
287.978947
 42
-0.296942
  0
LWPOLYLINE
  5
29A
330
1D
100
AcDbEntity
  8
0
100
AcDbPolyline
 90
       38
 70
     1
 43
0.0
 10
74.64846
 20
256.93524
 42
-0.002674
 10
77.056348
 20
256.891587
 42
-0.03738
 10
77.918676
 20
256.806632
 42
-0.101618
 10
78.432452
 20
256.604117
 42
-0.070723
 10
78.90296
 20
256.192098
 10
79.502
 20
255.495672
 10
79.502
 20
239.877291
 10
79.502
 20
224.258909
 10
78.878545
 20
223.635455
 42
-0.038359
 10
78.600253
 20
223.396874
 42
-0.034887
 10
78.280117
 20
223.19514
 42
-0.036684
 10
77.967351
 20
223.055762
 42
-0.086686
 10
77.71683
 20
223.012
 42
-0.055586
 10
77.402417
 20
223.047062
 42
-0.008313
 10
76.783506
 20
223.197696
 42
-0.009259
 10
76.055868
 20
223.402122
 42
-0.007867
 10
75.295411
 20
223.644155
 42
-0.0116
 10
74.423836
 20
223.959412
 42
-0.006002
 10
73.34896
 20
224.391563
 42
-0.005963
 10
72.254253
 20
224.862418
 42
-0.009005
 10
71.313627
 20
225.300814
 42
-0.014354
 10
70.458959
 20
225.748865
 42
-0.014103
 10
69.626287
 20
226.247722
 42
-0.014122
 10
68.921855
 20
226.725738
 42
-0.050874
 10
68.5165
 20
227.085666
 10
67.818
 20
227.846014
 10
67.818
 20
241.76346
 42
-0.000881
 10
67.831098
 20
249.195177
 42
-0.005186
 10
67.885275
 20
253.093392
 42
-0.004578
 10
67.968816
 20
255.591865
 42
-0.14827
 10
68.167425
 20
256.158773
 42
-0.094934
 10
68.39338
 20
256.369325
 42
-0.043006
 10
68.754548
 20
256.555003
 42
-0.036836
 10
69.216706
 20
256.705734
 42
-0.025773
 10
69.754925
 20
256.809298
 42
-0.023482
 10
70.454343
 20
256.87355
 42
-0.004731
 10
71.703107
 20
256.917515
 42
-0.004985
 10
73.158177
 20
256.940448
 42
-0.004642
  0
LWPOLYLINE
  5
2C2
330
1D
100
AcDbEntity
  8
0
100
AcDbPolyline
 90
       42
 70
     1
 43
0.0
 10
102.291932
 20
256.972313
 42
-0.002611
 10
104.858931
 20
256.92694
 42
-0.027588
 10
105.903588
 20
256.84523
 42
-0.07187
 10
106.511699
 20
256.672527
 42
-0.091628
 10
106.990932
 20
256.342584
 10
107.569
 20
255.764167
 10
107.638731
 20
241.843259
 42
-0.000511
 10
107.675523
 20
232.613923
 42
-0.008804
 10
107.6313
 20
229.594152
 42
-0.02533
 10
107.500739
 20
228.022828
 42
-0.134036
 10
107.167423
 20
227.234531
 42
-0.06281
 10
106.835177
 20
226.906625
 42
-0.01574
 10
106.214942
 20
226.462058
 42
-0.015826
 10
105.467713
 20
225.994867
 42
-0.015338
 10
104.684692
 20
225.57071
 42
-0.010777
 10
103.777957
 20
225.139156
 42
-0.005853
 10
102.646495
 20
224.646098
 42
-0.005828
 10
101.483178
 20
224.171178
 42
-0.009182
 10
100.472779
 20
223.793653
 42
-0.010332
 10
99.418453
 20
223.445956
 42
-0.02163
 10
98.58275
 20
223.228436
 42
-0.0273
 10
97.932016
 20
223.125561
 42
-0.079771
 10
97.479672
 20
223.151372
 42
-0.060569
 10
97.171948
 20
223.259255
 42
-0.038479
 10
96.844882
 20
223.453138
 42
-0.038277
 10
96.548668
 20
223.69689
 42
-0.056484
 10
96.333799
 20
223.955705
 42
-0.128556
 10
96.078998
 20
224.713584
 42
-0.00899
 10
95.964449
 20
226.973647
 42
-0.005956
 10
95.883638
 20
230.867953
 42
-0.000657
 10
95.816561
 20
239.78674
 42
-0.00068
 10
95.773906
 20
248.586178
 42
-0.005692
 10
95.805304
 20
252.562829
 42
-0.008734
 10
95.890935
 20
254.89206
 42
-0.106155
 10
96.124351
 20
255.749672
 42
-0.050587
 10
96.347561
 20
256.091603
 42
-0.048545
 10
96.637691
 20
256.386979
 42
-0.048799
 10
96.97772
 20
256.619517
 42
-0.052325
 10
97.348695
 20
256.775379
 42
-0.057503
 10
97.875259
 20
256.87028
 42
-0.005904
 10
99.139972
 20
256.93563
 42
-0.0073
 10
100.653725
 20
256.973814
 42
-0.005768
  0
LWPOLYLINE
  5
2EE
330
1D
100
AcDbEntity
  8
0
100
AcDbPolyline
 90
       66
 70
     1
 43
0.0
 10
157.817038
 20
257.040276
 10
169.203077
 20
257.048
 10
169.977273
 20
256.273804
 42
-0.032003
 10
170.443322
 20
255.743946
 42
-0.112721
 10
170.632502
 20
255.334627
 42
-0.066173
 10
170.675144
 20
254.776779
 42
-0.006364
 10
170.581681
 20
253.416304
 42
-0.00317
 10
170.497879
 20
252.462749
 42
-0.001804
 10
170.385079
 20
251.310764
 42
-0.001802
 10
170.263134
 20
250.151638
 42
-0.002979
 10
170.150822
 20
249.174
 42
-0.004307
 10
170.023379
 20
248.191201
 42
-0.002513
 10
169.854514
 20
247.015
 42
-0.002512
 10
169.673582
 20
245.838899
 42
-0.004253
 10
169.508728
 20
244.856
 42
-0.00772
 10
169.303766
 20
243.790959
 42
-0.003002
 10
168.988682
 20
242.323938
 42
-0.002971
 10
168.628417
 20
240.739002
 42
-0.00368
 10
168.273409
 20
239.268
 42
-0.007269
 10
167.860376
 20
237.70725
 42
-0.004184
 10
167.319886
 20
235.839
 42
-0.004179
 10
166.745525
 20
233.971278
 42
-0.006969
 10
166.227027
 20
232.41
 42
-0.005175
 10
165.688674
 20
230.911621
 42
-0.003674
 10
165.055269
 20
229.242144
 42
-0.003709
 10
164.42699
 20
227.657144
 42
-0.007861
 10
163.912053
 20
226.441
 42
-0.006441
 10
163.364285
 20
225.243884
 42
-0.003088
 10
162.631937
 20
223.720783
 42
-0.003061
 10
161.847905
 20
222.140262
 42
-0.004366
 10
161.131038
 20
220.747495
 42
-0.007283
 10
160.357742
 20
219.327409
 42
-0.004334
 10
159.397777
 20
217.658071
 42
-0.004337
 10
158.411872
 20
216.010422
 42
-0.007475
 10
157.559002
 20
214.658634
 42
-0.005449
 10
156.688946
 20
213.3555
 42
-0.003499
 10
155.652487
 20
211.861728
 42
-0.003516
 10
154.617239
 20
210.413514
 42
-0.006585
 10
153.75636
 20
209.259241
 42
-0.008836
 10
152.873655
 20
208.148867
 42
-0.005082
 10
151.773165
 20
206.840982
 42
-0.005075
 10
150.640612
 20
205.549192
 42
-0.008445
 10
149.657315
 20
204.487005
 42
-0.005926
 10
148.418162
 20
203.223303
 42
-0.032733
 10
147.700832
 20
202.596802
 42
-0.064095
 10
147.162786
 20
202.285547
 42
-0.100248
 10
146.639935
 20
202.181403
 42
-0.049777
 10
146.242159
 20
202.222395
 42
-0.066232
 10
145.899199
 20
202.341568
 42
-0.064696
 10
145.593426
 20
202.54893
 42
-0.044818
 10
145.306435
 20
202.853254
 42
-0.153549
 10
144.960053
 20
203.768502
 42
-0.009351
 10
144.846411
 20
206.728048
 42
-0.004661
 10
144.788953
 20
212.27621
 42
-0.000258
 10
144.78
 20
229.601707
 42
-0.000495
 10
144.79321
 20
242.954406
 42
-0.002503
 10
144.845242
 20
250.40375
 42
-0.000921
 10
144.916781
 20
255.575266
 42
-0.165929
 10
145.0975
 20
256.078875
 42
-0.034205
 10
145.255589
 20
256.251393
 42
-0.018652
 10
145.470959
 20
256.44156
 42
-0.018509
 10
145.705311
 20
256.619352
 42
-0.027882
 10
145.923
 20
256.754698
 42
-0.117403
 10
146.418556
 20
256.890124
 42
-0.002256
 10
149.093606
 20
256.966433
 42
-0.004327
 10
152.666678
 20
257.021286
 42
-0.001504
  0
LWPOLYLINE
  5
332
330
1D
100
AcDbEntity
  8
0
100
AcDbPolyline
 90
       58
 70
     1
 43
0.0
 10
18.023978
 20
256.794
 10
29.629448
 20
256.794
 10
30.244138
 20
256.139693
 10
30.858827
 20
255.485387
 10
30.859914
 20
229.369988
 42
-0.000284
 10
30.851083
 20
212.594357
 42
-0.004255
 10
30.794879
 20
206.742288
 42
-0.006311
 10
30.695028
 20
203.494491
 42
-0.17465
 10
30.377133
 20
202.719295
 42
-0.060334
 10
30.125499
 20
202.500681
 42
-0.048745
 10
29.810703
 20
202.329785
 42
-0.04773
 10
29.461339
 20
202.219966
 42
-0.051839
 10
29.107133
 20
202.182428
 42
-0.098704
 10
28.608409
 20
202.280811
 42
-0.063792
 10
28.095719
 20
202.573645
 42
-0.034322
 10
27.428109
 20
203.153283
 42
-0.006965
 10
26.332335
 20
204.275968
 42
-0.009202
 10
25.408323
 20
205.286032
 42
-0.004414
 10
24.258088
 20
206.614261
 42
-0.004374
 10
23.081715
 20
208.021924
 42
-0.006233
 10
22.06366
 20
209.294041
 42
-0.008448
 10
21.043131
 20
210.648945
 42
-0.004823
 10
19.854156
 20
212.317868
 42
-0.004815
 10
18.689831
 20
214.020713
 42
-0.007958
 10
17.743659
 20
215.48334
 42
-0.004508
 10
16.863054
 20
216.922032
 42
-0.003223
 10
15.902771
 20
218.546793
 42
-0.003254
 10
15.007648
 20
220.107097
 42
-0.006965
 10
14.341473
 20
221.32534
 42
-0.006954
 10
13.727938
 20
222.525518
 42
-0.003761
 10
13.004598
 20
224.018593
 42
-0.003745
 10
12.290734
 20
225.550287
 42
-0.005896
 10
11.703279
 20
226.876977
 42
-0.004789
 10
11.149707
 20
228.202978
 42
-0.003198
 10
10.540215
 20
229.731146
 42
-0.00322
 10
9.968265
 20
231.220462
 42
-0.006317
 10
9.535744
 20
232.414265
 42
-0.006843
 10
9.132711
 20
233.625288
 42
-0.0034
 10
8.653311
 20
235.170745
 42
-0.003374
 10
8.178079
 20
236.779461
 42
-0.004947
 10
7.783657
 20
238.201289
 42
-0.003244
 10
7.433712
 20
239.548045
 42
-0.00305
 10
7.093839
 20
240.927122
 42
-0.003033
 10
6.807399
 20
242.153413
 42
-0.010533
 10
6.643779
 20
242.951
 42
-0.001847
 10
6.503529
 20
243.732479
 42
-0.000604
 10
6.302452
 20
244.885369
 42
-0.000602
 10
6.082294
 20
246.165917
 42
-0.00068
 10
5.874059
 20
247.396
 42
-0.007921
 10
5.674651
 20
248.711007
 42
-0.004973
 10
5.48121
 20
250.254125
 42
-0.004991
 10
5.321046
 20
251.777107
 42
-0.009094
 10
5.225338
 20
253.023957
 10
5.067012
 20
255.730913
 10
5.74276
 20
256.262457
 42
-0.127942
 10
6.480713
 20
256.584964
 42
-0.028573
 10
7.860039
 20
256.723894
 42
-0.010147
 10
10.47434
 20
256.783931
 42
-0.000667
  0
LWPOLYLINE
  5
36E
330
1D
100
AcDbEntity
  8
0
100
AcDbPolyline
 90
       12
 70
     1
 43
0.0
 10
171.364219
 20
252.5395
 42
-0.057986
 10
171.403928
 20
252.394718
 42
-0.037979
 10
171.417066
 20
252.222
 42
-0.037979
 10
171.403928
 20
252.049282
 42
-0.057986
 10
171.364219
 20
251.9045
 42
-0.174857
 10
171.31665
 20
251.851317
 42
-0.447206
 10
171.273739
 20
251.866797
 42
-0.078554
 10
171.244029
 20
251.995574
 42
-0.017491
 10
171.236105
 20
252.222
 42
-0.017491
 10
171.244029
 20
252.448426
 42
-0.078554
 10
171.273739
 20
252.577203
 42
-0.447206
 10
171.31665
 20
252.592683
 42
-0.174857
  0
LWPOLYLINE
  5
37C
330
1D
100
AcDbEntity
  8
0
100
AcDbPolyline
 90
       12
 70
     1
 43
0.0
 10
171.117089
 20
250.6345
 42
-0.039571
 10
171.153209
 20
250.431994
 42
-0.024357
 10
171.165005
 20
250.19
 42
-0.024357
 10
171.153209
 20
249.948006
 42
-0.039571
 10
171.117089
 20
249.7455
 42
-0.161593
 10
171.074337
 20
249.679678
 42
-0.542911
 10
171.035051
 20
249.692716
 42
-0.052887
 10
171.007967
 20
249.871996
 42
-0.011065
 10
171.000929
 20
250.19
 42
-0.011065
 10
171.007967
 20
250.508004
 42
-0.052887
 10
171.035051
 20
250.687284
 42
-0.542911
 10
171.074337
 20
250.700322
 42
-0.161593
  0
LWPOLYLINE
  5
38A
330
1D
100
AcDbEntity
  8
0
100
AcDbPolyline
 90
       12
 70
     1
 43
0.0
 10
4.740219
 20
249.4915
 42
-0.057986
 10
4.779928
 20
249.346718
 42
-0.037979
 10
4.793066
 20
249.174
 42
-0.037979
 10
4.779928
 20
249.001282
 42
-0.057986
 10
4.740219
 20
248.8565
 42
-0.174857
 10
4.69265
 20
248.803317
 42
-0.447206
 10
4.649739
 20
248.818797
 42
-0.078554
 10
4.620029
 20
248.947574
 42
-0.017491
 10
4.612105
 20
249.174
 42
-0.017491
 10
4.620029
 20
249.400426
 42
-0.078554
 10
4.649739
 20
249.529203
 42
-0.447206
 10
4.69265
 20
249.544683
 42
-0.174857
  0
LWPOLYLINE
  5
398
330
1D
100
AcDbEntity
  8
0
100
AcDbPolyline
 90
       12
 70
     1
 43
0.0
 10
170.841458
 20
248.597208
 42
-0.126455
 10
170.890541
 20
248.514167
 42
-0.060344
 10
170.91065
 20
248.390899
 42
-0.05415
 10
170.901144
 20
248.24928
 42
-0.051402
 10
170.861511
 20
248.110375
 42
-0.054073
 10
170.805237
 20
248.004539
 42
-0.470617
 10
170.758946
 20
248.000159
 42
-0.168741
 10
170.72305
 20
248.074267
 42
-0.018894
 10
170.708053
 20
248.263833
 42
-0.028489
 10
170.710846
 20
248.440663
 42
-0.077125
 10
170.738969
 20
248.562581
 42
-0.208169
 10
170.785869
 20
248.608947
 42
-0.296942
  0
LWPOLYLINE
  5
3A6
330
1D
100
AcDbEntity
  8
0
100
AcDbPolyline
 90
       12
 70
     1
 43
0.0
 10
4.994219
 20
247.7135
 42
-0.057986
 10
5.033928
 20
247.568718
 42
-0.037979
 10
5.047066
 20
247.396
 42
-0.037979
 10
5.033928
 20
247.223282
 42
-0.057986
 10
4.994219
 20
247.0785
 42
-0.174857
 10
4.94665
 20
247.025317
 42
-0.447206
 10
4.903739
 20
247.040797
 42
-0.078554
 10
4.874029
 20
247.169574
 42
-0.017491
 10
4.866105
 20
247.396
 42
-0.017491
 10
4.874029
 20
247.622426
 42
-0.078554
 10
4.903739
 20
247.751203
 42
-0.447206
 10
4.94665
 20
247.766683
 42
-0.174857
  0
LWPOLYLINE
  5
3B4
330
1D
100
AcDbEntity
  8
0
100
AcDbPolyline
 90
       12
 70
     1
 43
0.0
 10
5.246608
 20
246.194334
 42
-0.06278
 10
5.286859
 20
246.042456
 42
-0.030339
 10
5.301555
 20
245.841522
 42
-0.029507
 10
5.291555
 20
245.627305
 42
-0.037336
 10
5.25602
 20
245.432334
 42
-0.087174
 10
5.211232
 20
245.334373
 42
-0.597527
 10
5.170559
 20
245.338829
 42
-0.080377
 10
5.139831
 20
245.473675
 42
-0.012823
 10
5.129517
 20
245.745
 42
-0.014395
 10
5.134027
 20
246.019349
 42
-0.052471
 10
5.16003
 20
246.191317
 42
-0.333666
 10
5.201191
 20
246.224046
 42
-0.31318
  0
LWPOLYLINE
  5
3C2
330
1D
100
AcDbEntity
  8
0
100
AcDbPolyline
 90
       16
 70
     1
 43
0.0
 10
5.681304
 20
243.564833
 42
-0.120459
 10
5.724436
 20
243.48255
 42
-0.006366
 10
5.792645
 20
243.191639
 42
-0.009719
 10
5.863259
 20
242.839921
 42
-0.006898
 10
5.929313
 20
242.443
 42
-0.006223
 10
5.994164
 20
241.978307
 42
-0.068523
 10
5.992172
 20
241.790693
 42
-0.669598
 10
5.945186
 20
241.779031
 42
-0.052205
 10
5.853861
 20
241.935
 42
-0.033318
 10
5.764306
 20
242.173802
 42
-0.018652
 10
5.686069
 20
242.474089
 42
-0.018544
 10
5.629372
 20
242.784797
 42
-0.028591
 10
5.605852
 20
243.056833
 42
-0.013801
 10
5.605516
 20
243.285293
 42
-0.03034
 10
5.620652
 20
243.459265
 42
-0.055915
 10
5.647027
 20
243.558743
 42
-0.562037
  0
LWPOLYLINE
  5
3D4
330
1D
100
AcDbEntity
  8
0
100
AcDbPolyline
 90
       12
 70
     1
 43
0.0
 10
6.503458
 20
239.961208
 42
-0.126455
 10
6.552541
 20
239.878167
 42
-0.060344
 10
6.57265
 20
239.754899
 42
-0.05415
 10
6.563144
 20
239.61328
 42
-0.051402
 10
6.523511
 20
239.474375
 42
-0.054073
 10
6.467237
 20
239.368539
 42
-0.470617
 10
6.420946
 20
239.364159
 42
-0.168741
 10
6.38505
 20
239.438267
 42
-0.018894
 10
6.370053
 20
239.627833
 42
-0.028489
 10
6.372846
 20
239.804663
 42
-0.077125
 10
6.400969
 20
239.926581
 42
-0.208169
 10
6.447869
 20
239.972947
 42
-0.296942
  0
LWPOLYLINE
  5
3E2
330
1D
100
AcDbEntity
  8
0
100
AcDbPolyline
 90
       16
 70
     1
 43
0.0
 10
6.829186
 20
238.633
 42
-0.023956
 10
6.924345
 20
238.376815
 42
-0.009225
 10
7.03261
 20
238.013081
 42
-0.009109
 10
7.135737
 20
237.613596
 42
-0.011097
 10
7.217096
 20
237.236
 42
-0.009744
 10
7.282139
 20
236.858317
 42
-0.067977
 10
7.284999
 20
236.671512
 42
-0.543453
 10
7.236422
 20
236.647761
 42
-0.121106
 10
7.155618
 20
236.728
 42
-0.054466
 10
7.055767
 20
236.940623
 42
-0.014844
 10
6.945772
 20
237.295531
 42
-0.014831
 10
6.844292
 20
237.708085
 42
-0.014932
 10
6.767707
 20
238.125
 42
-0.007048
 10
6.707792
 20
238.557323
 42
-0.061088
 10
6.707484
 20
238.75131
 42
-0.665711
 10
6.751257
 20
238.763693
 42
-0.067161
  0
LWPOLYLINE
  5
3F4
330
1D
100
AcDbEntity
  8
0
100
AcDbPolyline
 90
       64
 70
     1
 43
0.0
 10
49.027153
 20
238.506
 42
-0.038484
 10
49.267285
 20
238.48749
 42
-0.023368
 10
49.546563
 20
238.430706
 42
-0.023346
 10
49.819992
 20
238.347918
 42
-0.037696
 10
50.042334
 20
238.249681
 42
-0.090997
 10
50.305301
 20
238.040103
 42
-0.008921
 10
50.82905
 20
237.416477
 42
-0.011049
 10
51.428305
 20
236.642159
 42
-0.008537
 10
52.047967
 20
235.773181
 42
0.009388
 10
52.770457
 20
234.763643
 42
0.005176
 10
53.689384
 20
233.555583
 42
0.005159
 10
54.646832
 20
232.349455
 42
0.008249
 10
55.4919
 20
231.341612
 42
0.010667
 10
56.37767
 20
230.362929
 42
0.006543
 10
57.460748
 20
229.246027
 42
0.006558
 10
58.562149
 20
228.168227
 42
0.011616
 10
59.502069
 20
227.31306
 42
0.012366
 10
60.494755
 20
226.493332
 42
0.006541
 10
61.763633
 20
225.523824
 42
0.006505
 10
63.088456
 20
224.56526
 42
0.009999
 10
64.262
 20
223.773809
 42
-0.004694
 10
65.334288
 20
223.067079
 42
-0.005292
 10
66.350753
 20
222.367628
 42
-0.004862
 10
67.202726
 20
221.755507
 42
-0.028542
 10
67.6275
 20
221.40506
 10
68.326
 20
220.758397
 10
68.345272
 20
202.644699
 42
-0.000154
 10
68.350615
 20
195.575373
 42
-0.000223
 10
68.350624
 20
189.329611
 42
-0.000113
 10
68.347072
 20
184.027331
 42
-0.00373
 10
68.336426
 20
182.753
 42
-0.01073
 10
68.298055
 20
181.723998
 42
-0.057068
 10
68.201442
 20
181.170279
 42
-0.089698
 10
68.002586
 20
180.77457
 42
-0.049644
 10
67.635316
 20
180.375395
 42
-0.037399
 10
67.235825
 20
180.069785
 42
-0.082196
 10
66.884749
 20
179.915422
 42
-0.072529
 10
66.47513
 20
179.872081
 42
-0.024212
 10
65.873281
 20
179.92506
 42
-0.028329
 10
65.260455
 20
180.044737
 42
-0.005352
 10
64.158617
 20
180.338095
 42
-0.005703
 10
62.87761
 20
180.709671
 42
-0.005203
 10
61.565422
 20
181.121524
 42
-0.006583
 10
60.127991
 20
181.610191
 42
-0.00416
 10
58.463523
 20
182.216239
 42
-0.004176
 10
56.837434
 20
182.839208
 42
-0.007674
 10
55.525804
 20
183.377687
 42
-0.004268
 10
54.273458
 20
183.927131
 42
-0.00279
 10
52.838231
 20
184.581124
 42
-0.002806
 10
51.446431
 20
185.234239
 42
-0.00537
 10
50.337749
 20
185.776792
 42
-0.008351
 10
49.059981
 20
186.446154
 42
-0.03676
 10
48.34544
 20
186.906915
 42
-0.062056
 10
47.906619
 20
187.332576
 42
-0.070337
 10
47.607249
 20
187.836306
 42
-0.092721
 10
47.395124
 20
188.827326
 42
-0.002877
 10
47.310724
 20
193.005304
 42
-0.003141
 10
47.256543
 20
199.642996
 42
-0.00047
 10
47.244
 20
212.982387
 10
47.244
 20
237.259091
 10
47.867455
 20
237.882545
 42
-0.038226
 10
48.145598
 20
238.121126
 42
-0.034837
 10
48.465291
 20
238.32286
 42
-0.036639
 10
48.777421
 20
238.462259
 42
-0.086914
  0
LWPOLYLINE
  5
436
330
1D
100
AcDbEntity
  8
0
100
AcDbPolyline
 90
       72
 70
     1
 43
0.0
 10
126.466767
 20
238.428477
 42
-0.044144
 10
126.880779
 20
238.367831
 42
-0.061217
 10
127.231978
 20
238.237255
 42
-0.063791
 10
127.530365
 20
238.030632
 42
-0.053622
 10
127.787183
 20
237.744
 42
-0.145804
 10
128.08014
 20
236.899427
 42
-0.00585
 10
128.187213
 20
233.617861
 42
-0.004184
 10
128.259843
 20
227.830638
 42
-0.000337
 10
128.313262
 20
212.598
 42
-0.000428
 10
128.340643
 20
198.75092
 42
-0.003313
 10
128.305023
 20
192.280046
 42
-0.002641
 10
128.23472
 20
188.243406
 42
-0.138245
 10
128.008846
 20
187.506554
 42
-0.096312
 10
127.722198
 20
187.207503
 42
-0.01143
 10
126.955802
 20
186.692492
 42
-0.013312
 10
126.004886
 20
186.119641
 42
-0.010557
 10
124.948989
 20
185.550373
 42
-0.00805
 10
123.693213
 20
184.932498
 42
-0.004299
 10
122.122335
 20
184.207204
 42
-0.004278
 10
120.505307
 20
183.49399
 42
-0.006655
 10
119.098181
 20
182.909764
 42
-0.006315
 10
117.669292
 20
182.359506
 42
-0.003958
 10
115.9846
 20
181.750178
 42
-0.003972
 10
114.315933
 20
181.176403
 42
-0.007234
 10
112.942939
 20
180.738445
 42
-0.005128
 10
111.7539
 20
180.391305
 42
-0.006618
 10
110.654842
 20
180.098268
 42
-0.005142
 10
109.730678
 20
179.875003
 42
-0.056751
 10
109.353021
 20
179.832
 42
-0.022179
 10
109.09341
 20
179.843522
 42
-0.016543
 10
108.808863
 20
179.878348
 42
-0.016799
 10
108.542389
 20
179.929172
 42
-0.036103
 10
108.34238
 20
179.98978
 42
-0.086923
 10
108.158659
 20
180.099862
 42
-0.032144
 10
107.942833
 20
180.312303
 42
-0.030683
 10
107.732128
 20
180.579525
 42
-0.032285
 10
107.559606
 20
180.866166
 42
-0.111071
 10
107.342035
 20
181.697351
 42
-0.004092
 10
107.255057
 20
184.966772
 42
-0.004028
 10
107.200439
 20
190.23969
 42
-0.000576
 10
107.188
 20
201.045085
 42
-0.000887
 10
107.20321
 20
209.620533
 42
-0.002387
 10
107.253946
 20
215.716889
 42
-0.000673
 10
107.323133
 20
220.506881
 42
-0.119465
 10
107.449277
 20
220.993597
 42
-0.101374
 10
107.67725
 20
221.26788
 42
-0.007096
 10
108.471057
 20
221.885346
 42
-0.009824
 10
109.449998
 20
222.594992
 42
-0.007232
 10
110.560777
 20
223.34378
 42
0.006111
 10
111.772978
 20
224.15699
 42
0.004896
 10
113.058728
 20
225.061204
 42
0.004951
 10
114.231593
 20
225.92104
 42
0.012526
 10
115.062
 20
226.575634
 42
0.008988
 10
115.810448
 20
227.219701
 42
0.004982
 10
116.701561
 20
228.030951
 42
0.004966
 10
117.588044
 20
228.870841
 42
0.007982
 10
118.325058
 20
229.606253
 42
0.009042
 10
119.057037
 20
230.388148
 42
0.004879
 10
119.931565
 20
231.376056
 42
0.004857
 10
120.803186
 20
232.400184
 42
0.00762
 10
121.530276
 20
233.299
 42
0.005467
 10
122.207252
 20
234.182169
 42
0.00426
 10
122.924225
 20
235.15619
 42
0.004308
 10
123.576759
 20
236.075255
 42
0.010441
 10
124.038429
 20
236.767904
 42
-0.010877
 10
124.412569
 20
237.32817
 42
-0.014202
 10
124.780049
 20
237.822835
 42
-0.011774
 10
125.10496
 20
238.2158
 42
-0.115083
 10
125.278211
 20
238.341381
 42
-0.064824
 10
125.458728
 20
238.391065
 42
-0.016494
 10
125.761325
 20
238.423302
 42
-0.016533
 10
126.112256
 20
238.437377
 42
-0.016061
  0
LWPOLYLINE
  5
480
330
1D
100
AcDbEntity
  8
0
100
AcDbPolyline
 90
       16
 70
     1
 43
0.0
 10
7.586365
 20
235.839
 42
-0.01635
 10
7.680592
 20
235.590778
 42
-0.007171
 10
7.789836
 20
235.256388
 42
-0.007088
 10
7.895734
 20
234.897915
 42
-0.009423
 10
7.981202
 20
234.569
 42
-0.014556
 10
8.047295
 20
234.25313
 42
-0.073043
 10
8.052939
 20
234.073057
 42
-0.373715
 10
8.0033
 20
234.02764
 42
-0.212368
 10
7.922782
 20
234.061
 42
-0.095056
 10
7.819868
 20
234.22158
 42
-0.019747
 10
7.707318
 20
234.538838
 42
-0.020074
 10
7.604485
 20
234.923411
 42
-0.017758
 10
7.527945
 20
235.331
 42
-0.00739
 10
7.470602
 20
235.752132
 42
-0.058831
 10
7.470008
 20
235.948113
 42
-0.660907
 10
7.512806
 20
235.960805
 42
-0.074029
  0
LWPOLYLINE
  5
492
330
1D
100
AcDbEntity
  8
0
100
AcDbPolyline
 90
       20
 70
     1
 43
0.0
 10
8.203588
 20
233.68
 42
-0.28568
 10
8.26966
 20
233.638894
 42
-0.008531
 10
8.414581
 20
233.331591
 42
-0.014562
 10
8.57404
 20
232.94855
 42
-0.00924
 10
8.738383
 20
232.493926
 42
-0.01128
 10
8.884619
 20
232.030777
 42
-0.017079
 10
8.988803
 20
231.62126
 42
-0.011912
 10
9.053962
 20
231.28453
 42
-0.242788
 10
9.023366
 20
231.188699
 42
-0.410699
 10
8.960117
 20
231.188319
 42
-0.051359
 10
8.86311
 20
231.304717
 42
-0.037283
 10
8.753033
 20
231.498035
 42
-0.019945
 10
8.645134
 20
231.750975
 42
-0.008363
 10
8.534518
 20
232.057244
 42
-0.005395
 10
8.416169
 20
232.415475
 42
-0.005422
 10
8.307991
 20
232.768373
 42
-0.010175
 10
8.229492
 20
233.056202
 42
-0.018599
 10
8.178826
 20
233.295425
 42
-0.032515
 10
8.1573
 20
233.496759
 42
-0.037421
 10
8.162167
 20
233.642831
 42
-0.382892
  0
LWPOLYLINE
  5
4A8
330
1D
100
AcDbEntity
  8
0
100
AcDbPolyline
 90
       16
 70
     1
 43
0.0
 10
9.779
 20
229.616
 42
-0.02294
 10
9.917875
 20
229.344921
 42
-0.021314
 10
10.035091
 20
229.055613
 42
-0.021851
 10
10.117007
 20
228.78951
 42
-0.06444
 10
10.141057
 20
228.6
 42
-0.378296
 10
10.099942
 20
228.553665
 42
-0.262474
 10
10.031394
 20
228.581976
 42
-0.049215
 10
9.912339
 20
228.768784
 42
-0.014865
 10
9.769058
 20
229.073662
 42
-0.007198
 10
9.627595
 20
229.412776
 42
-0.009622
 10
9.509642
 20
229.72466
 42
-0.007183
 10
9.420267
 20
229.987336
 42
-0.092594
 10
9.407001
 20
230.089662
 42
-0.622512
 10
9.438094
 20
230.102861
 42
-0.048256
 10
9.519988
 20
230.017076
 42
-0.025352
 10
9.638857
 20
229.848821
 42
-0.011264
  0
LWPOLYLINE
  5
4BA
330
1D
100
AcDbEntity
  8
0
100
AcDbPolyline
 90
       36
 70
     1
 43
0.0
 10
82.169
 20
217.016494
 42
-0.022277
 10
82.80473
 20
216.930276
 42
-0.021819
 10
83.434756
 20
216.78742
 42
-0.022617
 10
83.978946
 20
216.612001
 42
-0.065408
 10
84.328
 20
216.426855
 42
-0.077423
 10
84.681673
 20
216.081944
 42
-0.092682
 10
84.88731
 20
215.665392
 42
-0.045195
 10
85.011664
 20
214.994969
 42
-0.006321
 10
85.12507
 20
213.588067
 42
-0.0136
 10
85.190418
 20
211.979112
 42
-0.000805
 10
85.247883
 20
207.102608
 42
-0.001214
 10
85.29287
 20
201.29444
 42
-0.000894
 10
85.31557
 20
194.861962
 10
85.344
 20
178.522923
 10
84.57255
 20
177.751473
 42
-0.030375
 10
84.069453
 20
177.306052
 42
-0.099111
 10
83.674056
 20
177.107011
 42
-0.072012
 10
83.166376
 20
177.043216
 42
-0.011205
 10
82.152859
 20
177.084976
 42
-0.014752
 10
81.261424
 20
177.168201
 42
-0.04984
 10
80.691542
 20
177.296951
 42
-0.068021
 10
80.257649
 20
177.510639
 42
-0.048023
 10
79.837771
 20
177.856774
 10
79.170925
 20
178.523621
 10
79.050694
 20
196.82851
 42
-0.000778
 10
79.005243
 20
205.895573
 42
-0.003275
 10
79.022078
 20
211.337427
 42
-0.002127
 10
79.074365
 20
215.09933
 42
-0.093911
 10
79.234311
 20
215.866952
 42
-0.043924
 10
79.391282
 20
216.168103
 42
-0.033827
 10
79.611471
 20
216.466379
 42
-0.034729
 10
79.857549
 20
216.718652
 42
-0.066197
 10
80.091579
 20
216.877458
 42
-0.076653
 10
80.409924
 20
216.97978
 42
-0.022793
 10
80.919084
 20
217.037255
 42
-0.021472
 10
81.52486
 20
217.05173
 42
-0.017803
  0
LWPOLYLINE
  5
4E0
330
1D
100
AcDbEntity
  8
0
100
AcDbPolyline
 90
       40
 70
     1
 43
0.0
 10
94.283336
 20
217.138208
 42
-0.070507
 10
94.603795
 20
217.10788
 42
-0.03979
 10
94.975721
 20
216.986821
 42
-0.037814
 10
95.350206
 20
216.796685
 42
-0.04125
 10
95.680336
 20
216.557066
 10
96.393
 20
215.944133
 10
96.461356
 20
197.372441
 42
-0.000845
 10
96.478598
 20
188.710289
 42
-0.002837
 10
96.448113
 20
183.037233
 42
-0.001109
 10
96.392248
 20
178.826484
 42
-0.119543
 10
96.250411
 20
178.278872
 42
-0.073768
 10
96.082853
 20
178.053196
 42
-0.031658
 10
95.800413
 20
177.804693
 42
-0.030463
 10
95.460582
 20
177.573514
 42
-0.035185
 10
95.110713
 20
177.397497
 42
-0.033523
 10
94.706499
 20
177.259604
 42
-0.018619
 10
94.198506
 20
177.143602
 42
-0.0185
 10
93.673205
 20
177.064063
 42
-0.028327
 10
93.213545
 20
177.038
 42
-0.030614
 10
92.763083
 20
177.065606
 42
-0.022081
 10
92.26648
 20
177.1491
 42
-0.022421
 10
91.799705
 20
177.271057
 42
-0.044242
 10
91.445387
 20
177.416214
 42
-0.036929
 10
91.15618
 20
177.593957
 42
-0.035336
 10
90.891698
 20
177.814718
 42
-0.03742
 10
90.687068
 20
178.043466
 42
-0.095152
 10
90.587541
 20
178.241714
 42
-0.06607
 10
90.535075
 20
178.604594
 42
-0.000155
 10
90.47413
 20
183.983291
 42
-0.001014
 10
90.419607
 20
190.046274
 42
-0.000631
 10
90.379041
 20
197.159403
 10
90.297
 20
215.629805
 10
90.856944
 20
216.190791
 42
-0.06202
 10
91.149119
 20
216.418697
 42
-0.029522
 10
91.572902
 20
216.639075
 42
-0.028713
 10
92.049155
 20
216.820026
 42
-0.036161
 10
92.507944
 20
216.929096
 42
-0.006063
 10
92.975805
 20
216.999322
 42
-0.004904
 10
93.479526
 20
217.063667
 42
-0.004958
 10
93.945452
 20
217.113866
 42
-0.012747
  0
LWPOLYLINE
  5
50A
330
1D
100
AcDbEntity
  8
0
100
AcDbPolyline
 90
       40
 70
     1
 43
0.0
 10
82.4865
 20
169.9099
 42
-0.013933
 10
83.312907
 20
169.895252
 42
-0.045716
 10
83.853263
 20
169.820782
 42
-0.067873
 10
84.24553
 20
169.6714
 42
-0.071622
 10
84.575539
 20
169.424461
 42
-0.036559
 10
84.777842
 20
169.190194
 42
-0.025765
 10
84.970866
 20
168.900473
 42
-0.026124
 10
85.127475
 20
168.602535
 42
-0.048568
 10
85.217043
 20
168.344961
 42
-0.058301
 10
85.273201
 20
167.883586
 42
-0.000229
 10
85.295329
 20
162.610027
 42
-0.001166
 10
85.303742
 20
156.626394
 42
-0.000733
 10
85.287003
 20
149.633385
 10
85.217
 20
131.499771
 10
84.549032
 20
131.001087
 42
-0.061159
 10
84.156365
 20
130.776712
 42
-0.032988
 10
83.628685
 20
130.59537
 42
-0.028063
 10
82.981399
 20
130.458115
 42
-0.018188
 10
82.221036
 20
130.369153
 42
-0.010445
 10
81.223171
 20
130.310002
 42
-0.065209
 10
80.714717
 20
130.356869
 42
-0.100023
 10
80.335842
 20
130.526761
 42
-0.041144
 10
79.904504
 20
130.892405
 10
79.248
 20
131.548909
 10
79.219827
 20
148.387955
 42
-0.000305
 10
79.212837
 20
154.968674
 42
-0.000438
 10
79.215312
 20
160.802818
 42
-0.000233
 10
79.224036
 20
165.743314
 42
-0.006803
 10
79.24402
 20
167.005
 42
-0.014191
 10
79.284897
 20
167.711131
 42
-0.017774
 10
79.364573
 20
168.362324
 42
-0.016122
 10
79.46697
 20
168.896102
 42
-0.117155
 10
79.580875
 20
169.128913
 42
-0.045685
 10
79.726809
 20
169.276556
 42
-0.023461
 10
79.93361
 20
169.434751
 42
-0.023106
 10
80.163478
 20
169.578831
 42
-0.032157
 10
80.382182
 20
169.684313
 42
-0.057514
 10
80.679127
 20
169.766559
 42
-0.012127
 10
81.213513
 20
169.836992
 42
-0.012554
 10
81.840832
 20
169.888351
 42
-0.011611
  0
LWPOLYLINE
  5
534
330
1D
100
AcDbEntity
  8
0
100
AcDbPolyline
 90
       30
 70
     1
 43
0.0
 10
93.352993
 20
169.926
 42
-0.01236
 10
94.340242
 20
169.901591
 42
-0.06201
 10
94.883772
 20
169.806443
 42
-0.085896
 10
95.301172
 20
169.595189
 42
-0.03639
 10
95.777538
 20
169.183538
 10
96.52
 20
168.441077
 10
96.52
 20
149.889433
 10
96.52
 20
131.337789
 10
95.964105
 20
130.819895
 42
-0.061776
 10
95.624868
 20
130.574299
 42
-0.059788
 10
95.232218
 20
130.415738
 42
-0.04637
 10
94.731422
 20
130.3289
 42
-0.019758
 10
94.050947
 20
130.302
 42
-0.023065
 10
93.466664
 20
130.328967
 42
-0.017732
 10
92.833158
 20
130.41031
 42
-0.018047
 10
92.245185
 20
130.52904
 42
-0.040131
 10
91.811226
 20
130.670714
 42
-0.043322
 10
91.439996
 20
130.8651
 42
-0.042343
 10
91.104757
 20
131.121856
 42
-0.044939
 10
90.838915
 20
131.4114
 42
-0.072529
 10
90.676384
 20
131.70325
 42
-0.086936
 10
90.560652
 20
132.305391
 42
-0.00076
 10
90.490704
 20
136.990203
 42
-0.00233
 10
90.439768
 20
142.811626
 42
-0.001022
 10
90.424
 20
150.523081
 10
90.424
 20
168.679091
 10
91.047455
 20
169.302545
 42
-0.050729
 10
91.451412
 20
169.63191
 42
-0.079808
 10
91.858661
 20
169.815428
 42
-0.053697
 10
92.410377
 20
169.902658
 42
-0.01238
  0
LWPOLYLINE
  5
554
330
1D
100
AcDbEntity
  8
0
100
AcDbPolyline
 90
       62
 70
     1
 43
0.0
 10
66.186224
 20
167.121839
 42
-0.031878
 10
66.72168
 20
167.09294
 42
-0.063809
 10
67.132126
 20
166.990276
 42
-0.068608
 10
67.484189
 20
166.793556
 42
-0.042521
 10
67.837224
 20
166.47664
 10
68.453
 20
165.82128
 10
68.522555
 20
146.325593
 42
-0.000394
 10
68.55717
 20
133.871119
 42
-0.005635
 10
68.515982
 20
129.432262
 42
-0.010709
 10
68.414477
 20
127.014899
 42
-0.152009
 10
68.10929
 20
126.216452
 42
-0.059697
 10
67.786437
 20
125.89402
 42
-0.009155
 10
67.06101
 20
125.345765
 42
-0.01012
 10
66.175933
 20
124.728966
 42
-0.008626
 10
65.21868
 20
124.113853
 42
0.012147
 10
64.114589
 20
123.393352
 42
0.006344
 10
62.773127
 20
122.445434
 42
0.006305
 10
61.420863
 20
121.437651
 42
0.00959
 10
60.274545
 20
120.525275
 42
0.011415
 10
59.168893
 20
119.566722
 42
0.007544
 10
57.941097
 20
118.417915
 42
0.007594
 10
56.780867
 20
117.264507
 42
0.014585
 10
55.892567
 20
116.299422
 42
0.008285
 10
55.068319
 20
115.317368
 42
0.004847
 10
54.112195
 20
114.115454
 42
0.004846
 10
53.178518
 20
112.893881
 42
0.008203
 10
52.423469
 20
111.850676
 42
-0.007892
 10
51.772321
 20
110.949846
 42
-0.010956
 10
51.158875
 20
110.165245
 42
-0.007669
 10
50.625773
 20
109.533387
 42
-0.122666
 10
50.398228
 20
109.374176
 42
-0.042147
 10
50.193487
 20
109.314822
 42
-0.015791
 10
49.898459
 20
109.265289
 42
-0.015514
 10
49.572089
 20
109.231311
 42
-0.018179
 10
49.261081
 20
109.22
 42
-0.056347
 10
48.899675
 20
109.260858
 42
-0.075171
 10
48.592787
 20
109.381731
 42
-0.071344
 10
48.323867
 20
109.593784
 42
-0.045162
 10
48.075355
 20
109.907218
 42
-0.134809
 10
47.788951
 20
110.794863
 42
-0.005824
 10
47.681763
 20
114.095952
 42
-0.004146
 10
47.60918
 20
119.893626
 42
-0.00035
 10
47.556488
 20
134.836153
 42
-0.000415
 10
47.528681
 20
148.768496
 42
-0.003487
 10
47.565212
 20
155.057793
 42
-0.003092
 10
47.638328
 20
158.912279
 42
-0.139619
 10
47.873892
 20
159.666852
 42
-0.102356
 10
48.191059
 20
159.984881
 42
-0.011619
 10
49.056633
 20
160.526968
 42
-0.013081
 10
50.167137
 20
161.14831
 42
-0.008588
 10
51.475924
 20
161.807839
 42
-0.003433
 10
52.848523
 20
162.458635
 42
-0.002874
 10
54.313502
 20
163.130732
 42
-0.0029
 10
55.659792
 20
163.729655
 42
-0.00795
 10
56.619519
 20
164.131896
 42
-0.006652
 10
57.58573
 20
164.504075
 42
-0.002488
 10
58.950765
 20
165.00142
 42
-0.002464
 10
60.443536
 20
165.528616
 42
-0.002986
 10
61.849
 20
166.007814
 42
-0.008315
 10
63.189096
 20
166.431169
 42
-0.009487
 10
64.485135
 20
166.790403
 42
-0.008758
 10
65.59373
 20
167.05454
 42
-0.051689
  0
LWPOLYLINE
  5
594
330
1D
100
AcDbEntity
  8
0
100
AcDbPolyline
 90
       68
 70
     1
 43
0.0
 10
109.332965
 20
167.132
 42
-0.043738
 10
109.898016
 20
167.082477
 42
-0.010631
 10
110.817447
 20
166.899828
 42
-0.01082
 10
111.866647
 20
166.644181
 42
-0.01058
 10
112.911727
 20
166.341626
 42
-0.005866
 10
114.088073
 20
165.958716
 42
-0.003029
 10
115.550678
 20
165.45368
 42
-0.00301
 10
117.048551
 20
164.916131
 42
-0.004557
 10
118.344685
 20
164.428716
 42
-0.007301
 10
119.678674
 20
163.890624
 42
-0.003976
 10
121.301319
 20
163.193147
 42
-0.003961
 10
122.940192
 20
162.457658
 42
-0.006273
 10
124.331262
 20
161.79885
 42
-0.007294
 10
125.547503
 20
161.181901
 42
-0.009225
 10
126.652495
 20
160.574688
 42
-0.007584
 10
127.557601
 20
160.036939
 42
-0.071096
 10
127.905206
 20
159.748167
 42
-0.172445
 10
128.227637
 20
158.972824
 42
-0.007498
 10
128.339682
 20
155.992262
 42
-0.004634
 10
128.411831
 20
150.572529
 42
-0.000305
 10
128.465512
 20
134.937473
 42
-0.000415
 10
128.493328
 20
120.988288
 42
-0.003484
 10
128.456793
 20
114.693447
 42
-0.00309
 10
128.383672
 20
110.835904
 42
-0.139623
 10
128.148012
 20
110.081002
 42
-0.034029
 10
127.96147
 20
109.834633
 42
-0.023432
 10
127.719397
 20
109.581444
 42
-0.023697
 10
127.462265
 20
109.358819
 42
-0.043732
 10
127.230955
 20
109.207667
 42
-0.053344
 10
126.940391
 20
109.089988
 42
-0.071896
 10
126.659616
 20
109.051944
 42
-0.063678
 10
126.354446
 20
109.093721
 42
-0.032377
 10
125.987142
 20
109.218698
 42
-0.092207
 10
125.594405
 20
109.4741
 42
-0.019533
 10
125.022709
 20
110.062208
 42
-0.018114
 10
124.356634
 20
110.85951
 42
-0.011115
 10
123.627833
 20
111.843468
 42
0.007485
 10
122.882943
 20
112.864561
 42
0.005036
 10
122.003257
 20
114.0091
 42
0.005072
 10
121.129363
 20
115.099742
 42
0.010013
 10
120.409525
 20
115.944574
 42
0.009743
 10
119.66099
 20
116.75586
 42
0.005072
 10
118.697782
 20
117.739667
 42
0.005041
 10
117.688228
 20
118.729932
 42
0.007664
 10
116.789476
 20
119.567787
 42
0.007362
 10
115.888933
 20
120.358094
 42
0.005526
 10
114.875645
 20
121.202124
 42
0.005588
 10
113.904321
 20
121.975288
 42
0.012757
 10
113.150618
 20
122.531317
 42
0.00622
 10
112.410966
 20
123.034789
 42
0.003422
 10
111.494225
 20
123.633268
 42
0.00341
 10
110.555743
 20
124.227813
 42
0.005455
 10
109.74541
 20
124.721261
 42
-0.013163
 10
109.028095
 20
125.173369
 42
-0.015424
 10
108.373383
 20
125.640334
 42
-0.014439
 10
107.847439
 20
126.065016
 42
-0.08569
 10
107.622889
 20
126.336157
 42
-0.125452
 10
107.455512
 20
126.93831
 42
-0.001557
 10
107.381237
 20
130.973006
 42
-0.003108
 10
107.328908
 20
136.738662
 42
-0.000715
 10
107.315
 20
146.467706
 42
-0.000392
 10
107.324803
 20
158.978346
 42
-0.005617
 10
107.381801
 20
163.43106
 42
-0.010086
 10
107.48947
 20
165.865229
 42
-0.16936
 10
107.798867
 20
166.597206
 42
-0.062095
 10
108.082106
 20
166.841309
 42
-0.063048
 10
108.415209
 20
167.006909
 42
-0.053933
 10
108.823006
 20
167.10139
 42
-0.029986
  0
LWPOLYLINE
  5
5DA
330
1D
100
AcDbEntity
  8
0
100
AcDbPolyline
 90
       70
 70
     1
 43
0.0
 10
29.245361
 20
145.0179
 42
-0.081531
 10
29.443553
 20
144.993187
 42
-0.032769
 10
29.700589
 20
144.898699
 42
-0.031343
 10
29.969729
 20
144.758426
 42
-0.034456
 10
30.210396
 20
144.5895
 42
-0.068341
 10
30.437683
 20
144.3472
 42
-0.031078
 10
30.667048
 20
143.977122
 42
-0.030052
 10
30.864017
 20
143.550584
 42
-0.036227
 10
30.994476
 20
143.129
 42
-0.054248
 10
31.094436
 20
142.295032
 42
-0.0004
 10
31.164828
 20
135.327847
 42
-0.001451
 10
31.2173
 20
127.132449
 42
-0.000815
 10
31.23594
 20
117.175935
 10
31.242
 20
92.238871
 10
30.572746
 20
91.712435
 42
-0.12873
 10
29.839623
 20
91.393392
 42
-0.027864
 10
28.452746
 20
91.256062
 42
-0.01007
 10
25.830479
 20
91.196144
 42
-0.000677
 10
18.333617
 20
91.186
 42
-0.000625
 10
10.663319
 20
91.195582
 42
-0.010724
 10
8.150871
 20
91.255758
 42
-0.03242
 10
6.851758
 20
91.399519
 42
-0.14581
 10
6.175871
 20
91.738276
 42
-0.059047
 10
5.868955
 20
92.103658
 42
-0.080995
 10
5.694575
 20
92.495137
 42
-0.052313
 10
5.610506
 20
93.040719
 42
-0.01209
 10
5.588
 20
93.971326
 42
-0.015441
 10
5.614292
 20
94.822501
 42
-0.005322
 10
5.703369
 20
96.050624
 42
-0.005283
 10
5.830378
 20
97.403398
 42
-0.006102
 10
5.980744
 20
98.68955
 42
-0.005992
 10
6.177718
 20
100.081547
 42
-0.00337
 10
6.448509
 20
101.76709
 42
-0.003362
 10
6.744856
 20
103.465381
 42
-0.005489
 10
7.021624
 20
104.900927
 42
-0.006297
 10
7.333775
 20
106.337031
 42
-0.003756
 10
7.739514
 20
108.038178
 42
-0.003759
 10
8.169263
 20
109.727105
 42
-0.006498
 10
8.555357
 20
111.123927
 42
-0.006389
 10
8.977724
 20
112.511671
 42
-0.003678
 10
9.520033
 20
114.172685
 42
-0.003674
 10
10.089308
 20
115.833134
 42
-0.006132
 10
10.595757
 20
117.221
 42
-0.006513
 10
11.143041
 20
118.6106
 42
-0.003695
 10
11.839815
 20
120.27904
 42
-0.003688
 10
12.566856
 20
121.950131
 42
-0.006069
 10
13.209208
 20
123.35118
 42
-0.006142
 10
13.874675
 20
124.713792
 42
-0.004056
 10
14.671347
 20
126.264054
 42
-0.004081
 10
15.470566
 20
127.758922
 42
-0.007889
 10
16.138392
 20
128.93918
 42
-0.004873
 10
16.825166
 20
130.08375
 42
-0.00273
 10
17.681338
 20
131.462669
 42
-0.002723
 10
18.56178
 20
132.846763
 42
-0.004432
 10
19.325967
 20
134.010972
 42
-0.006833
 10
20.128179
 20
135.175074
 42
-0.003889
 10
21.12825
 20
136.561685
 42
-0.003883
 10
22.157116
 20
137.942467
 42
-0.006408
 10
23.050242
 20
139.090972
 42
-0.003662
 10
23.918649
 20
140.162445
 42
-0.002938
 10
24.868548
 20
141.303343
 42
-0.002969
 10
25.759353
 20
142.347919
 42
-0.007555
 10
26.421546
 20
143.09211
 42
-0.010935
 10
26.982044
 20
143.67696
 42
-0.012905
 10
27.538166
 20
144.204447
 42
-0.011812
 10
28.027051
 20
144.624274
 42
-0.07542
 10
28.307307
 20
144.79051
 42
-0.021119
 10
28.537501
 20
144.872608
 42
-0.015634
 10
28.798059
 20
144.944463
 42
-0.015863
 10
29.04881
 20
144.996886
 42
-0.033944
  0
LWPOLYLINE
  5
622
330
1D
100
AcDbEntity
  8
0
100
AcDbPolyline
 90
       76
 70
     1
 43
0.0
 10
146.812
 20
145.02405
 42
-0.078932
 10
147.008527
 20
144.997074
 42
-0.021545
 10
147.304965
 20
144.893202
 42
-0.021228
 10
147.635405
 20
144.744619
 42
-0.020656
 10
147.955157
 20
144.567305
 42
-0.053199
 10
148.373106
 20
144.246983
 42
-0.00782
 10
149.135333
 20
143.499159
 42
-0.008754
 10
150.010003
 20
142.58218
 42
-0.007419
 10
150.902512
 20
141.583754
 42
-0.006217
 10
151.884351
 20
140.4232
 42
-0.003619
 10
153.034967
 20
139.00759
 42
-0.003617
 10
154.16735
 20
137.572471
 42
-0.006102
 10
155.093355
 20
136.350807
 42
-0.005752
 10
155.980154
 20
135.121379
 42
-0.003609
 10
156.990205
 20
133.66434
 42
-0.003622
 10
157.96389
 20
132.215449
 42
-0.006608
 10
158.734278
 20
131.016807
 42
-0.007254
 10
159.483027
 20
129.777603
 42
-0.003672
 10
160.391744
 20
128.196606
 42
-0.003646
 10
161.306255
 20
126.550215
 42
-0.005426
 10
162.080366
 20
125.095
 42
-0.004864
 10
162.804498
 20
123.663445
 42
-0.003771
 10
163.565867
 20
122.09145
 42
-0.003813
 10
164.254035
 20
120.613878
 42
-0.009174
 10
164.734978
 20
119.507
 42
-0.006466
 10
165.175114
 20
118.400592
 42
-0.002872
 10
165.728219
 20
116.930863
 42
-0.002842
 10
166.296116
 20
115.367867
 42
-0.003836
 10
166.790885
 20
113.947299
 42
-0.00493
 10
167.2616
 20
112.515454
 42
-0.003614
 10
167.756641
 20
110.918117
 42
-0.003651
 10
168.203428
 20
109.398752
 42
-0.008086
 10
168.516888
 20
108.232299
 42
-0.004833
 10
168.788708
 20
107.105402
 42
-0.002675
 10
169.099886
 20
105.7247
 42
-0.002667
 10
169.400229
 20
104.322381
 42
-0.004294
 10
169.639494
 20
103.124
 42
-0.007822
 10
169.863208
 20
101.842525
 42
-0.003558
 10
170.117577
 20
100.160313
 42
-0.003522
 10
170.360674
 20
98.382749
 42
-0.004829
 10
170.552654
 20
96.78
 42
-0.005747
 10
170.696245
 20
95.320389
 42
-0.007404
 10
170.792865
 20
93.976265
 42
-0.005809
 10
170.84388
 20
92.851721
 42
-0.062562
 10
170.80244
 20
92.398816
 42
-0.05265
 10
170.703371
 20
92.101266
 42
-0.036402
 10
170.533289
 20
91.789474
 42
-0.036752
 10
170.323185
 20
91.510569
 42
-0.060245
 10
170.103371
 20
91.313316
 42
-0.136159
 10
169.488827
 20
91.095681
 42
-0.00935
 10
167.628703
 20
91.000723
 42
-0.007052
 10
164.557045
 20
90.944808
 42
-0.001024
 10
158.304325
 20
90.932
 42
-0.001207
 10
152.408906
 20
90.946236
 42
-0.006097
 10
149.117659
 20
91.002271
 42
-0.007693
 10
147.02189
 20
91.095815
 42
-0.084145
 10
146.203214
 20
91.285678
 42
-0.045531
 10
145.810969
 20
91.493276
 42
-0.056939
 10
145.493929
 20
91.755757
 42
-0.057939
 10
145.248384
 20
92.078916
 42
-0.049687
 10
145.068372
 20
92.46658
 42
-0.080427
 10
144.919098
 20
93.311245
 42
-0.000989
 10
144.850243
 20
98.848889
 42
-0.002181
 10
144.803905
 20
106.453291
 42
-0.000611
 10
144.797852
 20
118.338403
 42
-0.000693
 10
144.818067
 20
127.974067
 42
-0.001123
 10
144.864989
 20
136.164807
 42
-0.000139
 10
144.925215
 20
143.462643
 42
-0.091794
 10
145.001332
 20
143.855025
 42
-0.068493
 10
145.116739
 20
144.060646
 42
-0.032943
 10
145.315149
 20
144.289583
 42
-0.031899
 10
145.557237
 20
144.504958
 42
-0.039406
 10
145.808979
 20
144.671525
 42
-0.021964
 10
146.075086
 20
144.803975
 42
-0.019986
 10
146.3602
 20
144.917175
 42
-0.02045
 10
146.623268
 20
144.997711
 42
-0.058833
  0
LWPOLYLINE
  5
670
330
1D
100
AcDbEntity
  8
0
100
AcDbPolyline
 90
       36
 70
     1
 43
0.0
 10
77.799045
 20
124.199505
 42
-0.065923
 10
78.12872
 20
124.158914
 42
-0.044822
 10
78.485084
 20
124.031349
 42
-0.042824
 10
78.83163
 20
123.833422
 42
-0.045249
 10
79.132545
 20
123.582545
 10
79.756
 20
122.959091
 10
79.756
 20
107.580545
 42
-0.000484
 10
79.746346
 20
97.607363
 42
-0.007508
 10
79.688305
 20
94.183623
 42
-0.017139
 10
79.567878
 20
92.368283
 42
-0.172913
 10
79.248
 20
91.694
 42
-0.116514
 10
78.786006
 20
91.408573
 42
-0.056158
 10
78.101378
 20
91.263196
 42
-0.022001
 10
76.891344
 20
91.19895
 42
-0.002262
 10
74.029455
 20
91.186
 42
-0.001924
 10
70.947484
 20
91.197862
 42
-0.027171
 10
69.845378
 20
91.266309
 42
-0.080234
 10
69.215917
 20
91.444917
 42
-0.08742
 10
68.695455
 20
91.809455
 10
68.072
 20
92.432909
 10
68.072
 20
105.976938
 42
-0.000775
 10
68.084067
 20
113.757589
 42
-0.006315
 10
68.140058
 20
117.316354
 42
-0.008779
 10
68.236745
 20
119.420456
 42
-0.137745
 10
68.472465
 20
120.09271
 42
-0.084435
 10
68.755848
 20
120.379466
 42
-0.013093
 10
69.418615
 20
120.829644
 42
-0.014275
 10
70.237132
 20
121.32243
 42
-0.011987
 10
71.131047
 20
121.798548
 42
-0.008758
 10
72.130663
 20
122.27885
 42
-0.006187
 10
73.269256
 20
122.784619
 42
-0.006246
 10
74.369943
 20
123.241131
 42
-0.013086
 10
75.239082
 20
123.562827
 42
-0.010257
 10
75.999397
 20
123.804543
 42
-0.010885
 10
76.754162
 20
124.009802
 42
-0.010544
 10
77.410484
 20
124.158412
 42
-0.048147
  0
LWPOLYLINE
  5
696
330
1D
100
AcDbEntity
  8
0
100
AcDbPolyline
 90
       46
 70
     1
 43
0.0
 10
97.997706
 20
124.206
 42
-0.050536
 10
98.290029
 20
124.176379
 42
-0.007705
 10
98.862878
 20
124.049851
 42
-0.008556
 10
99.536368
 20
123.877949
 42
-0.00732
 10
100.239745
 20
123.674429
 42
-0.016553
 10
101.087641
 20
123.384575
 42
-0.006574
 10
102.232202
 20
122.933191
 42
-0.006497
 10
103.455795
 20
122.413284
 42
-0.008111
 10
104.57741
 20
121.897526
 42
-0.008563
 10
105.866166
 20
121.252016
 42
-0.026995
 10
106.697194
 20
120.758998
 42
-0.040835
 10
107.23844
 20
120.329266
 42
-0.085424
 10
107.56191
 20
119.90171
 42
-0.104372
 10
107.783696
 20
119.09802
 42
-0.008475
 10
107.881115
 20
116.901235
 42
-0.005996
 10
107.937269
 20
113.249356
 42
-0.000846
 10
107.95
 20
105.724508
 42
-0.00056
 10
107.940222
 20
96.997014
 42
-0.008695
 10
107.881422
 20
94.002113
 42
-0.022181
 10
107.752983
 20
92.427254
 42
-0.157354
 10
107.432105
 20
91.741895
 42
-0.024143
 10
107.211244
 20
91.526661
 42
-0.026051
 10
106.975983
 20
91.339459
 42
-0.026788
 10
106.758966
 20
91.201434
 42
-0.101468
 10
106.606605
 20
91.152517
 42
-0.027052
 10
106.377155
 20
91.140038
 42
-0.000464
 10
105.120947
 20
91.1409
 42
-0.001181
 10
103.658021
 20
91.146719
 42
-0.000786
 10
101.981
 20
91.159988
 42
-0.002853
 10
100.294321
 20
91.185611
 42
-0.004098
 10
98.800761
 20
91.229076
 42
-0.002228
 10
97.539727
 20
91.281749
 42
-0.063096
 10
97.21823
 20
91.337673
 42
-0.074712
 10
97.026472
 20
91.429688
 42
-0.038237
 10
96.817324
 20
91.596404
 42
-0.036925
 10
96.623851
 20
91.805101
 42
-0.045619
 10
96.478013
 20
92.026454
 42
-0.114957
 10
96.32485
 20
92.596496
 42
-0.001859
 10
96.225017
 20
95.938896
 42
-0.003616
 10
96.138031
 20
100.538169
 42
-0.001053
 10
96.070201
 20
107.622709
 10
95.957837
 20
122.666914
 10
96.72738
 20
123.436457
 42
-0.029454
 10
97.058795
 20
123.730968
 42
-0.030748
 10
97.417975
 20
123.979947
 42
-0.032322
 10
97.753152
 20
124.154461
 42
-0.104229
  0
LWPOLYLINE
  5
6C6
330
1D
100
AcDbEntity
  8
0
100
AcDbPolyline
 90
       58
 70
     1
 43
0.0
 10
18.474493
 20
86.0899
 10
29.709986
 20
86.106
 10
30.459212
 20
85.4075
 10
31.208439
 20
84.709
 10
31.28872
 20
59.125834
 10
31.369
 20
33.542668
 10
30.811611
 20
32.985001
 42
-0.053697
 10
30.53566
 20
32.762599
 42
-0.042723
 10
30.197159
 20
32.583925
 42
-0.043025
 10
29.836259
 20
32.466614
 42
-0.057133
 10
29.493615
 20
32.427333
 42
-0.100518
 10
29.017311
 20
32.524065
 42
-0.06199
 10
28.52066
 20
32.811436
 42
-0.034721
 10
27.881853
 20
33.369212
 42
-0.007763
 10
26.876004
 20
34.410529
 42
-0.006236
 10
26.030516
 20
35.336349
 42
-0.003415
 10
25.016405
 20
36.490792
 42
-0.003402
 10
24.002362
 20
37.677398
 42
-0.005419
 10
23.15316
 20
38.707362
 42
-0.009736
 10
22.262308
 20
39.85713
 42
-0.00399
 10
21.096322
 20
41.450481
 42
-0.003946
 10
19.871163
 20
43.181692
 42
-0.005043
 10
18.771273
 20
44.796702
 42
-0.010531
 10
17.644605
 20
46.567129
 42
-0.005783
 10
16.336595
 20
48.77863
 42
-0.005758
 10
15.057948
 20
51.059006
 42
-0.009022
 10
14.01679
 20
53.051702
 42
-0.006415
 10
13.072891
 20
55.002727
 42
-0.004883
 10
12.087402
 20
57.162899
 42
-0.004938
 10
11.203135
 20
59.206571
 42
-0.011527
 10
10.591996
 20
60.757188
 42
-0.005943
 10
10.074086
 20
62.219005
 42
-0.003646
 10
9.496827
 20
63.953303
 42
-0.003654
 10
8.950492
 20
65.67834
 42
-0.006506
 10
8.52971
 20
67.107188
 42
-0.0051
 10
8.14557
 20
68.532927
 42
-0.002994
 10
7.713621
 20
70.246036
 42
-0.002994
 10
7.302194
 20
71.964297
 42
-0.005097
 10
6.981561
 20
73.406
 42
-0.00454
 10
6.698211
 20
74.806953
 42
-0.003154
 10
6.402475
 20
76.394469
 42
-0.00318
 10
6.137862
 20
77.922158
 42
-0.006555
 10
5.954175
 20
79.121
 42
-0.006697
 10
5.817786
 20
80.201751
 42
-0.00565
 10
5.701723
 20
81.348802
 42
-0.005704
 10
5.619601
 20
82.397704
 42
-0.015751
 10
5.593505
 20
83.138198
 42
-0.016616
 10
5.611289
 20
83.740814
 42
-0.017546
 10
5.669107
 20
84.329998
 42
-0.017447
 10
5.754208
 20
84.832385
 42
-0.072302
 10
5.858604
 20
85.121026
 42
-0.054916
 10
6.002594
 20
85.33099
 42
-0.034118
 10
6.212719
 20
85.543801
 42
-0.033962
 10
6.451834
 20
85.727713
 42
-0.051227
 10
6.684104
 20
85.850227
 42
-0.090035
 10
7.124276
 20
85.941026
 42
-0.000879
 10
10.376425
 20
86.012855
 42
-0.002871
 10
14.128027
 20
86.06757
 42
-0.001852
  0
LWPOLYLINE
  5
702
330
1D
100
AcDbEntity
  8
0
100
AcDbPolyline
 90
       48
 70
     1
 43
0.0
 10
74.223068
 20
86.033664
 42
-0.002883
 10
76.736238
 20
85.98864
 42
-0.018778
 10
77.997881
 20
85.911291
 42
-0.037482
 10
78.742125
 20
85.78069
 42
-0.135188
 10
79.156796
 20
85.5447
 42
-0.086371
 10
79.336731
 20
85.288535
 42
-0.025521
 10
79.519243
 20
84.843264
 42
-0.024788
 10
79.676571
 20
84.31296
 42
-0.024373
 10
79.781686
 20
83.7667
 42
-0.031027
 10
79.858624
 20
82.7989
 42
-0.000933
 10
79.921088
 20
78.751331
 42
-0.001849
 10
79.968159
 20
73.981505
 42
-0.001275
 10
79.987713
 20
68.58
 42
-0.001014
 10
79.981029
 20
61.60446
 42
-0.004544
 10
79.931718
 20
57.519958
 42
-0.003636
 10
79.853534
 20
54.770868
 42
-0.108568
 10
79.681322
 20
54.102
 42
-0.049981
 10
79.511793
 20
53.836437
 42
-0.031842
 10
79.266677
 20
53.563477
 42
-0.031853
 10
78.98908
 20
53.324031
 42
-0.050277
 10
78.720794
 20
53.160432
 42
-0.096328
 10
78.264397
 20
53.041434
 42
-0.065898
 10
77.728528
 20
53.078261
 42
-0.032542
 10
76.929087
 20
53.295459
 42
-0.005407
 10
75.426227
 20
53.829035
 42
-0.006128
 10
74.266772
 20
54.271063
 42
-0.004344
 10
72.976458
 20
54.794187
 42
-0.004385
 10
71.752734
 20
55.315372
 42
-0.009266
 10
70.815204
 20
55.74527
 42
-0.009098
 10
70.042141
 20
56.13472
 42
-0.01123
 10
69.336925
 20
56.526707
 42
-0.009705
 10
68.76176
 20
56.878699
 42
-0.077456
 10
68.529204
 20
57.083986
 42
-0.164085
 10
68.344889
 20
57.56242
 42
-0.003367
 10
68.251882
 20
60.16539
 42
-0.004916
 10
68.177465
 20
64.051261
 42
-0.000989
 10
68.126709
 20
70.968319
 42
-0.001139
 10
68.106864
 20
77.407518
 42
-0.004113
 10
68.137309
 20
81.509455
 42
-0.002426
 10
68.19733
 20
84.436735
 42
-0.116988
 10
68.346305
 20
85.000668
 42
-0.046524
 10
68.497542
 20
85.229418
 42
-0.029739
 10
68.711781
 20
85.465651
 42
-0.029796
 10
68.95159
 20
85.67393
 42
-0.048094
 10
69.180596
 20
85.817333
 42
-0.097935
 10
69.601438
 20
85.932942
 42
-0.007493
 10
70.780997
 20
86.00127
 42
-0.009084
 10
72.308844
 20
86.039029
 42
-0.004672
  0
LWPOLYLINE
  5
734
330
1D
100
AcDbEntity
  8
0
100
AcDbPolyline
 90
       44
 70
     1
 43
0.0
 10
102.191038
 20
86.085947
 10
106.465077
 20
86.106
 10
107.207538
 20
85.363538
 10
107.95
 20
84.621077
 10
107.997575
 20
74.251038
 42
-0.000202
 10
108.015051
 20
70.074138
 42
-0.000234
 10
108.028213
 20
66.099462
 42
-0.000208
 10
108.036378
 20
62.734619
 42
-0.001397
 10
108.035068
 20
61.063172
 42
-0.005569
 10
108.01844
 20
59.933397
 42
-0.006647
 10
107.976752
 20
58.869102
 42
-0.005809
 10
107.91934
 20
57.974135
 42
-0.042582
 10
107.850703
 20
57.550947
 42
-0.119508
 10
107.628413
 20
57.127893
 42
-0.062941
 10
107.180851
 20
56.732651
 42
-0.031936
 10
106.375015
 20
56.256341
 42
-0.005909
 10
104.82871
 20
55.493758
 42
-0.008792
 10
103.597378
 20
54.930885
 42
-0.007028
 10
102.251849
 20
54.36656
 42
-0.007112
 10
100.991527
 20
53.879401
 42
-0.017815
 10
100.055328
 20
53.570197
 42
-0.014019
 10
99.249482
 20
53.359847
 42
-0.017926
 10
98.496372
 20
53.213878
 42
-0.018294
 10
97.864838
 20
53.138359
 42
-0.082269
 10
97.495373
 20
53.168625
 42
-0.072136
 10
97.230721
 20
53.27739
 42
-0.045778
 10
96.960008
 20
53.472887
 42
-0.045115
 10
96.724158
 20
53.719204
 42
-0.061577
 10
96.563546
 20
53.980861
 42
-0.100277
 10
96.40995
 20
54.643897
 42
-0.002244
 10
96.333474
 20
57.930137
 42
-0.003682
 10
96.28073
 20
62.550268
 42
-0.001013
 10
96.266
 20
69.822585
 42
-0.000571
 10
96.276621
 20
79.123436
 42
-0.006562
 10
96.332977
 20
82.780984
 42
-0.010115
 10
96.433536
 20
84.841675
 42
-0.198852
 10
96.7105
 20
85.398489
 42
-0.020859
 10
96.908581
 20
85.557016
 42
-0.016194
 10
97.136347
 20
85.713117
 42
-0.016473
 10
97.358608
 20
85.844993
 42
-0.037571
 10
97.536
 20
85.925803
 42
-0.077457
 10
97.818846
 20
85.982475
 42
-0.002187
 10
99.06058
 20
86.030633
 42
-0.004411
 10
100.52572
 20
86.068099
 42
-0.003013
  0
LWPOLYLINE
  5
762
330
1D
100
AcDbEntity
  8
0
100
AcDbPolyline
 90
       76
 70
     1
 43
0.0
 10
157.48
 20
86.089998
 42
-0.002027
 10
161.590597
 20
86.074846
 42
-0.002951
 10
165.214877
 20
86.025398
 42
-0.001472
 10
168.290083
 20
85.956229
 42
-0.050672
 10
169.00924
 20
85.864629
 42
-0.026685
 10
169.41757
 20
85.746634
 42
-0.023807
 10
169.827258
 20
85.581921
 42
-0.024534
 10
170.181279
 20
85.398094
 42
-0.065196
 10
170.40624
 20
85.224148
 42
-0.111183
 10
170.608128
 20
84.902797
 42
-0.053975
 10
170.720063
 20
84.428213
 42
-0.030839
 10
170.765454
 20
83.698492
 42
-0.007248
 10
170.748286
 20
82.47496
 42
-0.011963
 10
170.689054
 20
81.346746
 42
-0.005221
 10
170.559031
 20
79.852876
 42
-0.005163
 10
170.387892
 20
78.268288
 42
-0.006864
 10
170.197696
 20
76.831811
 42
-0.005597
 10
169.963193
 20
75.346234
 42
-0.00347
 10
169.65622
 20
73.606955
 42
-0.00348
 10
169.329259
 20
71.893902
 42
-0.006269
 10
169.033861
 20
70.494907
 42
-0.008154
 10
168.691882
 20
69.0787
 42
-0.004123
 10
168.217294
 20
67.305337
 42
-0.004093
 10
167.696947
 20
65.481533
 42
-0.006082
 10
167.208894
 20
63.894096
 42
-0.00523
 10
166.696013
 20
62.35107
 42
-0.003934
 10
166.100916
 20
60.664603
 42
-0.003977
 10
165.516111
 20
59.087289
 42
-0.009139
 10
165.044939
 20
57.912
 42
-0.005235
 10
164.559835
 20
56.795962
 42
-0.002773
 10
163.936356
 20
55.422181
 42
-0.002759
 10
163.283051
 20
54.023998
 42
-0.004269
 10
162.7019
 20
52.82449
 42
-0.004092
 10
162.114385
 20
51.661804
 42
-0.002979
 10
161.442832
 20
50.378229
 42
-0.003009
 10
160.791246
 20
49.168317
 42
-0.006607
 10
160.275075
 20
48.25249
 42
-0.006387
 10
159.732897
 20
47.346398
 42
-0.002847
 10
158.996806
 20
46.166263
 42
-0.002818
 10
158.203689
 20
44.926209
 42
-0.003812
 10
157.472039
 20
43.815
 42
-0.005401
 10
156.698142
 20
42.685499
 42
-0.003436
 10
155.774255
 20
41.386919
 42
-0.003451
 10
154.850176
 20
40.125231
 42
-0.006397
 10
154.080009
 20
39.116
 42
-0.010769
 10
153.265206
 20
38.121042
 42
-0.005442
 10
152.198203
 20
36.901041
 42
-0.005402
 10
151.068345
 20
35.664349
 42
-0.008007
 10
150.049476
 20
34.6075
 42
-0.006932
 10
148.881339
 20
33.466113
 42
-0.023808
 10
148.079017
 20
32.773216
 42
-0.03595
 10
147.486246
 20
32.373855
 42
-0.130991
 10
147.051611
 20
32.258
 42
-0.071093
 10
146.761105
 20
32.299516
 42
-0.041629
 10
146.432495
 20
32.425878
 42
-0.040721
 10
146.118186
 20
32.610761
 42
-0.054176
 10
145.869469
 20
32.8295
 42
-0.026324
 10
145.658771
 20
33.085539
 42
-0.020902
 10
145.458265
 20
33.382347
 42
-0.021361
 10
145.295339
 20
33.673886
 42
-0.048517
 10
145.204165
 20
33.909
 42
-0.066228
 10
145.145467
 20
34.323382
 42
-0.000111
 10
145.085739
 20
41.5798
 42
-0.000857
 10
145.034444
 20
49.729374
 42
-0.00053
 10
145.000732
 20
59.309
 42
-0.000752
 10
144.99157
 20
68.894541
 42
-0.00121
 10
145.015806
 20
77.063449
 42
-0.000185
 10
145.057509
 20
84.309491
 42
-0.07926
 10
145.138004
 20
84.794955
 42
-0.082019
 10
145.271599
 20
85.047744
 42
-0.041269
 10
145.513552
 20
85.316838
 42
-0.039535
 10
145.816483
 20
85.560277
 42
-0.04692
 10
146.137743
 20
85.737513
 42
-0.087273
 10
146.908472
 20
85.923074
 42
-0.007773
 10
148.909004
 20
86.016391
 42
-0.006351
 10
152.0202
 20
86.073535
 42
-0.001324
  0
LWPOLYLINE
  5
7B0
330
1D
100
AcDbEntity
  8
0
100
AcDbPolyline
 90
       72
 70
     1
 43
0.0
 10
49.911
 20
67.89132
 42
-0.028809
 10
50.13171
 20
67.818607
 42
-0.019258
 10
50.375242
 20
67.711494
 42
-0.019419
 10
50.604015
 20
67.588967
 42
-0.035718
 10
50.778038
 20
67.469413
 42
-0.055088
 10
51.000511
 20
67.247821
 42
-0.002631
 10
51.655831
 20
66.424144
 42
-0.004284
 10
52.421902
 20
65.433445
 42
-0.003069
 10
53.262086
 20
64.313246
 42
0.010507
 10
54.236719
 20
63.053282
 42
0.006817
 10
55.413516
 20
61.636251
 42
0.006854
 10
56.600994
 20
60.283384
 42
0.012906
 10
57.602048
 20
59.22994
 42
0.010172
 10
58.607197
 20
58.265487
 42
0.006695
 10
59.800564
 20
57.195359
 42
0.006737
 10
60.9902
 20
56.184888
 42
0.012905
 10
61.976
 20
55.412097
 42
0.006938
 10
62.954208
 20
54.706073
 42
0.004385
 10
64.113797
 20
53.90844
 42
0.004402
 10
65.267311
 20
53.144495
 42
0.008088
 10
66.221821
 20
52.546097
 42
-0.008862
 10
67.37944
 20
51.817866
 42
-0.043564
 10
67.985696
 20
51.341176
 42
-0.073781
 10
68.338401
 20
50.896081
 42
-0.06306
 10
68.569904
 20
50.343694
 42
-0.063389
 10
68.691112
 20
49.509547
 42
-0.00106
 10
68.763904
 20
44.834646
 42
-0.002357
 10
68.816092
 20
38.861029
 42
-0.000987
 10
68.832583
 20
30.814035
 42
-0.001047
 10
68.817193
 20
23.185852
 42
-0.002098
 10
68.76713
 20
17.160211
 42
-0.000568
 10
68.698722
 20
12.145929
 42
-0.087357
 10
68.592158
 20
11.588979
 42
-0.050401
 10
68.459531
 20
11.323982
 42
-0.034854
 10
68.260642
 20
11.053727
 42
-0.035215
 10
68.030383
 20
10.818402
 42
-0.058688
 10
67.803199
 20
10.660079
 42
-0.064831
 10
67.477782
 20
10.536879
 42
-0.057348
 10
67.117627
 20
10.494232
 42
-0.043076
 10
66.67272
 20
10.531158
 42
-0.01747
 10
66.07654
 20
10.654395
 42
-0.010596
 10
65.444006
 20
10.822642
 42
-0.002676
 10
64.422752
 20
11.123522
 42
-0.002729
 10
63.259201
 20
11.480043
 42
-0.002753
 10
62.103
 20
11.848227
 42
-0.004594
 10
60.850587
 20
12.267416
 42
-0.002869
 10
59.390994
 20
12.780297
 42
-0.002878
 10
57.958243
 20
13.302324
 42
-0.005229
 10
56.794127
 20
13.747984
 42
-0.007434
 10
55.623973
 20
14.230274
 42
-0.003792
 10
54.168042
 20
14.868954
 42
-0.003766
 10
52.676807
 20
15.550181
 42
-0.005639
 10
51.385786
 20
16.169557
 42
-0.008865
 10
50.250636
 20
16.755243
 42
-0.011524
 10
49.233541
 20
17.333691
 42
-0.00929
 10
48.409115
 20
17.849112
 42
-0.09591
 10
48.122159
 20
18.126557
 42
-0.147648
 10
47.898215
 20
18.807264
 42
-0.002417
 10
47.817862
 20
22.859946
 42
-0.003305
 10
47.763991
 20
29.286687
 42
-0.000443
 10
47.752
 20
42.81615
 42
-0.00034
 10
47.762177
 20
57.761431
 42
-0.004186
 10
47.817686
 20
63.464082
 42
-0.004623
 10
47.907851
 20
66.759818
 42
-0.207284
 10
48.1965
 20
67.364489
 42
-0.021148
 10
48.394583
 20
67.52283
 42
-0.016453
 10
48.622347
 20
67.678371
 42
-0.01674
 10
48.84461
 20
67.809431
 42
-0.038229
 10
49.022
 20
67.889263
 42
-0.057174
 10
49.204369
 20
67.932394
 42
-0.028934
 10
49.440306
 20
67.946607
 42
-0.028302
 10
49.68858
 20
67.933118
 42
-0.037464
  0
LWPOLYLINE
  5
7FA
330
1D
100
AcDbEntity
  8
0
100
AcDbPolyline
 90
       64
 70
     1
 43
0.0
 10
127.322862
 20
67.752426
 42
-0.047371
 10
127.615229
 20
67.619877
 42
-0.034645
 10
127.911655
 20
67.421583
 42
-0.035301
 10
128.168422
 20
67.192067
 42
-0.062709
 10
128.338862
 20
66.965783
 42
-0.125617
 10
128.512193
 20
66.340403
 42
-0.001124
 10
128.601798
 20
61.418313
 42
-0.002581
 10
128.677599
 20
54.394903
 42
-0.000569
 10
128.731712
 20
42.345485
 10
128.812424
 20
18.269971
 10
128.047275
 20
17.555216
 42
-0.04988
 10
127.607915
 20
17.220045
 42
-0.01351
 10
126.849899
 20
16.781002
 42
-0.013535
 10
125.957931
 20
16.326904
 42
-0.013667
 10
125.045564
 20
15.923293
 42
-0.000126
 10
123.969244
 20
15.482233
 42
-0.000056
 10
122.551409
 20
14.901829
 42
-0.000056
 10
121.051105
 20
14.288055
 42
-0.000075
 10
119.695532
 20
13.733905
 42
-0.007481
 10
118.256281
 20
13.170778
 42
-0.004183
 10
116.48961
 20
12.526643
 42
-0.004172
 10
114.692437
 20
11.905206
 42
-0.006768
 10
113.153861
 20
11.4106
 42
-0.007159
 10
111.7303
 20
10.99634
 42
-0.011922
 10
110.518844
 20
10.693424
 42
-0.010069
 10
109.549283
 20
10.495835
 42
-0.110789
 10
109.15533
 20
10.511513
 42
-0.019811
 10
108.909107
 20
10.587698
 42
-0.014256
 10
108.640616
 20
10.691279
 42
-0.014434
 10
108.390473
 20
10.804662
 42
-0.029976
 10
108.204
 20
10.910042
 42
-0.209952
 10
107.993428
 20
11.229632
 42
-0.020265
 10
107.87183
 20
12.173101
 42
-0.013792
 10
107.777984
 20
13.733508
 42
-0.002386
 10
107.696
 20
16.690787
 42
-0.003353
 10
107.64679
 20
19.721034
 42
-0.000783
 10
107.606306
 20
24.803293
 42
-0.000807
 10
107.578326
 20
30.651385
 42
-0.000792
 10
107.569
 20
36.536379
 10
107.569
 20
50.847759
 10
108.204
 20
51.347813
 42
-0.019048
 10
108.584528
 20
51.624664
 42
-0.003151
 10
109.341106
 20
52.125318
 42
-0.003457
 10
110.239209
 20
52.702706
 42
-0.003051
 10
111.183297
 20
53.292434
 42
0.011217
 10
112.248898
 20
53.982512
 42
0.00616
 10
113.523454
 20
54.872252
 42
0.006137
 10
114.795405
 20
55.807522
 42
0.009759
 10
115.857796
 20
56.642
 42
0.013108
 10
116.895293
 20
57.536559
 42
0.007668
 10
118.0926
 20
58.658919
 42
0.007665
 10
119.257042
 20
59.819563
 42
0.012898
 10
120.19344
 20
60.833
 42
0.008412
 10
121.07131
 20
61.868307
 42
0.005445
 10
122.053597
 20
63.09406
 42
0.005474
 10
122.987412
 20
64.31294
 42
0.010312
 10
123.709736
 20
65.320098
 42
-0.010918
 10
124.417026
 20
66.303775
 42
-0.022817
 10
125.01787
 20
67.030523
 42
-0.028311
 10
125.524624
 20
67.529554
 42
-0.099046
 10
125.919795
 20
67.757741
 42
-0.043806
 10
126.258249
 20
67.840087
 42
-0.038743
 10
126.620241
 20
67.866799
 42
-0.038667
 10
126.982778
 20
67.837339
 42
-0.043176
  0
LWPOLYLINE
  5
83C
330
1D
100
AcDbEntity
  8
0
100
AcDbPolyline
 90
       38
 70
     1
 43
0.0
 10
81.895776
 20
46.975664
 42
-0.019168
 10
82.453952
 20
46.948039
 42
-0.01435
 10
83.065489
 20
46.876484
 42
-0.014559
 10
83.638162
 20
46.775648
 42
-0.031894
 10
84.067378
 20
46.658164
 42
-0.04615
 10
84.42893
 20
46.495325
 42
-0.036772
 10
84.784803
 20
46.257603
 42
-0.037974
 10
85.083852
 20
45.985451
 42
-0.072444
 10
85.270133
 20
45.72
 42
-0.110595
 10
85.445706
 20
45.023613
 42
-0.002331
 10
85.52439
 20
41.450169
 42
-0.003532
 10
85.578555
 20
36.186616
 42
-0.000755
 10
85.594256
 20
27.044017
 42
-0.000564
 10
85.584678
 20
16.64672
 42
-0.004749
 10
85.530521
 20
11.957556
 42
-0.005362
 10
85.441038
 20
9.142085
 42
-0.143094
 10
85.202597
 20
8.438517
 42
-0.074618
 10
84.922433
 20
8.143731
 42
-0.096797
 10
84.59057
 20
7.975628
 42
-0.057249
 10
84.095039
 20
7.894895
 42
-0.011783
 10
83.2085
 20
7.874
 42
-0.015571
 10
82.536429
 20
7.894935
 42
-0.013795
 10
81.839123
 20
7.957769
 42
-0.013989
 10
81.214342
 20
8.049278
 42
-0.040527
 10
80.791765
 20
8.15917
 42
-0.048321
 10
80.450704
 20
8.316412
 42
-0.045347
 10
80.138271
 20
8.53908
 42
-0.047839
 10
79.889092
 20
8.798447
 42
-0.076761
 10
79.737862
 20
9.064706
 42
-0.087385
 10
79.63689
 20
9.592591
 42
-0.000511
 10
79.56851
 20
14.604092
 42
-0.002043
 10
79.518127
 20
20.505321
 42
-0.001113
 10
79.502
 20
27.749665
 10
79.502
 20
45.814259
 10
80.054276
 20
46.402129
 42
-0.053443
 10
80.394847
 20
46.694755
 42
-0.07542
 10
80.754126
 20
46.869408
 42
-0.058297
 10
81.215495
 20
46.95597
 42
-0.020033
  0
LWPOLYLINE
  5
864
330
1D
100
AcDbEntity
  8
0
100
AcDbPolyline
 90
       46
 70
     1
 43
0.0
 10
94.309045
 20
46.967092
 42
-0.022978
 10
94.954749
 20
46.949561
 42
-0.060612
 10
95.407916
 20
46.860448
 42
-0.072466
 10
95.778116
 20
46.677068
 42
-0.04523
 10
96.150545
 20
46.366545
 10
96.774
 20
45.743091
 10
96.778907
 20
36.778045
 42
0.001324
 10
96.791908
 20
32.709169
 42
0.000789
 10
96.82785
 20
27.865289
 42
0.000789
 10
96.8789
 20
23.038325
 42
0.001366
 10
96.938629
 20
19.025961
 42
-0.001855
 10
96.997641
 20
14.782871
 42
-0.006285
 10
96.991068
 20
12.013525
 42
-0.006909
 10
96.936348
 20
10.111529
 42
-0.069159
 10
96.793729
 20
9.330779
 42
-0.039146
 10
96.609744
 20
8.891979
 42
-0.067078
 10
96.383013
 20
8.567046
 42
-0.071644
 10
96.089964
 20
8.327848
 42
-0.051568
 10
95.707105
 20
8.148318
 42
-0.039501
 10
95.304203
 20
8.04266
 42
-0.014222
 10
94.717715
 20
7.954581
 42
-0.014004
 10
94.066878
 20
7.894129
 42
-0.016154
 10
93.443992
 20
7.874
 42
-0.015751
 10
92.677955
 20
7.898138
 42
-0.049353
 10
92.17012
 20
7.98094
 42
-0.071032
 10
91.797541
 20
8.139377
 42
-0.069328
 10
91.480727
 20
8.3968
 42
-0.056281
 10
91.282784
 20
8.664005
 42
-0.027739
 10
91.091197
 20
9.041477
 42
-0.027115
 10
90.933681
 20
9.459966
 42
-0.035495
 10
90.838628
 20
9.8573
 42
-0.038412
 10
90.775853
 20
10.576468
 42
-0.000404
 10
90.728312
 20
15.595252
 42
-0.001289
 10
90.693078
 20
21.383695
 42
-0.000837
 10
90.680795
 20
28.073983
 42
-0.000599
 10
90.691051
 20
37.978862
 42
-0.004901
 10
90.745452
 20
42.499267
 42
-0.005554
 10
90.835144
 20
45.220828
 42
-0.142697
 10
91.070382
 20
45.91317
 42
-0.061384
 10
91.279276
 20
46.144896
 42
-0.032905
 10
91.586649
 20
46.377964
 42
-0.032208
 10
91.936419
 20
46.577573
 42
-0.043206
 10
92.276882
 20
46.708779
 42
-0.026962
 10
92.674509
 20
46.80086
 42
-0.011805
 10
93.209654
 20
46.881763
 42
-0.011643
 10
93.783102
 20
46.941124
 42
-0.015266
  0
LWPOLYLINE
  5
894
330
1D
100
AcDbEntity
  8
0
100
AcDbPolyline
 90
       16
 70
     1
 43
0.0
 10
23.209899
 20
37.084
 42
-0.184603
 10
23.263825
 20
37.063388
 42
-0.013803
 10
23.380029
 20
36.953428
 42
-0.017649
 10
23.513877
 20
36.809782
 42
-0.012436
 10
23.654399
 20
36.6395
 42
-0.001576
 10
23.87794
 20
36.352605
 42
-0.377591
 10
23.876
 20
36.322
 42
-0.377591
 10
23.845395
 20
36.32006
 42
-0.001576
 10
23.5585
 20
36.543601
 42
-0.012436
 10
23.388218
 20
36.684123
 42
-0.017649
 10
23.244572
 20
36.817971
 42
-0.013803
 10
23.134612
 20
36.934175
 42
-0.184603
 10
23.114
 20
36.988101
 42
-0.099038
 10
23.121321
 20
37.0247
 42
-0.097945
 10
23.14217
 20
37.05583
 42
-0.097945
 10
23.1733
 20
37.076679
 42
-0.099038
  0
LWPOLYLINE
  5
8A6
330
1D
100
AcDbEntity
  8
0
100
AcDbPolyline
 90
       16
 70
     1
 43
0.0
 10
24.479899
 20
35.56
 42
-0.184603
 10
24.533825
 20
35.539388
 42
-0.013803
 10
24.650029
 20
35.429428
 42
-0.017649
 10
24.783877
 20
35.285782
 42
-0.012436
 10
24.924399
 20
35.1155
 42
-0.001576
 10
25.14794
 20
34.828605
 42
-0.377591
 10
25.146
 20
34.798
 42
-0.377591
 10
25.115395
 20
34.79606
 42
-0.001576
 10
24.8285
 20
35.019601
 42
-0.012436
 10
24.658218
 20
35.160123
 42
-0.017649
 10
24.514572
 20
35.293971
 42
-0.013803
 10
24.404612
 20
35.410175
 42
-0.184603
 10
24.384
 20
35.464101
 42
-0.099038
 10
24.391321
 20
35.5007
 42
-0.097945
 10
24.41217
 20
35.53183
 42
-0.097945
 10
24.4433
 20
35.552679
 42
-0.099038
  0
LWPOLYLINE
  5
8B8
330
1D
100
AcDbEntity
  8
0
100
AcDbPolyline
 90
       16
 70
     1
 43
0.0
 10
27.16301
 20
32.766
 42
-0.093332
 10
27.26569
 20
32.746665
 42
-0.09642
 10
27.352984
 20
32.691388
 42
-0.099167
 10
27.41141
 20
32.608915
 42
-0.105053
 10
27.432
 20
32.512
 42
-0.042167
 10
27.423784
 20
32.414756
 42
-0.061769
 10
27.399097
 20
32.332613
 42
-0.081139
 10
27.362823
 20
32.276913
 42
-0.210953
 10
27.31999
 20
32.258
 42
-0.151918
 10
27.266466
 20
32.274647
 42
-0.038439
 10
27.19477
 20
32.332613
 42
-0.035638
 10
27.119324
 20
32.414775
 42
-0.029505
 10
27.051
 20
32.512
 42
-0.082592
 10
27.011246
 20
32.609053
 42
-0.161196
 10
27.019148
 20
32.691388
 42
-0.182303
 10
27.072854
 20
32.746115
 42
-0.108972
  0
LWPOLYLINE
  5
8CA
330
1D
100
AcDbEntity
  8
0
100
AcDbPolyline
 90
       12
 70
     1
 43
0.0
 10
48.080455
 20
16.87467
 42
-0.036269
 10
48.244946
 20
16.797966
 42
-0.070189
 10
48.360352
 20
16.710419
 42
-0.120343
 10
48.410492
 20
16.627174
 42
-0.278911
 10
48.393721
 20
16.559055
 42
-0.20742
 10
48.315933
 20
16.528313
 42
-0.082976
 10
48.201279
 20
16.551346
 42
-0.063152
 10
48.06863
 20
16.622093
 42
-0.043285
 10
47.938267
 20
16.732482
 42
-0.011214
 10
47.779047
 20
16.900258
 42
-0.400052
 10
47.78024
 20
16.949337
 42
-0.286372
 10
47.837399
 20
16.962575
 42
-0.008399
  0
LWPOLYLINE
  5
8D8
330
1D
100
AcDbEntity
  8
0
100
AcDbPolyline
 90
       16
 70
     1
 43
0.0
 10
128.28499
 20
16.764
 42
-0.039867
 10
128.376508
 20
16.756691
 42
-0.059132
 10
128.453791
 20
16.734676
 42
-0.077771
 10
128.506371
 20
16.702376
 42
-0.219607
 10
128.524
 20
16.664175
 42
-0.2252
 10
128.501453
 20
16.616653
 42
-0.029412
 10
128.408206
 20
16.54924
 42
-0.029555
 10
128.280805
 20
16.478299
 42
-0.020646
 10
128.129808
 20
16.413085
 42
-0.036408
 10
127.982543
 20
16.368557
 42
-0.155351
 10
127.892168
 20
16.376476
 42
-0.32948
 10
127.86185
 20
16.427214
 42
-0.1144
 10
127.890798
 20
16.512909
 42
-0.061454
 10
127.967885
 20
16.608956
 42
-0.051183
 10
128.070605
 20
16.690242
 42
-0.053277
 10
128.182103
 20
16.745583
 42
-0.088797
  0
LWPOLYLINE
  5
8EA
330
1D
100
AcDbEntity
  8
0
100
AcDbPolyline
 90
       16
 70
     1
 43
0.0
 10
79.99501
 20
7.62
 42
-0.088797
 10
80.097897
 20
7.601583
 42
-0.053277
 10
80.209395
 20
7.546242
 42
-0.051183
 10
80.312115
 20
7.464956
 42
-0.061454
 10
80.389202
 20
7.368909
 42
-0.1144
 10
80.41815
 20
7.283214
 42
-0.32948
 10
80.387832
 20
7.232476
 42
-0.155351
 10
80.297457
 20
7.224557
 42
-0.036408
 10
80.150192
 20
7.269085
 42
-0.020646
 10
79.999195
 20
7.334299
 42
-0.029555
 10
79.871794
 20
7.40524
 42
-0.029412
 10
79.778547
 20
7.472653
 42
-0.2252
 10
79.756
 20
7.520175
 42
-0.219607
 10
79.773629
 20
7.558376
 42
-0.077771
 10
79.826209
 20
7.590676
 42
-0.059132
 10
79.903492
 20
7.612691
 42
-0.039867
  0
LWPOLYLINE
  5
8FC
330
1D
100
AcDbEntity
  8
0
100
AcDbPolyline
 90
       12
 70
     1
 43
0.0
 10
91.260455
 20
7.47667
 42
-0.036269
 10
91.424946
 20
7.399966
 42
-0.070189
 10
91.540352
 20
7.312419
 42
-0.120343
 10
91.590492
 20
7.229174
 42
-0.278911
 10
91.573721
 20
7.161055
 42
-0.20742
 10
91.495933
 20
7.130313
 42
-0.082976
 10
91.381279
 20
7.153346
 42
-0.063152
 10
91.24863
 20
7.224093
 42
-0.043285
 10
91.118267
 20
7.334482
 42
-0.011214
 10
90.959047
 20
7.502258
 42
-0.400052
 10
90.96024
 20
7.551337
 42
-0.286372
 10
91.017399
 20
7.564575
 42
-0.008399
  0
LWPOLYLINE
  5
90A
330
1D
100
AcDbEntity
  8
0
100
AcDbPolyline
 90
       16
 70
     1
 43
0.0
 10
96.47149
 20
7.616111
 42
-0.434568
 10
96.489662
 20
7.598476
 42
-0.071273
 10
96.480811
 20
7.544245
 42
-0.041889
 10
96.447721
 20
7.463242
 42
-0.020509
 10
96.393
 20
7.366
 42
-0.075854
 10
96.31056
 20
7.269109
 42
-0.054031
 10
96.19327
 20
7.187755
 42
-0.053889
 10
96.060863
 20
7.133205
 42
-0.074131
 10
95.93351
 20
7.115889
 42
-0.102799
 10
95.84121
 20
7.13631
 42
-0.37991
 10
95.818744
 20
7.186342
 42
-0.147021
 10
95.871256
 20
7.263753
 42
-0.027275
 10
96.012
 20
7.366
 42
-0.008026
 10
96.163654
 20
7.460591
 42
-0.01079
 10
96.304138
 20
7.541036
 42
-0.008096
 10
96.423242
 20
7.603389
 42
-0.104523
  0
ENDSEC
  0
SECTION
  2
OBJECTS
  0
DICTIONARY
  5
C
330
0
100
AcDbDictionary
281
     1
  3
ACAD_DETAILVIEWSTYLE
350
9A8
  3
ACAD_GROUP
350
D
  3
ACAD_LAYOUT
350
1A
  3
ACAD_MATERIAL
350
95B
  3
ACAD_MLEADERSTYLE
350
961
  3
ACAD_MLINESTYLE
350
17
  3
ACAD_PLOTSETTINGS
350
19
  3
ACAD_PLOTSTYLENAME
350
E
  3
ACAD_SCALELIST
350
91C
  3
ACAD_SECTIONVIEWSTYLE
350
9A9
  3
ACAD_TABLESTYLE
350
95F
  3
ACAD_VISUALSTYLE
350
942
  3
ACDB_RECOMPOSE_DATA
350
9A4
  3
AcDbVariableDictionary
350
965
  0
DICTIONARY
  5
963
330
8
100
AcDbDictionary
280
     1
281
     1
  3
ACAD_XREC_ROUNDTRIP
360
964
  0
DICTIONARY
  5
9A8
102
{ACAD_REACTORS
330
C
102
}
330
C
100
AcDbDictionary
281
     1
  0
DICTIONARY
  5
D
102
{ACAD_REACTORS
330
C
102
}
330
C
100
AcDbDictionary
281
     1
  0
DICTIONARY
  5
1A
102
{ACAD_REACTORS
330
C
102
}
330
C
100
AcDbDictionary
281
     1
  3
Layout1
350
1C
  3
Model
350
1E
  0
DICTIONARY
  5
95B
102
{ACAD_REACTORS
330
C
102
}
330
C
100
AcDbDictionary
281
     1
  3
ByBlock
350
95D
  3
ByLayer
350
95C
  3
Global
350
95E
  0
DICTIONARY
  5
961
102
{ACAD_REACTORS
330
C
102
}
330
C
100
AcDbDictionary
281
     1
  3
Standard
350
962
  0
DICTIONARY
  5
17
102
{ACAD_REACTORS
330
C
102
}
330
C
100
AcDbDictionary
281
     1
  3
Standard
350
18
  0
DICTIONARY
  5
19
102
{ACAD_REACTORS
330
C
102
}
330
C
100
AcDbDictionary
281
     1
  0
ACDBDICTIONARYWDFLT
  5
E
102
{ACAD_REACTORS
330
C
102
}
330
C
100
AcDbDictionary
281
     1
  3
Normal
350
F
100
AcDbDictionaryWithDefault
340
F
  0
DICTIONARY
  5
91C
102
{ACAD_REACTORS
330
C
102
}
330
C
100
AcDbDictionary
281
     1
  3
A0
350
91D
  3
A1
350
91E
  3
A2
350
91F
  3
A3
350
920
  3
A4
350
921
  3
A5
350
922
  3
A6
350
923
  3
A7
350
924
  3
A8
350
925
  3
A9
350
926
  3
B0
350
927
  3
B1
350
928
  3
B2
350
929
  3
B3
350
92A
  3
B4
350
92B
  3
B5
350
92C
  3
B6
350
92D
  3
B7
350
92E
  3
B8
350
92F
  3
B9
350
930
  3
C0
350
931
  3
C1
350
932
  3
C2
350
933
  3
C3
350
934
  3
C4
350
935
  3
C5
350
936
  3
C6
350
937
  3
C7
350
938
  3
C8
350
939
  3
C9
350
93A
  3
D0
350
93B
  3
D1
350
93C
  3
D2
350
93D
  0
DICTIONARY
  5
9A9
102
{ACAD_REACTORS
330
C
102
}
330
C
100
AcDbDictionary
281
     1
  0
DICTIONARY
  5
95F
102
{ACAD_REACTORS
330
C
102
}
330
C
100
AcDbDictionary
281
     1
  3
Standard
350
960
  0
DICTIONARY
  5
942
102
{ACAD_REACTORS
330
C
102
}
330
C
100
AcDbDictionary
281
     1
  3
2dWireframe
350
947
  3
Basic
350
94A
  3
Brighten
350
94E
  3
ColorChange
350
952
  3
Conceptual
350
94C
  3
Dim
350
94D
  3
EdgeColorOff
350
955
  3
Facepattern
350
951
  3
Flat
350
943
  3
FlatWithEdges
350
944
  3
Gouraud
350
945
  3
GouraudWithEdges
350
946
  3
Hidden
350
949
  3
JitterOff
350
953
  3
Linepattern
350
950
  3
OverhangOff
350
954
  3
Realistic
350
94B
  3
Shaded
350
95A
  3
Shaded with edges
350
959
  3
Shades of Gray
350
956
  3
Sketchy
350
957
  3
Thicken
350
94F
  3
Wireframe
350
948
  3
X-Ray
350
958
  0
XRECORD
  5
9A4
102
{ACAD_REACTORS
330
C
102
}
330
C
100
AcDbXrecord
280
     1
 90
        1
330
960
  0
DICTIONARY
  5
965
102
{ACAD_REACTORS
330
C
102
}
330
C
100
AcDbDictionary
281
     1
  3
CANNOSCALE
350
966
  3
CMLEADERSTYLE
350
9A6
  3
CTABLESTYLE
350
9A5
  3
MSLTSCALE
350
9A7
  3
XCLIPFRAME
350
967
  0
XRECORD
  5
964
102
{ACAD_REACTORS
330
963
102
}
330
963
100
AcDbXrecord
280
     1
102
VTR_0.000_0.000_1.000_1.000_VISUALSTYLE
340
947
102
VTR_0.000_0.000_1.000_1.000_GRIDDISPLAY
 70
     3
102
VTR_0.000_0.000_1.000_1.000_GRIDMAJOR
 70
     5
102
VTR_0.000_0.000_1.000_1.000_DEFAULTLIGHTING
280
     1
102
VTR_0.000_0.000_1.000_1.000_DEFAULTLIGHTINGTYPE
 70
     1
102
VTR_0.000_0.000_1.000_1.000_BRIGHTNESS
141
0.0
102
VTR_0.000_0.000_1.000_1.000_CONTRAST
142
0.0
  0
LAYOUT
  5
1C
102
{ACAD_REACTORS
330
1A
102
}
330
1A
100
AcDbPlotSettings
  1

  2
none_device
  4

  6

 40
0.0
 41
0.0
 42
0.0
 43
0.0
 44
0.0
 45
0.0
 46
0.0
 47
0.0
 48
0.0
 49
0.0
140
0.0
141
0.0
142
1.0
143
1.0
 70
   688
 72
     0
 73
     0
 74
     5
  7

 75
    16
 76
     0
 77
     2
 78
   300
147
1.0
148
0.0
149
0.0
100
AcDbLayout
  1
Layout1
 70
     1
 71
     1
 10
0.0
 20
0.0
 11
12.0
 21
9.0
 12
0.0
 22
0.0
 32
0.0
 14
1.000000000000000E+20
 24
1.000000000000000E+20
 34
1.000000000000000E+20
 15
-1.000000000000000E+20
 25
-1.000000000000000E+20
 35
-1.000000000000000E+20
146
0.0
 13
0.0
 23
0.0
 33
0.0
 16
1.0
 26
0.0
 36
0.0
 17
0.0
 27
1.0
 37
0.0
 76
     0
330
1B
  0
LAYOUT
  5
1E
102
{ACAD_REACTORS
330
1A
102
}
330
1A
100
AcDbPlotSettings
  1

  2
none_device
  4
Letter_(8.50_x_11.00_Inches)
  6

 40
6.35
 41
6.35
 42
6.35000508
 43
6.35000508
 44
215.9
 45
279.4
 46
0.0
 47
0.0
 48
0.0
 49
0.0
140
0.0
141
0.0
142
1.0
143
1.0
 70
  1712
 72
     0
 73
     0
 74
     0
  7

 75
     0
 76
     0
 77
     2
 78
   300
147
1.0
148
0.0
149
0.0
100
AcDbLayout
  1
Model
 70
     1
 71
     0
 10
0.0
 20
0.0
 11
12.0
 21
9.0
 12
0.0
 22
0.0
 32
0.0
 14
0.0
 24
0.0
 34
0.0
 15
176.022
 25
350.012
 35
0.0
146
0.0
 13
0.0
 23
0.0
 33
0.0
 16
1.0
 26
0.0
 36
0.0
 17
0.0
 27
1.0
 37
0.0
 76
     0
330
1D
331
21
  0
MATERIAL
  5
95D
102
{ACAD_REACTORS
330
95B
102
}
102
{ACAD_XDICTIONARY
360
99A
102
}
330
95B
100
AcDbMaterial
  1
ByBlock
  0
MATERIAL
  5
95C
102
{ACAD_REACTORS
330
95B
102
}
102
{ACAD_XDICTIONARY
360
998
102
}
330
95B
100
AcDbMaterial
  1
ByLayer
  0
MATERIAL
  5
95E
102
{ACAD_REACTORS
330
95B
102
}
102
{ACAD_XDICTIONARY
360
99C
102
}
330
95B
100
AcDbMaterial
  1
Global
  0
MLEADERSTYLE
  5
962
102
{ACAD_REACTORS
330
961
102
}
102
{ACAD_XDICTIONARY
360
9A2
102
}
330
961
100
AcDbMLeaderStyle
170
     2
171
     1
172
     0
 90
        2
 40
0.0
 41
0.0
173
     1
 91
-1056964608
340
14
 92
       -2
290
     1
 42
0.09
291
     1
 43
0.36
  3
Standard
341
0
 44
0.18
300

342
11
174
     1
178
     6
175
     1
176
     0
 93
-1056964608
 45
0.18
292
     0
297
     0
 46
0.18
343
0
 94
-1056964608
 47
1.0
 49
1.0
140
1.0
293
     1
141
0.0
294
     1
177
     0
142
1.0
295
     0
296
     0
143
0.125
1001
ACAD_MLEADERVER
1070
     2
  0
MLINESTYLE
  5
18
102
{ACAD_REACTORS
330
17
102
}
330
17
100
AcDbMlineStyle
  2
Standard
 70
     0
  3

 62
   256
 51
90.0
 52
90.0
 71
     2
 49
0.5
 62
   256
  6
BYLAYER
 49
-0.5
 62
   256
  6
BYLAYER
  0
ACDBPLACEHOLDER
  5
F
102
{ACAD_REACTORS
330
E
102
}
330
E
  0
SCALE
  5
91D
102
{ACAD_REACTORS
330
91C
102
}
330
91C
100
AcDbScale
 70
     0
300
1:1
140
1.0
141
1.0
290
     1
  0
SCALE
  5
91E
102
{ACAD_REACTORS
330
91C
102
}
330
91C
100
AcDbScale
 70
     0
300
1:2
140
1.0
141
2.0
290
     0
  0
SCALE
  5
91F
102
{ACAD_REACTORS
330
91C
102
}
330
91C
100
AcDbScale
 70
     0
300
1:4
140
1.0
141
4.0
290
     0
  0
SCALE
  5
920
102
{ACAD_REACTORS
330
91C
102
}
330
91C
100
AcDbScale
 70
     0
300
1:5
140
1.0
141
5.0
290
     0
  0
SCALE
  5
921
102
{ACAD_REACTORS
330
91C
102
}
330
91C
100
AcDbScale
 70
     0
300
1:8
140
1.0
141
8.0
290
     0
  0
SCALE
  5
922
102
{ACAD_REACTORS
330
91C
102
}
330
91C
100
AcDbScale
 70
     0
300
1:10
140
1.0
141
10.0
290
     0
  0
SCALE
  5
923
102
{ACAD_REACTORS
330
91C
102
}
330
91C
100
AcDbScale
 70
     0
300
1:16
140
1.0
141
16.0
290
     0
  0
SCALE
  5
924
102
{ACAD_REACTORS
330
91C
102
}
330
91C
100
AcDbScale
 70
     0
300
1:20
140
1.0
141
20.0
290
     0
  0
SCALE
  5
925
102
{ACAD_REACTORS
330
91C
102
}
330
91C
100
AcDbScale
 70
     0
300
1:30
140
1.0
141
30.0
290
     0
  0
SCALE
  5
926
102
{ACAD_REACTORS
330
91C
102
}
330
91C
100
AcDbScale
 70
     0
300
1:40
140
1.0
141
40.0
290
     0
  0
SCALE
  5
927
102
{ACAD_REACTORS
330
91C
102
}
330
91C
100
AcDbScale
 70
     0
300
1:50
140
1.0
141
50.0
290
     0
  0
SCALE
  5
928
102
{ACAD_REACTORS
330
91C
102
}
330
91C
100
AcDbScale
 70
     0
300
1:100
140
1.0
141
100.0
290
     0
  0
SCALE
  5
929
102
{ACAD_REACTORS
330
91C
102
}
330
91C
100
AcDbScale
 70
     0
300
2:1
140
2.0
141
1.0
290
     0
  0
SCALE
  5
92A
102
{ACAD_REACTORS
330
91C
102
}
330
91C
100
AcDbScale
 70
     0
300
4:1
140
4.0
141
1.0
290
     0
  0
SCALE
  5
92B
102
{ACAD_REACTORS
330
91C
102
}
330
91C
100
AcDbScale
 70
     0
300
8:1
140
8.0
141
1.0
290
     0
  0
SCALE
  5
92C
102
{ACAD_REACTORS
330
91C
102
}
330
91C
100
AcDbScale
 70
     0
300
10:1
140
10.0
141
1.0
290
     0
  0
SCALE
  5
92D
102
{ACAD_REACTORS
330
91C
102
}
330
91C
100
AcDbScale
 70
     0
300
100:1
140
100.0
141
1.0
290
     0
  0
SCALE
  5
92E
102
{ACAD_REACTORS
330
91C
102
}
330
91C
100
AcDbScale
 70
     0
300
1/128\" = 1\'-0\"
140
0.0078125
141
12.0
290
     0
  0
SCALE
  5
92F
102
{ACAD_REACTORS
330
91C
102
}
330
91C
100
AcDbScale
 70
     0
300
1/64\" = 1\'-0\"
140
0.015625
141
12.0
290
     0
  0
SCALE
  5
930
102
{ACAD_REACTORS
330
91C
102
}
330
91C
100
AcDbScale
 70
     0
300
1/32\" = 1\'-0\"
140
0.03125
141
12.0
290
     0
  0
SCALE
  5
931
102
{ACAD_REACTORS
330
91C
102
}
330
91C
100
AcDbScale
 70
     0
300
1/16\" = 1\'-0\"
140
0.0625
141
12.0
290
     0
  0
SCALE
  5
932
102
{ACAD_REACTORS
330
91C
102
}
330
91C
100
AcDbScale
 70
     0
300
3/32\" = 1\'-0\"
140
0.09375
141
12.0
290
     0
  0
SCALE
  5
933
102
{ACAD_REACTORS
330
91C
102
}
330
91C
100
AcDbScale
 70
     0
300
1/8\" = 1\'-0\"
140
0.125
141
12.0
290
     0
  0
SCALE
  5
934
102
{ACAD_REACTORS
330
91C
102
}
330
91C
100
AcDbScale
 70
     0
300
3/16\" = 1\'-0\"
140
0.1875
141
12.0
290
     0
  0
SCALE
  5
935
102
{ACAD_REACTORS
330
91C
102
}
330
91C
100
AcDbScale
 70
     0
300
1/4\" = 1\'-0\"
140
0.25
141
12.0
290
     0
  0
SCALE
  5
936
102
{ACAD_REACTORS
330
91C
102
}
330
91C
100
AcDbScale
 70
     0
300
3/8\" = 1\'-0\"
140
0.375
141
12.0
290
     0
  0
SCALE
  5
937
102
{ACAD_REACTORS
330
91C
102
}
330
91C
100
AcDbScale
 70
     0
300
1/2\" = 1\'-0\"
140
0.5
141
12.0
290
     0
  0
SCALE
  5
938
102
{ACAD_REACTORS
330
91C
102
}
330
91C
100
AcDbScale
 70
     0
300
3/4\" = 1\'-0\"
140
0.75
141
12.0
290
     0
  0
SCALE
  5
939
102
{ACAD_REACTORS
330
91C
102
}
330
91C
100
AcDbScale
 70
     0
300
1\" = 1\'-0\"
140
1.0
141
12.0
290
     0
  0
SCALE
  5
93A
102
{ACAD_REACTORS
330
91C
102
}
330
91C
100
AcDbScale
 70
     0
300
1-1/2\" = 1\'-0\"
140
1.5
141
12.0
290
     0
  0
SCALE
  5
93B
102
{ACAD_REACTORS
330
91C
102
}
330
91C
100
AcDbScale
 70
     0
300
3\" = 1\'-0\"
140
3.0
141
12.0
290
     0
  0
SCALE
  5
93C
102
{ACAD_REACTORS
330
91C
102
}
330
91C
100
AcDbScale
 70
     0
300
6\" = 1\'-0\"
140
6.0
141
12.0
290
     0
  0
SCALE
  5
93D
102
{ACAD_REACTORS
330
91C
102
}
330
91C
100
AcDbScale
 70
     0
300
1\'-0\" = 1\'-0\"
140
12.0
141
12.0
290
     0
  0
TABLESTYLE
  5
960
102
{ACAD_REACTORS
330
95F
102
}
102
{ACAD_XDICTIONARY
360
99E
102
}
330
95F
100
AcDbTableStyle
  3
Standard
 70
     0
 71
     0
 40
0.06
 41
0.06
280
     0
281
     0
  7
Standard
140
0.18
170
     2
 62
     0
 63
   257
283
     0
274
    -2
284
     1
 64
     0
275
    -2
285
     1
 65
     0
276
    -2
286
     1
 66
     0
277
    -2
287
     1
 67
     0
278
    -2
288
     1
 68
     0
279
    -2
289
     1
 69
     0
  7
Standard
140
0.25
170
     5
 62
     0
 63
   257
283
     0
274
    -2
284
     1
 64
     0
275
    -2
285
     1
 65
     0
276
    -2
286
     1
 66
     0
277
    -2
287
     1
 67
     0
278
    -2
288
     1
 68
     0
279
    -2
289
     1
 69
     0
  7
Standard
140
0.18
170
     5
 62
     0
 63
   257
283
     0
274
    -2
284
     1
 64
     0
275
    -2
285
     1
 65
     0
276
    -2
286
     1
 66
     0
277
    -2
287
     1
 67
     0
278
    -2
288
     1
 68
     0
279
    -2
289
     1
 69
     0
  0
VISUALSTYLE
  5
947
102
{ACAD_REACTORS
330
942
102
}
102
{ACAD_XDICTIONARY
360
970
102
}
330
942
100
AcDbVisualStyle
  2
2dWireframe
 70
     4
 71
     0
 72
     2
 73
     0
 90
        0
 40
0.6
 41
30.0
 62
     5
 63
     7
421
 16777215
 74
     1
 91
        4
 64
     7
 65
   257
 75
     1
175
     1
 42
1.0
 92
        0
 66
   257
 43
1.0
 76
     1
 77
     6
 78
     2
 67
     7
 79
     5
170
     0
171
     0
290
     0
174
     0
 93
        1
 44
0.0
173
     0
291
     0
 45
0.0
1001
ACAD
1000
AcDbSavedByObjectVersion
1070
     0
  0
VISUALSTYLE
  5
94A
102
{ACAD_REACTORS
330
942
102
}
102
{ACAD_XDICTIONARY
360
976
102
}
330
942
100
AcDbVisualStyle
  2
Basic
 70
     7
 71
     1
 72
     0
 73
     1
 90
        0
 40
0.6
 41
30.0
 62
     5
 63
     7
421
 16777215
 74
     0
 91
        4
 64
     7
 65
   257
 75
     1
175
     1
 42
1.0
 92
        8
 66
     7
 43
1.0
 76
     1
 77
     6
 78
     2
 67
     7
 79
     5
170
     0
171
     0
290
     0
174
     0
 93
        1
 44
0.0
173
     0
291
     1
 45
0.0
1001
ACAD
1000
AcDbSavedByObjectVersion
1070
     0
  0
VISUALSTYLE
  5
94E
102
{ACAD_REACTORS
330
942
102
}
102
{ACAD_XDICTIONARY
360
97E
102
}
330
942
100
AcDbVisualStyle
  2
Brighten
 70
    12
 71
     2
 72
     2
 73
     0
 90
        0
 40
0.6
 41
30.0
 62
     5
 63
     7
421
 16777215
 74
     1
 91
        4
 64
     7
 65
   257
 75
     1
175
     1
 42
1.0
 92
        8
 66
     7
 43
1.0
 76
     1
 77
     6
 78
     2
 67
     7
 79
     5
170
     0
171
     0
290
     0
174
     0
 93
        1
 44
50.0
173
     0
291
     1
 45
0.0
1001
ACAD
1000
AcDbSavedByObjectVersion
1070
     0
  0
VISUALSTYLE
  5
952
102
{ACAD_REACTORS
330
942
102
}
102
{ACAD_XDICTIONARY
360
986
102
}
330
942
100
AcDbVisualStyle
  2
ColorChange
 70
    16
 71
     2
 72
     2
 73
     3
 90
        0
 40
0.6
 41
30.0
 62
     5
 63
     8
421
  8421504
 74
     1
 91
        4
 64
     7
 65
   257
 75
     1
175
     1
 42
1.0
 92
        8
 66
     8
424
  8421504
 43
1.0
 76
     1
 77
     6
 78
     2
 67
     7
 79
     5
170
     0
171
     0
290
     0
174
     0
 93
        1
 44
0.0
173
     0
291
     1
 45
0.0
1001
ACAD
1000
AcDbSavedByObjectVersion
1070
     0
  0
VISUALSTYLE
  5
94C
102
{ACAD_REACTORS
330
942
102
}
102
{ACAD_XDICTIONARY
360
97A
102
}
330
942
100
AcDbVisualStyle
  2
Conceptual
 70
     9
 71
     3
 72
     2
 73
     0
 90
        0
 40
0.6
 41
30.0
 62
     5
 63
     7
421
 16777215
 74
     2
 91
        2
 64
     7
 65
   257
 75
     1
175
     1
 42
179.0
 92
        8
 66
     7
 43
1.0
 76
     1
 77
     6
 78
     2
 67
     7
 79
     3
170
     0
171
     0
290
     0
174
     0
 93
        1
 44
0.0
173
     0
291
     0
 45
0.0
1001
ACAD
1000
AcDbSavedByObjectVersion
1070
     0
  0
VISUALSTYLE
  5
94D
102
{ACAD_REACTORS
330
942
102
}
102
{ACAD_XDICTIONARY
360
97C
102
}
330
942
100
AcDbVisualStyle
  2
Dim
 70
    11
 71
     2
 72
     2
 73
     0
 90
        0
 40
0.6
 41
30.0
 62
     5
 63
     7
421
 16777215
 74
     1
 91
        4
 64
     7
 65
   257
 75
     1
175
     1
 42
1.0
 92
        8
 66
     7
 43
1.0
 76
     1
 77
     6
 78
     2
 67
     7
 79
     5
170
     0
171
     0
290
     0
174
     0
 93
        1
 44
-50.0
173
     0
291
     1
 45
0.0
1001
ACAD
1000
AcDbSavedByObjectVersion
1070
     0
  0
VISUALSTYLE
  5
955
102
{ACAD_REACTORS
330
942
102
}
102
{ACAD_XDICTIONARY
360
98C
102
}
330
942
100
AcDbVisualStyle
  2
EdgeColorOff
 70
    22
 71
     2
 72
     2
 73
     0
 90
        0
 40
0.6
 41
30.0
 62
     5
 63
     7
421
 16777215
 74
     1
 91
        4
 64
     7
 65
   257
 75
     1
175
     1
 42
1.0
 92
        8
 66
     7
 43
1.0
 76
     1
 77
     6
 78
     2
 67
     7
 79
     5
170
     0
171
     0
290
     0
174
     0
 93
        1
 44
0.0
173
     0
291
     1
 45
0.0
1001
ACAD
1000
AcDbSavedByObjectVersion
1070
     0
  0
VISUALSTYLE
  5
951
102
{ACAD_REACTORS
330
942
102
}
102
{ACAD_XDICTIONARY
360
984
102
}
330
942
100
AcDbVisualStyle
  2
Facepattern
 70
    15
 71
     2
 72
     2
 73
     0
 90
        0
 40
0.6
 41
30.0
 62
     5
 63
     7
421
 16777215
 74
     1
 91
        4
 64
     7
 65
   257
 75
     1
175
     1
 42
1.0
 92
        8
 66
     7
 43
1.0
 76
     1
 77
     6
 78
     2
 67
     7
 79
     5
170
     0
171
     0
290
     0
174
     0
 93
        1
 44
0.0
173
     0
291
     1
 45
0.0
1001
ACAD
1000
AcDbSavedByObjectVersion
1070
     0
  0
VISUALSTYLE
  5
943
102
{ACAD_REACTORS
330
942
102
}
102
{ACAD_XDICTIONARY
360
968
102
}
330
942
100
AcDbVisualStyle
  2
Flat
 70
     0
 71
     2
 72
     1
 73
     1
 90
        2
 40
0.6
 41
30.0
 62
     5
 63
     7
421
 16777215
 74
     0
 91
        0
 64
     7
 65
   257
 75
     1
175
     1
 42
1.0
 92
        8
 66
     7
 43
1.0
 76
     1
 77
     6
 78
     2
 67
     7
 79
     5
170
     0
171
     0
290
     0
174
     0
 93
       13
 44
0.0
173
     0
291
     1
 45
0.0
1001
ACAD
1000
AcDbSavedByObjectVersion
1070
     0
  0
VISUALSTYLE
  5
944
102
{ACAD_REACTORS
330
942
102
}
102
{ACAD_XDICTIONARY
360
96A
102
}
330
942
100
AcDbVisualStyle
  2
FlatWithEdges
 70
     1
 71
     2
 72
     1
 73
     1
 90
        2
 40
0.6
 41
30.0
 62
     5
 63
     7
421
 16777215
 74
     1
 91
        0
 64
     7
 65
   257
 75
     1
175
     1
 42
1.0
 92
        0
 66
   257
 43
1.0
 76
     1
 77
     6
 78
     2
 67
     7
 79
     5
170
     0
171
     0
290
     0
174
     0
 93
       13
 44
0.0
173
     0
291
     1
 45
0.0
1001
ACAD
1000
AcDbSavedByObjectVersion
1070
     0
  0
VISUALSTYLE
  5
945
102
{ACAD_REACTORS
330
942
102
}
102
{ACAD_XDICTIONARY
360
96C
102
}
330
942
100
AcDbVisualStyle
  2
Gouraud
 70
     2
 71
     2
 72
     2
 73
     1
 90
        2
 40
0.6
 41
30.0
 62
     5
 63
     7
421
 16777215
 74
     0
 91
        0
 64
     7
 65
   257
 75
     1
175
     1
 42
1.0
 92
        0
 66
     7
 43
1.0
 76
     1
 77
     6
 78
     2
 67
     7
 79
     5
170
     0
171
     0
290
     0
174
     0
 93
       13
 44
0.0
173
     0
291
     1
 45
0.0
1001
ACAD
1000
AcDbSavedByObjectVersion
1070
     0
  0
VISUALSTYLE
  5
946
102
{ACAD_REACTORS
330
942
102
}
102
{ACAD_XDICTIONARY
360
96E
102
}
330
942
100
AcDbVisualStyle
  2
GouraudWithEdges
 70
     3
 71
     2
 72
     2
 73
     1
 90
        2
 40
0.6
 41
30.0
 62
     5
 63
     7
421
 16777215
 74
     1
 91
        0
 64
     7
 65
   257
 75
     1
175
     1
 42
1.0
 92
        0
 66
   257
 43
1.0
 76
     1
 77
     6
 78
     2
 67
     7
 79
     5
170
     0
171
     0
290
     0
174
     0
 93
       13
 44
0.0
173
     0
291
     1
 45
0.0
1001
ACAD
1000
AcDbSavedByObjectVersion
1070
     0
  0
VISUALSTYLE
  5
949
102
{ACAD_REACTORS
330
942
102
}
102
{ACAD_XDICTIONARY
360
974
102
}
330
942
100
AcDbVisualStyle
  2
Hidden
 70
     6
 71
     1
 72
     2
 73
     2
 90
        0
 40
0.6
 41
30.0
 62
     5
 63
     7
421
 16777215
 74
     2
 91
        2
 64
     7
 65
   257
 75
     2
175
     1
 42
40.0
 92
        0
 66
   257
 43
1.0
 76
     1
 77
     6
 78
     2
 67
     7
 79
     3
170
     0
171
     0
290
     0
174
     0
 93
        1
 44
0.0
173
     0
291
     0
 45
0.0
1001
ACAD
1000
AcDbSavedByObjectVersion
1070
     0
  0
VISUALSTYLE
  5
953
102
{ACAD_REACTORS
330
942
102
}
102
{ACAD_XDICTIONARY
360
988
102
}
330
942
100
AcDbVisualStyle
  2
JitterOff
 70
    20
 71
     2
 72
     2
 73
     0
 90
        0
 40
0.6
 41
30.0
 62
     5
 63
     7
421
 16777215
 74
     1
 91
        4
 64
     7
 65
   257
 75
     1
175
     1
 42
1.0
 92
       10
 66
     7
 43
1.0
 76
     1
 77
     6
 78
     2
 67
     7
 79
     5
170
     0
171
     0
290
     0
174
     0
 93
        1
 44
0.0
173
     0
291
     1
 45
0.0
1001
ACAD
1000
AcDbSavedByObjectVersion
1070
     0
  0
VISUALSTYLE
  5
950
102
{ACAD_REACTORS
330
942
102
}
102
{ACAD_XDICTIONARY
360
982
102
}
330
942
100
AcDbVisualStyle
  2
Linepattern
 70
    14
 71
     2
 72
     2
 73
     0
 90
        0
 40
0.6
 41
30.0
 62
     5
 63
     7
421
 16777215
 74
     1
 91
        4
 64
     7
 65
   257
 75
     7
175
     7
 42
1.0
 92
        8
 66
     7
 43
1.0
 76
     1
 77
     6
 78
     2
 67
     7
 79
     5
170
     0
171
     0
290
     0
174
     0
 93
        1
 44
0.0
173
     0
291
     1
 45
0.0
1001
ACAD
1000
AcDbSavedByObjectVersion
1070
     0
  0
VISUALSTYLE
  5
954
102
{ACAD_REACTORS
330
942
102
}
102
{ACAD_XDICTIONARY
360
98A
102
}
330
942
100
AcDbVisualStyle
  2
OverhangOff
 70
    21
 71
     2
 72
     2
 73
     0
 90
        0
 40
0.6
 41
30.0
 62
     5
 63
     7
421
 16777215
 74
     1
 91
        4
 64
     7
 65
   257
 75
     1
175
     1
 42
1.0
 92
        9
 66
     7
 43
1.0
 76
     1
 77
     6
 78
     2
 67
     7
 79
     5
170
     0
171
     0
290
     0
174
     0
 93
        1
 44
0.0
173
     0
291
     1
 45
0.0
1001
ACAD
1000
AcDbSavedByObjectVersion
1070
     0
  0
VISUALSTYLE
  5
94B
102
{ACAD_REACTORS
330
942
102
}
102
{ACAD_XDICTIONARY
360
978
102
}
330
942
100
AcDbVisualStyle
  2
Realistic
 70
     8
 71
     2
 72
     3
 73
     0
 90
        2
 40
0.6
 41
30.0
 62
     5
 63
     7
421
 16777215
 74
     0
 91
        0
 64
     7
 65
   257
 75
     1
175
     1
 42
1.0
 92
        8
 66
   257
 43
1.0
 76
     1
 77
     6
 78
     2
 67
     7
 79
     3
170
     0
171
     0
290
     0
174
     0
 93
       13
 44
0.0
173
     0
291
     0
 45
0.0
1001
ACAD
1000
AcDbSavedByObjectVersion
1070
     0
  0
VISUALSTYLE
  5
95A
102
{ACAD_REACTORS
330
942
102
}
102
{ACAD_XDICTIONARY
360
996
102
}
330
942
100
AcDbVisualStyle
  2
Shaded
 70
    27
 71
     2
 72
     2
 73
     1
 90
        2
 40
0.6
 41
30.0
 62
     5
 63
     7
421
 16777215
 74
     0
 91
        4
 64
     7
 65
   257
 75
     1
175
     1
 42
1.0
 92
        8
 66
   257
 43
1.0
 76
     1
 77
     6
 78
     2
 67
     8
425
  7895160
 79
     3
170
     0
171
     0
290
     0
174
     0
 93
        5
 44
0.0
173
     0
291
     0
 45
0.0
1001
ACAD
1000
AcDbSavedByObjectVersion
1070
     0
  0
VISUALSTYLE
  5
959
102
{ACAD_REACTORS
330
942
102
}
102
{ACAD_XDICTIONARY
360
994
102
}
330
942
100
AcDbVisualStyle
  2
Shaded with edges
 70
    26
 71
     2
 72
     2
 73
     1
 90
        2
 40
0.6
 41
30.0
 62
     5
 63
     7
421
 16777215
 74
     1
 91
       10
 64
     7
 65
   257
 75
     2
175
     1
 42
1.0
 92
        8
 66
   257
 43
1.0
 76
     1
 77
     6
 78
     2
 67
     7
 79
     3
170
     0
171
     0
290
     0
174
     0
 93
        5
 44
0.0
173
     0
291
     0
 45
0.0
1001
ACAD
1000
AcDbSavedByObjectVersion
1070
     0
  0
VISUALSTYLE
  5
956
102
{ACAD_REACTORS
330
942
102
}
102
{ACAD_XDICTIONARY
360
98E
102
}
330
942
100
AcDbVisualStyle
  2
Shades of Gray
 70
    23
 71
     2
 72
     2
 73
     3
 90
        0
 40
0.6
 41
30.0
 62
     5
 63
     7
421
 16777215
 74
     2
 91
        2
 64
     7
 65
     7
 75
     1
175
     1
 42
40.0
 92
        8
 66
     7
 43
1.0
 76
     1
 77
     6
 78
     2
 67
     7
 79
     3
170
     0
171
     0
290
     0
174
     0
 93
        1
 44
0.0
173
     0
291
     0
 45
0.0
1001
ACAD
1000
AcDbSavedByObjectVersion
1070
     0
  0
VISUALSTYLE
  5
957
102
{ACAD_REACTORS
330
942
102
}
102
{ACAD_XDICTIONARY
360
990
102
}
330
942
100
AcDbVisualStyle
  2
Sketchy
 70
    24
 71
     1
 72
     2
 73
     2
 90
        0
 40
0.6
 41
30.0
 62
     5
 63
     7
421
 16777215
 74
     2
 91
        2
 64
     7
 65
     7
 75
     1
175
     1
 42
40.0
 92
       11
 66
     7
 43
1.0
 76
     1
 77
     6
 78
     2
 67
     7
 79
     6
170
     0
171
     0
290
     0
174
     0
 93
        1
 44
0.0
173
     0
291
     0
 45
0.0
1001
ACAD
1000
AcDbSavedByObjectVersion
1070
     0
  0
VISUALSTYLE
  5
94F
102
{ACAD_REACTORS
330
942
102
}
102
{ACAD_XDICTIONARY
360
980
102
}
330
942
100
AcDbVisualStyle
  2
Thicken
 70
    13
 71
     2
 72
     2
 73
     0
 90
        0
 40
0.6
 41
30.0
 62
     5
 63
     7
421
 16777215
 74
     1
 91
        4
 64
     7
 65
   257
 75
     1
175
     1
 42
1.0
 92
       12
 66
     7
 43
1.0
 76
     1
 77
     6
 78
     2
 67
     7
 79
     5
170
     0
171
     0
290
     0
174
     0
 93
        1
 44
0.0
173
     0
291
     1
 45
0.0
1001
ACAD
1000
AcDbSavedByObjectVersion
1070
     0
  0
VISUALSTYLE
  5
948
102
{ACAD_REACTORS
330
942
102
}
102
{ACAD_XDICTIONARY
360
972
102
}
330
942
100
AcDbVisualStyle
  2
Wireframe
 70
     5
 71
     0
 72
     2
 73
     0
 90
        0
 40
0.6
 41
30.0
 62
     5
 63
     7
421
 16777215
 74
     1
 91
        4
 64
     7
 65
   257
 75
     1
175
     1
 42
1.0
 92
        0
 66
   257
 43
1.0
 76
     1
 77
     6
 78
     2
 67
     7
 79
     3
170
     0
171
     0
290
     0
174
     0
 93
        1
 44
0.0
173
     0
291
     0
 45
0.0
1001
ACAD
1000
AcDbSavedByObjectVersion
1070
     0
  0
VISUALSTYLE
  5
958
102
{ACAD_REACTORS
330
942
102
}
102
{ACAD_XDICTIONARY
360
992
102
}
330
942
100
AcDbVisualStyle
  2
X-Ray
 70
    25
 71
     2
 72
     2
 73
     1
 90
        1
 40
0.5
 41
30.0
 62
     5
 63
     7
421
 16777215
 74
     1
 91
        0
 64
     7
 65
   257
 75
     1
175
     1
 42
1.0
 92
        8
 66
     7
 43
1.0
 76
     1
 77
     6
 78
     2
 67
     7
 79
     3
170
     0
171
     0
290
     0
174
     0
 93
       13
 44
0.0
173
     0
291
     0
 45
0.0
1001
ACAD
1000
AcDbSavedByObjectVersion
1070
     0
  0
DICTIONARYVAR
  5
966
102
{ACAD_REACTORS
330
965
102
}
330
965
100
DictionaryVariables
280
     0
  1
1:1
  0
DICTIONARYVAR
  5
9A6
102
{ACAD_REACTORS
330
965
102
}
330
965
100
DictionaryVariables
280
     0
  1
Standard
  0
DICTIONARYVAR
  5
9A5
102
{ACAD_REACTORS
330
965
102
}
330
965
100
DictionaryVariables
280
     0
  1
Standard
  0
DICTIONARYVAR
  5
9A7
102
{ACAD_REACTORS
330
965
102
}
330
965
100
DictionaryVariables
280
     0
  1
0
  0
DICTIONARYVAR
  5
967
102
{ACAD_REACTORS
330
965
102
}
330
965
100
DictionaryVariables
280
     0
  1
2
  0
DICTIONARY
  5
99A
330
95D
100
AcDbDictionary
280
     1
281
     1
  3
ACAD_XREC_ROUNDTRIP
360
99B
  0
DICTIONARY
  5
998
330
95C
100
AcDbDictionary
280
     1
281
     1
  3
ACAD_XREC_ROUNDTRIP
360
999
  0
DICTIONARY
  5
99C
330
95E
100
AcDbDictionary
280
     1
281
     1
  3
ACAD_XREC_ROUNDTRIP
360
99D
  0
DICTIONARY
  5
9A2
330
962
100
AcDbDictionary
280
     1
281
     1
  3
ACAD_XREC_ROUNDTRIP
360
9A3
  0
DICTIONARY
  5
99E
330
960
100
AcDbDictionary
280
     1
281
     1
  3
ACAD_ROUNDTRIP_2008_TABLESTYLE_CELLSTYLEMAP
360
9A0
  3
ACAD_XREC_ROUNDTRIP
360
99F
  0
DICTIONARY
  5
970
330
947
100
AcDbDictionary
280
     1
281
     1
  3
ACAD_XREC_ROUNDTRIP
360
971
  0
DICTIONARY
  5
976
330
94A
100
AcDbDictionary
280
     1
281
     1
  3
ACAD_XREC_ROUNDTRIP
360
977
  0
DICTIONARY
  5
97E
330
94E
100
AcDbDictionary
280
     1
281
     1
  3
ACAD_XREC_ROUNDTRIP
360
97F
  0
DICTIONARY
  5
986
330
952
100
AcDbDictionary
280
     1
281
     1
  3
ACAD_XREC_ROUNDTRIP
360
987
  0
DICTIONARY
  5
97A
330
94C
100
AcDbDictionary
280
     1
281
     1
  3
ACAD_XREC_ROUNDTRIP
360
97B
  0
DICTIONARY
  5
97C
330
94D
100
AcDbDictionary
280
     1
281
     1
  3
ACAD_XREC_ROUNDTRIP
360
97D
  0
DICTIONARY
  5
98C
330
955
100
AcDbDictionary
280
     1
281
     1
  3
ACAD_XREC_ROUNDTRIP
360
98D
  0
DICTIONARY
  5
984
330
951
100
AcDbDictionary
280
     1
281
     1
  3
ACAD_XREC_ROUNDTRIP
360
985
  0
DICTIONARY
  5
968
330
943
100
AcDbDictionary
280
     1
281
     1
  3
ACAD_XREC_ROUNDTRIP
360
969
  0
DICTIONARY
  5
96A
330
944
100
AcDbDictionary
280
     1
281
     1
  3
ACAD_XREC_ROUNDTRIP
360
96B
  0
DICTIONARY
  5
96C
330
945
100
AcDbDictionary
280
     1
281
     1
  3
ACAD_XREC_ROUNDTRIP
360
96D
  0
DICTIONARY
  5
96E
330
946
100
AcDbDictionary
280
     1
281
     1
  3
ACAD_XREC_ROUNDTRIP
360
96F
  0
DICTIONARY
  5
974
330
949
100
AcDbDictionary
280
     1
281
     1
  3
ACAD_XREC_ROUNDTRIP
360
975
  0
DICTIONARY
  5
988
330
953
100
AcDbDictionary
280
     1
281
     1
  3
ACAD_XREC_ROUNDTRIP
360
989
  0
DICTIONARY
  5
982
330
950
100
AcDbDictionary
280
     1
281
     1
  3
ACAD_XREC_ROUNDTRIP
360
983
  0
DICTIONARY
  5
98A
330
954
100
AcDbDictionary
280
     1
281
     1
  3
ACAD_XREC_ROUNDTRIP
360
98B
  0
DICTIONARY
  5
978
330
94B
100
AcDbDictionary
280
     1
281
     1
  3
ACAD_XREC_ROUNDTRIP
360
979
  0
DICTIONARY
  5
996
330
95A
100
AcDbDictionary
280
     1
281
     1
  3
ACAD_XREC_ROUNDTRIP
360
997
  0
DICTIONARY
  5
994
330
959
100
AcDbDictionary
280
     1
281
     1
  3
ACAD_XREC_ROUNDTRIP
360
995
  0
DICTIONARY
  5
98E
330
956
100
AcDbDictionary
280
     1
281
     1
  3
ACAD_XREC_ROUNDTRIP
360
98F
  0
DICTIONARY
  5
990
330
957
100
AcDbDictionary
280
     1
281
     1
  3
ACAD_XREC_ROUNDTRIP
360
991
  0
DICTIONARY
  5
980
330
94F
100
AcDbDictionary
280
     1
281
     1
  3
ACAD_XREC_ROUNDTRIP
360
981
  0
DICTIONARY
  5
972
330
948
100
AcDbDictionary
280
     1
281
     1
  3
ACAD_XREC_ROUNDTRIP
360
973
  0
DICTIONARY
  5
992
330
958
100
AcDbDictionary
280
     1
281
     1
  3
ACAD_XREC_ROUNDTRIP
360
993
  0
XRECORD
  5
99B
102
{ACAD_REACTORS
330
99A
102
}
330
99A
100
AcDbXrecord
280
     1
102
MATERIAL
148
0.0
149
0.0
149
0.0
 93
        0
 94
      127
282
     0
 72
     1
 77
     1
171
     1
175
     1
179
     1
273
     0
  0
XRECORD
  5
999
102
{ACAD_REACTORS
330
998
102
}
330
998
100
AcDbXrecord
280
     1
102
MATERIAL
148
0.0
149
0.0
149
0.0
 93
        0
 94
      127
282
     0
 72
     1
 77
     1
171
     1
175
     1
179
     1
273
     0
  0
XRECORD
  5
99D
102
{ACAD_REACTORS
330
99C
102
}
330
99C
100
AcDbXrecord
280
     1
102
MATERIAL
148
0.0
149
0.0
149
0.0
 93
        0
 94
      127
282
     0
 72
     1
 77
     1
171
     1
175
     1
179
     1
273
     0
  0
XRECORD
  5
9A3
102
{ACAD_REACTORS
330
9A2
102
}
330
9A2
100
AcDbXrecord
280
     1
102
ACAD_ROUNDTRIP_2010_MLEADER_STYLE
  0
CELLSTYLEMAP
  5
9A0
102
{ACAD_REACTORS
330
99E
102
}
330
99E
100
AcDbCellStyleMap
 90
        3
300
CELLSTYLE
  1
TABLEFORMAT_BEGIN
 90
        5
170
     1
 91
        0
 92
    32768
 62
   257
 93
        1
300
CONTENTFORMAT
  1
CONTENTFORMAT_BEGIN
 90
        0
 91
        0
 92
        4
 93
        0
300

 40
0.0
140
1.0
 94
        5
 62
     0
340
11
144
0.25
309
CONTENTFORMAT_END
171
     1
301
MARGIN
  1
CELLMARGIN_BEGIN
 40
0.06
 40
0.06
 40
0.06
 40
0.06
 40
0.06
 40
0.06
309
CELLMARGIN_END
 94
        6
 95
        1
302
GRIDFORMAT
  1
GRIDFORMAT_BEGIN
 90
        0
 91
        1
 62
     0
 92
       -2
340
14
 93
        0
 40
0.045
309
GRIDFORMAT_END
 95
        2
302
GRIDFORMAT
  1
GRIDFORMAT_BEGIN
 90
        0
 91
        1
 62
     0
 92
       -2
340
14
 93
        0
 40
0.045
309
GRIDFORMAT_END
 95
        4
302
GRIDFORMAT
  1
GRIDFORMAT_BEGIN
 90
        0
 91
        1
 62
     0
 92
       -2
340
14
 93
        0
 40
0.045
309
GRIDFORMAT_END
 95
        8
302
GRIDFORMAT
  1
GRIDFORMAT_BEGIN
 90
        0
 91
        1
 62
     0
 92
       -2
340
14
 93
        0
 40
0.045
309
GRIDFORMAT_END
 95
       16
302
GRIDFORMAT
  1
GRIDFORMAT_BEGIN
 90
        0
 91
        1
 62
     0
 92
       -2
340
14
 93
        0
 40
0.045
309
GRIDFORMAT_END
 95
       32
302
GRIDFORMAT
  1
GRIDFORMAT_BEGIN
 90
        0
 91
        1
 62
     0
 92
       -2
340
14
 93
        0
 40
0.045
309
GRIDFORMAT_END
309
TABLEFORMAT_END
  1
CELLSTYLE_BEGIN
 90
        1
 91
        1
300
_TITLE
309
CELLSTYLE_END
300
CELLSTYLE
  1
TABLEFORMAT_BEGIN
 90
        5
170
     1
 91
        0
 92
        0
 62
   257
 93
        1
300
CONTENTFORMAT
  1
CONTENTFORMAT_BEGIN
 90
        0
 91
        0
 92
        4
 93
        0
300

 40
0.0
140
1.0
 94
        5
 62
     0
340
11
144
0.18
309
CONTENTFORMAT_END
171
     1
301
MARGIN
  1
CELLMARGIN_BEGIN
 40
0.06
 40
0.06
 40
0.06
 40
0.06
 40
0.06
 40
0.06
309
CELLMARGIN_END
 94
        6
 95
        1
302
GRIDFORMAT
  1
GRIDFORMAT_BEGIN
 90
        0
 91
        1
 62
     0
 92
       -2
340
14
 93
        0
 40
0.045
309
GRIDFORMAT_END
 95
        2
302
GRIDFORMAT
  1
GRIDFORMAT_BEGIN
 90
        0
 91
        1
 62
     0
 92
       -2
340
14
 93
        0
 40
0.045
309
GRIDFORMAT_END
 95
        4
302
GRIDFORMAT
  1
GRIDFORMAT_BEGIN
 90
        0
 91
        1
 62
     0
 92
       -2
340
14
 93
        0
 40
0.045
309
GRIDFORMAT_END
 95
        8
302
GRIDFORMAT
  1
GRIDFORMAT_BEGIN
 90
        0
 91
        1
 62
     0
 92
       -2
340
14
 93
        0
 40
0.045
309
GRIDFORMAT_END
 95
       16
302
GRIDFORMAT
  1
GRIDFORMAT_BEGIN
 90
        0
 91
        1
 62
     0
 92
       -2
340
14
 93
        0
 40
0.045
309
GRIDFORMAT_END
 95
       32
302
GRIDFORMAT
  1
GRIDFORMAT_BEGIN
 90
        0
 91
        1
 62
     0
 92
       -2
340
14
 93
        0
 40
0.045
309
GRIDFORMAT_END
309
TABLEFORMAT_END
  1
CELLSTYLE_BEGIN
 90
        2
 91
        1
300
_HEADER
309
CELLSTYLE_END
300
CELLSTYLE
  1
TABLEFORMAT_BEGIN
 90
        5
170
     1
 91
        0
 92
        0
 62
   257
 93
        1
300
CONTENTFORMAT
  1
CONTENTFORMAT_BEGIN
 90
        0
 91
        0
 92
        4
 93
        0
300

 40
0.0
140
1.0
 94
        2
 62
     0
340
11
144
0.18
309
CONTENTFORMAT_END
171
     1
301
MARGIN
  1
CELLMARGIN_BEGIN
 40
0.06
 40
0.06
 40
0.06
 40
0.06
 40
0.06
 40
0.06
309
CELLMARGIN_END
 94
        6
 95
        1
302
GRIDFORMAT
  1
GRIDFORMAT_BEGIN
 90
        0
 91
        1
 62
     0
 92
       -2
340
14
 93
        0
 40
0.045
309
GRIDFORMAT_END
 95
        2
302
GRIDFORMAT
  1
GRIDFORMAT_BEGIN
 90
        0
 91
        1
 62
     0
 92
       -2
340
14
 93
        0
 40
0.045
309
GRIDFORMAT_END
 95
        4
302
GRIDFORMAT
  1
GRIDFORMAT_BEGIN
 90
        0
 91
        1
 62
     0
 92
       -2
340
14
 93
        0
 40
0.045
309
GRIDFORMAT_END
 95
        8
302
GRIDFORMAT
  1
GRIDFORMAT_BEGIN
 90
        0
 91
        1
 62
     0
 92
       -2
340
14
 93
        0
 40
0.045
309
GRIDFORMAT_END
 95
       16
302
GRIDFORMAT
  1
GRIDFORMAT_BEGIN
 90
        0
 91
        1
 62
     0
 92
       -2
340
14
 93
        0
 40
0.045
309
GRIDFORMAT_END
 95
       32
302
GRIDFORMAT
  1
GRIDFORMAT_BEGIN
 90
        0
 91
        1
 62
     0
 92
       -2
340
14
 93
        0
 40
0.045
309
GRIDFORMAT_END
309
TABLEFORMAT_END
  1
CELLSTYLE_BEGIN
 90
        3
 91
        2
300
_DATA
309
CELLSTYLE_END
  0
XRECORD
  5
99F
102
{ACAD_REACTORS
330
99E
102
}
330
99E
100
AcDbXrecord
280
     1
102
ACAD_ROUNDTRIP_PRE2007_TABLESTYLE
 90
        4
 91
        0
  1

 92
        4
 93
        0
  2

 94
        4
 95
        0
  3

  0
XRECORD
  5
971
102
{ACAD_REACTORS
330
970
102
}
330
970
100
AcDbXrecord
280
     1
102
RTVSPropertyOp0
 70
     1
102
RTVSPropertyOp1
 70
     1
102
RTVSPropertyOp2
 70
     1
102
RTVSPropertyOp3
 70
     1
102
RTVSPropertyOp4
 70
     1
102
RTVSPropertyOp5
 70
     1
102
RTVSPropertyOp6
 70
     1
102
RTVSPropertyOp7
 70
     1
102
RTVSPropertyOp8
 70
     1
102
RTVSPropertyOp9
 70
     1
102
RTVSPropertyOp10
 70
     1
102
RTVSPropertyOp11
 70
     1
102
RTVSPropertyOp12
 70
     1
102
RTVSPropertyOp13
 70
     1
102
RTVSPropertyOp14
 70
     1
102
RTVSPropertyOp15
 70
     1
102
RTVSPropertyOp16
 70
     1
102
RTVSPropertyOp17
 70
     1
102
RTVSPropertyOp18
 70
     1
102
RTVSPropertyOp19
 70
     1
102
RTVSPropertyOp20
 70
     1
102
RTVSPropertyOp21
 70
     1
102
RTVSPropertyOp22
 70
     1
102
RTVSPropertyOp23
 70
     1
102
RTVSPropertyOp24
 70
     1
102
RTVSPropertyOp25
 70
     1
102
RTVSPropertyOp26
 70
     1
102
RTVSPropertyOp27
 70
     1
102
RTVSPropertyOp28
 70
     1
102
RTVSPropertyOp29
 70
     1
102
RTVSPropertyOp30
 70
     1
102
RTVSPropertyOp31
 70
     1
102
RTVSPropertyOp32
 70
     1
102
RTVSPropertyOp33
 70
     1
102
RTVSPropertyOp34
 70
     1
102
RTVSPropertyOp35
 70
     1
102
RTVSPropertyOp36
 70
     1
102
RTVSPropertyOp37
 70
     1
102
RTVSPropertyOp38
 70
     1
102
RTVSPropertyOp39
 70
     1
102
RTVSPropertyOp40
 70
     1
102
RTVSPropertyOp41
 70
     1
102
RTVSPropertyOp42
 70
     1
102
RTVSPropertyOp43
 70
     1
102
RTVSPropertyOp44
 70
     1
102
RTVSPropertyOp45
 70
     1
102
RTVSPropertyOp46
 70
     1
102
RTVSPropertyOp47
 70
     1
102
RTVSPropertyOp48
 70
     1
102
RTVSPropertyOp49
 70
     1
102
RTVSPropertyOp50
 70
     1
102
RTVSPropertyOp51
 70
     0
102
RTVSPropertyOp52
 70
     0
102
RTVSPropertyOp53
 70
     1
102
RTVSPropertyOp54
 70
     1
102
RTVSPropertyOp55
 70
     1
102
RTVSPropertyOp56
 70
     1
102
RTVSPropertyOp57
 70
     1
102
RTVSPost2010Prop28
280
     1
102
RTVSPost2010PropOp28
 70
     1
102
RTVSPost2010Prop29
280
     1
102
RTVSPost2010PropOp29
 70
     1
102
RTVSPost2010Prop30
280
     0
102
RTVSPost2010PropOp30
 70
     1
102
RTVSPost2010Prop31
280
     0
102
RTVSPost2010PropOp31
 70
     1
102
RTVSPost2010Prop32
280
     0
102
RTVSPost2010PropOp32
 70
     1
102
RTVSPost2010Prop33
280
     0
102
RTVSPost2010PropOp33
 70
     1
102
RTVSPost2010Prop34
280
     0
102
RTVSPost2010PropOp34
 70
     1
102
RTVSPost2010Prop35
280
     0
102
RTVSPost2010PropOp35
 70
     1
102
RTVSPost2010Prop36
280
     0
102
RTVSPost2010PropOp36
 70
     1
102
RTVSPost2010Prop37
 90
       50
102
RTVSPost2010PropOp37
 70
     1
102
RTVSPost2010Prop38
140
0.0
102
RTVSPost2010PropOp38
 70
     1
102
RTVSPost2010Prop39
140
1.0
102
RTVSPost2010PropOp39
 70
     1
102
RTVSPost2010Prop40
 90
        0
102
RTVSPost2010PropOp40
 70
     1
102
RTVSPost2010Prop41ColorIndex
 90
       18
102
RTVSPost2010Prop41ColorRGB
 90
        0
102
RTVSPost2010PropOp41
 70
     1
102
RTVSPost2010Prop42
 90
       50
102
RTVSPost2010PropOp42
 70
     1
102
RTVSPost2010Prop43
 90
        3
102
RTVSPost2010PropOp43
 70
     1
102
RTVSPost2010Prop44ColorIndex
 90
        5
102
RTVSPost2010Prop44ColorRGB
 90
      255
102
RTVSPost2010PropOp44
 70
     1
102
RTVSPost2010Prop45
280
     0
102
RTVSPost2010PropOp45
 70
     1
102
RTVSPost2010Prop46
 90
       50
102
RTVSPost2010PropOp46
 70
     1
102
RTVSPost2010Prop47
 90
       50
102
RTVSPost2010PropOp47
 70
     1
102
RTVSPost2010Prop48
 90
       50
102
RTVSPost2010PropOp48
 70
     1
102
RTVSPost2010Prop49
280
     0
102
RTVSPost2010PropOp49
 70
     1
102
RTVSPost2010Prop50
 90
       50
102
RTVSPost2010PropOp50
 70
     1
102
RTVSPost2010Prop51ColorIndex
 90
      256
102
RTVSPost2010Prop51ColorRGB
 90
-16777216
102
RTVSPost2010PropOp51
 70
     0
102
RTVSPost2010Prop52
140
1.0
102
RTVSPost2010PropOp52
 70
     0
102
RTVSPost2010Prop53
 90
        2
102
RTVSPost2010PropOp53
 70
     1
102
RTVSPost2010Prop54
  1
strokes_ogs.tif
102
RTVSPost2010PropOp54
 70
     1
102
RTVSPost2010Prop55
280
     0
102
RTVSPost2010PropOp55
 70
     1
102
RTVSPost2010Prop56
140
1.0
102
RTVSPost2010PropOp56
 70
     1
102
RTVSPost2010Prop57
140
1.0
102
RTVSPost2010PropOp57
 70
     1
  0
XRECORD
  5
977
102
{ACAD_REACTORS
330
976
102
}
330
976
100
AcDbXrecord
280
     1
102
RTVSPropertyOp0
 70
     1
102
RTVSPropertyOp1
 70
     1
102
RTVSPropertyOp2
 70
     1
102
RTVSPropertyOp3
 70
     1
102
RTVSPropertyOp4
 70
     1
102
RTVSPropertyOp5
 70
     1
102
RTVSPropertyOp6
 70
     1
102
RTVSPropertyOp7
 70
     1
102
RTVSPropertyOp8
 70
     1
102
RTVSPropertyOp9
 70
     1
102
RTVSPropertyOp10
 70
     1
102
RTVSPropertyOp11
 70
     1
102
RTVSPropertyOp12
 70
     1
102
RTVSPropertyOp13
 70
     1
102
RTVSPropertyOp14
 70
     1
102
RTVSPropertyOp15
 70
     1
102
RTVSPropertyOp16
 70
     1
102
RTVSPropertyOp17
 70
     1
102
RTVSPropertyOp18
 70
     1
102
RTVSPropertyOp19
 70
     1
102
RTVSPropertyOp20
 70
     1
102
RTVSPropertyOp21
 70
     1
102
RTVSPropertyOp22
 70
     1
102
RTVSPropertyOp23
 70
     1
102
RTVSPropertyOp24
 70
     1
102
RTVSPropertyOp25
 70
     1
102
RTVSPropertyOp26
 70
     1
102
RTVSPropertyOp27
 70
     1
102
RTVSPropertyOp28
 70
     1
102
RTVSPropertyOp29
 70
     1
102
RTVSPropertyOp30
 70
     1
102
RTVSPropertyOp31
 70
     1
102
RTVSPropertyOp32
 70
     1
102
RTVSPropertyOp33
 70
     1
102
RTVSPropertyOp34
 70
     1
102
RTVSPropertyOp35
 70
     1
102
RTVSPropertyOp36
 70
     1
102
RTVSPropertyOp37
 70
     1
102
RTVSPropertyOp38
 70
     1
102
RTVSPropertyOp39
 70
     1
102
RTVSPropertyOp40
 70
     1
102
RTVSPropertyOp41
 70
     1
102
RTVSPropertyOp42
 70
     1
102
RTVSPropertyOp43
 70
     1
102
RTVSPropertyOp44
 70
     1
102
RTVSPropertyOp45
 70
     1
102
RTVSPropertyOp46
 70
     1
102
RTVSPropertyOp47
 70
     1
102
RTVSPropertyOp48
 70
     1
102
RTVSPropertyOp49
 70
     1
102
RTVSPropertyOp50
 70
     1
102
RTVSPropertyOp51
 70
     0
102
RTVSPropertyOp52
 70
     0
102
RTVSPropertyOp53
 70
     1
102
RTVSPropertyOp54
 70
     1
102
RTVSPropertyOp55
 70
     1
102
RTVSPropertyOp56
 70
     1
102
RTVSPropertyOp57
 70
     1
102
RTVSPost2010Prop28
280
     0
102
RTVSPost2010PropOp28
 70
     1
102
RTVSPost2010Prop29
280
     1
102
RTVSPost2010PropOp29
 70
     1
102
RTVSPost2010Prop30
280
     1
102
RTVSPost2010PropOp30
 70
     1
102
RTVSPost2010Prop31
280
     0
102
RTVSPost2010PropOp31
 70
     1
102
RTVSPost2010Prop32
280
     0
102
RTVSPost2010PropOp32
 70
     1
102
RTVSPost2010Prop33
280
     0
102
RTVSPost2010PropOp33
 70
     1
102
RTVSPost2010Prop34
280
     0
102
RTVSPost2010PropOp34
 70
     1
102
RTVSPost2010Prop35
280
     0
102
RTVSPost2010PropOp35
 70
     1
102
RTVSPost2010Prop36
280
     0
102
RTVSPost2010PropOp36
 70
     1
102
RTVSPost2010Prop37
 90
       50
102
RTVSPost2010PropOp37
 70
     1
102
RTVSPost2010Prop38
140
0.0
102
RTVSPost2010PropOp38
 70
     1
102
RTVSPost2010Prop39
140
1.0
102
RTVSPost2010PropOp39
 70
     1
102
RTVSPost2010Prop40
 90
        0
102
RTVSPost2010PropOp40
 70
     1
102
RTVSPost2010Prop41ColorIndex
 90
       18
102
RTVSPost2010Prop41ColorRGB
 90
        0
102
RTVSPost2010PropOp41
 70
     1
102
RTVSPost2010Prop42
 90
       50
102
RTVSPost2010PropOp42
 70
     1
102
RTVSPost2010Prop43
 90
        3
102
RTVSPost2010PropOp43
 70
     1
102
RTVSPost2010Prop44ColorIndex
 90
        5
102
RTVSPost2010Prop44ColorRGB
 90
      255
102
RTVSPost2010PropOp44
 70
     1
102
RTVSPost2010Prop45
280
     0
102
RTVSPost2010PropOp45
 70
     1
102
RTVSPost2010Prop46
 90
       50
102
RTVSPost2010PropOp46
 70
     1
102
RTVSPost2010Prop47
 90
       50
102
RTVSPost2010PropOp47
 70
     1
102
RTVSPost2010Prop48
 90
       50
102
RTVSPost2010PropOp48
 70
     1
102
RTVSPost2010Prop49
280
     0
102
RTVSPost2010PropOp49
 70
     1
102
RTVSPost2010Prop50
 90
       50
102
RTVSPost2010PropOp50
 70
     1
102
RTVSPost2010Prop51ColorIndex
 90
      256
102
RTVSPost2010Prop51ColorRGB
 90
-16777216
102
RTVSPost2010PropOp51
 70
     0
102
RTVSPost2010Prop52
140
1.0
102
RTVSPost2010PropOp52
 70
     0
102
RTVSPost2010Prop53
 90
        2
102
RTVSPost2010PropOp53
 70
     1
102
RTVSPost2010Prop54
  1
strokes_ogs.tif
102
RTVSPost2010PropOp54
 70
     1
102
RTVSPost2010Prop55
280
     0
102
RTVSPost2010PropOp55
 70
     1
102
RTVSPost2010Prop56
140
1.0
102
RTVSPost2010PropOp56
 70
     1
102
RTVSPost2010Prop57
140
1.0
102
RTVSPost2010PropOp57
 70
     1
  0
XRECORD
  5
97F
102
{ACAD_REACTORS
330
97E
102
}
330
97E
100
AcDbXrecord
280
     1
102
RTVSPropertyOp0
 70
     1
102
RTVSPropertyOp1
 70
     1
102
RTVSPropertyOp2
 70
     1
102
RTVSPropertyOp3
 70
     1
102
RTVSPropertyOp4
 70
     1
102
RTVSPropertyOp5
 70
     1
102
RTVSPropertyOp6
 70
     1
102
RTVSPropertyOp7
 70
     1
102
RTVSPropertyOp8
 70
     1
102
RTVSPropertyOp9
 70
     1
102
RTVSPropertyOp10
 70
     1
102
RTVSPropertyOp11
 70
     1
102
RTVSPropertyOp12
 70
     1
102
RTVSPropertyOp13
 70
     1
102
RTVSPropertyOp14
 70
     1
102
RTVSPropertyOp15
 70
     1
102
RTVSPropertyOp16
 70
     1
102
RTVSPropertyOp17
 70
     1
102
RTVSPropertyOp18
 70
     1
102
RTVSPropertyOp19
 70
     1
102
RTVSPropertyOp20
 70
     1
102
RTVSPropertyOp21
 70
     1
102
RTVSPropertyOp22
 70
     1
102
RTVSPropertyOp23
 70
     1
102
RTVSPropertyOp24
 70
     1
102
RTVSPropertyOp25
 70
     1
102
RTVSPropertyOp26
 70
     1
102
RTVSPropertyOp27
 70
     1
102
RTVSPropertyOp28
 70
     1
102
RTVSPropertyOp29
 70
     1
102
RTVSPropertyOp30
 70
     1
102
RTVSPropertyOp31
 70
     1
102
RTVSPropertyOp32
 70
     1
102
RTVSPropertyOp33
 70
     1
102
RTVSPropertyOp34
 70
     1
102
RTVSPropertyOp35
 70
     1
102
RTVSPropertyOp36
 70
     1
102
RTVSPropertyOp37
 70
     1
102
RTVSPropertyOp38
 70
     1
102
RTVSPropertyOp39
 70
     1
102
RTVSPropertyOp40
 70
     1
102
RTVSPropertyOp41
 70
     1
102
RTVSPropertyOp42
 70
     1
102
RTVSPropertyOp43
 70
     1
102
RTVSPropertyOp44
 70
     1
102
RTVSPropertyOp45
 70
     1
102
RTVSPropertyOp46
 70
     1
102
RTVSPropertyOp47
 70
     1
102
RTVSPropertyOp48
 70
     1
102
RTVSPropertyOp49
 70
     1
102
RTVSPropertyOp50
 70
     1
102
RTVSPropertyOp51
 70
     0
102
RTVSPropertyOp52
 70
     0
102
RTVSPropertyOp53
 70
     1
102
RTVSPropertyOp54
 70
     1
102
RTVSPropertyOp55
 70
     1
102
RTVSPropertyOp56
 70
     1
102
RTVSPropertyOp57
 70
     1
102
RTVSPost2010Prop28
280
     0
102
RTVSPost2010PropOp28
 70
     1
102
RTVSPost2010Prop29
280
     1
102
RTVSPost2010PropOp29
 70
     1
102
RTVSPost2010Prop30
280
     1
102
RTVSPost2010PropOp30
 70
     1
102
RTVSPost2010Prop31
280
     0
102
RTVSPost2010PropOp31
 70
     1
102
RTVSPost2010Prop32
280
     0
102
RTVSPost2010PropOp32
 70
     1
102
RTVSPost2010Prop33
280
     0
102
RTVSPost2010PropOp33
 70
     1
102
RTVSPost2010Prop34
280
     0
102
RTVSPost2010PropOp34
 70
     1
102
RTVSPost2010Prop35
280
     0
102
RTVSPost2010PropOp35
 70
     1
102
RTVSPost2010Prop36
280
     0
102
RTVSPost2010PropOp36
 70
     1
102
RTVSPost2010Prop37
 90
       50
102
RTVSPost2010PropOp37
 70
     1
102
RTVSPost2010Prop38
140
0.0
102
RTVSPost2010PropOp38
 70
     1
102
RTVSPost2010Prop39
140
1.0
102
RTVSPost2010PropOp39
 70
     1
102
RTVSPost2010Prop40
 90
        0
102
RTVSPost2010PropOp40
 70
     1
102
RTVSPost2010Prop41ColorIndex
 90
       18
102
RTVSPost2010Prop41ColorRGB
 90
        0
102
RTVSPost2010PropOp41
 70
     1
102
RTVSPost2010Prop42
 90
       50
102
RTVSPost2010PropOp42
 70
     1
102
RTVSPost2010Prop43
 90
        3
102
RTVSPost2010PropOp43
 70
     1
102
RTVSPost2010Prop44ColorIndex
 90
        5
102
RTVSPost2010Prop44ColorRGB
 90
      255
102
RTVSPost2010PropOp44
 70
     1
102
RTVSPost2010Prop45
280
     0
102
RTVSPost2010PropOp45
 70
     1
102
RTVSPost2010Prop46
 90
       50
102
RTVSPost2010PropOp46
 70
     1
102
RTVSPost2010Prop47
 90
       50
102
RTVSPost2010PropOp47
 70
     1
102
RTVSPost2010Prop48
 90
       50
102
RTVSPost2010PropOp48
 70
     1
102
RTVSPost2010Prop49
280
     0
102
RTVSPost2010PropOp49
 70
     1
102
RTVSPost2010Prop50
 90
       50
102
RTVSPost2010PropOp50
 70
     1
102
RTVSPost2010Prop51ColorIndex
 90
      256
102
RTVSPost2010Prop51ColorRGB
 90
-16777216
102
RTVSPost2010PropOp51
 70
     0
102
RTVSPost2010Prop52
140
1.0
102
RTVSPost2010PropOp52
 70
     0
102
RTVSPost2010Prop53
 90
        2
102
RTVSPost2010PropOp53
 70
     1
102
RTVSPost2010Prop54
  1
strokes_ogs.tif
102
RTVSPost2010PropOp54
 70
     1
102
RTVSPost2010Prop55
280
     0
102
RTVSPost2010PropOp55
 70
     1
102
RTVSPost2010Prop56
140
1.0
102
RTVSPost2010PropOp56
 70
     1
102
RTVSPost2010Prop57
140
1.0
102
RTVSPost2010PropOp57
 70
     1
  0
XRECORD
  5
987
102
{ACAD_REACTORS
330
986
102
}
330
986
100
AcDbXrecord
280
     1
102
RTVSPropertyOp0
 70
     1
102
RTVSPropertyOp1
 70
     1
102
RTVSPropertyOp2
 70
     1
102
RTVSPropertyOp3
 70
     1
102
RTVSPropertyOp4
 70
     1
102
RTVSPropertyOp5
 70
     1
102
RTVSPropertyOp6
 70
     1
102
RTVSPropertyOp7
 70
     1
102
RTVSPropertyOp8
 70
     1
102
RTVSPropertyOp9
 70
     1
102
RTVSPropertyOp10
 70
     1
102
RTVSPropertyOp11
 70
     1
102
RTVSPropertyOp12
 70
     1
102
RTVSPropertyOp13
 70
     1
102
RTVSPropertyOp14
 70
     1
102
RTVSPropertyOp15
 70
     1
102
RTVSPropertyOp16
 70
     1
102
RTVSPropertyOp17
 70
     1
102
RTVSPropertyOp18
 70
     1
102
RTVSPropertyOp19
 70
     1
102
RTVSPropertyOp20
 70
     1
102
RTVSPropertyOp21
 70
     1
102
RTVSPropertyOp22
 70
     1
102
RTVSPropertyOp23
 70
     1
102
RTVSPropertyOp24
 70
     1
102
RTVSPropertyOp25
 70
     1
102
RTVSPropertyOp26
 70
     1
102
RTVSPropertyOp27
 70
     1
102
RTVSPropertyOp28
 70
     1
102
RTVSPropertyOp29
 70
     1
102
RTVSPropertyOp30
 70
     1
102
RTVSPropertyOp31
 70
     1
102
RTVSPropertyOp32
 70
     1
102
RTVSPropertyOp33
 70
     1
102
RTVSPropertyOp34
 70
     1
102
RTVSPropertyOp35
 70
     1
102
RTVSPropertyOp36
 70
     1
102
RTVSPropertyOp37
 70
     1
102
RTVSPropertyOp38
 70
     1
102
RTVSPropertyOp39
 70
     1
102
RTVSPropertyOp40
 70
     1
102
RTVSPropertyOp41
 70
     1
102
RTVSPropertyOp42
 70
     1
102
RTVSPropertyOp43
 70
     1
102
RTVSPropertyOp44
 70
     1
102
RTVSPropertyOp45
 70
     1
102
RTVSPropertyOp46
 70
     1
102
RTVSPropertyOp47
 70
     1
102
RTVSPropertyOp48
 70
     1
102
RTVSPropertyOp49
 70
     1
102
RTVSPropertyOp50
 70
     1
102
RTVSPropertyOp51
 70
     0
102
RTVSPropertyOp52
 70
     0
102
RTVSPropertyOp53
 70
     1
102
RTVSPropertyOp54
 70
     1
102
RTVSPropertyOp55
 70
     1
102
RTVSPropertyOp56
 70
     1
102
RTVSPropertyOp57
 70
     1
102
RTVSPost2010Prop28
280
     0
102
RTVSPost2010PropOp28
 70
     1
102
RTVSPost2010Prop29
280
     1
102
RTVSPost2010PropOp29
 70
     1
102
RTVSPost2010Prop30
280
     1
102
RTVSPost2010PropOp30
 70
     1
102
RTVSPost2010Prop31
280
     0
102
RTVSPost2010PropOp31
 70
     1
102
RTVSPost2010Prop32
280
     0
102
RTVSPost2010PropOp32
 70
     1
102
RTVSPost2010Prop33
280
     0
102
RTVSPost2010PropOp33
 70
     1
102
RTVSPost2010Prop34
280
     0
102
RTVSPost2010PropOp34
 70
     1
102
RTVSPost2010Prop35
280
     0
102
RTVSPost2010PropOp35
 70
     1
102
RTVSPost2010Prop36
280
     0
102
RTVSPost2010PropOp36
 70
     1
102
RTVSPost2010Prop37
 90
       50
102
RTVSPost2010PropOp37
 70
     1
102
RTVSPost2010Prop38
140
0.0
102
RTVSPost2010PropOp38
 70
     1
102
RTVSPost2010Prop39
140
1.0
102
RTVSPost2010PropOp39
 70
     1
102
RTVSPost2010Prop40
 90
        0
102
RTVSPost2010PropOp40
 70
     1
102
RTVSPost2010Prop41ColorIndex
 90
       18
102
RTVSPost2010Prop41ColorRGB
 90
        0
102
RTVSPost2010PropOp41
 70
     1
102
RTVSPost2010Prop42
 90
       50
102
RTVSPost2010PropOp42
 70
     1
102
RTVSPost2010Prop43
 90
        3
102
RTVSPost2010PropOp43
 70
     1
102
RTVSPost2010Prop44ColorIndex
 90
        5
102
RTVSPost2010Prop44ColorRGB
 90
      255
102
RTVSPost2010PropOp44
 70
     1
102
RTVSPost2010Prop45
280
     0
102
RTVSPost2010PropOp45
 70
     1
102
RTVSPost2010Prop46
 90
       50
102
RTVSPost2010PropOp46
 70
     1
102
RTVSPost2010Prop47
 90
       50
102
RTVSPost2010PropOp47
 70
     1
102
RTVSPost2010Prop48
 90
       50
102
RTVSPost2010PropOp48
 70
     1
102
RTVSPost2010Prop49
280
     0
102
RTVSPost2010PropOp49
 70
     1
102
RTVSPost2010Prop50
 90
       50
102
RTVSPost2010PropOp50
 70
     1
102
RTVSPost2010Prop51ColorIndex
 90
      256
102
RTVSPost2010Prop51ColorRGB
 90
-16777216
102
RTVSPost2010PropOp51
 70
     0
102
RTVSPost2010Prop52
140
1.0
102
RTVSPost2010PropOp52
 70
     0
102
RTVSPost2010Prop53
 90
        2
102
RTVSPost2010PropOp53
 70
     1
102
RTVSPost2010Prop54
  1
strokes_ogs.tif
102
RTVSPost2010PropOp54
 70
     1
102
RTVSPost2010Prop55
280
     0
102
RTVSPost2010PropOp55
 70
     1
102
RTVSPost2010Prop56
140
1.0
102
RTVSPost2010PropOp56
 70
     1
102
RTVSPost2010Prop57
140
1.0
102
RTVSPost2010PropOp57
 70
     1
  0
XRECORD
  5
97B
102
{ACAD_REACTORS
330
97A
102
}
330
97A
100
AcDbXrecord
280
     1
102
RTVSPropertyOp0
 70
     1
102
RTVSPropertyOp1
 70
     1
102
RTVSPropertyOp2
 70
     1
102
RTVSPropertyOp3
 70
     1
102
RTVSPropertyOp4
 70
     1
102
RTVSPropertyOp5
 70
     1
102
RTVSPropertyOp6
 70
     1
102
RTVSPropertyOp7
 70
     1
102
RTVSPropertyOp8
 70
     1
102
RTVSPropertyOp9
 70
     1
102
RTVSPropertyOp10
 70
     1
102
RTVSPropertyOp11
 70
     1
102
RTVSPropertyOp12
 70
     1
102
RTVSPropertyOp13
 70
     1
102
RTVSPropertyOp14
 70
     1
102
RTVSPropertyOp15
 70
     1
102
RTVSPropertyOp16
 70
     1
102
RTVSPropertyOp17
 70
     1
102
RTVSPropertyOp18
 70
     1
102
RTVSPropertyOp19
 70
     1
102
RTVSPropertyOp20
 70
     1
102
RTVSPropertyOp21
 70
     1
102
RTVSPropertyOp22
 70
     1
102
RTVSPropertyOp23
 70
     1
102
RTVSPropertyOp24
 70
     1
102
RTVSPropertyOp25
 70
     1
102
RTVSPropertyOp26
 70
     1
102
RTVSPropertyOp27
 70
     1
102
RTVSPropertyOp28
 70
     1
102
RTVSPropertyOp29
 70
     1
102
RTVSPropertyOp30
 70
     1
102
RTVSPropertyOp31
 70
     1
102
RTVSPropertyOp32
 70
     1
102
RTVSPropertyOp33
 70
     1
102
RTVSPropertyOp34
 70
     1
102
RTVSPropertyOp35
 70
     1
102
RTVSPropertyOp36
 70
     1
102
RTVSPropertyOp37
 70
     1
102
RTVSPropertyOp38
 70
     1
102
RTVSPropertyOp39
 70
     1
102
RTVSPropertyOp40
 70
     1
102
RTVSPropertyOp41
 70
     1
102
RTVSPropertyOp42
 70
     1
102
RTVSPropertyOp43
 70
     1
102
RTVSPropertyOp44
 70
     1
102
RTVSPropertyOp45
 70
     1
102
RTVSPropertyOp46
 70
     1
102
RTVSPropertyOp47
 70
     1
102
RTVSPropertyOp48
 70
     1
102
RTVSPropertyOp49
 70
     1
102
RTVSPropertyOp50
 70
     1
102
RTVSPropertyOp51
 70
     0
102
RTVSPropertyOp52
 70
     0
102
RTVSPropertyOp53
 70
     1
102
RTVSPropertyOp54
 70
     1
102
RTVSPropertyOp55
 70
     1
102
RTVSPropertyOp56
 70
     1
102
RTVSPropertyOp57
 70
     1
102
RTVSPost2010Prop28
280
     0
102
RTVSPost2010PropOp28
 70
     1
102
RTVSPost2010Prop29
280
     1
102
RTVSPost2010PropOp29
 70
     1
102
RTVSPost2010Prop30
280
     1
102
RTVSPost2010PropOp30
 70
     1
102
RTVSPost2010Prop31
280
     0
102
RTVSPost2010PropOp31
 70
     1
102
RTVSPost2010Prop32
280
     0
102
RTVSPost2010PropOp32
 70
     1
102
RTVSPost2010Prop33
280
     0
102
RTVSPost2010PropOp33
 70
     1
102
RTVSPost2010Prop34
280
     0
102
RTVSPost2010PropOp34
 70
     1
102
RTVSPost2010Prop35
280
     0
102
RTVSPost2010PropOp35
 70
     1
102
RTVSPost2010Prop36
280
     0
102
RTVSPost2010PropOp36
 70
     1
102
RTVSPost2010Prop37
 90
       50
102
RTVSPost2010PropOp37
 70
     1
102
RTVSPost2010Prop38
140
0.0
102
RTVSPost2010PropOp38
 70
     1
102
RTVSPost2010Prop39
140
1.0
102
RTVSPost2010PropOp39
 70
     1
102
RTVSPost2010Prop40
 90
        0
102
RTVSPost2010PropOp40
 70
     1
102
RTVSPost2010Prop41ColorIndex
 90
       18
102
RTVSPost2010Prop41ColorRGB
 90
        0
102
RTVSPost2010PropOp41
 70
     1
102
RTVSPost2010Prop42
 90
       50
102
RTVSPost2010PropOp42
 70
     1
102
RTVSPost2010Prop43
 90
        3
102
RTVSPost2010PropOp43
 70
     1
102
RTVSPost2010Prop44ColorIndex
 90
        5
102
RTVSPost2010Prop44ColorRGB
 90
      255
102
RTVSPost2010PropOp44
 70
     1
102
RTVSPost2010Prop45
280
     0
102
RTVSPost2010PropOp45
 70
     1
102
RTVSPost2010Prop46
 90
       50
102
RTVSPost2010PropOp46
 70
     1
102
RTVSPost2010Prop47
 90
       50
102
RTVSPost2010PropOp47
 70
     1
102
RTVSPost2010Prop48
 90
       50
102
RTVSPost2010PropOp48
 70
     1
102
RTVSPost2010Prop49
280
     0
102
RTVSPost2010PropOp49
 70
     1
102
RTVSPost2010Prop50
 90
       50
102
RTVSPost2010PropOp50
 70
     1
102
RTVSPost2010Prop51ColorIndex
 90
      256
102
RTVSPost2010Prop51ColorRGB
 90
-16777216
102
RTVSPost2010PropOp51
 70
     0
102
RTVSPost2010Prop52
140
1.0
102
RTVSPost2010PropOp52
 70
     0
102
RTVSPost2010Prop53
 90
        2
102
RTVSPost2010PropOp53
 70
     1
102
RTVSPost2010Prop54
  1
strokes_ogs.tif
102
RTVSPost2010PropOp54
 70
     1
102
RTVSPost2010Prop55
280
     0
102
RTVSPost2010PropOp55
 70
     1
102
RTVSPost2010Prop56
140
1.0
102
RTVSPost2010PropOp56
 70
     1
102
RTVSPost2010Prop57
140
1.0
102
RTVSPost2010PropOp57
 70
     1
  0
XRECORD
  5
97D
102
{ACAD_REACTORS
330
97C
102
}
330
97C
100
AcDbXrecord
280
     1
102
RTVSPropertyOp0
 70
     1
102
RTVSPropertyOp1
 70
     1
102
RTVSPropertyOp2
 70
     1
102
RTVSPropertyOp3
 70
     1
102
RTVSPropertyOp4
 70
     1
102
RTVSPropertyOp5
 70
     1
102
RTVSPropertyOp6
 70
     1
102
RTVSPropertyOp7
 70
     1
102
RTVSPropertyOp8
 70
     1
102
RTVSPropertyOp9
 70
     1
102
RTVSPropertyOp10
 70
     1
102
RTVSPropertyOp11
 70
     1
102
RTVSPropertyOp12
 70
     1
102
RTVSPropertyOp13
 70
     1
102
RTVSPropertyOp14
 70
     1
102
RTVSPropertyOp15
 70
     1
102
RTVSPropertyOp16
 70
     1
102
RTVSPropertyOp17
 70
     1
102
RTVSPropertyOp18
 70
     1
102
RTVSPropertyOp19
 70
     1
102
RTVSPropertyOp20
 70
     1
102
RTVSPropertyOp21
 70
     1
102
RTVSPropertyOp22
 70
     1
102
RTVSPropertyOp23
 70
     1
102
RTVSPropertyOp24
 70
     1
102
RTVSPropertyOp25
 70
     1
102
RTVSPropertyOp26
 70
     1
102
RTVSPropertyOp27
 70
     1
102
RTVSPropertyOp28
 70
     1
102
RTVSPropertyOp29
 70
     1
102
RTVSPropertyOp30
 70
     1
102
RTVSPropertyOp31
 70
     1
102
RTVSPropertyOp32
 70
     1
102
RTVSPropertyOp33
 70
     1
102
RTVSPropertyOp34
 70
     1
102
RTVSPropertyOp35
 70
     1
102
RTVSPropertyOp36
 70
     1
102
RTVSPropertyOp37
 70
     1
102
RTVSPropertyOp38
 70
     1
102
RTVSPropertyOp39
 70
     1
102
RTVSPropertyOp40
 70
     1
102
RTVSPropertyOp41
 70
     1
102
RTVSPropertyOp42
 70
     1
102
RTVSPropertyOp43
 70
     1
102
RTVSPropertyOp44
 70
     1
102
RTVSPropertyOp45
 70
     1
102
RTVSPropertyOp46
 70
     1
102
RTVSPropertyOp47
 70
     1
102
RTVSPropertyOp48
 70
     1
102
RTVSPropertyOp49
 70
     1
102
RTVSPropertyOp50
 70
     1
102
RTVSPropertyOp51
 70
     0
102
RTVSPropertyOp52
 70
     0
102
RTVSPropertyOp53
 70
     1
102
RTVSPropertyOp54
 70
     1
102
RTVSPropertyOp55
 70
     1
102
RTVSPropertyOp56
 70
     1
102
RTVSPropertyOp57
 70
     1
102
RTVSPost2010Prop28
280
     0
102
RTVSPost2010PropOp28
 70
     1
102
RTVSPost2010Prop29
280
     1
102
RTVSPost2010PropOp29
 70
     1
102
RTVSPost2010Prop30
280
     1
102
RTVSPost2010PropOp30
 70
     1
102
RTVSPost2010Prop31
280
     0
102
RTVSPost2010PropOp31
 70
     1
102
RTVSPost2010Prop32
280
     0
102
RTVSPost2010PropOp32
 70
     1
102
RTVSPost2010Prop33
280
     0
102
RTVSPost2010PropOp33
 70
     1
102
RTVSPost2010Prop34
280
     0
102
RTVSPost2010PropOp34
 70
     1
102
RTVSPost2010Prop35
280
     0
102
RTVSPost2010PropOp35
 70
     1
102
RTVSPost2010Prop36
280
     0
102
RTVSPost2010PropOp36
 70
     1
102
RTVSPost2010Prop37
 90
       50
102
RTVSPost2010PropOp37
 70
     1
102
RTVSPost2010Prop38
140
0.0
102
RTVSPost2010PropOp38
 70
     1
102
RTVSPost2010Prop39
140
1.0
102
RTVSPost2010PropOp39
 70
     1
102
RTVSPost2010Prop40
 90
        0
102
RTVSPost2010PropOp40
 70
     1
102
RTVSPost2010Prop41ColorIndex
 90
       18
102
RTVSPost2010Prop41ColorRGB
 90
        0
102
RTVSPost2010PropOp41
 70
     1
102
RTVSPost2010Prop42
 90
       50
102
RTVSPost2010PropOp42
 70
     1
102
RTVSPost2010Prop43
 90
        3
102
RTVSPost2010PropOp43
 70
     1
102
RTVSPost2010Prop44ColorIndex
 90
        5
102
RTVSPost2010Prop44ColorRGB
 90
      255
102
RTVSPost2010PropOp44
 70
     1
102
RTVSPost2010Prop45
280
     0
102
RTVSPost2010PropOp45
 70
     1
102
RTVSPost2010Prop46
 90
       50
102
RTVSPost2010PropOp46
 70
     1
102
RTVSPost2010Prop47
 90
       50
102
RTVSPost2010PropOp47
 70
     1
102
RTVSPost2010Prop48
 90
       50
102
RTVSPost2010PropOp48
 70
     1
102
RTVSPost2010Prop49
280
     0
102
RTVSPost2010PropOp49
 70
     1
102
RTVSPost2010Prop50
 90
       50
102
RTVSPost2010PropOp50
 70
     1
102
RTVSPost2010Prop51ColorIndex
 90
      256
102
RTVSPost2010Prop51ColorRGB
 90
-16777216
102
RTVSPost2010PropOp51
 70
     0
102
RTVSPost2010Prop52
140
1.0
102
RTVSPost2010PropOp52
 70
     0
102
RTVSPost2010Prop53
 90
        2
102
RTVSPost2010PropOp53
 70
     1
102
RTVSPost2010Prop54
  1
strokes_ogs.tif
102
RTVSPost2010PropOp54
 70
     1
102
RTVSPost2010Prop55
280
     0
102
RTVSPost2010PropOp55
 70
     1
102
RTVSPost2010Prop56
140
1.0
102
RTVSPost2010PropOp56
 70
     1
102
RTVSPost2010Prop57
140
1.0
102
RTVSPost2010PropOp57
 70
     1
  0
XRECORD
  5
98D
102
{ACAD_REACTORS
330
98C
102
}
330
98C
100
AcDbXrecord
280
     1
102
RTVSPropertyOp0
 70
     0
102
RTVSPropertyOp1
 70
     0
102
RTVSPropertyOp2
 70
     0
102
RTVSPropertyOp3
 70
     0
102
RTVSPropertyOp4
 70
     0
102
RTVSPropertyOp5
 70
     0
102
RTVSPropertyOp6
 70
     0
102
RTVSPropertyOp7
 70
     0
102
RTVSPropertyOp8
 70
     0
102
RTVSPropertyOp9
 70
     0
102
RTVSPropertyOp10
 70
     0
102
RTVSPropertyOp11
 70
     0
102
RTVSPropertyOp12
 70
     0
102
RTVSPropertyOp13
 70
     0
102
RTVSPropertyOp14
 70
     2
102
RTVSPropertyOp15
 70
     0
102
RTVSPropertyOp16
 70
     0
102
RTVSPropertyOp17
 70
     0
102
RTVSPropertyOp18
 70
     0
102
RTVSPropertyOp19
 70
     0
102
RTVSPropertyOp20
 70
     0
102
RTVSPropertyOp21
 70
     0
102
RTVSPropertyOp22
 70
     0
102
RTVSPropertyOp23
 70
     0
102
RTVSPropertyOp24
 70
     0
102
RTVSPropertyOp25
 70
     0
102
RTVSPropertyOp26
 70
     0
102
RTVSPropertyOp27
 70
     0
102
RTVSPropertyOp28
 70
     0
102
RTVSPropertyOp29
 70
     0
102
RTVSPropertyOp30
 70
     0
102
RTVSPropertyOp31
 70
     0
102
RTVSPropertyOp32
 70
     0
102
RTVSPropertyOp33
 70
     0
102
RTVSPropertyOp34
 70
     0
102
RTVSPropertyOp35
 70
     0
102
RTVSPropertyOp36
 70
     0
102
RTVSPropertyOp37
 70
     0
102
RTVSPropertyOp38
 70
     0
102
RTVSPropertyOp39
 70
     0
102
RTVSPropertyOp40
 70
     0
102
RTVSPropertyOp41
 70
     0
102
RTVSPropertyOp42
 70
     0
102
RTVSPropertyOp43
 70
     0
102
RTVSPropertyOp44
 70
     0
102
RTVSPropertyOp45
 70
     0
102
RTVSPropertyOp46
 70
     0
102
RTVSPropertyOp47
 70
     0
102
RTVSPropertyOp48
 70
     0
102
RTVSPropertyOp49
 70
     0
102
RTVSPropertyOp50
 70
     0
102
RTVSPropertyOp51
 70
     0
102
RTVSPropertyOp52
 70
     0
102
RTVSPropertyOp53
 70
     0
102
RTVSPropertyOp54
 70
     0
102
RTVSPropertyOp55
 70
     0
102
RTVSPropertyOp56
 70
     0
102
RTVSPropertyOp57
 70
     0
102
RTVSPost2010Prop28
280
     0
102
RTVSPost2010PropOp28
 70
     0
102
RTVSPost2010Prop29
280
     1
102
RTVSPost2010PropOp29
 70
     0
102
RTVSPost2010Prop30
280
     1
102
RTVSPost2010PropOp30
 70
     0
102
RTVSPost2010Prop31
280
     0
102
RTVSPost2010PropOp31
 70
     0
102
RTVSPost2010Prop32
280
     0
102
RTVSPost2010PropOp32
 70
     0
102
RTVSPost2010Prop33
280
     0
102
RTVSPost2010PropOp33
 70
     0
102
RTVSPost2010Prop34
280
     0
102
RTVSPost2010PropOp34
 70
     0
102
RTVSPost2010Prop35
280
     0
102
RTVSPost2010PropOp35
 70
     0
102
RTVSPost2010Prop36
280
     0
102
RTVSPost2010PropOp36
 70
     0
102
RTVSPost2010Prop37
 90
       50
102
RTVSPost2010PropOp37
 70
     0
102
RTVSPost2010Prop38
140
0.0
102
RTVSPost2010PropOp38
 70
     0
102
RTVSPost2010Prop39
140
1.0
102
RTVSPost2010PropOp39
 70
     0
102
RTVSPost2010Prop40
 90
        0
102
RTVSPost2010PropOp40
 70
     0
102
RTVSPost2010Prop41ColorIndex
 90
       18
102
RTVSPost2010Prop41ColorRGB
 90
        0
102
RTVSPost2010PropOp41
 70
     0
102
RTVSPost2010Prop42
 90
       50
102
RTVSPost2010PropOp42
 70
     0
102
RTVSPost2010Prop43
 90
        3
102
RTVSPost2010PropOp43
 70
     0
102
RTVSPost2010Prop44ColorIndex
 90
        5
102
RTVSPost2010Prop44ColorRGB
 90
      255
102
RTVSPost2010PropOp44
 70
     0
102
RTVSPost2010Prop45
280
     0
102
RTVSPost2010PropOp45
 70
     0
102
RTVSPost2010Prop46
 90
       50
102
RTVSPost2010PropOp46
 70
     0
102
RTVSPost2010Prop47
 90
       50
102
RTVSPost2010PropOp47
 70
     0
102
RTVSPost2010Prop48
 90
       50
102
RTVSPost2010PropOp48
 70
     0
102
RTVSPost2010Prop49
280
     0
102
RTVSPost2010PropOp49
 70
     0
102
RTVSPost2010Prop50
 90
       50
102
RTVSPost2010PropOp50
 70
     0
102
RTVSPost2010Prop51ColorIndex
 90
      256
102
RTVSPost2010Prop51ColorRGB
 90
-16777216
102
RTVSPost2010PropOp51
 70
     0
102
RTVSPost2010Prop52
140
1.0
102
RTVSPost2010PropOp52
 70
     0
102
RTVSPost2010Prop53
 90
        2
102
RTVSPost2010PropOp53
 70
     0
102
RTVSPost2010Prop54
  1
strokes_ogs.tif
102
RTVSPost2010PropOp54
 70
     0
102
RTVSPost2010Prop55
280
     0
102
RTVSPost2010PropOp55
 70
     0
102
RTVSPost2010Prop56
140
1.0
102
RTVSPost2010PropOp56
 70
     0
102
RTVSPost2010Prop57
140
1.0
102
RTVSPost2010PropOp57
 70
     0
  0
XRECORD
  5
985
102
{ACAD_REACTORS
330
984
102
}
330
984
100
AcDbXrecord
280
     1
102
RTVSPropertyOp0
 70
     1
102
RTVSPropertyOp1
 70
     1
102
RTVSPropertyOp2
 70
     1
102
RTVSPropertyOp3
 70
     1
102
RTVSPropertyOp4
 70
     1
102
RTVSPropertyOp5
 70
     1
102
RTVSPropertyOp6
 70
     1
102
RTVSPropertyOp7
 70
     1
102
RTVSPropertyOp8
 70
     1
102
RTVSPropertyOp9
 70
     1
102
RTVSPropertyOp10
 70
     1
102
RTVSPropertyOp11
 70
     1
102
RTVSPropertyOp12
 70
     1
102
RTVSPropertyOp13
 70
     1
102
RTVSPropertyOp14
 70
     1
102
RTVSPropertyOp15
 70
     1
102
RTVSPropertyOp16
 70
     1
102
RTVSPropertyOp17
 70
     1
102
RTVSPropertyOp18
 70
     1
102
RTVSPropertyOp19
 70
     1
102
RTVSPropertyOp20
 70
     1
102
RTVSPropertyOp21
 70
     1
102
RTVSPropertyOp22
 70
     1
102
RTVSPropertyOp23
 70
     1
102
RTVSPropertyOp24
 70
     1
102
RTVSPropertyOp25
 70
     1
102
RTVSPropertyOp26
 70
     1
102
RTVSPropertyOp27
 70
     1
102
RTVSPropertyOp28
 70
     1
102
RTVSPropertyOp29
 70
     1
102
RTVSPropertyOp30
 70
     1
102
RTVSPropertyOp31
 70
     1
102
RTVSPropertyOp32
 70
     1
102
RTVSPropertyOp33
 70
     1
102
RTVSPropertyOp34
 70
     1
102
RTVSPropertyOp35
 70
     1
102
RTVSPropertyOp36
 70
     1
102
RTVSPropertyOp37
 70
     1
102
RTVSPropertyOp38
 70
     1
102
RTVSPropertyOp39
 70
     1
102
RTVSPropertyOp40
 70
     1
102
RTVSPropertyOp41
 70
     1
102
RTVSPropertyOp42
 70
     1
102
RTVSPropertyOp43
 70
     1
102
RTVSPropertyOp44
 70
     1
102
RTVSPropertyOp45
 70
     1
102
RTVSPropertyOp46
 70
     1
102
RTVSPropertyOp47
 70
     1
102
RTVSPropertyOp48
 70
     1
102
RTVSPropertyOp49
 70
     1
102
RTVSPropertyOp50
 70
     1
102
RTVSPropertyOp51
 70
     0
102
RTVSPropertyOp52
 70
     0
102
RTVSPropertyOp53
 70
     1
102
RTVSPropertyOp54
 70
     1
102
RTVSPropertyOp55
 70
     1
102
RTVSPropertyOp56
 70
     1
102
RTVSPropertyOp57
 70
     1
102
RTVSPost2010Prop28
280
     0
102
RTVSPost2010PropOp28
 70
     1
102
RTVSPost2010Prop29
280
     1
102
RTVSPost2010PropOp29
 70
     1
102
RTVSPost2010Prop30
280
     1
102
RTVSPost2010PropOp30
 70
     1
102
RTVSPost2010Prop31
280
     0
102
RTVSPost2010PropOp31
 70
     1
102
RTVSPost2010Prop32
280
     0
102
RTVSPost2010PropOp32
 70
     1
102
RTVSPost2010Prop33
280
     0
102
RTVSPost2010PropOp33
 70
     1
102
RTVSPost2010Prop34
280
     0
102
RTVSPost2010PropOp34
 70
     1
102
RTVSPost2010Prop35
280
     0
102
RTVSPost2010PropOp35
 70
     1
102
RTVSPost2010Prop36
280
     0
102
RTVSPost2010PropOp36
 70
     1
102
RTVSPost2010Prop37
 90
       50
102
RTVSPost2010PropOp37
 70
     1
102
RTVSPost2010Prop38
140
0.0
102
RTVSPost2010PropOp38
 70
     1
102
RTVSPost2010Prop39
140
1.0
102
RTVSPost2010PropOp39
 70
     1
102
RTVSPost2010Prop40
 90
        0
102
RTVSPost2010PropOp40
 70
     1
102
RTVSPost2010Prop41ColorIndex
 90
       18
102
RTVSPost2010Prop41ColorRGB
 90
        0
102
RTVSPost2010PropOp41
 70
     1
102
RTVSPost2010Prop42
 90
       50
102
RTVSPost2010PropOp42
 70
     1
102
RTVSPost2010Prop43
 90
        3
102
RTVSPost2010PropOp43
 70
     1
102
RTVSPost2010Prop44ColorIndex
 90
        5
102
RTVSPost2010Prop44ColorRGB
 90
      255
102
RTVSPost2010PropOp44
 70
     1
102
RTVSPost2010Prop45
280
     0
102
RTVSPost2010PropOp45
 70
     1
102
RTVSPost2010Prop46
 90
       50
102
RTVSPost2010PropOp46
 70
     1
102
RTVSPost2010Prop47
 90
       50
102
RTVSPost2010PropOp47
 70
     1
102
RTVSPost2010Prop48
 90
       50
102
RTVSPost2010PropOp48
 70
     1
102
RTVSPost2010Prop49
280
     0
102
RTVSPost2010PropOp49
 70
     1
102
RTVSPost2010Prop50
 90
       50
102
RTVSPost2010PropOp50
 70
     1
102
RTVSPost2010Prop51ColorIndex
 90
      256
102
RTVSPost2010Prop51ColorRGB
 90
-16777216
102
RTVSPost2010PropOp51
 70
     0
102
RTVSPost2010Prop52
140
1.0
102
RTVSPost2010PropOp52
 70
     0
102
RTVSPost2010Prop53
 90
        2
102
RTVSPost2010PropOp53
 70
     1
102
RTVSPost2010Prop54
  1
strokes_ogs.tif
102
RTVSPost2010PropOp54
 70
     1
102
RTVSPost2010Prop55
280
     0
102
RTVSPost2010PropOp55
 70
     1
102
RTVSPost2010Prop56
140
1.0
102
RTVSPost2010PropOp56
 70
     1
102
RTVSPost2010Prop57
140
1.0
102
RTVSPost2010PropOp57
 70
     1
  0
XRECORD
  5
969
102
{ACAD_REACTORS
330
968
102
}
330
968
100
AcDbXrecord
280
     1
102
RTVSPropertyOp0
 70
     1
102
RTVSPropertyOp1
 70
     1
102
RTVSPropertyOp2
 70
     1
102
RTVSPropertyOp3
 70
     1
102
RTVSPropertyOp4
 70
     1
102
RTVSPropertyOp5
 70
     1
102
RTVSPropertyOp6
 70
     1
102
RTVSPropertyOp7
 70
     1
102
RTVSPropertyOp8
 70
     1
102
RTVSPropertyOp9
 70
     1
102
RTVSPropertyOp10
 70
     1
102
RTVSPropertyOp11
 70
     1
102
RTVSPropertyOp12
 70
     1
102
RTVSPropertyOp13
 70
     1
102
RTVSPropertyOp14
 70
     1
102
RTVSPropertyOp15
 70
     1
102
RTVSPropertyOp16
 70
     1
102
RTVSPropertyOp17
 70
     1
102
RTVSPropertyOp18
 70
     1
102
RTVSPropertyOp19
 70
     1
102
RTVSPropertyOp20
 70
     1
102
RTVSPropertyOp21
 70
     1
102
RTVSPropertyOp22
 70
     1
102
RTVSPropertyOp23
 70
     1
102
RTVSPropertyOp24
 70
     1
102
RTVSPropertyOp25
 70
     1
102
RTVSPropertyOp26
 70
     1
102
RTVSPropertyOp27
 70
     1
102
RTVSPropertyOp28
 70
     1
102
RTVSPropertyOp29
 70
     1
102
RTVSPropertyOp30
 70
     1
102
RTVSPropertyOp31
 70
     1
102
RTVSPropertyOp32
 70
     1
102
RTVSPropertyOp33
 70
     1
102
RTVSPropertyOp34
 70
     1
102
RTVSPropertyOp35
 70
     1
102
RTVSPropertyOp36
 70
     1
102
RTVSPropertyOp37
 70
     1
102
RTVSPropertyOp38
 70
     1
102
RTVSPropertyOp39
 70
     1
102
RTVSPropertyOp40
 70
     1
102
RTVSPropertyOp41
 70
     1
102
RTVSPropertyOp42
 70
     1
102
RTVSPropertyOp43
 70
     1
102
RTVSPropertyOp44
 70
     1
102
RTVSPropertyOp45
 70
     1
102
RTVSPropertyOp46
 70
     1
102
RTVSPropertyOp47
 70
     1
102
RTVSPropertyOp48
 70
     1
102
RTVSPropertyOp49
 70
     1
102
RTVSPropertyOp50
 70
     1
102
RTVSPropertyOp51
 70
     0
102
RTVSPropertyOp52
 70
     0
102
RTVSPropertyOp53
 70
     1
102
RTVSPropertyOp54
 70
     1
102
RTVSPropertyOp55
 70
     1
102
RTVSPropertyOp56
 70
     1
102
RTVSPropertyOp57
 70
     1
102
RTVSPost2010Prop28
280
     0
102
RTVSPost2010PropOp28
 70
     1
102
RTVSPost2010Prop29
280
     1
102
RTVSPost2010PropOp29
 70
     1
102
RTVSPost2010Prop30
280
     1
102
RTVSPost2010PropOp30
 70
     1
102
RTVSPost2010Prop31
280
     0
102
RTVSPost2010PropOp31
 70
     1
102
RTVSPost2010Prop32
280
     0
102
RTVSPost2010PropOp32
 70
     1
102
RTVSPost2010Prop33
280
     0
102
RTVSPost2010PropOp33
 70
     1
102
RTVSPost2010Prop34
280
     0
102
RTVSPost2010PropOp34
 70
     1
102
RTVSPost2010Prop35
280
     0
102
RTVSPost2010PropOp35
 70
     1
102
RTVSPost2010Prop36
280
     0
102
RTVSPost2010PropOp36
 70
     1
102
RTVSPost2010Prop37
 90
       50
102
RTVSPost2010PropOp37
 70
     1
102
RTVSPost2010Prop38
140
0.0
102
RTVSPost2010PropOp38
 70
     1
102
RTVSPost2010Prop39
140
1.0
102
RTVSPost2010PropOp39
 70
     1
102
RTVSPost2010Prop40
 90
        0
102
RTVSPost2010PropOp40
 70
     1
102
RTVSPost2010Prop41ColorIndex
 90
       18
102
RTVSPost2010Prop41ColorRGB
 90
        0
102
RTVSPost2010PropOp41
 70
     1
102
RTVSPost2010Prop42
 90
       50
102
RTVSPost2010PropOp42
 70
     1
102
RTVSPost2010Prop43
 90
        3
102
RTVSPost2010PropOp43
 70
     1
102
RTVSPost2010Prop44ColorIndex
 90
        5
102
RTVSPost2010Prop44ColorRGB
 90
      255
102
RTVSPost2010PropOp44
 70
     1
102
RTVSPost2010Prop45
280
     0
102
RTVSPost2010PropOp45
 70
     1
102
RTVSPost2010Prop46
 90
       50
102
RTVSPost2010PropOp46
 70
     1
102
RTVSPost2010Prop47
 90
       50
102
RTVSPost2010PropOp47
 70
     1
102
RTVSPost2010Prop48
 90
       50
102
RTVSPost2010PropOp48
 70
     1
102
RTVSPost2010Prop49
280
     0
102
RTVSPost2010PropOp49
 70
     1
102
RTVSPost2010Prop50
 90
       50
102
RTVSPost2010PropOp50
 70
     1
102
RTVSPost2010Prop51ColorIndex
 90
      256
102
RTVSPost2010Prop51ColorRGB
 90
-16777216
102
RTVSPost2010PropOp51
 70
     0
102
RTVSPost2010Prop52
140
1.0
102
RTVSPost2010PropOp52
 70
     0
102
RTVSPost2010Prop53
 90
        2
102
RTVSPost2010PropOp53
 70
     1
102
RTVSPost2010Prop54
  1
strokes_ogs.tif
102
RTVSPost2010PropOp54
 70
     1
102
RTVSPost2010Prop55
280
     0
102
RTVSPost2010PropOp55
 70
     1
102
RTVSPost2010Prop56
140
1.0
102
RTVSPost2010PropOp56
 70
     1
102
RTVSPost2010Prop57
140
1.0
102
RTVSPost2010PropOp57
 70
     1
  0
XRECORD
  5
96B
102
{ACAD_REACTORS
330
96A
102
}
330
96A
100
AcDbXrecord
280
     1
102
RTVSPropertyOp0
 70
     1
102
RTVSPropertyOp1
 70
     1
102
RTVSPropertyOp2
 70
     1
102
RTVSPropertyOp3
 70
     1
102
RTVSPropertyOp4
 70
     1
102
RTVSPropertyOp5
 70
     1
102
RTVSPropertyOp6
 70
     1
102
RTVSPropertyOp7
 70
     1
102
RTVSPropertyOp8
 70
     1
102
RTVSPropertyOp9
 70
     1
102
RTVSPropertyOp10
 70
     1
102
RTVSPropertyOp11
 70
     1
102
RTVSPropertyOp12
 70
     1
102
RTVSPropertyOp13
 70
     1
102
RTVSPropertyOp14
 70
     1
102
RTVSPropertyOp15
 70
     1
102
RTVSPropertyOp16
 70
     1
102
RTVSPropertyOp17
 70
     1
102
RTVSPropertyOp18
 70
     1
102
RTVSPropertyOp19
 70
     1
102
RTVSPropertyOp20
 70
     1
102
RTVSPropertyOp21
 70
     1
102
RTVSPropertyOp22
 70
     1
102
RTVSPropertyOp23
 70
     1
102
RTVSPropertyOp24
 70
     1
102
RTVSPropertyOp25
 70
     1
102
RTVSPropertyOp26
 70
     1
102
RTVSPropertyOp27
 70
     1
102
RTVSPropertyOp28
 70
     1
102
RTVSPropertyOp29
 70
     1
102
RTVSPropertyOp30
 70
     1
102
RTVSPropertyOp31
 70
     1
102
RTVSPropertyOp32
 70
     1
102
RTVSPropertyOp33
 70
     1
102
RTVSPropertyOp34
 70
     1
102
RTVSPropertyOp35
 70
     1
102
RTVSPropertyOp36
 70
     1
102
RTVSPropertyOp37
 70
     1
102
RTVSPropertyOp38
 70
     1
102
RTVSPropertyOp39
 70
     1
102
RTVSPropertyOp40
 70
     1
102
RTVSPropertyOp41
 70
     1
102
RTVSPropertyOp42
 70
     1
102
RTVSPropertyOp43
 70
     1
102
RTVSPropertyOp44
 70
     1
102
RTVSPropertyOp45
 70
     1
102
RTVSPropertyOp46
 70
     1
102
RTVSPropertyOp47
 70
     1
102
RTVSPropertyOp48
 70
     1
102
RTVSPropertyOp49
 70
     1
102
RTVSPropertyOp50
 70
     1
102
RTVSPropertyOp51
 70
     0
102
RTVSPropertyOp52
 70
     0
102
RTVSPropertyOp53
 70
     1
102
RTVSPropertyOp54
 70
     1
102
RTVSPropertyOp55
 70
     1
102
RTVSPropertyOp56
 70
     1
102
RTVSPropertyOp57
 70
     1
102
RTVSPost2010Prop28
280
     0
102
RTVSPost2010PropOp28
 70
     1
102
RTVSPost2010Prop29
280
     1
102
RTVSPost2010PropOp29
 70
     1
102
RTVSPost2010Prop30
280
     1
102
RTVSPost2010PropOp30
 70
     1
102
RTVSPost2010Prop31
280
     0
102
RTVSPost2010PropOp31
 70
     1
102
RTVSPost2010Prop32
280
     0
102
RTVSPost2010PropOp32
 70
     1
102
RTVSPost2010Prop33
280
     0
102
RTVSPost2010PropOp33
 70
     1
102
RTVSPost2010Prop34
280
     0
102
RTVSPost2010PropOp34
 70
     1
102
RTVSPost2010Prop35
280
     0
102
RTVSPost2010PropOp35
 70
     1
102
RTVSPost2010Prop36
280
     0
102
RTVSPost2010PropOp36
 70
     1
102
RTVSPost2010Prop37
 90
       50
102
RTVSPost2010PropOp37
 70
     1
102
RTVSPost2010Prop38
140
0.0
102
RTVSPost2010PropOp38
 70
     1
102
RTVSPost2010Prop39
140
1.0
102
RTVSPost2010PropOp39
 70
     1
102
RTVSPost2010Prop40
 90
        0
102
RTVSPost2010PropOp40
 70
     1
102
RTVSPost2010Prop41ColorIndex
 90
       18
102
RTVSPost2010Prop41ColorRGB
 90
        0
102
RTVSPost2010PropOp41
 70
     1
102
RTVSPost2010Prop42
 90
       50
102
RTVSPost2010PropOp42
 70
     1
102
RTVSPost2010Prop43
 90
        3
102
RTVSPost2010PropOp43
 70
     1
102
RTVSPost2010Prop44ColorIndex
 90
        5
102
RTVSPost2010Prop44ColorRGB
 90
      255
102
RTVSPost2010PropOp44
 70
     1
102
RTVSPost2010Prop45
280
     0
102
RTVSPost2010PropOp45
 70
     1
102
RTVSPost2010Prop46
 90
       50
102
RTVSPost2010PropOp46
 70
     1
102
RTVSPost2010Prop47
 90
       50
102
RTVSPost2010PropOp47
 70
     1
102
RTVSPost2010Prop48
 90
       50
102
RTVSPost2010PropOp48
 70
     1
102
RTVSPost2010Prop49
280
     0
102
RTVSPost2010PropOp49
 70
     1
102
RTVSPost2010Prop50
 90
       50
102
RTVSPost2010PropOp50
 70
     1
102
RTVSPost2010Prop51ColorIndex
 90
      256
102
RTVSPost2010Prop51ColorRGB
 90
-16777216
102
RTVSPost2010PropOp51
 70
     0
102
RTVSPost2010Prop52
140
1.0
102
RTVSPost2010PropOp52
 70
     0
102
RTVSPost2010Prop53
 90
        2
102
RTVSPost2010PropOp53
 70
     1
102
RTVSPost2010Prop54
  1
strokes_ogs.tif
102
RTVSPost2010PropOp54
 70
     1
102
RTVSPost2010Prop55
280
     0
102
RTVSPost2010PropOp55
 70
     1
102
RTVSPost2010Prop56
140
1.0
102
RTVSPost2010PropOp56
 70
     1
102
RTVSPost2010Prop57
140
1.0
102
RTVSPost2010PropOp57
 70
     1
  0
XRECORD
  5
96D
102
{ACAD_REACTORS
330
96C
102
}
330
96C
100
AcDbXrecord
280
     1
102
RTVSPropertyOp0
 70
     1
102
RTVSPropertyOp1
 70
     1
102
RTVSPropertyOp2
 70
     1
102
RTVSPropertyOp3
 70
     1
102
RTVSPropertyOp4
 70
     1
102
RTVSPropertyOp5
 70
     1
102
RTVSPropertyOp6
 70
     1
102
RTVSPropertyOp7
 70
     1
102
RTVSPropertyOp8
 70
     1
102
RTVSPropertyOp9
 70
     1
102
RTVSPropertyOp10
 70
     1
102
RTVSPropertyOp11
 70
     1
102
RTVSPropertyOp12
 70
     1
102
RTVSPropertyOp13
 70
     1
102
RTVSPropertyOp14
 70
     1
102
RTVSPropertyOp15
 70
     1
102
RTVSPropertyOp16
 70
     1
102
RTVSPropertyOp17
 70
     1
102
RTVSPropertyOp18
 70
     1
102
RTVSPropertyOp19
 70
     1
102
RTVSPropertyOp20
 70
     1
102
RTVSPropertyOp21
 70
     1
102
RTVSPropertyOp22
 70
     1
102
RTVSPropertyOp23
 70
     1
102
RTVSPropertyOp24
 70
     1
102
RTVSPropertyOp25
 70
     1
102
RTVSPropertyOp26
 70
     1
102
RTVSPropertyOp27
 70
     1
102
RTVSPropertyOp28
 70
     1
102
RTVSPropertyOp29
 70
     1
102
RTVSPropertyOp30
 70
     1
102
RTVSPropertyOp31
 70
     1
102
RTVSPropertyOp32
 70
     1
102
RTVSPropertyOp33
 70
     1
102
RTVSPropertyOp34
 70
     1
102
RTVSPropertyOp35
 70
     1
102
RTVSPropertyOp36
 70
     1
102
RTVSPropertyOp37
 70
     1
102
RTVSPropertyOp38
 70
     1
102
RTVSPropertyOp39
 70
     1
102
RTVSPropertyOp40
 70
     1
102
RTVSPropertyOp41
 70
     1
102
RTVSPropertyOp42
 70
     1
102
RTVSPropertyOp43
 70
     1
102
RTVSPropertyOp44
 70
     1
102
RTVSPropertyOp45
 70
     1
102
RTVSPropertyOp46
 70
     1
102
RTVSPropertyOp47
 70
     1
102
RTVSPropertyOp48
 70
     1
102
RTVSPropertyOp49
 70
     1
102
RTVSPropertyOp50
 70
     1
102
RTVSPropertyOp51
 70
     0
102
RTVSPropertyOp52
 70
     0
102
RTVSPropertyOp53
 70
     1
102
RTVSPropertyOp54
 70
     1
102
RTVSPropertyOp55
 70
     1
102
RTVSPropertyOp56
 70
     1
102
RTVSPropertyOp57
 70
     1
102
RTVSPost2010Prop28
280
     0
102
RTVSPost2010PropOp28
 70
     1
102
RTVSPost2010Prop29
280
     1
102
RTVSPost2010PropOp29
 70
     1
102
RTVSPost2010Prop30
280
     1
102
RTVSPost2010PropOp30
 70
     1
102
RTVSPost2010Prop31
280
     0
102
RTVSPost2010PropOp31
 70
     1
102
RTVSPost2010Prop32
280
     0
102
RTVSPost2010PropOp32
 70
     1
102
RTVSPost2010Prop33
280
     0
102
RTVSPost2010PropOp33
 70
     1
102
RTVSPost2010Prop34
280
     0
102
RTVSPost2010PropOp34
 70
     1
102
RTVSPost2010Prop35
280
     0
102
RTVSPost2010PropOp35
 70
     1
102
RTVSPost2010Prop36
280
     0
102
RTVSPost2010PropOp36
 70
     1
102
RTVSPost2010Prop37
 90
       50
102
RTVSPost2010PropOp37
 70
     1
102
RTVSPost2010Prop38
140
0.0
102
RTVSPost2010PropOp38
 70
     1
102
RTVSPost2010Prop39
140
1.0
102
RTVSPost2010PropOp39
 70
     1
102
RTVSPost2010Prop40
 90
        0
102
RTVSPost2010PropOp40
 70
     1
102
RTVSPost2010Prop41ColorIndex
 90
       18
102
RTVSPost2010Prop41ColorRGB
 90
        0
102
RTVSPost2010PropOp41
 70
     1
102
RTVSPost2010Prop42
 90
       50
102
RTVSPost2010PropOp42
 70
     1
102
RTVSPost2010Prop43
 90
        3
102
RTVSPost2010PropOp43
 70
     1
102
RTVSPost2010Prop44ColorIndex
 90
        5
102
RTVSPost2010Prop44ColorRGB
 90
      255
102
RTVSPost2010PropOp44
 70
     1
102
RTVSPost2010Prop45
280
     0
102
RTVSPost2010PropOp45
 70
     1
102
RTVSPost2010Prop46
 90
       50
102
RTVSPost2010PropOp46
 70
     1
102
RTVSPost2010Prop47
 90
       50
102
RTVSPost2010PropOp47
 70
     1
102
RTVSPost2010Prop48
 90
       50
102
RTVSPost2010PropOp48
 70
     1
102
RTVSPost2010Prop49
280
     0
102
RTVSPost2010PropOp49
 70
     1
102
RTVSPost2010Prop50
 90
       50
102
RTVSPost2010PropOp50
 70
     1
102
RTVSPost2010Prop51ColorIndex
 90
      256
102
RTVSPost2010Prop51ColorRGB
 90
-16777216
102
RTVSPost2010PropOp51
 70
     0
102
RTVSPost2010Prop52
140
1.0
102
RTVSPost2010PropOp52
 70
     0
102
RTVSPost2010Prop53
 90
        2
102
RTVSPost2010PropOp53
 70
     1
102
RTVSPost2010Prop54
  1
strokes_ogs.tif
102
RTVSPost2010PropOp54
 70
     1
102
RTVSPost2010Prop55
280
     0
102
RTVSPost2010PropOp55
 70
     1
102
RTVSPost2010Prop56
140
1.0
102
RTVSPost2010PropOp56
 70
     1
102
RTVSPost2010Prop57
140
1.0
102
RTVSPost2010PropOp57
 70
     1
  0
XRECORD
  5
96F
102
{ACAD_REACTORS
330
96E
102
}
330
96E
100
AcDbXrecord
280
     1
102
RTVSPropertyOp0
 70
     1
102
RTVSPropertyOp1
 70
     1
102
RTVSPropertyOp2
 70
     1
102
RTVSPropertyOp3
 70
     1
102
RTVSPropertyOp4
 70
     1
102
RTVSPropertyOp5
 70
     1
102
RTVSPropertyOp6
 70
     1
102
RTVSPropertyOp7
 70
     1
102
RTVSPropertyOp8
 70
     1
102
RTVSPropertyOp9
 70
     1
102
RTVSPropertyOp10
 70
     1
102
RTVSPropertyOp11
 70
     1
102
RTVSPropertyOp12
 70
     1
102
RTVSPropertyOp13
 70
     1
102
RTVSPropertyOp14
 70
     1
102
RTVSPropertyOp15
 70
     1
102
RTVSPropertyOp16
 70
     1
102
RTVSPropertyOp17
 70
     1
102
RTVSPropertyOp18
 70
     1
102
RTVSPropertyOp19
 70
     1
102
RTVSPropertyOp20
 70
     1
102
RTVSPropertyOp21
 70
     1
102
RTVSPropertyOp22
 70
     1
102
RTVSPropertyOp23
 70
     1
102
RTVSPropertyOp24
 70
     1
102
RTVSPropertyOp25
 70
     1
102
RTVSPropertyOp26
 70
     1
102
RTVSPropertyOp27
 70
     1
102
RTVSPropertyOp28
 70
     1
102
RTVSPropertyOp29
 70
     1
102
RTVSPropertyOp30
 70
     1
102
RTVSPropertyOp31
 70
     1
102
RTVSPropertyOp32
 70
     1
102
RTVSPropertyOp33
 70
     1
102
RTVSPropertyOp34
 70
     1
102
RTVSPropertyOp35
 70
     1
102
RTVSPropertyOp36
 70
     1
102
RTVSPropertyOp37
 70
     1
102
RTVSPropertyOp38
 70
     1
102
RTVSPropertyOp39
 70
     1
102
RTVSPropertyOp40
 70
     1
102
RTVSPropertyOp41
 70
     1
102
RTVSPropertyOp42
 70
     1
102
RTVSPropertyOp43
 70
     1
102
RTVSPropertyOp44
 70
     1
102
RTVSPropertyOp45
 70
     1
102
RTVSPropertyOp46
 70
     1
102
RTVSPropertyOp47
 70
     1
102
RTVSPropertyOp48
 70
     1
102
RTVSPropertyOp49
 70
     1
102
RTVSPropertyOp50
 70
     1
102
RTVSPropertyOp51
 70
     0
102
RTVSPropertyOp52
 70
     0
102
RTVSPropertyOp53
 70
     1
102
RTVSPropertyOp54
 70
     1
102
RTVSPropertyOp55
 70
     1
102
RTVSPropertyOp56
 70
     1
102
RTVSPropertyOp57
 70
     1
102
RTVSPost2010Prop28
280
     0
102
RTVSPost2010PropOp28
 70
     1
102
RTVSPost2010Prop29
280
     1
102
RTVSPost2010PropOp29
 70
     1
102
RTVSPost2010Prop30
280
     1
102
RTVSPost2010PropOp30
 70
     1
102
RTVSPost2010Prop31
280
     0
102
RTVSPost2010PropOp31
 70
     1
102
RTVSPost2010Prop32
280
     0
102
RTVSPost2010PropOp32
 70
     1
102
RTVSPost2010Prop33
280
     0
102
RTVSPost2010PropOp33
 70
     1
102
RTVSPost2010Prop34
280
     0
102
RTVSPost2010PropOp34
 70
     1
102
RTVSPost2010Prop35
280
     0
102
RTVSPost2010PropOp35
 70
     1
102
RTVSPost2010Prop36
280
     0
102
RTVSPost2010PropOp36
 70
     1
102
RTVSPost2010Prop37
 90
       50
102
RTVSPost2010PropOp37
 70
     1
102
RTVSPost2010Prop38
140
0.0
102
RTVSPost2010PropOp38
 70
     1
102
RTVSPost2010Prop39
140
1.0
102
RTVSPost2010PropOp39
 70
     1
102
RTVSPost2010Prop40
 90
        0
102
RTVSPost2010PropOp40
 70
     1
102
RTVSPost2010Prop41ColorIndex
 90
       18
102
RTVSPost2010Prop41ColorRGB
 90
        0
102
RTVSPost2010PropOp41
 70
     1
102
RTVSPost2010Prop42
 90
       50
102
RTVSPost2010PropOp42
 70
     1
102
RTVSPost2010Prop43
 90
        3
102
RTVSPost2010PropOp43
 70
     1
102
RTVSPost2010Prop44ColorIndex
 90
        5
102
RTVSPost2010Prop44ColorRGB
 90
      255
102
RTVSPost2010PropOp44
 70
     1
102
RTVSPost2010Prop45
280
     0
102
RTVSPost2010PropOp45
 70
     1
102
RTVSPost2010Prop46
 90
       50
102
RTVSPost2010PropOp46
 70
     1
102
RTVSPost2010Prop47
 90
       50
102
RTVSPost2010PropOp47
 70
     1
102
RTVSPost2010Prop48
 90
       50
102
RTVSPost2010PropOp48
 70
     1
102
RTVSPost2010Prop49
280
     0
102
RTVSPost2010PropOp49
 70
     1
102
RTVSPost2010Prop50
 90
       50
102
RTVSPost2010PropOp50
 70
     1
102
RTVSPost2010Prop51ColorIndex
 90
      256
102
RTVSPost2010Prop51ColorRGB
 90
-16777216
102
RTVSPost2010PropOp51
 70
     0
102
RTVSPost2010Prop52
140
1.0
102
RTVSPost2010PropOp52
 70
     0
102
RTVSPost2010Prop53
 90
        2
102
RTVSPost2010PropOp53
 70
     1
102
RTVSPost2010Prop54
  1
strokes_ogs.tif
102
RTVSPost2010PropOp54
 70
     1
102
RTVSPost2010Prop55
280
     0
102
RTVSPost2010PropOp55
 70
     1
102
RTVSPost2010Prop56
140
1.0
102
RTVSPost2010PropOp56
 70
     1
102
RTVSPost2010Prop57
140
1.0
102
RTVSPost2010PropOp57
 70
     1
  0
XRECORD
  5
975
102
{ACAD_REACTORS
330
974
102
}
330
974
100
AcDbXrecord
280
     1
102
RTVSPropertyOp0
 70
     1
102
RTVSPropertyOp1
 70
     1
102
RTVSPropertyOp2
 70
     1
102
RTVSPropertyOp3
 70
     1
102
RTVSPropertyOp4
 70
     1
102
RTVSPropertyOp5
 70
     1
102
RTVSPropertyOp6
 70
     1
102
RTVSPropertyOp7
 70
     1
102
RTVSPropertyOp8
 70
     1
102
RTVSPropertyOp9
 70
     1
102
RTVSPropertyOp10
 70
     1
102
RTVSPropertyOp11
 70
     1
102
RTVSPropertyOp12
 70
     1
102
RTVSPropertyOp13
 70
     1
102
RTVSPropertyOp14
 70
     1
102
RTVSPropertyOp15
 70
     1
102
RTVSPropertyOp16
 70
     1
102
RTVSPropertyOp17
 70
     1
102
RTVSPropertyOp18
 70
     1
102
RTVSPropertyOp19
 70
     1
102
RTVSPropertyOp20
 70
     1
102
RTVSPropertyOp21
 70
     1
102
RTVSPropertyOp22
 70
     1
102
RTVSPropertyOp23
 70
     1
102
RTVSPropertyOp24
 70
     1
102
RTVSPropertyOp25
 70
     1
102
RTVSPropertyOp26
 70
     1
102
RTVSPropertyOp27
 70
     1
102
RTVSPropertyOp28
 70
     1
102
RTVSPropertyOp29
 70
     1
102
RTVSPropertyOp30
 70
     1
102
RTVSPropertyOp31
 70
     1
102
RTVSPropertyOp32
 70
     1
102
RTVSPropertyOp33
 70
     1
102
RTVSPropertyOp34
 70
     1
102
RTVSPropertyOp35
 70
     1
102
RTVSPropertyOp36
 70
     1
102
RTVSPropertyOp37
 70
     1
102
RTVSPropertyOp38
 70
     1
102
RTVSPropertyOp39
 70
     1
102
RTVSPropertyOp40
 70
     1
102
RTVSPropertyOp41
 70
     1
102
RTVSPropertyOp42
 70
     1
102
RTVSPropertyOp43
 70
     1
102
RTVSPropertyOp44
 70
     1
102
RTVSPropertyOp45
 70
     1
102
RTVSPropertyOp46
 70
     1
102
RTVSPropertyOp47
 70
     1
102
RTVSPropertyOp48
 70
     1
102
RTVSPropertyOp49
 70
     1
102
RTVSPropertyOp50
 70
     1
102
RTVSPropertyOp51
 70
     0
102
RTVSPropertyOp52
 70
     0
102
RTVSPropertyOp53
 70
     1
102
RTVSPropertyOp54
 70
     1
102
RTVSPropertyOp55
 70
     1
102
RTVSPropertyOp56
 70
     1
102
RTVSPropertyOp57
 70
     1
102
RTVSPost2010Prop28
280
     0
102
RTVSPost2010PropOp28
 70
     1
102
RTVSPost2010Prop29
280
     1
102
RTVSPost2010PropOp29
 70
     1
102
RTVSPost2010Prop30
280
     1
102
RTVSPost2010PropOp30
 70
     1
102
RTVSPost2010Prop31
280
     0
102
RTVSPost2010PropOp31
 70
     1
102
RTVSPost2010Prop32
280
     0
102
RTVSPost2010PropOp32
 70
     1
102
RTVSPost2010Prop33
280
     0
102
RTVSPost2010PropOp33
 70
     1
102
RTVSPost2010Prop34
280
     0
102
RTVSPost2010PropOp34
 70
     1
102
RTVSPost2010Prop35
280
     0
102
RTVSPost2010PropOp35
 70
     1
102
RTVSPost2010Prop36
280
     0
102
RTVSPost2010PropOp36
 70
     1
102
RTVSPost2010Prop37
 90
       50
102
RTVSPost2010PropOp37
 70
     1
102
RTVSPost2010Prop38
140
0.0
102
RTVSPost2010PropOp38
 70
     1
102
RTVSPost2010Prop39
140
1.0
102
RTVSPost2010PropOp39
 70
     1
102
RTVSPost2010Prop40
 90
        0
102
RTVSPost2010PropOp40
 70
     1
102
RTVSPost2010Prop41ColorIndex
 90
       18
102
RTVSPost2010Prop41ColorRGB
 90
        0
102
RTVSPost2010PropOp41
 70
     1
102
RTVSPost2010Prop42
 90
       50
102
RTVSPost2010PropOp42
 70
     1
102
RTVSPost2010Prop43
 90
        3
102
RTVSPost2010PropOp43
 70
     1
102
RTVSPost2010Prop44ColorIndex
 90
        5
102
RTVSPost2010Prop44ColorRGB
 90
      255
102
RTVSPost2010PropOp44
 70
     1
102
RTVSPost2010Prop45
280
     0
102
RTVSPost2010PropOp45
 70
     1
102
RTVSPost2010Prop46
 90
       50
102
RTVSPost2010PropOp46
 70
     1
102
RTVSPost2010Prop47
 90
       50
102
RTVSPost2010PropOp47
 70
     1
102
RTVSPost2010Prop48
 90
       50
102
RTVSPost2010PropOp48
 70
     1
102
RTVSPost2010Prop49
280
     0
102
RTVSPost2010PropOp49
 70
     1
102
RTVSPost2010Prop50
 90
       50
102
RTVSPost2010PropOp50
 70
     1
102
RTVSPost2010Prop51ColorIndex
 90
      256
102
RTVSPost2010Prop51ColorRGB
 90
-16777216
102
RTVSPost2010PropOp51
 70
     0
102
RTVSPost2010Prop52
140
1.0
102
RTVSPost2010PropOp52
 70
     0
102
RTVSPost2010Prop53
 90
        2
102
RTVSPost2010PropOp53
 70
     1
102
RTVSPost2010Prop54
  1
strokes_ogs.tif
102
RTVSPost2010PropOp54
 70
     1
102
RTVSPost2010Prop55
280
     0
102
RTVSPost2010PropOp55
 70
     1
102
RTVSPost2010Prop56
140
1.0
102
RTVSPost2010PropOp56
 70
     1
102
RTVSPost2010Prop57
140
1.0
102
RTVSPost2010PropOp57
 70
     1
  0
XRECORD
  5
989
102
{ACAD_REACTORS
330
988
102
}
330
988
100
AcDbXrecord
280
     1
102
RTVSPropertyOp0
 70
     0
102
RTVSPropertyOp1
 70
     0
102
RTVSPropertyOp2
 70
     0
102
RTVSPropertyOp3
 70
     0
102
RTVSPropertyOp4
 70
     0
102
RTVSPropertyOp5
 70
     0
102
RTVSPropertyOp6
 70
     0
102
RTVSPropertyOp7
 70
     0
102
RTVSPropertyOp8
 70
     0
102
RTVSPropertyOp9
 70
     0
102
RTVSPropertyOp10
 70
     0
102
RTVSPropertyOp11
 70
     0
102
RTVSPropertyOp12
 70
     0
102
RTVSPropertyOp13
 70
     0
102
RTVSPropertyOp14
 70
     2
102
RTVSPropertyOp15
 70
     0
102
RTVSPropertyOp16
 70
     0
102
RTVSPropertyOp17
 70
     0
102
RTVSPropertyOp18
 70
     0
102
RTVSPropertyOp19
 70
     0
102
RTVSPropertyOp20
 70
     0
102
RTVSPropertyOp21
 70
     0
102
RTVSPropertyOp22
 70
     0
102
RTVSPropertyOp23
 70
     0
102
RTVSPropertyOp24
 70
     0
102
RTVSPropertyOp25
 70
     0
102
RTVSPropertyOp26
 70
     0
102
RTVSPropertyOp27
 70
     0
102
RTVSPropertyOp28
 70
     0
102
RTVSPropertyOp29
 70
     0
102
RTVSPropertyOp30
 70
     0
102
RTVSPropertyOp31
 70
     0
102
RTVSPropertyOp32
 70
     0
102
RTVSPropertyOp33
 70
     0
102
RTVSPropertyOp34
 70
     0
102
RTVSPropertyOp35
 70
     0
102
RTVSPropertyOp36
 70
     0
102
RTVSPropertyOp37
 70
     0
102
RTVSPropertyOp38
 70
     0
102
RTVSPropertyOp39
 70
     0
102
RTVSPropertyOp40
 70
     0
102
RTVSPropertyOp41
 70
     0
102
RTVSPropertyOp42
 70
     0
102
RTVSPropertyOp43
 70
     0
102
RTVSPropertyOp44
 70
     0
102
RTVSPropertyOp45
 70
     0
102
RTVSPropertyOp46
 70
     0
102
RTVSPropertyOp47
 70
     0
102
RTVSPropertyOp48
 70
     0
102
RTVSPropertyOp49
 70
     0
102
RTVSPropertyOp50
 70
     0
102
RTVSPropertyOp51
 70
     0
102
RTVSPropertyOp52
 70
     0
102
RTVSPropertyOp53
 70
     0
102
RTVSPropertyOp54
 70
     0
102
RTVSPropertyOp55
 70
     0
102
RTVSPropertyOp56
 70
     0
102
RTVSPropertyOp57
 70
     0
102
RTVSPost2010Prop28
280
     0
102
RTVSPost2010PropOp28
 70
     0
102
RTVSPost2010Prop29
280
     1
102
RTVSPost2010PropOp29
 70
     0
102
RTVSPost2010Prop30
280
     1
102
RTVSPost2010PropOp30
 70
     0
102
RTVSPost2010Prop31
280
     0
102
RTVSPost2010PropOp31
 70
     0
102
RTVSPost2010Prop32
280
     0
102
RTVSPost2010PropOp32
 70
     0
102
RTVSPost2010Prop33
280
     0
102
RTVSPost2010PropOp33
 70
     0
102
RTVSPost2010Prop34
280
     0
102
RTVSPost2010PropOp34
 70
     0
102
RTVSPost2010Prop35
280
     0
102
RTVSPost2010PropOp35
 70
     0
102
RTVSPost2010Prop36
280
     0
102
RTVSPost2010PropOp36
 70
     0
102
RTVSPost2010Prop37
 90
       50
102
RTVSPost2010PropOp37
 70
     0
102
RTVSPost2010Prop38
140
0.0
102
RTVSPost2010PropOp38
 70
     0
102
RTVSPost2010Prop39
140
1.0
102
RTVSPost2010PropOp39
 70
     0
102
RTVSPost2010Prop40
 90
        0
102
RTVSPost2010PropOp40
 70
     0
102
RTVSPost2010Prop41ColorIndex
 90
       18
102
RTVSPost2010Prop41ColorRGB
 90
        0
102
RTVSPost2010PropOp41
 70
     0
102
RTVSPost2010Prop42
 90
       50
102
RTVSPost2010PropOp42
 70
     0
102
RTVSPost2010Prop43
 90
        3
102
RTVSPost2010PropOp43
 70
     0
102
RTVSPost2010Prop44ColorIndex
 90
        5
102
RTVSPost2010Prop44ColorRGB
 90
      255
102
RTVSPost2010PropOp44
 70
     0
102
RTVSPost2010Prop45
280
     0
102
RTVSPost2010PropOp45
 70
     0
102
RTVSPost2010Prop46
 90
       50
102
RTVSPost2010PropOp46
 70
     0
102
RTVSPost2010Prop47
 90
       50
102
RTVSPost2010PropOp47
 70
     0
102
RTVSPost2010Prop48
 90
       50
102
RTVSPost2010PropOp48
 70
     0
102
RTVSPost2010Prop49
280
     0
102
RTVSPost2010PropOp49
 70
     0
102
RTVSPost2010Prop50
 90
       50
102
RTVSPost2010PropOp50
 70
     0
102
RTVSPost2010Prop51ColorIndex
 90
      256
102
RTVSPost2010Prop51ColorRGB
 90
-16777216
102
RTVSPost2010PropOp51
 70
     0
102
RTVSPost2010Prop52
140
1.0
102
RTVSPost2010PropOp52
 70
     0
102
RTVSPost2010Prop53
 90
        2
102
RTVSPost2010PropOp53
 70
     0
102
RTVSPost2010Prop54
  1
strokes_ogs.tif
102
RTVSPost2010PropOp54
 70
     0
102
RTVSPost2010Prop55
280
     0
102
RTVSPost2010PropOp55
 70
     0
102
RTVSPost2010Prop56
140
1.0
102
RTVSPost2010PropOp56
 70
     0
102
RTVSPost2010Prop57
140
1.0
102
RTVSPost2010PropOp57
 70
     0
  0
XRECORD
  5
983
102
{ACAD_REACTORS
330
982
102
}
330
982
100
AcDbXrecord
280
     1
102
RTVSPropertyOp0
 70
     1
102
RTVSPropertyOp1
 70
     1
102
RTVSPropertyOp2
 70
     1
102
RTVSPropertyOp3
 70
     1
102
RTVSPropertyOp4
 70
     1
102
RTVSPropertyOp5
 70
     1
102
RTVSPropertyOp6
 70
     1
102
RTVSPropertyOp7
 70
     1
102
RTVSPropertyOp8
 70
     1
102
RTVSPropertyOp9
 70
     1
102
RTVSPropertyOp10
 70
     1
102
RTVSPropertyOp11
 70
     1
102
RTVSPropertyOp12
 70
     1
102
RTVSPropertyOp13
 70
     1
102
RTVSPropertyOp14
 70
     1
102
RTVSPropertyOp15
 70
     1
102
RTVSPropertyOp16
 70
     1
102
RTVSPropertyOp17
 70
     1
102
RTVSPropertyOp18
 70
     1
102
RTVSPropertyOp19
 70
     1
102
RTVSPropertyOp20
 70
     1
102
RTVSPropertyOp21
 70
     1
102
RTVSPropertyOp22
 70
     1
102
RTVSPropertyOp23
 70
     1
102
RTVSPropertyOp24
 70
     1
102
RTVSPropertyOp25
 70
     1
102
RTVSPropertyOp26
 70
     1
102
RTVSPropertyOp27
 70
     1
102
RTVSPropertyOp28
 70
     1
102
RTVSPropertyOp29
 70
     1
102
RTVSPropertyOp30
 70
     1
102
RTVSPropertyOp31
 70
     1
102
RTVSPropertyOp32
 70
     1
102
RTVSPropertyOp33
 70
     1
102
RTVSPropertyOp34
 70
     1
102
RTVSPropertyOp35
 70
     1
102
RTVSPropertyOp36
 70
     1
102
RTVSPropertyOp37
 70
     1
102
RTVSPropertyOp38
 70
     1
102
RTVSPropertyOp39
 70
     1
102
RTVSPropertyOp40
 70
     1
102
RTVSPropertyOp41
 70
     1
102
RTVSPropertyOp42
 70
     1
102
RTVSPropertyOp43
 70
     1
102
RTVSPropertyOp44
 70
     1
102
RTVSPropertyOp45
 70
     1
102
RTVSPropertyOp46
 70
     1
102
RTVSPropertyOp47
 70
     1
102
RTVSPropertyOp48
 70
     1
102
RTVSPropertyOp49
 70
     1
102
RTVSPropertyOp50
 70
     1
102
RTVSPropertyOp51
 70
     0
102
RTVSPropertyOp52
 70
     0
102
RTVSPropertyOp53
 70
     1
102
RTVSPropertyOp54
 70
     1
102
RTVSPropertyOp55
 70
     1
102
RTVSPropertyOp56
 70
     1
102
RTVSPropertyOp57
 70
     1
102
RTVSPost2010Prop28
280
     0
102
RTVSPost2010PropOp28
 70
     1
102
RTVSPost2010Prop29
280
     1
102
RTVSPost2010PropOp29
 70
     1
102
RTVSPost2010Prop30
280
     1
102
RTVSPost2010PropOp30
 70
     1
102
RTVSPost2010Prop31
280
     0
102
RTVSPost2010PropOp31
 70
     1
102
RTVSPost2010Prop32
280
     0
102
RTVSPost2010PropOp32
 70
     1
102
RTVSPost2010Prop33
280
     0
102
RTVSPost2010PropOp33
 70
     1
102
RTVSPost2010Prop34
280
     0
102
RTVSPost2010PropOp34
 70
     1
102
RTVSPost2010Prop35
280
     0
102
RTVSPost2010PropOp35
 70
     1
102
RTVSPost2010Prop36
280
     0
102
RTVSPost2010PropOp36
 70
     1
102
RTVSPost2010Prop37
 90
       50
102
RTVSPost2010PropOp37
 70
     1
102
RTVSPost2010Prop38
140
0.0
102
RTVSPost2010PropOp38
 70
     1
102
RTVSPost2010Prop39
140
1.0
102
RTVSPost2010PropOp39
 70
     1
102
RTVSPost2010Prop40
 90
        0
102
RTVSPost2010PropOp40
 70
     1
102
RTVSPost2010Prop41ColorIndex
 90
       18
102
RTVSPost2010Prop41ColorRGB
 90
        0
102
RTVSPost2010PropOp41
 70
     1
102
RTVSPost2010Prop42
 90
       50
102
RTVSPost2010PropOp42
 70
     1
102
RTVSPost2010Prop43
 90
        3
102
RTVSPost2010PropOp43
 70
     1
102
RTVSPost2010Prop44ColorIndex
 90
        5
102
RTVSPost2010Prop44ColorRGB
 90
      255
102
RTVSPost2010PropOp44
 70
     1
102
RTVSPost2010Prop45
280
     0
102
RTVSPost2010PropOp45
 70
     1
102
RTVSPost2010Prop46
 90
       50
102
RTVSPost2010PropOp46
 70
     1
102
RTVSPost2010Prop47
 90
       50
102
RTVSPost2010PropOp47
 70
     1
102
RTVSPost2010Prop48
 90
       50
102
RTVSPost2010PropOp48
 70
     1
102
RTVSPost2010Prop49
280
     0
102
RTVSPost2010PropOp49
 70
     1
102
RTVSPost2010Prop50
 90
       50
102
RTVSPost2010PropOp50
 70
     1
102
RTVSPost2010Prop51ColorIndex
 90
      256
102
RTVSPost2010Prop51ColorRGB
 90
-16777216
102
RTVSPost2010PropOp51
 70
     0
102
RTVSPost2010Prop52
140
1.0
102
RTVSPost2010PropOp52
 70
     0
102
RTVSPost2010Prop53
 90
        2
102
RTVSPost2010PropOp53
 70
     1
102
RTVSPost2010Prop54
  1
strokes_ogs.tif
102
RTVSPost2010PropOp54
 70
     1
102
RTVSPost2010Prop55
280
     0
102
RTVSPost2010PropOp55
 70
     1
102
RTVSPost2010Prop56
140
1.0
102
RTVSPost2010PropOp56
 70
     1
102
RTVSPost2010Prop57
140
1.0
102
RTVSPost2010PropOp57
 70
     1
  0
XRECORD
  5
98B
102
{ACAD_REACTORS
330
98A
102
}
330
98A
100
AcDbXrecord
280
     1
102
RTVSPropertyOp0
 70
     0
102
RTVSPropertyOp1
 70
     0
102
RTVSPropertyOp2
 70
     0
102
RTVSPropertyOp3
 70
     0
102
RTVSPropertyOp4
 70
     0
102
RTVSPropertyOp5
 70
     0
102
RTVSPropertyOp6
 70
     0
102
RTVSPropertyOp7
 70
     0
102
RTVSPropertyOp8
 70
     0
102
RTVSPropertyOp9
 70
     0
102
RTVSPropertyOp10
 70
     0
102
RTVSPropertyOp11
 70
     0
102
RTVSPropertyOp12
 70
     0
102
RTVSPropertyOp13
 70
     0
102
RTVSPropertyOp14
 70
     2
102
RTVSPropertyOp15
 70
     0
102
RTVSPropertyOp16
 70
     0
102
RTVSPropertyOp17
 70
     0
102
RTVSPropertyOp18
 70
     0
102
RTVSPropertyOp19
 70
     0
102
RTVSPropertyOp20
 70
     0
102
RTVSPropertyOp21
 70
     0
102
RTVSPropertyOp22
 70
     0
102
RTVSPropertyOp23
 70
     0
102
RTVSPropertyOp24
 70
     0
102
RTVSPropertyOp25
 70
     0
102
RTVSPropertyOp26
 70
     0
102
RTVSPropertyOp27
 70
     0
102
RTVSPropertyOp28
 70
     0
102
RTVSPropertyOp29
 70
     0
102
RTVSPropertyOp30
 70
     0
102
RTVSPropertyOp31
 70
     0
102
RTVSPropertyOp32
 70
     0
102
RTVSPropertyOp33
 70
     0
102
RTVSPropertyOp34
 70
     0
102
RTVSPropertyOp35
 70
     0
102
RTVSPropertyOp36
 70
     0
102
RTVSPropertyOp37
 70
     0
102
RTVSPropertyOp38
 70
     0
102
RTVSPropertyOp39
 70
     0
102
RTVSPropertyOp40
 70
     0
102
RTVSPropertyOp41
 70
     0
102
RTVSPropertyOp42
 70
     0
102
RTVSPropertyOp43
 70
     0
102
RTVSPropertyOp44
 70
     0
102
RTVSPropertyOp45
 70
     0
102
RTVSPropertyOp46
 70
     0
102
RTVSPropertyOp47
 70
     0
102
RTVSPropertyOp48
 70
     0
102
RTVSPropertyOp49
 70
     0
102
RTVSPropertyOp50
 70
     0
102
RTVSPropertyOp51
 70
     0
102
RTVSPropertyOp52
 70
     0
102
RTVSPropertyOp53
 70
     0
102
RTVSPropertyOp54
 70
     0
102
RTVSPropertyOp55
 70
     0
102
RTVSPropertyOp56
 70
     0
102
RTVSPropertyOp57
 70
     0
102
RTVSPost2010Prop28
280
     0
102
RTVSPost2010PropOp28
 70
     0
102
RTVSPost2010Prop29
280
     1
102
RTVSPost2010PropOp29
 70
     0
102
RTVSPost2010Prop30
280
     1
102
RTVSPost2010PropOp30
 70
     0
102
RTVSPost2010Prop31
280
     0
102
RTVSPost2010PropOp31
 70
     0
102
RTVSPost2010Prop32
280
     0
102
RTVSPost2010PropOp32
 70
     0
102
RTVSPost2010Prop33
280
     0
102
RTVSPost2010PropOp33
 70
     0
102
RTVSPost2010Prop34
280
     0
102
RTVSPost2010PropOp34
 70
     0
102
RTVSPost2010Prop35
280
     0
102
RTVSPost2010PropOp35
 70
     0
102
RTVSPost2010Prop36
280
     0
102
RTVSPost2010PropOp36
 70
     0
102
RTVSPost2010Prop37
 90
       50
102
RTVSPost2010PropOp37
 70
     0
102
RTVSPost2010Prop38
140
0.0
102
RTVSPost2010PropOp38
 70
     0
102
RTVSPost2010Prop39
140
1.0
102
RTVSPost2010PropOp39
 70
     0
102
RTVSPost2010Prop40
 90
        0
102
RTVSPost2010PropOp40
 70
     0
102
RTVSPost2010Prop41ColorIndex
 90
       18
102
RTVSPost2010Prop41ColorRGB
 90
        0
102
RTVSPost2010PropOp41
 70
     0
102
RTVSPost2010Prop42
 90
       50
102
RTVSPost2010PropOp42
 70
     0
102
RTVSPost2010Prop43
 90
        3
102
RTVSPost2010PropOp43
 70
     0
102
RTVSPost2010Prop44ColorIndex
 90
        5
102
RTVSPost2010Prop44ColorRGB
 90
      255
102
RTVSPost2010PropOp44
 70
     0
102
RTVSPost2010Prop45
280
     0
102
RTVSPost2010PropOp45
 70
     0
102
RTVSPost2010Prop46
 90
       50
102
RTVSPost2010PropOp46
 70
     0
102
RTVSPost2010Prop47
 90
       50
102
RTVSPost2010PropOp47
 70
     0
102
RTVSPost2010Prop48
 90
       50
102
RTVSPost2010PropOp48
 70
     0
102
RTVSPost2010Prop49
280
     0
102
RTVSPost2010PropOp49
 70
     0
102
RTVSPost2010Prop50
 90
       50
102
RTVSPost2010PropOp50
 70
     0
102
RTVSPost2010Prop51ColorIndex
 90
      256
102
RTVSPost2010Prop51ColorRGB
 90
-16777216
102
RTVSPost2010PropOp51
 70
     0
102
RTVSPost2010Prop52
140
1.0
102
RTVSPost2010PropOp52
 70
     0
102
RTVSPost2010Prop53
 90
        2
102
RTVSPost2010PropOp53
 70
     0
102
RTVSPost2010Prop54
  1
strokes_ogs.tif
102
RTVSPost2010PropOp54
 70
     0
102
RTVSPost2010Prop55
280
     0
102
RTVSPost2010PropOp55
 70
     0
102
RTVSPost2010Prop56
140
1.0
102
RTVSPost2010PropOp56
 70
     0
102
RTVSPost2010Prop57
140
1.0
102
RTVSPost2010PropOp57
 70
     0
  0
XRECORD
  5
979
102
{ACAD_REACTORS
330
978
102
}
330
978
100
AcDbXrecord
280
     1
102
RTVSPropertyOp0
 70
     1
102
RTVSPropertyOp1
 70
     1
102
RTVSPropertyOp2
 70
     1
102
RTVSPropertyOp3
 70
     1
102
RTVSPropertyOp4
 70
     1
102
RTVSPropertyOp5
 70
     1
102
RTVSPropertyOp6
 70
     1
102
RTVSPropertyOp7
 70
     1
102
RTVSPropertyOp8
 70
     1
102
RTVSPropertyOp9
 70
     1
102
RTVSPropertyOp10
 70
     1
102
RTVSPropertyOp11
 70
     1
102
RTVSPropertyOp12
 70
     1
102
RTVSPropertyOp13
 70
     1
102
RTVSPropertyOp14
 70
     1
102
RTVSPropertyOp15
 70
     1
102
RTVSPropertyOp16
 70
     1
102
RTVSPropertyOp17
 70
     1
102
RTVSPropertyOp18
 70
     1
102
RTVSPropertyOp19
 70
     1
102
RTVSPropertyOp20
 70
     1
102
RTVSPropertyOp21
 70
     1
102
RTVSPropertyOp22
 70
     1
102
RTVSPropertyOp23
 70
     1
102
RTVSPropertyOp24
 70
     1
102
RTVSPropertyOp25
 70
     1
102
RTVSPropertyOp26
 70
     1
102
RTVSPropertyOp27
 70
     1
102
RTVSPropertyOp28
 70
     1
102
RTVSPropertyOp29
 70
     1
102
RTVSPropertyOp30
 70
     1
102
RTVSPropertyOp31
 70
     1
102
RTVSPropertyOp32
 70
     1
102
RTVSPropertyOp33
 70
     1
102
RTVSPropertyOp34
 70
     1
102
RTVSPropertyOp35
 70
     1
102
RTVSPropertyOp36
 70
     1
102
RTVSPropertyOp37
 70
     1
102
RTVSPropertyOp38
 70
     1
102
RTVSPropertyOp39
 70
     1
102
RTVSPropertyOp40
 70
     1
102
RTVSPropertyOp41
 70
     1
102
RTVSPropertyOp42
 70
     1
102
RTVSPropertyOp43
 70
     1
102
RTVSPropertyOp44
 70
     1
102
RTVSPropertyOp45
 70
     1
102
RTVSPropertyOp46
 70
     1
102
RTVSPropertyOp47
 70
     1
102
RTVSPropertyOp48
 70
     1
102
RTVSPropertyOp49
 70
     1
102
RTVSPropertyOp50
 70
     1
102
RTVSPropertyOp51
 70
     0
102
RTVSPropertyOp52
 70
     0
102
RTVSPropertyOp53
 70
     1
102
RTVSPropertyOp54
 70
     1
102
RTVSPropertyOp55
 70
     1
102
RTVSPropertyOp56
 70
     1
102
RTVSPropertyOp57
 70
     1
102
RTVSPost2010Prop28
280
     0
102
RTVSPost2010PropOp28
 70
     1
102
RTVSPost2010Prop29
280
     1
102
RTVSPost2010PropOp29
 70
     1
102
RTVSPost2010Prop30
280
     1
102
RTVSPost2010PropOp30
 70
     1
102
RTVSPost2010Prop31
280
     0
102
RTVSPost2010PropOp31
 70
     1
102
RTVSPost2010Prop32
280
     0
102
RTVSPost2010PropOp32
 70
     1
102
RTVSPost2010Prop33
280
     0
102
RTVSPost2010PropOp33
 70
     1
102
RTVSPost2010Prop34
280
     0
102
RTVSPost2010PropOp34
 70
     1
102
RTVSPost2010Prop35
280
     0
102
RTVSPost2010PropOp35
 70
     1
102
RTVSPost2010Prop36
280
     0
102
RTVSPost2010PropOp36
 70
     1
102
RTVSPost2010Prop37
 90
       50
102
RTVSPost2010PropOp37
 70
     1
102
RTVSPost2010Prop38
140
0.0
102
RTVSPost2010PropOp38
 70
     1
102
RTVSPost2010Prop39
140
1.0
102
RTVSPost2010PropOp39
 70
     1
102
RTVSPost2010Prop40
 90
        0
102
RTVSPost2010PropOp40
 70
     1
102
RTVSPost2010Prop41ColorIndex
 90
       18
102
RTVSPost2010Prop41ColorRGB
 90
        0
102
RTVSPost2010PropOp41
 70
     1
102
RTVSPost2010Prop42
 90
       50
102
RTVSPost2010PropOp42
 70
     1
102
RTVSPost2010Prop43
 90
        3
102
RTVSPost2010PropOp43
 70
     1
102
RTVSPost2010Prop44ColorIndex
 90
        5
102
RTVSPost2010Prop44ColorRGB
 90
      255
102
RTVSPost2010PropOp44
 70
     1
102
RTVSPost2010Prop45
280
     0
102
RTVSPost2010PropOp45
 70
     1
102
RTVSPost2010Prop46
 90
       50
102
RTVSPost2010PropOp46
 70
     1
102
RTVSPost2010Prop47
 90
       50
102
RTVSPost2010PropOp47
 70
     1
102
RTVSPost2010Prop48
 90
       50
102
RTVSPost2010PropOp48
 70
     1
102
RTVSPost2010Prop49
280
     0
102
RTVSPost2010PropOp49
 70
     1
102
RTVSPost2010Prop50
 90
       50
102
RTVSPost2010PropOp50
 70
     1
102
RTVSPost2010Prop51ColorIndex
 90
      256
102
RTVSPost2010Prop51ColorRGB
 90
-16777216
102
RTVSPost2010PropOp51
 70
     0
102
RTVSPost2010Prop52
140
1.0
102
RTVSPost2010PropOp52
 70
     0
102
RTVSPost2010Prop53
 90
        2
102
RTVSPost2010PropOp53
 70
     1
102
RTVSPost2010Prop54
  1
strokes_ogs.tif
102
RTVSPost2010PropOp54
 70
     1
102
RTVSPost2010Prop55
280
     0
102
RTVSPost2010PropOp55
 70
     1
102
RTVSPost2010Prop56
140
1.0
102
RTVSPost2010PropOp56
 70
     1
102
RTVSPost2010Prop57
140
1.0
102
RTVSPost2010PropOp57
 70
     1
  0
XRECORD
  5
997
102
{ACAD_REACTORS
330
996
102
}
330
996
100
AcDbXrecord
280
     1
102
RTVSPropertyOp0
 70
     1
102
RTVSPropertyOp1
 70
     1
102
RTVSPropertyOp2
 70
     1
102
RTVSPropertyOp3
 70
     1
102
RTVSPropertyOp4
 70
     1
102
RTVSPropertyOp5
 70
     1
102
RTVSPropertyOp6
 70
     1
102
RTVSPropertyOp7
 70
     1
102
RTVSPropertyOp8
 70
     1
102
RTVSPropertyOp9
 70
     1
102
RTVSPropertyOp10
 70
     1
102
RTVSPropertyOp11
 70
     1
102
RTVSPropertyOp12
 70
     1
102
RTVSPropertyOp13
 70
     1
102
RTVSPropertyOp14
 70
     1
102
RTVSPropertyOp15
 70
     1
102
RTVSPropertyOp16
 70
     1
102
RTVSPropertyOp17
 70
     1
102
RTVSPropertyOp18
 70
     1
102
RTVSPropertyOp19
 70
     1
102
RTVSPropertyOp20
 70
     1
102
RTVSPropertyOp21
 70
     1
102
RTVSPropertyOp22
 70
     1
102
RTVSPropertyOp23
 70
     1
102
RTVSPropertyOp24
 70
     1
102
RTVSPropertyOp25
 70
     1
102
RTVSPropertyOp26
 70
     1
102
RTVSPropertyOp27
 70
     1
102
RTVSPropertyOp28
 70
     1
102
RTVSPropertyOp29
 70
     1
102
RTVSPropertyOp30
 70
     1
102
RTVSPropertyOp31
 70
     1
102
RTVSPropertyOp32
 70
     1
102
RTVSPropertyOp33
 70
     1
102
RTVSPropertyOp34
 70
     1
102
RTVSPropertyOp35
 70
     1
102
RTVSPropertyOp36
 70
     1
102
RTVSPropertyOp37
 70
     1
102
RTVSPropertyOp38
 70
     1
102
RTVSPropertyOp39
 70
     1
102
RTVSPropertyOp40
 70
     1
102
RTVSPropertyOp41
 70
     1
102
RTVSPropertyOp42
 70
     1
102
RTVSPropertyOp43
 70
     1
102
RTVSPropertyOp44
 70
     1
102
RTVSPropertyOp45
 70
     1
102
RTVSPropertyOp46
 70
     1
102
RTVSPropertyOp47
 70
     1
102
RTVSPropertyOp48
 70
     1
102
RTVSPropertyOp49
 70
     1
102
RTVSPropertyOp50
 70
     1
102
RTVSPropertyOp51
 70
     0
102
RTVSPropertyOp52
 70
     0
102
RTVSPropertyOp53
 70
     1
102
RTVSPropertyOp54
 70
     1
102
RTVSPropertyOp55
 70
     1
102
RTVSPropertyOp56
 70
     1
102
RTVSPropertyOp57
 70
     1
102
RTVSPost2010Prop28
280
     0
102
RTVSPost2010PropOp28
 70
     1
102
RTVSPost2010Prop29
280
     1
102
RTVSPost2010PropOp29
 70
     1
102
RTVSPost2010Prop30
280
     1
102
RTVSPost2010PropOp30
 70
     1
102
RTVSPost2010Prop31
280
     0
102
RTVSPost2010PropOp31
 70
     1
102
RTVSPost2010Prop32
280
     0
102
RTVSPost2010PropOp32
 70
     1
102
RTVSPost2010Prop33
280
     0
102
RTVSPost2010PropOp33
 70
     1
102
RTVSPost2010Prop34
280
     0
102
RTVSPost2010PropOp34
 70
     1
102
RTVSPost2010Prop35
280
     0
102
RTVSPost2010PropOp35
 70
     1
102
RTVSPost2010Prop36
280
     0
102
RTVSPost2010PropOp36
 70
     1
102
RTVSPost2010Prop37
 90
       50
102
RTVSPost2010PropOp37
 70
     1
102
RTVSPost2010Prop38
140
0.0
102
RTVSPost2010PropOp38
 70
     1
102
RTVSPost2010Prop39
140
1.0
102
RTVSPost2010PropOp39
 70
     1
102
RTVSPost2010Prop40
 90
        0
102
RTVSPost2010PropOp40
 70
     1
102
RTVSPost2010Prop41ColorIndex
 90
       18
102
RTVSPost2010Prop41ColorRGB
 90
        0
102
RTVSPost2010PropOp41
 70
     1
102
RTVSPost2010Prop42
 90
       50
102
RTVSPost2010PropOp42
 70
     1
102
RTVSPost2010Prop43
 90
        3
102
RTVSPost2010PropOp43
 70
     1
102
RTVSPost2010Prop44ColorIndex
 90
        5
102
RTVSPost2010Prop44ColorRGB
 90
      255
102
RTVSPost2010PropOp44
 70
     1
102
RTVSPost2010Prop45
280
     0
102
RTVSPost2010PropOp45
 70
     1
102
RTVSPost2010Prop46
 90
       50
102
RTVSPost2010PropOp46
 70
     1
102
RTVSPost2010Prop47
 90
       50
102
RTVSPost2010PropOp47
 70
     1
102
RTVSPost2010Prop48
 90
       50
102
RTVSPost2010PropOp48
 70
     1
102
RTVSPost2010Prop49
280
     0
102
RTVSPost2010PropOp49
 70
     1
102
RTVSPost2010Prop50
 90
       50
102
RTVSPost2010PropOp50
 70
     1
102
RTVSPost2010Prop51ColorIndex
 90
      256
102
RTVSPost2010Prop51ColorRGB
 90
-16777216
102
RTVSPost2010PropOp51
 70
     0
102
RTVSPost2010Prop52
140
1.0
102
RTVSPost2010PropOp52
 70
     0
102
RTVSPost2010Prop53
 90
        2
102
RTVSPost2010PropOp53
 70
     1
102
RTVSPost2010Prop54
  1
strokes_ogs.tif
102
RTVSPost2010PropOp54
 70
     1
102
RTVSPost2010Prop55
280
     0
102
RTVSPost2010PropOp55
 70
     1
102
RTVSPost2010Prop56
140
1.0
102
RTVSPost2010PropOp56
 70
     1
102
RTVSPost2010Prop57
140
1.0
102
RTVSPost2010PropOp57
 70
     1
  0
XRECORD
  5
995
102
{ACAD_REACTORS
330
994
102
}
330
994
100
AcDbXrecord
280
     1
102
RTVSPropertyOp0
 70
     1
102
RTVSPropertyOp1
 70
     1
102
RTVSPropertyOp2
 70
     1
102
RTVSPropertyOp3
 70
     1
102
RTVSPropertyOp4
 70
     1
102
RTVSPropertyOp5
 70
     1
102
RTVSPropertyOp6
 70
     1
102
RTVSPropertyOp7
 70
     1
102
RTVSPropertyOp8
 70
     1
102
RTVSPropertyOp9
 70
     1
102
RTVSPropertyOp10
 70
     1
102
RTVSPropertyOp11
 70
     1
102
RTVSPropertyOp12
 70
     1
102
RTVSPropertyOp13
 70
     1
102
RTVSPropertyOp14
 70
     1
102
RTVSPropertyOp15
 70
     1
102
RTVSPropertyOp16
 70
     1
102
RTVSPropertyOp17
 70
     1
102
RTVSPropertyOp18
 70
     1
102
RTVSPropertyOp19
 70
     1
102
RTVSPropertyOp20
 70
     1
102
RTVSPropertyOp21
 70
     1
102
RTVSPropertyOp22
 70
     1
102
RTVSPropertyOp23
 70
     1
102
RTVSPropertyOp24
 70
     1
102
RTVSPropertyOp25
 70
     1
102
RTVSPropertyOp26
 70
     1
102
RTVSPropertyOp27
 70
     1
102
RTVSPropertyOp28
 70
     1
102
RTVSPropertyOp29
 70
     1
102
RTVSPropertyOp30
 70
     1
102
RTVSPropertyOp31
 70
     1
102
RTVSPropertyOp32
 70
     1
102
RTVSPropertyOp33
 70
     1
102
RTVSPropertyOp34
 70
     1
102
RTVSPropertyOp35
 70
     1
102
RTVSPropertyOp36
 70
     1
102
RTVSPropertyOp37
 70
     1
102
RTVSPropertyOp38
 70
     1
102
RTVSPropertyOp39
 70
     1
102
RTVSPropertyOp40
 70
     1
102
RTVSPropertyOp41
 70
     1
102
RTVSPropertyOp42
 70
     1
102
RTVSPropertyOp43
 70
     1
102
RTVSPropertyOp44
 70
     1
102
RTVSPropertyOp45
 70
     1
102
RTVSPropertyOp46
 70
     1
102
RTVSPropertyOp47
 70
     1
102
RTVSPropertyOp48
 70
     1
102
RTVSPropertyOp49
 70
     1
102
RTVSPropertyOp50
 70
     1
102
RTVSPropertyOp51
 70
     0
102
RTVSPropertyOp52
 70
     0
102
RTVSPropertyOp53
 70
     1
102
RTVSPropertyOp54
 70
     1
102
RTVSPropertyOp55
 70
     1
102
RTVSPropertyOp56
 70
     1
102
RTVSPropertyOp57
 70
     1
102
RTVSPost2010Prop28
280
     0
102
RTVSPost2010PropOp28
 70
     1
102
RTVSPost2010Prop29
280
     1
102
RTVSPost2010PropOp29
 70
     1
102
RTVSPost2010Prop30
280
     1
102
RTVSPost2010PropOp30
 70
     1
102
RTVSPost2010Prop31
280
     0
102
RTVSPost2010PropOp31
 70
     1
102
RTVSPost2010Prop32
280
     0
102
RTVSPost2010PropOp32
 70
     1
102
RTVSPost2010Prop33
280
     0
102
RTVSPost2010PropOp33
 70
     1
102
RTVSPost2010Prop34
280
     0
102
RTVSPost2010PropOp34
 70
     1
102
RTVSPost2010Prop35
280
     0
102
RTVSPost2010PropOp35
 70
     1
102
RTVSPost2010Prop36
280
     0
102
RTVSPost2010PropOp36
 70
     1
102
RTVSPost2010Prop37
 90
       50
102
RTVSPost2010PropOp37
 70
     1
102
RTVSPost2010Prop38
140
0.0
102
RTVSPost2010PropOp38
 70
     1
102
RTVSPost2010Prop39
140
1.0
102
RTVSPost2010PropOp39
 70
     1
102
RTVSPost2010Prop40
 90
        0
102
RTVSPost2010PropOp40
 70
     1
102
RTVSPost2010Prop41ColorIndex
 90
       18
102
RTVSPost2010Prop41ColorRGB
 90
        0
102
RTVSPost2010PropOp41
 70
     1
102
RTVSPost2010Prop42
 90
       50
102
RTVSPost2010PropOp42
 70
     1
102
RTVSPost2010Prop43
 90
        3
102
RTVSPost2010PropOp43
 70
     1
102
RTVSPost2010Prop44ColorIndex
 90
        5
102
RTVSPost2010Prop44ColorRGB
 90
      255
102
RTVSPost2010PropOp44
 70
     1
102
RTVSPost2010Prop45
280
     0
102
RTVSPost2010PropOp45
 70
     1
102
RTVSPost2010Prop46
 90
       50
102
RTVSPost2010PropOp46
 70
     1
102
RTVSPost2010Prop47
 90
       50
102
RTVSPost2010PropOp47
 70
     1
102
RTVSPost2010Prop48
 90
       50
102
RTVSPost2010PropOp48
 70
     1
102
RTVSPost2010Prop49
280
     0
102
RTVSPost2010PropOp49
 70
     1
102
RTVSPost2010Prop50
 90
       50
102
RTVSPost2010PropOp50
 70
     1
102
RTVSPost2010Prop51ColorIndex
 90
      256
102
RTVSPost2010Prop51ColorRGB
 90
-16777216
102
RTVSPost2010PropOp51
 70
     0
102
RTVSPost2010Prop52
140
1.0
102
RTVSPost2010PropOp52
 70
     0
102
RTVSPost2010Prop53
 90
        2
102
RTVSPost2010PropOp53
 70
     1
102
RTVSPost2010Prop54
  1
strokes_ogs.tif
102
RTVSPost2010PropOp54
 70
     1
102
RTVSPost2010Prop55
280
     0
102
RTVSPost2010PropOp55
 70
     1
102
RTVSPost2010Prop56
140
1.0
102
RTVSPost2010PropOp56
 70
     1
102
RTVSPost2010Prop57
140
1.0
102
RTVSPost2010PropOp57
 70
     1
  0
XRECORD
  5
98F
102
{ACAD_REACTORS
330
98E
102
}
330
98E
100
AcDbXrecord
280
     1
102
RTVSPropertyOp0
 70
     1
102
RTVSPropertyOp1
 70
     1
102
RTVSPropertyOp2
 70
     1
102
RTVSPropertyOp3
 70
     1
102
RTVSPropertyOp4
 70
     1
102
RTVSPropertyOp5
 70
     1
102
RTVSPropertyOp6
 70
     1
102
RTVSPropertyOp7
 70
     1
102
RTVSPropertyOp8
 70
     1
102
RTVSPropertyOp9
 70
     1
102
RTVSPropertyOp10
 70
     1
102
RTVSPropertyOp11
 70
     1
102
RTVSPropertyOp12
 70
     1
102
RTVSPropertyOp13
 70
     1
102
RTVSPropertyOp14
 70
     1
102
RTVSPropertyOp15
 70
     1
102
RTVSPropertyOp16
 70
     1
102
RTVSPropertyOp17
 70
     1
102
RTVSPropertyOp18
 70
     1
102
RTVSPropertyOp19
 70
     1
102
RTVSPropertyOp20
 70
     1
102
RTVSPropertyOp21
 70
     1
102
RTVSPropertyOp22
 70
     1
102
RTVSPropertyOp23
 70
     1
102
RTVSPropertyOp24
 70
     1
102
RTVSPropertyOp25
 70
     1
102
RTVSPropertyOp26
 70
     1
102
RTVSPropertyOp27
 70
     1
102
RTVSPropertyOp28
 70
     1
102
RTVSPropertyOp29
 70
     1
102
RTVSPropertyOp30
 70
     1
102
RTVSPropertyOp31
 70
     1
102
RTVSPropertyOp32
 70
     1
102
RTVSPropertyOp33
 70
     1
102
RTVSPropertyOp34
 70
     1
102
RTVSPropertyOp35
 70
     1
102
RTVSPropertyOp36
 70
     1
102
RTVSPropertyOp37
 70
     1
102
RTVSPropertyOp38
 70
     1
102
RTVSPropertyOp39
 70
     1
102
RTVSPropertyOp40
 70
     1
102
RTVSPropertyOp41
 70
     1
102
RTVSPropertyOp42
 70
     1
102
RTVSPropertyOp43
 70
     1
102
RTVSPropertyOp44
 70
     1
102
RTVSPropertyOp45
 70
     1
102
RTVSPropertyOp46
 70
     1
102
RTVSPropertyOp47
 70
     1
102
RTVSPropertyOp48
 70
     1
102
RTVSPropertyOp49
 70
     1
102
RTVSPropertyOp50
 70
     1
102
RTVSPropertyOp51
 70
     0
102
RTVSPropertyOp52
 70
     0
102
RTVSPropertyOp53
 70
     1
102
RTVSPropertyOp54
 70
     1
102
RTVSPropertyOp55
 70
     1
102
RTVSPropertyOp56
 70
     1
102
RTVSPropertyOp57
 70
     1
102
RTVSPost2010Prop28
280
     0
102
RTVSPost2010PropOp28
 70
     1
102
RTVSPost2010Prop29
280
     1
102
RTVSPost2010PropOp29
 70
     1
102
RTVSPost2010Prop30
280
     1
102
RTVSPost2010PropOp30
 70
     1
102
RTVSPost2010Prop31
280
     0
102
RTVSPost2010PropOp31
 70
     1
102
RTVSPost2010Prop32
280
     0
102
RTVSPost2010PropOp32
 70
     1
102
RTVSPost2010Prop33
280
     0
102
RTVSPost2010PropOp33
 70
     1
102
RTVSPost2010Prop34
280
     0
102
RTVSPost2010PropOp34
 70
     1
102
RTVSPost2010Prop35
280
     0
102
RTVSPost2010PropOp35
 70
     1
102
RTVSPost2010Prop36
280
     0
102
RTVSPost2010PropOp36
 70
     1
102
RTVSPost2010Prop37
 90
       50
102
RTVSPost2010PropOp37
 70
     1
102
RTVSPost2010Prop38
140
0.0
102
RTVSPost2010PropOp38
 70
     1
102
RTVSPost2010Prop39
140
1.0
102
RTVSPost2010PropOp39
 70
     1
102
RTVSPost2010Prop40
 90
        0
102
RTVSPost2010PropOp40
 70
     1
102
RTVSPost2010Prop41ColorIndex
 90
       18
102
RTVSPost2010Prop41ColorRGB
 90
        0
102
RTVSPost2010PropOp41
 70
     1
102
RTVSPost2010Prop42
 90
       50
102
RTVSPost2010PropOp42
 70
     1
102
RTVSPost2010Prop43
 90
        3
102
RTVSPost2010PropOp43
 70
     1
102
RTVSPost2010Prop44ColorIndex
 90
        5
102
RTVSPost2010Prop44ColorRGB
 90
      255
102
RTVSPost2010PropOp44
 70
     1
102
RTVSPost2010Prop45
280
     0
102
RTVSPost2010PropOp45
 70
     1
102
RTVSPost2010Prop46
 90
       50
102
RTVSPost2010PropOp46
 70
     1
102
RTVSPost2010Prop47
 90
       50
102
RTVSPost2010PropOp47
 70
     1
102
RTVSPost2010Prop48
 90
       50
102
RTVSPost2010PropOp48
 70
     1
102
RTVSPost2010Prop49
280
     0
102
RTVSPost2010PropOp49
 70
     1
102
RTVSPost2010Prop50
 90
       50
102
RTVSPost2010PropOp50
 70
     1
102
RTVSPost2010Prop51ColorIndex
 90
      256
102
RTVSPost2010Prop51ColorRGB
 90
-16777216
102
RTVSPost2010PropOp51
 70
     0
102
RTVSPost2010Prop52
140
1.0
102
RTVSPost2010PropOp52
 70
     0
102
RTVSPost2010Prop53
 90
        2
102
RTVSPost2010PropOp53
 70
     1
102
RTVSPost2010Prop54
  1
strokes_ogs.tif
102
RTVSPost2010PropOp54
 70
     1
102
RTVSPost2010Prop55
280
     0
102
RTVSPost2010PropOp55
 70
     1
102
RTVSPost2010Prop56
140
1.0
102
RTVSPost2010PropOp56
 70
     1
102
RTVSPost2010Prop57
140
1.0
102
RTVSPost2010PropOp57
 70
     1
  0
XRECORD
  5
991
102
{ACAD_REACTORS
330
990
102
}
330
990
100
AcDbXrecord
280
     1
102
RTVSPropertyOp0
 70
     1
102
RTVSPropertyOp1
 70
     1
102
RTVSPropertyOp2
 70
     1
102
RTVSPropertyOp3
 70
     1
102
RTVSPropertyOp4
 70
     1
102
RTVSPropertyOp5
 70
     1
102
RTVSPropertyOp6
 70
     1
102
RTVSPropertyOp7
 70
     1
102
RTVSPropertyOp8
 70
     1
102
RTVSPropertyOp9
 70
     1
102
RTVSPropertyOp10
 70
     1
102
RTVSPropertyOp11
 70
     1
102
RTVSPropertyOp12
 70
     1
102
RTVSPropertyOp13
 70
     1
102
RTVSPropertyOp14
 70
     1
102
RTVSPropertyOp15
 70
     1
102
RTVSPropertyOp16
 70
     1
102
RTVSPropertyOp17
 70
     1
102
RTVSPropertyOp18
 70
     1
102
RTVSPropertyOp19
 70
     1
102
RTVSPropertyOp20
 70
     1
102
RTVSPropertyOp21
 70
     1
102
RTVSPropertyOp22
 70
     1
102
RTVSPropertyOp23
 70
     1
102
RTVSPropertyOp24
 70
     1
102
RTVSPropertyOp25
 70
     1
102
RTVSPropertyOp26
 70
     1
102
RTVSPropertyOp27
 70
     1
102
RTVSPropertyOp28
 70
     1
102
RTVSPropertyOp29
 70
     1
102
RTVSPropertyOp30
 70
     1
102
RTVSPropertyOp31
 70
     1
102
RTVSPropertyOp32
 70
     1
102
RTVSPropertyOp33
 70
     1
102
RTVSPropertyOp34
 70
     1
102
RTVSPropertyOp35
 70
     1
102
RTVSPropertyOp36
 70
     1
102
RTVSPropertyOp37
 70
     1
102
RTVSPropertyOp38
 70
     1
102
RTVSPropertyOp39
 70
     1
102
RTVSPropertyOp40
 70
     1
102
RTVSPropertyOp41
 70
     1
102
RTVSPropertyOp42
 70
     1
102
RTVSPropertyOp43
 70
     1
102
RTVSPropertyOp44
 70
     1
102
RTVSPropertyOp45
 70
     1
102
RTVSPropertyOp46
 70
     1
102
RTVSPropertyOp47
 70
     1
102
RTVSPropertyOp48
 70
     1
102
RTVSPropertyOp49
 70
     1
102
RTVSPropertyOp50
 70
     1
102
RTVSPropertyOp51
 70
     0
102
RTVSPropertyOp52
 70
     0
102
RTVSPropertyOp53
 70
     1
102
RTVSPropertyOp54
 70
     1
102
RTVSPropertyOp55
 70
     1
102
RTVSPropertyOp56
 70
     1
102
RTVSPropertyOp57
 70
     1
102
RTVSPost2010Prop28
280
     0
102
RTVSPost2010PropOp28
 70
     1
102
RTVSPost2010Prop29
280
     1
102
RTVSPost2010PropOp29
 70
     1
102
RTVSPost2010Prop30
280
     1
102
RTVSPost2010PropOp30
 70
     1
102
RTVSPost2010Prop31
280
     0
102
RTVSPost2010PropOp31
 70
     1
102
RTVSPost2010Prop32
280
     0
102
RTVSPost2010PropOp32
 70
     1
102
RTVSPost2010Prop33
280
     0
102
RTVSPost2010PropOp33
 70
     1
102
RTVSPost2010Prop34
280
     0
102
RTVSPost2010PropOp34
 70
     1
102
RTVSPost2010Prop35
280
     0
102
RTVSPost2010PropOp35
 70
     1
102
RTVSPost2010Prop36
280
     0
102
RTVSPost2010PropOp36
 70
     1
102
RTVSPost2010Prop37
 90
       50
102
RTVSPost2010PropOp37
 70
     1
102
RTVSPost2010Prop38
140
0.0
102
RTVSPost2010PropOp38
 70
     1
102
RTVSPost2010Prop39
140
1.0
102
RTVSPost2010PropOp39
 70
     1
102
RTVSPost2010Prop40
 90
        0
102
RTVSPost2010PropOp40
 70
     1
102
RTVSPost2010Prop41ColorIndex
 90
       18
102
RTVSPost2010Prop41ColorRGB
 90
        0
102
RTVSPost2010PropOp41
 70
     1
102
RTVSPost2010Prop42
 90
       50
102
RTVSPost2010PropOp42
 70
     1
102
RTVSPost2010Prop43
 90
        3
102
RTVSPost2010PropOp43
 70
     1
102
RTVSPost2010Prop44ColorIndex
 90
        5
102
RTVSPost2010Prop44ColorRGB
 90
      255
102
RTVSPost2010PropOp44
 70
     1
102
RTVSPost2010Prop45
280
     0
102
RTVSPost2010PropOp45
 70
     1
102
RTVSPost2010Prop46
 90
       50
102
RTVSPost2010PropOp46
 70
     1
102
RTVSPost2010Prop47
 90
       50
102
RTVSPost2010PropOp47
 70
     1
102
RTVSPost2010Prop48
 90
       50
102
RTVSPost2010PropOp48
 70
     1
102
RTVSPost2010Prop49
280
     0
102
RTVSPost2010PropOp49
 70
     1
102
RTVSPost2010Prop50
 90
       50
102
RTVSPost2010PropOp50
 70
     1
102
RTVSPost2010Prop51ColorIndex
 90
      256
102
RTVSPost2010Prop51ColorRGB
 90
-16777216
102
RTVSPost2010PropOp51
 70
     0
102
RTVSPost2010Prop52
140
1.0
102
RTVSPost2010PropOp52
 70
     0
102
RTVSPost2010Prop53
 90
        2
102
RTVSPost2010PropOp53
 70
     1
102
RTVSPost2010Prop54
  1
strokes_ogs.tif
102
RTVSPost2010PropOp54
 70
     1
102
RTVSPost2010Prop55
280
     0
102
RTVSPost2010PropOp55
 70
     1
102
RTVSPost2010Prop56
140
1.0
102
RTVSPost2010PropOp56
 70
     1
102
RTVSPost2010Prop57
140
1.0
102
RTVSPost2010PropOp57
 70
     1
  0
XRECORD
  5
981
102
{ACAD_REACTORS
330
980
102
}
330
980
100
AcDbXrecord
280
     1
102
RTVSPropertyOp0
 70
     1
102
RTVSPropertyOp1
 70
     1
102
RTVSPropertyOp2
 70
     1
102
RTVSPropertyOp3
 70
     1
102
RTVSPropertyOp4
 70
     1
102
RTVSPropertyOp5
 70
     1
102
RTVSPropertyOp6
 70
     1
102
RTVSPropertyOp7
 70
     1
102
RTVSPropertyOp8
 70
     1
102
RTVSPropertyOp9
 70
     1
102
RTVSPropertyOp10
 70
     1
102
RTVSPropertyOp11
 70
     1
102
RTVSPropertyOp12
 70
     1
102
RTVSPropertyOp13
 70
     1
102
RTVSPropertyOp14
 70
     1
102
RTVSPropertyOp15
 70
     1
102
RTVSPropertyOp16
 70
     1
102
RTVSPropertyOp17
 70
     1
102
RTVSPropertyOp18
 70
     1
102
RTVSPropertyOp19
 70
     1
102
RTVSPropertyOp20
 70
     1
102
RTVSPropertyOp21
 70
     1
102
RTVSPropertyOp22
 70
     1
102
RTVSPropertyOp23
 70
     1
102
RTVSPropertyOp24
 70
     1
102
RTVSPropertyOp25
 70
     1
102
RTVSPropertyOp26
 70
     1
102
RTVSPropertyOp27
 70
     1
102
RTVSPropertyOp28
 70
     1
102
RTVSPropertyOp29
 70
     1
102
RTVSPropertyOp30
 70
     1
102
RTVSPropertyOp31
 70
     1
102
RTVSPropertyOp32
 70
     1
102
RTVSPropertyOp33
 70
     1
102
RTVSPropertyOp34
 70
     1
102
RTVSPropertyOp35
 70
     1
102
RTVSPropertyOp36
 70
     1
102
RTVSPropertyOp37
 70
     1
102
RTVSPropertyOp38
 70
     1
102
RTVSPropertyOp39
 70
     1
102
RTVSPropertyOp40
 70
     1
102
RTVSPropertyOp41
 70
     1
102
RTVSPropertyOp42
 70
     1
102
RTVSPropertyOp43
 70
     1
102
RTVSPropertyOp44
 70
     1
102
RTVSPropertyOp45
 70
     1
102
RTVSPropertyOp46
 70
     1
102
RTVSPropertyOp47
 70
     1
102
RTVSPropertyOp48
 70
     1
102
RTVSPropertyOp49
 70
     1
102
RTVSPropertyOp50
 70
     1
102
RTVSPropertyOp51
 70
     0
102
RTVSPropertyOp52
 70
     0
102
RTVSPropertyOp53
 70
     1
102
RTVSPropertyOp54
 70
     1
102
RTVSPropertyOp55
 70
     1
102
RTVSPropertyOp56
 70
     1
102
RTVSPropertyOp57
 70
     1
102
RTVSPost2010Prop28
280
     0
102
RTVSPost2010PropOp28
 70
     1
102
RTVSPost2010Prop29
280
     1
102
RTVSPost2010PropOp29
 70
     1
102
RTVSPost2010Prop30
280
     1
102
RTVSPost2010PropOp30
 70
     1
102
RTVSPost2010Prop31
280
     0
102
RTVSPost2010PropOp31
 70
     1
102
RTVSPost2010Prop32
280
     0
102
RTVSPost2010PropOp32
 70
     1
102
RTVSPost2010Prop33
280
     0
102
RTVSPost2010PropOp33
 70
     1
102
RTVSPost2010Prop34
280
     0
102
RTVSPost2010PropOp34
 70
     1
102
RTVSPost2010Prop35
280
     0
102
RTVSPost2010PropOp35
 70
     1
102
RTVSPost2010Prop36
280
     0
102
RTVSPost2010PropOp36
 70
     1
102
RTVSPost2010Prop37
 90
       50
102
RTVSPost2010PropOp37
 70
     1
102
RTVSPost2010Prop38
140
0.0
102
RTVSPost2010PropOp38
 70
     1
102
RTVSPost2010Prop39
140
1.0
102
RTVSPost2010PropOp39
 70
     1
102
RTVSPost2010Prop40
 90
        0
102
RTVSPost2010PropOp40
 70
     1
102
RTVSPost2010Prop41ColorIndex
 90
       18
102
RTVSPost2010Prop41ColorRGB
 90
        0
102
RTVSPost2010PropOp41
 70
     1
102
RTVSPost2010Prop42
 90
       50
102
RTVSPost2010PropOp42
 70
     1
102
RTVSPost2010Prop43
 90
        3
102
RTVSPost2010PropOp43
 70
     1
102
RTVSPost2010Prop44ColorIndex
 90
        5
102
RTVSPost2010Prop44ColorRGB
 90
      255
102
RTVSPost2010PropOp44
 70
     1
102
RTVSPost2010Prop45
280
     0
102
RTVSPost2010PropOp45
 70
     1
102
RTVSPost2010Prop46
 90
       50
102
RTVSPost2010PropOp46
 70
     1
102
RTVSPost2010Prop47
 90
       50
102
RTVSPost2010PropOp47
 70
     1
102
RTVSPost2010Prop48
 90
       50
102
RTVSPost2010PropOp48
 70
     1
102
RTVSPost2010Prop49
280
     0
102
RTVSPost2010PropOp49
 70
     1
102
RTVSPost2010Prop50
 90
       50
102
RTVSPost2010PropOp50
 70
     1
102
RTVSPost2010Prop51ColorIndex
 90
      256
102
RTVSPost2010Prop51ColorRGB
 90
-16777216
102
RTVSPost2010PropOp51
 70
     0
102
RTVSPost2010Prop52
140
1.0
102
RTVSPost2010PropOp52
 70
     0
102
RTVSPost2010Prop53
 90
        2
102
RTVSPost2010PropOp53
 70
     1
102
RTVSPost2010Prop54
  1
strokes_ogs.tif
102
RTVSPost2010PropOp54
 70
     1
102
RTVSPost2010Prop55
280
     0
102
RTVSPost2010PropOp55
 70
     1
102
RTVSPost2010Prop56
140
1.0
102
RTVSPost2010PropOp56
 70
     1
102
RTVSPost2010Prop57
140
1.0
102
RTVSPost2010PropOp57
 70
     1
  0
XRECORD
  5
973
102
{ACAD_REACTORS
330
972
102
}
330
972
100
AcDbXrecord
280
     1
102
RTVSPropertyOp0
 70
     1
102
RTVSPropertyOp1
 70
     1
102
RTVSPropertyOp2
 70
     1
102
RTVSPropertyOp3
 70
     1
102
RTVSPropertyOp4
 70
     1
102
RTVSPropertyOp5
 70
     1
102
RTVSPropertyOp6
 70
     1
102
RTVSPropertyOp7
 70
     1
102
RTVSPropertyOp8
 70
     1
102
RTVSPropertyOp9
 70
     1
102
RTVSPropertyOp10
 70
     1
102
RTVSPropertyOp11
 70
     1
102
RTVSPropertyOp12
 70
     1
102
RTVSPropertyOp13
 70
     1
102
RTVSPropertyOp14
 70
     1
102
RTVSPropertyOp15
 70
     1
102
RTVSPropertyOp16
 70
     1
102
RTVSPropertyOp17
 70
     1
102
RTVSPropertyOp18
 70
     1
102
RTVSPropertyOp19
 70
     1
102
RTVSPropertyOp20
 70
     1
102
RTVSPropertyOp21
 70
     1
102
RTVSPropertyOp22
 70
     1
102
RTVSPropertyOp23
 70
     1
102
RTVSPropertyOp24
 70
     1
102
RTVSPropertyOp25
 70
     1
102
RTVSPropertyOp26
 70
     1
102
RTVSPropertyOp27
 70
     1
102
RTVSPropertyOp28
 70
     1
102
RTVSPropertyOp29
 70
     1
102
RTVSPropertyOp30
 70
     1
102
RTVSPropertyOp31
 70
     1
102
RTVSPropertyOp32
 70
     1
102
RTVSPropertyOp33
 70
     1
102
RTVSPropertyOp34
 70
     1
102
RTVSPropertyOp35
 70
     1
102
RTVSPropertyOp36
 70
     1
102
RTVSPropertyOp37
 70
     1
102
RTVSPropertyOp38
 70
     1
102
RTVSPropertyOp39
 70
     1
102
RTVSPropertyOp40
 70
     1
102
RTVSPropertyOp41
 70
     1
102
RTVSPropertyOp42
 70
     1
102
RTVSPropertyOp43
 70
     1
102
RTVSPropertyOp44
 70
     1
102
RTVSPropertyOp45
 70
     1
102
RTVSPropertyOp46
 70
     1
102
RTVSPropertyOp47
 70
     1
102
RTVSPropertyOp48
 70
     1
102
RTVSPropertyOp49
 70
     1
102
RTVSPropertyOp50
 70
     1
102
RTVSPropertyOp51
 70
     0
102
RTVSPropertyOp52
 70
     0
102
RTVSPropertyOp53
 70
     1
102
RTVSPropertyOp54
 70
     1
102
RTVSPropertyOp55
 70
     1
102
RTVSPropertyOp56
 70
     1
102
RTVSPropertyOp57
 70
     1
102
RTVSPost2010Prop28
280
     0
102
RTVSPost2010PropOp28
 70
     1
102
RTVSPost2010Prop29
280
     1
102
RTVSPost2010PropOp29
 70
     1
102
RTVSPost2010Prop30
280
     1
102
RTVSPost2010PropOp30
 70
     1
102
RTVSPost2010Prop31
280
     0
102
RTVSPost2010PropOp31
 70
     1
102
RTVSPost2010Prop32
280
     0
102
RTVSPost2010PropOp32
 70
     1
102
RTVSPost2010Prop33
280
     0
102
RTVSPost2010PropOp33
 70
     1
102
RTVSPost2010Prop34
280
     0
102
RTVSPost2010PropOp34
 70
     1
102
RTVSPost2010Prop35
280
     0
102
RTVSPost2010PropOp35
 70
     1
102
RTVSPost2010Prop36
280
     0
102
RTVSPost2010PropOp36
 70
     1
102
RTVSPost2010Prop37
 90
       50
102
RTVSPost2010PropOp37
 70
     1
102
RTVSPost2010Prop38
140
0.0
102
RTVSPost2010PropOp38
 70
     1
102
RTVSPost2010Prop39
140
1.0
102
RTVSPost2010PropOp39
 70
     1
102
RTVSPost2010Prop40
 90
        0
102
RTVSPost2010PropOp40
 70
     1
102
RTVSPost2010Prop41ColorIndex
 90
       18
102
RTVSPost2010Prop41ColorRGB
 90
        0
102
RTVSPost2010PropOp41
 70
     1
102
RTVSPost2010Prop42
 90
       50
102
RTVSPost2010PropOp42
 70
     1
102
RTVSPost2010Prop43
 90
        3
102
RTVSPost2010PropOp43
 70
     1
102
RTVSPost2010Prop44ColorIndex
 90
        5
102
RTVSPost2010Prop44ColorRGB
 90
      255
102
RTVSPost2010PropOp44
 70
     1
102
RTVSPost2010Prop45
280
     0
102
RTVSPost2010PropOp45
 70
     1
102
RTVSPost2010Prop46
 90
       50
102
RTVSPost2010PropOp46
 70
     1
102
RTVSPost2010Prop47
 90
       50
102
RTVSPost2010PropOp47
 70
     1
102
RTVSPost2010Prop48
 90
       50
102
RTVSPost2010PropOp48
 70
     1
102
RTVSPost2010Prop49
280
     0
102
RTVSPost2010PropOp49
 70
     1
102
RTVSPost2010Prop50
 90
       50
102
RTVSPost2010PropOp50
 70
     1
102
RTVSPost2010Prop51ColorIndex
 90
      256
102
RTVSPost2010Prop51ColorRGB
 90
-16777216
102
RTVSPost2010PropOp51
 70
     0
102
RTVSPost2010Prop52
140
1.0
102
RTVSPost2010PropOp52
 70
     0
102
RTVSPost2010Prop53
 90
        2
102
RTVSPost2010PropOp53
 70
     1
102
RTVSPost2010Prop54
  1
strokes_ogs.tif
102
RTVSPost2010PropOp54
 70
     1
102
RTVSPost2010Prop55
280
     0
102
RTVSPost2010PropOp55
 70
     1
102
RTVSPost2010Prop56
140
1.0
102
RTVSPost2010PropOp56
 70
     1
102
RTVSPost2010Prop57
140
1.0
102
RTVSPost2010PropOp57
 70
     1
  0
XRECORD
  5
993
102
{ACAD_REACTORS
330
992
102
}
330
992
100
AcDbXrecord
280
     1
102
RTVSPropertyOp0
 70
     1
102
RTVSPropertyOp1
 70
     1
102
RTVSPropertyOp2
 70
     1
102
RTVSPropertyOp3
 70
     1
102
RTVSPropertyOp4
 70
     1
102
RTVSPropertyOp5
 70
     1
102
RTVSPropertyOp6
 70
     1
102
RTVSPropertyOp7
 70
     1
102
RTVSPropertyOp8
 70
     1
102
RTVSPropertyOp9
 70
     1
102
RTVSPropertyOp10
 70
     1
102
RTVSPropertyOp11
 70
     1
102
RTVSPropertyOp12
 70
     1
102
RTVSPropertyOp13
 70
     1
102
RTVSPropertyOp14
 70
     1
102
RTVSPropertyOp15
 70
     1
102
RTVSPropertyOp16
 70
     1
102
RTVSPropertyOp17
 70
     1
102
RTVSPropertyOp18
 70
     1
102
RTVSPropertyOp19
 70
     1
102
RTVSPropertyOp20
 70
     1
102
RTVSPropertyOp21
 70
     1
102
RTVSPropertyOp22
 70
     1
102
RTVSPropertyOp23
 70
     1
102
RTVSPropertyOp24
 70
     1
102
RTVSPropertyOp25
 70
     1
102
RTVSPropertyOp26
 70
     1
102
RTVSPropertyOp27
 70
     1
102
RTVSPropertyOp28
 70
     1
102
RTVSPropertyOp29
 70
     1
102
RTVSPropertyOp30
 70
     1
102
RTVSPropertyOp31
 70
     1
102
RTVSPropertyOp32
 70
     1
102
RTVSPropertyOp33
 70
     1
102
RTVSPropertyOp34
 70
     1
102
RTVSPropertyOp35
 70
     1
102
RTVSPropertyOp36
 70
     1
102
RTVSPropertyOp37
 70
     1
102
RTVSPropertyOp38
 70
     1
102
RTVSPropertyOp39
 70
     1
102
RTVSPropertyOp40
 70
     1
102
RTVSPropertyOp41
 70
     1
102
RTVSPropertyOp42
 70
     1
102
RTVSPropertyOp43
 70
     1
102
RTVSPropertyOp44
 70
     1
102
RTVSPropertyOp45
 70
     1
102
RTVSPropertyOp46
 70
     1
102
RTVSPropertyOp47
 70
     1
102
RTVSPropertyOp48
 70
     1
102
RTVSPropertyOp49
 70
     1
102
RTVSPropertyOp50
 70
     1
102
RTVSPropertyOp51
 70
     0
102
RTVSPropertyOp52
 70
     0
102
RTVSPropertyOp53
 70
     1
102
RTVSPropertyOp54
 70
     1
102
RTVSPropertyOp55
 70
     1
102
RTVSPropertyOp56
 70
     1
102
RTVSPropertyOp57
 70
     1
102
RTVSPost2010Prop28
280
     0
102
RTVSPost2010PropOp28
 70
     1
102
RTVSPost2010Prop29
280
     1
102
RTVSPost2010PropOp29
 70
     1
102
RTVSPost2010Prop30
280
     1
102
RTVSPost2010PropOp30
 70
     1
102
RTVSPost2010Prop31
280
     0
102
RTVSPost2010PropOp31
 70
     1
102
RTVSPost2010Prop32
280
     0
102
RTVSPost2010PropOp32
 70
     1
102
RTVSPost2010Prop33
280
     0
102
RTVSPost2010PropOp33
 70
     1
102
RTVSPost2010Prop34
280
     0
102
RTVSPost2010PropOp34
 70
     1
102
RTVSPost2010Prop35
280
     0
102
RTVSPost2010PropOp35
 70
     1
102
RTVSPost2010Prop36
280
     0
102
RTVSPost2010PropOp36
 70
     1
102
RTVSPost2010Prop37
 90
       50
102
RTVSPost2010PropOp37
 70
     1
102
RTVSPost2010Prop38
140
0.0
102
RTVSPost2010PropOp38
 70
     1
102
RTVSPost2010Prop39
140
1.0
102
RTVSPost2010PropOp39
 70
     1
102
RTVSPost2010Prop40
 90
        0
102
RTVSPost2010PropOp40
 70
     1
102
RTVSPost2010Prop41ColorIndex
 90
       18
102
RTVSPost2010Prop41ColorRGB
 90
        0
102
RTVSPost2010PropOp41
 70
     1
102
RTVSPost2010Prop42
 90
       50
102
RTVSPost2010PropOp42
 70
     1
102
RTVSPost2010Prop43
 90
        3
102
RTVSPost2010PropOp43
 70
     1
102
RTVSPost2010Prop44ColorIndex
 90
        5
102
RTVSPost2010Prop44ColorRGB
 90
      255
102
RTVSPost2010PropOp44
 70
     1
102
RTVSPost2010Prop45
280
     0
102
RTVSPost2010PropOp45
 70
     1
102
RTVSPost2010Prop46
 90
       50
102
RTVSPost2010PropOp46
 70
     1
102
RTVSPost2010Prop47
 90
       50
102
RTVSPost2010PropOp47
 70
     1
102
RTVSPost2010Prop48
 90
       50
102
RTVSPost2010PropOp48
 70
     1
102
RTVSPost2010Prop49
280
     0
102
RTVSPost2010PropOp49
 70
     1
102
RTVSPost2010Prop50
 90
       50
102
RTVSPost2010PropOp50
 70
     1
102
RTVSPost2010Prop51ColorIndex
 90
      256
102
RTVSPost2010Prop51ColorRGB
 90
-16777216
102
RTVSPost2010PropOp51
 70
     0
102
RTVSPost2010Prop52
140
1.0
102
RTVSPost2010PropOp52
 70
     0
102
RTVSPost2010Prop53
 90
        2
102
RTVSPost2010PropOp53
 70
     1
102
RTVSPost2010Prop54
  1
strokes_ogs.tif
102
RTVSPost2010PropOp54
 70
     1
102
RTVSPost2010Prop55
280
     0
102
RTVSPost2010PropOp55
 70
     1
102
RTVSPost2010Prop56
140
1.0
102
RTVSPost2010PropOp56
 70
     1
102
RTVSPost2010Prop57
140
1.0
102
RTVSPost2010PropOp57
 70
     1
  0
ENDSEC
  0
EOF
