  0
SECTION
  2
HEADER
999
BEZARC 1.0.1
  9
$FASTZOOM
 70
0
  9
$FILLMODE
 70
1
  9
$SPLINETYPE
 70
5
  0
ENDSEC
  0
SECTION
  2
ENTITIES
  0
POLYLINE
  8
0
 66
1
 70
1
  0
VERTEX
  8
0
 10
7.779022
 20
5.519407
  0
VERTEX
  8
0
 10
7.775814
 20
5.873393
 42
-0.069048
  0
VERTEX
  8
0
 10
7.77042
 20
5.885981
 42
-0.023615
  0
VERTEX
  8
0
 10
7.767525
 20
5.899052
 42
0.084895
  0
VERTEX
  8
0
 10
7.760914
 20
5.920765
 42
0.202789
  0
VERTEX
  8
0
 10
7.740522
 20
5.935421
 42
0.062427
  0
VERTEX
  8
0
 10
7.752538
 20
6.068283
 42
0.020359
  0
VERTEX
  8
0
 10
7.742567
 20
6.201606
 42
-0.029089
  0
VERTEX
  8
0
 10
7.733036
 20
6.350365
 42
0.048955
  0
VERTEX
  8
0
 10
7.730153
 20
6.360599
 42
0.013223
  0
VERTEX
  8
0
 10
7.725627
 20
6.371537
 42
-0.066715
  0
VERTEX
  8
0
 10
7.717804
 20
6.394637
 42
-0.320379
  0
VERTEX
  8
0
 10
7.72555
 20
6.412394
 42
-0.014348
  0
VERTEX
  8
0
 10
7.729283
 20
6.427249
 42
0.065704
  0
VERTEX
  8
0
 10
7.735878
 20
6.463992
 42
0.232731
  0
VERTEX
  8
0
 10
7.721272
 20
6.496881
 42
0.084568
  0
VERTEX
  8
0
 10
7.572886
 20
6.541396
 42
0.033082
  0
VERTEX
  8
0
 10
7.413272
 20
6.551422
 42
0.140462
  0
VERTEX
  8
0
 10
7.375038
 20
6.581099
 42
0.088455
  0
VERTEX
  8
0
 10
7.328785
 20
6.589922
 42
-0.009462
  0
VERTEX
  8
0
 10
7.31091
 20
6.585649
 42
0.048937
  0
VERTEX
  8
0
 10
7.269912
 20
6.573572
 42
0.174284
  0
VERTEX
  8
0
 10
7.240021
 20
6.547144
 42
-0.017913
  0
VERTEX
  8
0
 10
7.062703
 20
6.54869
 42
0.029453
  0
VERTEX
  8
0
 10
6.828285
 20
6.547144
  0
VERTEX
  8
0
 10
6.770535
 20
6.593131
 42
0.262127
  0
VERTEX
  8
0
 10
6.640062
 20
6.547144
 42
0.069241
  0
VERTEX
  8
0
 10
6.077535
 20
6.504367
 42
-0.300134
  0
VERTEX
  8
0
 10
6.033217
 20
6.534561
 42
-0.083246
  0
VERTEX
  8
0
 10
6.023596
 20
6.590844
 42
0.018393
  0
VERTEX
  8
0
 10
6.021294
 20
6.617265
 42
0.074146
  0
VERTEX
  8
0
 10
6.015506
 20
6.639117
 42
-0.068898
  0
VERTEX
  8
0
 10
6.009215
 20
6.662972
 42
-0.018471
  0
VERTEX
  8
0
 10
6.006678
 20
6.690374
 42
0.019636
  0
VERTEX
  8
0
 10
6.004007
 20
6.718733
 42
0.073261
  0
VERTEX
  8
0
 10
5.997188
 20
6.743389
 42
0.153045
  0
VERTEX
  8
0
 10
5.982082
 20
6.760539
 42
0.142949
  0
VERTEX
  8
0
 10
5.954547
 20
6.766381
  0
VERTEX
  8
0
 10
5.357797
 20
6.778144
 42
0.004481
  0
VERTEX
  8
0
 10
5.162103
 20
6.770506
 42
-0.020642
  0
VERTEX
  8
0
 10
4.761046
 20
6.763172
  0
VERTEX
  8
0
 10
3.875544
 20
6.716117
 42
0.001485
  0
VERTEX
  8
0
 10
3.117308
 20
6.681894
  0
VERTEX
  8
0
 10
1.607251
 20
6.597408
  0
VERTEX
  8
0
 10
1.592279
 20
6.604894
 42
-0.001832
  0
VERTEX
  8
0
 10
1.459357
 20
6.598205
 42
0.01154
  0
VERTEX
  8
0
 10
1.142042
 20
6.578158
 42
0.166764
  0
VERTEX
  8
0
 10
1.097413
 20
6.517537
 42
0.050126
  0
VERTEX
  8
0
 10
1.081771
 20
6.440336
 42
-0.025327
  0
VERTEX
  8
0
 10
1.072528
 20
6.385658
 42
0.139979
  0
VERTEX
  8
0
 10
0.868264
 20
6.008143
 42
-0.000054
  0
VERTEX
  8
0
 10
0.867287
 20
6.00066
 42
0.054489
  0
VERTEX
  8
0
 10
0.851537
 20
5.712556
 42
0.214228
  0
VERTEX
  8
0
 10
0.972
 20
5.461657
 42
-0.047223
  0
VERTEX
  8
0
 10
0.939529
 20
5.432568
 42
-0.01402
  0
VERTEX
  8
0
 10
0.901799
 20
5.406112
 42
0.013663
  0
VERTEX
  8
0
 10
0.865056
 20
5.380379
 42
-0.245389
  0
VERTEX
  8
0
 10
0.854958
 20
5.336192
 42
-0.074419
  0
VERTEX
  8
0
 10
0.81751
 20
5.30642
 42
0.064771
  0
VERTEX
  8
0
 10
0.780051
 20
5.277258
 42
0.20976
  0
VERTEX
  8
0
 10
0.764528
 20
5.233865
 42
-0.04005
  0
VERTEX
  8
0
 10
0.730183
 20
5.230347
 42
-0.012435
  0
VERTEX
  8
0
 10
0.694452
 20
5.230387
 42
0.01898
  0
VERTEX
  8
0
 10
0.650977
 20
5.230066
 42
0.063768
  0
VERTEX
  8
0
 10
0.610528
 20
5.223171
 42
0.137138
  0
VERTEX
  8
0
 10
0.608122
 20
5.192424
 42
0.399347
  0
VERTEX
  8
0
 10
0.629778
 20
5.176115
 42
-0.096969
  0
VERTEX
  8
0
 10
0.634736
 20
5.16206
 42
-0.130666
  0
VERTEX
  8
0
 10
0.633301
 20
5.151289
 42
-0.086749
  0
VERTEX
  8
0
 10
0.627545
 20
5.142652
 42
-0.025705
  0
VERTEX
  8
0
 10
0.619537
 20
5.135003
 42
0.101612
  0
VERTEX
  8
0
 10
0.605091
 20
5.118166
 42
0.115813
  0
VERTEX
  8
0
 10
0.6027
 20
5.106676
 42
0.095033
  0
VERTEX
  8
0
 10
0.60625
 20
5.091629
  0
VERTEX
  8
0
 10
0.687528
 20
5.084142
 42
-0.151588
  0
VERTEX
  8
0
 10
0.68354
 20
5.067746
 42
-0.03472
  0
VERTEX
  8
0
 10
0.672183
 20
5.050482
 42
0.074922
  0
VERTEX
  8
0
 10
0.655872
 20
5.022601
 42
0.2588
  0
VERTEX
  8
0
 10
0.660792
 20
4.992169
 42
0.155172
  0
VERTEX
  8
0
 10
0.691806
 20
4.961156
 42
-0.068811
  0
VERTEX
  8
0
 10
0.68008
 20
4.955986
 42
-0.022621
  0
VERTEX
  8
0
 10
0.667649
 20
4.953039
 42
0.035918
  0
VERTEX
  8
0
 10
0.653306
 20
4.949392
  0
VERTEX
  8
0
 10
0.664
 20
4.937628
 42
-0.10765
  0
VERTEX
  8
0
 10
0.662663
 20
4.912096
 42
-0.062768
  0
VERTEX
  8
0
 10
0.653306
 20
4.887365
 42
0.020081
  0
VERTEX
  8
0
 10
0.837045
 20
4.884054
 42
-0.005294
  0
VERTEX
  8
0
 10
0.918528
 20
4.884157
 42
-0.12262
  0
VERTEX
  8
0
 10
0.939467
 20
4.857333
 42
-0.032247
  0
VERTEX
  8
0
 10
0.953351
 20
4.82123
 42
0.015802
  0
VERTEX
  8
0
 10
0.963268
 20
4.793769
 42
0.051225
  0
VERTEX
  8
0
 10
0.976278
 20
4.768656
 42
0.231965
  0
VERTEX
  8
0
 10
1.077515
 20
4.680474
 42
0.077048
  0
VERTEX
  8
0
 10
1.213427
 20
4.673749
 42
-0.016478
  0
VERTEX
  8
0
 10
1.284278
 20
4.675615
 42
0.159085
  0
VERTEX
  8
0
 10
1.377721
 20
4.765849
 42
0.078531
  0
VERTEX
  8
0
 10
1.419029
 20
4.887365
 42
-0.003831
  0
VERTEX
  8
0
 10
1.432293
 20
4.854037
 42
0.029386
  0
VERTEX
  8
0
 10
1.476779
 20
4.752614
 42
0.198886
  0
VERTEX
  8
0
 10
1.617411
 20
4.654359
 42
0.103658
  0
VERTEX
  8
0
 10
1.796543
 20
4.653156
 42
0.179271
  0
VERTEX
  8
0
 10
1.864557
 20
4.690724
 42
0.050388
  0
VERTEX
  8
0
 10
1.912044
 20
4.757587
 42
-0.011506
  0
VERTEX
  8
0
 10
1.931293
 20
4.787906
 42
-0.061845
  0
VERTEX
  8
0
 10
1.943938
 20
4.76957
 42
-0.02196
  0
VERTEX
  8
0
 10
1.952979
 20
4.750001
 42
0.019892
  0
VERTEX
  8
0
 10
1.961476
 20
4.731472
 42
0.057022
  0
VERTEX
  8
0
 10
1.973001
 20
4.714115
 42
0.227198
  0
VERTEX
  8
0
 10
2.090597
 20
4.630834
 42
0.068953
  0
VERTEX
  8
0
 10
2.237774
 20
4.629734
 42
-0.015576
  0
VERTEX
  8
0
 10
2.304529
 20
4.633906
 42
0.158489
  0
VERTEX
  8
0
 10
2.410137
 20
4.72521
 42
0.08349
  0
VERTEX
  8
0
 10
2.466015
 20
4.857419
  0
VERTEX
  8
0
 10
2.477779
 20
4.857419
 42
0.072927
  0
VERTEX
  8
0
 10
2.541947
 20
4.740717
 42
0.171693
  0
VERTEX
  8
0
 10
2.651031
 20
4.668128
 42
0.175913
  0
VERTEX
  8
0
 10
2.8061
 20
4.696736
 42
0.137934
  0
VERTEX
  8
0
 10
2.916251
 20
4.810364
  0
VERTEX
  8
0
 10
2.982558
 20
4.818919
  0
VERTEX
  8
0
 10
3.047794
 20
4.718393
 42
0.150701
  0
VERTEX
  8
0
 10
3.18348
 20
4.680026
 42
0.087182
  0
VERTEX
  8
0
 10
3.324781
 20
4.706629
 42
0.153152
  0
VERTEX
  8
0
 10
3.373314
 20
4.739943
 42
0.051737
  0
VERTEX
  8
0
 10
3.403619
 20
4.789805
 42
-0.049375
  0
VERTEX
  8
0
 10
3.432796
 20
4.838171
  0
VERTEX
  8
0
 10
4.068046
 20
4.838171
  0
VERTEX
  8
0
 10
4.21456
 20
4.829614
  0
VERTEX
  8
0
 10
4.21456
 20
4.791114
 42
0.330882
  0
VERTEX
  8
0
 10
4.229196
 20
4.775745
 42
0.075144
  0
VERTEX
  8
0
 10
4.254941
 20
4.775828
 42
-0.015123
  0
VERTEX
  8
0
 10
4.267945
 20
4.77682
 42
-0.054903
  0
VERTEX
  8
0
 10
4.279796
 20
4.776142
 42
0.061439
  0
VERTEX
  8
0
 10
4.349443
 20
4.64313
 42
0.151548
  0
VERTEX
  8
0
 10
4.46481
 20
4.549421
 42
0.036927
  0
VERTEX
  8
0
 10
4.628034
 20
4.529635
 42
0.07484
  0
VERTEX
  8
0
 10
4.79206
 20
4.545143
 42
0.152263
  0
VERTEX
  8
0
 10
4.905688
 20
4.619335
 42
0.082628
  0
VERTEX
  8
0
 10
4.976006
 20
4.737643
 42
0.044108
  0
VERTEX
  8
0
 10
4.981862
 20
4.749489
 42
0.07326
  0
VERTEX
  8
0
 10
4.983857
 20
4.758088
 42
0.122006
  0
VERTEX
  8
0
 10
4.981198
 20
4.770404
 42
-0.034407
  0
VERTEX
  8
0
 10
4.978854
 20
4.777144
  0
VERTEX
  8
0
 10
5.003811
 20
4.752614
 42
0.041849
  0
VERTEX
  8
0
 10
5.287195
 20
4.726239
 42
-0.01142
  0
VERTEX
  8
0
 10
5.434797
 20
4.718393
 42
0.184081
  0
VERTEX
  8
0
 10
5.639061
 20
4.756893
  0
VERTEX
  8
0
 10
5.658311
 20
4.730156
 42
-0.082392
  0
VERTEX
  8
0
 10
5.674742
 20
4.731144
 42
-0.028727
  0
VERTEX
  8
0
 10
5.690445
 20
4.728521
 42
0.059956
  0
VERTEX
  8
0
 10
5.711166
 20
4.725888
 42
0.169221
  0
VERTEX
  8
0
 10
5.731033
 20
4.733365
 42
0.071854
  0
VERTEX
  8
0
 10
5.831561
 20
4.576156
 42
0.217412
  0
VERTEX
  8
0
 10
6.02366
 20
4.49314
 42
0.061756
  0
VERTEX
  8
0
 10
6.235812
 20
4.518407
 42
0.136317
  0
VERTEX
  8
0
 10
6.342891
 20
4.60864
 42
0.044903
  0
VERTEX
  8
0
 10
6.412271
 20
4.730156
 42
-0.253053
  0
VERTEX
  8
0
 10
6.440549
 20
4.729465
 42
-0.084491
  0
VERTEX
  8
0
 10
6.461066
 20
4.709785
 42
0.054313
  0
VERTEX
  8
0
 10
6.478358
 20
4.691971
 42
0.177527
  0
VERTEX
  8
0
 10
6.501035
 20
4.684169
  0
VERTEX
  8
0
 10
6.840049
 20
4.703419
 42
-0.0942
  0
VERTEX
  8
0
 10
6.85487
 20
4.691104
 42
-0.049437
  0
VERTEX
  8
0
 10
6.865582
 20
4.67548
 42
-0.042193
  0
VERTEX
  8
0
 10
6.874271
 20
4.656364
 42
-0.041714
  0
VERTEX
  8
0
 10
6.88421
 20
4.648361
 42
-0.007957
  0
VERTEX
  8
0
 10
6.897207
 20
4.63591
 42
0.103663
  0
VERTEX
  8
0
 10
7.020785
 20
4.549421
 42
0.11773
  0
VERTEX
  8
0
 10
7.197624
 20
4.534443
 42
0.167618
  0
VERTEX
  8
0
 10
7.340549
 20
4.610378
 42
-0.00004
  0
VERTEX
  8
0
 10
7.340549
 20
4.610378
 42
-0.002237
  0
VERTEX
  8
0
 10
7.356056
 20
4.634173
 42
-0.00493
  0
VERTEX
  8
0
 10
7.366717
 20
4.650081
 42
-0.077424
  0
VERTEX
  8
0
 10
7.371563
 20
4.656364
 42
0.065576
  0
VERTEX
  8
0
 10
7.400279
 20
4.707157
 42
0.021749
  0
VERTEX
  8
0
 10
7.419475
 20
4.761343
 42
-0.013011
  0
VERTEX
  8
0
 10
7.432522
 20
4.799669
 42
-0.005302
  0
VERTEX
  8
0
 10
7.432292
 20
4.831597
  0
VERTEX
  8
0
 10
7.432292
 20
4.831597
 42
-0.044174
  0
VERTEX
  8
0
 10
7.590587
 20
4.838627
 42
0.044509
  0
VERTEX
  8
0
 10
7.748008
 20
4.845657
 42
0.144219
  0
VERTEX
  8
0
 10
7.759861
 20
4.899048
 42
0.056024
  0
VERTEX
  8
0
 10
7.749325
 20
4.948642
 42
-0.04425
  0
VERTEX
  8
0
 10
7.739122
 20
4.993303
 42
-0.119671
  0
VERTEX
  8
0
 10
7.7448
 20
5.041365
 42
-0.086346
  0
VERTEX
  8
0
 10
7.733181
 20
5.094473
 42
-0.034207
  0
VERTEX
  8
0
 10
7.735211
 20
5.145174
 42
0.035766
  0
VERTEX
  8
0
 10
7.737314
 20
5.203921
 42
0.200521
  0
VERTEX
  8
0
 10
7.768996
 20
5.244827
 42
0.066454
  0
VERTEX
  8
0
 10
7.775814
 20
5.300171
 42
0.154347
  0
VERTEX
  8
0
 10
7.794432
 20
5.345992
 42
0.040087
  0
VERTEX
  8
0
 10
7.795194
 20
5.4023
 42
-0.014955
  0
VERTEX
  8
0
 10
7.794525
 20
5.438836
 42
-0.049817
  0
VERTEX
  8
0
 10
7.798272
 20
5.473421
 42
-0.019677
  0
VERTEX
  8
0
 10
7.798212
 20
5.484235
 42
0.019234
  0
VERTEX
  8
0
 10
7.798138
 20
5.496368
 42
0.069079
  0
VERTEX
  8
0
 10
7.796181
 20
5.507505
 42
0.342319
  0
SEQEND
  8
0
  0
POLYLINE
  8
0
 66
1
 70
1
  0
VERTEX
  8
0
 10
0.772569
 20
4.955124
  0
VERTEX
  8
0
 10
0.701389
 20
4.954861
 42
-0.008588
  0
VERTEX
  8
0
 10
0.71433
 20
4.961558
 42
0.028442
  0
VERTEX
  8
0
 10
0.732128
 20
4.971315
 42
0.096783
  0
VERTEX
  8
0
 10
0.745278
 20
4.983614
 42
0.186097
  0
VERTEX
  8
0
 10
0.749395
 20
5.01879
 42
0.06684
  0
VERTEX
  8
0
 10
0.735642
 20
5.049524
 42
-0.02333
  0
VERTEX
  8
0
 10
0.726728
 20
5.066719
 42
-0.07889
  0
VERTEX
  8
0
 10
0.72175
 20
5.084142
  0
VERTEX
  8
0
 10
0.776292
 20
5.084142
 42
-0.020857
  0
VERTEX
  8
0
 10
0.772582
 20
5.041885
 42
0.020286
  0
VERTEX
  8
0
 10
0.768557
 20
4.995919
 42
0.079585
  0
SEQEND
  8
0
  0
POLYLINE
  8
0
 66
1
 70
1
  0
VERTEX
  8
0
 10
7.667031
 20
5.955372
 42
0.19788
  0
VERTEX
  8
0
 10
7.697222
 20
5.995541
 42
0.068881
  0
VERTEX
  8
0
 10
7.701008
 20
6.044238
 42
-0.028243
  0
VERTEX
  8
0
 10
7.701787
 20
6.075686
  0
VERTEX
  8
0
 10
7.672378
 20
6.375131
  0
VERTEX
  8
0
 10
7.68705
 20
6.381381
 42
0.000993
  0
VERTEX
  8
0
 10
7.692799
 20
6.328786
 42
-0.041032
  0
VERTEX
  8
0
 10
7.713786
 20
5.954672
  0
VERTEX
  8
0
 10
7.690258
 20
5.938631
  0
VERTEX
  8
0
 10
6.856925
 20
5.931311
  0
VERTEX
  8
0
 10
6.971892
 20
5.9527
 42
-0.012696
  0
VERTEX
  8
0
 10
7.312892
 20
5.954053
 42
0.012252
  0
SEQEND
  8
0
  0
POLYLINE
  8
0
 66
1
 70
1
  0
VERTEX
  8
0
 10
7.45605
 20
5.993171
 42
0.086444
  0
VERTEX
  8
0
 10
7.490852
 20
6.006736
 42
0.063004
  0
VERTEX
  8
0
 10
7.513799
 20
6.027393
 42
0.071036
  0
VERTEX
  8
0
 10
7.533156
 20
6.093776
 42
0.015707
  0
VERTEX
  8
0
 10
7.544026
 20
6.176984
 42
-0.012457
  0
VERTEX
  8
0
 10
7.553016
 20
6.248262
 42
-0.056982
  0
VERTEX
  8
0
 10
7.567271
 20
6.304381
 42
0.117092
  0
VERTEX
  8
0
 10
7.577949
 20
6.321341
 42
0.04727
  0
VERTEX
  8
0
 10
7.583715
 20
6.343014
 42
0.034409
  0
VERTEX
  8
0
 10
7.586522
 20
6.369617
  0
VERTEX
  8
0
 10
7.598286
 20
6.369617
 42
0.000489
  0
VERTEX
  8
0
 10
7.599589
 20
6.318442
 42
-0.022168
  0
VERTEX
  8
0
 10
7.598286
 20
6.003865
 42
-0.032202
  0
VERTEX
  8
0
 10
7.53089
 20
5.991763
 42
-0.067045
  0
SEQEND
  8
0
  0
POLYLINE
  8
0
 66
1
 70
1
  0
VERTEX
  8
0
 10
6.558785
 20
6.532172
 42
0.202892
  0
VERTEX
  8
0
 10
6.57146
 20
6.526531
 42
0.071999
  0
VERTEX
  8
0
 10
6.585521
 20
6.527894
  0
VERTEX
  8
0
 10
6.589799
 20
6.532172
  0
VERTEX
  8
0
 10
6.624021
 20
6.523617
  0
VERTEX
  8
0
 10
7.444286
 20
6.520408
 42
0.210726
  0
VERTEX
  8
0
 10
7.476636
 20
6.51867
 42
0.0933
  0
VERTEX
  8
0
 10
7.497758
 20
6.532172
  0
VERTEX
  8
0
 10
7.517008
 20
6.532172
  0
VERTEX
  8
0
 10
7.64855
 20
6.501158
  0
VERTEX
  8
0
 10
6.666799
 20
6.516131
 42
0.010972
  0
VERTEX
  8
0
 10
6.647342
 20
6.514203
 42
-0.043835
  0
VERTEX
  8
0
 10
6.596317
 20
6.511508
 42
-0.172621
  0
VERTEX
  8
0
 10
6.551299
 20
6.527894
  0
SEQEND
  8
0
  0
POLYLINE
  8
0
 66
1
 70
1
  0
VERTEX
  8
0
 10
6.532049
 20
6.520408
 42
0.000052
  0
VERTEX
  8
0
 10
6.532085
 20
6.520125
 42
-0.029455
  0
VERTEX
  8
0
 10
6.532478
 20
6.515926
 42
-0.14958
  0
VERTEX
  8
0
 10
6.531829
 20
6.513303
 42
-0.11174
  0
VERTEX
  8
0
 10
6.529428
 20
6.51122
 42
-0.019718
  0
VERTEX
  8
0
 10
6.524563
 20
6.508644
 42
0.014835
  0
VERTEX
  8
0
 10
6.28982
 20
6.489664
 42
-0.015172
  0
VERTEX
  8
0
 10
6.046519
 20
6.470144
 42
-0.040267
  0
VERTEX
  8
0
 10
6.278132
 20
6.520075
 42
-0.06876
  0
SEQEND
  8
0
  0
POLYLINE
  8
0
 66
1
 70
1
  0
VERTEX
  8
0
 10
7.194035
 20
6.470144
 42
0.022202
  0
VERTEX
  8
0
 10
7.7063
 20
6.465867
 42
-0.107727
  0
VERTEX
  8
0
 10
7.701889
 20
6.45183
 42
-0.216193
  0
VERTEX
  8
0
 10
7.690258
 20
6.443408
  0
VERTEX
  8
0
 10
6.878549
 20
6.455172
 42
0.009571
  0
VERTEX
  8
0
 10
6.585521
 20
6.450894
 42
0.174481
  0
VERTEX
  8
0
 10
6.569113
 20
6.438699
 42
0.082354
  0
VERTEX
  8
0
 10
6.55796
 20
6.415189
 42
0.090933
  0
VERTEX
  8
0
 10
6.551806
 20
6.354643
 42
-0.006169
  0
VERTEX
  8
0
 10
6.551773
 20
6.204259
 42
0.016145
  0
VERTEX
  8
0
 10
6.555015
 20
5.954672
 42
0.185768
  0
VERTEX
  8
0
 10
6.570118
 20
5.924582
 42
0.121749
  0
VERTEX
  8
0
 10
6.601107
 20
5.909483
 42
0.0613
  0
VERTEX
  8
0
 10
6.684753
 20
5.904196
 42
-0.003737
  0
VERTEX
  8
0
 10
6.705299
 20
5.904407
  0
VERTEX
  8
0
 10
7.709508
 20
5.907617
 42
-0.174469
  0
VERTEX
  8
0
 10
7.725351
 20
5.890883
 42
-0.06291
  0
VERTEX
  8
0
 10
7.73091
 20
5.86942
 42
0.014939
  0
VERTEX
  8
0
 10
7.733036
 20
5.858421
 42
0.038691
  0
VERTEX
  8
0
 10
7.679618
 20
5.863088
 42
-0.018001
  0
VERTEX
  8
0
 10
7.63426
 20
5.86574
 42
-0.001794
  0
VERTEX
  8
0
 10
7.634167
 20
5.868021
 42
0.04403
  0
VERTEX
  8
0
 10
7.633553
 20
5.874752
 42
0.064627
  0
VERTEX
  8
0
 10
7.630787
 20
5.881944
  0
VERTEX
  8
0
 10
7.517361
 20
5.881944
 42
-0.010567
  0
VERTEX
  8
0
 10
7.515848
 20
5.878478
 42
0.035095
  0
VERTEX
  8
0
 10
7.512517
 20
5.870063
 42
0.138383
  0
VERTEX
  8
0
 10
7.512028
 20
5.861629
  0
VERTEX
  8
0
 10
6.995371
 20
5.862268
  0
VERTEX
  8
0
 10
6.988426
 20
5.88426
 42
-0.004158
  0
VERTEX
  8
0
 10
6.854253
 20
5.883185
  0
VERTEX
  8
0
 10
6.854253
 20
5.883185
 42
0.052109
  0
VERTEX
  8
0
 10
6.850175
 20
5.861797
 42
-0.041825
  0
VERTEX
  8
0
 10
6.722759
 20
5.862832
 42
-0.021324
  0
VERTEX
  8
0
 10
6.539535
 20
5.877671
 42
0.010848
  0
VERTEX
  8
0
 10
6.524563
 20
6.427367
 42
0.097693
  0
VERTEX
  8
0
 10
6.529908
 20
6.431707
 42
0.138954
  0
VERTEX
  8
0
 10
6.531806
 20
6.436195
 42
0.092967
  0
VERTEX
  8
0
 10
6.531398
 20
6.4408
 42
0.027221
  0
VERTEX
  8
0
 10
6.529826
 20
6.445495
 42
-0.027448
  0
VERTEX
  8
0
 10
6.528213
 20
6.450318
 42
-0.090281
  0
VERTEX
  8
0
 10
6.527771
 20
6.455172
  0
VERTEX
  8
0
 10
6.505312
 20
6.474422
  0
VERTEX
  8
0
 10
6.085019
 20
6.439131
 42
0.262988
  0
VERTEX
  8
0
 10
6.060651
 20
6.429705
 42
0.074897
  0
VERTEX
  8
0
 10
6.047284
 20
6.405561
 42
-0.039456
  0
VERTEX
  8
0
 10
6.039035
 20
6.388867
 42
-0.001914
  0
VERTEX
  8
0
 10
6.035364
 20
6.226209
 42
0.011041
  0
VERTEX
  8
0
 10
6.031547
 20
5.869115
  0
VERTEX
  8
0
 10
6.012297
 20
5.842379
 42
0.034624
  0
VERTEX
  8
0
 10
6.012373
 20
5.632227
 42
-0.03631
  0
VERTEX
  8
0
 10
6.012297
 20
5.434921
  0
VERTEX
  8
0
 10
5.988769
 20
5.434921
 42
0.080224
  0
VERTEX
  8
0
 10
5.973797
 20
5.580365
 42
0.01189
  0
VERTEX
  8
0
 10
5.973896
 20
5.684478
 42
-0.022545
  0
VERTEX
  8
0
 10
5.97613
 20
5.830941
 42
-0.068907
  0
VERTEX
  8
0
 10
6.004811
 20
5.973922
 42
0.04215
  0
VERTEX
  8
0
 10
6.022491
 20
6.224442
 42
-0.027434
  0
VERTEX
  8
0
 10
6.034757
 20
6.455172
  0
VERTEX
  8
0
 10
6.046519
 20
6.446617
 42
-0.04494
  0
VERTEX
  8
0
 10
6.816331
 20
6.473958
 42
0.011178
  0
SEQEND
  8
0
  0
POLYLINE
  8
0
 66
1
 70
1
  0
VERTEX
  8
0
 10
6.034757
 20
5.842379
 42
-0.233012
  0
VERTEX
  8
0
 10
6.053322
 20
5.856812
 42
-0.089823
  0
VERTEX
  8
0
 10
6.074959
 20
5.855421
 42
0.022289
  0
VERTEX
  8
0
 10
6.086112
 20
5.853729
 42
0.07443
  0
VERTEX
  8
0
 10
6.096783
 20
5.854143
 42
0.00203
  0
VERTEX
  8
0
 10
6.242205
 20
5.856177
 42
-0.005888
  0
VERTEX
  8
0
 10
6.493549
 20
5.858421
  0
VERTEX
  8
0
 10
6.493549
 20
5.238143
  0
VERTEX
  8
0
 10
6.304256
 20
5.238143
 42
0.091554
  0
VERTEX
  8
0
 10
6.252121
 20
5.355648
 42
0.175615
  0
VERTEX
  8
0
 10
6.150257
 20
5.430643
  0
VERTEX
  8
0
 10
6.034757
 20
5.434921
 42
0.010347
  0
VERTEX
  8
0
 10
6.032901
 20
5.600963
 42
-0.023893
  0
SEQEND
  8
0
  0
POLYLINE
  8
0
 66
1
 70
1
  0
VERTEX
  8
0
 10
6.409062
 20
5.907617
  0
VERTEX
  8
0
 10
6.397299
 20
5.957881
 42
0.106633
  0
VERTEX
  8
0
 10
6.501035
 20
5.965367
 42
-0.002138
  0
VERTEX
  8
0
 10
6.486063
 20
6.416672
 42
0.289203
  0
VERTEX
  8
0
 10
6.459593
 20
6.429506
 42
0.091857
  0
VERTEX
  8
0
 10
6.431519
 20
6.419881
 42
0.063466
  0
VERTEX
  8
0
 10
6.373771
 20
6.296894
 42
0.075893
  0
VERTEX
  8
0
 10
6.382538
 20
6.293339
 42
0.023665
  0
VERTEX
  8
0
 10
6.392132
 20
6.29151
 42
-0.027324
  0
VERTEX
  8
0
 10
6.402302
 20
6.289522
 42
-0.089235
  0
VERTEX
  8
0
 10
6.411343
 20
6.28545
 42
-0.127258
  0
VERTEX
  8
0
 10
6.418185
 20
6.277198
 42
-0.091957
  0
VERTEX
  8
0
 10
6.421756
 20
6.262672
  0
VERTEX
  8
0
 10
6.421756
 20
6.065894
 42
-0.137879
  0
VERTEX
  8
0
 10
6.405322
 20
6.054874
 42
-0.060755
  0
VERTEX
  8
0
 10
6.388027
 20
6.052225
 42
0.026709
  0
VERTEX
  8
0
 10
6.375374
 20
6.050851
 42
0.067899
  0
VERTEX
  8
0
 10
6.362007
 20
6.046643
 42
-0.027797
  0
VERTEX
  8
0
 10
6.366479
 20
6.021294
 42
0.018116
  0
VERTEX
  8
0
 10
6.370563
 20
5.996648
 42
0.061983
  0
VERTEX
  8
0
 10
6.378049
 20
5.973922
 42
-0.15309
  0
VERTEX
  8
0
 10
6.362822
 20
5.990642
 42
-0.042006
  0
VERTEX
  8
0
 10
6.354023
 20
6.01413
 42
0.024421
  0
VERTEX
  8
0
 10
6.347354
 20
6.033196
 42
0.082031
  0
VERTEX
  8
0
 10
6.337424
 20
6.049604
 42
0.132477
  0
VERTEX
  8
0
 10
6.321072
 20
6.060367
 42
0.106758
  0
VERTEX
  8
0
 10
6.295139
 20
6.0625
 42
-0.014939
  0
VERTEX
  8
0
 10
6.296145
 20
6.24783
 42
0.00014
  0
VERTEX
  8
0
 10
6.296769
 20
6.273367
 42
-0.142141
  0
VERTEX
  8
0
 10
6.325186
 20
6.290684
 42
-0.057746
  0
VERTEX
  8
0
 10
6.362007
 20
6.296894
 42
0.042985
  0
VERTEX
  8
0
 10
6.416549
 20
6.419881
 42
0.265606
  0
VERTEX
  8
0
 10
6.407699
 20
6.425185
 42
0.060744
  0
VERTEX
  8
0
 10
6.395497
 20
6.424188
 42
-0.02743
  0
VERTEX
  8
0
 10
6.387583
 20
6.423199
 42
-0.125151
  0
VERTEX
  8
0
 10
6.381257
 20
6.424158
 42
-0.025492
  0
VERTEX
  8
0
 10
6.227323
 20
6.40795
 42
0.022843
  0
VERTEX
  8
0
 10
6.081811
 20
6.393144
  0
VERTEX
  8
0
 10
6.070049
 20
6.381381
  0
VERTEX
  8
0
 10
6.065771
 20
5.962158
  0
VERTEX
  8
0
 10
6.081811
 20
5.946117
  0
VERTEX
  8
0
 10
6.366285
 20
5.957881
 42
-0.019941
  0
VERTEX
  8
0
 10
6.375277
 20
5.928241
 42
0.043484
  0
VERTEX
  8
0
 10
6.389812
 20
5.885157
  0
VERTEX
  8
0
 10
6.054007
 20
5.885157
 42
-0.025319
  0
VERTEX
  8
0
 10
6.058285
 20
6.108672
  0
VERTEX
  8
0
 10
6.058285
 20
6.378172
  0
VERTEX
  8
0
 10
6.070049
 20
6.408117
 42
-0.001178
  0
VERTEX
  8
0
 10
6.292705
 20
6.426371
 42
0.001021
  0
VERTEX
  8
0
 10
6.501035
 20
6.443408
 42
-0.007639
  0
VERTEX
  8
0
 10
6.516007
 20
5.880881
 42
0.069832
  0
VERTEX
  8
0
 10
6.495694
 20
5.882777
 42
0.01918
  0
VERTEX
  8
0
 10
6.473353
 20
5.881065
 42
-0.018294
  0
VERTEX
  8
0
 10
6.451866
 20
5.879391
 42
-0.068077
  0
VERTEX
  8
0
 10
6.432625
 20
5.881049
 42
-0.322011
  0
SEQEND
  8
0
  0
POLYLINE
  8
0
 66
1
 70
1
  0
VERTEX
  8
0
 10
5.985561
 20
6.523617
 42
-0.258335
  0
VERTEX
  8
0
 10
6.00271
 20
6.524213
 42
-0.067053
  0
VERTEX
  8
0
 10
6.018431
 20
6.513117
 42
0.030808
  0
VERTEX
  8
0
 10
6.028734
 20
6.50511
 42
0.127578
  0
VERTEX
  8
0
 10
6.039035
 20
6.501158
 42
-0.129077
  0
VERTEX
  8
0
 10
6.035107
 20
6.491263
 42
-0.029624
  0
VERTEX
  8
0
 10
6.027122
 20
6.481134
 42
0.018464
  0
VERTEX
  8
0
 10
6.020312
 20
6.472735
 42
0.067602
  0
VERTEX
  8
0
 10
6.01544
 20
6.464183
 42
0.326215
  0
VERTEX
  8
0
 10
6.019783
 20
6.446617
  0
VERTEX
  8
0
 10
6.008019
 20
6.419881
 42
0.069773
  0
VERTEX
  8
0
 10
5.995306
 20
6.44225
 42
-0.040641
  0
VERTEX
  8
0
 10
5.989608
 20
6.451098
 42
-0.0781
  0
VERTEX
  8
0
 10
5.988397
 20
6.454866
 42
-0.125756
  0
VERTEX
  8
0
 10
5.988769
 20
6.458381
 42
-0.01542
  0
VERTEX
  8
0
 10
5.962033
 20
6.485117
 42
-0.000008
  0
VERTEX
  8
0
 10
5.962033
 20
6.485117
 42
0.019748
  0
VERTEX
  8
0
 10
5.916047
 20
6.508644
 42
0.088649
  0
VERTEX
  8
0
 10
5.906107
 20
6.515415
 42
0.015401
  0
VERTEX
  8
0
 10
5.890849
 20
6.522359
 42
-0.026207
  0
VERTEX
  8
0
 10
5.870062
 20
6.532172
  0
VERTEX
  8
0
 10
5.742797
 20
6.547144
 42
0.192973
  0
VERTEX
  8
0
 10
5.738748
 20
6.562182
 42
0.055819
  0
VERTEX
  8
0
 10
5.727149
 20
6.574302
 42
-0.047
  0
VERTEX
  8
0
 10
5.716061
 20
6.585644
 42
0.104979
  0
VERTEX
  8
0
 10
5.679259
 20
6.591315
 42
0.033026
  0
VERTEX
  8
0
 10
5.641256
 20
6.58664
 42
-0.052064
  0
VERTEX
  8
0
 10
5.594364
 20
6.582035
 42
-0.158898
  0
VERTEX
  8
0
 10
5.550297
 20
6.597408
 42
-0.043002
  0
VERTEX
  8
0
 10
5.466528
 20
6.593596
 42
0.014919
  0
VERTEX
  8
0
 10
5.415546
 20
6.593125
 42
0.049182
  0
VERTEX
  8
0
 10
5.367342
 20
6.586594
 42
-0.200523
  0
SEQEND
  8
0
  0
POLYLINE
  8
0
 66
1
 70
1
  0
VERTEX
  8
0
 10
5.531047
 20
6.566394
 42
0.167847
  0
VERTEX
  8
0
 10
5.567479
 20
6.551283
 42
0.050392
  0
VERTEX
  8
0
 10
5.60881
 20
6.553126
 42
-0.083241
  0
VERTEX
  8
0
 10
5.658759
 20
6.553351
 42
-0.245065
  0
VERTEX
  8
0
 10
5.696811
 20
6.520408
 42
0.041595
  0
VERTEX
  8
0
 10
5.727602
 20
6.516761
 42
0.01327
  0
VERTEX
  8
0
 10
5.759421
 20
6.516473
 42
-0.019906
  0
VERTEX
  8
0
 10
5.799427
 20
6.515751
 42
-0.059587
  0
VERTEX
  8
0
 10
5.839047
 20
6.508644
 42
0.000106
  0
VERTEX
  8
0
 10
5.843507
 20
6.50657
 42
-0.043136
  0
VERTEX
  8
0
 10
5.933885
 20
6.458023
 42
-0.139222
  0
VERTEX
  8
0
 10
6.000533
 20
6.381381
 42
-0.191225
  0
VERTEX
  8
0
 10
5.991293
 20
6.380478
 42
-0.141897
  0
VERTEX
  8
0
 10
5.984358
 20
6.385391
 42
-0.107367
  0
VERTEX
  8
0
 10
5.977006
 20
6.400631
 42
0.169906
  0
VERTEX
  8
0
 10
5.696811
 20
6.508644
 42
0.216781
  0
VERTEX
  8
0
 10
5.667592
 20
6.536063
 42
0.067603
  0
VERTEX
  8
0
 10
5.627997
 20
6.542811
 42
-0.000021
  0
VERTEX
  8
0
 10
5.627297
 20
6.542867
 42
-0.168067
  0
VERTEX
  8
0
 10
5.577605
 20
6.536383
 42
-0.052422
  0
VERTEX
  8
0
 10
5.5296
 20
6.551957
 42
0.008553
  0
VERTEX
  8
0
 10
5.511797
 20
6.558908
 42
-0.030502
  0
VERTEX
  8
0
 10
5.407526
 20
6.555165
 42
0.030502
  0
VERTEX
  8
0
 10
5.303256
 20
6.551422
 42
-0.060461
  0
VERTEX
  8
0
 10
5.367526
 20
6.561943
 42
-0.017664
  0
VERTEX
  8
0
 10
5.436563
 20
6.562718
 42
0.040154
  0
SEQEND
  8
0
  0
POLYLINE
  8
0
 66
1
 70
1
  0
VERTEX
  8
0
 10
5.923533
 20
5.627421
 42
-0.179092
  0
VERTEX
  8
0
 10
5.914326
 20
5.634657
 42
-0.095742
  0
VERTEX
  8
0
 10
5.90923
 20
5.647607
 42
-0.151519
  0
VERTEX
  8
0
 10
5.911769
 20
5.676615
  0
VERTEX
  8
0
 10
5.916047
 20
5.676615
  0
VERTEX
  8
0
 10
5.919256
 20
5.916172
 42
0.17661
  0
VERTEX
  8
0
 10
5.900006
 20
5.946117
 42
0.167178
  0
VERTEX
  8
0
 10
5.883332
 20
5.945576
 42
0.061195
  0
VERTEX
  8
0
 10
5.869667
 20
5.937839
 42
-0.049509
  0
VERTEX
  8
0
 10
5.858297
 20
5.931143
 42
-0.195479
  0
VERTEX
  8
0
 10
5.847811
 20
5.941851
 42
-0.060388
  0
VERTEX
  8
0
 10
5.84396
 20
5.95713
 42
0.03539
  0
VERTEX
  8
0
 10
5.841123
 20
5.970025
 42
0.111016
  0
VERTEX
  8
0
 10
5.834769
 20
5.981408
 42
0.053968
  0
VERTEX
  8
0
 10
5.850865
 20
5.980005
 42
0.014742
  0
VERTEX
  8
0
 10
5.868859
 20
5.9808
 42
-0.092847
  0
VERTEX
  8
0
 10
5.913617
 20
5.978314
 42
-0.135063
  0
VERTEX
  8
0
 10
5.931367
 20
5.966799
 42
-0.124205
  0
VERTEX
  8
0
 10
5.942783
 20
5.942908
 42
0.040061
  0
VERTEX
  8
0
 10
5.935745
 20
5.874656
 42
0.011312
  0
VERTEX
  8
0
 10
5.935439
 20
5.799637
 42
-0.014608
  0
VERTEX
  8
0
 10
5.934672
 20
5.710904
 42
-0.049399
  0
SEQEND
  8
0
  0
POLYLINE
  8
0
 66
1
 70
1
  0
VERTEX
  8
0
 10
5.942783
 20
5.511921
  0
VERTEX
  8
0
 10
5.942783
 20
5.492671
 42
0.294417
  0
VERTEX
  8
0
 10
5.926359
 20
5.499399
 42
0.083082
  0
VERTEX
  8
0
 10
5.908701
 20
5.491632
 42
-0.015217
  0
VERTEX
  8
0
 10
5.900582
 20
5.487217
 42
-0.052434
  0
VERTEX
  8
0
 10
5.892521
 20
5.484115
  0
VERTEX
  8
0
 10
5.873269
 20
5.464865
 42
-0.148275
  0
VERTEX
  8
0
 10
5.878216
 20
5.511787
 42
-0.276442
  0
VERTEX
  8
0
 10
5.916047
 20
5.538657
 42
-0.280512
  0
VERTEX
  8
0
 10
5.927318
 20
5.534991
 42
-0.064158
  0
VERTEX
  8
0
 10
5.935237
 20
5.523193
 42
0.014458
  0
VERTEX
  8
0
 10
5.938848
 20
5.517015
 42
0.053267
  0
SEQEND
  8
0
  0
POLYLINE
  8
0
 66
1
 70
1
  0
VERTEX
  8
0
 10
5.800547
 20
5.892643
  0
VERTEX
  8
0
 10
5.784506
 20
5.880881
 42
-0.061803
  0
VERTEX
  8
0
 10
5.769667
 20
5.897323
 42
-0.149434
  0
VERTEX
  8
0
 10
5.762047
 20
5.919381
 42
-0.125184
  0
VERTEX
  8
0
 10
5.762027
 20
5.941952
 42
-0.048985
  0
VERTEX
  8
0
 10
5.769472
 20
5.961268
 42
0.014018
  0
VERTEX
  8
0
 10
5.773834
 20
5.97117
 42
0.042588
  0
VERTEX
  8
0
 10
5.777019
 20
5.981408
 42
-0.134798
  0
VERTEX
  8
0
 10
5.784728
 20
5.982794
 42
-0.165777
  0
VERTEX
  8
0
 10
5.790073
 20
5.980077
 42
-0.080705
  0
VERTEX
  8
0
 10
5.793885
 20
5.974524
 42
-0.020645
  0
VERTEX
  8
0
 10
5.796992
 20
5.967398
 42
0.034291
  0
VERTEX
  8
0
 10
5.801439
 20
5.957693
 42
0.124826
  0
VERTEX
  8
0
 10
5.808033
 20
5.950394
 42
-0.11062
  0
VERTEX
  8
0
 10
5.811573
 20
5.934894
 42
-0.061526
  0
VERTEX
  8
0
 10
5.809755
 20
5.918799
 42
-0.048966
  0
VERTEX
  8
0
 10
5.801449
 20
5.895156
 42
0.01066
  0
VERTEX
  8
0
 10
5.800519
 20
5.893013
 42
0.073534
  0
VERTEX
  8
0
 10
5.800396
 20
5.892591
 42
0.658539
  0
VERTEX
  8
0
 10
5.800435
 20
5.892556
 42
0.096964
  0
SEQEND
  8
0
  0
POLYLINE
  8
0
 66
1
 70
1
  0
VERTEX
  8
0
 10
5.858297
 20
5.634907
  0
VERTEX
  8
0
 10
5.858297
 20
5.627421
  0
VERTEX
  8
0
 10
5.769533
 20
5.630629
 42
-0.029247
  0
VERTEX
  8
0
 10
5.753492
 20
5.689181
 42
-0.079917
  0
VERTEX
  8
0
 10
5.750283
 20
5.742921
 42
-0.000986
  0
VERTEX
  8
0
 10
5.758136
 20
5.732769
 42
0.025787
  0
VERTEX
  8
0
 10
5.802881
 20
5.678764
 42
0.080131
  0
SEQEND
  8
0
  0
POLYLINE
  8
0
 66
1
 70
1
  0
VERTEX
  8
0
 10
4.73675
 20
5.607803
 42
-0.02396
  0
VERTEX
  8
0
 10
4.57914
 20
5.610996
 42
0.000037
  0
VERTEX
  8
0
 10
4.571754
 20
5.611379
 42
0.022965
  0
VERTEX
  8
0
 10
4.72211
 20
5.649419
 42
-0.013766
  0
VERTEX
  8
0
 10
4.842595
 20
5.681412
 42
-0.044886
  0
VERTEX
  8
0
 10
4.961333
 20
5.698707
 42
-0.099635
  0
VERTEX
  8
0
 10
5.049796
 20
5.695865
 42
-0.08827
  0
VERTEX
  8
0
 10
5.017259
 20
5.679226
 42
-0.021354
  0
VERTEX
  8
0
 10
4.960295
 20
5.661585
 42
-0.010278
  0
VERTEX
  8
0
 10
4.821495
 20
5.628212
 42
0.013716
  0
SEQEND
  8
0
  0
POLYLINE
  8
0
 66
1
 70
1
  0
VERTEX
  8
0
 10
4.891518
 20
5.264879
 42
-0.050871
  0
VERTEX
  8
0
 10
4.853731
 20
5.258525
 42
-0.016731
  0
VERTEX
  8
0
 10
4.814826
 20
5.25732
 42
0.040554
  0
VERTEX
  8
0
 10
4.749282
 20
5.253115
 42
0.266995
  0
VERTEX
  8
0
 10
4.710782
 20
5.280921
 42
-0.003047
  0
VERTEX
  8
0
 10
4.696003
 20
5.301715
 42
0.029697
  0
VERTEX
  8
0
 10
4.642527
 20
5.371494
 42
0.104401
  0
VERTEX
  8
0
 10
4.576032
 20
5.423157
 42
-0.133776
  0
VERTEX
  8
0
 10
4.701157
 20
5.376903
 42
-0.054671
  0
VERTEX
  8
0
 10
4.807032
 20
5.284129
 42
0.035451
  0
VERTEX
  8
0
 10
4.820322
 20
5.281685
 42
0.009769
  0
VERTEX
  8
0
 10
4.835319
 20
5.280251
 42
-0.033134
  0
VERTEX
  8
0
 10
4.865314
 20
5.276426
 42
-0.116567
  0
SEQEND
  8
0
  0
POLYLINE
  8
0
 66
1
 70
1
  0
VERTEX
  8
0
 10
4.950639
 20
5.412629
  0
VERTEX
  8
0
 10
5.330292
 20
5.428671
 42
0.1304
  0
VERTEX
  8
0
 10
5.333901
 20
5.438647
 42
0.067686
  0
VERTEX
  8
0
 10
5.3335
 20
5.449124
 42
0.053117
  0
VERTEX
  8
0
 10
5.330292
 20
5.460754
  0
VERTEX
  8
0
 10
5.330292
 20
5.460754
 42
0.031049
  0
VERTEX
  8
0
 10
5.088149
 20
5.4529
 42
-0.009707
  0
VERTEX
  8
0
 10
4.953313
 20
5.444712
  0
VERTEX
  8
0
 10
4.961033
 20
5.464865
 42
0.014194
  0
VERTEX
  8
0
 10
5.210182
 20
5.476119
 42
-0.003997
  0
VERTEX
  8
0
 10
5.346033
 20
5.484115
 42
0.000093
  0
VERTEX
  8
0
 10
5.348297
 20
5.489117
 42
-0.024658
  0
VERTEX
  8
0
 10
5.389284
 20
5.572262
 42
-0.074576
  0
VERTEX
  8
0
 10
5.446561
 20
5.646671
  0
VERTEX
  8
0
 10
5.447931
 20
5.626518
 42
0.063527
  0
VERTEX
  8
0
 10
5.380384
 20
5.518884
 42
0.110725
  0
VERTEX
  8
0
 10
5.353519
 20
5.407115
  0
VERTEX
  8
0
 10
4.949269
 20
5.392143
 42
0.212528
  0
VERTEX
  8
0
 10
4.95138
 20
5.394459
 42
0.085026
  0
VERTEX
  8
0
 10
4.952052
 20
5.39843
 42
0.041267
  0
VERTEX
  8
0
 10
4.951179
 20
5.40791
 42
-0.030211
  0
SEQEND
  8
0
  0
POLYLINE
  8
0
 66
1
 70
1
  0
VERTEX
  8
0
 10
5.168506
 20
5.753615
  0
VERTEX
  8
0
 10
5.184547
 20
5.753615
 42
0.044344
  0
VERTEX
  8
0
 10
5.183679
 20
5.739978
 42
0.013497
  0
VERTEX
  8
0
 10
5.184388
 20
5.725705
 42
-0.053424
  0
VERTEX
  8
0
 10
5.184348
 20
5.698691
 42
-0.187886
  0
VERTEX
  8
0
 10
5.172783
 20
5.676615
  0
VERTEX
  8
0
 10
5.084019
 20
5.676615
 42
-0.120617
  0
VERTEX
  8
0
 10
5.083494
 20
5.690784
 42
-0.192085
  0
VERTEX
  8
0
 10
5.089032
 20
5.698509
 42
-0.099708
  0
VERTEX
  8
0
 10
5.098766
 20
5.701951
 42
-0.024525
  0
VERTEX
  8
0
 10
5.110827
 20
5.703268
 42
0.050368
  0
VERTEX
  8
0
 10
5.128686
 20
5.705831
 42
0.19662
  0
VERTEX
  8
0
 10
5.141769
 20
5.715115
 42
-0.07616
  0
VERTEX
  8
0
 10
5.139631
 20
5.731357
 42
-0.128587
  0
VERTEX
  8
0
 10
5.143106
 20
5.74399
 42
-0.165418
  0
VERTEX
  8
0
 10
5.152598
 20
5.751811
 42
-0.11526
  0
SEQEND
  8
0
  0
POLYLINE
  8
0
 66
1
 70
1
  0
VERTEX
  8
0
 10
4.972796
 20
5.338671
  0
VERTEX
  8
0
 10
5.418756
 20
5.349365
 42
-0.013122
  0
VERTEX
  8
0
 10
5.431493
 20
5.357864
 42
0.046286
  0
VERTEX
  8
0
 10
5.457831
 20
5.377197
 42
0.167678
  0
VERTEX
  8
0
 10
5.473297
 20
5.403907
 42
0.041766
  0
VERTEX
  8
0
 10
5.466346
 20
5.43853
 42
0.106685
  0
VERTEX
  8
0
 10
5.449769
 20
5.469143
 42
-0.12544
  0
VERTEX
  8
0
 10
5.455514
 20
5.472831
 42
-0.138018
  0
VERTEX
  8
0
 10
5.460958
 20
5.472891
 42
-0.074632
  0
VERTEX
  8
0
 10
5.466163
 20
5.470562
 42
-0.021353
  0
VERTEX
  8
0
 10
5.471188
 20
5.467082
 42
0.021488
  0
VERTEX
  8
0
 10
5.476015
 20
5.463738
 42
0.081085
  0
VERTEX
  8
0
 10
5.480783
 20
5.461657
 42
-0.231304
  0
VERTEX
  8
0
 10
5.492904
 20
5.434871
 42
-0.061274
  0
VERTEX
  8
0
 10
5.488268
 20
5.403557
 42
0.020592
  0
VERTEX
  8
0
 10
5.485061
 20
5.387865
 42
-0.07163
  0
VERTEX
  8
0
 10
5.464207
 20
5.352975
 42
-0.160437
  0
VERTEX
  8
0
 10
5.430519
 20
5.330115
  0
VERTEX
  8
0
 10
4.956754
 20
5.326907
  0
SEQEND
  8
0
  0
POLYLINE
  8
0
 66
1
 70
1
  0
VERTEX
  8
0
 10
1.180542
 20
6.539658
 42
0.003329
  0
VERTEX
  8
0
 10
5.257269
 20
6.724672
  0
VERTEX
  8
0
 10
5.226254
 20
6.589922
  0
VERTEX
  8
0
 10
5.226254
 20
6.589922
 42
-0.001465
  0
VERTEX
  8
0
 10
1.130278
 20
6.388867
 42
0.000298
  0
VERTEX
  8
0
 10
1.131086
 20
6.39578
 42
-0.038784
  0
VERTEX
  8
0
 10
1.144279
 20
6.473979
 42
-0.133991
  0
SEQEND
  8
0
  0
POLYLINE
  8
0
 66
1
 70
1
  0
VERTEX
  8
0
 10
0.957028
 20
5.561115
 42
-0.074331
  0
VERTEX
  8
0
 10
0.91892
 20
5.742376
 42
-0.029747
  0
VERTEX
  8
0
 10
0.921935
 20
5.921187
 42
0.004337
  0
VERTEX
  8
0
 10
0.926014
 20
6.003865
 42
-0.040308
  0
VERTEX
  8
0
 10
0.953024
 20
6.093254
 42
0.010289
  0
VERTEX
  8
0
 10
0.968792
 20
6.138617
 42
-0.068581
  0
VERTEX
  8
0
 10
1.126
 20
6.358922
 42
-0.001595
  0
VERTEX
  8
0
 10
5.161019
 20
6.551422
 42
-0.002173
  0
VERTEX
  8
0
 10
5.119091
 20
6.532365
 42
0.05639
  0
VERTEX
  8
0
 10
4.920989
 20
6.4248
 42
0.168284
  0
VERTEX
  8
0
 10
4.79206
 20
6.239144
 42
0.093746
  0
VERTEX
  8
0
 10
4.781766
 20
6.078861
 42
0.198006
  0
VERTEX
  8
0
 10
4.860504
 20
5.938631
 42
0.028183
  0
VERTEX
  8
0
 10
4.881486
 20
5.925471
 42
-0.028863
  0
VERTEX
  8
0
 10
4.903206
 20
5.911812
 42
-0.077533
  0
VERTEX
  8
0
 10
4.922533
 20
5.892643
  0
VERTEX
  8
0
 10
3.629874
 20
5.61315
 42
-0.046181
  0
VERTEX
  8
0
 10
3.332267
 20
5.608171
  0
VERTEX
  8
0
 10
3.991046
 20
5.746131
 42
-0.000049
  0
VERTEX
  8
0
 10
4.028125
 20
5.754097
 42
0.01293
  0
VERTEX
  8
0
 10
4.641268
 20
5.896921
  0
VERTEX
  8
0
 10
4.641268
 20
5.904407
 42
0.041514
  0
VERTEX
  8
0
 10
4.528295
 20
5.892928
 42
0.013627
  0
VERTEX
  8
0
 10
4.416979
 20
5.869073
 42
-0.020026
  0
VERTEX
  8
0
 10
4.287282
 20
5.842379
  0
VERTEX
  8
0
 10
3.902281
 20
5.757893
  0
VERTEX
  8
0
 10
3.201794
 20
5.608171
 42
0.002437
  0
VERTEX
  8
0
 10
0.99125
 20
5.596407
  0
VERTEX
  8
0
 10
0.976278
 20
5.580365
  0
VERTEX
  8
0
 10
0.988042
 20
5.572879
  0
VERTEX
  8
0
 10
1.126
 20
5.569671
 42
-0.092084
  0
VERTEX
  8
0
 10
1.109493
 20
5.562203
 42
-0.042149
  0
VERTEX
  8
0
 10
1.087146
 20
5.55825
 42
-0.041332
  0
VERTEX
  8
0
 10
1.038306
 20
5.557907
  0
SEQEND
  8
0
  0
POLYLINE
  8
0
 66
1
 70
1
  0
VERTEX
  8
0
 10
3.705503
 20
5.442407
  0
VERTEX
  8
0
 10
3.609253
 20
5.442407
 42
-0.0728
  0
VERTEX
  8
0
 10
3.606447
 20
5.498419
 42
-0.150649
  0
VERTEX
  8
0
 10
3.625294
 20
5.550421
 42
-0.038894
  0
VERTEX
  8
0
 10
3.660999
 20
5.553866
 42
-0.011835
  0
VERTEX
  8
0
 10
3.698603
 20
5.553749
 42
0.011756
  0
VERTEX
  8
0
 10
3.736517
 20
5.553629
 42
0.182936
  0
VERTEX
  8
0
 10
3.711446
 20
5.521658
 42
0.083888
  0
VERTEX
  8
0
 10
3.709505
 20
5.486688
 42
-0.02714
  0
VERTEX
  8
0
 10
3.709884
 20
5.464853
 42
-0.075758
  0
SEQEND
  8
0
  0
POLYLINE
  8
0
 66
1
 70
1
  0
VERTEX
  8
0
 10
3.575031
 20
5.495879
  0
VERTEX
  8
0
 10
3.563267
 20
5.484115
  0
VERTEX
  8
0
 10
1.168778
 20
5.484115
 42
-0.021583
  0
VERTEX
  8
0
 10
2.412944
 20
5.51406
 42
-0.002049
  0
VERTEX
  8
0
 10
3.563267
 20
5.511921
  0
SEQEND
  8
0
  0
POLYLINE
  8
0
 66
1
 70
1
  0
VERTEX
  8
0
 10
1.037404
 20
4.711492
 42
0.000077
  0
VERTEX
  8
0
 10
1.036023
 20
4.712766
 42
-0.02752
  0
VERTEX
  8
0
 10
1.007649
 20
4.740998
 42
-0.097086
  0
VERTEX
  8
0
 10
0.98715
 20
4.774271
 42
-0.066796
  0
VERTEX
  8
0
 10
0.990673
 20
4.809592
 42
-0.067741
  0
VERTEX
  8
0
 10
0.999732
 20
4.829673
 42
0.065473
  0
VERTEX
  8
0
 10
1.016331
 20
4.86844
 42
0.150408
  0
VERTEX
  8
0
 10
1.077223
 20
4.778322
 42
0.177806
  0
VERTEX
  8
0
 10
1.165471
 20
4.751994
 42
-0.131178
  0
VERTEX
  8
0
 10
1.14432
 20
4.73285
 42
-0.050566
  0
VERTEX
  8
0
 10
1.106301
 20
4.715035
 42
-0.063094
  0
VERTEX
  8
0
 10
1.065849
 20
4.705574
 42
-0.195967
  0
SEQEND
  8
0
  0
POLYLINE
  8
0
 66
1
 70
1
  0
VERTEX
  8
0
 10
1.120606
 20
4.821042
 42
-0.1808
  0
VERTEX
  8
0
 10
1.080379
 20
4.837354
 42
-0.099999
  0
VERTEX
  8
0
 10
1.047529
 20
4.881839
 42
-0.112306
  0
VERTEX
  8
0
 10
1.01726
 20
5.028619
 42
-0.112306
  0
VERTEX
  8
0
 10
1.047529
 20
5.175401
 42
-0.099999
  0
VERTEX
  8
0
 10
1.080379
 20
5.219886
 42
-0.1808
  0
VERTEX
  8
0
 10
1.120606
 20
5.236199
 42
-0.1808
  0
VERTEX
  8
0
 10
1.160832
 20
5.219886
 42
-0.099999
  0
VERTEX
  8
0
 10
1.193682
 20
5.175401
 42
-0.112306
  0
VERTEX
  8
0
 10
1.223951
 20
5.028619
 42
-0.112306
  0
VERTEX
  8
0
 10
1.193682
 20
4.881839
 42
-0.099999
  0
VERTEX
  8
0
 10
1.160832
 20
4.837354
 42
-0.1808
  0
SEQEND
  8
0
  0
POLYLINE
  8
0
 66
1
 70
1
  0
VERTEX
  8
0
 10
1.303528
 20
4.987892
 42
-0.176532
  0
VERTEX
  8
0
 10
1.289526
 20
5.01597
 42
-0.0438
  0
VERTEX
  8
0
 10
1.287988
 20
5.052972
 42
0.016162
  0
VERTEX
  8
0
 10
1.287794
 20
5.078546
 42
0.05147
  0
VERTEX
  8
0
 10
1.284278
 20
5.103393
 42
0.094924
  0
VERTEX
  8
0
 10
1.233747
 20
5.254185
 42
0.203815
  0
VERTEX
  8
0
 10
1.111028
 20
5.353643
 42
0.156632
  0
VERTEX
  8
0
 10
1.019991
 20
5.320891
 42
0.116555
  0
VERTEX
  8
0
 10
0.957028
 20
5.245629
 42
-0.008622
  0
VERTEX
  8
0
 10
0.95493
 20
5.245679
 42
0.012243
  0
VERTEX
  8
0
 10
0.952312
 20
5.245728
 42
0.03995
  0
VERTEX
  8
0
 10
0.949787
 20
5.245517
 42
-0.027509
  0
VERTEX
  8
0
 10
0.948394
 20
5.24334
 42
-0.071236
  0
VERTEX
  8
0
 10
0.947193
 20
5.242047
 42
-0.210362
  0
VERTEX
  8
0
 10
0.946158
 20
5.241715
 42
-0.205593
  0
VERTEX
  8
0
 10
0.945264
 20
5.242421
 42
-0.139729
  0
VERTEX
  8
0
 10
0.947179
 20
5.244572
 42
-0.097595
  0
VERTEX
  8
0
 10
0.949787
 20
5.245517
 42
0.016252
  0
VERTEX
  8
0
 10
0.955075
 20
5.255988
 42
-0.159024
  0
VERTEX
  8
0
 10
1.053278
 20
5.368615
 42
0.001837
  0
VERTEX
  8
0
 10
1.061134
 20
5.371114
 42
-0.060091
  0
VERTEX
  8
0
 10
1.119584
 20
5.38466
 42
-0.247295
  0
VERTEX
  8
0
 10
1.173056
 20
5.365407
 42
-0.12471
  0
VERTEX
  8
0
 10
1.280001
 20
5.189483
 42
-0.088079
  0
SEQEND
  8
0
  0
POLYLINE
  8
0
 66
1
 70
1
  0
VERTEX
  8
0
 10
1.368764
 20
4.992169
 42
-0.127881
  0
VERTEX
  8
0
 10
1.356475
 20
4.987925
 42
-0.037925
  0
VERTEX
  8
0
 10
1.342716
 20
4.987851
 42
0.031404
  0
VERTEX
  8
0
 10
1.330264
 20
4.987892
 42
0.077372
  0
VERTEX
  8
0
 10
1.296042
 20
5.214615
  0
VERTEX
  8
0
 10
1.404056
 20
5.223171
 42
0.072113
  0
SEQEND
  8
0
  0
POLYLINE
  8
0
 66
1
 70
1
  0
VERTEX
  8
0
 10
1.407264
 20
5.264879
 42
0.089991
  0
VERTEX
  8
0
 10
1.378006
 20
5.269436
 42
0.026601
  0
VERTEX
  8
0
 10
1.346941
 20
5.267177
 42
-0.052914
  0
VERTEX
  8
0
 10
1.307437
 20
5.265569
 42
-0.205507
  0
VERTEX
  8
0
 10
1.276792
 20
5.280921
  0
VERTEX
  8
0
 10
1.265028
 20
5.280921
  0
VERTEX
  8
0
 10
1.214764
 20
5.353643
 42
-0.09878
  0
VERTEX
  8
0
 10
1.256034
 20
5.341278
 42
-0.032229
  0
VERTEX
  8
0
 10
1.293054
 20
5.318337
 42
0.051118
  0
VERTEX
  8
0
 10
1.340047
 20
5.290804
 42
0.146092
  0
VERTEX
  8
0
 10
1.3955
 20
5.284129
 42
0.058705
  0
VERTEX
  8
0
 10
1.398062
 20
5.281228
 42
0.01735
  0
VERTEX
  8
0
 10
1.401201
 20
5.278587
 42
-0.083555
  0
VERTEX
  8
0
 10
1.407008
 20
5.272818
 42
-0.266204
  0
SEQEND
  8
0
  0
POLYLINE
  8
0
 66
1
 70
1
  0
VERTEX
  8
0
 10
1.530115
 20
4.711492
 42
0.000077
  0
VERTEX
  8
0
 10
1.528734
 20
4.712766
 42
-0.02752
  0
VERTEX
  8
0
 10
1.50036
 20
4.740998
 42
-0.097086
  0
VERTEX
  8
0
 10
1.479861
 20
4.774271
 42
-0.066796
  0
VERTEX
  8
0
 10
1.483384
 20
4.809592
 42
-0.067741
  0
VERTEX
  8
0
 10
1.492443
 20
4.829673
 42
0.065473
  0
VERTEX
  8
0
 10
1.509042
 20
4.86844
 42
0.150408
  0
VERTEX
  8
0
 10
1.569934
 20
4.778322
 42
0.177806
  0
VERTEX
  8
0
 10
1.658182
 20
4.751994
 42
-0.131178
  0
VERTEX
  8
0
 10
1.637031
 20
4.73285
 42
-0.050566
  0
VERTEX
  8
0
 10
1.599012
 20
4.715035
 42
-0.063094
  0
VERTEX
  8
0
 10
1.55856
 20
4.705574
 42
-0.195967
  0
SEQEND
  8
0
  0
POLYLINE
  8
0
 66
1
 70
1
  0
VERTEX
  8
0
 10
1.613317
 20
4.821042
 42
-0.1808
  0
VERTEX
  8
0
 10
1.57309
 20
4.837354
 42
-0.099999
  0
VERTEX
  8
0
 10
1.54024
 20
4.881839
 42
-0.112306
  0
VERTEX
  8
0
 10
1.509971
 20
5.028619
 42
-0.112306
  0
VERTEX
  8
0
 10
1.54024
 20
5.175401
 42
-0.099999
  0
VERTEX
  8
0
 10
1.57309
 20
5.219886
 42
-0.1808
  0
VERTEX
  8
0
 10
1.613317
 20
5.236199
 42
-0.1808
  0
VERTEX
  8
0
 10
1.653544
 20
5.219886
 42
-0.099999
  0
VERTEX
  8
0
 10
1.686393
 20
5.175401
 42
-0.112306
  0
VERTEX
  8
0
 10
1.716662
 20
5.028619
 42
-0.112306
  0
VERTEX
  8
0
 10
1.686393
 20
4.881839
 42
-0.099999
  0
VERTEX
  8
0
 10
1.653544
 20
4.837354
 42
-0.1808
  0
SEQEND
  8
0
  0
POLYLINE
  8
0
 66
1
 70
1
  0
VERTEX
  8
0
 10
1.804029
 20
4.976128
  0
VERTEX
  8
0
 10
1.796543
 20
4.976128
 42
0.0741
  0
VERTEX
  8
0
 10
1.763658
 20
5.185071
 42
0.217077
  0
VERTEX
  8
0
 10
1.623293
 20
5.338671
 42
-0.072518
  0
VERTEX
  8
0
 10
1.616293
 20
5.336915
 42
-0.098776
  0
VERTEX
  8
0
 10
1.611051
 20
5.337458
 42
-0.105698
  0
VERTEX
  8
0
 10
1.603299
 20
5.342549
 42
0.058353
  0
VERTEX
  8
0
 10
1.597059
 20
5.347195
 42
0.127252
  0
VERTEX
  8
0
 10
1.588001
 20
5.349365
 42
-0.035945
  0
VERTEX
  8
0
 10
1.529999
 20
5.3401
 42
-0.051943
  0
VERTEX
  8
0
 10
1.514955
 20
5.340408
 42
-0.203823
  0
VERTEX
  8
0
 10
1.508425
 20
5.343349
 42
-0.335472
  0
VERTEX
  8
0
 10
1.509815
 20
5.348427
 42
-0.073987
  0
VERTEX
  8
0
 10
1.518529
 20
5.355146
 42
-0.047633
  0
VERTEX
  8
0
 10
1.555556
 20
5.371528
 42
-0.10342
  0
VERTEX
  8
0
 10
1.599282
 20
5.375332
 42
-0.035995
  0
VERTEX
  8
0
 10
1.630937
 20
5.370049
 42
-0.160079
  0
VERTEX
  8
0
 10
1.711113
 20
5.315936
 42
-0.056182
  0
VERTEX
  8
0
 10
1.765529
 20
5.230657
 42
-0.040253
  0
VERTEX
  8
0
 10
1.802024
 20
5.103393
 42
-0.093632
  0
SEQEND
  8
0
  0
POLYLINE
  8
0
 66
1
 70
1
  0
VERTEX
  8
0
 10
1.719542
 20
5.334393
 42
-0.138949
  0
VERTEX
  8
0
 10
1.873543
 20
5.245629
 42
-0.018774
  0
VERTEX
  8
0
 10
1.811515
 20
5.233865
 42
-0.215651
  0
VERTEX
  8
0
 10
1.774494
 20
5.251527
 42
-0.059796
  0
VERTEX
  8
0
 10
1.749939
 20
5.289675
 42
0.018602
  0
VERTEX
  8
0
 10
1.736157
 20
5.31372
 42
0.061538
  0
SEQEND
  8
0
  0
POLYLINE
  8
0
 66
1
 70
1
  0
VERTEX
  8
0
 10
1.869265
 20
5.141893
  0
VERTEX
  8
0
 10
1.857501
 20
4.983614
 42
-0.193849
  0
VERTEX
  8
0
 10
1.850967
 20
4.980169
 42
-0.055641
  0
VERTEX
  8
0
 10
1.843007
 20
4.980287
 42
0.013251
  0
VERTEX
  8
0
 10
1.838936
 20
4.980569
 42
0.043617
  0
VERTEX
  8
0
 10
1.835043
 20
4.980406
 42
0.062509
  0
VERTEX
  8
0
 10
1.828359
 20
5.086148
 42
0.024301
  0
VERTEX
  8
0
 10
1.804029
 20
5.187879
 42
-0.041982
  0
VERTEX
  8
0
 10
1.815228
 20
5.18858
 42
-0.010829
  0
VERTEX
  8
0
 10
1.828189
 20
5.188104
 42
0.03522
  0
VERTEX
  8
0
 10
1.854132
 20
5.188005
 42
0.133688
  0
VERTEX
  8
0
 10
1.876751
 20
5.195365
 42
-0.234201
  0
VERTEX
  8
0
 10
1.881405
 20
5.180574
 42
-0.075311
  0
VERTEX
  8
0
 10
1.875761
 20
5.165535
 42
0.034209
  0
VERTEX
  8
0
 10
1.870825
 20
5.154129
 42
0.10698
  0
SEQEND
  8
0
  0
POLYLINE
  8
0
 66
1
 70
1
  0
VERTEX
  8
0
 10
1.115306
 20
5.407115
 42
-0.058901
  0
VERTEX
  8
0
 10
1.051123
 20
5.405437
 42
-0.152106
  0
VERTEX
  8
0
 10
1.040139
 20
5.409327
 42
-0.517925
  0
VERTEX
  8
0
 10
1.042748
 20
5.41474
 42
-0.090632
  0
VERTEX
  8
0
 10
1.08731
 20
5.425245
 42
-0.038804
  0
VERTEX
  8
0
 10
1.18194
 20
5.427176
  0
VERTEX
  8
0
 10
3.714246
 20
5.427176
  0
VERTEX
  8
0
 10
3.714058
 20
5.403907
 42
-0.000261
  0
SEQEND
  8
0
  0
POLYLINE
  8
0
 66
1
  0
VERTEX
  8
0
 10
2.385351
 20
5.260907
 42
-0.018774
  0
VERTEX
  8
0
 10
2.323324
 20
5.249143
 42
-0.215653
  0
VERTEX
  8
0
 10
2.286303
 20
5.266806
 42
-0.059796
  0
VERTEX
  8
0
 10
2.261747
 20
5.304953
 42
0.018602
  0
VERTEX
  8
0
 10
2.247966
 20
5.328999
 42
0.061541
  0
VERTEX
  8
0
 10
2.231351
 20
5.349671
 42
-0.138947
  0
VERTEX
  8
0
 10
2.385351
 20
5.260907
  0
SEQEND
  8
0
  0
POLYLINE
  8
0
 66
1
 70
1
  0
VERTEX
  8
0
 10
2.037528
 20
4.673389
 42
0.000078
  0
VERTEX
  8
0
 10
2.036042
 20
4.674695
 42
-0.027479
  0
VERTEX
  8
0
 10
2.005845
 20
4.703329
 42
-0.099133
  0
VERTEX
  8
0
 10
1.984031
 20
4.737074
 42
-0.070008
  0
VERTEX
  8
0
 10
1.987781
 20
4.772902
 42
-0.069881
  0
VERTEX
  8
0
 10
1.997424
 20
4.793272
 42
0.067581
  0
VERTEX
  8
0
 10
2.015093
 20
4.832597
 42
0.152828
  0
VERTEX
  8
0
 10
2.079915
 20
4.741181
 42
0.170727
  0
VERTEX
  8
0
 10
2.173858
 20
4.714475
 42
-0.130677
  0
VERTEX
  8
0
 10
2.151343
 20
4.695056
 42
-0.049
  0
VERTEX
  8
0
 10
2.11087
 20
4.676985
 42
-0.060402
  0
VERTEX
  8
0
 10
2.067808
 20
4.667387
 42
-0.187633
  0
SEQEND
  8
0
  0
POLYLINE
  8
0
 66
1
 70
1
  0
VERTEX
  8
0
 10
2.126099
 20
4.784515
 42
-0.174482
  0
VERTEX
  8
0
 10
2.083276
 20
4.801062
 42
-0.10126
  0
VERTEX
  8
0
 10
2.048306
 20
4.846188
 42
-0.117332
  0
VERTEX
  8
0
 10
2.016083
 20
4.995081
 42
-0.117332
  0
VERTEX
  8
0
 10
2.048306
 20
5.143973
 42
-0.10126
  0
VERTEX
  8
0
 10
2.083276
 20
5.189099
 42
-0.174482
  0
VERTEX
  8
0
 10
2.126099
 20
5.205646
 42
-0.174484
  0
VERTEX
  8
0
 10
2.168921
 20
5.189099
 42
-0.101261
  0
VERTEX
  8
0
 10
2.20389
 20
5.143973
 42
-0.11733
  0
VERTEX
  8
0
 10
2.236112
 20
4.995081
 42
-0.11733
  0
VERTEX
  8
0
 10
2.20389
 20
4.846188
 42
-0.101261
  0
VERTEX
  8
0
 10
2.168921
 20
4.801062
 42
-0.174484
  0
SEQEND
  8
0
  0
POLYLINE
  8
0
 66
1
 70
1
  0
VERTEX
  8
0
 10
2.319501
 20
4.980406
  0
VERTEX
  8
0
 10
2.308807
 20
4.980406
 42
0.077398
  0
VERTEX
  8
0
 10
2.268435
 20
5.200846
 42
0.208478
  0
VERTEX
  8
0
 10
2.123793
 20
5.357921
 42
0.147208
  0
VERTEX
  8
0
 10
2.061632
 20
5.357252
 42
0.080216
  0
VERTEX
  8
0
 10
2.008293
 20
5.330115
 42
-0.109544
  0
VERTEX
  8
0
 10
1.986219
 20
5.315511
 42
-0.670395
  0
VERTEX
  8
0
 10
1.984249
 20
5.317746
 42
-0.097992
  0
VERTEX
  8
0
 10
1.988107
 20
5.324768
 42
-0.104802
  0
VERTEX
  8
0
 10
2.058557
 20
5.377171
 42
-0.118503
  0
VERTEX
  8
0
 10
2.128597
 20
5.376904
 42
-0.148536
  0
VERTEX
  8
0
 10
2.208279
 20
5.338671
 42
-0.112029
  0
VERTEX
  8
0
 10
2.297177
 20
5.16756
 42
-0.071623
  0
SEQEND
  8
0
  0
POLYLINE
  8
0
 66
1
 70
1
  0
VERTEX
  8
0
 10
2.343029
 20
4.976128
 42
-0.005618
  0
VERTEX
  8
0
 10
2.338181
 20
5.02619
 42
0.017873
  0
VERTEX
  8
0
 10
2.326523
 20
5.128486
 42
0.059074
  0
VERTEX
  8
0
 10
2.300251
 20
5.226379
  0
VERTEX
  8
0
 10
2.374043
 20
5.230657
 42
0.03702
  0
VERTEX
  8
0
 10
2.369765
 20
5.186409
 42
0.045524
  0
VERTEX
  8
0
 10
2.371637
 20
5.152904
 42
0.127201
  0
VERTEX
  8
0
 10
2.381529
 20
5.126919
 42
-0.282496
  0
VERTEX
  8
0
 10
2.389277
 20
5.124959
 42
-0.061232
  0
VERTEX
  8
0
 10
2.400395
 20
5.114037
 42
-0.043629
  0
VERTEX
  8
0
 10
2.427382
 20
5.073582
 42
-0.036796
  0
VERTEX
  8
0
 10
2.451762
 20
5.022098
 42
-0.079808
  0
VERTEX
  8
0
 10
2.462807
 20
4.976128
  0
SEQEND
  8
0
  0
POLYLINE
  8
0
 66
1
 70
1
  0
VERTEX
  8
0
 10
3.75256
 20
5.149378
 42
0.17578
  0
VERTEX
  8
0
 10
3.748348
 20
5.14216
 42
0.074796
  0
VERTEX
  8
0
 10
3.747747
 20
5.131733
 42
0.071875
  0
VERTEX
  8
0
 10
3.75256
 20
5.110878
  0
VERTEX
  8
0
 10
3.748282
 20
4.887365
  0
VERTEX
  8
0
 10
3.213558
 20
4.895921
  0
VERTEX
  8
0
 10
2.393294
 20
4.895921
 42
-0.119908
  0
VERTEX
  8
0
 10
2.389512
 20
4.907831
 42
-0.031009
  0
VERTEX
  8
0
 10
2.389193
 20
4.92196
 42
0.024613
  0
VERTEX
  8
0
 10
2.389017
 20
4.934419
  0
VERTEX
  8
0
 10
3.694808
 20
4.934419
  0
VERTEX
  8
0
 10
3.702294
 20
4.945114
  0
VERTEX
  8
0
 10
3.705503
 20
5.122642
 42
-0.002923
  0
VERTEX
  8
0
 10
3.704365
 20
5.125356
 42
0.036128
  0
VERTEX
  8
0
 10
3.699194
 20
5.136259
 42
0.099378
  0
VERTEX
  8
0
 10
3.690531
 20
5.146171
  0
VERTEX
  8
0
 10
2.966517
 20
5.146171
  0
VERTEX
  8
0
 10
2.396503
 20
5.153656
  0
VERTEX
  8
0
 10
2.400779
 20
5.184671
  0
VERTEX
  8
0
 10
3.694808
 20
5.176115
  0
VERTEX
  8
0
 10
3.705503
 20
5.195365
  0
VERTEX
  8
0
 10
3.705503
 20
5.377171
  0
VERTEX
  8
0
 10
3.75256
 20
5.377171
  0
SEQEND
  8
0
  0
POLYLINE
  8
0
 66
1
 70
1
  0
VERTEX
  8
0
 10
3.821003
 20
5.126919
  0
VERTEX
  8
0
 10
3.875544
 20
5.134407
 42
-0.04648
  0
VERTEX
  8
0
 10
3.851482
 20
5.065695
 42
-0.012515
  0
VERTEX
  8
0
 10
3.817794
 20
4.995379
  0
VERTEX
  8
0
 10
3.817794
 20
4.995379
 42
0.045543
  0
VERTEX
  8
0
 10
3.819405
 20
5.060192
 42
-0.044235
  0
SEQEND
  8
0
  0
POLYLINE
  8
0
 66
1
 70
1
  0
VERTEX
  8
0
 10
4.006017
 20
5.022115
  0
VERTEX
  8
0
 10
3.952546
 20
4.968643
  0
VERTEX
  8
0
 10
3.852018
 20
4.968643
 42
-0.054908
  0
VERTEX
  8
0
 10
3.877196
 20
5.039088
 42
-0.018596
  0
VERTEX
  8
0
 10
3.912475
 20
5.104945
 42
0.003596
  0
VERTEX
  8
0
 10
3.929018
 20
5.134407
  0
VERTEX
  8
0
 10
4.006017
 20
5.137615
 42
-0.083337
  0
SEQEND
  8
0
  0
POLYLINE
  8
0
 66
1
 70
1
  0
VERTEX
  8
0
 10
3.966749
 20
5.618497
  0
VERTEX
  8
0
 10
3.858249
 20
5.618497
 42
0.009488
  0
VERTEX
  8
0
 10
4.479289
 20
5.761264
 42
-0.001669
  0
VERTEX
  8
0
 10
4.903282
 20
5.861629
 42
0.110731
  0
VERTEX
  8
0
 10
4.925134
 20
5.857497
 42
0.030484
  0
VERTEX
  8
0
 10
4.949776
 20
5.859618
 42
-0.073771
  0
VERTEX
  8
0
 10
4.990097
 20
5.86077
 42
-0.209577
  0
VERTEX
  8
0
 10
5.0255
 20
5.837735
 42
0.000756
  0
VERTEX
  8
0
 10
3.966749
 20
5.618497
 42
-0.000061
  0
SEQEND
  8
0
  0
POLYLINE
  8
0
 66
1
  0
VERTEX
  8
0
 10
4.159249
 20
5.618497
 42
-0.005298
  0
VERTEX
  8
0
 10
5.095014
 20
5.80565
  0
VERTEX
  8
0
 10
5.141769
 20
5.788908
 42
0.000311
  0
VERTEX
  8
0
 10
5.115352
 20
5.783705
 42
-0.009293
  0
VERTEX
  8
0
 10
4.976006
 20
5.757893
 42
-0.029142
  0
VERTEX
  8
0
 10
4.935232
 20
5.748402
 42
-0.071884
  0
VERTEX
  8
0
 10
4.884032
 20
5.746131
 42
-0.005328
  0
VERTEX
  8
0
 10
4.256268
 20
5.618865
 42
0.008135
  0
VERTEX
  8
0
 10
4.159249
 20
5.618497
  0
SEQEND
  8
0
  0
POLYLINE
  8
0
 66
1
 70
1
  0
VERTEX
  8
0
 10
4.437915
 20
4.579364
 42
0.000075
  0
VERTEX
  8
0
 10
4.436075
 20
4.580724
 42
-0.026816
  0
VERTEX
  8
0
 10
4.398647
 20
4.610536
 42
-0.105226
  0
VERTEX
  8
0
 10
4.371608
 20
4.645669
 42
0.072395
  0
VERTEX
  8
0
 10
4.394106
 20
4.695532
 42
0.042529
  0
VERTEX
  8
0
 10
4.398522
 20
4.717135
 42
0.094053
  0
VERTEX
  8
0
 10
4.397931
 20
4.732035
 42
0.190073
  0
VERTEX
  8
0
 10
4.484362
 20
4.643401
 42
0.116951
  0
VERTEX
  8
0
 10
4.606888
 20
4.622142
 42
-0.12655
  0
VERTEX
  8
0
 10
4.578982
 20
4.601923
 42
-0.043302
  0
VERTEX
  8
0
 10
4.528818
 20
4.583107
 42
-0.051441
  0
VERTEX
  8
0
 10
4.475446
 20
4.573115
 42
-0.159871
  0
SEQEND
  8
0
  0
POLYLINE
  8
0
 66
1
 70
1
  0
VERTEX
  8
0
 10
4.493451
 20
4.730857
 42
-0.152281
  0
VERTEX
  8
0
 10
4.440375
 20
4.748086
 42
-0.104039
  0
VERTEX
  8
0
 10
4.397033
 20
4.79507
 42
-0.136919
  0
VERTEX
  8
0
 10
4.357096
 20
4.950094
 42
-0.13692
  0
VERTEX
  8
0
 10
4.397033
 20
5.105118
 42
-0.10404
  0
VERTEX
  8
0
 10
4.440375
 20
5.152102
 42
-0.15228
  0
VERTEX
  8
0
 10
4.493451
 20
5.169331
 42
-0.152282
  0
VERTEX
  8
0
 10
4.546526
 20
5.152102
 42
-0.104038
  0
VERTEX
  8
0
 10
4.589867
 20
5.105118
 42
-0.136919
  0
VERTEX
  8
0
 10
4.629804
 20
4.950094
 42
-0.136918
  0
VERTEX
  8
0
 10
4.589867
 20
4.79507
 42
-0.104038
  0
VERTEX
  8
0
 10
4.546526
 20
4.748086
 42
-0.152284
  0
SEQEND
  8
0
  0
POLYLINE
  8
0
 66
1
 70
1
  0
VERTEX
  8
0
 10
4.761046
 20
4.972921
 42
0.09062
  0
VERTEX
  8
0
 10
4.687923
 20
5.212343
 42
0.184944
  0
VERTEX
  8
0
 10
4.506518
 20
5.377171
 42
0.200912
  0
VERTEX
  8
0
 10
4.403918
 20
5.352285
 42
0.108909
  0
VERTEX
  8
0
 10
4.329181
 20
5.259121
 42
0.07235
  0
VERTEX
  8
0
 10
4.282284
 20
5.135446
 42
0.043824
  0
VERTEX
  8
0
 10
4.268068
 20
5.014675
  0
VERTEX
  8
0
 10
4.241296
 20
5.033879
 42
-0.085256
  0
VERTEX
  8
0
 10
4.301987
 20
5.269825
 42
-0.232715
  0
VERTEX
  8
0
 10
4.479782
 20
5.423157
 42
-0.208417
  0
VERTEX
  8
0
 10
4.619344
 20
5.364337
 42
-0.075156
  0
VERTEX
  8
0
 10
4.710782
 20
5.238143
 42
-0.104385
  0
VERTEX
  8
0
 10
4.77281
 20
4.972921
  0
SEQEND
  8
0
  0
POLYLINE
  8
0
 66
1
 70
1
  0
VERTEX
  8
0
 10
4.799546
 20
4.968643
 42
0.064119
  0
VERTEX
  8
0
 10
4.788807
 20
5.061186
 42
0.020866
  0
VERTEX
  8
0
 10
4.76236
 20
5.151421
 42
-0.008159
  0
VERTEX
  8
0
 10
4.745004
 20
5.207129
 42
0.012556
  0
VERTEX
  8
0
 10
4.81799
 20
5.210935
 42
-0.011831
  0
VERTEX
  8
0
 10
4.901016
 20
5.215266
 42
-0.040858
  0
VERTEX
  8
0
 10
4.980283
 20
5.211407
 42
0.10083
  0
VERTEX
  8
0
 10
4.924671
 20
5.100987
 42
0.066168
  0
VERTEX
  8
0
 10
4.90756
 20
4.972921
  0
SEQEND
  8
0
  0
POLYLINE
  8
0
 66
1
 70
1
  0
VERTEX
  8
0
 10
4.987769
 20
5.038157
 42
-0.012946
  0
VERTEX
  8
0
 10
4.978174
 20
5.039802
 42
0.054959
  0
VERTEX
  8
0
 10
4.9545
 20
5.042489
 42
0.216166
  0
VERTEX
  8
0
 10
4.934296
 20
5.033879
 42
-0.086319
  0
VERTEX
  8
0
 10
4.964374
 20
5.14109
 42
-0.225996
  0
VERTEX
  8
0
 10
5.049796
 20
5.214615
  0
VERTEX
  8
0
 10
5.061561
 20
5.214615
 42
0.164558
  0
SEQEND
  8
0
  0
POLYLINE
  8
0
 66
1
 70
1
  0
VERTEX
  8
0
 10
5.284006
 20
5.030671
 42
0.010143
  0
VERTEX
  8
0
 10
5.206015
 20
5.028551
 42
-0.039997
  0
VERTEX
  8
0
 10
5.045518
 20
5.030671
 42
-0.078861
  0
VERTEX
  8
0
 10
5.068511
 20
5.12692
 42
-0.15
  0
VERTEX
  8
0
 10
5.130004
 20
5.203921
 42
-0.203044
  0
VERTEX
  8
0
 10
5.135434
 20
5.202048
 42
-0.048791
  0
VERTEX
  8
0
 10
5.140048
 20
5.197232
 42
0.024331
  0
VERTEX
  8
0
 10
5.143092
 20
5.193845
 42
0.102582
  0
VERTEX
  8
0
 10
5.146223
 20
5.191679
 42
0.207687
  0
VERTEX
  8
0
 10
5.149637
 20
5.191823
 42
0.122531
  0
VERTEX
  8
0
 10
5.153533
 20
5.195365
 42
-0.224805
  0
VERTEX
  8
0
 10
5.173479
 20
5.224963
 42
-0.06671
  0
VERTEX
  8
0
 10
5.207165
 20
5.238698
 42
0.00876
  0
VERTEX
  8
0
 10
5.218769
 20
5.242421
 42
-0.121872
  0
VERTEX
  8
0
 10
5.263285
 20
5.238544
 42
-0.216783
  0
VERTEX
  8
0
 10
5.292561
 20
5.211407
  0
VERTEX
  8
0
 10
5.350311
 20
5.207129
 42
0.158864
  0
SEQEND
  8
0
  0
POLYLINE
  8
0
 66
1
 70
1
  0
VERTEX
  8
0
 10
5.377047
 20
5.026393
 42
-0.193506
  0
VERTEX
  8
0
 10
5.364481
 20
5.028265
 42
-0.194868
  0
VERTEX
  8
0
 10
5.353519
 20
5.041365
 42
-0.034853
  0
VERTEX
  8
0
 10
5.366753
 20
5.096976
 42
-0.062255
  0
VERTEX
  8
0
 10
5.388811
 20
5.146171
 42
0.036688
  0
VERTEX
  8
0
 10
5.387939
 20
5.129616
 42
0.009503
  0
VERTEX
  8
0
 10
5.388601
 20
5.110385
 42
-0.03321
  0
VERTEX
  8
0
 10
5.388665
 20
5.067565
 42
-0.108713
  0
SEQEND
  8
0
  0
POLYLINE
  8
0
 66
1
 70
1
  0
VERTEX
  8
0
 10
5.592006
 20
4.941906
  0
VERTEX
  8
0
 10
5.430519
 20
4.941906
 42
0.003406
  0
VERTEX
  8
0
 10
5.430698
 20
5.032382
 42
-0.016973
  0
VERTEX
  8
0
 10
5.434797
 20
5.245629
  0
VERTEX
  8
0
 10
5.600561
 20
5.245629
 42
-0.015481
  0
VERTEX
  8
0
 10
5.595274
 20
5.022369
 42
0.002169
  0
SEQEND
  8
0
  0
POLYLINE
  8
0
 66
1
 70
1
  0
VERTEX
  8
0
 10
5.726756
 20
5.272365
 42
0.185617
  0
VERTEX
  8
0
 10
5.718564
 20
5.276614
 42
0.052614
  0
VERTEX
  8
0
 10
5.708662
 20
5.276681
 42
-0.044932
  0
VERTEX
  8
0
 10
5.700019
 20
5.276643
 42
0.280537
  0
VERTEX
  8
0
 10
5.696504
 20
5.307658
 42
0.078166
  0
VERTEX
  8
0
 10
5.670602
 20
5.329827
 42
-0.042588
  0
VERTEX
  8
0
 10
5.649756
 20
5.346157
 42
0.095485
  0
VERTEX
  8
0
 10
5.637489
 20
5.351895
 42
0.030936
  0
VERTEX
  8
0
 10
5.623974
 20
5.354407
 42
-0.051178
  0
VERTEX
  8
0
 10
5.606738
 20
5.358087
 42
-0.14596
  0
VERTEX
  8
0
 10
5.592006
 20
5.368615
  0
VERTEX
  8
0
 10
5.600561
 20
5.415671
 42
0.035247
  0
VERTEX
  8
0
 10
5.701263
 20
5.417178
 42
-0.033474
  0
VERTEX
  8
0
 10
5.812311
 20
5.418879
 42
0.083758
  0
VERTEX
  8
0
 10
5.791711
 20
5.389002
 42
0.027268
  0
VERTEX
  8
0
 10
5.778024
 20
5.354816
 42
-0.015533
  0
VERTEX
  8
0
 10
5.767885
 20
5.328323
 42
-0.047081
  0
VERTEX
  8
0
 10
5.754561
 20
5.303379
 42
-0.194344
  0
VERTEX
  8
0
 10
5.746273
 20
5.280653
 42
-0.207357
  0
SEQEND
  8
0
  0
POLYLINE
  8
0
 66
1
 70
1
  0
VERTEX
  8
0
 10
5.889311
 20
4.579364
 42
0.000075
  0
VERTEX
  8
0
 10
5.887475
 20
4.580721
 42
-0.026816
  0
VERTEX
  8
0
 10
5.850045
 20
4.610534
 42
-0.105225
  0
VERTEX
  8
0
 10
5.823006
 20
4.645669
 42
0.046595
  0
VERTEX
  8
0
 10
5.851593
 20
4.702078
 42
0.03404
  0
VERTEX
  8
0
 10
5.860196
 20
4.728182
 42
0.116468
  0
VERTEX
  8
0
 10
5.861507
 20
4.745128
 42
0.3288
  0
VERTEX
  8
0
 10
6.058285
 20
4.622142
 42
-0.12655
  0
VERTEX
  8
0
 10
6.030379
 20
4.601923
 42
-0.043303
  0
VERTEX
  8
0
 10
5.980215
 20
4.583107
 42
-0.051441
  0
VERTEX
  8
0
 10
5.926843
 20
4.573115
 42
-0.159866
  0
SEQEND
  8
0
  0
POLYLINE
  8
0
 66
1
 70
1
  0
VERTEX
  8
0
 10
6.022758
 20
4.730857
 42
-0.152282
  0
VERTEX
  8
0
 10
5.969683
 20
4.748086
 42
-0.104039
  0
VERTEX
  8
0
 10
5.926341
 20
4.79507
 42
-0.136919
  0
VERTEX
  8
0
 10
5.886404
 20
4.950094
 42
-0.13692
  0
VERTEX
  8
0
 10
5.926341
 20
5.105118
 42
-0.104039
  0
VERTEX
  8
0
 10
5.969683
 20
5.152102
 42
-0.152281
  0
VERTEX
  8
0
 10
6.022758
 20
5.169331
 42
-0.152281
  0
VERTEX
  8
0
 10
6.075834
 20
5.152102
 42
-0.104039
  0
VERTEX
  8
0
 10
6.119176
 20
5.105118
 42
-0.13692
  0
VERTEX
  8
0
 10
6.159112
 20
4.950094
 42
-0.136919
  0
VERTEX
  8
0
 10
6.119176
 20
4.79507
 42
-0.104039
  0
VERTEX
  8
0
 10
6.075834
 20
4.748086
 42
-0.152282
  0
SEQEND
  8
0
  0
POLYLINE
  8
0
 66
1
 70
1
  0
VERTEX
  8
0
 10
6.304256
 20
4.995379
 42
-0.044251
  0
VERTEX
  8
0
 10
6.277966
 20
5.054537
 42
-0.012679
  0
VERTEX
  8
0
 10
6.256682
 20
5.121348
 42
0.077738
  0
VERTEX
  8
0
 10
6.193692
 20
5.274287
 42
0.271719
  0
VERTEX
  8
0
 10
6.054007
 20
5.341879
  0
VERTEX
  8
0
 10
5.846533
 20
5.341879
 42
0.045871
  0
VERTEX
  8
0
 10
5.820238
 20
5.315653
 42
0.013864
  0
VERTEX
  8
0
 10
5.798136
 20
5.287993
 42
-0.026239
  0
VERTEX
  8
0
 10
5.784358
 20
5.271006
 42
-0.22783
  0
VERTEX
  8
0
 10
5.781044
 20
5.268996
 42
-0.276519
  0
VERTEX
  8
0
 10
5.780623
 20
5.272946
 42
-0.035317
  0
VERTEX
  8
0
 10
5.789991
 20
5.303634
 42
-0.005423
  0
VERTEX
  8
0
 10
5.815519
 20
5.372893
 42
-0.140438
  0
VERTEX
  8
0
 10
5.82857
 20
5.393633
 42
-0.041519
  0
VERTEX
  8
0
 10
5.848909
 20
5.409136
 42
0.009002
  0
VERTEX
  8
0
 10
5.858297
 20
5.415671
  0
VERTEX
  8
0
 10
6.139561
 20
5.407115
 42
-0.203537
  0
VERTEX
  8
0
 10
6.258172
 20
5.303137
 42
-0.060889
  0
VERTEX
  8
0
 10
6.308943
 20
5.147323
 42
0.01926
  0
VERTEX
  8
0
 10
6.332062
 20
5.060615
 42
-0.032112
  0
VERTEX
  8
0
 10
6.338205
 20
5.014079
 42
0.002571
  0
VERTEX
  8
0
 10
6.339547
 20
4.999657
 42
-0.139036
  0
VERTEX
  8
0
 10
6.328358
 20
4.99541
 42
-0.041251
  0
VERTEX
  8
0
 10
6.315699
 20
4.995337
 42
0.034111
  0
SEQEND
  8
0
  0
POLYLINE
  8
0
 66
1
 70
1
  0
VERTEX
  8
0
 10
6.366285
 20
5.002865
 42
-0.005693
  0
VERTEX
  8
0
 10
6.355597
 20
5.053882
 42
0.04999
  0
VERTEX
  8
0
 10
6.312811
 20
5.211407
 42
-0.059149
  0
VERTEX
  8
0
 10
6.397031
 20
5.219428
 42
-0.022936
  0
VERTEX
  8
0
 10
6.489271
 20
5.214615
  0
VERTEX
  8
0
 10
6.501035
 20
5.203921
  0
VERTEX
  8
0
 10
6.496757
 20
5.064893
  0
VERTEX
  8
0
 10
6.370562
 20
5.060615
  0
SEQEND
  8
0
  0
POLYLINE
  8
0
 66
1
  0
VERTEX
  8
0
 10
6.458557
 20
4.805719
 42
-0.259238
  0
VERTEX
  8
0
 10
6.39439
 20
4.869886
  0
VERTEX
  8
0
 10
6.378349
 20
4.998219
  0
VERTEX
  8
0
 10
6.495987
 20
4.998219
  0
VERTEX
  8
0
 10
6.517376
 20
4.880579
  0
VERTEX
  8
0
 10
6.517376
 20
4.880579
 42
0.064449
  0
VERTEX
  8
0
 10
6.526734
 20
4.858522
 42
0.081109
  0
VERTEX
  8
0
 10
6.539935
 20
4.84223
 42
0.139522
  0
VERTEX
  8
0
 10
6.560154
 20
4.832456
  0
VERTEX
  8
0
 10
7.372933
 20
4.827108
  0
VERTEX
  8
0
 10
7.410364
 20
4.795025
  0
VERTEX
  8
0
 10
6.458557
 20
4.805719
  0
SEQEND
  8
0
  0
POLYLINE
  8
0
 66
1
 70
1
  0
VERTEX
  8
0
 10
6.820799
 20
4.934419
  0
VERTEX
  8
0
 10
6.920257
 20
4.934419
 42
-0.058492
  0
VERTEX
  8
0
 10
6.918188
 20
4.907546
 42
0.083883
  0
VERTEX
  8
0
 10
6.917049
 20
4.876671
  0
VERTEX
  8
0
 10
6.816521
 20
4.876671
 42
0.055391
  0
VERTEX
  8
0
 10
6.81722
 20
4.885011
 42
0.016486
  0
VERTEX
  8
0
 10
6.816721
 20
4.893857
 42
-0.058018
  0
VERTEX
  8
0
 10
6.816669
 20
4.909758
 42
-0.200164
  0
VERTEX
  8
0
 10
6.824007
 20
4.922657
 42
-0.238085
  0
VERTEX
  8
0
 10
6.820977
 20
4.926706
 42
-0.063685
  0
VERTEX
  8
0
 10
6.82074
 20
4.932242
 42
0.00973
  0
SEQEND
  8
0
  0
POLYLINE
  8
0
 66
1
 70
1
  0
VERTEX
  8
0
 10
7.124521
 20
4.930143
  0
VERTEX
  8
0
 10
7.367285
 20
4.930143
  0
VERTEX
  8
0
 10
7.367285
 20
4.879879
  0
VERTEX
  8
0
 10
7.1288
 20
4.879879
 42
-0.026322
  0
VERTEX
  8
0
 10
7.128839
 20
4.894708
 42
0.030812
  0
VERTEX
  8
0
 10
7.128768
 20
4.911558
 42
0.0734
  0
SEQEND
  8
0
  0
POLYLINE
  8
0
 66
1
 70
1
  0
VERTEX
  8
0
 10
7.651758
 20
4.879879
  0
VERTEX
  8
0
 10
7.57155
 20
4.876671
 42
0.068725
  0
VERTEX
  8
0
 10
7.575384
 20
4.899825
 42
0.020172
  0
VERTEX
  8
0
 10
7.575161
 20
4.924895
 42
-0.00881
  0
VERTEX
  8
0
 10
7.574758
 20
4.941906
  0
VERTEX
  8
0
 10
7.64855
 20
4.941906
 42
-0.055317
  0
VERTEX
  8
0
 10
7.652384
 20
4.917324
 42
-0.02275
  0
VERTEX
  8
0
 10
7.652161
 20
4.894884
 42
0.010252
  0
SEQEND
  8
0
  0
POLYLINE
  8
0
 66
1
 70
1
  0
VERTEX
  8
0
 10
7.698814
 20
4.980406
  0
VERTEX
  8
0
 10
6.573757
 20
4.983614
 42
0.110319
  0
VERTEX
  8
0
 10
6.565404
 20
4.988748
 42
0.035803
  0
VERTEX
  8
0
 10
6.55577
 20
4.991273
 42
-0.071288
  0
VERTEX
  8
0
 10
6.5423
 20
4.995486
 42
-0.179117
  0
VERTEX
  8
0
 10
6.532049
 20
5.007143
 42
-0.053281
  0
VERTEX
  8
0
 10
6.532049
 20
5.187879
 42
0.044726
  0
VERTEX
  8
0
 10
6.593308
 20
5.180561
 42
0.014487
  0
VERTEX
  8
0
 10
6.65754
 20
5.180573
 42
-0.01538
  0
VERTEX
  8
0
 10
6.736312
 20
5.180393
  0
VERTEX
  8
0
 10
6.736312
 20
5.099115
  0
VERTEX
  8
0
 10
6.732035
 20
5.099115
 42
-0.073279
  0
VERTEX
  8
0
 10
6.732909
 20
5.090339
 42
-0.014503
  0
VERTEX
  8
0
 10
6.732277
 20
5.078498
 42
0.04955
  0
VERTEX
  8
0
 10
6.73215
 20
5.050083
 42
0.197317
  0
VERTEX
  8
0
 10
6.743799
 20
5.026393
 42
-0.023108
  0
VERTEX
  8
0
 10
6.838166
 20
5.02678
 42
0.01027
  0
VERTEX
  8
0
 10
6.903877
 20
5.025986
 42
0.037865
  0
VERTEX
  8
0
 10
6.963036
 20
5.030671
  0
VERTEX
  8
0
 10
6.978007
 20
5.038157
 42
-0.058366
  0
VERTEX
  8
0
 10
6.977132
 20
5.075281
 42
-0.019503
  0
VERTEX
  8
0
 10
6.982059
 20
5.112103
 42
0.018182
  0
VERTEX
  8
0
 10
6.986929
 20
5.148043
 42
0.053651
  0
VERTEX
  8
0
 10
6.986562
 20
5.184671
 42
-0.013934
  0
VERTEX
  8
0
 10
7.222927
 20
5.188414
 42
0.013589
  0
VERTEX
  8
0
 10
7.463536
 20
5.192157
  0
VERTEX
  8
0
 10
7.467814
 20
5.038157
 42
0.048858
  0
VERTEX
  8
0
 10
7.570614
 20
5.029601
 42
0.01772
  0
VERTEX
  8
0
 10
7.671008
 20
5.033879
  0
VERTEX
  8
0
 10
7.679564
 20
5.199643
  0
VERTEX
  8
0
 10
7.698814
 20
5.195365
  0
VERTEX
  8
0
 10
7.694536
 20
5.064893
 42
-0.206008
  0
VERTEX
  8
0
 10
7.706084
 20
5.037615
 42
-0.06224
  0
VERTEX
  8
0
 10
7.701862
 20
5.007912
 42
0.02025
  0
VERTEX
  8
0
 10
7.698889
 20
4.993081
 42
0.083065
  0
SEQEND
  8
0
  0
POLYLINE
  8
0
 66
1
 70
1
  0
VERTEX
  8
0
 10
6.777064
 20
5.10249
 42
-0.128611
  0
VERTEX
  8
0
 10
6.785937
 20
5.139488
 42
-0.103248
  0
VERTEX
  8
0
 10
6.795567
 20
5.150701
 42
-0.16125
  0
VERTEX
  8
0
 10
6.807358
 20
5.154812
 42
-0.161263
  0
VERTEX
  8
0
 10
6.819148
 20
5.150701
 42
-0.103242
  0
VERTEX
  8
0
 10
6.828777
 20
5.139488
 42
-0.128604
  0
VERTEX
  8
0
 10
6.83765
 20
5.10249
 42
-0.128604
  0
VERTEX
  8
0
 10
6.828777
 20
5.065493
 42
-0.103242
  0
VERTEX
  8
0
 10
6.819148
 20
5.05428
 42
-0.161263
  0
VERTEX
  8
0
 10
6.807358
 20
5.050168
 42
-0.16125
  0
VERTEX
  8
0
 10
6.795567
 20
5.05428
 42
-0.103248
  0
VERTEX
  8
0
 10
6.785937
 20
5.065493
 42
-0.128611
  0
SEQEND
  8
0
  0
POLYLINE
  8
0
 66
1
 70
1
  0
VERTEX
  8
0
 10
6.876201
 20
5.10249
 42
-0.128603
  0
VERTEX
  8
0
 10
6.885074
 20
5.139488
 42
-0.103251
  0
VERTEX
  8
0
 10
6.894703
 20
5.150701
 42
-0.161255
  0
VERTEX
  8
0
 10
6.906494
 20
5.154812
 42
-0.161257
  0
VERTEX
  8
0
 10
6.918285
 20
5.150701
 42
-0.103245
  0
VERTEX
  8
0
 10
6.927914
 20
5.139488
 42
-0.128607
  0
VERTEX
  8
0
 10
6.936787
 20
5.10249
 42
-0.128607
  0
VERTEX
  8
0
 10
6.927914
 20
5.065493
 42
-0.103245
  0
VERTEX
  8
0
 10
6.918285
 20
5.05428
 42
-0.161257
  0
VERTEX
  8
0
 10
6.906494
 20
5.050168
 42
-0.161255
  0
VERTEX
  8
0
 10
6.894703
 20
5.05428
 42
-0.103251
  0
VERTEX
  8
0
 10
6.885074
 20
5.065493
 42
-0.128603
  0
SEQEND
  8
0
  0
POLYLINE
  8
0
 66
1
 70
1
  0
VERTEX
  8
0
 10
7.505592
 20
5.108486
 42
-0.128599
  0
VERTEX
  8
0
 10
7.513948
 20
5.143329
 42
-0.10324
  0
VERTEX
  8
0
 10
7.523015
 20
5.153889
 42
-0.16127
  0
VERTEX
  8
0
 10
7.534118
 20
5.157761
 42
-0.161256
  0
VERTEX
  8
0
 10
7.545223
 20
5.153889
 42
-0.103247
  0
VERTEX
  8
0
 10
7.554291
 20
5.143329
 42
-0.128606
  0
VERTEX
  8
0
 10
7.562647
 20
5.108486
 42
-0.128606
  0
VERTEX
  8
0
 10
7.554291
 20
5.073643
 42
-0.103247
  0
VERTEX
  8
0
 10
7.545223
 20
5.063083
 42
-0.161256
  0
VERTEX
  8
0
 10
7.534118
 20
5.059211
 42
-0.16127
  0
VERTEX
  8
0
 10
7.523015
 20
5.063083
 42
-0.10324
  0
VERTEX
  8
0
 10
7.513948
 20
5.073643
 42
-0.128599
  0
SEQEND
  8
0
  0
POLYLINE
  8
0
 66
1
 70
1
  0
VERTEX
  8
0
 10
7.598954
 20
5.108486
 42
-0.128591
  0
VERTEX
  8
0
 10
7.607309
 20
5.143329
 42
-0.103252
  0
VERTEX
  8
0
 10
7.616376
 20
5.153889
 42
-0.161267
  0
VERTEX
  8
0
 10
7.627481
 20
5.157761
 42
-0.161261
  0
VERTEX
  8
0
 10
7.638585
 20
5.153889
 42
-0.103249
  0
VERTEX
  8
0
 10
7.647653
 20
5.143329
 42
-0.128599
  0
VERTEX
  8
0
 10
7.656008
 20
5.108486
 42
-0.128599
  0
VERTEX
  8
0
 10
7.647653
 20
5.073643
 42
-0.103249
  0
VERTEX
  8
0
 10
7.638585
 20
5.063083
 42
-0.161261
  0
VERTEX
  8
0
 10
7.627481
 20
5.059211
 42
-0.161267
  0
VERTEX
  8
0
 10
7.616376
 20
5.063083
 42
-0.103252
  0
VERTEX
  8
0
 10
7.607309
 20
5.073643
 42
-0.128591
  0
SEQEND
  8
0
  0
POLYLINE
  8
0
 66
1
 70
1
  0
VERTEX
  8
0
 10
7.7448
 20
5.522615
 42
0.105192
  0
VERTEX
  8
0
 10
7.741544
 20
5.525241
 42
0.150297
  0
VERTEX
  8
0
 10
7.738604
 20
5.525675
 42
0.092787
  0
VERTEX
  8
0
 10
7.735839
 20
5.524622
 42
0.025563
  0
VERTEX
  8
0
 10
7.733109
 20
5.522787
 42
-0.037286
  0
VERTEX
  8
0
 10
7.729547
 20
5.520478
 42
-0.120766
  0
VERTEX
  8
0
 10
7.72555
 20
5.519407
  0
VERTEX
  8
0
 10
7.721272
 20
5.334393
 42
-0.182716
  0
VERTEX
  8
0
 10
7.733735
 20
5.300182
 42
-0.074708
  0
VERTEX
  8
0
 10
7.725585
 20
5.266171
 42
0.007009
  0
VERTEX
  8
0
 10
7.721272
 20
5.253115
 42
0.015594
  0
VERTEX
  8
0
 10
7.715268
 20
5.243755
 42
-0.023916
  0
VERTEX
  8
0
 10
7.70817
 20
5.232945
 42
-0.06404
  0
VERTEX
  8
0
 10
7.698814
 20
5.223171
 42
0.002969
  0
VERTEX
  8
0
 10
7.337534
 20
5.218512
 42
-0.010934
  0
VERTEX
  8
0
 10
6.554507
 20
5.214615
  0
VERTEX
  8
0
 10
6.516007
 20
5.233865
 42
0.011574
  0
VERTEX
  8
0
 10
6.514352
 20
5.55204
 42
-0.011893
  0
VERTEX
  8
0
 10
6.512799
 20
5.854143
 42
0.037145
  0
VERTEX
  8
0
 10
6.698026
 20
5.844015
 42
-0.019919
  0
VERTEX
  8
0
 10
6.843257
 20
5.839171
 42
-0.125074
  0
VERTEX
  8
0
 10
6.847529
 20
5.830502
 42
-0.049144
  0
VERTEX
  8
0
 10
6.848315
 20
5.821749
 42
0.114073
  0
VERTEX
  8
0
 10
6.850405
 20
5.809739
 42
0.108948
  0
VERTEX
  8
0
 10
6.854824
 20
5.804455
 42
0.077306
  0
VERTEX
  8
0
 10
6.863296
 20
5.799882
  0
VERTEX
  8
0
 10
6.993056
 20
5.801558
 42
0.066094
  0
VERTEX
  8
0
 10
6.999808
 20
5.817177
 42
0.058829
  0
VERTEX
  8
0
 10
7.000997
 20
5.828849
 42
-0.018827
  0
VERTEX
  8
0
 10
7.001535
 20
5.839171
  0
VERTEX
  8
0
 10
7.509521
 20
5.840889
 42
-0.071302
  0
VERTEX
  8
0
 10
7.512495
 20
5.830047
 42
-0.031544
  0
VERTEX
  8
0
 10
7.512964
 20
5.82051
 42
0.034375
  0
VERTEX
  8
0
 10
7.513405
 20
5.81183
 42
0.09152
  0
VERTEX
  8
0
 10
7.516204
 20
5.80324
 42
-0.000625
  0
VERTEX
  8
0
 10
7.534369
 20
5.802675
 42
0.020629
  0
VERTEX
  8
0
 10
7.637732
 20
5.802083
 42
0.108869
  0
VERTEX
  8
0
 10
7.644272
 20
5.842887
  0
VERTEX
  8
0
 10
7.734526
 20
5.840889
  0
VERTEX
  8
0
 10
7.748008
 20
5.819921
  0
SEQEND
  8
0
  0
POLYLINE
  8
0
 66
1
 70
1
  0
VERTEX
  8
0
 10
3.524767
 20
6.358922
 42
-0.006474
  0
VERTEX
  8
0
 10
4.186762
 20
6.390882
 42
0.004259
  0
VERTEX
  8
0
 10
4.75356
 20
6.416672
 42
-0.11495
  0
VERTEX
  8
0
 10
4.767059
 20
6.420187
 42
-0.02622
  0
VERTEX
  8
0
 10
4.784039
 20
6.420154
 42
0.038759
  0
VERTEX
  8
0
 10
4.80539
 20
6.420466
 42
0.167318
  0
VERTEX
  8
0
 10
4.822006
 20
6.427367
  0
VERTEX
  8
0
 10
4.814518
 20
6.435922
  0
VERTEX
  8
0
 10
3.709781
 20
6.378172
 42
0.000065
  0
VERTEX
  8
0
 10
1.065042
 20
6.258394
 42
0.000011
  0
VERTEX
  8
0
 10
1.065042
 20
6.258394
  0
VERTEX
  8
0
 10
1.057556
 20
6.250908
  0
VERTEX
  8
0
 10
2.335543
 20
6.296894
 42
-0.004781
  0
VERTEX
  8
0
 10
3.076079
 20
6.336629
 42
0.001851
  0
SEQEND
  8
0
  0
POLYLINE
  8
0
 66
1
 70
1
  0
VERTEX
  8
0
 10
6.054769
 20
5.68456
  0
VERTEX
  8
0
 10
6.062257
 20
5.669587
 42
-0.102553
  0
VERTEX
  8
0
 10
6.096728
 20
5.667821
 42
0.050334
  0
VERTEX
  8
0
 10
6.114308
 20
5.665365
 42
0.102355
  0
VERTEX
  8
0
 10
6.134979
 20
5.669587
 42
0.320761
  0
VERTEX
  8
0
 10
6.158411
 20
5.690555
 42
0.066686
  0
VERTEX
  8
0
 10
6.159979
 20
5.70797
 42
0.017469
  0
VERTEX
  8
0
 10
6.158601
 20
5.72788
 42
-0.016418
  0
VERTEX
  8
0
 10
6.157136
 20
5.748819
 42
-0.054091
  0
VERTEX
  8
0
 10
6.158506
 20
5.769047
 42
0.237377
  0
VERTEX
  8
0
 10
6.130853
 20
5.786359
 42
0.056901
  0
VERTEX
  8
0
 10
6.092887
 20
5.78622
 42
-0.021495
  0
VERTEX
  8
0
 10
6.069743
 20
5.785087
 42
0.161577
  0
VERTEX
  8
0
 10
6.054838
 20
5.753435
 42
0.05191
  0
VERTEX
  8
0
 10
6.054693
 20
5.717918
 42
-0.047275
  0
SEQEND
  8
0
  0
POLYLINE
  8
0
 66
1
  0
VERTEX
  8
0
 10
6.307292
 20
6.267361
 42
0.040846
  0
VERTEX
  8
0
 10
6.306244
 20
6.137497
 42
-0.007296
  0
VERTEX
  8
0
 10
6.308533
 20
6.073381
 42
0.064865
  0
VERTEX
  8
0
 10
6.344472
 20
6.063325
 42
0.202995
  0
VERTEX
  8
0
 10
6.412271
 20
6.077658
 42
-0.004157
  0
VERTEX
  8
0
 10
6.41191
 20
6.136983
 42
0.015337
  0
VERTEX
  8
0
 10
6.409062
 20
6.270158
 42
0.274282
  0
VERTEX
  8
0
 10
6.307292
 20
6.267361
  0
SEQEND
  8
0
  0
POLYLINE
  8
0
 66
1
 70
1
  0
VERTEX
  8
0
 10
6.335269
 20
6.092631
  0
VERTEX
  8
0
 10
6.327785
 20
6.100117
  0
VERTEX
  8
0
 10
6.332062
 20
6.239144
  0
VERTEX
  8
0
 10
6.347035
 20
6.250908
 42
-0.051911
  0
VERTEX
  8
0
 10
6.34989
 20
6.220681
 42
-0.018119
  0
VERTEX
  8
0
 10
6.348483
 20
6.191193
 42
0.029248
  0
VERTEX
  8
0
 10
6.347281
 20
6.155073
 42
0.085264
  0
VERTEX
  8
0
 10
6.354521
 20
6.119367
  0
SEQEND
  8
0
  0
POLYLINE
  8
0
 66
1
 70
1
  0
VERTEX
  8
0
 10
6.563063
 20
5.531171
  0
VERTEX
  8
0
 10
6.554507
 20
5.315143
  0
VERTEX
  8
0
 10
6.563063
 20
5.300171
 42
0.05825
  0
VERTEX
  8
0
 10
6.636052
 20
5.296428
 42
0.120486
  0
VERTEX
  8
0
 10
6.701021
 20
5.315143
  0
VERTEX
  8
0
 10
6.701021
 20
5.522615
  0
VERTEX
  8
0
 10
6.689257
 20
5.538657
 42
-0.000003
  0
VERTEX
  8
0
 10
6.688811
 20
5.538711
 42
0.029983
  0
VERTEX
  8
0
 10
6.62386
 20
5.543737
 42
0.04504
  0
VERTEX
  8
0
 10
6.590318
 20
5.541039
 42
0.095751
  0
SEQEND
  8
0
  0
POLYLINE
  8
0
 66
1
 70
1
  0
VERTEX
  8
0
 10
7.641064
 20
5.603893
  0
VERTEX
  8
0
 10
6.805037
 20
5.611886
  0
VERTEX
  8
0
 10
6.790065
 20
5.592637
 42
0.050965
  0
VERTEX
  8
0
 10
6.77754
 20
5.355566
 42
-0.001007
  0
VERTEX
  8
0
 10
6.778021
 20
5.322629
 42
-0.057803
  0
VERTEX
  8
0
 10
6.780947
 20
5.313392
 42
-0.018089
  0
VERTEX
  8
0
 10
6.782511
 20
5.303503
 42
0.057062
  0
VERTEX
  8
0
 10
6.78613
 20
5.286335
 42
0.16607
  0
VERTEX
  8
0
 10
6.797271
 20
5.272365
 42
0.055598
  0
VERTEX
  8
0
 10
7.007883
 20
5.261939
 42
0.004419
  0
VERTEX
  8
0
 10
7.393308
 20
5.268526
 42
-0.002306
  0
VERTEX
  8
0
 10
7.625
 20
5.273149
  0
VERTEX
  8
0
 10
7.655093
 20
5.305556
 42
-0.000036
  0
VERTEX
  8
0
 10
7.65596
 20
5.314651
 42
0.035766
  0
VERTEX
  8
0
 10
7.667799
 20
5.572879
 42
0.176644
  0
VERTEX
  8
0
 10
7.659645
 20
5.593199
 42
0.138321
  0
SEQEND
  8
0
  0
POLYLINE
  8
0
 66
1
 70
1
  0
VERTEX
  8
0
 10
7.636786
 20
5.330115
 42
-0.089463
  0
VERTEX
  8
0
 10
7.623552
 20
5.305785
 42
-0.28541
  0
VERTEX
  8
0
 10
7.598286
 20
5.295893
 42
0.00783
  0
VERTEX
  8
0
 10
7.167151
 20
5.293553
 42
-0.003378
  0
VERTEX
  8
0
 10
6.931368
 20
5.290924
 42
-0.052879
  0
VERTEX
  8
0
 10
6.824007
 20
5.295893
 42
-0.142403
  0
VERTEX
  8
0
 10
6.816735
 20
5.318619
 42
-0.02798
  0
VERTEX
  8
0
 10
6.816333
 20
5.350261
 42
0.010563
  0
VERTEX
  8
0
 10
6.816521
 20
5.372893
 42
0.024432
  0
VERTEX
  8
0
 10
6.81671
 20
5.436946
 42
-0.020359
  0
VERTEX
  8
0
 10
6.816688
 20
5.507173
 42
-0.071242
  0
VERTEX
  8
0
 10
6.828285
 20
5.572879
  0
VERTEX
  8
0
 10
6.862507
 20
5.580365
  0
VERTEX
  8
0
 10
6.862507
 20
5.580365
 42
-0.002514
  0
VERTEX
  8
0
 10
7.244026
 20
5.583147
 42
-0.029301
  0
VERTEX
  8
0
 10
7.641064
 20
5.572879
 42
-0.107097
  0
VERTEX
  8
0
 10
7.64593
 20
5.530294
 42
-0.01277
  0
VERTEX
  8
0
 10
7.643845
 20
5.447361
 42
-0.006412
  0
SEQEND
  8
0
  0
POLYLINE
  8
0
 66
1
 70
1
  0
VERTEX
  8
0
 10
7.611111
 20
5.539351
 42
-0.00004
  0
VERTEX
  8
0
 10
7.571196
 20
5.539818
 42
0.002749
  0
VERTEX
  8
0
 10
7.129025
 20
5.543345
 42
0.037089
  0
VERTEX
  8
0
 10
6.868056
 20
5.534722
 42
0.118881
  0
VERTEX
  8
0
 10
6.857615
 20
5.497288
 42
0.03286
  0
VERTEX
  8
0
 10
6.858181
 20
5.457078
 42
-0.030088
  0
VERTEX
  8
0
 10
6.858796
 20
5.430556
 42
-0.014266
  0
VERTEX
  8
0
 10
6.856333
 20
5.411005
 42
0.036541
  0
VERTEX
  8
0
 10
6.851415
 20
5.35748
 42
0.071107
  0
VERTEX
  8
0
 10
6.854495
 20
5.333847
 42
0.189826
  0
VERTEX
  8
0
 10
6.864946
 20
5.319053
  0
VERTEX
  8
0
 10
7.558021
 20
5.323468
 42
-0.002369
  0
VERTEX
  8
0
 10
7.566732
 20
5.324497
 42
0.02549
  0
VERTEX
  8
0
 10
7.587776
 20
5.327579
 42
0.111442
  0
VERTEX
  8
0
 10
7.602849
 20
5.333975
 42
0.162457
  0
VERTEX
  8
0
 10
7.61157
 20
5.347638
 42
0.080914
  0
VERTEX
  8
0
 10
7.613558
 20
5.372525
 42
-0.029982
  0
VERTEX
  8
0
 10
7.612943
 20
5.426478
 42
0.006432
  0
VERTEX
  8
0
 10
7.613558
 20
5.458081
 42
-0.005099
  0
VERTEX
  8
0
 10
7.616499
 20
5.470399
 42
0.057606
  0
VERTEX
  8
0
 10
7.622704
 20
5.506984
 42
0.191947
  0
SEQEND
  8
0
  0
POLYLINE
  8
0
 66
1
 70
1
  0
VERTEX
  8
0
 10
4.49345
 20
5.127672
 42
0.15228
  0
VERTEX
  8
0
 10
4.45046
 20
5.113717
 42
0.104039
  0
VERTEX
  8
0
 10
4.415353
 20
5.075661
 42
0.136921
  0
VERTEX
  8
0
 10
4.383004
 20
4.950093
 42
0.136922
  0
VERTEX
  8
0
 10
4.415353
 20
4.824526
 42
0.104038
  0
VERTEX
  8
0
 10
4.45046
 20
4.78647
 42
0.152279
  0
VERTEX
  8
0
 10
4.49345
 20
4.772515
 42
0.152279
  0
VERTEX
  8
0
 10
4.536441
 20
4.78647
 42
0.10404
  0
VERTEX
  8
0
 10
4.571547
 20
4.824526
 42
0.136921
  0
VERTEX
  8
0
 10
4.603896
 20
4.950093
 42
0.13692
  0
VERTEX
  8
0
 10
4.571547
 20
5.075661
 42
0.10404
  0
VERTEX
  8
0
 10
4.536441
 20
5.113717
 42
0.152279
  0
SEQEND
  8
0
  0
POLYLINE
  8
0
 66
1
 70
1
  0
VERTEX
  8
0
 10
4.49345
 20
4.806257
 42
-0.152281
  0
VERTEX
  8
0
 10
4.458628
 20
4.81756
 42
-0.10404
  0
VERTEX
  8
0
 10
4.430192
 20
4.848386
 42
-0.136919
  0
VERTEX
  8
0
 10
4.40399
 20
4.950094
 42
-0.13692
  0
VERTEX
  8
0
 10
4.430192
 20
5.051802
 42
-0.10404
  0
VERTEX
  8
0
 10
4.458628
 20
5.082627
 42
-0.15228
  0
VERTEX
  8
0
 10
4.49345
 20
5.093931
 42
-0.15228
  0
VERTEX
  8
0
 10
4.528272
 20
5.082627
 42
-0.10404
  0
VERTEX
  8
0
 10
4.556708
 20
5.051802
 42
-0.13692
  0
VERTEX
  8
0
 10
4.58291
 20
4.950094
 42
-0.136919
  0
VERTEX
  8
0
 10
4.556708
 20
4.848386
 42
-0.10404
  0
VERTEX
  8
0
 10
4.528272
 20
4.81756
 42
-0.152281
  0
SEQEND
  8
0
  0
POLYLINE
  8
0
 66
1
 70
1
  0
VERTEX
  8
0
 10
6.022758
 20
5.127672
 42
0.152279
  0
VERTEX
  8
0
 10
5.979767
 20
5.113717
 42
0.10404
  0
VERTEX
  8
0
 10
5.944661
 20
5.075661
 42
0.13692
  0
VERTEX
  8
0
 10
5.912312
 20
4.950093
 42
0.136921
  0
VERTEX
  8
0
 10
5.944661
 20
4.824526
 42
0.10404
  0
VERTEX
  8
0
 10
5.979767
 20
4.78647
 42
0.152279
  0
VERTEX
  8
0
 10
6.022758
 20
4.772515
 42
0.152281
  0
VERTEX
  8
0
 10
6.065748
 20
4.78647
 42
0.104039
  0
VERTEX
  8
0
 10
6.100855
 20
4.824526
 42
0.13692
  0
VERTEX
  8
0
 10
6.133203
 20
4.950093
 42
0.136919
  0
VERTEX
  8
0
 10
6.100855
 20
5.075661
 42
0.10404
  0
VERTEX
  8
0
 10
6.065748
 20
5.113717
 42
0.152281
  0
SEQEND
  8
0
  0
POLYLINE
  8
0
 66
1
 70
1
  0
VERTEX
  8
0
 10
6.022758
 20
4.806257
 42
-0.152281
  0
VERTEX
  8
0
 10
5.987936
 20
4.81756
 42
-0.10404
  0
VERTEX
  8
0
 10
5.9595
 20
4.848386
 42
-0.136919
  0
VERTEX
  8
0
 10
5.933299
 20
4.950094
 42
-0.13692
  0
VERTEX
  8
0
 10
5.9595
 20
5.051802
 42
-0.10404
  0
VERTEX
  8
0
 10
5.987936
 20
5.082627
 42
-0.15228
  0
VERTEX
  8
0
 10
6.022758
 20
5.093931
 42
-0.152281
  0
VERTEX
  8
0
 10
6.05758
 20
5.082627
 42
-0.104038
  0
VERTEX
  8
0
 10
6.086016
 20
5.051802
 42
-0.136921
  0
VERTEX
  8
0
 10
6.112218
 20
4.950094
 42
-0.13692
  0
VERTEX
  8
0
 10
6.086016
 20
4.848386
 42
-0.104038
  0
VERTEX
  8
0
 10
6.05758
 20
4.81756
 42
-0.152281
  0
SEQEND
  8
0
  0
POLYLINE
  8
0
 66
1
 70
1
  0
VERTEX
  8
0
 10
2.126097
 20
5.165637
 42
0.174487
  0
VERTEX
  8
0
 10
2.091412
 20
5.152234
 42
0.101259
  0
VERTEX
  8
0
 10
2.063087
 20
5.115682
 42
0.117329
  0
VERTEX
  8
0
 10
2.036987
 20
4.995081
 42
0.11733
  0
VERTEX
  8
0
 10
2.063087
 20
4.874479
 42
0.10126
  0
VERTEX
  8
0
 10
2.091412
 20
4.837928
 42
0.174485
  0
VERTEX
  8
0
 10
2.126097
 20
4.824525
 42
0.174483
  0
VERTEX
  8
0
 10
2.160784
 20
4.837928
 42
0.101261
  0
VERTEX
  8
0
 10
2.189109
 20
4.874479
 42
0.117331
  0
VERTEX
  8
0
 10
2.215208
 20
4.995081
 42
0.11733
  0
VERTEX
  8
0
 10
2.189109
 20
5.115682
 42
0.10126
  0
VERTEX
  8
0
 10
2.160784
 20
5.152234
 42
0.174484
  0
SEQEND
  8
0
  0
POLYLINE
  8
0
 66
1
 70
1
  0
VERTEX
  8
0
 10
2.126097
 20
4.856933
 42
-0.174484
  0
VERTEX
  8
0
 10
2.098002
 20
4.86779
 42
-0.10126
  0
VERTEX
  8
0
 10
2.07506
 20
4.897395
 42
-0.117331
  0
VERTEX
  8
0
 10
2.053919
 20
4.995081
 42
-0.11733
  0
VERTEX
  8
0
 10
2.07506
 20
5.092767
 42
-0.10126
  0
VERTEX
  8
0
 10
2.098002
 20
5.122373
 42
-0.174484
  0
VERTEX
  8
0
 10
2.126097
 20
5.133229
 42
-0.174482
  0
VERTEX
  8
0
 10
2.154193
 20
5.122373
 42
-0.101261
  0
VERTEX
  8
0
 10
2.177136
 20
5.092767
 42
-0.117332
  0
VERTEX
  8
0
 10
2.198276
 20
4.995081
 42
-0.117332
  0
VERTEX
  8
0
 10
2.177136
 20
4.897395
 42
-0.101261
  0
VERTEX
  8
0
 10
2.154193
 20
4.86779
 42
-0.174481
  0
SEQEND
  8
0
  0
POLYLINE
  8
0
 66
1
 70
1
  0
VERTEX
  8
0
 10
1.613317
 20
5.196756
 42
0.180801
  0
VERTEX
  8
0
 10
1.580734
 20
5.183543
 42
0.099998
  0
VERTEX
  8
0
 10
1.554126
 20
5.14751
 42
0.112305
  0
VERTEX
  8
0
 10
1.529608
 20
5.028619
 42
0.112306
  0
VERTEX
  8
0
 10
1.554126
 20
4.909728
 42
0.099999
  0
VERTEX
  8
0
 10
1.580734
 20
4.873696
 42
0.1808
  0
VERTEX
  8
0
 10
1.613317
 20
4.860483
 42
0.1808
  0
VERTEX
  8
0
 10
1.6459
 20
4.873696
 42
0.099999
  0
VERTEX
  8
0
 10
1.672507
 20
4.909728
 42
0.112306
  0
VERTEX
  8
0
 10
1.697025
 20
5.028619
 42
0.112305
  0
VERTEX
  8
0
 10
1.672507
 20
5.14751
 42
0.099998
  0
VERTEX
  8
0
 10
1.6459
 20
5.183543
 42
0.180801
  0
SEQEND
  8
0
  0
POLYLINE
  8
0
 66
1
 70
1
  0
VERTEX
  8
0
 10
1.613317
 20
4.892431
 42
-0.1808
  0
VERTEX
  8
0
 10
1.586924
 20
4.903133
 42
-0.100001
  0
VERTEX
  8
0
 10
1.565373
 20
4.932319
 42
-0.112304
  0
VERTEX
  8
0
 10
1.545514
 20
5.028619
 42
-0.112304
  0
VERTEX
  8
0
 10
1.565373
 20
5.12492
 42
-0.099999
  0
VERTEX
  8
0
 10
1.586924
 20
5.154106
 42
-0.180802
  0
VERTEX
  8
0
 10
1.613317
 20
5.164808
 42
-0.1808
  0
VERTEX
  8
0
 10
1.639709
 20
5.154106
 42
-0.099999
  0
VERTEX
  8
0
 10
1.661261
 20
5.12492
 42
-0.112307
  0
VERTEX
  8
0
 10
1.681121
 20
5.028619
 42
-0.112307
  0
VERTEX
  8
0
 10
1.661261
 20
4.932319
 42
-0.1
  0
VERTEX
  8
0
 10
1.639709
 20
4.903133
 42
-0.180798
  0
SEQEND
  8
0
  0
POLYLINE
  8
0
 66
1
 70
1
  0
VERTEX
  8
0
 10
1.120606
 20
5.196756
 42
0.180801
  0
VERTEX
  8
0
 10
1.088023
 20
5.183543
 42
0.099998
  0
VERTEX
  8
0
 10
1.061415
 20
5.14751
 42
0.112305
  0
VERTEX
  8
0
 10
1.036897
 20
5.028619
 42
0.112306
  0
VERTEX
  8
0
 10
1.061415
 20
4.909728
 42
0.099999
  0
VERTEX
  8
0
 10
1.088023
 20
4.873696
 42
0.1808
  0
VERTEX
  8
0
 10
1.120606
 20
4.860483
 42
0.1808
  0
VERTEX
  8
0
 10
1.153188
 20
4.873696
 42
0.099999
  0
VERTEX
  8
0
 10
1.179796
 20
4.909728
 42
0.112306
  0
VERTEX
  8
0
 10
1.204314
 20
5.028619
 42
0.112305
  0
VERTEX
  8
0
 10
1.179796
 20
5.14751
 42
0.099998
  0
VERTEX
  8
0
 10
1.153188
 20
5.183543
 42
0.180801
  0
SEQEND
  8
0
  0
POLYLINE
  8
0
 66
1
 70
1
  0
VERTEX
  8
0
 10
1.120606
 20
4.892431
 42
-0.1808
  0
VERTEX
  8
0
 10
1.094213
 20
4.903133
 42
-0.100001
  0
VERTEX
  8
0
 10
1.072661
 20
4.932319
 42
-0.112304
  0
VERTEX
  8
0
 10
1.052803
 20
5.028619
 42
-0.112304
  0
VERTEX
  8
0
 10
1.072661
 20
5.12492
 42
-0.099999
  0
VERTEX
  8
0
 10
1.094213
 20
5.154106
 42
-0.180802
  0
VERTEX
  8
0
 10
1.120606
 20
5.164808
 42
-0.1808
  0
VERTEX
  8
0
 10
1.146998
 20
5.154106
 42
-0.099999
  0
VERTEX
  8
0
 10
1.16855
 20
5.12492
 42
-0.112307
  0
VERTEX
  8
0
 10
1.18841
 20
5.028619
 42
-0.112307
  0
VERTEX
  8
0
 10
1.16855
 20
4.932319
 42
-0.1
  0
VERTEX
  8
0
 10
1.146998
 20
4.903133
 42
-0.180798
  0
SEQEND
  8
0
  0
ENDSEC
  0
EOF
