  0
SECTION
  2
HEADER
  9
$ACADVER
  1
AC1021
  9
$ACADMAINTVER
 70
    50
  9
$DWGCODEPAGE
  3
ANSI_1251
  9
$LASTSAVEDBY
  1
ksergey
  9
$INSBASE
 10
0.0
 20
0.0
 30
0.0
  9
$EXTMIN
 10
-31.02857358085843
 20
38.70457943932051
 30
0.0
  9
$EXTMAX
 10
176.3527395504548
 20
119.2642433864845
 30
0.0
  9
$LIMMIN
 10
0.0
 20
0.0
  9
$LIMMAX
 10
420.0
 20
297.0
  9
$ORTHOMODE
 70
     0
  9
$REGENMODE
 70
     1
  9
$FILLMODE
 70
     1
  9
$QTEXTMODE
 70
     0
  9
$MIRRTEXT
 70
     0
  9
$LTSCALE
 40
1.0
  9
$ATTMODE
 70
     1
  9
$TEXTSIZE
 40
2.5
  9
$TRACEWID
 40
1.0
  9
$TEXTSTYLE
  7
Standard
  9
$CLAYER
  8
Defpoints
  9
$CELTYPE
  6
ByLayer
  9
$CECOLOR
 62
     1
  9
$CELTSCALE
 40
1.0
  9
$DISPSILH
 70
     0
  9
$DIMSCALE
 40
1.0
  9
$DIMASZ
 40
2.5
  9
$DIMEXO
 40
0.625
  9
$DIMDLI
 40
3.75
  9
$DIMRND
 40
0.0
  9
$DIMDLE
 40
0.0
  9
$DIMEXE
 40
1.25
  9
$DIMTP
 40
0.0
  9
$DIMTM
 40
0.0
  9
$DIMTXT
 40
2.5
  9
$DIMCEN
 40
2.5
  9
$DIMTSZ
 40
0.0
  9
$DIMTOL
 70
     0
  9
$DIMLIM
 70
     0
  9
$DIMTIH
 70
     0
  9
$DIMTOH
 70
     0
  9
$DIMSE1
 70
     0
  9
$DIMSE2
 70
     0
  9
$DIMTAD
 70
     1
  9
$DIMZIN
 70
     8
  9
$DIMBLK
  1

  9
$DIMASO
 70
     1
  9
$DIMSHO
 70
     1
  9
$DIMPOST
  1

  9
$DIMAPOST
  1

  9
$DIMALT
 70
     0
  9
$DIMALTD
 70
     3
  9
$DIMALTF
 40
0.03937007874016
  9
$DIMLFAC
 40
1.0
  9
$DIMTOFL
 70
     1
  9
$DIMTVP
 40
0.0
  9
$DIMTIX
 70
     0
  9
$DIMSOXD
 70
     0
  9
$DIMSAH
 70
     0
  9
$DIMBLK1
  1

  9
$DIMBLK2
  1

  9
$DIMSTYLE
  2
ISO-25
  9
$DIMCLRD
 70
     0
  9
$DIMCLRE
 70
     0
  9
$DIMCLRT
 70
     0
  9
$DIMTFAC
 40
1.0
  9
$DIMGAP
 40
0.625
  9
$DIMJUST
 70
     0
  9
$DIMSD1
 70
     0
  9
$DIMSD2
 70
     0
  9
$DIMTOLJ
 70
     0
  9
$DIMTZIN
 70
     8
  9
$DIMALTZ
 70
     0
  9
$DIMALTTZ
 70
     0
  9
$DIMUPT
 70
     0
  9
$DIMDEC
 70
     2
  9
$DIMTDEC
 70
     2
  9
$DIMALTU
 70
     2
  9
$DIMALTTD
 70
     3
  9
$DIMTXSTY
  7
Standard
  9
$DIMAUNIT
 70
     0
  9
$DIMADEC
 70
     0
  9
$DIMALTRND
 40
0.0
  9
$DIMAZIN
 70
     0
  9
$DIMDSEP
 70
    44
  9
$DIMATFIT
 70
     3
  9
$DIMFRAC
 70
     0
  9
$DIMLDRBLK
  1

  9
$DIMLUNIT
 70
     2
  9
$DIMLWD
 70
    -2
  9
$DIMLWE
 70
    -2
  9
$DIMTMOVE
 70
     0
  9
$DIMFXL
 40
1.0
  9
$DIMFXLON
 70
     0
  9
$DIMJOGANG
 40
0.7853981633974483
  9
$DIMTFILL
 70
     0
  9
$DIMTFILLCLR
 70
     0
  9
$DIMARCSYM
 70
     0
  9
$DIMLTYPE
  6

  9
$DIMLTEX1
  6

  9
$DIMLTEX2
  6

  9
$LUNITS
 70
     2
  9
$LUPREC
 70
     4
  9
$SKETCHINC
 40
1.0
  9
$FILLETRAD
 40
0.0
  9
$AUNITS
 70
     0
  9
$AUPREC
 70
     0
  9
$MENU
  1
.
  9
$ELEVATION
 40
0.0
  9
$PELEVATION
 40
0.0
  9
$THICKNESS
 40
0.0
  9
$LIMCHECK
 70
     0
  9
$CHAMFERA
 40
0.0
  9
$CHAMFERB
 40
0.0
  9
$CHAMFERC
 40
0.0
  9
$CHAMFERD
 40
0.0
  9
$SKPOLY
 70
     0
  9
$TDCREATE
 40
2456293.863566736
  9
$TDUCREATE
 40
2456293.696900069
  9
$TDUPDATE
 40
2456306.535038519
  9
$TDUUPDATE
 40
2456306.368371852
  9
$TDINDWG
 40
0.1163289120
  9
$TDUSRTIMER
 40
0.1163280093
  9
$USRTIMER
 70
     1
  9
$ANGBASE
 50
0.0
  9
$ANGDIR
 70
     0
  9
$PDMODE
 70
     0
  9
$PDSIZE
 40
0.0
  9
$PLINEWID
 40
0.0
  9
$SPLFRAME
 70
     0
  9
$SPLINETYPE
 70
     6
  9
$SPLINESEGS
 70
     8
  9
$HANDSEED
  5
738
  9
$SURFTAB1
 70
     6
  9
$SURFTAB2
 70
     6
  9
$SURFTYPE
 70
     6
  9
$SURFU
 70
     6
  9
$SURFV
 70
     6
  9
$UCSBASE
  2

  9
$UCSNAME
  2

  9
$UCSORG
 10
0.0
 20
0.0
 30
0.0
  9
$UCSXDIR
 10
1.0
 20
0.0
 30
0.0
  9
$UCSYDIR
 10
0.0
 20
1.0
 30
0.0
  9
$UCSORTHOREF
  2

  9
$UCSORTHOVIEW
 70
     0
  9
$UCSORGTOP
 10
0.0
 20
0.0
 30
0.0
  9
$UCSORGBOTTOM
 10
0.0
 20
0.0
 30
0.0
  9
$UCSORGLEFT
 10
0.0
 20
0.0
 30
0.0
  9
$UCSORGRIGHT
 10
0.0
 20
0.0
 30
0.0
  9
$UCSORGFRONT
 10
0.0
 20
0.0
 30
0.0
  9
$UCSORGBACK
 10
0.0
 20
0.0
 30
0.0
  9
$PUCSBASE
  2

  9
$PUCSNAME
  2

  9
$PUCSORG
 10
0.0
 20
0.0
 30
0.0
  9
$PUCSXDIR
 10
1.0
 20
0.0
 30
0.0
  9
$PUCSYDIR
 10
0.0
 20
1.0
 30
0.0
  9
$PUCSORTHOREF
  2

  9
$PUCSORTHOVIEW
 70
     0
  9
$PUCSORGTOP
 10
0.0
 20
0.0
 30
0.0
  9
$PUCSORGBOTTOM
 10
0.0
 20
0.0
 30
0.0
  9
$PUCSORGLEFT
 10
0.0
 20
0.0
 30
0.0
  9
$PUCSORGRIGHT
 10
0.0
 20
0.0
 30
0.0
  9
$PUCSORGFRONT
 10
0.0
 20
0.0
 30
0.0
  9
$PUCSORGBACK
 10
0.0
 20
0.0
 30
0.0
  9
$USERI1
 70
     0
  9
$USERI2
 70
     0
  9
$USERI3
 70
     0
  9
$USERI4
 70
     0
  9
$USERI5
 70
     0
  9
$USERR1
 40
0.0
  9
$USERR2
 40
0.0
  9
$USERR3
 40
0.0
  9
$USERR4
 40
0.0
  9
$USERR5
 40
0.0
  9
$WORLDVIEW
 70
     1
  9
$SHADEDGE
 70
     3
  9
$SHADEDIF
 70
    70
  9
$TILEMODE
 70
     1
  9
$MAXACTVP
 70
    64
  9
$PINSBASE
 10
0.0
 20
0.0
 30
0.0
  9
$PLIMCHECK
 70
     0
  9
$PEXTMIN
 10
0.0
 20
0.0
 30
0.0
  9
$PEXTMAX
 10
0.0
 20
0.0
 30
0.0
  9
$PLIMMIN
 10
0.0
 20
0.0
  9
$PLIMMAX
 10
12.0
 20
9.0
  9
$UNITMODE
 70
     0
  9
$VISRETAIN
 70
     1
  9
$PLINEGEN
 70
     0
  9
$PSLTSCALE
 70
     1
  9
$TREEDEPTH
 70
  3020
  9
$CMLSTYLE
  2
Standard
  9
$CMLJUST
 70
     0
  9
$CMLSCALE
 40
20.0
  9
$PROXYGRAPHICS
 70
     1
  9
$MEASUREMENT
 70
     1
  9
$CELWEIGHT
370
    -1
  9
$ENDCAPS
280
     0
  9
$JOINSTYLE
280
     0
  9
$LWDISPLAY
290
     0
  9
$INSUNITS
 70
     4
  9
$HYPERLINKBASE
  1

  9
$STYLESHEET
  1

  9
$XEDIT
290
     1
  9
$CEPSNTYPE
380
     0
  9
$PSTYLEMODE
290
     1
  9
$FINGERPRINTGUID
  2
{7056CB13-2B4E-421A-9DE5-60FF0FAD252D}
  9
$VERSIONGUID
  2
{70AE4699-81E4-4FFE-B3F2-06531D66EE8D}
  9
$EXTNAMES
290
     1
  9
$PSVPSCALE
 40
0.0
  9
$OLESTARTUP
290
     0
  9
$SORTENTS
280
   127
  9
$INDEXCTL
280
     0
  9
$HIDETEXT
280
     1
  9
$XCLIPFRAME
290
     0
  9
$HALOGAP
280
     0
  9
$OBSCOLOR
 70
   257
  9
$OBSLTYPE
280
     0
  9
$INTERSECTIONDISPLAY
280
     0
  9
$INTERSECTIONCOLOR
 70
   257
  9
$DIMASSOC
280
     2
  9
$PROJECTNAME
  1

  9
$CAMERADISPLAY
290
     0
  9
$LENSLENGTH
 40
50.0
  9
$CAMERAHEIGHT
 40
0.0
  9
$STEPSPERSEC
 40
2.0
  9
$STEPSIZE
 40
6.0
  9
$3DDWFPREC
 40
2.0
  9
$PSOLWIDTH
 40
5.0
  9
$PSOLHEIGHT
 40
80.0
  9
$LOFTANG1
 40
1.570796326794896
  9
$LOFTANG2
 40
1.570796326794896
  9
$LOFTMAG1
 40
0.0
  9
$LOFTMAG2
 40
0.0
  9
$LOFTPARAM
 70
     7
  9
$LOFTNORMALS
280
     1
  9
$LATITUDE
 40
37.795
  9
$LONGITUDE
 40
-122.394
  9
$NORTHDIRECTION
 40
0.0
  9
$TIMEZONE
 70
 -8000
  9
$LIGHTGLYPHDISPLAY
280
     1
  9
$TILEMODELIGHTSYNCH
280
     1
  9
$CMATERIAL
347
EC
  9
$SOLIDHIST
280
     1
  9
$SHOWHIST
280
     1
  9
$DWFFRAME
280
     2
  9
$DGNFRAME
280
     0
  9
$REALWORLDSCALE
290
     1
  9
$INTERFERECOLOR
 62
     1
  9
$INTERFEREOBJVS
345
F9
  9
$INTERFEREVPVS
346
6D5
  9
$CSHADOW
280
     0
  9
$SHADOWPLANELOCATION
 40
0.0
  0
ENDSEC
  0
SECTION
  2
CLASSES
  0
CLASS
  1
ACDBDICTIONARYWDFLT
  2
AcDbDictionaryWithDefault
  3
ObjectDBX Classes
 90
        0
 91
        1
280
     0
281
     0
  0
CLASS
  1
DICTIONARYVAR
  2
AcDbDictionaryVar
  3
ObjectDBX Classes
 90
        0
 91
        9
280
     0
281
     0
  0
CLASS
  1
TABLESTYLE
  2
AcDbTableStyle
  3
ObjectDBX Classes
 90
     4095
 91
        1
280
     0
281
     0
  0
CLASS
  1
MATERIAL
  2
AcDbMaterial
  3
ObjectDBX Classes
 90
     1153
 91
        3
280
     0
281
     0
  0
CLASS
  1
VISUALSTYLE
  2
AcDbVisualStyle
  3
ObjectDBX Classes
 90
     4095
 91
       26
280
     0
281
     0
  0
CLASS
  1
RASTERVARIABLES
  2
AcDbRasterVariables
  3
ISM
 90
        0
 91
        1
280
     0
281
     0
  0
CLASS
  1
IMAGEDEF
  2
AcDbRasterImageDef
  3
ISM
 90
        0
 91
        1
280
     0
281
     0
  0
CLASS
  1
IMAGEDEF_REACTOR
  2
AcDbRasterImageDefReactor
  3
ISM
 90
        1
 91
        1
280
     0
281
     0
  0
CLASS
  1
IMAGE
  2
AcDbRasterImage
  3
ISM
 90
     2175
 91
        1
280
     0
281
     1
  0
CLASS
  1
SORTENTSTABLE
  2
AcDbSortentsTable
  3
ObjectDBX Classes
 90
        0
 91
        1
280
     0
281
     0
  0
CLASS
  1
SCALE
  2
AcDbScale
  3
ObjectDBX Classes
 90
     1153
 91
       17
280
     0
281
     0
  0
CLASS
  1
MLEADERSTYLE
  2
AcDbMLeaderStyle
  3
ACDB_MLEADERSTYLE_CLASS
 90
     4095
 91
        1
280
     0
281
     0
  0
CLASS
  1
CELLSTYLEMAP
  2
AcDbCellStyleMap
  3
ObjectDBX Classes
 90
     1152
 91
        1
280
     0
281
     0
  0
ENDSEC
  0
SECTION
  2
TABLES
  0
TABLE
  2
VPORT
  5
8
330
0
100
AcDbSymbolTable
 70
     1
  0
VPORT
  5
EA
330
8
100
AcDbSymbolTableRecord
100
AcDbViewportTableRecord
  2
*Active
 70
     0
 10
0.0
 20
0.0
 11
1.0
 21
1.0
 12
79.64619205958765
 22
80.37728640160095
 13
0.0
 23
0.0
 14
10.0
 24
10.0
 15
10.0
 25
10.0
 16
0.0
 26
0.0
 36
1.0
 17
0.0
 27
0.0
 37
0.0
 40
101.699344728142
 41
2.480961923847695
 42
50.0
 43
0.0
 44
0.0
 50
0.0
 51
0.0
 71
     0
 72
  1000
 73
     1
 74
     3
 75
     0
 76
     0
 77
     0
 78
     0
281
     0
 65
     1
110
0.0
120
0.0
130
0.0
111
1.0
121
0.0
131
0.0
112
0.0
122
1.0
132
0.0
 79
     0
146
0.0
348
F5
 60
     2
 61
     5
292
     1
282
     1
141
0.0
142
0.0
 63
   250
421
  3355443
  0
ENDTAB
  0
TABLE
  2
LTYPE
  5
5
330
0
100
AcDbSymbolTable
 70
     1
  0
LTYPE
  5
14
330
5
100
AcDbSymbolTableRecord
100
AcDbLinetypeTableRecord
  2
ByBlock
 70
     0
  3

 72
    65
 73
     0
 40
0.0
  0
LTYPE
  5
15
330
5
100
AcDbSymbolTableRecord
100
AcDbLinetypeTableRecord
  2
ByLayer
 70
     0
  3

 72
    65
 73
     0
 40
0.0
  0
LTYPE
  5
16
330
5
100
AcDbSymbolTableRecord
100
AcDbLinetypeTableRecord
  2
Continuous
 70
     0
  3
Solid line
 72
    65
 73
     0
 40
0.0
  0
ENDTAB
  0
TABLE
  2
LAYER
  5
2
102
{ACAD_XDICTIONARY
360
14C
102
}
330
0
100
AcDbSymbolTable
 70
     3
  0
LAYER
  5
10
102
{ACAD_XDICTIONARY
360
6F6
102
}
330
2
100
AcDbSymbolTableRecord
100
AcDbLayerTableRecord
  2
0
 70
     0
 62
     7
  6
Continuous
370
    -3
390
F
347
EE
  0
LAYER
  5
115
330
2
100
AcDbSymbolTableRecord
100
AcDbLayerTableRecord
  2
Defpoints
 70
     0
 62
     7
  6
Continuous
290
     0
370
    -3
390
F
347
EE
  0
LAYER
  5
14A
102
{ACAD_XDICTIONARY
360
6F8
102
}
330
2
100
AcDbSymbolTableRecord
100
AcDbLayerTableRecord
  2
raster
 70
     0
 62
    -7
  6
Continuous
290
     0
370
    -3
390
F
347
EE
1001
AcAecLayerStandard
1000

1000

  0
ENDTAB
  0
TABLE
  2
STYLE
  5
3
330
0
100
AcDbSymbolTable
 70
     1
  0
STYLE
  5
11
330
3
100
AcDbSymbolTableRecord
100
AcDbTextStyleTableRecord
  2
Standard
 70
     0
 40
0.0
 41
1.0
 50
0.0
 71
     0
 42
2.5
  3
txt
  4

  0
ENDTAB
  0
TABLE
  2
VIEW
  5
6
330
0
100
AcDbSymbolTable
 70
     0
  0
ENDTAB
  0
TABLE
  2
UCS
  5
7
330
0
100
AcDbSymbolTable
 70
     0
  0
ENDTAB
  0
TABLE
  2
APPID
  5
9
330
0
100
AcDbSymbolTable
 70
     5
  0
APPID
  5
12
330
9
100
AcDbSymbolTableRecord
100
AcDbRegAppTableRecord
  2
ACAD
 70
     0
  0
APPID
  5
9E
330
9
100
AcDbSymbolTableRecord
100
AcDbRegAppTableRecord
  2
ACAD_PSEXT
 70
     0
  0
APPID
  5
140
330
9
100
AcDbSymbolTableRecord
100
AcDbRegAppTableRecord
  2
ACAD_EXEMPT_FROM_CAD_STANDARDS
 70
     0
  0
APPID
  5
14B
330
9
100
AcDbSymbolTableRecord
100
AcDbRegAppTableRecord
  2
AcAecLayerStandard
 70
     0
  0
APPID
  5
737
330
9
100
AcDbSymbolTableRecord
100
AcDbRegAppTableRecord
  2
ACAD_MLEADERVER
 70
     0
  0
ENDTAB
  0
TABLE
  2
DIMSTYLE
  5
A
330
0
100
AcDbSymbolTable
 70
     1
100
AcDbDimStyleTable
 71
     1
340
27
  0
DIMSTYLE
105
27
330
A
100
AcDbSymbolTableRecord
100
AcDbDimStyleTableRecord
  2
ISO-25
 70
     0
 41
2.5
 42
0.625
 43
3.75
 44
1.25
 73
     0
 74
     0
 77
     1
 78
     8
140
2.5
141
2.5
143
0.03937007874016
147
0.625
171
     3
172
     1
271
     2
272
     2
274
     3
278
    44
283
     0
284
     8
340
11
  0
ENDTAB
  0
TABLE
  2
BLOCK_RECORD
  5
1
330
0
100
AcDbSymbolTable
 70
     2
  0
BLOCK_RECORD
  5
1F
102
{ACAD_XDICTIONARY
360
550
102
}
330
1
100
AcDbSymbolTableRecord
100
AcDbBlockTableRecord
  2
*Model_Space
340
22
 70
     0
280
     1
281
     0
  0
BLOCK_RECORD
  5
D2
330
1
100
AcDbSymbolTableRecord
100
AcDbBlockTableRecord
  2
*Paper_Space
340
D3
 70
     0
280
     1
281
     0
  0
BLOCK_RECORD
  5
D6
330
1
100
AcDbSymbolTableRecord
100
AcDbBlockTableRecord
  2
*Paper_Space0
340
D7
 70
     0
280
     1
281
     0
  0
ENDTAB
  0
ENDSEC
  0
SECTION
  2
BLOCKS
  0
BLOCK
  5
20
330
1F
100
AcDbEntity
  8
0
100
AcDbBlockBegin
  2
*Model_Space
 70
     0
 10
0.0
 20
0.0
 30
0.0
  3
*Model_Space
  1

  0
ENDBLK
  5
21
330
1F
100
AcDbEntity
  8
0
100
AcDbBlockEnd
  0
BLOCK
  5
D4
330
D2
100
AcDbEntity
 67
     1
  8
0
100
AcDbBlockBegin
  2
*Paper_Space
 70
     0
 10
0.0
 20
0.0
 30
0.0
  3
*Paper_Space
  1

  0
ENDBLK
  5
D5
330
D2
100
AcDbEntity
 67
     1
  8
0
100
AcDbBlockEnd
  0
BLOCK
  5
D8
330
D6
100
AcDbEntity
 67
     1
  8
0
100
AcDbBlockBegin
  2
*Paper_Space0
 70
     0
 10
0.0
 20
0.0
 30
0.0
  3
*Paper_Space0
  1

  0
ENDBLK
  5
D9
330
D6
100
AcDbEntity
 67
     1
  8
0
100
AcDbBlockEnd
  0
ENDSEC
  0
SECTION
  2
ENTITIES
  0
IMAGE
  5
113
330
1F
100
AcDbEntity
  8
raster
 92
      140
310
8C000000010000008400000006000000050000000A51239950073FC067A8B8A82F5A434000000000000000000951239950073FC0A6C8175DE9D05D400000000000000000B02674A4490B6640A6C8175DE9D05D400000000000000000B02674A4490B664067A8B8A82F5A434000000000000000000A51239950073FC067A8B8
310
A82F5A43400000000000000000
100
AcDbRasterImage
 90
        0
 10
-31.02857358085843
 20
38.70457943932052
 30
0.0
 11
0.3988102175602177
 21
0.0
 31
0.0
 12
0.0
 22
0.3988102175602177
 32
0.0
 13
520.0
 23
202.0
340
111
 70
     7
280
     0
281
    50
282
    50
283
     0
360
112
 71
     1
 91
        2
 14
-0.5
 24
-0.5
 14
519.5
 24
201.5
  0
LINE
  5
146
330
1F
100
AcDbEntity
  8
0
100
AcDbLine
 10
-30.0113819975588
 20
118.2351095517284
 30
0.0
 11
174.9886180024412
 21
118.2351095517284
 31
0.0
  0
LINE
  5
147
330
1F
100
AcDbEntity
  8
0
100
AcDbLine
 10
174.9886180024412
 20
118.2351095517284
 30
0.0
 11
174.9886180024412
 21
40.03510955172838
 31
0.0
  0
LINE
  5
148
330
1F
100
AcDbEntity
  8
0
100
AcDbLine
 10
174.9886180024412
 20
40.03510955172838
 30
0.0
 11
-30.0113819975588
 21
40.03510955172838
 31
0.0
  0
LINE
  5
149
330
1F
100
AcDbEntity
  8
0
100
AcDbLine
 10
-30.0113819975588
 20
40.03510955172838
 30
0.0
 11
-30.0113819975588
 21
118.2351095517284
 31
0.0
  0
ARC
  5
157
330
1F
100
AcDbEntity
  8
Defpoints
100
AcDbCircle
 10
167.3124143599995
 20
100.7408595875278
 30
0.0
 40
5.3728830927243
100
AcDbArc
 50
95.4893465539463
 51
130.5893162830545
  0
ARC
  5
158
330
1F
100
AcDbEntity
  8
Defpoints
100
AcDbCircle
 10
158.8770541552277
 20
102.6522249486335
 30
0.0
 40
8.634841875502717
100
AcDbArc
 50
23.45473175633392
 51
55.58278011002967
  0
LINE
  5
159
330
1F
100
AcDbEntity
  8
Defpoints
100
AcDbLine
 10
163.757595965958
 20
109.7754830408725
 30
0.0
 11
167.4603834374884
 21
112.5351095517284
 31
0.0
  0
LINE
  5
15A
330
1F
100
AcDbEntity
  8
Defpoints
100
AcDbLine
 10
167.4603834374884
 20
112.5351095517284
 30
0.0
 11
168.1886180024411
 21
112.5351095517284
 31
0.0
  0
LINE
  5
15B
330
1F
100
AcDbEntity
  8
Defpoints
100
AcDbLine
 10
168.1886180024411
 20
112.5351095517284
 30
0.0
 11
168.1886180024411
 21
99.37888028703355
 31
0.0
  0
LINE
  5
15C
330
1F
100
AcDbEntity
  8
Defpoints
100
AcDbLine
 10
168.1886180024411
 20
99.37888028703355
 30
0.0
 11
167.5346927170767
 21
99.37888028703355
 31
0.0
  0
ARC
  5
15D
330
1F
100
AcDbEntity
  8
Defpoints
100
AcDbCircle
 10
158.5701381045233
 20
97.24543160000523
 30
0.0
 40
9.214924997070557
100
AcDbArc
 50
13.38663615833606
 51
55.29519672251523
  0
ARC
  5
15E
330
1F
100
AcDbEntity
  8
Defpoints
100
AcDbCircle
 10
141.385270359169
 20
109.3481182819348
 30
0.0
 40
6.575302208521639
100
AcDbArc
 50
6.611290053874744
 51
28.99224417029147
  0
ARC
  5
15F
330
1F
100
AcDbEntity
  8
Defpoints
100
AcDbCircle
 10
157.5257583777936
 20
90.96444533762813
 30
0.0
 40
21.41723171538913
100
AcDbArc
 50
100.8612025769437
 51
116.6573115767896
  0
ARC
  5
160
330
1F
100
AcDbEntity
  8
Defpoints
100
AcDbCircle
 10
145.5578238780958
 20
108.039359680027
 30
0.0
 40
8.865212103315087
100
AcDbArc
 50
14.46445179524872
 51
26.52182784552656
  0
ARC
  5
161
330
1F
100
AcDbEntity
  8
Defpoints
100
AcDbCircle
 10
159.1164274607614
 20
102.4038625104025
 30
0.0
 40
9.293257651224552
100
AcDbArc
 50
76.99752377736453
 51
122.3621646904345
  0
LINE
  5
162
330
1F
100
AcDbEntity
  8
Defpoints
100
AcDbLine
 10
161.2073469100005
 20
111.4588442126942
 30
0.0
 11
161.5172326143938
 21
112.5351095517284
 31
0.0
  0
LINE
  5
163
330
1F
100
AcDbEntity
  8
Defpoints
100
AcDbLine
 10
161.5172326143938
 20
112.5351095517284
 30
0.0
 11
147.1365907101535
 21
112.5351095517284
 31
0.0
  0
LINE
  5
164
330
1F
100
AcDbEntity
  8
Defpoints
100
AcDbLine
 10
130.5856599240396
 20
112.5351095517284
 30
0.0
 11
143.788484855173
 21
112.5351095517284
 31
0.0
  0
ARC
  5
165
330
1F
100
AcDbEntity
  8
Defpoints
100
AcDbCircle
 10
128.2675977943663
 20
107.2341824099076
 30
0.0
 40
5.785606329497175
100
AcDbArc
 50
14.57478691452516
 51
66.38054338629583
  0
ARC
  5
166
330
1F
100
AcDbEntity
  8
Defpoints
100
AcDbCircle
 10
139.1456899028637
 20
104.51414973278
 30
0.0
 40
6.73073693685077
100
AcDbArc
 50
115.2462709735717
 51
141.6525474990309
  0
ARC
  5
167
330
1F
100
AcDbEntity
  8
Defpoints
100
AcDbCircle
 10
125.7715575307503
 20
106.4077084899108
 30
0.0
 40
11.30988577682511
100
AcDbArc
 50
350.8901391119098
 51
21.76808458117572
  0
ARC
  5
168
330
1F
100
AcDbEntity
  8
Defpoints
100
AcDbCircle
 10
168.0156670172946
 20
84.65509281664424
 30
0.0
 40
36.93577789441009
100
AcDbArc
 50
130.9899942316451
 51
147.2857171528243
  0
LINE
  5
169
330
1F
100
AcDbEntity
  8
Defpoints
100
AcDbLine
 10
100.5803937280479
 20
112.5351095517284
 30
0.0
 11
113.7214183565174
 21
112.5351095517284
 31
0.0
  0
ARC
  5
16A
330
1F
100
AcDbEntity
  8
Defpoints
100
AcDbCircle
 10
123.3151244900271
 20
79.96037291321847
 30
0.0
 40
33.95810160248097
100
AcDbArc
 50
106.4104234252135
 51
121.7385631761218
  0
ARC
  5
16B
330
1F
100
AcDbEntity
  8
Defpoints
100
AcDbCircle
 10
109.4250299071567
 20
109.4953351969357
 30
0.0
 40
4.027000570900505
100
AcDbArc
 50
141.850619203069
 51
189.3615684162086
  0
ARC
  5
16C
330
1F
100
AcDbEntity
  8
Defpoints
100
AcDbCircle
 10
111.0066509959263
 20
91.00577397786755
 30
0.0
 40
21.5078232133511
100
AcDbArc
 50
102.7547654278005
 51
122.3161452563409
  0
ARC
  5
16D
330
1F
100
AcDbEntity
  8
Defpoints
100
AcDbCircle
 10
90.90787301101512
 20
113.7789373644614
 30
0.0
 40
9.752167177051353
100
AcDbArc
 50
331.8781925176194
 51
352.6723229698483
  0
LINE
  5
16E
330
1F
100
AcDbEntity
  8
Defpoints
100
AcDbLine
 10
83.34362849876379
 20
112.5351095517284
 30
0.0
 11
96.94628463503432
 21
112.5351095517284
 31
0.0
  0
LINE
  5
16F
330
1F
100
AcDbEntity
  8
Defpoints
100
AcDbLine
 10
96.94628463503432
 20
112.5351095517284
 30
0.0
 11
89.12389271087794
 21
104.2380247064047
 31
0.0
  0
ARC
  5
170
330
1F
100
AcDbEntity
  8
Defpoints
100
AcDbCircle
 10
76.26754019799931
 20
104.067651611516
 30
0.0
 40
12.85748136016004
100
AcDbArc
 50
0.7592423972860021
 51
28.89686453865329
  0
ARC
  5
171
330
1F
100
AcDbEntity
  8
Defpoints
100
AcDbCircle
 10
92.33743815737131
 20
104.1731337259201
 30
0.0
 40
7.776355432693145
100
AcDbArc
 50
128.2405668621045
 51
146.6773914796545
  0
ARC
  5
172
330
1F
100
AcDbEntity
  8
Defpoints
100
AcDbCircle
 10
79.44722090130309
 20
107.3507042750756
 30
0.0
 40
6.485372020025905
100
AcDbArc
 50
9.71500448500136
 51
53.072828298644
  0
ARC
  5
173
330
1F
100
AcDbEntity
  8
Defpoints
100
AcDbCircle
 10
74.00578327313642
 20
107.6611059517414
 30
0.0
 40
1.546602154971612
100
AcDbArc
 50
7.92671276961975
 51
168.8034171487286
  0
ARC
  5
174
330
1F
100
AcDbEntity
  8
Defpoints
100
AcDbCircle
 10
81.56220794987326
 20
106.4518007404136
 30
0.0
 40
6.19028029392967
100
AcDbArc
 50
100.6670388227013
 51
166.7140843420608
  0
LINE
  5
175
330
1F
100
AcDbEntity
  8
Defpoints
100
AcDbLine
 10
80.41637898201027
 20
112.5351095517284
 30
0.0
 11
72.4886180024412
 21
112.545863654916
 31
0.0
  0
ARC
  5
176
330
1F
100
AcDbEntity
  8
Defpoints
100
AcDbCircle
 10
77.88772025678413
 20
102.9709058954295
 30
0.0
 40
3.952764128316726
100
AcDbArc
 50
146.3107636004643
 51
308.1467283609218
  0
ARC
  5
177
330
1F
100
AcDbEntity
  8
Defpoints
100
AcDbCircle
 10
73.73930329559728
 20
106.1895474376244
 30
0.0
 40
1.338498539565918
100
AcDbArc
 50
200.8695043277671
 51
309.9506385883112
  0
ARC
  5
178
330
1F
100
AcDbEntity
  8
Defpoints
100
AcDbCircle
 10
83.30231843985808
 20
103.1888432596355
 30
0.0
 40
4.46148196450281
100
AcDbArc
 50
137.284503645378
 51
228.2113298960489
  0
ARC
  5
179
330
1F
100
AcDbEntity
  8
Defpoints
100
AcDbCircle
 10
81.77234681479623
 20
104.5365399635324
 30
0.0
 40
2.423611696623608
100
AcDbArc
 50
33.21094007885049
 51
136.1573773766175
  0
ARC
  5
17A
330
1F
100
AcDbEntity
  8
Defpoints
100
AcDbCircle
 10
75.34271089912397
 20
101.4982148690177
 30
0.0
 40
9.517737510567652
100
AcDbArc
 50
305.0569090762391
 51
27.30329825911257
  0
ARC
  5
17B
330
1F
100
AcDbEntity
  8
Defpoints
100
AcDbCircle
 10
77.43954063543127
 20
92.97857962596243
 30
0.0
 40
3.447920117641436
100
AcDbArc
 50
12.19925596536926
 51
88.12839840543562
  0
ARC
  5
17C
330
1F
100
AcDbEntity
  8
Defpoints
100
AcDbCircle
 10
71.29807377715614
 20
93.54986827511027
 30
0.0
 40
6.883159647908901
100
AcDbArc
 50
307.4051784796409
 51
24.68668155628043
  0
ARC
  5
17D
330
1F
100
AcDbEntity
  8
Defpoints
100
AcDbCircle
 10
67.14215046267622
 20
89.01890739913186
 30
0.0
 40
8.389543002626167
100
AcDbArc
 50
353.5892069631005
 51
26.4019273060491
  0
ARC
  5
17E
330
1F
100
AcDbEntity
  8
Defpoints
100
AcDbCircle
 10
72.57818498425923
 20
91.42571287819018
 30
0.0
 40
2.464190290790099
100
AcDbArc
 50
32.49241259787254
 51
92.08301311099237
  0
ARC
  5
17F
330
1F
100
AcDbEntity
  8
Defpoints
100
AcDbCircle
 10
100.9820710068475
 20
84.40424934245625
 30
0.0
 40
18.30793265614515
100
AcDbArc
 50
58.14192634185988
 51
118.9107705927608
  0
ARC
  5
180
330
1F
100
AcDbEntity
  8
Defpoints
100
AcDbCircle
 10
104.9370030811881
 20
92.42476043255171
 30
0.0
 40
9.44869447765984
100
AcDbArc
 50
326.0980329611797
 51
52.83323893002791
  0
ARC
  5
181
330
1F
100
AcDbEntity
  8
Defpoints
100
AcDbCircle
 10
108.5799077063818
 20
90.4303276648825
 30
0.0
 40
19.25007738186027
100
AcDbArc
 50
126.0282978283921
 51
148.7020180882514
  0
ARC
  5
182
330
1F
100
AcDbEntity
  8
Defpoints
100
AcDbCircle
 10
102.6885103008218
 20
105.7462640202276
 30
0.0
 40
5.437052794082633
100
AcDbArc
 50
177.3422730388848
 51
203.7978479720727
  0
ARC
  5
183
330
1F
100
AcDbEntity
  8
Defpoints
100
AcDbCircle
 10
111.4997155097305
 20
88.37669430220856
 30
0.0
 40
20.50252800946245
100
AcDbArc
 50
113.7225373744694
 51
132.2528403697878
  0
ARC
  5
184
330
1F
100
AcDbEntity
  8
Defpoints
100
AcDbCircle
 10
110.5825518661641
 20
104.7852192680321
 30
0.0
 40
7.702161268834289
100
AcDbArc
 50
162.1443990067549
 51
186.0951142180912
  0
ARC
  5
185
330
1F
100
AcDbEntity
  8
Defpoints
100
AcDbCircle
 10
111.0577236931457
 20
90.75462960729032
 30
0.0
 40
15.51567378643387
100
AcDbArc
 50
84.99909927294451
 51
121.616469923797
  0
ARC
  5
186
330
1F
100
AcDbEntity
  8
Defpoints
100
AcDbCircle
 10
116.9515603736389
 20
99.11306883648585
 30
0.0
 40
6.914845508627843
100
AcDbArc
 50
116.3204416945726
 51
143.1316603695968
  0
ARC
  5
187
330
1F
100
AcDbEntity
  8
Defpoints
100
AcDbCircle
 10
105.7718008124645
 20
89.08183666149628
 30
0.0
 40
15.26333513118831
100
AcDbArc
 50
44.42301710147831
 51
68.28302371058535
  0
ARC
  5
188
330
1F
100
AcDbEntity
  8
Defpoints
100
AcDbCircle
 10
118.2028735453225
 20
96.16210037956275
 30
0.0
 40
3.914735102504099
100
AcDbArc
 50
113.0082505246183
 51
146.5425587006178
  0
ARC
  5
189
330
1F
100
AcDbEntity
  8
Defpoints
100
AcDbCircle
 10
110.8410853629681
 20
93.32039369269654
 30
0.0
 40
6.463341768315216
100
AcDbArc
 50
287.4507893609567
 51
50.6772571395064
  0
LINE
  5
18A
330
1F
100
AcDbEntity
  8
Defpoints
100
AcDbLine
 10
126.132622362541
 20
112.2043509870859
 30
0.0
 11
126.2390045100474
 21
112.5351095517284
 31
0.0
  0
LINE
  5
18B
330
1F
100
AcDbEntity
  8
Defpoints
100
AcDbLine
 10
126.2390045100474
 20
112.5351095517284
 30
0.0
 11
119.026778887397
 21
112.5351095517284
 31
0.0
  0
LINE
  5
18C
330
1F
100
AcDbEntity
  8
Defpoints
100
AcDbLine
 10
112.4102467544098
 20
106.2112403100213
 30
0.0
 11
113.885580064104
 21
105.3110405329148
 31
0.0
  0
ARC
  5
18D
330
1F
100
AcDbEntity
  8
Defpoints
100
AcDbCircle
 10
106.967514621027
 20
119.8881938575788
 30
0.0
 40
14.12422399479329
100
AcDbArc
 50
307.0313107326592
 51
328.6274299164108
  0
ARC
  5
18E
330
1F
100
AcDbEntity
  8
Defpoints
100
AcDbCircle
 10
109.3994399218651
 20
96.52868245961993
 30
0.0
 40
13.52489295266765
100
AcDbArc
 50
39.36043864936539
 51
63.31224986545034
  0
ARC
  5
18F
330
1F
100
AcDbEntity
  8
Defpoints
100
AcDbCircle
 10
115.4895231799166
 20
109.5761403343975
 30
0.0
 40
6.249123479403414
100
AcDbArc
 50
284.8466515345905
 51
314.3320006163819
  0
ARC
  5
190
330
1F
100
AcDbEntity
  8
Defpoints
100
AcDbCircle
 10
112.8292213823806
 20
91.43294482552576
 30
0.0
 40
12.83105501434152
100
AcDbArc
 50
32.91254273091347
 51
70.60210686634883
  0
ARC
  5
191
330
1F
100
AcDbEntity
  8
Defpoints
100
AcDbCircle
 10
119.9688839058998
 20
106.4797719366667
 30
0.0
 40
8.854189577556422
100
AcDbArc
 50
266.5052021452976
 51
294.2176234619195
  0
ARC
  5
192
330
1F
100
AcDbEntity
  8
Defpoints
100
AcDbCircle
 10
115.4633963393471
 20
92.19489837156002
 30
0.0
 40
6.73785208678781
100
AcDbArc
 50
334.1970188762804
 51
53.94380346639693
  0
ARC
  5
193
330
1F
100
AcDbEntity
  8
Defpoints
100
AcDbCircle
 10
120.0729333452814
 20
94.96687672880366
 30
0.0
 40
5.887817897592215
100
AcDbArc
 50
284.3224951974336
 51
27.99476610652434
  0
ARC
  5
194
330
1F
100
AcDbEntity
  8
Defpoints
100
AcDbCircle
 10
125.6991368457737
 20
94.97703388202873
 30
0.0
 40
2.786491045735435
100
AcDbArc
 50
356.2191637775447
 51
98.82128019107508
  0
ARC
  5
195
330
1F
100
AcDbEntity
  8
Defpoints
100
AcDbCircle
 10
123.0291745683414
 20
103.4840050036563
 30
0.0
 40
10.25842221198042
100
AcDbArc
 50
302.0939196547963
 51
348.888758436306
  0
ARC
  5
196
330
1F
100
AcDbEntity
  8
Defpoints
100
AcDbCircle
 10
127.9636406753245
 20
102.1848237533701
 30
0.0
 40
5.176225181776471
100
AcDbArc
 50
352.4761916366937
 51
75.25024027136656
  0
ARC
  5
197
330
1F
100
AcDbEntity
  8
Defpoints
100
AcDbCircle
 10
129.17885309904
 20
104.759095729686
 30
0.0
 40
2.433546736568219
100
AcDbArc
 50
87.58262696149596
 51
186.5361805498011
  0
ARC
  5
198
330
1F
100
AcDbEntity
  8
Defpoints
100
AcDbCircle
 10
129.818441751606
 20
104.5378969348067
 30
0.0
 40
3.057827168083396
100
AcDbArc
 50
181.0458549899095
 51
250.3094330253503
  0
ARC
  5
199
330
1F
100
AcDbEntity
  8
Defpoints
100
AcDbCircle
 10
126.1914003362552
 20
102.4890224163831
 30
0.0
 40
2.726203892225599
100
AcDbArc
 50
148.2249832648388
 51
342.2714674626151
  0
ARC
  5
19A
330
1F
100
AcDbEntity
  8
Defpoints
100
AcDbCircle
 10
126.5710203720757
 20
110.2808919315767
 30
0.0
 40
1.972786747974667
100
AcDbArc
 50
102.8396168373326
 51
210.2072668798944
  0
ARC
  5
19B
330
1F
100
AcDbEntity
  8
Defpoints
100
AcDbCircle
 10
124.1742324313437
 20
106.6426726607251
 30
0.0
 40
2.734625676757506
100
AcDbArc
 50
75.34437995300264
 51
263.6924791124014
  0
ARC
  5
19C
330
1F
100
AcDbEntity
  8
Defpoints
100
AcDbCircle
 10
149.7739346353517
 20
82.83556111487817
 30
0.0
 40
21.11135794049221
100
AcDbArc
 50
76.1514756964069
 51
121.7087635233619
  0
ARC
  5
19D
330
1F
100
AcDbEntity
  8
Defpoints
100
AcDbCircle
 10
150.2155903031483
 20
91.47896290807164
 30
0.0
 40
12.71966361404853
100
AcDbArc
 50
358.6935929701634
 51
68.74332485550242
  0
ARC
  5
19E
330
1F
100
AcDbEntity
  8
Defpoints
100
AcDbCircle
 10
151.6465239312464
 20
95.10365585275797
 30
0.0
 40
14.16288648326541
100
AcDbArc
 50
121.8070447224676
 51
156.3033337426471
  0
ARC
  5
19F
330
1F
100
AcDbEntity
  8
Defpoints
100
AcDbCircle
 10
155.5294858928015
 20
93.97124185823484
 30
0.0
 40
15.16097609045818
100
AcDbArc
 50
102.6121681353819
 51
133.5222293504742
  0
ARC
  5
1A0
330
1F
100
AcDbEntity
  8
Defpoints
100
AcDbCircle
 10
149.3601779734745
 20
108.0228709014943
 30
0.0
 40
5.253126665728918
100
AcDbArc
 50
189.6790098168819
 51
215.604421910623
  0
ARC
  5
1A1
330
1F
100
AcDbEntity
  8
Defpoints
100
AcDbCircle
 10
155.1499245216191
 20
106.7115654259267
 30
0.0
 40
3.579407410323609
100
AcDbArc
 50
144.9655875144743
 51
186.0547364132045
  0
ARC
  5
1A2
330
1F
100
AcDbEntity
  8
Defpoints
100
AcDbCircle
 10
156.9835376224441
 20
99.96078036245521
 30
0.0
 40
8.348840605217576
100
AcDbArc
 50
51.66337082342828
 51
130.2380148641917
  0
ARC
  5
1A3
330
1F
100
AcDbEntity
  8
Defpoints
100
AcDbCircle
 10
163.6534677961971
 20
100.6715746927408
 30
0.0
 40
6.025339023626253
100
AcDbArc
 50
104.3299657958456
 51
140.6065733254015
  0
ARC
  5
1A4
330
1F
100
AcDbEntity
  8
Defpoints
100
AcDbCircle
 10
158.1597066555058
 20
98.06759828553287
 30
0.0
 40
6.482218004579749
100
AcDbArc
 50
13.57286742021676
 51
82.57807742691376
  0
ARC
  5
1A5
330
1F
100
AcDbEntity
  8
Defpoints
100
AcDbCircle
 10
159.5249830100413
 20
95.10888801032606
 30
0.0
 40
5.193572876877421
100
AcDbArc
 50
310.9952385808701
 51
55.23890256673896
  0
LINE
  5
1A6
330
1F
100
AcDbEntity
  8
Defpoints
100
AcDbLine
 10
162.4861291968564
 20
99.37559780684933
 30
0.0
 11
164.4608908560858
 21
99.58885695165827
 31
0.0
  0
LINE
  5
1A7
330
1F
100
AcDbEntity
  8
Defpoints
100
AcDbLine
 10
168.1886180024411
 20
79.13510955172839
 30
0.0
 11
168.1886180024411
 21
87.28704799085608
 31
0.0
  0
ARC
  5
1A8
330
1F
100
AcDbEntity
  8
Defpoints
100
AcDbCircle
 10
165.4849761960418
 20
88.65950246519062
 30
0.0
 40
3.0320472129291
100
AcDbArc
 50
218.9386356726172
 51
333.0862032143912
  0
ARC
  5
1A9
330
1F
100
AcDbEntity
  8
Defpoints
100
AcDbCircle
 10
154.4162210260697
 20
87.68040181124886
 30
0.0
 40
8.759506184906166
100
AcDbArc
 50
282.6972806815401
 51
353.9283979006399
  0
ARC
  5
1AA
330
1F
100
AcDbEntity
  8
Defpoints
100
AcDbCircle
 10
119.8518016216771
 20
81.98738984693607
 30
0.0
 40
2.862700341403671
100
AcDbArc
 50
274.890084111057
 51
354.0169513343264
  0
ARC
  5
1AB
330
1F
100
AcDbEntity
  8
Defpoints
100
AcDbCircle
 10
120.4228445489178
 20
81.58370314049887
 30
0.0
 40
2.278497935479623
100
AcDbArc
 50
2.64873147925393
 51
88.23041066963392
  0
ARC
  5
1AC
330
1F
100
AcDbEntity
  8
Defpoints
100
AcDbCircle
 10
120.5859154886062
 20
73.64817291772711
 30
0.0
 40
10.2133623141125
100
AcDbArc
 50
90.52010148511383
 51
129.2014846343817
  0
ARC
  5
1AD
330
1F
100
AcDbEntity
  8
Defpoints
100
AcDbCircle
 10
102.4066132525498
 20
97.56917099842761
 30
0.0
 40
19.84074495578459
100
AcDbArc
 50
291.7048490917345
 51
306.221103920464
  0
ARC
  5
1AE
330
1F
100
AcDbEntity
  8
Defpoints
100
AcDbCircle
 10
124.4440233475242
 20
82.1015885673288
 30
0.0
 40
3.109262665773826
100
AcDbArc
 50
287.4310805565858
 51
26.7365936046213
  0
ARC
  5
1AF
330
1F
100
AcDbEntity
  8
Defpoints
100
AcDbCircle
 10
123.8456692628114
 20
81.20333250482227
 30
0.0
 40
4.082703822656316
100
AcDbArc
 50
34.23836770105182
 51
92.72493346513378
  0
ARC
  5
1B0
330
1F
100
AcDbEntity
  8
Defpoints
100
AcDbCircle
 10
147.4582900825746
 20
62.9934608097244
 30
0.0
 40
32.61154558462476
100
AcDbArc
 50
122.2549814760677
 51
136.8871367600414
  0
ARC
  5
1B1
330
1F
100
AcDbEntity
  8
Defpoints
100
AcDbCircle
 10
133.0188523776442
 20
84.56508991718521
 30
0.0
 40
6.699193863889743
100
AcDbArc
 50
38.92842136252374
 51
116.2688504720517
  0
ARC
  5
1B2
330
1F
100
AcDbEntity
  8
Defpoints
100
AcDbCircle
 10
135.1773787162998
 20
86.22176634771511
 30
0.0
 40
3.979610044402653
100
AcDbArc
 50
304.0837116087345
 51
39.90067759653691
  0
ARC
  5
1B3
330
1F
100
AcDbEntity
  8
Defpoints
100
AcDbCircle
 10
136.259854728683
 20
84.53269641761194
 30
0.0
 40
1.974699607002203
100
AcDbArc
 50
186.6925107309062
 51
305.5355674754567
  0
ARC
  5
1B4
330
1F
100
AcDbEntity
  8
Defpoints
100
AcDbCircle
 10
134.9832214758958
 20
86.12242119465227
 30
0.0
 40
1.944370081495785
100
AcDbArc
 50
249.3842538873595
 51
26.97731483618436
  0
ARC
  5
1B5
330
1F
100
AcDbEntity
  8
Defpoints
100
AcDbCircle
 10
133.3503398432134
 20
85.15160658094675
 30
0.0
 40
3.841985561827335
100
AcDbArc
 50
28.83342038346145
 51
155.2050009330788
  0
ARC
  5
1B6
330
1F
100
AcDbEntity
  8
Defpoints
100
AcDbCircle
 10
135.20495244826
 20
84.6578221671327
 30
0.0
 40
5.742170901754806
100
AcDbArc
 50
158.4946789433194
 51
254.1083664934502
  0
ARC
  5
1B7
330
1F
100
AcDbEntity
  8
Defpoints
100
AcDbCircle
 10
134.7009129555495
 20
86.50553251490395
 30
0.0
 40
7.933251183840122
100
AcDbArc
 50
291.7120898155476
 51
73.88410764265133
  0
ARC
  5
1B8
330
1F
100
AcDbEntity
  8
Defpoints
100
AcDbCircle
 10
154.7133748366916
 20
74.10370461096738
 30
0.0
 40
26.79816374256688
100
AcDbArc
 50
103.3956884204746
 51
131.6524509163125
  0
ARC
  5
1B9
330
1F
100
AcDbEntity
  8
Defpoints
100
AcDbCircle
 10
148.8166764781522
 20
89.96361809253697
 30
0.0
 40
10.2139200421719
100
AcDbArc
 50
5.048153931620176
 51
91.74910351412579
  0
ARC
  5
1BA
330
1F
100
AcDbEntity
  8
Defpoints
100
AcDbCircle
 10
154.6284174007281
 20
90.10024673092944
 30
0.0
 40
4.428630270810097
100
AcDbArc
 50
220.8737951469114
 51
9.909377000860928
  0
ARC
  5
1BB
330
1F
100
AcDbEntity
  8
Defpoints
100
AcDbCircle
 10
154.1053770281191
 20
89.12088758538828
 30
0.0
 40
3.415543690332739
100
AcDbArc
 50
90.00000000000047
 51
214.1775756533837
  0
ARC
  5
1BC
330
1F
100
AcDbEntity
  8
Defpoints
100
AcDbCircle
 10
150.7931786646534
 20
93.33630259471084
 30
0.0
 40
3.40741135260884
100
AcDbArc
 50
346.4234333593402
 51
174.3847843368761
  0
ARC
  5
1BD
330
1F
100
AcDbEntity
  8
Defpoints
100
AcDbCircle
 10
147.8175039943497
 20
89.65479129942515
 30
0.0
 40
4.036347794570274
100
AcDbArc
 50
95.90684449616031
 51
275.7274959405361
  0
ARC
  5
1BE
330
1F
100
AcDbEntity
  8
Defpoints
100
AcDbCircle
 10
152.4667371752357
 20
83.74854196641036
 30
0.0
 40
4.648048078913834
100
AcDbArc
 50
156.0064719229733
 51
263.0030534437732
  0
ARC
  5
1BF
330
1F
100
AcDbEntity
  8
Defpoints
100
AcDbCircle
 10
91.84107552015344
 20
93.46432015087431
 30
0.0
 40
3.895512418614679
100
AcDbArc
 50
8.048544282571759
 51
66.74416987985044
  0
ARC
  5
1C0
330
1F
100
AcDbEntity
  8
Defpoints
100
AcDbCircle
 10
94.40065664086434
 20
80.22621244532588
 30
0.0
 40
13.84446684475208
100
AcDbArc
 50
84.62211353533197
 51
111.8947418979401
  0
ARC
  5
1C1
330
1F
100
AcDbEntity
  8
Defpoints
100
AcDbCircle
 10
86.87385287293217
 20
85.85770492001074
 30
0.0
 40
7.591874103094832
100
AcDbArc
 50
341.2689889326389
 51
71.85593366318471
  0
ARC
  5
1C2
330
1F
100
AcDbEntity
  8
Defpoints
100
AcDbCircle
 10
100.7720895886553
 20
83.16365430969126
 30
0.0
 40
15.72579291989668
100
AcDbArc
 50
63.26892511441783
 51
118.0417168871198
  0
ARC
  5
1C3
330
1F
100
AcDbEntity
  8
Defpoints
100
AcDbCircle
 10
103.5111857609211
 20
91.62738784207929
 30
0.0
 40
7.066773265524293
100
AcDbArc
 50
299.231396773979
 51
52.16772498772936
  0
ARC
  5
1C4
330
1F
100
AcDbEntity
  8
Defpoints
100
AcDbCircle
 10
106.3731157270767
 20
88.24863239891485
 30
0.0
 40
2.849641397342775
100
AcDbArc
 50
217.4271833199437
 51
281.9294972806976
  0
ARC
  5
1C5
330
1F
100
AcDbEntity
  8
Defpoints
100
AcDbCircle
 10
107.2653474415774
 20
89.0292086571153
 30
0.0
 40
4.033330388932962
100
AcDbArc
 50
106.4130992839162
 51
218.5298878921213
  0
ARC
  5
1C6
330
1F
100
AcDbEntity
  8
Defpoints
100
AcDbCircle
 10
101.7636120322517
 20
89.93535763299426
 30
0.0
 40
5.273139530428873
100
AcDbArc
 50
34.18524413437378
 51
163.9114017982576
  0
ARC
  5
1C7
330
1F
100
AcDbEntity
  8
Defpoints
100
AcDbCircle
 10
100.3387441512036
 20
90.76882311423041
 30
0.0
 40
3.695470232470274
100
AcDbArc
 50
170.2182347900553
 51
251.3447053949906
  0
ARC
  5
1C8
330
1F
100
AcDbEntity
  8
Defpoints
100
AcDbCircle
 10
100.2868350884379
 20
84.00086960693093
 30
0.0
 40
3.456624156239473
100
AcDbArc
 50
109.0843161117054
 51
317.7661839378221
  0
ARC
  5
1C9
330
1F
100
AcDbEntity
  8
Defpoints
100
AcDbCircle
 10
106.6883390439025
 20
83.23609768121857
 30
0.0
 40
4.146293268275643
100
AcDbArc
 50
202.0804408343129
 51
261.5223087068744
  0
ARC
  5
1CA
330
1F
100
AcDbEntity
  8
Defpoints
100
AcDbCircle
 10
86.69776738656052
 20
87.21051017156828
 30
0.0
 40
8.284069265490261
100
AcDbArc
 50
282.8872493970552
 51
332.7679599702173
  0
ARC
  5
1CB
330
1F
100
AcDbEntity
  8
Defpoints
100
AcDbCircle
 10
72.43035113033063
 20
87.02256085787487
 30
0.0
 40
1.1198734165683
100
AcDbArc
 50
15.16831594595093
 51
87.0175611803439
  0
ARC
  5
1CC
330
1F
100
AcDbEntity
  8
Defpoints
100
AcDbCircle
 10
67.16244376247127
 20
83.92538834447318
 30
0.0
 40
7.197238400417488
100
AcDbArc
 50
336.4058700215196
 51
28.10188385439275
  0
ARC
  5
1CD
330
1F
100
AcDbEntity
  8
Defpoints
100
AcDbCircle
 10
75.36562224183875
 20
80.26716393526662
 30
0.0
 40
1.36033820826799
100
AcDbArc
 50
303.6760498963201
 51
52.85102558507087
  0
ARC
  5
1CE
330
1F
100
AcDbEntity
  8
Defpoints
100
AcDbCircle
 10
75.26296563301454
 20
78.89874258723894
 30
0.0
 40
2.621031960308366
100
AcDbArc
 50
69.35416513902771
 51
125.0422685399952
  0
ARC
  5
1CF
330
1F
100
AcDbEntity
  8
Defpoints
100
AcDbCircle
 10
86.01034957475865
 20
83.88952285872049
 30
0.0
 40
4.754840387738799
100
AcDbArc
 50
148.4776355073708
 51
269.2320589094198
  0
ARC
  5
1D0
330
1F
100
AcDbEntity
  8
Defpoints
100
AcDbCircle
 10
84.45565093231984
 20
84.86451045271692
 30
0.0
 40
2.919862148683461
100
AcDbArc
 50
22.47982578380043
 51
148.8361359756467
  0
ARC
  5
1D1
330
1F
100
AcDbEntity
  8
Defpoints
100
AcDbCircle
 10
85.40684294017369
 20
85.82788275286874
 30
0.0
 40
1.753495160991676
100
AcDbArc
 50
242.594262588537
 51
5.007658311247459
  0
ARC
  5
1D2
330
1F
100
AcDbEntity
  8
Defpoints
100
AcDbCircle
 10
100.2805800157381
 20
65.45755596851741
 30
0.0
 40
29.57579708052748
100
AcDbArc
 50
123.8098589169737
 51
141.4157710407142
  0
ARC
  5
1D3
330
1F
100
AcDbEntity
  8
Defpoints
100
AcDbCircle
 10
85.98095090198048
 20
86.38920769018033
 30
0.0
 40
4.233542086023361
100
AcDbArc
 50
6.947822131446814
 51
120.6383350311271
  0
ARC
  5
1D4
330
1F
100
AcDbEntity
  8
Defpoints
100
AcDbCircle
 10
87.11673097947771
 20
86.16971765256296
 30
0.0
 40
3.152733858578046
100
AcDbArc
 50
217.0266620206777
 51
13.41798599486125
  0
ARC
  5
1D5
330
1F
100
AcDbEntity
  8
Defpoints
100
AcDbCircle
 10
77.45603899554334
 20
81.44661820613288
 30
0.0
 40
2.473917929991387
100
AcDbArc
 50
290.8763912424409
 51
96.83979876345556
  0
ARC
  5
557
330
1F
100
AcDbEntity
  8
Defpoints
100
AcDbCircle
 10
-22.33517835511708
 20
100.7408595875278
 30
0.0
 40
5.3728830927243
100
AcDbArc
 50
49.41068371694492
 51
84.51065344605432
  0
ARC
  5
558
330
1F
100
AcDbEntity
  8
Defpoints
100
AcDbCircle
 10
-13.89981815034534
 20
102.6522249486335
 30
0.0
 40
8.634841875502717
100
AcDbArc
 50
124.4172198899704
 51
156.5452682436661
  0
LINE
  5
559
330
1F
100
AcDbEntity
  8
Defpoints
100
AcDbLine
 10
-18.78035996107559
 20
109.7754830408725
 30
0.0
 11
-22.48314743260602
 21
112.5351095517284
 31
0.0
  0
LINE
  5
55A
330
1F
100
AcDbEntity
  8
Defpoints
100
AcDbLine
 10
-22.48314743260602
 20
112.5351095517284
 30
0.0
 11
-23.21138199755879
 21
112.5351095517284
 31
0.0
  0
LINE
  5
55B
330
1F
100
AcDbEntity
  8
Defpoints
100
AcDbLine
 10
-23.21138199755879
 20
112.5351095517284
 30
0.0
 11
-23.21138199755879
 21
99.37888028703355
 31
0.0
  0
LINE
  5
55C
330
1F
100
AcDbEntity
  8
Defpoints
100
AcDbLine
 10
-23.21138199755879
 20
99.37888028703355
 30
0.0
 11
-22.55745671219433
 21
99.37888028703355
 31
0.0
  0
ARC
  5
55D
330
1F
100
AcDbEntity
  8
Defpoints
100
AcDbCircle
 10
-13.59290209964089
 20
97.24543160000523
 30
0.0
 40
9.214924997070557
100
AcDbArc
 50
124.7048032774852
 51
166.6133638416638
  0
ARC
  5
55E
330
1F
100
AcDbEntity
  8
Defpoints
100
AcDbCircle
 10
3.591965645713401
 20
109.3481182819348
 30
0.0
 40
6.575302208521639
100
AcDbArc
 50
151.0077558297083
 51
173.3887099461253
  0
ARC
  5
55F
330
1F
100
AcDbEntity
  8
Defpoints
100
AcDbCircle
 10
-12.54852237291123
 20
90.96444533762813
 30
0.0
 40
21.41723171538913
100
AcDbArc
 50
63.34268842321009
 51
79.1387974230563
  0
ARC
  5
560
330
1F
100
AcDbEntity
  8
Defpoints
100
AcDbCircle
 10
-0.5805878732134034
 20
108.039359680027
 30
0.0
 40
8.865212103315087
100
AcDbArc
 50
153.4781721544734
 51
165.5355482047513
  0
ARC
  5
561
330
1F
100
AcDbEntity
  8
Defpoints
100
AcDbCircle
 10
-14.13919145587906
 20
102.4038625104025
 30
0.0
 40
9.293257651224552
100
AcDbArc
 50
57.63783530956563
 51
103.0024762226361
  0
LINE
  5
562
330
1F
100
AcDbEntity
  8
Defpoints
100
AcDbLine
 10
-16.23011090511812
 20
111.4588442126942
 30
0.0
 11
-16.53999660951143
 21
112.5351095517284
 31
0.0
  0
LINE
  5
563
330
1F
100
AcDbEntity
  8
Defpoints
100
AcDbLine
 10
-16.53999660951143
 20
112.5351095517284
 30
0.0
 11
-2.159354705271141
 21
112.5351095517284
 31
0.0
  0
LINE
  5
564
330
1F
100
AcDbEntity
  8
Defpoints
100
AcDbLine
 10
14.39157608084275
 20
112.5351095517284
 30
0.0
 11
1.188751149709389
 21
112.5351095517284
 31
0.0
  0
ARC
  5
565
330
1F
100
AcDbEntity
  8
Defpoints
100
AcDbCircle
 10
16.70963821051603
 20
107.2341824099076
 30
0.0
 40
5.785606329497175
100
AcDbArc
 50
113.6194566137042
 51
165.4252130854749
  0
ARC
  5
566
330
1F
100
AcDbEntity
  8
Defpoints
100
AcDbCircle
 10
5.831546102018648
 20
104.51414973278
 30
0.0
 40
6.73073693685077
100
AcDbArc
 50
38.3474525009694
 51
64.75372902642769
  0
ARC
  5
567
330
1F
100
AcDbEntity
  8
Defpoints
100
AcDbCircle
 10
19.20567847413201
 20
106.4077084899108
 30
0.0
 40
11.30988577682511
100
AcDbArc
 50
158.2319154188241
 51
189.1098608880901
  0
ARC
  5
568
330
1F
100
AcDbEntity
  8
Defpoints
100
AcDbCircle
 10
-23.03843101241219
 20
84.65509281664424
 30
0.0
 40
36.93577789441009
100
AcDbArc
 50
32.71428284717546
 51
49.01000576835485
  0
LINE
  5
569
330
1F
100
AcDbEntity
  8
Defpoints
100
AcDbLine
 10
44.39684227683443
 20
112.5351095517284
 30
0.0
 11
31.25581764836494
 21
112.5351095517284
 31
0.0
  0
ARC
  5
56A
330
1F
100
AcDbEntity
  8
Defpoints
100
AcDbCircle
 10
21.66211151485526
 20
79.96037291321847
 30
0.0
 40
33.95810160248097
100
AcDbArc
 50
58.26143682387799
 51
73.5895765747868
  0
ARC
  5
56B
330
1F
100
AcDbEntity
  8
Defpoints
100
AcDbCircle
 10
35.55220609772572
 20
109.4953351969357
 30
0.0
 40
4.027000570900505
100
AcDbArc
 50
350.6384315837915
 51
38.14938079693052
  0
ARC
  5
56C
330
1F
100
AcDbEntity
  8
Defpoints
100
AcDbCircle
 10
33.97058500895605
 20
91.00577397786755
 30
0.0
 40
21.5078232133511
100
AcDbArc
 50
57.6838547436585
 51
77.24523457219966
  0
ARC
  5
56D
330
1F
100
AcDbEntity
  8
Defpoints
100
AcDbCircle
 10
54.06936299386727
 20
113.7789373644614
 30
0.0
 40
9.752167177051353
100
AcDbArc
 50
187.3276770301517
 51
208.1218074823808
  0
LINE
  5
56E
330
1F
100
AcDbEntity
  8
Defpoints
100
AcDbLine
 10
61.63360750611861
 20
112.5351095517284
 30
0.0
 11
48.03095136984808
 21
112.5351095517284
 31
0.0
  0
LINE
  5
56F
330
1F
100
AcDbEntity
  8
Defpoints
100
AcDbLine
 10
48.03095136984808
 20
112.5351095517284
 30
0.0
 11
55.85334329400445
 21
104.2380247064047
 31
0.0
  0
ARC
  5
570
330
1F
100
AcDbEntity
  8
Defpoints
100
AcDbCircle
 10
68.70969580688309
 20
104.067651611516
 30
0.0
 40
12.85748136016004
100
AcDbArc
 50
151.103135461347
 51
179.240757602714
  0
ARC
  5
571
330
1F
100
AcDbEntity
  8
Defpoints
100
AcDbCircle
 10
52.63979784751109
 20
104.1731337259201
 30
0.0
 40
7.776355432693145
100
AcDbArc
 50
33.32260852034592
 51
51.75943313789524
  0
ARC
  5
572
330
1F
100
AcDbEntity
  8
Defpoints
100
AcDbCircle
 10
65.53001510357931
 20
107.3507042750756
 30
0.0
 40
6.485372020025905
100
AcDbArc
 50
126.9271717013559
 51
170.2849955149987
  0
ARC
  5
573
330
1F
100
AcDbEntity
  8
Defpoints
100
AcDbCircle
 10
70.97145273174598
 20
107.6611059517414
 30
0.0
 40
1.546602154971612
100
AcDbArc
 50
11.19658285127148
 51
172.0732872303802
  0
ARC
  5
574
330
1F
100
AcDbEntity
  8
Defpoints
100
AcDbCircle
 10
63.41502805500913
 20
106.4518007404136
 30
0.0
 40
6.19028029392967
100
AcDbArc
 50
13.28591565793921
 51
79.33296117729809
  0
LINE
  5
575
330
1F
100
AcDbEntity
  8
Defpoints
100
AcDbLine
 10
64.56085702287213
 20
112.5351095517284
 30
0.0
 11
72.4886180024412
 21
112.545863654916
 31
0.0
  0
ARC
  5
576
330
1F
100
AcDbEntity
  8
Defpoints
100
AcDbCircle
 10
67.08951574809827
 20
102.9709058954295
 30
0.0
 40
3.952764128316726
100
AcDbArc
 50
231.8532716390785
 51
33.68923639953535
  0
ARC
  5
577
330
1F
100
AcDbEntity
  8
Defpoints
100
AcDbCircle
 10
71.23793270928512
 20
106.1895474376244
 30
0.0
 40
1.338498539565918
100
AcDbArc
 50
230.0493614116891
 51
339.1304956722331
  0
ARC
  5
578
330
1F
100
AcDbEntity
  8
Defpoints
100
AcDbCircle
 10
61.67491756502432
 20
103.1888432596355
 30
0.0
 40
4.46148196450281
100
AcDbArc
 50
311.7886701039513
 51
42.71549635462235
  0
ARC
  5
579
330
1F
100
AcDbEntity
  8
Defpoints
100
AcDbCircle
 10
63.20488919008617
 20
104.5365399635324
 30
0.0
 40
2.423611696623608
100
AcDbArc
 50
43.84262262338242
 51
146.7890599211498
  0
ARC
  5
57A
330
1F
100
AcDbEntity
  8
Defpoints
100
AcDbCircle
 10
69.63452510575843
 20
101.4982148690177
 30
0.0
 40
9.517737510567652
100
AcDbArc
 50
152.6967017408878
 51
234.9430909237609
  0
ARC
  5
57B
330
1F
100
AcDbEntity
  8
Defpoints
100
AcDbCircle
 10
67.53769536945113
 20
92.97857962596243
 30
0.0
 40
3.447920117641436
100
AcDbArc
 50
91.87160159456375
 51
167.8007440346309
  0
ARC
  5
57C
330
1F
100
AcDbEntity
  8
Defpoints
100
AcDbCircle
 10
73.67916222772625
 20
93.54986827511027
 30
0.0
 40
6.883159647908901
100
AcDbArc
 50
155.3133184437195
 51
232.5948215203597
  0
ARC
  5
57D
330
1F
100
AcDbEntity
  8
Defpoints
100
AcDbCircle
 10
77.83508554220619
 20
89.01890739913186
 30
0.0
 40
8.389543002626167
100
AcDbArc
 50
153.5980726939508
 51
186.4107930368995
  0
ARC
  5
57E
330
1F
100
AcDbEntity
  8
Defpoints
100
AcDbCircle
 10
72.39905102062317
 20
91.42571287819018
 30
0.0
 40
2.464190290790099
100
AcDbArc
 50
87.91698688900824
 51
147.5075874021271
  0
ARC
  5
57F
330
1F
100
AcDbEntity
  8
Defpoints
100
AcDbCircle
 10
43.99516499803492
 20
84.40424934245625
 30
0.0
 40
18.30793265614515
100
AcDbArc
 50
61.08922940723896
 51
121.8580736581395
  0
ARC
  5
580
330
1F
100
AcDbEntity
  8
Defpoints
100
AcDbCircle
 10
40.04023292369427
 20
92.42476043255171
 30
0.0
 40
9.44869447765984
100
AcDbArc
 50
127.1667610699716
 51
213.9019670388203
  0
ARC
  5
581
330
1F
100
AcDbEntity
  8
Defpoints
100
AcDbCircle
 10
36.3973282985006
 20
90.4303276648825
 30
0.0
 40
19.25007738186027
100
AcDbArc
 50
31.29798191174824
 51
53.97170217160795
  0
ARC
  5
582
330
1F
100
AcDbEntity
  8
Defpoints
100
AcDbCircle
 10
42.28872570406061
 20
105.7462640202276
 30
0.0
 40
5.437052794082633
100
AcDbArc
 50
336.2021520279271
 51
2.657726961115141
  0
ARC
  5
583
330
1F
100
AcDbEntity
  8
Defpoints
100
AcDbCircle
 10
33.47752049515186
 20
88.37669430220856
 30
0.0
 40
20.50252800946245
100
AcDbArc
 50
47.74715963021177
 51
66.2774626255305
  0
ARC
  5
584
330
1F
100
AcDbEntity
  8
Defpoints
100
AcDbCircle
 10
34.39468413871833
 20
104.7852192680321
 30
0.0
 40
7.702161268834289
100
AcDbArc
 50
353.9048857819088
 51
17.85560099324492
  0
ARC
  5
585
330
1F
100
AcDbEntity
  8
Defpoints
100
AcDbCircle
 10
33.9195123117367
 20
90.75462960729032
 30
0.0
 40
15.51567378643387
100
AcDbArc
 50
58.38353007620298
 51
95.00090072705623
  0
ARC
  5
586
330
1F
100
AcDbEntity
  8
Defpoints
100
AcDbCircle
 10
28.02567563124343
 20
99.11306883648585
 30
0.0
 40
6.914845508627843
100
AcDbArc
 50
36.86833963040291
 51
63.67955830542709
  0
ARC
  5
587
330
1F
100
AcDbEntity
  8
Defpoints
100
AcDbCircle
 10
39.20543519241791
 20
89.08183666149628
 30
0.0
 40
15.26333513118831
100
AcDbArc
 50
111.7169762894141
 51
135.5769828985219
  0
ARC
  5
588
330
1F
100
AcDbEntity
  8
Defpoints
100
AcDbCircle
 10
26.77436245955991
 20
96.16210037956275
 30
0.0
 40
3.914735102504099
100
AcDbArc
 50
33.45744129938215
 51
66.99174947538191
  0
ARC
  5
589
330
1F
100
AcDbEntity
  8
Defpoints
100
AcDbCircle
 10
34.13615064191424
 20
93.32039369269654
 30
0.0
 40
6.463341768315216
100
AcDbArc
 50
129.322742860493
 51
252.5492106390428
  0
LINE
  5
58A
330
1F
100
AcDbEntity
  8
Defpoints
100
AcDbLine
 10
18.84461364234136
 20
112.2043509870859
 30
0.0
 11
18.73823149483502
 21
112.5351095517284
 31
0.0
  0
LINE
  5
58B
330
1F
100
AcDbEntity
  8
Defpoints
100
AcDbLine
 10
18.73823149483502
 20
112.5351095517284
 30
0.0
 11
25.95045711748531
 21
112.5351095517284
 31
0.0
  0
LINE
  5
58C
330
1F
100
AcDbEntity
  8
Defpoints
100
AcDbLine
 10
32.56698925047255
 20
106.2112403100213
 30
0.0
 11
31.09165594077834
 21
105.3110405329148
 31
0.0
  0
ARC
  5
58D
330
1F
100
AcDbEntity
  8
Defpoints
100
AcDbCircle
 10
38.00972138385538
 20
119.8881938575788
 30
0.0
 40
14.12422399479329
100
AcDbArc
 50
211.3725700835892
 51
232.9686892673407
  0
ARC
  5
58E
330
1F
100
AcDbEntity
  8
Defpoints
100
AcDbCircle
 10
35.57779608301724
 20
96.52868245961993
 30
0.0
 40
13.52489295266765
100
AcDbArc
 50
116.6877501345499
 51
140.6395613506349
  0
ARC
  5
58F
330
1F
100
AcDbEntity
  8
Defpoints
100
AcDbCircle
 10
29.48771282496572
 20
109.5761403343975
 30
0.0
 40
6.249123479403414
100
AcDbArc
 50
225.6679993836185
 51
255.1533484654088
  0
ARC
  5
590
330
1F
100
AcDbEntity
  8
Defpoints
100
AcDbCircle
 10
32.14801462250182
 20
91.43294482552576
 30
0.0
 40
12.83105501434152
100
AcDbArc
 50
109.3978931336506
 51
147.0874572690868
  0
ARC
  5
591
330
1F
100
AcDbEntity
  8
Defpoints
100
AcDbCircle
 10
25.00835209898254
 20
106.4797719366667
 30
0.0
 40
8.854189577556422
100
AcDbArc
 50
245.7823765380805
 51
273.4947978547032
  0
ARC
  5
592
330
1F
100
AcDbEntity
  8
Defpoints
100
AcDbCircle
 10
29.5138396655353
 20
92.19489837156002
 30
0.0
 40
6.73785208678781
100
AcDbArc
 50
126.0561965336034
 51
205.8029811237194
  0
ARC
  5
593
330
1F
100
AcDbEntity
  8
Defpoints
100
AcDbCircle
 10
24.90430265960096
 20
94.96687672880366
 30
0.0
 40
5.887817897592215
100
AcDbArc
 50
152.0052338934758
 51
255.6775048025665
  0
ARC
  5
594
330
1F
100
AcDbEntity
  8
Defpoints
100
AcDbCircle
 10
19.27809915910868
 20
94.97703388202873
 30
0.0
 40
2.786491045735435
100
AcDbArc
 50
81.17871980892516
 51
183.7808362224552
  0
ARC
  5
595
330
1F
100
AcDbEntity
  8
Defpoints
100
AcDbCircle
 10
21.94806143654098
 20
103.4840050036563
 30
0.0
 40
10.25842221198042
100
AcDbArc
 50
191.1112415636941
 51
237.9060803452036
  0
ARC
  5
596
330
1F
100
AcDbEntity
  8
Defpoints
100
AcDbCircle
 10
17.01359532955787
 20
102.1848237533701
 30
0.0
 40
5.176225181776471
100
AcDbArc
 50
104.7497597286338
 51
187.5238083633062
  0
ARC
  5
597
330
1F
100
AcDbEntity
  8
Defpoints
100
AcDbCircle
 10
15.79838290584234
 20
104.759095729686
 30
0.0
 40
2.433546736568219
100
AcDbArc
 50
353.4638194501988
 51
92.41737303850381
  0
ARC
  5
598
330
1F
100
AcDbEntity
  8
Defpoints
100
AcDbCircle
 10
15.15879425327634
 20
104.5378969348067
 30
0.0
 40
3.057827168083396
100
AcDbArc
 50
289.6905669746491
 51
358.9541450100905
  0
ARC
  5
599
330
1F
100
AcDbEntity
  8
Defpoints
100
AcDbCircle
 10
18.78583566862715
 20
102.4890224163831
 30
0.0
 40
2.726203892225599
100
AcDbArc
 50
197.728532537385
 51
31.77501673516091
  0
ARC
  5
59A
330
1F
100
AcDbEntity
  8
Defpoints
100
AcDbCircle
 10
18.40621563280662
 20
110.2808919315767
 30
0.0
 40
1.972786747974667
100
AcDbArc
 50
329.7927331201054
 51
77.16038316266787
  0
ARC
  5
59B
330
1F
100
AcDbEntity
  8
Defpoints
100
AcDbCircle
 10
20.80300357353872
 20
106.6426726607251
 30
0.0
 40
2.734625676757506
100
AcDbArc
 50
276.3075208875986
 51
104.6556200469966
  0
ARC
  5
59C
330
1F
100
AcDbEntity
  8
Defpoints
100
AcDbCircle
 10
-4.796698630469308
 20
82.83556111487817
 30
0.0
 40
21.11135794049221
100
AcDbArc
 50
58.29123647663809
 51
103.8485243035935
  0
ARC
  5
59D
330
1F
100
AcDbEntity
  8
Defpoints
100
AcDbCircle
 10
-5.23835429826596
 20
91.47896290807164
 30
0.0
 40
12.71966361404853
100
AcDbArc
 50
111.2566751444983
 51
181.3064070298366
  0
ARC
  5
59E
330
1F
100
AcDbEntity
  8
Defpoints
100
AcDbCircle
 10
-6.669287926364035
 20
95.10365585275797
 30
0.0
 40
14.16288648326541
100
AcDbArc
 50
23.696666257353
 51
58.19295527753267
  0
ARC
  5
59F
330
1F
100
AcDbEntity
  8
Defpoints
100
AcDbCircle
 10
-10.55224988791914
 20
93.97124185823484
 30
0.0
 40
15.16097609045818
100
AcDbArc
 50
46.47777064952605
 51
77.38783186461775
  0
ARC
  5
5A0
330
1F
100
AcDbEntity
  8
Defpoints
100
AcDbCircle
 10
-4.382941968592092
 20
108.0228709014943
 30
0.0
 40
5.253126665728918
100
AcDbArc
 50
324.3955780893767
 51
350.320990183118
  0
ARC
  5
5A1
330
1F
100
AcDbEntity
  8
Defpoints
100
AcDbCircle
 10
-10.17268851673668
 20
106.7115654259267
 30
0.0
 40
3.579407410323609
100
AcDbArc
 50
353.9452635867955
 51
35.03441248552523
  0
ARC
  5
5A2
330
1F
100
AcDbEntity
  8
Defpoints
100
AcDbCircle
 10
-12.00630161756174
 20
99.96078036245521
 30
0.0
 40
8.348840605217576
100
AcDbArc
 50
49.76198513580847
 51
128.3366291765723
  0
ARC
  5
5A3
330
1F
100
AcDbEntity
  8
Defpoints
100
AcDbCircle
 10
-18.67623179131476
 20
100.6715746927408
 30
0.0
 40
6.025339023626253
100
AcDbArc
 50
39.39342667459888
 51
75.67003420415399
  0
ARC
  5
5A4
330
1F
100
AcDbEntity
  8
Defpoints
100
AcDbCircle
 10
-13.18247065062337
 20
98.06759828553287
 30
0.0
 40
6.482218004579749
100
AcDbArc
 50
97.42192257308667
 51
166.4271325797832
  0
ARC
  5
5A5
330
1F
100
AcDbEntity
  8
Defpoints
100
AcDbCircle
 10
-14.5477470051589
 20
95.10888801032606
 30
0.0
 40
5.193572876877421
100
AcDbArc
 50
124.7610974332608
 51
229.0047614191297
  0
LINE
  5
5A6
330
1F
100
AcDbEntity
  8
Defpoints
100
AcDbLine
 10
-17.50889319197398
 20
99.37559780684933
 30
0.0
 11
-19.48365485120342
 21
99.58885695165827
 31
0.0
  0
LINE
  5
5A7
330
1F
100
AcDbEntity
  8
Defpoints
100
AcDbLine
 10
-23.21138199755879
 20
79.13510955172839
 30
0.0
 11
-23.21138199755879
 21
87.28704799085608
 31
0.0
  0
ARC
  5
5A8
330
1F
100
AcDbEntity
  8
Defpoints
100
AcDbCircle
 10
-20.50774019115946
 20
88.65950246519062
 30
0.0
 40
3.0320472129291
100
AcDbArc
 50
206.913796785609
 51
321.0613643273827
  0
ARC
  5
5A9
330
1F
100
AcDbEntity
  8
Defpoints
100
AcDbCircle
 10
-9.438985021187306
 20
87.68040181124886
 30
0.0
 40
8.759506184906166
100
AcDbArc
 50
186.0716020993601
 51
257.3027193184595
  0
ARC
  5
5AA
330
1F
100
AcDbEntity
  8
Defpoints
100
AcDbCircle
 10
25.12543438320527
 20
81.98738984693607
 30
0.0
 40
2.862700341403671
100
AcDbArc
 50
185.9830486656737
 51
265.1099158889436
  0
ARC
  5
5AB
330
1F
100
AcDbEntity
  8
Defpoints
100
AcDbCircle
 10
24.55439145596461
 20
81.58370314049887
 30
0.0
 40
2.278497935479623
100
AcDbArc
 50
91.76958933036535
 51
177.351268520746
  0
ARC
  5
5AC
330
1F
100
AcDbEntity
  8
Defpoints
100
AcDbCircle
 10
24.39132051627621
 20
73.64817291772711
 30
0.0
 40
10.2133623141125
100
AcDbArc
 50
50.79851536561868
 51
89.47989851488605
  0
ARC
  5
5AD
330
1F
100
AcDbEntity
  8
Defpoints
100
AcDbCircle
 10
42.57062275233258
 20
97.56917099842761
 30
0.0
 40
19.84074495578459
100
AcDbArc
 50
233.7788960795359
 51
248.2951509082656
  0
ARC
  5
5AE
330
1F
100
AcDbEntity
  8
Defpoints
100
AcDbCircle
 10
20.53321265735822
 20
82.1015885673288
 30
0.0
 40
3.109262665773826
100
AcDbArc
 50
153.2634063953785
 51
252.5689194434135
  0
ARC
  5
5AF
330
1F
100
AcDbEntity
  8
Defpoints
100
AcDbCircle
 10
21.131566742071
 20
81.20333250482227
 30
0.0
 40
4.082703822656316
100
AcDbArc
 50
87.27506653486564
 51
145.7616322989479
  0
ARC
  5
5B0
330
1F
100
AcDbEntity
  8
Defpoints
100
AcDbCircle
 10
-2.48105407769222
 20
62.9934608097244
 30
0.0
 40
32.61154558462476
100
AcDbArc
 50
43.11286323995812
 51
57.74501852393175
  0
ARC
  5
5B1
330
1F
100
AcDbEntity
  8
Defpoints
100
AcDbCircle
 10
11.95838362723816
 20
84.56508991718521
 30
0.0
 40
6.699193863889743
100
AcDbArc
 50
63.73114952794827
 51
141.0715786374764
  0
ARC
  5
5B2
330
1F
100
AcDbEntity
  8
Defpoints
100
AcDbCircle
 10
9.799857288582558
 20
86.22176634771511
 30
0.0
 40
3.979610044402653
100
AcDbArc
 50
140.0993224034634
 51
235.916288391265
  0
ARC
  5
5B3
330
1F
100
AcDbEntity
  8
Defpoints
100
AcDbCircle
 10
8.717381276199404
 20
84.53269641761194
 30
0.0
 40
1.974699607002203
100
AcDbArc
 50
234.4644325245439
 51
353.3074892690938
  0
ARC
  5
5B4
330
1F
100
AcDbEntity
  8
Defpoints
100
AcDbCircle
 10
9.994014528986554
 20
86.12242119465227
 30
0.0
 40
1.944370081495785
100
AcDbArc
 50
153.0226851638153
 51
290.6157461126402
  0
ARC
  5
5B5
330
1F
100
AcDbEntity
  8
Defpoints
100
AcDbCircle
 10
11.62689616166898
 20
85.15160658094675
 30
0.0
 40
3.841985561827335
100
AcDbArc
 50
24.79499906692132
 51
151.1665796165387
  0
ARC
  5
5B6
330
1F
100
AcDbEntity
  8
Defpoints
100
AcDbCircle
 10
9.77228355662234
 20
84.6578221671327
 30
0.0
 40
5.742170901754806
100
AcDbArc
 50
285.8916335065506
 51
21.50532105668049
  0
ARC
  5
5B7
330
1F
100
AcDbEntity
  8
Defpoints
100
AcDbCircle
 10
10.27632304933288
 20
86.50553251490395
 30
0.0
 40
7.933251183840122
100
AcDbArc
 50
106.1158923573479
 51
248.2879101844527
  0
ARC
  5
5B8
330
1F
100
AcDbEntity
  8
Defpoints
100
AcDbCircle
 10
-9.736138831809228
 20
74.10370461096738
 30
0.0
 40
26.79816374256688
100
AcDbArc
 50
48.34754908368783
 51
76.60431157952563
  0
ARC
  5
5B9
330
1F
100
AcDbEntity
  8
Defpoints
100
AcDbCircle
 10
-3.839440473269775
 20
89.96361809253697
 30
0.0
 40
10.2139200421719
100
AcDbArc
 50
88.25089648587377
 51
174.9518460683798
  0
ARC
  5
5BA
330
1F
100
AcDbEntity
  8
Defpoints
100
AcDbCircle
 10
-9.651181395845725
 20
90.10024673092944
 30
0.0
 40
4.428630270810097
100
AcDbArc
 50
170.0906229991391
 51
319.1262048530884
  0
ARC
  5
5BB
330
1F
100
AcDbEntity
  8
Defpoints
100
AcDbCircle
 10
-9.128141023236764
 20
89.12088758538828
 30
0.0
 40
3.415543690332739
100
AcDbArc
 50
325.8224243466166
 51
90.0
  0
ARC
  5
5BC
330
1F
100
AcDbEntity
  8
Defpoints
100
AcDbCircle
 10
-5.815942659770996
 20
93.33630259471084
 30
0.0
 40
3.40741135260884
100
AcDbArc
 50
5.615215663123906
 51
193.5765666406599
  0
ARC
  5
5BD
330
1F
100
AcDbEntity
  8
Defpoints
100
AcDbCircle
 10
-2.840267989467321
 20
89.65479129942515
 30
0.0
 40
4.036347794570274
100
AcDbArc
 50
264.2725040594639
 51
84.09315550384031
  0
ARC
  5
5BE
330
1F
100
AcDbEntity
  8
Defpoints
100
AcDbCircle
 10
-7.489501170353321
 20
83.74854196641036
 30
0.0
 40
4.648048078913834
100
AcDbArc
 50
276.9969465562273
 51
23.99352807702658
  0
ARC
  5
5BF
330
1F
100
AcDbEntity
  8
Defpoints
100
AcDbCircle
 10
53.13616048472896
 20
93.46432015087431
 30
0.0
 40
3.895512418614679
100
AcDbArc
 50
113.2558301201494
 51
171.9514557174283
  0
ARC
  5
5C0
330
1F
100
AcDbEntity
  8
Defpoints
100
AcDbCircle
 10
50.57657936401806
 20
80.22621244532588
 30
0.0
 40
13.84446684475208
100
AcDbArc
 50
68.10525810206016
 51
95.37788646466868
  0
ARC
  5
5C1
330
1F
100
AcDbEntity
  8
Defpoints
100
AcDbCircle
 10
58.10338313195022
 20
85.85770492001074
 30
0.0
 40
7.591874103094832
100
AcDbArc
 50
108.144066336815
 51
198.7310110673611
  0
ARC
  5
5C2
330
1F
100
AcDbEntity
  8
Defpoints
100
AcDbCircle
 10
44.20514641622708
 20
83.16365430969126
 30
0.0
 40
15.72579291989668
100
AcDbArc
 50
61.95828311287989
 51
116.7310748855818
  0
ARC
  5
5C3
330
1F
100
AcDbEntity
  8
Defpoints
100
AcDbCircle
 10
41.46605024396122
 20
91.62738784207929
 30
0.0
 40
7.066773265524293
100
AcDbArc
 50
127.8322750122708
 51
240.7686032260214
  0
ARC
  5
5C4
330
1F
100
AcDbEntity
  8
Defpoints
100
AcDbCircle
 10
38.60412027780564
 20
88.24863239891485
 30
0.0
 40
2.849641397342775
100
AcDbArc
 50
258.0705027193028
 51
322.5728166800568
  0
ARC
  5
5C5
330
1F
100
AcDbEntity
  8
Defpoints
100
AcDbCircle
 10
37.71188856330498
 20
89.0292086571153
 30
0.0
 40
4.033330388932962
100
AcDbArc
 50
321.4701121078787
 51
73.58690071608453
  0
ARC
  5
5C6
330
1F
100
AcDbEntity
  8
Defpoints
100
AcDbCircle
 10
43.21362397263063
 20
89.93535763299426
 30
0.0
 40
5.273139530428873
100
AcDbArc
 50
16.08859820174258
 51
145.8147558656265
  0
ARC
  5
5C7
330
1F
100
AcDbEntity
  8
Defpoints
100
AcDbCircle
 10
44.63849185367876
 20
90.76882311423041
 30
0.0
 40
3.695470232470274
100
AcDbArc
 50
288.6552946050093
 51
9.781765209944692
  0
ARC
  5
5C8
330
1F
100
AcDbEntity
  8
Defpoints
100
AcDbCircle
 10
44.69040091644447
 20
84.00086960693093
 30
0.0
 40
3.456624156239473
100
AcDbArc
 50
222.2338160621775
 51
70.9156838882939
  0
ARC
  5
5C9
330
1F
100
AcDbEntity
  8
Defpoints
100
AcDbCircle
 10
38.28889696097984
 20
83.23609768121857
 30
0.0
 40
4.146293268275643
100
AcDbArc
 50
278.4776912931262
 51
337.919559165687
  0
ARC
  5
5CA
330
1F
100
AcDbEntity
  8
Defpoints
100
AcDbCircle
 10
58.27946861832187
 20
87.21051017156828
 30
0.0
 40
8.284069265490261
100
AcDbArc
 50
207.2320400297823
 51
257.1127506029447
  0
ARC
  5
5CB
330
1F
100
AcDbEntity
  8
Defpoints
100
AcDbCircle
 10
72.54688487455176
 20
87.02256085787487
 30
0.0
 40
1.1198734165683
100
AcDbArc
 50
92.98243881965603
 51
164.8316840540491
  0
ARC
  5
5CC
330
1F
100
AcDbEntity
  8
Defpoints
100
AcDbCircle
 10
77.81479224241113
 20
83.92538834447318
 30
0.0
 40
7.197238400417488
100
AcDbArc
 50
151.8981161456069
 51
203.5941299784807
  0
ARC
  5
5CD
330
1F
100
AcDbEntity
  8
Defpoints
100
AcDbCircle
 10
69.61161376304365
 20
80.26716393526662
 30
0.0
 40
1.36033820826799
100
AcDbArc
 50
127.1489744149291
 51
236.3239501036803
  0
ARC
  5
5CE
330
1F
100
AcDbEntity
  8
Defpoints
100
AcDbCircle
 10
69.71427037186785
 20
78.89874258723894
 30
0.0
 40
2.621031960308366
100
AcDbArc
 50
54.95773146000446
 51
110.6458348609717
  0
ARC
  5
5CF
330
1F
100
AcDbEntity
  8
Defpoints
100
AcDbCircle
 10
58.96688643012374
 20
83.88952285872049
 30
0.0
 40
4.754840387738799
100
AcDbArc
 50
270.7679410905797
 51
31.52236449262943
  0
ARC
  5
5D0
330
1F
100
AcDbEntity
  8
Defpoints
100
AcDbCircle
 10
60.52158507256256
 20
84.86451045271692
 30
0.0
 40
2.919862148683461
100
AcDbArc
 50
31.16386402435301
 51
157.5201742161996
  0
ARC
  5
5D1
330
1F
100
AcDbEntity
  8
Defpoints
100
AcDbCircle
 10
59.57039306470871
 20
85.82788275286874
 30
0.0
 40
1.753495160991676
100
AcDbArc
 50
174.9923416887525
 51
297.4057374114635
  0
ARC
  5
5D2
330
1F
100
AcDbEntity
  8
Defpoints
100
AcDbCircle
 10
44.69665598914429
 20
65.45755596851741
 30
0.0
 40
29.57579708052748
100
AcDbArc
 50
38.58422895928536
 51
56.19014108302634
  0
ARC
  5
5D3
330
1F
100
AcDbEntity
  8
Defpoints
100
AcDbCircle
 10
58.99628510290191
 20
86.38920769018033
 30
0.0
 40
4.233542086023361
100
AcDbArc
 50
59.3616649688723
 51
173.0521778685533
  0
ARC
  5
5D4
330
1F
100
AcDbEntity
  8
Defpoints
100
AcDbCircle
 10
57.86050502540468
 20
86.16971765256296
 30
0.0
 40
3.152733858578046
100
AcDbArc
 50
166.5820140051386
 51
322.9733379793221
  0
ARC
  5
5D5
330
1F
100
AcDbEntity
  8
Defpoints
100
AcDbCircle
 10
67.52119700933906
 20
81.44661820613288
 30
0.0
 40
2.473917929991387
100
AcDbArc
 50
83.16020123654372
 51
249.1236087575599
  0
ARC
  5
5D6
330
1F
100
AcDbEntity
  8
Defpoints
100
AcDbCircle
 10
167.3124143599995
 20
57.52935951592897
 30
0.0
 40
5.3728830927243
100
AcDbArc
 50
229.4106837169457
 51
264.5106534460537
  0
ARC
  5
5D7
330
1F
100
AcDbEntity
  8
Defpoints
100
AcDbCircle
 10
158.8770541552277
 20
55.61799415482328
 30
0.0
 40
8.634841875502717
100
AcDbArc
 50
304.4172198899705
 51
336.5452682436662
  0
LINE
  5
5D8
330
1F
100
AcDbEntity
  8
Defpoints
100
AcDbLine
 10
163.757595965958
 20
48.49473606258422
 30
0.0
 11
167.4603834374884
 21
45.7351095517284
 31
0.0
  0
LINE
  5
5D9
330
1F
100
AcDbEntity
  8
Defpoints
100
AcDbLine
 10
167.4603834374884
 20
45.7351095517284
 30
0.0
 11
168.1886180024411
 21
45.7351095517284
 31
0.0
  0
LINE
  5
5DA
330
1F
100
AcDbEntity
  8
Defpoints
100
AcDbLine
 10
168.1886180024411
 20
45.7351095517284
 30
0.0
 11
168.1886180024411
 21
58.89133881642322
 31
0.0
  0
LINE
  5
5DB
330
1F
100
AcDbEntity
  8
Defpoints
100
AcDbLine
 10
168.1886180024411
 20
58.89133881642322
 30
0.0
 11
167.5346927170767
 21
58.89133881642322
 31
0.0
  0
ARC
  5
5DC
330
1F
100
AcDbEntity
  8
Defpoints
100
AcDbCircle
 10
158.5701381045233
 20
61.02478750345155
 30
0.0
 40
9.214924997070557
100
AcDbArc
 50
304.704803277485
 51
346.6133638416633
  0
ARC
  5
5DD
330
1F
100
AcDbEntity
  8
Defpoints
100
AcDbCircle
 10
141.385270359169
 20
48.922100821522
 30
0.0
 40
6.575302208521639
100
AcDbArc
 50
331.0077558297081
 51
353.3887099461248
  0
ARC
  5
5DE
330
1F
100
AcDbEntity
  8
Defpoints
100
AcDbCircle
 10
157.5257583777936
 20
67.30577376582864
 30
0.0
 40
21.41723171538913
100
AcDbArc
 50
243.3426884232106
 51
259.1387974230562
  0
ARC
  5
5DF
330
1F
100
AcDbEntity
  8
Defpoints
100
AcDbCircle
 10
145.5578238780958
 20
50.2308594234297
 30
0.0
 40
8.865212103315087
100
AcDbArc
 50
333.4781721544738
 51
345.5355482047508
  0
ARC
  5
5E0
330
1F
100
AcDbEntity
  8
Defpoints
100
AcDbCircle
 10
159.1164274607614
 20
55.86635659305428
 30
0.0
 40
9.293257651224552
100
AcDbArc
 50
237.6378353095655
 51
283.0024762226354
  0
LINE
  5
5E1
330
1F
100
AcDbEntity
  8
Defpoints
100
AcDbLine
 10
161.2073469100005
 20
46.81137489076258
 30
0.0
 11
161.5172326143938
 21
45.7351095517284
 31
0.0
  0
LINE
  5
5E2
330
1F
100
AcDbEntity
  8
Defpoints
100
AcDbLine
 10
161.5172326143938
 20
45.7351095517284
 30
0.0
 11
147.1365907101535
 21
45.7351095517284
 31
0.0
  0
LINE
  5
5E3
330
1F
100
AcDbEntity
  8
Defpoints
100
AcDbLine
 10
130.5856599240396
 20
45.7351095517284
 30
0.0
 11
143.788484855173
 21
45.7351095517284
 31
0.0
  0
ARC
  5
5E4
330
1F
100
AcDbEntity
  8
Defpoints
100
AcDbCircle
 10
128.2675977943663
 20
51.03603669354919
 30
0.0
 40
5.785606329497175
100
AcDbArc
 50
293.619456613704
 51
345.4252130854754
  0
ARC
  5
5E5
330
1F
100
AcDbEntity
  8
Defpoints
100
AcDbCircle
 10
139.1456899028637
 20
53.75606937067679
 30
0.0
 40
6.73073693685077
100
AcDbArc
 50
218.3474525009694
 51
244.7537290264286
  0
ARC
  5
5E6
330
1F
100
AcDbEntity
  8
Defpoints
100
AcDbCircle
 10
125.7715575307503
 20
51.86251061354598
 30
0.0
 40
11.30988577682511
100
AcDbArc
 50
338.2319154188247
 51
9.109860888089677
  0
ARC
  5
5E7
330
1F
100
AcDbEntity
  8
Defpoints
100
AcDbCircle
 10
168.0156670172946
 20
73.61512628681254
 30
0.0
 40
36.93577789441009
100
AcDbArc
 50
212.7142828471755
 51
229.0100057683547
  0
LINE
  5
5E8
330
1F
100
AcDbEntity
  8
Defpoints
100
AcDbLine
 10
100.5803937280479
 20
45.7351095517284
 30
0.0
 11
113.7214183565174
 21
45.7351095517284
 31
0.0
  0
ARC
  5
5E9
330
1F
100
AcDbEntity
  8
Defpoints
100
AcDbCircle
 10
123.3151244900271
 20
78.3098461902383
 30
0.0
 40
33.95810160248097
100
AcDbArc
 50
238.2614368238784
 51
253.5895765747863
  0
ARC
  5
5EA
330
1F
100
AcDbEntity
  8
Defpoints
100
AcDbCircle
 10
109.4250299071567
 20
48.77488390652111
 30
0.0
 40
4.027000570900505
100
AcDbArc
 50
170.6384315837907
 51
218.1493807969313
  0
ARC
  5
5EB
330
1F
100
AcDbEntity
  8
Defpoints
100
AcDbCircle
 10
111.0066509959263
 20
67.26444512558924
 30
0.0
 40
21.5078232133511
100
AcDbArc
 50
237.6838547436589
 51
257.2452345721995
  0
ARC
  5
5EC
330
1F
100
AcDbEntity
  8
Defpoints
100
AcDbCircle
 10
90.90787301101512
 20
44.4912817389954
 30
0.0
 40
9.752167177051353
100
AcDbArc
 50
7.327677030151291
 51
28.12180748238119
  0
LINE
  5
5ED
330
1F
100
AcDbEntity
  8
Defpoints
100
AcDbLine
 10
83.34362849876379
 20
45.7351095517284
 30
0.0
 11
96.94628463503432
 21
45.7351095517284
 31
0.0
  0
LINE
  5
5EE
330
1F
100
AcDbEntity
  8
Defpoints
100
AcDbLine
 10
96.94628463503432
 20
45.7351095517284
 30
0.0
 11
89.12389271087794
 21
54.03219439705202
 31
0.0
  0
ARC
  5
5EF
330
1F
100
AcDbEntity
  8
Defpoints
100
AcDbCircle
 10
76.26754019799931
 20
54.20256749194071
 30
0.0
 40
12.85748136016004
100
AcDbArc
 50
331.1031354613461
 51
359.2407576027145
  0
ARC
  5
5F0
330
1F
100
AcDbEntity
  8
Defpoints
100
AcDbCircle
 10
92.33743815737131
 20
54.09708537753669
 30
0.0
 40
7.776355432693145
100
AcDbArc
 50
213.3226085203457
 51
231.759433137895
  0
ARC
  5
5F1
330
1F
100
AcDbEntity
  8
Defpoints
100
AcDbCircle
 10
79.44722090130309
 20
50.91951482838119
 30
0.0
 40
6.485372020025905
100
AcDbArc
 50
306.927171701356
 51
350.2849955149993
  0
ARC
  5
5F2
330
1F
100
AcDbEntity
  8
Defpoints
100
AcDbCircle
 10
74.00578327313642
 20
50.60911315171539
 30
0.0
 40
1.546602154971612
100
AcDbArc
 50
191.1965828512715
 51
352.0732872303804
  0
ARC
  5
5F3
330
1F
100
AcDbEntity
  8
Defpoints
100
AcDbCircle
 10
81.56220794987326
 20
51.81841836304318
 30
0.0
 40
6.19028029392967
100
AcDbArc
 50
193.2859156579388
 51
259.3329611772988
  0
LINE
  5
5F4
330
1F
100
AcDbEntity
  8
Defpoints
100
AcDbLine
 10
80.41637898201027
 20
45.7351095517284
 30
0.0
 11
72.4886180024412
 21
45.72435544854073
 31
0.0
  0
ARC
  5
5F5
330
1F
100
AcDbEntity
  8
Defpoints
100
AcDbCircle
 10
77.88772025678413
 20
55.29931320802727
 30
0.0
 40
3.952764128316726
100
AcDbArc
 50
51.85327163907822
 51
213.6892363995351
  0
ARC
  5
5F6
330
1F
100
AcDbEntity
  8
Defpoints
100
AcDbCircle
 10
73.73930329559728
 20
52.08067166583237
 30
0.0
 40
1.338498539565918
100
AcDbArc
 50
50.04936141168861
 51
159.1304956722329
  0
ARC
  5
5F7
330
1F
100
AcDbEntity
  8
Defpoints
100
AcDbCircle
 10
83.30231843985808
 20
55.08137584382129
 30
0.0
 40
4.46148196450281
100
AcDbArc
 50
131.7886701039509
 51
222.7154963546221
  0
ARC
  5
5F8
330
1F
100
AcDbEntity
  8
Defpoints
100
AcDbCircle
 10
81.77234681479623
 20
53.73367913992435
 30
0.0
 40
2.423611696623608
100
AcDbArc
 50
223.8426226233821
 51
326.7890599211498
  0
ARC
  5
5F9
330
1F
100
AcDbEntity
  8
Defpoints
100
AcDbCircle
 10
75.34271089912397
 20
56.77200423443905
 30
0.0
 40
9.517737510567652
100
AcDbArc
 50
332.6967017408871
 51
54.94309092376058
  0
ARC
  5
5FA
330
1F
100
AcDbEntity
  8
Defpoints
100
AcDbCircle
 10
77.43954063543127
 20
65.29163947749435
 30
0.0
 40
3.447920117641436
100
AcDbArc
 50
271.8716015945644
 51
347.8007440346311
  0
ARC
  5
5FB
330
1F
100
AcDbEntity
  8
Defpoints
100
AcDbCircle
 10
71.29807377715614
 20
64.72035082834651
 30
0.0
 40
6.883159647908901
100
AcDbArc
 50
335.313318443719
 51
52.59482152035962
  0
ARC
  5
5FC
330
1F
100
AcDbEntity
  8
Defpoints
100
AcDbCircle
 10
67.14215046267622
 20
69.25131170432492
 30
0.0
 40
8.389543002626167
100
AcDbArc
 50
333.5980726939514
 51
6.410793036899836
  0
ARC
  5
5FD
330
1F
100
AcDbEntity
  8
Defpoints
100
AcDbCircle
 10
72.57818498425923
 20
66.8445062252666
 30
0.0
 40
2.464190290790099
100
AcDbArc
 50
267.9169868890076
 51
327.5075874021276
  0
ARC
  5
5FE
330
1F
100
AcDbEntity
  8
Defpoints
100
AcDbCircle
 10
100.9820710068475
 20
73.86596976100054
 30
0.0
 40
18.30793265614515
100
AcDbArc
 50
241.0892294072392
 51
301.85807365814
  0
ARC
  5
5FF
330
1F
100
AcDbEntity
  8
Defpoints
100
AcDbCircle
 10
104.9370030811881
 20
65.84545867090506
 30
0.0
 40
9.44869447765984
100
AcDbArc
 50
307.1667610699716
 51
33.9019670388208
  0
ARC
  5
600
330
1F
100
AcDbEntity
  8
Defpoints
100
AcDbCircle
 10
108.5799077063818
 20
67.83989143857427
 30
0.0
 40
19.25007738186027
100
AcDbArc
 50
211.2979819117483
 51
233.9717021716074
  0
ARC
  5
601
330
1F
100
AcDbEntity
  8
Defpoints
100
AcDbCircle
 10
102.6885103008218
 20
52.52395508322914
 30
0.0
 40
5.437052794082633
100
AcDbArc
 50
156.2021520279268
 51
182.6577269611154
  0
ARC
  5
602
330
1F
100
AcDbEntity
  8
Defpoints
100
AcDbCircle
 10
111.4997155097305
 20
69.89352480124821
 30
0.0
 40
20.50252800946245
100
AcDbArc
 50
227.7471596302117
 51
246.2774626255307
  0
ARC
  5
603
330
1F
100
AcDbEntity
  8
Defpoints
100
AcDbCircle
 10
110.5825518661641
 20
53.48499983542466
 30
0.0
 40
7.702161268834289
100
AcDbArc
 50
173.9048857819092
 51
197.855600993245
  0
ARC
  5
604
330
1F
100
AcDbEntity
  8
Defpoints
100
AcDbCircle
 10
111.0577236931457
 20
67.51558949616645
 30
0.0
 40
15.51567378643387
100
AcDbArc
 50
238.3835300762033
 51
275.0009007270555
  0
ARC
  5
605
330
1F
100
AcDbEntity
  8
Defpoints
100
AcDbCircle
 10
116.9515603736389
 20
59.15715026697094
 30
0.0
 40
6.914845508627843
100
AcDbArc
 50
216.8683396304027
 51
243.6795583054271
  0
ARC
  5
606
330
1F
100
AcDbEntity
  8
Defpoints
100
AcDbCircle
 10
105.7718008124645
 20
69.1883824419605
 30
0.0
 40
15.26333513118831
100
AcDbArc
 50
291.7169762894145
 51
315.5769828985215
  0
ARC
  5
607
330
1F
100
AcDbEntity
  8
Defpoints
100
AcDbCircle
 10
118.2028735453225
 20
62.10811872389403
 30
0.0
 40
3.914735102504099
100
AcDbArc
 50
213.4574412993816
 51
246.9917494753818
  0
ARC
  5
608
330
1F
100
AcDbEntity
  8
Defpoints
100
AcDbCircle
 10
110.8410853629681
 20
64.94982541076024
 30
0.0
 40
6.463341768315216
100
AcDbArc
 50
309.3227428604932
 51
72.54921063904355
  0
LINE
  5
609
330
1F
100
AcDbEntity
  8
Defpoints
100
AcDbLine
 10
126.132622362541
 20
46.06586811637083
 30
0.0
 11
126.2390045100474
 21
45.7351095517284
 31
0.0
  0
LINE
  5
60A
330
1F
100
AcDbEntity
  8
Defpoints
100
AcDbLine
 10
126.2390045100474
 20
45.7351095517284
 30
0.0
 11
119.026778887397
 21
45.7351095517284
 31
0.0
  0
LINE
  5
60B
330
1F
100
AcDbEntity
  8
Defpoints
100
AcDbLine
 10
112.4102467544098
 20
52.05897879343542
 30
0.0
 11
113.885580064104
 21
52.95917857054195
 31
0.0
  0
ARC
  5
60C
330
1F
100
AcDbEntity
  8
Defpoints
100
AcDbCircle
 10
106.967514621027
 20
38.38202524587793
 30
0.0
 40
14.12422399479329
100
AcDbArc
 50
31.37257008358969
 51
52.96868926734064
  0
ARC
  5
60D
330
1F
100
AcDbEntity
  8
Defpoints
100
AcDbCircle
 10
109.3994399218651
 20
61.74153664383685
 30
0.0
 40
13.52489295266765
100
AcDbArc
 50
296.6877501345493
 51
320.6395613506352
  0
ARC
  5
60E
330
1F
100
AcDbEntity
  8
Defpoints
100
AcDbCircle
 10
115.4895231799166
 20
48.69407876905923
 30
0.0
 40
6.249123479403414
100
AcDbArc
 50
45.66799938361851
 51
75.15334846540929
  0
ARC
  5
60F
330
1F
100
AcDbEntity
  8
Defpoints
100
AcDbCircle
 10
112.8292213823806
 20
66.83727427793101
 30
0.0
 40
12.83105501434152
100
AcDbArc
 50
289.3978931336514
 51
327.0874572690865
  0
ARC
  5
610
330
1F
100
AcDbEntity
  8
Defpoints
100
AcDbCircle
 10
119.9688839058998
 20
51.79044716679006
 30
0.0
 40
8.854189577556422
100
AcDbArc
 50
65.78237653808077
 51
93.49479785470242
  0
ARC
  5
611
330
1F
100
AcDbEntity
  8
Defpoints
100
AcDbCircle
 10
115.4633963393471
 20
66.07532073189677
 30
0.0
 40
6.73785208678781
100
AcDbArc
 50
306.0561965336029
 51
25.80298112371914
  0
ARC
  5
612
330
1F
100
AcDbEntity
  8
Defpoints
100
AcDbCircle
 10
120.0729333452814
 20
63.30334237465312
 30
0.0
 40
5.887817897592215
100
AcDbArc
 50
332.0052338934756
 51
75.67750480256646
  0
ARC
  5
613
330
1F
100
AcDbEntity
  8
Defpoints
100
AcDbCircle
 10
125.6991368457737
 20
63.29318522142805
 30
0.0
 40
2.786491045735435
100
AcDbArc
 50
261.1787198089249
 51
3.780836222455973
  0
ARC
  5
614
330
1F
100
AcDbEntity
  8
Defpoints
100
AcDbCircle
 10
123.0291745683414
 20
54.78621409980049
 30
0.0
 40
10.25842221198042
100
AcDbArc
 50
11.11124156369472
 51
57.90608034520339
  0
ARC
  5
615
330
1F
100
AcDbEntity
  8
Defpoints
100
AcDbCircle
 10
127.9636406753245
 20
56.08539535008671
 30
0.0
 40
5.176225181776471
100
AcDbArc
 50
284.7497597286336
 51
7.523808363306343
  0
ARC
  5
616
330
1F
100
AcDbEntity
  8
Defpoints
100
AcDbCircle
 10
129.17885309904
 20
53.5111233737708
 30
0.0
 40
2.433546736568219
100
AcDbArc
 50
173.4638194501994
 51
272.4173730385041
  0
ARC
  5
617
330
1F
100
AcDbEntity
  8
Defpoints
100
AcDbCircle
 10
129.818441751606
 20
53.73232216865
 30
0.0
 40
3.057827168083396
100
AcDbArc
 50
109.6905669746498
 51
178.9541450100902
  0
ARC
  5
618
330
1F
100
AcDbEntity
  8
Defpoints
100
AcDbCircle
 10
126.1914003362552
 20
55.7811966870737
 30
0.0
 40
2.726203892225599
100
AcDbArc
 50
17.72853253738478
 51
211.7750167351609
  0
ARC
  5
619
330
1F
100
AcDbEntity
  8
Defpoints
100
AcDbCircle
 10
126.5710203720757
 20
47.98932717188006
 30
0.0
 40
1.972786747974667
100
AcDbArc
 50
149.7927331201049
 51
257.1603831626673
  0
ARC
  5
61A
330
1F
100
AcDbEntity
  8
Defpoints
100
AcDbCircle
 10
124.1742324313437
 20
51.62754644273164
 30
0.0
 40
2.734625676757506
100
AcDbArc
 50
96.30752088759859
 51
284.6556200469974
  0
ARC
  5
61B
330
1F
100
AcDbEntity
  8
Defpoints
100
AcDbCircle
 10
149.7739346353517
 20
75.43465798857861
 30
0.0
 40
21.11135794049221
100
AcDbArc
 50
238.2912364766385
 51
283.8485243035933
  0
ARC
  5
61C
330
1F
100
AcDbEntity
  8
Defpoints
100
AcDbCircle
 10
150.2155903031483
 20
66.79125619538514
 30
0.0
 40
12.71966361404853
100
AcDbArc
 50
291.2566751444974
 51
1.306407029836164
  0
ARC
  5
61D
330
1F
100
AcDbEntity
  8
Defpoints
100
AcDbCircle
 10
151.6465239312464
 20
63.16656325069882
 30
0.0
 40
14.16288648326541
100
AcDbArc
 50
203.696666257353
 51
238.1929552775327
  0
ARC
  5
61E
330
1F
100
AcDbEntity
  8
Defpoints
100
AcDbCircle
 10
155.5294858928015
 20
64.29897724522193
 30
0.0
 40
15.16097609045818
100
AcDbArc
 50
226.4777706495257
 51
257.3878318646182
  0
ARC
  5
61F
330
1F
100
AcDbEntity
  8
Defpoints
100
AcDbCircle
 10
149.3601779734745
 20
50.24734820196242
 30
0.0
 40
5.253126665728918
100
AcDbArc
 50
144.3955780893769
 51
170.3209901831175
  0
ARC
  5
620
330
1F
100
AcDbEntity
  8
Defpoints
100
AcDbCircle
 10
155.1499245216191
 20
51.55865367753001
 30
0.0
 40
3.579407410323609
100
AcDbArc
 50
173.9452635867958
 51
215.0344124855259
  0
ARC
  5
621
330
1F
100
AcDbEntity
  8
Defpoints
100
AcDbCircle
 10
156.9835376224441
 20
58.30943874100158
 30
0.0
 40
8.348840605217576
100
AcDbArc
 50
229.7619851358084
 51
308.3366291765721
  0
ARC
  5
622
330
1F
100
AcDbEntity
  8
Defpoints
100
AcDbCircle
 10
163.6534677961971
 20
57.59864441071592
 30
0.0
 40
6.025339023626253
100
AcDbArc
 50
219.3934266745988
 51
255.6700342041544
  0
ARC
  5
623
330
1F
100
AcDbEntity
  8
Defpoints
100
AcDbCircle
 10
158.1597066555058
 20
60.20262081792392
 30
0.0
 40
6.482218004579749
100
AcDbArc
 50
277.4219225730861
 51
346.427132579783
  0
ARC
  5
624
330
1F
100
AcDbEntity
  8
Defpoints
100
AcDbCircle
 10
159.5249830100413
 20
63.16133109313071
 30
0.0
 40
5.193572876877421
100
AcDbArc
 50
304.7610974332609
 51
49.00476141912945
  0
LINE
  5
625
330
1F
100
AcDbEntity
  8
Defpoints
100
AcDbLine
 10
162.4861291968564
 20
58.89462129660746
 30
0.0
 11
164.4608908560858
 21
58.68136215179851
 31
0.0
  0
LINE
  5
626
330
1F
100
AcDbEntity
  8
Defpoints
100
AcDbLine
 10
168.1886180024411
 20
79.13510955172839
 30
0.0
 11
168.1886180024411
 21
70.9831711126007
 31
0.0
  0
ARC
  5
627
330
1F
100
AcDbEntity
  8
Defpoints
100
AcDbCircle
 10
165.4849761960418
 20
69.61071663826615
 30
0.0
 40
3.0320472129291
100
AcDbArc
 50
26.91379678560868
 51
141.0613643273832
  0
ARC
  5
628
330
1F
100
AcDbEntity
  8
Defpoints
100
AcDbCircle
 10
154.4162210260697
 20
70.58981729220791
 30
0.0
 40
8.759506184906166
100
AcDbArc
 50
6.071602099359451
 51
77.30271931846004
  0
ARC
  5
629
330
1F
100
AcDbEntity
  8
Defpoints
100
AcDbCircle
 10
119.8518016216771
 20
76.28282925652071
 30
0.0
 40
2.862700341403671
100
AcDbArc
 50
5.983048665673112
 51
85.10991588894302
  0
ARC
  5
62A
330
1F
100
AcDbEntity
  8
Defpoints
100
AcDbCircle
 10
120.4228445489178
 20
76.6865159629579
 30
0.0
 40
2.278497935479623
100
AcDbArc
 50
271.769589330366
 51
357.3512685207464
  0
ARC
  5
62B
330
1F
100
AcDbEntity
  8
Defpoints
100
AcDbCircle
 10
120.5859154886062
 20
84.62204618572966
 30
0.0
 40
10.2133623141125
100
AcDbArc
 50
230.7985153656183
 51
269.4798985148862
  0
ARC
  5
62C
330
1F
100
AcDbEntity
  8
Defpoints
100
AcDbCircle
 10
102.4066132525498
 20
60.70104810502917
 30
0.0
 40
19.84074495578459
100
AcDbArc
 50
53.77889607953576
 51
68.29515090826546
  0
ARC
  5
62D
330
1F
100
AcDbEntity
  8
Defpoints
100
AcDbCircle
 10
124.4440233475242
 20
76.16863053612798
 30
0.0
 40
3.109262665773826
100
AcDbArc
 50
333.2634063953784
 51
72.56891944341401
  0
ARC
  5
62E
330
1F
100
AcDbEntity
  8
Defpoints
100
AcDbCircle
 10
123.8456692628114
 20
77.06688659863451
 30
0.0
 40
4.082703822656316
100
AcDbArc
 50
267.2750665348662
 51
325.7616322989482
  0
ARC
  5
62F
330
1F
100
AcDbEntity
  8
Defpoints
100
AcDbCircle
 10
147.4582900825746
 20
95.27675829373238
 30
0.0
 40
32.61154558462476
100
AcDbArc
 50
223.1128632399586
 51
237.7450185239326
  0
ARC
  5
630
330
1F
100
AcDbEntity
  8
Defpoints
100
AcDbCircle
 10
133.0188523776442
 20
73.70512918627156
 30
0.0
 40
6.699193863889743
100
AcDbArc
 50
243.7311495279482
 51
321.0715786374757
  0
ARC
  5
631
330
1F
100
AcDbEntity
  8
Defpoints
100
AcDbCircle
 10
135.1773787162998
 20
72.04845275574166
 30
0.0
 40
3.979610044402653
100
AcDbArc
 50
320.0993224034633
 51
55.91628839126529
  0
ARC
  5
632
330
1F
100
AcDbEntity
  8
Defpoints
100
AcDbCircle
 10
136.259854728683
 20
73.73752268584485
 30
0.0
 40
1.974699607002203
100
AcDbArc
 50
54.46443252454352
 51
173.3074892690938
  0
ARC
  5
633
330
1F
100
AcDbEntity
  8
Defpoints
100
AcDbCircle
 10
134.9832214758958
 20
72.1477979088045
 30
0.0
 40
1.944370081495785
100
AcDbArc
 50
333.0226851638153
 51
110.6157461126407
  0
ARC
  5
634
330
1F
100
AcDbEntity
  8
Defpoints
100
AcDbCircle
 10
133.3503398432134
 20
73.11861252251003
 30
0.0
 40
3.841985561827335
100
AcDbArc
 50
204.7949990669214
 51
331.1665796165382
  0
ARC
  5
635
330
1F
100
AcDbEntity
  8
Defpoints
100
AcDbCircle
 10
135.20495244826
 20
73.61239693632407
 30
0.0
 40
5.742170901754806
100
AcDbArc
 50
105.8916335065501
 51
201.505321056681
  0
ARC
  5
636
330
1F
100
AcDbEntity
  8
Defpoints
100
AcDbCircle
 10
134.7009129555495
 20
71.76468658855283
 30
0.0
 40
7.933251183840122
100
AcDbArc
 50
286.1158923573487
 51
68.28791018445234
  0
ARC
  5
637
330
1F
100
AcDbEntity
  8
Defpoints
100
AcDbCircle
 10
154.7133748366916
 20
84.1665144924894
 30
0.0
 40
26.79816374256688
100
AcDbArc
 50
228.3475490836874
 51
256.6043115795252
  0
ARC
  5
638
330
1F
100
AcDbEntity
  8
Defpoints
100
AcDbCircle
 10
148.8166764781522
 20
68.30660101091982
 30
0.0
 40
10.2139200421719
100
AcDbArc
 50
268.2508964858742
 51
354.9518460683793
  0
ARC
  5
639
330
1F
100
AcDbEntity
  8
Defpoints
100
AcDbCircle
 10
154.6284174007281
 20
68.16997237252734
 30
0.0
 40
4.428630270810097
100
AcDbArc
 50
350.0906229991393
 51
139.1262048530885
  0
ARC
  5
63A
330
1F
100
AcDbEntity
  8
Defpoints
100
AcDbCircle
 10
154.1053770281191
 20
69.14933151806849
 30
0.0
 40
3.415543690332739
100
AcDbArc
 50
145.8224243466163
 51
269.9999999999995
  0
ARC
  5
63B
330
1F
100
AcDbEntity
  8
Defpoints
100
AcDbCircle
 10
150.7931786646534
 20
64.93391650874595
 30
0.0
 40
3.40741135260884
100
AcDbArc
 50
185.6152156631241
 51
13.57656664065973
  0
ARC
  5
63C
330
1F
100
AcDbEntity
  8
Defpoints
100
AcDbCircle
 10
147.8175039943497
 20
68.61542780403162
 30
0.0
 40
4.036347794570274
100
AcDbArc
 50
84.27250405946393
 51
264.0931555038398
  0
ARC
  5
63D
330
1F
100
AcDbEntity
  8
Defpoints
100
AcDbCircle
 10
152.4667371752357
 20
74.52167713704641
 30
0.0
 40
4.648048078913834
100
AcDbArc
 50
96.99694655622678
 51
203.9935280770263
  0
ARC
  5
63E
330
1F
100
AcDbEntity
  8
Defpoints
100
AcDbCircle
 10
91.84107552015344
 20
64.80589895258247
 30
0.0
 40
3.895512418614679
100
AcDbArc
 50
293.2558301201494
 51
351.9514557174275
  0
ARC
  5
63F
330
1F
100
AcDbEntity
  8
Defpoints
100
AcDbCircle
 10
94.40065664086434
 20
78.0440066581309
 30
0.0
 40
13.84446684475208
100
AcDbArc
 50
248.10525810206
 51
275.377886464668
  0
ARC
  5
640
330
1F
100
AcDbEntity
  8
Defpoints
100
AcDbCircle
 10
86.87385287293217
 20
72.41251418344603
 30
0.0
 40
7.591874103094832
100
AcDbArc
 50
288.1440663368153
 51
18.73101106736113
  0
ARC
  5
641
330
1F
100
AcDbEntity
  8
Defpoints
100
AcDbCircle
 10
100.7720895886553
 20
75.10656479376553
 30
0.0
 40
15.72579291989668
100
AcDbArc
 50
241.9582831128805
 51
296.7310748855821
  0
ARC
  5
642
330
1F
100
AcDbEntity
  8
Defpoints
100
AcDbCircle
 10
103.5111857609211
 20
66.64283126137748
 30
0.0
 40
7.066773265524293
100
AcDbArc
 50
307.8322750122707
 51
60.76860322602115
  0
ARC
  5
643
330
1F
100
AcDbEntity
  8
Defpoints
100
AcDbCircle
 10
106.3731157270767
 20
70.02158670454193
 30
0.0
 40
2.849641397342775
100
AcDbArc
 50
78.07050271930248
 51
142.5728166800559
  0
ARC
  5
644
330
1F
100
AcDbEntity
  8
Defpoints
100
AcDbCircle
 10
107.2653474415774
 20
69.24101044634148
 30
0.0
 40
4.033330388932962
100
AcDbArc
 50
141.4701121078782
 51
253.5869007160836
  0
ARC
  5
645
330
1F
100
AcDbEntity
  8
Defpoints
100
AcDbCircle
 10
101.7636120322517
 20
68.33486147046251
 30
0.0
 40
5.273139530428873
100
AcDbArc
 50
196.0885982017419
 51
325.814755865626
  0
ARC
  5
646
330
1F
100
AcDbEntity
  8
Defpoints
100
AcDbCircle
 10
100.3387441512036
 20
67.50139598922636
 30
0.0
 40
3.695470232470274
100
AcDbArc
 50
108.6552946050094
 51
189.7817652099448
  0
ARC
  5
647
330
1F
100
AcDbEntity
  8
Defpoints
100
AcDbCircle
 10
100.2868350884379
 20
74.26934949652585
 30
0.0
 40
3.456624156239473
100
AcDbArc
 50
42.23381606217798
 51
250.9156838882947
  0
ARC
  5
648
330
1F
100
AcDbEntity
  8
Defpoints
100
AcDbCircle
 10
106.6883390439025
 20
75.03412142223822
 30
0.0
 40
4.146293268275643
100
AcDbArc
 50
98.47769129312565
 51
157.9195591656864
  0
ARC
  5
649
330
1F
100
AcDbEntity
  8
Defpoints
100
AcDbCircle
 10
86.69776738656052
 20
71.05970893188851
 30
0.0
 40
8.284069265490261
100
AcDbArc
 50
27.23204002978285
 51
77.11275060294493
  0
ARC
  5
64A
330
1F
100
AcDbEntity
  8
Defpoints
100
AcDbCircle
 10
72.43035113033063
 20
71.24765824558192
 30
0.0
 40
1.1198734165683
100
AcDbArc
 50
272.9824388196561
 51
344.8316840540498
  0
ARC
  5
64B
330
1F
100
AcDbEntity
  8
Defpoints
100
AcDbCircle
 10
67.16244376247127
 20
74.3448307589836
 30
0.0
 40
7.197238400417488
100
AcDbArc
 50
331.8981161456077
 51
23.59412997848102
  0
ARC
  5
64C
330
1F
100
AcDbEntity
  8
Defpoints
100
AcDbCircle
 10
75.36562224183875
 20
78.00305516819015
 30
0.0
 40
1.36033820826799
100
AcDbArc
 50
307.1489744149294
 51
56.32395010367972
  0
ARC
  5
64D
330
1F
100
AcDbEntity
  8
Defpoints
100
AcDbCircle
 10
75.26296563301454
 20
79.37147651621784
 30
0.0
 40
2.621031960308366
100
AcDbArc
 50
234.9577314600044
 51
290.6458348609722
  0
ARC
  5
64E
330
1F
100
AcDbEntity
  8
Defpoints
100
AcDbCircle
 10
86.01034957475865
 20
74.3806962447363
 30
0.0
 40
4.754840387738799
100
AcDbArc
 50
90.76794109058026
 51
211.5223644926297
  0
ARC
  5
64F
330
1F
100
AcDbEntity
  8
Defpoints
100
AcDbCircle
 10
84.45565093231984
 20
73.40570865073985
 30
0.0
 40
2.919862148683461
100
AcDbArc
 50
211.1638640243535
 51
337.5201742162001
  0
ARC
  5
650
330
1F
100
AcDbEntity
  8
Defpoints
100
AcDbCircle
 10
85.40684294017369
 20
72.44233635058804
 30
0.0
 40
1.753495160991676
100
AcDbArc
 50
354.9923416887529
 51
117.405737411463
  0
ARC
  5
651
330
1F
100
AcDbEntity
  8
Defpoints
100
AcDbCircle
 10
100.2805800157381
 20
92.81266313493937
 30
0.0
 40
29.57579708052748
100
AcDbArc
 50
218.5842289592855
 51
236.1901410830264
  0
ARC
  5
652
330
1F
100
AcDbEntity
  8
Defpoints
100
AcDbCircle
 10
85.98095090198048
 20
71.88101141327646
 30
0.0
 40
4.233542086023361
100
AcDbArc
 50
239.3616649688731
 51
353.052177868554
  0
ARC
  5
653
330
1F
100
AcDbEntity
  8
Defpoints
100
AcDbCircle
 10
87.11673097947771
 20
72.10050145089382
 30
0.0
 40
3.152733858578046
100
AcDbArc
 50
346.5820140051389
 51
142.9733379793221
  0
ARC
  5
654
330
1F
100
AcDbEntity
  8
Defpoints
100
AcDbCircle
 10
77.45603899554334
 20
76.8236008973239
 30
0.0
 40
2.473917929991387
100
AcDbArc
 50
263.1602012365444
 51
69.12360875755917
  0
ARC
  5
655
330
1F
100
AcDbEntity
  8
Defpoints
100
AcDbCircle
 10
-22.33517835511708
 20
57.52935951592897
 30
0.0
 40
5.3728830927243
100
AcDbArc
 50
275.4893465539457
 51
310.5893162830547
  0
ARC
  5
656
330
1F
100
AcDbEntity
  8
Defpoints
100
AcDbCircle
 10
-13.89981815034534
 20
55.61799415482328
 30
0.0
 40
8.634841875502717
100
AcDbArc
 50
203.4547317563338
 51
235.5827801100295
  0
LINE
  5
657
330
1F
100
AcDbEntity
  8
Defpoints
100
AcDbLine
 10
-18.78035996107559
 20
48.49473606258422
 30
0.0
 11
-22.48314743260602
 21
45.7351095517284
 31
0.0
  0
LINE
  5
658
330
1F
100
AcDbEntity
  8
Defpoints
100
AcDbLine
 10
-22.48314743260602
 20
45.7351095517284
 30
0.0
 11
-23.21138199755879
 21
45.7351095517284
 31
0.0
  0
LINE
  5
659
330
1F
100
AcDbEntity
  8
Defpoints
100
AcDbLine
 10
-23.21138199755879
 20
45.7351095517284
 30
0.0
 11
-23.21138199755879
 21
58.89133881642322
 31
0.0
  0
LINE
  5
65A
330
1F
100
AcDbEntity
  8
Defpoints
100
AcDbLine
 10
-23.21138199755879
 20
58.89133881642322
 30
0.0
 11
-22.55745671219433
 21
58.89133881642322
 31
0.0
  0
ARC
  5
65B
330
1F
100
AcDbEntity
  8
Defpoints
100
AcDbCircle
 10
-13.59290209964089
 20
61.02478750345155
 30
0.0
 40
9.214924997070557
100
AcDbArc
 50
193.3866361583367
 51
235.2951967225147
  0
ARC
  5
65C
330
1F
100
AcDbEntity
  8
Defpoints
100
AcDbCircle
 10
3.591965645713401
 20
48.922100821522
 30
0.0
 40
6.575302208521639
100
AcDbArc
 50
186.6112900538752
 51
208.992244170292
  0
ARC
  5
65D
330
1F
100
AcDbEntity
  8
Defpoints
100
AcDbCircle
 10
-12.54852237291123
 20
67.30577376582864
 30
0.0
 40
21.41723171538913
100
AcDbArc
 50
280.8612025769437
 51
296.6573115767896
  0
ARC
  5
65E
330
1F
100
AcDbEntity
  8
Defpoints
100
AcDbCircle
 10
-0.5805878732134034
 20
50.2308594234297
 30
0.0
 40
8.865212103315087
100
AcDbArc
 50
194.4644517952493
 51
206.5218278455262
  0
ARC
  5
65F
330
1F
100
AcDbEntity
  8
Defpoints
100
AcDbCircle
 10
-14.13919145587906
 20
55.86635659305428
 30
0.0
 40
9.293257651224552
100
AcDbArc
 50
256.9975237773639
 51
302.3621646904344
  0
LINE
  5
660
330
1F
100
AcDbEntity
  8
Defpoints
100
AcDbLine
 10
-16.23011090511812
 20
46.81137489076258
 30
0.0
 11
-16.53999660951143
 21
45.7351095517284
 31
0.0
  0
LINE
  5
661
330
1F
100
AcDbEntity
  8
Defpoints
100
AcDbLine
 10
-16.53999660951143
 20
45.7351095517284
 30
0.0
 11
-2.159354705271141
 21
45.7351095517284
 31
0.0
  0
LINE
  5
662
330
1F
100
AcDbEntity
  8
Defpoints
100
AcDbLine
 10
14.39157608084275
 20
45.7351095517284
 30
0.0
 11
1.188751149709389
 21
45.7351095517284
 31
0.0
  0
ARC
  5
663
330
1F
100
AcDbEntity
  8
Defpoints
100
AcDbCircle
 10
16.70963821051603
 20
51.03603669354919
 30
0.0
 40
5.785606329497175
100
AcDbArc
 50
194.5747869145246
 51
246.380543386296
  0
ARC
  5
664
330
1F
100
AcDbEntity
  8
Defpoints
100
AcDbCircle
 10
5.831546102018648
 20
53.75606937067679
 30
0.0
 40
6.73073693685077
100
AcDbArc
 50
295.2462709735726
 51
321.6525474990304
  0
ARC
  5
665
330
1F
100
AcDbEntity
  8
Defpoints
100
AcDbCircle
 10
19.20567847413201
 20
51.86251061354598
 30
0.0
 40
11.30988577682511
100
AcDbArc
 50
170.8901391119103
 51
201.7680845811753
  0
ARC
  5
666
330
1F
100
AcDbEntity
  8
Defpoints
100
AcDbCircle
 10
-23.03843101241219
 20
73.61512628681254
 30
0.0
 40
36.93577789441009
100
AcDbArc
 50
310.9899942316453
 51
327.2857171528246
  0
LINE
  5
667
330
1F
100
AcDbEntity
  8
Defpoints
100
AcDbLine
 10
44.39684227683443
 20
45.7351095517284
 30
0.0
 11
31.25581764836494
 21
45.7351095517284
 31
0.0
  0
ARC
  5
668
330
1F
100
AcDbEntity
  8
Defpoints
100
AcDbCircle
 10
21.66211151485526
 20
78.3098461902383
 30
0.0
 40
33.95810160248097
100
AcDbArc
 50
286.410423425213
 51
301.7385631761218
  0
ARC
  5
669
330
1F
100
AcDbEntity
  8
Defpoints
100
AcDbCircle
 10
35.55220609772572
 20
48.77488390652111
 30
0.0
 40
4.027000570900505
100
AcDbArc
 50
321.8506192030688
 51
9.361568416209319
  0
ARC
  5
66A
330
1F
100
AcDbEntity
  8
Defpoints
100
AcDbCircle
 10
33.97058500895605
 20
67.26444512558924
 30
0.0
 40
21.5078232133511
100
AcDbArc
 50
282.7547654278005
 51
302.3161452563416
  0
ARC
  5
66B
330
1F
100
AcDbEntity
  8
Defpoints
100
AcDbCircle
 10
54.06936299386727
 20
44.4912817389954
 30
0.0
 40
9.752167177051353
100
AcDbArc
 50
151.8781925176187
 51
172.6723229698487
  0
LINE
  5
66C
330
1F
100
AcDbEntity
  8
Defpoints
100
AcDbLine
 10
61.63360750611861
 20
45.7351095517284
 30
0.0
 11
48.03095136984808
 21
45.7351095517284
 31
0.0
  0
LINE
  5
66D
330
1F
100
AcDbEntity
  8
Defpoints
100
AcDbLine
 10
48.03095136984808
 20
45.7351095517284
 30
0.0
 11
55.85334329400445
 21
54.03219439705202
 31
0.0
  0
ARC
  5
66E
330
1F
100
AcDbEntity
  8
Defpoints
100
AcDbCircle
 10
68.70969580688309
 20
54.20256749194071
 30
0.0
 40
12.85748136016004
100
AcDbArc
 50
180.7592423972854
 51
208.8968645386524
  0
ARC
  5
66F
330
1F
100
AcDbEntity
  8
Defpoints
100
AcDbCircle
 10
52.63979784751109
 20
54.09708537753669
 30
0.0
 40
7.776355432693145
100
AcDbArc
 50
308.2405668621051
 51
326.6773914796542
  0
ARC
  5
670
330
1F
100
AcDbEntity
  8
Defpoints
100
AcDbCircle
 10
65.53001510357931
 20
50.91951482838119
 30
0.0
 40
6.485372020025905
100
AcDbArc
 50
189.7150044850007
 51
233.0728282986441
  0
ARC
  5
671
330
1F
100
AcDbEntity
  8
Defpoints
100
AcDbCircle
 10
70.97145273174598
 20
50.60911315171539
 30
0.0
 40
1.546602154971612
100
AcDbArc
 50
187.9267127696197
 51
348.8034171487285
  0
ARC
  5
672
330
1F
100
AcDbEntity
  8
Defpoints
100
AcDbCircle
 10
63.41502805500913
 20
51.81841836304318
 30
0.0
 40
6.19028029392967
100
AcDbArc
 50
280.6670388227021
 51
346.7140843420612
  0
LINE
  5
673
330
1F
100
AcDbEntity
  8
Defpoints
100
AcDbLine
 10
64.56085702287213
 20
45.7351095517284
 30
0.0
 11
72.4886180024412
 21
45.72435544854073
 31
0.0
  0
ARC
  5
674
330
1F
100
AcDbEntity
  8
Defpoints
100
AcDbCircle
 10
67.08951574809827
 20
55.29931320802727
 30
0.0
 40
3.952764128316726
100
AcDbArc
 50
326.310763600465
 51
128.1467283609216
  0
ARC
  5
675
330
1F
100
AcDbEntity
  8
Defpoints
100
AcDbCircle
 10
71.23793270928512
 20
52.08067166583237
 30
0.0
 40
1.338498539565918
100
AcDbArc
 50
20.8695043277671
 51
129.9506385883112
  0
ARC
  5
676
330
1F
100
AcDbEntity
  8
Defpoints
100
AcDbCircle
 10
61.67491756502432
 20
55.08137584382129
 30
0.0
 40
4.46148196450281
100
AcDbArc
 50
317.2845036453777
 51
48.21132989604901
  0
ARC
  5
677
330
1F
100
AcDbEntity
  8
Defpoints
100
AcDbCircle
 10
63.20488919008617
 20
53.73367913992435
 30
0.0
 40
2.423611696623608
100
AcDbArc
 50
213.21094007885
 51
316.1573773766179
  0
ARC
  5
678
330
1F
100
AcDbEntity
  8
Defpoints
100
AcDbCircle
 10
69.63452510575843
 20
56.77200423443905
 30
0.0
 40
9.517737510567652
100
AcDbArc
 50
125.0569090762394
 51
207.3032982591128
  0
ARC
  5
679
330
1F
100
AcDbEntity
  8
Defpoints
100
AcDbCircle
 10
67.53769536945113
 20
65.29163947749435
 30
0.0
 40
3.447920117641436
100
AcDbArc
 50
192.1992559653688
 51
268.1283984054363
  0
ARC
  5
67A
330
1F
100
AcDbEntity
  8
Defpoints
100
AcDbCircle
 10
73.67916222772625
 20
64.72035082834651
 30
0.0
 40
6.883159647908901
100
AcDbArc
 50
127.40517847964
 51
204.686681556281
  0
ARC
  5
67B
330
1F
100
AcDbEntity
  8
Defpoints
100
AcDbCircle
 10
77.83508554220619
 20
69.25131170432492
 30
0.0
 40
8.389543002626167
100
AcDbArc
 50
173.5892069631001
 51
206.4019273060486
  0
ARC
  5
67C
330
1F
100
AcDbEntity
  8
Defpoints
100
AcDbCircle
 10
72.39905102062317
 20
66.8445062252666
 30
0.0
 40
2.464190290790099
100
AcDbArc
 50
212.4924125978725
 51
272.0830131109918
  0
ARC
  5
67D
330
1F
100
AcDbEntity
  8
Defpoints
100
AcDbCircle
 10
43.99516499803492
 20
73.86596976100054
 30
0.0
 40
18.30793265614515
100
AcDbArc
 50
238.1419263418605
 51
298.9107705927609
  0
ARC
  5
67E
330
1F
100
AcDbEntity
  8
Defpoints
100
AcDbCircle
 10
40.04023292369427
 20
65.84545867090506
 30
0.0
 40
9.44869447765984
100
AcDbArc
 50
146.0980329611792
 51
232.8332389300287
  0
ARC
  5
67F
330
1F
100
AcDbEntity
  8
Defpoints
100
AcDbCircle
 10
36.3973282985006
 20
67.83989143857427
 30
0.0
 40
19.25007738186027
100
AcDbArc
 50
306.0282978283925
 51
328.7020180882518
  0
ARC
  5
680
330
1F
100
AcDbEntity
  8
Defpoints
100
AcDbCircle
 10
42.28872570406061
 20
52.52395508322914
 30
0.0
 40
5.437052794082633
100
AcDbArc
 50
357.3422730388846
 51
23.79784797207324
  0
ARC
  5
681
330
1F
100
AcDbEntity
  8
Defpoints
100
AcDbCircle
 10
33.47752049515186
 20
69.89352480124821
 30
0.0
 40
20.50252800946245
100
AcDbArc
 50
293.7225373744693
 51
312.2528403697885
  0
ARC
  5
682
330
1F
100
AcDbEntity
  8
Defpoints
100
AcDbCircle
 10
34.39468413871833
 20
53.48499983542466
 30
0.0
 40
7.702161268834289
100
AcDbArc
 50
342.144399006755
 51
6.095114218090795
  0
ARC
  5
683
330
1F
100
AcDbEntity
  8
Defpoints
100
AcDbCircle
 10
33.9195123117367
 20
67.51558949616645
 30
0.0
 40
15.51567378643387
100
AcDbArc
 50
264.9990992729438
 51
301.6164699237967
  0
ARC
  5
684
330
1F
100
AcDbEntity
  8
Defpoints
100
AcDbCircle
 10
28.02567563124343
 20
59.15715026697094
 30
0.0
 40
6.914845508627843
100
AcDbArc
 50
296.3204416945731
 51
323.1316603695973
  0
ARC
  5
685
330
1F
100
AcDbEntity
  8
Defpoints
100
AcDbCircle
 10
39.20543519241791
 20
69.1883824419605
 30
0.0
 40
15.26333513118831
100
AcDbArc
 50
224.4230171014784
 51
248.2830237105859
  0
ARC
  5
686
330
1F
100
AcDbEntity
  8
Defpoints
100
AcDbCircle
 10
26.77436245955991
 20
62.10811872389403
 30
0.0
 40
3.914735102504099
100
AcDbArc
 50
293.0082505246179
 51
326.5425587006184
  0
ARC
  5
687
330
1F
100
AcDbEntity
  8
Defpoints
100
AcDbCircle
 10
34.13615064191424
 20
64.94982541076024
 30
0.0
 40
6.463341768315216
100
AcDbArc
 50
107.4507893609569
 51
230.6772571395072
  0
LINE
  5
688
330
1F
100
AcDbEntity
  8
Defpoints
100
AcDbLine
 10
18.84461364234136
 20
46.06586811637083
 30
0.0
 11
18.73823149483502
 21
45.7351095517284
 31
0.0
  0
LINE
  5
689
330
1F
100
AcDbEntity
  8
Defpoints
100
AcDbLine
 10
18.73823149483502
 20
45.7351095517284
 30
0.0
 11
25.95045711748531
 21
45.7351095517284
 31
0.0
  0
LINE
  5
68A
330
1F
100
AcDbEntity
  8
Defpoints
100
AcDbLine
 10
32.56698925047255
 20
52.05897879343542
 30
0.0
 11
31.09165594077834
 21
52.95917857054195
 31
0.0
  0
ARC
  5
68B
330
1F
100
AcDbEntity
  8
Defpoints
100
AcDbCircle
 10
38.00972138385538
 20
38.38202524587793
 30
0.0
 40
14.12422399479329
100
AcDbArc
 50
127.0313107326594
 51
148.6274299164103
  0
ARC
  5
68C
330
1F
100
AcDbEntity
  8
Defpoints
100
AcDbCircle
 10
35.57779608301724
 20
61.74153664383685
 30
0.0
 40
13.52489295266765
100
AcDbArc
 50
219.3604386493647
 51
243.3122498654497
  0
ARC
  5
68D
330
1F
100
AcDbEntity
  8
Defpoints
100
AcDbCircle
 10
29.48771282496572
 20
48.69407876905923
 30
0.0
 40
6.249123479403414
100
AcDbArc
 50
104.8466515345913
 51
134.3320006163812
  0
ARC
  5
68E
330
1F
100
AcDbEntity
  8
Defpoints
100
AcDbCircle
 10
32.14801462250182
 20
66.83727427793101
 30
0.0
 40
12.83105501434152
100
AcDbArc
 50
212.9125427309134
 51
250.6021068663496
  0
ARC
  5
68F
330
1F
100
AcDbEntity
  8
Defpoints
100
AcDbCircle
 10
25.00835209898254
 20
51.79044716679006
 30
0.0
 40
8.854189577556422
100
AcDbArc
 50
86.50520214529684
 51
114.2176234619193
  0
ARC
  5
690
330
1F
100
AcDbEntity
  8
Defpoints
100
AcDbCircle
 10
29.5138396655353
 20
66.07532073189677
 30
0.0
 40
6.73785208678781
100
AcDbArc
 50
154.1970188762809
 51
233.943803466397
  0
ARC
  5
691
330
1F
100
AcDbEntity
  8
Defpoints
100
AcDbCircle
 10
24.90430265960096
 20
63.30334237465312
 30
0.0
 40
5.887817897592215
100
AcDbArc
 50
104.3224951974334
 51
207.9947661065244
  0
ARC
  5
692
330
1F
100
AcDbEntity
  8
Defpoints
100
AcDbCircle
 10
19.27809915910868
 20
63.29318522142805
 30
0.0
 40
2.786491045735435
100
AcDbArc
 50
176.219163777544
 51
278.8212801910749
  0
ARC
  5
693
330
1F
100
AcDbEntity
  8
Defpoints
100
AcDbCircle
 10
21.94806143654098
 20
54.78621409980049
 30
0.0
 40
10.25842221198042
100
AcDbArc
 50
122.0939196547966
 51
168.8887584363053
  0
ARC
  5
694
330
1F
100
AcDbEntity
  8
Defpoints
100
AcDbCircle
 10
17.01359532955787
 20
56.08539535008671
 30
0.0
 40
5.176225181776471
100
AcDbArc
 50
172.4761916366936
 51
255.250240271366
  0
ARC
  5
695
330
1F
100
AcDbEntity
  8
Defpoints
100
AcDbCircle
 10
15.79838290584234
 20
53.5111233737708
 30
0.0
 40
2.433546736568219
100
AcDbArc
 50
267.5826269614962
 51
6.536180549800622
  0
ARC
  5
696
330
1F
100
AcDbEntity
  8
Defpoints
100
AcDbCircle
 10
15.15879425327634
 20
53.73232216865
 30
0.0
 40
3.057827168083396
100
AcDbArc
 50
1.045854989909723
 51
70.30943302535075
  0
ARC
  5
697
330
1F
100
AcDbEntity
  8
Defpoints
100
AcDbCircle
 10
18.78583566862715
 20
55.7811966870737
 30
0.0
 40
2.726203892225599
100
AcDbArc
 50
328.2249832648393
 51
162.2714674626152
  0
ARC
  5
698
330
1F
100
AcDbEntity
  8
Defpoints
100
AcDbCircle
 10
18.40621563280662
 20
47.98932717188006
 30
0.0
 40
1.972786747974667
100
AcDbArc
 50
282.8396168373323
 51
30.20726687989516
  0
ARC
  5
699
330
1F
100
AcDbEntity
  8
Defpoints
100
AcDbCircle
 10
20.80300357353872
 20
51.62754644273164
 30
0.0
 40
2.734625676757506
100
AcDbArc
 50
255.3443799530033
 51
83.69247911240144
  0
ARC
  5
69A
330
1F
100
AcDbEntity
  8
Defpoints
100
AcDbCircle
 10
-4.796698630469308
 20
75.43465798857861
 30
0.0
 40
21.11135794049221
100
AcDbArc
 50
256.1514756964064
 51
301.7087635233615
  0
ARC
  5
69B
330
1F
100
AcDbEntity
  8
Defpoints
100
AcDbCircle
 10
-5.23835429826596
 20
66.79125619538514
 30
0.0
 40
12.71966361404853
100
AcDbArc
 50
178.6935929701638
 51
248.7433248555015
  0
ARC
  5
69C
330
1F
100
AcDbEntity
  8
Defpoints
100
AcDbCircle
 10
-6.669287926364035
 20
63.16656325069882
 30
0.0
 40
14.16288648326541
100
AcDbArc
 50
301.8070447224671
 51
336.303333742647
  0
ARC
  5
69D
330
1F
100
AcDbEntity
  8
Defpoints
100
AcDbCircle
 10
-10.55224988791914
 20
64.29897724522193
 30
0.0
 40
15.16097609045818
100
AcDbArc
 50
282.6121681353821
 51
313.5222293504742
  0
ARC
  5
69E
330
1F
100
AcDbEntity
  8
Defpoints
100
AcDbCircle
 10
-4.382941968592092
 20
50.24734820196242
 30
0.0
 40
5.253126665728918
100
AcDbArc
 50
9.679009816882434
 51
35.60442191062312
  0
ARC
  5
69F
330
1F
100
AcDbEntity
  8
Defpoints
100
AcDbCircle
 10
-10.17268851673668
 20
51.55865367753001
 30
0.0
 40
3.579407410323609
100
AcDbArc
 50
324.9655875144743
 51
6.054736413204222
  0
ARC
  5
6A0
330
1F
100
AcDbEntity
  8
Defpoints
100
AcDbCircle
 10
-12.00630161756174
 20
58.30943874100158
 30
0.0
 40
8.348840605217576
100
AcDbArc
 50
231.6633708234276
 51
310.2380148641914
  0
ARC
  5
6A1
330
1F
100
AcDbEntity
  8
Defpoints
100
AcDbCircle
 10
-18.67623179131476
 20
57.59864441071592
 30
0.0
 40
6.025339023626253
100
AcDbArc
 50
284.3299657958459
 51
320.606573325401
  0
ARC
  5
6A2
330
1F
100
AcDbEntity
  8
Defpoints
100
AcDbCircle
 10
-13.18247065062337
 20
60.20262081792392
 30
0.0
 40
6.482218004579749
100
AcDbArc
 50
193.572867420217
 51
262.5780774269134
  0
ARC
  5
6A3
330
1F
100
AcDbEntity
  8
Defpoints
100
AcDbCircle
 10
-14.5477470051589
 20
63.16133109313071
 30
0.0
 40
5.193572876877421
100
AcDbArc
 50
130.9952385808706
 51
235.2389025667392
  0
LINE
  5
6A4
330
1F
100
AcDbEntity
  8
Defpoints
100
AcDbLine
 10
-17.50889319197398
 20
58.89462129660746
 30
0.0
 11
-19.48365485120342
 21
58.68136215179851
 31
0.0
  0
LINE
  5
6A5
330
1F
100
AcDbEntity
  8
Defpoints
100
AcDbLine
 10
-23.21138199755879
 20
79.13510955172839
 30
0.0
 11
-23.21138199755879
 21
70.9831711126007
 31
0.0
  0
ARC
  5
6A6
330
1F
100
AcDbEntity
  8
Defpoints
100
AcDbCircle
 10
-20.50774019115946
 20
69.61071663826615
 30
0.0
 40
3.0320472129291
100
AcDbArc
 50
38.93863567261678
 51
153.0862032143913
  0
ARC
  5
6A7
330
1F
100
AcDbEntity
  8
Defpoints
100
AcDbCircle
 10
-9.438985021187306
 20
70.58981729220791
 30
0.0
 40
8.759506184906166
100
AcDbArc
 50
102.6972806815404
 51
173.9283979006405
  0
ARC
  5
6A8
330
1F
100
AcDbEntity
  8
Defpoints
100
AcDbCircle
 10
25.12543438320527
 20
76.28282925652071
 30
0.0
 40
2.862700341403671
100
AcDbArc
 50
94.8900841110564
 51
174.0169513343269
  0
ARC
  5
6A9
330
1F
100
AcDbEntity
  8
Defpoints
100
AcDbCircle
 10
24.55439145596461
 20
76.6865159629579
 30
0.0
 40
2.278497935479623
100
AcDbArc
 50
182.6487314792537
 51
268.2304106696346
  0
ARC
  5
6AA
330
1F
100
AcDbEntity
  8
Defpoints
100
AcDbCircle
 10
24.39132051627621
 20
84.62204618572966
 30
0.0
 40
10.2133623141125
100
AcDbArc
 50
270.520101485114
 51
309.2014846343815
  0
ARC
  5
6AB
330
1F
100
AcDbEntity
  8
Defpoints
100
AcDbCircle
 10
42.57062275233258
 20
60.70104810502917
 30
0.0
 40
19.84074495578459
100
AcDbArc
 50
111.7048490917344
 51
126.2211039204643
  0
ARC
  5
6AC
330
1F
100
AcDbEntity
  8
Defpoints
100
AcDbCircle
 10
20.53321265735822
 20
76.16863053612798
 30
0.0
 40
3.109262665773826
100
AcDbArc
 50
107.4310805565866
 51
206.7365936046217
  0
ARC
  5
6AD
330
1F
100
AcDbEntity
  8
Defpoints
100
AcDbCircle
 10
21.131566742071
 20
77.06688659863451
 30
0.0
 40
4.082703822656316
100
AcDbArc
 50
214.2383677010519
 51
272.7249334651344
  0
ARC
  5
6AE
330
1F
100
AcDbEntity
  8
Defpoints
100
AcDbCircle
 10
-2.48105407769222
 20
95.27675829373238
 30
0.0
 40
32.61154558462476
100
AcDbArc
 50
302.2549814760686
 51
316.8871367600416
  0
ARC
  5
6AF
330
1F
100
AcDbEntity
  8
Defpoints
100
AcDbCircle
 10
11.95838362723816
 20
73.70512918627156
 30
0.0
 40
6.699193863889743
100
AcDbArc
 50
218.928421362523
 51
296.2688504720517
  0
ARC
  5
6B0
330
1F
100
AcDbEntity
  8
Defpoints
100
AcDbCircle
 10
9.799857288582558
 20
72.04845275574166
 30
0.0
 40
3.979610044402653
100
AcDbArc
 50
124.0837116087351
 51
219.9006775965366
  0
ARC
  5
6B1
330
1F
100
AcDbEntity
  8
Defpoints
100
AcDbCircle
 10
8.717381276199404
 20
73.73752268584485
 30
0.0
 40
1.974699607002203
100
AcDbArc
 50
6.692510730906142
 51
125.5355674754561
  0
ARC
  5
6B2
330
1F
100
AcDbEntity
  8
Defpoints
100
AcDbCircle
 10
9.994014528986554
 20
72.1477979088045
 30
0.0
 40
1.944370081495785
100
AcDbArc
 50
69.38425388736006
 51
206.9773148361848
  0
ARC
  5
6B3
330
1F
100
AcDbEntity
  8
Defpoints
100
AcDbCircle
 10
11.62689616166898
 20
73.11861252251003
 30
0.0
 40
3.841985561827335
100
AcDbArc
 50
208.8334203834618
 51
335.2050009330785
  0
ARC
  5
6B4
330
1F
100
AcDbEntity
  8
Defpoints
100
AcDbCircle
 10
9.77228355662234
 20
73.61239693632407
 30
0.0
 40
5.742170901754806
100
AcDbArc
 50
338.494678943319
 51
74.10836649344924
  0
ARC
  5
6B5
330
1F
100
AcDbEntity
  8
Defpoints
100
AcDbCircle
 10
10.27632304933288
 20
71.76468658855283
 30
0.0
 40
7.933251183840122
100
AcDbArc
 50
111.7120898155475
 51
253.8841076426519
  0
ARC
  5
6B6
330
1F
100
AcDbEntity
  8
Defpoints
100
AcDbCircle
 10
-9.736138831809228
 20
84.1665144924894
 30
0.0
 40
26.79816374256688
100
AcDbArc
 50
283.3956884204745
 51
311.6524509163124
  0
ARC
  5
6B7
330
1F
100
AcDbEntity
  8
Defpoints
100
AcDbCircle
 10
-3.839440473269775
 20
68.30660101091982
 30
0.0
 40
10.2139200421719
100
AcDbArc
 50
185.0481539316207
 51
271.7491035141262
  0
ARC
  5
6B8
330
1F
100
AcDbEntity
  8
Defpoints
100
AcDbCircle
 10
-9.651181395845725
 20
68.16997237252734
 30
0.0
 40
4.428630270810097
100
AcDbArc
 50
40.87379514691156
 51
189.9093770008607
  0
ARC
  5
6B9
330
1F
100
AcDbEntity
  8
Defpoints
100
AcDbCircle
 10
-9.128141023236764
 20
69.14933151806849
 30
0.0
 40
3.415543690332739
100
AcDbArc
 50
270.0
 51
34.17757565338357
  0
ARC
  5
6BA
330
1F
100
AcDbEntity
  8
Defpoints
100
AcDbCircle
 10
-5.815942659770996
 20
64.93391650874595
 30
0.0
 40
3.40741135260884
100
AcDbArc
 50
166.4234333593402
 51
354.3847843368758
  0
ARC
  5
6BB
330
1F
100
AcDbEntity
  8
Defpoints
100
AcDbCircle
 10
-2.840267989467321
 20
68.61542780403162
 30
0.0
 40
4.036347794570274
100
AcDbArc
 50
275.9068444961596
 51
95.72749594053608
  0
ARC
  5
6BC
330
1F
100
AcDbEntity
  8
Defpoints
100
AcDbCircle
 10
-7.489501170353321
 20
74.52167713704641
 30
0.0
 40
4.648048078913834
100
AcDbArc
 50
336.0064719229737
 51
83.00305344377269
  0
ARC
  5
6BD
330
1F
100
AcDbEntity
  8
Defpoints
100
AcDbCircle
 10
53.13616048472896
 20
64.80589895258247
 30
0.0
 40
3.895512418614679
100
AcDbArc
 50
188.0485442825709
 51
246.7441698798507
  0
ARC
  5
6BE
330
1F
100
AcDbEntity
  8
Defpoints
100
AcDbCircle
 10
50.57657936401806
 20
78.0440066581309
 30
0.0
 40
13.84446684475208
100
AcDbArc
 50
264.6221135353313
 51
291.8947418979398
  0
ARC
  5
6BF
330
1F
100
AcDbEntity
  8
Defpoints
100
AcDbCircle
 10
58.10338313195022
 20
72.41251418344603
 30
0.0
 40
7.591874103094832
100
AcDbArc
 50
161.2689889326389
 51
251.855933663185
  0
ARC
  5
6C0
330
1F
100
AcDbEntity
  8
Defpoints
100
AcDbCircle
 10
44.20514641622708
 20
75.10656479376553
 30
0.0
 40
15.72579291989668
100
AcDbArc
 50
243.2689251144182
 51
298.0417168871198
  0
ARC
  5
6C1
330
1F
100
AcDbEntity
  8
Defpoints
100
AcDbCircle
 10
41.46605024396122
 20
66.64283126137748
 30
0.0
 40
7.066773265524293
100
AcDbArc
 50
119.2313967739786
 51
232.1677249877293
  0
ARC
  5
6C2
330
1F
100
AcDbEntity
  8
Defpoints
100
AcDbCircle
 10
38.60412027780564
 20
70.02158670454193
 30
0.0
 40
2.849641397342775
100
AcDbArc
 50
37.42718331994262
 51
101.9294972806972
  0
ARC
  5
6C3
330
1F
100
AcDbEntity
  8
Defpoints
100
AcDbCircle
 10
37.71188856330498
 20
69.24101044634148
 30
0.0
 40
4.033330388932962
100
AcDbArc
 50
286.4130992839156
 51
38.52988789212174
  0
ARC
  5
6C4
330
1F
100
AcDbEntity
  8
Defpoints
100
AcDbCircle
 10
43.21362397263063
 20
68.33486147046251
 30
0.0
 40
5.273139530428873
100
AcDbArc
 50
214.1852441343739
 51
343.9114017982581
  0
ARC
  5
6C5
330
1F
100
AcDbEntity
  8
Defpoints
100
AcDbCircle
 10
44.63849185367876
 20
67.50139598922636
 30
0.0
 40
3.695470232470274
100
AcDbArc
 50
350.2182347900552
 51
71.34470539499078
  0
ARC
  5
6C6
330
1F
100
AcDbEntity
  8
Defpoints
100
AcDbCircle
 10
44.69040091644447
 20
74.26934949652585
 30
0.0
 40
3.456624156239473
100
AcDbArc
 50
289.0843161117059
 51
137.7661839378222
  0
ARC
  5
6C7
330
1F
100
AcDbEntity
  8
Defpoints
100
AcDbCircle
 10
38.28889696097984
 20
75.03412142223822
 30
0.0
 40
4.146293268275643
100
AcDbArc
 50
22.08044083431362
 51
81.52230870687381
  0
ARC
  5
6C8
330
1F
100
AcDbEntity
  8
Defpoints
100
AcDbCircle
 10
58.27946861832187
 20
71.05970893188851
 30
0.0
 40
8.284069265490261
100
AcDbArc
 50
102.8872493970551
 51
152.7679599702172
  0
ARC
  5
6C9
330
1F
100
AcDbEntity
  8
Defpoints
100
AcDbCircle
 10
72.54688487455176
 20
71.24765824558192
 30
0.0
 40
1.1198734165683
100
AcDbArc
 50
195.1683159459501
 51
267.0175611803439
  0
ARC
  5
6CA
330
1F
100
AcDbEntity
  8
Defpoints
100
AcDbCircle
 10
77.81479224241113
 20
74.3448307589836
 30
0.0
 40
7.197238400417488
100
AcDbArc
 50
156.4058700215189
 51
208.1018838543938
  0
ARC
  5
6CB
330
1F
100
AcDbEntity
  8
Defpoints
100
AcDbCircle
 10
69.61161376304365
 20
78.00305516819015
 30
0.0
 40
1.36033820826799
100
AcDbArc
 50
123.67604989632
 51
232.8510255850706
  0
ARC
  5
6CC
330
1F
100
AcDbEntity
  8
Defpoints
100
AcDbCircle
 10
69.71427037186785
 20
79.37147651621784
 30
0.0
 40
2.621031960308366
100
AcDbArc
 50
249.3541651390283
 51
305.0422685399959
  0
ARC
  5
6CD
330
1F
100
AcDbEntity
  8
Defpoints
100
AcDbCircle
 10
58.96688643012374
 20
74.3806962447363
 30
0.0
 40
4.754840387738799
100
AcDbArc
 50
328.4776355073702
 51
89.23205890942037
  0
ARC
  5
6CE
330
1F
100
AcDbEntity
  8
Defpoints
100
AcDbCircle
 10
60.52158507256256
 20
73.40570865073985
 30
0.0
 40
2.919862148683461
100
AcDbArc
 50
202.4798257837999
 51
328.8361359756465
  0
ARC
  5
6CF
330
1F
100
AcDbEntity
  8
Defpoints
100
AcDbCircle
 10
59.57039306470871
 20
72.44233635058804
 30
0.0
 40
1.753495160991676
100
AcDbArc
 50
62.59426258853657
 51
185.0076583112471
  0
ARC
  5
6D0
330
1F
100
AcDbEntity
  8
Defpoints
100
AcDbCircle
 10
44.69665598914429
 20
92.81266313493937
 30
0.0
 40
29.57579708052748
100
AcDbArc
 50
303.8098589169736
 51
321.4157710407147
  0
ARC
  5
6D1
330
1F
100
AcDbEntity
  8
Defpoints
100
AcDbCircle
 10
58.99628510290191
 20
71.88101141327646
 30
0.0
 40
4.233542086023361
100
AcDbArc
 50
186.947822131446
 51
300.6383350311273
  0
ARC
  5
6D2
330
1F
100
AcDbEntity
  8
Defpoints
100
AcDbCircle
 10
57.86050502540468
 20
72.10050145089382
 30
0.0
 40
3.152733858578046
100
AcDbArc
 50
37.02666202067797
 51
193.4179859948611
  0
ARC
  5
6D3
330
1F
100
AcDbEntity
  8
Defpoints
100
AcDbCircle
 10
67.52119700933906
 20
76.8236008973239
 30
0.0
 40
2.473917929991387
100
AcDbArc
 50
110.8763912424401
 51
276.8397987634564
  0
ENDSEC
  0
SECTION
  2
OBJECTS
  0
DICTIONARY
  5
C
330
0
100
AcDbDictionary
281
     1
  3
ACAD_COLOR
350
6B
  3
ACAD_GROUP
350
D
  3
ACAD_IMAGE_DICT
350
10F
  3
ACAD_IMAGE_VARS
350
110
  3
ACAD_LAYOUT
350
1A
  3
ACAD_MATERIAL
350
6A
  3
ACAD_MLEADERSTYLE
350
6F1
  3
ACAD_MLINESTYLE
350
17
  3
ACAD_PLOTSETTINGS
350
19
  3
ACAD_PLOTSTYLENAME
350
E
  3
ACAD_SCALELIST
350
6DF
  3
ACAD_TABLESTYLE
350
7E
  3
ACAD_VISUALSTYLE
350
EF
  3
ACDB_RECOMPOSE_DATA
350
702
  3
AcDbVariableDictionary
350
5E
  0
DICTIONARY
  5
14C
330
2
100
AcDbDictionary
280
     1
281
     1
  3
ACAD_LAYERFILTERS
360
150
  3
ACLYDICTIONARY
360
14F
  0
DICTIONARY
  5
6F6
330
10
100
AcDbDictionary
280
     1
281
     1
  3
ADSK_XREC_LAYER_RECONCILED
360
6F7
  0
DICTIONARY
  5
6F8
330
14A
100
AcDbDictionary
280
     1
281
     1
  3
ADSK_XREC_LAYER_RECONCILED
360
6F9
  0
DICTIONARY
  5
550
330
1F
100
AcDbDictionary
280
     1
281
     1
  3
ACAD_SORTENTS
360
551
  0
IMAGEDEF_REACTOR
  5
112
330
113
100
AcDbRasterImageDefReactor
 90
        2
330
113
  0
DICTIONARY
  5
6B
102
{ACAD_REACTORS
330
C
102
}
330
C
100
AcDbDictionary
281
     1
  0
DICTIONARY
  5
D
102
{ACAD_REACTORS
330
C
102
}
330
C
100
AcDbDictionary
281
     1
  0
DICTIONARY
  5
10F
102
{ACAD_REACTORS
330
C
102
}
330
C
100
AcDbDictionary
281
     1
  3
Schkatulka3_2
350
111
  0
RASTERVARIABLES
  5
110
102
{ACAD_REACTORS
330
C
102
}
330
C
100
AcDbRasterVariables
 90
        0
 70
     1
 71
     1
 72
     1
  0
DICTIONARY
  5
1A
102
{ACAD_REACTORS
330
C
102
}
330
C
100
AcDbDictionary
281
     1
  3
Layout1
350
D3
  3
Layout2
350
D7
  3
Model
350
22
  0
DICTIONARY
  5
6A
102
{ACAD_REACTORS
330
C
102
}
330
C
100
AcDbDictionary
281
     1
  3
ByBlock
350
ED
  3
ByLayer
350
EC
  3
Global
350
EE
  0
DICTIONARY
  5
6F1
102
{ACAD_REACTORS
330
C
102
}
330
C
100
AcDbDictionary
281
     1
  3
Standard
350
6F2
  0
DICTIONARY
  5
17
102
{ACAD_REACTORS
330
C
102
}
330
C
100
AcDbDictionary
281
     1
  3
Standard
350
18
  0
DICTIONARY
  5
19
102
{ACAD_REACTORS
330
C
102
}
330
C
100
AcDbDictionary
281
     1
  0
ACDBDICTIONARYWDFLT
  5
E
102
{ACAD_REACTORS
330
C
102
}
330
C
100
AcDbDictionary
281
     1
  3
Normal
350
F
100
AcDbDictionaryWithDefault
340
F
  0
DICTIONARY
  5
6DF
102
{ACAD_REACTORS
330
C
102
}
330
C
100
AcDbDictionary
281
     1
  3
A0
350
6E0
  3
A1
350
6E1
  3
A2
350
6E2
  3
A3
350
6E3
  3
A4
350
6E4
  3
A5
350
6E5
  3
A6
350
6E6
  3
A7
350
6E7
  3
A8
350
6E8
  3
A9
350
6E9
  3
B0
350
6EA
  3
B1
350
6EB
  3
B2
350
6EC
  3
B3
350
6ED
  3
B4
350
6EE
  3
B5
350
6EF
  3
B6
350
6F0
  0
DICTIONARY
  5
7E
102
{ACAD_REACTORS
330
C
102
}
330
C
100
AcDbDictionary
281
     1
  3
Standard
350
7F
  0
DICTIONARY
  5
EF
102
{ACAD_REACTORS
330
C
102
}
330
C
100
AcDbDictionary
281
     1
  3
2dWireframe
350
F5
  3
3D Hidden
350
F7
  3
3dWireframe
350
F6
  3
Basic
350
F4
  3
Brighten
350
FB
  3
ColorChange
350
FF
  3
Conceptual
350
F8
  3
Dim
350
FA
  3
EdgeColorOff
350
6DE
  3
Facepattern
350
FE
  3
Flat
350
F0
  3
FlatWithEdges
350
F1
  3
Gouraud
350
F2
  3
GouraudWithEdges
350
F3
  3
Hidden
350
6D6
  3
JitterOff
350
6DC
  3
Linepattern
350
FD
  3
OverhangOff
350
6DD
  3
Realistic
350
F9
  3
Shaded
350
6DB
  3
Shaded with edges
350
6DA
  3
Shades of Gray
350
6D7
  3
Sketchy
350
6D8
  3
Thicken
350
FC
  3
Wireframe
350
6D5
  3
X-Ray
350
6D9
  0
XRECORD
  5
702
102
{ACAD_REACTORS
330
C
102
}
330
C
100
AcDbXrecord
280
     1
 90
        1
330
7F
  0
DICTIONARY
  5
5E
102
{ACAD_REACTORS
330
C
102
}
330
C
100
AcDbDictionary
281
     1
  3
CANNOSCALE
350
6FC
  3
CMLEADERSTYLE
350
6FA
  3
CTABLESTYLE
350
84
  3
DIMASSOC
350
5F
  3
HIDETEXT
350
63
  3
LAYEREVAL
350
6FE
  3
LAYERNOTIFY
350
6FF
  3
LIGHTINGUNITS
350
6FD
  3
MSLTSCALE
350
6FB
  0
DICTIONARY
  5
150
102
{ACAD_REACTORS
330
14C
102
}
330
14C
100
AcDbDictionary
281
     1
  0
DICTIONARY
  5
14F
102
{ACAD_REACTORS
330
14C
102
}
330
14C
100
AcDbDictionary
281
     1
1001
ACAD
1000
<All
  0
XRECORD
  5
6F7
102
{ACAD_REACTORS
330
6F6
102
}
330
6F6
100
AcDbXrecord
280
     1
290
     1
  0
XRECORD
  5
6F9
102
{ACAD_REACTORS
330
6F8
102
}
330
6F8
100
AcDbXrecord
280
     1
290
     1
  0
SORTENTSTABLE
  5
551
102
{ACAD_REACTORS
330
550
102
}
330
550
100
AcDbSortentsTable
330
1F
331
1AA
  5
1AA
331
173
  5
173
331
17B
  5
17B
331
1B2
  5
1B2
331
183
  5
183
331
1BA
  5
1BA
331
1C2
  5
1C2
331
1CA
  5
1CA
331
18B
  5
18B
331
193
  5
193
331
1D2
  5
1D2
331
15C
  5
15C
331
19B
  5
19B
331
164
  5
164
331
16C
  5
16C
331
1A3
  5
1A3
331
174
  5
174
331
1AB
  5
1AB
331
17C
  5
17C
331
1B3
  5
1B3
331
184
  5
184
331
1BB
  5
1BB
331
1C3
  5
1C3
331
18C
  5
18C
331
1CB
  5
1CB
331
15D
  5
15D
331
194
  5
194
331
1D3
  5
1D3
331
165
  5
165
331
19C
  5
19C
331
1A4
  5
1A4
331
16D
  5
16D
331
1AC
  5
1AC
331
175
  5
175
331
17D
  5
17D
331
1B4
  5
1B4
331
146
  5
146
331
185
  5
185
331
1BC
  5
1BC
331
1C4
  5
1C4
331
1CC
  5
1CC
331
18D
  5
18D
331
195
  5
195
331
1D4
  5
1D4
331
15E
  5
15E
331
19D
  5
19D
331
166
  5
166
331
16E
  5
16E
331
1A5
  5
1A5
331
176
  5
176
331
1AD
  5
1AD
331
1B5
  5
1B5
331
17E
  5
17E
331
186
  5
186
331
1BD
  5
1BD
331
147
  5
147
331
1C5
  5
1C5
331
157
  5
157
331
18E
  5
18E
331
1CD
  5
1CD
331
15F
  5
15F
331
196
  5
196
331
1D5
  5
1D5
331
167
  5
167
331
19E
  5
19E
331
1A6
  5
1A6
331
16F
  5
16F
331
1AE
  5
1AE
331
177
  5
177
331
17F
  5
17F
331
1B6
  5
1B6
331
148
  5
148
331
187
  5
187
331
1BE
  5
1BE
331
1C6
  5
1C6
331
1CE
  5
1CE
331
158
  5
158
331
18F
  5
18F
331
197
  5
197
331
160
  5
160
331
168
  5
168
331
19F
  5
19F
331
1A7
  5
1A7
331
170
  5
170
331
178
  5
178
331
1AF
  5
1AF
331
1B7
  5
1B7
331
180
  5
180
331
1BF
  5
1BF
331
149
  5
149
331
1C7
  5
1C7
331
188
  5
188
331
159
  5
159
331
190
  5
190
331
1CF
  5
1CF
331
161
  5
161
331
198
  5
198
331
169
  5
169
331
1A0
  5
1A0
331
1A8
  5
1A8
331
171
  5
171
331
179
  5
179
331
1B0
  5
1B0
331
181
  5
181
331
1B8
  5
1B8
331
1C0
  5
1C0
331
1C8
  5
1C8
331
189
  5
189
331
1D0
  5
1D0
331
15A
  5
15A
331
191
  5
191
331
199
  5
199
331
113
  5
113
331
162
  5
162
331
16A
  5
16A
331
1A1
  5
1A1
331
172
  5
172
331
1A9
  5
1A9
331
17A
  5
17A
331
1B1
  5
1B1
331
182
  5
182
331
1B9
  5
1B9
331
1C1
  5
1C1
331
18A
  5
18A
331
1C9
  5
1C9
331
15B
  5
15B
331
192
  5
192
331
1D1
  5
1D1
331
163
  5
163
331
19A
  5
19A
331
16B
  5
16B
331
1A2
  5
1A2
  0
IMAGEDEF
  5
111
102
{ACAD_REACTORS
330
10F
330
112
102
}
330
10F
100
AcDbRasterImageDef
 90
        0
  1
C:\\Users\\ksergey\\Pictures\\Schkatulka3_2.gif
 10
520.0
 20
202.0
 11
0.0019230769230769
 21
0.0019230769230769
280
     1
281
     0
  0
LAYOUT
  5
D3
102
{ACAD_REACTORS
330
1A
102
}
330
1A
100
AcDbPlotSettings
  1

  2
C:\\Documents and Settings\\basas\\Application Data\\Autodesk\\AutoCAD 2005\\R16.1\\enu\\plotters\\Default Windows System Printer.pc3
  4

  6

 40
0.0
 41
0.0
 42
0.0
 43
0.0
 44
0.0
 45
0.0
 46
0.0
 47
0.0
 48
0.0
 49
0.0
140
0.0
141
0.0
142
1.0
143
1.0
 70
   688
 72
     0
 73
     0
 74
     5
  7

 75
    16
147
1.0
 76
     0
 77
     2
 78
   300
148
0.0
149
0.0
100
AcDbLayout
  1
Layout1
 70
     1
 71
     1
 10
0.0
 20
0.0
 11
12.0
 21
9.0
 12
0.0
 22
0.0
 32
0.0
 14
0.0
 24
0.0
 34
0.0
 15
0.0
 25
0.0
 35
0.0
146
0.0
 13
0.0
 23
0.0
 33
0.0
 16
1.0
 26
0.0
 36
0.0
 17
0.0
 27
1.0
 37
0.0
 76
     0
330
D2
  0
LAYOUT
  5
D7
102
{ACAD_REACTORS
330
1A
102
}
330
1A
100
AcDbPlotSettings
  1

  2
C:\\Documents and Settings\\basas\\Application Data\\Autodesk\\AutoCAD 2005\\R16.1\\enu\\plotters\\Default Windows System Printer.pc3
  4

  6

 40
0.0
 41
0.0
 42
0.0
 43
0.0
 44
0.0
 45
0.0
 46
0.0
 47
0.0
 48
0.0
 49
0.0
140
0.0
141
0.0
142
1.0
143
1.0
 70
   688
 72
     0
 73
     0
 74
     5
  7

 75
    16
147
1.0
 76
     0
 77
     2
 78
   300
148
0.0
149
0.0
100
AcDbLayout
  1
Layout2
 70
     1
 71
     2
 10
0.0
 20
0.0
 11
12.0
 21
9.0
 12
0.0
 22
0.0
 32
0.0
 14
0.0
 24
0.0
 34
0.0
 15
0.0
 25
0.0
 35
0.0
146
0.0
 13
0.0
 23
0.0
 33
0.0
 16
1.0
 26
0.0
 36
0.0
 17
0.0
 27
1.0
 37
0.0
 76
     0
330
D6
  0
LAYOUT
  5
22
102
{ACAD_REACTORS
330
1A
102
}
330
1A
100
AcDbPlotSettings
  1

  2
none_device
  4
ISO_A4_(210.00_x_297.00_MM)
  6

 40
7.5
 41
20.0
 42
7.5
 43
20.0
 44
210.0
 45
297.0
 46
11.54999923706054
 47
-13.65000009536743
 48
0.0
 49
0.0
140
0.0
141
0.0
142
1.0
143
8.704084754739808
 70
 11952
 72
     1
 73
     0
 74
     0
  7

 75
     0
147
0.1148885871608098
 76
     0
 77
     2
 78
   300
148
0.0
149
0.0
100
AcDbLayout
  1
Model
 70
     1
 71
     0
 10
0.0
 20
0.0
 11
12.0
 21
9.0
 12
0.0
 22
0.0
 32
0.0
 14
0.0
 24
0.0
 34
0.0
 15
0.0
 25
0.0
 35
0.0
146
0.0
 13
0.0
 23
0.0
 33
0.0
 16
1.0
 26
0.0
 36
0.0
 17
0.0
 27
1.0
 37
0.0
 76
     0
330
1F
331
EA
1001
ACAD_PSEXT
1000
None
1000
None
1000
Not applicable
1000
The layout will not be plotted unless a new plotter configuration name is selected.
1070
     0
  0
MATERIAL
  5
ED
102
{ACAD_REACTORS
330
6A
102
}
330
6A
100
AcDbMaterial
  1
ByBlock
 73
     1
 78
     1
172
     1
176
     1
270
     1
274
     1
 94
       63
  0
MATERIAL
  5
EC
102
{ACAD_REACTORS
330
6A
102
}
330
6A
100
AcDbMaterial
  1
ByLayer
 73
     1
 78
     1
172
     1
176
     1
270
     1
274
     1
 94
       63
  0
MATERIAL
  5
EE
102
{ACAD_REACTORS
330
6A
102
}
330
6A
100
AcDbMaterial
  1
Global
 73
     1
 78
     1
172
     1
176
     1
270
     1
274
     1
 94
       63
  0
MLEADERSTYLE
  5
6F2
102
{ACAD_REACTORS
330
6F1
102
}
330
6F1
100
AcDbMLeaderStyle
170
     2
171
     1
172
     0
 90
        2
 40
0.0
 41
0.0
173
     1
 91
-1056964608
340
14
 92
       -2
290
     1
 42
2.0
291
     1
 43
0.36
  3
Standard
 44
4.0
300

342
11
174
     1
178
     6
175
     1
176
     0
 93
-1056964608
 45
4.0
292
     0
297
     0
 46
4.0
 94
-1056964608
 47
1.0
 49
1.0
140
1.0
293
     1
141
0.0
294
     1
177
     0
142
1.0
295
     0
296
     0
143
0.125
1001
ACAD_MLEADERVER
1070
     2
  0
MLINESTYLE
  5
18
102
{ACAD_REACTORS
330
17
102
}
330
17
100
AcDbMlineStyle
  2
STANDARD
 70
     0
  3

 62
   256
 51
90.0
 52
90.0
 71
     2
 49
0.5
 62
   256
  6
BYLAYER
 49
-0.5
 62
   256
  6
BYLAYER
  0
ACDBPLACEHOLDER
  5
F
102
{ACAD_REACTORS
330
E
102
}
330
E
  0
SCALE
  5
6E0
102
{ACAD_REACTORS
330
6DF
102
}
330
6DF
100
AcDbScale
 70
     0
300
1:1
140
1.0
141
1.0
290
     1
  0
SCALE
  5
6E1
102
{ACAD_REACTORS
330
6DF
102
}
330
6DF
100
AcDbScale
 70
     0
300
1:2
140
1.0
141
2.0
290
     0
  0
SCALE
  5
6E2
102
{ACAD_REACTORS
330
6DF
102
}
330
6DF
100
AcDbScale
 70
     0
300
1:4
140
1.0
141
4.0
290
     0
  0
SCALE
  5
6E3
102
{ACAD_REACTORS
330
6DF
102
}
330
6DF
100
AcDbScale
 70
     0
300
1:5
140
1.0
141
5.0
290
     0
  0
SCALE
  5
6E4
102
{ACAD_REACTORS
330
6DF
102
}
330
6DF
100
AcDbScale
 70
     0
300
1:8
140
1.0
141
8.0
290
     0
  0
SCALE
  5
6E5
102
{ACAD_REACTORS
330
6DF
102
}
330
6DF
100
AcDbScale
 70
     0
300
1:10
140
1.0
141
10.0
290
     0
  0
SCALE
  5
6E6
102
{ACAD_REACTORS
330
6DF
102
}
330
6DF
100
AcDbScale
 70
     0
300
1:16
140
1.0
141
16.0
290
     0
  0
SCALE
  5
6E7
102
{ACAD_REACTORS
330
6DF
102
}
330
6DF
100
AcDbScale
 70
     0
300
1:20
140
1.0
141
20.0
290
     0
  0
SCALE
  5
6E8
102
{ACAD_REACTORS
330
6DF
102
}
330
6DF
100
AcDbScale
 70
     0
300
1:30
140
1.0
141
30.0
290
     0
  0
SCALE
  5
6E9
102
{ACAD_REACTORS
330
6DF
102
}
330
6DF
100
AcDbScale
 70
     0
300
1:40
140
1.0
141
40.0
290
     0
  0
SCALE
  5
6EA
102
{ACAD_REACTORS
330
6DF
102
}
330
6DF
100
AcDbScale
 70
     0
300
1:50
140
1.0
141
50.0
290
     0
  0
SCALE
  5
6EB
102
{ACAD_REACTORS
330
6DF
102
}
330
6DF
100
AcDbScale
 70
     0
300
1:100
140
1.0
141
100.0
290
     0
  0
SCALE
  5
6EC
102
{ACAD_REACTORS
330
6DF
102
}
330
6DF
100
AcDbScale
 70
     0
300
2:1
140
2.0
141
1.0
290
     0
  0
SCALE
  5
6ED
102
{ACAD_REACTORS
330
6DF
102
}
330
6DF
100
AcDbScale
 70
     0
300
4:1
140
4.0
141
1.0
290
     0
  0
SCALE
  5
6EE
102
{ACAD_REACTORS
330
6DF
102
}
330
6DF
100
AcDbScale
 70
     0
300
8:1
140
8.0
141
1.0
290
     0
  0
SCALE
  5
6EF
102
{ACAD_REACTORS
330
6DF
102
}
330
6DF
100
AcDbScale
 70
     0
300
10:1
140
10.0
141
1.0
290
     0
  0
SCALE
  5
6F0
102
{ACAD_REACTORS
330
6DF
102
}
330
6DF
100
AcDbScale
 70
     0
300
100:1
140
100.0
141
1.0
290
     0
  0
TABLESTYLE
  5
7F
102
{ACAD_XDICTIONARY
360
700
102
}
102
{ACAD_REACTORS
330
7E
102
}
330
7E
100
AcDbTableStyle
  3
Standard
 70
     0
 71
     0
 40
1.5
 41
1.5
280
     0
281
     0
  7
Standard
140
4.5
170
     2
 62
     0
 63
     7
283
     0
 90
      512
 91
        0
  1

274
    -2
284
     1
 64
     0
275
    -2
285
     1
 65
     0
276
    -2
286
     1
 66
     0
277
    -2
287
     1
 67
     0
278
    -2
288
     1
 68
     0
279
    -2
289
     1
 69
     0
  7
Standard
140
6.0
170
     5
 62
     0
 63
     7
283
     0
 90
      512
 91
        0
  1

274
    -2
284
     1
 64
     0
275
    -2
285
     1
 65
     0
276
    -2
286
     1
 66
     0
277
    -2
287
     1
 67
     0
278
    -2
288
     1
 68
     0
279
    -2
289
     1
 69
     0
  7
Standard
140
4.5
170
     5
 62
     0
 63
     7
283
     0
 90
      512
 91
        0
  1

274
    -2
284
     1
 64
     0
275
    -2
285
     1
 65
     0
276
    -2
286
     1
 66
     0
277
    -2
287
     1
 67
     0
278
    -2
288
     1
 68
     0
279
    -2
289
     1
 69
     0
  0
VISUALSTYLE
  5
F5
102
{ACAD_XDICTIONARY
360
70D
102
}
102
{ACAD_REACTORS
330
EF
102
}
330
EF
100
AcDbVisualStyle
  2
2dWireframe
 70
     4
 71
     0
 72
     2
 73
     1
 90
        0
 40
-0.6
 41
-30.0
 62
     5
 63
     7
421
 16777215
 74
     1
 91
        4
 64
     7
 65
   257
 75
     1
175
     1
 42
1.0
 92
        0
 66
   257
 43
1.0
 76
     1
 77
     6
 78
     2
 67
     7
 79
     5
170
     0
171
     0
290
     0
174
     0
 93
        1
 44
0.0
173
     0
291
     0
 45
0.0
1001
ACAD
1000
AcDbSavedByObjectVersion
1070
     0
  0
VISUALSTYLE
  5
F7
102
{ACAD_XDICTIONARY
360
711
102
}
102
{ACAD_REACTORS
330
EF
102
}
330
EF
100
AcDbVisualStyle
  2
3D Hidden
 70
     6
 71
     1
 72
     2
 73
     2
 90
        0
 40
-0.6
 41
-30.0
 62
     5
 63
     7
421
 16777215
 74
     2
 91
        2
 64
     7
 65
   257
 75
     2
175
     1
 42
40.0
 92
        0
 66
   257
 43
1.0
 76
     1
 77
     6
 78
     2
 67
     7
 79
     3
170
     0
171
     0
290
     0
174
     0
 93
        1
 44
0.0
173
     0
291
     0
 45
0.0
1001
ACAD
1000
AcDbSavedByObjectVersion
1070
     0
  0
VISUALSTYLE
  5
F6
102
{ACAD_XDICTIONARY
360
70F
102
}
102
{ACAD_REACTORS
330
EF
102
}
330
EF
100
AcDbVisualStyle
  2
3dWireframe
 70
     5
 71
     0
 72
     2
 73
     1
 90
        0
 40
-0.6
 41
-30.0
 62
     5
 63
     7
421
 16777215
 74
     1
 91
        4
 64
     7
 65
   257
 75
     1
175
     1
 42
1.0
 92
        0
 66
   257
 43
1.0
 76
     1
 77
     6
 78
     2
 67
     7
 79
     5
170
     0
171
     0
290
     0
174
     0
 93
        1
 44
0.0
173
     0
291
     0
 45
0.0
1001
ACAD
1000
AcDbSavedByObjectVersion
1070
     0
  0
VISUALSTYLE
  5
F4
102
{ACAD_XDICTIONARY
360
70B
102
}
102
{ACAD_REACTORS
330
EF
102
}
330
EF
100
AcDbVisualStyle
  2
Basic
 70
     7
 71
     1
 72
     0
 73
     1
 90
        0
 40
-0.6
 41
-30.0
 62
     5
 63
     7
421
 16777215
 74
     0
 91
        4
 64
     7
 65
   257
 75
     1
175
     1
 42
1.0
 92
        8
 66
     7
 43
1.0
 76
     1
 77
     6
 78
     2
 67
     7
 79
     5
170
     0
171
     0
290
     0
174
     0
 93
        1
 44
0.0
173
     0
291
     1
 45
0.0
1001
ACAD
1000
AcDbSavedByObjectVersion
1070
     0
  0
VISUALSTYLE
  5
FB
102
{ACAD_XDICTIONARY
360
719
102
}
102
{ACAD_REACTORS
330
EF
102
}
330
EF
100
AcDbVisualStyle
  2
Brighten
 70
    12
 71
     2
 72
     2
 73
     1
 90
        0
 40
-0.6
 41
-30.0
 62
     5
 63
     7
421
 16777215
 74
     1
 91
        4
 64
     7
 65
   257
 75
     1
175
     1
 42
1.0
 92
        8
 66
     7
 43
1.0
 76
     1
 77
     6
 78
     2
 67
     7
 79
     5
170
     0
171
     0
290
     0
174
     0
 93
        1
 44
50.0
173
     0
291
     1
 45
0.0
1001
ACAD
1000
AcDbSavedByObjectVersion
1070
     0
  0
VISUALSTYLE
  5
FF
102
{ACAD_XDICTIONARY
360
721
102
}
102
{ACAD_REACTORS
330
EF
102
}
330
EF
100
AcDbVisualStyle
  2
ColorChange
 70
    16
 71
     2
 72
     2
 73
     3
 90
        0
 40
-0.6
 41
-30.0
 62
     5
 63
     8
421
  8421504
 74
     1
 91
        4
 64
     7
 65
   257
 75
     1
175
     1
 42
1.0
 92
        8
 66
     8
424
  8421504
 43
1.0
 76
     1
 77
     6
 78
     2
 67
     7
 79
     5
170
     0
171
     0
290
     0
174
     0
 93
        1
 44
0.0
173
     0
291
     1
 45
0.0
1001
ACAD
1000
AcDbSavedByObjectVersion
1070
     0
  0
VISUALSTYLE
  5
F8
102
{ACAD_XDICTIONARY
360
713
102
}
102
{ACAD_REACTORS
330
EF
102
}
330
EF
100
AcDbVisualStyle
  2
Conceptual
 70
     9
 71
     3
 72
     2
 73
     1
 90
        0
 40
-0.6
 41
-30.0
 62
     5
 63
     7
421
 16777215
 74
     2
 91
        2
 64
     7
 65
   257
 75
     1
175
     1
 42
40.0
 92
        8
 66
     7
 43
1.0
 76
     1
 77
     6
 78
     2
 67
     7
 79
     3
170
     0
171
     0
290
     0
174
     0
 93
        1
 44
0.0
173
     0
291
     0
 45
0.0
1001
ACAD
1000
AcDbSavedByObjectVersion
1070
     0
  0
VISUALSTYLE
  5
FA
102
{ACAD_XDICTIONARY
360
717
102
}
102
{ACAD_REACTORS
330
EF
102
}
330
EF
100
AcDbVisualStyle
  2
Dim
 70
    11
 71
     2
 72
     2
 73
     1
 90
        0
 40
-0.6
 41
-30.0
 62
     5
 63
     7
421
 16777215
 74
     1
 91
        4
 64
     7
 65
   257
 75
     1
175
     1
 42
1.0
 92
        8
 66
     7
 43
1.0
 76
     1
 77
     6
 78
     2
 67
     7
 79
     5
170
     0
171
     0
290
     0
174
     0
 93
        1
 44
-50.0
173
     0
291
     1
 45
0.0
1001
ACAD
1000
AcDbSavedByObjectVersion
1070
     0
  0
VISUALSTYLE
  5
6DE
102
{ACAD_XDICTIONARY
360
735
102
}
102
{ACAD_REACTORS
330
EF
102
}
330
EF
100
AcDbVisualStyle
  2
EdgeColorOff
 70
    22
 71
     2
 72
     2
 73
     0
 90
        0
 40
-0.6
 41
-30.0
 62
     5
 63
     7
421
 16777215
 74
     1
 91
        4
 64
     7
 65
   257
 75
     1
175
     1
 42
1.0
 92
        8
 66
     7
 43
1.0
 76
     1
 77
     6
 78
     2
 67
     7
 79
     5
170
     0
171
     0
290
     0
174
     0
 93
        1
 44
0.0
173
     0
291
     1
 45
0.0
1001
ACAD
1000
AcDbSavedByObjectVersion
1070
     0
  0
VISUALSTYLE
  5
FE
102
{ACAD_XDICTIONARY
360
71F
102
}
102
{ACAD_REACTORS
330
EF
102
}
330
EF
100
AcDbVisualStyle
  2
Facepattern
 70
    15
 71
     2
 72
     2
 73
     1
 90
        0
 40
-0.6
 41
-30.0
 62
     5
 63
     7
421
 16777215
 74
     1
 91
        4
 64
     7
 65
   257
 75
     1
175
     1
 42
1.0
 92
        8
 66
     7
 43
1.0
 76
     1
 77
     6
 78
     2
 67
     7
 79
     5
170
     0
171
     0
290
     0
174
     0
 93
        1
 44
0.0
173
     0
291
     1
 45
0.0
1001
ACAD
1000
AcDbSavedByObjectVersion
1070
     0
  0
VISUALSTYLE
  5
F0
102
{ACAD_XDICTIONARY
360
703
102
}
102
{ACAD_REACTORS
330
EF
102
}
330
EF
100
AcDbVisualStyle
  2
Flat
 70
     0
 71
     2
 72
     1
 73
     1
 90
        2
 40
-0.6
 41
30.0
 62
     5
 63
     7
421
 16777215
 74
     0
 91
        4
 64
     7
 65
   257
 75
     1
175
     1
 42
1.0
 92
        8
 66
     7
 43
1.0
 76
     1
 77
     6
 78
     2
 67
     7
 79
     5
170
     0
171
     0
290
     0
174
     0
 93
        1
 44
0.0
173
     0
291
     1
 45
0.0
1001
ACAD
1000
AcDbSavedByObjectVersion
1070
     0
  0
VISUALSTYLE
  5
F1
102
{ACAD_XDICTIONARY
360
705
102
}
102
{ACAD_REACTORS
330
EF
102
}
330
EF
100
AcDbVisualStyle
  2
FlatWithEdges
 70
     1
 71
     2
 72
     1
 73
     1
 90
        2
 40
-0.6
 41
30.0
 62
     5
 63
     7
421
 16777215
 74
     1
 91
        4
 64
     7
 65
   257
 75
     1
175
     1
 42
1.0
 92
        0
 66
   257
 43
1.0
 76
     1
 77
     6
 78
     2
 67
     7
 79
     5
170
     0
171
     0
290
     0
174
     0
 93
        1
 44
0.0
173
     0
291
     1
 45
0.0
1001
ACAD
1000
AcDbSavedByObjectVersion
1070
     0
  0
VISUALSTYLE
  5
F2
102
{ACAD_XDICTIONARY
360
707
102
}
102
{ACAD_REACTORS
330
EF
102
}
330
EF
100
AcDbVisualStyle
  2
Gouraud
 70
     2
 71
     2
 72
     2
 73
     1
 90
        2
 40
-0.6
 41
30.0
 62
     5
 63
     7
421
 16777215
 74
     0
 91
        4
 64
     7
 65
   257
 75
     1
175
     1
 42
1.0
 92
        0
 66
     7
 43
1.0
 76
     1
 77
     6
 78
     2
 67
     7
 79
     5
170
     0
171
     0
290
     0
174
     0
 93
        1
 44
0.0
173
     0
291
     1
 45
0.0
1001
ACAD
1000
AcDbSavedByObjectVersion
1070
     0
  0
VISUALSTYLE
  5
F3
102
{ACAD_XDICTIONARY
360
709
102
}
102
{ACAD_REACTORS
330
EF
102
}
330
EF
100
AcDbVisualStyle
  2
GouraudWithEdges
 70
     3
 71
     2
 72
     2
 73
     1
 90
        2
 40
-0.6
 41
30.0
 62
     5
 63
     7
421
 16777215
 74
     1
 91
        4
 64
     7
 65
   257
 75
     1
175
     1
 42
1.0
 92
        0
 66
   257
 43
1.0
 76
     1
 77
     6
 78
     2
 67
     7
 79
     5
170
     0
171
     0
290
     0
174
     0
 93
        1
 44
0.0
173
     0
291
     1
 45
0.0
1001
ACAD
1000
AcDbSavedByObjectVersion
1070
     0
  0
VISUALSTYLE
  5
6D6
102
{ACAD_XDICTIONARY
360
725
102
}
102
{ACAD_REACTORS
330
EF
102
}
330
EF
100
AcDbVisualStyle
  2
Hidden
 70
     6
 71
     1
 72
     2
 73
     2
 90
        0
 40
-0.6
 41
-30.0
 62
     5
 63
     7
421
 16777215
 74
     2
 91
        2
 64
     7
 65
   257
 75
     2
175
     1
 42
40.0
 92
        0
 66
   257
 43
1.0
 76
     1
 77
     6
 78
     2
 67
     7
 79
     3
170
     0
171
     0
290
     0
174
     0
 93
        1
 44
0.0
173
     0
291
     0
 45
0.0
1001
ACAD
1000
AcDbSavedByObjectVersion
1070
     0
  0
VISUALSTYLE
  5
6DC
102
{ACAD_XDICTIONARY
360
731
102
}
102
{ACAD_REACTORS
330
EF
102
}
330
EF
100
AcDbVisualStyle
  2
JitterOff
 70
    20
 71
     2
 72
     2
 73
     0
 90
        0
 40
-0.6
 41
-30.0
 62
     5
 63
     7
421
 16777215
 74
     1
 91
        4
 64
     7
 65
   257
 75
     1
175
     1
 42
1.0
 92
       10
 66
     7
 43
1.0
 76
     1
 77
     6
 78
     2
 67
     7
 79
     5
170
     0
171
     0
290
     0
174
     0
 93
        1
 44
0.0
173
     0
291
     1
 45
0.0
1001
ACAD
1000
AcDbSavedByObjectVersion
1070
     0
  0
VISUALSTYLE
  5
FD
102
{ACAD_XDICTIONARY
360
71D
102
}
102
{ACAD_REACTORS
330
EF
102
}
330
EF
100
AcDbVisualStyle
  2
Linepattern
 70
    14
 71
     2
 72
     2
 73
     1
 90
        0
 40
-0.6
 41
-30.0
 62
     5
 63
     7
421
 16777215
 74
     1
 91
        4
 64
     7
 65
   257
 75
     7
175
     7
 42
1.0
 92
        8
 66
     7
 43
1.0
 76
     1
 77
     6
 78
     2
 67
     7
 79
     5
170
     0
171
     0
290
     0
174
     0
 93
        1
 44
0.0
173
     0
291
     1
 45
0.0
1001
ACAD
1000
AcDbSavedByObjectVersion
1070
     0
  0
VISUALSTYLE
  5
6DD
102
{ACAD_XDICTIONARY
360
733
102
}
102
{ACAD_REACTORS
330
EF
102
}
330
EF
100
AcDbVisualStyle
  2
OverhangOff
 70
    21
 71
     2
 72
     2
 73
     0
 90
        0
 40
-0.6
 41
-30.0
 62
     5
 63
     7
421
 16777215
 74
     1
 91
        4
 64
     7
 65
   257
 75
     1
175
     1
 42
1.0
 92
        9
 66
     7
 43
1.0
 76
     1
 77
     6
 78
     2
 67
     7
 79
     5
170
     0
171
     0
290
     0
174
     0
 93
        1
 44
0.0
173
     0
291
     1
 45
0.0
1001
ACAD
1000
AcDbSavedByObjectVersion
1070
     0
  0
VISUALSTYLE
  5
F9
102
{ACAD_XDICTIONARY
360
715
102
}
102
{ACAD_REACTORS
330
EF
102
}
330
EF
100
AcDbVisualStyle
  2
Realistic
 70
     8
 71
     2
 72
     2
 73
     1
 90
        0
 40
-0.6
 41
-30.0
 62
     5
 63
     7
421
 16777215
 74
     1
 91
        0
 64
     7
 65
   257
 75
     1
175
     1
 42
1.0
 92
        8
 66
     8
424
  7895160
 43
1.0
 76
     1
 77
     6
 78
     2
 67
     7
 79
     5
170
     0
171
     0
290
     0
174
     0
 93
       13
 44
0.0
173
     0
291
     0
 45
0.0
1001
ACAD
1000
AcDbSavedByObjectVersion
1070
     0
  0
VISUALSTYLE
  5
6DB
102
{ACAD_XDICTIONARY
360
72F
102
}
102
{ACAD_REACTORS
330
EF
102
}
330
EF
100
AcDbVisualStyle
  2
Shaded
 70
    27
 71
     2
 72
     2
 73
     1
 90
        2
 40
-0.6
 41
30.0
 62
     5
 63
     7
421
 16777215
 74
     0
 91
        4
 64
     7
 65
   257
 75
     1
175
     1
 42
1.0
 92
        8
 66
   257
 43
1.0
 76
     1
 77
     6
 78
     2
 67
     8
425
  7895160
 79
     3
170
     0
171
     0
290
     0
174
     0
 93
        5
 44
0.0
173
     0
291
     0
 45
0.0
1001
ACAD
1000
AcDbSavedByObjectVersion
1070
     0
  0
VISUALSTYLE
  5
6DA
102
{ACAD_XDICTIONARY
360
72D
102
}
102
{ACAD_REACTORS
330
EF
102
}
330
EF
100
AcDbVisualStyle
  2
Shaded with edges
 70
    26
 71
     2
 72
     2
 73
     1
 90
        2
 40
-0.6
 41
30.0
 62
     5
 63
     7
421
 16777215
 74
     1
 91
       10
 64
     7
 65
   257
 75
     2
175
     1
 42
1.0
 92
        8
 66
   257
 43
1.0
 76
     1
 77
     6
 78
     2
 67
     7
 79
     3
170
     0
171
     0
290
     0
174
     0
 93
        5
 44
0.0
173
     0
291
     0
 45
0.0
1001
ACAD
1000
AcDbSavedByObjectVersion
1070
     0
  0
VISUALSTYLE
  5
6D7
102
{ACAD_XDICTIONARY
360
727
102
}
102
{ACAD_REACTORS
330
EF
102
}
330
EF
100
AcDbVisualStyle
  2
Shades of Gray
 70
    23
 71
     2
 72
     2
 73
     3
 90
        0
 40
-0.6
 41
-30.0
 62
     5
 63
     7
421
 16777215
 74
     2
 91
        2
 64
     7
 65
     7
 75
     1
175
     1
 42
40.0
 92
        8
 66
     7
 43
1.0
 76
     1
 77
     6
 78
     2
 67
     7
 79
     3
170
     0
171
     0
290
     0
174
     0
 93
        1
 44
0.0
173
     0
291
     0
 45
0.0
1001
ACAD
1000
AcDbSavedByObjectVersion
1070
     0
  0
VISUALSTYLE
  5
6D8
102
{ACAD_XDICTIONARY
360
729
102
}
102
{ACAD_REACTORS
330
EF
102
}
330
EF
100
AcDbVisualStyle
  2
Sketchy
 70
    24
 71
     1
 72
     2
 73
     2
 90
        0
 40
-0.6
 41
-30.0
 62
     5
 63
     7
421
 16777215
 74
     2
 91
        2
 64
     7
 65
     7
 75
     1
175
     1
 42
40.0
 92
       11
 66
     7
 43
1.0
 76
     1
 77
     6
 78
     2
 67
     7
 79
     6
170
     0
171
     0
290
     0
174
     0
 93
        1
 44
0.0
173
     0
291
     0
 45
0.0
1001
ACAD
1000
AcDbSavedByObjectVersion
1070
     0
  0
VISUALSTYLE
  5
FC
102
{ACAD_XDICTIONARY
360
71B
102
}
102
{ACAD_REACTORS
330
EF
102
}
330
EF
100
AcDbVisualStyle
  2
Thicken
 70
    13
 71
     2
 72
     2
 73
     1
 90
        0
 40
-0.6
 41
-30.0
 62
     5
 63
     7
421
 16777215
 74
     1
 91
        4
 64
     7
 65
   257
 75
     1
175
     1
 42
1.0
 92
       12
 66
     7
 43
1.0
 76
     1
 77
     6
 78
     2
 67
     7
 79
     5
170
     0
171
     0
290
     0
174
     0
 93
        1
 44
0.0
173
     0
291
     1
 45
0.0
1001
ACAD
1000
AcDbSavedByObjectVersion
1070
     0
  0
VISUALSTYLE
  5
6D5
102
{ACAD_XDICTIONARY
360
723
102
}
102
{ACAD_REACTORS
330
EF
102
}
330
EF
100
AcDbVisualStyle
  2
Wireframe
 70
     5
 71
     0
 72
     2
 73
     0
 90
        0
 40
-0.6
 41
-30.0
 62
     5
 63
     7
421
 16777215
 74
     1
 91
        4
 64
     7
 65
   257
 75
     1
175
     1
 42
1.0
 92
        0
 66
   257
 43
1.0
 76
     1
 77
     6
 78
     2
 67
     7
 79
     3
170
     0
171
     0
290
     0
174
     0
 93
        1
 44
0.0
173
     0
291
     0
 45
0.0
1001
ACAD
1000
AcDbSavedByObjectVersion
1070
     0
  0
VISUALSTYLE
  5
6D9
102
{ACAD_XDICTIONARY
360
72B
102
}
102
{ACAD_REACTORS
330
EF
102
}
330
EF
100
AcDbVisualStyle
  2
X-Ray
 70
    25
 71
     2
 72
     2
 73
     1
 90
        1
 40
0.5
 41
-30.0
 62
     5
 63
     7
421
 16777215
 74
     1
 91
        0
 64
     7
 65
   257
 75
     1
175
     1
 42
1.0
 92
        8
 66
     7
 43
1.0
 76
     1
 77
     6
 78
     2
 67
     7
 79
     3
170
     0
171
     0
290
     0
174
     0
 93
       13
 44
0.0
173
     0
291
     0
 45
0.0
1001
ACAD
1000
AcDbSavedByObjectVersion
1070
     0
  0
DICTIONARYVAR
  5
6FC
102
{ACAD_REACTORS
330
5E
102
}
330
5E
100
DictionaryVariables
280
     0
  1
1:1
  0
DICTIONARYVAR
  5
6FA
102
{ACAD_REACTORS
330
5E
102
}
330
5E
100
DictionaryVariables
280
     0
  1
STANDARD
  0
DICTIONARYVAR
  5
84
102
{ACAD_REACTORS
330
5E
102
}
330
5E
100
DictionaryVariables
280
     0
  1
STANDARD
  0
DICTIONARYVAR
  5
5F
102
{ACAD_REACTORS
330
5E
102
}
330
5E
100
DictionaryVariables
280
     0
  1
2
  0
DICTIONARYVAR
  5
63
102
{ACAD_REACTORS
330
5E
102
}
330
5E
100
DictionaryVariables
280
     0
  1
1
  0
DICTIONARYVAR
  5
6FE
102
{ACAD_REACTORS
330
5E
102
}
330
5E
100
DictionaryVariables
280
     0
  1
1
  0
DICTIONARYVAR
  5
6FF
102
{ACAD_REACTORS
330
5E
102
}
330
5E
100
DictionaryVariables
280
     0
  1
15
  0
DICTIONARYVAR
  5
6FD
102
{ACAD_REACTORS
330
5E
102
}
330
5E
100
DictionaryVariables
280
     0
  1
0
  0
DICTIONARYVAR
  5
6FB
102
{ACAD_REACTORS
330
5E
102
}
330
5E
100
DictionaryVariables
280
     0
  1
0
  0
DICTIONARY
  5
700
330
7F
100
AcDbDictionary
280
     1
281
     1
  3
ACAD_ROUNDTRIP_2008_TABLESTYLE_CELLSTYLEMAP
360
701
  0
DICTIONARY
  5
70D
330
F5
100
AcDbDictionary
280
     1
281
     1
  3
ACAD_XREC_ROUNDTRIP
360
70E
  0
DICTIONARY
  5
711
330
F7
100
AcDbDictionary
280
     1
281
     1
  3
ACAD_XREC_ROUNDTRIP
360
712
  0
DICTIONARY
  5
70F
330
F6
100
AcDbDictionary
280
     1
281
     1
  3
ACAD_XREC_ROUNDTRIP
360
710
  0
DICTIONARY
  5
70B
330
F4
100
AcDbDictionary
280
     1
281
     1
  3
ACAD_XREC_ROUNDTRIP
360
70C
  0
DICTIONARY
  5
719
330
FB
100
AcDbDictionary
280
     1
281
     1
  3
ACAD_XREC_ROUNDTRIP
360
71A
  0
DICTIONARY
  5
721
330
FF
100
AcDbDictionary
280
     1
281
     1
  3
ACAD_XREC_ROUNDTRIP
360
722
  0
DICTIONARY
  5
713
330
F8
100
AcDbDictionary
280
     1
281
     1
  3
ACAD_XREC_ROUNDTRIP
360
714
  0
DICTIONARY
  5
717
330
FA
100
AcDbDictionary
280
     1
281
     1
  3
ACAD_XREC_ROUNDTRIP
360
718
  0
DICTIONARY
  5
735
330
6DE
100
AcDbDictionary
280
     1
281
     1
  3
ACAD_XREC_ROUNDTRIP
360
736
  0
DICTIONARY
  5
71F
330
FE
100
AcDbDictionary
280
     1
281
     1
  3
ACAD_XREC_ROUNDTRIP
360
720
  0
DICTIONARY
  5
703
330
F0
100
AcDbDictionary
280
     1
281
     1
  3
ACAD_XREC_ROUNDTRIP
360
704
  0
DICTIONARY
  5
705
330
F1
100
AcDbDictionary
280
     1
281
     1
  3
ACAD_XREC_ROUNDTRIP
360
706
  0
DICTIONARY
  5
707
330
F2
100
AcDbDictionary
280
     1
281
     1
  3
ACAD_XREC_ROUNDTRIP
360
708
  0
DICTIONARY
  5
709
330
F3
100
AcDbDictionary
280
     1
281
     1
  3
ACAD_XREC_ROUNDTRIP
360
70A
  0
DICTIONARY
  5
725
330
6D6
100
AcDbDictionary
280
     1
281
     1
  3
ACAD_XREC_ROUNDTRIP
360
726
  0
DICTIONARY
  5
731
330
6DC
100
AcDbDictionary
280
     1
281
     1
  3
ACAD_XREC_ROUNDTRIP
360
732
  0
DICTIONARY
  5
71D
330
FD
100
AcDbDictionary
280
     1
281
     1
  3
ACAD_XREC_ROUNDTRIP
360
71E
  0
DICTIONARY
  5
733
330
6DD
100
AcDbDictionary
280
     1
281
     1
  3
ACAD_XREC_ROUNDTRIP
360
734
  0
DICTIONARY
  5
715
330
F9
100
AcDbDictionary
280
     1
281
     1
  3
ACAD_XREC_ROUNDTRIP
360
716
  0
DICTIONARY
  5
72F
330
6DB
100
AcDbDictionary
280
     1
281
     1
  3
ACAD_XREC_ROUNDTRIP
360
730
  0
DICTIONARY
  5
72D
330
6DA
100
AcDbDictionary
280
     1
281
     1
  3
ACAD_XREC_ROUNDTRIP
360
72E
  0
DICTIONARY
  5
727
330
6D7
100
AcDbDictionary
280
     1
281
     1
  3
ACAD_XREC_ROUNDTRIP
360
728
  0
DICTIONARY
  5
729
330
6D8
100
AcDbDictionary
280
     1
281
     1
  3
ACAD_XREC_ROUNDTRIP
360
72A
  0
DICTIONARY
  5
71B
330
FC
100
AcDbDictionary
280
     1
281
     1
  3
ACAD_XREC_ROUNDTRIP
360
71C
  0
DICTIONARY
  5
723
330
6D5
100
AcDbDictionary
280
     1
281
     1
  3
ACAD_XREC_ROUNDTRIP
360
724
  0
DICTIONARY
  5
72B
330
6D9
100
AcDbDictionary
280
     1
281
     1
  3
ACAD_XREC_ROUNDTRIP
360
72C
  0
CELLSTYLEMAP
  5
701
102
{ACAD_REACTORS
330
700
102
}
330
700
100
AcDbCellStyleMap
 90
        3
300
CELLSTYLE
  1
TABLEFORMAT_BEGIN
 90
        5
170
     1
 91
        0
 92
    32768
 62
   257
 93
        1
300
CONTENTFORMAT
  1
CONTENTFORMAT_BEGIN
 90
        0
 91
        0
 92
      512
 93
        0
300

 40
0.0
140
1.0
 94
        5
 62
     0
340
11
144
6.0
309
CONTENTFORMAT_END
171
     1
301
MARGIN
  1
CELLMARGIN_BEGIN
 40
1.5
 40
1.5
 40
1.5
 40
1.5
 40
0.18
 40
0.18
309
CELLMARGIN_END
 94
        6
 95
        1
302
GRIDFORMAT
  1
GRIDFORMAT_BEGIN
 90
        0
 91
        1
 62
     0
 92
       -2
340
0
 93
        0
 40
0.045
309
GRIDFORMAT_END
 95
        2
302
GRIDFORMAT
  1
GRIDFORMAT_BEGIN
 90
        0
 91
        1
 62
     0
 92
       -2
340
0
 93
        0
 40
0.045
309
GRIDFORMAT_END
 95
        4
302
GRIDFORMAT
  1
GRIDFORMAT_BEGIN
 90
        0
 91
        1
 62
     0
 92
       -2
340
0
 93
        0
 40
0.045
309
GRIDFORMAT_END
 95
        8
302
GRIDFORMAT
  1
GRIDFORMAT_BEGIN
 90
        0
 91
        1
 62
     0
 92
       -2
340
0
 93
        0
 40
0.045
309
GRIDFORMAT_END
 95
       16
302
GRIDFORMAT
  1
GRIDFORMAT_BEGIN
 90
        0
 91
        1
 62
     0
 92
       -2
340
0
 93
        0
 40
0.045
309
GRIDFORMAT_END
 95
       32
302
GRIDFORMAT
  1
GRIDFORMAT_BEGIN
 90
        0
 91
        1
 62
     0
 92
       -2
340
0
 93
        0
 40
0.045
309
GRIDFORMAT_END
309
TABLEFORMAT_END
  1
CELLSTYLE_BEGIN
 90
        1
 91
        1
300
_TITLE
309
CELLSTYLE_END
300
CELLSTYLE
  1
TABLEFORMAT_BEGIN
 90
        5
170
     1
 91
        0
 92
        0
 62
   257
 93
        1
300
CONTENTFORMAT
  1
CONTENTFORMAT_BEGIN
 90
        0
 91
        0
 92
      512
 93
        0
300

 40
0.0
140
1.0
 94
        5
 62
     0
340
11
144
4.5
309
CONTENTFORMAT_END
171
     1
301
MARGIN
  1
CELLMARGIN_BEGIN
 40
1.5
 40
1.5
 40
1.5
 40
1.5
 40
0.18
 40
0.18
309
CELLMARGIN_END
 94
        6
 95
        1
302
GRIDFORMAT
  1
GRIDFORMAT_BEGIN
 90
        0
 91
        1
 62
     0
 92
       -2
340
0
 93
        0
 40
0.045
309
GRIDFORMAT_END
 95
        2
302
GRIDFORMAT
  1
GRIDFORMAT_BEGIN
 90
        0
 91
        1
 62
     0
 92
       -2
340
0
 93
        0
 40
0.045
309
GRIDFORMAT_END
 95
        4
302
GRIDFORMAT
  1
GRIDFORMAT_BEGIN
 90
        0
 91
        1
 62
     0
 92
       -2
340
0
 93
        0
 40
0.045
309
GRIDFORMAT_END
 95
        8
302
GRIDFORMAT
  1
GRIDFORMAT_BEGIN
 90
        0
 91
        1
 62
     0
 92
       -2
340
0
 93
        0
 40
0.045
309
GRIDFORMAT_END
 95
       16
302
GRIDFORMAT
  1
GRIDFORMAT_BEGIN
 90
        0
 91
        1
 62
     0
 92
       -2
340
0
 93
        0
 40
0.045
309
GRIDFORMAT_END
 95
       32
302
GRIDFORMAT
  1
GRIDFORMAT_BEGIN
 90
        0
 91
        1
 62
     0
 92
       -2
340
0
 93
        0
 40
0.045
309
GRIDFORMAT_END
309
TABLEFORMAT_END
  1
CELLSTYLE_BEGIN
 90
        2
 91
        1
300
_HEADER
309
CELLSTYLE_END
300
CELLSTYLE
  1
TABLEFORMAT_BEGIN
 90
        5
170
     1
 91
        0
 92
        0
 62
   257
 93
        1
300
CONTENTFORMAT
  1
CONTENTFORMAT_BEGIN
 90
        0
 91
        0
 92
      512
 93
        0
300

 40
0.0
140
1.0
 94
        2
 62
     0
340
11
144
4.5
309
CONTENTFORMAT_END
171
     1
301
MARGIN
  1
CELLMARGIN_BEGIN
 40
1.5
 40
1.5
 40
1.5
 40
1.5
 40
0.18
 40
0.18
309
CELLMARGIN_END
 94
        6
 95
        1
302
GRIDFORMAT
  1
GRIDFORMAT_BEGIN
 90
        0
 91
        1
 62
     0
 92
       -2
340
0
 93
        0
 40
0.045
309
GRIDFORMAT_END
 95
        2
302
GRIDFORMAT
  1
GRIDFORMAT_BEGIN
 90
        0
 91
        1
 62
     0
 92
       -2
340
0
 93
        0
 40
0.045
309
GRIDFORMAT_END
 95
        4
302
GRIDFORMAT
  1
GRIDFORMAT_BEGIN
 90
        0
 91
        1
 62
     0
 92
       -2
340
0
 93
        0
 40
0.045
309
GRIDFORMAT_END
 95
        8
302
GRIDFORMAT
  1
GRIDFORMAT_BEGIN
 90
        0
 91
        1
 62
     0
 92
       -2
340
0
 93
        0
 40
0.045
309
GRIDFORMAT_END
 95
       16
302
GRIDFORMAT
  1
GRIDFORMAT_BEGIN
 90
        0
 91
        1
 62
     0
 92
       -2
340
0
 93
        0
 40
0.045
309
GRIDFORMAT_END
 95
       32
302
GRIDFORMAT
  1
GRIDFORMAT_BEGIN
 90
        0
 91
        1
 62
     0
 92
       -2
340
0
 93
        0
 40
0.045
309
GRIDFORMAT_END
309
TABLEFORMAT_END
  1
CELLSTYLE_BEGIN
 90
        3
 91
        2
300
_DATA
309
CELLSTYLE_END
  0
XRECORD
  5
70E
102
{ACAD_REACTORS
330
70D
102
}
330
70D
100
AcDbXrecord
280
     1
102
RTVSPropertyOp0
 70
     1
102
RTVSPropertyOp1
 70
     1
102
RTVSPropertyOp2
 70
     1
102
RTVSPropertyOp3
 70
     1
102
RTVSPropertyOp4
 70
     1
102
RTVSPropertyOp5
 70
     1
102
RTVSPropertyOp6
 70
     1
102
RTVSPropertyOp7
 70
     1
102
RTVSPropertyOp8
 70
     1
102
RTVSPropertyOp9
 70
     1
102
RTVSPropertyOp10
 70
     1
102
RTVSPropertyOp11
 70
     1
102
RTVSPropertyOp12
 70
     1
102
RTVSPropertyOp13
 70
     1
102
RTVSPropertyOp14
 70
     1
102
RTVSPropertyOp15
 70
     1
102
RTVSPropertyOp16
 70
     1
102
RTVSPropertyOp17
 70
     1
102
RTVSPropertyOp18
 70
     1
102
RTVSPropertyOp19
 70
     1
102
RTVSPropertyOp20
 70
     1
102
RTVSPropertyOp21
 70
     1
102
RTVSPropertyOp22
 70
     1
102
RTVSPropertyOp23
 70
     1
102
RTVSPropertyOp24
 70
     1
102
RTVSPropertyOp25
 70
     1
102
RTVSPropertyOp26
 70
     1
102
RTVSPropertyOp27
 70
     1
102
RTVSPropertyOp28
 70
     1
102
RTVSPropertyOp29
 70
     1
102
RTVSPropertyOp30
 70
     1
102
RTVSPropertyOp31
 70
     1
102
RTVSPropertyOp32
 70
     1
  0
XRECORD
  5
712
102
{ACAD_REACTORS
330
711
102
}
330
711
100
AcDbXrecord
280
     1
102
RTVSPropertyOp0
 70
     1
102
RTVSPropertyOp1
 70
     1
102
RTVSPropertyOp2
 70
     1
102
RTVSPropertyOp3
 70
     1
102
RTVSPropertyOp4
 70
     1
102
RTVSPropertyOp5
 70
     1
102
RTVSPropertyOp6
 70
     1
102
RTVSPropertyOp7
 70
     1
102
RTVSPropertyOp8
 70
     1
102
RTVSPropertyOp9
 70
     1
102
RTVSPropertyOp10
 70
     1
102
RTVSPropertyOp11
 70
     1
102
RTVSPropertyOp12
 70
     1
102
RTVSPropertyOp13
 70
     1
102
RTVSPropertyOp14
 70
     1
102
RTVSPropertyOp15
 70
     1
102
RTVSPropertyOp16
 70
     1
102
RTVSPropertyOp17
 70
     1
102
RTVSPropertyOp18
 70
     1
102
RTVSPropertyOp19
 70
     1
102
RTVSPropertyOp20
 70
     1
102
RTVSPropertyOp21
 70
     1
102
RTVSPropertyOp22
 70
     1
102
RTVSPropertyOp23
 70
     1
102
RTVSPropertyOp24
 70
     1
102
RTVSPropertyOp25
 70
     1
102
RTVSPropertyOp26
 70
     1
102
RTVSPropertyOp27
 70
     1
102
RTVSPropertyOp28
 70
     1
102
RTVSPropertyOp29
 70
     1
102
RTVSPropertyOp30
 70
     1
102
RTVSPropertyOp31
 70
     1
102
RTVSPropertyOp32
 70
     1
  0
XRECORD
  5
710
102
{ACAD_REACTORS
330
70F
102
}
330
70F
100
AcDbXrecord
280
     1
102
RTVSPropertyOp0
 70
     1
102
RTVSPropertyOp1
 70
     1
102
RTVSPropertyOp2
 70
     1
102
RTVSPropertyOp3
 70
     1
102
RTVSPropertyOp4
 70
     1
102
RTVSPropertyOp5
 70
     1
102
RTVSPropertyOp6
 70
     1
102
RTVSPropertyOp7
 70
     1
102
RTVSPropertyOp8
 70
     1
102
RTVSPropertyOp9
 70
     1
102
RTVSPropertyOp10
 70
     1
102
RTVSPropertyOp11
 70
     1
102
RTVSPropertyOp12
 70
     1
102
RTVSPropertyOp13
 70
     1
102
RTVSPropertyOp14
 70
     1
102
RTVSPropertyOp15
 70
     1
102
RTVSPropertyOp16
 70
     1
102
RTVSPropertyOp17
 70
     1
102
RTVSPropertyOp18
 70
     1
102
RTVSPropertyOp19
 70
     1
102
RTVSPropertyOp20
 70
     1
102
RTVSPropertyOp21
 70
     1
102
RTVSPropertyOp22
 70
     1
102
RTVSPropertyOp23
 70
     1
102
RTVSPropertyOp24
 70
     1
102
RTVSPropertyOp25
 70
     1
102
RTVSPropertyOp26
 70
     1
102
RTVSPropertyOp27
 70
     1
102
RTVSPropertyOp28
 70
     1
102
RTVSPropertyOp29
 70
     1
102
RTVSPropertyOp30
 70
     1
102
RTVSPropertyOp31
 70
     1
102
RTVSPropertyOp32
 70
     1
  0
XRECORD
  5
70C
102
{ACAD_REACTORS
330
70B
102
}
330
70B
100
AcDbXrecord
280
     1
102
RTVSPropertyOp0
 70
     1
102
RTVSPropertyOp1
 70
     1
102
RTVSPropertyOp2
 70
     1
102
RTVSPropertyOp3
 70
     1
102
RTVSPropertyOp4
 70
     1
102
RTVSPropertyOp5
 70
     1
102
RTVSPropertyOp6
 70
     1
102
RTVSPropertyOp7
 70
     1
102
RTVSPropertyOp8
 70
     1
102
RTVSPropertyOp9
 70
     1
102
RTVSPropertyOp10
 70
     1
102
RTVSPropertyOp11
 70
     1
102
RTVSPropertyOp12
 70
     1
102
RTVSPropertyOp13
 70
     1
102
RTVSPropertyOp14
 70
     1
102
RTVSPropertyOp15
 70
     1
102
RTVSPropertyOp16
 70
     1
102
RTVSPropertyOp17
 70
     1
102
RTVSPropertyOp18
 70
     1
102
RTVSPropertyOp19
 70
     1
102
RTVSPropertyOp20
 70
     1
102
RTVSPropertyOp21
 70
     1
102
RTVSPropertyOp22
 70
     1
102
RTVSPropertyOp23
 70
     1
102
RTVSPropertyOp24
 70
     1
102
RTVSPropertyOp25
 70
     1
102
RTVSPropertyOp26
 70
     1
102
RTVSPropertyOp27
 70
     1
102
RTVSPropertyOp28
 70
     1
102
RTVSPropertyOp29
 70
     1
102
RTVSPropertyOp30
 70
     1
102
RTVSPropertyOp31
 70
     1
102
RTVSPropertyOp32
 70
     1
  0
XRECORD
  5
71A
102
{ACAD_REACTORS
330
719
102
}
330
719
100
AcDbXrecord
280
     1
102
RTVSPropertyOp0
 70
     1
102
RTVSPropertyOp1
 70
     1
102
RTVSPropertyOp2
 70
     1
102
RTVSPropertyOp3
 70
     1
102
RTVSPropertyOp4
 70
     1
102
RTVSPropertyOp5
 70
     1
102
RTVSPropertyOp6
 70
     1
102
RTVSPropertyOp7
 70
     1
102
RTVSPropertyOp8
 70
     1
102
RTVSPropertyOp9
 70
     1
102
RTVSPropertyOp10
 70
     1
102
RTVSPropertyOp11
 70
     1
102
RTVSPropertyOp12
 70
     1
102
RTVSPropertyOp13
 70
     1
102
RTVSPropertyOp14
 70
     1
102
RTVSPropertyOp15
 70
     1
102
RTVSPropertyOp16
 70
     1
102
RTVSPropertyOp17
 70
     1
102
RTVSPropertyOp18
 70
     1
102
RTVSPropertyOp19
 70
     1
102
RTVSPropertyOp20
 70
     1
102
RTVSPropertyOp21
 70
     1
102
RTVSPropertyOp22
 70
     1
102
RTVSPropertyOp23
 70
     1
102
RTVSPropertyOp24
 70
     1
102
RTVSPropertyOp25
 70
     1
102
RTVSPropertyOp26
 70
     1
102
RTVSPropertyOp27
 70
     1
102
RTVSPropertyOp28
 70
     1
102
RTVSPropertyOp29
 70
     1
102
RTVSPropertyOp30
 70
     1
102
RTVSPropertyOp31
 70
     1
102
RTVSPropertyOp32
 70
     1
  0
XRECORD
  5
722
102
{ACAD_REACTORS
330
721
102
}
330
721
100
AcDbXrecord
280
     1
102
RTVSPropertyOp0
 70
     1
102
RTVSPropertyOp1
 70
     1
102
RTVSPropertyOp2
 70
     1
102
RTVSPropertyOp3
 70
     1
102
RTVSPropertyOp4
 70
     1
102
RTVSPropertyOp5
 70
     1
102
RTVSPropertyOp6
 70
     1
102
RTVSPropertyOp7
 70
     1
102
RTVSPropertyOp8
 70
     1
102
RTVSPropertyOp9
 70
     1
102
RTVSPropertyOp10
 70
     1
102
RTVSPropertyOp11
 70
     1
102
RTVSPropertyOp12
 70
     1
102
RTVSPropertyOp13
 70
     1
102
RTVSPropertyOp14
 70
     1
102
RTVSPropertyOp15
 70
     1
102
RTVSPropertyOp16
 70
     1
102
RTVSPropertyOp17
 70
     1
102
RTVSPropertyOp18
 70
     1
102
RTVSPropertyOp19
 70
     1
102
RTVSPropertyOp20
 70
     1
102
RTVSPropertyOp21
 70
     1
102
RTVSPropertyOp22
 70
     1
102
RTVSPropertyOp23
 70
     1
102
RTVSPropertyOp24
 70
     1
102
RTVSPropertyOp25
 70
     1
102
RTVSPropertyOp26
 70
     1
102
RTVSPropertyOp27
 70
     1
102
RTVSPropertyOp28
 70
     1
102
RTVSPropertyOp29
 70
     1
102
RTVSPropertyOp30
 70
     1
102
RTVSPropertyOp31
 70
     1
102
RTVSPropertyOp32
 70
     1
  0
XRECORD
  5
714
102
{ACAD_REACTORS
330
713
102
}
330
713
100
AcDbXrecord
280
     1
102
RTVSPropertyOp0
 70
     1
102
RTVSPropertyOp1
 70
     1
102
RTVSPropertyOp2
 70
     1
102
RTVSPropertyOp3
 70
     1
102
RTVSPropertyOp4
 70
     1
102
RTVSPropertyOp5
 70
     1
102
RTVSPropertyOp6
 70
     1
102
RTVSPropertyOp7
 70
     1
102
RTVSPropertyOp8
 70
     1
102
RTVSPropertyOp9
 70
     1
102
RTVSPropertyOp10
 70
     1
102
RTVSPropertyOp11
 70
     1
102
RTVSPropertyOp12
 70
     1
102
RTVSPropertyOp13
 70
     1
102
RTVSPropertyOp14
 70
     1
102
RTVSPropertyOp15
 70
     1
102
RTVSPropertyOp16
 70
     1
102
RTVSPropertyOp17
 70
     1
102
RTVSPropertyOp18
 70
     1
102
RTVSPropertyOp19
 70
     1
102
RTVSPropertyOp20
 70
     1
102
RTVSPropertyOp21
 70
     1
102
RTVSPropertyOp22
 70
     1
102
RTVSPropertyOp23
 70
     1
102
RTVSPropertyOp24
 70
     1
102
RTVSPropertyOp25
 70
     1
102
RTVSPropertyOp26
 70
     1
102
RTVSPropertyOp27
 70
     1
102
RTVSPropertyOp28
 70
     1
102
RTVSPropertyOp29
 70
     1
102
RTVSPropertyOp30
 70
     1
102
RTVSPropertyOp31
 70
     1
102
RTVSPropertyOp32
 70
     1
  0
XRECORD
  5
718
102
{ACAD_REACTORS
330
717
102
}
330
717
100
AcDbXrecord
280
     1
102
RTVSPropertyOp0
 70
     1
102
RTVSPropertyOp1
 70
     1
102
RTVSPropertyOp2
 70
     1
102
RTVSPropertyOp3
 70
     1
102
RTVSPropertyOp4
 70
     1
102
RTVSPropertyOp5
 70
     1
102
RTVSPropertyOp6
 70
     1
102
RTVSPropertyOp7
 70
     1
102
RTVSPropertyOp8
 70
     1
102
RTVSPropertyOp9
 70
     1
102
RTVSPropertyOp10
 70
     1
102
RTVSPropertyOp11
 70
     1
102
RTVSPropertyOp12
 70
     1
102
RTVSPropertyOp13
 70
     1
102
RTVSPropertyOp14
 70
     1
102
RTVSPropertyOp15
 70
     1
102
RTVSPropertyOp16
 70
     1
102
RTVSPropertyOp17
 70
     1
102
RTVSPropertyOp18
 70
     1
102
RTVSPropertyOp19
 70
     1
102
RTVSPropertyOp20
 70
     1
102
RTVSPropertyOp21
 70
     1
102
RTVSPropertyOp22
 70
     1
102
RTVSPropertyOp23
 70
     1
102
RTVSPropertyOp24
 70
     1
102
RTVSPropertyOp25
 70
     1
102
RTVSPropertyOp26
 70
     1
102
RTVSPropertyOp27
 70
     1
102
RTVSPropertyOp28
 70
     1
102
RTVSPropertyOp29
 70
     1
102
RTVSPropertyOp30
 70
     1
102
RTVSPropertyOp31
 70
     1
102
RTVSPropertyOp32
 70
     1
  0
XRECORD
  5
736
102
{ACAD_REACTORS
330
735
102
}
330
735
100
AcDbXrecord
280
     1
102
RTVSPropertyOp0
 70
     0
102
RTVSPropertyOp1
 70
     0
102
RTVSPropertyOp2
 70
     0
102
RTVSPropertyOp3
 70
     0
102
RTVSPropertyOp4
 70
     0
102
RTVSPropertyOp5
 70
     0
102
RTVSPropertyOp6
 70
     0
102
RTVSPropertyOp7
 70
     0
102
RTVSPropertyOp8
 70
     0
102
RTVSPropertyOp9
 70
     0
102
RTVSPropertyOp10
 70
     0
102
RTVSPropertyOp11
 70
     0
102
RTVSPropertyOp12
 70
     0
102
RTVSPropertyOp13
 70
     0
102
RTVSPropertyOp14
 70
     2
102
RTVSPropertyOp15
 70
     0
102
RTVSPropertyOp16
 70
     0
102
RTVSPropertyOp17
 70
     0
102
RTVSPropertyOp18
 70
     0
102
RTVSPropertyOp19
 70
     0
102
RTVSPropertyOp20
 70
     0
102
RTVSPropertyOp21
 70
     0
102
RTVSPropertyOp22
 70
     0
102
RTVSPropertyOp23
 70
     0
102
RTVSPropertyOp24
 70
     0
102
RTVSPropertyOp25
 70
     0
102
RTVSPropertyOp26
 70
     0
102
RTVSPropertyOp27
 70
     0
102
RTVSPropertyOp28
 70
     0
102
RTVSPropertyOp29
 70
     0
102
RTVSPropertyOp30
 70
     0
102
RTVSPropertyOp31
 70
     0
102
RTVSPropertyOp32
 70
     0
  0
XRECORD
  5
720
102
{ACAD_REACTORS
330
71F
102
}
330
71F
100
AcDbXrecord
280
     1
102
RTVSPropertyOp0
 70
     1
102
RTVSPropertyOp1
 70
     1
102
RTVSPropertyOp2
 70
     1
102
RTVSPropertyOp3
 70
     1
102
RTVSPropertyOp4
 70
     1
102
RTVSPropertyOp5
 70
     1
102
RTVSPropertyOp6
 70
     1
102
RTVSPropertyOp7
 70
     1
102
RTVSPropertyOp8
 70
     1
102
RTVSPropertyOp9
 70
     1
102
RTVSPropertyOp10
 70
     1
102
RTVSPropertyOp11
 70
     1
102
RTVSPropertyOp12
 70
     1
102
RTVSPropertyOp13
 70
     1
102
RTVSPropertyOp14
 70
     1
102
RTVSPropertyOp15
 70
     1
102
RTVSPropertyOp16
 70
     1
102
RTVSPropertyOp17
 70
     1
102
RTVSPropertyOp18
 70
     1
102
RTVSPropertyOp19
 70
     1
102
RTVSPropertyOp20
 70
     1
102
RTVSPropertyOp21
 70
     1
102
RTVSPropertyOp22
 70
     1
102
RTVSPropertyOp23
 70
     1
102
RTVSPropertyOp24
 70
     1
102
RTVSPropertyOp25
 70
     1
102
RTVSPropertyOp26
 70
     1
102
RTVSPropertyOp27
 70
     1
102
RTVSPropertyOp28
 70
     1
102
RTVSPropertyOp29
 70
     1
102
RTVSPropertyOp30
 70
     1
102
RTVSPropertyOp31
 70
     1
102
RTVSPropertyOp32
 70
     1
  0
XRECORD
  5
704
102
{ACAD_REACTORS
330
703
102
}
330
703
100
AcDbXrecord
280
     1
102
RTVSPropertyOp0
 70
     1
102
RTVSPropertyOp1
 70
     1
102
RTVSPropertyOp2
 70
     1
102
RTVSPropertyOp3
 70
     1
102
RTVSPropertyOp4
 70
     1
102
RTVSPropertyOp5
 70
     1
102
RTVSPropertyOp6
 70
     1
102
RTVSPropertyOp7
 70
     1
102
RTVSPropertyOp8
 70
     1
102
RTVSPropertyOp9
 70
     1
102
RTVSPropertyOp10
 70
     1
102
RTVSPropertyOp11
 70
     1
102
RTVSPropertyOp12
 70
     1
102
RTVSPropertyOp13
 70
     1
102
RTVSPropertyOp14
 70
     1
102
RTVSPropertyOp15
 70
     1
102
RTVSPropertyOp16
 70
     1
102
RTVSPropertyOp17
 70
     1
102
RTVSPropertyOp18
 70
     1
102
RTVSPropertyOp19
 70
     1
102
RTVSPropertyOp20
 70
     1
102
RTVSPropertyOp21
 70
     1
102
RTVSPropertyOp22
 70
     1
102
RTVSPropertyOp23
 70
     1
102
RTVSPropertyOp24
 70
     1
102
RTVSPropertyOp25
 70
     1
102
RTVSPropertyOp26
 70
     1
102
RTVSPropertyOp27
 70
     1
102
RTVSPropertyOp28
 70
     1
102
RTVSPropertyOp29
 70
     1
102
RTVSPropertyOp30
 70
     1
102
RTVSPropertyOp31
 70
     1
102
RTVSPropertyOp32
 70
     1
  0
XRECORD
  5
706
102
{ACAD_REACTORS
330
705
102
}
330
705
100
AcDbXrecord
280
     1
102
RTVSPropertyOp0
 70
     1
102
RTVSPropertyOp1
 70
     1
102
RTVSPropertyOp2
 70
     1
102
RTVSPropertyOp3
 70
     1
102
RTVSPropertyOp4
 70
     1
102
RTVSPropertyOp5
 70
     1
102
RTVSPropertyOp6
 70
     1
102
RTVSPropertyOp7
 70
     1
102
RTVSPropertyOp8
 70
     1
102
RTVSPropertyOp9
 70
     1
102
RTVSPropertyOp10
 70
     1
102
RTVSPropertyOp11
 70
     1
102
RTVSPropertyOp12
 70
     1
102
RTVSPropertyOp13
 70
     1
102
RTVSPropertyOp14
 70
     1
102
RTVSPropertyOp15
 70
     1
102
RTVSPropertyOp16
 70
     1
102
RTVSPropertyOp17
 70
     1
102
RTVSPropertyOp18
 70
     1
102
RTVSPropertyOp19
 70
     1
102
RTVSPropertyOp20
 70
     1
102
RTVSPropertyOp21
 70
     1
102
RTVSPropertyOp22
 70
     1
102
RTVSPropertyOp23
 70
     1
102
RTVSPropertyOp24
 70
     1
102
RTVSPropertyOp25
 70
     1
102
RTVSPropertyOp26
 70
     1
102
RTVSPropertyOp27
 70
     1
102
RTVSPropertyOp28
 70
     1
102
RTVSPropertyOp29
 70
     1
102
RTVSPropertyOp30
 70
     1
102
RTVSPropertyOp31
 70
     1
102
RTVSPropertyOp32
 70
     1
  0
XRECORD
  5
708
102
{ACAD_REACTORS
330
707
102
}
330
707
100
AcDbXrecord
280
     1
102
RTVSPropertyOp0
 70
     1
102
RTVSPropertyOp1
 70
     1
102
RTVSPropertyOp2
 70
     1
102
RTVSPropertyOp3
 70
     1
102
RTVSPropertyOp4
 70
     1
102
RTVSPropertyOp5
 70
     1
102
RTVSPropertyOp6
 70
     1
102
RTVSPropertyOp7
 70
     1
102
RTVSPropertyOp8
 70
     1
102
RTVSPropertyOp9
 70
     1
102
RTVSPropertyOp10
 70
     1
102
RTVSPropertyOp11
 70
     1
102
RTVSPropertyOp12
 70
     1
102
RTVSPropertyOp13
 70
     1
102
RTVSPropertyOp14
 70
     1
102
RTVSPropertyOp15
 70
     1
102
RTVSPropertyOp16
 70
     1
102
RTVSPropertyOp17
 70
     1
102
RTVSPropertyOp18
 70
     1
102
RTVSPropertyOp19
 70
     1
102
RTVSPropertyOp20
 70
     1
102
RTVSPropertyOp21
 70
     1
102
RTVSPropertyOp22
 70
     1
102
RTVSPropertyOp23
 70
     1
102
RTVSPropertyOp24
 70
     1
102
RTVSPropertyOp25
 70
     1
102
RTVSPropertyOp26
 70
     1
102
RTVSPropertyOp27
 70
     1
102
RTVSPropertyOp28
 70
     1
102
RTVSPropertyOp29
 70
     1
102
RTVSPropertyOp30
 70
     1
102
RTVSPropertyOp31
 70
     1
102
RTVSPropertyOp32
 70
     1
  0
XRECORD
  5
70A
102
{ACAD_REACTORS
330
709
102
}
330
709
100
AcDbXrecord
280
     1
102
RTVSPropertyOp0
 70
     1
102
RTVSPropertyOp1
 70
     1
102
RTVSPropertyOp2
 70
     1
102
RTVSPropertyOp3
 70
     1
102
RTVSPropertyOp4
 70
     1
102
RTVSPropertyOp5
 70
     1
102
RTVSPropertyOp6
 70
     1
102
RTVSPropertyOp7
 70
     1
102
RTVSPropertyOp8
 70
     1
102
RTVSPropertyOp9
 70
     1
102
RTVSPropertyOp10
 70
     1
102
RTVSPropertyOp11
 70
     1
102
RTVSPropertyOp12
 70
     1
102
RTVSPropertyOp13
 70
     1
102
RTVSPropertyOp14
 70
     1
102
RTVSPropertyOp15
 70
     1
102
RTVSPropertyOp16
 70
     1
102
RTVSPropertyOp17
 70
     1
102
RTVSPropertyOp18
 70
     1
102
RTVSPropertyOp19
 70
     1
102
RTVSPropertyOp20
 70
     1
102
RTVSPropertyOp21
 70
     1
102
RTVSPropertyOp22
 70
     1
102
RTVSPropertyOp23
 70
     1
102
RTVSPropertyOp24
 70
     1
102
RTVSPropertyOp25
 70
     1
102
RTVSPropertyOp26
 70
     1
102
RTVSPropertyOp27
 70
     1
102
RTVSPropertyOp28
 70
     1
102
RTVSPropertyOp29
 70
     1
102
RTVSPropertyOp30
 70
     1
102
RTVSPropertyOp31
 70
     1
102
RTVSPropertyOp32
 70
     1
  0
XRECORD
  5
726
102
{ACAD_REACTORS
330
725
102
}
330
725
100
AcDbXrecord
280
     1
102
RTVSPropertyOp0
 70
     1
102
RTVSPropertyOp1
 70
     1
102
RTVSPropertyOp2
 70
     1
102
RTVSPropertyOp3
 70
     1
102
RTVSPropertyOp4
 70
     1
102
RTVSPropertyOp5
 70
     1
102
RTVSPropertyOp6
 70
     1
102
RTVSPropertyOp7
 70
     1
102
RTVSPropertyOp8
 70
     1
102
RTVSPropertyOp9
 70
     1
102
RTVSPropertyOp10
 70
     1
102
RTVSPropertyOp11
 70
     1
102
RTVSPropertyOp12
 70
     1
102
RTVSPropertyOp13
 70
     1
102
RTVSPropertyOp14
 70
     1
102
RTVSPropertyOp15
 70
     1
102
RTVSPropertyOp16
 70
     1
102
RTVSPropertyOp17
 70
     1
102
RTVSPropertyOp18
 70
     1
102
RTVSPropertyOp19
 70
     1
102
RTVSPropertyOp20
 70
     1
102
RTVSPropertyOp21
 70
     1
102
RTVSPropertyOp22
 70
     1
102
RTVSPropertyOp23
 70
     1
102
RTVSPropertyOp24
 70
     1
102
RTVSPropertyOp25
 70
     1
102
RTVSPropertyOp26
 70
     1
102
RTVSPropertyOp27
 70
     1
102
RTVSPropertyOp28
 70
     1
102
RTVSPropertyOp29
 70
     1
102
RTVSPropertyOp30
 70
     1
102
RTVSPropertyOp31
 70
     1
102
RTVSPropertyOp32
 70
     1
  0
XRECORD
  5
732
102
{ACAD_REACTORS
330
731
102
}
330
731
100
AcDbXrecord
280
     1
102
RTVSPropertyOp0
 70
     0
102
RTVSPropertyOp1
 70
     0
102
RTVSPropertyOp2
 70
     0
102
RTVSPropertyOp3
 70
     0
102
RTVSPropertyOp4
 70
     0
102
RTVSPropertyOp5
 70
     0
102
RTVSPropertyOp6
 70
     0
102
RTVSPropertyOp7
 70
     0
102
RTVSPropertyOp8
 70
     0
102
RTVSPropertyOp9
 70
     0
102
RTVSPropertyOp10
 70
     0
102
RTVSPropertyOp11
 70
     0
102
RTVSPropertyOp12
 70
     0
102
RTVSPropertyOp13
 70
     0
102
RTVSPropertyOp14
 70
     2
102
RTVSPropertyOp15
 70
     0
102
RTVSPropertyOp16
 70
     0
102
RTVSPropertyOp17
 70
     0
102
RTVSPropertyOp18
 70
     0
102
RTVSPropertyOp19
 70
     0
102
RTVSPropertyOp20
 70
     0
102
RTVSPropertyOp21
 70
     0
102
RTVSPropertyOp22
 70
     0
102
RTVSPropertyOp23
 70
     0
102
RTVSPropertyOp24
 70
     0
102
RTVSPropertyOp25
 70
     0
102
RTVSPropertyOp26
 70
     0
102
RTVSPropertyOp27
 70
     0
102
RTVSPropertyOp28
 70
     0
102
RTVSPropertyOp29
 70
     0
102
RTVSPropertyOp30
 70
     0
102
RTVSPropertyOp31
 70
     0
102
RTVSPropertyOp32
 70
     0
  0
XRECORD
  5
71E
102
{ACAD_REACTORS
330
71D
102
}
330
71D
100
AcDbXrecord
280
     1
102
RTVSPropertyOp0
 70
     1
102
RTVSPropertyOp1
 70
     1
102
RTVSPropertyOp2
 70
     1
102
RTVSPropertyOp3
 70
     1
102
RTVSPropertyOp4
 70
     1
102
RTVSPropertyOp5
 70
     1
102
RTVSPropertyOp6
 70
     1
102
RTVSPropertyOp7
 70
     1
102
RTVSPropertyOp8
 70
     1
102
RTVSPropertyOp9
 70
     1
102
RTVSPropertyOp10
 70
     1
102
RTVSPropertyOp11
 70
     1
102
RTVSPropertyOp12
 70
     1
102
RTVSPropertyOp13
 70
     1
102
RTVSPropertyOp14
 70
     1
102
RTVSPropertyOp15
 70
     1
102
RTVSPropertyOp16
 70
     1
102
RTVSPropertyOp17
 70
     1
102
RTVSPropertyOp18
 70
     1
102
RTVSPropertyOp19
 70
     1
102
RTVSPropertyOp20
 70
     1
102
RTVSPropertyOp21
 70
     1
102
RTVSPropertyOp22
 70
     1
102
RTVSPropertyOp23
 70
     1
102
RTVSPropertyOp24
 70
     1
102
RTVSPropertyOp25
 70
     1
102
RTVSPropertyOp26
 70
     1
102
RTVSPropertyOp27
 70
     1
102
RTVSPropertyOp28
 70
     1
102
RTVSPropertyOp29
 70
     1
102
RTVSPropertyOp30
 70
     1
102
RTVSPropertyOp31
 70
     1
102
RTVSPropertyOp32
 70
     1
  0
XRECORD
  5
734
102
{ACAD_REACTORS
330
733
102
}
330
733
100
AcDbXrecord
280
     1
102
RTVSPropertyOp0
 70
     0
102
RTVSPropertyOp1
 70
     0
102
RTVSPropertyOp2
 70
     0
102
RTVSPropertyOp3
 70
     0
102
RTVSPropertyOp4
 70
     0
102
RTVSPropertyOp5
 70
     0
102
RTVSPropertyOp6
 70
     0
102
RTVSPropertyOp7
 70
     0
102
RTVSPropertyOp8
 70
     0
102
RTVSPropertyOp9
 70
     0
102
RTVSPropertyOp10
 70
     0
102
RTVSPropertyOp11
 70
     0
102
RTVSPropertyOp12
 70
     0
102
RTVSPropertyOp13
 70
     0
102
RTVSPropertyOp14
 70
     2
102
RTVSPropertyOp15
 70
     0
102
RTVSPropertyOp16
 70
     0
102
RTVSPropertyOp17
 70
     0
102
RTVSPropertyOp18
 70
     0
102
RTVSPropertyOp19
 70
     0
102
RTVSPropertyOp20
 70
     0
102
RTVSPropertyOp21
 70
     0
102
RTVSPropertyOp22
 70
     0
102
RTVSPropertyOp23
 70
     0
102
RTVSPropertyOp24
 70
     0
102
RTVSPropertyOp25
 70
     0
102
RTVSPropertyOp26
 70
     0
102
RTVSPropertyOp27
 70
     0
102
RTVSPropertyOp28
 70
     0
102
RTVSPropertyOp29
 70
     0
102
RTVSPropertyOp30
 70
     0
102
RTVSPropertyOp31
 70
     0
102
RTVSPropertyOp32
 70
     0
  0
XRECORD
  5
716
102
{ACAD_REACTORS
330
715
102
}
330
715
100
AcDbXrecord
280
     1
102
RTVSPropertyOp0
 70
     1
102
RTVSPropertyOp1
 70
     1
102
RTVSPropertyOp2
 70
     1
102
RTVSPropertyOp3
 70
     1
102
RTVSPropertyOp4
 70
     1
102
RTVSPropertyOp5
 70
     1
102
RTVSPropertyOp6
 70
     1
102
RTVSPropertyOp7
 70
     1
102
RTVSPropertyOp8
 70
     1
102
RTVSPropertyOp9
 70
     1
102
RTVSPropertyOp10
 70
     1
102
RTVSPropertyOp11
 70
     1
102
RTVSPropertyOp12
 70
     1
102
RTVSPropertyOp13
 70
     1
102
RTVSPropertyOp14
 70
     1
102
RTVSPropertyOp15
 70
     1
102
RTVSPropertyOp16
 70
     1
102
RTVSPropertyOp17
 70
     1
102
RTVSPropertyOp18
 70
     1
102
RTVSPropertyOp19
 70
     1
102
RTVSPropertyOp20
 70
     1
102
RTVSPropertyOp21
 70
     1
102
RTVSPropertyOp22
 70
     1
102
RTVSPropertyOp23
 70
     1
102
RTVSPropertyOp24
 70
     1
102
RTVSPropertyOp25
 70
     1
102
RTVSPropertyOp26
 70
     1
102
RTVSPropertyOp27
 70
     1
102
RTVSPropertyOp28
 70
     1
102
RTVSPropertyOp29
 70
     1
102
RTVSPropertyOp30
 70
     1
102
RTVSPropertyOp31
 70
     1
102
RTVSPropertyOp32
 70
     1
  0
XRECORD
  5
730
102
{ACAD_REACTORS
330
72F
102
}
330
72F
100
AcDbXrecord
280
     1
102
RTVSPropertyOp0
 70
     1
102
RTVSPropertyOp1
 70
     1
102
RTVSPropertyOp2
 70
     1
102
RTVSPropertyOp3
 70
     1
102
RTVSPropertyOp4
 70
     1
102
RTVSPropertyOp5
 70
     1
102
RTVSPropertyOp6
 70
     1
102
RTVSPropertyOp7
 70
     1
102
RTVSPropertyOp8
 70
     1
102
RTVSPropertyOp9
 70
     1
102
RTVSPropertyOp10
 70
     1
102
RTVSPropertyOp11
 70
     1
102
RTVSPropertyOp12
 70
     1
102
RTVSPropertyOp13
 70
     1
102
RTVSPropertyOp14
 70
     1
102
RTVSPropertyOp15
 70
     1
102
RTVSPropertyOp16
 70
     1
102
RTVSPropertyOp17
 70
     1
102
RTVSPropertyOp18
 70
     1
102
RTVSPropertyOp19
 70
     1
102
RTVSPropertyOp20
 70
     1
102
RTVSPropertyOp21
 70
     1
102
RTVSPropertyOp22
 70
     1
102
RTVSPropertyOp23
 70
     1
102
RTVSPropertyOp24
 70
     1
102
RTVSPropertyOp25
 70
     1
102
RTVSPropertyOp26
 70
     1
102
RTVSPropertyOp27
 70
     1
102
RTVSPropertyOp28
 70
     1
102
RTVSPropertyOp29
 70
     1
102
RTVSPropertyOp30
 70
     1
102
RTVSPropertyOp31
 70
     1
102
RTVSPropertyOp32
 70
     1
  0
XRECORD
  5
72E
102
{ACAD_REACTORS
330
72D
102
}
330
72D
100
AcDbXrecord
280
     1
102
RTVSPropertyOp0
 70
     1
102
RTVSPropertyOp1
 70
     1
102
RTVSPropertyOp2
 70
     1
102
RTVSPropertyOp3
 70
     1
102
RTVSPropertyOp4
 70
     1
102
RTVSPropertyOp5
 70
     1
102
RTVSPropertyOp6
 70
     1
102
RTVSPropertyOp7
 70
     1
102
RTVSPropertyOp8
 70
     1
102
RTVSPropertyOp9
 70
     1
102
RTVSPropertyOp10
 70
     1
102
RTVSPropertyOp11
 70
     1
102
RTVSPropertyOp12
 70
     1
102
RTVSPropertyOp13
 70
     1
102
RTVSPropertyOp14
 70
     1
102
RTVSPropertyOp15
 70
     1
102
RTVSPropertyOp16
 70
     1
102
RTVSPropertyOp17
 70
     1
102
RTVSPropertyOp18
 70
     1
102
RTVSPropertyOp19
 70
     1
102
RTVSPropertyOp20
 70
     1
102
RTVSPropertyOp21
 70
     1
102
RTVSPropertyOp22
 70
     1
102
RTVSPropertyOp23
 70
     1
102
RTVSPropertyOp24
 70
     1
102
RTVSPropertyOp25
 70
     1
102
RTVSPropertyOp26
 70
     1
102
RTVSPropertyOp27
 70
     1
102
RTVSPropertyOp28
 70
     1
102
RTVSPropertyOp29
 70
     1
102
RTVSPropertyOp30
 70
     1
102
RTVSPropertyOp31
 70
     1
102
RTVSPropertyOp32
 70
     1
  0
XRECORD
  5
728
102
{ACAD_REACTORS
330
727
102
}
330
727
100
AcDbXrecord
280
     1
102
RTVSPropertyOp0
 70
     1
102
RTVSPropertyOp1
 70
     1
102
RTVSPropertyOp2
 70
     1
102
RTVSPropertyOp3
 70
     1
102
RTVSPropertyOp4
 70
     1
102
RTVSPropertyOp5
 70
     1
102
RTVSPropertyOp6
 70
     1
102
RTVSPropertyOp7
 70
     1
102
RTVSPropertyOp8
 70
     1
102
RTVSPropertyOp9
 70
     1
102
RTVSPropertyOp10
 70
     1
102
RTVSPropertyOp11
 70
     1
102
RTVSPropertyOp12
 70
     1
102
RTVSPropertyOp13
 70
     1
102
RTVSPropertyOp14
 70
     1
102
RTVSPropertyOp15
 70
     1
102
RTVSPropertyOp16
 70
     1
102
RTVSPropertyOp17
 70
     1
102
RTVSPropertyOp18
 70
     1
102
RTVSPropertyOp19
 70
     1
102
RTVSPropertyOp20
 70
     1
102
RTVSPropertyOp21
 70
     1
102
RTVSPropertyOp22
 70
     1
102
RTVSPropertyOp23
 70
     1
102
RTVSPropertyOp24
 70
     1
102
RTVSPropertyOp25
 70
     1
102
RTVSPropertyOp26
 70
     1
102
RTVSPropertyOp27
 70
     1
102
RTVSPropertyOp28
 70
     1
102
RTVSPropertyOp29
 70
     1
102
RTVSPropertyOp30
 70
     1
102
RTVSPropertyOp31
 70
     1
102
RTVSPropertyOp32
 70
     1
  0
XRECORD
  5
72A
102
{ACAD_REACTORS
330
729
102
}
330
729
100
AcDbXrecord
280
     1
102
RTVSPropertyOp0
 70
     1
102
RTVSPropertyOp1
 70
     1
102
RTVSPropertyOp2
 70
     1
102
RTVSPropertyOp3
 70
     1
102
RTVSPropertyOp4
 70
     1
102
RTVSPropertyOp5
 70
     1
102
RTVSPropertyOp6
 70
     1
102
RTVSPropertyOp7
 70
     1
102
RTVSPropertyOp8
 70
     1
102
RTVSPropertyOp9
 70
     1
102
RTVSPropertyOp10
 70
     1
102
RTVSPropertyOp11
 70
     1
102
RTVSPropertyOp12
 70
     1
102
RTVSPropertyOp13
 70
     1
102
RTVSPropertyOp14
 70
     1
102
RTVSPropertyOp15
 70
     1
102
RTVSPropertyOp16
 70
     1
102
RTVSPropertyOp17
 70
     1
102
RTVSPropertyOp18
 70
     1
102
RTVSPropertyOp19
 70
     1
102
RTVSPropertyOp20
 70
     1
102
RTVSPropertyOp21
 70
     1
102
RTVSPropertyOp22
 70
     1
102
RTVSPropertyOp23
 70
     1
102
RTVSPropertyOp24
 70
     1
102
RTVSPropertyOp25
 70
     1
102
RTVSPropertyOp26
 70
     1
102
RTVSPropertyOp27
 70
     1
102
RTVSPropertyOp28
 70
     1
102
RTVSPropertyOp29
 70
     1
102
RTVSPropertyOp30
 70
     1
102
RTVSPropertyOp31
 70
     1
102
RTVSPropertyOp32
 70
     1
  0
XRECORD
  5
71C
102
{ACAD_REACTORS
330
71B
102
}
330
71B
100
AcDbXrecord
280
     1
102
RTVSPropertyOp0
 70
     1
102
RTVSPropertyOp1
 70
     1
102
RTVSPropertyOp2
 70
     1
102
RTVSPropertyOp3
 70
     1
102
RTVSPropertyOp4
 70
     1
102
RTVSPropertyOp5
 70
     1
102
RTVSPropertyOp6
 70
     1
102
RTVSPropertyOp7
 70
     1
102
RTVSPropertyOp8
 70
     1
102
RTVSPropertyOp9
 70
     1
102
RTVSPropertyOp10
 70
     1
102
RTVSPropertyOp11
 70
     1
102
RTVSPropertyOp12
 70
     1
102
RTVSPropertyOp13
 70
     1
102
RTVSPropertyOp14
 70
     1
102
RTVSPropertyOp15
 70
     1
102
RTVSPropertyOp16
 70
     1
102
RTVSPropertyOp17
 70
     1
102
RTVSPropertyOp18
 70
     1
102
RTVSPropertyOp19
 70
     1
102
RTVSPropertyOp20
 70
     1
102
RTVSPropertyOp21
 70
     1
102
RTVSPropertyOp22
 70
     1
102
RTVSPropertyOp23
 70
     1
102
RTVSPropertyOp24
 70
     1
102
RTVSPropertyOp25
 70
     1
102
RTVSPropertyOp26
 70
     1
102
RTVSPropertyOp27
 70
     1
102
RTVSPropertyOp28
 70
     1
102
RTVSPropertyOp29
 70
     1
102
RTVSPropertyOp30
 70
     1
102
RTVSPropertyOp31
 70
     1
102
RTVSPropertyOp32
 70
     1
  0
XRECORD
  5
724
102
{ACAD_REACTORS
330
723
102
}
330
723
100
AcDbXrecord
280
     1
102
RTVSPropertyOp0
 70
     1
102
RTVSPropertyOp1
 70
     1
102
RTVSPropertyOp2
 70
     1
102
RTVSPropertyOp3
 70
     1
102
RTVSPropertyOp4
 70
     1
102
RTVSPropertyOp5
 70
     1
102
RTVSPropertyOp6
 70
     1
102
RTVSPropertyOp7
 70
     1
102
RTVSPropertyOp8
 70
     1
102
RTVSPropertyOp9
 70
     1
102
RTVSPropertyOp10
 70
     1
102
RTVSPropertyOp11
 70
     1
102
RTVSPropertyOp12
 70
     1
102
RTVSPropertyOp13
 70
     1
102
RTVSPropertyOp14
 70
     1
102
RTVSPropertyOp15
 70
     1
102
RTVSPropertyOp16
 70
     1
102
RTVSPropertyOp17
 70
     1
102
RTVSPropertyOp18
 70
     1
102
RTVSPropertyOp19
 70
     1
102
RTVSPropertyOp20
 70
     1
102
RTVSPropertyOp21
 70
     1
102
RTVSPropertyOp22
 70
     1
102
RTVSPropertyOp23
 70
     1
102
RTVSPropertyOp24
 70
     1
102
RTVSPropertyOp25
 70
     1
102
RTVSPropertyOp26
 70
     1
102
RTVSPropertyOp27
 70
     1
102
RTVSPropertyOp28
 70
     1
102
RTVSPropertyOp29
 70
     1
102
RTVSPropertyOp30
 70
     1
102
RTVSPropertyOp31
 70
     1
102
RTVSPropertyOp32
 70
     1
  0
XRECORD
  5
72C
102
{ACAD_REACTORS
330
72B
102
}
330
72B
100
AcDbXrecord
280
     1
102
RTVSPropertyOp0
 70
     1
102
RTVSPropertyOp1
 70
     1
102
RTVSPropertyOp2
 70
     1
102
RTVSPropertyOp3
 70
     1
102
RTVSPropertyOp4
 70
     1
102
RTVSPropertyOp5
 70
     1
102
RTVSPropertyOp6
 70
     1
102
RTVSPropertyOp7
 70
     1
102
RTVSPropertyOp8
 70
     1
102
RTVSPropertyOp9
 70
     1
102
RTVSPropertyOp10
 70
     1
102
RTVSPropertyOp11
 70
     1
102
RTVSPropertyOp12
 70
     1
102
RTVSPropertyOp13
 70
     1
102
RTVSPropertyOp14
 70
     1
102
RTVSPropertyOp15
 70
     1
102
RTVSPropertyOp16
 70
     1
102
RTVSPropertyOp17
 70
     1
102
RTVSPropertyOp18
 70
     1
102
RTVSPropertyOp19
 70
     1
102
RTVSPropertyOp20
 70
     1
102
RTVSPropertyOp21
 70
     1
102
RTVSPropertyOp22
 70
     1
102
RTVSPropertyOp23
 70
     1
102
RTVSPropertyOp24
 70
     1
102
RTVSPropertyOp25
 70
     1
102
RTVSPropertyOp26
 70
     1
102
RTVSPropertyOp27
 70
     1
102
RTVSPropertyOp28
 70
     1
102
RTVSPropertyOp29
 70
     1
102
RTVSPropertyOp30
 70
     1
102
RTVSPropertyOp31
 70
     1
102
RTVSPropertyOp32
 70
     1
  0
ENDSEC
  0
EOF
