  0
SECTION
  2
HEADER
  9
$ACADVER
  1
AC1018
  9
$ACADMAINTVER
 70
     0
  9
$DWGCODEPAGE
  3
ANSI_1252
  9
$INSBASE
 10
0.0
 20
0.0
 30
0.0
  9
$EXTMIN
 10
-11.51780708661417
 20
-3.740531496062992
 30
0.0
  9
$EXTMAX
 10
13.17335039370079
 20
5.018854330708662
 30
0.0
  9
$LIMMIN
 10
0.0
 20
0.0
  9
$LIMMAX
 10
12.0
 20
9.0
  9
$ORTHOMODE
 70
     0
  9
$REGENMODE
 70
     1
  9
$FILLMODE
 70
     1
  9
$QTEXTMODE
 70
     0
  9
$MIRRTEXT
 70
     1
  9
$LTSCALE
 40
1.0
  9
$ATTMODE
 70
     1
  9
$TEXTSIZE
 40
0.2
  9
$TRACEWID
 40
0.05
  9
$TEXTSTYLE
  7
Standard
  9
$CLAYER
  8
0
  9
$CELTYPE
  6
ByLayer
  9
$CECOLOR
 62
   256
  9
$CELTSCALE
 40
1.0
  9
$DISPSILH
 70
     0
  9
$DIMSCALE
 40
1.0
  9
$DIMASZ
 40
0.18
  9
$DIMEXO
 40
0.0625
  9
$DIMDLI
 40
0.38
  9
$DIMRND
 40
0.0
  9
$DIMDLE
 40
0.0
  9
$DIMEXE
 40
0.18
  9
$DIMTP
 40
0.0
  9
$DIMTM
 40
0.0
  9
$DIMTXT
 40
0.18
  9
$DIMCEN
 40
0.09
  9
$DIMTSZ
 40
0.0
  9
$DIMTOL
 70
     0
  9
$DIMLIM
 70
     0
  9
$DIMTIH
 70
     1
  9
$DIMTOH
 70
     1
  9
$DIMSE1
 70
     0
  9
$DIMSE2
 70
     0
  9
$DIMTAD
 70
     0
  9
$DIMZIN
 70
     0
  9
$DIMBLK
  1

  9
$DIMASO
 70
     1
  9
$DIMSHO
 70
     1
  9
$DIMPOST
  1

  9
$DIMAPOST
  1

  9
$DIMALT
 70
     0
  9
$DIMALTD
 70
     2
  9
$DIMALTF
 40
25.4
  9
$DIMLFAC
 40
1.0
  9
$DIMTOFL
 70
     0
  9
$DIMTVP
 40
0.0
  9
$DIMTIX
 70
     0
  9
$DIMSOXD
 70
     0
  9
$DIMSAH
 70
     0
  9
$DIMBLK1
  1

  9
$DIMBLK2
  1

  9
$DIMSTYLE
  2
Standard
  9
$DIMCLRD
 70
     0
  9
$DIMCLRE
 70
     0
  9
$DIMCLRT
 70
     0
  9
$DIMTFAC
 40
1.0
  9
$DIMGAP
 40
0.09
  9
$DIMJUST
 70
     0
  9
$DIMSD1
 70
     0
  9
$DIMSD2
 70
     0
  9
$DIMTOLJ
 70
     1
  9
$DIMTZIN
 70
     0
  9
$DIMALTZ
 70
     0
  9
$DIMALTTZ
 70
     0
  9
$DIMUPT
 70
     0
  9
$DIMDEC
 70
     4
  9
$DIMTDEC
 70
     4
  9
$DIMALTU
 70
     2
  9
$DIMALTTD
 70
     2
  9
$DIMTXSTY
  7
Standard
  9
$DIMAUNIT
 70
     0
  9
$DIMADEC
 70
     0
  9
$DIMALTRND
 40
0.0
  9
$DIMAZIN
 70
     0
  9
$DIMDSEP
 70
    46
  9
$DIMATFIT
 70
     3
  9
$DIMFRAC
 70
     0
  9
$DIMLDRBLK
  1

  9
$DIMLUNIT
 70
     2
  9
$DIMLWD
 70
    -2
  9
$DIMLWE
 70
    -2
  9
$DIMTMOVE
 70
     0
  9
$LUNITS
 70
     2
  9
$LUPREC
 70
     4
  9
$SKETCHINC
 40
0.1
  9
$FILLETRAD
 40
0.5
  9
$AUNITS
 70
     0
  9
$AUPREC
 70
     0
  9
$MENU
  1
.
  9
$ELEVATION
 40
0.0
  9
$PELEVATION
 40
0.0
  9
$THICKNESS
 40
0.0
  9
$LIMCHECK
 70
     0
  9
$CHAMFERA
 40
0.5
  9
$CHAMFERB
 40
0.5
  9
$CHAMFERC
 40
1.0
  9
$CHAMFERD
 40
0.0
  9
$SKPOLY
 70
     0
  9
$TDCREATE
 40
2457837.645640868
  9
$TDUCREATE
 40
2457837.416474201
  9
$TDUPDATE
 40
2457837.645640879
  9
$TDUUPDATE
 40
2457837.416474213
  9
$TDINDWG
 40
0.0000000116
  9
$TDUSRTIMER
 40
0.0000000116
  9
$USRTIMER
 70
     1
  9
$ANGBASE
 50
0.0
  9
$ANGDIR
 70
     0
  9
$PDMODE
 70
     0
  9
$PDSIZE
 40
0.0
  9
$PLINEWID
 40
0.0
  9
$SPLFRAME
 70
     0
  9
$SPLINETYPE
 70
     6
  9
$SPLINESEGS
 70
     8
  9
$HANDSEED
  5
12E
  9
$SURFTAB1
 70
     6
  9
$SURFTAB2
 70
     6
  9
$SURFTYPE
 70
     6
  9
$SURFU
 70
     6
  9
$SURFV
 70
     6
  9
$UCSBASE
  2

  9
$UCSNAME
  2

  9
$UCSORG
 10
0.0
 20
0.0
 30
0.0
  9
$UCSXDIR
 10
1.0
 20
0.0
 30
0.0
  9
$UCSYDIR
 10
0.0
 20
1.0
 30
0.0
  9
$UCSORTHOREF
  2

  9
$UCSORTHOVIEW
 70
     0
  9
$UCSORGTOP
 10
0.0
 20
0.0
 30
0.0
  9
$UCSORGBOTTOM
 10
0.0
 20
0.0
 30
0.0
  9
$UCSORGLEFT
 10
0.0
 20
0.0
 30
0.0
  9
$UCSORGRIGHT
 10
0.0
 20
0.0
 30
0.0
  9
$UCSORGFRONT
 10
0.0
 20
0.0
 30
0.0
  9
$UCSORGBACK
 10
0.0
 20
0.0
 30
0.0
  9
$PUCSBASE
  2

  9
$PUCSNAME
  2

  9
$PUCSORG
 10
0.0
 20
0.0
 30
0.0
  9
$PUCSXDIR
 10
1.0
 20
0.0
 30
0.0
  9
$PUCSYDIR
 10
0.0
 20
1.0
 30
0.0
  9
$PUCSORTHOREF
  2

  9
$PUCSORTHOVIEW
 70
     0
  9
$PUCSORGTOP
 10
0.0
 20
0.0
 30
0.0
  9
$PUCSORGBOTTOM
 10
0.0
 20
0.0
 30
0.0
  9
$PUCSORGLEFT
 10
0.0
 20
0.0
 30
0.0
  9
$PUCSORGRIGHT
 10
0.0
 20
0.0
 30
0.0
  9
$PUCSORGFRONT
 10
0.0
 20
0.0
 30
0.0
  9
$PUCSORGBACK
 10
0.0
 20
0.0
 30
0.0
  9
$USERI1
 70
     0
  9
$USERI2
 70
     0
  9
$USERI3
 70
     0
  9
$USERI4
 70
     0
  9
$USERI5
 70
     0
  9
$USERR1
 40
0.0
  9
$USERR2
 40
0.0
  9
$USERR3
 40
0.0
  9
$USERR4
 40
0.0
  9
$USERR5
 40
0.0
  9
$WORLDVIEW
 70
     1
  9
$SHADEDGE
 70
     3
  9
$SHADEDIF
 70
    70
  9
$TILEMODE
 70
     1
  9
$MAXACTVP
 70
    64
  9
$PINSBASE
 10
0.0
 20
0.0
 30
0.0
  9
$PLIMCHECK
 70
     0
  9
$PEXTMIN
 10
1.000000000000000E+20
 20
1.000000000000000E+20
 30
1.000000000000000E+20
  9
$PEXTMAX
 10
-1.000000000000000E+20
 20
-1.000000000000000E+20
 30
-1.000000000000000E+20
  9
$PLIMMIN
 10
0.0
 20
0.0
  9
$PLIMMAX
 10
12.0
 20
9.0
  9
$UNITMODE
 70
     0
  9
$VISRETAIN
 70
     1
  9
$PLINEGEN
 70
     0
  9
$PSLTSCALE
 70
     1
  9
$TREEDEPTH
 70
  3020
  9
$CMLSTYLE
  2
Standard
  9
$CMLJUST
 70
     0
  9
$CMLSCALE
 40
1.0
  9
$PROXYGRAPHICS
 70
     1
  9
$MEASUREMENT
 70
     0
  9
$CELWEIGHT
370
    -1
  9
$ENDCAPS
280
     0
  9
$JOINSTYLE
280
     0
  9
$LWDISPLAY
290
     0
  9
$INSUNITS
 70
     1
  9
$HYPERLINKBASE
  1

  9
$STYLESHEET
  1

  9
$XEDIT
290
     1
  9
$CEPSNTYPE
380
     0
  9
$PSTYLEMODE
290
     0
  9
$FINGERPRINTGUID
  2
{FAEB1C30-E019-11D5-929B-00C0DF256EC4}
  9
$VERSIONGUID
  2
{FAEB1C32-E019-11D5-929B-00C0DF256EC4}
  9
$EXTNAMES
290
     1
  9
$PSVPSCALE
 40
0.0
  9
$OLESTARTUP
290
     0
  9
$SORTENTS
280
   127
  9
$INDEXCTL
280
     0
  9
$HIDETEXT
280
     1
  9
$XCLIPFRAME
290
     0
  9
$HALOGAP
280
     0
  9
$OBSCOLOR
 70
   257
  9
$OBSLTYPE
280
     0
  9
$INTERSECTIONDISPLAY
280
     0
  9
$INTERSECTIONCOLOR
 70
   257
  9
$DIMASSOC
280
     2
  9
$PROJECTNAME
  1

  0
ENDSEC
  0
SECTION
  2
CLASSES
  0
CLASS
  1
ACDBDICTIONARYWDFLT
  2
AcDbDictionaryWithDefault
  3
ObjectDBX Classes
 90
        0
 91
        1
280
     0
281
     0
  0
ENDSEC
  0
SECTION
  2
TABLES
  0
TABLE
  2
VPORT
  5
8
330
0
100
AcDbSymbolTable
 70
     2
  0
VPORT
  5
29
330
8
100
AcDbSymbolTableRecord
100
AcDbViewportTableRecord
  2
*Active
 70
     0
 10
0.0
 20
0.0
 11
1.0
 21
1.0
 12
10.42990654205607
 22
4.5
 13
0.0
 23
0.0
 14
0.5
 24
0.5
 15
0.5
 25
0.5
 16
0.0
 26
0.0
 36
1.0
 17
0.0
 27
0.0
 37
0.0
 40
9.0
 41
1.972972972850329
 42
50.0
 43
0.0
 44
0.0
 50
0.0
 51
0.0
 71
     0
 72
   100
 73
     1
 74
     3
 75
     0
 76
     0
 77
     0
 78
     0
281
     0
 65
     1
110
0.0
120
0.0
130
0.0
111
1.0
121
0.0
131
0.0
112
0.0
122
1.0
132
0.0
 79
     0
146
0.0
  0
ENDTAB
  0
TABLE
  2
LTYPE
  5
5
330
0
100
AcDbSymbolTable
 70
     1
  0
LTYPE
  5
14
330
5
100
AcDbSymbolTableRecord
100
AcDbLinetypeTableRecord
  2
ByBlock
 70
     0
  3

 72
    65
 73
     0
 40
0.0
  0
LTYPE
  5
15
330
5
100
AcDbSymbolTableRecord
100
AcDbLinetypeTableRecord
  2
ByLayer
 70
     0
  3

 72
    65
 73
     0
 40
0.0
  0
LTYPE
  5
16
330
5
100
AcDbSymbolTableRecord
100
AcDbLinetypeTableRecord
  2
Continuous
 70
     0
  3
Solid line
 72
    65
 73
     0
 40
0.0
  0
ENDTAB
  0
TABLE
  2
LAYER
  5
2
330
0
100
AcDbSymbolTable
 70
     2
  0
LAYER
  5
10
330
2
100
AcDbSymbolTableRecord
100
AcDbLayerTableRecord
  2
0
 70
     0
 62
     7
  6
Continuous
370
    -3
390
F
  0
LAYER
  5
2B
330
2
100
AcDbSymbolTableRecord
100
AcDbLayerTableRecord
  2
Layer 1
 70
     0
 62
     7
  6
Continuous
370
    -3
390
F
  0
ENDTAB
  0
TABLE
  2
STYLE
  5
3
330
0
100
AcDbSymbolTable
 70
     1
  0
STYLE
  5
11
330
3
100
AcDbSymbolTableRecord
100
AcDbTextStyleTableRecord
  2
Standard
 70
     0
 40
0.0
 41
1.0
 50
0.0
 71
     0
 42
0.2
  3
txt
  4

  0
ENDTAB
  0
TABLE
  2
VIEW
  5
6
330
0
100
AcDbSymbolTable
 70
     0
  0
ENDTAB
  0
TABLE
  2
UCS
  5
7
330
0
100
AcDbSymbolTable
 70
     0
  0
ENDTAB
  0
TABLE
  2
APPID
  5
9
330
0
100
AcDbSymbolTable
 70
     2
  0
APPID
  5
12
330
9
100
AcDbSymbolTableRecord
100
AcDbRegAppTableRecord
  2
ACAD
 70
     0
  0
APPID
  5
2A
330
9
100
AcDbSymbolTableRecord
100
AcDbRegAppTableRecord
  2
ODA
 70
     0
  0
ENDTAB
  0
TABLE
  2
DIMSTYLE
  5
A
330
0
100
AcDbSymbolTable
 70
     1
100
AcDbDimStyleTable
  0
DIMSTYLE
105
27
330
A
100
AcDbSymbolTableRecord
100
AcDbDimStyleTableRecord
  2
Standard
 70
     0
340
11
  0
ENDTAB
  0
TABLE
  2
BLOCK_RECORD
  5
1
330
0
100
AcDbSymbolTable
 70
     1
  0
BLOCK_RECORD
  5
1F
330
1
100
AcDbSymbolTableRecord
100
AcDbBlockTableRecord
  2
*Model_Space
340
22
  0
BLOCK_RECORD
  5
1B
330
1
100
AcDbSymbolTableRecord
100
AcDbBlockTableRecord
  2
*Paper_Space
340
1E
  0
BLOCK_RECORD
  5
23
330
1
100
AcDbSymbolTableRecord
100
AcDbBlockTableRecord
  2
*Paper_Space0
340
26
  0
ENDTAB
  0
ENDSEC
  0
SECTION
  2
BLOCKS
  0
BLOCK
  5
20
330
1F
100
AcDbEntity
  8
0
100
AcDbBlockBegin
  2
*Model_Space
 70
     0
 71
     0
 10
0.0
 20
0.0
 30
0.0
  3
*Model_Space
  1

  0
ENDBLK
  5
21
330
1F
100
AcDbEntity
  8
0
100
AcDbBlockEnd
  0
BLOCK
  5
1C
330
1B
100
AcDbEntity
 67
     1
  8
0
100
AcDbBlockBegin
  2
*Paper_Space
 70
     0
 71
     0
 10
0.0
 20
0.0
 30
0.0
  3
*Paper_Space
  1

  0
ENDBLK
  5
1D
330
1B
100
AcDbEntity
 67
     1
  8
0
100
AcDbBlockEnd
  0
BLOCK
  5
24
330
23
100
AcDbEntity
  8
0
100
AcDbBlockBegin
  2
*Paper_Space0
 70
     0
 71
     0
 10
0.0
 20
0.0
 30
0.0
  3
*Paper_Space0
  1

  0
ENDBLK
  5
25
330
23
100
AcDbEntity
  8
0
100
AcDbBlockEnd
  0
ENDSEC
  0
SECTION
  2
ENTITIES
  0
SPLINE
  5
2C
330
1F
100
AcDbEntity
  8
Layer 1
 62
   250
370
     5
100
AcDbSpline
210
0.0
220
0.0
230
1.0
 70
    11
 71
     3
 72
    20
 73
    16
 74
     0
 42
0.0000000001
 43
0.0000000001
 40
0.0
 40
0.0
 40
0.0
 40
0.0
 40
0.25
 40
0.25
 40
0.25
 40
0.25
 40
0.5
 40
0.5
 40
0.5
 40
0.5
 40
0.75
 40
0.75
 40
0.75
 40
0.75
 40
1.0
 40
1.0
 40
1.0
 40
1.0
 10
-11.51630708661417
 20
-3.739031496062992
 30
0.0
 10
-11.51630708661417
 20
-3.739031496062992
 30
0.0
 10
-11.51630708661417
 20
5.017354330708661
 30
0.0
 10
-11.51630708661417
 20
5.017354330708661
 30
0.0
 10
-11.51630708661417
 20
5.017354330708661
 30
0.0
 10
-11.51630708661417
 20
5.017354330708661
 30
0.0
 10
13.17185039370079
 20
5.017354330708661
 30
0.0
 10
13.17185039370079
 20
5.017354330708661
 30
0.0
 10
13.17185039370079
 20
5.017354330708661
 30
0.0
 10
13.17185039370079
 20
5.017354330708661
 30
0.0
 10
13.17185039370079
 20
-3.739031496062992
 30
0.0
 10
13.17185039370079
 20
-3.739031496062992
 30
0.0
 10
13.17185039370079
 20
-3.739031496062992
 30
0.0
 10
13.17185039370079
 20
-3.739031496062992
 30
0.0
 10
-11.51630708661417
 20
-3.739031496062992
 30
0.0
 10
-11.51630708661417
 20
-3.739031496062992
 30
0.0
  0
SPLINE
  5
2D
330
1F
100
AcDbEntity
  8
Layer 1
 62
   250
370
     5
100
AcDbSpline
210
0.0
220
0.0
230
1.0
 70
    11
 71
     3
 72
    20
 73
    16
 74
     0
 42
0.0000000001
 43
0.0000000001
 40
0.0
 40
0.0
 40
0.0
 40
0.0
 40
0.25
 40
0.25
 40
0.25
 40
0.25
 40
0.5
 40
0.5
 40
0.5
 40
0.5
 40
0.75
 40
0.75
 40
0.75
 40
0.75
 40
1.0
 40
1.0
 40
1.0
 40
1.0
 10
10.40799606299213
 20
4.485893700787401
 30
0.0
 10
10.40303543307087
 20
4.503661417322835
 30
0.0
 10
10.39770866141732
 20
4.520704724409449
 30
0.0
 10
10.39209842519685
 20
4.537204724409449
 30
0.0
 10
10.39209842519685
 20
4.537204724409449
 30
0.0
 10
10.39209842519685
 20
4.537204724409449
 30
0.0
 10
10.99586614173228
 20
4.533688976377953
 30
0.0
 10
10.99586614173228
 20
4.533688976377953
 30
0.0
 10
10.99586614173228
 20
4.533688976377953
 30
0.0
 10
11.09405511811024
 20
4.448370078740157
 30
0.0
 10
11.20726771653543
 20
4.373992125984252
 30
0.0
 10
11.33796850393701
 20
4.312338582677166
 30
0.0
 10
11.33796850393701
 20
4.312338582677166
 30
0.0
 10
11.19982283464567
 20
4.049637795275591
 30
0.0
 10
10.56765748031496
 20
4.097129921259842
 30
0.0
 10
10.40799606299213
 20
4.485893700787401
 30
0.0
  0
SPLINE
  5
2E
330
1F
100
AcDbEntity
  8
Layer 1
 62
   250
370
     5
100
AcDbSpline
210
0.0
220
0.0
230
1.0
 70
    11
 71
     3
 72
    24
 73
    20
 74
     0
 42
0.0000000001
 43
0.0000000001
 40
0.0
 40
0.0
 40
0.0
 40
0.0
 40
0.2
 40
0.2
 40
0.2
 40
0.2
 40
0.4
 40
0.4
 40
0.4
 40
0.4
 40
0.6000000000000001
 40
0.6000000000000001
 40
0.6000000000000001
 40
0.6000000000000001
 40
0.8
 40
0.8
 40
0.8
 40
0.8
 40
1.0
 40
1.0
 40
1.0
 40
1.0
 10
-2.340464566929134
 20
4.418102362204724
 30
0.0
 10
-2.440094488188977
 20
4.492370078740158
 30
0.0
 10
-2.523314960629921
 20
4.485972440944882
 30
0.0
 10
-2.585244094488189
 20
4.533358267716536
 30
0.0
 10
-2.585244094488189
 20
4.533358267716536
 30
0.0
 10
-2.585244094488189
 20
4.533358267716536
 30
0.0
 10
-2.025318897637795
 20
4.525204724409449
 30
0.0
 10
-2.025318897637795
 20
4.525204724409449
 30
0.0
 10
-2.025318897637795
 20
4.525204724409449
 30
0.0
 10
-2.01207874015748
 20
4.489838582677166
 30
0.0
 10
-2.001629921259843
 20
4.455137795275591
 30
0.0
 10
-1.993090551181102
 20
4.422070866141732
 30
0.0
 10
-1.993090551181102
 20
4.422070866141732
 30
0.0
 10
-1.964027559055118
 20
4.309295275590551
 30
0.0
 10
-1.966787401574803
 20
4.250531496062992
 30
0.0
 10
-1.840287401574803
 20
4.103515748031496
 30
0.0
 10
-1.840287401574803
 20
4.103515748031496
 30
0.0
 10
-2.019015748031496
 20
4.140330708661417
 30
0.0
 10
-2.184799212598426
 20
4.311834645669292
 30
0.0
 10
-2.340464566929134
 20
4.418102362204724
 30
0.0
  0
SPLINE
  5
2F
330
1F
100
AcDbEntity
  8
Layer 1
 62
   250
370
     5
100
AcDbSpline
210
0.0
220
0.0
230
1.0
 70
    11
 71
     3
 72
    24
 73
    20
 74
     0
 42
0.0000000001
 43
0.0000000001
 40
0.0
 40
0.0
 40
0.0
 40
0.0
 40
0.2
 40
0.2
 40
0.2
 40
0.2
 40
0.4
 40
0.4
 40
0.4
 40
0.4
 40
0.6000000000000001
 40
0.6000000000000001
 40
0.6000000000000001
 40
0.6000000000000001
 40
0.8
 40
0.8
 40
0.8
 40
0.8
 40
1.0
 40
1.0
 40
1.0
 40
1.0
 10
-1.832161417322835
 20
4.420003937007874
 30
0.0
 10
-1.840102362204725
 20
4.454799212598426
 30
0.0
 10
-1.8505
 20
4.48948031496063
 30
0.0
 10
-1.863377952755906
 20
4.524051181102363
 30
0.0
 10
-1.863377952755906
 20
4.524051181102363
 30
0.0
 10
-1.863377952755906
 20
4.524051181102363
 30
0.0
 10
-1.552362204724409
 20
4.537094488188977
 30
0.0
 10
-1.552362204724409
 20
4.537094488188977
 30
0.0
 10
-1.552362204724409
 20
4.537094488188977
 30
0.0
 10
-1.495224409448819
 20
4.459964566929134
 30
0.0
 10
-1.463354330708661
 20
4.381358267716536
 30
0.0
 10
-1.474838582677166
 20
4.311318897637795
 30
0.0
 10
-1.474838582677166
 20
4.311318897637795
 30
0.0
 10
-1.497236220472441
 20
4.144275590551182
 30
0.0
 10
-1.529173228346457
 20
4.002047244094489
 30
0.0
 10
-1.575023622047244
 20
3.896047244094488
 30
0.0
 10
-1.575023622047244
 20
3.896047244094488
 30
0.0
 10
-1.710602362204724
 20
4.049110236220472
 30
0.0
 10
-1.787527559055118
 20
4.227562992125985
 30
0.0
 10
-1.832161417322835
 20
4.420003937007874
 30
0.0
  0
SPLINE
  5
30
330
1F
100
AcDbEntity
  8
Layer 1
 62
   250
370
     5
100
AcDbSpline
210
0.0
220
0.0
230
1.0
 70
    11
 71
     3
 72
    16
 73
    12
 74
     0
 42
0.0000000001
 43
0.0000000001
 40
0.0
 40
0.0
 40
0.0
 40
0.0
 40
0.3333333333333333
 40
0.3333333333333333
 40
0.3333333333333333
 40
0.3333333333333333
 40
0.6666666666666666
 40
0.6666666666666666
 40
0.6666666666666666
 40
0.6666666666666666
 40
1.0
 40
1.0
 40
1.0
 40
1.0
 10
-10.97600393700787
 20
-1.810811023622047
 30
0.0
 10
-11.11884645669291
 20
-1.247086614173228
 30
0.0
 10
-10.88533858267717
 20
-0.7734645669291339
 30
0.0
 10
-10.69064566929134
 20
-0.7583070866141732
 30
0.0
 10
-10.69064566929134
 20
-0.7583070866141732
 30
0.0
 10
-10.70664960629921
 20
-1.238972440944882
 30
0.0
 10
-10.40616141732284
 20
-1.384385826771654
 30
0.0
 10
-10.37181496062992
 20
-1.534736220472441
 30
0.0
 10
-10.37181496062992
 20
-1.534736220472441
 30
0.0
 10
-10.64071653543307
 20
-1.524303149606299
 30
0.0
 10
-10.85111811023622
 20
-1.602653543307087
 30
0.0
 10
-10.97600393700787
 20
-1.810811023622047
 30
0.0
  0
SPLINE
  5
31
330
1F
100
AcDbEntity
  8
Layer 1
 62
   250
370
     5
100
AcDbSpline
210
0.0
220
0.0
230
1.0
 70
    11
 71
     3
 72
    20
 73
    16
 74
     0
 42
0.0000000001
 43
0.0000000001
 40
0.0
 40
0.0
 40
0.0
 40
0.0
 40
0.25
 40
0.25
 40
0.25
 40
0.25
 40
0.5
 40
0.5
 40
0.5
 40
0.5
 40
0.75
 40
0.75
 40
0.75
 40
0.75
 40
1.0
 40
1.0
 40
1.0
 40
1.0
 10
-10.37181496062992
 20
-1.224161417322835
 30
0.0
 10
-10.52957480314961
 20
-1.023051181102362
 30
0.0
 10
-10.62538976377953
 20
-0.5199212598425197
 30
0.0
 10
-10.42283464566929
 20
-0.3875275590551181
 30
0.0
 10
-10.42283464566929
 20
-0.3875275590551181
 30
0.0
 10
-10.28112992125984
 20
-0.2891850393700788
 30
0.0
 10
-10.15054330708662
 20
-0.2137204724409449
 30
0.0
 10
-10.03620472440945
 20
-0.1716653543307087
 30
0.0
 10
-10.03620472440945
 20
-0.1716653543307087
 30
0.0
 10
-10.04552362204725
 20
-0.3621456692913386
 30
0.0
 10
-10.1190157480315
 20
-0.5320433070866142
 30
0.0
 10
-10.22783070866142
 20
-0.6906377952755906
 30
0.0
 10
-10.22783070866142
 20
-0.6906377952755906
 30
0.0
 10
-10.32511417322835
 20
-0.831228346456693
 30
0.0
 10
-10.37466535433071
 20
-1.007893700787402
 30
0.0
 10
-10.37181496062992
 20
-1.224161417322835
 30
0.0
  0
SPLINE
  5
32
330
1F
100
AcDbEntity
  8
Layer 1
 62
   250
370
     5
100
AcDbSpline
210
0.0
220
0.0
230
1.0
 70
    11
 71
     3
 72
    20
 73
    16
 74
     0
 42
0.0000000001
 43
0.0000000001
 40
0.0
 40
0.0
 40
0.0
 40
0.0
 40
0.25
 40
0.25
 40
0.25
 40
0.25
 40
0.5
 40
0.5
 40
0.5
 40
0.5
 40
0.75
 40
0.75
 40
0.75
 40
0.75
 40
1.0
 40
1.0
 40
1.0
 40
1.0
 10
-10.22109842519685
 20
-1.778744094488189
 30
0.0
 10
-10.22109842519685
 20
-1.778744094488189
 30
0.0
 10
-10.0237125984252
 20
-2.201527559055118
 30
0.0
 10
-10.0237125984252
 20
-2.201527559055118
 30
0.0
 10
-10.0237125984252
 20
-2.201527559055118
 30
0.0
 10
-10.0237125984252
 20
-2.201527559055118
 30
0.0
 10
-10.43895275590551
 20
-2.414700787401575
 30
0.0
 10
-10.43895275590551
 20
-2.414700787401575
 30
0.0
 10
-10.43895275590551
 20
-2.414700787401575
 30
0.0
 10
-10.63424409448819
 20
-2.304137795275591
 30
0.0
 10
-10.77501968503937
 20
-2.155267716535433
 30
0.0
 10
-10.85846456692913
 20
-1.966086614173229
 30
0.0
 10
-10.85846456692913
 20
-1.966086614173229
 30
0.0
 10
-10.88186220472441
 20
-1.767803149606299
 30
0.0
 10
-10.44733070866142
 20
-1.759035433070866
 30
0.0
 10
-10.22109842519685
 20
-1.778744094488189
 30
0.0
  0
SPLINE
  5
33
330
1F
100
AcDbEntity
  8
Layer 1
 62
   250
370
     5
100
AcDbSpline
210
0.0
220
0.0
230
1.0
 70
    11
 71
     3
 72
    16
 73
    12
 74
     0
 42
0.0000000001
 43
0.0000000001
 40
0.0
 40
0.0
 40
0.0
 40
0.0
 40
0.3333333333333333
 40
0.3333333333333333
 40
0.3333333333333333
 40
0.3333333333333333
 40
0.6666666666666666
 40
0.6666666666666666
 40
0.6666666666666666
 40
0.6666666666666666
 40
1.0
 40
1.0
 40
1.0
 40
1.0
 10
-10.37781496062992
 20
1.336188976377953
 30
0.0
 10
-10.84038976377953
 20
1.672531496062992
 30
0.0
 10
-10.95872834645669
 20
2.189409448818898
 30
0.0
 10
-10.81937007874016
 20
2.330015748031496
 30
0.0
 10
-10.81937007874016
 20
2.330015748031496
 30
0.0
 10
-10.53031496062992
 20
1.95190157480315
 30
0.0
 10
-10.2094094488189
 20
2.039838582677165
 30
0.0
 10
-10.08891338582677
 20
1.947657480314961
 30
0.0
 10
-10.08891338582677
 20
1.947657480314961
 30
0.0
 10
-10.30106299212599
 20
1.777429133858268
 30
0.0
 10
-10.4128031496063
 20
1.578082677165354
 30
0.0
 10
-10.37781496062992
 20
1.336188976377953
 30
0.0
  0
SPLINE
  5
34
330
1F
100
AcDbEntity
  8
Layer 1
 62
   250
370
     5
100
AcDbSpline
210
0.0
220
0.0
230
1.0
 70
    11
 71
     3
 72
    32
 73
    28
 74
     0
 42
0.0000000001
 43
0.0000000001
 40
0.0
 40
0.0
 40
0.0
 40
0.0
 40
0.1428571428571429
 40
0.1428571428571429
 40
0.1428571428571429
 40
0.1428571428571429
 40
0.2857142857142857
 40
0.2857142857142857
 40
0.2857142857142857
 40
0.2857142857142857
 40
0.4285714285714286
 40
0.4285714285714286
 40
0.4285714285714286
 40
0.4285714285714286
 40
0.5714285714285714
 40
0.5714285714285714
 40
0.5714285714285714
 40
0.5714285714285714
 40
0.7142857142857142
 40
0.7142857142857142
 40
0.7142857142857142
 40
0.7142857142857142
 40
0.857142857142857
 40
0.857142857142857
 40
0.857142857142857
 40
0.857142857142857
 40
1.0
 40
1.0
 40
1.0
 40
1.0
 10
-9.985870078740158
 20
-0.482244094488189
 30
0.0
 10
-9.875287401574804
 20
-0.6220078740157481
 30
0.0
 10
-9.874980314960631
 20
-0.8443622047244095
 30
0.0
 10
-9.833948818897639
 20
-1.016181102362205
 30
0.0
 10
-9.833948818897639
 20
-1.016181102362205
 30
0.0
 10
-9.807972440944882
 20
-1.153251968503937
 30
0.0
 10
-9.713692913385827
 20
-1.196649606299213
 30
0.0
 10
-9.730874015748032
 20
-1.297964566929134
 30
0.0
 10
-9.730874015748032
 20
-1.297964566929134
 30
0.0
 10
-9.717846456692914
 20
-1.395322834645669
 30
0.0
 10
-9.687236220472441
 20
-1.454653543307087
 30
0.0
 10
-9.65026377952756
 20
-1.500240157480315
 30
0.0
 10
-9.65026377952756
 20
-1.500240157480315
 30
0.0
 10
-9.704964566929133
 20
-1.732311023622047
 30
0.0
 10
-9.775393700787403
 20
-1.923055118110236
 30
0.0
 10
-9.901972440944883
 20
-1.966086614173229
 30
0.0
 10
-9.901972440944883
 20
-1.966086614173229
 30
0.0
 10
-9.941826771653544
 20
-1.709696850393701
 30
0.0
 10
-10.04641732283465
 20
-1.652988188976378
 30
0.0
 10
-10.11864173228346
 20
-1.496437007874016
 30
0.0
 10
-10.11864173228346
 20
-1.496437007874016
 30
0.0
 10
-10.30516141732284
 20
-1.195771653543307
 30
0.0
 10
-10.20959448818898
 20
-0.956511811023622
 30
0.0
 10
-10.10509842519685
 20
-0.7955
 30
0.0
 10
-10.10509842519685
 20
-0.7955
 30
0.0
 10
-10.04357480314961
 20
-0.7006889763779528
 30
0.0
 10
-9.997692913385826
 20
-0.6628267716535433
 30
0.0
 10
-9.985870078740158
 20
-0.482244094488189
 30
0.0
  0
SPLINE
  5
35
330
1F
100
AcDbEntity
  8
Layer 1
 62
   250
370
     5
100
AcDbSpline
210
0.0
220
0.0
230
1.0
 70
    11
 71
     3
 72
    20
 73
    16
 74
     0
 42
0.0000000001
 43
0.0000000001
 40
0.0
 40
0.0
 40
0.0
 40
0.0
 40
0.25
 40
0.25
 40
0.25
 40
0.25
 40
0.5
 40
0.5
 40
0.5
 40
0.5
 40
0.75
 40
0.75
 40
0.75
 40
0.75
 40
1.0
 40
1.0
 40
1.0
 40
1.0
 10
-10.8470157480315
 20
2.791003937007874
 30
0.0
 10
-10.8003031496063
 20
2.960102362204724
 30
0.0
 10
-10.74776377952756
 20
3.104334645669292
 30
0.0
 10
-10.6867125984252
 20
3.212259842519685
 30
0.0
 10
-10.6867125984252
 20
3.212259842519685
 30
0.0
 10
-10.57442913385827
 20
3.06046062992126
 30
0.0
 10
-10.5241220472441
 20
2.881846456692914
 30
0.0
 10
-10.50794094488189
 20
2.688468503937008
 30
0.0
 10
-10.50794094488189
 20
2.688468503937008
 30
0.0
 10
-10.49416535433071
 20
2.516511811023622
 30
0.0
 10
-10.4213188976378
 20
2.348586614173228
 30
0.0
 10
-10.28358661417323
 20
2.185114173228346
 30
0.0
 10
-10.28358661417323
 20
2.185114173228346
 30
0.0
 10
-10.53026771653543
 20
2.234338582677165
 30
0.0
 10
-10.91889763779528
 20
2.555543307086615
 30
0.0
 10
-10.8470157480315
 20
2.791003937007874
 30
0.0
  0
SPLINE
  5
36
330
1F
100
AcDbEntity
  8
Layer 1
 62
   250
370
     5
100
AcDbSpline
210
0.0
220
0.0
230
1.0
 70
    11
 71
     3
 72
    24
 73
    20
 74
     0
 42
0.0000000001
 43
0.0000000001
 40
0.0
 40
0.0
 40
0.0
 40
0.0
 40
0.2
 40
0.2
 40
0.2
 40
0.2
 40
0.4
 40
0.4
 40
0.4
 40
0.4
 40
0.6000000000000001
 40
0.6000000000000001
 40
0.6000000000000001
 40
0.6000000000000001
 40
0.8
 40
0.8
 40
0.8
 40
0.8
 40
1.0
 40
1.0
 40
1.0
 40
1.0
 10
-9.923649606299213
 20
-0.062488188976378
 30
0.0
 10
-9.852456692913385
 20
-0.0187125984251969
 30
0.0
 10
-9.824429133858269
 20
0.1261259842519685
 30
0.0
 10
-9.713657480314961
 20
0.1871574803149606
 30
0.0
 10
-9.713657480314961
 20
0.1871574803149606
 30
0.0
 10
-9.568543307086614
 20
0.2640629921259843
 30
0.0
 10
-9.299964566929134
 20
0.4728346456692913
 30
0.0
 10
-9.278295275590551
 20
0.4178503937007874
 30
0.0
 10
-9.278295275590551
 20
0.4178503937007874
 30
0.0
 10
-9.392870078740158
 20
0.1777086614173228
 30
0.0
 10
-9.286893700787402
 20
0.0238307086614173
 30
0.0
 10
-9.291181102362206
 20
-0.1731811023622047
 30
0.0
 10
-9.291181102362206
 20
-0.1731811023622047
 30
0.0
 10
-9.511429133858268
 20
-0.0963228346456693
 30
0.0
 10
-9.628019685039371
 20
-0.1842086614173228
 30
0.0
 10
-9.784708661417323
 20
-0.3708110236220473
 30
0.0
 10
-9.784708661417323
 20
-0.3708110236220473
 30
0.0
 10
-9.784708661417323
 20
-0.3708110236220473
 30
0.0
 10
-9.923649606299213
 20
-0.062488188976378
 30
0.0
 10
-9.923649606299213
 20
-0.062488188976378
 30
0.0
  0
SPLINE
  5
37
330
1F
100
AcDbEntity
  8
Layer 1
 62
   250
370
     5
100
AcDbSpline
210
0.0
220
0.0
230
1.0
 70
    11
 71
     3
 72
    24
 73
    20
 74
     0
 42
0.0000000001
 43
0.0000000001
 40
0.0
 40
0.0
 40
0.0
 40
0.0
 40
0.2
 40
0.2
 40
0.2
 40
0.2
 40
0.4
 40
0.4
 40
0.4
 40
0.4
 40
0.6000000000000001
 40
0.6000000000000001
 40
0.6000000000000001
 40
0.6000000000000001
 40
0.8
 40
0.8
 40
0.8
 40
0.8
 40
1.0
 40
1.0
 40
1.0
 40
1.0
 10
-10.66910236220473
 20
3.370322834645669
 30
0.0
 10
-10.64210236220472
 20
3.45098031496063
 30
0.0
 10
-10.71144094488189
 20
3.580311023622048
 30
0.0
 10
-10.66500787401575
 20
3.700377952755906
 30
0.0
 10
-10.66500787401575
 20
3.700377952755906
 30
0.0
 10
-10.60225196850394
 20
3.855346456692914
 30
0.0
 10
-10.52777165354331
 20
4.19296062992126
 30
0.0
 10
-10.47673228346457
 20
4.165275590551182
 30
0.0
 10
-10.47673228346457
 20
4.165275590551182
 30
0.0
 10
-10.41381496062992
 20
3.905740157480315
 30
0.0
 10
-10.23633464566929
 20
3.858326771653544
 30
0.0
 10
-10.11612598425197
 20
3.70484251968504
 30
0.0
 10
-10.11612598425197
 20
3.70484251968504
 30
0.0
 10
-10.3326968503937
 20
3.617649606299213
 30
0.0
 10
-10.36675196850394
 20
3.473204724409449
 30
0.0
 10
-10.36958661417323
 20
3.226669291338583
 30
0.0
 10
-10.36958661417323
 20
3.226669291338583
 30
0.0
 10
-10.36958661417323
 20
3.226669291338583
 30
0.0
 10
-10.66910236220473
 20
3.370322834645669
 30
0.0
 10
-10.66910236220473
 20
3.370322834645669
 30
0.0
  0
SPLINE
  5
38
330
1F
100
AcDbEntity
  8
Layer 1
 62
   250
370
     5
100
AcDbSpline
210
0.0
220
0.0
230
1.0
 70
    11
 71
     3
 72
    32
 73
    28
 74
     0
 42
0.0000000001
 43
0.0000000001
 40
0.0
 40
0.0
 40
0.0
 40
0.0
 40
0.1428571428571429
 40
0.1428571428571429
 40
0.1428571428571429
 40
0.1428571428571429
 40
0.2857142857142857
 40
0.2857142857142857
 40
0.2857142857142857
 40
0.2857142857142857
 40
0.4285714285714286
 40
0.4285714285714286
 40
0.4285714285714286
 40
0.4285714285714286
 40
0.5714285714285714
 40
0.5714285714285714
 40
0.5714285714285714
 40
0.5714285714285714
 40
0.7142857142857142
 40
0.7142857142857142
 40
0.7142857142857142
 40
0.7142857142857142
 40
0.857142857142857
 40
0.857142857142857
 40
0.857142857142857
 40
0.857142857142857
 40
1.0
 40
1.0
 40
1.0
 40
1.0
 10
-10.45355511811024
 20
3.008165354330709
 30
0.0
 10
-10.28138582677165
 20
2.974582677165354
 30
0.0
 10
-10.14178346456693
 20
2.804759842519685
 30
0.0
 10
-10.00270078740158
 20
2.700602362204724
 30
0.0
 10
-10.00270078740158
 20
2.700602362204724
 30
0.0
 10
-9.896917322834646
 20
2.613007874015748
 30
0.0
 10
-9.797629921259842
 20
2.64232283464567
 30
0.0
 10
-9.747248031496063
 20
2.553444881889764
 30
0.0
 10
-9.747248031496063
 20
2.553444881889764
 30
0.0
 10
-9.676287401574804
 20
2.487641732283465
 30
0.0
 10
-9.61568503937008
 20
2.462570866141733
 30
0.0
 10
-9.558846456692914
 20
2.452224409448819
 30
0.0
 10
-9.558846456692914
 20
2.452224409448819
 30
0.0
 10
-9.455185039370079
 20
2.238527559055118
 30
0.0
 10
-9.389476377952756
 20
2.046007874015748
 30
0.0
 10
-9.459287401574803
 20
1.929228346456693
 30
0.0
 10
-9.459287401574803
 20
1.929228346456693
 30
0.0
 10
-9.650468503937008
 20
2.098834645669292
 30
0.0
 10
-9.765984251968504
 20
2.07288188976378
 30
0.0
 10
-9.919346456692914
 20
2.144724409448819
 30
0.0
 10
-9.919346456692914
 20
2.144724409448819
 30
0.0
 10
-10.25042913385827
 20
2.250996062992126
 30
0.0
 10
-10.32732677165354
 20
2.497283464566929
 30
0.0
 10
-10.34836220472441
 20
2.68961811023622
 30
0.0
 10
-10.34836220472441
 20
2.68961811023622
 30
0.0
 10
-10.36073622047244
 20
2.80288188976378
 30
0.0
 10
-10.34938976377953
 20
2.862267716535433
 30
0.0
 10
-10.45355511811024
 20
3.008165354330709
 30
0.0
  0
SPLINE
  5
39
330
1F
100
AcDbEntity
  8
Layer 1
 62
   250
370
     5
100
AcDbSpline
210
0.0
220
0.0
230
1.0
 70
    11
 71
     3
 72
    20
 73
    16
 74
     0
 42
0.0000000001
 43
0.0000000001
 40
0.0
 40
0.0
 40
0.0
 40
0.0
 40
0.25
 40
0.25
 40
0.25
 40
0.25
 40
0.5
 40
0.5
 40
0.5
 40
0.5
 40
0.75
 40
0.75
 40
0.75
 40
0.75
 40
1.0
 40
1.0
 40
1.0
 40
1.0
 10
-9.820716535433071
 20
1.86098031496063
 30
0.0
 10
-9.820716535433071
 20
1.86098031496063
 30
0.0
 10
-9.404783464566929
 20
1.668543307086614
 30
0.0
 10
-9.404783464566929
 20
1.668543307086614
 30
0.0
 10
-9.404783464566929
 20
1.668543307086614
 30
0.0
 10
-9.404783464566929
 20
1.668543307086614
 30
0.0
 10
-9.588653543307087
 20
1.230374015748032
 30
0.0
 10
-9.588653543307087
 20
1.230374015748032
 30
0.0
 10
-9.588653543307087
 20
1.230374015748032
 30
0.0
 10
-9.807283464566929
 20
1.185472440944882
 30
0.0
 10
-10.00824409448819
 20
1.206
 30
0.0
 10
-10.19060236220473
 20
1.295346456692913
 30
0.0
 10
-10.19060236220473
 20
1.295346456692913
 30
0.0
 10
-10.33279527559055
 20
1.431456692913386
 30
0.0
 10
-10.00605905511811
 20
1.726118110236221
 30
0.0
 10
-9.820716535433071
 20
1.86098031496063
 30
0.0
  0
SPLINE
  5
3A
330
1F
100
AcDbEntity
  8
Layer 1
 62
   250
370
     5
100
AcDbSpline
210
0.0
220
0.0
230
1.0
 70
    11
 71
     3
 72
    32
 73
    28
 74
     0
 42
0.0000000001
 43
0.0000000001
 40
0.0
 40
0.0
 40
0.0
 40
0.0
 40
0.1428571428571429
 40
0.1428571428571429
 40
0.1428571428571429
 40
0.1428571428571429
 40
0.2857142857142857
 40
0.2857142857142857
 40
0.2857142857142857
 40
0.2857142857142857
 40
0.4285714285714286
 40
0.4285714285714286
 40
0.4285714285714286
 40
0.4285714285714286
 40
0.5714285714285714
 40
0.5714285714285714
 40
0.5714285714285714
 40
0.5714285714285714
 40
0.7142857142857142
 40
0.7142857142857142
 40
0.7142857142857142
 40
0.7142857142857142
 40
0.857142857142857
 40
0.857142857142857
 40
0.857142857142857
 40
0.857142857142857
 40
1.0
 40
1.0
 40
1.0
 40
1.0
 10
-9.80855905511811
 20
0.5884212598425197
 30
0.0
 10
-9.80855905511811
 20
0.5884212598425197
 30
0.0
 10
-9.584645669291339
 20
1.094031496062992
 30
0.0
 10
-9.584645669291339
 20
1.094031496062992
 30
0.0
 10
-9.584645669291339
 20
1.094031496062992
 30
0.0
 10
-9.470818897637797
 20
1.142909448818898
 30
0.0
 10
-9.377334645669292
 20
1.129106299212598
 30
0.0
 10
-9.30618503937008
 20
1.046429133858268
 30
0.0
 10
-9.30618503937008
 20
1.046429133858268
 30
0.0
 10
-9.30618503937008
 20
1.046429133858268
 30
0.0
 10
-9.415425196850395
 20
0.675488188976378
 30
0.0
 10
-9.415425196850395
 20
0.675488188976378
 30
0.0
 10
-9.415425196850395
 20
0.675488188976378
 30
0.0
 10
-9.415425196850395
 20
0.675488188976378
 30
0.0
 10
-9.463437007874017
 20
0.7296023622047244
 30
0.0
 10
-9.463437007874017
 20
0.7296023622047244
 30
0.0
 10
-9.463437007874017
 20
0.7296023622047244
 30
0.0
 10
-9.463437007874017
 20
0.7296023622047244
 30
0.0
 10
-9.434716535433072
 20
0.8008740157480315
 30
0.0
 10
-9.434716535433072
 20
0.8008740157480315
 30
0.0
 10
-9.434716535433072
 20
0.8008740157480315
 30
0.0
 10
-9.434716535433072
 20
0.8008740157480315
 30
0.0
 10
-9.480649606299213
 20
0.8259015748031496
 30
0.0
 10
-9.480649606299213
 20
0.8259015748031496
 30
0.0
 10
-9.480649606299213
 20
0.8259015748031496
 30
0.0
 10
-9.657311023622048
 20
0.549724409448819
 30
0.0
 10
-9.681665354330709
 20
0.7053976377952756
 30
0.0
 10
-9.80855905511811
 20
0.5884212598425197
 30
0.0
  0
SPLINE
  5
3B
330
1F
100
AcDbEntity
  8
Layer 1
 62
   250
370
     5
100
AcDbSpline
210
0.0
220
0.0
230
1.0
 70
    11
 71
     3
 72
    20
 73
    16
 74
     0
 42
0.0000000001
 43
0.0000000001
 40
0.0
 40
0.0
 40
0.0
 40
0.0
 40
0.25
 40
0.25
 40
0.25
 40
0.25
 40
0.5
 40
0.5
 40
0.5
 40
0.5
 40
0.75
 40
0.75
 40
0.75
 40
0.75
 40
1.0
 40
1.0
 40
1.0
 40
1.0
 10
-9.341389763779528
 20
-0.3818070866141732
 30
0.0
 10
-9.341389763779528
 20
-0.3818070866141732
 30
0.0
 10
-9.213972440944882
 20
-0.464984251968504
 30
0.0
 10
-9.213972440944882
 20
-0.464984251968504
 30
0.0
 10
-9.213972440944882
 20
-0.464984251968504
 30
0.0
 10
-9.280791338582677
 20
-0.7778188976377953
 30
0.0
 10
-9.431531496062993
 20
-0.9427559055118111
 30
0.0
 10
-9.529531496062992
 20
-1.270397637795276
 30
0.0
 10
-9.529531496062992
 20
-1.270397637795276
 30
0.0
 10
-9.744783464566929
 20
-0.9649488188976378
 30
0.0
 10
-9.629196850393701
 20
-0.8419055118110237
 30
0.0
 10
-9.750944881889764
 20
-0.5685157480314961
 30
0.0
 10
-9.750944881889764
 20
-0.5685157480314961
 30
0.0
 10
-9.614421259842519
 20
-0.5062795275590551
 30
0.0
 10
-9.543834645669291
 20
-0.2862913385826772
 30
0.0
 10
-9.341389763779528
 20
-0.3818070866141732
 30
0.0
  0
SPLINE
  5
3C
330
1F
100
AcDbEntity
  8
Layer 1
 62
   250
370
     5
100
AcDbSpline
210
0.0
220
0.0
230
1.0
 70
    11
 71
     3
 72
    28
 73
    24
 74
     0
 42
0.0000000001
 43
0.0000000001
 40
0.0
 40
0.0
 40
0.0
 40
0.0
 40
0.1666666666666667
 40
0.1666666666666667
 40
0.1666666666666667
 40
0.1666666666666667
 40
0.3333333333333333
 40
0.3333333333333333
 40
0.3333333333333333
 40
0.3333333333333333
 40
0.5
 40
0.5
 40
0.5
 40
0.5
 40
0.6666666666666666
 40
0.6666666666666666
 40
0.6666666666666666
 40
0.6666666666666666
 40
0.8333333333333333
 40
0.8333333333333333
 40
0.8333333333333333
 40
0.8333333333333333
 40
1.0
 40
1.0
 40
1.0
 40
1.0
 10
-9.062944881889765
 20
-0.2579370078740157
 30
0.0
 10
-9.097669291338583
 20
-0.0332834645669291
 30
0.0
 10
-9.174354330708662
 20
-0.1562322834645669
 30
0.0
 10
-9.109590551181103
 20
0.449251968503937
 30
0.0
 10
-9.109590551181103
 20
0.449251968503937
 30
0.0
 10
-8.911956692913385
 20
0.4704015748031497
 30
0.0
 10
-8.885933070866143
 20
0.5116574803149606
 30
0.0
 10
-8.772023622047245
 20
0.5644527559055118
 30
0.0
 10
-8.772023622047245
 20
0.5644527559055118
 30
0.0
 10
-8.620169291338582
 20
0.6303346456692913
 30
0.0
 10
-8.446724409448819
 20
0.6481653543307087
 30
0.0
 10
-8.31644094488189
 20
0.7621338582677165
 30
0.0
 10
-8.31644094488189
 20
0.7621338582677165
 30
0.0
 10
-8.179330708661418
 20
0.8592165354330709
 30
0.0
 10
-7.976267716535434
 20
1.04503937007874
 30
0.0
 10
-7.905090551181103
 20
1.053374015748032
 30
0.0
 10
-7.905090551181103
 20
1.053374015748032
 30
0.0
 10
-7.879019685039371
 20
0.8901102362204725
 30
0.0
 10
-8.211625984251969
 20
0.6913976377952756
 30
0.0
 10
-8.389661417322834
 20
0.5084173228346457
 30
0.0
 10
-8.389661417322834
 20
0.5084173228346457
 30
0.0
 10
-8.620929133858269
 20
0.2706771653543307
 30
0.0
 10
-8.787574803149607
 20
0.1921535433070866
 30
0.0
 10
-9.062944881889765
 20
-0.2579370078740157
 30
0.0
  0
SPLINE
  5
3D
330
1F
100
AcDbEntity
  8
Layer 1
 62
   250
370
     5
100
AcDbSpline
210
0.0
220
0.0
230
1.0
 70
    11
 71
     3
 72
    16
 73
    12
 74
     0
 42
0.0000000001
 43
0.0000000001
 40
0.0
 40
0.0
 40
0.0
 40
0.0
 40
0.3333333333333333
 40
0.3333333333333333
 40
0.3333333333333333
 40
0.3333333333333333
 40
0.6666666666666666
 40
0.6666666666666666
 40
0.6666666666666666
 40
0.6666666666666666
 40
1.0
 40
1.0
 40
1.0
 40
1.0
 10
-9.079720472440945
 20
-0.8100629921259843
 30
0.0
 10
-8.87398031496063
 20
-0.1187952755905512
 30
0.0
 10
-8.53144094488189
 20
0.1627952755905512
 30
0.0
 10
-7.988984251968504
 20
-0.1544094488188977
 30
0.0
 10
-7.988984251968504
 20
-0.1544094488188977
 30
0.0
 10
-8.075090551181102
 20
-0.3736456692913386
 30
0.0
 10
-8.244622047244095
 20
-0.5391102362204725
 30
0.0
 10
-8.53607874015748
 20
-0.6260354330708662
 30
0.0
 10
-8.53607874015748
 20
-0.6260354330708662
 30
0.0
 10
-8.731043307086615
 20
-0.6672519685039371
 30
0.0
 10
-8.917334645669291
 20
-0.7211614173228347
 30
0.0
 10
-9.079720472440945
 20
-0.8100629921259843
 30
0.0
  0
SPLINE
  5
3E
330
1F
100
AcDbEntity
  8
Layer 1
 62
   250
370
     5
100
AcDbSpline
210
0.0
220
0.0
230
1.0
 70
    11
 71
     3
 72
    20
 73
    16
 74
     0
 42
0.0000000001
 43
0.0000000001
 40
0.0
 40
0.0
 40
0.0
 40
0.0
 40
0.25
 40
0.25
 40
0.25
 40
0.25
 40
0.5
 40
0.5
 40
0.5
 40
0.5
 40
0.75
 40
0.75
 40
0.75
 40
0.75
 40
1.0
 40
1.0
 40
1.0
 40
1.0
 10
-9.381771653543307
 20
-1.534736220472441
 30
0.0
 10
-9.298917322834646
 20
-1.043661417322835
 30
0.0
 10
-8.9208031496063
 20
-0.8575511811023623
 30
0.0
 10
-8.408496062992127
 20
-0.8100629921259843
 30
0.0
 10
-8.408496062992127
 20
-0.8100629921259843
 30
0.0
 10
-8.512629921259842
 20
-0.9365314960629921
 30
0.0
 10
-8.59612598425197
 20
-1.083413385826772
 30
0.0
 10
-8.674133858267718
 20
-1.242157480314961
 30
0.0
 10
-8.674133858267718
 20
-1.242157480314961
 30
0.0
 10
-8.765133858267717
 20
-1.42190157480315
 30
0.0
 10
-8.877330708661418
 20
-1.492267716535433
 30
0.0
 10
-9.112255905511811
 20
-1.473610236220473
 30
0.0
 10
-9.112255905511811
 20
-1.473610236220473
 30
0.0
 10
-9.204228346456693
 20
-1.47440157480315
 30
0.0
 10
-9.294669291338582
 20
-1.489200787401575
 30
0.0
 10
-9.381771653543307
 20
-1.534736220472441
 30
0.0
  0
SPLINE
  5
3F
330
1F
100
AcDbEntity
  8
Layer 1
 62
   250
370
     5
100
AcDbSpline
210
0.0
220
0.0
230
1.0
 70
    11
 71
     3
 72
    24
 73
    20
 74
     0
 42
0.0000000001
 43
0.0000000001
 40
0.0
 40
0.0
 40
0.0
 40
0.0
 40
0.2
 40
0.2
 40
0.2
 40
0.2
 40
0.4
 40
0.4
 40
0.4
 40
0.4
 40
0.6000000000000001
 40
0.6000000000000001
 40
0.6000000000000001
 40
0.6000000000000001
 40
0.8
 40
0.8
 40
0.8
 40
0.8
 40
1.0
 40
1.0
 40
1.0
 40
1.0
 10
-8.403086614173228
 20
-1.208145669291339
 30
0.0
 10
-8.389452755905513
 20
-1.171574803149606
 30
0.0
 10
-8.373771653543308
 20
-1.099771653543307
 30
0.0
 10
-8.322507874015749
 20
-1.033429133858268
 30
0.0
 10
-8.322507874015749
 20
-1.033429133858268
 30
0.0
 10
-8.180830708661418
 20
-0.8500708661417323
 30
0.0
 10
-7.968452755905513
 20
-0.3719370078740157
 30
0.0
 10
-7.938657480314961
 20
-0.3614606299212599
 30
0.0
 10
-7.938657480314961
 20
-0.3614606299212599
 30
0.0
 10
-7.929488188976379
 20
-0.548251968503937
 30
0.0
 10
-7.865188976377953
 20
-0.7128779527559055
 30
0.0
 10
-7.828464566929134
 20
-0.8885748031496064
 30
0.0
 10
-7.828464566929134
 20
-0.8885748031496064
 30
0.0
 10
-7.694192913385827
 20
-1.447015748031496
 30
0.0
 10
-8.30061811023622
 20
-1.709259842519685
 30
0.0
 10
-8.660200787401575
 20
-1.569248031496063
 30
0.0
 10
-8.660200787401575
 20
-1.569248031496063
 30
0.0
 10
-8.445047244094489
 20
-1.355212598425197
 30
0.0
 10
-8.482858267716535
 20
-1.353137795275591
 30
0.0
 10
-8.403086614173228
 20
-1.208145669291339
 30
0.0
  0
SPLINE
  5
40
330
1F
100
AcDbEntity
  8
Layer 1
 62
   250
370
     5
100
AcDbSpline
210
0.0
220
0.0
230
1.0
 70
    11
 71
     3
 72
    24
 73
    20
 74
     0
 42
0.0000000001
 43
0.0000000001
 40
0.0
 40
0.0
 40
0.0
 40
0.0
 40
0.2
 40
0.2
 40
0.2
 40
0.2
 40
0.4
 40
0.4
 40
0.4
 40
0.4
 40
0.6000000000000001
 40
0.6000000000000001
 40
0.6000000000000001
 40
0.6000000000000001
 40
0.8
 40
0.8
 40
0.8
 40
0.8
 40
1.0
 40
1.0
 40
1.0
 40
1.0
 10
-8.492409448818899
 20
-1.759035433070866
 30
0.0
 10
-8.358566929133859
 20
-1.766645669291339
 30
0.0
 10
-8.228570866141732
 20
-1.756799212598425
 30
0.0
 10
-8.10264566929134
 20
-1.728444881889764
 30
0.0
 10
-8.10264566929134
 20
-1.728444881889764
 30
0.0
 10
-8.030196850393701
 20
-1.711822834645669
 30
0.0
 10
-7.963094488188976
 20
-1.687153543307087
 30
0.0
 10
-7.921255905511812
 20
-1.622047244094488
 30
0.0
 10
-7.921255905511812
 20
-1.622047244094488
 30
0.0
 10
-7.896102362204725
 20
-1.582905511811024
 30
0.0
 10
-7.873877952755906
 20
-1.536885826771654
 30
0.0
 10
-7.835877952755906
 20
-1.561062992125984
 30
0.0
 10
-7.835877952755906
 20
-1.561062992125984
 30
0.0
 10
-7.90044094488189
 20
-1.73551968503937
 30
0.0
 10
-7.96982283464567
 20
-1.908350393700788
 30
0.0
 10
-8.072901574803151
 20
-2.069622047244095
 30
0.0
 10
-8.072901574803151
 20
-2.069622047244095
 30
0.0
 10
-8.227311023622047
 20
-2.002712598425197
 30
0.0
 10
-8.370740157480315
 20
-1.908165354330709
 30
0.0
 10
-8.492409448818899
 20
-1.759035433070866
 30
0.0
  0
SPLINE
  5
41
330
1F
100
AcDbEntity
  8
Layer 1
 62
   250
370
     5
100
AcDbSpline
210
0.0
220
0.0
230
1.0
 70
    11
 71
     3
 72
    20
 73
    16
 74
     0
 42
0.0000000001
 43
0.0000000001
 40
0.0
 40
0.0
 40
0.0
 40
0.0
 40
0.25
 40
0.25
 40
0.25
 40
0.25
 40
0.5
 40
0.5
 40
0.5
 40
0.5
 40
0.75
 40
0.75
 40
0.75
 40
0.75
 40
1.0
 40
1.0
 40
1.0
 40
1.0
 10
-9.520074803149607
 20
-1.878677165354331
 30
0.0
 10
-9.277082677165355
 20
-1.538574803149606
 30
0.0
 10
-8.651452755905511
 20
-1.643102362204725
 30
0.0
 10
-8.576318897637796
 20
-1.931590551181103
 30
0.0
 10
-8.576318897637796
 20
-1.931590551181103
 30
0.0
 10
-8.891043307086614
 20
-1.995870078740158
 30
0.0
 10
-9.135338582677166
 20
-2.142582677165354
 30
0.0
 10
-9.331437007874015
 20
-2.345685039370079
 30
0.0
 10
-9.331437007874015
 20
-2.345685039370079
 30
0.0
 10
-9.442846456692914
 20
-2.276645669291339
 30
0.0
 10
-9.578877952755907
 20
-2.237531496062992
 30
0.0
 10
-9.750944881889764
 20
-2.242161417322835
 30
0.0
 10
-9.750944881889764
 20
-2.242161417322835
 30
0.0
 10
-9.683566929133859
 20
-2.093893700787401
 30
0.0
 10
-9.594629921259843
 20
-2.014625984251969
 30
0.0
 10
-9.520074803149607
 20
-1.878677165354331
 30
0.0
  0
SPLINE
  5
42
330
1F
100
AcDbEntity
  8
Layer 1
 62
   250
370
     5
100
AcDbSpline
210
0.0
220
0.0
230
1.0
 70
    11
 71
     3
 72
    20
 73
    16
 74
     0
 42
0.0000000001
 43
0.0000000001
 40
0.0
 40
0.0
 40
0.0
 40
0.0
 40
0.25
 40
0.25
 40
0.25
 40
0.25
 40
0.5
 40
0.5
 40
0.5
 40
0.5
 40
0.75
 40
0.75
 40
0.75
 40
0.75
 40
1.0
 40
1.0
 40
1.0
 40
1.0
 10
-9.096503937007874
 20
-2.431944881889764
 30
0.0
 10
-9.053799212598426
 20
-2.315929133858268
 30
0.0
 10
-8.826043307086614
 20
-2.209464566929134
 30
0.0
 10
-8.59196062992126
 20
-2.154645669291339
 30
0.0
 10
-8.59196062992126
 20
-2.154645669291339
 30
0.0
 10
-8.451803149606299
 20
-2.122598425196851
 30
0.0
 10
-8.302547244094489
 20
-2.138641732283465
 30
0.0
 10
-8.14001968503937
 20
-2.22490157480315
 30
0.0
 10
-8.14001968503937
 20
-2.22490157480315
 30
0.0
 10
-8.235003937007875
 20
-2.477283464566929
 30
0.0
 10
-8.34048031496063
 20
-2.567692913385827
 30
0.0
 10
-8.60208661417323
 20
-2.496736220472441
 30
0.0
 10
-8.60208661417323
 20
-2.496736220472441
 30
0.0
 10
-8.764712598425197
 20
-2.467625984251969
 30
0.0
 10
-8.929311023622047
 20
-2.445299212598425
 30
0.0
 10
-9.096503937007874
 20
-2.431944881889764
 30
0.0
  0
SPLINE
  5
43
330
1F
100
AcDbEntity
  8
Layer 1
 62
   250
370
     5
100
AcDbSpline
210
0.0
220
0.0
230
1.0
 70
    11
 71
     3
 72
    16
 73
    12
 74
     0
 42
0.0000000001
 43
0.0000000001
 40
0.0
 40
0.0
 40
0.0
 40
0.0
 40
0.3333333333333333
 40
0.3333333333333333
 40
0.3333333333333333
 40
0.3333333333333333
 40
0.6666666666666666
 40
0.6666666666666666
 40
0.6666666666666666
 40
0.6666666666666666
 40
1.0
 40
1.0
 40
1.0
 40
1.0
 10
-9.230751968503938
 20
-2.552736220472441
 30
0.0
 10
-9.025393700787403
 20
-2.62092125984252
 30
0.0
 10
-8.441255905511811
 20
-2.812385826771654
 30
0.0
 10
-8.14001968503937
 20
-2.483720472440945
 30
0.0
 10
-8.14001968503937
 20
-2.483720472440945
 30
0.0
 10
-8.214413385826772
 20
-2.868909448818898
 30
0.0
 10
-8.569448818897639
 20
-3.147492125984252
 30
0.0
 10
-8.883204724409449
 20
-3.009133858267717
 30
0.0
 10
-8.883204724409449
 20
-3.009133858267717
 30
0.0
 10
-9.052854330708662
 20
-2.896944881889764
 30
0.0
 10
-9.175874015748033
 20
-2.750145669291339
 30
0.0
 10
-9.230751968503938
 20
-2.552736220472441
 30
0.0
  0
SPLINE
  5
44
330
1F
100
AcDbEntity
  8
Layer 1
 62
   250
370
     5
100
AcDbSpline
210
0.0
220
0.0
230
1.0
 70
    11
 71
     3
 72
    20
 73
    16
 74
     0
 42
0.0000000001
 43
0.0000000001
 40
0.0
 40
0.0
 40
0.0
 40
0.0
 40
0.25
 40
0.25
 40
0.25
 40
0.25
 40
0.5
 40
0.5
 40
0.5
 40
0.5
 40
0.75
 40
0.75
 40
0.75
 40
0.75
 40
1.0
 40
1.0
 40
1.0
 40
1.0
 10
-10.22079921259843
 20
-2.673503937007874
 30
0.0
 10
-10.08495275590551
 20
-2.655043307086614
 30
0.0
 10
-10.07888976377953
 20
-2.579881889763779
 30
0.0
 10
-10.00792125984252
 20
-2.533055118110236
 30
0.0
 10
-10.00792125984252
 20
-2.533055118110236
 30
0.0
 10
-9.775169291338584
 20
-2.352043307086615
 30
0.0
 10
-9.501669291338583
 20
-2.456070866141733
 30
0.0
 10
-9.357566929133858
 20
-2.748673228346457
 30
0.0
 10
-9.357566929133858
 20
-2.748673228346457
 30
0.0
 10
-9.226181102362205
 20
-2.938389763779528
 30
0.0
 10
-9.044578740157482
 20
-3.07446062992126
 30
0.0
 10
-8.844795275590551
 20
-3.191137795275591
 30
0.0
 10
-8.844795275590551
 20
-3.191137795275591
 30
0.0
 10
-9.327850393700787
 20
-3.378484251968504
 30
0.0
 10
-10.11485039370079
 20
-2.975929133858268
 30
0.0
 10
-10.22079921259843
 20
-2.673503937007874
 30
0.0
  0
SPLINE
  5
45
330
1F
100
AcDbEntity
  8
Layer 1
 62
   250
370
     5
100
AcDbSpline
210
0.0
220
0.0
230
1.0
 70
    11
 71
     3
 72
    32
 73
    28
 74
     0
 42
0.0000000001
 43
0.0000000001
 40
0.0
 40
0.0
 40
0.0
 40
0.0
 40
0.1428571428571429
 40
0.1428571428571429
 40
0.1428571428571429
 40
0.1428571428571429
 40
0.2857142857142857
 40
0.2857142857142857
 40
0.2857142857142857
 40
0.2857142857142857
 40
0.4285714285714286
 40
0.4285714285714286
 40
0.4285714285714286
 40
0.4285714285714286
 40
0.5714285714285714
 40
0.5714285714285714
 40
0.5714285714285714
 40
0.5714285714285714
 40
0.7142857142857142
 40
0.7142857142857142
 40
0.7142857142857142
 40
0.7142857142857142
 40
0.857142857142857
 40
0.857142857142857
 40
0.857142857142857
 40
0.857142857142857
 40
1.0
 40
1.0
 40
1.0
 40
1.0
 10
-11.00947244094488
 20
-2.759775590551181
 30
0.0
 10
-11.00947244094488
 20
-2.759775590551181
 30
0.0
 10
-10.52133858267717
 20
-2.521598425196851
 30
0.0
 10
-10.52133858267717
 20
-2.521598425196851
 30
0.0
 10
-10.52133858267717
 20
-2.521598425196851
 30
0.0
 10
-10.40366535433071
 20
-2.559649606299213
 30
0.0
 10
-10.34084251968504
 20
-2.632165354330709
 30
0.0
 10
-10.33827165354331
 20
-2.742527559055118
 30
0.0
 10
-10.33827165354331
 20
-2.742527559055118
 30
0.0
 10
-10.33827165354331
 20
-2.742527559055118
 30
0.0
 10
-10.6543188976378
 20
-2.953736220472441
 30
0.0
 10
-10.6543188976378
 20
-2.953736220472441
 30
0.0
 10
-10.6543188976378
 20
-2.953736220472441
 30
0.0
 10
-10.6543188976378
 20
-2.953736220472441
 30
0.0
 10
-10.6570905511811
 20
-2.880562992125984
 30
0.0
 10
-10.6570905511811
 20
-2.880562992125984
 30
0.0
 10
-10.6570905511811
 20
-2.880562992125984
 30
0.0
 10
-10.6570905511811
 20
-2.880562992125984
 30
0.0
 10
-10.59046062992126
 20
-2.845114173228347
 30
0.0
 10
-10.59046062992126
 20
-2.845114173228347
 30
0.0
 10
-10.59046062992126
 20
-2.845114173228347
 30
0.0
 10
-10.59046062992126
 20
-2.845114173228347
 30
0.0
 10
-10.60988188976378
 20
-2.795515748031496
 30
0.0
 10
-10.60988188976378
 20
-2.795515748031496
 30
0.0
 10
-10.60988188976378
 20
-2.795515748031496
 30
0.0
 10
-10.91808267716536
 20
-2.889602362204724
 30
0.0
 10
-10.83912598425197
 20
-2.75444094488189
 30
0.0
 10
-11.00947244094488
 20
-2.759775590551181
 30
0.0
  0
SPLINE
  5
46
330
1F
100
AcDbEntity
  8
Layer 1
 62
   250
370
     5
100
AcDbSpline
210
0.0
220
0.0
230
1.0
 70
    11
 71
     3
 72
    20
 73
    16
 74
     0
 42
0.0000000001
 43
0.0000000001
 40
0.0
 40
0.0
 40
0.0
 40
0.0
 40
0.25
 40
0.25
 40
0.25
 40
0.25
 40
0.5
 40
0.5
 40
0.5
 40
0.5
 40
0.75
 40
0.75
 40
0.75
 40
0.75
 40
1.0
 40
1.0
 40
1.0
 40
1.0
 10
-10.36743307086614
 20
4.301090551181103
 30
0.0
 10
-10.26964566929134
 20
4.40546062992126
 30
0.0
 10
-10.24418503937008
 20
4.46034251968504
 30
0.0
 10
-10.21839763779528
 20
4.524775590551181
 30
0.0
 10
-10.21839763779528
 20
4.524775590551181
 30
0.0
 10
-10.21839763779528
 20
4.524775590551181
 30
0.0
 10
-9.891129921259843
 20
4.524775590551181
 30
0.0
 10
-9.891129921259843
 20
4.524775590551181
 30
0.0
 10
-9.891129921259843
 20
4.524775590551181
 30
0.0
 10
-9.917295275590552
 20
4.335732283464568
 30
0.0
 10
-9.936279527559055
 20
4.142874015748031
 30
0.0
 10
-9.888492125984252
 20
3.791295275590551
 30
0.0
 10
-9.888492125984252
 20
3.791295275590551
 30
0.0
 10
-10.05584645669291
 20
3.940031496062992
 30
0.0
 10
-10.03741338582677
 20
3.795224409448819
 30
0.0
 10
-10.36743307086614
 20
4.301090551181103
 30
0.0
  0
SPLINE
  5
47
330
1F
100
AcDbEntity
  8
Layer 1
 62
   250
370
     5
100
AcDbSpline
210
0.0
220
0.0
230
1.0
 70
    11
 71
     3
 72
    20
 73
    16
 74
     0
 42
0.0000000001
 43
0.0000000001
 40
0.0
 40
0.0
 40
0.0
 40
0.0
 40
0.25
 40
0.25
 40
0.25
 40
0.25
 40
0.5
 40
0.5
 40
0.5
 40
0.5
 40
0.75
 40
0.75
 40
0.75
 40
0.75
 40
1.0
 40
1.0
 40
1.0
 40
1.0
 10
-9.555236220472441
 20
3.358015748031496
 30
0.0
 10
-9.797437007874017
 20
3.941531496062992
 30
0.0
 10
-9.761311023622048
 20
4.353602362204724
 30
0.0
 10
-9.334106299212598
 20
4.524791338582677
 30
0.0
 10
-9.334106299212598
 20
4.524791338582677
 30
0.0
 10
-9.334106299212598
 20
4.524791338582677
 30
0.0
 10
-9.116196850393701
 20
4.524803149606299
 30
0.0
 10
-9.116196850393701
 20
4.524803149606299
 30
0.0
 10
-9.116196850393701
 20
4.524803149606299
 30
0.0
 10
-9.066062992125985
 20
4.316889763779527
 30
0.0
 10
-9.100822834645669
 20
4.096633858267717
 30
0.0
 10
-9.254944881889765
 20
3.859023622047244
 30
0.0
 10
-9.254944881889765
 20
3.859023622047244
 30
0.0
 10
-9.378149606299212
 20
3.698279527559055
 30
0.0
 10
-9.486811023622048
 20
3.533598425196851
 30
0.0
 10
-9.555236220472441
 20
3.358015748031496
 30
0.0
  0
SPLINE
  5
48
330
1F
100
AcDbEntity
  8
Layer 1
 62
   250
370
     5
100
AcDbSpline
210
0.0
220
0.0
230
1.0
 70
    11
 71
     3
 72
    20
 73
    16
 74
     0
 42
0.0000000001
 43
0.0000000001
 40
0.0
 40
0.0
 40
0.0
 40
0.0
 40
0.25
 40
0.25
 40
0.25
 40
0.25
 40
0.5
 40
0.5
 40
0.5
 40
0.5
 40
0.75
 40
0.75
 40
0.75
 40
0.75
 40
1.0
 40
1.0
 40
1.0
 40
1.0
 10
-9.331933070866143
 20
2.603775590551181
 30
0.0
 10
-9.576385826771654
 20
3.034157480314961
 30
0.0
 10
-9.403968503937008
 20
3.427031496062992
 30
0.0
 10
-9.042023622047244
 20
3.802846456692913
 30
0.0
 10
-9.042023622047244
 20
3.802846456692913
 30
0.0
 10
-9.042354330708662
 20
3.637133858267717
 30
0.0
 10
-9.014125984251969
 20
3.469507874015748
 30
0.0
 10
-8.974271653543308
 20
3.296429133858268
 30
0.0
 10
-8.974271653543308
 20
3.296429133858268
 30
0.0
 10
-8.931177165354331
 20
3.098712598425197
 30
0.0
 10
-8.972854330708662
 20
2.970562992125984
 30
0.0
 10
-9.164181102362205
 20
2.829122047244095
 30
0.0
 10
-9.164181102362205
 20
2.829122047244095
 30
0.0
 10
-9.233992125984253
 20
2.767543307086614
 30
0.0
 10
-9.293874015748031
 20
2.696307086614173
 30
0.0
 10
-9.331933070866143
 20
2.603775590551181
 30
0.0
  0
SPLINE
  5
49
330
1F
100
AcDbEntity
  8
Layer 1
 62
   250
370
     5
100
AcDbSpline
210
0.0
220
0.0
230
1.0
 70
    11
 71
     3
 72
    24
 73
    20
 74
     0
 42
0.0000000001
 43
0.0000000001
 40
0.0
 40
0.0
 40
0.0
 40
0.0
 40
0.2
 40
0.2
 40
0.2
 40
0.2
 40
0.4
 40
0.4
 40
0.4
 40
0.4
 40
0.6000000000000001
 40
0.6000000000000001
 40
0.6000000000000001
 40
0.6000000000000001
 40
0.8
 40
0.8
 40
0.8
 40
0.8
 40
1.0
 40
1.0
 40
1.0
 40
1.0
 10
-8.758598425196851
 20
3.055570866141733
 30
0.0
 10
-8.72824409448819
 20
3.361807086614173
 30
0.0
 10
-8.758468503937008
 20
3.338338582677165
 30
0.0
 10
-8.78834251968504
 20
3.502062992125985
 30
0.0
 10
-8.78834251968504
 20
3.502062992125985
 30
0.0
 10
-8.800874015748033
 20
3.539062992125984
 30
0.0
 10
-8.833870078740159
 20
3.604350393700788
 30
0.0
 10
-8.836259842519686
 20
3.689047244094488
 30
0.0
 10
-8.836259842519686
 20
3.689047244094488
 30
0.0
 10
-8.842866141732284
 20
3.923125984251969
 30
0.0
 10
-8.980200787401575
 20
4.42946062992126
 30
0.0
 10
-8.963980314960629
 20
4.457216535433071
 30
0.0
 10
-8.963980314960629
 20
4.457216535433071
 30
0.0
 10
-8.839889763779528
 20
4.320464566929134
 30
0.0
 10
-8.687531496062993
 20
4.237204724409449
 30
0.0
 10
-8.549314960629921
 20
4.127192913385827
 30
0.0
 10
-8.549314960629921
 20
4.127192913385827
 30
0.0
 10
-8.096610236220473
 20
3.789212598425197
 30
0.0
 10
-8.395889763779527
 20
3.186814960629921
 30
0.0
 10
-8.758598425196851
 20
3.055570866141733
 30
0.0
  0
SPLINE
  5
4A
330
1F
100
AcDbEntity
  8
Layer 1
 62
   250
370
     5
100
AcDbSpline
210
0.0
220
0.0
230
1.0
 70
    11
 71
     3
 72
    20
 73
    16
 74
     0
 42
0.0000000001
 43
0.0000000001
 40
0.0
 40
0.0
 40
0.0
 40
0.0
 40
0.25
 40
0.25
 40
0.25
 40
0.25
 40
0.5
 40
0.5
 40
0.5
 40
0.5
 40
0.75
 40
0.75
 40
0.75
 40
0.75
 40
1.0
 40
1.0
 40
1.0
 40
1.0
 10
-8.339484251968504
 20
2.653220472440945
 30
0.0
 10
-8.252393700787401
 20
2.770594488188976
 30
0.0
 10
-8.128232283464568
 20
2.857236220472441
 30
0.0
 10
-7.949885826771654
 20
2.899011811023622
 30
0.0
 10
-7.949885826771654
 20
2.899011811023622
 30
0.0
 10
-7.864307086614174
 20
2.64307874015748
 30
0.0
 10
-7.888291338582677
 20
2.50405905511811
 30
0.0
 10
-8.132799212598426
 20
2.384956692913386
 30
0.0
 10
-8.132799212598426
 20
2.384956692913386
 30
0.0
 10
-8.275362204724409
 20
2.299413385826772
 30
0.0
 10
-8.415216535433071
 20
2.207409448818898
 30
0.0
 10
-8.551413385826772
 20
2.106814960629921
 30
0.0
 10
-8.551413385826772
 20
2.106814960629921
 30
0.0
 10
-8.591480314960631
 20
2.223818897637795
 30
0.0
 10
-8.484082677165354
 20
2.456177165354331
 30
0.0
 10
-8.339484251968504
 20
2.653220472440945
 30
0.0
  0
SPLINE
  5
4B
330
1F
100
AcDbEntity
  8
Layer 1
 62
   250
370
     5
100
AcDbSpline
210
0.0
220
0.0
230
1.0
 70
    11
 71
     3
 72
    24
 73
    20
 74
     0
 42
0.0000000001
 43
0.0000000001
 40
0.0
 40
0.0
 40
0.0
 40
0.0
 40
0.2
 40
0.2
 40
0.2
 40
0.2
 40
0.4
 40
0.4
 40
0.4
 40
0.4
 40
0.6000000000000001
 40
0.6000000000000001
 40
0.6000000000000001
 40
0.6000000000000001
 40
0.8
 40
0.8
 40
0.8
 40
0.8
 40
1.0
 40
1.0
 40
1.0
 40
1.0
 10
-8.511330708661419
 20
3.021669291338583
 30
0.0
 10
-8.404228346456693
 20
3.104543307086614
 30
0.0
 10
-8.311003937007875
 20
3.198224409448819
 30
0.0
 10
-8.232492125984253
 20
3.303346456692914
 30
0.0
 10
-8.232492125984253
 20
3.303346456692914
 30
0.0
 10
-8.187531496062993
 20
3.364062992125985
 30
0.0
 10
-8.151665354330708
 20
3.427397637795276
 30
0.0
 10
-8.160507874015748
 20
3.504909448818898
 30
0.0
 10
-8.160507874015748
 20
3.504909448818898
 30
0.0
 10
-8.165818897637795
 20
3.551503937007874
 30
0.0
 10
-8.177673228346457
 20
3.60144094488189
 30
0.0
 10
-8.133452755905513
 20
3.608118110236221
 30
0.0
 10
-8.133452755905513
 20
3.608118110236221
 30
0.0
 10
-8.073460629921261
 20
3.43194094488189
 30
0.0
 10
-8.018173228346457
 20
3.25382283464567
 30
0.0
 10
-7.995905511811024
 20
3.062204724409449
 30
0.0
 10
-7.995905511811024
 20
3.062204724409449
 30
0.0
 10
-8.155901574803149
 20
3.011035433070866
 30
0.0
 10
-8.324814960629922
 20
2.988263779527559
 30
0.0
 10
-8.511330708661419
 20
3.021669291338583
 30
0.0
  0
SPLINE
  5
4C
330
1F
100
AcDbEntity
  8
Layer 1
 62
   250
370
     5
100
AcDbSpline
210
0.0
220
0.0
230
1.0
 70
    11
 71
     3
 72
    32
 73
    28
 74
     0
 42
0.0000000001
 43
0.0000000001
 40
0.0
 40
0.0
 40
0.0
 40
0.0
 40
0.1428571428571429
 40
0.1428571428571429
 40
0.1428571428571429
 40
0.1428571428571429
 40
0.2857142857142857
 40
0.2857142857142857
 40
0.2857142857142857
 40
0.2857142857142857
 40
0.4285714285714286
 40
0.4285714285714286
 40
0.4285714285714286
 40
0.4285714285714286
 40
0.5714285714285714
 40
0.5714285714285714
 40
0.5714285714285714
 40
0.5714285714285714
 40
0.7142857142857142
 40
0.7142857142857142
 40
0.7142857142857142
 40
0.7142857142857142
 40
0.857142857142857
 40
0.857142857142857
 40
0.857142857142857
 40
0.857142857142857
 40
1.0
 40
1.0
 40
1.0
 40
1.0
 10
-7.143385826771654
 20
2.306870078740158
 30
0.0
 10
-7.143385826771654
 20
2.306870078740158
 30
0.0
 10
-7.018838582677166
 20
2.672685039370079
 30
0.0
 10
-7.018838582677166
 20
2.672685039370079
 30
0.0
 10
-7.018838582677166
 20
2.672685039370079
 30
0.0
 10
-6.91396062992126
 20
2.696283464566929
 30
0.0
 10
-6.830543307086614
 20
2.650740157480315
 30
0.0
 10
-6.766665354330709
 20
2.542236220472441
 30
0.0
 10
-6.766665354330709
 20
2.542236220472441
 30
0.0
 10
-6.766665354330709
 20
2.542236220472441
 30
0.0
 10
-6.875870078740157
 20
1.998137795275591
 30
0.0
 10
-6.875870078740157
 20
1.998137795275591
 30
0.0
 10
-6.875870078740157
 20
1.998137795275591
 30
0.0
 10
-6.911251968503938
 20
2.169562992125985
 30
0.0
 10
-7.020204724409449
 20
2.058618110236221
 30
0.0
 10
-7.004452755905512
 20
2.388795275590551
 30
0.0
 10
-7.004452755905512
 20
2.388795275590551
 30
0.0
 10
-7.004452755905512
 20
2.388795275590551
 30
0.0
 10
-7.055909448818898
 20
2.396425196850394
 30
0.0
 10
-7.055909448818898
 20
2.396425196850394
 30
0.0
 10
-7.055909448818898
 20
2.396425196850394
 30
0.0
 10
-7.055909448818898
 20
2.396425196850394
 30
0.0
 10
-7.073586614173228
 20
2.32146062992126
 30
0.0
 10
-7.073586614173228
 20
2.32146062992126
 30
0.0
 10
-7.073586614173228
 20
2.32146062992126
 30
0.0
 10
-7.073586614173228
 20
2.32146062992126
 30
0.0
 10
-7.143385826771654
 20
2.306870078740158
 30
0.0
 10
-7.143385826771654
 20
2.306870078740158
 30
0.0
  0
SPLINE
  5
4D
330
1F
100
AcDbEntity
  8
Layer 1
 62
   250
370
     5
100
AcDbSpline
210
0.0
220
0.0
230
1.0
 70
    11
 71
     3
 72
    16
 73
    12
 74
     0
 42
0.0000000001
 43
0.0000000001
 40
0.0
 40
0.0
 40
0.0
 40
0.0
 40
0.3333333333333333
 40
0.3333333333333333
 40
0.3333333333333333
 40
0.3333333333333333
 40
0.6666666666666666
 40
0.6666666666666666
 40
0.6666666666666666
 40
0.6666666666666666
 40
1.0
 40
1.0
 40
1.0
 40
1.0
 10
-8.578358267716537
 20
1.9255
 30
0.0
 10
-8.37859842519685
 20
2.009448818897638
 30
0.0
 10
-7.81196062992126
 20
2.250169291338583
 30
0.0
 10
-7.787657480314961
 20
2.701110236220472
 30
0.0
 10
-7.787657480314961
 20
2.701110236220472
 30
0.0
 10
-7.603090551181102
 20
2.357291338582678
 30
0.0
 10
-7.699917322834646
 20
1.909011811023622
 30
0.0
 10
-8.026535433070867
 20
1.80686220472441
 30
0.0
 10
-8.026535433070867
 20
1.80686220472441
 30
0.0
 10
-8.226570866141733
 20
1.780200787401575
 30
0.0
 10
-8.412649606299214
 20
1.810933070866142
 30
0.0
 10
-8.578358267716537
 20
1.9255
 30
0.0
  0
SPLINE
  5
4E
330
1F
100
AcDbEntity
  8
Layer 1
 62
   250
370
     5
100
AcDbSpline
210
0.0
220
0.0
230
1.0
 70
    11
 71
     3
 72
    32
 73
    28
 74
     0
 42
0.0000000001
 43
0.0000000001
 40
0.0
 40
0.0
 40
0.0
 40
0.0
 40
0.1428571428571429
 40
0.1428571428571429
 40
0.1428571428571429
 40
0.1428571428571429
 40
0.2857142857142857
 40
0.2857142857142857
 40
0.2857142857142857
 40
0.2857142857142857
 40
0.4285714285714286
 40
0.4285714285714286
 40
0.4285714285714286
 40
0.4285714285714286
 40
0.5714285714285714
 40
0.5714285714285714
 40
0.5714285714285714
 40
0.5714285714285714
 40
0.7142857142857142
 40
0.7142857142857142
 40
0.7142857142857142
 40
0.7142857142857142
 40
0.857142857142857
 40
0.857142857142857
 40
0.857142857142857
 40
0.857142857142857
 40
1.0
 40
1.0
 40
1.0
 40
1.0
 10
-6.166645669291339
 20
1.526271653543307
 30
0.0
 10
-6.166645669291339
 20
1.526271653543307
 30
0.0
 10
-6.124035433070866
 20
1.911366141732284
 30
0.0
 10
-6.124035433070866
 20
1.911366141732284
 30
0.0
 10
-6.124035433070866
 20
1.911366141732284
 30
0.0
 10
-6.124035433070866
 20
1.911366141732284
 30
0.0
 10
-6.067370078740158
 20
1.867003937007874
 30
0.0
 10
-6.067370078740158
 20
1.867003937007874
 30
0.0
 10
-6.067370078740158
 20
1.867003937007874
 30
0.0
 10
-6.067370078740158
 20
1.867003937007874
 30
0.0
 10
-6.083157480314961
 20
1.791582677165355
 30
0.0
 10
-6.083157480314961
 20
1.791582677165355
 30
0.0
 10
-6.083157480314961
 20
1.791582677165355
 30
0.0
 10
-6.083157480314961
 20
1.791582677165355
 30
0.0
 10
-6.033594488188976
 20
1.77544094488189
 30
0.0
 10
-6.033594488188976
 20
1.77544094488189
 30
0.0
 10
-6.033594488188976
 20
1.77544094488189
 30
0.0
 10
-5.908086614173229
 20
2.079799212598426
 30
0.0
 10
-5.856909448818898
 20
1.931157480314961
 30
0.0
 10
-5.752539370078741
 20
2.069704724409449
 30
0.0
 10
-5.752539370078741
 20
2.069704724409449
 30
0.0
 10
-5.752539370078741
 20
2.069704724409449
 30
0.0
 10
-5.88440157480315
 20
1.530937007874016
 30
0.0
 10
-5.88440157480315
 20
1.530937007874016
 30
0.0
 10
-5.88440157480315
 20
1.530937007874016
 30
0.0
 10
-5.987803149606299
 20
1.461811023622047
 30
0.0
 10
-6.082196850393701
 20
1.458094488188976
 30
0.0
 10
-6.166645669291339
 20
1.526271653543307
 30
0.0
  0
SPLINE
  5
4F
330
1F
100
AcDbEntity
  8
Layer 1
 62
   250
370
     5
100
AcDbSpline
210
0.0
220
0.0
230
1.0
 70
    11
 71
     3
 72
    20
 73
    16
 74
     0
 42
0.0000000001
 43
0.0000000001
 40
0.0
 40
0.0
 40
0.0
 40
0.0
 40
0.25
 40
0.25
 40
0.25
 40
0.25
 40
0.5
 40
0.5
 40
0.5
 40
0.5
 40
0.75
 40
0.75
 40
0.75
 40
0.75
 40
1.0
 40
1.0
 40
1.0
 40
1.0
 10
-5.856610236220472
 20
1.39755905511811
 30
0.0
 10
-5.649397637795276
 20
1.482133858267717
 30
0.0
 10
-5.448129921259842
 20
1.499110236220473
 30
0.0
 10
-5.253118110236221
 20
1.444913385826772
 30
0.0
 10
-5.253118110236221
 20
1.444913385826772
 30
0.0
 10
-5.089429133858268
 20
1.337326771653543
 30
0.0
 10
-5.359326771653543
 20
0.9870511811023622
 30
0.0
 10
-5.518051181102362
 20
0.8201181102362205
 30
0.0
 10
-5.518051181102362
 20
0.8201181102362205
 30
0.0
 10
-5.518051181102362
 20
0.8201181102362205
 30
0.0
 10
-5.960854330708662
 20
0.9325275590551182
 30
0.0
 10
-5.960854330708662
 20
0.9325275590551182
 30
0.0
 10
-5.960854330708662
 20
0.9325275590551182
 30
0.0
 10
-5.960854330708662
 20
0.9325275590551182
 30
0.0
 10
-5.856610236220472
 20
1.39755905511811
 30
0.0
 10
-5.856610236220472
 20
1.39755905511811
 30
0.0
  0
SPLINE
  5
50
330
1F
100
AcDbEntity
  8
Layer 1
 62
   250
370
     5
100
AcDbSpline
210
0.0
220
0.0
230
1.0
 70
    11
 71
     3
 72
    16
 73
    12
 74
     0
 42
0.0000000001
 43
0.0000000001
 40
0.0
 40
0.0
 40
0.0
 40
0.0
 40
0.3333333333333333
 40
0.3333333333333333
 40
0.3333333333333333
 40
0.3333333333333333
 40
0.6666666666666666
 40
0.6666666666666666
 40
0.6666666666666666
 40
0.6666666666666666
 40
1.0
 40
1.0
 40
1.0
 40
1.0
 10
-5.239070866141733
 20
0.7844370078740158
 30
0.0
 10
-5.060149606299213
 20
0.9911141732283465
 30
0.0
 10
-4.985082677165354
 20
1.207870078740158
 30
0.0
 10
-5.061814960629921
 20
1.439366141732284
 30
0.0
 10
-5.061814960629921
 20
1.439366141732284
 30
0.0
 10
-4.547956692913386
 20
1.194011811023622
 30
0.0
 10
-4.341173228346457
 20
0.7074606299212599
 30
0.0
 10
-4.453657480314961
 20
0.5433582677165355
 30
0.0
 10
-4.453657480314961
 20
0.5433582677165355
 30
0.0
 10
-4.804122047244094
 20
0.8618622047244094
 30
0.0
 10
-5.104393700787401
 20
0.7160393700787402
 30
0.0
 10
-5.239070866141733
 20
0.7844370078740158
 30
0.0
  0
SPLINE
  5
51
330
1F
100
AcDbEntity
  8
Layer 1
 62
   250
370
     5
100
AcDbSpline
210
0.0
220
0.0
230
1.0
 70
    11
 71
     3
 72
    28
 73
    24
 74
     0
 42
0.0000000001
 43
0.0000000001
 40
0.0
 40
0.0
 40
0.0
 40
0.0
 40
0.1666666666666667
 40
0.1666666666666667
 40
0.1666666666666667
 40
0.1666666666666667
 40
0.3333333333333333
 40
0.3333333333333333
 40
0.3333333333333333
 40
0.3333333333333333
 40
0.5
 40
0.5
 40
0.5
 40
0.5
 40
0.6666666666666666
 40
0.6666666666666666
 40
0.6666666666666666
 40
0.6666666666666666
 40
0.8333333333333333
 40
0.8333333333333333
 40
0.8333333333333333
 40
0.8333333333333333
 40
1.0
 40
1.0
 40
1.0
 40
1.0
 10
-2.42203937007874
 20
-0.5581181102362205
 30
0.0
 10
-2.485358267716535
 20
-0.5278543307086614
 30
0.0
 10
-2.616716535433071
 20
-0.291496062992126
 30
0.0
 10
-2.714055118110236
 20
-0.1581968503937008
 30
0.0
 10
-2.714055118110236
 20
-0.1581968503937008
 30
0.0
 10
-2.799933070866142
 20
-0.0114251968503937
 30
0.0
 10
-2.954933070866142
 20
0.0599488188976378
 30
0.0
 10
-3.075377952755906
 20
0.1690275590551181
 30
0.0
 10
-3.075377952755906
 20
0.1690275590551181
 30
0.0
 10
-3.164712598425197
 20
0.2539763779527559
 30
0.0
 10
-3.176248031496063
 20
0.3004173228346457
 30
0.0
 10
-3.352633858267717
 20
0.3825393700787402
 30
0.0
 10
-3.352633858267717
 20
0.3825393700787402
 30
0.0
 10
-3.228543307086614
 20
0.9637952755905512
 30
0.0
 10
-3.194964566929134
 20
0.8256811023622047
 30
0.0
 10
-3.094582677165354
 20
1.022724409448819
 30
0.0
 10
-3.094582677165354
 20
1.022724409448819
 30
0.0
 10
-2.976629921259843
 20
0.518751968503937
 30
0.0
 10
-2.846346456692913
 20
0.3933070866141732
 30
0.0
 10
-2.704657480314961
 20
0.0999212598425197
 30
0.0
 10
-2.704657480314961
 20
0.0999212598425197
 30
0.0
 10
-2.595598425196851
 20
-0.1258700787401575
 30
0.0
 10
-2.348330708661417
 20
-0.4151417322834646
 30
0.0
 10
-2.42203937007874
 20
-0.5581181102362205
 30
0.0
  0
SPLINE
  5
52
330
1F
100
AcDbEntity
  8
Layer 1
 62
   250
370
     5
100
AcDbSpline
210
0.0
220
0.0
230
1.0
 70
    11
 71
     3
 72
    20
 73
    16
 74
     0
 42
0.0000000001
 43
0.0000000001
 40
0.0
 40
0.0
 40
0.0
 40
0.0
 40
0.25
 40
0.25
 40
0.25
 40
0.25
 40
0.5
 40
0.5
 40
0.5
 40
0.5
 40
0.75
 40
0.75
 40
0.75
 40
0.75
 40
1.0
 40
1.0
 40
1.0
 40
1.0
 10
-1.036228346456693
 20
-1.401503937007874
 30
0.0
 10
-1.348389763779528
 20
-1.383913385826772
 30
0.0
 10
-1.949236220472441
 20
-0.7242244094488189
 30
0.0
 10
-1.913279527559055
 20
-0.1946811023622047
 30
0.0
 10
-1.913279527559055
 20
-0.1946811023622047
 30
0.0
 10
-1.747267716535433
 20
-0.3579763779527559
 30
0.0
 10
-1.568393700787402
 20
-0.4978228346456693
 30
0.0
 10
-1.35394094488189
 20
-0.5728031496062992
 30
0.0
 10
-1.35394094488189
 20
-0.5728031496062992
 30
0.0
 10
-1.039992125984252
 20
-0.6307755905511812
 30
0.0
 10
-0.8646062992125985
 20
-0.8703267716535433
 30
0.0
 10
-0.9664527559055118
 20
-1.151523622047244
 30
0.0
 10
-0.9664527559055118
 20
-1.151523622047244
 30
0.0
 10
-0.9897086614173228
 20
-1.234850393700788
 30
0.0
 10
-1.058011811023622
 20
-1.262413385826772
 30
0.0
 10
-1.036228346456693
 20
-1.401503937007874
 30
0.0
  0
SPLINE
  5
53
330
1F
100
AcDbEntity
  8
Layer 1
 62
   250
370
     5
100
AcDbSpline
210
0.0
220
0.0
230
1.0
 70
    11
 71
     3
 72
    20
 73
    16
 74
     0
 42
0.0000000001
 43
0.0000000001
 40
0.0
 40
0.0
 40
0.0
 40
0.0
 40
0.25
 40
0.25
 40
0.25
 40
0.25
 40
0.5
 40
0.5
 40
0.5
 40
0.5
 40
0.75
 40
0.75
 40
0.75
 40
0.75
 40
1.0
 40
1.0
 40
1.0
 40
1.0
 10
-2.307523622047244
 20
-0.4195511811023622
 30
0.0
 10
-2.398507874015748
 20
-0.3857677165354331
 30
0.0
 10
-2.579204724409449
 20
0.1789370078740158
 30
0.0
 10
-2.715043307086615
 20
0.4781850393700788
 30
0.0
 10
-2.715043307086615
 20
0.4781850393700788
 30
0.0
 10
-2.584125984251969
 20
0.3771850393700788
 30
0.0
 10
-2.424515748031496
 20
0.3776220472440945
 30
0.0
 10
-2.245291338582677
 20
0.4474409448818898
 30
0.0
 10
-2.245291338582677
 20
0.4474409448818898
 30
0.0
 10
-2.369669291338583
 20
0.2316456692913386
 30
0.0
 10
-2.425204724409449
 20
0.0381653543307087
 30
0.0
 10
-2.361192913385827
 20
-0.2221299212598425
 30
0.0
 10
-2.361192913385827
 20
-0.2221299212598425
 30
0.0
 10
-2.346472440944882
 20
-0.2819527559055118
 30
0.0
 10
-2.312929133858268
 20
-0.3623543307086614
 30
0.0
 10
-2.307523622047244
 20
-0.4195511811023622
 30
0.0
  0
SPLINE
  5
54
330
1F
100
AcDbEntity
  8
Layer 1
 62
   250
370
     5
100
AcDbSpline
210
0.0
220
0.0
230
1.0
 70
    11
 71
     3
 72
    20
 73
    16
 74
     0
 42
0.0000000001
 43
0.0000000001
 40
0.0
 40
0.0
 40
0.0
 40
0.0
 40
0.25
 40
0.25
 40
0.25
 40
0.25
 40
0.5
 40
0.5
 40
0.5
 40
0.5
 40
0.75
 40
0.75
 40
0.75
 40
0.75
 40
1.0
 40
1.0
 40
1.0
 40
1.0
 10
-0.7325157480314961
 20
-1.542122047244095
 30
0.0
 10
-0.7325157480314961
 20
-1.542122047244095
 30
0.0
 10
-0.6530590551181102
 20
-1.071948818897638
 30
0.0
 10
-0.6530590551181102
 20
-1.071948818897638
 30
0.0
 10
-0.6530590551181102
 20
-1.071948818897638
 30
0.0
 10
-0.6530590551181102
 20
-1.071948818897638
 30
0.0
 10
-0.2025314960629921
 20
-1.145062992125984
 30
0.0
 10
-0.2025314960629921
 20
-1.145062992125984
 30
0.0
 10
-0.2025314960629921
 20
-1.145062992125984
 30
0.0
 10
-0.1192637795275591
 20
-1.362248031496063
 30
0.0
 10
-0.002751968503937
 20
-1.792779527559055
 30
0.0
 10
-0.1942007874015748
 20
-1.826622047244095
 30
0.0
 10
-0.1942007874015748
 20
-1.826622047244095
 30
0.0
 10
-0.3944015748031496
 20
-1.798732283464567
 30
0.0
 10
-0.5734842519685039
 20
-1.702771653543307
 30
0.0
 10
-0.7325157480314961
 20
-1.542122047244095
 30
0.0
  0
SPLINE
  5
55
330
1F
100
AcDbEntity
  8
Layer 1
 62
   250
370
     5
100
AcDbSpline
210
0.0
220
0.0
230
1.0
 70
    11
 71
     3
 72
    24
 73
    20
 74
     0
 42
0.0000000001
 43
0.0000000001
 40
0.0
 40
0.0
 40
0.0
 40
0.0
 40
0.2
 40
0.2
 40
0.2
 40
0.2
 40
0.4
 40
0.4
 40
0.4
 40
0.4
 40
0.6000000000000001
 40
0.6000000000000001
 40
0.6000000000000001
 40
0.6000000000000001
 40
0.8
 40
0.8
 40
0.8
 40
0.8
 40
1.0
 40
1.0
 40
1.0
 40
1.0
 10
-3.831763779527559
 20
0.8164251968503937
 30
0.0
 10
-3.915653543307087
 20
0.9080078740157481
 30
0.0
 10
-3.897598425196851
 20
1.051007874015748
 30
0.0
 10
-3.950137795275591
 20
1.114090551181102
 30
0.0
 10
-3.950137795275591
 20
1.114090551181102
 30
0.0
 10
-3.950137795275591
 20
1.114090551181102
 30
0.0
 10
-3.72792125984252
 20
1.355641732283465
 30
0.0
 10
-3.72792125984252
 20
1.355641732283465
 30
0.0
 10
-3.72792125984252
 20
1.355641732283465
 30
0.0
 10
-3.639673228346457
 20
1.133244094488189
 30
0.0
 10
-3.558527559055118
 20
1.014976377952756
 30
0.0
 10
-3.33146062992126
 20
1.016448818897638
 30
0.0
 10
-3.33146062992126
 20
1.016448818897638
 30
0.0
 10
-3.387350393700788
 20
0.8326338582677165
 30
0.0
 10
-3.532149606299213
 20
0.7236732283464568
 30
0.0
 10
-3.499141732283465
 20
0.4650118110236221
 30
0.0
 10
-3.499141732283465
 20
0.4650118110236221
 30
0.0
 10
-3.53588188976378
 20
0.4209488188976378
 30
0.0
 10
-3.720889763779528
 20
0.6992834645669291
 30
0.0
 10
-3.831763779527559
 20
0.8164251968503937
 30
0.0
  0
SPLINE
  5
56
330
1F
100
AcDbEntity
  8
Layer 1
 62
   250
370
     5
100
AcDbSpline
210
0.0
220
0.0
230
1.0
 70
    11
 71
     3
 72
    20
 73
    16
 74
     0
 42
0.0000000001
 43
0.0000000001
 40
0.0
 40
0.0
 40
0.0
 40
0.0
 40
0.25
 40
0.25
 40
0.25
 40
0.25
 40
0.5
 40
0.5
 40
0.5
 40
0.5
 40
0.75
 40
0.75
 40
0.75
 40
0.75
 40
1.0
 40
1.0
 40
1.0
 40
1.0
 10
-6.981500000000001
 20
2.806393700787402
 30
0.0
 10
-7.292370078740158
 20
2.840452755905512
 30
0.0
 10
-7.859433070866142
 20
3.531035433070866
 30
0.0
 10
-7.797062992125984
 20
4.057984251968504
 30
0.0
 10
-7.797062992125984
 20
4.057984251968504
 30
0.0
 10
-7.639425196850394
 20
3.886129921259843
 30
0.0
 10
-7.467779527559055
 20
3.737003937007874
 30
0.0
 10
-7.257358267716536
 20
3.650791338582677
 30
0.0
 10
-7.257358267716536
 20
3.650791338582677
 30
0.0
 10
-6.946724409448819
 20
3.576295275590551
 30
0.0
 10
-6.783547244094488
 20
3.327783464566929
 30
0.0
 10
-6.899338582677165
 20
3.052354330708662
 30
0.0
 10
-6.899338582677165
 20
3.052354330708662
 30
0.0
 10
-6.926728346456693
 20
2.970358267716536
 30
0.0
 10
-6.996314960629921
 20
2.94644094488189
 30
0.0
 10
-6.981500000000001
 20
2.806393700787402
 30
0.0
  0
SPLINE
  5
57
330
1F
100
AcDbEntity
  8
Layer 1
 62
   250
370
     5
100
AcDbSpline
210
0.0
220
0.0
230
1.0
 70
    11
 71
     3
 72
    20
 73
    16
 74
     0
 42
0.0000000001
 43
0.0000000001
 40
0.0
 40
0.0
 40
0.0
 40
0.0
 40
0.25
 40
0.25
 40
0.25
 40
0.25
 40
0.5
 40
0.5
 40
0.5
 40
0.5
 40
0.75
 40
0.75
 40
0.75
 40
0.75
 40
1.0
 40
1.0
 40
1.0
 40
1.0
 10
-6.685232283464567
 20
2.64990157480315
 30
0.0
 10
-6.685232283464567
 20
2.64990157480315
 30
0.0
 10
-6.582358267716535
 20
3.115251968503937
 30
0.0
 10
-6.582358267716535
 20
3.115251968503937
 30
0.0
 10
-6.582358267716535
 20
3.115251968503937
 30
0.0
 10
-6.582358267716535
 20
3.115251968503937
 30
0.0
 10
-6.136086614173228
 20
3.018409448818898
 30
0.0
 10
-6.136086614173228
 20
3.018409448818898
 30
0.0
 10
-6.136086614173228
 20
3.018409448818898
 30
0.0
 10
-6.063791338582678
 20
2.797106299212599
 30
0.0
 10
-5.968948818897638
 20
2.361011811023622
 30
0.0
 10
-6.161846456692913
 20
2.337326771653543
 30
0.0
 10
-6.161846456692913
 20
2.337326771653543
 30
0.0
 10
-6.360377952755906
 20
2.375771653543307
 30
0.0
 10
-6.534417322834646
 20
2.48105905511811
 30
0.0
 10
-6.685232283464567
 20
2.64990157480315
 30
0.0
  0
SPLINE
  5
58
330
1F
100
AcDbEntity
  8
Layer 1
 62
   250
370
     5
100
AcDbSpline
210
0.0
220
0.0
230
1.0
 70
    11
 71
     3
 72
    16
 73
    12
 74
     0
 42
0.0000000001
 43
0.0000000001
 40
0.0
 40
0.0
 40
0.0
 40
0.0
 40
0.3333333333333333
 40
0.3333333333333333
 40
0.3333333333333333
 40
0.3333333333333333
 40
0.6666666666666666
 40
0.6666666666666666
 40
0.6666666666666666
 40
0.6666666666666666
 40
1.0
 40
1.0
 40
1.0
 40
1.0
 10
-5.987251968503937
 20
2.256759842519685
 30
0.0
 10
-5.820220472440945
 20
2.430905511811024
 30
0.0
 10
-5.796125984251969
 20
2.659645669291339
 30
0.0
 10
-5.869799212598426
 20
2.925755905511811
 30
0.0
 10
-5.869799212598426
 20
2.925755905511811
 30
0.0
 10
-5.719598425196851
 20
2.927122047244095
 30
0.0
 10
-5.510909448818897
 20
2.661503937007874
 30
0.0
 10
-5.060578740157481
 20
2.791543307086614
 30
0.0
 10
-5.060578740157481
 20
2.791543307086614
 30
0.0
 10
-5.028708661417323
 20
2.593472440944882
 30
0.0
 10
-5.420771653543308
 20
2.24786220472441
 30
0.0
 10
-5.987251968503937
 20
2.256759842519685
 30
0.0
  0
SPLINE
  5
59
330
1F
100
AcDbEntity
  8
Layer 1
 62
   250
370
     5
100
AcDbSpline
210
0.0
220
0.0
230
1.0
 70
    11
 71
     3
 72
    20
 73
    16
 74
     0
 42
0.0000000001
 43
0.0000000001
 40
0.0
 40
0.0
 40
0.0
 40
0.0
 40
0.25
 40
0.25
 40
0.25
 40
0.25
 40
0.5
 40
0.5
 40
0.5
 40
0.5
 40
0.75
 40
0.75
 40
0.75
 40
0.75
 40
1.0
 40
1.0
 40
1.0
 40
1.0
 10
-4.02107874015748
 20
1.250807086614173
 30
0.0
 10
-4.114051181102362
 20
1.325944881889764
 30
0.0
 10
-4.211909448818898
 20
1.437157480314961
 30
0.0
 10
-4.313102362204725
 20
1.573070866141732
 30
0.0
 10
-4.313102362204725
 20
1.573070866141732
 30
0.0
 10
-4.460240157480315
 20
1.759775590551181
 30
0.0
 10
-4.218728346456693
 20
2.195425196850394
 30
0.0
 10
-4.011681102362205
 20
2.331759842519685
 30
0.0
 10
-4.011681102362205
 20
2.331759842519685
 30
0.0
 10
-4.080027559055118
 20
2.132374015748032
 30
0.0
 10
-4.087874015748032
 20
1.953070866141732
 30
0.0
 10
-4.040625984251968
 20
1.792074803149606
 30
0.0
 10
-4.040625984251968
 20
1.792074803149606
 30
0.0
 10
-3.988157480314961
 20
1.610771653543307
 30
0.0
 10
-3.971791338582678
 20
1.430165354330709
 30
0.0
 10
-4.02107874015748
 20
1.250807086614173
 30
0.0
  0
SPLINE
  5
5A
330
1F
100
AcDbEntity
  8
Layer 1
 62
   250
370
     5
100
AcDbSpline
210
0.0
220
0.0
230
1.0
 70
    11
 71
     3
 72
    16
 73
    12
 74
     0
 42
0.0000000001
 43
0.0000000001
 40
0.0
 40
0.0
 40
0.0
 40
0.0
 40
0.3333333333333333
 40
0.3333333333333333
 40
0.3333333333333333
 40
0.3333333333333333
 40
0.6666666666666666
 40
0.6666666666666666
 40
0.6666666666666666
 40
0.6666666666666666
 40
1.0
 40
1.0
 40
1.0
 40
1.0
 10
-2.132625984251968
 20
0.587015748031496
 30
0.0
 10
-2.730795275590551
 20
0.4649015748031496
 30
0.0
 10
-2.962078740157481
 20
0.8340708661417323
 30
0.0
 10
-2.942314960629922
 20
1.539374015748032
 30
0.0
 10
-2.942314960629922
 20
1.539374015748032
 30
0.0
 10
-2.819122047244095
 20
1.405657480314961
 30
0.0
 10
-2.663169291338583
 20
1.296795275590551
 30
0.0
 10
-2.49538188976378
 20
1.19690157480315
 30
0.0
 10
-2.49538188976378
 20
1.19690157480315
 30
0.0
 10
-2.252177165354331
 20
1.024192913385827
 30
0.0
 10
-2.145645669291339
 20
0.8173110236220473
 30
0.0
 10
-2.132625984251968
 20
0.587015748031496
 30
0.0
  0
SPLINE
  5
5B
330
1F
100
AcDbEntity
  8
Layer 1
 62
   250
370
     5
100
AcDbSpline
210
0.0
220
0.0
230
1.0
 70
    11
 71
     3
 72
    16
 73
    12
 74
     0
 42
0.0000000001
 43
0.0000000001
 40
0.0
 40
0.0
 40
0.0
 40
0.0
 40
0.3333333333333333
 40
0.3333333333333333
 40
0.3333333333333333
 40
0.3333333333333333
 40
0.6666666666666666
 40
0.6666666666666666
 40
0.6666666666666666
 40
0.6666666666666666
 40
1.0
 40
1.0
 40
1.0
 40
1.0
 10
-1.732712598425197
 20
-0.1802834645669292
 30
0.0
 10
-1.951625984251969
 20
0.0890590551181102
 30
0.0
 10
-1.793952755905512
 20
0.5187125984251969
 30
0.0
 10
-1.456433070866142
 20
0.7025
 30
0.0
 10
-1.456433070866142
 20
0.7025
 30
0.0
 10
-1.676204724409449
 20
0.3114685039370079
 30
0.0
 10
-1.330216535433071
 20
-0.2089685039370079
 30
0.0
 10
-1.207775590551181
 20
-0.3916535433070866
 30
0.0
 10
-1.207775590551181
 20
-0.3916535433070866
 30
0.0
 10
-1.407437007874016
 20
-0.394251968503937
 30
0.0
 10
-1.579515748031496
 20
-0.3152007874015748
 30
0.0
 10
-1.732712598425197
 20
-0.1802834645669292
 30
0.0
  0
SPLINE
  5
5C
330
1F
100
AcDbEntity
  8
Layer 1
 62
   250
370
     5
100
AcDbSpline
210
0.0
220
0.0
230
1.0
 70
    11
 71
     3
 72
    20
 73
    16
 74
     0
 42
0.0000000001
 43
0.0000000001
 40
0.0
 40
0.0
 40
0.0
 40
0.0
 40
0.25
 40
0.25
 40
0.25
 40
0.25
 40
0.5
 40
0.5
 40
0.5
 40
0.5
 40
0.75
 40
0.75
 40
0.75
 40
0.75
 40
1.0
 40
1.0
 40
1.0
 40
1.0
 10
-1.133763779527559
 20
-0.2247874015748032
 30
0.0
 10
-1.194165354330709
 20
-0.0639251968503937
 30
0.0
 10
-1.262200787401575
 20
0.0917874015748032
 30
0.0
 10
-1.335976377952756
 20
0.2436338582677166
 30
0.0
 10
-1.335976377952756
 20
0.2436338582677166
 30
0.0
 10
-1.477149606299213
 20
0.4809409448818898
 30
0.0
 10
-1.423185039370079
 20
0.6107834645669291
 30
0.0
 10
-1.215299212598425
 20
0.7767716535433071
 30
0.0
 10
-1.215299212598425
 20
0.7767716535433071
 30
0.0
 10
-1.088295275590551
 20
0.6414173228346457
 30
0.0
 10
-1.03053937007874
 20
0.499007874015748
 30
0.0
 10
-1.020153543307087
 20
0.3517716535433071
 30
0.0
 10
-1.020153543307087
 20
0.3517716535433071
 30
0.0
 10
-1.004074803149606
 20
0.1054803149606299
 30
0.0
 10
-1.037937007874016
 20
-0.1494212598425197
 30
0.0
 10
-1.133763779527559
 20
-0.2247874015748032
 30
0.0
  0
SPLINE
  5
5D
330
1F
100
AcDbEntity
  8
Layer 1
 62
   250
370
     5
100
AcDbSpline
210
0.0
220
0.0
230
1.0
 70
    11
 71
     3
 72
    20
 73
    16
 74
     0
 42
0.0000000001
 43
0.0000000001
 40
0.0
 40
0.0
 40
0.0
 40
0.0
 40
0.25
 40
0.25
 40
0.25
 40
0.25
 40
0.5
 40
0.5
 40
0.5
 40
0.5
 40
0.75
 40
0.75
 40
0.75
 40
0.75
 40
1.0
 40
1.0
 40
1.0
 40
1.0
 10
-0.985992125984252
 20
-0.4314291338582678
 30
0.0
 10
-0.8530393700787402
 20
-0.179996062992126
 30
0.0
 10
-0.7864409448818898
 20
0.1027204724409449
 30
0.0
 10
-0.8168385826771654
 20
0.4311732283464567
 30
0.0
 10
-0.8168385826771654
 20
0.4311732283464567
 30
0.0
 10
-0.5265078740157481
 20
0.4399330708661418
 30
0.0
 10
-0.2496299212598425
 20
-0.1463228346456693
 30
0.0
 10
-0.4967755905511812
 20
-0.483248031496063
 30
0.0
 10
-0.4967755905511812
 20
-0.483248031496063
 30
0.0
 10
-0.6020354330708662
 20
-0.5956929133858268
 30
0.0
 10
-0.6503622047244094
 20
-0.7060275590551182
 30
0.0
 10
-0.7691732283464567
 20
-0.8149370078740158
 30
0.0
 10
-0.7691732283464567
 20
-0.8149370078740158
 30
0.0
 10
-0.8142165354330709
 20
-0.6441338582677165
 30
0.0
 10
-0.8897007874015749
 20
-0.5213661417322835
 30
0.0
 10
-0.985992125984252
 20
-0.4314291338582678
 30
0.0
  0
SPLINE
  5
5E
330
1F
100
AcDbEntity
  8
Layer 1
 62
   250
370
     5
100
AcDbSpline
210
0.0
220
0.0
230
1.0
 70
    11
 71
     3
 72
    16
 73
    12
 74
     0
 42
0.0000000001
 43
0.0000000001
 40
0.0
 40
0.0
 40
0.0
 40
0.0
 40
0.3333333333333333
 40
0.3333333333333333
 40
0.3333333333333333
 40
0.3333333333333333
 40
0.6666666666666666
 40
0.6666666666666666
 40
0.6666666666666666
 40
0.6666666666666666
 40
1.0
 40
1.0
 40
1.0
 40
1.0
 10
0.0680314960629921
 20
-1.223531496062992
 30
0.0
 10
0.2179763779527559
 20
-1.214236220472441
 30
0.0
 10
0.4396732283464567
 20
-1.468444881889764
 30
0.0
 10
0.8829015748031497
 20
-1.314795275590551
 30
0.0
 10
0.8829015748031497
 20
-1.314795275590551
 30
0.0
 10
0.9246259842519685
 20
-1.510925196850394
 30
0.0
 10
0.5503818897637796
 20
-1.876795275590551
 30
0.0
 10
-0.0158149606299213
 20
-1.897850393700788
 30
0.0
 10
-0.0158149606299213
 20
-1.897850393700788
 30
0.0
 10
0.1422834645669291
 20
-1.715118110236221
 30
0.0
 10
0.1549173228346457
 20
-1.485397637795276
 30
0.0
 10
0.0680314960629921
 20
-1.223531496062992
 30
0.0
  0
SPLINE
  5
5F
330
1F
100
AcDbEntity
  8
Layer 1
 62
   250
370
     5
100
AcDbSpline
210
0.0
220
0.0
230
1.0
 70
    11
 71
     3
 72
    32
 73
    28
 74
     0
 42
0.0000000001
 43
0.0000000001
 40
0.0
 40
0.0
 40
0.0
 40
0.0
 40
0.1428571428571429
 40
0.1428571428571429
 40
0.1428571428571429
 40
0.1428571428571429
 40
0.2857142857142857
 40
0.2857142857142857
 40
0.2857142857142857
 40
0.2857142857142857
 40
0.4285714285714286
 40
0.4285714285714286
 40
0.4285714285714286
 40
0.4285714285714286
 40
0.5714285714285714
 40
0.5714285714285714
 40
0.5714285714285714
 40
0.5714285714285714
 40
0.7142857142857142
 40
0.7142857142857142
 40
0.7142857142857142
 40
0.7142857142857142
 40
0.857142857142857
 40
0.857142857142857
 40
0.857142857142857
 40
0.857142857142857
 40
1.0
 40
1.0
 40
1.0
 40
1.0
 10
-3.880141732283465
 20
1.52251968503937
 30
0.0
 10
-3.836188976377953
 20
1.693492125984252
 30
0.0
 10
-3.867118110236221
 20
1.743082677165355
 30
0.0
 10
-3.895232283464567
 20
1.850370078740158
 30
0.0
 10
-3.895232283464567
 20
1.850370078740158
 30
0.0
 10
-3.942948818897638
 20
2.032527559055118
 30
0.0
 10
-3.958649606299213
 20
2.284370078740158
 30
0.0
 10
-3.694748031496063
 20
2.503807086614173
 30
0.0
 10
-3.694748031496063
 20
2.503807086614173
 30
0.0
 10
-3.580358267716536
 20
2.62592125984252
 30
0.0
 10
-3.466370078740158
 20
2.645374015748032
 30
0.0
 10
-3.351598425196851
 20
2.870192913385827
 30
0.0
 10
-3.351598425196851
 20
2.870192913385827
 30
0.0
 10
-3.247610236220472
 20
2.790303149606299
 30
0.0
 10
-3.24040157480315
 20
2.59136220472441
 30
0.0
 10
-3.260338582677166
 20
2.359106299212598
 30
0.0
 10
-3.260338582677166
 20
2.359106299212598
 30
0.0
 10
-3.308389763779528
 20
2.328586614173228
 30
0.0
 10
-3.354736220472441
 20
2.28334251968504
 30
0.0
 10
-3.396366141732284
 20
2.197303149606299
 30
0.0
 10
-3.396366141732284
 20
2.197303149606299
 30
0.0
 10
-3.411251968503937
 20
2.098011811023622
 30
0.0
 10
-3.511665354330709
 20
2.087661417322835
 30
0.0
 10
-3.577330708661417
 20
1.968929133858268
 30
0.0
 10
-3.577330708661417
 20
1.968929133858268
 30
0.0
 10
-3.667527559055118
 20
1.822803149606299
 30
0.0
 10
-3.735374015748032
 20
1.616964566929134
 30
0.0
 10
-3.880141732283465
 20
1.52251968503937
 30
0.0
  0
SPLINE
  5
60
330
1F
100
AcDbEntity
  8
Layer 1
 62
   250
370
     5
100
AcDbSpline
210
0.0
220
0.0
230
1.0
 70
    11
 71
     3
 72
    16
 73
    12
 74
     0
 42
0.0000000001
 43
0.0000000001
 40
0.0
 40
0.0
 40
0.0
 40
0.0
 40
0.3333333333333333
 40
0.3333333333333333
 40
0.3333333333333333
 40
0.3333333333333333
 40
0.6666666666666666
 40
0.6666666666666666
 40
0.6666666666666666
 40
0.6666666666666666
 40
1.0
 40
1.0
 40
1.0
 40
1.0
 10
-4.448173228346457
 20
2.001204724409449
 30
0.0
 10
-4.623641732283465
 20
2.076858267716536
 30
0.0
 10
-4.695708661417323
 20
2.589370078740158
 30
0.0
 10
-4.392271653543308
 20
3.066267716535433
 30
0.0
 10
-4.392271653543308
 20
3.066267716535433
 30
0.0
 10
-4.340011811023622
 20
2.83396062992126
 30
0.0
 10
-4.169212598425197
 20
2.694807086614173
 30
0.0
 10
-3.917303149606299
 20
2.619389763779528
 30
0.0
 10
-3.917303149606299
 20
2.619389763779528
 30
0.0
 10
-3.994767716535433
 20
2.491015748031496
 30
0.0
 10
-4.316893700787402
 20
2.451417322834646
 30
0.0
 10
-4.448173228346457
 20
2.001204724409449
 30
0.0
  0
SPLINE
  5
61
330
1F
100
AcDbEntity
  8
Layer 1
 62
   250
370
     5
100
AcDbSpline
210
0.0
220
0.0
230
1.0
 70
    11
 71
     3
 72
    20
 73
    16
 74
     0
 42
0.0000000001
 43
0.0000000001
 40
0.0
 40
0.0
 40
0.0
 40
0.0
 40
0.25
 40
0.25
 40
0.25
 40
0.25
 40
0.5
 40
0.5
 40
0.5
 40
0.5
 40
0.75
 40
0.75
 40
0.75
 40
0.75
 40
1.0
 40
1.0
 40
1.0
 40
1.0
 10
-3.636622047244094
 20
1.528074803149606
 30
0.0
 10
-3.44090157480315
 20
1.742748031496063
 30
0.0
 10
-3.510437007874016
 20
1.893275590551181
 30
0.0
 10
-3.218496062992126
 20
2.10803937007874
 30
0.0
 10
-3.218496062992126
 20
2.10803937007874
 30
0.0
 10
-3.227417322834646
 20
1.773606299212599
 30
0.0
 10
-3.138114173228347
 20
1.573153543307087
 30
0.0
 10
-3.171366141732284
 20
1.262271653543307
 30
0.0
 10
-3.171366141732284
 20
1.262271653543307
 30
0.0
 10
-3.171366141732284
 20
1.262271653543307
 30
0.0
 10
-3.314484251968504
 20
1.22555905511811
 30
0.0
 10
-3.314484251968504
 20
1.22555905511811
 30
0.0
 10
-3.314484251968504
 20
1.22555905511811
 30
0.0
 10
-3.530791338582677
 20
1.201141732283465
 30
0.0
 10
-3.529240157480315
 20
1.427244094488189
 30
0.0
 10
-3.636622047244094
 20
1.528074803149606
 30
0.0
  0
SPLINE
  5
62
330
1F
100
AcDbEntity
  8
Layer 1
 62
   250
370
     5
100
AcDbSpline
210
0.0
220
0.0
230
1.0
 70
    11
 71
     3
 72
    20
 73
    16
 74
     0
 42
0.0000000001
 43
0.0000000001
 40
0.0
 40
0.0
 40
0.0
 40
0.0
 40
0.25
 40
0.25
 40
0.25
 40
0.25
 40
0.5
 40
0.5
 40
0.5
 40
0.5
 40
0.75
 40
0.75
 40
0.75
 40
0.75
 40
1.0
 40
1.0
 40
1.0
 40
1.0
 10
-0.2160236220472441
 20
-0.2483346456692913
 30
0.0
 10
-0.1985866141732283
 20
-0.149484251968504
 30
0.0
 10
-0.2107637795275591
 20
-0.0561535433070866
 30
0.0
 10
-0.2363897637795276
 20
0.0346692913385827
 30
0.0
 10
-0.2363897637795276
 20
0.0346692913385827
 30
0.0
 10
-0.3211811023622048
 20
0.260732283464567
 30
0.0
 10
-0.2878188976377953
 20
0.3914370078740158
 30
0.0
 10
-0.146484251968504
 20
0.5326417322834646
 30
0.0
 10
-0.146484251968504
 20
0.5326417322834646
 30
0.0
 10
-0.0209645669291339
 20
0.6550196850393701
 30
0.0
 10
0.0919133858267717
 20
0.7794015748031496
 30
0.0
 10
0.1798818897637795
 20
0.9182519685039371
 30
0.0
 10
0.1798818897637795
 20
0.9182519685039371
 30
0.0
 10
0.2826299212598425
 20
0.4000196850393701
 30
0.0
 10
0.217740157480315
 20
-0.0258188976377953
 30
0.0
 10
-0.2160236220472441
 20
-0.2483346456692913
 30
0.0
  0
SPLINE
  5
63
330
1F
100
AcDbEntity
  8
Layer 1
 62
   250
370
     5
100
AcDbSpline
210
0.0
220
0.0
230
1.0
 70
    11
 71
     3
 72
    20
 73
    16
 74
     0
 42
0.0000000001
 43
0.0000000001
 40
0.0
 40
0.0
 40
0.0
 40
0.0
 40
0.25
 40
0.25
 40
0.25
 40
0.25
 40
0.5
 40
0.5
 40
0.5
 40
0.5
 40
0.75
 40
0.75
 40
0.75
 40
0.75
 40
1.0
 40
1.0
 40
1.0
 40
1.0
 10
-2.321425196850394
 20
1.326992125984252
 30
0.0
 10
-2.780893700787402
 20
1.533070866141732
 30
0.0
 10
-3.07407874015748
 20
1.825074803149607
 30
0.0
 10
-3.001488188976378
 20
2.306094488188977
 30
0.0
 10
-3.001488188976378
 20
2.306094488188977
 30
0.0
 10
-2.934775590551181
 20
2.236370078740158
 30
0.0
 10
-2.855602362204725
 20
2.194051181102362
 30
0.0
 10
-2.770767716535433
 20
2.164208661417323
 30
0.0
 10
-2.770767716535433
 20
2.164208661417323
 30
0.0
 10
-2.547779527559055
 20
2.107141732283465
 30
0.0
 10
-2.465385826771654
 20
2.006476377952756
 30
0.0
 10
-2.43584251968504
 20
1.811232283464567
 30
0.0
 10
-2.43584251968504
 20
1.811232283464567
 30
0.0
 10
-2.411909448818898
 20
1.63951968503937
 30
0.0
 10
-2.379307086614173
 20
1.477066929133858
 30
0.0
 10
-2.321425196850394
 20
1.326992125984252
 30
0.0
  0
SPLINE
  5
64
330
1F
100
AcDbEntity
  8
Layer 1
 62
   250
370
     5
100
AcDbSpline
210
0.0
220
0.0
230
1.0
 70
    11
 71
     3
 72
    24
 73
    20
 74
     0
 42
0.0000000001
 43
0.0000000001
 40
0.0
 40
0.0
 40
0.0
 40
0.0
 40
0.2
 40
0.2
 40
0.2
 40
0.2
 40
0.4
 40
0.4
 40
0.4
 40
0.4
 40
0.6000000000000001
 40
0.6000000000000001
 40
0.6000000000000001
 40
0.6000000000000001
 40
0.8
 40
0.8
 40
0.8
 40
0.8
 40
1.0
 40
1.0
 40
1.0
 40
1.0
 10
-2.023133858267717
 20
0.7628267716535433
 30
0.0
 10
-2.047527559055118
 20
0.7819724409448819
 30
0.0
 10
-2.098677165354331
 20
1.292003937007874
 30
0.0
 10
-2.174011811023622
 20
1.506645669291339
 30
0.0
 10
-2.174011811023622
 20
1.506645669291339
 30
0.0
 10
-2.201267716535433
 20
1.584303149606299
 30
0.0
 10
-2.193952755905512
 20
1.655763779527559
 30
0.0
 10
-2.195444881889764
 20
1.693948818897638
 30
0.0
 10
-2.195444881889764
 20
1.693948818897638
 30
0.0
 10
-2.225185039370079
 20
1.853464566929134
 30
0.0
 10
-2.189562992125985
 20
1.843417322834646
 30
0.0
 10
-2.323562992125984
 20
2.109740157480315
 30
0.0
 10
-2.323562992125984
 20
2.109740157480315
 30
0.0
 10
-1.948377952755906
 20
2.125622047244095
 30
0.0
 10
-1.467129921259843
 20
1.690846456692914
 30
0.0
 10
-1.761023622047244
 20
1.216173228346457
 30
0.0
 10
-1.761023622047244
 20
1.216173228346457
 30
0.0
 10
-1.84840157480315
 20
1.06505905511811
 30
0.0
 10
-1.95790157480315
 20
0.9329488188976378
 30
0.0
 10
-2.023133858267717
 20
0.7628267716535433
 30
0.0
  0
SPLINE
  5
65
330
1F
100
AcDbEntity
  8
Layer 1
 62
   250
370
     5
100
AcDbSpline
210
0.0
220
0.0
230
1.0
 70
    11
 71
     3
 72
    24
 73
    20
 74
     0
 42
0.0000000001
 43
0.0000000001
 40
0.0
 40
0.0
 40
0.0
 40
0.0
 40
0.2
 40
0.2
 40
0.2
 40
0.2
 40
0.4
 40
0.4
 40
0.4
 40
0.4
 40
0.6000000000000001
 40
0.6000000000000001
 40
0.6000000000000001
 40
0.6000000000000001
 40
0.8
 40
0.8
 40
0.8
 40
0.8
 40
1.0
 40
1.0
 40
1.0
 40
1.0
 10
-1.089897637795276
 20
0.8874370078740158
 30
0.0
 10
-0.969216535433071
 20
1.035224409448819
 30
0.0
 10
-0.8281062992125985
 20
1.153153543307087
 30
0.0
 10
-0.6840905511811024
 20
1.266818897637795
 30
0.0
 10
-0.6840905511811024
 20
1.266818897637795
 30
0.0
 10
-0.6506574803149606
 20
1.236314960629921
 30
0.0
 10
-0.6871692913385827
 20
1.201220472440945
 30
0.0
 10
-0.7164094488188977
 20
1.165212598425197
 30
0.0
 10
-0.7164094488188977
 20
1.165212598425197
 30
0.0
 10
-0.7650629921259843
 20
1.105311023622047
 30
0.0
 10
-0.7687952755905512
 20
1.032149606299213
 30
0.0
 10
-0.7635118110236221
 20
0.9560275590551182
 30
0.0
 10
-0.7635118110236221
 20
0.9560275590551182
 30
0.0
 10
-0.7537755905511812
 20
0.8238464566929135
 30
0.0
 10
-0.7256614173228346
 20
0.69298031496063
 30
0.0
 10
-0.6801653543307087
 20
0.5633346456692914
 30
0.0
 10
-0.6801653543307087
 20
0.5633346456692914
 30
0.0
 10
-0.8540314960629921
 20
0.6403779527559056
 30
0.0
 10
-0.983224409448819
 20
0.7545275590551182
 30
0.0
 10
-1.089897637795276
 20
0.8874370078740158
 30
0.0
  0
SPLINE
  5
66
330
1F
100
AcDbEntity
  8
Layer 1
 62
   250
370
     5
100
AcDbSpline
210
0.0
220
0.0
230
1.0
 70
    11
 71
     3
 72
    24
 73
    20
 74
     0
 42
0.0000000001
 43
0.0000000001
 40
0.0
 40
0.0
 40
0.0
 40
0.0
 40
0.2
 40
0.2
 40
0.2
 40
0.2
 40
0.4
 40
0.4
 40
0.4
 40
0.4
 40
0.6000000000000001
 40
0.6000000000000001
 40
0.6000000000000001
 40
0.6000000000000001
 40
0.8
 40
0.8
 40
0.8
 40
0.8
 40
1.0
 40
1.0
 40
1.0
 40
1.0
 10
-0.4552086614173229
 20
0.452488188976378
 30
0.0
 10
-0.6888346456692913
 20
0.7665118110236221
 30
0.0
 10
-0.618488188976378
 20
1.439086614173228
 30
0.0
 10
-0.0597047244094488
 20
1.467062992125984
 30
0.0
 10
-0.0597047244094488
 20
1.467062992125984
 30
0.0
 10
0.1145354330708662
 20
1.481291338582677
 30
0.0
 10
0.2863503937007874
 20
1.465188976377953
 30
0.0
 10
0.463011811023622
 20
1.509775590551181
 30
0.0
 10
0.463011811023622
 20
1.509775590551181
 30
0.0
 10
0.4618070866141733
 20
1.47740157480315
 30
0.0
 10
0.0772795275590551
 20
1.13101968503937
 30
0.0
 10
-0.0529055118110236
 20
0.9388622047244095
 30
0.0
 10
-0.0529055118110236
 20
0.9388622047244095
 30
0.0
 10
-0.099992125984252
 20
0.8693503937007875
 30
0.0
 10
-0.1623937007874016
 20
0.8332874015748032
 30
0.0
 10
-0.1925590551181103
 20
0.8093858267716536
 30
0.0
 10
-0.1925590551181103
 20
0.8093858267716536
 30
0.0
 10
-0.304740157480315
 20
0.6891968503937008
 30
0.0
 10
-0.3175275590551182
 20
0.7258464566929134
 30
0.0
 10
-0.4552086614173229
 20
0.452488188976378
 30
0.0
  0
SPLINE
  5
67
330
1F
100
AcDbEntity
  8
Layer 1
 62
   250
370
     5
100
AcDbSpline
210
0.0
220
0.0
230
1.0
 70
    11
 71
     3
 72
    16
 73
    12
 74
     0
 42
0.0000000001
 43
0.0000000001
 40
0.0
 40
0.0
 40
0.0
 40
0.0
 40
0.3333333333333333
 40
0.3333333333333333
 40
0.3333333333333333
 40
0.3333333333333333
 40
0.6666666666666666
 40
0.6666666666666666
 40
0.6666666666666666
 40
0.6666666666666666
 40
1.0
 40
1.0
 40
1.0
 40
1.0
 10
0.3724645669291339
 20
0.2570984251968504
 30
0.0
 10
0.4087007874015748
 20
0.4425551181102362
 30
0.0
 10
0.4054685039370079
 20
0.6415354330708661
 30
0.0
 10
0.3879606299212599
 20
0.8453976377952757
 30
0.0
 10
0.3879606299212599
 20
0.8453976377952757
 30
0.0
 10
0.3852874015748032
 20
1.157413385826772
 30
0.0
 10
0.4908149606299213
 20
1.371870078740157
 30
0.0
 10
0.6703503937007874
 20
1.519594488188977
 30
0.0
 10
0.6703503937007874
 20
1.519594488188977
 30
0.0
 10
1.12151968503937
 20
1.076291338582677
 30
0.0
 10
0.9574566929133859
 20
0.6580984251968505
 30
0.0
 10
0.3724645669291339
 20
0.2570984251968504
 30
0.0
  0
SPLINE
  5
68
330
1F
100
AcDbEntity
  8
Layer 1
 62
   250
370
     5
100
AcDbSpline
210
0.0
220
0.0
230
1.0
 70
    11
 71
     3
 72
    20
 73
    16
 74
     0
 42
0.0000000001
 43
0.0000000001
 40
0.0
 40
0.0
 40
0.0
 40
0.0
 40
0.25
 40
0.25
 40
0.25
 40
0.25
 40
0.5
 40
0.5
 40
0.5
 40
0.5
 40
0.75
 40
0.75
 40
0.75
 40
0.75
 40
1.0
 40
1.0
 40
1.0
 40
1.0
 10
0.0726574803149606
 20
-0.3180314960629921
 30
0.0
 10
0.3497637795275591
 20
-0.127503937007874
 30
0.0
 10
0.4601889763779528
 20
0.0682952755905512
 30
0.0
 10
0.7324763779527559
 20
0.2238858267716536
 30
0.0
 10
0.7324763779527559
 20
0.2238858267716536
 30
0.0
 10
0.7324763779527559
 20
0.2238858267716536
 30
0.0
 10
0.8465314960629922
 20
0.122244094488189
 30
0.0
 10
0.8465314960629922
 20
0.122244094488189
 30
0.0
 10
0.8465314960629922
 20
0.122244094488189
 30
0.0
 10
0.9936062992125985
 20
-0.0497716535433071
 30
0.0
 10
0.8089055118110237
 20
-0.1824015748031496
 30
0.0
 10
0.7900866141732283
 20
-0.334732283464567
 30
0.0
 10
0.7900866141732283
 20
-0.334732283464567
 30
0.0
 10
0.5004409448818898
 20
-0.2932677165354331
 30
0.0
 10
0.418984251968504
 20
-0.4424094488188977
 30
0.0
 10
0.0726574803149606
 20
-0.3180314960629921
 30
0.0
  0
SPLINE
  5
69
330
1F
100
AcDbEntity
  8
Layer 1
 62
   250
370
     5
100
AcDbSpline
210
0.0
220
0.0
230
1.0
 70
    11
 71
     3
 72
    32
 73
    28
 74
     0
 42
0.0000000001
 43
0.0000000001
 40
0.0
 40
0.0
 40
0.0
 40
0.0
 40
0.1428571428571429
 40
0.1428571428571429
 40
0.1428571428571429
 40
0.1428571428571429
 40
0.2857142857142857
 40
0.2857142857142857
 40
0.2857142857142857
 40
0.2857142857142857
 40
0.4285714285714286
 40
0.4285714285714286
 40
0.4285714285714286
 40
0.4285714285714286
 40
0.5714285714285714
 40
0.5714285714285714
 40
0.5714285714285714
 40
0.5714285714285714
 40
0.7142857142857142
 40
0.7142857142857142
 40
0.7142857142857142
 40
0.7142857142857142
 40
0.857142857142857
 40
0.857142857142857
 40
0.857142857142857
 40
0.857142857142857
 40
1.0
 40
1.0
 40
1.0
 40
1.0
 10
0.3968307086614173
 20
-0.5449330708661417
 30
0.0
 10
0.5686929133858268
 20
-0.5360708661417323
 30
0.0
 10
0.7759330708661417
 20
-0.4725590551181103
 30
0.0
 10
0.9378818897637795
 20
-0.5413858267716536
 30
0.0
 10
0.9378818897637795
 20
-0.5413858267716536
 30
0.0
 10
0.7730354330708662
 20
-0.6048346456692914
 30
0.0
 10
0.7509133858267717
 20
-0.6609212598425197
 30
0.0
 10
0.680232283464567
 20
-0.7487125984251969
 30
0.0
 10
0.680232283464567
 20
-0.7487125984251969
 30
0.0
 10
0.5602165354330709
 20
-0.8978307086614173
 30
0.0
 10
0.3647165354330709
 20
-1.060622047244095
 30
0.0
 10
0.0310787401574803
 20
-0.9631653543307087
 30
0.0
 10
0.0310787401574803
 20
-0.9631653543307087
 30
0.0
 10
-0.135492125984252
 20
-0.9369370078740158
 30
0.0
 10
-0.2183346456692913
 20
-0.8501929133858268
 30
0.0
 10
-0.4686456692913386
 20
-0.88448031496063
 30
0.0
 10
-0.4686456692913386
 20
-0.88448031496063
 30
0.0
 10
-0.4648582677165354
 20
-0.7474645669291339
 30
0.0
 10
-0.3073700787401575
 20
-0.6233700787401575
 30
0.0
 10
-0.1068385826771654
 20
-0.5028937007874016
 30
0.0
 10
-0.1068385826771654
 20
-0.5028937007874016
 30
0.0
 10
-0.0537637795275591
 20
-0.526236220472441
 30
0.0
 10
0.0102874015748031
 20
-0.5393661417322835
 30
0.0
 10
0.1047283464566929
 20
-0.5242677165354331
 30
0.0
 10
0.1047283464566929
 20
-0.5242677165354331
 30
0.0
 10
0.1941929133858268
 20
-0.4782716535433071
 30
0.0
 10
0.2616811023622047
 20
-0.5586929133858268
 30
0.0
 10
0.3968307086614173
 20
-0.5449330708661417
 30
0.0
  0
SPLINE
  5
6A
330
1F
100
AcDbEntity
  8
Layer 1
 62
   250
370
     5
100
AcDbSpline
210
0.0
220
0.0
230
1.0
 70
    11
 71
     3
 72
    20
 73
    16
 74
     0
 42
0.0000000001
 43
0.0000000001
 40
0.0
 40
0.0
 40
0.0
 40
0.0
 40
0.25
 40
0.25
 40
0.25
 40
0.25
 40
0.5
 40
0.5
 40
0.5
 40
0.5
 40
0.75
 40
0.75
 40
0.75
 40
0.75
 40
1.0
 40
1.0
 40
1.0
 40
1.0
 10
0.8131574803149607
 20
-0.8395196850393701
 30
0.0
 10
0.9296771653543308
 20
-0.6868070866141732
 30
0.0
 10
1.066877952755906
 20
-0.5656771653543308
 30
0.0
 10
1.241669291338583
 20
-0.5018740157480315
 30
0.0
 10
1.241669291338583
 20
-0.5018740157480315
 30
0.0
 10
1.235295275590551
 20
-0.6265393700787402
 30
0.0
 10
1.202448818897638
 20
-0.7768188976377953
 30
0.0
 10
1.151492125984252
 20
-0.9446141732283465
 30
0.0
 10
1.151492125984252
 20
-0.9446141732283465
 30
0.0
 10
1.086271653543307
 20
-1.182110236220473
 30
0.0
 10
0.5900314960629921
 20
-1.232090551181102
 30
0.0
 10
0.3573858267716535
 20
-1.134417322834646
 30
0.0
 10
0.3573858267716535
 20
-1.134417322834646
 30
0.0
 10
0.5597007874015748
 20
-1.075169291338583
 30
0.0
 10
0.7100669291338583
 20
-0.9756653543307087
 30
0.0
 10
0.8131574803149607
 20
-0.8395196850393701
 30
0.0
  0
SPLINE
  5
6B
330
1F
100
AcDbEntity
  8
Layer 1
 62
   250
370
     5
100
AcDbSpline
210
0.0
220
0.0
230
1.0
 70
    11
 71
     3
 72
    28
 73
    24
 74
     0
 42
0.0000000001
 43
0.0000000001
 40
0.0
 40
0.0
 40
0.0
 40
0.0
 40
0.1666666666666667
 40
0.1666666666666667
 40
0.1666666666666667
 40
0.1666666666666667
 40
0.3333333333333333
 40
0.3333333333333333
 40
0.3333333333333333
 40
0.3333333333333333
 40
0.5
 40
0.5
 40
0.5
 40
0.5
 40
0.6666666666666666
 40
0.6666666666666666
 40
0.6666666666666666
 40
0.6666666666666666
 40
0.8333333333333333
 40
0.8333333333333333
 40
0.8333333333333333
 40
0.8333333333333333
 40
1.0
 40
1.0
 40
1.0
 40
1.0
 10
-1.317149606299213
 20
1.312492125984252
 30
0.0
 10
-1.337106299212598
 20
1.383236220472441
 30
0.0
 10
-1.248633858267717
 20
1.647527559055118
 30
0.0
 10
-1.214409448818898
 20
1.81503937007874
 30
0.0
 10
-1.214409448818898
 20
1.81503937007874
 30
0.0
 10
-1.162366141732284
 20
1.982582677165354
 30
0.0
 10
-1.213236220472441
 20
2.153988188976378
 30
0.0
 10
-1.212665354330709
 20
2.323464566929134
 30
0.0
 10
-1.212665354330709
 20
2.323464566929134
 30
0.0
 10
-1.209208661417323
 20
2.451909448818898
 30
0.0
 10
-1.182224409448819
 20
2.492503937007874
 30
0.0
 10
-1.239456692913386
 20
2.688153543307087
 30
0.0
 10
-1.239456692913386
 20
2.688153543307087
 30
0.0
 10
-0.7210984251968504
 20
2.98303937007874
 30
0.0
 10
-0.8018385826771654
 20
2.862893700787402
 30
0.0
 10
-0.5868700787401575
 20
2.916555118110237
 30
0.0
 10
-0.5868700787401575
 20
2.916555118110237
 30
0.0
 10
-0.8845787401574804
 20
2.481779527559055
 30
0.0
 10
-0.8907874015748032
 20
2.293397637795276
 30
0.0
 10
-1.014952755905512
 20
1.982318897637796
 30
0.0
 10
-1.014952755905512
 20
1.982318897637796
 30
0.0
 10
-1.110507874015748
 20
1.742866141732284
 30
0.0
 10
-1.160586614173228
 20
1.350700787401575
 30
0.0
 10
-1.317149606299213
 20
1.312492125984252
 30
0.0
  0
SPLINE
  5
6C
330
1F
100
AcDbEntity
  8
Layer 1
 62
   250
370
     5
100
AcDbSpline
210
0.0
220
0.0
230
1.0
 70
    11
 71
     3
 72
    28
 73
    24
 74
     0
 42
0.0000000001
 43
0.0000000001
 40
0.0
 40
0.0
 40
0.0
 40
0.0
 40
0.1666666666666667
 40
0.1666666666666667
 40
0.1666666666666667
 40
0.1666666666666667
 40
0.3333333333333333
 40
0.3333333333333333
 40
0.3333333333333333
 40
0.3333333333333333
 40
0.5
 40
0.5
 40
0.5
 40
0.5
 40
0.6666666666666666
 40
0.6666666666666666
 40
0.6666666666666666
 40
0.6666666666666666
 40
0.8333333333333333
 40
0.8333333333333333
 40
0.8333333333333333
 40
0.8333333333333333
 40
1.0
 40
1.0
 40
1.0
 40
1.0
 10
0.8820433070866142
 20
0.4320511811023622
 30
0.0
 10
1.222366141732284
 20
0.8324291338582678
 30
0.0
 10
1.247700787401575
 20
1.019098425196851
 30
0.0
 10
1.402846456692914
 20
1.315125984251969
 30
0.0
 10
1.402846456692914
 20
1.315125984251969
 30
0.0
 10
1.522248031496063
 20
1.542968503937008
 30
0.0
 10
1.61194094488189
 20
1.927598425196851
 30
0.0
 10
1.771535433070866
 20
1.948767716535433
 30
0.0
 10
1.771535433070866
 20
1.948767716535433
 30
0.0
 10
1.784192913385827
 20
1.876259842519685
 30
0.0
 10
1.669314960629921
 20
1.622944881889764
 30
0.0
 10
1.618216535433071
 20
1.460011811023622
 30
0.0
 10
1.618216535433071
 20
1.460011811023622
 30
0.0
 10
1.549409448818898
 20
1.298996062992126
 30
0.0
 10
1.582570866141732
 20
1.123047244094488
 30
0.0
 10
1.564755905511811
 20
0.9545708661417324
 30
0.0
 10
1.564755905511811
 20
0.9545708661417324
 30
0.0
 10
1.548255905511811
 20
0.8272165354330709
 30
0.0
 10
1.517295275590551
 20
0.789740157480315
 30
0.0
 10
1.554287401574803
 20
0.5890078740157481
 30
0.0
 10
1.554287401574803
 20
0.5890078740157481
 30
0.0
 10
1.008767716535433
 20
0.351503937007874
 30
0.0
 10
1.101311023622047
 20
0.4622952755905512
 30
0.0
 10
0.8820433070866142
 20
0.4320511811023622
 30
0.0
  0
SPLINE
  5
6D
330
1F
100
AcDbEntity
  8
Layer 1
 62
   250
370
     5
100
AcDbSpline
210
0.0
220
0.0
230
1.0
 70
    11
 71
     3
 72
    24
 73
    20
 74
     0
 42
0.0000000001
 43
0.0000000001
 40
0.0
 40
0.0
 40
0.0
 40
0.0
 40
0.2
 40
0.2
 40
0.2
 40
0.2
 40
0.4
 40
0.4
 40
0.4
 40
0.4
 40
0.6000000000000001
 40
0.6000000000000001
 40
0.6000000000000001
 40
0.6000000000000001
 40
0.8
 40
0.8
 40
0.8
 40
0.8
 40
1.0
 40
1.0
 40
1.0
 40
1.0
 10
0.9839645669291339
 20
-0.311259842519685
 30
0.0
 10
1.112870078740158
 20
-0.1033858267716536
 30
0.0
 10
1.161299212598425
 20
0.0366614173228347
 30
0.0
 10
1.026503937007874
 20
0.2315511811023622
 30
0.0
 10
1.026503937007874
 20
0.2315511811023622
 30
0.0
 10
1.208807086614173
 20
0.2923070866141733
 30
0.0
 10
1.382566929133858
 20
0.2320748031496063
 30
0.0
 10
1.573437007874016
 20
0.4138346456692914
 30
0.0
 10
1.573437007874016
 20
0.4138346456692914
 30
0.0
 10
1.630877952755906
 20
0.4082677165354331
 30
0.0
 10
1.513429133858268
 20
0.0838110236220472
 30
0.0
 10
1.48342125984252
 20
-0.0811968503937008
 30
0.0
 10
1.48342125984252
 20
-0.0811968503937008
 30
0.0
 10
1.458334645669291
 20
-0.2077992125984252
 30
0.0
 10
1.331456692913386
 20
-0.2769763779527559
 30
0.0
 10
1.311106299212599
 20
-0.3596811023622047
 30
0.0
 10
1.311106299212599
 20
-0.3596811023622047
 30
0.0
 10
1.311106299212599
 20
-0.3596811023622047
 30
0.0
 10
0.9839645669291339
 20
-0.311259842519685
 30
0.0
 10
0.9839645669291339
 20
-0.311259842519685
 30
0.0
  0
SPLINE
  5
6E
330
1F
100
AcDbEntity
  8
Layer 1
 62
   250
370
     5
100
AcDbSpline
210
0.0
220
0.0
230
1.0
 70
    11
 71
     3
 72
    20
 73
    16
 74
     0
 42
0.0000000001
 43
0.0000000001
 40
0.0
 40
0.0
 40
0.0
 40
0.0
 40
0.25
 40
0.25
 40
0.25
 40
0.25
 40
0.5
 40
0.5
 40
0.5
 40
0.5
 40
0.75
 40
0.75
 40
0.75
 40
0.75
 40
1.0
 40
1.0
 40
1.0
 40
1.0
 10
-7.616007874015748
 20
4.062799212598425
 30
0.0
 10
-7.715500000000001
 20
4.198866141732284
 30
0.0
 10
-7.724594488188977
 20
4.367866141732284
 30
0.0
 10
-7.668145669291339
 20
4.524775590551181
 30
0.0
 10
-7.668145669291339
 20
4.524775590551181
 30
0.0
 10
-7.668145669291339
 20
4.524775590551181
 30
0.0
 10
-7.378023622047245
 20
4.524775590551181
 30
0.0
 10
-7.378023622047245
 20
4.524775590551181
 30
0.0
 10
-7.378023622047245
 20
4.524775590551181
 30
0.0
 10
-7.348070866141732
 20
4.236338582677165
 30
0.0
 10
-7.178484251968504
 20
3.951106299212599
 30
0.0
 10
-7.102338582677166
 20
3.823956692913386
 30
0.0
 10
-7.102338582677166
 20
3.823956692913386
 30
0.0
 10
-7.301866141732284
 20
3.831937007874016
 30
0.0
 10
-7.469767716535434
 20
3.919972440944882
 30
0.0
 10
-7.616007874015748
 20
4.062799212598425
 30
0.0
  0
SPLINE
  5
6F
330
1F
100
AcDbEntity
  8
Layer 1
 62
   250
370
     5
100
AcDbSpline
210
0.0
220
0.0
230
1.0
 70
    11
 71
     3
 72
    20
 73
    16
 74
     0
 42
0.0000000001
 43
0.0000000001
 40
0.0
 40
0.0
 40
0.0
 40
0.0
 40
0.25
 40
0.25
 40
0.25
 40
0.25
 40
0.5
 40
0.5
 40
0.5
 40
0.5
 40
0.75
 40
0.75
 40
0.75
 40
0.75
 40
1.0
 40
1.0
 40
1.0
 40
1.0
 10
-7.020074803149607
 20
3.986720472440945
 30
0.0
 10
-7.07236220472441
 20
4.150551181102363
 30
0.0
 10
-7.132523622047245
 20
4.309637795275591
 30
0.0
 10
-7.198614173228346
 20
4.465200787401575
 30
0.0
 10
-7.198614173228346
 20
4.465200787401575
 30
0.0
 10
-7.209531496062993
 20
4.485874015748031
 30
0.0
 10
-7.219090551181103
 20
4.505700787401575
 30
0.0
 10
-7.227311023622048
 20
4.524775590551181
 30
0.0
 10
-7.227311023622048
 20
4.524775590551181
 30
0.0
 10
-7.227311023622048
 20
4.524775590551181
 30
0.0
 10
-6.877590551181102
 20
4.524775590551181
 30
0.0
 10
-6.877590551181102
 20
4.524775590551181
 30
0.0
 10
-6.877590551181102
 20
4.524775590551181
 30
0.0
 10
-6.878133858267717
 20
4.288377952755906
 30
0.0
 10
-6.924870078740158
 20
4.053889763779528
 30
0.0
 10
-7.020074803149607
 20
3.986720472440945
 30
0.0
  0
SPLINE
  5
70
330
1F
100
AcDbEntity
  8
Layer 1
 62
   250
370
     5
100
AcDbSpline
210
0.0
220
0.0
230
1.0
 70
    11
 71
     3
 72
    24
 73
    20
 74
     0
 42
0.0000000001
 43
0.0000000001
 40
0.0
 40
0.0
 40
0.0
 40
0.0
 40
0.2
 40
0.2
 40
0.2
 40
0.2
 40
0.4
 40
0.4
 40
0.4
 40
0.4
 40
0.6000000000000001
 40
0.6000000000000001
 40
0.6000000000000001
 40
0.6000000000000001
 40
0.8
 40
0.8
 40
0.8
 40
0.8
 40
1.0
 40
1.0
 40
1.0
 40
1.0
 10
-6.669448818897638
 20
4.524775590551181
 30
0.0
 10
-6.669448818897638
 20
4.524775590551181
 30
0.0
 10
-6.470696850393702
 20
4.524775590551181
 30
0.0
 10
-6.470696850393702
 20
4.524775590551181
 30
0.0
 10
-6.470696850393702
 20
4.524775590551181
 30
0.0
 10
-6.2895
 20
4.339074803149607
 30
0.0
 10
-6.198251968503937
 20
3.938511811023622
 30
0.0
 10
-6.396866141732284
 20
3.694917322834646
 30
0.0
 10
-6.396866141732284
 20
3.694917322834646
 30
0.0
 10
-6.507598425196851
 20
3.588185039370079
 30
0.0
 10
-6.561377952755906
 20
3.480531496062992
 30
0.0
 10
-6.685472440944882
 20
3.378051181102362
 30
0.0
 10
-6.685472440944882
 20
3.378051181102362
 30
0.0
 10
-6.72194094488189
 20
3.551007874015748
 30
0.0
 10
-6.791185039370079
 20
3.67761811023622
 30
0.0
 10
-6.882826771653543
 20
3.77251968503937
 30
0.0
 10
-6.882826771653543
 20
3.77251968503937
 30
0.0
 10
-6.752452755905512
 20
3.991444881889764
 30
0.0
 10
-6.674149606299213
 20
4.238330708661418
 30
0.0
 10
-6.669448818897638
 20
4.524775590551181
 30
0.0
  0
SPLINE
  5
71
330
1F
100
AcDbEntity
  8
Layer 1
 62
   250
370
     5
100
AcDbSpline
210
0.0
220
0.0
230
1.0
 70
    11
 71
     3
 72
    32
 73
    28
 74
     0
 42
0.0000000001
 43
0.0000000001
 40
0.0
 40
0.0
 40
0.0
 40
0.0
 40
0.1428571428571429
 40
0.1428571428571429
 40
0.1428571428571429
 40
0.1428571428571429
 40
0.2857142857142857
 40
0.2857142857142857
 40
0.2857142857142857
 40
0.2857142857142857
 40
0.4285714285714286
 40
0.4285714285714286
 40
0.4285714285714286
 40
0.4285714285714286
 40
0.5714285714285714
 40
0.5714285714285714
 40
0.5714285714285714
 40
0.5714285714285714
 40
0.7142857142857142
 40
0.7142857142857142
 40
0.7142857142857142
 40
0.7142857142857142
 40
0.857142857142857
 40
0.857142857142857
 40
0.857142857142857
 40
0.857142857142857
 40
1.0
 40
1.0
 40
1.0
 40
1.0
 10
-6.388811023622048
 20
3.292732283464567
 30
0.0
 10
-6.378185039370079
 20
3.429374015748032
 30
0.0
 10
-6.214708661417324
 20
3.544968503937008
 30
0.0
 10
-6.008413385826772
 20
3.654692913385827
 30
0.0
 10
-6.008413385826772
 20
3.654692913385827
 30
0.0
 10
-5.956590551181103
 20
3.628566929133859
 30
0.0
 10
-5.893251968503937
 20
3.612074803149607
 30
0.0
 10
-5.798200787401575
 20
3.622149606299213
 30
0.0
 10
-5.798200787401575
 20
3.622149606299213
 30
0.0
 10
-5.706551181102363
 20
3.663366141732284
 30
0.0
 10
-5.643177165354331
 20
3.579484251968504
 30
0.0
 10
-5.507515748031496
 20
3.58607874015748
 30
0.0
 10
-5.507515748031496
 20
3.58607874015748
 30
0.0
 10
-5.335429133858268
 20
3.585834645669292
 30
0.0
 10
-5.125291338582677
 20
3.638303149606299
 30
0.0
 10
-4.967000000000001
 20
3.561015748031496
 30
0.0
 10
-4.967000000000001
 20
3.561015748031496
 30
0.0
 10
-5.134811023622047
 20
3.506366141732284
 30
0.0
 10
-5.159700787401575
 20
3.451539370078741
 30
0.0
 10
-5.234669291338583
 20
3.367582677165355
 30
0.0
 10
-5.234669291338583
 20
3.367582677165355
 30
0.0
 10
-5.36198031496063
 20
3.22501968503937
 30
0.0
 10
-5.565366141732284
 20
3.072771653543307
 30
0.0
 10
-5.893681102362205
 20
3.187728346456693
 30
0.0
 10
-5.893681102362205
 20
3.187728346456693
 30
0.0
 10
-6.058732283464567
 20
3.222724409448819
 30
0.0
 10
-6.137122047244095
 20
3.313740157480315
 30
0.0
 10
-6.388811023622048
 20
3.292732283464567
 30
0.0
  0
SPLINE
  5
72
330
1F
100
AcDbEntity
  8
Layer 1
 62
   250
370
     5
100
AcDbSpline
210
0.0
220
0.0
230
1.0
 70
    11
 71
     3
 72
    20
 73
    16
 74
     0
 42
0.0000000001
 43
0.0000000001
 40
0.0
 40
0.0
 40
0.0
 40
0.0
 40
0.25
 40
0.25
 40
0.25
 40
0.25
 40
0.5
 40
0.5
 40
0.5
 40
0.5
 40
0.75
 40
0.75
 40
0.75
 40
0.75
 40
1.0
 40
1.0
 40
1.0
 40
1.0
 10
-5.10646062992126
 20
3.26988188976378
 30
0.0
 10
-4.982476377952756
 20
3.416208661417323
 30
0.0
 10
-4.839389763779527
 20
3.529956692913386
 30
0.0
 10
-4.661641732283465
 20
3.584444881889764
 30
0.0
 10
-4.661641732283465
 20
3.584444881889764
 30
0.0
 10
-4.674251968503937
 20
3.460259842519685
 30
0.0
 10
-4.714559055118111
 20
3.31192125984252
 30
0.0
 10
-4.773846456692914
 20
3.147031496062992
 30
0.0
 10
-4.773846456692914
 20
3.147031496062992
 30
0.0
 10
-4.850838582677166
 20
2.913295275590552
 30
0.0
 10
-5.348917322834646
 20
2.889622047244095
 30
0.0
 10
-5.576366141732284
 20
2.999452755905512
 30
0.0
 10
-5.576366141732284
 20
2.999452755905512
 30
0.0
 10
-5.371370078740157
 20
3.047933070866142
 30
0.0
 10
-5.216228346456693
 20
3.13936220472441
 30
0.0
 10
-5.10646062992126
 20
3.26988188976378
 30
0.0
  0
SPLINE
  5
73
330
1F
100
AcDbEntity
  8
Layer 1
 62
   250
370
     5
100
AcDbSpline
210
0.0
220
0.0
230
1.0
 70
    11
 71
     3
 72
    32
 73
    28
 74
     0
 42
0.0000000001
 43
0.0000000001
 40
0.0
 40
0.0
 40
0.0
 40
0.0
 40
0.1428571428571429
 40
0.1428571428571429
 40
0.1428571428571429
 40
0.1428571428571429
 40
0.2857142857142857
 40
0.2857142857142857
 40
0.2857142857142857
 40
0.2857142857142857
 40
0.4285714285714286
 40
0.4285714285714286
 40
0.4285714285714286
 40
0.4285714285714286
 40
0.5714285714285714
 40
0.5714285714285714
 40
0.5714285714285714
 40
0.5714285714285714
 40
0.7142857142857142
 40
0.7142857142857142
 40
0.7142857142857142
 40
0.7142857142857142
 40
0.857142857142857
 40
0.857142857142857
 40
0.857142857142857
 40
0.857142857142857
 40
1.0
 40
1.0
 40
1.0
 40
1.0
 10
-1.172917322834646
 20
-1.908917322834646
 30
0.0
 10
-1.172917322834646
 20
-1.908917322834646
 30
0.0
 10
-1.066830708661417
 20
-1.537
 30
0.0
 10
-1.066830708661417
 20
-1.537
 30
0.0
 10
-1.066830708661417
 20
-1.537
 30
0.0
 10
-0.9632716535433071
 20
-1.507885826771654
 30
0.0
 10
-0.8776850393700788
 20
-1.548976377952756
 30
0.0
 10
-0.8084566929133858
 20
-1.65394094488189
 30
0.0
 10
-0.8084566929133858
 20
-1.65394094488189
 30
0.0
 10
-0.8084566929133858
 20
-1.65394094488189
 30
0.0
 10
-0.8903188976377953
 20
-2.203110236220473
 30
0.0
 10
-0.8903188976377953
 20
-2.203110236220473
 30
0.0
 10
-0.8903188976377953
 20
-2.203110236220473
 30
0.0
 10
-0.9342244094488189
 20
-2.033771653543307
 30
0.0
 10
-1.037492125984252
 20
-2.150326771653544
 30
0.0
 10
-1.038267716535433
 20
-1.819751968503937
 30
0.0
 10
-1.038267716535433
 20
-1.819751968503937
 30
0.0
 10
-1.038267716535433
 20
-1.819751968503937
 30
0.0
 10
-1.090047244094488
 20
-1.814850393700787
 30
0.0
 10
-1.090047244094488
 20
-1.814850393700787
 30
0.0
 10
-1.090047244094488
 20
-1.814850393700787
 30
0.0
 10
-1.090047244094488
 20
-1.814850393700787
 30
0.0
 10
-1.10396062992126
 20
-1.890653543307087
 30
0.0
 10
-1.10396062992126
 20
-1.890653543307087
 30
0.0
 10
-1.10396062992126
 20
-1.890653543307087
 30
0.0
 10
-1.10396062992126
 20
-1.890653543307087
 30
0.0
 10
-1.172917322834646
 20
-1.908917322834646
 30
0.0
 10
-1.172917322834646
 20
-1.908917322834646
 30
0.0
  0
SPLINE
  5
74
330
1F
100
AcDbEntity
  8
Layer 1
 62
   250
370
     5
100
AcDbSpline
210
0.0
220
0.0
230
1.0
 70
    11
 71
     3
 72
    20
 73
    16
 74
     0
 42
0.0000000001
 43
0.0000000001
 40
0.0
 40
0.0
 40
0.0
 40
0.0
 40
0.25
 40
0.25
 40
0.25
 40
0.25
 40
0.5
 40
0.5
 40
0.5
 40
0.5
 40
0.75
 40
0.75
 40
0.75
 40
0.75
 40
1.0
 40
1.0
 40
1.0
 40
1.0
 10
-10.21985826771654
 20
3.097893700787402
 30
0.0
 10
-10.15446850393701
 20
3.235937007874016
 30
0.0
 10
-10.23840157480315
 20
3.450933070866142
 30
0.0
 10
-10.02373228346457
 20
3.512043307086614
 30
0.0
 10
-10.02373228346457
 20
3.512043307086614
 30
0.0
 10
-10.02373228346457
 20
3.512043307086614
 30
0.0
 10
-9.874165354330708
 20
3.53290157480315
 30
0.0
 10
-9.874165354330708
 20
3.53290157480315
 30
0.0
 10
-9.874165354330708
 20
3.53290157480315
 30
0.0
 10
-9.729177165354331
 20
3.249417322834646
 30
0.0
 10
-9.741027559055118
 20
3.023409448818898
 30
0.0
 10
-9.610598425196852
 20
2.707968503937008
 30
0.0
 10
-9.610598425196852
 20
2.707968503937008
 30
0.0
 10
-9.966637795275592
 20
2.798874015748031
 30
0.0
 10
-9.955393700787402
 20
2.969527559055118
 30
0.0
 10
-10.21985826771654
 20
3.097893700787402
 30
0.0
  0
SPLINE
  5
75
330
1F
100
AcDbEntity
  8
Layer 1
 62
   250
370
     5
100
AcDbSpline
210
0.0
220
0.0
230
1.0
 70
    11
 71
     3
 72
    20
 73
    16
 74
     0
 42
0.0000000001
 43
0.0000000001
 40
0.0
 40
0.0
 40
0.0
 40
0.0
 40
0.25
 40
0.25
 40
0.25
 40
0.25
 40
0.5
 40
0.5
 40
0.5
 40
0.5
 40
0.75
 40
0.75
 40
0.75
 40
0.75
 40
1.0
 40
1.0
 40
1.0
 40
1.0
 10
-9.22207874015748
 20
2.24913779527559
 30
0.0
 10
-9.249492125984252
 20
2.670212598425197
 30
0.0
 10
-8.705622047244095
 20
3.004905511811024
 30
0.0
 10
-8.467330708661418
 20
2.834133858267717
 30
0.0
 10
-8.467330708661418
 20
2.834133858267717
 30
0.0
 10
-8.667673228346457
 20
2.576405511811024
 30
0.0
 10
-8.762492125984252
 20
2.302326771653544
 30
0.0
 10
-8.785114173228347
 20
2.017094488188977
 30
0.0
 10
-8.785114173228347
 20
2.017094488188977
 30
0.0
 10
-8.913578740157481
 20
1.99603937007874
 30
0.0
 10
-9.042102362204725
 20
1.935783464566929
 30
0.0
 10
-9.170759842519685
 20
1.818240157480315
 30
0.0
 10
-9.170759842519685
 20
1.818240157480315
 30
0.0
 10
-9.212208661417323
 20
1.976244094488189
 30
0.0
 10
-9.193874015748031
 20
2.095775590551181
 30
0.0
 10
-9.22207874015748
 20
2.24913779527559
 30
0.0
  0
SPLINE
  5
76
330
1F
100
AcDbEntity
  8
Layer 1
 62
   250
370
     5
100
AcDbSpline
210
0.0
220
0.0
230
1.0
 70
    11
 71
     3
 72
    20
 73
    16
 74
     0
 42
0.0000000001
 43
0.0000000001
 40
0.0
 40
0.0
 40
0.0
 40
0.0
 40
0.25
 40
0.25
 40
0.25
 40
0.25
 40
0.5
 40
0.5
 40
0.5
 40
0.5
 40
0.75
 40
0.75
 40
0.75
 40
0.75
 40
1.0
 40
1.0
 40
1.0
 40
1.0
 10
-7.453448818897638
 20
0.6269685039370079
 30
0.0
 10
-7.286665354330709
 20
1.129362204724409
 30
0.0
 10
-6.483913385826772
 20
1.497535433070866
 30
0.0
 10
-6.189606299212599
 20
1.389177165354331
 30
0.0
 10
-6.189606299212599
 20
1.389177165354331
 30
0.0
 10
-6.262177165354331
 20
1.269677165354331
 30
0.0
 10
-6.209645669291339
 20
1.217015748031496
 30
0.0
 10
-6.219649606299213
 20
1.130944881889764
 30
0.0
 10
-6.219649606299213
 20
1.130944881889764
 30
0.0
 10
-6.23194094488189
 20
0.8311417322834646
 30
0.0
 10
-6.483988188976379
 20
0.6803622047244095
 30
0.0
 10
-6.795212598425197
 20
0.752236220472441
 30
0.0
 10
-6.795212598425197
 20
0.752236220472441
 30
0.0
 10
-7.021153543307087
 20
0.7687086614173229
 30
0.0
 10
-7.2388031496063
 20
0.7112165354330708
 30
0.0
 10
-7.453448818897638
 20
0.6269685039370079
 30
0.0
  0
SPLINE
  5
77
330
1F
100
AcDbEntity
  8
Layer 1
 62
   250
370
     5
100
AcDbSpline
210
0.0
220
0.0
230
1.0
 70
    11
 71
     3
 72
    32
 73
    28
 74
     0
 42
0.0000000001
 43
0.0000000001
 40
0.0
 40
0.0
 40
0.0
 40
0.0
 40
0.1428571428571429
 40
0.1428571428571429
 40
0.1428571428571429
 40
0.1428571428571429
 40
0.2857142857142857
 40
0.2857142857142857
 40
0.2857142857142857
 40
0.2857142857142857
 40
0.4285714285714286
 40
0.4285714285714286
 40
0.4285714285714286
 40
0.4285714285714286
 40
0.5714285714285714
 40
0.5714285714285714
 40
0.5714285714285714
 40
0.5714285714285714
 40
0.7142857142857142
 40
0.7142857142857142
 40
0.7142857142857142
 40
0.7142857142857142
 40
0.857142857142857
 40
0.857142857142857
 40
0.857142857142857
 40
0.857142857142857
 40
1.0
 40
1.0
 40
1.0
 40
1.0
 10
-5.861669291338583
 20
0.6861614173228346
 30
0.0
 10
-5.643937007874016
 20
0.5546653543307087
 30
0.0
 10
-5.534846456692914
 20
0.6015433070866142
 30
0.0
 10
-5.371433070866142
 20
0.5592362204724409
 30
0.0
 10
-5.371433070866142
 20
0.5592362204724409
 30
0.0
 10
-5.027141732283464
 20
0.5159055118110236
 30
0.0
 10
-4.908429133858268
 20
0.2878543307086615
 30
0.0
 10
-4.854102362204725
 20
0.1025314960629921
 30
0.0
 10
-4.854102362204725
 20
0.1025314960629921
 30
0.0
 10
-4.822114173228346
 20
-0.0065866141732283
 30
0.0
 10
-4.822897637795276
 20
-0.0671023622047244
 30
0.0
 10
-4.69492125984252
 20
-0.1913622047244095
 30
0.0
 10
-4.69492125984252
 20
-0.1913622047244095
 30
0.0
 10
-4.870149606299213
 20
-0.1901417322834646
 30
0.0
 10
-5.037181102362205
 20
-0.0489133858267717
 30
0.0
 10
-5.192212598425197
 20
0.0278346456692913
 30
0.0
 10
-5.192212598425197
 20
0.0278346456692913
 30
0.0
 10
-5.31157874015748
 20
0.0944488188976378
 30
0.0
 10
-5.404125984251968
 20
0.047255905511811
 30
0.0
 10
-5.469220472440945
 20
0.1253700787401575
 30
0.0
 10
-5.469220472440945
 20
0.1253700787401575
 30
0.0
 10
-5.550551181102362
 20
0.1769724409448819
 30
0.0
 10
-5.614535433070866
 20
0.1904291338582677
 30
0.0
 10
-5.672271653543307
 20
0.1901023622047244
 30
0.0
 10
-5.672271653543307
 20
0.1901023622047244
 30
0.0
 10
-5.811602362204725
 20
0.3811614173228347
 30
0.0
 10
-5.909897637795276
 20
0.5583779527559055
 30
0.0
 10
-5.861669291338583
 20
0.6861614173228346
 30
0.0
  0
SPLINE
  5
78
330
1F
100
AcDbEntity
  8
Layer 1
 62
   250
370
     5
100
AcDbSpline
210
0.0
220
0.0
230
1.0
 70
    11
 71
     3
 72
    20
 73
    16
 74
     0
 42
0.0000000001
 43
0.0000000001
 40
0.0
 40
0.0
 40
0.0
 40
0.0
 40
0.25
 40
0.25
 40
0.25
 40
0.25
 40
0.5
 40
0.5
 40
0.5
 40
0.5
 40
0.75
 40
0.75
 40
0.75
 40
0.75
 40
1.0
 40
1.0
 40
1.0
 40
1.0
 10
-4.429870078740158
 20
-0.3490314960629922
 30
0.0
 10
-4.566870078740157
 20
-0.2204606299212598
 30
0.0
 10
-4.647590551181103
 20
-0.0540551181102362
 30
0.0
 10
-4.697326771653543
 20
0.1331732283464567
 30
0.0
 10
-4.697326771653543
 20
0.1331732283464567
 30
0.0
 10
-4.740933070866142
 20
0.2997874015748032
 30
0.0
 10
-4.841964566929134
 20
0.4515039370078741
 30
0.0
 10
-5.006047244094488
 20
0.5868425196850394
 30
0.0
 10
-5.006047244094488
 20
0.5868425196850394
 30
0.0
 10
-4.754779527559055
 20
0.5840157480314961
 30
0.0
 10
-4.316307086614174
 20
0.3399212598425197
 30
0.0
 10
-4.345846456692914
 20
0.095
 30
0.0
 10
-4.345846456692914
 20
0.095
 30
0.0
 10
-4.362220472440945
 20
-0.0799685039370079
 30
0.0
 10
-4.388673228346457
 20
-0.2315708661417323
 30
0.0
 10
-4.429870078740158
 20
-0.3490314960629922
 30
0.0
  0
SPLINE
  5
79
330
1F
100
AcDbEntity
  8
Layer 1
 62
   250
370
     5
100
AcDbSpline
210
0.0
220
0.0
230
1.0
 70
    11
 71
     3
 72
    20
 73
    16
 74
     0
 42
0.0000000001
 43
0.0000000001
 40
0.0
 40
0.0
 40
0.0
 40
0.0
 40
0.25
 40
0.25
 40
0.25
 40
0.25
 40
0.5
 40
0.5
 40
0.5
 40
0.5
 40
0.75
 40
0.75
 40
0.75
 40
0.75
 40
1.0
 40
1.0
 40
1.0
 40
1.0
 10
-6.509476377952757
 20
0.4750905511811024
 30
0.0
 10
-6.386791338582677
 20
0.5195472440944882
 30
0.0
 10
-6.270893700787402
 20
0.6025944881889764
 30
0.0
 10
-6.164885826771654
 20
0.7420078740157481
 30
0.0
 10
-6.164885826771654
 20
0.7420078740157481
 30
0.0
 10
-6.0965
 20
0.5942322834645669
 30
0.0
 10
-6.093625984251969
 20
0.473251968503937
 30
0.0
 10
-6.039051181102362
 20
0.3276181102362205
 30
0.0
 10
-6.039051181102362
 20
0.3276181102362205
 30
0.0
 10
-5.93846062992126
 20
-0.0815236220472441
 30
0.0
 10
-6.414937007874016
 20
-0.5113149606299213
 30
0.0
 10
-6.679208661417323
 20
-0.3873897637795276
 30
0.0
 10
-6.679208661417323
 20
-0.3873897637795276
 30
0.0
 10
-6.527192913385827
 20
-0.0968070866141732
 30
0.0
 10
-6.481846456692914
 20
0.1903267716535433
 30
0.0
 10
-6.509476377952757
 20
0.4750905511811024
 30
0.0
  0
SPLINE
  5
7A
330
1F
100
AcDbEntity
  8
Layer 1
 62
   250
370
     5
100
AcDbSpline
210
0.0
220
0.0
230
1.0
 70
    11
 71
     3
 72
    20
 73
    16
 74
     0
 42
0.0000000001
 43
0.0000000001
 40
0.0
 40
0.0
 40
0.0
 40
0.0
 40
0.25
 40
0.25
 40
0.25
 40
0.25
 40
0.5
 40
0.5
 40
0.5
 40
0.5
 40
0.75
 40
0.75
 40
0.75
 40
0.75
 40
1.0
 40
1.0
 40
1.0
 40
1.0
 10
-5.576622047244094
 20
-0.0519015748031496
 30
0.0
 10
-5.210492125984252
 20
-0.075503937007874
 30
0.0
 10
-5.191732283464567
 20
-0.2454645669291339
 30
0.0
 10
-4.909125984251968
 20
-0.3228385826771654
 30
0.0
 10
-4.909125984251968
 20
-0.3228385826771654
 30
0.0
 10
-4.949287401574804
 20
-0.4707165354330709
 30
0.0
 10
-4.829137795275591
 20
-0.6666850393700787
 30
0.0
 10
-5.029614173228347
 20
-0.7665118110236221
 30
0.0
 10
-5.029614173228347
 20
-0.7665118110236221
 30
0.0
 10
-5.029614173228347
 20
-0.7665118110236221
 30
0.0
 10
-5.173078740157481
 20
-0.8146653543307088
 30
0.0
 10
-5.173078740157481
 20
-0.8146653543307088
 30
0.0
 10
-5.173078740157481
 20
-0.8146653543307088
 30
0.0
 10
-5.365307086614173
 20
-0.5626023622047245
 30
0.0
 10
-5.393161417322835
 20
-0.3380944881889764
 30
0.0
 10
-5.576622047244094
 20
-0.0519015748031496
 30
0.0
  0
SPLINE
  5
7B
330
1F
100
AcDbEntity
  8
Layer 1
 62
   250
370
     5
100
AcDbSpline
210
0.0
220
0.0
230
1.0
 70
    11
 71
     3
 72
    24
 73
    20
 74
     0
 42
0.0000000001
 43
0.0000000001
 40
0.0
 40
0.0
 40
0.0
 40
0.0
 40
0.2
 40
0.2
 40
0.2
 40
0.2
 40
0.4
 40
0.4
 40
0.4
 40
0.4
 40
0.6000000000000001
 40
0.6000000000000001
 40
0.6000000000000001
 40
0.6000000000000001
 40
0.8
 40
0.8
 40
0.8
 40
0.8
 40
1.0
 40
1.0
 40
1.0
 40
1.0
 10
-4.739311023622047
 20
-0.4218385826771654
 30
0.0
 10
-4.739311023622047
 20
-0.4218385826771654
 30
0.0
 10
-4.419543307086614
 20
-0.5077834645669291
 30
0.0
 10
-4.419543307086614
 20
-0.5077834645669291
 30
0.0
 10
-4.419543307086614
 20
-0.5077834645669291
 30
0.0
 10
-4.432019685039371
 20
-0.5921023622047245
 30
0.0
 10
-4.341181102362205
 20
-0.7065039370078741
 30
0.0
 10
-4.36586220472441
 20
-0.8331850393700788
 30
0.0
 10
-4.36586220472441
 20
-0.8331850393700788
 30
0.0
 10
-4.400496062992127
 20
-0.997240157480315
 30
0.0
 10
-4.414736220472441
 20
-1.343125984251969
 30
0.0
 10
-4.469771653543307
 20
-1.325330708661417
 30
0.0
 10
-4.469771653543307
 20
-1.325330708661417
 30
0.0
 10
-4.577055118110237
 20
-1.081657480314961
 30
0.0
 10
-4.75994094488189
 20
-1.067818897637795
 30
0.0
 10
-4.905023622047244
 20
-0.9390669291338583
 30
0.0
 10
-4.905023622047244
 20
-0.9390669291338583
 30
0.0
 10
-4.707240157480316
 20
-0.813255905511811
 30
0.0
 10
-4.698996062992126
 20
-0.6648582677165354
 30
0.0
 10
-4.739311023622047
 20
-0.4218385826771654
 30
0.0
  0
SPLINE
  5
7C
330
1F
100
AcDbEntity
  8
Layer 1
 62
   250
370
     5
100
AcDbSpline
210
0.0
220
0.0
230
1.0
 70
    11
 71
     3
 72
    20
 73
    16
 74
     0
 42
0.0000000001
 43
0.0000000001
 40
0.0
 40
0.0
 40
0.0
 40
0.0
 40
0.25
 40
0.25
 40
0.25
 40
0.25
 40
0.5
 40
0.5
 40
0.5
 40
0.5
 40
0.75
 40
0.75
 40
0.75
 40
0.75
 40
1.0
 40
1.0
 40
1.0
 40
1.0
 10
-8.5525
 20
1.691657480314961
 30
0.0
 10
-8.333122047244094
 20
1.633657480314961
 30
0.0
 10
-8.10896062992126
 20
1.649984251968504
 30
0.0
 10
-7.883090551181103
 20
1.693169291338583
 30
0.0
 10
-7.883090551181103
 20
1.693169291338583
 30
0.0
 10
-8.134992125984253
 20
1.229799212598425
 30
0.0
 10
-8.989051181102363
 20
1.016043307086614
 30
0.0
 10
-9.259633858267717
 20
1.177055118110236
 30
0.0
 10
-9.259633858267717
 20
1.177055118110236
 30
0.0
 10
-9.16734251968504
 20
1.281181102362205
 30
0.0
 10
-9.209814960629922
 20
1.342704724409449
 30
0.0
 10
-9.184909448818898
 20
1.425515748031496
 30
0.0
 10
-9.184909448818898
 20
1.425515748031496
 30
0.0
 10
-9.12040157480315
 20
1.718153543307087
 30
0.0
 10
-8.846082677165354
 20
1.819870078740158
 30
0.0
 10
-8.5525
 20
1.691657480314961
 30
0.0
  0
SPLINE
  5
7D
330
1F
100
AcDbEntity
  8
Layer 1
 62
   250
370
     5
100
AcDbSpline
210
0.0
220
0.0
230
1.0
 70
    11
 71
     3
 72
    16
 73
    12
 74
     0
 42
0.0000000001
 43
0.0000000001
 40
0.0
 40
0.0
 40
0.0
 40
0.0
 40
0.3333333333333333
 40
0.3333333333333333
 40
0.3333333333333333
 40
0.3333333333333333
 40
0.6666666666666666
 40
0.6666666666666666
 40
0.6666666666666666
 40
0.6666666666666666
 40
1.0
 40
1.0
 40
1.0
 40
1.0
 10
-7.292456692913386
 20
0.5416535433070866
 30
0.0
 10
-7.100354330708662
 20
0.6048503937007874
 30
0.0
 10
-6.91192125984252
 20
0.6090196850393701
 30
0.0
 10
-6.728881889763779
 20
0.5269645669291339
 30
0.0
 10
-6.728881889763779
 20
0.5269645669291339
 30
0.0
 10
-6.910700787401575
 20
0.4074488188976378
 30
0.0
 10
-7.425996062992127
 20
0.0658858267716535
 30
0.0
 10
-7.371055118110236
 20
-0.3822007874015748
 30
0.0
 10
-7.371055118110236
 20
-0.3822007874015748
 30
0.0
 10
-7.612751968503937
 20
-0.0781102362204724
 30
0.0
 10
-7.595881889763779
 20
0.3807795275590551
 30
0.0
 10
-7.292456692913386
 20
0.5416535433070866
 30
0.0
  0
SPLINE
  5
7E
330
1F
100
AcDbEntity
  8
Layer 1
 62
   250
370
     5
100
AcDbSpline
210
0.0
220
0.0
230
1.0
 70
    11
 71
     3
 72
    20
 73
    16
 74
     0
 42
0.0000000001
 43
0.0000000001
 40
0.0
 40
0.0
 40
0.0
 40
0.0
 40
0.25
 40
0.25
 40
0.25
 40
0.25
 40
0.5
 40
0.5
 40
0.5
 40
0.5
 40
0.75
 40
0.75
 40
0.75
 40
0.75
 40
1.0
 40
1.0
 40
1.0
 40
1.0
 10
-7.086846456692913
 20
-0.0073543307086614
 30
0.0
 10
-6.961531496062992
 20
0.1031299212598425
 30
0.0
 10
-6.840062992125985
 20
0.2194803149606299
 30
0.0
 10
-6.723669291338583
 20
0.3436259842519685
 30
0.0
 10
-6.723669291338583
 20
0.3436259842519685
 30
0.0
 10
-6.663791338582677
 20
0.2359291338582677
 30
0.0
 10
-6.728814960629921
 20
-0.0125
 30
0.0
 10
-6.836602362204725
 20
-0.2330590551181103
 30
0.0
 10
-6.836602362204725
 20
-0.2330590551181103
 30
0.0
 10
-6.901748031496063
 20
-0.3646220472440945
 30
0.0
 10
-7.008736220472441
 20
-0.4728149606299213
 30
0.0
 10
-7.17688188976378
 20
-0.5468622047244095
 30
0.0
 10
-7.17688188976378
 20
-0.5468622047244095
 30
0.0
 10
-7.305807086614173
 20
-0.3109291338582677
 30
0.0
 10
-7.30653937007874
 20
-0.169740157480315
 30
0.0
 10
-7.086846456692913
 20
-0.0073543307086614
 30
0.0
  0
SPLINE
  5
7F
330
1F
100
AcDbEntity
  8
Layer 1
 62
   250
370
     5
100
AcDbSpline
210
0.0
220
0.0
230
1.0
 70
    11
 71
     3
 72
    24
 73
    20
 74
     0
 42
0.0000000001
 43
0.0000000001
 40
0.0
 40
0.0
 40
0.0
 40
0.0
 40
0.2
 40
0.2
 40
0.2
 40
0.2
 40
0.4
 40
0.4
 40
0.4
 40
0.4
 40
0.6000000000000001
 40
0.6000000000000001
 40
0.6000000000000001
 40
0.6000000000000001
 40
0.8
 40
0.8
 40
0.8
 40
0.8
 40
1.0
 40
1.0
 40
1.0
 40
1.0
 10
-6.372433070866142
 20
-1.644224409448819
 30
0.0
 10
-6.876870078740158
 20
-1.395429133858268
 30
0.0
 10
-6.687807086614174
 20
-0.7475236220472441
 30
0.0
 10
-6.353956692913386
 20
-0.5513740157480315
 30
0.0
 10
-6.353956692913386
 20
-0.5513740157480315
 30
0.0
 10
-6.330267716535434
 20
-0.858224409448819
 30
0.0
 10
-6.304645669291339
 20
-0.8295551181102363
 30
0.0
 10
-6.246625984251969
 20
-0.9850905511811025
 30
0.0
 10
-6.246625984251969
 20
-0.9850905511811025
 30
0.0
 10
-6.227846456692913
 20
-1.019145669291339
 30
0.0
 10
-6.183952755905512
 20
-1.077295275590551
 30
0.0
 10
-6.166795275590552
 20
-1.160149606299213
 30
0.0
 10
-6.166795275590552
 20
-1.160149606299213
 30
0.0
 10
-6.119350393700787
 20
-1.389204724409449
 30
0.0
 10
-5.895712598425197
 20
-1.861897637795276
 30
0.0
 10
-5.906814960629921
 20
-1.892192913385827
 30
0.0
 10
-5.906814960629921
 20
-1.892192913385827
 30
0.0
 10
-6.052811023622048
 20
-1.780622047244095
 30
0.0
 10
-6.217228346456693
 20
-1.72688188976378
 30
0.0
 10
-6.372433070866142
 20
-1.644224409448819
 30
0.0
  0
SPLINE
  5
80
330
1F
100
AcDbEntity
  8
Layer 1
 62
   250
370
     5
100
AcDbSpline
210
0.0
220
0.0
230
1.0
 70
    11
 71
     3
 72
    20
 73
    16
 74
     0
 42
0.0000000001
 43
0.0000000001
 40
0.0
 40
0.0
 40
0.0
 40
0.0
 40
0.25
 40
0.25
 40
0.25
 40
0.25
 40
0.5
 40
0.5
 40
0.5
 40
0.5
 40
0.75
 40
0.75
 40
0.75
 40
0.75
 40
1.0
 40
1.0
 40
1.0
 40
1.0
 10
-8.52038188976378
 20
0.1446535433070866
 30
0.0
 10
-8.292909448818898
 20
0.3900590551181102
 30
0.0
 10
-7.937185039370079
 20
0.878248031496063
 30
0.0
 10
-7.837964566929134
 20
0.8808425196850394
 30
0.0
 10
-7.837964566929134
 20
0.8808425196850394
 30
0.0
 10
-7.861464566929135
 20
0.8271102362204724
 30
0.0
 10
-7.919720472440945
 20
0.7601929133858268
 30
0.0
 10
-7.953094488188977
 20
0.7070157480314961
 30
0.0
 10
-7.953094488188977
 20
0.7070157480314961
 30
0.0
 10
-8.098342519685041
 20
0.4755748031496063
 30
0.0
 10
-8.106059055118111
 20
0.2692992125984252
 30
0.0
 10
-8.053984251968505
 20
0.018496062992126
 30
0.0
 10
-8.053984251968505
 20
0.018496062992126
 30
0.0
 10
-8.205929133858268
 20
0.1458188976377953
 30
0.0
 10
-8.360925196850394
 20
0.1992283464566929
 30
0.0
 10
-8.52038188976378
 20
0.1446535433070866
 30
0.0
  0
SPLINE
  5
81
330
1F
100
AcDbEntity
  8
Layer 1
 62
   250
370
     5
100
AcDbSpline
210
0.0
220
0.0
230
1.0
 70
    11
 71
     3
 72
    24
 73
    20
 74
     0
 42
0.0000000001
 43
0.0000000001
 40
0.0
 40
0.0
 40
0.0
 40
0.0
 40
0.2
 40
0.2
 40
0.2
 40
0.2
 40
0.4
 40
0.4
 40
0.4
 40
0.4
 40
0.6000000000000001
 40
0.6000000000000001
 40
0.6000000000000001
 40
0.6000000000000001
 40
0.8
 40
0.8
 40
0.8
 40
0.8
 40
1.0
 40
1.0
 40
1.0
 40
1.0
 10
-7.103062992125985
 20
-0.6989015748031496
 30
0.0
 10
-6.954610236220473
 20
-0.6189842519685039
 30
0.0
 10
-6.792433070866142
 20
-0.5653700787401575
 30
0.0
 10
-6.603133858267717
 20
-0.5637283464566929
 30
0.0
 10
-6.603133858267717
 20
-0.5637283464566929
 30
0.0
 10
-6.693988188976379
 20
-0.6650511811023623
 30
0.0
 10
-6.769307086614173
 20
-0.7744409448818898
 30
0.0
 10
-6.828153543307087
 20
-0.8923661417322835
 30
0.0
 10
-6.828153543307087
 20
-0.8923661417322835
 30
0.0
 10
-6.861771653543308
 20
-0.9604291338582678
 30
0.0
 10
-6.88596062992126
 20
-1.029334645669291
 30
0.0
 10
-6.863736220472442
 20
-1.103952755905512
 30
0.0
 10
-6.863736220472442
 20
-1.103952755905512
 30
0.0
 10
-6.850358267716536
 20
-1.148814960629921
 30
0.0
 10
-6.829964566929134
 20
-1.195732283464567
 30
0.0
 10
-6.872291338582677
 20
-1.210492125984252
 30
0.0
 10
-6.872291338582677
 20
-1.210492125984252
 30
0.0
 10
-6.962114173228347
 20
-1.048271653543307
 30
0.0
 10
-7.047629921259843
 20
-0.8832716535433072
 30
0.0
 10
-7.103062992125985
 20
-0.6989015748031496
 30
0.0
  0
SPLINE
  5
82
330
1F
100
AcDbEntity
  8
Layer 1
 62
   250
370
     5
100
AcDbSpline
210
0.0
220
0.0
230
1.0
 70
    11
 71
     3
 72
    16
 73
    12
 74
     0
 42
0.0000000001
 43
0.0000000001
 40
0.0
 40
0.0
 40
0.0
 40
0.0
 40
0.3333333333333333
 40
0.3333333333333333
 40
0.3333333333333333
 40
0.3333333333333333
 40
0.6666666666666666
 40
0.6666666666666666
 40
0.6666666666666666
 40
0.6666666666666666
 40
1.0
 40
1.0
 40
1.0
 40
1.0
 10
-5.719444881889764
 20
-1.983992125984252
 30
0.0
 10
-5.829161417322835
 20
-1.776200787401575
 30
0.0
 10
-5.845456692913386
 20
-1.53644094488189
 30
0.0
 10
-5.725216535433071
 20
-1.249948818897638
 30
0.0
 10
-5.725216535433071
 20
-1.249948818897638
 30
0.0
 10
-5.632114173228347
 20
-1.06905905511811
 30
0.0
 10
-5.554031496062993
 20
-0.8869724409448819
 30
0.0
 10
-5.517417322834646
 20
-0.7015984251968505
 30
0.0
 10
-5.517417322834646
 20
-0.7015984251968505
 30
0.0
 10
-5.129657480314961
 20
-1.304625984251969
 30
0.0
 10
-5.13632283464567
 20
-1.755503937007874
 30
0.0
 10
-5.719444881889764
 20
-1.983992125984252
 30
0.0
  0
SPLINE
  5
83
330
1F
100
AcDbEntity
  8
Layer 1
 62
   250
370
     5
100
AcDbSpline
210
0.0
220
0.0
230
1.0
 70
    11
 71
     3
 72
    20
 73
    16
 74
     0
 42
0.0000000001
 43
0.0000000001
 40
0.0
 40
0.0
 40
0.0
 40
0.0
 40
0.25
 40
0.25
 40
0.25
 40
0.25
 40
0.5
 40
0.5
 40
0.5
 40
0.5
 40
0.75
 40
0.75
 40
0.75
 40
0.75
 40
1.0
 40
1.0
 40
1.0
 40
1.0
 10
-6.099677165354331
 20
-0.7484291338582677
 30
0.0
 10
-6.176657480314961
 20
-0.5618858267716536
 30
0.0
 10
-6.158059055118111
 20
-0.4281220472440945
 30
0.0
 10
-5.994582677165354
 20
-0.2536181102362205
 30
0.0
 10
-5.994582677165354
 20
-0.2536181102362205
 30
0.0
 10
-5.936685039370079
 20
-0.1801574803149607
 30
0.0
 10
-5.890228346456693
 20
-0.098996062992126
 30
0.0
 10
-5.868976377952756
 20
-0.0009251968503937
 30
0.0
 10
-5.868976377952756
 20
-0.0009251968503937
 30
0.0
 10
-5.553228346456693
 20
-0.3791062992125984
 30
0.0
 10
-5.654157480314961
 20
-0.7974488188976379
 30
0.0
 10
-5.944484251968504
 20
-1.234055118110236
 30
0.0
 10
-5.944484251968504
 20
-1.234055118110236
 30
0.0
 10
-5.973133858267717
 20
-1.070992125984252
 30
0.0
 10
-6.030208661417323
 20
-0.9113031496062992
 30
0.0
 10
-6.099677165354331
 20
-0.7484291338582677
 30
0.0
  0
SPLINE
  5
84
330
1F
100
AcDbEntity
  8
Layer 1
 62
   250
370
     5
100
AcDbSpline
210
0.0
220
0.0
230
1.0
 70
    11
 71
     3
 72
    28
 73
    24
 74
     0
 42
0.0000000001
 43
0.0000000001
 40
0.0
 40
0.0
 40
0.0
 40
0.0
 40
0.1666666666666667
 40
0.1666666666666667
 40
0.1666666666666667
 40
0.1666666666666667
 40
0.3333333333333333
 40
0.3333333333333333
 40
0.3333333333333333
 40
0.3333333333333333
 40
0.5
 40
0.5
 40
0.5
 40
0.5
 40
0.6666666666666666
 40
0.6666666666666666
 40
0.6666666666666666
 40
0.6666666666666666
 40
0.8333333333333333
 40
0.8333333333333333
 40
0.8333333333333333
 40
0.8333333333333333
 40
1.0
 40
1.0
 40
1.0
 40
1.0
 10
-4.967204724409449
 20
-2.087870078740158
 30
0.0
 10
-4.998437007874016
 20
-1.753149606299213
 30
0.0
 10
-4.951330708661417
 20
-1.571
 30
0.0
 10
-5.113830708661418
 20
-1.066196850393701
 30
0.0
 10
-5.113830708661418
 20
-1.066196850393701
 30
0.0
 10
-4.923200787401575
 20
-1.18157874015748
 30
0.0
 10
-4.966637795275591
 20
-1.042527559055118
 30
0.0
 10
-4.553535433070866
 20
-1.479129921259843
 30
0.0
 10
-4.553535433070866
 20
-1.479129921259843
 30
0.0
 10
-4.663413385826772
 20
-1.649370078740158
 30
0.0
 10
-4.649015748031497
 20
-1.696259842519685
 30
0.0
 10
-4.681885826771654
 20
-1.820216535433071
 30
0.0
 10
-4.681885826771654
 20
-1.820216535433071
 30
0.0
 10
-4.729066929133858
 20
-1.982606299212599
 30
0.0
 10
-4.826031496062992
 20
-2.131527559055118
 30
0.0
 10
-4.823405511811024
 20
-2.307377952755906
 30
0.0
 10
-4.823405511811024
 20
-2.307377952755906
 30
0.0
 10
-4.837807086614173
 20
-2.47792125984252
 30
0.0
 10
-4.827566929133859
 20
-2.757212598425197
 30
0.0
 10
-4.866598425196851
 20
-2.818996062992126
 30
0.0
 10
-4.866598425196851
 20
-2.818996062992126
 30
0.0
 10
-5.005685039370079
 20
-2.735791338582677
 30
0.0
 10
-4.943173228346457
 20
-2.345515748031496
 30
0.0
 10
-4.967204724409449
 20
-2.087870078740158
 30
0.0
  0
SPLINE
  5
85
330
1F
100
AcDbEntity
  8
Layer 1
 62
   250
370
     5
100
AcDbSpline
210
0.0
220
0.0
230
1.0
 70
    11
 71
     3
 72
    20
 73
    16
 74
     0
 42
0.0000000001
 43
0.0000000001
 40
0.0
 40
0.0
 40
0.0
 40
0.0
 40
0.25
 40
0.25
 40
0.25
 40
0.25
 40
0.5
 40
0.5
 40
0.5
 40
0.5
 40
0.75
 40
0.75
 40
0.75
 40
0.75
 40
1.0
 40
1.0
 40
1.0
 40
1.0
 10
-5.038775590551182
 20
-2.762464566929134
 30
0.0
 10
-5.064141732283464
 20
-2.709641732283465
 30
0.0
 10
-5.077279527559055
 20
-2.62084251968504
 30
0.0
 10
-5.095956692913386
 20
-2.560551181102362
 30
0.0
 10
-5.095956692913386
 20
-2.560551181102362
 30
0.0
 10
-5.177192913385827
 20
-2.298070866141732
 30
0.0
 10
-5.32703937007874
 20
-2.160708661417323
 30
0.0
 10
-5.548354330708662
 20
-2.042448818897638
 30
0.0
 10
-5.548354330708662
 20
-2.042448818897638
 30
0.0
 10
-5.356161417322835
 20
-2.002917322834646
 30
0.0
 10
-5.217472440944882
 20
-1.913948818897638
 30
0.0
 10
-5.156956692913386
 20
-1.752748031496063
 30
0.0
 10
-5.156956692913386
 20
-1.752748031496063
 30
0.0
 10
-5.11755905511811
 20
-2.089314960629921
 30
0.0
 10
-4.977590551181103
 20
-2.682118110236221
 30
0.0
 10
-5.038775590551182
 20
-2.762464566929134
 30
0.0
  0
SPLINE
  5
86
330
1F
100
AcDbEntity
  8
Layer 1
 62
   250
370
     5
100
AcDbSpline
210
0.0
220
0.0
230
1.0
 70
    11
 71
     3
 72
    20
 73
    16
 74
     0
 42
0.0000000001
 43
0.0000000001
 40
0.0
 40
0.0
 40
0.0
 40
0.0
 40
0.25
 40
0.25
 40
0.25
 40
0.25
 40
0.5
 40
0.5
 40
0.5
 40
0.5
 40
0.75
 40
0.75
 40
0.75
 40
0.75
 40
1.0
 40
1.0
 40
1.0
 40
1.0
 10
-4.236366141732284
 20
3.172870078740158
 30
0.0
 10
-4.101700787401575
 20
3.321669291338583
 30
0.0
 10
-3.926236220472441
 20
3.414988188976378
 30
0.0
 10
-3.711976377952756
 20
3.455602362204725
 30
0.0
 10
-3.711976377952756
 20
3.455602362204725
 30
0.0
 10
-3.711976377952756
 20
3.455602362204725
 30
0.0
 10
-3.392657480314961
 20
3.126763779527559
 30
0.0
 10
-3.392657480314961
 20
3.126763779527559
 30
0.0
 10
-3.392657480314961
 20
3.126763779527559
 30
0.0
 10
-3.392657480314961
 20
3.126763779527559
 30
0.0
 10
-3.703728346456693
 20
2.797677165354331
 30
0.0
 10
-3.703728346456693
 20
2.797677165354331
 30
0.0
 10
-3.703728346456693
 20
2.797677165354331
 30
0.0
 10
-3.918984251968504
 20
2.851023622047244
 30
0.0
 10
-4.318271653543308
 20
2.996625984251969
 30
0.0
 10
-4.236366141732284
 20
3.172870078740158
 30
0.0
  0
SPLINE
  5
87
330
1F
100
AcDbEntity
  8
Layer 1
 62
   250
370
     5
100
AcDbSpline
210
0.0
220
0.0
230
1.0
 70
    11
 71
     3
 72
    20
 73
    16
 74
     0
 42
0.0000000001
 43
0.0000000001
 40
0.0
 40
0.0
 40
0.0
 40
0.0
 40
0.25
 40
0.25
 40
0.25
 40
0.25
 40
0.5
 40
0.5
 40
0.5
 40
0.5
 40
0.75
 40
0.75
 40
0.75
 40
0.75
 40
1.0
 40
1.0
 40
1.0
 40
1.0
 10
-3.02490157480315
 20
2.668397637795276
 30
0.0
 10
-3.052555118110236
 20
2.817913385826772
 30
0.0
 10
-3.110748031496063
 20
2.919448818897638
 30
0.0
 10
-3.128
 20
3.078086614173229
 30
0.0
 10
-3.128
 20
3.078086614173229
 30
0.0
 10
-2.970263779527559
 20
3.019370078740157
 30
0.0
 10
-2.832531496062992
 20
3.012535433070867
 30
0.0
 10
-2.708496062992126
 20
3.041232283464567
 30
0.0
 10
-2.708496062992126
 20
3.041232283464567
 30
0.0
 10
-2.588814960629922
 20
2.791074803149606
 30
0.0
 10
-2.40744094488189
 20
2.577897637795276
 30
0.0
 10
-2.135846456692914
 20
2.418755905511811
 30
0.0
 10
-2.135846456692914
 20
2.418755905511811
 30
0.0
 10
-2.293015748031496
 20
2.175350393700787
 30
0.0
 10
-2.903511811023622
 20
2.276543307086614
 30
0.0
 10
-3.02490157480315
 20
2.668397637795276
 30
0.0
  0
SPLINE
  5
88
330
1F
100
AcDbEntity
  8
Layer 1
 62
   250
370
     5
100
AcDbSpline
210
0.0
220
0.0
230
1.0
 70
    11
 71
     3
 72
    24
 73
    20
 74
     0
 42
0.0000000001
 43
0.0000000001
 40
0.0
 40
0.0
 40
0.0
 40
0.0
 40
0.2
 40
0.2
 40
0.2
 40
0.2
 40
0.4
 40
0.4
 40
0.4
 40
0.4
 40
0.6000000000000001
 40
0.6000000000000001
 40
0.6000000000000001
 40
0.6000000000000001
 40
0.8
 40
0.8
 40
0.8
 40
0.8
 40
1.0
 40
1.0
 40
1.0
 40
1.0
 10
-2.110665354330709
 20
2.23242125984252
 30
0.0
 10
-1.952791338582677
 20
2.33201968503937
 30
0.0
 10
-1.791409448818898
 20
2.374200787401575
 30
0.0
 10
-1.628232283464567
 20
2.387299212598425
 30
0.0
 10
-1.628232283464567
 20
2.387299212598425
 30
0.0
 10
-1.581893700787402
 20
2.205318897637795
 30
0.0
 10
-1.570240157480315
 20
2.023307086614173
 30
0.0
 10
-1.563523622047244
 20
1.841299212598425
 30
0.0
 10
-1.563523622047244
 20
1.841299212598425
 30
0.0
 10
-1.606027559055118
 20
1.830929133858268
 30
0.0
 10
-1.612606299212599
 20
1.880590551181103
 30
0.0
 10
-1.623972440944882
 20
1.924814960629921
 30
0.0
 10
-1.623972440944882
 20
1.924814960629921
 30
0.0
 10
-1.642893700787402
 20
1.998350393700787
 30
0.0
 10
-1.697464566929134
 20
2.042425196850394
 30
0.0
 10
-1.759425196850394
 20
2.080755905511811
 30
0.0
 10
-1.759425196850394
 20
2.080755905511811
 30
0.0
 10
-1.867291338582677
 20
2.146850393700788
 30
0.0
 10
-1.984551181102362
 20
2.197110236220472
 30
0.0
 10
-2.110665354330709
 20
2.23242125984252
 30
0.0
  0
SPLINE
  5
89
330
1F
100
AcDbEntity
  8
Layer 1
 62
   250
370
     5
100
AcDbSpline
210
0.0
220
0.0
230
1.0
 70
    11
 71
     3
 72
    20
 73
    16
 74
     0
 42
0.0000000001
 43
0.0000000001
 40
0.0
 40
0.0
 40
0.0
 40
0.0
 40
0.25
 40
0.25
 40
0.25
 40
0.25
 40
0.5
 40
0.5
 40
0.5
 40
0.5
 40
0.75
 40
0.75
 40
0.75
 40
0.75
 40
1.0
 40
1.0
 40
1.0
 40
1.0
 10
-1.643141732283465
 20
2.552350393700788
 30
0.0
 10
-1.819700787401575
 20
2.52388188976378
 30
0.0
 10
-1.962618110236221
 20
2.556275590551181
 30
0.0
 10
-2.082543307086614
 20
2.630287401574803
 30
0.0
 10
-2.082543307086614
 20
2.630287401574803
 30
0.0
 10
-2.282389763779528
 20
2.755129921259843
 30
0.0
 10
-2.460720472440945
 20
2.925814960629921
 30
0.0
 10
-2.464976377952756
 20
3.046775590551181
 30
0.0
 10
-2.464976377952756
 20
3.046775590551181
 30
0.0
 10
-2.306259842519685
 20
3.006232283464567
 30
0.0
 10
-2.147228346456693
 20
2.974834645669291
 30
0.0
 10
-1.987944881889764
 20
2.950322834645669
 30
0.0
 10
-1.987944881889764
 20
2.950322834645669
 30
0.0
 10
-1.724393700787402
 20
2.933248031496063
 30
0.0
 10
-1.654299212598425
 20
2.816141732283465
 30
0.0
 10
-1.643141732283465
 20
2.552350393700788
 30
0.0
  0
SPLINE
  5
8A
330
1F
100
AcDbEntity
  8
Layer 1
 62
   250
370
     5
100
AcDbSpline
210
0.0
220
0.0
230
1.0
 70
    11
 71
     3
 72
    20
 73
    16
 74
     0
 42
0.0000000001
 43
0.0000000001
 40
0.0
 40
0.0
 40
0.0
 40
0.0
 40
0.25
 40
0.25
 40
0.25
 40
0.25
 40
0.5
 40
0.5
 40
0.5
 40
0.5
 40
0.75
 40
0.75
 40
0.75
 40
0.75
 40
1.0
 40
1.0
 40
1.0
 40
1.0
 10
-6.104728346456693
 20
3.914669291338583
 30
0.0
 10
-6.082374015748032
 20
4.01248031496063
 30
0.0
 10
-6.089870078740158
 20
4.106330708661417
 30
0.0
 10
-6.110925196850394
 20
4.198385826771654
 30
0.0
 10
-6.110925196850394
 20
4.198385826771654
 30
0.0
 10
-6.154712598425197
 20
4.335803149606299
 30
0.0
 10
-6.158177165354331
 20
4.437070866141733
 30
0.0
 10
-6.122334645669292
 20
4.524775590551181
 30
0.0
 10
-6.122334645669292
 20
4.524775590551181
 30
0.0
 10
-6.122334645669292
 20
4.524775590551181
 30
0.0
 10
-5.642846456692913
 20
4.524775590551181
 30
0.0
 10
-5.642846456692913
 20
4.524775590551181
 30
0.0
 10
-5.642846456692913
 20
4.524775590551181
 30
0.0
 10
-5.687476377952756
 20
4.253488188976379
 30
0.0
 10
-5.825228346456693
 20
4.040055118110236
 30
0.0
 10
-6.104728346456693
 20
3.914669291338583
 30
0.0
  0
SPLINE
  5
8B
330
1F
100
AcDbEntity
  8
Layer 1
 62
   250
370
     5
100
AcDbSpline
210
0.0
220
0.0
230
1.0
 70
    11
 71
     3
 72
    20
 73
    16
 74
     0
 42
0.0000000001
 43
0.0000000001
 40
0.0
 40
0.0
 40
0.0
 40
0.0
 40
0.25
 40
0.25
 40
0.25
 40
0.25
 40
0.5
 40
0.5
 40
0.5
 40
0.5
 40
0.75
 40
0.75
 40
0.75
 40
0.75
 40
1.0
 40
1.0
 40
1.0
 40
1.0
 10
-5.819925196850394
 20
3.829811023622047
 30
0.0
 10
-5.533645669291339
 20
4.00544094488189
 30
0.0
 10
-5.41357874015748
 20
4.195133858267717
 30
0.0
 10
-5.133870078740157
 20
4.336129921259842
 30
0.0
 10
-5.133870078740157
 20
4.336129921259842
 30
0.0
 10
-5.133870078740157
 20
4.336129921259842
 30
0.0
 10
-5.025043307086614
 20
4.228598425196851
 30
0.0
 10
-5.025043307086614
 20
4.228598425196851
 30
0.0
 10
-5.025043307086614
 20
4.228598425196851
 30
0.0
 10
-4.886759842519686
 20
4.049051181102362
 30
0.0
 10
-5.077846456692914
 20
3.926342519685039
 30
0.0
 10
-5.104263779527559
 20
3.775208661417323
 30
0.0
 10
-5.104263779527559
 20
3.775208661417323
 30
0.0
 10
-5.39146062992126
 20
3.831948818897638
 30
0.0
 10
-5.480259842519685
 20
3.687307086614173
 30
0.0
 10
-5.819925196850394
 20
3.829811023622047
 30
0.0
  0
SPLINE
  5
8C
330
1F
100
AcDbEntity
  8
Layer 1
 62
   250
370
     5
100
AcDbSpline
210
0.0
220
0.0
230
1.0
 70
    11
 71
     3
 72
    16
 73
    12
 74
     0
 42
0.0000000001
 43
0.0000000001
 40
0.0
 40
0.0
 40
0.0
 40
0.0
 40
0.3333333333333333
 40
0.3333333333333333
 40
0.3333333333333333
 40
0.3333333333333333
 40
0.6666666666666666
 40
0.6666666666666666
 40
0.6666666666666666
 40
0.6666666666666666
 40
1.0
 40
1.0
 40
1.0
 40
1.0
 10
-5.491748031496063
 20
4.38834251968504
 30
0.0
 10
-5.480685039370079
 20
4.432968503937008
 30
0.0
 10
-5.471531496062992
 20
4.478456692913386
 30
0.0
 10
-5.464696850393701
 20
4.524775590551181
 30
0.0
 10
-5.464696850393701
 20
4.524775590551181
 30
0.0
 10
-5.464696850393701
 20
4.524775590551181
 30
0.0
 10
-5.290468503937008
 20
4.524775590551181
 30
0.0
 10
-5.290468503937008
 20
4.524775590551181
 30
0.0
 10
-5.290468503937008
 20
4.524775590551181
 30
0.0
 10
-5.351153543307087
 20
4.478700787401575
 30
0.0
 10
-5.418354330708661
 20
4.433232283464567
 30
0.0
 10
-5.491748031496063
 20
4.38834251968504
 30
0.0
  0
SPLINE
  5
8D
330
1F
100
AcDbEntity
  8
Layer 1
 62
   250
370
     5
100
AcDbSpline
210
0.0
220
0.0
230
1.0
 70
    11
 71
     3
 72
    24
 73
    20
 74
     0
 42
0.0000000001
 43
0.0000000001
 40
0.0
 40
0.0
 40
0.0
 40
0.0
 40
0.2
 40
0.2
 40
0.2
 40
0.2
 40
0.4
 40
0.4
 40
0.4
 40
0.4
 40
0.6000000000000001
 40
0.6000000000000001
 40
0.6000000000000001
 40
0.6000000000000001
 40
0.8
 40
0.8
 40
0.8
 40
0.8
 40
1.0
 40
1.0
 40
1.0
 40
1.0
 10
-4.839858267716536
 20
4.328267716535433
 30
0.0
 10
-4.654748031496063
 20
4.379295275590551
 30
0.0
 10
-4.484232283464567
 20
4.309944881889764
 30
0.0
 10
-4.284527559055118
 20
4.481370078740158
 30
0.0
 10
-4.284527559055118
 20
4.481370078740158
 30
0.0
 10
-4.227452755905512
 20
4.472795275590552
 30
0.0
 10
-4.360964566929134
 20
4.154976377952756
 30
0.0
 10
-4.399173228346457
 20
3.991755905511811
 30
0.0
 10
-4.399173228346457
 20
3.991755905511811
 30
0.0
 10
-4.430559055118111
 20
3.866645669291339
 30
0.0
 10
-4.560736220472442
 20
3.804267716535433
 30
0.0
 10
-4.585192913385827
 20
3.722759842519685
 30
0.0
 10
-4.585192913385827
 20
3.722759842519685
 30
0.0
 10
-4.585192913385827
 20
3.722759842519685
 30
0.0
 10
-4.909472440944882
 20
3.788413385826772
 30
0.0
 10
-4.909472440944882
 20
3.788413385826772
 30
0.0
 10
-4.909472440944882
 20
3.788413385826772
 30
0.0
 10
-4.770358267716536
 20
3.989200787401575
 30
0.0
 10
-4.715
 20
4.126507874015748
 30
0.0
 10
-4.839858267716536
 20
4.328267716535433
 30
0.0
  0
SPLINE
  5
8E
330
1F
100
AcDbEntity
  8
Layer 1
 62
   250
370
     5
100
AcDbSpline
210
0.0
220
0.0
230
1.0
 70
    11
 71
     3
 72
    32
 73
    28
 74
     0
 42
0.0000000001
 43
0.0000000001
 40
0.0
 40
0.0
 40
0.0
 40
0.0
 40
0.1428571428571429
 40
0.1428571428571429
 40
0.1428571428571429
 40
0.1428571428571429
 40
0.2857142857142857
 40
0.2857142857142857
 40
0.2857142857142857
 40
0.2857142857142857
 40
0.4285714285714286
 40
0.4285714285714286
 40
0.4285714285714286
 40
0.4285714285714286
 40
0.5714285714285714
 40
0.5714285714285714
 40
0.5714285714285714
 40
0.5714285714285714
 40
0.7142857142857142
 40
0.7142857142857142
 40
0.7142857142857142
 40
0.7142857142857142
 40
0.857142857142857
 40
0.857142857142857
 40
0.857142857142857
 40
0.857142857142857
 40
1.0
 40
1.0
 40
1.0
 40
1.0
 10
-3.755720472440945
 20
3.580669291338583
 30
0.0
 10
-3.755720472440945
 20
3.580669291338583
 30
0.0
 10
-4.134866141732283
 20
3.955720472440945
 30
0.0
 10
-4.134866141732283
 20
3.955720472440945
 30
0.0
 10
-4.134866141732283
 20
3.955720472440945
 30
0.0
 10
-3.978913385826772
 20
3.896874015748032
 30
0.0
 10
-4.010877952755906
 20
4.047027559055119
 30
0.0
 10
-3.754370078740158
 20
3.86238188976378
 30
0.0
 10
-3.754370078740158
 20
3.86238188976378
 30
0.0
 10
-3.754370078740158
 20
3.86238188976378
 30
0.0
 10
-3.721342519685039
 20
3.902153543307087
 30
0.0
 10
-3.721342519685039
 20
3.902153543307087
 30
0.0
 10
-3.721342519685039
 20
3.902153543307087
 30
0.0
 10
-3.721342519685039
 20
3.902153543307087
 30
0.0
 10
-3.772196850393701
 20
3.956066929133859
 30
0.0
 10
-3.772196850393701
 20
3.956066929133859
 30
0.0
 10
-3.772196850393701
 20
3.956066929133859
 30
0.0
 10
-3.772196850393701
 20
3.956066929133859
 30
0.0
 10
-3.747397637795276
 20
4.02296062992126
 30
0.0
 10
-3.747397637795276
 20
4.02296062992126
 30
0.0
 10
-3.747397637795276
 20
4.02296062992126
 30
0.0
 10
-3.747397637795276
 20
4.02296062992126
 30
0.0
 10
-3.519236220472441
 20
3.72734251968504
 30
0.0
 10
-3.519236220472441
 20
3.72734251968504
 30
0.0
 10
-3.519236220472441
 20
3.72734251968504
 30
0.0
 10
-3.555165354330709
 20
3.625952755905512
 30
0.0
 10
-3.635311023622047
 20
3.578681102362205
 30
0.0
 10
-3.755720472440945
 20
3.580669291338583
 30
0.0
  0
SPLINE
  5
8F
330
1F
100
AcDbEntity
  8
Layer 1
 62
   250
370
     5
100
AcDbSpline
210
0.0
220
0.0
230
1.0
 70
    11
 71
     3
 72
    20
 73
    16
 74
     0
 42
0.0000000001
 43
0.0000000001
 40
0.0
 40
0.0
 40
0.0
 40
0.0
 40
0.25
 40
0.25
 40
0.25
 40
0.25
 40
0.5
 40
0.5
 40
0.5
 40
0.5
 40
0.75
 40
0.75
 40
0.75
 40
0.75
 40
1.0
 40
1.0
 40
1.0
 40
1.0
 10
-3.431551181102362
 20
3.626251968503937
 30
0.0
 10
-3.241641732283465
 20
3.872807086614174
 30
0.0
 10
-2.391338582677165
 20
3.996594488188976
 30
0.0
 10
-2.001433070866142
 20
3.670228346456693
 30
0.0
 10
-2.001433070866142
 20
3.670228346456693
 30
0.0
 10
-2.221685039370079
 20
3.625397637795276
 30
0.0
 10
-2.431023622047244
 20
3.556846456692913
 30
0.0
 10
-2.610224409448819
 20
3.422708661417323
 30
0.0
 10
-2.610224409448819
 20
3.422708661417323
 30
0.0
 10
-2.83242125984252
 20
3.197314960629921
 30
0.0
 10
-3.117015748031496
 20
3.187535433070866
 30
0.0
 10
-3.277311023622048
 20
3.428814960629921
 30
0.0
 10
-3.277311023622048
 20
3.428814960629921
 30
0.0
 10
-3.328728346456693
 20
3.494629921259843
 30
0.0
 10
-3.3115
 20
3.566181102362205
 30
0.0
 10
-3.431551181102362
 20
3.626251968503937
 30
0.0
  0
SPLINE
  5
90
330
1F
100
AcDbEntity
  8
Layer 1
 62
   250
370
     5
100
AcDbSpline
210
0.0
220
0.0
230
1.0
 70
    11
 71
     3
 72
    16
 73
    12
 74
     0
 42
0.0000000001
 43
0.0000000001
 40
0.0
 40
0.0
 40
0.0
 40
0.0
 40
0.3333333333333333
 40
0.3333333333333333
 40
0.3333333333333333
 40
0.3333333333333333
 40
0.6666666666666666
 40
0.6666666666666666
 40
0.6666666666666666
 40
0.6666666666666666
 40
1.0
 40
1.0
 40
1.0
 40
1.0
 10
-3.584303149606299
 20
-1.855307086614173
 30
0.0
 10
-3.850653543307087
 20
-1.705763779527559
 30
0.0
 10
-3.981448818897638
 20
-1.50657874015748
 30
0.0
 10
-4.0195
 20
-1.273389763779528
 30
0.0
 10
-4.0195
 20
-1.273389763779528
 30
0.0
 10
-3.423240157480315
 20
-1.084070866141732
 30
0.0
 10
-3.147893700787402
 20
-1.435043307086614
 30
0.0
 10
-3.092122047244095
 20
-2.155685039370079
 30
0.0
 10
-3.092122047244095
 20
-2.155685039370079
 30
0.0
 10
-3.232003937007874
 20
-2.032826771653543
 30
0.0
 10
-3.402602362204724
 20
-1.938858267716536
 30
0.0
 10
-3.584303149606299
 20
-1.855307086614173
 30
0.0
  0
SPLINE
  5
91
330
1F
100
AcDbEntity
  8
Layer 1
 62
   250
370
     5
100
AcDbSpline
210
0.0
220
0.0
230
1.0
 70
    11
 71
     3
 72
    20
 73
    16
 74
     0
 42
0.0000000001
 43
0.0000000001
 40
0.0
 40
0.0
 40
0.0
 40
0.0
 40
0.25
 40
0.25
 40
0.25
 40
0.25
 40
0.5
 40
0.5
 40
0.5
 40
0.5
 40
0.75
 40
0.75
 40
0.75
 40
0.75
 40
1.0
 40
1.0
 40
1.0
 40
1.0
 10
-2.749562992125985
 20
-2.704992125984252
 30
0.0
 10
-2.776464566929134
 20
-2.363334645669291
 30
0.0
 10
-2.88901968503937
 20
-2.168834645669291
 30
0.0
 10
-2.888590551181102
 20
-1.848531496062992
 30
0.0
 10
-2.888590551181102
 20
-1.848531496062992
 30
0.0
 10
-2.888590551181102
 20
-1.848531496062992
 30
0.0
 10
-2.746724409448819
 20
-1.795586614173228
 30
0.0
 10
-2.746724409448819
 20
-1.795586614173228
 30
0.0
 10
-2.746724409448819
 20
-1.795586614173228
 30
0.0
 10
-2.528988188976378
 20
-1.747255905511811
 30
0.0
 10
-2.506255905511811
 20
-1.977736220472441
 30
0.0
 10
-2.38601968503937
 20
-2.068807086614173
 30
0.0
 10
-2.38601968503937
 20
-2.068807086614173
 30
0.0
 10
-2.562311023622047
 20
-2.308716535433071
 30
0.0
 10
-2.475275590551181
 20
-2.454527559055118
 30
0.0
 10
-2.749562992125985
 20
-2.704992125984252
 30
0.0
  0
SPLINE
  5
92
330
1F
100
AcDbEntity
  8
Layer 1
 62
   250
370
     5
100
AcDbSpline
210
0.0
220
0.0
230
1.0
 70
    11
 71
     3
 72
    20
 73
    16
 74
     0
 42
0.0000000001
 43
0.0000000001
 40
0.0
 40
0.0
 40
0.0
 40
0.0
 40
0.25
 40
0.25
 40
0.25
 40
0.25
 40
0.5
 40
0.5
 40
0.5
 40
0.5
 40
0.75
 40
0.75
 40
0.75
 40
0.75
 40
1.0
 40
1.0
 40
1.0
 40
1.0
 10
-3.919740157480315
 20
-1.118992125984252
 30
0.0
 10
-3.816236220472441
 20
-0.8856456692913386
 30
0.0
 10
-3.780476377952756
 20
-0.6825275590551181
 30
0.0
 10
-3.873712598425197
 20
-0.4243031496062992
 30
0.0
 10
-3.873712598425197
 20
-0.4243031496062992
 30
0.0
 10
-3.895122047244095
 20
-0.3649842519685039
 30
0.0
 10
-3.93796062992126
 20
-0.2867165354330709
 30
0.0
 10
-3.949614173228347
 20
-0.2290314960629921
 30
0.0
 10
-3.949614173228347
 20
-0.2290314960629921
 30
0.0
 10
-3.853291338582678
 20
-0.2535748031496063
 30
0.0
 10
-3.608448818897638
 20
-0.8092204724409449
 30
0.0
 10
-3.437854330708662
 20
-1.099318897637795
 30
0.0
 10
-3.437854330708662
 20
-1.099318897637795
 30
0.0
 10
-3.582094488188977
 20
-1.010633858267717
 30
0.0
 10
-3.744649606299213
 20
-1.028393700787402
 30
0.0
 10
-3.919740157480315
 20
-1.118992125984252
 30
0.0
  0
SPLINE
  5
93
330
1F
100
AcDbEntity
  8
Layer 1
 62
   250
370
     5
100
AcDbSpline
210
0.0
220
0.0
230
1.0
 70
    11
 71
     3
 72
    28
 73
    24
 74
     0
 42
0.0000000001
 43
0.0000000001
 40
0.0
 40
0.0
 40
0.0
 40
0.0
 40
0.1666666666666667
 40
0.1666666666666667
 40
0.1666666666666667
 40
0.1666666666666667
 40
0.3333333333333333
 40
0.3333333333333333
 40
0.3333333333333333
 40
0.3333333333333333
 40
0.5
 40
0.5
 40
0.5
 40
0.5
 40
0.6666666666666666
 40
0.6666666666666666
 40
0.6666666666666666
 40
0.6666666666666666
 40
0.8333333333333333
 40
0.8333333333333333
 40
0.8333333333333333
 40
0.8333333333333333
 40
1.0
 40
1.0
 40
1.0
 40
1.0
 10
-2.992594488188976
 20
-1.612846456692914
 30
0.0
 10
-3.166976377952756
 20
-1.112244094488189
 30
0.0
 10
-3.313216535433071
 20
-0.9985905511811024
 30
0.0
 10
-3.489125984251969
 20
-0.7151181102362205
 30
0.0
 10
-3.489125984251969
 20
-0.7151181102362205
 30
0.0
 10
-3.624535433070866
 20
-0.4969330708661418
 30
0.0
 10
-3.907590551181102
 20
-0.2290866141732283
 30
0.0
 10
-3.84786220472441
 20
-0.0754566929133858
 30
0.0
 10
-3.84786220472441
 20
-0.0754566929133858
 30
0.0
 10
-3.780090551181103
 20
-0.0994015748031496
 30
0.0
 10
-3.620854330708661
 20
-0.3259094488188977
 30
0.0
 10
-3.507338582677166
 20
-0.4511377952755906
 30
0.0
 10
-3.507338582677166
 20
-0.4511377952755906
 30
0.0
 10
-3.404062992125984
 20
-0.5913307086614174
 30
0.0
 10
-3.238456692913386
 20
-0.647232283464567
 30
0.0
 10
-3.10401968503937
 20
-0.7452913385826772
 30
0.0
 10
-3.10401968503937
 20
-0.7452913385826772
 30
0.0
 10
-3.003866141732284
 20
-0.8221220472440945
 30
0.0
 10
-2.987129921259843
 20
-0.8681653543307087
 30
0.0
 10
-2.798590551181102
 20
-0.9326771653543308
 30
0.0
 10
-2.798590551181102
 20
-0.9326771653543308
 30
0.0
 10
-2.862464566929134
 20
-1.538263779527559
 30
0.0
 10
-2.91151968503937
 20
-1.401212598425197
 30
0.0
 10
-2.992594488188976
 20
-1.612846456692914
 30
0.0
  0
SPLINE
  5
94
330
1F
100
AcDbEntity
  8
Layer 1
 62
   250
370
     5
100
AcDbSpline
210
0.0
220
0.0
230
1.0
 70
    11
 71
     3
 72
    36
 73
    32
 74
     0
 42
0.0000000001
 43
0.0000000001
 40
0.0
 40
0.0
 40
0.0
 40
0.0
 40
0.125
 40
0.125
 40
0.125
 40
0.125
 40
0.25
 40
0.25
 40
0.25
 40
0.25
 40
0.375
 40
0.375
 40
0.375
 40
0.375
 40
0.5
 40
0.5
 40
0.5
 40
0.5
 40
0.625
 40
0.625
 40
0.625
 40
0.625
 40
0.75
 40
0.75
 40
0.75
 40
0.75
 40
0.875
 40
0.875
 40
0.875
 40
0.875
 40
1.0
 40
1.0
 40
1.0
 40
1.0
 10
-2.39896062992126
 20
-2.524338582677165
 30
0.0
 10
-2.322807086614173
 20
-2.365677165354331
 30
0.0
 10
-2.275838582677165
 20
-2.148645669291339
 30
0.0
 10
-2.13851968503937
 20
-2.036716535433071
 30
0.0
 10
-2.13851968503937
 20
-2.036716535433071
 30
0.0
 10
-2.164889763779528
 20
-2.215645669291339
 30
0.0
 10
-2.128027559055118
 20
-2.262826771653543
 30
0.0
 10
-2.087854330708661
 20
-2.369043307086614
 30
0.0
 10
-2.087854330708661
 20
-2.369043307086614
 30
0.0
 10
-2.019637795275591
 20
-2.549444881889764
 30
0.0
 10
-1.976543307086614
 20
-2.804279527559055
 30
0.0
 10
-2.221795275590552
 20
-3.056464566929134
 30
0.0
 10
-2.221795275590552
 20
-3.056464566929134
 30
0.0
 10
-2.284133858267717
 20
-3.13898031496063
 30
0.0
 10
-2.350358267716536
 20
-3.183437007874016
 30
0.0
 10
-2.413433070866142
 20
-3.258657480314961
 30
0.0
 10
-2.413433070866142
 20
-3.258657480314961
 30
0.0
 10
-2.413433070866142
 20
-3.258657480314961
 30
0.0
 10
-2.650944881889764
 20
-3.258657480314961
 30
0.0
 10
-2.650944881889764
 20
-3.258657480314961
 30
0.0
 10
-2.650944881889764
 20
-3.258657480314961
 30
0.0
 10
-2.670204724409449
 20
-3.17257874015748
 30
0.0
 10
-2.677728346456693
 20
-3.068476377952756
 30
0.0
 10
-2.679937007874016
 20
-2.956208661417323
 30
0.0
 10
-2.679937007874016
 20
-2.956208661417323
 30
0.0
 10
-2.634248031496063
 20
-2.919909448818898
 30
0.0
 10
-2.591913385826772
 20
-2.868771653543307
 30
0.0
 10
-2.558763779527559
 20
-2.776610236220473
 30
0.0
 10
-2.558763779527559
 20
-2.776610236220473
 30
0.0
 10
-2.554263779527559
 20
-2.673877952755906
 30
0.0
 10
-2.453082677165354
 20
-2.652417322834646
 30
0.0
 10
-2.39896062992126
 20
-2.524338582677165
 30
0.0
  0
SPLINE
  5
95
330
1F
100
AcDbEntity
  8
Layer 1
 62
   250
370
     5
100
AcDbSpline
210
0.0
220
0.0
230
1.0
 70
    11
 71
     3
 72
    20
 73
    16
 74
     0
 42
0.0000000001
 43
0.0000000001
 40
0.0
 40
0.0
 40
0.0
 40
0.0
 40
0.25
 40
0.25
 40
0.25
 40
0.25
 40
0.5
 40
0.5
 40
0.5
 40
0.5
 40
0.75
 40
0.75
 40
0.75
 40
0.75
 40
1.0
 40
1.0
 40
1.0
 40
1.0
 10
-1.945996062992126
 20
-2.293885826771654
 30
0.0
 10
-2.01898031496063
 20
-2.114893700787402
 30
0.0
 10
-2.055070866141732
 20
-1.932685039370079
 30
0.0
 10
-2.024161417322835
 20
-1.744625984251969
 30
0.0
 10
-2.024161417322835
 20
-1.744625984251969
 30
0.0
 10
-1.921362204724409
 20
-1.81107874015748
 30
0.0
 10
-1.809696850393701
 20
-1.913748031496063
 30
0.0
 10
-1.691984251968504
 20
-2.041216535433071
 30
0.0
 10
-1.691984251968504
 20
-2.041216535433071
 30
0.0
 10
-1.521984251968504
 20
-2.21544094488189
 30
0.0
 10
-1.721177165354331
 20
-2.685437007874016
 30
0.0
 10
-1.917425196850394
 20
-2.846803149606299
 30
0.0
 10
-1.917425196850394
 20
-2.846803149606299
 30
0.0
 10
-1.869248031496063
 20
-2.636267716535433
 30
0.0
 10
-1.880547244094488
 20
-2.452771653543307
 30
0.0
 10
-1.945996062992126
 20
-2.293885826771654
 30
0.0
  0
SPLINE
  5
96
330
1F
100
AcDbEntity
  8
Layer 1
 62
   250
370
     5
100
AcDbSpline
210
0.0
220
0.0
230
1.0
 70
    11
 71
     3
 72
    20
 73
    16
 74
     0
 42
0.0000000001
 43
0.0000000001
 40
0.0
 40
0.0
 40
0.0
 40
0.0
 40
0.25
 40
0.25
 40
0.25
 40
0.25
 40
0.5
 40
0.5
 40
0.5
 40
0.5
 40
0.75
 40
0.75
 40
0.75
 40
0.75
 40
1.0
 40
1.0
 40
1.0
 40
1.0
 10
-1.982622047244095
 20
-3.15005905511811
 30
0.0
 10
-1.917511811023622
 20
-3.010870078740158
 30
0.0
 10
-1.593610236220473
 20
-2.935570866141732
 30
0.0
 10
-1.508307086614173
 20
-2.462692913385827
 30
0.0
 10
-1.508307086614173
 20
-2.462692913385827
 30
0.0
 10
-1.357283464566929
 20
-2.509586614173228
 30
0.0
 10
-1.244330708661417
 20
-2.854358267716536
 30
0.0
 10
-1.342555118110236
 20
-3.258657480314961
 30
0.0
 10
-1.342555118110236
 20
-3.258657480314961
 30
0.0
 10
-1.342555118110236
 20
-3.258657480314961
 30
0.0
 10
-1.68401968503937
 20
-3.258657480314961
 30
0.0
 10
-1.68401968503937
 20
-3.258657480314961
 30
0.0
 10
-1.68401968503937
 20
-3.258657480314961
 30
0.0
 10
-1.767429133858268
 20
-3.206779527559055
 30
0.0
 10
-1.867909448818898
 20
-3.171503937007874
 30
0.0
 10
-1.982622047244095
 20
-3.15005905511811
 30
0.0
  0
SPLINE
  5
97
330
1F
100
AcDbEntity
  8
Layer 1
 62
   250
370
     5
100
AcDbSpline
210
0.0
220
0.0
230
1.0
 70
    11
 71
     3
 72
    24
 73
    20
 74
     0
 42
0.0000000001
 43
0.0000000001
 40
0.0
 40
0.0
 40
0.0
 40
0.0
 40
0.2
 40
0.2
 40
0.2
 40
0.2
 40
0.4
 40
0.4
 40
0.4
 40
0.4
 40
0.6000000000000001
 40
0.6000000000000001
 40
0.6000000000000001
 40
0.6000000000000001
 40
0.8
 40
0.8
 40
0.8
 40
0.8
 40
1.0
 40
1.0
 40
1.0
 40
1.0
 10
-2.751948818897638
 20
-1.580744094488189
 30
0.0
 10
-2.714783464566929
 20
-1.387425196850394
 30
0.0
 10
-2.578996062992126
 20
-1.260708661417323
 30
0.0
 10
-2.640456692913386
 20
-1.000787401574803
 30
0.0
 10
-2.640456692913386
 20
-1.000787401574803
 30
0.0
 10
-2.607763779527559
 20
-0.9519173228346457
 30
0.0
 10
-2.389330708661417
 20
-1.215385826771654
 30
0.0
 10
-2.263779527559055
 20
-1.322669291338583
 30
0.0
 10
-2.263779527559055
 20
-1.322669291338583
 30
0.0
 10
-2.168448818897638
 20
-1.406850393700788
 30
0.0
 10
-2.171464566929134
 20
-1.554492125984252
 30
0.0
 10
-2.111141732283465
 20
-1.613035433070866
 30
0.0
 10
-2.111141732283465
 20
-1.613035433070866
 30
0.0
 10
-2.111141732283465
 20
-1.613035433070866
 30
0.0
 10
-2.31155905511811
 20
-1.883263779527559
 30
0.0
 10
-2.31155905511811
 20
-1.883263779527559
 30
0.0
 10
-2.31155905511811
 20
-1.883263779527559
 30
0.0
 10
-2.425377952755905
 20
-1.666275590551181
 30
0.0
 10
-2.520771653543307
 20
-1.554574803149606
 30
0.0
 10
-2.751948818897638
 20
-1.580744094488189
 30
0.0
  0
SPLINE
  5
98
330
1F
100
AcDbEntity
  8
Layer 1
 62
   250
370
     5
100
AcDbSpline
210
0.0
220
0.0
230
1.0
 70
    11
 71
     3
 72
    24
 73
    20
 74
     0
 42
0.0000000001
 43
0.0000000001
 40
0.0
 40
0.0
 40
0.0
 40
0.0
 40
0.2
 40
0.2
 40
0.2
 40
0.2
 40
0.4
 40
0.4
 40
0.4
 40
0.4
 40
0.6000000000000001
 40
0.6000000000000001
 40
0.6000000000000001
 40
0.6000000000000001
 40
0.8
 40
0.8
 40
0.8
 40
0.8
 40
1.0
 40
1.0
 40
1.0
 40
1.0
 10
-4.330370078740158
 20
-1.954629921259843
 30
0.0
 10
-4.257622047244094
 20
-1.791212598425197
 30
0.0
 10
-4.160275590551182
 20
-1.644751968503937
 30
0.0
 10
-4.112118110236221
 20
-1.464393700787402
 30
0.0
 10
-4.112118110236221
 20
-1.464393700787402
 30
0.0
 10
-4.085212598425197
 20
-1.481232283464567
 30
0.0
 10
-3.978224409448819
 20
-1.995228346456693
 30
0.0
 10
-3.878385826771654
 20
-2.205704724409449
 30
0.0
 10
-3.878385826771654
 20
-2.205704724409449
 30
0.0
 10
-3.842259842519685
 20
-2.281866141732284
 30
0.0
 10
-3.842015748031496
 20
-2.355448818897638
 30
0.0
 10
-3.836397637795276
 20
-2.394188976377953
 30
0.0
 10
-3.836397637795276
 20
-2.394188976377953
 30
0.0
 10
-3.78892125984252
 20
-2.553468503937008
 30
0.0
 10
-3.826295275590551
 20
-2.547098425196851
 30
0.0
 10
-3.661125984251969
 20
-2.803846456692913
 30
0.0
 10
-3.661125984251969
 20
-2.803846456692913
 30
0.0
 10
-4.041637795275591
 20
-2.860751968503937
 30
0.0
 10
-4.578700787401575
 20
-2.470086614173229
 30
0.0
 10
-4.330370078740158
 20
-1.954629921259843
 30
0.0
  0
SPLINE
  5
99
330
1F
100
AcDbEntity
  8
Layer 1
 62
   250
370
     5
100
AcDbSpline
210
0.0
220
0.0
230
1.0
 70
    11
 71
     3
 72
    20
 73
    16
 74
     0
 42
0.0000000001
 43
0.0000000001
 40
0.0
 40
0.0
 40
0.0
 40
0.0
 40
0.25
 40
0.25
 40
0.25
 40
0.25
 40
0.5
 40
0.5
 40
0.5
 40
0.5
 40
0.75
 40
0.75
 40
0.75
 40
0.75
 40
1.0
 40
1.0
 40
1.0
 40
1.0
 10
-3.578874015748032
 20
-2.487570866141732
 30
0.0
 10
-3.621712598425197
 20
-2.315248031496063
 30
0.0
 10
-3.672413385826772
 20
-2.153291338582677
 30
0.0
 10
-3.747511811023622
 20
-2.006696850393701
 30
0.0
 10
-3.747511811023622
 20
-2.006696850393701
 30
0.0
 10
-3.257259842519685
 20
-2.166767716535433
 30
0.0
 10
-2.927137795275591
 20
-2.432405511811024
 30
0.0
 10
-2.94932283464567
 20
-2.930314960629922
 30
0.0
 10
-2.94932283464567
 20
-2.930314960629922
 30
0.0
 10
-3.024822834645669
 20
-2.86651968503937
 30
0.0
 10
-3.110023622047244
 20
-2.832
 30
0.0
 10
-3.199665354330709
 20
-2.810799212598425
 30
0.0
 10
-3.199665354330709
 20
-2.810799212598425
 30
0.0
 10
-3.43298031496063
 20
-2.776874015748032
 30
0.0
 10
-3.527759842519685
 20
-2.683263779527559
 30
0.0
 10
-3.578874015748032
 20
-2.487570866141732
 30
0.0
  0
SPLINE
  5
9A
330
1F
100
AcDbEntity
  8
Layer 1
 62
   250
370
     5
100
AcDbSpline
210
0.0
220
0.0
230
1.0
 70
    11
 71
     3
 72
    24
 73
    20
 74
     0
 42
0.0000000001
 43
0.0000000001
 40
0.0
 40
0.0
 40
0.0
 40
0.0
 40
0.2
 40
0.2
 40
0.2
 40
0.2
 40
0.4
 40
0.4
 40
0.4
 40
0.4
 40
0.6000000000000001
 40
0.6000000000000001
 40
0.6000000000000001
 40
0.6000000000000001
 40
0.8
 40
0.8
 40
0.8
 40
0.8
 40
1.0
 40
1.0
 40
1.0
 40
1.0
 10
-4.339649606299213
 20
-3.162066929133859
 30
0.0
 10
-4.406425196850394
 20
-2.981724409448819
 30
0.0
 10
-4.43790157480315
 20
-2.797566929133859
 30
0.0
 10
-4.464314960629921
 20
-2.612885826771654
 30
0.0
 10
-4.464314960629921
 20
-2.612885826771654
 30
0.0
 10
-4.422122047244095
 20
-2.597704724409449
 30
0.0
 10
-4.410102362204724
 20
-2.647594488188977
 30
0.0
 10
-4.393744094488189
 20
-2.691393700787402
 30
0.0
 10
-4.393744094488189
 20
-2.691393700787402
 30
0.0
 10
-4.366559055118111
 20
-2.764267716535433
 30
0.0
 10
-4.306216535433071
 20
-2.803232283464567
 30
0.0
 10
-4.238976377952756
 20
-2.835551181102362
 30
0.0
 10
-4.238976377952756
 20
-2.835551181102362
 30
0.0
 10
-4.121968503937008
 20
-2.891173228346457
 30
0.0
 10
-3.997094488188977
 20
-2.929645669291339
 30
0.0
 10
-3.864822834645669
 20
-2.951925196850394
 30
0.0
 10
-3.864822834645669
 20
-2.951925196850394
 30
0.0
 10
-4.01494094488189
 20
-3.070535433070866
 30
0.0
 10
-4.174811023622048
 20
-3.131023622047244
 30
0.0
 10
-4.339649606299213
 20
-3.162066929133859
 30
0.0
  0
SPLINE
  5
9B
330
1F
100
AcDbEntity
  8
Layer 1
 62
   250
370
     5
100
AcDbSpline
210
0.0
220
0.0
230
1.0
 70
    11
 71
     3
 72
    16
 73
    12
 74
     0
 42
0.0000000001
 43
0.0000000001
 40
0.0
 40
0.0
 40
0.0
 40
0.0
 40
0.3333333333333333
 40
0.3333333333333333
 40
0.3333333333333333
 40
0.3333333333333333
 40
0.6666666666666666
 40
0.6666666666666666
 40
0.6666666666666666
 40
0.6666666666666666
 40
1.0
 40
1.0
 40
1.0
 40
1.0
 10
-3.819125984251969
 20
-3.139023622047244
 30
0.0
 10
-3.689736220472441
 20
-2.883027559055118
 30
0.0
 10
-3.094822834645669
 20
-2.908661417322835
 30
0.0
 10
-2.904992125984252
 20
-3.258657480314961
 30
0.0
 10
-2.904992125984252
 20
-3.258657480314961
 30
0.0
 10
-2.904992125984252
 20
-3.258657480314961
 30
0.0
 10
-3.601771653543307
 20
-3.258657480314961
 30
0.0
 10
-3.601771653543307
 20
-3.258657480314961
 30
0.0
 10
-3.601771653543307
 20
-3.258657480314961
 30
0.0
 10
-3.668433070866142
 20
-3.214429133858268
 30
0.0
 10
-3.740712598425197
 20
-3.174413385826772
 30
0.0
 10
-3.819125984251969
 20
-3.139023622047244
 30
0.0
  0
SPLINE
  5
9C
330
1F
100
AcDbEntity
  8
Layer 1
 62
   250
370
     5
100
AcDbSpline
210
0.0
220
0.0
230
1.0
 70
    11
 71
     3
 72
    16
 73
    12
 74
     0
 42
0.0000000001
 43
0.0000000001
 40
0.0
 40
0.0
 40
0.0
 40
0.0
 40
0.3333333333333333
 40
0.3333333333333333
 40
0.3333333333333333
 40
0.3333333333333333
 40
0.6666666666666666
 40
0.6666666666666666
 40
0.6666666666666666
 40
0.6666666666666666
 40
1.0
 40
1.0
 40
1.0
 40
1.0
 10
-7.681196850393701
 20
-2.986307086614173
 30
0.0
 10
-7.579220472440945
 20
-3.163425196850394
 30
0.0
 10
-7.447200787401575
 20
-3.200236220472441
 30
0.0
 10
-7.319818897637796
 20
-3.258657480314961
 30
0.0
 10
-7.319818897637796
 20
-3.258657480314961
 30
0.0
 10
-7.319818897637796
 20
-3.258657480314961
 30
0.0
 10
-7.723263779527559
 20
-3.258657480314961
 30
0.0
 10
-7.723263779527559
 20
-3.258657480314961
 30
0.0
 10
-7.723263779527559
 20
-3.258657480314961
 30
0.0
 10
-7.720771653543308
 20
-3.115377952755906
 30
0.0
 10
-7.717118110236221
 20
-2.979003937007874
 30
0.0
 10
-7.681196850393701
 20
-2.986307086614173
 30
0.0
  0
SPLINE
  5
9D
330
1F
100
AcDbEntity
  8
Layer 1
 62
   250
370
     5
100
AcDbSpline
210
0.0
220
0.0
230
1.0
 70
    11
 71
     3
 72
    28
 73
    24
 74
     0
 42
0.0000000001
 43
0.0000000001
 40
0.0
 40
0.0
 40
0.0
 40
0.0
 40
0.1666666666666667
 40
0.1666666666666667
 40
0.1666666666666667
 40
0.1666666666666667
 40
0.3333333333333333
 40
0.3333333333333333
 40
0.3333333333333333
 40
0.3333333333333333
 40
0.5
 40
0.5
 40
0.5
 40
0.5
 40
0.6666666666666666
 40
0.6666666666666666
 40
0.6666666666666666
 40
0.6666666666666666
 40
0.8333333333333333
 40
0.8333333333333333
 40
0.8333333333333333
 40
0.8333333333333333
 40
1.0
 40
1.0
 40
1.0
 40
1.0
 10
-7.614271653543307
 20
-2.824011811023622
 30
0.0
 10
-7.523129921259843
 20
-2.642468503937008
 30
0.0
 10
-7.542425196850394
 20
-2.597472440944882
 30
0.0
 10
-7.522917322834646
 20
-2.470570866141733
 30
0.0
 10
-7.522917322834646
 20
-2.470570866141733
 30
0.0
 10
-7.493279527559055
 20
-2.30386220472441
 30
0.0
 10
-7.412712598425197
 20
-2.144937007874016
 30
0.0
 10
-7.433992125984252
 20
-1.970425196850394
 30
0.0
 10
-7.433992125984252
 20
-1.970425196850394
 30
0.0
 10
-7.437799212598425
 20
-1.799287401574803
 30
0.0
 10
-7.477653543307087
 20
-1.522826771653543
 30
0.0
 10
-7.445413385826772
 20
-1.457007874015748
 30
0.0
 10
-7.445413385826772
 20
-1.457007874015748
 30
0.0
 10
-7.2983031496063
 20
-1.52409842519685
 30
0.0
 10
-7.319011811023622
 20
-1.919062992125984
 30
0.0
 10
-7.267744094488189
 20
-2.172448818897638
 30
0.0
 10
-7.267744094488189
 20
-2.172448818897638
 30
0.0
 10
-7.201141732283465
 20
-2.501669291338583
 30
0.0
 10
-7.228622047244095
 20
-2.688035433070867
 30
0.0
 10
-7.013464566929134
 20
-3.17155905511811
 30
0.0
 10
-7.013464566929134
 20
-3.17155905511811
 30
0.0
 10
-7.215228346456693
 20
-3.078283464566929
 30
0.0
 10
-7.157259842519685
 20
-3.211606299212598
 30
0.0
 10
-7.614271653543307
 20
-2.824011811023622
 30
0.0
  0
SPLINE
  5
9E
330
1F
100
AcDbEntity
  8
Layer 1
 62
   250
370
     5
100
AcDbSpline
210
0.0
220
0.0
230
1.0
 70
    11
 71
     3
 72
    20
 73
    16
 74
     0
 42
0.0000000001
 43
0.0000000001
 40
0.0
 40
0.0
 40
0.0
 40
0.0
 40
0.25
 40
0.25
 40
0.25
 40
0.25
 40
0.5
 40
0.5
 40
0.5
 40
0.5
 40
0.75
 40
0.75
 40
0.75
 40
0.75
 40
1.0
 40
1.0
 40
1.0
 40
1.0
 10
-7.043527559055119
 20
-2.484263779527559
 30
0.0
 10
-7.11844094488189
 20
-2.154133858267717
 30
0.0
 10
-7.320547244094488
 20
-1.580606299212598
 30
0.0
 10
-7.268267716535434
 20
-1.493870078740158
 30
0.0
 10
-7.268267716535434
 20
-1.493870078740158
 30
0.0
 10
-7.23744094488189
 20
-1.543535433070866
 30
0.0
 10
-7.21494094488189
 20
-1.630307086614173
 30
0.0
 10
-7.189984251968504
 20
-1.688161417322835
 30
0.0
 10
-7.189984251968504
 20
-1.688161417322835
 30
0.0
 10
-7.081346456692914
 20
-1.939933070866142
 30
0.0
 10
-6.91778346456693
 20
-2.059657480314961
 30
0.0
 10
-6.685248031496063
 20
-2.152346456692913
 30
0.0
 10
-6.685248031496063
 20
-2.152346456692913
 30
0.0
 10
-6.872090551181103
 20
-2.213228346456693
 30
0.0
 10
-7.000503937007874
 20
-2.317240157480315
 30
0.0
 10
-7.043527559055119
 20
-2.484263779527559
 30
0.0
  0
SPLINE
  5
9F
330
1F
100
AcDbEntity
  8
Layer 1
 62
   250
370
     5
100
AcDbSpline
210
0.0
220
0.0
230
1.0
 70
    11
 71
     3
 72
    20
 73
    16
 74
     0
 42
0.0000000001
 43
0.0000000001
 40
0.0
 40
0.0
 40
0.0
 40
0.0
 40
0.25
 40
0.25
 40
0.25
 40
0.25
 40
0.5
 40
0.5
 40
0.5
 40
0.5
 40
0.75
 40
0.75
 40
0.75
 40
0.75
 40
1.0
 40
1.0
 40
1.0
 40
1.0
 10
-6.739669291338583
 20
-3.258657480314961
 30
0.0
 10
-7.022759842519685
 20
-2.808551181102363
 30
0.0
 10
-6.985555118110237
 20
-2.442350393700787
 30
0.0
 10
-6.508972440944882
 20
-2.191240157480315
 30
0.0
 10
-6.508972440944882
 20
-2.191240157480315
 30
0.0
 10
-6.377854330708662
 20
-2.385468503937008
 30
0.0
 10
-6.336177165354331
 20
-2.621956692913386
 30
0.0
 10
-6.425251968503937
 20
-2.920236220472441
 30
0.0
 10
-6.425251968503937
 20
-2.920236220472441
 30
0.0
 10
-6.468822834645669
 20
-3.033287401574803
 30
0.0
 10
-6.507070866141732
 20
-3.146161417322835
 30
0.0
 10
-6.534452755905512
 20
-3.258657480314961
 30
0.0
 10
-6.534452755905512
 20
-3.258657480314961
 30
0.0
 10
-6.534452755905512
 20
-3.258657480314961
 30
0.0
 10
-6.739669291338583
 20
-3.258657480314961
 30
0.0
 10
-6.739669291338583
 20
-3.258657480314961
 30
0.0
  0
SPLINE
  5
A0
330
1F
100
AcDbEntity
  8
Layer 1
 62
   250
370
     5
100
AcDbSpline
210
0.0
220
0.0
230
1.0
 70
    11
 71
     3
 72
    16
 73
    12
 74
     0
 42
0.0000000001
 43
0.0000000001
 40
0.0
 40
0.0
 40
0.0
 40
0.0
 40
0.3333333333333333
 40
0.3333333333333333
 40
0.3333333333333333
 40
0.3333333333333333
 40
0.6666666666666666
 40
0.6666666666666666
 40
0.6666666666666666
 40
0.6666666666666666
 40
1.0
 40
1.0
 40
1.0
 40
1.0
 10
-6.350484251968505
 20
-3.258657480314961
 30
0.0
 10
-6.316665354330709
 20
-3.145976377952756
 30
0.0
 10
-6.267157480314961
 20
-3.029968503937008
 30
0.0
 10
-6.205618110236221
 20
-2.911417322834646
 30
0.0
 10
-6.205618110236221
 20
-2.911417322834646
 30
0.0
 10
-6.171515748031497
 20
-3.029645669291339
 30
0.0
 10
-6.121988188976379
 20
-3.144263779527559
 30
0.0
 10
-6.063275590551181
 20
-3.258657480314961
 30
0.0
 10
-6.063275590551181
 20
-3.258657480314961
 30
0.0
 10
-6.063275590551181
 20
-3.258657480314961
 30
0.0
 10
-6.350484251968505
 20
-3.258657480314961
 30
0.0
 10
-6.350484251968505
 20
-3.258657480314961
 30
0.0
  0
SPLINE
  5
A1
330
1F
100
AcDbEntity
  8
Layer 1
 62
   250
370
     5
100
AcDbSpline
210
0.0
220
0.0
230
1.0
 70
    11
 71
     3
 72
    28
 73
    24
 74
     0
 42
0.0000000001
 43
0.0000000001
 40
0.0
 40
0.0
 40
0.0
 40
0.0
 40
0.1666666666666667
 40
0.1666666666666667
 40
0.1666666666666667
 40
0.1666666666666667
 40
0.3333333333333333
 40
0.3333333333333333
 40
0.3333333333333333
 40
0.3333333333333333
 40
0.5
 40
0.5
 40
0.5
 40
0.5
 40
0.6666666666666666
 40
0.6666666666666666
 40
0.6666666666666666
 40
0.6666666666666666
 40
0.8333333333333333
 40
0.8333333333333333
 40
0.8333333333333333
 40
0.8333333333333333
 40
1.0
 40
1.0
 40
1.0
 40
1.0
 10
-5.804311023622048
 20
-3.258657480314961
 30
0.0
 10
-5.82403937007874
 20
-3.21988188976378
 30
0.0
 10
-5.846523622047244
 20
-3.189425196850394
 30
0.0
 10
-5.878830708661417
 20
-3.124956692913386
 30
0.0
 10
-5.878830708661417
 20
-3.124956692913386
 30
0.0
 10
-5.901114173228347
 20
-3.093200787401575
 30
0.0
 10
-5.950909448818898
 20
-3.040350393700788
 30
0.0
 10
-5.976787401574804
 20
-2.959897637795276
 30
0.0
 10
-5.976787401574804
 20
-2.959897637795276
 30
0.0
 10
-6.048263779527559
 20
-2.737551181102362
 30
0.0
 10
-6.320771653543307
 20
-2.2928031496063
 30
0.0
 10
-6.312952755905512
 20
-2.26144094488189
 30
0.0
 10
-6.312952755905512
 20
-2.26144094488189
 30
0.0
 10
-6.156000000000001
 20
-2.35596062992126
 30
0.0
 10
-5.986838582677166
 20
-2.39090157480315
 30
0.0
 10
-5.823791338582677
 20
-2.455641732283465
 30
0.0
 10
-5.823791338582677
 20
-2.455641732283465
 30
0.0
 10
-5.447307086614173
 20
-2.591610236220473
 30
0.0
 10
-5.39994094488189
 20
-2.969027559055118
 30
0.0
 10
-5.516586614173229
 20
-3.258657480314961
 30
0.0
 10
-5.516586614173229
 20
-3.258657480314961
 30
0.0
 10
-5.516586614173229
 20
-3.258657480314961
 30
0.0
 10
-5.804311023622048
 20
-3.258657480314961
 30
0.0
 10
-5.804311023622048
 20
-3.258657480314961
 30
0.0
  0
SPLINE
  5
A2
330
1F
100
AcDbEntity
  8
Layer 1
 62
   250
370
     5
100
AcDbSpline
210
0.0
220
0.0
230
1.0
 70
    11
 71
     3
 72
    24
 73
    20
 74
     0
 42
0.0000000001
 43
0.0000000001
 40
0.0
 40
0.0
 40
0.0
 40
0.0
 40
0.2
 40
0.2
 40
0.2
 40
0.2
 40
0.4
 40
0.4
 40
0.4
 40
0.4
 40
0.6000000000000001
 40
0.6000000000000001
 40
0.6000000000000001
 40
0.6000000000000001
 40
0.8
 40
0.8
 40
0.8
 40
0.8
 40
1.0
 40
1.0
 40
1.0
 40
1.0
 10
-0.9949133858267717
 20
4.256688976377953
 30
0.0
 10
-0.9725472440944882
 20
4.390295275590551
 30
0.0
 10
-0.8150354330708661
 20
4.481570866141732
 30
0.0
 10
-0.6376338582677166
 20
4.524775590551181
 30
0.0
 10
-0.6376338582677166
 20
4.524775590551181
 30
0.0
 10
-0.6376338582677166
 20
4.524775590551181
 30
0.0
 10
-0.2389370078740158
 20
4.524775590551181
 30
0.0
 10
-0.2389370078740158
 20
4.524775590551181
 30
0.0
 10
-0.2389370078740158
 20
4.524775590551181
 30
0.0
 10
-0.4265511811023622
 20
4.444429133858268
 30
0.0
 10
-0.5612677165354331
 20
4.33140157480315
 30
0.0
 10
-0.6477322834645669
 20
4.188562992125984
 30
0.0
 10
-0.6477322834645669
 20
4.188562992125984
 30
0.0
 10
-0.7480787401574803
 20
4.024165354330709
 30
0.0
 10
-0.8721850393700787
 20
3.888913385826772
 30
0.0
 10
-1.03953937007874
 20
3.806657480314961
 30
0.0
 10
-1.03953937007874
 20
3.806657480314961
 30
0.0
 10
-1.045877952755905
 20
3.931350393700788
 30
0.0
 10
-1.028515748031496
 20
4.084326771653544
 30
0.0
 10
-0.9949133858267717
 20
4.256688976377953
 30
0.0
  0
SPLINE
  5
A3
330
1F
100
AcDbEntity
  8
Layer 1
 62
   250
370
     5
100
AcDbSpline
210
0.0
220
0.0
230
1.0
 70
    11
 71
     3
 72
    32
 73
    28
 74
     0
 42
0.0000000001
 43
0.0000000001
 40
0.0
 40
0.0
 40
0.0
 40
0.0
 40
0.1428571428571429
 40
0.1428571428571429
 40
0.1428571428571429
 40
0.1428571428571429
 40
0.2857142857142857
 40
0.2857142857142857
 40
0.2857142857142857
 40
0.2857142857142857
 40
0.4285714285714286
 40
0.4285714285714286
 40
0.4285714285714286
 40
0.4285714285714286
 40
0.5714285714285714
 40
0.5714285714285714
 40
0.5714285714285714
 40
0.5714285714285714
 40
0.7142857142857142
 40
0.7142857142857142
 40
0.7142857142857142
 40
0.7142857142857142
 40
0.857142857142857
 40
0.857142857142857
 40
0.857142857142857
 40
0.857142857142857
 40
1.0
 40
1.0
 40
1.0
 40
1.0
 10
-0.5063110236220473
 20
4.112555118110237
 30
0.0
 10
-0.4021181102362205
 20
4.273751968503937
 30
0.0
 10
-0.2242598425196851
 20
4.456685039370079
 30
0.0
 10
0.1174606299212598
 20
4.395653543307087
 30
0.0
 10
0.1174606299212598
 20
4.395653543307087
 30
0.0
 10
0.2857952755905512
 20
4.387492125984252
 30
0.0
 10
0.3770157480314961
 20
4.310133858267717
 30
0.0
 10
0.6224527559055119
 20
4.371165354330709
 30
0.0
 10
0.6224527559055119
 20
4.371165354330709
 30
0.0
 10
0.6326299212598425
 20
4.234488188976378
 30
0.0
 10
0.4886299212598426
 20
4.094133858267717
 30
0.0
 10
0.3014606299212598
 20
3.952740157480315
 30
0.0
 10
0.3014606299212598
 20
3.952740157480315
 30
0.0
 10
0.2463070866141733
 20
3.970251968503937
 30
0.0
 10
0.1812637795275591
 20
3.976417322834646
 30
0.0
 10
0.0888818897637795
 20
3.951244094488189
 30
0.0
 10
0.0888818897637795
 20
3.951244094488189
 30
0.0
 10
0.0045866141732283
 20
3.895877952755906
 30
0.0
 10
-0.0707086614173228
 20
3.968598425196851
 30
0.0
 10
-0.2037204724409449
 20
3.940366141732284
 30
0.0
 10
-0.2037204724409449
 20
3.940366141732284
 30
0.0
 10
-0.3737322834645669
 20
3.913070866141732
 30
0.0
 10
-0.5733700787401576
 20
3.827629921259843
 30
0.0
 10
-0.7414330708661417
 20
3.878645669291339
 30
0.0
 10
-0.7414330708661417
 20
3.878645669291339
 30
0.0
 10
-0.5839448818897638
 20
3.959476377952756
 30
0.0
 10
-0.5676653543307086
 20
4.017629921259843
 30
0.0
 10
-0.5063110236220473
 20
4.112555118110237
 30
0.0
  0
SPLINE
  5
A4
330
1F
100
AcDbEntity
  8
Layer 1
 62
   250
370
     5
100
AcDbSpline
210
0.0
220
0.0
230
1.0
 70
    11
 71
     3
 72
    24
 73
    20
 74
     0
 42
0.0000000001
 43
0.0000000001
 40
0.0
 40
0.0
 40
0.0
 40
0.0
 40
0.2
 40
0.2
 40
0.2
 40
0.2
 40
0.4
 40
0.4
 40
0.4
 40
0.4
 40
0.6000000000000001
 40
0.6000000000000001
 40
0.6000000000000001
 40
0.6000000000000001
 40
0.8
 40
0.8
 40
0.8
 40
0.8
 40
1.0
 40
1.0
 40
1.0
 40
1.0
 10
-1.237165354330709
 20
3.362287401574803
 30
0.0
 10
-1.225102362204724
 20
3.490909448818898
 30
0.0
 10
-1.105948818897638
 20
3.573358267716535
 30
0.0
 10
-1.094114173228347
 20
3.657787401574803
 30
0.0
 10
-1.094114173228347
 20
3.657787401574803
 30
0.0
 10
-1.094114173228347
 20
3.657787401574803
 30
0.0
 10
-0.7638661417322835
 20
3.64482283464567
 30
0.0
 10
-0.7638661417322835
 20
3.64482283464567
 30
0.0
 10
-0.7638661417322835
 20
3.64482283464567
 30
0.0
 10
-0.8709015748031497
 20
3.424228346456693
 30
0.0
 10
-0.9048031496062993
 20
3.279728346456693
 30
0.0
 10
-0.7509212598425197
 20
3.100425196850394
 30
0.0
 10
-0.7509212598425197
 20
3.100425196850394
 30
0.0
 10
-0.9260551181102362
 20
3.020377952755906
 30
0.0
 10
-1.104992125984252
 20
3.061610236220473
 30
0.0
 10
-1.276314960629921
 20
2.860311023622047
 30
0.0
 10
-1.276314960629921
 20
2.860311023622047
 30
0.0
 10
-1.333996062992126
 20
2.859661417322835
 30
0.0
 10
-1.250216535433071
 20
3.19496062992126
 30
0.0
 10
-1.237165354330709
 20
3.362287401574803
 30
0.0
  0
SPLINE
  5
A5
330
1F
100
AcDbEntity
  8
Layer 1
 62
   250
370
     5
100
AcDbSpline
210
0.0
220
0.0
230
1.0
 70
    11
 71
     3
 72
    20
 73
    16
 74
     0
 42
0.0000000001
 43
0.0000000001
 40
0.0
 40
0.0
 40
0.0
 40
0.0
 40
0.25
 40
0.25
 40
0.25
 40
0.25
 40
0.5
 40
0.5
 40
0.5
 40
0.5
 40
0.75
 40
0.75
 40
0.75
 40
0.75
 40
1.0
 40
1.0
 40
1.0
 40
1.0
 10
-0.5830629921259842
 20
3.228484251968504
 30
0.0
 10
-0.7468425196850395
 20
3.383720472440945
 30
0.0
 10
-0.5766535433070866
 20
3.535515748031496
 30
0.0
 10
-0.5734448818897638
 20
3.68901968503937
 30
0.0
 10
-0.5734448818897638
 20
3.68901968503937
 30
0.0
 10
-0.2811614173228347
 20
3.678929133858268
 30
0.0
 10
-0.2153149606299213
 20
3.836039370078741
 30
0.0
 10
0.1417637795275591
 20
3.749582677165355
 30
0.0
 10
0.1417637795275591
 20
3.749582677165355
 30
0.0
 10
-0.1144527559055118
 20
3.530295275590552
 30
0.0
 10
-0.2043385826771654
 20
3.323688976377953
 30
0.0
 10
-0.4593070866141732
 20
3.139669291338583
 30
0.0
 10
-0.4593070866141732
 20
3.139669291338583
 30
0.0
 10
-0.4593070866141732
 20
3.139669291338583
 30
0.0
 10
-0.5830629921259842
 20
3.228484251968504
 30
0.0
 10
-0.5830629921259842
 20
3.228484251968504
 30
0.0
  0
SPLINE
  5
A6
330
1F
100
AcDbEntity
  8
Layer 1
 62
   250
370
     5
100
AcDbSpline
210
0.0
220
0.0
230
1.0
 70
    11
 71
     3
 72
    16
 73
    12
 74
     0
 42
0.0000000001
 43
0.0000000001
 40
0.0
 40
0.0
 40
0.0
 40
0.0
 40
0.3333333333333333
 40
0.3333333333333333
 40
0.3333333333333333
 40
0.3333333333333333
 40
0.6666666666666666
 40
0.6666666666666666
 40
0.6666666666666666
 40
0.6666666666666666
 40
1.0
 40
1.0
 40
1.0
 40
1.0
 10
-0.2656811023622047
 20
1.857763779527559
 30
0.0
 10
-0.75948031496063
 20
2.250098425196851
 30
0.0
 10
-0.6388818897637796
 20
2.683633858267717
 30
0.0
 10
-0.0978858267716535
 20
3.145362204724409
 30
0.0
 10
-0.0978858267716535
 20
3.145362204724409
 30
0.0
 10
-0.1150551181102362
 20
2.95703937007874
 30
0.0
 10
-0.0915826771653543
 20
2.759507874015748
 30
0.0
 10
-0.0534370078740158
 20
2.558649606299213
 30
0.0
 10
-0.0534370078740158
 20
2.558649606299213
 30
0.0
 10
-0.0190236220472441
 20
2.248618110236221
 30
0.0
 10
-0.1021535433070866
 20
2.023984251968504
 30
0.0
 10
-0.2656811023622047
 20
1.857763779527559
 30
0.0
  0
SPLINE
  5
A7
330
1F
100
AcDbEntity
  8
Layer 1
 62
   250
370
     5
100
AcDbSpline
210
0.0
220
0.0
230
1.0
 70
    11
 71
     3
 72
    20
 73
    16
 74
     0
 42
0.0000000001
 43
0.0000000001
 40
0.0
 40
0.0
 40
0.0
 40
0.0
 40
0.25
 40
0.25
 40
0.25
 40
0.25
 40
0.5
 40
0.5
 40
0.5
 40
0.5
 40
0.75
 40
0.75
 40
0.75
 40
0.75
 40
1.0
 40
1.0
 40
1.0
 40
1.0
 10
0.1609212598425197
 20
2.508566929133858
 30
0.0
 10
0.006007874015748
 20
3.012909448818898
 30
0.0
 10
0.0272204724409449
 20
3.443377952755906
 30
0.0
 10
0.4359448818897638
 20
3.711330708661417
 30
0.0
 10
0.4359448818897638
 20
3.711330708661417
 30
0.0
 10
0.4286614173228346
 20
3.611145669291339
 30
0.0
 10
0.4502795275590552
 20
3.519625984251969
 30
0.0
 10
0.485003937007874
 20
3.432074803149606
 30
0.0
 10
0.485003937007874
 20
3.432074803149606
 30
0.0
 10
0.5923307086614174
 20
3.216358267716536
 30
0.0
 10
0.5724488188976378
 20
3.082799212598425
 30
0.0
 10
0.446240157480315
 20
2.927169291338583
 30
0.0
 10
0.446240157480315
 20
2.927169291338583
 30
0.0
 10
0.3338779527559055
 20
2.79196062992126
 30
0.0
 10
0.2342677165354331
 20
2.656106299212599
 30
0.0
 10
0.1609212598425197
 20
2.508566929133858
 30
0.0
  0
SPLINE
  5
A8
330
1F
100
AcDbEntity
  8
Layer 1
 62
   250
370
     5
100
AcDbSpline
210
0.0
220
0.0
230
1.0
 70
    11
 71
     3
 72
    16
 73
    12
 74
     0
 42
0.0000000001
 43
0.0000000001
 40
0.0
 40
0.0
 40
0.0
 40
0.0
 40
0.3333333333333333
 40
0.3333333333333333
 40
0.3333333333333333
 40
0.3333333333333333
 40
0.6666666666666666
 40
0.6666666666666666
 40
0.6666666666666666
 40
0.6666666666666666
 40
1.0
 40
1.0
 40
1.0
 40
1.0
 10
-1.564484251968504
 20
2.792039370078741
 30
0.0
 10
-1.743259842519685
 20
3.191759842519685
 30
0.0
 10
-2.341771653543307
 20
3.199291338582677
 30
0.0
 10
-2.552444881889764
 20
3.201102362204725
 30
0.0
 10
-2.552444881889764
 20
3.201102362204725
 30
0.0
 10
-2.441692913385827
 20
3.366586614173229
 30
0.0
 10
-2.283287401574803
 20
3.463614173228347
 30
0.0
 10
-2.092271653543307
 20
3.513834645669292
 30
0.0
 10
-2.092271653543307
 20
3.513834645669292
 30
0.0
 10
-1.76
 20
3.542688976377953
 30
0.0
 10
-1.516244094488189
 20
3.172322834645669
 30
0.0
 10
-1.564484251968504
 20
2.792039370078741
 30
0.0
  0
SPLINE
  5
A9
330
1F
100
AcDbEntity
  8
Layer 1
 62
   250
370
     5
100
AcDbSpline
210
0.0
220
0.0
230
1.0
 70
    11
 71
     3
 72
    24
 73
    20
 74
     0
 42
0.0000000001
 43
0.0000000001
 40
0.0
 40
0.0
 40
0.0
 40
0.0
 40
0.2
 40
0.2
 40
0.2
 40
0.2
 40
0.4
 40
0.4
 40
0.4
 40
0.4
 40
0.6000000000000001
 40
0.6000000000000001
 40
0.6000000000000001
 40
0.6000000000000001
 40
0.8
 40
0.8
 40
0.8
 40
0.8
 40
1.0
 40
1.0
 40
1.0
 40
1.0
 10
0.3945196850393701
 20
2.51309842519685
 30
0.0
 10
0.4342755905511812
 20
2.587307086614173
 30
0.0
 10
0.4926574803149607
 20
2.629866141732284
 30
0.0
 10
0.5202283464566929
 20
2.656889763779528
 30
0.0
 10
0.5202283464566929
 20
2.656889763779528
 30
0.0
 10
0.6195748031496063
 20
2.788492125984252
 30
0.0
 10
0.6360157480314961
 20
2.753413385826772
 30
0.0
 10
0.7451181102362205
 20
3.040082677165354
 30
0.0
 10
0.7451181102362205
 20
3.040082677165354
 30
0.0
 10
1.00942125984252
 20
2.752909448818898
 30
0.0
 10
1.007893700787402
 20
2.076472440944882
 30
0.0
 10
0.4550078740157481
 20
1.988547244094488
 30
0.0
 10
0.4550078740157481
 20
1.988547244094488
 30
0.0
 10
0.2831811023622047
 20
1.955637795275591
 30
0.0
 10
0.1106771653543307
 20
1.953173228346457
 30
0.0
 10
-0.060488188976378
 20
1.889830708661417
 30
0.0
 10
-0.060488188976378
 20
1.889830708661417
 30
0.0
 10
-0.0625708661417323
 20
1.922149606299213
 30
0.0
 10
0.2846062992125985
 20
2.307996062992126
 30
0.0
 10
0.3945196850393701
 20
2.51309842519685
 30
0.0
  0
SPLINE
  5
AA
330
1F
100
AcDbEntity
  8
Layer 1
 62
   250
370
     5
100
AcDbSpline
210
0.0
220
0.0
230
1.0
 70
    11
 71
     3
 72
    24
 73
    20
 74
     0
 42
0.0000000001
 43
0.0000000001
 40
0.0
 40
0.0
 40
0.0
 40
0.0
 40
0.2
 40
0.2
 40
0.2
 40
0.2
 40
0.4
 40
0.4
 40
0.4
 40
0.4
 40
0.6000000000000001
 40
0.6000000000000001
 40
0.6000000000000001
 40
0.6000000000000001
 40
0.8
 40
0.8
 40
0.8
 40
0.8
 40
1.0
 40
1.0
 40
1.0
 40
1.0
 10
1.077425196850394
 20
2.359374015748032
 30
0.0
 10
1.119712598425197
 20
2.424165354330709
 30
0.0
 10
1.11598031496063
 20
2.497334645669291
 30
0.0
 10
1.102964566929134
 20
2.572484251968504
 30
0.0
 10
1.102964566929134
 20
2.572484251968504
 30
0.0
 10
1.079850393700788
 20
2.702889763779528
 30
0.0
 10
1.038570866141732
 20
2.830015748031496
 30
0.0
 10
0.9801377952755906
 20
2.954062992125984
 30
0.0
 10
0.9801377952755906
 20
2.954062992125984
 30
0.0
 10
1.160870078740158
 20
2.896129921259843
 30
0.0
 10
1.301
 20
2.796503937007874
 30
0.0
 10
1.420570866141732
 20
2.675811023622047
 30
0.0
 10
1.420570866141732
 20
2.675811023622047
 30
0.0
 10
1.315602362204724
 20
2.515838582677166
 30
0.0
 10
1.187279527559055
 20
2.383385826771653
 30
0.0
 10
1.055602362204724
 20
2.254854330708662
 30
0.0
 10
1.055602362204724
 20
2.254854330708662
 30
0.0
 10
1.019255905511811
 20
2.281586614173229
 30
0.0
 10
1.051996062992126
 20
2.320413385826772
 30
0.0
 10
1.077425196850394
 20
2.359374015748032
 30
0.0
  0
SPLINE
  5
AB
330
1F
100
AcDbEntity
  8
Layer 1
 62
   250
370
     5
100
AcDbSpline
210
0.0
220
0.0
230
1.0
 70
    11
 71
     3
 72
    20
 73
    16
 74
     0
 42
0.0000000001
 43
0.0000000001
 40
0.0
 40
0.0
 40
0.0
 40
0.0
 40
0.25
 40
0.25
 40
0.25
 40
0.25
 40
0.5
 40
0.5
 40
0.5
 40
0.5
 40
0.75
 40
0.75
 40
0.75
 40
0.75
 40
1.0
 40
1.0
 40
1.0
 40
1.0
 10
0.6912598425196851
 20
3.975153543307087
 30
0.0
 10
0.7845196850393701
 20
4.098299212598425
 30
0.0
 10
0.8213307086614173
 20
4.213251968503937
 30
0.0
 10
0.9284173228346457
 20
4.334334645669292
 30
0.0
 10
0.9284173228346457
 20
4.334334645669292
 30
0.0
 10
0.9906181102362205
 20
4.169314960629921
 30
0.0
 10
1.078161417322835
 20
4.055318897637796
 30
0.0
 10
1.183062992125984
 20
3.976251968503937
 30
0.0
 10
1.183062992125984
 20
3.976251968503937
 30
0.0
 10
1.076425196850394
 20
3.711893700787402
 30
0.0
 10
1.03896062992126
 20
3.423570866141732
 30
0.0
 10
1.102618110236221
 20
3.100181102362205
 30
0.0
 10
1.102618110236221
 20
3.100181102362205
 30
0.0
 10
0.8147716535433072
 20
3.060240157480315
 30
0.0
 10
0.479744094488189
 20
3.6135
 30
0.0
 10
0.6912598425196851
 20
3.975153543307087
 30
0.0
  0
SPLINE
  5
AC
330
1F
100
AcDbEntity
  8
Layer 1
 62
   250
370
     5
100
AcDbSpline
210
0.0
220
0.0
230
1.0
 70
    11
 71
     3
 72
    20
 73
    16
 74
     0
 42
0.0000000001
 43
0.0000000001
 40
0.0
 40
0.0
 40
0.0
 40
0.0
 40
0.25
 40
0.25
 40
0.25
 40
0.25
 40
0.5
 40
0.5
 40
0.5
 40
0.5
 40
0.75
 40
0.75
 40
0.75
 40
0.75
 40
1.0
 40
1.0
 40
1.0
 40
1.0
 10
1.296736220472441
 20
3.201031496062992
 30
0.0
 10
1.255673228346457
 20
3.444236220472441
 30
0.0
 10
1.26342125984252
 20
3.70138188976378
 30
0.0
 10
1.35105905511811
 20
3.786629921259843
 30
0.0
 10
1.35105905511811
 20
3.786629921259843
 30
0.0
 10
1.427503937007874
 20
3.633149606299213
 30
0.0
 10
1.510992125984252
 20
3.485606299212599
 30
0.0
 10
1.599826771653544
 20
3.342543307086614
 30
0.0
 10
1.599826771653544
 20
3.342543307086614
 30
0.0
 10
1.764350393700787
 20
3.121716535433071
 30
0.0
 10
1.723909448818898
 20
2.986791338582677
 30
0.0
 10
1.534055118110236
 20
2.799358267716535
 30
0.0
 10
1.534055118110236
 20
2.799358267716535
 30
0.0
 10
1.393968503937008
 20
2.920299212598426
 30
0.0
 10
1.32203937007874
 20
3.055712598425197
 30
0.0
 10
1.296736220472441
 20
3.201031496062992
 30
0.0
  0
SPLINE
  5
AD
330
1F
100
AcDbEntity
  8
Layer 1
 62
   250
370
     5
100
AcDbSpline
210
0.0
220
0.0
230
1.0
 70
    11
 71
     3
 72
    16
 73
    12
 74
     0
 42
0.0000000001
 43
0.0000000001
 40
0.0
 40
0.0
 40
0.0
 40
0.0
 40
0.3333333333333333
 40
0.3333333333333333
 40
0.3333333333333333
 40
0.3333333333333333
 40
0.6666666666666666
 40
0.6666666666666666
 40
0.6666666666666666
 40
0.6666666666666666
 40
1.0
 40
1.0
 40
1.0
 40
1.0
 10
1.407685039370079
 20
3.960551181102362
 30
0.0
 10
1.605988188976378
 20
3.984610236220473
 30
0.0
 10
1.785153543307087
 20
3.924515748031496
 30
0.0
 10
1.951244094488189
 20
3.806811023622048
 30
0.0
 10
1.951244094488189
 20
3.806811023622048
 30
0.0
 10
2.19636220472441
 20
3.562496062992126
 30
0.0
 10
2.083267716535433
 20
3.118240157480315
 30
0.0
 10
1.766291338582677
 20
2.899145669291339
 30
0.0
 10
1.766291338582677
 20
2.899145669291339
 30
0.0
 10
1.945070866141732
 20
3.311665354330709
 30
0.0
 10
1.548051181102362
 20
3.792027559055118
 30
0.0
 10
1.407685039370079
 20
3.960551181102362
 30
0.0
  0
SPLINE
  5
AE
330
1F
100
AcDbEntity
  8
Layer 1
 62
   250
370
     5
100
AcDbSpline
210
0.0
220
0.0
230
1.0
 70
    11
 71
     3
 72
    20
 73
    16
 74
     0
 42
0.0000000001
 43
0.0000000001
 40
0.0
 40
0.0
 40
0.0
 40
0.0
 40
0.25
 40
0.25
 40
0.25
 40
0.25
 40
0.5
 40
0.5
 40
0.5
 40
0.5
 40
0.75
 40
0.75
 40
0.75
 40
0.75
 40
1.0
 40
1.0
 40
1.0
 40
1.0
 10
0.214003937007874
 20
-2.266547244094488
 30
0.0
 10
0.4159370078740158
 20
-2.272751968503937
 30
0.0
 10
0.6038031496062992
 20
-2.34892125984252
 30
0.0
 10
0.7783110236220473
 20
-2.491590551181103
 30
0.0
 10
0.7783110236220473
 20
-2.491590551181103
 30
0.0
 10
0.7783110236220473
 20
-2.491590551181103
 30
0.0
 10
0.7471259842519685
 20
-2.967712598425197
 30
0.0
 10
0.7471259842519685
 20
-2.967712598425197
 30
0.0
 10
0.7471259842519685
 20
-2.967712598425197
 30
0.0
 10
0.7471259842519685
 20
-2.967712598425197
 30
0.0
 10
0.2916338582677165
 20
-2.943452755905512
 30
0.0
 10
0.2916338582677165
 20
-2.943452755905512
 30
0.0
 10
0.2916338582677165
 20
-2.943452755905512
 30
0.0
 10
0.1867244094488189
 20
-2.736417322834646
 30
0.0
 10
0.0270393700787402
 20
-2.320807086614174
 30
0.0
 10
0.214003937007874
 20
-2.266547244094488
 30
0.0
  0
SPLINE
  5
AF
330
1F
100
AcDbEntity
  8
Layer 1
 62
   250
370
     5
100
AcDbSpline
210
0.0
220
0.0
230
1.0
 70
    11
 71
     3
 72
    16
 73
    12
 74
     0
 42
0.0000000001
 43
0.0000000001
 40
0.0
 40
0.0
 40
0.0
 40
0.0
 40
0.3333333333333333
 40
0.3333333333333333
 40
0.3333333333333333
 40
0.3333333333333333
 40
0.6666666666666666
 40
0.6666666666666666
 40
0.6666666666666666
 40
0.6666666666666666
 40
1.0
 40
1.0
 40
1.0
 40
1.0
 10
-0.8051062992125985
 20
-2.891429133858268
 30
0.0
 10
-0.8665629921259843
 20
-2.700877952755906
 30
0.0
 10
-0.5315866141732284
 20
-2.296728346456693
 30
0.0
 10
0.0293464566929134
 20
-2.214897637795276
 30
0.0
 10
0.0293464566929134
 20
-2.214897637795276
 30
0.0
 10
-0.1092874015748032
 20
-2.413625984251969
 30
0.0
 10
-0.0984763779527559
 20
-2.643444881889764
 30
0.0
 10
0.0145590551181102
 20
-2.894543307086614
 30
0.0
 10
0.0145590551181102
 20
-2.894543307086614
 30
0.0
 10
-0.1335944881889764
 20
-2.919917322834646
 30
0.0
 10
-0.3799330708661418
 20
-2.690929133858268
 30
0.0
 10
-0.8051062992125985
 20
-2.891429133858268
 30
0.0
  0
SPLINE
  5
B0
330
1F
100
AcDbEntity
  8
Layer 1
 62
   250
370
     5
100
AcDbSpline
210
0.0
220
0.0
230
1.0
 70
    11
 71
     3
 72
    16
 73
    12
 74
     0
 42
0.0000000001
 43
0.0000000001
 40
0.0
 40
0.0
 40
0.0
 40
0.0
 40
0.3333333333333333
 40
0.3333333333333333
 40
0.3333333333333333
 40
0.3333333333333333
 40
0.6666666666666666
 40
0.6666666666666666
 40
0.6666666666666666
 40
0.6666666666666666
 40
1.0
 40
1.0
 40
1.0
 40
1.0
 10
-1.027137795275591
 20
-3.258657480314961
 30
0.0
 10
-0.9533937007874016
 20
-3.036929133858268
 30
0.0
 10
-0.4953149606299213
 20
-2.945185039370079
 30
0.0
 10
-0.2641299212598425
 20
-3.014279527559055
 30
0.0
 10
-0.2641299212598425
 20
-3.014279527559055
 30
0.0
 10
-0.413492125984252
 20
-3.07603937007874
 30
0.0
 10
-0.5302047244094489
 20
-3.15796062992126
 30
0.0
 10
-0.6165039370078741
 20
-3.258657480314961
 30
0.0
 10
-0.6165039370078741
 20
-3.258657480314961
 30
0.0
 10
-0.6165039370078741
 20
-3.258657480314961
 30
0.0
 10
-1.027137795275591
 20
-3.258657480314961
 30
0.0
 10
-1.027137795275591
 20
-3.258657480314961
 30
0.0
  0
SPLINE
  5
B1
330
1F
100
AcDbEntity
  8
Layer 1
 62
   250
370
     5
100
AcDbSpline
210
0.0
220
0.0
230
1.0
 70
    11
 71
     3
 72
    20
 73
    16
 74
     0
 42
0.0000000001
 43
0.0000000001
 40
0.0
 40
0.0
 40
0.0
 40
0.0
 40
0.25
 40
0.25
 40
0.25
 40
0.25
 40
0.5
 40
0.5
 40
0.5
 40
0.5
 40
0.75
 40
0.75
 40
0.75
 40
0.75
 40
1.0
 40
1.0
 40
1.0
 40
1.0
 10
0.0778031496062992
 20
-3.149503937007874
 30
0.0
 10
0.2461377952755906
 20
-3.157665354330709
 30
0.0
 10
0.3373582677165354
 20
-3.235015748031496
 30
0.0
 10
0.5827992125984253
 20
-3.173988188976378
 30
0.0
 10
0.5827992125984253
 20
-3.173988188976378
 30
0.0
 10
0.5848976377952756
 20
-3.202066929133859
 30
0.0
 10
0.580476377952756
 20
-3.2303031496063
 30
0.0
 10
0.570511811023622
 20
-3.258657480314961
 30
0.0
 10
0.570511811023622
 20
-3.258657480314961
 30
0.0
 10
0.570511811023622
 20
-3.258657480314961
 30
0.0
 10
-0.3960590551181102
 20
-3.258657480314961
 30
0.0
 10
-0.3960590551181102
 20
-3.258657480314961
 30
0.0
 10
-0.3960590551181102
 20
-3.258657480314961
 30
0.0
 10
-0.288251968503937
 20
-3.169629921259843
 30
0.0
 10
-0.1378622047244095
 20
-3.110988188976378
 30
0.0
 10
0.0778031496062992
 20
-3.149503937007874
 30
0.0
  0
SPLINE
  5
B2
330
1F
100
AcDbEntity
  8
Layer 1
 62
   250
370
     5
100
AcDbSpline
210
0.0
220
0.0
230
1.0
 70
    11
 71
     3
 72
    32
 73
    28
 74
     0
 42
0.0000000001
 43
0.0000000001
 40
0.0
 40
0.0
 40
0.0
 40
0.0
 40
0.1428571428571429
 40
0.1428571428571429
 40
0.1428571428571429
 40
0.1428571428571429
 40
0.2857142857142857
 40
0.2857142857142857
 40
0.2857142857142857
 40
0.2857142857142857
 40
0.4285714285714286
 40
0.4285714285714286
 40
0.4285714285714286
 40
0.4285714285714286
 40
0.5714285714285714
 40
0.5714285714285714
 40
0.5714285714285714
 40
0.5714285714285714
 40
0.7142857142857142
 40
0.7142857142857142
 40
0.7142857142857142
 40
0.7142857142857142
 40
0.857142857142857
 40
0.857142857142857
 40
0.857142857142857
 40
0.857142857142857
 40
1.0
 40
1.0
 40
1.0
 40
1.0
 10
0.8424724409448819
 20
-2.372196850393701
 30
0.0
 10
0.8424724409448819
 20
-2.372196850393701
 30
0.0
 10
0.867992125984252
 20
-1.817232283464567
 30
0.0
 10
0.867992125984252
 20
-1.817232283464567
 30
0.0
 10
0.867992125984252
 20
-1.817232283464567
 30
0.0
 10
0.9288858267716535
 20
-1.980933070866142
 30
0.0
 10
1.019732283464567
 20
-1.85390157480315
 30
0.0
 10
1.054149606299213
 20
-2.182570866141732
 30
0.0
 10
1.054149606299213
 20
-2.182570866141732
 30
0.0
 10
1.054149606299213
 20
-2.182570866141732
 30
0.0
 10
1.106125984251969
 20
-2.18188188976378
 30
0.0
 10
1.106125984251969
 20
-2.18188188976378
 30
0.0
 10
1.106125984251969
 20
-2.18188188976378
 30
0.0
 10
1.106125984251969
 20
-2.18188188976378
 30
0.0
 10
1.112251968503937
 20
-2.104996062992126
 30
0.0
 10
1.112251968503937
 20
-2.104996062992126
 30
0.0
 10
1.112251968503937
 20
-2.104996062992126
 30
0.0
 10
1.112251968503937
 20
-2.104996062992126
 30
0.0
 10
1.178984251968504
 20
-2.079429133858268
 30
0.0
 10
1.178984251968504
 20
-2.079429133858268
 30
0.0
 10
1.178984251968504
 20
-2.079429133858268
 30
0.0
 10
1.178984251968504
 20
-2.079429133858268
 30
0.0
 10
1.111322834645669
 20
-2.460688976377953
 30
0.0
 10
1.111322834645669
 20
-2.460688976377953
 30
0.0
 10
1.111322834645669
 20
-2.460688976377953
 30
0.0
 10
1.011287401574803
 20
-2.500783464566929
 30
0.0
 10
0.921992125984252
 20
-2.469141732283465
 30
0.0
 10
0.8424724409448819
 20
-2.372196850393701
 30
0.0
  0
SPLINE
  5
B3
330
1F
100
AcDbEntity
  8
Layer 1
 62
   250
370
     5
100
AcDbSpline
210
0.0
220
0.0
230
1.0
 70
    11
 71
     3
 72
    20
 73
    16
 74
     0
 42
0.0000000001
 43
0.0000000001
 40
0.0
 40
0.0
 40
0.0
 40
0.0
 40
0.25
 40
0.25
 40
0.25
 40
0.25
 40
0.5
 40
0.5
 40
0.5
 40
0.5
 40
0.75
 40
0.75
 40
0.75
 40
0.75
 40
1.0
 40
1.0
 40
1.0
 40
1.0
 10
1.094665354330709
 20
-2.598748031496063
 30
0.0
 10
1.319334645669291
 20
-2.587177165354331
 30
0.0
 10
1.726389763779528
 20
-2.890185039370079
 30
0.0
 10
1.94384251968504
 20
-3.258657480314961
 30
0.0
 10
1.94384251968504
 20
-3.258657480314961
 30
0.0
 10
1.94384251968504
 20
-3.258657480314961
 30
0.0
 10
1.162094488188976
 20
-3.258657480314961
 30
0.0
 10
1.162094488188976
 20
-3.258657480314961
 30
0.0
 10
1.162094488188976
 20
-3.258657480314961
 30
0.0
 10
1.055826771653543
 20
-3.162318897637796
 30
0.0
 10
1.00938188976378
 20
-3.020110236220472
 30
0.0
 10
1.050704724409449
 20
-2.854858267716536
 30
0.0
 10
1.050704724409449
 20
-2.854858267716536
 30
0.0
 10
1.06536220472441
 20
-2.769488188976378
 30
0.0
 10
1.130484251968504
 20
-2.734740157480315
 30
0.0
 10
1.094665354330709
 20
-2.598748031496063
 30
0.0
  0
SPLINE
  5
B4
330
1F
100
AcDbEntity
  8
Layer 1
 62
   250
370
     5
100
AcDbSpline
210
0.0
220
0.0
230
1.0
 70
    11
 71
     3
 72
    20
 73
    16
 74
     0
 42
0.0000000001
 43
0.0000000001
 40
0.0
 40
0.0
 40
0.0
 40
0.0
 40
0.25
 40
0.25
 40
0.25
 40
0.25
 40
0.5
 40
0.5
 40
0.5
 40
0.5
 40
0.75
 40
0.75
 40
0.75
 40
0.75
 40
1.0
 40
1.0
 40
1.0
 40
1.0
 10
2.362720472440945
 20
-2.420645669291339
 30
0.0
 10
2.177330708661418
 20
-2.293311023622048
 30
0.0
 10
2.049464566929134
 20
-2.132610236220473
 30
0.0
 10
1.98207874015748
 20
-1.936779527559055
 30
0.0
 10
1.98207874015748
 20
-1.936779527559055
 30
0.0
 10
1.975263779527559
 20
-1.737149606299213
 30
0.0
 10
2.408917322834646
 20
-1.766657480314961
 30
0.0
 10
2.632677165354331
 20
-1.806192913385827
 30
0.0
 10
2.632677165354331
 20
-1.806192913385827
 30
0.0
 10
2.632677165354331
 20
-1.806192913385827
 30
0.0
 10
2.794165354330709
 20
-2.244783464566929
 30
0.0
 10
2.794165354330709
 20
-2.244783464566929
 30
0.0
 10
2.794165354330709
 20
-2.244783464566929
 30
0.0
 10
2.794165354330709
 20
-2.244783464566929
 30
0.0
 10
2.362720472440945
 20
-2.420645669291339
 30
0.0
 10
2.362720472440945
 20
-2.420645669291339
 30
0.0
  0
SPLINE
  5
B5
330
1F
100
AcDbEntity
  8
Layer 1
 62
   250
370
     5
100
AcDbSpline
210
0.0
220
0.0
230
1.0
 70
    11
 71
     3
 72
    16
 73
    12
 74
     0
 42
0.0000000001
 43
0.0000000001
 40
0.0
 40
0.0
 40
0.0
 40
0.0
 40
0.3333333333333333
 40
0.3333333333333333
 40
0.3333333333333333
 40
0.3333333333333333
 40
0.6666666666666666
 40
0.6666666666666666
 40
0.6666666666666666
 40
0.6666666666666666
 40
1.0
 40
1.0
 40
1.0
 40
1.0
 10
1.877889763779528
 20
-1.771728346456693
 30
0.0
 10
1.782488188976378
 20
-1.197492125984252
 30
0.0
 10
2.054543307086614
 20
-0.7461574803149607
 30
0.0
 10
2.249775590551181
 20
-0.7481889763779528
 30
0.0
 10
2.249775590551181
 20
-0.7481889763779528
 30
0.0
 10
2.193838582677166
 20
-1.225677165354331
 30
0.0
 10
2.48109842519685
 20
-1.397007874015748
 30
0.0
 10
2.502830708661417
 20
-1.549822834645669
 30
0.0
 10
2.502830708661417
 20
-1.549822834645669
 30
0.0
 10
2.235783464566929
 20
-1.515763779527559
 30
0.0
 10
2.019633858267717
 20
-1.575322834645669
 30
0.0
 10
1.877889763779528
 20
-1.771728346456693
 30
0.0
  0
SPLINE
  5
B6
330
1F
100
AcDbEntity
  8
Layer 1
 62
   250
370
     5
100
AcDbSpline
210
0.0
220
0.0
230
1.0
 70
    11
 71
     3
 72
    20
 73
    16
 74
     0
 42
0.0000000001
 43
0.0000000001
 40
0.0
 40
0.0
 40
0.0
 40
0.0
 40
0.25
 40
0.25
 40
0.25
 40
0.25
 40
0.5
 40
0.5
 40
0.5
 40
0.5
 40
0.75
 40
0.75
 40
0.75
 40
0.75
 40
1.0
 40
1.0
 40
1.0
 40
1.0
 10
2.547464566929134
 20
-0.4023307086614174
 30
0.0
 10
2.696838582677165
 20
-0.3168267716535433
 30
0.0
 10
2.833224409448819
 20
-0.2531181102362205
 30
0.0
 10
2.950629921259843
 20
-0.2212677165354331
 30
0.0
 10
2.950629921259843
 20
-0.2212677165354331
 30
0.0
 10
2.92551968503937
 20
-0.410236220472441
 30
0.0
 10
2.838149606299213
 20
-0.5730472440944883
 30
0.0
 10
2.716515748031496
 20
-0.721476377952756
 30
0.0
 10
2.716515748031496
 20
-0.721476377952756
 30
0.0
 10
2.607913385826772
 20
-0.852988188976378
 30
0.0
 10
2.54382283464567
 20
-1.024653543307087
 30
0.0
 10
2.528669291338583
 20
-1.240389763779528
 30
0.0
 10
2.528669291338583
 20
-1.240389763779528
 30
0.0
 10
2.388240157480315
 20
-1.026129921259843
 30
0.0
 10
2.334641732283465
 20
-0.5164212598425197
 30
0.0
 10
2.547464566929134
 20
-0.4023307086614174
 30
0.0
  0
SPLINE
  5
B7
330
1F
100
AcDbEntity
  8
Layer 1
 62
   250
370
     5
100
AcDbSpline
210
0.0
220
0.0
230
1.0
 70
    11
 71
     3
 72
    32
 73
    28
 74
     0
 42
0.0000000001
 43
0.0000000001
 40
0.0
 40
0.0
 40
0.0
 40
0.0
 40
0.1428571428571429
 40
0.1428571428571429
 40
0.1428571428571429
 40
0.1428571428571429
 40
0.2857142857142857
 40
0.2857142857142857
 40
0.2857142857142857
 40
0.2857142857142857
 40
0.4285714285714286
 40
0.4285714285714286
 40
0.4285714285714286
 40
0.4285714285714286
 40
0.5714285714285714
 40
0.5714285714285714
 40
0.5714285714285714
 40
0.5714285714285714
 40
0.7142857142857142
 40
0.7142857142857142
 40
0.7142857142857142
 40
0.7142857142857142
 40
0.857142857142857
 40
0.857142857142857
 40
0.857142857142857
 40
0.857142857142857
 40
1.0
 40
1.0
 40
1.0
 40
1.0
 10
2.830074803149607
 20
-0.8367637795275591
 30
0.0
 10
2.899267716535433
 20
-0.7477125984251969
 30
0.0
 10
2.948141732283465
 20
-0.7140157480314961
 30
0.0
 10
2.97494094488189
 20
-0.5351377952755906
 30
0.0
 10
2.97494094488189
 20
-0.5351377952755906
 30
0.0
 10
3.073484251968504
 20
-0.6841220472440945
 30
0.0
 10
3.055271653543307
 20
-0.9056889763779528
 30
0.0
 10
3.081885826771654
 20
-1.080488188976378
 30
0.0
 10
3.081885826771654
 20
-1.080488188976378
 30
0.0
 10
3.096350393700788
 20
-1.219334645669291
 30
0.0
 10
3.186681102362205
 20
-1.270866141732284
 30
0.0
 10
3.161118110236221
 20
-1.370311023622047
 30
0.0
 10
3.161118110236221
 20
-1.370311023622047
 30
0.0
 10
3.165992125984252
 20
-1.468444881889764
 30
0.0
 10
3.191566929133858
 20
-1.530263779527559
 30
0.0
 10
3.224614173228347
 20
-1.578913385826772
 30
0.0
 10
3.224614173228347
 20
-1.578913385826772
 30
0.0
 10
3.150795275590551
 20
-1.805342519685039
 30
0.0
 10
3.064751968503937
 20
-1.989185039370079
 30
0.0
 10
2.935062992125984
 20
-2.02092125984252
 30
0.0
 10
2.935062992125984
 20
-2.02092125984252
 30
0.0
 10
2.916673228346457
 20
-1.761984251968504
 30
0.0
 10
2.817185039370079
 20
-1.696263779527559
 30
0.0
 10
2.758255905511811
 20
-1.533933070866142
 30
0.0
 10
2.758255905511811
 20
-1.533933070866142
 30
0.0
 10
2.597433070866142
 20
-1.217956692913386
 30
0.0
 10
2.712562992125984
 20
-0.98798031496063
 30
0.0
 10
2.830074803149607
 20
-0.8367637795275591
 30
0.0
  0
SPLINE
  5
B8
330
1F
100
AcDbEntity
  8
Layer 1
 62
   250
370
     5
100
AcDbSpline
210
0.0
220
0.0
230
1.0
 70
    11
 71
     3
 72
    20
 73
    16
 74
     0
 42
0.0000000001
 43
0.0000000001
 40
0.0
 40
0.0
 40
0.0
 40
0.0
 40
0.25
 40
0.25
 40
0.25
 40
0.25
 40
0.5
 40
0.5
 40
0.5
 40
0.5
 40
0.75
 40
0.75
 40
0.75
 40
0.75
 40
1.0
 40
1.0
 40
1.0
 40
1.0
 10
3.201834645669292
 20
-0.6417716535433071
 30
0.0
 10
3.343035433070866
 20
-0.5917755905511811
 30
0.0
 10
3.431669291338583
 20
-0.3787913385826772
 30
0.0
 10
3.62542125984252
 20
-0.4917716535433071
 30
0.0
 10
3.62542125984252
 20
-0.4917716535433071
 30
0.0
 10
3.62542125984252
 20
-0.4917716535433071
 30
0.0
 10
3.745452755905512
 20
-0.5858582677165355
 30
0.0
 10
3.745452755905512
 20
-0.5858582677165355
 30
0.0
 10
3.745452755905512
 20
-0.5858582677165355
 30
0.0
 10
3.652834645669291
 20
-0.8916692913385828
 30
0.0
 10
3.488917322834646
 20
-1.042744094488189
 30
0.0
 10
3.364031496062992
 20
-1.360547244094488
 30
0.0
 10
3.364031496062992
 20
-1.360547244094488
 30
0.0
 10
3.174984251968504
 20
-1.037291338582677
 30
0.0
 10
3.300377952755906
 20
-0.9248779527559056
 30
0.0
 10
3.201834645669292
 20
-0.6417716535433071
 30
0.0
  0
SPLINE
  5
B9
330
1F
100
AcDbEntity
  8
Layer 1
 62
   250
370
     5
100
AcDbSpline
210
0.0
220
0.0
230
1.0
 70
    11
 71
     3
 72
    20
 73
    16
 74
     0
 42
0.0000000001
 43
0.0000000001
 40
0.0
 40
0.0
 40
0.0
 40
0.0
 40
0.25
 40
0.25
 40
0.25
 40
0.25
 40
0.5
 40
0.5
 40
0.5
 40
0.5
 40
0.75
 40
0.75
 40
0.75
 40
0.75
 40
1.0
 40
1.0
 40
1.0
 40
1.0
 10
-1.136437007874016
 20
1.315334645669291
 30
0.0
 10
-1.172377952755906
 20
1.41046062992126
 30
0.0
 10
-0.8714330708661418
 20
1.936177165354331
 30
0.0
 10
-0.7389448818897638
 20
2.246578740157481
 30
0.0
 10
-0.7389448818897638
 20
2.246578740157481
 30
0.0
 10
-0.7264291338582678
 20
2.074271653543307
 30
0.0
 10
-0.6187362204724409
 20
1.947818897637795
 30
0.0
 10
-0.4459015748031496
 20
1.852751968503937
 30
0.0
 10
-0.4459015748031496
 20
1.852751968503937
 30
0.0
 10
-0.6910275590551182
 20
1.80546062992126
 30
0.0
 10
-0.8731653543307087
 20
1.718598425196851
 30
0.0
 10
-1.024850393700787
 20
1.491566929133858
 30
0.0
 10
-1.024850393700787
 20
1.491566929133858
 30
0.0
 10
-1.059696850393701
 20
1.439397637795276
 30
0.0
 10
-1.097287401574803
 20
1.358338582677166
 30
0.0
 10
-1.136437007874016
 20
1.315334645669291
 30
0.0
  0
SPLINE
  5
BA
330
1F
100
AcDbEntity
  8
Layer 1
 62
   250
370
     5
100
AcDbSpline
210
0.0
220
0.0
230
1.0
 70
    11
 71
     3
 72
    24
 73
    20
 74
     0
 42
0.0000000001
 43
0.0000000001
 40
0.0
 40
0.0
 40
0.0
 40
0.0
 40
0.2
 40
0.2
 40
0.2
 40
0.2
 40
0.4
 40
0.4
 40
0.4
 40
0.4
 40
0.6000000000000001
 40
0.6000000000000001
 40
0.6000000000000001
 40
0.6000000000000001
 40
0.8
 40
0.8
 40
0.8
 40
0.8
 40
1.0
 40
1.0
 40
1.0
 40
1.0
 10
3.07186220472441
 20
-0.1224015748031496
 30
0.0
 10
3.14644094488189
 20
-0.0850472440944882
 30
0.0
 10
3.18642125984252
 20
0.0567952755905512
 30
0.0
 10
3.301854330708661
 20
0.1078503937007874
 30
0.0
 10
3.301854330708661
 20
0.1078503937007874
 30
0.0
 10
3.452858267716536
 20
0.1716968503937008
 30
0.0
 10
3.737814960629922
 20
0.3560826771653544
 30
0.0
 10
3.754834645669292
 20
0.2994015748031496
 30
0.0
 10
3.754834645669292
 20
0.2994015748031496
 30
0.0
 10
3.620685039370079
 20
0.0702125984251969
 30
0.0
 10
3.713484251968504
 20
-0.0924173228346457
 30
0.0
 10
3.692811023622047
 20
-0.2883188976377953
 30
0.0
 10
3.692811023622047
 20
-0.2883188976377953
 30
0.0
 10
3.479775590551181
 20
-0.1923779527559055
 30
0.0
 10
3.356283464566929
 20
-0.2696771653543307
 30
0.0
 10
3.184653543307087
 20
-0.4418070866141732
 30
0.0
 10
3.184653543307087
 20
-0.4418070866141732
 30
0.0
 10
3.184653543307087
 20
-0.4418070866141732
 30
0.0
 10
3.07186220472441
 20
-0.1224015748031496
 30
0.0
 10
3.07186220472441
 20
-0.1224015748031496
 30
0.0
  0
SPLINE
  5
BB
330
1F
100
AcDbEntity
  8
Layer 1
 62
   250
370
     5
100
AcDbSpline
210
0.0
220
0.0
230
1.0
 70
    11
 71
     3
 72
    28
 73
    24
 74
     0
 42
0.0000000001
 43
0.0000000001
 40
0.0
 40
0.0
 40
0.0
 40
0.0
 40
0.1666666666666667
 40
0.1666666666666667
 40
0.1666666666666667
 40
0.1666666666666667
 40
0.3333333333333333
 40
0.3333333333333333
 40
0.3333333333333333
 40
0.3333333333333333
 40
0.5
 40
0.5
 40
0.5
 40
0.5
 40
0.6666666666666666
 40
0.6666666666666666
 40
0.6666666666666666
 40
0.6666666666666666
 40
0.8333333333333333
 40
0.8333333333333333
 40
0.8333333333333333
 40
0.8333333333333333
 40
1.0
 40
1.0
 40
1.0
 40
1.0
 10
3.913157480314961
 20
-0.3928543307086614
 30
0.0
 10
3.897240157480315
 20
-0.165988188976378
 30
0.0
 10
3.810610236220473
 20
-0.2817125984251969
 30
0.0
 10
3.925523622047244
 20
0.3158425196850394
 30
0.0
 10
3.925523622047244
 20
0.3158425196850394
 30
0.0
 10
4.124188976377953
 20
0.3195275590551182
 30
0.0
 10
4.153559055118111
 20
0.3583464566929134
 30
0.0
 10
4.271452755905512
 20
0.4009094488188977
 30
0.0
 10
4.271452755905512
 20
0.4009094488188977
 30
0.0
 10
4.428228346456693
 20
0.4532047244094488
 30
0.0
 10
4.602507874015748
 20
0.4557047244094488
 30
0.0
 10
4.741795275590551
 20
0.5577913385826772
 30
0.0
 10
4.741795275590551
 20
0.5577913385826772
 30
0.0
 10
4.88648031496063
 20
0.6424488188976378
 30
0.0
 10
5.104248031496063
 20
0.809740157480315
 30
0.0
 10
5.17588188976378
 20
0.8117913385826772
 30
0.0
 10
5.17588188976378
 20
0.8117913385826772
 30
0.0
 10
5.188267716535433
 20
0.6468110236220472
 30
0.0
 10
4.840334645669292
 20
0.4781023622047244
 30
0.0
 10
4.647748031496064
 20
0.3114488188976378
 30
0.0
 10
4.647748031496064
 20
0.3114488188976378
 30
0.0
 10
4.397523622047245
 20
0.0949212598425197
 30
0.0
 10
4.224964566929134
 20
0.0313503937007874
 30
0.0
 10
3.913157480314961
 20
-0.3928543307086614
 30
0.0
  0
SPLINE
  5
BC
330
1F
100
AcDbEntity
  8
Layer 1
 62
   250
370
     5
100
AcDbSpline
210
0.0
220
0.0
230
1.0
 70
    11
 71
     3
 72
    16
 73
    12
 74
     0
 42
0.0000000001
 43
0.0000000001
 40
0.0
 40
0.0
 40
0.0
 40
0.0
 40
0.3333333333333333
 40
0.3333333333333333
 40
0.3333333333333333
 40
0.3333333333333333
 40
0.6666666666666666
 40
0.6666666666666666
 40
0.6666666666666666
 40
0.6666666666666666
 40
1.0
 40
1.0
 40
1.0
 40
1.0
 10
3.850488188976378
 20
-0.941476377952756
 30
0.0
 10
4.112992125984253
 20
-0.2708503937007874
 30
0.0
 10
4.477720472440945
 20
-0.0204409448818898
 30
0.0
 10
4.991775590551181
 20
-0.3842007874015748
 30
0.0
 10
4.991775590551181
 20
-0.3842007874015748
 30
0.0
 10
4.887748031496063
 20
-0.5950511811023622
 30
0.0
 10
4.705070866141733
 20
-0.745003937007874
 30
0.0
 10
4.407444881889764
 20
-0.8059448818897638
 30
0.0
 10
4.407444881889764
 20
-0.8059448818897638
 30
0.0
 10
4.209771653543307
 20
-0.8298779527559056
 30
0.0
 10
4.019669291338583
 20
-0.8671850393700787
 30
0.0
 10
3.850488188976378
 20
-0.941476377952756
 30
0.0
  0
SPLINE
  5
BD
330
1F
100
AcDbEntity
  8
Layer 1
 62
   250
370
     5
100
AcDbSpline
210
0.0
220
0.0
230
1.0
 70
    11
 71
     3
 72
    20
 73
    16
 74
     0
 42
0.0000000001
 43
0.0000000001
 40
0.0
 40
0.0
 40
0.0
 40
0.0
 40
0.25
 40
0.25
 40
0.25
 40
0.25
 40
0.5
 40
0.5
 40
0.5
 40
0.5
 40
0.75
 40
0.75
 40
0.75
 40
0.75
 40
1.0
 40
1.0
 40
1.0
 40
1.0
 10
3.489240157480315
 20
-1.636917322834646
 30
0.0
 10
3.612669291338583
 20
-1.154925196850394
 30
0.0
 10
4.004870078740158
 20
-1.002771653543307
 30
0.0
 10
4.519236220472441
 20
-1.000543307086614
 30
0.0
 10
4.519236220472441
 20
-1.000543307086614
 30
0.0
 10
4.404988188976378
 20
-1.117393700787402
 30
0.0
 10
4.309555118110237
 20
-1.25638188976378
 30
0.0
 10
4.218633858267717
 20
-1.407688976377953
 30
0.0
 10
4.218633858267717
 20
-1.407688976377953
 30
0.0
 10
4.113023622047244
 20
-1.578755905511811
 30
0.0
 10
3.995374015748032
 20
-1.638988188976378
 30
0.0
 10
3.762846456692913
 20
-1.599732283464567
 30
0.0
 10
3.762846456692913
 20
-1.599732283464567
 30
0.0
 10
3.671153543307087
 20
-1.592444881889764
 30
0.0
 10
3.579803149606299
 20
-1.599216535433071
 30
0.0
 10
3.489240157480315
 20
-1.636917322834646
 30
0.0
  0
SPLINE
  5
BE
330
1F
100
AcDbEntity
  8
Layer 1
 62
   250
370
     5
100
AcDbSpline
210
0.0
220
0.0
230
1.0
 70
    11
 71
     3
 72
    24
 73
    20
 74
     0
 42
0.0000000001
 43
0.0000000001
 40
0.0
 40
0.0
 40
0.0
 40
0.0
 40
0.2
 40
0.2
 40
0.2
 40
0.2
 40
0.4
 40
0.4
 40
0.4
 40
0.4
 40
0.6000000000000001
 40
0.6000000000000001
 40
0.6000000000000001
 40
0.6000000000000001
 40
0.8
 40
0.8
 40
0.8
 40
0.8
 40
1.0
 40
1.0
 40
1.0
 40
1.0
 10
4.586338582677166
 20
-1.230645669291339
 30
0.0
 10
4.742751968503937
 20
-1.060429133858268
 30
0.0
 10
4.994141732283465
 20
-0.6027283464566929
 30
0.0
 10
5.024700787401575
 20
-0.5949094488188976
 30
0.0
 10
5.024700787401575
 20
-0.5949094488188976
 30
0.0
 10
5.018291338582677
 20
-0.7818346456692914
 30
0.0
 10
5.068645669291339
 20
-0.9515157480314961
 30
0.0
 10
5.090633858267717
 20
-1.129791338582677
 30
0.0
 10
5.090633858267717
 20
-1.129791338582677
 30
0.0
 10
5.17792125984252
 20
-1.698
 30
0.0
 10
4.551905511811023
 20
-1.90594094488189
 30
0.0
 10
4.205275590551182
 20
-1.734783464566929
 30
0.0
 10
4.205275590551182
 20
-1.734783464566929
 30
0.0
 10
4.437472440944882
 20
-1.540456692913386
 30
0.0
 10
4.399976377952756
 20
-1.535082677165354
 30
0.0
 10
4.491527559055118
 20
-1.397641732283465
 30
0.0
 10
4.491527559055118
 20
-1.397641732283465
 30
0.0
 10
4.508133858267716
 20
-1.362397637795276
 30
0.0
 10
4.529748031496063
 20
-1.292232283464567
 30
0.0
 10
4.586338582677166
 20
-1.230645669291339
 30
0.0
  0
SPLINE
  5
BF
330
1F
100
AcDbEntity
  8
Layer 1
 62
   250
370
     5
100
AcDbSpline
210
0.0
220
0.0
230
1.0
 70
    11
 71
     3
 72
    24
 73
    20
 74
     0
 42
0.0000000001
 43
0.0000000001
 40
0.0
 40
0.0
 40
0.0
 40
0.0
 40
0.2
 40
0.2
 40
0.2
 40
0.2
 40
0.4
 40
0.4
 40
0.4
 40
0.4
 40
0.6000000000000001
 40
0.6000000000000001
 40
0.6000000000000001
 40
0.6000000000000001
 40
0.8
 40
0.8
 40
0.8
 40
0.8
 40
1.0
 40
1.0
 40
1.0
 40
1.0
 10
4.356673228346457
 20
-1.938653543307087
 30
0.0
 10
4.489397637795276
 20
-1.958003937007874
 30
0.0
 10
4.619736220472441
 20
-1.959625984251969
 30
0.0
 10
4.747562992125984
 20
-1.94246062992126
 30
0.0
 10
4.747562992125984
 20
-1.94246062992126
 30
0.0
 10
4.821122047244095
 20
-1.932279527559055
 30
0.0
 10
4.890027559055119
 20
-1.913602362204725
 30
0.0
 10
4.937129921259842
 20
-1.85240157480315
 30
0.0
 10
4.937129921259842
 20
-1.85240157480315
 30
0.0
 10
4.965448818897638
 20
-1.815629921259843
 30
0.0
 10
4.991429133858268
 20
-1.771712598425197
 30
0.0
 10
5.027271653543307
 20
-1.799153543307087
 30
0.0
 10
5.027271653543307
 20
-1.799153543307087
 30
0.0
 10
4.948425196850394
 20
-1.967303149606299
 30
0.0
 10
4.864917322834646
 20
-2.133377952755906
 30
0.0
 10
4.748811023622047
 20
-2.284996062992126
 30
0.0
 10
4.748811023622047
 20
-2.284996062992126
 30
0.0
 10
4.600515748031496
 20
-2.204748031496063
 30
0.0
 10
4.465496062992126
 20
-2.097944881889764
 30
0.0
 10
4.356673228346457
 20
-1.938653543307087
 30
0.0
  0
SPLINE
  5
C0
330
1F
100
AcDbEntity
  8
Layer 1
 62
   250
370
     5
100
AcDbSpline
210
0.0
220
0.0
230
1.0
 70
    11
 71
     3
 72
    20
 73
    16
 74
     0
 42
0.0000000001
 43
0.0000000001
 40
0.0
 40
0.0
 40
0.0
 40
0.0
 40
0.25
 40
0.25
 40
0.25
 40
0.25
 40
0.5
 40
0.5
 40
0.5
 40
0.5
 40
0.75
 40
0.75
 40
0.75
 40
0.75
 40
1.0
 40
1.0
 40
1.0
 40
1.0
 10
3.322826771653543
 20
-1.96744094488189
 30
0.0
 10
3.593208661417323
 20
-1.649956692913386
 30
0.0
 10
4.207862204724409
 20
-1.809137795275591
 30
0.0
 10
4.258724409448819
 20
-2.103177165354331
 30
0.0
 10
4.258724409448819
 20
-2.103177165354331
 30
0.0
 10
3.939791338582678
 20
-2.139547244094489
 30
0.0
 10
3.684196850393701
 20
-2.264228346456693
 30
0.0
 10
3.471909448818898
 20
-2.44932283464567
 30
0.0
 10
3.471909448818898
 20
-2.44932283464567
 30
0.0
 10
3.366661417322835
 20
-2.370755905511811
 30
0.0
 10
3.234358267716536
 20
-2.319811023622048
 30
0.0
 10
3.062562992125984
 20
-2.309267716535433
 30
0.0
 10
3.062562992125984
 20
-2.309267716535433
 30
0.0
 10
3.14201968503937
 20
-2.167472440944882
 30
0.0
 10
3.237232283464567
 20
-2.096326771653543
 30
0.0
 10
3.322826771653543
 20
-1.96744094488189
 30
0.0
  0
SPLINE
  5
C1
330
1F
100
AcDbEntity
  8
Layer 1
 62
   250
370
     5
100
AcDbSpline
210
0.0
220
0.0
230
1.0
 70
    11
 71
     3
 72
    20
 73
    16
 74
     0
 42
0.0000000001
 43
0.0000000001
 40
0.0
 40
0.0
 40
0.0
 40
0.0
 40
0.25
 40
0.25
 40
0.25
 40
0.25
 40
0.5
 40
0.5
 40
0.5
 40
0.5
 40
0.75
 40
0.75
 40
0.75
 40
0.75
 40
1.0
 40
1.0
 40
1.0
 40
1.0
 10
3.698799212598425
 20
-2.555944881889764
 30
0.0
 10
3.751011811023622
 20
-2.444114173228347
 30
0.0
 10
3.986795275590551
 20
-2.358066929133858
 30
0.0
 10
4.224570866141733
 20
-2.32403937007874
 30
0.0
 10
4.224570866141733
 20
-2.32403937007874
 30
0.0
 10
4.366889763779528
 20
-2.304456692913386
 30
0.0
 10
4.514244094488189
 20
-2.33355905511811
 30
0.0
 10
4.669011811023622
 20
-2.433811023622047
 30
0.0
 10
4.669011811023622
 20
-2.433811023622047
 30
0.0
 10
4.553370078740158
 20
-2.676913385826772
 30
0.0
 10
4.440744094488189
 20
-2.757708661417323
 30
0.0
 10
4.186011811023622
 20
-2.663984251968504
 30
0.0
 10
4.186011811023622
 20
-2.663984251968504
 30
0.0
 10
4.02640157480315
 20
-2.620696850393701
 30
0.0
 10
3.864263779527559
 20
-2.583948818897638
 30
0.0
 10
3.698799212598425
 20
-2.555944881889764
 30
0.0
  0
SPLINE
  5
C2
330
1F
100
AcDbEntity
  8
Layer 1
 62
   250
370
     5
100
AcDbSpline
210
0.0
220
0.0
230
1.0
 70
    11
 71
     3
 72
    24
 73
    20
 74
     0
 42
0.0000000001
 43
0.0000000001
 40
0.0
 40
0.0
 40
0.0
 40
0.0
 40
0.2
 40
0.2
 40
0.2
 40
0.2
 40
0.4
 40
0.4
 40
0.4
 40
0.4
 40
0.6000000000000001
 40
0.6000000000000001
 40
0.6000000000000001
 40
0.6000000000000001
 40
0.8
 40
0.8
 40
0.8
 40
0.8
 40
1.0
 40
1.0
 40
1.0
 40
1.0
 10
2.558535433070866
 20
-2.697708661417323
 30
0.0
 10
2.695405511811024
 20
-2.691267716535433
 30
0.0
 10
2.707716535433071
 20
-2.616889763779528
 30
0.0
 10
2.782307086614174
 20
-2.576488188976378
 30
0.0
 10
2.782307086614174
 20
-2.576488188976378
 30
0.0
 10
3.029283464566929
 20
-2.416629921259843
 30
0.0
 10
3.293114173228346
 20
-2.544330708661418
 30
0.0
 10
3.412334645669291
 20
-2.84853937007874
 30
0.0
 10
3.412334645669291
 20
-2.84853937007874
 30
0.0
 10
3.506267716535433
 20
-3.012200787401575
 30
0.0
 10
3.636429133858268
 20
-3.143287401574803
 30
0.0
 10
3.78401968503937
 20
-3.258657480314961
 30
0.0
 10
3.78401968503937
 20
-3.258657480314961
 30
0.0
 10
3.78401968503937
 20
-3.258657480314961
 30
0.0
 10
3.219122047244095
 20
-3.258657480314961
 30
0.0
 10
3.219122047244095
 20
-3.258657480314961
 30
0.0
 10
3.219122047244095
 20
-3.258657480314961
 30
0.0
 10
2.89140157480315
 20
-3.123846456692914
 30
0.0
 10
2.606354330708661
 20
-2.882511811023622
 30
0.0
 10
2.558535433070866
 20
-2.697708661417323
 30
0.0
  0
SPLINE
  5
C3
330
1F
100
AcDbEntity
  8
Layer 1
 62
   250
370
     5
100
AcDbSpline
210
0.0
220
0.0
230
1.0
 70
    11
 71
     3
 72
    32
 73
    28
 74
     0
 42
0.0000000001
 43
0.0000000001
 40
0.0
 40
0.0
 40
0.0
 40
0.0
 40
0.1428571428571429
 40
0.1428571428571429
 40
0.1428571428571429
 40
0.1428571428571429
 40
0.2857142857142857
 40
0.2857142857142857
 40
0.2857142857142857
 40
0.2857142857142857
 40
0.4285714285714286
 40
0.4285714285714286
 40
0.4285714285714286
 40
0.4285714285714286
 40
0.5714285714285714
 40
0.5714285714285714
 40
0.5714285714285714
 40
0.5714285714285714
 40
0.7142857142857142
 40
0.7142857142857142
 40
0.7142857142857142
 40
0.7142857142857142
 40
0.857142857142857
 40
0.857142857142857
 40
0.857142857142857
 40
0.857142857142857
 40
1.0
 40
1.0
 40
1.0
 40
1.0
 10
1.765566929133858
 20
-2.714271653543307
 30
0.0
 10
1.765566929133858
 20
-2.714271653543307
 30
0.0
 10
2.271732283464567
 20
-2.519897637795276
 30
0.0
 10
2.271732283464567
 20
-2.519897637795276
 30
0.0
 10
2.271732283464567
 20
-2.519897637795276
 30
0.0
 10
2.385795275590551
 20
-2.568173228346457
 30
0.0
 10
2.442358267716536
 20
-2.645952755905512
 30
0.0
 10
2.435751968503937
 20
-2.756137795275591
 30
0.0
 10
2.435751968503937
 20
-2.756137795275591
 30
0.0
 10
2.435751968503937
 20
-2.756137795275591
 30
0.0
 10
2.103283464566929
 20
-2.938767716535433
 30
0.0
 10
2.103283464566929
 20
-2.938767716535433
 30
0.0
 10
2.103283464566929
 20
-2.938767716535433
 30
0.0
 10
2.103283464566929
 20
-2.938767716535433
 30
0.0
 10
2.106602362204725
 20
-2.865610236220473
 30
0.0
 10
2.106602362204725
 20
-2.865610236220473
 30
0.0
 10
2.106602362204725
 20
-2.865610236220473
 30
0.0
 10
2.106602362204725
 20
-2.865610236220473
 30
0.0
 10
2.175944881889764
 20
-2.836145669291339
 30
0.0
 10
2.175944881889764
 20
-2.836145669291339
 30
0.0
 10
2.175944881889764
 20
-2.836145669291339
 30
0.0
 10
2.175944881889764
 20
-2.836145669291339
 30
0.0
 10
2.160720472440945
 20
-2.785047244094488
 30
0.0
 10
2.160720472440945
 20
-2.785047244094488
 30
0.0
 10
2.160720472440945
 20
-2.785047244094488
 30
0.0
 10
1.845811023622047
 20
-2.851657480314961
 30
0.0
 10
1.935748031496063
 20
-2.723933070866142
 30
0.0
 10
1.765566929133858
 20
-2.714271653543307
 30
0.0
  0
SPLINE
  5
C4
330
1F
100
AcDbEntity
  8
Layer 1
 62
   250
370
     5
100
AcDbSpline
210
0.0
220
0.0
230
1.0
 70
    11
 71
     3
 72
    20
 73
    16
 74
     0
 42
0.0000000001
 43
0.0000000001
 40
0.0
 40
0.0
 40
0.0
 40
0.0
 40
0.25
 40
0.25
 40
0.25
 40
0.25
 40
0.5
 40
0.5
 40
0.5
 40
0.5
 40
0.75
 40
0.75
 40
0.75
 40
0.75
 40
1.0
 40
1.0
 40
1.0
 40
1.0
 10
1.462614173228346
 20
1.802114173228347
 30
0.0
 10
1.502582677165354
 20
1.850248031496063
 30
0.0
 10
1.548196850393701
 20
1.926814960629921
 30
0.0
 10
1.591527559055118
 20
1.965389763779528
 30
0.0
 10
1.591527559055118
 20
1.965389763779528
 30
0.0
 10
1.617586614173229
 20
1.866913385826772
 30
0.0
 10
1.264807086614173
 20
1.376456692913386
 30
0.0
 10
1.101456692913386
 20
1.081996062992126
 30
0.0
 10
1.101456692913386
 20
1.081996062992126
 30
0.0
 10
1.106543307086614
 20
1.254704724409449
 30
0.0
 10
1.012299212598425
 20
1.392047244094488
 30
0.0
 10
0.8500984251968504
 20
1.505185039370079
 30
0.0
 10
0.8500984251968504
 20
1.505185039370079
 30
0.0
 10
1.098704724409449
 20
1.52586220472441
 30
0.0
 10
1.288661417322835
 20
1.592645669291339
 30
0.0
 10
1.462614173228346
 20
1.802114173228347
 30
0.0
  0
SPLINE
  5
C5
330
1F
100
AcDbEntity
  8
Layer 1
 62
   250
370
     5
100
AcDbSpline
210
0.0
220
0.0
230
1.0
 70
    11
 71
     3
 72
    16
 73
    12
 74
     0
 42
0.0000000001
 43
0.0000000001
 40
0.0
 40
0.0
 40
0.0
 40
0.0
 40
0.3333333333333333
 40
0.3333333333333333
 40
0.3333333333333333
 40
0.3333333333333333
 40
0.6666666666666666
 40
0.6666666666666666
 40
0.6666666666666666
 40
0.6666666666666666
 40
1.0
 40
1.0
 40
1.0
 40
1.0
 10
2.460748031496063
 20
1.491653543307087
 30
0.0
 10
2.085547244094488
 20
1.928161417322835
 30
0.0
 10
2.085700787401575
 20
2.459165354330709
 30
0.0
 10
2.252704724409449
 20
2.563153543307087
 30
0.0
 10
2.252704724409449
 20
2.563153543307087
 30
0.0
 10
2.449700787401575
 20
2.126937007874016
 30
0.0
 10
2.781645669291339
 20
2.136834645669291
 30
0.0
 10
2.878374015748032
 20
2.018673228346457
 30
0.0
 10
2.878374015748032
 20
2.018673228346457
 30
0.0
 10
2.63390157480315
 20
1.903035433070866
 30
0.0
 10
2.480669291338583
 20
1.735370078740158
 30
0.0
 10
2.460748031496063
 20
1.491653543307087
 30
0.0
  0
SPLINE
  5
C6
330
1F
100
AcDbEntity
  8
Layer 1
 62
   250
370
     5
100
AcDbSpline
210
0.0
220
0.0
230
1.0
 70
    11
 71
     3
 72
    20
 73
    16
 74
     0
 42
0.0000000001
 43
0.0000000001
 40
0.0
 40
0.0
 40
0.0
 40
0.0
 40
0.25
 40
0.25
 40
0.25
 40
0.25
 40
0.5
 40
0.5
 40
0.5
 40
0.5
 40
0.75
 40
0.75
 40
0.75
 40
0.75
 40
1.0
 40
1.0
 40
1.0
 40
1.0
 10
2.633846456692913
 20
1.407759842519685
 30
0.0
 10
2.525822834645669
 20
1.573771653543307
 30
0.0
 10
2.909594488188977
 20
1.783492125984252
 30
0.0
 10
3.120070866141732
 20
1.871043307086614
 30
0.0
 10
3.120070866141732
 20
1.871043307086614
 30
0.0
 10
3.120070866141732
 20
1.871043307086614
 30
0.0
 10
3.481964566929134
 20
1.585606299212599
 30
0.0
 10
3.481964566929134
 20
1.585606299212599
 30
0.0
 10
3.481964566929134
 20
1.585606299212599
 30
0.0
 10
3.481964566929134
 20
1.585606299212599
 30
0.0
 10
3.205240157480315
 20
1.202503937007874
 30
0.0
 10
3.205240157480315
 20
1.202503937007874
 30
0.0
 10
3.205240157480315
 20
1.202503937007874
 30
0.0
 10
2.98242125984252
 20
1.21038188976378
 30
0.0
 10
2.79142125984252
 20
1.277759842519685
 30
0.0
 10
2.633846456692913
 20
1.407759842519685
 30
0.0
  0
SPLINE
  5
C7
330
1F
100
AcDbEntity
  8
Layer 1
 62
   250
370
     5
100
AcDbSpline
210
0.0
220
0.0
230
1.0
 70
    11
 71
     3
 72
    20
 73
    16
 74
     0
 42
0.0000000001
 43
0.0000000001
 40
0.0
 40
0.0
 40
0.0
 40
0.0
 40
0.25
 40
0.25
 40
0.25
 40
0.25
 40
0.5
 40
0.5
 40
0.5
 40
0.5
 40
0.75
 40
0.75
 40
0.75
 40
0.75
 40
1.0
 40
1.0
 40
1.0
 40
1.0
 10
3.513586614173228
 20
1.072996062992126
 30
0.0
 10
3.626649606299213
 20
1.152570866141732
 30
0.0
 10
3.599035433070867
 20
1.222468503937008
 30
0.0
 10
3.641740157480315
 20
1.297208661417323
 30
0.0
 10
3.641740157480315
 20
1.297208661417323
 30
0.0
 10
3.769834645669291
 20
1.566811023622047
 30
0.0
 10
4.059531496062992
 20
1.601118110236221
 30
0.0
 10
4.316677165354331
 20
1.407051181102362
 30
0.0
 10
4.316677165354331
 20
1.407051181102362
 30
0.0
 10
4.51726377952756
 20
1.298866141732284
 30
0.0
 10
4.739074803149607
 20
1.26186220472441
 30
0.0
 10
4.968574803149607
 20
1.250618110236221
 30
0.0
 10
4.968574803149607
 20
1.250618110236221
 30
0.0
 10
4.619996062992126
 20
0.8590314960629921
 30
0.0
 10
3.741011811023622
 20
0.8524409448818898
 30
0.0
 10
3.513586614173228
 20
1.072996062992126
 30
0.0
  0
SPLINE
  5
C8
330
1F
100
AcDbEntity
  8
Layer 1
 62
   250
370
     5
100
AcDbSpline
210
0.0
220
0.0
230
1.0
 70
    11
 71
     3
 72
    16
 73
    12
 74
     0
 42
0.0000000001
 43
0.0000000001
 40
0.0
 40
0.0
 40
0.0
 40
0.0
 40
0.3333333333333333
 40
0.3333333333333333
 40
0.3333333333333333
 40
0.3333333333333333
 40
0.6666666666666666
 40
0.6666666666666666
 40
0.6666666666666666
 40
0.6666666666666666
 40
1.0
 40
1.0
 40
1.0
 40
1.0
 10
4.854311023622048
 20
1.395118110236221
 30
0.0
 10
4.653673228346457
 20
1.416374015748032
 30
0.0
 10
4.479417322834646
 20
1.490173228346457
 30
0.0
 10
4.343688976377953
 20
1.640775590551181
 30
0.0
 10
4.343688976377953
 20
1.640775590551181
 30
0.0
 10
4.556834645669292
 20
1.675346456692914
 30
0.0
 10
5.162090551181103
 20
1.775996062992126
 30
0.0
 10
5.286358267716536
 20
2.209173228346457
 30
0.0
 10
5.286358267716536
 20
2.209173228346457
 30
0.0
 10
5.389299212598425
 20
1.830972440944882
 30
0.0
 10
5.195015748031496
 20
1.417488188976378
 30
0.0
 10
4.854311023622048
 20
1.395118110236221
 30
0.0
  0
SPLINE
  5
C9
330
1F
100
AcDbEntity
  8
Layer 1
 62
   250
370
     5
100
AcDbSpline
210
0.0
220
0.0
230
1.0
 70
    11
 71
     3
 72
    20
 73
    16
 74
     0
 42
0.0000000001
 43
0.0000000001
 40
0.0
 40
0.0
 40
0.0
 40
0.0
 40
0.25
 40
0.25
 40
0.25
 40
0.25
 40
0.5
 40
0.5
 40
0.5
 40
0.5
 40
0.75
 40
0.75
 40
0.75
 40
0.75
 40
1.0
 40
1.0
 40
1.0
 40
1.0
 10
5.648248031496063
 20
0.6269685039370079
 30
0.0
 10
5.815023622047244
 20
1.129362204724409
 30
0.0
 10
6.617779527559056
 20
1.497543307086614
 30
0.0
 10
6.912090551181103
 20
1.389177165354331
 30
0.0
 10
6.912090551181103
 20
1.389177165354331
 30
0.0
 10
6.83951968503937
 20
1.269677165354331
 30
0.0
 10
6.892059055118111
 20
1.217031496062992
 30
0.0
 10
6.882051181102362
 20
1.130948818897638
 30
0.0
 10
6.882051181102362
 20
1.130948818897638
 30
0.0
 10
6.86976377952756
 20
0.8311417322834646
 30
0.0
 10
6.617704724409449
 20
0.6803622047244095
 30
0.0
 10
6.306484251968504
 20
0.752236220472441
 30
0.0
 10
6.306484251968504
 20
0.752236220472441
 30
0.0
 10
6.080535433070867
 20
0.7687086614173229
 30
0.0
 10
5.862889763779528
 20
0.7112165354330708
 30
0.0
 10
5.648248031496063
 20
0.6269685039370079
 30
0.0
  0
SPLINE
  5
CA
330
1F
100
AcDbEntity
  8
Layer 1
 62
   250
370
     5
100
AcDbSpline
210
0.0
220
0.0
230
1.0
 70
    11
 71
     3
 72
    16
 73
    12
 74
     0
 42
0.0000000001
 43
0.0000000001
 40
0.0
 40
0.0
 40
0.0
 40
0.0
 40
0.3333333333333333
 40
0.3333333333333333
 40
0.3333333333333333
 40
0.3333333333333333
 40
0.6666666666666666
 40
0.6666666666666666
 40
0.6666666666666666
 40
0.6666666666666666
 40
1.0
 40
1.0
 40
1.0
 40
1.0
 10
5.809240157480315
 20
0.5416535433070866
 30
0.0
 10
6.001346456692914
 20
0.6048503937007874
 30
0.0
 10
6.189775590551181
 20
0.6090196850393701
 30
0.0
 10
6.372807086614174
 20
0.5269645669291339
 30
0.0
 10
6.372807086614174
 20
0.5269645669291339
 30
0.0
 10
6.19098031496063
 20
0.4074488188976378
 30
0.0
 10
5.675692913385827
 20
0.0658897637795276
 30
0.0
 10
5.730629921259843
 20
-0.3822007874015748
 30
0.0
 10
5.730629921259843
 20
-0.3822007874015748
 30
0.0
 10
5.488933070866142
 20
-0.0781102362204724
 30
0.0
 10
5.505807086614174
 20
0.3807795275590551
 30
0.0
 10
5.809240157480315
 20
0.5416535433070866
 30
0.0
  0
SPLINE
  5
CB
330
1F
100
AcDbEntity
  8
Layer 1
 62
   250
370
     5
100
AcDbSpline
210
0.0
220
0.0
230
1.0
 70
    11
 71
     3
 72
    32
 73
    28
 74
     0
 42
0.0000000001
 43
0.0000000001
 40
0.0
 40
0.0
 40
0.0
 40
0.0
 40
0.1428571428571429
 40
0.1428571428571429
 40
0.1428571428571429
 40
0.1428571428571429
 40
0.2857142857142857
 40
0.2857142857142857
 40
0.2857142857142857
 40
0.2857142857142857
 40
0.4285714285714286
 40
0.4285714285714286
 40
0.4285714285714286
 40
0.4285714285714286
 40
0.5714285714285714
 40
0.5714285714285714
 40
0.5714285714285714
 40
0.5714285714285714
 40
0.7142857142857142
 40
0.7142857142857142
 40
0.7142857142857142
 40
0.7142857142857142
 40
0.857142857142857
 40
0.857142857142857
 40
0.857142857142857
 40
0.857142857142857
 40
1.0
 40
1.0
 40
1.0
 40
1.0
 10
2.847944881889764
 20
0.6295590551181103
 30
0.0
 10
2.847944881889764
 20
0.6295590551181103
 30
0.0
 10
3.178724409448819
 20
1.068854330708662
 30
0.0
 10
3.178724409448819
 20
1.068854330708662
 30
0.0
 10
3.178724409448819
 20
1.068854330708662
 30
0.0
 10
3.30040157480315
 20
1.089582677165354
 30
0.0
 10
3.388330708661417
 20
1.054094488188976
 30
0.0
 10
3.439137795275591
 20
0.9568385826771654
 30
0.0
 10
3.439137795275591
 20
0.9568385826771654
 30
0.0
 10
3.439137795275591
 20
0.9568385826771654
 30
0.0
 10
3.250031496062992
 20
0.6215629921259843
 30
0.0
 10
3.250031496062992
 20
0.6215629921259843
 30
0.0
 10
3.250031496062992
 20
0.6215629921259843
 30
0.0
 10
3.250031496062992
 20
0.6215629921259843
 30
0.0
 10
3.215377952755905
 20
0.6855590551181102
 30
0.0
 10
3.215377952755905
 20
0.6855590551181102
 30
0.0
 10
3.215377952755905
 20
0.6855590551181102
 30
0.0
 10
3.215377952755905
 20
0.6855590551181102
 30
0.0
 10
3.259232283464567
 20
0.7481417322834646
 30
0.0
 10
3.259232283464567
 20
0.7481417322834646
 30
0.0
 10
3.259232283464567
 20
0.7481417322834646
 30
0.0
 10
3.259232283464567
 20
0.7481417322834646
 30
0.0
 10
3.22011811023622
 20
0.7833464566929134
 30
0.0
 10
3.22011811023622
 20
0.7833464566929134
 30
0.0
 10
3.22011811023622
 20
0.7833464566929134
 30
0.0
 10
2.98653937007874
 20
0.5562125984251969
 30
0.0
 10
2.997562992125984
 20
0.7134803149606299
 30
0.0
 10
2.847944881889764
 20
0.6295590551181103
 30
0.0
  0
SPLINE
  5
CC
330
1F
100
AcDbEntity
  8
Layer 1
 62
   250
370
     5
100
AcDbSpline
210
0.0
220
0.0
230
1.0
 70
    11
 71
     3
 72
    20
 73
    16
 74
     0
 42
0.0000000001
 43
0.0000000001
 40
0.0
 40
0.0
 40
0.0
 40
0.0
 40
0.25
 40
0.25
 40
0.25
 40
0.25
 40
0.5
 40
0.5
 40
0.5
 40
0.5
 40
0.75
 40
0.75
 40
0.75
 40
0.75
 40
1.0
 40
1.0
 40
1.0
 40
1.0
 10
4.487228346456693
 20
-0.0394724409448819
 30
0.0
 10
4.734279527559055
 20
0.185007874015748
 30
0.0
 10
5.129342519685039
 20
0.6401220472440945
 30
0.0
 10
5.228405511811024
 20
0.6339685039370079
 30
0.0
 10
5.228405511811024
 20
0.6339685039370079
 30
0.0
 10
5.200515748031497
 20
0.5825
 30
0.0
 10
5.136905511811023
 20
0.5209488188976378
 30
0.0
 10
5.099240157480315
 20
0.4709055118110236
 30
0.0
 10
5.099240157480315
 20
0.4709055118110236
 30
0.0
 10
4.935255905511811
 20
0.2530944881889764
 30
0.0
 10
4.910389763779528
 20
0.048259842519685
 30
0.0
 10
4.941413385826772
 20
-0.2062047244094488
 30
0.0
 10
4.941413385826772
 20
-0.2062047244094488
 30
0.0
 10
4.800614173228347
 20
-0.065992125984252
 30
0.0
 10
4.650641732283464
 20
0.0008661417322835
 30
0.0
 10
4.487228346456693
 20
-0.0394724409448819
 30
0.0
  0
SPLINE
  5
CD
330
1F
100
AcDbEntity
  8
Layer 1
 62
   250
370
     5
100
AcDbSpline
210
0.0
220
0.0
230
1.0
 70
    11
 71
     3
 72
    20
 73
    16
 74
     0
 42
0.0000000001
 43
0.0000000001
 40
0.0
 40
0.0
 40
0.0
 40
0.0
 40
0.25
 40
0.25
 40
0.25
 40
0.25
 40
0.5
 40
0.5
 40
0.5
 40
0.5
 40
0.75
 40
0.75
 40
0.75
 40
0.75
 40
1.0
 40
1.0
 40
1.0
 40
1.0
 10
6.014854330708662
 20
-0.0073543307086614
 30
0.0
 10
6.140157480314961
 20
0.1031299212598425
 30
0.0
 10
6.261625984251968
 20
0.2194803149606299
 30
0.0
 10
6.37801968503937
 20
0.3436259842519685
 30
0.0
 10
6.37801968503937
 20
0.3436259842519685
 30
0.0
 10
6.437885826771653
 20
0.2359291338582677
 30
0.0
 10
6.372874015748032
 20
-0.0124842519685039
 30
0.0
 10
6.265086614173229
 20
-0.2330590551181103
 30
0.0
 10
6.265086614173229
 20
-0.2330590551181103
 30
0.0
 10
6.199948818897638
 20
-0.3646220472440945
 30
0.0
 10
6.092952755905512
 20
-0.4728149606299213
 30
0.0
 10
5.924818897637795
 20
-0.5468622047244095
 30
0.0
 10
5.924818897637795
 20
-0.5468622047244095
 30
0.0
 10
5.79588188976378
 20
-0.3109291338582677
 30
0.0
 10
5.795161417322835
 20
-0.169740157480315
 30
0.0
 10
6.014854330708662
 20
-0.0073543307086614
 30
0.0
  0
SPLINE
  5
CE
330
1F
100
AcDbEntity
  8
Layer 1
 62
   250
370
     5
100
AcDbSpline
210
0.0
220
0.0
230
1.0
 70
    11
 71
     3
 72
    20
 73
    16
 74
     0
 42
0.0000000001
 43
0.0000000001
 40
0.0
 40
0.0
 40
0.0
 40
0.0
 40
0.25
 40
0.25
 40
0.25
 40
0.25
 40
0.5
 40
0.5
 40
0.5
 40
0.5
 40
0.75
 40
0.75
 40
0.75
 40
0.75
 40
1.0
 40
1.0
 40
1.0
 40
1.0
 10
6.592224409448819
 20
0.4750905511811024
 30
0.0
 10
6.714897637795276
 20
0.5195472440944882
 30
0.0
 10
6.830791338582677
 20
0.6025944881889764
 30
0.0
 10
6.936803149606299
 20
0.7420157480314961
 30
0.0
 10
6.936803149606299
 20
0.7420157480314961
 30
0.0
 10
7.005196850393701
 20
0.594240157480315
 30
0.0
 10
7.008062992125985
 20
0.4732637795275591
 30
0.0
 10
7.062633858267716
 20
0.3276181102362205
 30
0.0
 10
7.062633858267716
 20
0.3276181102362205
 30
0.0
 10
7.163228346456693
 20
-0.0815236220472441
 30
0.0
 10
6.686748031496063
 20
-0.5113149606299213
 30
0.0
 10
6.42248031496063
 20
-0.3873897637795276
 30
0.0
 10
6.42248031496063
 20
-0.3873897637795276
 30
0.0
 10
6.574500000000001
 20
-0.0968070866141732
 30
0.0
 10
6.619846456692914
 20
0.1903267716535433
 30
0.0
 10
6.592224409448819
 20
0.4750905511811024
 30
0.0
  0
SPLINE
  5
CF
330
1F
100
AcDbEntity
  8
Layer 1
 62
   250
370
     5
100
AcDbSpline
210
0.0
220
0.0
230
1.0
 70
    11
 71
     3
 72
    32
 73
    28
 74
     0
 42
0.0000000001
 43
0.0000000001
 40
0.0
 40
0.0
 40
0.0
 40
0.0
 40
0.1428571428571429
 40
0.1428571428571429
 40
0.1428571428571429
 40
0.1428571428571429
 40
0.2857142857142857
 40
0.2857142857142857
 40
0.2857142857142857
 40
0.2857142857142857
 40
0.4285714285714286
 40
0.4285714285714286
 40
0.4285714285714286
 40
0.4285714285714286
 40
0.5714285714285714
 40
0.5714285714285714
 40
0.5714285714285714
 40
0.5714285714285714
 40
0.7142857142857142
 40
0.7142857142857142
 40
0.7142857142857142
 40
0.7142857142857142
 40
0.857142857142857
 40
0.857142857142857
 40
0.857142857142857
 40
0.857142857142857
 40
1.0
 40
1.0
 40
1.0
 40
1.0
 10
7.429429133858268
 20
0.1901023622047244
 30
0.0
 10
7.290090551181103
 20
0.3811614173228347
 30
0.0
 10
7.191779527559056
 20
0.5583779527559055
 30
0.0
 10
7.240035433070866
 20
0.6861614173228346
 30
0.0
 10
7.240035433070866
 20
0.6861614173228346
 30
0.0
 10
7.457767716535433
 20
0.5546653543307087
 30
0.0
 10
7.566854330708662
 20
0.6015590551181103
 30
0.0
 10
7.730291338582678
 20
0.5592362204724409
 30
0.0
 10
7.730291338582678
 20
0.5592362204724409
 30
0.0
 10
8.074531496062992
 20
0.5159055118110236
 30
0.0
 10
8.193267716535434
 20
0.2878543307086615
 30
0.0
 10
8.247582677165354
 20
0.1025314960629921
 30
0.0
 10
8.247582677165354
 20
0.1025314960629921
 30
0.0
 10
8.279574803149608
 20
-0.0065866141732283
 30
0.0
 10
8.278787401574803
 20
-0.0671023622047244
 30
0.0
 10
8.406771653543308
 20
-0.1913622047244095
 30
0.0
 10
8.406771653543308
 20
-0.1913622047244095
 30
0.0
 10
8.231531496062992
 20
-0.1901417322834646
 30
0.0
 10
8.06451968503937
 20
-0.0489133858267717
 30
0.0
 10
7.909476377952756
 20
0.0278346456692913
 30
0.0
 10
7.909476377952756
 20
0.0278346456692913
 30
0.0
 10
7.790114173228346
 20
0.0944488188976378
 30
0.0
 10
7.697562992125985
 20
0.047255905511811
 30
0.0
 10
7.632468503937008
 20
0.1253582677165354
 30
0.0
 10
7.632468503937008
 20
0.1253582677165354
 30
0.0
 10
7.551149606299213
 20
0.1769724409448819
 30
0.0
 10
7.487149606299213
 20
0.1904291338582677
 30
0.0
 10
7.429429133858268
 20
0.1901023622047244
 30
0.0
  0
SPLINE
  5
D0
330
1F
100
AcDbEntity
  8
Layer 1
 62
   250
370
     5
100
AcDbSpline
210
0.0
220
0.0
230
1.0
 70
    11
 71
     3
 72
    20
 73
    16
 74
     0
 42
0.0000000001
 43
0.0000000001
 40
0.0
 40
0.0
 40
0.0
 40
0.0
 40
0.25
 40
0.25
 40
0.25
 40
0.25
 40
0.5
 40
0.5
 40
0.5
 40
0.5
 40
0.75
 40
0.75
 40
0.75
 40
0.75
 40
1.0
 40
1.0
 40
1.0
 40
1.0
 10
8.671814960629922
 20
-0.3490314960629922
 30
0.0
 10
8.534826771653544
 20
-0.2204606299212598
 30
0.0
 10
8.454102362204726
 20
-0.0540551181102362
 30
0.0
 10
8.404358267716535
 20
0.1331732283464567
 30
0.0
 10
8.404358267716535
 20
0.1331732283464567
 30
0.0
 10
8.360751968503937
 20
0.2997874015748032
 30
0.0
 10
8.25972440944882
 20
0.4515039370078741
 30
0.0
 10
8.095653543307087
 20
0.5868425196850394
 30
0.0
 10
8.095653543307087
 20
0.5868425196850394
 30
0.0
 10
8.346913385826772
 20
0.5840196850393701
 30
0.0
 10
8.785389763779527
 20
0.3399212598425197
 30
0.0
 10
8.755838582677166
 20
0.095
 30
0.0
 10
8.755838582677166
 20
0.095
 30
0.0
 10
8.739464566929135
 20
-0.0799685039370079
 30
0.0
 10
8.713011811023623
 20
-0.2315708661417323
 30
0.0
 10
8.671814960629922
 20
-0.3490314960629922
 30
0.0
  0
SPLINE
  5
D1
330
1F
100
AcDbEntity
  8
Layer 1
 62
   250
370
     5
100
AcDbSpline
210
0.0
220
0.0
230
1.0
 70
    11
 71
     3
 72
    20
 73
    16
 74
     0
 42
0.0000000001
 43
0.0000000001
 40
0.0
 40
0.0
 40
0.0
 40
0.0
 40
0.25
 40
0.25
 40
0.25
 40
0.25
 40
0.5
 40
0.5
 40
0.5
 40
0.5
 40
0.75
 40
0.75
 40
0.75
 40
0.75
 40
1.0
 40
1.0
 40
1.0
 40
1.0
 10
9.227984251968504
 20
-0.4243031496062992
 30
0.0
 10
9.206562992125985
 20
-0.3649645669291339
 30
0.0
 10
9.163732283464567
 20
-0.2867047244094488
 30
0.0
 10
9.152066929133859
 20
-0.2290236220472441
 30
0.0
 10
9.152066929133859
 20
-0.2290236220472441
 30
0.0
 10
9.248393700787402
 20
-0.2535748031496063
 30
0.0
 10
9.493251968503937
 20
-0.8092204724409449
 30
0.0
 10
9.663846456692914
 20
-1.099318897637795
 30
0.0
 10
9.663846456692914
 20
-1.099318897637795
 30
0.0
 10
9.519602362204724
 20
-1.010633858267717
 30
0.0
 10
9.357043307086615
 20
-1.028393700787402
 30
0.0
 10
9.181964566929134
 20
-1.118992125984252
 30
0.0
 10
9.181964566929134
 20
-1.118992125984252
 30
0.0
 10
9.285448818897638
 20
-0.8856456692913386
 30
0.0
 10
9.321220472440945
 20
-0.6825275590551181
 30
0.0
 10
9.227984251968504
 20
-0.4243031496062992
 30
0.0
  0
SPLINE
  5
D2
330
1F
100
AcDbEntity
  8
Layer 1
 62
   250
370
     5
100
AcDbSpline
210
0.0
220
0.0
230
1.0
 70
    11
 71
     3
 72
    20
 73
    16
 74
     0
 42
0.0000000001
 43
0.0000000001
 40
0.0
 40
0.0
 40
0.0
 40
0.0
 40
0.25
 40
0.25
 40
0.25
 40
0.25
 40
0.5
 40
0.5
 40
0.5
 40
0.5
 40
0.75
 40
0.75
 40
0.75
 40
0.75
 40
1.0
 40
1.0
 40
1.0
 40
1.0
 10
7.107102362204724
 20
-0.2536181102362205
 30
0.0
 10
7.165007874015748
 20
-0.1801574803149607
 30
0.0
 10
7.211464566929134
 20
-0.098996062992126
 30
0.0
 10
7.232708661417323
 20
-0.0009251968503937
 30
0.0
 10
7.232708661417323
 20
-0.0009251968503937
 30
0.0
 10
7.548448818897638
 20
-0.3791062992125984
 30
0.0
 10
7.447519685039371
 20
-0.7974488188976379
 30
0.0
 10
7.157204724409449
 20
-1.234055118110236
 30
0.0
 10
7.157204724409449
 20
-1.234055118110236
 30
0.0
 10
7.128566929133859
 20
-1.070992125984252
 30
0.0
 10
7.071484251968505
 20
-0.9113031496062992
 30
0.0
 10
7.002000000000001
 20
-0.7484291338582677
 30
0.0
 10
7.002000000000001
 20
-0.7484291338582677
 30
0.0
 10
6.925035433070867
 20
-0.5618858267716536
 30
0.0
 10
6.943629921259843
 20
-0.4281141732283465
 30
0.0
 10
7.107102362204724
 20
-0.2536181102362205
 30
0.0
  0
SPLINE
  5
D3
330
1F
100
AcDbEntity
  8
Layer 1
 62
   250
370
     5
100
AcDbSpline
210
0.0
220
0.0
230
1.0
 70
    11
 71
     3
 72
    20
 73
    16
 74
     0
 42
0.0000000001
 43
0.0000000001
 40
0.0
 40
0.0
 40
0.0
 40
0.0
 40
0.25
 40
0.25
 40
0.25
 40
0.25
 40
0.5
 40
0.5
 40
0.5
 40
0.5
 40
0.75
 40
0.75
 40
0.75
 40
0.75
 40
1.0
 40
1.0
 40
1.0
 40
1.0
 10
7.928590551181102
 20
-0.8146653543307088
 30
0.0
 10
7.736385826771654
 20
-0.5626023622047245
 30
0.0
 10
7.708543307086615
 20
-0.3380944881889764
 30
0.0
 10
7.525062992125984
 20
-0.0518937007874016
 30
0.0
 10
7.525062992125984
 20
-0.0518937007874016
 30
0.0
 10
7.891185039370079
 20
-0.075492125984252
 30
0.0
 10
7.909968503937008
 20
-0.2454645669291339
 30
0.0
 10
8.192562992125984
 20
-0.3228267716535433
 30
0.0
 10
8.192562992125984
 20
-0.3228267716535433
 30
0.0
 10
8.152397637795277
 20
-0.4707165354330709
 30
0.0
 10
8.272555118110237
 20
-0.6666850393700787
 30
0.0
 10
8.072082677165355
 20
-0.7665118110236221
 30
0.0
 10
8.072082677165355
 20
-0.7665118110236221
 30
0.0
 10
8.072082677165355
 20
-0.7665118110236221
 30
0.0
 10
7.928590551181102
 20
-0.8146653543307088
 30
0.0
 10
7.928590551181102
 20
-0.8146653543307088
 30
0.0
  0
SPLINE
  5
D4
330
1F
100
AcDbEntity
  8
Layer 1
 62
   250
370
     5
100
AcDbSpline
210
0.0
220
0.0
230
1.0
 70
    11
 71
     3
 72
    28
 73
    24
 74
     0
 42
0.0000000001
 43
0.0000000001
 40
0.0
 40
0.0
 40
0.0
 40
0.0
 40
0.1666666666666667
 40
0.1666666666666667
 40
0.1666666666666667
 40
0.1666666666666667
 40
0.3333333333333333
 40
0.3333333333333333
 40
0.3333333333333333
 40
0.3333333333333333
 40
0.5
 40
0.5
 40
0.5
 40
0.5
 40
0.6666666666666666
 40
0.6666666666666666
 40
0.6666666666666666
 40
0.6666666666666666
 40
0.8333333333333333
 40
0.8333333333333333
 40
0.8333333333333333
 40
0.8333333333333333
 40
1.0
 40
1.0
 40
1.0
 40
1.0
 10
9.61255905511811
 20
-0.7151181102362205
 30
0.0
 10
9.477153543307088
 20
-0.4969330708661418
 30
0.0
 10
9.194090551181104
 20
-0.2290866141732283
 30
0.0
 10
9.253830708661418
 20
-0.0754566929133858
 30
0.0
 10
9.253830708661418
 20
-0.0754566929133858
 30
0.0
 10
9.321594488188977
 20
-0.0994015748031496
 30
0.0
 10
9.480838582677166
 20
-0.3259094488188977
 30
0.0
 10
9.594346456692914
 20
-0.4511377952755906
 30
0.0
 10
9.594346456692914
 20
-0.4511377952755906
 30
0.0
 10
9.697625984251969
 20
-0.5913307086614174
 30
0.0
 10
9.863232283464567
 20
-0.647232283464567
 30
0.0
 10
9.997677165354331
 20
-0.7452755905511811
 30
0.0
 10
9.997677165354331
 20
-0.7452755905511811
 30
0.0
 10
10.09782677165354
 20
-0.8221023622047244
 30
0.0
 10
10.11457086614173
 20
-0.8681653543307087
 30
0.0
 10
10.30311023622047
 20
-0.9326771653543308
 30
0.0
 10
10.30311023622047
 20
-0.9326771653543308
 30
0.0
 10
10.23923228346457
 20
-1.538263779527559
 30
0.0
 10
10.19016929133858
 20
-1.401212598425197
 30
0.0
 10
10.10910236220473
 20
-1.612846456692914
 30
0.0
 10
10.10910236220473
 20
-1.612846456692914
 30
0.0
 10
9.934708661417323
 20
-1.112244094488189
 30
0.0
 10
9.788472440944883
 20
-0.9985905511811024
 30
0.0
 10
9.61255905511811
 20
-0.7151181102362205
 30
0.0
  0
SPLINE
  5
D5
330
1F
100
AcDbEntity
  8
Layer 1
 62
   250
370
     5
100
AcDbSpline
210
0.0
220
0.0
230
1.0
 70
    11
 71
     3
 72
    20
 73
    16
 74
     0
 42
0.0000000001
 43
0.0000000001
 40
0.0
 40
0.0
 40
0.0
 40
0.0
 40
0.25
 40
0.25
 40
0.25
 40
0.25
 40
0.5
 40
0.5
 40
0.5
 40
0.5
 40
0.75
 40
0.75
 40
0.75
 40
0.75
 40
1.0
 40
1.0
 40
1.0
 40
1.0
 10
12.06545669291339
 20
-1.401503937007874
 30
0.0
 10
11.75329921259843
 20
-1.383913385826772
 30
0.0
 10
11.15246456692914
 20
-0.7242244094488189
 30
0.0
 10
11.18841338582677
 20
-0.1946692913385827
 30
0.0
 10
11.18841338582677
 20
-0.1946692913385827
 30
0.0
 10
11.35440157480315
 20
-0.3579763779527559
 30
0.0
 10
11.53329133858268
 20
-0.4978228346456693
 30
0.0
 10
11.74775196850394
 20
-0.5728031496062992
 30
0.0
 10
11.74775196850394
 20
-0.5728031496062992
 30
0.0
 10
12.06170472440945
 20
-0.6307755905511812
 30
0.0
 10
12.23708661417323
 20
-0.8703228346456693
 30
0.0
 10
12.13524409448819
 20
-1.151523622047244
 30
0.0
 10
12.13524409448819
 20
-1.151523622047244
 30
0.0
 10
12.11197637795276
 20
-1.234850393700788
 30
0.0
 10
12.04367322834646
 20
-1.262405511811024
 30
0.0
 10
12.06545669291339
 20
-1.401503937007874
 30
0.0
  0
SPLINE
  5
D6
330
1F
100
AcDbEntity
  8
Layer 1
 62
   250
370
     5
100
AcDbSpline
210
0.0
220
0.0
230
1.0
 70
    11
 71
     3
 72
    20
 73
    16
 74
     0
 42
0.0000000001
 43
0.0000000001
 40
0.0
 40
0.0
 40
0.0
 40
0.0
 40
0.25
 40
0.25
 40
0.25
 40
0.25
 40
0.5
 40
0.5
 40
0.5
 40
0.5
 40
0.75
 40
0.75
 40
0.75
 40
0.75
 40
1.0
 40
1.0
 40
1.0
 40
1.0
 10
12.44863385826772
 20
-1.071948818897638
 30
0.0
 10
12.44863385826772
 20
-1.071948818897638
 30
0.0
 10
12.6756062992126
 20
-1.108799212598425
 30
0.0
 10
12.6756062992126
 20
-1.108799212598425
 30
0.0
 10
12.6756062992126
 20
-1.108799212598425
 30
0.0
 10
12.6756062992126
 20
-1.108799212598425
 30
0.0
 10
12.6756062992126
 20
-1.759913385826772
 30
0.0
 10
12.6756062992126
 20
-1.759913385826772
 30
0.0
 10
12.6756062992126
 20
-1.759913385826772
 30
0.0
 10
12.56616141732284
 20
-1.710846456692913
 30
0.0
 10
12.46409448818898
 20
-1.638
 30
0.0
 10
12.36916929133858
 20
-1.542122047244095
 30
0.0
 10
12.36916929133858
 20
-1.542122047244095
 30
0.0
 10
12.36916929133858
 20
-1.542122047244095
 30
0.0
 10
12.44863385826772
 20
-1.071948818897638
 30
0.0
 10
12.44863385826772
 20
-1.071948818897638
 30
0.0
  0
SPLINE
  5
D7
330
1F
100
AcDbEntity
  8
Layer 1
 62
   250
370
     5
100
AcDbSpline
210
0.0
220
0.0
230
1.0
 70
    11
 71
     3
 72
    20
 73
    16
 74
     0
 42
0.0000000001
 43
0.0000000001
 40
0.0
 40
0.0
 40
0.0
 40
0.0
 40
0.25
 40
0.25
 40
0.25
 40
0.25
 40
0.5
 40
0.5
 40
0.5
 40
0.5
 40
0.75
 40
0.75
 40
0.75
 40
0.75
 40
1.0
 40
1.0
 40
1.0
 40
1.0
 10
2.328661417322835
 20
3.018366141732284
 30
0.0
 10
2.411854330708661
 20
3.171933070866142
 30
0.0
 10
2.495169291338583
 20
3.299929133858268
 30
0.0
 10
2.578669291338583
 20
3.390566929133859
 30
0.0
 10
2.578669291338583
 20
3.390566929133859
 30
0.0
 10
2.654106299212598
 20
3.216318897637795
 30
0.0
 10
2.663212598425197
 20
3.030598425196851
 30
0.0
 10
2.6358031496063
 20
2.838574803149606
 30
0.0
 10
2.6358031496063
 20
2.838574803149606
 30
0.0
 10
2.610842519685039
 20
2.667956692913386
 30
0.0
 10
2.644279527559055
 20
2.487326771653543
 30
0.0
 10
2.741874015748032
 20
2.295728346456693
 30
0.0
 10
2.741874015748032
 20
2.295728346456693
 30
0.0
 10
2.512759842519685
 20
2.401830708661418
 30
0.0
 10
2.206165354330709
 20
2.806137795275591
 30
0.0
 10
2.328661417322835
 20
3.018366141732284
 30
0.0
  0
SPLINE
  5
D8
330
1F
100
AcDbEntity
  8
Layer 1
 62
   250
370
     5
100
AcDbSpline
210
0.0
220
0.0
230
1.0
 70
    11
 71
     3
 72
    32
 73
    28
 74
     0
 42
0.0000000001
 43
0.0000000001
 40
0.0
 40
0.0
 40
0.0
 40
0.0
 40
0.1428571428571429
 40
0.1428571428571429
 40
0.1428571428571429
 40
0.1428571428571429
 40
0.2857142857142857
 40
0.2857142857142857
 40
0.2857142857142857
 40
0.2857142857142857
 40
0.4285714285714286
 40
0.4285714285714286
 40
0.4285714285714286
 40
0.4285714285714286
 40
0.5714285714285714
 40
0.5714285714285714
 40
0.5714285714285714
 40
0.5714285714285714
 40
0.7142857142857142
 40
0.7142857142857142
 40
0.7142857142857142
 40
0.7142857142857142
 40
0.857142857142857
 40
0.857142857142857
 40
0.857142857142857
 40
0.857142857142857
 40
1.0
 40
1.0
 40
1.0
 40
1.0
 10
2.791393700787402
 20
2.802055118110236
 30
0.0
 10
2.804610236220472
 20
2.915220472440945
 30
0.0
 10
2.828905511811024
 20
2.970322834645669
 30
0.0
 10
2.760086614173229
 20
3.136905511811024
 30
0.0
 10
2.760086614173229
 20
3.136905511811024
 30
0.0
 10
2.920157480314961
 20
3.06359842519685
 30
0.0
 10
3.018149606299213
 20
2.865389763779528
 30
0.0
 10
3.130283464566929
 20
2.731196850393701
 30
0.0
 10
3.130283464566929
 20
2.731196850393701
 30
0.0
 10
3.213692913385827
 20
2.620976377952756
 30
0.0
 10
3.316870078740158
 20
2.626086614173229
 30
0.0
 10
3.346070866141732
 20
2.527700787401575
 30
0.0
 10
3.346070866141732
 20
2.527700787401575
 30
0.0
 10
3.400476377952756
 20
2.446917322834646
 30
0.0
 10
3.453874015748032
 20
2.408216535433071
 30
0.0
 10
3.506885826771654
 20
2.384736220472441
 30
0.0
 10
3.506885826771654
 20
2.384736220472441
 30
0.0
 10
3.560090551181102
 20
2.152275590551181
 30
0.0
 10
3.58107874015748
 20
1.949413385826772
 30
0.0
 10
3.487086614173228
 20
1.852208661417323
 30
0.0
 10
3.487086614173228
 20
1.852208661417323
 30
0.0
 10
3.33884251968504
 20
2.062385826771654
 30
0.0
 10
3.220625984251968
 20
2.064389763779527
 30
0.0
 10
3.087377952755906
 20
2.17048031496063
 30
0.0
 10
3.087377952755906
 20
2.17048031496063
 30
0.0
 10
2.788858267716535
 20
2.35201968503937
 30
0.0
 10
2.768956692913386
 20
2.609877952755906
 30
0.0
 10
2.791393700787402
 20
2.802055118110236
 30
0.0
  0
SPLINE
  5
D9
330
1F
100
AcDbEntity
  8
Layer 1
 62
   250
370
     5
100
AcDbSpline
210
0.0
220
0.0
230
1.0
 70
    11
 71
     3
 72
    20
 73
    16
 74
     0
 42
0.0000000001
 43
0.0000000001
 40
0.0
 40
0.0
 40
0.0
 40
0.0
 40
0.25
 40
0.25
 40
0.25
 40
0.25
 40
0.5
 40
0.5
 40
0.5
 40
0.5
 40
0.75
 40
0.75
 40
0.75
 40
0.75
 40
1.0
 40
1.0
 40
1.0
 40
1.0
 10
3.743145669291339
 20
1.676106299212599
 30
0.0
 10
3.738086614173228
 20
1.839681102362205
 30
0.0
 10
3.782574803149606
 20
1.951696850393701
 30
0.0
 10
3.789338582677166
 20
2.107633858267717
 30
0.0
 10
3.789338582677166
 20
2.107633858267717
 30
0.0
 10
3.856625984251969
 20
2.52394094488189
 30
0.0
 10
4.460665354330708
 20
2.72140157480315
 30
0.0
 10
4.654496062992126
 20
2.498972440944882
 30
0.0
 10
4.654496062992126
 20
2.498972440944882
 30
0.0
 10
4.401992125984252
 20
2.295370078740158
 30
0.0
 10
4.248543307086615
 20
2.050988188976378
 30
0.0
 10
4.16288188976378
 20
1.778688976377953
 30
0.0
 10
4.16288188976378
 20
1.778688976377953
 30
0.0
 10
4.03315748031496
 20
1.788507874015748
 30
0.0
 10
3.89459842519685
 20
1.760161417322835
 30
0.0
 10
3.743145669291339
 20
1.676106299212599
 30
0.0
  0
SPLINE
  5
DA
330
1F
100
AcDbEntity
  8
Layer 1
 62
   250
370
     5
100
AcDbSpline
210
0.0
220
0.0
230
1.0
 70
    11
 71
     3
 72
    20
 73
    16
 74
     0
 42
0.0000000001
 43
0.0000000001
 40
0.0
 40
0.0
 40
0.0
 40
0.0
 40
0.25
 40
0.25
 40
0.25
 40
0.25
 40
0.5
 40
0.5
 40
0.5
 40
0.5
 40
0.75
 40
0.75
 40
0.75
 40
0.75
 40
1.0
 40
1.0
 40
1.0
 40
1.0
 10
3.76155905511811
 20
2.478708661417323
 30
0.0
 10
3.619641732283465
 20
2.955287401574803
 30
0.0
 10
3.875137795275591
 20
3.297003937007874
 30
0.0
 10
4.311271653543307
 20
3.577409448818898
 30
0.0
 10
4.311271653543307
 20
3.577409448818898
 30
0.0
 10
4.273984251968504
 20
3.416208661417323
 30
0.0
 10
4.264047244094488
 20
3.246385826771654
 30
0.0
 10
4.264228346456693
 20
3.068531496062992
 30
0.0
 10
4.264228346456693
 20
3.068531496062992
 30
0.0
 10
4.262055118110236
 20
2.86590157480315
 30
0.0
 10
4.192889763779528
 20
2.751003937007874
 30
0.0
 10
3.975118110236221
 20
2.658476377952756
 30
0.0
 10
3.975118110236221
 20
2.658476377952756
 30
0.0
 10
3.893429133858268
 20
2.615027559055118
 30
0.0
 10
3.819244094488189
 20
2.559791338582677
 30
0.0
 10
3.76155905511811
 20
2.478708661417323
 30
0.0
  0
SPLINE
  5
DB
330
1F
100
AcDbEntity
  8
Layer 1
 62
   250
370
     5
100
AcDbSpline
210
0.0
220
0.0
230
1.0
 70
    11
 71
     3
 72
    20
 73
    16
 74
     0
 42
0.0000000001
 43
0.0000000001
 40
0.0
 40
0.0
 40
0.0
 40
0.0
 40
0.25
 40
0.25
 40
0.25
 40
0.25
 40
0.5
 40
0.5
 40
0.5
 40
0.5
 40
0.75
 40
0.75
 40
0.75
 40
0.75
 40
1.0
 40
1.0
 40
1.0
 40
1.0
 10
4.738559055118111
 20
2.292728346456693
 30
0.0
 10
4.849527559055118
 20
2.386425196850394
 30
0.0
 10
4.989704724409449
 20
2.441476377952756
 30
0.0
 10
5.172602362204724
 20
2.440051181102362
 30
0.0
 10
5.172602362204724
 20
2.440051181102362
 30
0.0
 10
5.198799212598425
 20
2.170763779527559
 30
0.0
 10
5.144444881889764
 20
2.041090551181103
 30
0.0
 10
4.879885826771654
 20
1.982846456692913
 30
0.0
 10
4.879885826771654
 20
1.982846456692913
 30
0.0
 10
4.722019685039371
 20
1.933236220472441
 30
0.0
 10
4.565385826771654
 20
1.876673228346457
 30
0.0
 10
4.410354330708661
 20
1.810893700787402
 30
0.0
 10
4.410354330708661
 20
1.810893700787402
 30
0.0
 10
4.397472440944882
 20
1.934232283464567
 30
0.0
 10
4.553850393700787
 20
2.135047244094488
 30
0.0
 10
4.738559055118111
 20
2.292728346456693
 30
0.0
  0
SPLINE
  5
DC
330
1F
100
AcDbEntity
  8
Layer 1
 62
   250
370
     5
100
AcDbSpline
210
0.0
220
0.0
230
1.0
 70
    11
 71
     3
 72
    32
 73
    28
 74
     0
 42
0.0000000001
 43
0.0000000001
 40
0.0
 40
0.0
 40
0.0
 40
0.0
 40
0.1428571428571429
 40
0.1428571428571429
 40
0.1428571428571429
 40
0.1428571428571429
 40
0.2857142857142857
 40
0.2857142857142857
 40
0.2857142857142857
 40
0.2857142857142857
 40
0.4285714285714286
 40
0.4285714285714286
 40
0.4285714285714286
 40
0.4285714285714286
 40
0.5714285714285714
 40
0.5714285714285714
 40
0.5714285714285714
 40
0.5714285714285714
 40
0.7142857142857142
 40
0.7142857142857142
 40
0.7142857142857142
 40
0.7142857142857142
 40
0.857142857142857
 40
0.857142857142857
 40
0.857142857142857
 40
0.857142857142857
 40
1.0
 40
1.0
 40
1.0
 40
1.0
 10
6.22582283464567
 20
1.998137795275591
 30
0.0
 10
6.190448818897638
 20
2.16957874015748
 30
0.0
 10
6.081488188976378
 20
2.058618110236221
 30
0.0
 10
6.097236220472441
 20
2.388803149606299
 30
0.0
 10
6.097236220472441
 20
2.388803149606299
 30
0.0
 10
6.097236220472441
 20
2.388803149606299
 30
0.0
 10
6.045775590551181
 20
2.396425196850394
 30
0.0
 10
6.045775590551181
 20
2.396425196850394
 30
0.0
 10
6.045775590551181
 20
2.396425196850394
 30
0.0
 10
6.045775590551181
 20
2.396425196850394
 30
0.0
 10
6.028098425196851
 20
2.32146062992126
 30
0.0
 10
6.028098425196851
 20
2.32146062992126
 30
0.0
 10
6.028098425196851
 20
2.32146062992126
 30
0.0
 10
6.028098425196851
 20
2.32146062992126
 30
0.0
 10
5.958307086614173
 20
2.306870078740158
 30
0.0
 10
5.958307086614173
 20
2.306870078740158
 30
0.0
 10
5.958307086614173
 20
2.306870078740158
 30
0.0
 10
5.958307086614173
 20
2.306870078740158
 30
0.0
 10
6.082850393700788
 20
2.672685039370079
 30
0.0
 10
6.082850393700788
 20
2.672685039370079
 30
0.0
 10
6.082850393700788
 20
2.672685039370079
 30
0.0
 10
6.187732283464567
 20
2.696283464566929
 30
0.0
 10
6.271145669291339
 20
2.650740157480315
 30
0.0
 10
6.335027559055118
 20
2.542248031496063
 30
0.0
 10
6.335027559055118
 20
2.542248031496063
 30
0.0
 10
6.335027559055118
 20
2.542248031496063
 30
0.0
 10
6.22582283464567
 20
1.998137795275591
 30
0.0
 10
6.22582283464567
 20
1.998137795275591
 30
0.0
  0
SPLINE
  5
DD
330
1F
100
AcDbEntity
  8
Layer 1
 62
   250
370
     5
100
AcDbSpline
210
0.0
220
0.0
230
1.0
 70
    11
 71
     3
 72
    32
 73
    28
 74
     0
 42
0.0000000001
 43
0.0000000001
 40
0.0
 40
0.0
 40
0.0
 40
0.0
 40
0.1428571428571429
 40
0.1428571428571429
 40
0.1428571428571429
 40
0.1428571428571429
 40
0.2857142857142857
 40
0.2857142857142857
 40
0.2857142857142857
 40
0.2857142857142857
 40
0.4285714285714286
 40
0.4285714285714286
 40
0.4285714285714286
 40
0.4285714285714286
 40
0.5714285714285714
 40
0.5714285714285714
 40
0.5714285714285714
 40
0.5714285714285714
 40
0.7142857142857142
 40
0.7142857142857142
 40
0.7142857142857142
 40
0.7142857142857142
 40
0.857142857142857
 40
0.857142857142857
 40
0.857142857142857
 40
0.857142857142857
 40
1.0
 40
1.0
 40
1.0
 40
1.0
 10
6.935043307086614
 20
1.526271653543307
 30
0.0
 10
6.935043307086614
 20
1.526271653543307
 30
0.0
 10
6.977649606299213
 20
1.911366141732284
 30
0.0
 10
6.977649606299213
 20
1.911366141732284
 30
0.0
 10
6.977649606299213
 20
1.911366141732284
 30
0.0
 10
6.977649606299213
 20
1.911366141732284
 30
0.0
 10
7.034330708661417
 20
1.867003937007874
 30
0.0
 10
7.034330708661417
 20
1.867003937007874
 30
0.0
 10
7.034330708661417
 20
1.867003937007874
 30
0.0
 10
7.034330708661417
 20
1.867003937007874
 30
0.0
 10
7.018527559055118
 20
1.791606299212599
 30
0.0
 10
7.018527559055118
 20
1.791606299212599
 30
0.0
 10
7.018527559055118
 20
1.791606299212599
 30
0.0
 10
7.018527559055118
 20
1.791606299212599
 30
0.0
 10
7.068094488188977
 20
1.775456692913386
 30
0.0
 10
7.068094488188977
 20
1.775456692913386
 30
0.0
 10
7.068094488188977
 20
1.775456692913386
 30
0.0
 10
7.193582677165355
 20
2.079799212598426
 30
0.0
 10
7.244767716535433
 20
1.931157480314961
 30
0.0
 10
7.349169291338583
 20
2.069704724409449
 30
0.0
 10
7.349169291338583
 20
2.069704724409449
 30
0.0
 10
7.349169291338583
 20
2.069704724409449
 30
0.0
 10
7.217299212598426
 20
1.530937007874016
 30
0.0
 10
7.217299212598426
 20
1.530937007874016
 30
0.0
 10
7.217299212598426
 20
1.530937007874016
 30
0.0
 10
7.113874015748031
 20
1.461811023622047
 30
0.0
 10
7.019507874015749
 20
1.458098425196851
 30
0.0
 10
6.935043307086614
 20
1.526271653543307
 30
0.0
  0
SPLINE
  5
DE
330
1F
100
AcDbEntity
  8
Layer 1
 62
   250
370
     5
100
AcDbSpline
210
0.0
220
0.0
230
1.0
 70
    11
 71
     3
 72
    20
 73
    16
 74
     0
 42
0.0000000001
 43
0.0000000001
 40
0.0
 40
0.0
 40
0.0
 40
0.0
 40
0.25
 40
0.25
 40
0.25
 40
0.25
 40
0.5
 40
0.5
 40
0.5
 40
0.5
 40
0.75
 40
0.75
 40
0.75
 40
0.75
 40
1.0
 40
1.0
 40
1.0
 40
1.0
 10
8.715795275590551
 20
1.351696850393701
 30
0.0
 10
8.548618110236221
 20
1.528771653543307
 30
0.0
 10
8.755287401574803
 20
1.995334645669291
 30
0.0
 10
8.954094488188977
 20
2.153366141732283
 30
0.0
 10
8.954094488188977
 20
2.153366141732283
 30
0.0
 10
8.902551181102362
 20
1.943669291338583
 30
0.0
 10
8.910921259842519
 20
1.760015748031496
 30
0.0
 10
8.973826771653544
 20
1.600047244094488
 30
0.0
 10
8.973826771653544
 20
1.600047244094488
 30
0.0
 10
9.043933070866142
 20
1.419838582677165
 30
0.0
 10
9.077110236220474
 20
1.237047244094488
 30
0.0
 10
9.043204724409449
 20
1.049535433070866
 30
0.0
 10
9.043204724409449
 20
1.049535433070866
 30
0.0
 10
8.94148031496063
 20
1.117712598425197
 30
0.0
 10
8.831472440944882
 20
1.222259842519685
 30
0.0
 10
8.715795275590551
 20
1.351696850393701
 30
0.0
  0
SPLINE
  5
DF
330
1F
100
AcDbEntity
  8
Layer 1
 62
   250
370
     5
100
AcDbSpline
210
0.0
220
0.0
230
1.0
 70
    11
 71
     3
 72
    32
 73
    28
 74
     0
 42
0.0000000001
 43
0.0000000001
 40
0.0
 40
0.0
 40
0.0
 40
0.0
 40
0.1428571428571429
 40
0.1428571428571429
 40
0.1428571428571429
 40
0.1428571428571429
 40
0.2857142857142857
 40
0.2857142857142857
 40
0.2857142857142857
 40
0.2857142857142857
 40
0.4285714285714286
 40
0.4285714285714286
 40
0.4285714285714286
 40
0.4285714285714286
 40
0.5714285714285714
 40
0.5714285714285714
 40
0.5714285714285714
 40
0.5714285714285714
 40
0.7142857142857142
 40
0.7142857142857142
 40
0.7142857142857142
 40
0.7142857142857142
 40
0.857142857142857
 40
0.857142857142857
 40
0.857142857142857
 40
0.857142857142857
 40
1.0
 40
1.0
 40
1.0
 40
1.0
 10
9.162212598425198
 20
1.339649606299213
 30
0.0
 10
9.191448818897639
 20
1.518118110236221
 30
0.0
 10
9.155330708661417
 20
1.565905511811024
 30
0.0
 10
9.116866141732285
 20
1.672807086614173
 30
0.0
 10
9.116866141732285
 20
1.672807086614173
 30
0.0
 10
9.051531496062992
 20
1.854326771653543
 30
0.0
 10
9.012527559055119
 20
2.109846456692913
 30
0.0
 10
9.261771653543308
 20
2.357854330708662
 30
0.0
 10
9.261771653543308
 20
2.357854330708662
 30
0.0
 10
9.367338582677165
 20
2.49292125984252
 30
0.0
 10
9.481862204724409
 20
2.523153543307087
 30
0.0
 10
9.578456692913386
 20
2.763055118110236
 30
0.0
 10
9.578456692913386
 20
2.763055118110236
 30
0.0
 10
9.691874015748033
 20
2.691015748031496
 30
0.0
 10
9.717374015748032
 20
2.488688976377953
 30
0.0
 10
9.718251968503937
 20
2.249874015748032
 30
0.0
 10
9.718251968503937
 20
2.249874015748032
 30
0.0
 10
9.671996062992127
 20
2.214358267716535
 30
0.0
 10
9.628842519685041
 20
2.163948818897638
 30
0.0
 10
9.594208661417323
 20
2.072354330708662
 30
0.0
 10
9.594208661417323
 20
2.072354330708662
 30
0.0
 10
9.588082677165355
 20
1.969696850393701
 30
0.0
 10
9.486590551181102
 20
1.949948818897638
 30
0.0
 10
9.43042125984252
 20
1.822818897637795
 30
0.0
 10
9.43042125984252
 20
1.822818897637795
 30
0.0
 10
9.351728346456694
 20
1.665464566929134
 30
0.0
 10
9.3013031496063
 20
1.449248031496063
 30
0.0
 10
9.162212598425198
 20
1.339649606299213
 30
0.0
  0
SPLINE
  5
E0
330
1F
100
AcDbEntity
  8
Layer 1
 62
   250
370
     5
100
AcDbSpline
210
0.0
220
0.0
230
1.0
 70
    11
 71
     3
 72
    16
 73
    12
 74
     0
 42
0.0000000001
 43
0.0000000001
 40
0.0
 40
0.0
 40
0.0
 40
0.0
 40
0.3333333333333333
 40
0.3333333333333333
 40
0.3333333333333333
 40
0.3333333333333333
 40
0.6666666666666666
 40
0.6666666666666666
 40
0.6666666666666666
 40
0.6666666666666666
 40
1.0
 40
1.0
 40
1.0
 40
1.0
 10
8.538889763779528
 20
1.776220472440945
 30
0.0
 10
8.352933070866142
 20
1.837389763779528
 30
0.0
 10
8.232606299212598
 20
2.353763779527559
 30
0.0
 10
8.498677165354332
 20
2.868070866141733
 30
0.0
 10
8.498677165354332
 20
2.868070866141733
 30
0.0
 10
8.573204724409449
 20
2.635830708661417
 30
0.0
 10
8.76020472440945
 20
2.509433070866142
 30
0.0
 10
9.024129921259842
 20
2.455476377952756
 30
0.0
 10
9.024129921259842
 20
2.455476377952756
 30
0.0
 10
8.9568031496063
 20
2.317413385826772
 30
0.0
 10
8.631744094488189
 20
2.247602362204725
 30
0.0
 10
8.538889763779528
 20
1.776220472440945
 30
0.0
  0
SPLINE
  5
E1
330
1F
100
AcDbEntity
  8
Layer 1
 62
   250
370
     5
100
AcDbSpline
210
0.0
220
0.0
230
1.0
 70
    11
 71
     3
 72
    20
 73
    16
 74
     0
 42
0.0000000001
 43
0.0000000001
 40
0.0
 40
0.0
 40
0.0
 40
0.0
 40
0.25
 40
0.25
 40
0.25
 40
0.25
 40
0.5
 40
0.5
 40
0.5
 40
0.5
 40
0.75
 40
0.75
 40
0.75
 40
0.75
 40
1.0
 40
1.0
 40
1.0
 40
1.0
 10
9.410196850393701
 20
1.367551181102362
 30
0.0
 10
9.590279527559055
 20
1.604472440944882
 30
0.0
 10
9.505586614173229
 20
1.751716535433071
 30
0.0
 10
9.783858267716536
 20
1.997507874015748
 30
0.0
 10
9.783858267716536
 20
1.997507874015748
 30
0.0
 10
9.805291338582677
 20
1.655448818897638
 30
0.0
 10
9.914728346456693
 20
1.459055118110236
 30
0.0
 10
9.90918503937008
 20
1.138814960629921
 30
0.0
 10
9.90918503937008
 20
1.138814960629921
 30
0.0
 10
9.90918503937008
 20
1.138814960629921
 30
0.0
 10
9.766496062992127
 20
1.088287401574803
 30
0.0
 10
9.766496062992127
 20
1.088287401574803
 30
0.0
 10
9.766496062992127
 20
1.088287401574803
 30
0.0
 10
9.548
 20
1.043629921259843
 30
0.0
 10
9.528952755905513
 20
1.274464566929134
 30
0.0
 10
9.410196850393701
 20
1.367551181102362
 30
0.0
  0
SPLINE
  5
E2
330
1F
100
AcDbEntity
  8
Layer 1
 62
   250
370
     5
100
AcDbSpline
210
0.0
220
0.0
230
1.0
 70
    11
 71
     3
 72
    20
 73
    16
 74
     0
 42
0.0000000001
 43
0.0000000001
 40
0.0
 40
0.0
 40
0.0
 40
0.0
 40
0.25
 40
0.25
 40
0.25
 40
0.25
 40
0.5
 40
0.5
 40
0.5
 40
0.5
 40
0.75
 40
0.75
 40
0.75
 40
0.75
 40
1.0
 40
1.0
 40
1.0
 40
1.0
 10
7.140830708661418
 20
0.9325275590551182
 30
0.0
 10
7.140830708661418
 20
0.9325275590551182
 30
0.0
 10
7.245078740157481
 20
1.39755905511811
 30
0.0
 10
7.245078740157481
 20
1.39755905511811
 30
0.0
 10
7.245078740157481
 20
1.39755905511811
 30
0.0
 10
7.4523031496063
 20
1.482141732283465
 30
0.0
 10
7.653570866141733
 20
1.499110236220473
 30
0.0
 10
7.848598425196851
 20
1.444929133858268
 30
0.0
 10
7.848598425196851
 20
1.444929133858268
 30
0.0
 10
8.012255905511811
 20
1.337326771653543
 30
0.0
 10
7.742366141732283
 20
0.9870511811023622
 30
0.0
 10
7.583649606299213
 20
0.8201181102362205
 30
0.0
 10
7.583649606299213
 20
0.8201181102362205
 30
0.0
 10
7.583649606299213
 20
0.8201181102362205
 30
0.0
 10
7.140830708661418
 20
0.9325275590551182
 30
0.0
 10
7.140830708661418
 20
0.9325275590551182
 30
0.0
  0
SPLINE
  5
E3
330
1F
100
AcDbEntity
  8
Layer 1
 62
   250
370
     5
100
AcDbSpline
210
0.0
220
0.0
230
1.0
 70
    11
 71
     3
 72
    16
 73
    12
 74
     0
 42
0.0000000001
 43
0.0000000001
 40
0.0
 40
0.0
 40
0.0
 40
0.0
 40
0.3333333333333333
 40
0.3333333333333333
 40
0.3333333333333333
 40
0.3333333333333333
 40
0.6666666666666666
 40
0.6666666666666666
 40
0.6666666666666666
 40
0.6666666666666666
 40
1.0
 40
1.0
 40
1.0
 40
1.0
 10
7.862614173228347
 20
0.7844370078740158
 30
0.0
 10
8.041535433070866
 20
0.9911141732283465
 30
0.0
 10
8.116594488188976
 20
1.207870078740158
 30
0.0
 10
8.039889763779527
 20
1.43938188976378
 30
0.0
 10
8.039889763779527
 20
1.43938188976378
 30
0.0
 10
8.553728346456694
 20
1.194015748031496
 30
0.0
 10
8.760531496062992
 20
0.7074606299212599
 30
0.0
 10
8.648047244094489
 20
0.5433582677165355
 30
0.0
 10
8.648047244094489
 20
0.5433582677165355
 30
0.0
 10
8.297555118110237
 20
0.8618700787401575
 30
0.0
 10
7.997291338582677
 20
0.7160472440944882
 30
0.0
 10
7.862614173228347
 20
0.7844370078740158
 30
0.0
  0
SPLINE
  5
E4
330
1F
100
AcDbEntity
  8
Layer 1
 62
   250
370
     5
100
AcDbSpline
210
0.0
220
0.0
230
1.0
 70
    11
 71
     3
 72
    24
 73
    20
 74
     0
 42
0.0000000001
 43
0.0000000001
 40
0.0
 40
0.0
 40
0.0
 40
0.0
 40
0.2
 40
0.2
 40
0.2
 40
0.2
 40
0.4
 40
0.4
 40
0.4
 40
0.4
 40
0.6000000000000001
 40
0.6000000000000001
 40
0.6000000000000001
 40
0.6000000000000001
 40
0.8
 40
0.8
 40
0.8
 40
0.8
 40
1.0
 40
1.0
 40
1.0
 40
1.0
 10
9.276043307086615
 20
0.6235984251968504
 30
0.0
 10
9.182066929133859
 20
0.7093700787401576
 30
0.0
 10
9.187448818897638
 20
0.8569448818897638
 30
0.0
 10
9.128066929133858
 20
0.9165
 30
0.0
 10
9.128066929133858
 20
0.9165
 30
0.0
 10
9.128066929133858
 20
0.9165
 30
0.0
 10
9.332771653543308
 20
1.183287401574803
 30
0.0
 10
9.332771653543308
 20
1.183287401574803
 30
0.0
 10
9.332771653543308
 20
1.183287401574803
 30
0.0
 10
9.443102362204725
 20
0.9644173228346457
 30
0.0
 10
9.536700787401575
 20
0.8511299212598426
 30
0.0
 10
9.768267716535434
 20
0.8733740157480315
 30
0.0
 10
9.768267716535434
 20
0.8733740157480315
 30
0.0
 10
9.728027559055118
 20
0.6807165354330709
 30
0.0
 10
9.590228346456692
 20
0.5563031496062992
 30
0.0
 10
9.647523622047245
 20
0.2953818897637796
 30
0.0
 10
9.647523622047245
 20
0.2953818897637796
 30
0.0
 10
9.614055118110237
 20
0.2470629921259843
 30
0.0
 10
9.399862204724411
 20
0.5141811023622047
 30
0.0
 10
9.276043307086615
 20
0.6235984251968504
 30
0.0
  0
SPLINE
  5
E5
330
1F
100
AcDbEntity
  8
Layer 1
 62
   250
370
     5
100
AcDbSpline
210
0.0
220
0.0
230
1.0
 70
    11
 71
     3
 72
    28
 73
    24
 74
     0
 42
0.0000000001
 43
0.0000000001
 40
0.0
 40
0.0
 40
0.0
 40
0.0
 40
0.1666666666666667
 40
0.1666666666666667
 40
0.1666666666666667
 40
0.1666666666666667
 40
0.3333333333333333
 40
0.3333333333333333
 40
0.3333333333333333
 40
0.3333333333333333
 40
0.5
 40
0.5
 40
0.5
 40
0.5
 40
0.6666666666666666
 40
0.6666666666666666
 40
0.6666666666666666
 40
0.6666666666666666
 40
0.8333333333333333
 40
0.8333333333333333
 40
0.8333333333333333
 40
0.8333333333333333
 40
1.0
 40
1.0
 40
1.0
 40
1.0
 10
9.804543307086615
 20
0.2246102362204724
 30
0.0
 10
9.878098425196852
 20
0.8290433070866142
 30
0.0
 10
9.924968503937008
 20
0.6911732283464567
 30
0.0
 10
10.00940157480315
 20
0.9014133858267717
 30
0.0
 10
10.00940157480315
 20
0.9014133858267717
 30
0.0
 10
10.17575984251969
 20
0.3979291338582677
 30
0.0
 10
10.32016535433071
 20
0.2818188976377953
 30
0.0
 10
10.49151968503937
 20
-0.0045905511811024
 30
0.0
 10
10.49151968503937
 20
-0.0045905511811024
 30
0.0
 10
10.62342125984252
 20
-0.2250354330708662
 30
0.0
 10
10.90215354330709
 20
-0.4976259842519685
 30
0.0
 10
10.83998031496063
 20
-0.6502283464566929
 30
0.0
 10
10.83998031496063
 20
-0.6502283464566929
 30
0.0
 10
10.77260236220472
 20
-0.6251456692913386
 30
0.0
 10
10.617
 20
-0.3959724409448819
 30
0.0
 10
10.50551181102362
 20
-0.2688385826771654
 30
0.0
 10
10.50551181102362
 20
-0.2688385826771654
 30
0.0
 10
10.40448425196851
 20
-0.1269291338582677
 30
0.0
 10
10.23980708661417
 20
-0.0682283464566929
 30
0.0
 10
10.10694094488189
 20
0.0320748031496063
 30
0.0
 10
10.10694094488189
 20
0.0320748031496063
 30
0.0
 10
10.00803543307087
 20
0.1105826771653543
 30
0.0
 10
9.992023622047244
 20
0.1569251968503937
 30
0.0
 10
9.804543307086615
 20
0.2246102362204724
 30
0.0
  0
SPLINE
  5
E6
330
1F
100
AcDbEntity
  8
Layer 1
 62
   250
370
     5
100
AcDbSpline
210
0.0
220
0.0
230
1.0
 70
    11
 71
     3
 72
    16
 73
    12
 74
     0
 42
0.0000000001
 43
0.0000000001
 40
0.0
 40
0.0
 40
0.0
 40
0.0
 40
0.3333333333333333
 40
0.3333333333333333
 40
0.3333333333333333
 40
0.3333333333333333
 40
0.6666666666666666
 40
0.6666666666666666
 40
0.6666666666666666
 40
0.6666666666666666
 40
1.0
 40
1.0
 40
1.0
 40
1.0
 10
11.03072834645669
 20
0.5446496062992127
 30
0.0
 10
10.43153937007874
 20
0.3654330708661417
 30
0.0
 10
10.16184251968504
 20
0.721003937007874
 30
0.0
 10
10.11759842519685
 20
1.442496062992126
 30
0.0
 10
10.11759842519685
 20
1.442496062992126
 30
0.0
 10
10.2555
 20
1.317299212598425
 30
0.0
 10
10.42456692913386
 20
1.220437007874016
 30
0.0
 10
10.60490157480315
 20
1.13384251968504
 30
0.0
 10
10.60490157480315
 20
1.13384251968504
 30
0.0
 10
10.86882677165354
 20
0.9798228346456693
 30
0.0
 10
10.99642125984252
 20
0.7784409448818898
 30
0.0
 10
11.03072834645669
 20
0.5446496062992127
 30
0.0
  0
SPLINE
  5
E7
330
1F
100
AcDbEntity
  8
Layer 1
 62
   250
370
     5
100
AcDbSpline
210
0.0
220
0.0
230
1.0
 70
    11
 71
     3
 72
    20
 73
    16
 74
     0
 42
0.0000000001
 43
0.0000000001
 40
0.0
 40
0.0
 40
0.0
 40
0.0
 40
0.25
 40
0.25
 40
0.25
 40
0.25
 40
0.5
 40
0.5
 40
0.5
 40
0.5
 40
0.75
 40
0.75
 40
0.75
 40
0.75
 40
1.0
 40
1.0
 40
1.0
 40
1.0
 10
3.513570866141732
 20
2.645870078740157
 30
0.0
 10
3.187303149606299
 20
2.818330708661418
 30
0.0
 10
3.236338582677166
 20
2.981795275590551
 30
0.0
 10
3.00755905511811
 20
3.169114173228347
 30
0.0
 10
3.00755905511811
 20
3.169114173228347
 30
0.0
 10
3.101988188976378
 20
3.28805905511811
 30
0.0
 10
3.068295275590551
 20
3.517114173228347
 30
0.0
 10
3.290874015748031
 20
3.52596062992126
 30
0.0
 10
3.290874015748031
 20
3.52596062992126
 30
0.0
 10
3.290874015748031
 20
3.52596062992126
 30
0.0
 10
3.441086614173229
 20
3.510964566929134
 30
0.0
 10
3.441086614173229
 20
3.510964566929134
 30
0.0
 10
3.441086614173229
 20
3.510964566929134
 30
0.0
 10
3.518972440944882
 20
3.200846456692914
 30
0.0
 10
3.456992125984252
 20
2.983677165354331
 30
0.0
 10
3.513570866141732
 20
2.645870078740157
 30
0.0
  0
SPLINE
  5
E8
330
1F
100
AcDbEntity
  8
Layer 1
 62
   250
370
     5
100
AcDbSpline
210
0.0
220
0.0
230
1.0
 70
    11
 71
     3
 72
    20
 73
    16
 74
     0
 42
0.0000000001
 43
0.0000000001
 40
0.0
 40
0.0
 40
0.0
 40
0.0
 40
0.25
 40
0.25
 40
0.25
 40
0.25
 40
0.5
 40
0.5
 40
0.5
 40
0.5
 40
0.75
 40
0.75
 40
0.75
 40
0.75
 40
1.0
 40
1.0
 40
1.0
 40
1.0
 10
10.77051968503937
 20
1.282452755905512
 30
0.0
 10
10.28288582677165
 20
1.450779527559055
 30
0.0
 10
9.957047244094488
 20
1.721972440944882
 30
0.0
 10
9.987200787401575
 20
2.219437007874016
 30
0.0
 10
9.987200787401575
 20
2.219437007874016
 30
0.0
 10
10.06164960629921
 20
2.154374015748032
 30
0.0
 10
10.1463031496063
 20
2.118429133858268
 30
0.0
 10
10.23557480314961
 20
2.095708661417323
 30
0.0
 10
10.23557480314961
 20
2.095708661417323
 30
0.0
 10
10.46833464566929
 20
2.057834645669292
 30
0.0
 10
10.5615905511811
 20
1.962633858267717
 30
0.0
 10
10.60957480314961
 20
1.766114173228347
 30
0.0
 10
10.60957480314961
 20
1.766114173228347
 30
0.0
 10
10.64965354330709
 20
1.593090551181102
 30
0.0
 10
10.69775984251969
 20
1.430307086614173
 30
0.0
 10
10.77051968503937
 20
1.282452755905512
 30
0.0
  0
SPLINE
  5
E9
330
1F
100
AcDbEntity
  8
Layer 1
 62
   250
370
     5
100
AcDbSpline
210
0.0
220
0.0
230
1.0
 70
    11
 71
     3
 72
    24
 73
    20
 74
     0
 42
0.0000000001
 43
0.0000000001
 40
0.0
 40
0.0
 40
0.0
 40
0.0
 40
0.2
 40
0.2
 40
0.2
 40
0.2
 40
0.4
 40
0.4
 40
0.4
 40
0.4
 40
0.6000000000000001
 40
0.6000000000000001
 40
0.6000000000000001
 40
0.6000000000000001
 40
0.8
 40
0.8
 40
0.8
 40
0.8
 40
1.0
 40
1.0
 40
1.0
 40
1.0
 10
10.90454724409449
 20
1.479232283464567
 30
0.0
 10
10.86963779527559
 20
1.555988188976378
 30
0.0
 10
10.87057874015748
 20
1.629570866141732
 30
0.0
 10
10.86557086614173
 20
1.668397637795276
 30
0.0
 10
10.86557086614173
 20
1.668397637795276
 30
0.0
 10
10.82065748031496
 20
1.828437007874016
 30
0.0
 10
10.85792125984252
 20
1.821452755905512
 30
0.0
 10
10.69688188976378
 20
2.080952755905512
 30
0.0
 10
10.69688188976378
 20
2.080952755905512
 30
0.0
 10
11.07824409448819
 20
2.131433070866142
 30
0.0
 10
11.60899606299213
 20
1.731732283464567
 30
0.0
 10
11.35244881889764
 20
1.22053937007874
 30
0.0
 10
11.35244881889764
 20
1.22053937007874
 30
0.0
 10
11.2771062992126
 20
1.05838188976378
 30
0.0
 10
11.17743307086614
 20
0.9135787401574803
 30
0.0
 10
11.1263937007874
 20
0.7340433070866143
 30
0.0
 10
11.1263937007874
 20
0.7340433070866143
 30
0.0
 10
11.09976771653543
 20
0.7513425196850394
 30
0.0
 10
11.001
 20
1.267098425196851
 30
0.0
 10
10.90454724409449
 20
1.479232283464567
 30
0.0
  0
SPLINE
  5
EA
330
1F
100
AcDbEntity
  8
Layer 1
 62
   250
370
     5
100
AcDbSpline
210
0.0
220
0.0
230
1.0
 70
    11
 71
     3
 72
    24
 73
    20
 74
     0
 42
0.0000000001
 43
0.0000000001
 40
0.0
 40
0.0
 40
0.0
 40
0.0
 40
0.2
 40
0.2
 40
0.2
 40
0.2
 40
0.4
 40
0.4
 40
0.4
 40
0.4
 40
0.6000000000000001
 40
0.6000000000000001
 40
0.6000000000000001
 40
0.6000000000000001
 40
0.8
 40
0.8
 40
0.8
 40
0.8
 40
1.0
 40
1.0
 40
1.0
 40
1.0
 10
12.0118031496063
 20
0.8874370078740158
 30
0.0
 10
12.13247637795276
 20
1.035228346456693
 30
0.0
 10
12.27358267716535
 20
1.153161417322835
 30
0.0
 10
12.41759842519685
 20
1.266818897637795
 30
0.0
 10
12.41759842519685
 20
1.266818897637795
 30
0.0
 10
12.45103543307087
 20
1.236314960629921
 30
0.0
 10
12.41452755905512
 20
1.201224409448819
 30
0.0
 10
12.38527559055118
 20
1.165212598425197
 30
0.0
 10
12.38527559055118
 20
1.165212598425197
 30
0.0
 10
12.33661023622047
 20
1.105311023622047
 30
0.0
 10
12.3328937007874
 20
1.032149606299213
 30
0.0
 10
12.33819291338583
 20
0.9560275590551182
 30
0.0
 10
12.33819291338583
 20
0.9560275590551182
 30
0.0
 10
12.34790157480315
 20
0.8238464566929135
 30
0.0
 10
12.37603149606299
 20
0.69298031496063
 30
0.0
 10
12.42151968503937
 20
0.5633346456692914
 30
0.0
 10
12.42151968503937
 20
0.5633346456692914
 30
0.0
 10
12.24766535433071
 20
0.6403818897637795
 30
0.0
 10
12.11844094488189
 20
0.7545275590551182
 30
0.0
 10
12.0118031496063
 20
0.8874370078740158
 30
0.0
  0
SPLINE
  5
EB
330
1F
100
AcDbEntity
  8
Layer 1
 62
   250
370
     5
100
AcDbSpline
210
0.0
220
0.0
230
1.0
 70
    11
 71
     3
 72
    16
 73
    12
 74
     0
 42
0.0000000001
 43
0.0000000001
 40
0.0
 40
0.0
 40
0.0
 40
0.0
 40
0.3333333333333333
 40
0.3333333333333333
 40
0.3333333333333333
 40
0.3333333333333333
 40
0.6666666666666666
 40
0.6666666666666666
 40
0.6666666666666666
 40
0.6666666666666666
 40
1.0
 40
1.0
 40
1.0
 40
1.0
 10
12.6465
 20
0.452488188976378
 30
0.0
 10
12.48035433070866
 20
0.6758031496062993
 30
0.0
 10
12.46796850393701
 20
1.080377952755906
 30
0.0
 10
12.6756062992126
 20
1.30555905511811
 30
0.0
 10
12.6756062992126
 20
1.30555905511811
 30
0.0
 10
12.6756062992126
 20
1.30555905511811
 30
0.0
 10
12.6756062992126
 20
0.5092519685039371
 30
0.0
 10
12.6756062992126
 20
0.5092519685039371
 30
0.0
 10
12.6756062992126
 20
0.5092519685039371
 30
0.0
 10
12.66654330708662
 20
0.4919645669291339
 30
0.0
 10
12.65687007874016
 20
0.4731220472440945
 30
0.0
 10
12.6465
 20
0.452488188976378
 30
0.0
  0
SPLINE
  5
EC
330
1F
100
AcDbEntity
  8
Layer 1
 62
   250
370
     5
100
AcDbSpline
210
0.0
220
0.0
230
1.0
 70
    11
 71
     3
 72
    24
 73
    20
 74
     0
 42
0.0000000001
 43
0.0000000001
 40
0.0
 40
0.0
 40
0.0
 40
0.0
 40
0.2
 40
0.2
 40
0.2
 40
0.2
 40
0.4
 40
0.4
 40
0.4
 40
0.4
 40
0.6000000000000001
 40
0.6000000000000001
 40
0.6000000000000001
 40
0.6000000000000001
 40
0.8
 40
0.8
 40
0.8
 40
0.8
 40
1.0
 40
1.0
 40
1.0
 40
1.0
 10
2.631102362204725
 20
3.540263779527559
 30
0.0
 10
2.675370078740158
 20
3.612389763779528
 30
0.0
 10
2.636736220472441
 20
3.754629921259843
 30
0.0
 10
2.708712598425197
 20
3.860531496062992
 30
0.0
 10
2.708712598425197
 20
3.860531496062992
 30
0.0
 10
2.804374015748032
 20
3.996555118110237
 30
0.0
 10
2.952212598425197
 20
4.307610236220473
 30
0.0
 10
2.995692913385827
 20
4.268625984251969
 30
0.0
 10
2.995692913385827
 20
4.268625984251969
 30
0.0
 10
2.999035433070866
 20
4.001169291338583
 30
0.0
 10
3.161196850393701
 20
3.913145669291339
 30
0.0
 10
3.24396062992126
 20
3.735409448818898
 30
0.0
 10
3.24396062992126
 20
3.735409448818898
 30
0.0
 10
3.013708661417323
 20
3.701625984251969
 30
0.0
 10
2.94832283464567
 20
3.569051181102362
 30
0.0
 10
2.890562992125985
 20
3.329791338582677
 30
0.0
 10
2.890562992125985
 20
3.329791338582677
 30
0.0
 10
2.890562992125985
 20
3.329791338582677
 30
0.0
 10
2.631102362204725
 20
3.540263779527559
 30
0.0
 10
2.631102362204725
 20
3.540263779527559
 30
0.0
  0
SPLINE
  5
ED
330
1F
100
AcDbEntity
  8
Layer 1
 62
   250
370
     5
100
AcDbSpline
210
0.0
220
0.0
230
1.0
 70
    11
 71
     3
 72
    20
 73
    16
 74
     0
 42
0.0000000001
 43
0.0000000001
 40
0.0
 40
0.0
 40
0.0
 40
0.0
 40
0.25
 40
0.25
 40
0.25
 40
0.25
 40
0.5
 40
0.5
 40
0.5
 40
0.5
 40
0.75
 40
0.75
 40
0.75
 40
0.75
 40
1.0
 40
1.0
 40
1.0
 40
1.0
 10
1.534610236220473
 20
4.156425196850394
 30
0.0
 10
1.280405511811024
 20
4.175503937007874
 30
0.0
 10
1.102377952755905
 20
4.319425196850394
 30
0.0
 10
1.078200787401575
 20
4.524755905511811
 30
0.0
 10
1.078200787401575
 20
4.524755905511811
 30
0.0
 10
1.078200787401575
 20
4.524755905511811
 30
0.0
 10
1.810208661417323
 20
4.524775590551181
 30
0.0
 10
1.810208661417323
 20
4.524775590551181
 30
0.0
 10
1.810208661417323
 20
4.524775590551181
 30
0.0
 10
1.985767716535433
 20
4.323704724409449
 30
0.0
 10
2.121314960629921
 20
4.076114173228347
 30
0.0
 10
2.129354330708662
 20
3.840543307086614
 30
0.0
 10
2.129354330708662
 20
3.840543307086614
 30
0.0
 10
1.947645669291339
 20
3.985090551181103
 30
0.0
 10
1.755511811023622
 20
4.104929133858268
 30
0.0
 10
1.534610236220473
 20
4.156425196850394
 30
0.0
  0
SPLINE
  5
EE
330
1F
100
AcDbEntity
  8
Layer 1
 62
   250
370
     5
100
AcDbSpline
210
0.0
220
0.0
230
1.0
 70
    11
 71
     3
 72
    20
 73
    16
 74
     0
 42
0.0000000001
 43
0.0000000001
 40
0.0
 40
0.0
 40
0.0
 40
0.0
 40
0.25
 40
0.25
 40
0.25
 40
0.25
 40
0.5
 40
0.5
 40
0.5
 40
0.5
 40
0.75
 40
0.75
 40
0.75
 40
0.75
 40
1.0
 40
1.0
 40
1.0
 40
1.0
 10
3.484807086614173
 20
3.765854330708661
 30
0.0
 10
3.355094488188977
 20
3.950110236220473
 30
0.0
 10
3.340716535433071
 20
3.804795275590551
 30
0.0
 10
3.132377952755906
 20
4.375035433070867
 30
0.0
 10
3.132377952755906
 20
4.375035433070867
 30
0.0
 10
3.227496062992126
 20
4.438070866141732
 30
0.0
 10
3.270216535433071
 20
4.480972440944882
 30
0.0
 10
3.303755905511811
 20
4.524775590551181
 30
0.0
 10
3.303755905511811
 20
4.524775590551181
 30
0.0
 10
3.303755905511811
 20
4.524775590551181
 30
0.0
 10
3.662889763779528
 20
4.524775590551181
 30
0.0
 10
3.662889763779528
 20
4.524775590551181
 30
0.0
 10
3.662889763779528
 20
4.524775590551181
 30
0.0
 10
3.588673228346457
 20
4.331866141732284
 30
0.0
 10
3.519405511811024
 20
4.14874409448819
 30
0.0
 10
3.484807086614173
 20
3.765854330708661
 30
0.0
  0
SPLINE
  5
EF
330
1F
100
AcDbEntity
  8
Layer 1
 62
   250
370
     5
100
AcDbSpline
210
0.0
220
0.0
230
1.0
 70
    11
 71
     3
 72
    16
 73
    12
 74
     0
 42
0.0000000001
 43
0.0000000001
 40
0.0
 40
0.0
 40
0.0
 40
0.0
 40
0.3333333333333333
 40
0.3333333333333333
 40
0.3333333333333333
 40
0.3333333333333333
 40
0.6666666666666666
 40
0.6666666666666666
 40
0.6666666666666666
 40
0.6666666666666666
 40
1.0
 40
1.0
 40
1.0
 40
1.0
 10
3.712503937007874
 20
3.265515748031496
 30
0.0
 10
3.592224409448819
 20
3.977775590551181
 30
0.0
 10
3.774035433070866
 20
4.388129921259843
 30
0.0
 10
4.397334645669291
 20
4.357224409448819
 30
0.0
 10
4.397334645669291
 20
4.357224409448819
 30
0.0
 10
4.416885826771654
 20
4.121645669291339
 30
0.0
 10
4.338377952755906
 20
3.895248031496063
 30
0.0
 10
4.116574803149606
 20
3.68232283464567
 30
0.0
 10
4.116574803149606
 20
3.68232283464567
 30
0.0
 10
3.960787401574804
 20
3.554933070866142
 30
0.0
 10
3.818287401574803
 20
3.420283464566929
 30
0.0
 10
3.712503937007874
 20
3.265515748031496
 30
0.0
  0
SPLINE
  5
F0
330
1F
100
AcDbEntity
  8
Layer 1
 62
   250
370
     5
100
AcDbSpline
210
0.0
220
0.0
230
1.0
 70
    11
 71
     3
 72
    24
 73
    20
 74
     0
 42
0.0000000001
 43
0.0000000001
 40
0.0
 40
0.0
 40
0.0
 40
0.0
 40
0.2
 40
0.2
 40
0.2
 40
0.2
 40
0.4
 40
0.4
 40
0.4
 40
0.4
 40
0.6000000000000001
 40
0.6000000000000001
 40
0.6000000000000001
 40
0.6000000000000001
 40
0.8
 40
0.8
 40
0.8
 40
0.8
 40
1.0
 40
1.0
 40
1.0
 40
1.0
 10
4.491070866141732
 20
3.224814960629921
 30
0.0
 10
4.487153543307087
 20
3.263767716535433
 30
0.0
 10
4.469586614173228
 20
3.335118110236221
 30
0.0
 10
4.486157480314961
 20
3.418114173228346
 30
0.0
 10
4.486157480314961
 20
3.418114173228346
 30
0.0
 10
4.531956692913386
 20
3.647507874015748
 30
0.0
 10
4.511267716535433
 20
4.172728346456693
 30
0.0
 10
4.533240157480315
 20
4.19592125984252
 30
0.0
 10
4.533240157480315
 20
4.19592125984252
 30
0.0
 10
4.623515748031497
 20
4.033547244094488
 30
0.0
 10
4.753232283464567
 20
3.916555118110237
 30
0.0
 10
4.863216535433071
 20
3.776893700787402
 30
0.0
 10
4.863216535433071
 20
3.776893700787402
 30
0.0
 10
5.228413385826772
 20
3.341122047244095
 30
0.0
 10
4.802716535433071
 20
2.825393700787402
 30
0.0
 10
4.420405511811024
 20
2.783208661417323
 30
0.0
 10
4.420405511811024
 20
2.783208661417323
 30
0.0
 10
4.518271653543307
 20
3.074122047244094
 30
0.0
 10
4.483629921259842
 20
3.058413385826772
 30
0.0
 10
4.491070866141732
 20
3.224814960629921
 30
0.0
  0
SPLINE
  5
F1
330
1F
100
AcDbEntity
  8
Layer 1
 62
   250
370
     5
100
AcDbSpline
210
0.0
220
0.0
230
1.0
 70
    11
 71
     3
 72
    24
 73
    20
 74
     0
 42
0.0000000001
 43
0.0000000001
 40
0.0
 40
0.0
 40
0.0
 40
0.0
 40
0.2
 40
0.2
 40
0.2
 40
0.2
 40
0.4
 40
0.4
 40
0.4
 40
0.4
 40
0.6000000000000001
 40
0.6000000000000001
 40
0.6000000000000001
 40
0.6000000000000001
 40
0.8
 40
0.8
 40
0.8
 40
0.8
 40
1.0
 40
1.0
 40
1.0
 40
1.0
 10
5.1028031496063
 20
3.079468503937008
 30
0.0
 10
5.108023622047244
 20
3.126090551181103
 30
0.0
 10
5.107637795275591
 20
3.177468503937008
 30
0.0
 10
5.152165354330709
 20
3.173562992125985
 30
0.0
 10
5.152165354330709
 20
3.173562992125985
 30
0.0
 10
5.171251968503937
 20
2.987913385826772
 30
0.0
 10
5.185314960629921
 20
2.801511811023622
 30
0.0
 10
5.164232283464568
 20
2.609759842519685
 30
0.0
 10
5.164232283464568
 20
2.609759842519685
 30
0.0
 10
4.997070866141733
 20
2.597696850393701
 30
0.0
 10
4.827594488188977
 20
2.615377952755906
 30
0.0
 10
4.653515748031496
 20
2.691874015748032
 30
0.0
 10
4.653515748031496
 20
2.691874015748032
 30
0.0
 10
4.776244094488189
 20
2.747283464566929
 30
0.0
 10
4.88788188976378
 20
2.816468503937008
 30
0.0
 10
4.987755905511811
 20
2.900275590551181
 30
0.0
 10
4.987755905511811
 20
2.900275590551181
 30
0.0
 10
5.045074803149607
 20
2.948775590551181
 30
0.0
 10
5.094094488188977
 20
3.001948818897638
 30
0.0
 10
5.1028031496063
 20
3.079468503937008
 30
0.0
  0
SPLINE
  5
F2
330
1F
100
AcDbEntity
  8
Layer 1
 62
   250
370
     5
100
AcDbSpline
210
0.0
220
0.0
230
1.0
 70
    11
 71
     3
 72
    20
 73
    16
 74
     0
 42
0.0000000001
 43
0.0000000001
 40
0.0
 40
0.0
 40
0.0
 40
0.0
 40
0.25
 40
0.25
 40
0.25
 40
0.25
 40
0.5
 40
0.5
 40
0.5
 40
0.5
 40
0.75
 40
0.75
 40
0.75
 40
0.75
 40
1.0
 40
1.0
 40
1.0
 40
1.0
 10
6.120188976377953
 20
2.806393700787402
 30
0.0
 10
5.80932283464567
 20
2.840452755905512
 30
0.0
 10
5.242248031496064
 20
3.531035433070866
 30
0.0
 10
5.304629921259843
 20
4.057984251968504
 30
0.0
 10
5.304629921259843
 20
4.057984251968504
 30
0.0
 10
5.462255905511811
 20
3.886129921259843
 30
0.0
 10
5.633905511811024
 20
3.737003937007874
 30
0.0
 10
5.844330708661418
 20
3.650791338582677
 30
0.0
 10
5.844330708661418
 20
3.650791338582677
 30
0.0
 10
6.15496062992126
 20
3.576295275590551
 30
0.0
 10
6.318141732283465
 20
3.327783464566929
 30
0.0
 10
6.202366141732283
 20
3.052354330708662
 30
0.0
 10
6.202366141732283
 20
3.052354330708662
 30
0.0
 10
6.174968503937008
 20
2.970358267716536
 30
0.0
 10
6.105385826771654
 20
2.946452755905512
 30
0.0
 10
6.120188976377953
 20
2.806393700787402
 30
0.0
  0
SPLINE
  5
F3
330
1F
100
AcDbEntity
  8
Layer 1
 62
   250
370
     5
100
AcDbSpline
210
0.0
220
0.0
230
1.0
 70
    11
 71
     3
 72
    20
 73
    16
 74
     0
 42
0.0000000001
 43
0.0000000001
 40
0.0
 40
0.0
 40
0.0
 40
0.0
 40
0.25
 40
0.25
 40
0.25
 40
0.25
 40
0.5
 40
0.5
 40
0.5
 40
0.5
 40
0.75
 40
0.75
 40
0.75
 40
0.75
 40
1.0
 40
1.0
 40
1.0
 40
1.0
 10
7.52532283464567
 20
2.999452755905512
 30
0.0
 10
7.730318897637796
 20
3.047933070866142
 30
0.0
 10
7.885468503937008
 20
3.13936220472441
 30
0.0
 10
7.995228346456694
 20
3.26988188976378
 30
0.0
 10
7.995228346456694
 20
3.26988188976378
 30
0.0
 10
8.119220472440945
 20
3.416224409448819
 30
0.0
 10
8.2623031496063
 20
3.529956692913386
 30
0.0
 10
8.440051181102362
 20
3.584444881889764
 30
0.0
 10
8.440051181102362
 20
3.584444881889764
 30
0.0
 10
8.427452755905513
 20
3.460259842519685
 30
0.0
 10
8.387129921259843
 20
3.311913385826772
 30
0.0
 10
8.327846456692914
 20
3.147043307086614
 30
0.0
 10
8.327846456692914
 20
3.147043307086614
 30
0.0
 10
8.25084251968504
 20
2.913295275590552
 30
0.0
 10
7.752775590551181
 20
2.889618110236221
 30
0.0
 10
7.52532283464567
 20
2.999452755905512
 30
0.0
  0
SPLINE
  5
F4
330
1F
100
AcDbEntity
  8
Layer 1
 62
   250
370
     5
100
AcDbSpline
210
0.0
220
0.0
230
1.0
 70
    11
 71
     3
 72
    24
 73
    20
 74
     0
 42
0.0000000001
 43
0.0000000001
 40
0.0
 40
0.0
 40
0.0
 40
0.0
 40
0.2
 40
0.2
 40
0.2
 40
0.2
 40
0.4
 40
0.4
 40
0.4
 40
0.4
 40
0.6000000000000001
 40
0.6000000000000001
 40
0.6000000000000001
 40
0.6000000000000001
 40
0.8
 40
0.8
 40
0.8
 40
0.8
 40
1.0
 40
1.0
 40
1.0
 40
1.0
 10
6.416212598425197
 20
3.378070866141732
 30
0.0
 10
6.379755905511812
 20
3.551015748031496
 30
0.0
 10
6.31051968503937
 20
3.677633858267717
 30
0.0
 10
6.218858267716536
 20
3.772531496062992
 30
0.0
 10
6.218858267716536
 20
3.772531496062992
 30
0.0
 10
6.349236220472442
 20
3.991444881889764
 30
0.0
 10
6.427551181102363
 20
4.238354330708662
 30
0.0
 10
6.43222440944882
 20
4.524775590551181
 30
0.0
 10
6.43222440944882
 20
4.524775590551181
 30
0.0
 10
6.43222440944882
 20
4.524775590551181
 30
0.0
 10
6.63098031496063
 20
4.524775590551181
 30
0.0
 10
6.63098031496063
 20
4.524775590551181
 30
0.0
 10
6.63098031496063
 20
4.524775590551181
 30
0.0
 10
6.812188976377953
 20
4.339086614173229
 30
0.0
 10
6.903433070866142
 20
3.938511811023622
 30
0.0
 10
6.704842519685039
 20
3.694917322834646
 30
0.0
 10
6.704842519685039
 20
3.694917322834646
 30
0.0
 10
6.594090551181103
 20
3.588185039370079
 30
0.0
 10
6.54032283464567
 20
3.480531496062992
 30
0.0
 10
6.416212598425197
 20
3.378070866141732
 30
0.0
  0
SPLINE
  5
F5
330
1F
100
AcDbEntity
  8
Layer 1
 62
   250
370
     5
100
AcDbSpline
210
0.0
220
0.0
230
1.0
 70
    11
 71
     3
 72
    32
 73
    28
 74
     0
 42
0.0000000001
 43
0.0000000001
 40
0.0
 40
0.0
 40
0.0
 40
0.0
 40
0.1428571428571429
 40
0.1428571428571429
 40
0.1428571428571429
 40
0.1428571428571429
 40
0.2857142857142857
 40
0.2857142857142857
 40
0.2857142857142857
 40
0.2857142857142857
 40
0.4285714285714286
 40
0.4285714285714286
 40
0.4285714285714286
 40
0.4285714285714286
 40
0.5714285714285714
 40
0.5714285714285714
 40
0.5714285714285714
 40
0.5714285714285714
 40
0.7142857142857142
 40
0.7142857142857142
 40
0.7142857142857142
 40
0.7142857142857142
 40
0.857142857142857
 40
0.857142857142857
 40
0.857142857142857
 40
0.857142857142857
 40
1.0
 40
1.0
 40
1.0
 40
1.0
 10
6.712866141732284
 20
3.292712598425197
 30
0.0
 10
6.723500000000001
 20
3.429374015748032
 30
0.0
 10
6.886984251968504
 20
3.544968503937008
 30
0.0
 10
7.093275590551182
 20
3.654692913385827
 30
0.0
 10
7.093275590551182
 20
3.654692913385827
 30
0.0
 10
7.145102362204725
 20
3.628566929133859
 30
0.0
 10
7.208425196850394
 20
3.612070866141732
 30
0.0
 10
7.303496062992126
 20
3.622149606299213
 30
0.0
 10
7.303496062992126
 20
3.622149606299213
 30
0.0
 10
7.395137795275591
 20
3.663366141732284
 30
0.0
 10
7.458511811023622
 20
3.5795
 30
0.0
 10
7.594185039370079
 20
3.58607874015748
 30
0.0
 10
7.594185039370079
 20
3.58607874015748
 30
0.0
 10
7.766248031496064
 20
3.585834645669292
 30
0.0
 10
7.976397637795276
 20
3.638303149606299
 30
0.0
 10
8.134677165354331
 20
3.56101968503937
 30
0.0
 10
8.134677165354331
 20
3.56101968503937
 30
0.0
 10
7.966885826771654
 20
3.506374015748031
 30
0.0
 10
7.941984251968504
 20
3.451547244094488
 30
0.0
 10
7.867023622047245
 20
3.367582677165355
 30
0.0
 10
7.867023622047245
 20
3.367582677165355
 30
0.0
 10
7.739716535433071
 20
3.22501968503937
 30
0.0
 10
7.536326771653544
 20
3.072783464566929
 30
0.0
 10
7.207996062992127
 20
3.187744094488189
 30
0.0
 10
7.207996062992127
 20
3.187744094488189
 30
0.0
 10
7.042956692913386
 20
3.222724409448819
 30
0.0
 10
6.964566929133858
 20
3.313755905511811
 30
0.0
 10
6.712866141732284
 20
3.292712598425197
 30
0.0
  0
SPLINE
  5
F6
330
1F
100
AcDbEntity
  8
Layer 1
 62
   250
370
     5
100
AcDbSpline
210
0.0
220
0.0
230
1.0
 70
    11
 71
     3
 72
    20
 73
    16
 74
     0
 42
0.0000000001
 43
0.0000000001
 40
0.0
 40
0.0
 40
0.0
 40
0.0
 40
0.25
 40
0.25
 40
0.25
 40
0.25
 40
0.5
 40
0.5
 40
0.5
 40
0.5
 40
0.75
 40
0.75
 40
0.75
 40
0.75
 40
1.0
 40
1.0
 40
1.0
 40
1.0
 10
8.648047244094489
 20
2.991098425196851
 30
0.0
 10
8.771846456692913
 20
3.155240157480315
 30
0.0
 10
8.942370078740158
 20
3.266472440944882
 30
0.0
 10
9.15728346456693
 20
3.327456692913386
 30
0.0
 10
9.15728346456693
 20
3.327456692913386
 30
0.0
 10
9.15728346456693
 20
3.327456692913386
 30
0.0
 10
9.513129921259843
 20
3.021094488188977
 30
0.0
 10
9.513129921259843
 20
3.021094488188977
 30
0.0
 10
9.513129921259843
 20
3.021094488188977
 30
0.0
 10
9.513129921259843
 20
3.021094488188977
 30
0.0
 10
9.225779527559055
 20
2.656889763779528
 30
0.0
 10
9.225779527559055
 20
2.656889763779528
 30
0.0
 10
9.225779527559055
 20
2.656889763779528
 30
0.0
 10
9.001259842519685
 20
2.691669291338583
 30
0.0
 10
8.580566929133859
 20
2.803783464566929
 30
0.0
 10
8.648047244094489
 20
2.991098425196851
 30
0.0
  0
SPLINE
  5
F7
330
1F
100
AcDbEntity
  8
Layer 1
 62
   250
370
     5
100
AcDbSpline
210
0.0
220
0.0
230
1.0
 70
    11
 71
     3
 72
    20
 73
    16
 74
     0
 42
0.0000000001
 43
0.0000000001
 40
0.0
 40
0.0
 40
0.0
 40
0.0
 40
0.25
 40
0.25
 40
0.25
 40
0.25
 40
0.5
 40
0.5
 40
0.5
 40
0.5
 40
0.75
 40
0.75
 40
0.75
 40
0.75
 40
1.0
 40
1.0
 40
1.0
 40
1.0
 10
6.416464566929134
 20
2.64990157480315
 30
0.0
 10
6.416464566929134
 20
2.64990157480315
 30
0.0
 10
6.51932283464567
 20
3.115251968503937
 30
0.0
 10
6.51932283464567
 20
3.115251968503937
 30
0.0
 10
6.51932283464567
 20
3.115251968503937
 30
0.0
 10
6.51932283464567
 20
3.115251968503937
 30
0.0
 10
6.965602362204725
 20
3.018409448818898
 30
0.0
 10
6.965602362204725
 20
3.018409448818898
 30
0.0
 10
6.965602362204725
 20
3.018409448818898
 30
0.0
 10
7.037897637795276
 20
2.797106299212599
 30
0.0
 10
7.132740157480315
 20
2.361011811023622
 30
0.0
 10
6.93984251968504
 20
2.337326771653543
 30
0.0
 10
6.93984251968504
 20
2.337326771653543
 30
0.0
 10
6.741322834645669
 20
2.375771653543307
 30
0.0
 10
6.567275590551182
 20
2.48105905511811
 30
0.0
 10
6.416464566929134
 20
2.64990157480315
 30
0.0
  0
SPLINE
  5
F8
330
1F
100
AcDbEntity
  8
Layer 1
 62
   250
370
     5
100
AcDbSpline
210
0.0
220
0.0
230
1.0
 70
    11
 71
     3
 72
    20
 73
    16
 74
     0
 42
0.0000000001
 43
0.0000000001
 40
0.0
 40
0.0
 40
0.0
 40
0.0
 40
0.25
 40
0.25
 40
0.25
 40
0.25
 40
0.5
 40
0.5
 40
0.5
 40
0.5
 40
0.75
 40
0.75
 40
0.75
 40
0.75
 40
1.0
 40
1.0
 40
1.0
 40
1.0
 10
9.930240157480315
 20
2.586972440944882
 30
0.0
 10
9.888362204724411
 20
2.736996062992126
 30
0.0
 10
9.819720472440945
 20
2.835287401574803
 30
0.0
 10
9.787629921259843
 20
2.99557874015748
 30
0.0
 10
9.787629921259843
 20
2.99557874015748
 30
0.0
 10
9.953948818897638
 20
2.950070866141732
 30
0.0
 10
10.0951062992126
 20
2.955677165354331
 30
0.0
 10
10.21905511811024
 20
2.996275590551181
 30
0.0
 10
10.21905511811024
 20
2.996275590551181
 30
0.0
 10
10.364
 20
2.751948818897638
 30
0.0
 10
10.56854724409449
 20
2.550992125984252
 30
0.0
 10
10.8602125984252
 20
2.41340157480315
 30
0.0
 10
10.8602125984252
 20
2.41340157480315
 30
0.0
 10
10.72205511811024
 20
2.150712598425197
 30
0.0
 10
10.08988976377953
 20
2.198188976377953
 30
0.0
 10
9.930240157480315
 20
2.586972440944882
 30
0.0
  0
SPLINE
  5
F9
330
1F
100
AcDbEntity
  8
Layer 1
 62
   250
370
     5
100
AcDbSpline
210
0.0
220
0.0
230
1.0
 70
    11
 71
     3
 72
    20
 73
    16
 74
     0
 42
0.0000000001
 43
0.0000000001
 40
0.0
 40
0.0
 40
0.0
 40
0.0
 40
0.25
 40
0.25
 40
0.25
 40
0.25
 40
0.5
 40
0.5
 40
0.5
 40
0.5
 40
0.75
 40
0.75
 40
0.75
 40
0.75
 40
1.0
 40
1.0
 40
1.0
 40
1.0
 10
10.8952874015748
 20
2.634114173228347
 30
0.0
 10
10.67995669291339
 20
2.743255905511811
 30
0.0
 10
10.48241732283465
 20
2.901129921259843
 30
0.0
 10
10.46702755905512
 20
3.024173228346457
 30
0.0
 10
10.46702755905512
 20
3.024173228346457
 30
0.0
 10
10.63268110236221
 20
2.997299212598426
 30
0.0
 10
10.79781102362205
 20
2.979783464566929
 30
0.0
 10
10.96257874015748
 20
2.969314960629921
 30
0.0
 10
10.96257874015748
 20
2.969314960629921
 30
0.0
 10
11.23304330708661
 20
2.97596062992126
 30
0.0
 10
11.31526377952756
 20
2.862858267716536
 30
0.0
 10
11.35075984251969
 20
2.594708661417323
 30
0.0
 10
11.35075984251969
 20
2.594708661417323
 30
0.0
 10
11.17318110236221
 20
2.54955905511811
 30
0.0
 10
11.0243937007874
 20
2.569551181102362
 30
0.0
 10
10.8952874015748
 20
2.634114173228347
 30
0.0
  0
SPLINE
  5
FA
330
1F
100
AcDbEntity
  8
Layer 1
 62
   250
370
     5
100
AcDbSpline
210
0.0
220
0.0
230
1.0
 70
    11
 71
     3
 72
    28
 73
    24
 74
     0
 42
0.0000000001
 43
0.0000000001
 40
0.0
 40
0.0
 40
0.0
 40
0.0
 40
0.1666666666666667
 40
0.1666666666666667
 40
0.1666666666666667
 40
0.1666666666666667
 40
0.3333333333333333
 40
0.3333333333333333
 40
0.3333333333333333
 40
0.3333333333333333
 40
0.5
 40
0.5
 40
0.5
 40
0.5
 40
0.6666666666666666
 40
0.6666666666666666
 40
0.6666666666666666
 40
0.6666666666666666
 40
0.8333333333333333
 40
0.8333333333333333
 40
0.8333333333333333
 40
0.8333333333333333
 40
1.0
 40
1.0
 40
1.0
 40
1.0
 10
11.88903149606299
 20
2.323476377952756
 30
0.0
 10
11.89247637795276
 20
2.451909448818898
 30
0.0
 10
11.91947637795276
 20
2.492503937007874
 30
0.0
 10
11.86224409448819
 20
2.688153543307087
 30
0.0
 10
11.86224409448819
 20
2.688153543307087
 30
0.0
 10
12.38060236220473
 20
2.98303937007874
 30
0.0
 10
12.29985826771654
 20
2.862905511811024
 30
0.0
 10
12.51482283464567
 20
2.916555118110237
 30
0.0
 10
12.51482283464567
 20
2.916555118110237
 30
0.0
 10
12.21712992125984
 20
2.481779527559055
 30
0.0
 10
12.21090157480315
 20
2.29340157480315
 30
0.0
 10
12.08673622047244
 20
1.982303149606299
 30
0.0
 10
12.08673622047244
 20
1.982303149606299
 30
0.0
 10
11.99116141732284
 20
1.742874015748032
 30
0.0
 10
11.94110236220473
 20
1.350700787401575
 30
0.0
 10
11.78453149606299
 20
1.312492125984252
 30
0.0
 10
11.78453149606299
 20
1.312492125984252
 30
0.0
 10
11.76457480314961
 20
1.383236220472441
 30
0.0
 10
11.85303937007874
 20
1.647527559055118
 30
0.0
 10
11.88729527559055
 20
1.815047244094488
 30
0.0
 10
11.88729527559055
 20
1.815047244094488
 30
0.0
 10
11.93932283464567
 20
1.982582677165354
 30
0.0
 10
11.88844881889764
 20
2.154003937007874
 30
0.0
 10
11.88903149606299
 20
2.323476377952756
 30
0.0
  0
SPLINE
  5
FB
330
1F
100
AcDbEntity
  8
Layer 1
 62
   250
370
     5
100
AcDbSpline
210
0.0
220
0.0
230
1.0
 70
    11
 71
     3
 72
    12
 73
     8
 74
     0
 42
0.0000000001
 43
0.0000000001
 40
0.0
 40
0.0
 40
0.0
 40
0.0
 40
0.5
 40
0.5
 40
0.5
 40
0.5
 40
1.0
 40
1.0
 40
1.0
 40
1.0
 10
12.6756062992126
 20
2.01111811023622
 30
0.0
 10
12.46647244094488
 20
2.25953937007874
 30
0.0
 10
12.48166141732284
 20
2.523011811023622
 30
0.0
 10
12.6756062992126
 20
2.798444881889764
 30
0.0
 10
12.6756062992126
 20
2.798444881889764
 30
0.0
 10
12.6756062992126
 20
2.798444881889764
 30
0.0
 10
12.6756062992126
 20
2.01111811023622
 30
0.0
 10
12.6756062992126
 20
2.01111811023622
 30
0.0
  0
SPLINE
  5
FC
330
1F
100
AcDbEntity
  8
Layer 1
 62
   250
370
     5
100
AcDbSpline
210
0.0
220
0.0
230
1.0
 70
    11
 71
     3
 72
    20
 73
    16
 74
     0
 42
0.0000000001
 43
0.0000000001
 40
0.0
 40
0.0
 40
0.0
 40
0.0
 40
0.25
 40
0.25
 40
0.25
 40
0.25
 40
0.5
 40
0.5
 40
0.5
 40
0.5
 40
0.75
 40
0.75
 40
0.75
 40
0.75
 40
1.0
 40
1.0
 40
1.0
 40
1.0
 10
10.94419291338583
 20
-0.4984015748031496
 30
0.0
 10
10.84825590551181
 20
-0.4722283464566929
 30
0.0
 10
10.61233464566929
 20
0.0874842519685039
 30
0.0
 10
10.44639763779528
 20
0.3804173228346457
 30
0.0
 10
10.44639763779528
 20
0.3804173228346457
 30
0.0
 10
10.58919291338583
 20
0.2893188976377953
 30
0.0
 10
10.75202362204725
 20
0.3043385826771654
 30
0.0
 10
10.9285157480315
 20
0.3919448818897638
 30
0.0
 10
10.9285157480315
 20
0.3919448818897638
 30
0.0
 10
10.8213031496063
 20
0.1604055118110236
 30
0.0
 10
10.78230708661417
 20
-0.0421062992125984
 30
0.0
 10
10.87140157480315
 20
-0.3018661417322835
 30
0.0
 10
10.87140157480315
 20
-0.3018661417322835
 30
0.0
 10
10.89186614173228
 20
-0.3615433070866142
 30
0.0
 10
10.93344881889764
 20
-0.4405314960629921
 30
0.0
 10
10.94419291338583
 20
-0.4984015748031496
 30
0.0
  0
SPLINE
  5
FD
330
1F
100
AcDbEntity
  8
Layer 1
 62
   250
370
     5
100
AcDbSpline
210
0.0
220
0.0
230
1.0
 70
    11
 71
     3
 72
    16
 73
    12
 74
     0
 42
0.0000000001
 43
0.0000000001
 40
0.0
 40
0.0
 40
0.0
 40
0.0
 40
0.3333333333333333
 40
0.3333333333333333
 40
0.3333333333333333
 40
0.3333333333333333
 40
0.6666666666666666
 40
0.6666666666666666
 40
0.6666666666666666
 40
0.6666666666666666
 40
1.0
 40
1.0
 40
1.0
 40
1.0
 10
11.36898031496063
 20
-0.1802834645669292
 30
0.0
 10
11.15006692913386
 20
0.0890590551181102
 30
0.0
 10
11.30774015748032
 20
0.5187125984251969
 30
0.0
 10
11.64526377952756
 20
0.7025039370078741
 30
0.0
 10
11.64526377952756
 20
0.7025039370078741
 30
0.0
 10
11.42548818897638
 20
0.3114685039370079
 30
0.0
 10
11.77146456692914
 20
-0.2089606299212599
 30
0.0
 10
11.8939094488189
 20
-0.3916535433070866
 30
0.0
 10
11.8939094488189
 20
-0.3916535433070866
 30
0.0
 10
11.69424409448819
 20
-0.394251968503937
 30
0.0
 10
11.52217322834646
 20
-0.3152007874015748
 30
0.0
 10
11.36898031496063
 20
-0.1802834645669292
 30
0.0
  0
SPLINE
  5
FE
330
1F
100
AcDbEntity
  8
Layer 1
 62
   250
370
     5
100
AcDbSpline
210
0.0
220
0.0
230
1.0
 70
    11
 71
     3
 72
    20
 73
    16
 74
     0
 42
0.0000000001
 43
0.0000000001
 40
0.0
 40
0.0
 40
0.0
 40
0.0
 40
0.25
 40
0.25
 40
0.25
 40
0.25
 40
0.5
 40
0.5
 40
0.5
 40
0.5
 40
0.75
 40
0.75
 40
0.75
 40
0.75
 40
1.0
 40
1.0
 40
1.0
 40
1.0
 10
11.96791732283465
 20
-0.2247795275590551
 30
0.0
 10
11.90751181102362
 20
-0.0639212598425197
 30
0.0
 10
11.83947244094488
 20
0.0917874015748032
 30
0.0
 10
11.76571653543307
 20
0.2436338582677166
 30
0.0
 10
11.76571653543307
 20
0.2436338582677166
 30
0.0
 10
11.62453937007874
 20
0.4809448818897638
 30
0.0
 10
11.67850787401575
 20
0.6107834645669291
 30
0.0
 10
11.88639763779528
 20
0.7767716535433071
 30
0.0
 10
11.88639763779528
 20
0.7767716535433071
 30
0.0
 10
12.0133937007874
 20
0.6414173228346457
 30
0.0
 10
12.07116141732284
 20
0.499007874015748
 30
0.0
 10
12.08153149606299
 20
0.3517716535433071
 30
0.0
 10
12.08153149606299
 20
0.3517716535433071
 30
0.0
 10
12.09761023622047
 20
0.1054803149606299
 30
0.0
 10
12.06375196850394
 20
-0.1494212598425197
 30
0.0
 10
11.96791732283465
 20
-0.2247795275590551
 30
0.0
  0
SPLINE
  5
FF
330
1F
100
AcDbEntity
  8
Layer 1
 62
   250
370
     5
100
AcDbSpline
210
0.0
220
0.0
230
1.0
 70
    11
 71
     3
 72
    28
 73
    24
 74
     0
 42
0.0000000001
 43
0.0000000001
 40
0.0
 40
0.0
 40
0.0
 40
0.0
 40
0.1666666666666667
 40
0.1666666666666667
 40
0.1666666666666667
 40
0.1666666666666667
 40
0.3333333333333333
 40
0.3333333333333333
 40
0.3333333333333333
 40
0.3333333333333333
 40
0.5
 40
0.5
 40
0.5
 40
0.5
 40
0.6666666666666666
 40
0.6666666666666666
 40
0.6666666666666666
 40
0.6666666666666666
 40
0.8333333333333333
 40
0.8333333333333333
 40
0.8333333333333333
 40
0.8333333333333333
 40
1.0
 40
1.0
 40
1.0
 40
1.0
 10
12.11570078740158
 20
-0.4314291338582678
 30
0.0
 10
12.24864960629921
 20
-0.179996062992126
 30
0.0
 10
12.31524803149606
 20
0.1027204724409449
 30
0.0
 10
12.28484251968504
 20
0.4311889763779528
 30
0.0
 10
12.28484251968504
 20
0.4311889763779528
 30
0.0
 10
12.45209842519685
 20
0.4362204724409449
 30
0.0
 10
12.61487795275591
 20
0.2438149606299213
 30
0.0
 10
12.6756062992126
 20
0.0153543307086614
 30
0.0
 10
12.6756062992126
 20
0.0153543307086614
 30
0.0
 10
12.6756062992126
 20
0.0153543307086614
 30
0.0
 10
12.6756062992126
 20
-0.3418818897637795
 30
0.0
 10
12.6756062992126
 20
-0.3418818897637795
 30
0.0
 10
12.6756062992126
 20
-0.3418818897637795
 30
0.0
 10
12.66005511811024
 20
-0.3919527559055118
 30
0.0
 10
12.63686220472441
 20
-0.4396850393700788
 30
0.0
 10
12.60491338582677
 20
-0.483248031496063
 30
0.0
 10
12.60491338582677
 20
-0.483248031496063
 30
0.0
 10
12.49963779527559
 20
-0.5956929133858268
 30
0.0
 10
12.45132677165355
 20
-0.7060275590551182
 30
0.0
 10
12.3325157480315
 20
-0.8149370078740158
 30
0.0
 10
12.3325157480315
 20
-0.8149370078740158
 30
0.0
 10
12.28745669291339
 20
-0.6441338582677165
 30
0.0
 10
12.21197637795276
 20
-0.5213661417322835
 30
0.0
 10
12.11570078740158
 20
-0.4314291338582678
 30
0.0
  0
SPLINE
  5
100
330
1F
100
AcDbEntity
  8
Layer 1
 62
   250
370
     5
100
AcDbSpline
210
0.0
220
0.0
230
1.0
 70
    11
 71
     3
 72
    24
 73
    20
 74
     0
 42
0.0000000001
 43
0.0000000001
 40
0.0
 40
0.0
 40
0.0
 40
0.0
 40
0.2
 40
0.2
 40
0.2
 40
0.2
 40
0.4
 40
0.4
 40
0.4
 40
0.4
 40
0.6000000000000001
 40
0.6000000000000001
 40
0.6000000000000001
 40
0.6000000000000001
 40
0.8
 40
0.8
 40
0.8
 40
0.8
 40
1.0
 40
1.0
 40
1.0
 40
1.0
 10
8.362374015748031
 20
-0.4218385826771654
 30
0.0
 10
8.362374015748031
 20
-0.4218385826771654
 30
0.0
 10
8.682133858267717
 20
-0.5077795275590551
 30
0.0
 10
8.682133858267717
 20
-0.5077795275590551
 30
0.0
 10
8.682133858267717
 20
-0.5077795275590551
 30
0.0
 10
8.669669291338582
 20
-0.5921062992125985
 30
0.0
 10
8.760511811023623
 20
-0.7065039370078741
 30
0.0
 10
8.735834645669291
 20
-0.8331850393700788
 30
0.0
 10
8.735834645669291
 20
-0.8331850393700788
 30
0.0
 10
8.701200787401575
 20
-0.997240157480315
 30
0.0
 10
8.686956692913386
 20
-1.343125984251969
 30
0.0
 10
8.631929133858268
 20
-1.325330708661417
 30
0.0
 10
8.631929133858268
 20
-1.325330708661417
 30
0.0
 10
8.524637795275591
 20
-1.081641732283465
 30
0.0
 10
8.341759842519686
 20
-1.067818897637795
 30
0.0
 10
8.19667716535433
 20
-0.9390669291338583
 30
0.0
 10
8.19667716535433
 20
-0.9390669291338583
 30
0.0
 10
8.394460629921261
 20
-0.813255905511811
 30
0.0
 10
8.402712598425197
 20
-0.6648582677165354
 30
0.0
 10
8.362374015748031
 20
-0.4218385826771654
 30
0.0
  0
SPLINE
  5
101
330
1F
100
AcDbEntity
  8
Layer 1
 62
   250
370
     5
100
AcDbSpline
210
0.0
220
0.0
230
1.0
 70
    11
 71
     3
 72
    24
 73
    20
 74
     0
 42
0.0000000001
 43
0.0000000001
 40
0.0
 40
0.0
 40
0.0
 40
0.0
 40
0.2
 40
0.2
 40
0.2
 40
0.2
 40
0.4
 40
0.4
 40
0.4
 40
0.4
 40
0.6000000000000001
 40
0.6000000000000001
 40
0.6000000000000001
 40
0.6000000000000001
 40
0.8
 40
0.8
 40
0.8
 40
0.8
 40
1.0
 40
1.0
 40
1.0
 40
1.0
 10
10.34974409448819
 20
-1.580744094488189
 30
0.0
 10
10.38690157480315
 20
-1.387425196850394
 30
0.0
 10
10.52270472440945
 20
-1.260704724409449
 30
0.0
 10
10.46124015748032
 20
-1.000783464566929
 30
0.0
 10
10.46124015748032
 20
-1.000783464566929
 30
0.0
 10
10.4939251968504
 20
-0.9519173228346457
 30
0.0
 10
10.71235039370079
 20
-1.215374015748032
 30
0.0
 10
10.83791732283465
 20
-1.322669291338583
 30
0.0
 10
10.83791732283465
 20
-1.322669291338583
 30
0.0
 10
10.93324409448819
 20
-1.406850393700788
 30
0.0
 10
10.93022440944882
 20
-1.554492125984252
 30
0.0
 10
10.99056299212599
 20
-1.613035433070866
 30
0.0
 10
10.99056299212599
 20
-1.613035433070866
 30
0.0
 10
10.99056299212599
 20
-1.613035433070866
 30
0.0
 10
10.79013385826772
 20
-1.883263779527559
 30
0.0
 10
10.79013385826772
 20
-1.883263779527559
 30
0.0
 10
10.79013385826772
 20
-1.883263779527559
 30
0.0
 10
10.67633070866142
 20
-1.666275590551181
 30
0.0
 10
10.58092913385827
 20
-1.554574803149606
 30
0.0
 10
10.34974409448819
 20
-1.580744094488189
 30
0.0
  0
SPLINE
  5
102
330
1F
100
AcDbEntity
  8
Layer 1
 62
   250
370
     5
100
AcDbSpline
210
0.0
220
0.0
230
1.0
 70
    11
 71
     3
 72
    32
 73
    28
 74
     0
 42
0.0000000001
 43
0.0000000001
 40
0.0
 40
0.0
 40
0.0
 40
0.0
 40
0.1428571428571429
 40
0.1428571428571429
 40
0.1428571428571429
 40
0.1428571428571429
 40
0.2857142857142857
 40
0.2857142857142857
 40
0.2857142857142857
 40
0.2857142857142857
 40
0.4285714285714286
 40
0.4285714285714286
 40
0.4285714285714286
 40
0.4285714285714286
 40
0.5714285714285714
 40
0.5714285714285714
 40
0.5714285714285714
 40
0.5714285714285714
 40
0.7142857142857142
 40
0.7142857142857142
 40
0.7142857142857142
 40
0.7142857142857142
 40
0.857142857142857
 40
0.857142857142857
 40
0.857142857142857
 40
0.857142857142857
 40
1.0
 40
1.0
 40
1.0
 40
1.0
 10
11.92877165354331
 20
-1.908917322834646
 30
0.0
 10
11.92877165354331
 20
-1.908917322834646
 30
0.0
 10
12.03485826771654
 20
-1.537
 30
0.0
 10
12.03485826771654
 20
-1.537
 30
0.0
 10
12.03485826771654
 20
-1.537
 30
0.0
 10
12.13843700787402
 20
-1.507885826771654
 30
0.0
 10
12.22400393700787
 20
-1.548972440944882
 30
0.0
 10
12.29322047244095
 20
-1.65394094488189
 30
0.0
 10
12.29322047244095
 20
-1.65394094488189
 30
0.0
 10
12.29322047244095
 20
-1.65394094488189
 30
0.0
 10
12.21136614173229
 20
-2.203110236220473
 30
0.0
 10
12.21136614173229
 20
-2.203110236220473
 30
0.0
 10
12.21136614173229
 20
-2.203110236220473
 30
0.0
 10
12.16746456692913
 20
-2.033771653543307
 30
0.0
 10
12.06419291338583
 20
-2.150326771653544
 30
0.0
 10
12.06342125984252
 20
-1.819751968503937
 30
0.0
 10
12.06342125984252
 20
-1.819751968503937
 30
0.0
 10
12.06342125984252
 20
-1.819751968503937
 30
0.0
 10
12.01164960629921
 20
-1.814850393700787
 30
0.0
 10
12.01164960629921
 20
-1.814850393700787
 30
0.0
 10
12.01164960629921
 20
-1.814850393700787
 30
0.0
 10
12.01164960629921
 20
-1.814850393700787
 30
0.0
 10
11.99773622047244
 20
-1.890653543307087
 30
0.0
 10
11.99773622047244
 20
-1.890653543307087
 30
0.0
 10
11.99773622047244
 20
-1.890653543307087
 30
0.0
 10
11.99773622047244
 20
-1.890653543307087
 30
0.0
 10
11.92877165354331
 20
-1.908917322834646
 30
0.0
 10
11.92877165354331
 20
-1.908917322834646
 30
0.0
  0
SPLINE
  5
103
330
1F
100
AcDbEntity
  8
Layer 1
 62
   250
370
     5
100
AcDbSpline
210
0.0
220
0.0
230
1.0
 70
    11
 71
     3
 72
    24
 73
    20
 74
     0
 42
0.0000000001
 43
0.0000000001
 40
0.0
 40
0.0
 40
0.0
 40
0.0
 40
0.2
 40
0.2
 40
0.2
 40
0.2
 40
0.4
 40
0.4
 40
0.4
 40
0.4
 40
0.6000000000000001
 40
0.6000000000000001
 40
0.6000000000000001
 40
0.6000000000000001
 40
0.8
 40
0.8
 40
0.8
 40
0.8
 40
1.0
 40
1.0
 40
1.0
 40
1.0
 10
6.229405511811024
 20
-1.210492125984252
 30
0.0
 10
6.139574803149607
 20
-1.048271653543307
 30
0.0
 10
6.054043307086614
 20
-0.8832716535433072
 30
0.0
 10
5.998625984251969
 20
-0.6989015748031496
 30
0.0
 10
5.998625984251969
 20
-0.6989015748031496
 30
0.0
 10
6.147066929133858
 20
-0.6189842519685039
 30
0.0
 10
6.309248031496063
 20
-0.5653700787401575
 30
0.0
 10
6.49855905511811
 20
-0.5637283464566929
 30
0.0
 10
6.49855905511811
 20
-0.5637283464566929
 30
0.0
 10
6.407704724409449
 20
-0.6650511811023623
 30
0.0
 10
6.33238188976378
 20
-0.7744409448818898
 30
0.0
 10
6.273523622047244
 20
-0.8923661417322835
 30
0.0
 10
6.273523622047244
 20
-0.8923661417322835
 30
0.0
 10
6.239913385826772
 20
-0.9604173228346458
 30
0.0
 10
6.21572440944882
 20
-1.029334645669291
 30
0.0
 10
6.237952755905512
 20
-1.103952755905512
 30
0.0
 10
6.237952755905512
 20
-1.103952755905512
 30
0.0
 10
6.251338582677166
 20
-1.148803149606299
 30
0.0
 10
6.271728346456693
 20
-1.195732283464567
 30
0.0
 10
6.229405511811024
 20
-1.210492125984252
 30
0.0
  0
SPLINE
  5
104
330
1F
100
AcDbEntity
  8
Layer 1
 62
   250
370
     5
100
AcDbSpline
210
0.0
220
0.0
230
1.0
 70
    11
 71
     3
 72
    24
 73
    20
 74
     0
 42
0.0000000001
 43
0.0000000001
 40
0.0
 40
0.0
 40
0.0
 40
0.0
 40
0.2
 40
0.2
 40
0.2
 40
0.2
 40
0.4
 40
0.4
 40
0.4
 40
0.4
 40
0.6000000000000001
 40
0.6000000000000001
 40
0.6000000000000001
 40
0.6000000000000001
 40
0.8
 40
0.8
 40
0.8
 40
0.8
 40
1.0
 40
1.0
 40
1.0
 40
1.0
 10
6.729255905511812
 20
-1.644224409448819
 30
0.0
 10
6.22484251968504
 20
-1.395429133858268
 30
0.0
 10
6.41388188976378
 20
-0.7475236220472441
 30
0.0
 10
6.747732283464567
 20
-0.5513740157480315
 30
0.0
 10
6.747732283464567
 20
-0.5513740157480315
 30
0.0
 10
6.771429133858268
 20
-0.858224409448819
 30
0.0
 10
6.797051181102362
 20
-0.8295551181102363
 30
0.0
 10
6.855059055118111
 20
-0.9850905511811025
 30
0.0
 10
6.855059055118111
 20
-0.9850905511811025
 30
0.0
 10
6.873838582677165
 20
-1.019145669291339
 30
0.0
 10
6.917740157480315
 20
-1.077283464566929
 30
0.0
 10
6.934905511811024
 20
-1.160149606299213
 30
0.0
 10
6.934905511811024
 20
-1.160149606299213
 30
0.0
 10
6.982330708661418
 20
-1.389204724409449
 30
0.0
 10
7.205976377952756
 20
-1.861897637795276
 30
0.0
 10
7.194870078740157
 20
-1.892192913385827
 30
0.0
 10
7.194870078740157
 20
-1.892192913385827
 30
0.0
 10
7.04888188976378
 20
-1.780622047244095
 30
0.0
 10
6.88446062992126
 20
-1.72688188976378
 30
0.0
 10
6.729255905511812
 20
-1.644224409448819
 30
0.0
  0
SPLINE
  5
105
330
1F
100
AcDbEntity
  8
Layer 1
 62
   250
370
     5
100
AcDbSpline
210
0.0
220
0.0
230
1.0
 70
    11
 71
     3
 72
    16
 73
    12
 74
     0
 42
0.0000000001
 43
0.0000000001
 40
0.0
 40
0.0
 40
0.0
 40
0.0
 40
0.3333333333333333
 40
0.3333333333333333
 40
0.3333333333333333
 40
0.3333333333333333
 40
0.6666666666666666
 40
0.6666666666666666
 40
0.6666666666666666
 40
0.6666666666666666
 40
1.0
 40
1.0
 40
1.0
 40
1.0
 10
7.382255905511811
 20
-1.983992125984252
 30
0.0
 10
7.27251968503937
 20
-1.776200787401575
 30
0.0
 10
7.256244094488189
 20
-1.53644094488189
 30
0.0
 10
7.376472440944882
 20
-1.249948818897638
 30
0.0
 10
7.376472440944882
 20
-1.249948818897638
 30
0.0
 10
7.469566929133858
 20
-1.06905905511811
 30
0.0
 10
7.547665354330709
 20
-0.8869724409448819
 30
0.0
 10
7.584267716535433
 20
-0.7015905511811024
 30
0.0
 10
7.584267716535433
 20
-0.7015905511811024
 30
0.0
 10
7.972035433070866
 20
-1.304625984251969
 30
0.0
 10
7.965377952755905
 20
-1.755503937007874
 30
0.0
 10
7.382255905511811
 20
-1.983992125984252
 30
0.0
  0
SPLINE
  5
106
330
1F
100
AcDbEntity
  8
Layer 1
 62
   250
370
     5
100
AcDbSpline
210
0.0
220
0.0
230
1.0
 70
    11
 71
     3
 72
    28
 73
    24
 74
     0
 42
0.0000000001
 43
0.0000000001
 40
0.0
 40
0.0
 40
0.0
 40
0.0
 40
0.1666666666666667
 40
0.1666666666666667
 40
0.1666666666666667
 40
0.1666666666666667
 40
0.3333333333333333
 40
0.3333333333333333
 40
0.3333333333333333
 40
0.3333333333333333
 40
0.5
 40
0.5
 40
0.5
 40
0.5
 40
0.6666666666666666
 40
0.6666666666666666
 40
0.6666666666666666
 40
0.6666666666666666
 40
0.8333333333333333
 40
0.8333333333333333
 40
0.8333333333333333
 40
0.8333333333333333
 40
1.0
 40
1.0
 40
1.0
 40
1.0
 10
8.134492125984252
 20
-2.087870078740158
 30
0.0
 10
8.103251968503937
 20
-1.753149606299213
 30
0.0
 10
8.150370078740158
 20
-1.571
 30
0.0
 10
7.98786220472441
 20
-1.066196850393701
 30
0.0
 10
7.98786220472441
 20
-1.066196850393701
 30
0.0
 10
8.178503937007875
 20
-1.18157874015748
 30
0.0
 10
8.135055118110236
 20
-1.042527559055118
 30
0.0
 10
8.548157480314961
 20
-1.479129921259843
 30
0.0
 10
8.548157480314961
 20
-1.479129921259843
 30
0.0
 10
8.438275590551182
 20
-1.649370078740158
 30
0.0
 10
8.452681102362204
 20
-1.696259842519685
 30
0.0
 10
8.419807086614174
 20
-1.820204724409449
 30
0.0
 10
8.419807086614174
 20
-1.820204724409449
 30
0.0
 10
8.372625984251968
 20
-1.982594488188977
 30
0.0
 10
8.27565748031496
 20
-2.131515748031496
 30
0.0
 10
8.278279527559056
 20
-2.307377952755906
 30
0.0
 10
8.278279527559056
 20
-2.307377952755906
 30
0.0
 10
8.263877952755905
 20
-2.47792125984252
 30
0.0
 10
8.274122047244095
 20
-2.757204724409449
 30
0.0
 10
8.235086614173229
 20
-2.818996062992126
 30
0.0
 10
8.235086614173229
 20
-2.818996062992126
 30
0.0
 10
8.096
 20
-2.735791338582677
 30
0.0
 10
8.158527559055118
 20
-2.345515748031496
 30
0.0
 10
8.134492125984252
 20
-2.087870078740158
 30
0.0
  0
SPLINE
  5
107
330
1F
100
AcDbEntity
  8
Layer 1
 62
   250
370
     5
100
AcDbSpline
210
0.0
220
0.0
230
1.0
 70
    11
 71
     3
 72
    28
 73
    24
 74
     0
 42
0.0000000001
 43
0.0000000001
 40
0.0
 40
0.0
 40
0.0
 40
0.0
 40
0.1666666666666667
 40
0.1666666666666667
 40
0.1666666666666667
 40
0.1666666666666667
 40
0.3333333333333333
 40
0.3333333333333333
 40
0.3333333333333333
 40
0.3333333333333333
 40
0.5
 40
0.5
 40
0.5
 40
0.5
 40
0.6666666666666666
 40
0.6666666666666666
 40
0.6666666666666666
 40
0.6666666666666666
 40
0.8333333333333333
 40
0.8333333333333333
 40
0.8333333333333333
 40
0.8333333333333333
 40
1.0
 40
1.0
 40
1.0
 40
1.0
 10
5.667700787401575
 20
-1.970425196850394
 30
0.0
 10
5.663889763779528
 20
-1.799287401574803
 30
0.0
 10
5.624043307086614
 20
-1.522807086614173
 30
0.0
 10
5.656287401574804
 20
-1.457007874015748
 30
0.0
 10
5.656287401574804
 20
-1.457007874015748
 30
0.0
 10
5.803377952755906
 20
-1.52409842519685
 30
0.0
 10
5.782688976377953
 20
-1.919051181102362
 30
0.0
 10
5.833944881889764
 20
-2.172448818897638
 30
0.0
 10
5.833944881889764
 20
-2.172448818897638
 30
0.0
 10
5.900543307086615
 20
-2.501669291338583
 30
0.0
 10
5.873074803149606
 20
-2.688035433070867
 30
0.0
 10
6.088232283464567
 20
-3.17155905511811
 30
0.0
 10
6.088232283464567
 20
-3.17155905511811
 30
0.0
 10
5.886472440944882
 20
-3.078279527559055
 30
0.0
 10
5.944425196850394
 20
-3.211606299212598
 30
0.0
 10
5.487417322834646
 20
-2.824011811023622
 30
0.0
 10
5.487417322834646
 20
-2.824011811023622
 30
0.0
 10
5.578555118110237
 20
-2.642468503937008
 30
0.0
 10
5.55926377952756
 20
-2.597464566929134
 30
0.0
 10
5.578767716535434
 20
-2.470570866141733
 30
0.0
 10
5.578767716535434
 20
-2.470570866141733
 30
0.0
 10
5.608409448818898
 20
-2.303838582677166
 30
0.0
 10
5.68898031496063
 20
-2.144937007874016
 30
0.0
 10
5.667700787401575
 20
-1.970425196850394
 30
0.0
  0
SPLINE
  5
108
330
1F
100
AcDbEntity
  8
Layer 1
 62
   250
370
     5
100
AcDbSpline
210
0.0
220
0.0
230
1.0
 70
    11
 71
     3
 72
    20
 73
    16
 74
     0
 42
0.0000000001
 43
0.0000000001
 40
0.0
 40
0.0
 40
0.0
 40
0.0
 40
0.25
 40
0.25
 40
0.25
 40
0.25
 40
0.5
 40
0.5
 40
0.5
 40
0.5
 40
0.75
 40
0.75
 40
0.75
 40
0.75
 40
1.0
 40
1.0
 40
1.0
 40
1.0
 10
6.058169291338583
 20
-2.484263779527559
 30
0.0
 10
5.983251968503938
 20
-2.154133858267717
 30
0.0
 10
5.781141732283465
 20
-1.580606299212598
 30
0.0
 10
5.833425196850394
 20
-1.493870078740158
 30
0.0
 10
5.833425196850394
 20
-1.493870078740158
 30
0.0
 10
5.864251968503937
 20
-1.543535433070866
 30
0.0
 10
5.886748031496063
 20
-1.630307086614173
 30
0.0
 10
5.911712598425197
 20
-1.688161417322835
 30
0.0
 10
5.911712598425197
 20
-1.688161417322835
 30
0.0
 10
6.020346456692914
 20
-1.939933070866142
 30
0.0
 10
6.183893700787402
 20
-2.059657480314961
 30
0.0
 10
6.416444881889764
 20
-2.152346456692913
 30
0.0
 10
6.416444881889764
 20
-2.152346456692913
 30
0.0
 10
6.229602362204725
 20
-2.213228346456693
 30
0.0
 10
6.101192913385827
 20
-2.317240157480315
 30
0.0
 10
6.058169291338583
 20
-2.484263779527559
 30
0.0
  0
SPLINE
  5
109
330
1F
100
AcDbEntity
  8
Layer 1
 62
   250
370
     5
100
AcDbSpline
210
0.0
220
0.0
230
1.0
 70
    11
 71
     3
 72
    20
 73
    16
 74
     0
 42
0.0000000001
 43
0.0000000001
 40
0.0
 40
0.0
 40
0.0
 40
0.0
 40
0.25
 40
0.25
 40
0.25
 40
0.25
 40
0.5
 40
0.5
 40
0.5
 40
0.5
 40
0.75
 40
0.75
 40
0.75
 40
0.75
 40
1.0
 40
1.0
 40
1.0
 40
1.0
 10
8.06292125984252
 20
-2.762456692913386
 30
0.0
 10
8.037551181102362
 20
-2.709637795275591
 30
0.0
 10
8.024413385826772
 20
-2.62084251968504
 30
0.0
 10
8.005736220472441
 20
-2.560543307086614
 30
0.0
 10
8.005736220472441
 20
-2.560543307086614
 30
0.0
 10
7.9245
 20
-2.298070866141732
 30
0.0
 10
7.774641732283465
 20
-2.160708661417323
 30
0.0
 10
7.553338582677165
 20
-2.042448818897638
 30
0.0
 10
7.553338582677165
 20
-2.042448818897638
 30
0.0
 10
7.745523622047244
 20
-2.002917322834646
 30
0.0
 10
7.884220472440945
 20
-1.913948818897638
 30
0.0
 10
7.944732283464568
 20
-1.752748031496063
 30
0.0
 10
7.944732283464568
 20
-1.752748031496063
 30
0.0
 10
7.984129921259843
 20
-2.089314960629921
 30
0.0
 10
8.124106299212599
 20
-2.682118110236221
 30
0.0
 10
8.06292125984252
 20
-2.762456692913386
 30
0.0
  0
SPLINE
  5
10A
330
1F
100
AcDbEntity
  8
Layer 1
 62
   250
370
     5
100
AcDbSpline
210
0.0
220
0.0
230
1.0
 70
    11
 71
     3
 72
    16
 73
    12
 74
     0
 42
0.0000000001
 43
0.0000000001
 40
0.0
 40
0.0
 40
0.0
 40
0.0
 40
0.3333333333333333
 40
0.3333333333333333
 40
0.3333333333333333
 40
0.3333333333333333
 40
0.6666666666666666
 40
0.6666666666666666
 40
0.6666666666666666
 40
0.6666666666666666
 40
1.0
 40
1.0
 40
1.0
 40
1.0
 10
7.114433070866142
 20
2.256771653543307
 30
0.0
 10
7.281452755905512
 20
2.430905511811024
 30
0.0
 10
7.305570866141733
 20
2.659645669291339
 30
0.0
 10
7.23190157480315
 20
2.925763779527559
 30
0.0
 10
7.23190157480315
 20
2.925763779527559
 30
0.0
 10
7.382086614173229
 20
2.927122047244095
 30
0.0
 10
7.59076377952756
 20
2.661503937007874
 30
0.0
 10
8.04109842519685
 20
2.791543307086614
 30
0.0
 10
8.04109842519685
 20
2.791543307086614
 30
0.0
 10
8.072980314960629
 20
2.593472440944882
 30
0.0
 10
7.680933070866142
 20
2.24786220472441
 30
0.0
 10
7.114433070866142
 20
2.256771653543307
 30
0.0
  0
SPLINE
  5
10B
330
1F
100
AcDbEntity
  8
Layer 1
 62
   250
370
     5
100
AcDbSpline
210
0.0
220
0.0
230
1.0
 70
    11
 71
     3
 72
    24
 73
    20
 74
     0
 42
0.0000000001
 43
0.0000000001
 40
0.0
 40
0.0
 40
0.0
 40
0.0
 40
0.2
 40
0.2
 40
0.2
 40
0.2
 40
0.4
 40
0.4
 40
0.4
 40
0.4
 40
0.6000000000000001
 40
0.6000000000000001
 40
0.6000000000000001
 40
0.6000000000000001
 40
0.8
 40
0.8
 40
0.8
 40
0.8
 40
1.0
 40
1.0
 40
1.0
 40
1.0
 10
10.90291732283465
 20
2.225574803149606
 30
0.0
 10
11.05488582677165
 20
2.341629921259843
 30
0.0
 10
11.21573228346457
 20
2.399385826771654
 30
0.0
 10
11.38103543307087
 20
2.427661417322835
 30
0.0
 10
11.38103543307087
 20
2.427661417322835
 30
0.0
 10
11.44492519685039
 20
2.246200787401575
 30
0.0
 10
11.47344488188976
 20
2.06155905511811
 30
0.0
 10
11.49689763779528
 20
1.876452755905512
 30
0.0
 10
11.49689763779528
 20
1.876452755905512
 30
0.0
 10
11.45448031496063
 20
1.861992125984252
 30
0.0
 10
11.44323228346457
 20
1.912062992125984
 30
0.0
 10
11.4276062992126
 20
1.956137795275591
 30
0.0
 10
11.4276062992126
 20
1.956137795275591
 30
0.0
 10
11.40157480314961
 20
2.029452755905512
 30
0.0
 10
11.34186614173228
 20
2.069433070866142
 30
0.0
 10
11.27514566929134
 20
2.102889763779528
 30
0.0
 10
11.27514566929134
 20
2.102889763779528
 30
0.0
 10
11.15904724409449
 20
2.16048031496063
 30
0.0
 10
11.03481102362205
 20
2.20105905511811
 30
0.0
 10
10.90291732283465
 20
2.225574803149606
 30
0.0
  0
SPLINE
  5
10C
330
1F
100
AcDbEntity
  8
Layer 1
 62
   250
370
     5
100
AcDbSpline
210
0.0
220
0.0
230
1.0
 70
    11
 71
     3
 72
    32
 73
    28
 74
     0
 42
0.0000000001
 43
0.0000000001
 40
0.0
 40
0.0
 40
0.0
 40
0.0
 40
0.1428571428571429
 40
0.1428571428571429
 40
0.1428571428571429
 40
0.1428571428571429
 40
0.2857142857142857
 40
0.2857142857142857
 40
0.2857142857142857
 40
0.2857142857142857
 40
0.4285714285714286
 40
0.4285714285714286
 40
0.4285714285714286
 40
0.4285714285714286
 40
0.5714285714285714
 40
0.5714285714285714
 40
0.5714285714285714
 40
0.5714285714285714
 40
0.7142857142857142
 40
0.7142857142857142
 40
0.7142857142857142
 40
0.7142857142857142
 40
0.857142857142857
 40
0.857142857142857
 40
0.857142857142857
 40
0.857142857142857
 40
1.0
 40
1.0
 40
1.0
 40
1.0
 10
9.101244094488189
 20
3.451074803149607
 30
0.0
 10
9.101244094488189
 20
3.451074803149607
 30
0.0
 10
8.68011811023622
 20
3.799153543307087
 30
0.0
 10
8.68011811023622
 20
3.799153543307087
 30
0.0
 10
8.68011811023622
 20
3.799153543307087
 30
0.0
 10
8.844625984251969
 20
3.753350393700788
 30
0.0
 10
8.798295275590551
 20
3.903661417322835
 30
0.0
 10
9.076885826771655
 20
3.738665354330709
 30
0.0
 10
9.076885826771655
 20
3.738665354330709
 30
0.0
 10
9.076885826771655
 20
3.738665354330709
 30
0.0
 10
9.106964566929134
 20
3.782263779527559
 30
0.0
 10
9.106964566929134
 20
3.782263779527559
 30
0.0
 10
9.106964566929134
 20
3.782263779527559
 30
0.0
 10
9.106964566929134
 20
3.782263779527559
 30
0.0
 10
9.050137795275591
 20
3.832625984251969
 30
0.0
 10
9.050137795275591
 20
3.832625984251969
 30
0.0
 10
9.050137795275591
 20
3.832625984251969
 30
0.0
 10
9.050137795275591
 20
3.832625984251969
 30
0.0
 10
9.069342519685041
 20
3.903157480314961
 30
0.0
 10
9.069342519685041
 20
3.903157480314961
 30
0.0
 10
9.069342519685041
 20
3.903157480314961
 30
0.0
 10
9.069342519685041
 20
3.903157480314961
 30
0.0
 10
9.329161417322835
 20
3.622350393700788
 30
0.0
 10
9.329161417322835
 20
3.622350393700788
 30
0.0
 10
9.329161417322835
 20
3.622350393700788
 30
0.0
 10
9.301748031496063
 20
3.515610236220473
 30
0.0
 10
9.224279527559055
 20
3.46005905511811
 30
0.0
 10
9.101244094488189
 20
3.451074803149607
 30
0.0
  0
SPLINE
  5
10D
330
1F
100
AcDbEntity
  8
Layer 1
 62
   250
370
     5
100
AcDbSpline
210
0.0
220
0.0
230
1.0
 70
    11
 71
     3
 72
    20
 73
    16
 74
     0
 42
0.0000000001
 43
0.0000000001
 40
0.0
 40
0.0
 40
0.0
 40
0.0
 40
0.25
 40
0.25
 40
0.25
 40
0.25
 40
0.5
 40
0.5
 40
0.5
 40
0.5
 40
0.75
 40
0.75
 40
0.75
 40
0.75
 40
1.0
 40
1.0
 40
1.0
 40
1.0
 10
9.60324409448819
 20
3.339814960629921
 30
0.0
 10
9.54478346456693
 20
3.402283464566929
 30
0.0
 10
9.555826771653544
 20
3.47686220472441
 30
0.0
 10
9.427846456692913
 20
3.527196850393701
 30
0.0
 10
9.427846456692913
 20
3.527196850393701
 30
0.0
 10
9.599114173228347
 20
3.796110236220473
 30
0.0
 10
10.45544094488189
 20
4.000062992125985
 30
0.0
 10
10.88307874015748
 20
3.702653543307087
 30
0.0
 10
10.88307874015748
 20
3.702653543307087
 30
0.0
 10
10.66244881889764
 20
3.636795275590552
 30
0.0
 10
10.45509448818898
 20
3.547724409448819
 30
0.0
 10
10.2845
 20
3.3945
 30
0.0
 10
10.2845
 20
3.3945
 30
0.0
 10
10.07835039370079
 20
3.144236220472441
 30
0.0
 10
9.788850393700788
 20
3.108255905511811
 30
0.0
 10
9.60324409448819
 20
3.339814960629921
 30
0.0
  0
SPLINE
  5
10E
330
1F
100
AcDbEntity
  8
Layer 1
 62
   250
370
     5
100
AcDbSpline
210
0.0
220
0.0
230
1.0
 70
    11
 71
     3
 72
    24
 73
    20
 74
     0
 42
0.0000000001
 43
0.0000000001
 40
0.0
 40
0.0
 40
0.0
 40
0.0
 40
0.2
 40
0.2
 40
0.2
 40
0.2
 40
0.4
 40
0.4
 40
0.4
 40
0.4
 40
0.6000000000000001
 40
0.6000000000000001
 40
0.6000000000000001
 40
0.6000000000000001
 40
0.8
 40
0.8
 40
0.8
 40
0.8
 40
1.0
 40
1.0
 40
1.0
 40
1.0
 10
8.77132283464567
 20
-1.954618110236221
 30
0.0
 10
8.844074803149606
 20
-1.791212598425197
 30
0.0
 10
8.941413385826772
 20
-1.644751968503937
 30
0.0
 10
8.989566929133858
 20
-1.464374015748032
 30
0.0
 10
8.989566929133858
 20
-1.464374015748032
 30
0.0
 10
9.016476377952756
 20
-1.481220472440945
 30
0.0
 10
9.123472440944882
 20
-1.995228346456693
 30
0.0
 10
9.223299212598425
 20
-2.205704724409449
 30
0.0
 10
9.223299212598425
 20
-2.205704724409449
 30
0.0
 10
9.259433070866143
 20
-2.281866141732284
 30
0.0
 10
9.259677165354331
 20
-2.355448818897638
 30
0.0
 10
9.265291338582678
 20
-2.394188976377953
 30
0.0
 10
9.265291338582678
 20
-2.394188976377953
 30
0.0
 10
9.312751968503937
 20
-2.553456692913386
 30
0.0
 10
9.275397637795276
 20
-2.547098425196851
 30
0.0
 10
9.440562992125985
 20
-2.803846456692913
 30
0.0
 10
9.440562992125985
 20
-2.803846456692913
 30
0.0
 10
9.060055118110236
 20
-2.860751968503937
 30
0.0
 10
8.522984251968504
 20
-2.470086614173229
 30
0.0
 10
8.77132283464567
 20
-1.954618110236221
 30
0.0
  0
SPLINE
  5
10F
330
1F
100
AcDbEntity
  8
Layer 1
 62
   250
370
     5
100
AcDbSpline
210
0.0
220
0.0
230
1.0
 70
    11
 71
     3
 72
    16
 73
    12
 74
     0
 42
0.0000000001
 43
0.0000000001
 40
0.0
 40
0.0
 40
0.0
 40
0.0
 40
0.3333333333333333
 40
0.3333333333333333
 40
0.3333333333333333
 40
0.3333333333333333
 40
0.6666666666666666
 40
0.6666666666666666
 40
0.6666666666666666
 40
0.6666666666666666
 40
1.0
 40
1.0
 40
1.0
 40
1.0
 10
10.00957086614173
 20
-2.155685039370079
 30
0.0
 10
9.869673228346457
 20
-2.032826771653543
 30
0.0
 10
9.699086614173229
 20
-1.938858267716536
 30
0.0
 10
9.517389763779528
 20
-1.855307086614173
 30
0.0
 10
9.517389763779528
 20
-1.855307086614173
 30
0.0
 10
9.251031496062993
 20
-1.705767716535433
 30
0.0
 10
9.120248031496063
 20
-1.50657874015748
 30
0.0
 10
9.082200787401575
 20
-1.273389763779528
 30
0.0
 10
9.082200787401575
 20
-1.273389763779528
 30
0.0
 10
9.678448818897639
 20
-1.084070866141732
 30
0.0
 10
9.953791338582677
 20
-1.435043307086614
 30
0.0
 10
10.00957086614173
 20
-2.155685039370079
 30
0.0
  0
SPLINE
  5
110
330
1F
100
AcDbEntity
  8
Layer 1
 62
   250
370
     5
100
AcDbSpline
210
0.0
220
0.0
230
1.0
 70
    11
 71
     3
 72
    20
 73
    16
 74
     0
 42
0.0000000001
 43
0.0000000001
 40
0.0
 40
0.0
 40
0.0
 40
0.0
 40
0.25
 40
0.25
 40
0.25
 40
0.25
 40
0.5
 40
0.5
 40
0.5
 40
0.5
 40
0.75
 40
0.75
 40
0.75
 40
0.75
 40
1.0
 40
1.0
 40
1.0
 40
1.0
 10
10.35212992125984
 20
-2.704992125984252
 30
0.0
 10
10.32523228346457
 20
-2.363334645669291
 30
0.0
 10
10.21266535433071
 20
-2.168834645669291
 30
0.0
 10
10.2130905511811
 20
-1.848523622047244
 30
0.0
 10
10.2130905511811
 20
-1.848523622047244
 30
0.0
 10
10.2130905511811
 20
-1.848523622047244
 30
0.0
 10
10.35496456692913
 20
-1.795586614173228
 30
0.0
 10
10.35496456692913
 20
-1.795586614173228
 30
0.0
 10
10.35496456692913
 20
-1.795586614173228
 30
0.0
 10
10.57270078740157
 20
-1.747255905511811
 30
0.0
 10
10.59544094488189
 20
-1.977736220472441
 30
0.0
 10
10.71568110236221
 20
-2.068807086614173
 30
0.0
 10
10.71568110236221
 20
-2.068807086614173
 30
0.0
 10
10.53938976377953
 20
-2.308716535433071
 30
0.0
 10
10.62642913385827
 20
-2.454527559055118
 30
0.0
 10
10.35212992125984
 20
-2.704992125984252
 30
0.0
  0
SPLINE
  5
111
330
1F
100
AcDbEntity
  8
Layer 1
 62
   250
370
     5
100
AcDbSpline
210
0.0
220
0.0
230
1.0
 70
    11
 71
     3
 72
    36
 73
    32
 74
     0
 42
0.0000000001
 43
0.0000000001
 40
0.0
 40
0.0
 40
0.0
 40
0.0
 40
0.125
 40
0.125
 40
0.125
 40
0.125
 40
0.25
 40
0.25
 40
0.25
 40
0.25
 40
0.375
 40
0.375
 40
0.375
 40
0.375
 40
0.5
 40
0.5
 40
0.5
 40
0.5
 40
0.625
 40
0.625
 40
0.625
 40
0.625
 40
0.75
 40
0.75
 40
0.75
 40
0.75
 40
0.875
 40
0.875
 40
0.875
 40
0.875
 40
1.0
 40
1.0
 40
1.0
 40
1.0
 10
10.70273622047244
 20
-2.524338582677165
 30
0.0
 10
10.77888582677166
 20
-2.365677165354331
 30
0.0
 10
10.82585039370079
 20
-2.148637795275591
 30
0.0
 10
10.96317322834646
 20
-2.036716535433071
 30
0.0
 10
10.96317322834646
 20
-2.036716535433071
 30
0.0
 10
10.93680708661417
 20
-2.215645669291339
 30
0.0
 10
10.97366141732284
 20
-2.262826771653543
 30
0.0
 10
11.01383464566929
 20
-2.369043307086614
 30
0.0
 10
11.01383464566929
 20
-2.369043307086614
 30
0.0
 10
11.08206299212599
 20
-2.549444881889764
 30
0.0
 10
11.12515354330709
 20
-2.804279527559055
 30
0.0
 10
10.8798937007874
 20
-3.056464566929134
 30
0.0
 10
10.8798937007874
 20
-3.056464566929134
 30
0.0
 10
10.81755905511811
 20
-3.138968503937008
 30
0.0
 10
10.75135433070866
 20
-3.183425196850394
 30
0.0
 10
10.68825590551181
 20
-3.258657480314961
 30
0.0
 10
10.68825590551181
 20
-3.258657480314961
 30
0.0
 10
10.68825590551181
 20
-3.258657480314961
 30
0.0
 10
10.45075196850394
 20
-3.258657480314961
 30
0.0
 10
10.45075196850394
 20
-3.258657480314961
 30
0.0
 10
10.45075196850394
 20
-3.258657480314961
 30
0.0
 10
10.43148818897638
 20
-3.17257874015748
 30
0.0
 10
10.42396850393701
 20
-3.068476377952756
 30
0.0
 10
10.42176377952756
 20
-2.956200787401575
 30
0.0
 10
10.42176377952756
 20
-2.956200787401575
 30
0.0
 10
10.46742913385827
 20
-2.919909448818898
 30
0.0
 10
10.50977559055118
 20
-2.868771653543307
 30
0.0
 10
10.54294881889764
 20
-2.776606299212598
 30
0.0
 10
10.54294881889764
 20
-2.776606299212598
 30
0.0
 10
10.54742519685039
 20
-2.673877952755906
 30
0.0
 10
10.64860236220473
 20
-2.652417322834646
 30
0.0
 10
10.70273622047244
 20
-2.524338582677165
 30
0.0
  0
SPLINE
  5
112
330
1F
100
AcDbEntity
  8
Layer 1
 62
   250
370
     5
100
AcDbSpline
210
0.0
220
0.0
230
1.0
 70
    11
 71
     3
 72
    20
 73
    16
 74
     0
 42
0.0000000001
 43
0.0000000001
 40
0.0
 40
0.0
 40
0.0
 40
0.0
 40
0.25
 40
0.25
 40
0.25
 40
0.25
 40
0.5
 40
0.5
 40
0.5
 40
0.5
 40
0.75
 40
0.75
 40
0.75
 40
0.75
 40
1.0
 40
1.0
 40
1.0
 40
1.0
 10
11.18427952755906
 20
-2.846803149606299
 30
0.0
 10
11.23245275590551
 20
-2.636267716535433
 30
0.0
 10
11.22115354330709
 20
-2.452751968503937
 30
0.0
 10
11.15570078740158
 20
-2.293885826771654
 30
0.0
 10
11.15570078740158
 20
-2.293885826771654
 30
0.0
 10
11.08272440944882
 20
-2.114885826771654
 30
0.0
 10
11.04661811023622
 20
-1.932685039370079
 30
0.0
 10
11.07752362204725
 20
-1.744625984251969
 30
0.0
 10
11.07752362204725
 20
-1.744625984251969
 30
0.0
 10
11.18034251968504
 20
-1.81107874015748
 30
0.0
 10
11.29199212598425
 20
-1.913748031496063
 30
0.0
 10
11.40971653543307
 20
-2.041216535433071
 30
0.0
 10
11.40971653543307
 20
-2.041216535433071
 30
0.0
 10
11.5796968503937
 20
-2.215437007874016
 30
0.0
 10
11.38052755905512
 20
-2.685437007874016
 30
0.0
 10
11.18427952755906
 20
-2.846803149606299
 30
0.0
  0
SPLINE
  5
113
330
1F
100
AcDbEntity
  8
Layer 1
 62
   250
370
     5
100
AcDbSpline
210
0.0
220
0.0
230
1.0
 70
    11
 71
     3
 72
    20
 73
    16
 74
     0
 42
0.0000000001
 43
0.0000000001
 40
0.0
 40
0.0
 40
0.0
 40
0.0
 40
0.25
 40
0.25
 40
0.25
 40
0.25
 40
0.5
 40
0.5
 40
0.5
 40
0.5
 40
0.75
 40
0.75
 40
0.75
 40
0.75
 40
1.0
 40
1.0
 40
1.0
 40
1.0
 10
11.11905118110236
 20
-3.150055118110236
 30
0.0
 10
11.18416535433071
 20
-3.010870078740158
 30
0.0
 10
11.50808661417323
 20
-2.935570866141732
 30
0.0
 10
11.59338188976378
 20
-2.462692913385827
 30
0.0
 10
11.59338188976378
 20
-2.462692913385827
 30
0.0
 10
11.74443700787402
 20
-2.509586614173228
 30
0.0
 10
11.85698031496063
 20
-2.854279527559055
 30
0.0
 10
11.75868503937008
 20
-3.258657480314961
 30
0.0
 10
11.75868503937008
 20
-3.258657480314961
 30
0.0
 10
11.75868503937008
 20
-3.258657480314961
 30
0.0
 10
11.41766535433071
 20
-3.258657480314961
 30
0.0
 10
11.41766535433071
 20
-3.258657480314961
 30
0.0
 10
11.41766535433071
 20
-3.258657480314961
 30
0.0
 10
11.33425590551181
 20
-3.206779527559055
 30
0.0
 10
11.23377559055118
 20
-3.171503937007874
 30
0.0
 10
11.11905118110236
 20
-3.150055118110236
 30
0.0
  0
SPLINE
  5
114
330
1F
100
AcDbEntity
  8
Layer 1
 62
   250
370
     5
100
AcDbSpline
210
0.0
220
0.0
230
1.0
 70
    11
 71
     3
 72
    20
 73
    16
 74
     0
 42
0.0000000001
 43
0.0000000001
 40
0.0
 40
0.0
 40
0.0
 40
0.0
 40
0.25
 40
0.25
 40
0.25
 40
0.25
 40
0.5
 40
0.5
 40
0.5
 40
0.5
 40
0.75
 40
0.75
 40
0.75
 40
0.75
 40
1.0
 40
1.0
 40
1.0
 40
1.0
 10
9.52282283464567
 20
-2.487562992125985
 30
0.0
 10
9.479980314960629
 20
-2.315248031496063
 30
0.0
 10
9.429283464566929
 20
-2.153291338582677
 30
0.0
 10
9.354173228346458
 20
-2.006696850393701
 30
0.0
 10
9.354173228346458
 20
-2.006696850393701
 30
0.0
 10
9.844440944881891
 20
-2.166767716535433
 30
0.0
 10
10.17454330708661
 20
-2.432393700787402
 30
0.0
 10
10.15236614173228
 20
-2.930299212598425
 30
0.0
 10
10.15236614173228
 20
-2.930299212598425
 30
0.0
 10
10.07687007874016
 20
-2.866503937007874
 30
0.0
 10
9.99166535433071
 20
-2.832
 30
0.0
 10
9.902023622047244
 20
-2.810799212598425
 30
0.0
 10
9.902023622047244
 20
-2.810799212598425
 30
0.0
 10
9.668716535433072
 20
-2.776866141732284
 30
0.0
 10
9.573929133858268
 20
-2.683263779527559
 30
0.0
 10
9.52282283464567
 20
-2.487562992125985
 30
0.0
  0
SPLINE
  5
115
330
1F
100
AcDbEntity
  8
Layer 1
 62
   250
370
     5
100
AcDbSpline
210
0.0
220
0.0
230
1.0
 70
    11
 71
     3
 72
    20
 73
    16
 74
     0
 42
0.0000000001
 43
0.0000000001
 40
0.0
 40
0.0
 40
0.0
 40
0.0
 40
0.25
 40
0.25
 40
0.25
 40
0.25
 40
0.5
 40
0.5
 40
0.5
 40
0.5
 40
0.75
 40
0.75
 40
0.75
 40
0.75
 40
1.0
 40
1.0
 40
1.0
 40
1.0
 10
12.07454724409449
 20
-3.258657480314961
 30
0.0
 10
12.13346062992126
 20
-3.081511811023622
 30
0.0
 10
12.43773622047244
 20
-2.987322834645669
 30
0.0
 10
12.6756062992126
 20
-2.991858267716536
 30
0.0
 10
12.6756062992126
 20
-2.991858267716536
 30
0.0
 10
12.6756062992126
 20
-2.991858267716536
 30
0.0
 10
12.6756062992126
 20
-3.096885826771654
 30
0.0
 10
12.6756062992126
 20
-3.096885826771654
 30
0.0
 10
12.6756062992126
 20
-3.096885826771654
 30
0.0
 10
12.6005905511811
 20
-3.143791338582677
 30
0.0
 10
12.53722834645669
 20
-3.197893700787402
 30
0.0
 10
12.48501181102362
 20
-3.25888188976378
 30
0.0
 10
12.48501181102362
 20
-3.25888188976378
 30
0.0
 10
12.48501181102362
 20
-3.25888188976378
 30
0.0
 10
12.07454724409449
 20
-3.258657480314961
 30
0.0
 10
12.07454724409449
 20
-3.258657480314961
 30
0.0
  0
SPLINE
  5
116
330
1F
100
AcDbEntity
  8
Layer 1
 62
   250
370
     5
100
AcDbSpline
210
0.0
220
0.0
230
1.0
 70
    11
 71
     3
 72
    24
 73
    20
 74
     0
 42
0.0000000001
 43
0.0000000001
 40
0.0
 40
0.0
 40
0.0
 40
0.0
 40
0.2
 40
0.2
 40
0.2
 40
0.2
 40
0.4
 40
0.4
 40
0.4
 40
0.4
 40
0.6000000000000001
 40
0.6000000000000001
 40
0.6000000000000001
 40
0.6000000000000001
 40
0.8
 40
0.8
 40
0.8
 40
0.8
 40
1.0
 40
1.0
 40
1.0
 40
1.0
 10
8.762043307086614
 20
-3.16205905511811
 30
0.0
 10
8.695248031496064
 20
-2.981724409448819
 30
0.0
 10
8.663783464566929
 20
-2.797566929133859
 30
0.0
 10
8.637374015748032
 20
-2.612877952755905
 30
0.0
 10
8.637374015748032
 20
-2.612877952755905
 30
0.0
 10
8.679566929133859
 20
-2.597704724409449
 30
0.0
 10
8.691602362204725
 20
-2.647594488188977
 30
0.0
 10
8.707937007874016
 20
-2.691393700787402
 30
0.0
 10
8.707937007874016
 20
-2.691393700787402
 30
0.0
 10
8.735133858267718
 20
-2.764251968503937
 30
0.0
 10
8.795472440944883
 20
-2.803232283464567
 30
0.0
 10
8.862716535433071
 20
-2.83553937007874
 30
0.0
 10
8.862716535433071
 20
-2.83553937007874
 30
0.0
 10
8.979720472440945
 20
-2.891169291338583
 30
0.0
 10
9.104586614173229
 20
-2.929645669291339
 30
0.0
 10
9.236866141732284
 20
-2.951925196850394
 30
0.0
 10
9.236866141732284
 20
-2.951925196850394
 30
0.0
 10
9.086755905511811
 20
-3.070535433070866
 30
0.0
 10
8.926866141732283
 20
-3.131007874015748
 30
0.0
 10
8.762043307086614
 20
-3.16205905511811
 30
0.0
  0
SPLINE
  5
117
330
1F
100
AcDbEntity
  8
Layer 1
 62
   250
370
     5
100
AcDbSpline
210
0.0
220
0.0
230
1.0
 70
    11
 71
     3
 72
    16
 73
    12
 74
     0
 42
0.0000000001
 43
0.0000000001
 40
0.0
 40
0.0
 40
0.0
 40
0.0
 40
0.3333333333333333
 40
0.3333333333333333
 40
0.3333333333333333
 40
0.3333333333333333
 40
0.6666666666666666
 40
0.6666666666666666
 40
0.6666666666666666
 40
0.6666666666666666
 40
1.0
 40
1.0
 40
1.0
 40
1.0
 10
9.499925196850395
 20
-3.258657480314961
 30
0.0
 10
9.433271653543308
 20
-3.214429133858268
 30
0.0
 10
9.36098031496063
 20
-3.174413385826772
 30
0.0
 10
9.282574803149606
 20
-3.139023622047244
 30
0.0
 10
9.282574803149606
 20
-3.139023622047244
 30
0.0
 10
9.411956692913385
 20
-2.883027559055118
 30
0.0
 10
10.00687795275591
 20
-2.908665354330709
 30
0.0
 10
10.19667322834646
 20
-3.258657480314961
 30
0.0
 10
10.19667322834646
 20
-3.258657480314961
 30
0.0
 10
10.19667322834646
 20
-3.258657480314961
 30
0.0
 10
9.499925196850395
 20
-3.258657480314961
 30
0.0
 10
9.499925196850395
 20
-3.258657480314961
 30
0.0
  0
SPLINE
  5
118
330
1F
100
AcDbEntity
  8
Layer 1
 62
   250
370
     5
100
AcDbSpline
210
0.0
220
0.0
230
1.0
 70
    11
 71
     3
 72
    16
 73
    12
 74
     0
 42
0.0000000001
 43
0.0000000001
 40
0.0
 40
0.0
 40
0.0
 40
0.0
 40
0.3333333333333333
 40
0.3333333333333333
 40
0.3333333333333333
 40
0.3333333333333333
 40
0.6666666666666666
 40
0.6666666666666666
 40
0.6666666666666666
 40
0.6666666666666666
 40
1.0
 40
1.0
 40
1.0
 40
1.0
 10
3.555003937007874
 20
-2.66448031496063
 30
0.0
 10
3.75392125984252
 20
-2.750492125984252
 30
0.0
 10
4.319984251968504
 20
-2.992641732283465
 30
0.0
 10
4.64746062992126
 20
-2.691673228346457
 30
0.0
 10
4.64746062992126
 20
-2.691673228346457
 30
0.0
 10
4.541303149606299
 20
-3.068913385826772
 30
0.0
 10
4.164374015748032
 20
-3.315232283464567
 30
0.0
 10
3.863283464566929
 20
-3.149795275590551
 30
0.0
 10
3.863283464566929
 20
-3.149795275590551
 30
0.0
 10
3.703598425196851
 20
-3.023082677165355
 30
0.0
 10
3.593251968503937
 20
-2.865988188976378
 30
0.0
 10
3.555003937007874
 20
-2.66448031496063
 30
0.0
  0
SPLINE
  5
119
330
1F
100
AcDbEntity
  8
Layer 1
 62
   250
370
     5
100
AcDbSpline
210
0.0
220
0.0
230
1.0
 70
    11
 71
     3
 72
    16
 73
    12
 74
     0
 42
0.0000000001
 43
0.0000000001
 40
0.0
 40
0.0
 40
0.0
 40
0.0
 40
0.3333333333333333
 40
0.3333333333333333
 40
0.3333333333333333
 40
0.3333333333333333
 40
0.6666666666666666
 40
0.6666666666666666
 40
0.6666666666666666
 40
0.6666666666666666
 40
1.0
 40
1.0
 40
1.0
 40
1.0
 10
5.37805905511811
 20
-3.258657480314961
 30
0.0
 10
5.380551181102362
 20
-3.115366141732284
 30
0.0
 10
5.384586614173228
 20
-2.979003937007874
 30
0.0
 10
5.420476377952756
 20
-2.986307086614173
 30
0.0
 10
5.420476377952756
 20
-2.986307086614173
 30
0.0
 10
5.522472440944882
 20
-3.163425196850394
 30
0.0
 10
5.654496062992126
 20
-3.200236220472441
 30
0.0
 10
5.781870078740158
 20
-3.258657480314961
 30
0.0
 10
5.781870078740158
 20
-3.258657480314961
 30
0.0
 10
5.781870078740158
 20
-3.258657480314961
 30
0.0
 10
5.37805905511811
 20
-3.258657480314961
 30
0.0
 10
5.37805905511811
 20
-3.258657480314961
 30
0.0
  0
SPLINE
  5
11A
330
1F
100
AcDbEntity
  8
Layer 1
 62
   250
370
     5
100
AcDbSpline
210
0.0
220
0.0
230
1.0
 70
    11
 71
     3
 72
    20
 73
    16
 74
     0
 42
0.0000000001
 43
0.0000000001
 40
0.0
 40
0.0
 40
0.0
 40
0.0
 40
0.25
 40
0.25
 40
0.25
 40
0.25
 40
0.5
 40
0.5
 40
0.5
 40
0.5
 40
0.75
 40
0.75
 40
0.75
 40
0.75
 40
1.0
 40
1.0
 40
1.0
 40
1.0
 10
6.362015748031497
 20
-3.258657480314961
 30
0.0
 10
6.07894094488189
 20
-2.808551181102363
 30
0.0
 10
6.11613779527559
 20
-2.44234251968504
 30
0.0
 10
6.592728346456693
 20
-2.191220472440945
 30
0.0
 10
6.592728346456693
 20
-2.191220472440945
 30
0.0
 10
6.723850393700788
 20
-2.385456692913386
 30
0.0
 10
6.765511811023623
 20
-2.621956692913386
 30
0.0
 10
6.676437007874016
 20
-2.920236220472441
 30
0.0
 10
6.676437007874016
 20
-2.920236220472441
 30
0.0
 10
6.63286220472441
 20
-3.033287401574803
 30
0.0
 10
6.594610236220473
 20
-3.146161417322835
 30
0.0
 10
6.567244094488189
 20
-3.258657480314961
 30
0.0
 10
6.567244094488189
 20
-3.258657480314961
 30
0.0
 10
6.567244094488189
 20
-3.258657480314961
 30
0.0
 10
6.362015748031497
 20
-3.258657480314961
 30
0.0
 10
6.362015748031497
 20
-3.258657480314961
 30
0.0
  0
SPLINE
  5
11B
330
1F
100
AcDbEntity
  8
Layer 1
 62
   250
370
     5
100
AcDbSpline
210
0.0
220
0.0
230
1.0
 70
    11
 71
     3
 72
    16
 73
    12
 74
     0
 42
0.0000000001
 43
0.0000000001
 40
0.0
 40
0.0
 40
0.0
 40
0.0
 40
0.3333333333333333
 40
0.3333333333333333
 40
0.3333333333333333
 40
0.3333333333333333
 40
0.6666666666666666
 40
0.6666666666666666
 40
0.6666666666666666
 40
0.6666666666666666
 40
1.0
 40
1.0
 40
1.0
 40
1.0
 10
6.751208661417323
 20
-3.258657480314961
 30
0.0
 10
6.785031496062993
 20
-3.145976377952756
 30
0.0
 10
6.834535433070866
 20
-3.029964566929134
 30
0.0
 10
6.89607874015748
 20
-2.91140157480315
 30
0.0
 10
6.89607874015748
 20
-2.91140157480315
 30
0.0
 10
6.930181102362205
 20
-3.029645669291339
 30
0.0
 10
6.979700787401575
 20
-3.144263779527559
 30
0.0
 10
7.03842125984252
 20
-3.258657480314961
 30
0.0
 10
7.03842125984252
 20
-3.258657480314961
 30
0.0
 10
7.03842125984252
 20
-3.258657480314961
 30
0.0
 10
6.751208661417323
 20
-3.258657480314961
 30
0.0
 10
6.751208661417323
 20
-3.258657480314961
 30
0.0
  0
SPLINE
  5
11C
330
1F
100
AcDbEntity
  8
Layer 1
 62
   250
370
     5
100
AcDbSpline
210
0.0
220
0.0
230
1.0
 70
    11
 71
     3
 72
    28
 73
    24
 74
     0
 42
0.0000000001
 43
0.0000000001
 40
0.0
 40
0.0
 40
0.0
 40
0.0
 40
0.1666666666666667
 40
0.1666666666666667
 40
0.1666666666666667
 40
0.1666666666666667
 40
0.3333333333333333
 40
0.3333333333333333
 40
0.3333333333333333
 40
0.3333333333333333
 40
0.5
 40
0.5
 40
0.5
 40
0.5
 40
0.6666666666666666
 40
0.6666666666666666
 40
0.6666666666666666
 40
0.6666666666666666
 40
0.8333333333333333
 40
0.8333333333333333
 40
0.8333333333333333
 40
0.8333333333333333
 40
1.0
 40
1.0
 40
1.0
 40
1.0
 10
7.297389763779528
 20
-3.258657480314961
 30
0.0
 10
7.277645669291339
 20
-3.21988188976378
 30
0.0
 10
7.255177165354331
 20
-3.189425196850394
 30
0.0
 10
7.22286220472441
 20
-3.124956692913386
 30
0.0
 10
7.22286220472441
 20
-3.124956692913386
 30
0.0
 10
7.200574803149607
 20
-3.093188976377953
 30
0.0
 10
7.150775590551182
 20
-3.040350393700788
 30
0.0
 10
7.124905511811024
 20
-2.959897637795276
 30
0.0
 10
7.124905511811024
 20
-2.959897637795276
 30
0.0
 10
7.05342125984252
 20
-2.737543307086614
 30
0.0
 10
6.780909448818898
 20
-2.2928031496063
 30
0.0
 10
6.788740157480315
 20
-2.26144094488189
 30
0.0
 10
6.788740157480315
 20
-2.26144094488189
 30
0.0
 10
6.945700787401576
 20
-2.35596062992126
 30
0.0
 10
7.114846456692914
 20
-2.39090157480315
 30
0.0
 10
7.277905511811024
 20
-2.455618110236221
 30
0.0
 10
7.277905511811024
 20
-2.455618110236221
 30
0.0
 10
7.65438188976378
 20
-2.591610236220473
 30
0.0
 10
7.701740157480315
 20
-2.969027559055118
 30
0.0
 10
7.585102362204725
 20
-3.258657480314961
 30
0.0
 10
7.585102362204725
 20
-3.258657480314961
 30
0.0
 10
7.585102362204725
 20
-3.258657480314961
 30
0.0
 10
7.297389763779528
 20
-3.258657480314961
 30
0.0
 10
7.297389763779528
 20
-3.258657480314961
 30
0.0
  0
SPLINE
  5
11D
330
1F
100
AcDbEntity
  8
Layer 1
 62
   250
370
     5
100
AcDbSpline
210
0.0
220
0.0
230
1.0
 70
    11
 71
     3
 72
    24
 73
    20
 74
     0
 42
0.0000000001
 43
0.0000000001
 40
0.0
 40
0.0
 40
0.0
 40
0.0
 40
0.2
 40
0.2
 40
0.2
 40
0.2
 40
0.4
 40
0.4
 40
0.4
 40
0.4
 40
0.6000000000000001
 40
0.6000000000000001
 40
0.6000000000000001
 40
0.6000000000000001
 40
0.8
 40
0.8
 40
0.8
 40
0.8
 40
1.0
 40
1.0
 40
1.0
 40
1.0
 10
7.766066929133858
 20
-3.258657480314961
 30
0.0
 10
7.782429133858268
 20
-3.223606299212598
 30
0.0
 10
7.797342519685039
 20
-3.187988188976378
 30
0.0
 10
7.810775590551182
 20
-3.151807086614173
 30
0.0
 10
7.810775590551182
 20
-3.151807086614173
 30
0.0
 10
7.83696062992126
 20
-3.080374015748032
 30
0.0
 10
7.853681102362205
 20
-3.009153543307087
 30
0.0
 10
7.823645669291339
 20
-2.937484251968504
 30
0.0
 10
7.823645669291339
 20
-2.937484251968504
 30
0.0
 10
7.805590551181103
 20
-2.894385826771654
 30
0.0
 10
7.780334645669291
 20
-2.850043307086614
 30
0.0
 10
7.820838582677165
 20
-2.830622047244094
 30
0.0
 10
7.820838582677165
 20
-2.830622047244094
 30
0.0
 10
7.916279527559055
 20
-2.966051181102362
 30
0.0
 10
8.008519685039371
 20
-3.104090551181102
 30
0.0
 10
8.080401574803149
 20
-3.258657480314961
 30
0.0
 10
8.080401574803149
 20
-3.258657480314961
 30
0.0
 10
8.080401574803149
 20
-3.258657480314961
 30
0.0
 10
7.766066929133858
 20
-3.258657480314961
 30
0.0
 10
7.766066929133858
 20
-3.258657480314961
 30
0.0
  0
SPLINE
  5
11E
330
1F
100
AcDbEntity
  8
Layer 1
 62
   250
370
     5
100
AcDbSpline
210
0.0
220
0.0
230
1.0
 70
    11
 71
     3
 72
    20
 73
    16
 74
     0
 42
0.0000000001
 43
0.0000000001
 40
0.0
 40
0.0
 40
0.0
 40
0.0
 40
0.25
 40
0.25
 40
0.25
 40
0.25
 40
0.5
 40
0.5
 40
0.5
 40
0.5
 40
0.75
 40
0.75
 40
0.75
 40
0.75
 40
1.0
 40
1.0
 40
1.0
 40
1.0
 10
6.979476377952756
 20
4.524775590551181
 30
0.0
 10
6.979476377952756
 20
4.524775590551181
 30
0.0
 10
7.458850393700788
 20
4.524775590551181
 30
0.0
 10
7.458850393700788
 20
4.524775590551181
 30
0.0
 10
7.458850393700788
 20
4.524775590551181
 30
0.0
 10
7.414220472440945
 20
4.253496062992126
 30
0.0
 10
7.27646062992126
 20
4.040055118110236
 30
0.0
 10
6.996964566929134
 20
3.914669291338583
 30
0.0
 10
6.996964566929134
 20
3.914669291338583
 30
0.0
 10
7.019314960629922
 20
4.01248031496063
 30
0.0
 10
7.01182283464567
 20
4.106338582677165
 30
0.0
 10
6.990755905511811
 20
4.198385826771654
 30
0.0
 10
6.990755905511811
 20
4.198385826771654
 30
0.0
 10
6.94696062992126
 20
4.335834645669292
 30
0.0
 10
6.943614173228347
 20
4.437059055118111
 30
0.0
 10
6.979476377952756
 20
4.524775590551181
 30
0.0
  0
SPLINE
  5
11F
330
1F
100
AcDbEntity
  8
Layer 1
 62
   250
370
     5
100
AcDbSpline
210
0.0
220
0.0
230
1.0
 70
    11
 71
     3
 72
    16
 73
    12
 74
     0
 42
0.0000000001
 43
0.0000000001
 40
0.0
 40
0.0
 40
0.0
 40
0.0
 40
0.3333333333333333
 40
0.3333333333333333
 40
0.3333333333333333
 40
0.3333333333333333
 40
0.6666666666666666
 40
0.6666666666666666
 40
0.6666666666666666
 40
0.6666666666666666
 40
1.0
 40
1.0
 40
1.0
 40
1.0
 10
7.60994094488189
 20
4.388350393700788
 30
0.0
 10
7.621007874015748
 20
4.432952755905512
 30
0.0
 10
7.629775590551182
 20
4.47848031496063
 30
0.0
 10
7.636606299212599
 20
4.524775590551181
 30
0.0
 10
7.636606299212599
 20
4.524775590551181
 30
0.0
 10
7.636606299212599
 20
4.524775590551181
 30
0.0
 10
7.811216535433071
 20
4.524775590551181
 30
0.0
 10
7.811216535433071
 20
4.524775590551181
 30
0.0
 10
7.811216535433071
 20
4.524775590551181
 30
0.0
 10
7.750535433070867
 20
4.478700787401575
 30
0.0
 10
7.68334251968504
 20
4.433232283464567
 30
0.0
 10
7.60994094488189
 20
4.388350393700788
 30
0.0
  0
SPLINE
  5
120
330
1F
100
AcDbEntity
  8
Layer 1
 62
   250
370
     5
100
AcDbSpline
210
0.0
220
0.0
230
1.0
 70
    11
 71
     3
 72
    20
 73
    16
 74
     0
 42
0.0000000001
 43
0.0000000001
 40
0.0
 40
0.0
 40
0.0
 40
0.0
 40
0.25
 40
0.25
 40
0.25
 40
0.25
 40
0.5
 40
0.5
 40
0.5
 40
0.5
 40
0.75
 40
0.75
 40
0.75
 40
0.75
 40
1.0
 40
1.0
 40
1.0
 40
1.0
 10
11.89356692913386
 20
4.286618110236221
 30
0.0
 10
11.71042125984252
 20
4.282051181102363
 30
0.0
 10
11.5697874015748
 20
4.334602362204724
 30
0.0
 10
11.45824803149606
 20
4.426255905511812
 30
0.0
 10
11.45824803149606
 20
4.426255905511812
 30
0.0
 10
11.4175157480315
 20
4.460122047244095
 30
0.0
 10
11.37812598425197
 20
4.496055118110236
 30
0.0
 10
11.34158661417323
 20
4.53284251968504
 30
0.0
 10
11.34158661417323
 20
4.53284251968504
 30
0.0
 10
11.34158661417323
 20
4.53284251968504
 30
0.0
 10
11.88035433070866
 20
4.536011811023622
 30
0.0
 10
11.88035433070866
 20
4.536011811023622
 30
0.0
 10
11.88035433070866
 20
4.536011811023622
 30
0.0
 10
11.90102362204724
 20
4.470759842519685
 30
0.0
 10
11.90306299212599
 20
4.388830708661417
 30
0.0
 10
11.89356692913386
 20
4.286618110236221
 30
0.0
  0
SPLINE
  5
121
330
1F
100
AcDbEntity
  8
Layer 1
 62
   250
370
     5
100
AcDbSpline
210
0.0
220
0.0
230
1.0
 70
    11
 71
     3
 72
    32
 73
    28
 74
     0
 42
0.0000000001
 43
0.0000000001
 40
0.0
 40
0.0
 40
0.0
 40
0.0
 40
0.1428571428571429
 40
0.1428571428571429
 40
0.1428571428571429
 40
0.1428571428571429
 40
0.2857142857142857
 40
0.2857142857142857
 40
0.2857142857142857
 40
0.2857142857142857
 40
0.4285714285714286
 40
0.4285714285714286
 40
0.4285714285714286
 40
0.4285714285714286
 40
0.5714285714285714
 40
0.5714285714285714
 40
0.5714285714285714
 40
0.5714285714285714
 40
0.7142857142857142
 40
0.7142857142857142
 40
0.7142857142857142
 40
0.7142857142857142
 40
0.857142857142857
 40
0.857142857142857
 40
0.857142857142857
 40
0.857142857142857
 40
1.0
 40
1.0
 40
1.0
 40
1.0
 10
12.1067874015748
 20
4.256688976377953
 30
0.0
 10
12.12913779527559
 20
4.390240157480315
 30
0.0
 10
12.28648818897638
 20
4.481527559055119
 30
0.0
 10
12.4637874015748
 20
4.524775590551181
 30
0.0
 10
12.4637874015748
 20
4.524775590551181
 30
0.0
 10
12.4637874015748
 20
4.524775590551181
 30
0.0
 10
12.46382283464567
 20
4.524775590551181
 30
0.0
 10
12.46382283464567
 20
4.524775590551181
 30
0.0
 10
12.46382283464567
 20
4.524775590551181
 30
0.0
 10
12.46382283464567
 20
4.524775590551181
 30
0.0
 10
12.6756062992126
 20
4.524775590551181
 30
0.0
 10
12.6756062992126
 20
4.524775590551181
 30
0.0
 10
12.6756062992126
 20
4.524775590551181
 30
0.0
 10
12.6756062992126
 20
4.524775590551181
 30
0.0
 10
12.6756062992126
 20
4.422047244094489
 30
0.0
 10
12.6756062992126
 20
4.422047244094489
 30
0.0
 10
12.6756062992126
 20
4.422047244094489
 30
0.0
 10
12.58185433070866
 20
4.356496062992126
 30
0.0
 10
12.50835039370079
 20
4.278433070866142
 30
0.0
 10
12.45396456692913
 20
4.188562992125984
 30
0.0
 10
12.45396456692913
 20
4.188562992125984
 30
0.0
 10
12.35361811023622
 20
4.024165354330709
 30
0.0
 10
12.22948818897638
 20
3.888913385826772
 30
0.0
 10
12.06214173228347
 20
3.806657480314961
 30
0.0
 10
12.06214173228347
 20
3.806657480314961
 30
0.0
 10
12.05580708661417
 20
3.931350393700788
 30
0.0
 10
12.07318110236221
 20
4.084326771653544
 30
0.0
 10
12.1067874015748
 20
4.256688976377953
 30
0.0
  0
SPLINE
  5
122
330
1F
100
AcDbEntity
  8
Layer 1
 62
   250
370
     5
100
AcDbSpline
210
0.0
220
0.0
230
1.0
 70
    11
 71
     3
 72
    20
 73
    16
 74
     0
 42
0.0000000001
 43
0.0000000001
 40
0.0
 40
0.0
 40
0.0
 40
0.0
 40
0.25
 40
0.25
 40
0.25
 40
0.25
 40
0.5
 40
0.5
 40
0.5
 40
0.5
 40
0.75
 40
0.75
 40
0.75
 40
0.75
 40
1.0
 40
1.0
 40
1.0
 40
1.0
 10
5.485688976377953
 20
4.062799212598425
 30
0.0
 10
5.386185039370079
 20
4.198870078740158
 30
0.0
 10
5.377185039370079
 20
4.367858267716535
 30
0.0
 10
5.43363779527559
 20
4.524775590551181
 30
0.0
 10
5.43363779527559
 20
4.524775590551181
 30
0.0
 10
5.43363779527559
 20
4.524775590551181
 30
0.0
 10
5.723677165354331
 20
4.524775590551181
 30
0.0
 10
5.723677165354331
 20
4.524775590551181
 30
0.0
 10
5.723677165354331
 20
4.524775590551181
 30
0.0
 10
5.753610236220473
 20
4.236338582677165
 30
0.0
 10
5.923200787401575
 20
3.951106299212599
 30
0.0
 10
5.999350393700787
 20
3.823976377952756
 30
0.0
 10
5.999350393700787
 20
3.823976377952756
 30
0.0
 10
5.79982283464567
 20
3.831937007874016
 30
0.0
 10
5.631929133858268
 20
3.919972440944882
 30
0.0
 10
5.485688976377953
 20
4.062799212598425
 30
0.0
  0
SPLINE
  5
123
330
1F
100
AcDbEntity
  8
Layer 1
 62
   250
370
     5
100
AcDbSpline
210
0.0
220
0.0
230
1.0
 70
    11
 71
     3
 72
    20
 73
    16
 74
     0
 42
0.0000000001
 43
0.0000000001
 40
0.0
 40
0.0
 40
0.0
 40
0.0
 40
0.25
 40
0.25
 40
0.25
 40
0.25
 40
0.5
 40
0.5
 40
0.5
 40
0.5
 40
0.75
 40
0.75
 40
0.75
 40
0.75
 40
1.0
 40
1.0
 40
1.0
 40
1.0
 10
3.791870078740158
 20
4.377110236220473
 30
0.0
 10
3.804968503937008
 20
4.421807086614173
 30
0.0
 10
3.818212598425197
 20
4.471751968503937
 30
0.0
 10
3.831527559055118
 20
4.524775590551181
 30
0.0
 10
3.831527559055118
 20
4.524775590551181
 30
0.0
 10
3.831527559055118
 20
4.524775590551181
 30
0.0
 10
4.230259842519685
 20
4.524775590551181
 30
0.0
 10
4.230259842519685
 20
4.524775590551181
 30
0.0
 10
4.230259842519685
 20
4.524775590551181
 30
0.0
 10
4.240897637795276
 20
4.510307086614174
 30
0.0
 10
4.251948818897638
 20
4.495826771653544
 30
0.0
 10
4.263366141732283
 20
4.481279527559055
 30
0.0
 10
4.263366141732283
 20
4.481279527559055
 30
0.0
 10
4.071877952755906
 20
4.524236220472441
 30
0.0
 10
3.910125984251969
 20
4.499862204724409
 30
0.0
 10
3.791870078740158
 20
4.377110236220473
 30
0.0
  0
SPLINE
  5
124
330
1F
100
AcDbEntity
  8
Layer 1
 62
   250
370
     5
100
AcDbSpline
210
0.0
220
0.0
230
1.0
 70
    11
 71
     3
 72
    20
 73
    16
 74
     0
 42
0.0000000001
 43
0.0000000001
 40
0.0
 40
0.0
 40
0.0
 40
0.0
 40
0.25
 40
0.25
 40
0.25
 40
0.25
 40
0.5
 40
0.5
 40
0.5
 40
0.5
 40
0.75
 40
0.75
 40
0.75
 40
0.75
 40
1.0
 40
1.0
 40
1.0
 40
1.0
 10
6.081618110236221
 20
3.986720472440945
 30
0.0
 10
6.029318897637795
 20
4.150551181102363
 30
0.0
 10
5.969169291338583
 20
4.309657480314961
 30
0.0
 10
5.903086614173229
 20
4.465200787401575
 30
0.0
 10
5.903086614173229
 20
4.465200787401575
 30
0.0
 10
5.892169291338583
 20
4.485874015748031
 30
0.0
 10
5.882590551181103
 20
4.505700787401575
 30
0.0
 10
5.874374015748032
 20
4.524775590551181
 30
0.0
 10
5.874374015748032
 20
4.524775590551181
 30
0.0
 10
5.874374015748032
 20
4.524775590551181
 30
0.0
 10
6.224102362204724
 20
4.524775590551181
 30
0.0
 10
6.224102362204724
 20
4.524775590551181
 30
0.0
 10
6.224102362204724
 20
4.524775590551181
 30
0.0
 10
6.223551181102362
 20
4.288377952755906
 30
0.0
 10
6.176830708661417
 20
4.053913385826772
 30
0.0
 10
6.081618110236221
 20
3.986720472440945
 30
0.0
  0
SPLINE
  5
125
330
1F
100
AcDbEntity
  8
Layer 1
 62
   250
370
     5
100
AcDbSpline
210
0.0
220
0.0
230
1.0
 70
    11
 71
     3
 72
    20
 73
    16
 74
     0
 42
0.0000000001
 43
0.0000000001
 40
0.0
 40
0.0
 40
0.0
 40
0.0
 40
0.25
 40
0.25
 40
0.25
 40
0.25
 40
0.5
 40
0.5
 40
0.5
 40
0.5
 40
0.75
 40
0.75
 40
0.75
 40
0.75
 40
1.0
 40
1.0
 40
1.0
 40
1.0
 10
7.28176377952756
 20
3.829811023622047
 30
0.0
 10
7.568051181102362
 20
4.005452755905512
 30
0.0
 10
7.688122047244095
 20
4.195165354330709
 30
0.0
 10
7.967818897637796
 20
4.336129921259842
 30
0.0
 10
7.967818897637796
 20
4.336129921259842
 30
0.0
 10
7.967818897637796
 20
4.336129921259842
 30
0.0
 10
8.076641732283465
 20
4.228598425196851
 30
0.0
 10
8.076641732283465
 20
4.228598425196851
 30
0.0
 10
8.076641732283465
 20
4.228598425196851
 30
0.0
 10
8.214925196850395
 20
4.049062992125984
 30
0.0
 10
8.023838582677167
 20
3.926342519685039
 30
0.0
 10
7.997433070866142
 20
3.775216535433071
 30
0.0
 10
7.997433070866142
 20
3.775216535433071
 30
0.0
 10
7.710240157480316
 20
3.831948818897638
 30
0.0
 10
7.621429133858268
 20
3.687307086614173
 30
0.0
 10
7.28176377952756
 20
3.829811023622047
 30
0.0
  0
SPLINE
  5
126
330
1F
100
AcDbEntity
  8
Layer 1
 62
   250
370
     5
100
AcDbSpline
210
0.0
220
0.0
230
1.0
 70
    11
 71
     3
 72
    24
 73
    20
 74
     0
 42
0.0000000001
 43
0.0000000001
 40
0.0
 40
0.0
 40
0.0
 40
0.0
 40
0.2
 40
0.2
 40
0.2
 40
0.2
 40
0.4
 40
0.4
 40
0.4
 40
0.4
 40
0.6000000000000001
 40
0.6000000000000001
 40
0.6000000000000001
 40
0.6000000000000001
 40
0.8
 40
0.8
 40
0.8
 40
0.8
 40
1.0
 40
1.0
 40
1.0
 40
1.0
 10
8.261830708661417
 20
4.328267716535433
 30
0.0
 10
8.44694094488189
 20
4.379295275590551
 30
0.0
 10
8.61746062992126
 20
4.309944881889764
 30
0.0
 10
8.817161417322835
 20
4.48138188976378
 30
0.0
 10
8.817161417322835
 20
4.48138188976378
 30
0.0
 10
8.874244094488189
 20
4.472795275590552
 30
0.0
 10
8.74072440944882
 20
4.154976377952756
 30
0.0
 10
8.70251968503937
 20
3.991767716535433
 30
0.0
 10
8.70251968503937
 20
3.991767716535433
 30
0.0
 10
8.671133858267718
 20
3.866645669291339
 30
0.0
 10
8.540952755905511
 20
3.804279527559055
 30
0.0
 10
8.516507874015748
 20
3.722759842519685
 30
0.0
 10
8.516507874015748
 20
3.722759842519685
 30
0.0
 10
8.516507874015748
 20
3.722759842519685
 30
0.0
 10
8.192220472440946
 20
3.788413385826772
 30
0.0
 10
8.192220472440946
 20
3.788413385826772
 30
0.0
 10
8.192220472440946
 20
3.788413385826772
 30
0.0
 10
8.331334645669292
 20
3.989200787401575
 30
0.0
 10
8.386696850393701
 20
4.126507874015748
 30
0.0
 10
8.261830708661417
 20
4.328267716535433
 30
0.0
  0
SPLINE
  5
127
330
1F
100
AcDbEntity
  8
Layer 1
 62
   250
370
     5
100
AcDbSpline
210
0.0
220
0.0
230
1.0
 70
    11
 71
     3
 72
    24
 73
    20
 74
     0
 42
0.0000000001
 43
0.0000000001
 40
0.0
 40
0.0
 40
0.0
 40
0.0
 40
0.2
 40
0.2
 40
0.2
 40
0.2
 40
0.4
 40
0.4
 40
0.4
 40
0.4
 40
0.6000000000000001
 40
0.6000000000000001
 40
0.6000000000000001
 40
0.6000000000000001
 40
0.8
 40
0.8
 40
0.8
 40
0.8
 40
1.0
 40
1.0
 40
1.0
 40
1.0
 10
12.52824409448819
 20
3.689031496062992
 30
0.0
 10
12.5845157480315
 20
3.687082677165355
 30
0.0
 10
12.63242125984252
 20
3.69134251968504
 30
0.0
 10
12.6756062992126
 20
3.698866141732284
 30
0.0
 10
12.6756062992126
 20
3.698866141732284
 30
0.0
 10
12.6756062992126
 20
3.698866141732284
 30
0.0
 10
12.6756062992126
 20
3.164472440944882
 30
0.0
 10
12.6756062992126
 20
3.164472440944882
 30
0.0
 10
12.6756062992126
 20
3.164472440944882
 30
0.0
 10
12.66484251968504
 20
3.156169291338583
 30
0.0
 10
12.65377165354331
 20
3.147889763779528
 30
0.0
 10
12.64237795275591
 20
3.139669291338583
 30
0.0
 10
12.64237795275591
 20
3.139669291338583
 30
0.0
 10
12.64237795275591
 20
3.139669291338583
 30
0.0
 10
12.5186220472441
 20
3.228484251968504
 30
0.0
 10
12.5186220472441
 20
3.228484251968504
 30
0.0
 10
12.5186220472441
 20
3.228484251968504
 30
0.0
 10
12.35484645669291
 20
3.383720472440945
 30
0.0
 10
12.52504330708661
 20
3.535515748031496
 30
0.0
 10
12.52824409448819
 20
3.689031496062992
 30
0.0
  0
SPLINE
  5
128
330
1F
100
AcDbEntity
  8
Layer 1
 62
   250
370
     5
100
AcDbSpline
210
0.0
220
0.0
230
1.0
 70
    11
 71
     3
 72
    24
 73
    20
 74
     0
 42
0.0000000001
 43
0.0000000001
 40
0.0
 40
0.0
 40
0.0
 40
0.0
 40
0.2
 40
0.2
 40
0.2
 40
0.2
 40
0.4
 40
0.4
 40
0.4
 40
0.4
 40
0.6000000000000001
 40
0.6000000000000001
 40
0.6000000000000001
 40
0.6000000000000001
 40
0.8
 40
0.8
 40
0.8
 40
0.8
 40
1.0
 40
1.0
 40
1.0
 40
1.0
 10
11.86451968503937
 20
3.362295275590551
 30
0.0
 10
11.87660236220473
 20
3.490909448818898
 30
0.0
 10
11.99574015748032
 20
3.573358267716535
 30
0.0
 10
12.00756692913386
 20
3.657787401574803
 30
0.0
 10
12.00756692913386
 20
3.657787401574803
 30
0.0
 10
12.00756692913386
 20
3.657787401574803
 30
0.0
 10
12.3378188976378
 20
3.64482283464567
 30
0.0
 10
12.3378188976378
 20
3.64482283464567
 30
0.0
 10
12.3378188976378
 20
3.64482283464567
 30
0.0
 10
12.23079527559055
 20
3.424232283464567
 30
0.0
 10
12.19688582677165
 20
3.279728346456693
 30
0.0
 10
12.35076377952756
 20
3.100425196850394
 30
0.0
 10
12.35076377952756
 20
3.100425196850394
 30
0.0
 10
12.17563779527559
 20
3.020377952755906
 30
0.0
 10
11.99670472440945
 20
3.061610236220473
 30
0.0
 10
11.82537401574803
 20
2.860311023622047
 30
0.0
 10
11.82537401574803
 20
2.860311023622047
 30
0.0
 10
11.76768897637795
 20
2.859669291338583
 30
0.0
 10
11.85146850393701
 20
3.19496062992126
 30
0.0
 10
11.86451968503937
 20
3.362295275590551
 30
0.0
  0
SPLINE
  5
129
330
1F
100
AcDbEntity
  8
Layer 1
 62
   250
370
     5
100
AcDbSpline
210
0.0
220
0.0
230
1.0
 70
    11
 71
     3
 72
    16
 73
    12
 74
     0
 42
0.0000000001
 43
0.0000000001
 40
0.0
 40
0.0
 40
0.0
 40
0.0
 40
0.3333333333333333
 40
0.3333333333333333
 40
0.3333333333333333
 40
0.3333333333333333
 40
0.6666666666666666
 40
0.6666666666666666
 40
0.6666666666666666
 40
0.6666666666666666
 40
1.0
 40
1.0
 40
1.0
 40
1.0
 10
12.29658661417323
 20
-2.891429133858268
 30
0.0
 10
12.25438976377953
 20
-2.760566929133859
 30
0.0
 10
12.3991220472441
 20
-2.529
 30
0.0
 10
12.6756062992126
 20
-2.370248031496063
 30
0.0
 10
12.6756062992126
 20
-2.370248031496063
 30
0.0
 10
12.6756062992126
 20
-2.370248031496063
 30
0.0
 10
12.6756062992126
 20
-2.809153543307087
 30
0.0
 10
12.6756062992126
 20
-2.809153543307087
 30
0.0
 10
12.6756062992126
 20
-2.809153543307087
 30
0.0
 10
12.5682874015748
 20
-2.804244094488189
 30
0.0
 10
12.44304330708662
 20
-2.822358267716536
 30
0.0
 10
12.29658661417323
 20
-2.891429133858268
 30
0.0
  0
SPLINE
  5
12A
330
1F
100
AcDbEntity
  8
Layer 1
 62
   250
370
     5
100
AcDbSpline
210
0.0
220
0.0
230
1.0
 70
    11
 71
     3
 72
    24
 73
    20
 74
     0
 42
0.0000000001
 43
0.0000000001
 40
0.0
 40
0.0
 40
0.0
 40
0.0
 40
0.2
 40
0.2
 40
0.2
 40
0.2
 40
0.4
 40
0.4
 40
0.4
 40
0.4
 40
0.6000000000000001
 40
0.6000000000000001
 40
0.6000000000000001
 40
0.6000000000000001
 40
0.8
 40
0.8
 40
0.8
 40
0.8
 40
1.0
 40
1.0
 40
1.0
 40
1.0
 10
-5.290909448818898
 20
-3.151807086614173
 30
0.0
 10
-5.264732283464567
 20
-3.080374015748032
 30
0.0
 10
-5.248011811023623
 20
-3.009169291338583
 30
0.0
 10
-5.278051181102362
 20
-2.937484251968504
 30
0.0
 10
-5.278051181102362
 20
-2.937484251968504
 30
0.0
 10
-5.296082677165354
 20
-2.894385826771654
 30
0.0
 10
-5.321350393700787
 20
-2.850043307086614
 30
0.0
 10
-5.280854330708662
 20
-2.830622047244094
 30
0.0
 10
-5.280854330708662
 20
-2.830622047244094
 30
0.0
 10
-5.185429133858268
 20
-2.966051181102362
 30
0.0
 10
-5.093185039370079
 20
-3.104074803149607
 30
0.0
 10
-5.021307086614174
 20
-3.258653543307087
 30
0.0
 10
-5.021307086614174
 20
-3.258653543307087
 30
0.0
 10
-5.021307086614174
 20
-3.258653543307087
 30
0.0
 10
-5.335622047244095
 20
-3.258657480314961
 30
0.0
 10
-5.335622047244095
 20
-3.258657480314961
 30
0.0
 10
-5.335622047244095
 20
-3.258657480314961
 30
0.0
 10
-5.319263779527559
 20
-3.223606299212598
 30
0.0
 10
-5.304346456692914
 20
-3.187988188976378
 30
0.0
 10
-5.290909448818898
 20
-3.151807086614173
 30
0.0
  0
SPLINE
  5
12B
330
1F
100
AcDbEntity
  8
Layer 1
 62
   250
370
     5
100
AcDbSpline
210
0.0
220
0.0
230
1.0
 70
    11
 71
     3
 72
    16
 73
    12
 74
     0
 42
0.0000000001
 43
0.0000000001
 40
0.0
 40
0.0
 40
0.0
 40
0.0
 40
0.3333333333333333
 40
0.3333333333333333
 40
0.3333333333333333
 40
0.3333333333333333
 40
0.6666666666666666
 40
0.6666666666666666
 40
0.6666666666666666
 40
0.6666666666666666
 40
1.0
 40
1.0
 40
1.0
 40
1.0
 10
10.36367716535433
 20
3.173673228346457
 30
0.0
 10
10.46158267716536
 20
3.352606299212599
 30
0.0
 10
10.61435433070866
 20
3.466086614173229
 30
0.0
 10
10.80467322834646
 20
3.534771653543307
 30
0.0
 10
10.80467322834646
 20
3.534771653543307
 30
0.0
 10
11.14108267716535
 20
3.594551181102363
 30
0.0
 10
11.42361811023622
 20
3.238909448818898
 30
0.0
 10
11.4091062992126
 20
2.846464566929134
 30
0.0
 10
11.4091062992126
 20
2.846464566929134
 30
0.0
 10
11.19020078740158
 20
3.238015748031496
 30
0.0
 10
10.57881496062992
 20
3.191047244094488
 30
0.0
 10
10.36367716535433
 20
3.173673228346457
 30
0.0
  0
SPLINE
  5
12C
330
1F
100
AcDbEntity
  8
Layer 1
 62
   250
370
     5
100
AcDbSpline
210
0.0
220
0.0
230
1.0
 70
    11
 71
     3
 72
    20
 73
    16
 74
     0
 42
0.0000000001
 43
0.0000000001
 40
0.0
 40
0.0
 40
0.0
 40
0.0
 40
0.25
 40
0.25
 40
0.25
 40
0.25
 40
0.5
 40
0.5
 40
0.5
 40
0.5
 40
0.75
 40
0.75
 40
0.75
 40
0.75
 40
1.0
 40
1.0
 40
1.0
 40
1.0
 10
11.96525590551181
 20
1.315334645669291
 30
0.0
 10
11.92930708661417
 20
1.41046062992126
 30
0.0
 10
12.23025196850394
 20
1.936177165354331
 30
0.0
 10
12.36275590551181
 20
2.246590551181102
 30
0.0
 10
12.36275590551181
 20
2.246590551181102
 30
0.0
 10
12.37525984251969
 20
2.074271653543307
 30
0.0
 10
12.48296850393701
 20
1.947818897637795
 30
0.0
 10
12.6557874015748
 20
1.852759842519685
 30
0.0
 10
12.6557874015748
 20
1.852759842519685
 30
0.0
 10
12.41065748031496
 20
1.805472440944882
 30
0.0
 10
12.22852755905512
 20
1.718598425196851
 30
0.0
 10
12.07684645669291
 20
1.491566929133858
 30
0.0
 10
12.07684645669291
 20
1.491566929133858
 30
0.0
 10
12.042
 20
1.439397637795276
 30
0.0
 10
12.00441338582677
 20
1.358338582677166
 30
0.0
 10
11.96525590551181
 20
1.315334645669291
 30
0.0
  0
SPLINE
  5
12D
330
1F
100
AcDbEntity
  8
Layer 1
 62
   250
370
     5
100
AcDbSpline
210
0.0
220
0.0
230
1.0
 70
    11
 71
     3
 72
    20
 73
    16
 74
     0
 42
0.0000000001
 43
0.0000000001
 40
0.0
 40
0.0
 40
0.0
 40
0.0
 40
0.25
 40
0.25
 40
0.25
 40
0.25
 40
0.5
 40
0.5
 40
0.5
 40
0.5
 40
0.75
 40
0.75
 40
0.75
 40
0.75
 40
1.0
 40
1.0
 40
1.0
 40
1.0
 10
12.5953937007874
 20
4.112555118110237
 30
0.0
 10
12.61826771653543
 20
4.147937007874016
 30
0.0
 10
12.64466929133858
 20
4.18438188976378
 30
0.0
 10
12.6756062992126
 20
4.219043307086614
 30
0.0
 10
12.6756062992126
 20
4.219043307086614
 30
0.0
 10
12.6756062992126
 20
4.219043307086614
 30
0.0
 10
12.6756062992126
 20
3.890322834645669
 30
0.0
 10
12.6756062992126
 20
3.890322834645669
 30
0.0
 10
12.6756062992126
 20
3.890322834645669
 30
0.0
 10
12.56785039370079
 20
3.865681102362205
 30
0.0
 10
12.45864173228346
 20
3.848787401574803
 30
0.0
 10
12.36026377952756
 20
3.878645669291339
 30
0.0
 10
12.36026377952756
 20
3.878645669291339
 30
0.0
 10
12.51774015748032
 20
3.959476377952756
 30
0.0
 10
12.53403149606299
 20
4.017629921259843
 30
0.0
 10
12.5953937007874
 20
4.112555118110237
 30
0.0
  0
ENDSEC
  0
SECTION
  2
OBJECTS
  0
DICTIONARY
  5
C
330
0
100
AcDbDictionary
281
     1
  3
ACAD_GROUP
350
D
  3
ACAD_LAYOUT
350
1A
  3
ACAD_MLINESTYLE
350
17
  3
ACAD_PLOTSETTINGS
350
19
  3
ACAD_PLOTSTYLENAME
350
E
  0
DICTIONARY
  5
D
102
{ACAD_REACTORS
330
C
102
}
330
C
100
AcDbDictionary
281
     1
  0
DICTIONARY
  5
1A
102
{ACAD_REACTORS
330
C
102
}
330
C
100
AcDbDictionary
281
     1
  3
Layout1
350
1E
  3
Layout2
350
26
  3
Model
350
22
  0
DICTIONARY
  5
17
102
{ACAD_REACTORS
330
C
102
}
330
C
100
AcDbDictionary
281
     1
  3
Standard
350
18
  0
DICTIONARY
  5
19
102
{ACAD_REACTORS
330
C
102
}
330
C
100
AcDbDictionary
281
     1
  0
ACDBDICTIONARYWDFLT
  5
E
102
{ACAD_REACTORS
330
C
102
}
330
C
100
AcDbDictionary
281
     1
  3
Normal
350
F
100
AcDbDictionaryWithDefault
340
F
  0
LAYOUT
  5
1E
102
{ACAD_REACTORS
330
1A
102
}
330
1A
100
AcDbPlotSettings
  1

  2

  4

  6

 40
0.0
 41
0.0
 42
0.0
 43
0.0
 44
0.0
 45
0.0
 46
0.0
 47
0.0
 48
0.0
 49
0.0
140
0.0
141
0.0
142
1.0
143
1.0
 70
   688
 72
     0
 73
     0
 74
     5
  7

 75
    16
 76
     0
 77
     2
 78
   300
147
1.0
148
0.0
149
0.0
100
AcDbLayout
  1
Layout1
 70
     1
 71
     1
 10
0.0
 20
0.0
 11
12.0
 21
9.0
 12
0.0
 22
0.0
 32
0.0
 14
1.000000000000000E+20
 24
1.000000000000000E+20
 34
1.000000000000000E+20
 15
-1.000000000000000E+20
 25
-1.000000000000000E+20
 35
-1.000000000000000E+20
146
0.0
 13
0.0
 23
0.0
 33
0.0
 16
1.0
 26
0.0
 36
0.0
 17
0.0
 27
1.0
 37
0.0
 76
     0
330
1B
  0
LAYOUT
  5
26
102
{ACAD_REACTORS
330
1A
102
}
330
1A
100
AcDbPlotSettings
  1

  2

  4

  6

 40
0.0
 41
0.0
 42
0.0
 43
0.0
 44
0.0
 45
0.0
 46
0.0
 47
0.0
 48
0.0
 49
0.0
140
0.0
141
0.0
142
1.0
143
1.0
 70
   688
 72
     0
 73
     0
 74
     5
  7

 75
    16
 76
     0
 77
     2
 78
   300
147
1.0
148
0.0
149
0.0
100
AcDbLayout
  1
Layout2
 70
     1
 71
     2
 10
0.0
 20
0.0
 11
0.0
 21
0.0
 12
0.0
 22
0.0
 32
0.0
 14
0.0
 24
0.0
 34
0.0
 15
0.0
 25
0.0
 35
0.0
146
0.0
 13
0.0
 23
0.0
 33
0.0
 16
1.0
 26
0.0
 36
0.0
 17
0.0
 27
1.0
 37
0.0
 76
     0
330
23
  0
LAYOUT
  5
22
102
{ACAD_REACTORS
330
1A
102
}
330
1A
100
AcDbPlotSettings
  1

  2

  4

  6

 40
0.0
 41
0.0
 42
0.0
 43
0.0
 44
0.0
 45
0.0
 46
0.0
 47
0.0
 48
0.0
 49
0.0
140
0.0
141
0.0
142
1.0
143
1.0
 70
  1712
 72
     0
 73
     0
 74
     0
  7

 75
     0
 76
     0
 77
     2
 78
   300
147
1.0
148
0.0
149
0.0
100
AcDbLayout
  1
Model
 70
     1
 71
     0
 10
0.0
 20
0.0
 11
0.0
 21
0.0
 12
0.0
 22
0.0
 32
0.0
 14
-11.51780708661417
 24
-3.740531496062992
 34
0.0
 15
13.17335039370079
 25
5.018854330708662
 35
0.0
146
0.0
 13
0.0
 23
0.0
 33
0.0
 16
1.0
 26
0.0
 36
0.0
 17
0.0
 27
1.0
 37
0.0
 76
     0
330
1F
  0
MLINESTYLE
  5
18
102
{ACAD_REACTORS
330
17
102
}
330
17
100
AcDbMlineStyle
  2
Standard
 70
     0
  3

 62
   256
 51
90.0
 52
90.0
 71
     2
 49
0.5
 62
   256
  6
BYLAYER
 49
-0.5
 62
   256
  6
BYLAYER
  0
ACDBPLACEHOLDER
  5
F
102
{ACAD_REACTORS
330
E
102
}
330
E
  0
ENDSEC
  0
EOF
