  0
SECTION
  2
HEADER
  9
$ACADVER
  1
AC1014
  9
$HANDSEED
  5
FFFF
  9
$MEASUREMENT
 70
     1
  0
ENDSEC
  0
SECTION
  2
TABLES
  0
TABLE
  2
VPORT
  5
8
330
0
100
AcDbSymbolTable
 70
     4
  0
VPORT
  5
2E
330
8
100
AcDbSymbolTableRecord
100
AcDbViewportTableRecord
  2
*ACTIVE
 70
     0
 10
0.0
 20
0.0
 11
1.0
 21
1.0
 12
210.0
 22
148.5
 13
0.0
 23
0.0
 14
10.0
 24
10.0
 15
10.0
 25
10.0
 16
0.0
 26
0.0
 36
1.0
 17
0.0
 27
0.0
 37
0.0
 40
341.0
 41
1.24
 42
50.0
 43
0.0
 44
0.0
 50
0.0
 51
0.0
 71
     0
 72
   100
 73
     1
 74
     3
 75
     0
 76
     0
 77
     0
 78
     0
  0
ENDTAB
  0
TABLE
  2
LTYPE
  5
5
330
0
100
AcDbSymbolTable
 70
     1
  0
LTYPE
  5
14
330
5
100
AcDbSymbolTableRecord
100
AcDbLinetypeTableRecord
  2
BYBLOCK
 70
     0
  3

 72
    65
 73
     0
 40
0.0
  0
LTYPE
  5
15
330
5
100
AcDbSymbolTableRecord
100
AcDbLinetypeTableRecord
  2
BYLAYER
 70
     0
  3

 72
    65
 73
     0
 40
0.0
  0
LTYPE
  5
16
330
5
100
AcDbSymbolTableRecord
100
AcDbLinetypeTableRecord
  2
CONTINUOUS
 70
     0
  3
Solid line
 72
    65
 73
     0
 40
0.0
  0
ENDTAB
  0
TABLE
  2
LAYER
  5
2
100
AcDbSymbolTable
 70
1
  0
LAYER
  5
50
100
AcDbSymbolTableRecord
100
AcDbLayerTableRecord
  2
0
 70
0
  6
CONTINUOUS
  0
ENDTAB
  0
TABLE
  2
STYLE
  5
3
330
0
100
AcDbSymbolTable
 70
     1
  0
STYLE
  5
11
330
3
100
AcDbSymbolTableRecord
100
AcDbTextStyleTableRecord
  2
STANDARD
 70
     0
 40
0.0
 41
1.0
 50
0.0
 71
     0
 42
2.5
  3
txt
  4

  0
ENDTAB
  0
TABLE
  2
VIEW
  5
6
330
0
100
AcDbSymbolTable
 70
     0
  0
ENDTAB
  0
TABLE
  2
UCS
  5
7
330
0
100
AcDbSymbolTable
 70
     0
  0
ENDTAB
  0
TABLE
  2
APPID
  5
9
330
0
100
AcDbSymbolTable
 70
     2
  0
APPID
  5
12
330
9
100
AcDbSymbolTableRecord
100
AcDbRegAppTableRecord
  2
ACAD
 70
     0
  0
ENDTAB
  0
TABLE
  2
DIMSTYLE
  5
A
330
0
100
AcDbSymbolTable
 70
     1
  0
DIMSTYLE
105
27
330
A
100
AcDbSymbolTableRecord
100
AcDbDimStyleTableRecord
  2
ISO-25
 70
     0
  3

  4

  5

  6

  7

 40
1.0
 41
2.5
 42
0.625
 43
3.75
 44
1.25
 45
0.0
 46
0.0
 47
0.0
 48
0.0
140
2.5
141
2.5
142
0.0
143
0.03937007874016
144
1.0
145
0.0
146
1.0
147
0.625
 71
     0
 72
     0
 73
     0
 74
     0
 75
     0
 76
     0
 77
     1
 78
     8
170
     0
171
     3
172
     1
173
     0
174
     0
175
     0
176
     0
177
     0
178
     0
270
     2
271
     2
272
     2
273
     2
274
     3
340
11
275
     0
280
     0
281
     0
282
     0
283
     0
284
     8
285
     0
286
     0
287
     3
288
     0
  0
ENDTAB
  0
TABLE
  2
BLOCK_RECORD
  5
1
330
0
100
AcDbSymbolTable
 70
     1
  0
BLOCK_RECORD
  5
1F
330
1
100
AcDbSymbolTableRecord
100
AcDbBlockTableRecord
  2
*MODEL_SPACE
  0
BLOCK_RECORD
  5
1B
330
1
100
AcDbSymbolTableRecord
100
AcDbBlockTableRecord
  2
*PAPER_SPACE
  0
ENDTAB
  0
ENDSEC
  0
SECTION
  2
BLOCKS
  0
BLOCK
  5
20
330
1F
100
AcDbEntity
  8
0
100
AcDbBlockBegin
  2
*MODEL_SPACE
 70
     0
 10
0.0
 20
0.0
 30
0.0
  3
*MODEL_SPACE
  1

  0
ENDBLK
  5
21
330
1F
100
AcDbEntity
  8
0
100
AcDbBlockEnd
  0
BLOCK
  5
1C
330
1B
100
AcDbEntity
 67
     1
  8
0
100
AcDbBlockBegin
  2
*PAPER_SPACE
  1

  0
ENDBLK
  5
1D
330
1B
100
AcDbEntity
 67
     1
  8
0
100
AcDbBlockEnd
  0
ENDSEC
  0
SECTION
  2
ENTITIES
  0
SPLINE
  5
100
100
AcDbEntity
  8
0
 62
7
100
AcDbSpline
 70
8
 71
3
 72
8
 73
4
 74
0
 40
0
 40
0
 40
0
 40
0
 40
1
 40
1
 40
1
 40
1
 10
103.031663
 20
0.414742
 30
0.0
 10
102.667861
 20
0.476890
 30
0.0
 10
101.298642
 20
0.661646
 30
0.0
 10
99.988955
 20
0.825304
 30
0.0
  0
SPLINE
  5
101
100
AcDbEntity
  8
0
 62
7
100
AcDbSpline
 70
8
 71
3
 72
8
 73
4
 74
0
 40
0
 40
0
 40
0
 40
0
 40
1
 40
1
 40
1
 40
1
 10
99.988955
 20
0.825304
 30
0.0
 10
97.526105
 20
1.133065
 30
0.0
 10
91.410568
 20
2.576621
 30
0.0
 10
89.819893
 20
3.225684
 30
0.0
  0
SPLINE
  5
102
100
AcDbEntity
  8
0
 62
7
100
AcDbSpline
 70
8
 71
3
 72
8
 73
4
 74
0
 40
0
 40
0
 40
0
 40
0
 40
1
 40
1
 40
1
 40
1
 10
89.665336
 20
4.291576
 30
0.0
 10
90.358791
 20
4.934582
 30
0.0
 10
91.130437
 20
5.230307
 30
0.0
 10
95.466255
 20
6.514703
 30
0.0
  0
SPLINE
  5
103
100
AcDbEntity
  8
0
 62
7
100
AcDbSpline
 70
8
 71
3
 72
8
 73
4
 74
0
 40
0
 40
0
 40
0
 40
0
 40
1
 40
1
 40
1
 40
1
 10
95.466255
 20
6.514703
 30
0.0
 10
97.068129
 20
6.989225
 30
0.0
 10
102.191577
 20
9.456997
 30
0.0
 10
108.058746
 20
12.580030
 30
0.0
  0
SPLINE
  5
104
100
AcDbEntity
  8
0
 62
7
100
AcDbSpline
 70
8
 71
3
 72
8
 73
4
 74
0
 40
0
 40
0
 40
0
 40
0
 40
1
 40
1
 40
1
 40
1
 10
108.058746
 20
12.580030
 30
0.0
 10
111.582414
 20
14.455643
 30
0.0
 10
116.220706
 20
16.532484
 30
0.0
 10
116.426440
 20
16.326750
 30
0.0
  0
SPLINE
  5
105
100
AcDbEntity
  8
0
 62
7
100
AcDbSpline
 70
8
 71
3
 72
8
 73
4
 74
0
 40
0
 40
0
 40
0
 40
0
 40
1
 40
1
 40
1
 40
1
 10
116.426440
 20
16.326750
 30
0.0
 10
116.829978
 20
15.923212
 30
0.0
 10
102.280805
 20
7.933433
 30
0.0
 10
96.504540
 20
5.386499
 30
0.0
  0
SPLINE
  5
106
100
AcDbEntity
  8
0
 62
7
100
AcDbSpline
 70
8
 71
3
 72
8
 73
4
 74
0
 40
0
 40
0
 40
0
 40
0
 40
1
 40
1
 40
1
 40
1
 10
96.504540
 20
5.386499
 30
0.0
 10
92.458815
 20
3.602614
 30
0.0
 10
92.423427
 20
3.720018
 30
0.0
 10
97.352432
 20
2.573557
 30
0.0
  0
SPLINE
  5
107
100
AcDbEntity
  8
0
 62
7
100
AcDbSpline
 70
8
 71
3
 72
8
 73
4
 74
0
 40
0
 40
0
 40
0
 40
0
 40
1
 40
1
 40
1
 40
1
 10
97.352432
 20
2.573557
 30
0.0
 10
101.151746
 20
1.689857
 30
0.0
 10
101.610067
 20
1.618739
 30
0.0
 10
105.262540
 20
1.346137
 30
0.0
  0
SPLINE
  5
108
100
AcDbEntity
  8
0
 62
7
100
AcDbSpline
 70
8
 71
3
 72
8
 73
4
 74
0
 40
0
 40
0
 40
0
 40
0
 40
1
 40
1
 40
1
 40
1
 10
105.262540
 20
1.346137
 30
0.0
 10
111.525973
 20
0.878668
 30
0.0
 10
117.203606
 20
1.861413
 30
0.0
 10
122.040444
 20
4.250238
 30
0.0
  0
SPLINE
  5
109
100
AcDbEntity
  8
0
 62
7
100
AcDbSpline
 70
8
 71
3
 72
8
 73
4
 74
0
 40
0
 40
0
 40
0
 40
0
 40
1
 40
1
 40
1
 40
1
 10
122.040444
 20
4.250238
 30
0.0
 10
124.354566
 20
5.393137
 30
0.0
 10
125.135727
 20
5.956586
 30
0.0
 10
127.097314
 20
7.897733
 30
0.0
  0
SPLINE
  5
10a
100
AcDbEntity
  8
0
 62
7
100
AcDbSpline
 70
8
 71
3
 72
8
 73
4
 74
0
 40
0
 40
0
 40
0
 40
0
 40
1
 40
1
 40
1
 40
1
 10
127.097314
 20
7.897733
 30
0.0
 10
129.073825
 20
9.853647
 30
0.0
 10
129.595896
 20
10.565109
 30
0.0
 10
130.623815
 20
12.703532
 30
0.0
  0
SPLINE
  5
10b
100
AcDbEntity
  8
0
 62
7
100
AcDbSpline
 70
8
 71
3
 72
8
 73
4
 74
0
 40
0
 40
0
 40
0
 40
0
 40
1
 40
1
 40
1
 40
1
 10
130.623815
 20
12.703532
 30
0.0
 10
132.230320
 20
16.045617
 30
0.0
 10
132.792690
 20
18.619158
 30
0.0
 10
132.791163
 20
22.621875
 30
0.0
  0
SPLINE
  5
10c
100
AcDbEntity
  8
0
 62
7
100
AcDbSpline
 70
8
 71
3
 72
8
 73
4
 74
0
 40
0
 40
0
 40
0
 40
0
 40
1
 40
1
 40
1
 40
1
 10
132.791163
 20
22.621875
 30
0.0
 10
132.789840
 20
26.022602
 30
0.0
 10
132.328026
 20
28.219043
 30
0.0
 10
131.365231
 20
29.403408
 30
0.0
  0
SPLINE
  5
10d
100
AcDbEntity
  8
0
 62
7
100
AcDbSpline
 70
8
 71
3
 72
8
 73
4
 74
0
 40
0
 40
0
 40
0
 40
0
 40
1
 40
1
 40
1
 40
1
 10
131.365231
 20
29.403408
 30
0.0
 10
130.872585
 20
30.009428
 30
0.0
 10
130.749442
 20
30.027510
 30
0.0
 10
127.651100
 20
29.948836
 30
0.0
  0
SPLINE
  5
10e
100
AcDbEntity
  8
0
 62
7
100
AcDbSpline
 70
8
 71
3
 72
8
 73
4
 74
0
 40
0
 40
0
 40
0
 40
0
 40
1
 40
1
 40
1
 40
1
 10
127.651100
 20
29.948836
 30
0.0
 10
125.888575
 20
29.904081
 30
0.0
 10
124.215782
 20
29.940687
 30
0.0
 10
123.933775
 20
30.030198
 30
0.0
  0
SPLINE
  5
10f
100
AcDbEntity
  8
0
 62
7
100
AcDbSpline
 70
8
 71
3
 72
8
 73
4
 74
0
 40
0
 40
0
 40
0
 40
0
 40
1
 40
1
 40
1
 40
1
 10
123.933775
 20
30.030198
 30
0.0
 10
123.651772
 20
30.119704
 30
0.0
 10
123.100759
 20
30.781400
 30
0.0
 10
122.709302
 20
31.500633
 30
0.0
  0
SPLINE
  5
110
100
AcDbEntity
  8
0
 62
7
100
AcDbSpline
 70
8
 71
3
 72
8
 73
4
 74
0
 40
0
 40
0
 40
0
 40
0
 40
1
 40
1
 40
1
 40
1
 10
122.709302
 20
31.500633
 30
0.0
 10
122.008302
 20
32.788603
 30
0.0
 10
121.978317
 20
32.808333
 30
0.0
 10
120.721935
 20
32.808333
 30
0.0
  0
SPLINE
  5
111
100
AcDbEntity
  8
0
 62
7
100
AcDbSpline
 70
8
 71
3
 72
8
 73
4
 74
0
 40
0
 40
0
 40
0
 40
0
 40
1
 40
1
 40
1
 40
1
 10
120.721935
 20
32.808333
 30
0.0
 10
119.943779
 20
32.808333
 30
0.0
 10
118.771789
 20
33.085339
 30
0.0
 10
117.716689
 20
33.518634
 30
0.0
  0
SPLINE
  5
112
100
AcDbEntity
  8
0
 62
7
100
AcDbSpline
 70
8
 71
3
 72
8
 73
4
 74
0
 40
0
 40
0
 40
0
 40
0
 40
1
 40
1
 40
1
 40
1
 10
117.716689
 20
33.518634
 30
0.0
 10
116.101122
 20
34.182098
 30
0.0
 10
115.900920
 20
34.206857
 30
0.0
 10
114.680595
 20
33.894099
 30
0.0
  0
SPLINE
  5
113
100
AcDbEntity
  8
0
 62
7
100
AcDbSpline
 70
8
 71
3
 72
8
 73
4
 74
0
 40
0
 40
0
 40
0
 40
0
 40
1
 40
1
 40
1
 40
1
 10
114.680595
 20
33.894099
 30
0.0
 10
113.624725
 20
33.623485
 30
0.0
 10
113.195224
 20
33.623948
 30
0.0
 10
112.441482
 20
33.896480
 30
0.0
  0
SPLINE
  5
114
100
AcDbEntity
  8
0
 62
7
100
AcDbSpline
 70
8
 71
3
 72
8
 73
4
 74
0
 40
0
 40
0
 40
0
 40
0
 40
1
 40
1
 40
1
 40
1
 10
112.441482
 20
33.896480
 30
0.0
 10
111.551961
 20
34.218134
 30
0.0
 10
111.399582
 20
34.176626
 30
0.0
 10
109.145684
 20
32.998709
 30
0.0
  0
SPLINE
  5
115
100
AcDbEntity
  8
0
 62
7
100
AcDbSpline
 70
8
 71
3
 72
8
 73
4
 74
0
 40
0
 40
0
 40
0
 40
0
 40
1
 40
1
 40
1
 40
1
 10
109.145684
 20
32.998709
 30
0.0
 10
106.734433
 20
31.738559
 30
0.0
 10
104.824657
 20
31.203426
 30
0.0
 10
104.516740
 20
31.701645
 30
0.0
  0
SPLINE
  5
116
100
AcDbEntity
  8
0
 62
7
100
AcDbSpline
 70
8
 71
3
 72
8
 73
4
 74
0
 40
0
 40
0
 40
0
 40
0
 40
1
 40
1
 40
1
 40
1
 10
104.516740
 20
31.701645
 30
0.0
 10
104.225759
 20
32.172463
 30
0.0
 10
104.871830
 20
33.174940
 30
0.0
 10
105.972970
 20
33.961210
 30
0.0
  0
SPLINE
  5
117
100
AcDbEntity
  8
0
 62
7
100
AcDbSpline
 70
8
 71
3
 72
8
 73
4
 74
0
 40
0
 40
0
 40
0
 40
0
 40
1
 40
1
 40
1
 40
1
 10
105.972970
 20
33.961210
 30
0.0
 10
106.555302
 20
34.377027
 30
0.0
 10
106.976238
 20
34.772759
 30
0.0
 10
106.908380
 20
34.840616
 30
0.0
  0
SPLINE
  5
118
100
AcDbEntity
  8
0
 62
7
100
AcDbSpline
 70
8
 71
3
 72
8
 73
4
 74
0
 40
0
 40
0
 40
0
 40
0
 40
1
 40
1
 40
1
 40
1
 10
106.908380
 20
34.840616
 30
0.0
 10
106.721905
 20
35.027095
 30
0.0
 10
105.488356
 20
34.334027
 30
0.0
 10
102.325855
 20
32.265935
 30
0.0
  0
SPLINE
  5
119
100
AcDbEntity
  8
0
 62
7
100
AcDbSpline
 70
8
 71
3
 72
8
 73
4
 74
0
 40
0
 40
0
 40
0
 40
0
 40
1
 40
1
 40
1
 40
1
 10
102.325855
 20
32.265935
 30
0.0
 10
99.886378
 20
30.670659
 30
0.0
 10
99.331354
 20
30.411611
 30
0.0
 10
98.596905
 20
30.525516
 30
0.0
  0
SPLINE
  5
11a
100
AcDbEntity
  8
0
 62
7
100
AcDbSpline
 70
8
 71
3
 72
8
 73
4
 74
0
 40
0
 40
0
 40
0
 40
0
 40
1
 40
1
 40
1
 40
1
 10
98.596905
 20
30.525516
 30
0.0
 10
98.091030
 20
30.603973
 30
0.0
 10
96.887117
 20
30.407507
 30
0.0
 10
95.687055
 20
30.050658
 30
0.0
  0
SPLINE
  5
11b
100
AcDbEntity
  8
0
 62
7
100
AcDbSpline
 70
8
 71
3
 72
8
 73
4
 74
0
 40
0
 40
0
 40
0
 40
0
 40
1
 40
1
 40
1
 40
1
 10
95.687055
 20
30.050658
 30
0.0
 10
92.233731
 20
29.023781
 30
0.0
 10
91.431930
 20
29.811663
 30
0.0
 10
92.840101
 20
32.848180
 30
0.0
  0
SPLINE
  5
11c
100
AcDbEntity
  8
0
 62
7
100
AcDbSpline
 70
8
 71
3
 72
8
 73
4
 74
0
 40
0
 40
0
 40
0
 40
0
 40
1
 40
1
 40
1
 40
1
 10
92.840101
 20
32.848180
 30
0.0
 10
93.271819
 20
33.779119
 30
0.0
 10
93.394202
 20
34.298181
 30
0.0
 10
93.197685
 20
34.364806
 30
0.0
  0
SPLINE
  5
11d
100
AcDbEntity
  8
0
 62
7
100
AcDbSpline
 70
8
 71
3
 72
8
 73
4
 74
0
 40
0
 40
0
 40
0
 40
0
 40
1
 40
1
 40
1
 40
1
 10
93.197685
 20
34.364806
 30
0.0
 10
93.033363
 20
34.420516
 30
0.0
 10
91.923322
 20
33.447889
 30
0.0
 10
90.730927
 20
32.203414
 30
0.0
  0
SPLINE
  5
11e
100
AcDbEntity
  8
0
 62
7
100
AcDbSpline
 70
8
 71
3
 72
8
 73
4
 74
0
 40
0
 40
0
 40
0
 40
0
 40
1
 40
1
 40
1
 40
1
 10
90.730927
 20
32.203414
 30
0.0
 10
89.055157
 20
30.454452
 30
0.0
 10
88.315443
 20
29.874088
 30
0.0
 10
87.472838
 20
29.647200
 30
0.0
  0
SPLINE
  5
11f
100
AcDbEntity
  8
0
 62
7
100
AcDbSpline
 70
8
 71
3
 72
8
 73
4
 74
0
 40
0
 40
0
 40
0
 40
0
 40
1
 40
1
 40
1
 40
1
 10
87.472838
 20
29.647200
 30
0.0
 10
86.409747
 20
29.360940
 30
0.0
 10
85.039996
 20
29.495144
 30
0.0
 10
85.039996
 20
29.885566
 30
0.0
  0
SPLINE
  5
120
100
AcDbEntity
  8
0
 62
7
100
AcDbSpline
 70
8
 71
3
 72
8
 73
4
 74
0
 40
0
 40
0
 40
0
 40
0
 40
1
 40
1
 40
1
 40
1
 10
85.039996
 20
29.885566
 30
0.0
 10
85.039996
 20
30.233718
 30
0.0
 10
85.937794
 20
30.889091
 30
0.0
 10
87.255763
 20
31.503030
 30
0.0
  0
SPLINE
  5
121
100
AcDbEntity
  8
0
 62
7
100
AcDbSpline
 70
8
 71
3
 72
8
 73
4
 74
0
 40
0
 40
0
 40
0
 40
0
 40
1
 40
1
 40
1
 40
1
 10
87.255763
 20
31.503030
 30
0.0
 10
88.234941
 20
31.959153
 30
0.0
 10
88.949575
 20
32.619619
 30
0.0
 10
90.223708
 20
34.246008
 30
0.0
  0
SPLINE
  5
122
100
AcDbEntity
  8
0
 62
7
100
AcDbSpline
 70
8
 71
3
 72
8
 73
4
 74
0
 40
0
 40
0
 40
0
 40
0
 40
1
 40
1
 40
1
 40
1
 10
90.223708
 20
34.246008
 30
0.0
 10
91.989997
 20
36.500618
 30
0.0
 10
92.892949
 20
37.213029
 30
0.0
 10
94.162102
 20
37.353333
 30
0.0
  0
SPLINE
  5
123
100
AcDbEntity
  8
0
 62
7
100
AcDbSpline
 70
8
 71
3
 72
8
 73
4
 74
0
 40
0
 40
0
 40
0
 40
0
 40
1
 40
1
 40
1
 40
1
 10
94.162102
 20
37.353333
 30
0.0
 10
95.263285
 20
37.475067
 30
0.0
 10
95.667632
 20
36.599902
 30
0.0
 10
95.559110
 20
34.329661
 30
0.0
  0
SPLINE
  5
124
100
AcDbEntity
  8
0
 62
7
100
AcDbSpline
 70
8
 71
3
 72
8
 73
4
 74
0
 40
0
 40
0
 40
0
 40
0
 40
1
 40
1
 40
1
 40
1
 10
95.559110
 20
34.329661
 30
0.0
 10
95.512157
 20
33.347395
 30
0.0
 10
95.544664
 20
32.543724
 30
0.0
 10
95.631325
 20
32.543724
 30
0.0
  0
SPLINE
  5
125
100
AcDbEntity
  8
0
 62
7
100
AcDbSpline
 70
8
 71
3
 72
8
 73
4
 74
0
 40
0
 40
0
 40
0
 40
0
 40
1
 40
1
 40
1
 40
1
 10
95.631325
 20
32.543724
 30
0.0
 10
95.876107
 20
32.543724
 30
0.0
 10
97.026775
 20
33.879584
 30
0.0
 10
97.867010
 20
35.139225
 30
0.0
  0
SPLINE
  5
126
100
AcDbEntity
  8
0
 62
7
100
AcDbSpline
 70
8
 71
3
 72
8
 73
4
 74
0
 40
0
 40
0
 40
0
 40
0
 40
1
 40
1
 40
1
 40
1
 10
97.867010
 20
35.139225
 30
0.0
 10
98.745252
 20
36.455847
 30
0.0
 10
99.237456
 20
36.777057
 30
0.0
 10
100.376739
 20
36.777057
 30
0.0
  0
SPLINE
  5
127
100
AcDbEntity
  8
0
 62
7
100
AcDbSpline
 70
8
 71
3
 72
8
 73
4
 74
0
 40
0
 40
0
 40
0
 40
0
 40
1
 40
1
 40
1
 40
1
 10
100.376739
 20
36.777057
 30
0.0
 10
101.862988
 20
36.777057
 30
0.0
 10
101.686373
 20
35.665074
 30
0.0
 10
99.903976
 20
33.800494
 30
0.0
  0
SPLINE
  5
128
100
AcDbEntity
  8
0
 62
7
100
AcDbSpline
 70
8
 71
3
 72
8
 73
4
 74
0
 40
0
 40
0
 40
0
 40
0
 40
1
 40
1
 40
1
 40
1
 10
99.903976
 20
33.800494
 30
0.0
 10
99.080037
 20
32.938567
 30
0.0
 10
99.026028
 20
32.808307
 30
0.0
 10
99.492578
 20
32.808307
 30
0.0
  0
SPLINE
  5
129
100
AcDbEntity
  8
0
 62
7
100
AcDbSpline
 70
8
 71
3
 72
8
 73
4
 74
0
 40
0
 40
0
 40
0
 40
0
 40
1
 40
1
 40
1
 40
1
 10
99.492578
 20
32.808307
 30
0.0
 10
99.787959
 20
32.808307
 30
0.0
 10
100.972980
 20
33.464696
 30
0.0
 10
102.125960
 20
34.266947
 30
0.0
  0
SPLINE
  5
12a
100
AcDbEntity
  8
0
 62
7
100
AcDbSpline
 70
8
 71
3
 72
8
 73
4
 74
0
 40
0
 40
0
 40
0
 40
0
 40
1
 40
1
 40
1
 40
1
 10
102.125960
 20
34.266947
 30
0.0
 10
104.749066
 20
36.092122
 30
0.0
 10
106.635037
 20
37.035716
 30
0.0
 10
107.666600
 20
37.039055
 30
0.0
  0
SPLINE
  5
12b
100
AcDbEntity
  8
0
 62
7
100
AcDbSpline
 70
8
 71
3
 72
8
 73
4
 74
0
 40
0
 40
0
 40
0
 40
0
 40
1
 40
1
 40
1
 40
1
 10
107.666600
 20
37.039055
 30
0.0
 10
108.105760
 20
37.040378
 30
0.0
 10
108.919963
 20
36.732538
 30
0.0
 10
109.475934
 20
36.354745
 30
0.0
  0
LWPOLYLINE
  5
12c
100
AcDbEntity
  8
0
 62
7
100
AcDbPolyline
 90
3
 70
0
 10
89.819893
 20
3.225684
 30
0.0
 10
88.914322
 20
3.595195
 30
0.0
 10
89.665336
 20
4.291576
 30
0.0
  0
SPLINE
  5
12d
100
AcDbEntity
  8
0
 62
7
100
AcDbSpline
 70
8
 71
3
 72
8
 73
4
 74
0
 40
0
 40
0
 40
0
 40
0
 40
1
 40
1
 40
1
 40
1
 10
114.895164
 20
40.159199
 30
0.0
 10
119.416100
 20
44.765230
 30
0.0
 10
121.600661
 20
46.575401
 30
0.0
 10
124.261758
 20
47.920537
 30
0.0
  0
SPLINE
  5
12e
100
AcDbEntity
  8
0
 62
7
100
AcDbSpline
 70
8
 71
3
 72
8
 73
4
 74
0
 40
0
 40
0
 40
0
 40
0
 40
1
 40
1
 40
1
 40
1
 10
124.261758
 20
47.920537
 30
0.0
 10
125.608789
 20
48.601437
 30
0.0
 10
128.482236
 20
49.462415
 30
0.0
 10
129.443461
 20
49.473146
 30
0.0
  0
SPLINE
  5
12f
100
AcDbEntity
  8
0
 62
7
100
AcDbSpline
 70
8
 71
3
 72
8
 73
4
 74
0
 40
0
 40
0
 40
0
 40
0
 40
1
 40
1
 40
1
 40
1
 10
129.443461
 20
49.473146
 30
0.0
 10
129.911602
 20
49.478359
 30
0.0
 10
124.597840
 20
43.534790
 30
0.0
 10
122.382838
 20
41.575654
 30
0.0
  0
SPLINE
  5
130
100
AcDbEntity
  8
0
 62
7
100
AcDbSpline
 70
8
 71
3
 72
8
 73
4
 74
0
 40
0
 40
0
 40
0
 40
0
 40
1
 40
1
 40
1
 40
1
 10
122.382838
 20
41.575654
 30
0.0
 10
121.416826
 20
40.721232
 30
0.0
 10
119.912080
 20
39.523114
 30
0.0
 10
119.038955
 20
38.913168
 30
0.0
  0
SPLINE
  5
131
100
AcDbEntity
  8
0
 62
7
100
AcDbSpline
 70
8
 71
3
 72
8
 73
4
 74
0
 40
0
 40
0
 40
0
 40
0
 40
1
 40
1
 40
1
 40
1
 10
119.038955
 20
38.913168
 30
0.0
 10
118.165830
 20
38.303221
 30
0.0
 10
117.510986
 20
37.721900
 30
0.0
 10
117.583746
 20
37.621345
 30
0.0
  0
SPLINE
  5
132
100
AcDbEntity
  8
0
 62
7
100
AcDbSpline
 70
8
 71
3
 72
8
 73
4
 74
0
 40
0
 40
0
 40
0
 40
0
 40
1
 40
1
 40
1
 40
1
 10
117.583746
 20
37.621345
 30
0.0
 10
117.656507
 20
37.520787
 30
0.0
 10
118.073226
 20
37.438515
 30
0.0
 10
118.509788
 20
37.438515
 30
0.0
  0
SPLINE
  5
133
100
AcDbEntity
  8
0
 62
7
100
AcDbSpline
 70
8
 71
3
 72
8
 73
4
 74
0
 40
0
 40
0
 40
0
 40
0
 40
1
 40
1
 40
1
 40
1
 10
118.509788
 20
37.438515
 30
0.0
 10
119.186560
 20
37.438515
 30
0.0
 10
119.299948
 20
37.341035
 30
0.0
 10
119.279181
 20
36.777057
 30
0.0
  0
SPLINE
  5
134
100
AcDbEntity
  8
0
 62
7
100
AcDbSpline
 70
8
 71
3
 72
8
 73
4
 74
0
 40
0
 40
0
 40
0
 40
0
 40
1
 40
1
 40
1
 40
1
 10
119.279181
 20
36.777057
 30
0.0
 10
119.265793
 20
36.413255
 30
0.0
 10
119.163579
 20
35.788177
 30
0.0
 10
119.052060
 20
35.387994
 30
0.0
  0
SPLINE
  5
135
100
AcDbEntity
  8
0
 62
7
100
AcDbSpline
 70
8
 71
3
 72
8
 73
4
 74
0
 40
0
 40
0
 40
0
 40
0
 40
1
 40
1
 40
1
 40
1
 10
119.052060
 20
35.387994
 30
0.0
 10
118.849386
 20
34.660713
 30
0.0
 10
118.849923
 20
34.660382
 30
0.0
 10
120.267042
 20
34.645142
 30
0.0
  0
SPLINE
  5
136
100
AcDbEntity
  8
0
 62
7
100
AcDbSpline
 70
8
 71
3
 72
8
 73
4
 74
0
 40
0
 40
0
 40
0
 40
0
 40
1
 40
1
 40
1
 40
1
 10
120.267042
 20
34.645142
 30
0.0
 10
121.046804
 20
34.636755
 30
0.0
 10
122.157069
 20
34.546085
 30
0.0
 10
122.734300
 20
34.443651
 30
0.0
  0
SPLINE
  5
137
100
AcDbEntity
  8
0
 62
7
100
AcDbSpline
 70
8
 71
3
 72
8
 73
4
 74
0
 40
0
 40
0
 40
0
 40
0
 40
1
 40
1
 40
1
 40
1
 10
122.734300
 20
34.443651
 30
0.0
 10
123.676772
 20
34.276400
 30
0.0
 10
123.851461
 20
34.116052
 30
0.0
 10
124.447131
 20
32.871399
 30
0.0
  0
LWPOLYLINE
  5
138
100
AcDbEntity
  8
0
 62
7
100
AcDbPolyline
 90
3
 70
0
 10
109.475934
 20
36.354745
 30
0.0
 10
110.486791
 20
35.667849
 30
0.0
 10
114.895164
 20
40.159199
 30
0.0
  0
SPLINE
  5
139
100
AcDbEntity
  8
0
 62
7
100
AcDbSpline
 70
8
 71
3
 72
8
 73
4
 74
0
 40
0
 40
0
 40
0
 40
0
 40
1
 40
1
 40
1
 40
1
 10
127.335672
 20
31.485390
 30
0.0
 10
128.559544
 20
31.485390
 30
0.0
 10
130.050958
 20
31.339856
 30
0.0
 10
130.649924
 20
31.161985
 30
0.0
  0
SPLINE
  5
13a
100
AcDbEntity
  8
0
 62
7
100
AcDbSpline
 70
8
 71
3
 72
8
 73
4
 74
0
 40
0
 40
0
 40
0
 40
0
 40
1
 40
1
 40
1
 40
1
 10
130.649924
 20
31.161985
 30
0.0
 10
132.253310
 20
30.685830
 30
0.0
 10
134.107563
 20
28.729400
 30
0.0
 10
134.633277
 20
26.959131
 30
0.0
  0
SPLINE
  5
13b
100
AcDbEntity
  8
0
 62
7
100
AcDbSpline
 70
8
 71
3
 72
8
 73
4
 74
0
 40
0
 40
0
 40
0
 40
0
 40
1
 40
1
 40
1
 40
1
 10
134.633277
 20
26.959131
 30
0.0
 10
135.951158
 20
22.521344
 30
0.0
 10
135.052737
 20
16.020129
 30
0.0
 10
132.484775
 20
11.411995
 30
0.0
  0
SPLINE
  5
13c
100
AcDbEntity
  8
0
 62
7
100
AcDbSpline
 70
8
 71
3
 72
8
 73
4
 74
0
 40
0
 40
0
 40
0
 40
0
 40
1
 40
1
 40
1
 40
1
 10
132.484775
 20
11.411995
 30
0.0
 10
130.373027
 20
7.622527
 30
0.0
 10
125.994425
 20
4.066397
 30
0.0
 10
121.387928
 20
2.399570
 30
0.0
  0
SPLINE
  5
13d
100
AcDbEntity
  8
0
 62
7
100
AcDbSpline
 70
8
 71
3
 72
8
 73
4
 74
0
 40
0
 40
0
 40
0
 40
0
 40
1
 40
1
 40
1
 40
1
 10
121.387928
 20
2.399570
 30
0.0
 10
117.397765
 20
0.955762
 30
0.0
 10
114.564395
 20
0.503198
 30
0.0
 10
108.852496
 20
0.397335
 30
0.0
  0
SPLINE
  5
13e
100
AcDbEntity
  8
0
 62
7
100
AcDbSpline
 70
8
 71
3
 72
8
 73
4
 74
0
 40
0
 40
0
 40
0
 40
0
 40
1
 40
1
 40
1
 40
1
 10
108.852496
 20
0.397335
 30
0.0
 10
106.014840
 20
0.344744
 30
0.0
 10
103.395465
 20
0.352565
 30
0.0
 10
103.031663
 20
0.414718
 30
0.0
  0
LWPOLYLINE
  5
13f
100
AcDbEntity
  8
0
 62
7
100
AcDbPolyline
 90
3
 70
0
 10
124.447131
 20
32.871399
 30
0.0
 10
125.110449
 20
31.485390
 30
0.0
 10
127.335672
 20
31.485390
 30
0.0
  0
SPLINE
  5
140
100
AcDbEntity
  8
0
 62
7
100
AcDbSpline
 70
8
 71
3
 72
8
 73
4
 74
0
 40
0
 40
0
 40
0
 40
0
 40
1
 40
1
 40
1
 40
1
 10
121.817080
 20
42.673479
 30
0.0
 10
123.353814
 20
43.699451
 30
0.0
 10
124.727496
 20
44.992888
 30
0.0
 10
124.727496
 20
45.413880
 30
0.0
  0
SPLINE
  5
141
100
AcDbEntity
  8
0
 62
7
100
AcDbSpline
 70
8
 71
3
 72
8
 73
4
 74
0
 40
0
 40
0
 40
0
 40
0
 40
1
 40
1
 40
1
 40
1
 10
124.727496
 20
45.413880
 30
0.0
 10
124.727496
 20
45.792861
 30
0.0
 10
121.452346
 20
43.491534
 30
0.0
 10
119.848858
 20
41.985838
 30
0.0
  0
LWPOLYLINE
  5
142
100
AcDbEntity
  8
0
 62
7
100
AcDbPolyline
 90
1
 70
1
 10
103.031663
 20
0.414718
 30
0.0
  0
SPLINE
  5
143
100
AcDbEntity
  8
0
 62
7
100
AcDbSpline
 70
8
 71
3
 72
8
 73
4
 74
0
 40
0
 40
0
 40
0
 40
0
 40
1
 40
1
 40
1
 40
1
 10
119.700413
 20
41.427731
 30
0.0
 10
120.209736
 20
41.675698
 30
0.0
 10
121.162236
 20
42.236287
 30
0.0
 10
121.817080
 20
42.673479
 30
0.0
  0
LWPOLYLINE
  5
144
100
AcDbEntity
  8
0
 62
7
100
AcDbPolyline
 90
3
 70
0
 10
119.848858
 20
41.985838
 30
0.0
 10
118.774371
 20
40.976881
 30
0.0
 10
119.700413
 20
41.427731
 30
0.0
  0
SPLINE
  5
145
100
AcDbEntity
  8
0
 62
7
100
AcDbSpline
 70
8
 71
3
 72
8
 73
4
 74
0
 40
0
 40
0
 40
0
 40
0
 40
1
 40
1
 40
1
 40
1
 10
26.368644
 20
25.419751
 30
0.0
 10
25.815596
 20
25.631360
 30
0.0
 10
25.773331
 20
25.807800
 30
0.0
 10
25.773331
 20
27.905017
 30
0.0
  0
SPLINE
  5
146
100
AcDbEntity
  8
0
 62
7
100
AcDbSpline
 70
8
 71
3
 72
8
 73
4
 74
0
 40
0
 40
0
 40
0
 40
0
 40
1
 40
1
 40
1
 40
1
 10
25.773331
 20
27.905017
 30
0.0
 10
25.773331
 20
29.146632
 30
0.0
 10
25.705487
 20
30.162500
 30
0.0
 10
25.622566
 20
30.162500
 30
0.0
  0
SPLINE
  5
147
100
AcDbEntity
  8
0
 62
7
100
AcDbSpline
 70
8
 71
3
 72
8
 73
4
 74
0
 40
0
 40
0
 40
0
 40
0
 40
1
 40
1
 40
1
 40
1
 10
25.622566
 20
30.162500
 30
0.0
 10
25.539643
 20
30.162500
 30
0.0
 10
24.974096
 20
29.821330
 30
0.0
 10
24.365795
 20
29.404342
 30
0.0
  0
SPLINE
  5
148
100
AcDbEntity
  8
0
 62
7
100
AcDbSpline
 70
8
 71
3
 72
8
 73
4
 74
0
 40
0
 40
0
 40
0
 40
0
 40
1
 40
1
 40
1
 40
1
 10
24.365795
 20
29.404342
 30
0.0
 10
20.244698
 20
26.579364
 30
0.0
 10
16.135658
 20
25.761881
 30
0.0
 10
13.768275
 20
27.295994
 30
0.0
  0
SPLINE
  5
149
100
AcDbEntity
  8
0
 62
7
100
AcDbSpline
 70
8
 71
3
 72
8
 73
4
 74
0
 40
0
 40
0
 40
0
 40
0
 40
1
 40
1
 40
1
 40
1
 10
13.768275
 20
27.295994
 30
0.0
 10
12.664650
 20
28.011165
 30
0.0
 10
12.630347
 20
28.238209
 30
0.0
 10
13.322124
 20
30.248894
 30
0.0
  0
SPLINE
  5
14a
100
AcDbEntity
  8
0
 62
7
100
AcDbSpline
 70
8
 71
3
 72
8
 73
4
 74
0
 40
0
 40
0
 40
0
 40
0
 40
1
 40
1
 40
1
 40
1
 10
13.322124
 20
30.248894
 30
0.0
 10
14.170585
 20
32.714986
 30
0.0
 10
16.049909
 20
34.959999
 30
0.0
 10
19.851858
 20
38.049213
 30
0.0
  0
SPLINE
  5
14b
100
AcDbEntity
  8
0
 62
7
100
AcDbSpline
 70
8
 71
3
 72
8
 73
4
 74
0
 40
0
 40
0
 40
0
 40
0
 40
1
 40
1
 40
1
 40
1
 10
19.851858
 20
38.049213
 30
0.0
 10
20.929808
 20
38.925085
 30
0.0
 10
21.239397
 20
39.356025
 30
0.0
 10
21.367873
 20
40.159480
 30
0.0
  0
SPLINE
  5
14c
100
AcDbEntity
  8
0
 62
7
100
AcDbSpline
 70
8
 71
3
 72
8
 73
4
 74
0
 40
0
 40
0
 40
0
 40
0
 40
1
 40
1
 40
1
 40
1
 10
21.367873
 20
40.159480
 30
0.0
 10
21.802060
 20
42.874729
 30
0.0
 10
24.446850
 20
46.260623
 30
0.0
 10
27.035429
 20
47.415156
 30
0.0
  0
SPLINE
  5
14d
100
AcDbEntity
  8
0
 62
7
100
AcDbSpline
 70
8
 71
3
 72
8
 73
4
 74
0
 40
0
 40
0
 40
0
 40
0
 40
1
 40
1
 40
1
 40
1
 10
27.035429
 20
47.415156
 30
0.0
 10
28.395872
 20
48.021925
 30
0.0
 10
30.664044
 20
48.422018
 30
0.0
 10
31.661978
 20
48.231250
 30
0.0
  0
SPLINE
  5
14e
100
AcDbEntity
  8
0
 62
7
100
AcDbSpline
 70
8
 71
3
 72
8
 73
4
 74
0
 40
0
 40
0
 40
0
 40
0
 40
1
 40
1
 40
1
 40
1
 10
31.661978
 20
48.231250
 30
0.0
 10
32.256680
 20
48.117564
 30
0.0
 10
32.387913
 20
47.952387
 30
0.0
 10
32.387913
 20
47.317546
 30
0.0
  0
SPLINE
  5
14f
100
AcDbEntity
  8
0
 62
7
100
AcDbSpline
 70
8
 71
3
 72
8
 73
4
 74
0
 40
0
 40
0
 40
0
 40
0
 40
1
 40
1
 40
1
 40
1
 10
32.387913
 20
47.317546
 30
0.0
 10
32.387913
 20
46.461177
 30
0.0
 10
31.367735
 20
45.243750
 30
0.0
 10
30.650119
 20
45.243750
 30
0.0
  0
SPLINE
  5
150
100
AcDbEntity
  8
0
 62
7
100
AcDbSpline
 70
8
 71
3
 72
8
 73
4
 74
0
 40
0
 40
0
 40
0
 40
0
 40
1
 40
1
 40
1
 40
1
 10
30.650119
 20
45.243750
 30
0.0
 10
30.311505
 20
45.243750
 30
0.0
 10
30.238203
 20
45.427826
 30
0.0
 10
30.329394
 20
46.049150
 30
0.0
  0
SPLINE
  5
151
100
AcDbEntity
  8
0
 62
7
100
AcDbSpline
 70
8
 71
3
 72
8
 73
4
 74
0
 40
0
 40
0
 40
0
 40
0
 40
1
 40
1
 40
1
 40
1
 10
30.329394
 20
46.049150
 30
0.0
 10
30.394407
 20
46.492118
 30
0.0
 10
30.351434
 20
46.913991
 30
0.0
 10
30.233866
 20
46.986642
 30
0.0
  0
SPLINE
  5
152
100
AcDbEntity
  8
0
 62
7
100
AcDbSpline
 70
8
 71
3
 72
8
 73
4
 74
0
 40
0
 40
0
 40
0
 40
0
 40
1
 40
1
 40
1
 40
1
 10
30.233866
 20
46.986642
 30
0.0
 10
29.818438
 20
47.243394
 30
0.0
 10
26.980899
 20
45.624631
 30
0.0
 10
25.755461
 20
44.431799
 30
0.0
  0
SPLINE
  5
153
100
AcDbEntity
  8
0
 62
7
100
AcDbSpline
 70
8
 71
3
 72
8
 73
4
 74
0
 40
0
 40
0
 40
0
 40
0
 40
1
 40
1
 40
1
 40
1
 10
25.755461
 20
44.431799
 30
0.0
 10
24.430330
 20
43.141929
 30
0.0
 10
23.539322
 20
41.697841
 30
0.0
 10
23.742273
 20
41.168960
 30
0.0
  0
SPLINE
  5
154
100
AcDbEntity
  8
0
 62
7
100
AcDbSpline
 70
8
 71
3
 72
8
 73
4
 74
0
 40
0
 40
0
 40
0
 40
0
 40
1
 40
1
 40
1
 40
1
 10
23.742273
 20
41.168960
 30
0.0
 10
23.810414
 20
40.991385
 30
0.0
 10
24.354810
 20
40.699695
 30
0.0
 10
24.952041
 20
40.520760
 30
0.0
  0
SPLINE
  5
155
100
AcDbEntity
  8
0
 62
7
100
AcDbSpline
 70
8
 71
3
 72
8
 73
4
 74
0
 40
0
 40
0
 40
0
 40
0
 40
1
 40
1
 40
1
 40
1
 10
24.952041
 20
40.520760
 30
0.0
 10
25.938812
 20
40.225117
 30
0.0
 10
26.037914
 20
40.115620
 30
0.0
 10
26.037914
 20
39.321012
 30
0.0
  0
SPLINE
  5
156
100
AcDbEntity
  8
0
 62
7
100
AcDbSpline
 70
8
 71
3
 72
8
 73
4
 74
0
 40
0
 40
0
 40
0
 40
0
 40
1
 40
1
 40
1
 40
1
 10
26.037914
 20
39.321012
 30
0.0
 10
26.037914
 20
37.889979
 30
0.0
 10
24.571834
 20
37.092475
 30
0.0
 10
22.839150
 20
37.580980
 30
0.0
  0
SPLINE
  5
157
100
AcDbEntity
  8
0
 62
7
100
AcDbSpline
 70
8
 71
3
 72
8
 73
4
 74
0
 40
0
 40
0
 40
0
 40
0
 40
1
 40
1
 40
1
 40
1
 10
22.839150
 20
37.580980
 30
0.0
 10
22.267927
 20
37.742027
 30
0.0
 10
21.838405
 20
37.535437
 30
0.0
 10
20.257435
 20
36.339238
 30
0.0
  0
SPLINE
  5
158
100
AcDbEntity
  8
0
 62
7
100
AcDbSpline
 70
8
 71
3
 72
8
 73
4
 74
0
 40
0
 40
0
 40
0
 40
0
 40
1
 40
1
 40
1
 40
1
 10
20.257435
 20
36.339238
 30
0.0
 10
18.198866
 20
34.781673
 30
0.0
 10
16.572411
 20
32.901115
 30
0.0
 10
15.565748
 20
30.914562
 30
0.0
  0
SPLINE
  5
159
100
AcDbEntity
  8
0
 62
7
100
AcDbSpline
 70
8
 71
3
 72
8
 73
4
 74
0
 40
0
 40
0
 40
0
 40
0
 40
1
 40
1
 40
1
 40
1
 10
15.565748
 20
30.914562
 30
0.0
 10
14.668097
 20
29.143135
 30
0.0
 10
14.724850
 20
28.682230
 30
0.0
 10
15.887881
 20
28.298397
 30
0.0
  0
SPLINE
  5
15a
100
AcDbEntity
  8
0
 62
7
100
AcDbSpline
 70
8
 71
3
 72
8
 73
4
 74
0
 40
0
 40
0
 40
0
 40
0
 40
1
 40
1
 40
1
 40
1
 10
15.887881
 20
28.298397
 30
0.0
 10
18.201800
 20
27.534732
 30
0.0
 10
20.752156
 20
28.562961
 30
0.0
 10
24.230678
 20
31.661965
 30
0.0
  0
SPLINE
  5
15b
100
AcDbEntity
  8
0
 62
7
100
AcDbSpline
 70
8
 71
3
 72
8
 73
4
 74
0
 40
0
 40
0
 40
0
 40
0
 40
1
 40
1
 40
1
 40
1
 10
24.230678
 20
31.661965
 30
0.0
 10
25.812944
 20
33.071602
 30
0.0
 10
26.297344
 20
33.673762
 30
0.0
 10
26.429900
 20
34.395833
 30
0.0
  0
SPLINE
  5
15c
100
AcDbEntity
  8
0
 62
7
100
AcDbSpline
 70
8
 71
3
 72
8
 73
4
 74
0
 40
0
 40
0
 40
0
 40
0
 40
1
 40
1
 40
1
 40
1
 10
26.429900
 20
34.395833
 30
0.0
 10
27.361362
 20
39.469777
 30
0.0
 10
29.503783
 20
43.060168
 30
0.0
 10
34.718572
 20
48.286458
 30
0.0
  0
SPLINE
  5
15d
100
AcDbEntity
  8
0
 62
7
100
AcDbSpline
 70
8
 71
3
 72
8
 73
4
 74
0
 40
0
 40
0
 40
0
 40
0
 40
1
 40
1
 40
1
 40
1
 10
34.718572
 20
48.286458
 30
0.0
 10
37.185894
 20
50.759225
 30
0.0
 10
38.999049
 20
51.783123
 30
0.0
 10
41.344747
 20
52.028296
 30
0.0
  0
LWPOLYLINE
  5
15e
100
AcDbEntity
  8
0
 62
7
100
AcDbPolyline
 90
1
 70
1
 10
121.817080
 20
42.673479
 30
0.0
  0
SPLINE
  5
15f
100
AcDbEntity
  8
0
 62
7
100
AcDbSpline
 70
8
 71
3
 72
8
 73
4
 74
0
 40
0
 40
0
 40
0
 40
0
 40
1
 40
1
 40
1
 40
1
 10
42.816407
 20
51.300811
 30
0.0
 10
42.456317
 20
49.238318
 30
0.0
 10
41.168952
 20
47.225133
 30
0.0
 10
38.336985
 20
44.295883
 30
0.0
  0
SPLINE
  5
160
100
AcDbEntity
  8
0
 62
7
100
AcDbSpline
 70
8
 71
3
 72
8
 73
4
 74
0
 40
0
 40
0
 40
0
 40
0
 40
1
 40
1
 40
1
 40
1
 10
38.336985
 20
44.295883
 30
0.0
 10
36.801023
 20
42.707158
 30
0.0
 10
35.180871
 20
40.783833
 30
0.0
 10
34.736646
 20
40.021830
 30
0.0
  0
SPLINE
  5
161
100
AcDbEntity
  8
0
 62
7
100
AcDbSpline
 70
8
 71
3
 72
8
 73
4
 74
0
 40
0
 40
0
 40
0
 40
0
 40
1
 40
1
 40
1
 40
1
 10
34.736646
 20
40.021830
 30
0.0
 10
34.226079
 20
39.146028
 30
0.0
 10
33.037203
 20
37.873342
 30
0.0
 10
31.504792
 20
36.562146
 30
0.0
  0
SPLINE
  5
162
100
AcDbEntity
  8
0
 62
7
100
AcDbSpline
 70
8
 71
3
 72
8
 73
4
 74
0
 40
0
 40
0
 40
0
 40
0
 40
1
 40
1
 40
1
 40
1
 10
31.504792
 20
36.562146
 30
0.0
 10
28.400314
 20
33.905828
 30
0.0
 10
27.581839
 20
32.508957
 30
0.0
 10
27.412130
 20
29.577324
 30
0.0
  0
SPLINE
  5
163
100
AcDbEntity
  8
0
 62
7
100
AcDbSpline
 70
8
 71
3
 72
8
 73
4
 74
0
 40
0
 40
0
 40
0
 40
0
 40
1
 40
1
 40
1
 40
1
 10
27.412130
 20
29.577324
 30
0.0
 10
27.346521
 20
28.443962
 30
0.0
 10
27.363036
 20
27.516667
 30
0.0
 10
27.448830
 20
27.516667
 30
0.0
  0
SPLINE
  5
164
100
AcDbEntity
  8
0
 62
7
100
AcDbSpline
 70
8
 71
3
 72
8
 73
4
 74
0
 40
0
 40
0
 40
0
 40
0
 40
1
 40
1
 40
1
 40
1
 10
27.448830
 20
27.516667
 30
0.0
 10
27.734202
 20
27.516667
 30
0.0
 10
30.641422
 20
29.950817
 30
0.0
 10
32.652496
 20
31.873579
 30
0.0
  0
SPLINE
  5
165
100
AcDbEntity
  8
0
 62
7
100
AcDbSpline
 70
8
 71
3
 72
8
 73
4
 74
0
 40
0
 40
0
 40
0
 40
0
 40
1
 40
1
 40
1
 40
1
 10
32.652496
 20
31.873579
 30
0.0
 10
35.235375
 20
34.343033
 30
0.0
 10
37.192963
 20
35.764089
 30
0.0
 10
39.043110
 20
36.512661
 30
0.0
  0
SPLINE
  5
166
100
AcDbEntity
  8
0
 62
7
100
AcDbSpline
 70
8
 71
3
 72
8
 73
4
 74
0
 40
0
 40
0
 40
0
 40
0
 40
1
 40
1
 40
1
 40
1
 10
39.043110
 20
36.512661
 30
0.0
 10
40.811656
 20
37.228219
 30
0.0
 10
41.520692
 20
37.094149
 30
0.0
 10
41.269105
 20
36.091752
 30
0.0
  0
LWPOLYLINE
  5
167
100
AcDbEntity
  8
0
 62
7
100
AcDbPolyline
 90
3
 70
0
 10
41.344747
 20
52.028296
 30
0.0
 10
42.973133
 20
52.198498
 30
0.0
 10
42.816407
 20
51.300811
 30
0.0
  0
SPLINE
  5
168
100
AcDbEntity
  8
0
 62
7
100
AcDbSpline
 70
8
 71
3
 72
8
 73
4
 74
0
 40
0
 40
0
 40
0
 40
0
 40
1
 40
1
 40
1
 40
1
 10
41.968645
 20
36.062981
 30
0.0
 10
43.278261
 20
37.043537
 30
0.0
 10
44.444523
 20
37.570833
 30
0.0
 10
45.303675
 20
37.570833
 30
0.0
  0
SPLINE
  5
169
100
AcDbEntity
  8
0
 62
7
100
AcDbSpline
 70
8
 71
3
 72
8
 73
4
 74
0
 40
0
 40
0
 40
0
 40
0
 40
1
 40
1
 40
1
 40
1
 10
45.303675
 20
37.570833
 30
0.0
 10
46.151541
 20
37.570833
 30
0.0
 10
47.469163
 20
36.683207
 30
0.0
 10
47.469163
 20
36.112037
 30
0.0
  0
SPLINE
  5
16a
100
AcDbEntity
  8
0
 62
7
100
AcDbSpline
 70
8
 71
3
 72
8
 73
4
 74
0
 40
0
 40
0
 40
0
 40
0
 40
1
 40
1
 40
1
 40
1
 10
47.469163
 20
36.112037
 30
0.0
 10
47.469163
 20
35.328902
 30
0.0
 10
48.025436
 20
35.504054
 30
0.0
 10
49.631084
 20
36.792744
 30
0.0
  0
SPLINE
  5
16b
100
AcDbEntity
  8
0
 62
7
100
AcDbSpline
 70
8
 71
3
 72
8
 73
4
 74
0
 40
0
 40
0
 40
0
 40
0
 40
1
 40
1
 40
1
 40
1
 10
49.631084
 20
36.792744
 30
0.0
 10
52.904006
 20
39.419591
 30
0.0
 10
56.024113
 20
40.755112
 30
0.0
 10
57.641270
 20
40.221403
 30
0.0
  0
SPLINE
  5
16c
100
AcDbEntity
  8
0
 62
7
100
AcDbSpline
 70
8
 71
3
 72
8
 73
4
 74
0
 40
0
 40
0
 40
0
 40
0
 40
1
 40
1
 40
1
 40
1
 10
57.641270
 20
40.221403
 30
0.0
 10
60.061814
 20
39.422552
 30
0.0
 10
61.349871
 20
36.034903
 30
0.0
 10
60.264482
 20
33.322249
 30
0.0
  0
SPLINE
  5
16d
100
AcDbEntity
  8
0
 62
7
100
AcDbSpline
 70
8
 71
3
 72
8
 73
4
 74
0
 40
0
 40
0
 40
0
 40
0
 40
1
 40
1
 40
1
 40
1
 10
60.264482
 20
33.322249
 30
0.0
 10
59.734101
 20
31.996695
 30
0.0
 10
59.162426
 20
31.750000
 30
0.0
 10
56.621071
 20
31.750000
 30
0.0
  0
SPLINE
  5
16e
100
AcDbEntity
  8
0
 62
7
100
AcDbSpline
 70
8
 71
3
 72
8
 73
4
 74
0
 40
0
 40
0
 40
0
 40
0
 40
1
 40
1
 40
1
 40
1
 10
56.621071
 20
31.750000
 30
0.0
 10
55.011929
 20
31.750000
 30
0.0
 10
54.613707
 20
31.839747
 30
0.0
 10
54.201420
 20
32.295319
 30
0.0
  0
SPLINE
  5
16f
100
AcDbEntity
  8
0
 62
7
100
AcDbSpline
 70
8
 71
3
 72
8
 73
4
 74
0
 40
0
 40
0
 40
0
 40
0
 40
1
 40
1
 40
1
 40
1
 10
54.201420
 20
32.295319
 30
0.0
 10
53.504034
 20
33.065924
 30
0.0
 10
54.029552
 20
33.328382
 30
0.0
 10
56.280061
 20
33.333449
 30
0.0
  0
LWPOLYLINE
  5
170
100
AcDbEntity
  8
0
 62
7
100
AcDbPolyline
 90
3
 70
0
 10
41.269105
 20
36.091752
 30
0.0
 10
41.098335
 20
35.411352
 30
0.0
 10
41.968645
 20
36.062981
 30
0.0
  0
SPLINE
  5
171
100
AcDbEntity
  8
0
 62
7
100
AcDbSpline
 70
8
 71
3
 72
8
 73
4
 74
0
 40
0
 40
0
 40
0
 40
0
 40
1
 40
1
 40
1
 40
1
 10
58.462873
 20
34.255041
 30
0.0
 10
59.240669
 20
36.116570
 30
0.0
 10
58.827689
 20
37.870233
 30
0.0
 10
57.502740
 20
38.332111
 30
0.0
  0
SPLINE
  5
172
100
AcDbEntity
  8
0
 62
7
100
AcDbSpline
 70
8
 71
3
 72
8
 73
4
 74
0
 40
0
 40
0
 40
0
 40
0
 40
1
 40
1
 40
1
 40
1
 10
57.502740
 20
38.332111
 30
0.0
 10
54.622028
 20
39.336334
 30
0.0
 10
52.105446
 20
37.711798
 30
0.0
 10
48.066904
 20
32.240971
 30
0.0
  0
SPLINE
  5
173
100
AcDbEntity
  8
0
 62
7
100
AcDbSpline
 70
8
 71
3
 72
8
 73
4
 74
0
 40
0
 40
0
 40
0
 40
0
 40
1
 40
1
 40
1
 40
1
 10
48.066904
 20
32.240971
 30
0.0
 10
47.030881
 20
30.837518
 30
0.0
 10
45.910288
 20
29.498065
 30
0.0
 10
45.576696
 20
29.264409
 30
0.0
  0
SPLINE
  5
174
100
AcDbEntity
  8
0
 62
7
100
AcDbSpline
 70
8
 71
3
 72
8
 73
4
 74
0
 40
0
 40
0
 40
0
 40
0
 40
1
 40
1
 40
1
 40
1
 10
45.576696
 20
29.264409
 30
0.0
 10
44.884700
 20
28.779716
 30
0.0
 10
43.617692
 20
28.700349
 30
0.0
 10
43.355091
 20
29.125246
 30
0.0
  0
SPLINE
  5
175
100
AcDbEntity
  8
0
 62
7
100
AcDbSpline
 70
8
 71
3
 72
8
 73
4
 74
0
 40
0
 40
0
 40
0
 40
0
 40
1
 40
1
 40
1
 40
1
 10
43.355091
 20
29.125246
 30
0.0
 10
43.257989
 20
29.282364
 30
0.0
 10
43.722023
 20
30.205098
 30
0.0
 10
44.386275
 20
31.175767
 30
0.0
  0
SPLINE
  5
176
100
AcDbEntity
  8
0
 62
7
100
AcDbSpline
 70
8
 71
3
 72
8
 73
4
 74
0
 40
0
 40
0
 40
0
 40
0
 40
1
 40
1
 40
1
 40
1
 10
44.386275
 20
31.175767
 30
0.0
 10
46.029716
 20
33.577316
 30
0.0
 10
46.247841
 20
34.225648
 30
0.0
 10
45.741683
 20
35.204450
 30
0.0
  0
SPLINE
  5
177
100
AcDbEntity
  8
0
 62
7
100
AcDbSpline
 70
8
 71
3
 72
8
 73
4
 74
0
 40
0
 40
0
 40
0
 40
0
 40
1
 40
1
 40
1
 40
1
 10
45.741683
 20
35.204450
 30
0.0
 10
44.876847
 20
36.876858
 30
0.0
 10
43.059464
 20
35.604805
 30
0.0
 10
41.288004
 20
32.087159
 30
0.0
  0
SPLINE
  5
178
100
AcDbEntity
  8
0
 62
7
100
AcDbSpline
 70
8
 71
3
 72
8
 73
4
 74
0
 40
0
 40
0
 40
0
 40
0
 40
1
 40
1
 40
1
 40
1
 10
41.288004
 20
32.087159
 30
0.0
 10
39.993136
 20
29.515893
 30
0.0
 10
38.875830
 20
28.575000
 30
0.0
 10
37.117340
 20
28.575000
 30
0.0
  0
SPLINE
  5
179
100
AcDbEntity
  8
0
 62
7
100
AcDbSpline
 70
8
 71
3
 72
8
 73
4
 74
0
 40
0
 40
0
 40
0
 40
0
 40
1
 40
1
 40
1
 40
1
 10
37.117340
 20
28.575000
 30
0.0
 10
36.745706
 20
28.575000
 30
0.0
 10
36.856265
 20
29.881436
 30
0.0
 10
37.407567
 20
32.004497
 30
0.0
  0
SPLINE
  5
17a
100
AcDbEntity
  8
0
 62
7
100
AcDbSpline
 70
8
 71
3
 72
8
 73
4
 74
0
 40
0
 40
0
 40
0
 40
0
 40
1
 40
1
 40
1
 40
1
 10
37.407567
 20
32.004497
 30
0.0
 10
37.689536
 20
33.090358
 30
0.0
 10
37.886158
 20
34.012865
 30
0.0
 10
37.844510
 20
34.054516
 30
0.0
  0
SPLINE
  5
17b
100
AcDbEntity
  8
0
 62
7
100
AcDbSpline
 70
8
 71
3
 72
8
 73
4
 74
0
 40
0
 40
0
 40
0
 40
0
 40
1
 40
1
 40
1
 40
1
 10
37.844510
 20
34.054516
 30
0.0
 10
37.576953
 20
34.322070
 30
0.0
 10
35.029516
 20
32.146314
 30
0.0
 10
32.749374
 20
29.702781
 30
0.0
  0
SPLINE
  5
17c
100
AcDbEntity
  8
0
 62
7
100
AcDbSpline
 70
8
 71
3
 72
8
 73
4
 74
0
 40
0
 40
0
 40
0
 40
0
 40
1
 40
1
 40
1
 40
1
 10
32.749374
 20
29.702781
 30
0.0
 10
29.778801
 20
26.519346
 30
0.0
 10
27.497302
 20
24.987901
 30
0.0
 10
26.368644
 20
25.419751
 30
0.0
  0
LWPOLYLINE
  5
17d
100
AcDbEntity
  8
0
 62
7
100
AcDbPolyline
 90
3
 70
0
 10
56.280061
 20
33.333449
 30
0.0
 10
58.079497
 20
33.337497
 30
0.0
 10
58.462873
 20
34.255041
 30
0.0
  0
SPLINE
  5
17e
100
AcDbEntity
  8
0
 62
7
100
AcDbSpline
 70
8
 71
3
 72
8
 73
4
 74
0
 40
0
 40
0
 40
0
 40
0
 40
1
 40
1
 40
1
 40
1
 10
34.258216
 20
41.711634
 30
0.0
 10
37.104185
 20
44.663214
 30
0.0
 10
40.325413
 20
49.172336
 30
0.0
 10
40.325413
 20
50.204587
 30
0.0
  0
SPLINE
  5
17f
100
AcDbEntity
  8
0
 62
7
100
AcDbSpline
 70
8
 71
3
 72
8
 73
4
 74
0
 40
0
 40
0
 40
0
 40
0
 40
1
 40
1
 40
1
 40
1
 10
40.325413
 20
50.204587
 30
0.0
 10
40.325413
 20
50.609706
 30
0.0
 10
37.994828
 20
48.910177
 30
0.0
 10
35.238013
 20
46.494705
 30
0.0
  0
SPLINE
  5
180
100
AcDbEntity
  8
0
 62
7
100
AcDbSpline
 70
8
 71
3
 72
8
 73
4
 74
0
 40
0
 40
0
 40
0
 40
0
 40
1
 40
1
 40
1
 40
1
 10
35.238013
 20
46.494705
 30
0.0
 10
32.403523
 20
44.011178
 30
0.0
 10
29.964295
 20
40.391292
 30
0.0
 10
29.314518
 20
37.704067
 30
0.0
  0
SPLINE
  5
181
100
AcDbEntity
  8
0
 62
7
100
AcDbSpline
 70
8
 71
3
 72
8
 73
4
 74
0
 40
0
 40
0
 40
0
 40
0
 40
1
 40
1
 40
1
 40
1
 10
29.314518
 20
37.704067
 30
0.0
 10
29.125923
 20
36.924107
 30
0.0
 10
29.148204
 20
36.933328
 30
0.0
 10
30.689219
 20
38.272993
 30
0.0
  0
SPLINE
  5
182
100
AcDbEntity
  8
0
 62
7
100
AcDbSpline
 70
8
 71
3
 72
8
 73
4
 74
0
 40
0
 40
0
 40
0
 40
0
 40
1
 40
1
 40
1
 40
1
 10
30.689219
 20
38.272993
 30
0.0
 10
31.550740
 20
39.021946
 30
0.0
 10
33.156790
 20
40.569335
 30
0.0
 10
34.258216
 20
41.711634
 30
0.0
  0
LWPOLYLINE
  5
183
100
AcDbEntity
  8
0
 62
7
100
AcDbPolyline
 90
1
 70
1
 10
26.368644
 20
25.419751
 30
0.0
  0
SPLINE
  5
184
100
AcDbEntity
  8
0
 62
7
100
AcDbSpline
 70
8
 71
3
 72
8
 73
4
 74
0
 40
0
 40
0
 40
0
 40
0
 40
1
 40
1
 40
1
 40
1
 10
72.898196
 20
26.333397
 30
0.0
 10
68.760507
 20
31.045968
 30
0.0
 10
69.680868
 20
39.095214
 30
0.0
 10
75.293596
 20
47.282968
 30
0.0
  0
SPLINE
  5
185
100
AcDbEntity
  8
0
 62
7
100
AcDbSpline
 70
8
 71
3
 72
8
 73
4
 74
0
 40
0
 40
0
 40
0
 40
0
 40
1
 40
1
 40
1
 40
1
 10
75.293596
 20
47.282968
 30
0.0
 10
77.160901
 20
50.006956
 30
0.0
 10
81.049783
 20
53.857168
 30
0.0
 10
83.193700
 20
55.104509
 30
0.0
  0
SPLINE
  5
186
100
AcDbEntity
  8
0
 62
7
100
AcDbSpline
 70
8
 71
3
 72
8
 73
4
 74
0
 40
0
 40
0
 40
0
 40
0
 40
1
 40
1
 40
1
 40
1
 10
83.193700
 20
55.104509
 30
0.0
 10
87.952448
 20
57.873170
 30
0.0
 10
95.174586
 20
59.631429
 30
0.0
 10
105.809788
 20
60.610488
 30
0.0
  0
SPLINE
  5
187
100
AcDbEntity
  8
0
 62
7
100
AcDbSpline
 70
8
 71
3
 72
8
 73
4
 74
0
 40
0
 40
0
 40
0
 40
0
 40
1
 40
1
 40
1
 40
1
 10
105.809788
 20
60.610488
 30
0.0
 10
109.530438
 20
60.953007
 30
0.0
 10
110.875506
 20
60.782144
 30
0.0
 10
112.068597
 20
59.815450
 30
0.0
  0
SPLINE
  5
188
100
AcDbEntity
  8
0
 62
7
100
AcDbSpline
 70
8
 71
3
 72
8
 73
4
 74
0
 40
0
 40
0
 40
0
 40
0
 40
1
 40
1
 40
1
 40
1
 10
112.068597
 20
59.815450
 30
0.0
 10
112.650270
 20
59.344150
 30
0.0
 10
112.688955
 20
59.133997
 30
0.0
 10
112.688955
 20
56.445465
 30
0.0
  0
SPLINE
  5
189
100
AcDbEntity
  8
0
 62
7
100
AcDbSpline
 70
8
 71
3
 72
8
 73
4
 74
0
 40
0
 40
0
 40
0
 40
0
 40
1
 40
1
 40
1
 40
1
 10
112.688955
 20
56.445465
 30
0.0
 10
112.688955
 20
53.943861
 30
0.0
 10
112.592046
 20
53.314716
 30
0.0
 10
111.929188
 20
51.513023
 30
0.0
  0
SPLINE
  5
18a
100
AcDbEntity
  8
0
 62
7
100
AcDbSpline
 70
8
 71
3
 72
8
 73
4
 74
0
 40
0
 40
0
 40
0
 40
0
 40
1
 40
1
 40
1
 40
1
 10
111.929188
 20
51.513023
 30
0.0
 10
110.229748
 20
46.893805
 30
0.0
 10
106.096157
 20
43.174047
 30
0.0
 10
99.818269
 20
40.614579
 30
0.0
  0
SPLINE
  5
18b
100
AcDbEntity
  8
0
 62
7
100
AcDbSpline
 70
8
 71
3
 72
8
 73
4
 74
0
 40
0
 40
0
 40
0
 40
0
 40
1
 40
1
 40
1
 40
1
 10
99.818269
 20
40.614579
 30
0.0
 10
96.286389
 20
39.174645
 30
0.0
 10
94.486156
 20
38.781432
 30
0.0
 10
91.389996
 20
38.773650
 30
0.0
  0
SPLINE
  5
18c
100
AcDbEntity
  8
0
 62
7
100
AcDbSpline
 70
8
 71
3
 72
8
 73
4
 74
0
 40
0
 40
0
 40
0
 40
0
 40
1
 40
1
 40
1
 40
1
 10
91.389996
 20
38.773650
 30
0.0
 10
88.880463
 20
38.767327
 30
0.0
 10
88.451825
 20
38.840328
 30
0.0
 10
86.956469
 20
39.528586
 30
0.0
  0
SPLINE
  5
18d
100
AcDbEntity
  8
0
 62
7
100
AcDbSpline
 70
8
 71
3
 72
8
 73
4
 74
0
 40
0
 40
0
 40
0
 40
0
 40
1
 40
1
 40
1
 40
1
 10
86.956469
 20
39.528586
 30
0.0
 10
85.628120
 20
40.139977
 30
0.0
 10
85.360089
 20
40.361621
 30
0.0
 10
85.599804
 20
40.650462
 30
0.0
  0
SPLINE
  5
18e
100
AcDbEntity
  8
0
 62
7
100
AcDbSpline
 70
8
 71
3
 72
8
 73
4
 74
0
 40
0
 40
0
 40
0
 40
0
 40
1
 40
1
 40
1
 40
1
 10
85.599804
 20
40.650462
 30
0.0
 10
86.036954
 20
41.177197
 30
0.0
 10
86.744262
 20
41.094234
 30
0.0
 10
88.228448
 20
40.342143
 30
0.0
  0
SPLINE
  5
18f
100
AcDbEntity
  8
0
 62
7
100
AcDbSpline
 70
8
 71
3
 72
8
 73
4
 74
0
 40
0
 40
0
 40
0
 40
0
 40
1
 40
1
 40
1
 40
1
 10
88.228448
 20
40.342143
 30
0.0
 10
89.242458
 20
39.828303
 30
0.0
 10
89.664011
 20
39.736366
 30
0.0
 10
90.052570
 20
39.944318
 30
0.0
  0
SPLINE
  5
190
100
AcDbEntity
  8
0
 62
7
100
AcDbSpline
 70
8
 71
3
 72
8
 73
4
 74
0
 40
0
 40
0
 40
0
 40
0
 40
1
 40
1
 40
1
 40
1
 10
90.052570
 20
39.944318
 30
0.0
 10
90.330507
 20
40.093067
 30
0.0
 10
90.733089
 20
40.147547
 30
0.0
 10
90.947192
 20
40.065389
 30
0.0
  0
SPLINE
  5
191
100
AcDbEntity
  8
0
 62
7
100
AcDbSpline
 70
8
 71
3
 72
8
 73
4
 74
0
 40
0
 40
0
 40
0
 40
0
 40
1
 40
1
 40
1
 40
1
 10
90.947192
 20
40.065389
 30
0.0
 10
91.161296
 20
39.983230
 30
0.0
 10
91.413565
 20
40.040756
 30
0.0
 10
91.507792
 20
40.193211
 30
0.0
  0
SPLINE
  5
192
100
AcDbEntity
  8
0
 62
7
100
AcDbSpline
 70
8
 71
3
 72
8
 73
4
 74
0
 40
0
 40
0
 40
0
 40
0
 40
1
 40
1
 40
1
 40
1
 10
91.507792
 20
40.193211
 30
0.0
 10
91.624899
 20
40.382693
 30
0.0
 10
91.839259
 20
40.370400
 30
0.0
 10
92.185194
 20
40.154360
 30
0.0
  0
SPLINE
  5
193
100
AcDbEntity
  8
0
 62
7
100
AcDbSpline
 70
8
 71
3
 72
8
 73
4
 74
0
 40
0
 40
0
 40
0
 40
0
 40
1
 40
1
 40
1
 40
1
 10
92.185194
 20
40.154360
 30
0.0
 10
92.838543
 20
39.746338
 30
0.0
 10
94.711433
 20
40.123002
 30
0.0
 10
97.634684
 20
41.250328
 30
0.0
  0
SPLINE
  5
194
100
AcDbEntity
  8
0
 62
7
100
AcDbSpline
 70
8
 71
3
 72
8
 73
4
 74
0
 40
0
 40
0
 40
0
 40
0
 40
1
 40
1
 40
1
 40
1
 10
97.634684
 20
41.250328
 30
0.0
 10
104.346454
 20
43.838659
 30
0.0
 10
109.168872
 20
48.799470
 30
0.0
 10
110.159231
 20
54.134300
 30
0.0
  0
SPLINE
  5
195
100
AcDbEntity
  8
0
 62
7
100
AcDbSpline
 70
8
 71
3
 72
8
 73
4
 74
0
 40
0
 40
0
 40
0
 40
0
 40
1
 40
1
 40
1
 40
1
 10
110.159231
 20
54.134300
 30
0.0
 10
110.448611
 20
55.693120
 30
0.0
 10
110.306302
 20
58.362196
 30
0.0
 10
109.898640
 20
59.021805
 30
0.0
  0
SPLINE
  5
196
100
AcDbEntity
  8
0
 62
7
100
AcDbSpline
 70
8
 71
3
 72
8
 73
4
 74
0
 40
0
 40
0
 40
0
 40
0
 40
1
 40
1
 40
1
 40
1
 10
109.898640
 20
59.021805
 30
0.0
 10
109.571555
 20
59.551043
 30
0.0
 10
102.563829
 20
59.467628
 30
0.0
 10
98.969057
 20
58.891707
 30
0.0
  0
SPLINE
  5
197
100
AcDbEntity
  8
0
 62
7
100
AcDbSpline
 70
8
 71
3
 72
8
 73
4
 74
0
 40
0
 40
0
 40
0
 40
0
 40
1
 40
1
 40
1
 40
1
 10
98.969057
 20
58.891707
 30
0.0
 10
91.210789
 20
57.648750
 30
0.0
 10
84.144453
 20
54.607674
 30
0.0
 10
79.798995
 20
50.641655
 30
0.0
  0
SPLINE
  5
198
100
AcDbEntity
  8
0
 62
7
100
AcDbSpline
 70
8
 71
3
 72
8
 73
4
 74
0
 40
0
 40
0
 40
0
 40
0
 40
1
 40
1
 40
1
 40
1
 10
79.798995
 20
50.641655
 30
0.0
 10
75.707536
 20
46.907458
 30
0.0
 10
72.392757
 20
40.388648
 30
0.0
 10
71.899513
 20
35.106621
 30
0.0
  0
SPLINE
  5
199
100
AcDbEntity
  8
0
 62
7
100
AcDbSpline
 70
8
 71
3
 72
8
 73
4
 74
0
 40
0
 40
0
 40
0
 40
0
 40
1
 40
1
 40
1
 40
1
 10
71.899513
 20
35.106621
 30
0.0
 10
71.628201
 20
32.201197
 30
0.0
 10
72.789510
 20
29.083643
 30
0.0
 10
74.672082
 20
27.663616
 30
0.0
  0
LWPOLYLINE
  5
19a
100
AcDbEntity
  8
0
 62
7
100
AcDbPolyline
 90
1
 70
1
 10
34.258216
 20
41.711634
 30
0.0
  0
SPLINE
  5
19b
100
AcDbEntity
  8
0
 62
7
100
AcDbSpline
 70
8
 71
3
 72
8
 73
4
 74
0
 40
0
 40
0
 40
0
 40
0
 40
1
 40
1
 40
1
 40
1
 10
76.948652
 20
28.874826
 30
0.0
 10
78.716902
 20
30.759196
 30
0.0
 10
80.380845
 20
33.399124
 30
0.0
 10
81.345752
 20
35.851042
 30
0.0
  0
SPLINE
  5
19c
100
AcDbEntity
  8
0
 62
7
100
AcDbSpline
 70
8
 71
3
 72
8
 73
4
 74
0
 40
0
 40
0
 40
0
 40
0
 40
1
 40
1
 40
1
 40
1
 10
81.345752
 20
35.851042
 30
0.0
 10
81.896286
 20
37.250005
 30
0.0
 10
81.964308
 20
37.823471
 30
0.0
 10
81.918487
 20
40.679688
 30
0.0
  0
LWPOLYLINE
  5
19d
100
AcDbEntity
  8
0
 62
7
100
AcDbPolyline
 90
3
 70
0
 10
74.672082
 20
27.663616
 30
0.0
 10
75.339599
 20
27.160106
 30
0.0
 10
76.948652
 20
28.874826
 30
0.0
  0
SPLINE
  5
19e
100
AcDbEntity
  8
0
 62
7
100
AcDbSpline
 70
8
 71
3
 72
8
 73
4
 74
0
 40
0
 40
0
 40
0
 40
0
 40
1
 40
1
 40
1
 40
1
 10
82.659493
 20
43.920833
 30
0.0
 10
84.457278
 20
43.920833
 30
0.0
 10
85.111688
 20
41.886473
 30
0.0
 10
84.414169
 20
38.466075
 30
0.0
  0
SPLINE
  5
19f
100
AcDbEntity
  8
0
 62
7
100
AcDbSpline
 70
8
 71
3
 72
8
 73
4
 74
0
 40
0
 40
0
 40
0
 40
0
 40
1
 40
1
 40
1
 40
1
 10
84.414169
 20
38.466075
 30
0.0
 10
84.184858
 20
37.341609
 30
0.0
 10
83.581364
 20
35.545877
 30
0.0
 10
83.073076
 20
34.475560
 30
0.0
  0
SPLINE
  5
1a0
100
AcDbEntity
  8
0
 62
7
100
AcDbSpline
 70
8
 71
3
 72
8
 73
4
 74
0
 40
0
 40
0
 40
0
 40
0
 40
1
 40
1
 40
1
 40
1
 10
83.073076
 20
34.475560
 30
0.0
 10
82.049236
 20
32.319648
 30
0.0
 10
79.501815
 20
28.477443
 30
0.0
 10
77.858429
 20
26.610461
 30
0.0
  0
SPLINE
  5
1a1
100
AcDbEntity
  8
0
 62
7
100
AcDbSpline
 70
8
 71
3
 72
8
 73
4
 74
0
 40
0
 40
0
 40
0
 40
0
 40
1
 40
1
 40
1
 40
1
 10
77.858429
 20
26.610461
 30
0.0
 10
76.822861
 20
25.433991
 30
0.0
 10
76.749762
 20
25.400000
 30
0.0
 10
75.255337
 20
25.400000
 30
0.0
  0
SPLINE
  5
1a2
100
AcDbEntity
  8
0
 62
7
100
AcDbSpline
 70
8
 71
3
 72
8
 73
4
 74
0
 40
0
 40
0
 40
0
 40
0
 40
1
 40
1
 40
1
 40
1
 10
75.255337
 20
25.400000
 30
0.0
 10
73.827024
 20
25.400000
 30
0.0
 10
73.659476
 20
25.466347
 30
0.0
 10
72.898196
 20
26.333397
 30
0.0
  0
LWPOLYLINE
  5
1a3
100
AcDbEntity
  8
0
 62
7
100
AcDbPolyline
 90
3
 70
0
 10
81.918487
 20
40.679688
 30
0.0
 10
81.866491
 20
43.920833
 30
0.0
 10
82.659493
 20
43.920833
 30
0.0
  0
SPLINE
  5
1a4
100
AcDbEntity
  8
0
 62
7
100
AcDbSpline
 70
8
 71
3
 72
8
 73
4
 74
0
 40
0
 40
0
 40
0
 40
0
 40
1
 40
1
 40
1
 40
1
 10
51.575877
 20
46.003916
 30
0.0
 10
51.361348
 20
47.273715
 30
0.0
 10
51.953533
 20
48.823983
 30
0.0
 10
52.749630
 20
49.076655
 30
0.0
  0
SPLINE
  5
1a5
100
AcDbEntity
  8
0
 62
7
100
AcDbSpline
 70
8
 71
3
 72
8
 73
4
 74
0
 40
0
 40
0
 40
0
 40
0
 40
1
 40
1
 40
1
 40
1
 10
52.749630
 20
49.076655
 30
0.0
 10
53.535376
 20
49.326041
 30
0.0
 10
54.722562
 20
48.533701
 30
0.0
 10
54.458661
 20
47.936034
 30
0.0
  0
SPLINE
  5
1a6
100
AcDbEntity
  8
0
 62
7
100
AcDbSpline
 70
8
 71
3
 72
8
 73
4
 74
0
 40
0
 40
0
 40
0
 40
0
 40
1
 40
1
 40
1
 40
1
 10
54.458661
 20
47.936034
 30
0.0
 10
54.350997
 20
47.692204
 30
0.0
 10
54.073769
 20
46.928754
 30
0.0
 10
53.842597
 20
46.239478
 30
0.0
  0
SPLINE
  5
1a7
100
AcDbEntity
  8
0
 62
7
100
AcDbSpline
 70
8
 71
3
 72
8
 73
4
 74
0
 40
0
 40
0
 40
0
 40
0
 40
1
 40
1
 40
1
 40
1
 10
53.842597
 20
46.239478
 30
0.0
 10
53.460179
 20
45.099221
 30
0.0
 10
53.346866
 20
44.985924
 30
0.0
 10
52.585649
 20
44.982707
 30
0.0
  0
SPLINE
  5
1a8
100
AcDbEntity
  8
0
 62
7
100
AcDbSpline
 70
8
 71
3
 72
8
 73
4
 74
0
 40
0
 40
0
 40
0
 40
0
 40
1
 40
1
 40
1
 40
1
 10
52.585649
 20
44.982707
 30
0.0
 10
51.819469
 20
44.979479
 30
0.0
 10
51.734429
 20
45.065468
 30
0.0
 10
51.575877
 20
46.003916
 30
0.0
  0
LWPOLYLINE
  5
1a9
100
AcDbEntity
  8
0
 62
7
100
AcDbPolyline
 90
1
 70
1
 10
72.898196
 20
26.333397
 30
0.0
  0
SPLINE
  5
1aa
100
AcDbEntity
  8
0
 62
7
100
AcDbSpline
 70
8
 71
3
 72
8
 73
4
 74
0
 40
0
 40
0
 40
0
 40
0
 40
1
 40
1
 40
1
 40
1
 10
66.737558
 20
49.847532
 30
0.0
 10
65.602813
 20
50.252797
 30
0.0
 10
64.034509
 20
51.411129
 30
0.0
 10
62.090954
 20
53.279466
 30
0.0
  0
LWPOLYLINE
  5
1ab
100
AcDbEntity
  8
0
 62
7
100
AcDbPolyline
 90
1
 70
1
 10
51.575877
 20
46.003916
 30
0.0
  0
SPLINE
  5
1ac
100
AcDbEntity
  8
0
 62
7
100
AcDbSpline
 70
8
 71
3
 72
8
 73
4
 74
0
 40
0
 40
0
 40
0
 40
0
 40
1
 40
1
 40
1
 40
1
 10
58.122204
 20
53.767665
 30
0.0
 10
54.537107
 20
52.596780
 30
0.0
 10
53.009033
 20
52.317129
 30
0.0
 10
50.804490
 20
52.428452
 30
0.0
  0
SPLINE
  5
1ad
100
AcDbEntity
  8
0
 62
7
100
AcDbSpline
 70
8
 71
3
 72
8
 73
4
 74
0
 40
0
 40
0
 40
0
 40
0
 40
1
 40
1
 40
1
 40
1
 10
50.804490
 20
52.428452
 30
0.0
 10
47.425859
 20
52.599066
 30
0.0
 10
46.491215
 20
53.321027
 30
0.0
 10
42.518367
 20
58.829011
 30
0.0
  0
SPLINE
  5
1ae
100
AcDbEntity
  8
0
 62
7
100
AcDbSpline
 70
8
 71
3
 72
8
 73
4
 74
0
 40
0
 40
0
 40
0
 40
0
 40
1
 40
1
 40
1
 40
1
 10
42.518367
 20
58.829011
 30
0.0
 10
41.289856
 20
60.532230
 30
0.0
 10
40.542017
 20
61.292716
 30
0.0
 10
39.556698
 20
61.840769
 30
0.0
  0
SPLINE
  5
1af
100
AcDbEntity
  8
0
 62
7
100
AcDbSpline
 70
8
 71
3
 72
8
 73
4
 74
0
 40
0
 40
0
 40
0
 40
0
 40
1
 40
1
 40
1
 40
1
 10
39.556698
 20
61.840769
 30
0.0
 10
38.406861
 20
62.480333
 30
0.0
 10
37.903415
 20
63.080760
 30
0.0
 10
35.614205
 20
66.542708
 30
0.0
  0
SPLINE
  5
1b0
100
AcDbEntity
  8
0
 62
7
100
AcDbSpline
 70
8
 71
3
 72
8
 73
4
 74
0
 40
0
 40
0
 40
0
 40
0
 40
1
 40
1
 40
1
 40
1
 10
35.614205
 20
66.542708
 30
0.0
 10
32.811482
 20
70.781235
 30
0.0
 10
29.611865
 20
75.965222
 30
0.0
 10
28.745082
 20
77.671988
 30
0.0
  0
SPLINE
  5
1b1
100
AcDbEntity
  8
0
 62
7
100
AcDbSpline
 70
8
 71
3
 72
8
 73
4
 74
0
 40
0
 40
0
 40
0
 40
0
 40
1
 40
1
 40
1
 40
1
 10
28.745082
 20
77.671988
 30
0.0
 10
28.454157
 20
78.244843
 30
0.0
 10
27.650435
 20
80.439948
 30
0.0
 10
26.959031
 20
82.550000
 30
0.0
  0
SPLINE
  5
1b2
100
AcDbEntity
  8
0
 62
7
100
AcDbSpline
 70
8
 71
3
 72
8
 73
4
 74
0
 40
0
 40
0
 40
0
 40
0
 40
1
 40
1
 40
1
 40
1
 10
26.959031
 20
82.550000
 30
0.0
 10
25.031818
 20
88.431537
 30
0.0
 10
24.782763
 20
88.794929
 30
0.0
 10
21.626133
 20
90.331168
 30
0.0
  0
SPLINE
  5
1b3
100
AcDbEntity
  8
0
 62
7
100
AcDbSpline
 70
8
 71
3
 72
8
 73
4
 74
0
 40
0
 40
0
 40
0
 40
0
 40
1
 40
1
 40
1
 40
1
 10
21.626133
 20
90.331168
 30
0.0
 10
18.298061
 20
91.950844
 30
0.0
 10
18.073107
 20
92.610220
 30
0.0
 10
17.826764
 20
101.467708
 30
0.0
  0
SPLINE
  5
1b4
100
AcDbEntity
  8
0
 62
7
100
AcDbSpline
 70
8
 71
3
 72
8
 73
4
 74
0
 40
0
 40
0
 40
0
 40
0
 40
1
 40
1
 40
1
 40
1
 10
17.826764
 20
101.467708
 30
0.0
 10
17.714948
 20
105.488086
 30
0.0
 10
17.504115
 20
108.769581
 30
0.0
 10
17.319428
 20
109.364044
 30
0.0
  0
SPLINE
  5
1b5
100
AcDbEntity
  8
0
 62
7
100
AcDbSpline
 70
8
 71
3
 72
8
 73
4
 74
0
 40
0
 40
0
 40
0
 40
0
 40
1
 40
1
 40
1
 40
1
 10
17.319428
 20
109.364044
 30
0.0
 10
16.789494
 20
111.069771
 30
0.0
 10
15.570053
 20
112.149006
 30
0.0
 10
13.535082
 20
112.713286
 30
0.0
  0
LWPOLYLINE
  5
1b6
100
AcDbEntity
  8
0
 62
7
100
AcDbPolyline
 90
3
 70
0
 10
62.090954
 20
53.279466
 30
0.0
 10
60.705452
 20
54.611347
 30
0.0
 10
58.122204
 20
53.767665
 30
0.0
  0
SPLINE
  5
1b7
100
AcDbEntity
  8
0
 62
7
100
AcDbSpline
 70
8
 71
3
 72
8
 73
4
 74
0
 40
0
 40
0
 40
0
 40
0
 40
1
 40
1
 40
1
 40
1
 10
11.750414
 20
112.123680
 30
0.0
 10
11.750414
 20
110.740775
 30
0.0
 10
12.767055
 20
108.970948
 30
0.0
 10
14.070038
 20
108.085549
 30
0.0
  0
SPLINE
  5
1b8
100
AcDbEntity
  8
0
 62
7
100
AcDbSpline
 70
8
 71
3
 72
8
 73
4
 74
0
 40
0
 40
0
 40
0
 40
0
 40
1
 40
1
 40
1
 40
1
 10
14.070038
 20
108.085549
 30
0.0
 10
14.900377
 20
107.521319
 30
0.0
 10
14.960363
 20
107.420833
 30
0.0
 10
14.466857
 20
107.420833
 30
0.0
  0
SPLINE
  5
1b9
100
AcDbEntity
  8
0
 62
7
100
AcDbSpline
 70
8
 71
3
 72
8
 73
4
 74
0
 40
0
 40
0
 40
0
 40
0
 40
1
 40
1
 40
1
 40
1
 10
14.466857
 20
107.420833
 30
0.0
 10
14.147087
 20
107.420833
 30
0.0
 10
13.322233
 20
107.778021
 30
0.0
 10
12.633845
 20
108.214583
 30
0.0
  0
SPLINE
  5
1ba
100
AcDbEntity
  8
0
 62
7
100
AcDbSpline
 70
8
 71
3
 72
8
 73
4
 74
0
 40
0
 40
0
 40
0
 40
0
 40
1
 40
1
 40
1
 40
1
 10
12.633845
 20
108.214583
 30
0.0
 10
11.037452
 20
109.226985
 30
0.0
 10
10.162914
 20
109.269157
 30
0.0
 10
10.162914
 20
108.333736
 30
0.0
  0
SPLINE
  5
1bb
100
AcDbEntity
  8
0
 62
7
100
AcDbSpline
 70
8
 71
3
 72
8
 73
4
 74
0
 40
0
 40
0
 40
0
 40
0
 40
1
 40
1
 40
1
 40
1
 10
10.162914
 20
108.333736
 30
0.0
 10
10.162914
 20
107.379603
 30
0.0
 10
10.775494
 20
106.311803
 30
0.0
 10
11.878399
 20
105.343441
 30
0.0
  0
SPLINE
  5
1bc
100
AcDbEntity
  8
0
 62
7
100
AcDbSpline
 70
8
 71
3
 72
8
 73
4
 74
0
 40
0
 40
0
 40
0
 40
0
 40
1
 40
1
 40
1
 40
1
 10
11.878399
 20
105.343441
 30
0.0
 10
12.612107
 20
104.699237
 30
0.0
 10
12.716350
 20
104.510417
 30
0.0
 10
12.338289
 20
104.510417
 30
0.0
  0
SPLINE
  5
1bd
100
AcDbEntity
  8
0
 62
7
100
AcDbSpline
 70
8
 71
3
 72
8
 73
4
 74
0
 40
0
 40
0
 40
0
 40
0
 40
1
 40
1
 40
1
 40
1
 10
12.338289
 20
104.510417
 30
0.0
 10
12.069409
 20
104.510417
 30
0.0
 10
11.507209
 20
104.867604
 30
0.0
 10
11.088956
 20
105.304167
 30
0.0
  0
SPLINE
  5
1be
100
AcDbEntity
  8
0
 62
7
100
AcDbSpline
 70
8
 71
3
 72
8
 73
4
 74
0
 40
0
 40
0
 40
0
 40
0
 40
1
 40
1
 40
1
 40
1
 10
11.088956
 20
105.304167
 30
0.0
 10
10.070329
 20
106.367384
 30
0.0
 10
9.800819
 20
106.305469
 30
0.0
 10
9.969612
 20
105.047018
 30
0.0
  0
SPLINE
  5
1bf
100
AcDbEntity
  8
0
 62
7
100
AcDbSpline
 70
8
 71
3
 72
8
 73
4
 74
0
 40
0
 40
0
 40
0
 40
0
 40
1
 40
1
 40
1
 40
1
 10
9.969612
 20
105.047018
 30
0.0
 10
10.176829
 20
103.502100
 30
0.0
 10
11.047469
 20
102.290618
 30
0.0
 10
13.168309
 20
100.596078
 30
0.0
  0
SPLINE
  5
1c0
100
AcDbEntity
  8
0
 62
7
100
AcDbSpline
 70
8
 71
3
 72
8
 73
4
 74
0
 40
0
 40
0
 40
0
 40
0
 40
1
 40
1
 40
1
 40
1
 10
13.168309
 20
100.596078
 30
0.0
 10
14.740598
 20
99.339826
 30
0.0
 10
14.961202
 20
99.072716
 30
0.0
 10
14.482708
 20
99.004572
 30
0.0
  0
SPLINE
  5
1c1
100
AcDbEntity
  8
0
 62
7
100
AcDbSpline
 70
8
 71
3
 72
8
 73
4
 74
0
 40
0
 40
0
 40
0
 40
0
 40
1
 40
1
 40
1
 40
1
 10
14.482708
 20
99.004572
 30
0.0
 10
12.943127
 20
98.785320
 30
0.0
 10
10.625602
 20
100.839098
 30
0.0
 10
9.335586
 20
103.565918
 30
0.0
  0
SPLINE
  5
1c2
100
AcDbEntity
  8
0
 62
7
100
AcDbSpline
 70
8
 71
3
 72
8
 73
4
 74
0
 40
0
 40
0
 40
0
 40
0
 40
1
 40
1
 40
1
 40
1
 10
9.335586
 20
103.565918
 30
0.0
 10
8.393894
 20
105.556455
 30
0.0
 10
8.334554
 20
104.929826
 30
0.0
 10
9.251134
 20
102.674113
 30
0.0
  0
SPLINE
  5
1c3
100
AcDbEntity
  8
0
 62
7
100
AcDbSpline
 70
8
 71
3
 72
8
 73
4
 74
0
 40
0
 40
0
 40
0
 40
0
 40
1
 40
1
 40
1
 40
1
 10
9.251134
 20
102.674113
 30
0.0
 10
9.985173
 20
100.867633
 30
0.0
 10
9.906888
 20
100.298012
 30
0.0
 10
9.067701
 20
101.339370
 30
0.0
  0
SPLINE
  5
1c4
100
AcDbEntity
  8
0
 62
7
100
AcDbSpline
 70
8
 71
3
 72
8
 73
4
 74
0
 40
0
 40
0
 40
0
 40
0
 40
1
 40
1
 40
1
 40
1
 10
9.067701
 20
101.339370
 30
0.0
 10
7.976030
 20
102.694036
 30
0.0
 10
7.278353
 20
104.633464
 30
0.0
 10
6.975169
 20
107.156250
 30
0.0
  0
SPLINE
  5
1c5
100
AcDbEntity
  8
0
 62
7
100
AcDbSpline
 70
8
 71
3
 72
8
 73
4
 74
0
 40
0
 40
0
 40
0
 40
0
 40
1
 40
1
 40
1
 40
1
 10
6.975169
 20
107.156250
 30
0.0
 10
5.891063
 20
116.177126
 30
0.0
 10
5.593335
 20
117.290231
 30
0.0
 10
3.841167
 20
118.873209
 30
0.0
  0
SPLINE
  5
1c6
100
AcDbEntity
  8
0
 62
7
100
AcDbSpline
 70
8
 71
3
 72
8
 73
4
 74
0
 40
0
 40
0
 40
0
 40
0
 40
1
 40
1
 40
1
 40
1
 10
3.841167
 20
118.873209
 30
0.0
 10
2.960916
 20
119.668462
 30
0.0
 10
2.882626
 20
119.852268
 30
0.0
 10
2.966835
 20
120.925942
 30
0.0
  0
SPLINE
  5
1c7
100
AcDbEntity
  8
0
 62
7
100
AcDbSpline
 70
8
 71
3
 72
8
 73
4
 74
0
 40
0
 40
0
 40
0
 40
0
 40
1
 40
1
 40
1
 40
1
 10
2.966835
 20
120.925942
 30
0.0
 10
3.017704
 20
121.574539
 30
0.0
 10
2.915702
 20
122.462396
 30
0.0
 10
2.740161
 20
122.898958
 30
0.0
  0
LWPOLYLINE
  5
1c8
100
AcDbEntity
  8
0
 62
7
100
AcDbPolyline
 90
3
 70
0
 10
13.535082
 20
112.713286
 30
0.0
 10
11.750414
 20
113.208160
 30
0.0
 10
11.750414
 20
112.123680
 30
0.0
  0
SPLINE
  5
1c9
100
AcDbEntity
  8
0
 62
7
100
AcDbSpline
 70
8
 71
3
 72
8
 73
4
 74
0
 40
0
 40
0
 40
0
 40
0
 40
1
 40
1
 40
1
 40
1
 10
2.161848
 20
122.766667
 30
0.0
 10
1.786632
 20
121.425864
 30
0.0
 10
2.092773
 20
117.860998
 30
0.0
 10
2.741185
 20
116.020591
 30
0.0
  0
SPLINE
  5
1ca
100
AcDbEntity
  8
0
 62
7
100
AcDbSpline
 70
8
 71
3
 72
8
 73
4
 74
0
 40
0
 40
0
 40
0
 40
0
 40
1
 40
1
 40
1
 40
1
 10
2.741185
 20
116.020591
 30
0.0
 10
3.048650
 20
115.147908
 30
0.0
 10
3.659305
 20
113.987048
 30
0.0
 10
4.098199
 20
113.440903
 30
0.0
  0
SPLINE
  5
1cb
100
AcDbEntity
  8
0
 62
7
100
AcDbSpline
 70
8
 71
3
 72
8
 73
4
 74
0
 40
0
 40
0
 40
0
 40
0
 40
1
 40
1
 40
1
 40
1
 10
4.098199
 20
113.440903
 30
0.0
 10
4.971797
 20
112.353826
 30
0.0
 10
4.937637
 20
112.262364
 30
0.0
 10
3.865921
 20
112.819003
 30
0.0
  0
SPLINE
  5
1cc
100
AcDbEntity
  8
0
 62
7
100
AcDbSpline
 70
8
 71
3
 72
8
 73
4
 74
0
 40
0
 40
0
 40
0
 40
0
 40
1
 40
1
 40
1
 40
1
 10
3.865921
 20
112.819003
 30
0.0
 10
2.992770
 20
113.272512
 30
0.0
 10
2.206190
 20
114.324125
 30
0.0
 10
1.609401
 20
115.835856
 30
0.0
  0
SPLINE
  5
1cd
100
AcDbEntity
  8
0
 62
7
100
AcDbSpline
 70
8
 71
3
 72
8
 73
4
 74
0
 40
0
 40
0
 40
0
 40
0
 40
1
 40
1
 40
1
 40
1
 10
1.609401
 20
115.835856
 30
0.0
 10
0.821030
 20
117.832878
 30
0.0
 10
0.379943
 20
124.439025
 30
0.0
 10
0.855142
 20
127.132291
 30
0.0
  0
SPLINE
  5
1ce
100
AcDbEntity
  8
0
 62
7
100
AcDbSpline
 70
8
 71
3
 72
8
 73
4
 74
0
 40
0
 40
0
 40
0
 40
0
 40
1
 40
1
 40
1
 40
1
 10
0.855142
 20
127.132291
 30
0.0
 10
1.027691
 20
128.110217
 30
0.0
 10
1.165335
 20
128.250026
 30
0.0
 10
2.666837
 20
128.972476
 30
0.0
  0
SPLINE
  5
1cf
100
AcDbEntity
  8
0
 62
7
100
AcDbSpline
 70
8
 71
3
 72
8
 73
4
 74
0
 40
0
 40
0
 40
0
 40
0
 40
1
 40
1
 40
1
 40
1
 10
2.666837
 20
128.972476
 30
0.0
 10
4.133955
 20
129.678379
 30
0.0
 10
4.306749
 20
129.847818
 30
0.0
 10
4.445705
 20
130.716807
 30
0.0
  0
SPLINE
  5
1d0
100
AcDbEntity
  8
0
 62
7
100
AcDbSpline
 70
8
 71
3
 72
8
 73
4
 74
0
 40
0
 40
0
 40
0
 40
0
 40
1
 40
1
 40
1
 40
1
 10
4.445705
 20
130.716807
 30
0.0
 10
4.659835
 20
132.055901
 30
0.0
 10
5.518032
 20
133.907900
 30
0.0
 10
6.330824
 20
134.784918
 30
0.0
  0
SPLINE
  5
1d1
100
AcDbEntity
  8
0
 62
7
100
AcDbSpline
 70
8
 71
3
 72
8
 73
4
 74
0
 40
0
 40
0
 40
0
 40
0
 40
1
 40
1
 40
1
 40
1
 10
6.330824
 20
134.784918
 30
0.0
 10
6.848294
 20
135.343277
 30
0.0
 10
7.197970
 20
135.495897
 30
0.0
 10
7.768078
 20
135.412223
 30
0.0
  0
SPLINE
  5
1d2
100
AcDbEntity
  8
0
 62
7
100
AcDbSpline
 70
8
 71
3
 72
8
 73
4
 74
0
 40
0
 40
0
 40
0
 40
0
 40
1
 40
1
 40
1
 40
1
 10
7.768078
 20
135.412223
 30
0.0
 10
8.443207
 20
135.313135
 30
0.0
 10
8.552266
 20
135.404389
 30
0.0
 10
8.817767
 20
136.290548
 30
0.0
  0
SPLINE
  5
1d3
100
AcDbEntity
  8
0
 62
7
100
AcDbSpline
 70
8
 71
3
 72
8
 73
4
 74
0
 40
0
 40
0
 40
0
 40
0
 40
1
 40
1
 40
1
 40
1
 10
8.817767
 20
136.290548
 30
0.0
 10
9.217188
 20
137.623699
 30
0.0
 10
10.756441
 20
139.844882
 30
0.0
 10
12.648318
 20
141.818140
 30
0.0
  0
LWPOLYLINE
  5
1d4
100
AcDbEntity
  8
0
 62
7
100
AcDbPolyline
 90
3
 70
0
 10
2.740161
 20
122.898958
 30
0.0
 10
2.420997
 20
123.692708
 30
0.0
 10
2.161848
 20
122.766667
 30
0.0
  0
SPLINE
  5
1d5
100
AcDbEntity
  8
0
 62
7
100
AcDbSpline
 70
8
 71
3
 72
8
 73
4
 74
0
 40
0
 40
0
 40
0
 40
0
 40
1
 40
1
 40
1
 40
1
 10
16.220193
 20
143.154787
 30
0.0
 10
22.405008
 20
142.264210
 30
0.0
 10
22.844912
 20
142.231417
 30
0.0
 10
24.123265
 20
142.565657
 30
0.0
  0
SPLINE
  5
1d6
100
AcDbEntity
  8
0
 62
7
100
AcDbSpline
 70
8
 71
3
 72
8
 73
4
 74
0
 40
0
 40
0
 40
0
 40
0
 40
1
 40
1
 40
1
 40
1
 10
24.123265
 20
142.565657
 30
0.0
 10
24.812965
 20
142.745986
 30
0.0
 10
26.506659
 20
143.657066
 30
0.0
 10
27.889996
 20
144.591875
 30
0.0
  0
SPLINE
  5
1d7
100
AcDbEntity
  8
0
 62
7
100
AcDbSpline
 70
8
 71
3
 72
8
 73
4
 74
0
 40
0
 40
0
 40
0
 40
0
 40
1
 40
1
 40
1
 40
1
 10
27.889996
 20
144.591875
 30
0.0
 10
29.272444
 20
145.526082
 30
0.0
 10
30.760726
 20
146.374882
 30
0.0
 10
31.197288
 20
146.478097
 30
0.0
  0
LWPOLYLINE
  5
1d8
100
AcDbEntity
  8
0
 62
7
100
AcDbPolyline
 90
3
 70
0
 10
12.648318
 20
141.818140
 30
0.0
 10
14.207682
 20
143.444578
 30
0.0
 10
16.220193
 20
143.154787
 30
0.0
  0
SPLINE
  5
1d9
100
AcDbEntity
  8
0
 62
7
100
AcDbSpline
 70
8
 71
3
 72
8
 73
4
 74
0
 40
0
 40
0
 40
0
 40
0
 40
1
 40
1
 40
1
 40
1
 10
31.038432
 20
145.607180
 30
0.0
 10
30.512216
 20
145.022424
 30
0.0
 10
29.756494
 20
143.686748
 30
0.0
 10
29.350060
 20
142.623121
 30
0.0
  0
SPLINE
  5
1da
100
AcDbEntity
  8
0
 62
7
100
AcDbSpline
 70
8
 71
3
 72
8
 73
4
 74
0
 40
0
 40
0
 40
0
 40
0
 40
1
 40
1
 40
1
 40
1
 10
29.350060
 20
142.623121
 30
0.0
 10
28.945388
 20
141.564109
 30
0.0
 10
28.260400
 20
140.294580
 30
0.0
 10
27.827862
 20
139.801947
 30
0.0
  0
SPLINE
  5
1db
100
AcDbEntity
  8
0
 62
7
100
AcDbSpline
 70
8
 71
3
 72
8
 73
4
 74
0
 40
0
 40
0
 40
0
 40
0
 40
1
 40
1
 40
1
 40
1
 10
27.827862
 20
139.801947
 30
0.0
 10
26.745618
 20
138.569339
 30
0.0
 10
27.433664
 20
138.652070
 30
0.0
 10
29.180454
 20
139.964583
 30
0.0
  0
SPLINE
  5
1dc
100
AcDbEntity
  8
0
 62
7
100
AcDbSpline
 70
8
 71
3
 72
8
 73
4
 74
0
 40
0
 40
0
 40
0
 40
0
 40
1
 40
1
 40
1
 40
1
 10
29.180454
 20
139.964583
 30
0.0
 10
29.955135
 20
140.546667
 30
0.0
 10
30.829713
 20
141.022917
 30
0.0
 10
31.123961
 20
141.022917
 30
0.0
  0
SPLINE
  5
1dd
100
AcDbEntity
  8
0
 62
7
100
AcDbSpline
 70
8
 71
3
 72
8
 73
4
 74
0
 40
0
 40
0
 40
0
 40
0
 40
1
 40
1
 40
1
 40
1
 10
31.123961
 20
141.022917
 30
0.0
 10
31.541522
 20
141.022917
 30
0.0
 10
31.594272
 20
141.100858
 30
0.0
 10
31.364272
 20
141.377990
 30
0.0
  0
SPLINE
  5
1de
100
AcDbEntity
  8
0
 62
7
100
AcDbSpline
 70
8
 71
3
 72
8
 73
4
 74
0
 40
0
 40
0
 40
0
 40
0
 40
1
 40
1
 40
1
 40
1
 10
31.364272
 20
141.377990
 30
0.0
 10
31.202196
 20
141.573280
 30
0.0
 10
31.141853
 20
141.805327
 30
0.0
 10
31.230176
 20
141.893651
 30
0.0
  0
SPLINE
  5
1df
100
AcDbEntity
  8
0
 62
7
100
AcDbSpline
 70
8
 71
3
 72
8
 73
4
 74
0
 40
0
 40
0
 40
0
 40
0
 40
1
 40
1
 40
1
 40
1
 10
31.230176
 20
141.893651
 30
0.0
 10
31.318499
 20
141.981974
 30
0.0
 10
31.261069
 20
142.426275
 30
0.0
 10
31.102557
 20
142.880986
 30
0.0
  0
SPLINE
  5
1e0
100
AcDbEntity
  8
0
 62
7
100
AcDbSpline
 70
8
 71
3
 72
8
 73
4
 74
0
 40
0
 40
0
 40
0
 40
0
 40
1
 40
1
 40
1
 40
1
 10
31.102557
 20
142.880986
 30
0.0
 10
30.820466
 20
143.690189
 30
0.0
 10
30.829644
 20
143.704626
 30
0.0
 10
31.534986
 20
143.561288
 30
0.0
  0
SPLINE
  5
1e1
100
AcDbEntity
  8
0
 62
7
100
AcDbSpline
 70
8
 71
3
 72
8
 73
4
 74
0
 40
0
 40
0
 40
0
 40
0
 40
1
 40
1
 40
1
 40
1
 10
31.534986
 20
143.561288
 30
0.0
 10
32.190634
 20
143.428048
 30
0.0
 10
32.315272
 20
143.538711
 30
0.0
 10
32.917080
 20
144.788404
 30
0.0
  0
SPLINE
  5
1e2
100
AcDbEntity
  8
0
 62
7
100
AcDbSpline
 70
8
 71
3
 72
8
 73
4
 74
0
 40
0
 40
0
 40
0
 40
0
 40
1
 40
1
 40
1
 40
1
 10
32.917080
 20
144.788404
 30
0.0
 10
34.544884
 20
148.168649
 30
0.0
 10
39.327937
 20
151.478378
 30
0.0
 10
40.361092
 20
149.939437
 30
0.0
  0
SPLINE
  5
1e3
100
AcDbEntity
  8
0
 62
7
100
AcDbSpline
 70
8
 71
3
 72
8
 73
4
 74
0
 40
0
 40
0
 40
0
 40
0
 40
1
 40
1
 40
1
 40
1
 10
40.361092
 20
149.939437
 30
0.0
 10
40.465682
 20
149.783648
 30
0.0
 10
41.172739
 20
149.801325
 30
0.0
 10
42.234850
 20
149.986284
 30
0.0
  0
SPLINE
  5
1e4
100
AcDbEntity
  8
0
 62
7
100
AcDbSpline
 70
8
 71
3
 72
8
 73
4
 74
0
 40
0
 40
0
 40
0
 40
0
 40
1
 40
1
 40
1
 40
1
 10
42.234850
 20
149.986284
 30
0.0
 10
47.184805
 20
150.848281
 30
0.0
 10
53.590635
 20
149.898145
 30
0.0
 10
56.091421
 20
147.931028
 30
0.0
  0
SPLINE
  5
1e5
100
AcDbEntity
  8
0
 62
7
100
AcDbSpline
 70
8
 71
3
 72
8
 73
4
 74
0
 40
0
 40
0
 40
0
 40
0
 40
1
 40
1
 40
1
 40
1
 10
56.091421
 20
147.931028
 30
0.0
 10
56.746897
 20
147.415429
 30
0.0
 10
56.758515
 20
147.415471
 30
0.0
 10
57.939186
 20
147.937740
 30
0.0
  0
SPLINE
  5
1e6
100
AcDbEntity
  8
0
 62
7
100
AcDbSpline
 70
8
 71
3
 72
8
 73
4
 74
0
 40
0
 40
0
 40
0
 40
0
 40
1
 40
1
 40
1
 40
1
 10
57.939186
 20
147.937740
 30
0.0
 10
59.741364
 20
148.734929
 30
0.0
 10
62.094668
 20
149.037620
 30
0.0
 10
63.776249
 20
148.688525
 30
0.0
  0
SPLINE
  5
1e7
100
AcDbEntity
  8
0
 62
7
100
AcDbSpline
 70
8
 71
3
 72
8
 73
4
 74
0
 40
0
 40
0
 40
0
 40
0
 40
1
 40
1
 40
1
 40
1
 10
63.776249
 20
148.688525
 30
0.0
 10
64.589636
 20
148.519666
 30
0.0
 10
65.196246
 20
148.250730
 30
0.0
 10
65.196246
 20
148.058979
 30
0.0
  0
SPLINE
  5
1e8
100
AcDbEntity
  8
0
 62
7
100
AcDbSpline
 70
8
 71
3
 72
8
 73
4
 74
0
 40
0
 40
0
 40
0
 40
0
 40
1
 40
1
 40
1
 40
1
 10
65.196246
 20
148.058979
 30
0.0
 10
65.196246
 20
147.874864
 30
0.0
 10
64.600934
 20
146.982451
 30
0.0
 10
63.873330
 20
146.075839
 30
0.0
  0
SPLINE
  5
1e9
100
AcDbEntity
  8
0
 62
7
100
AcDbSpline
 70
8
 71
3
 72
8
 73
4
 74
0
 40
0
 40
0
 40
0
 40
0
 40
1
 40
1
 40
1
 40
1
 10
63.873330
 20
146.075839
 30
0.0
 10
63.145726
 20
145.169227
 30
0.0
 10
62.550413
 20
144.322951
 30
0.0
 10
62.550413
 20
144.195227
 30
0.0
  0
SPLINE
  5
1ea
100
AcDbEntity
  8
0
 62
7
100
AcDbSpline
 70
8
 71
3
 72
8
 73
4
 74
0
 40
0
 40
0
 40
0
 40
0
 40
1
 40
1
 40
1
 40
1
 10
62.550413
 20
144.195227
 30
0.0
 10
62.550413
 20
144.067312
 30
0.0
 10
63.768579
 20
144.030494
 30
0.0
 10
65.262392
 20
144.113259
 30
0.0
  0
SPLINE
  5
1eb
100
AcDbEntity
  8
0
 62
7
100
AcDbSpline
 70
8
 71
3
 72
8
 73
4
 74
0
 40
0
 40
0
 40
0
 40
0
 40
1
 40
1
 40
1
 40
1
 10
65.262392
 20
144.113259
 30
0.0
 10
68.594118
 20
144.297855
 30
0.0
 10
71.618827
 20
143.782682
 30
0.0
 10
73.990054
 20
142.626752
 30
0.0
  0
SPLINE
  5
1ec
100
AcDbEntity
  8
0
 62
7
100
AcDbSpline
 70
8
 71
3
 72
8
 73
4
 74
0
 40
0
 40
0
 40
0
 40
0
 40
1
 40
1
 40
1
 40
1
 10
73.990054
 20
142.626752
 30
0.0
 10
76.361848
 20
141.470546
 30
0.0
 10
78.159417
 20
139.674856
 30
0.0
 10
78.562623
 20
138.058959
 30
0.0
  0
SPLINE
  5
1ed
100
AcDbEntity
  8
0
 62
7
100
AcDbSpline
 70
8
 71
3
 72
8
 73
4
 74
0
 40
0
 40
0
 40
0
 40
0
 40
1
 40
1
 40
1
 40
1
 10
78.562623
 20
138.058959
 30
0.0
 10
78.682974
 20
137.576645
 30
0.0
 10
79.232636
 20
137.025653
 30
0.0
 10
80.251625
 20
136.365870
 30
0.0
  0
SPLINE
  5
1ee
100
AcDbEntity
  8
0
 62
7
100
AcDbSpline
 70
8
 71
3
 72
8
 73
4
 74
0
 40
0
 40
0
 40
0
 40
0
 40
1
 40
1
 40
1
 40
1
 10
80.251625
 20
136.365870
 30
0.0
 10
81.673438
 20
135.445266
 30
0.0
 10
81.796157
 20
135.280066
 30
0.0
 10
82.339696
 20
133.554965
 30
0.0
  0
SPLINE
  5
1ef
100
AcDbEntity
  8
0
 62
7
100
AcDbSpline
 70
8
 71
3
 72
8
 73
4
 74
0
 40
0
 40
0
 40
0
 40
0
 40
1
 40
1
 40
1
 40
1
 10
82.339696
 20
133.554965
 30
0.0
 10
82.657310
 20
132.546914
 30
0.0
 10
83.753574
 20
129.945694
 30
0.0
 10
84.775842
 20
127.774473
 30
0.0
  0
SPLINE
  5
1f0
100
AcDbEntity
  8
0
 62
7
100
AcDbSpline
 70
8
 71
3
 72
8
 73
4
 74
0
 40
0
 40
0
 40
0
 40
0
 40
1
 40
1
 40
1
 40
1
 10
84.775842
 20
127.774473
 30
0.0
 10
87.264399
 20
122.488957
 30
0.0
 10
87.658959
 20
121.451632
 30
0.0
 10
88.231639
 20
118.688940
 30
0.0
  0
SPLINE
  5
1f1
100
AcDbEntity
  8
0
 62
7
100
AcDbSpline
 70
8
 71
3
 72
8
 73
4
 74
0
 40
0
 40
0
 40
0
 40
0
 40
1
 40
1
 40
1
 40
1
 10
88.231639
 20
118.688940
 30
0.0
 10
88.640650
 20
116.715802
 30
0.0
 10
88.868112
 20
116.176081
 30
0.0
 10
89.625480
 20
115.381648
 30
0.0
  0
SPLINE
  5
1f2
100
AcDbEntity
  8
0
 62
7
100
AcDbSpline
 70
8
 71
3
 72
8
 73
4
 74
0
 40
0
 40
0
 40
0
 40
0
 40
1
 40
1
 40
1
 40
1
 10
89.625480
 20
115.381648
 30
0.0
 10
90.961514
 20
113.980233
 30
0.0
 10
94.437033
 20
105.327013
 30
0.0
 10
95.095687
 20
101.762123
 30
0.0
  0
SPLINE
  5
1f3
100
AcDbEntity
  8
0
 62
7
100
AcDbSpline
 70
8
 71
3
 72
8
 73
4
 74
0
 40
0
 40
0
 40
0
 40
0
 40
1
 40
1
 40
1
 40
1
 10
95.095687
 20
101.762123
 30
0.0
 10
95.509935
 20
99.520052
 30
0.0
 10
95.300520
 20
96.191292
 30
0.0
 10
94.561168
 20
93.265625
 30
0.0
  0
SPLINE
  5
1f4
100
AcDbEntity
  8
0
 62
7
100
AcDbSpline
 70
8
 71
3
 72
8
 73
4
 74
0
 40
0
 40
0
 40
0
 40
0
 40
1
 40
1
 40
1
 40
1
 10
94.561168
 20
93.265625
 30
0.0
 10
93.445372
 20
88.850354
 30
0.0
 10
93.586165
 20
85.671898
 30
0.0
 10
94.992650
 20
83.524662
 30
0.0
  0
SPLINE
  5
1f5
100
AcDbEntity
  8
0
 62
7
100
AcDbSpline
 70
8
 71
3
 72
8
 73
4
 74
0
 40
0
 40
0
 40
0
 40
0
 40
1
 40
1
 40
1
 40
1
 10
94.992650
 20
83.524662
 30
0.0
 10
95.569215
 20
82.644438
 30
0.0
 10
95.588116
 20
82.550228
 30
0.0
 10
95.140034
 20
82.790035
 30
0.0
  0
SPLINE
  5
1f6
100
AcDbEntity
  8
0
 62
7
100
AcDbSpline
 70
8
 71
3
 72
8
 73
4
 74
0
 40
0
 40
0
 40
0
 40
0
 40
1
 40
1
 40
1
 40
1
 10
95.140034
 20
82.790035
 30
0.0
 10
93.446523
 20
83.696373
 30
0.0
 10
89.653480
 20
89.746902
 30
0.0
 10
88.324145
 20
93.662500
 30
0.0
  0
SPLINE
  5
1f7
100
AcDbEntity
  8
0
 62
7
100
AcDbSpline
 70
8
 71
3
 72
8
 73
4
 74
0
 40
0
 40
0
 40
0
 40
0
 40
1
 40
1
 40
1
 40
1
 10
88.324145
 20
93.662500
 30
0.0
 10
87.663285
 20
95.609082
 30
0.0
 10
87.721464
 20
99.071171
 30
0.0
 10
88.473095
 20
102.526042
 30
0.0
  0
SPLINE
  5
1f8
100
AcDbEntity
  8
0
 62
7
100
AcDbSpline
 70
8
 71
3
 72
8
 73
4
 74
0
 40
0
 40
0
 40
0
 40
0
 40
1
 40
1
 40
1
 40
1
 10
88.473095
 20
102.526042
 30
0.0
 10
90.029400
 20
109.679608
 30
0.0
 10
89.275960
 20
114.010406
 30
0.0
 10
85.895296
 20
117.343314
 30
0.0
  0
SPLINE
  5
1f9
100
AcDbEntity
  8
0
 62
7
100
AcDbSpline
 70
8
 71
3
 72
8
 73
4
 74
0
 40
0
 40
0
 40
0
 40
0
 40
1
 40
1
 40
1
 40
1
 10
85.895296
 20
117.343314
 30
0.0
 10
83.668857
 20
119.538306
 30
0.0
 10
81.299706
 20
119.720045
 30
0.0
 10
79.234514
 20
117.854267
 30
0.0
  0
SPLINE
  5
1fa
100
AcDbEntity
  8
0
 62
7
100
AcDbSpline
 70
8
 71
3
 72
8
 73
4
 74
0
 40
0
 40
0
 40
0
 40
0
 40
1
 40
1
 40
1
 40
1
 10
79.234514
 20
117.854267
 30
0.0
 10
78.681474
 20
117.354628
 30
0.0
 10
78.168005
 20
116.945833
 30
0.0
 10
78.093475
 20
116.945833
 30
0.0
  0
SPLINE
  5
1fb
100
AcDbEntity
  8
0
 62
7
100
AcDbSpline
 70
8
 71
3
 72
8
 73
4
 74
0
 40
0
 40
0
 40
0
 40
0
 40
1
 40
1
 40
1
 40
1
 10
78.093475
 20
116.945833
 30
0.0
 10
78.018944
 20
116.945833
 30
0.0
 10
77.890574
 20
117.203538
 30
0.0
 10
77.808206
 20
117.518511
 30
0.0
  0
SPLINE
  5
1fc
100
AcDbEntity
  8
0
 62
7
100
AcDbSpline
 70
8
 71
3
 72
8
 73
4
 74
0
 40
0
 40
0
 40
0
 40
0
 40
1
 40
1
 40
1
 40
1
 10
77.808206
 20
117.518511
 30
0.0
 10
77.679500
 20
118.010681
 30
0.0
 10
77.598794
 20
118.041679
 30
0.0
 10
77.234111
 20
117.739020
 30
0.0
  0
SPLINE
  5
1fd
100
AcDbEntity
  8
0
 62
7
100
AcDbSpline
 70
8
 71
3
 72
8
 73
4
 74
0
 40
0
 40
0
 40
0
 40
0
 40
1
 40
1
 40
1
 40
1
 10
77.234111
 20
117.739020
 30
0.0
 10
76.582278
 20
117.198047
 30
0.0
 10
74.673187
 20
113.798064
 30
0.0
 10
74.855565
 20
113.502969
 30
0.0
  0
SPLINE
  5
1fe
100
AcDbEntity
  8
0
 62
7
100
AcDbSpline
 70
8
 71
3
 72
8
 73
4
 74
0
 40
0
 40
0
 40
0
 40
0
 40
1
 40
1
 40
1
 40
1
 10
74.855565
 20
113.502969
 30
0.0
 10
74.944388
 20
113.359253
 30
0.0
 10
75.188628
 20
113.241667
 30
0.0
 10
75.398320
 20
113.241667
 30
0.0
  0
SPLINE
  5
1ff
100
AcDbEntity
  8
0
 62
7
100
AcDbSpline
 70
8
 71
3
 72
8
 73
4
 74
0
 40
0
 40
0
 40
0
 40
0
 40
1
 40
1
 40
1
 40
1
 10
75.398320
 20
113.241667
 30
0.0
 10
75.872919
 20
113.241667
 30
0.0
 10
75.872523
 20
113.228385
 30
0.0
 10
75.350407
 20
111.632106
 30
0.0
  0
SPLINE
  5
200
100
AcDbEntity
  8
0
 62
7
100
AcDbSpline
 70
8
 71
3
 72
8
 73
4
 74
0
 40
0
 40
0
 40
0
 40
0
 40
1
 40
1
 40
1
 40
1
 10
75.350407
 20
111.632106
 30
0.0
 10
74.730163
 20
109.735816
 30
0.0
 10
74.978376
 20
108.053830
 30
0.0
 10
76.440406
 20
104.245833
 30
0.0
  0
SPLINE
  5
201
100
AcDbEntity
  8
0
 62
7
100
AcDbSpline
 70
8
 71
3
 72
8
 73
4
 74
0
 40
0
 40
0
 40
0
 40
0
 40
1
 40
1
 40
1
 40
1
 10
76.440406
 20
104.245833
 30
0.0
 10
77.392615
 20
101.765719
 30
0.0
 10
77.716922
 20
100.555732
 30
0.0
 10
77.737076
 20
99.407959
 30
0.0
  0
SPLINE
  5
202
100
AcDbEntity
  8
0
 62
7
100
AcDbSpline
 70
8
 71
3
 72
8
 73
4
 74
0
 40
0
 40
0
 40
0
 40
0
 40
1
 40
1
 40
1
 40
1
 10
77.737076
 20
99.407959
 30
0.0
 10
77.768582
 20
97.613838
 30
0.0
 10
77.537471
 20
97.376657
 30
0.0
 10
75.751976
 20
97.370717
 30
0.0
  0
LWPOLYLINE
  5
203
100
AcDbEntity
  8
0
 62
7
100
AcDbPolyline
 90
3
 70
0
 10
31.197288
 20
146.478097
 30
0.0
 10
31.991038
 20
146.665761
 30
0.0
 10
31.038432
 20
145.607180
 30
0.0
  0
SPLINE
  5
204
100
AcDbEntity
  8
0
 62
7
100
AcDbSpline
 70
8
 71
3
 72
8
 73
4
 74
0
 40
0
 40
0
 40
0
 40
0
 40
1
 40
1
 40
1
 40
1
 10
73.980410
 20
99.284898
 30
0.0
 10
73.676073
 20
100.339925
 30
0.0
 10
72.939854
 20
102.926396
 30
0.0
 10
72.344367
 20
105.032617
 30
0.0
  0
SPLINE
  5
205
100
AcDbEntity
  8
0
 62
7
100
AcDbSpline
 70
8
 71
3
 72
8
 73
4
 74
0
 40
0
 40
0
 40
0
 40
0
 40
1
 40
1
 40
1
 40
1
 10
72.344367
 20
105.032617
 30
0.0
 10
70.975260
 20
109.875098
 30
0.0
 10
69.795403
 20
112.352138
 30
0.0
 10
67.978695
 20
114.198106
 30
0.0
  0
SPLINE
  5
206
100
AcDbEntity
  8
0
 62
7
100
AcDbSpline
 70
8
 71
3
 72
8
 73
4
 74
0
 40
0
 40
0
 40
0
 40
0
 40
1
 40
1
 40
1
 40
1
 10
67.978695
 20
114.198106
 30
0.0
 10
66.729435
 20
115.467485
 30
0.0
 10
66.514297
 20
115.858883
 30
0.0
 10
65.995957
 20
117.805264
 30
0.0
  0
SPLINE
  5
207
100
AcDbEntity
  8
0
 62
7
100
AcDbSpline
 70
8
 71
3
 72
8
 73
4
 74
0
 40
0
 40
0
 40
0
 40
0
 40
1
 40
1
 40
1
 40
1
 10
65.995957
 20
117.805264
 30
0.0
 10
65.676174
 20
119.006070
 30
0.0
 10
65.250587
 20
120.245785
 30
0.0
 10
65.050212
 20
120.560192
 30
0.0
  0
SPLINE
  5
208
100
AcDbEntity
  8
0
 62
7
100
AcDbSpline
 70
8
 71
3
 72
8
 73
4
 74
0
 40
0
 40
0
 40
0
 40
0
 40
1
 40
1
 40
1
 40
1
 10
65.050212
 20
120.560192
 30
0.0
 10
64.849835
 20
120.874600
 30
0.0
 10
63.997049
 20
121.454812
 30
0.0
 10
63.155132
 20
121.849555
 30
0.0
  0
SPLINE
  5
209
100
AcDbEntity
  8
0
 62
7
100
AcDbSpline
 70
8
 71
3
 72
8
 73
4
 74
0
 40
0
 40
0
 40
0
 40
0
 40
1
 40
1
 40
1
 40
1
 10
63.155132
 20
121.849555
 30
0.0
 10
62.313214
 20
122.244297
 30
0.0
 10
61.575643
 20
122.611253
 30
0.0
 10
61.516085
 20
122.665014
 30
0.0
  0
SPLINE
  5
20a
100
AcDbEntity
  8
0
 62
7
100
AcDbSpline
 70
8
 71
3
 72
8
 73
4
 74
0
 40
0
 40
0
 40
0
 40
0
 40
1
 40
1
 40
1
 40
1
 10
61.516085
 20
122.665014
 30
0.0
 10
61.456528
 20
122.718772
 30
0.0
 10
62.081606
 20
123.469172
 30
0.0
 10
62.905148
 20
124.332572
 30
0.0
  0
SPLINE
  5
20b
100
AcDbEntity
  8
0
 62
7
100
AcDbSpline
 70
8
 71
3
 72
8
 73
4
 74
0
 40
0
 40
0
 40
0
 40
0
 40
1
 40
1
 40
1
 40
1
 10
62.905148
 20
124.332572
 30
0.0
 10
63.728690
 20
125.195968
 30
0.0
 10
64.402496
 20
126.028016
 30
0.0
 10
64.402496
 20
126.181567
 30
0.0
  0
SPLINE
  5
20c
100
AcDbEntity
  8
0
 62
7
100
AcDbSpline
 70
8
 71
3
 72
8
 73
4
 74
0
 40
0
 40
0
 40
0
 40
0
 40
1
 40
1
 40
1
 40
1
 10
64.402496
 20
126.181567
 30
0.0
 10
64.402496
 20
126.563226
 30
0.0
 10
63.273445
 20
126.815946
 30
0.0
 10
62.152821
 20
126.685117
 30
0.0
  0
SPLINE
  5
20d
100
AcDbEntity
  8
0
 62
7
100
AcDbSpline
 70
8
 71
3
 72
8
 73
4
 74
0
 40
0
 40
0
 40
0
 40
0
 40
1
 40
1
 40
1
 40
1
 10
62.152821
 20
126.685117
 30
0.0
 10
60.884321
 20
126.537027
 30
0.0
 10
60.928893
 20
127.130196
 30
0.0
 10
62.285830
 20
128.455209
 30
0.0
  0
SPLINE
  5
20e
100
AcDbEntity
  8
0
 62
7
100
AcDbSpline
 70
8
 71
3
 72
8
 73
4
 74
0
 40
0
 40
0
 40
0
 40
0
 40
1
 40
1
 40
1
 40
1
 10
62.285830
 20
128.455209
 30
0.0
 10
63.429949
 20
129.572412
 30
0.0
 10
63.714551
 20
130.242368
 30
0.0
 10
62.748851
 20
129.545165
 30
0.0
  0
SPLINE
  5
20f
100
AcDbEntity
  8
0
 62
7
100
AcDbSpline
 70
8
 71
3
 72
8
 73
4
 74
0
 40
0
 40
0
 40
0
 40
0
 40
1
 40
1
 40
1
 40
1
 10
62.748851
 20
129.545165
 30
0.0
 10
61.399838
 20
128.571223
 30
0.0
 10
59.476037
 20
127.533974
 30
0.0
 10
59.014347
 20
127.531651
 30
0.0
  0
SPLINE
  5
210
100
AcDbEntity
  8
0
 62
7
100
AcDbSpline
 70
8
 71
3
 72
8
 73
4
 74
0
 40
0
 40
0
 40
0
 40
0
 40
1
 40
1
 40
1
 40
1
 10
59.014347
 20
127.531651
 30
0.0
 10
58.646671
 20
127.529799
 30
0.0
 10
58.917033
 20
127.952537
 30
0.0
 10
60.075651
 20
129.191105
 30
0.0
  0
SPLINE
  5
211
100
AcDbEntity
  8
0
 62
7
100
AcDbSpline
 70
8
 71
3
 72
8
 73
4
 74
0
 40
0
 40
0
 40
0
 40
0
 40
1
 40
1
 40
1
 40
1
 10
60.075651
 20
129.191105
 30
0.0
 10
60.930716
 20
130.105171
 30
0.0
 10
62.081722
 20
131.712078
 30
0.0
 10
62.633447
 20
132.762009
 30
0.0
  0
SPLINE
  5
212
100
AcDbEntity
  8
0
 62
7
100
AcDbSpline
 70
8
 71
3
 72
8
 73
4
 74
0
 40
0
 40
0
 40
0
 40
0
 40
1
 40
1
 40
1
 40
1
 10
62.633447
 20
132.762009
 30
0.0
 10
63.661451
 20
134.718304
 30
0.0
 10
64.757371
 20
137.581236
 30
0.0
 10
64.555508
 20
137.783102
 30
0.0
  0
SPLINE
  5
213
100
AcDbEntity
  8
0
 62
7
100
AcDbSpline
 70
8
 71
3
 72
8
 73
4
 74
0
 40
0
 40
0
 40
0
 40
0
 40
1
 40
1
 40
1
 40
1
 10
64.555508
 20
137.783102
 30
0.0
 10
64.285270
 20
138.053338
 30
0.0
 10
62.449215
 20
135.076499
 30
0.0
 10
61.039174
 20
132.081990
 30
0.0
  0
LWPOLYLINE
  5
214
100
AcDbEntity
  8
0
 62
7
100
AcDbPolyline
 90
3
 70
0
 10
75.751976
 20
97.370717
 30
0.0
 10
74.533749
 20
97.366669
 30
0.0
 10
73.980410
 20
99.284898
 30
0.0
  0
SPLINE
  5
215
100
AcDbEntity
  8
0
 62
7
100
AcDbSpline
 70
8
 71
3
 72
8
 73
4
 74
0
 40
0
 40
0
 40
0
 40
0
 40
1
 40
1
 40
1
 40
1
 10
58.158790
 20
128.436865
 30
0.0
 10
57.416888
 20
128.220862
 30
0.0
 10
56.604069
 20
128.123104
 30
0.0
 10
56.352527
 20
128.219632
 30
0.0
  0
SPLINE
  5
216
100
AcDbEntity
  8
0
 62
7
100
AcDbSpline
 70
8
 71
3
 72
8
 73
4
 74
0
 40
0
 40
0
 40
0
 40
0
 40
1
 40
1
 40
1
 40
1
 10
56.352527
 20
128.219632
 30
0.0
 10
55.974731
 20
128.364605
 30
0.0
 10
56.118575
 20
128.590554
 30
0.0
 10
57.179472
 20
129.518601
 30
0.0
  0
SPLINE
  5
217
100
AcDbEntity
  8
0
 62
7
100
AcDbSpline
 70
8
 71
3
 72
8
 73
4
 74
0
 40
0
 40
0
 40
0
 40
0
 40
1
 40
1
 40
1
 40
1
 10
57.179472
 20
129.518601
 30
0.0
 10
58.394132
 20
130.581157
 30
0.0
 10
59.601349
 20
132.416953
 30
0.0
 10
60.044610
 20
133.875576
 30
0.0
  0
SPLINE
  5
218
100
AcDbEntity
  8
0
 62
7
100
AcDbSpline
 70
8
 71
3
 72
8
 73
4
 74
0
 40
0
 40
0
 40
0
 40
0
 40
1
 40
1
 40
1
 40
1
 10
60.044610
 20
133.875576
 30
0.0
 10
60.192163
 20
134.361118
 30
0.0
 10
59.877513
 20
134.131866
 30
0.0
 10
58.843397
 20
133.000379
 30
0.0
  0
SPLINE
  5
219
100
AcDbEntity
  8
0
 62
7
100
AcDbSpline
 70
8
 71
3
 72
8
 73
4
 74
0
 40
0
 40
0
 40
0
 40
0
 40
1
 40
1
 40
1
 40
1
 10
58.843397
 20
133.000379
 30
0.0
 10
57.226909
 20
131.231684
 30
0.0
 10
55.907966
 20
130.474024
 30
0.0
 10
54.065652
 20
130.255830
 30
0.0
  0
SPLINE
  5
21a
100
AcDbEntity
  8
0
 62
7
100
AcDbSpline
 70
8
 71
3
 72
8
 73
4
 74
0
 40
0
 40
0
 40
0
 40
0
 40
1
 40
1
 40
1
 40
1
 10
54.065652
 20
130.255830
 30
0.0
 10
52.385394
 20
130.056829
 30
0.0
 10
52.361103
 20
130.483549
 30
0.0
 10
54.017601
 20
131.099888
 30
0.0
  0
SPLINE
  5
21b
100
AcDbEntity
  8
0
 62
7
100
AcDbSpline
 70
8
 71
3
 72
8
 73
4
 74
0
 40
0
 40
0
 40
0
 40
0
 40
1
 40
1
 40
1
 40
1
 10
54.017601
 20
131.099888
 30
0.0
 10
55.427809
 20
131.624590
 30
0.0
 10
55.857365
 20
131.929161
 30
0.0
 10
55.579322
 20
132.207204
 30
0.0
  0
SPLINE
  5
21c
100
AcDbEntity
  8
0
 62
7
100
AcDbSpline
 70
8
 71
3
 72
8
 73
4
 74
0
 40
0
 40
0
 40
0
 40
0
 40
1
 40
1
 40
1
 40
1
 10
55.579322
 20
132.207204
 30
0.0
 10
55.475404
 20
132.311121
 30
0.0
 10
55.048253
 20
132.194041
 30
0.0
 10
54.630095
 20
131.947030
 30
0.0
  0
SPLINE
  5
21d
100
AcDbEntity
  8
0
 62
7
100
AcDbSpline
 70
8
 71
3
 72
8
 73
4
 74
0
 40
0
 40
0
 40
0
 40
0
 40
1
 40
1
 40
1
 40
1
 10
54.630095
 20
131.947030
 30
0.0
 10
53.778407
 20
131.443926
 30
0.0
 10
53.025413
 20
131.359667
 30
0.0
 10
53.025413
 20
131.767470
 30
0.0
  0
SPLINE
  5
21e
100
AcDbEntity
  8
0
 62
7
100
AcDbSpline
 70
8
 71
3
 72
8
 73
4
 74
0
 40
0
 40
0
 40
0
 40
0
 40
1
 40
1
 40
1
 40
1
 10
53.025413
 20
131.767470
 30
0.0
 10
53.025413
 20
132.945889
 30
0.0
 10
55.849591
 20
139.089546
 30
0.0
 10
56.975984
 20
140.361460
 30
0.0
  0
SPLINE
  5
21f
100
AcDbEntity
  8
0
 62
7
100
AcDbSpline
 70
8
 71
3
 72
8
 73
4
 74
0
 40
0
 40
0
 40
0
 40
0
 40
1
 40
1
 40
1
 40
1
 10
56.975984
 20
140.361460
 30
0.0
 10
57.810990
 20
141.304344
 30
0.0
 10
57.891310
 20
141.704396
 30
0.0
 10
57.097586
 20
140.967152
 30
0.0
  0
SPLINE
  5
220
100
AcDbEntity
  8
0
 62
7
100
AcDbSpline
 70
8
 71
3
 72
8
 73
4
 74
0
 40
0
 40
0
 40
0
 40
0
 40
1
 40
1
 40
1
 40
1
 10
57.097586
 20
140.967152
 30
0.0
 10
56.672893
 20
140.572679
 30
0.0
 10
55.674792
 20
139.100170
 30
0.0
 10
54.879584
 20
137.694911
 30
0.0
  0
SPLINE
  5
221
100
AcDbEntity
  8
0
 62
7
100
AcDbSpline
 70
8
 71
3
 72
8
 73
4
 74
0
 40
0
 40
0
 40
0
 40
0
 40
1
 40
1
 40
1
 40
1
 10
54.879584
 20
137.694911
 30
0.0
 10
53.111146
 20
134.569802
 30
0.0
 10
51.816622
 20
133.350437
 30
0.0
 10
50.265809
 20
133.349012
 30
0.0
  0
SPLINE
  5
222
100
AcDbEntity
  8
0
 62
7
100
AcDbSpline
 70
8
 71
3
 72
8
 73
4
 74
0
 40
0
 40
0
 40
0
 40
0
 40
1
 40
1
 40
1
 40
1
 10
50.265809
 20
133.349012
 30
0.0
 10
49.178292
 20
133.348007
 30
0.0
 10
48.768124
 20
133.142433
 30
0.0
 10
46.315794
 20
131.369214
 30
0.0
  0
SPLINE
  5
223
100
AcDbEntity
  8
0
 62
7
100
AcDbSpline
 70
8
 71
3
 72
8
 73
4
 74
0
 40
0
 40
0
 40
0
 40
0
 40
1
 40
1
 40
1
 40
1
 10
46.315794
 20
131.369214
 30
0.0
 10
44.993798
 20
130.413313
 30
0.0
 10
43.630900
 20
130.150346
 30
0.0
 10
43.043425
 20
130.737825
 30
0.0
  0
SPLINE
  5
224
100
AcDbEntity
  8
0
 62
7
100
AcDbSpline
 70
8
 71
3
 72
8
 73
4
 74
0
 40
0
 40
0
 40
0
 40
0
 40
1
 40
1
 40
1
 40
1
 10
43.043425
 20
130.737825
 30
0.0
 10
42.822162
 20
130.959088
 30
0.0
 10
42.673013
 20
130.768040
 30
0.0
 10
42.465561
 20
129.997618
 30
0.0
  0
SPLINE
  5
225
100
AcDbEntity
  8
0
 62
7
100
AcDbSpline
 70
8
 71
3
 72
8
 73
4
 74
0
 40
0
 40
0
 40
0
 40
0
 40
1
 40
1
 40
1
 40
1
 10
42.465561
 20
129.997618
 30
0.0
 10
42.311767
 20
129.426473
 30
0.0
 10
41.851421
 20
128.638687
 30
0.0
 10
41.442569
 20
128.246982
 30
0.0
  0
SPLINE
  5
226
100
AcDbEntity
  8
0
 62
7
100
AcDbSpline
 70
8
 71
3
 72
8
 73
4
 74
0
 40
0
 40
0
 40
0
 40
0
 40
1
 40
1
 40
1
 40
1
 10
41.442569
 20
128.246982
 30
0.0
 10
40.778425
 20
127.610693
 30
0.0
 10
40.601921
 20
127.562687
 30
0.0
 10
39.786449
 20
127.796560
 30
0.0
  0
SPLINE
  5
227
100
AcDbEntity
  8
0
 62
7
100
AcDbSpline
 70
8
 71
3
 72
8
 73
4
 74
0
 40
0
 40
0
 40
0
 40
0
 40
1
 40
1
 40
1
 40
1
 10
39.786449
 20
127.796560
 30
0.0
 10
36.980490
 20
128.601301
 30
0.0
 10
35.917174
 20
127.780050
 30
0.0
 10
35.043758
 20
124.133531
 30
0.0
  0
SPLINE
  5
228
100
AcDbEntity
  8
0
 62
7
100
AcDbSpline
 70
8
 71
3
 72
8
 73
4
 74
0
 40
0
 40
0
 40
0
 40
0
 40
1
 40
1
 40
1
 40
1
 10
35.043758
 20
124.133531
 30
0.0
 10
34.690079
 20
122.656920
 30
0.0
 10
33.923388
 20
121.705201
 30
0.0
 10
31.627135
 20
119.892376
 30
0.0
  0
SPLINE
  5
229
100
AcDbEntity
  8
0
 62
7
100
AcDbSpline
 70
8
 71
3
 72
8
 73
4
 74
0
 40
0
 40
0
 40
0
 40
0
 40
1
 40
1
 40
1
 40
1
 10
31.627135
 20
119.892376
 30
0.0
 10
31.007158
 20
119.402924
 30
0.0
 10
30.385594
 20
118.701801
 30
0.0
 10
30.245881
 20
118.334327
 30
0.0
  0
SPLINE
  5
22a
100
AcDbEntity
  8
0
 62
7
100
AcDbSpline
 70
8
 71
3
 72
8
 73
4
 74
0
 40
0
 40
0
 40
0
 40
0
 40
1
 40
1
 40
1
 40
1
 10
30.245881
 20
118.334327
 30
0.0
 10
29.894091
 20
117.409047
 30
0.0
 10
29.641438
 20
117.781610
 30
0.0
 10
29.853636
 20
118.912730
 30
0.0
  0
SPLINE
  5
22b
100
AcDbEntity
  8
0
 62
7
100
AcDbSpline
 70
8
 71
3
 72
8
 73
4
 74
0
 40
0
 40
0
 40
0
 40
0
 40
1
 40
1
 40
1
 40
1
 10
29.853636
 20
118.912730
 30
0.0
 10
29.972870
 20
119.548309
 30
0.0
 10
30.658120
 20
120.567850
 30
0.0
 10
32.002063
 20
122.109246
 30
0.0
  0
SPLINE
  5
22c
100
AcDbEntity
  8
0
 62
7
100
AcDbSpline
 70
8
 71
3
 72
8
 73
4
 74
0
 40
0
 40
0
 40
0
 40
0
 40
1
 40
1
 40
1
 40
1
 10
32.002063
 20
122.109246
 30
0.0
 10
34.167265
 20
124.592567
 30
0.0
 10
34.466117
 20
125.542712
 30
0.0
 10
33.468723
 20
126.772252
 30
0.0
  0
LWPOLYLINE
  5
22d
100
AcDbEntity
  8
0
 62
7
100
AcDbPolyline
 90
3
 70
0
 10
61.039174
 20
132.081990
 30
0.0
 10
59.507705
 20
128.829602
 30
0.0
 10
58.158790
 20
128.436865
 30
0.0
  0
SPLINE
  5
22e
100
AcDbEntity
  8
0
 62
7
100
AcDbSpline
 70
8
 71
3
 72
8
 73
4
 74
0
 40
0
 40
0
 40
0
 40
0
 40
1
 40
1
 40
1
 40
1
 10
32.294404
 20
126.770763
 30
0.0
 10
31.393715
 20
125.926078
 30
0.0
 10
29.900766
 20
122.812768
 30
0.0
 10
29.232392
 20
120.385417
 30
0.0
  0
SPLINE
  5
22f
100
AcDbEntity
  8
0
 62
7
100
AcDbSpline
 70
8
 71
3
 72
8
 73
4
 74
0
 40
0
 40
0
 40
0
 40
0
 40
1
 40
1
 40
1
 40
1
 10
29.232392
 20
120.385417
 30
0.0
 10
28.931873
 20
119.294010
 30
0.0
 10
28.202300
 20
116.360485
 30
0.0
 10
27.611123
 20
113.866472
 30
0.0
  0
SPLINE
  5
230
100
AcDbEntity
  8
0
 62
7
100
AcDbSpline
 70
8
 71
3
 72
8
 73
4
 74
0
 40
0
 40
0
 40
0
 40
0
 40
1
 40
1
 40
1
 40
1
 10
27.611123
 20
113.866472
 30
0.0
 10
27.019946
 20
111.372460
 30
0.0
 10
26.386643
 20
109.127293
 30
0.0
 10
26.203782
 20
108.877214
 30
0.0
  0
SPLINE
  5
231
100
AcDbEntity
  8
0
 62
7
100
AcDbSpline
 70
8
 71
3
 72
8
 73
4
 74
0
 40
0
 40
0
 40
0
 40
0
 40
1
 40
1
 40
1
 40
1
 10
26.203782
 20
108.877214
 30
0.0
 10
25.898868
 20
108.460220
 30
0.0
 10
25.831701
 20
108.482969
 30
0.0
 10
25.393593
 20
109.151605
 30
0.0
  0
SPLINE
  5
232
100
AcDbEntity
  8
0
 62
7
100
AcDbSpline
 70
8
 71
3
 72
8
 73
4
 74
0
 40
0
 40
0
 40
0
 40
0
 40
1
 40
1
 40
1
 40
1
 10
25.393593
 20
109.151605
 30
0.0
 10
25.130851
 20
109.552600
 30
0.0
 10
24.774317
 20
110.720854
 30
0.0
 10
24.601293
 20
111.747726
 30
0.0
  0
LWPOLYLINE
  5
233
100
AcDbEntity
  8
0
 62
7
100
AcDbPolyline
 90
3
 70
0
 10
33.468723
 20
126.772252
 30
0.0
 10
32.962032
 20
127.396875
 30
0.0
 10
32.294404
 20
126.770763
 30
0.0
  0
SPLINE
  5
234
100
AcDbEntity
  8
0
 62
7
100
AcDbSpline
 70
8
 71
3
 72
8
 73
4
 74
0
 40
0
 40
0
 40
0
 40
0
 40
1
 40
1
 40
1
 40
1
 10
23.851964
 20
112.528236
 30
0.0
 10
23.181071
 20
110.851508
 30
0.0
 10
23.039487
 20
109.031738
 30
0.0
 10
23.380532
 20
106.468945
 30
0.0
  0
SPLINE
  5
235
100
AcDbEntity
  8
0
 62
7
100
AcDbSpline
 70
8
 71
3
 72
8
 73
4
 74
0
 40
0
 40
0
 40
0
 40
0
 40
1
 40
1
 40
1
 40
1
 10
23.380532
 20
106.468945
 30
0.0
 10
23.715127
 20
103.954614
 30
0.0
 10
23.948717
 20
103.452083
 30
0.0
 10
24.782845
 20
103.452083
 30
0.0
  0
SPLINE
  5
236
100
AcDbEntity
  8
0
 62
7
100
AcDbSpline
 70
8
 71
3
 72
8
 73
4
 74
0
 40
0
 40
0
 40
0
 40
0
 40
1
 40
1
 40
1
 40
1
 10
24.782845
 20
103.452083
 30
0.0
 10
26.002910
 20
103.452083
 30
0.0
 10
27.550771
 20
102.743730
 30
0.0
 10
28.583065
 20
101.712980
 30
0.0
  0
SPLINE
  5
237
100
AcDbEntity
  8
0
 62
7
100
AcDbSpline
 70
8
 71
3
 72
8
 73
4
 74
0
 40
0
 40
0
 40
0
 40
0
 40
1
 40
1
 40
1
 40
1
 10
28.583065
 20
101.712980
 30
0.0
 10
30.811190
 20
99.488181
 30
0.0
 10
31.550697
 20
95.416788
 30
0.0
 10
31.163032
 20
87.508855
 30
0.0
  0
SPLINE
  5
238
100
AcDbEntity
  8
0
 62
7
100
AcDbSpline
 70
8
 71
3
 72
8
 73
4
 74
0
 40
0
 40
0
 40
0
 40
0
 40
1
 40
1
 40
1
 40
1
 10
31.163032
 20
87.508855
 30
0.0
 10
31.036353
 20
84.924715
 30
0.0
 10
30.972392
 20
82.692293
 30
0.0
 10
31.020898
 20
82.547918
 30
0.0
  0
SPLINE
  5
239
100
AcDbEntity
  8
0
 62
7
100
AcDbSpline
 70
8
 71
3
 72
8
 73
4
 74
0
 40
0
 40
0
 40
0
 40
0
 40
1
 40
1
 40
1
 40
1
 10
31.020898
 20
82.547918
 30
0.0
 10
31.069407
 20
82.403543
 30
0.0
 10
31.331382
 20
82.285417
 30
0.0
 10
31.603064
 20
82.285417
 30
0.0
  0
SPLINE
  5
23a
100
AcDbEntity
  8
0
 62
7
100
AcDbSpline
 70
8
 71
3
 72
8
 73
4
 74
0
 40
0
 40
0
 40
0
 40
0
 40
1
 40
1
 40
1
 40
1
 10
31.603064
 20
82.285417
 30
0.0
 10
31.874748
 20
82.285417
 30
0.0
 10
32.207057
 20
82.088818
 30
0.0
 10
32.341529
 20
81.848529
 30
0.0
  0
SPLINE
  5
23b
100
AcDbEntity
  8
0
 62
7
100
AcDbSpline
 70
8
 71
3
 72
8
 73
4
 74
0
 40
0
 40
0
 40
0
 40
0
 40
1
 40
1
 40
1
 40
1
 10
32.341529
 20
81.848529
 30
0.0
 10
32.537180
 20
81.498919
 30
0.0
 10
32.790873
 20
81.452175
 30
0.0
 10
33.611447
 20
81.614537
 30
0.0
  0
SPLINE
  5
23c
100
AcDbEntity
  8
0
 62
7
100
AcDbSpline
 70
8
 71
3
 72
8
 73
4
 74
0
 40
0
 40
0
 40
0
 40
0
 40
1
 40
1
 40
1
 40
1
 10
33.611447
 20
81.614537
 30
0.0
 10
34.175430
 20
81.726130
 30
0.0
 10
34.938697
 20
81.833432
 30
0.0
 10
35.307598
 20
81.852987
 30
0.0
  0
SPLINE
  5
23d
100
AcDbEntity
  8
0
 62
7
100
AcDbSpline
 70
8
 71
3
 72
8
 73
4
 74
0
 40
0
 40
0
 40
0
 40
0
 40
1
 40
1
 40
1
 40
1
 10
35.307598
 20
81.852987
 30
0.0
 10
35.676499
 20
81.872540
 30
0.0
 10
36.443735
 20
82.272172
 30
0.0
 10
37.012570
 20
82.741056
 30
0.0
  0
SPLINE
  5
23e
100
AcDbEntity
  8
0
 62
7
100
AcDbSpline
 70
8
 71
3
 72
8
 73
4
 74
0
 40
0
 40
0
 40
0
 40
0
 40
1
 40
1
 40
1
 40
1
 10
37.012570
 20
82.741056
 30
0.0
 10
38.844860
 20
84.251382
 30
0.0
 10
41.301067
 20
84.786920
 30
0.0
 10
42.803053
 20
84.003579
 30
0.0
  0
SPLINE
  5
23f
100
AcDbEntity
  8
0
 62
7
100
AcDbSpline
 70
8
 71
3
 72
8
 73
4
 74
0
 40
0
 40
0
 40
0
 40
0
 40
1
 40
1
 40
1
 40
1
 10
42.803053
 20
84.003579
 30
0.0
 10
43.841247
 20
83.462122
 30
0.0
 10
44.051913
 20
83.498314
 30
0.0
 10
44.737729
 20
84.335938
 30
0.0
  0
SPLINE
  5
240
100
AcDbEntity
  8
0
 62
7
100
AcDbSpline
 70
8
 71
3
 72
8
 73
4
 74
0
 40
0
 40
0
 40
0
 40
0
 40
1
 40
1
 40
1
 40
1
 10
44.737729
 20
84.335938
 30
0.0
 10
45.298363
 20
85.020669
 30
0.0
 10
45.334026
 20
85.030151
 30
0.0
 10
45.342982
 20
84.496844
 30
0.0
  0
SPLINE
  5
241
100
AcDbEntity
  8
0
 62
7
100
AcDbSpline
 70
8
 71
3
 72
8
 73
4
 74
0
 40
0
 40
0
 40
0
 40
0
 40
1
 40
1
 40
1
 40
1
 10
45.342982
 20
84.496844
 30
0.0
 10
45.348221
 20
84.185162
 30
0.0
 10
44.805682
 20
83.321959
 30
0.0
 10
44.137352
 20
82.578615
 30
0.0
  0
SPLINE
  5
242
100
AcDbEntity
  8
0
 62
7
100
AcDbSpline
 70
8
 71
3
 72
8
 73
4
 74
0
 40
0
 40
0
 40
0
 40
0
 40
1
 40
1
 40
1
 40
1
 10
44.137352
 20
82.578615
 30
0.0
 10
42.966852
 20
81.276738
 30
0.0
 10
42.870837
 20
81.227083
 30
0.0
 10
41.523917
 20
81.227083
 30
0.0
  0
SPLINE
  5
243
100
AcDbEntity
  8
0
 62
7
100
AcDbSpline
 70
8
 71
3
 72
8
 73
4
 74
0
 40
0
 40
0
 40
0
 40
0
 40
1
 40
1
 40
1
 40
1
 10
41.523917
 20
81.227083
 30
0.0
 10
39.712448
 20
81.227083
 30
0.0
 10
39.353924
 20
80.841726
 30
0.0
 10
39.915327
 20
79.498097
 30
0.0
  0
SPLINE
  5
244
100
AcDbEntity
  8
0
 62
7
100
AcDbSpline
 70
8
 71
3
 72
8
 73
4
 74
0
 40
0
 40
0
 40
0
 40
0
 40
1
 40
1
 40
1
 40
1
 10
39.915327
 20
79.498097
 30
0.0
 10
40.511891
 20
78.070324
 30
0.0
 10
40.451180
 20
77.522917
 30
0.0
 10
39.696266
 20
77.522917
 30
0.0
  0
SPLINE
  5
245
100
AcDbEntity
  8
0
 62
7
100
AcDbSpline
 70
8
 71
3
 72
8
 73
4
 74
0
 40
0
 40
0
 40
0
 40
0
 40
1
 40
1
 40
1
 40
1
 10
39.696266
 20
77.522917
 30
0.0
 10
38.394005
 20
77.522917
 30
0.0
 10
36.885830
 20
76.591292
 30
0.0
 10
36.885830
 20
75.786864
 30
0.0
  0
SPLINE
  5
246
100
AcDbEntity
  8
0
 62
7
100
AcDbSpline
 70
8
 71
3
 72
8
 73
4
 74
0
 40
0
 40
0
 40
0
 40
0
 40
1
 40
1
 40
1
 40
1
 10
36.885830
 20
75.786864
 30
0.0
 10
36.885830
 20
75.728962
 30
0.0
 10
37.387030
 20
75.425895
 30
0.0
 10
37.999607
 20
75.113383
 30
0.0
  0
LWPOLYLINE
  5
247
100
AcDbEntity
  8
0
 62
7
100
AcDbPolyline
 90
3
 70
0
 10
24.601293
 20
111.747726
 30
0.0
 10
24.286709
 20
113.614766
 30
0.0
 10
23.851964
 20
112.528236
 30
0.0
  0
SPLINE
  5
248
100
AcDbEntity
  8
0
 62
7
100
AcDbSpline
 70
8
 71
3
 72
8
 73
4
 74
0
 40
0
 40
0
 40
0
 40
0
 40
1
 40
1
 40
1
 40
1
 10
39.520961
 20
75.168408
 30
0.0
 10
40.419335
 20
76.542119
 30
0.0
 10
40.780287
 20
76.729585
 30
0.0
 10
42.508226
 20
76.719872
 30
0.0
  0
SPLINE
  5
249
100
AcDbEntity
  8
0
 62
7
100
AcDbSpline
 70
8
 71
3
 72
8
 73
4
 74
0
 40
0
 40
0
 40
0
 40
0
 40
1
 40
1
 40
1
 40
1
 10
42.508226
 20
76.719872
 30
0.0
 10
43.417731
 20
76.714765
 30
0.0
 10
44.935778
 20
76.540349
 30
0.0
 10
45.881663
 20
76.332292
 30
0.0
  0
SPLINE
  5
24a
100
AcDbEntity
  8
0
 62
7
100
AcDbSpline
 70
8
 71
3
 72
8
 73
4
 74
0
 40
0
 40
0
 40
0
 40
0
 40
1
 40
1
 40
1
 40
1
 10
45.881663
 20
76.332292
 30
0.0
 10
48.118038
 20
75.840378
 30
0.0
 10
49.858433
 20
75.838182
 30
0.0
 10
50.555456
 20
76.326391
 30
0.0
  0
SPLINE
  5
24b
100
AcDbEntity
  8
0
 62
7
100
AcDbSpline
 70
8
 71
3
 72
8
 73
4
 74
0
 40
0
 40
0
 40
0
 40
0
 40
1
 40
1
 40
1
 40
1
 10
50.555456
 20
76.326391
 30
0.0
 10
51.048854
 20
76.671982
 30
0.0
 10
51.252247
 20
76.670151
 30
0.0
 10
52.307374
 20
76.310622
 30
0.0
  0
SPLINE
  5
24c
100
AcDbEntity
  8
0
 62
7
100
AcDbSpline
 70
8
 71
3
 72
8
 73
4
 74
0
 40
0
 40
0
 40
0
 40
0
 40
1
 40
1
 40
1
 40
1
 10
52.307374
 20
76.310622
 30
0.0
 10
53.606502
 20
75.867964
 30
0.0
 10
54.179454
 20
75.357223
 30
0.0
 10
54.479859
 20
74.374020
 30
0.0
  0
SPLINE
  5
24d
100
AcDbEntity
  8
0
 62
7
100
AcDbSpline
 70
8
 71
3
 72
8
 73
4
 74
0
 40
0
 40
0
 40
0
 40
0
 40
1
 40
1
 40
1
 40
1
 10
54.479859
 20
74.374020
 30
0.0
 10
54.646417
 20
73.828886
 30
0.0
 10
54.603989
 20
73.765540
 30
0.0
 10
54.181015
 20
73.927851
 30
0.0
  0
SPLINE
  5
24e
100
AcDbEntity
  8
0
 62
7
100
AcDbSpline
 70
8
 71
3
 72
8
 73
4
 74
0
 40
0
 40
0
 40
0
 40
0
 40
1
 40
1
 40
1
 40
1
 10
54.181015
 20
73.927851
 30
0.0
 10
51.957301
 20
74.781169
 30
0.0
 10
48.341605
 20
74.758587
 30
0.0
 10
46.353087
 20
73.878961
 30
0.0
  0
SPLINE
  5
24f
100
AcDbEntity
  8
0
 62
7
100
AcDbSpline
 70
8
 71
3
 72
8
 73
4
 74
0
 40
0
 40
0
 40
0
 40
0
 40
1
 40
1
 40
1
 40
1
 10
46.353087
 20
73.878961
 30
0.0
 10
45.730001
 20
73.603337
 30
0.0
 10
44.827952
 20
72.931070
 30
0.0
 10
44.348530
 20
72.385034
 30
0.0
  0
SPLINE
  5
250
100
AcDbEntity
  8
0
 62
7
100
AcDbSpline
 70
8
 71
3
 72
8
 73
4
 74
0
 40
0
 40
0
 40
0
 40
0
 40
1
 40
1
 40
1
 40
1
 10
44.348530
 20
72.385034
 30
0.0
 10
43.636779
 20
71.574385
 30
0.0
 10
43.406446
 20
71.450674
 30
0.0
 10
43.093084
 20
71.710741
 30
0.0
  0
SPLINE
  5
251
100
AcDbEntity
  8
0
 62
7
100
AcDbSpline
 70
8
 71
3
 72
8
 73
4
 74
0
 40
0
 40
0
 40
0
 40
0
 40
1
 40
1
 40
1
 40
1
 10
43.093084
 20
71.710741
 30
0.0
 10
42.790435
 20
71.961917
 30
0.0
 10
42.577790
 20
71.943066
 30
0.0
 10
42.087117
 20
71.621565
 30
0.0
  0
SPLINE
  5
252
100
AcDbEntity
  8
0
 62
7
100
AcDbSpline
 70
8
 71
3
 72
8
 73
4
 74
0
 40
0
 40
0
 40
0
 40
0
 40
1
 40
1
 40
1
 40
1
 10
42.087117
 20
71.621565
 30
0.0
 10
41.524798
 20
71.253120
 30
0.0
 10
40.636182
 20
69.678844
 30
0.0
 10
40.885113
 20
69.492088
 30
0.0
  0
SPLINE
  5
253
100
AcDbEntity
  8
0
 62
7
100
AcDbSpline
 70
8
 71
3
 72
8
 73
4
 74
0
 40
0
 40
0
 40
0
 40
0
 40
1
 40
1
 40
1
 40
1
 10
40.885113
 20
69.492088
 30
0.0
 10
40.941080
 20
69.450098
 30
0.0
 10
41.688647
 20
69.153744
 30
0.0
 10
42.546376
 20
68.833524
 30
0.0
  0
LWPOLYLINE
  5
254
100
AcDbEntity
  8
0
 62
7
100
AcDbPolyline
 90
3
 70
0
 10
37.999607
 20
75.113383
 30
0.0
 10
39.113381
 20
74.545177
 30
0.0
 10
39.520961
 20
75.168408
 30
0.0
  0
SPLINE
  5
255
100
AcDbEntity
  8
0
 62
7
100
AcDbSpline
 70
8
 71
3
 72
8
 73
4
 74
0
 40
0
 40
0
 40
0
 40
0
 40
1
 40
1
 40
1
 40
1
 10
45.906129
 20
69.182935
 30
0.0
 10
46.896266
 20
69.695330
 30
0.0
 10
47.801834
 20
70.111758
 30
0.0
 10
47.918500
 20
70.108329
 30
0.0
  0
SPLINE
  5
256
100
AcDbEntity
  8
0
 62
7
100
AcDbSpline
 70
8
 71
3
 72
8
 73
4
 74
0
 40
0
 40
0
 40
0
 40
0
 40
1
 40
1
 40
1
 40
1
 10
47.918500
 20
70.108329
 30
0.0
 10
48.035168
 20
70.104889
 30
0.0
 10
48.421967
 20
69.479821
 30
0.0
 10
48.778059
 20
68.719266
 30
0.0
  0
SPLINE
  5
257
100
AcDbEntity
  8
0
 62
7
100
AcDbSpline
 70
8
 71
3
 72
8
 73
4
 74
0
 40
0
 40
0
 40
0
 40
0
 40
1
 40
1
 40
1
 40
1
 10
48.778059
 20
68.719266
 30
0.0
 10
49.134149
 20
67.958711
 30
0.0
 10
49.466175
 20
67.263097
 30
0.0
 10
49.515895
 20
67.173454
 30
0.0
  0
SPLINE
  5
258
100
AcDbEntity
  8
0
 62
7
100
AcDbSpline
 70
8
 71
3
 72
8
 73
4
 74
0
 40
0
 40
0
 40
0
 40
0
 40
1
 40
1
 40
1
 40
1
 10
49.515895
 20
67.173454
 30
0.0
 10
49.565613
 20
67.083813
 30
0.0
 10
49.151463
 20
66.937739
 30
0.0
 10
48.595563
 20
66.848847
 30
0.0
  0
SPLINE
  5
259
100
AcDbEntity
  8
0
 62
7
100
AcDbSpline
 70
8
 71
3
 72
8
 73
4
 74
0
 40
0
 40
0
 40
0
 40
0
 40
1
 40
1
 40
1
 40
1
 10
48.595563
 20
66.848847
 30
0.0
 10
45.847392
 20
66.409395
 30
0.0
 10
44.235299
 20
61.929960
 30
0.0
 10
45.762481
 20
58.976712
 30
0.0
  0
SPLINE
  5
25a
100
AcDbEntity
  8
0
 62
7
100
AcDbSpline
 70
8
 71
3
 72
8
 73
4
 74
0
 40
0
 40
0
 40
0
 40
0
 40
1
 40
1
 40
1
 40
1
 10
45.762481
 20
58.976712
 30
0.0
 10
46.014293
 20
58.489760
 30
0.0
 10
46.612770
 20
57.973574
 30
0.0
 10
47.263135
 20
57.682397
 30
0.0
  0
SPLINE
  5
25b
100
AcDbEntity
  8
0
 62
7
100
AcDbSpline
 70
8
 71
3
 72
8
 73
4
 74
0
 40
0
 40
0
 40
0
 40
0
 40
1
 40
1
 40
1
 40
1
 10
47.263135
 20
57.682397
 30
0.0
 10
48.669347
 20
57.052816
 30
0.0
 10
49.139792
 20
57.227510
 30
0.0
 10
48.905901
 20
58.292413
 30
0.0
  0
LWPOLYLINE
  5
25c
100
AcDbEntity
  8
0
 62
7
100
AcDbPolyline
 90
3
 70
0
 10
42.546376
 20
68.833524
 30
0.0
 10
44.105878
 20
68.251303
 30
0.0
 10
45.906129
 20
69.182935
 30
0.0
  0
SPLINE
  5
25d
100
AcDbEntity
  8
0
 62
7
100
AcDbSpline
 70
8
 71
3
 72
8
 73
4
 74
0
 40
0
 40
0
 40
0
 40
0
 40
1
 40
1
 40
1
 40
1
 10
49.538231
 20
58.421259
 30
0.0
 10
49.983951
 20
58.046210
 30
0.0
 10
50.980673
 20
57.595434
 30
0.0
 10
51.753169
 20
57.419534
 30
0.0
  0
SPLINE
  5
25e
100
AcDbEntity
  8
0
 62
7
100
AcDbSpline
 70
8
 71
3
 72
8
 73
4
 74
0
 40
0
 40
0
 40
0
 40
0
 40
1
 40
1
 40
1
 40
1
 10
51.753169
 20
57.419534
 30
0.0
 10
52.525663
 20
57.243633
 30
0.0
 10
53.772623
 20
56.913891
 30
0.0
 10
54.524188
 20
56.686773
 30
0.0
  0
SPLINE
  5
25f
100
AcDbEntity
  8
0
 62
7
100
AcDbSpline
 70
8
 71
3
 72
8
 73
4
 74
0
 40
0
 40
0
 40
0
 40
0
 40
1
 40
1
 40
1
 40
1
 10
54.524188
 20
56.686773
 30
0.0
 10
55.773722
 20
56.309170
 30
0.0
 10
56.024291
 20
56.311321
 30
0.0
 10
57.451961
 20
56.711908
 30
0.0
  0
SPLINE
  5
260
100
AcDbEntity
  8
0
 62
7
100
AcDbSpline
 70
8
 71
3
 72
8
 73
4
 74
0
 40
0
 40
0
 40
0
 40
0
 40
1
 40
1
 40
1
 40
1
 10
57.451961
 20
56.711908
 30
0.0
 10
58.310672
 20
56.952851
 30
0.0
 10
59.346571
 20
57.149984
 30
0.0
 10
59.753960
 20
57.149984
 30
0.0
  0
SPLINE
  5
261
100
AcDbEntity
  8
0
 62
7
100
AcDbSpline
 70
8
 71
3
 72
8
 73
4
 74
0
 40
0
 40
0
 40
0
 40
0
 40
1
 40
1
 40
1
 40
1
 10
59.753960
 20
57.149984
 30
0.0
 10
60.255859
 20
57.149984
 30
0.0
 10
60.762086
 20
57.438655
 30
0.0
 10
61.324104
 20
58.045342
 30
0.0
  0
SPLINE
  5
262
100
AcDbEntity
  8
0
 62
7
100
AcDbSpline
 70
8
 71
3
 72
8
 73
4
 74
0
 40
0
 40
0
 40
0
 40
0
 40
1
 40
1
 40
1
 40
1
 10
61.324104
 20
58.045342
 30
0.0
 10
61.816462
 20
58.576832
 30
0.0
 10
62.529873
 20
59.015683
 30
0.0
 10
63.079580
 20
59.125215
 30
0.0
  0
SPLINE
  5
263
100
AcDbEntity
  8
0
 62
7
100
AcDbSpline
 70
8
 71
3
 72
8
 73
4
 74
0
 40
0
 40
0
 40
0
 40
0
 40
1
 40
1
 40
1
 40
1
 10
63.079580
 20
59.125215
 30
0.0
 10
63.588903
 20
59.226699
 30
0.0
 10
65.017653
 20
59.793333
 30
0.0
 10
66.254580
 20
60.384404
 30
0.0
  0
SPLINE
  5
264
100
AcDbEntity
  8
0
 62
7
100
AcDbSpline
 70
8
 71
3
 72
8
 73
4
 74
0
 40
0
 40
0
 40
0
 40
0
 40
1
 40
1
 40
1
 40
1
 10
66.254580
 20
60.384404
 30
0.0
 10
68.358676
 20
61.389855
 30
0.0
 10
68.804430
 20
61.764667
 30
0.0
 10
73.174855
 20
66.203317
 30
0.0
  0
LWPOLYLINE
  5
265
100
AcDbEntity
  8
0
 62
7
100
AcDbPolyline
 90
3
 70
0
 10
48.905901
 20
58.292413
 30
0.0
 10
48.727828
 20
59.103167
 30
0.0
 10
49.538231
 20
58.421259
 30
0.0
  0
SPLINE
  5
266
100
AcDbEntity
  8
0
 62
7
100
AcDbSpline
 70
8
 71
3
 72
8
 73
4
 74
0
 40
0
 40
0
 40
0
 40
0
 40
1
 40
1
 40
1
 40
1
 10
76.749188
 20
68.376400
 30
0.0
 10
75.975250
 20
66.562409
 30
0.0
 10
75.245338
 20
65.349260
 30
0.0
 10
74.270571
 20
64.256819
 30
0.0
  0
SPLINE
  5
267
100
AcDbEntity
  8
0
 62
7
100
AcDbSpline
 70
8
 71
3
 72
8
 73
4
 74
0
 40
0
 40
0
 40
0
 40
0
 40
1
 40
1
 40
1
 40
1
 10
74.270571
 20
64.256819
 30
0.0
 10
72.509951
 20
62.283658
 30
0.0
 10
72.278097
 20
61.845158
 30
0.0
 10
72.578140
 20
61.055988
 30
0.0
  0
SPLINE
  5
268
100
AcDbEntity
  8
0
 62
7
100
AcDbSpline
 70
8
 71
3
 72
8
 73
4
 74
0
 40
0
 40
0
 40
0
 40
0
 40
1
 40
1
 40
1
 40
1
 10
72.578140
 20
61.055988
 30
0.0
 10
72.867869
 20
60.293938
 30
0.0
 10
72.560545
 20
59.674961
 30
0.0
 10
71.437185
 20
58.757931
 30
0.0
  0
SPLINE
  5
269
100
AcDbEntity
  8
0
 62
7
100
AcDbSpline
 70
8
 71
3
 72
8
 73
4
 74
0
 40
0
 40
0
 40
0
 40
0
 40
1
 40
1
 40
1
 40
1
 10
71.437185
 20
58.757931
 30
0.0
 10
69.598328
 20
57.256833
 30
0.0
 10
68.934534
 20
56.367548
 30
0.0
 10
68.753924
 20
55.163167
 30
0.0
  0
SPLINE
  5
26a
100
AcDbEntity
  8
0
 62
7
100
AcDbSpline
 70
8
 71
3
 72
8
 73
4
 74
0
 40
0
 40
0
 40
0
 40
0
 40
1
 40
1
 40
1
 40
1
 10
68.753924
 20
55.163167
 30
0.0
 10
68.531912
 20
53.682680
 30
0.0
 10
69.023211
 20
52.827219
 30
0.0
 10
70.346250
 20
52.390577
 30
0.0
  0
SPLINE
  5
26b
100
AcDbEntity
  8
0
 62
7
100
AcDbSpline
 70
8
 71
3
 72
8
 73
4
 74
0
 40
0
 40
0
 40
0
 40
0
 40
1
 40
1
 40
1
 40
1
 10
70.346250
 20
52.390577
 30
0.0
 10
70.860727
 20
52.220783
 30
0.0
 10
71.281663
 20
51.967844
 30
0.0
 10
71.281663
 20
51.828488
 30
0.0
  0
SPLINE
  5
26c
100
AcDbEntity
  8
0
 62
7
100
AcDbSpline
 70
8
 71
3
 72
8
 73
4
 74
0
 40
0
 40
0
 40
0
 40
0
 40
1
 40
1
 40
1
 40
1
 10
71.281663
 20
51.828488
 30
0.0
 10
71.281663
 20
51.255343
 30
0.0
 10
70.323789
 20
50.175242
 30
0.0
 10
69.516289
 20
49.837845
 30
0.0
  0
SPLINE
  5
26d
100
AcDbEntity
  8
0
 62
7
100
AcDbSpline
 70
8
 71
3
 72
8
 73
4
 74
0
 40
0
 40
0
 40
0
 40
0
 40
1
 40
1
 40
1
 40
1
 10
69.516289
 20
49.837845
 30
0.0
 10
68.462969
 20
49.397740
 30
0.0
 10
67.992355
 20
49.399378
 30
0.0
 10
66.737558
 20
49.847529
 30
0.0
  0
LWPOLYLINE
  5
26e
100
AcDbEntity
  8
0
 62
7
100
AcDbPolyline
 90
3
 70
0
 10
73.174855
 20
66.203317
 30
0.0
 10
77.846169
 20
70.947558
 30
0.0
 10
76.749188
 20
68.376400
 30
0.0
  0
SPLINE
  5
26f
100
AcDbEntity
  8
0
 62
7
100
AcDbSpline
 70
8
 71
3
 72
8
 73
4
 74
0
 40
0
 40
0
 40
0
 40
0
 40
1
 40
1
 40
1
 40
1
 10
11.279819
 20
132.490104
 30
0.0
 10
11.550551
 20
133.451503
 30
0.0
 10
11.771806
 20
133.766746
 30
0.0
 10
12.221238
 20
133.831423
 30
0.0
  0
SPLINE
  5
270
100
AcDbEntity
  8
0
 62
7
100
AcDbSpline
 70
8
 71
3
 72
8
 73
4
 74
0
 40
0
 40
0
 40
0
 40
0
 40
1
 40
1
 40
1
 40
1
 10
12.221238
 20
133.831423
 30
0.0
 10
12.734260
 20
133.905251
 30
0.0
 10
12.808748
 20
133.796229
 30
0.0
 10
12.808748
 20
132.971527
 30
0.0
  0
SPLINE
  5
271
100
AcDbEntity
  8
0
 62
7
100
AcDbSpline
 70
8
 71
3
 72
8
 73
4
 74
0
 40
0
 40
0
 40
0
 40
0
 40
1
 40
1
 40
1
 40
1
 10
12.808748
 20
132.971527
 30
0.0
 10
12.808748
 20
131.889070
 30
0.0
 10
12.925270
 20
131.859549
 30
0.0
 10
14.708959
 20
132.490104
 30
0.0
  0
SPLINE
  5
272
100
AcDbEntity
  8
0
 62
7
100
AcDbSpline
 70
8
 71
3
 72
8
 73
4
 74
0
 40
0
 40
0
 40
0
 40
0
 40
1
 40
1
 40
1
 40
1
 10
14.708959
 20
132.490104
 30
0.0
 10
16.083403
 20
132.975988
 30
0.0
 10
16.084329
 20
132.978202
 30
0.0
 10
15.583917
 20
134.581755
 30
0.0
  0
SPLINE
  5
273
100
AcDbEntity
  8
0
 62
7
100
AcDbSpline
 70
8
 71
3
 72
8
 73
4
 74
0
 40
0
 40
0
 40
0
 40
0
 40
1
 40
1
 40
1
 40
1
 10
15.583917
 20
134.581755
 30
0.0
 10
15.426345
 20
135.086687
 30
0.0
 10
15.678059
 20
135.292592
 30
0.0
 10
17.780036
 20
136.378220
 30
0.0
  0
SPLINE
  5
274
100
AcDbEntity
  8
0
 62
7
100
AcDbSpline
 70
8
 71
3
 72
8
 73
4
 74
0
 40
0
 40
0
 40
0
 40
0
 40
1
 40
1
 40
1
 40
1
 10
17.780036
 20
136.378220
 30
0.0
 10
19.085784
 20
137.052613
 30
0.0
 10
20.365335
 20
137.837776
 30
0.0
 10
20.623484
 20
138.123027
 30
0.0
  0
SPLINE
  5
275
100
AcDbEntity
  8
0
 62
7
100
AcDbSpline
 70
8
 71
3
 72
8
 73
4
 74
0
 40
0
 40
0
 40
0
 40
0
 40
1
 40
1
 40
1
 40
1
 10
20.623484
 20
138.123027
 30
0.0
 10
21.074064
 20
138.620913
 30
0.0
 10
21.072677
 20
138.641658
 30
0.0
 10
20.588818
 20
138.641458
 30
0.0
  0
SPLINE
  5
276
100
AcDbEntity
  8
0
 62
7
100
AcDbSpline
 70
8
 71
3
 72
8
 73
4
 74
0
 40
0
 40
0
 40
0
 40
0
 40
1
 40
1
 40
1
 40
1
 10
20.588818
 20
138.641458
 30
0.0
 10
19.881327
 20
138.641167
 30
0.0
 10
17.287895
 20
137.348076
 30
0.0
 10
14.803949
 20
135.757118
 30
0.0
  0
SPLINE
  5
277
100
AcDbEntity
  8
0
 62
7
100
AcDbSpline
 70
8
 71
3
 72
8
 73
4
 74
0
 40
0
 40
0
 40
0
 40
0
 40
1
 40
1
 40
1
 40
1
 10
14.803949
 20
135.757118
 30
0.0
 10
13.645736
 20
135.015286
 30
0.0
 10
12.446099
 20
134.408333
 30
0.0
 10
12.138090
 20
134.408333
 30
0.0
  0
SPLINE
  5
278
100
AcDbEntity
  8
0
 62
7
100
AcDbSpline
 70
8
 71
3
 72
8
 73
4
 74
0
 40
0
 40
0
 40
0
 40
0
 40
1
 40
1
 40
1
 40
1
 10
12.138090
 20
134.408333
 30
0.0
 10
11.830080
 20
134.408333
 30
0.0
 10
11.298440
 20
134.705990
 30
0.0
 10
10.956664
 20
135.069792
 30
0.0
  0
SPLINE
  5
279
100
AcDbEntity
  8
0
 62
7
100
AcDbSpline
 70
8
 71
3
 72
8
 73
4
 74
0
 40
0
 40
0
 40
0
 40
0
 40
1
 40
1
 40
1
 40
1
 10
10.956664
 20
135.069792
 30
0.0
 10
10.614892
 20
135.433594
 30
0.0
 10
10.196530
 20
135.731250
 30
0.0
 10
10.026971
 20
135.731250
 30
0.0
  0
SPLINE
  5
27a
100
AcDbEntity
  8
0
 62
7
100
AcDbSpline
 70
8
 71
3
 72
8
 73
4
 74
0
 40
0
 40
0
 40
0
 40
0
 40
1
 40
1
 40
1
 40
1
 10
10.026971
 20
135.731250
 30
0.0
 10
9.614396
 20
135.731250
 30
0.0
 10
9.104581
 20
134.565687
 30
0.0
 10
9.104581
 20
133.622434
 30
0.0
  0
SPLINE
  5
27b
100
AcDbEntity
  8
0
 62
7
100
AcDbSpline
 70
8
 71
3
 72
8
 73
4
 74
0
 40
0
 40
0
 40
0
 40
0
 40
1
 40
1
 40
1
 40
1
 10
9.104581
 20
133.622434
 30
0.0
 10
9.104581
 20
132.895262
 30
0.0
 10
10.214556
 20
131.233333
 30
0.0
 10
10.700222
 20
131.233333
 30
0.0
  0
SPLINE
  5
27c
100
AcDbEntity
  8
0
 62
7
100
AcDbSpline
 70
8
 71
3
 72
8
 73
4
 74
0
 40
0
 40
0
 40
0
 40
0
 40
1
 40
1
 40
1
 40
1
 10
10.700222
 20
131.233333
 30
0.0
 10
10.824349
 20
131.233333
 30
0.0
 10
11.085167
 20
131.798880
 30
0.0
 10
11.279819
 20
132.490104
 30
0.0
  0
LWPOLYLINE
  5
27d
100
AcDbEntity
  8
0
 62
7
100
AcDbPolyline
 90
1
 70
1
 10
66.737558
 20
49.847529
 30
0.0
  0
SPLINE
  5
27e
100
AcDbEntity
  8
0
 62
7
100
AcDbSpline
 70
8
 71
3
 72
8
 73
4
 74
0
 40
0
 40
0
 40
0
 40
0
 40
1
 40
1
 40
1
 40
1
 10
50.644163
 20
82.767035
 30
0.0
 10
49.627602
 20
83.227683
 30
0.0
 10
48.722994
 20
84.049179
 30
0.0
 10
47.232308
 20
85.865433
 30
0.0
  0
SPLINE
  5
27f
100
AcDbEntity
  8
0
 62
7
100
AcDbSpline
 70
8
 71
3
 72
8
 73
4
 74
0
 40
0
 40
0
 40
0
 40
0
 40
1
 40
1
 40
1
 40
1
 10
47.232308
 20
85.865433
 30
0.0
 10
45.540750
 20
87.926426
 30
0.0
 10
45.434462
 20
88.106250
 30
0.0
 10
45.907822
 20
88.106250
 30
0.0
  0
SPLINE
  5
280
100
AcDbEntity
  8
0
 62
7
100
AcDbSpline
 70
8
 71
3
 72
8
 73
4
 74
0
 40
0
 40
0
 40
0
 40
0
 40
1
 40
1
 40
1
 40
1
 10
45.907822
 20
88.106250
 30
0.0
 10
46.771092
 20
88.106250
 30
0.0
 10
48.076117
 20
87.117788
 30
0.0
 10
48.948943
 20
85.802822
 30
0.0
  0
SPLINE
  5
281
100
AcDbEntity
  8
0
 62
7
100
AcDbSpline
 70
8
 71
3
 72
8
 73
4
 74
0
 40
0
 40
0
 40
0
 40
0
 40
1
 40
1
 40
1
 40
1
 10
48.948943
 20
85.802822
 30
0.0
 10
49.480959
 20
85.001304
 30
0.0
 10
50.270955
 20
83.941526
 30
0.0
 10
50.704488
 20
83.447758
 30
0.0
  0
SPLINE
  5
282
100
AcDbEntity
  8
0
 62
7
100
AcDbSpline
 70
8
 71
3
 72
8
 73
4
 74
0
 40
0
 40
0
 40
0
 40
0
 40
1
 40
1
 40
1
 40
1
 10
50.704488
 20
83.447758
 30
0.0
 10
51.471833
 20
82.573799
 30
0.0
 10
51.456344
 20
82.399000
 30
0.0
 10
50.644163
 20
82.767035
 30
0.0
  0
LWPOLYLINE
  5
283
100
AcDbEntity
  8
0
 62
7
100
AcDbPolyline
 90
1
 70
1
 10
11.279819
 20
132.490104
 30
0.0
  0
SPLINE
  5
284
100
AcDbEntity
  8
0
 62
7
100
AcDbSpline
 70
8
 71
3
 72
8
 73
4
 74
0
 40
0
 40
0
 40
0
 40
0
 40
1
 40
1
 40
1
 40
1
 10
83.453330
 20
92.407981
 30
0.0
 10
82.057208
 20
93.121464
 30
0.0
 10
81.378023
 20
93.991232
 30
0.0
 10
81.157937
 20
95.347467
 30
0.0
  0
LWPOLYLINE
  5
285
100
AcDbEntity
  8
0
 62
7
100
AcDbPolyline
 90
1
 70
1
 10
50.644163
 20
82.767035
 30
0.0
  0
SPLINE
  5
286
100
AcDbEntity
  8
0
 62
7
100
AcDbSpline
 70
8
 71
3
 72
8
 73
4
 74
0
 40
0
 40
0
 40
0
 40
0
 40
1
 40
1
 40
1
 40
1
 10
82.134078
 20
95.776873
 30
0.0
 10
83.555160
 20
95.051891
 30
0.0
 10
84.847882
 20
94.994124
 30
0.0
 10
85.544422
 20
95.624483
 30
0.0
  0
SPLINE
  5
287
100
AcDbEntity
  8
0
 62
7
100
AcDbSpline
 70
8
 71
3
 72
8
 73
4
 74
0
 40
0
 40
0
 40
0
 40
0
 40
1
 40
1
 40
1
 40
1
 10
85.544422
 20
95.624483
 30
0.0
 10
86.059161
 20
96.090317
 30
0.0
 10
86.077896
 20
96.084999
 30
0.0
 10
86.243282
 20
95.426043
 30
0.0
  0
SPLINE
  5
288
100
AcDbEntity
  8
0
 62
7
100
AcDbSpline
 70
8
 71
3
 72
8
 73
4
 74
0
 40
0
 40
0
 40
0
 40
0
 40
1
 40
1
 40
1
 40
1
 10
86.243282
 20
95.426043
 30
0.0
 10
86.464688
 20
94.543899
 30
0.0
 10
85.975777
 20
93.094421
 30
0.0
 10
85.216100
 20
92.380742
 30
0.0
  0
LWPOLYLINE
  5
289
100
AcDbEntity
  8
0
 62
7
100
AcDbPolyline
 90
3
 70
0
 10
81.157937
 20
95.347467
 30
0.0
 10
80.993856
 20
96.358570
 30
0.0
 10
82.134078
 20
95.776873
 30
0.0
  0
SPLINE
  5
28a
100
AcDbEntity
  8
0
 62
7
100
AcDbSpline
 70
8
 71
3
 72
8
 73
4
 74
0
 40
0
 40
0
 40
0
 40
0
 40
1
 40
1
 40
1
 40
1
 10
41.337362
 20
100.109250
 30
0.0
 10
41.022423
 20
101.286762
 30
0.0
 10
40.970700
 20
101.335417
 30
0.0
 10
40.033824
 20
101.335417
 30
0.0
  0
SPLINE
  5
28b
100
AcDbEntity
  8
0
 62
7
100
AcDbSpline
 70
8
 71
3
 72
8
 73
4
 74
0
 40
0
 40
0
 40
0
 40
0
 40
1
 40
1
 40
1
 40
1
 10
40.033824
 20
101.335417
 30
0.0
 10
39.497251
 20
101.335417
 30
0.0
 10
38.242023
 20
101.592425
 30
0.0
 10
37.244430
 20
101.906549
 30
0.0
  0
SPLINE
  5
28c
100
AcDbEntity
  8
0
 62
7
100
AcDbSpline
 70
8
 71
3
 72
8
 73
4
 74
0
 40
0
 40
0
 40
0
 40
0
 40
1
 40
1
 40
1
 40
1
 10
37.244430
 20
101.906549
 30
0.0
 10
36.100845
 20
102.266639
 30
0.0
 10
34.780702
 20
102.471342
 30
0.0
 10
33.671761
 20
102.460531
 30
0.0
  0
LWPOLYLINE
  5
28d
100
AcDbEntity
  8
0
 62
7
100
AcDbPolyline
 90
3
 70
0
 10
85.216100
 20
92.380742
 30
0.0
 10
84.613811
 20
91.814923
 30
0.0
 10
83.453330
 20
92.407981
 30
0.0
  0
SPLINE
  5
28e
100
AcDbEntity
  8
0
 62
7
100
AcDbSpline
 70
8
 71
3
 72
8
 73
4
 74
0
 40
0
 40
0
 40
0
 40
0
 40
1
 40
1
 40
1
 40
1
 10
31.951970
 20
103.713150
 30
0.0
 10
31.979796
 20
104.617531
 30
0.0
 10
31.850341
 20
105.138543
 30
0.0
 10
31.502099
 20
105.523744
 30
0.0
  0
SPLINE
  5
28f
100
AcDbEntity
  8
0
 62
7
100
AcDbSpline
 70
8
 71
3
 72
8
 73
4
 74
0
 40
0
 40
0
 40
0
 40
0
 40
1
 40
1
 40
1
 40
1
 10
31.502099
 20
105.523744
 30
0.0
 10
31.233181
 20
105.821202
 30
0.0
 10
31.084769
 20
106.180440
 30
0.0
 10
31.172290
 20
106.322056
 30
0.0
  0
SPLINE
  5
290
100
AcDbEntity
  8
0
 62
7
100
AcDbSpline
 70
8
 71
3
 72
8
 73
4
 74
0
 40
0
 40
0
 40
0
 40
0
 40
1
 40
1
 40
1
 40
1
 10
31.172290
 20
106.322056
 30
0.0
 10
31.259814
 20
106.463671
 30
0.0
 10
32.134680
 20
107.017603
 30
0.0
 10
33.116438
 20
107.553017
 30
0.0
  0
SPLINE
  5
291
100
AcDbEntity
  8
0
 62
7
100
AcDbSpline
 70
8
 71
3
 72
8
 73
4
 74
0
 40
0
 40
0
 40
0
 40
0
 40
1
 40
1
 40
1
 40
1
 10
33.116438
 20
107.553017
 30
0.0
 10
34.098198
 20
108.088427
 30
0.0
 10
35.288641
 20
108.896613
 30
0.0
 10
35.761867
 20
109.348984
 30
0.0
  0
SPLINE
  5
292
100
AcDbEntity
  8
0
 62
7
100
AcDbSpline
 70
8
 71
3
 72
8
 73
4
 74
0
 40
0
 40
0
 40
0
 40
0
 40
1
 40
1
 40
1
 40
1
 10
35.761867
 20
109.348984
 30
0.0
 10
36.408111
 20
109.966747
 30
0.0
 10
36.697682
 20
110.096067
 30
0.0
 10
36.925224
 20
109.868526
 30
0.0
  0
SPLINE
  5
293
100
AcDbEntity
  8
0
 62
7
100
AcDbSpline
 70
8
 71
3
 72
8
 73
4
 74
0
 40
0
 40
0
 40
0
 40
0
 40
1
 40
1
 40
1
 40
1
 10
36.925224
 20
109.868526
 30
0.0
 10
37.152763
 20
109.640986
 30
0.0
 10
37.516197
 20
109.763748
 30
0.0
 10
38.385324
 20
110.361722
 30
0.0
  0
SPLINE
  5
294
100
AcDbEntity
  8
0
 62
7
100
AcDbSpline
 70
8
 71
3
 72
8
 73
4
 74
0
 40
0
 40
0
 40
0
 40
0
 40
1
 40
1
 40
1
 40
1
 10
38.385324
 20
110.361722
 30
0.0
 10
41.243999
 20
112.328542
 30
0.0
 10
45.094073
 20
113.510446
 30
0.0
 10
48.616918
 20
113.502641
 30
0.0
  0
SPLINE
  5
295
100
AcDbEntity
  8
0
 62
7
100
AcDbSpline
 70
8
 71
3
 72
8
 73
4
 74
0
 40
0
 40
0
 40
0
 40
0
 40
1
 40
1
 40
1
 40
1
 10
48.616918
 20
113.502641
 30
0.0
 10
50.707020
 20
113.498011
 30
0.0
 10
51.381081
 20
113.308376
 30
0.0
 10
51.584392
 20
112.667807
 30
0.0
  0
SPLINE
  5
296
100
AcDbEntity
  8
0
 62
7
100
AcDbSpline
 70
8
 71
3
 72
8
 73
4
 74
0
 40
0
 40
0
 40
0
 40
0
 40
1
 40
1
 40
1
 40
1
 10
51.584392
 20
112.667807
 30
0.0
 10
51.674593
 20
112.383607
 30
0.0
 10
52.024555
 20
112.025253
 30
0.0
 10
52.362084
 20
111.871464
 30
0.0
  0
SPLINE
  5
297
100
AcDbEntity
  8
0
 62
7
100
AcDbSpline
 70
8
 71
3
 72
8
 73
4
 74
0
 40
0
 40
0
 40
0
 40
0
 40
1
 40
1
 40
1
 40
1
 10
52.362084
 20
111.871464
 30
0.0
 10
52.825740
 20
111.660207
 30
0.0
 10
53.002736
 20
111.324554
 30
0.0
 10
53.086056
 20
110.498528
 30
0.0
  0
SPLINE
  5
298
100
AcDbEntity
  8
0
 62
7
100
AcDbSpline
 70
8
 71
3
 72
8
 73
4
 74
0
 40
0
 40
0
 40
0
 40
0
 40
1
 40
1
 40
1
 40
1
 10
53.086056
 20
110.498528
 30
0.0
 10
53.213799
 20
109.232070
 30
0.0
 10
53.055703
 20
109.076509
 30
0.0
 10
51.437913
 20
108.876798
 30
0.0
  0
SPLINE
  5
299
100
AcDbEntity
  8
0
 62
7
100
AcDbSpline
 70
8
 71
3
 72
8
 73
4
 74
0
 40
0
 40
0
 40
0
 40
0
 40
1
 40
1
 40
1
 40
1
 10
51.437913
 20
108.876798
 30
0.0
 10
50.783069
 20
108.795960
 30
0.0
 10
49.651976
 20
108.629535
 30
0.0
 10
48.924371
 20
108.506961
 30
0.0
  0
SPLINE
  5
29a
100
AcDbEntity
  8
0
 62
7
100
AcDbSpline
 70
8
 71
3
 72
8
 73
4
 74
0
 40
0
 40
0
 40
0
 40
0
 40
1
 40
1
 40
1
 40
1
 10
48.924371
 20
108.506961
 30
0.0
 10
47.662415
 20
108.294374
 30
0.0
 10
47.705089
 20
108.282335
 30
0.0
 10
49.850413
 20
108.245733
 30
0.0
  0
SPLINE
  5
29b
100
AcDbEntity
  8
0
 62
7
100
AcDbSpline
 70
8
 71
3
 72
8
 73
4
 74
0
 40
0
 40
0
 40
0
 40
0
 40
1
 40
1
 40
1
 40
1
 10
49.850413
 20
108.245733
 30
0.0
 10
51.087340
 20
108.224619
 30
0.0
 10
52.365923
 20
108.135917
 30
0.0
 10
52.691707
 20
108.048602
 30
0.0
  0
SPLINE
  5
29c
100
AcDbEntity
  8
0
 62
7
100
AcDbSpline
 70
8
 71
3
 72
8
 73
4
 74
0
 40
0
 40
0
 40
0
 40
0
 40
1
 40
1
 40
1
 40
1
 10
52.691707
 20
108.048602
 30
0.0
 10
53.682014
 20
107.783178
 30
0.0
 10
53.076581
 20
107.420836
 30
0.0
 10
51.642785
 20
107.420836
 30
0.0
  0
SPLINE
  5
29d
100
AcDbEntity
  8
0
 62
7
100
AcDbSpline
 70
8
 71
3
 72
8
 73
4
 74
0
 40
0
 40
0
 40
0
 40
0
 40
1
 40
1
 40
1
 40
1
 10
51.642785
 20
107.420836
 30
0.0
 10
49.859181
 20
107.420836
 30
0.0
 10
50.163791
 20
107.180938
 30
0.0
 10
52.266297
 20
106.929780
 30
0.0
  0
LWPOLYLINE
  5
29e
100
AcDbEntity
  8
0
 62
7
100
AcDbPolyline
 90
3
 70
0
 10
33.671761
 20
102.460531
 30
0.0
 10
31.912901
 20
102.443386
 30
0.0
 10
31.951970
 20
103.713150
 30
0.0
  0
SPLINE
  5
29f
100
AcDbEntity
  8
0
 62
7
100
AcDbSpline
 70
8
 71
3
 72
8
 73
4
 74
0
 40
0
 40
0
 40
0
 40
0
 40
1
 40
1
 40
1
 40
1
 10
52.893121
 20
106.265663
 30
0.0
 10
52.311038
 20
106.011115
 30
0.0
 10
50.673929
 20
105.555219
 30
0.0
 10
49.255101
 20
105.252560
 30
0.0
  0
SPLINE
  5
2a0
100
AcDbEntity
  8
0
 62
7
100
AcDbSpline
 70
8
 71
3
 72
8
 73
4
 74
0
 40
0
 40
0
 40
0
 40
0
 40
1
 40
1
 40
1
 40
1
 10
49.255101
 20
105.252560
 30
0.0
 10
47.382790
 20
104.853166
 30
0.0
 10
46.675413
 20
104.593424
 30
0.0
 10
46.675413
 20
104.305333
 30
0.0
  0
SPLINE
  5
2a1
100
AcDbEntity
  8
0
 62
7
100
AcDbSpline
 70
8
 71
3
 72
8
 73
4
 74
0
 40
0
 40
0
 40
0
 40
0
 40
1
 40
1
 40
1
 40
1
 10
46.675413
 20
104.305333
 30
0.0
 10
46.675413
 20
103.979856
 30
0.0
 10
46.937390
 20
103.939187
 30
0.0
 10
48.130621
 20
104.079426
 30
0.0
  0
SPLINE
  5
2a2
100
AcDbEntity
  8
0
 62
7
100
AcDbSpline
 70
8
 71
3
 72
8
 73
4
 74
0
 40
0
 40
0
 40
0
 40
0
 40
1
 40
1
 40
1
 40
1
 10
48.130621
 20
104.079426
 30
0.0
 10
48.930986
 20
104.173494
 30
0.0
 10
49.585830
 20
104.183974
 30
0.0
 10
49.585830
 20
104.102710
 30
0.0
  0
SPLINE
  5
2a3
100
AcDbEntity
  8
0
 62
7
100
AcDbSpline
 70
8
 71
3
 72
8
 73
4
 74
0
 40
0
 40
0
 40
0
 40
0
 40
1
 40
1
 40
1
 40
1
 10
49.585830
 20
104.102710
 30
0.0
 10
49.585830
 20
104.021451
 30
0.0
 10
49.404709
 20
103.604719
 30
0.0
 10
49.183340
 20
103.176639
 30
0.0
  0
SPLINE
  5
2a4
100
AcDbEntity
  8
0
 62
7
100
AcDbSpline
 70
8
 71
3
 72
8
 73
4
 74
0
 40
0
 40
0
 40
0
 40
0
 40
1
 40
1
 40
1
 40
1
 10
49.183340
 20
103.176639
 30
0.0
 10
48.961971
 20
102.748559
 30
0.0
 10
48.844438
 20
102.129394
 30
0.0
 10
48.922157
 20
101.800716
 30
0.0
  0
SPLINE
  5
2a5
100
AcDbEntity
  8
0
 62
7
100
AcDbSpline
 70
8
 71
3
 72
8
 73
4
 74
0
 40
0
 40
0
 40
0
 40
0
 40
1
 40
1
 40
1
 40
1
 10
48.922157
 20
101.800716
 30
0.0
 10
49.046228
 20
101.276002
 30
0.0
 10
48.814194
 20
101.077847
 30
0.0
 10
47.019617
 20
100.175965
 30
0.0
  0
SPLINE
  5
2a6
100
AcDbEntity
  8
0
 62
7
100
AcDbSpline
 70
8
 71
3
 72
8
 73
4
 74
0
 40
0
 40
0
 40
0
 40
0
 40
1
 40
1
 40
1
 40
1
 10
47.019617
 20
100.175965
 30
0.0
 10
45.520679
 20
99.422656
 30
0.0
 10
44.534474
 20
99.113385
 30
0.0
 10
43.320541
 20
99.015942
 30
0.0
  0
LWPOLYLINE
  5
2a7
100
AcDbEntity
  8
0
 62
7
100
AcDbPolyline
 90
3
 70
0
 10
52.266297
 20
106.929780
 30
0.0
 10
53.951455
 20
106.728477
 30
0.0
 10
52.893121
 20
106.265663
 30
0.0
  0
SPLINE
  5
2a8
100
AcDbEntity
  8
0
 62
7
100
AcDbSpline
 70
8
 71
3
 72
8
 73
4
 74
0
 40
0
 40
0
 40
0
 40
0
 40
1
 40
1
 40
1
 40
1
 10
45.617080
 20
103.848958
 30
0.0
 10
45.895620
 20
104.184577
 30
0.0
 10
45.839361
 20
104.245833
 30
0.0
 10
45.252600
 20
104.245833
 30
0.0
  0
SPLINE
  5
2a9
100
AcDbEntity
  8
0
 62
7
100
AcDbSpline
 70
8
 71
3
 72
8
 73
4
 74
0
 40
0
 40
0
 40
0
 40
0
 40
1
 40
1
 40
1
 40
1
 10
45.252600
 20
104.245833
 30
0.0
 10
44.812230
 20
104.245833
 30
0.0
 10
44.558746
 20
104.100844
 30
0.0
 10
44.558746
 20
103.848958
 30
0.0
  0
SPLINE
  5
2aa
100
AcDbEntity
  8
0
 62
7
100
AcDbSpline
 70
8
 71
3
 72
8
 73
4
 74
0
 40
0
 40
0
 40
0
 40
0
 40
1
 40
1
 40
1
 40
1
 10
44.558746
 20
103.848958
 30
0.0
 10
44.558746
 20
103.630677
 30
0.0
 10
44.722762
 20
103.452083
 30
0.0
 10
44.923226
 20
103.452083
 30
0.0
  0
SPLINE
  5
2ab
100
AcDbEntity
  8
0
 62
7
100
AcDbSpline
 70
8
 71
3
 72
8
 73
4
 74
0
 40
0
 40
0
 40
0
 40
0
 40
1
 40
1
 40
1
 40
1
 10
44.923226
 20
103.452083
 30
0.0
 10
45.123687
 20
103.452083
 30
0.0
 10
45.435922
 20
103.630677
 30
0.0
 10
45.617080
 20
103.848958
 30
0.0
  0
LWPOLYLINE
  5
2ac
100
AcDbEntity
  8
0
 62
7
100
AcDbPolyline
 90
4
 70
0
 10
43.320541
 20
99.015942
 30
0.0
 10
41.665311
 20
98.883076
 30
0.0
 10
41.337362
 20
100.109245
 30
0.0
 10
41.337362
 20
100.109250
 30
0.0
  0
SPLINE
  5
2ad
100
AcDbEntity
  8
0
 62
7
100
AcDbSpline
 70
8
 71
3
 72
8
 73
4
 74
0
 40
0
 40
0
 40
0
 40
0
 40
1
 40
1
 40
1
 40
1
 10
84.378538
 20
106.366170
 30
0.0
 10
83.550816
 20
107.240602
 30
0.0
 10
81.897011
 20
108.214583
 30
0.0
 10
81.239961
 20
108.214583
 30
0.0
  0
SPLINE
  5
2ae
100
AcDbEntity
  8
0
 62
7
100
AcDbSpline
 70
8
 71
3
 72
8
 73
4
 74
0
 40
0
 40
0
 40
0
 40
0
 40
1
 40
1
 40
1
 40
1
 10
81.239961
 20
108.214583
 30
0.0
 10
80.842080
 20
108.214583
 30
0.0
 10
80.277496
 20
109.499691
 30
0.0
 10
80.277496
 20
110.405352
 30
0.0
  0
SPLINE
  5
2af
100
AcDbEntity
  8
0
 62
7
100
AcDbSpline
 70
8
 71
3
 72
8
 73
4
 74
0
 40
0
 40
0
 40
0
 40
0
 40
1
 40
1
 40
1
 40
1
 10
80.277496
 20
110.405352
 30
0.0
 10
80.277496
 20
110.857945
 30
0.0
 10
80.405634
 20
110.908859
 30
0.0
 10
81.214389
 20
110.777618
 30
0.0
  0
SPLINE
  5
2b0
100
AcDbEntity
  8
0
 62
7
100
AcDbSpline
 70
8
 71
3
 72
8
 73
4
 74
0
 40
0
 40
0
 40
0
 40
0
 40
1
 40
1
 40
1
 40
1
 10
81.214389
 20
110.777618
 30
0.0
 10
83.410957
 20
110.421163
 30
0.0
 10
85.411130
 20
108.304600
 30
0.0
 10
85.255992
 20
106.500829
 30
0.0
  0
LWPOLYLINE
  5
2b1
100
AcDbEntity
  8
0
 62
7
100
AcDbPolyline
 90
1
 70
1
 10
45.617080
 20
103.848958
 30
0.0
  0
SPLINE
  5
2b2
100
AcDbEntity
  8
0
 62
7
100
AcDbSpline
 70
8
 71
3
 72
8
 73
4
 74
0
 40
0
 40
0
 40
0
 40
0
 40
1
 40
1
 40
1
 40
1
 10
85.966038
 20
113.835508
 30
0.0
 10
84.388021
 20
115.818325
 30
0.0
 10
83.206513
 20
116.517404
 30
0.0
 10
81.717121
 20
116.349529
 30
0.0
  0
SPLINE
  5
2b3
100
AcDbEntity
  8
0
 62
7
100
AcDbSpline
 70
8
 71
3
 72
8
 73
4
 74
0
 40
0
 40
0
 40
0
 40
0
 40
1
 40
1
 40
1
 40
1
 10
81.717121
 20
116.349529
 30
0.0
 10
80.673432
 20
116.231890
 30
0.0
 10
80.533325
 20
116.272212
 30
0.0
 10
80.687839
 20
116.645740
 30
0.0
  0
SPLINE
  5
2b4
100
AcDbEntity
  8
0
 62
7
100
AcDbSpline
 70
8
 71
3
 72
8
 73
4
 74
0
 40
0
 40
0
 40
0
 40
0
 40
1
 40
1
 40
1
 40
1
 10
80.687839
 20
116.645740
 30
0.0
 10
80.786211
 20
116.883550
 30
0.0
 10
80.921331
 20
117.266302
 30
0.0
 10
80.988104
 20
117.496296
 30
0.0
  0
SPLINE
  5
2b5
100
AcDbEntity
  8
0
 62
7
100
AcDbSpline
 70
8
 71
3
 72
8
 73
4
 74
0
 40
0
 40
0
 40
0
 40
0
 40
1
 40
1
 40
1
 40
1
 10
80.988104
 20
117.496296
 30
0.0
 10
81.084727
 20
117.829110
 30
0.0
 10
81.335134
 20
117.879225
 30
0.0
 10
82.214855
 20
117.741811
 30
0.0
  0
SPLINE
  5
2b6
100
AcDbEntity
  8
0
 62
7
100
AcDbSpline
 70
8
 71
3
 72
8
 73
4
 74
0
 40
0
 40
0
 40
0
 40
0
 40
1
 40
1
 40
1
 40
1
 10
82.214855
 20
117.741811
 30
0.0
 10
83.691693
 20
117.511129
 30
0.0
 10
84.877373
 20
116.859029
 30
0.0
 10
85.558032
 20
115.903132
 30
0.0
  0
SPLINE
  5
2b7
100
AcDbEntity
  8
0
 62
7
100
AcDbSpline
 70
8
 71
3
 72
8
 73
4
 74
0
 40
0
 40
0
 40
0
 40
0
 40
1
 40
1
 40
1
 40
1
 10
85.558032
 20
115.903132
 30
0.0
 10
86.162637
 20
115.054044
 30
0.0
 10
87.256808
 20
112.720117
 30
0.0
 10
87.112626
 20
112.587106
 30
0.0
  0
SPLINE
  5
2b8
100
AcDbEntity
  8
0
 62
7
100
AcDbSpline
 70
8
 71
3
 72
8
 73
4
 74
0
 40
0
 40
0
 40
0
 40
0
 40
1
 40
1
 40
1
 40
1
 10
87.112626
 20
112.587106
 30
0.0
 10
87.064085
 20
112.542325
 30
0.0
 10
86.548121
 20
113.104107
 30
0.0
 10
85.966038
 20
113.835508
 30
0.0
  0
LWPOLYLINE
  5
2b9
100
AcDbEntity
  8
0
 62
7
100
AcDbPolyline
 90
3
 70
0
 10
85.255992
 20
106.500829
 30
0.0
 10
85.172288
 20
105.527628
 30
0.0
 10
84.378538
 20
106.366170
 30
0.0
  0
LWPOLYLINE
  5
2ba
100
AcDbEntity
  8
0
 62
7
100
AcDbPolyline
 90
1
 70
1
 10
85.966038
 20
113.835508
 30
0.0
  0
ENDSEC
  0
SECTION
  2
OBJECTS
  0
DICTIONARY
  5
C
330
0
100
AcDbDictionary
  3
ACAD_GROUP
350
D
  3
ACAD_MLINESTYLE
350
17
  0
DICTIONARY
  5
D
330
C
100
AcDbDictionary
  0
DICTIONARY
  5
1A
330
C
100
AcDbDictionary
  0
DICTIONARY
  5
17
330
C
100
AcDbDictionary
  3
STANDARD
350
18
  0
DICTIONARY
  5
19
330
C
100
AcDbDictionary
  0
ENDSEC
  0
EOF
