  0
SECTION
  2
HEADER
  9
$ACADVER
  1
AC1021
  9
$ACADMAINTVER
 70
    25
  9
$DWGCODEPAGE
  3
ANSI_1252
  9
$INSBASE
 10
0.0
 20
0.0
 30
0.0
  9
$EXTMIN
 10
-26.8388
 20
-0.6056
 30
0.0
  9
$EXTMAX
 10
7.41196
 20
41.41155
 30
0.0
  9
$LIMMIN
 10
0.0
 20
0.0
  9
$LIMMAX
 10
12.0
 20
9.0
  9
$ORTHOMODE
 70
     0
  9
$REGENMODE
 70
     1
  9
$FILLMODE
 70
     1
  9
$QTEXTMODE
 70
     0
  9
$MIRRTEXT
 70
     1
  9
$LTSCALE
 40
1.0
  9
$ATTMODE
 70
     1
  9
$TEXTSIZE
 40
0.2
  9
$TRACEWID
 40
0.05
  9
$TEXTSTYLE
  7
Standard
  9
$CLAYER
  8
0
  9
$CELTYPE
  6
ByLayer
  9
$CECOLOR
 62
   256
  9
$CELTSCALE
 40
1.0
  9
$DISPSILH
 70
     0
  9
$DIMSCALE
 40
1.0
  9
$DIMASZ
 40
0.18
  9
$DIMEXO
 40
0.0625
  9
$DIMDLI
 40
0.38
  9
$DIMRND
 40
0.0
  9
$DIMDLE
 40
0.0
  9
$DIMEXE
 40
0.18
  9
$DIMTP
 40
0.0
  9
$DIMTM
 40
0.0
  9
$DIMTXT
 40
0.18
  9
$DIMCEN
 40
0.09
  9
$DIMTSZ
 40
0.0
  9
$DIMTOL
 70
     0
  9
$DIMLIM
 70
     0
  9
$DIMTIH
 70
     1
  9
$DIMTOH
 70
     1
  9
$DIMSE1
 70
     0
  9
$DIMSE2
 70
     0
  9
$DIMTAD
 70
     0
  9
$DIMZIN
 70
     0
  9
$DIMBLK
  1

  9
$DIMASO
 70
     1
  9
$DIMSHO
 70
     1
  9
$DIMPOST
  1

  9
$DIMAPOST
  1

  9
$DIMALT
 70
     0
  9
$DIMALTD
 70
     2
  9
$DIMALTF
 40
25.4
  9
$DIMLFAC
 40
1.0
  9
$DIMTOFL
 70
     0
  9
$DIMTVP
 40
0.0
  9
$DIMTIX
 70
     0
  9
$DIMSOXD
 70
     0
  9
$DIMSAH
 70
     0
  9
$DIMBLK1
  1

  9
$DIMBLK2
  1

  9
$DIMSTYLE
  2
Standard
  9
$DIMCLRD
 70
     0
  9
$DIMCLRE
 70
     0
  9
$DIMCLRT
 70
     0
  9
$DIMTFAC
 40
1.0
  9
$DIMGAP
 40
0.09
  9
$DIMJUST
 70
     0
  9
$DIMSD1
 70
     0
  9
$DIMSD2
 70
     0
  9
$DIMTOLJ
 70
     1
  9
$DIMTZIN
 70
     0
  9
$DIMALTZ
 70
     0
  9
$DIMALTTZ
 70
     0
  9
$DIMUPT
 70
     0
  9
$DIMDEC
 70
     4
  9
$DIMTDEC
 70
     4
  9
$DIMALTU
 70
     2
  9
$DIMALTTD
 70
     2
  9
$DIMTXSTY
  7
Standard
  9
$DIMAUNIT
 70
     0
  9
$DIMADEC
 70
     0
  9
$DIMALTRND
 40
0.0
  9
$DIMAZIN
 70
     0
  9
$DIMDSEP
 70
    46
  9
$DIMATFIT
 70
     3
  9
$DIMFRAC
 70
     0
  9
$DIMLDRBLK
  1

  9
$DIMLUNIT
 70
     2
  9
$DIMLWD
 70
    -2
  9
$DIMLWE
 70
    -2
  9
$DIMTMOVE
 70
     0
  9
$DIMFXL
 40
1.0
  9
$DIMFXLON
 70
     0
  9
$DIMJOGANG
 40
0.7853981633974483
  9
$DIMTFILL
 70
     0
  9
$DIMTFILLCLR
 70
     0
  9
$DIMARCSYM
 70
     0
  9
$DIMLTYPE
  6

  9
$DIMLTEX1
  6

  9
$DIMLTEX2
  6

  9
$LUNITS
 70
     2
  9
$LUPREC
 70
     4
  9
$SKETCHINC
 40
0.1
  9
$FILLETRAD
 40
0.5
  9
$AUNITS
 70
     0
  9
$AUPREC
 70
     0
  9
$MENU
  1
.
  9
$ELEVATION
 40
0.0
  9
$PELEVATION
 40
0.0
  9
$THICKNESS
 40
0.0
  9
$LIMCHECK
 70
     0
  9
$CHAMFERA
 40
0.5
  9
$CHAMFERB
 40
0.5
  9
$CHAMFERC
 40
1.0
  9
$CHAMFERD
 40
0.0
  9
$SKPOLY
 70
     0
  9
$TDCREATE
 40
2455754.74996809
  9
$TDUCREATE
 40
2455754.87496809
  9
$TDUPDATE
 40
2455754.749968102
  9
$TDUUPDATE
 40
2455754.874968102
  9
$TDINDWG
 40
0.0000000116
  9
$TDUSRTIMER
 40
0.0000000116
  9
$USRTIMER
 70
     1
  9
$ANGBASE
 50
0.0
  9
$ANGDIR
 70
     0
  9
$PDMODE
 70
     0
  9
$PDSIZE
 40
0.0
  9
$PLINEWID
 40
0.0
  9
$SPLFRAME
 70
     0
  9
$SPLINETYPE
 70
     6
  9
$SPLINESEGS
 70
     8
  9
$HANDSEED
  5
B4
  9
$SURFTAB1
 70
     6
  9
$SURFTAB2
 70
     6
  9
$SURFTYPE
 70
     6
  9
$SURFU
 70
     6
  9
$SURFV
 70
     6
  9
$UCSBASE
  2

  9
$UCSNAME
  2

  9
$UCSORG
 10
0.0
 20
0.0
 30
0.0
  9
$UCSXDIR
 10
1.0
 20
0.0
 30
0.0
  9
$UCSYDIR
 10
0.0
 20
1.0
 30
0.0
  9
$UCSORTHOREF
  2

  9
$UCSORTHOVIEW
 70
     0
  9
$UCSORGTOP
 10
0.0
 20
0.0
 30
0.0
  9
$UCSORGBOTTOM
 10
0.0
 20
0.0
 30
0.0
  9
$UCSORGLEFT
 10
0.0
 20
0.0
 30
0.0
  9
$UCSORGRIGHT
 10
0.0
 20
0.0
 30
0.0
  9
$UCSORGFRONT
 10
0.0
 20
0.0
 30
0.0
  9
$UCSORGBACK
 10
0.0
 20
0.0
 30
0.0
  9
$PUCSBASE
  2

  9
$PUCSNAME
  2

  9
$PUCSORG
 10
0.0
 20
0.0
 30
0.0
  9
$PUCSXDIR
 10
1.0
 20
0.0
 30
0.0
  9
$PUCSYDIR
 10
0.0
 20
1.0
 30
0.0
  9
$PUCSORTHOREF
  2

  9
$PUCSORTHOVIEW
 70
     0
  9
$PUCSORGTOP
 10
0.0
 20
0.0
 30
0.0
  9
$PUCSORGBOTTOM
 10
0.0
 20
0.0
 30
0.0
  9
$PUCSORGLEFT
 10
0.0
 20
0.0
 30
0.0
  9
$PUCSORGRIGHT
 10
0.0
 20
0.0
 30
0.0
  9
$PUCSORGFRONT
 10
0.0
 20
0.0
 30
0.0
  9
$PUCSORGBACK
 10
0.0
 20
0.0
 30
0.0
  9
$USERI1
 70
     0
  9
$USERI2
 70
     0
  9
$USERI3
 70
     0
  9
$USERI4
 70
     0
  9
$USERI5
 70
     0
  9
$USERR1
 40
0.0
  9
$USERR2
 40
0.0
  9
$USERR3
 40
0.0
  9
$USERR4
 40
0.0
  9
$USERR5
 40
0.0
  9
$WORLDVIEW
 70
     1
  9
$SHADEDGE
 70
     3
  9
$SHADEDIF
 70
    70
  9
$TILEMODE
 70
     1
  9
$MAXACTVP
 70
    64
  9
$PINSBASE
 10
0.0
 20
0.0
 30
0.0
  9
$PLIMCHECK
 70
     0
  9
$PEXTMIN
 10
1.000000000000000E+20
 20
1.000000000000000E+20
 30
1.000000000000000E+20
  9
$PEXTMAX
 10
-1.000000000000000E+20
 20
-1.000000000000000E+20
 30
-1.000000000000000E+20
  9
$PLIMMIN
 10
0.0
 20
0.0
  9
$PLIMMAX
 10
12.0
 20
9.0
  9
$UNITMODE
 70
     0
  9
$VISRETAIN
 70
     1
  9
$PLINEGEN
 70
     0
  9
$PSLTSCALE
 70
     1
  9
$TREEDEPTH
 70
  3020
  9
$CMLSTYLE
  2
Standard
  9
$CMLJUST
 70
     0
  9
$CMLSCALE
 40
1.0
  9
$PROXYGRAPHICS
 70
     1
  9
$MEASUREMENT
 70
     0
  9
$CELWEIGHT
370
    -1
  9
$ENDCAPS
280
     0
  9
$JOINSTYLE
280
     0
  9
$LWDISPLAY
290
     0
  9
$INSUNITS
 70
     5
  9
$HYPERLINKBASE
  1

  9
$STYLESHEET
  1

  9
$XEDIT
290
     1
  9
$CEPSNTYPE
380
     0
  9
$PSTYLEMODE
290
     1
  9
$FINGERPRINTGUID
  2
{68A8E954-1B24-4FC4-B247-8CA3C4B0475B}
  9
$VERSIONGUID
  2
{FAEB1C32-E019-11D5-929B-00C0DF256EC4}
  9
$EXTNAMES
290
     1
  9
$PSVPSCALE
 40
0.0
  9
$OLESTARTUP
290
     0
  9
$SORTENTS
280
   127
  9
$INDEXCTL
280
     0
  9
$HIDETEXT
280
     1
  9
$XCLIPFRAME
290
     0
  9
$HALOGAP
280
     0
  9
$OBSCOLOR
 70
   257
  9
$OBSLTYPE
280
     0
  9
$INTERSECTIONDISPLAY
280
     0
  9
$INTERSECTIONCOLOR
 70
   257
  9
$DIMASSOC
280
     2
  9
$PROJECTNAME
  1

  9
$CAMERADISPLAY
290
     0
  9
$LENSLENGTH
 40
50.0
  9
$CAMERAHEIGHT
 40
0.0
  9
$STEPSPERSEC
 40
2.0
  9
$STEPSIZE
 40
6.0
  9
$3DDWFPREC
 40
2.0
  9
$PSOLWIDTH
 40
0.25
  9
$PSOLHEIGHT
 40
4.0
  9
$LOFTANG1
 40
1.570796326794897
  9
$LOFTANG2
 40
1.570796326794897
  9
$LOFTMAG1
 40
0.0
  9
$LOFTMAG2
 40
0.0
  9
$LOFTPARAM
 70
     7
  9
$LOFTNORMALS
280
     1
  9
$LATITUDE
 40
37.795
  9
$LONGITUDE
 40
-122.394
  9
$NORTHDIRECTION
 40
0.0
  9
$TIMEZONE
 70
 -8000
  9
$LIGHTGLYPHDISPLAY
280
     1
  9
$TILEMODELIGHTSYNCH
280
     1
  9
$SOLIDHIST
280
     1
  9
$SHOWHIST
280
     1
  9
$DWFFRAME
280
     2
  9
$DGNFRAME
280
     2
  9
$REALWORLDSCALE
290
     1
  9
$INTERFERECOLOR
 62
   256
  9
$CSHADOW
280
     0
  9
$SHADOWPLANELOCATION
 40
0.0
  0
ENDSEC
  0
SECTION
  2
CLASSES
  0
CLASS
  1
ACDBDICTIONARYWDFLT
  2
AcDbDictionaryWithDefault
  3
ObjectDBX Classes
 90
        0
 91
        4
280
     0
281
     0
  0
CLASS
  1
VISUALSTYLE
  2
AcDbVisualStyle
  3
ObjectDBX Classes
 90
     4095
 91
        4
280
     0
281
     0
  0
CLASS
  1
MATERIAL
  2
AcDbMaterial
  3
ObjectDBX Classes
 90
     1153
 91
        4
280
     0
281
     0
  0
ENDSEC
  0
SECTION
  2
TABLES
  0
TABLE
  2
VPORT
  5
8
330
0
100
AcDbSymbolTable
 70
     1
  0
VPORT
  5
29
330
8
100
AcDbSymbolTableRecord
100
AcDbViewportTableRecord
  2
*Active
 70
     0
 10
0.0
 20
0.0
 11
1.0
 21
1.0
 12
10.42990654205607
 22
4.5
 13
0.0
 23
0.0
 14
0.5
 24
0.5
 15
0.5
 25
0.5
 16
0.0
 26
0.0
 36
1.0
 17
0.0
 27
0.0
 37
0.0
 40
9.0
 41
1.972972972850329
 42
50.0
 43
0.0
 44
0.0
 50
0.0
 51
0.0
 71
     0
 72
   100
 73
     1
 74
     3
 75
     0
 76
     0
 77
     0
 78
     0
281
     0
 65
     1
110
0.0
120
0.0
130
0.0
111
1.0
121
0.0
131
0.0
112
0.0
122
1.0
132
0.0
 79
     0
146
0.0
 60
     3
 61
     5
292
     1
282
     1
141
0.0
142
0.0
 63
   250
  0
ENDTAB
  0
TABLE
  2
LTYPE
  5
5
330
0
100
AcDbSymbolTable
 70
     1
  0
LTYPE
  5
14
330
5
100
AcDbSymbolTableRecord
100
AcDbLinetypeTableRecord
  2
ByBlock
 70
     0
  3

 72
    65
 73
     0
 40
0.0
  0
LTYPE
  5
15
330
5
100
AcDbSymbolTableRecord
100
AcDbLinetypeTableRecord
  2
ByLayer
 70
     0
  3

 72
    65
 73
     0
 40
0.0
  0
LTYPE
  5
16
330
5
100
AcDbSymbolTableRecord
100
AcDbLinetypeTableRecord
  2
Continuous
 70
     0
  3
Solid line
 72
    65
 73
     0
 40
0.0
  0
ENDTAB
  0
TABLE
  2
LAYER
  5
2
330
0
100
AcDbSymbolTable
 70
     2
  0
LAYER
  5
10
330
2
100
AcDbSymbolTableRecord
100
AcDbLayerTableRecord
  2
0
 70
     0
 62
     7
  6
Continuous
370
    -3
390
F
347
3E
  0
LAYER
  5
40
330
2
100
AcDbSymbolTableRecord
100
AcDbLayerTableRecord
  2
Camada 1
 70
     0
 62
     7
  6
Continuous
370
    -3
390
F
347
3E
  0
ENDTAB
  0
TABLE
  2
STYLE
  5
3
330
0
100
AcDbSymbolTable
 70
     1
  0
STYLE
  5
11
330
3
100
AcDbSymbolTableRecord
100
AcDbTextStyleTableRecord
  2
Standard
 70
     0
 40
0.0
 41
1.0
 50
0.0
 71
     0
 42
0.2
  3
txt
  4

  0
ENDTAB
  0
TABLE
  2
VIEW
  5
6
330
0
100
AcDbSymbolTable
 70
     0
  0
ENDTAB
  0
TABLE
  2
UCS
  5
7
330
0
100
AcDbSymbolTable
 70
     0
  0
ENDTAB
  0
TABLE
  2
APPID
  5
9
330
0
100
AcDbSymbolTable
 70
     2
  0
APPID
  5
12
330
9
100
AcDbSymbolTableRecord
100
AcDbRegAppTableRecord
  2
ACAD
 70
     0
  0
APPID
  5
3F
330
9
100
AcDbSymbolTableRecord
100
AcDbRegAppTableRecord
  2
ODA
 70
     0
  0
ENDTAB
  0
TABLE
  2
DIMSTYLE
  5
A
330
0
100
AcDbSymbolTable
 70
     1
100
AcDbDimStyleTable
  0
DIMSTYLE
105
27
330
A
100
AcDbSymbolTableRecord
100
AcDbDimStyleTableRecord
  2
Standard
 70
     0
340
11
  0
ENDTAB
  0
TABLE
  2
BLOCK_RECORD
  5
1
330
0
100
AcDbSymbolTable
 70
     1
  0
BLOCK_RECORD
  5
1F
330
1
100
AcDbSymbolTableRecord
100
AcDbBlockTableRecord
  2
*Model_Space
340
22
 70
     0
280
     1
281
     0
  0
BLOCK_RECORD
  5
1B
330
1
100
AcDbSymbolTableRecord
100
AcDbBlockTableRecord
  2
*Paper_Space
340
1E
 70
     0
280
     1
281
     0
  0
BLOCK_RECORD
  5
23
330
1
100
AcDbSymbolTableRecord
100
AcDbBlockTableRecord
  2
*Paper_Space0
340
26
 70
     0
280
     1
281
     0
  0
ENDTAB
  0
ENDSEC
  0
SECTION
  2
BLOCKS
  0
BLOCK
  5
20
330
1F
100
AcDbEntity
  8
0
100
AcDbBlockBegin
  2
*Model_Space
 70
     0
 10
0.0
 20
0.0
 30
0.0
  3
*Model_Space
  1

  0
ENDBLK
  5
21
330
1F
100
AcDbEntity
  8
0
100
AcDbBlockEnd
  0
BLOCK
  5
1C
330
1B
100
AcDbEntity
 67
     1
  8
0
100
AcDbBlockBegin
  2
*Paper_Space
 70
     0
 10
0.0
 20
0.0
 30
0.0
  3
*Paper_Space
  1

  0
ENDBLK
  5
1D
330
1B
100
AcDbEntity
 67
     1
  8
0
100
AcDbBlockEnd
  0
BLOCK
  5
24
330
23
100
AcDbEntity
  8
0
100
AcDbBlockBegin
  2
*Paper_Space0
 70
     0
 10
0.0
 20
0.0
 30
0.0
  3
*Paper_Space0
  1

  0
ENDBLK
  5
25
330
23
100
AcDbEntity
  8
0
100
AcDbBlockEnd
  0
ENDSEC
  0
SECTION
  2
ENTITIES
  0
LWPOLYLINE
  5
41
330
1F
100
AcDbEntity
  8
Camada 1
 62
   250
370
     9
100
AcDbPolyline
 90
        5
 70
     1
 43
0.0
 10
-24.26372
 20
37.55717
 10
-22.80846
 20
37.55717
 10
-22.80846
 20
37.85769
 10
-24.26372
 20
37.85769
 10
-24.26372
 20
37.55717
  0
SPLINE
  5
42
330
1F
100
AcDbEntity
  8
Camada 1
 62
   250
370
     9
100
AcDbSpline
210
0.0
220
0.0
230
1.0
 70
    11
 71
     3
 72
    28
 73
    24
 74
     0
 42
0.0000000001
 43
0.0000000001
 40
0.0
 40
0.0
 40
0.0
 40
0.0
 40
0.1428571428571428
 40
0.1428571428571428
 40
0.1428571428571428
 40
0.1428571428571428
 40
0.2857142857142857
 40
0.2857142857142857
 40
0.2857142857142857
 40
0.2857142857142857
 40
0.4285714285714285
 40
0.4285714285714285
 40
0.4285714285714285
 40
0.4285714285714285
 40
0.5714285714285714
 40
0.5714285714285714
 40
0.5714285714285714
 40
0.5714285714285714
 40
0.7142857142857143
 40
0.7142857142857143
 40
0.7142857142857143
 40
0.7142857142857143
 40
1.0
 40
1.0
 40
1.0
 40
1.0
 10
-26.43909
 20
36.08222
 30
0.0
 10
-26.43909
 20
36.08222
 30
0.0
 10
-19.0045
 20
34.72805
 30
0.0
 10
-19.0045
 20
34.72805
 30
0.0
 10
-19.0045
 20
34.72805
 30
0.0
 10
-19.0045
 20
34.72805
 30
0.0
 10
-19.0045
 20
34.40364
 30
0.0
 10
-19.0045
 20
34.40364
 30
0.0
 10
-19.0045
 20
34.40364
 30
0.0
 10
-19.0045
 20
34.40364
 30
0.0
 10
-26.09503
 20
34.79893
 30
0.0
 10
-26.09503
 20
34.79893
 30
0.0
 10
-26.09503
 20
34.79893
 30
0.0
 10
-26.09503
 20
34.79893
 30
0.0
 10
-26.09353
 20
35.31401
 30
0.0
 10
-26.09353
 20
35.31401
 30
0.0
 10
-26.09353
 20
35.31401
 30
0.0
 10
-26.09353
 20
35.31401
 30
0.0
 10
-26.43909
 20
35.31352
 30
0.0
 10
-26.43909
 20
35.31352
 30
0.0
 10
-26.43909
 20
35.31352
 30
0.0
 10
-26.43909
 20
35.31352
 30
0.0
 10
-26.43909
 20
36.08222
 30
0.0
 10
-26.43909
 20
36.08222
 30
0.0
  0
SPLINE
  5
43
330
1F
100
AcDbEntity
  8
Camada 1
 62
   250
370
     9
100
AcDbSpline
210
0.0
220
0.0
230
1.0
 70
    11
 71
     3
 72
    28
 73
    24
 74
     0
 42
0.0000000001
 43
0.0000000001
 40
0.0
 40
0.0
 40
0.0
 40
0.0
 40
0.1428571428571428
 40
0.1428571428571428
 40
0.1428571428571428
 40
0.1428571428571428
 40
0.2857142857142857
 40
0.2857142857142857
 40
0.2857142857142857
 40
0.2857142857142857
 40
0.4285714285714285
 40
0.4285714285714285
 40
0.4285714285714285
 40
0.4285714285714285
 40
0.5714285714285714
 40
0.5714285714285714
 40
0.5714285714285714
 40
0.5714285714285714
 40
0.7142857142857143
 40
0.7142857142857143
 40
0.7142857142857143
 40
0.7142857142857143
 40
1.0
 40
1.0
 40
1.0
 40
1.0
 10
-26.50293
 20
32.26698
 30
0.0
 10
-26.50293
 20
32.26698
 30
0.0
 10
-19.06836
 20
33.62115
 30
0.0
 10
-19.06836
 20
33.62115
 30
0.0
 10
-19.06836
 20
33.62115
 30
0.0
 10
-19.06836
 20
33.62115
 30
0.0
 10
-19.06836
 20
33.94555
 30
0.0
 10
-19.06836
 20
33.94555
 30
0.0
 10
-19.06836
 20
33.94555
 30
0.0
 10
-19.06836
 20
33.94555
 30
0.0
 10
-26.15888
 20
33.55026
 30
0.0
 10
-26.15888
 20
33.55026
 30
0.0
 10
-26.15888
 20
33.55026
 30
0.0
 10
-26.15888
 20
33.55026
 30
0.0
 10
-26.15739
 20
33.03518
 30
0.0
 10
-26.15739
 20
33.03518
 30
0.0
 10
-26.15739
 20
33.03518
 30
0.0
 10
-26.15739
 20
33.03518
 30
0.0
 10
-26.50293
 20
33.03568
 30
0.0
 10
-26.50293
 20
33.03568
 30
0.0
 10
-26.50293
 20
33.03568
 30
0.0
 10
-26.50293
 20
33.03568
 30
0.0
 10
-26.50293
 20
32.26698
 30
0.0
 10
-26.50293
 20
32.26698
 30
0.0
  0
SPLINE
  5
44
330
1F
100
AcDbEntity
  8
Camada 1
 62
   250
370
     9
100
AcDbSpline
210
0.0
220
0.0
230
1.0
 70
    11
 71
     3
 72
   100
 73
    96
 74
     0
 42
0.0000000001
 43
0.0000000001
 40
0.0
 40
0.0
 40
0.0
 40
0.0
 40
0.04
 40
0.04
 40
0.04
 40
0.04
 40
0.08
 40
0.08
 40
0.08
 40
0.08
 40
0.12
 40
0.12
 40
0.12
 40
0.12
 40
0.16
 40
0.16
 40
0.16
 40
0.16
 40
0.2
 40
0.2
 40
0.2
 40
0.2
 40
0.24
 40
0.24
 40
0.24
 40
0.24
 40
0.28
 40
0.28
 40
0.28
 40
0.28
 40
0.32
 40
0.32
 40
0.32
 40
0.32
 40
0.36
 40
0.36
 40
0.36
 40
0.36
 40
0.4
 40
0.4
 40
0.4
 40
0.4
 40
0.44
 40
0.44
 40
0.44
 40
0.44
 40
0.48
 40
0.48
 40
0.48
 40
0.48
 40
0.52
 40
0.52
 40
0.52
 40
0.52
 40
0.56
 40
0.56
 40
0.56
 40
0.56
 40
0.6
 40
0.6
 40
0.6
 40
0.6
 40
0.64
 40
0.64
 40
0.64
 40
0.64
 40
0.68
 40
0.68
 40
0.68
 40
0.68
 40
0.72
 40
0.72
 40
0.72
 40
0.72
 40
0.76
 40
0.76
 40
0.76
 40
0.76
 40
0.8
 40
0.8
 40
0.8
 40
0.8
 40
0.84
 40
0.84
 40
0.84
 40
0.84
 40
0.88
 40
0.88
 40
0.88
 40
0.88
 40
0.92
 40
0.92
 40
0.92
 40
0.92
 40
1.0
 40
1.0
 40
1.0
 40
1.0
 10
-23.4106
 20
30.06812
 30
0.0
 10
-23.4106
 20
30.06812
 30
0.0
 10
-23.69206
 20
30.06853
 30
0.0
 10
-23.69206
 20
30.06853
 30
0.0
 10
-23.69206
 20
30.06853
 30
0.0
 10
-23.69206
 20
30.06853
 30
0.0
 10
-23.68178
 20
28.86853
 30
0.0
 10
-23.68178
 20
28.86853
 30
0.0
 10
-23.68178
 20
28.86853
 30
0.0
 10
-23.68178
 20
28.86853
 30
0.0
 10
-23.40611
 20
28.87002
 30
0.0
 10
-23.40611
 20
28.87002
 30
0.0
 10
-23.40611
 20
28.87002
 30
0.0
 10
-23.45759
 20
28.64332
 30
0.0
 10
-23.57865
 20
28.53267
 30
0.0
 10
-23.77785
 20
28.4088
 30
0.0
 10
-23.77785
 20
28.4088
 30
0.0
 10
-23.77785
 20
28.4088
 30
0.0
 10
-23.96396
 20
28.68661
 30
0.0
 10
-23.96396
 20
28.68661
 30
0.0
 10
-23.96396
 20
28.68661
 30
0.0
 10
-23.96396
 20
28.68661
 30
0.0
 10
-24.52557
 20
28.4088
 30
0.0
 10
-24.52557
 20
28.4088
 30
0.0
 10
-24.52557
 20
28.4088
 30
0.0
 10
-24.52557
 20
28.4088
 30
0.0
 10
-24.5264
 20
30.4808
 30
0.0
 10
-24.5264
 20
30.4808
 30
0.0
 10
-24.5264
 20
30.4808
 30
0.0
 10
-24.5264
 20
30.4808
 30
0.0
 10
-24.82474
 20
30.4808
 30
0.0
 10
-24.82474
 20
30.4808
 30
0.0
 10
-24.82474
 20
30.4808
 30
0.0
 10
-24.82474
 20
30.4808
 30
0.0
 10
-24.82557
 20
28.4088
 30
0.0
 10
-24.82557
 20
28.4088
 30
0.0
 10
-24.82557
 20
28.4088
 30
0.0
 10
-24.82557
 20
28.4088
 30
0.0
 10
-25.38718
 20
28.68661
 30
0.0
 10
-25.38718
 20
28.68661
 30
0.0
 10
-25.38718
 20
28.68661
 30
0.0
 10
-25.38718
 20
28.68661
 30
0.0
 10
-25.57329
 20
28.4088
 30
0.0
 10
-25.57329
 20
28.4088
 30
0.0
 10
-25.57329
 20
28.4088
 30
0.0
 10
-25.77249
 20
28.53267
 30
0.0
 10
-25.89355
 20
28.64333
 30
0.0
 10
-25.94503
 20
28.87003
 30
0.0
 10
-25.94503
 20
28.87003
 30
0.0
 10
-25.94503
 20
28.87003
 30
0.0
 10
-25.66936
 20
28.86853
 30
0.0
 10
-25.66936
 20
28.86853
 30
0.0
 10
-25.66936
 20
28.86853
 30
0.0
 10
-25.66936
 20
28.86853
 30
0.0
 10
-25.65908
 20
30.06853
 30
0.0
 10
-25.65908
 20
30.06853
 30
0.0
 10
-25.65908
 20
30.06853
 30
0.0
 10
-25.65908
 20
30.06853
 30
0.0
 10
-25.94054
 20
30.06814
 30
0.0
 10
-25.94054
 20
30.06814
 30
0.0
 10
-25.94054
 20
30.06814
 30
0.0
 10
-26.00708
 20
30.42147
 30
0.0
 10
-25.88034
 20
30.66643
 30
0.0
 10
-25.64653
 20
30.92924
 30
0.0
 10
-25.64653
 20
30.92924
 30
0.0
 10
-25.64653
 20
30.92924
 30
0.0
 10
-25.39812
 20
30.74857
 30
0.0
 10
-25.39812
 20
30.74857
 30
0.0
 10
-25.39812
 20
30.74857
 30
0.0
 10
-25.39812
 20
30.74857
 30
0.0
 10
-24.90167
 20
31.39938
 30
0.0
 10
-24.90167
 20
31.39938
 30
0.0
 10
-24.90167
 20
31.39938
 30
0.0
 10
-24.90167
 20
31.39938
 30
0.0
 10
-25.10524
 20
31.55781
 30
0.0
 10
-25.10524
 20
31.55781
 30
0.0
 10
-25.10524
 20
31.55781
 30
0.0
 10
-24.82653
 20
31.7924
 30
0.0
 10
-24.54034
 20
31.79778
 30
0.0
 10
-24.2459
 20
31.55781
 30
0.0
 10
-24.2459
 20
31.55781
 30
0.0
 10
-24.2459
 20
31.55781
 30
0.0
 10
-24.44947
 20
31.39938
 30
0.0
 10
-24.44947
 20
31.39938
 30
0.0
 10
-24.44947
 20
31.39938
 30
0.0
 10
-24.44947
 20
31.39938
 30
0.0
 10
-23.95302
 20
30.74857
 30
0.0
 10
-23.95302
 20
30.74857
 30
0.0
 10
-23.95302
 20
30.74857
 30
0.0
 10
-23.95302
 20
30.74857
 30
0.0
 10
-23.70461
 20
30.92924
 30
0.0
 10
-23.70461
 20
30.92924
 30
0.0
 10
-23.70461
 20
30.92924
 30
0.0
 10
-23.4708
 20
30.66643
 30
0.0
 10
-23.34406
 20
30.42145
 30
0.0
 10
-23.4106
 20
30.06812
 30
0.0
  0
SPLINE
  5
45
330
1F
100
AcDbEntity
  8
Camada 1
370
     9
100
AcDbSpline
210
0.0
220
0.0
230
1.0
 70
    11
 71
     3
 72
    52
 73
    48
 74
     0
 42
0.0000000001
 43
0.0000000001
 40
0.0
 40
0.0
 40
0.0
 40
0.0
 40
0.0769230769230769
 40
0.0769230769230769
 40
0.0769230769230769
 40
0.0769230769230769
 40
0.1538461538461539
 40
0.1538461538461539
 40
0.1538461538461539
 40
0.1538461538461539
 40
0.2307692307692308
 40
0.2307692307692308
 40
0.2307692307692308
 40
0.2307692307692308
 40
0.3076923076923077
 40
0.3076923076923077
 40
0.3076923076923077
 40
0.3076923076923077
 40
0.3846153846153846
 40
0.3846153846153846
 40
0.3846153846153846
 40
0.3846153846153846
 40
0.4615384615384616
 40
0.4615384615384616
 40
0.4615384615384616
 40
0.4615384615384616
 40
0.5384615384615384
 40
0.5384615384615384
 40
0.5384615384615384
 40
0.5384615384615384
 40
0.6153846153846154
 40
0.6153846153846154
 40
0.6153846153846154
 40
0.6153846153846154
 40
0.6923076923076923
 40
0.6923076923076923
 40
0.6923076923076923
 40
0.6923076923076923
 40
0.7692307692307693
 40
0.7692307692307693
 40
0.7692307692307693
 40
0.7692307692307693
 40
0.8461538461538461
 40
0.8461538461538461
 40
0.8461538461538461
 40
0.8461538461538461
 40
1.0
 40
1.0
 40
1.0
 40
1.0
 10
-18.58614
 20
30.84265
 30
0.0
 10
-18.83025
 20
33.05903
 30
0.0
 10
-21.03469
 20
33.05903
 30
0.0
 10
-21.2788
 20
30.84265
 30
0.0
 10
-21.2788
 20
30.84265
 30
0.0
 10
-21.2788
 20
30.84265
 30
0.0
 10
-20.9188
 20
30.84669
 30
0.0
 10
-20.9188
 20
30.84669
 30
0.0
 10
-20.9188
 20
30.84669
 30
0.0
 10
-20.9188
 20
30.84669
 30
0.0
 10
-20.9188
 20
29.64669
 30
0.0
 10
-20.9188
 20
29.64669
 30
0.0
 10
-20.9188
 20
29.64669
 30
0.0
 10
-20.9188
 20
29.64669
 30
0.0
 10
-21.27959
 20
29.64669
 30
0.0
 10
-21.27959
 20
29.64669
 30
0.0
 10
-21.27959
 20
29.64669
 30
0.0
 10
-21.12572
 20
29.10002
 30
0.0
 10
-20.7079
 20
28.86011
 30
0.0
 10
-20.08247
 20
28.78801
 30
0.0
 10
-20.08247
 20
28.78801
 30
0.0
 10
-20.08247
 20
28.78801
 30
0.0
 10
-20.08247
 20
31.23013
 30
0.0
 10
-20.08247
 20
31.23013
 30
0.0
 10
-20.08247
 20
31.23013
 30
0.0
 10
-20.08247
 20
31.23013
 30
0.0
 10
-19.78247
 20
31.23013
 30
0.0
 10
-19.78247
 20
31.23013
 30
0.0
 10
-19.78247
 20
31.23013
 30
0.0
 10
-19.78247
 20
31.23013
 30
0.0
 10
-19.78247
 20
28.78801
 30
0.0
 10
-19.78247
 20
28.78801
 30
0.0
 10
-19.78247
 20
28.78801
 30
0.0
 10
-19.15704
 20
28.86011
 30
0.0
 10
-18.73922
 20
29.10002
 30
0.0
 10
-18.58535
 20
29.64669
 30
0.0
 10
-18.58535
 20
29.64669
 30
0.0
 10
-18.58535
 20
29.64669
 30
0.0
 10
-18.94613
 20
29.64669
 30
0.0
 10
-18.94613
 20
29.64669
 30
0.0
 10
-18.94613
 20
29.64669
 30
0.0
 10
-18.94613
 20
29.64669
 30
0.0
 10
-18.94613
 20
30.84669
 30
0.0
 10
-18.94613
 20
30.84669
 30
0.0
 10
-18.94613
 20
30.84669
 30
0.0
 10
-18.94613
 20
30.84669
 30
0.0
 10
-18.58614
 20
30.84265
 30
0.0
 10
-18.58614
 20
30.84265
 30
0.0
  0
SPLINE
  5
46
330
1F
100
AcDbEntity
  8
Camada 1
370
     9
100
AcDbSpline
210
0.0
220
0.0
230
1.0
 70
    11
 71
     3
 72
    44
 73
    40
 74
     0
 42
0.0000000001
 43
0.0000000001
 40
0.0
 40
0.0
 40
0.0
 40
0.0
 40
0.0909090909090909
 40
0.0909090909090909
 40
0.0909090909090909
 40
0.0909090909090909
 40
0.1818181818181818
 40
0.1818181818181818
 40
0.1818181818181818
 40
0.1818181818181818
 40
0.2727272727272727
 40
0.2727272727272727
 40
0.2727272727272727
 40
0.2727272727272727
 40
0.3636363636363636
 40
0.3636363636363636
 40
0.3636363636363636
 40
0.3636363636363636
 40
0.4545454545454545
 40
0.4545454545454545
 40
0.4545454545454545
 40
0.4545454545454545
 40
0.5454545454545454
 40
0.5454545454545454
 40
0.5454545454545454
 40
0.5454545454545454
 40
0.6363636363636364
 40
0.6363636363636364
 40
0.6363636363636364
 40
0.6363636363636364
 40
0.7272727272727273
 40
0.7272727272727273
 40
0.7272727272727273
 40
0.7272727272727273
 40
0.8181818181818182
 40
0.8181818181818182
 40
0.8181818181818182
 40
0.8181818181818182
 40
1.0
 40
1.0
 40
1.0
 40
1.0
 10
-16.73951
 20
32.30804
 30
0.0
 10
-16.17198
 20
32.4975
 30
0.0
 10
-15.9466
 20
33.06043
 30
0.0
 10
-15.94546
 20
33.06969
 30
0.0
 10
-15.94546
 20
33.06969
 30
0.0
 10
-15.91736
 20
33.30243
 30
0.0
 10
-15.91664
 20
33.53505
 30
0.0
 10
-15.94546
 20
33.76738
 30
0.0
 10
-15.94546
 20
33.76738
 30
0.0
 10
-15.97493
 20
34.00502
 30
0.0
 10
-16.15686
 20
34.23094
 30
0.0
 10
-16.40909
 20
34.23094
 30
0.0
 10
-16.40909
 20
34.23094
 30
0.0
 10
-16.40909
 20
34.23094
 30
0.0
 10
-17.36994
 20
34.23094
 30
0.0
 10
-17.36994
 20
34.23094
 30
0.0
 10
-17.36994
 20
34.23094
 30
0.0
 10
-17.62217
 20
34.23094
 30
0.0
 10
-17.80409
 20
34.00502
 30
0.0
 10
-17.83357
 20
33.76738
 30
0.0
 10
-17.83357
 20
33.76738
 30
0.0
 10
-17.86238
 20
33.53505
 30
0.0
 10
-17.86166
 20
33.30243
 30
0.0
 10
-17.83357
 20
33.06969
 30
0.0
 10
-17.83357
 20
33.06969
 30
0.0
 10
-17.83243
 20
33.06043
 30
0.0
 10
-17.60705
 20
32.4975
 30
0.0
 10
-17.03951
 20
32.30804
 30
0.0
 10
-17.03951
 20
32.30804
 30
0.0
 10
-17.03951
 20
32.30804
 30
0.0
 10
-17.03951
 20
33.68822
 30
0.0
 10
-17.03951
 20
33.68822
 30
0.0
 10
-17.03951
 20
33.68822
 30
0.0
 10
-17.03951
 20
33.68822
 30
0.0
 10
-16.73951
 20
33.68822
 30
0.0
 10
-16.73951
 20
33.68822
 30
0.0
 10
-16.73951
 20
33.68822
 30
0.0
 10
-16.73951
 20
33.68822
 30
0.0
 10
-16.73951
 20
32.30804
 30
0.0
 10
-16.73951
 20
32.30804
 30
0.0
  0
SPLINE
  5
47
330
1F
100
AcDbEntity
  8
Camada 1
370
     9
100
AcDbSpline
210
0.0
220
0.0
230
1.0
 70
    11
 71
     3
 72
   108
 73
   104
 74
     0
 42
0.0000000001
 43
0.0000000001
 40
0.0
 40
0.0
 40
0.0
 40
0.0
 40
0.037037037037037
 40
0.037037037037037
 40
0.037037037037037
 40
0.037037037037037
 40
0.0740740740740741
 40
0.0740740740740741
 40
0.0740740740740741
 40
0.0740740740740741
 40
0.1111111111111111
 40
0.1111111111111111
 40
0.1111111111111111
 40
0.1111111111111111
 40
0.1481481481481481
 40
0.1481481481481481
 40
0.1481481481481481
 40
0.1481481481481481
 40
0.1851851851851852
 40
0.1851851851851852
 40
0.1851851851851852
 40
0.1851851851851852
 40
0.2222222222222222
 40
0.2222222222222222
 40
0.2222222222222222
 40
0.2222222222222222
 40
0.2592592592592592
 40
0.2592592592592592
 40
0.2592592592592592
 40
0.2592592592592592
 40
0.2962962962962963
 40
0.2962962962962963
 40
0.2962962962962963
 40
0.2962962962962963
 40
0.3333333333333333
 40
0.3333333333333333
 40
0.3333333333333333
 40
0.3333333333333333
 40
0.3703703703703703
 40
0.3703703703703703
 40
0.3703703703703703
 40
0.3703703703703703
 40
0.4074074074074074
 40
0.4074074074074074
 40
0.4074074074074074
 40
0.4074074074074074
 40
0.4444444444444444
 40
0.4444444444444444
 40
0.4444444444444444
 40
0.4444444444444444
 40
0.4814814814814815
 40
0.4814814814814815
 40
0.4814814814814815
 40
0.4814814814814815
 40
0.5185185185185185
 40
0.5185185185185185
 40
0.5185185185185185
 40
0.5185185185185185
 40
0.5555555555555556
 40
0.5555555555555556
 40
0.5555555555555556
 40
0.5555555555555556
 40
0.5925925925925926
 40
0.5925925925925926
 40
0.5925925925925926
 40
0.5925925925925926
 40
0.6296296296296297
 40
0.6296296296296297
 40
0.6296296296296297
 40
0.6296296296296297
 40
0.6666666666666666
 40
0.6666666666666666
 40
0.6666666666666666
 40
0.6666666666666666
 40
0.7037037037037037
 40
0.7037037037037037
 40
0.7037037037037037
 40
0.7037037037037037
 40
0.7407407407407407
 40
0.7407407407407407
 40
0.7407407407407407
 40
0.7407407407407407
 40
0.7777777777777778
 40
0.7777777777777778
 40
0.7777777777777778
 40
0.7777777777777778
 40
0.8148148148148148
 40
0.8148148148148148
 40
0.8148148148148148
 40
0.8148148148148148
 40
0.8518518518518519
 40
0.8518518518518519
 40
0.8518518518518519
 40
0.8518518518518519
 40
0.8888888888888888
 40
0.8888888888888888
 40
0.8888888888888888
 40
0.8888888888888888
 40
0.9259259259259259
 40
0.9259259259259259
 40
0.9259259259259259
 40
0.9259259259259259
 40
1.0
 40
1.0
 40
1.0
 40
1.0
 10
-15.04846
 20
29.13141
 30
0.0
 10
-15.04846
 20
29.13141
 30
0.0
 10
-14.25745
 20
30.95835
 30
0.0
 10
-14.25745
 20
30.95835
 30
0.0
 10
-14.25745
 20
30.95835
 30
0.0
 10
-14.25745
 20
30.95835
 30
0.0
 10
-12.01554
 20
30.95835
 30
0.0
 10
-12.01554
 20
30.95835
 30
0.0
 10
-12.01554
 20
30.95835
 30
0.0
 10
-12.01554
 20
30.95835
 30
0.0
 10
-11.22454
 20
29.13141
 30
0.0
 10
-11.22454
 20
29.13141
 30
0.0
 10
-11.22454
 20
29.13141
 30
0.0
 10
-11.22454
 20
29.13141
 30
0.0
 10
-10.66006
 20
29.13141
 30
0.0
 10
-10.66006
 20
29.13141
 30
0.0
 10
-10.66006
 20
29.13141
 30
0.0
 10
-10.66006
 20
29.13141
 30
0.0
 10
-10.66006
 20
29.63933
 30
0.0
 10
-10.66006
 20
29.63933
 30
0.0
 10
-10.66006
 20
29.63933
 30
0.0
 10
-10.66006
 20
29.63933
 30
0.0
 10
-10.99921
 20
29.63933
 30
0.0
 10
-10.99921
 20
29.63933
 30
0.0
 10
-10.99921
 20
29.63933
 30
0.0
 10
-10.99921
 20
29.63933
 30
0.0
 10
-11.4678
 20
30.84351
 30
0.0
 10
-11.4678
 20
30.84351
 30
0.0
 10
-11.4678
 20
30.84351
 30
0.0
 10
-11.4678
 20
30.84351
 30
0.0
 10
-11.4678
 20
32.22554
 30
0.0
 10
-11.4678
 20
32.22554
 30
0.0
 10
-11.4678
 20
32.22554
 30
0.0
 10
-11.48065
 20
32.42474
 30
0.0
 10
-11.5908
 20
32.63536
 30
0.0
 10
-11.85152
 20
32.62364
 30
0.0
 10
-11.85152
 20
32.62364
 30
0.0
 10
-11.85152
 20
32.62364
 30
0.0
 10
-11.85152
 20
31.70189
 30
0.0
 10
-11.85152
 20
31.70189
 30
0.0
 10
-11.85152
 20
31.70189
 30
0.0
 10
-11.85152
 20
31.70189
 30
0.0
 10
-12.15152
 20
31.70189
 30
0.0
 10
-12.15152
 20
31.70189
 30
0.0
 10
-12.15152
 20
31.70189
 30
0.0
 10
-12.15152
 20
31.70189
 30
0.0
 10
-12.15152
 20
32.52877
 30
0.0
 10
-12.15152
 20
32.52877
 30
0.0
 10
-12.15152
 20
32.52877
 30
0.0
 10
-12.15152
 20
32.52877
 30
0.0
 10
-12.9865
 20
32.52877
 30
0.0
 10
-12.9865
 20
32.52877
 30
0.0
 10
-12.9865
 20
32.52877
 30
0.0
 10
-12.9865
 20
32.52877
 30
0.0
 10
-12.9865
 20
31.70189
 30
0.0
 10
-12.9865
 20
31.70189
 30
0.0
 10
-12.9865
 20
31.70189
 30
0.0
 10
-12.9865
 20
31.70189
 30
0.0
 10
-13.2865
 20
31.70189
 30
0.0
 10
-13.2865
 20
31.70189
 30
0.0
 10
-13.2865
 20
31.70189
 30
0.0
 10
-13.2865
 20
31.70189
 30
0.0
 10
-13.2865
 20
32.52877
 30
0.0
 10
-13.2865
 20
32.52877
 30
0.0
 10
-13.2865
 20
32.52877
 30
0.0
 10
-13.2865
 20
32.52877
 30
0.0
 10
-14.12147
 20
32.52877
 30
0.0
 10
-14.12147
 20
32.52877
 30
0.0
 10
-14.12147
 20
32.52877
 30
0.0
 10
-14.12147
 20
32.52877
 30
0.0
 10
-14.12147
 20
31.70189
 30
0.0
 10
-14.12147
 20
31.70189
 30
0.0
 10
-14.12147
 20
31.70189
 30
0.0
 10
-14.12147
 20
31.70189
 30
0.0
 10
-14.42147
 20
31.70189
 30
0.0
 10
-14.42147
 20
31.70189
 30
0.0
 10
-14.42147
 20
31.70189
 30
0.0
 10
-14.42147
 20
31.70189
 30
0.0
 10
-14.42147
 20
32.62364
 30
0.0
 10
-14.42147
 20
32.62364
 30
0.0
 10
-14.42147
 20
32.62364
 30
0.0
 10
-14.68218
 20
32.63536
 30
0.0
 10
-14.79234
 20
32.42474
 30
0.0
 10
-14.8052
 20
32.22554
 30
0.0
 10
-14.8052
 20
32.22554
 30
0.0
 10
-14.8052
 20
32.22554
 30
0.0
 10
-14.8052
 20
30.84351
 30
0.0
 10
-14.8052
 20
30.84351
 30
0.0
 10
-14.8052
 20
30.84351
 30
0.0
 10
-14.8052
 20
30.84351
 30
0.0
 10
-15.27378
 20
29.63933
 30
0.0
 10
-15.27378
 20
29.63933
 30
0.0
 10
-15.27378
 20
29.63933
 30
0.0
 10
-15.27378
 20
29.63933
 30
0.0
 10
-15.61294
 20
29.63933
 30
0.0
 10
-15.61294
 20
29.63933
 30
0.0
 10
-15.61294
 20
29.63933
 30
0.0
 10
-15.61294
 20
29.63933
 30
0.0
 10
-15.61294
 20
29.13141
 30
0.0
 10
-15.61294
 20
29.13141
 30
0.0
 10
-15.61294
 20
29.13141
 30
0.0
 10
-15.61294
 20
29.13141
 30
0.0
 10
-15.04846
 20
29.13141
 30
0.0
 10
-15.04846
 20
29.13141
 30
0.0
  0
SPLINE
  5
48
330
1F
100
AcDbEntity
  8
Camada 1
370
     9
100
AcDbSpline
210
0.0
220
0.0
230
1.0
 70
    11
 71
     3
 72
    52
 73
    48
 74
     0
 42
0.0000000001
 43
0.0000000001
 40
0.0
 40
0.0
 40
0.0
 40
0.0
 40
0.0769230769230769
 40
0.0769230769230769
 40
0.0769230769230769
 40
0.0769230769230769
 40
0.1538461538461539
 40
0.1538461538461539
 40
0.1538461538461539
 40
0.1538461538461539
 40
0.2307692307692308
 40
0.2307692307692308
 40
0.2307692307692308
 40
0.2307692307692308
 40
0.3076923076923077
 40
0.3076923076923077
 40
0.3076923076923077
 40
0.3076923076923077
 40
0.3846153846153846
 40
0.3846153846153846
 40
0.3846153846153846
 40
0.3846153846153846
 40
0.4615384615384616
 40
0.4615384615384616
 40
0.4615384615384616
 40
0.4615384615384616
 40
0.5384615384615384
 40
0.5384615384615384
 40
0.5384615384615384
 40
0.5384615384615384
 40
0.6153846153846154
 40
0.6153846153846154
 40
0.6153846153846154
 40
0.6153846153846154
 40
0.6923076923076923
 40
0.6923076923076923
 40
0.6923076923076923
 40
0.6923076923076923
 40
0.7692307692307693
 40
0.7692307692307693
 40
0.7692307692307693
 40
0.7692307692307693
 40
0.8461538461538461
 40
0.8461538461538461
 40
0.8461538461538461
 40
0.8461538461538461
 40
1.0
 40
1.0
 40
1.0
 40
1.0
 10
-7.16292
 20
38.38583
 30
0.0
 10
-7.16292
 20
38.38583
 30
0.0
 10
-7.16292
 20
39.30531
 30
0.0
 10
-7.16292
 20
39.30531
 30
0.0
 10
-7.16292
 20
39.30531
 30
0.0
 10
-7.16292
 20
39.30531
 30
0.0
 10
-7.46292
 20
39.30531
 30
0.0
 10
-7.46292
 20
39.30531
 30
0.0
 10
-7.46292
 20
39.30531
 30
0.0
 10
-7.46292
 20
39.30531
 30
0.0
 10
-7.46292
 20
38.38583
 30
0.0
 10
-7.46292
 20
38.38583
 30
0.0
 10
-7.46292
 20
38.38583
 30
0.0
 10
-7.46292
 20
38.38583
 30
0.0
 10
-7.97843
 20
38.82578
 30
0.0
 10
-7.97843
 20
38.82578
 30
0.0
 10
-7.97843
 20
38.82578
 30
0.0
 10
-7.97843
 20
38.82578
 30
0.0
 10
-7.97843
 20
39.85604
 30
0.0
 10
-7.97843
 20
39.85604
 30
0.0
 10
-7.97843
 20
39.85604
 30
0.0
 10
-7.97843
 20
39.85604
 30
0.0
 10
-7.50757
 20
40.44133
 30
0.0
 10
-7.50757
 20
40.44133
 30
0.0
 10
-7.50757
 20
40.44133
 30
0.0
 10
-7.50757
 20
40.44133
 30
0.0
 10
-7.65584
 20
40.58959
 30
0.0
 10
-7.65584
 20
40.58959
 30
0.0
 10
-7.65584
 20
40.58959
 30
0.0
 10
-7.42985
 20
40.84702
 30
0.0
 10
-7.20118
 20
40.84098
 30
0.0
 10
-6.96999
 20
40.58959
 30
0.0
 10
-6.96999
 20
40.58959
 30
0.0
 10
-6.96999
 20
40.58959
 30
0.0
 10
-7.11826
 20
40.44133
 30
0.0
 10
-7.11826
 20
40.44133
 30
0.0
 10
-7.11826
 20
40.44133
 30
0.0
 10
-7.11826
 20
40.44133
 30
0.0
 10
-6.6474
 20
39.85604
 30
0.0
 10
-6.6474
 20
39.85604
 30
0.0
 10
-6.6474
 20
39.85604
 30
0.0
 10
-6.6474
 20
39.85604
 30
0.0
 10
-6.6474
 20
38.82578
 30
0.0
 10
-6.6474
 20
38.82578
 30
0.0
 10
-6.6474
 20
38.82578
 30
0.0
 10
-6.6474
 20
38.82578
 30
0.0
 10
-7.16292
 20
38.38583
 30
0.0
 10
-7.16292
 20
38.38583
 30
0.0
  0
SPLINE
  5
49
330
1F
100
AcDbEntity
  8
Camada 1
 62
   250
370
     9
100
AcDbSpline
210
0.0
220
0.0
230
1.0
 70
    11
 71
     3
 72
   148
 73
   144
 74
     0
 42
0.0000000001
 43
0.0000000001
 40
0.0
 40
0.0
 40
0.0
 40
0.0
 40
0.027027027027027
 40
0.027027027027027
 40
0.027027027027027
 40
0.027027027027027
 40
0.0540540540540541
 40
0.0540540540540541
 40
0.0540540540540541
 40
0.0540540540540541
 40
0.0810810810810811
 40
0.0810810810810811
 40
0.0810810810810811
 40
0.0810810810810811
 40
0.1081081081081081
 40
0.1081081081081081
 40
0.1081081081081081
 40
0.1081081081081081
 40
0.1351351351351351
 40
0.1351351351351351
 40
0.1351351351351351
 40
0.1351351351351351
 40
0.1621621621621622
 40
0.1621621621621622
 40
0.1621621621621622
 40
0.1621621621621622
 40
0.1891891891891892
 40
0.1891891891891892
 40
0.1891891891891892
 40
0.1891891891891892
 40
0.2162162162162162
 40
0.2162162162162162
 40
0.2162162162162162
 40
0.2162162162162162
 40
0.2432432432432433
 40
0.2432432432432433
 40
0.2432432432432433
 40
0.2432432432432433
 40
0.2702702702702703
 40
0.2702702702702703
 40
0.2702702702702703
 40
0.2702702702702703
 40
0.2972972972972973
 40
0.2972972972972973
 40
0.2972972972972973
 40
0.2972972972972973
 40
0.3243243243243243
 40
0.3243243243243243
 40
0.3243243243243243
 40
0.3243243243243243
 40
0.3513513513513514
 40
0.3513513513513514
 40
0.3513513513513514
 40
0.3513513513513514
 40
0.3783783783783784
 40
0.3783783783783784
 40
0.3783783783783784
 40
0.3783783783783784
 40
0.4054054054054054
 40
0.4054054054054054
 40
0.4054054054054054
 40
0.4054054054054054
 40
0.4324324324324325
 40
0.4324324324324325
 40
0.4324324324324325
 40
0.4324324324324325
 40
0.4594594594594595
 40
0.4594594594594595
 40
0.4594594594594595
 40
0.4594594594594595
 40
0.4864864864864865
 40
0.4864864864864865
 40
0.4864864864864865
 40
0.4864864864864865
 40
0.5135135135135135
 40
0.5135135135135135
 40
0.5135135135135135
 40
0.5135135135135135
 40
0.5405405405405406
 40
0.5405405405405406
 40
0.5405405405405406
 40
0.5405405405405406
 40
0.5675675675675675
 40
0.5675675675675675
 40
0.5675675675675675
 40
0.5675675675675675
 40
0.5945945945945946
 40
0.5945945945945946
 40
0.5945945945945946
 40
0.5945945945945946
 40
0.6216216216216216
 40
0.6216216216216216
 40
0.6216216216216216
 40
0.6216216216216216
 40
0.6486486486486487
 40
0.6486486486486487
 40
0.6486486486486487
 40
0.6486486486486487
 40
0.6756756756756757
 40
0.6756756756756757
 40
0.6756756756756757
 40
0.6756756756756757
 40
0.7027027027027027
 40
0.7027027027027027
 40
0.7027027027027027
 40
0.7027027027027027
 40
0.7297297297297297
 40
0.7297297297297297
 40
0.7297297297297297
 40
0.7297297297297297
 40
0.7567567567567568
 40
0.7567567567567568
 40
0.7567567567567568
 40
0.7567567567567568
 40
0.7837837837837838
 40
0.7837837837837838
 40
0.7837837837837838
 40
0.7837837837837838
 40
0.8108108108108109
 40
0.8108108108108109
 40
0.8108108108108109
 40
0.8108108108108109
 40
0.8378378378378378
 40
0.8378378378378378
 40
0.8378378378378378
 40
0.8378378378378378
 40
0.8648648648648649
 40
0.8648648648648649
 40
0.8648648648648649
 40
0.8648648648648649
 40
0.8918918918918919
 40
0.8918918918918919
 40
0.8918918918918919
 40
0.8918918918918919
 40
0.918918918918919
 40
0.918918918918919
 40
0.918918918918919
 40
0.918918918918919
 40
0.9459459459459459
 40
0.9459459459459459
 40
0.9459459459459459
 40
0.9459459459459459
 40
1.0
 40
1.0
 40
1.0
 40
1.0
 10
4.97597
 20
29.27237
 30
0.0
 10
3.40532
 20
29.35434
 30
0.0
 10
1.2387
 20
29.76363
 30
0.0
 10
1.23928
 20
30.44588
 30
0.0
 10
1.23928
 20
30.44588
 30
0.0
 10
1.23928
 20
30.44588
 30
0.0
 10
1.23963
 20
30.85576
 30
0.0
 10
1.23963
 20
30.85576
 30
0.0
 10
1.23963
 20
30.85576
 30
0.0
 10
1.23963
 20
30.85576
 30
0.0
 10
2.63494
 20
30.85581
 30
0.0
 10
2.63494
 20
30.85581
 30
0.0
 10
2.63494
 20
30.85581
 30
0.0
 10
2.63494
 20
30.85581
 30
0.0
 10
2.63494
 20
31.15576
 30
0.0
 10
2.63494
 20
31.15576
 30
0.0
 10
2.63494
 20
31.15576
 30
0.0
 10
2.63494
 20
31.15576
 30
0.0
 10
-0.86794
 20
31.15013
 30
0.0
 10
-0.86794
 20
31.15013
 30
0.0
 10
-0.86794
 20
31.15013
 30
0.0
 10
-0.86794
 20
31.15013
 30
0.0
 10
-0.8729
 20
31.53635
 30
0.0
 10
-0.8729
 20
31.53635
 30
0.0
 10
-0.8729
 20
31.53635
 30
0.0
 10
-0.8729
 20
31.53635
 30
0.0
 10
-10.20259
 20
32.03932
 30
0.0
 10
-10.20259
 20
32.03932
 30
0.0
 10
-10.20259
 20
32.03932
 30
0.0
 10
-10.20259
 20
32.03932
 30
0.0
 10
-10.20259
 20
33.44239
 30
0.0
 10
-10.20259
 20
33.44239
 30
0.0
 10
-10.20259
 20
33.44239
 30
0.0
 10
-10.20259
 20
33.44239
 30
0.0
 10
-1.40562
 20
33.27332
 30
0.0
 10
-1.40562
 20
33.27332
 30
0.0
 10
-1.40562
 20
33.27332
 30
0.0
 10
-1.40562
 20
33.27332
 30
0.0
 10
-1.41367
 20
32.58515
 30
0.0
 10
-1.41367
 20
32.58515
 30
0.0
 10
-1.41367
 20
32.58515
 30
0.0
 10
-1.41367
 20
32.58515
 30
0.0
 10
-0.81367
 20
32.58452
 30
0.0
 10
-0.81367
 20
32.58452
 30
0.0
 10
-0.81367
 20
32.58452
 30
0.0
 10
-0.81367
 20
32.58452
 30
0.0
 10
-0.81225
 20
33.43922
 30
0.0
 10
-0.81225
 20
33.43922
 30
0.0
 10
-0.81225
 20
33.43922
 30
0.0
 10
-0.81225
 20
33.43922
 30
0.0
 10
-0.04343
 20
33.44233
 30
0.0
 10
-0.04343
 20
33.44233
 30
0.0
 10
-0.04343
 20
33.44233
 30
0.0
 10
-0.04343
 20
33.44233
 30
0.0
 10
-0.05045
 20
32.58018
 30
0.0
 10
-0.05045
 20
32.58018
 30
0.0
 10
-0.05045
 20
32.58018
 30
0.0
 10
-0.05045
 20
32.58018
 30
0.0
 10
0.24941
 20
32.58036
 30
0.0
 10
0.24941
 20
32.58036
 30
0.0
 10
0.24941
 20
32.58036
 30
0.0
 10
0.24941
 20
32.58036
 30
0.0
 10
0.24955
 20
33.42912
 30
0.0
 10
0.24955
 20
33.42912
 30
0.0
 10
0.24955
 20
33.42912
 30
0.0
 10
0.24955
 20
33.42912
 30
0.0
 10
1.47308
 20
33.43032
 30
0.0
 10
1.47308
 20
33.43032
 30
0.0
 10
1.47308
 20
33.43032
 30
0.0
 10
1.47308
 20
33.43032
 30
0.0
 10
1.4732
 20
32.5821
 30
0.0
 10
1.4732
 20
32.5821
 30
0.0
 10
1.4732
 20
32.5821
 30
0.0
 10
1.4732
 20
32.5821
 30
0.0
 10
1.77018
 20
32.58329
 30
0.0
 10
1.77018
 20
32.58329
 30
0.0
 10
1.77018
 20
32.58329
 30
0.0
 10
1.77018
 20
32.58329
 30
0.0
 10
1.77308
 20
33.41394
 30
0.0
 10
1.77308
 20
33.41394
 30
0.0
 10
1.77308
 20
33.41394
 30
0.0
 10
1.77308
 20
33.41394
 30
0.0
 10
2.80921
 20
33.85526
 30
0.0
 10
2.80921
 20
33.85526
 30
0.0
 10
2.80921
 20
33.85526
 30
0.0
 10
2.80921
 20
33.85526
 30
0.0
 10
2.80371
 20
32.61223
 30
0.0
 10
2.80371
 20
32.61223
 30
0.0
 10
2.80371
 20
32.61223
 30
0.0
 10
2.80371
 20
32.61223
 30
0.0
 10
6.87489
 20
32.61881
 30
0.0
 10
6.87489
 20
32.61881
 30
0.0
 10
6.87489
 20
32.61881
 30
0.0
 10
6.87489
 20
32.61881
 30
0.0
 10
6.87489
 20
31.15753
 30
0.0
 10
6.87489
 20
31.15753
 30
0.0
 10
6.87489
 20
31.15753
 30
0.0
 10
6.87489
 20
31.15753
 30
0.0
 10
5.36432
 20
31.15753
 30
0.0
 10
5.36432
 20
31.15753
 30
0.0
 10
5.36432
 20
31.15753
 30
0.0
 10
5.36432
 20
31.15753
 30
0.0
 10
5.36432
 20
30.85753
 30
0.0
 10
5.36432
 20
30.85753
 30
0.0
 10
5.36432
 20
30.85753
 30
0.0
 10
5.36432
 20
30.85753
 30
0.0
 10
6.87489
 20
30.85753
 30
0.0
 10
6.87489
 20
30.85753
 30
0.0
 10
6.87489
 20
30.85753
 30
0.0
 10
6.87489
 20
30.85753
 30
0.0
 10
6.87489
 20
30.26373
 30
0.0
 10
6.87489
 20
30.26373
 30
0.0
 10
6.87489
 20
30.26373
 30
0.0
 10
6.87489
 20
30.26373
 30
0.0
 10
6.21447
 20
29.78242
 30
0.0
 10
6.21447
 20
29.78242
 30
0.0
 10
6.21447
 20
29.78242
 30
0.0
 10
6.21447
 20
29.78242
 30
0.0
 10
6.05372
 20
30.00373
 30
0.0
 10
6.05372
 20
30.00373
 30
0.0
 10
6.05372
 20
30.00373
 30
0.0
 10
6.05372
 20
30.00373
 30
0.0
 10
5.56828
 20
29.65111
 30
0.0
 10
5.56828
 20
29.65111
 30
0.0
 10
5.56828
 20
29.65111
 30
0.0
 10
5.56828
 20
29.65111
 30
0.0
 10
5.72689
 20
29.43275
 30
0.0
 10
5.72689
 20
29.43275
 30
0.0
 10
5.72689
 20
29.43275
 30
0.0
 10
5.6355
 20
29.35747
 30
0.0
 10
5.47601
 20
29.27203
 30
0.0
 10
5.2922
 20
29.27214
 30
0.0
 10
5.2922
 20
29.27214
 30
0.0
 10
5.2922
 20
29.27214
 30
0.0
 10
5.0531
 20
29.99115
 30
0.0
 10
5.0531
 20
29.99115
 30
0.0
 10
5.0531
 20
29.99115
 30
0.0
 10
5.0531
 20
29.99115
 30
0.0
 10
4.76844
 20
29.89649
 30
0.0
 10
4.76844
 20
29.89649
 30
0.0
 10
4.76844
 20
29.89649
 30
0.0
 10
4.76844
 20
29.89649
 30
0.0
 10
4.97597
 20
29.27237
 30
0.0
 10
4.97597
 20
29.27237
 30
0.0
  0
SPLINE
  5
4A
330
1F
100
AcDbEntity
  8
Camada 1
 62
   250
370
     9
100
AcDbSpline
210
0.0
220
0.0
230
1.0
 70
    11
 71
     3
 72
    20
 73
    16
 74
     0
 42
0.0000000001
 43
0.0000000001
 40
0.0
 40
0.0
 40
0.0
 40
0.0
 40
0.2
 40
0.2
 40
0.2
 40
0.2
 40
0.4
 40
0.4
 40
0.4
 40
0.4
 40
0.6
 40
0.6
 40
0.6
 40
0.6
 40
1.0
 40
1.0
 40
1.0
 40
1.0
 10
4.42428
 20
30.30898
 30
0.0
 10
4.42428
 20
30.30898
 30
0.0
 10
2.96901
 20
30.30898
 30
0.0
 10
2.96901
 20
30.30898
 30
0.0
 10
2.96901
 20
30.30898
 30
0.0
 10
2.96901
 20
30.30898
 30
0.0
 10
2.96901
 20
30.00845
 30
0.0
 10
2.96901
 20
30.00845
 30
0.0
 10
2.96901
 20
30.00845
 30
0.0
 10
2.96901
 20
30.00845
 30
0.0
 10
4.42428
 20
30.00845
 30
0.0
 10
4.42428
 20
30.00845
 30
0.0
 10
4.42428
 20
30.00845
 30
0.0
 10
4.42428
 20
30.00845
 30
0.0
 10
4.42428
 20
30.30898
 30
0.0
 10
4.42428
 20
30.30898
 30
0.0
  0
SPLINE
  5
4B
330
1F
100
AcDbEntity
  8
Camada 1
370
     9
100
AcDbSpline
210
0.0
220
0.0
230
1.0
 70
    11
 71
     3
 72
   216
 73
   212
 74
     0
 42
0.0000000001
 43
0.0000000001
 40
0.0
 40
0.0
 40
0.0
 40
0.0
 40
0.0185185185185185
 40
0.0185185185185185
 40
0.0185185185185185
 40
0.0185185185185185
 40
0.037037037037037
 40
0.037037037037037
 40
0.037037037037037
 40
0.037037037037037
 40
0.0555555555555556
 40
0.0555555555555556
 40
0.0555555555555556
 40
0.0555555555555556
 40
0.0740740740740741
 40
0.0740740740740741
 40
0.0740740740740741
 40
0.0740740740740741
 40
0.0925925925925926
 40
0.0925925925925926
 40
0.0925925925925926
 40
0.0925925925925926
 40
0.1111111111111111
 40
0.1111111111111111
 40
0.1111111111111111
 40
0.1111111111111111
 40
0.1296296296296296
 40
0.1296296296296296
 40
0.1296296296296296
 40
0.1296296296296296
 40
0.1481481481481481
 40
0.1481481481481481
 40
0.1481481481481481
 40
0.1481481481481481
 40
0.1666666666666667
 40
0.1666666666666667
 40
0.1666666666666667
 40
0.1666666666666667
 40
0.1851851851851852
 40
0.1851851851851852
 40
0.1851851851851852
 40
0.1851851851851852
 40
0.2037037037037037
 40
0.2037037037037037
 40
0.2037037037037037
 40
0.2037037037037037
 40
0.2222222222222222
 40
0.2222222222222222
 40
0.2222222222222222
 40
0.2222222222222222
 40
0.2407407407407407
 40
0.2407407407407407
 40
0.2407407407407407
 40
0.2407407407407407
 40
0.2592592592592592
 40
0.2592592592592592
 40
0.2592592592592592
 40
0.2592592592592592
 40
0.2777777777777778
 40
0.2777777777777778
 40
0.2777777777777778
 40
0.2777777777777778
 40
0.2962962962962963
 40
0.2962962962962963
 40
0.2962962962962963
 40
0.2962962962962963
 40
0.3148148148148148
 40
0.3148148148148148
 40
0.3148148148148148
 40
0.3148148148148148
 40
0.3333333333333333
 40
0.3333333333333333
 40
0.3333333333333333
 40
0.3333333333333333
 40
0.3518518518518519
 40
0.3518518518518519
 40
0.3518518518518519
 40
0.3518518518518519
 40
0.3703703703703703
 40
0.3703703703703703
 40
0.3703703703703703
 40
0.3703703703703703
 40
0.3888888888888889
 40
0.3888888888888889
 40
0.3888888888888889
 40
0.3888888888888889
 40
0.4074074074074074
 40
0.4074074074074074
 40
0.4074074074074074
 40
0.4074074074074074
 40
0.4259259259259259
 40
0.4259259259259259
 40
0.4259259259259259
 40
0.4259259259259259
 40
0.4444444444444444
 40
0.4444444444444444
 40
0.4444444444444444
 40
0.4444444444444444
 40
0.462962962962963
 40
0.462962962962963
 40
0.462962962962963
 40
0.462962962962963
 40
0.4814814814814815
 40
0.4814814814814815
 40
0.4814814814814815
 40
0.4814814814814815
 40
0.5
 40
0.5
 40
0.5
 40
0.5
 40
0.5185185185185185
 40
0.5185185185185185
 40
0.5185185185185185
 40
0.5185185185185185
 40
0.5370370370370371
 40
0.5370370370370371
 40
0.5370370370370371
 40
0.5370370370370371
 40
0.5555555555555556
 40
0.5555555555555556
 40
0.5555555555555556
 40
0.5555555555555556
 40
0.5740740740740741
 40
0.5740740740740741
 40
0.5740740740740741
 40
0.5740740740740741
 40
0.5925925925925926
 40
0.5925925925925926
 40
0.5925925925925926
 40
0.5925925925925926
 40
0.6111111111111112
 40
0.6111111111111112
 40
0.6111111111111112
 40
0.6111111111111112
 40
0.6296296296296297
 40
0.6296296296296297
 40
0.6296296296296297
 40
0.6296296296296297
 40
0.6481481481481481
 40
0.6481481481481481
 40
0.6481481481481481
 40
0.6481481481481481
 40
0.6666666666666666
 40
0.6666666666666666
 40
0.6666666666666666
 40
0.6666666666666666
 40
0.6851851851851852
 40
0.6851851851851852
 40
0.6851851851851852
 40
0.6851851851851852
 40
0.7037037037037037
 40
0.7037037037037037
 40
0.7037037037037037
 40
0.7037037037037037
 40
0.7222222222222222
 40
0.7222222222222222
 40
0.7222222222222222
 40
0.7222222222222222
 40
0.7407407407407407
 40
0.7407407407407407
 40
0.7407407407407407
 40
0.7407407407407407
 40
0.7592592592592593
 40
0.7592592592592593
 40
0.7592592592592593
 40
0.7592592592592593
 40
0.7777777777777778
 40
0.7777777777777778
 40
0.7777777777777778
 40
0.7777777777777778
 40
0.7962962962962963
 40
0.7962962962962963
 40
0.7962962962962963
 40
0.7962962962962963
 40
0.8148148148148148
 40
0.8148148148148148
 40
0.8148148148148148
 40
0.8148148148148148
 40
0.8333333333333334
 40
0.8333333333333334
 40
0.8333333333333334
 40
0.8333333333333334
 40
0.8518518518518519
 40
0.8518518518518519
 40
0.8518518518518519
 40
0.8518518518518519
 40
0.8703703703703703
 40
0.8703703703703703
 40
0.8703703703703703
 40
0.8703703703703703
 40
0.8888888888888888
 40
0.8888888888888888
 40
0.8888888888888888
 40
0.8888888888888888
 40
0.9074074074074074
 40
0.9074074074074074
 40
0.9074074074074074
 40
0.9074074074074074
 40
0.9259259259259259
 40
0.9259259259259259
 40
0.9259259259259259
 40
0.9259259259259259
 40
0.9444444444444444
 40
0.9444444444444444
 40
0.9444444444444444
 40
0.9444444444444444
 40
0.9629629629629629
 40
0.9629629629629629
 40
0.9629629629629629
 40
0.9629629629629629
 40
1.0
 40
1.0
 40
1.0
 40
1.0
 10
-0.71082
 20
38.69927
 30
0.0
 10
-0.71082
 20
38.69927
 30
0.0
 10
2.93027
 20
38.47102
 30
0.0
 10
2.93027
 20
38.47102
 30
0.0
 10
2.93027
 20
38.47102
 30
0.0
 10
3.26596
 20
38.45009
 30
0.0
 10
3.64135
 20
38.87086
 30
0.0
 10
3.79242
 20
39.23219
 30
0.0
 10
3.79242
 20
39.23219
 30
0.0
 10
4.20212
 20
40.21211
 30
0.0
 10
4.64243
 20
40.76661
 30
0.0
 10
4.94494
 20
41.13369
 30
0.0
 10
4.94494
 20
41.13369
 30
0.0
 10
5.82371
 20
42.19988
 30
0.0
 10
6.96547
 20
39.85293
 30
0.0
 10
6.94215
 20
37.66674
 30
0.0
 10
6.94215
 20
37.66674
 30
0.0
 10
6.93653
 20
37.14118
 30
0.0
 10
6.58901
 20
37.00236
 30
0.0
 10
6.21261
 20
36.93713
 30
0.0
 10
6.21261
 20
36.93713
 30
0.0
 10
6.21261
 20
36.93713
 30
0.0
 10
4.99271
 20
36.7255
 30
0.0
 10
4.99271
 20
36.7255
 30
0.0
 10
4.99271
 20
36.7255
 30
0.0
 10
4.99271
 20
36.7255
 30
0.0
 10
5.85276
 20
35.78862
 30
0.0
 10
5.85276
 20
35.78862
 30
0.0
 10
5.85276
 20
35.78862
 30
0.0
 10
5.9028
 20
35.80219
 30
0.0
 10
5.95559
 20
35.80966
 30
0.0
 10
6.01
 20
35.80966
 30
0.0
 10
6.01
 20
35.80966
 30
0.0
 10
6.34198
 20
35.80966
 30
0.0
 10
6.61107
 20
35.54058
 30
0.0
 10
6.61107
 20
35.20859
 30
0.0
 10
6.61107
 20
35.20859
 30
0.0
 10
6.61107
 20
34.87661
 30
0.0
 10
6.34198
 20
34.60752
 30
0.0
 10
6.01
 20
34.60752
 30
0.0
 10
6.01
 20
34.60752
 30
0.0
 10
5.67802
 20
34.60752
 30
0.0
 10
5.40893
 20
34.87661
 30
0.0
 10
5.40893
 20
35.20859
 30
0.0
 10
5.40893
 20
35.20859
 30
0.0
 10
5.40893
 20
35.20859
 30
0.0
 10
5.40893
 20
35.20859
 30
0.0
 10
5.40893
 20
35.20865
 30
0.0
 10
5.40893
 20
35.20865
 30
0.0
 10
5.40893
 20
35.20865
 30
0.0
 10
5.40893
 20
35.20865
 30
0.0
 10
5.40893
 20
35.20871
 30
0.0
 10
5.40893
 20
35.20871
 30
0.0
 10
5.40893
 20
35.30305
 30
0.0
 10
5.43081
 20
35.39231
 30
0.0
 10
5.46949
 20
35.4717
 30
0.0
 10
5.46949
 20
35.4717
 30
0.0
 10
5.46949
 20
35.4717
 30
0.0
 10
4.42273
 20
36.59911
 30
0.0
 10
4.42273
 20
36.59911
 30
0.0
 10
4.42273
 20
36.59911
 30
0.0
 10
4.42273
 20
36.59911
 30
0.0
 10
-5.29968
 20
35.27752
 30
0.0
 10
-5.29968
 20
35.27752
 30
0.0
 10
-5.29968
 20
35.27752
 30
0.0
 10
-5.29968
 20
35.27752
 30
0.0
 10
-5.60721
 20
35.58511
 30
0.0
 10
-5.60721
 20
35.58511
 30
0.0
 10
-5.60721
 20
35.58511
 30
0.0
 10
-5.60721
 20
35.58511
 30
0.0
 10
-9.01994
 20
35.58511
 30
0.0
 10
-9.01994
 20
35.58511
 30
0.0
 10
-9.01994
 20
35.58511
 30
0.0
 10
-9.01994
 20
35.58511
 30
0.0
 10
-9.01994
 20
35.28308
 30
0.0
 10
-9.01994
 20
35.28308
 30
0.0
 10
-9.01994
 20
35.28308
 30
0.0
 10
-9.01994
 20
35.28308
 30
0.0
 10
-7.65721
 20
35.28308
 30
0.0
 10
-7.65721
 20
35.28308
 30
0.0
 10
-7.65721
 20
35.28308
 30
0.0
 10
-7.65721
 20
35.28308
 30
0.0
 10
-7.65721
 20
34.96784
 30
0.0
 10
-7.65721
 20
34.96784
 30
0.0
 10
-7.65721
 20
34.96784
 30
0.0
 10
-7.78115
 20
34.50936
 30
0.0
 10
-9.12838
 20
34.20428
 30
0.0
 10
-11.31942
 20
33.97782
 30
0.0
 10
-11.31942
 20
33.97782
 30
0.0
 10
-11.31942
 20
33.97782
 30
0.0
 10
-11.14538
 20
34.55814
 30
0.0
 10
-11.14538
 20
34.55814
 30
0.0
 10
-11.14538
 20
34.55814
 30
0.0
 10
-11.14538
 20
34.55814
 30
0.0
 10
-11.43133
 20
34.69804
 30
0.0
 10
-11.43133
 20
34.69804
 30
0.0
 10
-11.43133
 20
34.69804
 30
0.0
 10
-11.43133
 20
34.69804
 30
0.0
 10
-11.66736
 20
33.97776
 30
0.0
 10
-11.66736
 20
33.97776
 30
0.0
 10
-11.66736
 20
33.97776
 30
0.0
 10
-11.82382
 20
33.96885
 30
0.0
 10
-11.95893
 20
34.00639
 30
0.0
 10
-12.07312
 20
34.08973
 30
0.0
 10
-12.07312
 20
34.08973
 30
0.0
 10
-12.07312
 20
34.08973
 30
0.0
 10
-11.90596
 20
34.30639
 30
0.0
 10
-11.90596
 20
34.30639
 30
0.0
 10
-11.90596
 20
34.30639
 30
0.0
 10
-11.90596
 20
34.30639
 30
0.0
 10
-12.47122
 20
34.71699
 30
0.0
 10
-12.47122
 20
34.71699
 30
0.0
 10
-12.47122
 20
34.71699
 30
0.0
 10
-12.47122
 20
34.71699
 30
0.0
 10
-12.63838
 20
34.50033
 30
0.0
 10
-12.63838
 20
34.50033
 30
0.0
 10
-12.63838
 20
34.50033
 30
0.0
 10
-12.63838
 20
34.50033
 30
0.0
 10
-13.15724
 20
34.87482
 30
0.0
 10
-13.15724
 20
34.87482
 30
0.0
 10
-13.15724
 20
34.87482
 30
0.0
 10
-13.15724
 20
34.87482
 30
0.0
 10
-14.86426
 20
34.87482
 30
0.0
 10
-14.86426
 20
34.87482
 30
0.0
 10
-14.86426
 20
34.87482
 30
0.0
 10
-15.10675
 20
34.88211
 30
0.0
 10
-15.26541
 20
34.96826
 30
0.0
 10
-15.26661
 20
35.09787
 30
0.0
 10
-15.26661
 20
35.09787
 30
0.0
 10
-15.26733
 20
35.17452
 30
0.0
 10
-15.2681
 20
35.25122
 30
0.0
 10
-15.26882
 20
35.32786
 30
0.0
 10
-15.26882
 20
35.32786
 30
0.0
 10
-16.00495
 20
35.38125
 30
0.0
 10
-16.71817
 20
35.47033
 30
0.0
 10
-17.25952
 20
35.9223
 30
0.0
 10
-17.25952
 20
35.9223
 30
0.0
 10
-17.49016
 20
36.1148
 30
0.0
 10
-17.68883
 20
36.24119
 30
0.0
 10
-18.07354
 20
36.30557
 30
0.0
 10
-18.07354
 20
36.30557
 30
0.0
 10
-18.07354
 20
36.30557
 30
0.0
 10
-18.07354
 20
36.84692
 30
0.0
 10
-18.07354
 20
36.84692
 30
0.0
 10
-18.07354
 20
36.84692
 30
0.0
 10
-18.07354
 20
36.84692
 30
0.0
 10
-18.36612
 20
36.84692
 30
0.0
 10
-18.36612
 20
36.84692
 30
0.0
 10
-18.36612
 20
36.84692
 30
0.0
 10
-18.36612
 20
36.84692
 30
0.0
 10
-18.36612
 20
36.39214
 30
0.0
 10
-18.36612
 20
36.39214
 30
0.0
 10
-18.36612
 20
36.39214
 30
0.0
 10
-18.50847
 20
36.39214
 30
0.0
 10
-18.6559
 20
36.38467
 30
0.0
 10
-18.79322
 20
36.42179
 30
0.0
 10
-18.79322
 20
36.42179
 30
0.0
 10
-19.23586
 20
36.54148
 30
0.0
 10
-19.53933
 20
36.78899
 30
0.0
 10
-19.72837
 20
37.12348
 30
0.0
 10
-19.72837
 20
37.12348
 30
0.0
 10
-19.72837
 20
37.12348
 30
0.0
 10
-18.8664
 20
37.12348
 30
0.0
 10
-18.8664
 20
37.12348
 30
0.0
 10
-18.8664
 20
37.12348
 30
0.0
 10
-18.8664
 20
37.12348
 30
0.0
 10
-18.8664
 20
37.43585
 30
0.0
 10
-18.8664
 20
37.43585
 30
0.0
 10
-18.8664
 20
37.43585
 30
0.0
 10
-18.8664
 20
37.43585
 30
0.0
 10
-19.6968
 20
37.43585
 30
0.0
 10
-19.6968
 20
37.43585
 30
0.0
 10
-19.6968
 20
37.43585
 30
0.0
 10
-19.54453
 20
37.87963
 30
0.0
 10
-19.16257
 20
38.16887
 30
0.0
 10
-18.39871
 20
38.20151
 30
0.0
 10
-18.39871
 20
38.20151
 30
0.0
 10
-18.39871
 20
38.20151
 30
0.0
 10
-18.39871
 20
37.73878
 30
0.0
 10
-18.39871
 20
37.73878
 30
0.0
 10
-18.39871
 20
37.73878
 30
0.0
 10
-18.39871
 20
37.73878
 30
0.0
 10
-4.9457
 20
37.73878
 30
0.0
 10
-4.9457
 20
37.73878
 30
0.0
 10
-4.9457
 20
37.73878
 30
0.0
 10
-4.9457
 20
37.73878
 30
0.0
 10
-4.83295
 20
41.09579
 30
0.0
 10
-4.83295
 20
41.09579
 30
0.0
 10
-4.83295
 20
41.09579
 30
0.0
 10
-4.83295
 20
41.09579
 30
0.0
 10
-4.50467
 20
41.09579
 30
0.0
 10
-4.50467
 20
41.09579
 30
0.0
 10
-4.50467
 20
41.09579
 30
0.0
 10
-4.50467
 20
41.09579
 30
0.0
 10
-4.43742
 20
38.80216
 30
0.0
 10
-4.43742
 20
38.80216
 30
0.0
 10
-4.43742
 20
38.80216
 30
0.0
 10
-4.43742
 20
38.80216
 30
0.0
 10
-1.01082
 20
38.71512
 30
0.0
 10
-1.01082
 20
38.71512
 30
0.0
 10
-1.01082
 20
38.71512
 30
0.0
 10
-1.01082
 20
38.71512
 30
0.0
 10
-1.01082
 20
37.27964
 30
0.0
 10
-1.01082
 20
37.27964
 30
0.0
 10
-1.01082
 20
37.27964
 30
0.0
 10
-1.01082
 20
37.27964
 30
0.0
 10
-0.71082
 20
37.27964
 30
0.0
 10
-0.71082
 20
37.27964
 30
0.0
 10
-0.71082
 20
37.27964
 30
0.0
 10
-0.71082
 20
37.27964
 30
0.0
 10
-0.71082
 20
38.69927
 30
0.0
 10
-0.71082
 20
38.69927
 30
0.0
  0
SPLINE
  5
4C
330
1F
100
AcDbEntity
  8
Camada 1
370
     9
100
AcDbSpline
210
0.0
220
0.0
230
1.0
 70
    11
 71
     3
 72
    20
 73
    16
 74
     0
 42
0.0000000001
 43
0.0000000001
 40
0.0
 40
0.0
 40
0.0
 40
0.0
 40
0.2
 40
0.2
 40
0.2
 40
0.2
 40
0.4
 40
0.4
 40
0.4
 40
0.4
 40
0.6
 40
0.6
 40
0.6
 40
0.6
 40
1.0
 40
1.0
 40
1.0
 40
1.0
 10
6.01
 20
35.44928
 30
0.0
 10
6.1429
 20
35.44928
 30
0.0
 10
6.25069
 20
35.34149
 30
0.0
 10
6.25069
 20
35.20859
 30
0.0
 10
6.25069
 20
35.20859
 30
0.0
 10
6.25069
 20
35.07569
 30
0.0
 10
6.1429
 20
34.9679
 30
0.0
 10
6.01
 20
34.9679
 30
0.0
 10
6.01
 20
34.9679
 30
0.0
 10
5.8771
 20
34.9679
 30
0.0
 10
5.76931
 20
35.07569
 30
0.0
 10
5.76931
 20
35.20859
 30
0.0
 10
5.76931
 20
35.20859
 30
0.0
 10
5.76931
 20
35.34149
 30
0.0
 10
5.8771
 20
35.44928
 30
0.0
 10
6.01
 20
35.44928
 30
0.0
  0
LWPOLYLINE
  5
4D
330
1F
100
AcDbEntity
  8
Camada 1
370
     9
100
AcDbPolyline
 90
        5
 70
     1
 43
0.0
 10
-14.69005
 20
35.28237
 10
-11.83087
 20
35.28237
 10
-11.83087
 20
35.58237
 10
-14.69005
 20
35.58237
 10
-14.69005
 20
35.28237
  0
LWPOLYLINE
  5
4E
330
1F
100
AcDbEntity
  8
Camada 1
370
     9
100
AcDbPolyline
 90
        5
 70
     1
 43
0.0
 10
-10.81066
 20
34.701
 10
-9.35544
 20
34.701
 10
-9.35544
 20
35.001
 10
-10.81066
 20
35.001
 10
-10.81066
 20
34.701
  0
LWPOLYLINE
  5
4F
330
1F
100
AcDbEntity
  8
Camada 1
370
     9
100
AcDbPolyline
 90
        5
 70
     1
 43
0.0
 10
3.08948
 20
37.6706
 10
6.37174
 20
37.6706
 10
6.37174
 20
37.9706
 10
3.08948
 20
37.9706
 10
3.08948
 20
37.6706
  0
SPLINE
  5
50
330
1F
100
AcDbEntity
  8
Camada 1
370
     9
100
AcDbSpline
210
0.0
220
0.0
230
1.0
 70
    11
 71
     3
 72
    44
 73
    40
 74
     0
 42
0.0000000001
 43
0.0000000001
 40
0.0
 40
0.0
 40
0.0
 40
0.0
 40
0.0909090909090909
 40
0.0909090909090909
 40
0.0909090909090909
 40
0.0909090909090909
 40
0.1818181818181818
 40
0.1818181818181818
 40
0.1818181818181818
 40
0.1818181818181818
 40
0.2727272727272727
 40
0.2727272727272727
 40
0.2727272727272727
 40
0.2727272727272727
 40
0.3636363636363636
 40
0.3636363636363636
 40
0.3636363636363636
 40
0.3636363636363636
 40
0.4545454545454545
 40
0.4545454545454545
 40
0.4545454545454545
 40
0.4545454545454545
 40
0.5454545454545454
 40
0.5454545454545454
 40
0.5454545454545454
 40
0.5454545454545454
 40
0.6363636363636364
 40
0.6363636363636364
 40
0.6363636363636364
 40
0.6363636363636364
 40
0.7272727272727273
 40
0.7272727272727273
 40
0.7272727272727273
 40
0.7272727272727273
 40
0.8181818181818182
 40
0.8181818181818182
 40
0.8181818181818182
 40
0.8181818181818182
 40
1.0
 40
1.0
 40
1.0
 40
1.0
 10
-3.5027
 20
39.74574
 30
0.0
 10
-3.5027
 20
39.74574
 30
0.0
 10
-3.91782
 20
39.74574
 30
0.0
 10
-3.91782
 20
39.74574
 30
0.0
 10
-3.91782
 20
39.74574
 30
0.0
 10
-3.91782
 20
39.74574
 30
0.0
 10
-3.91782
 20
40.62015
 30
0.0
 10
-3.91782
 20
40.62015
 30
0.0
 10
-3.91782
 20
40.62015
 30
0.0
 10
-3.91782
 20
40.62015
 30
0.0
 10
-1.02312
 20
40.62015
 30
0.0
 10
-1.02312
 20
40.62015
 30
0.0
 10
-1.02312
 20
40.62015
 30
0.0
 10
-1.02312
 20
40.62015
 30
0.0
 10
-1.02312
 20
40.16499
 30
0.0
 10
-1.02312
 20
40.16499
 30
0.0
 10
-1.02312
 20
40.16499
 30
0.0
 10
-1.02312
 20
39.85795
 30
0.0
 10
-1.84588
 20
39.72087
 30
0.0
 10
-2.01246
 20
39.74574
 30
0.0
 10
-2.01246
 20
39.74574
 30
0.0
 10
-2.01246
 20
39.74574
 30
0.0
 10
-2.01191
 20
40.14289
 30
0.0
 10
-2.01191
 20
40.14289
 30
0.0
 10
-2.01191
 20
40.14289
 30
0.0
 10
-2.17452
 20
39.97095
 30
0.0
 10
-2.35244
 20
39.81761
 30
0.0
 10
-2.5493
 20
39.74574
 30
0.0
 10
-2.5493
 20
39.74574
 30
0.0
 10
-2.5493
 20
39.74574
 30
0.0
 10
-2.96583
 20
39.74574
 30
0.0
 10
-2.96583
 20
39.74574
 30
0.0
 10
-2.96583
 20
39.74574
 30
0.0
 10
-2.96583
 20
39.74574
 30
0.0
 10
-2.9653
 20
40.14289
 30
0.0
 10
-2.9653
 20
40.14289
 30
0.0
 10
-2.9653
 20
40.14289
 30
0.0
 10
-3.1279
 20
39.97095
 30
0.0
 10
-3.30584
 20
39.81761
 30
0.0
 10
-3.5027
 20
39.74574
 30
0.0
  0
SPLINE
  5
51
330
1F
100
AcDbEntity
  8
Camada 1
370
     9
100
AcDbSpline
210
0.0
220
0.0
230
1.0
 70
    11
 71
     3
 72
    44
 73
    40
 74
     0
 42
0.0000000001
 43
0.0000000001
 40
0.0
 40
0.0
 40
0.0
 40
0.0
 40
0.0909090909090909
 40
0.0909090909090909
 40
0.0909090909090909
 40
0.0909090909090909
 40
0.1818181818181818
 40
0.1818181818181818
 40
0.1818181818181818
 40
0.1818181818181818
 40
0.2727272727272727
 40
0.2727272727272727
 40
0.2727272727272727
 40
0.2727272727272727
 40
0.3636363636363636
 40
0.3636363636363636
 40
0.3636363636363636
 40
0.3636363636363636
 40
0.4545454545454545
 40
0.4545454545454545
 40
0.4545454545454545
 40
0.4545454545454545
 40
0.5454545454545454
 40
0.5454545454545454
 40
0.5454545454545454
 40
0.5454545454545454
 40
0.6363636363636364
 40
0.6363636363636364
 40
0.6363636363636364
 40
0.6363636363636364
 40
0.7272727272727273
 40
0.7272727272727273
 40
0.7272727272727273
 40
0.7272727272727273
 40
0.8181818181818182
 40
0.8181818181818182
 40
0.8181818181818182
 40
0.8181818181818182
 40
1.0
 40
1.0
 40
1.0
 40
1.0
 10
2.2892
 20
39.98201
 30
0.0
 10
2.2892
 20
39.98201
 30
0.0
 10
2.70435
 20
39.98201
 30
0.0
 10
2.70435
 20
39.98201
 30
0.0
 10
2.70435
 20
39.98201
 30
0.0
 10
2.70435
 20
39.98201
 30
0.0
 10
2.70435
 20
40.85641
 30
0.0
 10
2.70435
 20
40.85641
 30
0.0
 10
2.70435
 20
40.85641
 30
0.0
 10
2.70435
 20
40.85641
 30
0.0
 10
-0.19035
 20
40.85641
 30
0.0
 10
-0.19035
 20
40.85641
 30
0.0
 10
-0.19035
 20
40.85641
 30
0.0
 10
-0.19035
 20
40.85641
 30
0.0
 10
-0.19035
 20
40.40127
 30
0.0
 10
-0.19035
 20
40.40127
 30
0.0
 10
-0.19035
 20
40.40127
 30
0.0
 10
-0.19035
 20
40.09422
 30
0.0
 10
0.63241
 20
39.95714
 30
0.0
 10
0.79897
 20
39.98201
 30
0.0
 10
0.79897
 20
39.98201
 30
0.0
 10
0.79897
 20
39.98201
 30
0.0
 10
0.79842
 20
40.37916
 30
0.0
 10
0.79842
 20
40.37916
 30
0.0
 10
0.79842
 20
40.37916
 30
0.0
 10
0.96104
 20
40.20721
 30
0.0
 10
1.13896
 20
40.05388
 30
0.0
 10
1.33583
 20
39.98201
 30
0.0
 10
1.33583
 20
39.98201
 30
0.0
 10
1.33583
 20
39.98201
 30
0.0
 10
1.75235
 20
39.98201
 30
0.0
 10
1.75235
 20
39.98201
 30
0.0
 10
1.75235
 20
39.98201
 30
0.0
 10
1.75235
 20
39.98201
 30
0.0
 10
1.75182
 20
40.37916
 30
0.0
 10
1.75182
 20
40.37916
 30
0.0
 10
1.75182
 20
40.37916
 30
0.0
 10
1.91441
 20
40.20721
 30
0.0
 10
2.09233
 20
40.05388
 30
0.0
 10
2.2892
 20
39.98201
 30
0.0
  0
SPLINE
  5
52
330
1F
100
AcDbEntity
  8
Camada 1
370
     9
100
AcDbSpline
210
0.0
220
0.0
230
1.0
 70
    11
 71
     3
 72
    40
 73
    36
 74
     0
 42
0.0000000001
 43
0.0000000001
 40
0.0
 40
0.0
 40
0.0
 40
0.0
 40
0.1
 40
0.1
 40
0.1
 40
0.1
 40
0.2
 40
0.2
 40
0.2
 40
0.2
 40
0.3
 40
0.3
 40
0.3
 40
0.3
 40
0.4
 40
0.4
 40
0.4
 40
0.4
 40
0.5
 40
0.5
 40
0.5
 40
0.5
 40
0.6
 40
0.6
 40
0.6
 40
0.6
 40
0.7
 40
0.7
 40
0.7
 40
0.7
 40
0.8
 40
0.8
 40
0.8
 40
0.8
 40
1.0
 40
1.0
 40
1.0
 40
1.0
 10
-8.6131
 20
29.84923
 30
0.0
 10
-8.6131
 20
29.84923
 30
0.0
 10
-8.11086
 20
29.84923
 30
0.0
 10
-8.11086
 20
29.84923
 30
0.0
 10
-8.11086
 20
29.84923
 30
0.0
 10
-8.11086
 20
29.84923
 30
0.0
 10
-8.11086
 20
30.74923
 30
0.0
 10
-8.11086
 20
30.74923
 30
0.0
 10
-8.11086
 20
30.74923
 30
0.0
 10
-8.11086
 20
30.74923
 30
0.0
 10
-8.6131
 20
30.74923
 30
0.0
 10
-8.6131
 20
30.74923
 30
0.0
 10
-8.6131
 20
30.74923
 30
0.0
 10
-8.6131
 20
30.74923
 30
0.0
 10
-8.6131
 20
31.13759
 30
0.0
 10
-8.6131
 20
31.13759
 30
0.0
 10
-8.6131
 20
31.13759
 30
0.0
 10
-8.6131
 20
31.13759
 30
0.0
 10
-8.23341
 20
31.13759
 30
0.0
 10
-8.23341
 20
31.13759
 30
0.0
 10
-8.23341
 20
31.13759
 30
0.0
 10
-7.54398
 20
30.98813
 30
0.0
 10
-7.20351
 20
30.63612
 30
0.0
 10
-7.21194
 20
30.28656
 30
0.0
 10
-7.21194
 20
30.28656
 30
0.0
 10
-7.22019
 20
29.94549
 30
0.0
 10
-7.56066
 20
29.60669
 30
0.0
 10
-8.23341
 20
29.46088
 30
0.0
 10
-8.23341
 20
29.46088
 30
0.0
 10
-8.23341
 20
29.46088
 30
0.0
 10
-8.6131
 20
29.46088
 30
0.0
 10
-8.6131
 20
29.46088
 30
0.0
 10
-8.6131
 20
29.46088
 30
0.0
 10
-8.6131
 20
29.46088
 30
0.0
 10
-8.6131
 20
29.84923
 30
0.0
 10
-8.6131
 20
29.84923
 30
0.0
  0
SPLINE
  5
53
330
1F
100
AcDbEntity
  8
Camada 1
370
     9
100
AcDbSpline
210
0.0
220
0.0
230
1.0
 70
    11
 71
     3
 72
    80
 73
    76
 74
     0
 42
0.0000000001
 43
0.0000000001
 40
0.0
 40
0.0
 40
0.0
 40
0.0
 40
0.05
 40
0.05
 40
0.05
 40
0.05
 40
0.1
 40
0.1
 40
0.1
 40
0.1
 40
0.15
 40
0.15
 40
0.15
 40
0.15
 40
0.2
 40
0.2
 40
0.2
 40
0.2
 40
0.25
 40
0.25
 40
0.25
 40
0.25
 40
0.3
 40
0.3
 40
0.3
 40
0.3
 40
0.35
 40
0.35
 40
0.35
 40
0.35
 40
0.4
 40
0.4
 40
0.4
 40
0.4
 40
0.45
 40
0.45
 40
0.45
 40
0.45
 40
0.5
 40
0.5
 40
0.5
 40
0.5
 40
0.55
 40
0.55
 40
0.55
 40
0.55
 40
0.6
 40
0.6
 40
0.6
 40
0.6
 40
0.65
 40
0.65
 40
0.65
 40
0.65
 40
0.7
 40
0.7
 40
0.7
 40
0.7
 40
0.75
 40
0.75
 40
0.75
 40
0.75
 40
0.8
 40
0.8
 40
0.8
 40
0.8
 40
0.85
 40
0.85
 40
0.85
 40
0.85
 40
0.9
 40
0.9
 40
0.9
 40
0.9
 40
1.0
 40
1.0
 40
1.0
 40
1.0
 10
-10.53932
 20
25.61699
 30
0.0
 10
-10.53932
 20
25.61699
 30
0.0
 10
-10.53932
 20
27.04853
 30
0.0
 10
-10.53932
 20
27.04853
 30
0.0
 10
-10.53932
 20
27.04853
 30
0.0
 10
-10.53932
 20
27.04853
 30
0.0
 10
-10.83932
 20
27.04853
 30
0.0
 10
-10.83932
 20
27.04853
 30
0.0
 10
-10.83932
 20
27.04853
 30
0.0
 10
-10.83932
 20
27.04853
 30
0.0
 10
-10.83932
 20
25.61699
 30
0.0
 10
-10.83932
 20
25.61699
 30
0.0
 10
-10.83932
 20
25.61699
 30
0.0
 10
-10.83932
 20
25.61699
 30
0.0
 10
-11.33765
 20
25.61699
 30
0.0
 10
-11.33765
 20
25.61699
 30
0.0
 10
-11.33765
 20
25.61699
 30
0.0
 10
-11.33765
 20
25.61699
 30
0.0
 10
-11.33765
 20
20.87957
 30
0.0
 10
-11.33765
 20
20.87957
 30
0.0
 10
-11.33765
 20
20.87957
 30
0.0
 10
-11.33765
 20
20.87957
 30
0.0
 10
-11.73345
 20
20.87957
 30
0.0
 10
-11.73345
 20
20.87957
 30
0.0
 10
-11.73345
 20
20.87957
 30
0.0
 10
-11.73345
 20
20.87957
 30
0.0
 10
-11.73345
 20
27.04853
 30
0.0
 10
-11.73345
 20
27.04853
 30
0.0
 10
-11.73345
 20
27.04853
 30
0.0
 10
-11.73345
 20
27.04853
 30
0.0
 10
-12.03345
 20
27.04853
 30
0.0
 10
-12.03345
 20
27.04853
 30
0.0
 10
-12.03345
 20
27.04853
 30
0.0
 10
-12.03345
 20
27.04853
 30
0.0
 10
-12.03345
 20
20.87957
 30
0.0
 10
-12.03345
 20
20.87957
 30
0.0
 10
-12.03345
 20
20.87957
 30
0.0
 10
-12.03345
 20
20.87957
 30
0.0
 10
-12.35799
 20
20.87957
 30
0.0
 10
-12.35799
 20
20.87957
 30
0.0
 10
-12.35799
 20
20.87957
 30
0.0
 10
-12.42608
 20
21.22554
 30
0.0
 10
-12.57244
 20
21.51125
 30
0.0
 10
-12.84624
 20
21.69897
 30
0.0
 10
-12.84624
 20
21.69897
 30
0.0
 10
-22.72834
 20
21.90391
 30
0.0
 10
-26.27037
 20
24.67969
 30
0.0
 10
-26.80174
 20
26.32777
 30
0.0
 10
-26.80174
 20
26.32777
 30
0.0
 10
-27.4379
 20
28.30083
 30
0.0
 10
-18.48306
 20
28.30274
 30
0.0
 10
-16.97435
 20
28.39026
 30
0.0
 10
-16.97435
 20
28.39026
 30
0.0
 10
-16.97435
 20
28.39026
 30
0.0
 10
-16.87152
 20
31.29291
 30
0.0
 10
-16.87152
 20
31.29291
 30
0.0
 10
-16.87152
 20
31.29291
 30
0.0
 10
-16.87152
 20
31.29291
 30
0.0
 10
-16.57893
 20
31.29291
 30
0.0
 10
-16.57893
 20
31.29291
 30
0.0
 10
-16.57893
 20
31.29291
 30
0.0
 10
-16.57893
 20
31.29291
 30
0.0
 10
-16.48597
 20
28.39624
 30
0.0
 10
-16.48597
 20
28.39624
 30
0.0
 10
-16.48597
 20
28.39624
 30
0.0
 10
-16.48597
 20
28.39624
 30
0.0
 10
-10.13904
 20
28.47731
 30
0.0
 10
-10.13904
 20
28.47731
 30
0.0
 10
-10.13904
 20
28.47731
 30
0.0
 10
-10.13904
 20
28.47731
 30
0.0
 10
-10.13904
 20
25.61699
 30
0.0
 10
-10.13904
 20
25.61699
 30
0.0
 10
-10.13904
 20
25.61699
 30
0.0
 10
-10.13904
 20
25.61699
 30
0.0
 10
-10.53932
 20
25.61699
 30
0.0
 10
-10.53932
 20
25.61699
 30
0.0
  0
SPLINE
  5
54
330
1F
100
AcDbEntity
  8
Camada 1
370
     9
100
AcDbSpline
210
0.0
220
0.0
230
1.0
 70
    11
 71
     3
 72
    80
 73
    76
 74
     0
 42
0.0000000001
 43
0.0000000001
 40
0.0
 40
0.0
 40
0.0
 40
0.0
 40
0.05
 40
0.05
 40
0.05
 40
0.05
 40
0.1
 40
0.1
 40
0.1
 40
0.1
 40
0.15
 40
0.15
 40
0.15
 40
0.15
 40
0.2
 40
0.2
 40
0.2
 40
0.2
 40
0.25
 40
0.25
 40
0.25
 40
0.25
 40
0.3
 40
0.3
 40
0.3
 40
0.3
 40
0.35
 40
0.35
 40
0.35
 40
0.35
 40
0.4
 40
0.4
 40
0.4
 40
0.4
 40
0.45
 40
0.45
 40
0.45
 40
0.45
 40
0.5
 40
0.5
 40
0.5
 40
0.5
 40
0.55
 40
0.55
 40
0.55
 40
0.55
 40
0.6
 40
0.6
 40
0.6
 40
0.6
 40
0.65
 40
0.65
 40
0.65
 40
0.65
 40
0.7
 40
0.7
 40
0.7
 40
0.7
 40
0.75
 40
0.75
 40
0.75
 40
0.75
 40
0.8
 40
0.8
 40
0.8
 40
0.8
 40
0.85
 40
0.85
 40
0.85
 40
0.85
 40
0.9
 40
0.9
 40
0.9
 40
0.9
 40
1.0
 40
1.0
 40
1.0
 40
1.0
 10
-7.73382
 20
28.51533
 30
0.0
 10
-7.73382
 20
28.51533
 30
0.0
 10
-3.31879
 20
28.43426
 30
0.0
 10
-3.31879
 20
28.43426
 30
0.0
 10
-3.31879
 20
28.43426
 30
0.0
 10
-3.31879
 20
28.43426
 30
0.0
 10
-3.22583
 20
31.33093
 30
0.0
 10
-3.22583
 20
31.33093
 30
0.0
 10
-3.22583
 20
31.33093
 30
0.0
 10
-3.22583
 20
31.33093
 30
0.0
 10
-2.93324
 20
31.33093
 30
0.0
 10
-2.93324
 20
31.33093
 30
0.0
 10
-2.93324
 20
31.33093
 30
0.0
 10
-2.93324
 20
31.33093
 30
0.0
 10
-2.83042
 20
28.42829
 30
0.0
 10
-2.83042
 20
28.42829
 30
0.0
 10
-2.83042
 20
28.42829
 30
0.0
 10
-1.52712
 20
28.34076
 30
0.0
 10
7.28824
 20
28.3911
 30
0.0
 10
6.9843
 20
26.36579
 30
0.0
 10
6.9843
 20
26.36579
 30
0.0
 10
6.71689
 20
24.58386
 30
0.0
 10
1.86486
 20
21.75714
 30
0.0
 10
-6.90172
 20
21.71332
 30
0.0
 10
-6.90172
 20
21.71332
 30
0.0
 10
-7.30293
 20
21.56153
 30
0.0
 10
-7.51995
 20
21.24408
 30
0.0
 10
-7.66798
 20
20.89183
 30
0.0
 10
-7.66798
 20
20.89183
 30
0.0
 10
-7.66798
 20
20.89183
 30
0.0
 10
-9.62824
 20
20.89183
 30
0.0
 10
-9.62824
 20
20.89183
 30
0.0
 10
-9.62824
 20
20.89183
 30
0.0
 10
-9.62824
 20
20.89183
 30
0.0
 10
-9.62824
 20
25.64425
 30
0.0
 10
-9.62824
 20
25.64425
 30
0.0
 10
-9.62824
 20
25.64425
 30
0.0
 10
-9.62824
 20
25.64425
 30
0.0
 10
-9.2281
 20
25.64425
 30
0.0
 10
-9.2281
 20
25.64425
 30
0.0
 10
-9.2281
 20
25.64425
 30
0.0
 10
-9.2281
 20
25.64425
 30
0.0
 10
-9.2281
 20
24.21254
 30
0.0
 10
-9.2281
 20
24.21254
 30
0.0
 10
-9.2281
 20
24.21254
 30
0.0
 10
-9.2281
 20
24.21254
 30
0.0
 10
-8.9281
 20
24.21254
 30
0.0
 10
-8.9281
 20
24.21254
 30
0.0
 10
-8.9281
 20
24.21254
 30
0.0
 10
-8.9281
 20
24.21254
 30
0.0
 10
-8.9281
 20
25.64425
 30
0.0
 10
-8.9281
 20
25.64425
 30
0.0
 10
-8.9281
 20
25.64425
 30
0.0
 10
-8.9281
 20
25.64425
 30
0.0
 10
-8.42957
 20
25.64425
 30
0.0
 10
-8.42957
 20
25.64425
 30
0.0
 10
-8.42957
 20
25.64425
 30
0.0
 10
-8.42957
 20
25.64425
 30
0.0
 10
-8.42957
 20
28.51533
 30
0.0
 10
-8.42957
 20
28.51533
 30
0.0
 10
-8.42957
 20
28.51533
 30
0.0
 10
-8.42957
 20
28.51533
 30
0.0
 10
-8.03382
 20
28.51533
 30
0.0
 10
-8.03382
 20
28.51533
 30
0.0
 10
-8.03382
 20
28.51533
 30
0.0
 10
-8.03382
 20
28.51533
 30
0.0
 10
-8.03382
 20
24.21254
 30
0.0
 10
-8.03382
 20
24.21254
 30
0.0
 10
-8.03382
 20
24.21254
 30
0.0
 10
-8.03382
 20
24.21254
 30
0.0
 10
-7.73382
 20
24.21254
 30
0.0
 10
-7.73382
 20
24.21254
 30
0.0
 10
-7.73382
 20
24.21254
 30
0.0
 10
-7.73382
 20
24.21254
 30
0.0
 10
-7.73382
 20
28.51533
 30
0.0
 10
-7.73382
 20
28.51533
 30
0.0
  0
LWPOLYLINE
  5
55
330
1F
100
AcDbEntity
  8
Camada 1
370
     9
100
AcDbPolyline
 90
        5
 70
     1
 43
0.0
 10
-14.81231
 20
24.71157
 10
-14.51231
 20
24.71157
 10
-14.51231
 20
25.74571
 10
-14.81231
 20
25.74571
 10
-14.81231
 20
24.71157
  0
LWPOLYLINE
  5
56
330
1F
100
AcDbEntity
  8
Camada 1
370
     9
100
AcDbPolyline
 90
        5
 70
     1
 43
0.0
 10
-13.20471
 20
24.73303
 10
-12.90471
 20
24.73303
 10
-12.90471
 20
25.76717
 10
-13.20471
 20
25.76717
 10
-13.20471
 20
24.73303
  0
LWPOLYLINE
  5
57
330
1F
100
AcDbEntity
  8
Camada 1
370
     9
100
AcDbPolyline
 90
        5
 70
     1
 43
0.0
 10
-13.2129
 20
22.49477
 10
-12.9129
 20
22.49477
 10
-12.9129
 20
23.52891
 10
-13.2129
 20
23.52891
 10
-13.2129
 20
22.49477
  0
LWPOLYLINE
  5
58
330
1F
100
AcDbEntity
  8
Camada 1
370
     9
100
AcDbPolyline
 90
        5
 70
     1
 43
0.0
 10
-14.80855
 20
22.52245
 10
-14.50855
 20
22.52245
 10
-14.50855
 20
23.55659
 10
-14.80855
 20
23.55659
 10
-14.80855
 20
22.52245
  0
LWPOLYLINE
  5
59
330
1F
100
AcDbEntity
  8
Camada 1
370
     9
100
AcDbPolyline
 90
        5
 70
     1
 43
0.0
 10
-5.25401
 20
24.67187
 10
-4.95401
 20
24.67187
 10
-4.95401
 20
25.70601
 10
-5.25401
 20
25.70601
 10
-5.25401
 20
24.67187
  0
LWPOLYLINE
  5
5A
330
1F
100
AcDbEntity
  8
Camada 1
370
     9
100
AcDbPolyline
 90
        5
 70
     1
 43
0.0
 10
-6.86161
 20
24.69333
 10
-6.56161
 20
24.69333
 10
-6.56161
 20
25.72747
 10
-6.86161
 20
25.72747
 10
-6.86161
 20
24.69333
  0
LWPOLYLINE
  5
5B
330
1F
100
AcDbEntity
  8
Camada 1
370
     9
100
AcDbPolyline
 90
        5
 70
     1
 43
0.0
 10
-6.8534
 20
22.45507
 10
-6.55342
 20
22.45507
 10
-6.55342
 20
23.48921
 10
-6.8534
 20
23.48921
 10
-6.8534
 20
22.45507
  0
LWPOLYLINE
  5
5C
330
1F
100
AcDbEntity
  8
Camada 1
370
     9
100
AcDbPolyline
 90
        5
 70
     1
 43
0.0
 10
-5.25777
 20
22.48275
 10
-4.95777
 20
22.48275
 10
-4.95777
 20
23.51689
 10
-5.25777
 20
23.51689
 10
-5.25777
 20
22.48275
  0
SPLINE
  5
5D
330
1F
100
AcDbEntity
  8
Camada 1
370
     9
100
AcDbSpline
210
0.0
220
0.0
230
1.0
 70
    11
 71
     3
 72
    28
 73
    24
 74
     0
 42
0.0000000001
 43
0.0000000001
 40
0.0
 40
0.0
 40
0.0
 40
0.0
 40
0.1428571428571428
 40
0.1428571428571428
 40
0.1428571428571428
 40
0.1428571428571428
 40
0.2857142857142857
 40
0.2857142857142857
 40
0.2857142857142857
 40
0.2857142857142857
 40
0.4285714285714285
 40
0.4285714285714285
 40
0.4285714285714285
 40
0.4285714285714285
 40
0.5714285714285714
 40
0.5714285714285714
 40
0.5714285714285714
 40
0.5714285714285714
 40
0.7142857142857143
 40
0.7142857142857143
 40
0.7142857142857143
 40
0.7142857142857143
 40
1.0
 40
1.0
 40
1.0
 40
1.0
 10
-26.76832
 20
21.26362
 30
0.0
 10
-26.76832
 20
21.26362
 30
0.0
 10
-26.76838
 20
22.14945
 30
0.0
 10
-26.76838
 20
22.14945
 30
0.0
 10
-26.76838
 20
22.14945
 30
0.0
 10
-26.76838
 20
22.14945
 30
0.0
 10
-18.32942
 20
21.57211
 30
0.0
 10
-18.32942
 20
21.57211
 30
0.0
 10
-18.32942
 20
21.57211
 30
0.0
 10
-18.32942
 20
21.57211
 30
0.0
 10
-18.32942
 20
21.15291
 30
0.0
 10
-18.32942
 20
21.15291
 30
0.0
 10
-18.32942
 20
21.15291
 30
0.0
 10
-18.32942
 20
21.15291
 30
0.0
 10
-26.43616
 20
20.9473
 30
0.0
 10
-26.43616
 20
20.9473
 30
0.0
 10
-26.43616
 20
20.9473
 30
0.0
 10
-26.43616
 20
20.9473
 30
0.0
 10
-26.43616
 20
21.26362
 30
0.0
 10
-26.43616
 20
21.26362
 30
0.0
 10
-26.43616
 20
21.26362
 30
0.0
 10
-26.43616
 20
21.26362
 30
0.0
 10
-26.76832
 20
21.26362
 30
0.0
 10
-26.76832
 20
21.26362
 30
0.0
  0
SPLINE
  5
5E
330
1F
100
AcDbEntity
  8
Camada 1
370
     9
100
AcDbSpline
210
0.0
220
0.0
230
1.0
 70
    11
 71
     3
 72
    28
 73
    24
 74
     0
 42
0.0000000001
 43
0.0000000001
 40
0.0
 40
0.0
 40
0.0
 40
0.0
 40
0.1428571428571428
 40
0.1428571428571428
 40
0.1428571428571428
 40
0.1428571428571428
 40
0.2857142857142857
 40
0.2857142857142857
 40
0.2857142857142857
 40
0.2857142857142857
 40
0.4285714285714285
 40
0.4285714285714285
 40
0.4285714285714285
 40
0.4285714285714285
 40
0.5714285714285714
 40
0.5714285714285714
 40
0.5714285714285714
 40
0.5714285714285714
 40
0.7142857142857143
 40
0.7142857142857143
 40
0.7142857142857143
 40
0.7142857142857143
 40
1.0
 40
1.0
 40
1.0
 40
1.0
 10
6.98131
 20
21.36836
 30
0.0
 10
6.98131
 20
21.36836
 30
0.0
 10
6.98137
 20
22.2542
 30
0.0
 10
6.98137
 20
22.2542
 30
0.0
 10
6.98137
 20
22.2542
 30
0.0
 10
6.98137
 20
22.2542
 30
0.0
 10
-1.45759
 20
21.67686
 30
0.0
 10
-1.45759
 20
21.67686
 30
0.0
 10
-1.45759
 20
21.67686
 30
0.0
 10
-1.45759
 20
21.67686
 30
0.0
 10
-1.45759
 20
21.25764
 30
0.0
 10
-1.45759
 20
21.25764
 30
0.0
 10
-1.45759
 20
21.25764
 30
0.0
 10
-1.45759
 20
21.25764
 30
0.0
 10
6.64916
 20
21.05205
 30
0.0
 10
6.64916
 20
21.05205
 30
0.0
 10
6.64916
 20
21.05205
 30
0.0
 10
6.64916
 20
21.05205
 30
0.0
 10
6.64916
 20
21.36836
 30
0.0
 10
6.64916
 20
21.36836
 30
0.0
 10
6.64916
 20
21.36836
 30
0.0
 10
6.64916
 20
21.36836
 30
0.0
 10
6.98131
 20
21.36836
 30
0.0
 10
6.98131
 20
21.36836
 30
0.0
  0
SPLINE
  5
5F
330
1F
100
AcDbEntity
  8
Camada 1
370
     9
100
AcDbSpline
210
0.0
220
0.0
230
1.0
 70
    11
 71
     3
 72
    44
 73
    40
 74
     0
 42
0.0000000001
 43
0.0000000001
 40
0.0
 40
0.0
 40
0.0
 40
0.0
 40
0.0909090909090909
 40
0.0909090909090909
 40
0.0909090909090909
 40
0.0909090909090909
 40
0.1818181818181818
 40
0.1818181818181818
 40
0.1818181818181818
 40
0.1818181818181818
 40
0.2727272727272727
 40
0.2727272727272727
 40
0.2727272727272727
 40
0.2727272727272727
 40
0.3636363636363636
 40
0.3636363636363636
 40
0.3636363636363636
 40
0.3636363636363636
 40
0.4545454545454545
 40
0.4545454545454545
 40
0.4545454545454545
 40
0.4545454545454545
 40
0.5454545454545454
 40
0.5454545454545454
 40
0.5454545454545454
 40
0.5454545454545454
 40
0.6363636363636364
 40
0.6363636363636364
 40
0.6363636363636364
 40
0.6363636363636364
 40
0.7272727272727273
 40
0.7272727272727273
 40
0.7272727272727273
 40
0.7272727272727273
 40
0.8181818181818182
 40
0.8181818181818182
 40
0.8181818181818182
 40
0.8181818181818182
 40
1.0
 40
1.0
 40
1.0
 40
1.0
 10
-7.74419
 20
6.63667
 30
0.0
 10
-7.74419
 20
6.63667
 30
0.0
 10
-7.74419
 20
4.91306
 30
0.0
 10
-7.74419
 20
4.91306
 30
0.0
 10
-7.74419
 20
4.91306
 30
0.0
 10
-7.74419
 20
4.91306
 30
0.0
 10
-8.04419
 20
4.91306
 30
0.0
 10
-8.04419
 20
4.91306
 30
0.0
 10
-8.04419
 20
4.91306
 30
0.0
 10
-8.04419
 20
4.91306
 30
0.0
 10
-8.04419
 20
6.63667
 30
0.0
 10
-8.04419
 20
6.63667
 30
0.0
 10
-8.04419
 20
6.63667
 30
0.0
 10
-8.45854
 20
6.63593
 30
0.0
 10
-8.93093
 20
6.09062
 30
0.0
 10
-8.93093
 20
5.63413
 30
0.0
 10
-8.93093
 20
5.63413
 30
0.0
 10
-8.93093
 20
5.63413
 30
0.0
 10
-8.93093
 20
4.95106
 30
0.0
 10
-8.93093
 20
4.95106
 30
0.0
 10
-8.93093
 20
4.95106
 30
0.0
 10
-8.90984
 20
4.38902
 30
0.0
 10
-8.72226
 20
4.24865
 30
0.0
 10
-8.31642
 20
4.24992
 30
0.0
 10
-8.31642
 20
4.24992
 30
0.0
 10
-8.31642
 20
4.24992
 30
0.0
 10
-7.47196
 20
4.24992
 30
0.0
 10
-7.47196
 20
4.24992
 30
0.0
 10
-7.47196
 20
4.24992
 30
0.0
 10
-7.06611
 20
4.24865
 30
0.0
 10
-6.87853
 20
4.38902
 30
0.0
 10
-6.85744
 20
4.95106
 30
0.0
 10
-6.85744
 20
4.95106
 30
0.0
 10
-6.85744
 20
4.95106
 30
0.0
 10
-6.85744
 20
5.63413
 30
0.0
 10
-6.85744
 20
5.63413
 30
0.0
 10
-6.85744
 20
5.63413
 30
0.0
 10
-6.85744
 20
6.09062
 30
0.0
 10
-7.32982
 20
6.63593
 30
0.0
 10
-7.74419
 20
6.63667
 30
0.0
  0
SPLINE
  5
60
330
1F
100
AcDbEntity
  8
Camada 1
370
     9
100
AcDbSpline
210
0.0
220
0.0
230
1.0
 70
    11
 71
     3
 72
    56
 73
    52
 74
     0
 42
0.0000000001
 43
0.0000000001
 40
0.0
 40
0.0
 40
0.0
 40
0.0
 40
0.0714285714285714
 40
0.0714285714285714
 40
0.0714285714285714
 40
0.0714285714285714
 40
0.1428571428571428
 40
0.1428571428571428
 40
0.1428571428571428
 40
0.1428571428571428
 40
0.2142857142857143
 40
0.2142857142857143
 40
0.2142857142857143
 40
0.2142857142857143
 40
0.2857142857142857
 40
0.2857142857142857
 40
0.2857142857142857
 40
0.2857142857142857
 40
0.3571428571428572
 40
0.3571428571428572
 40
0.3571428571428572
 40
0.3571428571428572
 40
0.4285714285714285
 40
0.4285714285714285
 40
0.4285714285714285
 40
0.4285714285714285
 40
0.5
 40
0.5
 40
0.5
 40
0.5
 40
0.5714285714285714
 40
0.5714285714285714
 40
0.5714285714285714
 40
0.5714285714285714
 40
0.6428571428571429
 40
0.6428571428571429
 40
0.6428571428571429
 40
0.6428571428571429
 40
0.7142857142857143
 40
0.7142857142857143
 40
0.7142857142857143
 40
0.7142857142857143
 40
0.7857142857142857
 40
0.7857142857142857
 40
0.7857142857142857
 40
0.7857142857142857
 40
0.8571428571428571
 40
0.8571428571428571
 40
0.8571428571428571
 40
0.8571428571428571
 40
1.0
 40
1.0
 40
1.0
 40
1.0
 10
-3.68104
 20
5.71793
 30
0.0
 10
-3.68104
 20
5.71793
 30
0.0
 10
-4.01113
 20
5.71793
 30
0.0
 10
-4.01113
 20
5.71793
 30
0.0
 10
-4.01113
 20
5.71793
 30
0.0
 10
-4.01113
 20
5.71793
 30
0.0
 10
-4.01113
 20
4.51793
 30
0.0
 10
-4.01113
 20
4.51793
 30
0.0
 10
-4.01113
 20
4.51793
 30
0.0
 10
-4.01113
 20
4.51793
 30
0.0
 10
-3.68104
 20
4.51793
 30
0.0
 10
-3.68104
 20
4.51793
 30
0.0
 10
-3.68104
 20
4.51793
 30
0.0
 10
-3.68104
 20
4.51793
 30
0.0
 10
-3.68104
 20
3.50438
 30
0.0
 10
-3.68104
 20
3.50438
 30
0.0
 10
-3.68104
 20
3.50438
 30
0.0
 10
-3.68104
 20
3.50438
 30
0.0
 10
-4.04669
 20
3.50438
 30
0.0
 10
-4.04669
 20
3.50438
 30
0.0
 10
-4.04669
 20
3.50438
 30
0.0
 10
-4.04669
 20
3.50438
 30
0.0
 10
-5.31028
 20
4.10354
 30
0.0
 10
-5.31028
 20
4.10354
 30
0.0
 10
-5.31028
 20
4.10354
 30
0.0
 10
-5.31028
 20
4.10354
 30
0.0
 10
-5.31028
 20
6.73129
 30
0.0
 10
-5.31028
 20
6.73129
 30
0.0
 10
-5.31028
 20
6.73129
 30
0.0
 10
-5.31028
 20
6.73129
 30
0.0
 10
-4.87503
 20
6.73129
 30
0.0
 10
-4.87503
 20
6.73129
 30
0.0
 10
-4.87503
 20
6.73129
 30
0.0
 10
-4.87503
 20
6.73129
 30
0.0
 10
-4.87503
 20
5.36306
 30
0.0
 10
-4.87503
 20
5.36306
 30
0.0
 10
-4.87503
 20
5.36306
 30
0.0
 10
-4.87503
 20
5.36306
 30
0.0
 10
-4.57503
 20
5.36306
 30
0.0
 10
-4.57503
 20
5.36306
 30
0.0
 10
-4.57503
 20
5.36306
 30
0.0
 10
-4.57503
 20
5.36306
 30
0.0
 10
-4.57503
 20
6.73129
 30
0.0
 10
-4.57503
 20
6.73129
 30
0.0
 10
-4.57503
 20
6.73129
 30
0.0
 10
-4.57503
 20
6.73129
 30
0.0
 10
-3.68104
 20
6.73129
 30
0.0
 10
-3.68104
 20
6.73129
 30
0.0
 10
-3.68104
 20
6.73129
 30
0.0
 10
-3.68104
 20
6.73129
 30
0.0
 10
-3.68104
 20
5.71793
 30
0.0
 10
-3.68104
 20
5.71793
 30
0.0
  0
SPLINE
  5
61
330
1F
100
AcDbEntity
  8
Camada 1
370
     9
100
AcDbSpline
210
0.0
220
0.0
230
1.0
 70
    11
 71
     3
 72
    84
 73
    80
 74
     0
 42
0.0000000001
 43
0.0000000001
 40
0.0
 40
0.0
 40
0.0
 40
0.0
 40
0.0476190476190476
 40
0.0476190476190476
 40
0.0476190476190476
 40
0.0476190476190476
 40
0.0952380952380952
 40
0.0952380952380952
 40
0.0952380952380952
 40
0.0952380952380952
 40
0.1428571428571428
 40
0.1428571428571428
 40
0.1428571428571428
 40
0.1428571428571428
 40
0.1904761904761905
 40
0.1904761904761905
 40
0.1904761904761905
 40
0.1904761904761905
 40
0.2380952380952381
 40
0.2380952380952381
 40
0.2380952380952381
 40
0.2380952380952381
 40
0.2857142857142857
 40
0.2857142857142857
 40
0.2857142857142857
 40
0.2857142857142857
 40
0.3333333333333333
 40
0.3333333333333333
 40
0.3333333333333333
 40
0.3333333333333333
 40
0.3809523809523809
 40
0.3809523809523809
 40
0.3809523809523809
 40
0.3809523809523809
 40
0.4285714285714285
 40
0.4285714285714285
 40
0.4285714285714285
 40
0.4285714285714285
 40
0.4761904761904762
 40
0.4761904761904762
 40
0.4761904761904762
 40
0.4761904761904762
 40
0.5238095238095238
 40
0.5238095238095238
 40
0.5238095238095238
 40
0.5238095238095238
 40
0.5714285714285714
 40
0.5714285714285714
 40
0.5714285714285714
 40
0.5714285714285714
 40
0.6190476190476191
 40
0.6190476190476191
 40
0.6190476190476191
 40
0.6190476190476191
 40
0.6666666666666666
 40
0.6666666666666666
 40
0.6666666666666666
 40
0.6666666666666666
 40
0.7142857142857143
 40
0.7142857142857143
 40
0.7142857142857143
 40
0.7142857142857143
 40
0.7619047619047619
 40
0.7619047619047619
 40
0.7619047619047619
 40
0.7619047619047619
 40
0.8095238095238095
 40
0.8095238095238095
 40
0.8095238095238095
 40
0.8095238095238095
 40
0.8571428571428571
 40
0.8571428571428571
 40
0.8571428571428571
 40
0.8571428571428571
 40
0.9047619047619048
 40
0.9047619047619048
 40
0.9047619047619048
 40
0.9047619047619048
 40
1.0
 40
1.0
 40
1.0
 40
1.0
 10
-5.39897
 20
8.28388
 30
0.0
 10
-5.48244
 20
7.89482
 30
0.0
 10
-5.78004
 20
7.53755
 30
0.0
 10
-6.3444
 20
7.53755
 30
0.0
 10
-6.3444
 20
7.53755
 30
0.0
 10
-6.3444
 20
7.53755
 30
0.0
 10
-6.97262
 20
7.53755
 30
0.0
 10
-6.97262
 20
7.53755
 30
0.0
 10
-6.97262
 20
7.53755
 30
0.0
 10
-7.53698
 20
7.53755
 30
0.0
 10
-7.83458
 20
7.89482
 30
0.0
 10
-7.91805
 20
8.28388
 30
0.0
 10
-7.91805
 20
8.28388
 30
0.0
 10
-7.91805
 20
8.28388
 30
0.0
 10
-7.31465
 20
8.28388
 30
0.0
 10
-7.31465
 20
8.28388
 30
0.0
 10
-7.31465
 20
8.28388
 30
0.0
 10
-7.31465
 20
8.28388
 30
0.0
 10
-7.31465
 20
8.58388
 30
0.0
 10
-7.31465
 20
8.58388
 30
0.0
 10
-7.31465
 20
8.58388
 30
0.0
 10
-7.31465
 20
8.58388
 30
0.0
 10
-7.94271
 20
8.58388
 30
0.0
 10
-7.94271
 20
8.58388
 30
0.0
 10
-7.94271
 20
8.58388
 30
0.0
 10
-7.94271
 20
8.58388
 30
0.0
 10
-7.9362
 20
9.62417
 30
0.0
 10
-7.9362
 20
9.62417
 30
0.0
 10
-7.9362
 20
9.62417
 30
0.0
 10
-7.9342
 20
9.94423
 30
0.0
 10
-7.5232
 20
10.41365
 30
0.0
 10
-7.24727
 20
10.60788
 30
0.0
 10
-7.24727
 20
10.60788
 30
0.0
 10
-7.24727
 20
10.60788
 30
0.0
 10
-7.24727
 20
11.09521
 30
0.0
 10
-7.24727
 20
11.09521
 30
0.0
 10
-7.24727
 20
11.09521
 30
0.0
 10
-7.24727
 20
11.09521
 30
0.0
 10
-6.80851
 20
11.09521
 30
0.0
 10
-6.80851
 20
11.09521
 30
0.0
 10
-6.80851
 20
11.09521
 30
0.0
 10
-6.80851
 20
11.09521
 30
0.0
 10
-6.80851
 20
8.26934
 30
0.0
 10
-6.80851
 20
8.26934
 30
0.0
 10
-6.80851
 20
8.26934
 30
0.0
 10
-6.80851
 20
8.26934
 30
0.0
 10
-6.50851
 20
8.26934
 30
0.0
 10
-6.50851
 20
8.26934
 30
0.0
 10
-6.50851
 20
8.26934
 30
0.0
 10
-6.50851
 20
8.26934
 30
0.0
 10
-6.50851
 20
11.09521
 30
0.0
 10
-6.50851
 20
11.09521
 30
0.0
 10
-6.50851
 20
11.09521
 30
0.0
 10
-6.50851
 20
11.09521
 30
0.0
 10
-6.06975
 20
11.09521
 30
0.0
 10
-6.06975
 20
11.09521
 30
0.0
 10
-6.06975
 20
11.09521
 30
0.0
 10
-6.06975
 20
11.09521
 30
0.0
 10
-6.06975
 20
10.60788
 30
0.0
 10
-6.06975
 20
10.60788
 30
0.0
 10
-6.06975
 20
10.60788
 30
0.0
 10
-5.79382
 20
10.41365
 30
0.0
 10
-5.38293
 20
9.94423
 30
0.0
 10
-5.38091
 20
9.62417
 30
0.0
 10
-5.38091
 20
9.62417
 30
0.0
 10
-5.38091
 20
9.62417
 30
0.0
 10
-5.37431
 20
8.58388
 30
0.0
 10
-5.37431
 20
8.58388
 30
0.0
 10
-5.37431
 20
8.58388
 30
0.0
 10
-5.37431
 20
8.58388
 30
0.0
 10
-6.00237
 20
8.58388
 30
0.0
 10
-6.00237
 20
8.58388
 30
0.0
 10
-6.00237
 20
8.58388
 30
0.0
 10
-6.00237
 20
8.58388
 30
0.0
 10
-6.00237
 20
8.28388
 30
0.0
 10
-6.00237
 20
8.28388
 30
0.0
 10
-6.00237
 20
8.28388
 30
0.0
 10
-6.00237
 20
8.28388
 30
0.0
 10
-5.39897
 20
8.28388
 30
0.0
 10
-5.39897
 20
8.28388
 30
0.0
  0
SPLINE
  5
62
330
1F
100
AcDbEntity
  8
Camada 1
370
     9
100
AcDbSpline
210
0.0
220
0.0
230
1.0
 70
    11
 71
     3
 72
    68
 73
    64
 74
     0
 42
0.0000000001
 43
0.0000000001
 40
0.0
 40
0.0
 40
0.0
 40
0.0
 40
0.0588235294117647
 40
0.0588235294117647
 40
0.0588235294117647
 40
0.0588235294117647
 40
0.1176470588235294
 40
0.1176470588235294
 40
0.1176470588235294
 40
0.1176470588235294
 40
0.1764705882352941
 40
0.1764705882352941
 40
0.1764705882352941
 40
0.1764705882352941
 40
0.2352941176470588
 40
0.2352941176470588
 40
0.2352941176470588
 40
0.2352941176470588
 40
0.2941176470588235
 40
0.2941176470588235
 40
0.2941176470588235
 40
0.2941176470588235
 40
0.3529411764705883
 40
0.3529411764705883
 40
0.3529411764705883
 40
0.3529411764705883
 40
0.4117647058823529
 40
0.4117647058823529
 40
0.4117647058823529
 40
0.4117647058823529
 40
0.4705882352941176
 40
0.4705882352941176
 40
0.4705882352941176
 40
0.4705882352941176
 40
0.5294117647058824
 40
0.5294117647058824
 40
0.5294117647058824
 40
0.5294117647058824
 40
0.5882352941176471
 40
0.5882352941176471
 40
0.5882352941176471
 40
0.5882352941176471
 40
0.6470588235294118
 40
0.6470588235294118
 40
0.6470588235294118
 40
0.6470588235294118
 40
0.7058823529411765
 40
0.7058823529411765
 40
0.7058823529411765
 40
0.7058823529411765
 40
0.7647058823529411
 40
0.7647058823529411
 40
0.7647058823529411
 40
0.7647058823529411
 40
0.8235294117647058
 40
0.8235294117647058
 40
0.8235294117647058
 40
0.8235294117647058
 40
0.8823529411764706
 40
0.8823529411764706
 40
0.8823529411764706
 40
0.8823529411764706
 40
1.0
 40
1.0
 40
1.0
 40
1.0
 10
-1.11175
 20
8.4419
 30
0.0
 10
-1.09854
 20
8.12382
 30
0.0
 10
-1.4067
 20
7.63656
 30
0.0
 10
-2.01349
 20
7.64463
 30
0.0
 10
-2.01349
 20
7.64463
 30
0.0
 10
-2.01349
 20
7.64463
 30
0.0
 10
-2.65425
 20
7.64463
 30
0.0
 10
-2.65425
 20
7.64463
 30
0.0
 10
-2.65425
 20
7.64463
 30
0.0
 10
-3.26106
 20
7.63656
 30
0.0
 10
-3.5692
 20
8.12382
 30
0.0
 10
-3.55599
 20
8.4419
 30
0.0
 10
-3.55599
 20
8.4419
 30
0.0
 10
-3.55599
 20
8.4419
 30
0.0
 10
-2.95835
 20
8.4419
 30
0.0
 10
-2.95835
 20
8.4419
 30
0.0
 10
-2.95835
 20
8.4419
 30
0.0
 10
-2.95835
 20
8.4419
 30
0.0
 10
-2.95835
 20
8.7419
 30
0.0
 10
-2.95835
 20
8.7419
 30
0.0
 10
-2.95835
 20
8.7419
 30
0.0
 10
-2.95835
 20
8.7419
 30
0.0
 10
-3.58063
 20
8.7419
 30
0.0
 10
-3.58063
 20
8.7419
 30
0.0
 10
-3.58063
 20
8.7419
 30
0.0
 10
-3.58063
 20
8.7419
 30
0.0
 10
-3.57408
 20
9.41079
 30
0.0
 10
-3.57408
 20
9.41079
 30
0.0
 10
-3.57408
 20
9.41079
 30
0.0
 10
-3.56854
 20
9.79521
 30
0.0
 10
-3.11177
 20
10.58732
 30
0.0
 10
-2.48387
 20
10.65593
 30
0.0
 10
-2.48387
 20
10.65593
 30
0.0
 10
-2.48387
 20
10.65593
 30
0.0
 10
-2.48387
 20
8.45833
 30
0.0
 10
-2.48387
 20
8.45833
 30
0.0
 10
-2.48387
 20
8.45833
 30
0.0
 10
-2.48387
 20
8.45833
 30
0.0
 10
-2.18387
 20
8.45833
 30
0.0
 10
-2.18387
 20
8.45833
 30
0.0
 10
-2.18387
 20
8.45833
 30
0.0
 10
-2.18387
 20
8.45833
 30
0.0
 10
-2.18387
 20
10.65593
 30
0.0
 10
-2.18387
 20
10.65593
 30
0.0
 10
-2.18387
 20
10.65593
 30
0.0
 10
-1.55594
 20
10.58732
 30
0.0
 10
-1.09921
 20
9.79521
 30
0.0
 10
-1.09365
 20
9.41079
 30
0.0
 10
-1.09365
 20
9.41079
 30
0.0
 10
-1.09365
 20
9.41079
 30
0.0
 10
-1.08712
 20
8.7419
 30
0.0
 10
-1.08712
 20
8.7419
 30
0.0
 10
-1.08712
 20
8.7419
 30
0.0
 10
-1.08712
 20
8.7419
 30
0.0
 10
-1.7094
 20
8.7419
 30
0.0
 10
-1.7094
 20
8.7419
 30
0.0
 10
-1.7094
 20
8.7419
 30
0.0
 10
-1.7094
 20
8.7419
 30
0.0
 10
-1.7094
 20
8.4419
 30
0.0
 10
-1.7094
 20
8.4419
 30
0.0
 10
-1.7094
 20
8.4419
 30
0.0
 10
-1.7094
 20
8.4419
 30
0.0
 10
-1.11175
 20
8.4419
 30
0.0
 10
-1.11175
 20
8.4419
 30
0.0
  0
SPLINE
  5
63
330
1F
100
AcDbEntity
  8
Camada 1
370
     9
100
AcDbSpline
210
0.0
220
0.0
230
1.0
 70
    11
 71
     3
 72
    44
 73
    40
 74
     0
 42
0.0000000001
 43
0.0000000001
 40
0.0
 40
0.0
 40
0.0
 40
0.0
 40
0.0909090909090909
 40
0.0909090909090909
 40
0.0909090909090909
 40
0.0909090909090909
 40
0.1818181818181818
 40
0.1818181818181818
 40
0.1818181818181818
 40
0.1818181818181818
 40
0.2727272727272727
 40
0.2727272727272727
 40
0.2727272727272727
 40
0.2727272727272727
 40
0.3636363636363636
 40
0.3636363636363636
 40
0.3636363636363636
 40
0.3636363636363636
 40
0.4545454545454545
 40
0.4545454545454545
 40
0.4545454545454545
 40
0.4545454545454545
 40
0.5454545454545454
 40
0.5454545454545454
 40
0.5454545454545454
 40
0.5454545454545454
 40
0.6363636363636364
 40
0.6363636363636364
 40
0.6363636363636364
 40
0.6363636363636364
 40
0.7272727272727273
 40
0.7272727272727273
 40
0.7272727272727273
 40
0.7272727272727273
 40
0.8181818181818182
 40
0.8181818181818182
 40
0.8181818181818182
 40
0.8181818181818182
 40
1.0
 40
1.0
 40
1.0
 40
1.0
 10
-1.65874
 20
5.47761
 30
0.0
 10
-1.65874
 20
5.47761
 30
0.0
 10
-1.65874
 20
3.97486
 30
0.0
 10
-1.65874
 20
3.97486
 30
0.0
 10
-1.65874
 20
3.97486
 30
0.0
 10
-1.65874
 20
3.97486
 30
0.0
 10
-1.95874
 20
3.97486
 30
0.0
 10
-1.95874
 20
3.97486
 30
0.0
 10
-1.95874
 20
3.97486
 30
0.0
 10
-1.95874
 20
3.97486
 30
0.0
 10
-1.95874
 20
5.47761
 30
0.0
 10
-1.95874
 20
5.47761
 30
0.0
 10
-1.95874
 20
5.47761
 30
0.0
 10
-2.37309
 20
5.47695
 30
0.0
 10
-2.8455
 20
5.00151
 30
0.0
 10
-2.8455
 20
4.60354
 30
0.0
 10
-2.8455
 20
4.60354
 30
0.0
 10
-2.8455
 20
4.60354
 30
0.0
 10
-2.8455
 20
4.00797
 30
0.0
 10
-2.8455
 20
4.00797
 30
0.0
 10
-2.8455
 20
4.00797
 30
0.0
 10
-2.8244
 20
3.51796
 30
0.0
 10
-2.63684
 20
3.39558
 30
0.0
 10
-2.23099
 20
3.39668
 30
0.0
 10
-2.23099
 20
3.39668
 30
0.0
 10
-2.23099
 20
3.39668
 30
0.0
 10
-1.38651
 20
3.39668
 30
0.0
 10
-1.38651
 20
3.39668
 30
0.0
 10
-1.38651
 20
3.39668
 30
0.0
 10
-0.98067
 20
3.39558
 30
0.0
 10
-0.7931
 20
3.51796
 30
0.0
 10
-0.77201
 20
4.00797
 30
0.0
 10
-0.77201
 20
4.00797
 30
0.0
 10
-0.77201
 20
4.00797
 30
0.0
 10
-0.77201
 20
4.60354
 30
0.0
 10
-0.77201
 20
4.60354
 30
0.0
 10
-0.77201
 20
4.60354
 30
0.0
 10
-0.77201
 20
5.00151
 30
0.0
 10
-1.24441
 20
5.47695
 30
0.0
 10
-1.65874
 20
5.47761
 30
0.0
  0
SPLINE
  5
64
330
1F
100
AcDbEntity
  8
Camada 1
370
     9
100
AcDbSpline
210
0.0
220
0.0
230
1.0
 70
    11
 71
     3
 72
    28
 73
    24
 74
     0
 42
0.0000000001
 43
0.0000000001
 40
0.0
 40
0.0
 40
0.0
 40
0.0
 40
0.1428571428571428
 40
0.1428571428571428
 40
0.1428571428571428
 40
0.1428571428571428
 40
0.2857142857142857
 40
0.2857142857142857
 40
0.2857142857142857
 40
0.2857142857142857
 40
0.4285714285714285
 40
0.4285714285714285
 40
0.4285714285714285
 40
0.4285714285714285
 40
0.5714285714285714
 40
0.5714285714285714
 40
0.5714285714285714
 40
0.5714285714285714
 40
0.7142857142857143
 40
0.7142857142857143
 40
0.7142857142857143
 40
0.7142857142857143
 40
1.0
 40
1.0
 40
1.0
 40
1.0
 10
2.1944
 20
5.08971
 30
0.0
 10
3.04159
 20
4.58054
 30
0.0
 10
4.00896
 20
3.66876
 30
0.0
 10
4.95427
 20
4.60676
 30
0.0
 10
4.95427
 20
4.60676
 30
0.0
 10
4.95427
 20
4.60676
 30
0.0
 10
5.95531
 20
4.60676
 30
0.0
 10
5.95531
 20
4.60676
 30
0.0
 10
5.95531
 20
4.60676
 30
0.0
 10
5.95531
 20
4.60676
 30
0.0
 10
5.95531
 20
5.04924
 30
0.0
 10
5.95531
 20
5.04924
 30
0.0
 10
5.95531
 20
5.04924
 30
0.0
 10
5.95531
 20
5.04924
 30
0.0
 10
4.95797
 20
5.03877
 30
0.0
 10
4.95797
 20
5.03877
 30
0.0
 10
4.95797
 20
5.03877
 30
0.0
 10
3.96211
 20
3.9892
 30
0.0
 10
2.8858
 20
5.14925
 30
0.0
 10
2.1944
 20
5.48919
 30
0.0
 10
2.1944
 20
5.48919
 30
0.0
 10
2.1944
 20
5.48919
 30
0.0
 10
2.1944
 20
5.08971
 30
0.0
 10
2.1944
 20
5.08971
 30
0.0
  0
SPLINE
  5
65
330
1F
100
AcDbEntity
  8
Camada 1
370
     9
100
AcDbSpline
210
0.0
220
0.0
230
1.0
 70
    11
 71
     3
 72
    28
 73
    24
 74
     0
 42
0.0000000001
 43
0.0000000001
 40
0.0
 40
0.0
 40
0.0
 40
0.0
 40
0.1428571428571428
 40
0.1428571428571428
 40
0.1428571428571428
 40
0.1428571428571428
 40
0.2857142857142857
 40
0.2857142857142857
 40
0.2857142857142857
 40
0.2857142857142857
 40
0.4285714285714285
 40
0.4285714285714285
 40
0.4285714285714285
 40
0.4285714285714285
 40
0.5714285714285714
 40
0.5714285714285714
 40
0.5714285714285714
 40
0.5714285714285714
 40
0.7142857142857143
 40
0.7142857142857143
 40
0.7142857142857143
 40
0.7142857142857143
 40
1.0
 40
1.0
 40
1.0
 40
1.0
 10
0.74514
 20
5.41413
 30
0.0
 10
1.59234
 20
5.92331
 30
0.0
 10
2.5597
 20
6.83508
 30
0.0
 10
3.50501
 20
5.89707
 30
0.0
 10
3.50501
 20
5.89707
 30
0.0
 10
3.50501
 20
5.89707
 30
0.0
 10
4.50604
 20
5.89707
 30
0.0
 10
4.50604
 20
5.89707
 30
0.0
 10
4.50604
 20
5.89707
 30
0.0
 10
4.50604
 20
5.89707
 30
0.0
 10
4.50604
 20
5.45462
 30
0.0
 10
4.50604
 20
5.45462
 30
0.0
 10
4.50604
 20
5.45462
 30
0.0
 10
4.50604
 20
5.45462
 30
0.0
 10
3.50872
 20
5.46506
 30
0.0
 10
3.50872
 20
5.46506
 30
0.0
 10
3.50872
 20
5.46506
 30
0.0
 10
2.51285
 20
6.51464
 30
0.0
 10
1.43654
 20
5.3546
 30
0.0
 10
0.74514
 20
5.01464
 30
0.0
 10
0.74514
 20
5.01464
 30
0.0
 10
0.74514
 20
5.01464
 30
0.0
 10
0.74514
 20
5.41413
 30
0.0
 10
0.74514
 20
5.41413
 30
0.0
  0
SPLINE
  5
66
330
1F
100
AcDbEntity
  8
Camada 1
370
     9
100
AcDbSpline
210
0.0
220
0.0
230
1.0
 70
    11
 71
     3
 72
    44
 73
    40
 74
     0
 42
0.0000000001
 43
0.0000000001
 40
0.0
 40
0.0
 40
0.0
 40
0.0
 40
0.0909090909090909
 40
0.0909090909090909
 40
0.0909090909090909
 40
0.0909090909090909
 40
0.1818181818181818
 40
0.1818181818181818
 40
0.1818181818181818
 40
0.1818181818181818
 40
0.2727272727272727
 40
0.2727272727272727
 40
0.2727272727272727
 40
0.2727272727272727
 40
0.3636363636363636
 40
0.3636363636363636
 40
0.3636363636363636
 40
0.3636363636363636
 40
0.4545454545454545
 40
0.4545454545454545
 40
0.4545454545454545
 40
0.4545454545454545
 40
0.5454545454545454
 40
0.5454545454545454
 40
0.5454545454545454
 40
0.5454545454545454
 40
0.6363636363636364
 40
0.6363636363636364
 40
0.6363636363636364
 40
0.6363636363636364
 40
0.7272727272727273
 40
0.7272727272727273
 40
0.7272727272727273
 40
0.7272727272727273
 40
0.8181818181818182
 40
0.8181818181818182
 40
0.8181818181818182
 40
0.8181818181818182
 40
1.0
 40
1.0
 40
1.0
 40
1.0
 10
2.73248
 20
7.64372
 30
0.0
 10
2.94753
 20
7.25398
 30
0.0
 10
3.31891
 20
6.99985
 30
0.0
 10
3.82923
 20
6.97946
 30
0.0
 10
3.82923
 20
6.97946
 30
0.0
 10
3.82923
 20
6.97946
 30
0.0
 10
3.82923
 20
7.63762
 30
0.0
 10
3.82923
 20
7.63762
 30
0.0
 10
3.82923
 20
7.63762
 30
0.0
 10
3.82923
 20
7.63762
 30
0.0
 10
4.19361
 20
7.63762
 30
0.0
 10
4.19361
 20
7.63762
 30
0.0
 10
4.19361
 20
7.63762
 30
0.0
 10
4.19361
 20
7.63762
 30
0.0
 10
4.19361
 20
7.94982
 30
0.0
 10
4.19361
 20
7.94982
 30
0.0
 10
4.19361
 20
7.94982
 30
0.0
 10
4.19361
 20
7.94982
 30
0.0
 10
3.82923
 20
7.94982
 30
0.0
 10
3.82923
 20
7.94982
 30
0.0
 10
3.82923
 20
7.94982
 30
0.0
 10
3.82923
 20
7.94982
 30
0.0
 10
3.82923
 20
8.60798
 30
0.0
 10
3.82923
 20
8.60798
 30
0.0
 10
3.82923
 20
8.60798
 30
0.0
 10
3.31891
 20
8.5876
 30
0.0
 10
2.94753
 20
8.33346
 30
0.0
 10
2.73248
 20
7.94372
 30
0.0
 10
2.73248
 20
7.94372
 30
0.0
 10
2.73248
 20
7.94372
 30
0.0
 10
3.35771
 20
7.94372
 30
0.0
 10
3.35771
 20
7.94372
 30
0.0
 10
3.35771
 20
7.94372
 30
0.0
 10
3.35771
 20
7.94372
 30
0.0
 10
3.35771
 20
7.64372
 30
0.0
 10
3.35771
 20
7.64372
 30
0.0
 10
3.35771
 20
7.64372
 30
0.0
 10
3.35771
 20
7.64372
 30
0.0
 10
2.73248
 20
7.64372
 30
0.0
 10
2.73248
 20
7.64372
 30
0.0
  0
SPLINE
  5
67
330
1F
100
AcDbEntity
  8
Camada 1
370
     9
100
AcDbSpline
210
0.0
220
0.0
230
1.0
 70
    11
 71
     3
 72
    20
 73
    16
 74
     0
 42
0.0000000001
 43
0.0000000001
 40
0.0
 40
0.0
 40
0.0
 40
0.0
 40
0.2
 40
0.2
 40
0.2
 40
0.2
 40
0.4
 40
0.4
 40
0.4
 40
0.4
 40
0.6
 40
0.6
 40
0.6
 40
0.6
 40
1.0
 40
1.0
 40
1.0
 40
1.0
 10
4.92005
 20
15.36485
 30
0.0
 10
4.92005
 20
15.90431
 30
0.0
 10
5.35735
 20
16.34161
 30
0.0
 10
5.89679
 20
16.34161
 30
0.0
 10
5.89679
 20
16.34161
 30
0.0
 10
6.43626
 20
16.34161
 30
0.0
 10
6.87357
 20
15.90431
 30
0.0
 10
6.87357
 20
15.36485
 30
0.0
 10
6.87357
 20
15.36485
 30
0.0
 10
6.87357
 20
14.8254
 30
0.0
 10
6.43626
 20
14.38809
 30
0.0
 10
5.89679
 20
14.38809
 30
0.0
 10
5.89679
 20
14.38809
 30
0.0
 10
5.35735
 20
14.38809
 30
0.0
 10
4.92005
 20
14.8254
 30
0.0
 10
4.92005
 20
15.36485
 30
0.0
  0
SPLINE
  5
68
330
1F
100
AcDbEntity
  8
Camada 1
370
     9
100
AcDbSpline
210
0.0
220
0.0
230
1.0
 70
    11
 71
     3
 72
    20
 73
    16
 74
     0
 42
0.0000000001
 43
0.0000000001
 40
0.0
 40
0.0
 40
0.0
 40
0.0
 40
0.2
 40
0.2
 40
0.2
 40
0.2
 40
0.4
 40
0.4
 40
0.4
 40
0.4
 40
0.6
 40
0.6
 40
0.6
 40
0.6
 40
1.0
 40
1.0
 40
1.0
 40
1.0
 10
5.63681
 20
15.36485
 30
0.0
 10
5.63681
 20
15.50844
 30
0.0
 10
5.75321
 20
15.62486
 30
0.0
 10
5.89679
 20
15.62486
 30
0.0
 10
5.89679
 20
15.62486
 30
0.0
 10
6.04041
 20
15.62486
 30
0.0
 10
6.15681
 20
15.50844
 30
0.0
 10
6.15681
 20
15.36485
 30
0.0
 10
6.15681
 20
15.36485
 30
0.0
 10
6.15681
 20
15.22125
 30
0.0
 10
6.04041
 20
15.10485
 30
0.0
 10
5.89679
 20
15.10485
 30
0.0
 10
5.89679
 20
15.10485
 30
0.0
 10
5.75321
 20
15.10485
 30
0.0
 10
5.63681
 20
15.22125
 30
0.0
 10
5.63681
 20
15.36485
 30
0.0
  0
SPLINE
  5
69
330
1F
100
AcDbEntity
  8
Camada 1
370
     9
100
AcDbSpline
210
0.0
220
0.0
230
1.0
 70
    11
 71
     3
 72
    20
 73
    16
 74
     0
 42
0.0000000001
 43
0.0000000001
 40
0.0
 40
0.0
 40
0.0
 40
0.0
 40
0.2
 40
0.2
 40
0.2
 40
0.2
 40
0.4
 40
0.4
 40
0.4
 40
0.4
 40
0.6
 40
0.6
 40
0.6
 40
0.6
 40
1.0
 40
1.0
 40
1.0
 40
1.0
 10
1.41245
 20
15.48358
 30
0.0
 10
1.41245
 20
16.02305
 30
0.0
 10
1.84975
 20
16.46032
 30
0.0
 10
2.38921
 20
16.46032
 30
0.0
 10
2.38921
 20
16.46032
 30
0.0
 10
2.92866
 20
16.46032
 30
0.0
 10
3.36597
 20
16.02305
 30
0.0
 10
3.36597
 20
15.48358
 30
0.0
 10
3.36597
 20
15.48358
 30
0.0
 10
3.36597
 20
14.94414
 30
0.0
 10
2.92866
 20
14.50682
 30
0.0
 10
2.38921
 20
14.50682
 30
0.0
 10
2.38921
 20
14.50682
 30
0.0
 10
1.84975
 20
14.50682
 30
0.0
 10
1.41245
 20
14.94414
 30
0.0
 10
1.41245
 20
15.48358
 30
0.0
  0
SPLINE
  5
6A
330
1F
100
AcDbEntity
  8
Camada 1
370
     9
100
AcDbSpline
210
0.0
220
0.0
230
1.0
 70
    11
 71
     3
 72
    20
 73
    16
 74
     0
 42
0.0000000001
 43
0.0000000001
 40
0.0
 40
0.0
 40
0.0
 40
0.0
 40
0.2
 40
0.2
 40
0.2
 40
0.2
 40
0.4
 40
0.4
 40
0.4
 40
0.4
 40
0.6
 40
0.6
 40
0.6
 40
0.6
 40
1.0
 40
1.0
 40
1.0
 40
1.0
 10
2.1292
 20
15.48358
 30
0.0
 10
2.1292
 20
15.62717
 30
0.0
 10
2.24561
 20
15.74357
 30
0.0
 10
2.38921
 20
15.74357
 30
0.0
 10
2.38921
 20
15.74357
 30
0.0
 10
2.53281
 20
15.74357
 30
0.0
 10
2.6492
 20
15.62717
 30
0.0
 10
2.6492
 20
15.48358
 30
0.0
 10
2.6492
 20
15.48358
 30
0.0
 10
2.6492
 20
15.34
 30
0.0
 10
2.53281
 20
15.22359
 30
0.0
 10
2.38921
 20
15.22359
 30
0.0
 10
2.38921
 20
15.22359
 30
0.0
 10
2.24561
 20
15.22359
 30
0.0
 10
2.1292
 20
15.34
 30
0.0
 10
2.1292
 20
15.48358
 30
0.0
  0
SPLINE
  5
6B
330
1F
100
AcDbEntity
  8
Camada 1
370
     9
100
AcDbSpline
210
0.0
220
0.0
230
1.0
 70
    11
 71
     3
 72
    52
 73
    48
 74
     0
 42
0.0000000001
 43
0.0000000001
 40
0.0
 40
0.0
 40
0.0
 40
0.0
 40
0.0769230769230769
 40
0.0769230769230769
 40
0.0769230769230769
 40
0.0769230769230769
 40
0.1538461538461539
 40
0.1538461538461539
 40
0.1538461538461539
 40
0.1538461538461539
 40
0.2307692307692308
 40
0.2307692307692308
 40
0.2307692307692308
 40
0.2307692307692308
 40
0.3076923076923077
 40
0.3076923076923077
 40
0.3076923076923077
 40
0.3076923076923077
 40
0.3846153846153846
 40
0.3846153846153846
 40
0.3846153846153846
 40
0.3846153846153846
 40
0.4615384615384616
 40
0.4615384615384616
 40
0.4615384615384616
 40
0.4615384615384616
 40
0.5384615384615384
 40
0.5384615384615384
 40
0.5384615384615384
 40
0.5384615384615384
 40
0.6153846153846154
 40
0.6153846153846154
 40
0.6153846153846154
 40
0.6153846153846154
 40
0.6923076923076923
 40
0.6923076923076923
 40
0.6923076923076923
 40
0.6923076923076923
 40
0.7692307692307693
 40
0.7692307692307693
 40
0.7692307692307693
 40
0.7692307692307693
 40
0.8461538461538461
 40
0.8461538461538461
 40
0.8461538461538461
 40
0.8461538461538461
 40
1.0
 40
1.0
 40
1.0
 40
1.0
 10
3.48511
 20
17.63029
 30
0.0
 10
3.48511
 20
17.63029
 30
0.0
 10
3.48511
 20
17.14361
 30
0.0
 10
3.48511
 20
17.14361
 30
0.0
 10
3.48511
 20
17.14361
 30
0.0
 10
3.48511
 20
17.14361
 30
0.0
 10
0.7486
 20
17.14361
 30
0.0
 10
0.7486
 20
17.14361
 30
0.0
 10
0.7486
 20
17.14361
 30
0.0
 10
0.7486
 20
17.14361
 30
0.0
 10
0.7486
 20
20.04913
 30
0.0
 10
0.7486
 20
20.04913
 30
0.0
 10
0.7486
 20
20.04913
 30
0.0
 10
0.7486
 20
20.04913
 30
0.0
 10
3.48511
 20
20.04913
 30
0.0
 10
3.48511
 20
20.04913
 30
0.0
 10
3.48511
 20
20.04913
 30
0.0
 10
3.48511
 20
20.04913
 30
0.0
 10
3.48511
 20
19.56245
 30
0.0
 10
3.48511
 20
19.56245
 30
0.0
 10
3.48511
 20
19.56245
 30
0.0
 10
3.48511
 20
19.56245
 30
0.0
 10
2.12083
 20
19.56245
 30
0.0
 10
2.12083
 20
19.56245
 30
0.0
 10
2.12083
 20
19.56245
 30
0.0
 10
2.12083
 20
19.56245
 30
0.0
 10
2.12083
 20
19.26245
 30
0.0
 10
2.12083
 20
19.26245
 30
0.0
 10
2.12083
 20
19.26245
 30
0.0
 10
2.12083
 20
19.26245
 30
0.0
 10
3.48511
 20
19.26245
 30
0.0
 10
3.48511
 20
19.26245
 30
0.0
 10
3.48511
 20
19.26245
 30
0.0
 10
3.48511
 20
19.26245
 30
0.0
 10
3.48511
 20
17.93029
 30
0.0
 10
3.48511
 20
17.93029
 30
0.0
 10
3.48511
 20
17.93029
 30
0.0
 10
3.48511
 20
17.93029
 30
0.0
 10
2.12083
 20
17.93029
 30
0.0
 10
2.12083
 20
17.93029
 30
0.0
 10
2.12083
 20
17.93029
 30
0.0
 10
2.12083
 20
17.93029
 30
0.0
 10
2.12083
 20
17.63029
 30
0.0
 10
2.12083
 20
17.63029
 30
0.0
 10
2.12083
 20
17.63029
 30
0.0
 10
2.12083
 20
17.63029
 30
0.0
 10
3.48511
 20
17.63029
 30
0.0
 10
3.48511
 20
17.63029
 30
0.0
  0
SPLINE
  5
6C
330
1F
100
AcDbEntity
  8
Camada 1
370
     9
100
AcDbSpline
210
0.0
220
0.0
230
1.0
 70
    11
 71
     3
 72
    44
 73
    40
 74
     0
 42
0.0000000001
 43
0.0000000001
 40
0.0
 40
0.0
 40
0.0
 40
0.0
 40
0.0909090909090909
 40
0.0909090909090909
 40
0.0909090909090909
 40
0.0909090909090909
 40
0.1818181818181818
 40
0.1818181818181818
 40
0.1818181818181818
 40
0.1818181818181818
 40
0.2727272727272727
 40
0.2727272727272727
 40
0.2727272727272727
 40
0.2727272727272727
 40
0.3636363636363636
 40
0.3636363636363636
 40
0.3636363636363636
 40
0.3636363636363636
 40
0.4545454545454545
 40
0.4545454545454545
 40
0.4545454545454545
 40
0.4545454545454545
 40
0.5454545454545454
 40
0.5454545454545454
 40
0.5454545454545454
 40
0.5454545454545454
 40
0.6363636363636364
 40
0.6363636363636364
 40
0.6363636363636364
 40
0.6363636363636364
 40
0.7272727272727273
 40
0.7272727272727273
 40
0.7272727272727273
 40
0.7272727272727273
 40
0.8181818181818182
 40
0.8181818181818182
 40
0.8181818181818182
 40
0.8181818181818182
 40
1.0
 40
1.0
 40
1.0
 40
1.0
 10
-1.17078
 20
19.65979
 30
0.0
 10
-1.17078
 20
19.65979
 30
0.0
 10
-1.17078
 20
17.76574
 30
0.0
 10
-1.17078
 20
17.76574
 30
0.0
 10
-1.17078
 20
17.76574
 30
0.0
 10
-1.17078
 20
17.76574
 30
0.0
 10
-1.47078
 20
17.76574
 30
0.0
 10
-1.47078
 20
17.76574
 30
0.0
 10
-1.47078
 20
17.76574
 30
0.0
 10
-1.47078
 20
17.76574
 30
0.0
 10
-1.47078
 20
19.65979
 30
0.0
 10
-1.47078
 20
19.65979
 30
0.0
 10
-1.47078
 20
19.65979
 30
0.0
 10
-1.91326
 20
19.65897
 30
0.0
 10
-2.42794
 20
19.15731
 30
0.0
 10
-2.42794
 20
18.66422
 30
0.0
 10
-2.42794
 20
18.66422
 30
0.0
 10
-2.42794
 20
18.66422
 30
0.0
 10
-2.42794
 20
17.92634
 30
0.0
 10
-2.42794
 20
17.92634
 30
0.0
 10
-2.42794
 20
17.92634
 30
0.0
 10
-2.40542
 20
17.31922
 30
0.0
 10
-2.2051
 20
17.08827
 30
0.0
 10
-1.7717
 20
17.08965
 30
0.0
 10
-1.7717
 20
17.08965
 30
0.0
 10
-1.7717
 20
17.08965
 30
0.0
 10
-0.86987
 20
17.08965
 30
0.0
 10
-0.86987
 20
17.08965
 30
0.0
 10
-0.86987
 20
17.08965
 30
0.0
 10
-0.43647
 20
17.08827
 30
0.0
 10
-0.23614
 20
17.31922
 30
0.0
 10
-0.21362
 20
17.92634
 30
0.0
 10
-0.21362
 20
17.92634
 30
0.0
 10
-0.21362
 20
17.92634
 30
0.0
 10
-0.21362
 20
18.66422
 30
0.0
 10
-0.21362
 20
18.66422
 30
0.0
 10
-0.21362
 20
18.66422
 30
0.0
 10
-0.21362
 20
19.1573
 30
0.0
 10
-0.7283
 20
19.65897
 30
0.0
 10
-1.17078
 20
19.65979
 30
0.0
  0
SPLINE
  5
6D
330
1F
100
AcDbEntity
  8
Camada 1
370
     9
100
AcDbSpline
210
0.0
220
0.0
230
1.0
 70
    11
 71
     3
 72
    68
 73
    64
 74
     0
 42
0.0000000001
 43
0.0000000001
 40
0.0
 40
0.0
 40
0.0
 40
0.0
 40
0.0588235294117647
 40
0.0588235294117647
 40
0.0588235294117647
 40
0.0588235294117647
 40
0.1176470588235294
 40
0.1176470588235294
 40
0.1176470588235294
 40
0.1176470588235294
 40
0.1764705882352941
 40
0.1764705882352941
 40
0.1764705882352941
 40
0.1764705882352941
 40
0.2352941176470588
 40
0.2352941176470588
 40
0.2352941176470588
 40
0.2352941176470588
 40
0.2941176470588235
 40
0.2941176470588235
 40
0.2941176470588235
 40
0.2941176470588235
 40
0.3529411764705883
 40
0.3529411764705883
 40
0.3529411764705883
 40
0.3529411764705883
 40
0.4117647058823529
 40
0.4117647058823529
 40
0.4117647058823529
 40
0.4117647058823529
 40
0.4705882352941176
 40
0.4705882352941176
 40
0.4705882352941176
 40
0.4705882352941176
 40
0.5294117647058824
 40
0.5294117647058824
 40
0.5294117647058824
 40
0.5294117647058824
 40
0.5882352941176471
 40
0.5882352941176471
 40
0.5882352941176471
 40
0.5882352941176471
 40
0.6470588235294118
 40
0.6470588235294118
 40
0.6470588235294118
 40
0.6470588235294118
 40
0.7058823529411765
 40
0.7058823529411765
 40
0.7058823529411765
 40
0.7058823529411765
 40
0.7647058823529411
 40
0.7647058823529411
 40
0.7647058823529411
 40
0.7647058823529411
 40
0.8235294117647058
 40
0.8235294117647058
 40
0.8235294117647058
 40
0.8235294117647058
 40
0.8823529411764706
 40
0.8823529411764706
 40
0.8823529411764706
 40
0.8823529411764706
 40
1.0
 40
1.0
 40
1.0
 40
1.0
 10
-3.39793
 20
17.40148
 30
0.0
 10
-3.38403
 20
17.05826
 30
0.0
 10
-3.70798
 20
16.61525
 30
0.0
 10
-4.34589
 20
16.62398
 30
0.0
 10
-4.34589
 20
16.62398
 30
0.0
 10
-4.34589
 20
16.62398
 30
0.0
 10
-5.01947
 20
16.62398
 30
0.0
 10
-5.01947
 20
16.62398
 30
0.0
 10
-5.01947
 20
16.62398
 30
0.0
 10
-5.65738
 20
16.61525
 30
0.0
 10
-5.98133
 20
17.05826
 30
0.0
 10
-5.96744
 20
17.40148
 30
0.0
 10
-5.96744
 20
17.40148
 30
0.0
 10
-5.96744
 20
17.40148
 30
0.0
 10
-5.33916
 20
17.40148
 30
0.0
 10
-5.33916
 20
17.40148
 30
0.0
 10
-5.33916
 20
17.40148
 30
0.0
 10
-5.33916
 20
17.40148
 30
0.0
 10
-5.33916
 20
17.70148
 30
0.0
 10
-5.33916
 20
17.70148
 30
0.0
 10
-5.33916
 20
17.70148
 30
0.0
 10
-5.33916
 20
17.70148
 30
0.0
 10
-5.99335
 20
17.70148
 30
0.0
 10
-5.99335
 20
17.70148
 30
0.0
 10
-5.99335
 20
17.70148
 30
0.0
 10
-5.99335
 20
17.70148
 30
0.0
 10
-5.98646
 20
18.43506
 30
0.0
 10
-5.98646
 20
18.43506
 30
0.0
 10
-5.98646
 20
18.43506
 30
0.0
 10
-5.98064
 20
18.84987
 30
0.0
 10
-5.49278
 20
19.70455
 30
0.0
 10
-4.83267
 20
19.77857
 30
0.0
 10
-4.83267
 20
19.77857
 30
0.0
 10
-4.83267
 20
19.77857
 30
0.0
 10
-4.83267
 20
17.40736
 30
0.0
 10
-4.83267
 20
17.40736
 30
0.0
 10
-4.83267
 20
17.40736
 30
0.0
 10
-4.83267
 20
17.40736
 30
0.0
 10
-4.53267
 20
17.40736
 30
0.0
 10
-4.53267
 20
17.40736
 30
0.0
 10
-4.53267
 20
17.40736
 30
0.0
 10
-4.53267
 20
17.40736
 30
0.0
 10
-4.53267
 20
19.77857
 30
0.0
 10
-4.53267
 20
19.77857
 30
0.0
 10
-4.53267
 20
19.77857
 30
0.0
 10
-3.87257
 20
19.70455
 30
0.0
 10
-3.38473
 20
18.84987
 30
0.0
 10
-3.37891
 20
18.43506
 30
0.0
 10
-3.37891
 20
18.43506
 30
0.0
 10
-3.37891
 20
18.43506
 30
0.0
 10
-3.37203
 20
17.70148
 30
0.0
 10
-3.37203
 20
17.70148
 30
0.0
 10
-3.37203
 20
17.70148
 30
0.0
 10
-3.37203
 20
17.70148
 30
0.0
 10
-4.0262
 20
17.70148
 30
0.0
 10
-4.0262
 20
17.70148
 30
0.0
 10
-4.0262
 20
17.70148
 30
0.0
 10
-4.0262
 20
17.70148
 30
0.0
 10
-4.0262
 20
17.40148
 30
0.0
 10
-4.0262
 20
17.40148
 30
0.0
 10
-4.0262
 20
17.40148
 30
0.0
 10
-4.0262
 20
17.40148
 30
0.0
 10
-3.39793
 20
17.40148
 30
0.0
 10
-3.39793
 20
17.40148
 30
0.0
  0
SPLINE
  5
6E
330
1F
100
AcDbEntity
  8
Camada 1
370
     9
100
AcDbSpline
210
0.0
220
0.0
230
1.0
 70
    11
 71
     3
 72
    68
 73
    64
 74
     0
 42
0.0000000001
 43
0.0000000001
 40
0.0
 40
0.0
 40
0.0
 40
0.0
 40
0.0588235294117647
 40
0.0588235294117647
 40
0.0588235294117647
 40
0.0588235294117647
 40
0.1176470588235294
 40
0.1176470588235294
 40
0.1176470588235294
 40
0.1176470588235294
 40
0.1764705882352941
 40
0.1764705882352941
 40
0.1764705882352941
 40
0.1764705882352941
 40
0.2352941176470588
 40
0.2352941176470588
 40
0.2352941176470588
 40
0.2352941176470588
 40
0.2941176470588235
 40
0.2941176470588235
 40
0.2941176470588235
 40
0.2941176470588235
 40
0.3529411764705883
 40
0.3529411764705883
 40
0.3529411764705883
 40
0.3529411764705883
 40
0.4117647058823529
 40
0.4117647058823529
 40
0.4117647058823529
 40
0.4117647058823529
 40
0.4705882352941176
 40
0.4705882352941176
 40
0.4705882352941176
 40
0.4705882352941176
 40
0.5294117647058824
 40
0.5294117647058824
 40
0.5294117647058824
 40
0.5294117647058824
 40
0.5882352941176471
 40
0.5882352941176471
 40
0.5882352941176471
 40
0.5882352941176471
 40
0.6470588235294118
 40
0.6470588235294118
 40
0.6470588235294118
 40
0.6470588235294118
 40
0.7058823529411765
 40
0.7058823529411765
 40
0.7058823529411765
 40
0.7058823529411765
 40
0.7647058823529411
 40
0.7647058823529411
 40
0.7647058823529411
 40
0.7647058823529411
 40
0.8235294117647058
 40
0.8235294117647058
 40
0.8235294117647058
 40
0.8235294117647058
 40
0.8823529411764706
 40
0.8823529411764706
 40
0.8823529411764706
 40
0.8823529411764706
 40
1.0
 40
1.0
 40
1.0
 40
1.0
 10
-6.92363
 20
17.27858
 30
0.0
 10
-6.91055
 20
16.95786
 30
0.0
 10
-7.21517
 20
16.55377
 30
0.0
 10
-7.81502
 20
16.56189
 30
0.0
 10
-7.81502
 20
16.56189
 30
0.0
 10
-7.81502
 20
16.56189
 30
0.0
 10
-8.44845
 20
16.56189
 30
0.0
 10
-8.44845
 20
16.56189
 30
0.0
 10
-8.44845
 20
16.56189
 30
0.0
 10
-9.04831
 20
16.55377
 30
0.0
 10
-9.35293
 20
16.95786
 30
0.0
 10
-9.33985
 20
17.27858
 30
0.0
 10
-9.33985
 20
17.27858
 30
0.0
 10
-9.33985
 20
17.27858
 30
0.0
 10
-8.74906
 20
17.27858
 30
0.0
 10
-8.74906
 20
17.27858
 30
0.0
 10
-8.74906
 20
17.27858
 30
0.0
 10
-8.74906
 20
17.27858
 30
0.0
 10
-8.74906
 20
17.57858
 30
0.0
 10
-8.74906
 20
17.57858
 30
0.0
 10
-8.74906
 20
17.57858
 30
0.0
 10
-8.74906
 20
17.57858
 30
0.0
 10
-9.36423
 20
17.57858
 30
0.0
 10
-9.36423
 20
17.57858
 30
0.0
 10
-9.36423
 20
17.57858
 30
0.0
 10
-9.36423
 20
17.57858
 30
0.0
 10
-9.35776
 20
18.2542
 30
0.0
 10
-9.35776
 20
18.2542
 30
0.0
 10
-9.35776
 20
18.2542
 30
0.0
 10
-9.35227
 20
18.64177
 30
0.0
 10
-8.90245
 20
19.4404
 30
0.0
 10
-8.28174
 20
19.50957
 30
0.0
 10
-8.28174
 20
19.50957
 30
0.0
 10
-8.28174
 20
19.50957
 30
0.0
 10
-8.28174
 20
17.31691
 30
0.0
 10
-8.28174
 20
17.31691
 30
0.0
 10
-8.28174
 20
17.31691
 30
0.0
 10
-8.28174
 20
17.31691
 30
0.0
 10
-7.98174
 20
17.31691
 30
0.0
 10
-7.98174
 20
17.31691
 30
0.0
 10
-7.98174
 20
17.31691
 30
0.0
 10
-7.98174
 20
17.31691
 30
0.0
 10
-7.98174
 20
19.50957
 30
0.0
 10
-7.98174
 20
19.50957
 30
0.0
 10
-7.98174
 20
19.50957
 30
0.0
 10
-7.36101
 20
19.4404
 30
0.0
 10
-6.91121
 20
18.64177
 30
0.0
 10
-6.90573
 20
18.2542
 30
0.0
 10
-6.90573
 20
18.2542
 30
0.0
 10
-6.90573
 20
18.2542
 30
0.0
 10
-6.89927
 20
17.57858
 30
0.0
 10
-6.89927
 20
17.57858
 30
0.0
 10
-6.89927
 20
17.57858
 30
0.0
 10
-6.89927
 20
17.57858
 30
0.0
 10
-7.51441
 20
17.57858
 30
0.0
 10
-7.51441
 20
17.57858
 30
0.0
 10
-7.51441
 20
17.57858
 30
0.0
 10
-7.51441
 20
17.57858
 30
0.0
 10
-7.51441
 20
17.27858
 30
0.0
 10
-7.51441
 20
17.27858
 30
0.0
 10
-7.51441
 20
17.27858
 30
0.0
 10
-7.51441
 20
17.27858
 30
0.0
 10
-6.92363
 20
17.27858
 30
0.0
 10
-6.92363
 20
17.27858
 30
0.0
  0
SPLINE
  5
6F
330
1F
100
AcDbEntity
  8
Camada 1
370
     9
100
AcDbSpline
210
0.0
220
0.0
230
1.0
 70
    11
 71
     3
 72
    68
 73
    64
 74
     0
 42
0.0000000001
 43
0.0000000001
 40
0.0
 40
0.0
 40
0.0
 40
0.0
 40
0.0588235294117647
 40
0.0588235294117647
 40
0.0588235294117647
 40
0.0588235294117647
 40
0.1176470588235294
 40
0.1176470588235294
 40
0.1176470588235294
 40
0.1176470588235294
 40
0.1764705882352941
 40
0.1764705882352941
 40
0.1764705882352941
 40
0.1764705882352941
 40
0.2352941176470588
 40
0.2352941176470588
 40
0.2352941176470588
 40
0.2352941176470588
 40
0.2941176470588235
 40
0.2941176470588235
 40
0.2941176470588235
 40
0.2941176470588235
 40
0.3529411764705883
 40
0.3529411764705883
 40
0.3529411764705883
 40
0.3529411764705883
 40
0.4117647058823529
 40
0.4117647058823529
 40
0.4117647058823529
 40
0.4117647058823529
 40
0.4705882352941176
 40
0.4705882352941176
 40
0.4705882352941176
 40
0.4705882352941176
 40
0.5294117647058824
 40
0.5294117647058824
 40
0.5294117647058824
 40
0.5294117647058824
 40
0.5882352941176471
 40
0.5882352941176471
 40
0.5882352941176471
 40
0.5882352941176471
 40
0.6470588235294118
 40
0.6470588235294118
 40
0.6470588235294118
 40
0.6470588235294118
 40
0.7058823529411765
 40
0.7058823529411765
 40
0.7058823529411765
 40
0.7058823529411765
 40
0.7647058823529411
 40
0.7647058823529411
 40
0.7647058823529411
 40
0.7647058823529411
 40
0.8235294117647058
 40
0.8235294117647058
 40
0.8235294117647058
 40
0.8235294117647058
 40
0.8823529411764706
 40
0.8823529411764706
 40
0.8823529411764706
 40
0.8823529411764706
 40
1.0
 40
1.0
 40
1.0
 40
1.0
 10
-10.25805
 20
17.57068
 30
0.0
 10
-10.25805
 20
17.57068
 30
0.0
 10
-10.2644
 20
18.18963
 30
0.0
 10
-10.2644
 20
18.18963
 30
0.0
 10
-10.2644
 20
18.18963
 30
0.0
 10
-10.26979
 20
18.55062
 30
0.0
 10
-10.70904
 20
19.29443
 30
0.0
 10
-11.31885
 20
19.35884
 30
0.0
 10
-11.31885
 20
19.35884
 30
0.0
 10
-11.31885
 20
19.35884
 30
0.0
 10
-11.31885
 20
17.31669
 30
0.0
 10
-11.31885
 20
17.31669
 30
0.0
 10
-11.31885
 20
17.31669
 30
0.0
 10
-11.31885
 20
17.31669
 30
0.0
 10
-11.61885
 20
17.31669
 30
0.0
 10
-11.61885
 20
17.31669
 30
0.0
 10
-11.61885
 20
17.31669
 30
0.0
 10
-11.61885
 20
17.31669
 30
0.0
 10
-11.61885
 20
19.35884
 30
0.0
 10
-11.61885
 20
19.35884
 30
0.0
 10
-11.61885
 20
19.35884
 30
0.0
 10
-12.22867
 20
19.29443
 30
0.0
 10
-12.66795
 20
18.55062
 30
0.0
 10
-12.67333
 20
18.18963
 30
0.0
 10
-12.67333
 20
18.18963
 30
0.0
 10
-12.67333
 20
18.18963
 30
0.0
 10
-12.67967
 20
17.57068
 30
0.0
 10
-12.67967
 20
17.57068
 30
0.0
 10
-12.67967
 20
17.57068
 30
0.0
 10
-12.67967
 20
17.57068
 30
0.0
 10
-12.07533
 20
17.57068
 30
0.0
 10
-12.07533
 20
17.57068
 30
0.0
 10
-12.07533
 20
17.57068
 30
0.0
 10
-12.07533
 20
17.57068
 30
0.0
 10
-12.07533
 20
17.27068
 30
0.0
 10
-12.07533
 20
17.27068
 30
0.0
 10
-12.07533
 20
17.27068
 30
0.0
 10
-12.07533
 20
17.27068
 30
0.0
 10
-12.65574
 20
17.27068
 30
0.0
 10
-12.65574
 20
17.27068
 30
0.0
 10
-12.65574
 20
17.27068
 30
0.0
 10
-12.66859
 20
16.97198
 30
0.0
 10
-12.36932
 20
16.60591
 30
0.0
 10
-11.78
 20
16.6135
 30
0.0
 10
-11.78
 20
16.6135
 30
0.0
 10
-11.78
 20
16.6135
 30
0.0
 10
-11.15772
 20
16.6135
 30
0.0
 10
-11.15772
 20
16.6135
 30
0.0
 10
-11.15772
 20
16.6135
 30
0.0
 10
-10.56841
 20
16.60591
 30
0.0
 10
-10.26915
 20
16.97198
 30
0.0
 10
-10.28199
 20
17.27068
 30
0.0
 10
-10.28199
 20
17.27068
 30
0.0
 10
-10.28199
 20
17.27068
 30
0.0
 10
-10.8624
 20
17.27068
 30
0.0
 10
-10.8624
 20
17.27068
 30
0.0
 10
-10.8624
 20
17.27068
 30
0.0
 10
-10.8624
 20
17.27068
 30
0.0
 10
-10.8624
 20
17.57068
 30
0.0
 10
-10.8624
 20
17.57068
 30
0.0
 10
-10.8624
 20
17.57068
 30
0.0
 10
-10.8624
 20
17.57068
 30
0.0
 10
-10.25805
 20
17.57068
 30
0.0
 10
-10.25805
 20
17.57068
 30
0.0
  0
SPLINE
  5
70
330
1F
100
AcDbEntity
  8
Camada 1
370
     9
100
AcDbSpline
210
0.0
220
0.0
230
1.0
 70
    11
 71
     3
 72
    68
 73
    64
 74
     0
 42
0.0000000001
 43
0.0000000001
 40
0.0
 40
0.0
 40
0.0
 40
0.0
 40
0.0588235294117647
 40
0.0588235294117647
 40
0.0588235294117647
 40
0.0588235294117647
 40
0.1176470588235294
 40
0.1176470588235294
 40
0.1176470588235294
 40
0.1176470588235294
 40
0.1764705882352941
 40
0.1764705882352941
 40
0.1764705882352941
 40
0.1764705882352941
 40
0.2352941176470588
 40
0.2352941176470588
 40
0.2352941176470588
 40
0.2352941176470588
 40
0.2941176470588235
 40
0.2941176470588235
 40
0.2941176470588235
 40
0.2941176470588235
 40
0.3529411764705883
 40
0.3529411764705883
 40
0.3529411764705883
 40
0.3529411764705883
 40
0.4117647058823529
 40
0.4117647058823529
 40
0.4117647058823529
 40
0.4117647058823529
 40
0.4705882352941176
 40
0.4705882352941176
 40
0.4705882352941176
 40
0.4705882352941176
 40
0.5294117647058824
 40
0.5294117647058824
 40
0.5294117647058824
 40
0.5294117647058824
 40
0.5882352941176471
 40
0.5882352941176471
 40
0.5882352941176471
 40
0.5882352941176471
 40
0.6470588235294118
 40
0.6470588235294118
 40
0.6470588235294118
 40
0.6470588235294118
 40
0.7058823529411765
 40
0.7058823529411765
 40
0.7058823529411765
 40
0.7058823529411765
 40
0.7647058823529411
 40
0.7647058823529411
 40
0.7647058823529411
 40
0.7647058823529411
 40
0.8235294117647058
 40
0.8235294117647058
 40
0.8235294117647058
 40
0.8235294117647058
 40
0.8823529411764706
 40
0.8823529411764706
 40
0.8823529411764706
 40
0.8823529411764706
 40
1.0
 40
1.0
 40
1.0
 40
1.0
 10
-13.60126
 20
17.22994
 30
0.0
 10
-13.58809
 20
16.89999
 30
0.0
 10
-13.89523
 20
16.47988
 30
0.0
 10
-14.50004
 20
16.48825
 30
0.0
 10
-14.50004
 20
16.48825
 30
0.0
 10
-14.50004
 20
16.48825
 30
0.0
 10
-15.13869
 20
16.48825
 30
0.0
 10
-15.13869
 20
16.48825
 30
0.0
 10
-15.13869
 20
16.48825
 30
0.0
 10
-15.74348
 20
16.47988
 30
0.0
 10
-16.05064
 20
16.89999
 30
0.0
 10
-16.03745
 20
17.22994
 30
0.0
 10
-16.03745
 20
17.22994
 30
0.0
 10
-16.03745
 20
17.22994
 30
0.0
 10
-15.44178
 20
17.22994
 30
0.0
 10
-15.44178
 20
17.22994
 30
0.0
 10
-15.44178
 20
17.22994
 30
0.0
 10
-15.44178
 20
17.22994
 30
0.0
 10
-15.44178
 20
17.52994
 30
0.0
 10
-15.44178
 20
17.52994
 30
0.0
 10
-15.44178
 20
17.52994
 30
0.0
 10
-15.44178
 20
17.52994
 30
0.0
 10
-16.06203
 20
17.52994
 30
0.0
 10
-16.06203
 20
17.52994
 30
0.0
 10
-16.06203
 20
17.52994
 30
0.0
 10
-16.06203
 20
17.52994
 30
0.0
 10
-16.05552
 20
18.2294
 30
0.0
 10
-16.05552
 20
18.2294
 30
0.0
 10
-16.05552
 20
18.2294
 30
0.0
 10
-16.04998
 20
18.62817
 30
0.0
 10
-15.59521
 20
19.44986
 30
0.0
 10
-14.96936
 20
19.52103
 30
0.0
 10
-14.96936
 20
19.52103
 30
0.0
 10
-14.96936
 20
19.52103
 30
0.0
 10
-14.96936
 20
17.26505
 30
0.0
 10
-14.96936
 20
17.26505
 30
0.0
 10
-14.96936
 20
17.26505
 30
0.0
 10
-14.96936
 20
17.26505
 30
0.0
 10
-14.66936
 20
17.26505
 30
0.0
 10
-14.66936
 20
17.26505
 30
0.0
 10
-14.66936
 20
17.26505
 30
0.0
 10
-14.66936
 20
17.26505
 30
0.0
 10
-14.66936
 20
19.52103
 30
0.0
 10
-14.66936
 20
19.52103
 30
0.0
 10
-14.66936
 20
19.52103
 30
0.0
 10
-14.04352
 20
19.44986
 30
0.0
 10
-13.58875
 20
18.62817
 30
0.0
 10
-13.58321
 20
18.2294
 30
0.0
 10
-13.58321
 20
18.2294
 30
0.0
 10
-13.58321
 20
18.2294
 30
0.0
 10
-13.5767
 20
17.52994
 30
0.0
 10
-13.5767
 20
17.52994
 30
0.0
 10
-13.5767
 20
17.52994
 30
0.0
 10
-13.5767
 20
17.52994
 30
0.0
 10
-14.19694
 20
17.52994
 30
0.0
 10
-14.19694
 20
17.52994
 30
0.0
 10
-14.19694
 20
17.52994
 30
0.0
 10
-14.19694
 20
17.52994
 30
0.0
 10
-14.19694
 20
17.22994
 30
0.0
 10
-14.19694
 20
17.22994
 30
0.0
 10
-14.19694
 20
17.22994
 30
0.0
 10
-14.19694
 20
17.22994
 30
0.0
 10
-13.60126
 20
17.22994
 30
0.0
 10
-13.60126
 20
17.22994
 30
0.0
  0
SPLINE
  5
71
330
1F
100
AcDbEntity
  8
Camada 1
370
     9
100
AcDbSpline
210
0.0
220
0.0
230
1.0
 70
    11
 71
     3
 72
    68
 73
    64
 74
     0
 42
0.0000000001
 43
0.0000000001
 40
0.0
 40
0.0
 40
0.0
 40
0.0
 40
0.0588235294117647
 40
0.0588235294117647
 40
0.0588235294117647
 40
0.0588235294117647
 40
0.1176470588235294
 40
0.1176470588235294
 40
0.1176470588235294
 40
0.1176470588235294
 40
0.1764705882352941
 40
0.1764705882352941
 40
0.1764705882352941
 40
0.1764705882352941
 40
0.2352941176470588
 40
0.2352941176470588
 40
0.2352941176470588
 40
0.2352941176470588
 40
0.2941176470588235
 40
0.2941176470588235
 40
0.2941176470588235
 40
0.2941176470588235
 40
0.3529411764705883
 40
0.3529411764705883
 40
0.3529411764705883
 40
0.3529411764705883
 40
0.4117647058823529
 40
0.4117647058823529
 40
0.4117647058823529
 40
0.4117647058823529
 40
0.4705882352941176
 40
0.4705882352941176
 40
0.4705882352941176
 40
0.4705882352941176
 40
0.5294117647058824
 40
0.5294117647058824
 40
0.5294117647058824
 40
0.5294117647058824
 40
0.5882352941176471
 40
0.5882352941176471
 40
0.5882352941176471
 40
0.5882352941176471
 40
0.6470588235294118
 40
0.6470588235294118
 40
0.6470588235294118
 40
0.6470588235294118
 40
0.7058823529411765
 40
0.7058823529411765
 40
0.7058823529411765
 40
0.7058823529411765
 40
0.7647058823529411
 40
0.7647058823529411
 40
0.7647058823529411
 40
0.7647058823529411
 40
0.8235294117647058
 40
0.8235294117647058
 40
0.8235294117647058
 40
0.8235294117647058
 40
0.8823529411764706
 40
0.8823529411764706
 40
0.8823529411764706
 40
0.8823529411764706
 40
1.0
 40
1.0
 40
1.0
 40
1.0
 10
-17.02799
 20
17.20264
 30
0.0
 10
-17.0142
 20
16.85402
 30
0.0
 10
-17.33573
 20
16.40174
 30
0.0
 10
-17.9689
 20
16.4106
 30
0.0
 10
-17.9689
 20
16.4106
 30
0.0
 10
-17.9689
 20
16.4106
 30
0.0
 10
-18.63746
 20
16.4106
 30
0.0
 10
-18.63746
 20
16.4106
 30
0.0
 10
-18.63746
 20
16.4106
 30
0.0
 10
-19.27063
 20
16.40174
 30
0.0
 10
-19.59215
 20
16.85402
 30
0.0
 10
-19.57837
 20
17.20264
 30
0.0
 10
-19.57837
 20
17.20264
 30
0.0
 10
-19.57837
 20
17.20264
 30
0.0
 10
-18.95477
 20
17.20264
 30
0.0
 10
-18.95477
 20
17.20264
 30
0.0
 10
-18.95477
 20
17.20264
 30
0.0
 10
-18.95477
 20
17.20264
 30
0.0
 10
-18.95477
 20
17.50264
 30
0.0
 10
-18.95477
 20
17.50264
 30
0.0
 10
-18.95477
 20
17.50264
 30
0.0
 10
-18.95477
 20
17.50264
 30
0.0
 10
-19.60407
 20
17.50264
 30
0.0
 10
-19.60407
 20
17.50264
 30
0.0
 10
-19.60407
 20
17.50264
 30
0.0
 10
-19.60407
 20
17.50264
 30
0.0
 10
-19.59725
 20
18.25008
 30
0.0
 10
-19.59725
 20
18.25008
 30
0.0
 10
-19.59725
 20
18.25008
 30
0.0
 10
-19.59147
 20
18.67136
 30
0.0
 10
-19.10835
 20
19.53947
 30
0.0
 10
-18.45318
 20
19.61465
 30
0.0
 10
-18.45318
 20
19.61465
 30
0.0
 10
-18.45318
 20
19.61465
 30
0.0
 10
-18.45318
 20
17.23127
 30
0.0
 10
-18.45318
 20
17.23127
 30
0.0
 10
-18.45318
 20
17.23127
 30
0.0
 10
-18.45318
 20
17.23127
 30
0.0
 10
-18.15318
 20
17.23127
 30
0.0
 10
-18.15318
 20
17.23127
 30
0.0
 10
-18.15318
 20
17.23127
 30
0.0
 10
-18.15318
 20
17.23127
 30
0.0
 10
-18.15318
 20
19.61465
 30
0.0
 10
-18.15318
 20
19.61465
 30
0.0
 10
-18.15318
 20
19.61465
 30
0.0
 10
-17.49801
 20
19.53947
 30
0.0
 10
-17.0149
 20
18.67136
 30
0.0
 10
-17.00911
 20
18.25008
 30
0.0
 10
-17.00911
 20
18.25008
 30
0.0
 10
-17.00911
 20
18.25008
 30
0.0
 10
-17.00228
 20
17.50264
 30
0.0
 10
-17.00228
 20
17.50264
 30
0.0
 10
-17.00228
 20
17.50264
 30
0.0
 10
-17.00228
 20
17.50264
 30
0.0
 10
-17.65159
 20
17.50264
 30
0.0
 10
-17.65159
 20
17.50264
 30
0.0
 10
-17.65159
 20
17.50264
 30
0.0
 10
-17.65159
 20
17.50264
 30
0.0
 10
-17.65159
 20
17.20264
 30
0.0
 10
-17.65159
 20
17.20264
 30
0.0
 10
-17.65159
 20
17.20264
 30
0.0
 10
-17.65159
 20
17.20264
 30
0.0
 10
-17.02799
 20
17.20264
 30
0.0
 10
-17.02799
 20
17.20264
 30
0.0
  0
SPLINE
  5
72
330
1F
100
AcDbEntity
  8
Camada 1
370
     9
100
AcDbSpline
210
0.0
220
0.0
230
1.0
 70
    11
 71
     3
 72
    76
 73
    72
 74
     0
 42
0.0000000001
 43
0.0000000001
 40
0.0
 40
0.0
 40
0.0
 40
0.0
 40
0.0526315789473684
 40
0.0526315789473684
 40
0.0526315789473684
 40
0.0526315789473684
 40
0.1052631578947368
 40
0.1052631578947368
 40
0.1052631578947368
 40
0.1052631578947368
 40
0.1578947368421053
 40
0.1578947368421053
 40
0.1578947368421053
 40
0.1578947368421053
 40
0.2105263157894737
 40
0.2105263157894737
 40
0.2105263157894737
 40
0.2105263157894737
 40
0.2631578947368421
 40
0.2631578947368421
 40
0.2631578947368421
 40
0.2631578947368421
 40
0.3157894736842105
 40
0.3157894736842105
 40
0.3157894736842105
 40
0.3157894736842105
 40
0.3684210526315789
 40
0.3684210526315789
 40
0.3684210526315789
 40
0.3684210526315789
 40
0.4210526315789473
 40
0.4210526315789473
 40
0.4210526315789473
 40
0.4210526315789473
 40
0.4736842105263158
 40
0.4736842105263158
 40
0.4736842105263158
 40
0.4736842105263158
 40
0.5263157894736842
 40
0.5263157894736842
 40
0.5263157894736842
 40
0.5263157894736842
 40
0.5789473684210527
 40
0.5789473684210527
 40
0.5789473684210527
 40
0.5789473684210527
 40
0.631578947368421
 40
0.631578947368421
 40
0.631578947368421
 40
0.631578947368421
 40
0.6842105263157895
 40
0.6842105263157895
 40
0.6842105263157895
 40
0.6842105263157895
 40
0.7368421052631579
 40
0.7368421052631579
 40
0.7368421052631579
 40
0.7368421052631579
 40
0.7894736842105263
 40
0.7894736842105263
 40
0.7894736842105263
 40
0.7894736842105263
 40
0.8421052631578947
 40
0.8421052631578947
 40
0.8421052631578947
 40
0.8421052631578947
 40
0.8947368421052632
 40
0.8947368421052632
 40
0.8947368421052632
 40
0.8947368421052632
 40
1.0
 40
1.0
 40
1.0
 40
1.0
 10
-24.13261
 20
17.33201
 30
0.0
 10
-24.13261
 20
17.33201
 30
0.0
 10
-24.13904
 20
18.37227
 30
0.0
 10
-24.13904
 20
18.37227
 30
0.0
 10
-24.13904
 20
18.37227
 30
0.0
 10
-24.14166
 20
18.79784
 30
0.0
 10
-24.41126
 20
19.24433
 30
0.0
 10
-24.85215
 20
19.356
 30
0.0
 10
-24.85215
 20
19.356
 30
0.0
 10
-24.85215
 20
19.356
 30
0.0
 10
-24.85215
 20
19.84332
 30
0.0
 10
-24.85215
 20
19.84332
 30
0.0
 10
-24.85215
 20
19.84332
 30
0.0
 10
-24.85215
 20
19.84332
 30
0.0
 10
-25.25417
 20
19.84332
 30
0.0
 10
-25.25417
 20
19.84332
 30
0.0
 10
-25.25417
 20
19.84332
 30
0.0
 10
-25.25417
 20
19.84332
 30
0.0
 10
-25.25417
 20
17.01746
 30
0.0
 10
-25.25417
 20
17.01746
 30
0.0
 10
-25.25417
 20
17.01746
 30
0.0
 10
-25.25417
 20
17.01746
 30
0.0
 10
-25.55417
 20
17.01746
 30
0.0
 10
-25.55417
 20
17.01746
 30
0.0
 10
-25.55417
 20
17.01746
 30
0.0
 10
-25.55417
 20
17.01746
 30
0.0
 10
-25.55417
 20
19.84332
 30
0.0
 10
-25.55417
 20
19.84332
 30
0.0
 10
-25.55417
 20
19.84332
 30
0.0
 10
-25.55417
 20
19.84332
 30
0.0
 10
-25.95619
 20
19.84332
 30
0.0
 10
-25.95619
 20
19.84332
 30
0.0
 10
-25.95619
 20
19.84332
 30
0.0
 10
-25.95619
 20
19.84332
 30
0.0
 10
-25.95619
 20
19.356
 30
0.0
 10
-25.95619
 20
19.356
 30
0.0
 10
-25.95619
 20
19.356
 30
0.0
 10
-26.39708
 20
19.24433
 30
0.0
 10
-26.66669
 20
18.79784
 30
0.0
 10
-26.66931
 20
18.37227
 30
0.0
 10
-26.66931
 20
18.37227
 30
0.0
 10
-26.66931
 20
18.37227
 30
0.0
 10
-26.67571
 20
17.33201
 30
0.0
 10
-26.67571
 20
17.33201
 30
0.0
 10
-26.67571
 20
17.33201
 30
0.0
 10
-26.67571
 20
17.33201
 30
0.0
 10
-26.02233
 20
17.33201
 30
0.0
 10
-26.02233
 20
17.33201
 30
0.0
 10
-26.02233
 20
17.33201
 30
0.0
 10
-26.02233
 20
17.33201
 30
0.0
 10
-26.02233
 20
17.03201
 30
0.0
 10
-26.02233
 20
17.03201
 30
0.0
 10
-26.02233
 20
17.03201
 30
0.0
 10
-26.02233
 20
17.03201
 30
0.0
 10
-26.61466
 20
17.03201
 30
0.0
 10
-26.61466
 20
17.03201
 30
0.0
 10
-26.61466
 20
17.03201
 30
0.0
 10
-26.32126
 20
15.95409
 30
0.0
 10
-24.53826
 20
15.95698
 30
0.0
 10
-24.19369
 20
17.03201
 30
0.0
 10
-24.19369
 20
17.03201
 30
0.0
 10
-24.19369
 20
17.03201
 30
0.0
 10
-24.78601
 20
17.03201
 30
0.0
 10
-24.78601
 20
17.03201
 30
0.0
 10
-24.78601
 20
17.03201
 30
0.0
 10
-24.78601
 20
17.03201
 30
0.0
 10
-24.78601
 20
17.33201
 30
0.0
 10
-24.78601
 20
17.33201
 30
0.0
 10
-24.78601
 20
17.33201
 30
0.0
 10
-24.78601
 20
17.33201
 30
0.0
 10
-24.13261
 20
17.33201
 30
0.0
 10
-24.13261
 20
17.33201
 30
0.0
  0
SPLINE
  5
73
330
1F
100
AcDbEntity
  8
Camada 1
370
     9
100
AcDbSpline
210
0.0
220
0.0
230
1.0
 70
    11
 71
     3
 72
    84
 73
    80
 74
     0
 42
0.0000000001
 43
0.0000000001
 40
0.0
 40
0.0
 40
0.0
 40
0.0
 40
0.0476190476190476
 40
0.0476190476190476
 40
0.0476190476190476
 40
0.0476190476190476
 40
0.0952380952380952
 40
0.0952380952380952
 40
0.0952380952380952
 40
0.0952380952380952
 40
0.1428571428571428
 40
0.1428571428571428
 40
0.1428571428571428
 40
0.1428571428571428
 40
0.1904761904761905
 40
0.1904761904761905
 40
0.1904761904761905
 40
0.1904761904761905
 40
0.2380952380952381
 40
0.2380952380952381
 40
0.2380952380952381
 40
0.2380952380952381
 40
0.2857142857142857
 40
0.2857142857142857
 40
0.2857142857142857
 40
0.2857142857142857
 40
0.3333333333333333
 40
0.3333333333333333
 40
0.3333333333333333
 40
0.3333333333333333
 40
0.3809523809523809
 40
0.3809523809523809
 40
0.3809523809523809
 40
0.3809523809523809
 40
0.4285714285714285
 40
0.4285714285714285
 40
0.4285714285714285
 40
0.4285714285714285
 40
0.4761904761904762
 40
0.4761904761904762
 40
0.4761904761904762
 40
0.4761904761904762
 40
0.5238095238095238
 40
0.5238095238095238
 40
0.5238095238095238
 40
0.5238095238095238
 40
0.5714285714285714
 40
0.5714285714285714
 40
0.5714285714285714
 40
0.5714285714285714
 40
0.6190476190476191
 40
0.6190476190476191
 40
0.6190476190476191
 40
0.6190476190476191
 40
0.6666666666666666
 40
0.6666666666666666
 40
0.6666666666666666
 40
0.6666666666666666
 40
0.7142857142857143
 40
0.7142857142857143
 40
0.7142857142857143
 40
0.7142857142857143
 40
0.7619047619047619
 40
0.7619047619047619
 40
0.7619047619047619
 40
0.7619047619047619
 40
0.8095238095238095
 40
0.8095238095238095
 40
0.8095238095238095
 40
0.8095238095238095
 40
0.8571428571428571
 40
0.8571428571428571
 40
0.8571428571428571
 40
0.8571428571428571
 40
0.9047619047619048
 40
0.9047619047619048
 40
0.9047619047619048
 40
0.9047619047619048
 40
1.0
 40
1.0
 40
1.0
 40
1.0
 10
-20.55788
 20
17.02279
 30
0.0
 10
-20.64259
 20
16.63791
 30
0.0
 10
-20.94458
 20
16.28423
 30
0.0
 10
-21.51726
 20
16.28607
 30
0.0
 10
-21.51726
 20
16.28607
 30
0.0
 10
-21.51726
 20
16.28607
 30
0.0
 10
-22.15482
 20
16.28607
 30
0.0
 10
-22.15482
 20
16.28607
 30
0.0
 10
-22.15482
 20
16.28607
 30
0.0
 10
-22.7275
 20
16.28423
 30
0.0
 10
-23.02947
 20
16.63791
 30
0.0
 10
-23.1142
 20
17.02279
 30
0.0
 10
-23.1142
 20
17.02279
 30
0.0
 10
-23.1142
 20
17.02279
 30
0.0
 10
-22.50188
 20
17.02279
 30
0.0
 10
-22.50188
 20
17.02279
 30
0.0
 10
-22.50188
 20
17.02279
 30
0.0
 10
-22.50188
 20
17.02279
 30
0.0
 10
-22.50188
 20
17.32279
 30
0.0
 10
-22.50188
 20
17.32279
 30
0.0
 10
-22.50188
 20
17.32279
 30
0.0
 10
-22.50188
 20
17.32279
 30
0.0
 10
-23.13919
 20
17.32279
 30
0.0
 10
-23.13919
 20
17.32279
 30
0.0
 10
-23.13919
 20
17.32279
 30
0.0
 10
-23.13919
 20
17.32279
 30
0.0
 10
-23.13257
 20
18.3503
 30
0.0
 10
-23.13257
 20
18.3503
 30
0.0
 10
-23.13257
 20
18.3503
 30
0.0
 10
-23.13054
 20
18.66691
 30
0.0
 10
-22.71347
 20
19.13128
 30
0.0
 10
-22.43352
 20
19.32345
 30
0.0
 10
-22.43352
 20
19.32345
 30
0.0
 10
-22.43352
 20
19.32345
 30
0.0
 10
-22.43352
 20
19.80554
 30
0.0
 10
-22.43352
 20
19.80554
 30
0.0
 10
-22.43352
 20
19.80554
 30
0.0
 10
-22.43352
 20
19.80554
 30
0.0
 10
-21.98603
 20
19.80554
 30
0.0
 10
-21.98603
 20
19.80554
 30
0.0
 10
-21.98603
 20
19.80554
 30
0.0
 10
-21.98603
 20
19.80554
 30
0.0
 10
-21.98603
 20
17.01002
 30
0.0
 10
-21.98603
 20
17.01002
 30
0.0
 10
-21.98603
 20
17.01002
 30
0.0
 10
-21.98603
 20
17.01002
 30
0.0
 10
-21.68603
 20
17.01002
 30
0.0
 10
-21.68603
 20
17.01002
 30
0.0
 10
-21.68603
 20
17.01002
 30
0.0
 10
-21.68603
 20
17.01002
 30
0.0
 10
-21.68603
 20
19.80554
 30
0.0
 10
-21.68603
 20
19.80554
 30
0.0
 10
-21.68603
 20
19.80554
 30
0.0
 10
-21.68603
 20
19.80554
 30
0.0
 10
-21.23856
 20
19.80554
 30
0.0
 10
-21.23856
 20
19.80554
 30
0.0
 10
-21.23856
 20
19.80554
 30
0.0
 10
-21.23856
 20
19.80554
 30
0.0
 10
-21.23856
 20
19.32345
 30
0.0
 10
-21.23856
 20
19.32345
 30
0.0
 10
-21.23856
 20
19.32345
 30
0.0
 10
-20.95861
 20
19.13128
 30
0.0
 10
-20.54154
 20
18.66692
 30
0.0
 10
-20.53951
 20
18.3503
 30
0.0
 10
-20.53951
 20
18.3503
 30
0.0
 10
-20.53951
 20
18.3503
 30
0.0
 10
-20.53288
 20
17.32279
 30
0.0
 10
-20.53288
 20
17.32279
 30
0.0
 10
-20.53288
 20
17.32279
 30
0.0
 10
-20.53288
 20
17.32279
 30
0.0
 10
-21.17019
 20
17.32279
 30
0.0
 10
-21.17019
 20
17.32279
 30
0.0
 10
-21.17019
 20
17.32279
 30
0.0
 10
-21.17019
 20
17.32279
 30
0.0
 10
-21.17019
 20
17.02279
 30
0.0
 10
-21.17019
 20
17.02279
 30
0.0
 10
-21.17019
 20
17.02279
 30
0.0
 10
-21.17019
 20
17.02279
 30
0.0
 10
-20.55788
 20
17.02279
 30
0.0
 10
-20.55788
 20
17.02279
 30
0.0
  0
SPLINE
  5
74
330
1F
100
AcDbEntity
  8
Camada 1
370
     9
100
AcDbSpline
210
0.0
220
0.0
230
1.0
 70
    11
 71
     3
 72
    20
 73
    16
 74
     0
 42
0.0000000001
 43
0.0000000001
 40
0.0
 40
0.0
 40
0.0
 40
0.0
 40
0.2
 40
0.2
 40
0.2
 40
0.2
 40
0.4
 40
0.4
 40
0.4
 40
0.4
 40
0.6
 40
0.6
 40
0.6
 40
0.6
 40
1.0
 40
1.0
 40
1.0
 40
1.0
 10
-8.3739
 20
12.15583
 30
0.0
 10
-8.3739
 20
12.15583
 30
0.0
 10
-8.3739
 20
14.81392
 30
0.0
 10
-8.3739
 20
14.81392
 30
0.0
 10
-8.3739
 20
14.81392
 30
0.0
 10
-8.3739
 20
14.81392
 30
0.0
 10
-6.87471
 20
14.81392
 30
0.0
 10
-6.87471
 20
14.81392
 30
0.0
 10
-6.87471
 20
14.81392
 30
0.0
 10
-6.87471
 20
14.81392
 30
0.0
 10
-6.87471
 20
12.15583
 30
0.0
 10
-6.87471
 20
12.15583
 30
0.0
 10
-6.87471
 20
12.15583
 30
0.0
 10
-6.87471
 20
12.15583
 30
0.0
 10
-8.3739
 20
12.15583
 30
0.0
 10
-8.3739
 20
12.15583
 30
0.0
  0
SPLINE
  5
75
330
1F
100
AcDbEntity
  8
Camada 1
370
     9
100
AcDbSpline
210
0.0
220
0.0
230
1.0
 70
    11
 71
     3
 72
    60
 73
    56
 74
     0
 42
0.0000000001
 43
0.0000000001
 40
0.0
 40
0.0
 40
0.0
 40
0.0
 40
0.0666666666666667
 40
0.0666666666666667
 40
0.0666666666666667
 40
0.0666666666666667
 40
0.1333333333333333
 40
0.1333333333333333
 40
0.1333333333333333
 40
0.1333333333333333
 40
0.2
 40
0.2
 40
0.2
 40
0.2
 40
0.2666666666666667
 40
0.2666666666666667
 40
0.2666666666666667
 40
0.2666666666666667
 40
0.3333333333333333
 40
0.3333333333333333
 40
0.3333333333333333
 40
0.3333333333333333
 40
0.4
 40
0.4
 40
0.4
 40
0.4
 40
0.4666666666666667
 40
0.4666666666666667
 40
0.4666666666666667
 40
0.4666666666666667
 40
0.5333333333333333
 40
0.5333333333333333
 40
0.5333333333333333
 40
0.5333333333333333
 40
0.6
 40
0.6
 40
0.6
 40
0.6
 40
0.6666666666666666
 40
0.6666666666666666
 40
0.6666666666666666
 40
0.6666666666666666
 40
0.7333333333333333
 40
0.7333333333333333
 40
0.7333333333333333
 40
0.7333333333333333
 40
0.8
 40
0.8
 40
0.8
 40
0.8
 40
0.8666666666666667
 40
0.8666666666666667
 40
0.8666666666666667
 40
0.8666666666666667
 40
1.0
 40
1.0
 40
1.0
 40
1.0
 10
-9.41919
 20
3.12022
 30
0.0
 10
-9.41919
 20
3.12022
 30
0.0
 10
-9.41919
 20
0.26554
 30
0.0
 10
-9.41919
 20
0.26554
 30
0.0
 10
-9.41919
 20
0.26554
 30
0.0
 10
-9.41919
 20
0.26554
 30
0.0
 10
-9.71919
 20
0.26554
 30
0.0
 10
-9.71919
 20
0.26554
 30
0.0
 10
-9.71919
 20
0.26554
 30
0.0
 10
-9.71919
 20
0.26554
 30
0.0
 10
-9.71919
 20
3.12022
 30
0.0
 10
-9.71919
 20
3.12022
 30
0.0
 10
-9.71919
 20
3.12022
 30
0.0
 10
-9.71919
 20
3.12022
 30
0.0
 10
-10.1716
 20
3.12022
 30
0.0
 10
-10.1716
 20
3.12022
 30
0.0
 10
-10.1716
 20
3.12022
 30
0.0
 10
-10.1716
 20
3.12022
 30
0.0
 10
-10.1716
 20
2.60631
 30
0.0
 10
-10.1716
 20
2.60631
 30
0.0
 10
-10.1716
 20
2.60631
 30
0.0
 10
-10.76374
 20
2.39471
 30
0.0
 10
-10.86528
 20
1.82142
 30
0.0
 10
-10.86544
 20
1.71373
 30
0.0
 10
-10.86544
 20
1.71373
 30
0.0
 10
-10.86544
 20
1.71373
 30
0.0
 10
-10.86717
 20
0.60716
 30
0.0
 10
-10.86717
 20
0.60716
 30
0.0
 10
-10.86717
 20
0.60716
 30
0.0
 10
-10.80997
 20
0.02356
 30
0.0
 10
-10.4793
 20
-0.51052
 30
0.0
 10
-9.94168
 20
-0.51052
 30
0.0
 10
-9.94168
 20
-0.51052
 30
0.0
 10
-9.94168
 20
-0.51052
 30
0.0
 10
-9.19671
 20
-0.51052
 30
0.0
 10
-9.19671
 20
-0.51052
 30
0.0
 10
-9.19671
 20
-0.51052
 30
0.0
 10
-8.6591
 20
-0.51052
 30
0.0
 10
-8.3284
 20
0.02356
 30
0.0
 10
-8.27122
 20
0.60716
 30
0.0
 10
-8.27122
 20
0.60716
 30
0.0
 10
-8.27122
 20
0.60716
 30
0.0
 10
-8.27295
 20
1.71373
 30
0.0
 10
-8.27295
 20
1.71373
 30
0.0
 10
-8.27295
 20
1.71373
 30
0.0
 10
-8.2731
 20
1.82142
 30
0.0
 10
-8.37465
 20
2.39471
 30
0.0
 10
-8.96679
 20
2.60631
 30
0.0
 10
-8.96679
 20
2.60631
 30
0.0
 10
-8.96679
 20
2.60631
 30
0.0
 10
-8.96679
 20
3.12022
 30
0.0
 10
-8.96679
 20
3.12022
 30
0.0
 10
-8.96679
 20
3.12022
 30
0.0
 10
-8.96679
 20
3.12022
 30
0.0
 10
-9.41919
 20
3.12022
 30
0.0
 10
-9.41919
 20
3.12022
 30
0.0
  0
SPLINE
  5
76
330
1F
100
AcDbEntity
  8
Camada 1
370
     9
100
AcDbSpline
210
0.0
220
0.0
230
1.0
 70
    11
 71
     3
 72
    52
 73
    48
 74
     0
 42
0.0000000001
 43
0.0000000001
 40
0.0
 40
0.0
 40
0.0
 40
0.0
 40
0.0769230769230769
 40
0.0769230769230769
 40
0.0769230769230769
 40
0.0769230769230769
 40
0.1538461538461539
 40
0.1538461538461539
 40
0.1538461538461539
 40
0.1538461538461539
 40
0.2307692307692308
 40
0.2307692307692308
 40
0.2307692307692308
 40
0.2307692307692308
 40
0.3076923076923077
 40
0.3076923076923077
 40
0.3076923076923077
 40
0.3076923076923077
 40
0.3846153846153846
 40
0.3846153846153846
 40
0.3846153846153846
 40
0.3846153846153846
 40
0.4615384615384616
 40
0.4615384615384616
 40
0.4615384615384616
 40
0.4615384615384616
 40
0.5384615384615384
 40
0.5384615384615384
 40
0.5384615384615384
 40
0.5384615384615384
 40
0.6153846153846154
 40
0.6153846153846154
 40
0.6153846153846154
 40
0.6153846153846154
 40
0.6923076923076923
 40
0.6923076923076923
 40
0.6923076923076923
 40
0.6923076923076923
 40
0.7692307692307693
 40
0.7692307692307693
 40
0.7692307692307693
 40
0.7692307692307693
 40
0.8461538461538461
 40
0.8461538461538461
 40
0.8461538461538461
 40
0.8461538461538461
 40
1.0
 40
1.0
 40
1.0
 40
1.0
 10
-17.37089
 20
3.1826
 30
0.0
 10
-17.37089
 20
3.1826
 30
0.0
 10
-17.37089
 20
0.23238
 30
0.0
 10
-17.37089
 20
0.23238
 30
0.0
 10
-17.37089
 20
0.23238
 30
0.0
 10
-17.37089
 20
0.23238
 30
0.0
 10
-17.67089
 20
0.23238
 30
0.0
 10
-17.67089
 20
0.23238
 30
0.0
 10
-17.67089
 20
0.23238
 30
0.0
 10
-17.67089
 20
0.23238
 30
0.0
 10
-17.67089
 20
3.1826
 30
0.0
 10
-17.67089
 20
3.1826
 30
0.0
 10
-17.67089
 20
3.1826
 30
0.0
 10
-17.67089
 20
3.1826
 30
0.0
 10
-18.42353
 20
3.18031
 30
0.0
 10
-18.42353
 20
3.18031
 30
0.0
 10
-18.42353
 20
3.18031
 30
0.0
 10
-18.56813
 20
3.17987
 30
0.0
 10
-18.81157
 20
2.86325
 30
0.0
 10
-18.81917
 20
2.43805
 30
0.0
 10
-18.81917
 20
2.43805
 30
0.0
 10
-18.81917
 20
2.43805
 30
0.0
 10
-18.85169
 20
0.6181
 30
0.0
 10
-18.85169
 20
0.6181
 30
0.0
 10
-18.85169
 20
0.6181
 30
0.0
 10
-18.7934
 20
0.02256
 30
0.0
 10
-18.45639
 20
-0.52247
 30
0.0
 10
-17.90847
 20
-0.52247
 30
0.0
 10
-17.90847
 20
-0.52247
 30
0.0
 10
-17.90847
 20
-0.52247
 30
0.0
 10
-17.13331
 20
-0.52247
 30
0.0
 10
-17.13331
 20
-0.52247
 30
0.0
 10
-17.13331
 20
-0.52247
 30
0.0
 10
-16.5854
 20
-0.52247
 30
0.0
 10
-16.24838
 20
0.02256
 30
0.0
 10
-16.19009
 20
0.6181
 30
0.0
 10
-16.19009
 20
0.6181
 30
0.0
 10
-16.19009
 20
0.6181
 30
0.0
 10
-16.22259
 20
2.43805
 30
0.0
 10
-16.22259
 20
2.43805
 30
0.0
 10
-16.22259
 20
2.43805
 30
0.0
 10
-16.2302
 20
2.86325
 30
0.0
 10
-16.47366
 20
3.17987
 30
0.0
 10
-16.61824
 20
3.18031
 30
0.0
 10
-16.61824
 20
3.18031
 30
0.0
 10
-16.61824
 20
3.18031
 30
0.0
 10
-17.37089
 20
3.1826
 30
0.0
 10
-17.37089
 20
3.1826
 30
0.0
  0
SPLINE
  5
77
330
1F
100
AcDbEntity
  8
Camada 1
370
     9
100
AcDbSpline
210
0.0
220
0.0
230
1.0
 70
    11
 71
     3
 72
    60
 73
    56
 74
     0
 42
0.0000000001
 43
0.0000000001
 40
0.0
 40
0.0
 40
0.0
 40
0.0
 40
0.0666666666666667
 40
0.0666666666666667
 40
0.0666666666666667
 40
0.0666666666666667
 40
0.1333333333333333
 40
0.1333333333333333
 40
0.1333333333333333
 40
0.1333333333333333
 40
0.2
 40
0.2
 40
0.2
 40
0.2
 40
0.2666666666666667
 40
0.2666666666666667
 40
0.2666666666666667
 40
0.2666666666666667
 40
0.3333333333333333
 40
0.3333333333333333
 40
0.3333333333333333
 40
0.3333333333333333
 40
0.4
 40
0.4
 40
0.4
 40
0.4
 40
0.4666666666666667
 40
0.4666666666666667
 40
0.4666666666666667
 40
0.4666666666666667
 40
0.5333333333333333
 40
0.5333333333333333
 40
0.5333333333333333
 40
0.5333333333333333
 40
0.6
 40
0.6
 40
0.6
 40
0.6
 40
0.6666666666666666
 40
0.6666666666666666
 40
0.6666666666666666
 40
0.6666666666666666
 40
0.7333333333333333
 40
0.7333333333333333
 40
0.7333333333333333
 40
0.7333333333333333
 40
0.8
 40
0.8
 40
0.8
 40
0.8
 40
0.8666666666666667
 40
0.8666666666666667
 40
0.8666666666666667
 40
0.8666666666666667
 40
1.0
 40
1.0
 40
1.0
 40
1.0
 10
-13.38772
 20
3.07031
 30
0.0
 10
-13.38772
 20
3.07031
 30
0.0
 10
-13.38772
 20
0.21564
 30
0.0
 10
-13.38772
 20
0.21564
 30
0.0
 10
-13.38772
 20
0.21564
 30
0.0
 10
-13.38772
 20
0.21564
 30
0.0
 10
-13.68772
 20
0.21564
 30
0.0
 10
-13.68772
 20
0.21564
 30
0.0
 10
-13.68772
 20
0.21564
 30
0.0
 10
-13.68772
 20
0.21564
 30
0.0
 10
-13.68772
 20
3.07031
 30
0.0
 10
-13.68772
 20
3.07031
 30
0.0
 10
-13.68772
 20
3.07031
 30
0.0
 10
-13.68772
 20
3.07031
 30
0.0
 10
-14.15455
 20
3.07031
 30
0.0
 10
-14.15455
 20
3.07031
 30
0.0
 10
-14.15455
 20
3.07031
 30
0.0
 10
-14.15455
 20
3.07031
 30
0.0
 10
-14.15455
 20
2.55641
 30
0.0
 10
-14.15455
 20
2.55641
 30
0.0
 10
-14.15455
 20
2.55641
 30
0.0
 10
-14.76086
 20
2.3448
 30
0.0
 10
-14.86482
 20
1.7715
 30
0.0
 10
-14.86499
 20
1.66381
 30
0.0
 10
-14.86499
 20
1.66381
 30
0.0
 10
-14.86499
 20
1.66381
 30
0.0
 10
-14.86676
 20
0.55725
 30
0.0
 10
-14.86676
 20
0.55725
 30
0.0
 10
-14.86676
 20
0.55725
 30
0.0
 10
-14.8082
 20
-0.02636
 30
0.0
 10
-14.4696
 20
-0.51905
 30
0.0
 10
-13.91913
 20
-0.51905
 30
0.0
 10
-13.91913
 20
-0.51905
 30
0.0
 10
-13.91913
 20
-0.51905
 30
0.0
 10
-13.15631
 20
-0.51905
 30
0.0
 10
-13.15631
 20
-0.51905
 30
0.0
 10
-13.15631
 20
-0.51905
 30
0.0
 10
-12.60585
 20
-0.51905
 30
0.0
 10
-12.26725
 20
-0.02636
 30
0.0
 10
-12.20867
 20
0.55725
 30
0.0
 10
-12.20867
 20
0.55725
 30
0.0
 10
-12.20867
 20
0.55725
 30
0.0
 10
-12.21046
 20
1.66381
 30
0.0
 10
-12.21046
 20
1.66381
 30
0.0
 10
-12.21046
 20
1.66381
 30
0.0
 10
-12.21061
 20
1.7715
 30
0.0
 10
-12.31458
 20
2.3448
 30
0.0
 10
-12.9209
 20
2.55641
 30
0.0
 10
-12.9209
 20
2.55641
 30
0.0
 10
-12.9209
 20
2.55641
 30
0.0
 10
-12.9209
 20
3.07031
 30
0.0
 10
-12.9209
 20
3.07031
 30
0.0
 10
-12.9209
 20
3.07031
 30
0.0
 10
-12.9209
 20
3.07031
 30
0.0
 10
-13.38772
 20
3.07031
 30
0.0
 10
-13.38772
 20
3.07031
 30
0.0
  0
SPLINE
  5
78
330
1F
100
AcDbEntity
  8
Camada 1
370
     9
100
AcDbSpline
210
0.0
220
0.0
230
1.0
 70
    11
 71
     3
 72
    76
 73
    72
 74
     0
 42
0.0000000001
 43
0.0000000001
 40
0.0
 40
0.0
 40
0.0
 40
0.0
 40
0.0526315789473684
 40
0.0526315789473684
 40
0.0526315789473684
 40
0.0526315789473684
 40
0.1052631578947368
 40
0.1052631578947368
 40
0.1052631578947368
 40
0.1052631578947368
 40
0.1578947368421053
 40
0.1578947368421053
 40
0.1578947368421053
 40
0.1578947368421053
 40
0.2105263157894737
 40
0.2105263157894737
 40
0.2105263157894737
 40
0.2105263157894737
 40
0.2631578947368421
 40
0.2631578947368421
 40
0.2631578947368421
 40
0.2631578947368421
 40
0.3157894736842105
 40
0.3157894736842105
 40
0.3157894736842105
 40
0.3157894736842105
 40
0.3684210526315789
 40
0.3684210526315789
 40
0.3684210526315789
 40
0.3684210526315789
 40
0.4210526315789473
 40
0.4210526315789473
 40
0.4210526315789473
 40
0.4210526315789473
 40
0.4736842105263158
 40
0.4736842105263158
 40
0.4736842105263158
 40
0.4736842105263158
 40
0.5263157894736842
 40
0.5263157894736842
 40
0.5263157894736842
 40
0.5263157894736842
 40
0.5789473684210527
 40
0.5789473684210527
 40
0.5789473684210527
 40
0.5789473684210527
 40
0.631578947368421
 40
0.631578947368421
 40
0.631578947368421
 40
0.631578947368421
 40
0.6842105263157895
 40
0.6842105263157895
 40
0.6842105263157895
 40
0.6842105263157895
 40
0.7368421052631579
 40
0.7368421052631579
 40
0.7368421052631579
 40
0.7368421052631579
 40
0.7894736842105263
 40
0.7894736842105263
 40
0.7894736842105263
 40
0.7894736842105263
 40
0.8421052631578947
 40
0.8421052631578947
 40
0.8421052631578947
 40
0.8421052631578947
 40
0.8947368421052632
 40
0.8947368421052632
 40
0.8947368421052632
 40
0.8947368421052632
 40
1.0
 40
1.0
 40
1.0
 40
1.0
 10
-4.28096
 20
0.50675
 30
0.0
 10
-4.28096
 20
0.50675
 30
0.0
 10
-4.28767
 20
1.54704
 30
0.0
 10
-4.28767
 20
1.54704
 30
0.0
 10
-4.28767
 20
1.54704
 30
0.0
 10
-4.2904
 20
1.97259
 30
0.0
 10
-4.57287
 20
2.41908
 30
0.0
 10
-5.03475
 20
2.53074
 30
0.0
 10
-5.03475
 20
2.53074
 30
0.0
 10
-5.03475
 20
2.53074
 30
0.0
 10
-5.03475
 20
3.01807
 30
0.0
 10
-5.03475
 20
3.01807
 30
0.0
 10
-5.03475
 20
3.01807
 30
0.0
 10
-5.03475
 20
3.01807
 30
0.0
 10
-5.46305
 20
3.01807
 30
0.0
 10
-5.46305
 20
3.01807
 30
0.0
 10
-5.46305
 20
3.01807
 30
0.0
 10
-5.46305
 20
3.01807
 30
0.0
 10
-5.46305
 20
0.19221
 30
0.0
 10
-5.46305
 20
0.19221
 30
0.0
 10
-5.46305
 20
0.19221
 30
0.0
 10
-5.46305
 20
0.19221
 30
0.0
 10
-5.76305
 20
0.19221
 30
0.0
 10
-5.76305
 20
0.19221
 30
0.0
 10
-5.76305
 20
0.19221
 30
0.0
 10
-5.76305
 20
0.19221
 30
0.0
 10
-5.76305
 20
3.01807
 30
0.0
 10
-5.76305
 20
3.01807
 30
0.0
 10
-5.76305
 20
3.01807
 30
0.0
 10
-5.76305
 20
3.01807
 30
0.0
 10
-6.19134
 20
3.01807
 30
0.0
 10
-6.19134
 20
3.01807
 30
0.0
 10
-6.19134
 20
3.01807
 30
0.0
 10
-6.19134
 20
3.01807
 30
0.0
 10
-6.19134
 20
2.53074
 30
0.0
 10
-6.19134
 20
2.53074
 30
0.0
 10
-6.19134
 20
2.53074
 30
0.0
 10
-6.65321
 20
2.41908
 30
0.0
 10
-6.93566
 20
1.97259
 30
0.0
 10
-6.9384
 20
1.54704
 30
0.0
 10
-6.9384
 20
1.54704
 30
0.0
 10
-6.9384
 20
1.54704
 30
0.0
 10
-6.94511
 20
0.50675
 30
0.0
 10
-6.94511
 20
0.50675
 30
0.0
 10
-6.94511
 20
0.50675
 30
0.0
 10
-6.94511
 20
0.50675
 30
0.0
 10
-6.26063
 20
0.50675
 30
0.0
 10
-6.26063
 20
0.50675
 30
0.0
 10
-6.26063
 20
0.50675
 30
0.0
 10
-6.26063
 20
0.50675
 30
0.0
 10
-6.26063
 20
0.20675
 30
0.0
 10
-6.26063
 20
0.20675
 30
0.0
 10
-6.26063
 20
0.20675
 30
0.0
 10
-6.26063
 20
0.20675
 30
0.0
 10
-6.88115
 20
0.20675
 30
0.0
 10
-6.88115
 20
0.20675
 30
0.0
 10
-6.88115
 20
0.20675
 30
0.0
 10
-6.57379
 20
-0.87116
 30
0.0
 10
-4.70594
 20
-0.86827
 30
0.0
 10
-4.34493
 20
0.20675
 30
0.0
 10
-4.34493
 20
0.20675
 30
0.0
 10
-4.34493
 20
0.20675
 30
0.0
 10
-4.96546
 20
0.20675
 30
0.0
 10
-4.96546
 20
0.20675
 30
0.0
 10
-4.96546
 20
0.20675
 30
0.0
 10
-4.96546
 20
0.20675
 30
0.0
 10
-4.96546
 20
0.50675
 30
0.0
 10
-4.96546
 20
0.50675
 30
0.0
 10
-4.96546
 20
0.50675
 30
0.0
 10
-4.96546
 20
0.50675
 30
0.0
 10
-4.28096
 20
0.50675
 30
0.0
 10
-4.28096
 20
0.50675
 30
0.0
  0
SPLINE
  5
79
330
1F
100
AcDbEntity
  8
Camada 1
370
     9
100
AcDbSpline
210
0.0
220
0.0
230
1.0
 70
    11
 71
     3
 72
   112
 73
   108
 74
     0
 42
0.0000000001
 43
0.0000000001
 40
0.0
 40
0.0
 40
0.0
 40
0.0
 40
0.0357142857142857
 40
0.0357142857142857
 40
0.0357142857142857
 40
0.0357142857142857
 40
0.0714285714285714
 40
0.0714285714285714
 40
0.0714285714285714
 40
0.0714285714285714
 40
0.1071428571428571
 40
0.1071428571428571
 40
0.1071428571428571
 40
0.1071428571428571
 40
0.1428571428571428
 40
0.1428571428571428
 40
0.1428571428571428
 40
0.1428571428571428
 40
0.1785714285714286
 40
0.1785714285714286
 40
0.1785714285714286
 40
0.1785714285714286
 40
0.2142857142857143
 40
0.2142857142857143
 40
0.2142857142857143
 40
0.2142857142857143
 40
0.25
 40
0.25
 40
0.25
 40
0.25
 40
0.2857142857142857
 40
0.2857142857142857
 40
0.2857142857142857
 40
0.2857142857142857
 40
0.3214285714285715
 40
0.3214285714285715
 40
0.3214285714285715
 40
0.3214285714285715
 40
0.3571428571428572
 40
0.3571428571428572
 40
0.3571428571428572
 40
0.3571428571428572
 40
0.3928571428571428
 40
0.3928571428571428
 40
0.3928571428571428
 40
0.3928571428571428
 40
0.4285714285714285
 40
0.4285714285714285
 40
0.4285714285714285
 40
0.4285714285714285
 40
0.4642857142857143
 40
0.4642857142857143
 40
0.4642857142857143
 40
0.4642857142857143
 40
0.5
 40
0.5
 40
0.5
 40
0.5
 40
0.5357142857142857
 40
0.5357142857142857
 40
0.5357142857142857
 40
0.5357142857142857
 40
0.5714285714285714
 40
0.5714285714285714
 40
0.5714285714285714
 40
0.5714285714285714
 40
0.6071428571428571
 40
0.6071428571428571
 40
0.6071428571428571
 40
0.6071428571428571
 40
0.6428571428571429
 40
0.6428571428571429
 40
0.6428571428571429
 40
0.6428571428571429
 40
0.6785714285714286
 40
0.6785714285714286
 40
0.6785714285714286
 40
0.6785714285714286
 40
0.7142857142857143
 40
0.7142857142857143
 40
0.7142857142857143
 40
0.7142857142857143
 40
0.75
 40
0.75
 40
0.75
 40
0.75
 40
0.7857142857142857
 40
0.7857142857142857
 40
0.7857142857142857
 40
0.7857142857142857
 40
0.8214285714285714
 40
0.8214285714285714
 40
0.8214285714285714
 40
0.8214285714285714
 40
0.8571428571428571
 40
0.8571428571428571
 40
0.8571428571428571
 40
0.8571428571428571
 40
0.8928571428571429
 40
0.8928571428571429
 40
0.8928571428571429
 40
0.8928571428571429
 40
0.9285714285714286
 40
0.9285714285714286
 40
0.9285714285714286
 40
0.9285714285714286
 40
1.0
 40
1.0
 40
1.0
 40
1.0
 10
-24.79896
 20
0.07411
 30
0.0
 10
-24.38477
 20
0.34414
 30
0.0
 10
-24.06092
 20
1.03896
 30
0.0
 10
-24.07005
 20
1.88961
 30
0.0
 10
-24.07005
 20
1.88961
 30
0.0
 10
-24.07005
 20
1.88961
 30
0.0
 10
-24.07005
 20
1.88961
 30
0.0
 10
-24.07005
 20
1.88961
 30
0.0
 10
-24.07005
 20
1.88961
 30
0.0
 10
-24.07005
 20
1.88961
 30
0.0
 10
-24.37889
 20
1.88961
 30
0.0
 10
-24.37889
 20
1.88961
 30
0.0
 10
-24.37889
 20
1.88961
 30
0.0
 10
-24.37889
 20
1.88961
 30
0.0
 10
-24.37889
 20
3.05097
 30
0.0
 10
-24.37889
 20
3.05097
 30
0.0
 10
-24.37889
 20
3.05097
 30
0.0
 10
-24.37889
 20
3.05097
 30
0.0
 10
-25.26949
 20
3.05097
 30
0.0
 10
-25.26949
 20
3.05097
 30
0.0
 10
-25.26949
 20
3.05097
 30
0.0
 10
-25.26949
 20
3.05097
 30
0.0
 10
-25.26949
 20
1.38746
 30
0.0
 10
-25.26949
 20
1.38746
 30
0.0
 10
-25.26949
 20
1.38746
 30
0.0
 10
-25.26949
 20
1.38746
 30
0.0
 10
-25.56949
 20
1.38746
 30
0.0
 10
-25.56949
 20
1.38746
 30
0.0
 10
-25.56949
 20
1.38746
 30
0.0
 10
-25.56949
 20
1.38746
 30
0.0
 10
-25.56949
 20
3.05097
 30
0.0
 10
-25.56949
 20
3.05097
 30
0.0
 10
-25.56949
 20
3.05097
 30
0.0
 10
-25.56949
 20
3.05097
 30
0.0
 10
-26.46008
 20
3.05097
 30
0.0
 10
-26.46008
 20
3.05097
 30
0.0
 10
-26.46008
 20
3.05097
 30
0.0
 10
-26.46008
 20
3.05097
 30
0.0
 10
-26.46008
 20
1.88961
 30
0.0
 10
-26.46008
 20
1.88961
 30
0.0
 10
-26.46008
 20
1.88961
 30
0.0
 10
-26.46008
 20
1.88961
 30
0.0
 10
-26.7068
 20
1.88961
 30
0.0
 10
-26.7068
 20
1.88961
 30
0.0
 10
-26.7068
 20
1.88961
 30
0.0
 10
-26.71305
 20
1.31063
 30
0.0
 10
-26.56466
 20
0.41894
 30
0.0
 10
-26.03105
 20
0.07391
 30
0.0
 10
-26.03105
 20
0.07391
 30
0.0
 10
-26.03105
 20
0.07391
 30
0.0
 10
-26.03132
 20
0.40637
 30
0.0
 10
-26.03132
 20
0.40637
 30
0.0
 10
-26.03132
 20
0.40637
 30
0.0
 10
-26.03132
 20
0.40637
 30
0.0
 10
-26.03132
 20
0.40638
 30
0.0
 10
-26.03132
 20
0.40638
 30
0.0
 10
-26.03132
 20
0.40638
 30
0.0
 10
-26.03132
 20
0.40638
 30
0.0
 10
-26.03131
 20
0.40638
 30
0.0
 10
-26.03131
 20
0.40638
 30
0.0
 10
-26.03131
 20
0.40638
 30
0.0
 10
-26.03131
 20
0.40638
 30
0.0
 10
-25.73132
 20
0.40638
 30
0.0
 10
-25.73132
 20
0.40638
 30
0.0
 10
-25.73132
 20
0.40638
 30
0.0
 10
-25.73132
 20
0.40638
 30
0.0
 10
-25.73132
 20
0.40637
 30
0.0
 10
-25.73132
 20
0.40637
 30
0.0
 10
-25.73132
 20
0.40637
 30
0.0
 10
-25.73132
 20
0.40637
 30
0.0
 10
-25.73132
 20
0.40637
 30
0.0
 10
-25.73132
 20
0.40637
 30
0.0
 10
-25.73132
 20
0.40637
 30
0.0
 10
-25.73132
 20
0.40637
 30
0.0
 10
-25.73132
 20
-0.07345
 30
0.0
 10
-25.73132
 20
-0.07345
 30
0.0
 10
-25.73132
 20
-0.07345
 30
0.0
 10
-25.52983
 20
-0.12995
 30
0.0
 10
-25.29992
 20
-0.13083
 30
0.0
 10
-25.09896
 20
-0.07346
 30
0.0
 10
-25.09896
 20
-0.07346
 30
0.0
 10
-25.09896
 20
-0.07346
 30
0.0
 10
-25.09896
 20
0.40637
 30
0.0
 10
-25.09896
 20
0.40637
 30
0.0
 10
-25.09896
 20
0.40637
 30
0.0
 10
-25.09896
 20
0.40637
 30
0.0
 10
-25.09896
 20
0.40637
 30
0.0
 10
-25.09896
 20
0.40637
 30
0.0
 10
-25.09896
 20
0.40637
 30
0.0
 10
-25.09896
 20
0.40637
 30
0.0
 10
-25.09896
 20
0.40638
 30
0.0
 10
-25.09896
 20
0.40638
 30
0.0
 10
-25.09896
 20
0.40638
 30
0.0
 10
-25.09896
 20
0.40638
 30
0.0
 10
-24.79897
 20
0.40638
 30
0.0
 10
-24.79897
 20
0.40638
 30
0.0
 10
-24.79897
 20
0.40638
 30
0.0
 10
-24.79897
 20
0.40638
 30
0.0
 10
-24.79896
 20
0.40638
 30
0.0
 10
-24.79896
 20
0.40638
 30
0.0
 10
-24.79896
 20
0.40638
 30
0.0
 10
-24.79896
 20
0.40638
 30
0.0
 10
-24.79896
 20
0.40637
 30
0.0
 10
-24.79896
 20
0.40637
 30
0.0
 10
-24.79896
 20
0.40637
 30
0.0
 10
-24.79896
 20
0.40637
 30
0.0
 10
-24.79896
 20
0.07411
 30
0.0
 10
-24.79896
 20
0.07411
 30
0.0
  0
SPLINE
  5
7A
330
1F
100
AcDbEntity
  8
Camada 1
370
     9
100
AcDbSpline
210
0.0
220
0.0
230
1.0
 70
    11
 71
     3
 72
   112
 73
   108
 74
     0
 42
0.0000000001
 43
0.0000000001
 40
0.0
 40
0.0
 40
0.0
 40
0.0
 40
0.0357142857142857
 40
0.0357142857142857
 40
0.0357142857142857
 40
0.0357142857142857
 40
0.0714285714285714
 40
0.0714285714285714
 40
0.0714285714285714
 40
0.0714285714285714
 40
0.1071428571428571
 40
0.1071428571428571
 40
0.1071428571428571
 40
0.1071428571428571
 40
0.1428571428571428
 40
0.1428571428571428
 40
0.1428571428571428
 40
0.1428571428571428
 40
0.1785714285714286
 40
0.1785714285714286
 40
0.1785714285714286
 40
0.1785714285714286
 40
0.2142857142857143
 40
0.2142857142857143
 40
0.2142857142857143
 40
0.2142857142857143
 40
0.25
 40
0.25
 40
0.25
 40
0.25
 40
0.2857142857142857
 40
0.2857142857142857
 40
0.2857142857142857
 40
0.2857142857142857
 40
0.3214285714285715
 40
0.3214285714285715
 40
0.3214285714285715
 40
0.3214285714285715
 40
0.3571428571428572
 40
0.3571428571428572
 40
0.3571428571428572
 40
0.3571428571428572
 40
0.3928571428571428
 40
0.3928571428571428
 40
0.3928571428571428
 40
0.3928571428571428
 40
0.4285714285714285
 40
0.4285714285714285
 40
0.4285714285714285
 40
0.4285714285714285
 40
0.4642857142857143
 40
0.4642857142857143
 40
0.4642857142857143
 40
0.4642857142857143
 40
0.5
 40
0.5
 40
0.5
 40
0.5
 40
0.5357142857142857
 40
0.5357142857142857
 40
0.5357142857142857
 40
0.5357142857142857
 40
0.5714285714285714
 40
0.5714285714285714
 40
0.5714285714285714
 40
0.5714285714285714
 40
0.6071428571428571
 40
0.6071428571428571
 40
0.6071428571428571
 40
0.6071428571428571
 40
0.6428571428571429
 40
0.6428571428571429
 40
0.6428571428571429
 40
0.6428571428571429
 40
0.6785714285714286
 40
0.6785714285714286
 40
0.6785714285714286
 40
0.6785714285714286
 40
0.7142857142857143
 40
0.7142857142857143
 40
0.7142857142857143
 40
0.7142857142857143
 40
0.75
 40
0.75
 40
0.75
 40
0.75
 40
0.7857142857142857
 40
0.7857142857142857
 40
0.7857142857142857
 40
0.7857142857142857
 40
0.8214285714285714
 40
0.8214285714285714
 40
0.8214285714285714
 40
0.8214285714285714
 40
0.8571428571428571
 40
0.8571428571428571
 40
0.8571428571428571
 40
0.8571428571428571
 40
0.8928571428571429
 40
0.8928571428571429
 40
0.8928571428571429
 40
0.8928571428571429
 40
0.9285714285714286
 40
0.9285714285714286
 40
0.9285714285714286
 40
0.9285714285714286
 40
1.0
 40
1.0
 40
1.0
 40
1.0
 10
-20.86571
 20
0.10539
 30
0.0
 10
-20.45851
 20
0.35373
 30
0.0
 10
-20.14258
 20
0.86769
 30
0.0
 10
-20.1516
 20
1.65004
 30
0.0
 10
-20.1516
 20
1.65004
 30
0.0
 10
-20.1516
 20
1.65004
 30
0.0
 10
-20.1516
 20
1.65004
 30
0.0
 10
-20.1516
 20
1.65004
 30
0.0
 10
-20.1516
 20
1.65004
 30
0.0
 10
-20.1516
 20
1.65004
 30
0.0
 10
-20.45523
 20
1.65004
 30
0.0
 10
-20.45523
 20
1.65004
 30
0.0
 10
-20.45523
 20
1.65004
 30
0.0
 10
-20.45523
 20
1.65004
 30
0.0
 10
-20.45523
 20
2.84316
 30
0.0
 10
-20.45523
 20
2.84316
 30
0.0
 10
-20.45523
 20
2.84316
 30
0.0
 10
-20.45523
 20
2.84316
 30
0.0
 10
-21.32835
 20
2.84316
 30
0.0
 10
-21.32835
 20
2.84316
 30
0.0
 10
-21.32835
 20
2.84316
 30
0.0
 10
-21.32835
 20
2.84316
 30
0.0
 10
-21.32835
 20
1.16097
 30
0.0
 10
-21.32835
 20
1.16097
 30
0.0
 10
-21.32835
 20
1.16097
 30
0.0
 10
-21.32835
 20
1.16097
 30
0.0
 10
-21.62835
 20
1.16097
 30
0.0
 10
-21.62835
 20
1.16097
 30
0.0
 10
-21.62835
 20
1.16097
 30
0.0
 10
-21.62835
 20
1.16097
 30
0.0
 10
-21.62835
 20
2.84316
 30
0.0
 10
-21.62835
 20
2.84316
 30
0.0
 10
-21.62835
 20
2.84316
 30
0.0
 10
-21.62835
 20
2.84316
 30
0.0
 10
-22.50145
 20
2.84316
 30
0.0
 10
-22.50145
 20
2.84316
 30
0.0
 10
-22.50145
 20
2.84316
 30
0.0
 10
-22.50145
 20
2.84316
 30
0.0
 10
-22.50145
 20
1.65004
 30
0.0
 10
-22.50145
 20
1.65004
 30
0.0
 10
-22.50145
 20
1.65004
 30
0.0
 10
-22.50145
 20
1.65004
 30
0.0
 10
-22.80508
 20
1.65004
 30
0.0
 10
-22.80508
 20
1.65004
 30
0.0
 10
-22.80508
 20
1.65004
 30
0.0
 10
-22.81407
 20
0.87006
 30
0.0
 10
-22.49354
 20
0.35409
 30
0.0
 10
-22.08214
 20
0.10521
 30
0.0
 10
-22.08214
 20
0.10521
 30
0.0
 10
-22.08214
 20
0.10521
 30
0.0
 10
-22.08242
 20
0.53678
 30
0.0
 10
-22.08242
 20
0.53678
 30
0.0
 10
-22.08242
 20
0.53678
 30
0.0
 10
-22.08242
 20
0.53678
 30
0.0
 10
-22.08242
 20
0.53678
 30
0.0
 10
-22.08242
 20
0.53678
 30
0.0
 10
-22.08242
 20
0.53678
 30
0.0
 10
-22.08242
 20
0.53678
 30
0.0
 10
-22.0824
 20
0.53678
 30
0.0
 10
-22.0824
 20
0.53678
 30
0.0
 10
-22.0824
 20
0.53678
 30
0.0
 10
-22.0824
 20
0.53678
 30
0.0
 10
-21.78242
 20
0.53678
 30
0.0
 10
-21.78242
 20
0.53678
 30
0.0
 10
-21.78242
 20
0.53678
 30
0.0
 10
-21.78242
 20
0.53678
 30
0.0
 10
-21.78242
 20
0.53678
 30
0.0
 10
-21.78242
 20
0.53678
 30
0.0
 10
-21.78242
 20
0.53678
 30
0.0
 10
-21.78242
 20
0.53678
 30
0.0
 10
-21.78242
 20
0.53677
 30
0.0
 10
-21.78242
 20
0.53677
 30
0.0
 10
-21.78242
 20
0.53677
 30
0.0
 10
-21.78242
 20
0.53677
 30
0.0
 10
-21.78242
 20
-0.03033
 30
0.0
 10
-21.78242
 20
-0.03033
 30
0.0
 10
-21.78242
 20
-0.03033
 30
0.0
 10
-21.58431
 20
-0.08229
 30
0.0
 10
-21.3633
 20
-0.08308
 30
0.0
 10
-21.16571
 20
-0.03035
 30
0.0
 10
-21.16571
 20
-0.03035
 30
0.0
 10
-21.16571
 20
-0.03035
 30
0.0
 10
-21.16571
 20
0.53677
 30
0.0
 10
-21.16571
 20
0.53677
 30
0.0
 10
-21.16571
 20
0.53677
 30
0.0
 10
-21.16571
 20
0.53677
 30
0.0
 10
-21.16571
 20
0.53678
 30
0.0
 10
-21.16571
 20
0.53678
 30
0.0
 10
-21.16571
 20
0.53678
 30
0.0
 10
-21.16571
 20
0.53678
 30
0.0
 10
-21.16571
 20
0.53678
 30
0.0
 10
-21.16571
 20
0.53678
 30
0.0
 10
-21.16571
 20
0.53678
 30
0.0
 10
-21.16571
 20
0.53678
 30
0.0
 10
-20.86573
 20
0.53678
 30
0.0
 10
-20.86573
 20
0.53678
 30
0.0
 10
-20.86573
 20
0.53678
 30
0.0
 10
-20.86573
 20
0.53678
 30
0.0
 10
-20.86571
 20
0.53678
 30
0.0
 10
-20.86571
 20
0.53678
 30
0.0
 10
-20.86571
 20
0.53678
 30
0.0
 10
-20.86571
 20
0.53678
 30
0.0
 10
-20.86571
 20
0.53678
 30
0.0
 10
-20.86571
 20
0.53678
 30
0.0
 10
-20.86571
 20
0.53678
 30
0.0
 10
-20.86571
 20
0.53678
 30
0.0
 10
-20.86571
 20
0.10539
 30
0.0
 10
-20.86571
 20
0.10539
 30
0.0
  0
SPLINE
  5
7B
330
1F
100
AcDbEntity
  8
Camada 1
370
     9
100
AcDbSpline
210
0.0
220
0.0
230
1.0
 70
    11
 71
     3
 72
    52
 73
    48
 74
     0
 42
0.0000000001
 43
0.0000000001
 40
0.0
 40
0.0
 40
0.0
 40
0.0
 40
0.0769230769230769
 40
0.0769230769230769
 40
0.0769230769230769
 40
0.0769230769230769
 40
0.1538461538461539
 40
0.1538461538461539
 40
0.1538461538461539
 40
0.1538461538461539
 40
0.2307692307692308
 40
0.2307692307692308
 40
0.2307692307692308
 40
0.2307692307692308
 40
0.3076923076923077
 40
0.3076923076923077
 40
0.3076923076923077
 40
0.3076923076923077
 40
0.3846153846153846
 40
0.3846153846153846
 40
0.3846153846153846
 40
0.3846153846153846
 40
0.4615384615384616
 40
0.4615384615384616
 40
0.4615384615384616
 40
0.4615384615384616
 40
0.5384615384615384
 40
0.5384615384615384
 40
0.5384615384615384
 40
0.5384615384615384
 40
0.6153846153846154
 40
0.6153846153846154
 40
0.6153846153846154
 40
0.6153846153846154
 40
0.6923076923076923
 40
0.6923076923076923
 40
0.6923076923076923
 40
0.6923076923076923
 40
0.7692307692307693
 40
0.7692307692307693
 40
0.7692307692307693
 40
0.7692307692307693
 40
0.8461538461538461
 40
0.8461538461538461
 40
0.8461538461538461
 40
0.8461538461538461
 40
1.0
 40
1.0
 40
1.0
 40
1.0
 10
-10.83004
 20
6.67688
 30
0.0
 10
-10.83004
 20
6.67688
 30
0.0
 10
-10.83004
 20
5.01672
 30
0.0
 10
-10.83004
 20
5.01672
 30
0.0
 10
-10.83004
 20
5.01672
 30
0.0
 10
-10.83004
 20
5.01672
 30
0.0
 10
-11.13004
 20
5.01672
 30
0.0
 10
-11.13004
 20
5.01672
 30
0.0
 10
-11.13004
 20
5.01672
 30
0.0
 10
-11.13004
 20
5.01672
 30
0.0
 10
-11.13004
 20
6.67688
 30
0.0
 10
-11.13004
 20
6.67688
 30
0.0
 10
-11.13004
 20
6.67688
 30
0.0
 10
-11.13004
 20
6.67688
 30
0.0
 10
-12.00316
 20
6.67688
 30
0.0
 10
-12.00316
 20
6.67688
 30
0.0
 10
-12.00316
 20
6.67688
 30
0.0
 10
-12.00316
 20
6.67688
 30
0.0
 10
-12.00316
 20
5.50879
 30
0.0
 10
-12.00316
 20
5.50879
 30
0.0
 10
-12.00316
 20
5.50879
 30
0.0
 10
-12.00316
 20
5.50879
 30
0.0
 10
-12.30678
 20
5.50879
 30
0.0
 10
-12.30678
 20
5.50879
 30
0.0
 10
-12.30678
 20
5.50879
 30
0.0
 10
-12.31397
 20
4.88106
 30
0.0
 10
-11.9252
 20
4.23953
 30
0.0
 10
-11.34105
 20
4.23953
 30
0.0
 10
-11.34105
 20
4.23953
 30
0.0
 10
-11.34105
 20
4.23953
 30
0.0
 10
-10.61903
 20
4.23953
 30
0.0
 10
-10.61903
 20
4.23953
 30
0.0
 10
-10.61903
 20
4.23953
 30
0.0
 10
-10.03489
 20
4.23953
 30
0.0
 10
-9.64611
 20
4.88106
 30
0.0
 10
-9.65329
 20
5.50879
 30
0.0
 10
-9.65329
 20
5.50879
 30
0.0
 10
-9.65329
 20
5.50879
 30
0.0
 10
-9.95693
 20
5.50879
 30
0.0
 10
-9.95693
 20
5.50879
 30
0.0
 10
-9.95693
 20
5.50879
 30
0.0
 10
-9.95693
 20
5.50879
 30
0.0
 10
-9.95693
 20
6.67688
 30
0.0
 10
-9.95693
 20
6.67688
 30
0.0
 10
-9.95693
 20
6.67688
 30
0.0
 10
-9.95693
 20
6.67688
 30
0.0
 10
-10.83004
 20
6.67688
 30
0.0
 10
-10.83004
 20
6.67688
 30
0.0
  0
SPLINE
  5
7C
330
1F
100
AcDbEntity
  8
Camada 1
370
     9
100
AcDbSpline
210
0.0
220
0.0
230
1.0
 70
    11
 71
     3
 72
    52
 73
    48
 74
     0
 42
0.0000000001
 43
0.0000000001
 40
0.0
 40
0.0
 40
0.0
 40
0.0
 40
0.0769230769230769
 40
0.0769230769230769
 40
0.0769230769230769
 40
0.0769230769230769
 40
0.1538461538461539
 40
0.1538461538461539
 40
0.1538461538461539
 40
0.1538461538461539
 40
0.2307692307692308
 40
0.2307692307692308
 40
0.2307692307692308
 40
0.2307692307692308
 40
0.3076923076923077
 40
0.3076923076923077
 40
0.3076923076923077
 40
0.3076923076923077
 40
0.3846153846153846
 40
0.3846153846153846
 40
0.3846153846153846
 40
0.3846153846153846
 40
0.4615384615384616
 40
0.4615384615384616
 40
0.4615384615384616
 40
0.4615384615384616
 40
0.5384615384615384
 40
0.5384615384615384
 40
0.5384615384615384
 40
0.5384615384615384
 40
0.6153846153846154
 40
0.6153846153846154
 40
0.6153846153846154
 40
0.6153846153846154
 40
0.6923076923076923
 40
0.6923076923076923
 40
0.6923076923076923
 40
0.6923076923076923
 40
0.7692307692307693
 40
0.7692307692307693
 40
0.7692307692307693
 40
0.7692307692307693
 40
0.8461538461538461
 40
0.8461538461538461
 40
0.8461538461538461
 40
0.8461538461538461
 40
1.0
 40
1.0
 40
1.0
 40
1.0
 10
-25.23733
 20
6.6975
 30
0.0
 10
-25.23733
 20
6.6975
 30
0.0
 10
-25.23733
 20
5.04752
 30
0.0
 10
-25.23733
 20
5.04752
 30
0.0
 10
-25.23733
 20
5.04752
 30
0.0
 10
-25.23733
 20
5.04752
 30
0.0
 10
-25.53733
 20
5.04752
 30
0.0
 10
-25.53733
 20
5.04752
 30
0.0
 10
-25.53733
 20
5.04752
 30
0.0
 10
-25.53733
 20
5.04752
 30
0.0
 10
-25.53733
 20
6.6975
 30
0.0
 10
-25.53733
 20
6.6975
 30
0.0
 10
-25.53733
 20
6.6975
 30
0.0
 10
-25.53733
 20
6.6975
 30
0.0
 10
-26.41044
 20
6.6975
 30
0.0
 10
-26.41044
 20
6.6975
 30
0.0
 10
-26.41044
 20
6.6975
 30
0.0
 10
-26.41044
 20
6.6975
 30
0.0
 10
-26.41044
 20
5.53657
 30
0.0
 10
-26.41044
 20
5.53657
 30
0.0
 10
-26.41044
 20
5.53657
 30
0.0
 10
-26.41044
 20
5.53657
 30
0.0
 10
-26.71407
 20
5.53657
 30
0.0
 10
-26.71407
 20
5.53657
 30
0.0
 10
-26.71407
 20
5.53657
 30
0.0
 10
-26.72125
 20
4.91268
 30
0.0
 10
-26.33249
 20
4.27508
 30
0.0
 10
-25.74834
 20
4.27508
 30
0.0
 10
-25.74834
 20
4.27508
 30
0.0
 10
-25.74834
 20
4.27508
 30
0.0
 10
-25.02633
 20
4.27508
 30
0.0
 10
-25.02633
 20
4.27508
 30
0.0
 10
-25.02633
 20
4.27508
 30
0.0
 10
-24.44216
 20
4.27508
 30
0.0
 10
-24.05341
 20
4.91268
 30
0.0
 10
-24.0606
 20
5.53657
 30
0.0
 10
-24.0606
 20
5.53657
 30
0.0
 10
-24.0606
 20
5.53657
 30
0.0
 10
-24.36423
 20
5.53657
 30
0.0
 10
-24.36423
 20
5.53657
 30
0.0
 10
-24.36423
 20
5.53657
 30
0.0
 10
-24.36423
 20
5.53657
 30
0.0
 10
-24.36423
 20
6.6975
 30
0.0
 10
-24.36423
 20
6.6975
 30
0.0
 10
-24.36423
 20
6.6975
 30
0.0
 10
-24.36423
 20
6.6975
 30
0.0
 10
-25.23733
 20
6.6975
 30
0.0
 10
-25.23733
 20
6.6975
 30
0.0
  0
SPLINE
  5
7D
330
1F
100
AcDbEntity
  8
Camada 1
370
     9
100
AcDbSpline
210
0.0
220
0.0
230
1.0
 70
    11
 71
     3
 72
    52
 73
    48
 74
     0
 42
0.0000000001
 43
0.0000000001
 40
0.0
 40
0.0
 40
0.0
 40
0.0
 40
0.0769230769230769
 40
0.0769230769230769
 40
0.0769230769230769
 40
0.0769230769230769
 40
0.1538461538461539
 40
0.1538461538461539
 40
0.1538461538461539
 40
0.1538461538461539
 40
0.2307692307692308
 40
0.2307692307692308
 40
0.2307692307692308
 40
0.2307692307692308
 40
0.3076923076923077
 40
0.3076923076923077
 40
0.3076923076923077
 40
0.3076923076923077
 40
0.3846153846153846
 40
0.3846153846153846
 40
0.3846153846153846
 40
0.3846153846153846
 40
0.4615384615384616
 40
0.4615384615384616
 40
0.4615384615384616
 40
0.4615384615384616
 40
0.5384615384615384
 40
0.5384615384615384
 40
0.5384615384615384
 40
0.5384615384615384
 40
0.6153846153846154
 40
0.6153846153846154
 40
0.6153846153846154
 40
0.6153846153846154
 40
0.6923076923076923
 40
0.6923076923076923
 40
0.6923076923076923
 40
0.6923076923076923
 40
0.7692307692307693
 40
0.7692307692307693
 40
0.7692307692307693
 40
0.7692307692307693
 40
0.8461538461538461
 40
0.8461538461538461
 40
0.8461538461538461
 40
0.8461538461538461
 40
1.0
 40
1.0
 40
1.0
 40
1.0
 10
-25.12696
 20
10.35811
 30
0.0
 10
-25.12696
 20
10.35811
 30
0.0
 10
-25.12696
 20
8.70812
 30
0.0
 10
-25.12696
 20
8.70812
 30
0.0
 10
-25.12696
 20
8.70812
 30
0.0
 10
-25.12696
 20
8.70812
 30
0.0
 10
-25.42696
 20
8.70812
 30
0.0
 10
-25.42696
 20
8.70812
 30
0.0
 10
-25.42696
 20
8.70812
 30
0.0
 10
-25.42696
 20
8.70812
 30
0.0
 10
-25.42696
 20
10.35811
 30
0.0
 10
-25.42696
 20
10.35811
 30
0.0
 10
-25.42696
 20
10.35811
 30
0.0
 10
-25.42696
 20
10.35811
 30
0.0
 10
-26.30007
 20
10.35811
 30
0.0
 10
-26.30007
 20
10.35811
 30
0.0
 10
-26.30007
 20
10.35811
 30
0.0
 10
-26.30007
 20
10.35811
 30
0.0
 10
-26.30007
 20
9.19717
 30
0.0
 10
-26.30007
 20
9.19717
 30
0.0
 10
-26.30007
 20
9.19717
 30
0.0
 10
-26.30007
 20
9.19717
 30
0.0
 10
-26.60369
 20
9.19717
 30
0.0
 10
-26.60369
 20
9.19717
 30
0.0
 10
-26.60369
 20
9.19717
 30
0.0
 10
-26.61089
 20
8.57328
 30
0.0
 10
-26.22212
 20
7.93569
 30
0.0
 10
-25.63796
 20
7.93569
 30
0.0
 10
-25.63796
 20
7.93569
 30
0.0
 10
-25.63796
 20
7.93569
 30
0.0
 10
-24.91596
 20
7.93569
 30
0.0
 10
-24.91596
 20
7.93569
 30
0.0
 10
-24.91596
 20
7.93569
 30
0.0
 10
-24.3318
 20
7.93569
 30
0.0
 10
-23.94304
 20
8.57328
 30
0.0
 10
-23.95022
 20
9.19717
 30
0.0
 10
-23.95022
 20
9.19717
 30
0.0
 10
-23.95022
 20
9.19717
 30
0.0
 10
-24.25386
 20
9.19717
 30
0.0
 10
-24.25386
 20
9.19717
 30
0.0
 10
-24.25386
 20
9.19717
 30
0.0
 10
-24.25386
 20
9.19717
 30
0.0
 10
-24.25386
 20
10.35811
 30
0.0
 10
-24.25386
 20
10.35811
 30
0.0
 10
-24.25386
 20
10.35811
 30
0.0
 10
-24.25386
 20
10.35811
 30
0.0
 10
-25.12696
 20
10.35811
 30
0.0
 10
-25.12696
 20
10.35811
 30
0.0
  0
SPLINE
  5
7E
330
1F
100
AcDbEntity
  8
Camada 1
370
     9
100
AcDbSpline
210
0.0
220
0.0
230
1.0
 70
    11
 71
     3
 72
    52
 73
    48
 74
     0
 42
0.0000000001
 43
0.0000000001
 40
0.0
 40
0.0
 40
0.0
 40
0.0
 40
0.0769230769230769
 40
0.0769230769230769
 40
0.0769230769230769
 40
0.0769230769230769
 40
0.1538461538461539
 40
0.1538461538461539
 40
0.1538461538461539
 40
0.1538461538461539
 40
0.2307692307692308
 40
0.2307692307692308
 40
0.2307692307692308
 40
0.2307692307692308
 40
0.3076923076923077
 40
0.3076923076923077
 40
0.3076923076923077
 40
0.3076923076923077
 40
0.3846153846153846
 40
0.3846153846153846
 40
0.3846153846153846
 40
0.3846153846153846
 40
0.4615384615384616
 40
0.4615384615384616
 40
0.4615384615384616
 40
0.4615384615384616
 40
0.5384615384615384
 40
0.5384615384615384
 40
0.5384615384615384
 40
0.5384615384615384
 40
0.6153846153846154
 40
0.6153846153846154
 40
0.6153846153846154
 40
0.6153846153846154
 40
0.6923076923076923
 40
0.6923076923076923
 40
0.6923076923076923
 40
0.6923076923076923
 40
0.7692307692307693
 40
0.7692307692307693
 40
0.7692307692307693
 40
0.7692307692307693
 40
0.8461538461538461
 40
0.8461538461538461
 40
0.8461538461538461
 40
0.8461538461538461
 40
1.0
 40
1.0
 40
1.0
 40
1.0
 10
-21.46406
 20
10.31706
 30
0.0
 10
-21.46406
 20
10.31706
 30
0.0
 10
-21.46406
 20
8.66706
 30
0.0
 10
-21.46406
 20
8.66706
 30
0.0
 10
-21.46406
 20
8.66706
 30
0.0
 10
-21.46406
 20
8.66706
 30
0.0
 10
-21.76406
 20
8.66706
 30
0.0
 10
-21.76406
 20
8.66706
 30
0.0
 10
-21.76406
 20
8.66706
 30
0.0
 10
-21.76406
 20
8.66706
 30
0.0
 10
-21.76363
 20
10.31697
 30
0.0
 10
-21.76363
 20
10.31697
 30
0.0
 10
-21.76363
 20
10.31697
 30
0.0
 10
-21.76363
 20
10.31697
 30
0.0
 10
-22.63224
 20
10.31689
 30
0.0
 10
-22.63224
 20
10.31689
 30
0.0
 10
-22.63224
 20
10.31689
 30
0.0
 10
-22.63224
 20
10.31689
 30
0.0
 10
-22.63716
 20
9.15612
 30
0.0
 10
-22.63716
 20
9.15612
 30
0.0
 10
-22.63716
 20
9.15612
 30
0.0
 10
-22.63716
 20
9.15612
 30
0.0
 10
-22.94079
 20
9.15612
 30
0.0
 10
-22.94079
 20
9.15612
 30
0.0
 10
-22.94079
 20
9.15612
 30
0.0
 10
-22.94798
 20
8.53223
 30
0.0
 10
-22.55921
 20
7.89462
 30
0.0
 10
-21.97506
 20
7.89462
 30
0.0
 10
-21.97506
 20
7.89462
 30
0.0
 10
-21.97506
 20
7.89462
 30
0.0
 10
-21.25305
 20
7.89462
 30
0.0
 10
-21.25305
 20
7.89462
 30
0.0
 10
-21.25305
 20
7.89462
 30
0.0
 10
-20.66889
 20
7.89462
 30
0.0
 10
-20.28013
 20
8.53223
 30
0.0
 10
-20.28731
 20
9.15612
 30
0.0
 10
-20.28731
 20
9.15612
 30
0.0
 10
-20.28731
 20
9.15612
 30
0.0
 10
-20.59095
 20
9.15612
 30
0.0
 10
-20.59095
 20
9.15612
 30
0.0
 10
-20.59095
 20
9.15612
 30
0.0
 10
-20.59095
 20
9.15612
 30
0.0
 10
-20.59138
 20
10.31847
 30
0.0
 10
-20.59138
 20
10.31847
 30
0.0
 10
-20.59138
 20
10.31847
 30
0.0
 10
-20.59138
 20
10.31847
 30
0.0
 10
-21.46406
 20
10.31706
 30
0.0
 10
-21.46406
 20
10.31706
 30
0.0
  0
SPLINE
  5
7F
330
1F
100
AcDbEntity
  8
Camada 1
370
     9
100
AcDbSpline
210
0.0
220
0.0
230
1.0
 70
    11
 71
     3
 72
    52
 73
    48
 74
     0
 42
0.0000000001
 43
0.0000000001
 40
0.0
 40
0.0
 40
0.0
 40
0.0
 40
0.0769230769230769
 40
0.0769230769230769
 40
0.0769230769230769
 40
0.0769230769230769
 40
0.1538461538461539
 40
0.1538461538461539
 40
0.1538461538461539
 40
0.1538461538461539
 40
0.2307692307692308
 40
0.2307692307692308
 40
0.2307692307692308
 40
0.2307692307692308
 40
0.3076923076923077
 40
0.3076923076923077
 40
0.3076923076923077
 40
0.3076923076923077
 40
0.3846153846153846
 40
0.3846153846153846
 40
0.3846153846153846
 40
0.3846153846153846
 40
0.4615384615384616
 40
0.4615384615384616
 40
0.4615384615384616
 40
0.4615384615384616
 40
0.5384615384615384
 40
0.5384615384615384
 40
0.5384615384615384
 40
0.5384615384615384
 40
0.6153846153846154
 40
0.6153846153846154
 40
0.6153846153846154
 40
0.6153846153846154
 40
0.6923076923076923
 40
0.6923076923076923
 40
0.6923076923076923
 40
0.6923076923076923
 40
0.7692307692307693
 40
0.7692307692307693
 40
0.7692307692307693
 40
0.7692307692307693
 40
0.8461538461538461
 40
0.8461538461538461
 40
0.8461538461538461
 40
0.8461538461538461
 40
1.0
 40
1.0
 40
1.0
 40
1.0
 10
-21.61811
 20
6.71594
 30
0.0
 10
-21.61811
 20
6.71594
 30
0.0
 10
-21.61811
 20
5.06596
 30
0.0
 10
-21.61811
 20
5.06596
 30
0.0
 10
-21.61811
 20
5.06596
 30
0.0
 10
-21.61811
 20
5.06596
 30
0.0
 10
-21.91811
 20
5.06596
 30
0.0
 10
-21.91811
 20
5.06596
 30
0.0
 10
-21.91811
 20
5.06596
 30
0.0
 10
-21.91811
 20
5.06596
 30
0.0
 10
-21.91811
 20
6.71594
 30
0.0
 10
-21.91811
 20
6.71594
 30
0.0
 10
-21.91811
 20
6.71594
 30
0.0
 10
-21.91811
 20
6.71594
 30
0.0
 10
-22.79122
 20
6.71594
 30
0.0
 10
-22.79122
 20
6.71594
 30
0.0
 10
-22.79122
 20
6.71594
 30
0.0
 10
-22.79122
 20
6.71594
 30
0.0
 10
-22.79122
 20
5.55501
 30
0.0
 10
-22.79122
 20
5.55501
 30
0.0
 10
-22.79122
 20
5.55501
 30
0.0
 10
-22.79122
 20
5.55501
 30
0.0
 10
-23.09485
 20
5.55501
 30
0.0
 10
-23.09485
 20
5.55501
 30
0.0
 10
-23.09485
 20
5.55501
 30
0.0
 10
-23.10204
 20
4.93113
 30
0.0
 10
-22.71326
 20
4.29351
 30
0.0
 10
-22.12912
 20
4.29351
 30
0.0
 10
-22.12912
 20
4.29351
 30
0.0
 10
-22.12912
 20
4.29351
 30
0.0
 10
-21.4071
 20
4.29351
 30
0.0
 10
-21.4071
 20
4.29351
 30
0.0
 10
-21.4071
 20
4.29351
 30
0.0
 10
-20.82295
 20
4.29351
 30
0.0
 10
-20.43418
 20
4.93113
 30
0.0
 10
-20.44136
 20
5.55501
 30
0.0
 10
-20.44136
 20
5.55501
 30
0.0
 10
-20.44136
 20
5.55501
 30
0.0
 10
-20.745
 20
5.55501
 30
0.0
 10
-20.745
 20
5.55501
 30
0.0
 10
-20.745
 20
5.55501
 30
0.0
 10
-20.745
 20
5.55501
 30
0.0
 10
-20.745
 20
6.71594
 30
0.0
 10
-20.745
 20
6.71594
 30
0.0
 10
-20.745
 20
6.71594
 30
0.0
 10
-20.745
 20
6.71594
 30
0.0
 10
-21.61811
 20
6.71594
 30
0.0
 10
-21.61811
 20
6.71594
 30
0.0
  0
SPLINE
  5
80
330
1F
100
AcDbEntity
  8
Camada 1
370
     9
100
AcDbSpline
210
0.0
220
0.0
230
1.0
 70
    11
 71
     3
 72
    52
 73
    48
 74
     0
 42
0.0000000001
 43
0.0000000001
 40
0.0
 40
0.0
 40
0.0
 40
0.0
 40
0.0769230769230769
 40
0.0769230769230769
 40
0.0769230769230769
 40
0.0769230769230769
 40
0.1538461538461539
 40
0.1538461538461539
 40
0.1538461538461539
 40
0.1538461538461539
 40
0.2307692307692308
 40
0.2307692307692308
 40
0.2307692307692308
 40
0.2307692307692308
 40
0.3076923076923077
 40
0.3076923076923077
 40
0.3076923076923077
 40
0.3076923076923077
 40
0.3846153846153846
 40
0.3846153846153846
 40
0.3846153846153846
 40
0.3846153846153846
 40
0.4615384615384616
 40
0.4615384615384616
 40
0.4615384615384616
 40
0.4615384615384616
 40
0.5384615384615384
 40
0.5384615384615384
 40
0.5384615384615384
 40
0.5384615384615384
 40
0.6153846153846154
 40
0.6153846153846154
 40
0.6153846153846154
 40
0.6153846153846154
 40
0.6923076923076923
 40
0.6923076923076923
 40
0.6923076923076923
 40
0.6923076923076923
 40
0.7692307692307693
 40
0.7692307692307693
 40
0.7692307692307693
 40
0.7692307692307693
 40
0.8461538461538461
 40
0.8461538461538461
 40
0.8461538461538461
 40
0.8461538461538461
 40
1.0
 40
1.0
 40
1.0
 40
1.0
 10
-17.71609
 20
10.33169
 30
0.0
 10
-17.71609
 20
10.33169
 30
0.0
 10
-17.71609
 20
8.6817
 30
0.0
 10
-17.71609
 20
8.6817
 30
0.0
 10
-17.71609
 20
8.6817
 30
0.0
 10
-17.71609
 20
8.6817
 30
0.0
 10
-18.01609
 20
8.6817
 30
0.0
 10
-18.01609
 20
8.6817
 30
0.0
 10
-18.01609
 20
8.6817
 30
0.0
 10
-18.01609
 20
8.6817
 30
0.0
 10
-18.01652
 20
10.3331
 30
0.0
 10
-18.01652
 20
10.3331
 30
0.0
 10
-18.01652
 20
10.3331
 30
0.0
 10
-18.01652
 20
10.3331
 30
0.0
 10
-18.88921
 20
10.33169
 30
0.0
 10
-18.88921
 20
10.33169
 30
0.0
 10
-18.88921
 20
10.33169
 30
0.0
 10
-18.88921
 20
10.33169
 30
0.0
 10
-18.88921
 20
9.17076
 30
0.0
 10
-18.88921
 20
9.17076
 30
0.0
 10
-18.88921
 20
9.17076
 30
0.0
 10
-18.88921
 20
9.17076
 30
0.0
 10
-19.19284
 20
9.17076
 30
0.0
 10
-19.19284
 20
9.17076
 30
0.0
 10
-19.19284
 20
9.17076
 30
0.0
 10
-19.20003
 20
8.54687
 30
0.0
 10
-18.81124
 20
7.90927
 30
0.0
 10
-18.2271
 20
7.90927
 30
0.0
 10
-18.2271
 20
7.90927
 30
0.0
 10
-18.2271
 20
7.90927
 30
0.0
 10
-17.50508
 20
7.90927
 30
0.0
 10
-17.50508
 20
7.90927
 30
0.0
 10
-17.50508
 20
7.90927
 30
0.0
 10
-16.92093
 20
7.90927
 30
0.0
 10
-16.53216
 20
8.54687
 30
0.0
 10
-16.53934
 20
9.17076
 30
0.0
 10
-16.53934
 20
9.17076
 30
0.0
 10
-16.53934
 20
9.17076
 30
0.0
 10
-16.84298
 20
9.17076
 30
0.0
 10
-16.84298
 20
9.17076
 30
0.0
 10
-16.84298
 20
9.17076
 30
0.0
 10
-16.84298
 20
9.17076
 30
0.0
 10
-16.84298
 20
10.33169
 30
0.0
 10
-16.84298
 20
10.33169
 30
0.0
 10
-16.84298
 20
10.33169
 30
0.0
 10
-16.84298
 20
10.33169
 30
0.0
 10
-17.71609
 20
10.33169
 30
0.0
 10
-17.71609
 20
10.33169
 30
0.0
  0
SPLINE
  5
81
330
1F
100
AcDbEntity
  8
Camada 1
370
     9
100
AcDbSpline
210
0.0
220
0.0
230
1.0
 70
    11
 71
     3
 72
    52
 73
    48
 74
     0
 42
0.0000000001
 43
0.0000000001
 40
0.0
 40
0.0
 40
0.0
 40
0.0
 40
0.0769230769230769
 40
0.0769230769230769
 40
0.0769230769230769
 40
0.0769230769230769
 40
0.1538461538461539
 40
0.1538461538461539
 40
0.1538461538461539
 40
0.1538461538461539
 40
0.2307692307692308
 40
0.2307692307692308
 40
0.2307692307692308
 40
0.2307692307692308
 40
0.3076923076923077
 40
0.3076923076923077
 40
0.3076923076923077
 40
0.3076923076923077
 40
0.3846153846153846
 40
0.3846153846153846
 40
0.3846153846153846
 40
0.3846153846153846
 40
0.4615384615384616
 40
0.4615384615384616
 40
0.4615384615384616
 40
0.4615384615384616
 40
0.5384615384615384
 40
0.5384615384615384
 40
0.5384615384615384
 40
0.5384615384615384
 40
0.6153846153846154
 40
0.6153846153846154
 40
0.6153846153846154
 40
0.6153846153846154
 40
0.6923076923076923
 40
0.6923076923076923
 40
0.6923076923076923
 40
0.6923076923076923
 40
0.7692307692307693
 40
0.7692307692307693
 40
0.7692307692307693
 40
0.7692307692307693
 40
0.8461538461538461
 40
0.8461538461538461
 40
0.8461538461538461
 40
0.8461538461538461
 40
1.0
 40
1.0
 40
1.0
 40
1.0
 10
-18.05367
 20
6.73978
 30
0.0
 10
-18.05367
 20
6.73978
 30
0.0
 10
-18.05367
 20
5.0898
 30
0.0
 10
-18.05367
 20
5.0898
 30
0.0
 10
-18.05367
 20
5.0898
 30
0.0
 10
-18.05367
 20
5.0898
 30
0.0
 10
-18.35367
 20
5.0898
 30
0.0
 10
-18.35367
 20
5.0898
 30
0.0
 10
-18.35367
 20
5.0898
 30
0.0
 10
-18.35367
 20
5.0898
 30
0.0
 10
-18.35367
 20
6.73978
 30
0.0
 10
-18.35367
 20
6.73978
 30
0.0
 10
-18.35367
 20
6.73978
 30
0.0
 10
-18.35367
 20
6.73978
 30
0.0
 10
-19.22678
 20
6.73978
 30
0.0
 10
-19.22678
 20
6.73978
 30
0.0
 10
-19.22678
 20
6.73978
 30
0.0
 10
-19.22678
 20
6.73978
 30
0.0
 10
-19.22678
 20
5.57883
 30
0.0
 10
-19.22678
 20
5.57883
 30
0.0
 10
-19.22678
 20
5.57883
 30
0.0
 10
-19.22678
 20
5.57883
 30
0.0
 10
-19.53041
 20
5.57883
 30
0.0
 10
-19.53041
 20
5.57883
 30
0.0
 10
-19.53041
 20
5.57883
 30
0.0
 10
-19.53758
 20
4.95497
 30
0.0
 10
-19.14882
 20
4.31735
 30
0.0
 10
-18.56468
 20
4.31735
 30
0.0
 10
-18.56468
 20
4.31735
 30
0.0
 10
-18.56468
 20
4.31735
 30
0.0
 10
-17.84266
 20
4.31735
 30
0.0
 10
-17.84266
 20
4.31735
 30
0.0
 10
-17.84266
 20
4.31735
 30
0.0
 10
-17.2585
 20
4.31735
 30
0.0
 10
-16.86974
 20
4.95497
 30
0.0
 10
-16.87692
 20
5.57883
 30
0.0
 10
-16.87692
 20
5.57883
 30
0.0
 10
-16.87692
 20
5.57883
 30
0.0
 10
-17.18055
 20
5.57883
 30
0.0
 10
-17.18055
 20
5.57883
 30
0.0
 10
-17.18055
 20
5.57883
 30
0.0
 10
-17.18055
 20
5.57883
 30
0.0
 10
-17.18055
 20
6.73978
 30
0.0
 10
-17.18055
 20
6.73978
 30
0.0
 10
-17.18055
 20
6.73978
 30
0.0
 10
-17.18055
 20
6.73978
 30
0.0
 10
-18.05367
 20
6.73978
 30
0.0
 10
-18.05367
 20
6.73978
 30
0.0
  0
SPLINE
  5
82
330
1F
100
AcDbEntity
  8
Camada 1
370
     9
100
AcDbSpline
210
0.0
220
0.0
230
1.0
 70
    11
 71
     3
 72
    52
 73
    48
 74
     0
 42
0.0000000001
 43
0.0000000001
 40
0.0
 40
0.0
 40
0.0
 40
0.0
 40
0.0769230769230769
 40
0.0769230769230769
 40
0.0769230769230769
 40
0.0769230769230769
 40
0.1538461538461539
 40
0.1538461538461539
 40
0.1538461538461539
 40
0.1538461538461539
 40
0.2307692307692308
 40
0.2307692307692308
 40
0.2307692307692308
 40
0.2307692307692308
 40
0.3076923076923077
 40
0.3076923076923077
 40
0.3076923076923077
 40
0.3076923076923077
 40
0.3846153846153846
 40
0.3846153846153846
 40
0.3846153846153846
 40
0.3846153846153846
 40
0.4615384615384616
 40
0.4615384615384616
 40
0.4615384615384616
 40
0.4615384615384616
 40
0.5384615384615384
 40
0.5384615384615384
 40
0.5384615384615384
 40
0.5384615384615384
 40
0.6153846153846154
 40
0.6153846153846154
 40
0.6153846153846154
 40
0.6153846153846154
 40
0.6923076923076923
 40
0.6923076923076923
 40
0.6923076923076923
 40
0.6923076923076923
 40
0.7692307692307693
 40
0.7692307692307693
 40
0.7692307692307693
 40
0.7692307692307693
 40
0.8461538461538461
 40
0.8461538461538461
 40
0.8461538461538461
 40
0.8461538461538461
 40
1.0
 40
1.0
 40
1.0
 40
1.0
 10
-14.42338
 20
6.6895
 30
0.0
 10
-14.42338
 20
6.6895
 30
0.0
 10
-14.42338
 20
5.03951
 30
0.0
 10
-14.42338
 20
5.03951
 30
0.0
 10
-14.42338
 20
5.03951
 30
0.0
 10
-14.42338
 20
5.03951
 30
0.0
 10
-14.72338
 20
5.03951
 30
0.0
 10
-14.72338
 20
5.03951
 30
0.0
 10
-14.72338
 20
5.03951
 30
0.0
 10
-14.72338
 20
5.03951
 30
0.0
 10
-14.72338
 20
6.6895
 30
0.0
 10
-14.72338
 20
6.6895
 30
0.0
 10
-14.72338
 20
6.6895
 30
0.0
 10
-14.72338
 20
6.6895
 30
0.0
 10
-15.59652
 20
6.6895
 30
0.0
 10
-15.59652
 20
6.6895
 30
0.0
 10
-15.59652
 20
6.6895
 30
0.0
 10
-15.59652
 20
6.6895
 30
0.0
 10
-15.59652
 20
5.52856
 30
0.0
 10
-15.59652
 20
5.52856
 30
0.0
 10
-15.59652
 20
5.52856
 30
0.0
 10
-15.59652
 20
5.52856
 30
0.0
 10
-15.90013
 20
5.52856
 30
0.0
 10
-15.90013
 20
5.52856
 30
0.0
 10
-15.90013
 20
5.52856
 30
0.0
 10
-15.90732
 20
4.90468
 30
0.0
 10
-15.51855
 20
4.26708
 30
0.0
 10
-14.9344
 20
4.26708
 30
0.0
 10
-14.9344
 20
4.26708
 30
0.0
 10
-14.9344
 20
4.26708
 30
0.0
 10
-14.21238
 20
4.26708
 30
0.0
 10
-14.21238
 20
4.26708
 30
0.0
 10
-14.21238
 20
4.26708
 30
0.0
 10
-13.62823
 20
4.26708
 30
0.0
 10
-13.23946
 20
4.90468
 30
0.0
 10
-13.24664
 20
5.52856
 30
0.0
 10
-13.24664
 20
5.52856
 30
0.0
 10
-13.24664
 20
5.52856
 30
0.0
 10
-13.55028
 20
5.52856
 30
0.0
 10
-13.55028
 20
5.52856
 30
0.0
 10
-13.55028
 20
5.52856
 30
0.0
 10
-13.55028
 20
5.52856
 30
0.0
 10
-13.55028
 20
6.6895
 30
0.0
 10
-13.55028
 20
6.6895
 30
0.0
 10
-13.55028
 20
6.6895
 30
0.0
 10
-13.55028
 20
6.6895
 30
0.0
 10
-14.42338
 20
6.6895
 30
0.0
 10
-14.42338
 20
6.6895
 30
0.0
  0
SPLINE
  5
83
330
1F
100
AcDbEntity
  8
Camada 1
370
     9
100
AcDbSpline
210
0.0
220
0.0
230
1.0
 70
    11
 71
     3
 72
    52
 73
    48
 74
     0
 42
0.0000000001
 43
0.0000000001
 40
0.0
 40
0.0
 40
0.0
 40
0.0
 40
0.0769230769230769
 40
0.0769230769230769
 40
0.0769230769230769
 40
0.0769230769230769
 40
0.1538461538461539
 40
0.1538461538461539
 40
0.1538461538461539
 40
0.1538461538461539
 40
0.2307692307692308
 40
0.2307692307692308
 40
0.2307692307692308
 40
0.2307692307692308
 40
0.3076923076923077
 40
0.3076923076923077
 40
0.3076923076923077
 40
0.3076923076923077
 40
0.3846153846153846
 40
0.3846153846153846
 40
0.3846153846153846
 40
0.3846153846153846
 40
0.4615384615384616
 40
0.4615384615384616
 40
0.4615384615384616
 40
0.4615384615384616
 40
0.5384615384615384
 40
0.5384615384615384
 40
0.5384615384615384
 40
0.5384615384615384
 40
0.6153846153846154
 40
0.6153846153846154
 40
0.6153846153846154
 40
0.6153846153846154
 40
0.6923076923076923
 40
0.6923076923076923
 40
0.6923076923076923
 40
0.6923076923076923
 40
0.7692307692307693
 40
0.7692307692307693
 40
0.7692307692307693
 40
0.7692307692307693
 40
0.8461538461538461
 40
0.8461538461538461
 40
0.8461538461538461
 40
0.8461538461538461
 40
1.0
 40
1.0
 40
1.0
 40
1.0
 10
-14.0052
 20
10.32766
 30
0.0
 10
-14.0052
 20
10.32766
 30
0.0
 10
-14.0052
 20
8.67767
 30
0.0
 10
-14.0052
 20
8.67767
 30
0.0
 10
-14.0052
 20
8.67767
 30
0.0
 10
-14.0052
 20
8.67767
 30
0.0
 10
-14.3052
 20
8.67767
 30
0.0
 10
-14.3052
 20
8.67767
 30
0.0
 10
-14.3052
 20
8.67767
 30
0.0
 10
-14.3052
 20
8.67767
 30
0.0
 10
-14.3052
 20
10.32766
 30
0.0
 10
-14.3052
 20
10.32766
 30
0.0
 10
-14.3052
 20
10.32766
 30
0.0
 10
-14.3052
 20
10.32766
 30
0.0
 10
-15.17833
 20
10.32766
 30
0.0
 10
-15.17833
 20
10.32766
 30
0.0
 10
-15.17833
 20
10.32766
 30
0.0
 10
-15.17833
 20
10.32766
 30
0.0
 10
-15.17833
 20
9.16672
 30
0.0
 10
-15.17833
 20
9.16672
 30
0.0
 10
-15.17833
 20
9.16672
 30
0.0
 10
-15.17833
 20
9.16672
 30
0.0
 10
-15.48196
 20
9.16672
 30
0.0
 10
-15.48196
 20
9.16672
 30
0.0
 10
-15.48196
 20
9.16672
 30
0.0
 10
-15.48914
 20
8.54284
 30
0.0
 10
-15.10037
 20
7.90523
 30
0.0
 10
-14.51621
 20
7.90523
 30
0.0
 10
-14.51621
 20
7.90523
 30
0.0
 10
-14.51621
 20
7.90523
 30
0.0
 10
-13.79421
 20
7.90523
 30
0.0
 10
-13.79421
 20
7.90523
 30
0.0
 10
-13.79421
 20
7.90523
 30
0.0
 10
-13.21004
 20
7.90523
 30
0.0
 10
-12.82127
 20
8.54284
 30
0.0
 10
-12.82847
 20
9.16672
 30
0.0
 10
-12.82847
 20
9.16672
 30
0.0
 10
-12.82847
 20
9.16672
 30
0.0
 10
-13.1321
 20
9.16672
 30
0.0
 10
-13.1321
 20
9.16672
 30
0.0
 10
-13.1321
 20
9.16672
 30
0.0
 10
-13.1321
 20
9.16672
 30
0.0
 10
-13.1321
 20
10.32766
 30
0.0
 10
-13.1321
 20
10.32766
 30
0.0
 10
-13.1321
 20
10.32766
 30
0.0
 10
-13.1321
 20
10.32766
 30
0.0
 10
-14.0052
 20
10.32766
 30
0.0
 10
-14.0052
 20
10.32766
 30
0.0
  0
SPLINE
  5
84
330
1F
100
AcDbEntity
  8
Camada 1
370
     9
100
AcDbSpline
210
0.0
220
0.0
230
1.0
 70
    11
 71
     3
 72
    52
 73
    48
 74
     0
 42
0.0000000001
 43
0.0000000001
 40
0.0
 40
0.0
 40
0.0
 40
0.0
 40
0.0769230769230769
 40
0.0769230769230769
 40
0.0769230769230769
 40
0.0769230769230769
 40
0.1538461538461539
 40
0.1538461538461539
 40
0.1538461538461539
 40
0.1538461538461539
 40
0.2307692307692308
 40
0.2307692307692308
 40
0.2307692307692308
 40
0.2307692307692308
 40
0.3076923076923077
 40
0.3076923076923077
 40
0.3076923076923077
 40
0.3076923076923077
 40
0.3846153846153846
 40
0.3846153846153846
 40
0.3846153846153846
 40
0.3846153846153846
 40
0.4615384615384616
 40
0.4615384615384616
 40
0.4615384615384616
 40
0.4615384615384616
 40
0.5384615384615384
 40
0.5384615384615384
 40
0.5384615384615384
 40
0.5384615384615384
 40
0.6153846153846154
 40
0.6153846153846154
 40
0.6153846153846154
 40
0.6153846153846154
 40
0.6923076923076923
 40
0.6923076923076923
 40
0.6923076923076923
 40
0.6923076923076923
 40
0.7692307692307693
 40
0.7692307692307693
 40
0.7692307692307693
 40
0.7692307692307693
 40
0.8461538461538461
 40
0.8461538461538461
 40
0.8461538461538461
 40
0.8461538461538461
 40
1.0
 40
1.0
 40
1.0
 40
1.0
 10
-10.28914
 20
10.32591
 30
0.0
 10
-10.28914
 20
10.32591
 30
0.0
 10
-10.28914
 20
8.66576
 30
0.0
 10
-10.28914
 20
8.66576
 30
0.0
 10
-10.28914
 20
8.66576
 30
0.0
 10
-10.28914
 20
8.66576
 30
0.0
 10
-10.58914
 20
8.66576
 30
0.0
 10
-10.58914
 20
8.66576
 30
0.0
 10
-10.58914
 20
8.66576
 30
0.0
 10
-10.58914
 20
8.66576
 30
0.0
 10
-10.58914
 20
10.32591
 30
0.0
 10
-10.58914
 20
10.32591
 30
0.0
 10
-10.58914
 20
10.32591
 30
0.0
 10
-10.58914
 20
10.32591
 30
0.0
 10
-11.46227
 20
10.32591
 30
0.0
 10
-11.46227
 20
10.32591
 30
0.0
 10
-11.46227
 20
10.32591
 30
0.0
 10
-11.46227
 20
10.32591
 30
0.0
 10
-11.46227
 20
9.15783
 30
0.0
 10
-11.46227
 20
9.15783
 30
0.0
 10
-11.46227
 20
9.15783
 30
0.0
 10
-11.46227
 20
9.15783
 30
0.0
 10
-11.7659
 20
9.15783
 30
0.0
 10
-11.7659
 20
9.15783
 30
0.0
 10
-11.7659
 20
9.15783
 30
0.0
 10
-11.77306
 20
8.53009
 30
0.0
 10
-11.3843
 20
7.88857
 30
0.0
 10
-10.80016
 20
7.88857
 30
0.0
 10
-10.80016
 20
7.88857
 30
0.0
 10
-10.80016
 20
7.88857
 30
0.0
 10
-10.07813
 20
7.88857
 30
0.0
 10
-10.07813
 20
7.88857
 30
0.0
 10
-10.07813
 20
7.88857
 30
0.0
 10
-9.49399
 20
7.88857
 30
0.0
 10
-9.10521
 20
8.53009
 30
0.0
 10
-9.11239
 20
9.15783
 30
0.0
 10
-9.11239
 20
9.15783
 30
0.0
 10
-9.11239
 20
9.15783
 30
0.0
 10
-9.41602
 20
9.15783
 30
0.0
 10
-9.41602
 20
9.15783
 30
0.0
 10
-9.41602
 20
9.15783
 30
0.0
 10
-9.41602
 20
9.15783
 30
0.0
 10
-9.41602
 20
10.32591
 30
0.0
 10
-9.41602
 20
10.32591
 30
0.0
 10
-9.41602
 20
10.32591
 30
0.0
 10
-9.41602
 20
10.32591
 30
0.0
 10
-10.28914
 20
10.32591
 30
0.0
 10
-10.28914
 20
10.32591
 30
0.0
  0
SPLINE
  5
85
330
1F
100
AcDbEntity
  8
Camada 1
370
     9
100
AcDbSpline
210
0.0
220
0.0
230
1.0
 70
    11
 71
     3
 72
    52
 73
    48
 74
     0
 42
0.0000000001
 43
0.0000000001
 40
0.0
 40
0.0
 40
0.0
 40
0.0
 40
0.0769230769230769
 40
0.0769230769230769
 40
0.0769230769230769
 40
0.0769230769230769
 40
0.1538461538461539
 40
0.1538461538461539
 40
0.1538461538461539
 40
0.1538461538461539
 40
0.2307692307692308
 40
0.2307692307692308
 40
0.2307692307692308
 40
0.2307692307692308
 40
0.3076923076923077
 40
0.3076923076923077
 40
0.3076923076923077
 40
0.3076923076923077
 40
0.3846153846153846
 40
0.3846153846153846
 40
0.3846153846153846
 40
0.3846153846153846
 40
0.4615384615384616
 40
0.4615384615384616
 40
0.4615384615384616
 40
0.4615384615384616
 40
0.5384615384615384
 40
0.5384615384615384
 40
0.5384615384615384
 40
0.5384615384615384
 40
0.6153846153846154
 40
0.6153846153846154
 40
0.6153846153846154
 40
0.6153846153846154
 40
0.6923076923076923
 40
0.6923076923076923
 40
0.6923076923076923
 40
0.6923076923076923
 40
0.7692307692307693
 40
0.7692307692307693
 40
0.7692307692307693
 40
0.7692307692307693
 40
0.8461538461538461
 40
0.8461538461538461
 40
0.8461538461538461
 40
0.8461538461538461
 40
1.0
 40
1.0
 40
1.0
 40
1.0
 10
-10.64551
 20
14.57055
 30
0.0
 10
-10.64551
 20
14.57055
 30
0.0
 10
-10.64551
 20
12.92056
 30
0.0
 10
-10.64551
 20
12.92056
 30
0.0
 10
-10.64551
 20
12.92056
 30
0.0
 10
-10.64551
 20
12.92056
 30
0.0
 10
-10.94551
 20
12.92056
 30
0.0
 10
-10.94551
 20
12.92056
 30
0.0
 10
-10.94551
 20
12.92056
 30
0.0
 10
-10.94551
 20
12.92056
 30
0.0
 10
-10.94556
 20
14.57048
 30
0.0
 10
-10.94556
 20
14.57048
 30
0.0
 10
-10.94556
 20
14.57048
 30
0.0
 10
-10.94556
 20
14.57048
 30
0.0
 10
-11.81861
 20
14.57055
 30
0.0
 10
-11.81861
 20
14.57055
 30
0.0
 10
-11.81861
 20
14.57055
 30
0.0
 10
-11.81861
 20
14.57055
 30
0.0
 10
-11.81861
 20
13.40961
 30
0.0
 10
-11.81861
 20
13.40961
 30
0.0
 10
-11.81861
 20
13.40961
 30
0.0
 10
-11.81861
 20
13.40961
 30
0.0
 10
-12.12226
 20
13.40961
 30
0.0
 10
-12.12226
 20
13.40961
 30
0.0
 10
-12.12226
 20
13.40961
 30
0.0
 10
-12.12944
 20
12.78573
 30
0.0
 10
-11.74067
 20
12.14813
 30
0.0
 10
-11.15652
 20
12.14813
 30
0.0
 10
-11.15652
 20
12.14813
 30
0.0
 10
-11.15652
 20
12.14813
 30
0.0
 10
-10.43451
 20
12.14813
 30
0.0
 10
-10.43451
 20
12.14813
 30
0.0
 10
-10.43451
 20
12.14813
 30
0.0
 10
-9.85036
 20
12.14813
 30
0.0
 10
-9.46159
 20
12.78573
 30
0.0
 10
-9.46878
 20
13.40961
 30
0.0
 10
-9.46878
 20
13.40961
 30
0.0
 10
-9.46878
 20
13.40961
 30
0.0
 10
-9.7724
 20
13.40961
 30
0.0
 10
-9.7724
 20
13.40961
 30
0.0
 10
-9.7724
 20
13.40961
 30
0.0
 10
-9.7724
 20
13.40961
 30
0.0
 10
-9.77245
 20
14.57048
 30
0.0
 10
-9.77245
 20
14.57048
 30
0.0
 10
-9.77245
 20
14.57048
 30
0.0
 10
-9.77245
 20
14.57048
 30
0.0
 10
-10.64551
 20
14.57055
 30
0.0
 10
-10.64551
 20
14.57055
 30
0.0
  0
SPLINE
  5
86
330
1F
100
AcDbEntity
  8
Camada 1
370
     9
100
AcDbSpline
210
0.0
220
0.0
230
1.0
 70
    11
 71
     3
 72
    52
 73
    48
 74
     0
 42
0.0000000001
 43
0.0000000001
 40
0.0
 40
0.0
 40
0.0
 40
0.0
 40
0.0769230769230769
 40
0.0769230769230769
 40
0.0769230769230769
 40
0.0769230769230769
 40
0.1538461538461539
 40
0.1538461538461539
 40
0.1538461538461539
 40
0.1538461538461539
 40
0.2307692307692308
 40
0.2307692307692308
 40
0.2307692307692308
 40
0.2307692307692308
 40
0.3076923076923077
 40
0.3076923076923077
 40
0.3076923076923077
 40
0.3076923076923077
 40
0.3846153846153846
 40
0.3846153846153846
 40
0.3846153846153846
 40
0.3846153846153846
 40
0.4615384615384616
 40
0.4615384615384616
 40
0.4615384615384616
 40
0.4615384615384616
 40
0.5384615384615384
 40
0.5384615384615384
 40
0.5384615384615384
 40
0.5384615384615384
 40
0.6153846153846154
 40
0.6153846153846154
 40
0.6153846153846154
 40
0.6153846153846154
 40
0.6923076923076923
 40
0.6923076923076923
 40
0.6923076923076923
 40
0.6923076923076923
 40
0.7692307692307693
 40
0.7692307692307693
 40
0.7692307692307693
 40
0.7692307692307693
 40
0.8461538461538461
 40
0.8461538461538461
 40
0.8461538461538461
 40
0.8461538461538461
 40
1.0
 40
1.0
 40
1.0
 40
1.0
 10
-21.88943
 20
14.60736
 30
0.0
 10
-21.88943
 20
14.60736
 30
0.0
 10
-21.88943
 20
12.95736
 30
0.0
 10
-21.88943
 20
12.95736
 30
0.0
 10
-21.88943
 20
12.95736
 30
0.0
 10
-21.88943
 20
12.95736
 30
0.0
 10
-22.18943
 20
12.95736
 30
0.0
 10
-22.18943
 20
12.95736
 30
0.0
 10
-22.18943
 20
12.95736
 30
0.0
 10
-22.18943
 20
12.95736
 30
0.0
 10
-22.18943
 20
14.60736
 30
0.0
 10
-22.18943
 20
14.60736
 30
0.0
 10
-22.18943
 20
14.60736
 30
0.0
 10
-22.18943
 20
14.60736
 30
0.0
 10
-23.06257
 20
14.60736
 30
0.0
 10
-23.06257
 20
14.60736
 30
0.0
 10
-23.06257
 20
14.60736
 30
0.0
 10
-23.06257
 20
14.60736
 30
0.0
 10
-23.06257
 20
13.44643
 30
0.0
 10
-23.06257
 20
13.44643
 30
0.0
 10
-23.06257
 20
13.44643
 30
0.0
 10
-23.06257
 20
13.44643
 30
0.0
 10
-23.3662
 20
13.44643
 30
0.0
 10
-23.3662
 20
13.44643
 30
0.0
 10
-23.3662
 20
13.44643
 30
0.0
 10
-23.37335
 20
12.82255
 30
0.0
 10
-22.9846
 20
12.18494
 30
0.0
 10
-22.40044
 20
12.18494
 30
0.0
 10
-22.40044
 20
12.18494
 30
0.0
 10
-22.40044
 20
12.18494
 30
0.0
 10
-21.67843
 20
12.18494
 30
0.0
 10
-21.67843
 20
12.18494
 30
0.0
 10
-21.67843
 20
12.18494
 30
0.0
 10
-21.09427
 20
12.18494
 30
0.0
 10
-20.7055
 20
12.82255
 30
0.0
 10
-20.71269
 20
13.44643
 30
0.0
 10
-20.71269
 20
13.44643
 30
0.0
 10
-20.71269
 20
13.44643
 30
0.0
 10
-21.01632
 20
13.44643
 30
0.0
 10
-21.01632
 20
13.44643
 30
0.0
 10
-21.01632
 20
13.44643
 30
0.0
 10
-21.01632
 20
13.44643
 30
0.0
 10
-21.01632
 20
14.60736
 30
0.0
 10
-21.01632
 20
14.60736
 30
0.0
 10
-21.01632
 20
14.60736
 30
0.0
 10
-21.01632
 20
14.60736
 30
0.0
 10
-21.88943
 20
14.60736
 30
0.0
 10
-21.88943
 20
14.60736
 30
0.0
  0
SPLINE
  5
87
330
1F
100
AcDbEntity
  8
Camada 1
370
     9
100
AcDbSpline
210
0.0
220
0.0
230
1.0
 70
    11
 71
     3
 72
    52
 73
    48
 74
     0
 42
0.0000000001
 43
0.0000000001
 40
0.0
 40
0.0
 40
0.0
 40
0.0
 40
0.0769230769230769
 40
0.0769230769230769
 40
0.0769230769230769
 40
0.0769230769230769
 40
0.1538461538461539
 40
0.1538461538461539
 40
0.1538461538461539
 40
0.1538461538461539
 40
0.2307692307692308
 40
0.2307692307692308
 40
0.2307692307692308
 40
0.2307692307692308
 40
0.3076923076923077
 40
0.3076923076923077
 40
0.3076923076923077
 40
0.3076923076923077
 40
0.3846153846153846
 40
0.3846153846153846
 40
0.3846153846153846
 40
0.3846153846153846
 40
0.4615384615384616
 40
0.4615384615384616
 40
0.4615384615384616
 40
0.4615384615384616
 40
0.5384615384615384
 40
0.5384615384615384
 40
0.5384615384615384
 40
0.5384615384615384
 40
0.6153846153846154
 40
0.6153846153846154
 40
0.6153846153846154
 40
0.6153846153846154
 40
0.6923076923076923
 40
0.6923076923076923
 40
0.6923076923076923
 40
0.6923076923076923
 40
0.7692307692307693
 40
0.7692307692307693
 40
0.7692307692307693
 40
0.7692307692307693
 40
0.8461538461538461
 40
0.8461538461538461
 40
0.8461538461538461
 40
0.8461538461538461
 40
1.0
 40
1.0
 40
1.0
 40
1.0
 10
-14.40039
 20
14.59932
 30
0.0
 10
-14.40039
 20
14.59932
 30
0.0
 10
-14.40039
 20
12.94934
 30
0.0
 10
-14.40039
 20
12.94934
 30
0.0
 10
-14.40039
 20
12.94934
 30
0.0
 10
-14.40039
 20
12.94934
 30
0.0
 10
-14.70039
 20
12.94934
 30
0.0
 10
-14.70039
 20
12.94934
 30
0.0
 10
-14.70039
 20
12.94934
 30
0.0
 10
-14.70039
 20
12.94934
 30
0.0
 10
-14.70039
 20
14.59932
 30
0.0
 10
-14.70039
 20
14.59932
 30
0.0
 10
-14.70039
 20
14.59932
 30
0.0
 10
-14.70039
 20
14.59932
 30
0.0
 10
-15.5735
 20
14.59932
 30
0.0
 10
-15.5735
 20
14.59932
 30
0.0
 10
-15.5735
 20
14.59932
 30
0.0
 10
-15.5735
 20
14.59932
 30
0.0
 10
-15.5735
 20
13.4384
 30
0.0
 10
-15.5735
 20
13.4384
 30
0.0
 10
-15.5735
 20
13.4384
 30
0.0
 10
-15.5735
 20
13.4384
 30
0.0
 10
-15.87713
 20
13.4384
 30
0.0
 10
-15.87713
 20
13.4384
 30
0.0
 10
-15.87713
 20
13.4384
 30
0.0
 10
-15.88433
 20
12.81451
 30
0.0
 10
-15.49556
 20
12.17691
 30
0.0
 10
-14.91139
 20
12.17691
 30
0.0
 10
-14.91139
 20
12.17691
 30
0.0
 10
-14.91139
 20
12.17691
 30
0.0
 10
-14.1894
 20
12.17691
 30
0.0
 10
-14.1894
 20
12.17691
 30
0.0
 10
-14.1894
 20
12.17691
 30
0.0
 10
-13.60523
 20
12.17691
 30
0.0
 10
-13.21646
 20
12.81451
 30
0.0
 10
-13.22366
 20
13.4384
 30
0.0
 10
-13.22366
 20
13.4384
 30
0.0
 10
-13.22366
 20
13.4384
 30
0.0
 10
-13.52729
 20
13.4384
 30
0.0
 10
-13.52729
 20
13.4384
 30
0.0
 10
-13.52729
 20
13.4384
 30
0.0
 10
-13.52729
 20
13.4384
 30
0.0
 10
-13.52729
 20
14.59932
 30
0.0
 10
-13.52729
 20
14.59932
 30
0.0
 10
-13.52729
 20
14.59932
 30
0.0
 10
-13.52729
 20
14.59932
 30
0.0
 10
-14.40039
 20
14.59932
 30
0.0
 10
-14.40039
 20
14.59932
 30
0.0
  0
SPLINE
  5
88
330
1F
100
AcDbEntity
  8
Camada 1
370
     9
100
AcDbSpline
210
0.0
220
0.0
230
1.0
 70
    11
 71
     3
 72
    52
 73
    48
 74
     0
 42
0.0000000001
 43
0.0000000001
 40
0.0
 40
0.0
 40
0.0
 40
0.0
 40
0.0769230769230769
 40
0.0769230769230769
 40
0.0769230769230769
 40
0.0769230769230769
 40
0.1538461538461539
 40
0.1538461538461539
 40
0.1538461538461539
 40
0.1538461538461539
 40
0.2307692307692308
 40
0.2307692307692308
 40
0.2307692307692308
 40
0.2307692307692308
 40
0.3076923076923077
 40
0.3076923076923077
 40
0.3076923076923077
 40
0.3076923076923077
 40
0.3846153846153846
 40
0.3846153846153846
 40
0.3846153846153846
 40
0.3846153846153846
 40
0.4615384615384616
 40
0.4615384615384616
 40
0.4615384615384616
 40
0.4615384615384616
 40
0.5384615384615384
 40
0.5384615384615384
 40
0.5384615384615384
 40
0.5384615384615384
 40
0.6153846153846154
 40
0.6153846153846154
 40
0.6153846153846154
 40
0.6153846153846154
 40
0.6923076923076923
 40
0.6923076923076923
 40
0.6923076923076923
 40
0.6923076923076923
 40
0.7692307692307693
 40
0.7692307692307693
 40
0.7692307692307693
 40
0.7692307692307693
 40
0.8461538461538461
 40
0.8461538461538461
 40
0.8461538461538461
 40
0.8461538461538461
 40
1.0
 40
1.0
 40
1.0
 40
1.0
 10
-18.15758
 20
14.58093
 30
0.0
 10
-18.15758
 20
14.58093
 30
0.0
 10
-18.15758
 20
12.93094
 30
0.0
 10
-18.15758
 20
12.93094
 30
0.0
 10
-18.15758
 20
12.93094
 30
0.0
 10
-18.15758
 20
12.93094
 30
0.0
 10
-18.45758
 20
12.93094
 30
0.0
 10
-18.45758
 20
12.93094
 30
0.0
 10
-18.45758
 20
12.93094
 30
0.0
 10
-18.45758
 20
12.93094
 30
0.0
 10
-18.45758
 20
14.58093
 30
0.0
 10
-18.45758
 20
14.58093
 30
0.0
 10
-18.45758
 20
14.58093
 30
0.0
 10
-18.45758
 20
14.58093
 30
0.0
 10
-19.3307
 20
14.58093
 30
0.0
 10
-19.3307
 20
14.58093
 30
0.0
 10
-19.3307
 20
14.58093
 30
0.0
 10
-19.3307
 20
14.58093
 30
0.0
 10
-19.3307
 20
13.42001
 30
0.0
 10
-19.3307
 20
13.42001
 30
0.0
 10
-19.3307
 20
13.42001
 30
0.0
 10
-19.3307
 20
13.42001
 30
0.0
 10
-19.63432
 20
13.42001
 30
0.0
 10
-19.63432
 20
13.42001
 30
0.0
 10
-19.63432
 20
13.42001
 30
0.0
 10
-19.64149
 20
12.7961
 30
0.0
 10
-19.25273
 20
12.1585
 30
0.0
 10
-18.66859
 20
12.1585
 30
0.0
 10
-18.66859
 20
12.1585
 30
0.0
 10
-18.66859
 20
12.1585
 30
0.0
 10
-17.94657
 20
12.1585
 30
0.0
 10
-17.94657
 20
12.1585
 30
0.0
 10
-17.94657
 20
12.1585
 30
0.0
 10
-17.36242
 20
12.1585
 30
0.0
 10
-16.97365
 20
12.7961
 30
0.0
 10
-16.98084
 20
13.42001
 30
0.0
 10
-16.98084
 20
13.42001
 30
0.0
 10
-16.98084
 20
13.42001
 30
0.0
 10
-17.28447
 20
13.42001
 30
0.0
 10
-17.28447
 20
13.42001
 30
0.0
 10
-17.28447
 20
13.42001
 30
0.0
 10
-17.28447
 20
13.42001
 30
0.0
 10
-17.28447
 20
14.58093
 30
0.0
 10
-17.28447
 20
14.58093
 30
0.0
 10
-17.28447
 20
14.58093
 30
0.0
 10
-17.28447
 20
14.58093
 30
0.0
 10
-18.15758
 20
14.58093
 30
0.0
 10
-18.15758
 20
14.58093
 30
0.0
  0
SPLINE
  5
89
330
1F
100
AcDbEntity
  8
Camada 1
370
     9
100
AcDbSpline
210
0.0
220
0.0
230
1.0
 70
    11
 71
     3
 72
    84
 73
    80
 74
     0
 42
0.0000000001
 43
0.0000000001
 40
0.0
 40
0.0
 40
0.0
 40
0.0
 40
0.0476190476190476
 40
0.0476190476190476
 40
0.0476190476190476
 40
0.0476190476190476
 40
0.0952380952380952
 40
0.0952380952380952
 40
0.0952380952380952
 40
0.0952380952380952
 40
0.1428571428571428
 40
0.1428571428571428
 40
0.1428571428571428
 40
0.1428571428571428
 40
0.1904761904761905
 40
0.1904761904761905
 40
0.1904761904761905
 40
0.1904761904761905
 40
0.2380952380952381
 40
0.2380952380952381
 40
0.2380952380952381
 40
0.2380952380952381
 40
0.2857142857142857
 40
0.2857142857142857
 40
0.2857142857142857
 40
0.2857142857142857
 40
0.3333333333333333
 40
0.3333333333333333
 40
0.3333333333333333
 40
0.3333333333333333
 40
0.3809523809523809
 40
0.3809523809523809
 40
0.3809523809523809
 40
0.3809523809523809
 40
0.4285714285714285
 40
0.4285714285714285
 40
0.4285714285714285
 40
0.4285714285714285
 40
0.4761904761904762
 40
0.4761904761904762
 40
0.4761904761904762
 40
0.4761904761904762
 40
0.5238095238095238
 40
0.5238095238095238
 40
0.5238095238095238
 40
0.5238095238095238
 40
0.5714285714285714
 40
0.5714285714285714
 40
0.5714285714285714
 40
0.5714285714285714
 40
0.6190476190476191
 40
0.6190476190476191
 40
0.6190476190476191
 40
0.6190476190476191
 40
0.6666666666666666
 40
0.6666666666666666
 40
0.6666666666666666
 40
0.6666666666666666
 40
0.7142857142857143
 40
0.7142857142857143
 40
0.7142857142857143
 40
0.7142857142857143
 40
0.7619047619047619
 40
0.7619047619047619
 40
0.7619047619047619
 40
0.7619047619047619
 40
0.8095238095238095
 40
0.8095238095238095
 40
0.8095238095238095
 40
0.8095238095238095
 40
0.8571428571428571
 40
0.8571428571428571
 40
0.8571428571428571
 40
0.8571428571428571
 40
0.9047619047619048
 40
0.9047619047619048
 40
0.9047619047619048
 40
0.9047619047619048
 40
1.0
 40
1.0
 40
1.0
 40
1.0
 10
-24.49634
 20
13.42866
 30
0.0
 10
-24.49634
 20
13.42866
 30
0.0
 10
-24.49634
 20
14.29605
 30
0.0
 10
-24.49634
 20
14.29605
 30
0.0
 10
-24.49634
 20
14.29605
 30
0.0
 10
-24.49634
 20
14.29605
 30
0.0
 10
-25.33332
 20
14.29605
 30
0.0
 10
-25.33332
 20
14.29605
 30
0.0
 10
-25.33332
 20
14.29605
 30
0.0
 10
-25.33332
 20
14.29605
 30
0.0
 10
-25.33332
 20
14.59375
 30
0.0
 10
-25.33332
 20
14.59375
 30
0.0
 10
-25.33332
 20
14.59375
 30
0.0
 10
-25.33332
 20
14.59375
 30
0.0
 10
-26.12891
 20
14.59375
 30
0.0
 10
-26.12891
 20
14.59375
 30
0.0
 10
-26.12891
 20
14.59375
 30
0.0
 10
-26.12891
 20
14.59375
 30
0.0
 10
-26.12891
 20
14.29375
 30
0.0
 10
-26.12891
 20
14.29375
 30
0.0
 10
-26.12891
 20
14.29375
 30
0.0
 10
-26.12891
 20
14.29375
 30
0.0
 10
-26.43242
 20
14.29375
 30
0.0
 10
-26.43242
 20
14.29375
 30
0.0
 10
-26.43242
 20
14.29375
 30
0.0
 10
-26.43242
 20
14.29375
 30
0.0
 10
-26.43242
 20
13.42866
 30
0.0
 10
-26.43242
 20
13.42866
 30
0.0
 10
-26.43242
 20
13.42866
 30
0.0
 10
-26.43242
 20
13.42866
 30
0.0
 10
-26.12201
 20
13.42866
 30
0.0
 10
-26.12201
 20
13.42866
 30
0.0
 10
-26.12201
 20
13.42866
 30
0.0
 10
-26.12201
 20
13.42866
 30
0.0
 10
-26.12201
 20
13.12866
 30
0.0
 10
-26.12201
 20
13.12866
 30
0.0
 10
-26.12201
 20
13.12866
 30
0.0
 10
-26.12201
 20
13.12866
 30
0.0
 10
-26.43242
 20
13.12866
 30
0.0
 10
-26.43242
 20
13.12866
 30
0.0
 10
-26.43242
 20
13.12866
 30
0.0
 10
-26.43242
 20
13.12866
 30
0.0
 10
-26.43242
 20
12.26357
 30
0.0
 10
-26.43242
 20
12.26357
 30
0.0
 10
-26.43242
 20
12.26357
 30
0.0
 10
-26.43242
 20
12.26357
 30
0.0
 10
-26.12891
 20
12.26357
 30
0.0
 10
-26.12891
 20
12.26357
 30
0.0
 10
-26.12891
 20
12.26357
 30
0.0
 10
-26.12891
 20
12.26357
 30
0.0
 10
-26.12891
 20
11.96357
 30
0.0
 10
-26.12891
 20
11.96357
 30
0.0
 10
-26.12891
 20
11.96357
 30
0.0
 10
-26.12891
 20
11.96357
 30
0.0
 10
-25.33332
 20
11.96357
 30
0.0
 10
-25.33332
 20
11.96357
 30
0.0
 10
-25.33332
 20
11.96357
 30
0.0
 10
-25.33332
 20
11.96357
 30
0.0
 10
-25.33332
 20
12.26127
 30
0.0
 10
-25.33332
 20
12.26127
 30
0.0
 10
-25.33332
 20
12.26127
 30
0.0
 10
-25.33332
 20
12.26127
 30
0.0
 10
-24.49634
 20
12.26127
 30
0.0
 10
-24.49634
 20
12.26127
 30
0.0
 10
-24.49634
 20
12.26127
 30
0.0
 10
-24.49634
 20
12.26127
 30
0.0
 10
-24.49634
 20
13.12866
 30
0.0
 10
-24.49634
 20
13.12866
 30
0.0
 10
-24.49634
 20
13.12866
 30
0.0
 10
-24.49634
 20
13.12866
 30
0.0
 10
-25.3654
 20
13.12866
 30
0.0
 10
-25.3654
 20
13.12866
 30
0.0
 10
-25.3654
 20
13.12866
 30
0.0
 10
-25.3654
 20
13.12866
 30
0.0
 10
-25.3654
 20
13.42866
 30
0.0
 10
-25.3654
 20
13.42866
 30
0.0
 10
-25.3654
 20
13.42866
 30
0.0
 10
-25.3654
 20
13.42866
 30
0.0
 10
-24.49634
 20
13.42866
 30
0.0
 10
-24.49634
 20
13.42866
 30
0.0
  0
SPLINE
  5
8A
330
1F
100
AcDbEntity
  8
Camada 1
 62
   250
370
     9
100
AcDbSpline
210
0.0
220
0.0
230
1.0
 70
    11
 71
     3
 72
   140
 73
   136
 74
     0
 42
0.0000000001
 43
0.0000000001
 40
0.0
 40
0.0
 40
0.0
 40
0.0
 40
0.0285714285714286
 40
0.0285714285714286
 40
0.0285714285714286
 40
0.0285714285714286
 40
0.0571428571428571
 40
0.0571428571428571
 40
0.0571428571428571
 40
0.0571428571428571
 40
0.0857142857142857
 40
0.0857142857142857
 40
0.0857142857142857
 40
0.0857142857142857
 40
0.1142857142857143
 40
0.1142857142857143
 40
0.1142857142857143
 40
0.1142857142857143
 40
0.1428571428571428
 40
0.1428571428571428
 40
0.1428571428571428
 40
0.1428571428571428
 40
0.1714285714285714
 40
0.1714285714285714
 40
0.1714285714285714
 40
0.1714285714285714
 40
0.2
 40
0.2
 40
0.2
 40
0.2
 40
0.2285714285714286
 40
0.2285714285714286
 40
0.2285714285714286
 40
0.2285714285714286
 40
0.2571428571428571
 40
0.2571428571428571
 40
0.2571428571428571
 40
0.2571428571428571
 40
0.2857142857142857
 40
0.2857142857142857
 40
0.2857142857142857
 40
0.2857142857142857
 40
0.3142857142857143
 40
0.3142857142857143
 40
0.3142857142857143
 40
0.3142857142857143
 40
0.3428571428571429
 40
0.3428571428571429
 40
0.3428571428571429
 40
0.3428571428571429
 40
0.3714285714285714
 40
0.3714285714285714
 40
0.3714285714285714
 40
0.3714285714285714
 40
0.4
 40
0.4
 40
0.4
 40
0.4
 40
0.4285714285714285
 40
0.4285714285714285
 40
0.4285714285714285
 40
0.4285714285714285
 40
0.4571428571428571
 40
0.4571428571428571
 40
0.4571428571428571
 40
0.4571428571428571
 40
0.4857142857142857
 40
0.4857142857142857
 40
0.4857142857142857
 40
0.4857142857142857
 40
0.5142857142857142
 40
0.5142857142857142
 40
0.5142857142857142
 40
0.5142857142857142
 40
0.5428571428571428
 40
0.5428571428571428
 40
0.5428571428571428
 40
0.5428571428571428
 40
0.5714285714285714
 40
0.5714285714285714
 40
0.5714285714285714
 40
0.5714285714285714
 40
0.6
 40
0.6
 40
0.6
 40
0.6
 40
0.6285714285714286
 40
0.6285714285714286
 40
0.6285714285714286
 40
0.6285714285714286
 40
0.6571428571428571
 40
0.6571428571428571
 40
0.6571428571428571
 40
0.6571428571428571
 40
0.6857142857142857
 40
0.6857142857142857
 40
0.6857142857142857
 40
0.6857142857142857
 40
0.7142857142857143
 40
0.7142857142857143
 40
0.7142857142857143
 40
0.7142857142857143
 40
0.7428571428571429
 40
0.7428571428571429
 40
0.7428571428571429
 40
0.7428571428571429
 40
0.7714285714285715
 40
0.7714285714285715
 40
0.7714285714285715
 40
0.7714285714285715
 40
0.8
 40
0.8
 40
0.8
 40
0.8
 40
0.8285714285714286
 40
0.8285714285714286
 40
0.8285714285714286
 40
0.8285714285714286
 40
0.8571428571428571
 40
0.8571428571428571
 40
0.8571428571428571
 40
0.8571428571428571
 40
0.8857142857142857
 40
0.8857142857142857
 40
0.8857142857142857
 40
0.8857142857142857
 40
0.9142857142857143
 40
0.9142857142857143
 40
0.9142857142857143
 40
0.9142857142857143
 40
0.9428571428571428
 40
0.9428571428571428
 40
0.9428571428571428
 40
0.9428571428571428
 40
1.0
 40
1.0
 40
1.0
 40
1.0
 10
-25.13164
 20
36.82085
 30
0.0
 10
-25.13164
 20
36.82085
 30
0.0
 10
-24.89254
 20
37.53986
 30
0.0
 10
-24.89254
 20
37.53986
 30
0.0
 10
-24.89254
 20
37.53986
 30
0.0
 10
-24.89254
 20
37.53986
 30
0.0
 10
-24.60788
 20
37.4452
 30
0.0
 10
-24.60788
 20
37.4452
 30
0.0
 10
-24.60788
 20
37.4452
 30
0.0
 10
-24.60788
 20
37.4452
 30
0.0
 10
-24.81541
 20
36.82108
 30
0.0
 10
-24.81541
 20
36.82108
 30
0.0
 10
-24.81541
 20
36.82108
 30
0.0
 10
-23.24476
 20
36.90304
 30
0.0
 10
-21.07799
 20
37.31236
 30
0.0
 10
-21.07871
 20
37.9946
 30
0.0
 10
-21.07871
 20
37.9946
 30
0.0
 10
-21.07871
 20
37.9946
 30
0.0
 10
-21.07949
 20
38.73281
 30
0.0
 10
-21.07949
 20
38.73281
 30
0.0
 10
-21.07949
 20
38.73281
 30
0.0
 10
-21.07949
 20
38.73281
 30
0.0
 10
-18.9715
 20
38.72612
 30
0.0
 10
-18.9715
 20
38.72612
 30
0.0
 10
-18.9715
 20
38.72612
 30
0.0
 10
-18.9715
 20
38.72612
 30
0.0
 10
-18.96654
 20
39.08506
 30
0.0
 10
-18.96654
 20
39.08506
 30
0.0
 10
-18.96654
 20
39.08506
 30
0.0
 10
-18.96654
 20
39.08506
 30
0.0
 10
-9.63685
 20
39.58803
 30
0.0
 10
-9.63685
 20
39.58803
 30
0.0
 10
-9.63685
 20
39.58803
 30
0.0
 10
-9.63685
 20
39.58803
 30
0.0
 10
-9.63685
 20
40.9911
 30
0.0
 10
-9.63685
 20
40.9911
 30
0.0
 10
-9.63685
 20
40.9911
 30
0.0
 10
-9.63685
 20
40.9911
 30
0.0
 10
-18.43382
 20
40.82203
 30
0.0
 10
-18.43382
 20
40.82203
 30
0.0
 10
-18.43382
 20
40.82203
 30
0.0
 10
-18.43382
 20
40.82203
 30
0.0
 10
-18.42577
 20
40.13386
 30
0.0
 10
-18.42577
 20
40.13386
 30
0.0
 10
-18.42577
 20
40.13386
 30
0.0
 10
-18.42577
 20
40.13386
 30
0.0
 10
-19.02577
 20
40.13323
 30
0.0
 10
-19.02577
 20
40.13323
 30
0.0
 10
-19.02577
 20
40.13323
 30
0.0
 10
-19.02577
 20
40.13323
 30
0.0
 10
-19.02719
 20
40.98793
 30
0.0
 10
-19.02719
 20
40.98793
 30
0.0
 10
-19.02719
 20
40.98793
 30
0.0
 10
-19.02719
 20
40.98793
 30
0.0
 10
-19.79601
 20
40.99104
 30
0.0
 10
-19.79601
 20
40.99104
 30
0.0
 10
-19.79601
 20
40.99104
 30
0.0
 10
-19.79601
 20
40.99104
 30
0.0
 10
-19.78899
 20
40.12889
 30
0.0
 10
-19.78899
 20
40.12889
 30
0.0
 10
-19.78899
 20
40.12889
 30
0.0
 10
-19.78899
 20
40.12889
 30
0.0
 10
-20.08885
 20
40.12907
 30
0.0
 10
-20.08885
 20
40.12907
 30
0.0
 10
-20.08885
 20
40.12907
 30
0.0
 10
-20.08885
 20
40.12907
 30
0.0
 10
-20.08899
 20
40.97783
 30
0.0
 10
-20.08899
 20
40.97783
 30
0.0
 10
-20.08899
 20
40.97783
 30
0.0
 10
-20.08899
 20
40.97783
 30
0.0
 10
-21.31252
 20
40.97903
 30
0.0
 10
-21.31252
 20
40.97903
 30
0.0
 10
-21.31252
 20
40.97903
 30
0.0
 10
-21.31252
 20
40.97903
 30
0.0
 10
-21.31264
 20
40.13081
 30
0.0
 10
-21.31264
 20
40.13081
 30
0.0
 10
-21.31264
 20
40.13081
 30
0.0
 10
-21.31264
 20
40.13081
 30
0.0
 10
-21.60962
 20
40.132
 30
0.0
 10
-21.60962
 20
40.132
 30
0.0
 10
-21.60962
 20
40.132
 30
0.0
 10
-21.60962
 20
40.132
 30
0.0
 10
-21.61252
 20
40.96265
 30
0.0
 10
-21.61252
 20
40.96265
 30
0.0
 10
-21.61252
 20
40.96265
 30
0.0
 10
-21.61252
 20
40.96265
 30
0.0
 10
-22.64865
 20
41.40397
 30
0.0
 10
-22.64865
 20
41.40397
 30
0.0
 10
-22.64865
 20
41.40397
 30
0.0
 10
-22.64865
 20
41.40397
 30
0.0
 10
-22.64315
 20
40.16094
 30
0.0
 10
-22.64315
 20
40.16094
 30
0.0
 10
-22.64315
 20
40.16094
 30
0.0
 10
-22.64315
 20
40.16094
 30
0.0
 10
-26.71433
 20
40.16752
 30
0.0
 10
-26.71433
 20
40.16752
 30
0.0
 10
-26.71433
 20
40.16752
 30
0.0
 10
-26.71433
 20
40.16752
 30
0.0
 10
-26.71433
 20
38.70624
 30
0.0
 10
-26.71433
 20
38.70624
 30
0.0
 10
-26.71433
 20
38.70624
 30
0.0
 10
-26.71433
 20
38.70624
 30
0.0
 10
-25.20376
 20
38.70624
 30
0.0
 10
-25.20376
 20
38.70624
 30
0.0
 10
-25.20376
 20
38.70624
 30
0.0
 10
-25.20376
 20
38.70624
 30
0.0
 10
-25.20376
 20
38.40624
 30
0.0
 10
-25.20376
 20
38.40624
 30
0.0
 10
-25.20376
 20
38.40624
 30
0.0
 10
-25.20376
 20
38.40624
 30
0.0
 10
-26.71433
 20
38.40624
 30
0.0
 10
-26.71433
 20
38.40624
 30
0.0
 10
-26.71433
 20
38.40624
 30
0.0
 10
-26.71433
 20
38.40624
 30
0.0
 10
-26.71433
 20
37.81244
 30
0.0
 10
-26.71433
 20
37.81244
 30
0.0
 10
-26.71433
 20
37.81244
 30
0.0
 10
-26.71433
 20
37.81244
 30
0.0
 10
-26.05391
 20
37.33113
 30
0.0
 10
-26.05391
 20
37.33113
 30
0.0
 10
-26.05391
 20
37.33113
 30
0.0
 10
-26.05391
 20
37.33113
 30
0.0
 10
-25.89316
 20
37.55244
 30
0.0
 10
-25.89316
 20
37.55244
 30
0.0
 10
-25.89316
 20
37.55244
 30
0.0
 10
-25.89316
 20
37.55244
 30
0.0
 10
-25.40772
 20
37.19982
 30
0.0
 10
-25.40772
 20
37.19982
 30
0.0
 10
-25.40772
 20
37.19982
 30
0.0
 10
-25.40772
 20
37.19982
 30
0.0
 10
-25.56633
 20
36.98146
 30
0.0
 10
-25.56633
 20
36.98146
 30
0.0
 10
-25.56633
 20
36.98146
 30
0.0
 10
-25.47494
 20
36.90618
 30
0.0
 10
-25.31545
 20
36.82074
 30
0.0
 10
-25.13164
 20
36.82085
 30
0.0
  0
SPLINE
  5
8B
330
1F
100
AcDbEntity
  8
Camada 1
370
     9
100
AcDbSpline
210
0.0
220
0.0
230
1.0
 70
    11
 71
     3
 72
    84
 73
    80
 74
     0
 42
0.0000000001
 43
0.0000000001
 40
0.0
 40
0.0
 40
0.0
 40
0.0
 40
0.0476190476190476
 40
0.0476190476190476
 40
0.0476190476190476
 40
0.0476190476190476
 40
0.0952380952380952
 40
0.0952380952380952
 40
0.0952380952380952
 40
0.0952380952380952
 40
0.1428571428571428
 40
0.1428571428571428
 40
0.1428571428571428
 40
0.1428571428571428
 40
0.1904761904761905
 40
0.1904761904761905
 40
0.1904761904761905
 40
0.1904761904761905
 40
0.2380952380952381
 40
0.2380952380952381
 40
0.2380952380952381
 40
0.2380952380952381
 40
0.2857142857142857
 40
0.2857142857142857
 40
0.2857142857142857
 40
0.2857142857142857
 40
0.3333333333333333
 40
0.3333333333333333
 40
0.3333333333333333
 40
0.3333333333333333
 40
0.3809523809523809
 40
0.3809523809523809
 40
0.3809523809523809
 40
0.3809523809523809
 40
0.4285714285714285
 40
0.4285714285714285
 40
0.4285714285714285
 40
0.4285714285714285
 40
0.4761904761904762
 40
0.4761904761904762
 40
0.4761904761904762
 40
0.4761904761904762
 40
0.5238095238095238
 40
0.5238095238095238
 40
0.5238095238095238
 40
0.5238095238095238
 40
0.5714285714285714
 40
0.5714285714285714
 40
0.5714285714285714
 40
0.5714285714285714
 40
0.6190476190476191
 40
0.6190476190476191
 40
0.6190476190476191
 40
0.6190476190476191
 40
0.6666666666666666
 40
0.6666666666666666
 40
0.6666666666666666
 40
0.6666666666666666
 40
0.7142857142857143
 40
0.7142857142857143
 40
0.7142857142857143
 40
0.7142857142857143
 40
0.7619047619047619
 40
0.7619047619047619
 40
0.7619047619047619
 40
0.7619047619047619
 40
0.8095238095238095
 40
0.8095238095238095
 40
0.8095238095238095
 40
0.8095238095238095
 40
0.8571428571428571
 40
0.8571428571428571
 40
0.8571428571428571
 40
0.8571428571428571
 40
0.9047619047619048
 40
0.9047619047619048
 40
0.9047619047619048
 40
0.9047619047619048
 40
1.0
 40
1.0
 40
1.0
 40
1.0
 10
2.34188
 20
10.08738
 30
0.0
 10
2.34188
 20
10.08738
 30
0.0
 10
2.63415
 20
9.62218
 30
0.0
 10
2.63415
 20
9.62218
 30
0.0
 10
2.63415
 20
9.62218
 30
0.0
 10
2.74935
 20
9.72363
 30
0.0
 10
2.85313
 20
9.8582
 30
0.0
 10
2.91315
 20
10.00138
 30
0.0
 10
2.91315
 20
10.00138
 30
0.0
 10
4.76669
 20
10.05193
 30
0.0
 10
7.0277
 20
9.9252
 30
0.0
 10
7.08473
 20
10.44019
 30
0.0
 10
7.08473
 20
10.44019
 30
0.0
 10
7.12625
 20
10.81499
 30
0.0
 10
5.06144
 20
10.82361
 30
0.0
 10
2.89731
 20
10.82554
 30
0.0
 10
2.89731
 20
10.82554
 30
0.0
 10
2.72961
 20
11.1863
 30
0.0
 10
2.35758
 20
11.43042
 30
0.0
 10
1.93488
 20
11.41512
 30
0.0
 10
1.93488
 20
11.41512
 30
0.0
 10
1.90996
 20
11.41421
 30
0.0
 10
1.8852
 20
11.41242
 30
0.0
 10
1.86196
 20
11.4099
 30
0.0
 10
1.86196
 20
11.4099
 30
0.0
 10
0.8925
 20
12.98998
 30
0.0
 10
-0.12824
 20
15.01142
 30
0.0
 10
-0.6027
 20
14.80328
 30
0.0
 10
-0.6027
 20
14.80328
 30
0.0
 10
-0.94808
 20
14.65186
 30
0.0
 10
0.07687
 20
12.85934
 30
0.0
 10
1.15479
 20
10.99377
 30
0.0
 10
1.15479
 20
10.99377
 30
0.0
 10
1.01903
 20
10.8238
 30
0.0
 10
0.94347
 20
10.59942
 30
0.0
 10
0.95219
 20
10.35859
 30
0.0
 10
0.95219
 20
10.35859
 30
0.0
 10
0.95995
 20
10.14434
 30
0.0
 10
1.03329
 20
9.94784
 30
0.0
 10
1.14823
 20
9.78343
 30
0.0
 10
1.14823
 20
9.78343
 30
0.0
 10
0.26134
 20
8.14846
 30
0.0
 10
-0.97893
 20
6.25375
 30
0.0
 10
-0.56144
 20
5.9469
 30
0.0
 10
-0.56144
 20
5.9469
 30
0.0
 10
-0.25758
 20
5.72351
 30
0.0
 10
0.78228
 20
7.50741
 30
0.0
 10
1.86557
 20
9.38065
 30
0.0
 10
1.86557
 20
9.38065
 30
0.0
 10
1.91205
 20
9.37581
 30
0.0
 10
1.96009
 20
9.37413
 30
0.0
 10
2.00871
 20
9.3759
 30
0.0
 10
2.00871
 20
9.3759
 30
0.0
 10
2.13614
 20
9.38051
 30
0.0
 10
2.26925
 20
9.41582
 30
0.0
 10
2.38015
 20
9.46261
 30
0.0
 10
2.38015
 20
9.46261
 30
0.0
 10
2.38015
 20
9.46261
 30
0.0
 10
2.08788
 20
9.92781
 30
0.0
 10
2.08788
 20
9.92781
 30
0.0
 10
2.08788
 20
9.92781
 30
0.0
 10
2.06219
 20
9.9222
 30
0.0
 10
2.03416
 20
9.91783
 30
0.0
 10
2.00694
 20
9.91685
 30
0.0
 10
2.00694
 20
9.91685
 30
0.0
 10
1.76036
 20
9.90792
 30
0.0
 10
1.55316
 20
10.10063
 30
0.0
 10
1.54423
 20
10.34724
 30
0.0
 10
1.54423
 20
10.34724
 30
0.0
 10
1.53531
 20
10.59382
 30
0.0
 10
1.72801
 20
10.80101
 30
0.0
 10
1.97461
 20
10.80995
 30
0.0
 10
1.97461
 20
10.80995
 30
0.0
 10
2.22121
 20
10.81886
 30
0.0
 10
2.4284
 20
10.62615
 30
0.0
 10
2.43732
 20
10.37957
 30
0.0
 10
2.43732
 20
10.37957
 30
0.0
 10
2.44133
 20
10.2692
 30
0.0
 10
2.40536
 20
10.16765
 30
0.0
 10
2.34188
 20
10.08738
 30
0.0
  0
SPLINE
  5
8C
330
1F
100
AcDbEntity
  8
Camada 1
370
     9
100
AcDbSpline
210
0.0
220
0.0
230
1.0
 70
    11
 71
     3
 72
    44
 73
    40
 74
     0
 42
0.0000000001
 43
0.0000000001
 40
0.0
 40
0.0
 40
0.0
 40
0.0
 40
0.0909090909090909
 40
0.0909090909090909
 40
0.0909090909090909
 40
0.0909090909090909
 40
0.1818181818181818
 40
0.1818181818181818
 40
0.1818181818181818
 40
0.1818181818181818
 40
0.2727272727272727
 40
0.2727272727272727
 40
0.2727272727272727
 40
0.2727272727272727
 40
0.3636363636363636
 40
0.3636363636363636
 40
0.3636363636363636
 40
0.3636363636363636
 40
0.4545454545454545
 40
0.4545454545454545
 40
0.4545454545454545
 40
0.4545454545454545
 40
0.5454545454545454
 40
0.5454545454545454
 40
0.5454545454545454
 40
0.5454545454545454
 40
0.6363636363636364
 40
0.6363636363636364
 40
0.6363636363636364
 40
0.6363636363636364
 40
0.7272727272727273
 40
0.7272727272727273
 40
0.7272727272727273
 40
0.7272727272727273
 40
0.8181818181818182
 40
0.8181818181818182
 40
0.8181818181818182
 40
0.8181818181818182
 40
1.0
 40
1.0
 40
1.0
 40
1.0
 10
6.20509
 20
8.00553
 30
0.0
 10
5.99004
 20
7.61579
 30
0.0
 10
5.61866
 20
7.36166
 30
0.0
 10
5.10834
 20
7.34127
 30
0.0
 10
5.10834
 20
7.34127
 30
0.0
 10
5.10834
 20
7.34127
 30
0.0
 10
5.10834
 20
7.99943
 30
0.0
 10
5.10834
 20
7.99943
 30
0.0
 10
5.10834
 20
7.99943
 30
0.0
 10
5.10834
 20
7.99943
 30
0.0
 10
4.74396
 20
7.99943
 30
0.0
 10
4.74396
 20
7.99943
 30
0.0
 10
4.74396
 20
7.99943
 30
0.0
 10
4.74396
 20
7.99943
 30
0.0
 10
4.74396
 20
8.31163
 30
0.0
 10
4.74396
 20
8.31163
 30
0.0
 10
4.74396
 20
8.31163
 30
0.0
 10
4.74396
 20
8.31163
 30
0.0
 10
5.10834
 20
8.31163
 30
0.0
 10
5.10834
 20
8.31163
 30
0.0
 10
5.10834
 20
8.31163
 30
0.0
 10
5.10834
 20
8.31163
 30
0.0
 10
5.10834
 20
8.96979
 30
0.0
 10
5.10834
 20
8.96979
 30
0.0
 10
5.10834
 20
8.96979
 30
0.0
 10
5.61866
 20
8.94941
 30
0.0
 10
5.99004
 20
8.69527
 30
0.0
 10
6.20509
 20
8.30553
 30
0.0
 10
6.20509
 20
8.30553
 30
0.0
 10
6.20509
 20
8.30553
 30
0.0
 10
5.57986
 20
8.30553
 30
0.0
 10
5.57986
 20
8.30553
 30
0.0
 10
5.57986
 20
8.30553
 30
0.0
 10
5.57986
 20
8.30553
 30
0.0
 10
5.57986
 20
8.00553
 30
0.0
 10
5.57986
 20
8.00553
 30
0.0
 10
5.57986
 20
8.00553
 30
0.0
 10
5.57986
 20
8.00553
 30
0.0
 10
6.20509
 20
8.00553
 30
0.0
 10
6.20509
 20
8.00553
 30
0.0
  0
SPLINE
  5
8D
330
1F
100
AcDbEntity
  8
Camada 1
370
     9
100
AcDbSpline
210
0.0
220
0.0
230
1.0
 70
    11
 71
     3
 72
    52
 73
    48
 74
     0
 42
0.0000000001
 43
0.0000000001
 40
0.0
 40
0.0
 40
0.0
 40
0.0
 40
0.0769230769230769
 40
0.0769230769230769
 40
0.0769230769230769
 40
0.0769230769230769
 40
0.1538461538461539
 40
0.1538461538461539
 40
0.1538461538461539
 40
0.1538461538461539
 40
0.2307692307692308
 40
0.2307692307692308
 40
0.2307692307692308
 40
0.2307692307692308
 40
0.3076923076923077
 40
0.3076923076923077
 40
0.3076923076923077
 40
0.3076923076923077
 40
0.3846153846153846
 40
0.3846153846153846
 40
0.3846153846153846
 40
0.3846153846153846
 40
0.4615384615384616
 40
0.4615384615384616
 40
0.4615384615384616
 40
0.4615384615384616
 40
0.5384615384615384
 40
0.5384615384615384
 40
0.5384615384615384
 40
0.5384615384615384
 40
0.6153846153846154
 40
0.6153846153846154
 40
0.6153846153846154
 40
0.6153846153846154
 40
0.6923076923076923
 40
0.6923076923076923
 40
0.6923076923076923
 40
0.6923076923076923
 40
0.7692307692307693
 40
0.7692307692307693
 40
0.7692307692307693
 40
0.7692307692307693
 40
0.8461538461538461
 40
0.8461538461538461
 40
0.8461538461538461
 40
0.8461538461538461
 40
1.0
 40
1.0
 40
1.0
 40
1.0
 10
4.67045
 20
17.63029
 30
0.0
 10
4.67045
 20
17.63029
 30
0.0
 10
4.67045
 20
17.14361
 30
0.0
 10
4.67045
 20
17.14361
 30
0.0
 10
4.67045
 20
17.14361
 30
0.0
 10
4.67045
 20
17.14361
 30
0.0
 10
7.40696
 20
17.14361
 30
0.0
 10
7.40696
 20
17.14361
 30
0.0
 10
7.40696
 20
17.14361
 30
0.0
 10
7.40696
 20
17.14361
 30
0.0
 10
7.40696
 20
20.04913
 30
0.0
 10
7.40696
 20
20.04913
 30
0.0
 10
7.40696
 20
20.04913
 30
0.0
 10
7.40696
 20
20.04913
 30
0.0
 10
4.67045
 20
20.04913
 30
0.0
 10
4.67045
 20
20.04913
 30
0.0
 10
4.67045
 20
20.04913
 30
0.0
 10
4.67045
 20
20.04913
 30
0.0
 10
4.67045
 20
19.56245
 30
0.0
 10
4.67045
 20
19.56245
 30
0.0
 10
4.67045
 20
19.56245
 30
0.0
 10
4.67045
 20
19.56245
 30
0.0
 10
6.03473
 20
19.56245
 30
0.0
 10
6.03473
 20
19.56245
 30
0.0
 10
6.03473
 20
19.56245
 30
0.0
 10
6.03473
 20
19.56245
 30
0.0
 10
6.03473
 20
19.26245
 30
0.0
 10
6.03473
 20
19.26245
 30
0.0
 10
6.03473
 20
19.26245
 30
0.0
 10
6.03473
 20
19.26245
 30
0.0
 10
4.67045
 20
19.26245
 30
0.0
 10
4.67045
 20
19.26245
 30
0.0
 10
4.67045
 20
19.26245
 30
0.0
 10
4.67045
 20
19.26245
 30
0.0
 10
4.67045
 20
17.93029
 30
0.0
 10
4.67045
 20
17.93029
 30
0.0
 10
4.67045
 20
17.93029
 30
0.0
 10
4.67045
 20
17.93029
 30
0.0
 10
6.03473
 20
17.93029
 30
0.0
 10
6.03473
 20
17.93029
 30
0.0
 10
6.03473
 20
17.93029
 30
0.0
 10
6.03473
 20
17.93029
 30
0.0
 10
6.03473
 20
17.63029
 30
0.0
 10
6.03473
 20
17.63029
 30
0.0
 10
6.03473
 20
17.63029
 30
0.0
 10
6.03473
 20
17.63029
 30
0.0
 10
4.67045
 20
17.63029
 30
0.0
 10
4.67045
 20
17.63029
 30
0.0
  0
SPLINE
  5
8E
330
1F
100
AcDbEntity
  8
Camada 1
370
     9
100
AcDbSpline
210
0.0
220
0.0
230
1.0
 70
    11
 71
     3
 72
    68
 73
    64
 74
     0
 42
0.0000000001
 43
0.0000000001
 40
0.0
 40
0.0
 40
0.0
 40
0.0
 40
0.0588235294117647
 40
0.0588235294117647
 40
0.0588235294117647
 40
0.0588235294117647
 40
0.1176470588235294
 40
0.1176470588235294
 40
0.1176470588235294
 40
0.1176470588235294
 40
0.1764705882352941
 40
0.1764705882352941
 40
0.1764705882352941
 40
0.1764705882352941
 40
0.2352941176470588
 40
0.2352941176470588
 40
0.2352941176470588
 40
0.2352941176470588
 40
0.2941176470588235
 40
0.2941176470588235
 40
0.2941176470588235
 40
0.2941176470588235
 40
0.3529411764705883
 40
0.3529411764705883
 40
0.3529411764705883
 40
0.3529411764705883
 40
0.4117647058823529
 40
0.4117647058823529
 40
0.4117647058823529
 40
0.4117647058823529
 40
0.4705882352941176
 40
0.4705882352941176
 40
0.4705882352941176
 40
0.4705882352941176
 40
0.5294117647058824
 40
0.5294117647058824
 40
0.5294117647058824
 40
0.5294117647058824
 40
0.5882352941176471
 40
0.5882352941176471
 40
0.5882352941176471
 40
0.5882352941176471
 40
0.6470588235294118
 40
0.6470588235294118
 40
0.6470588235294118
 40
0.6470588235294118
 40
0.7058823529411765
 40
0.7058823529411765
 40
0.7058823529411765
 40
0.7058823529411765
 40
0.7647058823529411
 40
0.7647058823529411
 40
0.7647058823529411
 40
0.7647058823529411
 40
0.8235294117647058
 40
0.8235294117647058
 40
0.8235294117647058
 40
0.8235294117647058
 40
0.8823529411764706
 40
0.8823529411764706
 40
0.8823529411764706
 40
0.8823529411764706
 40
1.0
 40
1.0
 40
1.0
 40
1.0
 10
1.59283
 20
-0.39191
 30
0.0
 10
1.59283
 20
-0.39191
 30
0.0
 10
1.46435
 20
0.58305
 30
0.0
 10
1.46435
 20
0.58305
 30
0.0
 10
1.46435
 20
0.58305
 30
0.0
 10
1.46435
 20
0.58305
 30
0.0
 10
0.71837
 20
-0.35807
 30
0.0
 10
0.71837
 20
-0.35807
 30
0.0
 10
0.71837
 20
-0.35807
 30
0.0
 10
-1.3736
 20
-0.21327
 30
0.0
 10
-2.93152
 20
0.37698
 30
0.0
 10
-2.93152
 20
1.19333
 30
0.0
 10
-2.93152
 20
1.19333
 30
0.0
 10
-2.93152
 20
2.07634
 30
0.0
 10
-1.10553
 20
2.90285
 30
0.0
 10
1.24423
 20
3.02744
 30
0.0
 10
1.24423
 20
3.02744
 30
0.0
 10
1.24423
 20
3.02744
 30
0.0
 10
1.28314
 20
2.30568
 30
0.0
 10
1.28314
 20
2.30568
 30
0.0
 10
1.28314
 20
2.30568
 30
0.0
 10
1.28314
 20
2.30568
 30
0.0
 10
1.58187
 20
2.32155
 30
0.0
 10
1.58187
 20
2.32155
 30
0.0
 10
1.58187
 20
2.32155
 30
0.0
 10
1.58187
 20
2.32155
 30
0.0
 10
1.54298
 20
3.04724
 30
0.0
 10
1.54298
 20
3.04724
 30
0.0
 10
1.54298
 20
3.04724
 30
0.0
 10
1.71861
 20
3.04962
 30
0.0
 10
1.89433
 20
3.04962
 30
0.0
 10
2.06996
 20
3.04724
 30
0.0
 10
2.06996
 20
3.04724
 30
0.0
 10
2.06996
 20
3.04724
 30
0.0
 10
2.03107
 20
2.32155
 30
0.0
 10
2.03107
 20
2.32155
 30
0.0
 10
2.03107
 20
2.32155
 30
0.0
 10
2.03107
 20
2.32155
 30
0.0
 10
2.3298
 20
2.30568
 30
0.0
 10
2.3298
 20
2.30568
 30
0.0
 10
2.3298
 20
2.30568
 30
0.0
 10
2.3298
 20
2.30568
 30
0.0
 10
2.36871
 20
3.02744
 30
0.0
 10
2.36871
 20
3.02744
 30
0.0
 10
2.36871
 20
3.02744
 30
0.0
 10
4.71847
 20
2.90285
 30
0.0
 10
6.54446
 20
2.07634
 30
0.0
 10
6.54446
 20
1.19333
 30
0.0
 10
6.54446
 20
1.19333
 30
0.0
 10
6.54446
 20
0.37698
 30
0.0
 10
4.98654
 20
-0.21327
 30
0.0
 10
2.89457
 20
-0.35807
 30
0.0
 10
2.89457
 20
-0.35807
 30
0.0
 10
2.89457
 20
-0.35807
 30
0.0
 10
2.14859
 20
0.58305
 30
0.0
 10
2.14859
 20
0.58305
 30
0.0
 10
2.14859
 20
0.58305
 30
0.0
 10
2.14859
 20
0.58305
 30
0.0
 10
2.02011
 20
-0.39191
 30
0.0
 10
2.02011
 20
-0.39191
 30
0.0
 10
2.02011
 20
-0.39191
 30
0.0
 10
2.02011
 20
-0.39191
 30
0.0
 10
1.59283
 20
-0.39191
 30
0.0
 10
1.59283
 20
-0.39191
 30
0.0
  0
SPLINE
  5
8F
330
1F
100
AcDbEntity
  8
Camada 1
370
     9
100
AcDbSpline
210
0.0
220
0.0
230
1.0
 70
    11
 71
     3
 72
    56
 73
    52
 74
     0
 42
0.0000000001
 43
0.0000000001
 40
0.0
 40
0.0
 40
0.0
 40
0.0
 40
0.0714285714285714
 40
0.0714285714285714
 40
0.0714285714285714
 40
0.0714285714285714
 40
0.1428571428571428
 40
0.1428571428571428
 40
0.1428571428571428
 40
0.1428571428571428
 40
0.2142857142857143
 40
0.2142857142857143
 40
0.2142857142857143
 40
0.2142857142857143
 40
0.2857142857142857
 40
0.2857142857142857
 40
0.2857142857142857
 40
0.2857142857142857
 40
0.3571428571428572
 40
0.3571428571428572
 40
0.3571428571428572
 40
0.3571428571428572
 40
0.4285714285714285
 40
0.4285714285714285
 40
0.4285714285714285
 40
0.4285714285714285
 40
0.5
 40
0.5
 40
0.5
 40
0.5
 40
0.5714285714285714
 40
0.5714285714285714
 40
0.5714285714285714
 40
0.5714285714285714
 40
0.6428571428571429
 40
0.6428571428571429
 40
0.6428571428571429
 40
0.6428571428571429
 40
0.7142857142857143
 40
0.7142857142857143
 40
0.7142857142857143
 40
0.7142857142857143
 40
0.7857142857142857
 40
0.7857142857142857
 40
0.7857142857142857
 40
0.7857142857142857
 40
0.8571428571428571
 40
0.8571428571428571
 40
0.8571428571428571
 40
0.8571428571428571
 40
1.0
 40
1.0
 40
1.0
 40
1.0
 10
-1.6057
 20
12.94738
 30
0.0
 10
-1.6057
 20
12.94738
 30
0.0
 10
-1.93579
 20
12.94738
 30
0.0
 10
-1.93579
 20
12.94738
 30
0.0
 10
-1.93579
 20
12.94738
 30
0.0
 10
-1.93579
 20
12.94738
 30
0.0
 10
-1.93579
 20
14.14738
 30
0.0
 10
-1.93579
 20
14.14738
 30
0.0
 10
-1.93579
 20
14.14738
 30
0.0
 10
-1.93579
 20
14.14738
 30
0.0
 10
-1.6057
 20
14.14738
 30
0.0
 10
-1.6057
 20
14.14738
 30
0.0
 10
-1.6057
 20
14.14738
 30
0.0
 10
-1.6057
 20
14.14738
 30
0.0
 10
-1.6057
 20
15.16093
 30
0.0
 10
-1.6057
 20
15.16093
 30
0.0
 10
-1.6057
 20
15.16093
 30
0.0
 10
-1.6057
 20
15.16093
 30
0.0
 10
-1.97135
 20
15.16093
 30
0.0
 10
-1.97135
 20
15.16093
 30
0.0
 10
-1.97135
 20
15.16093
 30
0.0
 10
-1.97135
 20
15.16093
 30
0.0
 10
-3.23494
 20
14.56177
 30
0.0
 10
-3.23494
 20
14.56177
 30
0.0
 10
-3.23494
 20
14.56177
 30
0.0
 10
-3.23494
 20
14.56177
 30
0.0
 10
-3.23494
 20
11.93402
 30
0.0
 10
-3.23494
 20
11.93402
 30
0.0
 10
-3.23494
 20
11.93402
 30
0.0
 10
-3.23494
 20
11.93402
 30
0.0
 10
-2.79969
 20
11.93402
 30
0.0
 10
-2.79969
 20
11.93402
 30
0.0
 10
-2.79969
 20
11.93402
 30
0.0
 10
-2.79969
 20
11.93402
 30
0.0
 10
-2.79969
 20
13.30225
 30
0.0
 10
-2.79969
 20
13.30225
 30
0.0
 10
-2.79969
 20
13.30225
 30
0.0
 10
-2.79969
 20
13.30225
 30
0.0
 10
-2.49969
 20
13.30225
 30
0.0
 10
-2.49969
 20
13.30225
 30
0.0
 10
-2.49969
 20
13.30225
 30
0.0
 10
-2.49969
 20
13.30225
 30
0.0
 10
-2.49969
 20
11.93402
 30
0.0
 10
-2.49969
 20
11.93402
 30
0.0
 10
-2.49969
 20
11.93402
 30
0.0
 10
-2.49969
 20
11.93402
 30
0.0
 10
-1.6057
 20
11.93402
 30
0.0
 10
-1.6057
 20
11.93402
 30
0.0
 10
-1.6057
 20
11.93402
 30
0.0
 10
-1.6057
 20
11.93402
 30
0.0
 10
-1.6057
 20
12.94738
 30
0.0
 10
-1.6057
 20
12.94738
 30
0.0
  0
SPLINE
  5
90
330
1F
100
AcDbEntity
  8
Camada 1
370
     9
100
AcDbSpline
210
0.0
220
0.0
230
1.0
 70
    11
 71
     3
 72
    56
 73
    52
 74
     0
 42
0.0000000001
 43
0.0000000001
 40
0.0
 40
0.0
 40
0.0
 40
0.0
 40
0.0714285714285714
 40
0.0714285714285714
 40
0.0714285714285714
 40
0.0714285714285714
 40
0.1428571428571428
 40
0.1428571428571428
 40
0.1428571428571428
 40
0.1428571428571428
 40
0.2142857142857143
 40
0.2142857142857143
 40
0.2142857142857143
 40
0.2142857142857143
 40
0.2857142857142857
 40
0.2857142857142857
 40
0.2857142857142857
 40
0.2857142857142857
 40
0.3571428571428572
 40
0.3571428571428572
 40
0.3571428571428572
 40
0.3571428571428572
 40
0.4285714285714285
 40
0.4285714285714285
 40
0.4285714285714285
 40
0.4285714285714285
 40
0.5
 40
0.5
 40
0.5
 40
0.5
 40
0.5714285714285714
 40
0.5714285714285714
 40
0.5714285714285714
 40
0.5714285714285714
 40
0.6428571428571429
 40
0.6428571428571429
 40
0.6428571428571429
 40
0.6428571428571429
 40
0.7142857142857143
 40
0.7142857142857143
 40
0.7142857142857143
 40
0.7142857142857143
 40
0.7857142857142857
 40
0.7857142857142857
 40
0.7857142857142857
 40
0.7857142857142857
 40
0.8571428571428571
 40
0.8571428571428571
 40
0.8571428571428571
 40
0.8571428571428571
 40
1.0
 40
1.0
 40
1.0
 40
1.0
 10
-4.2145
 20
12.92621
 30
0.0
 10
-4.2145
 20
12.92621
 30
0.0
 10
-4.54459
 20
12.92621
 30
0.0
 10
-4.54459
 20
12.92621
 30
0.0
 10
-4.54459
 20
12.92621
 30
0.0
 10
-4.54459
 20
12.92621
 30
0.0
 10
-4.54459
 20
14.12621
 30
0.0
 10
-4.54459
 20
14.12621
 30
0.0
 10
-4.54459
 20
14.12621
 30
0.0
 10
-4.54459
 20
14.12621
 30
0.0
 10
-4.2145
 20
14.12621
 30
0.0
 10
-4.2145
 20
14.12621
 30
0.0
 10
-4.2145
 20
14.12621
 30
0.0
 10
-4.2145
 20
14.12621
 30
0.0
 10
-4.2145
 20
15.13976
 30
0.0
 10
-4.2145
 20
15.13976
 30
0.0
 10
-4.2145
 20
15.13976
 30
0.0
 10
-4.2145
 20
15.13976
 30
0.0
 10
-4.58015
 20
15.13976
 30
0.0
 10
-4.58015
 20
15.13976
 30
0.0
 10
-4.58015
 20
15.13976
 30
0.0
 10
-4.58015
 20
15.13976
 30
0.0
 10
-5.84374
 20
14.5406
 30
0.0
 10
-5.84374
 20
14.5406
 30
0.0
 10
-5.84374
 20
14.5406
 30
0.0
 10
-5.84374
 20
14.5406
 30
0.0
 10
-5.84374
 20
11.91285
 30
0.0
 10
-5.84374
 20
11.91285
 30
0.0
 10
-5.84374
 20
11.91285
 30
0.0
 10
-5.84374
 20
11.91285
 30
0.0
 10
-5.40849
 20
11.91285
 30
0.0
 10
-5.40849
 20
11.91285
 30
0.0
 10
-5.40849
 20
11.91285
 30
0.0
 10
-5.40849
 20
11.91285
 30
0.0
 10
-5.40849
 20
13.28108
 30
0.0
 10
-5.40849
 20
13.28108
 30
0.0
 10
-5.40849
 20
13.28108
 30
0.0
 10
-5.40849
 20
13.28108
 30
0.0
 10
-5.10849
 20
13.28108
 30
0.0
 10
-5.10849
 20
13.28108
 30
0.0
 10
-5.10849
 20
13.28108
 30
0.0
 10
-5.10849
 20
13.28108
 30
0.0
 10
-5.10849
 20
11.91285
 30
0.0
 10
-5.10849
 20
11.91285
 30
0.0
 10
-5.10849
 20
11.91285
 30
0.0
 10
-5.10849
 20
11.91285
 30
0.0
 10
-4.2145
 20
11.91285
 30
0.0
 10
-4.2145
 20
11.91285
 30
0.0
 10
-4.2145
 20
11.91285
 30
0.0
 10
-4.2145
 20
11.91285
 30
0.0
 10
-4.2145
 20
12.92621
 30
0.0
 10
-4.2145
 20
12.92621
 30
0.0
  0
SPLINE
  5
91
330
1F
100
AcDbEntity
  8
Camada 1
370
     9
100
AcDbSpline
210
0.0
220
0.0
230
1.0
 70
    11
 71
     3
 72
    56
 73
    52
 74
     0
 42
0.0000000001
 43
0.0000000001
 40
0.0
 40
0.0
 40
0.0
 40
0.0
 40
0.0714285714285714
 40
0.0714285714285714
 40
0.0714285714285714
 40
0.0714285714285714
 40
0.1428571428571428
 40
0.1428571428571428
 40
0.1428571428571428
 40
0.1428571428571428
 40
0.2142857142857143
 40
0.2142857142857143
 40
0.2142857142857143
 40
0.2142857142857143
 40
0.2857142857142857
 40
0.2857142857142857
 40
0.2857142857142857
 40
0.2857142857142857
 40
0.3571428571428572
 40
0.3571428571428572
 40
0.3571428571428572
 40
0.3571428571428572
 40
0.4285714285714285
 40
0.4285714285714285
 40
0.4285714285714285
 40
0.4285714285714285
 40
0.5
 40
0.5
 40
0.5
 40
0.5
 40
0.5714285714285714
 40
0.5714285714285714
 40
0.5714285714285714
 40
0.5714285714285714
 40
0.6428571428571429
 40
0.6428571428571429
 40
0.6428571428571429
 40
0.6428571428571429
 40
0.7142857142857143
 40
0.7142857142857143
 40
0.7142857142857143
 40
0.7142857142857143
 40
0.7857142857142857
 40
0.7857142857142857
 40
0.7857142857142857
 40
0.7857142857142857
 40
0.8571428571428571
 40
0.8571428571428571
 40
0.8571428571428571
 40
0.8571428571428571
 40
1.0
 40
1.0
 40
1.0
 40
1.0
 10
4.45031
 20
13.41917
 30
0.0
 10
4.45031
 20
13.41917
 30
0.0
 10
4.45031
 20
13.08908
 30
0.0
 10
4.45031
 20
13.08908
 30
0.0
 10
4.45031
 20
13.08908
 30
0.0
 10
4.45031
 20
13.08908
 30
0.0
 10
5.65031
 20
13.08908
 30
0.0
 10
5.65031
 20
13.08908
 30
0.0
 10
5.65031
 20
13.08908
 30
0.0
 10
5.65031
 20
13.08908
 30
0.0
 10
5.65031
 20
13.41917
 30
0.0
 10
5.65031
 20
13.41917
 30
0.0
 10
5.65031
 20
13.41917
 30
0.0
 10
5.65031
 20
13.41917
 30
0.0
 10
6.66386
 20
13.41917
 30
0.0
 10
6.66386
 20
13.41917
 30
0.0
 10
6.66386
 20
13.41917
 30
0.0
 10
6.66386
 20
13.41917
 30
0.0
 10
6.66386
 20
13.05352
 30
0.0
 10
6.66386
 20
13.05352
 30
0.0
 10
6.66386
 20
13.05352
 30
0.0
 10
6.66386
 20
13.05352
 30
0.0
 10
6.0647
 20
11.78993
 30
0.0
 10
6.0647
 20
11.78993
 30
0.0
 10
6.0647
 20
11.78993
 30
0.0
 10
6.0647
 20
11.78993
 30
0.0
 10
3.43695
 20
11.78993
 30
0.0
 10
3.43695
 20
11.78993
 30
0.0
 10
3.43695
 20
11.78993
 30
0.0
 10
3.43695
 20
11.78993
 30
0.0
 10
3.43695
 20
12.22518
 30
0.0
 10
3.43695
 20
12.22518
 30
0.0
 10
3.43695
 20
12.22518
 30
0.0
 10
3.43695
 20
12.22518
 30
0.0
 10
4.80518
 20
12.22518
 30
0.0
 10
4.80518
 20
12.22518
 30
0.0
 10
4.80518
 20
12.22518
 30
0.0
 10
4.80518
 20
12.22518
 30
0.0
 10
4.80518
 20
12.52518
 30
0.0
 10
4.80518
 20
12.52518
 30
0.0
 10
4.80518
 20
12.52518
 30
0.0
 10
4.80518
 20
12.52518
 30
0.0
 10
3.43695
 20
12.52518
 30
0.0
 10
3.43695
 20
12.52518
 30
0.0
 10
3.43695
 20
12.52518
 30
0.0
 10
3.43695
 20
12.52518
 30
0.0
 10
3.43695
 20
13.41917
 30
0.0
 10
3.43695
 20
13.41917
 30
0.0
 10
3.43695
 20
13.41917
 30
0.0
 10
3.43695
 20
13.41917
 30
0.0
 10
4.45031
 20
13.41917
 30
0.0
 10
4.45031
 20
13.41917
 30
0.0
  0
ENDSEC
  0
SECTION
  2
OBJECTS
  0
DICTIONARY
  5
C
330
0
100
AcDbDictionary
281
     1
  3
ACAD_GROUP
350
D
  3
ACAD_LAYOUT
350
1A
  3
ACAD_MATERIAL
350
3B
  3
ACAD_MLEADERSTYLE
350
B3
  3
ACAD_MLINESTYLE
350
17
  3
ACAD_PLOTSETTINGS
350
19
  3
ACAD_PLOTSTYLENAME
350
E
  3
ACAD_TABLESTYLE
350
B2
  3
ACAD_VISUALSTYLE
350
2A
  0
DICTIONARY
  5
D
102
{ACAD_REACTORS
330
C
102
}
330
C
100
AcDbDictionary
281
     1
  0
DICTIONARY
  5
1A
102
{ACAD_REACTORS
330
C
102
}
330
C
100
AcDbDictionary
281
     1
  3
Layout1
350
1E
  3
Layout2
350
26
  3
Model
350
22
  0
DICTIONARY
  5
3B
102
{ACAD_REACTORS
330
C
102
}
330
C
100
AcDbDictionary
281
     1
  3
ByBlock
350
3D
  3
ByLayer
350
3C
  3
Global
350
3E
  0
DICTIONARY
  5
B3
102
{ACAD_REACTORS
330
C
102
}
330
C
100
AcDbDictionary
281
     1
  0
DICTIONARY
  5
17
102
{ACAD_REACTORS
330
C
102
}
330
C
100
AcDbDictionary
281
     1
  3
Standard
350
18
  0
DICTIONARY
  5
19
102
{ACAD_REACTORS
330
C
102
}
330
C
100
AcDbDictionary
281
     1
  0
ACDBDICTIONARYWDFLT
  5
E
102
{ACAD_REACTORS
330
C
102
}
330
C
100
AcDbDictionary
281
     1
  3
Normal
350
F
100
AcDbDictionaryWithDefault
340
F
  0
DICTIONARY
  5
B2
102
{ACAD_REACTORS
330
C
102
}
330
C
100
AcDbDictionary
281
     1
  0
DICTIONARY
  5
2A
102
{ACAD_REACTORS
330
C
102
}
330
C
100
AcDbDictionary
281
     1
  3
2dWireframe
350
2F
  3
3D Hidden
350
31
  3
3dWireframe
350
30
  3
Basic
350
32
  3
Brighten
350
36
  3
ColorChange
350
3A
  3
Conceptual
350
34
  3
Dim
350
35
  3
Facepattern
350
39
  3
Flat
350
2B
  3
FlatWithEdges
350
2C
  3
Gouraud
350
2D
  3
GouraudWithEdges
350
2E
  3
Linepattern
350
38
  3
Realistic
350
33
  3
Thicken
350
37
  0
LAYOUT
  5
1E
102
{ACAD_REACTORS
330
1A
102
}
330
1A
100
AcDbPlotSettings
  1

  2
none_device
  4

  6

 40
0.0
 41
0.0
 42
0.0
 43
0.0
 44
0.0
 45
0.0
 46
0.0
 47
0.0
 48
0.0
 49
0.0
140
0.0
141
0.0
142
1.0
143
1.0
 70
   688
 72
     0
 73
     0
 74
     5
  7

 75
    16
 76
     0
 77
     2
 78
   300
147
1.0
148
0.0
149
0.0
100
AcDbLayout
  1
Layout1
 70
     1
 71
     1
 10
0.0
 20
0.0
 11
12.0
 21
9.0
 12
0.0
 22
0.0
 32
0.0
 14
1.000000000000000E+20
 24
1.000000000000000E+20
 34
1.000000000000000E+20
 15
-1.000000000000000E+20
 25
-1.000000000000000E+20
 35
-1.000000000000000E+20
146
0.0
 13
0.0
 23
0.0
 33
0.0
 16
1.0
 26
0.0
 36
0.0
 17
0.0
 27
1.0
 37
0.0
 76
     0
330
1B
  0
LAYOUT
  5
26
102
{ACAD_REACTORS
330
1A
102
}
330
1A
100
AcDbPlotSettings
  1

  2
none_device
  4

  6

 40
0.0
 41
0.0
 42
0.0
 43
0.0
 44
0.0
 45
0.0
 46
0.0
 47
0.0
 48
0.0
 49
0.0
140
0.0
141
0.0
142
1.0
143
1.0
 70
   688
 72
     0
 73
     0
 74
     5
  7

 75
    16
 76
     0
 77
     2
 78
   300
147
1.0
148
0.0
149
0.0
100
AcDbLayout
  1
Layout2
 70
     1
 71
     2
 10
0.0
 20
0.0
 11
0.0
 21
0.0
 12
0.0
 22
0.0
 32
0.0
 14
0.0
 24
0.0
 34
0.0
 15
0.0
 25
0.0
 35
0.0
146
0.0
 13
0.0
 23
0.0
 33
0.0
 16
1.0
 26
0.0
 36
0.0
 17
0.0
 27
1.0
 37
0.0
 76
     0
330
23
  0
LAYOUT
  5
22
102
{ACAD_REACTORS
330
1A
102
}
330
1A
100
AcDbPlotSettings
  1

  2
none_device
  4

  6

 40
0.0
 41
0.0
 42
0.0
 43
0.0
 44
0.0
 45
0.0
 46
0.0
 47
0.0
 48
0.0
 49
0.0
140
0.0
141
0.0
142
1.0
143
1.0
 70
  1712
 72
     0
 73
     0
 74
     0
  7

 75
     0
 76
     0
 77
     2
 78
   300
147
1.0
148
0.0
149
0.0
100
AcDbLayout
  1
Model
 70
     1
 71
     0
 10
0.0
 20
0.0
 11
12.0
 21
9.0
 12
0.0
 22
0.0
 32
0.0
 14
-26.8388
 24
-0.6056
 34
0.0
 15
7.41196
 25
41.41155
 35
0.0
146
0.0
 13
0.0
 23
0.0
 33
0.0
 16
1.0
 26
0.0
 36
0.0
 17
0.0
 27
1.0
 37
0.0
 76
     0
330
1F
331
29
  0
MATERIAL
  5
3D
102
{ACAD_REACTORS
330
3B
102
}
330
3B
100
AcDbMaterial
  1
ByBlock
 72
     1
 94
      127
  0
MATERIAL
  5
3C
102
{ACAD_REACTORS
330
3B
102
}
330
3B
100
AcDbMaterial
  1
ByLayer
 72
     1
 94
      127
  0
MATERIAL
  5
3E
102
{ACAD_REACTORS
330
3B
102
}
330
3B
100
AcDbMaterial
  1
Global
 72
     1
 94
      127
  0
MLINESTYLE
  5
18
102
{ACAD_REACTORS
330
17
102
}
330
17
100
AcDbMlineStyle
  2
Standard
 70
     0
  3

 62
   256
 51
90.0
 52
90.0
 71
     2
 49
0.5
 62
   256
  6
BYLAYER
 49
-0.5
 62
   256
  6
BYLAYER
  0
ACDBPLACEHOLDER
  5
F
102
{ACAD_REACTORS
330
E
102
}
330
E
  0
VISUALSTYLE
  5
2F
102
{ACAD_REACTORS
330
2A
102
}
102
{ACAD_XDICTIONARY
360
9A
102
}
330
2A
100
AcDbVisualStyle
  2
2dWireframe
 70
     4
 71
     0
 72
     2
 73
     0
 90
        0
 40
-0.6
 41
-30.0
 62
     5
 63
     7
421
 16777215
 74
     1
 91
        4
 64
     7
 65
   257
 75
     1
175
     1
 42
1.0
 92
        0
 66
   257
 43
1.0
 76
     1
 77
     6
 78
     2
 67
     7
 79
     5
170
     0
171
     0
290
     0
174
     0
 93
        1
 44
0.0
173
     0
291
     0
 45
0.0
  0
VISUALSTYLE
  5
31
102
{ACAD_REACTORS
330
2A
102
}
102
{ACAD_XDICTIONARY
360
9E
102
}
330
2A
100
AcDbVisualStyle
  2
3D Hidden
 70
     6
 71
     1
 72
     2
 73
     2
 90
        0
 40
-0.6
 41
-30.0
 62
     5
 63
     7
421
 16777215
 74
     2
 91
        2
 64
     7
 65
   257
 75
     2
175
     1
 42
40.0
 92
        0
 66
   257
 43
1.0
 76
     1
 77
     6
 78
     2
 67
     7
 79
     3
170
     0
171
     0
290
     0
174
     0
 93
        1
 44
0.0
173
     0
291
     0
 45
0.0
  0
VISUALSTYLE
  5
30
102
{ACAD_REACTORS
330
2A
102
}
102
{ACAD_XDICTIONARY
360
9C
102
}
330
2A
100
AcDbVisualStyle
  2
3dWireframe
 70
     5
 71
     0
 72
     2
 73
     0
 90
        0
 40
-0.6
 41
-30.0
 62
     5
 63
     7
421
 16777215
 74
     1
 91
        4
 64
     7
 65
   257
 75
     1
175
     1
 42
1.0
 92
        0
 66
   257
 43
1.0
 76
     1
 77
     6
 78
     2
 67
     7
 79
     5
170
     0
171
     0
290
     0
174
     0
 93
        1
 44
0.0
173
     0
291
     0
 45
0.0
  0
VISUALSTYLE
  5
32
102
{ACAD_REACTORS
330
2A
102
}
102
{ACAD_XDICTIONARY
360
A0
102
}
330
2A
100
AcDbVisualStyle
  2
Basic
 70
     7
 71
     1
 72
     0
 73
     1
 90
        0
 40
-0.6
 41
-30.0
 62
     5
 63
     7
421
 16777215
 74
     0
 91
        4
 64
     7
 65
   257
 75
     1
175
     1
 42
1.0
 92
        8
 66
     7
 43
1.0
 76
     1
 77
     6
 78
     2
 67
     7
 79
     5
170
     0
171
     0
290
     0
174
     0
 93
        1
 44
0.0
173
     0
291
     1
 45
0.0
  0
VISUALSTYLE
  5
36
102
{ACAD_REACTORS
330
2A
102
}
102
{ACAD_XDICTIONARY
360
A8
102
}
330
2A
100
AcDbVisualStyle
  2
Brighten
 70
    12
 71
     2
 72
     2
 73
     0
 90
        0
 40
-0.6
 41
-30.0
 62
     5
 63
     7
421
 16777215
 74
     1
 91
        4
 64
     7
 65
   257
 75
     1
175
     1
 42
1.0
 92
        8
 66
     7
 43
1.0
 76
     1
 77
     6
 78
     2
 67
     7
 79
     5
170
     0
171
     0
290
     0
174
     0
 93
        1
 44
50.0
173
     0
291
     1
 45
0.0
  0
VISUALSTYLE
  5
3A
102
{ACAD_REACTORS
330
2A
102
}
102
{ACAD_XDICTIONARY
360
B0
102
}
330
2A
100
AcDbVisualStyle
  2
ColorChange
 70
    16
 71
     2
 72
     2
 73
     3
 90
        0
 40
-0.6
 41
-30.0
 62
     5
 63
     8
421
  8421504
 74
     1
 91
        4
 64
     7
 65
   257
 75
     1
175
     1
 42
1.0
 92
        8
 66
     8
424
  8421504
 43
1.0
 76
     1
 77
     6
 78
     2
 67
     7
 79
     5
170
     0
171
     0
290
     0
174
     0
 93
        1
 44
0.0
173
     0
291
     1
 45
0.0
  0
VISUALSTYLE
  5
34
102
{ACAD_REACTORS
330
2A
102
}
102
{ACAD_XDICTIONARY
360
A4
102
}
330
2A
100
AcDbVisualStyle
  2
Conceptual
 70
     9
 71
     3
 72
     2
 73
     0
 90
        0
 40
-0.6
 41
-30.0
 62
     5
 63
     7
421
 16777215
 74
     2
 91
        2
 64
     7
 65
   257
 75
     1
175
     1
 42
40.0
 92
        8
 66
     7
 43
1.0
 76
     1
 77
     6
 78
     2
 67
     7
 79
     3
170
     0
171
     0
290
     0
174
     0
 93
        1
 44
0.0
173
     0
291
     0
 45
0.0
  0
VISUALSTYLE
  5
35
102
{ACAD_REACTORS
330
2A
102
}
102
{ACAD_XDICTIONARY
360
A6
102
}
330
2A
100
AcDbVisualStyle
  2
Dim
 70
    11
 71
     2
 72
     2
 73
     0
 90
        0
 40
-0.6
 41
-30.0
 62
     5
 63
     7
421
 16777215
 74
     1
 91
        4
 64
     7
 65
   257
 75
     1
175
     1
 42
1.0
 92
        8
 66
     7
 43
1.0
 76
     1
 77
     6
 78
     2
 67
     7
 79
     5
170
     0
171
     0
290
     0
174
     0
 93
        1
 44
-50.0
173
     0
291
     1
 45
0.0
  0
VISUALSTYLE
  5
39
102
{ACAD_REACTORS
330
2A
102
}
102
{ACAD_XDICTIONARY
360
AE
102
}
330
2A
100
AcDbVisualStyle
  2
Facepattern
 70
    15
 71
     2
 72
     2
 73
     0
 90
        0
 40
-0.6
 41
-30.0
 62
     5
 63
     7
421
 16777215
 74
     1
 91
        4
 64
     7
 65
   257
 75
     1
175
     1
 42
1.0
 92
        8
 66
     7
 43
1.0
 76
     1
 77
     6
 78
     2
 67
     7
 79
     5
170
     0
171
     0
290
     0
174
     0
 93
        1
 44
0.0
173
     0
291
     1
 45
0.0
  0
VISUALSTYLE
  5
2B
102
{ACAD_REACTORS
330
2A
102
}
102
{ACAD_XDICTIONARY
360
92
102
}
330
2A
100
AcDbVisualStyle
  2
Flat
 70
     0
 71
     2
 72
     1
 73
     1
 90
        2
 40
-0.6
 41
30.0
 62
     5
 63
     7
421
 16777215
 74
     0
 91
        4
 64
     7
 65
   257
 75
     1
175
     1
 42
1.0
 92
        8
 66
     7
 43
1.0
 76
     1
 77
     6
 78
     2
 67
     7
 79
     5
170
     0
171
     0
290
     0
174
     0
 93
       13
 44
0.0
173
     0
291
     1
 45
0.0
  0
VISUALSTYLE
  5
2C
102
{ACAD_REACTORS
330
2A
102
}
102
{ACAD_XDICTIONARY
360
94
102
}
330
2A
100
AcDbVisualStyle
  2
FlatWithEdges
 70
     1
 71
     2
 72
     1
 73
     1
 90
        2
 40
-0.6
 41
30.0
 62
     5
 63
     7
421
 16777215
 74
     1
 91
        4
 64
     7
 65
   257
 75
     1
175
     1
 42
1.0
 92
        0
 66
   257
 43
1.0
 76
     1
 77
     6
 78
     2
 67
     7
 79
     5
170
     0
171
     0
290
     0
174
     0
 93
       13
 44
0.0
173
     0
291
     1
 45
0.0
  0
VISUALSTYLE
  5
2D
102
{ACAD_REACTORS
330
2A
102
}
102
{ACAD_XDICTIONARY
360
96
102
}
330
2A
100
AcDbVisualStyle
  2
Gouraud
 70
     2
 71
     2
 72
     2
 73
     1
 90
        2
 40
-0.6
 41
30.0
 62
     5
 63
     7
421
 16777215
 74
     0
 91
        4
 64
     7
 65
   257
 75
     1
175
     1
 42
1.0
 92
        0
 66
     7
 43
1.0
 76
     1
 77
     6
 78
     2
 67
     7
 79
     5
170
     0
171
     0
290
     0
174
     0
 93
       13
 44
0.0
173
     0
291
     1
 45
0.0
  0
VISUALSTYLE
  5
2E
102
{ACAD_REACTORS
330
2A
102
}
102
{ACAD_XDICTIONARY
360
98
102
}
330
2A
100
AcDbVisualStyle
  2
GouraudWithEdges
 70
     3
 71
     2
 72
     2
 73
     1
 90
        2
 40
-0.6
 41
30.0
 62
     5
 63
     7
421
 16777215
 74
     1
 91
        4
 64
     7
 65
   257
 75
     1
175
     1
 42
1.0
 92
        0
 66
   257
 43
1.0
 76
     1
 77
     6
 78
     2
 67
     7
 79
     5
170
     0
171
     0
290
     0
174
     0
 93
       13
 44
0.0
173
     0
291
     1
 45
0.0
  0
VISUALSTYLE
  5
38
102
{ACAD_REACTORS
330
2A
102
}
102
{ACAD_XDICTIONARY
360
AC
102
}
330
2A
100
AcDbVisualStyle
  2
Linepattern
 70
    14
 71
     2
 72
     2
 73
     0
 90
        0
 40
-0.6
 41
-30.0
 62
     5
 63
     7
421
 16777215
 74
     1
 91
        4
 64
     7
 65
   257
 75
     7
175
     7
 42
1.0
 92
        8
 66
     7
 43
1.0
 76
     1
 77
     6
 78
     2
 67
     7
 79
     5
170
     0
171
     0
290
     0
174
     0
 93
        1
 44
0.0
173
     0
291
     1
 45
0.0
  0
VISUALSTYLE
  5
33
102
{ACAD_REACTORS
330
2A
102
}
102
{ACAD_XDICTIONARY
360
A2
102
}
330
2A
100
AcDbVisualStyle
  2
Realistic
 70
     8
 71
     2
 72
     2
 73
     0
 90
        0
 40
-0.6
 41
-30.0
 62
     5
 63
     7
421
 16777215
 74
     1
 91
        0
 64
     7
 65
   257
 75
     1
175
     1
 42
1.0
 92
        8
 66
     8
424
  7895160
 43
1.0
 76
     1
 77
     6
 78
     2
 67
     7
 79
     5
170
     0
171
     0
290
     0
174
     0
 93
       13
 44
0.0
173
     0
291
     0
 45
0.0
  0
VISUALSTYLE
  5
37
102
{ACAD_REACTORS
330
2A
102
}
102
{ACAD_XDICTIONARY
360
AA
102
}
330
2A
100
AcDbVisualStyle
  2
Thicken
 70
    13
 71
     2
 72
     2
 73
     0
 90
        0
 40
-0.6
 41
-30.0
 62
     5
 63
     7
421
 16777215
 74
     1
 91
        4
 64
     7
 65
   257
 75
     1
175
     1
 42
1.0
 92
       12
 66
     7
 43
1.0
 76
     1
 77
     6
 78
     2
 67
     7
 79
     5
170
     0
171
     0
290
     0
174
     0
 93
        1
 44
0.0
173
     0
291
     1
 45
0.0
  0
DICTIONARY
  5
9A
330
2F
100
AcDbDictionary
280
     1
281
     1
  3
ACAD_XREC_ROUNDTRIP
360
9B
  0
DICTIONARY
  5
9E
330
31
100
AcDbDictionary
280
     1
281
     1
  3
ACAD_XREC_ROUNDTRIP
360
9F
  0
DICTIONARY
  5
9C
330
30
100
AcDbDictionary
280
     1
281
     1
  3
ACAD_XREC_ROUNDTRIP
360
9D
  0
DICTIONARY
  5
A0
330
32
100
AcDbDictionary
280
     1
281
     1
  3
ACAD_XREC_ROUNDTRIP
360
A1
  0
DICTIONARY
  5
A8
330
36
100
AcDbDictionary
280
     1
281
     1
  3
ACAD_XREC_ROUNDTRIP
360
A9
  0
DICTIONARY
  5
B0
330
3A
100
AcDbDictionary
280
     1
281
     1
  3
ACAD_XREC_ROUNDTRIP
360
B1
  0
DICTIONARY
  5
A4
330
34
100
AcDbDictionary
280
     1
281
     1
  3
ACAD_XREC_ROUNDTRIP
360
A5
  0
DICTIONARY
  5
A6
330
35
100
AcDbDictionary
280
     1
281
     1
  3
ACAD_XREC_ROUNDTRIP
360
A7
  0
DICTIONARY
  5
AE
330
39
100
AcDbDictionary
280
     1
281
     1
  3
ACAD_XREC_ROUNDTRIP
360
AF
  0
DICTIONARY
  5
92
330
2B
100
AcDbDictionary
280
     1
281
     1
  3
ACAD_XREC_ROUNDTRIP
360
93
  0
DICTIONARY
  5
94
330
2C
100
AcDbDictionary
280
     1
281
     1
  3
ACAD_XREC_ROUNDTRIP
360
95
  0
DICTIONARY
  5
96
330
2D
100
AcDbDictionary
280
     1
281
     1
  3
ACAD_XREC_ROUNDTRIP
360
97
  0
DICTIONARY
  5
98
330
2E
100
AcDbDictionary
280
     1
281
     1
  3
ACAD_XREC_ROUNDTRIP
360
99
  0
DICTIONARY
  5
AC
330
38
100
AcDbDictionary
280
     1
281
     1
  3
ACAD_XREC_ROUNDTRIP
360
AD
  0
DICTIONARY
  5
A2
330
33
100
AcDbDictionary
280
     1
281
     1
  3
ACAD_XREC_ROUNDTRIP
360
A3
  0
DICTIONARY
  5
AA
330
37
100
AcDbDictionary
280
     1
281
     1
  3
ACAD_XREC_ROUNDTRIP
360
AB
  0
XRECORD
  5
9B
102
{ACAD_REACTORS
330
9A
102
}
330
9A
100
AcDbXrecord
280
     1
102
RTVSPropertyOp0
 70
     1
102
RTVSPropertyOp1
 70
     1
102
RTVSPropertyOp2
 70
     1
102
RTVSPropertyOp3
 70
     1
102
RTVSPropertyOp4
 70
     1
102
RTVSPropertyOp5
 70
     1
102
RTVSPropertyOp6
 70
     1
102
RTVSPropertyOp7
 70
     1
102
RTVSPropertyOp8
 70
     1
102
RTVSPropertyOp9
 70
     1
102
RTVSPropertyOp10
 70
     1
102
RTVSPropertyOp11
 70
     1
102
RTVSPropertyOp12
 70
     1
102
RTVSPropertyOp13
 70
     1
102
RTVSPropertyOp14
 70
     1
102
RTVSPropertyOp15
 70
     1
102
RTVSPropertyOp16
 70
     1
102
RTVSPropertyOp17
 70
     1
102
RTVSPropertyOp18
 70
     1
102
RTVSPropertyOp19
 70
     1
102
RTVSPropertyOp20
 70
     1
102
RTVSPropertyOp21
 70
     1
102
RTVSPropertyOp22
 70
     1
102
RTVSPropertyOp23
 70
     1
102
RTVSPropertyOp24
 70
     1
102
RTVSPropertyOp25
 70
     1
102
RTVSPropertyOp26
 70
     1
102
RTVSPropertyOp27
 70
     1
  0
XRECORD
  5
9F
102
{ACAD_REACTORS
330
9E
102
}
330
9E
100
AcDbXrecord
280
     1
102
RTVSPropertyOp0
 70
     1
102
RTVSPropertyOp1
 70
     1
102
RTVSPropertyOp2
 70
     1
102
RTVSPropertyOp3
 70
     1
102
RTVSPropertyOp4
 70
     1
102
RTVSPropertyOp5
 70
     1
102
RTVSPropertyOp6
 70
     1
102
RTVSPropertyOp7
 70
     1
102
RTVSPropertyOp8
 70
     1
102
RTVSPropertyOp9
 70
     1
102
RTVSPropertyOp10
 70
     1
102
RTVSPropertyOp11
 70
     1
102
RTVSPropertyOp12
 70
     1
102
RTVSPropertyOp13
 70
     1
102
RTVSPropertyOp14
 70
     1
102
RTVSPropertyOp15
 70
     1
102
RTVSPropertyOp16
 70
     1
102
RTVSPropertyOp17
 70
     1
102
RTVSPropertyOp18
 70
     1
102
RTVSPropertyOp19
 70
     1
102
RTVSPropertyOp20
 70
     1
102
RTVSPropertyOp21
 70
     1
102
RTVSPropertyOp22
 70
     1
102
RTVSPropertyOp23
 70
     1
102
RTVSPropertyOp24
 70
     1
102
RTVSPropertyOp25
 70
     1
102
RTVSPropertyOp26
 70
     1
102
RTVSPropertyOp27
 70
     1
  0
XRECORD
  5
9D
102
{ACAD_REACTORS
330
9C
102
}
330
9C
100
AcDbXrecord
280
     1
102
RTVSPropertyOp0
 70
     1
102
RTVSPropertyOp1
 70
     1
102
RTVSPropertyOp2
 70
     1
102
RTVSPropertyOp3
 70
     1
102
RTVSPropertyOp4
 70
     1
102
RTVSPropertyOp5
 70
     1
102
RTVSPropertyOp6
 70
     1
102
RTVSPropertyOp7
 70
     1
102
RTVSPropertyOp8
 70
     1
102
RTVSPropertyOp9
 70
     1
102
RTVSPropertyOp10
 70
     1
102
RTVSPropertyOp11
 70
     1
102
RTVSPropertyOp12
 70
     1
102
RTVSPropertyOp13
 70
     1
102
RTVSPropertyOp14
 70
     1
102
RTVSPropertyOp15
 70
     1
102
RTVSPropertyOp16
 70
     1
102
RTVSPropertyOp17
 70
     1
102
RTVSPropertyOp18
 70
     1
102
RTVSPropertyOp19
 70
     1
102
RTVSPropertyOp20
 70
     1
102
RTVSPropertyOp21
 70
     1
102
RTVSPropertyOp22
 70
     1
102
RTVSPropertyOp23
 70
     1
102
RTVSPropertyOp24
 70
     1
102
RTVSPropertyOp25
 70
     1
102
RTVSPropertyOp26
 70
     1
102
RTVSPropertyOp27
 70
     1
  0
XRECORD
  5
A1
102
{ACAD_REACTORS
330
A0
102
}
330
A0
100
AcDbXrecord
280
     1
102
RTVSPropertyOp0
 70
     1
102
RTVSPropertyOp1
 70
     1
102
RTVSPropertyOp2
 70
     1
102
RTVSPropertyOp3
 70
     1
102
RTVSPropertyOp4
 70
     1
102
RTVSPropertyOp5
 70
     1
102
RTVSPropertyOp6
 70
     1
102
RTVSPropertyOp7
 70
     1
102
RTVSPropertyOp8
 70
     1
102
RTVSPropertyOp9
 70
     1
102
RTVSPropertyOp10
 70
     1
102
RTVSPropertyOp11
 70
     1
102
RTVSPropertyOp12
 70
     1
102
RTVSPropertyOp13
 70
     1
102
RTVSPropertyOp14
 70
     1
102
RTVSPropertyOp15
 70
     1
102
RTVSPropertyOp16
 70
     1
102
RTVSPropertyOp17
 70
     1
102
RTVSPropertyOp18
 70
     1
102
RTVSPropertyOp19
 70
     1
102
RTVSPropertyOp20
 70
     1
102
RTVSPropertyOp21
 70
     1
102
RTVSPropertyOp22
 70
     1
102
RTVSPropertyOp23
 70
     1
102
RTVSPropertyOp24
 70
     1
102
RTVSPropertyOp25
 70
     1
102
RTVSPropertyOp26
 70
     1
102
RTVSPropertyOp27
 70
     1
  0
XRECORD
  5
A9
102
{ACAD_REACTORS
330
A8
102
}
330
A8
100
AcDbXrecord
280
     1
102
RTVSPropertyOp0
 70
     1
102
RTVSPropertyOp1
 70
     1
102
RTVSPropertyOp2
 70
     1
102
RTVSPropertyOp3
 70
     1
102
RTVSPropertyOp4
 70
     1
102
RTVSPropertyOp5
 70
     1
102
RTVSPropertyOp6
 70
     1
102
RTVSPropertyOp7
 70
     1
102
RTVSPropertyOp8
 70
     1
102
RTVSPropertyOp9
 70
     1
102
RTVSPropertyOp10
 70
     1
102
RTVSPropertyOp11
 70
     1
102
RTVSPropertyOp12
 70
     1
102
RTVSPropertyOp13
 70
     1
102
RTVSPropertyOp14
 70
     1
102
RTVSPropertyOp15
 70
     1
102
RTVSPropertyOp16
 70
     1
102
RTVSPropertyOp17
 70
     1
102
RTVSPropertyOp18
 70
     1
102
RTVSPropertyOp19
 70
     1
102
RTVSPropertyOp20
 70
     1
102
RTVSPropertyOp21
 70
     1
102
RTVSPropertyOp22
 70
     1
102
RTVSPropertyOp23
 70
     1
102
RTVSPropertyOp24
 70
     1
102
RTVSPropertyOp25
 70
     1
102
RTVSPropertyOp26
 70
     1
102
RTVSPropertyOp27
 70
     1
  0
XRECORD
  5
B1
102
{ACAD_REACTORS
330
B0
102
}
330
B0
100
AcDbXrecord
280
     1
102
RTVSPropertyOp0
 70
     1
102
RTVSPropertyOp1
 70
     1
102
RTVSPropertyOp2
 70
     1
102
RTVSPropertyOp3
 70
     1
102
RTVSPropertyOp4
 70
     1
102
RTVSPropertyOp5
 70
     1
102
RTVSPropertyOp6
 70
     1
102
RTVSPropertyOp7
 70
     1
102
RTVSPropertyOp8
 70
     1
102
RTVSPropertyOp9
 70
     1
102
RTVSPropertyOp10
 70
     1
102
RTVSPropertyOp11
 70
     1
102
RTVSPropertyOp12
 70
     1
102
RTVSPropertyOp13
 70
     1
102
RTVSPropertyOp14
 70
     1
102
RTVSPropertyOp15
 70
     1
102
RTVSPropertyOp16
 70
     1
102
RTVSPropertyOp17
 70
     1
102
RTVSPropertyOp18
 70
     1
102
RTVSPropertyOp19
 70
     1
102
RTVSPropertyOp20
 70
     1
102
RTVSPropertyOp21
 70
     1
102
RTVSPropertyOp22
 70
     1
102
RTVSPropertyOp23
 70
     1
102
RTVSPropertyOp24
 70
     1
102
RTVSPropertyOp25
 70
     1
102
RTVSPropertyOp26
 70
     1
102
RTVSPropertyOp27
 70
     1
  0
XRECORD
  5
A5
102
{ACAD_REACTORS
330
A4
102
}
330
A4
100
AcDbXrecord
280
     1
102
RTVSPropertyOp0
 70
     1
102
RTVSPropertyOp1
 70
     1
102
RTVSPropertyOp2
 70
     1
102
RTVSPropertyOp3
 70
     1
102
RTVSPropertyOp4
 70
     1
102
RTVSPropertyOp5
 70
     1
102
RTVSPropertyOp6
 70
     1
102
RTVSPropertyOp7
 70
     1
102
RTVSPropertyOp8
 70
     1
102
RTVSPropertyOp9
 70
     1
102
RTVSPropertyOp10
 70
     1
102
RTVSPropertyOp11
 70
     1
102
RTVSPropertyOp12
 70
     1
102
RTVSPropertyOp13
 70
     1
102
RTVSPropertyOp14
 70
     1
102
RTVSPropertyOp15
 70
     1
102
RTVSPropertyOp16
 70
     1
102
RTVSPropertyOp17
 70
     1
102
RTVSPropertyOp18
 70
     1
102
RTVSPropertyOp19
 70
     1
102
RTVSPropertyOp20
 70
     1
102
RTVSPropertyOp21
 70
     1
102
RTVSPropertyOp22
 70
     1
102
RTVSPropertyOp23
 70
     1
102
RTVSPropertyOp24
 70
     1
102
RTVSPropertyOp25
 70
     1
102
RTVSPropertyOp26
 70
     1
102
RTVSPropertyOp27
 70
     1
  0
XRECORD
  5
A7
102
{ACAD_REACTORS
330
A6
102
}
330
A6
100
AcDbXrecord
280
     1
102
RTVSPropertyOp0
 70
     1
102
RTVSPropertyOp1
 70
     1
102
RTVSPropertyOp2
 70
     1
102
RTVSPropertyOp3
 70
     1
102
RTVSPropertyOp4
 70
     1
102
RTVSPropertyOp5
 70
     1
102
RTVSPropertyOp6
 70
     1
102
RTVSPropertyOp7
 70
     1
102
RTVSPropertyOp8
 70
     1
102
RTVSPropertyOp9
 70
     1
102
RTVSPropertyOp10
 70
     1
102
RTVSPropertyOp11
 70
     1
102
RTVSPropertyOp12
 70
     1
102
RTVSPropertyOp13
 70
     1
102
RTVSPropertyOp14
 70
     1
102
RTVSPropertyOp15
 70
     1
102
RTVSPropertyOp16
 70
     1
102
RTVSPropertyOp17
 70
     1
102
RTVSPropertyOp18
 70
     1
102
RTVSPropertyOp19
 70
     1
102
RTVSPropertyOp20
 70
     1
102
RTVSPropertyOp21
 70
     1
102
RTVSPropertyOp22
 70
     1
102
RTVSPropertyOp23
 70
     1
102
RTVSPropertyOp24
 70
     1
102
RTVSPropertyOp25
 70
     1
102
RTVSPropertyOp26
 70
     1
102
RTVSPropertyOp27
 70
     1
  0
XRECORD
  5
AF
102
{ACAD_REACTORS
330
AE
102
}
330
AE
100
AcDbXrecord
280
     1
102
RTVSPropertyOp0
 70
     1
102
RTVSPropertyOp1
 70
     1
102
RTVSPropertyOp2
 70
     1
102
RTVSPropertyOp3
 70
     1
102
RTVSPropertyOp4
 70
     1
102
RTVSPropertyOp5
 70
     1
102
RTVSPropertyOp6
 70
     1
102
RTVSPropertyOp7
 70
     1
102
RTVSPropertyOp8
 70
     1
102
RTVSPropertyOp9
 70
     1
102
RTVSPropertyOp10
 70
     1
102
RTVSPropertyOp11
 70
     1
102
RTVSPropertyOp12
 70
     1
102
RTVSPropertyOp13
 70
     1
102
RTVSPropertyOp14
 70
     1
102
RTVSPropertyOp15
 70
     1
102
RTVSPropertyOp16
 70
     1
102
RTVSPropertyOp17
 70
     1
102
RTVSPropertyOp18
 70
     1
102
RTVSPropertyOp19
 70
     1
102
RTVSPropertyOp20
 70
     1
102
RTVSPropertyOp21
 70
     1
102
RTVSPropertyOp22
 70
     1
102
RTVSPropertyOp23
 70
     1
102
RTVSPropertyOp24
 70
     1
102
RTVSPropertyOp25
 70
     1
102
RTVSPropertyOp26
 70
     1
102
RTVSPropertyOp27
 70
     1
  0
XRECORD
  5
93
102
{ACAD_REACTORS
330
92
102
}
330
92
100
AcDbXrecord
280
     1
102
RTVSPropertyOp0
 70
     1
102
RTVSPropertyOp1
 70
     1
102
RTVSPropertyOp2
 70
     1
102
RTVSPropertyOp3
 70
     1
102
RTVSPropertyOp4
 70
     1
102
RTVSPropertyOp5
 70
     1
102
RTVSPropertyOp6
 70
     1
102
RTVSPropertyOp7
 70
     1
102
RTVSPropertyOp8
 70
     1
102
RTVSPropertyOp9
 70
     1
102
RTVSPropertyOp10
 70
     1
102
RTVSPropertyOp11
 70
     1
102
RTVSPropertyOp12
 70
     1
102
RTVSPropertyOp13
 70
     1
102
RTVSPropertyOp14
 70
     1
102
RTVSPropertyOp15
 70
     1
102
RTVSPropertyOp16
 70
     1
102
RTVSPropertyOp17
 70
     1
102
RTVSPropertyOp18
 70
     1
102
RTVSPropertyOp19
 70
     1
102
RTVSPropertyOp20
 70
     1
102
RTVSPropertyOp21
 70
     1
102
RTVSPropertyOp22
 70
     1
102
RTVSPropertyOp23
 70
     1
102
RTVSPropertyOp24
 70
     1
102
RTVSPropertyOp25
 70
     1
102
RTVSPropertyOp26
 70
     1
102
RTVSPropertyOp27
 70
     1
  0
XRECORD
  5
95
102
{ACAD_REACTORS
330
94
102
}
330
94
100
AcDbXrecord
280
     1
102
RTVSPropertyOp0
 70
     1
102
RTVSPropertyOp1
 70
     1
102
RTVSPropertyOp2
 70
     1
102
RTVSPropertyOp3
 70
     1
102
RTVSPropertyOp4
 70
     1
102
RTVSPropertyOp5
 70
     1
102
RTVSPropertyOp6
 70
     1
102
RTVSPropertyOp7
 70
     1
102
RTVSPropertyOp8
 70
     1
102
RTVSPropertyOp9
 70
     1
102
RTVSPropertyOp10
 70
     1
102
RTVSPropertyOp11
 70
     1
102
RTVSPropertyOp12
 70
     1
102
RTVSPropertyOp13
 70
     1
102
RTVSPropertyOp14
 70
     1
102
RTVSPropertyOp15
 70
     1
102
RTVSPropertyOp16
 70
     1
102
RTVSPropertyOp17
 70
     1
102
RTVSPropertyOp18
 70
     1
102
RTVSPropertyOp19
 70
     1
102
RTVSPropertyOp20
 70
     1
102
RTVSPropertyOp21
 70
     1
102
RTVSPropertyOp22
 70
     1
102
RTVSPropertyOp23
 70
     1
102
RTVSPropertyOp24
 70
     1
102
RTVSPropertyOp25
 70
     1
102
RTVSPropertyOp26
 70
     1
102
RTVSPropertyOp27
 70
     1
  0
XRECORD
  5
97
102
{ACAD_REACTORS
330
96
102
}
330
96
100
AcDbXrecord
280
     1
102
RTVSPropertyOp0
 70
     1
102
RTVSPropertyOp1
 70
     1
102
RTVSPropertyOp2
 70
     1
102
RTVSPropertyOp3
 70
     1
102
RTVSPropertyOp4
 70
     1
102
RTVSPropertyOp5
 70
     1
102
RTVSPropertyOp6
 70
     1
102
RTVSPropertyOp7
 70
     1
102
RTVSPropertyOp8
 70
     1
102
RTVSPropertyOp9
 70
     1
102
RTVSPropertyOp10
 70
     1
102
RTVSPropertyOp11
 70
     1
102
RTVSPropertyOp12
 70
     1
102
RTVSPropertyOp13
 70
     1
102
RTVSPropertyOp14
 70
     1
102
RTVSPropertyOp15
 70
     1
102
RTVSPropertyOp16
 70
     1
102
RTVSPropertyOp17
 70
     1
102
RTVSPropertyOp18
 70
     1
102
RTVSPropertyOp19
 70
     1
102
RTVSPropertyOp20
 70
     1
102
RTVSPropertyOp21
 70
     1
102
RTVSPropertyOp22
 70
     1
102
RTVSPropertyOp23
 70
     1
102
RTVSPropertyOp24
 70
     1
102
RTVSPropertyOp25
 70
     1
102
RTVSPropertyOp26
 70
     1
102
RTVSPropertyOp27
 70
     1
  0
XRECORD
  5
99
102
{ACAD_REACTORS
330
98
102
}
330
98
100
AcDbXrecord
280
     1
102
RTVSPropertyOp0
 70
     1
102
RTVSPropertyOp1
 70
     1
102
RTVSPropertyOp2
 70
     1
102
RTVSPropertyOp3
 70
     1
102
RTVSPropertyOp4
 70
     1
102
RTVSPropertyOp5
 70
     1
102
RTVSPropertyOp6
 70
     1
102
RTVSPropertyOp7
 70
     1
102
RTVSPropertyOp8
 70
     1
102
RTVSPropertyOp9
 70
     1
102
RTVSPropertyOp10
 70
     1
102
RTVSPropertyOp11
 70
     1
102
RTVSPropertyOp12
 70
     1
102
RTVSPropertyOp13
 70
     1
102
RTVSPropertyOp14
 70
     1
102
RTVSPropertyOp15
 70
     1
102
RTVSPropertyOp16
 70
     1
102
RTVSPropertyOp17
 70
     1
102
RTVSPropertyOp18
 70
     1
102
RTVSPropertyOp19
 70
     1
102
RTVSPropertyOp20
 70
     1
102
RTVSPropertyOp21
 70
     1
102
RTVSPropertyOp22
 70
     1
102
RTVSPropertyOp23
 70
     1
102
RTVSPropertyOp24
 70
     1
102
RTVSPropertyOp25
 70
     1
102
RTVSPropertyOp26
 70
     1
102
RTVSPropertyOp27
 70
     1
  0
XRECORD
  5
AD
102
{ACAD_REACTORS
330
AC
102
}
330
AC
100
AcDbXrecord
280
     1
102
RTVSPropertyOp0
 70
     1
102
RTVSPropertyOp1
 70
     1
102
RTVSPropertyOp2
 70
     1
102
RTVSPropertyOp3
 70
     1
102
RTVSPropertyOp4
 70
     1
102
RTVSPropertyOp5
 70
     1
102
RTVSPropertyOp6
 70
     1
102
RTVSPropertyOp7
 70
     1
102
RTVSPropertyOp8
 70
     1
102
RTVSPropertyOp9
 70
     1
102
RTVSPropertyOp10
 70
     1
102
RTVSPropertyOp11
 70
     1
102
RTVSPropertyOp12
 70
     1
102
RTVSPropertyOp13
 70
     1
102
RTVSPropertyOp14
 70
     1
102
RTVSPropertyOp15
 70
     1
102
RTVSPropertyOp16
 70
     1
102
RTVSPropertyOp17
 70
     1
102
RTVSPropertyOp18
 70
     1
102
RTVSPropertyOp19
 70
     1
102
RTVSPropertyOp20
 70
     1
102
RTVSPropertyOp21
 70
     1
102
RTVSPropertyOp22
 70
     1
102
RTVSPropertyOp23
 70
     1
102
RTVSPropertyOp24
 70
     1
102
RTVSPropertyOp25
 70
     1
102
RTVSPropertyOp26
 70
     1
102
RTVSPropertyOp27
 70
     1
  0
XRECORD
  5
A3
102
{ACAD_REACTORS
330
A2
102
}
330
A2
100
AcDbXrecord
280
     1
102
RTVSPropertyOp0
 70
     1
102
RTVSPropertyOp1
 70
     1
102
RTVSPropertyOp2
 70
     1
102
RTVSPropertyOp3
 70
     1
102
RTVSPropertyOp4
 70
     1
102
RTVSPropertyOp5
 70
     1
102
RTVSPropertyOp6
 70
     1
102
RTVSPropertyOp7
 70
     1
102
RTVSPropertyOp8
 70
     1
102
RTVSPropertyOp9
 70
     1
102
RTVSPropertyOp10
 70
     1
102
RTVSPropertyOp11
 70
     1
102
RTVSPropertyOp12
 70
     1
102
RTVSPropertyOp13
 70
     1
102
RTVSPropertyOp14
 70
     1
102
RTVSPropertyOp15
 70
     1
102
RTVSPropertyOp16
 70
     1
102
RTVSPropertyOp17
 70
     1
102
RTVSPropertyOp18
 70
     1
102
RTVSPropertyOp19
 70
     1
102
RTVSPropertyOp20
 70
     1
102
RTVSPropertyOp21
 70
     1
102
RTVSPropertyOp22
 70
     1
102
RTVSPropertyOp23
 70
     1
102
RTVSPropertyOp24
 70
     1
102
RTVSPropertyOp25
 70
     1
102
RTVSPropertyOp26
 70
     1
102
RTVSPropertyOp27
 70
     1
  0
XRECORD
  5
AB
102
{ACAD_REACTORS
330
AA
102
}
330
AA
100
AcDbXrecord
280
     1
102
RTVSPropertyOp0
 70
     1
102
RTVSPropertyOp1
 70
     1
102
RTVSPropertyOp2
 70
     1
102
RTVSPropertyOp3
 70
     1
102
RTVSPropertyOp4
 70
     1
102
RTVSPropertyOp5
 70
     1
102
RTVSPropertyOp6
 70
     1
102
RTVSPropertyOp7
 70
     1
102
RTVSPropertyOp8
 70
     1
102
RTVSPropertyOp9
 70
     1
102
RTVSPropertyOp10
 70
     1
102
RTVSPropertyOp11
 70
     1
102
RTVSPropertyOp12
 70
     1
102
RTVSPropertyOp13
 70
     1
102
RTVSPropertyOp14
 70
     1
102
RTVSPropertyOp15
 70
     1
102
RTVSPropertyOp16
 70
     1
102
RTVSPropertyOp17
 70
     1
102
RTVSPropertyOp18
 70
     1
102
RTVSPropertyOp19
 70
     1
102
RTVSPropertyOp20
 70
     1
102
RTVSPropertyOp21
 70
     1
102
RTVSPropertyOp22
 70
     1
102
RTVSPropertyOp23
 70
     1
102
RTVSPropertyOp24
 70
     1
102
RTVSPropertyOp25
 70
     1
102
RTVSPropertyOp26
 70
     1
102
RTVSPropertyOp27
 70
     1
  0
ENDSEC
  0
EOF
