  0
SECTION
  2
HEADER
  9
$ACADVER
  1
AC1015
  9
$ACADMAINTVER
 70
    20
  9
$DWGCODEPAGE
  3
ANSI_1252
  9
$INSBASE
 10
0.0
 20
0.0
 30
0.0
  9
$EXTMIN
 10
769.8953709032912
 20
-223.7716036909071
 30
0.0
  9
$EXTMAX
 10
1957.138759319757
 20
382.0425195759742
 30
0.0
  9
$LIMMIN
 10
0.0
 20
0.0
  9
$LIMMAX
 10
12.0
 20
9.0
  9
$ORTHOMODE
 70
     0
  9
$REGENMODE
 70
     1
  9
$FILLMODE
 70
     1
  9
$QTEXTMODE
 70
     0
  9
$MIRRTEXT
 70
     1
  9
$LTSCALE
 40
1.0
  9
$ATTMODE
 70
     1
  9
$TEXTSIZE
 40
0.2
  9
$TRACEWID
 40
0.05
  9
$TEXTSTYLE
  7
STANDARD
  9
$CLAYER
  8
0
  9
$CELTYPE
  6
ByLayer
  9
$CECOLOR
 62
   256
  9
$CELTSCALE
 40
1.0
  9
$DISPSILH
 70
     0
  9
$DIMSCALE
 40
1.0
  9
$DIMASZ
 40
0.18
  9
$DIMEXO
 40
0.0625
  9
$DIMDLI
 40
0.38
  9
$DIMRND
 40
0.0
  9
$DIMDLE
 40
0.0
  9
$DIMEXE
 40
0.18
  9
$DIMTP
 40
0.0
  9
$DIMTM
 40
0.0
  9
$DIMTXT
 40
0.18
  9
$DIMCEN
 40
0.09
  9
$DIMTSZ
 40
0.0
  9
$DIMTOL
 70
     0
  9
$DIMLIM
 70
     0
  9
$DIMTIH
 70
     1
  9
$DIMTOH
 70
     1
  9
$DIMSE1
 70
     0
  9
$DIMSE2
 70
     0
  9
$DIMTAD
 70
     0
  9
$DIMZIN
 70
     0
  9
$DIMBLK
  1

  9
$DIMASO
 70
     1
  9
$DIMSHO
 70
     1
  9
$DIMPOST
  1

  9
$DIMAPOST
  1

  9
$DIMALT
 70
     0
  9
$DIMALTD
 70
     2
  9
$DIMALTF
 40
25.4
  9
$DIMLFAC
 40
1.0
  9
$DIMTOFL
 70
     0
  9
$DIMTVP
 40
0.0
  9
$DIMTIX
 70
     0
  9
$DIMSOXD
 70
     0
  9
$DIMSAH
 70
     0
  9
$DIMBLK1
  1

  9
$DIMBLK2
  1

  9
$DIMSTYLE
  2
STANDARD
  9
$DIMCLRD
 70
     0
  9
$DIMCLRE
 70
     0
  9
$DIMCLRT
 70
     0
  9
$DIMTFAC
 40
1.0
  9
$DIMGAP
 40
0.09
  9
$DIMJUST
 70
     0
  9
$DIMSD1
 70
     0
  9
$DIMSD2
 70
     0
  9
$DIMTOLJ
 70
     1
  9
$DIMTZIN
 70
     0
  9
$DIMALTZ
 70
     0
  9
$DIMALTTZ
 70
     0
  9
$DIMUPT
 70
     0
  9
$DIMDEC
 70
     4
  9
$DIMTDEC
 70
     4
  9
$DIMALTU
 70
     2
  9
$DIMALTTD
 70
     2
  9
$DIMTXSTY
  7
STANDARD
  9
$DIMAUNIT
 70
     0
  9
$DIMADEC
 70
     0
  9
$DIMALTRND
 40
0.0
  9
$DIMAZIN
 70
     0
  9
$DIMDSEP
 70
    46
  9
$DIMATFIT
 70
     3
  9
$DIMFRAC
 70
     0
  9
$DIMLDRBLK
  1

  9
$DIMLUNIT
 70
     2
  9
$DIMLWD
 70
    -2
  9
$DIMLWE
 70
    -2
  9
$DIMTMOVE
 70
     0
  9
$LUNITS
 70
     2
  9
$LUPREC
 70
     4
  9
$SKETCHINC
 40
0.1
  9
$FILLETRAD
 40
0.5
  9
$AUNITS
 70
     0
  9
$AUPREC
 70
     0
  9
$MENU
  1
.
  9
$ELEVATION
 40
0.0
  9
$PELEVATION
 40
0.0
  9
$THICKNESS
 40
0.0
  9
$LIMCHECK
 70
     0
  9
$CHAMFERA
 40
0.0
  9
$CHAMFERB
 40
0.0
  9
$CHAMFERC
 40
0.0
  9
$CHAMFERD
 40
0.0
  9
$SKPOLY
 70
     0
  9
$TDCREATE
 40
2454910.500000000
  9
$TDUCREATE
 40
2454910.666666667
  9
$TDUPDATE
 40
2456493.540295058
  9
$TDUUPDATE
 40
2456493.706961725
  9
$TDINDWG
 40
0.0025760069
  9
$TDUSRTIMER
 40
0.0025760069
  9
$USRTIMER
 70
     1
  9
$ANGBASE
 50
0.0
  9
$ANGDIR
 70
     0
  9
$PDMODE
 70
     0
  9
$PDSIZE
 40
0.0
  9
$PLINEWID
 40
0.0
  9
$SPLFRAME
 70
     0
  9
$SPLINETYPE
 70
     6
  9
$SPLINESEGS
 70
     8
  9
$HANDSEED
  5
1009
  9
$SURFTAB1
 70
     6
  9
$SURFTAB2
 70
     6
  9
$SURFTYPE
 70
     6
  9
$SURFU
 70
     6
  9
$SURFV
 70
     6
  9
$UCSBASE
  2

  9
$UCSNAME
  2

  9
$UCSORG
 10
0.0
 20
0.0
 30
0.0
  9
$UCSXDIR
 10
1.0
 20
0.0
 30
0.0
  9
$UCSYDIR
 10
0.0
 20
1.0
 30
0.0
  9
$UCSORTHOREF
  2

  9
$UCSORTHOVIEW
 70
     0
  9
$UCSORGTOP
 10
0.0
 20
0.0
 30
0.0
  9
$UCSORGBOTTOM
 10
0.0
 20
0.0
 30
0.0
  9
$UCSORGLEFT
 10
0.0
 20
0.0
 30
0.0
  9
$UCSORGRIGHT
 10
0.0
 20
0.0
 30
0.0
  9
$UCSORGFRONT
 10
0.0
 20
0.0
 30
0.0
  9
$UCSORGBACK
 10
0.0
 20
0.0
 30
0.0
  9
$PUCSBASE
  2

  9
$PUCSNAME
  2

  9
$PUCSORG
 10
0.0
 20
0.0
 30
0.0
  9
$PUCSXDIR
 10
1.0
 20
0.0
 30
0.0
  9
$PUCSYDIR
 10
0.0
 20
1.0
 30
0.0
  9
$PUCSORTHOREF
  2

  9
$PUCSORTHOVIEW
 70
     0
  9
$PUCSORGTOP
 10
0.0
 20
0.0
 30
0.0
  9
$PUCSORGBOTTOM
 10
0.0
 20
0.0
 30
0.0
  9
$PUCSORGLEFT
 10
0.0
 20
0.0
 30
0.0
  9
$PUCSORGRIGHT
 10
0.0
 20
0.0
 30
0.0
  9
$PUCSORGFRONT
 10
0.0
 20
0.0
 30
0.0
  9
$PUCSORGBACK
 10
0.0
 20
0.0
 30
0.0
  9
$USERI1
 70
     0
  9
$USERI2
 70
     0
  9
$USERI3
 70
     0
  9
$USERI4
 70
     0
  9
$USERI5
 70
     0
  9
$USERR1
 40
0.0
  9
$USERR2
 40
0.0
  9
$USERR3
 40
0.0
  9
$USERR4
 40
0.0
  9
$USERR5
 40
0.0
  9
$WORLDVIEW
 70
     1
  9
$SHADEDGE
 70
     3
  9
$SHADEDIF
 70
    70
  9
$TILEMODE
 70
     1
  9
$MAXACTVP
 70
    64
  9
$PINSBASE
 10
0.0
 20
0.0
 30
0.0
  9
$PLIMCHECK
 70
     0
  9
$PEXTMIN
 10
1.000000000000000E+20
 20
1.000000000000000E+20
 30
1.000000000000000E+20
  9
$PEXTMAX
 10
-1.000000000000000E+20
 20
-1.000000000000000E+20
 30
-1.000000000000000E+20
  9
$PLIMMIN
 10
0.0
 20
0.0
  9
$PLIMMAX
 10
12.0
 20
9.0
  9
$UNITMODE
 70
     0
  9
$VISRETAIN
 70
     1
  9
$PLINEGEN
 70
     0
  9
$PSLTSCALE
 70
     1
  9
$TREEDEPTH
 70
  3020
  9
$CMLSTYLE
  2
Standard
  9
$CMLJUST
 70
     0
  9
$CMLSCALE
 40
1.0
  9
$PROXYGRAPHICS
 70
     1
  9
$MEASUREMENT
 70
     0
  9
$CELWEIGHT
370
    -1
  9
$ENDCAPS
280
     0
  9
$JOINSTYLE
280
     0
  9
$LWDISPLAY
290
     0
  9
$INSUNITS
 70
     0
  9
$HYPERLINKBASE
  1

  9
$STYLESHEET
  1

  9
$XEDIT
290
     1
  9
$CEPSNTYPE
380
     0
  9
$PSTYLEMODE
290
     1
  9
$FINGERPRINTGUID
  2
{3A96377E-39E1-4AB0-A99D-7283364905A9}
  9
$VERSIONGUID
  2
{BFD7861E-8928-4B24-9E58-17739CD8BCFC}
  9
$EXTNAMES
290
     1
  9
$PSVPSCALE
 40
0.0
  9
$OLESTARTUP
290
     0
  0
ENDSEC
  0
SECTION
  2
CLASSES
  0
CLASS
  1
ACDBDICTIONARYWDFLT
  2
AcDbDictionaryWithDefault
  3
ObjectDBX Classes
 90
        0
280
     0
281
     0
  0
CLASS
  1
MATERIAL
  2
AcDbMaterial
  3
ObjectDBX Classes
 90
     1153
280
     0
281
     0
  0
CLASS
  1
VISUALSTYLE
  2
AcDbVisualStyle
  3
ObjectDBX Classes
 90
     4095
280
     0
281
     0
  0
CLASS
  1
SCALE
  2
AcDbScale
  3
ObjectDBX Classes
 90
     1153
280
     0
281
     0
  0
CLASS
  1
TABLESTYLE
  2
AcDbTableStyle
  3
ObjectDBX Classes
 90
     4095
280
     0
281
     0
  0
CLASS
  1
MLEADERSTYLE
  2
AcDbMLeaderStyle
  3
ACDB_MLEADERSTYLE_CLASS
 90
     4095
280
     0
281
     0
  0
CLASS
  1
ACDBSECTIONVIEWSTYLE
  2
AcDbSectionViewStyle
  3
ObjectDBX Classes
 90
     1025
280
     0
281
     0
  0
CLASS
  1
ACDBDETAILVIEWSTYLE
  2
AcDbDetailViewStyle
  3
ObjectDBX Classes
 90
     1025
280
     0
281
     0
  0
CLASS
  1
EXACXREFPANELOBJECT
  2
ExAcXREFPanelObject
  3
EXAC_ESW
 90
     1025
280
     0
281
     0
  0
CLASS
  1
NPOCOLLECTION
  2
AcDbImpNonPersistentObjectsCollection
  3
ObjectDBX Classes
 90
     1153
280
     0
281
     0
  0
CLASS
  1
SOLID_BACKGROUND
  2
AcDbSolidBackground
  3
SCENEOE
 90
     4095
280
     0
281
     0
  0
CLASS
  1
DICTIONARYVAR
  2
AcDbDictionaryVar
  3
ObjectDBX Classes
 90
        0
280
     0
281
     0
  0
CLASS
  1
CELLSTYLEMAP
  2
AcDbCellStyleMap
  3
ObjectDBX Classes
 90
     1152
280
     0
281
     0
  0
CLASS
  1
ACDBPLACEHOLDER
  2
AcDbPlaceHolder
  3
ObjectDBX Classes
 90
        0
280
     0
281
     0
  0
CLASS
  1
LAYOUT
  2
AcDbLayout
  3
ObjectDBX Classes
 90
        0
280
     0
281
     0
  0
ENDSEC
  0
SECTION
  2
TABLES
  0
TABLE
  2
VPORT
  5
EB3
330
0
100
AcDbSymbolTable
 70
     1
  0
VPORT
  5
F1F
330
EB3
100
AcDbSymbolTableRecord
100
AcDbViewportTableRecord
  2
*ACTIVE
 70
     0
 10
0.0
 20
0.0
 11
1.0
 21
1.0
 12
-22.69800484663923
 22
-4.057849252562022
 13
0.0
 23
0.0
 14
0.5
 24
0.5
 15
0.5
 25
0.5
 16
0.0
 26
0.0
 36
173.1728799026524
 17
800.3796081542969
 27
102.0463905334472
 37
0.0
 40
14.13946598280489
 41
2.384155455904334
 42
50.0
 43
0.0
 44
0.0
 50
0.0
 51
0.0
 71
     0
 72
   100
 73
     1
 74
     3
 75
     0
 76
     0
 77
     0
 78
     0
281
     0
 65
     1
110
0.0
120
0.0
130
0.0
111
1.0
121
0.0
131
0.0
112
0.0
122
1.0
132
0.0
 79
     0
146
0.0
1001
ACAD_NAV_VCDISPLAY
1070
     3
  0
ENDTAB
  0
TABLE
  2
LTYPE
  5
EB0
330
0
100
AcDbSymbolTable
 70
     4
  0
LTYPE
  5
F05
330
EB0
100
AcDbSymbolTableRecord
100
AcDbLinetypeTableRecord
  2
ByBlock
 70
     0
  3

 72
    65
 73
     0
 40
0.0
  0
LTYPE
  5
F06
330
EB0
100
AcDbSymbolTableRecord
100
AcDbLinetypeTableRecord
  2
ByLayer
 70
     0
  3

 72
    65
 73
     0
 40
0.0
  0
LTYPE
  5
F07
330
EB0
100
AcDbSymbolTableRecord
100
AcDbLinetypeTableRecord
  2
CONTINUOUS
 70
     0
  3
Solid line
 72
    65
 73
     0
 40
0.0
  0
LTYPE
  5
F13
330
EB0
100
AcDbSymbolTableRecord
100
AcDbLinetypeTableRecord
  2
PHANTOM2
 70
     0
  3
Phantom (.5x) ___ _ _ ___ _ _ ___ _ _ ___ _ _
 72
    65
 73
     6
 40
1.25
 49
0.625
 74
     0
 49
-0.125
 74
     0
 49
0.125
 74
     0
 49
-0.125
 74
     0
 49
0.125
 74
     0
 49
-0.125
 74
     0
  0
LTYPE
  5
F20
330
EB0
100
AcDbSymbolTableRecord
100
AcDbLinetypeTableRecord
  2
CONTINUOUS2
 70
     0
  3
Solid Line
 72
    65
 73
     0
 40
0.0
  0
ENDTAB
  0
TABLE
  2
LAYER
  5
EAD
330
0
100
AcDbSymbolTable
 70
     7
  0
LAYER
  5
EFF
102
{ACAD_XDICTIONARY
360
F32
102
}
330
EAD
100
AcDbSymbolTableRecord
100
AcDbLayerTableRecord
  2
0
 70
     0
 62
     7
  6
CONTINUOUS
370
    -3
390
EBA
  0
LAYER
  5
F21
102
{ACAD_XDICTIONARY
360
F34
102
}
330
EAD
100
AcDbSymbolTableRecord
100
AcDbLayerTableRecord
  2
ENGRAVING
 70
     0
 62
     1
  6
CONTINUOUS
370
    -3
390
EBA
  0
LAYER
  5
F22
102
{ACAD_XDICTIONARY
360
F36
102
}
330
EAD
100
AcDbSymbolTableRecord
100
AcDbLayerTableRecord
  2
STEP1
 70
     0
 62
    18
  6
CONTINUOUS
370
    -3
390
EBA
  0
LAYER
  5
F23
102
{ACAD_XDICTIONARY
360
F38
102
}
330
EAD
100
AcDbSymbolTableRecord
100
AcDbLayerTableRecord
  2
STEP3
 70
     0
 62
    18
  6
CONTINUOUS
370
    -3
390
EBA
  0
LAYER
  5
F24
102
{ACAD_XDICTIONARY
360
F3A
102
}
330
EAD
100
AcDbSymbolTableRecord
100
AcDbLayerTableRecord
  2
STEP2
 70
     0
 62
    18
  6
CONTINUOUS
370
    -3
390
EBA
  0
LAYER
  5
F25
102
{ACAD_XDICTIONARY
360
F3C
102
}
330
EAD
100
AcDbSymbolTableRecord
100
AcDbLayerTableRecord
  2
STEP4
 70
     0
 62
    18
  6
CONTINUOUS
370
    -3
390
EBA
  0
LAYER
  5
F26
102
{ACAD_XDICTIONARY
360
F3E
102
}
330
EAD
100
AcDbSymbolTableRecord
100
AcDbLayerTableRecord
  2
STEP5
 70
     0
 62
    18
  6
CONTINUOUS
370
    -3
390
EBA
  0
ENDTAB
  0
TABLE
  2
STYLE
  5
EAE
330
0
100
AcDbSymbolTable
 70
     2
  0
STYLE
  5
F00
330
EAE
100
AcDbSymbolTableRecord
100
AcDbTextStyleTableRecord
  2
STANDARD
 70
     0
 40
0.0
 41
1.0
 50
0.0
 71
     0
 42
0.2
  3
txt
  4

  0
STYLE
  5
F04
330
EAE
100
AcDbSymbolTableRecord
100
AcDbTextStyleTableRecord
  2
Annotative
 70
     0
 40
0.0
 41
1.0
 50
0.0
 71
     0
 42
0.2
  3
txt
  4

1001
AcadAnnotative
1000
AnnotativeData
1002
{
1070
     1
1070
     1
1002
}
  0
ENDTAB
  0
TABLE
  2
VIEW
  5
EB1
330
0
100
AcDbSymbolTable
 70
     0
  0
ENDTAB
  0
TABLE
  2
UCS
  5
EB2
330
0
100
AcDbSymbolTable
 70
     0
  0
ENDTAB
  0
TABLE
  2
APPID
  5
EB4
330
0
100
AcDbSymbolTable
 70
     5
  0
APPID
  5
F01
330
EB4
100
AcDbSymbolTableRecord
100
AcDbRegAppTableRecord
  2
ACAD
 70
     0
  0
APPID
  5
F08
330
EB4
100
AcDbSymbolTableRecord
100
AcDbRegAppTableRecord
  2
AcadAnnotative
 70
     0
  0
APPID
  5
F4A
330
EB4
100
AcDbSymbolTableRecord
100
AcDbRegAppTableRecord
  2
ACAD_NAV_VCDISPLAY
 70
     0
  0
APPID
  5
FC5
330
EB4
100
AcDbSymbolTableRecord
100
AcDbRegAppTableRecord
  2
ACAD_EXEMPT_FROM_CAD_STANDARDS
 70
     0
  0
APPID
  5
1004
330
EB4
100
AcDbSymbolTableRecord
100
AcDbRegAppTableRecord
  2
ACAD_MLEADERVER
 70
     0
  0
ENDTAB
  0
TABLE
  2
DIMSTYLE
  5
EB5
330
0
100
AcDbSymbolTable
 70
     3
100
AcDbDimStyleTable
 71
     1
340
F02
  0
DIMSTYLE
105
F02
330
EB5
100
AcDbSymbolTableRecord
100
AcDbDimStyleTableRecord
  2
STANDARD
 70
     0
279
     2
340
F00
  0
DIMSTYLE
105
F03
330
EB5
100
AcDbSymbolTableRecord
100
AcDbDimStyleTableRecord
  2
Annotative
 70
     0
340
F00
1001
AcadAnnotative
1000
AnnotativeData
1002
{
1070
     1
1070
     1
1002
}
  0
ENDTAB
  0
TABLE
  2
BLOCK_RECORD
  5
EAC
330
0
100
AcDbSymbolTable
 70
     3
  0
BLOCK_RECORD
  5
F1B
330
EAC
100
AcDbSymbolTableRecord
100
AcDbBlockTableRecord
  2
*Model_Space
340
F1E
  0
BLOCK_RECORD
  5
F17
330
EAC
100
AcDbSymbolTableRecord
100
AcDbBlockTableRecord
  2
*Paper_Space
340
F1A
  0
BLOCK_RECORD
  5
F28
330
EAC
100
AcDbSymbolTableRecord
100
AcDbBlockTableRecord
  2
$MODEL_SPACE
340
0
  0
BLOCK_RECORD
  5
F2A
330
EAC
100
AcDbSymbolTableRecord
100
AcDbBlockTableRecord
  2
$PAPER_SPACE
340
0
  0
ENDTAB
  0
ENDSEC
  0
SECTION
  2
BLOCKS
  0
BLOCK
  5
F1C
330
F1B
100
AcDbEntity
  8
0
100
AcDbBlockBegin
  2
*Model_Space
 70
     0
 10
0.0
 20
0.0
 30
0.0
  3
*Model_Space
  1

  0
ENDBLK
  5
F1D
330
F1B
100
AcDbEntity
  8
0
100
AcDbBlockEnd
  0
BLOCK
  5
F18
330
F17
100
AcDbEntity
 67
     1
  8
0
100
AcDbBlockBegin
  2
*Paper_Space
 70
     0
 10
0.0
 20
0.0
 30
0.0
  3
*Paper_Space
  1

  0
ENDBLK
  5
F19
330
F17
100
AcDbEntity
 67
     1
  8
0
100
AcDbBlockEnd
  0
BLOCK
  5
F29
330
F28
100
AcDbEntity
  8
0
100
AcDbBlockBegin
  2
$MODEL_SPACE
 70
     0
 10
0.0
 20
0.0
 30
0.0
  3
$MODEL_SPACE
  1

  0
ENDBLK
  5
21
330
F28
100
AcDbEntity
  8
0
100
AcDbBlockEnd
  0
BLOCK
  5
F2B
330
F2A
100
AcDbEntity
  8
0
100
AcDbBlockBegin
  2
$PAPER_SPACE
 70
     0
 10
0.0
 20
0.0
 30
0.0
  3
$PAPER_SPACE
  1

  0
ENDBLK
  5
1D
330
F2A
100
AcDbEntity
  8
0
100
AcDbBlockEnd
  0
ENDSEC
  0
SECTION
  2
ENTITIES
  0
LWPOLYLINE
  5
6C
330
F1B
100
AcDbEntity
  8
ENGRAVING
100
AcDbPolyline
 90
       24
 70
     1
 43
0.0
 10
1286.795370904233
 20
188.2425195756217
 10
1289.195370904239
 20
188.2425195756217
 10
1289.195370904239
 20
193.0425195756323
 10
1279.59537090422
 20
193.0425195756323
 10
1279.59537090422
 20
188.2425195756217
 10
1281.995370904226
 20
188.2425195756217
 10
1281.995370904226
 20
104.8425195754677
 10
1238.795370904146
 20
104.8425195754677
 10
1238.795370904146
 20
188.2425195756142
 10
1241.195370904154
 20
188.2425195756142
 10
1241.195370904154
 20
193.0425195756252
 10
1231.595370904136
 20
193.0425195756252
 10
1231.595370904136
 20
188.2425195756142
 10
1233.995370904145
 20
188.2425195756142
 10
1233.995370904145
 20
104.8425195754677
 10
1189.895370904055
 20
104.8425195754677
 10
1189.895370904055
 20
100.0425195754611
 10
1335.395370904328
 20
100.0425195754611
 10
1335.395370904331
 20
193.0425195756323
 10
1328.195370904318
 20
193.0425195756323
 10
1328.195370904318
 20
188.2425195756217
 10
1330.595370904321
 20
188.2425195756217
 10
1330.595370904316
 20
104.8425195754677
 10
1286.795370904233
 20
104.8425195754677
  0
LWPOLYLINE
  5
6D
330
F1B
100
AcDbEntity
  8
ENGRAVING
100
AcDbPolyline
 90
        4
 70
     1
 43
0.0
 10
1894.18110769902
 20
-46.239984774008
 42
0.4142135623730951
 10
1853.981107698948
 20
-86.43998477407752
 42
0.4142135623730951
 10
1894.18110769902
 20
-126.6399847741477
 42
0.4142135623730951
 10
1934.381107699088
 20
-86.43998477407752
 42
0.4142135623730951
  0
LWPOLYLINE
  5
6E
330
F1B
100
AcDbEntity
  8
ENGRAVING
100
AcDbPolyline
 90
        4
 70
     1
 43
0.0
 10
1786.181107698813
 20
-46.239984774008
 42
0.4142135623730951
 10
1745.981107698746
 20
-86.43998477407752
 42
0.4142135623730951
 10
1786.181107698813
 20
-126.6399847741477
 42
0.4142135623730951
 10
1826.381107698886
 20
-86.43998477407752
 42
0.4142135623730951
  0
LWPOLYLINE
  5
6F
330
F1B
100
AcDbEntity
  8
ENGRAVING
100
AcDbPolyline
 90
        4
 70
     1
 43
0.0
 10
1678.181107698617
 20
-46.239984774008
 42
0.4142135623730951
 10
1637.981107698549
 20
-86.43998477407752
 42
0.4142135623730951
 10
1678.181107698617
 20
-126.6399847741477
 42
0.4142135623730951
 10
1718.381107698689
 20
-86.43998477407752
 42
0.4142135623730951
  0
LWPOLYLINE
  5
70
330
F1B
100
AcDbEntity
  8
ENGRAVING
100
AcDbPolyline
 90
        4
 70
     1
 43
0.0
 10
1894.18110769902
 20
63.92622966735814
 42
0.4142135623730951
 10
1853.981107698948
 20
23.72622966728693
 42
0.4142135623730951
 10
1894.18110769902
 20
-16.47377033278258
 42
0.4142135623730951
 10
1934.381107699088
 20
23.72622966728693
 42
0.4142135623730951
  0
LWPOLYLINE
  5
71
330
F1B
100
AcDbEntity
  8
ENGRAVING
100
AcDbPolyline
 90
        4
 70
     1
 43
0.0
 10
1786.181107698813
 20
63.92622966735814
 42
0.4142135623730951
 10
1745.981107698746
 20
23.72622966728693
 42
0.4142135623730951
 10
1786.181107698813
 20
-16.47377033278258
 42
0.4142135623730951
 10
1826.381107698886
 20
23.72622966728693
 42
0.4142135623730951
  0
LWPOLYLINE
  5
72
330
F1B
100
AcDbEntity
  8
ENGRAVING
100
AcDbPolyline
 90
        4
 70
     1
 43
0.0
 10
1678.181107698617
 20
63.92622966735814
 42
0.4142135623730951
 10
1637.981107698549
 20
23.72622966728693
 42
0.4142135623730951
 10
1678.181107698617
 20
-16.47377033278258
 42
0.4142135623730951
 10
1718.381107698689
 20
23.72622966728693
 42
0.4142135623730951
  0
LWPOLYLINE
  5
73
330
F1B
100
AcDbEntity
  8
ENGRAVING
100
AcDbPolyline
 90
        4
 70
     1
 43
0.0
 10
1532.235197177181
 20
-56.43745895062841
 42
0.4142135623730951
 10
1464.889930353181
 20
-123.7827257746273
 42
0.4142135623730951
 10
1532.235197177181
 20
-191.1279925986266
 42
0.4142135623730951
 10
1599.580464001179
 20
-123.7827257746273
 42
0.4142135623730951
  0
LWPOLYLINE
  5
74
330
F1B
100
AcDbEntity
  8
ENGRAVING
100
AcDbPolyline
 90
        4
 70
     1
 43
0.0
 10
1532.235197177181
 20
-62.43745895063932
 42
0.4142135623730951
 10
1470.889930353191
 20
-123.7827257746273
 42
0.4142135623730951
 10
1532.235197177181
 20
-185.1279925986157
 42
0.4142135623730951
 10
1593.580464001168
 20
-123.7827257746273
 42
0.4142135623730951
  0
LWPOLYLINE
  5
75
330
F1B
100
AcDbEntity
  8
ENGRAVING
100
AcDbPolyline
 90
       12
 70
     1
 43
0.0
 10
1497.735197177113
 20
-83.28272577438928
 10
1497.735197177113
 20
-164.8827257745408
 10
1503.735197177124
 20
-164.8827257745408
 10
1503.735197177124
 20
-126.7827257746324
 10
1560.735197177228
 20
-126.7827257746324
 10
1560.735197177228
 20
-164.8827257745408
 10
1566.735197177238
 20
-164.8827257745408
 10
1566.735197177238
 20
-83.28272577438928
 10
1560.735197177228
 20
-83.28272577438928
 10
1560.735197177228
 20
-120.7827257746215
 10
1503.735197177124
 20
-120.7827257746191
 10
1503.735197177124
 20
-83.28272577438928
  0
LWPOLYLINE
  5
76
330
F1B
100
AcDbEntity
  8
ENGRAVING
100
AcDbPolyline
 90
        4
 70
     1
 43
0.0
 10
1430.79065584458
 20
-10.00579958154674
 10
1406.790655844542
 20
-10.00579958154674
 10
1406.790655844542
 20
-14.80579958155465
 10
1430.79065584458
 20
-14.80579958155465
  0
LWPOLYLINE
  5
77
330
F1B
100
AcDbEntity
  8
ENGRAVING
100
AcDbPolyline
 90
        4
 70
     1
 43
0.0
 10
1472.790655844656
 20
-10.00579958154674
 10
1448.790655844618
 20
-10.00579958154674
 10
1448.790655844618
 20
-14.80579958155465
 10
1472.790655844656
 20
-14.80579958155465
  0
LWPOLYLINE
  5
78
330
F1B
100
AcDbEntity
  8
ENGRAVING
100
AcDbPolyline
 90
        4
 70
     1
 43
0.0
 10
1514.790655844733
 20
-10.00579958154674
 10
1490.790655844695
 20
-10.00579958154674
 10
1490.790655844695
 20
-14.80579958155465
 10
1514.790655844733
 20
-14.80579958155465
  0
LWPOLYLINE
  5
79
330
F1B
100
AcDbEntity
  8
ENGRAVING
100
AcDbPolyline
 90
        4
 70
     1
 43
0.0
 10
1556.790655844815
 20
-10.00579958154674
 10
1532.790655844771
 20
-10.00579958154674
 10
1532.790655844771
 20
-14.80579958155465
 10
1556.790655844815
 20
-14.80579958155465
  0
LWPOLYLINE
  5
7A
330
F1B
100
AcDbEntity
  8
ENGRAVING
100
AcDbPolyline
 90
        4
 70
     1
 43
0.0
 10
1430.79065584458
 20
54.01986530770591
 10
1406.790655844542
 20
54.01986530770591
 10
1406.790655844542
 20
49.21986530769936
 10
1430.79065584458
 20
49.21986530769936
  0
LWPOLYLINE
  5
7B
330
F1B
100
AcDbEntity
  8
ENGRAVING
100
AcDbPolyline
 90
        4
 70
     1
 43
0.0
 10
1472.790655844656
 20
54.01986530770591
 10
1448.790655844618
 20
54.01986530770591
 10
1448.790655844618
 20
49.21986530769936
 10
1472.790655844656
 20
49.21986530769936
  0
LWPOLYLINE
  5
7C
330
F1B
100
AcDbEntity
  8
ENGRAVING
100
AcDbPolyline
 90
        4
 70
     1
 43
0.0
 10
1514.790655844733
 20
54.01986530770591
 10
1490.790655844695
 20
54.01986530770591
 10
1490.790655844695
 20
49.21986530769936
 10
1514.790655844733
 20
49.21986530769936
  0
LWPOLYLINE
  5
7D
330
F1B
100
AcDbEntity
  8
ENGRAVING
100
AcDbPolyline
 90
        4
 70
     1
 43
0.0
 10
1556.790655844815
 20
54.01986530770591
 10
1532.790655844771
 20
54.01986530770591
 10
1532.790655844771
 20
49.21986530769936
 10
1556.790655844815
 20
49.21986530769936
  0
LWPOLYLINE
  5
7E
330
F1B
100
AcDbEntity
  8
ENGRAVING
100
AcDbPolyline
 90
       32
 70
     1
 43
0.0
 10
1286.795370904233
 20
287.842519575817
 10
1289.195370904239
 20
287.842519575817
 10
1289.195370904239
 20
283.0425195758061
 10
1279.59537090422
 20
283.0425195758061
 10
1279.59537090422
 20
287.842519575817
 10
1281.995370904226
 20
287.842519575817
 10
1281.995370904226
 20
371.2425195759711
 10
1238.795370904146
 20
371.2425195759711
 10
1238.795370904146
 20
287.8425195758246
 10
1241.195370904154
 20
287.8425195758246
 10
1241.195370904154
 20
283.0425195758129
 10
1231.595370904136
 20
283.0425195758129
 10
1231.595370904136
 20
287.8425195758246
 10
1233.995370904145
 20
287.8425195758246
 10
1233.995370904145
 20
371.2425195759711
 10
1190.795370904058
 20
371.2425195759711
 10
1190.795370904058
 20
287.8425195758075
 10
1193.195370904064
 20
287.8425195758075
 10
1193.195370904064
 20
283.0425195757986
 10
1183.595370904046
 20
283.0425195757986
 10
1183.595370904046
 20
287.8425195758075
 10
1185.995370904052
 20
287.8425195758075
 10
1185.995370904052
 20
371.2425195759687
 10
1140.695370903971
 20
371.2425195759711
 10
1140.695370903971
 20
376.0425195759773
 10
1335.395370904328
 20
376.0425195759773
 10
1335.395370904331
 20
283.0425195758061
 10
1328.195370904318
 20
283.0425195758061
 10
1328.195370904318
 20
287.842519575817
 10
1330.595370904321
 20
287.842519575817
 10
1330.595370904316
 20
371.2425195759711
 10
1286.795370904233
 20
371.2425195759711
  0
LWPOLYLINE
  5
7F
330
F1B
100
AcDbEntity
  8
ENGRAVING
100
AcDbPolyline
 90
       24
 70
     1
 43
0.0
 10
938.7953709036001
 20
188.2425195756241
 10
941.195370903606
 20
188.2425195756241
 10
941.195370903606
 20
193.0425195756323
 10
931.5953709035875
 20
193.0425195756323
 10
931.5953709035875
 20
188.2425195756241
 10
933.9953709035935
 20
188.2425195756241
 10
933.9953709035935
 20
104.8425195754697
 10
890.7953709035181
 20
104.8425195754697
 10
890.7953709035181
 20
188.2425195756142
 10
893.1953709035214
 20
188.2425195756142
 10
893.1953709035214
 20
193.0425195756252
 10
883.5953709035029
 20
193.0425195756252
 10
883.5953709035029
 20
188.2425195756142
 10
885.9953709035062
 20
188.2425195756142
 10
885.9953709035062
 20
104.8425195754697
 10
841.8953709034221
 20
104.8425195754697
 10
841.8953709034221
 20
100.0425195754611
 10
987.3953709036923
 20
100.0425195754611
 10
987.3953709036978
 20
193.0425195756323
 10
980.1953709036851
 20
193.0425195756323
 10
980.1953709036851
 20
188.2425195756241
 10
982.5953709036884
 20
188.2425195756241
 10
982.5953709036831
 20
104.8425195754697
 10
938.7953709036001
 20
104.8425195754697
  0
LWPOLYLINE
  5
80
330
F1B
100
AcDbEntity
  8
ENGRAVING
100
AcDbPolyline
 90
       32
 70
     1
 43
0.0
 10
938.7953709036001
 20
287.842519575817
 10
941.195370903606
 20
287.842519575817
 10
941.195370903606
 20
283.0425195758081
 10
931.5953709035875
 20
283.0425195758081
 10
931.5953709035875
 20
287.842519575817
 10
933.9953709035935
 20
287.842519575817
 10
933.9953709035935
 20
371.2425195759711
 10
890.7953709035181
 20
371.2425195759711
 10
890.7953709035181
 20
287.8425195758246
 10
893.1953709035214
 20
287.8425195758246
 10
893.1953709035214
 20
283.0425195758156
 10
883.5953709035029
 20
283.0425195758156
 10
883.5953709035029
 20
287.8425195758246
 10
885.9953709035062
 20
287.8425195758246
 10
885.9953709035062
 20
371.2425195759711
 10
842.7953709034254
 20
371.2425195759711
 10
842.7953709034254
 20
287.8425195758099
 10
845.1953709034315
 20
287.8425195758099
 10
845.1953709034315
 20
283.0425195757986
 10
835.5953709034128
 20
283.0425195757986
 10
835.5953709034128
 20
287.8425195758099
 10
837.995370903419
 20
287.8425195758099
 10
837.995370903419
 20
371.2425195759711
 10
792.6953709033386
 20
371.2425195759711
 10
792.6953709033386
 20
376.0425195759773
 10
987.3953709036923
 20
376.0425195759773
 10
987.3953709036978
 20
283.0425195758081
 10
980.1953709036851
 20
283.0425195758061
 10
980.1953709036851
 20
287.842519575817
 10
982.5953709036884
 20
287.842519575817
 10
982.5953709036831
 20
371.2425195759711
 10
938.7953709036001
 20
371.2425195759711
  0
LWPOLYLINE
  5
81
330
F1B
100
AcDbEntity
  8
ENGRAVING
100
AcDbPolyline
 90
       24
 70
     1
 43
0.0
 10
1634.795370904866
 20
188.2425195756217
 10
1637.195370904872
 20
188.2425195756217
 10
1637.195370904872
 20
193.0425195756303
 10
1627.595370904854
 20
193.0425195756303
 10
1627.595370904854
 20
188.2425195756217
 10
1629.995370904859
 20
188.2425195756217
 10
1629.995370904859
 20
104.8425195754677
 10
1586.795370904784
 20
104.8425195754677
 10
1586.795370904784
 20
188.2425195756142
 10
1589.195370904785
 20
188.2425195756142
 10
1589.195370904785
 20
193.0425195756228
 10
1579.595370904769
 20
193.0425195756228
 10
1579.595370904769
 20
188.2425195756142
 10
1581.995370904778
 20
188.2425195756142
 10
1581.995370904778
 20
104.8425195754677
 10
1537.895370904688
 20
104.8425195754677
 10
1537.895370904688
 20
100.0425195754611
 10
1683.395370904958
 20
100.0425195754611
 10
1683.395370904964
 20
193.0425195756303
 10
1676.195370904945
 20
193.0425195756323
 10
1676.195370904945
 20
188.2425195756217
 10
1678.595370904954
 20
188.2425195756217
 10
1678.595370904949
 20
104.8425195754677
 10
1634.795370904866
 20
104.8425195754677
  0
LWPOLYLINE
  5
82
330
F1B
100
AcDbEntity
  8
ENGRAVING
100
AcDbPolyline
 90
       32
 70
     1
 43
0.0
 10
1634.795370904866
 20
287.842519575817
 10
1637.195370904872
 20
287.842519575817
 10
1637.195370904872
 20
283.0425195758061
 10
1627.595370904854
 20
283.0425195758061
 10
1627.595370904854
 20
287.842519575817
 10
1629.995370904859
 20
287.842519575817
 10
1629.995370904859
 20
371.2425195759687
 10
1586.795370904784
 20
371.2425195759687
 10
1586.795370904784
 20
287.8425195758246
 10
1589.195370904785
 20
287.8425195758246
 10
1589.195370904785
 20
283.0425195758129
 10
1579.595370904769
 20
283.0425195758129
 10
1579.595370904769
 20
287.8425195758246
 10
1581.995370904778
 20
287.8425195758246
 10
1581.995370904778
 20
371.2425195759687
 10
1538.795370904691
 20
371.2425195759687
 10
1538.795370904691
 20
287.8425195758075
 10
1541.195370904697
 20
287.8425195758075
 10
1541.195370904697
 20
283.0425195757986
 10
1531.595370904679
 20
283.0425195757986
 10
1531.595370904679
 20
287.8425195758075
 10
1533.995370904685
 20
287.8425195758075
 10
1533.995370904685
 20
371.2425195759687
 10
1488.695370904604
 20
371.2425195759687
 10
1488.695370904604
 20
376.0425195759773
 10
1683.395370904958
 20
376.0425195759773
 10
1683.395370904964
 20
283.0425195758061
 10
1676.195370904945
 20
283.0425195758061
 10
1676.195370904945
 20
287.842519575817
 10
1678.595370904954
 20
287.842519575817
 10
1678.595370904949
 20
371.2425195759687
 10
1634.795370904866
 20
371.2425195759687
  0
LWPOLYLINE
  5
83
330
F1B
100
AcDbEntity
  8
ENGRAVING
100
AcDbPolyline
 90
        2
 70
     0
 43
0.0
 10
1039.89537090379
 20
178.042519575603
 10
1042.895370903793
 20
178.042519575603
  0
LWPOLYLINE
  5
84
330
F1B
100
AcDbEntity
  8
ENGRAVING
100
AcDbPolyline
 90
        2
 70
     0
 43
0.0
 10
1387.895370904421
 20
178.042519575603
 10
1390.895370904429
 20
178.042519575603
  0
LWPOLYLINE
  5
85
330
F1B
100
AcDbEntity
  8
ENGRAVING
100
AcDbPolyline
 90
        2
 70
     0
 43
0.0
 10
1735.895370905054
 20
178.0425195756006
 10
1738.895370905062
 20
178.0425195756006
  0
LWPOLYLINE
  5
86
330
F1B
100
AcDbEntity
  8
ENGRAVING
100
AcDbPolyline
 90
        6
 70
     0
 43
0.0
 10
1735.895370905054
 20
187.6425195756205
 10
1738.895370905062
 20
187.6425195756205
 10
1735.895370905054
 20
187.6425195756205
 10
1735.895370905054
 20
178.0425195756006
 10
1738.895370905062
 20
178.0425195756006
 10
1738.895370905062
 20
187.6425195756205
  0
LWPOLYLINE
  5
88
330
F1B
100
AcDbEntity
  8
STEP1
100
AcDbPolyline
 90
       12
 70
     1
 43
0.0
 10
1882.559738836011
 20
-96.66587001559548
 10
1913.324550435971
 20
-96.66587001559548
 10
1913.324550435971
 20
-91.82141441959799
 10
1873.835215767157
 20
-91.82141441959799
 10
1873.835215767157
 20
-94.95398671523458
 10
1873.936057305287
 20
-95.01220760441924
 42
-0.0542649580844249
 10
1876.782662247974
 20
-96.95330488390869
 42
-0.0498095519485951
 10
1880.771170812107
 20
-101.2861745955943
 42
-0.0422602610372194
 10
1883.70115088952
 20
-106.324586880649
 10
1888.379169243676
 20
-106.324586880649
 10
1888.056116134038
 20
-105.5337763922333
 42
0.04291720331406
 10
1885.641090945103
 20
-100.8215816709233
 42
0.0484931228455708
  0
LWPOLYLINE
  5
89
330
F1B
100
AcDbEntity
  8
STEP1
100
AcDbPolyline
 90
       33
 70
     1
 43
0.0
 10
1805.299610808233
 20
-117.7543549632925
 10
1805.299610808233
 20
-91.82141441959799
 10
1800.665006418393
 20
-91.82141441959799
 10
1800.665006418393
 20
-111.1017831279728
 10
1799.78725858486
 20
-110.4940075166147
 42
-0.0599226375630171
 10
1797.309269116334
 20
-108.2971784787162
 42
-0.0068053152835708
 10
1791.377624472186
 20
-101.4261704034082
 42
0.0319591215082863
 10
1786.434450419996
 20
-96.2506791149309
 42
0.0664136844462716
 10
1781.733898794436
 20
-92.95259437454399
 42
0.0515770921885209
 10
1780.734790378096
 20
-92.55801555824836
 42
0.1506927650294917
 10
1772.26756026752
 20
-92.77879604472742
 42
0.1624677090484963
 10
1767.343375277518
 20
-97.47057313529921
 42
0.1210554966977172
 10
1765.857572104138
 20
-103.705739459214
 42
0.1501246723699548
 10
1767.730873751236
 20
-111.5961382604186
 42
0.1431910470053129
 10
1772.387767163454
 20
-115.7287315401974
 42
0.0716002692072042
 10
1777.208271042344
 20
-116.8745063200811
 10
1777.713383214947
 20
-111.8998640214091
 10
1777.226101220893
 20
-111.8998640214091
 42
-0.0979804966512386
 10
1774.128483166351
 20
-111.2869677978965
 42
-0.1802665863557404
 10
1770.664127804888
 20
-108.076516825008
 42
-0.1028187245402652
 10
1769.867195896469
 20
-105.1023264526143
 42
-0.0578636259756458
 10
1770.031782679397
 20
-102.3024648664525
 42
-0.1855968447905715
 10
1772.468660360557
 20
-98.24939231677127
 42
-0.1484069576093951
 10
1776.126445356435
 20
-96.83999243478922
 42
-0.0904668672569089
 10
1778.744955963954
 20
-97.12210143434369
 42
-0.0478112489045419
 10
1780.347421824071
 20
-97.76831404579468
 42
-0.0797898102577308
 10
1784.881057825982
 20
-101.1304820589623
 42
-0.010628143670932
 10
1788.291408169823
 20
-104.775191190853
 42
-0.0153012205548733
 10
1791.235596264763
 20
-108.2682697063018
 42
0.0348381059162911
 10
1795.09040707213
 20
-112.4952162066557
 42
0.0190985721479191
 10
1797.747010133391
 20
-114.8420770200728
 42
0.0810670012897625
 10
1801.88664836716
 20
-117.2320982686883
 42
0.0757322393678647
 10
1804.359938052641
 20
-117.7609231746655
 42
0.0332404976778034
  0
LWPOLYLINE
  5
8A
330
F1B
100
AcDbEntity
  8
STEP1
100
AcDbPolyline
 90
        2
 70
     1
 43
0.0
 10
1930.781107699075
 20
-86.43998477407752
 42
0.9999999999999998
 10
1857.581107698948
 20
-86.43998477407752
  0
LWPOLYLINE
  5
8B
330
F1B
100
AcDbEntity
  8
STEP1
100
AcDbPolyline
 90
        2
 70
     1
 43
0.0
 10
1822.781107698878
 20
-86.43998477407752
 42
0.9999999999999998
 10
1749.581107698751
 20
-86.43998477407752
  0
LWPOLYLINE
  5
8C
330
F1B
100
AcDbEntity
  8
STEP1
100
AcDbPolyline
 90
        3
 70
     1
 43
0.0
 10
1650.581107698571
 20
-86.43998477407752
 10
1714.781107698682
 20
-86.43998477407752
 42
0.8837544329757466
 10
1642.687665075674
 20
-77.50826988966821
 42
-0.3785546203478992
  0
LWPOLYLINE
  5
8D
330
F1B
100
AcDbEntity
  8
STEP1
100
AcDbPolyline
 90
       44
 70
     1
 43
0.0
 10
1676.014228686617
 20
-99.14507812752958
 42
-0.0590667746024678
 10
1676.89568182977
 20
-96.60567581533655
 42
-0.13386173454963
 10
1679.479893638575
 20
-93.64874915896564
 42
-0.1559342316008507
 10
1686.0887005052
 20
-91.76950610440803
 42
-0.1314736076102698
 10
1692.214756976628
 20
-93.62286522073635
 42
-0.1800901051391227
 10
1697.27868358747
 20
-100.1583759731447
 42
-0.1259394920007972
 10
1697.700605582809
 20
-108.2206501738669
 42
-0.1387628268520861
 10
1694.884045396619
 20
-113.7104001280796
 42
-0.0700192590872883
 10
1692.226366600315
 20
-115.8647626546361
 42
-0.1008208283991512
 10
1687.830933970101
 20
-117.4216124000979
 10
1686.925024744097
 20
-117.5487634656088
 10
1686.286188830793
 20
-112.7277287285765
 42
0.0275203115189511
 10
1689.222909141834
 20
-111.8582509454239
 42
0.0697553046391635
 10
1690.872647019051
 20
-110.9948450214349
 42
0.2161512118503591
 10
1693.99781640558
 20
-105.5818928617133
 42
0.2144161128801034
 10
1691.977715899958
 20
-99.57846124521552
 42
0.2001678360694799
 10
1686.25142751797
 20
-96.96156916301788
 42
0.0167729980001818
 10
1684.932134618799
 20
-96.96156916301788
 42
0.1273476031078822
 10
1681.966270722422
 20
-97.83653485962066
 42
0.1492388675028108
 10
1678.791542732211
 20
-101.3534987621415
 42
0.1222658197247633
 10
1678.153730586078
 20
-104.5881376055207
 42
0.0452981056361891
 10
1678.547143004182
 20
-107.3966313273018
 10
1678.695272240346
 20
-108.0301072262434
 10
1674.459505714956
 20
-107.4947007727344
 42
0.0736738768989899
 10
1674.454959785959
 20
-105.3576372138109
 42
0.056354634914721
 10
1673.78871475418
 20
-102.8711769049245
 42
0.0490891884243976
 10
1672.890065440575
 20
-101.1129164147358
 42
0.1355197510381809
 10
1670.901608175172
 20
-99.33051126597774
 42
0.1534193050178467
 10
1666.994638028814
 20
-98.71224199983352
 42
0.1902883259230721
 10
1663.16234928026
 20
-100.9248149404228
 42
0.1488059775793811
 10
1661.842354814748
 20
-104.2716211171282
 42
0.0857609931780316
 10
1662.118865493884
 20
-107.3060267405174
 42
0.1686070081472351
 10
1664.224068594626
 20
-110.409430992242
 42
0.1155480651768903
 10
1668.10302367758
 20
-112.0981094932194
 10
1668.882037741893
 20
-112.2402875028372
 10
1668.031458714373
 20
-117.0583298146236
 10
1666.906946614408
 20
-116.8299980456629
 42
-0.1630588222617486
 10
1660.560552680809
 20
-113.1659057997167
 42
-0.1422841020968791
 10
1658.097424886185
 20
-107.9508781765876
 42
-0.1254220830997979
 10
1658.807903714513
 20
-100.1613575954117
 42
-0.0581657888111267
 10
1659.610864576474
 20
-98.52714771569878
 42
-0.241696658221737
 10
1667.785272179507
 20
-93.80765128562382
 42
-0.1961388489385077
 10
1673.790767485315
 20
-95.91890881986614
 42
-0.0622075201640346
 10
1674.594544242942
 20
-96.83327298170935
 42
-0.0230756445062909
  0
LWPOLYLINE
  5
8E
330
F1B
100
AcDbEntity
  8
STEP1
100
AcDbPolyline
 90
      120
 70
     1
 43
0.0
 10
1949.681107699111
 20
-86.13998477408461
 10
1946.681107699105
 20
-86.13998477408461
 10
1946.681107699108
 20
-44.73998477401141
 10
1949.681107699111
 20
-44.73998477401141
 10
1949.681107699111
 20
-35.13998477399457
 10
1841.681107698914
 20
-35.13998477399457
 10
1841.681107698914
 20
-38.13998477400003
 10
1838.681107698908
 20
-38.1399847739973
 10
1838.681107698908
 20
-35.13998477399184
 10
1733.681107698718
 20
-35.13998477399457
 10
1733.681107698718
 20
-38.13998477400003
 10
1730.681107698712
 20
-38.1399847739973
 10
1730.681107698712
 20
-35.13998477399457
 10
1619.68110769851
 20
-35.13998477399457
 10
1619.68110769851
 20
-47.13998477401093
 10
1613.681107698499
 20
-47.13998477401367
 10
1613.681107698499
 20
-59.13998477403549
 10
1619.68110769851
 20
-59.13998477403549
 10
1619.68110769851
 20
-113.1399847741337
 10
1613.681107698499
 20
-113.1399847741337
 10
1613.681107698499
 20
-125.1399847741555
 10
1619.68110769851
 20
-125.1399847741528
 10
1619.68110769851
 20
-136.9218029559923
 10
1636.181107698551
 20
-138.121802955994
 10
1636.181107698551
 20
-132.2150470233468
 10
1639.181107698548
 20
-132.2150470233468
 10
1639.181107698548
 20
-138.3399847741752
 10
1649.681107698565
 20
-139.1036211378126
 10
1649.681107698565
 20
-133.1968652051658
 10
1652.681107698573
 20
-133.1968652051658
 10
1652.681107698573
 20
-139.3218029559949
 10
1663.18110769859
 20
-140.0854393196313
 10
1663.18110769859
 20
-134.1786833869852
 10
1666.181107698597
 20
-134.1786833869852
 10
1666.181107698597
 20
-140.3036211378142
 10
1676.681107698617
 20
-141.0672575014509
 10
1676.681107698617
 20
-135.1605015688069
 10
1679.681107698622
 20
-135.1605015688069
 10
1679.681107698622
 20
-141.2854393196329
 10
1690.181107698641
 20
-142.0490756832727
 10
1690.181107698641
 20
-136.1423197506262
 10
1693.181107698655
 20
-136.1423197506262
 10
1693.181107698655
 20
-142.2672575014546
 10
1703.681107698666
 20
-143.030893865092
 10
1703.681107698666
 20
-137.1241379324452
 10
1706.681107698679
 20
-137.1241379324452
 10
1706.681107698679
 20
-143.249075683274
 10
1717.18110769869
 20
-144.0127120469134
 10
1717.18110769869
 20
-138.1059561142673
 10
1720.181107698693
 20
-138.1059561142673
 10
1720.181107698693
 20
-144.2308938650957
 10
1730.681107698712
 20
-144.9945302287327
 10
1730.681107698712
 20
-139.0877742960859
 10
1733.681107698718
 20
-139.0877742960859
 10
1733.681107698718
 20
-145.2127120469154
 10
1744.181107698737
 20
-145.976348410552
 10
1744.181107698737
 20
-140.0695924779049
 10
1747.181107698745
 20
-140.0695924779049
 10
1747.181107698745
 20
-146.194530228733
 10
1757.681107698761
 20
-146.9581665923734
 10
1757.681107698761
 20
-141.0514106597243
 10
1760.681107698767
 20
-141.0514106597243
 10
1760.681107698767
 20
-147.1763484105554
 10
1771.181107698786
 20
-147.9399847741928
 10
1771.181107698786
 20
-142.0332288415463
 10
1774.181107698791
 20
-142.0332288415463
 10
1774.181107698791
 20
-148.1581665923747
 10
1784.681107698813
 20
-148.9218029560118
 10
1784.681107698813
 20
-143.0150470233653
 10
1787.681107698816
 20
-143.0150470233653
 10
1787.681107698816
 20
-149.1399847741934
 10
1798.181107698835
 20
-149.9036211378338
 10
1798.181107698835
 20
-143.9968652051843
 10
1801.18110769884
 20
-143.9968652051843
 10
1801.18110769884
 20
-150.1218029560158
 10
1811.681107698859
 20
-150.8854393196525
 10
1811.681107698859
 20
-144.9786833870057
 10
1814.681107698865
 20
-144.9786833870057
 10
1814.681107698865
 20
-151.1036211378344
 10
1825.181107698884
 20
-151.8672575014742
 10
1825.181107698884
 20
-145.9605015688244
 10
1828.18110769889
 20
-145.9605015688244
 10
1828.18110769889
 20
-152.0854393196562
 10
1838.681107698908
 20
-152.8490756832935
 10
1838.681107698908
 20
-146.9423197506437
 10
1841.681107698914
 20
-146.9423197506437
 10
1841.681107698914
 20
-153.0672575014758
 10
1852.181107698933
 20
-153.8308938651125
 10
1852.181107698933
 20
-147.9241379324654
 10
1855.181107698942
 20
-147.9241379324654
 10
1855.181107698942
 20
-154.0490756832945
 10
1865.681107698958
 20
-154.8127120469339
 10
1865.681107698958
 20
-148.9059561142844
 10
1868.681107698966
 20
-148.9059561142844
 10
1868.681107698966
 20
-155.0308938651166
 10
1879.181107698983
 20
-155.7945302287532
 10
1879.181107698983
 20
-149.8877742961037
 10
1882.181107698988
 20
-149.8877742961037
 10
1882.181107698988
 20
-156.0127120469379
 10
1892.68110769901
 20
-156.7763484105719
 10
1892.68110769901
 20
-150.8695924779261
 10
1895.681107699012
 20
-150.8695924779261
 10
1895.681107699012
 20
-156.9945302287562
 10
1906.181107699034
 20
-157.7581665923943
 10
1906.181107699034
 20
-151.8514106597448
 10
1909.18110769904
 20
-151.8514106597448
 10
1909.18110769904
 20
-157.9763484105766
 10
1919.681107699059
 20
-158.739984774214
 10
1919.681107699059
 20
-152.8332288415641
 10
1922.681107699072
 20
-152.8332288415641
 10
1922.681107699072
 20
-158.9581665923953
 10
1933.181107699083
 20
-159.7218029560323
 10
1933.181107699083
 20
-153.8150470233855
 10
1936.181107699097
 20
-153.8150470233855
 10
1936.181107699097
 20
-159.939984774217
 10
1949.681107699111
 20
-160.921802956036
 10
1949.681107699111
 20
-122.1399847741501
 10
1946.681107699105
 20
-122.1399847741501
 10
1946.681107699105
 20
-95.73998477410146
 10
1949.681107699111
 20
-95.73998477410146
  0
LWPOLYLINE
  5
8F
330
F1B
100
AcDbEntity
  8
STEP1
100
AcDbPolyline
 90
        4
 70
     1
 43
0.0
 10
1641.581107698555
 20
-83.19998477407194
 42
0.4142135623730951
 10
1638.341107698549
 20
-86.43998477407752
 42
0.4142135623730951
 10
1641.581107698555
 20
-89.67998477408446
 42
0.4142135623730951
 10
1644.82110769856
 20
-86.43998477407752
 42
0.4142135623730951
  0
LWPOLYLINE
  5
90
330
F1B
100
AcDbEntity
  8
STEP1
100
AcDbPolyline
 90
       12
 70
     1
 43
0.0
 10
1882.559738836011
 20
50.19614426050407
 10
1913.324550435971
 20
50.19614426050407
 10
1913.324550435971
 20
55.04059985650053
 10
1873.835215767157
 20
55.04059985650053
 10
1873.835215767157
 20
51.9080275608643
 10
1873.936057305287
 20
51.84980667167895
 42
-0.0542649580844249
 10
1876.782662247974
 20
49.90870939218985
 42
-0.0498095519485951
 10
1880.771170812107
 20
45.57583968050596
 42
-0.0422602610372194
 10
1883.70115088952
 20
40.53742739544918
 10
1888.379169243676
 20
40.53742739544918
 10
1888.056116134038
 20
41.32823788386622
 42
0.04291720331406
 10
1885.641090945103
 20
46.04043260517619
 42
0.0484931228455708
  0
LWPOLYLINE
  5
91
330
F1B
100
AcDbEntity
  8
STEP1
100
AcDbPolyline
 90
       33
 70
     1
 43
0.0
 10
1805.299610808233
 20
29.10765931280707
 10
1805.299610808233
 20
55.04059985650053
 10
1800.665006418393
 20
55.04059985650053
 10
1800.665006418393
 20
35.76023114812711
 10
1799.78725858486
 20
36.36800675948382
 42
-0.0599226375630171
 10
1797.309269116334
 20
38.56483579738437
 42
-0.0068053152835708
 10
1791.377624472186
 20
45.43584387269231
 42
0.0319591215082863
 10
1786.434450419996
 20
50.611335161169
 42
0.0664136844462716
 10
1781.733898794436
 20
53.90941990155624
 42
0.0515770921885209
 10
1780.734790378096
 20
54.30399871785017
 42
0.1506927650294917
 10
1772.26756026752
 20
54.08321823137078
 42
0.1624677090484963
 10
1767.343375277518
 20
49.39144114079965
 42
0.1210554966977172
 10
1765.857572104138
 20
43.15627481688454
 42
0.1501246723699548
 10
1767.730873751236
 20
35.26587601567951
 42
0.1431910470053129
 10
1772.387767163454
 20
31.13328273590151
 42
0.0716002692072042
 10
1777.208271042344
 20
29.98750795601848
 10
1777.713383214947
 20
34.96215025468939
 10
1777.226101220893
 20
34.96215025468939
 42
-0.0979804966512386
 10
1774.128483166351
 20
35.57504647820235
 42
-0.1802665863557404
 10
1770.664127804888
 20
38.78549745109149
 42
-0.1028187245402652
 10
1769.867195896469
 20
41.75968782348491
 42
-0.0578636259756458
 10
1770.031782679397
 20
44.55954940964704
 42
-0.1855968447905715
 10
1772.468660360557
 20
48.61262195932829
 42
-0.1484069576093951
 10
1776.126445356435
 20
50.02202184131101
 42
-0.0904668672569089
 10
1778.744955963954
 20
49.73991284175588
 42
-0.0478112489045419
 10
1780.347421824071
 20
49.09370023030419
 42
-0.0797898102577308
 10
1784.881057825982
 20
45.73153221713721
 42
-0.010628143670932
 10
1788.291408169823
 20
42.08682308524589
 42
-0.0153012205548733
 10
1791.235596264763
 20
38.59374456979811
 42
0.0348381059162911
 10
1795.09040707213
 20
34.36679806944312
 42
0.0190985721479191
 10
1797.747010133391
 20
32.01993725602711
 42
0.0810670012897625
 10
1801.88664836716
 20
29.62991600741123
 42
0.0757322393678647
 10
1804.359938052641
 20
29.10109110143435
 42
0.0332404976778034
  0
LWPOLYLINE
  5
92
330
F1B
100
AcDbEntity
  8
STEP1
100
AcDbPolyline
 90
        2
 70
     1
 43
0.0
 10
1930.781107699075
 20
23.72622966728693
 42
-0.9999999999999998
 10
1857.581107698948
 20
23.72622966728693
  0
LWPOLYLINE
  5
93
330
F1B
100
AcDbEntity
  8
STEP1
100
AcDbPolyline
 90
        2
 70
     1
 43
0.0
 10
1822.781107698878
 20
23.72622966728693
 42
-0.9999999999999998
 10
1749.581107698751
 20
23.72622966728693
  0
LWPOLYLINE
  5
94
330
F1B
100
AcDbEntity
  8
STEP1
100
AcDbPolyline
 90
        3
 70
     1
 43
0.0
 10
1650.581107698571
 20
23.72622966728693
 10
1714.781107698682
 20
23.72622966728693
 42
-0.8837544329757466
 10
1642.687665075674
 20
14.79451478287797
 42
0.3785546203478992
  0
LWPOLYLINE
  5
95
330
F1B
100
AcDbEntity
  8
STEP1
100
AcDbPolyline
 90
       44
 70
     1
 43
0.0
 10
1676.014228686617
 20
47.71693614856895
 42
-0.0590667746024678
 10
1676.89568182977
 20
50.25633846076164
 42
-0.13386173454963
 10
1679.479893638575
 20
53.21326511713391
 42
-0.1559342316008507
 10
1686.0887005052
 20
55.0925081716922
 42
-0.1314736076102698
 10
1692.214756976628
 20
53.23914905536253
 42
-0.1800901051391227
 10
1697.27868358747
 20
46.70363830295445
 42
-0.1259394920007972
 10
1697.700605582809
 20
38.64136410223091
 42
-0.1387628268520861
 10
1694.884045396619
 20
33.15161414802094
 42
-0.0700192590872883
 10
1692.226366600315
 20
30.99725162146206
 42
-0.1008208283991512
 10
1687.830933970101
 20
29.44040187600263
 10
1686.925024744097
 20
29.3132508104901
 10
1686.286188830793
 20
34.1342855475217
 42
0.0275203115189511
 10
1689.222909141834
 20
35.00376333067663
 42
0.0697553046391635
 10
1690.872647019051
 20
35.8671692546626
 42
0.2161512118503591
 10
1693.99781640558
 20
41.28012141438626
 42
0.2144161128801034
 10
1691.977715899958
 20
47.28355303088403
 42
0.2001678360694799
 10
1686.25142751797
 20
49.90044511308031
 42
0.0167729980001818
 10
1684.932134618799
 20
49.90044511308031
 42
0.1273476031078822
 10
1681.966270722422
 20
49.02547941647856
 42
0.1492388675028108
 10
1678.791542732211
 20
45.50851551395703
 42
0.1222658197247633
 10
1678.153730586078
 20
42.27387667057747
 42
0.0452981056361891
 10
1678.547143004182
 20
39.46538294879531
 10
1678.695272240346
 20
38.83190704985475
 10
1674.459505714956
 20
39.36731350336379
 42
0.0736738768989899
 10
1674.454959785959
 20
41.50437706228728
 42
0.056354634914721
 10
1673.78871475418
 20
43.99083737117439
 42
0.0490891884243976
 10
1672.890065440575
 20
45.74909786136231
 42
0.1355197510381809
 10
1670.901608175172
 20
47.53150301011976
 42
0.1534193050178467
 10
1666.994638028814
 20
48.1497722762657
 42
0.1902883259230721
 10
1663.16234928026
 20
45.93719933567536
 42
0.1488059775793811
 10
1661.842354814748
 20
42.59039315897132
 42
0.0857609931780316
 10
1662.118865493884
 20
39.55598753557979
 42
0.1686070081472351
 10
1664.224068594626
 20
36.45258328385717
 42
0.1155480651768903
 10
1668.10302367758
 20
34.76390478287874
 10
1668.882037741893
 20
34.62172677326271
 10
1668.031458714373
 20
29.80368446147588
 10
1666.906946614408
 20
30.03201623043594
 42
-0.1630588222617486
 10
1660.560552680809
 20
33.69610847638319
 42
-0.1422841020968791
 10
1658.097424886185
 20
38.91113609951196
 42
-0.1254220830997979
 10
1658.807903714513
 20
46.70065668068787
 42
-0.0581657888111267
 10
1659.610864576474
 20
48.33486656039974
 42
-0.241696658221737
 10
1667.785272179507
 20
53.05436299047437
 42
-0.1961388489385077
 10
1673.790767485315
 20
50.94310545623272
 42
-0.0622075201640346
 10
1674.594544242942
 20
50.02874129438919
 42
-0.0230756445062909
  0
LWPOLYLINE
  5
96
330
F1B
100
AcDbEntity
  8
STEP1
100
AcDbPolyline
 90
       12
 70
     1
 43
0.0
 10
778.8953709033076
 20
103.0425195754642
 10
775.8953709033075
 20
103.0425195754642
 10
775.8953709033075
 20
94.04251957545023
 10
769.8953709032912
 20
94.04251957545023
 10
769.8953709032912
 20
382.0425195759742
 10
1105.895370903908
 20
382.0425195759742
 10
1105.895370903908
 20
94.04251957545023
 10
841.8953709034221
 20
94.04251957545023
 10
841.8953709034221
 20
103.0425195754642
 10
838.8953709034222
 20
103.0425195754642
 10
838.8953709034222
 20
94.04251957545023
 10
778.8953709033076
 20
94.04251957545023
  0
LWPOLYLINE
  5
97
330
F1B
100
AcDbEntity
  8
STEP1
100
AcDbPolyline
 90
        4
 70
     1
 43
0.0
 10
778.8953709033076
 20
373.942519575957
 10
778.8953709033076
 20
364.3425195759419
 10
775.8953709033075
 20
364.3425195759419
 10
775.8953709033075
 20
373.942519575957
  0
LWPOLYLINE
  5
98
330
F1B
100
AcDbEntity
  8
STEP1
100
AcDbPolyline
 90
        4
 70
     1
 43
0.0
 10
790.595370903331
 20
373.0425195759579
 10
780.9953709033152
 20
373.0425195759579
 10
780.9953709033152
 20
376.0425195759633
 10
790.595370903331
 20
376.0425195759633
  0
LWPOLYLINE
  5
99
330
F1B
100
AcDbEntity
  8
STEP1
100
AcDbPolyline
 90
        4
 70
     1
 43
0.0
 10
792.6953709033386
 20
370.9425195759516
 10
792.6953709033386
 20
361.3425195759388
 10
789.6953709033305
 20
361.3425195759388
 10
789.6953709033305
 20
370.9425195759516
  0
LWPOLYLINE
  5
9A
330
F1B
100
AcDbEntity
  8
STEP1
100
AcDbPolyline
 90
        4
 70
     1
 43
0.0
 10
787.5953709033256
 20
359.2425195759305
 10
777.9953709033097
 20
359.2425195759305
 10
777.9953709033097
 20
362.242519575936
 10
787.5953709033256
 20
362.242519575936
  0
LWPOLYLINE
  5
9B
330
F1B
100
AcDbEntity
  8
STEP1
100
AcDbPolyline
 90
       12
 70
     1
 43
0.0
 10
1013.519435626062
 20
-136.1617507901961
 10
1023.119435626084
 20
-136.1617507901999
 10
1023.119435626081
 20
-133.1617507902654
 10
1025.219435626089
 20
-133.1617507902684
 10
1025.219435626089
 20
-28.16175079001403
 10
1020.119435626078
 20
-28.16175079001403
 10
1020.119435626078
 20
-25.16175079000857
 10
1016.519435626076
 20
-25.16175079000857
 10
1016.519435626076
 20
-28.16175079001403
 10
1011.419435626066
 20
-28.16175079001403
 10
1011.419435626066
 20
-133.1617507902057
 10
1013.519435626062
 20
-133.1617507902057
  0
LWPOLYLINE
  5
9C
330
F1B
100
AcDbEntity
  8
STEP1
100
AcDbPolyline
 90
        4
 70
     1
 43
0.0
 10
930.995370903588
 20
373.942519575957
 10
930.995370903588
 20
364.3425195759419
 10
927.9953709035826
 20
364.3425195759419
 10
927.9953709035826
 20
373.942519575957
  0
LWPOLYLINE
  5
9D
330
F1B
100
AcDbEntity
  8
STEP1
100
AcDbPolyline
 90
        4
 70
     1
 43
0.0
 10
942.6953709036087
 20
373.0425195759579
 10
933.0953709035902
 20
373.0425195759579
 10
933.0953709035902
 20
376.0425195759633
 10
942.6953709036087
 20
376.0425195759633
  0
LWPOLYLINE
  5
9E
330
F1B
100
AcDbEntity
  8
STEP1
100
AcDbPolyline
 90
        4
 70
     1
 43
0.0
 10
944.7953709036164
 20
370.9425195759516
 10
944.7953709036164
 20
361.3425195759388
 10
941.7953709036055
 20
361.3425195759388
 10
941.7953709036055
 20
370.9425195759516
  0
LWPOLYLINE
  5
9F
330
F1B
100
AcDbEntity
  8
STEP1
100
AcDbPolyline
 90
        4
 70
     1
 43
0.0
 10
939.6953709036033
 20
359.2425195759305
 10
930.0953709035848
 20
359.2425195759305
 10
930.0953709035848
 20
362.242519575936
 10
939.6953709036033
 20
362.242519575936
  0
LWPOLYLINE
  5
A0
330
F1B
100
AcDbEntity
  8
STEP1
100
AcDbPolyline
 90
        4
 70
     1
 43
0.0
 10
930.995370903588
 20
102.1425195754674
 10
930.995370903588
 20
111.7425195754825
 10
927.9953709035826
 20
111.7425195754825
 10
927.9953709035826
 20
102.1425195754674
  0
LWPOLYLINE
  5
A1
330
F1B
100
AcDbEntity
  8
STEP1
100
AcDbPolyline
 90
        4
 70
     1
 43
0.0
 10
942.6953709036087
 20
103.0425195754666
 10
933.0953709035902
 20
103.0425195754666
 10
933.0953709035902
 20
100.0425195754611
 10
942.6953709036087
 20
100.0425195754611
  0
LWPOLYLINE
  5
A2
330
F1B
100
AcDbEntity
  8
STEP1
100
AcDbPolyline
 90
        4
 70
     1
 43
0.0
 10
944.7953709036164
 20
105.1425195754728
 10
944.7953709036164
 20
114.742519575488
 10
941.7953709036055
 20
114.742519575488
 10
941.7953709036055
 20
105.1425195754728
  0
LWPOLYLINE
  5
A3
330
F1B
100
AcDbEntity
  8
STEP1
100
AcDbPolyline
 90
        4
 70
     1
 43
0.0
 10
939.6953709036033
 20
116.8425195754915
 10
930.0953709035848
 20
116.8425195754915
 10
930.0953709035848
 20
113.8425195754861
 10
939.6953709036033
 20
113.8425195754861
  0
LWPOLYLINE
  5
A4
330
F1B
100
AcDbEntity
  8
STEP1
100
AcDbPolyline
 90
        4
 70
     1
 43
0.0
 10
1042.895370903793
 20
288.4425195758039
 10
1039.89537090379
 20
288.4425195758039
 10
1039.89537090379
 20
298.0425195758214
 10
1042.895370903793
 20
298.0425195758214
  0
LWPOLYLINE
  5
A5
330
F1B
100
AcDbEntity
  8
STEP1
100
AcDbPolyline
 90
       24
 70
     1
 43
0.0
 10
1177.987524635092
 20
-136.1617507902766
 10
1168.387524635068
 20
-136.1617507902814
 10
1168.387524635079
 20
-133.1617507903469
 10
1122.787524634995
 20
-133.1617507902684
 10
1122.787524634995
 20
-136.161750790263
 10
1113.187524634971
 20
-136.161750790263
 10
1113.187524634971
 20
-133.1617507902684
 10
1067.587524634887
 20
-133.1617507902654
 10
1067.587524634895
 20
-136.1617507901999
 10
1057.987524634873
 20
-136.161750790203
 10
1057.987524634873
 20
-133.1617507902684
 10
1045.987524634852
 20
-133.1617507902684
 10
1045.987524634852
 20
-28.16175079001403
 10
1079.587524634917
 20
-28.16175079001403
 10
1079.587524634917
 20
-25.16175079008326
 10
1089.187524634935
 20
-25.16175079008326
 10
1089.187524634935
 20
-28.16175079001403
 10
1146.787524635036
 20
-28.16175079009554
 10
1146.787524635036
 20
-25.16175079008326
 10
1156.387524635046
 20
-25.16175079008326
 10
1156.387524635046
 20
-28.16175079009554
 10
1189.987524635114
 20
-28.16175079001403
 10
1189.987524635114
 20
-133.1617507902684
 10
1177.987524635092
 20
-133.1617507902865
  0
LWPOLYLINE
  5
A6
330
F1B
100
AcDbEntity
  8
STEP1
100
AcDbPolyline
 90
        6
 70
     1
 43
0.0
 10
1057.987524634879
 20
-112.0691274626776
 10
1057.987524634871
 20
-41.66175079003858
 42
-0.414213562373117
 10
1059.487524634874
 20
-40.16175079003585
 10
1111.296726337345
 20
-40.16175079003517
 42
-0.6148881242276097
 10
1112.504882797549
 20
-42.55077158151038
 10
1060.69568109508
 20
-112.9581482541488
 42
-0.7242287222991683
  0
LWPOLYLINE
  5
A7
330
F1B
100
AcDbEntity
  8
STEP1
100
AcDbPolyline
 90
        6
 70
     1
 43
0.0
 10
1175.279368174885
 20
-112.9581482541488
 10
1123.470166472412
 20
-42.55077158151038
 42
-0.6148881242276199
 10
1124.678322932621
 20
-40.16175079003517
 10
1176.487524635089
 20
-40.16175079003585
 42
-0.4142135623731061
 10
1177.987524635092
 20
-41.66175079003858
 10
1177.987524635092
 20
-112.0691274626776
 42
-0.7242287222991692
  0
LWPOLYLINE
  5
A8
330
F1B
100
AcDbEntity
  8
STEP1
100
AcDbPolyline
 90
        4
 70
     1
 43
0.0
 10
1042.895370903793
 20
242.8425195757208
 10
1039.89537090379
 20
242.8425195757208
 10
1039.89537090379
 20
233.2425195757036
 10
1042.895370903793
 20
233.2425195757036
  0
LWPOLYLINE
  5
A9
330
F1B
100
AcDbEntity
  8
STEP1
100
AcDbPolyline
 90
        4
 70
     1
 43
0.0
 10
778.8953709033076
 20
180.4425195756022
 10
775.8953709033075
 20
180.4425195756022
 10
775.8953709033075
 20
190.0425195756197
 10
778.8953709033076
 20
190.0425195756197
  0
LWPOLYLINE
  5
AA
330
F1B
100
AcDbEntity
  8
STEP1
100
AcDbPolyline
 90
        4
 70
     1
 43
0.0
 10
841.8953709034221
 20
180.4425195756022
 10
838.8953709034222
 20
180.4425195756022
 10
838.8953709034222
 20
190.0425195756197
 10
841.8953709034221
 20
190.0425195756197
  0
LWPOLYLINE
  5
AB
330
F1B
100
AcDbEntity
  8
STEP1
100
AcDbPolyline
 90
        4
 70
     1
 43
0.0
 10
841.8953709034221
 20
129.4425195755121
 10
838.8953709034222
 20
129.4425195755121
 10
838.8953709034222
 20
139.0425195755297
 10
841.8953709034221
 20
139.0425195755297
  0
LWPOLYLINE
  5
AC
330
F1B
100
AcDbEntity
  8
STEP1
100
AcDbPolyline
 90
        4
 70
     1
 43
0.0
 10
778.8953709033076
 20
129.4425195755121
 10
775.8953709033075
 20
129.4425195755121
 10
775.8953709033075
 20
139.0425195755297
 10
778.8953709033076
 20
139.0425195755297
  0
LWPOLYLINE
  5
AD
330
F1B
100
AcDbEntity
  8
STEP1
100
AcDbPolyline
 90
      120
 70
     1
 43
0.0
 10
1949.681107699111
 20
23.42622966729368
 10
1946.681107699105
 20
23.42622966729368
 10
1946.681107699108
 20
-17.97377033277985
 10
1949.681107699111
 20
-17.97377033277985
 10
1949.681107699111
 20
-27.57377033279602
 10
1841.681107698914
 20
-27.57377033279602
 10
1841.681107698914
 20
-24.57377033279056
 10
1838.681107698908
 20
-24.57377033279363
 10
1838.681107698908
 20
-27.57377033279909
 10
1733.681107698718
 20
-27.57377033279602
 10
1733.681107698718
 20
-24.57377033279056
 10
1730.681107698712
 20
-24.57377033279363
 10
1730.681107698712
 20
-27.57377033279602
 10
1619.68110769851
 20
-27.57377033279602
 10
1619.68110769851
 20
-15.57377033277998
 10
1613.681107698499
 20
-15.57377033277794
 10
1613.681107698499
 20
-3.573770332755429
 10
1619.68110769851
 20
-3.573770332755429
 10
1619.68110769851
 20
50.42622966734279
 10
1613.681107698499
 20
50.42622966734279
 10
1613.681107698499
 20
62.42622966736462
 10
1619.68110769851
 20
62.42622966736224
 10
1619.68110769851
 20
74.20804784919972
 10
1636.181107698551
 20
75.40804784920204
 10
1636.181107698551
 20
69.50129191655526
 10
1639.181107698548
 20
69.50129191655526
 10
1639.181107698548
 20
75.62622966738331
 10
1649.681107698565
 20
76.38986603102205
 10
1649.681107698565
 20
70.48311009837528
 10
1652.681107698573
 20
70.48311009837528
 10
1652.681107698573
 20
76.60804784920401
 10
1663.18110769859
 20
77.37168421283968
 10
1663.18110769859
 20
71.46492828019325
 10
1666.181107698597
 20
71.46492828019325
 10
1666.181107698597
 20
77.58986603102198
 10
1676.681107698617
 20
78.35350239466038
 10
1676.681107698617
 20
72.44674646201565
 10
1679.681107698622
 20
72.44674646201565
 10
1679.681107698622
 20
78.57168421284166
 10
1690.181107698641
 20
79.3353205764804
 10
1690.181107698641
 20
73.42856464383363
 10
1693.181107698655
 20
73.42856464383363
 10
1693.181107698655
 20
79.55350239466236
 10
1703.681107698666
 20
80.31713875830007
 10
1703.681107698666
 20
74.41038282565364
 10
1706.681107698679
 20
74.41038282565364
 10
1706.681107698679
 20
80.53532057648238
 10
1717.18110769869
 20
81.29895694012281
 10
1717.18110769869
 20
75.39220100747605
 10
1720.181107698693
 20
75.39220100747605
 10
1720.181107698693
 20
81.51713875830512
 10
1730.681107698712
 20
82.28077512194079
 10
1730.681107698712
 20
76.37401918929402
 10
1733.681107698718
 20
76.37401918929402
 10
1733.681107698718
 20
82.49895694012275
 10
1744.181107698737
 20
83.26259330376116
 10
1744.181107698737
 20
77.35583737111404
 10
1747.181107698745
 20
77.35583737111404
 10
1747.181107698745
 20
83.48077512194311
 10
1757.681107698761
 20
84.24441148558116
 10
1757.681107698761
 20
78.33765555293201
 10
1760.681107698767
 20
78.33765555293201
 10
1760.681107698767
 20
84.46259330376312
 10
1771.181107698786
 20
85.22622966740085
 10
1771.181107698786
 20
79.31947373475441
 10
1774.181107698791
 20
79.31947373475441
 10
1774.181107698791
 20
85.44441148558348
 10
1784.681107698813
 20
86.20804784922155
 10
1784.681107698813
 20
80.30129191657477
 10
1787.681107698816
 20
80.30129191657477
 10
1787.681107698816
 20
86.42622966740146
 10
1798.181107698835
 20
87.18986603104189
 10
1798.181107698835
 20
81.2831100983924
 10
1801.18110769884
 20
81.2831100983924
 10
1801.18110769884
 20
87.40804784922387
 10
1811.681107698859
 20
88.17168421286192
 10
1811.681107698859
 20
82.26492828021514
 10
1814.681107698865
 20
82.26492828021514
 10
1814.681107698865
 20
88.38986603104387
 10
1825.181107698884
 20
89.15350239468194
 10
1825.181107698884
 20
83.24674646203311
 10
1828.18110769889
 20
83.24674646203311
 10
1828.18110769889
 20
89.37168421286424
 10
1838.681107698908
 20
90.13532057650229
 10
1838.681107698908
 20
84.22856464385313
 10
1841.681107698914
 20
84.22856464385313
 10
1841.681107698914
 20
90.35350239468426
 10
1852.181107698933
 20
91.11713875831958
 10
1852.181107698933
 20
85.21038282567316
 10
1855.181107698942
 20
85.21038282567316
 10
1855.181107698942
 20
91.33532057650223
 10
1865.681107698958
 20
92.09895694014267
 10
1865.681107698958
 20
86.1922010074935
 10
1868.681107698966
 20
86.1922010074935
 10
1868.681107698966
 20
92.31713875832463
 10
1879.181107698983
 20
93.08077512196268
 10
1879.181107698983
 20
87.17401918931386
 10
1882.181107698988
 20
87.17401918931386
 10
1882.181107698988
 20
93.29895694014703
 10
1892.68110769901
 20
94.06259330378066
 10
1892.68110769901
 20
88.15583737113389
 10
1895.681107699012
 20
88.15583737113389
 10
1895.681107699012
 20
94.280775121965
 10
1906.181107699034
 20
95.04441148560307
 10
1906.181107699034
 20
89.13765555295389
 10
1909.18110769904
 20
89.13765555295389
 10
1909.18110769904
 20
95.26259330378502
 10
1919.681107699059
 20
96.02622966742069
 10
1919.681107699059
 20
90.11947373477187
 10
1922.681107699072
 20
90.11947373477187
 10
1922.681107699072
 20
96.244411485603
 10
1933.181107699083
 20
97.00804784924105
 10
1933.181107699083
 20
91.10129191659428
 10
1936.181107699097
 20
91.10129191659428
 10
1936.181107699097
 20
97.22622966742541
 10
1949.681107699111
 20
98.20804784924575
 10
1949.681107699111
 20
59.42622966735917
 10
1946.681107699105
 20
59.42622966735917
 10
1946.681107699105
 20
33.02622966731088
 10
1949.681107699111
 20
33.02622966731088
  0
LWPOLYLINE
  5
AE
330
F1B
100
AcDbEntity
  8
STEP1
100
AcDbPolyline
 90
        4
 70
     1
 43
0.0
 10
1641.581107698555
 20
26.96622966729319
 42
0.4142135623730951
 10
1638.341107698549
 20
23.72622966728693
 42
0.4142135623730951
 10
1641.581107698555
 20
20.48622966728135
 42
0.4142135623730951
 10
1644.82110769856
 20
23.72622966728693
 42
0.4142135623730951
  0
LWPOLYLINE
  5
AF
330
F1B
100
AcDbEntity
  8
STEP1
100
AcDbPolyline
 90
        6
 70
     1
 43
0.0
 10
1065.074549347614
 20
-121.1617507902476
 42
-0.6148881242276083
 10
1063.866392887407
 20
-118.7727299987734
 10
1116.779368174779
 20
-46.86535332613232
 42
-0.5057119906690854
 10
1119.195681095187
 20
-46.86535332613232
 10
1172.108656382564
 20
-118.7727299987727
 42
-0.6148881242276137
 10
1170.900499922357
 20
-121.1617507902466
  0
LWPOLYLINE
  5
B0
330
F1B
100
AcDbEntity
  8
STEP1
100
AcDbPolyline
 90
        4
 70
     1
 43
0.0
 10
797.6153709033451
 20
100.0425195754632
 10
803.6153709033561
 20
100.0425195754632
 10
803.6153709033561
 20
97.04251957545773
 10
797.6153709033451
 20
97.04251957545773
  0
LWPOLYLINE
  5
B1
330
F1B
100
AcDbEntity
  8
STEP1
100
AcDbPolyline
 90
        4
 70
     1
 43
0.0
 10
814.1753709033791
 20
100.0425195754632
 10
820.1753709033901
 20
100.0425195754632
 10
820.1753709033901
 20
97.04251957545773
 10
814.1753709033791
 20
97.04251957545773
  0
LWPOLYLINE
  5
B2
330
F1B
100
AcDbEntity
  8
STEP1
100
AcDbPolyline
 90
        4
 70
     1
 43
0.0
 10
1174.746648003924
 20
-155.7072133863254
 10
1174.746648003924
 20
-172.2672133863591
 10
1131.996648003842
 20
-172.2672133863564
 10
1131.996648003842
 20
-155.7072133863254
  0
LWPOLYLINE
  5
B3
330
F1B
100
AcDbEntity
  8
STEP1
100
AcDbPolyline
 90
        4
 70
     1
 43
0.0
 10
1229.496648004025
 20
-155.7072133863254
 10
1229.496648004025
 20
-172.2672133863564
 10
1180.746648003929
 20
-172.2672133863591
 10
1180.746648003929
 20
-155.7072133863254
  0
LWPOLYLINE
  5
B4
330
F1B
100
AcDbEntity
  8
STEP1
100
AcDbPolyline
 90
        4
 70
     1
 43
0.0
 10
1398.246648004325
 20
-155.7072133863254
 10
1446.99664800442
 20
-155.7072133863254
 10
1446.99664800442
 20
-172.2672133863564
 10
1398.246648004325
 20
-172.267213386354
  0
LWPOLYLINE
  5
B5
330
F1B
100
AcDbEntity
  8
STEP1
100
AcDbPolyline
 90
        4
 70
     1
 43
0.0
 10
1283.496648004123
 20
-155.7072133863254
 10
1283.496648004123
 20
-172.2672133863564
 10
1235.496648004035
 20
-172.2672133863564
 10
1235.496648004035
 20
-155.7072133863254
  0
LWPOLYLINE
  5
B6
330
F1B
100
AcDbEntity
  8
STEP1
100
AcDbPolyline
 90
        4
 70
     1
 43
0.0
 10
1343.496648004232
 20
-155.7072133863254
 10
1392.246648004314
 20
-155.7072133863254
 10
1392.246648004314
 20
-172.267213386354
 10
1343.496648004232
 20
-172.2672133863564
  0
LWPOLYLINE
  5
B7
330
F1B
100
AcDbEntity
  8
STEP1
100
AcDbPolyline
 90
        4
 70
     1
 43
0.0
 10
1337.496648004216
 20
-155.7072133863254
 10
1337.496648004216
 20
-172.2672133863564
 10
1289.496648004134
 20
-172.2672133863564
 10
1289.496648004134
 20
-155.7072133863254
  0
LWPOLYLINE
  5
B8
330
F1B
100
AcDbEntity
  8
STEP1
100
AcDbPolyline
 90
       20
 70
     1
 43
0.0
 10
1452.996648004426
 20
-178.2672133863673
 10
1452.996648004426
 20
-175.2672133863628
 10
1455.996648004437
 20
-175.2672133863628
 10
1455.996648004437
 20
-169.2672133863519
 10
1452.996648004426
 20
-169.2672133863519
 10
1452.996648004426
 20
-158.7072133863308
 10
1455.996648004437
 20
-158.7072133863308
 10
1455.996648004437
 20
-152.7072133863199
 10
1452.996648004426
 20
-152.7072133863199
 10
1452.996648004426
 20
-149.7072133863145
 10
1125.996648003836
 20
-149.7072133863145
 10
1125.996648003836
 20
-152.7072133863199
 10
1122.996648003831
 20
-152.7072133863199
 10
1122.996648003831
 20
-158.7072133863308
 10
1125.996648003836
 20
-158.7072133863308
 10
1125.996648003836
 20
-169.2672133863519
 10
1122.996648003831
 20
-169.2672133863519
 10
1122.996648003831
 20
-175.2672133863628
 10
1125.996648003836
 20
-175.2672133863628
 10
1125.996648003836
 20
-178.2672133863673
  0
LWPOLYLINE
  5
B9
330
F1B
100
AcDbEntity
  8
STEP1
100
AcDbPolyline
 90
       20
 70
     1
 43
0.0
 10
777.6664122047431
 20
-169.3334230109476
 10
777.6664122047431
 20
-171.1334230109521
 10
774.6664122047377
 20
-171.1334230109521
 10
774.6664122047377
 20
-177.133423010963
 10
777.6664122047431
 20
-177.133423010963
 10
777.6664122047431
 20
-178.9334230109641
 10
882.6664122049342
 20
-178.9334230109641
 10
882.6664122049287
 20
-175.9334230109563
 10
885.6664122049396
 20
-175.9334230109563
 10
885.6664122049396
 20
-178.9334230109641
 10
990.6664122051306
 20
-178.9334230109641
 10
990.6664122051306
 20
-175.9334230109617
 10
993.6664122051361
 20
-175.933423010959
 10
993.6664122051361
 20
-178.9334230109641
 10
1104.666412205338
 20
-178.9334230109641
 10
1104.666412205338
 20
-177.133423010963
 10
1107.666412205343
 20
-177.133423010963
 10
1107.666412205343
 20
-171.1334230109521
 10
1104.666412205338
 20
-171.1334230109521
 10
1104.666412205338
 20
-169.3334230109476
  0
LWPOLYLINE
  5
BA
330
F1B
100
AcDbEntity
  8
STEP1
100
AcDbPolyline
 90
        4
 70
     1
 43
0.0
 10
832.8953709034058
 20
188.2425195756166
 10
835.8953709034112
 20
188.2425195756166
 10
835.8953709034112
 20
182.2425195756057
 10
832.8953709034058
 20
182.2425195756057
  0
LWPOLYLINE
  5
BB
330
F1B
100
AcDbEntity
  8
STEP1
100
AcDbPolyline
 90
        4
 70
     1
 43
0.0
 10
784.8953709033267
 20
188.2425195756166
 10
781.8953709033239
 20
188.2425195756166
 10
781.8953709033239
 20
182.2425195756057
 10
784.8953709033267
 20
182.2425195756057
  0
LWPOLYLINE
  5
BC
330
F1B
100
AcDbEntity
  8
STEP1
100
AcDbPolyline
 90
       12
 70
     1
 43
0.0
 10
993.0623997686071
 20
-136.1617507901961
 10
1002.662399768625
 20
-136.1617507901999
 10
1002.662399768617
 20
-133.1617507902654
 10
1004.76239976863
 20
-133.1617507902684
 10
1004.76239976863
 20
-28.16175079001403
 10
999.6623997686201
 20
-28.16175079001403
 10
999.6623997686201
 20
-25.16175079000857
 10
996.0623997686152
 20
-25.16175079000857
 10
996.0623997686152
 20
-28.16175079001403
 10
990.9623997686075
 20
-28.16175079001403
 10
990.9623997686075
 20
-133.1617507902057
 10
993.0623997686071
 20
-133.1617507902057
  0
LWPOLYLINE
  5
BD
330
F1B
100
AcDbEntity
  8
STEP1
100
AcDbPolyline
 90
       12
 70
     1
 43
0.0
 10
972.6053639111405
 20
-136.1617507901961
 10
982.205363911159
 20
-136.1617507901999
 10
982.2053639111564
 20
-133.1617507902654
 10
984.3053639111749
 20
-133.1617507902684
 10
984.3053639111749
 20
-28.16175079001403
 10
979.2053639111536
 20
-28.16175079001403
 10
979.2053639111536
 20
-25.16175079000857
 10
975.6053639111541
 20
-25.16175079000857
 10
975.6053639111541
 20
-28.16175079001403
 10
970.5053639111465
 20
-28.16175079001403
 10
970.5053639111465
 20
-133.1617507902057
 10
972.6053639111405
 20
-133.1617507902057
  0
LWPOLYLINE
  5
BE
330
F1B
100
AcDbEntity
  8
STEP1
100
AcDbPolyline
 90
       12
 70
     1
 43
0.0
 10
952.1483280536877
 20
-136.1617507901961
 10
961.7483280537035
 20
-136.1617507901999
 10
961.7483280536953
 20
-133.1617507902654
 10
963.8483280537112
 20
-133.1617507902684
 10
963.8483280537112
 20
-28.16175079001403
 10
958.748328053698
 20
-28.16175079001403
 10
958.748328053698
 20
-25.16175079000857
 10
955.1483280536958
 20
-25.16175079000857
 10
955.1483280536958
 20
-28.16175079001403
 10
950.04832805368
 20
-28.16175079001403
 10
950.04832805368
 20
-133.1617507902057
 10
952.1483280536877
 20
-133.1617507902057
  0
LWPOLYLINE
  5
BF
330
F1B
100
AcDbEntity
  8
STEP1
100
AcDbPolyline
 90
       12
 70
     1
 43
0.0
 10
922.2700850599686
 20
-136.1617507901961
 10
931.8700850599926
 20
-136.1617507901999
 10
931.8700850599871
 20
-133.1617507902654
 10
933.970085060003
 20
-133.1617507902684
 10
933.970085060003
 20
-28.16175079001403
 10
928.8700850599871
 20
-28.16175079001403
 10
928.8700850599871
 20
-25.16175079000857
 10
925.2700850599849
 20
-25.16175079000857
 10
925.2700850599849
 20
-28.16175079001403
 10
920.1700850599772
 20
-28.16175079001403
 10
920.1700850599772
 20
-133.1617507902057
 10
922.2700850599686
 20
-133.1617507902057
  0
LWPOLYLINE
  5
C0
330
F1B
100
AcDbEntity
  8
STEP1
100
AcDbPolyline
 90
       12
 70
     1
 43
0.0
 10
901.8130492025075
 20
-136.1617507901961
 10
911.4130492025342
 20
-136.1617507901999
 10
911.4130492025287
 20
-133.1617507902654
 10
913.5130492025419
 20
-133.1617507902684
 10
913.5130492025419
 20
-28.16175079001403
 10
908.4130492025261
 20
-28.16175079001403
 10
908.4130492025261
 20
-25.16175079000857
 10
904.8130492025238
 20
-25.16175079000857
 10
904.8130492025238
 20
-28.16175079001403
 10
899.7130492025162
 20
-28.16175079001403
 10
899.7130492025162
 20
-133.1617507902057
 10
901.8130492025075
 20
-133.1617507902057
  0
LWPOLYLINE
  5
C1
330
F1B
100
AcDbEntity
  8
STEP1
100
AcDbPolyline
 90
       12
 70
     1
 43
0.0
 10
881.3560133450547
 20
-136.1617507901961
 10
890.9560133450732
 20
-136.1617507901999
 10
890.9560133450705
 20
-133.1617507902654
 10
893.0560133450754
 20
-133.1617507902684
 10
893.0560133450754
 20
-28.16175079001403
 10
887.9560133450677
 20
-28.16175079001403
 10
887.9560133450677
 20
-25.16175079000857
 10
884.3560133450628
 20
-25.16175079000857
 10
884.3560133450628
 20
-28.16175079001403
 10
879.2560133450525
 20
-28.16175079001403
 10
879.2560133450525
 20
-133.1617507902057
 10
881.3560133450547
 20
-133.1617507902057
  0
LWPOLYLINE
  5
C2
330
F1B
100
AcDbEntity
  8
STEP1
100
AcDbPolyline
 90
       12
 70
     1
 43
0.0
 10
860.8989774875908
 20
-136.1617507901961
 10
870.4989774876121
 20
-136.1617507901999
 10
870.498977487604
 20
-133.1617507902654
 10
872.5989774876225
 20
-133.1617507902684
 10
872.5989774876225
 20
-28.16175079001403
 10
867.4989774876067
 20
-28.16175079001403
 10
867.4989774876067
 20
-25.16175079000857
 10
863.8989774876044
 20
-25.16175079000857
 10
863.8989774876044
 20
-28.16175079001403
 10
858.7989774875968
 20
-28.16175079001403
 10
858.7989774875968
 20
-133.1617507902057
 10
860.8989774875908
 20
-133.1617507902057
  0
LWPOLYLINE
  5
C3
330
F1B
100
AcDbEntity
  8
STEP1
100
AcDbPolyline
 90
       12
 70
     1
 43
0.0
 10
834.4968922072039
 20
-136.1617507901961
 10
844.0968922072253
 20
-136.1617507901999
 10
844.0968922072169
 20
-133.1617507902654
 10
846.1968922072328
 20
-133.1617507902684
 10
846.1968922072328
 20
-28.16175079001403
 10
841.0968922072196
 20
-28.16175079001403
 10
841.0968922072196
 20
-25.16175079000857
 10
837.4968922072149
 20
-25.16175079000857
 10
837.4968922072149
 20
-28.16175079001403
 10
832.3968922072099
 20
-28.16175079001403
 10
832.3968922072099
 20
-133.1617507902057
 10
834.4968922072039
 20
-133.1617507902057
  0
LWPOLYLINE
  5
C4
330
F1B
100
AcDbEntity
  8
STEP1
100
AcDbPolyline
 90
       12
 70
     1
 43
0.0
 10
814.0398563497456
 20
-136.1617507901961
 10
823.6398563497614
 20
-136.1617507901999
 10
823.6398563497587
 20
-133.1617507902654
 10
825.7398563497744
 20
-133.1617507902684
 10
825.7398563497744
 20
-28.16175079001403
 10
820.6398563497559
 20
-28.16175079001403
 10
820.6398563497559
 20
-25.16175079000857
 10
817.0398563497565
 20
-25.16175079000857
 10
817.0398563497565
 20
-28.16175079001403
 10
811.9398563497433
 20
-28.16175079001403
 10
811.9398563497433
 20
-133.1617507902057
 10
814.0398563497456
 20
-133.1617507902057
  0
LWPOLYLINE
  5
C5
330
F1B
100
AcDbEntity
  8
STEP1
100
AcDbPolyline
 90
       12
 70
     1
 43
0.0
 10
793.5828204922845
 20
-136.1617507901961
 10
803.182820492303
 20
-136.1617507901999
 10
803.1828204923003
 20
-133.1617507902654
 10
805.2828204923107
 20
-133.1617507902684
 10
805.2828204923107
 20
-28.16175079001403
 10
800.1828204922976
 20
-28.16175079001403
 10
800.1828204922976
 20
-25.16175079000857
 10
796.5828204922955
 20
-25.16175079000857
 10
796.5828204922955
 20
-28.16175079001403
 10
791.4828204922851
 20
-28.16175079001403
 10
791.4828204922851
 20
-133.1617507902057
 10
793.5828204922845
 20
-133.1617507902057
  0
LWPOLYLINE
  5
C6
330
F1B
100
AcDbEntity
  8
STEP1
100
AcDbPolyline
 90
       12
 70
     1
 43
0.0
 10
773.1257846348235
 20
-136.1617507901961
 10
782.7257846348421
 20
-136.1617507901999
 10
782.7257846348393
 20
-133.1617507902654
 10
784.8257846348524
 20
-133.1617507902684
 10
784.8257846348524
 20
-28.16175079001403
 10
779.7257846348366
 20
-28.16175079001403
 10
779.7257846348366
 20
-25.16175079000857
 10
776.1257846348317
 20
-25.16175079000857
 10
776.1257846348317
 20
-28.16175079001403
 10
771.025784634824
 20
-28.16175079001403
 10
771.025784634824
 20
-133.1617507902057
 10
773.1257846348235
 20
-133.1617507902057
  0
LWPOLYLINE
  5
C7
330
F1B
100
AcDbEntity
  8
STEP1
100
AcDbPolyline
 90
       20
 70
     1
 43
0.0
 10
777.6664122047431
 20
-148.2778510361913
 10
777.6664122047431
 20
-150.0778510361965
 10
774.6664122047377
 20
-150.0778510361965
 10
774.6664122047377
 20
-156.0778510362064
 10
777.6664122047431
 20
-156.0778510362064
 10
777.6664122047431
 20
-157.8778510362082
 10
882.6664122049342
 20
-157.8778510362082
 10
882.6664122049287
 20
-154.8778510362
 10
885.6664122049396
 20
-154.8778510362
 10
885.6664122049396
 20
-157.8778510362082
 10
990.6664122051306
 20
-157.8778510362082
 10
990.6664122051306
 20
-154.8778510362051
 10
993.6664122051361
 20
-154.8778510362027
 10
993.6664122051361
 20
-157.8778510362082
 10
1104.666412205338
 20
-157.8778510362082
 10
1104.666412205338
 20
-156.0778510362064
 10
1107.666412205343
 20
-156.0778510362064
 10
1107.666412205343
 20
-150.0778510361965
 10
1104.666412205338
 20
-150.0778510361965
 10
1104.666412205338
 20
-148.2778510361913
  0
LWPOLYLINE
  5
C8
330
F1B
100
AcDbEntity
  8
STEP1
100
AcDbPolyline
 90
        6
 70
     1
 43
0.0
 10
1039.89537090379
 20
187.6425195756205
 10
1042.895370903793
 20
187.6425195756205
 10
1039.89537090379
 20
187.6425195756205
 10
1039.89537090379
 20
178.042519575603
 10
1042.895370903793
 20
178.042519575603
 10
1042.895370903793
 20
187.6425195756205
  0
LWPOLYLINE
  5
CA
330
F1B
100
AcDbEntity
  8
STEP3
100
AcDbPolyline
 90
       16
 70
     1
 43
0.0
 10
1810.138759319485
 20
364.8038170449094
 42
-0.41421356237308
 10
1807.138759319482
 20
367.8038170449148
 10
1807.138759319482
 20
380.103817044937
 42
-0.4142135623730951
 10
1808.638759319482
 20
381.6038170449398
 10
1810.138759319485
 20
381.6038170449398
 10
1810.138759319485
 20
375.6038170449289
 10
1813.138759319496
 20
375.6038170449289
 10
1813.138759319496
 20
379.2038170449351
 10
1873.1387593196
 20
379.2038170449351
 10
1873.1387593196
 20
375.6038170449289
 10
1876.138759319607
 20
375.6038170449289
 10
1876.138759319607
 20
381.6038170449398
 10
1877.638759319613
 20
381.6038170449398
 42
-0.4142135623730951
 10
1879.138759319616
 20
380.103817044937
 10
1879.138759319616
 20
367.8038170449148
 42
-0.4142135623730951
 10
1876.138759319607
 20
364.8038170449094
  0
LWPOLYLINE
  5
CB
330
F1B
100
AcDbEntity
  8
STEP3
100
AcDbPolyline
 90
       16
 70
     1
 43
0.0
 10
1013.519435626068
 20
88.46943517589398
 10
1013.519435626068
 20
85.46943517588852
 10
1011.419435626066
 20
85.46943517588852
 10
1011.419435626066
 20
-19.53056482430247
 10
1013.519435626068
 20
-19.53056482430247
 10
1013.519435626068
 20
-22.53056482430793
 10
1016.519435626076
 20
-22.53056482430793
 10
1016.519435626076
 20
-19.53056482430247
 10
1020.119435626078
 20
-19.53056482430247
 10
1020.119435626078
 20
-22.53056482430793
 10
1023.119435626084
 20
-22.53056482430793
 10
1023.119435626084
 20
-19.53056482430247
 10
1025.219435626089
 20
-19.53056482430247
 10
1025.219435626089
 20
85.46943517588852
 10
1023.119435626084
 20
85.46943517588852
 10
1023.119435626084
 20
88.46943517589398
  0
LWPOLYLINE
  5
CC
330
F1B
100
AcDbEntity
  8
STEP3
100
AcDbPolyline
 90
       24
 70
     1
 43
0.0
 10
1177.987524635092
 20
-22.53056482431816
 10
1168.387524635068
 20
-22.53056482431509
 10
1168.387524635079
 20
-19.53056482438092
 10
1122.787524634995
 20
-19.53056482430247
 10
1122.787524634995
 20
-22.53056482429668
 10
1113.187524634971
 20
-22.53056482429668
 10
1113.187524634971
 20
-19.53056482430247
 10
1067.587524634887
 20
-19.53056482429906
 10
1067.587524634895
 20
-22.53056482423358
 10
1057.987524634873
 20
-22.53056482423529
 10
1057.987524634873
 20
-19.53056482430247
 10
1045.987524634852
 20
-19.53056482430247
 10
1045.987524634852
 20
85.46943517595058
 10
1079.587524634917
 20
85.46943517595058
 10
1079.587524634917
 20
88.46943517588204
 10
1089.187524634935
 20
88.46943517588204
 10
1089.187524634935
 20
85.46943517595058
 10
1146.787524635036
 20
85.46943517587147
 10
1146.787524635036
 20
88.46943517588204
 10
1156.387524635046
 20
88.46943517588204
 10
1156.387524635046
 20
85.46943517587147
 10
1189.987524635114
 20
85.46943517595058
 10
1189.987524635114
 20
-19.53056482430247
 10
1177.987524635092
 20
-19.53056482431987
  0
LWPOLYLINE
  5
CD
330
F1B
100
AcDbEntity
  8
STEP3
100
AcDbPolyline
 90
       12
 70
     1
 43
0.0
 10
1570.89873628644
 20
78.61986530775277
 10
1570.89873628644
 20
81.61986530776095
 10
1392.682575402909
 20
81.61986530776095
 10
1392.682575402909
 20
21.61986530765251
 10
1570.89873628644
 20
21.61986530765251
 10
1570.89873628644
 20
24.61986530765455
 10
1564.898736286429
 20
24.61986530765455
 10
1564.898736286429
 20
27.61986530766342
 10
1570.89873628644
 20
27.61986530766342
 10
1570.89873628644
 20
75.61986530774527
 10
1564.898736286429
 20
75.61986530774527
 10
1564.898736286429
 20
78.61986530775277
  0
LWPOLYLINE
  5
CE
330
F1B
100
AcDbEntity
  8
STEP3
100
AcDbPolyline
 90
       20
 70
     1
 43
0.0
 10
1159.296109962049
 20
155.8695000808376
 42
0.4142135623733615
 10
1160.796109962051
 20
154.3695000808325
 10
1169.829703066978
 20
154.3695000808325
 42
-0.1588240727594455
 10
1170.713461303156
 20
154.0815113761584
 10
1178.012672557001
 20
148.7591698368887
 42
0.4142135623730338
 10
1180.108442088509
 20
149.0874228960389
 10
1180.992200324686
 20
150.2994341913672
 10
1176.14415514338
 20
153.8344671360695
 10
1177.911671615729
 20
156.2584897267218
 10
1182.759716797042
 20
152.7234567820178
 10
1183.643475033213
 20
153.9354680773461
 42
0.4142135623732023
 10
1183.315221974066
 20
156.0312376088483
 10
1176.01601072021
 20
161.353579148118
 42
0.1588240727594455
 10
1169.829703066978
 20
163.3695000805296
 10
1160.796109962057
 20
163.3695000808488
 42
0.41421356237274
 10
1159.296109962054
 20
161.8695000808485
 10
1159.296109962054
 20
160.3695000808557
 10
1165.296109962065
 20
160.3695000808434
 10
1165.29610996206
 20
157.3695000808284
 10
1159.296109962051
 20
157.3695000808379
  0
LWPOLYLINE
  5
CF
330
F1B
100
AcDbEntity
  8
STEP3
100
AcDbPolyline
 90
       20
 70
     1
 43
0.0
 10
1159.296109962049
 20
171.5988766301021
 42
0.4142135623733615
 10
1160.796109962051
 20
170.0988766300973
 10
1169.829703066978
 20
170.0988766300973
 42
-0.1588240727594455
 10
1170.713461303156
 20
169.8108879254233
 10
1178.012672557001
 20
164.4885463861533
 42
0.4142135623730338
 10
1180.108442088509
 20
164.8167994453038
 10
1180.992200324686
 20
166.0288107406297
 10
1176.14415514338
 20
169.5638436853337
 10
1177.911671615729
 20
171.9878662759863
 10
1182.759716797042
 20
168.452833331282
 10
1183.643475033213
 20
169.6648446266107
 42
0.4142135623732023
 10
1183.315221974066
 20
171.7606141581132
 10
1176.01601072021
 20
177.0829556973825
 42
0.1588240727594455
 10
1169.829703066978
 20
179.0988766297945
 10
1160.796109962057
 20
179.0988766301137
 42
0.41421356237274
 10
1159.296109962054
 20
177.598876630113
 10
1159.296109962054
 20
176.0988766301199
 10
1165.296109962065
 20
176.0988766301083
 10
1165.29610996206
 20
173.0988766300929
 10
1159.296109962051
 20
173.0988766301028
  0
LWPOLYLINE
  5
D0
330
F1B
100
AcDbEntity
  8
STEP3
100
AcDbPolyline
 90
       30
 70
     1
 43
0.0
 10
978.8187123476191
 20
-191.9599087693051
 10
978.8187123476246
 20
-199.1599087693183
 10
1008.818712347679
 20
-199.1599087693183
 10
1008.818712347679
 20
-202.1599087693242
 10
1018.418712347689
 20
-202.1599087693242
 10
1018.418712347689
 20
-199.1599087693183
 10
1108.118712347863
 20
-199.1599087693183
 10
1108.118712347863
 20
-202.1599087693242
 10
1117.718712347873
 20
-202.1599087693242
 10
1117.718712347873
 20
-199.1599087693183
 10
1160.918712347954
 20
-199.1599087693183
 10
1160.918712347954
 20
-202.1599087693242
 10
1170.518712347967
 20
-202.1599087693242
 10
1170.518712347967
 20
-199.1599087693183
 10
1260.218712348138
 20
-199.1599087693183
 10
1260.218712348138
 20
-202.1599087693242
 10
1269.818712348154
 20
-202.1599087693242
 10
1269.818712348154
 20
-199.1599087693183
 10
1302.818712348217
 20
-199.1599087693183
 10
1302.818712348217
 20
-191.9599087693051
 10
1305.818712348219
 20
-191.9599087693051
 10
1305.818712348219
 20
-199.1599087693183
 10
1308.818712348225
 20
-199.1599087693183
 10
1308.818712348225
 20
-186.2599087692949
 42
0.4142135623730951
 10
1307.318712348222
 20
-184.7599087692922
 10
974.318712347611
 20
-184.7599087692922
 42
0.4142135623730951
 10
972.8187123476082
 20
-186.2599087692949
 10
972.8187123476082
 20
-199.1599087693183
 10
975.818712347619
 20
-199.1599087693183
 10
975.8187123476137
 20
-191.9599087693051
  0
LWPOLYLINE
  5
D1
330
F1B
100
AcDbEntity
  8
STEP3
100
AcDbPolyline
 90
        4
 70
     1
 43
0.0
 10
981.8187123476301
 20
-193.1599087693077
 10
981.8187123476301
 20
-187.7599087692987
 10
1056.818712347766
 20
-187.7599087692977
 10
1056.818712347766
 20
-193.1599087693077
  0
LWPOLYLINE
  5
D2
330
F1B
100
AcDbEntity
  8
STEP3
100
AcDbPolyline
 90
        4
 70
     1
 43
0.0
 10
1062.818712347777
 20
-193.1599087693077
 10
1062.818712347777
 20
-187.7599087692977
 10
1137.818712347914
 20
-187.7599087692977
 10
1137.818712347914
 20
-193.1599087693081
  0
LWPOLYLINE
  5
D3
330
F1B
100
AcDbEntity
  8
STEP3
100
AcDbPolyline
 90
        4
 70
     1
 43
0.0
 10
1143.818712347925
 20
-193.1599087693081
 10
1143.818712347925
 20
-187.7599087692977
 10
1218.818712348061
 20
-187.7599087692977
 10
1218.818712348061
 20
-193.1599087693088
  0
LWPOLYLINE
  5
D4
330
F1B
100
AcDbEntity
  8
STEP3
100
AcDbPolyline
 90
        4
 70
     1
 43
0.0
 10
1224.818712348072
 20
-193.1599087693088
 10
1224.818712348072
 20
-187.7599087692977
 10
1299.818712348208
 20
-187.7599087692977
 10
1299.818712348208
 20
-193.1599087693077
  0
LWPOLYLINE
  5
D5
330
F1B
100
AcDbEntity
  8
STEP3
100
AcDbPolyline
 90
       22
 70
     1
 43
0.0
 10
775.8243747882643
 20
-186.2599087692949
 10
775.8243747882643
 20
-199.159908769319
 10
787.8243747882861
 20
-199.159908769319
 10
787.8243747882861
 20
-202.1599087693245
 10
797.4243747883047
 20
-202.1599087693245
 10
797.4243747883047
 20
-199.159908769319
 10
850.9743747884041
 20
-199.159908769319
 10
850.9743747884041
 20
-202.1599087693245
 10
860.5743747884199
 20
-202.1599087693245
 10
860.5743747884199
 20
-199.159908769319
 10
914.1243747885219
 20
-199.159908769319
 10
914.1243747885219
 20
-202.1599087693245
 10
923.7243747885377
 20
-202.1599087693245
 10
923.7243747885377
 20
-199.159908769319
 10
967.8243747886245
 20
-199.159908769319
 10
967.8243747886245
 20
-186.2599087692949
 42
0.4142135623730951
 10
966.3243747886189
 20
-184.7599087692922
 10
964.824374788608
 20
-184.7599087692922
 10
964.8243747886162
 20
-191.9599087693048
 10
961.8243747886108
 20
-191.9599087693072
 10
961.8243747886108
 20
-184.7599087692922
 10
777.324374788267
 20
-184.7599087692922
 42
0.4142135623730951
  0
LWPOLYLINE
  5
D6
330
F1B
100
AcDbEntity
  8
STEP3
100
AcDbPolyline
 90
        4
 70
     1
 43
0.0
 10
958.824374788608
 20
-187.7599087692953
 10
958.8243747886053
 20
-193.1599087693081
 10
874.8243747884526
 20
-193.1599087693054
 10
874.8243747884526
 20
-187.7599087692953
  0
LWPOLYLINE
  5
D7
330
F1B
100
AcDbEntity
  8
STEP3
100
AcDbPolyline
 90
        4
 70
     1
 43
0.0
 10
784.8243747882807
 20
-187.7599087692953
 10
868.8243747884335
 20
-187.7599087692953
 10
868.8243747884335
 20
-193.1599087693054
 10
784.8243747882807
 20
-193.1599087693054
  0
LWPOLYLINE
  5
D8
330
F1B
100
AcDbEntity
  8
STEP3
100
AcDbPolyline
 90
       18
 70
     1
 43
0.0
 10
1325.911480271973
 20
-199.159908769319
 10
1313.911480271951
 20
-199.159908769319
 10
1313.911480271951
 20
-186.259908769297
 42
-0.4142135623733615
 10
1315.411480271954
 20
-184.7599087692942
 10
1316.911480271957
 20
-184.7599087692949
 10
1316.911480271957
 20
-191.9599087693072
 10
1319.911480271962
 20
-191.9599087693099
 10
1319.911480271962
 20
-184.7599087692922
 10
1372.411480272066
 20
-184.7599087692922
 42
-0.4142135623731506
 10
1373.911480272063
 20
-186.259908769296
 10
1373.911480272063
 20
-199.159908769319
 10
1361.911480272041
 20
-199.159908769319
 10
1361.911480272041
 20
-202.1599087693245
 10
1352.311480272034
 20
-202.1599087693245
 10
1352.311480272034
 20
-199.159908769319
 10
1335.511480271989
 20
-199.159908769319
 10
1335.511480271989
 20
-202.1599087693245
 10
1325.911480271973
 20
-202.1599087693245
  0
LWPOLYLINE
  5
D9
330
F1B
100
AcDbEntity
  8
STEP3
100
AcDbPolyline
 90
        4
 70
     1
 43
0.0
 10
1322.911480271968
 20
-187.7599087692977
 10
1322.911480271968
 20
-193.1599087693081
 10
1364.911480272052
 20
-193.1599087693081
 10
1364.911480272052
 20
-187.7599087692977
  0
LWPOLYLINE
  5
DA
330
F1B
100
AcDbEntity
  8
STEP3
100
AcDbPolyline
 90
       18
 70
     1
 43
0.0
 10
1426.559592115955
 20
-199.159908769319
 10
1438.55959211598
 20
-199.159908769319
 10
1438.55959211598
 20
-186.259908769297
 42
0.4142135623733615
 10
1437.059592115977
 20
-184.7599087692942
 10
1435.559592115972
 20
-184.7599087692949
 10
1435.559592115972
 20
-191.9599087693072
 10
1432.559592115969
 20
-191.9599087693099
 10
1432.559592115969
 20
-184.7599087692922
 10
1380.059592115863
 20
-184.7599087692922
 42
0.4142135623731506
 10
1378.55959211586
 20
-186.259908769296
 10
1378.559592115868
 20
-199.159908769319
 10
1390.559592115885
 20
-199.159908769319
 10
1390.559592115885
 20
-202.1599087693245
 10
1400.1595921159
 20
-202.1599087693245
 10
1400.1595921159
 20
-199.159908769319
 10
1416.959592115942
 20
-199.159908769319
 10
1416.959592115942
 20
-202.1599087693245
 10
1426.559592115955
 20
-202.1599087693245
  0
LWPOLYLINE
  5
DB
330
F1B
100
AcDbEntity
  8
STEP3
100
AcDbPolyline
 90
        4
 70
     1
 43
0.0
 10
1429.559592115961
 20
-187.7599087692977
 10
1429.559592115961
 20
-193.1599087693081
 10
1387.559592115879
 20
-193.1599087693081
 10
1387.559592115879
 20
-187.7599087692977
  0
LWPOLYLINE
  5
DC
330
F1B
100
AcDbEntity
  8
STEP3
100
AcDbPolyline
 90
       21
 70
     1
 43
0.0
 10
1615.453093204184
 20
-199.159908769319
 10
1627.453093204212
 20
-199.1599087693197
 10
1627.453093204212
 20
-202.1599087693245
 10
1637.053093204233
 20
-202.1599087693245
 10
1637.053093204233
 20
-199.159908769319
 10
1731.553093204396
 20
-199.1599087693197
 10
1731.553093204396
 20
-202.1599087693245
 10
1741.153093204415
 20
-202.1599087693245
 10
1741.153093204415
 20
-199.159908769319
 10
1830.853093204586
 20
-199.1599087693197
 10
1830.853093204586
 20
-202.1599087693245
 10
1840.453093204605
 20
-202.1599087693245
 10
1840.453093204605
 20
-199.1599087693197
 10
1873.453093204664
 20
-199.1599087693197
 10
1873.453093204664
 20
-191.9599087693061
 10
1876.453093204673
 20
-191.9599087693061
 10
1876.453093204673
 20
-199.159908769319
 10
1879.45309320467
 20
-199.1599087693197
 10
1879.45309320467
 20
-186.2599087692963
 42
0.4142135623730951
 10
1877.953093204673
 20
-184.7599087692936
 10
1615.453093204184
 20
-184.7599087692936
  0
LWPOLYLINE
  5
DD
330
F1B
100
AcDbEntity
  8
STEP3
100
AcDbPolyline
 90
        4
 70
     1
 43
0.0
 10
1703.45309320435
 20
-193.1599087693088
 10
1624.453093204212
 20
-193.1599087693091
 10
1624.453093204212
 20
-187.759908769299
 10
1703.45309320435
 20
-187.759908769299
  0
LWPOLYLINE
  5
DE
330
F1B
100
AcDbEntity
  8
STEP3
100
AcDbPolyline
 90
        4
 70
     1
 43
0.0
 10
1791.453093204507
 20
-187.759908769299
 10
1870.453093204654
 20
-187.759908769299
 10
1870.453093204654
 20
-193.1599087693088
 10
1791.453093204507
 20
-193.1599087693088
  0
LWPOLYLINE
  5
DF
330
F1B
100
AcDbEntity
  8
STEP3
100
AcDbPolyline
 90
        4
 70
     1
 43
0.0
 10
1709.453093204361
 20
-187.759908769299
 10
1785.453093204504
 20
-187.759908769299
 10
1785.453093204504
 20
-193.1599087693088
 10
1709.453093204361
 20
-193.1599087693088
  0
LWPOLYLINE
  5
E0
330
F1B
100
AcDbEntity
  8
STEP3
100
AcDbPolyline
 90
        6
 70
     1
 43
0.0
 10
1057.987524634595
 20
1.562058503288653
 10
1057.987524634595
 20
71.96943517592604
 42
-0.414213562373117
 10
1059.487524634598
 20
73.46943517592876
 10
1111.296726337066
 20
73.46943517593115
 42
-0.6148881242276097
 10
1112.504882797276
 20
71.08041438445525
 10
1060.695681094808
 20
0.6730377118182105
 42
-0.7242287222991683
  0
LWPOLYLINE
  5
E1
330
F1B
100
AcDbEntity
  8
STEP3
100
AcDbPolyline
 90
        6
 70
     1
 43
0.0
 10
1175.27936817461
 20
0.6730377118182105
 10
1123.470166472141
 20
71.08041438445525
 42
-0.6148881242276199
 10
1124.678322932345
 20
73.46943517593115
 10
1176.487524634811
 20
73.46943517592876
 42
-0.4142135623731061
 10
1177.987524634819
 20
71.96943517592604
 10
1177.987524634814
 20
1.562058503289676
 42
-0.7242287222991692
  0
LWPOLYLINE
  5
E2
330
F1B
100
AcDbEntity
  8
STEP3
100
AcDbPolyline
 90
        6
 70
     1
 43
0.0
 10
1065.074549347333
 20
-7.530564824281327
 42
-0.6148881242276083
 10
1063.866392887129
 20
-5.141544032807473
 10
1116.779368174503
 20
66.76583263983332
 42
-0.5057119906690854
 10
1119.195681094914
 20
66.76583263983332
 10
1172.108656382285
 20
-5.14154403280645
 42
-0.6148881242276137
 10
1170.900499922081
 20
-7.530564824280645
  0
LWPOLYLINE
  5
E3
330
F1B
100
AcDbEntity
  8
STEP3
100
AcDbPolyline
 90
        4
 70
     1
 43
0.0
 10
1296.533689370437
 20
-71.15872728936437
 10
1293.533689370432
 20
-71.15872728936437
 10
1293.533689370432
 20
-68.15872728935892
 10
1296.533689370437
 20
-68.15872728935892
  0
LWPOLYLINE
  5
E4
330
F1B
100
AcDbEntity
  8
STEP3
100
AcDbPolyline
 90
        4
 70
     1
 43
0.0
 10
1296.533689370437
 20
-90.09622761994377
 10
1296.533689370437
 20
-93.09622761994921
 10
1293.533689370432
 20
-93.09622761994921
 10
1293.533689370432
 20
-90.09622761994377
  0
LWPOLYLINE
  5
E5
330
F1B
100
AcDbEntity
  8
STEP3
100
AcDbPolyline
 90
        8
 70
     1
 43
0.0
 10
1329.855232380659
 20
-76.19995691644044
 42
0.2334813525000154
 10
1326.927711842498
 20
-79.12747745459864
 10
1298.033689370432
 20
-79.12747745457614
 42
-0.41421356237308
 10
1296.533689370429
 20
-77.62747745457204
 10
1296.533689370434
 20
-73.90136797649359
 42
0.3681235412272778
 10
1299.461022871512
 20
-68.85329692595838
 10
1327.746102804756
 20
-56.28408074387357
 42
-0.5427253494384658
 10
1329.855232380659
 20
-57.65483278555553
  0
LWPOLYLINE
  5
E6
330
F1B
100
AcDbEntity
  8
STEP3
100
AcDbPolyline
 90
        8
 70
     1
 43
0.0
 10
1329.855232380653
 20
-85.05499799278039
 10
1329.855232380659
 20
-103.9225466127369
 42
-0.5457685637510218
 10
1327.733256912865
 20
-105.2875178642576
 10
1299.460506031676
 20
-92.40449381857592
 42
0.3683053951029352
 10
1296.533689370426
 20
-87.35358693281217
 10
1296.533689370429
 20
-83.62747745458296
 42
-0.4142135623731191
 10
1298.033689370429
 20
-82.12747745458193
 10
1326.927711842484
 20
-82.12747745460513
 42
0.2334813525009208
  0
LWPOLYLINE
  5
E7
330
F1B
100
AcDbEntity
  8
STEP3
100
AcDbPolyline
 90
        6
 70
     1
 43
0.0
 10
1347.680441633545
 20
-72.83705024689822
 42
0.1496232712134433
 10
1344.836649079443
 20
-79.12747745461911
 10
1335.782752918831
 20
-79.12747745461127
 42
0.2334813525004741
 10
1332.855232380667
 20
-76.19995691644248
 10
1332.855232380667
 20
-59.96456757355701
 42
-0.6914894304123333
 10
1335.48132983135
 20
-58.97365661308777
  0
LWPOLYLINE
  5
E8
330
F1B
100
AcDbEntity
  8
STEP3
100
AcDbPolyline
 90
        6
 70
     1
 43
0.0
 10
1347.680441633542
 20
-88.41790466236863
 10
1335.48132983135
 20
-102.2812982961781
 42
-0.6914894304123301
 10
1332.855232380667
 20
-101.2903873357098
 10
1332.855232380667
 20
-85.05499799278039
 42
0.2334813525002164
 10
1335.782752918831
 20
-82.12747745461639
 10
1344.836649079438
 20
-82.12747745462456
 42
0.1496232712138913
  0
LWPOLYLINE
  5
E9
330
F1B
100
AcDbEntity
  8
STEP3
100
AcDbPolyline
 90
        6
 70
     1
 43
0.0
 10
1356.533689370546
 20
-68.83465117881519
 42
0.1496232712134337
 10
1349.932636534909
 20
-70.85522832596041
 10
1335.826903641535
 20
-54.82510000472496
 42
-0.5061608136972354
 10
1336.343871516318
 20
-52.46343700257444
 10
1354.424559794644
 20
-44.42880955136831
 42
-0.5427253494385606
 10
1356.533689370546
 20
-45.79956159305129
  0
LWPOLYLINE
  5
EA
330
F1B
100
AcDbEntity
  8
STEP3
100
AcDbPolyline
 90
        6
 70
     1
 43
0.0
 10
1356.533689370546
 20
-92.42030373044689
 10
1356.533689370546
 20
-116.0790999084098
 42
-0.5457685637510249
 10
1354.41171390276
 20
-117.4440711599312
 10
1336.067523993345
 20
-109.0851873465159
 42
-0.5032150203531401
 10
1335.563402010451
 20
-106.7293051345266
 10
1349.932636534909
 20
-90.39972658330169
 42
0.1496232712134295
  0
LWPOLYLINE
  5
EB
330
F1B
100
AcDbEntity
  8
STEP3
100
AcDbPolyline
 90
       18
 70
     1
 43
0.0
 10
1374.533689370579
 20
-40.6674774545869
 42
0.4142135623730284
 10
1373.033689370576
 20
-39.16747745458417
 10
1371.53368937057
 20
-39.16747745458315
 10
1371.53368937057
 20
-80.62747745465662
 10
1368.533689370568
 20
-80.62747745465662
 10
1368.533689370565
 20
-39.16747745458315
 10
1360.40451407312
 20
-39.16747745458417
 42
0.1049243520110042
 10
1357.480692108814
 20
-39.78786765452219
 10
1297.957923984611
 20
-66.23836884012416
 42
0.4691196154775031
 10
1291.136575053395
 20
-67.40872728936233
 42
0.4691196154781966
 10
1293.533689370432
 20
-73.90136797649154
 10
1293.533689370445
 20
-87.35358693281625
 42
0.4691196154781016
 10
1291.136575053403
 20
-93.84622761994307
 42
0.469119615477929
 10
1297.957923984614
 20
-95.01658606918841
 10
1363.055034271138
 20
-124.6793394620214
 42
0.107298576474955
 10
1366.040516516524
 20
-125.3274774547364
 10
1373.033689370576
 20
-125.3274774547367
 42
0.4142135623731094
 10
1374.533689370579
 20
-123.827477454734
  0
LWPOLYLINE
  5
EC
330
F1B
100
AcDbEntity
  8
STEP3
100
AcDbPolyline
 90
       16
 70
     1
 43
0.0
 10
993.0623997686097
 20
88.46943517589398
 10
993.0623997686097
 20
85.46943517588852
 10
990.9623997686075
 20
85.46943517588852
 10
990.9623997686075
 20
-19.53056482430247
 10
993.0623997686097
 20
-19.53056482430247
 10
993.0623997686097
 20
-22.53056482430793
 10
996.0623997686152
 20
-22.53056482430793
 10
996.0623997686152
 20
-19.53056482430247
 10
999.6623997686201
 20
-19.53056482430247
 10
999.6623997686201
 20
-22.53056482430793
 10
1002.662399768625
 20
-22.53056482430793
 10
1002.662399768625
 20
-19.53056482430247
 10
1004.76239976863
 20
-19.53056482430247
 10
1004.76239976863
 20
85.46943517588852
 10
1002.662399768625
 20
85.46943517588852
 10
1002.662399768625
 20
88.46943517589398
  0
LWPOLYLINE
  5
ED
330
F1B
100
AcDbEntity
  8
STEP3
100
AcDbPolyline
 90
       16
 70
     1
 43
0.0
 10
972.6053639111487
 20
88.46943517589398
 10
972.6053639111487
 20
85.46943517588852
 10
970.5053639111465
 20
85.46943517588852
 10
970.5053639111465
 20
-19.53056482430247
 10
972.6053639111487
 20
-19.53056482430247
 10
972.6053639111487
 20
-22.53056482430793
 10
975.6053639111541
 20
-22.53056482430793
 10
975.6053639111541
 20
-19.53056482430247
 10
979.2053639111536
 20
-19.53056482430247
 10
979.2053639111536
 20
-22.53056482430793
 10
982.205363911159
 20
-22.53056482430793
 10
982.205363911159
 20
-19.53056482430247
 10
984.3053639111749
 20
-19.53056482430247
 10
984.3053639111749
 20
85.46943517588852
 10
982.205363911159
 20
85.46943517588852
 10
982.205363911159
 20
88.46943517589398
  0
LWPOLYLINE
  5
EE
330
F1B
100
AcDbEntity
  8
STEP3
100
AcDbPolyline
 90
       16
 70
     1
 43
0.0
 10
952.1483280536903
 20
88.46943517589398
 10
952.1483280536903
 20
85.46943517588852
 10
950.04832805368
 20
85.46943517588852
 10
950.04832805368
 20
-19.53056482430247
 10
952.1483280536903
 20
-19.53056482430247
 10
952.1483280536903
 20
-22.53056482430793
 10
955.1483280536958
 20
-22.53056482430793
 10
955.1483280536958
 20
-19.53056482430247
 10
958.748328053698
 20
-19.53056482430247
 10
958.748328053698
 20
-22.53056482430793
 10
961.7483280537035
 20
-22.53056482430793
 10
961.7483280537035
 20
-19.53056482430247
 10
963.8483280537112
 20
-19.53056482430247
 10
963.8483280537112
 20
85.46943517588852
 10
961.7483280537035
 20
85.46943517588852
 10
961.7483280537035
 20
88.46943517589398
  0
LWPOLYLINE
  5
EF
330
F1B
100
AcDbEntity
  8
STEP3
100
AcDbPolyline
 90
       16
 70
     1
 43
0.0
 10
922.2700850599794
 20
88.46943517589398
 10
922.2700850599794
 20
85.46943517588852
 10
920.1700850599772
 20
85.46943517588852
 10
920.1700850599772
 20
-19.53056482430247
 10
922.2700850599794
 20
-19.53056482430247
 10
922.2700850599794
 20
-22.53056482430793
 10
925.2700850599849
 20
-22.53056482430793
 10
925.2700850599849
 20
-19.53056482430247
 10
928.8700850599871
 20
-19.53056482430247
 10
928.8700850599871
 20
-22.53056482430793
 10
931.8700850599926
 20
-22.53056482430793
 10
931.8700850599926
 20
-19.53056482430247
 10
933.970085060003
 20
-19.53056482430247
 10
933.970085060003
 20
85.46943517588852
 10
931.8700850599926
 20
85.46943517588852
 10
931.8700850599926
 20
88.46943517589398
  0
LWPOLYLINE
  5
F0
330
F1B
100
AcDbEntity
  8
STEP3
100
AcDbPolyline
 90
       16
 70
     1
 43
0.0
 10
901.8130492025184
 20
88.46943517589398
 10
901.8130492025184
 20
85.46943517588852
 10
899.7130492025162
 20
85.46943517588852
 10
899.7130492025162
 20
-19.53056482430247
 10
901.8130492025184
 20
-19.53056482430247
 10
901.8130492025184
 20
-22.53056482430793
 10
904.8130492025238
 20
-22.53056482430793
 10
904.8130492025238
 20
-19.53056482430247
 10
908.4130492025261
 20
-19.53056482430247
 10
908.4130492025261
 20
-22.53056482430793
 10
911.4130492025342
 20
-22.53056482430793
 10
911.4130492025342
 20
-19.53056482430247
 10
913.5130492025419
 20
-19.53056482430247
 10
913.5130492025419
 20
85.46943517588852
 10
911.4130492025342
 20
85.46943517588852
 10
911.4130492025342
 20
88.46943517589398
  0
LWPOLYLINE
  5
F1
330
F1B
100
AcDbEntity
  8
STEP3
100
AcDbPolyline
 90
       16
 70
     1
 43
0.0
 10
881.3560133450573
 20
88.46943517589398
 10
881.3560133450573
 20
85.46943517588852
 10
879.2560133450525
 20
85.46943517588852
 10
879.2560133450525
 20
-19.53056482430247
 10
881.3560133450573
 20
-19.53056482430247
 10
881.3560133450573
 20
-22.53056482430793
 10
884.3560133450628
 20
-22.53056482430793
 10
884.3560133450628
 20
-19.53056482430247
 10
887.9560133450677
 20
-19.53056482430247
 10
887.9560133450677
 20
-22.53056482430793
 10
890.9560133450732
 20
-22.53056482430793
 10
890.9560133450732
 20
-19.53056482430247
 10
893.0560133450754
 20
-19.53056482430247
 10
893.0560133450754
 20
85.46943517588852
 10
890.9560133450732
 20
85.46943517588852
 10
890.9560133450732
 20
88.46943517589398
  0
LWPOLYLINE
  5
F2
330
F1B
100
AcDbEntity
  8
STEP3
100
AcDbPolyline
 90
       16
 70
     1
 43
0.0
 10
860.898977487599
 20
88.46943517589398
 10
860.898977487599
 20
85.46943517588852
 10
858.7989774875968
 20
85.46943517588852
 10
858.7989774875968
 20
-19.53056482430247
 10
860.898977487599
 20
-19.53056482430247
 10
860.898977487599
 20
-22.53056482430793
 10
863.8989774876044
 20
-22.53056482430793
 10
863.8989774876044
 20
-19.53056482430247
 10
867.4989774876067
 20
-19.53056482430247
 10
867.4989774876067
 20
-22.53056482430793
 10
870.4989774876121
 20
-22.53056482430793
 10
870.4989774876121
 20
-19.53056482430247
 10
872.5989774876225
 20
-19.53056482430247
 10
872.5989774876225
 20
85.46943517588852
 10
870.4989774876121
 20
85.46943517588852
 10
870.4989774876121
 20
88.46943517589398
  0
LWPOLYLINE
  5
F3
330
F1B
100
AcDbEntity
  8
STEP3
100
AcDbPolyline
 90
       16
 70
     1
 43
0.0
 10
834.4968922072094
 20
88.46943517589398
 10
834.4968922072094
 20
85.46943517588852
 10
832.3968922072099
 20
85.46943517588852
 10
832.3968922072099
 20
-19.53056482430247
 10
834.4968922072094
 20
-19.53056482430247
 10
834.4968922072094
 20
-22.53056482430793
 10
837.4968922072149
 20
-22.53056482430793
 10
837.4968922072149
 20
-19.53056482430247
 10
841.0968922072196
 20
-19.53056482430247
 10
841.0968922072196
 20
-22.53056482430793
 10
844.0968922072253
 20
-22.53056482430793
 10
844.0968922072253
 20
-19.53056482430247
 10
846.1968922072328
 20
-19.53056482430247
 10
846.1968922072328
 20
85.46943517588852
 10
844.0968922072253
 20
85.46943517588852
 10
844.0968922072253
 20
88.46943517589398
  0
LWPOLYLINE
  5
F4
330
F1B
100
AcDbEntity
  8
STEP3
100
AcDbPolyline
 90
       16
 70
     1
 43
0.0
 10
814.0398563497456
 20
88.46943517589398
 10
814.0398563497456
 20
85.46943517588852
 10
811.9398563497433
 20
85.46943517588852
 10
811.9398563497433
 20
-19.53056482430247
 10
814.0398563497456
 20
-19.53056482430247
 10
814.0398563497456
 20
-22.53056482430793
 10
817.0398563497565
 20
-22.53056482430793
 10
817.0398563497565
 20
-19.53056482430247
 10
820.6398563497559
 20
-19.53056482430247
 10
820.6398563497559
 20
-22.53056482430793
 10
823.6398563497614
 20
-22.53056482430793
 10
823.6398563497614
 20
-19.53056482430247
 10
825.7398563497744
 20
-19.53056482430247
 10
825.7398563497744
 20
85.46943517588852
 10
823.6398563497614
 20
85.46943517588852
 10
823.6398563497614
 20
88.46943517589398
  0
LWPOLYLINE
  5
F5
330
F1B
100
AcDbEntity
  8
STEP3
100
AcDbPolyline
 90
       16
 70
     1
 43
0.0
 10
793.5828204922899
 20
88.46943517589398
 10
793.5828204922899
 20
85.46943517588852
 10
791.4828204922851
 20
85.46943517588852
 10
791.4828204922851
 20
-19.53056482430247
 10
793.5828204922899
 20
-19.53056482430247
 10
793.5828204922899
 20
-22.53056482430793
 10
796.5828204922955
 20
-22.53056482430793
 10
796.5828204922955
 20
-19.53056482430247
 10
800.1828204922976
 20
-19.53056482430247
 10
800.1828204922976
 20
-22.53056482430793
 10
803.182820492303
 20
-22.53056482430793
 10
803.182820492303
 20
-19.53056482430247
 10
805.2828204923107
 20
-19.53056482430247
 10
805.2828204923107
 20
85.46943517588852
 10
803.182820492303
 20
85.46943517588852
 10
803.182820492303
 20
88.46943517589398
  0
LWPOLYLINE
  5
F6
330
F1B
100
AcDbEntity
  8
STEP3
100
AcDbPolyline
 90
       16
 70
     1
 43
0.0
 10
773.1257846348262
 20
88.46943517589398
 10
773.1257846348262
 20
85.46943517588852
 10
771.025784634824
 20
85.46943517588852
 10
771.025784634824
 20
-19.53056482430247
 10
773.1257846348262
 20
-19.53056482430247
 10
773.1257846348262
 20
-22.53056482430793
 10
776.1257846348317
 20
-22.53056482430793
 10
776.1257846348317
 20
-19.53056482430247
 10
779.7257846348366
 20
-19.53056482430247
 10
779.7257846348366
 20
-22.53056482430793
 10
782.7257846348421
 20
-22.53056482430793
 10
782.7257846348421
 20
-19.53056482430247
 10
784.8257846348524
 20
-19.53056482430247
 10
784.8257846348524
 20
85.46943517588852
 10
782.7257846348421
 20
85.46943517588852
 10
782.7257846348421
 20
88.46943517589398
  0
LWPOLYLINE
  5
F7
330
F1B
100
AcDbEntity
  8
STEP3
100
AcDbPolyline
 90
       16
 70
     1
 43
0.0
 10
1954.138759319752
 20
364.8038170449094
 42
0.41421356237308
 10
1957.138759319757
 20
367.8038170449148
 10
1957.138759319757
 20
380.103817044937
 42
0.4142135623730951
 10
1955.63875931976
 20
381.6038170449398
 10
1954.138759319752
 20
381.6038170449398
 10
1954.138759319758
 20
375.6038170449289
 10
1951.138759319744
 20
375.6038170449289
 10
1951.138759319744
 20
379.2038170449351
 10
1891.138759319638
 20
379.2038170449351
 10
1891.138759319638
 20
375.6038170449289
 10
1888.138759319632
 20
375.6038170449289
 10
1888.138759319632
 20
381.6038170449398
 10
1886.638759319627
 20
381.6038170449398
 42
0.4142135623730951
 10
1885.138759319624
 20
380.103817044937
 10
1885.138759319624
 20
367.8038170449148
 42
0.4142135623730951
 10
1888.138759319632
 20
364.8038170449094
  0
LWPOLYLINE
  5
F8
330
F1B
100
AcDbEntity
  8
STEP3
100
AcDbPolyline
 90
        4
 70
     1
 43
0.0
 10
1273.410871451686
 20
-71.15872728936437
 10
1276.410871451691
 20
-71.15872728936437
 10
1276.410871451691
 20
-68.15872728935892
 10
1273.410871451686
 20
-68.15872728935892
  0
LWPOLYLINE
  5
F9
330
F1B
100
AcDbEntity
  8
STEP3
100
AcDbPolyline
 90
        4
 70
     1
 43
0.0
 10
1273.410871451686
 20
-90.09622761994377
 10
1273.410871451686
 20
-93.09622761994921
 10
1276.410871451691
 20
-93.09622761994921
 10
1276.410871451691
 20
-90.09622761994377
  0
LWPOLYLINE
  5
FA
330
F1B
100
AcDbEntity
  8
STEP3
100
AcDbPolyline
 90
        8
 70
     1
 43
0.0
 10
1240.08932844147
 20
-76.19995691644044
 42
-0.2334813525000154
 10
1243.01684897963
 20
-79.12747745459864
 10
1271.910871451691
 20
-79.12747745457614
 42
0.41421356237308
 10
1273.410871451691
 20
-77.62747745457204
 10
1273.410871451691
 20
-73.90136797649359
 42
-0.3681235412272778
 10
1270.483537950608
 20
-68.85329692595838
 10
1242.198458017367
 20
-56.28408074387357
 42
0.5427253494384658
 10
1240.08932844147
 20
-57.65483278555553
  0
LWPOLYLINE
  5
FB
330
F1B
100
AcDbEntity
  8
STEP3
100
AcDbPolyline
 90
        8
 70
     1
 43
0.0
 10
1240.089328441475
 20
-85.05499799278039
 10
1240.08932844147
 20
-103.9225466127369
 42
0.5457685637510218
 10
1242.211303909261
 20
-105.2875178642576
 10
1270.484054790449
 20
-92.40449381857592
 42
-0.3683053951029352
 10
1273.410871451702
 20
-87.35358693281217
 10
1273.410871451697
 20
-83.62747745458296
 42
0.4142135623731191
 10
1271.910871451694
 20
-82.12747745458193
 10
1243.016848979639
 20
-82.12747745460513
 42
-0.2334813525009208
  0
LWPOLYLINE
  5
FC
330
F1B
100
AcDbEntity
  8
STEP3
100
AcDbPolyline
 90
        6
 70
     1
 43
0.0
 10
1222.26411918858
 20
-72.83705024689822
 42
-0.1496232712134433
 10
1225.10791174268
 20
-79.12747745461911
 10
1234.161807903292
 20
-79.12747745461127
 42
-0.2334813525004741
 10
1237.089328441456
 20
-76.19995691644248
 10
1237.089328441459
 20
-59.96456757355701
 42
0.6914894304123333
 10
1234.463230990773
 20
-58.97365661308777
  0
LWPOLYLINE
  5
FD
330
F1B
100
AcDbEntity
  8
STEP3
100
AcDbPolyline
 90
        6
 70
     1
 43
0.0
 10
1222.264119188583
 20
-88.41790466236863
 10
1234.463230990773
 20
-102.2812982961781
 42
0.6914894304123301
 10
1237.089328441459
 20
-101.2903873357098
 10
1237.089328441459
 20
-85.05499799278039
 42
-0.2334813525002164
 10
1234.161807903295
 20
-82.12747745461639
 10
1225.107911742685
 20
-82.12747745462456
 42
-0.1496232712138913
  0
LWPOLYLINE
  5
FE
330
F1B
100
AcDbEntity
  8
STEP3
100
AcDbPolyline
 90
        6
 70
     1
 43
0.0
 10
1213.410871451582
 20
-68.83465117881519
 42
-0.1496232712134337
 10
1220.011924287211
 20
-70.85522832596041
 10
1234.117657180591
 20
-54.82510000472496
 42
0.5061608136972354
 10
1233.600689305805
 20
-52.46343700257444
 10
1215.520001027476
 20
-44.42880955136831
 42
0.5427253494385606
 10
1213.410871451582
 20
-45.79956159305129
  0
LWPOLYLINE
  5
FF
330
F1B
100
AcDbEntity
  8
STEP3
100
AcDbPolyline
 90
        6
 70
     1
 43
0.0
 10
1213.410871451582
 20
-92.42030373044689
 10
1213.410871451577
 20
-116.0790999084098
 42
0.5457685637510249
 10
1215.532846919368
 20
-117.4440711599312
 10
1233.87703682878
 20
-109.0851873465159
 42
0.5032150203531401
 10
1234.381158811678
 20
-106.7293051345266
 10
1220.011924287211
 20
-90.39972658330169
 42
-0.1496232712134295
  0
LWPOLYLINE
  5
100
330
F1B
100
AcDbEntity
  8
STEP3
100
AcDbPolyline
 90
       18
 70
     1
 43
0.0
 10
1195.410871451544
 20
-40.6674774545869
 42
-0.4142135623730284
 10
1196.910871451547
 20
-39.16747745458417
 10
1198.41087145155
 20
-39.16747745458315
 10
1198.41087145155
 20
-80.62747745465662
 10
1201.410871451555
 20
-80.62747745465662
 10
1201.410871451561
 20
-39.16747745458315
 10
1209.540046749002
 20
-39.16747745458417
 42
-0.1049243520110042
 10
1212.463868713306
 20
-39.78786765452219
 10
1271.986636837509
 20
-66.23836884012416
 42
-0.4691196154774825
 10
1278.807985768728
 20
-67.40872728936643
 42
-0.4691196154774023
 10
1276.410871451691
 20
-73.90136797649154
 10
1276.410871451681
 20
-87.35358693281625
 42
-0.4691196154781016
 10
1278.807985768728
 20
-93.84622761994307
 42
-0.4691196154777588
 10
1271.986636837509
 20
-95.01658606918841
 10
1206.889526550987
 20
-124.6793394620214
 42
-0.107298576474955
 10
1203.904044305599
 20
-125.3274774547364
 10
1196.910871451547
 20
-125.3274774547367
 42
-0.4142135623731094
 10
1195.410871451544
 20
-123.827477454734
  0
LWPOLYLINE
  5
101
330
F1B
100
AcDbEntity
  8
STEP3
100
AcDbPolyline
 90
        4
 70
     1
 43
0.0
 10
1793.300314959892
 20
308.2894488447287
 42
0.4142135623730951
 10
1784.300314959875
 20
299.2894488447123
 42
0.4142135623730951
 10
1793.300314959892
 20
290.2894488446959
 42
0.4142135623730951
 10
1802.300314959908
 20
299.2894488447123
 42
0.4142135623730951
  0
LWPOLYLINE
  5
102
330
F1B
100
AcDbEntity
  8
STEP3
100
AcDbPolyline
 90
        4
 70
     1
 43
0.0
 10
1793.300314959892
 20
302.5294488447179
 42
0.4142135623730951
 10
1790.060314959883
 20
299.2894488447123
 42
0.4142135623730951
 10
1793.300314959892
 20
296.0494488447064
 42
0.4142135623730951
 10
1796.540314959897
 20
299.2894488447123
 42
0.4142135623730951
  0
LWPOLYLINE
  5
103
330
F1B
100
AcDbEntity
  8
STEP3
100
AcDbPolyline
 90
        4
 70
     1
 43
0.0
 10
1793.300314959892
 20
259.3386971826692
 42
0.4142135623730951
 10
1784.300314959875
 20
250.3386971826527
 42
0.4142135623730951
 10
1793.300314959892
 20
241.3386971826363
 42
0.4142135623730951
 10
1802.300314959908
 20
250.3386971826527
 42
0.4142135623730951
  0
LWPOLYLINE
  5
104
330
F1B
100
AcDbEntity
  8
STEP3
100
AcDbPolyline
 90
        4
 70
     1
 43
0.0
 10
1793.300314959892
 20
253.5786971826587
 42
0.4142135623730951
 10
1790.060314959883
 20
250.3386971826527
 42
0.4142135623730951
 10
1793.300314959892
 20
247.0986971826471
 42
0.4142135623730951
 10
1796.540314959897
 20
250.3386971826527
 42
0.4142135623730951
  0
LWPOLYLINE
  5
105
330
F1B
100
AcDbEntity
  8
STEP3
100
AcDbPolyline
 90
       16
 70
     1
 43
0.0
 10
1810.138759319485
 20
342.0326548705839
 42
-0.41421356237308
 10
1807.138759319482
 20
345.0326548705894
 10
1807.138759319482
 20
357.3326548706119
 42
-0.4142135623730951
 10
1808.638759319482
 20
358.8326548706119
 10
1810.138759319485
 20
358.8326548706119
 10
1810.138759319485
 20
352.8326548706037
 10
1813.138759319496
 20
352.8326548706037
 10
1813.138759319496
 20
356.43265487061
 10
1873.1387593196
 20
356.43265487061
 10
1873.1387593196
 20
352.8326548706037
 10
1876.138759319607
 20
352.8326548706037
 10
1876.138759319607
 20
358.8326548706119
 10
1877.638759319613
 20
358.8326548706119
 42
-0.4142135623730951
 10
1879.138759319616
 20
357.3326548706119
 10
1879.138759319616
 20
345.0326548705894
 42
-0.4142135623730951
 10
1876.138759319607
 20
342.0326548705839
  0
LWPOLYLINE
  5
106
330
F1B
100
AcDbEntity
  8
STEP3
100
AcDbPolyline
 90
       16
 70
     1
 43
0.0
 10
1954.138759319752
 20
342.0326548705839
 42
0.41421356237308
 10
1957.138759319757
 20
345.0326548705894
 10
1957.138759319757
 20
357.3326548706119
 42
0.4142135623730951
 10
1955.63875931976
 20
358.8326548706119
 10
1954.138759319752
 20
358.8326548706119
 10
1954.138759319758
 20
352.8326548706037
 10
1951.138759319744
 20
352.8326548706037
 10
1951.138759319744
 20
356.43265487061
 10
1891.138759319638
 20
356.43265487061
 10
1891.138759319638
 20
352.8326548706037
 10
1888.138759319632
 20
352.8326548706037
 10
1888.138759319632
 20
358.8326548706119
 10
1886.638759319627
 20
358.8326548706119
 42
0.4142135623730951
 10
1885.138759319624
 20
357.3326548706119
 10
1885.138759319624
 20
345.0326548705894
 42
0.4142135623730951
 10
1888.138759319632
 20
342.0326548705839
  0
LWPOLYLINE
  5
107
330
F1B
100
AcDbEntity
  8
STEP3
100
AcDbPolyline
 90
       16
 70
     1
 43
0.0
 10
1810.138759319485
 20
319.261492696256
 42
-0.41421356237308
 10
1807.138759319482
 20
322.2614926962615
 10
1807.138759319482
 20
334.5614926962837
 42
-0.4142135623730951
 10
1808.638759319482
 20
336.0614926962865
 10
1810.138759319485
 20
336.0614926962865
 10
1810.138759319485
 20
330.0614926962755
 10
1813.138759319496
 20
330.0614926962755
 10
1813.138759319496
 20
333.6614926962822
 10
1873.1387593196
 20
333.6614926962822
 10
1873.1387593196
 20
330.0614926962755
 10
1876.138759319607
 20
330.0614926962755
 10
1876.138759319607
 20
336.0614926962865
 10
1877.638759319613
 20
336.0614926962865
 42
-0.4142135623730951
 10
1879.138759319616
 20
334.5614926962837
 10
1879.138759319616
 20
322.2614926962615
 42
-0.4142135623730951
 10
1876.138759319607
 20
319.261492696256
  0
LWPOLYLINE
  5
108
330
F1B
100
AcDbEntity
  8
STEP3
100
AcDbPolyline
 90
       16
 70
     1
 43
0.0
 10
1954.138759319752
 20
319.261492696256
 42
0.41421356237308
 10
1957.138759319757
 20
322.2614926962615
 10
1957.138759319757
 20
334.5614926962837
 42
0.4142135623730951
 10
1955.63875931976
 20
336.0614926962865
 10
1954.138759319752
 20
336.0614926962865
 10
1954.138759319758
 20
330.0614926962755
 10
1951.138759319744
 20
330.0614926962755
 10
1951.138759319744
 20
333.6614926962822
 10
1891.138759319638
 20
333.6614926962822
 10
1891.138759319638
 20
330.0614926962755
 10
1888.138759319632
 20
330.0614926962755
 10
1888.138759319632
 20
336.0614926962865
 10
1886.638759319627
 20
336.0614926962865
 42
0.4142135623730951
 10
1885.138759319624
 20
334.5614926962837
 10
1885.138759319624
 20
322.2614926962615
 42
0.4142135623730951
 10
1888.138759319632
 20
319.261492696256
  0
LWPOLYLINE
  5
109
330
F1B
100
AcDbEntity
  8
STEP3
100
AcDbPolyline
 90
       16
 70
     1
 43
0.0
 10
1810.138759319485
 20
296.4903305219282
 42
-0.41421356237308
 10
1807.138759319482
 20
299.4903305219336
 10
1807.138759319482
 20
311.7903305219583
 42
-0.4142135623730951
 10
1808.638759319482
 20
313.290330521961
 10
1810.138759319485
 20
313.2903305219586
 10
1810.138759319485
 20
307.2903305219477
 10
1813.138759319496
 20
307.2903305219501
 10
1813.138759319496
 20
310.8903305219567
 10
1873.1387593196
 20
310.8903305219567
 10
1873.1387593196
 20
307.2903305219477
 10
1876.138759319607
 20
307.2903305219477
 10
1876.138759319607
 20
313.2903305219586
 10
1877.638759319613
 20
313.290330521961
 42
-0.4142135623730951
 10
1879.138759319616
 20
311.7903305219583
 10
1879.138759319616
 20
299.4903305219336
 42
-0.4142135623730951
 10
1876.138759319607
 20
296.4903305219282
  0
LWPOLYLINE
  5
10A
330
F1B
100
AcDbEntity
  8
STEP3
100
AcDbPolyline
 90
       16
 70
     1
 43
0.0
 10
1954.138759319752
 20
296.4903305219282
 42
0.41421356237308
 10
1957.138759319757
 20
299.4903305219336
 10
1957.138759319757
 20
311.7903305219583
 42
0.4142135623730951
 10
1955.63875931976
 20
313.290330521961
 10
1954.138759319752
 20
313.2903305219586
 10
1954.138759319758
 20
307.2903305219477
 10
1951.138759319744
 20
307.2903305219501
 10
1951.138759319744
 20
310.8903305219567
 10
1891.138759319638
 20
310.8903305219567
 10
1891.138759319638
 20
307.2903305219477
 10
1888.138759319632
 20
307.2903305219477
 10
1888.138759319632
 20
313.2903305219586
 10
1886.638759319627
 20
313.290330521961
 42
0.4142135623730951
 10
1885.138759319624
 20
311.7903305219583
 10
1885.138759319624
 20
299.4903305219336
 42
0.4142135623730951
 10
1888.138759319632
 20
296.4903305219282
  0
LWPOLYLINE
  5
10B
330
F1B
100
AcDbEntity
  8
STEP3
100
AcDbPolyline
 90
       16
 70
     1
 43
0.0
 10
1810.138759319485
 20
273.7191683476031
 42
-0.41421356237308
 10
1807.138759319482
 20
276.7191683476085
 10
1807.138759319482
 20
289.0191683476307
 42
-0.4142135623730951
 10
1808.638759319482
 20
290.5191683476335
 10
1810.138759319485
 20
290.5191683476335
 10
1810.138759319485
 20
284.5191683476226
 10
1813.138759319496
 20
284.5191683476226
 10
1813.138759319496
 20
288.1191683476292
 10
1873.1387593196
 20
288.1191683476292
 10
1873.1387593196
 20
284.5191683476226
 10
1876.138759319607
 20
284.5191683476226
 10
1876.138759319607
 20
290.5191683476335
 10
1877.638759319613
 20
290.5191683476335
 42
-0.4142135623730951
 10
1879.138759319616
 20
289.0191683476307
 10
1879.138759319616
 20
276.7191683476085
 42
-0.4142135623730951
 10
1876.138759319607
 20
273.7191683476031
  0
LWPOLYLINE
  5
10C
330
F1B
100
AcDbEntity
  8
STEP3
100
AcDbPolyline
 90
       16
 70
     1
 43
0.0
 10
1954.138759319752
 20
273.7191683476031
 42
0.41421356237308
 10
1957.138759319757
 20
276.7191683476085
 10
1957.138759319757
 20
289.0191683476307
 42
0.4142135623730951
 10
1955.63875931976
 20
290.5191683476335
 10
1954.138759319752
 20
290.5191683476335
 10
1954.138759319758
 20
284.5191683476226
 10
1951.138759319744
 20
284.5191683476226
 10
1951.138759319744
 20
288.1191683476292
 10
1891.138759319638
 20
288.1191683476292
 10
1891.138759319638
 20
284.5191683476226
 10
1888.138759319632
 20
284.5191683476226
 10
1888.138759319632
 20
290.5191683476335
 10
1886.638759319627
 20
290.5191683476335
 42
0.4142135623730951
 10
1885.138759319624
 20
289.0191683476307
 10
1885.138759319624
 20
276.7191683476085
 42
0.4142135623730951
 10
1888.138759319632
 20
273.7191683476031
  0
LWPOLYLINE
  5
10D
330
F1B
100
AcDbEntity
  8
STEP3
100
AcDbPolyline
 90
       16
 70
     1
 43
0.0
 10
1810.138759319485
 20
250.9480061732744
 42
-0.41421356237308
 10
1807.138759319482
 20
253.9480061732827
 10
1807.138759319482
 20
266.2480061733025
 42
-0.4142135623730951
 10
1808.638759319482
 20
267.748006173308
 10
1810.138759319485
 20
267.7480061733053
 10
1810.138759319485
 20
261.7480061732971
 10
1813.138759319496
 20
261.7480061732971
 10
1813.138759319496
 20
265.3480061733034
 10
1873.1387593196
 20
265.3480061733034
 10
1873.1387593196
 20
261.7480061732971
 10
1876.138759319607
 20
261.7480061732971
 10
1876.138759319607
 20
267.7480061733053
 10
1877.638759319613
 20
267.748006173308
 42
-0.4142135623730951
 10
1879.138759319616
 20
266.2480061733025
 10
1879.138759319616
 20
253.9480061732827
 42
-0.4142135623730951
 10
1876.138759319607
 20
250.9480061732744
  0
LWPOLYLINE
  5
10E
330
F1B
100
AcDbEntity
  8
STEP3
100
AcDbPolyline
 90
       16
 70
     1
 43
0.0
 10
1954.138759319752
 20
250.9480061732744
 42
0.41421356237308
 10
1957.138759319757
 20
253.9480061732827
 10
1957.138759319757
 20
266.2480061733025
 42
0.4142135623730951
 10
1955.63875931976
 20
267.748006173308
 10
1954.138759319752
 20
267.7480061733053
 10
1954.138759319758
 20
261.7480061732971
 10
1951.138759319744
 20
261.7480061732971
 10
1951.138759319744
 20
265.3480061733034
 10
1891.138759319638
 20
265.3480061733034
 10
1891.138759319638
 20
261.7480061732971
 10
1888.138759319632
 20
261.7480061732971
 10
1888.138759319632
 20
267.7480061733053
 10
1886.638759319627
 20
267.748006173308
 42
0.4142135623730951
 10
1885.138759319624
 20
266.2480061733025
 10
1885.138759319624
 20
253.9480061732827
 42
0.4142135623730951
 10
1888.138759319632
 20
250.9480061732744
  0
LWPOLYLINE
  5
10F
330
F1B
100
AcDbEntity
  8
STEP3
100
AcDbPolyline
 90
       16
 70
     1
 43
0.0
 10
1810.138759319485
 20
228.1768439989493
 42
-0.41421356237308
 10
1807.138759319482
 20
231.1768439989547
 10
1807.138759319482
 20
243.4768439989769
 42
-0.4142135623730951
 10
1808.638759319482
 20
244.9768439989797
 10
1810.138759319485
 20
244.9768439989797
 10
1810.138759319485
 20
238.9768439989688
 10
1813.138759319496
 20
238.9768439989688
 10
1813.138759319496
 20
242.5768439989757
 10
1873.1387593196
 20
242.5768439989757
 10
1873.1387593196
 20
238.9768439989688
 10
1876.138759319607
 20
238.9768439989688
 10
1876.138759319607
 20
244.9768439989797
 10
1877.638759319613
 20
244.9768439989797
 42
-0.4142135623730951
 10
1879.138759319616
 20
243.4768439989769
 10
1879.138759319616
 20
231.1768439989547
 42
-0.4142135623730951
 10
1876.138759319607
 20
228.1768439989493
  0
LWPOLYLINE
  5
110
330
F1B
100
AcDbEntity
  8
STEP3
100
AcDbPolyline
 90
       16
 70
     1
 43
0.0
 10
1954.138759319752
 20
228.1768439989493
 42
0.41421356237308
 10
1957.138759319757
 20
231.1768439989547
 10
1957.138759319757
 20
243.4768439989769
 42
0.4142135623730951
 10
1955.63875931976
 20
244.9768439989797
 10
1954.138759319752
 20
244.9768439989797
 10
1954.138759319758
 20
238.9768439989688
 10
1951.138759319744
 20
238.9768439989688
 10
1951.138759319744
 20
242.5768439989757
 10
1891.138759319638
 20
242.5768439989757
 10
1891.138759319638
 20
238.9768439989688
 10
1888.138759319632
 20
238.9768439989688
 10
1888.138759319632
 20
244.9768439989797
 10
1886.638759319627
 20
244.9768439989797
 42
0.4142135623730951
 10
1885.138759319624
 20
243.4768439989769
 10
1885.138759319624
 20
231.1768439989547
 42
0.4142135623730951
 10
1888.138759319632
 20
228.1768439989493
  0
LWPOLYLINE
  5
111
330
F1B
100
AcDbEntity
  8
STEP3
100
AcDbPolyline
 90
       16
 70
     1
 43
0.0
 10
1810.138759319485
 20
205.4056818246234
 42
-0.41421356237308
 10
1807.138759319482
 20
208.4056818246289
 10
1807.138759319482
 20
220.7056818246515
 42
-0.4142135623730951
 10
1808.638759319482
 20
222.2056818246518
 10
1810.138759319485
 20
222.2056818246518
 10
1810.138759319485
 20
216.2056818246433
 10
1813.138759319496
 20
216.2056818246433
 10
1813.138759319496
 20
219.8056818246496
 10
1873.1387593196
 20
219.8056818246496
 10
1873.1387593196
 20
216.2056818246433
 10
1876.138759319607
 20
216.2056818246433
 10
1876.138759319607
 20
222.2056818246518
 10
1877.638759319613
 20
222.2056818246518
 42
-0.4142135623730951
 10
1879.138759319616
 20
220.7056818246515
 10
1879.138759319616
 20
208.4056818246289
 42
-0.4142135623730951
 10
1876.138759319607
 20
205.4056818246234
  0
LWPOLYLINE
  5
112
330
F1B
100
AcDbEntity
  8
STEP3
100
AcDbPolyline
 90
       16
 70
     1
 43
0.0
 10
1954.138759319752
 20
205.4056818246234
 42
0.41421356237308
 10
1957.138759319757
 20
208.4056818246289
 10
1957.138759319757
 20
220.7056818246515
 42
0.4142135623730951
 10
1955.63875931976
 20
222.2056818246518
 10
1954.138759319752
 20
222.2056818246518
 10
1954.138759319758
 20
216.2056818246433
 10
1951.138759319744
 20
216.2056818246433
 10
1951.138759319744
 20
219.8056818246496
 10
1891.138759319638
 20
219.8056818246496
 10
1891.138759319638
 20
216.2056818246433
 10
1888.138759319632
 20
216.2056818246433
 10
1888.138759319632
 20
222.2056818246518
 10
1886.638759319627
 20
222.2056818246518
 42
0.4142135623730951
 10
1885.138759319624
 20
220.7056818246515
 10
1885.138759319624
 20
208.4056818246289
 42
0.4142135623730951
 10
1888.138759319632
 20
205.4056818246234
  0
LWPOLYLINE
  5
113
330
F1B
100
AcDbEntity
  8
STEP3
100
AcDbPolyline
 90
       16
 70
     1
 43
0.0
 10
1810.138759319485
 20
182.6345196502963
 42
-0.41421356237308
 10
1807.138759319482
 20
185.6345196503017
 10
1807.138759319482
 20
197.9345196503239
 42
-0.4142135623730951
 10
1808.638759319482
 20
199.4345196503267
 10
1810.138759319485
 20
199.4345196503267
 10
1810.138759319485
 20
193.4345196503158
 10
1813.138759319496
 20
193.4345196503158
 10
1813.138759319496
 20
197.0345196503224
 10
1873.1387593196
 20
197.0345196503224
 10
1873.1387593196
 20
193.4345196503158
 10
1876.138759319607
 20
193.4345196503158
 10
1876.138759319607
 20
199.4345196503267
 10
1877.638759319613
 20
199.4345196503267
 42
-0.4142135623730951
 10
1879.138759319616
 20
197.9345196503239
 10
1879.138759319616
 20
185.6345196503017
 42
-0.4142135623730951
 10
1876.138759319607
 20
182.6345196502963
  0
LWPOLYLINE
  5
114
330
F1B
100
AcDbEntity
  8
STEP3
100
AcDbPolyline
 90
       16
 70
     1
 43
0.0
 10
1954.138759319752
 20
182.6345196502963
 42
0.41421356237308
 10
1957.138759319757
 20
185.6345196503017
 10
1957.138759319757
 20
197.9345196503239
 42
0.4142135623730951
 10
1955.63875931976
 20
199.4345196503267
 10
1954.138759319752
 20
199.4345196503267
 10
1954.138759319758
 20
193.4345196503158
 10
1951.138759319744
 20
193.4345196503158
 10
1951.138759319744
 20
197.0345196503224
 10
1891.138759319638
 20
197.0345196503224
 10
1891.138759319638
 20
193.4345196503158
 10
1888.138759319632
 20
193.4345196503158
 10
1888.138759319632
 20
199.4345196503267
 10
1886.638759319627
 20
199.4345196503267
 42
0.4142135623730951
 10
1885.138759319624
 20
197.9345196503239
 10
1885.138759319624
 20
185.6345196503017
 42
0.4142135623730951
 10
1888.138759319632
 20
182.6345196502963
  0
LWPOLYLINE
  5
115
330
F1B
100
AcDbEntity
  8
STEP3
100
AcDbPolyline
 90
       16
 70
     1
 43
0.0
 10
1810.138759319485
 20
159.8633574759681
 42
-0.41421356237308
 10
1807.138759319482
 20
162.8633574759735
 10
1807.138759319482
 20
175.1633574759961
 42
-0.4142135623730951
 10
1808.638759319482
 20
176.6633574760009
 10
1810.138759319485
 20
176.6633574759988
 10
1810.138759319485
 20
170.6633574759879
 10
1813.138759319496
 20
170.66335747599
 10
1813.138759319496
 20
174.2633574759942
 10
1873.1387593196
 20
174.2633574759942
 10
1873.1387593196
 20
170.6633574759879
 10
1876.138759319607
 20
170.6633574759879
 10
1876.138759319607
 20
176.6633574759988
 10
1877.638759319613
 20
176.6633574760009
 42
-0.4142135623730951
 10
1879.138759319616
 20
175.1633574759961
 10
1879.138759319616
 20
162.8633574759735
 42
-0.4142135623730951
 10
1876.138759319607
 20
159.8633574759681
  0
LWPOLYLINE
  5
116
330
F1B
100
AcDbEntity
  8
STEP3
100
AcDbPolyline
 90
       16
 70
     1
 43
0.0
 10
1954.138759319752
 20
159.8633574759681
 42
0.41421356237308
 10
1957.138759319757
 20
162.8633574759735
 10
1957.138759319757
 20
175.1633574759961
 42
0.4142135623730951
 10
1955.63875931976
 20
176.6633574760009
 10
1954.138759319752
 20
176.6633574759988
 10
1954.138759319758
 20
170.6633574759879
 10
1951.138759319744
 20
170.66335747599
 10
1951.138759319744
 20
174.2633574759942
 10
1891.138759319638
 20
174.2633574759942
 10
1891.138759319638
 20
170.6633574759879
 10
1888.138759319632
 20
170.6633574759879
 10
1888.138759319632
 20
176.6633574759988
 10
1886.638759319627
 20
176.6633574760009
 42
0.4142135623730951
 10
1885.138759319624
 20
175.1633574759961
 10
1885.138759319624
 20
162.8633574759735
 42
0.4142135623730951
 10
1888.138759319632
 20
159.8633574759681
  0
LWPOLYLINE
  5
117
330
F1B
100
AcDbEntity
  8
STEP3
100
AcDbPolyline
 90
       16
 70
     1
 43
0.0
 10
1810.138759319485
 20
137.0921953016429
 42
-0.41421356237308
 10
1807.138759319482
 20
140.0921953016484
 10
1807.138759319482
 20
152.392195301671
 42
-0.4142135623730951
 10
1808.638759319482
 20
153.8921953016737
 10
1810.138759319485
 20
153.8921953016737
 10
1810.138759319485
 20
147.8921953016628
 10
1813.138759319496
 20
147.8921953016628
 10
1813.138759319496
 20
151.4921953016694
 10
1873.1387593196
 20
151.4921953016694
 10
1873.1387593196
 20
147.8921953016628
 10
1876.138759319607
 20
147.8921953016628
 10
1876.138759319607
 20
153.8921953016737
 10
1877.638759319613
 20
153.8921953016737
 42
-0.4142135623730951
 10
1879.138759319616
 20
152.392195301671
 10
1879.138759319616
 20
140.0921953016484
 42
-0.4142135623730951
 10
1876.138759319607
 20
137.0921953016429
  0
LWPOLYLINE
  5
118
330
F1B
100
AcDbEntity
  8
STEP3
100
AcDbPolyline
 90
       16
 70
     1
 43
0.0
 10
1954.138759319752
 20
137.0921953016429
 42
0.41421356237308
 10
1957.138759319757
 20
140.0921953016484
 10
1957.138759319757
 20
152.392195301671
 42
0.4142135623730951
 10
1955.63875931976
 20
153.8921953016737
 10
1954.138759319752
 20
153.8921953016737
 10
1954.138759319758
 20
147.8921953016628
 10
1951.138759319744
 20
147.8921953016628
 10
1951.138759319744
 20
151.4921953016694
 10
1891.138759319638
 20
151.4921953016694
 10
1891.138759319638
 20
147.8921953016628
 10
1888.138759319632
 20
147.8921953016628
 10
1888.138759319632
 20
153.8921953016737
 10
1886.638759319627
 20
153.8921953016737
 42
0.4142135623730951
 10
1885.138759319624
 20
152.392195301671
 10
1885.138759319624
 20
140.0921953016484
 42
0.4142135623730951
 10
1888.138759319632
 20
137.0921953016429
  0
LWPOLYLINE
  5
119
330
F1B
100
AcDbEntity
  8
STEP3
100
AcDbPolyline
 90
       16
 70
     1
 43
0.0
 10
1810.138759319485
 20
114.3210331273154
 42
-0.41421356237308
 10
1807.138759319482
 20
117.3210331273209
 10
1807.138759319482
 20
129.6210331273428
 42
-0.4142135623730951
 10
1808.638759319482
 20
131.1210331273479
 10
1810.138759319485
 20
131.1210331273455
 10
1810.138759319485
 20
125.121033127337
 10
1813.138759319496
 20
125.121033127337
 10
1813.138759319496
 20
128.7210331273436
 10
1873.1387593196
 20
128.7210331273436
 10
1873.1387593196
 20
125.121033127337
 10
1876.138759319607
 20
125.121033127337
 10
1876.138759319607
 20
131.1210331273455
 10
1877.638759319613
 20
131.1210331273479
 42
-0.4142135623730951
 10
1879.138759319616
 20
129.6210331273428
 10
1879.138759319616
 20
117.3210331273209
 42
-0.4142135623730951
 10
1876.138759319607
 20
114.3210331273154
  0
LWPOLYLINE
  5
11B
330
F1B
100
AcDbEntity
  8
STEP2
100
AcDbPolyline
 90
       40
 70
     1
 43
0.0
 10
1132.895370903951
 20
184.0425195756088
 10
1132.895370903951
 20
187.0425195756143
 10
1129.895370903946
 20
187.0425195756143
 10
1129.895370903946
 20
184.0425195756088
 10
1126.895370903946
 20
184.0425195756088
 10
1126.895370903946
 20
187.0425195756143
 10
1123.895370903935
 20
187.0425195756143
 10
1123.895370903935
 20
94.04251957545023
 10
1117.895370903929
 20
94.04251957545023
 10
1117.895370903929
 20
382.0425195759742
 10
1453.895370904541
 20
382.0425195759742
 10
1453.895370904541
 20
310.0425195758433
 10
1450.895370904538
 20
310.0425195758453
 10
1450.895370904535
 20
316.0425195758562
 10
1447.895370904524
 20
316.0425195758562
 10
1447.895370904532
 20
310.0425195758453
 10
1399.895370904445
 20
310.0425195758433
 10
1399.895370904445
 20
316.0425195758542
 10
1396.895370904437
 20
316.0425195758542
 10
1396.895370904437
 20
310.0425195758433
 10
1393.895370904432
 20
310.0425195758433
 10
1393.895370904432
 20
166.0425195755812
 10
1396.895370904437
 20
166.0425195755812
 10
1396.895370904437
 20
160.0425195755702
 10
1399.895370904445
 20
160.0425195755702
 10
1399.895370904445
 20
166.0425195755788
 10
1447.895370904532
 20
166.0425195755832
 10
1447.895370904524
 20
160.0425195755702
 10
1450.895370904535
 20
160.0425195755723
 10
1450.895370904538
 20
166.0425195755832
 10
1453.895370904541
 20
166.0425195755812
 10
1453.895370904541
 20
94.04251957545023
 10
1189.895370904055
 20
94.04251957545023
 10
1189.895370904055
 20
187.0425195756143
 10
1186.895370904049
 20
187.0425195756143
 10
1186.895370904049
 20
184.0425195756088
 10
1183.89537090405
 20
184.0425195756088
 10
1183.895370904044
 20
187.0425195756143
 10
1180.895370904044
 20
187.0425195756095
 10
1180.895370904047
 20
184.0425195756088
  0
LWPOLYLINE
  5
11C
330
F1B
100
AcDbEntity
  8
STEP2
100
AcDbPolyline
 90
        4
 70
     1
 43
0.0
 10
1126.895370903946
 20
373.942519575957
 10
1126.895370903946
 20
364.3425195759419
 10
1123.895370903935
 20
364.3425195759419
 10
1123.895370903935
 20
373.942519575957
  0
LWPOLYLINE
  5
11D
330
F1B
100
AcDbEntity
  8
STEP2
100
AcDbPolyline
 90
        4
 70
     1
 43
0.0
 10
1138.595370903964
 20
373.0425195759555
 10
1128.995370903948
 20
373.0425195759555
 10
1128.995370903948
 20
376.0425195759609
 10
1138.595370903964
 20
376.0425195759609
  0
LWPOLYLINE
  5
11E
330
F1B
100
AcDbEntity
  8
STEP2
100
AcDbPolyline
 90
        4
 70
     1
 43
0.0
 10
1140.695370903971
 20
370.9425195759516
 10
1140.695370903971
 20
361.3425195759364
 10
1137.695370903966
 20
361.3425195759364
 10
1137.695370903966
 20
370.9425195759516
  0
LWPOLYLINE
  5
11F
330
F1B
100
AcDbEntity
  8
STEP2
100
AcDbPolyline
 90
        4
 70
     1
 43
0.0
 10
1135.595370903958
 20
359.2425195759305
 10
1125.995370903942
 20
359.2425195759305
 10
1125.995370903942
 20
362.242519575936
 10
1135.595370903958
 20
362.242519575936
  0
LWPOLYLINE
  5
120
330
F1B
100
AcDbEntity
  8
STEP2
100
AcDbPolyline
 90
        4
 70
     1
 43
0.0
 10
1390.895370904429
 20
288.4425195758039
 10
1387.895370904421
 20
288.4425195758039
 10
1387.895370904421
 20
298.0425195758214
 10
1390.895370904429
 20
298.0425195758214
  0
LWPOLYLINE
  5
121
330
F1B
100
AcDbEntity
  8
STEP2
100
AcDbPolyline
 90
        4
 70
     1
 43
0.0
 10
1390.895370904429
 20
199.6425195756424
 10
1387.895370904421
 20
199.6425195756424
 10
1387.895370904421
 20
209.2425195756599
 10
1390.895370904429
 20
209.2425195756599
  0
LWPOLYLINE
  5
122
330
F1B
100
AcDbEntity
  8
STEP2
100
AcDbPolyline
 90
        4
 70
     1
 43
0.0
 10
1390.895370904429
 20
276.4425195757821
 10
1387.895370904421
 20
276.4425195757821
 10
1387.895370904421
 20
266.8425195757625
 10
1390.895370904429
 20
266.8425195757625
  0
LWPOLYLINE
  5
123
330
F1B
100
AcDbEntity
  8
STEP2
100
AcDbPolyline
 90
        4
 70
     1
 43
0.0
 10
1390.895370904429
 20
242.8425195757208
 10
1387.895370904421
 20
242.8425195757208
 10
1387.895370904421
 20
233.2425195757036
 10
1390.895370904429
 20
233.2425195757036
  0
LWPOLYLINE
  5
124
330
F1B
100
AcDbEntity
  8
STEP2
100
AcDbPolyline
 90
        4
 70
     1
 43
0.0
 10
1278.995370904221
 20
373.942519575957
 10
1278.995370904221
 20
364.3425195759419
 10
1275.995370904215
 20
364.3425195759419
 10
1275.995370904215
 20
373.942519575957
  0
LWPOLYLINE
  5
125
330
F1B
100
AcDbEntity
  8
STEP2
100
AcDbPolyline
 90
        4
 70
     1
 43
0.0
 10
1290.695370904242
 20
373.0425195759555
 10
1281.095370904223
 20
373.0425195759555
 10
1281.095370904223
 20
376.0425195759609
 10
1290.695370904242
 20
376.0425195759609
  0
LWPOLYLINE
  5
126
330
F1B
100
AcDbEntity
  8
STEP2
100
AcDbPolyline
 90
        4
 70
     1
 43
0.0
 10
1292.795370904244
 20
370.9425195759516
 10
1292.795370904244
 20
361.3425195759364
 10
1289.795370904244
 20
361.3425195759364
 10
1289.795370904244
 20
370.9425195759516
  0
LWPOLYLINE
  5
127
330
F1B
100
AcDbEntity
  8
STEP2
100
AcDbPolyline
 90
        4
 70
     1
 43
0.0
 10
1287.695370904236
 20
359.2425195759305
 10
1278.095370904218
 20
359.2425195759305
 10
1278.095370904218
 20
362.242519575936
 10
1287.695370904236
 20
362.242519575936
  0
LWPOLYLINE
  5
128
330
F1B
100
AcDbEntity
  8
STEP2
100
AcDbPolyline
 90
        4
 70
     1
 43
0.0
 10
1278.995370904221
 20
102.1425195754674
 10
1278.995370904221
 20
111.7425195754802
 10
1275.995370904215
 20
111.7425195754802
 10
1275.995370904215
 20
102.1425195754674
  0
LWPOLYLINE
  5
129
330
F1B
100
AcDbEntity
  8
STEP2
100
AcDbPolyline
 90
        4
 70
     1
 43
0.0
 10
1290.695370904242
 20
103.0425195754666
 10
1281.095370904223
 20
103.0425195754666
 10
1281.095370904223
 20
100.0425195754611
 10
1290.695370904242
 20
100.0425195754611
  0
LWPOLYLINE
  5
12A
330
F1B
100
AcDbEntity
  8
STEP2
100
AcDbPolyline
 90
        4
 70
     1
 43
0.0
 10
1292.795370904244
 20
105.1425195754728
 10
1292.795370904244
 20
114.7425195754856
 10
1289.795370904244
 20
114.7425195754856
 10
1289.795370904244
 20
105.1425195754728
  0
LWPOLYLINE
  5
12B
330
F1B
100
AcDbEntity
  8
STEP2
100
AcDbPolyline
 90
        4
 70
     1
 43
0.0
 10
1287.695370904236
 20
116.8425195754915
 10
1278.095370904218
 20
116.8425195754915
 10
1278.095370904218
 20
113.8425195754861
 10
1287.695370904236
 20
113.8425195754861
  0
LWPOLYLINE
  5
12C
330
F1B
100
AcDbEntity
  8
STEP2
100
AcDbPolyline
 90
        4
 70
     1
 43
0.0
 10
1163.495370904011
 20
376.0425195759633
 10
1153.895370903995
 20
376.0425195759633
 10
1153.895370903995
 20
379.0425195759687
 10
1163.495370904011
 20
379.0425195759687
  0
LWPOLYLINE
  5
12D
330
F1B
100
AcDbEntity
  8
STEP2
100
AcDbPolyline
 90
        4
 70
     1
 43
0.0
 10
1262.795370904197
 20
376.0425195759633
 10
1253.195370904184
 20
376.0425195759633
 10
1253.195370904184
 20
379.0425195759687
 10
1262.795370904197
 20
379.0425195759687
  0
LWPOLYLINE
  5
12E
330
F1B
100
AcDbEntity
  8
STEP2
100
AcDbPolyline
 90
        4
 70
     1
 43
0.0
 10
1405.295370904457
 20
376.0425195759633
 10
1414.895370904473
 20
376.0425195759633
 10
1414.895370904473
 20
379.0425195759687
 10
1405.295370904457
 20
379.0425195759687
  0
LWPOLYLINE
  5
12F
330
F1B
100
AcDbEntity
  8
STEP2
100
AcDbPolyline
 90
        4
 70
     1
 43
0.0
 10
1305.99537090427
 20
376.0425195759633
 10
1315.595370904286
 20
376.0425195759633
 10
1315.595370904286
 20
379.0425195759687
 10
1305.99537090427
 20
379.0425195759687
  0
LWPOLYLINE
  5
130
330
F1B
100
AcDbEntity
  8
STEP2
100
AcDbPolyline
 90
        4
 70
     1
 43
0.0
 10
1123.895370903935
 20
337.9425195758916
 10
1123.895370903935
 20
328.3425195758764
 10
1120.895370903929
 20
328.3425195758764
 10
1120.895370903929
 20
337.9425195758916
  0
LWPOLYLINE
  5
131
330
F1B
100
AcDbEntity
  8
STEP2
100
AcDbPolyline
 90
        4
 70
     1
 43
0.0
 10
1123.895370903935
 20
211.6425195756546
 10
1123.895370903935
 20
202.0425195756392
 10
1120.895370903929
 20
202.0425195756392
 10
1120.895370903929
 20
211.6425195756546
  0
LWPOLYLINE
  5
132
330
F1B
100
AcDbEntity
  8
STEP2
100
AcDbPolyline
 90
        4
 70
     1
 43
0.0
 10
1123.895370903935
 20
274.7925195757716
 10
1123.895370903935
 20
265.1925195757592
 10
1120.895370903929
 20
265.1925195757592
 10
1120.895370903929
 20
274.7925195757716
  0
LWPOLYLINE
  5
133
330
F1B
100
AcDbEntity
  8
STEP2
100
AcDbPolyline
 90
        4
 70
     1
 43
0.0
 10
1450.895370904535
 20
370.0425195759524
 10
1450.895370904535
 20
360.4425195759372
 10
1447.895370904524
 20
360.4425195759372
 10
1447.895370904524
 20
370.0425195759524
  0
LWPOLYLINE
  5
134
330
F1B
100
AcDbEntity
  8
STEP2
100
AcDbPolyline
 90
        4
 70
     1
 43
0.0
 10
1450.895370904535
 20
343.6425195758993
 10
1450.895370904535
 20
334.0425195758845
 10
1447.895370904524
 20
334.0425195758845
 10
1447.895370904524
 20
343.6425195758993
  0
LWPOLYLINE
  5
135
330
F1B
100
AcDbEntity
  8
STEP2
100
AcDbPolyline
 90
        4
 70
     1
 43
0.0
 10
1450.895370904535
 20
106.042519575472
 10
1450.895370904535
 20
115.6425195754845
 10
1447.895370904524
 20
115.6425195754845
 10
1447.895370904524
 20
106.042519575472
  0
LWPOLYLINE
  5
136
330
F1B
100
AcDbEntity
  8
STEP2
100
AcDbPolyline
 90
        4
 70
     1
 43
0.0
 10
1450.895370904535
 20
132.4425195755224
 10
1450.895370904535
 20
142.0425195755375
 10
1447.895370904524
 20
142.0425195755375
 10
1447.895370904524
 20
132.4425195755224
  0
LWPOLYLINE
  5
137
330
F1B
100
AcDbEntity
  8
STEP2
100
AcDbPolyline
 90
        4
 70
     1
 43
0.0
 10
1405.295370904457
 20
97.04251957545569
 10
1414.895370904473
 20
97.04251957545569
 10
1414.895370904473
 20
100.0425195754611
 10
1405.295370904457
 20
100.0425195754611
  0
LWPOLYLINE
  5
138
330
F1B
100
AcDbEntity
  8
STEP2
100
AcDbPolyline
 90
        4
 70
     1
 43
0.0
 10
1305.99537090427
 20
97.04251957545569
 10
1315.595370904286
 20
97.04251957545569
 10
1315.595370904286
 20
100.0425195754611
 10
1305.99537090427
 20
100.0425195754611
  0
LWPOLYLINE
  5
139
330
F1B
100
AcDbEntity
  8
STEP2
100
AcDbPolyline
 90
        4
 70
     1
 43
0.0
 10
1201.895370904085
 20
97.04251957545569
 10
1211.495370904098
 20
97.04251957545569
 10
1211.495370904098
 20
100.0425195754611
 10
1201.895370904085
 20
100.0425195754611
  0
LWPOLYLINE
  5
13A
330
F1B
100
AcDbEntity
  8
STEP2
100
AcDbPolyline
 90
       24
 70
     1
 43
0.0
 10
1401.546489649138
 20
237.9777103234047
 10
1401.546489649141
 20
193.2777103233256
 10
1400.646489649132
 20
193.2777103233256
 42
-0.4142135623730951
 10
1399.146489649127
 20
194.7777103233284
 10
1399.146489649127
 20
281.1777103234808
 42
-0.4142135623730951
 10
1400.646489649132
 20
282.6777103234836
 10
1401.306489649136
 20
282.6777103234836
 10
1401.306489649136
 20
279.4377103234776
 10
1404.786489649146
 20
279.4377103234776
 10
1404.786489649146
 20
282.6777103234836
 10
1452.306489649228
 20
282.6777103234836
 10
1452.306489649228
 20
279.4377103234776
 10
1455.786489649231
 20
279.4377103234776
 10
1455.786489649231
 20
282.6777103234836
 10
1456.446489649237
 20
282.6777103234836
 42
-0.4142135623730863
 10
1457.94648964924
 20
281.1777103234808
 10
1457.94648964924
 20
194.7777103233311
 42
-0.4142135623731042
 10
1456.446489649237
 20
193.2777103233284
 10
1455.546489649231
 20
193.2777103233284
 10
1455.546489649231
 20
237.9777103234047
 10
1452.546489649231
 20
237.9777103234047
 10
1452.546489649226
 20
193.2777103233284
 10
1404.546489649144
 20
193.2777103233256
 10
1404.546489649144
 20
237.9777103234047
  0
LWPOLYLINE
  5
13B
330
F1B
100
AcDbEntity
  8
STEP2
100
AcDbPolyline
 90
        4
 70
     1
 43
0.0
 10
1414.026489649157
 20
196.0377103233306
 10
1443.066489649212
 20
196.0377103233306
 10
1443.066489649212
 20
199.5177103233397
 10
1414.026489649157
 20
199.5177103233397
  0
LWPOLYLINE
  5
13C
330
F1B
100
AcDbEntity
  8
STEP2
100
AcDbPolyline
 90
        6
 70
     1
 43
0.0
 10
1387.895370904421
 20
187.6425195756205
 10
1390.895370904429
 20
187.6425195756205
 10
1387.895370904421
 20
187.6425195756205
 10
1387.895370904421
 20
178.042519575603
 10
1390.895370904429
 20
178.042519575603
 10
1390.895370904429
 20
187.6425195756205
  0
LWPOLYLINE
  5
13E
330
F1B
100
AcDbEntity
  8
STEP4
100
AcDbPolyline
 90
        6
 70
     1
 43
0.0
 10
1500.416223611265
 20
148.5250238414345
 10
1496.961226170504
 20
154.830223021295
 42
-0.5699330669186848
 10
1498.276681534952
 20
157.0510400467303
 10
1505.440803879825
 20
157.0510400467303
 42
-0.5699330669186848
 10
1506.756259244273
 20
154.830223021295
 10
1503.301261803514
 20
148.5250238414301
 42
0.1234396028298955
  0
LWPOLYLINE
  5
13F
330
F1B
100
AcDbEntity
  8
STEP4
100
AcDbPolyline
 90
        6
 70
     1
 43
0.0
 10
1505.932172532397
 20
125.0186903028217
 42
0.1684698180500634
 10
1505.932172532397
 20
147.0833897905622
 10
1508.512037508228
 20
151.7915155731796
 42
-0.7762318858797049
 10
1511.327492872679
 20
151.0706985477477
 10
1511.327492872679
 20
121.0313815456369
 42
-0.7762318858796708
 10
1508.512037508228
 20
120.3105645202043
  0
LWPOLYLINE
  5
140
330
F1B
100
AcDbEntity
  8
STEP4
100
AcDbPolyline
 90
        2
 70
     1
 43
0.0
 10
1501.858742707384
 20
136.7710400466935
 42
-1.0
 10
1501.858742707384
 20
135.3310400466935
 42
-1.0
  0
LWPOLYLINE
  5
141
330
F1B
100
AcDbEntity
  8
STEP4
100
AcDbPolyline
 90
        6
 70
     1
 43
0.0
 10
1496.961226170504
 20
117.2718570720913
 10
1500.416223611271
 20
123.5770562519518
 42
0.1234396028296257
 10
1503.301261803506
 20
123.5770562519518
 10
1506.756259244273
 20
117.2718570720913
 42
-0.5699330669187593
 10
1505.440803879822
 20
115.0510400466539
 10
1498.276681534952
 20
115.0510400466539
 42
-0.5699330669187729
  0
LWPOLYLINE
  5
142
330
F1B
100
AcDbEntity
  8
STEP4
100
AcDbPolyline
 90
        6
 70
     1
 43
0.0
 10
1492.389992542098
 20
121.0313815456369
 10
1492.389992542098
 20
151.0706985477501
 42
-0.7762318858797027
 10
1495.205447906546
 20
151.7915155731819
 10
1497.785312882374
 20
147.0833897905622
 42
0.1684698180500822
 10
1497.785312882377
 20
125.0186903028217
 10
1495.205447906549
 20
120.3105645202043
 42
-0.7762318858796417
  0
LWPOLYLINE
  5
143
330
F1B
100
AcDbEntity
  8
STEP4
100
AcDbPolyline
 90
       12
 70
     1
 43
0.0
 10
1492.389992542098
 20
160.0510400467358
 10
1492.389992542098
 20
163.0510400467412
 10
1489.389992542093
 20
163.0510400467412
 10
1489.389992542093
 20
109.051040046643
 10
1492.389992542098
 20
109.051040046643
 10
1492.389992542098
 20
112.0510400466485
 10
1511.327492872679
 20
112.0510400466485
 10
1511.327492872679
 20
109.051040046643
 10
1514.327492872684
 20
109.051040046643
 10
1514.327492872684
 20
163.0510400467412
 10
1511.327492872679
 20
163.0510400467412
 10
1511.327492872679
 20
160.0510400467358
  0
LWPOLYLINE
  5
144
330
F1B
100
AcDbEntity
  8
STEP4
100
AcDbPolyline
 90
        4
 70
     1
 43
0.0
 10
1284.972280411064
 20
85.22010281087455
 42
0.4142135623730951
 10
1217.627013587063
 20
17.87483598687629
 42
0.4142135623730951
 10
1284.972280411064
 20
-49.47043083712265
 42
0.4142135623730951
 10
1352.317547235065
 20
17.87483598687629
 42
0.4142135623730951
  0
LWPOLYLINE
  5
145
330
F1B
100
AcDbEntity
  8
STEP4
100
AcDbPolyline
 90
        4
 70
     1
 43
0.0
 10
1317.972280411124
 20
-8.825164013334074
 10
1317.972280411124
 20
-20.8251640133559
 10
1314.972280411119
 20
-20.8251640133559
 10
1314.972280411119
 20
-8.825164013334074
  0
LWPOLYLINE
  5
146
330
F1B
100
AcDbEntity
  8
STEP4
100
AcDbPolyline
 90
        4
 70
     1
 43
0.0
 10
1254.972280411009
 20
-8.825164013334074
 10
1254.972280411009
 20
-20.8251640133559
 10
1251.972280411004
 20
-20.8251640133559
 10
1251.972280411004
 20
-8.825164013334074
  0
LWPOLYLINE
  5
147
330
F1B
100
AcDbEntity
  8
STEP4
100
AcDbPolyline
 90
        4
 70
     1
 43
0.0
 10
1317.972280411124
 20
45.17483598676415
 10
1317.972280411124
 20
57.17483598678359
 10
1314.972280411119
 20
57.17483598678359
 10
1314.972280411119
 20
45.17483598676415
  0
LWPOLYLINE
  5
148
330
F1B
100
AcDbEntity
  8
STEP4
100
AcDbPolyline
 90
        4
 70
     1
 43
0.0
 10
1254.972280411009
 20
45.17483598676415
 10
1254.972280411009
 20
57.17483598678359
 10
1251.972280411004
 20
57.17483598678359
 10
1251.972280411004
 20
45.17483598676415
  0
LWPOLYLINE
  5
149
330
F1B
100
AcDbEntity
  8
STEP4
100
AcDbPolyline
 90
        4
 70
     1
 43
0.0
 10
1273.692280411042
 20
-20.82516401335317
 10
1279.692280411053
 20
-20.82516401335317
 10
1279.692280411053
 20
-23.82516401335863
 10
1273.692280411042
 20
-23.82516401335863
  0
LWPOLYLINE
  5
14A
330
F1B
100
AcDbEntity
  8
STEP4
100
AcDbPolyline
 90
        4
 70
     1
 43
0.0
 10
1290.25228041107
 20
-20.82516401335317
 10
1296.252280411081
 20
-20.82516401335317
 10
1296.252280411081
 20
-23.82516401335863
 10
1290.25228041107
 20
-23.82516401335863
  0
LWPOLYLINE
  5
14B
330
F1B
100
AcDbEntity
  8
STEP4
100
AcDbPolyline
 90
        4
 70
     1
 43
0.0
 10
1308.972280411102
 20
67.37483598680023
 10
1311.972280411108
 20
67.37483598680023
 10
1311.972280411108
 20
61.37483598678932
 10
1308.972280411102
 20
61.37483598678932
  0
LWPOLYLINE
  5
14C
330
F1B
100
AcDbEntity
  8
STEP4
100
AcDbPolyline
 90
        4
 70
     1
 43
0.0
 10
1260.972280411023
 20
67.37483598680023
 10
1257.972280411018
 20
67.37483598680023
 10
1257.972280411018
 20
61.37483598678932
 10
1260.972280411023
 20
61.37483598678932
  0
LWPOLYLINE
  5
14D
330
F1B
100
AcDbEntity
  8
STEP4
100
AcDbPolyline
 90
        4
 70
     1
 43
0.0
 10
1474.895370904573
 20
373.9425195759543
 10
1474.895370904573
 20
364.3425195759419
 10
1471.895370904568
 20
364.3425195759419
 10
1471.895370904568
 20
373.9425195759543
  0
LWPOLYLINE
  5
14E
330
F1B
100
AcDbEntity
  8
STEP4
100
AcDbPolyline
 90
        4
 70
     1
 43
0.0
 10
1486.595370904597
 20
373.0425195759555
 10
1476.995370904581
 20
373.0425195759555
 10
1476.995370904581
 20
376.0425195759609
 10
1486.595370904597
 20
376.0425195759609
  0
LWPOLYLINE
  5
14F
330
F1B
100
AcDbEntity
  8
STEP4
100
AcDbPolyline
 90
        4
 70
     1
 43
0.0
 10
1488.695370904604
 20
370.9425195759516
 10
1488.695370904604
 20
361.3425195759364
 10
1485.695370904596
 20
361.3425195759364
 10
1485.695370904596
 20
370.9425195759516
  0
LWPOLYLINE
  5
150
330
F1B
100
AcDbEntity
  8
STEP4
100
AcDbPolyline
 90
        4
 70
     1
 43
0.0
 10
1483.595370904591
 20
359.2425195759305
 10
1473.995370904576
 20
359.2425195759305
 10
1473.995370904576
 20
362.242519575936
 10
1483.595370904591
 20
362.242519575936
  0
LWPOLYLINE
  5
151
330
F1B
100
AcDbEntity
  8
STEP4
100
AcDbPolyline
 90
        4
 70
     1
 43
0.0
 10
1738.895370905062
 20
288.4425195758015
 10
1735.895370905054
 20
288.4425195758015
 10
1735.895370905054
 20
298.042519575819
 10
1738.895370905062
 20
298.042519575819
  0
LWPOLYLINE
  5
152
330
F1B
100
AcDbEntity
  8
STEP4
100
AcDbPolyline
 90
        4
 70
     1
 43
0.0
 10
1738.895370905062
 20
199.6425195756403
 10
1735.895370905054
 20
199.6425195756403
 10
1735.895370905054
 20
209.2425195756575
 10
1738.895370905062
 20
209.2425195756575
  0
LWPOLYLINE
  5
153
330
F1B
100
AcDbEntity
  8
STEP4
100
AcDbPolyline
 90
        4
 70
     1
 43
0.0
 10
1738.895370905062
 20
276.4425195757797
 10
1735.895370905054
 20
276.4425195757797
 10
1735.895370905054
 20
266.8425195757625
 10
1738.895370905062
 20
266.8425195757625
  0
LWPOLYLINE
  5
154
330
F1B
100
AcDbEntity
  8
STEP4
100
AcDbPolyline
 90
        4
 70
     1
 43
0.0
 10
1738.895370905062
 20
242.8425195757187
 10
1735.895370905054
 20
242.8425195757187
 10
1735.895370905054
 20
233.2425195757012
 10
1738.895370905062
 20
233.2425195757012
  0
LWPOLYLINE
  5
155
330
F1B
100
AcDbEntity
  8
STEP4
100
AcDbPolyline
 90
        4
 70
     1
 43
0.0
 10
1626.995370904854
 20
373.9425195759543
 10
1626.995370904854
 20
364.3425195759419
 10
1623.995370904848
 20
364.3425195759419
 10
1623.995370904848
 20
373.9425195759543
  0
LWPOLYLINE
  5
156
330
F1B
100
AcDbEntity
  8
STEP4
100
AcDbPolyline
 90
        4
 70
     1
 43
0.0
 10
1638.695370904875
 20
373.0425195759555
 10
1629.095370904856
 20
373.0425195759555
 10
1629.095370904856
 20
376.0425195759609
 10
1638.695370904875
 20
376.0425195759609
  0
LWPOLYLINE
  5
157
330
F1B
100
AcDbEntity
  8
STEP4
100
AcDbPolyline
 90
        4
 70
     1
 43
0.0
 10
1640.795370904877
 20
370.9425195759516
 10
1640.795370904877
 20
361.3425195759364
 10
1637.795370904877
 20
361.3425195759364
 10
1637.795370904877
 20
370.9425195759516
  0
LWPOLYLINE
  5
158
330
F1B
100
AcDbEntity
  8
STEP4
100
AcDbPolyline
 90
        4
 70
     1
 43
0.0
 10
1635.695370904869
 20
359.2425195759305
 10
1626.095370904851
 20
359.2425195759305
 10
1626.095370904851
 20
362.242519575936
 10
1635.695370904869
 20
362.242519575936
  0
LWPOLYLINE
  5
159
330
F1B
100
AcDbEntity
  8
STEP4
100
AcDbPolyline
 90
        4
 70
     1
 43
0.0
 10
1626.995370904854
 20
102.142519575465
 10
1626.995370904854
 20
111.7425195754802
 10
1623.995370904848
 20
111.7425195754802
 10
1623.995370904848
 20
102.142519575465
  0
LWPOLYLINE
  5
15A
330
F1B
100
AcDbEntity
  8
STEP4
100
AcDbPolyline
 90
        4
 70
     1
 43
0.0
 10
1638.695370904875
 20
103.0425195754666
 10
1629.095370904856
 20
103.0425195754666
 10
1629.095370904856
 20
100.0425195754611
 10
1638.695370904875
 20
100.0425195754611
  0
LWPOLYLINE
  5
15B
330
F1B
100
AcDbEntity
  8
STEP4
100
AcDbPolyline
 90
        4
 70
     1
 43
0.0
 10
1640.795370904877
 20
105.1425195754705
 10
1640.795370904877
 20
114.7425195754856
 10
1637.795370904877
 20
114.7425195754856
 10
1637.795370904877
 20
105.1425195754705
  0
LWPOLYLINE
  5
15C
330
F1B
100
AcDbEntity
  8
STEP4
100
AcDbPolyline
 90
        4
 70
     1
 43
0.0
 10
1635.695370904869
 20
116.8425195754915
 10
1626.095370904851
 20
116.8425195754915
 10
1626.095370904851
 20
113.8425195754861
 10
1635.695370904869
 20
113.8425195754861
  0
LWPOLYLINE
  5
15D
330
F1B
100
AcDbEntity
  8
STEP4
100
AcDbPolyline
 90
        4
 70
     1
 43
0.0
 10
1511.495370904644
 20
376.0425195759633
 10
1501.895370904628
 20
376.0425195759633
 10
1501.895370904628
 20
379.0425195759687
 10
1511.495370904644
 20
379.0425195759687
  0
LWPOLYLINE
  5
15E
330
F1B
100
AcDbEntity
  8
STEP4
100
AcDbPolyline
 90
        4
 70
     1
 43
0.0
 10
1610.795370904831
 20
376.0425195759633
 10
1601.195370904817
 20
376.0425195759633
 10
1601.195370904817
 20
379.0425195759687
 10
1610.795370904831
 20
379.0425195759687
  0
LWPOLYLINE
  5
15F
330
F1B
100
AcDbEntity
  8
STEP4
100
AcDbPolyline
 90
        4
 70
     1
 43
0.0
 10
1753.295370905098
 20
376.0425195759633
 10
1762.895370905103
 20
376.0425195759633
 10
1762.895370905103
 20
379.0425195759687
 10
1753.295370905098
 20
379.0425195759687
  0
LWPOLYLINE
  5
160
330
F1B
100
AcDbEntity
  8
STEP4
100
AcDbPolyline
 90
        4
 70
     1
 43
0.0
 10
1653.995370904903
 20
376.0425195759633
 10
1663.595370904919
 20
376.0425195759633
 10
1663.595370904919
 20
379.0425195759687
 10
1653.995370904903
 20
379.0425195759687
  0
LWPOLYLINE
  5
161
330
F1B
100
AcDbEntity
  8
STEP4
100
AcDbPolyline
 90
        4
 70
     1
 43
0.0
 10
1471.895370904568
 20
337.9425195758888
 10
1471.895370904568
 20
328.3425195758764
 10
1468.895370904568
 20
328.3425195758764
 10
1468.895370904568
 20
337.9425195758888
  0
LWPOLYLINE
  5
162
330
F1B
100
AcDbEntity
  8
STEP4
100
AcDbPolyline
 90
        4
 70
     1
 43
0.0
 10
1471.895370904568
 20
211.6425195756546
 10
1471.895370904568
 20
202.0425195756392
 10
1468.895370904568
 20
202.0425195756392
 10
1468.895370904568
 20
211.6425195756546
  0
LWPOLYLINE
  5
163
330
F1B
100
AcDbEntity
  8
STEP4
100
AcDbPolyline
 90
        4
 70
     1
 43
0.0
 10
1471.895370904568
 20
274.7925195757716
 10
1471.895370904568
 20
265.1925195757565
 10
1468.895370904568
 20
265.1925195757565
 10
1468.895370904568
 20
274.7925195757716
  0
LWPOLYLINE
  5
164
330
F1B
100
AcDbEntity
  8
STEP4
100
AcDbPolyline
 90
        4
 70
     1
 43
0.0
 10
1798.895370905163
 20
370.04251957595
 10
1798.895370905163
 20
360.4425195759372
 10
1795.895370905157
 20
360.4425195759372
 10
1795.895370905157
 20
370.04251957595
  0
LWPOLYLINE
  5
165
330
F1B
100
AcDbEntity
  8
STEP4
100
AcDbPolyline
 90
        4
 70
     1
 43
0.0
 10
1798.895370905163
 20
343.6425195758993
 10
1798.895370905163
 20
334.0425195758845
 10
1795.895370905157
 20
334.0425195758845
 10
1795.895370905157
 20
343.6425195758993
  0
LWPOLYLINE
  5
166
330
F1B
100
AcDbEntity
  8
STEP4
100
AcDbPolyline
 90
        4
 70
     1
 43
0.0
 10
1798.895370905163
 20
106.0425195754696
 10
1798.895370905163
 20
115.6425195754845
 10
1795.895370905157
 20
115.6425195754845
 10
1795.895370905157
 20
106.0425195754696
  0
LWPOLYLINE
  5
167
330
F1B
100
AcDbEntity
  8
STEP4
100
AcDbPolyline
 90
        4
 70
     1
 43
0.0
 10
1798.895370905163
 20
132.4425195755224
 10
1798.895370905163
 20
142.0425195755375
 10
1795.895370905157
 20
142.0425195755375
 10
1795.895370905157
 20
132.4425195755224
  0
LWPOLYLINE
  5
168
330
F1B
100
AcDbEntity
  8
STEP4
100
AcDbPolyline
 90
        4
 70
     1
 43
0.0
 10
1753.295370905098
 20
97.04251957545569
 10
1762.895370905103
 20
97.04251957545569
 10
1762.895370905103
 20
100.0425195754611
 10
1753.295370905098
 20
100.0425195754611
  0
LWPOLYLINE
  5
169
330
F1B
100
AcDbEntity
  8
STEP4
100
AcDbPolyline
 90
        4
 70
     1
 43
0.0
 10
1653.995370904903
 20
97.04251957545569
 10
1663.595370904919
 20
97.04251957545569
 10
1663.595370904919
 20
100.0425195754611
 10
1653.995370904903
 20
100.0425195754611
  0
LWPOLYLINE
  5
16A
330
F1B
100
AcDbEntity
  8
STEP4
100
AcDbPolyline
 90
        4
 70
     1
 43
0.0
 10
1549.895370904718
 20
97.04251957545569
 10
1559.495370904731
 20
97.04251957545569
 10
1559.495370904731
 20
100.0425195754611
 10
1549.895370904718
 20
100.0425195754611
  0
LWPOLYLINE
  5
16B
330
F1B
100
AcDbEntity
  8
STEP4
100
AcDbPolyline
 90
        4
 70
     1
 43
0.0
 10
1762.595370905107
 20
160.0425195755702
 10
1772.195370905118
 20
160.0425195755702
 10
1772.195370905118
 20
163.0425195755733
 10
1762.595370905107
 20
163.0425195755733
  0
LWPOLYLINE
  5
16C
330
F1B
100
AcDbEntity
  8
STEP4
100
AcDbPolyline
 90
       32
 70
     1
 43
0.0
 10
1480.895370904584
 20
184.0425195756088
 10
1480.895370904584
 20
187.0425195756119
 10
1477.895370904584
 20
187.0425195756119
 10
1477.895370904584
 20
184.0425195756088
 10
1474.895370904573
 20
184.0425195756088
 10
1474.895370904573
 20
187.0425195756143
 10
1471.895370904568
 20
187.0425195756143
 10
1471.895370904568
 20
94.04251957544785
 10
1465.895370904557
 20
94.04251957544785
 10
1465.895370904557
 20
382.0425195759742
 10
1801.895370905174
 20
382.0425195759718
 10
1801.895370905174
 20
310.0425195758433
 10
1798.895370905171
 20
310.0425195758453
 10
1798.895370905163
 20
316.0425195758542
 10
1795.895370905157
 20
316.0425195758562
 10
1795.895370905163
 20
310.0425195758453
 10
1747.895370905081
 20
310.0425195758433
 10
1747.895370905081
 20
316.0425195758518
 10
1744.89537090507
 20
316.0425195758518
 10
1744.89537090507
 20
310.0425195758433
 10
1741.895370905067
 20
310.0425195758433
 10
1741.895370905059
 20
166.0425195755788
 10
1801.895370905174
 20
166.0425195755788
 10
1801.895370905174
 20
94.04251957544785
 10
1537.895370904688
 20
94.04251957544785
 10
1537.895370904688
 20
187.0425195756143
 10
1534.895370904688
 20
187.0425195756143
 10
1534.895370904688
 20
184.0425195756088
 10
1531.895370904685
 20
184.0425195756088
 10
1531.895370904677
 20
187.0425195756119
 10
1528.895370904677
 20
187.0425195756095
 10
1528.895370904677
 20
184.0425195756088
  0
LWPOLYLINE
  5
16D
330
F1B
100
AcDbEntity
  8
STEP4
100
AcDbPolyline
 90
        4
 70
     1
 43
0.0
 10
1763.560685050563
 20
290.4244118348413
 42
0.4142135623730951
 10
1760.560685050557
 20
287.4244118348358
 42
0.4142135623730951
 10
1763.560685050563
 20
284.4244118348304
 42
0.4142135623730951
 10
1766.560685050568
 20
287.4244118348358
 42
0.4142135623730951
  0
LWPOLYLINE
  5
16E
330
F1B
100
AcDbEntity
  8
STEP4
100
AcDbPolyline
 90
      126
 70
     1
 43
0.0
 10
1760.583768118532
 20
304.3299720315796
 42
0.4142135623752765
 10
1758.746650811314
 20
305.3906322037556
 42
-0.0000000000000548
 10
1758.746650811426
 20
305.3906322033381
 42
0.4142135623706071
 10
1757.685990639673
 20
303.5535148962392
 10
1758.248970835432
 20
301.4524442021206
 42
0.0153673458894629
 10
1757.397317377749
 20
301.0996777894907
 10
1756.309723156227
 20
302.9834462391094
 42
0.4142135623725004
 10
1754.260685050545
 20
303.5324843447579
 42
0.414213562374165
 10
1753.711646944899
 20
301.4834462390685
 10
1754.799241166411
 20
299.5996777894545
 42
0.0153673458896443
 10
1754.06790976264
 20
299.0385074661718
 10
1752.529819264214
 20
300.5765979645435
 42
0.4142135623705994
 10
1750.408498920665
 20
300.5765979645148
 42
0.4142135623752613
 10
1750.408498920692
 20
298.4552776209469
 10
1751.946589419091
 20
296.9171871225941
 42
0.015367345889885
 10
1751.385419095812
 20
296.1858557188029
 10
1749.501650646144
 20
297.2734499402702
 42
0.4142135623697853
 10
1747.452612540476
 20
296.7244118345764
 42
0.414213562375968
 10
1748.001650646177
 20
294.6753737288893
 10
1749.885419095814
 20
293.5877795074388
 42
0.0153673458900064
 10
1749.532652683182
 20
292.7361260497225
 10
1747.431581989035
 20
293.2991062454272
 42
0.4142135623687175
 10
1745.594464681967
 20
292.2384460736394
 42
0.4142135623770097
 10
1746.655124853771
 20
290.4013287665435
 10
1748.756195547867
 20
289.8383485708511
 42
0.0153673458903159
 10
1748.635873493944
 20
288.9244118349177
 10
1746.46068505094
 20
288.9244118348866
 42
0.4142135623680338
 10
1744.960685050959
 20
287.424411834886
 42
0.4142135623781563
 10
1746.460685050978
 20
285.9244118348812
 10
1748.635873493928
 20
285.9244118349122
 42
0.0153673458907326
 10
1748.756195547845
 20
285.0104750989519
 10
1746.655124853709
 20
284.4474949031851
 42
0.4142135623674132
 10
1745.594464681536
 20
282.6103775959931
 42
-0.0000000000000178
 10
1745.594464681945
 20
282.6103775961036
 42
0.4142135623786436
 10
1747.431581989065
 20
281.5497174243229
 10
1749.532652683139
 20
282.112697620073
 42
0.0153673458924932
 10
1749.88541909582
 20
281.2610441622206
 10
1748.00165064618
 20
280.1734499407312
 42
0.4142135623726442
 10
1747.452612540501
 20
278.124411835054
 42
0.4142135623740408
 10
1749.501650646188
 20
277.5753737293745
 10
1751.385419095814
 20
278.6629679508612
 42
0.0153673458912996
 10
1751.946589419148
 20
277.9316365470022
 10
1750.408498920763
 20
276.393546048619
 42
0.4142135623729539
 10
1750.40849892046
 20
274.272225704749
 42
-0.0000000000000067
 10
1750.408498920763
 20
274.2722257050532
 42
0.4142135623736129
 10
1752.529819264331
 20
274.2722257050532
 10
1754.067909762713
 20
275.8103162034367
 42
0.0153673458914105
 10
1754.799241166411
 20
275.2491458802168
 10
1753.711646944896
 20
273.3653774306052
 42
0.4142135623741649
 10
1754.260685050545
 20
271.3163393249114
 42
0.4142135623724973
 10
1756.309723156232
 20
271.8653774305592
 10
1757.397317377749
 20
273.7491458801803
 42
0.0153673458894141
 10
1758.248970835421
 20
273.3963794675484
 10
1757.685990639673
 20
271.2953087734297
 42
0.4142135623706081
 10
1758.746650811426
 20
269.4581914663312
 42
0.4142135623752763
 10
1760.583768118532
 20
270.5188516380924
 10
1761.146748314278
 20
272.6199223321848
 42
0.0153673458900511
 10
1762.0606850502
 20
272.4996002782457
 10
1762.060685050153
 20
270.3244118352702
 42
0.4142135623724624
 10
1763.560685050118
 20
268.824411835234
 42
0.4142135623741939
 10
1765.060685050153
 20
270.3244118352058
 10
1765.060685050202
 20
272.4996002781713
 42
0.0153673458896744
 10
1765.9746217861
 20
272.6199223320668
 10
1766.537601981783
 20
270.5188516379263
 42
0.4142135623706029
 10
1768.374719288846
 20
269.458191466103
 42
-0.0000000000000586
 10
1768.374719288955
 20
269.4581914656852
 42
0.4142135623752802
 10
1769.435379460683
 20
271.2953087731753
 10
1768.872399264995
 20
273.3963794672872
 42
0.0153673459018666
 10
1769.72405272337
 20
273.749145880178
 10
1770.811646944888
 20
271.8653774305592
 42
0.4142135623725022
 10
1772.860685050793
 20
271.3163393245393
 42
0.414213562374178
 10
1773.409723156223
 20
273.3653774306052
 10
1772.322128934715
 20
275.2491458802168
 42
0.0153673458880387
 10
1773.053460338407
 20
275.8103162034367
 10
1774.591550836789
 20
274.2722257050532
 42
0.4142135623735921
 10
1776.712871180357
 20
274.2722257050532
 42
-0.0000000000000033
 10
1776.712871180668
 20
274.272225704749
 42
0.4142135623729751
 10
1776.712871180357
 20
276.393546048619
 10
1775.174780681975
 20
277.9316365470022
 42
0.0153673458913064
 10
1775.735951005308
 20
278.6629679508612
 10
1777.619719454932
 20
277.5753737293745
 42
0.4142135623740648
 10
1779.668757560996
 20
278.1244118348378
 42
0.4142135623726528
 10
1779.11971945494
 20
280.1734499407336
 10
1777.235951005303
 20
281.2610441622206
 42
0.0153673458924964
 10
1777.588717417987
 20
282.112697620073
 10
1779.689788112063
 20
281.5497174243229
 42
0.4142135623786539
 10
1781.526905419175
 20
282.6103775961036
 42
-0.0000000000000164
 10
1781.52690541959
 20
282.6103775959931
 42
0.4142135623673903
 10
1780.466245247411
 20
284.4474949031851
 10
1778.365174553278
 20
285.0104750989519
 42
0.0153673458907269
 10
1778.485496607195
 20
285.9244118349122
 10
1780.660685050136
 20
285.9244118348812
 42
0.4142135623781563
 10
1782.160685050595
 20
287.424411834886
 42
0.4142135623680338
 10
1780.660685050186
 20
288.9244118348866
 10
1778.485496607181
 20
288.9244118349177
 42
0.0153673458903198
 10
1778.365174553256
 20
289.8383485708511
 10
1780.466245247349
 20
290.4013287665435
 42
0.4142135623770255
 10
1781.52690541957
 20
292.2384460737526
 42
0.4142135623687475
 10
1779.689788112088
 20
293.2991062454272
 10
1777.588717417938
 20
292.7361260497225
 42
0.0153673458900025
 10
1777.235951005311
 20
293.5877795074388
 10
1779.119719454946
 20
294.6753737288893
 42
0.4142135623759459
 10
1779.668757560644
 20
296.7244118345764
 42
0.4142135623697933
 10
1777.619719454976
 20
297.2734499402702
 10
1775.735951005311
 20
296.1858557188029
 42
0.0153673458898869
 10
1775.174780682029
 20
296.9171871225968
 10
1776.71287118043
 20
298.4552776209469
 42
0.4142135623753061
 10
1776.712871180463
 20
300.5765979645148
 42
0.414213562370578
 10
1774.591550836901
 20
300.5765979645435
 10
1773.05346033848
 20
299.0385074661718
 42
0.0153673458896318
 10
1772.322128934715
 20
299.5996777894545
 10
1773.409723156221
 20
301.4834462390685
 42
0.4142135623741773
 10
1772.860685050577
 20
303.5324843447579
 42
0.4142135623725025
 10
1770.811646944896
 20
302.9834462391094
 10
1769.724052723373
 20
301.0996777894907
 42
0.0153673458896367
 10
1768.87239926568
 20
301.4524442021226
 10
1769.435379460675
 20
303.5535148964961
 42
0.414213562375284
 10
1768.374719288846
 20
305.3906322035659
 42
0.4142135623706071
 10
1766.537601981783
 20
304.3299720317447
 10
1765.9746217861
 20
302.2289013376042
 42
0.0153673458897204
 10
1765.060685050202
 20
302.3492233914969
 10
1765.060685050153
 20
304.5244118344656
 42
0.4142135623741939
 10
1763.560685050118
 20
306.0244118344373
 42
0.4142135623724624
 10
1762.060685050153
 20
304.5244118344011
 10
1762.0606850502
 20
302.349223391425
 42
0.0153673458900033
 10
1761.146748314283
 20
302.2289013374841
  0
LWPOLYLINE
  5
16F
330
F1B
100
AcDbEntity
  8
STEP4
100
AcDbPolyline
 90
        4
 70
     1
 43
0.0
 10
1763.560685050563
 20
241.473660172779
 42
0.4142135623730951
 10
1760.560685050557
 20
238.4736601727735
 42
0.4142135623730951
 10
1763.560685050563
 20
235.473660172768
 42
0.4142135623730951
 10
1766.560685050568
 20
238.4736601727735
 42
0.4142135623730951
  0
LWPOLYLINE
  5
170
330
F1B
100
AcDbEntity
  8
STEP4
100
AcDbPolyline
 90
      126
 70
     1
 43
0.0
 10
1760.583768118532
 20
255.3792203695198
 42
0.4142135623752765
 10
1758.746650811314
 20
256.4398805416934
 42
-0.0000000000000548
 10
1758.746650811426
 20
256.4398805412786
 42
0.4142135623706071
 10
1757.685990639673
 20
254.6027632341774
 10
1758.248970835432
 20
252.5016925400586
 42
0.0153673458894629
 10
1757.397317377749
 20
252.1489261274314
 10
1756.309723156227
 20
254.03269457705
 42
0.4142135623725004
 10
1754.260685050545
 20
254.5817326826981
 42
0.414213562374165
 10
1753.711646944899
 20
252.5326945770065
 10
1754.799241166411
 20
250.6489261273953
 42
0.0153673458896443
 10
1754.06790976264
 20
250.0877558041126
 10
1752.529819264214
 20
251.6258463024815
 42
0.4142135623705994
 10
1750.408498920665
 20
251.6258463024552
 42
0.4142135623752613
 10
1750.408498920692
 20
249.5045259588853
 10
1751.946589419091
 20
247.9664354605349
 42
0.015367345889885
 10
1751.385419095812
 20
247.2351040567406
 10
1749.501650646144
 20
248.3226982782086
 42
0.4142135623697853
 10
1747.452612540476
 20
247.7736601725164
 42
0.414213562375968
 10
1748.001650646177
 20
245.7246220668273
 10
1749.885419095814
 20
244.6370278453788
 42
0.0153673458900064
 10
1749.532652683182
 20
243.7853743876632
 10
1747.431581989035
 20
244.3483545833672
 42
0.4142135623687175
 10
1745.594464681967
 20
243.2876944115801
 42
0.4142135623770097
 10
1746.655124853771
 20
241.450577104484
 10
1748.756195547867
 20
240.8875969087918
 42
0.0153673458903159
 10
1748.635873493944
 20
239.9736601728581
 10
1746.46068505094
 20
239.9736601728243
 42
0.4142135623680338
 10
1744.960685050959
 20
238.4736601728267
 42
0.4142135623781563
 10
1746.460685050978
 20
236.9736601728189
 10
1748.635873493928
 20
236.9736601728527
 42
0.0153673458907326
 10
1748.756195547845
 20
236.05972343689
 10
1746.655124853709
 20
235.4967432411235
 42
0.4142135623674132
 10
1745.594464681536
 20
233.6596259339339
 42
-0.0000000000000178
 10
1745.594464681945
 20
233.659625934044
 42
0.4142135623786436
 10
1747.431581989065
 20
232.598965762261
 10
1749.532652683139
 20
233.1619459580138
 42
0.0153673458924932
 10
1749.88541909582
 20
232.3102925001586
 10
1748.00165064618
 20
231.2226982786713
 42
0.4142135623726442
 10
1747.452612540501
 20
229.1736601729945
 42
0.4142135623740408
 10
1749.501650646188
 20
228.6246220673146
 10
1751.385419095814
 20
229.7122162887996
 42
0.0153673458912996
 10
1751.946589419148
 20
228.9808848849426
 10
1750.408498920763
 20
227.4427943865567
 42
0.4142135623729539
 10
1750.40849892046
 20
225.321474042689
 42
-0.0000000000000067
 10
1750.408498920763
 20
225.3214740429939
 42
0.4142135623736129
 10
1752.529819264331
 20
225.3214740429915
 10
1754.067909762713
 20
226.8595645413775
 42
0.0153673458914105
 10
1754.799241166411
 20
226.2983942181548
 10
1753.711646944896
 20
224.4146257685436
 42
0.4142135623741649
 10
1754.260685050545
 20
222.3655876628515
 42
0.4142135623724973
 10
1756.309723156232
 20
222.9146257684972
 10
1757.397317377749
 20
224.7983942181187
 42
0.0153673458894141
 10
1758.248970835421
 20
224.4456278054892
 10
1757.685990639673
 20
222.3445571113698
 42
0.4142135623706081
 10
1758.746650811426
 20
220.5074398042713
 42
0.4142135623752763
 10
1760.583768118532
 20
221.5680999760325
 10
1761.146748314278
 20
223.6691706701253
 42
0.0153673458900511
 10
1762.0606850502
 20
223.5488486161841
 10
1762.060685050153
 20
221.3736601732086
 42
0.4142135623724624
 10
1763.560685050118
 20
219.8736601731721
 42
0.4142135623741939
 10
1765.060685050153
 20
221.3736601731434
 10
1765.060685050202
 20
223.5488486161121
 42
0.0153673458896744
 10
1765.9746217861
 20
223.6691706700049
 10
1766.537601981783
 20
221.5680999758667
 42
0.4142135623706029
 10
1768.374719288846
 20
220.5074398040434
 42
-0.0000000000000586
 10
1768.374719288955
 20
220.507439803626
 42
0.4142135623752802
 10
1769.435379460683
 20
222.3445571111154
 10
1768.872399264995
 20
224.4456278052272
 42
0.0153673459018666
 10
1769.72405272337
 20
224.7983942181187
 10
1770.811646944888
 20
222.9146257684972
 42
0.4142135623725022
 10
1772.860685050793
 20
222.3655876624794
 42
0.414213562374178
 10
1773.409723156223
 20
224.4146257685436
 10
1772.322128934715
 20
226.2983942181548
 42
0.0153673458880387
 10
1773.053460338407
 20
226.8595645413751
 10
1774.591550836789
 20
225.3214740429915
 42
0.4142135623735921
 10
1776.712871180357
 20
225.3214740429939
 42
-0.0000000000000033
 10
1776.712871180668
 20
225.321474042689
 42
0.4142135623729751
 10
1776.712871180357
 20
227.4427943865567
 10
1775.174780681975
 20
228.9808848849426
 42
0.0153673458913064
 10
1775.735951005308
 20
229.7122162887996
 10
1777.619719454932
 20
228.6246220673146
 42
0.4142135623740648
 10
1779.668757560996
 20
229.1736601727758
 42
0.4142135623726528
 10
1779.11971945494
 20
231.2226982786713
 10
1777.235951005303
 20
232.3102925001586
 42
0.0153673458924964
 10
1777.588717417987
 20
233.1619459580138
 10
1779.689788112063
 20
232.598965762261
 42
0.4142135623786539
 10
1781.526905419175
 20
233.659625934044
 42
-0.0000000000000164
 10
1781.52690541959
 20
233.6596259339339
 42
0.4142135623673903
 10
1780.466245247411
 20
235.4967432411235
 10
1778.365174553278
 20
236.05972343689
 42
0.0153673458907269
 10
1778.485496607195
 20
236.9736601728527
 10
1780.660685050136
 20
236.9736601728189
 42
0.4142135623781563
 10
1782.160685050595
 20
238.4736601728267
 42
0.4142135623680338
 10
1780.660685050186
 20
239.9736601728243
 10
1778.485496607181
 20
239.9736601728581
 42
0.0153673458903198
 10
1778.365174553256
 20
240.8875969087918
 10
1780.466245247349
 20
241.450577104484
 42
0.4142135623770255
 10
1781.52690541957
 20
243.2876944116903
 42
0.4142135623687475
 10
1779.689788112088
 20
244.3483545833672
 10
1777.588717417938
 20
243.7853743876632
 42
0.0153673458900025
 10
1777.235951005311
 20
244.6370278453788
 10
1779.119719454946
 20
245.7246220668273
 42
0.4142135623759459
 10
1779.668757560644
 20
247.7736601725164
 42
0.4142135623697933
 10
1777.619719454976
 20
248.3226982782086
 10
1775.735951005311
 20
247.2351040567406
 42
0.0153673458898869
 10
1775.174780682029
 20
247.9664354605349
 10
1776.71287118043
 20
249.5045259588853
 42
0.4142135623753061
 10
1776.712871180463
 20
251.6258463024552
 42
0.414213562370578
 10
1774.591550836901
 20
251.6258463024815
 10
1773.05346033848
 20
250.0877558041126
 42
0.0153673458896318
 10
1772.322128934715
 20
250.6489261273953
 10
1773.409723156221
 20
252.5326945770065
 42
0.4142135623741773
 10
1772.860685050577
 20
254.5817326826981
 42
0.4142135623725025
 10
1770.811646944896
 20
254.03269457705
 10
1769.724052723373
 20
252.1489261274314
 42
0.0153673458896367
 10
1768.87239926568
 20
252.501692540063
 10
1769.435379460675
 20
254.6027632344369
 42
0.414213562375284
 10
1768.374719288846
 20
256.4398805415068
 42
0.4142135623706071
 10
1766.537601981783
 20
255.3792203696828
 10
1765.9746217861
 20
253.2781496755447
 42
0.0153673458897204
 10
1765.060685050202
 20
253.3984717294375
 10
1765.060685050153
 20
255.5736601724064
 42
0.4142135623741939
 10
1763.560685050118
 20
257.0736601723758
 42
0.4142135623724624
 10
1762.060685050153
 20
255.573660172342
 10
1762.0606850502
 20
253.3984717293631
 42
0.0153673458900033
 10
1761.146748314283
 20
253.278149675425
  0
LWPOLYLINE
  5
171
330
F1B
100
AcDbEntity
  8
STEP4
100
AcDbPolyline
 90
        4
 70
     1
 43
0.0
 10
1245.972280410996
 20
-131.4738024106228
 10
1245.972280410996
 20
-137.4738024106351
 10
1323.972280411138
 20
-137.4738024106351
 10
1323.972280411138
 20
-131.4738024106228
  0
LWPOLYLINE
  5
173
330
F1B
100
AcDbEntity
  8
STEP5
100
AcDbPolyline
 90
        4
 70
     1
 43
0.0
 10
1532.235197177181
 20
-49.23745895061552
 42
0.4142135623730951
 10
1457.689930353168
 20
-123.7827257746273
 42
0.4142135623730951
 10
1532.235197177181
 20
-198.3279925986398
 42
0.4142135623730951
 10
1606.780464001191
 20
-123.7827257746273
 42
0.4142135623730951
  0
LWPOLYLINE
  5
174
330
F1B
100
AcDbEntity
  8
STEP5
100
AcDbPolyline
 90
        4
 70
     1
 43
0.0
 10
1499.235197177121
 20
-97.08272577441562
 10
1499.235197177121
 20
-85.08272577439379
 10
1502.235197177121
 20
-85.08272577439379
 10
1502.235197177121
 20
-97.08272577441562
  0
LWPOLYLINE
  5
175
330
F1B
100
AcDbEntity
  8
STEP5
100
AcDbPolyline
 90
        4
 70
     1
 43
0.0
 10
1562.23519717723
 20
-97.08272577441562
 10
1562.23519717723
 20
-85.08272577439379
 10
1565.235197177236
 20
-85.08272577439379
 10
1565.235197177236
 20
-97.08272577441562
  0
LWPOLYLINE
  5
176
330
F1B
100
AcDbEntity
  8
STEP5
100
AcDbPolyline
 90
        4
 70
     1
 43
0.0
 10
1499.235197177121
 20
-151.0827257745138
 10
1499.235197177121
 20
-163.0827257745357
 10
1502.235197177121
 20
-163.0827257745357
 10
1502.235197177121
 20
-151.0827257745138
  0
LWPOLYLINE
  5
177
330
F1B
100
AcDbEntity
  8
STEP5
100
AcDbPolyline
 90
        4
 70
     1
 43
0.0
 10
1562.23519717723
 20
-151.0827257745138
 10
1562.23519717723
 20
-163.0827257745357
 10
1565.235197177236
 20
-163.0827257745357
 10
1565.235197177236
 20
-151.0827257745138
  0
LWPOLYLINE
  5
178
330
F1B
100
AcDbEntity
  8
STEP5
100
AcDbPolyline
 90
       20
 70
     1
 43
0.0
 10
1392.682575402909
 20
14.59420041849978
 10
1398.682575402919
 20
14.59420041849978
 10
1398.682575402919
 20
11.59420041849194
 10
1392.682575402909
 20
11.59420041849194
 10
1392.682575402909
 20
-36.40579958159026
 10
1398.682575402919
 20
-36.40579958159026
 10
1398.682575402919
 20
-39.40579958159844
 10
1392.682575402909
 20
-39.40579958159844
 10
1392.682575402909
 20
-42.40579958160117
 10
1570.89873628644
 20
-42.40579958160117
 10
1570.89873628644
 20
-39.40579958159844
 10
1564.898736286429
 20
-39.40579958159844
 10
1564.898736286429
 20
-36.40579958159026
 10
1570.89873628644
 20
-36.40579958159026
 10
1570.89873628644
 20
11.59420041849194
 10
1564.898736286429
 20
11.59420041849194
 10
1564.898736286429
 20
14.59420041849978
 10
1570.89873628644
 20
14.59420041849978
 10
1570.89873628644
 20
17.59420041850797
 10
1392.682575402909
 20
17.59420041850797
  0
LWPOLYLINE
  5
179
330
F1B
100
AcDbEntity
  8
STEP5
100
AcDbPolyline
 90
       20
 70
     1
 43
0.0
 10
1146.198162303872
 20
119.4159527384109
 10
1147.96567877623
 20
121.8399753290636
 10
1143.117633594926
 20
125.3750082737743
 10
1144.001391831024
 20
126.587019568985
 42
-0.4142135623730962
 10
1146.097161362524
 20
126.9152726281331
 10
1156.720746454907
 20
119.1689084982371
 42
0.158824072759869
 10
1157.60450469109
 20
118.8809197935583
 10
1161.546207485336
 20
118.8809197935583
 42
-0.4142135623733081
 10
1163.046207485345
 20
117.3809197935555
 10
1163.046207485347
 20
115.8809197937138
 10
1157.046207485334
 20
115.8809197937138
 10
1157.046207485334
 20
112.8809197937083
 10
1163.046207485339
 20
112.8809197936964
 10
1163.046207485339
 20
111.3809197938642
 42
-0.4142135623728287
 10
1161.546207485334
 20
109.8809197938615
 10
1157.60450469109
 20
109.8809197938615
 42
-0.158824072759869
 10
1151.418197038033
 20
111.8968407265442
 10
1140.794611945459
 20
119.6432048561784
 42
-0.4142135623731783
 10
1140.466358886306
 20
121.7389743876801
 10
1141.350117122573
 20
122.9509856831245
  0
LWPOLYLINE
  5
17A
330
F1B
100
AcDbEntity
  8
STEP5
100
AcDbPolyline
 90
       20
 70
     1
 43
0.0
 10
1146.198162303872
 20
135.1453292876758
 10
1147.96567877623
 20
137.5693518783277
 10
1143.117633594926
 20
141.1043848230389
 10
1144.001391831024
 20
142.3163961182499
 42
-0.4142135623730962
 10
1146.097161362524
 20
142.644649177398
 10
1156.720746454907
 20
134.898285047502
 42
0.158824072759869
 10
1157.60450469109
 20
134.6102963428228
 10
1161.546207485336
 20
134.6102963428228
 42
-0.4142135623733081
 10
1163.046207485345
 20
133.1102963428201
 10
1163.046207485347
 20
131.6102963429783
 10
1157.046207485334
 20
131.6102963429783
 10
1157.046207485334
 20
128.6102963429729
 10
1163.046207485339
 20
128.6102963429609
 10
1163.046207485339
 20
127.1102963431287
 42
-0.4142135623728287
 10
1161.546207485334
 20
125.610296343126
 10
1157.60450469109
 20
125.610296343126
 42
-0.158824072759869
 10
1151.418197038033
 20
127.6262172758091
 10
1140.794611945459
 20
135.3725814054433
 42
-0.4142135623731783
 10
1140.466358886306
 20
137.468350936945
 10
1141.350117122573
 20
138.6803622323893
  0
LWPOLYLINE
  5
17B
330
F1B
100
AcDbEntity
  8
STEP5
100
AcDbPolyline
 90
       20
 70
     1
 43
0.0
 10
1130.940490854956
 20
156.2191654813816
 42
0.4142135623733615
 10
1132.440490854959
 20
154.7191654813789
 10
1141.474083959885
 20
154.7191654813789
 42
-0.1588240727594455
 10
1142.357842196063
 20
154.4311767767028
 10
1149.657053449913
 20
149.1088352374348
 42
0.4142135623730338
 10
1151.752822981416
 20
149.4370882965829
 10
1152.636581217591
 20
150.6490995919113
 10
1147.788536036287
 20
154.1841325366128
 10
1149.556052508639
 20
156.6081551272679
 10
1154.404097689949
 20
153.0731221825639
 10
1155.287855926118
 20
154.2851334778905
 42
0.4142135623732023
 10
1154.95960286697
 20
156.3809030093944
 10
1147.660391613117
 20
161.7032445486617
 42
0.1588240727594455
 10
1141.474083959885
 20
163.719165481076
 10
1132.440490854967
 20
163.7191654813953
 42
0.41421356237274
 10
1130.940490854964
 20
162.2191654813925
 10
1130.940490854956
 20
160.719165481399
 10
1136.940490854975
 20
160.7191654813898
 10
1136.940490854967
 20
157.7191654813728
 10
1130.940490854956
 20
157.7191654813844
  0
LWPOLYLINE
  5
17C
330
F1B
100
AcDbEntity
  8
STEP5
100
AcDbPolyline
 90
       20
 70
     1
 43
0.0
 10
1130.940490854956
 20
171.9485420306465
 42
0.4142135623733615
 10
1132.440490854959
 20
170.4485420306438
 10
1141.474083959885
 20
170.4485420306438
 42
-0.1588240727594455
 10
1142.357842196063
 20
170.1605533259667
 10
1149.657053449913
 20
164.8382117866997
 42
0.4142135623730338
 10
1151.752822981416
 20
165.1664648458475
 10
1152.636581217591
 20
166.3784761411761
 10
1147.788536036287
 20
169.9135090858777
 10
1149.556052508639
 20
172.3375316765327
 10
1154.404097689949
 20
168.8024987318288
 10
1155.287855926118
 20
170.0145100271551
 42
0.4142135623732023
 10
1154.95960286697
 20
172.1102795586593
 10
1147.660391613117
 20
177.4326210979266
 42
0.1588240727594455
 10
1141.474083959885
 20
179.4485420303406
 10
1132.440490854967
 20
179.4485420306602
 42
0.41421356237274
 10
1130.940490854964
 20
177.9485420306595
 10
1130.940490854956
 20
176.4485420306639
 10
1136.940490854975
 20
176.4485420306547
 10
1136.940490854967
 20
173.448542030637
 10
1130.940490854956
 20
173.4485420306492
  0
LWPOLYLINE
  5
17D
330
F1B
100
AcDbEntity
  8
STEP5
100
AcDbPolyline
 90
       22
 70
     1
 43
0.0
 10
1888.12110902196
 20
-213.5716036908915
 10
1888.12110902196
 20
-206.3716036908632
 10
1886.621109021966
 20
-206.3716036908632
 42
0.4142135623731642
 10
1885.121109021963
 20
-207.871603690866
 10
1885.121109021966
 20
-220.7716036908901
 10
1909.121109021998
 20
-220.7716036909017
 10
1909.121109021998
 20
-223.7716036909071
 10
1918.721109022012
 20
-223.7716036909071
 10
1918.721109022012
 20
-220.7716036909017
 10
1935.521109022045
 20
-220.7716036909017
 10
1935.521109022045
 20
-223.7716036909071
 10
1945.121109022064
 20
-223.7716036909071
 10
1945.121109022064
 20
-220.7716036909017
 10
1957.121109022083
 20
-220.7716036909017
 10
1957.121109022083
 20
-207.8716036908793
 42
0.4142135623733615
 10
1955.621109022083
 20
-206.3716036908776
 10
1954.12110902208
 20
-206.3716036908776
 10
1954.12110902208
 20
-213.5716036908891
 10
1951.121109022075
 20
-213.5716036908915
 10
1951.121109022075
 20
-206.3716036908748
 10
1891.121109021963
 20
-206.3716036908632
 10
1891.121109021963
 20
-213.5716036908915
  0
LWPOLYLINE
  5
17E
330
F1B
100
AcDbEntity
  8
STEP5
100
AcDbPolyline
 90
        4
 70
     1
 43
0.0
 10
1948.121109022067
 20
-209.3716036908803
 10
1948.121109022067
 20
-214.7716036908907
 10
1894.121109021977
 20
-214.7716036908791
 10
1894.121109021977
 20
-209.3716036908694
  0
LWPOLYLINE
  5
17F
330
F1B
100
AcDbEntity
  8
STEP5
100
AcDbPolyline
 90
       18
 70
     1
 43
0.0
 10
1606.242329550299
 20
-206.3716036908643
 42
-0.4142135623730951
 10
1607.742329550302
 20
-207.871603690867
 10
1607.742329550302
 20
-220.7716036908901
 10
1604.742329550296
 20
-220.7716036908901
 10
1604.742329550296
 20
-213.5716036908768
 10
1601.742329550291
 20
-213.5716036908768
 10
1601.742329550291
 20
-220.7716036908901
 10
1578.042329550249
 20
-220.7716036908901
 10
1578.042329550249
 20
-223.7716036908955
 10
1568.44232955023
 20
-223.7716036908955
 10
1568.44232955023
 20
-220.7716036908901
 10
1544.742329550185
 20
-220.7716036908901
 10
1544.742329550185
 20
-213.5716036908768
 10
1541.742329550174
 20
-213.5716036908768
 10
1541.742329550174
 20
-220.7716036908901
 10
1538.742329550176
 20
-220.7716036908901
 10
1538.742329550176
 20
-207.871603690867
 42
-0.4142135623730951
 10
1540.242329550179
 20
-206.3716036908643
  0
LWPOLYLINE
  5
180
330
F1B
100
AcDbEntity
  8
STEP5
100
AcDbPolyline
 90
        4
 70
     1
 43
0.0
 10
1547.742329550193
 20
-209.3716036908698
 10
1547.742329550193
 20
-214.7716036908802
 10
1598.742329550286
 20
-214.7716036908802
 10
1598.742329550286
 20
-209.3716036908698
  0
LWPOLYLINE
  5
181
330
F1B
100
AcDbEntity
  8
STEP5
100
AcDbPolyline
 90
       22
 70
     1
 43
0.0
 10
1378.559592115871
 20
-207.871603690866
 42
-0.4142135623730951
 10
1380.059592115874
 20
-206.3716036908632
 10
1525.559592116138
 20
-206.3716036908632
 10
1525.559592116138
 20
-213.5716036908782
 10
1528.559592116144
 20
-213.5716036908782
 10
1528.559592116144
 20
-206.3716036908632
 10
1530.059592116147
 20
-206.3716036908632
 42
-0.4142135623730951
 10
1531.559592116149
 20
-207.871603690866
 10
1531.559592116149
 20
-220.7716036908901
 10
1510.559592116111
 20
-220.7716036908901
 10
1510.559592116111
 20
-223.7716036908955
 10
1500.959592116095
 20
-223.7716036908955
 10
1500.959592116095
 20
-220.7716036908901
 10
1455.359592116011
 20
-220.7716036908901
 10
1455.359592116011
 20
-223.7716036908955
 10
1445.75959211599
 20
-223.7716036908955
 10
1445.75959211599
 20
-220.7716036908901
 10
1400.159592115911
 20
-220.7716036908901
 10
1400.159592115911
 20
-223.7716036908955
 10
1390.559592115893
 20
-223.7716036908955
 10
1390.559592115893
 20
-220.7716036908901
 10
1378.559592115871
 20
-220.7716036908901
  0
LWPOLYLINE
  5
182
330
F1B
100
AcDbEntity
  8
STEP5
100
AcDbPolyline
 90
        4
 70
     1
 43
0.0
 10
1450.559592116002
 20
-209.3716036908694
 10
1384.559592115882
 20
-209.3716036908694
 10
1384.559592115882
 20
-214.7716036908791
 10
1450.559592116002
 20
-214.7716036908791
  0
LWPOLYLINE
  5
183
330
F1B
100
AcDbEntity
  8
STEP5
100
AcDbPolyline
 90
        4
 70
     1
 43
0.0
 10
1522.559592116133
 20
-214.7716036908791
 10
1456.559592116013
 20
-214.7716036908791
 10
1456.559592116013
 20
-209.3716036908694
 10
1522.559592116133
 20
-209.3716036908694
  0
LWPOLYLINE
  5
184
330
F1B
100
AcDbEntity
  8
STEP5
100
AcDbPolyline
 90
        4
 70
     1
 43
0.0
 10
1793.300314959892
 20
284.5593748249754
 42
0.4142135623730951
 10
1784.300314959875
 20
275.559374824959
 42
0.4142135623730951
 10
1793.300314959892
 20
266.5593748249427
 42
0.4142135623730951
 10
1802.300314959908
 20
275.559374824959
 42
0.4142135623730951
  0
LWPOLYLINE
  5
185
330
F1B
100
AcDbEntity
  8
STEP5
100
AcDbPolyline
 90
        4
 70
     1
 43
0.0
 10
1793.300314959892
 20
235.6086231629131
 42
0.4142135623730951
 10
1784.300314959875
 20
226.6086231628967
 42
0.4142135623730951
 10
1793.300314959892
 20
217.6086231628803
 42
0.4142135623730951
 10
1802.300314959908
 20
226.6086231628967
 42
0.4142135623730951
  0
LWPOLYLINE
  5
186
330
F1B
100
AcDbEntity
  8
STEP5
100
AcDbPolyline
 90
       22
 70
     1
 43
0.0
 10
775.8243747882643
 20
-207.871603690866
 10
775.8243747882643
 20
-220.7716036908901
 10
787.8243747882861
 20
-220.7716036908901
 10
787.8243747882861
 20
-223.7716036908955
 10
797.4243747883047
 20
-223.7716036908955
 10
797.4243747883047
 20
-220.7716036908901
 10
850.9743747884041
 20
-220.7716036908901
 10
850.9743747884041
 20
-223.7716036908955
 10
860.5743747884199
 20
-223.7716036908955
 10
860.5743747884199
 20
-220.7716036908901
 10
914.1243747885219
 20
-220.7716036908901
 10
914.1243747885219
 20
-223.7716036908955
 10
923.7243747885377
 20
-223.7716036908955
 10
923.7243747885377
 20
-220.7716036908901
 10
967.8243747886245
 20
-220.7716036908901
 10
967.8243747886245
 20
-207.871603690866
 42
0.4142135623730951
 10
966.3243747886189
 20
-206.3716036908632
 10
964.824374788608
 20
-206.3716036908632
 10
964.8243747886162
 20
-213.5716036908758
 10
961.8243747886108
 20
-213.5716036908782
 10
961.8243747886108
 20
-206.3716036908632
 10
777.324374788267
 20
-206.3716036908632
 42
0.4142135623730951
  0
LWPOLYLINE
  5
187
330
F1B
100
AcDbEntity
  8
STEP5
100
AcDbPolyline
 90
        4
 70
     1
 43
0.0
 10
958.824374788608
 20
-209.3716036908666
 10
958.8243747886053
 20
-214.7716036908791
 10
874.8243747884526
 20
-214.7716036908764
 10
874.8243747884526
 20
-209.3716036908666
  0
LWPOLYLINE
  5
188
330
F1B
100
AcDbEntity
  8
STEP5
100
AcDbPolyline
 90
        4
 70
     1
 43
0.0
 10
784.8243747882807
 20
-209.3716036908666
 10
868.8243747884335
 20
-209.3716036908666
 10
868.8243747884335
 20
-214.7716036908764
 10
784.8243747882807
 20
-214.7716036908764
  0
LWPOLYLINE
  5
189
330
F1B
100
AcDbEntity
  8
STEP5
100
AcDbPolyline
 90
       30
 70
     1
 43
0.0
 10
978.8187123476191
 20
-213.5716036908761
 10
978.8187123476246
 20
-220.7716036908897
 10
1008.818712347679
 20
-220.7716036908901
 10
1008.818712347679
 20
-223.7716036908952
 10
1018.418712347689
 20
-223.7716036908952
 10
1018.418712347689
 20
-220.7716036908897
 10
1108.118712347863
 20
-220.7716036908901
 10
1108.118712347863
 20
-223.7716036908952
 10
1117.718712347873
 20
-223.7716036908952
 10
1117.718712347873
 20
-220.7716036908897
 10
1160.918712347954
 20
-220.7716036908901
 10
1160.918712347954
 20
-223.7716036908952
 10
1170.518712347967
 20
-223.7716036908952
 10
1170.518712347967
 20
-220.7716036908897
 10
1260.218712348138
 20
-220.7716036908901
 10
1260.218712348138
 20
-223.7716036908952
 10
1269.818712348154
 20
-223.7716036908952
 10
1269.818712348154
 20
-220.7716036908901
 10
1302.818712348217
 20
-220.7716036908901
 10
1302.818712348217
 20
-213.5716036908761
 10
1305.818712348219
 20
-213.5716036908761
 10
1305.818712348219
 20
-220.7716036908897
 10
1308.818712348225
 20
-220.7716036908901
 10
1308.818712348225
 20
-207.871603690866
 42
0.4142135623730951
 10
1307.318712348222
 20
-206.3716036908632
 10
974.318712347611
 20
-206.3716036908632
 42
0.4142135623730951
 10
972.8187123476082
 20
-207.871603690866
 10
972.8187123476082
 20
-220.7716036908897
 10
975.818712347619
 20
-220.7716036908897
 10
975.8187123476137
 20
-213.5716036908761
  0
LWPOLYLINE
  5
18A
330
F1B
100
AcDbEntity
  8
STEP5
100
AcDbPolyline
 90
        4
 70
     1
 43
0.0
 10
981.8187123476301
 20
-214.7716036908791
 10
981.8187123476301
 20
-209.3716036908694
 10
1056.818712347766
 20
-209.3716036908694
 10
1056.818712347766
 20
-214.7716036908791
  0
LWPOLYLINE
  5
18B
330
F1B
100
AcDbEntity
  8
STEP5
100
AcDbPolyline
 90
        4
 70
     1
 43
0.0
 10
1062.818712347777
 20
-214.7716036908791
 10
1062.818712347777
 20
-209.3716036908694
 10
1137.818712347914
 20
-209.3716036908694
 10
1137.818712347914
 20
-214.7716036908791
  0
LWPOLYLINE
  5
18C
330
F1B
100
AcDbEntity
  8
STEP5
100
AcDbPolyline
 90
        4
 70
     1
 43
0.0
 10
1143.818712347925
 20
-214.7716036908791
 10
1143.818712347925
 20
-209.3716036908694
 10
1218.818712348061
 20
-209.3716036908694
 10
1218.818712348061
 20
-214.7716036908802
  0
LWPOLYLINE
  5
18D
330
F1B
100
AcDbEntity
  8
STEP5
100
AcDbPolyline
 90
        4
 70
     1
 43
0.0
 10
1224.818712348072
 20
-214.7716036908802
 10
1224.818712348072
 20
-209.3716036908694
 10
1299.818712348208
 20
-209.3716036908694
 10
1299.818712348208
 20
-214.7716036908791
  0
LWPOLYLINE
  5
18E
330
F1B
100
AcDbEntity
  8
STEP5
100
AcDbPolyline
 90
       18
 70
     1
 43
0.0
 10
1325.911480271973
 20
-220.7716036908901
 10
1313.911480271951
 20
-220.7716036908901
 10
1313.911480271951
 20
-207.871603690868
 42
-0.4142135623733615
 10
1315.411480271954
 20
-206.3716036908643
 10
1316.911480271957
 20
-206.371603690866
 10
1316.911480271957
 20
-213.5716036908782
 10
1319.911480271962
 20
-213.5716036908809
 10
1319.911480271962
 20
-206.3716036908632
 10
1372.411480272066
 20
-206.3716036908632
 42
-0.4142135623731506
 10
1373.911480272063
 20
-207.871603690867
 10
1373.911480272063
 20
-220.7716036908901
 10
1361.911480272041
 20
-220.7716036908901
 10
1361.911480272041
 20
-223.7716036908955
 10
1352.311480272034
 20
-223.7716036908955
 10
1352.311480272034
 20
-220.7716036908901
 10
1335.511480271989
 20
-220.7716036908901
 10
1335.511480271989
 20
-223.7716036908955
 10
1325.911480271973
 20
-223.7716036908955
  0
LWPOLYLINE
  5
18F
330
F1B
100
AcDbEntity
  8
STEP5
100
AcDbPolyline
 90
        4
 70
     1
 43
0.0
 10
1322.911480271968
 20
-209.3716036908694
 10
1322.911480271968
 20
-214.7716036908791
 10
1364.911480272052
 20
-214.7716036908791
 10
1364.911480272052
 20
-209.3716036908694
  0
LWPOLYLINE
  5
190
330
F1B
100
AcDbEntity
  8
STEP5
100
AcDbPolyline
 90
       21
 70
     1
 43
0.0
 10
1615.453093204184
 20
-220.7716036908914
 10
1627.453093204212
 20
-220.7716036908914
 10
1627.453093204212
 20
-223.7716036908979
 10
1637.053093204233
 20
-223.7716036908979
 10
1637.053093204233
 20
-220.7716036908914
 10
1731.553093204396
 20
-220.7716036908914
 10
1731.553093204396
 20
-223.7716036908979
 10
1741.153093204415
 20
-223.7716036908979
 10
1741.153093204415
 20
-220.7716036908914
 10
1830.853093204586
 20
-220.7716036908914
 10
1830.853093204586
 20
-223.7716036908979
 10
1840.453093204605
 20
-223.7716036908979
 10
1840.453093204605
 20
-220.7716036908914
 10
1873.453093204664
 20
-220.7716036908914
 10
1873.453093204664
 20
-213.5716036908782
 10
1876.453093204673
 20
-213.5716036908782
 10
1876.453093204673
 20
-220.7716036908914
 10
1879.45309320467
 20
-220.7716036908914
 10
1879.45309320467
 20
-207.8716036908684
 42
0.4142135623730951
 10
1877.953093204673
 20
-206.3716036908656
 10
1615.453093204184
 20
-206.3716036908656
  0
LWPOLYLINE
  5
191
330
F1B
100
AcDbEntity
  8
STEP5
100
AcDbPolyline
 90
        4
 70
     1
 43
0.0
 10
1703.45309320435
 20
-214.7716036908815
 10
1624.453093204212
 20
-214.7716036908819
 10
1624.453093204212
 20
-209.3716036908708
 10
1703.45309320435
 20
-209.3716036908708
  0
LWPOLYLINE
  5
192
330
F1B
100
AcDbEntity
  8
STEP5
100
AcDbPolyline
 90
        4
 70
     1
 43
0.0
 10
1791.453093204507
 20
-209.3716036908708
 10
1870.453093204654
 20
-209.3716036908708
 10
1870.453093204654
 20
-214.7716036908815
 10
1791.453093204507
 20
-214.7716036908815
  0
LWPOLYLINE
  5
193
330
F1B
100
AcDbEntity
  8
STEP5
100
AcDbPolyline
 90
        4
 70
     1
 43
0.0
 10
1709.453093204361
 20
-209.3716036908708
 10
1785.453093204504
 20
-209.3716036908708
 10
1785.453093204504
 20
-214.7716036908815
 10
1709.453093204361
 20
-214.7716036908815
  0
ENDSEC
  0
SECTION
  2
OBJECTS
  0
DICTIONARY
  5
EB7
330
0
100
AcDbDictionary
281
     1
  3
ACAD_BACKGROUND
350
F30
  3
ACAD_CIP_PREVIOUS_PRODUCT_INFO
350
F2D
  3
ACAD_COLOR
350
F0D
  3
ACAD_DETAILVIEWSTYLE
350
F15
  3
ACAD_GROUP
350
EB8
  3
ACAD_LAYOUT
350
F0C
  3
ACAD_MATERIAL
350
EBB
  3
ACAD_MLEADERSTYLE
350
F10
  3
ACAD_MLINESTYLE
350
F09
  3
ACAD_PLOTSETTINGS
350
F0B
  3
ACAD_PLOTSTYLENAME
350
EB9
  3
ACAD_SCALELIST
350
EED
  3
ACAD_SECTIONVIEWSTYLE
350
F12
  3
ACAD_TABLESTYLE
350
F0E
  3
ACAD_VISUALSTYLE
350
ED4
  3
ACDB_RECOMPOSE_DATA
350
FCE
  3
AcDbVariableDictionary
350
F40
  3
DWGPROPS
350
FCF
  0
DICTIONARY
  5
F32
330
EFF
100
AcDbDictionary
280
     1
281
     1
  3
ADSK_XREC_LAYER_RECONCILED
360
F33
  0
DICTIONARY
  5
F34
330
F21
100
AcDbDictionary
280
     1
281
     1
  3
ADSK_XREC_LAYER_RECONCILED
360
F35
  0
DICTIONARY
  5
F36
330
F22
100
AcDbDictionary
280
     1
281
     1
  3
ADSK_XREC_LAYER_RECONCILED
360
F37
  0
DICTIONARY
  5
F38
330
F23
100
AcDbDictionary
280
     1
281
     1
  3
ADSK_XREC_LAYER_RECONCILED
360
F39
  0
DICTIONARY
  5
F3A
330
F24
100
AcDbDictionary
280
     1
281
     1
  3
ADSK_XREC_LAYER_RECONCILED
360
F3B
  0
DICTIONARY
  5
F3C
330
F25
100
AcDbDictionary
280
     1
281
     1
  3
ADSK_XREC_LAYER_RECONCILED
360
F3D
  0
DICTIONARY
  5
F3E
330
F26
100
AcDbDictionary
280
     1
281
     1
  3
ADSK_XREC_LAYER_RECONCILED
360
F3F
  0
DICTIONARY
  5
F30
102
{ACAD_REACTORS
330
EB7
102
}
330
EB7
100
AcDbDictionary
281
     1
  0
XRECORD
  5
F2D
102
{ACAD_REACTORS
330
EB7
102
}
330
EB7
100
AcDbXrecord
280
     1
300
ACD
300
2013
300
ACD_F_S
  0
DICTIONARY
  5
F0D
102
{ACAD_REACTORS
330
EB7
102
}
330
EB7
100
AcDbDictionary
281
     1
  0
DICTIONARY
  5
F15
102
{ACAD_REACTORS
330
EB7
102
}
330
EB7
100
AcDbDictionary
281
     1
  3
Imperial24
350
F16
  0
DICTIONARY
  5
EB8
102
{ACAD_REACTORS
330
EB7
102
}
330
EB7
100
AcDbDictionary
281
     1
  0
DICTIONARY
  5
F0C
102
{ACAD_REACTORS
330
EB7
102
}
330
EB7
100
AcDbDictionary
281
     1
  3
Layout1
350
F1A
  3
Model
350
F1E
  0
DICTIONARY
  5
EBB
102
{ACAD_REACTORS
330
EB7
102
}
330
EB7
100
AcDbDictionary
281
     1
  3
ByBlock
350
EC4
  3
ByLayer
350
EBC
  3
Global
350
ECC
  0
DICTIONARY
  5
F10
102
{ACAD_REACTORS
330
EB7
102
}
330
EB7
100
AcDbDictionary
281
     1
  3
Standard
350
F11
  0
DICTIONARY
  5
F09
102
{ACAD_REACTORS
330
EB7
102
}
330
EB7
100
AcDbDictionary
281
     1
  3
Standard
350
F0A
  0
DICTIONARY
  5
F0B
102
{ACAD_REACTORS
330
EB7
102
}
330
EB7
100
AcDbDictionary
281
     1
  0
ACDBDICTIONARYWDFLT
  5
EB9
102
{ACAD_REACTORS
330
EB7
102
}
330
EB7
100
AcDbDictionary
281
     1
  3
Normal
350
EBA
100
AcDbDictionaryWithDefault
340
EBA
  0
DICTIONARY
  5
EED
102
{ACAD_REACTORS
330
EB7
102
}
330
EB7
100
AcDbDictionary
281
     1
  3
A0
350
EEE
  3
A1
350
EEF
  3
A2
350
EF0
  3
A3
350
EF1
  3
A4
350
EF2
  3
A5
350
EF3
  3
A6
350
EF4
  3
A7
350
EF5
  3
A8
350
EF6
  3
A9
350
EF7
  3
B0
350
EF8
  3
B1
350
EF9
  3
B2
350
EFA
  3
B3
350
EFB
  3
B4
350
EFC
  3
B5
350
EFD
  3
B6
350
EFE
  0
DICTIONARY
  5
F12
102
{ACAD_REACTORS
330
EB7
102
}
330
EB7
100
AcDbDictionary
281
     1
  3
Imperial24
350
F14
  0
DICTIONARY
  5
F0E
102
{ACAD_REACTORS
330
EB7
102
}
330
EB7
100
AcDbDictionary
281
     1
  3
Standard
350
F0F
  0
DICTIONARY
  5
ED4
102
{ACAD_REACTORS
330
EB7
102
}
330
EB7
100
AcDbDictionary
281
     1
  3
2dWireframe
350
EDA
  3
Basic
350
ED9
  3
Brighten
350
EE0
  3
ColorChange
350
EE4
  3
Conceptual
350
EDD
  3
Dim
350
EDF
  3
EdgeColorOff
350
EEC
  3
Facepattern
350
EE3
  3
Flat
350
ED5
  3
FlatWithEdges
350
ED6
  3
Gouraud
350
ED7
  3
GouraudWithEdges
350
ED8
  3
Hidden
350
EDC
  3
JitterOff
350
EEA
  3
Linepattern
350
EE2
  3
OverhangOff
350
EEB
  3
Realistic
350
EDE
  3
Shaded
350
EE9
  3
Shaded with edges
350
EE8
  3
Shades of Gray
350
EE5
  3
Sketchy
350
EE6
  3
Thicken
350
EE1
  3
Wireframe
350
EDB
  3
X-Ray
350
EE7
  0
XRECORD
  5
FCE
102
{ACAD_REACTORS
330
EB7
102
}
330
EB7
100
AcDbXrecord
280
     1
 90
        1
330
F0F
  0
DICTIONARY
  5
F40
102
{ACAD_REACTORS
330
EB7
102
}
330
EB7
100
AcDbDictionary
281
     1
  3
CANNOSCALE
350
F45
  3
CMLEADERSTYLE
350
F42
  3
CTABLESTYLE
350
F41
  3
CVIEWDETAILSTYLE
350
F43
  3
CVIEWSECTIONSTYLE
350
F44
  3
DIMASSOC
350
F48
  3
INDEXCTL
350
F47
  3
SORTENTS
350
F46
  3
XCLIPFRAME
350
F49
  0
XRECORD
  5
FCF
102
{ACAD_REACTORS
330
EB7
102
}
330
EB7
100
AcDbXrecord
280
     1
  1
DWGPROPS COOKIE
  2

  3

  4

  6

  7

  8
Sarah
  9

300
=
301
=
302
=
303
=
304
=
305
=
306
=
307
=
308
=
309
=
 40
0.0025740162037037
 41
2454910.5
 42
2456493.540295058
  1

 90
        0
  0
XRECORD
  5
F33
102
{ACAD_REACTORS
330
F32
102
}
330
F32
100
AcDbXrecord
280
     1
290
     1
  0
XRECORD
  5
F35
102
{ACAD_REACTORS
330
F34
102
}
330
F34
100
AcDbXrecord
280
     1
290
     1
  0
XRECORD
  5
F37
102
{ACAD_REACTORS
330
F36
102
}
330
F36
100
AcDbXrecord
280
     1
290
     1
  0
XRECORD
  5
F39
102
{ACAD_REACTORS
330
F38
102
}
330
F38
100
AcDbXrecord
280
     1
290
     1
  0
XRECORD
  5
F3B
102
{ACAD_REACTORS
330
F3A
102
}
330
F3A
100
AcDbXrecord
280
     1
290
     1
  0
XRECORD
  5
F3D
102
{ACAD_REACTORS
330
F3C
102
}
330
F3C
100
AcDbXrecord
280
     1
290
     1
  0
XRECORD
  5
F3F
102
{ACAD_REACTORS
330
F3E
102
}
330
F3E
100
AcDbXrecord
280
     1
290
     1
  0
ACDBDETAILVIEWSTYLE
  5
F16
102
{ACAD_REACTORS
330
F15
102
}
330
F15
100
AcDbModelDocViewStyle
 70
     0
  3
Imperial24
290
     0
100
AcDbDetailViewStyle
 70
     0
 71
     0
 90
        3
 71
     1
340
F00
 40
0.24
340
0
 40
0.24
300

 40
0.36
280
     3
 71
     2
340
F07
 90
       25
 71
     3
340
F00
 40
0.24
 90
        1
 40
0.75
 90
        1
300
%<\AcVar ViewType \f "%tc1">% %<\AcVar ViewDetailId>%\PSCALE %<\AcVar ViewScale \f "%sn">%
 71
     4
340
F07
 90
       25
340
F07
 90
       25
280
     0
  0
LAYOUT
  5
F1A
102
{ACAD_XDICTIONARY
360
1005
102
}
102
{ACAD_REACTORS
330
F0C
102
}
330
F0C
100
AcDbPlotSettings
  1

  2
Microsoft XPS Document Writer
  4

  6

 40
0.0
 41
0.0
 42
0.0
 43
0.0
 44
0.0
 45
0.0
 46
0.0
 47
0.0
 48
0.0
 49
0.0
140
0.0
141
0.0
142
1.0
143
1.0
 70
   688
 72
     0
 73
     0
 74
     5
  7

 75
    16
147
1.0
148
0.0
149
0.0
100
AcDbLayout
  1
Layout1
 70
     1
 71
     1
 10
0.0
 20
0.0
 11
12.0
 21
9.0
 12
0.0
 22
0.0
 32
0.0
 14
1.000000000000000E+20
 24
1.000000000000000E+20
 34
1.000000000000000E+20
 15
-1.000000000000000E+20
 25
-1.000000000000000E+20
 35
-1.000000000000000E+20
146
0.0
 13
0.0
 23
0.0
 33
0.0
 16
1.0
 26
0.0
 36
0.0
 17
0.0
 27
1.0
 37
0.0
 76
     0
330
F17
  0
LAYOUT
  5
F1E
102
{ACAD_XDICTIONARY
360
1007
102
}
102
{ACAD_REACTORS
330
F0C
102
}
330
F0C
100
AcDbPlotSettings
  1

  2
Microsoft XPS Document Writer
  4

  6

 40
0.0
 41
0.0
 42
0.0
 43
0.0
 44
0.0
 45
0.0
 46
0.0
 47
0.0
 48
0.0
 49
0.0
140
0.0
141
0.0
142
1.0
143
1.0
 70
  1712
 72
     0
 73
     0
 74
     0
  7

 75
     0
147
1.0
148
0.0
149
0.0
100
AcDbLayout
  1
Model
 70
     1
 71
     0
 10
0.0
 20
0.0
 11
12.0
 21
9.0
 12
0.0
 22
0.0
 32
0.0
 14
0.0
 24
0.0
 34
0.0
 15
0.0
 25
0.0
 35
0.0
146
0.0
 13
0.0
 23
0.0
 33
0.0
 16
1.0
 26
0.0
 36
0.0
 17
0.0
 27
1.0
 37
0.0
 76
     0
330
F1B
331
F1F
  0
MATERIAL
  5
EC4
102
{ACAD_XDICTIONARY
360
EC5
102
}
102
{ACAD_REACTORS
330
EBB
102
}
330
EBB
100
AcDbMaterial
  1
ByBlock
 72
     0
 43
0.0208333333333333
 43
0.0
 43
0.0
 43
0.0
 43
0.0
 43
0.0208333333333333
 43
0.0
 43
0.0
 43
0.0
 43
0.0
 43
1.0
 43
0.0
 43
0.0
 43
0.0
 43
0.0
 43
1.0
 77
     0
 47
0.0208333333333333
 47
0.0
 47
0.0
 47
0.0
 47
0.0
 47
0.0208333333333333
 47
0.0
 47
0.0
 47
0.0
 47
0.0
 47
1.0
 47
0.0
 47
0.0
 47
0.0
 47
0.0
 47
1.0
171
     0
 49
0.0208333333333333
 49
0.0
 49
0.0
 49
0.0
 49
0.0
 49
0.0208333333333333
 49
0.0
 49
0.0
 49
0.0
 49
0.0
 49
1.0
 49
0.0
 49
0.0
 49
0.0
 49
0.0
 49
1.0
175
     0
142
0.0208333333333333
142
0.0
142
0.0
142
0.0
142
0.0
142
0.0208333333333333
142
0.0
142
0.0
142
0.0
142
0.0
142
1.0
142
0.0
142
0.0
142
0.0
142
0.0
142
1.0
179
     0
144
0.0208333333333333
144
0.0
144
0.0
144
0.0
144
0.0
144
0.0208333333333333
144
0.0
144
0.0
144
0.0
144
0.0
144
1.0
144
0.0
144
0.0
144
0.0
144
0.0
144
1.0
147
0.0208333333333333
147
0.0
147
0.0
147
0.0
147
0.0
147
0.0208333333333333
147
0.0
147
0.0
147
0.0
147
0.0
147
1.0
147
0.0
147
0.0
147
0.0
147
0.0
147
1.0
  0
MATERIAL
  5
EBC
102
{ACAD_XDICTIONARY
360
EBD
102
}
102
{ACAD_REACTORS
330
EBB
102
}
330
EBB
100
AcDbMaterial
  1
ByLayer
 72
     0
 43
0.0208333333333333
 43
0.0
 43
0.0
 43
0.0
 43
0.0
 43
0.0208333333333333
 43
0.0
 43
0.0
 43
0.0
 43
0.0
 43
1.0
 43
0.0
 43
0.0
 43
0.0
 43
0.0
 43
1.0
 77
     0
 47
0.0208333333333333
 47
0.0
 47
0.0
 47
0.0
 47
0.0
 47
0.0208333333333333
 47
0.0
 47
0.0
 47
0.0
 47
0.0
 47
1.0
 47
0.0
 47
0.0
 47
0.0
 47
0.0
 47
1.0
171
     0
 49
0.0208333333333333
 49
0.0
 49
0.0
 49
0.0
 49
0.0
 49
0.0208333333333333
 49
0.0
 49
0.0
 49
0.0
 49
0.0
 49
1.0
 49
0.0
 49
0.0
 49
0.0
 49
0.0
 49
1.0
175
     0
142
0.0208333333333333
142
0.0
142
0.0
142
0.0
142
0.0
142
0.0208333333333333
142
0.0
142
0.0
142
0.0
142
0.0
142
1.0
142
0.0
142
0.0
142
0.0
142
0.0
142
1.0
179
     0
144
0.0208333333333333
144
0.0
144
0.0
144
0.0
144
0.0
144
0.0208333333333333
144
0.0
144
0.0
144
0.0
144
0.0
144
1.0
144
0.0
144
0.0
144
0.0
144
0.0
144
1.0
147
0.0208333333333333
147
0.0
147
0.0
147
0.0
147
0.0
147
0.0208333333333333
147
0.0
147
0.0
147
0.0
147
0.0
147
1.0
147
0.0
147
0.0
147
0.0
147
0.0
147
1.0
  0
MATERIAL
  5
ECC
102
{ACAD_XDICTIONARY
360
ECD
102
}
102
{ACAD_REACTORS
330
EBB
102
}
330
EBB
100
AcDbMaterial
  1
Global
 72
     0
 43
0.0208333333333333
 43
0.0
 43
0.0
 43
0.0
 43
0.0
 43
0.0208333333333333
 43
0.0
 43
0.0
 43
0.0
 43
0.0
 43
1.0
 43
0.0
 43
0.0
 43
0.0
 43
0.0
 43
1.0
 77
     0
 47
0.0208333333333333
 47
0.0
 47
0.0
 47
0.0
 47
0.0
 47
0.0208333333333333
 47
0.0
 47
0.0
 47
0.0
 47
0.0
 47
1.0
 47
0.0
 47
0.0
 47
0.0
 47
0.0
 47
1.0
171
     0
 49
0.0208333333333333
 49
0.0
 49
0.0
 49
0.0
 49
0.0
 49
0.0208333333333333
 49
0.0
 49
0.0
 49
0.0
 49
0.0
 49
1.0
 49
0.0
 49
0.0
 49
0.0
 49
0.0
 49
1.0
175
     0
142
0.0208333333333333
142
0.0
142
0.0
142
0.0
142
0.0
142
0.0208333333333333
142
0.0
142
0.0
142
0.0
142
0.0
142
1.0
142
0.0
142
0.0
142
0.0
142
0.0
142
1.0
179
     0
144
0.0208333333333333
144
0.0
144
0.0
144
0.0
144
0.0
144
0.0208333333333333
144
0.0
144
0.0
144
0.0
144
0.0
144
1.0
144
0.0
144
0.0
144
0.0
144
0.0
144
1.0
147
0.0208333333333333
147
0.0
147
0.0
147
0.0
147
0.0
147
0.0208333333333333
147
0.0
147
0.0
147
0.0
147
0.0
147
1.0
147
0.0
147
0.0
147
0.0
147
0.0
147
1.0
  0
MLEADERSTYLE
  5
F11
102
{ACAD_REACTORS
330
F10
102
}
330
F10
100
AcDbMLeaderStyle
170
     2
171
     1
172
     0
 90
        2
 40
0.0
 41
0.0
173
     1
 91
-1056964608
340
F05
 92
       -2
290
     1
 42
0.09
291
     1
 43
0.36
  3
Standard
 44
0.18
300

342
F00
174
     1
178
     6
175
     1
176
     0
 93
-1056964608
 45
0.18
292
     0
297
     0
 46
0.18
 94
-1056964608
 47
1.0
 49
1.0
140
1.0
293
     1
141
0.0
294
     1
177
     0
142
1.0
295
     0
296
     0
143
0.125
1001
ACAD_MLEADERVER
1070
     2
  0
MLINESTYLE
  5
F0A
102
{ACAD_REACTORS
330
F09
102
}
330
F09
100
AcDbMlineStyle
  2
STANDARD
 70
     0
  3

 62
   256
 51
90.0
 52
90.0
 71
     2
 49
0.5
 62
   256
  6
BYLAYER
 49
-0.5
 62
   256
  6
BYLAYER
  0
ACDBPLACEHOLDER
  5
EBA
102
{ACAD_REACTORS
330
EB9
102
}
330
EB9
  0
SCALE
  5
EEE
102
{ACAD_REACTORS
330
EED
102
}
330
EED
100
AcDbScale
 70
     0
300
1:1
140
1.0
141
1.0
290
     1
  0
SCALE
  5
EEF
102
{ACAD_REACTORS
330
EED
102
}
330
EED
100
AcDbScale
 70
     0
300
1/128" = 1'-0"
140
0.0078125
141
12.0
290
     0
  0
SCALE
  5
EF0
102
{ACAD_REACTORS
330
EED
102
}
330
EED
100
AcDbScale
 70
     0
300
1/64" = 1'-0"
140
0.015625
141
12.0
290
     0
  0
SCALE
  5
EF1
102
{ACAD_REACTORS
330
EED
102
}
330
EED
100
AcDbScale
 70
     0
300
1/32" = 1'-0"
140
0.03125
141
12.0
290
     0
  0
SCALE
  5
EF2
102
{ACAD_REACTORS
330
EED
102
}
330
EED
100
AcDbScale
 70
     0
300
1/16" = 1'-0"
140
0.0625
141
12.0
290
     0
  0
SCALE
  5
EF3
102
{ACAD_REACTORS
330
EED
102
}
330
EED
100
AcDbScale
 70
     0
300
3/32" = 1'-0"
140
0.09375
141
12.0
290
     0
  0
SCALE
  5
EF4
102
{ACAD_REACTORS
330
EED
102
}
330
EED
100
AcDbScale
 70
     0
300
1/8" = 1'-0"
140
0.125
141
12.0
290
     0
  0
SCALE
  5
EF5
102
{ACAD_REACTORS
330
EED
102
}
330
EED
100
AcDbScale
 70
     0
300
3/16" = 1'-0"
140
0.1875
141
12.0
290
     0
  0
SCALE
  5
EF6
102
{ACAD_REACTORS
330
EED
102
}
330
EED
100
AcDbScale
 70
     0
300
1/4" = 1'-0"
140
0.25
141
12.0
290
     0
  0
SCALE
  5
EF7
102
{ACAD_REACTORS
330
EED
102
}
330
EED
100
AcDbScale
 70
     0
300
3/8" = 1'-0"
140
0.375
141
12.0
290
     0
  0
SCALE
  5
EF8
102
{ACAD_REACTORS
330
EED
102
}
330
EED
100
AcDbScale
 70
     0
300
1/2" = 1'-0"
140
0.5
141
12.0
290
     0
  0
SCALE
  5
EF9
102
{ACAD_REACTORS
330
EED
102
}
330
EED
100
AcDbScale
 70
     0
300
3/4" = 1'-0"
140
0.75
141
12.0
290
     0
  0
SCALE
  5
EFA
102
{ACAD_REACTORS
330
EED
102
}
330
EED
100
AcDbScale
 70
     0
300
1" = 1'-0"
140
1.0
141
12.0
290
     0
  0
SCALE
  5
EFB
102
{ACAD_REACTORS
330
EED
102
}
330
EED
100
AcDbScale
 70
     0
300
1-1/2" = 1'-0"
140
1.5
141
12.0
290
     0
  0
SCALE
  5
EFC
102
{ACAD_REACTORS
330
EED
102
}
330
EED
100
AcDbScale
 70
     0
300
3" = 1'-0"
140
3.0
141
12.0
290
     0
  0
SCALE
  5
EFD
102
{ACAD_REACTORS
330
EED
102
}
330
EED
100
AcDbScale
 70
     0
300
6" = 1'-0"
140
6.0
141
12.0
290
     0
  0
SCALE
  5
EFE
102
{ACAD_REACTORS
330
EED
102
}
330
EED
100
AcDbScale
 70
     0
300
1'-0" = 1'-0"
140
12.0
141
12.0
290
     0
  0
ACDBSECTIONVIEWSTYLE
  5
F14
102
{ACAD_REACTORS
330
F12
102
}
330
F12
100
AcDbModelDocViewStyle
 70
     0
  3
Imperial24
290
     0
100
AcDbSectionViewStyle
 70
     0
 71
     0
 90
       78
 71
     1
340
F00
 40
0.24
340
0
340
0
 40
0.24
300
I, O, Q, S, X, Z
 40
0.48
 90
        3
 40
0.18
 90
        1
 71
     2
340
F13
 90
       25
340
F07
 90
       50
 40
0.24
 40
0.0
 40
0.24
 71
     3
340
F00
 40
0.24
 90
        1
 40
0.75
 90
        1
300
%<\AcVar ViewType \f "%tc1">% %<\AcVar ViewSectionStartId>%-%<\AcVar ViewSectionEndId>%\PSCALE %<\AcVar ViewScale \f "%sn">%
 71
     4
300
ANSI31
 40
1.0
 90
        0
290
     0
290
     0
 90
        6
 40
0.0
 40
1.570796326794896
 40
0.2617993877991494
 40
1.308996938995747
 40
-0.2617993877991494
 40
1.832595714594046
  0
TABLESTYLE
  5
F0F
102
{ACAD_XDICTIONARY
360
FCC
102
}
102
{ACAD_REACTORS
330
F0E
102
}
330
F0E
100
AcDbTableStyle
  3
Standard
 70
     0
 71
     0
 40
0.06
 41
0.06
280
     0
281
     0
  7
STANDARD
140
0.18
170
     2
 62
     0
 63
     7
283
     0
274
    -2
284
     1
 64
     0
275
    -2
285
     1
 65
     0
276
    -2
286
     1
 66
     0
277
    -2
287
     1
 67
     0
278
    -2
288
     1
 68
     0
279
    -2
289
     1
 69
     0
  7
STANDARD
140
0.25
170
     5
 62
     0
 63
     7
283
     0
274
    -2
284
     1
 64
     0
275
    -2
285
     1
 65
     0
276
    -2
286
     1
 66
     0
277
    -2
287
     1
 67
     0
278
    -2
288
     1
 68
     0
279
    -2
289
     1
 69
     0
  7
STANDARD
140
0.18
170
     5
 62
     0
 63
     7
283
     0
274
    -2
284
     1
 64
     0
275
    -2
285
     1
 65
     0
276
    -2
286
     1
 66
     0
277
    -2
287
     1
 67
     0
278
    -2
288
     1
 68
     0
279
    -2
289
     1
 69
     0
  0
VISUALSTYLE
  5
EDA
102
{ACAD_XDICTIONARY
360
FDD
102
}
102
{ACAD_REACTORS
330
ED4
102
}
330
ED4
100
AcDbVisualStyle
  2
2dWireframe
 70
     4
 71
     0
 72
     2
 73
     0
 90
        0
 40
-0.6
 41
-30.0
 62
     5
 63
     7
 74
     1
 91
        4
 64
     7
 65
   257
 75
     1
175
     1
 42
1.0
 92
        0
 66
   257
 43
1.0
 76
     1
 77
     6
 78
     2
 67
     7
 79
     5
170
     0
171
     0
290
     0
174
     0
 93
        1
 44
0.0
173
     0
291
     0
 45
0.0
1001
ACAD
1000
AcDbSavedByObjectVersion
1070
     0
  0
VISUALSTYLE
  5
ED9
102
{ACAD_XDICTIONARY
360
FDB
102
}
102
{ACAD_REACTORS
330
ED4
102
}
330
ED4
100
AcDbVisualStyle
  2
Basic
 70
     7
 71
     1
 72
     0
 73
     1
 90
        0
 40
-0.6
 41
-30.0
 62
     5
 63
     7
 74
     0
 91
        4
 64
     7
 65
   257
 75
     1
175
     1
 42
1.0
 92
        8
 66
     7
 43
1.0
 76
     1
 77
     6
 78
     2
 67
     7
 79
     5
170
     0
171
     0
290
     0
174
     0
 93
        1
 44
0.0
173
     0
291
     1
 45
0.0
1001
ACAD
1000
AcDbSavedByObjectVersion
1070
     0
  0
VISUALSTYLE
  5
EE0
102
{ACAD_XDICTIONARY
360
FE9
102
}
102
{ACAD_REACTORS
330
ED4
102
}
330
ED4
100
AcDbVisualStyle
  2
Brighten
 70
    12
 71
     2
 72
     2
 73
     0
 90
        0
 40
-0.6
 41
-30.0
 62
     5
 63
     7
 74
     1
 91
        4
 64
     7
 65
   257
 75
     1
175
     1
 42
1.0
 92
        8
 66
     7
 43
1.0
 76
     1
 77
     6
 78
     2
 67
     7
 79
     5
170
     0
171
     0
290
     0
174
     0
 93
        1
 44
50.0
173
     0
291
     1
 45
0.0
1001
ACAD
1000
AcDbSavedByObjectVersion
1070
     0
  0
VISUALSTYLE
  5
EE4
102
{ACAD_XDICTIONARY
360
FF1
102
}
102
{ACAD_REACTORS
330
ED4
102
}
330
ED4
100
AcDbVisualStyle
  2
ColorChange
 70
    16
 71
     2
 72
     2
 73
     3
 90
        0
 40
-0.6
 41
-30.0
 62
     5
 63
     8
 74
     1
 91
        4
 64
     7
 65
   257
 75
     1
175
     1
 42
1.0
 92
        8
 66
     8
 43
1.0
 76
     1
 77
     6
 78
     2
 67
     7
 79
     5
170
     0
171
     0
290
     0
174
     0
 93
        1
 44
0.0
173
     0
291
     1
 45
0.0
1001
ACAD
1000
AcDbSavedByObjectVersion
1070
     0
  0
VISUALSTYLE
  5
EDD
102
{ACAD_XDICTIONARY
360
FE3
102
}
102
{ACAD_REACTORS
330
ED4
102
}
330
ED4
100
AcDbVisualStyle
  2
Conceptual
 70
     9
 71
     3
 72
     2
 73
     0
 90
        0
 40
-0.6
 41
-30.0
 62
     5
 63
     7
 74
     2
 91
        2
 64
     7
 65
   257
 75
     1
175
     1
 42
179.0
 92
        8
 66
     7
 43
1.0
 76
     1
 77
     6
 78
     2
 67
     7
 79
     3
170
     0
171
     0
290
     0
174
     0
 93
        1
 44
0.0
173
     0
291
     0
 45
0.0
1001
ACAD
1000
AcDbSavedByObjectVersion
1070
     0
  0
VISUALSTYLE
  5
EDF
102
{ACAD_XDICTIONARY
360
FE7
102
}
102
{ACAD_REACTORS
330
ED4
102
}
330
ED4
100
AcDbVisualStyle
  2
Dim
 70
    11
 71
     2
 72
     2
 73
     0
 90
        0
 40
-0.6
 41
-30.0
 62
     5
 63
     7
 74
     1
 91
        4
 64
     7
 65
   257
 75
     1
175
     1
 42
1.0
 92
        8
 66
     7
 43
1.0
 76
     1
 77
     6
 78
     2
 67
     7
 79
     5
170
     0
171
     0
290
     0
174
     0
 93
        1
 44
-50.0
173
     0
291
     1
 45
0.0
1001
ACAD
1000
AcDbSavedByObjectVersion
1070
     0
  0
VISUALSTYLE
  5
EEC
102
{ACAD_XDICTIONARY
360
1001
102
}
102
{ACAD_REACTORS
330
ED4
102
}
330
ED4
100
AcDbVisualStyle
  2
EdgeColorOff
 70
    22
 71
     2
 72
     2
 73
     0
 90
        0
 40
-0.6
 41
-30.0
 62
     5
 63
     7
 74
     1
 91
        4
 64
     7
 65
   257
 75
     1
175
     1
 42
1.0
 92
        8
 66
     7
 43
1.0
 76
     1
 77
     6
 78
     2
 67
     7
 79
     5
170
     0
171
     0
290
     0
174
     0
 93
        1
 44
0.0
173
     0
291
     1
 45
0.0
1001
ACAD
1000
AcDbSavedByObjectVersion
1070
     0
  0
VISUALSTYLE
  5
EE3
102
{ACAD_XDICTIONARY
360
FEF
102
}
102
{ACAD_REACTORS
330
ED4
102
}
330
ED4
100
AcDbVisualStyle
  2
Facepattern
 70
    15
 71
     2
 72
     2
 73
     0
 90
        0
 40
-0.6
 41
-30.0
 62
     5
 63
     7
 74
     1
 91
        4
 64
     7
 65
   257
 75
     1
175
     1
 42
1.0
 92
        8
 66
     7
 43
1.0
 76
     1
 77
     6
 78
     2
 67
     7
 79
     5
170
     0
171
     0
290
     0
174
     0
 93
        1
 44
0.0
173
     0
291
     1
 45
0.0
1001
ACAD
1000
AcDbSavedByObjectVersion
1070
     0
  0
VISUALSTYLE
  5
ED5
102
{ACAD_XDICTIONARY
360
FD3
102
}
102
{ACAD_REACTORS
330
ED4
102
}
330
ED4
100
AcDbVisualStyle
  2
Flat
 70
     0
 71
     2
 72
     1
 73
     1
 90
        2
 40
-0.6
 41
30.0
 62
     5
 63
     7
 74
     0
 91
        0
 64
     7
 65
   257
 75
     1
175
     1
 42
1.0
 92
        8
 66
     7
 43
1.0
 76
     1
 77
     6
 78
     2
 67
     7
 79
     5
170
     0
171
     0
290
     0
174
     0
 93
       13
 44
0.0
173
     0
291
     1
 45
0.0
1001
ACAD
1000
AcDbSavedByObjectVersion
1070
     0
  0
VISUALSTYLE
  5
ED6
102
{ACAD_XDICTIONARY
360
FD5
102
}
102
{ACAD_REACTORS
330
ED4
102
}
330
ED4
100
AcDbVisualStyle
  2
FlatWithEdges
 70
     1
 71
     2
 72
     1
 73
     1
 90
        2
 40
-0.6
 41
30.0
 62
     5
 63
     7
 74
     1
 91
        0
 64
     7
 65
   257
 75
     1
175
     1
 42
1.0
 92
        0
 66
   257
 43
1.0
 76
     1
 77
     6
 78
     2
 67
     7
 79
     5
170
     0
171
     0
290
     0
174
     0
 93
       13
 44
0.0
173
     0
291
     1
 45
0.0
1001
ACAD
1000
AcDbSavedByObjectVersion
1070
     0
  0
VISUALSTYLE
  5
ED7
102
{ACAD_XDICTIONARY
360
FD7
102
}
102
{ACAD_REACTORS
330
ED4
102
}
330
ED4
100
AcDbVisualStyle
  2
Gouraud
 70
     2
 71
     2
 72
     2
 73
     1
 90
        2
 40
-0.6
 41
30.0
 62
     5
 63
     7
 74
     0
 91
        0
 64
     7
 65
   257
 75
     1
175
     1
 42
1.0
 92
        0
 66
     7
 43
1.0
 76
     1
 77
     6
 78
     2
 67
     7
 79
     5
170
     0
171
     0
290
     0
174
     0
 93
       13
 44
0.0
173
     0
291
     1
 45
0.0
1001
ACAD
1000
AcDbSavedByObjectVersion
1070
     0
  0
VISUALSTYLE
  5
ED8
102
{ACAD_XDICTIONARY
360
FD9
102
}
102
{ACAD_REACTORS
330
ED4
102
}
330
ED4
100
AcDbVisualStyle
  2
GouraudWithEdges
 70
     3
 71
     2
 72
     2
 73
     1
 90
        2
 40
-0.6
 41
30.0
 62
     5
 63
     7
 74
     1
 91
        0
 64
     7
 65
   257
 75
     1
175
     1
 42
1.0
 92
        0
 66
   257
 43
1.0
 76
     1
 77
     6
 78
     2
 67
     7
 79
     5
170
     0
171
     0
290
     0
174
     0
 93
       13
 44
0.0
173
     0
291
     1
 45
0.0
1001
ACAD
1000
AcDbSavedByObjectVersion
1070
     0
  0
VISUALSTYLE
  5
EDC
102
{ACAD_XDICTIONARY
360
FE1
102
}
102
{ACAD_REACTORS
330
ED4
102
}
330
ED4
100
AcDbVisualStyle
  2
Hidden
 70
     6
 71
     1
 72
     2
 73
     2
 90
        0
 40
-0.6
 41
-30.0
 62
     5
 63
     7
 74
     2
 91
        2
 64
     7
 65
   257
 75
     2
175
     1
 42
40.0
 92
        0
 66
   257
 43
1.0
 76
     1
 77
     6
 78
     2
 67
     7
 79
     3
170
     0
171
     0
290
     0
174
     0
 93
        1
 44
0.0
173
     0
291
     0
 45
0.0
1001
ACAD
1000
AcDbSavedByObjectVersion
1070
     0
  0
VISUALSTYLE
  5
EEA
102
{ACAD_XDICTIONARY
360
FFD
102
}
102
{ACAD_REACTORS
330
ED4
102
}
330
ED4
100
AcDbVisualStyle
  2
JitterOff
 70
    20
 71
     2
 72
     2
 73
     0
 90
        0
 40
-0.6
 41
-30.0
 62
     5
 63
     7
 74
     1
 91
        4
 64
     7
 65
   257
 75
     1
175
     1
 42
1.0
 92
       10
 66
     7
 43
1.0
 76
     1
 77
     6
 78
     2
 67
     7
 79
     5
170
     0
171
     0
290
     0
174
     0
 93
        1
 44
0.0
173
     0
291
     1
 45
0.0
1001
ACAD
1000
AcDbSavedByObjectVersion
1070
     0
  0
VISUALSTYLE
  5
EE2
102
{ACAD_XDICTIONARY
360
FED
102
}
102
{ACAD_REACTORS
330
ED4
102
}
330
ED4
100
AcDbVisualStyle
  2
Linepattern
 70
    14
 71
     2
 72
     2
 73
     0
 90
        0
 40
-0.6
 41
-30.0
 62
     5
 63
     7
 74
     1
 91
        4
 64
     7
 65
   257
 75
     7
175
     7
 42
1.0
 92
        8
 66
     7
 43
1.0
 76
     1
 77
     6
 78
     2
 67
     7
 79
     5
170
     0
171
     0
290
     0
174
     0
 93
        1
 44
0.0
173
     0
291
     1
 45
0.0
1001
ACAD
1000
AcDbSavedByObjectVersion
1070
     0
  0
VISUALSTYLE
  5
EEB
102
{ACAD_XDICTIONARY
360
FFF
102
}
102
{ACAD_REACTORS
330
ED4
102
}
330
ED4
100
AcDbVisualStyle
  2
OverhangOff
 70
    21
 71
     2
 72
     2
 73
     0
 90
        0
 40
-0.6
 41
-30.0
 62
     5
 63
     7
 74
     1
 91
        4
 64
     7
 65
   257
 75
     1
175
     1
 42
1.0
 92
        9
 66
     7
 43
1.0
 76
     1
 77
     6
 78
     2
 67
     7
 79
     5
170
     0
171
     0
290
     0
174
     0
 93
        1
 44
0.0
173
     0
291
     1
 45
0.0
1001
ACAD
1000
AcDbSavedByObjectVersion
1070
     0
  0
VISUALSTYLE
  5
EDE
102
{ACAD_XDICTIONARY
360
FE5
102
}
102
{ACAD_REACTORS
330
ED4
102
}
330
ED4
100
AcDbVisualStyle
  2
Realistic
 70
     8
 71
     2
 72
     3
 73
     0
 90
        2
 40
-0.6
 41
30.0
 62
     5
 63
     7
 74
     0
 91
        0
 64
     7
 65
   257
 75
     1
175
     1
 42
1.0
 92
        8
 66
   257
 43
1.0
 76
     1
 77
     6
 78
     2
 67
     7
 79
     3
170
     0
171
     0
290
     0
174
     0
 93
       13
 44
0.0
173
     0
291
     0
 45
0.0
1001
ACAD
1000
AcDbSavedByObjectVersion
1070
     0
  0
VISUALSTYLE
  5
EE9
102
{ACAD_XDICTIONARY
360
FFB
102
}
102
{ACAD_REACTORS
330
ED4
102
}
330
ED4
100
AcDbVisualStyle
  2
Shaded
 70
    27
 71
     2
 72
     2
 73
     1
 90
        2
 40
-0.6
 41
30.0
 62
     5
 63
     7
 74
     0
 91
        4
 64
     7
 65
   257
 75
     1
175
     1
 42
1.0
 92
        8
 66
   257
 43
1.0
 76
     1
 77
     6
 78
     2
 67
     8
 79
     3
170
     0
171
     0
290
     0
174
     0
 93
        5
 44
0.0
173
     0
291
     0
 45
0.0
1001
ACAD
1000
AcDbSavedByObjectVersion
1070
     0
  0
VISUALSTYLE
  5
EE8
102
{ACAD_XDICTIONARY
360
FF9
102
}
102
{ACAD_REACTORS
330
ED4
102
}
330
ED4
100
AcDbVisualStyle
  2
Shaded with edges
 70
    26
 71
     2
 72
     2
 73
     1
 90
        2
 40
-0.6
 41
30.0
 62
     5
 63
     7
 74
     1
 91
       10
 64
     7
 65
   257
 75
     2
175
     1
 42
1.0
 92
        8
 66
   257
 43
1.0
 76
     1
 77
     6
 78
     2
 67
     7
 79
     3
170
     0
171
     0
290
     0
174
     0
 93
        5
 44
0.0
173
     0
291
     0
 45
0.0
1001
ACAD
1000
AcDbSavedByObjectVersion
1070
     0
  0
VISUALSTYLE
  5
EE5
102
{ACAD_XDICTIONARY
360
FF3
102
}
102
{ACAD_REACTORS
330
ED4
102
}
330
ED4
100
AcDbVisualStyle
  2
Shades of Gray
 70
    23
 71
     2
 72
     2
 73
     3
 90
        0
 40
-0.6
 41
-30.0
 62
     5
 63
     7
 74
     2
 91
        2
 64
     7
 65
     7
 75
     1
175
     1
 42
40.0
 92
        8
 66
     7
 43
1.0
 76
     1
 77
     6
 78
     2
 67
     7
 79
     3
170
     0
171
     0
290
     0
174
     0
 93
        1
 44
0.0
173
     0
291
     0
 45
0.0
1001
ACAD
1000
AcDbSavedByObjectVersion
1070
     0
  0
VISUALSTYLE
  5
EE6
102
{ACAD_XDICTIONARY
360
FF5
102
}
102
{ACAD_REACTORS
330
ED4
102
}
330
ED4
100
AcDbVisualStyle
  2
Sketchy
 70
    24
 71
     1
 72
     2
 73
     2
 90
        0
 40
-0.6
 41
-30.0
 62
     5
 63
     7
 74
     2
 91
        2
 64
     7
 65
     7
 75
     1
175
     1
 42
40.0
 92
       11
 66
     7
 43
1.0
 76
     1
 77
     6
 78
     2
 67
     7
 79
     6
170
     0
171
     0
290
     0
174
     0
 93
        1
 44
0.0
173
     0
291
     0
 45
0.0
1001
ACAD
1000
AcDbSavedByObjectVersion
1070
     0
  0
VISUALSTYLE
  5
EE1
102
{ACAD_XDICTIONARY
360
FEB
102
}
102
{ACAD_REACTORS
330
ED4
102
}
330
ED4
100
AcDbVisualStyle
  2
Thicken
 70
    13
 71
     2
 72
     2
 73
     0
 90
        0
 40
-0.6
 41
-30.0
 62
     5
 63
     7
 74
     1
 91
        4
 64
     7
 65
   257
 75
     1
175
     1
 42
1.0
 92
       12
 66
     7
 43
1.0
 76
     1
 77
     6
 78
     2
 67
     7
 79
     5
170
     0
171
     0
290
     0
174
     0
 93
        1
 44
0.0
173
     0
291
     1
 45
0.0
1001
ACAD
1000
AcDbSavedByObjectVersion
1070
     0
  0
VISUALSTYLE
  5
EDB
102
{ACAD_XDICTIONARY
360
FDF
102
}
102
{ACAD_REACTORS
330
ED4
102
}
330
ED4
100
AcDbVisualStyle
  2
Wireframe
 70
     5
 71
     0
 72
     2
 73
     0
 90
        0
 40
-0.6
 41
-30.0
 62
     5
 63
     7
 74
     1
 91
        4
 64
     7
 65
   257
 75
     1
175
     1
 42
1.0
 92
        0
 66
   257
 43
1.0
 76
     1
 77
     6
 78
     2
 67
     7
 79
     3
170
     0
171
     0
290
     0
174
     0
 93
        1
 44
0.0
173
     0
291
     0
 45
0.0
1001
ACAD
1000
AcDbSavedByObjectVersion
1070
     0
  0
VISUALSTYLE
  5
EE7
102
{ACAD_XDICTIONARY
360
FF7
102
}
102
{ACAD_REACTORS
330
ED4
102
}
330
ED4
100
AcDbVisualStyle
  2
X-Ray
 70
    25
 71
     2
 72
     2
 73
     1
 90
        1
 40
0.5
 41
-30.0
 62
     5
 63
     7
 74
     1
 91
        0
 64
     7
 65
   257
 75
     1
175
     1
 42
1.0
 92
        8
 66
     7
 43
1.0
 76
     1
 77
     6
 78
     2
 67
     7
 79
     3
170
     0
171
     0
290
     0
174
     0
 93
       13
 44
0.0
173
     0
291
     0
 45
0.0
1001
ACAD
1000
AcDbSavedByObjectVersion
1070
     0
  0
DICTIONARYVAR
  5
F45
102
{ACAD_REACTORS
330
F40
102
}
330
F40
100
DictionaryVariables
280
     0
  1
1:1
  0
DICTIONARYVAR
  5
F42
102
{ACAD_REACTORS
330
F40
102
}
330
F40
100
DictionaryVariables
280
     0
  1
STANDARD
  0
DICTIONARYVAR
  5
F41
102
{ACAD_REACTORS
330
F40
102
}
330
F40
100
DictionaryVariables
280
     0
  1
STANDARD
  0
DICTIONARYVAR
  5
F43
102
{ACAD_REACTORS
330
F40
102
}
330
F40
100
DictionaryVariables
280
     0
  1
Imperial24
  0
DICTIONARYVAR
  5
F44
102
{ACAD_REACTORS
330
F40
102
}
330
F40
100
DictionaryVariables
280
     0
  1
Imperial24
  0
DICTIONARYVAR
  5
F48
102
{ACAD_REACTORS
330
F40
102
}
330
F40
100
DictionaryVariables
280
     0
  1
1
  0
DICTIONARYVAR
  5
F47
102
{ACAD_REACTORS
330
F40
102
}
330
F40
100
DictionaryVariables
280
     0
  1
0
  0
DICTIONARYVAR
  5
F46
102
{ACAD_REACTORS
330
F40
102
}
330
F40
100
DictionaryVariables
280
     0
  1
127
  0
DICTIONARYVAR
  5
F49
102
{ACAD_REACTORS
330
F40
102
}
330
F40
100
DictionaryVariables
280
     0
  1
2
  0
DICTIONARY
  5
1005
330
F1A
100
AcDbDictionary
280
     1
281
     1
  3
ACAD_XREC_ROUNDTRIP
360
1006
  0
DICTIONARY
  5
1007
330
F1E
100
AcDbDictionary
280
     1
281
     1
  3
ACAD_XREC_ROUNDTRIP
360
1008
  0
DICTIONARY
  5
EC5
330
EC4
100
AcDbDictionary
280
     1
281
     1
  3
ACAD_XREC_ROUNDTRIP
360
FD1
  3
BUMPTILE
360
EC7
  3
DIFFUSETILE
360
EC6
  3
OPACITYTILE
360
ECA
  3
REFLECTIONTILE
360
EC9
  3
REFRACTIONTILE
360
ECB
  3
SPECULARTILE
360
EC8
  0
DICTIONARY
  5
EBD
330
EBC
100
AcDbDictionary
280
     1
281
     1
  3
ACAD_XREC_ROUNDTRIP
360
FD0
  3
BUMPTILE
360
EBF
  3
DIFFUSETILE
360
EBE
  3
OPACITYTILE
360
EC2
  3
REFLECTIONTILE
360
EC1
  3
REFRACTIONTILE
360
EC3
  3
SPECULARTILE
360
EC0
  0
DICTIONARY
  5
ECD
330
ECC
100
AcDbDictionary
280
     1
281
     1
  3
ACAD_XREC_ROUNDTRIP
360
FD2
  3
BUMPTILE
360
ECF
  3
DIFFUSETILE
360
ECE
  3
OPACITYTILE
360
ED2
  3
REFLECTIONTILE
360
ED1
  3
REFRACTIONTILE
360
ED3
  3
SPECULARTILE
360
ED0
  0
DICTIONARY
  5
FCC
330
F0F
100
AcDbDictionary
280
     1
281
     1
  3
ACAD_ROUNDTRIP_2008_TABLESTYLE_CELLSTYLEMAP
360
FCD
  3
ACAD_XREC_ROUNDTRIP
360
1003
  0
DICTIONARY
  5
FDD
330
EDA
100
AcDbDictionary
280
     1
281
     1
  3
ACAD_XREC_ROUNDTRIP
360
FDE
  0
DICTIONARY
  5
FDB
330
ED9
100
AcDbDictionary
280
     1
281
     1
  3
ACAD_XREC_ROUNDTRIP
360
FDC
  0
DICTIONARY
  5
FE9
330
EE0
100
AcDbDictionary
280
     1
281
     1
  3
ACAD_XREC_ROUNDTRIP
360
FEA
  0
DICTIONARY
  5
FF1
330
EE4
100
AcDbDictionary
280
     1
281
     1
  3
ACAD_XREC_ROUNDTRIP
360
FF2
  0
DICTIONARY
  5
FE3
330
EDD
100
AcDbDictionary
280
     1
281
     1
  3
ACAD_XREC_ROUNDTRIP
360
FE4
  0
DICTIONARY
  5
FE7
330
EDF
100
AcDbDictionary
280
     1
281
     1
  3
ACAD_XREC_ROUNDTRIP
360
FE8
  0
DICTIONARY
  5
1001
330
EEC
100
AcDbDictionary
280
     1
281
     1
  3
ACAD_XREC_ROUNDTRIP
360
1002
  0
DICTIONARY
  5
FEF
330
EE3
100
AcDbDictionary
280
     1
281
     1
  3
ACAD_XREC_ROUNDTRIP
360
FF0
  0
DICTIONARY
  5
FD3
330
ED5
100
AcDbDictionary
280
     1
281
     1
  3
ACAD_XREC_ROUNDTRIP
360
FD4
  0
DICTIONARY
  5
FD5
330
ED6
100
AcDbDictionary
280
     1
281
     1
  3
ACAD_XREC_ROUNDTRIP
360
FD6
  0
DICTIONARY
  5
FD7
330
ED7
100
AcDbDictionary
280
     1
281
     1
  3
ACAD_XREC_ROUNDTRIP
360
FD8
  0
DICTIONARY
  5
FD9
330
ED8
100
AcDbDictionary
280
     1
281
     1
  3
ACAD_XREC_ROUNDTRIP
360
FDA
  0
DICTIONARY
  5
FE1
330
EDC
100
AcDbDictionary
280
     1
281
     1
  3
ACAD_XREC_ROUNDTRIP
360
FE2
  0
DICTIONARY
  5
FFD
330
EEA
100
AcDbDictionary
280
     1
281
     1
  3
ACAD_XREC_ROUNDTRIP
360
FFE
  0
DICTIONARY
  5
FED
330
EE2
100
AcDbDictionary
280
     1
281
     1
  3
ACAD_XREC_ROUNDTRIP
360
FEE
  0
DICTIONARY
  5
FFF
330
EEB
100
AcDbDictionary
280
     1
281
     1
  3
ACAD_XREC_ROUNDTRIP
360
1000
  0
DICTIONARY
  5
FE5
330
EDE
100
AcDbDictionary
280
     1
281
     1
  3
ACAD_XREC_ROUNDTRIP
360
FE6
  0
DICTIONARY
  5
FFB
330
EE9
100
AcDbDictionary
280
     1
281
     1
  3
ACAD_XREC_ROUNDTRIP
360
FFC
  0
DICTIONARY
  5
FF9
330
EE8
100
AcDbDictionary
280
     1
281
     1
  3
ACAD_XREC_ROUNDTRIP
360
FFA
  0
DICTIONARY
  5
FF3
330
EE5
100
AcDbDictionary
280
     1
281
     1
  3
ACAD_XREC_ROUNDTRIP
360
FF4
  0
DICTIONARY
  5
FF5
330
EE6
100
AcDbDictionary
280
     1
281
     1
  3
ACAD_XREC_ROUNDTRIP
360
FF6
  0
DICTIONARY
  5
FEB
330
EE1
100
AcDbDictionary
280
     1
281
     1
  3
ACAD_XREC_ROUNDTRIP
360
FEC
  0
DICTIONARY
  5
FDF
330
EDB
100
AcDbDictionary
280
     1
281
     1
  3
ACAD_XREC_ROUNDTRIP
360
FE0
  0
DICTIONARY
  5
FF7
330
EE7
100
AcDbDictionary
280
     1
281
     1
  3
ACAD_XREC_ROUNDTRIP
360
FF8
  0
XRECORD
  5
1006
102
{ACAD_REACTORS
330
1005
102
}
330
1005
100
AcDbXrecord
280
     1
102
SHADEPLOT
 70
     0
102
SHADEPLOTRESLEVEL
 70
     2
102
SHADEPLOTCUSTOMDPI
 70
   300
  0
XRECORD
  5
1008
102
{ACAD_REACTORS
330
1007
102
}
330
1007
100
AcDbXrecord
280
     1
102
SHADEPLOT
 70
     0
102
SHADEPLOTRESLEVEL
 70
     2
102
SHADEPLOTCUSTOMDPI
 70
   300
  0
XRECORD
  5
FD1
102
{ACAD_REACTORS
330
EC5
102
}
330
EC5
100
AcDbXrecord
280
     1
102
MATERIAL
148
0.0
149
0.0
149
0.0
 93
        0
 94
      127
282
     0
 72
     0
 77
     0
171
     0
175
     0
179
     0
273
     0
  0
XRECORD
  5
EC7
102
{ACAD_REACTORS
330
EC5
102
}
330
EC5
100
AcDbXrecord
280
     1
270
     1
271
     1
  0
XRECORD
  5
EC6
102
{ACAD_REACTORS
330
EC5
102
}
330
EC5
100
AcDbXrecord
280
     1
270
     1
271
     1
  0
XRECORD
  5
ECA
102
{ACAD_REACTORS
330
EC5
102
}
330
EC5
100
AcDbXrecord
280
     1
270
     1
271
     1
  0
XRECORD
  5
EC9
102
{ACAD_REACTORS
330
EC5
102
}
330
EC5
100
AcDbXrecord
280
     1
270
     1
271
     1
  0
XRECORD
  5
ECB
102
{ACAD_REACTORS
330
EC5
102
}
330
EC5
100
AcDbXrecord
280
     1
270
     1
271
     1
  0
XRECORD
  5
EC8
102
{ACAD_REACTORS
330
EC5
102
}
330
EC5
100
AcDbXrecord
280
     1
270
     1
271
     1
  0
XRECORD
  5
FD0
102
{ACAD_REACTORS
330
EBD
102
}
330
EBD
100
AcDbXrecord
280
     1
102
MATERIAL
148
0.0
149
0.0
149
0.0
 93
        0
 94
      127
282
     0
 72
     0
 77
     0
171
     0
175
     0
179
     0
273
     0
  0
XRECORD
  5
EBF
102
{ACAD_REACTORS
330
EBD
102
}
330
EBD
100
AcDbXrecord
280
     1
270
     1
271
     1
  0
XRECORD
  5
EBE
102
{ACAD_REACTORS
330
EBD
102
}
330
EBD
100
AcDbXrecord
280
     1
270
     1
271
     1
  0
XRECORD
  5
EC2
102
{ACAD_REACTORS
330
EBD
102
}
330
EBD
100
AcDbXrecord
280
     1
270
     1
271
     1
  0
XRECORD
  5
EC1
102
{ACAD_REACTORS
330
EBD
102
}
330
EBD
100
AcDbXrecord
280
     1
270
     1
271
     1
  0
XRECORD
  5
EC3
102
{ACAD_REACTORS
330
EBD
102
}
330
EBD
100
AcDbXrecord
280
     1
270
     1
271
     1
  0
XRECORD
  5
EC0
102
{ACAD_REACTORS
330
EBD
102
}
330
EBD
100
AcDbXrecord
280
     1
270
     1
271
     1
  0
XRECORD
  5
FD2
102
{ACAD_REACTORS
330
ECD
102
}
330
ECD
100
AcDbXrecord
280
     1
102
MATERIAL
148
0.0
149
0.0
149
0.0
 93
        0
 94
      127
282
     0
 72
     0
 77
     0
171
     0
175
     0
179
     0
273
     0
  0
XRECORD
  5
ECF
102
{ACAD_REACTORS
330
ECD
102
}
330
ECD
100
AcDbXrecord
280
     1
270
     1
271
     1
  0
XRECORD
  5
ECE
102
{ACAD_REACTORS
330
ECD
102
}
330
ECD
100
AcDbXrecord
280
     1
270
     1
271
     1
  0
XRECORD
  5
ED2
102
{ACAD_REACTORS
330
ECD
102
}
330
ECD
100
AcDbXrecord
280
     1
270
     1
271
     1
  0
XRECORD
  5
ED1
102
{ACAD_REACTORS
330
ECD
102
}
330
ECD
100
AcDbXrecord
280
     1
270
     1
271
     1
  0
XRECORD
  5
ED3
102
{ACAD_REACTORS
330
ECD
102
}
330
ECD
100
AcDbXrecord
280
     1
270
     1
271
     1
  0
XRECORD
  5
ED0
102
{ACAD_REACTORS
330
ECD
102
}
330
ECD
100
AcDbXrecord
280
     1
270
     1
271
     1
  0
CELLSTYLEMAP
  5
FCD
102
{ACAD_REACTORS
330
FCC
102
}
330
FCC
100
AcDbCellStyleMap
 90
        3
300
CELLSTYLE
  1
TABLEFORMAT_BEGIN
 90
        5
170
     1
 91
        0
 92
    32768
 62
   257
 93
        1
300
CONTENTFORMAT
  1
CONTENTFORMAT_BEGIN
 90
        0
 91
        0
 92
      512
 93
        0
300

 40
0.0
140
1.0
 94
        5
 62
     0
340
F00
144
0.25
309
CONTENTFORMAT_END
171
     0
 94
        0
309
TABLEFORMAT_END
  1
CELLSTYLE_BEGIN
 90
        1
 91
        1
300
_TITLE
309
CELLSTYLE_END
300
CELLSTYLE
  1
TABLEFORMAT_BEGIN
 90
        5
170
     1
 91
        0
 92
        0
 62
   257
 93
        1
300
CONTENTFORMAT
  1
CONTENTFORMAT_BEGIN
 90
        0
 91
        0
 92
      512
 93
        0
300

 40
0.0
140
1.0
 94
        5
 62
     0
340
F00
144
0.18
309
CONTENTFORMAT_END
171
     0
 94
        0
309
TABLEFORMAT_END
  1
CELLSTYLE_BEGIN
 90
        2
 91
        1
300
_HEADER
309
CELLSTYLE_END
300
CELLSTYLE
  1
TABLEFORMAT_BEGIN
 90
        5
170
     1
 91
        0
 92
        0
 62
   257
 93
        1
300
CONTENTFORMAT
  1
CONTENTFORMAT_BEGIN
 90
        0
 91
        0
 92
      512
 93
        0
300

 40
0.0
140
1.0
 94
        2
 62
     0
340
F00
144
0.18
309
CONTENTFORMAT_END
171
     0
 94
        0
309
TABLEFORMAT_END
  1
CELLSTYLE_BEGIN
 90
        3
 91
        2
300
_DATA
309
CELLSTYLE_END
  0
XRECORD
  5
1003
102
{ACAD_REACTORS
330
FCC
102
}
330
FCC
100
AcDbXrecord
280
     1
102
ACAD_ROUNDTRIP_PRE2007_TABLESTYLE
 90
      512
 91
        0
  1

 92
      512
 93
        0
  2

 94
      512
 95
        0
  3

  0
XRECORD
  5
FDE
102
{ACAD_REACTORS
330
FDD
102
}
330
FDD
100
AcDbXrecord
280
     1
102
RTVSPost2010Prop28
280
     1
102
RTVSPost2010PropOp28
 70
     1
102
RTVSPost2010Prop29
280
     1
102
RTVSPost2010PropOp29
 70
     1
102
RTVSPost2010Prop30
280
     0
102
RTVSPost2010PropOp30
 70
     1
102
RTVSPost2010Prop31
280
     0
102
RTVSPost2010PropOp31
 70
     1
102
RTVSPost2010Prop32
280
     0
102
RTVSPost2010PropOp32
 70
     1
102
RTVSPost2010Prop33
280
     0
102
RTVSPost2010PropOp33
 70
     1
102
RTVSPost2010Prop34
280
     0
102
RTVSPost2010PropOp34
 70
     1
102
RTVSPost2010Prop35
280
     0
102
RTVSPost2010PropOp35
 70
     1
102
RTVSPost2010Prop36
280
     0
102
RTVSPost2010PropOp36
 70
     1
102
RTVSPost2010Prop37
 90
       50
102
RTVSPost2010PropOp37
 70
     1
102
RTVSPost2010Prop38
140
0.0
102
RTVSPost2010PropOp38
 70
     1
102
RTVSPost2010Prop39
140
1.0
102
RTVSPost2010PropOp39
 70
     1
102
RTVSPost2010Prop40
 90
        0
102
RTVSPost2010PropOp40
 70
     1
102
RTVSPost2010Prop41ColorIndex
 90
       18
102
RTVSPost2010Prop41ColorRGB
 90
        0
102
RTVSPost2010PropOp41
 70
     1
102
RTVSPost2010Prop42
 90
       50
102
RTVSPost2010PropOp42
 70
     1
102
RTVSPost2010Prop43
 90
        3
102
RTVSPost2010PropOp43
 70
     1
102
RTVSPost2010Prop44ColorIndex
 90
        5
102
RTVSPost2010Prop44ColorRGB
 90
      255
102
RTVSPost2010PropOp44
 70
     1
102
RTVSPost2010Prop45
280
     0
102
RTVSPost2010PropOp45
 70
     1
102
RTVSPost2010Prop46
 90
       50
102
RTVSPost2010PropOp46
 70
     1
102
RTVSPost2010Prop47
 90
       50
102
RTVSPost2010PropOp47
 70
     1
102
RTVSPost2010Prop48
 90
       50
102
RTVSPost2010PropOp48
 70
     1
102
RTVSPost2010Prop49
280
     0
102
RTVSPost2010PropOp49
 70
     1
102
RTVSPost2010Prop50
 90
       50
102
RTVSPost2010PropOp50
 70
     1
102
RTVSPost2010Prop51ColorIndex
 90
      256
102
RTVSPost2010Prop51ColorRGB
 90
-16777216
102
RTVSPost2010PropOp51
 70
     0
102
RTVSPost2010Prop52
140
1.0
102
RTVSPost2010PropOp52
 70
     0
102
RTVSPost2010Prop53
 90
        2
102
RTVSPost2010PropOp53
 70
     1
102
RTVSPost2010Prop54
  1
strokes_ogs.tif
102
RTVSPost2010PropOp54
 70
     1
102
RTVSPost2010Prop55
280
     0
102
RTVSPost2010PropOp55
 70
     1
102
RTVSPost2010Prop56
140
1.0
102
RTVSPost2010PropOp56
 70
     1
102
RTVSPost2010Prop57
140
1.0
102
RTVSPost2010PropOp57
 70
     1
102
RTVSPropertyOp0
 70
     1
102
RTVSPropertyOp1
 70
     1
102
RTVSPropertyOp2
 70
     1
102
RTVSPropertyOp3
 70
     1
102
RTVSPropertyOp4
 70
     1
102
RTVSPropertyOp5
 70
     1
102
RTVSPropertyOp6
 70
     1
102
RTVSPropertyOp7
 70
     1
102
RTVSPropertyOp8
 70
     1
102
RTVSPropertyOp9
 70
     1
102
RTVSPropertyOp10
 70
     1
102
RTVSPropertyOp11
 70
     1
102
RTVSPropertyOp12
 70
     1
102
RTVSPropertyOp13
 70
     1
102
RTVSPropertyOp14
 70
     1
102
RTVSPropertyOp15
 70
     1
102
RTVSPropertyOp16
 70
     1
102
RTVSPropertyOp17
 70
     1
102
RTVSPropertyOp18
 70
     1
102
RTVSPropertyOp19
 70
     1
102
RTVSPropertyOp20
 70
     1
102
RTVSPropertyOp21
 70
     1
102
RTVSPropertyOp22
 70
     1
102
RTVSPropertyOp23
 70
     1
102
RTVSPropertyOp24
 70
     1
102
RTVSPropertyOp25
 70
     1
102
RTVSPropertyOp26
 70
     1
102
RTVSPropertyOp27
 70
     1
102
RTVSPropertyOp28
 70
     1
102
RTVSPropertyOp29
 70
     1
102
RTVSPropertyOp30
 70
     1
102
RTVSPropertyOp31
 70
     1
102
RTVSPropertyOp32
 70
     1
102
RTVSPropertyOp33
 70
     1
102
RTVSPropertyOp34
 70
     1
102
RTVSPropertyOp35
 70
     1
102
RTVSPropertyOp36
 70
     1
102
RTVSPropertyOp37
 70
     1
102
RTVSPropertyOp38
 70
     1
102
RTVSPropertyOp39
 70
     1
102
RTVSPropertyOp40
 70
     1
102
RTVSPropertyOp41
 70
     1
102
RTVSPropertyOp42
 70
     1
102
RTVSPropertyOp43
 70
     1
102
RTVSPropertyOp44
 70
     1
102
RTVSPropertyOp45
 70
     1
102
RTVSPropertyOp46
 70
     1
102
RTVSPropertyOp47
 70
     1
102
RTVSPropertyOp48
 70
     1
102
RTVSPropertyOp49
 70
     1
102
RTVSPropertyOp50
 70
     1
102
RTVSPropertyOp51
 70
     0
102
RTVSPropertyOp52
 70
     0
102
RTVSPropertyOp53
 70
     1
102
RTVSPropertyOp54
 70
     1
102
RTVSPropertyOp55
 70
     1
102
RTVSPropertyOp56
 70
     1
102
RTVSPropertyOp57
 70
     1
102
RTVSPropertyOp58
 70
     1
102
RTVSPropertyOp59
 70
     1
102
RTVSPropertyOp60
 70
     1
102
RTVSPropertyOp61
 70
     1
102
RTVSPropertyOp62
 70
     1
  0
XRECORD
  5
FDC
102
{ACAD_REACTORS
330
FDB
102
}
330
FDB
100
AcDbXrecord
280
     1
102
RTVSPost2010Prop28
280
     0
102
RTVSPost2010PropOp28
 70
     1
102
RTVSPost2010Prop29
280
     1
102
RTVSPost2010PropOp29
 70
     1
102
RTVSPost2010Prop30
280
     1
102
RTVSPost2010PropOp30
 70
     1
102
RTVSPost2010Prop31
280
     0
102
RTVSPost2010PropOp31
 70
     1
102
RTVSPost2010Prop32
280
     0
102
RTVSPost2010PropOp32
 70
     1
102
RTVSPost2010Prop33
280
     0
102
RTVSPost2010PropOp33
 70
     1
102
RTVSPost2010Prop34
280
     0
102
RTVSPost2010PropOp34
 70
     1
102
RTVSPost2010Prop35
280
     0
102
RTVSPost2010PropOp35
 70
     1
102
RTVSPost2010Prop36
280
     0
102
RTVSPost2010PropOp36
 70
     1
102
RTVSPost2010Prop37
 90
       50
102
RTVSPost2010PropOp37
 70
     1
102
RTVSPost2010Prop38
140
0.0
102
RTVSPost2010PropOp38
 70
     1
102
RTVSPost2010Prop39
140
1.0
102
RTVSPost2010PropOp39
 70
     1
102
RTVSPost2010Prop40
 90
        0
102
RTVSPost2010PropOp40
 70
     1
102
RTVSPost2010Prop41ColorIndex
 90
       18
102
RTVSPost2010Prop41ColorRGB
 90
        0
102
RTVSPost2010PropOp41
 70
     1
102
RTVSPost2010Prop42
 90
       50
102
RTVSPost2010PropOp42
 70
     1
102
RTVSPost2010Prop43
 90
        3
102
RTVSPost2010PropOp43
 70
     1
102
RTVSPost2010Prop44ColorIndex
 90
        5
102
RTVSPost2010Prop44ColorRGB
 90
      255
102
RTVSPost2010PropOp44
 70
     1
102
RTVSPost2010Prop45
280
     0
102
RTVSPost2010PropOp45
 70
     1
102
RTVSPost2010Prop46
 90
       50
102
RTVSPost2010PropOp46
 70
     1
102
RTVSPost2010Prop47
 90
       50
102
RTVSPost2010PropOp47
 70
     1
102
RTVSPost2010Prop48
 90
       50
102
RTVSPost2010PropOp48
 70
     1
102
RTVSPost2010Prop49
280
     0
102
RTVSPost2010PropOp49
 70
     1
102
RTVSPost2010Prop50
 90
       50
102
RTVSPost2010PropOp50
 70
     1
102
RTVSPost2010Prop51ColorIndex
 90
      256
102
RTVSPost2010Prop51ColorRGB
 90
-16777216
102
RTVSPost2010PropOp51
 70
     0
102
RTVSPost2010Prop52
140
1.0
102
RTVSPost2010PropOp52
 70
     0
102
RTVSPost2010Prop53
 90
        2
102
RTVSPost2010PropOp53
 70
     1
102
RTVSPost2010Prop54
  1
strokes_ogs.tif
102
RTVSPost2010PropOp54
 70
     1
102
RTVSPost2010Prop55
280
     0
102
RTVSPost2010PropOp55
 70
     1
102
RTVSPost2010Prop56
140
1.0
102
RTVSPost2010PropOp56
 70
     1
102
RTVSPost2010Prop57
140
1.0
102
RTVSPost2010PropOp57
 70
     1
102
RTVSPropertyOp0
 70
     1
102
RTVSPropertyOp1
 70
     1
102
RTVSPropertyOp2
 70
     1
102
RTVSPropertyOp3
 70
     1
102
RTVSPropertyOp4
 70
     1
102
RTVSPropertyOp5
 70
     1
102
RTVSPropertyOp6
 70
     1
102
RTVSPropertyOp7
 70
     1
102
RTVSPropertyOp8
 70
     1
102
RTVSPropertyOp9
 70
     1
102
RTVSPropertyOp10
 70
     1
102
RTVSPropertyOp11
 70
     1
102
RTVSPropertyOp12
 70
     1
102
RTVSPropertyOp13
 70
     1
102
RTVSPropertyOp14
 70
     1
102
RTVSPropertyOp15
 70
     1
102
RTVSPropertyOp16
 70
     1
102
RTVSPropertyOp17
 70
     1
102
RTVSPropertyOp18
 70
     1
102
RTVSPropertyOp19
 70
     1
102
RTVSPropertyOp20
 70
     1
102
RTVSPropertyOp21
 70
     1
102
RTVSPropertyOp22
 70
     1
102
RTVSPropertyOp23
 70
     1
102
RTVSPropertyOp24
 70
     1
102
RTVSPropertyOp25
 70
     1
102
RTVSPropertyOp26
 70
     1
102
RTVSPropertyOp27
 70
     1
102
RTVSPropertyOp28
 70
     1
102
RTVSPropertyOp29
 70
     1
102
RTVSPropertyOp30
 70
     1
102
RTVSPropertyOp31
 70
     1
102
RTVSPropertyOp32
 70
     1
102
RTVSPropertyOp33
 70
     1
102
RTVSPropertyOp34
 70
     1
102
RTVSPropertyOp35
 70
     1
102
RTVSPropertyOp36
 70
     1
102
RTVSPropertyOp37
 70
     1
102
RTVSPropertyOp38
 70
     1
102
RTVSPropertyOp39
 70
     1
102
RTVSPropertyOp40
 70
     1
102
RTVSPropertyOp41
 70
     1
102
RTVSPropertyOp42
 70
     1
102
RTVSPropertyOp43
 70
     1
102
RTVSPropertyOp44
 70
     1
102
RTVSPropertyOp45
 70
     1
102
RTVSPropertyOp46
 70
     1
102
RTVSPropertyOp47
 70
     1
102
RTVSPropertyOp48
 70
     1
102
RTVSPropertyOp49
 70
     1
102
RTVSPropertyOp50
 70
     1
102
RTVSPropertyOp51
 70
     0
102
RTVSPropertyOp52
 70
     0
102
RTVSPropertyOp53
 70
     1
102
RTVSPropertyOp54
 70
     1
102
RTVSPropertyOp55
 70
     1
102
RTVSPropertyOp56
 70
     1
102
RTVSPropertyOp57
 70
     1
102
RTVSPropertyOp58
 70
     1
102
RTVSPropertyOp59
 70
     1
102
RTVSPropertyOp60
 70
     1
102
RTVSPropertyOp61
 70
     1
102
RTVSPropertyOp62
 70
     1
  0
XRECORD
  5
FEA
102
{ACAD_REACTORS
330
FE9
102
}
330
FE9
100
AcDbXrecord
280
     1
102
RTVSPost2010Prop28
280
     0
102
RTVSPost2010PropOp28
 70
     1
102
RTVSPost2010Prop29
280
     1
102
RTVSPost2010PropOp29
 70
     1
102
RTVSPost2010Prop30
280
     1
102
RTVSPost2010PropOp30
 70
     1
102
RTVSPost2010Prop31
280
     0
102
RTVSPost2010PropOp31
 70
     1
102
RTVSPost2010Prop32
280
     0
102
RTVSPost2010PropOp32
 70
     1
102
RTVSPost2010Prop33
280
     0
102
RTVSPost2010PropOp33
 70
     1
102
RTVSPost2010Prop34
280
     0
102
RTVSPost2010PropOp34
 70
     1
102
RTVSPost2010Prop35
280
     0
102
RTVSPost2010PropOp35
 70
     1
102
RTVSPost2010Prop36
280
     0
102
RTVSPost2010PropOp36
 70
     1
102
RTVSPost2010Prop37
 90
       50
102
RTVSPost2010PropOp37
 70
     1
102
RTVSPost2010Prop38
140
0.0
102
RTVSPost2010PropOp38
 70
     1
102
RTVSPost2010Prop39
140
1.0
102
RTVSPost2010PropOp39
 70
     1
102
RTVSPost2010Prop40
 90
        0
102
RTVSPost2010PropOp40
 70
     1
102
RTVSPost2010Prop41ColorIndex
 90
       18
102
RTVSPost2010Prop41ColorRGB
 90
        0
102
RTVSPost2010PropOp41
 70
     1
102
RTVSPost2010Prop42
 90
       50
102
RTVSPost2010PropOp42
 70
     1
102
RTVSPost2010Prop43
 90
        3
102
RTVSPost2010PropOp43
 70
     1
102
RTVSPost2010Prop44ColorIndex
 90
        5
102
RTVSPost2010Prop44ColorRGB
 90
      255
102
RTVSPost2010PropOp44
 70
     1
102
RTVSPost2010Prop45
280
     0
102
RTVSPost2010PropOp45
 70
     1
102
RTVSPost2010Prop46
 90
       50
102
RTVSPost2010PropOp46
 70
     1
102
RTVSPost2010Prop47
 90
       50
102
RTVSPost2010PropOp47
 70
     1
102
RTVSPost2010Prop48
 90
       50
102
RTVSPost2010PropOp48
 70
     1
102
RTVSPost2010Prop49
280
     0
102
RTVSPost2010PropOp49
 70
     1
102
RTVSPost2010Prop50
 90
       50
102
RTVSPost2010PropOp50
 70
     1
102
RTVSPost2010Prop51ColorIndex
 90
      256
102
RTVSPost2010Prop51ColorRGB
 90
-16777216
102
RTVSPost2010PropOp51
 70
     0
102
RTVSPost2010Prop52
140
1.0
102
RTVSPost2010PropOp52
 70
     0
102
RTVSPost2010Prop53
 90
        2
102
RTVSPost2010PropOp53
 70
     1
102
RTVSPost2010Prop54
  1
strokes_ogs.tif
102
RTVSPost2010PropOp54
 70
     1
102
RTVSPost2010Prop55
280
     0
102
RTVSPost2010PropOp55
 70
     1
102
RTVSPost2010Prop56
140
1.0
102
RTVSPost2010PropOp56
 70
     1
102
RTVSPost2010Prop57
140
1.0
102
RTVSPost2010PropOp57
 70
     1
102
RTVSPropertyOp0
 70
     1
102
RTVSPropertyOp1
 70
     1
102
RTVSPropertyOp2
 70
     1
102
RTVSPropertyOp3
 70
     1
102
RTVSPropertyOp4
 70
     1
102
RTVSPropertyOp5
 70
     1
102
RTVSPropertyOp6
 70
     1
102
RTVSPropertyOp7
 70
     1
102
RTVSPropertyOp8
 70
     1
102
RTVSPropertyOp9
 70
     1
102
RTVSPropertyOp10
 70
     1
102
RTVSPropertyOp11
 70
     1
102
RTVSPropertyOp12
 70
     1
102
RTVSPropertyOp13
 70
     1
102
RTVSPropertyOp14
 70
     1
102
RTVSPropertyOp15
 70
     1
102
RTVSPropertyOp16
 70
     1
102
RTVSPropertyOp17
 70
     1
102
RTVSPropertyOp18
 70
     1
102
RTVSPropertyOp19
 70
     1
102
RTVSPropertyOp20
 70
     1
102
RTVSPropertyOp21
 70
     1
102
RTVSPropertyOp22
 70
     1
102
RTVSPropertyOp23
 70
     1
102
RTVSPropertyOp24
 70
     1
102
RTVSPropertyOp25
 70
     1
102
RTVSPropertyOp26
 70
     1
102
RTVSPropertyOp27
 70
     1
102
RTVSPropertyOp28
 70
     1
102
RTVSPropertyOp29
 70
     1
102
RTVSPropertyOp30
 70
     1
102
RTVSPropertyOp31
 70
     1
102
RTVSPropertyOp32
 70
     1
102
RTVSPropertyOp33
 70
     1
102
RTVSPropertyOp34
 70
     1
102
RTVSPropertyOp35
 70
     1
102
RTVSPropertyOp36
 70
     1
102
RTVSPropertyOp37
 70
     1
102
RTVSPropertyOp38
 70
     1
102
RTVSPropertyOp39
 70
     1
102
RTVSPropertyOp40
 70
     1
102
RTVSPropertyOp41
 70
     1
102
RTVSPropertyOp42
 70
     1
102
RTVSPropertyOp43
 70
     1
102
RTVSPropertyOp44
 70
     1
102
RTVSPropertyOp45
 70
     1
102
RTVSPropertyOp46
 70
     1
102
RTVSPropertyOp47
 70
     1
102
RTVSPropertyOp48
 70
     1
102
RTVSPropertyOp49
 70
     1
102
RTVSPropertyOp50
 70
     1
102
RTVSPropertyOp51
 70
     0
102
RTVSPropertyOp52
 70
     0
102
RTVSPropertyOp53
 70
     1
102
RTVSPropertyOp54
 70
     1
102
RTVSPropertyOp55
 70
     1
102
RTVSPropertyOp56
 70
     1
102
RTVSPropertyOp57
 70
     1
102
RTVSPropertyOp58
 70
     1
102
RTVSPropertyOp59
 70
     1
102
RTVSPropertyOp60
 70
     1
102
RTVSPropertyOp61
 70
     1
102
RTVSPropertyOp62
 70
     1
  0
XRECORD
  5
FF2
102
{ACAD_REACTORS
330
FF1
102
}
330
FF1
100
AcDbXrecord
280
     1
102
RTVSPost2010Prop28
280
     0
102
RTVSPost2010PropOp28
 70
     1
102
RTVSPost2010Prop29
280
     1
102
RTVSPost2010PropOp29
 70
     1
102
RTVSPost2010Prop30
280
     1
102
RTVSPost2010PropOp30
 70
     1
102
RTVSPost2010Prop31
280
     0
102
RTVSPost2010PropOp31
 70
     1
102
RTVSPost2010Prop32
280
     0
102
RTVSPost2010PropOp32
 70
     1
102
RTVSPost2010Prop33
280
     0
102
RTVSPost2010PropOp33
 70
     1
102
RTVSPost2010Prop34
280
     0
102
RTVSPost2010PropOp34
 70
     1
102
RTVSPost2010Prop35
280
     0
102
RTVSPost2010PropOp35
 70
     1
102
RTVSPost2010Prop36
280
     0
102
RTVSPost2010PropOp36
 70
     1
102
RTVSPost2010Prop37
 90
       50
102
RTVSPost2010PropOp37
 70
     1
102
RTVSPost2010Prop38
140
0.0
102
RTVSPost2010PropOp38
 70
     1
102
RTVSPost2010Prop39
140
1.0
102
RTVSPost2010PropOp39
 70
     1
102
RTVSPost2010Prop40
 90
        0
102
RTVSPost2010PropOp40
 70
     1
102
RTVSPost2010Prop41ColorIndex
 90
       18
102
RTVSPost2010Prop41ColorRGB
 90
        0
102
RTVSPost2010PropOp41
 70
     1
102
RTVSPost2010Prop42
 90
       50
102
RTVSPost2010PropOp42
 70
     1
102
RTVSPost2010Prop43
 90
        3
102
RTVSPost2010PropOp43
 70
     1
102
RTVSPost2010Prop44ColorIndex
 90
        5
102
RTVSPost2010Prop44ColorRGB
 90
      255
102
RTVSPost2010PropOp44
 70
     1
102
RTVSPost2010Prop45
280
     0
102
RTVSPost2010PropOp45
 70
     1
102
RTVSPost2010Prop46
 90
       50
102
RTVSPost2010PropOp46
 70
     1
102
RTVSPost2010Prop47
 90
       50
102
RTVSPost2010PropOp47
 70
     1
102
RTVSPost2010Prop48
 90
       50
102
RTVSPost2010PropOp48
 70
     1
102
RTVSPost2010Prop49
280
     0
102
RTVSPost2010PropOp49
 70
     1
102
RTVSPost2010Prop50
 90
       50
102
RTVSPost2010PropOp50
 70
     1
102
RTVSPost2010Prop51ColorIndex
 90
      256
102
RTVSPost2010Prop51ColorRGB
 90
-16777216
102
RTVSPost2010PropOp51
 70
     0
102
RTVSPost2010Prop52
140
1.0
102
RTVSPost2010PropOp52
 70
     0
102
RTVSPost2010Prop53
 90
        2
102
RTVSPost2010PropOp53
 70
     1
102
RTVSPost2010Prop54
  1
strokes_ogs.tif
102
RTVSPost2010PropOp54
 70
     1
102
RTVSPost2010Prop55
280
     0
102
RTVSPost2010PropOp55
 70
     1
102
RTVSPost2010Prop56
140
1.0
102
RTVSPost2010PropOp56
 70
     1
102
RTVSPost2010Prop57
140
1.0
102
RTVSPost2010PropOp57
 70
     1
102
RTVSPropertyOp0
 70
     1
102
RTVSPropertyOp1
 70
     1
102
RTVSPropertyOp2
 70
     1
102
RTVSPropertyOp3
 70
     1
102
RTVSPropertyOp4
 70
     1
102
RTVSPropertyOp5
 70
     1
102
RTVSPropertyOp6
 70
     1
102
RTVSPropertyOp7
 70
     1
102
RTVSPropertyOp8
 70
     1
102
RTVSPropertyOp9
 70
     1
102
RTVSPropertyOp10
 70
     1
102
RTVSPropertyOp11
 70
     1
102
RTVSPropertyOp12
 70
     1
102
RTVSPropertyOp13
 70
     1
102
RTVSPropertyOp14
 70
     1
102
RTVSPropertyOp15
 70
     1
102
RTVSPropertyOp16
 70
     1
102
RTVSPropertyOp17
 70
     1
102
RTVSPropertyOp18
 70
     1
102
RTVSPropertyOp19
 70
     1
102
RTVSPropertyOp20
 70
     1
102
RTVSPropertyOp21
 70
     1
102
RTVSPropertyOp22
 70
     1
102
RTVSPropertyOp23
 70
     1
102
RTVSPropertyOp24
 70
     1
102
RTVSPropertyOp25
 70
     1
102
RTVSPropertyOp26
 70
     1
102
RTVSPropertyOp27
 70
     1
102
RTVSPropertyOp28
 70
     1
102
RTVSPropertyOp29
 70
     1
102
RTVSPropertyOp30
 70
     1
102
RTVSPropertyOp31
 70
     1
102
RTVSPropertyOp32
 70
     1
102
RTVSPropertyOp33
 70
     1
102
RTVSPropertyOp34
 70
     1
102
RTVSPropertyOp35
 70
     1
102
RTVSPropertyOp36
 70
     1
102
RTVSPropertyOp37
 70
     1
102
RTVSPropertyOp38
 70
     1
102
RTVSPropertyOp39
 70
     1
102
RTVSPropertyOp40
 70
     1
102
RTVSPropertyOp41
 70
     1
102
RTVSPropertyOp42
 70
     1
102
RTVSPropertyOp43
 70
     1
102
RTVSPropertyOp44
 70
     1
102
RTVSPropertyOp45
 70
     1
102
RTVSPropertyOp46
 70
     1
102
RTVSPropertyOp47
 70
     1
102
RTVSPropertyOp48
 70
     1
102
RTVSPropertyOp49
 70
     1
102
RTVSPropertyOp50
 70
     1
102
RTVSPropertyOp51
 70
     0
102
RTVSPropertyOp52
 70
     0
102
RTVSPropertyOp53
 70
     1
102
RTVSPropertyOp54
 70
     1
102
RTVSPropertyOp55
 70
     1
102
RTVSPropertyOp56
 70
     1
102
RTVSPropertyOp57
 70
     1
102
RTVSPropertyOp58
 70
     1
102
RTVSPropertyOp59
 70
     1
102
RTVSPropertyOp60
 70
     1
102
RTVSPropertyOp61
 70
     1
102
RTVSPropertyOp62
 70
     1
  0
XRECORD
  5
FE4
102
{ACAD_REACTORS
330
FE3
102
}
330
FE3
100
AcDbXrecord
280
     1
102
RTVSPost2010Prop28
280
     0
102
RTVSPost2010PropOp28
 70
     1
102
RTVSPost2010Prop29
280
     1
102
RTVSPost2010PropOp29
 70
     1
102
RTVSPost2010Prop30
280
     1
102
RTVSPost2010PropOp30
 70
     1
102
RTVSPost2010Prop31
280
     0
102
RTVSPost2010PropOp31
 70
     1
102
RTVSPost2010Prop32
280
     0
102
RTVSPost2010PropOp32
 70
     1
102
RTVSPost2010Prop33
280
     0
102
RTVSPost2010PropOp33
 70
     1
102
RTVSPost2010Prop34
280
     0
102
RTVSPost2010PropOp34
 70
     1
102
RTVSPost2010Prop35
280
     0
102
RTVSPost2010PropOp35
 70
     1
102
RTVSPost2010Prop36
280
     0
102
RTVSPost2010PropOp36
 70
     1
102
RTVSPost2010Prop37
 90
       50
102
RTVSPost2010PropOp37
 70
     1
102
RTVSPost2010Prop38
140
0.0
102
RTVSPost2010PropOp38
 70
     1
102
RTVSPost2010Prop39
140
1.0
102
RTVSPost2010PropOp39
 70
     1
102
RTVSPost2010Prop40
 90
        0
102
RTVSPost2010PropOp40
 70
     1
102
RTVSPost2010Prop41ColorIndex
 90
       18
102
RTVSPost2010Prop41ColorRGB
 90
        0
102
RTVSPost2010PropOp41
 70
     1
102
RTVSPost2010Prop42
 90
       50
102
RTVSPost2010PropOp42
 70
     1
102
RTVSPost2010Prop43
 90
        3
102
RTVSPost2010PropOp43
 70
     1
102
RTVSPost2010Prop44ColorIndex
 90
        5
102
RTVSPost2010Prop44ColorRGB
 90
      255
102
RTVSPost2010PropOp44
 70
     1
102
RTVSPost2010Prop45
280
     0
102
RTVSPost2010PropOp45
 70
     1
102
RTVSPost2010Prop46
 90
       50
102
RTVSPost2010PropOp46
 70
     1
102
RTVSPost2010Prop47
 90
       50
102
RTVSPost2010PropOp47
 70
     1
102
RTVSPost2010Prop48
 90
       50
102
RTVSPost2010PropOp48
 70
     1
102
RTVSPost2010Prop49
280
     0
102
RTVSPost2010PropOp49
 70
     1
102
RTVSPost2010Prop50
 90
       50
102
RTVSPost2010PropOp50
 70
     1
102
RTVSPost2010Prop51ColorIndex
 90
      256
102
RTVSPost2010Prop51ColorRGB
 90
-16777216
102
RTVSPost2010PropOp51
 70
     0
102
RTVSPost2010Prop52
140
1.0
102
RTVSPost2010PropOp52
 70
     0
102
RTVSPost2010Prop53
 90
        2
102
RTVSPost2010PropOp53
 70
     1
102
RTVSPost2010Prop54
  1
strokes_ogs.tif
102
RTVSPost2010PropOp54
 70
     1
102
RTVSPost2010Prop55
280
     0
102
RTVSPost2010PropOp55
 70
     1
102
RTVSPost2010Prop56
140
1.0
102
RTVSPost2010PropOp56
 70
     1
102
RTVSPost2010Prop57
140
1.0
102
RTVSPost2010PropOp57
 70
     1
102
RTVSPropertyOp0
 70
     1
102
RTVSPropertyOp1
 70
     1
102
RTVSPropertyOp2
 70
     1
102
RTVSPropertyOp3
 70
     1
102
RTVSPropertyOp4
 70
     1
102
RTVSPropertyOp5
 70
     1
102
RTVSPropertyOp6
 70
     1
102
RTVSPropertyOp7
 70
     1
102
RTVSPropertyOp8
 70
     1
102
RTVSPropertyOp9
 70
     1
102
RTVSPropertyOp10
 70
     1
102
RTVSPropertyOp11
 70
     1
102
RTVSPropertyOp12
 70
     1
102
RTVSPropertyOp13
 70
     1
102
RTVSPropertyOp14
 70
     1
102
RTVSPropertyOp15
 70
     1
102
RTVSPropertyOp16
 70
     1
102
RTVSPropertyOp17
 70
     1
102
RTVSPropertyOp18
 70
     1
102
RTVSPropertyOp19
 70
     1
102
RTVSPropertyOp20
 70
     1
102
RTVSPropertyOp21
 70
     1
102
RTVSPropertyOp22
 70
     1
102
RTVSPropertyOp23
 70
     1
102
RTVSPropertyOp24
 70
     1
102
RTVSPropertyOp25
 70
     1
102
RTVSPropertyOp26
 70
     1
102
RTVSPropertyOp27
 70
     1
102
RTVSPropertyOp28
 70
     1
102
RTVSPropertyOp29
 70
     1
102
RTVSPropertyOp30
 70
     1
102
RTVSPropertyOp31
 70
     1
102
RTVSPropertyOp32
 70
     1
102
RTVSPropertyOp33
 70
     1
102
RTVSPropertyOp34
 70
     1
102
RTVSPropertyOp35
 70
     1
102
RTVSPropertyOp36
 70
     1
102
RTVSPropertyOp37
 70
     1
102
RTVSPropertyOp38
 70
     1
102
RTVSPropertyOp39
 70
     1
102
RTVSPropertyOp40
 70
     1
102
RTVSPropertyOp41
 70
     1
102
RTVSPropertyOp42
 70
     1
102
RTVSPropertyOp43
 70
     1
102
RTVSPropertyOp44
 70
     1
102
RTVSPropertyOp45
 70
     1
102
RTVSPropertyOp46
 70
     1
102
RTVSPropertyOp47
 70
     1
102
RTVSPropertyOp48
 70
     1
102
RTVSPropertyOp49
 70
     1
102
RTVSPropertyOp50
 70
     1
102
RTVSPropertyOp51
 70
     0
102
RTVSPropertyOp52
 70
     0
102
RTVSPropertyOp53
 70
     1
102
RTVSPropertyOp54
 70
     1
102
RTVSPropertyOp55
 70
     1
102
RTVSPropertyOp56
 70
     1
102
RTVSPropertyOp57
 70
     1
102
RTVSPropertyOp58
 70
     1
102
RTVSPropertyOp59
 70
     1
102
RTVSPropertyOp60
 70
     1
102
RTVSPropertyOp61
 70
     1
102
RTVSPropertyOp62
 70
     1
  0
XRECORD
  5
FE8
102
{ACAD_REACTORS
330
FE7
102
}
330
FE7
100
AcDbXrecord
280
     1
102
RTVSPost2010Prop28
280
     0
102
RTVSPost2010PropOp28
 70
     1
102
RTVSPost2010Prop29
280
     1
102
RTVSPost2010PropOp29
 70
     1
102
RTVSPost2010Prop30
280
     1
102
RTVSPost2010PropOp30
 70
     1
102
RTVSPost2010Prop31
280
     0
102
RTVSPost2010PropOp31
 70
     1
102
RTVSPost2010Prop32
280
     0
102
RTVSPost2010PropOp32
 70
     1
102
RTVSPost2010Prop33
280
     0
102
RTVSPost2010PropOp33
 70
     1
102
RTVSPost2010Prop34
280
     0
102
RTVSPost2010PropOp34
 70
     1
102
RTVSPost2010Prop35
280
     0
102
RTVSPost2010PropOp35
 70
     1
102
RTVSPost2010Prop36
280
     0
102
RTVSPost2010PropOp36
 70
     1
102
RTVSPost2010Prop37
 90
       50
102
RTVSPost2010PropOp37
 70
     1
102
RTVSPost2010Prop38
140
0.0
102
RTVSPost2010PropOp38
 70
     1
102
RTVSPost2010Prop39
140
1.0
102
RTVSPost2010PropOp39
 70
     1
102
RTVSPost2010Prop40
 90
        0
102
RTVSPost2010PropOp40
 70
     1
102
RTVSPost2010Prop41ColorIndex
 90
       18
102
RTVSPost2010Prop41ColorRGB
 90
        0
102
RTVSPost2010PropOp41
 70
     1
102
RTVSPost2010Prop42
 90
       50
102
RTVSPost2010PropOp42
 70
     1
102
RTVSPost2010Prop43
 90
        3
102
RTVSPost2010PropOp43
 70
     1
102
RTVSPost2010Prop44ColorIndex
 90
        5
102
RTVSPost2010Prop44ColorRGB
 90
      255
102
RTVSPost2010PropOp44
 70
     1
102
RTVSPost2010Prop45
280
     0
102
RTVSPost2010PropOp45
 70
     1
102
RTVSPost2010Prop46
 90
       50
102
RTVSPost2010PropOp46
 70
     1
102
RTVSPost2010Prop47
 90
       50
102
RTVSPost2010PropOp47
 70
     1
102
RTVSPost2010Prop48
 90
       50
102
RTVSPost2010PropOp48
 70
     1
102
RTVSPost2010Prop49
280
     0
102
RTVSPost2010PropOp49
 70
     1
102
RTVSPost2010Prop50
 90
       50
102
RTVSPost2010PropOp50
 70
     1
102
RTVSPost2010Prop51ColorIndex
 90
      256
102
RTVSPost2010Prop51ColorRGB
 90
-16777216
102
RTVSPost2010PropOp51
 70
     0
102
RTVSPost2010Prop52
140
1.0
102
RTVSPost2010PropOp52
 70
     0
102
RTVSPost2010Prop53
 90
        2
102
RTVSPost2010PropOp53
 70
     1
102
RTVSPost2010Prop54
  1
strokes_ogs.tif
102
RTVSPost2010PropOp54
 70
     1
102
RTVSPost2010Prop55
280
     0
102
RTVSPost2010PropOp55
 70
     1
102
RTVSPost2010Prop56
140
1.0
102
RTVSPost2010PropOp56
 70
     1
102
RTVSPost2010Prop57
140
1.0
102
RTVSPost2010PropOp57
 70
     1
102
RTVSPropertyOp0
 70
     1
102
RTVSPropertyOp1
 70
     1
102
RTVSPropertyOp2
 70
     1
102
RTVSPropertyOp3
 70
     1
102
RTVSPropertyOp4
 70
     1
102
RTVSPropertyOp5
 70
     1
102
RTVSPropertyOp6
 70
     1
102
RTVSPropertyOp7
 70
     1
102
RTVSPropertyOp8
 70
     1
102
RTVSPropertyOp9
 70
     1
102
RTVSPropertyOp10
 70
     1
102
RTVSPropertyOp11
 70
     1
102
RTVSPropertyOp12
 70
     1
102
RTVSPropertyOp13
 70
     1
102
RTVSPropertyOp14
 70
     1
102
RTVSPropertyOp15
 70
     1
102
RTVSPropertyOp16
 70
     1
102
RTVSPropertyOp17
 70
     1
102
RTVSPropertyOp18
 70
     1
102
RTVSPropertyOp19
 70
     1
102
RTVSPropertyOp20
 70
     1
102
RTVSPropertyOp21
 70
     1
102
RTVSPropertyOp22
 70
     1
102
RTVSPropertyOp23
 70
     1
102
RTVSPropertyOp24
 70
     1
102
RTVSPropertyOp25
 70
     1
102
RTVSPropertyOp26
 70
     1
102
RTVSPropertyOp27
 70
     1
102
RTVSPropertyOp28
 70
     1
102
RTVSPropertyOp29
 70
     1
102
RTVSPropertyOp30
 70
     1
102
RTVSPropertyOp31
 70
     1
102
RTVSPropertyOp32
 70
     1
102
RTVSPropertyOp33
 70
     1
102
RTVSPropertyOp34
 70
     1
102
RTVSPropertyOp35
 70
     1
102
RTVSPropertyOp36
 70
     1
102
RTVSPropertyOp37
 70
     1
102
RTVSPropertyOp38
 70
     1
102
RTVSPropertyOp39
 70
     1
102
RTVSPropertyOp40
 70
     1
102
RTVSPropertyOp41
 70
     1
102
RTVSPropertyOp42
 70
     1
102
RTVSPropertyOp43
 70
     1
102
RTVSPropertyOp44
 70
     1
102
RTVSPropertyOp45
 70
     1
102
RTVSPropertyOp46
 70
     1
102
RTVSPropertyOp47
 70
     1
102
RTVSPropertyOp48
 70
     1
102
RTVSPropertyOp49
 70
     1
102
RTVSPropertyOp50
 70
     1
102
RTVSPropertyOp51
 70
     0
102
RTVSPropertyOp52
 70
     0
102
RTVSPropertyOp53
 70
     1
102
RTVSPropertyOp54
 70
     1
102
RTVSPropertyOp55
 70
     1
102
RTVSPropertyOp56
 70
     1
102
RTVSPropertyOp57
 70
     1
102
RTVSPropertyOp58
 70
     1
102
RTVSPropertyOp59
 70
     1
102
RTVSPropertyOp60
 70
     1
102
RTVSPropertyOp61
 70
     1
102
RTVSPropertyOp62
 70
     1
  0
XRECORD
  5
1002
102
{ACAD_REACTORS
330
1001
102
}
330
1001
100
AcDbXrecord
280
     1
102
RTVSPost2010Prop28
280
     0
102
RTVSPost2010PropOp28
 70
     1
102
RTVSPost2010Prop29
280
     1
102
RTVSPost2010PropOp29
 70
     1
102
RTVSPost2010Prop30
280
     1
102
RTVSPost2010PropOp30
 70
     1
102
RTVSPost2010Prop31
280
     0
102
RTVSPost2010PropOp31
 70
     1
102
RTVSPost2010Prop32
280
     0
102
RTVSPost2010PropOp32
 70
     1
102
RTVSPost2010Prop33
280
     0
102
RTVSPost2010PropOp33
 70
     1
102
RTVSPost2010Prop34
280
     0
102
RTVSPost2010PropOp34
 70
     1
102
RTVSPost2010Prop35
280
     0
102
RTVSPost2010PropOp35
 70
     1
102
RTVSPost2010Prop36
280
     0
102
RTVSPost2010PropOp36
 70
     1
102
RTVSPost2010Prop37
 90
       50
102
RTVSPost2010PropOp37
 70
     0
102
RTVSPost2010Prop38
140
0.0
102
RTVSPost2010PropOp38
 70
     0
102
RTVSPost2010Prop39
140
1.0
102
RTVSPost2010PropOp39
 70
     0
102
RTVSPost2010Prop40
 90
        0
102
RTVSPost2010PropOp40
 70
     0
102
RTVSPost2010Prop41ColorIndex
 90
       18
102
RTVSPost2010Prop41ColorRGB
 90
        0
102
RTVSPost2010PropOp41
 70
     0
102
RTVSPost2010Prop42
 90
       50
102
RTVSPost2010PropOp42
 70
     0
102
RTVSPost2010Prop43
 90
        3
102
RTVSPost2010PropOp43
 70
     0
102
RTVSPost2010Prop44ColorIndex
 90
        5
102
RTVSPost2010Prop44ColorRGB
 90
      255
102
RTVSPost2010PropOp44
 70
     0
102
RTVSPost2010Prop45
280
     0
102
RTVSPost2010PropOp45
 70
     1
102
RTVSPost2010Prop46
 90
       50
102
RTVSPost2010PropOp46
 70
     0
102
RTVSPost2010Prop47
 90
       50
102
RTVSPost2010PropOp47
 70
     0
102
RTVSPost2010Prop48
 90
       50
102
RTVSPost2010PropOp48
 70
     0
102
RTVSPost2010Prop49
280
     0
102
RTVSPost2010PropOp49
 70
     1
102
RTVSPost2010Prop50
 90
       50
102
RTVSPost2010PropOp50
 70
     0
102
RTVSPost2010Prop51ColorIndex
 90
      256
102
RTVSPost2010Prop51ColorRGB
 90
-16777216
102
RTVSPost2010PropOp51
 70
     0
102
RTVSPost2010Prop52
140
1.0
102
RTVSPost2010PropOp52
 70
     0
102
RTVSPost2010Prop53
 90
        2
102
RTVSPost2010PropOp53
 70
     0
102
RTVSPost2010Prop54
  1
strokes_ogs.tif
102
RTVSPost2010PropOp54
 70
     0
102
RTVSPost2010Prop55
280
     0
102
RTVSPost2010PropOp55
 70
     1
102
RTVSPost2010Prop56
140
1.0
102
RTVSPost2010PropOp56
 70
     0
102
RTVSPost2010Prop57
140
1.0
102
RTVSPost2010PropOp57
 70
     0
102
RTVSPropertyOp0
 70
     0
102
RTVSPropertyOp1
 70
     0
102
RTVSPropertyOp2
 70
     0
102
RTVSPropertyOp3
 70
     0
102
RTVSPropertyOp4
 70
     0
102
RTVSPropertyOp5
 70
     0
102
RTVSPropertyOp6
 70
     0
102
RTVSPropertyOp7
 70
     0
102
RTVSPropertyOp8
 70
     0
102
RTVSPropertyOp9
 70
     0
102
RTVSPropertyOp10
 70
     0
102
RTVSPropertyOp11
 70
     0
102
RTVSPropertyOp12
 70
     0
102
RTVSPropertyOp13
 70
     0
102
RTVSPropertyOp14
 70
     2
102
RTVSPropertyOp15
 70
     0
102
RTVSPropertyOp16
 70
     0
102
RTVSPropertyOp17
 70
     0
102
RTVSPropertyOp18
 70
     0
102
RTVSPropertyOp19
 70
     0
102
RTVSPropertyOp20
 70
     0
102
RTVSPropertyOp21
 70
     0
102
RTVSPropertyOp22
 70
     0
102
RTVSPropertyOp23
 70
     0
102
RTVSPropertyOp24
 70
     0
102
RTVSPropertyOp25
 70
     0
102
RTVSPropertyOp26
 70
     0
102
RTVSPropertyOp27
 70
     0
102
RTVSPropertyOp28
 70
     1
102
RTVSPropertyOp29
 70
     1
102
RTVSPropertyOp30
 70
     1
102
RTVSPropertyOp31
 70
     1
102
RTVSPropertyOp32
 70
     1
102
RTVSPropertyOp33
 70
     1
102
RTVSPropertyOp34
 70
     1
102
RTVSPropertyOp35
 70
     1
102
RTVSPropertyOp36
 70
     1
102
RTVSPropertyOp37
 70
     0
102
RTVSPropertyOp38
 70
     0
102
RTVSPropertyOp39
 70
     0
102
RTVSPropertyOp40
 70
     0
102
RTVSPropertyOp41
 70
     0
102
RTVSPropertyOp42
 70
     0
102
RTVSPropertyOp43
 70
     0
102
RTVSPropertyOp44
 70
     0
102
RTVSPropertyOp45
 70
     1
102
RTVSPropertyOp46
 70
     0
102
RTVSPropertyOp47
 70
     0
102
RTVSPropertyOp48
 70
     0
102
RTVSPropertyOp49
 70
     1
102
RTVSPropertyOp50
 70
     0
102
RTVSPropertyOp51
 70
     0
102
RTVSPropertyOp52
 70
     0
102
RTVSPropertyOp53
 70
     0
102
RTVSPropertyOp54
 70
     0
102
RTVSPropertyOp55
 70
     1
102
RTVSPropertyOp56
 70
     0
102
RTVSPropertyOp57
 70
     0
102
RTVSPropertyOp58
 70
     0
102
RTVSPropertyOp59
 70
     0
102
RTVSPropertyOp60
 70
     0
102
RTVSPropertyOp61
 70
     0
102
RTVSPropertyOp62
 70
     0
  0
XRECORD
  5
FF0
102
{ACAD_REACTORS
330
FEF
102
}
330
FEF
100
AcDbXrecord
280
     1
102
RTVSPost2010Prop28
280
     0
102
RTVSPost2010PropOp28
 70
     1
102
RTVSPost2010Prop29
280
     1
102
RTVSPost2010PropOp29
 70
     1
102
RTVSPost2010Prop30
280
     1
102
RTVSPost2010PropOp30
 70
     1
102
RTVSPost2010Prop31
280
     0
102
RTVSPost2010PropOp31
 70
     1
102
RTVSPost2010Prop32
280
     0
102
RTVSPost2010PropOp32
 70
     1
102
RTVSPost2010Prop33
280
     0
102
RTVSPost2010PropOp33
 70
     1
102
RTVSPost2010Prop34
280
     0
102
RTVSPost2010PropOp34
 70
     1
102
RTVSPost2010Prop35
280
     0
102
RTVSPost2010PropOp35
 70
     1
102
RTVSPost2010Prop36
280
     0
102
RTVSPost2010PropOp36
 70
     1
102
RTVSPost2010Prop37
 90
       50
102
RTVSPost2010PropOp37
 70
     1
102
RTVSPost2010Prop38
140
0.0
102
RTVSPost2010PropOp38
 70
     1
102
RTVSPost2010Prop39
140
1.0
102
RTVSPost2010PropOp39
 70
     1
102
RTVSPost2010Prop40
 90
        0
102
RTVSPost2010PropOp40
 70
     1
102
RTVSPost2010Prop41ColorIndex
 90
       18
102
RTVSPost2010Prop41ColorRGB
 90
        0
102
RTVSPost2010PropOp41
 70
     1
102
RTVSPost2010Prop42
 90
       50
102
RTVSPost2010PropOp42
 70
     1
102
RTVSPost2010Prop43
 90
        3
102
RTVSPost2010PropOp43
 70
     1
102
RTVSPost2010Prop44ColorIndex
 90
        5
102
RTVSPost2010Prop44ColorRGB
 90
      255
102
RTVSPost2010PropOp44
 70
     1
102
RTVSPost2010Prop45
280
     0
102
RTVSPost2010PropOp45
 70
     1
102
RTVSPost2010Prop46
 90
       50
102
RTVSPost2010PropOp46
 70
     1
102
RTVSPost2010Prop47
 90
       50
102
RTVSPost2010PropOp47
 70
     1
102
RTVSPost2010Prop48
 90
       50
102
RTVSPost2010PropOp48
 70
     1
102
RTVSPost2010Prop49
280
     0
102
RTVSPost2010PropOp49
 70
     1
102
RTVSPost2010Prop50
 90
       50
102
RTVSPost2010PropOp50
 70
     1
102
RTVSPost2010Prop51ColorIndex
 90
      256
102
RTVSPost2010Prop51ColorRGB
 90
-16777216
102
RTVSPost2010PropOp51
 70
     0
102
RTVSPost2010Prop52
140
1.0
102
RTVSPost2010PropOp52
 70
     0
102
RTVSPost2010Prop53
 90
        2
102
RTVSPost2010PropOp53
 70
     1
102
RTVSPost2010Prop54
  1
strokes_ogs.tif
102
RTVSPost2010PropOp54
 70
     1
102
RTVSPost2010Prop55
280
     0
102
RTVSPost2010PropOp55
 70
     1
102
RTVSPost2010Prop56
140
1.0
102
RTVSPost2010PropOp56
 70
     1
102
RTVSPost2010Prop57
140
1.0
102
RTVSPost2010PropOp57
 70
     1
102
RTVSPropertyOp0
 70
     1
102
RTVSPropertyOp1
 70
     1
102
RTVSPropertyOp2
 70
     1
102
RTVSPropertyOp3
 70
     1
102
RTVSPropertyOp4
 70
     1
102
RTVSPropertyOp5
 70
     1
102
RTVSPropertyOp6
 70
     1
102
RTVSPropertyOp7
 70
     1
102
RTVSPropertyOp8
 70
     1
102
RTVSPropertyOp9
 70
     1
102
RTVSPropertyOp10
 70
     1
102
RTVSPropertyOp11
 70
     1
102
RTVSPropertyOp12
 70
     1
102
RTVSPropertyOp13
 70
     1
102
RTVSPropertyOp14
 70
     1
102
RTVSPropertyOp15
 70
     1
102
RTVSPropertyOp16
 70
     1
102
RTVSPropertyOp17
 70
     1
102
RTVSPropertyOp18
 70
     1
102
RTVSPropertyOp19
 70
     1
102
RTVSPropertyOp20
 70
     1
102
RTVSPropertyOp21
 70
     1
102
RTVSPropertyOp22
 70
     1
102
RTVSPropertyOp23
 70
     1
102
RTVSPropertyOp24
 70
     1
102
RTVSPropertyOp25
 70
     1
102
RTVSPropertyOp26
 70
     1
102
RTVSPropertyOp27
 70
     1
102
RTVSPropertyOp28
 70
     1
102
RTVSPropertyOp29
 70
     1
102
RTVSPropertyOp30
 70
     1
102
RTVSPropertyOp31
 70
     1
102
RTVSPropertyOp32
 70
     1
102
RTVSPropertyOp33
 70
     1
102
RTVSPropertyOp34
 70
     1
102
RTVSPropertyOp35
 70
     1
102
RTVSPropertyOp36
 70
     1
102
RTVSPropertyOp37
 70
     1
102
RTVSPropertyOp38
 70
     1
102
RTVSPropertyOp39
 70
     1
102
RTVSPropertyOp40
 70
     1
102
RTVSPropertyOp41
 70
     1
102
RTVSPropertyOp42
 70
     1
102
RTVSPropertyOp43
 70
     1
102
RTVSPropertyOp44
 70
     1
102
RTVSPropertyOp45
 70
     1
102
RTVSPropertyOp46
 70
     1
102
RTVSPropertyOp47
 70
     1
102
RTVSPropertyOp48
 70
     1
102
RTVSPropertyOp49
 70
     1
102
RTVSPropertyOp50
 70
     1
102
RTVSPropertyOp51
 70
     0
102
RTVSPropertyOp52
 70
     0
102
RTVSPropertyOp53
 70
     1
102
RTVSPropertyOp54
 70
     1
102
RTVSPropertyOp55
 70
     1
102
RTVSPropertyOp56
 70
     1
102
RTVSPropertyOp57
 70
     1
102
RTVSPropertyOp58
 70
     1
102
RTVSPropertyOp59
 70
     1
102
RTVSPropertyOp60
 70
     1
102
RTVSPropertyOp61
 70
     1
102
RTVSPropertyOp62
 70
     1
  0
XRECORD
  5
FD4
102
{ACAD_REACTORS
330
FD3
102
}
330
FD3
100
AcDbXrecord
280
     1
102
RTVSPost2010Prop28
280
     0
102
RTVSPost2010PropOp28
 70
     1
102
RTVSPost2010Prop29
280
     1
102
RTVSPost2010PropOp29
 70
     1
102
RTVSPost2010Prop30
280
     1
102
RTVSPost2010PropOp30
 70
     1
102
RTVSPost2010Prop31
280
     0
102
RTVSPost2010PropOp31
 70
     1
102
RTVSPost2010Prop32
280
     0
102
RTVSPost2010PropOp32
 70
     1
102
RTVSPost2010Prop33
280
     0
102
RTVSPost2010PropOp33
 70
     1
102
RTVSPost2010Prop34
280
     0
102
RTVSPost2010PropOp34
 70
     1
102
RTVSPost2010Prop35
280
     0
102
RTVSPost2010PropOp35
 70
     1
102
RTVSPost2010Prop36
280
     0
102
RTVSPost2010PropOp36
 70
     1
102
RTVSPost2010Prop37
 90
       50
102
RTVSPost2010PropOp37
 70
     1
102
RTVSPost2010Prop38
140
0.0
102
RTVSPost2010PropOp38
 70
     1
102
RTVSPost2010Prop39
140
1.0
102
RTVSPost2010PropOp39
 70
     1
102
RTVSPost2010Prop40
 90
        0
102
RTVSPost2010PropOp40
 70
     1
102
RTVSPost2010Prop41ColorIndex
 90
       18
102
RTVSPost2010Prop41ColorRGB
 90
        0
102
RTVSPost2010PropOp41
 70
     1
102
RTVSPost2010Prop42
 90
       50
102
RTVSPost2010PropOp42
 70
     1
102
RTVSPost2010Prop43
 90
        3
102
RTVSPost2010PropOp43
 70
     1
102
RTVSPost2010Prop44ColorIndex
 90
        5
102
RTVSPost2010Prop44ColorRGB
 90
      255
102
RTVSPost2010PropOp44
 70
     1
102
RTVSPost2010Prop45
280
     0
102
RTVSPost2010PropOp45
 70
     1
102
RTVSPost2010Prop46
 90
       50
102
RTVSPost2010PropOp46
 70
     1
102
RTVSPost2010Prop47
 90
       50
102
RTVSPost2010PropOp47
 70
     1
102
RTVSPost2010Prop48
 90
       50
102
RTVSPost2010PropOp48
 70
     1
102
RTVSPost2010Prop49
280
     0
102
RTVSPost2010PropOp49
 70
     1
102
RTVSPost2010Prop50
 90
       50
102
RTVSPost2010PropOp50
 70
     1
102
RTVSPost2010Prop51ColorIndex
 90
      256
102
RTVSPost2010Prop51ColorRGB
 90
-16777216
102
RTVSPost2010PropOp51
 70
     0
102
RTVSPost2010Prop52
140
1.0
102
RTVSPost2010PropOp52
 70
     0
102
RTVSPost2010Prop53
 90
        2
102
RTVSPost2010PropOp53
 70
     1
102
RTVSPost2010Prop54
  1
strokes_ogs.tif
102
RTVSPost2010PropOp54
 70
     1
102
RTVSPost2010Prop55
280
     0
102
RTVSPost2010PropOp55
 70
     1
102
RTVSPost2010Prop56
140
1.0
102
RTVSPost2010PropOp56
 70
     1
102
RTVSPost2010Prop57
140
1.0
102
RTVSPost2010PropOp57
 70
     1
102
RTVSPropertyOp0
 70
     1
102
RTVSPropertyOp1
 70
     1
102
RTVSPropertyOp2
 70
     1
102
RTVSPropertyOp3
 70
     1
102
RTVSPropertyOp4
 70
     1
102
RTVSPropertyOp5
 70
     1
102
RTVSPropertyOp6
 70
     1
102
RTVSPropertyOp7
 70
     1
102
RTVSPropertyOp8
 70
     1
102
RTVSPropertyOp9
 70
     1
102
RTVSPropertyOp10
 70
     1
102
RTVSPropertyOp11
 70
     1
102
RTVSPropertyOp12
 70
     1
102
RTVSPropertyOp13
 70
     1
102
RTVSPropertyOp14
 70
     1
102
RTVSPropertyOp15
 70
     1
102
RTVSPropertyOp16
 70
     1
102
RTVSPropertyOp17
 70
     1
102
RTVSPropertyOp18
 70
     1
102
RTVSPropertyOp19
 70
     1
102
RTVSPropertyOp20
 70
     1
102
RTVSPropertyOp21
 70
     1
102
RTVSPropertyOp22
 70
     1
102
RTVSPropertyOp23
 70
     1
102
RTVSPropertyOp24
 70
     1
102
RTVSPropertyOp25
 70
     1
102
RTVSPropertyOp26
 70
     1
102
RTVSPropertyOp27
 70
     1
102
RTVSPropertyOp28
 70
     1
102
RTVSPropertyOp29
 70
     1
102
RTVSPropertyOp30
 70
     1
102
RTVSPropertyOp31
 70
     1
102
RTVSPropertyOp32
 70
     1
102
RTVSPropertyOp33
 70
     1
102
RTVSPropertyOp34
 70
     1
102
RTVSPropertyOp35
 70
     1
102
RTVSPropertyOp36
 70
     1
102
RTVSPropertyOp37
 70
     1
102
RTVSPropertyOp38
 70
     1
102
RTVSPropertyOp39
 70
     1
102
RTVSPropertyOp40
 70
     1
102
RTVSPropertyOp41
 70
     1
102
RTVSPropertyOp42
 70
     1
102
RTVSPropertyOp43
 70
     1
102
RTVSPropertyOp44
 70
     1
102
RTVSPropertyOp45
 70
     1
102
RTVSPropertyOp46
 70
     1
102
RTVSPropertyOp47
 70
     1
102
RTVSPropertyOp48
 70
     1
102
RTVSPropertyOp49
 70
     1
102
RTVSPropertyOp50
 70
     1
102
RTVSPropertyOp51
 70
     0
102
RTVSPropertyOp52
 70
     0
102
RTVSPropertyOp53
 70
     1
102
RTVSPropertyOp54
 70
     1
102
RTVSPropertyOp55
 70
     1
102
RTVSPropertyOp56
 70
     1
102
RTVSPropertyOp57
 70
     1
102
RTVSPropertyOp58
 70
     1
102
RTVSPropertyOp59
 70
     1
102
RTVSPropertyOp60
 70
     1
102
RTVSPropertyOp61
 70
     1
102
RTVSPropertyOp62
 70
     1
  0
XRECORD
  5
FD6
102
{ACAD_REACTORS
330
FD5
102
}
330
FD5
100
AcDbXrecord
280
     1
102
RTVSPost2010Prop28
280
     0
102
RTVSPost2010PropOp28
 70
     1
102
RTVSPost2010Prop29
280
     1
102
RTVSPost2010PropOp29
 70
     1
102
RTVSPost2010Prop30
280
     1
102
RTVSPost2010PropOp30
 70
     1
102
RTVSPost2010Prop31
280
     0
102
RTVSPost2010PropOp31
 70
     1
102
RTVSPost2010Prop32
280
     0
102
RTVSPost2010PropOp32
 70
     1
102
RTVSPost2010Prop33
280
     0
102
RTVSPost2010PropOp33
 70
     1
102
RTVSPost2010Prop34
280
     0
102
RTVSPost2010PropOp34
 70
     1
102
RTVSPost2010Prop35
280
     0
102
RTVSPost2010PropOp35
 70
     1
102
RTVSPost2010Prop36
280
     0
102
RTVSPost2010PropOp36
 70
     1
102
RTVSPost2010Prop37
 90
       50
102
RTVSPost2010PropOp37
 70
     1
102
RTVSPost2010Prop38
140
0.0
102
RTVSPost2010PropOp38
 70
     1
102
RTVSPost2010Prop39
140
1.0
102
RTVSPost2010PropOp39
 70
     1
102
RTVSPost2010Prop40
 90
        0
102
RTVSPost2010PropOp40
 70
     1
102
RTVSPost2010Prop41ColorIndex
 90
       18
102
RTVSPost2010Prop41ColorRGB
 90
        0
102
RTVSPost2010PropOp41
 70
     1
102
RTVSPost2010Prop42
 90
       50
102
RTVSPost2010PropOp42
 70
     1
102
RTVSPost2010Prop43
 90
        3
102
RTVSPost2010PropOp43
 70
     1
102
RTVSPost2010Prop44ColorIndex
 90
        5
102
RTVSPost2010Prop44ColorRGB
 90
      255
102
RTVSPost2010PropOp44
 70
     1
102
RTVSPost2010Prop45
280
     0
102
RTVSPost2010PropOp45
 70
     1
102
RTVSPost2010Prop46
 90
       50
102
RTVSPost2010PropOp46
 70
     1
102
RTVSPost2010Prop47
 90
       50
102
RTVSPost2010PropOp47
 70
     1
102
RTVSPost2010Prop48
 90
       50
102
RTVSPost2010PropOp48
 70
     1
102
RTVSPost2010Prop49
280
     0
102
RTVSPost2010PropOp49
 70
     1
102
RTVSPost2010Prop50
 90
       50
102
RTVSPost2010PropOp50
 70
     1
102
RTVSPost2010Prop51ColorIndex
 90
      256
102
RTVSPost2010Prop51ColorRGB
 90
-16777216
102
RTVSPost2010PropOp51
 70
     0
102
RTVSPost2010Prop52
140
1.0
102
RTVSPost2010PropOp52
 70
     0
102
RTVSPost2010Prop53
 90
        2
102
RTVSPost2010PropOp53
 70
     1
102
RTVSPost2010Prop54
  1
strokes_ogs.tif
102
RTVSPost2010PropOp54
 70
     1
102
RTVSPost2010Prop55
280
     0
102
RTVSPost2010PropOp55
 70
     1
102
RTVSPost2010Prop56
140
1.0
102
RTVSPost2010PropOp56
 70
     1
102
RTVSPost2010Prop57
140
1.0
102
RTVSPost2010PropOp57
 70
     1
102
RTVSPropertyOp0
 70
     1
102
RTVSPropertyOp1
 70
     1
102
RTVSPropertyOp2
 70
     1
102
RTVSPropertyOp3
 70
     1
102
RTVSPropertyOp4
 70
     1
102
RTVSPropertyOp5
 70
     1
102
RTVSPropertyOp6
 70
     1
102
RTVSPropertyOp7
 70
     1
102
RTVSPropertyOp8
 70
     1
102
RTVSPropertyOp9
 70
     1
102
RTVSPropertyOp10
 70
     1
102
RTVSPropertyOp11
 70
     1
102
RTVSPropertyOp12
 70
     1
102
RTVSPropertyOp13
 70
     1
102
RTVSPropertyOp14
 70
     1
102
RTVSPropertyOp15
 70
     1
102
RTVSPropertyOp16
 70
     1
102
RTVSPropertyOp17
 70
     1
102
RTVSPropertyOp18
 70
     1
102
RTVSPropertyOp19
 70
     1
102
RTVSPropertyOp20
 70
     1
102
RTVSPropertyOp21
 70
     1
102
RTVSPropertyOp22
 70
     1
102
RTVSPropertyOp23
 70
     1
102
RTVSPropertyOp24
 70
     1
102
RTVSPropertyOp25
 70
     1
102
RTVSPropertyOp26
 70
     1
102
RTVSPropertyOp27
 70
     1
102
RTVSPropertyOp28
 70
     1
102
RTVSPropertyOp29
 70
     1
102
RTVSPropertyOp30
 70
     1
102
RTVSPropertyOp31
 70
     1
102
RTVSPropertyOp32
 70
     1
102
RTVSPropertyOp33
 70
     1
102
RTVSPropertyOp34
 70
     1
102
RTVSPropertyOp35
 70
     1
102
RTVSPropertyOp36
 70
     1
102
RTVSPropertyOp37
 70
     1
102
RTVSPropertyOp38
 70
     1
102
RTVSPropertyOp39
 70
     1
102
RTVSPropertyOp40
 70
     1
102
RTVSPropertyOp41
 70
     1
102
RTVSPropertyOp42
 70
     1
102
RTVSPropertyOp43
 70
     1
102
RTVSPropertyOp44
 70
     1
102
RTVSPropertyOp45
 70
     1
102
RTVSPropertyOp46
 70
     1
102
RTVSPropertyOp47
 70
     1
102
RTVSPropertyOp48
 70
     1
102
RTVSPropertyOp49
 70
     1
102
RTVSPropertyOp50
 70
     1
102
RTVSPropertyOp51
 70
     0
102
RTVSPropertyOp52
 70
     0
102
RTVSPropertyOp53
 70
     1
102
RTVSPropertyOp54
 70
     1
102
RTVSPropertyOp55
 70
     1
102
RTVSPropertyOp56
 70
     1
102
RTVSPropertyOp57
 70
     1
102
RTVSPropertyOp58
 70
     1
102
RTVSPropertyOp59
 70
     1
102
RTVSPropertyOp60
 70
     1
102
RTVSPropertyOp61
 70
     1
102
RTVSPropertyOp62
 70
     1
  0
XRECORD
  5
FD8
102
{ACAD_REACTORS
330
FD7
102
}
330
FD7
100
AcDbXrecord
280
     1
102
RTVSPost2010Prop28
280
     0
102
RTVSPost2010PropOp28
 70
     1
102
RTVSPost2010Prop29
280
     1
102
RTVSPost2010PropOp29
 70
     1
102
RTVSPost2010Prop30
280
     1
102
RTVSPost2010PropOp30
 70
     1
102
RTVSPost2010Prop31
280
     0
102
RTVSPost2010PropOp31
 70
     1
102
RTVSPost2010Prop32
280
     0
102
RTVSPost2010PropOp32
 70
     1
102
RTVSPost2010Prop33
280
     0
102
RTVSPost2010PropOp33
 70
     1
102
RTVSPost2010Prop34
280
     0
102
RTVSPost2010PropOp34
 70
     1
102
RTVSPost2010Prop35
280
     0
102
RTVSPost2010PropOp35
 70
     1
102
RTVSPost2010Prop36
280
     0
102
RTVSPost2010PropOp36
 70
     1
102
RTVSPost2010Prop37
 90
       50
102
RTVSPost2010PropOp37
 70
     1
102
RTVSPost2010Prop38
140
0.0
102
RTVSPost2010PropOp38
 70
     1
102
RTVSPost2010Prop39
140
1.0
102
RTVSPost2010PropOp39
 70
     1
102
RTVSPost2010Prop40
 90
        0
102
RTVSPost2010PropOp40
 70
     1
102
RTVSPost2010Prop41ColorIndex
 90
       18
102
RTVSPost2010Prop41ColorRGB
 90
        0
102
RTVSPost2010PropOp41
 70
     1
102
RTVSPost2010Prop42
 90
       50
102
RTVSPost2010PropOp42
 70
     1
102
RTVSPost2010Prop43
 90
        3
102
RTVSPost2010PropOp43
 70
     1
102
RTVSPost2010Prop44ColorIndex
 90
        5
102
RTVSPost2010Prop44ColorRGB
 90
      255
102
RTVSPost2010PropOp44
 70
     1
102
RTVSPost2010Prop45
280
     0
102
RTVSPost2010PropOp45
 70
     1
102
RTVSPost2010Prop46
 90
       50
102
RTVSPost2010PropOp46
 70
     1
102
RTVSPost2010Prop47
 90
       50
102
RTVSPost2010PropOp47
 70
     1
102
RTVSPost2010Prop48
 90
       50
102
RTVSPost2010PropOp48
 70
     1
102
RTVSPost2010Prop49
280
     0
102
RTVSPost2010PropOp49
 70
     1
102
RTVSPost2010Prop50
 90
       50
102
RTVSPost2010PropOp50
 70
     1
102
RTVSPost2010Prop51ColorIndex
 90
      256
102
RTVSPost2010Prop51ColorRGB
 90
-16777216
102
RTVSPost2010PropOp51
 70
     0
102
RTVSPost2010Prop52
140
1.0
102
RTVSPost2010PropOp52
 70
     0
102
RTVSPost2010Prop53
 90
        2
102
RTVSPost2010PropOp53
 70
     1
102
RTVSPost2010Prop54
  1
strokes_ogs.tif
102
RTVSPost2010PropOp54
 70
     1
102
RTVSPost2010Prop55
280
     0
102
RTVSPost2010PropOp55
 70
     1
102
RTVSPost2010Prop56
140
1.0
102
RTVSPost2010PropOp56
 70
     1
102
RTVSPost2010Prop57
140
1.0
102
RTVSPost2010PropOp57
 70
     1
102
RTVSPropertyOp0
 70
     1
102
RTVSPropertyOp1
 70
     1
102
RTVSPropertyOp2
 70
     1
102
RTVSPropertyOp3
 70
     1
102
RTVSPropertyOp4
 70
     1
102
RTVSPropertyOp5
 70
     1
102
RTVSPropertyOp6
 70
     1
102
RTVSPropertyOp7
 70
     1
102
RTVSPropertyOp8
 70
     1
102
RTVSPropertyOp9
 70
     1
102
RTVSPropertyOp10
 70
     1
102
RTVSPropertyOp11
 70
     1
102
RTVSPropertyOp12
 70
     1
102
RTVSPropertyOp13
 70
     1
102
RTVSPropertyOp14
 70
     1
102
RTVSPropertyOp15
 70
     1
102
RTVSPropertyOp16
 70
     1
102
RTVSPropertyOp17
 70
     1
102
RTVSPropertyOp18
 70
     1
102
RTVSPropertyOp19
 70
     1
102
RTVSPropertyOp20
 70
     1
102
RTVSPropertyOp21
 70
     1
102
RTVSPropertyOp22
 70
     1
102
RTVSPropertyOp23
 70
     1
102
RTVSPropertyOp24
 70
     1
102
RTVSPropertyOp25
 70
     1
102
RTVSPropertyOp26
 70
     1
102
RTVSPropertyOp27
 70
     1
102
RTVSPropertyOp28
 70
     1
102
RTVSPropertyOp29
 70
     1
102
RTVSPropertyOp30
 70
     1
102
RTVSPropertyOp31
 70
     1
102
RTVSPropertyOp32
 70
     1
102
RTVSPropertyOp33
 70
     1
102
RTVSPropertyOp34
 70
     1
102
RTVSPropertyOp35
 70
     1
102
RTVSPropertyOp36
 70
     1
102
RTVSPropertyOp37
 70
     1
102
RTVSPropertyOp38
 70
     1
102
RTVSPropertyOp39
 70
     1
102
RTVSPropertyOp40
 70
     1
102
RTVSPropertyOp41
 70
     1
102
RTVSPropertyOp42
 70
     1
102
RTVSPropertyOp43
 70
     1
102
RTVSPropertyOp44
 70
     1
102
RTVSPropertyOp45
 70
     1
102
RTVSPropertyOp46
 70
     1
102
RTVSPropertyOp47
 70
     1
102
RTVSPropertyOp48
 70
     1
102
RTVSPropertyOp49
 70
     1
102
RTVSPropertyOp50
 70
     1
102
RTVSPropertyOp51
 70
     0
102
RTVSPropertyOp52
 70
     0
102
RTVSPropertyOp53
 70
     1
102
RTVSPropertyOp54
 70
     1
102
RTVSPropertyOp55
 70
     1
102
RTVSPropertyOp56
 70
     1
102
RTVSPropertyOp57
 70
     1
102
RTVSPropertyOp58
 70
     1
102
RTVSPropertyOp59
 70
     1
102
RTVSPropertyOp60
 70
     1
102
RTVSPropertyOp61
 70
     1
102
RTVSPropertyOp62
 70
     1
  0
XRECORD
  5
FDA
102
{ACAD_REACTORS
330
FD9
102
}
330
FD9
100
AcDbXrecord
280
     1
102
RTVSPost2010Prop28
280
     0
102
RTVSPost2010PropOp28
 70
     1
102
RTVSPost2010Prop29
280
     1
102
RTVSPost2010PropOp29
 70
     1
102
RTVSPost2010Prop30
280
     1
102
RTVSPost2010PropOp30
 70
     1
102
RTVSPost2010Prop31
280
     0
102
RTVSPost2010PropOp31
 70
     1
102
RTVSPost2010Prop32
280
     0
102
RTVSPost2010PropOp32
 70
     1
102
RTVSPost2010Prop33
280
     0
102
RTVSPost2010PropOp33
 70
     1
102
RTVSPost2010Prop34
280
     0
102
RTVSPost2010PropOp34
 70
     1
102
RTVSPost2010Prop35
280
     0
102
RTVSPost2010PropOp35
 70
     1
102
RTVSPost2010Prop36
280
     0
102
RTVSPost2010PropOp36
 70
     1
102
RTVSPost2010Prop37
 90
       50
102
RTVSPost2010PropOp37
 70
     1
102
RTVSPost2010Prop38
140
0.0
102
RTVSPost2010PropOp38
 70
     1
102
RTVSPost2010Prop39
140
1.0
102
RTVSPost2010PropOp39
 70
     1
102
RTVSPost2010Prop40
 90
        0
102
RTVSPost2010PropOp40
 70
     1
102
RTVSPost2010Prop41ColorIndex
 90
       18
102
RTVSPost2010Prop41ColorRGB
 90
        0
102
RTVSPost2010PropOp41
 70
     1
102
RTVSPost2010Prop42
 90
       50
102
RTVSPost2010PropOp42
 70
     1
102
RTVSPost2010Prop43
 90
        3
102
RTVSPost2010PropOp43
 70
     1
102
RTVSPost2010Prop44ColorIndex
 90
        5
102
RTVSPost2010Prop44ColorRGB
 90
      255
102
RTVSPost2010PropOp44
 70
     1
102
RTVSPost2010Prop45
280
     0
102
RTVSPost2010PropOp45
 70
     1
102
RTVSPost2010Prop46
 90
       50
102
RTVSPost2010PropOp46
 70
     1
102
RTVSPost2010Prop47
 90
       50
102
RTVSPost2010PropOp47
 70
     1
102
RTVSPost2010Prop48
 90
       50
102
RTVSPost2010PropOp48
 70
     1
102
RTVSPost2010Prop49
280
     0
102
RTVSPost2010PropOp49
 70
     1
102
RTVSPost2010Prop50
 90
       50
102
RTVSPost2010PropOp50
 70
     1
102
RTVSPost2010Prop51ColorIndex
 90
      256
102
RTVSPost2010Prop51ColorRGB
 90
-16777216
102
RTVSPost2010PropOp51
 70
     0
102
RTVSPost2010Prop52
140
1.0
102
RTVSPost2010PropOp52
 70
     0
102
RTVSPost2010Prop53
 90
        2
102
RTVSPost2010PropOp53
 70
     1
102
RTVSPost2010Prop54
  1
strokes_ogs.tif
102
RTVSPost2010PropOp54
 70
     1
102
RTVSPost2010Prop55
280
     0
102
RTVSPost2010PropOp55
 70
     1
102
RTVSPost2010Prop56
140
1.0
102
RTVSPost2010PropOp56
 70
     1
102
RTVSPost2010Prop57
140
1.0
102
RTVSPost2010PropOp57
 70
     1
102
RTVSPropertyOp0
 70
     1
102
RTVSPropertyOp1
 70
     1
102
RTVSPropertyOp2
 70
     1
102
RTVSPropertyOp3
 70
     1
102
RTVSPropertyOp4
 70
     1
102
RTVSPropertyOp5
 70
     1
102
RTVSPropertyOp6
 70
     1
102
RTVSPropertyOp7
 70
     1
102
RTVSPropertyOp8
 70
     1
102
RTVSPropertyOp9
 70
     1
102
RTVSPropertyOp10
 70
     1
102
RTVSPropertyOp11
 70
     1
102
RTVSPropertyOp12
 70
     1
102
RTVSPropertyOp13
 70
     1
102
RTVSPropertyOp14
 70
     1
102
RTVSPropertyOp15
 70
     1
102
RTVSPropertyOp16
 70
     1
102
RTVSPropertyOp17
 70
     1
102
RTVSPropertyOp18
 70
     1
102
RTVSPropertyOp19
 70
     1
102
RTVSPropertyOp20
 70
     1
102
RTVSPropertyOp21
 70
     1
102
RTVSPropertyOp22
 70
     1
102
RTVSPropertyOp23
 70
     1
102
RTVSPropertyOp24
 70
     1
102
RTVSPropertyOp25
 70
     1
102
RTVSPropertyOp26
 70
     1
102
RTVSPropertyOp27
 70
     1
102
RTVSPropertyOp28
 70
     1
102
RTVSPropertyOp29
 70
     1
102
RTVSPropertyOp30
 70
     1
102
RTVSPropertyOp31
 70
     1
102
RTVSPropertyOp32
 70
     1
102
RTVSPropertyOp33
 70
     1
102
RTVSPropertyOp34
 70
     1
102
RTVSPropertyOp35
 70
     1
102
RTVSPropertyOp36
 70
     1
102
RTVSPropertyOp37
 70
     1
102
RTVSPropertyOp38
 70
     1
102
RTVSPropertyOp39
 70
     1
102
RTVSPropertyOp40
 70
     1
102
RTVSPropertyOp41
 70
     1
102
RTVSPropertyOp42
 70
     1
102
RTVSPropertyOp43
 70
     1
102
RTVSPropertyOp44
 70
     1
102
RTVSPropertyOp45
 70
     1
102
RTVSPropertyOp46
 70
     1
102
RTVSPropertyOp47
 70
     1
102
RTVSPropertyOp48
 70
     1
102
RTVSPropertyOp49
 70
     1
102
RTVSPropertyOp50
 70
     1
102
RTVSPropertyOp51
 70
     0
102
RTVSPropertyOp52
 70
     0
102
RTVSPropertyOp53
 70
     1
102
RTVSPropertyOp54
 70
     1
102
RTVSPropertyOp55
 70
     1
102
RTVSPropertyOp56
 70
     1
102
RTVSPropertyOp57
 70
     1
102
RTVSPropertyOp58
 70
     1
102
RTVSPropertyOp59
 70
     1
102
RTVSPropertyOp60
 70
     1
102
RTVSPropertyOp61
 70
     1
102
RTVSPropertyOp62
 70
     1
  0
XRECORD
  5
FE2
102
{ACAD_REACTORS
330
FE1
102
}
330
FE1
100
AcDbXrecord
280
     1
102
RTVSPost2010Prop28
280
     0
102
RTVSPost2010PropOp28
 70
     1
102
RTVSPost2010Prop29
280
     1
102
RTVSPost2010PropOp29
 70
     1
102
RTVSPost2010Prop30
280
     1
102
RTVSPost2010PropOp30
 70
     1
102
RTVSPost2010Prop31
280
     0
102
RTVSPost2010PropOp31
 70
     1
102
RTVSPost2010Prop32
280
     0
102
RTVSPost2010PropOp32
 70
     1
102
RTVSPost2010Prop33
280
     0
102
RTVSPost2010PropOp33
 70
     1
102
RTVSPost2010Prop34
280
     0
102
RTVSPost2010PropOp34
 70
     1
102
RTVSPost2010Prop35
280
     0
102
RTVSPost2010PropOp35
 70
     1
102
RTVSPost2010Prop36
280
     0
102
RTVSPost2010PropOp36
 70
     1
102
RTVSPost2010Prop37
 90
       50
102
RTVSPost2010PropOp37
 70
     1
102
RTVSPost2010Prop38
140
0.0
102
RTVSPost2010PropOp38
 70
     1
102
RTVSPost2010Prop39
140
1.0
102
RTVSPost2010PropOp39
 70
     1
102
RTVSPost2010Prop40
 90
        0
102
RTVSPost2010PropOp40
 70
     1
102
RTVSPost2010Prop41ColorIndex
 90
       18
102
RTVSPost2010Prop41ColorRGB
 90
        0
102
RTVSPost2010PropOp41
 70
     1
102
RTVSPost2010Prop42
 90
       50
102
RTVSPost2010PropOp42
 70
     1
102
RTVSPost2010Prop43
 90
        3
102
RTVSPost2010PropOp43
 70
     1
102
RTVSPost2010Prop44ColorIndex
 90
        5
102
RTVSPost2010Prop44ColorRGB
 90
      255
102
RTVSPost2010PropOp44
 70
     1
102
RTVSPost2010Prop45
280
     0
102
RTVSPost2010PropOp45
 70
     1
102
RTVSPost2010Prop46
 90
       50
102
RTVSPost2010PropOp46
 70
     1
102
RTVSPost2010Prop47
 90
       50
102
RTVSPost2010PropOp47
 70
     1
102
RTVSPost2010Prop48
 90
       50
102
RTVSPost2010PropOp48
 70
     1
102
RTVSPost2010Prop49
280
     0
102
RTVSPost2010PropOp49
 70
     1
102
RTVSPost2010Prop50
 90
       50
102
RTVSPost2010PropOp50
 70
     1
102
RTVSPost2010Prop51ColorIndex
 90
      256
102
RTVSPost2010Prop51ColorRGB
 90
-16777216
102
RTVSPost2010PropOp51
 70
     0
102
RTVSPost2010Prop52
140
1.0
102
RTVSPost2010PropOp52
 70
     0
102
RTVSPost2010Prop53
 90
        2
102
RTVSPost2010PropOp53
 70
     1
102
RTVSPost2010Prop54
  1
strokes_ogs.tif
102
RTVSPost2010PropOp54
 70
     1
102
RTVSPost2010Prop55
280
     0
102
RTVSPost2010PropOp55
 70
     1
102
RTVSPost2010Prop56
140
1.0
102
RTVSPost2010PropOp56
 70
     1
102
RTVSPost2010Prop57
140
1.0
102
RTVSPost2010PropOp57
 70
     1
102
RTVSPropertyOp0
 70
     1
102
RTVSPropertyOp1
 70
     1
102
RTVSPropertyOp2
 70
     1
102
RTVSPropertyOp3
 70
     1
102
RTVSPropertyOp4
 70
     1
102
RTVSPropertyOp5
 70
     1
102
RTVSPropertyOp6
 70
     1
102
RTVSPropertyOp7
 70
     1
102
RTVSPropertyOp8
 70
     1
102
RTVSPropertyOp9
 70
     1
102
RTVSPropertyOp10
 70
     1
102
RTVSPropertyOp11
 70
     1
102
RTVSPropertyOp12
 70
     1
102
RTVSPropertyOp13
 70
     1
102
RTVSPropertyOp14
 70
     1
102
RTVSPropertyOp15
 70
     1
102
RTVSPropertyOp16
 70
     1
102
RTVSPropertyOp17
 70
     1
102
RTVSPropertyOp18
 70
     1
102
RTVSPropertyOp19
 70
     1
102
RTVSPropertyOp20
 70
     1
102
RTVSPropertyOp21
 70
     1
102
RTVSPropertyOp22
 70
     1
102
RTVSPropertyOp23
 70
     1
102
RTVSPropertyOp24
 70
     1
102
RTVSPropertyOp25
 70
     1
102
RTVSPropertyOp26
 70
     1
102
RTVSPropertyOp27
 70
     1
102
RTVSPropertyOp28
 70
     1
102
RTVSPropertyOp29
 70
     1
102
RTVSPropertyOp30
 70
     1
102
RTVSPropertyOp31
 70
     1
102
RTVSPropertyOp32
 70
     1
102
RTVSPropertyOp33
 70
     1
102
RTVSPropertyOp34
 70
     1
102
RTVSPropertyOp35
 70
     1
102
RTVSPropertyOp36
 70
     1
102
RTVSPropertyOp37
 70
     1
102
RTVSPropertyOp38
 70
     1
102
RTVSPropertyOp39
 70
     1
102
RTVSPropertyOp40
 70
     1
102
RTVSPropertyOp41
 70
     1
102
RTVSPropertyOp42
 70
     1
102
RTVSPropertyOp43
 70
     1
102
RTVSPropertyOp44
 70
     1
102
RTVSPropertyOp45
 70
     1
102
RTVSPropertyOp46
 70
     1
102
RTVSPropertyOp47
 70
     1
102
RTVSPropertyOp48
 70
     1
102
RTVSPropertyOp49
 70
     1
102
RTVSPropertyOp50
 70
     1
102
RTVSPropertyOp51
 70
     0
102
RTVSPropertyOp52
 70
     0
102
RTVSPropertyOp53
 70
     1
102
RTVSPropertyOp54
 70
     1
102
RTVSPropertyOp55
 70
     1
102
RTVSPropertyOp56
 70
     1
102
RTVSPropertyOp57
 70
     1
102
RTVSPropertyOp58
 70
     1
102
RTVSPropertyOp59
 70
     1
102
RTVSPropertyOp60
 70
     1
102
RTVSPropertyOp61
 70
     1
102
RTVSPropertyOp62
 70
     1
  0
XRECORD
  5
FFE
102
{ACAD_REACTORS
330
FFD
102
}
330
FFD
100
AcDbXrecord
280
     1
102
RTVSPost2010Prop28
280
     0
102
RTVSPost2010PropOp28
 70
     1
102
RTVSPost2010Prop29
280
     1
102
RTVSPost2010PropOp29
 70
     1
102
RTVSPost2010Prop30
280
     1
102
RTVSPost2010PropOp30
 70
     1
102
RTVSPost2010Prop31
280
     0
102
RTVSPost2010PropOp31
 70
     1
102
RTVSPost2010Prop32
280
     0
102
RTVSPost2010PropOp32
 70
     1
102
RTVSPost2010Prop33
280
     0
102
RTVSPost2010PropOp33
 70
     1
102
RTVSPost2010Prop34
280
     0
102
RTVSPost2010PropOp34
 70
     1
102
RTVSPost2010Prop35
280
     0
102
RTVSPost2010PropOp35
 70
     1
102
RTVSPost2010Prop36
280
     0
102
RTVSPost2010PropOp36
 70
     1
102
RTVSPost2010Prop37
 90
       50
102
RTVSPost2010PropOp37
 70
     0
102
RTVSPost2010Prop38
140
0.0
102
RTVSPost2010PropOp38
 70
     0
102
RTVSPost2010Prop39
140
1.0
102
RTVSPost2010PropOp39
 70
     0
102
RTVSPost2010Prop40
 90
        0
102
RTVSPost2010PropOp40
 70
     0
102
RTVSPost2010Prop41ColorIndex
 90
       18
102
RTVSPost2010Prop41ColorRGB
 90
        0
102
RTVSPost2010PropOp41
 70
     0
102
RTVSPost2010Prop42
 90
       50
102
RTVSPost2010PropOp42
 70
     0
102
RTVSPost2010Prop43
 90
        3
102
RTVSPost2010PropOp43
 70
     0
102
RTVSPost2010Prop44ColorIndex
 90
        5
102
RTVSPost2010Prop44ColorRGB
 90
      255
102
RTVSPost2010PropOp44
 70
     0
102
RTVSPost2010Prop45
280
     0
102
RTVSPost2010PropOp45
 70
     1
102
RTVSPost2010Prop46
 90
       50
102
RTVSPost2010PropOp46
 70
     0
102
RTVSPost2010Prop47
 90
       50
102
RTVSPost2010PropOp47
 70
     0
102
RTVSPost2010Prop48
 90
       50
102
RTVSPost2010PropOp48
 70
     0
102
RTVSPost2010Prop49
280
     0
102
RTVSPost2010PropOp49
 70
     1
102
RTVSPost2010Prop50
 90
       50
102
RTVSPost2010PropOp50
 70
     0
102
RTVSPost2010Prop51ColorIndex
 90
      256
102
RTVSPost2010Prop51ColorRGB
 90
-16777216
102
RTVSPost2010PropOp51
 70
     0
102
RTVSPost2010Prop52
140
1.0
102
RTVSPost2010PropOp52
 70
     0
102
RTVSPost2010Prop53
 90
        2
102
RTVSPost2010PropOp53
 70
     0
102
RTVSPost2010Prop54
  1
strokes_ogs.tif
102
RTVSPost2010PropOp54
 70
     0
102
RTVSPost2010Prop55
280
     0
102
RTVSPost2010PropOp55
 70
     1
102
RTVSPost2010Prop56
140
1.0
102
RTVSPost2010PropOp56
 70
     0
102
RTVSPost2010Prop57
140
1.0
102
RTVSPost2010PropOp57
 70
     0
102
RTVSPropertyOp0
 70
     0
102
RTVSPropertyOp1
 70
     0
102
RTVSPropertyOp2
 70
     0
102
RTVSPropertyOp3
 70
     0
102
RTVSPropertyOp4
 70
     0
102
RTVSPropertyOp5
 70
     0
102
RTVSPropertyOp6
 70
     0
102
RTVSPropertyOp7
 70
     0
102
RTVSPropertyOp8
 70
     0
102
RTVSPropertyOp9
 70
     0
102
RTVSPropertyOp10
 70
     0
102
RTVSPropertyOp11
 70
     0
102
RTVSPropertyOp12
 70
     0
102
RTVSPropertyOp13
 70
     0
102
RTVSPropertyOp14
 70
     2
102
RTVSPropertyOp15
 70
     0
102
RTVSPropertyOp16
 70
     0
102
RTVSPropertyOp17
 70
     0
102
RTVSPropertyOp18
 70
     0
102
RTVSPropertyOp19
 70
     0
102
RTVSPropertyOp20
 70
     0
102
RTVSPropertyOp21
 70
     0
102
RTVSPropertyOp22
 70
     0
102
RTVSPropertyOp23
 70
     0
102
RTVSPropertyOp24
 70
     0
102
RTVSPropertyOp25
 70
     0
102
RTVSPropertyOp26
 70
     0
102
RTVSPropertyOp27
 70
     0
102
RTVSPropertyOp28
 70
     1
102
RTVSPropertyOp29
 70
     1
102
RTVSPropertyOp30
 70
     1
102
RTVSPropertyOp31
 70
     1
102
RTVSPropertyOp32
 70
     1
102
RTVSPropertyOp33
 70
     1
102
RTVSPropertyOp34
 70
     1
102
RTVSPropertyOp35
 70
     1
102
RTVSPropertyOp36
 70
     1
102
RTVSPropertyOp37
 70
     0
102
RTVSPropertyOp38
 70
     0
102
RTVSPropertyOp39
 70
     0
102
RTVSPropertyOp40
 70
     0
102
RTVSPropertyOp41
 70
     0
102
RTVSPropertyOp42
 70
     0
102
RTVSPropertyOp43
 70
     0
102
RTVSPropertyOp44
 70
     0
102
RTVSPropertyOp45
 70
     1
102
RTVSPropertyOp46
 70
     0
102
RTVSPropertyOp47
 70
     0
102
RTVSPropertyOp48
 70
     0
102
RTVSPropertyOp49
 70
     1
102
RTVSPropertyOp50
 70
     0
102
RTVSPropertyOp51
 70
     0
102
RTVSPropertyOp52
 70
     0
102
RTVSPropertyOp53
 70
     0
102
RTVSPropertyOp54
 70
     0
102
RTVSPropertyOp55
 70
     1
102
RTVSPropertyOp56
 70
     0
102
RTVSPropertyOp57
 70
     0
102
RTVSPropertyOp58
 70
     0
102
RTVSPropertyOp59
 70
     0
102
RTVSPropertyOp60
 70
     0
102
RTVSPropertyOp61
 70
     0
102
RTVSPropertyOp62
 70
     0
  0
XRECORD
  5
FEE
102
{ACAD_REACTORS
330
FED
102
}
330
FED
100
AcDbXrecord
280
     1
102
RTVSPost2010Prop28
280
     0
102
RTVSPost2010PropOp28
 70
     1
102
RTVSPost2010Prop29
280
     1
102
RTVSPost2010PropOp29
 70
     1
102
RTVSPost2010Prop30
280
     1
102
RTVSPost2010PropOp30
 70
     1
102
RTVSPost2010Prop31
280
     0
102
RTVSPost2010PropOp31
 70
     1
102
RTVSPost2010Prop32
280
     0
102
RTVSPost2010PropOp32
 70
     1
102
RTVSPost2010Prop33
280
     0
102
RTVSPost2010PropOp33
 70
     1
102
RTVSPost2010Prop34
280
     0
102
RTVSPost2010PropOp34
 70
     1
102
RTVSPost2010Prop35
280
     0
102
RTVSPost2010PropOp35
 70
     1
102
RTVSPost2010Prop36
280
     0
102
RTVSPost2010PropOp36
 70
     1
102
RTVSPost2010Prop37
 90
       50
102
RTVSPost2010PropOp37
 70
     1
102
RTVSPost2010Prop38
140
0.0
102
RTVSPost2010PropOp38
 70
     1
102
RTVSPost2010Prop39
140
1.0
102
RTVSPost2010PropOp39
 70
     1
102
RTVSPost2010Prop40
 90
        0
102
RTVSPost2010PropOp40
 70
     1
102
RTVSPost2010Prop41ColorIndex
 90
       18
102
RTVSPost2010Prop41ColorRGB
 90
        0
102
RTVSPost2010PropOp41
 70
     1
102
RTVSPost2010Prop42
 90
       50
102
RTVSPost2010PropOp42
 70
     1
102
RTVSPost2010Prop43
 90
        3
102
RTVSPost2010PropOp43
 70
     1
102
RTVSPost2010Prop44ColorIndex
 90
        5
102
RTVSPost2010Prop44ColorRGB
 90
      255
102
RTVSPost2010PropOp44
 70
     1
102
RTVSPost2010Prop45
280
     0
102
RTVSPost2010PropOp45
 70
     1
102
RTVSPost2010Prop46
 90
       50
102
RTVSPost2010PropOp46
 70
     1
102
RTVSPost2010Prop47
 90
       50
102
RTVSPost2010PropOp47
 70
     1
102
RTVSPost2010Prop48
 90
       50
102
RTVSPost2010PropOp48
 70
     1
102
RTVSPost2010Prop49
280
     0
102
RTVSPost2010PropOp49
 70
     1
102
RTVSPost2010Prop50
 90
       50
102
RTVSPost2010PropOp50
 70
     1
102
RTVSPost2010Prop51ColorIndex
 90
      256
102
RTVSPost2010Prop51ColorRGB
 90
-16777216
102
RTVSPost2010PropOp51
 70
     0
102
RTVSPost2010Prop52
140
1.0
102
RTVSPost2010PropOp52
 70
     0
102
RTVSPost2010Prop53
 90
        2
102
RTVSPost2010PropOp53
 70
     1
102
RTVSPost2010Prop54
  1
strokes_ogs.tif
102
RTVSPost2010PropOp54
 70
     1
102
RTVSPost2010Prop55
280
     0
102
RTVSPost2010PropOp55
 70
     1
102
RTVSPost2010Prop56
140
1.0
102
RTVSPost2010PropOp56
 70
     1
102
RTVSPost2010Prop57
140
1.0
102
RTVSPost2010PropOp57
 70
     1
102
RTVSPropertyOp0
 70
     1
102
RTVSPropertyOp1
 70
     1
102
RTVSPropertyOp2
 70
     1
102
RTVSPropertyOp3
 70
     1
102
RTVSPropertyOp4
 70
     1
102
RTVSPropertyOp5
 70
     1
102
RTVSPropertyOp6
 70
     1
102
RTVSPropertyOp7
 70
     1
102
RTVSPropertyOp8
 70
     1
102
RTVSPropertyOp9
 70
     1
102
RTVSPropertyOp10
 70
     1
102
RTVSPropertyOp11
 70
     1
102
RTVSPropertyOp12
 70
     1
102
RTVSPropertyOp13
 70
     1
102
RTVSPropertyOp14
 70
     1
102
RTVSPropertyOp15
 70
     1
102
RTVSPropertyOp16
 70
     1
102
RTVSPropertyOp17
 70
     1
102
RTVSPropertyOp18
 70
     1
102
RTVSPropertyOp19
 70
     1
102
RTVSPropertyOp20
 70
     1
102
RTVSPropertyOp21
 70
     1
102
RTVSPropertyOp22
 70
     1
102
RTVSPropertyOp23
 70
     1
102
RTVSPropertyOp24
 70
     1
102
RTVSPropertyOp25
 70
     1
102
RTVSPropertyOp26
 70
     1
102
RTVSPropertyOp27
 70
     1
102
RTVSPropertyOp28
 70
     1
102
RTVSPropertyOp29
 70
     1
102
RTVSPropertyOp30
 70
     1
102
RTVSPropertyOp31
 70
     1
102
RTVSPropertyOp32
 70
     1
102
RTVSPropertyOp33
 70
     1
102
RTVSPropertyOp34
 70
     1
102
RTVSPropertyOp35
 70
     1
102
RTVSPropertyOp36
 70
     1
102
RTVSPropertyOp37
 70
     1
102
RTVSPropertyOp38
 70
     1
102
RTVSPropertyOp39
 70
     1
102
RTVSPropertyOp40
 70
     1
102
RTVSPropertyOp41
 70
     1
102
RTVSPropertyOp42
 70
     1
102
RTVSPropertyOp43
 70
     1
102
RTVSPropertyOp44
 70
     1
102
RTVSPropertyOp45
 70
     1
102
RTVSPropertyOp46
 70
     1
102
RTVSPropertyOp47
 70
     1
102
RTVSPropertyOp48
 70
     1
102
RTVSPropertyOp49
 70
     1
102
RTVSPropertyOp50
 70
     1
102
RTVSPropertyOp51
 70
     0
102
RTVSPropertyOp52
 70
     0
102
RTVSPropertyOp53
 70
     1
102
RTVSPropertyOp54
 70
     1
102
RTVSPropertyOp55
 70
     1
102
RTVSPropertyOp56
 70
     1
102
RTVSPropertyOp57
 70
     1
102
RTVSPropertyOp58
 70
     1
102
RTVSPropertyOp59
 70
     1
102
RTVSPropertyOp60
 70
     1
102
RTVSPropertyOp61
 70
     1
102
RTVSPropertyOp62
 70
     1
  0
XRECORD
  5
1000
102
{ACAD_REACTORS
330
FFF
102
}
330
FFF
100
AcDbXrecord
280
     1
102
RTVSPost2010Prop28
280
     0
102
RTVSPost2010PropOp28
 70
     1
102
RTVSPost2010Prop29
280
     1
102
RTVSPost2010PropOp29
 70
     1
102
RTVSPost2010Prop30
280
     1
102
RTVSPost2010PropOp30
 70
     1
102
RTVSPost2010Prop31
280
     0
102
RTVSPost2010PropOp31
 70
     1
102
RTVSPost2010Prop32
280
     0
102
RTVSPost2010PropOp32
 70
     1
102
RTVSPost2010Prop33
280
     0
102
RTVSPost2010PropOp33
 70
     1
102
RTVSPost2010Prop34
280
     0
102
RTVSPost2010PropOp34
 70
     1
102
RTVSPost2010Prop35
280
     0
102
RTVSPost2010PropOp35
 70
     1
102
RTVSPost2010Prop36
280
     0
102
RTVSPost2010PropOp36
 70
     1
102
RTVSPost2010Prop37
 90
       50
102
RTVSPost2010PropOp37
 70
     0
102
RTVSPost2010Prop38
140
0.0
102
RTVSPost2010PropOp38
 70
     0
102
RTVSPost2010Prop39
140
1.0
102
RTVSPost2010PropOp39
 70
     0
102
RTVSPost2010Prop40
 90
        0
102
RTVSPost2010PropOp40
 70
     0
102
RTVSPost2010Prop41ColorIndex
 90
       18
102
RTVSPost2010Prop41ColorRGB
 90
        0
102
RTVSPost2010PropOp41
 70
     0
102
RTVSPost2010Prop42
 90
       50
102
RTVSPost2010PropOp42
 70
     0
102
RTVSPost2010Prop43
 90
        3
102
RTVSPost2010PropOp43
 70
     0
102
RTVSPost2010Prop44ColorIndex
 90
        5
102
RTVSPost2010Prop44ColorRGB
 90
      255
102
RTVSPost2010PropOp44
 70
     0
102
RTVSPost2010Prop45
280
     0
102
RTVSPost2010PropOp45
 70
     1
102
RTVSPost2010Prop46
 90
       50
102
RTVSPost2010PropOp46
 70
     0
102
RTVSPost2010Prop47
 90
       50
102
RTVSPost2010PropOp47
 70
     0
102
RTVSPost2010Prop48
 90
       50
102
RTVSPost2010PropOp48
 70
     0
102
RTVSPost2010Prop49
280
     0
102
RTVSPost2010PropOp49
 70
     1
102
RTVSPost2010Prop50
 90
       50
102
RTVSPost2010PropOp50
 70
     0
102
RTVSPost2010Prop51ColorIndex
 90
      256
102
RTVSPost2010Prop51ColorRGB
 90
-16777216
102
RTVSPost2010PropOp51
 70
     0
102
RTVSPost2010Prop52
140
1.0
102
RTVSPost2010PropOp52
 70
     0
102
RTVSPost2010Prop53
 90
        2
102
RTVSPost2010PropOp53
 70
     0
102
RTVSPost2010Prop54
  1
strokes_ogs.tif
102
RTVSPost2010PropOp54
 70
     0
102
RTVSPost2010Prop55
280
     0
102
RTVSPost2010PropOp55
 70
     1
102
RTVSPost2010Prop56
140
1.0
102
RTVSPost2010PropOp56
 70
     0
102
RTVSPost2010Prop57
140
1.0
102
RTVSPost2010PropOp57
 70
     0
102
RTVSPropertyOp0
 70
     0
102
RTVSPropertyOp1
 70
     0
102
RTVSPropertyOp2
 70
     0
102
RTVSPropertyOp3
 70
     0
102
RTVSPropertyOp4
 70
     0
102
RTVSPropertyOp5
 70
     0
102
RTVSPropertyOp6
 70
     0
102
RTVSPropertyOp7
 70
     0
102
RTVSPropertyOp8
 70
     0
102
RTVSPropertyOp9
 70
     0
102
RTVSPropertyOp10
 70
     0
102
RTVSPropertyOp11
 70
     0
102
RTVSPropertyOp12
 70
     0
102
RTVSPropertyOp13
 70
     0
102
RTVSPropertyOp14
 70
     2
102
RTVSPropertyOp15
 70
     0
102
RTVSPropertyOp16
 70
     0
102
RTVSPropertyOp17
 70
     0
102
RTVSPropertyOp18
 70
     0
102
RTVSPropertyOp19
 70
     0
102
RTVSPropertyOp20
 70
     0
102
RTVSPropertyOp21
 70
     0
102
RTVSPropertyOp22
 70
     0
102
RTVSPropertyOp23
 70
     0
102
RTVSPropertyOp24
 70
     0
102
RTVSPropertyOp25
 70
     0
102
RTVSPropertyOp26
 70
     0
102
RTVSPropertyOp27
 70
     0
102
RTVSPropertyOp28
 70
     1
102
RTVSPropertyOp29
 70
     1
102
RTVSPropertyOp30
 70
     1
102
RTVSPropertyOp31
 70
     1
102
RTVSPropertyOp32
 70
     1
102
RTVSPropertyOp33
 70
     1
102
RTVSPropertyOp34
 70
     1
102
RTVSPropertyOp35
 70
     1
102
RTVSPropertyOp36
 70
     1
102
RTVSPropertyOp37
 70
     0
102
RTVSPropertyOp38
 70
     0
102
RTVSPropertyOp39
 70
     0
102
RTVSPropertyOp40
 70
     0
102
RTVSPropertyOp41
 70
     0
102
RTVSPropertyOp42
 70
     0
102
RTVSPropertyOp43
 70
     0
102
RTVSPropertyOp44
 70
     0
102
RTVSPropertyOp45
 70
     1
102
RTVSPropertyOp46
 70
     0
102
RTVSPropertyOp47
 70
     0
102
RTVSPropertyOp48
 70
     0
102
RTVSPropertyOp49
 70
     1
102
RTVSPropertyOp50
 70
     0
102
RTVSPropertyOp51
 70
     0
102
RTVSPropertyOp52
 70
     0
102
RTVSPropertyOp53
 70
     0
102
RTVSPropertyOp54
 70
     0
102
RTVSPropertyOp55
 70
     1
102
RTVSPropertyOp56
 70
     0
102
RTVSPropertyOp57
 70
     0
102
RTVSPropertyOp58
 70
     0
102
RTVSPropertyOp59
 70
     0
102
RTVSPropertyOp60
 70
     0
102
RTVSPropertyOp61
 70
     0
102
RTVSPropertyOp62
 70
     0
  0
XRECORD
  5
FE6
102
{ACAD_REACTORS
330
FE5
102
}
330
FE5
100
AcDbXrecord
280
     1
102
RTVSPost2010Prop28
280
     0
102
RTVSPost2010PropOp28
 70
     1
102
RTVSPost2010Prop29
280
     1
102
RTVSPost2010PropOp29
 70
     1
102
RTVSPost2010Prop30
280
     1
102
RTVSPost2010PropOp30
 70
     1
102
RTVSPost2010Prop31
280
     0
102
RTVSPost2010PropOp31
 70
     1
102
RTVSPost2010Prop32
280
     0
102
RTVSPost2010PropOp32
 70
     1
102
RTVSPost2010Prop33
280
     0
102
RTVSPost2010PropOp33
 70
     1
102
RTVSPost2010Prop34
280
     0
102
RTVSPost2010PropOp34
 70
     1
102
RTVSPost2010Prop35
280
     0
102
RTVSPost2010PropOp35
 70
     1
102
RTVSPost2010Prop36
280
     0
102
RTVSPost2010PropOp36
 70
     1
102
RTVSPost2010Prop37
 90
       50
102
RTVSPost2010PropOp37
 70
     1
102
RTVSPost2010Prop38
140
0.0
102
RTVSPost2010PropOp38
 70
     1
102
RTVSPost2010Prop39
140
1.0
102
RTVSPost2010PropOp39
 70
     1
102
RTVSPost2010Prop40
 90
        0
102
RTVSPost2010PropOp40
 70
     1
102
RTVSPost2010Prop41ColorIndex
 90
       18
102
RTVSPost2010Prop41ColorRGB
 90
        0
102
RTVSPost2010PropOp41
 70
     1
102
RTVSPost2010Prop42
 90
       50
102
RTVSPost2010PropOp42
 70
     1
102
RTVSPost2010Prop43
 90
        3
102
RTVSPost2010PropOp43
 70
     1
102
RTVSPost2010Prop44ColorIndex
 90
        5
102
RTVSPost2010Prop44ColorRGB
 90
      255
102
RTVSPost2010PropOp44
 70
     1
102
RTVSPost2010Prop45
280
     0
102
RTVSPost2010PropOp45
 70
     1
102
RTVSPost2010Prop46
 90
       50
102
RTVSPost2010PropOp46
 70
     1
102
RTVSPost2010Prop47
 90
       50
102
RTVSPost2010PropOp47
 70
     1
102
RTVSPost2010Prop48
 90
       50
102
RTVSPost2010PropOp48
 70
     1
102
RTVSPost2010Prop49
280
     0
102
RTVSPost2010PropOp49
 70
     1
102
RTVSPost2010Prop50
 90
       50
102
RTVSPost2010PropOp50
 70
     1
102
RTVSPost2010Prop51ColorIndex
 90
      256
102
RTVSPost2010Prop51ColorRGB
 90
-16777216
102
RTVSPost2010PropOp51
 70
     0
102
RTVSPost2010Prop52
140
1.0
102
RTVSPost2010PropOp52
 70
     0
102
RTVSPost2010Prop53
 90
        2
102
RTVSPost2010PropOp53
 70
     1
102
RTVSPost2010Prop54
  1
strokes_ogs.tif
102
RTVSPost2010PropOp54
 70
     1
102
RTVSPost2010Prop55
280
     0
102
RTVSPost2010PropOp55
 70
     1
102
RTVSPost2010Prop56
140
1.0
102
RTVSPost2010PropOp56
 70
     1
102
RTVSPost2010Prop57
140
1.0
102
RTVSPost2010PropOp57
 70
     1
102
RTVSPropertyOp0
 70
     1
102
RTVSPropertyOp1
 70
     1
102
RTVSPropertyOp2
 70
     1
102
RTVSPropertyOp3
 70
     1
102
RTVSPropertyOp4
 70
     1
102
RTVSPropertyOp5
 70
     1
102
RTVSPropertyOp6
 70
     1
102
RTVSPropertyOp7
 70
     1
102
RTVSPropertyOp8
 70
     1
102
RTVSPropertyOp9
 70
     1
102
RTVSPropertyOp10
 70
     1
102
RTVSPropertyOp11
 70
     1
102
RTVSPropertyOp12
 70
     1
102
RTVSPropertyOp13
 70
     1
102
RTVSPropertyOp14
 70
     1
102
RTVSPropertyOp15
 70
     1
102
RTVSPropertyOp16
 70
     1
102
RTVSPropertyOp17
 70
     1
102
RTVSPropertyOp18
 70
     1
102
RTVSPropertyOp19
 70
     1
102
RTVSPropertyOp20
 70
     1
102
RTVSPropertyOp21
 70
     1
102
RTVSPropertyOp22
 70
     1
102
RTVSPropertyOp23
 70
     1
102
RTVSPropertyOp24
 70
     1
102
RTVSPropertyOp25
 70
     1
102
RTVSPropertyOp26
 70
     1
102
RTVSPropertyOp27
 70
     1
102
RTVSPropertyOp28
 70
     1
102
RTVSPropertyOp29
 70
     1
102
RTVSPropertyOp30
 70
     1
102
RTVSPropertyOp31
 70
     1
102
RTVSPropertyOp32
 70
     1
102
RTVSPropertyOp33
 70
     1
102
RTVSPropertyOp34
 70
     1
102
RTVSPropertyOp35
 70
     1
102
RTVSPropertyOp36
 70
     1
102
RTVSPropertyOp37
 70
     1
102
RTVSPropertyOp38
 70
     1
102
RTVSPropertyOp39
 70
     1
102
RTVSPropertyOp40
 70
     1
102
RTVSPropertyOp41
 70
     1
102
RTVSPropertyOp42
 70
     1
102
RTVSPropertyOp43
 70
     1
102
RTVSPropertyOp44
 70
     1
102
RTVSPropertyOp45
 70
     1
102
RTVSPropertyOp46
 70
     1
102
RTVSPropertyOp47
 70
     1
102
RTVSPropertyOp48
 70
     1
102
RTVSPropertyOp49
 70
     1
102
RTVSPropertyOp50
 70
     1
102
RTVSPropertyOp51
 70
     0
102
RTVSPropertyOp52
 70
     0
102
RTVSPropertyOp53
 70
     1
102
RTVSPropertyOp54
 70
     1
102
RTVSPropertyOp55
 70
     1
102
RTVSPropertyOp56
 70
     1
102
RTVSPropertyOp57
 70
     1
102
RTVSPropertyOp58
 70
     1
102
RTVSPropertyOp59
 70
     1
102
RTVSPropertyOp60
 70
     1
102
RTVSPropertyOp61
 70
     1
102
RTVSPropertyOp62
 70
     1
  0
XRECORD
  5
FFC
102
{ACAD_REACTORS
330
FFB
102
}
330
FFB
100
AcDbXrecord
280
     1
102
RTVSPost2010Prop28
280
     0
102
RTVSPost2010PropOp28
 70
     1
102
RTVSPost2010Prop29
280
     1
102
RTVSPost2010PropOp29
 70
     1
102
RTVSPost2010Prop30
280
     1
102
RTVSPost2010PropOp30
 70
     1
102
RTVSPost2010Prop31
280
     0
102
RTVSPost2010PropOp31
 70
     1
102
RTVSPost2010Prop32
280
     0
102
RTVSPost2010PropOp32
 70
     1
102
RTVSPost2010Prop33
280
     0
102
RTVSPost2010PropOp33
 70
     1
102
RTVSPost2010Prop34
280
     0
102
RTVSPost2010PropOp34
 70
     1
102
RTVSPost2010Prop35
280
     0
102
RTVSPost2010PropOp35
 70
     1
102
RTVSPost2010Prop36
280
     0
102
RTVSPost2010PropOp36
 70
     1
102
RTVSPost2010Prop37
 90
       50
102
RTVSPost2010PropOp37
 70
     1
102
RTVSPost2010Prop38
140
0.0
102
RTVSPost2010PropOp38
 70
     1
102
RTVSPost2010Prop39
140
1.0
102
RTVSPost2010PropOp39
 70
     1
102
RTVSPost2010Prop40
 90
        0
102
RTVSPost2010PropOp40
 70
     1
102
RTVSPost2010Prop41ColorIndex
 90
       18
102
RTVSPost2010Prop41ColorRGB
 90
        0
102
RTVSPost2010PropOp41
 70
     1
102
RTVSPost2010Prop42
 90
       50
102
RTVSPost2010PropOp42
 70
     1
102
RTVSPost2010Prop43
 90
        3
102
RTVSPost2010PropOp43
 70
     1
102
RTVSPost2010Prop44ColorIndex
 90
        5
102
RTVSPost2010Prop44ColorRGB
 90
      255
102
RTVSPost2010PropOp44
 70
     1
102
RTVSPost2010Prop45
280
     0
102
RTVSPost2010PropOp45
 70
     1
102
RTVSPost2010Prop46
 90
       50
102
RTVSPost2010PropOp46
 70
     1
102
RTVSPost2010Prop47
 90
       50
102
RTVSPost2010PropOp47
 70
     1
102
RTVSPost2010Prop48
 90
       50
102
RTVSPost2010PropOp48
 70
     1
102
RTVSPost2010Prop49
280
     0
102
RTVSPost2010PropOp49
 70
     1
102
RTVSPost2010Prop50
 90
       50
102
RTVSPost2010PropOp50
 70
     1
102
RTVSPost2010Prop51ColorIndex
 90
      256
102
RTVSPost2010Prop51ColorRGB
 90
-16777216
102
RTVSPost2010PropOp51
 70
     0
102
RTVSPost2010Prop52
140
1.0
102
RTVSPost2010PropOp52
 70
     0
102
RTVSPost2010Prop53
 90
        2
102
RTVSPost2010PropOp53
 70
     1
102
RTVSPost2010Prop54
  1
strokes_ogs.tif
102
RTVSPost2010PropOp54
 70
     1
102
RTVSPost2010Prop55
280
     0
102
RTVSPost2010PropOp55
 70
     1
102
RTVSPost2010Prop56
140
1.0
102
RTVSPost2010PropOp56
 70
     1
102
RTVSPost2010Prop57
140
1.0
102
RTVSPost2010PropOp57
 70
     1
102
RTVSPropertyOp0
 70
     1
102
RTVSPropertyOp1
 70
     1
102
RTVSPropertyOp2
 70
     1
102
RTVSPropertyOp3
 70
     1
102
RTVSPropertyOp4
 70
     1
102
RTVSPropertyOp5
 70
     1
102
RTVSPropertyOp6
 70
     1
102
RTVSPropertyOp7
 70
     1
102
RTVSPropertyOp8
 70
     1
102
RTVSPropertyOp9
 70
     1
102
RTVSPropertyOp10
 70
     1
102
RTVSPropertyOp11
 70
     1
102
RTVSPropertyOp12
 70
     1
102
RTVSPropertyOp13
 70
     1
102
RTVSPropertyOp14
 70
     1
102
RTVSPropertyOp15
 70
     1
102
RTVSPropertyOp16
 70
     1
102
RTVSPropertyOp17
 70
     1
102
RTVSPropertyOp18
 70
     1
102
RTVSPropertyOp19
 70
     1
102
RTVSPropertyOp20
 70
     1
102
RTVSPropertyOp21
 70
     1
102
RTVSPropertyOp22
 70
     1
102
RTVSPropertyOp23
 70
     1
102
RTVSPropertyOp24
 70
     1
102
RTVSPropertyOp25
 70
     1
102
RTVSPropertyOp26
 70
     1
102
RTVSPropertyOp27
 70
     1
102
RTVSPropertyOp28
 70
     1
102
RTVSPropertyOp29
 70
     1
102
RTVSPropertyOp30
 70
     1
102
RTVSPropertyOp31
 70
     1
102
RTVSPropertyOp32
 70
     1
102
RTVSPropertyOp33
 70
     1
102
RTVSPropertyOp34
 70
     1
102
RTVSPropertyOp35
 70
     1
102
RTVSPropertyOp36
 70
     1
102
RTVSPropertyOp37
 70
     1
102
RTVSPropertyOp38
 70
     1
102
RTVSPropertyOp39
 70
     1
102
RTVSPropertyOp40
 70
     1
102
RTVSPropertyOp41
 70
     1
102
RTVSPropertyOp42
 70
     1
102
RTVSPropertyOp43
 70
     1
102
RTVSPropertyOp44
 70
     1
102
RTVSPropertyOp45
 70
     1
102
RTVSPropertyOp46
 70
     1
102
RTVSPropertyOp47
 70
     1
102
RTVSPropertyOp48
 70
     1
102
RTVSPropertyOp49
 70
     1
102
RTVSPropertyOp50
 70
     1
102
RTVSPropertyOp51
 70
     0
102
RTVSPropertyOp52
 70
     0
102
RTVSPropertyOp53
 70
     1
102
RTVSPropertyOp54
 70
     1
102
RTVSPropertyOp55
 70
     1
102
RTVSPropertyOp56
 70
     1
102
RTVSPropertyOp57
 70
     1
102
RTVSPropertyOp58
 70
     1
102
RTVSPropertyOp59
 70
     1
102
RTVSPropertyOp60
 70
     1
102
RTVSPropertyOp61
 70
     1
102
RTVSPropertyOp62
 70
     1
  0
XRECORD
  5
FFA
102
{ACAD_REACTORS
330
FF9
102
}
330
FF9
100
AcDbXrecord
280
     1
102
RTVSPost2010Prop28
280
     0
102
RTVSPost2010PropOp28
 70
     1
102
RTVSPost2010Prop29
280
     1
102
RTVSPost2010PropOp29
 70
     1
102
RTVSPost2010Prop30
280
     1
102
RTVSPost2010PropOp30
 70
     1
102
RTVSPost2010Prop31
280
     0
102
RTVSPost2010PropOp31
 70
     1
102
RTVSPost2010Prop32
280
     0
102
RTVSPost2010PropOp32
 70
     1
102
RTVSPost2010Prop33
280
     0
102
RTVSPost2010PropOp33
 70
     1
102
RTVSPost2010Prop34
280
     0
102
RTVSPost2010PropOp34
 70
     1
102
RTVSPost2010Prop35
280
     0
102
RTVSPost2010PropOp35
 70
     1
102
RTVSPost2010Prop36
280
     0
102
RTVSPost2010PropOp36
 70
     1
102
RTVSPost2010Prop37
 90
       50
102
RTVSPost2010PropOp37
 70
     1
102
RTVSPost2010Prop38
140
0.0
102
RTVSPost2010PropOp38
 70
     1
102
RTVSPost2010Prop39
140
1.0
102
RTVSPost2010PropOp39
 70
     1
102
RTVSPost2010Prop40
 90
        0
102
RTVSPost2010PropOp40
 70
     1
102
RTVSPost2010Prop41ColorIndex
 90
       18
102
RTVSPost2010Prop41ColorRGB
 90
        0
102
RTVSPost2010PropOp41
 70
     1
102
RTVSPost2010Prop42
 90
       50
102
RTVSPost2010PropOp42
 70
     1
102
RTVSPost2010Prop43
 90
        3
102
RTVSPost2010PropOp43
 70
     1
102
RTVSPost2010Prop44ColorIndex
 90
        5
102
RTVSPost2010Prop44ColorRGB
 90
      255
102
RTVSPost2010PropOp44
 70
     1
102
RTVSPost2010Prop45
280
     0
102
RTVSPost2010PropOp45
 70
     1
102
RTVSPost2010Prop46
 90
       50
102
RTVSPost2010PropOp46
 70
     1
102
RTVSPost2010Prop47
 90
       50
102
RTVSPost2010PropOp47
 70
     1
102
RTVSPost2010Prop48
 90
       50
102
RTVSPost2010PropOp48
 70
     1
102
RTVSPost2010Prop49
280
     0
102
RTVSPost2010PropOp49
 70
     1
102
RTVSPost2010Prop50
 90
       50
102
RTVSPost2010PropOp50
 70
     1
102
RTVSPost2010Prop51ColorIndex
 90
      256
102
RTVSPost2010Prop51ColorRGB
 90
-16777216
102
RTVSPost2010PropOp51
 70
     0
102
RTVSPost2010Prop52
140
1.0
102
RTVSPost2010PropOp52
 70
     0
102
RTVSPost2010Prop53
 90
        2
102
RTVSPost2010PropOp53
 70
     1
102
RTVSPost2010Prop54
  1
strokes_ogs.tif
102
RTVSPost2010PropOp54
 70
     1
102
RTVSPost2010Prop55
280
     0
102
RTVSPost2010PropOp55
 70
     1
102
RTVSPost2010Prop56
140
1.0
102
RTVSPost2010PropOp56
 70
     1
102
RTVSPost2010Prop57
140
1.0
102
RTVSPost2010PropOp57
 70
     1
102
RTVSPropertyOp0
 70
     1
102
RTVSPropertyOp1
 70
     1
102
RTVSPropertyOp2
 70
     1
102
RTVSPropertyOp3
 70
     1
102
RTVSPropertyOp4
 70
     1
102
RTVSPropertyOp5
 70
     1
102
RTVSPropertyOp6
 70
     1
102
RTVSPropertyOp7
 70
     1
102
RTVSPropertyOp8
 70
     1
102
RTVSPropertyOp9
 70
     1
102
RTVSPropertyOp10
 70
     1
102
RTVSPropertyOp11
 70
     1
102
RTVSPropertyOp12
 70
     1
102
RTVSPropertyOp13
 70
     1
102
RTVSPropertyOp14
 70
     1
102
RTVSPropertyOp15
 70
     1
102
RTVSPropertyOp16
 70
     1
102
RTVSPropertyOp17
 70
     1
102
RTVSPropertyOp18
 70
     1
102
RTVSPropertyOp19
 70
     1
102
RTVSPropertyOp20
 70
     1
102
RTVSPropertyOp21
 70
     1
102
RTVSPropertyOp22
 70
     1
102
RTVSPropertyOp23
 70
     1
102
RTVSPropertyOp24
 70
     1
102
RTVSPropertyOp25
 70
     1
102
RTVSPropertyOp26
 70
     1
102
RTVSPropertyOp27
 70
     1
102
RTVSPropertyOp28
 70
     1
102
RTVSPropertyOp29
 70
     1
102
RTVSPropertyOp30
 70
     1
102
RTVSPropertyOp31
 70
     1
102
RTVSPropertyOp32
 70
     1
102
RTVSPropertyOp33
 70
     1
102
RTVSPropertyOp34
 70
     1
102
RTVSPropertyOp35
 70
     1
102
RTVSPropertyOp36
 70
     1
102
RTVSPropertyOp37
 70
     1
102
RTVSPropertyOp38
 70
     1
102
RTVSPropertyOp39
 70
     1
102
RTVSPropertyOp40
 70
     1
102
RTVSPropertyOp41
 70
     1
102
RTVSPropertyOp42
 70
     1
102
RTVSPropertyOp43
 70
     1
102
RTVSPropertyOp44
 70
     1
102
RTVSPropertyOp45
 70
     1
102
RTVSPropertyOp46
 70
     1
102
RTVSPropertyOp47
 70
     1
102
RTVSPropertyOp48
 70
     1
102
RTVSPropertyOp49
 70
     1
102
RTVSPropertyOp50
 70
     1
102
RTVSPropertyOp51
 70
     0
102
RTVSPropertyOp52
 70
     0
102
RTVSPropertyOp53
 70
     1
102
RTVSPropertyOp54
 70
     1
102
RTVSPropertyOp55
 70
     1
102
RTVSPropertyOp56
 70
     1
102
RTVSPropertyOp57
 70
     1
102
RTVSPropertyOp58
 70
     1
102
RTVSPropertyOp59
 70
     1
102
RTVSPropertyOp60
 70
     1
102
RTVSPropertyOp61
 70
     1
102
RTVSPropertyOp62
 70
     1
  0
XRECORD
  5
FF4
102
{ACAD_REACTORS
330
FF3
102
}
330
FF3
100
AcDbXrecord
280
     1
102
RTVSPost2010Prop28
280
     0
102
RTVSPost2010PropOp28
 70
     1
102
RTVSPost2010Prop29
280
     1
102
RTVSPost2010PropOp29
 70
     1
102
RTVSPost2010Prop30
280
     1
102
RTVSPost2010PropOp30
 70
     1
102
RTVSPost2010Prop31
280
     0
102
RTVSPost2010PropOp31
 70
     1
102
RTVSPost2010Prop32
280
     0
102
RTVSPost2010PropOp32
 70
     1
102
RTVSPost2010Prop33
280
     0
102
RTVSPost2010PropOp33
 70
     1
102
RTVSPost2010Prop34
280
     0
102
RTVSPost2010PropOp34
 70
     1
102
RTVSPost2010Prop35
280
     0
102
RTVSPost2010PropOp35
 70
     1
102
RTVSPost2010Prop36
280
     0
102
RTVSPost2010PropOp36
 70
     1
102
RTVSPost2010Prop37
 90
       50
102
RTVSPost2010PropOp37
 70
     1
102
RTVSPost2010Prop38
140
0.0
102
RTVSPost2010PropOp38
 70
     1
102
RTVSPost2010Prop39
140
1.0
102
RTVSPost2010PropOp39
 70
     1
102
RTVSPost2010Prop40
 90
        0
102
RTVSPost2010PropOp40
 70
     1
102
RTVSPost2010Prop41ColorIndex
 90
       18
102
RTVSPost2010Prop41ColorRGB
 90
        0
102
RTVSPost2010PropOp41
 70
     1
102
RTVSPost2010Prop42
 90
       50
102
RTVSPost2010PropOp42
 70
     1
102
RTVSPost2010Prop43
 90
        3
102
RTVSPost2010PropOp43
 70
     1
102
RTVSPost2010Prop44ColorIndex
 90
        5
102
RTVSPost2010Prop44ColorRGB
 90
      255
102
RTVSPost2010PropOp44
 70
     1
102
RTVSPost2010Prop45
280
     0
102
RTVSPost2010PropOp45
 70
     1
102
RTVSPost2010Prop46
 90
       50
102
RTVSPost2010PropOp46
 70
     1
102
RTVSPost2010Prop47
 90
       50
102
RTVSPost2010PropOp47
 70
     1
102
RTVSPost2010Prop48
 90
       50
102
RTVSPost2010PropOp48
 70
     1
102
RTVSPost2010Prop49
280
     0
102
RTVSPost2010PropOp49
 70
     1
102
RTVSPost2010Prop50
 90
       50
102
RTVSPost2010PropOp50
 70
     1
102
RTVSPost2010Prop51ColorIndex
 90
      256
102
RTVSPost2010Prop51ColorRGB
 90
-16777216
102
RTVSPost2010PropOp51
 70
     0
102
RTVSPost2010Prop52
140
1.0
102
RTVSPost2010PropOp52
 70
     0
102
RTVSPost2010Prop53
 90
        2
102
RTVSPost2010PropOp53
 70
     1
102
RTVSPost2010Prop54
  1
strokes_ogs.tif
102
RTVSPost2010PropOp54
 70
     1
102
RTVSPost2010Prop55
280
     0
102
RTVSPost2010PropOp55
 70
     1
102
RTVSPost2010Prop56
140
1.0
102
RTVSPost2010PropOp56
 70
     1
102
RTVSPost2010Prop57
140
1.0
102
RTVSPost2010PropOp57
 70
     1
102
RTVSPropertyOp0
 70
     1
102
RTVSPropertyOp1
 70
     1
102
RTVSPropertyOp2
 70
     1
102
RTVSPropertyOp3
 70
     1
102
RTVSPropertyOp4
 70
     1
102
RTVSPropertyOp5
 70
     1
102
RTVSPropertyOp6
 70
     1
102
RTVSPropertyOp7
 70
     1
102
RTVSPropertyOp8
 70
     1
102
RTVSPropertyOp9
 70
     1
102
RTVSPropertyOp10
 70
     1
102
RTVSPropertyOp11
 70
     1
102
RTVSPropertyOp12
 70
     1
102
RTVSPropertyOp13
 70
     1
102
RTVSPropertyOp14
 70
     1
102
RTVSPropertyOp15
 70
     1
102
RTVSPropertyOp16
 70
     1
102
RTVSPropertyOp17
 70
     1
102
RTVSPropertyOp18
 70
     1
102
RTVSPropertyOp19
 70
     1
102
RTVSPropertyOp20
 70
     1
102
RTVSPropertyOp21
 70
     1
102
RTVSPropertyOp22
 70
     1
102
RTVSPropertyOp23
 70
     1
102
RTVSPropertyOp24
 70
     1
102
RTVSPropertyOp25
 70
     1
102
RTVSPropertyOp26
 70
     1
102
RTVSPropertyOp27
 70
     1
102
RTVSPropertyOp28
 70
     1
102
RTVSPropertyOp29
 70
     1
102
RTVSPropertyOp30
 70
     1
102
RTVSPropertyOp31
 70
     1
102
RTVSPropertyOp32
 70
     1
102
RTVSPropertyOp33
 70
     1
102
RTVSPropertyOp34
 70
     1
102
RTVSPropertyOp35
 70
     1
102
RTVSPropertyOp36
 70
     1
102
RTVSPropertyOp37
 70
     1
102
RTVSPropertyOp38
 70
     1
102
RTVSPropertyOp39
 70
     1
102
RTVSPropertyOp40
 70
     1
102
RTVSPropertyOp41
 70
     1
102
RTVSPropertyOp42
 70
     1
102
RTVSPropertyOp43
 70
     1
102
RTVSPropertyOp44
 70
     1
102
RTVSPropertyOp45
 70
     1
102
RTVSPropertyOp46
 70
     1
102
RTVSPropertyOp47
 70
     1
102
RTVSPropertyOp48
 70
     1
102
RTVSPropertyOp49
 70
     1
102
RTVSPropertyOp50
 70
     1
102
RTVSPropertyOp51
 70
     0
102
RTVSPropertyOp52
 70
     0
102
RTVSPropertyOp53
 70
     1
102
RTVSPropertyOp54
 70
     1
102
RTVSPropertyOp55
 70
     1
102
RTVSPropertyOp56
 70
     1
102
RTVSPropertyOp57
 70
     1
102
RTVSPropertyOp58
 70
     1
102
RTVSPropertyOp59
 70
     1
102
RTVSPropertyOp60
 70
     1
102
RTVSPropertyOp61
 70
     1
102
RTVSPropertyOp62
 70
     1
  0
XRECORD
  5
FF6
102
{ACAD_REACTORS
330
FF5
102
}
330
FF5
100
AcDbXrecord
280
     1
102
RTVSPost2010Prop28
280
     0
102
RTVSPost2010PropOp28
 70
     1
102
RTVSPost2010Prop29
280
     1
102
RTVSPost2010PropOp29
 70
     1
102
RTVSPost2010Prop30
280
     1
102
RTVSPost2010PropOp30
 70
     1
102
RTVSPost2010Prop31
280
     0
102
RTVSPost2010PropOp31
 70
     1
102
RTVSPost2010Prop32
280
     0
102
RTVSPost2010PropOp32
 70
     1
102
RTVSPost2010Prop33
280
     0
102
RTVSPost2010PropOp33
 70
     1
102
RTVSPost2010Prop34
280
     0
102
RTVSPost2010PropOp34
 70
     1
102
RTVSPost2010Prop35
280
     0
102
RTVSPost2010PropOp35
 70
     1
102
RTVSPost2010Prop36
280
     0
102
RTVSPost2010PropOp36
 70
     1
102
RTVSPost2010Prop37
 90
       50
102
RTVSPost2010PropOp37
 70
     1
102
RTVSPost2010Prop38
140
0.0
102
RTVSPost2010PropOp38
 70
     1
102
RTVSPost2010Prop39
140
1.0
102
RTVSPost2010PropOp39
 70
     1
102
RTVSPost2010Prop40
 90
        0
102
RTVSPost2010PropOp40
 70
     1
102
RTVSPost2010Prop41ColorIndex
 90
       18
102
RTVSPost2010Prop41ColorRGB
 90
        0
102
RTVSPost2010PropOp41
 70
     1
102
RTVSPost2010Prop42
 90
       50
102
RTVSPost2010PropOp42
 70
     1
102
RTVSPost2010Prop43
 90
        3
102
RTVSPost2010PropOp43
 70
     1
102
RTVSPost2010Prop44ColorIndex
 90
        5
102
RTVSPost2010Prop44ColorRGB
 90
      255
102
RTVSPost2010PropOp44
 70
     1
102
RTVSPost2010Prop45
280
     0
102
RTVSPost2010PropOp45
 70
     1
102
RTVSPost2010Prop46
 90
       50
102
RTVSPost2010PropOp46
 70
     1
102
RTVSPost2010Prop47
 90
       50
102
RTVSPost2010PropOp47
 70
     1
102
RTVSPost2010Prop48
 90
       50
102
RTVSPost2010PropOp48
 70
     1
102
RTVSPost2010Prop49
280
     0
102
RTVSPost2010PropOp49
 70
     1
102
RTVSPost2010Prop50
 90
       50
102
RTVSPost2010PropOp50
 70
     1
102
RTVSPost2010Prop51ColorIndex
 90
      256
102
RTVSPost2010Prop51ColorRGB
 90
-16777216
102
RTVSPost2010PropOp51
 70
     0
102
RTVSPost2010Prop52
140
1.0
102
RTVSPost2010PropOp52
 70
     0
102
RTVSPost2010Prop53
 90
        2
102
RTVSPost2010PropOp53
 70
     1
102
RTVSPost2010Prop54
  1
strokes_ogs.tif
102
RTVSPost2010PropOp54
 70
     1
102
RTVSPost2010Prop55
280
     0
102
RTVSPost2010PropOp55
 70
     1
102
RTVSPost2010Prop56
140
1.0
102
RTVSPost2010PropOp56
 70
     1
102
RTVSPost2010Prop57
140
1.0
102
RTVSPost2010PropOp57
 70
     1
102
RTVSPropertyOp0
 70
     1
102
RTVSPropertyOp1
 70
     1
102
RTVSPropertyOp2
 70
     1
102
RTVSPropertyOp3
 70
     1
102
RTVSPropertyOp4
 70
     1
102
RTVSPropertyOp5
 70
     1
102
RTVSPropertyOp6
 70
     1
102
RTVSPropertyOp7
 70
     1
102
RTVSPropertyOp8
 70
     1
102
RTVSPropertyOp9
 70
     1
102
RTVSPropertyOp10
 70
     1
102
RTVSPropertyOp11
 70
     1
102
RTVSPropertyOp12
 70
     1
102
RTVSPropertyOp13
 70
     1
102
RTVSPropertyOp14
 70
     1
102
RTVSPropertyOp15
 70
     1
102
RTVSPropertyOp16
 70
     1
102
RTVSPropertyOp17
 70
     1
102
RTVSPropertyOp18
 70
     1
102
RTVSPropertyOp19
 70
     1
102
RTVSPropertyOp20
 70
     1
102
RTVSPropertyOp21
 70
     1
102
RTVSPropertyOp22
 70
     1
102
RTVSPropertyOp23
 70
     1
102
RTVSPropertyOp24
 70
     1
102
RTVSPropertyOp25
 70
     1
102
RTVSPropertyOp26
 70
     1
102
RTVSPropertyOp27
 70
     1
102
RTVSPropertyOp28
 70
     1
102
RTVSPropertyOp29
 70
     1
102
RTVSPropertyOp30
 70
     1
102
RTVSPropertyOp31
 70
     1
102
RTVSPropertyOp32
 70
     1
102
RTVSPropertyOp33
 70
     1
102
RTVSPropertyOp34
 70
     1
102
RTVSPropertyOp35
 70
     1
102
RTVSPropertyOp36
 70
     1
102
RTVSPropertyOp37
 70
     1
102
RTVSPropertyOp38
 70
     1
102
RTVSPropertyOp39
 70
     1
102
RTVSPropertyOp40
 70
     1
102
RTVSPropertyOp41
 70
     1
102
RTVSPropertyOp42
 70
     1
102
RTVSPropertyOp43
 70
     1
102
RTVSPropertyOp44
 70
     1
102
RTVSPropertyOp45
 70
     1
102
RTVSPropertyOp46
 70
     1
102
RTVSPropertyOp47
 70
     1
102
RTVSPropertyOp48
 70
     1
102
RTVSPropertyOp49
 70
     1
102
RTVSPropertyOp50
 70
     1
102
RTVSPropertyOp51
 70
     0
102
RTVSPropertyOp52
 70
     0
102
RTVSPropertyOp53
 70
     1
102
RTVSPropertyOp54
 70
     1
102
RTVSPropertyOp55
 70
     1
102
RTVSPropertyOp56
 70
     1
102
RTVSPropertyOp57
 70
     1
102
RTVSPropertyOp58
 70
     1
102
RTVSPropertyOp59
 70
     1
102
RTVSPropertyOp60
 70
     1
102
RTVSPropertyOp61
 70
     1
102
RTVSPropertyOp62
 70
     1
  0
XRECORD
  5
FEC
102
{ACAD_REACTORS
330
FEB
102
}
330
FEB
100
AcDbXrecord
280
     1
102
RTVSPost2010Prop28
280
     0
102
RTVSPost2010PropOp28
 70
     1
102
RTVSPost2010Prop29
280
     1
102
RTVSPost2010PropOp29
 70
     1
102
RTVSPost2010Prop30
280
     1
102
RTVSPost2010PropOp30
 70
     1
102
RTVSPost2010Prop31
280
     0
102
RTVSPost2010PropOp31
 70
     1
102
RTVSPost2010Prop32
280
     0
102
RTVSPost2010PropOp32
 70
     1
102
RTVSPost2010Prop33
280
     0
102
RTVSPost2010PropOp33
 70
     1
102
RTVSPost2010Prop34
280
     0
102
RTVSPost2010PropOp34
 70
     1
102
RTVSPost2010Prop35
280
     0
102
RTVSPost2010PropOp35
 70
     1
102
RTVSPost2010Prop36
280
     0
102
RTVSPost2010PropOp36
 70
     1
102
RTVSPost2010Prop37
 90
       50
102
RTVSPost2010PropOp37
 70
     1
102
RTVSPost2010Prop38
140
0.0
102
RTVSPost2010PropOp38
 70
     1
102
RTVSPost2010Prop39
140
1.0
102
RTVSPost2010PropOp39
 70
     1
102
RTVSPost2010Prop40
 90
        0
102
RTVSPost2010PropOp40
 70
     1
102
RTVSPost2010Prop41ColorIndex
 90
       18
102
RTVSPost2010Prop41ColorRGB
 90
        0
102
RTVSPost2010PropOp41
 70
     1
102
RTVSPost2010Prop42
 90
       50
102
RTVSPost2010PropOp42
 70
     1
102
RTVSPost2010Prop43
 90
        3
102
RTVSPost2010PropOp43
 70
     1
102
RTVSPost2010Prop44ColorIndex
 90
        5
102
RTVSPost2010Prop44ColorRGB
 90
      255
102
RTVSPost2010PropOp44
 70
     1
102
RTVSPost2010Prop45
280
     0
102
RTVSPost2010PropOp45
 70
     1
102
RTVSPost2010Prop46
 90
       50
102
RTVSPost2010PropOp46
 70
     1
102
RTVSPost2010Prop47
 90
       50
102
RTVSPost2010PropOp47
 70
     1
102
RTVSPost2010Prop48
 90
       50
102
RTVSPost2010PropOp48
 70
     1
102
RTVSPost2010Prop49
280
     0
102
RTVSPost2010PropOp49
 70
     1
102
RTVSPost2010Prop50
 90
       50
102
RTVSPost2010PropOp50
 70
     1
102
RTVSPost2010Prop51ColorIndex
 90
      256
102
RTVSPost2010Prop51ColorRGB
 90
-16777216
102
RTVSPost2010PropOp51
 70
     0
102
RTVSPost2010Prop52
140
1.0
102
RTVSPost2010PropOp52
 70
     0
102
RTVSPost2010Prop53
 90
        2
102
RTVSPost2010PropOp53
 70
     1
102
RTVSPost2010Prop54
  1
strokes_ogs.tif
102
RTVSPost2010PropOp54
 70
     1
102
RTVSPost2010Prop55
280
     0
102
RTVSPost2010PropOp55
 70
     1
102
RTVSPost2010Prop56
140
1.0
102
RTVSPost2010PropOp56
 70
     1
102
RTVSPost2010Prop57
140
1.0
102
RTVSPost2010PropOp57
 70
     1
102
RTVSPropertyOp0
 70
     1
102
RTVSPropertyOp1
 70
     1
102
RTVSPropertyOp2
 70
     1
102
RTVSPropertyOp3
 70
     1
102
RTVSPropertyOp4
 70
     1
102
RTVSPropertyOp5
 70
     1
102
RTVSPropertyOp6
 70
     1
102
RTVSPropertyOp7
 70
     1
102
RTVSPropertyOp8
 70
     1
102
RTVSPropertyOp9
 70
     1
102
RTVSPropertyOp10
 70
     1
102
RTVSPropertyOp11
 70
     1
102
RTVSPropertyOp12
 70
     1
102
RTVSPropertyOp13
 70
     1
102
RTVSPropertyOp14
 70
     1
102
RTVSPropertyOp15
 70
     1
102
RTVSPropertyOp16
 70
     1
102
RTVSPropertyOp17
 70
     1
102
RTVSPropertyOp18
 70
     1
102
RTVSPropertyOp19
 70
     1
102
RTVSPropertyOp20
 70
     1
102
RTVSPropertyOp21
 70
     1
102
RTVSPropertyOp22
 70
     1
102
RTVSPropertyOp23
 70
     1
102
RTVSPropertyOp24
 70
     1
102
RTVSPropertyOp25
 70
     1
102
RTVSPropertyOp26
 70
     1
102
RTVSPropertyOp27
 70
     1
102
RTVSPropertyOp28
 70
     1
102
RTVSPropertyOp29
 70
     1
102
RTVSPropertyOp30
 70
     1
102
RTVSPropertyOp31
 70
     1
102
RTVSPropertyOp32
 70
     1
102
RTVSPropertyOp33
 70
     1
102
RTVSPropertyOp34
 70
     1
102
RTVSPropertyOp35
 70
     1
102
RTVSPropertyOp36
 70
     1
102
RTVSPropertyOp37
 70
     1
102
RTVSPropertyOp38
 70
     1
102
RTVSPropertyOp39
 70
     1
102
RTVSPropertyOp40
 70
     1
102
RTVSPropertyOp41
 70
     1
102
RTVSPropertyOp42
 70
     1
102
RTVSPropertyOp43
 70
     1
102
RTVSPropertyOp44
 70
     1
102
RTVSPropertyOp45
 70
     1
102
RTVSPropertyOp46
 70
     1
102
RTVSPropertyOp47
 70
     1
102
RTVSPropertyOp48
 70
     1
102
RTVSPropertyOp49
 70
     1
102
RTVSPropertyOp50
 70
     1
102
RTVSPropertyOp51
 70
     0
102
RTVSPropertyOp52
 70
     0
102
RTVSPropertyOp53
 70
     1
102
RTVSPropertyOp54
 70
     1
102
RTVSPropertyOp55
 70
     1
102
RTVSPropertyOp56
 70
     1
102
RTVSPropertyOp57
 70
     1
102
RTVSPropertyOp58
 70
     1
102
RTVSPropertyOp59
 70
     1
102
RTVSPropertyOp60
 70
     1
102
RTVSPropertyOp61
 70
     1
102
RTVSPropertyOp62
 70
     1
  0
XRECORD
  5
FE0
102
{ACAD_REACTORS
330
FDF
102
}
330
FDF
100
AcDbXrecord
280
     1
102
RTVSPost2010Prop28
280
     0
102
RTVSPost2010PropOp28
 70
     1
102
RTVSPost2010Prop29
280
     1
102
RTVSPost2010PropOp29
 70
     1
102
RTVSPost2010Prop30
280
     1
102
RTVSPost2010PropOp30
 70
     1
102
RTVSPost2010Prop31
280
     0
102
RTVSPost2010PropOp31
 70
     1
102
RTVSPost2010Prop32
280
     0
102
RTVSPost2010PropOp32
 70
     1
102
RTVSPost2010Prop33
280
     0
102
RTVSPost2010PropOp33
 70
     1
102
RTVSPost2010Prop34
280
     0
102
RTVSPost2010PropOp34
 70
     1
102
RTVSPost2010Prop35
280
     0
102
RTVSPost2010PropOp35
 70
     1
102
RTVSPost2010Prop36
280
     0
102
RTVSPost2010PropOp36
 70
     1
102
RTVSPost2010Prop37
 90
       50
102
RTVSPost2010PropOp37
 70
     1
102
RTVSPost2010Prop38
140
0.0
102
RTVSPost2010PropOp38
 70
     1
102
RTVSPost2010Prop39
140
1.0
102
RTVSPost2010PropOp39
 70
     1
102
RTVSPost2010Prop40
 90
        0
102
RTVSPost2010PropOp40
 70
     1
102
RTVSPost2010Prop41ColorIndex
 90
       18
102
RTVSPost2010Prop41ColorRGB
 90
        0
102
RTVSPost2010PropOp41
 70
     1
102
RTVSPost2010Prop42
 90
       50
102
RTVSPost2010PropOp42
 70
     1
102
RTVSPost2010Prop43
 90
        3
102
RTVSPost2010PropOp43
 70
     1
102
RTVSPost2010Prop44ColorIndex
 90
        5
102
RTVSPost2010Prop44ColorRGB
 90
      255
102
RTVSPost2010PropOp44
 70
     1
102
RTVSPost2010Prop45
280
     0
102
RTVSPost2010PropOp45
 70
     1
102
RTVSPost2010Prop46
 90
       50
102
RTVSPost2010PropOp46
 70
     1
102
RTVSPost2010Prop47
 90
       50
102
RTVSPost2010PropOp47
 70
     1
102
RTVSPost2010Prop48
 90
       50
102
RTVSPost2010PropOp48
 70
     1
102
RTVSPost2010Prop49
280
     0
102
RTVSPost2010PropOp49
 70
     1
102
RTVSPost2010Prop50
 90
       50
102
RTVSPost2010PropOp50
 70
     1
102
RTVSPost2010Prop51ColorIndex
 90
      256
102
RTVSPost2010Prop51ColorRGB
 90
-16777216
102
RTVSPost2010PropOp51
 70
     0
102
RTVSPost2010Prop52
140
1.0
102
RTVSPost2010PropOp52
 70
     0
102
RTVSPost2010Prop53
 90
        2
102
RTVSPost2010PropOp53
 70
     1
102
RTVSPost2010Prop54
  1
strokes_ogs.tif
102
RTVSPost2010PropOp54
 70
     1
102
RTVSPost2010Prop55
280
     0
102
RTVSPost2010PropOp55
 70
     1
102
RTVSPost2010Prop56
140
1.0
102
RTVSPost2010PropOp56
 70
     1
102
RTVSPost2010Prop57
140
1.0
102
RTVSPost2010PropOp57
 70
     1
102
RTVSPropertyOp0
 70
     1
102
RTVSPropertyOp1
 70
     1
102
RTVSPropertyOp2
 70
     1
102
RTVSPropertyOp3
 70
     1
102
RTVSPropertyOp4
 70
     1
102
RTVSPropertyOp5
 70
     1
102
RTVSPropertyOp6
 70
     1
102
RTVSPropertyOp7
 70
     1
102
RTVSPropertyOp8
 70
     1
102
RTVSPropertyOp9
 70
     1
102
RTVSPropertyOp10
 70
     1
102
RTVSPropertyOp11
 70
     1
102
RTVSPropertyOp12
 70
     1
102
RTVSPropertyOp13
 70
     1
102
RTVSPropertyOp14
 70
     1
102
RTVSPropertyOp15
 70
     1
102
RTVSPropertyOp16
 70
     1
102
RTVSPropertyOp17
 70
     1
102
RTVSPropertyOp18
 70
     1
102
RTVSPropertyOp19
 70
     1
102
RTVSPropertyOp20
 70
     1
102
RTVSPropertyOp21
 70
     1
102
RTVSPropertyOp22
 70
     1
102
RTVSPropertyOp23
 70
     1
102
RTVSPropertyOp24
 70
     1
102
RTVSPropertyOp25
 70
     1
102
RTVSPropertyOp26
 70
     1
102
RTVSPropertyOp27
 70
     1
102
RTVSPropertyOp28
 70
     1
102
RTVSPropertyOp29
 70
     1
102
RTVSPropertyOp30
 70
     1
102
RTVSPropertyOp31
 70
     1
102
RTVSPropertyOp32
 70
     1
102
RTVSPropertyOp33
 70
     1
102
RTVSPropertyOp34
 70
     1
102
RTVSPropertyOp35
 70
     1
102
RTVSPropertyOp36
 70
     1
102
RTVSPropertyOp37
 70
     1
102
RTVSPropertyOp38
 70
     1
102
RTVSPropertyOp39
 70
     1
102
RTVSPropertyOp40
 70
     1
102
RTVSPropertyOp41
 70
     1
102
RTVSPropertyOp42
 70
     1
102
RTVSPropertyOp43
 70
     1
102
RTVSPropertyOp44
 70
     1
102
RTVSPropertyOp45
 70
     1
102
RTVSPropertyOp46
 70
     1
102
RTVSPropertyOp47
 70
     1
102
RTVSPropertyOp48
 70
     1
102
RTVSPropertyOp49
 70
     1
102
RTVSPropertyOp50
 70
     1
102
RTVSPropertyOp51
 70
     0
102
RTVSPropertyOp52
 70
     0
102
RTVSPropertyOp53
 70
     1
102
RTVSPropertyOp54
 70
     1
102
RTVSPropertyOp55
 70
     1
102
RTVSPropertyOp56
 70
     1
102
RTVSPropertyOp57
 70
     1
102
RTVSPropertyOp58
 70
     1
102
RTVSPropertyOp59
 70
     1
102
RTVSPropertyOp60
 70
     1
102
RTVSPropertyOp61
 70
     1
102
RTVSPropertyOp62
 70
     1
  0
XRECORD
  5
FF8
102
{ACAD_REACTORS
330
FF7
102
}
330
FF7
100
AcDbXrecord
280
     1
102
RTVSPost2010Prop28
280
     0
102
RTVSPost2010PropOp28
 70
     1
102
RTVSPost2010Prop29
280
     1
102
RTVSPost2010PropOp29
 70
     1
102
RTVSPost2010Prop30
280
     1
102
RTVSPost2010PropOp30
 70
     1
102
RTVSPost2010Prop31
280
     0
102
RTVSPost2010PropOp31
 70
     1
102
RTVSPost2010Prop32
280
     0
102
RTVSPost2010PropOp32
 70
     1
102
RTVSPost2010Prop33
280
     0
102
RTVSPost2010PropOp33
 70
     1
102
RTVSPost2010Prop34
280
     0
102
RTVSPost2010PropOp34
 70
     1
102
RTVSPost2010Prop35
280
     0
102
RTVSPost2010PropOp35
 70
     1
102
RTVSPost2010Prop36
280
     0
102
RTVSPost2010PropOp36
 70
     1
102
RTVSPost2010Prop37
 90
       50
102
RTVSPost2010PropOp37
 70
     1
102
RTVSPost2010Prop38
140
0.0
102
RTVSPost2010PropOp38
 70
     1
102
RTVSPost2010Prop39
140
1.0
102
RTVSPost2010PropOp39
 70
     1
102
RTVSPost2010Prop40
 90
        0
102
RTVSPost2010PropOp40
 70
     1
102
RTVSPost2010Prop41ColorIndex
 90
       18
102
RTVSPost2010Prop41ColorRGB
 90
        0
102
RTVSPost2010PropOp41
 70
     1
102
RTVSPost2010Prop42
 90
       50
102
RTVSPost2010PropOp42
 70
     1
102
RTVSPost2010Prop43
 90
        3
102
RTVSPost2010PropOp43
 70
     1
102
RTVSPost2010Prop44ColorIndex
 90
        5
102
RTVSPost2010Prop44ColorRGB
 90
      255
102
RTVSPost2010PropOp44
 70
     1
102
RTVSPost2010Prop45
280
     0
102
RTVSPost2010PropOp45
 70
     1
102
RTVSPost2010Prop46
 90
       50
102
RTVSPost2010PropOp46
 70
     1
102
RTVSPost2010Prop47
 90
       50
102
RTVSPost2010PropOp47
 70
     1
102
RTVSPost2010Prop48
 90
       50
102
RTVSPost2010PropOp48
 70
     1
102
RTVSPost2010Prop49
280
     0
102
RTVSPost2010PropOp49
 70
     1
102
RTVSPost2010Prop50
 90
       50
102
RTVSPost2010PropOp50
 70
     1
102
RTVSPost2010Prop51ColorIndex
 90
      256
102
RTVSPost2010Prop51ColorRGB
 90
-16777216
102
RTVSPost2010PropOp51
 70
     0
102
RTVSPost2010Prop52
140
1.0
102
RTVSPost2010PropOp52
 70
     0
102
RTVSPost2010Prop53
 90
        2
102
RTVSPost2010PropOp53
 70
     1
102
RTVSPost2010Prop54
  1
strokes_ogs.tif
102
RTVSPost2010PropOp54
 70
     1
102
RTVSPost2010Prop55
280
     0
102
RTVSPost2010PropOp55
 70
     1
102
RTVSPost2010Prop56
140
1.0
102
RTVSPost2010PropOp56
 70
     1
102
RTVSPost2010Prop57
140
1.0
102
RTVSPost2010PropOp57
 70
     1
102
RTVSPropertyOp0
 70
     1
102
RTVSPropertyOp1
 70
     1
102
RTVSPropertyOp2
 70
     1
102
RTVSPropertyOp3
 70
     1
102
RTVSPropertyOp4
 70
     1
102
RTVSPropertyOp5
 70
     1
102
RTVSPropertyOp6
 70
     1
102
RTVSPropertyOp7
 70
     1
102
RTVSPropertyOp8
 70
     1
102
RTVSPropertyOp9
 70
     1
102
RTVSPropertyOp10
 70
     1
102
RTVSPropertyOp11
 70
     1
102
RTVSPropertyOp12
 70
     1
102
RTVSPropertyOp13
 70
     1
102
RTVSPropertyOp14
 70
     1
102
RTVSPropertyOp15
 70
     1
102
RTVSPropertyOp16
 70
     1
102
RTVSPropertyOp17
 70
     1
102
RTVSPropertyOp18
 70
     1
102
RTVSPropertyOp19
 70
     1
102
RTVSPropertyOp20
 70
     1
102
RTVSPropertyOp21
 70
     1
102
RTVSPropertyOp22
 70
     1
102
RTVSPropertyOp23
 70
     1
102
RTVSPropertyOp24
 70
     1
102
RTVSPropertyOp25
 70
     1
102
RTVSPropertyOp26
 70
     1
102
RTVSPropertyOp27
 70
     1
102
RTVSPropertyOp28
 70
     1
102
RTVSPropertyOp29
 70
     1
102
RTVSPropertyOp30
 70
     1
102
RTVSPropertyOp31
 70
     1
102
RTVSPropertyOp32
 70
     1
102
RTVSPropertyOp33
 70
     1
102
RTVSPropertyOp34
 70
     1
102
RTVSPropertyOp35
 70
     1
102
RTVSPropertyOp36
 70
     1
102
RTVSPropertyOp37
 70
     1
102
RTVSPropertyOp38
 70
     1
102
RTVSPropertyOp39
 70
     1
102
RTVSPropertyOp40
 70
     1
102
RTVSPropertyOp41
 70
     1
102
RTVSPropertyOp42
 70
     1
102
RTVSPropertyOp43
 70
     1
102
RTVSPropertyOp44
 70
     1
102
RTVSPropertyOp45
 70
     1
102
RTVSPropertyOp46
 70
     1
102
RTVSPropertyOp47
 70
     1
102
RTVSPropertyOp48
 70
     1
102
RTVSPropertyOp49
 70
     1
102
RTVSPropertyOp50
 70
     1
102
RTVSPropertyOp51
 70
     0
102
RTVSPropertyOp52
 70
     0
102
RTVSPropertyOp53
 70
     1
102
RTVSPropertyOp54
 70
     1
102
RTVSPropertyOp55
 70
     1
102
RTVSPropertyOp56
 70
     1
102
RTVSPropertyOp57
 70
     1
102
RTVSPropertyOp58
 70
     1
102
RTVSPropertyOp59
 70
     1
102
RTVSPropertyOp60
 70
     1
102
RTVSPropertyOp61
 70
     1
102
RTVSPropertyOp62
 70
     1
  0
ENDSEC
  0
EOF
