  0
SECTION
  2
HEADER
  9
$ACADVER
  1
AC1021
  9
$ACADMAINTVER
 70
    25
  9
$DWGCODEPAGE
  3
ANSI_1252
  9
$INSBASE
 10
0.0
 20
0.0
 30
0.0
  9
$EXTMIN
 10
19.9251
 20
-95.59
 30
0.0
  9
$EXTMAX
 10
195.9682
 20
107.8843
 30
0.0
  9
$LIMMIN
 10
0.0
 20
0.0
  9
$LIMMAX
 10
12.0
 20
9.0
  9
$ORTHOMODE
 70
     0
  9
$REGENMODE
 70
     1
  9
$FILLMODE
 70
     1
  9
$QTEXTMODE
 70
     0
  9
$MIRRTEXT
 70
     1
  9
$LTSCALE
 40
1.0
  9
$ATTMODE
 70
     1
  9
$TEXTSIZE
 40
0.2
  9
$TRACEWID
 40
0.05
  9
$TEXTSTYLE
  7
Standard
  9
$CLAYER
  8
0
  9
$CELTYPE
  6
ByLayer
  9
$CECOLOR
 62
   256
  9
$CELTSCALE
 40
1.0
  9
$DISPSILH
 70
     0
  9
$DIMSCALE
 40
1.0
  9
$DIMASZ
 40
0.18
  9
$DIMEXO
 40
0.0625
  9
$DIMDLI
 40
0.38
  9
$DIMRND
 40
0.0
  9
$DIMDLE
 40
0.0
  9
$DIMEXE
 40
0.18
  9
$DIMTP
 40
0.0
  9
$DIMTM
 40
0.0
  9
$DIMTXT
 40
0.18
  9
$DIMCEN
 40
0.09
  9
$DIMTSZ
 40
0.0
  9
$DIMTOL
 70
     0
  9
$DIMLIM
 70
     0
  9
$DIMTIH
 70
     1
  9
$DIMTOH
 70
     1
  9
$DIMSE1
 70
     0
  9
$DIMSE2
 70
     0
  9
$DIMTAD
 70
     0
  9
$DIMZIN
 70
     0
  9
$DIMBLK
  1

  9
$DIMASO
 70
     1
  9
$DIMSHO
 70
     1
  9
$DIMPOST
  1

  9
$DIMAPOST
  1

  9
$DIMALT
 70
     0
  9
$DIMALTD
 70
     2
  9
$DIMALTF
 40
25.4
  9
$DIMLFAC
 40
1.0
  9
$DIMTOFL
 70
     0
  9
$DIMTVP
 40
0.0
  9
$DIMTIX
 70
     0
  9
$DIMSOXD
 70
     0
  9
$DIMSAH
 70
     0
  9
$DIMBLK1
  1

  9
$DIMBLK2
  1

  9
$DIMSTYLE
  2
Standard
  9
$DIMCLRD
 70
     0
  9
$DIMCLRE
 70
     0
  9
$DIMCLRT
 70
     0
  9
$DIMTFAC
 40
1.0
  9
$DIMGAP
 40
0.09
  9
$DIMJUST
 70
     0
  9
$DIMSD1
 70
     0
  9
$DIMSD2
 70
     0
  9
$DIMTOLJ
 70
     1
  9
$DIMTZIN
 70
     0
  9
$DIMALTZ
 70
     0
  9
$DIMALTTZ
 70
     0
  9
$DIMUPT
 70
     0
  9
$DIMDEC
 70
     4
  9
$DIMTDEC
 70
     4
  9
$DIMALTU
 70
     2
  9
$DIMALTTD
 70
     2
  9
$DIMTXSTY
  7
Standard
  9
$DIMAUNIT
 70
     0
  9
$DIMADEC
 70
     0
  9
$DIMALTRND
 40
0.0
  9
$DIMAZIN
 70
     0
  9
$DIMDSEP
 70
    46
  9
$DIMATFIT
 70
     3
  9
$DIMFRAC
 70
     0
  9
$DIMLDRBLK
  1

  9
$DIMLUNIT
 70
     2
  9
$DIMLWD
 70
    -2
  9
$DIMLWE
 70
    -2
  9
$DIMTMOVE
 70
     0
  9
$DIMFXL
 40
1.0
  9
$DIMFXLON
 70
     0
  9
$DIMJOGANG
 40
0.7853981633974483
  9
$DIMTFILL
 70
     0
  9
$DIMTFILLCLR
 70
     0
  9
$DIMARCSYM
 70
     0
  9
$DIMLTYPE
  6

  9
$DIMLTEX1
  6

  9
$DIMLTEX2
  6

  9
$LUNITS
 70
     2
  9
$LUPREC
 70
     4
  9
$SKETCHINC
 40
0.1
  9
$FILLETRAD
 40
0.5
  9
$AUNITS
 70
     0
  9
$AUPREC
 70
     0
  9
$MENU
  1
.
  9
$ELEVATION
 40
0.0
  9
$PELEVATION
 40
0.0
  9
$THICKNESS
 40
0.0
  9
$LIMCHECK
 70
     0
  9
$CHAMFERA
 40
0.5
  9
$CHAMFERB
 40
0.5
  9
$CHAMFERC
 40
1.0
  9
$CHAMFERD
 40
0.0
  9
$SKPOLY
 70
     0
  9
$TDCREATE
 40
2458492.820701748
  9
$TDUCREATE
 40
2458492.820701748
  9
$TDUPDATE
 40
2458492.820702026
  9
$TDUUPDATE
 40
2458492.820702026
  9
$TDINDWG
 40
0.0000000116
  9
$TDUSRTIMER
 40
0.0000000116
  9
$USRTIMER
 70
     1
  9
$ANGBASE
 50
0.0
  9
$ANGDIR
 70
     0
  9
$PDMODE
 70
     0
  9
$PDSIZE
 40
0.0
  9
$PLINEWID
 40
0.0
  9
$SPLFRAME
 70
     0
  9
$SPLINETYPE
 70
     6
  9
$SPLINESEGS
 70
     8
  9
$HANDSEED
  5
8B
  9
$SURFTAB1
 70
     6
  9
$SURFTAB2
 70
     6
  9
$SURFTYPE
 70
     6
  9
$SURFU
 70
     6
  9
$SURFV
 70
     6
  9
$UCSBASE
  2

  9
$UCSNAME
  2

  9
$UCSORG
 10
0.0
 20
0.0
 30
0.0
  9
$UCSXDIR
 10
1.0
 20
0.0
 30
0.0
  9
$UCSYDIR
 10
0.0
 20
1.0
 30
0.0
  9
$UCSORTHOREF
  2

  9
$UCSORTHOVIEW
 70
     0
  9
$UCSORGTOP
 10
0.0
 20
0.0
 30
0.0
  9
$UCSORGBOTTOM
 10
0.0
 20
0.0
 30
0.0
  9
$UCSORGLEFT
 10
0.0
 20
0.0
 30
0.0
  9
$UCSORGRIGHT
 10
0.0
 20
0.0
 30
0.0
  9
$UCSORGFRONT
 10
0.0
 20
0.0
 30
0.0
  9
$UCSORGBACK
 10
0.0
 20
0.0
 30
0.0
  9
$PUCSBASE
  2

  9
$PUCSNAME
  2

  9
$PUCSORG
 10
0.0
 20
0.0
 30
0.0
  9
$PUCSXDIR
 10
1.0
 20
0.0
 30
0.0
  9
$PUCSYDIR
 10
0.0
 20
1.0
 30
0.0
  9
$PUCSORTHOREF
  2

  9
$PUCSORTHOVIEW
 70
     0
  9
$PUCSORGTOP
 10
0.0
 20
0.0
 30
0.0
  9
$PUCSORGBOTTOM
 10
0.0
 20
0.0
 30
0.0
  9
$PUCSORGLEFT
 10
0.0
 20
0.0
 30
0.0
  9
$PUCSORGRIGHT
 10
0.0
 20
0.0
 30
0.0
  9
$PUCSORGFRONT
 10
0.0
 20
0.0
 30
0.0
  9
$PUCSORGBACK
 10
0.0
 20
0.0
 30
0.0
  9
$USERI1
 70
     0
  9
$USERI2
 70
     0
  9
$USERI3
 70
     0
  9
$USERI4
 70
     0
  9
$USERI5
 70
     0
  9
$USERR1
 40
0.0
  9
$USERR2
 40
0.0
  9
$USERR3
 40
0.0
  9
$USERR4
 40
0.0
  9
$USERR5
 40
0.0
  9
$WORLDVIEW
 70
     1
  9
$SHADEDGE
 70
     3
  9
$SHADEDIF
 70
    70
  9
$TILEMODE
 70
     1
  9
$MAXACTVP
 70
    64
  9
$PINSBASE
 10
0.0
 20
0.0
 30
0.0
  9
$PLIMCHECK
 70
     0
  9
$PEXTMIN
 10
1.000000000000000E+20
 20
1.000000000000000E+20
 30
1.000000000000000E+20
  9
$PEXTMAX
 10
-1.000000000000000E+20
 20
-1.000000000000000E+20
 30
-1.000000000000000E+20
  9
$PLIMMIN
 10
0.0
 20
0.0
  9
$PLIMMAX
 10
12.0
 20
9.0
  9
$UNITMODE
 70
     0
  9
$VISRETAIN
 70
     1
  9
$PLINEGEN
 70
     0
  9
$PSLTSCALE
 70
     1
  9
$TREEDEPTH
 70
  3020
  9
$CMLSTYLE
  2
Standard
  9
$CMLJUST
 70
     0
  9
$CMLSCALE
 40
1.0
  9
$PROXYGRAPHICS
 70
     1
  9
$MEASUREMENT
 70
     0
  9
$CELWEIGHT
370
    -1
  9
$ENDCAPS
280
     0
  9
$JOINSTYLE
280
     0
  9
$LWDISPLAY
290
     0
  9
$INSUNITS
 70
     4
  9
$HYPERLINKBASE
  1

  9
$STYLESHEET
  1

  9
$XEDIT
290
     1
  9
$CEPSNTYPE
380
     0
  9
$PSTYLEMODE
290
     1
  9
$FINGERPRINTGUID
  2
{5230076F-D7A0-4B38-BFAC-D0452EF4CE32}
  9
$VERSIONGUID
  2
{FAEB1C32-E019-11D5-929B-00C0DF256EC4}
  9
$EXTNAMES
290
     1
  9
$PSVPSCALE
 40
0.0
  9
$OLESTARTUP
290
     0
  9
$SORTENTS
280
   127
  9
$INDEXCTL
280
     0
  9
$HIDETEXT
280
     1
  9
$XCLIPFRAME
290
     0
  9
$HALOGAP
280
     0
  9
$OBSCOLOR
 70
   257
  9
$OBSLTYPE
280
     0
  9
$INTERSECTIONDISPLAY
280
     0
  9
$INTERSECTIONCOLOR
 70
   257
  9
$DIMASSOC
280
     2
  9
$PROJECTNAME
  1

  9
$CAMERADISPLAY
290
     0
  9
$LENSLENGTH
 40
50.0
  9
$CAMERAHEIGHT
 40
0.0
  9
$STEPSPERSEC
 40
2.0
  9
$STEPSIZE
 40
6.0
  9
$3DDWFPREC
 40
2.0
  9
$PSOLWIDTH
 40
0.25
  9
$PSOLHEIGHT
 40
4.0
  9
$LOFTANG1
 40
1.570796326794897
  9
$LOFTANG2
 40
1.570796326794897
  9
$LOFTMAG1
 40
0.0
  9
$LOFTMAG2
 40
0.0
  9
$LOFTPARAM
 70
     7
  9
$LOFTNORMALS
280
     1
  9
$LATITUDE
 40
37.795
  9
$LONGITUDE
 40
-122.394
  9
$NORTHDIRECTION
 40
0.0
  9
$TIMEZONE
 70
 -8000
  9
$LIGHTGLYPHDISPLAY
280
     1
  9
$TILEMODELIGHTSYNCH
280
     1
  9
$SOLIDHIST
280
     1
  9
$SHOWHIST
280
     1
  9
$DWFFRAME
280
     2
  9
$DGNFRAME
280
     2
  9
$REALWORLDSCALE
290
     1
  9
$INTERFERECOLOR
 62
   256
  9
$CSHADOW
280
     0
  9
$SHADOWPLANELOCATION
 40
0.0
  0
ENDSEC
  0
SECTION
  2
CLASSES
  0
CLASS
  1
ACDBDICTIONARYWDFLT
  2
AcDbDictionaryWithDefault
  3
ObjectDBX Classes
 90
        0
 91
        4
280
     0
281
     0
  0
CLASS
  1
VISUALSTYLE
  2
AcDbVisualStyle
  3
ObjectDBX Classes
 90
     4095
 91
        4
280
     0
281
     0
  0
CLASS
  1
MATERIAL
  2
AcDbMaterial
  3
ObjectDBX Classes
 90
     1153
 91
        4
280
     0
281
     0
  0
ENDSEC
  0
SECTION
  2
TABLES
  0
TABLE
  2
VPORT
  5
8
330
0
100
AcDbSymbolTable
 70
     1
  0
VPORT
  5
29
330
8
100
AcDbSymbolTableRecord
100
AcDbViewportTableRecord
  2
*Active
 70
     0
 10
0.0
 20
0.0
 11
1.0
 21
1.0
 12
10.42990654205607
 22
4.5
 13
0.0
 23
0.0
 14
0.5
 24
0.5
 15
0.5
 25
0.5
 16
0.0
 26
0.0
 36
1.0
 17
0.0
 27
0.0
 37
0.0
 40
9.0
 41
1.972972972850329
 42
50.0
 43
0.0
 44
0.0
 50
0.0
 51
0.0
 71
     0
 72
   100
 73
     1
 74
     3
 75
     0
 76
     0
 77
     0
 78
     0
281
     0
 65
     1
110
0.0
120
0.0
130
0.0
111
1.0
121
0.0
131
0.0
112
0.0
122
1.0
132
0.0
 79
     0
146
0.0
 60
     3
 61
     5
292
     1
282
     1
141
0.0
142
0.0
 63
   250
  0
ENDTAB
  0
TABLE
  2
LTYPE
  5
5
330
0
100
AcDbSymbolTable
 70
     1
  0
LTYPE
  5
14
330
5
100
AcDbSymbolTableRecord
100
AcDbLinetypeTableRecord
  2
ByBlock
 70
     0
  3

 72
    65
 73
     0
 40
0.0
  0
LTYPE
  5
15
330
5
100
AcDbSymbolTableRecord
100
AcDbLinetypeTableRecord
  2
ByLayer
 70
     0
  3

 72
    65
 73
     0
 40
0.0
  0
LTYPE
  5
16
330
5
100
AcDbSymbolTableRecord
100
AcDbLinetypeTableRecord
  2
Continuous
 70
     0
  3
Solid line
 72
    65
 73
     0
 40
0.0
  0
ENDTAB
  0
TABLE
  2
LAYER
  5
2
330
0
100
AcDbSymbolTable
 70
     2
  0
LAYER
  5
10
330
2
100
AcDbSymbolTableRecord
100
AcDbLayerTableRecord
  2
0
 70
     0
 62
     7
  6
Continuous
370
    -3
390
F
347
3E
  0
LAYER
  5
40
330
2
100
AcDbSymbolTableRecord
100
AcDbLayerTableRecord
  2
layer 1
 70
     0
 62
     7
  6
Continuous
370
    -3
390
F
347
3E
  0
ENDTAB
  0
TABLE
  2
STYLE
  5
3
330
0
100
AcDbSymbolTable
 70
     1
  0
STYLE
  5
11
330
3
100
AcDbSymbolTableRecord
100
AcDbTextStyleTableRecord
  2
Standard
 70
     0
 40
0.0
 41
1.0
 50
0.0
 71
     0
 42
0.2
  3
txt
  4

  0
ENDTAB
  0
TABLE
  2
VIEW
  5
6
330
0
100
AcDbSymbolTable
 70
     0
  0
ENDTAB
  0
TABLE
  2
UCS
  5
7
330
0
100
AcDbSymbolTable
 70
     0
  0
ENDTAB
  0
TABLE
  2
APPID
  5
9
330
0
100
AcDbSymbolTable
 70
     2
  0
APPID
  5
12
330
9
100
AcDbSymbolTableRecord
100
AcDbRegAppTableRecord
  2
ACAD
 70
     0
  0
APPID
  5
3F
330
9
100
AcDbSymbolTableRecord
100
AcDbRegAppTableRecord
  2
ODA
 70
     0
  0
ENDTAB
  0
TABLE
  2
DIMSTYLE
  5
A
330
0
100
AcDbSymbolTable
 70
     1
100
AcDbDimStyleTable
  0
DIMSTYLE
105
27
330
A
100
AcDbSymbolTableRecord
100
AcDbDimStyleTableRecord
  2
Standard
 70
     0
178
     0
340
11
  0
ENDTAB
  0
TABLE
  2
BLOCK_RECORD
  5
1
330
0
100
AcDbSymbolTable
 70
     1
  0
BLOCK_RECORD
  5
1F
330
1
100
AcDbSymbolTableRecord
100
AcDbBlockTableRecord
  2
*Model_Space
340
22
 70
     0
280
     1
281
     0
  0
BLOCK_RECORD
  5
1B
330
1
100
AcDbSymbolTableRecord
100
AcDbBlockTableRecord
  2
*Paper_Space
340
1E
 70
     0
280
     1
281
     0
  0
BLOCK_RECORD
  5
23
330
1
100
AcDbSymbolTableRecord
100
AcDbBlockTableRecord
  2
*Paper_Space0
340
26
 70
     0
280
     1
281
     0
  0
ENDTAB
  0
ENDSEC
  0
SECTION
  2
BLOCKS
  0
BLOCK
  5
20
330
1F
100
AcDbEntity
  8
0
100
AcDbBlockBegin
  2
*Model_Space
 70
     0
 10
0.0
 20
0.0
 30
0.0
  3
*Model_Space
  1

  0
ENDBLK
  5
21
330
1F
100
AcDbEntity
  8
0
100
AcDbBlockEnd
  0
BLOCK
  5
1C
330
1B
100
AcDbEntity
 67
     1
  8
0
100
AcDbBlockBegin
  2
*Paper_Space
 70
     0
 10
0.0
 20
0.0
 30
0.0
  3
*Paper_Space
  1

  0
ENDBLK
  5
1D
330
1B
100
AcDbEntity
 67
     1
  8
0
100
AcDbBlockEnd
  0
BLOCK
  5
24
330
23
100
AcDbEntity
  8
0
100
AcDbBlockBegin
  2
*Paper_Space0
 70
     0
 10
0.0
 20
0.0
 30
0.0
  3
*Paper_Space0
  1

  0
ENDBLK
  5
25
330
23
100
AcDbEntity
  8
0
100
AcDbBlockEnd
  0
ENDSEC
  0
SECTION
  2
ENTITIES
  0
LWPOLYLINE
  5
41
330
1F
100
AcDbEntity
  8
layer 1
 62
   250
370
     9
100
AcDbPolyline
 90
        5
 70
     1
 43
0.0
 10
19.9632
 20
-95.5518
 10
99.466
 20
-95.5518
 10
99.466
 20
107.8462
 10
19.9632
 20
107.8462
 10
19.9632
 20
-95.5518
  0
SPLINE
  5
42
330
1F
100
AcDbEntity
  8
layer 1
 62
     7
370
     9
100
AcDbSpline
210
0.0
220
0.0
230
1.0
 70
    11
 71
     3
 72
    32
 73
    28
 74
     0
 42
0.0000000001
 43
0.0000000001
 12
1.0
 22
0.0
 32
0.0
 13
1.0
 23
0.0
 33
0.0
 40
0.0
 40
0.0
 40
0.0
 40
0.0
 40
0.125
 40
0.125
 40
0.125
 40
0.125
 40
0.25
 40
0.25
 40
0.25
 40
0.25
 40
0.375
 40
0.375
 40
0.375
 40
0.375
 40
0.5
 40
0.5
 40
0.5
 40
0.5
 40
0.625
 40
0.625
 40
0.625
 40
0.625
 40
0.75
 40
0.75
 40
0.75
 40
0.75
 40
1.0
 40
1.0
 40
1.0
 40
1.0
 10
73.0379
 20
96.2814
 30
0.0
 10
74.7262
 20
95.1036
 30
0.0
 10
75.9824
 20
93.4375
 30
0.0
 10
77.4775
 20
92.0543
 30
0.0
 10
77.4775
 20
92.0543
 30
0.0
 10
78.9095
 20
91.7968
 30
0.0
 10
80.3905
 20
91.955
 30
0.0
 10
81.8192
 20
91.6449
 30
0.0
 10
81.8192
 20
91.6449
 30
0.0
 10
85.5162
 20
91.0439
 30
0.0
 10
88.912
 20
89.1813
 30
0.0
 10
91.6805
 20
86.7002
 30
0.0
 10
91.6805
 20
86.7002
 30
0.0
 10
91.684
 20
91.1695
 30
0.0
 10
91.6874
 20
95.6382
 30
0.0
 10
91.6788
 20
100.109
 30
0.0
 10
91.6788
 20
100.109
 30
0.0
 10
82.95
 20
100.102
 30
0.0
 10
74.2227
 20
100.1491
 30
0.0
 10
65.4956
 20
100.0827
 30
0.0
 10
65.4956
 20
100.0827
 30
0.0
 10
68.1946
 20
99.2379
 30
0.0
 10
70.7957
 20
98.0217
 30
0.0
 10
73.0379
 20
96.2811
 30
0.0
 10
73.0379
 20
96.2811
 30
0.0
 10
73.0379
 20
96.2811
 30
0.0
 10
73.0379
 20
96.2814
 30
0.0
 10
73.0379
 20
96.2814
 30
0.0
  0
SPLINE
  5
43
330
1F
100
AcDbEntity
  8
layer 1
 62
     7
370
     9
100
AcDbSpline
210
0.0
220
0.0
230
1.0
 70
    11
 71
     3
 72
    24
 73
    20
 74
     0
 42
0.0000000001
 43
0.0000000001
 12
1.0
 22
0.0
 32
0.0
 13
1.0
 23
0.0
 33
0.0
 40
0.0
 40
0.0
 40
0.0
 40
0.0
 40
0.1666666666666667
 40
0.1666666666666667
 40
0.1666666666666667
 40
0.1666666666666667
 40
0.3333333333333333
 40
0.3333333333333333
 40
0.3333333333333333
 40
0.3333333333333333
 40
0.5
 40
0.5
 40
0.5
 40
0.5
 40
0.6666666666666666
 40
0.6666666666666666
 40
0.6666666666666666
 40
0.6666666666666666
 40
1.0
 40
1.0
 40
1.0
 40
1.0
 10
65.358
 20
-87.166
 30
0.0
 10
74.1321
 20
-87.199
 30
0.0
 10
82.9046
 20
-87.1765
 30
0.0
 10
91.6788
 20
-87.1799
 30
0.0
 10
91.6788
 20
-87.1799
 30
0.0
 10
91.6874
 20
-82.7075
 30
0.0
 10
91.684
 20
-78.2368
 30
0.0
 10
91.6805
 20
-73.7642
 30
0.0
 10
91.6805
 20
-73.7642
 30
0.0
 10
90.1054
 20
-75.024
 30
0.0
 10
88.4903
 20
-76.2644
 30
0.0
 10
86.6349
 20
-77.0852
 30
0.0
 10
86.6349
 20
-77.0852
 30
0.0
 10
83.7618
 20
-78.5434
 30
0.0
 10
80.4985
 20
-79.0242
 30
0.0
 10
77.3085
 20
-79.0816
 30
0.0
 10
77.3085
 20
-79.0816
 30
0.0
 10
74.3309
 20
-82.9948
 30
0.0
 10
69.9926
 20
-85.6606
 30
0.0
 10
65.358
 20
-87.166
 30
0.0
  0
SPLINE
  5
44
330
1F
100
AcDbEntity
  8
layer 1
 62
     7
370
     9
100
AcDbSpline
210
0.0
220
0.0
230
1.0
 70
    11
 71
     3
 72
    48
 73
    44
 74
     0
 42
0.0000000001
 43
0.0000000001
 12
1.0
 22
0.0
 32
0.0
 13
1.0
 23
0.0
 33
0.0
 40
0.0
 40
0.0
 40
0.0
 40
0.0
 40
0.0833333333333333
 40
0.0833333333333333
 40
0.0833333333333333
 40
0.0833333333333333
 40
0.1666666666666667
 40
0.1666666666666667
 40
0.1666666666666667
 40
0.1666666666666667
 40
0.25
 40
0.25
 40
0.25
 40
0.25
 40
0.3333333333333333
 40
0.3333333333333333
 40
0.3333333333333333
 40
0.3333333333333333
 40
0.4166666666666667
 40
0.4166666666666667
 40
0.4166666666666667
 40
0.4166666666666667
 40
0.5
 40
0.5
 40
0.5
 40
0.5
 40
0.5833333333333334
 40
0.5833333333333334
 40
0.5833333333333334
 40
0.5833333333333334
 40
0.6666666666666666
 40
0.6666666666666666
 40
0.6666666666666666
 40
0.6666666666666666
 40
0.75
 40
0.75
 40
0.75
 40
0.75
 40
0.8333333333333334
 40
0.8333333333333334
 40
0.8333333333333334
 40
0.8333333333333334
 40
1.0
 40
1.0
 40
1.0
 40
1.0
 10
64.9713
 20
48.2098
 30
0.0
 10
70.05
 20
49.8892
 30
0.0
 10
75.5695
 20
51.161
 30
0.0
 10
80.9009
 20
49.9678
 30
0.0
 10
80.9009
 20
49.9678
 30
0.0
 10
85.2045
 20
49.0461
 30
0.0
 10
88.9972
 20
46.3907
 30
0.0
 10
91.6561
 20
42.9255
 30
0.0
 10
91.6561
 20
42.9255
 30
0.0
 10
91.6943
 20
49.6976
 30
0.0
 10
91.7101
 20
56.4716
 30
0.0
 10
91.6491
 20
63.2457
 30
0.0
 10
91.6491
 20
63.2457
 30
0.0
 10
90.6003
 20
62.4633
 30
0.0
 10
89.5742
 20
61.6322
 30
0.0
 10
88.3718
 20
61.0939
 30
0.0
 10
88.3718
 20
61.0939
 30
0.0
 10
86.9639
 20
60.3484
 30
0.0
 10
85.3612
 20
60.1654
 30
0.0
 10
83.8281
 20
59.8343
 30
0.0
 10
83.8281
 20
59.8343
 30
0.0
 10
85.3002
 20
59.1723
 30
0.0
 10
86.8143
 20
58.4352
 30
0.0
 10
87.7743
 20
57.0831
 30
0.0
 10
87.7743
 20
57.0831
 30
0.0
 10
85.6312
 20
56.1111
 30
0.0
 10
83.1782
 20
56.0152
 30
0.0
 10
80.9392
 20
56.7086
 30
0.0
 10
80.9392
 20
56.7086
 30
0.0
 10
81.3139
 20
56.1425
 30
0.0
 10
81.6868
 20
55.5796
 30
0.0
 10
82.0125
 20
54.9873
 30
0.0
 10
82.0125
 20
54.9873
 30
0.0
 10
80.5369
 20
55.1668
 30
0.0
 10
79.0698
 20
55.4942
 30
0.0
 10
77.5767
 20
55.4663
 30
0.0
 10
77.5767
 20
55.4663
 30
0.0
 10
73.7837
 20
55.5378
 30
0.0
 10
70.2729
 20
53.6787
 30
0.0
 10
67.2866
 20
51.5097
 30
0.0
 10
67.2866
 20
51.5097
 30
0.0
 10
66.2883
 20
50.6473
 30
0.0
 10
64.6019
 20
49.7795
 30
0.0
 10
64.9713
 20
48.2098
 30
0.0
  0
SPLINE
  5
45
330
1F
100
AcDbEntity
  8
layer 1
 62
     7
370
     9
100
AcDbSpline
210
0.0
220
0.0
230
1.0
 70
    11
 71
     3
 72
    44
 73
    40
 74
     0
 42
0.0000000001
 43
0.0000000001
 12
1.0
 22
0.0
 32
0.0
 13
1.0
 23
0.0
 33
0.0
 40
0.0
 40
0.0
 40
0.0
 40
0.0
 40
0.0909090909090909
 40
0.0909090909090909
 40
0.0909090909090909
 40
0.0909090909090909
 40
0.1818181818181818
 40
0.1818181818181818
 40
0.1818181818181818
 40
0.1818181818181818
 40
0.2727272727272727
 40
0.2727272727272727
 40
0.2727272727272727
 40
0.2727272727272727
 40
0.3636363636363636
 40
0.3636363636363636
 40
0.3636363636363636
 40
0.3636363636363636
 40
0.4545454545454545
 40
0.4545454545454545
 40
0.4545454545454545
 40
0.4545454545454545
 40
0.5454545454545454
 40
0.5454545454545454
 40
0.5454545454545454
 40
0.5454545454545454
 40
0.6363636363636364
 40
0.6363636363636364
 40
0.6363636363636364
 40
0.6363636363636364
 40
0.7272727272727273
 40
0.7272727272727273
 40
0.7272727272727273
 40
0.7272727272727273
 40
0.8181818181818182
 40
0.8181818181818182
 40
0.8181818181818182
 40
0.8181818181818182
 40
1.0
 40
1.0
 40
1.0
 40
1.0
 10
64.8772
 20
-36.2738
 30
0.0
 10
67.2413
 20
-38.7651
 30
0.0
 10
70.193
 20
-40.6922
 30
0.0
 10
73.4422
 20
-41.8125
 30
0.0
 10
73.4422
 20
-41.8125
 30
0.0
 10
76.1724
 20
-42.8892
 30
0.0
 10
79.1813
 20
-42.3769
 30
0.0
 10
81.9951
 20
-41.9483
 30
0.0
 10
81.9951
 20
-41.9483
 30
0.0
 10
81.7127
 20
-42.5112
 30
0.0
 10
81.3975
 20
-43.0566
 30
0.0
 10
81.0699
 20
-43.5913
 30
0.0
 10
81.0699
 20
-43.5913
 30
0.0
 10
83.2843
 20
-43.0616
 30
0.0
 10
85.6678
 20
-43.196
 30
0.0
 10
87.7865
 20
-44.0444
 30
0.0
 10
87.7865
 20
-44.0444
 30
0.0
 10
86.6923
 20
-45.4452
 30
0.0
 10
85.1399
 20
-46.3408
 30
0.0
 10
83.4743
 20
-46.8859
 30
0.0
 10
83.4743
 20
-46.8859
 30
0.0
 10
86.5058
 20
-47.0307
 30
0.0
 10
89.391
 20
-48.264
 30
0.0
 10
91.684
 20
-50.2384
 30
0.0
 10
91.684
 20
-50.2384
 30
0.0
 10
91.6805
 20
-43.4416
 30
0.0
 10
91.6857
 20
-36.6432
 30
0.0
 10
91.6805
 20
-29.8465
 30
0.0
 10
91.6805
 20
-29.8465
 30
0.0
 10
88.2586
 20
-34.4948
 30
0.0
 10
82.6346
 20
-37.5109
 30
0.0
 10
76.8206
 20
-37.4271
 30
0.0
 10
76.8206
 20
-37.4271
 30
0.0
 10
72.8202
 20
-37.3
 30
0.0
 10
68.8425
 20
-36.5613
 30
0.0
 10
65.067
 20
-35.2318
 30
0.0
 10
65.067
 20
-35.2318
 30
0.0
 10
65.0043
 20
-35.5804
 30
0.0
 10
64.9416
 20
-35.9271
 30
0.0
 10
64.8772
 20
-36.2738
 30
0.0
  0
SPLINE
  5
46
330
1F
100
AcDbEntity
  8
layer 1
 62
     7
370
     9
100
AcDbSpline
210
0.0
220
0.0
230
1.0
 70
    11
 71
     3
 72
    72
 73
    68
 74
     0
 42
0.0000000001
 43
0.0000000001
 12
1.0
 22
0.0
 32
0.0
 13
1.0
 23
0.0
 33
0.0
 40
0.0
 40
0.0
 40
0.0
 40
0.0
 40
0.0555555555555556
 40
0.0555555555555556
 40
0.0555555555555556
 40
0.0555555555555556
 40
0.1111111111111111
 40
0.1111111111111111
 40
0.1111111111111111
 40
0.1111111111111111
 40
0.1666666666666667
 40
0.1666666666666667
 40
0.1666666666666667
 40
0.1666666666666667
 40
0.2222222222222222
 40
0.2222222222222222
 40
0.2222222222222222
 40
0.2222222222222222
 40
0.2777777777777778
 40
0.2777777777777778
 40
0.2777777777777778
 40
0.2777777777777778
 40
0.3333333333333333
 40
0.3333333333333333
 40
0.3333333333333333
 40
0.3333333333333333
 40
0.3888888888888889
 40
0.3888888888888889
 40
0.3888888888888889
 40
0.3888888888888889
 40
0.4444444444444444
 40
0.4444444444444444
 40
0.4444444444444444
 40
0.4444444444444444
 40
0.5
 40
0.5
 40
0.5
 40
0.5
 40
0.5555555555555556
 40
0.5555555555555556
 40
0.5555555555555556
 40
0.5555555555555556
 40
0.6111111111111112
 40
0.6111111111111112
 40
0.6111111111111112
 40
0.6111111111111112
 40
0.6666666666666666
 40
0.6666666666666666
 40
0.6666666666666666
 40
0.6666666666666666
 40
0.7222222222222222
 40
0.7222222222222222
 40
0.7222222222222222
 40
0.7222222222222222
 40
0.7777777777777778
 40
0.7777777777777778
 40
0.7777777777777778
 40
0.7777777777777778
 40
0.8333333333333334
 40
0.8333333333333334
 40
0.8333333333333334
 40
0.8333333333333334
 40
0.8888888888888888
 40
0.8888888888888888
 40
0.8888888888888888
 40
0.8888888888888888
 40
1.0
 40
1.0
 40
1.0
 40
1.0
 10
63.4239
 20
51.386
 30
0.0
 10
63.5338
 20
51.3371
 30
0.0
 10
63.7533
 20
51.2379
 30
0.0
 10
63.8632
 20
51.1874
 30
0.0
 10
63.8632
 20
51.1874
 30
0.0
 10
64.8475
 20
52.0915
 30
0.0
 10
65.8459
 20
52.9835
 30
0.0
 10
66.8739
 20
53.8407
 30
0.0
 10
66.8739
 20
53.8407
 30
0.0
 10
70.4471
 20
56.8759
 30
0.0
 10
74.7629
 20
58.8796
 30
0.0
 10
79.19
 20
60.3273
 30
0.0
 10
79.19
 20
60.3273
 30
0.0
 10
81.6657
 20
61.101
 30
0.0
 10
83.9429
 20
62.413
 30
0.0
 10
86.0075
 20
63.9687
 30
0.0
 10
86.0075
 20
63.9687
 30
0.0
 10
86.8178
 20
64.6099
 30
0.0
 10
87.6156
 20
65.3364
 30
0.0
 10
88.0288
 20
66.3086
 30
0.0
 10
88.0288
 20
66.3086
 30
0.0
 10
88.776
 20
67.638
 30
0.0
 10
88.0843
 20
69.1607
 30
0.0
 10
87.8475
 20
70.5442
 30
0.0
 10
87.8475
 20
70.5442
 30
0.0
 10
89.2169
 20
70.5703
 30
0.0
 10
90.5566
 20
70.2845
 30
0.0
 10
91.6892
 20
69.49
 30
0.0
 10
91.6892
 20
69.49
 30
0.0
 10
91.6247
 20
72.8301
 30
0.0
 10
91.813
 20
76.1751
 30
0.0
 10
91.6107
 20
79.5134
 30
0.0
 10
91.6107
 20
79.5134
 30
0.0
 10
89.2065
 20
83.8691
 30
0.0
 10
84.375
 20
86.6323
 30
0.0
 10
79.4861
 20
87.1253
 30
0.0
 10
79.4861
 20
87.1253
 30
0.0
 10
83.2478
 20
84.0452
 30
0.0
 10
83.0458
 20
77.9489
 30
0.0
 10
79.8521
 20
74.5321
 30
0.0
 10
79.8521
 20
74.5321
 30
0.0
 10
81.6536
 20
75.2638
 30
0.0
 10
83.6294
 20
75.4016
 30
0.0
 10
85.546
 20
75.1438
 30
0.0
 10
85.546
 20
75.1438
 30
0.0
 10
83.7112
 20
72.5355
 30
0.0
 10
80.819
 20
70.8247
 30
0.0
 10
77.7543
 20
70.0703
 30
0.0
 10
77.7543
 20
70.0703
 30
0.0
 10
78.6569
 20
69.8071
 30
0.0
 10
79.4984
 20
69.3662
 30
0.0
 10
80.2789
 20
68.8453
 30
0.0
 10
80.2789
 20
68.8453
 30
0.0
 10
78.5262
 20
68.2791
 30
0.0
 10
76.6967
 20
67.8471
 30
0.0
 10
75.1252
 20
66.847
 30
0.0
 10
75.1252
 20
66.847
 30
0.0
 10
72.3778
 20
65.3313
 30
0.0
 10
70.2487
 20
62.9008
 30
0.0
 10
68.6805
 20
60.2193
 30
0.0
 10
68.6805
 20
60.2193
 30
0.0
 10
66.9226
 20
57.2782
 30
0.0
 10
65.1003
 20
54.374
 30
0.0
 10
63.4239
 20
51.3858
 30
0.0
 10
63.4239
 20
51.3858
 30
0.0
 10
63.4239
 20
51.3858
 30
0.0
 10
63.4239
 20
51.386
 30
0.0
 10
63.4239
 20
51.386
 30
0.0
  0
SPLINE
  5
47
330
1F
100
AcDbEntity
  8
layer 1
 62
     7
370
     9
100
AcDbSpline
210
0.0
220
0.0
230
1.0
 70
    11
 71
     3
 72
    72
 73
    68
 74
     0
 42
0.0000000001
 43
0.0000000001
 12
1.0
 22
0.0
 32
0.0
 13
1.0
 23
0.0
 33
0.0
 40
0.0
 40
0.0
 40
0.0
 40
0.0
 40
0.0555555555555556
 40
0.0555555555555556
 40
0.0555555555555556
 40
0.0555555555555556
 40
0.1111111111111111
 40
0.1111111111111111
 40
0.1111111111111111
 40
0.1111111111111111
 40
0.1666666666666667
 40
0.1666666666666667
 40
0.1666666666666667
 40
0.1666666666666667
 40
0.2222222222222222
 40
0.2222222222222222
 40
0.2222222222222222
 40
0.2222222222222222
 40
0.2777777777777778
 40
0.2777777777777778
 40
0.2777777777777778
 40
0.2777777777777778
 40
0.3333333333333333
 40
0.3333333333333333
 40
0.3333333333333333
 40
0.3333333333333333
 40
0.3888888888888889
 40
0.3888888888888889
 40
0.3888888888888889
 40
0.3888888888888889
 40
0.4444444444444444
 40
0.4444444444444444
 40
0.4444444444444444
 40
0.4444444444444444
 40
0.5
 40
0.5
 40
0.5
 40
0.5
 40
0.5555555555555556
 40
0.5555555555555556
 40
0.5555555555555556
 40
0.5555555555555556
 40
0.6111111111111112
 40
0.6111111111111112
 40
0.6111111111111112
 40
0.6111111111111112
 40
0.6666666666666666
 40
0.6666666666666666
 40
0.6666666666666666
 40
0.6666666666666666
 40
0.7222222222222222
 40
0.7222222222222222
 40
0.7222222222222222
 40
0.7222222222222222
 40
0.7777777777777778
 40
0.7777777777777778
 40
0.7777777777777778
 40
0.7777777777777778
 40
0.8333333333333334
 40
0.8333333333333334
 40
0.8333333333333334
 40
0.8333333333333334
 40
0.8888888888888888
 40
0.8888888888888888
 40
0.8888888888888888
 40
0.8888888888888888
 40
1.0
 40
1.0
 40
1.0
 40
1.0
 10
63.4798
 20
-38.4429
 30
0.0
 10
64.7986
 20
-40.8473
 30
0.0
 10
66.2378
 20
-43.182
 30
0.0
 10
67.6561
 20
-45.5288
 30
0.0
 10
67.6561
 20
-45.5288
 30
0.0
 10
68.7379
 20
-47.2658
 30
0.0
 10
69.7295
 20
-49.0797
 30
0.0
 10
71.1145
 20
-50.6024
 30
0.0
 10
71.1145
 20
-50.6024
 30
0.0
 10
73.5171
 20
-53.2733
 30
0.0
 10
76.8152
 20
-55.0086
 30
0.0
 10
80.2877
 20
-55.8344
 30
0.0
 10
80.2877
 20
-55.8344
 30
0.0
 10
79.5802
 20
-56.3886
 30
0.0
 10
78.751
 20
-56.7475
 30
0.0
 10
77.899
 20
-57.0123
 30
0.0
 10
77.899
 20
-57.0123
 30
0.0
 10
78.3921
 20
-57.2683
 30
0.0
 10
78.9304
 20
-57.4233
 30
0.0
 10
79.4461
 20
-57.6273
 30
0.0
 10
79.4461
 20
-57.6273
 30
0.0
 10
81.8749
 20
-58.42
 30
0.0
 10
83.9622
 20
-60.0611
 30
0.0
 10
85.4814
 20
-62.0963
 30
0.0
 10
85.4814
 20
-62.0963
 30
0.0
 10
83.6414
 20
-62.3261
 30
0.0
 10
81.7425
 20
-62.2757
 30
0.0
 10
80.0036
 20
-61.5857
 30
0.0
 10
80.0036
 20
-61.5857
 30
0.0
 10
81.0003
 20
-63.0335
 30
0.0
 10
82.0056
 20
-64.5824
 30
0.0
 10
82.1658
 20
-66.3804
 30
0.0
 10
82.1658
 20
-66.3804
 30
0.0
 10
82.5423
 20
-69.196
 30
0.0
 10
81.8035
 20
-72.4977
 30
0.0
 10
79.3136
 20
-74.1598
 30
0.0
 10
79.3136
 20
-74.1598
 30
0.0
 10
82.6241
 20
-73.7627
 30
0.0
 10
85.917
 20
-72.5953
 30
0.0
 10
88.4119
 20
-70.3215
 30
0.0
 10
88.4119
 20
-70.3215
 30
0.0
 10
89.6195
 20
-69.1593
 30
0.0
 10
90.9733
 20
-68.0044
 30
0.0
 10
91.6369
 20
-66.4293
 30
0.0
 10
91.6369
 20
-66.4293
 30
0.0
 10
91.8128
 20
-63.0892
 30
0.0
 10
91.609
 20
-59.7319
 30
0.0
 10
91.6979
 20
-56.3867
 30
0.0
 10
91.6979
 20
-56.3867
 30
0.0
 10
90.5758
 20
-57.1726
 30
0.0
 10
89.2534
 20
-57.6847
 30
0.0
 10
87.8614
 20
-57.5401
 30
0.0
 10
87.8614
 20
-57.5401
 30
0.0
 10
88.5182
 20
-55.6672
 30
0.0
 10
88.6923
 20
-53.3413
 30
0.0
 10
87.1034
 20
-51.8637
 30
0.0
 10
87.1034
 20
-51.8637
 30
0.0
 10
84.6765
 20
-49.6719
 30
0.0
 10
81.7268
 20
-48.0917
 30
0.0
 10
78.6149
 20
-47.1073
 30
0.0
 10
78.6149
 20
-47.1073
 30
0.0
 10
73.0869
 20
-45.339
 30
0.0
 10
67.8668
 20
-42.3544
 30
0.0
 10
63.9172
 20
-38.0579
 30
0.0
 10
63.9172
 20
-38.0579
 30
0.0
 10
63.7708
 20
-38.1866
 30
0.0
 10
63.6245
 20
-38.3158
 30
0.0
 10
63.4798
 20
-38.4429
 30
0.0
  0
SPLINE
  5
48
330
1F
100
AcDbEntity
  8
layer 1
 62
     7
370
     9
100
AcDbSpline
210
0.0
220
0.0
230
1.0
 70
    11
 71
     3
 72
    56
 73
    52
 74
     0
 42
0.0000000001
 43
0.0000000001
 12
1.0
 22
0.0
 32
0.0
 13
1.0
 23
0.0
 33
0.0
 40
0.0
 40
0.0
 40
0.0
 40
0.0
 40
0.0714285714285714
 40
0.0714285714285714
 40
0.0714285714285714
 40
0.0714285714285714
 40
0.1428571428571428
 40
0.1428571428571428
 40
0.1428571428571428
 40
0.1428571428571428
 40
0.2142857142857143
 40
0.2142857142857143
 40
0.2142857142857143
 40
0.2142857142857143
 40
0.2857142857142857
 40
0.2857142857142857
 40
0.2857142857142857
 40
0.2857142857142857
 40
0.3571428571428572
 40
0.3571428571428572
 40
0.3571428571428572
 40
0.3571428571428572
 40
0.4285714285714285
 40
0.4285714285714285
 40
0.4285714285714285
 40
0.4285714285714285
 40
0.5
 40
0.5
 40
0.5
 40
0.5
 40
0.5714285714285714
 40
0.5714285714285714
 40
0.5714285714285714
 40
0.5714285714285714
 40
0.6428571428571429
 40
0.6428571428571429
 40
0.6428571428571429
 40
0.6428571428571429
 40
0.7142857142857143
 40
0.7142857142857143
 40
0.7142857142857143
 40
0.7142857142857143
 40
0.7857142857142857
 40
0.7857142857142857
 40
0.7857142857142857
 40
0.7857142857142857
 40
0.8571428571428571
 40
0.8571428571428571
 40
0.8571428571428571
 40
0.8571428571428571
 40
1.0
 40
1.0
 40
1.0
 40
1.0
 10
65.9102
 20
27.8372
 30
0.0
 10
66.71
 20
28.3843
 30
0.0
 10
67.4766
 20
29.0531
 30
0.0
 10
68.4436
 20
29.2849
 30
0.0
 10
68.4436
 20
29.2849
 30
0.0
 10
70.0361
 20
29.7555
 30
0.0
 10
71.707
 20
29.2693
 30
0.0
 10
73.1234
 20
28.5149
 30
0.0
 10
73.1234
 20
28.5149
 30
0.0
 10
72.707
 20
27.13
 30
0.0
 10
72.1232
 20
25.7604
 30
0.0
 10
71.0536
 20
24.7444
 30
0.0
 10
71.0536
 20
24.7444
 30
0.0
 10
69.8791
 20
23.6609
 30
0.0
 10
68.4802
 20
22.7619
 30
0.0
 10
67.6354
 20
21.368
 30
0.0
 10
67.6354
 20
21.368
 30
0.0
 10
66.4085
 20
19.4255
 30
0.0
 10
65.5845
 20
17.0942
 30
0.0
 10
65.9329
 20
14.7718
 30
0.0
 10
65.9329
 20
14.7718
 30
0.0
 10
66.0792
 20
13.9126
 30
0.0
 10
66.8092
 20
13.277
 30
0.0
 10
67.6613
 20
13.2089
 30
0.0
 10
67.6613
 20
13.2089
 30
0.0
 10
71.0502
 20
13.0225
 30
0.0
 10
74.5452
 20
14.5644
 30
0.0
 10
76.5504
 20
17.3329
 30
0.0
 10
76.5504
 20
17.3329
 30
0.0
 10
77.6793
 20
18.8991
 30
0.0
 10
79.352
 20
19.9776
 30
0.0
 10
81.2216
 20
20.4203
 30
0.0
 10
81.2216
 20
20.4203
 30
0.0
 10
82.6048
 20
18.1606
 30
0.0
 10
82.3975
 20
14.9861
 30
0.0
 10
80.373
 20
13.1809
 30
0.0
 10
80.373
 20
13.1809
 30
0.0
 10
84.5527
 20
13.7387
 30
0.0
 10
88.8528
 20
12.0834
 30
0.0
 10
91.6962
 20
8.9927
 30
0.0
 10
91.6962
 20
8.9927
 30
0.0
 10
91.2205
 20
14.6323
 30
0.0
 10
89.3598
 20
20.1938
 30
0.0
 10
86.0896
 20
24.8334
 30
0.0
 10
86.0896
 20
24.8334
 30
0.0
 10
80.6482
 20
32.8986
 30
0.0
 10
71.4176
 20
38.3518
 30
0.0
 10
61.6889
 20
39.0
 30
0.0
 10
61.6889
 20
39.0
 30
0.0
 10
64.7429
 20
36.1862
 30
0.0
 10
66.3302
 20
31.9735
 30
0.0
 10
65.9102
 20
27.8372
 30
0.0
  0
SPLINE
  5
49
330
1F
100
AcDbEntity
  8
layer 1
 62
     7
370
     9
100
AcDbSpline
210
0.0
220
0.0
230
1.0
 70
    11
 71
     3
 72
    72
 73
    68
 74
     0
 42
0.0000000001
 43
0.0000000001
 12
1.0
 22
0.0
 32
0.0
 13
1.0
 23
0.0
 33
0.0
 40
0.0
 40
0.0
 40
0.0
 40
0.0
 40
0.0555555555555556
 40
0.0555555555555556
 40
0.0555555555555556
 40
0.0555555555555556
 40
0.1111111111111111
 40
0.1111111111111111
 40
0.1111111111111111
 40
0.1111111111111111
 40
0.1666666666666667
 40
0.1666666666666667
 40
0.1666666666666667
 40
0.1666666666666667
 40
0.2222222222222222
 40
0.2222222222222222
 40
0.2222222222222222
 40
0.2222222222222222
 40
0.2777777777777778
 40
0.2777777777777778
 40
0.2777777777777778
 40
0.2777777777777778
 40
0.3333333333333333
 40
0.3333333333333333
 40
0.3333333333333333
 40
0.3333333333333333
 40
0.3888888888888889
 40
0.3888888888888889
 40
0.3888888888888889
 40
0.3888888888888889
 40
0.4444444444444444
 40
0.4444444444444444
 40
0.4444444444444444
 40
0.4444444444444444
 40
0.5
 40
0.5
 40
0.5
 40
0.5
 40
0.5555555555555556
 40
0.5555555555555556
 40
0.5555555555555556
 40
0.5555555555555556
 40
0.6111111111111112
 40
0.6111111111111112
 40
0.6111111111111112
 40
0.6111111111111112
 40
0.6666666666666666
 40
0.6666666666666666
 40
0.6666666666666666
 40
0.6666666666666666
 40
0.7222222222222222
 40
0.7222222222222222
 40
0.7222222222222222
 40
0.7222222222222222
 40
0.7777777777777778
 40
0.7777777777777778
 40
0.7777777777777778
 40
0.7777777777777778
 40
0.8333333333333334
 40
0.8333333333333334
 40
0.8333333333333334
 40
0.8333333333333334
 40
0.8888888888888888
 40
0.8888888888888888
 40
0.8888888888888888
 40
0.8888888888888888
 40
1.0
 40
1.0
 40
1.0
 40
1.0
 10
61.7219
 20
-26.043
 30
0.0
 10
65.9504
 20
-25.6006
 30
0.0
 10
70.1266
 20
-24.51
 30
0.0
 10
73.9109
 20
-22.5412
 30
0.0
 10
73.9109
 20
-22.5412
 30
0.0
 10
78.6569
 20
-20.2011
 30
0.0
 10
82.6484
 20
-16.5214
 30
0.0
 10
85.7829
 20
-12.2912
 30
0.0
 10
85.7829
 20
-12.2912
 30
0.0
 10
89.1577
 20
-7.526
 30
0.0
 10
91.2274
 20
-1.8445
 30
0.0
 10
91.7031
 20
3.9765
 30
0.0
 10
91.7031
 20
3.9765
 30
0.0
 10
88.8127
 20
0.9746
 30
0.0
 10
84.5893
 20
-0.8061
 30
0.0
 10
80.3974
 20
-0.1109
 30
0.0
 10
80.3974
 20
-0.1109
 30
0.0
 10
80.7267
 20
-0.5657
 30
0.0
 10
81.0474
 20
-1.0292
 30
0.0
 10
81.3557
 20
-1.496
 30
0.0
 10
81.3557
 20
-1.496
 30
0.0
 10
82.5509
 20
-3.2417
 30
0.0
 10
82.3452
 20
-5.7664
 30
0.0
 10
81.0733
 20
-7.4179
 30
0.0
 10
81.0733
 20
-7.4179
 30
0.0
 10
80.049
 20
-7.0121
 30
0.0
 10
79.0019
 20
-6.62
 30
0.0
 10
78.0836
 20
-5.9999
 30
0.0
 10
78.0836
 20
-5.9999
 30
0.0
 10
76.9826
 20
-5.064
 30
0.0
 10
76.2472
 20
-3.7783
 30
0.0
 10
75.1688
 20
-2.8165
 30
0.0
 10
75.1688
 20
-2.8165
 30
0.0
 10
73.2123
 20
-1.1039
 30
0.0
 10
70.6127
 20
-0.0656
 30
0.0
 10
67.9906
 20
-0.2274
 30
0.0
 10
67.9906
 20
-0.2274
 30
0.0
 10
67.0689
 20
-0.0551
 30
0.0
 10
66.3074
 20
-0.7521
 30
0.0
 10
65.9504
 20
-1.5134
 30
0.0
 10
65.9504
 20
-1.5134
 30
0.0
 10
65.6629
 20
-3.991
 30
0.0
 10
66.3198
 20
-6.5956
 30
0.0
 10
67.8128
 20
-8.608
 30
0.0
 10
67.8128
 20
-8.608
 30
0.0
 10
68.7885
 20
-10.284
 30
0.0
 10
70.6963
 20
-11.0613
 30
0.0
 10
71.8044
 20
-12.6222
 30
0.0
 10
71.8044
 20
-12.6222
 30
0.0
 10
72.4473
 20
-13.4829
 30
0.0
 10
72.8009
 20
-14.5109
 30
0.0
 10
73.0921
 20
-15.5337
 30
0.0
 10
73.0921
 20
-15.5337
 30
0.0
 10
71.6876
 20
-16.2409
 30
0.0
 10
70.0779
 20
-16.7811
 30
0.0
 10
68.5044
 20
-16.2722
 30
0.0
 10
68.5044
 20
-16.2722
 30
0.0
 10
67.5149
 20
-16.0912
 30
0.0
 10
66.7415
 20
-15.4204
 30
0.0
 10
65.9102
 20
-14.9063
 30
0.0
 10
65.9102
 20
-14.9063
 30
0.0
 10
65.9136
 20
-17.011
 30
0.0
 10
65.8493
 20
-19.1821
 30
0.0
 10
65.0426
 20
-21.156
 30
0.0
 10
65.0426
 20
-21.156
 30
0.0
 10
64.3457
 20
-23.0271
 30
0.0
 10
63.0512
 20
-24.5882
 30
0.0
 10
61.7219
 20
-26.043
 30
0.0
  0
SPLINE
  5
4A
330
1F
100
AcDbEntity
  8
layer 1
 62
     7
370
     9
100
AcDbSpline
210
0.0
220
0.0
230
1.0
 70
    11
 71
     3
 72
    76
 73
    72
 74
     0
 42
0.0000000001
 43
0.0000000001
 12
1.0
 22
0.0
 32
0.0
 13
1.0
 23
0.0
 33
0.0
 40
0.0
 40
0.0
 40
0.0
 40
0.0
 40
0.0526315789473684
 40
0.0526315789473684
 40
0.0526315789473684
 40
0.0526315789473684
 40
0.1052631578947368
 40
0.1052631578947368
 40
0.1052631578947368
 40
0.1052631578947368
 40
0.1578947368421053
 40
0.1578947368421053
 40
0.1578947368421053
 40
0.1578947368421053
 40
0.2105263157894737
 40
0.2105263157894737
 40
0.2105263157894737
 40
0.2105263157894737
 40
0.2631578947368421
 40
0.2631578947368421
 40
0.2631578947368421
 40
0.2631578947368421
 40
0.3157894736842105
 40
0.3157894736842105
 40
0.3157894736842105
 40
0.3157894736842105
 40
0.3684210526315789
 40
0.3684210526315789
 40
0.3684210526315789
 40
0.3684210526315789
 40
0.4210526315789473
 40
0.4210526315789473
 40
0.4210526315789473
 40
0.4210526315789473
 40
0.4736842105263158
 40
0.4736842105263158
 40
0.4736842105263158
 40
0.4736842105263158
 40
0.5263157894736842
 40
0.5263157894736842
 40
0.5263157894736842
 40
0.5263157894736842
 40
0.5789473684210527
 40
0.5789473684210527
 40
0.5789473684210527
 40
0.5789473684210527
 40
0.631578947368421
 40
0.631578947368421
 40
0.631578947368421
 40
0.631578947368421
 40
0.6842105263157895
 40
0.6842105263157895
 40
0.6842105263157895
 40
0.6842105263157895
 40
0.7368421052631579
 40
0.7368421052631579
 40
0.7368421052631579
 40
0.7368421052631579
 40
0.7894736842105263
 40
0.7894736842105263
 40
0.7894736842105263
 40
0.7894736842105263
 40
0.8421052631578947
 40
0.8421052631578947
 40
0.8421052631578947
 40
0.8421052631578947
 40
0.8947368421052632
 40
0.8947368421052632
 40
0.8947368421052632
 40
0.8947368421052632
 40
1.0
 40
1.0
 40
1.0
 40
1.0
 10
61.4673
 20
42.516
 30
0.0
 10
63.0181
 20
42.2355
 30
0.0
 10
64.5914
 20
42.1117
 30
0.0
 10
66.1385
 20
41.8136
 30
0.0
 10
66.1385
 20
41.8136
 30
0.0
 10
71.4856
 20
40.8625
 30
0.0
 10
76.5157
 20
38.4931
 30
0.0
 10
80.8887
 20
35.3064
 30
0.0
 10
80.8887
 20
35.3064
 30
0.0
 10
85.4309
 20
31.8427
 30
0.0
 10
89.1247
 20
27.3125
 30
0.0
 10
91.6508
 20
22.1939
 30
0.0
 10
91.6508
 20
22.1939
 30
0.0
 10
91.7206
 20
27.2013
 30
0.0
 10
91.6578
 20
32.2102
 30
0.0
 10
91.6943
 20
37.2193
 30
0.0
 10
91.6943
 20
37.2193
 30
0.0
 10
90.3563
 20
35.1409
 30
0.0
 10
87.8544
 20
33.9821
 30
0.0
 10
85.4011
 20
34.308
 30
0.0
 10
85.4011
 20
34.308
 30
0.0
 10
86.1958
 20
35.0067
 30
0.0
 10
87.0494
 20
35.6461
 30
0.0
 10
87.7393
 20
36.4563
 30
0.0
 10
87.7393
 20
36.4563
 30
0.0
 10
88.2604
 20
37.202
 30
0.0
 10
88.5164
 20
38.0924
 30
0.0
 10
88.7516
 20
38.9617
 30
0.0
 10
88.7516
 20
38.9617
 30
0.0
 10
87.546
 20
38.2928
 30
0.0
 10
86.1766
 20
38.0452
 30
0.0
 10
84.8019
 20
38.0714
 30
0.0
 10
84.8019
 20
38.0714
 30
0.0
 10
85.3315
 20
38.7943
 30
0.0
 10
85.9029
 20
39.4825
 30
0.0
 10
86.3648
 20
40.2545
 30
0.0
 10
86.3648
 20
40.2545
 30
0.0
 10
87.0042
 20
41.3991
 30
0.0
 10
86.8525
 20
42.779
 30
0.0
 10
86.6453
 20
44.0194
 30
0.0
 10
86.6453
 20
44.0194
 30
0.0
 10
85.9901
 20
46.0703
 30
0.0
 10
84.0423
 20
47.5824
 30
0.0
 10
81.9359
 20
47.917
 30
0.0
 10
81.9359
 20
47.917
 30
0.0
 10
82.3207
 20
47.1
 30
0.0
 10
82.7966
 20
46.3158
 30
0.0
 10
83.0248
 20
45.4378
 30
0.0
 10
83.0248
 20
45.4378
 30
0.0
 10
83.5161
 20
43.8401
 30
0.0
 10
83.0717
 20
42.2023
 30
0.0
 10
82.6153
 20
40.6605
 30
0.0
 10
82.6153
 20
40.6605
 30
0.0
 10
81.5735
 20
41.8312
 30
0.0
 10
80.5124
 20
43.0019
 30
0.0
 10
79.2702
 20
43.9691
 30
0.0
 10
79.2702
 20
43.9691
 30
0.0
 10
75.4268
 20
47.0895
 30
0.0
 10
70.1023
 20
48.2027
 30
0.0
 10
65.3197
 20
46.9204
 30
0.0
 10
65.3197
 20
46.9204
 30
0.0
 10
65.1228
 20
45.8925
 30
0.0
 10
65.0234
 20
44.7166
 30
0.0
 10
64.2045
 20
43.9622
 30
0.0
 10
64.2045
 20
43.9622
 30
0.0
 10
63.4606
 20
43.2024
 30
0.0
 10
62.4032
 20
42.9462
 30
0.0
 10
61.4673
 20
42.5159
 30
0.0
 10
61.4673
 20
42.5159
 30
0.0
 10
61.4673
 20
42.5159
 30
0.0
 10
61.4673
 20
42.516
 30
0.0
 10
61.4673
 20
42.516
 30
0.0
  0
SPLINE
  5
4B
330
1F
100
AcDbEntity
  8
layer 1
 62
     7
370
     9
100
AcDbSpline
210
0.0
220
0.0
230
1.0
 70
    11
 71
     3
 72
    64
 73
    60
 74
     0
 42
0.0000000001
 43
0.0000000001
 12
1.0
 22
0.0
 32
0.0
 13
1.0
 23
0.0
 33
0.0
 40
0.0
 40
0.0
 40
0.0
 40
0.0
 40
0.0625
 40
0.0625
 40
0.0625
 40
0.0625
 40
0.125
 40
0.125
 40
0.125
 40
0.125
 40
0.1875
 40
0.1875
 40
0.1875
 40
0.1875
 40
0.25
 40
0.25
 40
0.25
 40
0.25
 40
0.3125
 40
0.3125
 40
0.3125
 40
0.3125
 40
0.375
 40
0.375
 40
0.375
 40
0.375
 40
0.4375
 40
0.4375
 40
0.4375
 40
0.4375
 40
0.5
 40
0.5
 40
0.5
 40
0.5
 40
0.5625
 40
0.5625
 40
0.5625
 40
0.5625
 40
0.625
 40
0.625
 40
0.625
 40
0.625
 40
0.6875
 40
0.6875
 40
0.6875
 40
0.6875
 40
0.75
 40
0.75
 40
0.75
 40
0.75
 40
0.8125
 40
0.8125
 40
0.8125
 40
0.8125
 40
0.875
 40
0.875
 40
0.875
 40
0.875
 40
1.0
 40
1.0
 40
1.0
 40
1.0
 10
64.8162
 20
-31.9563
 30
0.0
 10
65.283
 20
-32.6237
 30
0.0
 10
65.001
 20
-33.9828
 30
0.0
 10
66.0306
 20
-34.1046
 30
0.0
 10
66.0306
 20
-34.1046
 30
0.0
 10
69.2554
 20
-34.8085
 30
0.0
 10
72.6965
 20
-34.3555
 30
0.0
 10
75.7247
 20
-33.0837
 30
0.0
 10
75.7247
 20
-33.0837
 30
0.0
 10
78.4948
 20
-32.0052
 30
0.0
 10
80.65
 20
-29.89
 30
0.0
 10
82.5807
 20
-27.6981
 30
0.0
 10
82.5807
 20
-27.6981
 30
0.0
 10
83.6798
 20
-30.0189
 30
0.0
 10
83.2809
 20
-32.7979
 30
0.0
 10
81.9027
 20
-34.9147
 30
0.0
 10
81.9027
 20
-34.9147
 30
0.0
 10
84.7166
 20
-34.5436
 30
0.0
 10
87.1801
 20
-31.9198
 30
0.0
 10
86.8039
 20
-28.9946
 30
0.0
 10
86.8039
 20
-28.9946
 30
0.0
 10
86.8491
 20
-27.456
 30
0.0
 10
85.7514
 20
-26.2556
 30
0.0
 10
84.8803
 20
-25.1127
 30
0.0
 10
84.8803
 20
-25.1127
 30
0.0
 10
86.2358
 20
-25.1021
 30
0.0
 10
87.5617
 20
-25.3479
 30
0.0
 10
88.7656
 20
-25.9821
 30
0.0
 10
88.7656
 20
-25.9821
 30
0.0
 10
88.5008
 20
-24.9158
 30
0.0
 10
88.1505
 20
-23.8357
 30
0.0
 10
87.3788
 20
-23.0115
 30
0.0
 10
87.3788
 20
-23.0115
 30
0.0
 10
86.6802
 20
-22.3198
 30
0.0
 10
85.7793
 20
-21.8911
 30
0.0
 10
84.9658
 20
-21.3529
 30
0.0
 10
84.9658
 20
-21.3529
 30
0.0
 10
86.3037
 20
-21.3441
 30
0.0
 10
87.6924
 20
-21.2604
 30
0.0
 10
88.959
 20
-21.7744
 30
0.0
 10
88.959
 20
-21.7744
 30
0.0
 10
90.0548
 20
-22.3074
 30
0.0
 10
90.8825
 20
-23.2309
 30
0.0
 10
91.6735
 20
-24.1302
 30
0.0
 10
91.6735
 20
-24.1302
 30
0.0
 10
91.6857
 20
-19.1174
 30
0.0
 10
91.6943
 20
-14.105
 30
0.0
 10
91.67
 20
-9.0906
 30
0.0
 10
91.67
 20
-9.0906
 30
0.0
 10
90.8825
 20
-10.6553
 30
0.0
 10
90.0357
 20
-12.1936
 30
0.0
 10
89.039
 20
-13.6363
 30
0.0
 10
89.039
 20
-13.6363
 30
0.0
 10
83.023
 20
-22.8842
 30
0.0
 10
72.4073
 20
-28.7349
 30
0.0
 10
61.4571
 20
-29.4718
 30
0.0
 10
61.4571
 20
-29.4718
 30
0.0
 10
62.7411
 20
-30.0416
 30
0.0
 10
64.3544
 20
-30.3935
 30
0.0
 10
64.8162
 20
-31.9563
 30
0.0
  0
SPLINE
  5
4C
330
1F
100
AcDbEntity
  8
layer 1
 62
     7
370
     9
100
AcDbSpline
210
0.0
220
0.0
230
1.0
 70
    11
 71
     3
 72
    84
 73
    80
 74
     0
 42
0.0000000001
 43
0.0000000001
 12
1.0
 22
0.0
 32
0.0
 13
1.0
 23
0.0
 33
0.0
 40
0.0
 40
0.0
 40
0.0
 40
0.0
 40
0.0476190476190476
 40
0.0476190476190476
 40
0.0476190476190476
 40
0.0476190476190476
 40
0.0952380952380952
 40
0.0952380952380952
 40
0.0952380952380952
 40
0.0952380952380952
 40
0.1428571428571428
 40
0.1428571428571428
 40
0.1428571428571428
 40
0.1428571428571428
 40
0.1904761904761905
 40
0.1904761904761905
 40
0.1904761904761905
 40
0.1904761904761905
 40
0.2380952380952381
 40
0.2380952380952381
 40
0.2380952380952381
 40
0.2380952380952381
 40
0.2857142857142857
 40
0.2857142857142857
 40
0.2857142857142857
 40
0.2857142857142857
 40
0.3333333333333333
 40
0.3333333333333333
 40
0.3333333333333333
 40
0.3333333333333333
 40
0.3809523809523809
 40
0.3809523809523809
 40
0.3809523809523809
 40
0.3809523809523809
 40
0.4285714285714285
 40
0.4285714285714285
 40
0.4285714285714285
 40
0.4285714285714285
 40
0.4761904761904762
 40
0.4761904761904762
 40
0.4761904761904762
 40
0.4761904761904762
 40
0.5238095238095238
 40
0.5238095238095238
 40
0.5238095238095238
 40
0.5238095238095238
 40
0.5714285714285714
 40
0.5714285714285714
 40
0.5714285714285714
 40
0.5714285714285714
 40
0.6190476190476191
 40
0.6190476190476191
 40
0.6190476190476191
 40
0.6190476190476191
 40
0.6666666666666666
 40
0.6666666666666666
 40
0.6666666666666666
 40
0.6666666666666666
 40
0.7142857142857143
 40
0.7142857142857143
 40
0.7142857142857143
 40
0.7142857142857143
 40
0.7619047619047619
 40
0.7619047619047619
 40
0.7619047619047619
 40
0.7619047619047619
 40
0.8095238095238095
 40
0.8095238095238095
 40
0.8095238095238095
 40
0.8095238095238095
 40
0.8571428571428571
 40
0.8571428571428571
 40
0.8571428571428571
 40
0.8571428571428571
 40
0.9047619047619048
 40
0.9047619047619048
 40
0.9047619047619048
 40
0.9047619047619048
 40
1.0
 40
1.0
 40
1.0
 40
1.0
 10
61.1661
 20
52.3702
 30
0.0
 10
61.403
 20
52.372
 30
0.0
 10
61.6417
 20
52.3774
 30
0.0
 10
61.8787
 20
52.3843
 30
0.0
 10
61.8787
 20
52.3843
 30
0.0
 10
64.3702
 20
58.6146
 30
0.0
 10
68.5186
 20
63.9513
 30
0.0
 10
72.5502
 20
69.2426
 30
0.0
 10
72.5502
 20
69.2426
 30
0.0
 10
73.5555
 20
70.5477
 30
0.0
 10
74.5747
 20
71.8962
 30
0.0
 10
75.1252
 20
73.4695
 30
0.0
 10
75.1252
 20
73.4695
 30
0.0
 10
75.6934
 20
75.1212
 30
0.0
 10
75.4581
 20
76.8982
 30
0.0
 10
75.2124
 20
78.5934
 30
0.0
 10
75.2124
 20
78.5934
 30
0.0
 10
76.2821
 20
78.5325
 30
0.0
 10
77.1951
 20
78.0063
 30
0.0
 10
77.9966
 20
77.3391
 30
0.0
 10
77.9966
 20
77.3391
 30
0.0
 10
78.7005
 20
79.416
 30
0.0
 10
78.5228
 20
81.8829
 30
0.0
 10
77.1237
 20
83.6321
 30
0.0
 10
77.1237
 20
83.6321
 30
0.0
 10
75.7628
 20
84.7297
 30
0.0
 10
73.9196
 20
84.8797
 30
0.0
 10
72.2558
 20
85.0852
 30
0.0
 10
72.2558
 20
85.0852
 30
0.0
 10
72.8255
 20
86.0348
 30
0.0
 10
73.653
 20
86.7857
 30
0.0
 10
74.6409
 20
87.2892
 30
0.0
 10
74.6409
 20
87.2892
 30
0.0
 10
73.5816
 20
88.9724
 30
0.0
 10
72.6685
 20
90.793
 30
0.0
 10
71.179
 20
92.1555
 30
0.0
 10
71.179
 20
92.1555
 30
0.0
 10
68.4995
 20
94.8264
 30
0.0
 10
64.7693
 20
96.3283
 30
0.0
 10
60.9919
 20
96.3334
 30
0.0
 10
60.9919
 20
96.3334
 30
0.0
 10
61.1642
 20
93.7321
 30
0.0
 10
61.4502
 20
91.1414
 30
0.0
 10
61.7549
 20
88.5542
 30
0.0
 10
61.7549
 20
88.5542
 30
0.0
 10
62.5042
 20
88.4096
 30
0.0
 10
63.6401
 20
88.3397
 30
0.0
 10
63.7847
 20
87.3781
 30
0.0
 10
63.7847
 20
87.3781
 30
0.0
 10
63.9833
 20
85.371
 30
0.0
 10
63.2255
 20
83.4335
 30
0.0
 10
62.9991
 20
81.4682
 30
0.0
 10
62.9991
 20
81.4682
 30
0.0
 10
62.9693
 20
80.8306
 30
0.0
 10
63.2359
 20
79.9524
 30
0.0
 10
63.9816
 20
79.8966
 30
0.0
 10
63.9816
 20
79.8966
 30
0.0
 10
65.9852
 20
79.9333
 30
0.0
 10
67.8147
 20
80.9963
 30
0.0
 10
69.2415
 20
82.3394
 30
0.0
 10
69.2415
 20
82.3394
 30
0.0
 10
69.475
 20
80.578
 30
0.0
 10
69.4576
 20
78.6701
 30
0.0
 10
68.5237
 20
77.1056
 30
0.0
 10
68.5237
 20
77.1056
 30
0.0
 10
67.6962
 20
75.4905
 30
0.0
 10
66.1334
 20
74.4938
 30
0.0
 10
64.7465
 20
73.4154
 30
0.0
 10
64.7465
 20
73.4154
 30
0.0
 10
65.7691
 20
72.9503
 30
0.0
 10
66.8459
 20
73.4363
 30
0.0
 10
67.8512
 20
73.7342
 30
0.0
 10
67.8512
 20
73.7342
 30
0.0
 10
66.3512
 20
70.0388
 30
0.0
 10
64.3579
 20
66.5665
 30
0.0
 10
62.9031
 20
62.852
 30
0.0
 10
62.9031
 20
62.852
 30
0.0
 10
61.5475
 20
59.5451
 30
0.0
 10
60.7863
 20
55.9508
 30
0.0
 10
61.1661
 20
52.3702
 30
0.0
  0
SPLINE
  5
4D
330
1F
100
AcDbEntity
  8
layer 1
 62
     7
370
     9
100
AcDbSpline
210
0.0
220
0.0
230
1.0
 70
    11
 71
     3
 72
    84
 73
    80
 74
     0
 42
0.0000000001
 43
0.0000000001
 12
1.0
 22
0.0
 32
0.0
 13
1.0
 23
0.0
 33
0.0
 40
0.0
 40
0.0
 40
0.0
 40
0.0
 40
0.0476190476190476
 40
0.0476190476190476
 40
0.0476190476190476
 40
0.0476190476190476
 40
0.0952380952380952
 40
0.0952380952380952
 40
0.0952380952380952
 40
0.0952380952380952
 40
0.1428571428571428
 40
0.1428571428571428
 40
0.1428571428571428
 40
0.1428571428571428
 40
0.1904761904761905
 40
0.1904761904761905
 40
0.1904761904761905
 40
0.1904761904761905
 40
0.2380952380952381
 40
0.2380952380952381
 40
0.2380952380952381
 40
0.2380952380952381
 40
0.2857142857142857
 40
0.2857142857142857
 40
0.2857142857142857
 40
0.2857142857142857
 40
0.3333333333333333
 40
0.3333333333333333
 40
0.3333333333333333
 40
0.3333333333333333
 40
0.3809523809523809
 40
0.3809523809523809
 40
0.3809523809523809
 40
0.3809523809523809
 40
0.4285714285714285
 40
0.4285714285714285
 40
0.4285714285714285
 40
0.4285714285714285
 40
0.4761904761904762
 40
0.4761904761904762
 40
0.4761904761904762
 40
0.4761904761904762
 40
0.5238095238095238
 40
0.5238095238095238
 40
0.5238095238095238
 40
0.5238095238095238
 40
0.5714285714285714
 40
0.5714285714285714
 40
0.5714285714285714
 40
0.5714285714285714
 40
0.6190476190476191
 40
0.6190476190476191
 40
0.6190476190476191
 40
0.6190476190476191
 40
0.6666666666666666
 40
0.6666666666666666
 40
0.6666666666666666
 40
0.6666666666666666
 40
0.7142857142857143
 40
0.7142857142857143
 40
0.7142857142857143
 40
0.7142857142857143
 40
0.7619047619047619
 40
0.7619047619047619
 40
0.7619047619047619
 40
0.7619047619047619
 40
0.8095238095238095
 40
0.8095238095238095
 40
0.8095238095238095
 40
0.8095238095238095
 40
0.8571428571428571
 40
0.8571428571428571
 40
0.8571428571428571
 40
0.8571428571428571
 40
0.9047619047619048
 40
0.9047619047619048
 40
0.9047619047619048
 40
0.9047619047619048
 40
1.0
 40
1.0
 40
1.0
 40
1.0
 10
60.9814
 20
-83.204
 30
0.0
 10
65.7221
 20
-83.3678
 30
0.0
 10
70.5012
 20
-80.9285
 30
0.0
 10
73.0119
 20
-76.8813
 30
0.0
 10
73.0119
 20
-76.8813
 30
0.0
 10
73.5955
 20
-76.0276
 30
0.0
 10
73.972
 20
-74.9909
 30
0.0
 10
74.7978
 20
-74.3288
 30
0.0
 10
74.7978
 20
-74.3288
 30
0.0
 10
73.6984
 20
-73.8392
 30
0.0
 10
72.7905
 20
-73.0186
 30
0.0
 10
72.2278
 20
-71.954
 30
0.0
 10
72.2278
 20
-71.954
 30
0.0
 10
74.0573
 20
-71.9
 30
0.0
 10
76.0608
 20
-71.6945
 30
0.0
 10
77.3919
 20
-70.2832
 30
0.0
 10
77.3919
 20
-70.2832
 30
0.0
 10
78.5731
 20
-68.4834
 30
0.0
 10
78.6254
 20
-66.2412
 30
0.0
 10
77.9669
 20
-64.241
 30
0.0
 10
77.9669
 20
-64.241
 30
0.0
 10
77.209
 20
-64.9745
 30
0.0
 10
76.2421
 20
-65.4553
 30
0.0
 10
75.2246
 20
-65.7131
 30
0.0
 10
75.2246
 20
-65.7131
 30
0.0
 10
75.4388
 20
-63.9534
 30
0.0
 10
75.6863
 20
-62.1189
 30
0.0
 10
75.0783
 20
-60.4027
 30
0.0
 10
75.0783
 20
-60.4027
 30
0.0
 10
74.4022
 20
-58.3797
 30
0.0
 10
72.8935
 20
-56.7979
 30
0.0
 10
71.6703
 20
-55.0975
 30
0.0
 10
71.6703
 20
-55.0975
 30
0.0
 10
67.8807
 20
-50.1685
 30
0.0
 10
64.1854
 20
-45.081
 30
0.0
 10
61.8386
 20
-39.2794
 30
0.0
 10
61.8386
 20
-39.2794
 30
0.0
 10
61.633
 20
-39.2984
 30
0.0
 10
61.4273
 20
-39.3175
 30
0.0
 10
61.2219
 20
-39.3385
 30
0.0
 10
61.2219
 20
-39.3385
 30
0.0
 10
60.9675
 20
-41.6503
 30
0.0
 10
61.1226
 20
-44.0009
 30
0.0
 10
61.7131
 20
-46.2519
 30
0.0
 10
61.7131
 20
-46.2519
 30
0.0
 10
63.0233
 20
-51.3532
 30
0.0
 10
65.8842
 20
-55.8483
 30
0.0
 10
67.8478
 20
-60.6937
 30
0.0
 10
67.8478
 20
-60.6937
 30
0.0
 10
66.8634
 20
-60.3207
 30
0.0
 10
65.8198
 20
-60.1169
 30
0.0
 10
64.7693
 20
-60.3331
 30
0.0
 10
64.7693
 20
-60.3331
 30
0.0
 10
66.3423
 20
-61.6171
 30
0.0
 10
68.1109
 20
-62.9063
 30
0.0
 10
68.8948
 20
-64.8526
 30
0.0
 10
68.8948
 20
-64.8526
 30
0.0
 10
69.5028
 20
-66.2602
 30
0.0
 10
69.3773
 20
-67.8021
 30
0.0
 10
69.2172
 20
-69.2849
 30
0.0
 10
69.2172
 20
-69.2849
 30
0.0
 10
67.8633
 20
-68.1664
 30
0.0
 10
66.358
 20
-67.1158
 30
0.0
 10
64.5721
 20
-66.8752
 30
0.0
 10
64.5721
 20
-66.8752
 30
0.0
 10
63.7185
 20
-66.6436
 30
0.0
 10
62.884
 20
-67.5426
 30
0.0
 10
63.0303
 20
-68.3947
 30
0.0
 10
63.0303
 20
-68.3947
 30
0.0
 10
63.1244
 20
-70.5114
 30
0.0
 10
64.1993
 20
-72.5585
 30
0.0
 10
63.6975
 20
-74.7016
 30
0.0
 10
63.6975
 20
-74.7016
 30
0.0
 10
63.363
 20
-75.4196
 30
0.0
 10
62.3595
 20
-75.3741
 30
0.0
 10
61.7478
 20
-75.6653
 30
0.0
 10
61.7478
 20
-75.6653
 30
0.0
 10
61.4502
 20
-78.174
 30
0.0
 10
61.1068
 20
-80.6813
 30
0.0
 10
60.9814
 20
-83.204
 30
0.0
  0
SPLINE
  5
4E
330
1F
100
AcDbEntity
  8
layer 1
 62
     7
370
     9
100
AcDbSpline
210
0.0
220
0.0
230
1.0
 70
    11
 71
     3
 72
    84
 73
    80
 74
     0
 42
0.0000000001
 43
0.0000000001
 12
1.0
 22
0.0
 32
0.0
 13
1.0
 23
0.0
 33
0.0
 40
0.0
 40
0.0
 40
0.0
 40
0.0
 40
0.0476190476190476
 40
0.0476190476190476
 40
0.0476190476190476
 40
0.0476190476190476
 40
0.0952380952380952
 40
0.0952380952380952
 40
0.0952380952380952
 40
0.0952380952380952
 40
0.1428571428571428
 40
0.1428571428571428
 40
0.1428571428571428
 40
0.1428571428571428
 40
0.1904761904761905
 40
0.1904761904761905
 40
0.1904761904761905
 40
0.1904761904761905
 40
0.2380952380952381
 40
0.2380952380952381
 40
0.2380952380952381
 40
0.2380952380952381
 40
0.2857142857142857
 40
0.2857142857142857
 40
0.2857142857142857
 40
0.2857142857142857
 40
0.3333333333333333
 40
0.3333333333333333
 40
0.3333333333333333
 40
0.3333333333333333
 40
0.3809523809523809
 40
0.3809523809523809
 40
0.3809523809523809
 40
0.3809523809523809
 40
0.4285714285714285
 40
0.4285714285714285
 40
0.4285714285714285
 40
0.4285714285714285
 40
0.4761904761904762
 40
0.4761904761904762
 40
0.4761904761904762
 40
0.4761904761904762
 40
0.5238095238095238
 40
0.5238095238095238
 40
0.5238095238095238
 40
0.5238095238095238
 40
0.5714285714285714
 40
0.5714285714285714
 40
0.5714285714285714
 40
0.5714285714285714
 40
0.6190476190476191
 40
0.6190476190476191
 40
0.6190476190476191
 40
0.6190476190476191
 40
0.6666666666666666
 40
0.6666666666666666
 40
0.6666666666666666
 40
0.6666666666666666
 40
0.7142857142857143
 40
0.7142857142857143
 40
0.7142857142857143
 40
0.7142857142857143
 40
0.7619047619047619
 40
0.7619047619047619
 40
0.7619047619047619
 40
0.7619047619047619
 40
0.8095238095238095
 40
0.8095238095238095
 40
0.8095238095238095
 40
0.8095238095238095
 40
0.8571428571428571
 40
0.8571428571428571
 40
0.8571428571428571
 40
0.8571428571428571
 40
0.9047619047619048
 40
0.9047619047619048
 40
0.9047619047619048
 40
0.9047619047619048
 40
1.0
 40
1.0
 40
1.0
 40
1.0
 10
40.3892
 20
77.2971
 30
0.0
 10
41.135
 20
77.9768
 30
0.0
 10
42.0671
 20
78.3879
 30
0.0
 10
43.0376
 20
78.644
 30
0.0
 10
43.0376
 20
78.644
 30
0.0
 10
42.8982
 20
76.6979
 30
0.0
 10
42.7064
 20
74.6594
 30
0.0
 10
43.482
 20
72.8213
 30
0.0
 10
43.482
 20
72.8213
 30
0.0
 10
43.9469
 20
71.8229
 30
0.0
 10
44.5533
 20
70.8977
 30
0.0
 10
45.2084
 20
70.0196
 30
0.0
 10
45.2084
 20
70.0196
 30
0.0
 10
49.4788
 20
64.4951
 30
0.0
 10
53.8293
 20
58.9004
 30
0.0
 10
56.4846
 20
52.3825
 30
0.0
 10
56.4846
 20
52.3825
 30
0.0
 10
56.7215
 20
52.3756
 30
0.0
 10
56.9585
 20
52.3702
 30
0.0
 10
57.1972
 20
52.3669
 30
0.0
 10
57.1972
 20
52.3669
 30
0.0
 10
57.1814
 20
54.5412
 30
0.0
 10
57.2669
 20
56.754
 30
0.0
 10
56.7319
 20
58.883
 30
0.0
 10
56.7319
 20
58.883
 30
0.0
 10
55.4879
 20
64.1204
 30
0.0
 10
52.533
 20
68.7007
 30
0.0
 10
50.5626
 20
73.661
 30
0.0
 10
50.5626
 20
73.661
 30
0.0
 10
51.538
 20
73.3857
 30
0.0
 10
52.5905
 20
72.9239
 30
0.0
 10
53.5748
 20
73.4398
 30
0.0
 10
53.5748
 20
73.4398
 30
0.0
 10
52.0557
 20
74.5287
 30
0.0
 10
50.4701
 20
75.6994
 30
0.0
 10
49.6792
 20
77.454
 30
0.0
 10
49.6792
 20
77.454
 30
0.0
 10
48.862
 20
78.9542
 30
0.0
 10
49.0153
 20
80.7139
 30
0.0
 10
49.1253
 20
82.3568
 30
0.0
 10
49.1253
 20
82.3568
 30
0.0
 10
50.599
 20
81.0188
 30
0.0
 10
52.3955
 20
79.7504
 30
0.0
 10
54.5053
 20
79.9558
 30
0.0
 10
54.5053
 20
79.9558
 30
0.0
 10
55.2944
 20
80.1372
 30
0.0
 10
55.4043
 20
81.1581
 30
0.0
 10
55.2441
 20
81.8096
 30
0.0
 10
55.2441
 20
81.8096
 30
0.0
 10
55.2247
 20
83.7628
 30
0.0
 10
54.0766
 20
85.6793
 30
0.0
 10
54.6777
 20
87.629
 30
0.0
 10
54.6777
 20
87.629
 30
0.0
 10
54.9477
 20
88.4201
 30
0.0
 10
55.9757
 20
88.4181
 30
0.0
 10
56.6273
 20
88.5925
 30
0.0
 10
56.6273
 20
88.5925
 30
0.0
 10
56.8923
 20
91.1711
 30
0.0
 10
57.218
 20
93.7461
 30
0.0
 10
57.3992
 20
96.3334
 30
0.0
 10
57.3992
 20
96.3334
 30
0.0
 10
54.7249
 20
96.1888
 30
0.0
 10
51.9721
 20
95.6819
 30
0.0
 10
49.7088
 20
94.1696
 30
0.0
 10
49.7088
 20
94.1696
 30
0.0
 10
47.0083
 20
92.5947
 30
0.0
 10
45.2554
 20
89.9218
 30
0.0
 10
43.71
 20
87.2908
 30
0.0
 10
43.71
 20
87.2908
 30
0.0
 10
44.7154
 20
86.7979
 30
0.0
 10
45.4645
 20
85.9719
 30
0.0
 10
46.1283
 20
85.0939
 30
0.0
 10
46.1283
 20
85.0939
 30
0.0
 10
44.3808
 20
84.857
 30
0.0
 10
42.4435
 20
84.7385
 30
0.0
 10
41.0618
 20
83.4893
 30
0.0
 10
41.0618
 20
83.4893
 30
0.0
 10
39.8439
 20
81.6652
 30
0.0
 10
39.7221
 20
79.3497
 30
0.0
 10
40.3892
 20
77.2971
 30
0.0
  0
SPLINE
  5
4F
330
1F
100
AcDbEntity
  8
layer 1
 62
     7
370
     9
100
AcDbSpline
210
0.0
220
0.0
230
1.0
 70
    11
 71
     3
 72
    88
 73
    84
 74
     0
 42
0.0000000001
 43
0.0000000001
 12
1.0
 22
0.0
 32
0.0
 13
1.0
 23
0.0
 33
0.0
 40
0.0
 40
0.0
 40
0.0
 40
0.0
 40
0.0454545454545455
 40
0.0454545454545455
 40
0.0454545454545455
 40
0.0454545454545455
 40
0.0909090909090909
 40
0.0909090909090909
 40
0.0909090909090909
 40
0.0909090909090909
 40
0.1363636363636364
 40
0.1363636363636364
 40
0.1363636363636364
 40
0.1363636363636364
 40
0.1818181818181818
 40
0.1818181818181818
 40
0.1818181818181818
 40
0.1818181818181818
 40
0.2272727272727273
 40
0.2272727272727273
 40
0.2272727272727273
 40
0.2272727272727273
 40
0.2727272727272727
 40
0.2727272727272727
 40
0.2727272727272727
 40
0.2727272727272727
 40
0.3181818181818182
 40
0.3181818181818182
 40
0.3181818181818182
 40
0.3181818181818182
 40
0.3636363636363636
 40
0.3636363636363636
 40
0.3636363636363636
 40
0.3636363636363636
 40
0.4090909090909091
 40
0.4090909090909091
 40
0.4090909090909091
 40
0.4090909090909091
 40
0.4545454545454545
 40
0.4545454545454545
 40
0.4545454545454545
 40
0.4545454545454545
 40
0.5
 40
0.5
 40
0.5
 40
0.5
 40
0.5454545454545454
 40
0.5454545454545454
 40
0.5454545454545454
 40
0.5454545454545454
 40
0.5909090909090909
 40
0.5909090909090909
 40
0.5909090909090909
 40
0.5909090909090909
 40
0.6363636363636364
 40
0.6363636363636364
 40
0.6363636363636364
 40
0.6363636363636364
 40
0.6818181818181818
 40
0.6818181818181818
 40
0.6818181818181818
 40
0.6818181818181818
 40
0.7272727272727273
 40
0.7272727272727273
 40
0.7272727272727273
 40
0.7272727272727273
 40
0.7727272727272727
 40
0.7727272727272727
 40
0.7727272727272727
 40
0.7727272727272727
 40
0.8181818181818182
 40
0.8181818181818182
 40
0.8181818181818182
 40
0.8181818181818182
 40
0.8636363636363636
 40
0.8636363636363636
 40
0.8636363636363636
 40
0.8636363636363636
 40
0.9090909090909091
 40
0.9090909090909091
 40
0.9090909090909091
 40
0.9090909090909091
 40
1.0
 40
1.0
 40
1.0
 40
1.0
 10
40.0269
 20
-67.5932
 30
0.0
 10
40.1908
 20
-68.757
 30
0.0
 10
40.4938
 20
-70.0653
 30
0.0
 10
41.5218
 20
-70.785
 30
0.0
 10
41.5218
 20
-70.785
 30
0.0
 10
42.8405
 20
-71.7712
 30
0.0
 10
44.5238
 20
-71.9733
 30
0.0
 10
46.1214
 20
-71.942
 30
0.0
 10
46.1214
 20
-71.942
 30
0.0
 10
45.59
 20
-73.0204
 30
0.0
 10
44.6527
 20
-73.8165
 30
0.0
 10
43.5621
 20
-74.3027
 30
0.0
 10
43.5621
 20
-74.3027
 30
0.0
 10
44.1841
 20
-74.7697
 30
0.0
 10
44.501
 20
-75.4909
 30
0.0
 10
44.8828
 20
-76.1425
 30
0.0
 10
44.8828
 20
-76.1425
 30
0.0
 10
47.3287
 20
-80.5401
 30
0.0
 10
52.3205
 20
-83.4515
 30
0.0
 10
57.3748
 20
-83.211
 30
0.0
 10
57.3748
 20
-83.211
 30
0.0
 10
57.1744
 20
-80.6933
 30
0.0
 10
56.9079
 20
-78.1811
 30
0.0
 10
56.5943
 20
-75.6756
 30
0.0
 10
56.5943
 20
-75.6756
 30
0.0
 10
55.9271
 20
-75.3812
 30
0.0
 10
54.7562
 20
-75.3602
 30
0.0
 10
54.5923
 20
-74.4455
 30
0.0
 10
54.5923
 20
-74.4455
 30
0.0
 10
54.2613
 20
-72.1022
 30
0.0
 10
55.4217
 20
-69.8354
 30
0.0
 10
55.3538
 20
-67.4852
 30
0.0
 10
55.3538
 20
-67.4852
 30
0.0
 10
54.8693
 20
-67.2324
 30
0.0
 10
54.4008
 20
-66.7167
 30
0.0
 10
53.8049
 20
-66.8771
 30
0.0
 10
53.8049
 20
-66.8771
 30
0.0
 10
52.0208
 20
-67.1298
 30
0.0
 10
50.477
 20
-68.1402
 30
0.0
 10
49.1077
 20
-69.2518
 30
0.0
 10
49.1077
 20
-69.2518
 30
0.0
 10
48.937
 20
-67.6088
 30
0.0
 10
48.9248
 20
-65.8631
 30
0.0
 10
49.7105
 20
-64.3681
 30
0.0
 10
49.7105
 20
-64.3681
 30
0.0
 10
50.498
 20
-62.6119
 30
0.0
 10
52.129
 20
-61.4586
 30
0.0
 10
53.6011
 20
-60.3156
 30
0.0
 10
53.6011
 20
-60.3156
 30
0.0
 10
52.5591
 20
-60.2302
 30
0.0
 10
51.5121
 20
-60.3331
 30
0.0
 10
50.5242
 20
-60.6763
 30
0.0
 10
50.5242
 20
-60.6763
 30
0.0
 10
52.6516
 20
-55.3865
 30
0.0
 10
55.8731
 20
-50.4908
 30
0.0
 10
56.969
 20
-44.8196
 30
0.0
 10
56.969
 20
-44.8196
 30
0.0
 10
57.3035
 20
-43.06
 30
0.0
 10
57.1589
 20
-41.255
 30
0.0
 10
57.1884
 20
-39.4727
 30
0.0
 10
57.1884
 20
-39.4727
 30
0.0
 10
56.9619
 20
-39.3996
 30
0.0
 10
56.7353
 20
-39.3263
 30
0.0
 10
56.509
 20
-39.253
 30
0.0
 10
56.509
 20
-39.253
 30
0.0
 10
54.0592
 20
-45.5166
 30
0.0
 10
49.8744
 20
-50.8516
 30
0.0
 10
45.8566
 20
-56.1654
 30
0.0
 10
45.8566
 20
-56.1654
 30
0.0
 10
44.7451
 20
-57.6639
 30
0.0
 10
43.4454
 20
-59.1587
 30
0.0
 10
43.0933
 20
-61.0509
 30
0.0
 10
43.0933
 20
-61.0509
 30
0.0
 10
42.6874
 20
-62.5665
 30
0.0
 10
42.9975
 20
-64.1537
 30
0.0
 10
43.0098
 20
-65.6975
 30
0.0
 10
43.0098
 20
-65.6975
 30
0.0
 10
42.0619
 20
-65.396
 30
0.0
 10
41.1436
 20
-64.9519
 30
0.0
 10
40.4241
 20
-64.2514
 30
0.0
 10
40.4241
 20
-64.2514
 30
0.0
 10
40.0706
 20
-65.3247
 30
0.0
 10
39.837
 20
-66.4572
 30
0.0
 10
40.0269
 20
-67.5932
 30
0.0
  0
SPLINE
  5
50
330
1F
100
AcDbEntity
  8
layer 1
 62
     7
370
     9
100
AcDbSpline
210
0.0
220
0.0
230
1.0
 70
    11
 71
     3
 72
    64
 73
    60
 74
     0
 42
0.0000000001
 43
0.0000000001
 12
1.0
 22
0.0
 32
0.0
 13
1.0
 23
0.0
 33
0.0
 40
0.0
 40
0.0
 40
0.0
 40
0.0
 40
0.0625
 40
0.0625
 40
0.0625
 40
0.0625
 40
0.125
 40
0.125
 40
0.125
 40
0.125
 40
0.1875
 40
0.1875
 40
0.1875
 40
0.1875
 40
0.25
 40
0.25
 40
0.25
 40
0.25
 40
0.3125
 40
0.3125
 40
0.3125
 40
0.3125
 40
0.375
 40
0.375
 40
0.375
 40
0.375
 40
0.4375
 40
0.4375
 40
0.4375
 40
0.4375
 40
0.5
 40
0.5
 40
0.5
 40
0.5
 40
0.5625
 40
0.5625
 40
0.5625
 40
0.5625
 40
0.625
 40
0.625
 40
0.625
 40
0.625
 40
0.6875
 40
0.6875
 40
0.6875
 40
0.6875
 40
0.75
 40
0.75
 40
0.75
 40
0.75
 40
0.8125
 40
0.8125
 40
0.8125
 40
0.8125
 40
0.875
 40
0.875
 40
0.875
 40
0.875
 40
1.0
 40
1.0
 40
1.0
 40
1.0
 10
39.539
 20
6.4386
 30
0.0
 10
43.9017
 20
6.2119
 30
0.0
 10
48.2348
 20
5.5689
 30
0.0
 10
52.5086
 20
4.6838
 30
0.0
 10
52.5086
 20
4.6838
 30
0.0
 10
53.4565
 20
4.4731
 30
0.0
 10
54.4408
 20
4.3076
 30
0.0
 10
55.2667
 20
3.7571
 30
0.0
 10
55.2667
 20
3.7571
 30
0.0
 10
56.2738
 20
3.3474
 30
0.0
 10
56.6727
 20
2.2639
 30
0.0
 10
56.9933
 20
1.3213
 30
0.0
 10
56.9933
 20
1.3213
 30
0.0
 10
58.2128
 20
-3.4334
 30
0.0
 10
58.8313
 20
-8.3152
 30
0.0
 10
59.1973
 20
-13.2024
 30
0.0
 10
59.1973
 20
-13.2024
 30
0.0
 10
59.5371
 20
-8.5521
 30
0.0
 10
60.1591
 20
-3.916
 30
0.0
 10
61.1818
 20
0.6348
 30
0.0
 10
61.1818
 20
0.6348
 30
0.0
 10
61.4468
 20
1.9242
 30
0.0
 10
62.0598
 20
3.3005
 30
0.0
 10
63.2917
 20
3.9225
 30
0.0
 10
63.2917
 20
3.9225
 30
0.0
 10
64.4102
 20
4.4697
 30
0.0
 10
65.6718
 20
4.6055
 30
0.0
 10
66.872
 20
4.8877
 30
0.0
 10
66.872
 20
4.8877
 30
0.0
 10
70.759
 20
5.731
 30
0.0
 10
74.7122
 20
6.2328
 30
0.0
 10
78.6795
 20
6.4925
 30
0.0
 10
78.6795
 20
6.4925
 30
0.0
 10
73.6914
 20
7.0081
 30
0.0
 10
68.6684
 20
7.522
 30
0.0
 10
63.8195
 20
8.855
 30
0.0
 10
63.8195
 20
8.855
 30
0.0
 10
62.166
 20
9.3865
 30
0.0
 10
61.3489
 20
11.1408
 30
0.0
 10
61.0963
 20
12.749
 30
0.0
 10
61.0963
 20
12.749
 30
0.0
 10
60.0876
 20
17.2059
 30
0.0
 10
59.4308
 20
21.7408
 30
0.0
 10
59.1782
 20
26.304
 30
0.0
 10
59.1782
 20
26.304
 30
0.0
 10
58.7807
 20
21.4239
 30
0.0
 10
58.1869
 20
16.5367
 30
0.0
 10
57.0038
 20
11.7785
 30
0.0
 10
57.0038
 20
11.7785
 30
0.0
 10
56.758
 20
10.3533
 30
0.0
 10
55.6553
 20
9.1842
 30
0.0
 10
54.2893
 20
8.754
 30
0.0
 10
54.2893
 20
8.754
 30
0.0
 10
49.463
 20
7.4978
 30
0.0
 10
44.4941
 20
6.9262
 30
0.0
 10
39.539
 20
6.4384
 30
0.0
 10
39.539
 20
6.4384
 30
0.0
 10
39.539
 20
6.4384
 30
0.0
 10
39.539
 20
6.4386
 30
0.0
 10
39.539
 20
6.4386
 30
0.0
  0
SPLINE
  5
51
330
1F
100
AcDbEntity
  8
layer 1
 62
     7
370
     9
100
AcDbSpline
210
0.0
220
0.0
230
1.0
 70
    11
 71
     3
 72
    60
 73
    56
 74
     0
 42
0.0000000001
 43
0.0000000001
 12
1.0
 22
0.0
 32
0.0
 13
1.0
 23
0.0
 33
0.0
 40
0.0
 40
0.0
 40
0.0
 40
0.0
 40
0.0666666666666667
 40
0.0666666666666667
 40
0.0666666666666667
 40
0.0666666666666667
 40
0.1333333333333333
 40
0.1333333333333333
 40
0.1333333333333333
 40
0.1333333333333333
 40
0.2
 40
0.2
 40
0.2
 40
0.2
 40
0.2666666666666667
 40
0.2666666666666667
 40
0.2666666666666667
 40
0.2666666666666667
 40
0.3333333333333333
 40
0.3333333333333333
 40
0.3333333333333333
 40
0.3333333333333333
 40
0.4
 40
0.4
 40
0.4
 40
0.4
 40
0.4666666666666667
 40
0.4666666666666667
 40
0.4666666666666667
 40
0.4666666666666667
 40
0.5333333333333333
 40
0.5333333333333333
 40
0.5333333333333333
 40
0.5333333333333333
 40
0.6
 40
0.6
 40
0.6
 40
0.6
 40
0.6666666666666666
 40
0.6666666666666666
 40
0.6666666666666666
 40
0.6666666666666666
 40
0.7333333333333333
 40
0.7333333333333333
 40
0.7333333333333333
 40
0.7333333333333333
 40
0.8
 40
0.8
 40
0.8
 40
0.8
 40
0.8666666666666667
 40
0.8666666666666667
 40
0.8666666666666667
 40
0.8666666666666667
 40
1.0
 40
1.0
 40
1.0
 40
1.0
 10
26.6706
 20
9.1458
 30
0.0
 10
27.5383
 20
9.8619
 30
0.0
 10
28.4006
 20
10.5885
 30
0.0
 10
29.3205
 20
11.2401
 30
0.0
 10
29.3205
 20
11.2401
 30
0.0
 10
31.8015
 20
12.8292
 30
0.0
 10
34.8507
 20
13.5173
 30
0.0
 10
37.7757
 20
13.1775
 30
0.0
 10
37.7757
 20
13.1775
 30
0.0
 10
36.0563
 20
15.1725
 30
0.0
 10
35.7792
 20
18.1586
 30
0.0
 10
37.1383
 20
20.422
 30
0.0
 10
37.1383
 20
20.422
 30
0.0
 10
39.0111
 20
19.9986
 30
0.0
 10
40.6977
 20
18.8905
 30
0.0
 10
41.8233
 20
17.3312
 30
0.0
 10
41.8233
 20
17.3312
 30
0.0
 10
43.5324
 20
14.9565
 30
0.0
 10
46.313
 20
13.5418
 30
0.0
 10
49.1791
 20
13.2072
 30
0.0
 10
49.1791
 20
13.2072
 30
0.0
 10
50.0519
 20
13.2108
 30
0.0
 10
51.0887
 20
13.0729
 30
0.0
 10
51.8292
 20
13.6549
 30
0.0
 10
51.8292
 20
13.6549
 30
0.0
 10
52.479
 20
14.2874
 30
0.0
 10
52.608
 20
15.2685
 30
0.0
 10
52.4649
 20
16.1272
 30
0.0
 10
52.4649
 20
16.1272
 30
0.0
 10
52.3274
 20
19.0091
 30
0.0
 10
50.9685
 20
21.868
 30
0.0
 10
48.613
 20
23.5842
 30
0.0
 10
48.613
 20
23.5842
 30
0.0
 10
46.9491
 20
24.7708
 30
0.0
 10
45.745
 20
26.527
 30
0.0
 10
45.2591
 20
28.5115
 30
0.0
 10
45.2591
 20
28.5115
 30
0.0
 10
47.4753
 20
29.982
 30
0.0
 10
50.5034
 20
29.6282
 30
0.0
 10
52.4634
 20
27.8511
 30
0.0
 10
52.4634
 20
27.8511
 30
0.0
 10
52.5172
 20
29.2188
 30
0.0
 10
52.4373
 20
30.6127
 30
0.0
 10
52.6862
 20
31.9698
 30
0.0
 10
52.6862
 20
31.9698
 30
0.0
 10
53.1201
 20
34.66
 30
0.0
 10
54.7423
 20
36.9599
 30
0.0
 10
56.4863
 20
38.979
 30
0.0
 10
56.4863
 20
38.979
 30
0.0
 10
50.6793
 20
38.5331
 30
0.0
 10
45.0081
 20
36.4441
 30
0.0
 10
40.2952
 20
33.024
 30
0.0
 10
40.2952
 20
33.024
 30
0.0
 10
32.5542
 20
27.569
 30
0.0
 10
27.3937
 20
18.5996
 30
0.0
 10
26.6706
 20
9.1458
 30
0.0
  0
SPLINE
  5
52
330
1F
100
AcDbEntity
  8
layer 1
 62
     7
370
     9
100
AcDbSpline
210
0.0
220
0.0
230
1.0
 70
    11
 71
     3
 72
    68
 73
    64
 74
     0
 42
0.0000000001
 43
0.0000000001
 12
1.0
 22
0.0
 32
0.0
 13
1.0
 23
0.0
 33
0.0
 40
0.0
 40
0.0
 40
0.0
 40
0.0
 40
0.0588235294117647
 40
0.0588235294117647
 40
0.0588235294117647
 40
0.0588235294117647
 40
0.1176470588235294
 40
0.1176470588235294
 40
0.1176470588235294
 40
0.1176470588235294
 40
0.1764705882352941
 40
0.1764705882352941
 40
0.1764705882352941
 40
0.1764705882352941
 40
0.2352941176470588
 40
0.2352941176470588
 40
0.2352941176470588
 40
0.2352941176470588
 40
0.2941176470588235
 40
0.2941176470588235
 40
0.2941176470588235
 40
0.2941176470588235
 40
0.3529411764705883
 40
0.3529411764705883
 40
0.3529411764705883
 40
0.3529411764705883
 40
0.4117647058823529
 40
0.4117647058823529
 40
0.4117647058823529
 40
0.4117647058823529
 40
0.4705882352941176
 40
0.4705882352941176
 40
0.4705882352941176
 40
0.4705882352941176
 40
0.5294117647058824
 40
0.5294117647058824
 40
0.5294117647058824
 40
0.5294117647058824
 40
0.5882352941176471
 40
0.5882352941176471
 40
0.5882352941176471
 40
0.5882352941176471
 40
0.6470588235294118
 40
0.6470588235294118
 40
0.6470588235294118
 40
0.6470588235294118
 40
0.7058823529411765
 40
0.7058823529411765
 40
0.7058823529411765
 40
0.7058823529411765
 40
0.7647058823529411
 40
0.7647058823529411
 40
0.7647058823529411
 40
0.7647058823529411
 40
0.8235294117647058
 40
0.8235294117647058
 40
0.8235294117647058
 40
0.8235294117647058
 40
0.8823529411764706
 40
0.8823529411764706
 40
0.8823529411764706
 40
0.8823529411764706
 40
1.0
 40
1.0
 40
1.0
 40
1.0
 10
32.1013
 20
-11.5646
 30
0.0
 10
37.5145
 20
-19.809
 30
0.0
 10
46.8602
 20
-25.2695
 30
0.0
 10
56.6815
 20
-26.0379
 30
0.0
 10
56.6815
 20
-26.0379
 30
0.0
 10
55.7213
 20
-24.9993
 30
0.0
 10
54.7892
 20
-23.9244
 30
0.0
 10
54.0557
 20
-22.7084
 30
0.0
 10
54.0557
 20
-22.7084
 30
0.0
 10
52.6444
 20
-20.3093
 30
0.0
 10
52.3205
 20
-17.4642
 30
0.0
 10
52.4649
 20
-14.7288
 30
0.0
 10
52.4649
 20
-14.7288
 30
0.0
 10
51.8727
 20
-15.1763
 30
0.0
 10
51.2769
 20
-15.6312
 30
0.0
 10
50.6305
 20
-15.9918
 30
0.0
 10
50.6305
 20
-15.9918
 30
0.0
 10
48.8986
 20
-16.8194
 30
0.0
 10
46.7817
 20
-16.497
 30
0.0
 10
45.2225
 20
-15.4343
 30
0.0
 10
45.2225
 20
-15.4343
 30
0.0
 10
45.766
 20
-13.6502
 30
0.0
 10
46.78
 20
-11.9897
 30
0.0
 10
48.3235
 20
-10.8992
 30
0.0
 10
48.3235
 20
-10.8992
 30
0.0
 10
50.695
 20
-9.188
 30
0.0
 10
52.1097
 20
-6.4111
 30
0.0
 10
52.4877
 20
-3.5519
 30
0.0
 10
52.4877
 20
-3.5519
 30
0.0
 10
52.6376
 20
-2.4053
 30
0.0
 10
52.4669
 20
-0.7677
 30
0.0
 10
51.2089
 20
-0.299
 30
0.0
 10
51.2089
 20
-0.299
 30
0.0
 10
48.1059
 20
0.1242
 30
0.0
 10
44.82
 20
-1.0448
 30
0.0
 10
42.6646
 20
-3.3168
 30
0.0
 10
42.6646
 20
-3.3168
 30
0.0
 10
41.9591
 20
-4.0153
 30
0.0
 10
41.5025
 20
-4.9248
 30
0.0
 10
40.7359
 20
-5.5678
 30
0.0
 10
40.7359
 20
-5.5678
 30
0.0
 10
39.7498
 20
-6.5311
 30
0.0
 10
38.4082
 20
-6.9859
 30
0.0
 10
37.1398
 20
-7.4511
 30
0.0
 10
37.1398
 20
-7.4511
 30
0.0
 10
36.6607
 20
-6.3324
 30
0.0
 10
36.0893
 20
-5.1617
 30
0.0
 10
36.2862
 20
-3.909
 30
0.0
 10
36.2862
 20
-3.909
 30
0.0
 10
36.2165
 20
-2.4491
 30
0.0
 10
37.0615
 20
-1.1858
 30
0.0
 10
37.9692
 20
-0.1282
 30
0.0
 10
37.9692
 20
-0.1282
 30
0.0
 10
36.1799
 20
-0.2694
 30
0.0
 10
34.3453
 20
-0.2589
 30
0.0
 10
32.6205
 20
0.2934
 30
0.0
 10
32.6205
 20
0.2934
 30
0.0
 10
30.2996
 20
0.8282
 30
0.0
 10
28.3814
 20
2.3544
 30
0.0
 10
26.6776
 20
3.9467
 30
0.0
 10
26.6776
 20
3.9467
 30
0.0
 10
27.1218
 20
-1.5744
 30
0.0
 10
28.9616
 20
-6.9911
 30
0.0
 10
32.1013
 20
-11.5646
 30
0.0
  0
SPLINE
  5
53
330
1F
100
AcDbEntity
  8
layer 1
 62
     7
370
     9
100
AcDbSpline
210
0.0
220
0.0
230
1.0
 70
    11
 71
     3
 72
    28
 73
    24
 74
     0
 42
0.0000000001
 43
0.0000000001
 12
1.0
 22
0.0
 32
0.0
 13
1.0
 23
0.0
 33
0.0
 40
0.0
 40
0.0
 40
0.0
 40
0.0
 40
0.1428571428571428
 40
0.1428571428571428
 40
0.1428571428571428
 40
0.1428571428571428
 40
0.2857142857142857
 40
0.2857142857142857
 40
0.2857142857142857
 40
0.2857142857142857
 40
0.4285714285714285
 40
0.4285714285714285
 40
0.4285714285714285
 40
0.4285714285714285
 40
0.5714285714285714
 40
0.5714285714285714
 40
0.5714285714285714
 40
0.5714285714285714
 40
0.7142857142857143
 40
0.7142857142857143
 40
0.7142857142857143
 40
0.7142857142857143
 40
1.0
 40
1.0
 40
1.0
 40
1.0
 10
26.5223
 20
86.5243
 30
0.0
 10
30.1306
 20
89.9237
 30
0.0
 10
35.0302
 20
92.1014
 30
0.0
 10
40.0339
 20
91.9499
 30
0.0
 10
40.0339
 20
91.9499
 30
0.0
 10
40.4241
 20
91.9759
 30
0.0
 10
40.8788
 20
91.9394
 30
0.0
 10
41.1682
 20
92.2548
 30
0.0
 10
41.1682
 20
92.2548
 30
0.0
 10
41.926
 20
93.0109
 30
0.0
 10
42.5879
 20
93.8542
 30
0.0
 10
43.3687
 20
94.5911
 30
0.0
 10
43.3687
 20
94.5911
 30
0.0
 10
46.0047
 20
97.2029
 30
0.0
 10
49.3532
 20
98.9817
 30
0.0
 10
52.8729
 20
100.0861
 30
0.0
 10
52.8729
 20
100.0861
 30
0.0
 10
44.0898
 20
100.1474
 30
0.0
 10
35.3071
 20
100.102
 30
0.0
 10
26.5242
 20
100.1124
 30
0.0
 10
26.5242
 20
100.1124
 30
0.0
 10
26.5136
 20
95.5808
 30
0.0
 10
26.5188
 20
91.0524
 30
0.0
 10
26.5223
 20
86.5243
 30
0.0
  0
SPLINE
  5
54
330
1F
100
AcDbEntity
  8
layer 1
 62
     7
370
     9
100
AcDbSpline
210
0.0
220
0.0
230
1.0
 70
    11
 71
     3
 72
    68
 73
    64
 74
     0
 42
0.0000000001
 43
0.0000000001
 12
1.0
 22
0.0
 32
0.0
 13
1.0
 23
0.0
 33
0.0
 40
0.0
 40
0.0
 40
0.0
 40
0.0
 40
0.0588235294117647
 40
0.0588235294117647
 40
0.0588235294117647
 40
0.0588235294117647
 40
0.1176470588235294
 40
0.1176470588235294
 40
0.1176470588235294
 40
0.1176470588235294
 40
0.1764705882352941
 40
0.1764705882352941
 40
0.1764705882352941
 40
0.1764705882352941
 40
0.2352941176470588
 40
0.2352941176470588
 40
0.2352941176470588
 40
0.2352941176470588
 40
0.2941176470588235
 40
0.2941176470588235
 40
0.2941176470588235
 40
0.2941176470588235
 40
0.3529411764705883
 40
0.3529411764705883
 40
0.3529411764705883
 40
0.3529411764705883
 40
0.4117647058823529
 40
0.4117647058823529
 40
0.4117647058823529
 40
0.4117647058823529
 40
0.4705882352941176
 40
0.4705882352941176
 40
0.4705882352941176
 40
0.4705882352941176
 40
0.5294117647058824
 40
0.5294117647058824
 40
0.5294117647058824
 40
0.5294117647058824
 40
0.5882352941176471
 40
0.5882352941176471
 40
0.5882352941176471
 40
0.5882352941176471
 40
0.6470588235294118
 40
0.6470588235294118
 40
0.6470588235294118
 40
0.6470588235294118
 40
0.7058823529411765
 40
0.7058823529411765
 40
0.7058823529411765
 40
0.7058823529411765
 40
0.7647058823529411
 40
0.7647058823529411
 40
0.7647058823529411
 40
0.7647058823529411
 40
0.8235294117647058
 40
0.8235294117647058
 40
0.8235294117647058
 40
0.8235294117647058
 40
0.8823529411764706
 40
0.8823529411764706
 40
0.8823529411764706
 40
0.8823529411764706
 40
1.0
 40
1.0
 40
1.0
 40
1.0
 10
26.5051
 20
69.3158
 30
0.0
 10
27.688
 20
70.1695
 30
0.0
 10
29.0767
 20
70.6991
 30
0.0
 10
30.5681
 20
70.5511
 30
0.0
 10
30.5681
 20
70.5511
 30
0.0
 10
29.7805
 20
68.6904
 30
0.0
 10
29.716
 20
66.2912
 30
0.0
 10
31.2964
 20
64.8171
 30
0.0
 10
31.2964
 20
64.8171
 30
0.0
 10
33.434
 20
62.9182
 30
0.0
 10
35.9691
 20
61.4755
 30
0.0
 10
38.6557
 20
60.5033
 30
0.0
 10
38.6557
 20
60.5033
 30
0.0
 10
42.6874
 20
59.2295
 30
0.0
 10
46.5936
 20
57.4578
 30
0.0
 10
50.0312
 20
54.975
 30
0.0
 10
50.0312
 20
54.975
 30
0.0
 10
51.7159
 20
53.8373
 30
0.0
 10
53.0922
 20
52.3163
 30
0.0
 10
54.7457
 20
51.1402
 30
0.0
 10
54.7457
 20
51.1402
 30
0.0
 10
54.6587
 20
51.7744
 30
0.0
 10
54.4374
 20
52.3843
 30
0.0
 10
54.0802
 20
52.9192
 30
0.0
 10
54.0802
 20
52.9192
 30
0.0
 10
52.1096
 20
56.1684
 30
0.0
 10
50.2437
 20
59.4858
 30
0.0
 10
48.0692
 20
62.6045
 30
0.0
 10
48.0692
 20
62.6045
 30
0.0
 10
45.6668
 20
65.8487
 30
0.0
 10
41.9574
 20
67.8767
 30
0.0
 10
38.1033
 20
68.8768
 30
0.0
 10
38.1033
 20
68.8768
 30
0.0
 10
38.896
 20
69.3698
 30
0.0
 10
39.7185
 20
69.835
 30
0.0
 10
40.6227
 20
70.091
 30
0.0
 10
40.6227
 20
70.091
 30
0.0
 10
37.5616
 20
70.8107
 30
0.0
 10
34.6274
 20
72.5076
 30
0.0
 10
32.854
 20
75.1576
 30
0.0
 10
32.854
 20
75.1576
 30
0.0
 10
34.7617
 20
75.5253
 30
0.0
 10
36.7113
 20
75.1715
 30
0.0
 10
38.5232
 20
74.5375
 30
0.0
 10
38.5232
 20
74.5375
 30
0.0
 10
37.3437
 20
75.9923
 30
0.0
 10
36.3106
 20
77.6718
 30
0.0
 10
36.1574
 20
79.5831
 30
0.0
 10
36.1574
 20
79.5831
 30
0.0
 10
35.9048
 20
82.2926
 30
0.0
 10
36.5214
 20
85.4269
 30
0.0
 10
38.884
 20
87.0941
 30
0.0
 10
38.884
 20
87.0941
 30
0.0
 10
34.2651
 20
86.7266
 30
0.0
 10
29.9041
 20
84.1879
 30
0.0
 10
27.2227
 20
80.4246
 30
0.0
 10
27.2227
 20
80.4246
 30
0.0
 10
26.9407
 20
79.9316
 30
0.0
 10
26.4947
 20
79.468
 30
0.0
 10
26.5188
 20
78.8704
 30
0.0
 10
26.5188
 20
78.8704
 30
0.0
 10
26.4614
 20
75.6857
 30
0.0
 10
26.5572
 20
72.5006
 30
0.0
 10
26.5051
 20
69.3158
 30
0.0
  0
SPLINE
  5
55
330
1F
100
AcDbEntity
  8
layer 1
 62
     7
370
     9
100
AcDbSpline
210
0.0
220
0.0
230
1.0
 70
    11
 71
     3
 72
    48
 73
    44
 74
     0
 42
0.0000000001
 43
0.0000000001
 12
1.0
 22
0.0
 32
0.0
 13
1.0
 23
0.0
 33
0.0
 40
0.0
 40
0.0
 40
0.0
 40
0.0
 40
0.0833333333333333
 40
0.0833333333333333
 40
0.0833333333333333
 40
0.0833333333333333
 40
0.1666666666666667
 40
0.1666666666666667
 40
0.1666666666666667
 40
0.1666666666666667
 40
0.25
 40
0.25
 40
0.25
 40
0.25
 40
0.3333333333333333
 40
0.3333333333333333
 40
0.3333333333333333
 40
0.3333333333333333
 40
0.4166666666666667
 40
0.4166666666666667
 40
0.4166666666666667
 40
0.4166666666666667
 40
0.5
 40
0.5
 40
0.5
 40
0.5
 40
0.5833333333333334
 40
0.5833333333333334
 40
0.5833333333333334
 40
0.5833333333333334
 40
0.6666666666666666
 40
0.6666666666666666
 40
0.6666666666666666
 40
0.6666666666666666
 40
0.75
 40
0.75
 40
0.75
 40
0.75
 40
0.8333333333333334
 40
0.8333333333333334
 40
0.8333333333333334
 40
0.8333333333333334
 40
1.0
 40
1.0
 40
1.0
 40
1.0
 10
26.5433
 20
42.7598
 30
0.0
 10
30.0591
 20
47.4554
 30
0.0
 10
35.7514
 20
50.5879
 30
0.0
 10
41.6785
 20
50.4346
 30
0.0
 10
41.6785
 20
50.4346
 30
0.0
 10
45.6492
 20
50.3162
 30
0.0
 10
49.6008
 20
49.5408
 30
0.0
 10
53.3449
 20
48.2201
 30
0.0
 10
53.3449
 20
48.2201
 30
0.0
 10
53.4008
 20
48.6054
 30
0.0
 10
53.4529
 20
48.9938
 30
0.0
 10
53.5018
 20
49.3857
 30
0.0
 10
53.5018
 20
49.3857
 30
0.0
 10
51.0519
 20
51.6543
 30
0.0
 10
48.329
 20
53.7136
 30
0.0
 10
45.1091
 20
54.7432
 30
0.0
 10
45.1091
 20
54.7432
 30
0.0
 10
42.3301
 20
55.8723
 30
0.0
 10
39.2654
 20
55.435
 30
0.0
 10
36.3907
 20
54.9889
 30
0.0
 10
36.3907
 20
54.9889
 30
0.0
 10
36.7322
 20
55.5691
 30
0.0
 10
37.077
 20
56.1547
 30
0.0
 10
37.4606
 20
56.7122
 30
0.0
 10
37.4606
 20
56.7122
 30
0.0
 10
35.2164
 20
56.0081
 30
0.0
 10
32.6971
 20
56.0692
 30
0.0
 10
30.5803
 20
57.1476
 30
0.0
 10
30.5803
 20
57.1476
 30
0.0
 10
31.6274
 20
58.4143
 30
0.0
 10
33.0736
 20
59.207
 30
0.0
 10
34.5578
 20
59.8516
 30
0.0
 10
34.5578
 20
59.8516
 30
0.0
 10
33.1884
 20
60.1426
 30
0.0
 10
31.7808
 20
60.3378
 30
0.0
 10
30.4723
 20
60.8552
 30
0.0
 10
30.4723
 20
60.8552
 30
0.0
 10
29.0435
 20
61.4912
 30
0.0
 10
27.7716
 20
62.4234
 30
0.0
 10
26.5223
 20
63.3535
 30
0.0
 10
26.5223
 20
63.3535
 30
0.0
 10
26.5293
 20
56.4891
 30
0.0
 10
26.4947
 20
49.6244
 30
0.0
 10
26.5433
 20
42.7598
 30
0.0
  0
SPLINE
  5
56
330
1F
100
AcDbEntity
  8
layer 1
 62
     7
370
     9
100
AcDbSpline
210
0.0
220
0.0
230
1.0
 70
    11
 71
     3
 72
    64
 73
    60
 74
     0
 42
0.0000000001
 43
0.0000000001
 12
1.0
 22
0.0
 32
0.0
 13
1.0
 23
0.0
 33
0.0
 40
0.0
 40
0.0
 40
0.0
 40
0.0
 40
0.0625
 40
0.0625
 40
0.0625
 40
0.0625
 40
0.125
 40
0.125
 40
0.125
 40
0.125
 40
0.1875
 40
0.1875
 40
0.1875
 40
0.1875
 40
0.25
 40
0.25
 40
0.25
 40
0.25
 40
0.3125
 40
0.3125
 40
0.3125
 40
0.3125
 40
0.375
 40
0.375
 40
0.375
 40
0.375
 40
0.4375
 40
0.4375
 40
0.4375
 40
0.4375
 40
0.5
 40
0.5
 40
0.5
 40
0.5
 40
0.5625
 40
0.5625
 40
0.5625
 40
0.5625
 40
0.625
 40
0.625
 40
0.625
 40
0.625
 40
0.6875
 40
0.6875
 40
0.6875
 40
0.6875
 40
0.75
 40
0.75
 40
0.75
 40
0.75
 40
0.8125
 40
0.8125
 40
0.8125
 40
0.8125
 40
0.875
 40
0.875
 40
0.875
 40
0.875
 40
1.0
 40
1.0
 40
1.0
 40
1.0
 10
26.5606
 20
21.8331
 30
0.0
 10
30.1288
 20
29.5256
 30
0.0
 10
36.5424
 20
35.8586
 30
0.0
 10
44.2972
 20
39.2961
 30
0.0
 10
44.2972
 20
39.2961
 30
0.0
 10
48.2471
 20
41.1797
 30
0.0
 10
52.5819
 20
42.063
 30
0.0
 10
56.9097
 20
42.5316
 30
0.0
 10
56.9097
 20
42.5316
 30
0.0
 10
56.1048
 20
42.8732
 30
0.0
 10
55.2631
 20
43.1448
 30
0.0
 10
54.5226
 20
43.6204
 30
0.0
 10
54.5226
 20
43.6204
 30
0.0
 10
53.4512
 20
44.4012
 30
0.0
 10
53.2457
 20
45.7706
 30
0.0
 10
52.9268
 20
46.9674
 30
0.0
 10
52.9268
 20
46.9674
 30
0.0
 10
49.9301
 20
47.6418
 30
0.0
 10
46.7207
 20
47.6486
 30
0.0
 10
43.8233
 20
46.5562
 30
0.0
 10
43.8233
 20
46.5562
 30
0.0
 10
40.5967
 20
45.5301
 30
0.0
 10
37.9049
 20
43.2877
 30
0.0
 10
35.8071
 20
40.6813
 30
0.0
 10
35.8071
 20
40.6813
 30
0.0
 10
34.5632
 20
42.9845
 30
0.0
 10
35.1015
 20
45.7793
 30
0.0
 10
36.443
 20
47.917
 30
0.0
 10
36.443
 20
47.917
 30
0.0
 10
34.1764
 20
47.5649
 30
0.0
 10
32.0959
 20
45.9535
 30
0.0
 10
31.6064
 20
43.6414
 30
0.0
 10
31.6064
 20
43.6414
 30
0.0
 10
30.9636
 20
41.5595
 30
0.0
 10
32.2493
 20
39.5749
 30
0.0
 10
33.523
 20
38.04
 30
0.0
 10
33.523
 20
38.04
 30
0.0
 10
32.1795
 20
38.1654
 30
0.0
 10
30.8171
 20
38.3482
 30
0.0
 10
29.5941
 20
38.946
 30
0.0
 10
29.5941
 20
38.946
 30
0.0
 10
29.8152
 20
38.0243
 30
0.0
 10
30.1516
 20
37.1201
 30
0.0
 10
30.6864
 20
36.3326
 30
0.0
 10
30.6864
 20
36.3326
 30
0.0
 10
31.3626
 20
35.4388
 30
0.0
 10
32.3887
 20
34.93
 30
0.0
 10
33.3453
 20
34.3967
 30
0.0
 10
33.3453
 20
34.3967
 30
0.0
 10
31.8067
 20
34.2017
 30
0.0
 10
30.1306
 20
34.2714
 30
0.0
 10
28.7926
 20
35.1356
 30
0.0
 10
28.7926
 20
35.1356
 30
0.0
 10
27.8378
 20
35.6565
 30
0.0
 10
27.2088
 20
36.5782
 30
0.0
 10
26.5172
 20
37.3883
 30
0.0
 10
26.5172
 20
37.3883
 30
0.0
 10
26.5416
 20
32.2034
 30
0.0
 10
26.4737
 20
27.0183
 30
0.0
 10
26.5606
 20
21.8331
 30
0.0
  0
SPLINE
  5
57
330
1F
100
AcDbEntity
  8
layer 1
 62
     7
370
     9
100
AcDbSpline
210
0.0
220
0.0
230
1.0
 70
    11
 71
     3
 72
    76
 73
    72
 74
     0
 42
0.0000000001
 43
0.0000000001
 12
1.0
 22
0.0
 32
0.0
 13
1.0
 23
0.0
 33
0.0
 40
0.0
 40
0.0
 40
0.0
 40
0.0
 40
0.0526315789473684
 40
0.0526315789473684
 40
0.0526315789473684
 40
0.0526315789473684
 40
0.1052631578947368
 40
0.1052631578947368
 40
0.1052631578947368
 40
0.1052631578947368
 40
0.1578947368421053
 40
0.1578947368421053
 40
0.1578947368421053
 40
0.1578947368421053
 40
0.2105263157894737
 40
0.2105263157894737
 40
0.2105263157894737
 40
0.2105263157894737
 40
0.2631578947368421
 40
0.2631578947368421
 40
0.2631578947368421
 40
0.2631578947368421
 40
0.3157894736842105
 40
0.3157894736842105
 40
0.3157894736842105
 40
0.3157894736842105
 40
0.3684210526315789
 40
0.3684210526315789
 40
0.3684210526315789
 40
0.3684210526315789
 40
0.4210526315789473
 40
0.4210526315789473
 40
0.4210526315789473
 40
0.4210526315789473
 40
0.4736842105263158
 40
0.4736842105263158
 40
0.4736842105263158
 40
0.4736842105263158
 40
0.5263157894736842
 40
0.5263157894736842
 40
0.5263157894736842
 40
0.5263157894736842
 40
0.5789473684210527
 40
0.5789473684210527
 40
0.5789473684210527
 40
0.5789473684210527
 40
0.631578947368421
 40
0.631578947368421
 40
0.631578947368421
 40
0.631578947368421
 40
0.6842105263157895
 40
0.6842105263157895
 40
0.6842105263157895
 40
0.6842105263157895
 40
0.7368421052631579
 40
0.7368421052631579
 40
0.7368421052631579
 40
0.7368421052631579
 40
0.7894736842105263
 40
0.7894736842105263
 40
0.7894736842105263
 40
0.7894736842105263
 40
0.8421052631578947
 40
0.8421052631578947
 40
0.8421052631578947
 40
0.8421052631578947
 40
0.8947368421052632
 40
0.8947368421052632
 40
0.8947368421052632
 40
0.8947368421052632
 40
1.0
 40
1.0
 40
1.0
 40
1.0
 10
26.5068
 20
-24.4592
 30
0.0
 10
27.3693
 20
-23.3513
 30
0.0
 10
28.2944
 20
-22.1699
 30
0.0
 10
29.6724
 20
-21.6943
 30
0.0
 10
29.6724
 20
-21.6943
 30
0.0
 10
30.8171
 20
-21.2188
 30
0.0
 10
32.0595
 20
-21.3319
 30
0.0
 10
33.2617
 20
-21.3789
 30
0.0
 10
33.2617
 20
-21.3789
 30
0.0
 10
31.4426
 20
-22.3093
 30
0.0
 10
29.8589
 20
-23.9
 30
0.0
 10
29.6046
 20
-26.0046
 30
0.0
 10
29.6046
 20
-26.0046
 30
0.0
 10
30.7806
 20
-25.3043
 30
0.0
 10
32.1327
 20
-25.0308
 30
0.0
 10
33.4985
 20
-25.09
 30
0.0
 10
33.4985
 20
-25.09
 30
0.0
 10
32.8433
 20
-25.9925
 30
0.0
 10
32.1223
 20
-26.8742
 30
0.0
 10
31.7161
 20
-27.9229
 30
0.0
 10
31.7161
 20
-27.9229
 30
0.0
 10
31.1515
 20
-29.6408
 30
0.0
 10
31.629
 20
-31.6218
 30
0.0
 10
32.8347
 20
-32.9564
 30
0.0
 10
32.8347
 20
-32.9564
 30
0.0
 10
33.7335
 20
-34.0731
 30
0.0
 10
35.1189
 20
-34.6116
 30
0.0
 10
36.476
 20
-34.9287
 30
0.0
 10
36.476
 20
-34.9287
 30
0.0
 10
36.0509
 20
-34.0941
 30
0.0
 10
35.598
 20
-33.2648
 30
0.0
 10
35.3297
 20
-32.3642
 30
0.0
 10
35.3297
 20
-32.3642
 30
0.0
 10
34.7999
 20
-30.8257
 30
0.0
 10
35.2321
 20
-29.1808
 30
0.0
 10
35.7514
 20
-27.7017
 30
0.0
 10
35.7514
 20
-27.7017
 30
0.0
 10
38.1174
 20
-30.54
 30
0.0
 10
41.1819
 20
-32.9234
 30
0.0
 10
44.8007
 20
-33.873
 30
0.0
 10
44.8007
 20
-33.873
 30
0.0
 10
47.294
 20
-34.5855
 30
0.0
 10
49.9614
 20
-34.5507
 30
0.0
 10
52.4893
 20
-34.0487
 30
0.0
 10
52.4893
 20
-34.0487
 30
0.0
 10
52.899
 20
-34.0193
 30
0.0
 10
52.9896
 20
-33.5977
 30
0.0
 10
53.0818
 20
-33.2736
 30
0.0
 10
53.0818
 20
-33.2736
 30
0.0
 10
53.3449
 20
-32.2892
 30
0.0
 10
53.5887
 20
-31.1062
 30
0.0
 10
54.5994
 20
-30.601
 30
0.0
 10
54.5994
 20
-30.601
 30
0.0
 10
55.2929
 20
-30.073
 30
0.0
 10
56.1379
 20
-29.836
 30
0.0
 10
56.9148
 20
-29.4667
 30
0.0
 10
56.9148
 20
-29.4667
 30
0.0
 10
55.7754
 20
-29.3203
 30
0.0
 10
54.6377
 20
-29.1808
 30
0.0
 10
53.5035
 20
-29.0154
 30
0.0
 10
53.5035
 20
-29.0154
 30
0.0
 10
47.843
 20
-28.2366
 30
0.0
 10
42.4679
 20
-25.8566
 30
0.0
 10
37.8402
 20
-22.5515
 30
0.0
 10
37.8402
 20
-22.5515
 30
0.0
 10
32.9776
 20
-19.065
 30
0.0
 10
29.202
 20
-14.2424
 30
0.0
 10
26.5452
 20
-8.911
 30
0.0
 10
26.5452
 20
-8.911
 30
0.0
 10
26.4804
 20
-14.0943
 30
0.0
 10
26.5503
 20
-19.2779
 30
0.0
 10
26.5068
 20
-24.4592
 30
0.0
  0
SPLINE
  5
58
330
1F
100
AcDbEntity
  8
layer 1
 62
     7
370
     9
100
AcDbSpline
210
0.0
220
0.0
230
1.0
 70
    11
 71
     3
 72
    44
 73
    40
 74
     0
 42
0.0000000001
 43
0.0000000001
 12
1.0
 22
0.0
 32
0.0
 13
1.0
 23
0.0
 33
0.0
 40
0.0
 40
0.0
 40
0.0
 40
0.0
 40
0.0909090909090909
 40
0.0909090909090909
 40
0.0909090909090909
 40
0.0909090909090909
 40
0.1818181818181818
 40
0.1818181818181818
 40
0.1818181818181818
 40
0.1818181818181818
 40
0.2727272727272727
 40
0.2727272727272727
 40
0.2727272727272727
 40
0.2727272727272727
 40
0.3636363636363636
 40
0.3636363636363636
 40
0.3636363636363636
 40
0.3636363636363636
 40
0.4545454545454545
 40
0.4545454545454545
 40
0.4545454545454545
 40
0.4545454545454545
 40
0.5454545454545454
 40
0.5454545454545454
 40
0.5454545454545454
 40
0.5454545454545454
 40
0.6363636363636364
 40
0.6363636363636364
 40
0.6363636363636364
 40
0.6363636363636364
 40
0.7272727272727273
 40
0.7272727272727273
 40
0.7272727272727273
 40
0.7272727272727273
 40
0.8181818181818182
 40
0.8181818181818182
 40
0.8181818181818182
 40
0.8181818181818182
 40
1.0
 40
1.0
 40
1.0
 40
1.0
 10
26.5223
 20
-50.4229
 30
0.0
 10
28.7891
 20
-48.2904
 30
0.0
 10
31.7928
 20
-47.0359
 30
0.0
 10
34.8976
 20
-46.8808
 30
0.0
 10
34.8976
 20
-46.8808
 30
0.0
 10
33.2302
 20
-46.379
 30
0.0
 10
31.6884
 20
-45.4262
 30
0.0
 10
30.6013
 20
-44.0496
 30
0.0
 10
30.6013
 20
-44.0496
 30
0.0
 10
32.6969
 20
-43.0985
 30
0.0
 10
35.0474
 20
-43.1193
 30
0.0
 10
37.2707
 20
-43.5879
 30
0.0
 10
37.2707
 20
-43.5879
 30
0.0
 10
36.9639
 20
-43.0477
 30
0.0
 10
36.6468
 20
-42.5042
 30
0.0
 10
36.3663
 20
-41.9483
 30
0.0
 10
36.3663
 20
-41.9483
 30
0.0
 10
39.4729
 20
-42.6191
 30
0.0
 10
42.8285
 20
-42.748
 30
0.0
 10
45.8097
 20
-41.4954
 30
0.0
 10
45.8097
 20
-41.4954
 30
0.0
 10
48.6758
 20
-40.2967
 30
0.0
 10
51.3396
 20
-38.5684
 30
0.0
 10
53.4809
 20
-36.3051
 30
0.0
 10
53.4809
 20
-36.3051
 30
0.0
 10
53.4407
 20
-36.0316
 30
0.0
 10
53.3605
 20
-35.4828
 30
0.0
 10
53.3205
 20
-35.2093
 30
0.0
 10
53.3205
 20
-35.2093
 30
0.0
 10
47.8985
 20
-37.0299
 30
0.0
 10
41.9102
 20
-38.3158
 30
0.0
 10
36.2793
 20
-36.6397
 30
0.0
 10
36.2793
 20
-36.6397
 30
0.0
 10
32.3364
 20
-35.5349
 30
0.0
 10
28.9686
 20
-32.9164
 30
0.0
 10
26.5293
 20
-29.667
 30
0.0
 10
26.5293
 20
-29.667
 30
0.0
 10
26.5102
 20
-36.5857
 30
0.0
 10
26.5223
 20
-43.5043
 30
0.0
 10
26.5223
 20
-50.4229
 30
0.0
  0
SPLINE
  5
59
330
1F
100
AcDbEntity
  8
layer 1
 62
     7
370
     9
100
AcDbSpline
210
0.0
220
0.0
230
1.0
 70
    11
 71
     3
 72
    72
 73
    68
 74
     0
 42
0.0000000001
 43
0.0000000001
 12
1.0
 22
0.0
 32
0.0
 13
1.0
 23
0.0
 33
0.0
 40
0.0
 40
0.0
 40
0.0
 40
0.0
 40
0.0555555555555556
 40
0.0555555555555556
 40
0.0555555555555556
 40
0.0555555555555556
 40
0.1111111111111111
 40
0.1111111111111111
 40
0.1111111111111111
 40
0.1111111111111111
 40
0.1666666666666667
 40
0.1666666666666667
 40
0.1666666666666667
 40
0.1666666666666667
 40
0.2222222222222222
 40
0.2222222222222222
 40
0.2222222222222222
 40
0.2222222222222222
 40
0.2777777777777778
 40
0.2777777777777778
 40
0.2777777777777778
 40
0.2777777777777778
 40
0.3333333333333333
 40
0.3333333333333333
 40
0.3333333333333333
 40
0.3333333333333333
 40
0.3888888888888889
 40
0.3888888888888889
 40
0.3888888888888889
 40
0.3888888888888889
 40
0.4444444444444444
 40
0.4444444444444444
 40
0.4444444444444444
 40
0.4444444444444444
 40
0.5
 40
0.5
 40
0.5
 40
0.5
 40
0.5555555555555556
 40
0.5555555555555556
 40
0.5555555555555556
 40
0.5555555555555556
 40
0.6111111111111112
 40
0.6111111111111112
 40
0.6111111111111112
 40
0.6111111111111112
 40
0.6666666666666666
 40
0.6666666666666666
 40
0.6666666666666666
 40
0.6666666666666666
 40
0.7222222222222222
 40
0.7222222222222222
 40
0.7222222222222222
 40
0.7222222222222222
 40
0.7777777777777778
 40
0.7777777777777778
 40
0.7777777777777778
 40
0.7777777777777778
 40
0.8333333333333334
 40
0.8333333333333334
 40
0.8333333333333334
 40
0.8333333333333334
 40
0.8888888888888888
 40
0.8888888888888888
 40
0.8888888888888888
 40
0.8888888888888888
 40
1.0
 40
1.0
 40
1.0
 40
1.0
 10
27.4736
 20
-67.7517
 30
0.0
 10
30.1812
 20
-71.3495
 30
0.0
 10
34.4341
 20
-73.6704
 30
0.0
 10
38.9014
 20
-74.1512
 30
0.0
 10
38.9014
 20
-74.1512
 30
0.0
 10
36.8227
 20
-72.4819
 30
0.0
 10
35.8454
 20
-69.7728
 30
0.0
 10
36.1189
 20
-67.1506
 30
0.0
 10
36.1189
 20
-67.1506
 30
0.0
 10
36.0946
 20
-65.0564
 30
0.0
 10
37.2306
 20
-63.255
 30
0.0
 10
38.3422
 20
-61.5787
 30
0.0
 10
38.3422
 20
-61.5787
 30
0.0
 10
36.6035
 20
-62.2757
 30
0.0
 10
34.6972
 20
-62.3453
 30
0.0
 10
32.8574
 20
-62.0805
 30
0.0
 10
32.8574
 20
-62.0805
 30
0.0
 10
34.6466
 20
-59.4984
 30
0.0
 10
37.5336
 20
-57.8938
 30
0.0
 10
40.5131
 20
-57.0785
 30
0.0
 10
40.5131
 20
-57.0785
 30
0.0
 10
39.6316
 20
-56.791
 30
0.0
 10
38.8472
 20
-56.2909
 30
0.0
 10
38.0651
 20
-55.8047
 30
0.0
 10
38.0651
 20
-55.8047
 30
0.0
 10
39.5373
 20
-55.3954
 30
0.0
 10
41.0149
 20
-54.958
 30
0.0
 10
42.3841
 20
-54.2681
 30
0.0
 10
42.3841
 20
-54.2681
 30
0.0
 10
45.1682
 20
-52.9231
 30
0.0
 10
47.4248
 20
-50.6599
 30
0.0
 10
49.1287
 20
-48.1125
 30
0.0
 10
49.1287
 20
-48.1125
 30
0.0
 10
51.0643
 20
-44.8964
 30
0.0
 10
53.0349
 20
-41.7026
 30
0.0
 10
54.9008
 20
-38.4464
 30
0.0
 10
54.9008
 20
-38.4464
 30
0.0
 10
54.777
 20
-38.3175
 30
0.0
 10
54.6533
 20
-38.1866
 30
0.0
 10
54.5297
 20
-38.0561
 30
0.0
 10
54.5297
 20
-38.0561
 30
0.0
 10
50.735
 20
-42.0163
 30
0.0
 10
45.9663
 20
-44.9662
 30
0.0
 10
40.7864
 20
-46.7396
 30
0.0
 10
40.7864
 20
-46.7396
 30
0.0
 10
38.4082
 20
-47.522
 30
0.0
 10
36.0406
 20
-48.4315
 30
0.0
 10
33.9429
 20
-49.8202
 30
0.0
 10
33.9429
 20
-49.8202
 30
0.0
 10
32.6884
 20
-50.6686
 30
0.0
 10
31.2929
 20
-51.4943
 30
0.0
 10
30.5419
 20
-52.8673
 30
0.0
 10
30.5419
 20
-52.8673
 30
0.0
 10
29.594
 20
-54.2542
 30
0.0
 10
30.0454
 20
-56.0225
 30
0.0
 10
30.5314
 20
-57.5036
 30
0.0
 10
30.5314
 20
-57.5036
 30
0.0
 10
29.0783
 20
-57.6446
 30
0.0
 10
27.7211
 20
-57.1323
 30
0.0
 10
26.5188
 20
-56.3606
 30
0.0
 10
26.5188
 20
-56.3606
 30
0.0
 10
26.552
 20
-59.4322
 30
0.0
 10
26.437
 20
-62.5074
 30
0.0
 10
26.5503
 20
-65.5773
 30
0.0
 10
26.5503
 20
-65.5773
 30
0.0
 10
26.3831
 20
-66.459
 30
0.0
 10
27.0695
 20
-67.0792
 30
0.0
 10
27.4736
 20
-67.7517
 30
0.0
  0
SPLINE
  5
5A
330
1F
100
AcDbEntity
  8
layer 1
 62
     7
370
     9
100
AcDbSpline
210
0.0
220
0.0
230
1.0
 70
    11
 71
     3
 72
    24
 73
    20
 74
     0
 42
0.0000000001
 43
0.0000000001
 12
1.0
 22
0.0
 32
0.0
 13
1.0
 23
0.0
 33
0.0
 40
0.0
 40
0.0
 40
0.0
 40
0.0
 40
0.1666666666666667
 40
0.1666666666666667
 40
0.1666666666666667
 40
0.1666666666666667
 40
0.3333333333333333
 40
0.3333333333333333
 40
0.3333333333333333
 40
0.3333333333333333
 40
0.5
 40
0.5
 40
0.5
 40
0.5
 40
0.6666666666666666
 40
0.6666666666666666
 40
0.6666666666666666
 40
0.6666666666666666
 40
1.0
 40
1.0
 40
1.0
 40
1.0
 10
26.5223
 20
-87.1781
 30
0.0
 10
35.3681
 20
-87.1643
 30
0.0
 10
44.2135
 20
-87.227
 30
0.0
 10
53.0575
 20
-87.1435
 30
0.0
 10
53.0575
 20
-87.1435
 30
0.0
 10
48.3829
 20
-85.7217
 30
0.0
 10
44.0254
 20
-83.0195
 30
0.0
 10
41.0828
 20
-79.0677
 30
0.0
 10
41.0828
 20
-79.0677
 30
0.0
 10
39.4398
 20
-78.9651
 30
0.0
 10
37.7881
 20
-78.8971
 30
0.0
 10
36.1694
 20
-78.5678
 30
0.0
 10
36.1694
 20
-78.5678
 30
0.0
 10
32.5472
 20
-77.9058
 30
0.0
 10
29.2647
 20
-75.9944
 30
0.0
 10
26.526
 20
-73.5797
 30
0.0
 10
26.526
 20
-73.5797
 30
0.0
 10
26.5119
 20
-78.1132
 30
0.0
 10
26.5188
 20
-82.6464
 30
0.0
 10
26.5223
 20
-87.1781
 30
0.0
  0
LWPOLYLINE
  5
5B
330
1F
100
AcDbEntity
  8
layer 1
 62
   250
370
     9
100
AcDbPolyline
 90
        5
 70
     1
 43
0.0
 10
103.1182
 20
-94.909
 10
195.93
 20
-94.909
 10
195.93
 20
52.5536
 10
103.1182
 20
52.5536
 10
103.1182
 20
-94.909
  0
SPLINE
  5
5C
330
1F
100
AcDbEntity
  8
layer 1
 62
     7
370
     9
100
AcDbSpline
210
0.0
220
0.0
230
1.0
 70
    11
 71
     3
 72
    32
 73
    28
 74
     0
 42
0.0000000001
 43
0.0000000001
 12
1.0
 22
0.0
 32
0.0
 13
1.0
 23
0.0
 33
0.0
 40
0.0
 40
0.0
 40
0.0
 40
0.0
 40
0.125
 40
0.125
 40
0.125
 40
0.125
 40
0.25
 40
0.25
 40
0.25
 40
0.25
 40
0.375
 40
0.375
 40
0.375
 40
0.375
 40
0.5
 40
0.5
 40
0.5
 40
0.5
 40
0.625
 40
0.625
 40
0.625
 40
0.625
 40
0.75
 40
0.75
 40
0.75
 40
0.75
 40
1.0
 40
1.0
 40
1.0
 40
1.0
 10
155.7255
 20
-84.5568
 30
0.0
 10
161.1538
 20
-83.2814
 30
0.0
 10
166.2349
 20
-80.3364
 30
0.0
 10
169.8695
 20
-76.0894
 30
0.0
 10
169.8695
 20
-76.0894
 30
0.0
 10
170.2924
 20
-75.6521
 30
0.0
 10
170.6951
 20
-75.1742
 30
0.0
 10
171.2301
 20
-74.871
 30
0.0
 10
171.2301
 20
-74.871
 30
0.0
 10
173.5283
 20
-74.6594
 30
0.0
 10
175.8757
 20
-74.6127
 30
0.0
 10
178.1049
 20
-73.9415
 30
0.0
 10
178.1049
 20
-73.9415
 30
0.0
 10
181.7803
 20
-73.0264
 30
0.0
 10
185.053
 20
-70.9435
 30
0.0
 10
187.8678
 20
-68.4599
 30
0.0
 10
187.8678
 20
-68.4599
 30
0.0
 10
187.8718
 20
-74.0188
 30
0.0
 10
187.8698
 20
-79.5776
 30
0.0
 10
187.8698
 20
-85.1363
 30
0.0
 10
187.8698
 20
-85.1363
 30
0.0
 10
177.1896
 20
-85.0978
 30
0.0
 10
166.5094
 20
-85.2239
 30
0.0
 10
155.8331
 20
-85.0711
 30
0.0
 10
155.8331
 20
-85.0711
 30
0.0
 10
155.8066
 20
-84.9432
 30
0.0
 10
155.754
 20
-84.6847
 30
0.0
 10
155.7255
 20
-84.5568
 30
0.0
  0
SPLINE
  5
5D
330
1F
100
AcDbEntity
  8
layer 1
 62
     7
370
     9
100
AcDbSpline
210
0.0
220
0.0
230
1.0
 70
    11
 71
     3
 72
    28
 73
    24
 74
     0
 42
0.0000000001
 43
0.0000000001
 12
1.0
 22
0.0
 32
0.0
 13
1.0
 23
0.0
 33
0.0
 40
0.0
 40
0.0
 40
0.0
 40
0.0
 40
0.1428571428571428
 40
0.1428571428571428
 40
0.1428571428571428
 40
0.1428571428571428
 40
0.2857142857142857
 40
0.2857142857142857
 40
0.2857142857142857
 40
0.2857142857142857
 40
0.4285714285714285
 40
0.4285714285714285
 40
0.4285714285714285
 40
0.4285714285714285
 40
0.5714285714285714
 40
0.5714285714285714
 40
0.5714285714285714
 40
0.5714285714285714
 40
0.7142857142857143
 40
0.7142857142857143
 40
0.7142857142857143
 40
0.7142857142857143
 40
1.0
 40
1.0
 40
1.0
 40
1.0
 10
155.9451
 20
41.3695
 30
0.0
 10
166.5866
 20
41.3794
 30
0.0
 10
177.2284
 20
41.3715
 30
0.0
 10
187.8698
 20
41.3735
 30
0.0
 10
187.8698
 20
41.3735
 30
0.0
 10
187.8698
 20
35.8125
 30
0.0
 10
187.8759
 20
30.2518
 30
0.0
 10
187.8659
 20
24.6911
 30
0.0
 10
187.8659
 20
24.6911
 30
0.0
 10
186.4626
 20
25.889
 30
0.0
 10
184.9981
 20
27.026
 30
0.0
 10
183.4134
 20
27.9757
 30
0.0
 10
183.4134
 20
27.9757
 30
0.0
 10
179.6872
 20
30.1788
 30
0.0
 10
175.3184
 20
31.0999
 30
0.0
 10
171.0167
 20
31.0673
 30
0.0
 10
171.0167
 20
31.0673
 30
0.0
 10
167.1583
 20
35.896
 30
0.0
 10
161.6971
 20
39.3803
 30
0.0
 10
155.6888
 20
40.8304
 30
0.0
 10
155.6888
 20
40.8304
 30
0.0
 10
155.774
 20
41.0094
 30
0.0
 10
155.8595
 20
41.1905
 30
0.0
 10
155.9451
 20
41.3695
 30
0.0
  0
SPLINE
  5
5E
330
1F
100
AcDbEntity
  8
layer 1
 62
     7
370
     9
100
AcDbSpline
210
0.0
220
0.0
230
1.0
 70
    11
 71
     3
 72
    64
 73
    60
 74
     0
 42
0.0000000001
 43
0.0000000001
 12
1.0
 22
0.0
 32
0.0
 13
1.0
 23
0.0
 33
0.0
 40
0.0
 40
0.0
 40
0.0
 40
0.0
 40
0.0625
 40
0.0625
 40
0.0625
 40
0.0625
 40
0.125
 40
0.125
 40
0.125
 40
0.125
 40
0.1875
 40
0.1875
 40
0.1875
 40
0.1875
 40
0.25
 40
0.25
 40
0.25
 40
0.25
 40
0.3125
 40
0.3125
 40
0.3125
 40
0.3125
 40
0.375
 40
0.375
 40
0.375
 40
0.375
 40
0.4375
 40
0.4375
 40
0.4375
 40
0.4375
 40
0.5
 40
0.5
 40
0.5
 40
0.5
 40
0.5625
 40
0.5625
 40
0.5625
 40
0.5625
 40
0.625
 40
0.625
 40
0.625
 40
0.625
 40
0.6875
 40
0.6875
 40
0.6875
 40
0.6875
 40
0.75
 40
0.75
 40
0.75
 40
0.75
 40
0.8125
 40
0.8125
 40
0.8125
 40
0.8125
 40
0.875
 40
0.875
 40
0.875
 40
0.875
 40
1.0
 40
1.0
 40
1.0
 40
1.0
 10
156.6732
 20
-53.9458
 30
0.0
 10
157.6209
 20
-51.6799
 30
0.0
 10
157.5377
 20
-49.1596
 30
0.0
 10
157.5883
 20
-46.7517
 30
0.0
 10
157.5883
 20
-46.7517
 30
0.0
 10
158.4874
 20
-47.4124
 30
0.0
 10
159.3985
 20
-48.1287
 30
0.0
 10
160.4889
 20
-48.452
 30
0.0
 10
160.4889
 20
-48.452
 30
0.0
 10
162.3376
 20
-49.1153
 30
0.0
 10
164.2903
 20
-48.3684
 30
0.0
 10
166.0191
 20
-47.6974
 30
0.0
 10
166.0191
 20
-47.6974
 30
0.0
 10
165.5573
 20
-46.174
 30
0.0
 10
164.984
 20
-44.616
 30
0.0
 10
163.8631
 20
-43.4505
 30
0.0
 10
163.8631
 20
-43.4505
 30
0.0
 10
162.8339
 20
-42.22
 30
0.0
 10
161.2556
 20
-41.6037
 30
0.0
 10
160.3444
 20
-40.2532
 30
0.0
 10
160.3444
 20
-40.2532
 30
0.0
 10
158.4204
 20
-37.7798
 30
0.0
 10
157.0962
 20
-34.5317
 30
0.0
 10
157.6798
 20
-31.3627
 30
0.0
 10
157.6798
 20
-31.3627
 30
0.0
 10
157.9199
 20
-30.4067
 30
0.0
 10
158.9206
 20
-29.7762
 30
0.0
 10
159.8685
 20
-29.697
 30
0.0
 10
159.8685
 20
-29.697
 30
0.0
 10
162.5918
 20
-29.6338
 30
0.0
 10
165.3276
 20
-30.4534
 30
0.0
 10
167.5505
 20
-32.0319
 30
0.0
 10
167.5505
 20
-32.0319
 30
0.0
 10
169.5848
 20
-33.4413
 30
0.0
 10
170.5488
 20
-36.0122
 30
0.0
 10
172.833
 20
-37.1167
 30
0.0
 10
172.833
 20
-37.1167
 30
0.0
 10
173.6546
 20
-37.5744
 30
0.0
 10
174.5535
 20
-37.8693
 30
0.0
 10
175.4587
 20
-38.1132
 30
0.0
 10
175.4587
 20
-38.1132
 30
0.0
 10
177.1123
 20
-35.5079
 30
0.0
 10
176.8458
 20
-31.7471
 30
0.0
 10
174.4742
 20
-29.6602
 30
0.0
 10
174.4742
 20
-29.6602
 30
0.0
 10
179.3374
 20
-30.3231
 30
0.0
 10
184.282
 20
-28.4317
 30
0.0
 10
187.6808
 20
-24.9352
 30
0.0
 10
187.6808
 20
-24.9352
 30
0.0
 10
186.8367
 20
-36.3277
 30
0.0
 10
180.4521
 20
-47.0565
 30
0.0
 10
170.988
 20
-53.4088
 30
0.0
 10
170.988
 20
-53.4088
 30
0.0
 10
165.59
 20
-57.137
 30
0.0
 10
159.1728
 20
-59.2644
 30
0.0
 10
152.6664
 20
-59.9052
 30
0.0
 10
152.6664
 20
-59.9052
 30
0.0
 10
154.3037
 20
-58.1477
 30
0.0
 10
155.8291
 20
-56.2237
 30
0.0
 10
156.6732
 20
-53.9458
 30
0.0
  0
SPLINE
  5
5F
330
1F
100
AcDbEntity
  8
layer 1
 62
     7
370
     9
100
AcDbSpline
210
0.0
220
0.0
230
1.0
 70
    11
 71
     3
 72
    76
 73
    72
 74
     0
 42
0.0000000001
 43
0.0000000001
 12
1.0
 22
0.0
 32
0.0
 13
1.0
 23
0.0
 33
0.0
 40
0.0
 40
0.0
 40
0.0
 40
0.0
 40
0.0526315789473684
 40
0.0526315789473684
 40
0.0526315789473684
 40
0.0526315789473684
 40
0.1052631578947368
 40
0.1052631578947368
 40
0.1052631578947368
 40
0.1052631578947368
 40
0.1578947368421053
 40
0.1578947368421053
 40
0.1578947368421053
 40
0.1578947368421053
 40
0.2105263157894737
 40
0.2105263157894737
 40
0.2105263157894737
 40
0.2105263157894737
 40
0.2631578947368421
 40
0.2631578947368421
 40
0.2631578947368421
 40
0.2631578947368421
 40
0.3157894736842105
 40
0.3157894736842105
 40
0.3157894736842105
 40
0.3157894736842105
 40
0.3684210526315789
 40
0.3684210526315789
 40
0.3684210526315789
 40
0.3684210526315789
 40
0.4210526315789473
 40
0.4210526315789473
 40
0.4210526315789473
 40
0.4210526315789473
 40
0.4736842105263158
 40
0.4736842105263158
 40
0.4736842105263158
 40
0.4736842105263158
 40
0.5263157894736842
 40
0.5263157894736842
 40
0.5263157894736842
 40
0.5263157894736842
 40
0.5789473684210527
 40
0.5789473684210527
 40
0.5789473684210527
 40
0.5789473684210527
 40
0.631578947368421
 40
0.631578947368421
 40
0.631578947368421
 40
0.631578947368421
 40
0.6842105263157895
 40
0.6842105263157895
 40
0.6842105263157895
 40
0.6842105263157895
 40
0.7368421052631579
 40
0.7368421052631579
 40
0.7368421052631579
 40
0.7368421052631579
 40
0.7894736842105263
 40
0.7894736842105263
 40
0.7894736842105263
 40
0.7894736842105263
 40
0.8421052631578947
 40
0.8421052631578947
 40
0.8421052631578947
 40
0.8421052631578947
 40
0.8947368421052632
 40
0.8947368421052632
 40
0.8947368421052632
 40
0.8947368421052632
 40
1.0
 40
1.0
 40
1.0
 40
1.0
 10
152.7008
 20
16.1239
 30
0.0
 10
156.4352
 20
15.648
 30
0.0
 10
160.1654
 20
14.9523
 30
0.0
 10
163.6559
 20
13.5002
 30
0.0
 10
163.6559
 20
13.5002
 30
0.0
 10
176.9272
 20
8.4376
 30
0.0
 10
186.678
 20
-4.6955
 30
0.0
 10
187.6929
 20
-18.864
 30
0.0
 10
187.6929
 20
-18.864
 30
0.0
 10
186.7045
 20
-17.9914
 30
0.0
 10
185.7098
 20
-17.1189
 30
0.0
 10
184.6055
 20
-16.3969
 30
0.0
 10
184.6055
 20
-16.3969
 30
0.0
 10
181.6542
 20
-14.4098
 30
0.0
 10
177.9788
 20
-13.6754
 30
0.0
 10
174.4703
 20
-14.1352
 30
0.0
 10
174.4703
 20
-14.1352
 30
0.0
 10
175.1395
 20
-13.2362
 30
0.0
 10
175.951
 20
-12.3859
 30
0.0
 10
176.2744
 20
-11.2916
 30
0.0
 10
176.2744
 20
-11.2916
 30
0.0
 10
176.7443
 20
-9.3837
 30
0.0
 10
176.4797
 20
-7.3417
 30
0.0
 10
175.469
 20
-5.6617
 30
0.0
 10
175.469
 20
-5.6617
 30
0.0
 10
174.1711
 20
-5.9507
 30
0.0
 10
172.8959
 20
-6.4547
 30
0.0
 10
171.8527
 20
-7.2949
 30
0.0
 10
171.8527
 20
-7.2949
 30
0.0
 10
170.2783
 20
-8.5052
 30
0.0
 10
169.4179
 20
-10.4089
 30
0.0
 10
167.7845
 20
-11.5602
 30
0.0
 10
167.7845
 20
-11.5602
 30
0.0
 10
165.8503
 20
-12.9941
 30
0.0
 10
163.55
 20
-13.8973
 30
0.0
 10
161.1419
 20
-14.0761
 30
0.0
 10
161.1419
 20
-14.0761
 30
0.0
 10
160.0699
 20
-14.1453
 30
0.0
 10
158.6542
 20
-14.123
 30
0.0
 10
158.034
 20
-13.0816
 30
0.0
 10
158.034
 20
-13.0816
 30
0.0
 10
157.255
 20
-12.0746
 30
0.0
 10
157.5926
 20
-10.7121
 30
0.0
 10
157.6759
 20
-9.5608
 30
0.0
 10
157.6759
 20
-9.5608
 30
0.0
 10
158.0848
 20
-6.8454
 30
0.0
 10
159.4171
 20
-4.2441
 30
0.0
 10
161.4285
 20
-2.3665
 30
0.0
 10
161.4285
 20
-2.3665
 30
0.0
 10
162.4576
 20
-1.5083
 30
0.0
 10
163.6395
 20
-0.7741
 30
0.0
 10
164.4267
 20
0.3406
 30
0.0
 10
164.4267
 20
0.3406
 30
0.0
 10
165.1527
 20
1.4368
 30
0.0
 10
165.6491
 20
2.6694
 30
0.0
 10
166.0191
 20
3.9263
 30
0.0
 10
166.0191
 20
3.9263
 30
0.0
 10
164.5771
 20
4.4287
 30
0.0
 10
163.0863
 20
5.2016
 30
0.0
 10
161.5099
 20
4.8823
 30
0.0
 10
161.5099
 20
4.8823
 30
0.0
 10
160.0088
 20
4.7704
 30
0.0
 10
158.7601
 20
3.8593
 30
0.0
 10
157.5804
 20
3.013
 30
0.0
 10
157.5804
 20
3.013
 30
0.0
 10
157.5355
 20
5.1631
 30
0.0
 10
157.6209
 20
7.3599
 30
0.0
 10
156.9173
 20
9.4264
 30
0.0
 10
156.9173
 20
9.4264
 30
0.0
 10
156.2113
 20
12.0215
 30
0.0
 10
154.5252
 20
14.2058
 30
0.0
 10
152.7008
 20
16.1239
 30
0.0
  0
SPLINE
  5
60
330
1F
100
AcDbEntity
  8
layer 1
 62
     7
370
     9
100
AcDbSpline
210
0.0
220
0.0
230
1.0
 70
    11
 71
     3
 72
    56
 73
    52
 74
     0
 42
0.0000000001
 43
0.0000000001
 12
1.0
 22
0.0
 32
0.0
 13
1.0
 23
0.0
 33
0.0
 40
0.0
 40
0.0
 40
0.0
 40
0.0
 40
0.0714285714285714
 40
0.0714285714285714
 40
0.0714285714285714
 40
0.0714285714285714
 40
0.1428571428571428
 40
0.1428571428571428
 40
0.1428571428571428
 40
0.1428571428571428
 40
0.2142857142857143
 40
0.2142857142857143
 40
0.2142857142857143
 40
0.2142857142857143
 40
0.2857142857142857
 40
0.2857142857142857
 40
0.2857142857142857
 40
0.2857142857142857
 40
0.3571428571428572
 40
0.3571428571428572
 40
0.3571428571428572
 40
0.3571428571428572
 40
0.4285714285714285
 40
0.4285714285714285
 40
0.4285714285714285
 40
0.4285714285714285
 40
0.5
 40
0.5
 40
0.5
 40
0.5
 40
0.5714285714285714
 40
0.5714285714285714
 40
0.5714285714285714
 40
0.5714285714285714
 40
0.6428571428571429
 40
0.6428571428571429
 40
0.6428571428571429
 40
0.6428571428571429
 40
0.7142857142857143
 40
0.7142857142857143
 40
0.7142857142857143
 40
0.7142857142857143
 40
0.7857142857142857
 40
0.7857142857142857
 40
0.7857142857142857
 40
0.7857142857142857
 40
0.8571428571428571
 40
0.8571428571428571
 40
0.8571428571428571
 40
0.8571428571428571
 40
1.0
 40
1.0
 40
1.0
 40
1.0
 10
155.0032
 20
-72.6481
 30
0.0
 10
156.4657
 20
-73.0466
 30
0.0
 10
157.983
 20
-73.1361
 30
0.0
 10
159.4943
 20
-73.0181
 30
0.0
 10
159.4943
 20
-73.0181
 30
0.0
 10
159.2115
 20
-71.3724
 30
0.0
 10
158.884
 20
-69.6904
 30
0.0
 10
157.9567
 20
-68.2666
 30
0.0
 10
157.9567
 20
-68.2666
 30
0.0
 10
156.9477
 20
-66.2188
 30
0.0
 10
155.0012
 20
-64.8883
 30
0.0
 10
153.0649
 20
-63.8084
 30
0.0
 10
153.0649
 20
-63.8084
 30
0.0
 10
155.8026
 20
-63.4483
 30
0.0
 10
158.5484
 20
-63.0822
 30
0.0
 10
161.2148
 20
-62.3419
 30
0.0
 10
161.2148
 20
-62.3419
 30
0.0
 10
167.5609
 20
-60.554
 30
0.0
 10
173.4532
 20
-57.2487
 30
0.0
 10
178.3308
 20
-52.8189
 30
0.0
 10
178.3308
 20
-52.8189
 30
0.0
 10
182.2971
 20
-49.1153
 30
0.0
 10
185.5269
 20
-44.6383
 30
0.0
 10
187.8192
 20
-39.7223
 30
0.0
 10
187.8192
 20
-39.7223
 30
0.0
 10
187.9066
 20
-45.8445
 30
0.0
 10
187.8718
 20
-51.9687
 30
0.0
 10
187.8741
 20
-58.093
 30
0.0
 10
187.8741
 20
-58.093
 30
0.0
 10
187.7805
 20
-59.0448
 30
0.0
 10
188.002
 20
-60.1613
 30
0.0
 10
187.2435
 20
-60.9201
 30
0.0
 10
187.2435
 20
-60.9201
 30
0.0
 10
184.937
 20
-64.5142
 30
0.0
 10
181.2004
 20
-67.0809
 30
0.0
 10
177.155
 20
-68.3419
 30
0.0
 10
177.155
 20
-68.3419
 30
0.0
 10
174.0246
 20
-69.4058
 30
0.0
 10
170.6811
 20
-69.5094
 30
0.0
 10
167.4085
 20
-69.5441
 30
0.0
 10
167.4085
 20
-69.5441
 30
0.0
 10
164.9959
 20
-75.5321
 30
0.0
 10
158.7356
 20
-79.9783
 30
0.0
 10
152.1946
 20
-79.6691
 30
0.0
 10
152.1946
 20
-79.6691
 30
0.0
 10
153.8033
 20
-77.6556
 30
0.0
 10
154.867
 20
-75.2412
 30
0.0
 10
155.0032
 20
-72.6479
 30
0.0
 10
155.0032
 20
-72.6479
 30
0.0
 10
155.0032
 20
-72.6479
 30
0.0
 10
155.0032
 20
-72.6481
 30
0.0
 10
155.0032
 20
-72.6481
 30
0.0
  0
SPLINE
  5
61
330
1F
100
AcDbEntity
  8
layer 1
 62
     7
370
     9
100
AcDbSpline
210
0.0
220
0.0
230
1.0
 70
    11
 71
     3
 72
    48
 73
    44
 74
     0
 42
0.0000000001
 43
0.0000000001
 12
1.0
 22
0.0
 32
0.0
 13
1.0
 23
0.0
 33
0.0
 40
0.0
 40
0.0
 40
0.0
 40
0.0
 40
0.0833333333333333
 40
0.0833333333333333
 40
0.0833333333333333
 40
0.0833333333333333
 40
0.1666666666666667
 40
0.1666666666666667
 40
0.1666666666666667
 40
0.1666666666666667
 40
0.25
 40
0.25
 40
0.25
 40
0.25
 40
0.3333333333333333
 40
0.3333333333333333
 40
0.3333333333333333
 40
0.3333333333333333
 40
0.4166666666666667
 40
0.4166666666666667
 40
0.4166666666666667
 40
0.4166666666666667
 40
0.5
 40
0.5
 40
0.5
 40
0.5
 40
0.5833333333333334
 40
0.5833333333333334
 40
0.5833333333333334
 40
0.5833333333333334
 40
0.6666666666666666
 40
0.6666666666666666
 40
0.6666666666666666
 40
0.6666666666666666
 40
0.75
 40
0.75
 40
0.75
 40
0.75
 40
0.8333333333333334
 40
0.8333333333333334
 40
0.8333333333333334
 40
0.8333333333333334
 40
1.0
 40
1.0
 40
1.0
 40
1.0
 10
152.1069
 20
35.9328
 30
0.0
 10
158.7152
 20
36.1992
 30
0.0
 10
164.937
 20
31.8201
 30
0.0
 10
167.4164
 20
25.7853
 30
0.0
 10
167.4164
 20
25.7853
 30
0.0
 10
171.1673
 20
25.7813
 30
0.0
 10
174.9932
 20
25.4641
 30
0.0
 10
178.5241
 20
24.1051
 30
0.0
 10
178.5241
 20
24.1051
 30
0.0
 10
182.0366
 20
22.7325
 30
0.0
 10
185.1524
 20
20.3058
 30
0.0
 10
187.2415
 20
17.1531
 30
0.0
 10
187.2415
 20
17.1531
 30
0.0
 10
188.0123
 20
16.4006
 30
0.0
 10
187.7785
 20
15.2861
 30
0.0
 10
187.8759
 20
14.328
 30
0.0
 10
187.8759
 20
14.328
 30
0.0
 10
187.8698
 20
8.2038
 30
0.0
 10
187.9066
 20
2.0795
 30
0.0
 10
187.821
 20
-4.0466
 30
0.0
 10
187.821
 20
-4.0466
 30
0.0
 10
185.1953
 20
1.502
 30
0.0
 10
181.4548
 20
6.5705
 30
0.0
 10
176.675
 20
10.4492
 30
0.0
 10
176.675
 20
10.4492
 30
0.0
 10
170.0607
 20
16.0223
 30
0.0
 10
161.6645
 20
19.3174
 30
0.0
 10
153.069
 20
20.0558
 30
0.0
 10
153.069
 20
20.0558
 30
0.0
 10
154.7978
 20
21.0116
 30
0.0
 10
156.5286
 20
22.1445
 30
0.0
 10
157.5681
 20
23.8774
 30
0.0
 10
157.5681
 20
23.8774
 30
0.0
 10
158.7111
 20
25.4599
 30
0.0
 10
159.2176
 20
27.3818
 30
0.0
 10
159.4943
 20
29.2857
 30
0.0
 10
159.4943
 20
29.2857
 30
0.0
 10
157.9769
 20
29.3142
 30
0.0
 10
156.4576
 20
29.1718
 30
0.0
 10
154.9727
 20
28.8586
 30
0.0
 10
154.9727
 20
28.8586
 30
0.0
 10
154.7937
 20
31.4641
 30
0.0
 10
153.8908
 20
33.9943
 30
0.0
 10
152.1069
 20
35.9328
 30
0.0
  0
SPLINE
  5
62
330
1F
100
AcDbEntity
  8
layer 1
 62
     7
370
     9
100
AcDbSpline
210
0.0
220
0.0
230
1.0
 70
    11
 71
     3
 72
    56
 73
    52
 74
     0
 42
0.0000000001
 43
0.0000000001
 12
1.0
 22
0.0
 32
0.0
 13
1.0
 23
0.0
 33
0.0
 40
0.0
 40
0.0
 40
0.0
 40
0.0
 40
0.0714285714285714
 40
0.0714285714285714
 40
0.0714285714285714
 40
0.0714285714285714
 40
0.1428571428571428
 40
0.1428571428571428
 40
0.1428571428571428
 40
0.1428571428571428
 40
0.2142857142857143
 40
0.2142857142857143
 40
0.2142857142857143
 40
0.2142857142857143
 40
0.2857142857142857
 40
0.2857142857142857
 40
0.2857142857142857
 40
0.2857142857142857
 40
0.3571428571428572
 40
0.3571428571428572
 40
0.3571428571428572
 40
0.3571428571428572
 40
0.4285714285714285
 40
0.4285714285714285
 40
0.4285714285714285
 40
0.4285714285714285
 40
0.5
 40
0.5
 40
0.5
 40
0.5
 40
0.5714285714285714
 40
0.5714285714285714
 40
0.5714285714285714
 40
0.5714285714285714
 40
0.6428571428571429
 40
0.6428571428571429
 40
0.6428571428571429
 40
0.6428571428571429
 40
0.7142857142857143
 40
0.7142857142857143
 40
0.7142857142857143
 40
0.7142857142857143
 40
0.7857142857142857
 40
0.7857142857142857
 40
0.7857142857142857
 40
0.7857142857142857
 40
0.8571428571428571
 40
0.8571428571428571
 40
0.8571428571428571
 40
0.8571428571428571
 40
1.0
 40
1.0
 40
1.0
 40
1.0
 10
144.1113
 20
-19.1773
 30
0.0
 10
145.7102
 20
-18.7767
 30
0.0
 10
146.8289
 20
-17.3509
 30
0.0
 10
147.2133
 20
-15.8028
 30
0.0
 10
147.2133
 20
-15.8028
 30
0.0
 10
148.58
 20
-10.2403
 30
0.0
 10
149.3894
 20
-4.549
 30
0.0
 10
149.7455
 20
1.1664
 30
0.0
 10
149.7455
 20
1.1664
 30
0.0
 10
150.2643
 20
-4.7973
 30
0.0
 10
150.911
 20
-10.7994
 30
0.0
 10
152.5299
 20
-16.5779
 30
0.0
 10
152.5299
 20
-16.5779
 30
0.0
 10
153.0162
 20
-18.1359
 30
0.0
 10
154.4887
 20
-18.9799
 30
0.0
 10
155.9653
 20
-19.397
 30
0.0
 10
155.9653
 20
-19.397
 30
0.0
 10
161.2026
 20
-20.709
 30
0.0
 10
166.5703
 20
-21.3739
 30
0.0
 10
171.9359
 20
-21.9067
 30
0.0
 10
171.9359
 20
-21.9067
 30
0.0
 10
167.4409
 20
-22.4113
 30
0.0
 10
162.9276
 20
-22.8669
 30
0.0
 10
158.4996
 20
-23.8227
 30
0.0
 10
158.4996
 20
-23.8227
 30
0.0
 10
156.9376
 20
-24.1992
 30
0.0
 10
155.2067
 20
-24.2946
 30
0.0
 10
153.9131
 20
-25.3544
 30
0.0
 10
153.9131
 20
-25.3544
 30
0.0
 10
152.7232
 20
-26.0866
 30
0.0
 10
152.3715
 20
-27.549
 30
0.0
 10
152.0703
 20
-28.808
 30
0.0
 10
152.0703
 20
-28.808
 30
0.0
 10
150.8297
 20
-34.1066
 30
0.0
 10
150.0811
 20
-39.5067
 30
0.0
 10
149.717
 20
-44.9352
 30
0.0
 10
149.717
 20
-44.9352
 30
0.0
 10
149.235
 20
-38.9656
 30
0.0
 10
148.5639
 20
-32.9614
 30
0.0
 10
146.9468
 20
-27.1808
 30
0.0
 10
146.9468
 20
-27.1808
 30
0.0
 10
146.2371
 20
-25.0717
 30
0.0
 10
143.9508
 20
-24.366
 30
0.0
 10
141.986
 20
-24.0181
 30
0.0
 10
141.986
 20
-24.0181
 30
0.0
 10
137.2408
 20
-22.9645
 30
0.0
 10
132.4225
 20
-22.3157
 30
0.0
 10
127.5835
 20
-21.8824
 30
0.0
 10
127.5835
 20
-21.8824
 30
0.0
 10
133.12
 20
-21.1828
 30
0.0
 10
138.7297
 20
-20.7252
 30
0.0
 10
144.1113
 20
-19.1773
 30
0.0
  0
SPLINE
  5
63
330
1F
100
AcDbEntity
  8
layer 1
 62
     7
370
     9
100
AcDbSpline
210
0.0
220
0.0
230
1.0
 70
    11
 71
     3
 72
    28
 73
    24
 74
     0
 42
0.0000000001
 43
0.0000000001
 12
1.0
 22
0.0
 32
0.0
 13
1.0
 23
0.0
 33
0.0
 40
0.0
 40
0.0
 40
0.0
 40
0.0
 40
0.1428571428571428
 40
0.1428571428571428
 40
0.1428571428571428
 40
0.1428571428571428
 40
0.2857142857142857
 40
0.2857142857142857
 40
0.2857142857142857
 40
0.2857142857142857
 40
0.4285714285714285
 40
0.4285714285714285
 40
0.4285714285714285
 40
0.4285714285714285
 40
0.5714285714285714
 40
0.5714285714285714
 40
0.5714285714285714
 40
0.5714285714285714
 40
0.7142857142857143
 40
0.7142857142857143
 40
0.7142857142857143
 40
0.7142857142857143
 40
1.0
 40
1.0
 40
1.0
 40
1.0
 10
111.8103
 20
-68.6449
 30
0.0
 10
112.6726
 20
-69.3489
 30
0.0
 10
113.5453
 20
-70.0383
 30
0.0
 10
114.4565
 20
-70.6812
 30
0.0
 10
114.4565
 20
-70.6812
 30
0.0
 10
118.5081
 20
-73.6446
 30
0.0
 10
123.6133
 20
-74.9281
 30
0.0
 10
128.5883
 20
-74.8588
 30
0.0
 10
128.5883
 20
-74.8588
 30
0.0
 10
132.28
 20
-79.7688
 30
0.0
 10
137.8286
 20
-83.1267
 30
0.0
 10
143.7617
 20
-84.5811
 30
0.0
 10
143.7617
 20
-84.5811
 30
0.0
 10
143.7272
 20
-84.7053
 30
0.0
 10
143.6579
 20
-84.9553
 30
0.0
 10
143.6255
 20
-85.0794
 30
0.0
 10
143.6255
 20
-85.0794
 30
0.0
 10
133.0182
 20
-85.2136
 30
0.0
 10
122.409
 20
-85.1037
 30
0.0
 10
111.8
 20
-85.1363
 30
0.0
 10
111.8
 20
-85.1363
 30
0.0
 10
111.8041
 20
-79.6385
 30
0.0
 10
111.7859
 20
-74.1409
 30
0.0
 10
111.8103
 20
-68.6449
 30
0.0
  0
SPLINE
  5
64
330
1F
100
AcDbEntity
  8
layer 1
 62
     7
370
     9
100
AcDbSpline
210
0.0
220
0.0
230
1.0
 70
    11
 71
     3
 72
    52
 73
    48
 74
     0
 42
0.0000000001
 43
0.0000000001
 12
1.0
 22
0.0
 32
0.0
 13
1.0
 23
0.0
 33
0.0
 40
0.0
 40
0.0
 40
0.0
 40
0.0
 40
0.0769230769230769
 40
0.0769230769230769
 40
0.0769230769230769
 40
0.0769230769230769
 40
0.1538461538461539
 40
0.1538461538461539
 40
0.1538461538461539
 40
0.1538461538461539
 40
0.2307692307692308
 40
0.2307692307692308
 40
0.2307692307692308
 40
0.2307692307692308
 40
0.3076923076923077
 40
0.3076923076923077
 40
0.3076923076923077
 40
0.3076923076923077
 40
0.3846153846153846
 40
0.3846153846153846
 40
0.3846153846153846
 40
0.3846153846153846
 40
0.4615384615384616
 40
0.4615384615384616
 40
0.4615384615384616
 40
0.4615384615384616
 40
0.5384615384615384
 40
0.5384615384615384
 40
0.5384615384615384
 40
0.5384615384615384
 40
0.6153846153846154
 40
0.6153846153846154
 40
0.6153846153846154
 40
0.6153846153846154
 40
0.6923076923076923
 40
0.6923076923076923
 40
0.6923076923076923
 40
0.6923076923076923
 40
0.7692307692307693
 40
0.7692307692307693
 40
0.7692307692307693
 40
0.7692307692307693
 40
0.8461538461538461
 40
0.8461538461538461
 40
0.8461538461538461
 40
0.8461538461538461
 40
1.0
 40
1.0
 40
1.0
 40
1.0
 10
111.8449
 20
-40.1291
 30
0.0
 10
115.1174
 20
-46.9936
 30
0.0
 10
120.2674
 20
-52.9329
 30
0.0
 10
126.6518
 20
-57.0718
 30
0.0
 10
126.6518
 20
-57.0718
 30
0.0
 10
132.5281
 20
-60.9588
 30
0.0
 10
139.407
 20
-63.192
 30
0.0
 10
146.4057
 20
-63.8286
 30
0.0
 10
146.4057
 20
-63.8286
 30
0.0
 10
144.6687
 20
-64.7725
 30
0.0
 10
142.9806
 20
-65.9522
 30
0.0
 10
141.9106
 20
-67.6524
 30
0.0
 10
141.9106
 20
-67.6524
 30
0.0
 10
140.7514
 20
-69.2248
 30
0.0
 10
140.247
 20
-71.1508
 30
0.0
 10
139.9683
 20
-73.0547
 30
0.0
 10
139.9683
 20
-73.0547
 30
0.0
 10
141.4916
 20
-73.1096
 30
0.0
 10
143.0193
 20
-72.9752
 30
0.0
 10
144.504
 20
-72.6296
 30
0.0
 10
144.504
 20
-72.6296
 30
0.0
 10
144.7075
 20
-75.225
 30
0.0
 10
145.5454
 20
-77.7775
 30
0.0
 10
147.3799
 20
-79.6873
 30
0.0
 10
147.3799
 20
-79.6873
 30
0.0
 10
143.8978
 20
-79.7668
 30
0.0
 10
140.3974
 20
-78.7274
 30
0.0
 10
137.6231
 20
-76.6079
 30
0.0
 10
137.6231
 20
-76.6079
 30
0.0
 10
135.1192
 20
-74.8629
 30
0.0
 10
133.3499
 20
-72.2716
 30
0.0
 10
132.0603
 20
-69.5461
 30
0.0
 10
132.0603
 20
-69.5461
 30
0.0
 10
129.7864
 20
-69.4728
 30
0.0
 10
127.4902
 20
-69.5014
 30
0.0
 10
125.2505
 20
-69.0517
 30
0.0
 10
125.2505
 20
-69.0517
 30
0.0
 10
119.9339
 20
-68.1935
 30
0.0
 10
114.8388
 20
-65.1954
 30
0.0
 10
111.9954
 20
-60.5601
 30
0.0
 10
111.9954
 20
-60.5601
 30
0.0
 10
111.5397
 20
-53.779
 30
0.0
 10
111.8895
 20
-46.9347
 30
0.0
 10
111.8449
 20
-40.1289
 30
0.0
 10
111.8449
 20
-40.1289
 30
0.0
 10
111.8449
 20
-40.1289
 30
0.0
 10
111.8449
 20
-40.1291
 30
0.0
 10
111.8449
 20
-40.1291
 30
0.0
  0
SPLINE
  5
65
330
1F
100
AcDbEntity
  8
layer 1
 62
     7
370
     9
100
AcDbSpline
210
0.0
220
0.0
230
1.0
 70
    11
 71
     3
 72
    72
 73
    68
 74
     0
 42
0.0000000001
 43
0.0000000001
 12
1.0
 22
0.0
 32
0.0
 13
1.0
 23
0.0
 33
0.0
 40
0.0
 40
0.0
 40
0.0
 40
0.0
 40
0.0555555555555556
 40
0.0555555555555556
 40
0.0555555555555556
 40
0.0555555555555556
 40
0.1111111111111111
 40
0.1111111111111111
 40
0.1111111111111111
 40
0.1111111111111111
 40
0.1666666666666667
 40
0.1666666666666667
 40
0.1666666666666667
 40
0.1666666666666667
 40
0.2222222222222222
 40
0.2222222222222222
 40
0.2222222222222222
 40
0.2222222222222222
 40
0.2777777777777778
 40
0.2777777777777778
 40
0.2777777777777778
 40
0.2777777777777778
 40
0.3333333333333333
 40
0.3333333333333333
 40
0.3333333333333333
 40
0.3333333333333333
 40
0.3888888888888889
 40
0.3888888888888889
 40
0.3888888888888889
 40
0.3888888888888889
 40
0.4444444444444444
 40
0.4444444444444444
 40
0.4444444444444444
 40
0.4444444444444444
 40
0.5
 40
0.5
 40
0.5
 40
0.5
 40
0.5555555555555556
 40
0.5555555555555556
 40
0.5555555555555556
 40
0.5555555555555556
 40
0.6111111111111112
 40
0.6111111111111112
 40
0.6111111111111112
 40
0.6111111111111112
 40
0.6666666666666666
 40
0.6666666666666666
 40
0.6666666666666666
 40
0.6666666666666666
 40
0.7222222222222222
 40
0.7222222222222222
 40
0.7222222222222222
 40
0.7222222222222222
 40
0.7777777777777778
 40
0.7777777777777778
 40
0.7777777777777778
 40
0.7777777777777778
 40
0.8333333333333334
 40
0.8333333333333334
 40
0.8333333333333334
 40
0.8333333333333334
 40
0.8888888888888888
 40
0.8888888888888888
 40
0.8888888888888888
 40
0.8888888888888888
 40
1.0
 40
1.0
 40
1.0
 40
1.0
 10
111.7697
 20
-24.9008
 30
0.0
 10
113.1608
 20
-26.1335
 30
0.0
 10
114.5948
 20
-27.3559
 30
0.0
 10
116.275
 20
-28.1836
 30
0.0
 10
116.275
 20
-28.1836
 30
0.0
 10
118.925
 20
-29.5871
 30
0.0
 10
122.0268
 20
-30.0304
 30
0.0
 10
124.9863
 20
-29.6419
 30
0.0
 10
124.9863
 20
-29.6419
 30
0.0
 10
123.7882
 20
-31.0332
 30
0.0
 10
122.759
 20
-32.7743
 30
0.0
 10
122.993
 20
-34.6882
 30
0.0
 10
122.993
 20
-34.6882
 30
0.0
 10
122.9786
 20
-35.9187
 30
0.0
 10
123.5156
 20
-37.0333
 30
0.0
 10
123.9877
 20
-38.1357
 30
0.0
 10
123.9877
 20
-38.1357
 30
0.0
 10
125.4539
 20
-37.7473
 30
0.0
 10
126.9532
 20
-37.184
 30
0.0
 10
128.0535
 20
-36.0978
 30
0.0
 10
128.0535
 20
-36.0978
 30
0.0
 10
129.2249
 20
-35.0238
 30
0.0
 10
130.0182
 20
-33.6002
 30
0.0
 10
131.2487
 20
-32.581
 30
0.0
 10
131.2487
 20
-32.581
 30
0.0
 10
133.2359
 20
-30.8785
 30
0.0
 10
135.7722
 20
-29.9593
 30
0.0
 10
138.3492
 20
-29.6664
 30
0.0
 10
138.3492
 20
-29.6664
 30
0.0
 10
139.6978
 20
-29.4997
 30
0.0
 10
141.3311
 20
-29.9106
 30
0.0
 10
141.8335
 20
-31.3159
 30
0.0
 10
141.8335
 20
-31.3159
 30
0.0
 10
142.23
 20
-34.2345
 30
0.0
 10
141.2374
 20
-37.1554
 30
0.0
 10
139.6774
 20
-39.588
 30
0.0
 10
139.6774
 20
-39.588
 30
0.0
 10
138.5811
 20
-41.0606
 30
0.0
 10
137.0029
 20
-42.0694
 30
0.0
 10
135.7133
 20
-43.3568
 30
0.0
 10
135.7133
 20
-43.3568
 30
0.0
 10
134.5946
 20
-44.5183
 30
0.0
 10
133.9784
 20
-46.0254
 30
0.0
 10
133.4454
 20
-47.5184
 30
0.0
 10
133.4454
 20
-47.5184
 30
0.0
 10
134.8265
 20
-48.2202
 30
0.0
 10
136.356
 20
-48.9868
 30
0.0
 10
137.9567
 20
-48.6451
 30
0.0
 10
137.9567
 20
-48.6451
 30
0.0
 10
139.4477
 20
-48.5232
 30
0.0
 10
140.7474
 20
-47.6974
 30
0.0
 10
141.8906
 20
-46.7922
 30
0.0
 10
141.8906
 20
-46.7922
 30
0.0
 10
141.9167
 20
-48.7714
 30
0.0
 10
141.8762
 20
-50.787
 30
0.0
 10
142.403
 20
-52.715
 30
0.0
 10
142.403
 20
-52.715
 30
0.0
 10
143.1432
 20
-55.465
 30
0.0
 10
144.7847
 20
-57.8853
 30
0.0
 10
146.7779
 20
-59.8889
 30
0.0
 10
146.7779
 20
-59.8889
 30
0.0
 10
140.7777
 20
-59.2422
 30
0.0
 10
134.8203
 20
-57.4787
 30
0.0
 10
129.7091
 20
-54.2123
 30
0.0
 10
129.7091
 20
-54.2123
 30
0.0
 10
119.576
 20
-47.968
 30
0.0
 10
112.6991
 20
-36.773
 30
0.0
 10
111.7697
 20
-24.9008
 30
0.0
  0
SPLINE
  5
66
330
1F
100
AcDbEntity
  8
layer 1
 62
     7
370
     9
100
AcDbSpline
210
0.0
220
0.0
230
1.0
 70
    11
 71
     3
 72
    72
 73
    68
 74
     0
 42
0.0000000001
 43
0.0000000001
 12
1.0
 22
0.0
 32
0.0
 13
1.0
 23
0.0
 33
0.0
 40
0.0
 40
0.0
 40
0.0
 40
0.0
 40
0.0555555555555556
 40
0.0555555555555556
 40
0.0555555555555556
 40
0.0555555555555556
 40
0.1111111111111111
 40
0.1111111111111111
 40
0.1111111111111111
 40
0.1111111111111111
 40
0.1666666666666667
 40
0.1666666666666667
 40
0.1666666666666667
 40
0.1666666666666667
 40
0.2222222222222222
 40
0.2222222222222222
 40
0.2222222222222222
 40
0.2222222222222222
 40
0.2777777777777778
 40
0.2777777777777778
 40
0.2777777777777778
 40
0.2777777777777778
 40
0.3333333333333333
 40
0.3333333333333333
 40
0.3333333333333333
 40
0.3333333333333333
 40
0.3888888888888889
 40
0.3888888888888889
 40
0.3888888888888889
 40
0.3888888888888889
 40
0.4444444444444444
 40
0.4444444444444444
 40
0.4444444444444444
 40
0.4444444444444444
 40
0.5
 40
0.5
 40
0.5
 40
0.5
 40
0.5555555555555556
 40
0.5555555555555556
 40
0.5555555555555556
 40
0.5555555555555556
 40
0.6111111111111112
 40
0.6111111111111112
 40
0.6111111111111112
 40
0.6111111111111112
 40
0.6666666666666666
 40
0.6666666666666666
 40
0.6666666666666666
 40
0.6666666666666666
 40
0.7222222222222222
 40
0.7222222222222222
 40
0.7222222222222222
 40
0.7222222222222222
 40
0.7777777777777778
 40
0.7777777777777778
 40
0.7777777777777778
 40
0.7777777777777778
 40
0.8333333333333334
 40
0.8333333333333334
 40
0.8333333333333334
 40
0.8333333333333334
 40
0.8888888888888888
 40
0.8888888888888888
 40
0.8888888888888888
 40
0.8888888888888888
 40
1.0
 40
1.0
 40
1.0
 40
1.0
 10
117.0233
 20
-2.4989
 30
0.0
 10
119.8707
 20
2.3461
 30
0.0
 10
123.8818
 20
6.4403
 30
0.0
 10
128.4784
 20
9.6438
 30
0.0
 10
128.4784
 20
9.6438
 30
0.0
 10
133.9051
 20
13.3192
 30
0.0
 10
140.2836
 20
15.5077
 30
0.0
 10
146.7982
 20
16.1403
 30
0.0
 10
146.7982
 20
16.1403
 30
0.0
 10
145.578
 20
14.7572
 30
0.0
 10
144.2801
 20
13.3862
 30
0.0
 10
143.5053
 20
11.69
 30
0.0
 10
143.5053
 20
11.69
 30
0.0
 10
141.99
 20
9.06
 30
0.0
 10
141.8436
 20
5.948
 30
0.0
 10
141.8783
 20
2.9867
 30
0.0
 10
141.8783
 20
2.9867
 30
0.0
 10
140.7573
 20
3.8328
 30
0.0
 10
139.5635
 20
4.7034
 30
0.0
 10
138.1316
 20
4.8864
 30
0.0
 10
138.1316
 20
4.8864
 30
0.0
 10
136.4904
 20
5.173
 30
0.0
 10
134.8672
 20
4.5285
 30
0.0
 10
133.4535
 20
3.7596
 30
0.0
 10
133.4535
 20
3.7596
 30
0.0
 10
133.9296
 20
2.2973
 30
0.0
 10
134.56
 20
0.8348
 30
0.0
 10
135.6218
 20
-0.3021
 30
0.0
 10
135.6218
 20
-0.3021
 30
0.0
 10
136.6367
 20
-1.5368
 30
0.0
 10
138.1579
 20
-2.2243
 30
0.0
 10
139.1323
 20
-3.5035
 30
0.0
 10
139.1323
 20
-3.5035
 30
0.0
 10
141.0749
 20
-6.0013
 30
0.0
 10
142.2952
 20
-9.2535
 30
0.0
 10
141.807
 20
-12.4389
 30
0.0
 10
141.807
 20
-12.4389
 30
0.0
 10
141.5548
 20
-13.5838
 30
0.0
 10
140.296
 20
-14.0538
 30
0.0
 10
139.2442
 20
-14.1167
 30
0.0
 10
139.2442
 20
-14.1167
 30
0.0
 10
135.9453
 20
-14.0335
 30
0.0
 10
132.5749
 20
-12.7561
 30
0.0
 10
130.3153
 20
-10.2951
 30
0.0
 10
130.3153
 20
-10.2951
 30
0.0
 10
129.3166
 20
-9.1926
 30
0.0
 10
128.5863
 20
-7.7912
 30
0.0
 10
127.2582
 20
-7.0327
 30
0.0
 10
127.2582
 20
-7.0327
 30
0.0
 10
126.28
 20
-6.3553
 30
0.0
 10
125.1469
 20
-5.9546
 30
0.0
 10
124.0059
 20
-5.6516
 30
0.0
 10
124.0059
 20
-5.6516
 30
0.0
 10
123.5073
 20
-6.9369
 30
0.0
 10
122.818
 20
-8.2469
 30
0.0
 10
122.997
 20
-9.6685
 30
0.0
 10
122.997
 20
-9.6685
 30
0.0
 10
122.9096
 20
-11.3892
 30
0.0
 10
123.9345
 20
-12.8579
 30
0.0
 10
124.97
 20
-14.1271
 30
0.0
 10
124.97
 20
-14.1271
 30
0.0
 10
120.1087
 20
-13.472
 30
0.0
 10
115.1926
 20
-15.3656
 30
0.0
 10
111.7838
 20
-18.8356
 30
0.0
 10
111.7838
 20
-18.8356
 30
0.0
 10
112.3147
 20
-13.0917
 30
0.0
 10
114.066
 20
-7.4557
 30
0.0
 10
117.0233
 20
-2.4989
 30
0.0
  0
SPLINE
  5
67
330
1F
100
AcDbEntity
  8
layer 1
 62
     7
370
     9
100
AcDbSpline
210
0.0
220
0.0
230
1.0
 70
    11
 71
     3
 72
    40
 73
    36
 74
     0
 42
0.0000000001
 43
0.0000000001
 12
1.0
 22
0.0
 32
0.0
 13
1.0
 23
0.0
 33
0.0
 40
0.0
 40
0.0
 40
0.0
 40
0.0
 40
0.1
 40
0.1
 40
0.1
 40
0.1
 40
0.2
 40
0.2
 40
0.2
 40
0.2
 40
0.3
 40
0.3
 40
0.3
 40
0.3
 40
0.4
 40
0.4
 40
0.4
 40
0.4
 40
0.5
 40
0.5
 40
0.5
 40
0.5
 40
0.6
 40
0.6
 40
0.6
 40
0.6
 40
0.7
 40
0.7
 40
0.7
 40
0.7
 40
0.8
 40
0.8
 40
0.8
 40
0.8
 40
1.0
 40
1.0
 40
1.0
 40
1.0
 10
111.9466
 20
16.6548
 30
0.0
 10
113.0368
 20
18.8026
 30
0.0
 10
114.9546
 20
20.4483
 30
0.0
 10
116.8401
 20
21.8923
 30
0.0
 10
116.8401
 20
21.8923
 30
0.0
 10
121.2133
 20
25.051
 30
0.0
 10
126.7945
 20
25.8766
 30
0.0
 10
132.0644
 20
25.7813
 30
0.0
 10
132.0644
 20
25.7813
 30
0.0
 10
134.5538
 20
31.8058
 30
0.0
 10
140.8063
 20
36.2275
 30
0.0
 10
147.4044
 20
35.9369
 30
0.0
 10
147.4044
 20
35.9369
 30
0.0
 10
145.643
 20
33.9902
 30
0.0
 10
144.6078
 20
31.5027
 30
0.0
 10
144.4815
 20
28.8789
 30
0.0
 10
144.4815
 20
28.8789
 30
0.0
 10
143.0009
 20
29.1862
 30
0.0
 10
141.4836
 20
29.2632
 30
0.0
 10
139.9764
 20
29.2491
 30
0.0
 10
139.9764
 20
29.2491
 30
0.0
 10
140.308
 20
25.293
 30
0.0
 10
142.8363
 20
21.7521
 30
0.0
 10
146.4037
 20
20.0475
 30
0.0
 10
146.4037
 20
20.0475
 30
0.0
 10
142.2422
 20
19.5267
 30
0.0
 10
138.0522
 20
18.8311
 30
0.0
 10
134.1715
 20
17.1754
 30
0.0
 10
134.1715
 20
17.1754
 30
0.0
 10
124.437
 20
13.4066
 30
0.0
 10
116.3175
 20
5.7893
 30
0.0
 10
111.8449
 20
-3.6336
 30
0.0
 10
111.8449
 20
-3.6336
 30
0.0
 10
111.8589
 20
3.127
 30
0.0
 10
111.5988
 20
9.9063
 30
0.0
 10
111.9466
 20
16.6548
 30
0.0
  0
SPLINE
  5
68
330
1F
100
AcDbEntity
  8
layer 1
 62
     7
370
     9
100
AcDbSpline
210
0.0
220
0.0
230
1.0
 70
    11
 71
     3
 72
    28
 73
    24
 74
     0
 42
0.0000000001
 43
0.0000000001
 12
1.0
 22
0.0
 32
0.0
 13
1.0
 23
0.0
 33
0.0
 40
0.0
 40
0.0
 40
0.0
 40
0.0
 40
0.1428571428571428
 40
0.1428571428571428
 40
0.1428571428571428
 40
0.1428571428571428
 40
0.2857142857142857
 40
0.2857142857142857
 40
0.2857142857142857
 40
0.2857142857142857
 40
0.4285714285714285
 40
0.4285714285714285
 40
0.4285714285714285
 40
0.4285714285714285
 40
0.5714285714285714
 40
0.5714285714285714
 40
0.5714285714285714
 40
0.5714285714285714
 40
0.7142857142857143
 40
0.7142857142857143
 40
0.7142857142857143
 40
0.7142857142857143
 40
1.0
 40
1.0
 40
1.0
 40
1.0
 10
111.8022
 20
41.3715
 30
0.0
 10
122.4114
 20
41.3328
 30
0.0
 10
133.0244
 20
41.4587
 30
0.0
 10
143.6336
 20
41.3063
 30
0.0
 10
143.6336
 20
41.3063
 30
0.0
 10
143.6599
 20
41.1804
 30
0.0
 10
143.7128
 20
40.9239
 30
0.0
 10
143.7373
 20
40.7978
 30
0.0
 10
143.7373
 20
40.7978
 30
0.0
 10
137.8184
 20
39.3212
 30
0.0
 10
132.2494
 20
36.0241
 30
0.0
 10
128.5964
 20
31.0737
 30
0.0
 10
128.5964
 20
31.0737
 30
0.0
 10
125.1754
 20
30.9595
 30
0.0
 10
121.6566
 20
30.6139
 30
0.0
 10
118.502
 20
29.1862
 30
0.0
 10
118.502
 20
29.1862
 30
0.0
 10
116.0489
 20
28.1366
 30
0.0
 10
113.8545
 20
26.5827
 30
0.0
 10
111.8083
 20
24.8862
 30
0.0
 10
111.8083
 20
24.8862
 30
0.0
 10
111.7899
 20
30.3818
 30
0.0
 10
111.8022
 20
35.8777
 30
0.0
 10
111.8022
 20
41.3715
 30
0.0
  0
ENDSEC
  0
SECTION
  2
OBJECTS
  0
DICTIONARY
  5
C
330
0
100
AcDbDictionary
281
     1
  3
ACAD_GROUP
350
D
  3
ACAD_LAYOUT
350
1A
  3
ACAD_MATERIAL
350
3B
  3
ACAD_MLEADERSTYLE
350
8A
  3
ACAD_MLINESTYLE
350
17
  3
ACAD_PLOTSETTINGS
350
19
  3
ACAD_PLOTSTYLENAME
350
E
  3
ACAD_TABLESTYLE
350
89
  3
ACAD_VISUALSTYLE
350
2A
  0
DICTIONARY
  5
D
102
{ACAD_REACTORS
330
C
102
}
330
C
100
AcDbDictionary
281
     1
  0
DICTIONARY
  5
1A
102
{ACAD_REACTORS
330
C
102
}
330
C
100
AcDbDictionary
281
     1
  3
Layout1
350
1E
  3
Layout2
350
26
  3
Model
350
22
  0
DICTIONARY
  5
3B
102
{ACAD_REACTORS
330
C
102
}
330
C
100
AcDbDictionary
281
     1
  3
ByBlock
350
3D
  3
ByLayer
350
3C
  3
Global
350
3E
  0
DICTIONARY
  5
8A
102
{ACAD_REACTORS
330
C
102
}
330
C
100
AcDbDictionary
281
     1
  0
DICTIONARY
  5
17
102
{ACAD_REACTORS
330
C
102
}
330
C
100
AcDbDictionary
281
     1
  3
Standard
350
18
  0
DICTIONARY
  5
19
102
{ACAD_REACTORS
330
C
102
}
330
C
100
AcDbDictionary
281
     1
  0
ACDBDICTIONARYWDFLT
  5
E
102
{ACAD_REACTORS
330
C
102
}
330
C
100
AcDbDictionary
281
     1
  3
Normal
350
F
100
AcDbDictionaryWithDefault
340
F
  0
DICTIONARY
  5
89
102
{ACAD_REACTORS
330
C
102
}
330
C
100
AcDbDictionary
281
     1
  0
DICTIONARY
  5
2A
102
{ACAD_REACTORS
330
C
102
}
330
C
100
AcDbDictionary
281
     1
  3
2dWireframe
350
2F
  3
3D Hidden
350
31
  3
3dWireframe
350
30
  3
Basic
350
32
  3
Brighten
350
36
  3
ColorChange
350
3A
  3
Conceptual
350
34
  3
Dim
350
35
  3
Facepattern
350
39
  3
Flat
350
2B
  3
FlatWithEdges
350
2C
  3
Gouraud
350
2D
  3
GouraudWithEdges
350
2E
  3
Linepattern
350
38
  3
Realistic
350
33
  3
Thicken
350
37
  0
LAYOUT
  5
1E
102
{ACAD_REACTORS
330
1A
102
}
330
1A
100
AcDbPlotSettings
  1

  2
none_device
  4

  6

 40
0.0
 41
0.0
 42
0.0
 43
0.0
 44
0.0
 45
0.0
 46
0.0
 47
0.0
 48
0.0
 49
0.0
140
0.0
141
0.0
142
1.0
143
1.0
 70
   688
 72
     0
 73
     0
 74
     5
  7

 75
    16
 76
     0
 77
     2
 78
   300
147
1.0
148
0.0
149
0.0
100
AcDbLayout
  1
Layout1
 70
     1
 71
     1
 10
0.0
 20
0.0
 11
12.0
 21
9.0
 12
0.0
 22
0.0
 32
0.0
 14
1.000000000000000E+20
 24
1.000000000000000E+20
 34
1.000000000000000E+20
 15
-1.000000000000000E+20
 25
-1.000000000000000E+20
 35
-1.000000000000000E+20
146
0.0
 13
0.0
 23
0.0
 33
0.0
 16
1.0
 26
0.0
 36
0.0
 17
0.0
 27
1.0
 37
0.0
 76
     0
330
1B
  0
LAYOUT
  5
26
102
{ACAD_REACTORS
330
1A
102
}
330
1A
100
AcDbPlotSettings
  1

  2
none_device
  4

  6

 40
0.0
 41
0.0
 42
0.0
 43
0.0
 44
0.0
 45
0.0
 46
0.0
 47
0.0
 48
0.0
 49
0.0
140
0.0
141
0.0
142
1.0
143
1.0
 70
   688
 72
     0
 73
     0
 74
     5
  7

 75
    16
 76
     0
 77
     2
 78
   300
147
1.0
148
0.0
149
0.0
100
AcDbLayout
  1
Layout2
 70
     1
 71
     2
 10
0.0
 20
0.0
 11
0.0
 21
0.0
 12
0.0
 22
0.0
 32
0.0
 14
0.0
 24
0.0
 34
0.0
 15
0.0
 25
0.0
 35
0.0
146
0.0
 13
0.0
 23
0.0
 33
0.0
 16
1.0
 26
0.0
 36
0.0
 17
0.0
 27
1.0
 37
0.0
 76
     0
330
23
  0
LAYOUT
  5
22
102
{ACAD_REACTORS
330
1A
102
}
330
1A
100
AcDbPlotSettings
  1

  2
none_device
  4

  6

 40
0.0
 41
0.0
 42
0.0
 43
0.0
 44
0.0
 45
0.0
 46
0.0
 47
0.0
 48
0.0
 49
0.0
140
0.0
141
0.0
142
1.0
143
1.0
 70
  1712
 72
     0
 73
     0
 74
     0
  7

 75
     0
 76
     0
 77
     2
 78
   300
147
1.0
148
0.0
149
0.0
100
AcDbLayout
  1
Model
 70
     1
 71
     0
 10
0.0
 20
0.0
 11
12.0
 21
9.0
 12
0.0
 22
0.0
 32
0.0
 14
19.9251
 24
-95.59
 34
0.0
 15
195.9682
 25
107.8843
 35
0.0
146
0.0
 13
0.0
 23
0.0
 33
0.0
 16
1.0
 26
0.0
 36
0.0
 17
0.0
 27
1.0
 37
0.0
 76
     0
330
1F
331
29
  0
MATERIAL
  5
3D
102
{ACAD_REACTORS
330
3B
102
}
330
3B
100
AcDbMaterial
  1
ByBlock
 72
     1
 94
      127
  0
MATERIAL
  5
3C
102
{ACAD_REACTORS
330
3B
102
}
330
3B
100
AcDbMaterial
  1
ByLayer
 72
     1
 94
      127
  0
MATERIAL
  5
3E
102
{ACAD_REACTORS
330
3B
102
}
330
3B
100
AcDbMaterial
  1
Global
 72
     1
 94
      127
  0
MLINESTYLE
  5
18
102
{ACAD_REACTORS
330
17
102
}
330
17
100
AcDbMlineStyle
  2
Standard
 70
     0
  3

 62
   256
 51
90.0
 52
90.0
 71
     2
 49
0.5
 62
   256
  6
BYLAYER
 49
-0.5
 62
   256
  6
BYLAYER
  0
ACDBPLACEHOLDER
  5
F
102
{ACAD_REACTORS
330
E
102
}
330
E
  0
VISUALSTYLE
  5
2F
102
{ACAD_REACTORS
330
2A
102
}
102
{ACAD_XDICTIONARY
360
71
102
}
330
2A
100
AcDbVisualStyle
  2
2dWireframe
 70
     4
 71
     0
 72
     2
 73
     0
 90
        0
 40
-0.6
 41
-30.0
 62
     5
 63
     7
421
 16777215
 74
     1
 91
        4
 64
     7
 65
   257
 75
     1
175
     1
 42
1.0
 92
        0
 66
   257
 43
1.0
 76
     1
 77
     6
 78
     2
 67
     7
 79
     5
170
     0
171
     0
290
     0
174
     0
 93
        1
 44
0.0
173
     0
291
     0
 45
0.0
  0
VISUALSTYLE
  5
31
102
{ACAD_REACTORS
330
2A
102
}
102
{ACAD_XDICTIONARY
360
75
102
}
330
2A
100
AcDbVisualStyle
  2
3D Hidden
 70
     6
 71
     1
 72
     2
 73
     2
 90
        0
 40
-0.6
 41
-30.0
 62
     5
 63
     7
421
 16777215
 74
     2
 91
        2
 64
     7
 65
   257
 75
     2
175
     1
 42
40.0
 92
        0
 66
   257
 43
1.0
 76
     1
 77
     6
 78
     2
 67
     7
 79
     3
170
     0
171
     0
290
     0
174
     0
 93
        1
 44
0.0
173
     0
291
     0
 45
0.0
  0
VISUALSTYLE
  5
30
102
{ACAD_REACTORS
330
2A
102
}
102
{ACAD_XDICTIONARY
360
73
102
}
330
2A
100
AcDbVisualStyle
  2
3dWireframe
 70
     5
 71
     0
 72
     2
 73
     0
 90
        0
 40
-0.6
 41
-30.0
 62
     5
 63
     7
421
 16777215
 74
     1
 91
        4
 64
     7
 65
   257
 75
     1
175
     1
 42
1.0
 92
        0
 66
   257
 43
1.0
 76
     1
 77
     6
 78
     2
 67
     7
 79
     5
170
     0
171
     0
290
     0
174
     0
 93
        1
 44
0.0
173
     0
291
     0
 45
0.0
  0
VISUALSTYLE
  5
32
102
{ACAD_REACTORS
330
2A
102
}
102
{ACAD_XDICTIONARY
360
77
102
}
330
2A
100
AcDbVisualStyle
  2
Basic
 70
     7
 71
     1
 72
     0
 73
     1
 90
        0
 40
-0.6
 41
-30.0
 62
     5
 63
     7
421
 16777215
 74
     0
 91
        4
 64
     7
 65
   257
 75
     1
175
     1
 42
1.0
 92
        8
 66
     7
 43
1.0
 76
     1
 77
     6
 78
     2
 67
     7
 79
     5
170
     0
171
     0
290
     0
174
     0
 93
        1
 44
0.0
173
     0
291
     1
 45
0.0
  0
VISUALSTYLE
  5
36
102
{ACAD_REACTORS
330
2A
102
}
102
{ACAD_XDICTIONARY
360
7F
102
}
330
2A
100
AcDbVisualStyle
  2
Brighten
 70
    12
 71
     2
 72
     2
 73
     0
 90
        0
 40
-0.6
 41
-30.0
 62
     5
 63
     7
421
 16777215
 74
     1
 91
        4
 64
     7
 65
   257
 75
     1
175
     1
 42
1.0
 92
        8
 66
     7
 43
1.0
 76
     1
 77
     6
 78
     2
 67
     7
 79
     5
170
     0
171
     0
290
     0
174
     0
 93
        1
 44
50.0
173
     0
291
     1
 45
0.0
  0
VISUALSTYLE
  5
3A
102
{ACAD_REACTORS
330
2A
102
}
102
{ACAD_XDICTIONARY
360
87
102
}
330
2A
100
AcDbVisualStyle
  2
ColorChange
 70
    16
 71
     2
 72
     2
 73
     3
 90
        0
 40
-0.6
 41
-30.0
 62
     5
 63
     8
421
  8421504
 74
     1
 91
        4
 64
     7
 65
   257
 75
     1
175
     1
 42
1.0
 92
        8
 66
     8
424
  8421504
 43
1.0
 76
     1
 77
     6
 78
     2
 67
     7
 79
     5
170
     0
171
     0
290
     0
174
     0
 93
        1
 44
0.0
173
     0
291
     1
 45
0.0
  0
VISUALSTYLE
  5
34
102
{ACAD_REACTORS
330
2A
102
}
102
{ACAD_XDICTIONARY
360
7B
102
}
330
2A
100
AcDbVisualStyle
  2
Conceptual
 70
     9
 71
     3
 72
     2
 73
     0
 90
        0
 40
-0.6
 41
-30.0
 62
     5
 63
     7
421
 16777215
 74
     2
 91
        2
 64
     7
 65
   257
 75
     1
175
     1
 42
40.0
 92
        8
 66
     7
 43
1.0
 76
     1
 77
     6
 78
     2
 67
     7
 79
     3
170
     0
171
     0
290
     0
174
     0
 93
        1
 44
0.0
173
     0
291
     0
 45
0.0
  0
VISUALSTYLE
  5
35
102
{ACAD_REACTORS
330
2A
102
}
102
{ACAD_XDICTIONARY
360
7D
102
}
330
2A
100
AcDbVisualStyle
  2
Dim
 70
    11
 71
     2
 72
     2
 73
     0
 90
        0
 40
-0.6
 41
-30.0
 62
     5
 63
     7
421
 16777215
 74
     1
 91
        4
 64
     7
 65
   257
 75
     1
175
     1
 42
1.0
 92
        8
 66
     7
 43
1.0
 76
     1
 77
     6
 78
     2
 67
     7
 79
     5
170
     0
171
     0
290
     0
174
     0
 93
        1
 44
-50.0
173
     0
291
     1
 45
0.0
  0
VISUALSTYLE
  5
39
102
{ACAD_REACTORS
330
2A
102
}
102
{ACAD_XDICTIONARY
360
85
102
}
330
2A
100
AcDbVisualStyle
  2
Facepattern
 70
    15
 71
     2
 72
     2
 73
     0
 90
        0
 40
-0.6
 41
-30.0
 62
     5
 63
     7
421
 16777215
 74
     1
 91
        4
 64
     7
 65
   257
 75
     1
175
     1
 42
1.0
 92
        8
 66
     7
 43
1.0
 76
     1
 77
     6
 78
     2
 67
     7
 79
     5
170
     0
171
     0
290
     0
174
     0
 93
        1
 44
0.0
173
     0
291
     1
 45
0.0
  0
VISUALSTYLE
  5
2B
102
{ACAD_REACTORS
330
2A
102
}
102
{ACAD_XDICTIONARY
360
69
102
}
330
2A
100
AcDbVisualStyle
  2
Flat
 70
     0
 71
     2
 72
     1
 73
     1
 90
        2
 40
-0.6
 41
30.0
 62
     5
 63
     7
421
 16777215
 74
     0
 91
        4
 64
     7
 65
   257
 75
     1
175
     1
 42
1.0
 92
        8
 66
     7
 43
1.0
 76
     1
 77
     6
 78
     2
 67
     7
 79
     5
170
     0
171
     0
290
     0
174
     0
 93
       13
 44
0.0
173
     0
291
     1
 45
0.0
  0
VISUALSTYLE
  5
2C
102
{ACAD_REACTORS
330
2A
102
}
102
{ACAD_XDICTIONARY
360
6B
102
}
330
2A
100
AcDbVisualStyle
  2
FlatWithEdges
 70
     1
 71
     2
 72
     1
 73
     1
 90
        2
 40
-0.6
 41
30.0
 62
     5
 63
     7
421
 16777215
 74
     1
 91
        4
 64
     7
 65
   257
 75
     1
175
     1
 42
1.0
 92
        0
 66
   257
 43
1.0
 76
     1
 77
     6
 78
     2
 67
     7
 79
     5
170
     0
171
     0
290
     0
174
     0
 93
       13
 44
0.0
173
     0
291
     1
 45
0.0
  0
VISUALSTYLE
  5
2D
102
{ACAD_REACTORS
330
2A
102
}
102
{ACAD_XDICTIONARY
360
6D
102
}
330
2A
100
AcDbVisualStyle
  2
Gouraud
 70
     2
 71
     2
 72
     2
 73
     1
 90
        2
 40
-0.6
 41
30.0
 62
     5
 63
     7
421
 16777215
 74
     0
 91
        4
 64
     7
 65
   257
 75
     1
175
     1
 42
1.0
 92
        0
 66
     7
 43
1.0
 76
     1
 77
     6
 78
     2
 67
     7
 79
     5
170
     0
171
     0
290
     0
174
     0
 93
       13
 44
0.0
173
     0
291
     1
 45
0.0
  0
VISUALSTYLE
  5
2E
102
{ACAD_REACTORS
330
2A
102
}
102
{ACAD_XDICTIONARY
360
6F
102
}
330
2A
100
AcDbVisualStyle
  2
GouraudWithEdges
 70
     3
 71
     2
 72
     2
 73
     1
 90
        2
 40
-0.6
 41
30.0
 62
     5
 63
     7
421
 16777215
 74
     1
 91
        4
 64
     7
 65
   257
 75
     1
175
     1
 42
1.0
 92
        0
 66
   257
 43
1.0
 76
     1
 77
     6
 78
     2
 67
     7
 79
     5
170
     0
171
     0
290
     0
174
     0
 93
       13
 44
0.0
173
     0
291
     1
 45
0.0
  0
VISUALSTYLE
  5
38
102
{ACAD_REACTORS
330
2A
102
}
102
{ACAD_XDICTIONARY
360
83
102
}
330
2A
100
AcDbVisualStyle
  2
Linepattern
 70
    14
 71
     2
 72
     2
 73
     0
 90
        0
 40
-0.6
 41
-30.0
 62
     5
 63
     7
421
 16777215
 74
     1
 91
        4
 64
     7
 65
   257
 75
     7
175
     7
 42
1.0
 92
        8
 66
     7
 43
1.0
 76
     1
 77
     6
 78
     2
 67
     7
 79
     5
170
     0
171
     0
290
     0
174
     0
 93
        1
 44
0.0
173
     0
291
     1
 45
0.0
  0
VISUALSTYLE
  5
33
102
{ACAD_REACTORS
330
2A
102
}
102
{ACAD_XDICTIONARY
360
79
102
}
330
2A
100
AcDbVisualStyle
  2
Realistic
 70
     8
 71
     2
 72
     2
 73
     0
 90
        0
 40
-0.6
 41
-30.0
 62
     5
 63
     7
421
 16777215
 74
     1
 91
        0
 64
     7
 65
   257
 75
     1
175
     1
 42
1.0
 92
        8
 66
     8
424
  7895160
 43
1.0
 76
     1
 77
     6
 78
     2
 67
     7
 79
     5
170
     0
171
     0
290
     0
174
     0
 93
       13
 44
0.0
173
     0
291
     0
 45
0.0
  0
VISUALSTYLE
  5
37
102
{ACAD_REACTORS
330
2A
102
}
102
{ACAD_XDICTIONARY
360
81
102
}
330
2A
100
AcDbVisualStyle
  2
Thicken
 70
    13
 71
     2
 72
     2
 73
     0
 90
        0
 40
-0.6
 41
-30.0
 62
     5
 63
     7
421
 16777215
 74
     1
 91
        4
 64
     7
 65
   257
 75
     1
175
     1
 42
1.0
 92
       12
 66
     7
 43
1.0
 76
     1
 77
     6
 78
     2
 67
     7
 79
     5
170
     0
171
     0
290
     0
174
     0
 93
        1
 44
0.0
173
     0
291
     1
 45
0.0
  0
DICTIONARY
  5
71
330
2F
100
AcDbDictionary
280
     1
281
     1
  3
ACAD_XREC_ROUNDTRIP
360
72
  0
DICTIONARY
  5
75
330
31
100
AcDbDictionary
280
     1
281
     1
  3
ACAD_XREC_ROUNDTRIP
360
76
  0
DICTIONARY
  5
73
330
30
100
AcDbDictionary
280
     1
281
     1
  3
ACAD_XREC_ROUNDTRIP
360
74
  0
DICTIONARY
  5
77
330
32
100
AcDbDictionary
280
     1
281
     1
  3
ACAD_XREC_ROUNDTRIP
360
78
  0
DICTIONARY
  5
7F
330
36
100
AcDbDictionary
280
     1
281
     1
  3
ACAD_XREC_ROUNDTRIP
360
80
  0
DICTIONARY
  5
87
330
3A
100
AcDbDictionary
280
     1
281
     1
  3
ACAD_XREC_ROUNDTRIP
360
88
  0
DICTIONARY
  5
7B
330
34
100
AcDbDictionary
280
     1
281
     1
  3
ACAD_XREC_ROUNDTRIP
360
7C
  0
DICTIONARY
  5
7D
330
35
100
AcDbDictionary
280
     1
281
     1
  3
ACAD_XREC_ROUNDTRIP
360
7E
  0
DICTIONARY
  5
85
330
39
100
AcDbDictionary
280
     1
281
     1
  3
ACAD_XREC_ROUNDTRIP
360
86
  0
DICTIONARY
  5
69
330
2B
100
AcDbDictionary
280
     1
281
     1
  3
ACAD_XREC_ROUNDTRIP
360
6A
  0
DICTIONARY
  5
6B
330
2C
100
AcDbDictionary
280
     1
281
     1
  3
ACAD_XREC_ROUNDTRIP
360
6C
  0
DICTIONARY
  5
6D
330
2D
100
AcDbDictionary
280
     1
281
     1
  3
ACAD_XREC_ROUNDTRIP
360
6E
  0
DICTIONARY
  5
6F
330
2E
100
AcDbDictionary
280
     1
281
     1
  3
ACAD_XREC_ROUNDTRIP
360
70
  0
DICTIONARY
  5
83
330
38
100
AcDbDictionary
280
     1
281
     1
  3
ACAD_XREC_ROUNDTRIP
360
84
  0
DICTIONARY
  5
79
330
33
100
AcDbDictionary
280
     1
281
     1
  3
ACAD_XREC_ROUNDTRIP
360
7A
  0
DICTIONARY
  5
81
330
37
100
AcDbDictionary
280
     1
281
     1
  3
ACAD_XREC_ROUNDTRIP
360
82
  0
XRECORD
  5
72
102
{ACAD_REACTORS
330
71
102
}
330
71
100
AcDbXrecord
280
     1
102
RTVSPropertyOp0
 70
     1
102
RTVSPropertyOp1
 70
     1
102
RTVSPropertyOp2
 70
     1
102
RTVSPropertyOp3
 70
     1
102
RTVSPropertyOp4
 70
     1
102
RTVSPropertyOp5
 70
     1
102
RTVSPropertyOp6
 70
     1
102
RTVSPropertyOp7
 70
     1
102
RTVSPropertyOp8
 70
     1
102
RTVSPropertyOp9
 70
     1
102
RTVSPropertyOp10
 70
     1
102
RTVSPropertyOp11
 70
     1
102
RTVSPropertyOp12
 70
     1
102
RTVSPropertyOp13
 70
     1
102
RTVSPropertyOp14
 70
     1
102
RTVSPropertyOp15
 70
     1
102
RTVSPropertyOp16
 70
     1
102
RTVSPropertyOp17
 70
     1
102
RTVSPropertyOp18
 70
     1
102
RTVSPropertyOp19
 70
     1
102
RTVSPropertyOp20
 70
     1
102
RTVSPropertyOp21
 70
     1
102
RTVSPropertyOp22
 70
     1
102
RTVSPropertyOp23
 70
     1
102
RTVSPropertyOp24
 70
     1
102
RTVSPropertyOp25
 70
     1
102
RTVSPropertyOp26
 70
     1
102
RTVSPropertyOp27
 70
     1
102
RTVSPropertyOp28
 70
     1
102
RTVSPropertyOp29
 70
     1
102
RTVSPropertyOp30
 70
     1
102
RTVSPropertyOp31
 70
     1
102
RTVSPropertyOp32
 70
     1
  0
XRECORD
  5
76
102
{ACAD_REACTORS
330
75
102
}
330
75
100
AcDbXrecord
280
     1
102
RTVSPropertyOp0
 70
     1
102
RTVSPropertyOp1
 70
     1
102
RTVSPropertyOp2
 70
     1
102
RTVSPropertyOp3
 70
     1
102
RTVSPropertyOp4
 70
     1
102
RTVSPropertyOp5
 70
     1
102
RTVSPropertyOp6
 70
     1
102
RTVSPropertyOp7
 70
     1
102
RTVSPropertyOp8
 70
     1
102
RTVSPropertyOp9
 70
     1
102
RTVSPropertyOp10
 70
     1
102
RTVSPropertyOp11
 70
     1
102
RTVSPropertyOp12
 70
     1
102
RTVSPropertyOp13
 70
     1
102
RTVSPropertyOp14
 70
     1
102
RTVSPropertyOp15
 70
     1
102
RTVSPropertyOp16
 70
     1
102
RTVSPropertyOp17
 70
     1
102
RTVSPropertyOp18
 70
     1
102
RTVSPropertyOp19
 70
     1
102
RTVSPropertyOp20
 70
     1
102
RTVSPropertyOp21
 70
     1
102
RTVSPropertyOp22
 70
     1
102
RTVSPropertyOp23
 70
     1
102
RTVSPropertyOp24
 70
     1
102
RTVSPropertyOp25
 70
     1
102
RTVSPropertyOp26
 70
     1
102
RTVSPropertyOp27
 70
     1
102
RTVSPropertyOp28
 70
     1
102
RTVSPropertyOp29
 70
     1
102
RTVSPropertyOp30
 70
     1
102
RTVSPropertyOp31
 70
     1
102
RTVSPropertyOp32
 70
     1
  0
XRECORD
  5
74
102
{ACAD_REACTORS
330
73
102
}
330
73
100
AcDbXrecord
280
     1
102
RTVSPropertyOp0
 70
     1
102
RTVSPropertyOp1
 70
     1
102
RTVSPropertyOp2
 70
     1
102
RTVSPropertyOp3
 70
     1
102
RTVSPropertyOp4
 70
     1
102
RTVSPropertyOp5
 70
     1
102
RTVSPropertyOp6
 70
     1
102
RTVSPropertyOp7
 70
     1
102
RTVSPropertyOp8
 70
     1
102
RTVSPropertyOp9
 70
     1
102
RTVSPropertyOp10
 70
     1
102
RTVSPropertyOp11
 70
     1
102
RTVSPropertyOp12
 70
     1
102
RTVSPropertyOp13
 70
     1
102
RTVSPropertyOp14
 70
     1
102
RTVSPropertyOp15
 70
     1
102
RTVSPropertyOp16
 70
     1
102
RTVSPropertyOp17
 70
     1
102
RTVSPropertyOp18
 70
     1
102
RTVSPropertyOp19
 70
     1
102
RTVSPropertyOp20
 70
     1
102
RTVSPropertyOp21
 70
     1
102
RTVSPropertyOp22
 70
     1
102
RTVSPropertyOp23
 70
     1
102
RTVSPropertyOp24
 70
     1
102
RTVSPropertyOp25
 70
     1
102
RTVSPropertyOp26
 70
     1
102
RTVSPropertyOp27
 70
     1
102
RTVSPropertyOp28
 70
     1
102
RTVSPropertyOp29
 70
     1
102
RTVSPropertyOp30
 70
     1
102
RTVSPropertyOp31
 70
     1
102
RTVSPropertyOp32
 70
     1
  0
XRECORD
  5
78
102
{ACAD_REACTORS
330
77
102
}
330
77
100
AcDbXrecord
280
     1
102
RTVSPropertyOp0
 70
     1
102
RTVSPropertyOp1
 70
     1
102
RTVSPropertyOp2
 70
     1
102
RTVSPropertyOp3
 70
     1
102
RTVSPropertyOp4
 70
     1
102
RTVSPropertyOp5
 70
     1
102
RTVSPropertyOp6
 70
     1
102
RTVSPropertyOp7
 70
     1
102
RTVSPropertyOp8
 70
     1
102
RTVSPropertyOp9
 70
     1
102
RTVSPropertyOp10
 70
     1
102
RTVSPropertyOp11
 70
     1
102
RTVSPropertyOp12
 70
     1
102
RTVSPropertyOp13
 70
     1
102
RTVSPropertyOp14
 70
     1
102
RTVSPropertyOp15
 70
     1
102
RTVSPropertyOp16
 70
     1
102
RTVSPropertyOp17
 70
     1
102
RTVSPropertyOp18
 70
     1
102
RTVSPropertyOp19
 70
     1
102
RTVSPropertyOp20
 70
     1
102
RTVSPropertyOp21
 70
     1
102
RTVSPropertyOp22
 70
     1
102
RTVSPropertyOp23
 70
     1
102
RTVSPropertyOp24
 70
     1
102
RTVSPropertyOp25
 70
     1
102
RTVSPropertyOp26
 70
     1
102
RTVSPropertyOp27
 70
     1
102
RTVSPropertyOp28
 70
     1
102
RTVSPropertyOp29
 70
     1
102
RTVSPropertyOp30
 70
     1
102
RTVSPropertyOp31
 70
     1
102
RTVSPropertyOp32
 70
     1
  0
XRECORD
  5
80
102
{ACAD_REACTORS
330
7F
102
}
330
7F
100
AcDbXrecord
280
     1
102
RTVSPropertyOp0
 70
     1
102
RTVSPropertyOp1
 70
     1
102
RTVSPropertyOp2
 70
     1
102
RTVSPropertyOp3
 70
     1
102
RTVSPropertyOp4
 70
     1
102
RTVSPropertyOp5
 70
     1
102
RTVSPropertyOp6
 70
     1
102
RTVSPropertyOp7
 70
     1
102
RTVSPropertyOp8
 70
     1
102
RTVSPropertyOp9
 70
     1
102
RTVSPropertyOp10
 70
     1
102
RTVSPropertyOp11
 70
     1
102
RTVSPropertyOp12
 70
     1
102
RTVSPropertyOp13
 70
     1
102
RTVSPropertyOp14
 70
     1
102
RTVSPropertyOp15
 70
     1
102
RTVSPropertyOp16
 70
     1
102
RTVSPropertyOp17
 70
     1
102
RTVSPropertyOp18
 70
     1
102
RTVSPropertyOp19
 70
     1
102
RTVSPropertyOp20
 70
     1
102
RTVSPropertyOp21
 70
     1
102
RTVSPropertyOp22
 70
     1
102
RTVSPropertyOp23
 70
     1
102
RTVSPropertyOp24
 70
     1
102
RTVSPropertyOp25
 70
     1
102
RTVSPropertyOp26
 70
     1
102
RTVSPropertyOp27
 70
     1
102
RTVSPropertyOp28
 70
     1
102
RTVSPropertyOp29
 70
     1
102
RTVSPropertyOp30
 70
     1
102
RTVSPropertyOp31
 70
     1
102
RTVSPropertyOp32
 70
     1
  0
XRECORD
  5
88
102
{ACAD_REACTORS
330
87
102
}
330
87
100
AcDbXrecord
280
     1
102
RTVSPropertyOp0
 70
     1
102
RTVSPropertyOp1
 70
     1
102
RTVSPropertyOp2
 70
     1
102
RTVSPropertyOp3
 70
     1
102
RTVSPropertyOp4
 70
     1
102
RTVSPropertyOp5
 70
     1
102
RTVSPropertyOp6
 70
     1
102
RTVSPropertyOp7
 70
     1
102
RTVSPropertyOp8
 70
     1
102
RTVSPropertyOp9
 70
     1
102
RTVSPropertyOp10
 70
     1
102
RTVSPropertyOp11
 70
     1
102
RTVSPropertyOp12
 70
     1
102
RTVSPropertyOp13
 70
     1
102
RTVSPropertyOp14
 70
     1
102
RTVSPropertyOp15
 70
     1
102
RTVSPropertyOp16
 70
     1
102
RTVSPropertyOp17
 70
     1
102
RTVSPropertyOp18
 70
     1
102
RTVSPropertyOp19
 70
     1
102
RTVSPropertyOp20
 70
     1
102
RTVSPropertyOp21
 70
     1
102
RTVSPropertyOp22
 70
     1
102
RTVSPropertyOp23
 70
     1
102
RTVSPropertyOp24
 70
     1
102
RTVSPropertyOp25
 70
     1
102
RTVSPropertyOp26
 70
     1
102
RTVSPropertyOp27
 70
     1
102
RTVSPropertyOp28
 70
     1
102
RTVSPropertyOp29
 70
     1
102
RTVSPropertyOp30
 70
     1
102
RTVSPropertyOp31
 70
     1
102
RTVSPropertyOp32
 70
     1
  0
XRECORD
  5
7C
102
{ACAD_REACTORS
330
7B
102
}
330
7B
100
AcDbXrecord
280
     1
102
RTVSPropertyOp0
 70
     1
102
RTVSPropertyOp1
 70
     1
102
RTVSPropertyOp2
 70
     1
102
RTVSPropertyOp3
 70
     1
102
RTVSPropertyOp4
 70
     1
102
RTVSPropertyOp5
 70
     1
102
RTVSPropertyOp6
 70
     1
102
RTVSPropertyOp7
 70
     1
102
RTVSPropertyOp8
 70
     1
102
RTVSPropertyOp9
 70
     1
102
RTVSPropertyOp10
 70
     1
102
RTVSPropertyOp11
 70
     1
102
RTVSPropertyOp12
 70
     1
102
RTVSPropertyOp13
 70
     1
102
RTVSPropertyOp14
 70
     1
102
RTVSPropertyOp15
 70
     1
102
RTVSPropertyOp16
 70
     1
102
RTVSPropertyOp17
 70
     1
102
RTVSPropertyOp18
 70
     1
102
RTVSPropertyOp19
 70
     1
102
RTVSPropertyOp20
 70
     1
102
RTVSPropertyOp21
 70
     1
102
RTVSPropertyOp22
 70
     1
102
RTVSPropertyOp23
 70
     1
102
RTVSPropertyOp24
 70
     1
102
RTVSPropertyOp25
 70
     1
102
RTVSPropertyOp26
 70
     1
102
RTVSPropertyOp27
 70
     1
102
RTVSPropertyOp28
 70
     1
102
RTVSPropertyOp29
 70
     1
102
RTVSPropertyOp30
 70
     1
102
RTVSPropertyOp31
 70
     1
102
RTVSPropertyOp32
 70
     1
  0
XRECORD
  5
7E
102
{ACAD_REACTORS
330
7D
102
}
330
7D
100
AcDbXrecord
280
     1
102
RTVSPropertyOp0
 70
     1
102
RTVSPropertyOp1
 70
     1
102
RTVSPropertyOp2
 70
     1
102
RTVSPropertyOp3
 70
     1
102
RTVSPropertyOp4
 70
     1
102
RTVSPropertyOp5
 70
     1
102
RTVSPropertyOp6
 70
     1
102
RTVSPropertyOp7
 70
     1
102
RTVSPropertyOp8
 70
     1
102
RTVSPropertyOp9
 70
     1
102
RTVSPropertyOp10
 70
     1
102
RTVSPropertyOp11
 70
     1
102
RTVSPropertyOp12
 70
     1
102
RTVSPropertyOp13
 70
     1
102
RTVSPropertyOp14
 70
     1
102
RTVSPropertyOp15
 70
     1
102
RTVSPropertyOp16
 70
     1
102
RTVSPropertyOp17
 70
     1
102
RTVSPropertyOp18
 70
     1
102
RTVSPropertyOp19
 70
     1
102
RTVSPropertyOp20
 70
     1
102
RTVSPropertyOp21
 70
     1
102
RTVSPropertyOp22
 70
     1
102
RTVSPropertyOp23
 70
     1
102
RTVSPropertyOp24
 70
     1
102
RTVSPropertyOp25
 70
     1
102
RTVSPropertyOp26
 70
     1
102
RTVSPropertyOp27
 70
     1
102
RTVSPropertyOp28
 70
     1
102
RTVSPropertyOp29
 70
     1
102
RTVSPropertyOp30
 70
     1
102
RTVSPropertyOp31
 70
     1
102
RTVSPropertyOp32
 70
     1
  0
XRECORD
  5
86
102
{ACAD_REACTORS
330
85
102
}
330
85
100
AcDbXrecord
280
     1
102
RTVSPropertyOp0
 70
     1
102
RTVSPropertyOp1
 70
     1
102
RTVSPropertyOp2
 70
     1
102
RTVSPropertyOp3
 70
     1
102
RTVSPropertyOp4
 70
     1
102
RTVSPropertyOp5
 70
     1
102
RTVSPropertyOp6
 70
     1
102
RTVSPropertyOp7
 70
     1
102
RTVSPropertyOp8
 70
     1
102
RTVSPropertyOp9
 70
     1
102
RTVSPropertyOp10
 70
     1
102
RTVSPropertyOp11
 70
     1
102
RTVSPropertyOp12
 70
     1
102
RTVSPropertyOp13
 70
     1
102
RTVSPropertyOp14
 70
     1
102
RTVSPropertyOp15
 70
     1
102
RTVSPropertyOp16
 70
     1
102
RTVSPropertyOp17
 70
     1
102
RTVSPropertyOp18
 70
     1
102
RTVSPropertyOp19
 70
     1
102
RTVSPropertyOp20
 70
     1
102
RTVSPropertyOp21
 70
     1
102
RTVSPropertyOp22
 70
     1
102
RTVSPropertyOp23
 70
     1
102
RTVSPropertyOp24
 70
     1
102
RTVSPropertyOp25
 70
     1
102
RTVSPropertyOp26
 70
     1
102
RTVSPropertyOp27
 70
     1
102
RTVSPropertyOp28
 70
     1
102
RTVSPropertyOp29
 70
     1
102
RTVSPropertyOp30
 70
     1
102
RTVSPropertyOp31
 70
     1
102
RTVSPropertyOp32
 70
     1
  0
XRECORD
  5
6A
102
{ACAD_REACTORS
330
69
102
}
330
69
100
AcDbXrecord
280
     1
102
RTVSPropertyOp0
 70
     1
102
RTVSPropertyOp1
 70
     1
102
RTVSPropertyOp2
 70
     1
102
RTVSPropertyOp3
 70
     1
102
RTVSPropertyOp4
 70
     1
102
RTVSPropertyOp5
 70
     1
102
RTVSPropertyOp6
 70
     1
102
RTVSPropertyOp7
 70
     1
102
RTVSPropertyOp8
 70
     1
102
RTVSPropertyOp9
 70
     1
102
RTVSPropertyOp10
 70
     1
102
RTVSPropertyOp11
 70
     1
102
RTVSPropertyOp12
 70
     1
102
RTVSPropertyOp13
 70
     1
102
RTVSPropertyOp14
 70
     1
102
RTVSPropertyOp15
 70
     1
102
RTVSPropertyOp16
 70
     1
102
RTVSPropertyOp17
 70
     1
102
RTVSPropertyOp18
 70
     1
102
RTVSPropertyOp19
 70
     1
102
RTVSPropertyOp20
 70
     1
102
RTVSPropertyOp21
 70
     1
102
RTVSPropertyOp22
 70
     1
102
RTVSPropertyOp23
 70
     1
102
RTVSPropertyOp24
 70
     1
102
RTVSPropertyOp25
 70
     1
102
RTVSPropertyOp26
 70
     1
102
RTVSPropertyOp27
 70
     1
102
RTVSPropertyOp28
 70
     1
102
RTVSPropertyOp29
 70
     1
102
RTVSPropertyOp30
 70
     1
102
RTVSPropertyOp31
 70
     1
102
RTVSPropertyOp32
 70
     1
  0
XRECORD
  5
6C
102
{ACAD_REACTORS
330
6B
102
}
330
6B
100
AcDbXrecord
280
     1
102
RTVSPropertyOp0
 70
     1
102
RTVSPropertyOp1
 70
     1
102
RTVSPropertyOp2
 70
     1
102
RTVSPropertyOp3
 70
     1
102
RTVSPropertyOp4
 70
     1
102
RTVSPropertyOp5
 70
     1
102
RTVSPropertyOp6
 70
     1
102
RTVSPropertyOp7
 70
     1
102
RTVSPropertyOp8
 70
     1
102
RTVSPropertyOp9
 70
     1
102
RTVSPropertyOp10
 70
     1
102
RTVSPropertyOp11
 70
     1
102
RTVSPropertyOp12
 70
     1
102
RTVSPropertyOp13
 70
     1
102
RTVSPropertyOp14
 70
     1
102
RTVSPropertyOp15
 70
     1
102
RTVSPropertyOp16
 70
     1
102
RTVSPropertyOp17
 70
     1
102
RTVSPropertyOp18
 70
     1
102
RTVSPropertyOp19
 70
     1
102
RTVSPropertyOp20
 70
     1
102
RTVSPropertyOp21
 70
     1
102
RTVSPropertyOp22
 70
     1
102
RTVSPropertyOp23
 70
     1
102
RTVSPropertyOp24
 70
     1
102
RTVSPropertyOp25
 70
     1
102
RTVSPropertyOp26
 70
     1
102
RTVSPropertyOp27
 70
     1
102
RTVSPropertyOp28
 70
     1
102
RTVSPropertyOp29
 70
     1
102
RTVSPropertyOp30
 70
     1
102
RTVSPropertyOp31
 70
     1
102
RTVSPropertyOp32
 70
     1
  0
XRECORD
  5
6E
102
{ACAD_REACTORS
330
6D
102
}
330
6D
100
AcDbXrecord
280
     1
102
RTVSPropertyOp0
 70
     1
102
RTVSPropertyOp1
 70
     1
102
RTVSPropertyOp2
 70
     1
102
RTVSPropertyOp3
 70
     1
102
RTVSPropertyOp4
 70
     1
102
RTVSPropertyOp5
 70
     1
102
RTVSPropertyOp6
 70
     1
102
RTVSPropertyOp7
 70
     1
102
RTVSPropertyOp8
 70
     1
102
RTVSPropertyOp9
 70
     1
102
RTVSPropertyOp10
 70
     1
102
RTVSPropertyOp11
 70
     1
102
RTVSPropertyOp12
 70
     1
102
RTVSPropertyOp13
 70
     1
102
RTVSPropertyOp14
 70
     1
102
RTVSPropertyOp15
 70
     1
102
RTVSPropertyOp16
 70
     1
102
RTVSPropertyOp17
 70
     1
102
RTVSPropertyOp18
 70
     1
102
RTVSPropertyOp19
 70
     1
102
RTVSPropertyOp20
 70
     1
102
RTVSPropertyOp21
 70
     1
102
RTVSPropertyOp22
 70
     1
102
RTVSPropertyOp23
 70
     1
102
RTVSPropertyOp24
 70
     1
102
RTVSPropertyOp25
 70
     1
102
RTVSPropertyOp26
 70
     1
102
RTVSPropertyOp27
 70
     1
102
RTVSPropertyOp28
 70
     1
102
RTVSPropertyOp29
 70
     1
102
RTVSPropertyOp30
 70
     1
102
RTVSPropertyOp31
 70
     1
102
RTVSPropertyOp32
 70
     1
  0
XRECORD
  5
70
102
{ACAD_REACTORS
330
6F
102
}
330
6F
100
AcDbXrecord
280
     1
102
RTVSPropertyOp0
 70
     1
102
RTVSPropertyOp1
 70
     1
102
RTVSPropertyOp2
 70
     1
102
RTVSPropertyOp3
 70
     1
102
RTVSPropertyOp4
 70
     1
102
RTVSPropertyOp5
 70
     1
102
RTVSPropertyOp6
 70
     1
102
RTVSPropertyOp7
 70
     1
102
RTVSPropertyOp8
 70
     1
102
RTVSPropertyOp9
 70
     1
102
RTVSPropertyOp10
 70
     1
102
RTVSPropertyOp11
 70
     1
102
RTVSPropertyOp12
 70
     1
102
RTVSPropertyOp13
 70
     1
102
RTVSPropertyOp14
 70
     1
102
RTVSPropertyOp15
 70
     1
102
RTVSPropertyOp16
 70
     1
102
RTVSPropertyOp17
 70
     1
102
RTVSPropertyOp18
 70
     1
102
RTVSPropertyOp19
 70
     1
102
RTVSPropertyOp20
 70
     1
102
RTVSPropertyOp21
 70
     1
102
RTVSPropertyOp22
 70
     1
102
RTVSPropertyOp23
 70
     1
102
RTVSPropertyOp24
 70
     1
102
RTVSPropertyOp25
 70
     1
102
RTVSPropertyOp26
 70
     1
102
RTVSPropertyOp27
 70
     1
102
RTVSPropertyOp28
 70
     1
102
RTVSPropertyOp29
 70
     1
102
RTVSPropertyOp30
 70
     1
102
RTVSPropertyOp31
 70
     1
102
RTVSPropertyOp32
 70
     1
  0
XRECORD
  5
84
102
{ACAD_REACTORS
330
83
102
}
330
83
100
AcDbXrecord
280
     1
102
RTVSPropertyOp0
 70
     1
102
RTVSPropertyOp1
 70
     1
102
RTVSPropertyOp2
 70
     1
102
RTVSPropertyOp3
 70
     1
102
RTVSPropertyOp4
 70
     1
102
RTVSPropertyOp5
 70
     1
102
RTVSPropertyOp6
 70
     1
102
RTVSPropertyOp7
 70
     1
102
RTVSPropertyOp8
 70
     1
102
RTVSPropertyOp9
 70
     1
102
RTVSPropertyOp10
 70
     1
102
RTVSPropertyOp11
 70
     1
102
RTVSPropertyOp12
 70
     1
102
RTVSPropertyOp13
 70
     1
102
RTVSPropertyOp14
 70
     1
102
RTVSPropertyOp15
 70
     1
102
RTVSPropertyOp16
 70
     1
102
RTVSPropertyOp17
 70
     1
102
RTVSPropertyOp18
 70
     1
102
RTVSPropertyOp19
 70
     1
102
RTVSPropertyOp20
 70
     1
102
RTVSPropertyOp21
 70
     1
102
RTVSPropertyOp22
 70
     1
102
RTVSPropertyOp23
 70
     1
102
RTVSPropertyOp24
 70
     1
102
RTVSPropertyOp25
 70
     1
102
RTVSPropertyOp26
 70
     1
102
RTVSPropertyOp27
 70
     1
102
RTVSPropertyOp28
 70
     1
102
RTVSPropertyOp29
 70
     1
102
RTVSPropertyOp30
 70
     1
102
RTVSPropertyOp31
 70
     1
102
RTVSPropertyOp32
 70
     1
  0
XRECORD
  5
7A
102
{ACAD_REACTORS
330
79
102
}
330
79
100
AcDbXrecord
280
     1
102
RTVSPropertyOp0
 70
     1
102
RTVSPropertyOp1
 70
     1
102
RTVSPropertyOp2
 70
     1
102
RTVSPropertyOp3
 70
     1
102
RTVSPropertyOp4
 70
     1
102
RTVSPropertyOp5
 70
     1
102
RTVSPropertyOp6
 70
     1
102
RTVSPropertyOp7
 70
     1
102
RTVSPropertyOp8
 70
     1
102
RTVSPropertyOp9
 70
     1
102
RTVSPropertyOp10
 70
     1
102
RTVSPropertyOp11
 70
     1
102
RTVSPropertyOp12
 70
     1
102
RTVSPropertyOp13
 70
     1
102
RTVSPropertyOp14
 70
     1
102
RTVSPropertyOp15
 70
     1
102
RTVSPropertyOp16
 70
     1
102
RTVSPropertyOp17
 70
     1
102
RTVSPropertyOp18
 70
     1
102
RTVSPropertyOp19
 70
     1
102
RTVSPropertyOp20
 70
     1
102
RTVSPropertyOp21
 70
     1
102
RTVSPropertyOp22
 70
     1
102
RTVSPropertyOp23
 70
     1
102
RTVSPropertyOp24
 70
     1
102
RTVSPropertyOp25
 70
     1
102
RTVSPropertyOp26
 70
     1
102
RTVSPropertyOp27
 70
     1
102
RTVSPropertyOp28
 70
     1
102
RTVSPropertyOp29
 70
     1
102
RTVSPropertyOp30
 70
     1
102
RTVSPropertyOp31
 70
     1
102
RTVSPropertyOp32
 70
     1
  0
XRECORD
  5
82
102
{ACAD_REACTORS
330
81
102
}
330
81
100
AcDbXrecord
280
     1
102
RTVSPropertyOp0
 70
     1
102
RTVSPropertyOp1
 70
     1
102
RTVSPropertyOp2
 70
     1
102
RTVSPropertyOp3
 70
     1
102
RTVSPropertyOp4
 70
     1
102
RTVSPropertyOp5
 70
     1
102
RTVSPropertyOp6
 70
     1
102
RTVSPropertyOp7
 70
     1
102
RTVSPropertyOp8
 70
     1
102
RTVSPropertyOp9
 70
     1
102
RTVSPropertyOp10
 70
     1
102
RTVSPropertyOp11
 70
     1
102
RTVSPropertyOp12
 70
     1
102
RTVSPropertyOp13
 70
     1
102
RTVSPropertyOp14
 70
     1
102
RTVSPropertyOp15
 70
     1
102
RTVSPropertyOp16
 70
     1
102
RTVSPropertyOp17
 70
     1
102
RTVSPropertyOp18
 70
     1
102
RTVSPropertyOp19
 70
     1
102
RTVSPropertyOp20
 70
     1
102
RTVSPropertyOp21
 70
     1
102
RTVSPropertyOp22
 70
     1
102
RTVSPropertyOp23
 70
     1
102
RTVSPropertyOp24
 70
     1
102
RTVSPropertyOp25
 70
     1
102
RTVSPropertyOp26
 70
     1
102
RTVSPropertyOp27
 70
     1
102
RTVSPropertyOp28
 70
     1
102
RTVSPropertyOp29
 70
     1
102
RTVSPropertyOp30
 70
     1
102
RTVSPropertyOp31
 70
     1
102
RTVSPropertyOp32
 70
     1
  0
ENDSEC
  0
EOF
