  0
SECTION
  2
HEADER
  9
$ACADVER
  1
AC1021
  9
$ACADMAINTVER
 70
    25
  9
$DWGCODEPAGE
  3
ANSI_1252
  9
$INSBASE
 10
0.0
 20
0.0
 30
0.0
  9
$EXTMIN
 10
-9.2927
 20
-115.0858
 30
0.0
  9
$EXTMAX
 10
196.1936
 20
131.76
 30
0.0
  9
$LIMMIN
 10
0.0
 20
0.0
  9
$LIMMAX
 10
12.0
 20
9.0
  9
$ORTHOMODE
 70
     0
  9
$REGENMODE
 70
     1
  9
$FILLMODE
 70
     1
  9
$QTEXTMODE
 70
     0
  9
$MIRRTEXT
 70
     1
  9
$LTSCALE
 40
1.0
  9
$ATTMODE
 70
     1
  9
$TEXTSIZE
 40
0.2
  9
$TRACEWID
 40
0.05
  9
$TEXTSTYLE
  7
Standard
  9
$CLAYER
  8
0
  9
$CELTYPE
  6
ByLayer
  9
$CECOLOR
 62
   256
  9
$CELTSCALE
 40
1.0
  9
$DISPSILH
 70
     0
  9
$DIMSCALE
 40
1.0
  9
$DIMASZ
 40
0.18
  9
$DIMEXO
 40
0.0625
  9
$DIMDLI
 40
0.38
  9
$DIMRND
 40
0.0
  9
$DIMDLE
 40
0.0
  9
$DIMEXE
 40
0.18
  9
$DIMTP
 40
0.0
  9
$DIMTM
 40
0.0
  9
$DIMTXT
 40
0.18
  9
$DIMCEN
 40
0.09
  9
$DIMTSZ
 40
0.0
  9
$DIMTOL
 70
     0
  9
$DIMLIM
 70
     0
  9
$DIMTIH
 70
     1
  9
$DIMTOH
 70
     1
  9
$DIMSE1
 70
     0
  9
$DIMSE2
 70
     0
  9
$DIMTAD
 70
     0
  9
$DIMZIN
 70
     0
  9
$DIMBLK
  1

  9
$DIMASO
 70
     1
  9
$DIMSHO
 70
     1
  9
$DIMPOST
  1

  9
$DIMAPOST
  1

  9
$DIMALT
 70
     0
  9
$DIMALTD
 70
     2
  9
$DIMALTF
 40
25.4
  9
$DIMLFAC
 40
1.0
  9
$DIMTOFL
 70
     0
  9
$DIMTVP
 40
0.0
  9
$DIMTIX
 70
     0
  9
$DIMSOXD
 70
     0
  9
$DIMSAH
 70
     0
  9
$DIMBLK1
  1

  9
$DIMBLK2
  1

  9
$DIMSTYLE
  2
Standard
  9
$DIMCLRD
 70
     0
  9
$DIMCLRE
 70
     0
  9
$DIMCLRT
 70
     0
  9
$DIMTFAC
 40
1.0
  9
$DIMGAP
 40
0.09
  9
$DIMJUST
 70
     0
  9
$DIMSD1
 70
     0
  9
$DIMSD2
 70
     0
  9
$DIMTOLJ
 70
     1
  9
$DIMTZIN
 70
     0
  9
$DIMALTZ
 70
     0
  9
$DIMALTTZ
 70
     0
  9
$DIMUPT
 70
     0
  9
$DIMDEC
 70
     4
  9
$DIMTDEC
 70
     4
  9
$DIMALTU
 70
     2
  9
$DIMALTTD
 70
     2
  9
$DIMTXSTY
  7
Standard
  9
$DIMAUNIT
 70
     0
  9
$DIMADEC
 70
     0
  9
$DIMALTRND
 40
0.0
  9
$DIMAZIN
 70
     0
  9
$DIMDSEP
 70
    46
  9
$DIMATFIT
 70
     3
  9
$DIMFRAC
 70
     0
  9
$DIMLDRBLK
  1

  9
$DIMLUNIT
 70
     2
  9
$DIMLWD
 70
    -2
  9
$DIMLWE
 70
    -2
  9
$DIMTMOVE
 70
     0
  9
$DIMFXL
 40
1.0
  9
$DIMFXLON
 70
     0
  9
$DIMJOGANG
 40
0.7853981633974483
  9
$DIMTFILL
 70
     0
  9
$DIMTFILLCLR
 70
     0
  9
$DIMARCSYM
 70
     0
  9
$DIMLTYPE
  6

  9
$DIMLTEX1
  6

  9
$DIMLTEX2
  6

  9
$LUNITS
 70
     2
  9
$LUPREC
 70
     4
  9
$SKETCHINC
 40
0.1
  9
$FILLETRAD
 40
0.5
  9
$AUNITS
 70
     0
  9
$AUPREC
 70
     0
  9
$MENU
  1
.
  9
$ELEVATION
 40
0.0
  9
$PELEVATION
 40
0.0
  9
$THICKNESS
 40
0.0
  9
$LIMCHECK
 70
     0
  9
$CHAMFERA
 40
0.5
  9
$CHAMFERB
 40
0.5
  9
$CHAMFERC
 40
1.0
  9
$CHAMFERD
 40
0.0
  9
$SKPOLY
 70
     0
  9
$TDCREATE
 40
2458492.794629942
  9
$TDUCREATE
 40
2458492.794629942
  9
$TDUPDATE
 40
2458492.794630093
  9
$TDUUPDATE
 40
2458492.794630093
  9
$TDINDWG
 40
0.0000000116
  9
$TDUSRTIMER
 40
0.0000000116
  9
$USRTIMER
 70
     1
  9
$ANGBASE
 50
0.0
  9
$ANGDIR
 70
     0
  9
$PDMODE
 70
     0
  9
$PDSIZE
 40
0.0
  9
$PLINEWID
 40
0.0
  9
$SPLFRAME
 70
     0
  9
$SPLINETYPE
 70
     6
  9
$SPLINESEGS
 70
     8
  9
$HANDSEED
  5
DA
  9
$SURFTAB1
 70
     6
  9
$SURFTAB2
 70
     6
  9
$SURFTYPE
 70
     6
  9
$SURFU
 70
     6
  9
$SURFV
 70
     6
  9
$UCSBASE
  2

  9
$UCSNAME
  2

  9
$UCSORG
 10
0.0
 20
0.0
 30
0.0
  9
$UCSXDIR
 10
1.0
 20
0.0
 30
0.0
  9
$UCSYDIR
 10
0.0
 20
1.0
 30
0.0
  9
$UCSORTHOREF
  2

  9
$UCSORTHOVIEW
 70
     0
  9
$UCSORGTOP
 10
0.0
 20
0.0
 30
0.0
  9
$UCSORGBOTTOM
 10
0.0
 20
0.0
 30
0.0
  9
$UCSORGLEFT
 10
0.0
 20
0.0
 30
0.0
  9
$UCSORGRIGHT
 10
0.0
 20
0.0
 30
0.0
  9
$UCSORGFRONT
 10
0.0
 20
0.0
 30
0.0
  9
$UCSORGBACK
 10
0.0
 20
0.0
 30
0.0
  9
$PUCSBASE
  2

  9
$PUCSNAME
  2

  9
$PUCSORG
 10
0.0
 20
0.0
 30
0.0
  9
$PUCSXDIR
 10
1.0
 20
0.0
 30
0.0
  9
$PUCSYDIR
 10
0.0
 20
1.0
 30
0.0
  9
$PUCSORTHOREF
  2

  9
$PUCSORTHOVIEW
 70
     0
  9
$PUCSORGTOP
 10
0.0
 20
0.0
 30
0.0
  9
$PUCSORGBOTTOM
 10
0.0
 20
0.0
 30
0.0
  9
$PUCSORGLEFT
 10
0.0
 20
0.0
 30
0.0
  9
$PUCSORGRIGHT
 10
0.0
 20
0.0
 30
0.0
  9
$PUCSORGFRONT
 10
0.0
 20
0.0
 30
0.0
  9
$PUCSORGBACK
 10
0.0
 20
0.0
 30
0.0
  9
$USERI1
 70
     0
  9
$USERI2
 70
     0
  9
$USERI3
 70
     0
  9
$USERI4
 70
     0
  9
$USERI5
 70
     0
  9
$USERR1
 40
0.0
  9
$USERR2
 40
0.0
  9
$USERR3
 40
0.0
  9
$USERR4
 40
0.0
  9
$USERR5
 40
0.0
  9
$WORLDVIEW
 70
     1
  9
$SHADEDGE
 70
     3
  9
$SHADEDIF
 70
    70
  9
$TILEMODE
 70
     1
  9
$MAXACTVP
 70
    64
  9
$PINSBASE
 10
0.0
 20
0.0
 30
0.0
  9
$PLIMCHECK
 70
     0
  9
$PEXTMIN
 10
1.000000000000000E+20
 20
1.000000000000000E+20
 30
1.000000000000000E+20
  9
$PEXTMAX
 10
-1.000000000000000E+20
 20
-1.000000000000000E+20
 30
-1.000000000000000E+20
  9
$PLIMMIN
 10
0.0
 20
0.0
  9
$PLIMMAX
 10
12.0
 20
9.0
  9
$UNITMODE
 70
     0
  9
$VISRETAIN
 70
     1
  9
$PLINEGEN
 70
     0
  9
$PSLTSCALE
 70
     1
  9
$TREEDEPTH
 70
  3020
  9
$CMLSTYLE
  2
Standard
  9
$CMLJUST
 70
     0
  9
$CMLSCALE
 40
1.0
  9
$PROXYGRAPHICS
 70
     1
  9
$MEASUREMENT
 70
     0
  9
$CELWEIGHT
370
    -1
  9
$ENDCAPS
280
     0
  9
$JOINSTYLE
280
     0
  9
$LWDISPLAY
290
     0
  9
$INSUNITS
 70
     4
  9
$HYPERLINKBASE
  1

  9
$STYLESHEET
  1

  9
$XEDIT
290
     1
  9
$CEPSNTYPE
380
     0
  9
$PSTYLEMODE
290
     1
  9
$FINGERPRINTGUID
  2
{F111CCEF-22C0-4633-BC46-2898244EB206}
  9
$VERSIONGUID
  2
{FAEB1C32-E019-11D5-929B-00C0DF256EC4}
  9
$EXTNAMES
290
     1
  9
$PSVPSCALE
 40
0.0
  9
$OLESTARTUP
290
     0
  9
$SORTENTS
280
   127
  9
$INDEXCTL
280
     0
  9
$HIDETEXT
280
     1
  9
$XCLIPFRAME
290
     0
  9
$HALOGAP
280
     0
  9
$OBSCOLOR
 70
   257
  9
$OBSLTYPE
280
     0
  9
$INTERSECTIONDISPLAY
280
     0
  9
$INTERSECTIONCOLOR
 70
   257
  9
$DIMASSOC
280
     2
  9
$PROJECTNAME
  1

  9
$CAMERADISPLAY
290
     0
  9
$LENSLENGTH
 40
50.0
  9
$CAMERAHEIGHT
 40
0.0
  9
$STEPSPERSEC
 40
2.0
  9
$STEPSIZE
 40
6.0
  9
$3DDWFPREC
 40
2.0
  9
$PSOLWIDTH
 40
0.25
  9
$PSOLHEIGHT
 40
4.0
  9
$LOFTANG1
 40
1.570796326794897
  9
$LOFTANG2
 40
1.570796326794897
  9
$LOFTMAG1
 40
0.0
  9
$LOFTMAG2
 40
0.0
  9
$LOFTPARAM
 70
     7
  9
$LOFTNORMALS
280
     1
  9
$LATITUDE
 40
37.795
  9
$LONGITUDE
 40
-122.394
  9
$NORTHDIRECTION
 40
0.0
  9
$TIMEZONE
 70
 -8000
  9
$LIGHTGLYPHDISPLAY
280
     1
  9
$TILEMODELIGHTSYNCH
280
     1
  9
$SOLIDHIST
280
     1
  9
$SHOWHIST
280
     1
  9
$DWFFRAME
280
     2
  9
$DGNFRAME
280
     2
  9
$REALWORLDSCALE
290
     1
  9
$INTERFERECOLOR
 62
   256
  9
$CSHADOW
280
     0
  9
$SHADOWPLANELOCATION
 40
0.0
  0
ENDSEC
  0
SECTION
  2
CLASSES
  0
CLASS
  1
ACDBDICTIONARYWDFLT
  2
AcDbDictionaryWithDefault
  3
ObjectDBX Classes
 90
        0
 91
        4
280
     0
281
     0
  0
CLASS
  1
VISUALSTYLE
  2
AcDbVisualStyle
  3
ObjectDBX Classes
 90
     4095
 91
        4
280
     0
281
     0
  0
CLASS
  1
MATERIAL
  2
AcDbMaterial
  3
ObjectDBX Classes
 90
     1153
 91
        4
280
     0
281
     0
  0
ENDSEC
  0
SECTION
  2
TABLES
  0
TABLE
  2
VPORT
  5
8
330
0
100
AcDbSymbolTable
 70
     1
  0
VPORT
  5
29
330
8
100
AcDbSymbolTableRecord
100
AcDbViewportTableRecord
  2
*Active
 70
     0
 10
0.0
 20
0.0
 11
1.0
 21
1.0
 12
10.42990654205607
 22
4.5
 13
0.0
 23
0.0
 14
0.5
 24
0.5
 15
0.5
 25
0.5
 16
0.0
 26
0.0
 36
1.0
 17
0.0
 27
0.0
 37
0.0
 40
9.0
 41
1.972972972850329
 42
50.0
 43
0.0
 44
0.0
 50
0.0
 51
0.0
 71
     0
 72
   100
 73
     1
 74
     3
 75
     0
 76
     0
 77
     0
 78
     0
281
     0
 65
     1
110
0.0
120
0.0
130
0.0
111
1.0
121
0.0
131
0.0
112
0.0
122
1.0
132
0.0
 79
     0
146
0.0
 60
     3
 61
     5
292
     1
282
     1
141
0.0
142
0.0
 63
   250
  0
ENDTAB
  0
TABLE
  2
LTYPE
  5
5
330
0
100
AcDbSymbolTable
 70
     1
  0
LTYPE
  5
14
330
5
100
AcDbSymbolTableRecord
100
AcDbLinetypeTableRecord
  2
ByBlock
 70
     0
  3

 72
    65
 73
     0
 40
0.0
  0
LTYPE
  5
15
330
5
100
AcDbSymbolTableRecord
100
AcDbLinetypeTableRecord
  2
ByLayer
 70
     0
  3

 72
    65
 73
     0
 40
0.0
  0
LTYPE
  5
16
330
5
100
AcDbSymbolTableRecord
100
AcDbLinetypeTableRecord
  2
Continuous
 70
     0
  3
Solid line
 72
    65
 73
     0
 40
0.0
  0
ENDTAB
  0
TABLE
  2
LAYER
  5
2
330
0
100
AcDbSymbolTable
 70
     2
  0
LAYER
  5
10
330
2
100
AcDbSymbolTableRecord
100
AcDbLayerTableRecord
  2
0
 70
     0
 62
     7
  6
Continuous
370
    -3
390
F
347
3E
  0
LAYER
  5
40
330
2
100
AcDbSymbolTableRecord
100
AcDbLayerTableRecord
  2
layer 1
 70
     0
 62
     7
  6
Continuous
370
    -3
390
F
347
3E
  0
ENDTAB
  0
TABLE
  2
STYLE
  5
3
330
0
100
AcDbSymbolTable
 70
     1
  0
STYLE
  5
11
330
3
100
AcDbSymbolTableRecord
100
AcDbTextStyleTableRecord
  2
Standard
 70
     0
 40
0.0
 41
1.0
 50
0.0
 71
     0
 42
0.2
  3
txt
  4

  0
ENDTAB
  0
TABLE
  2
VIEW
  5
6
330
0
100
AcDbSymbolTable
 70
     0
  0
ENDTAB
  0
TABLE
  2
UCS
  5
7
330
0
100
AcDbSymbolTable
 70
     0
  0
ENDTAB
  0
TABLE
  2
APPID
  5
9
330
0
100
AcDbSymbolTable
 70
     2
  0
APPID
  5
12
330
9
100
AcDbSymbolTableRecord
100
AcDbRegAppTableRecord
  2
ACAD
 70
     0
  0
APPID
  5
3F
330
9
100
AcDbSymbolTableRecord
100
AcDbRegAppTableRecord
  2
ODA
 70
     0
  0
ENDTAB
  0
TABLE
  2
DIMSTYLE
  5
A
330
0
100
AcDbSymbolTable
 70
     1
100
AcDbDimStyleTable
  0
DIMSTYLE
105
27
330
A
100
AcDbSymbolTableRecord
100
AcDbDimStyleTableRecord
  2
Standard
 70
     0
178
     0
340
11
  0
ENDTAB
  0
TABLE
  2
BLOCK_RECORD
  5
1
330
0
100
AcDbSymbolTable
 70
     1
  0
BLOCK_RECORD
  5
1F
330
1
100
AcDbSymbolTableRecord
100
AcDbBlockTableRecord
  2
*Model_Space
340
22
 70
     0
280
     1
281
     0
  0
BLOCK_RECORD
  5
1B
330
1
100
AcDbSymbolTableRecord
100
AcDbBlockTableRecord
  2
*Paper_Space
340
1E
 70
     0
280
     1
281
     0
  0
BLOCK_RECORD
  5
23
330
1
100
AcDbSymbolTableRecord
100
AcDbBlockTableRecord
  2
*Paper_Space0
340
26
 70
     0
280
     1
281
     0
  0
ENDTAB
  0
ENDSEC
  0
SECTION
  2
BLOCKS
  0
BLOCK
  5
20
330
1F
100
AcDbEntity
  8
0
100
AcDbBlockBegin
  2
*Model_Space
 70
     0
 10
0.0
 20
0.0
 30
0.0
  3
*Model_Space
  1

  0
ENDBLK
  5
21
330
1F
100
AcDbEntity
  8
0
100
AcDbBlockEnd
  0
BLOCK
  5
1C
330
1B
100
AcDbEntity
 67
     1
  8
0
100
AcDbBlockBegin
  2
*Paper_Space
 70
     0
 10
0.0
 20
0.0
 30
0.0
  3
*Paper_Space
  1

  0
ENDBLK
  5
1D
330
1B
100
AcDbEntity
 67
     1
  8
0
100
AcDbBlockEnd
  0
BLOCK
  5
24
330
23
100
AcDbEntity
  8
0
100
AcDbBlockBegin
  2
*Paper_Space0
 70
     0
 10
0.0
 20
0.0
 30
0.0
  3
*Paper_Space0
  1

  0
ENDBLK
  5
25
330
23
100
AcDbEntity
  8
0
100
AcDbBlockEnd
  0
ENDSEC
  0
SECTION
  2
ENTITIES
  0
SPLINE
  5
41
330
1F
100
AcDbEntity
  8
layer 1
100
AcDbSpline
210
0.0
220
0.0
230
1.0
 70
    11
 71
     3
 72
    20
 73
    16
 74
     0
 42
0.0000000001
 43
0.0000000001
 12
1.0
 22
0.0
 32
0.0
 13
1.0
 23
0.0
 33
0.0
 40
0.0
 40
0.0
 40
0.0
 40
0.0
 40
0.2
 40
0.2
 40
0.2
 40
0.2
 40
0.4
 40
0.4
 40
0.4
 40
0.4
 40
0.6
 40
0.6
 40
0.6
 40
0.6
 40
1.0
 40
1.0
 40
1.0
 40
1.0
 10
-9.2927
 20
-115.0858
 30
0.0
 10
-9.2927
 20
-115.0858
 30
0.0
 10
-9.2927
 20
131.76
 30
0.0
 10
-9.2927
 20
131.76
 30
0.0
 10
-9.2927
 20
131.76
 30
0.0
 10
-9.2927
 20
131.76
 30
0.0
 10
196.1936
 20
131.76
 30
0.0
 10
196.1936
 20
131.76
 30
0.0
 10
196.1936
 20
131.76
 30
0.0
 10
196.1936
 20
131.76
 30
0.0
 10
196.1936
 20
-115.0855
 30
0.0
 10
196.1936
 20
-115.0855
 30
0.0
 10
196.1936
 20
-115.0855
 30
0.0
 10
196.1936
 20
-115.0855
 30
0.0
 10
-9.2927
 20
-115.0858
 30
0.0
 10
-9.2927
 20
-115.0858
 30
0.0
  0
SPLINE
  5
42
330
1F
100
AcDbEntity
  8
layer 1
 62
     7
100
AcDbSpline
210
0.0
220
0.0
230
1.0
 70
    11
 71
     3
 72
    24
 73
    20
 74
     0
 42
0.0000000001
 43
0.0000000001
 12
1.0
 22
0.0
 32
0.0
 13
1.0
 23
0.0
 33
0.0
 40
0.0
 40
0.0
 40
0.0
 40
0.0
 40
0.1666666666666667
 40
0.1666666666666667
 40
0.1666666666666667
 40
0.1666666666666667
 40
0.3333333333333333
 40
0.3333333333333333
 40
0.3333333333333333
 40
0.3333333333333333
 40
0.5
 40
0.5
 40
0.5
 40
0.5
 40
0.6666666666666666
 40
0.6666666666666666
 40
0.6666666666666666
 40
0.6666666666666666
 40
1.0
 40
1.0
 40
1.0
 40
1.0
 10
7.1973
 20
-103.8084
 30
0.0
 10
7.1973
 20
-105.5888
 30
0.0
 10
6.4122
 20
-107.1834
 30
0.0
 10
5.168
 20
-108.2686
 30
0.0
 10
5.168
 20
-108.2686
 30
0.0
 10
5.168
 20
-108.2686
 30
0.0
 10
-3.1653
 20
-108.29
 30
0.0
 10
-3.1653
 20
-108.29
 30
0.0
 10
-3.1653
 20
-108.29
 30
0.0
 10
-3.1653
 20
-108.29
 30
0.0
 10
-3.1359
 20
-99.8744
 30
0.0
 10
-3.1359
 20
-99.8744
 30
0.0
 10
-3.1359
 20
-99.8744
 30
0.0
 10
-2.0525
 20
-98.6584
 30
0.0
 10
-0.4738
 20
-97.8929
 30
0.0
 10
1.2819
 20
-97.8929
 30
0.0
 10
1.2819
 20
-97.8929
 30
0.0
 10
4.5487
 20
-97.8929
 30
0.0
 10
7.1974
 20
-100.5416
 30
0.0
 10
7.1973
 20
-103.8084
 30
0.0
  0
SPLINE
  5
43
330
1F
100
AcDbEntity
  8
layer 1
 62
     7
100
AcDbSpline
210
0.0
220
0.0
230
1.0
 70
    11
 71
     3
 72
    16
 73
    12
 74
     0
 42
0.0000000001
 43
0.0000000001
 12
1.0
 22
0.0
 32
0.0
 13
1.0
 23
0.0
 33
0.0
 40
0.0
 40
0.0
 40
0.0
 40
0.0
 40
0.25
 40
0.25
 40
0.25
 40
0.25
 40
0.5
 40
0.5
 40
0.5
 40
0.5
 40
1.0
 40
1.0
 40
1.0
 40
1.0
 10
-3.1653
 20
-94.9799
 30
0.0
 10
-3.1653
 20
-94.9799
 30
0.0
 10
-3.1359
 20
-77.7426
 30
0.0
 10
-3.1359
 20
-77.7426
 30
0.0
 10
-3.1359
 20
-77.7426
 30
0.0
 10
-1.3525
 20
-79.4227
 30
0.0
 10
3.4535
 20
-86.8812
 30
0.0
 10
0.0835
 20
-94.272
 30
0.0
 10
0.0835
 20
-94.272
 30
0.0
 10
-1.59
 20
-94.541
 30
0.0
 10
-2.0671
 20
-94.726
 30
0.0
 10
-3.1653
 20
-94.9799
 30
0.0
  0
SPLINE
  5
44
330
1F
100
AcDbEntity
  8
layer 1
 62
     7
100
AcDbSpline
210
0.0
220
0.0
230
1.0
 70
    11
 71
     3
 72
    16
 73
    12
 74
     0
 42
0.0000000001
 43
0.0000000001
 12
1.0
 22
0.0
 32
0.0
 13
1.0
 23
0.0
 33
0.0
 40
0.0
 40
0.0
 40
0.0
 40
0.0
 40
0.25
 40
0.25
 40
0.25
 40
0.25
 40
0.5
 40
0.5
 40
0.5
 40
0.5
 40
1.0
 40
1.0
 40
1.0
 40
1.0
 10
1.762
 20
-94.3819
 30
0.0
 10
3.811
 20
-91.5117
 30
0.0
 10
5.6943
 20
-80.698
 30
0.0
 10
1.0587
 20
-76.2772
 30
0.0
 10
1.0587
 20
-76.2772
 30
0.0
 10
2.0506
 20
-75.9529
 30
0.0
 10
15.0393
 20
-73.1645
 30
0.0
 10
4.3779
 20
-95.003
 30
0.0
 10
4.3779
 20
-95.003
 30
0.0
 10
3.1371
 20
-94.5078
 30
0.0
 10
2.6112
 20
-94.4868
 30
0.0
 10
1.762
 20
-94.3819
 30
0.0
  0
SPLINE
  5
45
330
1F
100
AcDbEntity
  8
layer 1
 62
     7
100
AcDbSpline
210
0.0
220
0.0
230
1.0
 70
    11
 71
     3
 72
    24
 73
    20
 74
     0
 42
0.0000000001
 43
0.0000000001
 12
1.0
 22
0.0
 32
0.0
 13
1.0
 23
0.0
 33
0.0
 40
0.0
 40
0.0
 40
0.0
 40
0.0
 40
0.1666666666666667
 40
0.1666666666666667
 40
0.1666666666666667
 40
0.1666666666666667
 40
0.3333333333333333
 40
0.3333333333333333
 40
0.3333333333333333
 40
0.3333333333333333
 40
0.5
 40
0.5
 40
0.5
 40
0.5
 40
0.6666666666666666
 40
0.6666666666666666
 40
0.6666666666666666
 40
0.6666666666666666
 40
1.0
 40
1.0
 40
1.0
 40
1.0
 10
6.6564
 20
-96.3126
 30
0.0
 10
9.9022
 20
-92.2805
 30
0.0
 10
12.5639
 20
-84.188
 30
0.0
 10
17.6586
 20
-80.354
 30
0.0
 10
17.6586
 20
-80.354
 30
0.0
 10
20.1221
 20
-78.5
 30
0.0
 10
23.4842
 20
-78.8458
 30
0.0
 10
25.2299
 20
-80.672
 30
0.0
 10
25.2299
 20
-80.672
 30
0.0
 10
26.5835
 20
-81.9603
 30
0.0
 10
26.759
 20
-85.6223
 30
0.0
 10
24.5413
 20
-87.999
 30
0.0
 10
24.5413
 20
-87.999
 30
0.0
 10
20.614
 20
-92.2066
 30
0.0
 10
12.6952
 20
-95.4537
 30
0.0
 10
8.8725
 20
-98.4321
 30
0.0
 10
8.8725
 20
-98.4321
 30
0.0
 10
8.3974
 20
-97.9026
 30
0.0
 10
7.5713
 20
-96.8174
 30
0.0
 10
6.6564
 20
-96.3126
 30
0.0
  0
SPLINE
  5
46
330
1F
100
AcDbEntity
  8
layer 1
 62
     7
100
AcDbSpline
210
0.0
220
0.0
230
1.0
 70
    11
 71
     3
 72
    16
 73
    12
 74
     0
 42
0.0000000001
 43
0.0000000001
 12
1.0
 22
0.0
 32
0.0
 13
1.0
 23
0.0
 33
0.0
 40
0.0
 40
0.0
 40
0.0
 40
0.0
 40
0.25
 40
0.25
 40
0.25
 40
0.25
 40
0.5
 40
0.5
 40
0.5
 40
0.5
 40
1.0
 40
1.0
 40
1.0
 40
1.0
 10
10.112
 20
-108.2787
 30
0.0
 10
10.112
 20
-108.2787
 30
0.0
 10
27.351
 20
-108.2505
 30
0.0
 10
27.351
 20
-108.2505
 30
0.0
 10
27.351
 20
-108.2505
 30
0.0
 10
25.6692
 20
-106.4671
 30
0.0
 10
18.2125
 20
-101.6594
 30
0.0
 10
10.8217
 20
-105.0316
 30
0.0
 10
10.8217
 20
-105.0316
 30
0.0
 10
10.5509
 20
-106.705
 30
0.0
 10
10.3676
 20
-107.1822
 30
0.0
 10
10.112
 20
-108.2787
 30
0.0
  0
SPLINE
  5
47
330
1F
100
AcDbEntity
  8
layer 1
 62
     7
100
AcDbSpline
210
0.0
220
0.0
230
1.0
 70
    11
 71
     3
 72
    16
 73
    12
 74
     0
 42
0.0000000001
 43
0.0000000001
 12
1.0
 22
0.0
 32
0.0
 13
1.0
 23
0.0
 33
0.0
 40
0.0
 40
0.0
 40
0.0
 40
0.0
 40
0.25
 40
0.25
 40
0.25
 40
0.25
 40
0.5
 40
0.5
 40
0.5
 40
0.5
 40
1.0
 40
1.0
 40
1.0
 40
1.0
 10
10.6756
 20
-103.4579
 30
0.0
 10
13.5458
 20
-101.4089
 30
0.0
 10
24.3596
 20
-99.5253
 30
0.0
 10
28.7803
 20
-104.1609
 30
0.0
 10
28.7803
 20
-104.1609
 30
0.0
 10
29.1047
 20
-103.1693
 30
0.0
 10
31.8931
 20
-90.1807
 30
0.0
 10
10.0546
 20
-100.8417
 30
0.0
 10
10.0546
 20
-100.8417
 30
0.0
 10
10.5493
 20
-102.0841
 30
0.0
 10
10.5707
 20
-102.6103
 30
0.0
 10
10.6756
 20
-103.4579
 30
0.0
  0
SPLINE
  5
48
330
1F
100
AcDbEntity
  8
layer 1
 62
     7
100
AcDbSpline
210
0.0
220
0.0
230
1.0
 70
    11
 71
     3
 72
    20
 73
    16
 74
     0
 42
0.0000000001
 43
0.0000000001
 12
1.0
 22
0.0
 32
0.0
 13
1.0
 23
0.0
 33
0.0
 40
0.0
 40
0.0
 40
0.0
 40
0.0
 40
0.2
 40
0.2
 40
0.2
 40
0.2
 40
0.4
 40
0.4
 40
0.4
 40
0.4
 40
0.6
 40
0.6
 40
0.6
 40
0.6
 40
1.0
 40
1.0
 40
1.0
 40
1.0
 10
-3.1653
 20
-25.0076
 30
0.0
 10
-3.1653
 20
-25.0076
 30
0.0
 10
-3.1359
 20
0.0861
 30
0.0
 10
-3.1359
 20
0.0861
 30
0.0
 10
-3.1359
 20
0.0861
 30
0.0
 10
-2.0738
 20
-3.5808
 30
0.0
 10
2.2651
 20
-13.6958
 30
0.0
 10
11.6333
 20
-19.7397
 30
0.0
 10
11.6333
 20
-19.7397
 30
0.0
 10
8.6497
 20
-20.302
 30
0.0
 10
6.3502
 20
-20.5017
 30
0.0
 10
5.4551
 20
-24.8045
 30
0.0
 10
5.4551
 20
-24.8045
 30
0.0
 10
2.362
 20
-21.5771
 30
0.0
 10
-1.1049
 20
-24.7521
 30
0.0
 10
-3.1653
 20
-25.0076
 30
0.0
  0
SPLINE
  5
49
330
1F
100
AcDbEntity
  8
layer 1
 62
     7
100
AcDbSpline
210
0.0
220
0.0
230
1.0
 70
    11
 71
     3
 72
    28
 73
    24
 74
     0
 42
0.0000000001
 43
0.0000000001
 12
1.0
 22
0.0
 32
0.0
 13
1.0
 23
0.0
 33
0.0
 40
0.0
 40
0.0
 40
0.0
 40
0.0
 40
0.1428571428571428
 40
0.1428571428571428
 40
0.1428571428571428
 40
0.1428571428571428
 40
0.2857142857142857
 40
0.2857142857142857
 40
0.2857142857142857
 40
0.2857142857142857
 40
0.4285714285714285
 40
0.4285714285714285
 40
0.4285714285714285
 40
0.4285714285714285
 40
0.5714285714285714
 40
0.5714285714285714
 40
0.5714285714285714
 40
0.5714285714285714
 40
0.7142857142857143
 40
0.7142857142857143
 40
0.7142857142857143
 40
0.7142857142857143
 40
1.0
 40
1.0
 40
1.0
 40
1.0
 10
-3.1653
 20
-49.8867
 30
0.0
 10
-3.1653
 20
-49.8867
 30
0.0
 10
-3.1359
 20
-26.2652
 30
0.0
 10
-3.1359
 20
-26.2652
 30
0.0
 10
-3.1359
 20
-26.2652
 30
0.0
 10
0.4607
 20
-26.5862
 30
0.0
 10
-0.2182
 20
-33.2562
 30
0.0
 10
5.7044
 20
-32.7119
 30
0.0
 10
5.7044
 20
-32.7119
 30
0.0
 10
3.5013
 20
-35.2657
 30
0.0
 10
5.1962
 20
-35.9476
 30
0.0
 10
4.1962
 20
-38.3638
 30
0.0
 10
4.1962
 20
-38.3638
 30
0.0
 10
3.8471
 20
-39.2042
 30
0.0
 10
1.9243
 20
-39.4112
 30
0.0
 10
0.3886
 20
-39.6012
 30
0.0
 10
0.3886
 20
-39.6012
 30
0.0
 10
0.3705
 20
-43.6481
 30
0.0
 10
0.4276
 20
-45.427
 30
0.0
 10
0.2983
 20
-49.8623
 30
0.0
 10
0.2983
 20
-49.8623
 30
0.0
 10
-0.1901
 20
-48.0135
 30
0.0
 10
-3.1409
 20
-48.6903
 30
0.0
 10
-3.1653
 20
-49.8867
 30
0.0
  0
SPLINE
  5
4A
330
1F
100
AcDbEntity
  8
layer 1
 62
     7
100
AcDbSpline
210
0.0
220
0.0
230
1.0
 70
    11
 71
     3
 72
    52
 73
    48
 74
     0
 42
0.0000000001
 43
0.0000000001
 12
1.0
 22
0.0
 32
0.0
 13
1.0
 23
0.0
 33
0.0
 40
0.0
 40
0.0
 40
0.0
 40
0.0
 40
0.0769230769230769
 40
0.0769230769230769
 40
0.0769230769230769
 40
0.0769230769230769
 40
0.1538461538461539
 40
0.1538461538461539
 40
0.1538461538461539
 40
0.1538461538461539
 40
0.2307692307692308
 40
0.2307692307692308
 40
0.2307692307692308
 40
0.2307692307692308
 40
0.3076923076923077
 40
0.3076923076923077
 40
0.3076923076923077
 40
0.3076923076923077
 40
0.3846153846153846
 40
0.3846153846153846
 40
0.3846153846153846
 40
0.3846153846153846
 40
0.4615384615384616
 40
0.4615384615384616
 40
0.4615384615384616
 40
0.4615384615384616
 40
0.5384615384615384
 40
0.5384615384615384
 40
0.5384615384615384
 40
0.5384615384615384
 40
0.6153846153846154
 40
0.6153846153846154
 40
0.6153846153846154
 40
0.6153846153846154
 40
0.6923076923076923
 40
0.6923076923076923
 40
0.6923076923076923
 40
0.6923076923076923
 40
0.7692307692307693
 40
0.7692307692307693
 40
0.7692307692307693
 40
0.7692307692307693
 40
0.8461538461538461
 40
0.8461538461538461
 40
0.8461538461538461
 40
0.8461538461538461
 40
1.0
 40
1.0
 40
1.0
 40
1.0
 10
-3.1653
 20
-53.0603
 30
0.0
 10
-3.1653
 20
-53.0603
 30
0.0
 10
-3.1359
 20
-73.6366
 30
0.0
 10
-3.1359
 20
-73.6366
 30
0.0
 10
-3.1359
 20
-73.6366
 30
0.0
 10
1.2621
 20
-70.4272
 30
0.0
 10
10.956
 20
-70.1206
 30
0.0
 10
12.3869
 20
-78.2558
 30
0.0
 10
12.3869
 20
-78.2558
 30
0.0
 10
15.0376
 20
-75.2676
 30
0.0
 10
19.8158
 20
-69.5847
 30
0.0
 10
27.2869
 20
-72.9236
 30
0.0
 10
27.2869
 20
-72.9236
 30
0.0
 10
27.6015
 20
-71.2762
 30
0.0
 10
29.262
 20
-69.5272
 30
0.0
 10
31.985
 20
-70.3207
 30
0.0
 10
31.985
 20
-70.3207
 30
0.0
 10
31.5305
 20
-69.0044
 30
0.0
 10
33.1993
 20
-66.516
 30
0.0
 10
35.6106
 20
-66.808
 30
0.0
 10
35.6106
 20
-66.808
 30
0.0
 10
33.655
 20
-64.2097
 30
0.0
 10
25.7623
 20
-62.8396
 30
0.0
 10
22.3202
 20
-63.8081
 30
0.0
 10
22.3202
 20
-63.8081
 30
0.0
 10
22.3202
 20
-63.8081
 30
0.0
 10
22.1745
 20
-59.4055
 30
0.0
 10
22.1745
 20
-59.4055
 30
0.0
 10
22.1745
 20
-59.4055
 30
0.0
 10
21.4548
 20
-60.6085
 30
0.0
 10
19.7403
 20
-60.3676
 30
0.0
 10
19.0388
 20
-59.199
 30
0.0
 10
19.0388
 20
-59.199
 30
0.0
 10
19.0388
 20
-59.199
 30
0.0
 10
19.0059
 20
-70.8402
 30
0.0
 10
19.0059
 20
-70.8402
 30
0.0
 10
19.0059
 20
-70.8402
 30
0.0
 10
13.8148
 20
-65.1375
 30
0.0
 10
3.1534
 20
-65.4082
 30
0.0
 10
0.3886
 20
-66.4471
 30
0.0
 10
0.3886
 20
-66.4471
 30
0.0
 10
0.3705
 20
-62.4002
 30
0.0
 10
0.4276
 20
-57.5205
 30
0.0
 10
0.2983
 20
-53.085
 30
0.0
 10
0.2983
 20
-53.085
 30
0.0
 10
-0.1901
 20
-54.9339
 30
0.0
 10
-3.1409
 20
-54.2571
 30
0.0
 10
-3.1653
 20
-53.0603
 30
0.0
  0
SPLINE
  5
4B
330
1F
100
AcDbEntity
  8
layer 1
 62
     7
100
AcDbSpline
210
0.0
220
0.0
230
1.0
 70
    11
 71
     3
 72
    20
 73
    16
 74
     0
 42
0.0000000001
 43
0.0000000001
 12
1.0
 22
0.0
 32
0.0
 13
1.0
 23
0.0
 33
0.0
 40
0.0
 40
0.0
 40
0.0
 40
0.0
 40
0.2
 40
0.2
 40
0.2
 40
0.2
 40
0.4
 40
0.4
 40
0.4
 40
0.4
 40
0.6
 40
0.6
 40
0.6
 40
0.6
 40
1.0
 40
1.0
 40
1.0
 40
1.0
 10
22.1594
 20
-51.8669
 30
0.0
 10
22.1594
 20
-51.8669
 30
0.0
 10
22.1745
 20
-55.683
 30
0.0
 10
22.1745
 20
-55.683
 30
0.0
 10
22.1745
 20
-55.683
 30
0.0
 10
21.4548
 20
-54.4781
 30
0.0
 10
19.7403
 20
-54.7191
 30
0.0
 10
19.0388
 20
-55.8895
 30
0.0
 10
19.0388
 20
-55.8895
 30
0.0
 10
19.0388
 20
-55.8895
 30
0.0
 10
19.0059
 20
-51.9998
 30
0.0
 10
19.0059
 20
-51.9998
 30
0.0
 10
19.0059
 20
-51.9998
 30
0.0
 10
20.4092
 20
-52.1489
 30
0.0
 10
22.1595
 20
-51.8669
 30
0.0
 10
22.1594
 20
-51.8669
 30
0.0
  0
SPLINE
  5
4C
330
1F
100
AcDbEntity
  8
layer 1
 62
     7
100
AcDbSpline
210
0.0
220
0.0
230
1.0
 70
    11
 71
     3
 72
    40
 73
    36
 74
     0
 42
0.0000000001
 43
0.0000000001
 12
1.0
 22
0.0
 32
0.0
 13
1.0
 23
0.0
 33
0.0
 40
0.0
 40
0.0
 40
0.0
 40
0.0
 40
0.1
 40
0.1
 40
0.1
 40
0.1
 40
0.2
 40
0.2
 40
0.2
 40
0.2
 40
0.3
 40
0.3
 40
0.3
 40
0.3
 40
0.4
 40
0.4
 40
0.4
 40
0.4
 40
0.5
 40
0.5
 40
0.5
 40
0.5
 40
0.6
 40
0.6
 40
0.6
 40
0.6
 40
0.7
 40
0.7
 40
0.7
 40
0.7
 40
0.8
 40
0.8
 40
0.8
 40
0.8
 40
1.0
 40
1.0
 40
1.0
 40
1.0
 10
4.2667
 20
-46.5905
 30
0.0
 10
4.2667
 20
-46.5905
 30
0.0
 10
4.296
 20
-61.9807
 30
0.0
 10
4.296
 20
-61.9807
 30
0.0
 10
4.296
 20
-61.9807
 30
0.0
 10
9.6563
 20
-61.4985
 30
0.0
 10
12.0788
 20
-62.1544
 30
0.0
 10
15.221
 20
-63.6592
 30
0.0
 10
15.221
 20
-63.6592
 30
0.0
 10
15.221
 20
-63.6592
 30
0.0
 10
15.1702
 20
-53.5764
 30
0.0
 10
15.1702
 20
-53.5764
 30
0.0
 10
15.1702
 20
-53.5764
 30
0.0
 10
14.1312
 20
-53.4439
 30
0.0
 10
12.7901
 20
-53.1505
 30
0.0
 10
11.5543
 20
-52.3554
 30
0.0
 10
11.5543
 20
-52.3554
 30
0.0
 10
11.5543
 20
-52.3554
 30
0.0
 10
11.5199
 20
-56.9926
 30
0.0
 10
11.5199
 20
-56.9926
 30
0.0
 10
11.5199
 20
-56.9926
 30
0.0
 10
10.6067
 20
-56.9582
 30
0.0
 10
9.1415
 20
-56.9615
 30
0.0
 10
7.8188
 20
-57.145
 30
0.0
 10
7.8188
 20
-57.145
 30
0.0
 10
7.8024
 20
-53.0981
 30
0.0
 10
7.8595
 20
-51.0524
 30
0.0
 10
7.7286
 20
-46.6169
 30
0.0
 10
7.7286
 20
-46.6169
 30
0.0
 10
5.9056
 20
-45.5251
 30
0.0
 10
4.9864
 20
-44.6334
 30
0.0
 10
4.2667
 20
-41.8861
 30
0.0
 10
4.2667
 20
-41.8861
 30
0.0
 10
4.2667
 20
-41.8861
 30
0.0
 10
4.2667
 20
-46.5905
 30
0.0
 10
4.2667
 20
-46.5905
 30
0.0
  0
SPLINE
  5
4D
330
1F
100
AcDbEntity
  8
layer 1
 62
     7
100
AcDbSpline
210
0.0
220
0.0
230
1.0
 70
    11
 71
     3
 72
    52
 73
    48
 74
     0
 42
0.0000000001
 43
0.0000000001
 12
1.0
 22
0.0
 32
0.0
 13
1.0
 23
0.0
 33
0.0
 40
0.0
 40
0.0
 40
0.0
 40
0.0
 40
0.0769230769230769
 40
0.0769230769230769
 40
0.0769230769230769
 40
0.0769230769230769
 40
0.1538461538461539
 40
0.1538461538461539
 40
0.1538461538461539
 40
0.1538461538461539
 40
0.2307692307692308
 40
0.2307692307692308
 40
0.2307692307692308
 40
0.2307692307692308
 40
0.3076923076923077
 40
0.3076923076923077
 40
0.3076923076923077
 40
0.3076923076923077
 40
0.3846153846153846
 40
0.3846153846153846
 40
0.3846153846153846
 40
0.3846153846153846
 40
0.4615384615384616
 40
0.4615384615384616
 40
0.4615384615384616
 40
0.4615384615384616
 40
0.5384615384615384
 40
0.5384615384615384
 40
0.5384615384615384
 40
0.5384615384615384
 40
0.6153846153846154
 40
0.6153846153846154
 40
0.6153846153846154
 40
0.6153846153846154
 40
0.6923076923076923
 40
0.6923076923076923
 40
0.6923076923076923
 40
0.6923076923076923
 40
0.7692307692307693
 40
0.7692307692307693
 40
0.7692307692307693
 40
0.7692307692307693
 40
0.8461538461538461
 40
0.8461538461538461
 40
0.8461538461538461
 40
0.8461538461538461
 40
1.0
 40
1.0
 40
1.0
 40
1.0
 10
52.6087
 20
-108.3328
 30
0.0
 10
52.6087
 20
-108.3328
 30
0.0
 10
32.0323
 20
-108.303
 30
0.0
 10
32.0323
 20
-108.303
 30
0.0
 10
32.0323
 20
-108.303
 30
0.0
 10
35.2416
 20
-103.9053
 30
0.0
 10
35.5485
 20
-94.2111
 30
0.0
 10
27.4132
 20
-92.782
 30
0.0
 10
27.4132
 20
-92.782
 30
0.0
 10
30.4013
 20
-90.1315
 30
0.0
 10
36.0843
 20
-85.3516
 30
0.0
 10
32.7453
 20
-77.8819
 30
0.0
 10
32.7453
 20
-77.8819
 30
0.0
 10
34.3928
 20
-77.5655
 30
0.0
 10
36.1418
 20
-75.9067
 30
0.0
 10
35.3483
 20
-73.1842
 30
0.0
 10
35.3483
 20
-73.1842
 30
0.0
 10
36.6646
 20
-73.6366
 30
0.0
 10
38.6201
 20
-72.1696
 30
0.0
 10
38.3301
 20
-69.7584
 30
0.0
 10
38.3301
 20
-69.7584
 30
0.0
 10
41.1264
 20
-72.9106
 30
0.0
 10
41.1819
 20
-78.0116
 30
0.0
 10
40.4823
 20
-82.4521
 30
0.0
 10
40.4823
 20
-82.4521
 30
0.0
 10
40.4823
 20
-82.4521
 30
0.0
 10
46.3306
 20
-82.4143
 30
0.0
 10
46.3306
 20
-82.4143
 30
0.0
 10
46.3306
 20
-82.4143
 30
0.0
 10
45.1275
 20
-83.1339
 30
0.0
 10
45.2996
 20
-85.4289
 30
0.0
 10
46.47
 20
-86.1288
 30
0.0
 10
46.47
 20
-86.1288
 30
0.0
 10
46.47
 20
-86.1288
 30
0.0
 10
34.8287
 20
-86.1632
 30
0.0
 10
34.8287
 20
-86.1632
 30
0.0
 10
34.8287
 20
-86.1632
 30
0.0
 10
40.5313
 20
-91.3527
 30
0.0
 10
40.2608
 20
-102.0153
 30
0.0
 10
39.2218
 20
-104.7807
 30
0.0
 10
39.2218
 20
-104.7807
 30
0.0
 10
43.2686
 20
-104.7987
 30
0.0
 10
48.1484
 20
-104.7395
 30
0.0
 10
52.5839
 20
-104.8709
 30
0.0
 10
52.5839
 20
-104.8709
 30
0.0
 10
50.735
 20
-105.3577
 30
0.0
 10
51.4103
 20
-108.3097
 30
0.0
 10
52.6087
 20
-108.3328
 30
0.0
  0
SPLINE
  5
4E
330
1F
100
AcDbEntity
  8
layer 1
 62
     7
100
AcDbSpline
210
0.0
220
0.0
230
1.0
 70
    11
 71
     3
 72
    28
 73
    24
 74
     0
 42
0.0000000001
 43
0.0000000001
 12
1.0
 22
0.0
 32
0.0
 13
1.0
 23
0.0
 33
0.0
 40
0.0
 40
0.0
 40
0.0
 40
0.0
 40
0.1428571428571428
 40
0.1428571428571428
 40
0.1428571428571428
 40
0.1428571428571428
 40
0.2857142857142857
 40
0.2857142857142857
 40
0.2857142857142857
 40
0.2857142857142857
 40
0.4285714285714285
 40
0.4285714285714285
 40
0.4285714285714285
 40
0.4285714285714285
 40
0.5714285714285714
 40
0.5714285714285714
 40
0.5714285714285714
 40
0.5714285714285714
 40
0.7142857142857143
 40
0.7142857142857143
 40
0.7142857142857143
 40
0.7142857142857143
 40
1.0
 40
1.0
 40
1.0
 40
1.0
 10
22.2824
 20
-48.4951
 30
0.0
 10
22.2824
 20
-48.4951
 30
0.0
 10
22.253
 20
-24.003
 30
0.0
 10
22.253
 20
-24.003
 30
0.0
 10
22.253
 20
-24.003
 30
0.0
 10
20.06
 20
-23.5376
 30
0.0
 10
15.6473
 20
-22.3229
 30
0.0
 10
13.8606
 20
-20.9804
 30
0.0
 10
13.8606
 20
-20.9804
 30
0.0
 10
14.6964
 20
-22.4508
 30
0.0
 10
15.6096
 20
-26.65
 30
0.0
 10
13.0506
 20
-29.0645
 30
0.0
 10
13.0506
 20
-29.0645
 30
0.0
 10
18.4961
 20
-26.6696
 30
0.0
 10
22.0449
 20
-33.3053
 30
0.0
 10
21.0597
 20
-36.1755
 30
0.0
 10
21.0597
 20
-36.1755
 30
0.0
 10
16.9897
 20
-32.479
 30
0.0
 10
12.8346
 20
-39.5308
 30
0.0
 10
7.807
 20
-34.4525
 30
0.0
 10
7.807
 20
-34.4525
 30
0.0
 10
5.8437
 20
-50.3902
 30
0.0
 10
20.3568
 20
-49.0394
 30
0.0
 10
22.2824
 20
-48.4951
 30
0.0
  0
SPLINE
  5
4F
330
1F
100
AcDbEntity
  8
layer 1
 62
     7
100
AcDbSpline
210
0.0
220
0.0
230
1.0
 70
    11
 71
     3
 72
    56
 73
    52
 74
     0
 42
0.0000000001
 43
0.0000000001
 12
1.0
 22
0.0
 32
0.0
 13
1.0
 23
0.0
 33
0.0
 40
0.0
 40
0.0
 40
0.0
 40
0.0
 40
0.0714285714285714
 40
0.0714285714285714
 40
0.0714285714285714
 40
0.0714285714285714
 40
0.1428571428571428
 40
0.1428571428571428
 40
0.1428571428571428
 40
0.1428571428571428
 40
0.2142857142857143
 40
0.2142857142857143
 40
0.2142857142857143
 40
0.2142857142857143
 40
0.2857142857142857
 40
0.2857142857142857
 40
0.2857142857142857
 40
0.2857142857142857
 40
0.3571428571428572
 40
0.3571428571428572
 40
0.3571428571428572
 40
0.3571428571428572
 40
0.4285714285714285
 40
0.4285714285714285
 40
0.4285714285714285
 40
0.4285714285714285
 40
0.5
 40
0.5
 40
0.5
 40
0.5
 40
0.5714285714285714
 40
0.5714285714285714
 40
0.5714285714285714
 40
0.5714285714285714
 40
0.6428571428571429
 40
0.6428571428571429
 40
0.6428571428571429
 40
0.6428571428571429
 40
0.7142857142857143
 40
0.7142857142857143
 40
0.7142857142857143
 40
0.7142857142857143
 40
0.7857142857142857
 40
0.7857142857142857
 40
0.7857142857142857
 40
0.7857142857142857
 40
0.8571428571428571
 40
0.8571428571428571
 40
0.8571428571428571
 40
0.8571428571428571
 40
1.0
 40
1.0
 40
1.0
 40
1.0
 10
41.9556
 20
-89.6594
 30
0.0
 10
42.4965
 20
-90.9544
 30
0.0
 10
44.3262
 20
-93.2179
 30
0.0
 10
43.7491
 20
-100.9584
 30
0.0
 10
43.7491
 20
-100.9584
 30
0.0
 10
43.7491
 20
-100.9584
 30
0.0
 10
63.4336
 20
-100.9582
 30
0.0
 10
63.4336
 20
-100.9582
 30
0.0
 10
63.4336
 20
-100.9582
 30
0.0
 10
63.5189
 20
-100.2974
 30
0.0
 10
64.6989
 20
-96.7684
 30
0.0
 10
66.8414
 20
-95.2015
 30
0.0
 10
66.8414
 20
-95.2015
 30
0.0
 10
64.4697
 20
-91.6754
 30
0.0
 10
62.7598
 20
-88.681
 30
0.0
 10
60.603
 20
-82.2078
 30
0.0
 10
60.603
 20
-82.2078
 30
0.0
 10
56.0655
 20
-82.2552
 30
0.0
 10
54.2511
 20
-82.2259
 30
0.0
 10
49.4599
 20
-82.2355
 30
0.0
 10
49.4599
 20
-82.2355
 30
0.0
 10
51.1495
 20
-82.8271
 30
0.0
 10
51.0074
 20
-85.7533
 30
0.0
 10
49.4451
 20
-86.2991
 30
0.0
 10
49.4451
 20
-86.2991
 30
0.0
 10
51.9302
 20
-86.3071
 30
0.0
 10
55.3097
 20
-86.1665
 30
0.0
 10
55.1151
 20
-86.245
 30
0.0
 10
55.1151
 20
-86.245
 30
0.0
 10
55.5099
 20
-90.2625
 30
0.0
 10
57.5968
 20
-95.2061
 30
0.0
 10
60.3717
 20
-97.2422
 30
0.0
 10
60.3717
 20
-97.2422
 30
0.0
 10
60.3717
 20
-97.2422
 30
0.0
 10
48.7418
 20
-97.3076
 30
0.0
 10
48.7418
 20
-97.3076
 30
0.0
 10
48.7418
 20
-97.3076
 30
0.0
 10
48.7763
 20
-96.3949
 30
0.0
 10
48.7238
 20
-95.2241
 30
0.0
 10
48.6386
 20
-93.7542
 30
0.0
 10
48.6386
 20
-93.7542
 30
0.0
 10
50.1744
 20
-93.6866
 30
0.0
 10
51.5793
 20
-93.7458
 30
0.0
 10
53.4051
 20
-93.6148
 30
0.0
 10
53.4051
 20
-93.6148
 30
0.0
 10
52.9216
 20
-92.5788
 30
0.0
 10
52.2856
 20
-90.9692
 30
0.0
 10
52.1269
 20
-89.7577
 30
0.0
 10
52.1269
 20
-89.7577
 30
0.0
 10
52.1269
 20
-89.7577
 30
0.0
 10
41.9556
 20
-89.6594
 30
0.0
 10
41.9556
 20
-89.6594
 30
0.0
  0
SPLINE
  5
50
330
1F
100
AcDbEntity
  8
layer 1
 62
     7
100
AcDbSpline
210
0.0
220
0.0
230
1.0
 70
    11
 71
     3
 72
    24
 73
    20
 74
     0
 42
0.0000000001
 43
0.0000000001
 12
1.0
 22
0.0
 32
0.0
 13
1.0
 23
0.0
 33
0.0
 40
0.0
 40
0.0
 40
0.0
 40
0.0
 40
0.1666666666666667
 40
0.1666666666666667
 40
0.1666666666666667
 40
0.1666666666666667
 40
0.3333333333333333
 40
0.3333333333333333
 40
0.3333333333333333
 40
0.3333333333333333
 40
0.5
 40
0.5
 40
0.5
 40
0.5
 40
0.6666666666666666
 40
0.6666666666666666
 40
0.6666666666666666
 40
0.6666666666666666
 40
1.0
 40
1.0
 40
1.0
 40
1.0
 10
55.546
 20
-108.3328
 30
0.0
 10
55.546
 20
-108.3328
 30
0.0
 10
87.6439
 20
-108.303
 30
0.0
 10
87.6439
 20
-108.303
 30
0.0
 10
87.6439
 20
-108.303
 30
0.0
 10
74.8193
 20
-104.6791
 30
0.0
 10
72.6734
 20
-101.1202
 30
0.0
 10
68.992
 20
-97.8828
 30
0.0
 10
68.992
 20
-97.8828
 30
0.0
 10
66.9334
 20
-99.9222
 30
0.0
 10
66.2188
 20
-102.4089
 30
0.0
 10
65.7811
 20
-104.7807
 30
0.0
 10
65.7811
 20
-104.7807
 30
0.0
 10
61.7338
 20
-104.7987
 30
0.0
 10
60.0062
 20
-104.7395
 30
0.0
 10
55.5708
 20
-104.8709
 30
0.0
 10
55.5708
 20
-104.8709
 30
0.0
 10
57.4195
 20
-105.3577
 30
0.0
 10
56.7428
 20
-108.3097
 30
0.0
 10
55.546
 20
-108.3328
 30
0.0
  0
SPLINE
  5
51
330
1F
100
AcDbEntity
  8
layer 1
 62
     7
100
AcDbSpline
210
0.0
220
0.0
230
1.0
 70
    11
 71
     3
 72
    24
 73
    20
 74
     0
 42
0.0000000001
 43
0.0000000001
 12
1.0
 22
0.0
 32
0.0
 13
1.0
 23
0.0
 33
0.0
 40
0.0
 40
0.0
 40
0.0
 40
0.0
 40
0.1666666666666667
 40
0.1666666666666667
 40
0.1666666666666667
 40
0.1666666666666667
 40
0.3333333333333333
 40
0.3333333333333333
 40
0.3333333333333333
 40
0.3333333333333333
 40
0.5
 40
0.5
 40
0.5
 40
0.5
 40
0.6666666666666666
 40
0.6666666666666666
 40
0.6666666666666666
 40
0.6666666666666666
 40
1.0
 40
1.0
 40
1.0
 40
1.0
 10
89.2699
 20
-64.5559
 30
0.0
 10
91.8237
 20
-71.6844
 30
0.0
 10
83.0382
 20
-76.5757
 30
0.0
 10
88.6472
 20
-83.311
 30
0.0
 10
88.6472
 20
-83.311
 30
0.0
 10
80.2514
 20
-87.9151
 30
0.0
 10
85.0461
 20
-100.5105
 30
0.0
 10
93.4499
 20
-100.0238
 30
0.0
 10
93.4499
 20
-100.0238
 30
0.0
 10
101.8553
 20
-100.5105
 30
0.0
 10
106.65
 20
-87.9152
 30
0.0
 10
98.2541
 20
-83.311
 30
0.0
 10
98.2541
 20
-83.311
 30
0.0
 10
103.8632
 20
-76.5757
 30
0.0
 10
95.0776
 20
-71.6845
 30
0.0
 10
97.6314
 20
-64.5559
 30
0.0
 10
97.6314
 20
-64.5559
 30
0.0
 10
94.963
 20
-67.1274
 30
0.0
 10
91.16
 20
-66.4589
 30
0.0
 10
89.2699
 20
-64.5559
 30
0.0
  0
SPLINE
  5
52
330
1F
100
AcDbEntity
  8
layer 1
 62
     7
100
AcDbSpline
210
0.0
220
0.0
230
1.0
 70
    11
 71
     3
 72
    32
 73
    28
 74
     0
 42
0.0000000001
 43
0.0000000001
 12
1.0
 22
0.0
 32
0.0
 13
1.0
 23
0.0
 33
0.0
 40
0.0
 40
0.0
 40
0.0
 40
0.0
 40
0.125
 40
0.125
 40
0.125
 40
0.125
 40
0.25
 40
0.25
 40
0.25
 40
0.25
 40
0.375
 40
0.375
 40
0.375
 40
0.375
 40
0.5
 40
0.5
 40
0.5
 40
0.5
 40
0.625
 40
0.625
 40
0.625
 40
0.625
 40
0.75
 40
0.75
 40
0.75
 40
0.75
 40
1.0
 40
1.0
 40
1.0
 40
1.0
 10
68.9492
 20
-73.6597
 30
0.0
 10
67.8347
 20
-73.7201
 30
0.0
 10
67.3496
 20
-73.6286
 30
0.0
 10
66.4759
 20
-73.6286
 30
0.0
 10
66.4759
 20
-73.6286
 30
0.0
 10
70.2622
 20
-72.3713
 30
0.0
 10
73.2295
 20
-70.0979
 30
0.0
 10
74.4963
 20
-65.8358
 30
0.0
 10
74.4963
 20
-65.8358
 30
0.0
 10
75.732
 20
-69.4172
 30
0.0
 10
79.4533
 20
-68.4668
 30
0.0
 10
80.1499
 20
-67.4916
 30
0.0
 10
80.1499
 20
-67.4916
 30
0.0
 10
80.7495
 20
-66.6523
 30
0.0
 10
81.7578
 20
-63.4229
 30
0.0
 10
78.0895
 20
-63.2853
 30
0.0
 10
78.0895
 20
-63.2853
 30
0.0
 10
82.6641
 20
-57.186
 30
0.0
 10
90.6287
 20
-65.472
 30
0.0
 10
80.8662
 20
-74.2824
 30
0.0
 10
80.8662
 20
-74.2824
 30
0.0
 10
71.5457
 20
-81.3421
 30
0.0
 10
74.2323
 20
-90.9151
 30
0.0
 10
74.2323
 20
-90.9151
 30
0.0
 10
74.2323
 20
-90.9151
 30
0.0
 10
72.2424
 20
-90.1694
 30
0.0
 10
68.0378
 20
-79.1508
 30
0.0
 10
68.9492
 20
-73.6597
 30
0.0
  0
SPLINE
  5
53
330
1F
100
AcDbEntity
  8
layer 1
 62
     7
100
AcDbSpline
210
0.0
220
0.0
230
1.0
 70
    11
 71
     3
 72
    16
 73
    12
 74
     0
 42
0.0000000001
 43
0.0000000001
 12
1.0
 22
0.0
 32
0.0
 13
1.0
 23
0.0
 33
0.0
 40
0.0
 40
0.0
 40
0.0
 40
0.0
 40
0.25
 40
0.25
 40
0.25
 40
0.25
 40
0.5
 40
0.5
 40
0.5
 40
0.5
 40
1.0
 40
1.0
 40
1.0
 40
1.0
 10
38.1841
 20
-38.352
 30
0.0
 10
35.4926
 20
-40.9961
 30
0.0
 10
33.4125
 20
-43.5533
 30
0.0
 10
30.9011
 20
-45.0547
 30
0.0
 10
30.9011
 20
-45.0547
 30
0.0
 10
30.9011
 20
-45.0547
 30
0.0
 10
30.8666
 20
-36.9442
 30
0.0
 10
30.8666
 20
-36.9442
 30
0.0
 10
30.8666
 20
-36.9442
 30
0.0
 10
34.0385
 20
-40.5156
 30
0.0
 10
38.1841
 20
-38.352
 30
0.0
 10
38.1841
 20
-38.352
 30
0.0
  0
SPLINE
  5
54
330
1F
100
AcDbEntity
  8
layer 1
 62
     7
100
AcDbSpline
210
0.0
220
0.0
230
1.0
 70
    11
 71
     3
 72
    32
 73
    28
 74
     0
 42
0.0000000001
 43
0.0000000001
 12
1.0
 22
0.0
 32
0.0
 13
1.0
 23
0.0
 33
0.0
 40
0.0
 40
0.0
 40
0.0
 40
0.0
 40
0.125
 40
0.125
 40
0.125
 40
0.125
 40
0.25
 40
0.25
 40
0.25
 40
0.25
 40
0.375
 40
0.375
 40
0.375
 40
0.375
 40
0.5
 40
0.5
 40
0.5
 40
0.5
 40
0.625
 40
0.625
 40
0.625
 40
0.625
 40
0.75
 40
0.75
 40
0.75
 40
0.75
 40
1.0
 40
1.0
 40
1.0
 40
1.0
 10
48.391
 20
-42.1731
 30
0.0
 10
47.9127
 20
-55.4009
 30
0.0
 10
44.3047
 20
-67.8995
 30
0.0
 10
58.6571
 20
-73.4842
 30
0.0
 10
58.6571
 20
-73.4842
 30
0.0
 10
55.9312
 20
-73.5203
 30
0.0
 10
52.6003
 20
-73.4171
 30
0.0
 10
48.9273
 20
-73.5418
 30
0.0
 10
48.9273
 20
-73.5418
 30
0.0
 10
48.3893
 20
-65.0804
 30
0.0
 10
40.8722
 20
-57.1958
 30
0.0
 10
30.9011
 20
-55.6041
 30
0.0
 10
30.9011
 20
-55.6041
 30
0.0
 10
30.9011
 20
-55.6041
 30
0.0
 10
30.8666
 20
-48.6345
 30
0.0
 10
30.8666
 20
-48.6345
 30
0.0
 10
30.8666
 20
-48.6345
 30
0.0
 10
33.7306
 20
-46.9249
 30
0.0
 10
38.0216
 20
-43.8743
 30
0.0
 10
38.9088
 20
-40.652
 30
0.0
 10
38.9088
 20
-40.652
 30
0.0
 10
38.3414
 20
-43.8251
 30
0.0
 10
41.782
 20
-49.6395
 30
0.0
 10
40.5952
 20
-52.4489
 30
0.0
 10
40.5952
 20
-52.4489
 30
0.0
 10
48.9861
 20
-49.9752
 30
0.0
 10
48.391
 20
-42.1731
 30
0.0
 10
48.391
 20
-42.1731
 30
0.0
  0
SPLINE
  5
55
330
1F
100
AcDbEntity
  8
layer 1
 62
     7
100
AcDbSpline
210
0.0
220
0.0
230
1.0
 70
    11
 71
     3
 72
    48
 73
    44
 74
     0
 42
0.0000000001
 43
0.0000000001
 12
1.0
 22
0.0
 32
0.0
 13
1.0
 23
0.0
 33
0.0
 40
0.0
 40
0.0
 40
0.0
 40
0.0
 40
0.0833333333333333
 40
0.0833333333333333
 40
0.0833333333333333
 40
0.0833333333333333
 40
0.1666666666666667
 40
0.1666666666666667
 40
0.1666666666666667
 40
0.1666666666666667
 40
0.25
 40
0.25
 40
0.25
 40
0.25
 40
0.3333333333333333
 40
0.3333333333333333
 40
0.3333333333333333
 40
0.3333333333333333
 40
0.4166666666666667
 40
0.4166666666666667
 40
0.4166666666666667
 40
0.4166666666666667
 40
0.5
 40
0.5
 40
0.5
 40
0.5
 40
0.5833333333333334
 40
0.5833333333333334
 40
0.5833333333333334
 40
0.5833333333333334
 40
0.6666666666666666
 40
0.6666666666666666
 40
0.6666666666666666
 40
0.6666666666666666
 40
0.75
 40
0.75
 40
0.75
 40
0.75
 40
0.8333333333333334
 40
0.8333333333333334
 40
0.8333333333333334
 40
0.8333333333333334
 40
1.0
 40
1.0
 40
1.0
 40
1.0
 10
37.9562
 20
-21.8147
 30
0.0
 10
37.3447
 20
-23.262
 30
0.0
 10
35.9844
 20
-25.606
 30
0.0
 10
33.3437
 20
-24.8422
 30
0.0
 10
33.3437
 20
-24.8422
 30
0.0
 10
33.0697
 20
-25.1192
 30
0.0
 10
34.3991
 20
-29.4203
 30
0.0
 10
39.2924
 20
-26.5715
 30
0.0
 10
39.2924
 20
-26.5715
 30
0.0
 10
39.6905
 20
-27.0352
 30
0.0
 10
40.6787
 20
-32.6725
 30
0.0
 10
37.4351
 20
-34.5133
 30
0.0
 10
37.4351
 20
-34.5133
 30
0.0
 10
32.4058
 20
-37.3685
 30
0.0
 10
30.4081
 20
-29.8139
 30
0.0
 10
36.2761
 20
-29.3121
 30
0.0
 10
36.2761
 20
-29.3121
 30
0.0
 10
35.1107
 20
-26.9139
 30
0.0
 10
31.7538
 20
-28.5207
 30
0.0
 10
30.9011
 20
-29.0302
 30
0.0
 10
30.9011
 20
-29.0302
 30
0.0
 10
30.9011
 20
-29.0302
 30
0.0
 10
30.8666
 20
-16.3579
 30
0.0
 10
30.8666
 20
-16.3579
 30
0.0
 10
30.8666
 20
-16.3579
 30
0.0
 10
16.7059
 20
-15.8253
 30
0.0
 10
10.6643
 20
-7.6884
 30
0.0
 10
9.7101
 20
-6.315
 30
0.0
 10
9.7101
 20
-6.315
 30
0.0
 10
16.5306
 20
-11.2993
 30
0.0
 10
21.64
 20
-11.6455
 30
0.0
 10
26.051
 20
-12.765
 30
0.0
 10
26.051
 20
-12.765
 30
0.0
 10
30.2541
 20
-13.8321
 30
0.0
 10
33.1486
 20
-15.6185
 30
0.0
 10
33.1175
 20
-20.0002
 30
0.0
 10
33.1175
 20
-20.0002
 30
0.0
 10
34.2535
 20
-19.469
 30
0.0
 10
35.4482
 20
-15.5153
 30
0.0
 10
33.3979
 20
-12.9468
 30
0.0
 10
33.3979
 20
-12.9468
 30
0.0
 10
39.6775
 20
-15.558
 30
0.0
 10
37.9562
 20
-21.8147
 30
0.0
 10
37.9562
 20
-21.8147
 30
0.0
  0
SPLINE
  5
56
330
1F
100
AcDbEntity
  8
layer 1
 62
     7
100
AcDbSpline
210
0.0
220
0.0
230
1.0
 70
    11
 71
     3
 72
    24
 73
    20
 74
     0
 42
0.0000000001
 43
0.0000000001
 12
1.0
 22
0.0
 32
0.0
 13
1.0
 23
0.0
 33
0.0
 40
0.0
 40
0.0
 40
0.0
 40
0.0
 40
0.1666666666666667
 40
0.1666666666666667
 40
0.1666666666666667
 40
0.1666666666666667
 40
0.3333333333333333
 40
0.3333333333333333
 40
0.3333333333333333
 40
0.3333333333333333
 40
0.5
 40
0.5
 40
0.5
 40
0.5
 40
0.6666666666666666
 40
0.6666666666666666
 40
0.6666666666666666
 40
0.6666666666666666
 40
1.0
 40
1.0
 40
1.0
 40
1.0
 10
46.339
 20
-27.6894
 30
0.0
 10
47.5963
 20
-29.8908
 30
0.0
 10
47.6961
 20
-37.1394
 30
0.0
 10
53.0446
 20
-40.8157
 30
0.0
 10
53.0446
 20
-40.8157
 30
0.0
 10
61.0406
 20
-44.7299
 30
0.0
 10
61.3272
 20
-35.7542
 30
0.0
 10
55.8771
 20
-36.9358
 30
0.0
 10
55.8771
 20
-36.9358
 30
0.0
 10
56.0638
 20
-33.474
 30
0.0
 10
59.462
 20
-33.0299
 30
0.0
 10
61.4665
 20
-33.9906
 30
0.0
 10
61.4665
 20
-33.9906
 30
0.0
 10
61.4665
 20
-33.9906
 30
0.0
 10
52.3087
 20
-22.7457
 30
0.0
 10
52.3087
 20
-22.7457
 30
0.0
 10
52.3087
 20
-22.7457
 30
0.0
 10
53.4282
 20
-26.0881
 30
0.0
 10
49.1321
 20
-28.6009
 30
0.0
 10
46.339
 20
-27.6894
 30
0.0
  0
SPLINE
  5
57
330
1F
100
AcDbEntity
  8
layer 1
 62
     7
100
AcDbSpline
210
0.0
220
0.0
230
1.0
 70
    11
 71
     3
 72
    48
 73
    44
 74
     0
 42
0.0000000001
 43
0.0000000001
 12
1.0
 22
0.0
 32
0.0
 13
1.0
 23
0.0
 33
0.0
 40
0.0
 40
0.0
 40
0.0
 40
0.0
 40
0.0833333333333333
 40
0.0833333333333333
 40
0.0833333333333333
 40
0.0833333333333333
 40
0.1666666666666667
 40
0.1666666666666667
 40
0.1666666666666667
 40
0.1666666666666667
 40
0.25
 40
0.25
 40
0.25
 40
0.25
 40
0.3333333333333333
 40
0.3333333333333333
 40
0.3333333333333333
 40
0.3333333333333333
 40
0.4166666666666667
 40
0.4166666666666667
 40
0.4166666666666667
 40
0.4166666666666667
 40
0.5
 40
0.5
 40
0.5
 40
0.5
 40
0.5833333333333334
 40
0.5833333333333334
 40
0.5833333333333334
 40
0.5833333333333334
 40
0.6666666666666666
 40
0.6666666666666666
 40
0.6666666666666666
 40
0.6666666666666666
 40
0.75
 40
0.75
 40
0.75
 40
0.75
 40
0.8333333333333334
 40
0.8333333333333334
 40
0.8333333333333334
 40
0.8333333333333334
 40
1.0
 40
1.0
 40
1.0
 40
1.0
 10
42.2392
 20
-18.9183
 30
0.0
 10
40.4936
 20
-14.2383
 30
0.0
 10
39.0611
 20
-11.5716
 30
0.0
 10
34.0156
 20
-10.9569
 30
0.0
 10
34.0156
 20
-10.9569
 30
0.0
 10
37.6234
 20
-9.9929
 30
0.0
 10
38.2168
 20
-3.2808
 30
0.0
 10
37.1808
 20
-4.305
 30
0.0
 10
37.1808
 20
-4.305
 30
0.0
 10
26.6134
 20
-14.7402
 30
0.0
 10
13.8509
 20
-6.336
 30
0.0
 10
14.0754
 20
-5.6608
 30
0.0
 10
14.0754
 20
-5.6608
 30
0.0
 10
12.7967
 20
-4.3117
 30
0.0
 10
13.7935
 20
-3.3789
 30
0.0
 10
15.1212
 20
-4.7594
 30
0.0
 10
15.1212
 20
-4.7594
 30
0.0
 10
18.8536
 20
-6.9952
 30
0.0
 10
25.1493
 20
-6.287
 30
0.0
 10
27.469
 20
-0.4776
 30
0.0
 10
27.469
 20
-0.4776
 30
0.0
 10
30.157
 20
6.2528
 30
0.0
 10
35.6974
 20
5.7395
 30
0.0
 10
36.0155
 20
2.0515
 30
0.0
 10
36.0155
 20
2.0515
 30
0.0
 10
33.1615
 20
3.0893
 30
0.0
 10
32.747
 20
0.4875
 30
0.0
 10
33.5418
 20
-0.6204
 30
0.0
 10
33.5418
 20
-0.6204
 30
0.0
 10
35.0926
 20
-2.7838
 30
0.0
 10
38.5055
 20
-0.8989
 30
0.0
 10
38.5236
 20
0.2009
 30
0.0
 10
38.5236
 20
0.2009
 30
0.0
 10
38.5236
 20
0.2009
 30
0.0
 10
38.561
 20
-4.2462
 30
0.0
 10
38.561
 20
-4.2462
 30
0.0
 10
38.561
 20
-4.2462
 30
0.0
 10
38.561
 20
-4.2462
 30
0.0
 10
51.9725
 20
-21.844
 30
0.0
 10
51.9725
 20
-21.844
 30
0.0
 10
51.9725
 20
-21.844
 30
0.0
 10
51.0255
 20
-23.0622
 30
0.0
 10
45.8896
 20
-26.8434
 30
0.0
 10
42.2392
 20
-18.9183
 30
0.0
  0
SPLINE
  5
58
330
1F
100
AcDbEntity
  8
layer 1
 62
     7
100
AcDbSpline
210
0.0
220
0.0
230
1.0
 70
    11
 71
     3
 72
    16
 73
    12
 74
     0
 42
0.0000000001
 43
0.0000000001
 12
1.0
 22
0.0
 32
0.0
 13
1.0
 23
0.0
 33
0.0
 40
0.0
 40
0.0
 40
0.0
 40
0.0
 40
0.25
 40
0.25
 40
0.25
 40
0.25
 40
0.5
 40
0.5
 40
0.5
 40
0.5
 40
1.0
 40
1.0
 40
1.0
 40
1.0
 10
45.3109
 20
-37.2687
 30
0.0
 10
45.2437
 20
-43.1055
 30
0.0
 10
41.6229
 20
-40.3125
 30
0.0
 10
42.6477
 20
-38.2685
 30
0.0
 10
42.6477
 20
-38.2685
 30
0.0
 10
42.8738
 20
-31.1479
 30
0.0
 10
42.5112
 20
-29.1711
 30
0.0
 10
41.7018
 20
-25.5388
 30
0.0
 10
41.7018
 20
-25.5388
 30
0.0
 10
44.9408
 20
-28.4648
 30
0.0
 10
45.311
 20
-37.2687
 30
0.0
 10
45.3109
 20
-37.2687
 30
0.0
  0
SPLINE
  5
59
330
1F
100
AcDbEntity
  8
layer 1
 62
     7
100
AcDbSpline
210
0.0
220
0.0
230
1.0
 70
    11
 71
     3
 72
    16
 73
    12
 74
     0
 42
0.0000000001
 43
0.0000000001
 12
1.0
 22
0.0
 32
0.0
 13
1.0
 23
0.0
 33
0.0
 40
0.0
 40
0.0
 40
0.0
 40
0.0
 40
0.25
 40
0.25
 40
0.25
 40
0.25
 40
0.5
 40
0.5
 40
0.5
 40
0.5
 40
1.0
 40
1.0
 40
1.0
 40
1.0
 10
74.9897
 20
-61.1296
 30
0.0
 10
75.3388
 20
-59.2808
 30
0.0
 10
77.2863
 20
-57.1433
 30
0.0
 10
79.209
 20
-56.7336
 30
0.0
 10
79.209
 20
-56.7336
 30
0.0
 10
79.209
 20
-56.7336
 30
0.0
 10
70.0507
 20
-45.4873
 30
0.0
 10
70.0507
 20
-45.4873
 30
0.0
 10
70.0507
 20
-45.4873
 30
0.0
 10
66.3564
 20
-53.4618
 30
0.0
 10
75.0321
 20
-51.9865
 30
0.0
 10
74.9897
 20
-61.1296
 30
0.0
  0
SPLINE
  5
5A
330
1F
100
AcDbEntity
  8
layer 1
 62
     7
100
AcDbSpline
210
0.0
220
0.0
230
1.0
 70
    11
 71
     3
 72
    36
 73
    32
 74
     0
 42
0.0000000001
 43
0.0000000001
 12
1.0
 22
0.0
 32
0.0
 13
1.0
 23
0.0
 33
0.0
 40
0.0
 40
0.0
 40
0.0
 40
0.0
 40
0.1111111111111111
 40
0.1111111111111111
 40
0.1111111111111111
 40
0.1111111111111111
 40
0.2222222222222222
 40
0.2222222222222222
 40
0.2222222222222222
 40
0.2222222222222222
 40
0.3333333333333333
 40
0.3333333333333333
 40
0.3333333333333333
 40
0.3333333333333333
 40
0.4444444444444444
 40
0.4444444444444444
 40
0.4444444444444444
 40
0.4444444444444444
 40
0.5555555555555556
 40
0.5555555555555556
 40
0.5555555555555556
 40
0.5555555555555556
 40
0.6666666666666666
 40
0.6666666666666666
 40
0.6666666666666666
 40
0.6666666666666666
 40
0.7777777777777778
 40
0.7777777777777778
 40
0.7777777777777778
 40
0.7777777777777778
 40
1.0
 40
1.0
 40
1.0
 40
1.0
 10
49.886
 20
-42.7698
 30
0.0
 10
52.2725
 20
-48.6819
 30
0.0
 10
49.6319
 20
-62.3017
 30
0.0
 10
54.9804
 20
-65.9784
 30
0.0
 10
54.9804
 20
-65.9784
 30
0.0
 10
57.9459
 20
-69.7026
 30
0.0
 10
64.6384
 20
-69.0715
 30
0.0
 10
67.0908
 20
-67.3946
 30
0.0
 10
67.0908
 20
-67.3946
 30
0.0
 10
73.3226
 20
-63.133
 30
0.0
 10
69.9132
 20
-54.388
 30
0.0
 10
63.7338
 20
-56.0681
 30
0.0
 10
63.7338
 20
-56.0681
 30
0.0
 10
68.8905
 20
-59.4709
 30
0.0
 10
59.2668
 20
-66.6259
 30
0.0
 10
57.3752
 20
-57.4697
 30
0.0
 10
57.3752
 20
-57.4697
 30
0.0
 10
57.7507
 20
-50.0982
 30
0.0
 10
66.6069
 20
-50.3064
 30
0.0
 10
64.6678
 20
-50.7276
 30
0.0
 10
64.6678
 20
-50.7276
 30
0.0
 10
64.8549
 20
-47.264
 30
0.0
 10
67.5267
 20
-43.3514
 30
0.0
 10
69.5312
 20
-44.3136
 30
0.0
 10
69.5312
 20
-44.3136
 30
0.0
 10
69.5312
 20
-44.3136
 30
0.0
 10
63.9221
 20
-37.0999
 30
0.0
 10
63.9221
 20
-37.0999
 30
0.0
 10
63.9221
 20
-37.0999
 30
0.0
 10
66.089
 20
-43.6679
 30
0.0
 10
57.2787
 20
-50.2148
 30
0.0
 10
49.886
 20
-42.7698
 30
0.0
  0
SPLINE
  5
5B
330
1F
100
AcDbEntity
  8
layer 1
 62
     7
100
AcDbSpline
210
0.0
220
0.0
230
1.0
 70
    11
 71
     3
 72
    20
 73
    16
 74
     0
 42
0.0000000001
 43
0.0000000001
 12
1.0
 22
0.0
 32
0.0
 13
1.0
 23
0.0
 33
0.0
 40
0.0
 40
0.0
 40
0.0
 40
0.0
 40
0.2
 40
0.2
 40
0.2
 40
0.2
 40
0.4
 40
0.4
 40
0.4
 40
0.4
 40
0.6
 40
0.6
 40
0.6
 40
0.6
 40
1.0
 40
1.0
 40
1.0
 40
1.0
 10
16.3686
 20
4.5264
 30
0.0
 10
11.7495
 20
-1.3857
 30
0.0
 10
4.934
 20
2.8463
 30
0.0
 10
4.7681
 20
8.3361
 30
0.0
 10
4.7681
 20
8.3361
 30
0.0
 10
4.934
 20
13.827
 30
0.0
 10
11.7495
 20
18.0593
 30
0.0
 10
16.3687
 20
12.1456
 30
0.0
 10
16.3687
 20
12.1456
 30
0.0
 10
20.8959
 20
17.7202
 30
0.0
 10
25.0923
 20
9.3622
 30
0.0
 10
31.6455
 20
8.3361
 30
0.0
 10
31.6455
 20
8.3361
 30
0.0
 10
25.0922
 20
7.3098
 30
0.0
 10
20.896
 20
-1.0483
 30
0.0
 10
16.3686
 20
4.5264
 30
0.0
  0
SPLINE
  5
5C
330
1F
100
AcDbEntity
  8
layer 1
 62
     7
100
AcDbSpline
210
0.0
220
0.0
230
1.0
 70
    11
 71
     3
 72
    24
 73
    20
 74
     0
 42
0.0000000001
 43
0.0000000001
 12
1.0
 22
0.0
 32
0.0
 13
1.0
 23
0.0
 33
0.0
 40
0.0
 40
0.0
 40
0.0
 40
0.0
 40
0.1666666666666667
 40
0.1666666666666667
 40
0.1666666666666667
 40
0.1666666666666667
 40
0.3333333333333333
 40
0.3333333333333333
 40
0.3333333333333333
 40
0.3333333333333333
 40
0.5
 40
0.5
 40
0.5
 40
0.5
 40
0.6666666666666666
 40
0.6666666666666666
 40
0.6666666666666666
 40
0.6666666666666666
 40
1.0
 40
1.0
 40
1.0
 40
1.0
 10
47.0847
 20
6.0216
 30
0.0
 10
46.9324
 20
2.9054
 30
0.0
 10
46.8665
 20
1.8021
 30
0.0
 10
47.0667
 20
-1.376
 30
0.0
 10
47.0667
 20
-1.376
 30
0.0
 10
54.1479
 20
-10.2734
 30
0.0
 10
55.1839
 20
-11.5913
 30
0.0
 10
62.7682
 20
-21.5755
 30
0.0
 10
62.7682
 20
-21.5755
 30
0.0
 10
62.0434
 20
-16.9495
 30
0.0
 10
64.8596
 20
-14.4302
 30
0.0
 10
69.6869
 20
-15.8074
 30
0.0
 10
69.6869
 20
-15.8074
 30
0.0
 10
69.6869
 20
-15.8074
 30
0.0
 10
52.3904
 20
6.3984
 30
0.0
 10
52.3904
 20
6.3984
 30
0.0
 10
52.3904
 20
6.3984
 30
0.0
 10
52.0988
 20
4.717
 30
0.0
 10
48.1355
 20
4.6119
 30
0.0
 10
47.0847
 20
6.0216
 30
0.0
  0
SPLINE
  5
5D
330
1F
100
AcDbEntity
  8
layer 1
 62
     7
100
AcDbSpline
210
0.0
220
0.0
230
1.0
 70
    11
 71
     3
 72
    24
 73
    20
 74
     0
 42
0.0000000001
 43
0.0000000001
 12
1.0
 22
0.0
 32
0.0
 13
1.0
 23
0.0
 33
0.0
 40
0.0
 40
0.0
 40
0.0
 40
0.0
 40
0.1666666666666667
 40
0.1666666666666667
 40
0.1666666666666667
 40
0.1666666666666667
 40
0.3333333333333333
 40
0.3333333333333333
 40
0.3333333333333333
 40
0.3333333333333333
 40
0.5
 40
0.5
 40
0.5
 40
0.5
 40
0.6666666666666666
 40
0.6666666666666666
 40
0.6666666666666666
 40
0.6666666666666666
 40
1.0
 40
1.0
 40
1.0
 40
1.0
 10
90.9878
 20
-48.3067
 30
0.0
 10
89.5649
 20
-46.5183
 30
0.0
 10
89.7143
 20
-44.6679
 30
0.0
 10
91.1746
 20
-43.6481
 30
0.0
 10
91.1746
 20
-43.6481
 30
0.0
 10
84.0918
 20
-34.7508
 30
0.0
 10
79.653
 20
-28.8665
 30
0.0
 10
72.0671
 20
-18.8823
 30
0.0
 10
72.0671
 20
-18.8823
 30
0.0
 10
72.7934
 20
-23.5062
 30
0.0
 10
69.9756
 20
-26.0273
 30
0.0
 10
65.15
 20
-24.6505
 30
0.0
 10
65.15
 20
-24.6505
 30
0.0
 10
65.15
 20
-24.6505
 30
0.0
 10
83.274
 20
-48.4347
 30
0.0
 10
83.274
 20
-48.4347
 30
0.0
 10
83.274
 20
-48.4347
 30
0.0
 10
86.1329
 20
-48.3525
 30
0.0
 10
88.1442
 20
-48.3576
 30
0.0
 10
90.9878
 20
-48.3067
 30
0.0
  0
SPLINE
  5
5E
330
1F
100
AcDbEntity
  8
layer 1
 62
     7
100
AcDbSpline
210
0.0
220
0.0
230
1.0
 70
    11
 71
     3
 72
    40
 73
    36
 74
     0
 42
0.0000000001
 43
0.0000000001
 12
1.0
 22
0.0
 32
0.0
 13
1.0
 23
0.0
 33
0.0
 40
0.0
 40
0.0
 40
0.0
 40
0.0
 40
0.1
 40
0.1
 40
0.1
 40
0.1
 40
0.2
 40
0.2
 40
0.2
 40
0.2
 40
0.3
 40
0.3
 40
0.3
 40
0.3
 40
0.4
 40
0.4
 40
0.4
 40
0.4
 40
0.5
 40
0.5
 40
0.5
 40
0.5
 40
0.6
 40
0.6
 40
0.6
 40
0.6
 40
0.7
 40
0.7
 40
0.7
 40
0.7
 40
0.8
 40
0.8
 40
0.8
 40
0.8
 40
1.0
 40
1.0
 40
1.0
 40
1.0
 10
64.6057
 20
4.6939
 30
0.0
 10
62.5419
 20
6.228
 30
0.0
 10
58.9064
 20
7.1998
 30
0.0
 10
55.1197
 20
6.9262
 30
0.0
 10
55.1197
 20
6.9262
 30
0.0
 10
62.2026
 20
-1.9694
 30
0.0
 10
82.9987
 20
-28.5303
 30
0.0
 10
90.5847
 20
-38.5144
 30
0.0
 10
90.5847
 20
-38.5144
 30
0.0
 10
89.6929
 20
-32.8101
 30
0.0
 10
80.802
 20
-25.9715
 30
0.0
 10
89.0325
 20
-15.7234
 30
0.0
 10
89.0325
 20
-15.7234
 30
0.0
 10
82.7984
 20
-21.4738
 30
0.0
 10
78.3089
 20
-16.5971
 30
0.0
 10
78.8008
 20
-12.7978
 30
0.0
 10
78.8008
 20
-12.7978
 30
0.0
 10
82.3575
 20
-14.0188
 30
0.0
 10
86.4702
 20
-12.2993
 30
0.0
 10
85.9327
 20
-6.4199
 30
0.0
 10
85.9327
 20
-6.4199
 30
0.0
 10
85.495
 20
-1.6315
 30
0.0
 10
77.0421
 20
0.1892
 30
0.0
 10
77.2171
 20
-7.1362
 30
0.0
 10
77.2171
 20
-7.1362
 30
0.0
 10
72.8441
 20
-6.9524
 30
0.0
 10
70.5673
 20
-0.7416
 30
0.0
 10
75.1505
 20
2.5973
 30
0.0
 10
75.1505
 20
2.5973
 30
0.0
 10
76.0353
 20
3.2399
 30
0.0
 10
75.4636
 20
4.4034
 30
0.0
 10
74.349
 20
3.6086
 30
0.0
 10
74.349
 20
3.6086
 30
0.0
 10
70.5262
 20
0.1649
 30
0.0
 10
67.6774
 20
2.2302
 30
0.0
 10
64.6057
 20
4.6939
 30
0.0
  0
SPLINE
  5
5F
330
1F
100
AcDbEntity
  8
layer 1
 62
     7
100
AcDbSpline
210
0.0
220
0.0
230
1.0
 70
    11
 71
     3
 72
    24
 73
    20
 74
     0
 42
0.0000000001
 43
0.0000000001
 12
1.0
 22
0.0
 32
0.0
 13
1.0
 23
0.0
 33
0.0
 40
0.0
 40
0.0
 40
0.0
 40
0.0
 40
0.1666666666666667
 40
0.1666666666666667
 40
0.1666666666666667
 40
0.1666666666666667
 40
0.3333333333333333
 40
0.3333333333333333
 40
0.3333333333333333
 40
0.3333333333333333
 40
0.5
 40
0.5
 40
0.5
 40
0.5
 40
0.6666666666666666
 40
0.6666666666666666
 40
0.6666666666666666
 40
0.6666666666666666
 40
1.0
 40
1.0
 40
1.0
 40
1.0
 10
7.1973
 20
120.4807
 30
0.0
 10
7.1973
 20
122.2609
 30
0.0
 10
6.4122
 20
123.8571
 30
0.0
 10
5.168
 20
124.9421
 30
0.0
 10
5.168
 20
124.9421
 30
0.0
 10
5.168
 20
124.9421
 30
0.0
 10
-3.1653
 20
124.9619
 30
0.0
 10
-3.1653
 20
124.9619
 30
0.0
 10
-3.1653
 20
124.9619
 30
0.0
 10
-3.1653
 20
124.9619
 30
0.0
 10
-3.1359
 20
116.5468
 30
0.0
 10
-3.1359
 20
116.5468
 30
0.0
 10
-3.1359
 20
116.5468
 30
0.0
 10
-2.0525
 20
115.3303
 30
0.0
 10
-0.4738
 20
114.5649
 30
0.0
 10
1.2819
 20
114.5649
 30
0.0
 10
1.2819
 20
114.5649
 30
0.0
 10
4.5487
 20
114.5649
 30
0.0
 10
7.1974
 20
117.2135
 30
0.0
 10
7.1973
 20
120.4807
 30
0.0
  0
SPLINE
  5
60
330
1F
100
AcDbEntity
  8
layer 1
 62
     7
100
AcDbSpline
210
0.0
220
0.0
230
1.0
 70
    11
 71
     3
 72
    16
 73
    12
 74
     0
 42
0.0000000001
 43
0.0000000001
 12
1.0
 22
0.0
 32
0.0
 13
1.0
 23
0.0
 33
0.0
 40
0.0
 40
0.0
 40
0.0
 40
0.0
 40
0.25
 40
0.25
 40
0.25
 40
0.25
 40
0.5
 40
0.5
 40
0.5
 40
0.5
 40
1.0
 40
1.0
 40
1.0
 40
1.0
 10
-3.1653
 20
111.6535
 30
0.0
 10
-3.1653
 20
111.6535
 30
0.0
 10
-3.1359
 20
94.4146
 30
0.0
 10
-3.1359
 20
94.4146
 30
0.0
 10
-3.1359
 20
94.4146
 30
0.0
 10
-1.3525
 20
96.0965
 30
0.0
 10
3.4535
 20
103.5531
 30
0.0
 10
0.0835
 20
110.9439
 30
0.0
 10
0.0835
 20
110.9439
 30
0.0
 10
-1.59
 20
111.2143
 30
0.0
 10
-2.0671
 20
111.3979
 30
0.0
 10
-3.1653
 20
111.6535
 30
0.0
  0
SPLINE
  5
61
330
1F
100
AcDbEntity
  8
layer 1
 62
     7
100
AcDbSpline
210
0.0
220
0.0
230
1.0
 70
    11
 71
     3
 72
    16
 73
    12
 74
     0
 42
0.0000000001
 43
0.0000000001
 12
1.0
 22
0.0
 32
0.0
 13
1.0
 23
0.0
 33
0.0
 40
0.0
 40
0.0
 40
0.0
 40
0.0
 40
0.25
 40
0.25
 40
0.25
 40
0.25
 40
0.5
 40
0.5
 40
0.5
 40
0.5
 40
1.0
 40
1.0
 40
1.0
 40
1.0
 10
1.762
 20
111.054
 30
0.0
 10
3.811
 20
108.1855
 30
0.0
 10
5.6943
 20
97.3699
 30
0.0
 10
1.0587
 20
92.9509
 30
0.0
 10
1.0587
 20
92.9509
 30
0.0
 10
2.0506
 20
92.6265
 30
0.0
 10
15.0393
 20
89.8363
 30
0.0
 10
4.3779
 20
111.6766
 30
0.0
 10
4.3779
 20
111.6766
 30
0.0
 10
3.1371
 20
111.1799
 30
0.0
 10
2.6112
 20
111.1604
 30
0.0
 10
1.762
 20
111.054
 30
0.0
  0
SPLINE
  5
62
330
1F
100
AcDbEntity
  8
layer 1
 62
     7
100
AcDbSpline
210
0.0
220
0.0
230
1.0
 70
    11
 71
     3
 72
    24
 73
    20
 74
     0
 42
0.0000000001
 43
0.0000000001
 12
1.0
 22
0.0
 32
0.0
 13
1.0
 23
0.0
 33
0.0
 40
0.0
 40
0.0
 40
0.0
 40
0.0
 40
0.1666666666666667
 40
0.1666666666666667
 40
0.1666666666666667
 40
0.1666666666666667
 40
0.3333333333333333
 40
0.3333333333333333
 40
0.3333333333333333
 40
0.3333333333333333
 40
0.5
 40
0.5
 40
0.5
 40
0.5
 40
0.6666666666666666
 40
0.6666666666666666
 40
0.6666666666666666
 40
0.6666666666666666
 40
1.0
 40
1.0
 40
1.0
 40
1.0
 10
6.6564
 20
112.9846
 30
0.0
 10
9.9022
 20
108.9542
 30
0.0
 10
12.5639
 20
100.8616
 30
0.0
 10
17.6586
 20
97.0275
 30
0.0
 10
17.6586
 20
97.0275
 30
0.0
 10
20.1221
 20
95.1738
 30
0.0
 10
23.4842
 20
95.5193
 30
0.0
 10
25.2299
 20
97.3456
 30
0.0
 10
25.2299
 20
97.3456
 30
0.0
 10
26.5835
 20
98.6339
 30
0.0
 10
26.759
 20
102.2958
 30
0.0
 10
24.5413
 20
104.671
 30
0.0
 10
24.5413
 20
104.671
 30
0.0
 10
20.614
 20
108.8787
 30
0.0
 10
12.6952
 20
112.1255
 30
0.0
 10
8.8725
 20
115.1058
 30
0.0
 10
8.8725
 20
115.1058
 30
0.0
 10
8.3974
 20
114.5762
 30
0.0
 10
7.5713
 20
113.4894
 30
0.0
 10
6.6564
 20
112.9846
 30
0.0
  0
SPLINE
  5
63
330
1F
100
AcDbEntity
  8
layer 1
 62
     7
100
AcDbSpline
210
0.0
220
0.0
230
1.0
 70
    11
 71
     3
 72
    16
 73
    12
 74
     0
 42
0.0000000001
 43
0.0000000001
 12
1.0
 22
0.0
 32
0.0
 13
1.0
 23
0.0
 33
0.0
 40
0.0
 40
0.0
 40
0.0
 40
0.0
 40
0.25
 40
0.25
 40
0.25
 40
0.25
 40
0.5
 40
0.5
 40
0.5
 40
0.5
 40
1.0
 40
1.0
 40
1.0
 40
1.0
 10
10.112
 20
124.9522
 30
0.0
 10
10.112
 20
124.9522
 30
0.0
 10
27.351
 20
124.9225
 30
0.0
 10
27.351
 20
124.9225
 30
0.0
 10
27.351
 20
124.9225
 30
0.0
 10
25.6692
 20
123.1409
 30
0.0
 10
18.2125
 20
118.3331
 30
0.0
 10
10.8217
 20
121.7035
 30
0.0
 10
10.8217
 20
121.7035
 30
0.0
 10
10.5509
 20
123.3788
 30
0.0
 10
10.3676
 20
123.8553
 30
0.0
 10
10.112
 20
124.9522
 30
0.0
  0
SPLINE
  5
64
330
1F
100
AcDbEntity
  8
layer 1
 62
     7
100
AcDbSpline
210
0.0
220
0.0
230
1.0
 70
    11
 71
     3
 72
    16
 73
    12
 74
     0
 42
0.0000000001
 43
0.0000000001
 12
1.0
 22
0.0
 32
0.0
 13
1.0
 23
0.0
 33
0.0
 40
0.0
 40
0.0
 40
0.0
 40
0.0
 40
0.25
 40
0.25
 40
0.25
 40
0.25
 40
0.5
 40
0.5
 40
0.5
 40
0.5
 40
1.0
 40
1.0
 40
1.0
 40
1.0
 10
10.6756
 20
120.1314
 30
0.0
 10
13.5458
 20
118.0828
 30
0.0
 10
24.3596
 20
116.1989
 30
0.0
 10
28.7803
 20
120.8345
 30
0.0
 10
28.7803
 20
120.8345
 30
0.0
 10
29.1047
 20
119.8429
 30
0.0
 10
31.8931
 20
106.8543
 30
0.0
 10
10.0546
 20
117.5152
 30
0.0
 10
10.0546
 20
117.5152
 30
0.0
 10
10.5493
 20
118.7562
 30
0.0
 10
10.5707
 20
119.2823
 30
0.0
 10
10.6756
 20
120.1314
 30
0.0
  0
SPLINE
  5
65
330
1F
100
AcDbEntity
  8
layer 1
 62
     7
100
AcDbSpline
210
0.0
220
0.0
230
1.0
 70
    11
 71
     3
 72
    20
 73
    16
 74
     0
 42
0.0000000001
 43
0.0000000001
 12
1.0
 22
0.0
 32
0.0
 13
1.0
 23
0.0
 33
0.0
 40
0.0
 40
0.0
 40
0.0
 40
0.0
 40
0.2
 40
0.2
 40
0.2
 40
0.2
 40
0.4
 40
0.4
 40
0.4
 40
0.4
 40
0.6
 40
0.6
 40
0.6
 40
0.6
 40
1.0
 40
1.0
 40
1.0
 40
1.0
 10
-3.1653
 20
41.6795
 30
0.0
 10
-3.1653
 20
41.6795
 30
0.0
 10
-3.1359
 20
16.5877
 30
0.0
 10
-3.1359
 20
16.5877
 30
0.0
 10
-3.1359
 20
16.5877
 30
0.0
 10
-2.0738
 20
20.2544
 30
0.0
 10
2.2651
 20
30.3693
 30
0.0
 10
11.6333
 20
36.4132
 30
0.0
 10
11.6333
 20
36.4132
 30
0.0
 10
8.6497
 20
36.9739
 30
0.0
 10
6.3502
 20
37.1735
 30
0.0
 10
5.4551
 20
41.478
 30
0.0
 10
5.4551
 20
41.478
 30
0.0
 10
2.362
 20
38.2507
 30
0.0
 10
-1.1049
 20
41.4256
 30
0.0
 10
-3.1653
 20
41.6795
 30
0.0
  0
SPLINE
  5
66
330
1F
100
AcDbEntity
  8
layer 1
 62
     7
100
AcDbSpline
210
0.0
220
0.0
230
1.0
 70
    11
 71
     3
 72
    28
 73
    24
 74
     0
 42
0.0000000001
 43
0.0000000001
 12
1.0
 22
0.0
 32
0.0
 13
1.0
 23
0.0
 33
0.0
 40
0.0
 40
0.0
 40
0.0
 40
0.0
 40
0.1428571428571428
 40
0.1428571428571428
 40
0.1428571428571428
 40
0.1428571428571428
 40
0.2857142857142857
 40
0.2857142857142857
 40
0.2857142857142857
 40
0.2857142857142857
 40
0.4285714285714285
 40
0.4285714285714285
 40
0.4285714285714285
 40
0.4285714285714285
 40
0.5714285714285714
 40
0.5714285714285714
 40
0.5714285714285714
 40
0.5714285714285714
 40
0.7142857142857143
 40
0.7142857142857143
 40
0.7142857142857143
 40
0.7142857142857143
 40
1.0
 40
1.0
 40
1.0
 40
1.0
 10
-3.1653
 20
66.5602
 30
0.0
 10
-3.1653
 20
66.5602
 30
0.0
 10
-3.1359
 20
42.9372
 30
0.0
 10
-3.1359
 20
42.9372
 30
0.0
 10
-3.1359
 20
42.9372
 30
0.0
 10
0.4607
 20
43.2599
 30
0.0
 10
-0.2182
 20
49.928
 30
0.0
 10
5.7044
 20
49.3855
 30
0.0
 10
5.7044
 20
49.3855
 30
0.0
 10
3.5013
 20
51.9377
 30
0.0
 10
5.1962
 20
52.6195
 30
0.0
 10
4.1962
 20
55.0357
 30
0.0
 10
4.1962
 20
55.0357
 30
0.0
 10
3.8471
 20
55.8779
 30
0.0
 10
1.9243
 20
56.0848
 30
0.0
 10
0.3886
 20
56.2732
 30
0.0
 10
0.3886
 20
56.2732
 30
0.0
 10
0.3705
 20
60.3217
 30
0.0
 10
0.4276
 20
62.1005
 30
0.0
 10
0.2983
 20
66.536
 30
0.0
 10
0.2983
 20
66.536
 30
0.0
 10
-0.1901
 20
64.687
 30
0.0
 10
-3.1409
 20
65.364
 30
0.0
 10
-3.1653
 20
66.5602
 30
0.0
  0
SPLINE
  5
67
330
1F
100
AcDbEntity
  8
layer 1
 62
     7
100
AcDbSpline
210
0.0
220
0.0
230
1.0
 70
    11
 71
     3
 72
    52
 73
    48
 74
     0
 42
0.0000000001
 43
0.0000000001
 12
1.0
 22
0.0
 32
0.0
 13
1.0
 23
0.0
 33
0.0
 40
0.0
 40
0.0
 40
0.0
 40
0.0
 40
0.0769230769230769
 40
0.0769230769230769
 40
0.0769230769230769
 40
0.0769230769230769
 40
0.1538461538461539
 40
0.1538461538461539
 40
0.1538461538461539
 40
0.1538461538461539
 40
0.2307692307692308
 40
0.2307692307692308
 40
0.2307692307692308
 40
0.2307692307692308
 40
0.3076923076923077
 40
0.3076923076923077
 40
0.3076923076923077
 40
0.3076923076923077
 40
0.3846153846153846
 40
0.3846153846153846
 40
0.3846153846153846
 40
0.3846153846153846
 40
0.4615384615384616
 40
0.4615384615384616
 40
0.4615384615384616
 40
0.4615384615384616
 40
0.5384615384615384
 40
0.5384615384615384
 40
0.5384615384615384
 40
0.5384615384615384
 40
0.6153846153846154
 40
0.6153846153846154
 40
0.6153846153846154
 40
0.6153846153846154
 40
0.6923076923076923
 40
0.6923076923076923
 40
0.6923076923076923
 40
0.6923076923076923
 40
0.7692307692307693
 40
0.7692307692307693
 40
0.7692307692307693
 40
0.7692307692307693
 40
0.8461538461538461
 40
0.8461538461538461
 40
0.8461538461538461
 40
0.8461538461538461
 40
1.0
 40
1.0
 40
1.0
 40
1.0
 10
-3.1653
 20
69.7339
 30
0.0
 10
-3.1653
 20
69.7339
 30
0.0
 10
-3.1359
 20
90.3086
 30
0.0
 10
-3.1359
 20
90.3086
 30
0.0
 10
-3.1359
 20
90.3086
 30
0.0
 10
1.2621
 20
87.0995
 30
0.0
 10
10.956
 20
86.7924
 30
0.0
 10
12.3869
 20
94.9277
 30
0.0
 10
12.3869
 20
94.9277
 30
0.0
 10
15.0376
 20
91.9413
 30
0.0
 10
19.8158
 20
86.2566
 30
0.0
 10
27.2869
 20
89.5956
 30
0.0
 10
27.2869
 20
89.5956
 30
0.0
 10
27.6015
 20
87.9483
 30
0.0
 10
29.262
 20
86.1991
 30
0.0
 10
31.985
 20
86.9926
 30
0.0
 10
31.985
 20
86.9926
 30
0.0
 10
31.5305
 20
85.678
 30
0.0
 10
33.1993
 20
83.1896
 30
0.0
 10
35.6106
 20
83.48
 30
0.0
 10
35.6106
 20
83.48
 30
0.0
 10
33.655
 20
80.8833
 30
0.0
 10
25.7623
 20
79.5133
 30
0.0
 10
22.3202
 20
80.4801
 30
0.0
 10
22.3202
 20
80.4801
 30
0.0
 10
22.3202
 20
80.4801
 30
0.0
 10
22.1745
 20
76.0773
 30
0.0
 10
22.1745
 20
76.0773
 30
0.0
 10
22.1745
 20
76.0773
 30
0.0
 10
21.4548
 20
77.2805
 30
0.0
 10
19.7403
 20
77.0413
 30
0.0
 10
19.0388
 20
75.8709
 30
0.0
 10
19.0388
 20
75.8709
 30
0.0
 10
19.0388
 20
75.8709
 30
0.0
 10
19.0059
 20
87.5122
 30
0.0
 10
19.0059
 20
87.5122
 30
0.0
 10
19.0059
 20
87.5122
 30
0.0
 10
13.8148
 20
81.8112
 30
0.0
 10
3.1534
 20
82.0817
 30
0.0
 10
0.3886
 20
83.1207
 30
0.0
 10
0.3886
 20
83.1207
 30
0.0
 10
0.3705
 20
79.0741
 30
0.0
 10
0.4276
 20
74.1941
 30
0.0
 10
0.2983
 20
69.7587
 30
0.0
 10
0.2983
 20
69.7587
 30
0.0
 10
-0.1901
 20
71.6075
 30
0.0
 10
-3.1409
 20
70.9302
 30
0.0
 10
-3.1653
 20
69.7339
 30
0.0
  0
SPLINE
  5
68
330
1F
100
AcDbEntity
  8
layer 1
 62
     7
100
AcDbSpline
210
0.0
220
0.0
230
1.0
 70
    11
 71
     3
 72
    20
 73
    16
 74
     0
 42
0.0000000001
 43
0.0000000001
 12
1.0
 22
0.0
 32
0.0
 13
1.0
 23
0.0
 33
0.0
 40
0.0
 40
0.0
 40
0.0
 40
0.0
 40
0.2
 40
0.2
 40
0.2
 40
0.2
 40
0.4
 40
0.4
 40
0.4
 40
0.4
 40
0.6
 40
0.6
 40
0.6
 40
0.6
 40
1.0
 40
1.0
 40
1.0
 40
1.0
 10
22.1594
 20
68.5405
 30
0.0
 10
22.1594
 20
68.5405
 30
0.0
 10
22.1745
 20
72.3549
 30
0.0
 10
22.1745
 20
72.3549
 30
0.0
 10
22.1745
 20
72.3549
 30
0.0
 10
21.4548
 20
71.1518
 30
0.0
 10
19.7403
 20
71.391
 30
0.0
 10
19.0388
 20
72.5613
 30
0.0
 10
19.0388
 20
72.5613
 30
0.0
 10
19.0388
 20
72.5613
 30
0.0
 10
19.0059
 20
68.6719
 30
0.0
 10
19.0059
 20
68.6719
 30
0.0
 10
19.0059
 20
68.6719
 30
0.0
 10
20.4092
 20
68.8209
 30
0.0
 10
22.1595
 20
68.5405
 30
0.0
 10
22.1594
 20
68.5405
 30
0.0
  0
SPLINE
  5
69
330
1F
100
AcDbEntity
  8
layer 1
 62
     7
100
AcDbSpline
210
0.0
220
0.0
230
1.0
 70
    11
 71
     3
 72
    40
 73
    36
 74
     0
 42
0.0000000001
 43
0.0000000001
 12
1.0
 22
0.0
 32
0.0
 13
1.0
 23
0.0
 33
0.0
 40
0.0
 40
0.0
 40
0.0
 40
0.0
 40
0.1
 40
0.1
 40
0.1
 40
0.1
 40
0.2
 40
0.2
 40
0.2
 40
0.2
 40
0.3
 40
0.3
 40
0.3
 40
0.3
 40
0.4
 40
0.4
 40
0.4
 40
0.4
 40
0.5
 40
0.5
 40
0.5
 40
0.5
 40
0.6
 40
0.6
 40
0.6
 40
0.6
 40
0.7
 40
0.7
 40
0.7
 40
0.7
 40
0.8
 40
0.8
 40
0.8
 40
0.8
 40
1.0
 40
1.0
 40
1.0
 40
1.0
 10
4.2667
 20
63.2642
 30
0.0
 10
4.2667
 20
63.2642
 30
0.0
 10
4.296
 20
78.6545
 30
0.0
 10
4.296
 20
78.6545
 30
0.0
 10
4.296
 20
78.6545
 30
0.0
 10
9.6563
 20
78.1705
 30
0.0
 10
12.0788
 20
78.8263
 30
0.0
 10
15.221
 20
80.3327
 30
0.0
 10
15.221
 20
80.3327
 30
0.0
 10
15.221
 20
80.3327
 30
0.0
 10
15.1702
 20
70.25
 30
0.0
 10
15.1702
 20
70.25
 30
0.0
 10
15.1702
 20
70.25
 30
0.0
 10
14.1312
 20
70.1175
 30
0.0
 10
12.7901
 20
69.8241
 30
0.0
 10
11.5543
 20
69.0272
 30
0.0
 10
11.5543
 20
69.0272
 30
0.0
 10
11.5543
 20
69.0272
 30
0.0
 10
11.5199
 20
73.6662
 30
0.0
 10
11.5199
 20
73.6662
 30
0.0
 10
11.5199
 20
73.6662
 30
0.0
 10
10.6067
 20
73.6301
 30
0.0
 10
9.1415
 20
73.6334
 30
0.0
 10
7.8188
 20
73.8185
 30
0.0
 10
7.8188
 20
73.8185
 30
0.0
 10
7.8024
 20
69.7701
 30
0.0
 10
7.8595
 20
67.7243
 30
0.0
 10
7.7286
 20
63.2889
 30
0.0
 10
7.7286
 20
63.2889
 30
0.0
 10
5.9056
 20
62.1971
 30
0.0
 10
4.9864
 20
61.307
 30
0.0
 10
4.2667
 20
58.5598
 30
0.0
 10
4.2667
 20
58.5598
 30
0.0
 10
4.2667
 20
58.5598
 30
0.0
 10
4.2667
 20
63.2642
 30
0.0
 10
4.2667
 20
63.2642
 30
0.0
  0
SPLINE
  5
6A
330
1F
100
AcDbEntity
  8
layer 1
 62
     7
100
AcDbSpline
210
0.0
220
0.0
230
1.0
 70
    11
 71
     3
 72
    52
 73
    48
 74
     0
 42
0.0000000001
 43
0.0000000001
 12
1.0
 22
0.0
 32
0.0
 13
1.0
 23
0.0
 33
0.0
 40
0.0
 40
0.0
 40
0.0
 40
0.0
 40
0.0769230769230769
 40
0.0769230769230769
 40
0.0769230769230769
 40
0.0769230769230769
 40
0.1538461538461539
 40
0.1538461538461539
 40
0.1538461538461539
 40
0.1538461538461539
 40
0.2307692307692308
 40
0.2307692307692308
 40
0.2307692307692308
 40
0.2307692307692308
 40
0.3076923076923077
 40
0.3076923076923077
 40
0.3076923076923077
 40
0.3076923076923077
 40
0.3846153846153846
 40
0.3846153846153846
 40
0.3846153846153846
 40
0.3846153846153846
 40
0.4615384615384616
 40
0.4615384615384616
 40
0.4615384615384616
 40
0.4615384615384616
 40
0.5384615384615384
 40
0.5384615384615384
 40
0.5384615384615384
 40
0.5384615384615384
 40
0.6153846153846154
 40
0.6153846153846154
 40
0.6153846153846154
 40
0.6153846153846154
 40
0.6923076923076923
 40
0.6923076923076923
 40
0.6923076923076923
 40
0.6923076923076923
 40
0.7692307692307693
 40
0.7692307692307693
 40
0.7692307692307693
 40
0.7692307692307693
 40
0.8461538461538461
 40
0.8461538461538461
 40
0.8461538461538461
 40
0.8461538461538461
 40
1.0
 40
1.0
 40
1.0
 40
1.0
 10
52.6087
 20
125.0065
 30
0.0
 10
52.6087
 20
125.0065
 30
0.0
 10
32.0323
 20
124.9767
 30
0.0
 10
32.0323
 20
124.9767
 30
0.0
 10
32.0323
 20
124.9767
 30
0.0
 10
35.2416
 20
120.579
 30
0.0
 10
35.5485
 20
110.8848
 30
0.0
 10
27.4132
 20
109.4538
 30
0.0
 10
27.4132
 20
109.4538
 30
0.0
 10
30.4013
 20
106.8036
 30
0.0
 10
36.0843
 20
102.0252
 30
0.0
 10
32.7453
 20
94.5555
 30
0.0
 10
32.7453
 20
94.5555
 30
0.0
 10
34.3928
 20
94.2391
 30
0.0
 10
36.1418
 20
92.5787
 30
0.0
 10
35.3483
 20
89.8561
 30
0.0
 10
35.3483
 20
89.8561
 30
0.0
 10
36.6646
 20
90.3102
 30
0.0
 10
38.6201
 20
88.8415
 30
0.0
 10
38.3301
 20
86.4304
 30
0.0
 10
38.3301
 20
86.4304
 30
0.0
 10
41.1264
 20
89.5844
 30
0.0
 10
41.1819
 20
94.6852
 30
0.0
 10
40.4823
 20
99.1256
 30
0.0
 10
40.4823
 20
99.1256
 30
0.0
 10
40.4823
 20
99.1256
 30
0.0
 10
46.3306
 20
99.088
 30
0.0
 10
46.3306
 20
99.088
 30
0.0
 10
46.3306
 20
99.088
 30
0.0
 10
45.1275
 20
99.8076
 30
0.0
 10
45.2996
 20
102.1008
 30
0.0
 10
46.47
 20
102.8023
 30
0.0
 10
46.47
 20
102.8023
 30
0.0
 10
46.47
 20
102.8023
 30
0.0
 10
34.8287
 20
102.8368
 30
0.0
 10
34.8287
 20
102.8368
 30
0.0
 10
34.8287
 20
102.8368
 30
0.0
 10
40.5313
 20
108.0263
 30
0.0
 10
40.2608
 20
118.6872
 30
0.0
 10
39.2218
 20
121.4525
 30
0.0
 10
39.2218
 20
121.4525
 30
0.0
 10
43.2686
 20
121.4706
 30
0.0
 10
48.1484
 20
121.4131
 30
0.0
 10
52.5839
 20
121.5445
 30
0.0
 10
52.5839
 20
121.5445
 30
0.0
 10
50.735
 20
122.0312
 30
0.0
 10
51.4103
 20
124.9816
 30
0.0
 10
52.6087
 20
125.0065
 30
0.0
  0
SPLINE
  5
6B
330
1F
100
AcDbEntity
  8
layer 1
 62
     7
100
AcDbSpline
210
0.0
220
0.0
230
1.0
 70
    11
 71
     3
 72
    28
 73
    24
 74
     0
 42
0.0000000001
 43
0.0000000001
 12
1.0
 22
0.0
 32
0.0
 13
1.0
 23
0.0
 33
0.0
 40
0.0
 40
0.0
 40
0.0
 40
0.0
 40
0.1428571428571428
 40
0.1428571428571428
 40
0.1428571428571428
 40
0.1428571428571428
 40
0.2857142857142857
 40
0.2857142857142857
 40
0.2857142857142857
 40
0.2857142857142857
 40
0.4285714285714285
 40
0.4285714285714285
 40
0.4285714285714285
 40
0.4285714285714285
 40
0.5714285714285714
 40
0.5714285714285714
 40
0.5714285714285714
 40
0.5714285714285714
 40
0.7142857142857143
 40
0.7142857142857143
 40
0.7142857142857143
 40
0.7142857142857143
 40
1.0
 40
1.0
 40
1.0
 40
1.0
 10
22.2824
 20
65.1688
 30
0.0
 10
22.2824
 20
65.1688
 30
0.0
 10
22.253
 20
40.675
 30
0.0
 10
22.253
 20
40.675
 30
0.0
 10
22.253
 20
40.675
 30
0.0
 10
20.06
 20
40.2109
 30
0.0
 10
15.6473
 20
38.9964
 30
0.0
 10
13.8606
 20
37.6541
 30
0.0
 10
13.8606
 20
37.6541
 30
0.0
 10
14.6964
 20
39.1245
 30
0.0
 10
15.6096
 20
43.3236
 30
0.0
 10
13.0506
 20
45.7381
 30
0.0
 10
13.0506
 20
45.7381
 30
0.0
 10
18.4961
 20
43.3434
 30
0.0
 10
22.0449
 20
49.9771
 30
0.0
 10
21.0597
 20
52.8474
 30
0.0
 10
21.0597
 20
52.8474
 30
0.0
 10
16.9897
 20
49.1509
 30
0.0
 10
12.8346
 20
56.2043
 30
0.0
 10
7.807
 20
51.1261
 30
0.0
 10
7.807
 20
51.1261
 30
0.0
 10
5.8437
 20
67.0622
 30
0.0
 10
20.3568
 20
65.7131
 30
0.0
 10
22.2824
 20
65.1688
 30
0.0
  0
SPLINE
  5
6C
330
1F
100
AcDbEntity
  8
layer 1
 62
     7
100
AcDbSpline
210
0.0
220
0.0
230
1.0
 70
    11
 71
     3
 72
    56
 73
    52
 74
     0
 42
0.0000000001
 43
0.0000000001
 12
1.0
 22
0.0
 32
0.0
 13
1.0
 23
0.0
 33
0.0
 40
0.0
 40
0.0
 40
0.0
 40
0.0
 40
0.0714285714285714
 40
0.0714285714285714
 40
0.0714285714285714
 40
0.0714285714285714
 40
0.1428571428571428
 40
0.1428571428571428
 40
0.1428571428571428
 40
0.1428571428571428
 40
0.2142857142857143
 40
0.2142857142857143
 40
0.2142857142857143
 40
0.2142857142857143
 40
0.2857142857142857
 40
0.2857142857142857
 40
0.2857142857142857
 40
0.2857142857142857
 40
0.3571428571428572
 40
0.3571428571428572
 40
0.3571428571428572
 40
0.3571428571428572
 40
0.4285714285714285
 40
0.4285714285714285
 40
0.4285714285714285
 40
0.4285714285714285
 40
0.5
 40
0.5
 40
0.5
 40
0.5
 40
0.5714285714285714
 40
0.5714285714285714
 40
0.5714285714285714
 40
0.5714285714285714
 40
0.6428571428571429
 40
0.6428571428571429
 40
0.6428571428571429
 40
0.6428571428571429
 40
0.7142857142857143
 40
0.7142857142857143
 40
0.7142857142857143
 40
0.7142857142857143
 40
0.7857142857142857
 40
0.7857142857142857
 40
0.7857142857142857
 40
0.7857142857142857
 40
0.8571428571428571
 40
0.8571428571428571
 40
0.8571428571428571
 40
0.8571428571428571
 40
1.0
 40
1.0
 40
1.0
 40
1.0
 10
41.9556
 20
106.3333
 30
0.0
 10
42.4965
 20
107.6265
 30
0.0
 10
44.3262
 20
109.8915
 30
0.0
 10
43.7491
 20
117.6315
 30
0.0
 10
43.7491
 20
117.6315
 30
0.0
 10
43.7491
 20
117.6315
 30
0.0
 10
63.4336
 20
117.6303
 30
0.0
 10
63.4336
 20
117.6303
 30
0.0
 10
63.4336
 20
117.6303
 30
0.0
 10
63.5189
 20
116.9693
 30
0.0
 10
64.6989
 20
113.4403
 30
0.0
 10
66.8414
 20
111.875
 30
0.0
 10
66.8414
 20
111.875
 30
0.0
 10
64.4697
 20
108.349
 30
0.0
 10
62.7598
 20
105.3528
 30
0.0
 10
60.603
 20
98.8798
 30
0.0
 10
60.603
 20
98.8798
 30
0.0
 10
56.0655
 20
98.9273
 30
0.0
 10
54.2511
 20
98.8977
 30
0.0
 10
49.4599
 20
98.9074
 30
0.0
 10
49.4599
 20
98.9074
 30
0.0
 10
51.1495
 20
99.4997
 30
0.0
 10
51.0074
 20
102.4268
 30
0.0
 10
49.4451
 20
102.9728
 30
0.0
 10
49.4451
 20
102.9728
 30
0.0
 10
51.9302
 20
102.9792
 30
0.0
 10
55.3097
 20
102.8397
 30
0.0
 10
55.1151
 20
102.9169
 30
0.0
 10
55.1151
 20
102.9169
 30
0.0
 10
55.5099
 20
106.9361
 30
0.0
 10
57.5968
 20
111.8797
 30
0.0
 10
60.3717
 20
113.9157
 30
0.0
 10
60.3717
 20
113.9157
 30
0.0
 10
60.3717
 20
113.9157
 30
0.0
 10
48.7418
 20
113.9794
 30
0.0
 10
48.7418
 20
113.9794
 30
0.0
 10
48.7418
 20
113.9794
 30
0.0
 10
48.7763
 20
113.067
 30
0.0
 10
48.7238
 20
111.8961
 30
0.0
 10
48.6386
 20
110.4274
 30
0.0
 10
48.6386
 20
110.4274
 30
0.0
 10
50.1744
 20
110.3603
 30
0.0
 10
51.5793
 20
110.4177
 30
0.0
 10
53.4051
 20
110.2868
 30
0.0
 10
53.4051
 20
110.2868
 30
0.0
 10
52.9216
 20
109.2526
 30
0.0
 10
52.2856
 20
107.6427
 30
0.0
 10
52.1269
 20
106.4313
 30
0.0
 10
52.1269
 20
106.4313
 30
0.0
 10
52.1269
 20
106.4313
 30
0.0
 10
41.9556
 20
106.3333
 30
0.0
 10
41.9556
 20
106.3333
 30
0.0
  0
SPLINE
  5
6D
330
1F
100
AcDbEntity
  8
layer 1
 62
     7
100
AcDbSpline
210
0.0
220
0.0
230
1.0
 70
    11
 71
     3
 72
    24
 73
    20
 74
     0
 42
0.0000000001
 43
0.0000000001
 12
1.0
 22
0.0
 32
0.0
 13
1.0
 23
0.0
 33
0.0
 40
0.0
 40
0.0
 40
0.0
 40
0.0
 40
0.1666666666666667
 40
0.1666666666666667
 40
0.1666666666666667
 40
0.1666666666666667
 40
0.3333333333333333
 40
0.3333333333333333
 40
0.3333333333333333
 40
0.3333333333333333
 40
0.5
 40
0.5
 40
0.5
 40
0.5
 40
0.6666666666666666
 40
0.6666666666666666
 40
0.6666666666666666
 40
0.6666666666666666
 40
1.0
 40
1.0
 40
1.0
 40
1.0
 10
55.546
 20
125.0065
 30
0.0
 10
55.546
 20
125.0065
 30
0.0
 10
87.6439
 20
124.9767
 30
0.0
 10
87.6439
 20
124.9767
 30
0.0
 10
87.6439
 20
124.9767
 30
0.0
 10
74.8193
 20
121.3528
 30
0.0
 10
72.6734
 20
117.7939
 30
0.0
 10
68.992
 20
114.5565
 30
0.0
 10
68.992
 20
114.5565
 30
0.0
 10
66.9334
 20
116.5943
 30
0.0
 10
66.2188
 20
119.0821
 30
0.0
 10
65.7811
 20
121.4525
 30
0.0
 10
65.7811
 20
121.4525
 30
0.0
 10
61.7338
 20
121.4706
 30
0.0
 10
60.0062
 20
121.4131
 30
0.0
 10
55.5708
 20
121.5445
 30
0.0
 10
55.5708
 20
121.5445
 30
0.0
 10
57.4195
 20
122.0312
 30
0.0
 10
56.7428
 20
124.9816
 30
0.0
 10
55.546
 20
125.0065
 30
0.0
  0
SPLINE
  5
6E
330
1F
100
AcDbEntity
  8
layer 1
 62
     7
100
AcDbSpline
210
0.0
220
0.0
230
1.0
 70
    11
 71
     3
 72
    32
 73
    28
 74
     0
 42
0.0000000001
 43
0.0000000001
 12
1.0
 22
0.0
 32
0.0
 13
1.0
 23
0.0
 33
0.0
 40
0.0
 40
0.0
 40
0.0
 40
0.0
 40
0.125
 40
0.125
 40
0.125
 40
0.125
 40
0.25
 40
0.25
 40
0.25
 40
0.25
 40
0.375
 40
0.375
 40
0.375
 40
0.375
 40
0.5
 40
0.5
 40
0.5
 40
0.5
 40
0.625
 40
0.625
 40
0.625
 40
0.625
 40
0.75
 40
0.75
 40
0.75
 40
0.75
 40
1.0
 40
1.0
 40
1.0
 40
1.0
 10
68.9492
 20
90.3318
 30
0.0
 10
67.8347
 20
90.3939
 30
0.0
 10
67.3496
 20
90.3021
 30
0.0
 10
66.4759
 20
90.3021
 30
0.0
 10
66.4759
 20
90.3021
 30
0.0
 10
70.2622
 20
89.0446
 30
0.0
 10
73.2295
 20
86.7698
 30
0.0
 10
74.4963
 20
82.5077
 30
0.0
 10
74.4963
 20
82.5077
 30
0.0
 10
75.732
 20
86.0909
 30
0.0
 10
79.4533
 20
85.1404
 30
0.0
 10
80.1499
 20
84.1652
 30
0.0
 10
80.1499
 20
84.1652
 30
0.0
 10
80.7495
 20
83.3245
 30
0.0
 10
81.7578
 20
80.0965
 30
0.0
 10
78.0895
 20
79.9588
 30
0.0
 10
78.0895
 20
79.9588
 30
0.0
 10
82.6641
 20
73.8596
 30
0.0
 10
90.6287
 20
82.1438
 30
0.0
 10
80.8662
 20
90.956
 30
0.0
 10
80.8662
 20
90.956
 30
0.0
 10
71.5457
 20
98.0141
 30
0.0
 10
74.2323
 20
107.5869
 30
0.0
 10
74.2323
 20
107.5869
 30
0.0
 10
74.2323
 20
107.5869
 30
0.0
 10
72.2424
 20
106.8431
 30
0.0
 10
68.0378
 20
95.8228
 30
0.0
 10
68.9492
 20
90.3318
 30
0.0
  0
SPLINE
  5
6F
330
1F
100
AcDbEntity
  8
layer 1
 62
     7
100
AcDbSpline
210
0.0
220
0.0
230
1.0
 70
    11
 71
     3
 72
    16
 73
    12
 74
     0
 42
0.0000000001
 43
0.0000000001
 12
1.0
 22
0.0
 32
0.0
 13
1.0
 23
0.0
 33
0.0
 40
0.0
 40
0.0
 40
0.0
 40
0.0
 40
0.25
 40
0.25
 40
0.25
 40
0.25
 40
0.5
 40
0.5
 40
0.5
 40
0.5
 40
1.0
 40
1.0
 40
1.0
 40
1.0
 10
38.1841
 20
55.0257
 30
0.0
 10
35.4926
 20
57.6698
 30
0.0
 10
33.4125
 20
60.2268
 30
0.0
 10
30.9011
 20
61.7267
 30
0.0
 10
30.9011
 20
61.7267
 30
0.0
 10
30.9011
 20
61.7267
 30
0.0
 10
30.8666
 20
53.6178
 30
0.0
 10
30.8666
 20
53.6178
 30
0.0
 10
30.8666
 20
53.6178
 30
0.0
 10
34.0385
 20
57.1876
 30
0.0
 10
38.1841
 20
55.0257
 30
0.0
 10
38.1841
 20
55.0257
 30
0.0
  0
SPLINE
  5
70
330
1F
100
AcDbEntity
  8
layer 1
 62
     7
100
AcDbSpline
210
0.0
220
0.0
230
1.0
 70
    11
 71
     3
 72
    32
 73
    28
 74
     0
 42
0.0000000001
 43
0.0000000001
 12
1.0
 22
0.0
 32
0.0
 13
1.0
 23
0.0
 33
0.0
 40
0.0
 40
0.0
 40
0.0
 40
0.0
 40
0.125
 40
0.125
 40
0.125
 40
0.125
 40
0.25
 40
0.25
 40
0.25
 40
0.25
 40
0.375
 40
0.375
 40
0.375
 40
0.375
 40
0.5
 40
0.5
 40
0.5
 40
0.5
 40
0.625
 40
0.625
 40
0.625
 40
0.625
 40
0.75
 40
0.75
 40
0.75
 40
0.75
 40
1.0
 40
1.0
 40
1.0
 40
1.0
 10
48.391
 20
58.8468
 30
0.0
 10
47.9127
 20
72.0729
 30
0.0
 10
44.3047
 20
84.5713
 30
0.0
 10
58.6571
 20
90.1562
 30
0.0
 10
58.6571
 20
90.1562
 30
0.0
 10
55.9312
 20
90.1922
 30
0.0
 10
52.6003
 20
90.0907
 30
0.0
 10
48.9273
 20
90.2153
 30
0.0
 10
48.9273
 20
90.2153
 30
0.0
 10
48.3893
 20
81.7525
 30
0.0
 10
40.8722
 20
73.8693
 30
0.0
 10
30.9011
 20
72.2764
 30
0.0
 10
30.9011
 20
72.2764
 30
0.0
 10
30.9011
 20
72.2764
 30
0.0
 10
30.8666
 20
65.3081
 30
0.0
 10
30.8666
 20
65.3081
 30
0.0
 10
30.8666
 20
65.3081
 30
0.0
 10
33.7306
 20
63.597
 30
0.0
 10
38.0216
 20
60.5479
 30
0.0
 10
38.9088
 20
57.3256
 30
0.0
 10
38.9088
 20
57.3256
 30
0.0
 10
38.3414
 20
60.4972
 30
0.0
 10
41.782
 20
66.3114
 30
0.0
 10
40.5952
 20
69.1225
 30
0.0
 10
40.5952
 20
69.1225
 30
0.0
 10
48.9861
 20
66.6472
 30
0.0
 10
48.391
 20
58.8468
 30
0.0
 10
48.391
 20
58.8468
 30
0.0
  0
SPLINE
  5
71
330
1F
100
AcDbEntity
  8
layer 1
 62
     7
100
AcDbSpline
210
0.0
220
0.0
230
1.0
 70
    11
 71
     3
 72
    48
 73
    44
 74
     0
 42
0.0000000001
 43
0.0000000001
 12
1.0
 22
0.0
 32
0.0
 13
1.0
 23
0.0
 33
0.0
 40
0.0
 40
0.0
 40
0.0
 40
0.0
 40
0.0833333333333333
 40
0.0833333333333333
 40
0.0833333333333333
 40
0.0833333333333333
 40
0.1666666666666667
 40
0.1666666666666667
 40
0.1666666666666667
 40
0.1666666666666667
 40
0.25
 40
0.25
 40
0.25
 40
0.25
 40
0.3333333333333333
 40
0.3333333333333333
 40
0.3333333333333333
 40
0.3333333333333333
 40
0.4166666666666667
 40
0.4166666666666667
 40
0.4166666666666667
 40
0.4166666666666667
 40
0.5
 40
0.5
 40
0.5
 40
0.5
 40
0.5833333333333334
 40
0.5833333333333334
 40
0.5833333333333334
 40
0.5833333333333334
 40
0.6666666666666666
 40
0.6666666666666666
 40
0.6666666666666666
 40
0.6666666666666666
 40
0.75
 40
0.75
 40
0.75
 40
0.75
 40
0.8333333333333334
 40
0.8333333333333334
 40
0.8333333333333334
 40
0.8333333333333334
 40
1.0
 40
1.0
 40
1.0
 40
1.0
 10
37.9562
 20
38.4884
 30
0.0
 10
37.3447
 20
39.934
 30
0.0
 10
35.9844
 20
42.2795
 30
0.0
 10
33.3437
 20
41.5142
 30
0.0
 10
33.3437
 20
41.5142
 30
0.0
 10
33.0697
 20
41.7929
 30
0.0
 10
34.3991
 20
46.0923
 30
0.0
 10
39.2924
 20
43.2451
 30
0.0
 10
39.2924
 20
43.2451
 30
0.0
 10
39.6905
 20
43.7088
 30
0.0
 10
40.6787
 20
49.3443
 30
0.0
 10
37.4351
 20
51.187
 30
0.0
 10
37.4351
 20
51.187
 30
0.0
 10
32.4058
 20
54.0421
 30
0.0
 10
30.4081
 20
46.4859
 30
0.0
 10
36.2761
 20
45.9857
 30
0.0
 10
36.2761
 20
45.9857
 30
0.0
 10
35.1107
 20
43.5876
 30
0.0
 10
31.7538
 20
45.1926
 30
0.0
 10
30.9011
 20
45.702
 30
0.0
 10
30.9011
 20
45.702
 30
0.0
 10
30.9011
 20
45.702
 30
0.0
 10
30.8666
 20
33.0315
 30
0.0
 10
30.8666
 20
33.0315
 30
0.0
 10
30.8666
 20
33.0315
 30
0.0
 10
16.7059
 20
32.499
 30
0.0
 10
10.6643
 20
24.3604
 30
0.0
 10
9.7101
 20
22.9882
 30
0.0
 10
9.7101
 20
22.9882
 30
0.0
 10
16.5306
 20
27.973
 30
0.0
 10
21.64
 20
28.3174
 30
0.0
 10
26.051
 20
29.4387
 30
0.0
 10
26.051
 20
29.4387
 30
0.0
 10
30.2541
 20
30.5057
 30
0.0
 10
33.1486
 20
32.2921
 30
0.0
 10
33.1175
 20
36.6738
 30
0.0
 10
33.1175
 20
36.6738
 30
0.0
 10
34.2535
 20
36.1409
 30
0.0
 10
35.4482
 20
32.1889
 30
0.0
 10
33.3979
 20
29.6203
 30
0.0
 10
33.3979
 20
29.6203
 30
0.0
 10
39.6775
 20
32.23
 30
0.0
 10
37.9562
 20
38.4883
 30
0.0
 10
37.9562
 20
38.4884
 30
0.0
  0
SPLINE
  5
72
330
1F
100
AcDbEntity
  8
layer 1
 62
     7
100
AcDbSpline
210
0.0
220
0.0
230
1.0
 70
    11
 71
     3
 72
    24
 73
    20
 74
     0
 42
0.0000000001
 43
0.0000000001
 12
1.0
 22
0.0
 32
0.0
 13
1.0
 23
0.0
 33
0.0
 40
0.0
 40
0.0
 40
0.0
 40
0.0
 40
0.1666666666666667
 40
0.1666666666666667
 40
0.1666666666666667
 40
0.1666666666666667
 40
0.3333333333333333
 40
0.3333333333333333
 40
0.3333333333333333
 40
0.3333333333333333
 40
0.5
 40
0.5
 40
0.5
 40
0.5
 40
0.6666666666666666
 40
0.6666666666666666
 40
0.6666666666666666
 40
0.6666666666666666
 40
1.0
 40
1.0
 40
1.0
 40
1.0
 10
46.339
 20
44.3613
 30
0.0
 10
47.5963
 20
46.5644
 30
0.0
 10
47.6961
 20
53.8129
 30
0.0
 10
53.0446
 20
57.4892
 30
0.0
 10
53.0446
 20
57.4892
 30
0.0
 10
61.0406
 20
61.4036
 30
0.0
 10
61.3272
 20
52.4261
 30
0.0
 10
55.8771
 20
53.6094
 30
0.0
 10
55.8771
 20
53.6094
 30
0.0
 10
56.0638
 20
50.1459
 30
0.0
 10
59.462
 20
49.7019
 30
0.0
 10
61.4665
 20
50.6641
 30
0.0
 10
61.4665
 20
50.6641
 30
0.0
 10
61.4665
 20
50.6641
 30
0.0
 10
52.3087
 20
39.4177
 30
0.0
 10
52.3087
 20
39.4177
 30
0.0
 10
52.3087
 20
39.4177
 30
0.0
 10
53.4282
 20
42.7601
 30
0.0
 10
49.1321
 20
45.2744
 30
0.0
 10
46.339
 20
44.3613
 30
0.0
  0
SPLINE
  5
73
330
1F
100
AcDbEntity
  8
layer 1
 62
     7
100
AcDbSpline
210
0.0
220
0.0
230
1.0
 70
    11
 71
     3
 72
    48
 73
    44
 74
     0
 42
0.0000000001
 43
0.0000000001
 12
1.0
 22
0.0
 32
0.0
 13
1.0
 23
0.0
 33
0.0
 40
0.0
 40
0.0
 40
0.0
 40
0.0
 40
0.0833333333333333
 40
0.0833333333333333
 40
0.0833333333333333
 40
0.0833333333333333
 40
0.1666666666666667
 40
0.1666666666666667
 40
0.1666666666666667
 40
0.1666666666666667
 40
0.25
 40
0.25
 40
0.25
 40
0.25
 40
0.3333333333333333
 40
0.3333333333333333
 40
0.3333333333333333
 40
0.3333333333333333
 40
0.4166666666666667
 40
0.4166666666666667
 40
0.4166666666666667
 40
0.4166666666666667
 40
0.5
 40
0.5
 40
0.5
 40
0.5
 40
0.5833333333333334
 40
0.5833333333333334
 40
0.5833333333333334
 40
0.5833333333333334
 40
0.6666666666666666
 40
0.6666666666666666
 40
0.6666666666666666
 40
0.6666666666666666
 40
0.75
 40
0.75
 40
0.75
 40
0.75
 40
0.8333333333333334
 40
0.8333333333333334
 40
0.8333333333333334
 40
0.8333333333333334
 40
1.0
 40
1.0
 40
1.0
 40
1.0
 10
42.2392
 20
35.5903
 30
0.0
 10
40.4936
 20
30.9103
 30
0.0
 10
39.0611
 20
28.2452
 30
0.0
 10
34.0156
 20
27.6305
 30
0.0
 10
34.0156
 20
27.6305
 30
0.0
 10
37.6234
 20
26.6667
 30
0.0
 10
38.2168
 20
19.9543
 30
0.0
 10
37.1808
 20
20.9774
 30
0.0
 10
37.1808
 20
20.9774
 30
0.0
 10
26.6134
 20
31.4139
 30
0.0
 10
13.8509
 20
23.0079
 30
0.0
 10
14.0754
 20
22.3345
 30
0.0
 10
14.0754
 20
22.3345
 30
0.0
 10
12.7967
 20
20.9837
 30
0.0
 10
13.7935
 20
20.0508
 30
0.0
 10
15.1212
 20
21.4326
 30
0.0
 10
15.1212
 20
21.4326
 30
0.0
 10
18.8536
 20
23.6689
 30
0.0
 10
25.1493
 20
22.9605
 30
0.0
 10
27.469
 20
17.1511
 30
0.0
 10
27.469
 20
17.1511
 30
0.0
 10
30.157
 20
10.4209
 30
0.0
 10
35.6974
 20
10.9324
 30
0.0
 10
36.0155
 20
14.6221
 30
0.0
 10
36.0155
 20
14.6221
 30
0.0
 10
33.1615
 20
13.5827
 30
0.0
 10
32.747
 20
16.1843
 30
0.0
 10
33.5418
 20
17.2939
 30
0.0
 10
33.5418
 20
17.2939
 30
0.0
 10
35.0926
 20
19.4561
 30
0.0
 10
38.5055
 20
17.5708
 30
0.0
 10
38.5236
 20
16.471
 30
0.0
 10
38.5236
 20
16.471
 30
0.0
 10
38.5236
 20
16.471
 30
0.0
 10
38.561
 20
20.9183
 30
0.0
 10
38.561
 20
20.9183
 30
0.0
 10
38.561
 20
20.9183
 30
0.0
 10
38.561
 20
20.9183
 30
0.0
 10
51.9725
 20
38.516
 30
0.0
 10
51.9725
 20
38.516
 30
0.0
 10
51.9725
 20
38.516
 30
0.0
 10
51.0255
 20
39.7358
 30
0.0
 10
45.8896
 20
43.5171
 30
0.0
 10
42.2392
 20
35.5903
 30
0.0
  0
SPLINE
  5
74
330
1F
100
AcDbEntity
  8
layer 1
 62
     7
100
AcDbSpline
210
0.0
220
0.0
230
1.0
 70
    11
 71
     3
 72
    16
 73
    12
 74
     0
 42
0.0000000001
 43
0.0000000001
 12
1.0
 22
0.0
 32
0.0
 13
1.0
 23
0.0
 33
0.0
 40
0.0
 40
0.0
 40
0.0
 40
0.0
 40
0.25
 40
0.25
 40
0.25
 40
0.25
 40
0.5
 40
0.5
 40
0.5
 40
0.5
 40
1.0
 40
1.0
 40
1.0
 40
1.0
 10
45.3109
 20
53.9423
 30
0.0
 10
45.2437
 20
59.7792
 30
0.0
 10
41.6229
 20
56.9844
 30
0.0
 10
42.6477
 20
54.9405
 30
0.0
 10
42.6477
 20
54.9405
 30
0.0
 10
42.8738
 20
47.8216
 30
0.0
 10
42.5112
 20
45.8446
 30
0.0
 10
41.7018
 20
42.2124
 30
0.0
 10
41.7018
 20
42.2124
 30
0.0
 10
44.9408
 20
45.1384
 30
0.0
 10
45.311
 20
53.9422
 30
0.0
 10
45.3109
 20
53.9423
 30
0.0
  0
SPLINE
  5
75
330
1F
100
AcDbEntity
  8
layer 1
 62
     7
100
AcDbSpline
210
0.0
220
0.0
230
1.0
 70
    11
 71
     3
 72
    16
 73
    12
 74
     0
 42
0.0000000001
 43
0.0000000001
 12
1.0
 22
0.0
 32
0.0
 13
1.0
 23
0.0
 33
0.0
 40
0.0
 40
0.0
 40
0.0
 40
0.0
 40
0.25
 40
0.25
 40
0.25
 40
0.25
 40
0.5
 40
0.5
 40
0.5
 40
0.5
 40
1.0
 40
1.0
 40
1.0
 40
1.0
 10
74.9897
 20
77.8033
 30
0.0
 10
75.3388
 20
75.9528
 30
0.0
 10
77.2863
 20
73.8152
 30
0.0
 10
79.209
 20
73.4056
 30
0.0
 10
79.209
 20
73.4056
 30
0.0
 10
79.209
 20
73.4056
 30
0.0
 10
70.0507
 20
62.1611
 30
0.0
 10
70.0507
 20
62.1611
 30
0.0
 10
70.0507
 20
62.1611
 30
0.0
 10
66.3564
 20
70.1338
 30
0.0
 10
75.0321
 20
68.66
 30
0.0
 10
74.9897
 20
77.8033
 30
0.0
  0
SPLINE
  5
76
330
1F
100
AcDbEntity
  8
layer 1
 62
     7
100
AcDbSpline
210
0.0
220
0.0
230
1.0
 70
    11
 71
     3
 72
    36
 73
    32
 74
     0
 42
0.0000000001
 43
0.0000000001
 12
1.0
 22
0.0
 32
0.0
 13
1.0
 23
0.0
 33
0.0
 40
0.0
 40
0.0
 40
0.0
 40
0.0
 40
0.1111111111111111
 40
0.1111111111111111
 40
0.1111111111111111
 40
0.1111111111111111
 40
0.2222222222222222
 40
0.2222222222222222
 40
0.2222222222222222
 40
0.2222222222222222
 40
0.3333333333333333
 40
0.3333333333333333
 40
0.3333333333333333
 40
0.3333333333333333
 40
0.4444444444444444
 40
0.4444444444444444
 40
0.4444444444444444
 40
0.4444444444444444
 40
0.5555555555555556
 40
0.5555555555555556
 40
0.5555555555555556
 40
0.5555555555555556
 40
0.6666666666666666
 40
0.6666666666666666
 40
0.6666666666666666
 40
0.6666666666666666
 40
0.7777777777777778
 40
0.7777777777777778
 40
0.7777777777777778
 40
0.7777777777777778
 40
1.0
 40
1.0
 40
1.0
 40
1.0
 10
49.886
 20
59.443
 30
0.0
 10
52.2725
 20
65.3555
 30
0.0
 10
49.6319
 20
78.9736
 30
0.0
 10
54.9804
 20
82.6503
 30
0.0
 10
54.9804
 20
82.6503
 30
0.0
 10
57.9459
 20
86.3762
 30
0.0
 10
64.6384
 20
85.7451
 30
0.0
 10
67.0908
 20
84.0683
 30
0.0
 10
67.0908
 20
84.0683
 30
0.0
 10
73.3226
 20
79.8065
 30
0.0
 10
69.9132
 20
71.0616
 30
0.0
 10
63.7338
 20
72.7418
 30
0.0
 10
63.7338
 20
72.7418
 30
0.0
 10
68.8905
 20
76.1445
 30
0.0
 10
59.2668
 20
83.2979
 30
0.0
 10
57.3752
 20
74.1433
 30
0.0
 10
57.3752
 20
74.1433
 30
0.0
 10
57.7507
 20
66.7717
 30
0.0
 10
66.6069
 20
66.9786
 30
0.0
 10
64.6678
 20
67.3995
 30
0.0
 10
64.6678
 20
67.3995
 30
0.0
 10
64.8549
 20
63.9377
 30
0.0
 10
67.5267
 20
60.0251
 30
0.0
 10
69.5312
 20
60.9873
 30
0.0
 10
69.5312
 20
60.9873
 30
0.0
 10
69.5312
 20
60.9873
 30
0.0
 10
63.9221
 20
53.7735
 30
0.0
 10
63.9221
 20
53.7735
 30
0.0
 10
63.9221
 20
53.7735
 30
0.0
 10
66.089
 20
60.3415
 30
0.0
 10
57.2787
 20
66.8868
 30
0.0
 10
49.886
 20
59.443
 30
0.0
  0
SPLINE
  5
77
330
1F
100
AcDbEntity
  8
layer 1
 62
     7
100
AcDbSpline
210
0.0
220
0.0
230
1.0
 70
    11
 71
     3
 72
    16
 73
    12
 74
     0
 42
0.0000000001
 43
0.0000000001
 12
1.0
 22
0.0
 32
0.0
 13
1.0
 23
0.0
 33
0.0
 40
0.0
 40
0.0
 40
0.0
 40
0.0
 40
0.25
 40
0.25
 40
0.25
 40
0.25
 40
0.5
 40
0.5
 40
0.5
 40
0.5
 40
1.0
 40
1.0
 40
1.0
 40
1.0
 10
38.7937
 20
12.0373
 30
0.0
 10
38.1428
 20
9.9799
 30
0.0
 10
37.2382
 20
8.9656
 30
0.0
 10
34.527
 20
8.3361
 30
0.0
 10
34.527
 20
8.3361
 30
0.0
 10
37.2381
 20
7.7068
 30
0.0
 10
38.143
 20
6.6933
 30
0.0
 10
38.7939
 20
4.6363
 30
0.0
 10
38.7939
 20
4.6363
 30
0.0
 10
38.8281
 20
7.3098
 30
0.0
 10
38.8232
 20
9.7654
 30
0.0
 10
38.7937
 20
12.0373
 30
0.0
  0
SPLINE
  5
78
330
1F
100
AcDbEntity
  8
layer 1
 62
     7
100
AcDbSpline
210
0.0
220
0.0
230
1.0
 70
    11
 71
     3
 72
    24
 73
    20
 74
     0
 42
0.0000000001
 43
0.0000000001
 12
1.0
 22
0.0
 32
0.0
 13
1.0
 23
0.0
 33
0.0
 40
0.0
 40
0.0
 40
0.0
 40
0.0
 40
0.1666666666666667
 40
0.1666666666666667
 40
0.1666666666666667
 40
0.1666666666666667
 40
0.3333333333333333
 40
0.3333333333333333
 40
0.3333333333333333
 40
0.3333333333333333
 40
0.5
 40
0.5
 40
0.5
 40
0.5
 40
0.6666666666666666
 40
0.6666666666666666
 40
0.6666666666666666
 40
0.6666666666666666
 40
1.0
 40
1.0
 40
1.0
 40
1.0
 10
47.0847
 20
10.6504
 30
0.0
 10
46.9324
 20
13.7666
 30
0.0
 10
46.8665
 20
14.8697
 30
0.0
 10
47.0667
 20
18.0496
 30
0.0
 10
47.0667
 20
18.0496
 30
0.0
 10
54.1479
 20
26.9454
 30
0.0
 10
55.1839
 20
28.265
 30
0.0
 10
62.7682
 20
38.2491
 30
0.0
 10
62.7682
 20
38.2491
 30
0.0
 10
62.0434
 20
33.6233
 30
0.0
 10
64.8596
 20
31.1037
 30
0.0
 10
69.6869
 20
32.4792
 30
0.0
 10
69.6869
 20
32.4792
 30
0.0
 10
69.6869
 20
32.4792
 30
0.0
 10
52.3904
 20
10.2735
 30
0.0
 10
52.3904
 20
10.2735
 30
0.0
 10
52.3904
 20
10.2735
 30
0.0
 10
52.0988
 20
11.9555
 30
0.0
 10
48.1355
 20
12.0616
 30
0.0
 10
47.0847
 20
10.6504
 30
0.0
  0
SPLINE
  5
79
330
1F
100
AcDbEntity
  8
layer 1
 62
     7
100
AcDbSpline
210
0.0
220
0.0
230
1.0
 70
    11
 71
     3
 72
    24
 73
    20
 74
     0
 42
0.0000000001
 43
0.0000000001
 12
1.0
 22
0.0
 32
0.0
 13
1.0
 23
0.0
 33
0.0
 40
0.0
 40
0.0
 40
0.0
 40
0.0
 40
0.1666666666666667
 40
0.1666666666666667
 40
0.1666666666666667
 40
0.1666666666666667
 40
0.3333333333333333
 40
0.3333333333333333
 40
0.3333333333333333
 40
0.3333333333333333
 40
0.5
 40
0.5
 40
0.5
 40
0.5
 40
0.6666666666666666
 40
0.6666666666666666
 40
0.6666666666666666
 40
0.6666666666666666
 40
1.0
 40
1.0
 40
1.0
 40
1.0
 10
90.9878
 20
64.9787
 30
0.0
 10
89.5649
 20
63.192
 30
0.0
 10
89.7143
 20
61.3414
 30
0.0
 10
91.1746
 20
60.3201
 30
0.0
 10
91.1746
 20
60.3201
 30
0.0
 10
84.0918
 20
51.4244
 30
0.0
 10
79.653
 20
45.5383
 30
0.0
 10
72.0671
 20
35.5543
 30
0.0
 10
72.0671
 20
35.5543
 30
0.0
 10
72.7934
 20
40.1798
 30
0.0
 10
69.9756
 20
42.6992
 30
0.0
 10
65.15
 20
41.3241
 30
0.0
 10
65.15
 20
41.3241
 30
0.0
 10
65.15
 20
41.3241
 30
0.0
 10
83.274
 20
65.1068
 30
0.0
 10
83.274
 20
65.1068
 30
0.0
 10
83.274
 20
65.1068
 30
0.0
 10
86.1329
 20
65.0262
 30
0.0
 10
88.1442
 20
65.0312
 30
0.0
 10
90.9878
 20
64.9787
 30
0.0
  0
SPLINE
  5
7A
330
1F
100
AcDbEntity
  8
layer 1
 62
     7
100
AcDbSpline
210
0.0
220
0.0
230
1.0
 70
    11
 71
     3
 72
    40
 73
    36
 74
     0
 42
0.0000000001
 43
0.0000000001
 12
1.0
 22
0.0
 32
0.0
 13
1.0
 23
0.0
 33
0.0
 40
0.0
 40
0.0
 40
0.0
 40
0.0
 40
0.1
 40
0.1
 40
0.1
 40
0.1
 40
0.2
 40
0.2
 40
0.2
 40
0.2
 40
0.3
 40
0.3
 40
0.3
 40
0.3
 40
0.4
 40
0.4
 40
0.4
 40
0.4
 40
0.5
 40
0.5
 40
0.5
 40
0.5
 40
0.6
 40
0.6
 40
0.6
 40
0.6
 40
0.7
 40
0.7
 40
0.7
 40
0.7
 40
0.8
 40
0.8
 40
0.8
 40
0.8
 40
1.0
 40
1.0
 40
1.0
 40
1.0
 10
64.6057
 20
11.9797
 30
0.0
 10
62.5419
 20
10.4457
 30
0.0
 10
58.9064
 20
9.4734
 30
0.0
 10
55.1197
 20
9.7456
 30
0.0
 10
55.1197
 20
9.7456
 30
0.0
 10
62.2026
 20
18.643
 30
0.0
 10
82.9987
 20
45.2022
 30
0.0
 10
90.5847
 20
55.1864
 30
0.0
 10
90.5847
 20
55.1864
 30
0.0
 10
89.6929
 20
49.4821
 30
0.0
 10
80.802
 20
42.645
 30
0.0
 10
89.0325
 20
32.397
 30
0.0
 10
89.0325
 20
32.397
 30
0.0
 10
82.7984
 20
38.1471
 30
0.0
 10
78.3089
 20
33.269
 30
0.0
 10
78.8008
 20
29.4714
 30
0.0
 10
78.8008
 20
29.4714
 30
0.0
 10
82.3575
 20
30.6908
 30
0.0
 10
86.4702
 20
28.9729
 30
0.0
 10
85.9327
 20
23.0918
 30
0.0
 10
85.9327
 20
23.0918
 30
0.0
 10
85.495
 20
18.3053
 30
0.0
 10
77.0421
 20
16.484
 30
0.0
 10
77.2171
 20
23.8081
 30
0.0
 10
77.2171
 20
23.8081
 30
0.0
 10
72.8441
 20
23.6244
 30
0.0
 10
70.5673
 20
17.4151
 30
0.0
 10
75.1505
 20
14.0762
 30
0.0
 10
75.1505
 20
14.0762
 30
0.0
 10
76.0353
 20
13.4321
 30
0.0
 10
75.4636
 20
12.2684
 30
0.0
 10
74.349
 20
13.0649
 30
0.0
 10
74.349
 20
13.0649
 30
0.0
 10
70.5262
 20
16.5072
 30
0.0
 10
67.6774
 20
14.4417
 30
0.0
 10
64.6057
 20
11.9797
 30
0.0
  0
SPLINE
  5
7B
330
1F
100
AcDbEntity
  8
layer 1
 62
     7
100
AcDbSpline
210
0.0
220
0.0
230
1.0
 70
    11
 71
     3
 72
    20
 73
    16
 74
     0
 42
0.0000000001
 43
0.0000000001
 12
1.0
 22
0.0
 32
0.0
 13
1.0
 23
0.0
 33
0.0
 40
0.0
 40
0.0
 40
0.0
 40
0.0
 40
0.2
 40
0.2
 40
0.2
 40
0.2
 40
0.4
 40
0.4
 40
0.4
 40
0.4
 40
0.6
 40
0.6
 40
0.6
 40
0.6
 40
1.0
 40
1.0
 40
1.0
 40
1.0
 10
85.5114
 20
13.7321
 30
0.0
 10
83.161
 20
10.3718
 30
0.0
 10
79.8302
 20
9.18
 30
0.0
 10
73.8618
 20
8.3361
 30
0.0
 10
73.8618
 20
8.3361
 30
0.0
 10
79.83
 20
7.4918
 30
0.0
 10
83.1611
 20
6.3002
 30
0.0
 10
85.5114
 20
2.9398
 30
0.0
 10
85.5114
 20
2.9398
 30
0.0
 10
86.0736
 20
5.6184
 30
0.0
 10
87.5474
 20
7.1935
 30
0.0
 10
89.6095
 20
8.3361
 30
0.0
 10
89.6095
 20
8.3361
 30
0.0
 10
87.5474
 20
9.4784
 30
0.0
 10
86.0736
 20
11.0536
 30
0.0
 10
85.5114
 20
13.7321
 30
0.0
  0
SPLINE
  5
7C
330
1F
100
AcDbEntity
  8
layer 1
 62
     7
100
AcDbSpline
210
0.0
220
0.0
230
1.0
 70
    11
 71
     3
 72
    24
 73
    20
 74
     0
 42
0.0000000001
 43
0.0000000001
 12
1.0
 22
0.0
 32
0.0
 13
1.0
 23
0.0
 33
0.0
 40
0.0
 40
0.0
 40
0.0
 40
0.0
 40
0.1666666666666667
 40
0.1666666666666667
 40
0.1666666666666667
 40
0.1666666666666667
 40
0.3333333333333333
 40
0.3333333333333333
 40
0.3333333333333333
 40
0.3333333333333333
 40
0.5
 40
0.5
 40
0.5
 40
0.5
 40
0.6666666666666666
 40
0.6666666666666666
 40
0.6666666666666666
 40
0.6666666666666666
 40
1.0
 40
1.0
 40
1.0
 40
1.0
 10
179.704
 20
-103.8084
 30
0.0
 10
179.704
 20
-105.5888
 30
0.0
 10
180.4891
 20
-107.1834
 30
0.0
 10
181.7333
 20
-108.2686
 30
0.0
 10
181.7333
 20
-108.2686
 30
0.0
 10
181.7333
 20
-108.2686
 30
0.0
 10
190.0666
 20
-108.29
 30
0.0
 10
190.0666
 20
-108.29
 30
0.0
 10
190.0666
 20
-108.29
 30
0.0
 10
190.0666
 20
-108.29
 30
0.0
 10
190.0373
 20
-99.8744
 30
0.0
 10
190.0373
 20
-99.8744
 30
0.0
 10
190.0373
 20
-99.8744
 30
0.0
 10
188.9538
 20
-98.6584
 30
0.0
 10
187.3751
 20
-97.8929
 30
0.0
 10
185.6199
 20
-97.8929
 30
0.0
 10
185.6199
 20
-97.8929
 30
0.0
 10
182.3526
 20
-97.8929
 30
0.0
 10
179.704
 20
-100.5416
 30
0.0
 10
179.704
 20
-103.8084
 30
0.0
  0
SPLINE
  5
7D
330
1F
100
AcDbEntity
  8
layer 1
 62
     7
100
AcDbSpline
210
0.0
220
0.0
230
1.0
 70
    11
 71
     3
 72
    16
 73
    12
 74
     0
 42
0.0000000001
 43
0.0000000001
 12
1.0
 22
0.0
 32
0.0
 13
1.0
 23
0.0
 33
0.0
 40
0.0
 40
0.0
 40
0.0
 40
0.0
 40
0.25
 40
0.25
 40
0.25
 40
0.25
 40
0.5
 40
0.5
 40
0.5
 40
0.5
 40
1.0
 40
1.0
 40
1.0
 40
1.0
 10
190.0666
 20
-94.9799
 30
0.0
 10
190.0666
 20
-94.9799
 30
0.0
 10
190.0373
 20
-77.7426
 30
0.0
 10
190.0373
 20
-77.7426
 30
0.0
 10
190.0373
 20
-77.7426
 30
0.0
 10
188.2538
 20
-79.4227
 30
0.0
 10
183.4479
 20
-86.8812
 30
0.0
 10
186.8179
 20
-94.272
 30
0.0
 10
186.8179
 20
-94.272
 30
0.0
 10
188.4913
 20
-94.541
 30
0.0
 10
188.9684
 20
-94.726
 30
0.0
 10
190.0666
 20
-94.9799
 30
0.0
  0
SPLINE
  5
7E
330
1F
100
AcDbEntity
  8
layer 1
 62
     7
100
AcDbSpline
210
0.0
220
0.0
230
1.0
 70
    11
 71
     3
 72
    16
 73
    12
 74
     0
 42
0.0000000001
 43
0.0000000001
 12
1.0
 22
0.0
 32
0.0
 13
1.0
 23
0.0
 33
0.0
 40
0.0
 40
0.0
 40
0.0
 40
0.0
 40
0.25
 40
0.25
 40
0.25
 40
0.25
 40
0.5
 40
0.5
 40
0.5
 40
0.5
 40
1.0
 40
1.0
 40
1.0
 40
1.0
 10
185.1394
 20
-94.3819
 30
0.0
 10
183.0904
 20
-91.5117
 30
0.0
 10
181.2071
 20
-80.698
 30
0.0
 10
185.8427
 20
-76.2772
 30
0.0
 10
185.8427
 20
-76.2772
 30
0.0
 10
184.8507
 20
-75.9529
 30
0.0
 10
171.8621
 20
-73.1645
 30
0.0
 10
182.5235
 20
-95.003
 30
0.0
 10
182.5235
 20
-95.003
 30
0.0
 10
183.7643
 20
-94.5078
 30
0.0
 10
184.2906
 20
-94.4868
 30
0.0
 10
185.1394
 20
-94.3819
 30
0.0
  0
SPLINE
  5
7F
330
1F
100
AcDbEntity
  8
layer 1
 62
     7
100
AcDbSpline
210
0.0
220
0.0
230
1.0
 70
    11
 71
     3
 72
    24
 73
    20
 74
     0
 42
0.0000000001
 43
0.0000000001
 12
1.0
 22
0.0
 32
0.0
 13
1.0
 23
0.0
 33
0.0
 40
0.0
 40
0.0
 40
0.0
 40
0.0
 40
0.1666666666666667
 40
0.1666666666666667
 40
0.1666666666666667
 40
0.1666666666666667
 40
0.3333333333333333
 40
0.3333333333333333
 40
0.3333333333333333
 40
0.3333333333333333
 40
0.5
 40
0.5
 40
0.5
 40
0.5
 40
0.6666666666666666
 40
0.6666666666666666
 40
0.6666666666666666
 40
0.6666666666666666
 40
1.0
 40
1.0
 40
1.0
 40
1.0
 10
180.2449
 20
-96.3126
 30
0.0
 10
176.9995
 20
-92.2805
 30
0.0
 10
174.3374
 20
-84.188
 30
0.0
 10
169.2427
 20
-80.354
 30
0.0
 10
169.2427
 20
-80.354
 30
0.0
 10
166.7792
 20
-78.5
 30
0.0
 10
163.4171
 20
-78.8458
 30
0.0
 10
161.6715
 20
-80.672
 30
0.0
 10
161.6715
 20
-80.672
 30
0.0
 10
160.3178
 20
-81.9603
 30
0.0
 10
160.1424
 20
-85.6223
 30
0.0
 10
162.3601
 20
-87.999
 30
0.0
 10
162.3601
 20
-87.999
 30
0.0
 10
166.2873
 20
-92.2066
 30
0.0
 10
174.2061
 20
-95.4537
 30
0.0
 10
178.0289
 20
-98.4321
 30
0.0
 10
178.0289
 20
-98.4321
 30
0.0
 10
178.5038
 20
-97.9026
 30
0.0
 10
179.3302
 20
-96.8174
 30
0.0
 10
180.2449
 20
-96.3126
 30
0.0
  0
SPLINE
  5
80
330
1F
100
AcDbEntity
  8
layer 1
 62
     7
100
AcDbSpline
210
0.0
220
0.0
230
1.0
 70
    11
 71
     3
 72
    16
 73
    12
 74
     0
 42
0.0000000001
 43
0.0000000001
 12
1.0
 22
0.0
 32
0.0
 13
1.0
 23
0.0
 33
0.0
 40
0.0
 40
0.0
 40
0.0
 40
0.0
 40
0.25
 40
0.25
 40
0.25
 40
0.25
 40
0.5
 40
0.5
 40
0.5
 40
0.5
 40
1.0
 40
1.0
 40
1.0
 40
1.0
 10
176.7897
 20
-108.2787
 30
0.0
 10
176.7897
 20
-108.2787
 30
0.0
 10
159.5507
 20
-108.2505
 30
0.0
 10
159.5507
 20
-108.2505
 30
0.0
 10
159.5507
 20
-108.2505
 30
0.0
 10
161.2321
 20
-106.4671
 30
0.0
 10
168.6889
 20
-101.6594
 30
0.0
 10
176.0798
 20
-105.0316
 30
0.0
 10
176.0798
 20
-105.0316
 30
0.0
 10
176.3504
 20
-106.705
 30
0.0
 10
176.5338
 20
-107.1822
 30
0.0
 10
176.7897
 20
-108.2787
 30
0.0
  0
SPLINE
  5
81
330
1F
100
AcDbEntity
  8
layer 1
 62
     7
100
AcDbSpline
210
0.0
220
0.0
230
1.0
 70
    11
 71
     3
 72
    16
 73
    12
 74
     0
 42
0.0000000001
 43
0.0000000001
 12
1.0
 22
0.0
 32
0.0
 13
1.0
 23
0.0
 33
0.0
 40
0.0
 40
0.0
 40
0.0
 40
0.0
 40
0.25
 40
0.25
 40
0.25
 40
0.25
 40
0.5
 40
0.5
 40
0.5
 40
0.5
 40
1.0
 40
1.0
 40
1.0
 40
1.0
 10
176.2257
 20
-103.4579
 30
0.0
 10
173.3555
 20
-101.4089
 30
0.0
 10
162.5418
 20
-99.5253
 30
0.0
 10
158.121
 20
-104.1609
 30
0.0
 10
158.121
 20
-104.1609
 30
0.0
 10
157.7967
 20
-103.1693
 30
0.0
 10
155.0083
 20
-90.1807
 30
0.0
 10
176.8468
 20
-100.8417
 30
0.0
 10
176.8468
 20
-100.8417
 30
0.0
 10
176.352
 20
-102.0841
 30
0.0
 10
176.3306
 20
-102.6103
 30
0.0
 10
176.2257
 20
-103.4579
 30
0.0
  0
SPLINE
  5
82
330
1F
100
AcDbEntity
  8
layer 1
 62
     7
100
AcDbSpline
210
0.0
220
0.0
230
1.0
 70
    11
 71
     3
 72
    20
 73
    16
 74
     0
 42
0.0000000001
 43
0.0000000001
 12
1.0
 22
0.0
 32
0.0
 13
1.0
 23
0.0
 33
0.0
 40
0.0
 40
0.0
 40
0.0
 40
0.0
 40
0.2
 40
0.2
 40
0.2
 40
0.2
 40
0.4
 40
0.4
 40
0.4
 40
0.4
 40
0.6
 40
0.6
 40
0.6
 40
0.6
 40
1.0
 40
1.0
 40
1.0
 40
1.0
 10
190.0666
 20
-25.0076
 30
0.0
 10
190.0666
 20
-25.0076
 30
0.0
 10
190.0373
 20
0.0861
 30
0.0
 10
190.0373
 20
0.0861
 30
0.0
 10
190.0373
 20
0.0861
 30
0.0
 10
188.9752
 20
-3.5808
 30
0.0
 10
184.6362
 20
-13.6958
 30
0.0
 10
175.2685
 20
-19.7397
 30
0.0
 10
175.2685
 20
-19.7397
 30
0.0
 10
178.2517
 20
-20.302
 30
0.0
 10
180.5513
 20
-20.5017
 30
0.0
 10
181.4463
 20
-24.8045
 30
0.0
 10
181.4463
 20
-24.8045
 30
0.0
 10
184.5393
 20
-21.5771
 30
0.0
 10
188.0063
 20
-24.7521
 30
0.0
 10
190.0666
 20
-25.0076
 30
0.0
  0
SPLINE
  5
83
330
1F
100
AcDbEntity
  8
layer 1
 62
     7
100
AcDbSpline
210
0.0
220
0.0
230
1.0
 70
    11
 71
     3
 72
    28
 73
    24
 74
     0
 42
0.0000000001
 43
0.0000000001
 12
1.0
 22
0.0
 32
0.0
 13
1.0
 23
0.0
 33
0.0
 40
0.0
 40
0.0
 40
0.0
 40
0.0
 40
0.1428571428571428
 40
0.1428571428571428
 40
0.1428571428571428
 40
0.1428571428571428
 40
0.2857142857142857
 40
0.2857142857142857
 40
0.2857142857142857
 40
0.2857142857142857
 40
0.4285714285714285
 40
0.4285714285714285
 40
0.4285714285714285
 40
0.4285714285714285
 40
0.5714285714285714
 40
0.5714285714285714
 40
0.5714285714285714
 40
0.5714285714285714
 40
0.7142857142857143
 40
0.7142857142857143
 40
0.7142857142857143
 40
0.7142857142857143
 40
1.0
 40
1.0
 40
1.0
 40
1.0
 10
190.0666
 20
-49.8867
 30
0.0
 10
190.0666
 20
-49.8867
 30
0.0
 10
190.0373
 20
-26.2652
 30
0.0
 10
190.0373
 20
-26.2652
 30
0.0
 10
190.0373
 20
-26.2652
 30
0.0
 10
186.441
 20
-26.5862
 30
0.0
 10
187.1196
 20
-33.2562
 30
0.0
 10
181.1971
 20
-32.7119
 30
0.0
 10
181.1971
 20
-32.7119
 30
0.0
 10
183.4001
 20
-35.2657
 30
0.0
 10
181.7052
 20
-35.9476
 30
0.0
 10
182.7052
 20
-38.3638
 30
0.0
 10
182.7052
 20
-38.3638
 30
0.0
 10
183.0543
 20
-39.2042
 30
0.0
 10
184.977
 20
-39.4112
 30
0.0
 10
186.5129
 20
-39.6012
 30
0.0
 10
186.5129
 20
-39.6012
 30
0.0
 10
186.5308
 20
-43.6481
 30
0.0
 10
186.4739
 20
-45.427
 30
0.0
 10
186.603
 20
-49.8623
 30
0.0
 10
186.603
 20
-49.8623
 30
0.0
 10
187.0914
 20
-48.0135
 30
0.0
 10
190.0423
 20
-48.6903
 30
0.0
 10
190.0666
 20
-49.8867
 30
0.0
  0
SPLINE
  5
84
330
1F
100
AcDbEntity
  8
layer 1
 62
     7
100
AcDbSpline
210
0.0
220
0.0
230
1.0
 70
    11
 71
     3
 72
    52
 73
    48
 74
     0
 42
0.0000000001
 43
0.0000000001
 12
1.0
 22
0.0
 32
0.0
 13
1.0
 23
0.0
 33
0.0
 40
0.0
 40
0.0
 40
0.0
 40
0.0
 40
0.0769230769230769
 40
0.0769230769230769
 40
0.0769230769230769
 40
0.0769230769230769
 40
0.1538461538461539
 40
0.1538461538461539
 40
0.1538461538461539
 40
0.1538461538461539
 40
0.2307692307692308
 40
0.2307692307692308
 40
0.2307692307692308
 40
0.2307692307692308
 40
0.3076923076923077
 40
0.3076923076923077
 40
0.3076923076923077
 40
0.3076923076923077
 40
0.3846153846153846
 40
0.3846153846153846
 40
0.3846153846153846
 40
0.3846153846153846
 40
0.4615384615384616
 40
0.4615384615384616
 40
0.4615384615384616
 40
0.4615384615384616
 40
0.5384615384615384
 40
0.5384615384615384
 40
0.5384615384615384
 40
0.5384615384615384
 40
0.6153846153846154
 40
0.6153846153846154
 40
0.6153846153846154
 40
0.6153846153846154
 40
0.6923076923076923
 40
0.6923076923076923
 40
0.6923076923076923
 40
0.6923076923076923
 40
0.7692307692307693
 40
0.7692307692307693
 40
0.7692307692307693
 40
0.7692307692307693
 40
0.8461538461538461
 40
0.8461538461538461
 40
0.8461538461538461
 40
0.8461538461538461
 40
1.0
 40
1.0
 40
1.0
 40
1.0
 10
190.0666
 20
-53.0603
 30
0.0
 10
190.0666
 20
-53.0603
 30
0.0
 10
190.0373
 20
-73.6366
 30
0.0
 10
190.0373
 20
-73.6366
 30
0.0
 10
190.0373
 20
-73.6366
 30
0.0
 10
185.6392
 20
-70.4272
 30
0.0
 10
175.9455
 20
-70.1206
 30
0.0
 10
174.5145
 20
-78.2558
 30
0.0
 10
174.5145
 20
-78.2558
 30
0.0
 10
171.8638
 20
-75.2676
 30
0.0
 10
167.086
 20
-69.5847
 30
0.0
 10
159.6146
 20
-72.9236
 30
0.0
 10
159.6146
 20
-72.9236
 30
0.0
 10
159.2998
 20
-71.2762
 30
0.0
 10
157.6393
 20
-69.5272
 30
0.0
 10
154.9168
 20
-70.3207
 30
0.0
 10
154.9168
 20
-70.3207
 30
0.0
 10
155.3708
 20
-69.0044
 30
0.0
 10
153.702
 20
-66.516
 30
0.0
 10
151.2909
 20
-66.808
 30
0.0
 10
151.2909
 20
-66.808
 30
0.0
 10
153.2463
 20
-64.2097
 30
0.0
 10
161.139
 20
-62.8396
 30
0.0
 10
164.5811
 20
-63.8081
 30
0.0
 10
164.5811
 20
-63.8081
 30
0.0
 10
164.5811
 20
-63.8081
 30
0.0
 10
164.7267
 20
-59.4055
 30
0.0
 10
164.7267
 20
-59.4055
 30
0.0
 10
164.7267
 20
-59.4055
 30
0.0
 10
165.4465
 20
-60.6085
 30
0.0
 10
167.161
 20
-60.3676
 30
0.0
 10
167.8627
 20
-59.199
 30
0.0
 10
167.8627
 20
-59.199
 30
0.0
 10
167.8627
 20
-59.199
 30
0.0
 10
167.8954
 20
-70.8402
 30
0.0
 10
167.8954
 20
-70.8402
 30
0.0
 10
167.8954
 20
-70.8402
 30
0.0
 10
173.0866
 20
-65.1375
 30
0.0
 10
183.7479
 20
-65.4082
 30
0.0
 10
186.5129
 20
-66.4471
 30
0.0
 10
186.5129
 20
-66.4471
 30
0.0
 10
186.5308
 20
-62.4002
 30
0.0
 10
186.4739
 20
-57.5205
 30
0.0
 10
186.603
 20
-53.085
 30
0.0
 10
186.603
 20
-53.085
 30
0.0
 10
187.0914
 20
-54.9339
 30
0.0
 10
190.0423
 20
-54.2571
 30
0.0
 10
190.0666
 20
-53.0603
 30
0.0
  0
SPLINE
  5
85
330
1F
100
AcDbEntity
  8
layer 1
 62
     7
100
AcDbSpline
210
0.0
220
0.0
230
1.0
 70
    11
 71
     3
 72
    20
 73
    16
 74
     0
 42
0.0000000001
 43
0.0000000001
 12
1.0
 22
0.0
 32
0.0
 13
1.0
 23
0.0
 33
0.0
 40
0.0
 40
0.0
 40
0.0
 40
0.0
 40
0.2
 40
0.2
 40
0.2
 40
0.2
 40
0.4
 40
0.4
 40
0.4
 40
0.4
 40
0.6
 40
0.6
 40
0.6
 40
0.6
 40
1.0
 40
1.0
 40
1.0
 40
1.0
 10
164.7418
 20
-51.8669
 30
0.0
 10
164.7418
 20
-51.8669
 30
0.0
 10
164.7267
 20
-55.683
 30
0.0
 10
164.7267
 20
-55.683
 30
0.0
 10
164.7267
 20
-55.683
 30
0.0
 10
165.4465
 20
-54.4781
 30
0.0
 10
167.161
 20
-54.7191
 30
0.0
 10
167.8627
 20
-55.8895
 30
0.0
 10
167.8627
 20
-55.8895
 30
0.0
 10
167.8627
 20
-55.8895
 30
0.0
 10
167.8954
 20
-51.9998
 30
0.0
 10
167.8954
 20
-51.9998
 30
0.0
 10
167.8954
 20
-51.9998
 30
0.0
 10
166.4922
 20
-52.1489
 30
0.0
 10
164.742
 20
-51.8669
 30
0.0
 10
164.7418
 20
-51.8669
 30
0.0
  0
SPLINE
  5
86
330
1F
100
AcDbEntity
  8
layer 1
 62
     7
100
AcDbSpline
210
0.0
220
0.0
230
1.0
 70
    11
 71
     3
 72
    40
 73
    36
 74
     0
 42
0.0000000001
 43
0.0000000001
 12
1.0
 22
0.0
 32
0.0
 13
1.0
 23
0.0
 33
0.0
 40
0.0
 40
0.0
 40
0.0
 40
0.0
 40
0.1
 40
0.1
 40
0.1
 40
0.1
 40
0.2
 40
0.2
 40
0.2
 40
0.2
 40
0.3
 40
0.3
 40
0.3
 40
0.3
 40
0.4
 40
0.4
 40
0.4
 40
0.4
 40
0.5
 40
0.5
 40
0.5
 40
0.5
 40
0.6
 40
0.6
 40
0.6
 40
0.6
 40
0.7
 40
0.7
 40
0.7
 40
0.7
 40
0.8
 40
0.8
 40
0.8
 40
0.8
 40
1.0
 40
1.0
 40
1.0
 40
1.0
 10
182.6347
 20
-46.5905
 30
0.0
 10
182.6347
 20
-46.5905
 30
0.0
 10
182.6053
 20
-61.9807
 30
0.0
 10
182.6053
 20
-61.9807
 30
0.0
 10
182.6053
 20
-61.9807
 30
0.0
 10
177.245
 20
-61.4985
 30
0.0
 10
174.8225
 20
-62.1544
 30
0.0
 10
171.6803
 20
-63.6592
 30
0.0
 10
171.6803
 20
-63.6592
 30
0.0
 10
171.6803
 20
-63.6592
 30
0.0
 10
171.7311
 20
-53.5764
 30
0.0
 10
171.7311
 20
-53.5764
 30
0.0
 10
171.7311
 20
-53.5764
 30
0.0
 10
172.7701
 20
-53.4439
 30
0.0
 10
174.1113
 20
-53.1505
 30
0.0
 10
175.3471
 20
-52.3554
 30
0.0
 10
175.3471
 20
-52.3554
 30
0.0
 10
175.3471
 20
-52.3554
 30
0.0
 10
175.3814
 20
-56.9926
 30
0.0
 10
175.3814
 20
-56.9926
 30
0.0
 10
175.3814
 20
-56.9926
 30
0.0
 10
176.2946
 20
-56.9582
 30
0.0
 10
177.7599
 20
-56.9615
 30
0.0
 10
179.0825
 20
-57.145
 30
0.0
 10
179.0825
 20
-57.145
 30
0.0
 10
179.0989
 20
-53.0981
 30
0.0
 10
179.0418
 20
-51.0524
 30
0.0
 10
179.1728
 20
-46.6169
 30
0.0
 10
179.1728
 20
-46.6169
 30
0.0
 10
180.9956
 20
-45.5251
 30
0.0
 10
181.915
 20
-44.6334
 30
0.0
 10
182.6347
 20
-41.8861
 30
0.0
 10
182.6347
 20
-41.8861
 30
0.0
 10
182.6347
 20
-41.8861
 30
0.0
 10
182.6347
 20
-46.5905
 30
0.0
 10
182.6347
 20
-46.5905
 30
0.0
  0
SPLINE
  5
87
330
1F
100
AcDbEntity
  8
layer 1
 62
     7
100
AcDbSpline
210
0.0
220
0.0
230
1.0
 70
    11
 71
     3
 72
    52
 73
    48
 74
     0
 42
0.0000000001
 43
0.0000000001
 12
1.0
 22
0.0
 32
0.0
 13
1.0
 23
0.0
 33
0.0
 40
0.0
 40
0.0
 40
0.0
 40
0.0
 40
0.0769230769230769
 40
0.0769230769230769
 40
0.0769230769230769
 40
0.0769230769230769
 40
0.1538461538461539
 40
0.1538461538461539
 40
0.1538461538461539
 40
0.1538461538461539
 40
0.2307692307692308
 40
0.2307692307692308
 40
0.2307692307692308
 40
0.2307692307692308
 40
0.3076923076923077
 40
0.3076923076923077
 40
0.3076923076923077
 40
0.3076923076923077
 40
0.3846153846153846
 40
0.3846153846153846
 40
0.3846153846153846
 40
0.3846153846153846
 40
0.4615384615384616
 40
0.4615384615384616
 40
0.4615384615384616
 40
0.4615384615384616
 40
0.5384615384615384
 40
0.5384615384615384
 40
0.5384615384615384
 40
0.5384615384615384
 40
0.6153846153846154
 40
0.6153846153846154
 40
0.6153846153846154
 40
0.6153846153846154
 40
0.6923076923076923
 40
0.6923076923076923
 40
0.6923076923076923
 40
0.6923076923076923
 40
0.7692307692307693
 40
0.7692307692307693
 40
0.7692307692307693
 40
0.7692307692307693
 40
0.8461538461538461
 40
0.8461538461538461
 40
0.8461538461538461
 40
0.8461538461538461
 40
1.0
 40
1.0
 40
1.0
 40
1.0
 10
134.2927
 20
-108.3328
 30
0.0
 10
134.2927
 20
-108.3328
 30
0.0
 10
154.869
 20
-108.303
 30
0.0
 10
154.869
 20
-108.303
 30
0.0
 10
154.869
 20
-108.303
 30
0.0
 10
151.6596
 20
-103.9053
 30
0.0
 10
151.353
 20
-94.2111
 30
0.0
 10
159.4882
 20
-92.782
 30
0.0
 10
159.4882
 20
-92.782
 30
0.0
 10
156.5
 20
-90.1315
 30
0.0
 10
150.8171
 20
-85.3516
 30
0.0
 10
154.156
 20
-77.8819
 30
0.0
 10
154.156
 20
-77.8819
 30
0.0
 10
152.5086
 20
-77.5655
 30
0.0
 10
150.7595
 20
-75.9067
 30
0.0
 10
151.5531
 20
-73.1842
 30
0.0
 10
151.5531
 20
-73.1842
 30
0.0
 10
150.2368
 20
-73.6366
 30
0.0
 10
148.2813
 20
-72.1696
 30
0.0
 10
148.5713
 20
-69.7584
 30
0.0
 10
148.5713
 20
-69.7584
 30
0.0
 10
145.7749
 20
-72.9106
 30
0.0
 10
145.7195
 20
-78.0116
 30
0.0
 10
146.4195
 20
-82.4521
 30
0.0
 10
146.4195
 20
-82.4521
 30
0.0
 10
146.4195
 20
-82.4521
 30
0.0
 10
140.5707
 20
-82.4143
 30
0.0
 10
140.5707
 20
-82.4143
 30
0.0
 10
140.5707
 20
-82.4143
 30
0.0
 10
141.7737
 20
-83.1339
 30
0.0
 10
141.6
 20
-85.4289
 30
0.0
 10
140.4314
 20
-86.1288
 30
0.0
 10
140.4314
 20
-86.1288
 30
0.0
 10
140.4314
 20
-86.1288
 30
0.0
 10
152.0726
 20
-86.1632
 30
0.0
 10
152.0726
 20
-86.1632
 30
0.0
 10
152.0726
 20
-86.1632
 30
0.0
 10
146.3699
 20
-91.3527
 30
0.0
 10
146.6406
 20
-102.0153
 30
0.0
 10
147.6796
 20
-104.7807
 30
0.0
 10
147.6796
 20
-104.7807
 30
0.0
 10
143.6326
 20
-104.7987
 30
0.0
 10
138.7529
 20
-104.7395
 30
0.0
 10
134.3174
 20
-104.8709
 30
0.0
 10
134.3174
 20
-104.8709
 30
0.0
 10
136.1663
 20
-105.3577
 30
0.0
 10
135.4912
 20
-108.3097
 30
0.0
 10
134.2927
 20
-108.3328
 30
0.0
  0
SPLINE
  5
88
330
1F
100
AcDbEntity
  8
layer 1
 62
     7
100
AcDbSpline
210
0.0
220
0.0
230
1.0
 70
    11
 71
     3
 72
    28
 73
    24
 74
     0
 42
0.0000000001
 43
0.0000000001
 12
1.0
 22
0.0
 32
0.0
 13
1.0
 23
0.0
 33
0.0
 40
0.0
 40
0.0
 40
0.0
 40
0.0
 40
0.1428571428571428
 40
0.1428571428571428
 40
0.1428571428571428
 40
0.1428571428571428
 40
0.2857142857142857
 40
0.2857142857142857
 40
0.2857142857142857
 40
0.2857142857142857
 40
0.4285714285714285
 40
0.4285714285714285
 40
0.4285714285714285
 40
0.4285714285714285
 40
0.5714285714285714
 40
0.5714285714285714
 40
0.5714285714285714
 40
0.5714285714285714
 40
0.7142857142857143
 40
0.7142857142857143
 40
0.7142857142857143
 40
0.7142857142857143
 40
1.0
 40
1.0
 40
1.0
 40
1.0
 10
164.619
 20
-48.4951
 30
0.0
 10
164.619
 20
-48.4951
 30
0.0
 10
164.6483
 20
-24.003
 30
0.0
 10
164.6483
 20
-24.003
 30
0.0
 10
164.6483
 20
-24.003
 30
0.0
 10
166.8416
 20
-23.5376
 30
0.0
 10
171.254
 20
-22.3229
 30
0.0
 10
173.0408
 20
-20.9804
 30
0.0
 10
173.0408
 20
-20.9804
 30
0.0
 10
172.2049
 20
-22.4508
 30
0.0
 10
171.2919
 20
-26.65
 30
0.0
 10
173.8507
 20
-29.0645
 30
0.0
 10
173.8507
 20
-29.0645
 30
0.0
 10
168.4052
 20
-26.6696
 30
0.0
 10
164.8565
 20
-33.3053
 30
0.0
 10
165.8418
 20
-36.1755
 30
0.0
 10
165.8418
 20
-36.1755
 30
0.0
 10
169.9117
 20
-32.479
 30
0.0
 10
174.0668
 20
-39.5308
 30
0.0
 10
179.0943
 20
-34.4525
 30
0.0
 10
179.0943
 20
-34.4525
 30
0.0
 10
181.0577
 20
-50.3902
 30
0.0
 10
166.5446
 20
-49.0394
 30
0.0
 10
164.619
 20
-48.4951
 30
0.0
  0
SPLINE
  5
89
330
1F
100
AcDbEntity
  8
layer 1
 62
     7
100
AcDbSpline
210
0.0
220
0.0
230
1.0
 70
    11
 71
     3
 72
    56
 73
    52
 74
     0
 42
0.0000000001
 43
0.0000000001
 12
1.0
 22
0.0
 32
0.0
 13
1.0
 23
0.0
 33
0.0
 40
0.0
 40
0.0
 40
0.0
 40
0.0
 40
0.0714285714285714
 40
0.0714285714285714
 40
0.0714285714285714
 40
0.0714285714285714
 40
0.1428571428571428
 40
0.1428571428571428
 40
0.1428571428571428
 40
0.1428571428571428
 40
0.2142857142857143
 40
0.2142857142857143
 40
0.2142857142857143
 40
0.2142857142857143
 40
0.2857142857142857
 40
0.2857142857142857
 40
0.2857142857142857
 40
0.2857142857142857
 40
0.3571428571428572
 40
0.3571428571428572
 40
0.3571428571428572
 40
0.3571428571428572
 40
0.4285714285714285
 40
0.4285714285714285
 40
0.4285714285714285
 40
0.4285714285714285
 40
0.5
 40
0.5
 40
0.5
 40
0.5
 40
0.5714285714285714
 40
0.5714285714285714
 40
0.5714285714285714
 40
0.5714285714285714
 40
0.6428571428571429
 40
0.6428571428571429
 40
0.6428571428571429
 40
0.6428571428571429
 40
0.7142857142857143
 40
0.7142857142857143
 40
0.7142857142857143
 40
0.7142857142857143
 40
0.7857142857142857
 40
0.7857142857142857
 40
0.7857142857142857
 40
0.7857142857142857
 40
0.8571428571428571
 40
0.8571428571428571
 40
0.8571428571428571
 40
0.8571428571428571
 40
1.0
 40
1.0
 40
1.0
 40
1.0
 10
144.9457
 20
-89.6594
 30
0.0
 10
144.4048
 20
-90.9544
 30
0.0
 10
142.5753
 20
-93.2179
 30
0.0
 10
143.1522
 20
-100.9584
 30
0.0
 10
143.1522
 20
-100.9584
 30
0.0
 10
143.1522
 20
-100.9584
 30
0.0
 10
123.4676
 20
-100.9582
 30
0.0
 10
123.4676
 20
-100.9582
 30
0.0
 10
123.4676
 20
-100.9582
 30
0.0
 10
123.3825
 20
-100.2974
 30
0.0
 10
122.2025
 20
-96.7684
 30
0.0
 10
120.0599
 20
-95.2015
 30
0.0
 10
120.0599
 20
-95.2015
 30
0.0
 10
122.4316
 20
-91.6754
 30
0.0
 10
124.1416
 20
-88.681
 30
0.0
 10
126.2985
 20
-82.2078
 30
0.0
 10
126.2985
 20
-82.2078
 30
0.0
 10
130.8358
 20
-82.2552
 30
0.0
 10
132.6503
 20
-82.2259
 30
0.0
 10
137.4416
 20
-82.2355
 30
0.0
 10
137.4416
 20
-82.2355
 30
0.0
 10
135.7517
 20
-82.8271
 30
0.0
 10
135.8944
 20
-85.7533
 30
0.0
 10
137.4562
 20
-86.2991
 30
0.0
 10
137.4562
 20
-86.2991
 30
0.0
 10
134.9713
 20
-86.3071
 30
0.0
 10
131.5916
 20
-86.1665
 30
0.0
 10
131.7863
 20
-86.245
 30
0.0
 10
131.7863
 20
-86.245
 30
0.0
 10
131.3914
 20
-90.2625
 30
0.0
 10
129.3047
 20
-95.2061
 30
0.0
 10
126.5297
 20
-97.2422
 30
0.0
 10
126.5297
 20
-97.2422
 30
0.0
 10
126.5297
 20
-97.2422
 30
0.0
 10
138.1596
 20
-97.3076
 30
0.0
 10
138.1596
 20
-97.3076
 30
0.0
 10
138.1596
 20
-97.3076
 30
0.0
 10
138.1251
 20
-96.3949
 30
0.0
 10
138.1776
 20
-95.2241
 30
0.0
 10
138.2628
 20
-93.7542
 30
0.0
 10
138.2628
 20
-93.7542
 30
0.0
 10
136.7269
 20
-93.6866
 30
0.0
 10
135.322
 20
-93.7458
 30
0.0
 10
133.4963
 20
-93.6148
 30
0.0
 10
133.4963
 20
-93.6148
 30
0.0
 10
133.9796
 20
-92.5788
 30
0.0
 10
134.6158
 20
-90.9692
 30
0.0
 10
134.7749
 20
-89.7577
 30
0.0
 10
134.7749
 20
-89.7577
 30
0.0
 10
134.7749
 20
-89.7577
 30
0.0
 10
144.9457
 20
-89.6594
 30
0.0
 10
144.9457
 20
-89.6594
 30
0.0
  0
SPLINE
  5
8A
330
1F
100
AcDbEntity
  8
layer 1
 62
     7
100
AcDbSpline
210
0.0
220
0.0
230
1.0
 70
    11
 71
     3
 72
    24
 73
    20
 74
     0
 42
0.0000000001
 43
0.0000000001
 12
1.0
 22
0.0
 32
0.0
 13
1.0
 23
0.0
 33
0.0
 40
0.0
 40
0.0
 40
0.0
 40
0.0
 40
0.1666666666666667
 40
0.1666666666666667
 40
0.1666666666666667
 40
0.1666666666666667
 40
0.3333333333333333
 40
0.3333333333333333
 40
0.3333333333333333
 40
0.3333333333333333
 40
0.5
 40
0.5
 40
0.5
 40
0.5
 40
0.6666666666666666
 40
0.6666666666666666
 40
0.6666666666666666
 40
0.6666666666666666
 40
1.0
 40
1.0
 40
1.0
 40
1.0
 10
131.3553
 20
-108.3328
 30
0.0
 10
131.3553
 20
-108.3328
 30
0.0
 10
99.2574
 20
-108.303
 30
0.0
 10
99.2574
 20
-108.303
 30
0.0
 10
99.2574
 20
-108.303
 30
0.0
 10
112.082
 20
-104.6791
 30
0.0
 10
114.2279
 20
-101.1202
 30
0.0
 10
117.9093
 20
-97.8828
 30
0.0
 10
117.9093
 20
-97.8828
 30
0.0
 10
119.9679
 20
-99.9222
 30
0.0
 10
120.683
 20
-102.4089
 30
0.0
 10
121.1203
 20
-104.7807
 30
0.0
 10
121.1203
 20
-104.7807
 30
0.0
 10
125.1675
 20
-104.7987
 30
0.0
 10
126.8951
 20
-104.7395
 30
0.0
 10
131.331
 20
-104.8709
 30
0.0
 10
131.331
 20
-104.8709
 30
0.0
 10
129.4817
 20
-105.3577
 30
0.0
 10
130.159
 20
-108.3097
 30
0.0
 10
131.3553
 20
-108.3328
 30
0.0
  0
SPLINE
  5
8B
330
1F
100
AcDbEntity
  8
layer 1
 62
     7
100
AcDbSpline
210
0.0
220
0.0
230
1.0
 70
    11
 71
     3
 72
    32
 73
    28
 74
     0
 42
0.0000000001
 43
0.0000000001
 12
1.0
 22
0.0
 32
0.0
 13
1.0
 23
0.0
 33
0.0
 40
0.0
 40
0.0
 40
0.0
 40
0.0
 40
0.125
 40
0.125
 40
0.125
 40
0.125
 40
0.25
 40
0.25
 40
0.25
 40
0.25
 40
0.375
 40
0.375
 40
0.375
 40
0.375
 40
0.5
 40
0.5
 40
0.5
 40
0.5
 40
0.625
 40
0.625
 40
0.625
 40
0.625
 40
0.75
 40
0.75
 40
0.75
 40
0.75
 40
1.0
 40
1.0
 40
1.0
 40
1.0
 10
117.9521
 20
-73.6597
 30
0.0
 10
119.0667
 20
-73.7201
 30
0.0
 10
119.5517
 20
-73.6286
 30
0.0
 10
120.4254
 20
-73.6286
 30
0.0
 10
120.4254
 20
-73.6286
 30
0.0
 10
116.6392
 20
-72.3713
 30
0.0
 10
113.672
 20
-70.0979
 30
0.0
 10
112.4052
 20
-65.8358
 30
0.0
 10
112.4052
 20
-65.8358
 30
0.0
 10
111.1693
 20
-69.4172
 30
0.0
 10
107.4481
 20
-68.4668
 30
0.0
 10
106.7516
 20
-67.4916
 30
0.0
 10
106.7516
 20
-67.4916
 30
0.0
 10
106.1518
 20
-66.6523
 30
0.0
 10
105.1435
 20
-63.4229
 30
0.0
 10
108.8119
 20
-63.2853
 30
0.0
 10
108.8119
 20
-63.2853
 30
0.0
 10
104.2371
 20
-57.186
 30
0.0
 10
96.2727
 20
-65.472
 30
0.0
 10
106.0352
 20
-74.2824
 30
0.0
 10
106.0352
 20
-74.2824
 30
0.0
 10
115.3555
 20
-81.3421
 30
0.0
 10
112.669
 20
-90.9151
 30
0.0
 10
112.669
 20
-90.9151
 30
0.0
 10
112.669
 20
-90.9151
 30
0.0
 10
114.6589
 20
-90.1694
 30
0.0
 10
118.8635
 20
-79.1508
 30
0.0
 10
117.9521
 20
-73.6597
 30
0.0
  0
SPLINE
  5
8C
330
1F
100
AcDbEntity
  8
layer 1
 62
     7
100
AcDbSpline
210
0.0
220
0.0
230
1.0
 70
    11
 71
     3
 72
    16
 73
    12
 74
     0
 42
0.0000000001
 43
0.0000000001
 12
1.0
 22
0.0
 32
0.0
 13
1.0
 23
0.0
 33
0.0
 40
0.0
 40
0.0
 40
0.0
 40
0.0
 40
0.25
 40
0.25
 40
0.25
 40
0.25
 40
0.5
 40
0.5
 40
0.5
 40
0.5
 40
1.0
 40
1.0
 40
1.0
 40
1.0
 10
148.7173
 20
-38.352
 30
0.0
 10
151.4088
 20
-40.9961
 30
0.0
 10
153.4888
 20
-43.5533
 30
0.0
 10
156.0003
 20
-45.0547
 30
0.0
 10
156.0003
 20
-45.0547
 30
0.0
 10
156.0003
 20
-45.0547
 30
0.0
 10
156.0347
 20
-36.9442
 30
0.0
 10
156.0347
 20
-36.9442
 30
0.0
 10
156.0347
 20
-36.9442
 30
0.0
 10
152.8627
 20
-40.5156
 30
0.0
 10
148.7173
 20
-38.352
 30
0.0
 10
148.7173
 20
-38.352
 30
0.0
  0
SPLINE
  5
8D
330
1F
100
AcDbEntity
  8
layer 1
 62
     7
100
AcDbSpline
210
0.0
220
0.0
230
1.0
 70
    11
 71
     3
 72
    32
 73
    28
 74
     0
 42
0.0000000001
 43
0.0000000001
 12
1.0
 22
0.0
 32
0.0
 13
1.0
 23
0.0
 33
0.0
 40
0.0
 40
0.0
 40
0.0
 40
0.0
 40
0.125
 40
0.125
 40
0.125
 40
0.125
 40
0.25
 40
0.25
 40
0.25
 40
0.25
 40
0.375
 40
0.375
 40
0.375
 40
0.375
 40
0.5
 40
0.5
 40
0.5
 40
0.5
 40
0.625
 40
0.625
 40
0.625
 40
0.625
 40
0.75
 40
0.75
 40
0.75
 40
0.75
 40
1.0
 40
1.0
 40
1.0
 40
1.0
 10
138.5103
 20
-42.1731
 30
0.0
 10
138.9891
 20
-55.4009
 30
0.0
 10
142.5967
 20
-67.8995
 30
0.0
 10
128.2442
 20
-73.4842
 30
0.0
 10
128.2442
 20
-73.4842
 30
0.0
 10
130.9701
 20
-73.5203
 30
0.0
 10
134.3011
 20
-73.4171
 30
0.0
 10
137.9745
 20
-73.5418
 30
0.0
 10
137.9745
 20
-73.5418
 30
0.0
 10
138.512
 20
-65.0804
 30
0.0
 10
146.0292
 20
-57.1958
 30
0.0
 10
156.0003
 20
-55.6041
 30
0.0
 10
156.0003
 20
-55.6041
 30
0.0
 10
156.0003
 20
-55.6041
 30
0.0
 10
156.0347
 20
-48.6345
 30
0.0
 10
156.0347
 20
-48.6345
 30
0.0
 10
156.0347
 20
-48.6345
 30
0.0
 10
153.1708
 20
-46.9249
 30
0.0
 10
148.8797
 20
-43.8743
 30
0.0
 10
147.993
 20
-40.652
 30
0.0
 10
147.993
 20
-40.652
 30
0.0
 10
148.56
 20
-43.8251
 30
0.0
 10
145.1195
 20
-49.6395
 30
0.0
 10
146.3061
 20
-52.4489
 30
0.0
 10
146.3061
 20
-52.4489
 30
0.0
 10
137.9152
 20
-49.9752
 30
0.0
 10
138.5103
 20
-42.1731
 30
0.0
 10
138.5103
 20
-42.1731
 30
0.0
  0
SPLINE
  5
8E
330
1F
100
AcDbEntity
  8
layer 1
 62
     7
100
AcDbSpline
210
0.0
220
0.0
230
1.0
 70
    11
 71
     3
 72
    48
 73
    44
 74
     0
 42
0.0000000001
 43
0.0000000001
 12
1.0
 22
0.0
 32
0.0
 13
1.0
 23
0.0
 33
0.0
 40
0.0
 40
0.0
 40
0.0
 40
0.0
 40
0.0833333333333333
 40
0.0833333333333333
 40
0.0833333333333333
 40
0.0833333333333333
 40
0.1666666666666667
 40
0.1666666666666667
 40
0.1666666666666667
 40
0.1666666666666667
 40
0.25
 40
0.25
 40
0.25
 40
0.25
 40
0.3333333333333333
 40
0.3333333333333333
 40
0.3333333333333333
 40
0.3333333333333333
 40
0.4166666666666667
 40
0.4166666666666667
 40
0.4166666666666667
 40
0.4166666666666667
 40
0.5
 40
0.5
 40
0.5
 40
0.5
 40
0.5833333333333334
 40
0.5833333333333334
 40
0.5833333333333334
 40
0.5833333333333334
 40
0.6666666666666666
 40
0.6666666666666666
 40
0.6666666666666666
 40
0.6666666666666666
 40
0.75
 40
0.75
 40
0.75
 40
0.75
 40
0.8333333333333334
 40
0.8333333333333334
 40
0.8333333333333334
 40
0.8333333333333334
 40
1.0
 40
1.0
 40
1.0
 40
1.0
 10
148.9451
 20
-21.8147
 30
0.0
 10
149.5565
 20
-23.262
 30
0.0
 10
150.9169
 20
-25.606
 30
0.0
 10
153.5577
 20
-24.8422
 30
0.0
 10
153.5577
 20
-24.8422
 30
0.0
 10
153.83
 20
-25.1192
 30
0.0
 10
152.5023
 20
-29.4203
 30
0.0
 10
147.6091
 20
-26.5715
 30
0.0
 10
147.6091
 20
-26.5715
 30
0.0
 10
147.2108
 20
-27.0352
 30
0.0
 10
146.2226
 20
-32.6725
 30
0.0
 10
149.4663
 20
-34.5133
 30
0.0
 10
149.4663
 20
-34.5133
 30
0.0
 10
154.4955
 20
-37.3685
 30
0.0
 10
156.4933
 20
-29.8139
 30
0.0
 10
150.6254
 20
-29.3121
 30
0.0
 10
150.6254
 20
-29.3121
 30
0.0
 10
151.7906
 20
-26.9139
 30
0.0
 10
155.1476
 20
-28.5207
 30
0.0
 10
156.0003
 20
-29.0302
 30
0.0
 10
156.0003
 20
-29.0302
 30
0.0
 10
156.0003
 20
-29.0302
 30
0.0
 10
156.0347
 20
-16.3579
 30
0.0
 10
156.0347
 20
-16.3579
 30
0.0
 10
156.0347
 20
-16.3579
 30
0.0
 10
170.1953
 20
-15.8253
 30
0.0
 10
176.237
 20
-7.6884
 30
0.0
 10
177.1913
 20
-6.315
 30
0.0
 10
177.1913
 20
-6.315
 30
0.0
 10
170.3707
 20
-11.2993
 30
0.0
 10
165.2614
 20
-11.6455
 30
0.0
 10
160.8503
 20
-12.765
 30
0.0
 10
160.8503
 20
-12.765
 30
0.0
 10
156.6477
 20
-13.8321
 30
0.0
 10
153.7528
 20
-15.6185
 30
0.0
 10
153.7838
 20
-20.0002
 30
0.0
 10
153.7838
 20
-20.0002
 30
0.0
 10
152.6479
 20
-19.469
 30
0.0
 10
151.4533
 20
-15.5153
 30
0.0
 10
153.5036
 20
-12.9468
 30
0.0
 10
153.5036
 20
-12.9468
 30
0.0
 10
147.2243
 20
-15.558
 30
0.0
 10
148.9451
 20
-21.8147
 30
0.0
 10
148.9451
 20
-21.8147
 30
0.0
  0
SPLINE
  5
8F
330
1F
100
AcDbEntity
  8
layer 1
 62
     7
100
AcDbSpline
210
0.0
220
0.0
230
1.0
 70
    11
 71
     3
 72
    24
 73
    20
 74
     0
 42
0.0000000001
 43
0.0000000001
 12
1.0
 22
0.0
 32
0.0
 13
1.0
 23
0.0
 33
0.0
 40
0.0
 40
0.0
 40
0.0
 40
0.0
 40
0.1666666666666667
 40
0.1666666666666667
 40
0.1666666666666667
 40
0.1666666666666667
 40
0.3333333333333333
 40
0.3333333333333333
 40
0.3333333333333333
 40
0.3333333333333333
 40
0.5
 40
0.5
 40
0.5
 40
0.5
 40
0.6666666666666666
 40
0.6666666666666666
 40
0.6666666666666666
 40
0.6666666666666666
 40
1.0
 40
1.0
 40
1.0
 40
1.0
 10
140.5627
 20
-27.6894
 30
0.0
 10
139.305
 20
-29.8908
 30
0.0
 10
139.2052
 20
-37.1394
 30
0.0
 10
133.8567
 20
-40.8157
 30
0.0
 10
133.8567
 20
-40.8157
 30
0.0
 10
125.8608
 20
-44.7299
 30
0.0
 10
125.5742
 20
-35.7542
 30
0.0
 10
131.0243
 20
-36.9358
 30
0.0
 10
131.0243
 20
-36.9358
 30
0.0
 10
130.8374
 20
-33.474
 30
0.0
 10
127.4394
 20
-33.0299
 30
0.0
 10
125.4348
 20
-33.9906
 30
0.0
 10
125.4348
 20
-33.9906
 30
0.0
 10
125.4348
 20
-33.9906
 30
0.0
 10
134.5928
 20
-22.7457
 30
0.0
 10
134.5928
 20
-22.7457
 30
0.0
 10
134.5928
 20
-22.7457
 30
0.0
 10
133.4731
 20
-26.0881
 30
0.0
 10
137.7693
 20
-28.6009
 30
0.0
 10
140.5627
 20
-27.6894
 30
0.0
  0
SPLINE
  5
90
330
1F
100
AcDbEntity
  8
layer 1
 62
     7
100
AcDbSpline
210
0.0
220
0.0
230
1.0
 70
    11
 71
     3
 72
    48
 73
    44
 74
     0
 42
0.0000000001
 43
0.0000000001
 12
1.0
 22
0.0
 32
0.0
 13
1.0
 23
0.0
 33
0.0
 40
0.0
 40
0.0
 40
0.0
 40
0.0
 40
0.0833333333333333
 40
0.0833333333333333
 40
0.0833333333333333
 40
0.0833333333333333
 40
0.1666666666666667
 40
0.1666666666666667
 40
0.1666666666666667
 40
0.1666666666666667
 40
0.25
 40
0.25
 40
0.25
 40
0.25
 40
0.3333333333333333
 40
0.3333333333333333
 40
0.3333333333333333
 40
0.3333333333333333
 40
0.4166666666666667
 40
0.4166666666666667
 40
0.4166666666666667
 40
0.4166666666666667
 40
0.5
 40
0.5
 40
0.5
 40
0.5
 40
0.5833333333333334
 40
0.5833333333333334
 40
0.5833333333333334
 40
0.5833333333333334
 40
0.6666666666666666
 40
0.6666666666666666
 40
0.6666666666666666
 40
0.6666666666666666
 40
0.75
 40
0.75
 40
0.75
 40
0.75
 40
0.8333333333333334
 40
0.8333333333333334
 40
0.8333333333333334
 40
0.8333333333333334
 40
1.0
 40
1.0
 40
1.0
 40
1.0
 10
144.662
 20
-18.9183
 30
0.0
 10
146.4077
 20
-14.2383
 30
0.0
 10
147.8403
 20
-11.5716
 30
0.0
 10
152.8859
 20
-10.9569
 30
0.0
 10
152.8859
 20
-10.9569
 30
0.0
 10
149.2779
 20
-9.9929
 30
0.0
 10
148.6846
 20
-3.2808
 30
0.0
 10
149.7207
 20
-4.305
 30
0.0
 10
149.7207
 20
-4.305
 30
0.0
 10
160.288
 20
-14.7402
 30
0.0
 10
173.0505
 20
-6.336
 30
0.0
 10
172.8259
 20
-5.6608
 30
0.0
 10
172.8259
 20
-5.6608
 30
0.0
 10
174.1045
 20
-4.3117
 30
0.0
 10
173.108
 20
-3.3789
 30
0.0
 10
171.7803
 20
-4.7594
 30
0.0
 10
171.7803
 20
-4.7594
 30
0.0
 10
168.0481
 20
-6.9952
 30
0.0
 10
161.7521
 20
-6.287
 30
0.0
 10
159.4324
 20
-0.4776
 30
0.0
 10
159.4324
 20
-0.4776
 30
0.0
 10
156.7442
 20
6.2528
 30
0.0
 10
151.2039
 20
5.7395
 30
0.0
 10
150.8859
 20
2.0515
 30
0.0
 10
150.8859
 20
2.0515
 30
0.0
 10
153.7397
 20
3.0893
 30
0.0
 10
154.1543
 20
0.4875
 30
0.0
 10
153.3596
 20
-0.6204
 30
0.0
 10
153.3596
 20
-0.6204
 30
0.0
 10
151.8087
 20
-2.7838
 30
0.0
 10
148.3958
 20
-0.8989
 30
0.0
 10
148.3782
 20
0.2009
 30
0.0
 10
148.3782
 20
0.2009
 30
0.0
 10
148.3782
 20
0.2009
 30
0.0
 10
148.3405
 20
-4.2462
 30
0.0
 10
148.3405
 20
-4.2462
 30
0.0
 10
148.3405
 20
-4.2462
 30
0.0
 10
148.3405
 20
-4.2462
 30
0.0
 10
134.9289
 20
-21.844
 30
0.0
 10
134.9289
 20
-21.844
 30
0.0
 10
134.9289
 20
-21.844
 30
0.0
 10
135.8763
 20
-23.0622
 30
0.0
 10
141.0117
 20
-26.8434
 30
0.0
 10
144.662
 20
-18.9183
 30
0.0
  0
SPLINE
  5
91
330
1F
100
AcDbEntity
  8
layer 1
 62
     7
100
AcDbSpline
210
0.0
220
0.0
230
1.0
 70
    11
 71
     3
 72
    16
 73
    12
 74
     0
 42
0.0000000001
 43
0.0000000001
 12
1.0
 22
0.0
 32
0.0
 13
1.0
 23
0.0
 33
0.0
 40
0.0
 40
0.0
 40
0.0
 40
0.0
 40
0.25
 40
0.25
 40
0.25
 40
0.25
 40
0.5
 40
0.5
 40
0.5
 40
0.5
 40
1.0
 40
1.0
 40
1.0
 40
1.0
 10
141.5904
 20
-37.2687
 30
0.0
 10
141.6575
 20
-43.1055
 30
0.0
 10
145.2785
 20
-40.3125
 30
0.0
 10
144.2538
 20
-38.2685
 30
0.0
 10
144.2538
 20
-38.2685
 30
0.0
 10
144.0275
 20
-31.1479
 30
0.0
 10
144.3901
 20
-29.1711
 30
0.0
 10
145.1995
 20
-25.5388
 30
0.0
 10
145.1995
 20
-25.5388
 30
0.0
 10
141.9609
 20
-28.4648
 30
0.0
 10
141.5904
 20
-37.2687
 30
0.0
 10
141.5904
 20
-37.2687
 30
0.0
  0
SPLINE
  5
92
330
1F
100
AcDbEntity
  8
layer 1
 62
     7
100
AcDbSpline
210
0.0
220
0.0
230
1.0
 70
    11
 71
     3
 72
    16
 73
    12
 74
     0
 42
0.0000000001
 43
0.0000000001
 12
1.0
 22
0.0
 32
0.0
 13
1.0
 23
0.0
 33
0.0
 40
0.0
 40
0.0
 40
0.0
 40
0.0
 40
0.25
 40
0.25
 40
0.25
 40
0.25
 40
0.5
 40
0.5
 40
0.5
 40
0.5
 40
1.0
 40
1.0
 40
1.0
 40
1.0
 10
111.9117
 20
-61.1296
 30
0.0
 10
111.5624
 20
-59.2808
 30
0.0
 10
109.6155
 20
-57.1433
 30
0.0
 10
107.6923
 20
-56.7336
 30
0.0
 10
107.6923
 20
-56.7336
 30
0.0
 10
107.6923
 20
-56.7336
 30
0.0
 10
116.8506
 20
-45.4873
 30
0.0
 10
116.8506
 20
-45.4873
 30
0.0
 10
116.8506
 20
-45.4873
 30
0.0
 10
120.5449
 20
-53.4618
 30
0.0
 10
111.8692
 20
-51.9865
 30
0.0
 10
111.9117
 20
-61.1296
 30
0.0
  0
SPLINE
  5
93
330
1F
100
AcDbEntity
  8
layer 1
 62
     7
100
AcDbSpline
210
0.0
220
0.0
230
1.0
 70
    11
 71
     3
 72
    36
 73
    32
 74
     0
 42
0.0000000001
 43
0.0000000001
 12
1.0
 22
0.0
 32
0.0
 13
1.0
 23
0.0
 33
0.0
 40
0.0
 40
0.0
 40
0.0
 40
0.0
 40
0.1111111111111111
 40
0.1111111111111111
 40
0.1111111111111111
 40
0.1111111111111111
 40
0.2222222222222222
 40
0.2222222222222222
 40
0.2222222222222222
 40
0.2222222222222222
 40
0.3333333333333333
 40
0.3333333333333333
 40
0.3333333333333333
 40
0.3333333333333333
 40
0.4444444444444444
 40
0.4444444444444444
 40
0.4444444444444444
 40
0.4444444444444444
 40
0.5555555555555556
 40
0.5555555555555556
 40
0.5555555555555556
 40
0.5555555555555556
 40
0.6666666666666666
 40
0.6666666666666666
 40
0.6666666666666666
 40
0.6666666666666666
 40
0.7777777777777778
 40
0.7777777777777778
 40
0.7777777777777778
 40
0.7777777777777778
 40
1.0
 40
1.0
 40
1.0
 40
1.0
 10
137.0152
 20
-42.7698
 30
0.0
 10
134.6288
 20
-48.6819
 30
0.0
 10
137.2695
 20
-62.3017
 30
0.0
 10
131.9209
 20
-65.9784
 30
0.0
 10
131.9209
 20
-65.9784
 30
0.0
 10
128.9554
 20
-69.7026
 30
0.0
 10
122.2629
 20
-69.0715
 30
0.0
 10
119.8107
 20
-67.3946
 30
0.0
 10
119.8107
 20
-67.3946
 30
0.0
 10
113.5787
 20
-63.133
 30
0.0
 10
116.9883
 20
-54.388
 30
0.0
 10
123.1676
 20
-56.0681
 30
0.0
 10
123.1676
 20
-56.0681
 30
0.0
 10
118.0109
 20
-59.4709
 30
0.0
 10
127.6345
 20
-66.6259
 30
0.0
 10
129.5262
 20
-57.4697
 30
0.0
 10
129.5262
 20
-57.4697
 30
0.0
 10
129.1506
 20
-50.0982
 30
0.0
 10
120.2944
 20
-50.3064
 30
0.0
 10
122.2335
 20
-50.7276
 30
0.0
 10
122.2335
 20
-50.7276
 30
0.0
 10
122.0468
 20
-47.264
 30
0.0
 10
119.3746
 20
-43.3514
 30
0.0
 10
117.3701
 20
-44.3136
 30
0.0
 10
117.3701
 20
-44.3136
 30
0.0
 10
117.3701
 20
-44.3136
 30
0.0
 10
122.9792
 20
-37.0999
 30
0.0
 10
122.9792
 20
-37.0999
 30
0.0
 10
122.9792
 20
-37.0999
 30
0.0
 10
120.8122
 20
-43.6679
 30
0.0
 10
129.6227
 20
-50.2148
 30
0.0
 10
137.0152
 20
-42.7698
 30
0.0
  0
SPLINE
  5
94
330
1F
100
AcDbEntity
  8
layer 1
 62
     7
100
AcDbSpline
210
0.0
220
0.0
230
1.0
 70
    11
 71
     3
 72
    20
 73
    16
 74
     0
 42
0.0000000001
 43
0.0000000001
 12
1.0
 22
0.0
 32
0.0
 13
1.0
 23
0.0
 33
0.0
 40
0.0
 40
0.0
 40
0.0
 40
0.0
 40
0.2
 40
0.2
 40
0.2
 40
0.2
 40
0.4
 40
0.4
 40
0.4
 40
0.4
 40
0.6
 40
0.6
 40
0.6
 40
0.6
 40
1.0
 40
1.0
 40
1.0
 40
1.0
 10
170.5327
 20
4.5264
 30
0.0
 10
175.152
 20
-1.3857
 30
0.0
 10
181.9675
 20
2.8463
 30
0.0
 10
182.1332
 20
8.3361
 30
0.0
 10
182.1332
 20
8.3361
 30
0.0
 10
181.9675
 20
13.827
 30
0.0
 10
175.152
 20
18.0593
 30
0.0
 10
170.5327
 20
12.1456
 30
0.0
 10
170.5327
 20
12.1456
 30
0.0
 10
166.0054
 20
17.7202
 30
0.0
 10
161.8092
 20
9.3622
 30
0.0
 10
155.2559
 20
8.3361
 30
0.0
 10
155.2559
 20
8.3361
 30
0.0
 10
161.8092
 20
7.3098
 30
0.0
 10
166.0054
 20
-1.0483
 30
0.0
 10
170.5327
 20
4.5264
 30
0.0
  0
SPLINE
  5
95
330
1F
100
AcDbEntity
  8
layer 1
 62
     7
100
AcDbSpline
210
0.0
220
0.0
230
1.0
 70
    11
 71
     3
 72
    24
 73
    20
 74
     0
 42
0.0000000001
 43
0.0000000001
 12
1.0
 22
0.0
 32
0.0
 13
1.0
 23
0.0
 33
0.0
 40
0.0
 40
0.0
 40
0.0
 40
0.0
 40
0.1666666666666667
 40
0.1666666666666667
 40
0.1666666666666667
 40
0.1666666666666667
 40
0.3333333333333333
 40
0.3333333333333333
 40
0.3333333333333333
 40
0.3333333333333333
 40
0.5
 40
0.5
 40
0.5
 40
0.5
 40
0.6666666666666666
 40
0.6666666666666666
 40
0.6666666666666666
 40
0.6666666666666666
 40
1.0
 40
1.0
 40
1.0
 40
1.0
 10
139.815
 20
6.0216
 30
0.0
 10
139.9689
 20
2.9054
 30
0.0
 10
140.0349
 20
1.8021
 30
0.0
 10
139.8347
 20
-1.376
 30
0.0
 10
139.8347
 20
-1.376
 30
0.0
 10
132.7535
 20
-10.2734
 30
0.0
 10
131.7174
 20
-11.5913
 30
0.0
 10
124.1331
 20
-21.5755
 30
0.0
 10
124.1331
 20
-21.5755
 30
0.0
 10
124.8579
 20
-16.9495
 30
0.0
 10
122.0418
 20
-14.4302
 30
0.0
 10
117.2144
 20
-15.8074
 30
0.0
 10
117.2144
 20
-15.8074
 30
0.0
 10
117.2144
 20
-15.8074
 30
0.0
 10
134.5092
 20
6.3984
 30
0.0
 10
134.5092
 20
6.3984
 30
0.0
 10
134.5092
 20
6.3984
 30
0.0
 10
134.8025
 20
4.717
 30
0.0
 10
138.7658
 20
4.6119
 30
0.0
 10
139.815
 20
6.0216
 30
0.0
  0
SPLINE
  5
96
330
1F
100
AcDbEntity
  8
layer 1
 62
     7
100
AcDbSpline
210
0.0
220
0.0
230
1.0
 70
    11
 71
     3
 72
    24
 73
    20
 74
     0
 42
0.0000000001
 43
0.0000000001
 12
1.0
 22
0.0
 32
0.0
 13
1.0
 23
0.0
 33
0.0
 40
0.0
 40
0.0
 40
0.0
 40
0.0
 40
0.1666666666666667
 40
0.1666666666666667
 40
0.1666666666666667
 40
0.1666666666666667
 40
0.3333333333333333
 40
0.3333333333333333
 40
0.3333333333333333
 40
0.3333333333333333
 40
0.5
 40
0.5
 40
0.5
 40
0.5
 40
0.6666666666666666
 40
0.6666666666666666
 40
0.6666666666666666
 40
0.6666666666666666
 40
1.0
 40
1.0
 40
1.0
 40
1.0
 10
95.9134
 20
-48.3067
 30
0.0
 10
97.3364
 20
-46.5183
 30
0.0
 10
97.187
 20
-44.6679
 30
0.0
 10
95.7267
 20
-43.6481
 30
0.0
 10
95.7267
 20
-43.6481
 30
0.0
 10
102.8096
 20
-34.7508
 30
0.0
 10
107.2484
 20
-28.8665
 30
0.0
 10
114.8343
 20
-18.8823
 30
0.0
 10
114.8343
 20
-18.8823
 30
0.0
 10
114.1083
 20
-23.5062
 30
0.0
 10
116.9257
 20
-26.0273
 30
0.0
 10
121.7514
 20
-24.6505
 30
0.0
 10
121.7514
 20
-24.6505
 30
0.0
 10
121.7514
 20
-24.6505
 30
0.0
 10
103.6274
 20
-48.4347
 30
0.0
 10
103.6274
 20
-48.4347
 30
0.0
 10
103.6274
 20
-48.4347
 30
0.0
 10
100.7684
 20
-48.3525
 30
0.0
 10
98.7577
 20
-48.3576
 30
0.0
 10
95.9134
 20
-48.3067
 30
0.0
  0
SPLINE
  5
97
330
1F
100
AcDbEntity
  8
layer 1
 62
     7
100
AcDbSpline
210
0.0
220
0.0
230
1.0
 70
    11
 71
     3
 72
    40
 73
    36
 74
     0
 42
0.0000000001
 43
0.0000000001
 12
1.0
 22
0.0
 32
0.0
 13
1.0
 23
0.0
 33
0.0
 40
0.0
 40
0.0
 40
0.0
 40
0.0
 40
0.1
 40
0.1
 40
0.1
 40
0.1
 40
0.2
 40
0.2
 40
0.2
 40
0.2
 40
0.3
 40
0.3
 40
0.3
 40
0.3
 40
0.4
 40
0.4
 40
0.4
 40
0.4
 40
0.5
 40
0.5
 40
0.5
 40
0.5
 40
0.6
 40
0.6
 40
0.6
 40
0.6
 40
0.7
 40
0.7
 40
0.7
 40
0.7
 40
0.8
 40
0.8
 40
0.8
 40
0.8
 40
1.0
 40
1.0
 40
1.0
 40
1.0
 10
122.2956
 20
4.6939
 30
0.0
 10
124.3594
 20
6.228
 30
0.0
 10
127.9949
 20
7.1998
 30
0.0
 10
131.7817
 20
6.9262
 30
0.0
 10
131.7817
 20
6.9262
 30
0.0
 10
124.6989
 20
-1.9694
 30
0.0
 10
103.9027
 20
-28.5303
 30
0.0
 10
96.3167
 20
-38.5144
 30
0.0
 10
96.3167
 20
-38.5144
 30
0.0
 10
97.2084
 20
-32.8101
 30
0.0
 10
106.0995
 20
-25.9715
 30
0.0
 10
97.8689
 20
-15.7234
 30
0.0
 10
97.8689
 20
-15.7234
 30
0.0
 10
104.1028
 20
-21.4738
 30
0.0
 10
108.5924
 20
-16.5971
 30
0.0
 10
108.1007
 20
-12.7978
 30
0.0
 10
108.1007
 20
-12.7978
 30
0.0
 10
104.5439
 20
-14.0188
 30
0.0
 10
100.4311
 20
-12.2993
 30
0.0
 10
100.9686
 20
-6.4199
 30
0.0
 10
100.9686
 20
-6.4199
 30
0.0
 10
101.4064
 20
-1.6315
 30
0.0
 10
109.8597
 20
0.1892
 30
0.0
 10
109.6842
 20
-7.1362
 30
0.0
 10
109.6842
 20
-7.1362
 30
0.0
 10
114.0571
 20
-6.9524
 30
0.0
 10
116.334
 20
-0.7416
 30
0.0
 10
111.751
 20
2.5973
 30
0.0
 10
111.751
 20
2.5973
 30
0.0
 10
110.8659
 20
3.2399
 30
0.0
 10
111.4379
 20
4.4034
 30
0.0
 10
112.5528
 20
3.6086
 30
0.0
 10
112.5528
 20
3.6086
 30
0.0
 10
116.3752
 20
0.1649
 30
0.0
 10
119.224
 20
2.2302
 30
0.0
 10
122.2956
 20
4.6939
 30
0.0
  0
SPLINE
  5
98
330
1F
100
AcDbEntity
  8
layer 1
 62
     7
100
AcDbSpline
210
0.0
220
0.0
230
1.0
 70
    11
 71
     3
 72
    20
 73
    16
 74
     0
 42
0.0000000001
 43
0.0000000001
 12
1.0
 22
0.0
 32
0.0
 13
1.0
 23
0.0
 33
0.0
 40
0.0
 40
0.0
 40
0.0
 40
0.0
 40
0.2
 40
0.2
 40
0.2
 40
0.2
 40
0.4
 40
0.4
 40
0.4
 40
0.4
 40
0.6
 40
0.6
 40
0.6
 40
0.6
 40
1.0
 40
1.0
 40
1.0
 40
1.0
 10
98.8638
 20
0.2551
 30
0.0
 10
95.7086
 20
-3.4267
 30
0.0
 10
94.5153
 20
-8.9062
 30
0.0
 10
93.4499
 20
-17.3314
 30
0.0
 10
93.4499
 20
-17.3314
 30
0.0
 10
92.3861
 20
-8.9062
 30
0.0
 10
91.1927
 20
-3.4267
 30
0.0
 10
88.0375
 20
0.255
 30
0.0
 10
88.0375
 20
0.255
 30
0.0
 10
90.7155
 20
0.8157
 30
0.0
 10
92.2909
 20
2.2907
 30
0.0
 10
93.4499
 20
4.3526
 30
0.0
 10
93.4499
 20
4.3526
 30
0.0
 10
94.6105
 20
2.2907
 30
0.0
 10
96.1858
 20
0.8157
 30
0.0
 10
98.8638
 20
0.2551
 30
0.0
  0
SPLINE
  5
99
330
1F
100
AcDbEntity
  8
layer 1
 62
     7
100
AcDbSpline
210
0.0
220
0.0
230
1.0
 70
    11
 71
     3
 72
    24
 73
    20
 74
     0
 42
0.0000000001
 43
0.0000000001
 12
1.0
 22
0.0
 32
0.0
 13
1.0
 23
0.0
 33
0.0
 40
0.0
 40
0.0
 40
0.0
 40
0.0
 40
0.1666666666666667
 40
0.1666666666666667
 40
0.1666666666666667
 40
0.1666666666666667
 40
0.3333333333333333
 40
0.3333333333333333
 40
0.3333333333333333
 40
0.3333333333333333
 40
0.5
 40
0.5
 40
0.5
 40
0.5
 40
0.6666666666666666
 40
0.6666666666666666
 40
0.6666666666666666
 40
0.6666666666666666
 40
1.0
 40
1.0
 40
1.0
 40
1.0
 10
179.704
 20
120.4807
 30
0.0
 10
179.704
 20
122.2609
 30
0.0
 10
180.4891
 20
123.8571
 30
0.0
 10
181.7333
 20
124.9421
 30
0.0
 10
181.7333
 20
124.9421
 30
0.0
 10
181.7333
 20
124.9421
 30
0.0
 10
190.0666
 20
124.9619
 30
0.0
 10
190.0666
 20
124.9619
 30
0.0
 10
190.0666
 20
124.9619
 30
0.0
 10
190.0666
 20
124.9619
 30
0.0
 10
190.0373
 20
116.5468
 30
0.0
 10
190.0373
 20
116.5468
 30
0.0
 10
190.0373
 20
116.5468
 30
0.0
 10
188.9538
 20
115.3303
 30
0.0
 10
187.3751
 20
114.5649
 30
0.0
 10
185.6199
 20
114.5649
 30
0.0
 10
185.6199
 20
114.5649
 30
0.0
 10
182.3526
 20
114.5649
 30
0.0
 10
179.704
 20
117.2135
 30
0.0
 10
179.704
 20
120.4807
 30
0.0
  0
SPLINE
  5
9A
330
1F
100
AcDbEntity
  8
layer 1
 62
     7
100
AcDbSpline
210
0.0
220
0.0
230
1.0
 70
    11
 71
     3
 72
    16
 73
    12
 74
     0
 42
0.0000000001
 43
0.0000000001
 12
1.0
 22
0.0
 32
0.0
 13
1.0
 23
0.0
 33
0.0
 40
0.0
 40
0.0
 40
0.0
 40
0.0
 40
0.25
 40
0.25
 40
0.25
 40
0.25
 40
0.5
 40
0.5
 40
0.5
 40
0.5
 40
1.0
 40
1.0
 40
1.0
 40
1.0
 10
190.0666
 20
111.6535
 30
0.0
 10
190.0666
 20
111.6535
 30
0.0
 10
190.0373
 20
94.4146
 30
0.0
 10
190.0373
 20
94.4146
 30
0.0
 10
190.0373
 20
94.4146
 30
0.0
 10
188.2538
 20
96.0965
 30
0.0
 10
183.4479
 20
103.5531
 30
0.0
 10
186.8179
 20
110.9439
 30
0.0
 10
186.8179
 20
110.9439
 30
0.0
 10
188.4913
 20
111.2143
 30
0.0
 10
188.9684
 20
111.3979
 30
0.0
 10
190.0666
 20
111.6535
 30
0.0
  0
SPLINE
  5
9B
330
1F
100
AcDbEntity
  8
layer 1
 62
     7
100
AcDbSpline
210
0.0
220
0.0
230
1.0
 70
    11
 71
     3
 72
    16
 73
    12
 74
     0
 42
0.0000000001
 43
0.0000000001
 12
1.0
 22
0.0
 32
0.0
 13
1.0
 23
0.0
 33
0.0
 40
0.0
 40
0.0
 40
0.0
 40
0.0
 40
0.25
 40
0.25
 40
0.25
 40
0.25
 40
0.5
 40
0.5
 40
0.5
 40
0.5
 40
1.0
 40
1.0
 40
1.0
 40
1.0
 10
185.1394
 20
111.054
 30
0.0
 10
183.0904
 20
108.1855
 30
0.0
 10
181.2071
 20
97.3699
 30
0.0
 10
185.8427
 20
92.9509
 30
0.0
 10
185.8427
 20
92.9509
 30
0.0
 10
184.8507
 20
92.6265
 30
0.0
 10
171.8621
 20
89.8363
 30
0.0
 10
182.5235
 20
111.6766
 30
0.0
 10
182.5235
 20
111.6766
 30
0.0
 10
183.7643
 20
111.1799
 30
0.0
 10
184.2906
 20
111.1604
 30
0.0
 10
185.1394
 20
111.054
 30
0.0
  0
SPLINE
  5
9C
330
1F
100
AcDbEntity
  8
layer 1
 62
     7
100
AcDbSpline
210
0.0
220
0.0
230
1.0
 70
    11
 71
     3
 72
    24
 73
    20
 74
     0
 42
0.0000000001
 43
0.0000000001
 12
1.0
 22
0.0
 32
0.0
 13
1.0
 23
0.0
 33
0.0
 40
0.0
 40
0.0
 40
0.0
 40
0.0
 40
0.1666666666666667
 40
0.1666666666666667
 40
0.1666666666666667
 40
0.1666666666666667
 40
0.3333333333333333
 40
0.3333333333333333
 40
0.3333333333333333
 40
0.3333333333333333
 40
0.5
 40
0.5
 40
0.5
 40
0.5
 40
0.6666666666666666
 40
0.6666666666666666
 40
0.6666666666666666
 40
0.6666666666666666
 40
1.0
 40
1.0
 40
1.0
 40
1.0
 10
180.2449
 20
112.9846
 30
0.0
 10
176.9995
 20
108.9542
 30
0.0
 10
174.3374
 20
100.8616
 30
0.0
 10
169.2427
 20
97.0275
 30
0.0
 10
169.2427
 20
97.0275
 30
0.0
 10
166.7792
 20
95.1738
 30
0.0
 10
163.4171
 20
95.5193
 30
0.0
 10
161.6715
 20
97.3456
 30
0.0
 10
161.6715
 20
97.3456
 30
0.0
 10
160.3178
 20
98.6339
 30
0.0
 10
160.1424
 20
102.2958
 30
0.0
 10
162.3601
 20
104.671
 30
0.0
 10
162.3601
 20
104.671
 30
0.0
 10
166.2873
 20
108.8787
 30
0.0
 10
174.2061
 20
112.1255
 30
0.0
 10
178.0289
 20
115.1058
 30
0.0
 10
178.0289
 20
115.1058
 30
0.0
 10
178.5038
 20
114.5762
 30
0.0
 10
179.3302
 20
113.4894
 30
0.0
 10
180.2449
 20
112.9846
 30
0.0
  0
SPLINE
  5
9D
330
1F
100
AcDbEntity
  8
layer 1
 62
     7
100
AcDbSpline
210
0.0
220
0.0
230
1.0
 70
    11
 71
     3
 72
    16
 73
    12
 74
     0
 42
0.0000000001
 43
0.0000000001
 12
1.0
 22
0.0
 32
0.0
 13
1.0
 23
0.0
 33
0.0
 40
0.0
 40
0.0
 40
0.0
 40
0.0
 40
0.25
 40
0.25
 40
0.25
 40
0.25
 40
0.5
 40
0.5
 40
0.5
 40
0.5
 40
1.0
 40
1.0
 40
1.0
 40
1.0
 10
176.7897
 20
124.9522
 30
0.0
 10
176.7897
 20
124.9522
 30
0.0
 10
159.5507
 20
124.9225
 30
0.0
 10
159.5507
 20
124.9225
 30
0.0
 10
159.5507
 20
124.9225
 30
0.0
 10
161.2321
 20
123.1409
 30
0.0
 10
168.6889
 20
118.3331
 30
0.0
 10
176.0798
 20
121.7035
 30
0.0
 10
176.0798
 20
121.7035
 30
0.0
 10
176.3504
 20
123.3788
 30
0.0
 10
176.5338
 20
123.8553
 30
0.0
 10
176.7897
 20
124.9522
 30
0.0
  0
SPLINE
  5
9E
330
1F
100
AcDbEntity
  8
layer 1
 62
     7
100
AcDbSpline
210
0.0
220
0.0
230
1.0
 70
    11
 71
     3
 72
    16
 73
    12
 74
     0
 42
0.0000000001
 43
0.0000000001
 12
1.0
 22
0.0
 32
0.0
 13
1.0
 23
0.0
 33
0.0
 40
0.0
 40
0.0
 40
0.0
 40
0.0
 40
0.25
 40
0.25
 40
0.25
 40
0.25
 40
0.5
 40
0.5
 40
0.5
 40
0.5
 40
1.0
 40
1.0
 40
1.0
 40
1.0
 10
176.2257
 20
120.1314
 30
0.0
 10
173.3555
 20
118.0828
 30
0.0
 10
162.5418
 20
116.1989
 30
0.0
 10
158.121
 20
120.8345
 30
0.0
 10
158.121
 20
120.8345
 30
0.0
 10
157.7967
 20
119.8429
 30
0.0
 10
155.0083
 20
106.8543
 30
0.0
 10
176.8468
 20
117.5152
 30
0.0
 10
176.8468
 20
117.5152
 30
0.0
 10
176.352
 20
118.7562
 30
0.0
 10
176.3306
 20
119.2823
 30
0.0
 10
176.2257
 20
120.1314
 30
0.0
  0
SPLINE
  5
9F
330
1F
100
AcDbEntity
  8
layer 1
 62
     7
100
AcDbSpline
210
0.0
220
0.0
230
1.0
 70
    11
 71
     3
 72
    20
 73
    16
 74
     0
 42
0.0000000001
 43
0.0000000001
 12
1.0
 22
0.0
 32
0.0
 13
1.0
 23
0.0
 33
0.0
 40
0.0
 40
0.0
 40
0.0
 40
0.0
 40
0.2
 40
0.2
 40
0.2
 40
0.2
 40
0.4
 40
0.4
 40
0.4
 40
0.4
 40
0.6
 40
0.6
 40
0.6
 40
0.6
 40
1.0
 40
1.0
 40
1.0
 40
1.0
 10
190.0666
 20
41.6795
 30
0.0
 10
190.0666
 20
41.6795
 30
0.0
 10
190.0373
 20
16.5877
 30
0.0
 10
190.0373
 20
16.5877
 30
0.0
 10
190.0373
 20
16.5877
 30
0.0
 10
188.9752
 20
20.2544
 30
0.0
 10
184.6362
 20
30.3693
 30
0.0
 10
175.2685
 20
36.4132
 30
0.0
 10
175.2685
 20
36.4132
 30
0.0
 10
178.2517
 20
36.9739
 30
0.0
 10
180.5513
 20
37.1735
 30
0.0
 10
181.4463
 20
41.478
 30
0.0
 10
181.4463
 20
41.478
 30
0.0
 10
184.5393
 20
38.2507
 30
0.0
 10
188.0063
 20
41.4256
 30
0.0
 10
190.0666
 20
41.6795
 30
0.0
  0
SPLINE
  5
A0
330
1F
100
AcDbEntity
  8
layer 1
 62
     7
100
AcDbSpline
210
0.0
220
0.0
230
1.0
 70
    11
 71
     3
 72
    28
 73
    24
 74
     0
 42
0.0000000001
 43
0.0000000001
 12
1.0
 22
0.0
 32
0.0
 13
1.0
 23
0.0
 33
0.0
 40
0.0
 40
0.0
 40
0.0
 40
0.0
 40
0.1428571428571428
 40
0.1428571428571428
 40
0.1428571428571428
 40
0.1428571428571428
 40
0.2857142857142857
 40
0.2857142857142857
 40
0.2857142857142857
 40
0.2857142857142857
 40
0.4285714285714285
 40
0.4285714285714285
 40
0.4285714285714285
 40
0.4285714285714285
 40
0.5714285714285714
 40
0.5714285714285714
 40
0.5714285714285714
 40
0.5714285714285714
 40
0.7142857142857143
 40
0.7142857142857143
 40
0.7142857142857143
 40
0.7142857142857143
 40
1.0
 40
1.0
 40
1.0
 40
1.0
 10
190.0666
 20
66.5602
 30
0.0
 10
190.0666
 20
66.5602
 30
0.0
 10
190.0373
 20
42.9372
 30
0.0
 10
190.0373
 20
42.9372
 30
0.0
 10
190.0373
 20
42.9372
 30
0.0
 10
186.441
 20
43.2599
 30
0.0
 10
187.1196
 20
49.928
 30
0.0
 10
181.1971
 20
49.3855
 30
0.0
 10
181.1971
 20
49.3855
 30
0.0
 10
183.4001
 20
51.9377
 30
0.0
 10
181.7052
 20
52.6195
 30
0.0
 10
182.7052
 20
55.0357
 30
0.0
 10
182.7052
 20
55.0357
 30
0.0
 10
183.0543
 20
55.8779
 30
0.0
 10
184.977
 20
56.0848
 30
0.0
 10
186.5129
 20
56.2732
 30
0.0
 10
186.5129
 20
56.2732
 30
0.0
 10
186.5308
 20
60.3217
 30
0.0
 10
186.4739
 20
62.1005
 30
0.0
 10
186.603
 20
66.536
 30
0.0
 10
186.603
 20
66.536
 30
0.0
 10
187.0914
 20
64.687
 30
0.0
 10
190.0423
 20
65.364
 30
0.0
 10
190.0666
 20
66.5602
 30
0.0
  0
SPLINE
  5
A1
330
1F
100
AcDbEntity
  8
layer 1
 62
     7
100
AcDbSpline
210
0.0
220
0.0
230
1.0
 70
    11
 71
     3
 72
    52
 73
    48
 74
     0
 42
0.0000000001
 43
0.0000000001
 12
1.0
 22
0.0
 32
0.0
 13
1.0
 23
0.0
 33
0.0
 40
0.0
 40
0.0
 40
0.0
 40
0.0
 40
0.0769230769230769
 40
0.0769230769230769
 40
0.0769230769230769
 40
0.0769230769230769
 40
0.1538461538461539
 40
0.1538461538461539
 40
0.1538461538461539
 40
0.1538461538461539
 40
0.2307692307692308
 40
0.2307692307692308
 40
0.2307692307692308
 40
0.2307692307692308
 40
0.3076923076923077
 40
0.3076923076923077
 40
0.3076923076923077
 40
0.3076923076923077
 40
0.3846153846153846
 40
0.3846153846153846
 40
0.3846153846153846
 40
0.3846153846153846
 40
0.4615384615384616
 40
0.4615384615384616
 40
0.4615384615384616
 40
0.4615384615384616
 40
0.5384615384615384
 40
0.5384615384615384
 40
0.5384615384615384
 40
0.5384615384615384
 40
0.6153846153846154
 40
0.6153846153846154
 40
0.6153846153846154
 40
0.6153846153846154
 40
0.6923076923076923
 40
0.6923076923076923
 40
0.6923076923076923
 40
0.6923076923076923
 40
0.7692307692307693
 40
0.7692307692307693
 40
0.7692307692307693
 40
0.7692307692307693
 40
0.8461538461538461
 40
0.8461538461538461
 40
0.8461538461538461
 40
0.8461538461538461
 40
1.0
 40
1.0
 40
1.0
 40
1.0
 10
190.0666
 20
69.7339
 30
0.0
 10
190.0666
 20
69.7339
 30
0.0
 10
190.0373
 20
90.3086
 30
0.0
 10
190.0373
 20
90.3086
 30
0.0
 10
190.0373
 20
90.3086
 30
0.0
 10
185.6392
 20
87.0995
 30
0.0
 10
175.9455
 20
86.7924
 30
0.0
 10
174.5145
 20
94.9277
 30
0.0
 10
174.5145
 20
94.9277
 30
0.0
 10
171.8638
 20
91.9413
 30
0.0
 10
167.086
 20
86.2566
 30
0.0
 10
159.6146
 20
89.5956
 30
0.0
 10
159.6146
 20
89.5956
 30
0.0
 10
159.2998
 20
87.9483
 30
0.0
 10
157.6393
 20
86.1991
 30
0.0
 10
154.9168
 20
86.9926
 30
0.0
 10
154.9168
 20
86.9926
 30
0.0
 10
155.3708
 20
85.678
 30
0.0
 10
153.702
 20
83.1896
 30
0.0
 10
151.2909
 20
83.48
 30
0.0
 10
151.2909
 20
83.48
 30
0.0
 10
153.2463
 20
80.8833
 30
0.0
 10
161.139
 20
79.5133
 30
0.0
 10
164.5811
 20
80.4801
 30
0.0
 10
164.5811
 20
80.4801
 30
0.0
 10
164.5811
 20
80.4801
 30
0.0
 10
164.7267
 20
76.0773
 30
0.0
 10
164.7267
 20
76.0773
 30
0.0
 10
164.7267
 20
76.0773
 30
0.0
 10
165.4465
 20
77.2805
 30
0.0
 10
167.161
 20
77.0413
 30
0.0
 10
167.8627
 20
75.8709
 30
0.0
 10
167.8627
 20
75.8709
 30
0.0
 10
167.8627
 20
75.8709
 30
0.0
 10
167.8954
 20
87.5122
 30
0.0
 10
167.8954
 20
87.5122
 30
0.0
 10
167.8954
 20
87.5122
 30
0.0
 10
173.0866
 20
81.8112
 30
0.0
 10
183.7479
 20
82.0817
 30
0.0
 10
186.5129
 20
83.1207
 30
0.0
 10
186.5129
 20
83.1207
 30
0.0
 10
186.5308
 20
79.0741
 30
0.0
 10
186.4739
 20
74.1941
 30
0.0
 10
186.603
 20
69.7587
 30
0.0
 10
186.603
 20
69.7587
 30
0.0
 10
187.0914
 20
71.6075
 30
0.0
 10
190.0423
 20
70.9302
 30
0.0
 10
190.0666
 20
69.7339
 30
0.0
  0
SPLINE
  5
A2
330
1F
100
AcDbEntity
  8
layer 1
 62
     7
100
AcDbSpline
210
0.0
220
0.0
230
1.0
 70
    11
 71
     3
 72
    20
 73
    16
 74
     0
 42
0.0000000001
 43
0.0000000001
 12
1.0
 22
0.0
 32
0.0
 13
1.0
 23
0.0
 33
0.0
 40
0.0
 40
0.0
 40
0.0
 40
0.0
 40
0.2
 40
0.2
 40
0.2
 40
0.2
 40
0.4
 40
0.4
 40
0.4
 40
0.4
 40
0.6
 40
0.6
 40
0.6
 40
0.6
 40
1.0
 40
1.0
 40
1.0
 40
1.0
 10
164.7418
 20
68.5405
 30
0.0
 10
164.7418
 20
68.5405
 30
0.0
 10
164.7267
 20
72.3549
 30
0.0
 10
164.7267
 20
72.3549
 30
0.0
 10
164.7267
 20
72.3549
 30
0.0
 10
165.4465
 20
71.1518
 30
0.0
 10
167.161
 20
71.391
 30
0.0
 10
167.8627
 20
72.5613
 30
0.0
 10
167.8627
 20
72.5613
 30
0.0
 10
167.8627
 20
72.5613
 30
0.0
 10
167.8954
 20
68.6719
 30
0.0
 10
167.8954
 20
68.6719
 30
0.0
 10
167.8954
 20
68.6719
 30
0.0
 10
166.4922
 20
68.8209
 30
0.0
 10
164.742
 20
68.5405
 30
0.0
 10
164.7418
 20
68.5405
 30
0.0
  0
SPLINE
  5
A3
330
1F
100
AcDbEntity
  8
layer 1
 62
     7
100
AcDbSpline
210
0.0
220
0.0
230
1.0
 70
    11
 71
     3
 72
    40
 73
    36
 74
     0
 42
0.0000000001
 43
0.0000000001
 12
1.0
 22
0.0
 32
0.0
 13
1.0
 23
0.0
 33
0.0
 40
0.0
 40
0.0
 40
0.0
 40
0.0
 40
0.1
 40
0.1
 40
0.1
 40
0.1
 40
0.2
 40
0.2
 40
0.2
 40
0.2
 40
0.3
 40
0.3
 40
0.3
 40
0.3
 40
0.4
 40
0.4
 40
0.4
 40
0.4
 40
0.5
 40
0.5
 40
0.5
 40
0.5
 40
0.6
 40
0.6
 40
0.6
 40
0.6
 40
0.7
 40
0.7
 40
0.7
 40
0.7
 40
0.8
 40
0.8
 40
0.8
 40
0.8
 40
1.0
 40
1.0
 40
1.0
 40
1.0
 10
182.6347
 20
63.2642
 30
0.0
 10
182.6347
 20
63.2642
 30
0.0
 10
182.6053
 20
78.6545
 30
0.0
 10
182.6053
 20
78.6545
 30
0.0
 10
182.6053
 20
78.6545
 30
0.0
 10
177.245
 20
78.1705
 30
0.0
 10
174.8225
 20
78.8263
 30
0.0
 10
171.6803
 20
80.3327
 30
0.0
 10
171.6803
 20
80.3327
 30
0.0
 10
171.6803
 20
80.3327
 30
0.0
 10
171.7311
 20
70.25
 30
0.0
 10
171.7311
 20
70.25
 30
0.0
 10
171.7311
 20
70.25
 30
0.0
 10
172.7701
 20
70.1175
 30
0.0
 10
174.1113
 20
69.8241
 30
0.0
 10
175.3471
 20
69.0272
 30
0.0
 10
175.3471
 20
69.0272
 30
0.0
 10
175.3471
 20
69.0272
 30
0.0
 10
175.3814
 20
73.6662
 30
0.0
 10
175.3814
 20
73.6662
 30
0.0
 10
175.3814
 20
73.6662
 30
0.0
 10
176.2946
 20
73.6301
 30
0.0
 10
177.7599
 20
73.6334
 30
0.0
 10
179.0825
 20
73.8185
 30
0.0
 10
179.0825
 20
73.8185
 30
0.0
 10
179.0989
 20
69.7701
 30
0.0
 10
179.0418
 20
67.7243
 30
0.0
 10
179.1728
 20
63.2889
 30
0.0
 10
179.1728
 20
63.2889
 30
0.0
 10
180.9956
 20
62.1971
 30
0.0
 10
181.915
 20
61.307
 30
0.0
 10
182.6347
 20
58.5598
 30
0.0
 10
182.6347
 20
58.5598
 30
0.0
 10
182.6347
 20
58.5598
 30
0.0
 10
182.6347
 20
63.2642
 30
0.0
 10
182.6347
 20
63.2642
 30
0.0
  0
SPLINE
  5
A4
330
1F
100
AcDbEntity
  8
layer 1
 62
     7
100
AcDbSpline
210
0.0
220
0.0
230
1.0
 70
    11
 71
     3
 72
    52
 73
    48
 74
     0
 42
0.0000000001
 43
0.0000000001
 12
1.0
 22
0.0
 32
0.0
 13
1.0
 23
0.0
 33
0.0
 40
0.0
 40
0.0
 40
0.0
 40
0.0
 40
0.0769230769230769
 40
0.0769230769230769
 40
0.0769230769230769
 40
0.0769230769230769
 40
0.1538461538461539
 40
0.1538461538461539
 40
0.1538461538461539
 40
0.1538461538461539
 40
0.2307692307692308
 40
0.2307692307692308
 40
0.2307692307692308
 40
0.2307692307692308
 40
0.3076923076923077
 40
0.3076923076923077
 40
0.3076923076923077
 40
0.3076923076923077
 40
0.3846153846153846
 40
0.3846153846153846
 40
0.3846153846153846
 40
0.3846153846153846
 40
0.4615384615384616
 40
0.4615384615384616
 40
0.4615384615384616
 40
0.4615384615384616
 40
0.5384615384615384
 40
0.5384615384615384
 40
0.5384615384615384
 40
0.5384615384615384
 40
0.6153846153846154
 40
0.6153846153846154
 40
0.6153846153846154
 40
0.6153846153846154
 40
0.6923076923076923
 40
0.6923076923076923
 40
0.6923076923076923
 40
0.6923076923076923
 40
0.7692307692307693
 40
0.7692307692307693
 40
0.7692307692307693
 40
0.7692307692307693
 40
0.8461538461538461
 40
0.8461538461538461
 40
0.8461538461538461
 40
0.8461538461538461
 40
1.0
 40
1.0
 40
1.0
 40
1.0
 10
134.2927
 20
125.0065
 30
0.0
 10
134.2927
 20
125.0065
 30
0.0
 10
154.869
 20
124.9767
 30
0.0
 10
154.869
 20
124.9767
 30
0.0
 10
154.869
 20
124.9767
 30
0.0
 10
151.6596
 20
120.579
 30
0.0
 10
151.353
 20
110.8848
 30
0.0
 10
159.4882
 20
109.4538
 30
0.0
 10
159.4882
 20
109.4538
 30
0.0
 10
156.5
 20
106.8036
 30
0.0
 10
150.8171
 20
102.0252
 30
0.0
 10
154.156
 20
94.5555
 30
0.0
 10
154.156
 20
94.5555
 30
0.0
 10
152.5086
 20
94.2391
 30
0.0
 10
150.7595
 20
92.5787
 30
0.0
 10
151.5531
 20
89.8561
 30
0.0
 10
151.5531
 20
89.8561
 30
0.0
 10
150.2368
 20
90.3102
 30
0.0
 10
148.2813
 20
88.8415
 30
0.0
 10
148.5713
 20
86.4304
 30
0.0
 10
148.5713
 20
86.4304
 30
0.0
 10
145.7749
 20
89.5844
 30
0.0
 10
145.7195
 20
94.6852
 30
0.0
 10
146.4195
 20
99.1256
 30
0.0
 10
146.4195
 20
99.1256
 30
0.0
 10
146.4195
 20
99.1256
 30
0.0
 10
140.5707
 20
99.088
 30
0.0
 10
140.5707
 20
99.088
 30
0.0
 10
140.5707
 20
99.088
 30
0.0
 10
141.7737
 20
99.8076
 30
0.0
 10
141.6
 20
102.1008
 30
0.0
 10
140.4314
 20
102.8023
 30
0.0
 10
140.4314
 20
102.8023
 30
0.0
 10
140.4314
 20
102.8023
 30
0.0
 10
152.0726
 20
102.8368
 30
0.0
 10
152.0726
 20
102.8368
 30
0.0
 10
152.0726
 20
102.8368
 30
0.0
 10
146.3699
 20
108.0263
 30
0.0
 10
146.6406
 20
118.6872
 30
0.0
 10
147.6796
 20
121.4525
 30
0.0
 10
147.6796
 20
121.4525
 30
0.0
 10
143.6326
 20
121.4706
 30
0.0
 10
138.7529
 20
121.4131
 30
0.0
 10
134.3174
 20
121.5445
 30
0.0
 10
134.3174
 20
121.5445
 30
0.0
 10
136.1663
 20
122.0312
 30
0.0
 10
135.4912
 20
124.9816
 30
0.0
 10
134.2927
 20
125.0065
 30
0.0
  0
SPLINE
  5
A5
330
1F
100
AcDbEntity
  8
layer 1
 62
     7
100
AcDbSpline
210
0.0
220
0.0
230
1.0
 70
    11
 71
     3
 72
    28
 73
    24
 74
     0
 42
0.0000000001
 43
0.0000000001
 12
1.0
 22
0.0
 32
0.0
 13
1.0
 23
0.0
 33
0.0
 40
0.0
 40
0.0
 40
0.0
 40
0.0
 40
0.1428571428571428
 40
0.1428571428571428
 40
0.1428571428571428
 40
0.1428571428571428
 40
0.2857142857142857
 40
0.2857142857142857
 40
0.2857142857142857
 40
0.2857142857142857
 40
0.4285714285714285
 40
0.4285714285714285
 40
0.4285714285714285
 40
0.4285714285714285
 40
0.5714285714285714
 40
0.5714285714285714
 40
0.5714285714285714
 40
0.5714285714285714
 40
0.7142857142857143
 40
0.7142857142857143
 40
0.7142857142857143
 40
0.7142857142857143
 40
1.0
 40
1.0
 40
1.0
 40
1.0
 10
164.619
 20
65.1688
 30
0.0
 10
164.619
 20
65.1688
 30
0.0
 10
164.6483
 20
40.675
 30
0.0
 10
164.6483
 20
40.675
 30
0.0
 10
164.6483
 20
40.675
 30
0.0
 10
166.8416
 20
40.2109
 30
0.0
 10
171.254
 20
38.9964
 30
0.0
 10
173.0408
 20
37.6541
 30
0.0
 10
173.0408
 20
37.6541
 30
0.0
 10
172.2049
 20
39.1245
 30
0.0
 10
171.2919
 20
43.3236
 30
0.0
 10
173.8507
 20
45.7381
 30
0.0
 10
173.8507
 20
45.7381
 30
0.0
 10
168.4052
 20
43.3434
 30
0.0
 10
164.8565
 20
49.9771
 30
0.0
 10
165.8418
 20
52.8474
 30
0.0
 10
165.8418
 20
52.8474
 30
0.0
 10
169.9117
 20
49.1509
 30
0.0
 10
174.0668
 20
56.2043
 30
0.0
 10
179.0943
 20
51.1261
 30
0.0
 10
179.0943
 20
51.1261
 30
0.0
 10
181.0577
 20
67.0622
 30
0.0
 10
166.5446
 20
65.7131
 30
0.0
 10
164.619
 20
65.1688
 30
0.0
  0
SPLINE
  5
A6
330
1F
100
AcDbEntity
  8
layer 1
 62
     7
100
AcDbSpline
210
0.0
220
0.0
230
1.0
 70
    11
 71
     3
 72
    56
 73
    52
 74
     0
 42
0.0000000001
 43
0.0000000001
 12
1.0
 22
0.0
 32
0.0
 13
1.0
 23
0.0
 33
0.0
 40
0.0
 40
0.0
 40
0.0
 40
0.0
 40
0.0714285714285714
 40
0.0714285714285714
 40
0.0714285714285714
 40
0.0714285714285714
 40
0.1428571428571428
 40
0.1428571428571428
 40
0.1428571428571428
 40
0.1428571428571428
 40
0.2142857142857143
 40
0.2142857142857143
 40
0.2142857142857143
 40
0.2142857142857143
 40
0.2857142857142857
 40
0.2857142857142857
 40
0.2857142857142857
 40
0.2857142857142857
 40
0.3571428571428572
 40
0.3571428571428572
 40
0.3571428571428572
 40
0.3571428571428572
 40
0.4285714285714285
 40
0.4285714285714285
 40
0.4285714285714285
 40
0.4285714285714285
 40
0.5
 40
0.5
 40
0.5
 40
0.5
 40
0.5714285714285714
 40
0.5714285714285714
 40
0.5714285714285714
 40
0.5714285714285714
 40
0.6428571428571429
 40
0.6428571428571429
 40
0.6428571428571429
 40
0.6428571428571429
 40
0.7142857142857143
 40
0.7142857142857143
 40
0.7142857142857143
 40
0.7142857142857143
 40
0.7857142857142857
 40
0.7857142857142857
 40
0.7857142857142857
 40
0.7857142857142857
 40
0.8571428571428571
 40
0.8571428571428571
 40
0.8571428571428571
 40
0.8571428571428571
 40
1.0
 40
1.0
 40
1.0
 40
1.0
 10
144.9457
 20
106.3333
 30
0.0
 10
144.4048
 20
107.6265
 30
0.0
 10
142.5753
 20
109.8915
 30
0.0
 10
143.1522
 20
117.6315
 30
0.0
 10
143.1522
 20
117.6315
 30
0.0
 10
143.1522
 20
117.6315
 30
0.0
 10
123.4676
 20
117.6303
 30
0.0
 10
123.4676
 20
117.6303
 30
0.0
 10
123.4676
 20
117.6303
 30
0.0
 10
123.3825
 20
116.9693
 30
0.0
 10
122.2025
 20
113.4403
 30
0.0
 10
120.0599
 20
111.875
 30
0.0
 10
120.0599
 20
111.875
 30
0.0
 10
122.4316
 20
108.349
 30
0.0
 10
124.1416
 20
105.3528
 30
0.0
 10
126.2985
 20
98.8798
 30
0.0
 10
126.2985
 20
98.8798
 30
0.0
 10
130.8358
 20
98.9273
 30
0.0
 10
132.6503
 20
98.8977
 30
0.0
 10
137.4416
 20
98.9074
 30
0.0
 10
137.4416
 20
98.9074
 30
0.0
 10
135.7517
 20
99.4997
 30
0.0
 10
135.8944
 20
102.4268
 30
0.0
 10
137.4562
 20
102.9728
 30
0.0
 10
137.4562
 20
102.9728
 30
0.0
 10
134.9713
 20
102.9792
 30
0.0
 10
131.5916
 20
102.8397
 30
0.0
 10
131.7863
 20
102.9169
 30
0.0
 10
131.7863
 20
102.9169
 30
0.0
 10
131.3914
 20
106.9361
 30
0.0
 10
129.3047
 20
111.8797
 30
0.0
 10
126.5297
 20
113.9157
 30
0.0
 10
126.5297
 20
113.9157
 30
0.0
 10
126.5297
 20
113.9157
 30
0.0
 10
138.1596
 20
113.9794
 30
0.0
 10
138.1596
 20
113.9794
 30
0.0
 10
138.1596
 20
113.9794
 30
0.0
 10
138.1251
 20
113.067
 30
0.0
 10
138.1776
 20
111.8961
 30
0.0
 10
138.2628
 20
110.4274
 30
0.0
 10
138.2628
 20
110.4274
 30
0.0
 10
136.7269
 20
110.3603
 30
0.0
 10
135.322
 20
110.4177
 30
0.0
 10
133.4963
 20
110.2868
 30
0.0
 10
133.4963
 20
110.2868
 30
0.0
 10
133.9796
 20
109.2526
 30
0.0
 10
134.6158
 20
107.6427
 30
0.0
 10
134.7749
 20
106.4313
 30
0.0
 10
134.7749
 20
106.4313
 30
0.0
 10
134.7749
 20
106.4313
 30
0.0
 10
144.9457
 20
106.3333
 30
0.0
 10
144.9457
 20
106.3333
 30
0.0
  0
SPLINE
  5
A7
330
1F
100
AcDbEntity
  8
layer 1
 62
     7
100
AcDbSpline
210
0.0
220
0.0
230
1.0
 70
    11
 71
     3
 72
    24
 73
    20
 74
     0
 42
0.0000000001
 43
0.0000000001
 12
1.0
 22
0.0
 32
0.0
 13
1.0
 23
0.0
 33
0.0
 40
0.0
 40
0.0
 40
0.0
 40
0.0
 40
0.1666666666666667
 40
0.1666666666666667
 40
0.1666666666666667
 40
0.1666666666666667
 40
0.3333333333333333
 40
0.3333333333333333
 40
0.3333333333333333
 40
0.3333333333333333
 40
0.5
 40
0.5
 40
0.5
 40
0.5
 40
0.6666666666666666
 40
0.6666666666666666
 40
0.6666666666666666
 40
0.6666666666666666
 40
1.0
 40
1.0
 40
1.0
 40
1.0
 10
131.3553
 20
125.0065
 30
0.0
 10
131.3553
 20
125.0065
 30
0.0
 10
99.2574
 20
124.9767
 30
0.0
 10
99.2574
 20
124.9767
 30
0.0
 10
99.2574
 20
124.9767
 30
0.0
 10
112.082
 20
121.3528
 30
0.0
 10
114.2279
 20
117.7939
 30
0.0
 10
117.9093
 20
114.5565
 30
0.0
 10
117.9093
 20
114.5565
 30
0.0
 10
119.9679
 20
116.5943
 30
0.0
 10
120.683
 20
119.0821
 30
0.0
 10
121.1203
 20
121.4525
 30
0.0
 10
121.1203
 20
121.4525
 30
0.0
 10
125.1675
 20
121.4706
 30
0.0
 10
126.8951
 20
121.4131
 30
0.0
 10
131.331
 20
121.5445
 30
0.0
 10
131.331
 20
121.5445
 30
0.0
 10
129.4817
 20
122.0312
 30
0.0
 10
130.159
 20
124.9816
 30
0.0
 10
131.3553
 20
125.0065
 30
0.0
  0
SPLINE
  5
A8
330
1F
100
AcDbEntity
  8
layer 1
 62
     7
100
AcDbSpline
210
0.0
220
0.0
230
1.0
 70
    11
 71
     3
 72
    24
 73
    20
 74
     0
 42
0.0000000001
 43
0.0000000001
 12
1.0
 22
0.0
 32
0.0
 13
1.0
 23
0.0
 33
0.0
 40
0.0
 40
0.0
 40
0.0
 40
0.0
 40
0.1666666666666667
 40
0.1666666666666667
 40
0.1666666666666667
 40
0.1666666666666667
 40
0.3333333333333333
 40
0.3333333333333333
 40
0.3333333333333333
 40
0.3333333333333333
 40
0.5
 40
0.5
 40
0.5
 40
0.5
 40
0.6666666666666666
 40
0.6666666666666666
 40
0.6666666666666666
 40
0.6666666666666666
 40
1.0
 40
1.0
 40
1.0
 40
1.0
 10
98.2541
 20
99.9848
 30
0.0
 10
103.8632
 20
93.2475
 30
0.0
 10
95.0776
 20
88.358
 30
0.0
 10
97.6314
 20
81.2278
 30
0.0
 10
97.6314
 20
81.2278
 30
0.0
 10
94.963
 20
83.801
 30
0.0
 10
91.16
 20
83.1325
 30
0.0
 10
89.2699
 20
81.2278
 30
0.0
 10
89.2699
 20
81.2278
 30
0.0
 10
91.8237
 20
88.3582
 30
0.0
 10
83.0382
 20
93.2475
 30
0.0
 10
88.6472
 20
99.9846
 30
0.0
 10
88.6472
 20
99.9846
 30
0.0
 10
80.2514
 20
104.5887
 30
0.0
 10
85.0461
 20
117.1842
 30
0.0
 10
93.4499
 20
116.6974
 30
0.0
 10
93.4499
 20
116.6974
 30
0.0
 10
101.8553
 20
117.1842
 30
0.0
 10
106.65
 20
104.5887
 30
0.0
 10
98.2541
 20
99.9848
 30
0.0
  0
SPLINE
  5
A9
330
1F
100
AcDbEntity
  8
layer 1
 62
     7
100
AcDbSpline
210
0.0
220
0.0
230
1.0
 70
    11
 71
     3
 72
    32
 73
    28
 74
     0
 42
0.0000000001
 43
0.0000000001
 12
1.0
 22
0.0
 32
0.0
 13
1.0
 23
0.0
 33
0.0
 40
0.0
 40
0.0
 40
0.0
 40
0.0
 40
0.125
 40
0.125
 40
0.125
 40
0.125
 40
0.25
 40
0.25
 40
0.25
 40
0.25
 40
0.375
 40
0.375
 40
0.375
 40
0.375
 40
0.5
 40
0.5
 40
0.5
 40
0.5
 40
0.625
 40
0.625
 40
0.625
 40
0.625
 40
0.75
 40
0.75
 40
0.75
 40
0.75
 40
1.0
 40
1.0
 40
1.0
 40
1.0
 10
117.9521
 20
90.3318
 30
0.0
 10
119.0667
 20
90.3939
 30
0.0
 10
119.5517
 20
90.3021
 30
0.0
 10
120.4254
 20
90.3021
 30
0.0
 10
120.4254
 20
90.3021
 30
0.0
 10
116.6392
 20
89.0446
 30
0.0
 10
113.672
 20
86.7698
 30
0.0
 10
112.4052
 20
82.5077
 30
0.0
 10
112.4052
 20
82.5077
 30
0.0
 10
111.1693
 20
86.0909
 30
0.0
 10
107.4481
 20
85.1404
 30
0.0
 10
106.7516
 20
84.1652
 30
0.0
 10
106.7516
 20
84.1652
 30
0.0
 10
106.1518
 20
83.3245
 30
0.0
 10
105.1435
 20
80.0965
 30
0.0
 10
108.8119
 20
79.9588
 30
0.0
 10
108.8119
 20
79.9588
 30
0.0
 10
104.2371
 20
73.8596
 30
0.0
 10
96.2727
 20
82.1438
 30
0.0
 10
106.0352
 20
90.956
 30
0.0
 10
106.0352
 20
90.956
 30
0.0
 10
115.3555
 20
98.0141
 30
0.0
 10
112.669
 20
107.5869
 30
0.0
 10
112.669
 20
107.5869
 30
0.0
 10
112.669
 20
107.5869
 30
0.0
 10
114.6589
 20
106.8431
 30
0.0
 10
118.8635
 20
95.8228
 30
0.0
 10
117.9521
 20
90.3318
 30
0.0
  0
SPLINE
  5
AA
330
1F
100
AcDbEntity
  8
layer 1
 62
     7
100
AcDbSpline
210
0.0
220
0.0
230
1.0
 70
    11
 71
     3
 72
    16
 73
    12
 74
     0
 42
0.0000000001
 43
0.0000000001
 12
1.0
 22
0.0
 32
0.0
 13
1.0
 23
0.0
 33
0.0
 40
0.0
 40
0.0
 40
0.0
 40
0.0
 40
0.25
 40
0.25
 40
0.25
 40
0.25
 40
0.5
 40
0.5
 40
0.5
 40
0.5
 40
1.0
 40
1.0
 40
1.0
 40
1.0
 10
148.7173
 20
55.0257
 30
0.0
 10
151.4088
 20
57.6698
 30
0.0
 10
153.4888
 20
60.2268
 30
0.0
 10
156.0003
 20
61.7267
 30
0.0
 10
156.0003
 20
61.7267
 30
0.0
 10
156.0003
 20
61.7267
 30
0.0
 10
156.0347
 20
53.6178
 30
0.0
 10
156.0347
 20
53.6178
 30
0.0
 10
156.0347
 20
53.6178
 30
0.0
 10
152.8627
 20
57.1876
 30
0.0
 10
148.7173
 20
55.0257
 30
0.0
 10
148.7173
 20
55.0257
 30
0.0
  0
SPLINE
  5
AB
330
1F
100
AcDbEntity
  8
layer 1
 62
     7
100
AcDbSpline
210
0.0
220
0.0
230
1.0
 70
    11
 71
     3
 72
    32
 73
    28
 74
     0
 42
0.0000000001
 43
0.0000000001
 12
1.0
 22
0.0
 32
0.0
 13
1.0
 23
0.0
 33
0.0
 40
0.0
 40
0.0
 40
0.0
 40
0.0
 40
0.125
 40
0.125
 40
0.125
 40
0.125
 40
0.25
 40
0.25
 40
0.25
 40
0.25
 40
0.375
 40
0.375
 40
0.375
 40
0.375
 40
0.5
 40
0.5
 40
0.5
 40
0.5
 40
0.625
 40
0.625
 40
0.625
 40
0.625
 40
0.75
 40
0.75
 40
0.75
 40
0.75
 40
1.0
 40
1.0
 40
1.0
 40
1.0
 10
138.5103
 20
58.8468
 30
0.0
 10
138.9891
 20
72.0729
 30
0.0
 10
142.5967
 20
84.5713
 30
0.0
 10
128.2442
 20
90.1562
 30
0.0
 10
128.2442
 20
90.1562
 30
0.0
 10
130.9701
 20
90.1922
 30
0.0
 10
134.3011
 20
90.0907
 30
0.0
 10
137.9745
 20
90.2153
 30
0.0
 10
137.9745
 20
90.2153
 30
0.0
 10
138.512
 20
81.7525
 30
0.0
 10
146.0292
 20
73.8693
 30
0.0
 10
156.0003
 20
72.2764
 30
0.0
 10
156.0003
 20
72.2764
 30
0.0
 10
156.0003
 20
72.2764
 30
0.0
 10
156.0347
 20
65.3081
 30
0.0
 10
156.0347
 20
65.3081
 30
0.0
 10
156.0347
 20
65.3081
 30
0.0
 10
153.1708
 20
63.597
 30
0.0
 10
148.8797
 20
60.5479
 30
0.0
 10
147.993
 20
57.3256
 30
0.0
 10
147.993
 20
57.3256
 30
0.0
 10
148.56
 20
60.4972
 30
0.0
 10
145.1195
 20
66.3114
 30
0.0
 10
146.3061
 20
69.1225
 30
0.0
 10
146.3061
 20
69.1225
 30
0.0
 10
137.9152
 20
66.6472
 30
0.0
 10
138.5103
 20
58.8468
 30
0.0
 10
138.5103
 20
58.8468
 30
0.0
  0
SPLINE
  5
AC
330
1F
100
AcDbEntity
  8
layer 1
 62
     7
100
AcDbSpline
210
0.0
220
0.0
230
1.0
 70
    11
 71
     3
 72
    48
 73
    44
 74
     0
 42
0.0000000001
 43
0.0000000001
 12
1.0
 22
0.0
 32
0.0
 13
1.0
 23
0.0
 33
0.0
 40
0.0
 40
0.0
 40
0.0
 40
0.0
 40
0.0833333333333333
 40
0.0833333333333333
 40
0.0833333333333333
 40
0.0833333333333333
 40
0.1666666666666667
 40
0.1666666666666667
 40
0.1666666666666667
 40
0.1666666666666667
 40
0.25
 40
0.25
 40
0.25
 40
0.25
 40
0.3333333333333333
 40
0.3333333333333333
 40
0.3333333333333333
 40
0.3333333333333333
 40
0.4166666666666667
 40
0.4166666666666667
 40
0.4166666666666667
 40
0.4166666666666667
 40
0.5
 40
0.5
 40
0.5
 40
0.5
 40
0.5833333333333334
 40
0.5833333333333334
 40
0.5833333333333334
 40
0.5833333333333334
 40
0.6666666666666666
 40
0.6666666666666666
 40
0.6666666666666666
 40
0.6666666666666666
 40
0.75
 40
0.75
 40
0.75
 40
0.75
 40
0.8333333333333334
 40
0.8333333333333334
 40
0.8333333333333334
 40
0.8333333333333334
 40
1.0
 40
1.0
 40
1.0
 40
1.0
 10
148.9451
 20
38.4884
 30
0.0
 10
149.5565
 20
39.934
 30
0.0
 10
150.9169
 20
42.2795
 30
0.0
 10
153.5577
 20
41.5142
 30
0.0
 10
153.5577
 20
41.5142
 30
0.0
 10
153.83
 20
41.7929
 30
0.0
 10
152.5023
 20
46.0923
 30
0.0
 10
147.6091
 20
43.2451
 30
0.0
 10
147.6091
 20
43.2451
 30
0.0
 10
147.2108
 20
43.7088
 30
0.0
 10
146.2226
 20
49.3443
 30
0.0
 10
149.4663
 20
51.187
 30
0.0
 10
149.4663
 20
51.187
 30
0.0
 10
154.4955
 20
54.0421
 30
0.0
 10
156.4933
 20
46.4859
 30
0.0
 10
150.6254
 20
45.9857
 30
0.0
 10
150.6254
 20
45.9857
 30
0.0
 10
151.7906
 20
43.5876
 30
0.0
 10
155.1476
 20
45.1926
 30
0.0
 10
156.0003
 20
45.702
 30
0.0
 10
156.0003
 20
45.702
 30
0.0
 10
156.0003
 20
45.702
 30
0.0
 10
156.0347
 20
33.0315
 30
0.0
 10
156.0347
 20
33.0315
 30
0.0
 10
156.0347
 20
33.0315
 30
0.0
 10
170.1953
 20
32.499
 30
0.0
 10
176.237
 20
24.3604
 30
0.0
 10
177.1913
 20
22.9882
 30
0.0
 10
177.1913
 20
22.9882
 30
0.0
 10
170.3707
 20
27.973
 30
0.0
 10
165.2614
 20
28.3174
 30
0.0
 10
160.8503
 20
29.4387
 30
0.0
 10
160.8503
 20
29.4387
 30
0.0
 10
156.6477
 20
30.5057
 30
0.0
 10
153.7528
 20
32.2921
 30
0.0
 10
153.7838
 20
36.6738
 30
0.0
 10
153.7838
 20
36.6738
 30
0.0
 10
152.6479
 20
36.1409
 30
0.0
 10
151.4533
 20
32.1889
 30
0.0
 10
153.5036
 20
29.6203
 30
0.0
 10
153.5036
 20
29.6203
 30
0.0
 10
147.2243
 20
32.23
 30
0.0
 10
148.9451
 20
38.4883
 30
0.0
 10
148.9451
 20
38.4884
 30
0.0
  0
SPLINE
  5
AD
330
1F
100
AcDbEntity
  8
layer 1
 62
     7
100
AcDbSpline
210
0.0
220
0.0
230
1.0
 70
    11
 71
     3
 72
    24
 73
    20
 74
     0
 42
0.0000000001
 43
0.0000000001
 12
1.0
 22
0.0
 32
0.0
 13
1.0
 23
0.0
 33
0.0
 40
0.0
 40
0.0
 40
0.0
 40
0.0
 40
0.1666666666666667
 40
0.1666666666666667
 40
0.1666666666666667
 40
0.1666666666666667
 40
0.3333333333333333
 40
0.3333333333333333
 40
0.3333333333333333
 40
0.3333333333333333
 40
0.5
 40
0.5
 40
0.5
 40
0.5
 40
0.6666666666666666
 40
0.6666666666666666
 40
0.6666666666666666
 40
0.6666666666666666
 40
1.0
 40
1.0
 40
1.0
 40
1.0
 10
140.5627
 20
44.3613
 30
0.0
 10
139.305
 20
46.5644
 30
0.0
 10
139.2052
 20
53.8129
 30
0.0
 10
133.8567
 20
57.4892
 30
0.0
 10
133.8567
 20
57.4892
 30
0.0
 10
125.8608
 20
61.4036
 30
0.0
 10
125.5742
 20
52.4261
 30
0.0
 10
131.0243
 20
53.6094
 30
0.0
 10
131.0243
 20
53.6094
 30
0.0
 10
130.8374
 20
50.1459
 30
0.0
 10
127.4394
 20
49.7019
 30
0.0
 10
125.4348
 20
50.6641
 30
0.0
 10
125.4348
 20
50.6641
 30
0.0
 10
125.4348
 20
50.6641
 30
0.0
 10
134.5928
 20
39.4177
 30
0.0
 10
134.5928
 20
39.4177
 30
0.0
 10
134.5928
 20
39.4177
 30
0.0
 10
133.4731
 20
42.7601
 30
0.0
 10
137.7693
 20
45.2744
 30
0.0
 10
140.5627
 20
44.3613
 30
0.0
  0
SPLINE
  5
AE
330
1F
100
AcDbEntity
  8
layer 1
 62
     7
100
AcDbSpline
210
0.0
220
0.0
230
1.0
 70
    11
 71
     3
 72
    48
 73
    44
 74
     0
 42
0.0000000001
 43
0.0000000001
 12
1.0
 22
0.0
 32
0.0
 13
1.0
 23
0.0
 33
0.0
 40
0.0
 40
0.0
 40
0.0
 40
0.0
 40
0.0833333333333333
 40
0.0833333333333333
 40
0.0833333333333333
 40
0.0833333333333333
 40
0.1666666666666667
 40
0.1666666666666667
 40
0.1666666666666667
 40
0.1666666666666667
 40
0.25
 40
0.25
 40
0.25
 40
0.25
 40
0.3333333333333333
 40
0.3333333333333333
 40
0.3333333333333333
 40
0.3333333333333333
 40
0.4166666666666667
 40
0.4166666666666667
 40
0.4166666666666667
 40
0.4166666666666667
 40
0.5
 40
0.5
 40
0.5
 40
0.5
 40
0.5833333333333334
 40
0.5833333333333334
 40
0.5833333333333334
 40
0.5833333333333334
 40
0.6666666666666666
 40
0.6666666666666666
 40
0.6666666666666666
 40
0.6666666666666666
 40
0.75
 40
0.75
 40
0.75
 40
0.75
 40
0.8333333333333334
 40
0.8333333333333334
 40
0.8333333333333334
 40
0.8333333333333334
 40
1.0
 40
1.0
 40
1.0
 40
1.0
 10
144.662
 20
35.5903
 30
0.0
 10
146.4077
 20
30.9103
 30
0.0
 10
147.8403
 20
28.2452
 30
0.0
 10
152.8859
 20
27.6305
 30
0.0
 10
152.8859
 20
27.6305
 30
0.0
 10
149.2779
 20
26.6667
 30
0.0
 10
148.6846
 20
19.9543
 30
0.0
 10
149.7207
 20
20.9774
 30
0.0
 10
149.7207
 20
20.9774
 30
0.0
 10
160.288
 20
31.4139
 30
0.0
 10
173.0505
 20
23.0079
 30
0.0
 10
172.8259
 20
22.3345
 30
0.0
 10
172.8259
 20
22.3345
 30
0.0
 10
174.1045
 20
20.9837
 30
0.0
 10
173.108
 20
20.0508
 30
0.0
 10
171.7803
 20
21.4326
 30
0.0
 10
171.7803
 20
21.4326
 30
0.0
 10
168.0481
 20
23.6689
 30
0.0
 10
161.7521
 20
22.9605
 30
0.0
 10
159.4324
 20
17.1511
 30
0.0
 10
159.4324
 20
17.1511
 30
0.0
 10
156.7442
 20
10.4209
 30
0.0
 10
151.2039
 20
10.9324
 30
0.0
 10
150.8859
 20
14.6221
 30
0.0
 10
150.8859
 20
14.6221
 30
0.0
 10
153.7397
 20
13.5827
 30
0.0
 10
154.1543
 20
16.1843
 30
0.0
 10
153.3596
 20
17.2939
 30
0.0
 10
153.3596
 20
17.2939
 30
0.0
 10
151.8087
 20
19.4561
 30
0.0
 10
148.3958
 20
17.5708
 30
0.0
 10
148.3782
 20
16.471
 30
0.0
 10
148.3782
 20
16.471
 30
0.0
 10
148.3782
 20
16.471
 30
0.0
 10
148.3405
 20
20.9183
 30
0.0
 10
148.3405
 20
20.9183
 30
0.0
 10
148.3405
 20
20.9183
 30
0.0
 10
148.3405
 20
20.9183
 30
0.0
 10
134.9289
 20
38.516
 30
0.0
 10
134.9289
 20
38.516
 30
0.0
 10
134.9289
 20
38.516
 30
0.0
 10
135.8763
 20
39.7358
 30
0.0
 10
141.0117
 20
43.5171
 30
0.0
 10
144.662
 20
35.5903
 30
0.0
  0
SPLINE
  5
AF
330
1F
100
AcDbEntity
  8
layer 1
 62
     7
100
AcDbSpline
210
0.0
220
0.0
230
1.0
 70
    11
 71
     3
 72
    16
 73
    12
 74
     0
 42
0.0000000001
 43
0.0000000001
 12
1.0
 22
0.0
 32
0.0
 13
1.0
 23
0.0
 33
0.0
 40
0.0
 40
0.0
 40
0.0
 40
0.0
 40
0.25
 40
0.25
 40
0.25
 40
0.25
 40
0.5
 40
0.5
 40
0.5
 40
0.5
 40
1.0
 40
1.0
 40
1.0
 40
1.0
 10
141.5904
 20
53.9423
 30
0.0
 10
141.6575
 20
59.7792
 30
0.0
 10
145.2785
 20
56.9844
 30
0.0
 10
144.2538
 20
54.9405
 30
0.0
 10
144.2538
 20
54.9405
 30
0.0
 10
144.0275
 20
47.8216
 30
0.0
 10
144.3901
 20
45.8446
 30
0.0
 10
145.1995
 20
42.2124
 30
0.0
 10
145.1995
 20
42.2124
 30
0.0
 10
141.9609
 20
45.1384
 30
0.0
 10
141.5904
 20
53.9422
 30
0.0
 10
141.5904
 20
53.9423
 30
0.0
  0
SPLINE
  5
B0
330
1F
100
AcDbEntity
  8
layer 1
 62
     7
100
AcDbSpline
210
0.0
220
0.0
230
1.0
 70
    11
 71
     3
 72
    16
 73
    12
 74
     0
 42
0.0000000001
 43
0.0000000001
 12
1.0
 22
0.0
 32
0.0
 13
1.0
 23
0.0
 33
0.0
 40
0.0
 40
0.0
 40
0.0
 40
0.0
 40
0.25
 40
0.25
 40
0.25
 40
0.25
 40
0.5
 40
0.5
 40
0.5
 40
0.5
 40
1.0
 40
1.0
 40
1.0
 40
1.0
 10
111.9117
 20
77.8033
 30
0.0
 10
111.5624
 20
75.9528
 30
0.0
 10
109.6155
 20
73.8152
 30
0.0
 10
107.6923
 20
73.4056
 30
0.0
 10
107.6923
 20
73.4056
 30
0.0
 10
107.6923
 20
73.4056
 30
0.0
 10
116.8506
 20
62.1611
 30
0.0
 10
116.8506
 20
62.1611
 30
0.0
 10
116.8506
 20
62.1611
 30
0.0
 10
120.5449
 20
70.1338
 30
0.0
 10
111.8692
 20
68.66
 30
0.0
 10
111.9117
 20
77.8033
 30
0.0
  0
SPLINE
  5
B1
330
1F
100
AcDbEntity
  8
layer 1
 62
     7
100
AcDbSpline
210
0.0
220
0.0
230
1.0
 70
    11
 71
     3
 72
    36
 73
    32
 74
     0
 42
0.0000000001
 43
0.0000000001
 12
1.0
 22
0.0
 32
0.0
 13
1.0
 23
0.0
 33
0.0
 40
0.0
 40
0.0
 40
0.0
 40
0.0
 40
0.1111111111111111
 40
0.1111111111111111
 40
0.1111111111111111
 40
0.1111111111111111
 40
0.2222222222222222
 40
0.2222222222222222
 40
0.2222222222222222
 40
0.2222222222222222
 40
0.3333333333333333
 40
0.3333333333333333
 40
0.3333333333333333
 40
0.3333333333333333
 40
0.4444444444444444
 40
0.4444444444444444
 40
0.4444444444444444
 40
0.4444444444444444
 40
0.5555555555555556
 40
0.5555555555555556
 40
0.5555555555555556
 40
0.5555555555555556
 40
0.6666666666666666
 40
0.6666666666666666
 40
0.6666666666666666
 40
0.6666666666666666
 40
0.7777777777777778
 40
0.7777777777777778
 40
0.7777777777777778
 40
0.7777777777777778
 40
1.0
 40
1.0
 40
1.0
 40
1.0
 10
137.0152
 20
59.443
 30
0.0
 10
134.6288
 20
65.3555
 30
0.0
 10
137.2695
 20
78.9736
 30
0.0
 10
131.9209
 20
82.6503
 30
0.0
 10
131.9209
 20
82.6503
 30
0.0
 10
128.9554
 20
86.3762
 30
0.0
 10
122.2629
 20
85.7451
 30
0.0
 10
119.8107
 20
84.0683
 30
0.0
 10
119.8107
 20
84.0683
 30
0.0
 10
113.5787
 20
79.8065
 30
0.0
 10
116.9883
 20
71.0616
 30
0.0
 10
123.1676
 20
72.7418
 30
0.0
 10
123.1676
 20
72.7418
 30
0.0
 10
118.0109
 20
76.1445
 30
0.0
 10
127.6345
 20
83.2979
 30
0.0
 10
129.5262
 20
74.1433
 30
0.0
 10
129.5262
 20
74.1433
 30
0.0
 10
129.1506
 20
66.7717
 30
0.0
 10
120.2944
 20
66.9786
 30
0.0
 10
122.2335
 20
67.3995
 30
0.0
 10
122.2335
 20
67.3995
 30
0.0
 10
122.0468
 20
63.9377
 30
0.0
 10
119.3746
 20
60.0251
 30
0.0
 10
117.3701
 20
60.9873
 30
0.0
 10
117.3701
 20
60.9873
 30
0.0
 10
117.3701
 20
60.9873
 30
0.0
 10
122.9792
 20
53.7735
 30
0.0
 10
122.9792
 20
53.7735
 30
0.0
 10
122.9792
 20
53.7735
 30
0.0
 10
120.8122
 20
60.3415
 30
0.0
 10
129.6227
 20
66.8868
 30
0.0
 10
137.0152
 20
59.443
 30
0.0
  0
SPLINE
  5
B2
330
1F
100
AcDbEntity
  8
layer 1
 62
     7
100
AcDbSpline
210
0.0
220
0.0
230
1.0
 70
    11
 71
     3
 72
    16
 73
    12
 74
     0
 42
0.0000000001
 43
0.0000000001
 12
1.0
 22
0.0
 32
0.0
 13
1.0
 23
0.0
 33
0.0
 40
0.0
 40
0.0
 40
0.0
 40
0.0
 40
0.25
 40
0.25
 40
0.25
 40
0.25
 40
0.5
 40
0.5
 40
0.5
 40
0.5
 40
1.0
 40
1.0
 40
1.0
 40
1.0
 10
148.1076
 20
12.0373
 30
0.0
 10
148.7584
 20
9.9799
 30
0.0
 10
149.6631
 20
8.9656
 30
0.0
 10
152.3743
 20
8.3361
 30
0.0
 10
152.3743
 20
8.3361
 30
0.0
 10
149.6631
 20
7.7068
 30
0.0
 10
148.7584
 20
6.6933
 30
0.0
 10
148.1076
 20
4.6363
 30
0.0
 10
148.1076
 20
4.6363
 30
0.0
 10
148.0731
 20
7.3098
 30
0.0
 10
148.0782
 20
9.7654
 30
0.0
 10
148.1076
 20
12.0373
 30
0.0
  0
SPLINE
  5
B3
330
1F
100
AcDbEntity
  8
layer 1
 62
     7
100
AcDbSpline
210
0.0
220
0.0
230
1.0
 70
    11
 71
     3
 72
    24
 73
    20
 74
     0
 42
0.0000000001
 43
0.0000000001
 12
1.0
 22
0.0
 32
0.0
 13
1.0
 23
0.0
 33
0.0
 40
0.0
 40
0.0
 40
0.0
 40
0.0
 40
0.1666666666666667
 40
0.1666666666666667
 40
0.1666666666666667
 40
0.1666666666666667
 40
0.3333333333333333
 40
0.3333333333333333
 40
0.3333333333333333
 40
0.3333333333333333
 40
0.5
 40
0.5
 40
0.5
 40
0.5
 40
0.6666666666666666
 40
0.6666666666666666
 40
0.6666666666666666
 40
0.6666666666666666
 40
1.0
 40
1.0
 40
1.0
 40
1.0
 10
139.815
 20
10.6504
 30
0.0
 10
139.9689
 20
13.7666
 30
0.0
 10
140.0349
 20
14.8697
 30
0.0
 10
139.8347
 20
18.0496
 30
0.0
 10
139.8347
 20
18.0496
 30
0.0
 10
132.7535
 20
26.9454
 30
0.0
 10
131.7174
 20
28.265
 30
0.0
 10
124.1331
 20
38.2491
 30
0.0
 10
124.1331
 20
38.2491
 30
0.0
 10
124.8579
 20
33.6233
 30
0.0
 10
122.0418
 20
31.1037
 30
0.0
 10
117.2144
 20
32.4792
 30
0.0
 10
117.2144
 20
32.4792
 30
0.0
 10
117.2144
 20
32.4792
 30
0.0
 10
134.5092
 20
10.2735
 30
0.0
 10
134.5092
 20
10.2735
 30
0.0
 10
134.5092
 20
10.2735
 30
0.0
 10
134.8025
 20
11.9555
 30
0.0
 10
138.7658
 20
12.0616
 30
0.0
 10
139.815
 20
10.6504
 30
0.0
  0
SPLINE
  5
B4
330
1F
100
AcDbEntity
  8
layer 1
 62
     7
100
AcDbSpline
210
0.0
220
0.0
230
1.0
 70
    11
 71
     3
 72
    24
 73
    20
 74
     0
 42
0.0000000001
 43
0.0000000001
 12
1.0
 22
0.0
 32
0.0
 13
1.0
 23
0.0
 33
0.0
 40
0.0
 40
0.0
 40
0.0
 40
0.0
 40
0.1666666666666667
 40
0.1666666666666667
 40
0.1666666666666667
 40
0.1666666666666667
 40
0.3333333333333333
 40
0.3333333333333333
 40
0.3333333333333333
 40
0.3333333333333333
 40
0.5
 40
0.5
 40
0.5
 40
0.5
 40
0.6666666666666666
 40
0.6666666666666666
 40
0.6666666666666666
 40
0.6666666666666666
 40
1.0
 40
1.0
 40
1.0
 40
1.0
 10
95.9134
 20
64.9787
 30
0.0
 10
97.3364
 20
63.192
 30
0.0
 10
97.187
 20
61.3414
 30
0.0
 10
95.7267
 20
60.3201
 30
0.0
 10
95.7267
 20
60.3201
 30
0.0
 10
102.8096
 20
51.4244
 30
0.0
 10
107.2484
 20
45.5383
 30
0.0
 10
114.8343
 20
35.5543
 30
0.0
 10
114.8343
 20
35.5543
 30
0.0
 10
114.1083
 20
40.1798
 30
0.0
 10
116.9257
 20
42.6992
 30
0.0
 10
121.7514
 20
41.3241
 30
0.0
 10
121.7514
 20
41.3241
 30
0.0
 10
121.7514
 20
41.3241
 30
0.0
 10
103.6274
 20
65.1068
 30
0.0
 10
103.6274
 20
65.1068
 30
0.0
 10
103.6274
 20
65.1068
 30
0.0
 10
100.7684
 20
65.0262
 30
0.0
 10
98.7577
 20
65.0312
 30
0.0
 10
95.9134
 20
64.9787
 30
0.0
  0
SPLINE
  5
B5
330
1F
100
AcDbEntity
  8
layer 1
 62
     7
100
AcDbSpline
210
0.0
220
0.0
230
1.0
 70
    11
 71
     3
 72
    40
 73
    36
 74
     0
 42
0.0000000001
 43
0.0000000001
 12
1.0
 22
0.0
 32
0.0
 13
1.0
 23
0.0
 33
0.0
 40
0.0
 40
0.0
 40
0.0
 40
0.0
 40
0.1
 40
0.1
 40
0.1
 40
0.1
 40
0.2
 40
0.2
 40
0.2
 40
0.2
 40
0.3
 40
0.3
 40
0.3
 40
0.3
 40
0.4
 40
0.4
 40
0.4
 40
0.4
 40
0.5
 40
0.5
 40
0.5
 40
0.5
 40
0.6
 40
0.6
 40
0.6
 40
0.6
 40
0.7
 40
0.7
 40
0.7
 40
0.7
 40
0.8
 40
0.8
 40
0.8
 40
0.8
 40
1.0
 40
1.0
 40
1.0
 40
1.0
 10
122.2956
 20
11.9797
 30
0.0
 10
124.3594
 20
10.4457
 30
0.0
 10
127.9949
 20
9.4734
 30
0.0
 10
131.7817
 20
9.7456
 30
0.0
 10
131.7817
 20
9.7456
 30
0.0
 10
124.6989
 20
18.643
 30
0.0
 10
103.9027
 20
45.2022
 30
0.0
 10
96.3167
 20
55.1864
 30
0.0
 10
96.3167
 20
55.1864
 30
0.0
 10
97.2084
 20
49.4821
 30
0.0
 10
106.0995
 20
42.645
 30
0.0
 10
97.8689
 20
32.397
 30
0.0
 10
97.8689
 20
32.397
 30
0.0
 10
104.1028
 20
38.1471
 30
0.0
 10
108.5924
 20
33.269
 30
0.0
 10
108.1007
 20
29.4714
 30
0.0
 10
108.1007
 20
29.4714
 30
0.0
 10
104.5439
 20
30.6908
 30
0.0
 10
100.4311
 20
28.9729
 30
0.0
 10
100.9686
 20
23.0918
 30
0.0
 10
100.9686
 20
23.0918
 30
0.0
 10
101.4064
 20
18.3053
 30
0.0
 10
109.8597
 20
16.484
 30
0.0
 10
109.6842
 20
23.8081
 30
0.0
 10
109.6842
 20
23.8081
 30
0.0
 10
114.0571
 20
23.6244
 30
0.0
 10
116.334
 20
17.4151
 30
0.0
 10
111.751
 20
14.0762
 30
0.0
 10
111.751
 20
14.0762
 30
0.0
 10
110.8659
 20
13.4321
 30
0.0
 10
111.4379
 20
12.2684
 30
0.0
 10
112.5528
 20
13.0649
 30
0.0
 10
112.5528
 20
13.0649
 30
0.0
 10
116.3752
 20
16.5072
 30
0.0
 10
119.224
 20
14.4417
 30
0.0
 10
122.2956
 20
11.9797
 30
0.0
  0
SPLINE
  5
B6
330
1F
100
AcDbEntity
  8
layer 1
 62
     7
100
AcDbSpline
210
0.0
220
0.0
230
1.0
 70
    11
 71
     3
 72
    20
 73
    16
 74
     0
 42
0.0000000001
 43
0.0000000001
 12
1.0
 22
0.0
 32
0.0
 13
1.0
 23
0.0
 33
0.0
 40
0.0
 40
0.0
 40
0.0
 40
0.0
 40
0.2
 40
0.2
 40
0.2
 40
0.2
 40
0.4
 40
0.4
 40
0.4
 40
0.4
 40
0.6
 40
0.6
 40
0.6
 40
0.6
 40
1.0
 40
1.0
 40
1.0
 40
1.0
 10
101.3899
 20
13.7321
 30
0.0
 10
103.7407
 20
10.3718
 30
0.0
 10
107.0713
 20
9.18
 30
0.0
 10
113.0395
 20
8.3361
 30
0.0
 10
113.0395
 20
8.3361
 30
0.0
 10
107.0713
 20
7.4918
 30
0.0
 10
103.7407
 20
6.3002
 30
0.0
 10
101.3899
 20
2.9398
 30
0.0
 10
101.3899
 20
2.9398
 30
0.0
 10
100.8277
 20
5.6184
 30
0.0
 10
99.354
 20
7.1935
 30
0.0
 10
97.2919
 20
8.3361
 30
0.0
 10
97.2919
 20
8.3361
 30
0.0
 10
99.3539
 20
9.4784
 30
0.0
 10
100.8277
 20
11.0536
 30
0.0
 10
101.3899
 20
13.7321
 30
0.0
  0
SPLINE
  5
B7
330
1F
100
AcDbEntity
  8
layer 1
 62
     7
100
AcDbSpline
210
0.0
220
0.0
230
1.0
 70
    11
 71
     3
 72
    20
 73
    16
 74
     0
 42
0.0000000001
 43
0.0000000001
 12
1.0
 22
0.0
 32
0.0
 13
1.0
 23
0.0
 33
0.0
 40
0.0
 40
0.0
 40
0.0
 40
0.0
 40
0.2
 40
0.2
 40
0.2
 40
0.2
 40
0.4
 40
0.4
 40
0.4
 40
0.4
 40
0.6
 40
0.6
 40
0.6
 40
0.6
 40
1.0
 40
1.0
 40
1.0
 40
1.0
 10
98.8638
 20
16.4187
 30
0.0
 10
96.1858
 20
15.8563
 30
0.0
 10
94.6106
 20
14.383
 30
0.0
 10
93.4499
 20
12.3209
 30
0.0
 10
93.4499
 20
12.3209
 30
0.0
 10
92.2909
 20
14.383
 30
0.0
 10
90.7156
 20
15.8563
 30
0.0
 10
88.0375
 20
16.4185
 30
0.0
 10
88.0375
 20
16.4185
 30
0.0
 10
91.1927
 20
20.1004
 30
0.0
 10
92.3861
 20
25.5797
 30
0.0
 10
93.4499
 20
34.0033
 30
0.0
 10
93.4499
 20
34.0033
 30
0.0
 10
94.5152
 20
25.5798
 30
0.0
 10
95.7087
 20
20.1004
 30
0.0
 10
98.8638
 20
16.4187
 30
0.0
  0
ENDSEC
  0
SECTION
  2
OBJECTS
  0
DICTIONARY
  5
C
330
0
100
AcDbDictionary
281
     1
  3
ACAD_GROUP
350
D
  3
ACAD_LAYOUT
350
1A
  3
ACAD_MATERIAL
350
3B
  3
ACAD_MLEADERSTYLE
350
D9
  3
ACAD_MLINESTYLE
350
17
  3
ACAD_PLOTSETTINGS
350
19
  3
ACAD_PLOTSTYLENAME
350
E
  3
ACAD_TABLESTYLE
350
D8
  3
ACAD_VISUALSTYLE
350
2A
  0
DICTIONARY
  5
D
102
{ACAD_REACTORS
330
C
102
}
330
C
100
AcDbDictionary
281
     1
  0
DICTIONARY
  5
1A
102
{ACAD_REACTORS
330
C
102
}
330
C
100
AcDbDictionary
281
     1
  3
Layout1
350
1E
  3
Layout2
350
26
  3
Model
350
22
  0
DICTIONARY
  5
3B
102
{ACAD_REACTORS
330
C
102
}
330
C
100
AcDbDictionary
281
     1
  3
ByBlock
350
3D
  3
ByLayer
350
3C
  3
Global
350
3E
  0
DICTIONARY
  5
D9
102
{ACAD_REACTORS
330
C
102
}
330
C
100
AcDbDictionary
281
     1
  0
DICTIONARY
  5
17
102
{ACAD_REACTORS
330
C
102
}
330
C
100
AcDbDictionary
281
     1
  3
Standard
350
18
  0
DICTIONARY
  5
19
102
{ACAD_REACTORS
330
C
102
}
330
C
100
AcDbDictionary
281
     1
  0
ACDBDICTIONARYWDFLT
  5
E
102
{ACAD_REACTORS
330
C
102
}
330
C
100
AcDbDictionary
281
     1
  3
Normal
350
F
100
AcDbDictionaryWithDefault
340
F
  0
DICTIONARY
  5
D8
102
{ACAD_REACTORS
330
C
102
}
330
C
100
AcDbDictionary
281
     1
  0
DICTIONARY
  5
2A
102
{ACAD_REACTORS
330
C
102
}
330
C
100
AcDbDictionary
281
     1
  3
2dWireframe
350
2F
  3
3D Hidden
350
31
  3
3dWireframe
350
30
  3
Basic
350
32
  3
Brighten
350
36
  3
ColorChange
350
3A
  3
Conceptual
350
34
  3
Dim
350
35
  3
Facepattern
350
39
  3
Flat
350
2B
  3
FlatWithEdges
350
2C
  3
Gouraud
350
2D
  3
GouraudWithEdges
350
2E
  3
Linepattern
350
38
  3
Realistic
350
33
  3
Thicken
350
37
  0
LAYOUT
  5
1E
102
{ACAD_REACTORS
330
1A
102
}
330
1A
100
AcDbPlotSettings
  1

  2
none_device
  4

  6

 40
0.0
 41
0.0
 42
0.0
 43
0.0
 44
0.0
 45
0.0
 46
0.0
 47
0.0
 48
0.0
 49
0.0
140
0.0
141
0.0
142
1.0
143
1.0
 70
   688
 72
     0
 73
     0
 74
     5
  7

 75
    16
 76
     0
 77
     2
 78
   300
147
1.0
148
0.0
149
0.0
100
AcDbLayout
  1
Layout1
 70
     1
 71
     1
 10
0.0
 20
0.0
 11
12.0
 21
9.0
 12
0.0
 22
0.0
 32
0.0
 14
1.000000000000000E+20
 24
1.000000000000000E+20
 34
1.000000000000000E+20
 15
-1.000000000000000E+20
 25
-1.000000000000000E+20
 35
-1.000000000000000E+20
146
0.0
 13
0.0
 23
0.0
 33
0.0
 16
1.0
 26
0.0
 36
0.0
 17
0.0
 27
1.0
 37
0.0
 76
     0
330
1B
  0
LAYOUT
  5
26
102
{ACAD_REACTORS
330
1A
102
}
330
1A
100
AcDbPlotSettings
  1

  2
none_device
  4

  6

 40
0.0
 41
0.0
 42
0.0
 43
0.0
 44
0.0
 45
0.0
 46
0.0
 47
0.0
 48
0.0
 49
0.0
140
0.0
141
0.0
142
1.0
143
1.0
 70
   688
 72
     0
 73
     0
 74
     5
  7

 75
    16
 76
     0
 77
     2
 78
   300
147
1.0
148
0.0
149
0.0
100
AcDbLayout
  1
Layout2
 70
     1
 71
     2
 10
0.0
 20
0.0
 11
0.0
 21
0.0
 12
0.0
 22
0.0
 32
0.0
 14
0.0
 24
0.0
 34
0.0
 15
0.0
 25
0.0
 35
0.0
146
0.0
 13
0.0
 23
0.0
 33
0.0
 16
1.0
 26
0.0
 36
0.0
 17
0.0
 27
1.0
 37
0.0
 76
     0
330
23
  0
LAYOUT
  5
22
102
{ACAD_REACTORS
330
1A
102
}
330
1A
100
AcDbPlotSettings
  1

  2
none_device
  4

  6

 40
0.0
 41
0.0
 42
0.0
 43
0.0
 44
0.0
 45
0.0
 46
0.0
 47
0.0
 48
0.0
 49
0.0
140
0.0
141
0.0
142
1.0
143
1.0
 70
  1712
 72
     0
 73
     0
 74
     0
  7

 75
     0
 76
     0
 77
     2
 78
   300
147
1.0
148
0.0
149
0.0
100
AcDbLayout
  1
Model
 70
     1
 71
     0
 10
0.0
 20
0.0
 11
12.0
 21
9.0
 12
0.0
 22
0.0
 32
0.0
 14
-9.2927
 24
-115.0858
 34
0.0
 15
196.1936
 25
131.76
 35
0.0
146
0.0
 13
0.0
 23
0.0
 33
0.0
 16
1.0
 26
0.0
 36
0.0
 17
0.0
 27
1.0
 37
0.0
 76
     0
330
1F
331
29
  0
MATERIAL
  5
3D
102
{ACAD_REACTORS
330
3B
102
}
330
3B
100
AcDbMaterial
  1
ByBlock
 72
     1
 94
      127
  0
MATERIAL
  5
3C
102
{ACAD_REACTORS
330
3B
102
}
330
3B
100
AcDbMaterial
  1
ByLayer
 72
     1
 94
      127
  0
MATERIAL
  5
3E
102
{ACAD_REACTORS
330
3B
102
}
330
3B
100
AcDbMaterial
  1
Global
 72
     1
 94
      127
  0
MLINESTYLE
  5
18
102
{ACAD_REACTORS
330
17
102
}
330
17
100
AcDbMlineStyle
  2
Standard
 70
     0
  3

 62
   256
 51
90.0
 52
90.0
 71
     2
 49
0.5
 62
   256
  6
BYLAYER
 49
-0.5
 62
   256
  6
BYLAYER
  0
ACDBPLACEHOLDER
  5
F
102
{ACAD_REACTORS
330
E
102
}
330
E
  0
VISUALSTYLE
  5
2F
102
{ACAD_REACTORS
330
2A
102
}
102
{ACAD_XDICTIONARY
360
C0
102
}
330
2A
100
AcDbVisualStyle
  2
2dWireframe
 70
     4
 71
     0
 72
     2
 73
     0
 90
        0
 40
-0.6
 41
-30.0
 62
     5
 63
     7
421
 16777215
 74
     1
 91
        4
 64
     7
 65
   257
 75
     1
175
     1
 42
1.0
 92
        0
 66
   257
 43
1.0
 76
     1
 77
     6
 78
     2
 67
     7
 79
     5
170
     0
171
     0
290
     0
174
     0
 93
        1
 44
0.0
173
     0
291
     0
 45
0.0
  0
VISUALSTYLE
  5
31
102
{ACAD_REACTORS
330
2A
102
}
102
{ACAD_XDICTIONARY
360
C4
102
}
330
2A
100
AcDbVisualStyle
  2
3D Hidden
 70
     6
 71
     1
 72
     2
 73
     2
 90
        0
 40
-0.6
 41
-30.0
 62
     5
 63
     7
421
 16777215
 74
     2
 91
        2
 64
     7
 65
   257
 75
     2
175
     1
 42
40.0
 92
        0
 66
   257
 43
1.0
 76
     1
 77
     6
 78
     2
 67
     7
 79
     3
170
     0
171
     0
290
     0
174
     0
 93
        1
 44
0.0
173
     0
291
     0
 45
0.0
  0
VISUALSTYLE
  5
30
102
{ACAD_REACTORS
330
2A
102
}
102
{ACAD_XDICTIONARY
360
C2
102
}
330
2A
100
AcDbVisualStyle
  2
3dWireframe
 70
     5
 71
     0
 72
     2
 73
     0
 90
        0
 40
-0.6
 41
-30.0
 62
     5
 63
     7
421
 16777215
 74
     1
 91
        4
 64
     7
 65
   257
 75
     1
175
     1
 42
1.0
 92
        0
 66
   257
 43
1.0
 76
     1
 77
     6
 78
     2
 67
     7
 79
     5
170
     0
171
     0
290
     0
174
     0
 93
        1
 44
0.0
173
     0
291
     0
 45
0.0
  0
VISUALSTYLE
  5
32
102
{ACAD_REACTORS
330
2A
102
}
102
{ACAD_XDICTIONARY
360
C6
102
}
330
2A
100
AcDbVisualStyle
  2
Basic
 70
     7
 71
     1
 72
     0
 73
     1
 90
        0
 40
-0.6
 41
-30.0
 62
     5
 63
     7
421
 16777215
 74
     0
 91
        4
 64
     7
 65
   257
 75
     1
175
     1
 42
1.0
 92
        8
 66
     7
 43
1.0
 76
     1
 77
     6
 78
     2
 67
     7
 79
     5
170
     0
171
     0
290
     0
174
     0
 93
        1
 44
0.0
173
     0
291
     1
 45
0.0
  0
VISUALSTYLE
  5
36
102
{ACAD_REACTORS
330
2A
102
}
102
{ACAD_XDICTIONARY
360
CE
102
}
330
2A
100
AcDbVisualStyle
  2
Brighten
 70
    12
 71
     2
 72
     2
 73
     0
 90
        0
 40
-0.6
 41
-30.0
 62
     5
 63
     7
421
 16777215
 74
     1
 91
        4
 64
     7
 65
   257
 75
     1
175
     1
 42
1.0
 92
        8
 66
     7
 43
1.0
 76
     1
 77
     6
 78
     2
 67
     7
 79
     5
170
     0
171
     0
290
     0
174
     0
 93
        1
 44
50.0
173
     0
291
     1
 45
0.0
  0
VISUALSTYLE
  5
3A
102
{ACAD_REACTORS
330
2A
102
}
102
{ACAD_XDICTIONARY
360
D6
102
}
330
2A
100
AcDbVisualStyle
  2
ColorChange
 70
    16
 71
     2
 72
     2
 73
     3
 90
        0
 40
-0.6
 41
-30.0
 62
     5
 63
     8
421
  8421504
 74
     1
 91
        4
 64
     7
 65
   257
 75
     1
175
     1
 42
1.0
 92
        8
 66
     8
424
  8421504
 43
1.0
 76
     1
 77
     6
 78
     2
 67
     7
 79
     5
170
     0
171
     0
290
     0
174
     0
 93
        1
 44
0.0
173
     0
291
     1
 45
0.0
  0
VISUALSTYLE
  5
34
102
{ACAD_REACTORS
330
2A
102
}
102
{ACAD_XDICTIONARY
360
CA
102
}
330
2A
100
AcDbVisualStyle
  2
Conceptual
 70
     9
 71
     3
 72
     2
 73
     0
 90
        0
 40
-0.6
 41
-30.0
 62
     5
 63
     7
421
 16777215
 74
     2
 91
        2
 64
     7
 65
   257
 75
     1
175
     1
 42
40.0
 92
        8
 66
     7
 43
1.0
 76
     1
 77
     6
 78
     2
 67
     7
 79
     3
170
     0
171
     0
290
     0
174
     0
 93
        1
 44
0.0
173
     0
291
     0
 45
0.0
  0
VISUALSTYLE
  5
35
102
{ACAD_REACTORS
330
2A
102
}
102
{ACAD_XDICTIONARY
360
CC
102
}
330
2A
100
AcDbVisualStyle
  2
Dim
 70
    11
 71
     2
 72
     2
 73
     0
 90
        0
 40
-0.6
 41
-30.0
 62
     5
 63
     7
421
 16777215
 74
     1
 91
        4
 64
     7
 65
   257
 75
     1
175
     1
 42
1.0
 92
        8
 66
     7
 43
1.0
 76
     1
 77
     6
 78
     2
 67
     7
 79
     5
170
     0
171
     0
290
     0
174
     0
 93
        1
 44
-50.0
173
     0
291
     1
 45
0.0
  0
VISUALSTYLE
  5
39
102
{ACAD_REACTORS
330
2A
102
}
102
{ACAD_XDICTIONARY
360
D4
102
}
330
2A
100
AcDbVisualStyle
  2
Facepattern
 70
    15
 71
     2
 72
     2
 73
     0
 90
        0
 40
-0.6
 41
-30.0
 62
     5
 63
     7
421
 16777215
 74
     1
 91
        4
 64
     7
 65
   257
 75
     1
175
     1
 42
1.0
 92
        8
 66
     7
 43
1.0
 76
     1
 77
     6
 78
     2
 67
     7
 79
     5
170
     0
171
     0
290
     0
174
     0
 93
        1
 44
0.0
173
     0
291
     1
 45
0.0
  0
VISUALSTYLE
  5
2B
102
{ACAD_REACTORS
330
2A
102
}
102
{ACAD_XDICTIONARY
360
B8
102
}
330
2A
100
AcDbVisualStyle
  2
Flat
 70
     0
 71
     2
 72
     1
 73
     1
 90
        2
 40
-0.6
 41
30.0
 62
     5
 63
     7
421
 16777215
 74
     0
 91
        4
 64
     7
 65
   257
 75
     1
175
     1
 42
1.0
 92
        8
 66
     7
 43
1.0
 76
     1
 77
     6
 78
     2
 67
     7
 79
     5
170
     0
171
     0
290
     0
174
     0
 93
       13
 44
0.0
173
     0
291
     1
 45
0.0
  0
VISUALSTYLE
  5
2C
102
{ACAD_REACTORS
330
2A
102
}
102
{ACAD_XDICTIONARY
360
BA
102
}
330
2A
100
AcDbVisualStyle
  2
FlatWithEdges
 70
     1
 71
     2
 72
     1
 73
     1
 90
        2
 40
-0.6
 41
30.0
 62
     5
 63
     7
421
 16777215
 74
     1
 91
        4
 64
     7
 65
   257
 75
     1
175
     1
 42
1.0
 92
        0
 66
   257
 43
1.0
 76
     1
 77
     6
 78
     2
 67
     7
 79
     5
170
     0
171
     0
290
     0
174
     0
 93
       13
 44
0.0
173
     0
291
     1
 45
0.0
  0
VISUALSTYLE
  5
2D
102
{ACAD_REACTORS
330
2A
102
}
102
{ACAD_XDICTIONARY
360
BC
102
}
330
2A
100
AcDbVisualStyle
  2
Gouraud
 70
     2
 71
     2
 72
     2
 73
     1
 90
        2
 40
-0.6
 41
30.0
 62
     5
 63
     7
421
 16777215
 74
     0
 91
        4
 64
     7
 65
   257
 75
     1
175
     1
 42
1.0
 92
        0
 66
     7
 43
1.0
 76
     1
 77
     6
 78
     2
 67
     7
 79
     5
170
     0
171
     0
290
     0
174
     0
 93
       13
 44
0.0
173
     0
291
     1
 45
0.0
  0
VISUALSTYLE
  5
2E
102
{ACAD_REACTORS
330
2A
102
}
102
{ACAD_XDICTIONARY
360
BE
102
}
330
2A
100
AcDbVisualStyle
  2
GouraudWithEdges
 70
     3
 71
     2
 72
     2
 73
     1
 90
        2
 40
-0.6
 41
30.0
 62
     5
 63
     7
421
 16777215
 74
     1
 91
        4
 64
     7
 65
   257
 75
     1
175
     1
 42
1.0
 92
        0
 66
   257
 43
1.0
 76
     1
 77
     6
 78
     2
 67
     7
 79
     5
170
     0
171
     0
290
     0
174
     0
 93
       13
 44
0.0
173
     0
291
     1
 45
0.0
  0
VISUALSTYLE
  5
38
102
{ACAD_REACTORS
330
2A
102
}
102
{ACAD_XDICTIONARY
360
D2
102
}
330
2A
100
AcDbVisualStyle
  2
Linepattern
 70
    14
 71
     2
 72
     2
 73
     0
 90
        0
 40
-0.6
 41
-30.0
 62
     5
 63
     7
421
 16777215
 74
     1
 91
        4
 64
     7
 65
   257
 75
     7
175
     7
 42
1.0
 92
        8
 66
     7
 43
1.0
 76
     1
 77
     6
 78
     2
 67
     7
 79
     5
170
     0
171
     0
290
     0
174
     0
 93
        1
 44
0.0
173
     0
291
     1
 45
0.0
  0
VISUALSTYLE
  5
33
102
{ACAD_REACTORS
330
2A
102
}
102
{ACAD_XDICTIONARY
360
C8
102
}
330
2A
100
AcDbVisualStyle
  2
Realistic
 70
     8
 71
     2
 72
     2
 73
     0
 90
        0
 40
-0.6
 41
-30.0
 62
     5
 63
     7
421
 16777215
 74
     1
 91
        0
 64
     7
 65
   257
 75
     1
175
     1
 42
1.0
 92
        8
 66
     8
424
  7895160
 43
1.0
 76
     1
 77
     6
 78
     2
 67
     7
 79
     5
170
     0
171
     0
290
     0
174
     0
 93
       13
 44
0.0
173
     0
291
     0
 45
0.0
  0
VISUALSTYLE
  5
37
102
{ACAD_REACTORS
330
2A
102
}
102
{ACAD_XDICTIONARY
360
D0
102
}
330
2A
100
AcDbVisualStyle
  2
Thicken
 70
    13
 71
     2
 72
     2
 73
     0
 90
        0
 40
-0.6
 41
-30.0
 62
     5
 63
     7
421
 16777215
 74
     1
 91
        4
 64
     7
 65
   257
 75
     1
175
     1
 42
1.0
 92
       12
 66
     7
 43
1.0
 76
     1
 77
     6
 78
     2
 67
     7
 79
     5
170
     0
171
     0
290
     0
174
     0
 93
        1
 44
0.0
173
     0
291
     1
 45
0.0
  0
DICTIONARY
  5
C0
330
2F
100
AcDbDictionary
280
     1
281
     1
  3
ACAD_XREC_ROUNDTRIP
360
C1
  0
DICTIONARY
  5
C4
330
31
100
AcDbDictionary
280
     1
281
     1
  3
ACAD_XREC_ROUNDTRIP
360
C5
  0
DICTIONARY
  5
C2
330
30
100
AcDbDictionary
280
     1
281
     1
  3
ACAD_XREC_ROUNDTRIP
360
C3
  0
DICTIONARY
  5
C6
330
32
100
AcDbDictionary
280
     1
281
     1
  3
ACAD_XREC_ROUNDTRIP
360
C7
  0
DICTIONARY
  5
CE
330
36
100
AcDbDictionary
280
     1
281
     1
  3
ACAD_XREC_ROUNDTRIP
360
CF
  0
DICTIONARY
  5
D6
330
3A
100
AcDbDictionary
280
     1
281
     1
  3
ACAD_XREC_ROUNDTRIP
360
D7
  0
DICTIONARY
  5
CA
330
34
100
AcDbDictionary
280
     1
281
     1
  3
ACAD_XREC_ROUNDTRIP
360
CB
  0
DICTIONARY
  5
CC
330
35
100
AcDbDictionary
280
     1
281
     1
  3
ACAD_XREC_ROUNDTRIP
360
CD
  0
DICTIONARY
  5
D4
330
39
100
AcDbDictionary
280
     1
281
     1
  3
ACAD_XREC_ROUNDTRIP
360
D5
  0
DICTIONARY
  5
B8
330
2B
100
AcDbDictionary
280
     1
281
     1
  3
ACAD_XREC_ROUNDTRIP
360
B9
  0
DICTIONARY
  5
BA
330
2C
100
AcDbDictionary
280
     1
281
     1
  3
ACAD_XREC_ROUNDTRIP
360
BB
  0
DICTIONARY
  5
BC
330
2D
100
AcDbDictionary
280
     1
281
     1
  3
ACAD_XREC_ROUNDTRIP
360
BD
  0
DICTIONARY
  5
BE
330
2E
100
AcDbDictionary
280
     1
281
     1
  3
ACAD_XREC_ROUNDTRIP
360
BF
  0
DICTIONARY
  5
D2
330
38
100
AcDbDictionary
280
     1
281
     1
  3
ACAD_XREC_ROUNDTRIP
360
D3
  0
DICTIONARY
  5
C8
330
33
100
AcDbDictionary
280
     1
281
     1
  3
ACAD_XREC_ROUNDTRIP
360
C9
  0
DICTIONARY
  5
D0
330
37
100
AcDbDictionary
280
     1
281
     1
  3
ACAD_XREC_ROUNDTRIP
360
D1
  0
XRECORD
  5
C1
102
{ACAD_REACTORS
330
C0
102
}
330
C0
100
AcDbXrecord
280
     1
102
RTVSPropertyOp0
 70
     1
102
RTVSPropertyOp1
 70
     1
102
RTVSPropertyOp2
 70
     1
102
RTVSPropertyOp3
 70
     1
102
RTVSPropertyOp4
 70
     1
102
RTVSPropertyOp5
 70
     1
102
RTVSPropertyOp6
 70
     1
102
RTVSPropertyOp7
 70
     1
102
RTVSPropertyOp8
 70
     1
102
RTVSPropertyOp9
 70
     1
102
RTVSPropertyOp10
 70
     1
102
RTVSPropertyOp11
 70
     1
102
RTVSPropertyOp12
 70
     1
102
RTVSPropertyOp13
 70
     1
102
RTVSPropertyOp14
 70
     1
102
RTVSPropertyOp15
 70
     1
102
RTVSPropertyOp16
 70
     1
102
RTVSPropertyOp17
 70
     1
102
RTVSPropertyOp18
 70
     1
102
RTVSPropertyOp19
 70
     1
102
RTVSPropertyOp20
 70
     1
102
RTVSPropertyOp21
 70
     1
102
RTVSPropertyOp22
 70
     1
102
RTVSPropertyOp23
 70
     1
102
RTVSPropertyOp24
 70
     1
102
RTVSPropertyOp25
 70
     1
102
RTVSPropertyOp26
 70
     1
102
RTVSPropertyOp27
 70
     1
102
RTVSPropertyOp28
 70
     1
102
RTVSPropertyOp29
 70
     1
102
RTVSPropertyOp30
 70
     1
102
RTVSPropertyOp31
 70
     1
102
RTVSPropertyOp32
 70
     1
  0
XRECORD
  5
C5
102
{ACAD_REACTORS
330
C4
102
}
330
C4
100
AcDbXrecord
280
     1
102
RTVSPropertyOp0
 70
     1
102
RTVSPropertyOp1
 70
     1
102
RTVSPropertyOp2
 70
     1
102
RTVSPropertyOp3
 70
     1
102
RTVSPropertyOp4
 70
     1
102
RTVSPropertyOp5
 70
     1
102
RTVSPropertyOp6
 70
     1
102
RTVSPropertyOp7
 70
     1
102
RTVSPropertyOp8
 70
     1
102
RTVSPropertyOp9
 70
     1
102
RTVSPropertyOp10
 70
     1
102
RTVSPropertyOp11
 70
     1
102
RTVSPropertyOp12
 70
     1
102
RTVSPropertyOp13
 70
     1
102
RTVSPropertyOp14
 70
     1
102
RTVSPropertyOp15
 70
     1
102
RTVSPropertyOp16
 70
     1
102
RTVSPropertyOp17
 70
     1
102
RTVSPropertyOp18
 70
     1
102
RTVSPropertyOp19
 70
     1
102
RTVSPropertyOp20
 70
     1
102
RTVSPropertyOp21
 70
     1
102
RTVSPropertyOp22
 70
     1
102
RTVSPropertyOp23
 70
     1
102
RTVSPropertyOp24
 70
     1
102
RTVSPropertyOp25
 70
     1
102
RTVSPropertyOp26
 70
     1
102
RTVSPropertyOp27
 70
     1
102
RTVSPropertyOp28
 70
     1
102
RTVSPropertyOp29
 70
     1
102
RTVSPropertyOp30
 70
     1
102
RTVSPropertyOp31
 70
     1
102
RTVSPropertyOp32
 70
     1
  0
XRECORD
  5
C3
102
{ACAD_REACTORS
330
C2
102
}
330
C2
100
AcDbXrecord
280
     1
102
RTVSPropertyOp0
 70
     1
102
RTVSPropertyOp1
 70
     1
102
RTVSPropertyOp2
 70
     1
102
RTVSPropertyOp3
 70
     1
102
RTVSPropertyOp4
 70
     1
102
RTVSPropertyOp5
 70
     1
102
RTVSPropertyOp6
 70
     1
102
RTVSPropertyOp7
 70
     1
102
RTVSPropertyOp8
 70
     1
102
RTVSPropertyOp9
 70
     1
102
RTVSPropertyOp10
 70
     1
102
RTVSPropertyOp11
 70
     1
102
RTVSPropertyOp12
 70
     1
102
RTVSPropertyOp13
 70
     1
102
RTVSPropertyOp14
 70
     1
102
RTVSPropertyOp15
 70
     1
102
RTVSPropertyOp16
 70
     1
102
RTVSPropertyOp17
 70
     1
102
RTVSPropertyOp18
 70
     1
102
RTVSPropertyOp19
 70
     1
102
RTVSPropertyOp20
 70
     1
102
RTVSPropertyOp21
 70
     1
102
RTVSPropertyOp22
 70
     1
102
RTVSPropertyOp23
 70
     1
102
RTVSPropertyOp24
 70
     1
102
RTVSPropertyOp25
 70
     1
102
RTVSPropertyOp26
 70
     1
102
RTVSPropertyOp27
 70
     1
102
RTVSPropertyOp28
 70
     1
102
RTVSPropertyOp29
 70
     1
102
RTVSPropertyOp30
 70
     1
102
RTVSPropertyOp31
 70
     1
102
RTVSPropertyOp32
 70
     1
  0
XRECORD
  5
C7
102
{ACAD_REACTORS
330
C6
102
}
330
C6
100
AcDbXrecord
280
     1
102
RTVSPropertyOp0
 70
     1
102
RTVSPropertyOp1
 70
     1
102
RTVSPropertyOp2
 70
     1
102
RTVSPropertyOp3
 70
     1
102
RTVSPropertyOp4
 70
     1
102
RTVSPropertyOp5
 70
     1
102
RTVSPropertyOp6
 70
     1
102
RTVSPropertyOp7
 70
     1
102
RTVSPropertyOp8
 70
     1
102
RTVSPropertyOp9
 70
     1
102
RTVSPropertyOp10
 70
     1
102
RTVSPropertyOp11
 70
     1
102
RTVSPropertyOp12
 70
     1
102
RTVSPropertyOp13
 70
     1
102
RTVSPropertyOp14
 70
     1
102
RTVSPropertyOp15
 70
     1
102
RTVSPropertyOp16
 70
     1
102
RTVSPropertyOp17
 70
     1
102
RTVSPropertyOp18
 70
     1
102
RTVSPropertyOp19
 70
     1
102
RTVSPropertyOp20
 70
     1
102
RTVSPropertyOp21
 70
     1
102
RTVSPropertyOp22
 70
     1
102
RTVSPropertyOp23
 70
     1
102
RTVSPropertyOp24
 70
     1
102
RTVSPropertyOp25
 70
     1
102
RTVSPropertyOp26
 70
     1
102
RTVSPropertyOp27
 70
     1
102
RTVSPropertyOp28
 70
     1
102
RTVSPropertyOp29
 70
     1
102
RTVSPropertyOp30
 70
     1
102
RTVSPropertyOp31
 70
     1
102
RTVSPropertyOp32
 70
     1
  0
XRECORD
  5
CF
102
{ACAD_REACTORS
330
CE
102
}
330
CE
100
AcDbXrecord
280
     1
102
RTVSPropertyOp0
 70
     1
102
RTVSPropertyOp1
 70
     1
102
RTVSPropertyOp2
 70
     1
102
RTVSPropertyOp3
 70
     1
102
RTVSPropertyOp4
 70
     1
102
RTVSPropertyOp5
 70
     1
102
RTVSPropertyOp6
 70
     1
102
RTVSPropertyOp7
 70
     1
102
RTVSPropertyOp8
 70
     1
102
RTVSPropertyOp9
 70
     1
102
RTVSPropertyOp10
 70
     1
102
RTVSPropertyOp11
 70
     1
102
RTVSPropertyOp12
 70
     1
102
RTVSPropertyOp13
 70
     1
102
RTVSPropertyOp14
 70
     1
102
RTVSPropertyOp15
 70
     1
102
RTVSPropertyOp16
 70
     1
102
RTVSPropertyOp17
 70
     1
102
RTVSPropertyOp18
 70
     1
102
RTVSPropertyOp19
 70
     1
102
RTVSPropertyOp20
 70
     1
102
RTVSPropertyOp21
 70
     1
102
RTVSPropertyOp22
 70
     1
102
RTVSPropertyOp23
 70
     1
102
RTVSPropertyOp24
 70
     1
102
RTVSPropertyOp25
 70
     1
102
RTVSPropertyOp26
 70
     1
102
RTVSPropertyOp27
 70
     1
102
RTVSPropertyOp28
 70
     1
102
RTVSPropertyOp29
 70
     1
102
RTVSPropertyOp30
 70
     1
102
RTVSPropertyOp31
 70
     1
102
RTVSPropertyOp32
 70
     1
  0
XRECORD
  5
D7
102
{ACAD_REACTORS
330
D6
102
}
330
D6
100
AcDbXrecord
280
     1
102
RTVSPropertyOp0
 70
     1
102
RTVSPropertyOp1
 70
     1
102
RTVSPropertyOp2
 70
     1
102
RTVSPropertyOp3
 70
     1
102
RTVSPropertyOp4
 70
     1
102
RTVSPropertyOp5
 70
     1
102
RTVSPropertyOp6
 70
     1
102
RTVSPropertyOp7
 70
     1
102
RTVSPropertyOp8
 70
     1
102
RTVSPropertyOp9
 70
     1
102
RTVSPropertyOp10
 70
     1
102
RTVSPropertyOp11
 70
     1
102
RTVSPropertyOp12
 70
     1
102
RTVSPropertyOp13
 70
     1
102
RTVSPropertyOp14
 70
     1
102
RTVSPropertyOp15
 70
     1
102
RTVSPropertyOp16
 70
     1
102
RTVSPropertyOp17
 70
     1
102
RTVSPropertyOp18
 70
     1
102
RTVSPropertyOp19
 70
     1
102
RTVSPropertyOp20
 70
     1
102
RTVSPropertyOp21
 70
     1
102
RTVSPropertyOp22
 70
     1
102
RTVSPropertyOp23
 70
     1
102
RTVSPropertyOp24
 70
     1
102
RTVSPropertyOp25
 70
     1
102
RTVSPropertyOp26
 70
     1
102
RTVSPropertyOp27
 70
     1
102
RTVSPropertyOp28
 70
     1
102
RTVSPropertyOp29
 70
     1
102
RTVSPropertyOp30
 70
     1
102
RTVSPropertyOp31
 70
     1
102
RTVSPropertyOp32
 70
     1
  0
XRECORD
  5
CB
102
{ACAD_REACTORS
330
CA
102
}
330
CA
100
AcDbXrecord
280
     1
102
RTVSPropertyOp0
 70
     1
102
RTVSPropertyOp1
 70
     1
102
RTVSPropertyOp2
 70
     1
102
RTVSPropertyOp3
 70
     1
102
RTVSPropertyOp4
 70
     1
102
RTVSPropertyOp5
 70
     1
102
RTVSPropertyOp6
 70
     1
102
RTVSPropertyOp7
 70
     1
102
RTVSPropertyOp8
 70
     1
102
RTVSPropertyOp9
 70
     1
102
RTVSPropertyOp10
 70
     1
102
RTVSPropertyOp11
 70
     1
102
RTVSPropertyOp12
 70
     1
102
RTVSPropertyOp13
 70
     1
102
RTVSPropertyOp14
 70
     1
102
RTVSPropertyOp15
 70
     1
102
RTVSPropertyOp16
 70
     1
102
RTVSPropertyOp17
 70
     1
102
RTVSPropertyOp18
 70
     1
102
RTVSPropertyOp19
 70
     1
102
RTVSPropertyOp20
 70
     1
102
RTVSPropertyOp21
 70
     1
102
RTVSPropertyOp22
 70
     1
102
RTVSPropertyOp23
 70
     1
102
RTVSPropertyOp24
 70
     1
102
RTVSPropertyOp25
 70
     1
102
RTVSPropertyOp26
 70
     1
102
RTVSPropertyOp27
 70
     1
102
RTVSPropertyOp28
 70
     1
102
RTVSPropertyOp29
 70
     1
102
RTVSPropertyOp30
 70
     1
102
RTVSPropertyOp31
 70
     1
102
RTVSPropertyOp32
 70
     1
  0
XRECORD
  5
CD
102
{ACAD_REACTORS
330
CC
102
}
330
CC
100
AcDbXrecord
280
     1
102
RTVSPropertyOp0
 70
     1
102
RTVSPropertyOp1
 70
     1
102
RTVSPropertyOp2
 70
     1
102
RTVSPropertyOp3
 70
     1
102
RTVSPropertyOp4
 70
     1
102
RTVSPropertyOp5
 70
     1
102
RTVSPropertyOp6
 70
     1
102
RTVSPropertyOp7
 70
     1
102
RTVSPropertyOp8
 70
     1
102
RTVSPropertyOp9
 70
     1
102
RTVSPropertyOp10
 70
     1
102
RTVSPropertyOp11
 70
     1
102
RTVSPropertyOp12
 70
     1
102
RTVSPropertyOp13
 70
     1
102
RTVSPropertyOp14
 70
     1
102
RTVSPropertyOp15
 70
     1
102
RTVSPropertyOp16
 70
     1
102
RTVSPropertyOp17
 70
     1
102
RTVSPropertyOp18
 70
     1
102
RTVSPropertyOp19
 70
     1
102
RTVSPropertyOp20
 70
     1
102
RTVSPropertyOp21
 70
     1
102
RTVSPropertyOp22
 70
     1
102
RTVSPropertyOp23
 70
     1
102
RTVSPropertyOp24
 70
     1
102
RTVSPropertyOp25
 70
     1
102
RTVSPropertyOp26
 70
     1
102
RTVSPropertyOp27
 70
     1
102
RTVSPropertyOp28
 70
     1
102
RTVSPropertyOp29
 70
     1
102
RTVSPropertyOp30
 70
     1
102
RTVSPropertyOp31
 70
     1
102
RTVSPropertyOp32
 70
     1
  0
XRECORD
  5
D5
102
{ACAD_REACTORS
330
D4
102
}
330
D4
100
AcDbXrecord
280
     1
102
RTVSPropertyOp0
 70
     1
102
RTVSPropertyOp1
 70
     1
102
RTVSPropertyOp2
 70
     1
102
RTVSPropertyOp3
 70
     1
102
RTVSPropertyOp4
 70
     1
102
RTVSPropertyOp5
 70
     1
102
RTVSPropertyOp6
 70
     1
102
RTVSPropertyOp7
 70
     1
102
RTVSPropertyOp8
 70
     1
102
RTVSPropertyOp9
 70
     1
102
RTVSPropertyOp10
 70
     1
102
RTVSPropertyOp11
 70
     1
102
RTVSPropertyOp12
 70
     1
102
RTVSPropertyOp13
 70
     1
102
RTVSPropertyOp14
 70
     1
102
RTVSPropertyOp15
 70
     1
102
RTVSPropertyOp16
 70
     1
102
RTVSPropertyOp17
 70
     1
102
RTVSPropertyOp18
 70
     1
102
RTVSPropertyOp19
 70
     1
102
RTVSPropertyOp20
 70
     1
102
RTVSPropertyOp21
 70
     1
102
RTVSPropertyOp22
 70
     1
102
RTVSPropertyOp23
 70
     1
102
RTVSPropertyOp24
 70
     1
102
RTVSPropertyOp25
 70
     1
102
RTVSPropertyOp26
 70
     1
102
RTVSPropertyOp27
 70
     1
102
RTVSPropertyOp28
 70
     1
102
RTVSPropertyOp29
 70
     1
102
RTVSPropertyOp30
 70
     1
102
RTVSPropertyOp31
 70
     1
102
RTVSPropertyOp32
 70
     1
  0
XRECORD
  5
B9
102
{ACAD_REACTORS
330
B8
102
}
330
B8
100
AcDbXrecord
280
     1
102
RTVSPropertyOp0
 70
     1
102
RTVSPropertyOp1
 70
     1
102
RTVSPropertyOp2
 70
     1
102
RTVSPropertyOp3
 70
     1
102
RTVSPropertyOp4
 70
     1
102
RTVSPropertyOp5
 70
     1
102
RTVSPropertyOp6
 70
     1
102
RTVSPropertyOp7
 70
     1
102
RTVSPropertyOp8
 70
     1
102
RTVSPropertyOp9
 70
     1
102
RTVSPropertyOp10
 70
     1
102
RTVSPropertyOp11
 70
     1
102
RTVSPropertyOp12
 70
     1
102
RTVSPropertyOp13
 70
     1
102
RTVSPropertyOp14
 70
     1
102
RTVSPropertyOp15
 70
     1
102
RTVSPropertyOp16
 70
     1
102
RTVSPropertyOp17
 70
     1
102
RTVSPropertyOp18
 70
     1
102
RTVSPropertyOp19
 70
     1
102
RTVSPropertyOp20
 70
     1
102
RTVSPropertyOp21
 70
     1
102
RTVSPropertyOp22
 70
     1
102
RTVSPropertyOp23
 70
     1
102
RTVSPropertyOp24
 70
     1
102
RTVSPropertyOp25
 70
     1
102
RTVSPropertyOp26
 70
     1
102
RTVSPropertyOp27
 70
     1
102
RTVSPropertyOp28
 70
     1
102
RTVSPropertyOp29
 70
     1
102
RTVSPropertyOp30
 70
     1
102
RTVSPropertyOp31
 70
     1
102
RTVSPropertyOp32
 70
     1
  0
XRECORD
  5
BB
102
{ACAD_REACTORS
330
BA
102
}
330
BA
100
AcDbXrecord
280
     1
102
RTVSPropertyOp0
 70
     1
102
RTVSPropertyOp1
 70
     1
102
RTVSPropertyOp2
 70
     1
102
RTVSPropertyOp3
 70
     1
102
RTVSPropertyOp4
 70
     1
102
RTVSPropertyOp5
 70
     1
102
RTVSPropertyOp6
 70
     1
102
RTVSPropertyOp7
 70
     1
102
RTVSPropertyOp8
 70
     1
102
RTVSPropertyOp9
 70
     1
102
RTVSPropertyOp10
 70
     1
102
RTVSPropertyOp11
 70
     1
102
RTVSPropertyOp12
 70
     1
102
RTVSPropertyOp13
 70
     1
102
RTVSPropertyOp14
 70
     1
102
RTVSPropertyOp15
 70
     1
102
RTVSPropertyOp16
 70
     1
102
RTVSPropertyOp17
 70
     1
102
RTVSPropertyOp18
 70
     1
102
RTVSPropertyOp19
 70
     1
102
RTVSPropertyOp20
 70
     1
102
RTVSPropertyOp21
 70
     1
102
RTVSPropertyOp22
 70
     1
102
RTVSPropertyOp23
 70
     1
102
RTVSPropertyOp24
 70
     1
102
RTVSPropertyOp25
 70
     1
102
RTVSPropertyOp26
 70
     1
102
RTVSPropertyOp27
 70
     1
102
RTVSPropertyOp28
 70
     1
102
RTVSPropertyOp29
 70
     1
102
RTVSPropertyOp30
 70
     1
102
RTVSPropertyOp31
 70
     1
102
RTVSPropertyOp32
 70
     1
  0
XRECORD
  5
BD
102
{ACAD_REACTORS
330
BC
102
}
330
BC
100
AcDbXrecord
280
     1
102
RTVSPropertyOp0
 70
     1
102
RTVSPropertyOp1
 70
     1
102
RTVSPropertyOp2
 70
     1
102
RTVSPropertyOp3
 70
     1
102
RTVSPropertyOp4
 70
     1
102
RTVSPropertyOp5
 70
     1
102
RTVSPropertyOp6
 70
     1
102
RTVSPropertyOp7
 70
     1
102
RTVSPropertyOp8
 70
     1
102
RTVSPropertyOp9
 70
     1
102
RTVSPropertyOp10
 70
     1
102
RTVSPropertyOp11
 70
     1
102
RTVSPropertyOp12
 70
     1
102
RTVSPropertyOp13
 70
     1
102
RTVSPropertyOp14
 70
     1
102
RTVSPropertyOp15
 70
     1
102
RTVSPropertyOp16
 70
     1
102
RTVSPropertyOp17
 70
     1
102
RTVSPropertyOp18
 70
     1
102
RTVSPropertyOp19
 70
     1
102
RTVSPropertyOp20
 70
     1
102
RTVSPropertyOp21
 70
     1
102
RTVSPropertyOp22
 70
     1
102
RTVSPropertyOp23
 70
     1
102
RTVSPropertyOp24
 70
     1
102
RTVSPropertyOp25
 70
     1
102
RTVSPropertyOp26
 70
     1
102
RTVSPropertyOp27
 70
     1
102
RTVSPropertyOp28
 70
     1
102
RTVSPropertyOp29
 70
     1
102
RTVSPropertyOp30
 70
     1
102
RTVSPropertyOp31
 70
     1
102
RTVSPropertyOp32
 70
     1
  0
XRECORD
  5
BF
102
{ACAD_REACTORS
330
BE
102
}
330
BE
100
AcDbXrecord
280
     1
102
RTVSPropertyOp0
 70
     1
102
RTVSPropertyOp1
 70
     1
102
RTVSPropertyOp2
 70
     1
102
RTVSPropertyOp3
 70
     1
102
RTVSPropertyOp4
 70
     1
102
RTVSPropertyOp5
 70
     1
102
RTVSPropertyOp6
 70
     1
102
RTVSPropertyOp7
 70
     1
102
RTVSPropertyOp8
 70
     1
102
RTVSPropertyOp9
 70
     1
102
RTVSPropertyOp10
 70
     1
102
RTVSPropertyOp11
 70
     1
102
RTVSPropertyOp12
 70
     1
102
RTVSPropertyOp13
 70
     1
102
RTVSPropertyOp14
 70
     1
102
RTVSPropertyOp15
 70
     1
102
RTVSPropertyOp16
 70
     1
102
RTVSPropertyOp17
 70
     1
102
RTVSPropertyOp18
 70
     1
102
RTVSPropertyOp19
 70
     1
102
RTVSPropertyOp20
 70
     1
102
RTVSPropertyOp21
 70
     1
102
RTVSPropertyOp22
 70
     1
102
RTVSPropertyOp23
 70
     1
102
RTVSPropertyOp24
 70
     1
102
RTVSPropertyOp25
 70
     1
102
RTVSPropertyOp26
 70
     1
102
RTVSPropertyOp27
 70
     1
102
RTVSPropertyOp28
 70
     1
102
RTVSPropertyOp29
 70
     1
102
RTVSPropertyOp30
 70
     1
102
RTVSPropertyOp31
 70
     1
102
RTVSPropertyOp32
 70
     1
  0
XRECORD
  5
D3
102
{ACAD_REACTORS
330
D2
102
}
330
D2
100
AcDbXrecord
280
     1
102
RTVSPropertyOp0
 70
     1
102
RTVSPropertyOp1
 70
     1
102
RTVSPropertyOp2
 70
     1
102
RTVSPropertyOp3
 70
     1
102
RTVSPropertyOp4
 70
     1
102
RTVSPropertyOp5
 70
     1
102
RTVSPropertyOp6
 70
     1
102
RTVSPropertyOp7
 70
     1
102
RTVSPropertyOp8
 70
     1
102
RTVSPropertyOp9
 70
     1
102
RTVSPropertyOp10
 70
     1
102
RTVSPropertyOp11
 70
     1
102
RTVSPropertyOp12
 70
     1
102
RTVSPropertyOp13
 70
     1
102
RTVSPropertyOp14
 70
     1
102
RTVSPropertyOp15
 70
     1
102
RTVSPropertyOp16
 70
     1
102
RTVSPropertyOp17
 70
     1
102
RTVSPropertyOp18
 70
     1
102
RTVSPropertyOp19
 70
     1
102
RTVSPropertyOp20
 70
     1
102
RTVSPropertyOp21
 70
     1
102
RTVSPropertyOp22
 70
     1
102
RTVSPropertyOp23
 70
     1
102
RTVSPropertyOp24
 70
     1
102
RTVSPropertyOp25
 70
     1
102
RTVSPropertyOp26
 70
     1
102
RTVSPropertyOp27
 70
     1
102
RTVSPropertyOp28
 70
     1
102
RTVSPropertyOp29
 70
     1
102
RTVSPropertyOp30
 70
     1
102
RTVSPropertyOp31
 70
     1
102
RTVSPropertyOp32
 70
     1
  0
XRECORD
  5
C9
102
{ACAD_REACTORS
330
C8
102
}
330
C8
100
AcDbXrecord
280
     1
102
RTVSPropertyOp0
 70
     1
102
RTVSPropertyOp1
 70
     1
102
RTVSPropertyOp2
 70
     1
102
RTVSPropertyOp3
 70
     1
102
RTVSPropertyOp4
 70
     1
102
RTVSPropertyOp5
 70
     1
102
RTVSPropertyOp6
 70
     1
102
RTVSPropertyOp7
 70
     1
102
RTVSPropertyOp8
 70
     1
102
RTVSPropertyOp9
 70
     1
102
RTVSPropertyOp10
 70
     1
102
RTVSPropertyOp11
 70
     1
102
RTVSPropertyOp12
 70
     1
102
RTVSPropertyOp13
 70
     1
102
RTVSPropertyOp14
 70
     1
102
RTVSPropertyOp15
 70
     1
102
RTVSPropertyOp16
 70
     1
102
RTVSPropertyOp17
 70
     1
102
RTVSPropertyOp18
 70
     1
102
RTVSPropertyOp19
 70
     1
102
RTVSPropertyOp20
 70
     1
102
RTVSPropertyOp21
 70
     1
102
RTVSPropertyOp22
 70
     1
102
RTVSPropertyOp23
 70
     1
102
RTVSPropertyOp24
 70
     1
102
RTVSPropertyOp25
 70
     1
102
RTVSPropertyOp26
 70
     1
102
RTVSPropertyOp27
 70
     1
102
RTVSPropertyOp28
 70
     1
102
RTVSPropertyOp29
 70
     1
102
RTVSPropertyOp30
 70
     1
102
RTVSPropertyOp31
 70
     1
102
RTVSPropertyOp32
 70
     1
  0
XRECORD
  5
D1
102
{ACAD_REACTORS
330
D0
102
}
330
D0
100
AcDbXrecord
280
     1
102
RTVSPropertyOp0
 70
     1
102
RTVSPropertyOp1
 70
     1
102
RTVSPropertyOp2
 70
     1
102
RTVSPropertyOp3
 70
     1
102
RTVSPropertyOp4
 70
     1
102
RTVSPropertyOp5
 70
     1
102
RTVSPropertyOp6
 70
     1
102
RTVSPropertyOp7
 70
     1
102
RTVSPropertyOp8
 70
     1
102
RTVSPropertyOp9
 70
     1
102
RTVSPropertyOp10
 70
     1
102
RTVSPropertyOp11
 70
     1
102
RTVSPropertyOp12
 70
     1
102
RTVSPropertyOp13
 70
     1
102
RTVSPropertyOp14
 70
     1
102
RTVSPropertyOp15
 70
     1
102
RTVSPropertyOp16
 70
     1
102
RTVSPropertyOp17
 70
     1
102
RTVSPropertyOp18
 70
     1
102
RTVSPropertyOp19
 70
     1
102
RTVSPropertyOp20
 70
     1
102
RTVSPropertyOp21
 70
     1
102
RTVSPropertyOp22
 70
     1
102
RTVSPropertyOp23
 70
     1
102
RTVSPropertyOp24
 70
     1
102
RTVSPropertyOp25
 70
     1
102
RTVSPropertyOp26
 70
     1
102
RTVSPropertyOp27
 70
     1
102
RTVSPropertyOp28
 70
     1
102
RTVSPropertyOp29
 70
     1
102
RTVSPropertyOp30
 70
     1
102
RTVSPropertyOp31
 70
     1
102
RTVSPropertyOp32
 70
     1
  0
ENDSEC
  0
EOF
