  0
SECTION
  2
HEADER
  9
$ACADVER
  1
AC1021
  9
$ACADMAINTVER
 70
    25
  9
$DWGCODEPAGE
  3
ANSI_1252
  9
$INSBASE
 10
0.0
 20
0.0
 30
0.0
  9
$EXTMIN
 10
-75.2395
 20
-99.2137
 30
0.0
  9
$EXTMAX
 10
65.0216
 20
97.3632
 30
0.0
  9
$LIMMIN
 10
0.0
 20
0.0
  9
$LIMMAX
 10
12.0
 20
9.0
  9
$ORTHOMODE
 70
     0
  9
$REGENMODE
 70
     1
  9
$FILLMODE
 70
     1
  9
$QTEXTMODE
 70
     0
  9
$MIRRTEXT
 70
     1
  9
$LTSCALE
 40
1.0
  9
$ATTMODE
 70
     1
  9
$TEXTSIZE
 40
0.2
  9
$TRACEWID
 40
0.05
  9
$TEXTSTYLE
  7
Standard
  9
$CLAYER
  8
0
  9
$CELTYPE
  6
ByLayer
  9
$CECOLOR
 62
   256
  9
$CELTSCALE
 40
1.0
  9
$DISPSILH
 70
     0
  9
$DIMSCALE
 40
1.0
  9
$DIMASZ
 40
0.18
  9
$DIMEXO
 40
0.0625
  9
$DIMDLI
 40
0.38
  9
$DIMRND
 40
0.0
  9
$DIMDLE
 40
0.0
  9
$DIMEXE
 40
0.18
  9
$DIMTP
 40
0.0
  9
$DIMTM
 40
0.0
  9
$DIMTXT
 40
0.18
  9
$DIMCEN
 40
0.09
  9
$DIMTSZ
 40
0.0
  9
$DIMTOL
 70
     0
  9
$DIMLIM
 70
     0
  9
$DIMTIH
 70
     1
  9
$DIMTOH
 70
     1
  9
$DIMSE1
 70
     0
  9
$DIMSE2
 70
     0
  9
$DIMTAD
 70
     0
  9
$DIMZIN
 70
     0
  9
$DIMBLK
  1

  9
$DIMASO
 70
     1
  9
$DIMSHO
 70
     1
  9
$DIMPOST
  1

  9
$DIMAPOST
  1

  9
$DIMALT
 70
     0
  9
$DIMALTD
 70
     2
  9
$DIMALTF
 40
25.4
  9
$DIMLFAC
 40
1.0
  9
$DIMTOFL
 70
     0
  9
$DIMTVP
 40
0.0
  9
$DIMTIX
 70
     0
  9
$DIMSOXD
 70
     0
  9
$DIMSAH
 70
     0
  9
$DIMBLK1
  1

  9
$DIMBLK2
  1

  9
$DIMSTYLE
  2
Standard
  9
$DIMCLRD
 70
     0
  9
$DIMCLRE
 70
     0
  9
$DIMCLRT
 70
     0
  9
$DIMTFAC
 40
1.0
  9
$DIMGAP
 40
0.09
  9
$DIMJUST
 70
     0
  9
$DIMSD1
 70
     0
  9
$DIMSD2
 70
     0
  9
$DIMTOLJ
 70
     1
  9
$DIMTZIN
 70
     0
  9
$DIMALTZ
 70
     0
  9
$DIMALTTZ
 70
     0
  9
$DIMUPT
 70
     0
  9
$DIMDEC
 70
     4
  9
$DIMTDEC
 70
     4
  9
$DIMALTU
 70
     2
  9
$DIMALTTD
 70
     2
  9
$DIMTXSTY
  7
Standard
  9
$DIMAUNIT
 70
     0
  9
$DIMADEC
 70
     0
  9
$DIMALTRND
 40
0.0
  9
$DIMAZIN
 70
     0
  9
$DIMDSEP
 70
    46
  9
$DIMATFIT
 70
     3
  9
$DIMFRAC
 70
     0
  9
$DIMLDRBLK
  1

  9
$DIMLUNIT
 70
     2
  9
$DIMLWD
 70
    -2
  9
$DIMLWE
 70
    -2
  9
$DIMTMOVE
 70
     0
  9
$DIMFXL
 40
1.0
  9
$DIMFXLON
 70
     0
  9
$DIMJOGANG
 40
0.7853981633974483
  9
$DIMTFILL
 70
     0
  9
$DIMTFILLCLR
 70
     0
  9
$DIMARCSYM
 70
     0
  9
$DIMLTYPE
  6

  9
$DIMLTEX1
  6

  9
$DIMLTEX2
  6

  9
$LUNITS
 70
     2
  9
$LUPREC
 70
     4
  9
$SKETCHINC
 40
0.1
  9
$FILLETRAD
 40
0.5
  9
$AUNITS
 70
     0
  9
$AUPREC
 70
     0
  9
$MENU
  1
.
  9
$ELEVATION
 40
0.0
  9
$PELEVATION
 40
0.0
  9
$THICKNESS
 40
0.0
  9
$LIMCHECK
 70
     0
  9
$CHAMFERA
 40
0.5
  9
$CHAMFERB
 40
0.5
  9
$CHAMFERC
 40
1.0
  9
$CHAMFERD
 40
0.0
  9
$SKPOLY
 70
     0
  9
$TDCREATE
 40
2458492.791466331
  9
$TDUCREATE
 40
2458492.791466331
  9
$TDUPDATE
 40
2458492.791466806
  9
$TDUUPDATE
 40
2458492.791466806
  9
$TDINDWG
 40
0.0000000116
  9
$TDUSRTIMER
 40
0.0000000116
  9
$USRTIMER
 70
     1
  9
$ANGBASE
 50
0.0
  9
$ANGDIR
 70
     0
  9
$PDMODE
 70
     0
  9
$PDSIZE
 40
0.0
  9
$PLINEWID
 40
0.0
  9
$SPLFRAME
 70
     0
  9
$SPLINETYPE
 70
     6
  9
$SPLINESEGS
 70
     8
  9
$HANDSEED
  5
B0
  9
$SURFTAB1
 70
     6
  9
$SURFTAB2
 70
     6
  9
$SURFTYPE
 70
     6
  9
$SURFU
 70
     6
  9
$SURFV
 70
     6
  9
$UCSBASE
  2

  9
$UCSNAME
  2

  9
$UCSORG
 10
0.0
 20
0.0
 30
0.0
  9
$UCSXDIR
 10
1.0
 20
0.0
 30
0.0
  9
$UCSYDIR
 10
0.0
 20
1.0
 30
0.0
  9
$UCSORTHOREF
  2

  9
$UCSORTHOVIEW
 70
     0
  9
$UCSORGTOP
 10
0.0
 20
0.0
 30
0.0
  9
$UCSORGBOTTOM
 10
0.0
 20
0.0
 30
0.0
  9
$UCSORGLEFT
 10
0.0
 20
0.0
 30
0.0
  9
$UCSORGRIGHT
 10
0.0
 20
0.0
 30
0.0
  9
$UCSORGFRONT
 10
0.0
 20
0.0
 30
0.0
  9
$UCSORGBACK
 10
0.0
 20
0.0
 30
0.0
  9
$PUCSBASE
  2

  9
$PUCSNAME
  2

  9
$PUCSORG
 10
0.0
 20
0.0
 30
0.0
  9
$PUCSXDIR
 10
1.0
 20
0.0
 30
0.0
  9
$PUCSYDIR
 10
0.0
 20
1.0
 30
0.0
  9
$PUCSORTHOREF
  2

  9
$PUCSORTHOVIEW
 70
     0
  9
$PUCSORGTOP
 10
0.0
 20
0.0
 30
0.0
  9
$PUCSORGBOTTOM
 10
0.0
 20
0.0
 30
0.0
  9
$PUCSORGLEFT
 10
0.0
 20
0.0
 30
0.0
  9
$PUCSORGRIGHT
 10
0.0
 20
0.0
 30
0.0
  9
$PUCSORGFRONT
 10
0.0
 20
0.0
 30
0.0
  9
$PUCSORGBACK
 10
0.0
 20
0.0
 30
0.0
  9
$USERI1
 70
     0
  9
$USERI2
 70
     0
  9
$USERI3
 70
     0
  9
$USERI4
 70
     0
  9
$USERI5
 70
     0
  9
$USERR1
 40
0.0
  9
$USERR2
 40
0.0
  9
$USERR3
 40
0.0
  9
$USERR4
 40
0.0
  9
$USERR5
 40
0.0
  9
$WORLDVIEW
 70
     1
  9
$SHADEDGE
 70
     3
  9
$SHADEDIF
 70
    70
  9
$TILEMODE
 70
     1
  9
$MAXACTVP
 70
    64
  9
$PINSBASE
 10
0.0
 20
0.0
 30
0.0
  9
$PLIMCHECK
 70
     0
  9
$PEXTMIN
 10
1.000000000000000E+20
 20
1.000000000000000E+20
 30
1.000000000000000E+20
  9
$PEXTMAX
 10
-1.000000000000000E+20
 20
-1.000000000000000E+20
 30
-1.000000000000000E+20
  9
$PLIMMIN
 10
0.0
 20
0.0
  9
$PLIMMAX
 10
12.0
 20
9.0
  9
$UNITMODE
 70
     0
  9
$VISRETAIN
 70
     1
  9
$PLINEGEN
 70
     0
  9
$PSLTSCALE
 70
     1
  9
$TREEDEPTH
 70
  3020
  9
$CMLSTYLE
  2
Standard
  9
$CMLJUST
 70
     0
  9
$CMLSCALE
 40
1.0
  9
$PROXYGRAPHICS
 70
     1
  9
$MEASUREMENT
 70
     0
  9
$CELWEIGHT
370
    -1
  9
$ENDCAPS
280
     0
  9
$JOINSTYLE
280
     0
  9
$LWDISPLAY
290
     0
  9
$INSUNITS
 70
     4
  9
$HYPERLINKBASE
  1

  9
$STYLESHEET
  1

  9
$XEDIT
290
     1
  9
$CEPSNTYPE
380
     0
  9
$PSTYLEMODE
290
     1
  9
$FINGERPRINTGUID
  2
{F125C112-B249-40EB-8DA4-23CE5DB64B1E}
  9
$VERSIONGUID
  2
{FAEB1C32-E019-11D5-929B-00C0DF256EC4}
  9
$EXTNAMES
290
     1
  9
$PSVPSCALE
 40
0.0
  9
$OLESTARTUP
290
     0
  9
$SORTENTS
280
   127
  9
$INDEXCTL
280
     0
  9
$HIDETEXT
280
     1
  9
$XCLIPFRAME
290
     0
  9
$HALOGAP
280
     0
  9
$OBSCOLOR
 70
   257
  9
$OBSLTYPE
280
     0
  9
$INTERSECTIONDISPLAY
280
     0
  9
$INTERSECTIONCOLOR
 70
   257
  9
$DIMASSOC
280
     2
  9
$PROJECTNAME
  1

  9
$CAMERADISPLAY
290
     0
  9
$LENSLENGTH
 40
50.0
  9
$CAMERAHEIGHT
 40
0.0
  9
$STEPSPERSEC
 40
2.0
  9
$STEPSIZE
 40
6.0
  9
$3DDWFPREC
 40
2.0
  9
$PSOLWIDTH
 40
0.25
  9
$PSOLHEIGHT
 40
4.0
  9
$LOFTANG1
 40
1.570796326794897
  9
$LOFTANG2
 40
1.570796326794897
  9
$LOFTMAG1
 40
0.0
  9
$LOFTMAG2
 40
0.0
  9
$LOFTPARAM
 70
     7
  9
$LOFTNORMALS
280
     1
  9
$LATITUDE
 40
37.795
  9
$LONGITUDE
 40
-122.394
  9
$NORTHDIRECTION
 40
0.0
  9
$TIMEZONE
 70
 -8000
  9
$LIGHTGLYPHDISPLAY
280
     1
  9
$TILEMODELIGHTSYNCH
280
     1
  9
$SOLIDHIST
280
     1
  9
$SHOWHIST
280
     1
  9
$DWFFRAME
280
     2
  9
$DGNFRAME
280
     2
  9
$REALWORLDSCALE
290
     1
  9
$INTERFERECOLOR
 62
   256
  9
$CSHADOW
280
     0
  9
$SHADOWPLANELOCATION
 40
0.0
  0
ENDSEC
  0
SECTION
  2
CLASSES
  0
CLASS
  1
ACDBDICTIONARYWDFLT
  2
AcDbDictionaryWithDefault
  3
ObjectDBX Classes
 90
        0
 91
        4
280
     0
281
     0
  0
CLASS
  1
VISUALSTYLE
  2
AcDbVisualStyle
  3
ObjectDBX Classes
 90
     4095
 91
        4
280
     0
281
     0
  0
CLASS
  1
MATERIAL
  2
AcDbMaterial
  3
ObjectDBX Classes
 90
     1153
 91
        4
280
     0
281
     0
  0
ENDSEC
  0
SECTION
  2
TABLES
  0
TABLE
  2
VPORT
  5
8
330
0
100
AcDbSymbolTable
 70
     1
  0
VPORT
  5
29
330
8
100
AcDbSymbolTableRecord
100
AcDbViewportTableRecord
  2
*Active
 70
     0
 10
0.0
 20
0.0
 11
1.0
 21
1.0
 12
10.42990654205607
 22
4.5
 13
0.0
 23
0.0
 14
0.5
 24
0.5
 15
0.5
 25
0.5
 16
0.0
 26
0.0
 36
1.0
 17
0.0
 27
0.0
 37
0.0
 40
9.0
 41
1.972972972850329
 42
50.0
 43
0.0
 44
0.0
 50
0.0
 51
0.0
 71
     0
 72
   100
 73
     1
 74
     3
 75
     0
 76
     0
 77
     0
 78
     0
281
     0
 65
     1
110
0.0
120
0.0
130
0.0
111
1.0
121
0.0
131
0.0
112
0.0
122
1.0
132
0.0
 79
     0
146
0.0
 60
     3
 61
     5
292
     1
282
     1
141
0.0
142
0.0
 63
   250
  0
ENDTAB
  0
TABLE
  2
LTYPE
  5
5
330
0
100
AcDbSymbolTable
 70
     1
  0
LTYPE
  5
14
330
5
100
AcDbSymbolTableRecord
100
AcDbLinetypeTableRecord
  2
ByBlock
 70
     0
  3

 72
    65
 73
     0
 40
0.0
  0
LTYPE
  5
15
330
5
100
AcDbSymbolTableRecord
100
AcDbLinetypeTableRecord
  2
ByLayer
 70
     0
  3

 72
    65
 73
     0
 40
0.0
  0
LTYPE
  5
16
330
5
100
AcDbSymbolTableRecord
100
AcDbLinetypeTableRecord
  2
Continuous
 70
     0
  3
Solid line
 72
    65
 73
     0
 40
0.0
  0
ENDTAB
  0
TABLE
  2
LAYER
  5
2
330
0
100
AcDbSymbolTable
 70
     2
  0
LAYER
  5
10
330
2
100
AcDbSymbolTableRecord
100
AcDbLayerTableRecord
  2
0
 70
     0
 62
     7
  6
Continuous
370
    -3
390
F
347
3E
  0
LAYER
  5
40
330
2
100
AcDbSymbolTableRecord
100
AcDbLayerTableRecord
  2
layer 1
 70
     0
 62
     7
  6
Continuous
370
    -3
390
F
347
3E
  0
ENDTAB
  0
TABLE
  2
STYLE
  5
3
330
0
100
AcDbSymbolTable
 70
     1
  0
STYLE
  5
11
330
3
100
AcDbSymbolTableRecord
100
AcDbTextStyleTableRecord
  2
Standard
 70
     0
 40
0.0
 41
1.0
 50
0.0
 71
     0
 42
0.2
  3
txt
  4

  0
ENDTAB
  0
TABLE
  2
VIEW
  5
6
330
0
100
AcDbSymbolTable
 70
     0
  0
ENDTAB
  0
TABLE
  2
UCS
  5
7
330
0
100
AcDbSymbolTable
 70
     0
  0
ENDTAB
  0
TABLE
  2
APPID
  5
9
330
0
100
AcDbSymbolTable
 70
     2
  0
APPID
  5
12
330
9
100
AcDbSymbolTableRecord
100
AcDbRegAppTableRecord
  2
ACAD
 70
     0
  0
APPID
  5
3F
330
9
100
AcDbSymbolTableRecord
100
AcDbRegAppTableRecord
  2
ODA
 70
     0
  0
ENDTAB
  0
TABLE
  2
DIMSTYLE
  5
A
330
0
100
AcDbSymbolTable
 70
     1
100
AcDbDimStyleTable
  0
DIMSTYLE
105
27
330
A
100
AcDbSymbolTableRecord
100
AcDbDimStyleTableRecord
  2
Standard
 70
     0
178
     0
340
11
  0
ENDTAB
  0
TABLE
  2
BLOCK_RECORD
  5
1
330
0
100
AcDbSymbolTable
 70
     1
  0
BLOCK_RECORD
  5
1F
330
1
100
AcDbSymbolTableRecord
100
AcDbBlockTableRecord
  2
*Model_Space
340
22
 70
     0
280
     1
281
     0
  0
BLOCK_RECORD
  5
1B
330
1
100
AcDbSymbolTableRecord
100
AcDbBlockTableRecord
  2
*Paper_Space
340
1E
 70
     0
280
     1
281
     0
  0
BLOCK_RECORD
  5
23
330
1
100
AcDbSymbolTableRecord
100
AcDbBlockTableRecord
  2
*Paper_Space0
340
26
 70
     0
280
     1
281
     0
  0
ENDTAB
  0
ENDSEC
  0
SECTION
  2
BLOCKS
  0
BLOCK
  5
20
330
1F
100
AcDbEntity
  8
0
100
AcDbBlockBegin
  2
*Model_Space
 70
     0
 10
0.0
 20
0.0
 30
0.0
  3
*Model_Space
  1

  0
ENDBLK
  5
21
330
1F
100
AcDbEntity
  8
0
100
AcDbBlockEnd
  0
BLOCK
  5
1C
330
1B
100
AcDbEntity
 67
     1
  8
0
100
AcDbBlockBegin
  2
*Paper_Space
 70
     0
 10
0.0
 20
0.0
 30
0.0
  3
*Paper_Space
  1

  0
ENDBLK
  5
1D
330
1B
100
AcDbEntity
 67
     1
  8
0
100
AcDbBlockEnd
  0
BLOCK
  5
24
330
23
100
AcDbEntity
  8
0
100
AcDbBlockBegin
  2
*Paper_Space0
 70
     0
 10
0.0
 20
0.0
 30
0.0
  3
*Paper_Space0
  1

  0
ENDBLK
  5
25
330
23
100
AcDbEntity
  8
0
100
AcDbBlockEnd
  0
ENDSEC
  0
SECTION
  2
ENTITIES
  0
SPLINE
  5
41
330
1F
100
AcDbEntity
  8
layer 1
 62
   250
370
     9
100
AcDbSpline
210
0.0
220
0.0
230
1.0
 70
    11
 71
     3
 72
    24
 73
    20
 74
     0
 42
0.0000000001
 43
0.0000000001
 12
1.0
 22
0.0
 32
0.0
 13
1.0
 23
0.0
 33
0.0
 40
0.0
 40
0.0
 40
0.0
 40
0.0
 40
0.1666666666666667
 40
0.1666666666666667
 40
0.1666666666666667
 40
0.1666666666666667
 40
0.3333333333333333
 40
0.3333333333333333
 40
0.3333333333333333
 40
0.3333333333333333
 40
0.5
 40
0.5
 40
0.5
 40
0.5
 40
0.6666666666666666
 40
0.6666666666666666
 40
0.6666666666666666
 40
0.6666666666666666
 40
1.0
 40
1.0
 40
1.0
 40
1.0
 10
-75.2014
 20
-0.9256
 30
0.0
 10
-75.2014
 20
-0.9256
 30
0.0
 10
-75.2014
 20
97.3251
 30
0.0
 10
-75.2014
 20
97.3251
 30
0.0
 10
-75.2014
 20
97.3251
 30
0.0
 10
-75.2014
 20
97.3251
 30
0.0
 10
64.9835
 20
97.3251
 30
0.0
 10
64.9835
 20
97.3251
 30
0.0
 10
64.9835
 20
97.3251
 30
0.0
 10
64.9835
 20
97.3251
 30
0.0
 10
64.9835
 20
-99.1756
 30
0.0
 10
64.9835
 20
-99.1756
 30
0.0
 10
64.9835
 20
-99.1756
 30
0.0
 10
64.9835
 20
-99.1756
 30
0.0
 10
-75.2014
 20
-99.1756
 30
0.0
 10
-75.2014
 20
-99.1756
 30
0.0
 10
-75.2014
 20
-99.1756
 30
0.0
 10
-75.2014
 20
-99.1756
 30
0.0
 10
-75.2014
 20
-0.9256
 30
0.0
 10
-75.2014
 20
-0.9256
 30
0.0
  0
SPLINE
  5
42
330
1F
100
AcDbEntity
  8
layer 1
 62
     7
370
     9
100
AcDbSpline
210
0.0
220
0.0
230
1.0
 70
    11
 71
     3
 72
   196
 73
   192
 74
     0
 42
0.0000000001
 43
0.0000000001
 12
1.0
 22
0.0
 32
0.0
 13
1.0
 23
0.0
 33
0.0
 40
0.0
 40
0.0
 40
0.0
 40
0.0
 40
0.0204081632653061
 40
0.0204081632653061
 40
0.0204081632653061
 40
0.0204081632653061
 40
0.0408163265306122
 40
0.0408163265306122
 40
0.0408163265306122
 40
0.0408163265306122
 40
0.0612244897959184
 40
0.0612244897959184
 40
0.0612244897959184
 40
0.0612244897959184
 40
0.0816326530612245
 40
0.0816326530612245
 40
0.0816326530612245
 40
0.0816326530612245
 40
0.1020408163265306
 40
0.1020408163265306
 40
0.1020408163265306
 40
0.1020408163265306
 40
0.1224489795918367
 40
0.1224489795918367
 40
0.1224489795918367
 40
0.1224489795918367
 40
0.1428571428571428
 40
0.1428571428571428
 40
0.1428571428571428
 40
0.1428571428571428
 40
0.163265306122449
 40
0.163265306122449
 40
0.163265306122449
 40
0.163265306122449
 40
0.1836734693877551
 40
0.1836734693877551
 40
0.1836734693877551
 40
0.1836734693877551
 40
0.2040816326530612
 40
0.2040816326530612
 40
0.2040816326530612
 40
0.2040816326530612
 40
0.2244897959183673
 40
0.2244897959183673
 40
0.2244897959183673
 40
0.2244897959183673
 40
0.2448979591836735
 40
0.2448979591836735
 40
0.2448979591836735
 40
0.2448979591836735
 40
0.2653061224489796
 40
0.2653061224489796
 40
0.2653061224489796
 40
0.2653061224489796
 40
0.2857142857142857
 40
0.2857142857142857
 40
0.2857142857142857
 40
0.2857142857142857
 40
0.3061224489795918
 40
0.3061224489795918
 40
0.3061224489795918
 40
0.3061224489795918
 40
0.3265306122448979
 40
0.3265306122448979
 40
0.3265306122448979
 40
0.3265306122448979
 40
0.3469387755102041
 40
0.3469387755102041
 40
0.3469387755102041
 40
0.3469387755102041
 40
0.3673469387755102
 40
0.3673469387755102
 40
0.3673469387755102
 40
0.3673469387755102
 40
0.3877551020408163
 40
0.3877551020408163
 40
0.3877551020408163
 40
0.3877551020408163
 40
0.4081632653061225
 40
0.4081632653061225
 40
0.4081632653061225
 40
0.4081632653061225
 40
0.4285714285714285
 40
0.4285714285714285
 40
0.4285714285714285
 40
0.4285714285714285
 40
0.4489795918367347
 40
0.4489795918367347
 40
0.4489795918367347
 40
0.4489795918367347
 40
0.4693877551020408
 40
0.4693877551020408
 40
0.4693877551020408
 40
0.4693877551020408
 40
0.4897959183673469
 40
0.4897959183673469
 40
0.4897959183673469
 40
0.4897959183673469
 40
0.5102040816326531
 40
0.5102040816326531
 40
0.5102040816326531
 40
0.5102040816326531
 40
0.5306122448979592
 40
0.5306122448979592
 40
0.5306122448979592
 40
0.5306122448979592
 40
0.5510204081632653
 40
0.5510204081632653
 40
0.5510204081632653
 40
0.5510204081632653
 40
0.5714285714285714
 40
0.5714285714285714
 40
0.5714285714285714
 40
0.5714285714285714
 40
0.5918367346938775
 40
0.5918367346938775
 40
0.5918367346938775
 40
0.5918367346938775
 40
0.6122448979591837
 40
0.6122448979591837
 40
0.6122448979591837
 40
0.6122448979591837
 40
0.6326530612244898
 40
0.6326530612244898
 40
0.6326530612244898
 40
0.6326530612244898
 40
0.6530612244897959
 40
0.6530612244897959
 40
0.6530612244897959
 40
0.6530612244897959
 40
0.673469387755102
 40
0.673469387755102
 40
0.673469387755102
 40
0.673469387755102
 40
0.6938775510204082
 40
0.6938775510204082
 40
0.6938775510204082
 40
0.6938775510204082
 40
0.7142857142857143
 40
0.7142857142857143
 40
0.7142857142857143
 40
0.7142857142857143
 40
0.7346938775510204
 40
0.7346938775510204
 40
0.7346938775510204
 40
0.7346938775510204
 40
0.7551020408163265
 40
0.7551020408163265
 40
0.7551020408163265
 40
0.7551020408163265
 40
0.7755102040816326
 40
0.7755102040816326
 40
0.7755102040816326
 40
0.7755102040816326
 40
0.7959183673469388
 40
0.7959183673469388
 40
0.7959183673469388
 40
0.7959183673469388
 40
0.8163265306122449
 40
0.8163265306122449
 40
0.8163265306122449
 40
0.8163265306122449
 40
0.8367346938775511
 40
0.8367346938775511
 40
0.8367346938775511
 40
0.8367346938775511
 40
0.8571428571428571
 40
0.8571428571428571
 40
0.8571428571428571
 40
0.8571428571428571
 40
0.8775510204081632
 40
0.8775510204081632
 40
0.8775510204081632
 40
0.8775510204081632
 40
0.8979591836734694
 40
0.8979591836734694
 40
0.8979591836734694
 40
0.8979591836734694
 40
0.9183673469387755
 40
0.9183673469387755
 40
0.9183673469387755
 40
0.9183673469387755
 40
0.9387755102040817
 40
0.9387755102040817
 40
0.9387755102040817
 40
0.9387755102040817
 40
0.9591836734693877
 40
0.9591836734693877
 40
0.9591836734693877
 40
0.9591836734693877
 40
1.0
 40
1.0
 40
1.0
 40
1.0
 10
-7.5574
 20
-2.9149
 30
0.0
 10
-8.4898
 20
-2.5403
 30
0.0
 10
-9.2475
 20
-1.8307
 30
0.0
 10
-9.6825
 20
-0.9256
 30
0.0
 10
-9.6825
 20
-0.9256
 30
0.0
 10
-9.2475
 20
-0.0197
 30
0.0
 10
-8.4898
 20
0.6898
 30
0.0
 10
-7.5574
 20
1.0643
 30
0.0
 10
-7.5574
 20
1.0643
 30
0.0
 10
-7.5291
 20
3.9334
 30
0.0
 10
-7.5161
 20
6.8032
 30
0.0
 10
-7.5198
 20
9.6731
 30
0.0
 10
-7.5198
 20
9.6731
 30
0.0
 10
-8.277
 20
8.9301
 30
0.0
 10
-9.3413
 20
8.5901
 30
0.0
 10
-10.3889
 20
8.7543
 30
0.0
 10
-10.3889
 20
8.7543
 30
0.0
 10
-12.2765
 20
9.3812
 30
0.0
 10
-13.8165
 20
10.7681
 30
0.0
 10
-14.6359
 20
12.5803
 30
0.0
 10
-14.6359
 20
12.5803
 30
0.0
 10
-15.2023
 20
14.2321
 30
0.0
 10
-15.2819
 20
16.0116
 30
0.0
 10
-14.8654
 20
17.7073
 30
0.0
 10
-14.8654
 20
17.7073
 30
0.0
 10
-14.5415
 20
18.4576
 30
0.0
 10
-13.9244
 20
19.0413
 30
0.0
 10
-13.1575
 20
19.3232
 30
0.0
 10
-13.1575
 20
19.3232
 30
0.0
 10
-12.3912
 20
19.6058
 30
0.0
 10
-11.5422
 20
19.5607
 30
0.0
 10
-10.8098
 20
19.1997
 30
0.0
 10
-10.8098
 20
19.1997
 30
0.0
 10
-9.5812
 20
18.4698
 30
0.0
 10
-8.7095
 20
17.2655
 30
0.0
 10
-8.3998
 20
15.8709
 30
0.0
 10
-8.3998
 20
15.8709
 30
0.0
 10
-8.2325
 20
14.7542
 30
0.0
 10
-8.8045
 20
13.657
 30
0.0
 10
-9.8151
 20
13.1549
 30
0.0
 10
-9.8151
 20
13.1549
 30
0.0
 10
-10.3945
 20
12.9716
 30
0.0
 10
-11.0263
 20
13.1795
 30
0.0
 10
-11.3836
 20
13.6714
 30
0.0
 10
-11.3836
 20
13.6714
 30
0.0
 10
-11.7798
 20
14.4371
 30
0.0
 10
-11.4798
 20
15.3791
 30
0.0
 10
-10.7141
 20
15.7753
 30
0.0
 10
-10.7141
 20
15.7753
 30
0.0
 10
-11.6175
 20
16.0159
 30
0.0
 10
-12.5572
 20
15.5378
 30
0.0
 10
-12.8946
 20
14.6659
 30
0.0
 10
-12.8946
 20
14.6659
 30
0.0
 10
-13.3044
 20
13.7978
 30
0.0
 10
-13.1284
 20
12.7668
 30
0.0
 10
-12.4547
 20
12.0831
 30
0.0
 10
-12.4547
 20
12.0831
 30
0.0
 10
-11.4095
 20
11.1064
 30
0.0
 10
-9.9274
 20
10.7503
 30
0.0
 10
-8.5521
 20
11.1458
 30
0.0
 10
-8.5521
 20
11.1458
 30
0.0
 10
-7.5069
 20
11.5024
 30
0.0
 10
-6.6911
 20
12.3323
 30
0.0
 10
-6.3523
 20
13.3838
 30
0.0
 10
-6.3523
 20
13.3838
 30
0.0
 10
-6.1111
 20
14.9824
 30
0.0
 10
-6.4216
 20
16.6152
 30
0.0
 10
-7.2323
 20
18.0139
 30
0.0
 10
-7.2323
 20
18.0139
 30
0.0
 10
-7.8549
 20
19.0745
 30
0.0
 10
-8.5318
 20
20.1026
 30
0.0
 10
-9.2605
 20
21.0934
 30
0.0
 10
-9.2605
 20
21.0934
 30
0.0
 10
-9.8133
 20
21.9319
 30
0.0
 10
-9.7182
 20
23.0401
 30
0.0
 10
-9.0308
 20
23.7719
 30
0.0
 10
-9.0308
 20
23.7719
 30
0.0
 10
-8.3188
 20
24.3982
 30
0.0
 10
-7.4143
 20
24.7629
 30
0.0
 10
-6.4672
 20
24.8048
 30
0.0
 10
-6.4672
 20
24.8048
 30
0.0
 10
-6.4807
 20
27.0427
 30
0.0
 10
-6.4875
 20
29.2813
 30
0.0
 10
-6.4863
 20
31.5192
 30
0.0
 10
-6.4863
 20
31.5192
 30
0.0
 10
-11.8989
 20
26.6534
 30
0.0
 10
-16.5204
 20
20.9738
 30
0.0
 10
-20.1835
 20
14.6851
 30
0.0
 10
-20.1835
 20
14.6851
 30
0.0
 10
-17.3254
 20
12.4575
 30
0.0
 10
-14.8896
 20
9.7359
 30
0.0
 10
-12.9903
 20
6.6502
 30
0.0
 10
-12.9903
 20
6.6502
 30
0.0
 10
-11.9814
 20
4.9874
 30
0.0
 10
-11.9519
 20
2.908
 30
0.0
 10
-12.9144
 20
1.2173
 30
0.0
 10
-12.9144
 20
1.2173
 30
0.0
 10
-13.4487
 20
0.48
 30
0.0
 10
-14.014
 20
-0.235
 30
0.0
 10
-14.6088
 20
-0.9256
 30
0.0
 10
-14.6088
 20
-0.9256
 30
0.0
 10
-14.014
 20
-1.6154
 30
0.0
 10
-13.4487
 20
-2.3306
 30
0.0
 10
-12.9144
 20
-3.068
 30
0.0
 10
-12.9144
 20
-3.068
 30
0.0
 10
-11.9519
 20
-4.7586
 30
0.0
 10
-11.9814
 20
-6.8378
 30
0.0
 10
-12.9903
 20
-8.5008
 30
0.0
 10
-12.9903
 20
-8.5008
 30
0.0
 10
-14.8896
 20
-11.5865
 30
0.0
 10
-17.3254
 20
-14.3081
 30
0.0
 10
-20.1835
 20
-16.5355
 30
0.0
 10
-20.1835
 20
-16.5355
 30
0.0
 10
-16.5204
 20
-22.8242
 30
0.0
 10
-11.8989
 20
-28.504
 30
0.0
 10
-6.4863
 20
-33.3698
 30
0.0
 10
-6.4863
 20
-33.3698
 30
0.0
 10
-6.4875
 20
-31.1318
 30
0.0
 10
-6.4807
 20
-28.8934
 30
0.0
 10
-6.4672
 20
-26.6553
 30
0.0
 10
-6.4672
 20
-26.6553
 30
0.0
 10
-7.4143
 20
-26.6135
 30
0.0
 10
-8.3188
 20
-26.2488
 30
0.0
 10
-9.0308
 20
-25.6218
 30
0.0
 10
-9.0308
 20
-25.6218
 30
0.0
 10
-9.7182
 20
-24.89
 30
0.0
 10
-9.8133
 20
-23.782
 30
0.0
 10
-9.2605
 20
-22.944
 30
0.0
 10
-9.2605
 20
-22.944
 30
0.0
 10
-8.5318
 20
-21.9525
 30
0.0
 10
-7.8549
 20
-20.9244
 30
0.0
 10
-7.2323
 20
-19.8638
 30
0.0
 10
-7.2323
 20
-19.8638
 30
0.0
 10
-6.4216
 20
-18.4656
 30
0.0
 10
-6.1111
 20
-16.8331
 30
0.0
 10
-6.3523
 20
-15.235
 30
0.0
 10
-6.3523
 20
-15.235
 30
0.0
 10
-6.6911
 20
-14.1829
 30
0.0
 10
-7.5069
 20
-13.353
 30
0.0
 10
-8.5521
 20
-12.9964
 30
0.0
 10
-8.5521
 20
-12.9964
 30
0.0
 10
-9.9274
 20
-12.6009
 30
0.0
 10
-11.4095
 20
-12.9568
 30
0.0
 10
-12.4547
 20
-13.9337
 30
0.0
 10
-12.4547
 20
-13.9337
 30
0.0
 10
-13.1284
 20
-14.6172
 30
0.0
 10
-13.3044
 20
-15.6483
 30
0.0
 10
-12.8946
 20
-16.5165
 30
0.0
 10
-12.8946
 20
-16.5165
 30
0.0
 10
-12.5572
 20
-17.3884
 30
0.0
 10
-11.6175
 20
-17.8666
 30
0.0
 10
-10.7141
 20
-17.6259
 30
0.0
 10
-10.7141
 20
-17.6259
 30
0.0
 10
-11.4798
 20
-17.2297
 30
0.0
 10
-11.7798
 20
-16.2875
 30
0.0
 10
-11.3836
 20
-15.5213
 30
0.0
 10
-11.3836
 20
-15.5213
 30
0.0
 10
-11.0263
 20
-15.0301
 30
0.0
 10
-10.3945
 20
-14.8222
 30
0.0
 10
-9.8151
 20
-15.0048
 30
0.0
 10
-9.8151
 20
-15.0048
 30
0.0
 10
-8.8045
 20
-15.5083
 30
0.0
 10
-8.2325
 20
-16.6046
 30
0.0
 10
-8.3998
 20
-17.7216
 30
0.0
 10
-8.3998
 20
-17.7216
 30
0.0
 10
-8.7095
 20
-19.1159
 30
0.0
 10
-9.5812
 20
-20.3205
 30
0.0
 10
-10.8098
 20
-21.0503
 30
0.0
 10
-10.8098
 20
-21.0503
 30
0.0
 10
-11.5422
 20
-21.4113
 30
0.0
 10
-12.3912
 20
-21.4558
 30
0.0
 10
-13.1575
 20
-21.1738
 30
0.0
 10
-13.1575
 20
-21.1738
 30
0.0
 10
-13.9244
 20
-20.8917
 30
0.0
 10
-14.5415
 20
-20.3075
 30
0.0
 10
-14.8654
 20
-19.5577
 30
0.0
 10
-14.8654
 20
-19.5577
 30
0.0
 10
-15.2819
 20
-17.8622
 30
0.0
 10
-15.2023
 20
-16.0827
 30
0.0
 10
-14.6359
 20
-14.4309
 30
0.0
 10
-14.6359
 20
-14.4309
 30
0.0
 10
-13.8165
 20
-12.6194
 30
0.0
 10
-12.2765
 20
-11.2318
 30
0.0
 10
-10.3889
 20
-10.6047
 30
0.0
 10
-10.3889
 20
-10.6047
 30
0.0
 10
-9.3413
 20
-10.4407
 30
0.0
 10
-8.277
 20
-10.7812
 30
0.0
 10
-7.5198
 20
-11.5235
 30
0.0
 10
-7.5198
 20
-11.5235
 30
0.0
 10
-7.5161
 20
-8.6537
 30
0.0
 10
-7.5291
 20
-5.784
 30
0.0
 10
-7.5574
 20
-2.9149
 30
0.0
  0
SPLINE
  5
43
330
1F
100
AcDbEntity
  8
layer 1
 62
     7
370
     9
100
AcDbSpline
210
0.0
220
0.0
230
1.0
 70
    11
 71
     3
 72
    36
 73
    32
 74
     0
 42
0.0000000001
 43
0.0000000001
 12
1.0
 22
0.0
 32
0.0
 13
1.0
 23
0.0
 33
0.0
 40
0.0
 40
0.0
 40
0.0
 40
0.0
 40
0.1111111111111111
 40
0.1111111111111111
 40
0.1111111111111111
 40
0.1111111111111111
 40
0.2222222222222222
 40
0.2222222222222222
 40
0.2222222222222222
 40
0.2222222222222222
 40
0.3333333333333333
 40
0.3333333333333333
 40
0.3333333333333333
 40
0.3333333333333333
 40
0.4444444444444444
 40
0.4444444444444444
 40
0.4444444444444444
 40
0.4444444444444444
 40
0.5555555555555556
 40
0.5555555555555556
 40
0.5555555555555556
 40
0.5555555555555556
 40
0.6666666666666666
 40
0.6666666666666666
 40
0.6666666666666666
 40
0.6666666666666666
 40
0.7777777777777778
 40
0.7777777777777778
 40
0.7777777777777778
 40
0.7777777777777778
 40
1.0
 40
1.0
 40
1.0
 40
1.0
 10
-27.4915
 20
-2.8383
 30
0.0
 10
-28.2789
 20
-2.2898
 30
0.0
 10
-28.9964
 20
-1.6469
 30
0.0
 10
-29.6289
 20
-0.9256
 30
0.0
 10
-29.6289
 20
-0.9256
 30
0.0
 10
-28.9964
 20
-0.203
 30
0.0
 10
-28.2789
 20
0.4392
 30
0.0
 10
-27.4915
 20
0.9879
 30
0.0
 10
-27.4915
 20
0.9879
 30
0.0
 10
-30.3836
 20
8.1372
 30
0.0
 10
-31.3726
 20
15.9154
 30
0.0
 10
-30.3606
 20
23.5615
 30
0.0
 10
-30.3606
 20
23.5615
 30
0.0
 10
-33.0508
 20
16.5034
 30
0.0
 10
-34.9255
 20
9.1609
 30
0.0
 10
-35.9465
 20
1.6765
 30
0.0
 10
-35.9465
 20
1.6765
 30
0.0
 10
-35.3228
 20
0.7897
 30
0.0
 10
-34.6718
 20
-0.0778
 30
0.0
 10
-33.9955
 20
-0.9256
 30
0.0
 10
-33.9955
 20
-0.9256
 30
0.0
 10
-34.6718
 20
-1.7728
 30
0.0
 10
-35.3228
 20
-2.6403
 30
0.0
 10
-35.9465
 20
-3.5269
 30
0.0
 10
-35.9465
 20
-3.5269
 30
0.0
 10
-34.9255
 20
-11.0109
 30
0.0
 10
-33.0508
 20
-18.354
 30
0.0
 10
-30.3606
 20
-25.4114
 30
0.0
 10
-30.3606
 20
-25.4114
 30
0.0
 10
-31.3726
 20
-17.766
 30
0.0
 10
-30.3836
 20
-9.9878
 30
0.0
 10
-27.4915
 20
-2.8383
 30
0.0
  0
SPLINE
  5
44
330
1F
100
AcDbEntity
  8
layer 1
 62
     7
370
     9
100
AcDbSpline
210
0.0
220
0.0
230
1.0
 70
    11
 71
     3
 72
    48
 73
    44
 74
     0
 42
0.0000000001
 43
0.0000000001
 12
1.0
 22
0.0
 32
0.0
 13
1.0
 23
0.0
 33
0.0
 40
0.0
 40
0.0
 40
0.0
 40
0.0
 40
0.0833333333333333
 40
0.0833333333333333
 40
0.0833333333333333
 40
0.0833333333333333
 40
0.1666666666666667
 40
0.1666666666666667
 40
0.1666666666666667
 40
0.1666666666666667
 40
0.25
 40
0.25
 40
0.25
 40
0.25
 40
0.3333333333333333
 40
0.3333333333333333
 40
0.3333333333333333
 40
0.3333333333333333
 40
0.4166666666666667
 40
0.4166666666666667
 40
0.4166666666666667
 40
0.4166666666666667
 40
0.5
 40
0.5
 40
0.5
 40
0.5
 40
0.5833333333333334
 40
0.5833333333333334
 40
0.5833333333333334
 40
0.5833333333333334
 40
0.6666666666666666
 40
0.6666666666666666
 40
0.6666666666666666
 40
0.6666666666666666
 40
0.75
 40
0.75
 40
0.75
 40
0.75
 40
0.8333333333333334
 40
0.8333333333333334
 40
0.8333333333333334
 40
0.8333333333333334
 40
1.0
 40
1.0
 40
1.0
 40
1.0
 10
-19.8775
 20
-30.0799
 30
0.0
 10
-10.5124
 20
-33.6493
 30
0.0
 10
-5.4059
 20
-43.763
 30
0.0
 10
-8.0937
 20
-53.4182
 30
0.0
 10
-8.0937
 20
-53.4182
 30
0.0
 10
-10.1693
 20
-53.4052
 30
0.0
 10
-12.1549
 20
-54.2661
 30
0.0
 10
-13.5641
 20
-55.7902
 30
0.0
 10
-13.5641
 20
-55.7902
 30
0.0
 10
-15.0727
 20
-57.8663
 30
0.0
 10
-15.0727
 20
-60.6777
 30
0.0
 10
-13.5641
 20
-62.7536
 30
0.0
 10
-13.5641
 20
-62.7536
 30
0.0
 10
-12.2851
 20
-64.0728
 30
0.0
 10
-10.574
 20
-64.8876
 30
0.0
 10
-8.744
 20
-65.0492
 30
0.0
 10
-8.744
 20
-65.0492
 30
0.0
 10
-8.6033
 20
-67.7046
 30
0.0
 10
-9.1018
 20
-70.3551
 30
0.0
 10
-10.1978
 20
-72.7779
 30
0.0
 10
-10.1978
 20
-72.7779
 30
0.0
 10
-15.936
 20
-69.4845
 30
0.0
 10
-19.906
 20
-63.8031
 30
0.0
 10
-21.0252
 20
-57.2825
 30
0.0
 10
-21.0252
 20
-57.2825
 30
0.0
 10
-16.9065
 20
-55.7104
 30
0.0
 10
-14.0516
 20
-51.9191
 30
0.0
 10
-13.6796
 20
-47.526
 30
0.0
 10
-13.6796
 20
-47.526
 30
0.0
 10
-13.7672
 20
-43.5125
 30
0.0
 10
-15.5628
 20
-39.7271
 30
0.0
 10
-18.615
 20
-37.1194
 30
0.0
 10
-18.615
 20
-37.1194
 30
0.0
 10
-20.3569
 20
-36.0095
 30
0.0
 10
-22.3362
 20
-35.3275
 30
0.0
 10
-24.3922
 20
-35.1295
 30
0.0
 10
-24.3922
 20
-35.1295
 30
0.0
 10
-28.6669
 20
-24.6661
 30
0.0
 10
-28.4455
 20
-12.9044
 30
0.0
 10
-23.7801
 20
-2.6088
 30
0.0
 10
-23.7801
 20
-2.6088
 30
0.0
 10
-25.4443
 20
-11.9475
 30
0.0
 10
-24.0769
 20
-21.5736
 30
0.0
 10
-19.8775
 20
-30.0799
 30
0.0
  0
SPLINE
  5
45
330
1F
100
AcDbEntity
  8
layer 1
 62
     7
370
     9
100
AcDbSpline
210
0.0
220
0.0
230
1.0
 70
    11
 71
     3
 72
    16
 73
    12
 74
     0
 42
0.0000000001
 43
0.0000000001
 12
1.0
 22
0.0
 32
0.0
 13
1.0
 23
0.0
 33
0.0
 40
0.0
 40
0.0
 40
0.0
 40
0.0
 40
0.25
 40
0.25
 40
0.25
 40
0.25
 40
0.5
 40
0.5
 40
0.5
 40
0.5
 40
1.0
 40
1.0
 40
1.0
 40
1.0
 10
-25.3869
 20
-37.6167
 30
0.0
 10
-23.2137
 20
-41.8165
 30
0.0
 10
-20.4142
 20
-45.661
 30
0.0
 10
-17.0849
 20
-49.0183
 30
0.0
 10
-17.0849
 20
-49.0183
 30
0.0
 10
-16.3129
 20
-46.3685
 30
0.0
 10
-16.8121
 20
-43.5106
 30
0.0
 10
-18.4368
 20
-41.2795
 30
0.0
 10
-18.4368
 20
-41.2795
 30
0.0
 10
-20.062
 20
-39.0486
 30
0.0
 10
-22.6282
 20
-37.6957
 30
0.0
 10
-25.3869
 20
-37.6167
 30
0.0
  0
SPLINE
  5
46
330
1F
100
AcDbEntity
  8
layer 1
 62
     7
370
     9
100
AcDbSpline
210
0.0
220
0.0
230
1.0
 70
    11
 71
     3
 72
    16
 73
    12
 74
     0
 42
0.0000000001
 43
0.0000000001
 12
1.0
 22
0.0
 32
0.0
 13
1.0
 23
0.0
 33
0.0
 40
0.0
 40
0.0
 40
0.0
 40
0.0
 40
0.25
 40
0.25
 40
0.25
 40
0.25
 40
0.5
 40
0.5
 40
0.5
 40
0.5
 40
1.0
 40
1.0
 40
1.0
 40
1.0
 10
-28.907
 20
-49.0566
 30
0.0
 10
-26.4851
 20
-50.8376
 30
0.0
 10
-24.2201
 20
-52.8219
 30
0.0
 10
-22.1346
 20
-54.9869
 30
0.0
 10
-22.1346
 20
-54.9869
 30
0.0
 10
-19.9182
 20
-54.0704
 30
0.0
 10
-18.2042
 20
-52.2444
 30
0.0
 10
-17.4286
 20
-49.9748
 30
0.0
 10
-17.4286
 20
-49.9748
 30
0.0
 10
-21.2497
 20
-49.611
 30
0.0
 10
-25.0765
 20
-49.3048
 30
0.0
 10
-28.907
 20
-49.0566
 30
0.0
  0
SPLINE
  5
47
330
1F
100
AcDbEntity
  8
layer 1
 62
     7
370
     9
100
AcDbSpline
210
0.0
220
0.0
230
1.0
 70
    11
 71
     3
 72
    16
 73
    12
 74
     0
 42
0.0000000001
 43
0.0000000001
 12
1.0
 22
0.0
 32
0.0
 13
1.0
 23
0.0
 33
0.0
 40
0.0
 40
0.0
 40
0.0
 40
0.0
 40
0.25
 40
0.25
 40
0.25
 40
0.25
 40
0.5
 40
0.5
 40
0.5
 40
0.5
 40
1.0
 40
1.0
 40
1.0
 40
1.0
 10
-31.0875
 20
-61.5676
 30
0.0
 10
-27.9358
 20
-64.1943
 30
0.0
 10
-24.2948
 20
-66.1709
 30
0.0
 10
-20.3749
 20
-67.3833
 30
0.0
 10
-20.3749
 20
-67.3833
 30
0.0
 10
-21.8883
 20
-65.139
 30
0.0
 10
-22.9774
 20
-62.6361
 30
0.0
 10
-23.5889
 20
-59.9991
 30
0.0
 10
-23.5889
 20
-59.9991
 30
0.0
 10
-26.0631
 20
-60.6352
 30
0.0
 10
-28.5658
 20
-61.1583
 30
0.0
 10
-31.0875
 20
-61.5676
 30
0.0
  0
SPLINE
  5
48
330
1F
100
AcDbEntity
  8
layer 1
 62
     7
370
     9
100
AcDbSpline
210
0.0
220
0.0
230
1.0
 70
    11
 71
     3
 72
    16
 73
    12
 74
     0
 42
0.0000000001
 43
0.0000000001
 12
1.0
 22
0.0
 32
0.0
 13
1.0
 23
0.0
 33
0.0
 40
0.0
 40
0.0
 40
0.0
 40
0.0
 40
0.25
 40
0.25
 40
0.25
 40
0.25
 40
0.5
 40
0.5
 40
0.5
 40
0.5
 40
1.0
 40
1.0
 40
1.0
 40
1.0
 10
-18.2708
 20
-69.6022
 30
0.0
 10
-18.077
 20
-72.3788
 30
0.0
 10
-17.9623
 20
-75.1603
 30
0.0
 10
-17.9264
 20
-77.943
 30
0.0
 10
-17.9264
 20
-77.943
 30
0.0
 10
-15.8613
 20
-76.9014
 30
0.0
 10
-13.7555
 20
-75.944
 30
0.0
 10
-11.6131
 20
-75.0735
 30
0.0
 10
-11.6131
 20
-75.0735
 30
0.0
 10
-13.9998
 20
-73.4632
 30
0.0
 10
-16.2284
 20
-71.6314
 30
0.0
 10
-18.2708
 20
-69.6022
 30
0.0
  0
SPLINE
  5
49
330
1F
100
AcDbEntity
  8
layer 1
 62
     7
370
     9
100
AcDbSpline
210
0.0
220
0.0
230
1.0
 70
    11
 71
     3
 72
    16
 73
    12
 74
     0
 42
0.0000000001
 43
0.0000000001
 12
1.0
 22
0.0
 32
0.0
 13
1.0
 23
0.0
 33
0.0
 40
0.0
 40
0.0
 40
0.0
 40
0.0
 40
0.25
 40
0.25
 40
0.25
 40
0.25
 40
0.5
 40
0.5
 40
0.5
 40
0.5
 40
1.0
 40
1.0
 40
1.0
 40
1.0
 10
-32.8856
 20
-89.9566
 30
0.0
 10
-26.8091
 20
-85.3526
 30
0.0
 10
-20.2392
 20
-81.4386
 30
0.0
 10
-13.2964
 20
-78.2874
 30
0.0
 10
-13.2964
 20
-78.2874
 30
0.0
 10
-16.2031
 20
-82.3733
 30
0.0
 10
-19.6819
 20
-86.0198
 30
0.0
 10
-23.6272
 20
-89.1149
 30
0.0
 10
-23.6272
 20
-89.1149
 30
0.0
 10
-26.7326
 20
-89.1113
 30
0.0
 10
-29.8319
 20
-89.3932
 30
0.0
 10
-32.8856
 20
-89.9566
 30
0.0
  0
SPLINE
  5
4A
330
1F
100
AcDbEntity
  8
layer 1
 62
     7
370
     9
100
AcDbSpline
210
0.0
220
0.0
230
1.0
 70
    11
 71
     3
 72
    16
 73
    12
 74
     0
 42
0.0000000001
 43
0.0000000001
 12
1.0
 22
0.0
 32
0.0
 13
1.0
 23
0.0
 33
0.0
 40
0.0
 40
0.0
 40
0.0
 40
0.0
 40
0.25
 40
0.25
 40
0.25
 40
0.25
 40
0.5
 40
0.5
 40
0.5
 40
0.5
 40
1.0
 40
1.0
 40
1.0
 40
1.0
 10
-35.6405
 20
-88.4645
 30
0.0
 10
-31.2855
 20
-82.5998
 30
0.0
 10
-26.4482
 20
-77.1096
 30
0.0
 10
-21.1782
 20
-72.051
 30
0.0
 10
-21.1782
 20
-72.051
 30
0.0
 10
-20.9783
 20
-74.3793
 30
0.0
 10
-20.8887
 20
-76.7157
 30
0.0
 10
-20.9104
 20
-79.0526
 30
0.0
 10
-20.9104
 20
-79.0526
 30
0.0
 10
-26.0145
 20
-81.8758
 30
0.0
 10
-30.9345
 20
-85.0192
 30
0.0
 10
-35.6405
 20
-88.4645
 30
0.0
  0
SPLINE
  5
4B
330
1F
100
AcDbEntity
  8
layer 1
 62
     7
370
     9
100
AcDbSpline
210
0.0
220
0.0
230
1.0
 70
    11
 71
     3
 72
    20
 73
    16
 74
     0
 42
0.0000000001
 43
0.0000000001
 12
1.0
 22
0.0
 32
0.0
 13
1.0
 23
0.0
 33
0.0
 40
0.0
 40
0.0
 40
0.0
 40
0.0
 40
0.2
 40
0.2
 40
0.2
 40
0.2
 40
0.4
 40
0.4
 40
0.4
 40
0.4
 40
0.6
 40
0.6
 40
0.6
 40
0.6
 40
1.0
 40
1.0
 40
1.0
 40
1.0
 10
-47.2721
 20
-91.7932
 30
0.0
 10
-45.3697
 20
-89.1123
 30
0.0
 10
-43.7784
 20
-86.2241
 30
0.0
 10
-42.5276
 20
-83.1847
 30
0.0
 10
-42.5276
 20
-83.1847
 30
0.0
 10
-38.1092
 20
-80.7775
 30
0.0
 10
-33.6445
 20
-78.456
 30
0.0
 10
-29.1365
 20
-76.2212
 30
0.0
 10
-29.1365
 20
-76.2212
 30
0.0
 10
-32.4758
 20
-80.1961
 30
0.0
 10
-35.8559
 20
-84.1372
 30
0.0
 10
-39.2755
 20
-88.0436
 30
0.0
 10
-39.2755
 20
-88.0436
 30
0.0
 10
-42.1346
 20
-88.8304
 30
0.0
 10
-44.8385
 20
-90.0982
 30
0.0
 10
-47.2721
 20
-91.7932
 30
0.0
  0
SPLINE
  5
4C
330
1F
100
AcDbEntity
  8
layer 1
 62
     7
370
     9
100
AcDbSpline
210
0.0
220
0.0
230
1.0
 70
    11
 71
     3
 72
    16
 73
    12
 74
     0
 42
0.0000000001
 43
0.0000000001
 12
1.0
 22
0.0
 32
0.0
 13
1.0
 23
0.0
 33
0.0
 40
0.0
 40
0.0
 40
0.0
 40
0.0
 40
0.25
 40
0.25
 40
0.25
 40
0.25
 40
0.5
 40
0.5
 40
0.5
 40
0.5
 40
1.0
 40
1.0
 40
1.0
 40
1.0
 10
-41.8768
 20
-80.0091
 30
0.0
 10
-37.0596
 20
-75.729
 30
0.0
 10
-32.2136
 20
-71.4819
 30
0.0
 10
-27.338
 20
-67.2683
 30
0.0
 10
-27.338
 20
-67.2683
 30
0.0
 10
-25.7238
 20
-67.935
 30
0.0
 10
-24.1406
 20
-68.6757
 30
0.0
 10
-22.5937
 20
-69.4874
 30
0.0
 10
-22.5937
 20
-69.4874
 30
0.0
 10
-29.0303
 20
-72.9787
 30
0.0
 10
-35.4579
 20
-76.4858
 30
0.0
 10
-41.8768
 20
-80.0091
 30
0.0
  0
SPLINE
  5
4D
330
1F
100
AcDbEntity
  8
layer 1
 62
     7
370
     9
100
AcDbSpline
210
0.0
220
0.0
230
1.0
 70
    11
 71
     3
 72
    20
 73
    16
 74
     0
 42
0.0000000001
 43
0.0000000001
 12
1.0
 22
0.0
 32
0.0
 13
1.0
 23
0.0
 33
0.0
 40
0.0
 40
0.0
 40
0.0
 40
0.0
 40
0.2
 40
0.2
 40
0.2
 40
0.2
 40
0.4
 40
0.4
 40
0.4
 40
0.4
 40
0.6
 40
0.6
 40
0.6
 40
0.6
 40
1.0
 40
1.0
 40
1.0
 40
1.0
 10
-55.3827
 20
-74.6142
 30
0.0
 10
-56.5353
 20
-77.534
 30
0.0
 10
-58.1932
 20
-80.2279
 30
0.0
 10
-60.28
 20
-82.5723
 30
0.0
 10
-60.28
 20
-82.5723
 30
0.0
 10
-55.7808
 20
-81.4636
 30
0.0
 10
-51.2364
 20
-80.5447
 30
0.0
 10
-46.6599
 20
-79.8178
 30
0.0
 10
-46.6599
 20
-79.8178
 30
0.0
 10
-40.7013
 20
-75.9473
 30
0.0
 10
-35.2511
 20
-71.3458
 30
0.0
 10
-30.4373
 20
-66.1205
 30
0.0
 10
-30.4373
 20
-66.1205
 30
0.0
 10
-38.4634
 20
-69.7386
 30
0.0
 10
-46.8166
 20
-72.5827
 30
0.0
 10
-55.3827
 20
-74.6142
 30
0.0
  0
SPLINE
  5
4E
330
1F
100
AcDbEntity
  8
layer 1
 62
     7
370
     9
100
AcDbSpline
210
0.0
220
0.0
230
1.0
 70
    11
 71
     3
 72
    20
 73
    16
 74
     0
 42
0.0000000001
 43
0.0000000001
 12
1.0
 22
0.0
 32
0.0
 13
1.0
 23
0.0
 33
0.0
 40
0.0
 40
0.0
 40
0.0
 40
0.0
 40
0.2
 40
0.2
 40
0.2
 40
0.2
 40
0.4
 40
0.4
 40
0.4
 40
0.4
 40
0.6
 40
0.6
 40
0.6
 40
0.6
 40
1.0
 40
1.0
 40
1.0
 40
1.0
 10
-66.9377
 20
-69.1813
 30
0.0
 10
-64.2216
 20
-67.9805
 30
0.0
 10
-61.5881
 20
-66.6001
 30
0.0
 10
-59.0559
 20
-65.0492
 30
0.0
 10
-59.0559
 20
-65.0492
 30
0.0
 10
-50.5361
 20
-65.0683
 30
0.0
 10
-42.0162
 20
-64.9915
 30
0.0
 10
-33.4982
 20
-64.8198
 30
0.0
 10
-33.4982
 20
-64.8198
 30
0.0
 10
-40.6495
 20
-67.7569
 30
0.0
 10
-48.0173
 20
-70.136
 30
0.0
 10
-55.5357
 20
-71.9363
 30
0.0
 10
-55.5357
 20
-71.9363
 30
0.0
 10
-59.0991
 20
-70.2231
 30
0.0
 10
-62.9851
 20
-69.2842
 30
0.0
 10
-66.9377
 20
-69.1813
 30
0.0
  0
SPLINE
  5
4F
330
1F
100
AcDbEntity
  8
layer 1
 62
     7
370
     9
100
AcDbSpline
210
0.0
220
0.0
230
1.0
 70
    11
 71
     3
 72
    20
 73
    16
 74
     0
 42
0.0000000001
 43
0.0000000001
 12
1.0
 22
0.0
 32
0.0
 13
1.0
 23
0.0
 33
0.0
 40
0.0
 40
0.0
 40
0.0
 40
0.0
 40
0.2
 40
0.2
 40
0.2
 40
0.2
 40
0.4
 40
0.4
 40
0.4
 40
0.4
 40
0.6
 40
0.6
 40
0.6
 40
0.6
 40
1.0
 40
1.0
 40
1.0
 40
1.0
 10
-68.0854
 20
-56.2495
 30
0.0
 10
-64.8324
 20
-55.4427
 30
0.0
 10
-61.6369
 20
-54.42
 30
0.0
 10
-58.5203
 20
-53.1887
 30
0.0
 10
-58.5203
 20
-53.1887
 30
0.0
 10
-50.1498
 20
-56.5851
 30
0.0
 10
-41.5905
 20
-59.498
 30
0.0
 10
-32.8856
 20
-61.912
 30
0.0
 10
-32.8856
 20
-61.912
 30
0.0
 10
-41.6484
 20
-62.5214
 30
0.0
 10
-50.4422
 20
-62.5469
 30
0.0
 10
-59.2089
 20
-61.9884
 30
0.0
 10
-59.2089
 20
-61.9884
 30
0.0
 10
-61.7739
 20
-59.5261
 30
0.0
 10
-64.7867
 20
-57.5781
 30
0.0
 10
-68.0854
 20
-56.2495
 30
0.0
  0
SPLINE
  5
50
330
1F
100
AcDbEntity
  8
layer 1
 62
     7
370
     9
100
AcDbSpline
210
0.0
220
0.0
230
1.0
 70
    11
 71
     3
 72
    20
 73
    16
 74
     0
 42
0.0000000001
 43
0.0000000001
 12
1.0
 22
0.0
 32
0.0
 13
1.0
 23
0.0
 33
0.0
 40
0.0
 40
0.0
 40
0.0
 40
0.0
 40
0.2
 40
0.2
 40
0.2
 40
0.2
 40
0.4
 40
0.4
 40
0.4
 40
0.4
 40
0.6
 40
0.6
 40
0.6
 40
0.6
 40
1.0
 40
1.0
 40
1.0
 40
1.0
 10
-52.3217
 20
-52.4235
 30
0.0
 10
-44.259
 20
-52.4446
 30
0.0
 10
-36.1977
 20
-52.6232
 30
0.0
 10
-28.1413
 20
-52.959
 30
0.0
 10
-28.1413
 20
-52.959
 30
0.0
 10
-26.5889
 20
-54.2789
 30
0.0
 10
-25.2012
 20
-55.7822
 30
0.0
 10
-24.0097
 20
-57.4355
 30
0.0
 10
-24.0097
 20
-57.4355
 30
0.0
 10
-26.7104
 20
-58.3587
 30
0.0
 10
-29.5092
 20
-58.9621
 30
0.0
 10
-32.3505
 20
-59.2339
 30
0.0
 10
-32.3505
 20
-59.2339
 30
0.0
 10
-39.0995
 20
-57.2435
 30
0.0
 10
-45.7628
 20
-54.9713
 30
0.0
 10
-52.3217
 20
-52.4235
 30
0.0
  0
SPLINE
  5
51
330
1F
100
AcDbEntity
  8
layer 1
 62
     7
370
     9
100
AcDbSpline
210
0.0
220
0.0
230
1.0
 70
    11
 71
     3
 72
    20
 73
    16
 74
     0
 42
0.0000000001
 43
0.0000000001
 12
1.0
 22
0.0
 32
0.0
 13
1.0
 23
0.0
 33
0.0
 40
0.0
 40
0.0
 40
0.0
 40
0.0
 40
0.2
 40
0.2
 40
0.2
 40
0.2
 40
0.4
 40
0.4
 40
0.4
 40
0.4
 40
0.6
 40
0.6
 40
0.6
 40
0.6
 40
1.0
 40
1.0
 40
1.0
 40
1.0
 10
-66.6316
 20
-42.9348
 30
0.0
 10
-63.4757
 20
-44.4036
 30
0.0
 10
-60.6608
 20
-46.5147
 30
0.0
 10
-58.3673
 20
-49.133
 30
0.0
 10
-58.3673
 20
-49.133
 30
0.0
 10
-50.9987
 20
-49.9435
 30
0.0
 10
-43.5884
 20
-50.3014
 30
0.0
 10
-36.1762
 20
-50.2043
 30
0.0
 10
-36.1762
 20
-50.2043
 30
0.0
 10
-43.4594
 20
-47.5344
 30
0.0
 10
-50.6329
 20
-44.5735
 30
0.0
 10
-57.6787
 20
-41.3279
 30
0.0
 10
-57.6787
 20
-41.3279
 30
0.0
 10
-60.6003
 20
-42.1661
 30
0.0
 10
-63.6002
 20
-42.7046
 30
0.0
 10
-66.6316
 20
-42.9348
 30
0.0
  0
SPLINE
  5
52
330
1F
100
AcDbEntity
  8
layer 1
 62
     7
370
     9
100
AcDbSpline
210
0.0
220
0.0
230
1.0
 70
    11
 71
     3
 72
    20
 73
    16
 74
     0
 42
0.0000000001
 43
0.0000000001
 12
1.0
 22
0.0
 32
0.0
 13
1.0
 23
0.0
 33
0.0
 40
0.0
 40
0.0
 40
0.0
 40
0.0
 40
0.2
 40
0.2
 40
0.2
 40
0.2
 40
0.4
 40
0.4
 40
0.4
 40
0.4
 40
0.6
 40
0.6
 40
0.6
 40
0.6
 40
1.0
 40
1.0
 40
1.0
 40
1.0
 10
-61.7338
 20
-30.0799
 30
0.0
 10
-58.0446
 20
-30.8325
 30
0.0
 10
-54.314
 20
-31.3695
 30
0.0
 10
-50.562
 20
-31.6866
 30
0.0
 10
-50.562
 20
-31.6866
 30
0.0
 10
-45.0896
 20
-37.3879
 30
0.0
 10
-39.4235
 20
-42.9003
 30
0.0
 10
-33.5747
 20
-48.215
 30
0.0
 10
-33.5747
 20
-48.215
 30
0.0
 10
-41.5478
 20
-45.4613
 30
0.0
 10
-49.3421
 20
-42.2156
 30
0.0
 10
-56.9136
 20
-38.4966
 30
0.0
 10
-56.9136
 20
-38.4966
 30
0.0
 10
-57.8663
 20
-35.3639
 30
0.0
 10
-59.5138
 20
-32.4862
 30
0.0
 10
-61.7338
 20
-30.0799
 30
0.0
  0
SPLINE
  5
53
330
1F
100
AcDbEntity
  8
layer 1
 62
     7
370
     9
100
AcDbSpline
210
0.0
220
0.0
230
1.0
 70
    11
 71
     3
 72
    20
 73
    16
 74
     0
 42
0.0000000001
 43
0.0000000001
 12
1.0
 22
0.0
 32
0.0
 13
1.0
 23
0.0
 33
0.0
 40
0.0
 40
0.0
 40
0.0
 40
0.0
 40
0.2
 40
0.2
 40
0.2
 40
0.2
 40
0.4
 40
0.4
 40
0.4
 40
0.4
 40
0.6
 40
0.6
 40
0.6
 40
0.6
 40
1.0
 40
1.0
 40
1.0
 40
1.0
 10
-47.3485
 20
-30.6155
 30
0.0
 10
-41.0513
 20
-34.1275
 30
0.0
 10
-34.5034
 20
-37.1712
 30
0.0
 10
-27.7593
 20
-39.7209
 30
0.0
 10
-27.7593
 20
-39.7209
 30
0.0
 10
-26.2279
 20
-42.0765
 30
0.0
 10
-24.723
 20
-44.4489
 30
0.0
 10
-23.2445
 20
-46.8374
 30
0.0
 10
-23.2445
 20
-46.8374
 30
0.0
 10
-26.2093
 20
-46.9163
 30
0.0
 10
-29.1717
 20
-46.5815
 30
0.0
 10
-32.0439
 20
-45.8427
 30
0.0
 10
-32.0439
 20
-45.8427
 30
0.0
 10
-37.3535
 20
-40.9799
 30
0.0
 10
-42.4586
 20
-35.8996
 30
0.0
 10
-47.3485
 20
-30.6155
 30
0.0
  0
SPLINE
  5
54
330
1F
100
AcDbEntity
  8
layer 1
 62
     7
370
     9
100
AcDbSpline
210
0.0
220
0.0
230
1.0
 70
    11
 71
     3
 72
    20
 73
    16
 74
     0
 42
0.0000000001
 43
0.0000000001
 12
1.0
 22
0.0
 32
0.0
 13
1.0
 23
0.0
 33
0.0
 40
0.0
 40
0.0
 40
0.0
 40
0.0
 40
0.2
 40
0.2
 40
0.2
 40
0.2
 40
0.4
 40
0.4
 40
0.4
 40
0.4
 40
0.6
 40
0.6
 40
0.6
 40
0.6
 40
1.0
 40
1.0
 40
1.0
 40
1.0
 10
-51.8626
 20
-25.1819
 30
0.0
 10
-51.6165
 20
-22.6521
 30
0.0
 10
-52.094
 20
-20.1051
 30
0.0
 10
-53.2405
 20
-17.8363
 30
0.0
 10
-53.2405
 20
-17.8363
 30
0.0
 10
-50.7539
 20
-18.6416
 30
0.0
 10
-48.1889
 20
-19.1801
 30
0.0
 10
-45.5881
 20
-19.443
 30
0.0
 10
-45.5881
 20
-19.443
 30
0.0
 10
-41.8126
 20
-24.5204
 30
0.0
 10
-37.9347
 20
-29.5207
 30
0.0
 10
-33.9574
 20
-34.4409
 30
0.0
 10
-33.9574
 20
-34.4409
 30
0.0
 10
-39.9363
 20
-31.3749
 30
0.0
 10
-45.9047
 20
-28.2885
 30
0.0
 10
-51.8626
 20
-25.1819
 30
0.0
  0
SPLINE
  5
55
330
1F
100
AcDbEntity
  8
layer 1
 62
     7
370
     9
100
AcDbSpline
210
0.0
220
0.0
230
1.0
 70
    11
 71
     3
 72
    16
 73
    12
 74
     0
 42
0.0000000001
 43
0.0000000001
 12
1.0
 22
0.0
 32
0.0
 13
1.0
 23
0.0
 33
0.0
 40
0.0
 40
0.0
 40
0.0
 40
0.0
 40
0.25
 40
0.25
 40
0.25
 40
0.25
 40
0.5
 40
0.5
 40
0.5
 40
0.5
 40
1.0
 40
1.0
 40
1.0
 40
1.0
 10
-38.9311
 20
-5.4397
 30
0.0
 10
-38.799
 20
-10.2988
 30
0.0
 10
-39.9609
 20
-15.1047
 30
0.0
 10
-42.2976
 20
-19.3665
 30
0.0
 10
-42.2976
 20
-19.3665
 30
0.0
 10
-37.7514
 20
-25.6269
 30
0.0
 10
-32.711
 20
-31.512
 30
0.0
 10
-27.2238
 20
-36.9664
 30
0.0
 10
-27.2238
 20
-36.9664
 30
0.0
 10
-33.0521
 20
-27.2767
 30
0.0
 10
-37.0227
 20
-16.5856
 30
0.0
 10
-38.9311
 20
-5.4397
 30
0.0
  0
SPLINE
  5
56
330
1F
100
AcDbEntity
  8
layer 1
 62
     7
370
     9
100
AcDbSpline
210
0.0
220
0.0
230
1.0
 70
    11
 71
     3
 72
    48
 73
    44
 74
     0
 42
0.0000000001
 43
0.0000000001
 12
1.0
 22
0.0
 32
0.0
 13
1.0
 23
0.0
 33
0.0
 40
0.0
 40
0.0
 40
0.0
 40
0.0
 40
0.0833333333333333
 40
0.0833333333333333
 40
0.0833333333333333
 40
0.0833333333333333
 40
0.1666666666666667
 40
0.1666666666666667
 40
0.1666666666666667
 40
0.1666666666666667
 40
0.25
 40
0.25
 40
0.25
 40
0.25
 40
0.3333333333333333
 40
0.3333333333333333
 40
0.3333333333333333
 40
0.3333333333333333
 40
0.4166666666666667
 40
0.4166666666666667
 40
0.4166666666666667
 40
0.4166666666666667
 40
0.5
 40
0.5
 40
0.5
 40
0.5
 40
0.5833333333333334
 40
0.5833333333333334
 40
0.5833333333333334
 40
0.5833333333333334
 40
0.6666666666666666
 40
0.6666666666666666
 40
0.6666666666666666
 40
0.6666666666666666
 40
0.75
 40
0.75
 40
0.75
 40
0.75
 40
0.8333333333333334
 40
0.8333333333333334
 40
0.8333333333333334
 40
0.8333333333333334
 40
1.0
 40
1.0
 40
1.0
 40
1.0
 10
-19.8775
 20
28.2286
 30
0.0
 10
-10.5124
 20
31.7987
 30
0.0
 10
-5.4059
 20
41.9123
 30
0.0
 10
-8.0937
 20
51.5675
 30
0.0
 10
-8.0937
 20
51.5675
 30
0.0
 10
-10.1693
 20
51.5546
 30
0.0
 10
-12.1549
 20
52.4153
 30
0.0
 10
-13.5641
 20
53.9399
 30
0.0
 10
-13.5641
 20
53.9399
 30
0.0
 10
-15.0727
 20
56.0155
 30
0.0
 10
-15.0727
 20
58.8273
 30
0.0
 10
-13.5641
 20
60.903
 30
0.0
 10
-13.5641
 20
60.903
 30
0.0
 10
-12.2851
 20
62.2221
 30
0.0
 10
-10.574
 20
63.0372
 30
0.0
 10
-8.744
 20
63.199
 30
0.0
 10
-8.744
 20
63.199
 30
0.0
 10
-8.6033
 20
65.854
 30
0.0
 10
-9.1018
 20
68.5047
 30
0.0
 10
-10.1978
 20
70.9271
 30
0.0
 10
-10.1978
 20
70.9271
 30
0.0
 10
-15.936
 20
67.634
 30
0.0
 10
-19.906
 20
61.9526
 30
0.0
 10
-21.0252
 20
55.4319
 30
0.0
 10
-21.0252
 20
55.4319
 30
0.0
 10
-16.9065
 20
53.8604
 30
0.0
 10
-14.0516
 20
50.0681
 30
0.0
 10
-13.6796
 20
45.6756
 30
0.0
 10
-13.6796
 20
45.6756
 30
0.0
 10
-13.7672
 20
41.6624
 30
0.0
 10
-15.5628
 20
37.8764
 30
0.0
 10
-18.615
 20
35.2688
 30
0.0
 10
-18.615
 20
35.2688
 30
0.0
 10
-20.3569
 20
34.1589
 30
0.0
 10
-22.3362
 20
33.4771
 30
0.0
 10
-24.3922
 20
33.2796
 30
0.0
 10
-24.3922
 20
33.2796
 30
0.0
 10
-28.6669
 20
22.8155
 30
0.0
 10
-28.4455
 20
11.0539
 30
0.0
 10
-23.7801
 20
0.7582
 30
0.0
 10
-23.7801
 20
0.7582
 30
0.0
 10
-25.4443
 20
10.0969
 30
0.0
 10
-24.0769
 20
19.723
 30
0.0
 10
-19.8775
 20
28.2286
 30
0.0
  0
SPLINE
  5
57
330
1F
100
AcDbEntity
  8
layer 1
 62
     7
370
     9
100
AcDbSpline
210
0.0
220
0.0
230
1.0
 70
    11
 71
     3
 72
    16
 73
    12
 74
     0
 42
0.0000000001
 43
0.0000000001
 12
1.0
 22
0.0
 32
0.0
 13
1.0
 23
0.0
 33
0.0
 40
0.0
 40
0.0
 40
0.0
 40
0.0
 40
0.25
 40
0.25
 40
0.25
 40
0.25
 40
0.5
 40
0.5
 40
0.5
 40
0.5
 40
1.0
 40
1.0
 40
1.0
 40
1.0
 10
-25.3869
 20
35.7662
 30
0.0
 10
-23.2137
 20
39.9657
 30
0.0
 10
-20.4142
 20
43.8102
 30
0.0
 10
-17.0849
 20
47.1682
 30
0.0
 10
-17.0849
 20
47.1682
 30
0.0
 10
-16.3129
 20
44.5181
 30
0.0
 10
-16.8121
 20
41.66
 30
0.0
 10
-18.4368
 20
39.4289
 30
0.0
 10
-18.4368
 20
39.4289
 30
0.0
 10
-20.062
 20
37.1976
 30
0.0
 10
-22.6282
 20
35.8451
 30
0.0
 10
-25.3869
 20
35.7662
 30
0.0
  0
SPLINE
  5
58
330
1F
100
AcDbEntity
  8
layer 1
 62
     7
370
     9
100
AcDbSpline
210
0.0
220
0.0
230
1.0
 70
    11
 71
     3
 72
    16
 73
    12
 74
     0
 42
0.0000000001
 43
0.0000000001
 12
1.0
 22
0.0
 32
0.0
 13
1.0
 23
0.0
 33
0.0
 40
0.0
 40
0.0
 40
0.0
 40
0.0
 40
0.25
 40
0.25
 40
0.25
 40
0.25
 40
0.5
 40
0.5
 40
0.5
 40
0.5
 40
1.0
 40
1.0
 40
1.0
 40
1.0
 10
-28.907
 20
47.2058
 30
0.0
 10
-26.4851
 20
48.987
 30
0.0
 10
-24.2201
 20
50.9715
 30
0.0
 10
-22.1346
 20
53.1366
 30
0.0
 10
-22.1346
 20
53.1366
 30
0.0
 10
-19.9182
 20
52.2196
 30
0.0
 10
-18.2042
 20
50.3939
 30
0.0
 10
-17.4286
 20
48.1246
 30
0.0
 10
-17.4286
 20
48.1246
 30
0.0
 10
-21.2497
 20
47.7604
 30
0.0
 10
-25.0765
 20
47.4543
 30
0.0
 10
-28.907
 20
47.2058
 30
0.0
  0
SPLINE
  5
59
330
1F
100
AcDbEntity
  8
layer 1
 62
     7
370
     9
100
AcDbSpline
210
0.0
220
0.0
230
1.0
 70
    11
 71
     3
 72
    16
 73
    12
 74
     0
 42
0.0000000001
 43
0.0000000001
 12
1.0
 22
0.0
 32
0.0
 13
1.0
 23
0.0
 33
0.0
 40
0.0
 40
0.0
 40
0.0
 40
0.0
 40
0.25
 40
0.25
 40
0.25
 40
0.25
 40
0.5
 40
0.5
 40
0.5
 40
0.5
 40
1.0
 40
1.0
 40
1.0
 40
1.0
 10
-31.0875
 20
59.7172
 30
0.0
 10
-27.9358
 20
62.3437
 30
0.0
 10
-24.2948
 20
64.3201
 30
0.0
 10
-20.3749
 20
65.5325
 30
0.0
 10
-20.3749
 20
65.5325
 30
0.0
 10
-21.8883
 20
63.2884
 30
0.0
 10
-22.9774
 20
60.7858
 30
0.0
 10
-23.5889
 20
58.1486
 30
0.0
 10
-23.5889
 20
58.1486
 30
0.0
 10
-26.0631
 20
58.7848
 30
0.0
 10
-28.5658
 20
59.3081
 30
0.0
 10
-31.0875
 20
59.7172
 30
0.0
  0
SPLINE
  5
5A
330
1F
100
AcDbEntity
  8
layer 1
 62
     7
370
     9
100
AcDbSpline
210
0.0
220
0.0
230
1.0
 70
    11
 71
     3
 72
    16
 73
    12
 74
     0
 42
0.0000000001
 43
0.0000000001
 12
1.0
 22
0.0
 32
0.0
 13
1.0
 23
0.0
 33
0.0
 40
0.0
 40
0.0
 40
0.0
 40
0.0
 40
0.25
 40
0.25
 40
0.25
 40
0.25
 40
0.5
 40
0.5
 40
0.5
 40
0.5
 40
1.0
 40
1.0
 40
1.0
 40
1.0
 10
-18.2708
 20
67.7519
 30
0.0
 10
-18.077
 20
70.528
 30
0.0
 10
-17.9623
 20
73.3095
 30
0.0
 10
-17.9264
 20
76.0922
 30
0.0
 10
-17.9264
 20
76.0922
 30
0.0
 10
-15.8613
 20
75.0506
 30
0.0
 10
-13.7555
 20
74.0937
 30
0.0
 10
-11.6131
 20
73.2231
 30
0.0
 10
-11.6131
 20
73.2231
 30
0.0
 10
-13.9998
 20
71.6127
 30
0.0
 10
-16.2284
 20
69.7808
 30
0.0
 10
-18.2708
 20
67.7519
 30
0.0
  0
SPLINE
  5
5B
330
1F
100
AcDbEntity
  8
layer 1
 62
     7
370
     9
100
AcDbSpline
210
0.0
220
0.0
230
1.0
 70
    11
 71
     3
 72
    16
 73
    12
 74
     0
 42
0.0000000001
 43
0.0000000001
 12
1.0
 22
0.0
 32
0.0
 13
1.0
 23
0.0
 33
0.0
 40
0.0
 40
0.0
 40
0.0
 40
0.0
 40
0.25
 40
0.25
 40
0.25
 40
0.25
 40
0.5
 40
0.5
 40
0.5
 40
0.5
 40
1.0
 40
1.0
 40
1.0
 40
1.0
 10
-32.8856
 20
88.1063
 30
0.0
 10
-26.8091
 20
83.502
 30
0.0
 10
-20.2392
 20
79.5883
 30
0.0
 10
-13.2964
 20
76.4371
 30
0.0
 10
-13.2964
 20
76.4371
 30
0.0
 10
-16.2031
 20
80.5225
 30
0.0
 10
-19.6819
 20
84.1696
 30
0.0
 10
-23.6272
 20
87.2647
 30
0.0
 10
-23.6272
 20
87.2647
 30
0.0
 10
-26.7326
 20
87.261
 30
0.0
 10
-29.8319
 20
87.5429
 30
0.0
 10
-32.8856
 20
88.1063
 30
0.0
  0
SPLINE
  5
5C
330
1F
100
AcDbEntity
  8
layer 1
 62
     7
370
     9
100
AcDbSpline
210
0.0
220
0.0
230
1.0
 70
    11
 71
     3
 72
    16
 73
    12
 74
     0
 42
0.0000000001
 43
0.0000000001
 12
1.0
 22
0.0
 32
0.0
 13
1.0
 23
0.0
 33
0.0
 40
0.0
 40
0.0
 40
0.0
 40
0.0
 40
0.25
 40
0.25
 40
0.25
 40
0.25
 40
0.5
 40
0.5
 40
0.5
 40
0.5
 40
1.0
 40
1.0
 40
1.0
 40
1.0
 10
-35.6405
 20
86.6142
 30
0.0
 10
-31.2855
 20
80.7495
 30
0.0
 10
-26.4482
 20
75.2593
 30
0.0
 10
-21.1782
 20
70.2002
 30
0.0
 10
-21.1782
 20
70.2002
 30
0.0
 10
-20.9783
 20
72.5289
 30
0.0
 10
-20.8887
 20
74.8649
 30
0.0
 10
-20.9104
 20
77.2023
 30
0.0
 10
-20.9104
 20
77.2023
 30
0.0
 10
-26.0145
 20
80.0251
 30
0.0
 10
-30.9345
 20
83.1688
 30
0.0
 10
-35.6405
 20
86.6142
 30
0.0
  0
SPLINE
  5
5D
330
1F
100
AcDbEntity
  8
layer 1
 62
     7
370
     9
100
AcDbSpline
210
0.0
220
0.0
230
1.0
 70
    11
 71
     3
 72
    20
 73
    16
 74
     0
 42
0.0000000001
 43
0.0000000001
 12
1.0
 22
0.0
 32
0.0
 13
1.0
 23
0.0
 33
0.0
 40
0.0
 40
0.0
 40
0.0
 40
0.0
 40
0.2
 40
0.2
 40
0.2
 40
0.2
 40
0.4
 40
0.4
 40
0.4
 40
0.4
 40
0.6
 40
0.6
 40
0.6
 40
0.6
 40
1.0
 40
1.0
 40
1.0
 40
1.0
 10
-47.2721
 20
89.9424
 30
0.0
 10
-45.3697
 20
87.2615
 30
0.0
 10
-43.7784
 20
84.3739
 30
0.0
 10
-42.5276
 20
81.3344
 30
0.0
 10
-42.5276
 20
81.3344
 30
0.0
 10
-38.1092
 20
78.9268
 30
0.0
 10
-33.6445
 20
76.6055
 30
0.0
 10
-29.1365
 20
74.3708
 30
0.0
 10
-29.1365
 20
74.3708
 30
0.0
 10
-32.4758
 20
78.3456
 30
0.0
 10
-35.8559
 20
82.2866
 30
0.0
 10
-39.2755
 20
86.1934
 30
0.0
 10
-39.2755
 20
86.1934
 30
0.0
 10
-42.1346
 20
86.9801
 30
0.0
 10
-44.8385
 20
88.2475
 30
0.0
 10
-47.2721
 20
89.9424
 30
0.0
  0
SPLINE
  5
5E
330
1F
100
AcDbEntity
  8
layer 1
 62
     7
370
     9
100
AcDbSpline
210
0.0
220
0.0
230
1.0
 70
    11
 71
     3
 72
    16
 73
    12
 74
     0
 42
0.0000000001
 43
0.0000000001
 12
1.0
 22
0.0
 32
0.0
 13
1.0
 23
0.0
 33
0.0
 40
0.0
 40
0.0
 40
0.0
 40
0.0
 40
0.25
 40
0.25
 40
0.25
 40
0.25
 40
0.5
 40
0.5
 40
0.5
 40
0.5
 40
1.0
 40
1.0
 40
1.0
 40
1.0
 10
-41.8768
 20
78.1587
 30
0.0
 10
-37.0596
 20
73.8784
 30
0.0
 10
-32.2136
 20
69.6314
 30
0.0
 10
-27.338
 20
65.4178
 30
0.0
 10
-27.338
 20
65.4178
 30
0.0
 10
-25.7238
 20
66.0847
 30
0.0
 10
-24.1406
 20
66.8253
 30
0.0
 10
-22.5937
 20
67.6372
 30
0.0
 10
-22.5937
 20
67.6372
 30
0.0
 10
-29.0303
 20
71.1282
 30
0.0
 10
-35.4579
 20
74.6354
 30
0.0
 10
-41.8768
 20
78.1587
 30
0.0
  0
SPLINE
  5
5F
330
1F
100
AcDbEntity
  8
layer 1
 62
     7
370
     9
100
AcDbSpline
210
0.0
220
0.0
230
1.0
 70
    11
 71
     3
 72
    20
 73
    16
 74
     0
 42
0.0000000001
 43
0.0000000001
 12
1.0
 22
0.0
 32
0.0
 13
1.0
 23
0.0
 33
0.0
 40
0.0
 40
0.0
 40
0.0
 40
0.0
 40
0.2
 40
0.2
 40
0.2
 40
0.2
 40
0.4
 40
0.4
 40
0.4
 40
0.4
 40
0.6
 40
0.6
 40
0.6
 40
0.6
 40
1.0
 40
1.0
 40
1.0
 40
1.0
 10
-55.3827
 20
72.7639
 30
0.0
 10
-56.5353
 20
75.6838
 30
0.0
 10
-58.1932
 20
78.3776
 30
0.0
 10
-60.28
 20
80.7217
 30
0.0
 10
-60.28
 20
80.7217
 30
0.0
 10
-55.7808
 20
79.6135
 30
0.0
 10
-51.2364
 20
78.6942
 30
0.0
 10
-46.6599
 20
77.9673
 30
0.0
 10
-46.6599
 20
77.9673
 30
0.0
 10
-40.7013
 20
74.0967
 30
0.0
 10
-35.2511
 20
69.4957
 30
0.0
 10
-30.4373
 20
64.2701
 30
0.0
 10
-30.4373
 20
64.2701
 30
0.0
 10
-38.4634
 20
67.8883
 30
0.0
 10
-46.8166
 20
70.7321
 30
0.0
 10
-55.3827
 20
72.7639
 30
0.0
  0
SPLINE
  5
60
330
1F
100
AcDbEntity
  8
layer 1
 62
     7
370
     9
100
AcDbSpline
210
0.0
220
0.0
230
1.0
 70
    11
 71
     3
 72
    20
 73
    16
 74
     0
 42
0.0000000001
 43
0.0000000001
 12
1.0
 22
0.0
 32
0.0
 13
1.0
 23
0.0
 33
0.0
 40
0.0
 40
0.0
 40
0.0
 40
0.0
 40
0.2
 40
0.2
 40
0.2
 40
0.2
 40
0.4
 40
0.4
 40
0.4
 40
0.4
 40
0.6
 40
0.6
 40
0.6
 40
0.6
 40
1.0
 40
1.0
 40
1.0
 40
1.0
 10
-66.9377
 20
67.3311
 30
0.0
 10
-64.2216
 20
66.1298
 30
0.0
 10
-61.5881
 20
64.7495
 30
0.0
 10
-59.0559
 20
63.199
 30
0.0
 10
-59.0559
 20
63.199
 30
0.0
 10
-50.5361
 20
63.2175
 30
0.0
 10
-42.0162
 20
63.1409
 30
0.0
 10
-33.4982
 20
62.9693
 30
0.0
 10
-33.4982
 20
62.9693
 30
0.0
 10
-40.6495
 20
65.9065
 30
0.0
 10
-48.0173
 20
68.2857
 30
0.0
 10
-55.5357
 20
70.0855
 30
0.0
 10
-55.5357
 20
70.0855
 30
0.0
 10
-59.0991
 20
68.3726
 30
0.0
 10
-62.9851
 20
67.4336
 30
0.0
 10
-66.9377
 20
67.3311
 30
0.0
  0
SPLINE
  5
61
330
1F
100
AcDbEntity
  8
layer 1
 62
     7
370
     9
100
AcDbSpline
210
0.0
220
0.0
230
1.0
 70
    11
 71
     3
 72
    20
 73
    16
 74
     0
 42
0.0000000001
 43
0.0000000001
 12
1.0
 22
0.0
 32
0.0
 13
1.0
 23
0.0
 33
0.0
 40
0.0
 40
0.0
 40
0.0
 40
0.0
 40
0.2
 40
0.2
 40
0.2
 40
0.2
 40
0.4
 40
0.4
 40
0.4
 40
0.4
 40
0.6
 40
0.6
 40
0.6
 40
0.6
 40
1.0
 40
1.0
 40
1.0
 40
1.0
 10
-68.0854
 20
54.3991
 30
0.0
 10
-64.8324
 20
53.5919
 30
0.0
 10
-61.6369
 20
52.5696
 30
0.0
 10
-58.5203
 20
51.3379
 30
0.0
 10
-58.5203
 20
51.3379
 30
0.0
 10
-50.1498
 20
54.7347
 30
0.0
 10
-41.5905
 20
57.6475
 30
0.0
 10
-32.8856
 20
60.0614
 30
0.0
 10
-32.8856
 20
60.0614
 30
0.0
 10
-41.6484
 20
60.6709
 30
0.0
 10
-50.4422
 20
60.6963
 30
0.0
 10
-59.2089
 20
60.1378
 30
0.0
 10
-59.2089
 20
60.1378
 30
0.0
 10
-61.7739
 20
57.6761
 30
0.0
 10
-64.7867
 20
55.7275
 30
0.0
 10
-68.0854
 20
54.3991
 30
0.0
  0
SPLINE
  5
62
330
1F
100
AcDbEntity
  8
layer 1
 62
     7
370
     9
100
AcDbSpline
210
0.0
220
0.0
230
1.0
 70
    11
 71
     3
 72
    20
 73
    16
 74
     0
 42
0.0000000001
 43
0.0000000001
 12
1.0
 22
0.0
 32
0.0
 13
1.0
 23
0.0
 33
0.0
 40
0.0
 40
0.0
 40
0.0
 40
0.0
 40
0.2
 40
0.2
 40
0.2
 40
0.2
 40
0.4
 40
0.4
 40
0.4
 40
0.4
 40
0.6
 40
0.6
 40
0.6
 40
0.6
 40
1.0
 40
1.0
 40
1.0
 40
1.0
 10
-52.3217
 20
50.5729
 30
0.0
 10
-44.259
 20
50.5944
 30
0.0
 10
-36.1977
 20
50.7728
 30
0.0
 10
-28.1413
 20
51.1084
 30
0.0
 10
-28.1413
 20
51.1084
 30
0.0
 10
-26.5889
 20
52.4282
 30
0.0
 10
-25.2012
 20
53.9314
 30
0.0
 10
-24.0097
 20
55.5849
 30
0.0
 10
-24.0097
 20
55.5849
 30
0.0
 10
-26.7104
 20
56.508
 30
0.0
 10
-29.5092
 20
57.112
 30
0.0
 10
-32.3505
 20
57.3829
 30
0.0
 10
-32.3505
 20
57.3829
 30
0.0
 10
-39.0995
 20
55.393
 30
0.0
 10
-45.7628
 20
53.1205
 30
0.0
 10
-52.3217
 20
50.5729
 30
0.0
  0
SPLINE
  5
63
330
1F
100
AcDbEntity
  8
layer 1
 62
     7
370
     9
100
AcDbSpline
210
0.0
220
0.0
230
1.0
 70
    11
 71
     3
 72
    20
 73
    16
 74
     0
 42
0.0000000001
 43
0.0000000001
 12
1.0
 22
0.0
 32
0.0
 13
1.0
 23
0.0
 33
0.0
 40
0.0
 40
0.0
 40
0.0
 40
0.0
 40
0.2
 40
0.2
 40
0.2
 40
0.2
 40
0.4
 40
0.4
 40
0.4
 40
0.4
 40
0.6
 40
0.6
 40
0.6
 40
0.6
 40
1.0
 40
1.0
 40
1.0
 40
1.0
 10
-66.6316
 20
41.0844
 30
0.0
 10
-63.4757
 20
42.5534
 30
0.0
 10
-60.6608
 20
44.6643
 30
0.0
 10
-58.3673
 20
47.2829
 30
0.0
 10
-58.3673
 20
47.2829
 30
0.0
 10
-50.9987
 20
48.0931
 30
0.0
 10
-43.5884
 20
48.4509
 30
0.0
 10
-36.1762
 20
48.3533
 30
0.0
 10
-36.1762
 20
48.3533
 30
0.0
 10
-43.4594
 20
45.6841
 30
0.0
 10
-50.6329
 20
42.723
 30
0.0
 10
-57.6787
 20
39.4775
 30
0.0
 10
-57.6787
 20
39.4775
 30
0.0
 10
-60.6003
 20
40.3155
 30
0.0
 10
-63.6002
 20
40.8542
 30
0.0
 10
-66.6316
 20
41.0844
 30
0.0
  0
SPLINE
  5
64
330
1F
100
AcDbEntity
  8
layer 1
 62
     7
370
     9
100
AcDbSpline
210
0.0
220
0.0
230
1.0
 70
    11
 71
     3
 72
    20
 73
    16
 74
     0
 42
0.0000000001
 43
0.0000000001
 12
1.0
 22
0.0
 32
0.0
 13
1.0
 23
0.0
 33
0.0
 40
0.0
 40
0.0
 40
0.0
 40
0.0
 40
0.2
 40
0.2
 40
0.2
 40
0.2
 40
0.4
 40
0.4
 40
0.4
 40
0.4
 40
0.6
 40
0.6
 40
0.6
 40
0.6
 40
1.0
 40
1.0
 40
1.0
 40
1.0
 10
-61.7338
 20
28.2286
 30
0.0
 10
-58.0446
 20
28.9826
 30
0.0
 10
-54.314
 20
29.5189
 30
0.0
 10
-50.562
 20
29.836
 30
0.0
 10
-50.562
 20
29.836
 30
0.0
 10
-45.0896
 20
35.5373
 30
0.0
 10
-39.4235
 20
41.0497
 30
0.0
 10
-33.5747
 20
46.3642
 30
0.0
 10
-33.5747
 20
46.3642
 30
0.0
 10
-41.5478
 20
43.611
 30
0.0
 10
-49.3421
 20
40.3655
 30
0.0
 10
-56.9136
 20
36.646
 30
0.0
 10
-56.9136
 20
36.646
 30
0.0
 10
-57.8663
 20
33.5135
 30
0.0
 10
-59.5138
 20
30.6363
 30
0.0
 10
-61.7338
 20
28.2286
 30
0.0
  0
SPLINE
  5
65
330
1F
100
AcDbEntity
  8
layer 1
 62
     7
370
     9
100
AcDbSpline
210
0.0
220
0.0
230
1.0
 70
    11
 71
     3
 72
    20
 73
    16
 74
     0
 42
0.0000000001
 43
0.0000000001
 12
1.0
 22
0.0
 32
0.0
 13
1.0
 23
0.0
 33
0.0
 40
0.0
 40
0.0
 40
0.0
 40
0.0
 40
0.2
 40
0.2
 40
0.2
 40
0.2
 40
0.4
 40
0.4
 40
0.4
 40
0.4
 40
0.6
 40
0.6
 40
0.6
 40
0.6
 40
1.0
 40
1.0
 40
1.0
 40
1.0
 10
-47.3485
 20
28.7648
 30
0.0
 10
-41.0513
 20
32.2769
 30
0.0
 10
-34.5034
 20
35.3208
 30
0.0
 10
-27.7593
 20
37.8708
 30
0.0
 10
-27.7593
 20
37.8708
 30
0.0
 10
-26.2279
 20
40.2261
 30
0.0
 10
-24.723
 20
42.5985
 30
0.0
 10
-23.2445
 20
44.987
 30
0.0
 10
-23.2445
 20
44.987
 30
0.0
 10
-26.2093
 20
45.0659
 30
0.0
 10
-29.1717
 20
44.7309
 30
0.0
 10
-32.0439
 20
43.9923
 30
0.0
 10
-32.0439
 20
43.9923
 30
0.0
 10
-37.3535
 20
39.1289
 30
0.0
 10
-42.4586
 20
34.049
 30
0.0
 10
-47.3485
 20
28.7648
 30
0.0
  0
SPLINE
  5
66
330
1F
100
AcDbEntity
  8
layer 1
 62
     7
370
     9
100
AcDbSpline
210
0.0
220
0.0
230
1.0
 70
    11
 71
     3
 72
    20
 73
    16
 74
     0
 42
0.0000000001
 43
0.0000000001
 12
1.0
 22
0.0
 32
0.0
 13
1.0
 23
0.0
 33
0.0
 40
0.0
 40
0.0
 40
0.0
 40
0.0
 40
0.2
 40
0.2
 40
0.2
 40
0.2
 40
0.4
 40
0.4
 40
0.4
 40
0.4
 40
0.6
 40
0.6
 40
0.6
 40
0.6
 40
1.0
 40
1.0
 40
1.0
 40
1.0
 10
-51.8626
 20
23.3313
 30
0.0
 10
-51.6165
 20
20.8022
 30
0.0
 10
-52.094
 20
18.2538
 30
0.0
 10
-53.2405
 20
15.9857
 30
0.0
 10
-53.2405
 20
15.9857
 30
0.0
 10
-50.7539
 20
16.7909
 30
0.0
 10
-48.1889
 20
17.3296
 30
0.0
 10
-45.5881
 20
17.5925
 30
0.0
 10
-45.5881
 20
17.5925
 30
0.0
 10
-41.8126
 20
22.67
 30
0.0
 10
-37.9347
 20
27.6703
 30
0.0
 10
-33.9574
 20
32.591
 30
0.0
 10
-33.9574
 20
32.591
 30
0.0
 10
-39.9363
 20
29.5244
 30
0.0
 10
-45.9047
 20
26.4381
 30
0.0
 10
-51.8626
 20
23.3313
 30
0.0
  0
SPLINE
  5
67
330
1F
100
AcDbEntity
  8
layer 1
 62
     7
370
     9
100
AcDbSpline
210
0.0
220
0.0
230
1.0
 70
    11
 71
     3
 72
    16
 73
    12
 74
     0
 42
0.0000000001
 43
0.0000000001
 12
1.0
 22
0.0
 32
0.0
 13
1.0
 23
0.0
 33
0.0
 40
0.0
 40
0.0
 40
0.0
 40
0.0
 40
0.25
 40
0.25
 40
0.25
 40
0.25
 40
0.5
 40
0.5
 40
0.5
 40
0.5
 40
1.0
 40
1.0
 40
1.0
 40
1.0
 10
-38.9311
 20
3.5892
 30
0.0
 10
-38.799
 20
8.4482
 30
0.0
 10
-39.9609
 20
13.2547
 30
0.0
 10
-42.2976
 20
17.5159
 30
0.0
 10
-42.2976
 20
17.5159
 30
0.0
 10
-37.7514
 20
23.7762
 30
0.0
 10
-32.711
 20
29.6614
 30
0.0
 10
-27.2238
 20
35.1158
 30
0.0
 10
-27.2238
 20
35.1158
 30
0.0
 10
-33.0521
 20
25.4261
 30
0.0
 10
-37.0227
 20
14.7349
 30
0.0
 10
-38.9311
 20
3.5892
 30
0.0
  0
SPLINE
  5
68
330
1F
100
AcDbEntity
  8
layer 1
 62
     7
370
     9
100
AcDbSpline
210
0.0
220
0.0
230
1.0
 70
    11
 71
     3
 72
   196
 73
   192
 74
     0
 42
0.0000000001
 43
0.0000000001
 12
1.0
 22
0.0
 32
0.0
 13
1.0
 23
0.0
 33
0.0
 40
0.0
 40
0.0
 40
0.0
 40
0.0
 40
0.0204081632653061
 40
0.0204081632653061
 40
0.0204081632653061
 40
0.0204081632653061
 40
0.0408163265306122
 40
0.0408163265306122
 40
0.0408163265306122
 40
0.0408163265306122
 40
0.0612244897959184
 40
0.0612244897959184
 40
0.0612244897959184
 40
0.0612244897959184
 40
0.0816326530612245
 40
0.0816326530612245
 40
0.0816326530612245
 40
0.0816326530612245
 40
0.1020408163265306
 40
0.1020408163265306
 40
0.1020408163265306
 40
0.1020408163265306
 40
0.1224489795918367
 40
0.1224489795918367
 40
0.1224489795918367
 40
0.1224489795918367
 40
0.1428571428571428
 40
0.1428571428571428
 40
0.1428571428571428
 40
0.1428571428571428
 40
0.163265306122449
 40
0.163265306122449
 40
0.163265306122449
 40
0.163265306122449
 40
0.1836734693877551
 40
0.1836734693877551
 40
0.1836734693877551
 40
0.1836734693877551
 40
0.2040816326530612
 40
0.2040816326530612
 40
0.2040816326530612
 40
0.2040816326530612
 40
0.2244897959183673
 40
0.2244897959183673
 40
0.2244897959183673
 40
0.2244897959183673
 40
0.2448979591836735
 40
0.2448979591836735
 40
0.2448979591836735
 40
0.2448979591836735
 40
0.2653061224489796
 40
0.2653061224489796
 40
0.2653061224489796
 40
0.2653061224489796
 40
0.2857142857142857
 40
0.2857142857142857
 40
0.2857142857142857
 40
0.2857142857142857
 40
0.3061224489795918
 40
0.3061224489795918
 40
0.3061224489795918
 40
0.3061224489795918
 40
0.3265306122448979
 40
0.3265306122448979
 40
0.3265306122448979
 40
0.3265306122448979
 40
0.3469387755102041
 40
0.3469387755102041
 40
0.3469387755102041
 40
0.3469387755102041
 40
0.3673469387755102
 40
0.3673469387755102
 40
0.3673469387755102
 40
0.3673469387755102
 40
0.3877551020408163
 40
0.3877551020408163
 40
0.3877551020408163
 40
0.3877551020408163
 40
0.4081632653061225
 40
0.4081632653061225
 40
0.4081632653061225
 40
0.4081632653061225
 40
0.4285714285714285
 40
0.4285714285714285
 40
0.4285714285714285
 40
0.4285714285714285
 40
0.4489795918367347
 40
0.4489795918367347
 40
0.4489795918367347
 40
0.4489795918367347
 40
0.4693877551020408
 40
0.4693877551020408
 40
0.4693877551020408
 40
0.4693877551020408
 40
0.4897959183673469
 40
0.4897959183673469
 40
0.4897959183673469
 40
0.4897959183673469
 40
0.5102040816326531
 40
0.5102040816326531
 40
0.5102040816326531
 40
0.5102040816326531
 40
0.5306122448979592
 40
0.5306122448979592
 40
0.5306122448979592
 40
0.5306122448979592
 40
0.5510204081632653
 40
0.5510204081632653
 40
0.5510204081632653
 40
0.5510204081632653
 40
0.5714285714285714
 40
0.5714285714285714
 40
0.5714285714285714
 40
0.5714285714285714
 40
0.5918367346938775
 40
0.5918367346938775
 40
0.5918367346938775
 40
0.5918367346938775
 40
0.6122448979591837
 40
0.6122448979591837
 40
0.6122448979591837
 40
0.6122448979591837
 40
0.6326530612244898
 40
0.6326530612244898
 40
0.6326530612244898
 40
0.6326530612244898
 40
0.6530612244897959
 40
0.6530612244897959
 40
0.6530612244897959
 40
0.6530612244897959
 40
0.673469387755102
 40
0.673469387755102
 40
0.673469387755102
 40
0.673469387755102
 40
0.6938775510204082
 40
0.6938775510204082
 40
0.6938775510204082
 40
0.6938775510204082
 40
0.7142857142857143
 40
0.7142857142857143
 40
0.7142857142857143
 40
0.7142857142857143
 40
0.7346938775510204
 40
0.7346938775510204
 40
0.7346938775510204
 40
0.7346938775510204
 40
0.7551020408163265
 40
0.7551020408163265
 40
0.7551020408163265
 40
0.7551020408163265
 40
0.7755102040816326
 40
0.7755102040816326
 40
0.7755102040816326
 40
0.7755102040816326
 40
0.7959183673469388
 40
0.7959183673469388
 40
0.7959183673469388
 40
0.7959183673469388
 40
0.8163265306122449
 40
0.8163265306122449
 40
0.8163265306122449
 40
0.8163265306122449
 40
0.8367346938775511
 40
0.8367346938775511
 40
0.8367346938775511
 40
0.8367346938775511
 40
0.8571428571428571
 40
0.8571428571428571
 40
0.8571428571428571
 40
0.8571428571428571
 40
0.8775510204081632
 40
0.8775510204081632
 40
0.8775510204081632
 40
0.8775510204081632
 40
0.8979591836734694
 40
0.8979591836734694
 40
0.8979591836734694
 40
0.8979591836734694
 40
0.9183673469387755
 40
0.9183673469387755
 40
0.9183673469387755
 40
0.9183673469387755
 40
0.9387755102040817
 40
0.9387755102040817
 40
0.9387755102040817
 40
0.9387755102040817
 40
0.9591836734693877
 40
0.9591836734693877
 40
0.9591836734693877
 40
0.9591836734693877
 40
1.0
 40
1.0
 40
1.0
 40
1.0
 10
-2.6601
 20
-2.9149
 30
0.0
 10
-1.7284
 20
-2.5403
 30
0.0
 10
-0.9707
 20
-1.8307
 30
0.0
 10
-0.5357
 20
-0.9256
 30
0.0
 10
-0.5357
 20
-0.9256
 30
0.0
 10
-0.9707
 20
-0.0197
 30
0.0
 10
-1.7284
 20
0.6898
 30
0.0
 10
-2.6601
 20
1.0643
 30
0.0
 10
-2.6601
 20
1.0643
 30
0.0
 10
-2.6892
 20
3.9334
 30
0.0
 10
-2.7021
 20
6.8032
 30
0.0
 10
-2.6984
 20
9.6731
 30
0.0
 10
-2.6984
 20
9.6731
 30
0.0
 10
-1.9413
 20
8.9301
 30
0.0
 10
-0.877
 20
8.5901
 30
0.0
 10
0.1707
 20
8.7543
 30
0.0
 10
0.1707
 20
8.7543
 30
0.0
 10
2.0583
 20
9.3812
 30
0.0
 10
3.5983
 20
10.7681
 30
0.0
 10
4.4177
 20
12.5803
 30
0.0
 10
4.4177
 20
12.5803
 30
0.0
 10
4.984
 20
14.2321
 30
0.0
 10
5.0638
 20
16.0116
 30
0.0
 10
4.6472
 20
17.7073
 30
0.0
 10
4.6472
 20
17.7073
 30
0.0
 10
4.3233
 20
18.4576
 30
0.0
 10
3.7062
 20
19.0413
 30
0.0
 10
2.9392
 20
19.3232
 30
0.0
 10
2.9392
 20
19.3232
 30
0.0
 10
2.173
 20
19.6058
 30
0.0
 10
1.3245
 20
19.5607
 30
0.0
 10
0.5915
 20
19.1997
 30
0.0
 10
0.5915
 20
19.1997
 30
0.0
 10
-0.6363
 20
18.4698
 30
0.0
 10
-1.5087
 20
17.2655
 30
0.0
 10
-1.8185
 20
15.8709
 30
0.0
 10
-1.8185
 20
15.8709
 30
0.0
 10
-1.9857
 20
14.7542
 30
0.0
 10
-1.4138
 20
13.657
 30
0.0
 10
-0.4032
 20
13.1549
 30
0.0
 10
-0.4032
 20
13.1549
 30
0.0
 10
0.1763
 20
12.9716
 30
0.0
 10
0.808
 20
13.1795
 30
0.0
 10
1.1661
 20
13.6714
 30
0.0
 10
1.1661
 20
13.6714
 30
0.0
 10
1.5615
 20
14.4371
 30
0.0
 10
1.2616
 20
15.3791
 30
0.0
 10
0.4958
 20
15.7753
 30
0.0
 10
0.4958
 20
15.7753
 30
0.0
 10
1.3999
 20
16.0159
 30
0.0
 10
2.3395
 20
15.5378
 30
0.0
 10
2.6771
 20
14.6659
 30
0.0
 10
2.6771
 20
14.6659
 30
0.0
 10
3.0862
 20
13.7978
 30
0.0
 10
2.9104
 20
12.7668
 30
0.0
 10
2.2372
 20
12.0831
 30
0.0
 10
2.2372
 20
12.0831
 30
0.0
 10
1.1913
 20
11.1064
 30
0.0
 10
-0.2909
 20
10.7503
 30
0.0
 10
-1.6654
 20
11.1458
 30
0.0
 10
-1.6654
 20
11.1458
 30
0.0
 10
-2.7114
 20
11.5024
 30
0.0
 10
-3.5271
 20
12.3323
 30
0.0
 10
-3.8657
 20
13.3838
 30
0.0
 10
-3.8657
 20
13.3838
 30
0.0
 10
-4.1071
 20
14.9824
 30
0.0
 10
-3.7966
 20
16.6152
 30
0.0
 10
-2.986
 20
18.0139
 30
0.0
 10
-2.986
 20
18.0139
 30
0.0
 10
-2.3633
 20
19.0745
 30
0.0
 10
-1.6859
 20
20.1026
 30
0.0
 10
-0.9578
 20
21.0934
 30
0.0
 10
-0.9578
 20
21.0934
 30
0.0
 10
-0.4049
 20
21.9319
 30
0.0
 10
-0.4999
 20
23.0401
 30
0.0
 10
-1.1873
 20
23.7719
 30
0.0
 10
-1.1873
 20
23.7719
 30
0.0
 10
-1.8993
 20
24.3982
 30
0.0
 10
-2.8034
 20
24.7629
 30
0.0
 10
-3.751
 20
24.8048
 30
0.0
 10
-3.751
 20
24.8048
 30
0.0
 10
-3.7368
 20
27.0427
 30
0.0
 10
-3.7307
 20
29.2813
 30
0.0
 10
-3.7312
 20
31.5192
 30
0.0
 10
-3.7312
 20
31.5192
 30
0.0
 10
1.6806
 20
26.6534
 30
0.0
 10
6.3019
 20
20.9738
 30
0.0
 10
9.9655
 20
14.6851
 30
0.0
 10
9.9655
 20
14.6851
 30
0.0
 10
7.1077
 20
12.4575
 30
0.0
 10
4.6713
 20
9.7359
 30
0.0
 10
2.7727
 20
6.6502
 30
0.0
 10
2.7727
 20
6.6502
 30
0.0
 10
1.7632
 20
4.9874
 30
0.0
 10
1.7343
 20
2.908
 30
0.0
 10
2.6961
 20
1.2173
 30
0.0
 10
2.6961
 20
1.2173
 30
0.0
 10
3.2306
 20
0.48
 30
0.0
 10
3.7963
 20
-0.235
 30
0.0
 10
4.3906
 20
-0.9256
 30
0.0
 10
4.3906
 20
-0.9256
 30
0.0
 10
3.7963
 20
-1.6154
 30
0.0
 10
3.2306
 20
-2.3306
 30
0.0
 10
2.6961
 20
-3.068
 30
0.0
 10
2.6961
 20
-3.068
 30
0.0
 10
1.7343
 20
-4.7586
 30
0.0
 10
1.7632
 20
-6.8378
 30
0.0
 10
2.7727
 20
-8.5008
 30
0.0
 10
2.7727
 20
-8.5008
 30
0.0
 10
4.6713
 20
-11.5865
 30
0.0
 10
7.1077
 20
-14.3081
 30
0.0
 10
9.9655
 20
-16.5355
 30
0.0
 10
9.9655
 20
-16.5355
 30
0.0
 10
6.3019
 20
-22.8242
 30
0.0
 10
1.6806
 20
-28.504
 30
0.0
 10
-3.7312
 20
-33.3698
 30
0.0
 10
-3.7312
 20
-33.3698
 30
0.0
 10
-3.7307
 20
-31.1318
 30
0.0
 10
-3.7368
 20
-28.8934
 30
0.0
 10
-3.751
 20
-26.6553
 30
0.0
 10
-3.751
 20
-26.6553
 30
0.0
 10
-2.8034
 20
-26.6135
 30
0.0
 10
-1.8993
 20
-26.2488
 30
0.0
 10
-1.1873
 20
-25.6218
 30
0.0
 10
-1.1873
 20
-25.6218
 30
0.0
 10
-0.4999
 20
-24.89
 30
0.0
 10
-0.4049
 20
-23.782
 30
0.0
 10
-0.9578
 20
-22.944
 30
0.0
 10
-0.9578
 20
-22.944
 30
0.0
 10
-1.6859
 20
-21.9525
 30
0.0
 10
-2.3633
 20
-20.9244
 30
0.0
 10
-2.986
 20
-19.8638
 30
0.0
 10
-2.986
 20
-19.8638
 30
0.0
 10
-3.7966
 20
-18.4656
 30
0.0
 10
-4.1071
 20
-16.8331
 30
0.0
 10
-3.8657
 20
-15.235
 30
0.0
 10
-3.8657
 20
-15.235
 30
0.0
 10
-3.5271
 20
-14.1829
 30
0.0
 10
-2.7114
 20
-13.353
 30
0.0
 10
-1.6654
 20
-12.9964
 30
0.0
 10
-1.6654
 20
-12.9964
 30
0.0
 10
-0.2909
 20
-12.6009
 30
0.0
 10
1.1913
 20
-12.9568
 30
0.0
 10
2.2372
 20
-13.9337
 30
0.0
 10
2.2372
 20
-13.9337
 30
0.0
 10
2.9104
 20
-14.6172
 30
0.0
 10
3.0862
 20
-15.6483
 30
0.0
 10
2.6771
 20
-16.5165
 30
0.0
 10
2.6771
 20
-16.5165
 30
0.0
 10
2.3395
 20
-17.3884
 30
0.0
 10
1.3999
 20
-17.8666
 30
0.0
 10
0.4958
 20
-17.6259
 30
0.0
 10
0.4958
 20
-17.6259
 30
0.0
 10
1.2616
 20
-17.2297
 30
0.0
 10
1.5615
 20
-16.2875
 30
0.0
 10
1.1661
 20
-15.5213
 30
0.0
 10
1.1661
 20
-15.5213
 30
0.0
 10
0.808
 20
-15.0301
 30
0.0
 10
0.1763
 20
-14.8222
 30
0.0
 10
-0.4032
 20
-15.0048
 30
0.0
 10
-0.4032
 20
-15.0048
 30
0.0
 10
-1.4138
 20
-15.5083
 30
0.0
 10
-1.9857
 20
-16.6046
 30
0.0
 10
-1.8185
 20
-17.7216
 30
0.0
 10
-1.8185
 20
-17.7216
 30
0.0
 10
-1.5087
 20
-19.1159
 30
0.0
 10
-0.6363
 20
-20.3205
 30
0.0
 10
0.5915
 20
-21.0503
 30
0.0
 10
0.5915
 20
-21.0503
 30
0.0
 10
1.3245
 20
-21.4113
 30
0.0
 10
2.173
 20
-21.4558
 30
0.0
 10
2.9392
 20
-21.1738
 30
0.0
 10
2.9392
 20
-21.1738
 30
0.0
 10
3.7062
 20
-20.8917
 30
0.0
 10
4.3233
 20
-20.3075
 30
0.0
 10
4.6472
 20
-19.5577
 30
0.0
 10
4.6472
 20
-19.5577
 30
0.0
 10
5.0638
 20
-17.8622
 30
0.0
 10
4.984
 20
-16.0827
 30
0.0
 10
4.4177
 20
-14.4309
 30
0.0
 10
4.4177
 20
-14.4309
 30
0.0
 10
3.5983
 20
-12.6194
 30
0.0
 10
2.0583
 20
-11.2318
 30
0.0
 10
0.1707
 20
-10.6047
 30
0.0
 10
0.1707
 20
-10.6047
 30
0.0
 10
-0.877
 20
-10.4407
 30
0.0
 10
-1.9413
 20
-10.7812
 30
0.0
 10
-2.6984
 20
-11.5235
 30
0.0
 10
-2.6984
 20
-11.5235
 30
0.0
 10
-2.7021
 20
-8.6537
 30
0.0
 10
-2.6892
 20
-5.784
 30
0.0
 10
-2.6601
 20
-2.9149
 30
0.0
  0
SPLINE
  5
69
330
1F
100
AcDbEntity
  8
layer 1
 62
     7
370
     9
100
AcDbSpline
210
0.0
220
0.0
230
1.0
 70
    11
 71
     3
 72
    36
 73
    32
 74
     0
 42
0.0000000001
 43
0.0000000001
 12
1.0
 22
0.0
 32
0.0
 13
1.0
 23
0.0
 33
0.0
 40
0.0
 40
0.0
 40
0.0
 40
0.0
 40
0.1111111111111111
 40
0.1111111111111111
 40
0.1111111111111111
 40
0.1111111111111111
 40
0.2222222222222222
 40
0.2222222222222222
 40
0.2222222222222222
 40
0.2222222222222222
 40
0.3333333333333333
 40
0.3333333333333333
 40
0.3333333333333333
 40
0.3333333333333333
 40
0.4444444444444444
 40
0.4444444444444444
 40
0.4444444444444444
 40
0.4444444444444444
 40
0.5555555555555556
 40
0.5555555555555556
 40
0.5555555555555556
 40
0.5555555555555556
 40
0.6666666666666666
 40
0.6666666666666666
 40
0.6666666666666666
 40
0.6666666666666666
 40
0.7777777777777778
 40
0.7777777777777778
 40
0.7777777777777778
 40
0.7777777777777778
 40
1.0
 40
1.0
 40
1.0
 40
1.0
 10
17.2731
 20
-2.8383
 30
0.0
 10
18.0609
 20
-2.2898
 30
0.0
 10
18.7789
 20
-1.6469
 30
0.0
 10
19.411
 20
-0.9256
 30
0.0
 10
19.411
 20
-0.9256
 30
0.0
 10
18.7789
 20
-0.203
 30
0.0
 10
18.0609
 20
0.4392
 30
0.0
 10
17.2731
 20
0.9879
 30
0.0
 10
17.2731
 20
0.9879
 30
0.0
 10
20.1657
 20
8.1372
 30
0.0
 10
21.1544
 20
15.9154
 30
0.0
 10
20.1428
 20
23.5615
 30
0.0
 10
20.1428
 20
23.5615
 30
0.0
 10
22.8331
 20
16.5034
 30
0.0
 10
24.707
 20
9.1609
 30
0.0
 10
25.7287
 20
1.6765
 30
0.0
 10
25.7287
 20
1.6765
 30
0.0
 10
25.1044
 20
0.7897
 30
0.0
 10
24.454
 20
-0.0778
 30
0.0
 10
23.7776
 20
-0.9256
 30
0.0
 10
23.7776
 20
-0.9256
 30
0.0
 10
24.454
 20
-1.7728
 30
0.0
 10
25.1044
 20
-2.6403
 30
0.0
 10
25.7287
 20
-3.5269
 30
0.0
 10
25.7287
 20
-3.5269
 30
0.0
 10
24.707
 20
-11.0109
 30
0.0
 10
22.8331
 20
-18.354
 30
0.0
 10
20.1428
 20
-25.4114
 30
0.0
 10
20.1428
 20
-25.4114
 30
0.0
 10
21.1544
 20
-17.766
 30
0.0
 10
20.1657
 20
-9.9878
 30
0.0
 10
17.2731
 20
-2.8383
 30
0.0
  0
SPLINE
  5
6A
330
1F
100
AcDbEntity
  8
layer 1
 62
     7
370
     9
100
AcDbSpline
210
0.0
220
0.0
230
1.0
 70
    11
 71
     3
 72
    48
 73
    44
 74
     0
 42
0.0000000001
 43
0.0000000001
 12
1.0
 22
0.0
 32
0.0
 13
1.0
 23
0.0
 33
0.0
 40
0.0
 40
0.0
 40
0.0
 40
0.0
 40
0.0833333333333333
 40
0.0833333333333333
 40
0.0833333333333333
 40
0.0833333333333333
 40
0.1666666666666667
 40
0.1666666666666667
 40
0.1666666666666667
 40
0.1666666666666667
 40
0.25
 40
0.25
 40
0.25
 40
0.25
 40
0.3333333333333333
 40
0.3333333333333333
 40
0.3333333333333333
 40
0.3333333333333333
 40
0.4166666666666667
 40
0.4166666666666667
 40
0.4166666666666667
 40
0.4166666666666667
 40
0.5
 40
0.5
 40
0.5
 40
0.5
 40
0.5833333333333334
 40
0.5833333333333334
 40
0.5833333333333334
 40
0.5833333333333334
 40
0.6666666666666666
 40
0.6666666666666666
 40
0.6666666666666666
 40
0.6666666666666666
 40
0.75
 40
0.75
 40
0.75
 40
0.75
 40
0.8333333333333334
 40
0.8333333333333334
 40
0.8333333333333334
 40
0.8333333333333334
 40
1.0
 40
1.0
 40
1.0
 40
1.0
 10
9.6594
 20
-30.0799
 30
0.0
 10
0.2942
 20
-33.6493
 30
0.0
 10
-4.8123
 20
-43.763
 30
0.0
 10
-2.1246
 20
-53.4182
 30
0.0
 10
-2.1246
 20
-53.4182
 30
0.0
 10
-0.049
 20
-53.4052
 30
0.0
 10
1.9372
 20
-54.2661
 30
0.0
 10
3.3466
 20
-55.7902
 30
0.0
 10
3.3466
 20
-55.7902
 30
0.0
 10
4.8551
 20
-57.8663
 30
0.0
 10
4.8551
 20
-60.6777
 30
0.0
 10
3.3466
 20
-62.7536
 30
0.0
 10
3.3466
 20
-62.7536
 30
0.0
 10
2.0675
 20
-64.0728
 30
0.0
 10
0.3564
 20
-64.8876
 30
0.0
 10
-1.4743
 20
-65.0492
 30
0.0
 10
-1.4743
 20
-65.0492
 30
0.0
 10
-1.6149
 20
-67.7046
 30
0.0
 10
-1.1164
 20
-70.3551
 30
0.0
 10
-0.0205
 20
-72.7779
 30
0.0
 10
-0.0205
 20
-72.7779
 30
0.0
 10
5.7178
 20
-69.4845
 30
0.0
 10
9.6877
 20
-63.8031
 30
0.0
 10
10.8073
 20
-57.2825
 30
0.0
 10
10.8073
 20
-57.2825
 30
0.0
 10
6.6883
 20
-55.7104
 30
0.0
 10
3.8334
 20
-51.9191
 30
0.0
 10
3.4613
 20
-47.526
 30
0.0
 10
3.4613
 20
-47.526
 30
0.0
 10
3.549
 20
-43.5125
 30
0.0
 10
5.3443
 20
-39.7271
 30
0.0
 10
8.3968
 20
-37.1194
 30
0.0
 10
8.3968
 20
-37.1194
 30
0.0
 10
10.1386
 20
-36.0095
 30
0.0
 10
12.1184
 20
-35.3275
 30
0.0
 10
14.174
 20
-35.1295
 30
0.0
 10
14.174
 20
-35.1295
 30
0.0
 10
18.4486
 20
-24.6661
 30
0.0
 10
18.227
 20
-12.9044
 30
0.0
 10
13.5618
 20
-2.6088
 30
0.0
 10
13.5618
 20
-2.6088
 30
0.0
 10
15.226
 20
-11.9475
 30
0.0
 10
13.8585
 20
-21.5736
 30
0.0
 10
9.6594
 20
-30.0799
 30
0.0
  0
SPLINE
  5
6B
330
1F
100
AcDbEntity
  8
layer 1
 62
     7
370
     9
100
AcDbSpline
210
0.0
220
0.0
230
1.0
 70
    11
 71
     3
 72
    16
 73
    12
 74
     0
 42
0.0000000001
 43
0.0000000001
 12
1.0
 22
0.0
 32
0.0
 13
1.0
 23
0.0
 33
0.0
 40
0.0
 40
0.0
 40
0.0
 40
0.0
 40
0.25
 40
0.25
 40
0.25
 40
0.25
 40
0.5
 40
0.5
 40
0.5
 40
0.5
 40
1.0
 40
1.0
 40
1.0
 40
1.0
 10
15.1689
 20
-37.6167
 30
0.0
 10
12.9957
 20
-41.8165
 30
0.0
 10
10.1962
 20
-45.661
 30
0.0
 10
6.8665
 20
-49.0183
 30
0.0
 10
6.8665
 20
-49.0183
 30
0.0
 10
6.095
 20
-46.3685
 30
0.0
 10
6.5944
 20
-43.5106
 30
0.0
 10
8.2189
 20
-41.2795
 30
0.0
 10
8.2189
 20
-41.2795
 30
0.0
 10
9.8436
 20
-39.0486
 30
0.0
 10
12.4101
 20
-37.6957
 30
0.0
 10
15.1689
 20
-37.6167
 30
0.0
  0
SPLINE
  5
6C
330
1F
100
AcDbEntity
  8
layer 1
 62
     7
370
     9
100
AcDbSpline
210
0.0
220
0.0
230
1.0
 70
    11
 71
     3
 72
    16
 73
    12
 74
     0
 42
0.0000000001
 43
0.0000000001
 12
1.0
 22
0.0
 32
0.0
 13
1.0
 23
0.0
 33
0.0
 40
0.0
 40
0.0
 40
0.0
 40
0.0
 40
0.25
 40
0.25
 40
0.25
 40
0.25
 40
0.5
 40
0.5
 40
0.5
 40
0.5
 40
1.0
 40
1.0
 40
1.0
 40
1.0
 10
18.6886
 20
-49.0566
 30
0.0
 10
16.2674
 20
-50.8376
 30
0.0
 10
14.0019
 20
-52.8219
 30
0.0
 10
11.9169
 20
-54.9869
 30
0.0
 10
11.9169
 20
-54.9869
 30
0.0
 10
9.7005
 20
-54.0704
 30
0.0
 10
7.9859
 20
-52.2444
 30
0.0
 10
7.2106
 20
-49.9748
 30
0.0
 10
7.2106
 20
-49.9748
 30
0.0
 10
11.0319
 20
-49.611
 30
0.0
 10
14.8584
 20
-49.3048
 30
0.0
 10
18.6886
 20
-49.0566
 30
0.0
  0
SPLINE
  5
6D
330
1F
100
AcDbEntity
  8
layer 1
 62
     7
370
     9
100
AcDbSpline
210
0.0
220
0.0
230
1.0
 70
    11
 71
     3
 72
    16
 73
    12
 74
     0
 42
0.0000000001
 43
0.0000000001
 12
1.0
 22
0.0
 32
0.0
 13
1.0
 23
0.0
 33
0.0
 40
0.0
 40
0.0
 40
0.0
 40
0.0
 40
0.25
 40
0.25
 40
0.25
 40
0.25
 40
0.5
 40
0.5
 40
0.5
 40
0.5
 40
1.0
 40
1.0
 40
1.0
 40
1.0
 10
20.8697
 20
-61.5676
 30
0.0
 10
17.7175
 20
-64.1943
 30
0.0
 10
14.0768
 20
-66.1709
 30
0.0
 10
10.1566
 20
-67.3833
 30
0.0
 10
10.1566
 20
-67.3833
 30
0.0
 10
11.6703
 20
-65.139
 30
0.0
 10
12.7596
 20
-62.6361
 30
0.0
 10
13.3707
 20
-59.9991
 30
0.0
 10
13.3707
 20
-59.9991
 30
0.0
 10
15.8454
 20
-60.6352
 30
0.0
 10
18.3474
 20
-61.1583
 30
0.0
 10
20.8697
 20
-61.5676
 30
0.0
  0
SPLINE
  5
6E
330
1F
100
AcDbEntity
  8
layer 1
 62
     7
370
     9
100
AcDbSpline
210
0.0
220
0.0
230
1.0
 70
    11
 71
     3
 72
    16
 73
    12
 74
     0
 42
0.0000000001
 43
0.0000000001
 12
1.0
 22
0.0
 32
0.0
 13
1.0
 23
0.0
 33
0.0
 40
0.0
 40
0.0
 40
0.0
 40
0.0
 40
0.25
 40
0.25
 40
0.25
 40
0.25
 40
0.5
 40
0.5
 40
0.5
 40
0.5
 40
1.0
 40
1.0
 40
1.0
 40
1.0
 10
8.0526
 20
-69.6022
 30
0.0
 10
7.8593
 20
-72.3788
 30
0.0
 10
7.7442
 20
-75.1603
 30
0.0
 10
7.7082
 20
-77.943
 30
0.0
 10
7.7082
 20
-77.943
 30
0.0
 10
5.6436
 20
-76.9014
 30
0.0
 10
3.5372
 20
-75.944
 30
0.0
 10
1.3948
 20
-75.0735
 30
0.0
 10
1.3948
 20
-75.0735
 30
0.0
 10
3.7816
 20
-73.4632
 30
0.0
 10
6.0104
 20
-71.6314
 30
0.0
 10
8.0526
 20
-69.6022
 30
0.0
  0
SPLINE
  5
6F
330
1F
100
AcDbEntity
  8
layer 1
 62
     7
370
     9
100
AcDbSpline
210
0.0
220
0.0
230
1.0
 70
    11
 71
     3
 72
    16
 73
    12
 74
     0
 42
0.0000000001
 43
0.0000000001
 12
1.0
 22
0.0
 32
0.0
 13
1.0
 23
0.0
 33
0.0
 40
0.0
 40
0.0
 40
0.0
 40
0.0
 40
0.25
 40
0.25
 40
0.25
 40
0.25
 40
0.5
 40
0.5
 40
0.5
 40
0.5
 40
1.0
 40
1.0
 40
1.0
 40
1.0
 10
22.6678
 20
-89.9566
 30
0.0
 10
16.591
 20
-85.3526
 30
0.0
 10
10.0209
 20
-81.4386
 30
0.0
 10
3.0788
 20
-78.2874
 30
0.0
 10
3.0788
 20
-78.2874
 30
0.0
 10
5.985
 20
-82.3733
 30
0.0
 10
9.464
 20
-86.0198
 30
0.0
 10
13.4088
 20
-89.1149
 30
0.0
 10
13.4088
 20
-89.1149
 30
0.0
 10
16.5144
 20
-89.1113
 30
0.0
 10
19.6137
 20
-89.3932
 30
0.0
 10
22.6678
 20
-89.9566
 30
0.0
  0
SPLINE
  5
70
330
1F
100
AcDbEntity
  8
layer 1
 62
     7
370
     9
100
AcDbSpline
210
0.0
220
0.0
230
1.0
 70
    11
 71
     3
 72
    16
 73
    12
 74
     0
 42
0.0000000001
 43
0.0000000001
 12
1.0
 22
0.0
 32
0.0
 13
1.0
 23
0.0
 33
0.0
 40
0.0
 40
0.0
 40
0.0
 40
0.0
 40
0.25
 40
0.25
 40
0.25
 40
0.25
 40
0.5
 40
0.5
 40
0.5
 40
0.5
 40
1.0
 40
1.0
 40
1.0
 40
1.0
 10
25.4226
 20
-88.4645
 30
0.0
 10
21.0677
 20
-82.5998
 30
0.0
 10
16.23
 20
-77.1096
 30
0.0
 10
10.9603
 20
-72.051
 30
0.0
 10
10.9603
 20
-72.051
 30
0.0
 10
10.7599
 20
-74.3793
 30
0.0
 10
10.6705
 20
-76.7157
 30
0.0
 10
10.6925
 20
-79.0526
 30
0.0
 10
10.6925
 20
-79.0526
 30
0.0
 10
15.7962
 20
-81.8758
 30
0.0
 10
20.7163
 20
-85.0192
 30
0.0
 10
25.4226
 20
-88.4645
 30
0.0
  0
SPLINE
  5
71
330
1F
100
AcDbEntity
  8
layer 1
 62
     7
370
     9
100
AcDbSpline
210
0.0
220
0.0
230
1.0
 70
    11
 71
     3
 72
    20
 73
    16
 74
     0
 42
0.0000000001
 43
0.0000000001
 12
1.0
 22
0.0
 32
0.0
 13
1.0
 23
0.0
 33
0.0
 40
0.0
 40
0.0
 40
0.0
 40
0.0
 40
0.2
 40
0.2
 40
0.2
 40
0.2
 40
0.4
 40
0.4
 40
0.4
 40
0.4
 40
0.6
 40
0.6
 40
0.6
 40
0.6
 40
1.0
 40
1.0
 40
1.0
 40
1.0
 10
37.0537
 20
-91.7932
 30
0.0
 10
35.1518
 20
-89.1123
 30
0.0
 10
33.5603
 20
-86.2241
 30
0.0
 10
32.3094
 20
-83.1847
 30
0.0
 10
32.3094
 20
-83.1847
 30
0.0
 10
27.891
 20
-80.7775
 30
0.0
 10
23.4266
 20
-78.456
 30
0.0
 10
18.9184
 20
-76.2212
 30
0.0
 10
18.9184
 20
-76.2212
 30
0.0
 10
22.258
 20
-80.1961
 30
0.0
 10
25.6379
 20
-84.1372
 30
0.0
 10
29.0572
 20
-88.0436
 30
0.0
 10
29.0572
 20
-88.0436
 30
0.0
 10
31.9162
 20
-88.8304
 30
0.0
 10
34.6206
 20
-90.0982
 30
0.0
 10
37.0537
 20
-91.7932
 30
0.0
  0
SPLINE
  5
72
330
1F
100
AcDbEntity
  8
layer 1
 62
     7
370
     9
100
AcDbSpline
210
0.0
220
0.0
230
1.0
 70
    11
 71
     3
 72
    16
 73
    12
 74
     0
 42
0.0000000001
 43
0.0000000001
 12
1.0
 22
0.0
 32
0.0
 13
1.0
 23
0.0
 33
0.0
 40
0.0
 40
0.0
 40
0.0
 40
0.0
 40
0.25
 40
0.25
 40
0.25
 40
0.25
 40
0.5
 40
0.5
 40
0.5
 40
0.5
 40
1.0
 40
1.0
 40
1.0
 40
1.0
 10
31.6589
 20
-80.0091
 30
0.0
 10
26.8417
 20
-75.729
 30
0.0
 10
21.9955
 20
-71.4819
 30
0.0
 10
17.1201
 20
-67.2683
 30
0.0
 10
17.1201
 20
-67.2683
 30
0.0
 10
15.5055
 20
-67.935
 30
0.0
 10
13.9225
 20
-68.6757
 30
0.0
 10
12.3758
 20
-69.4874
 30
0.0
 10
12.3758
 20
-69.4874
 30
0.0
 10
18.8123
 20
-72.9787
 30
0.0
 10
25.24
 20
-76.4858
 30
0.0
 10
31.6589
 20
-80.0091
 30
0.0
  0
SPLINE
  5
73
330
1F
100
AcDbEntity
  8
layer 1
 62
     7
370
     9
100
AcDbSpline
210
0.0
220
0.0
230
1.0
 70
    11
 71
     3
 72
    20
 73
    16
 74
     0
 42
0.0000000001
 43
0.0000000001
 12
1.0
 22
0.0
 32
0.0
 13
1.0
 23
0.0
 33
0.0
 40
0.0
 40
0.0
 40
0.0
 40
0.0
 40
0.2
 40
0.2
 40
0.2
 40
0.2
 40
0.4
 40
0.4
 40
0.4
 40
0.4
 40
0.6
 40
0.6
 40
0.6
 40
0.6
 40
1.0
 40
1.0
 40
1.0
 40
1.0
 10
45.1648
 20
-74.6142
 30
0.0
 10
46.3173
 20
-77.534
 30
0.0
 10
47.975
 20
-80.2279
 30
0.0
 10
50.0619
 20
-82.5723
 30
0.0
 10
50.0619
 20
-82.5723
 30
0.0
 10
45.5626
 20
-81.4636
 30
0.0
 10
41.0184
 20
-80.5447
 30
0.0
 10
36.4415
 20
-79.8178
 30
0.0
 10
36.4415
 20
-79.8178
 30
0.0
 10
30.4834
 20
-75.9473
 30
0.0
 10
25.0334
 20
-71.3458
 30
0.0
 10
20.2192
 20
-66.1205
 30
0.0
 10
20.2192
 20
-66.1205
 30
0.0
 10
28.2455
 20
-69.7386
 30
0.0
 10
36.5984
 20
-72.5827
 30
0.0
 10
45.1648
 20
-74.6142
 30
0.0
  0
SPLINE
  5
74
330
1F
100
AcDbEntity
  8
layer 1
 62
     7
370
     9
100
AcDbSpline
210
0.0
220
0.0
230
1.0
 70
    11
 71
     3
 72
    20
 73
    16
 74
     0
 42
0.0000000001
 43
0.0000000001
 12
1.0
 22
0.0
 32
0.0
 13
1.0
 23
0.0
 33
0.0
 40
0.0
 40
0.0
 40
0.0
 40
0.0
 40
0.2
 40
0.2
 40
0.2
 40
0.2
 40
0.4
 40
0.4
 40
0.4
 40
0.4
 40
0.6
 40
0.6
 40
0.6
 40
0.6
 40
1.0
 40
1.0
 40
1.0
 40
1.0
 10
56.7193
 20
-69.1813
 30
0.0
 10
54.0034
 20
-67.9805
 30
0.0
 10
51.3702
 20
-66.6001
 30
0.0
 10
48.8378
 20
-65.0492
 30
0.0
 10
48.8378
 20
-65.0492
 30
0.0
 10
40.3179
 20
-65.0683
 30
0.0
 10
31.7982
 20
-64.9915
 30
0.0
 10
23.28
 20
-64.8198
 30
0.0
 10
23.28
 20
-64.8198
 30
0.0
 10
30.4313
 20
-67.7569
 30
0.0
 10
37.7993
 20
-70.136
 30
0.0
 10
45.318
 20
-71.9363
 30
0.0
 10
45.318
 20
-71.9363
 30
0.0
 10
48.8813
 20
-70.2231
 30
0.0
 10
52.767
 20
-69.2842
 30
0.0
 10
56.7193
 20
-69.1813
 30
0.0
  0
SPLINE
  5
75
330
1F
100
AcDbEntity
  8
layer 1
 62
     7
370
     9
100
AcDbSpline
210
0.0
220
0.0
230
1.0
 70
    11
 71
     3
 72
    20
 73
    16
 74
     0
 42
0.0000000001
 43
0.0000000001
 12
1.0
 22
0.0
 32
0.0
 13
1.0
 23
0.0
 33
0.0
 40
0.0
 40
0.0
 40
0.0
 40
0.0
 40
0.2
 40
0.2
 40
0.2
 40
0.2
 40
0.4
 40
0.4
 40
0.4
 40
0.4
 40
0.6
 40
0.6
 40
0.6
 40
0.6
 40
1.0
 40
1.0
 40
1.0
 40
1.0
 10
57.867
 20
-56.2495
 30
0.0
 10
54.6145
 20
-55.4427
 30
0.0
 10
51.419
 20
-54.42
 30
0.0
 10
48.3021
 20
-53.1887
 30
0.0
 10
48.3021
 20
-53.1887
 30
0.0
 10
39.9315
 20
-56.5851
 30
0.0
 10
31.3728
 20
-59.498
 30
0.0
 10
22.6678
 20
-61.912
 30
0.0
 10
22.6678
 20
-61.912
 30
0.0
 10
31.4309
 20
-62.5214
 30
0.0
 10
40.2247
 20
-62.5469
 30
0.0
 10
48.991
 20
-61.9884
 30
0.0
 10
48.991
 20
-61.9884
 30
0.0
 10
51.5558
 20
-59.5261
 30
0.0
 10
54.5692
 20
-57.5781
 30
0.0
 10
57.867
 20
-56.2495
 30
0.0
  0
SPLINE
  5
76
330
1F
100
AcDbEntity
  8
layer 1
 62
     7
370
     9
100
AcDbSpline
210
0.0
220
0.0
230
1.0
 70
    11
 71
     3
 72
    20
 73
    16
 74
     0
 42
0.0000000001
 43
0.0000000001
 12
1.0
 22
0.0
 32
0.0
 13
1.0
 23
0.0
 33
0.0
 40
0.0
 40
0.0
 40
0.0
 40
0.0
 40
0.2
 40
0.2
 40
0.2
 40
0.2
 40
0.4
 40
0.4
 40
0.4
 40
0.4
 40
0.6
 40
0.6
 40
0.6
 40
0.6
 40
1.0
 40
1.0
 40
1.0
 40
1.0
 10
42.1042
 20
-52.4235
 30
0.0
 10
34.0411
 20
-52.4446
 30
0.0
 10
25.9795
 20
-52.6232
 30
0.0
 10
17.9236
 20
-52.959
 30
0.0
 10
17.9236
 20
-52.959
 30
0.0
 10
16.3704
 20
-54.2789
 30
0.0
 10
14.9833
 20
-55.7822
 30
0.0
 10
13.7915
 20
-57.4355
 30
0.0
 10
13.7915
 20
-57.4355
 30
0.0
 10
16.492
 20
-58.3587
 30
0.0
 10
19.2912
 20
-58.9621
 30
0.0
 10
22.1321
 20
-59.2339
 30
0.0
 10
22.1321
 20
-59.2339
 30
0.0
 10
28.8816
 20
-57.2435
 30
0.0
 10
35.5446
 20
-54.9713
 30
0.0
 10
42.1042
 20
-52.4235
 30
0.0
  0
SPLINE
  5
77
330
1F
100
AcDbEntity
  8
layer 1
 62
     7
370
     9
100
AcDbSpline
210
0.0
220
0.0
230
1.0
 70
    11
 71
     3
 72
    20
 73
    16
 74
     0
 42
0.0000000001
 43
0.0000000001
 12
1.0
 22
0.0
 32
0.0
 13
1.0
 23
0.0
 33
0.0
 40
0.0
 40
0.0
 40
0.0
 40
0.0
 40
0.2
 40
0.2
 40
0.2
 40
0.2
 40
0.4
 40
0.4
 40
0.4
 40
0.4
 40
0.6
 40
0.6
 40
0.6
 40
0.6
 40
1.0
 40
1.0
 40
1.0
 40
1.0
 10
56.4132
 20
-42.9348
 30
0.0
 10
53.2574
 20
-44.4036
 30
0.0
 10
50.4429
 20
-46.5147
 30
0.0
 10
48.149
 20
-49.133
 30
0.0
 10
48.149
 20
-49.133
 30
0.0
 10
40.7812
 20
-49.9435
 30
0.0
 10
33.3702
 20
-50.3014
 30
0.0
 10
25.9581
 20
-50.2043
 30
0.0
 10
25.9581
 20
-50.2043
 30
0.0
 10
33.2416
 20
-47.5344
 30
0.0
 10
40.4148
 20
-44.5735
 30
0.0
 10
47.4604
 20
-41.3279
 30
0.0
 10
47.4604
 20
-41.3279
 30
0.0
 10
50.3824
 20
-42.1661
 30
0.0
 10
53.3821
 20
-42.7046
 30
0.0
 10
56.4132
 20
-42.9348
 30
0.0
  0
SPLINE
  5
78
330
1F
100
AcDbEntity
  8
layer 1
 62
     7
370
     9
100
AcDbSpline
210
0.0
220
0.0
230
1.0
 70
    11
 71
     3
 72
    20
 73
    16
 74
     0
 42
0.0000000001
 43
0.0000000001
 12
1.0
 22
0.0
 32
0.0
 13
1.0
 23
0.0
 33
0.0
 40
0.0
 40
0.0
 40
0.0
 40
0.0
 40
0.2
 40
0.2
 40
0.2
 40
0.2
 40
0.4
 40
0.4
 40
0.4
 40
0.4
 40
0.6
 40
0.6
 40
0.6
 40
0.6
 40
1.0
 40
1.0
 40
1.0
 40
1.0
 10
51.5161
 20
-30.0799
 30
0.0
 10
47.8265
 20
-30.8325
 30
0.0
 10
44.0962
 20
-31.3695
 30
0.0
 10
40.344
 20
-31.6866
 30
0.0
 10
40.344
 20
-31.6866
 30
0.0
 10
34.8712
 20
-37.3879
 30
0.0
 10
29.2056
 20
-42.9003
 30
0.0
 10
23.3566
 20
-48.215
 30
0.0
 10
23.3566
 20
-48.215
 30
0.0
 10
31.3298
 20
-45.4613
 30
0.0
 10
39.1242
 20
-42.2156
 30
0.0
 10
46.6952
 20
-38.4966
 30
0.0
 10
46.6952
 20
-38.4966
 30
0.0
 10
47.6479
 20
-35.3639
 30
0.0
 10
49.2959
 20
-32.4862
 30
0.0
 10
51.5161
 20
-30.0799
 30
0.0
  0
SPLINE
  5
79
330
1F
100
AcDbEntity
  8
layer 1
 62
     7
370
     9
100
AcDbSpline
210
0.0
220
0.0
230
1.0
 70
    11
 71
     3
 72
    20
 73
    16
 74
     0
 42
0.0000000001
 43
0.0000000001
 12
1.0
 22
0.0
 32
0.0
 13
1.0
 23
0.0
 33
0.0
 40
0.0
 40
0.0
 40
0.0
 40
0.0
 40
0.2
 40
0.2
 40
0.2
 40
0.2
 40
0.4
 40
0.4
 40
0.4
 40
0.4
 40
0.6
 40
0.6
 40
0.6
 40
0.6
 40
1.0
 40
1.0
 40
1.0
 40
1.0
 10
37.1301
 20
-30.6155
 30
0.0
 10
30.8332
 20
-34.1275
 30
0.0
 10
24.2857
 20
-37.1712
 30
0.0
 10
17.5409
 20
-39.7209
 30
0.0
 10
17.5409
 20
-39.7209
 30
0.0
 10
16.0101
 20
-42.0765
 30
0.0
 10
14.5049
 20
-44.4489
 30
0.0
 10
13.0263
 20
-46.8374
 30
0.0
 10
13.0263
 20
-46.8374
 30
0.0
 10
15.9916
 20
-46.9163
 30
0.0
 10
18.9532
 20
-46.5815
 30
0.0
 10
21.826
 20
-45.8427
 30
0.0
 10
21.826
 20
-45.8427
 30
0.0
 10
27.1351
 20
-40.9799
 30
0.0
 10
32.2407
 20
-35.8996
 30
0.0
 10
37.1301
 20
-30.6155
 30
0.0
  0
SPLINE
  5
7A
330
1F
100
AcDbEntity
  8
layer 1
 62
     7
370
     9
100
AcDbSpline
210
0.0
220
0.0
230
1.0
 70
    11
 71
     3
 72
    20
 73
    16
 74
     0
 42
0.0000000001
 43
0.0000000001
 12
1.0
 22
0.0
 32
0.0
 13
1.0
 23
0.0
 33
0.0
 40
0.0
 40
0.0
 40
0.0
 40
0.0
 40
0.2
 40
0.2
 40
0.2
 40
0.2
 40
0.4
 40
0.4
 40
0.4
 40
0.4
 40
0.6
 40
0.6
 40
0.6
 40
0.6
 40
1.0
 40
1.0
 40
1.0
 40
1.0
 10
41.6451
 20
-25.1819
 30
0.0
 10
41.3981
 20
-22.6521
 30
0.0
 10
41.8759
 20
-20.1051
 30
0.0
 10
43.0223
 20
-17.8363
 30
0.0
 10
43.0223
 20
-17.8363
 30
0.0
 10
40.5356
 20
-18.6416
 30
0.0
 10
37.9705
 20
-19.1801
 30
0.0
 10
35.3702
 20
-19.443
 30
0.0
 10
35.3702
 20
-19.443
 30
0.0
 10
31.5946
 20
-24.5204
 30
0.0
 10
27.7168
 20
-29.5207
 30
0.0
 10
23.7391
 20
-34.4409
 30
0.0
 10
23.7391
 20
-34.4409
 30
0.0
 10
29.7182
 20
-31.3749
 30
0.0
 10
35.6866
 20
-28.2885
 30
0.0
 10
41.6451
 20
-25.1819
 30
0.0
  0
SPLINE
  5
7B
330
1F
100
AcDbEntity
  8
layer 1
 62
     7
370
     9
100
AcDbSpline
210
0.0
220
0.0
230
1.0
 70
    11
 71
     3
 72
    16
 73
    12
 74
     0
 42
0.0000000001
 43
0.0000000001
 12
1.0
 22
0.0
 32
0.0
 13
1.0
 23
0.0
 33
0.0
 40
0.0
 40
0.0
 40
0.0
 40
0.0
 40
0.25
 40
0.25
 40
0.25
 40
0.25
 40
0.5
 40
0.5
 40
0.5
 40
0.5
 40
1.0
 40
1.0
 40
1.0
 40
1.0
 10
28.7129
 20
-5.4397
 30
0.0
 10
28.5808
 20
-10.2988
 30
0.0
 10
29.7427
 20
-15.1047
 30
0.0
 10
32.0799
 20
-19.3665
 30
0.0
 10
32.0799
 20
-19.3665
 30
0.0
 10
27.5335
 20
-25.6269
 30
0.0
 10
22.4926
 20
-31.512
 30
0.0
 10
17.0053
 20
-36.9664
 30
0.0
 10
17.0053
 20
-36.9664
 30
0.0
 10
22.834
 20
-27.2767
 30
0.0
 10
26.8045
 20
-16.5856
 30
0.0
 10
28.7129
 20
-5.4397
 30
0.0
  0
SPLINE
  5
7C
330
1F
100
AcDbEntity
  8
layer 1
 62
     7
370
     9
100
AcDbSpline
210
0.0
220
0.0
230
1.0
 70
    11
 71
     3
 72
    48
 73
    44
 74
     0
 42
0.0000000001
 43
0.0000000001
 12
1.0
 22
0.0
 32
0.0
 13
1.0
 23
0.0
 33
0.0
 40
0.0
 40
0.0
 40
0.0
 40
0.0
 40
0.0833333333333333
 40
0.0833333333333333
 40
0.0833333333333333
 40
0.0833333333333333
 40
0.1666666666666667
 40
0.1666666666666667
 40
0.1666666666666667
 40
0.1666666666666667
 40
0.25
 40
0.25
 40
0.25
 40
0.25
 40
0.3333333333333333
 40
0.3333333333333333
 40
0.3333333333333333
 40
0.3333333333333333
 40
0.4166666666666667
 40
0.4166666666666667
 40
0.4166666666666667
 40
0.4166666666666667
 40
0.5
 40
0.5
 40
0.5
 40
0.5
 40
0.5833333333333334
 40
0.5833333333333334
 40
0.5833333333333334
 40
0.5833333333333334
 40
0.6666666666666666
 40
0.6666666666666666
 40
0.6666666666666666
 40
0.6666666666666666
 40
0.75
 40
0.75
 40
0.75
 40
0.75
 40
0.8333333333333334
 40
0.8333333333333334
 40
0.8333333333333334
 40
0.8333333333333334
 40
1.0
 40
1.0
 40
1.0
 40
1.0
 10
9.6594
 20
28.2286
 30
0.0
 10
0.2942
 20
31.7987
 30
0.0
 10
-4.8123
 20
41.9123
 30
0.0
 10
-2.1246
 20
51.5675
 30
0.0
 10
-2.1246
 20
51.5675
 30
0.0
 10
-0.049
 20
51.5546
 30
0.0
 10
1.9372
 20
52.4153
 30
0.0
 10
3.3466
 20
53.9399
 30
0.0
 10
3.3466
 20
53.9399
 30
0.0
 10
4.8551
 20
56.0155
 30
0.0
 10
4.8551
 20
58.8273
 30
0.0
 10
3.3466
 20
60.903
 30
0.0
 10
3.3466
 20
60.903
 30
0.0
 10
2.0675
 20
62.2221
 30
0.0
 10
0.3564
 20
63.0372
 30
0.0
 10
-1.4743
 20
63.199
 30
0.0
 10
-1.4743
 20
63.199
 30
0.0
 10
-1.6149
 20
65.854
 30
0.0
 10
-1.1164
 20
68.5047
 30
0.0
 10
-0.0205
 20
70.9271
 30
0.0
 10
-0.0205
 20
70.9271
 30
0.0
 10
5.7178
 20
67.634
 30
0.0
 10
9.6877
 20
61.9526
 30
0.0
 10
10.8073
 20
55.4319
 30
0.0
 10
10.8073
 20
55.4319
 30
0.0
 10
6.6883
 20
53.8604
 30
0.0
 10
3.8334
 20
50.0681
 30
0.0
 10
3.4613
 20
45.6756
 30
0.0
 10
3.4613
 20
45.6756
 30
0.0
 10
3.549
 20
41.6624
 30
0.0
 10
5.3443
 20
37.8764
 30
0.0
 10
8.3968
 20
35.2688
 30
0.0
 10
8.3968
 20
35.2688
 30
0.0
 10
10.1386
 20
34.1589
 30
0.0
 10
12.1184
 20
33.4771
 30
0.0
 10
14.174
 20
33.2796
 30
0.0
 10
14.174
 20
33.2796
 30
0.0
 10
18.4486
 20
22.8155
 30
0.0
 10
18.227
 20
11.0539
 30
0.0
 10
13.5618
 20
0.7582
 30
0.0
 10
13.5618
 20
0.7582
 30
0.0
 10
15.226
 20
10.0969
 30
0.0
 10
13.8585
 20
19.723
 30
0.0
 10
9.6594
 20
28.2286
 30
0.0
  0
SPLINE
  5
7D
330
1F
100
AcDbEntity
  8
layer 1
 62
     7
370
     9
100
AcDbSpline
210
0.0
220
0.0
230
1.0
 70
    11
 71
     3
 72
    16
 73
    12
 74
     0
 42
0.0000000001
 43
0.0000000001
 12
1.0
 22
0.0
 32
0.0
 13
1.0
 23
0.0
 33
0.0
 40
0.0
 40
0.0
 40
0.0
 40
0.0
 40
0.25
 40
0.25
 40
0.25
 40
0.25
 40
0.5
 40
0.5
 40
0.5
 40
0.5
 40
1.0
 40
1.0
 40
1.0
 40
1.0
 10
15.1689
 20
35.7662
 30
0.0
 10
12.9957
 20
39.9657
 30
0.0
 10
10.1962
 20
43.8102
 30
0.0
 10
6.8665
 20
47.1682
 30
0.0
 10
6.8665
 20
47.1682
 30
0.0
 10
6.095
 20
44.5181
 30
0.0
 10
6.5944
 20
41.66
 30
0.0
 10
8.2189
 20
39.4289
 30
0.0
 10
8.2189
 20
39.4289
 30
0.0
 10
9.8436
 20
37.1976
 30
0.0
 10
12.4101
 20
35.8451
 30
0.0
 10
15.1689
 20
35.7662
 30
0.0
  0
SPLINE
  5
7E
330
1F
100
AcDbEntity
  8
layer 1
 62
     7
370
     9
100
AcDbSpline
210
0.0
220
0.0
230
1.0
 70
    11
 71
     3
 72
    16
 73
    12
 74
     0
 42
0.0000000001
 43
0.0000000001
 12
1.0
 22
0.0
 32
0.0
 13
1.0
 23
0.0
 33
0.0
 40
0.0
 40
0.0
 40
0.0
 40
0.0
 40
0.25
 40
0.25
 40
0.25
 40
0.25
 40
0.5
 40
0.5
 40
0.5
 40
0.5
 40
1.0
 40
1.0
 40
1.0
 40
1.0
 10
18.6886
 20
47.2058
 30
0.0
 10
16.2674
 20
48.987
 30
0.0
 10
14.0019
 20
50.9715
 30
0.0
 10
11.9169
 20
53.1366
 30
0.0
 10
11.9169
 20
53.1366
 30
0.0
 10
9.7005
 20
52.2196
 30
0.0
 10
7.9859
 20
50.3939
 30
0.0
 10
7.2106
 20
48.1246
 30
0.0
 10
7.2106
 20
48.1246
 30
0.0
 10
11.0319
 20
47.7604
 30
0.0
 10
14.8584
 20
47.4543
 30
0.0
 10
18.6886
 20
47.2058
 30
0.0
  0
SPLINE
  5
7F
330
1F
100
AcDbEntity
  8
layer 1
 62
     7
370
     9
100
AcDbSpline
210
0.0
220
0.0
230
1.0
 70
    11
 71
     3
 72
    16
 73
    12
 74
     0
 42
0.0000000001
 43
0.0000000001
 12
1.0
 22
0.0
 32
0.0
 13
1.0
 23
0.0
 33
0.0
 40
0.0
 40
0.0
 40
0.0
 40
0.0
 40
0.25
 40
0.25
 40
0.25
 40
0.25
 40
0.5
 40
0.5
 40
0.5
 40
0.5
 40
1.0
 40
1.0
 40
1.0
 40
1.0
 10
20.8697
 20
59.7172
 30
0.0
 10
17.7175
 20
62.3437
 30
0.0
 10
14.0768
 20
64.3201
 30
0.0
 10
10.1566
 20
65.5325
 30
0.0
 10
10.1566
 20
65.5325
 30
0.0
 10
11.6703
 20
63.2884
 30
0.0
 10
12.7596
 20
60.7858
 30
0.0
 10
13.3707
 20
58.1486
 30
0.0
 10
13.3707
 20
58.1486
 30
0.0
 10
15.8454
 20
58.7848
 30
0.0
 10
18.3474
 20
59.3081
 30
0.0
 10
20.8697
 20
59.7172
 30
0.0
  0
SPLINE
  5
80
330
1F
100
AcDbEntity
  8
layer 1
 62
     7
370
     9
100
AcDbSpline
210
0.0
220
0.0
230
1.0
 70
    11
 71
     3
 72
    16
 73
    12
 74
     0
 42
0.0000000001
 43
0.0000000001
 12
1.0
 22
0.0
 32
0.0
 13
1.0
 23
0.0
 33
0.0
 40
0.0
 40
0.0
 40
0.0
 40
0.0
 40
0.25
 40
0.25
 40
0.25
 40
0.25
 40
0.5
 40
0.5
 40
0.5
 40
0.5
 40
1.0
 40
1.0
 40
1.0
 40
1.0
 10
8.0526
 20
67.7519
 30
0.0
 10
7.8593
 20
70.528
 30
0.0
 10
7.7442
 20
73.3095
 30
0.0
 10
7.7082
 20
76.0922
 30
0.0
 10
7.7082
 20
76.0922
 30
0.0
 10
5.6436
 20
75.0506
 30
0.0
 10
3.5372
 20
74.0937
 30
0.0
 10
1.3948
 20
73.2231
 30
0.0
 10
1.3948
 20
73.2231
 30
0.0
 10
3.7816
 20
71.6127
 30
0.0
 10
6.0104
 20
69.7808
 30
0.0
 10
8.0526
 20
67.7519
 30
0.0
  0
SPLINE
  5
81
330
1F
100
AcDbEntity
  8
layer 1
 62
     7
370
     9
100
AcDbSpline
210
0.0
220
0.0
230
1.0
 70
    11
 71
     3
 72
    16
 73
    12
 74
     0
 42
0.0000000001
 43
0.0000000001
 12
1.0
 22
0.0
 32
0.0
 13
1.0
 23
0.0
 33
0.0
 40
0.0
 40
0.0
 40
0.0
 40
0.0
 40
0.25
 40
0.25
 40
0.25
 40
0.25
 40
0.5
 40
0.5
 40
0.5
 40
0.5
 40
1.0
 40
1.0
 40
1.0
 40
1.0
 10
22.6678
 20
88.1063
 30
0.0
 10
16.591
 20
83.502
 30
0.0
 10
10.0209
 20
79.5883
 30
0.0
 10
3.0788
 20
76.4371
 30
0.0
 10
3.0788
 20
76.4371
 30
0.0
 10
5.985
 20
80.5225
 30
0.0
 10
9.464
 20
84.1696
 30
0.0
 10
13.4088
 20
87.2647
 30
0.0
 10
13.4088
 20
87.2647
 30
0.0
 10
16.5144
 20
87.261
 30
0.0
 10
19.6137
 20
87.5429
 30
0.0
 10
22.6678
 20
88.1063
 30
0.0
  0
SPLINE
  5
82
330
1F
100
AcDbEntity
  8
layer 1
 62
     7
370
     9
100
AcDbSpline
210
0.0
220
0.0
230
1.0
 70
    11
 71
     3
 72
    16
 73
    12
 74
     0
 42
0.0000000001
 43
0.0000000001
 12
1.0
 22
0.0
 32
0.0
 13
1.0
 23
0.0
 33
0.0
 40
0.0
 40
0.0
 40
0.0
 40
0.0
 40
0.25
 40
0.25
 40
0.25
 40
0.25
 40
0.5
 40
0.5
 40
0.5
 40
0.5
 40
1.0
 40
1.0
 40
1.0
 40
1.0
 10
25.4226
 20
86.6142
 30
0.0
 10
21.0677
 20
80.7495
 30
0.0
 10
16.23
 20
75.2593
 30
0.0
 10
10.9603
 20
70.2002
 30
0.0
 10
10.9603
 20
70.2002
 30
0.0
 10
10.7599
 20
72.5289
 30
0.0
 10
10.6705
 20
74.8649
 30
0.0
 10
10.6925
 20
77.2023
 30
0.0
 10
10.6925
 20
77.2023
 30
0.0
 10
15.7962
 20
80.0251
 30
0.0
 10
20.7163
 20
83.1688
 30
0.0
 10
25.4226
 20
86.6142
 30
0.0
  0
SPLINE
  5
83
330
1F
100
AcDbEntity
  8
layer 1
 62
     7
370
     9
100
AcDbSpline
210
0.0
220
0.0
230
1.0
 70
    11
 71
     3
 72
    20
 73
    16
 74
     0
 42
0.0000000001
 43
0.0000000001
 12
1.0
 22
0.0
 32
0.0
 13
1.0
 23
0.0
 33
0.0
 40
0.0
 40
0.0
 40
0.0
 40
0.0
 40
0.2
 40
0.2
 40
0.2
 40
0.2
 40
0.4
 40
0.4
 40
0.4
 40
0.4
 40
0.6
 40
0.6
 40
0.6
 40
0.6
 40
1.0
 40
1.0
 40
1.0
 40
1.0
 10
37.0537
 20
89.9424
 30
0.0
 10
35.1518
 20
87.2615
 30
0.0
 10
33.5603
 20
84.3739
 30
0.0
 10
32.3094
 20
81.3344
 30
0.0
 10
32.3094
 20
81.3344
 30
0.0
 10
27.891
 20
78.9268
 30
0.0
 10
23.4266
 20
76.6055
 30
0.0
 10
18.9184
 20
74.3708
 30
0.0
 10
18.9184
 20
74.3708
 30
0.0
 10
22.258
 20
78.3456
 30
0.0
 10
25.6379
 20
82.2866
 30
0.0
 10
29.0572
 20
86.1934
 30
0.0
 10
29.0572
 20
86.1934
 30
0.0
 10
31.9162
 20
86.9801
 30
0.0
 10
34.6206
 20
88.2475
 30
0.0
 10
37.0537
 20
89.9424
 30
0.0
  0
SPLINE
  5
84
330
1F
100
AcDbEntity
  8
layer 1
 62
     7
370
     9
100
AcDbSpline
210
0.0
220
0.0
230
1.0
 70
    11
 71
     3
 72
    16
 73
    12
 74
     0
 42
0.0000000001
 43
0.0000000001
 12
1.0
 22
0.0
 32
0.0
 13
1.0
 23
0.0
 33
0.0
 40
0.0
 40
0.0
 40
0.0
 40
0.0
 40
0.25
 40
0.25
 40
0.25
 40
0.25
 40
0.5
 40
0.5
 40
0.5
 40
0.5
 40
1.0
 40
1.0
 40
1.0
 40
1.0
 10
31.6589
 20
78.1587
 30
0.0
 10
26.8417
 20
73.8784
 30
0.0
 10
21.9955
 20
69.6314
 30
0.0
 10
17.1201
 20
65.4178
 30
0.0
 10
17.1201
 20
65.4178
 30
0.0
 10
15.5055
 20
66.0847
 30
0.0
 10
13.9225
 20
66.8253
 30
0.0
 10
12.3758
 20
67.6372
 30
0.0
 10
12.3758
 20
67.6372
 30
0.0
 10
18.8123
 20
71.1282
 30
0.0
 10
25.24
 20
74.6354
 30
0.0
 10
31.6589
 20
78.1587
 30
0.0
  0
SPLINE
  5
85
330
1F
100
AcDbEntity
  8
layer 1
 62
     7
370
     9
100
AcDbSpline
210
0.0
220
0.0
230
1.0
 70
    11
 71
     3
 72
    20
 73
    16
 74
     0
 42
0.0000000001
 43
0.0000000001
 12
1.0
 22
0.0
 32
0.0
 13
1.0
 23
0.0
 33
0.0
 40
0.0
 40
0.0
 40
0.0
 40
0.0
 40
0.2
 40
0.2
 40
0.2
 40
0.2
 40
0.4
 40
0.4
 40
0.4
 40
0.4
 40
0.6
 40
0.6
 40
0.6
 40
0.6
 40
1.0
 40
1.0
 40
1.0
 40
1.0
 10
45.1648
 20
72.7639
 30
0.0
 10
46.3173
 20
75.6838
 30
0.0
 10
47.975
 20
78.3776
 30
0.0
 10
50.0619
 20
80.7217
 30
0.0
 10
50.0619
 20
80.7217
 30
0.0
 10
45.5626
 20
79.6135
 30
0.0
 10
41.0184
 20
78.6942
 30
0.0
 10
36.4415
 20
77.9673
 30
0.0
 10
36.4415
 20
77.9673
 30
0.0
 10
30.4834
 20
74.0967
 30
0.0
 10
25.0334
 20
69.4957
 30
0.0
 10
20.2192
 20
64.2701
 30
0.0
 10
20.2192
 20
64.2701
 30
0.0
 10
28.2455
 20
67.8883
 30
0.0
 10
36.5984
 20
70.7321
 30
0.0
 10
45.1648
 20
72.7639
 30
0.0
  0
SPLINE
  5
86
330
1F
100
AcDbEntity
  8
layer 1
 62
     7
370
     9
100
AcDbSpline
210
0.0
220
0.0
230
1.0
 70
    11
 71
     3
 72
    20
 73
    16
 74
     0
 42
0.0000000001
 43
0.0000000001
 12
1.0
 22
0.0
 32
0.0
 13
1.0
 23
0.0
 33
0.0
 40
0.0
 40
0.0
 40
0.0
 40
0.0
 40
0.2
 40
0.2
 40
0.2
 40
0.2
 40
0.4
 40
0.4
 40
0.4
 40
0.4
 40
0.6
 40
0.6
 40
0.6
 40
0.6
 40
1.0
 40
1.0
 40
1.0
 40
1.0
 10
56.7193
 20
67.3311
 30
0.0
 10
54.0034
 20
66.1298
 30
0.0
 10
51.3702
 20
64.7495
 30
0.0
 10
48.8378
 20
63.199
 30
0.0
 10
48.8378
 20
63.199
 30
0.0
 10
40.3179
 20
63.2175
 30
0.0
 10
31.7982
 20
63.1409
 30
0.0
 10
23.28
 20
62.9693
 30
0.0
 10
23.28
 20
62.9693
 30
0.0
 10
30.4313
 20
65.9065
 30
0.0
 10
37.7993
 20
68.2857
 30
0.0
 10
45.318
 20
70.0855
 30
0.0
 10
45.318
 20
70.0855
 30
0.0
 10
48.8813
 20
68.3726
 30
0.0
 10
52.767
 20
67.4336
 30
0.0
 10
56.7193
 20
67.3311
 30
0.0
  0
SPLINE
  5
87
330
1F
100
AcDbEntity
  8
layer 1
 62
     7
370
     9
100
AcDbSpline
210
0.0
220
0.0
230
1.0
 70
    11
 71
     3
 72
    20
 73
    16
 74
     0
 42
0.0000000001
 43
0.0000000001
 12
1.0
 22
0.0
 32
0.0
 13
1.0
 23
0.0
 33
0.0
 40
0.0
 40
0.0
 40
0.0
 40
0.0
 40
0.2
 40
0.2
 40
0.2
 40
0.2
 40
0.4
 40
0.4
 40
0.4
 40
0.4
 40
0.6
 40
0.6
 40
0.6
 40
0.6
 40
1.0
 40
1.0
 40
1.0
 40
1.0
 10
57.867
 20
54.3991
 30
0.0
 10
54.6145
 20
53.5919
 30
0.0
 10
51.419
 20
52.5696
 30
0.0
 10
48.3021
 20
51.3379
 30
0.0
 10
48.3021
 20
51.3379
 30
0.0
 10
39.9315
 20
54.7347
 30
0.0
 10
31.3728
 20
57.6475
 30
0.0
 10
22.6678
 20
60.0614
 30
0.0
 10
22.6678
 20
60.0614
 30
0.0
 10
31.4309
 20
60.6709
 30
0.0
 10
40.2247
 20
60.6963
 30
0.0
 10
48.991
 20
60.1378
 30
0.0
 10
48.991
 20
60.1378
 30
0.0
 10
51.5558
 20
57.6761
 30
0.0
 10
54.5692
 20
55.7275
 30
0.0
 10
57.867
 20
54.3991
 30
0.0
  0
SPLINE
  5
88
330
1F
100
AcDbEntity
  8
layer 1
 62
     7
370
     9
100
AcDbSpline
210
0.0
220
0.0
230
1.0
 70
    11
 71
     3
 72
    20
 73
    16
 74
     0
 42
0.0000000001
 43
0.0000000001
 12
1.0
 22
0.0
 32
0.0
 13
1.0
 23
0.0
 33
0.0
 40
0.0
 40
0.0
 40
0.0
 40
0.0
 40
0.2
 40
0.2
 40
0.2
 40
0.2
 40
0.4
 40
0.4
 40
0.4
 40
0.4
 40
0.6
 40
0.6
 40
0.6
 40
0.6
 40
1.0
 40
1.0
 40
1.0
 40
1.0
 10
42.1042
 20
50.5729
 30
0.0
 10
34.0411
 20
50.5944
 30
0.0
 10
25.9795
 20
50.7728
 30
0.0
 10
17.9236
 20
51.1084
 30
0.0
 10
17.9236
 20
51.1084
 30
0.0
 10
16.3704
 20
52.4282
 30
0.0
 10
14.9833
 20
53.9314
 30
0.0
 10
13.7915
 20
55.5849
 30
0.0
 10
13.7915
 20
55.5849
 30
0.0
 10
16.492
 20
56.508
 30
0.0
 10
19.2912
 20
57.112
 30
0.0
 10
22.1321
 20
57.3829
 30
0.0
 10
22.1321
 20
57.3829
 30
0.0
 10
28.8816
 20
55.393
 30
0.0
 10
35.5446
 20
53.1205
 30
0.0
 10
42.1042
 20
50.5729
 30
0.0
  0
SPLINE
  5
89
330
1F
100
AcDbEntity
  8
layer 1
 62
     7
370
     9
100
AcDbSpline
210
0.0
220
0.0
230
1.0
 70
    11
 71
     3
 72
    20
 73
    16
 74
     0
 42
0.0000000001
 43
0.0000000001
 12
1.0
 22
0.0
 32
0.0
 13
1.0
 23
0.0
 33
0.0
 40
0.0
 40
0.0
 40
0.0
 40
0.0
 40
0.2
 40
0.2
 40
0.2
 40
0.2
 40
0.4
 40
0.4
 40
0.4
 40
0.4
 40
0.6
 40
0.6
 40
0.6
 40
0.6
 40
1.0
 40
1.0
 40
1.0
 40
1.0
 10
56.4132
 20
41.0844
 30
0.0
 10
53.2574
 20
42.5534
 30
0.0
 10
50.4429
 20
44.6643
 30
0.0
 10
48.149
 20
47.2829
 30
0.0
 10
48.149
 20
47.2829
 30
0.0
 10
40.7812
 20
48.0931
 30
0.0
 10
33.3702
 20
48.4509
 30
0.0
 10
25.9581
 20
48.3533
 30
0.0
 10
25.9581
 20
48.3533
 30
0.0
 10
33.2416
 20
45.6841
 30
0.0
 10
40.4148
 20
42.723
 30
0.0
 10
47.4604
 20
39.4775
 30
0.0
 10
47.4604
 20
39.4775
 30
0.0
 10
50.3824
 20
40.3155
 30
0.0
 10
53.3821
 20
40.8542
 30
0.0
 10
56.4132
 20
41.0844
 30
0.0
  0
SPLINE
  5
8A
330
1F
100
AcDbEntity
  8
layer 1
 62
     7
370
     9
100
AcDbSpline
210
0.0
220
0.0
230
1.0
 70
    11
 71
     3
 72
    20
 73
    16
 74
     0
 42
0.0000000001
 43
0.0000000001
 12
1.0
 22
0.0
 32
0.0
 13
1.0
 23
0.0
 33
0.0
 40
0.0
 40
0.0
 40
0.0
 40
0.0
 40
0.2
 40
0.2
 40
0.2
 40
0.2
 40
0.4
 40
0.4
 40
0.4
 40
0.4
 40
0.6
 40
0.6
 40
0.6
 40
0.6
 40
1.0
 40
1.0
 40
1.0
 40
1.0
 10
51.5161
 20
28.2286
 30
0.0
 10
47.8265
 20
28.9826
 30
0.0
 10
44.0962
 20
29.5189
 30
0.0
 10
40.344
 20
29.836
 30
0.0
 10
40.344
 20
29.836
 30
0.0
 10
34.8712
 20
35.5373
 30
0.0
 10
29.2056
 20
41.0497
 30
0.0
 10
23.3566
 20
46.3642
 30
0.0
 10
23.3566
 20
46.3642
 30
0.0
 10
31.3298
 20
43.611
 30
0.0
 10
39.1242
 20
40.3655
 30
0.0
 10
46.6952
 20
36.646
 30
0.0
 10
46.6952
 20
36.646
 30
0.0
 10
47.6479
 20
33.5135
 30
0.0
 10
49.2959
 20
30.6363
 30
0.0
 10
51.5161
 20
28.2286
 30
0.0
  0
SPLINE
  5
8B
330
1F
100
AcDbEntity
  8
layer 1
 62
     7
370
     9
100
AcDbSpline
210
0.0
220
0.0
230
1.0
 70
    11
 71
     3
 72
    20
 73
    16
 74
     0
 42
0.0000000001
 43
0.0000000001
 12
1.0
 22
0.0
 32
0.0
 13
1.0
 23
0.0
 33
0.0
 40
0.0
 40
0.0
 40
0.0
 40
0.0
 40
0.2
 40
0.2
 40
0.2
 40
0.2
 40
0.4
 40
0.4
 40
0.4
 40
0.4
 40
0.6
 40
0.6
 40
0.6
 40
0.6
 40
1.0
 40
1.0
 40
1.0
 40
1.0
 10
37.1301
 20
28.7648
 30
0.0
 10
30.8332
 20
32.2769
 30
0.0
 10
24.2857
 20
35.3208
 30
0.0
 10
17.5409
 20
37.8708
 30
0.0
 10
17.5409
 20
37.8708
 30
0.0
 10
16.0101
 20
40.2261
 30
0.0
 10
14.5049
 20
42.5985
 30
0.0
 10
13.0263
 20
44.987
 30
0.0
 10
13.0263
 20
44.987
 30
0.0
 10
15.9916
 20
45.0659
 30
0.0
 10
18.9532
 20
44.7309
 30
0.0
 10
21.826
 20
43.9923
 30
0.0
 10
21.826
 20
43.9923
 30
0.0
 10
27.1351
 20
39.1289
 30
0.0
 10
32.2407
 20
34.049
 30
0.0
 10
37.1301
 20
28.7648
 30
0.0
  0
SPLINE
  5
8C
330
1F
100
AcDbEntity
  8
layer 1
 62
     7
370
     9
100
AcDbSpline
210
0.0
220
0.0
230
1.0
 70
    11
 71
     3
 72
    20
 73
    16
 74
     0
 42
0.0000000001
 43
0.0000000001
 12
1.0
 22
0.0
 32
0.0
 13
1.0
 23
0.0
 33
0.0
 40
0.0
 40
0.0
 40
0.0
 40
0.0
 40
0.2
 40
0.2
 40
0.2
 40
0.2
 40
0.4
 40
0.4
 40
0.4
 40
0.4
 40
0.6
 40
0.6
 40
0.6
 40
0.6
 40
1.0
 40
1.0
 40
1.0
 40
1.0
 10
41.6451
 20
23.3313
 30
0.0
 10
41.3981
 20
20.8022
 30
0.0
 10
41.8759
 20
18.2538
 30
0.0
 10
43.0223
 20
15.9857
 30
0.0
 10
43.0223
 20
15.9857
 30
0.0
 10
40.5356
 20
16.7909
 30
0.0
 10
37.9705
 20
17.3296
 30
0.0
 10
35.3702
 20
17.5925
 30
0.0
 10
35.3702
 20
17.5925
 30
0.0
 10
31.5946
 20
22.67
 30
0.0
 10
27.7168
 20
27.6703
 30
0.0
 10
23.7391
 20
32.591
 30
0.0
 10
23.7391
 20
32.591
 30
0.0
 10
29.7182
 20
29.5244
 30
0.0
 10
35.6866
 20
26.4381
 30
0.0
 10
41.6451
 20
23.3313
 30
0.0
  0
SPLINE
  5
8D
330
1F
100
AcDbEntity
  8
layer 1
 62
     7
370
     9
100
AcDbSpline
210
0.0
220
0.0
230
1.0
 70
    11
 71
     3
 72
    16
 73
    12
 74
     0
 42
0.0000000001
 43
0.0000000001
 12
1.0
 22
0.0
 32
0.0
 13
1.0
 23
0.0
 33
0.0
 40
0.0
 40
0.0
 40
0.0
 40
0.0
 40
0.25
 40
0.25
 40
0.25
 40
0.25
 40
0.5
 40
0.5
 40
0.5
 40
0.5
 40
1.0
 40
1.0
 40
1.0
 40
1.0
 10
28.7129
 20
3.5892
 30
0.0
 10
26.8045
 20
14.7349
 30
0.0
 10
22.834
 20
25.4261
 30
0.0
 10
17.0053
 20
35.1158
 30
0.0
 10
17.0053
 20
35.1158
 30
0.0
 10
22.4926
 20
29.6614
 30
0.0
 10
27.5335
 20
23.7762
 30
0.0
 10
32.0799
 20
17.5159
 30
0.0
 10
32.0799
 20
17.5159
 30
0.0
 10
29.7427
 20
13.2547
 30
0.0
 10
28.5808
 20
8.4482
 30
0.0
 10
28.7129
 20
3.5892
 30
0.0
  0
ENDSEC
  0
SECTION
  2
OBJECTS
  0
DICTIONARY
  5
C
330
0
100
AcDbDictionary
281
     1
  3
ACAD_GROUP
350
D
  3
ACAD_LAYOUT
350
1A
  3
ACAD_MATERIAL
350
3B
  3
ACAD_MLEADERSTYLE
350
AF
  3
ACAD_MLINESTYLE
350
17
  3
ACAD_PLOTSETTINGS
350
19
  3
ACAD_PLOTSTYLENAME
350
E
  3
ACAD_TABLESTYLE
350
AE
  3
ACAD_VISUALSTYLE
350
2A
  0
DICTIONARY
  5
D
102
{ACAD_REACTORS
330
C
102
}
330
C
100
AcDbDictionary
281
     1
  0
DICTIONARY
  5
1A
102
{ACAD_REACTORS
330
C
102
}
330
C
100
AcDbDictionary
281
     1
  3
Layout1
350
1E
  3
Layout2
350
26
  3
Model
350
22
  0
DICTIONARY
  5
3B
102
{ACAD_REACTORS
330
C
102
}
330
C
100
AcDbDictionary
281
     1
  3
ByBlock
350
3D
  3
ByLayer
350
3C
  3
Global
350
3E
  0
DICTIONARY
  5
AF
102
{ACAD_REACTORS
330
C
102
}
330
C
100
AcDbDictionary
281
     1
  0
DICTIONARY
  5
17
102
{ACAD_REACTORS
330
C
102
}
330
C
100
AcDbDictionary
281
     1
  3
Standard
350
18
  0
DICTIONARY
  5
19
102
{ACAD_REACTORS
330
C
102
}
330
C
100
AcDbDictionary
281
     1
  0
ACDBDICTIONARYWDFLT
  5
E
102
{ACAD_REACTORS
330
C
102
}
330
C
100
AcDbDictionary
281
     1
  3
Normal
350
F
100
AcDbDictionaryWithDefault
340
F
  0
DICTIONARY
  5
AE
102
{ACAD_REACTORS
330
C
102
}
330
C
100
AcDbDictionary
281
     1
  0
DICTIONARY
  5
2A
102
{ACAD_REACTORS
330
C
102
}
330
C
100
AcDbDictionary
281
     1
  3
2dWireframe
350
2F
  3
3D Hidden
350
31
  3
3dWireframe
350
30
  3
Basic
350
32
  3
Brighten
350
36
  3
ColorChange
350
3A
  3
Conceptual
350
34
  3
Dim
350
35
  3
Facepattern
350
39
  3
Flat
350
2B
  3
FlatWithEdges
350
2C
  3
Gouraud
350
2D
  3
GouraudWithEdges
350
2E
  3
Linepattern
350
38
  3
Realistic
350
33
  3
Thicken
350
37
  0
LAYOUT
  5
1E
102
{ACAD_REACTORS
330
1A
102
}
330
1A
100
AcDbPlotSettings
  1

  2
none_device
  4

  6

 40
0.0
 41
0.0
 42
0.0
 43
0.0
 44
0.0
 45
0.0
 46
0.0
 47
0.0
 48
0.0
 49
0.0
140
0.0
141
0.0
142
1.0
143
1.0
 70
   688
 72
     0
 73
     0
 74
     5
  7

 75
    16
 76
     0
 77
     2
 78
   300
147
1.0
148
0.0
149
0.0
100
AcDbLayout
  1
Layout1
 70
     1
 71
     1
 10
0.0
 20
0.0
 11
12.0
 21
9.0
 12
0.0
 22
0.0
 32
0.0
 14
1.000000000000000E+20
 24
1.000000000000000E+20
 34
1.000000000000000E+20
 15
-1.000000000000000E+20
 25
-1.000000000000000E+20
 35
-1.000000000000000E+20
146
0.0
 13
0.0
 23
0.0
 33
0.0
 16
1.0
 26
0.0
 36
0.0
 17
0.0
 27
1.0
 37
0.0
 76
     0
330
1B
  0
LAYOUT
  5
26
102
{ACAD_REACTORS
330
1A
102
}
330
1A
100
AcDbPlotSettings
  1

  2
none_device
  4

  6

 40
0.0
 41
0.0
 42
0.0
 43
0.0
 44
0.0
 45
0.0
 46
0.0
 47
0.0
 48
0.0
 49
0.0
140
0.0
141
0.0
142
1.0
143
1.0
 70
   688
 72
     0
 73
     0
 74
     5
  7

 75
    16
 76
     0
 77
     2
 78
   300
147
1.0
148
0.0
149
0.0
100
AcDbLayout
  1
Layout2
 70
     1
 71
     2
 10
0.0
 20
0.0
 11
0.0
 21
0.0
 12
0.0
 22
0.0
 32
0.0
 14
0.0
 24
0.0
 34
0.0
 15
0.0
 25
0.0
 35
0.0
146
0.0
 13
0.0
 23
0.0
 33
0.0
 16
1.0
 26
0.0
 36
0.0
 17
0.0
 27
1.0
 37
0.0
 76
     0
330
23
  0
LAYOUT
  5
22
102
{ACAD_REACTORS
330
1A
102
}
330
1A
100
AcDbPlotSettings
  1

  2
none_device
  4

  6

 40
0.0
 41
0.0
 42
0.0
 43
0.0
 44
0.0
 45
0.0
 46
0.0
 47
0.0
 48
0.0
 49
0.0
140
0.0
141
0.0
142
1.0
143
1.0
 70
  1712
 72
     0
 73
     0
 74
     0
  7

 75
     0
 76
     0
 77
     2
 78
   300
147
1.0
148
0.0
149
0.0
100
AcDbLayout
  1
Model
 70
     1
 71
     0
 10
0.0
 20
0.0
 11
12.0
 21
9.0
 12
0.0
 22
0.0
 32
0.0
 14
-75.2395
 24
-99.2137
 34
0.0
 15
65.0216
 25
97.3632
 35
0.0
146
0.0
 13
0.0
 23
0.0
 33
0.0
 16
1.0
 26
0.0
 36
0.0
 17
0.0
 27
1.0
 37
0.0
 76
     0
330
1F
331
29
  0
MATERIAL
  5
3D
102
{ACAD_REACTORS
330
3B
102
}
330
3B
100
AcDbMaterial
  1
ByBlock
 72
     1
 94
      127
  0
MATERIAL
  5
3C
102
{ACAD_REACTORS
330
3B
102
}
330
3B
100
AcDbMaterial
  1
ByLayer
 72
     1
 94
      127
  0
MATERIAL
  5
3E
102
{ACAD_REACTORS
330
3B
102
}
330
3B
100
AcDbMaterial
  1
Global
 72
     1
 94
      127
  0
MLINESTYLE
  5
18
102
{ACAD_REACTORS
330
17
102
}
330
17
100
AcDbMlineStyle
  2
Standard
 70
     0
  3

 62
   256
 51
90.0
 52
90.0
 71
     2
 49
0.5
 62
   256
  6
BYLAYER
 49
-0.5
 62
   256
  6
BYLAYER
  0
ACDBPLACEHOLDER
  5
F
102
{ACAD_REACTORS
330
E
102
}
330
E
  0
VISUALSTYLE
  5
2F
102
{ACAD_REACTORS
330
2A
102
}
102
{ACAD_XDICTIONARY
360
96
102
}
330
2A
100
AcDbVisualStyle
  2
2dWireframe
 70
     4
 71
     0
 72
     2
 73
     0
 90
        0
 40
-0.6
 41
-30.0
 62
     5
 63
     7
421
 16777215
 74
     1
 91
        4
 64
     7
 65
   257
 75
     1
175
     1
 42
1.0
 92
        0
 66
   257
 43
1.0
 76
     1
 77
     6
 78
     2
 67
     7
 79
     5
170
     0
171
     0
290
     0
174
     0
 93
        1
 44
0.0
173
     0
291
     0
 45
0.0
  0
VISUALSTYLE
  5
31
102
{ACAD_REACTORS
330
2A
102
}
102
{ACAD_XDICTIONARY
360
9A
102
}
330
2A
100
AcDbVisualStyle
  2
3D Hidden
 70
     6
 71
     1
 72
     2
 73
     2
 90
        0
 40
-0.6
 41
-30.0
 62
     5
 63
     7
421
 16777215
 74
     2
 91
        2
 64
     7
 65
   257
 75
     2
175
     1
 42
40.0
 92
        0
 66
   257
 43
1.0
 76
     1
 77
     6
 78
     2
 67
     7
 79
     3
170
     0
171
     0
290
     0
174
     0
 93
        1
 44
0.0
173
     0
291
     0
 45
0.0
  0
VISUALSTYLE
  5
30
102
{ACAD_REACTORS
330
2A
102
}
102
{ACAD_XDICTIONARY
360
98
102
}
330
2A
100
AcDbVisualStyle
  2
3dWireframe
 70
     5
 71
     0
 72
     2
 73
     0
 90
        0
 40
-0.6
 41
-30.0
 62
     5
 63
     7
421
 16777215
 74
     1
 91
        4
 64
     7
 65
   257
 75
     1
175
     1
 42
1.0
 92
        0
 66
   257
 43
1.0
 76
     1
 77
     6
 78
     2
 67
     7
 79
     5
170
     0
171
     0
290
     0
174
     0
 93
        1
 44
0.0
173
     0
291
     0
 45
0.0
  0
VISUALSTYLE
  5
32
102
{ACAD_REACTORS
330
2A
102
}
102
{ACAD_XDICTIONARY
360
9C
102
}
330
2A
100
AcDbVisualStyle
  2
Basic
 70
     7
 71
     1
 72
     0
 73
     1
 90
        0
 40
-0.6
 41
-30.0
 62
     5
 63
     7
421
 16777215
 74
     0
 91
        4
 64
     7
 65
   257
 75
     1
175
     1
 42
1.0
 92
        8
 66
     7
 43
1.0
 76
     1
 77
     6
 78
     2
 67
     7
 79
     5
170
     0
171
     0
290
     0
174
     0
 93
        1
 44
0.0
173
     0
291
     1
 45
0.0
  0
VISUALSTYLE
  5
36
102
{ACAD_REACTORS
330
2A
102
}
102
{ACAD_XDICTIONARY
360
A4
102
}
330
2A
100
AcDbVisualStyle
  2
Brighten
 70
    12
 71
     2
 72
     2
 73
     0
 90
        0
 40
-0.6
 41
-30.0
 62
     5
 63
     7
421
 16777215
 74
     1
 91
        4
 64
     7
 65
   257
 75
     1
175
     1
 42
1.0
 92
        8
 66
     7
 43
1.0
 76
     1
 77
     6
 78
     2
 67
     7
 79
     5
170
     0
171
     0
290
     0
174
     0
 93
        1
 44
50.0
173
     0
291
     1
 45
0.0
  0
VISUALSTYLE
  5
3A
102
{ACAD_REACTORS
330
2A
102
}
102
{ACAD_XDICTIONARY
360
AC
102
}
330
2A
100
AcDbVisualStyle
  2
ColorChange
 70
    16
 71
     2
 72
     2
 73
     3
 90
        0
 40
-0.6
 41
-30.0
 62
     5
 63
     8
421
  8421504
 74
     1
 91
        4
 64
     7
 65
   257
 75
     1
175
     1
 42
1.0
 92
        8
 66
     8
424
  8421504
 43
1.0
 76
     1
 77
     6
 78
     2
 67
     7
 79
     5
170
     0
171
     0
290
     0
174
     0
 93
        1
 44
0.0
173
     0
291
     1
 45
0.0
  0
VISUALSTYLE
  5
34
102
{ACAD_REACTORS
330
2A
102
}
102
{ACAD_XDICTIONARY
360
A0
102
}
330
2A
100
AcDbVisualStyle
  2
Conceptual
 70
     9
 71
     3
 72
     2
 73
     0
 90
        0
 40
-0.6
 41
-30.0
 62
     5
 63
     7
421
 16777215
 74
     2
 91
        2
 64
     7
 65
   257
 75
     1
175
     1
 42
40.0
 92
        8
 66
     7
 43
1.0
 76
     1
 77
     6
 78
     2
 67
     7
 79
     3
170
     0
171
     0
290
     0
174
     0
 93
        1
 44
0.0
173
     0
291
     0
 45
0.0
  0
VISUALSTYLE
  5
35
102
{ACAD_REACTORS
330
2A
102
}
102
{ACAD_XDICTIONARY
360
A2
102
}
330
2A
100
AcDbVisualStyle
  2
Dim
 70
    11
 71
     2
 72
     2
 73
     0
 90
        0
 40
-0.6
 41
-30.0
 62
     5
 63
     7
421
 16777215
 74
     1
 91
        4
 64
     7
 65
   257
 75
     1
175
     1
 42
1.0
 92
        8
 66
     7
 43
1.0
 76
     1
 77
     6
 78
     2
 67
     7
 79
     5
170
     0
171
     0
290
     0
174
     0
 93
        1
 44
-50.0
173
     0
291
     1
 45
0.0
  0
VISUALSTYLE
  5
39
102
{ACAD_REACTORS
330
2A
102
}
102
{ACAD_XDICTIONARY
360
AA
102
}
330
2A
100
AcDbVisualStyle
  2
Facepattern
 70
    15
 71
     2
 72
     2
 73
     0
 90
        0
 40
-0.6
 41
-30.0
 62
     5
 63
     7
421
 16777215
 74
     1
 91
        4
 64
     7
 65
   257
 75
     1
175
     1
 42
1.0
 92
        8
 66
     7
 43
1.0
 76
     1
 77
     6
 78
     2
 67
     7
 79
     5
170
     0
171
     0
290
     0
174
     0
 93
        1
 44
0.0
173
     0
291
     1
 45
0.0
  0
VISUALSTYLE
  5
2B
102
{ACAD_REACTORS
330
2A
102
}
102
{ACAD_XDICTIONARY
360
8E
102
}
330
2A
100
AcDbVisualStyle
  2
Flat
 70
     0
 71
     2
 72
     1
 73
     1
 90
        2
 40
-0.6
 41
30.0
 62
     5
 63
     7
421
 16777215
 74
     0
 91
        4
 64
     7
 65
   257
 75
     1
175
     1
 42
1.0
 92
        8
 66
     7
 43
1.0
 76
     1
 77
     6
 78
     2
 67
     7
 79
     5
170
     0
171
     0
290
     0
174
     0
 93
       13
 44
0.0
173
     0
291
     1
 45
0.0
  0
VISUALSTYLE
  5
2C
102
{ACAD_REACTORS
330
2A
102
}
102
{ACAD_XDICTIONARY
360
90
102
}
330
2A
100
AcDbVisualStyle
  2
FlatWithEdges
 70
     1
 71
     2
 72
     1
 73
     1
 90
        2
 40
-0.6
 41
30.0
 62
     5
 63
     7
421
 16777215
 74
     1
 91
        4
 64
     7
 65
   257
 75
     1
175
     1
 42
1.0
 92
        0
 66
   257
 43
1.0
 76
     1
 77
     6
 78
     2
 67
     7
 79
     5
170
     0
171
     0
290
     0
174
     0
 93
       13
 44
0.0
173
     0
291
     1
 45
0.0
  0
VISUALSTYLE
  5
2D
102
{ACAD_REACTORS
330
2A
102
}
102
{ACAD_XDICTIONARY
360
92
102
}
330
2A
100
AcDbVisualStyle
  2
Gouraud
 70
     2
 71
     2
 72
     2
 73
     1
 90
        2
 40
-0.6
 41
30.0
 62
     5
 63
     7
421
 16777215
 74
     0
 91
        4
 64
     7
 65
   257
 75
     1
175
     1
 42
1.0
 92
        0
 66
     7
 43
1.0
 76
     1
 77
     6
 78
     2
 67
     7
 79
     5
170
     0
171
     0
290
     0
174
     0
 93
       13
 44
0.0
173
     0
291
     1
 45
0.0
  0
VISUALSTYLE
  5
2E
102
{ACAD_REACTORS
330
2A
102
}
102
{ACAD_XDICTIONARY
360
94
102
}
330
2A
100
AcDbVisualStyle
  2
GouraudWithEdges
 70
     3
 71
     2
 72
     2
 73
     1
 90
        2
 40
-0.6
 41
30.0
 62
     5
 63
     7
421
 16777215
 74
     1
 91
        4
 64
     7
 65
   257
 75
     1
175
     1
 42
1.0
 92
        0
 66
   257
 43
1.0
 76
     1
 77
     6
 78
     2
 67
     7
 79
     5
170
     0
171
     0
290
     0
174
     0
 93
       13
 44
0.0
173
     0
291
     1
 45
0.0
  0
VISUALSTYLE
  5
38
102
{ACAD_REACTORS
330
2A
102
}
102
{ACAD_XDICTIONARY
360
A8
102
}
330
2A
100
AcDbVisualStyle
  2
Linepattern
 70
    14
 71
     2
 72
     2
 73
     0
 90
        0
 40
-0.6
 41
-30.0
 62
     5
 63
     7
421
 16777215
 74
     1
 91
        4
 64
     7
 65
   257
 75
     7
175
     7
 42
1.0
 92
        8
 66
     7
 43
1.0
 76
     1
 77
     6
 78
     2
 67
     7
 79
     5
170
     0
171
     0
290
     0
174
     0
 93
        1
 44
0.0
173
     0
291
     1
 45
0.0
  0
VISUALSTYLE
  5
33
102
{ACAD_REACTORS
330
2A
102
}
102
{ACAD_XDICTIONARY
360
9E
102
}
330
2A
100
AcDbVisualStyle
  2
Realistic
 70
     8
 71
     2
 72
     2
 73
     0
 90
        0
 40
-0.6
 41
-30.0
 62
     5
 63
     7
421
 16777215
 74
     1
 91
        0
 64
     7
 65
   257
 75
     1
175
     1
 42
1.0
 92
        8
 66
     8
424
  7895160
 43
1.0
 76
     1
 77
     6
 78
     2
 67
     7
 79
     5
170
     0
171
     0
290
     0
174
     0
 93
       13
 44
0.0
173
     0
291
     0
 45
0.0
  0
VISUALSTYLE
  5
37
102
{ACAD_REACTORS
330
2A
102
}
102
{ACAD_XDICTIONARY
360
A6
102
}
330
2A
100
AcDbVisualStyle
  2
Thicken
 70
    13
 71
     2
 72
     2
 73
     0
 90
        0
 40
-0.6
 41
-30.0
 62
     5
 63
     7
421
 16777215
 74
     1
 91
        4
 64
     7
 65
   257
 75
     1
175
     1
 42
1.0
 92
       12
 66
     7
 43
1.0
 76
     1
 77
     6
 78
     2
 67
     7
 79
     5
170
     0
171
     0
290
     0
174
     0
 93
        1
 44
0.0
173
     0
291
     1
 45
0.0
  0
DICTIONARY
  5
96
330
2F
100
AcDbDictionary
280
     1
281
     1
  3
ACAD_XREC_ROUNDTRIP
360
97
  0
DICTIONARY
  5
9A
330
31
100
AcDbDictionary
280
     1
281
     1
  3
ACAD_XREC_ROUNDTRIP
360
9B
  0
DICTIONARY
  5
98
330
30
100
AcDbDictionary
280
     1
281
     1
  3
ACAD_XREC_ROUNDTRIP
360
99
  0
DICTIONARY
  5
9C
330
32
100
AcDbDictionary
280
     1
281
     1
  3
ACAD_XREC_ROUNDTRIP
360
9D
  0
DICTIONARY
  5
A4
330
36
100
AcDbDictionary
280
     1
281
     1
  3
ACAD_XREC_ROUNDTRIP
360
A5
  0
DICTIONARY
  5
AC
330
3A
100
AcDbDictionary
280
     1
281
     1
  3
ACAD_XREC_ROUNDTRIP
360
AD
  0
DICTIONARY
  5
A0
330
34
100
AcDbDictionary
280
     1
281
     1
  3
ACAD_XREC_ROUNDTRIP
360
A1
  0
DICTIONARY
  5
A2
330
35
100
AcDbDictionary
280
     1
281
     1
  3
ACAD_XREC_ROUNDTRIP
360
A3
  0
DICTIONARY
  5
AA
330
39
100
AcDbDictionary
280
     1
281
     1
  3
ACAD_XREC_ROUNDTRIP
360
AB
  0
DICTIONARY
  5
8E
330
2B
100
AcDbDictionary
280
     1
281
     1
  3
ACAD_XREC_ROUNDTRIP
360
8F
  0
DICTIONARY
  5
90
330
2C
100
AcDbDictionary
280
     1
281
     1
  3
ACAD_XREC_ROUNDTRIP
360
91
  0
DICTIONARY
  5
92
330
2D
100
AcDbDictionary
280
     1
281
     1
  3
ACAD_XREC_ROUNDTRIP
360
93
  0
DICTIONARY
  5
94
330
2E
100
AcDbDictionary
280
     1
281
     1
  3
ACAD_XREC_ROUNDTRIP
360
95
  0
DICTIONARY
  5
A8
330
38
100
AcDbDictionary
280
     1
281
     1
  3
ACAD_XREC_ROUNDTRIP
360
A9
  0
DICTIONARY
  5
9E
330
33
100
AcDbDictionary
280
     1
281
     1
  3
ACAD_XREC_ROUNDTRIP
360
9F
  0
DICTIONARY
  5
A6
330
37
100
AcDbDictionary
280
     1
281
     1
  3
ACAD_XREC_ROUNDTRIP
360
A7
  0
XRECORD
  5
97
102
{ACAD_REACTORS
330
96
102
}
330
96
100
AcDbXrecord
280
     1
102
RTVSPropertyOp0
 70
     1
102
RTVSPropertyOp1
 70
     1
102
RTVSPropertyOp2
 70
     1
102
RTVSPropertyOp3
 70
     1
102
RTVSPropertyOp4
 70
     1
102
RTVSPropertyOp5
 70
     1
102
RTVSPropertyOp6
 70
     1
102
RTVSPropertyOp7
 70
     1
102
RTVSPropertyOp8
 70
     1
102
RTVSPropertyOp9
 70
     1
102
RTVSPropertyOp10
 70
     1
102
RTVSPropertyOp11
 70
     1
102
RTVSPropertyOp12
 70
     1
102
RTVSPropertyOp13
 70
     1
102
RTVSPropertyOp14
 70
     1
102
RTVSPropertyOp15
 70
     1
102
RTVSPropertyOp16
 70
     1
102
RTVSPropertyOp17
 70
     1
102
RTVSPropertyOp18
 70
     1
102
RTVSPropertyOp19
 70
     1
102
RTVSPropertyOp20
 70
     1
102
RTVSPropertyOp21
 70
     1
102
RTVSPropertyOp22
 70
     1
102
RTVSPropertyOp23
 70
     1
102
RTVSPropertyOp24
 70
     1
102
RTVSPropertyOp25
 70
     1
102
RTVSPropertyOp26
 70
     1
102
RTVSPropertyOp27
 70
     1
102
RTVSPropertyOp28
 70
     1
102
RTVSPropertyOp29
 70
     1
102
RTVSPropertyOp30
 70
     1
102
RTVSPropertyOp31
 70
     1
102
RTVSPropertyOp32
 70
     1
  0
XRECORD
  5
9B
102
{ACAD_REACTORS
330
9A
102
}
330
9A
100
AcDbXrecord
280
     1
102
RTVSPropertyOp0
 70
     1
102
RTVSPropertyOp1
 70
     1
102
RTVSPropertyOp2
 70
     1
102
RTVSPropertyOp3
 70
     1
102
RTVSPropertyOp4
 70
     1
102
RTVSPropertyOp5
 70
     1
102
RTVSPropertyOp6
 70
     1
102
RTVSPropertyOp7
 70
     1
102
RTVSPropertyOp8
 70
     1
102
RTVSPropertyOp9
 70
     1
102
RTVSPropertyOp10
 70
     1
102
RTVSPropertyOp11
 70
     1
102
RTVSPropertyOp12
 70
     1
102
RTVSPropertyOp13
 70
     1
102
RTVSPropertyOp14
 70
     1
102
RTVSPropertyOp15
 70
     1
102
RTVSPropertyOp16
 70
     1
102
RTVSPropertyOp17
 70
     1
102
RTVSPropertyOp18
 70
     1
102
RTVSPropertyOp19
 70
     1
102
RTVSPropertyOp20
 70
     1
102
RTVSPropertyOp21
 70
     1
102
RTVSPropertyOp22
 70
     1
102
RTVSPropertyOp23
 70
     1
102
RTVSPropertyOp24
 70
     1
102
RTVSPropertyOp25
 70
     1
102
RTVSPropertyOp26
 70
     1
102
RTVSPropertyOp27
 70
     1
102
RTVSPropertyOp28
 70
     1
102
RTVSPropertyOp29
 70
     1
102
RTVSPropertyOp30
 70
     1
102
RTVSPropertyOp31
 70
     1
102
RTVSPropertyOp32
 70
     1
  0
XRECORD
  5
99
102
{ACAD_REACTORS
330
98
102
}
330
98
100
AcDbXrecord
280
     1
102
RTVSPropertyOp0
 70
     1
102
RTVSPropertyOp1
 70
     1
102
RTVSPropertyOp2
 70
     1
102
RTVSPropertyOp3
 70
     1
102
RTVSPropertyOp4
 70
     1
102
RTVSPropertyOp5
 70
     1
102
RTVSPropertyOp6
 70
     1
102
RTVSPropertyOp7
 70
     1
102
RTVSPropertyOp8
 70
     1
102
RTVSPropertyOp9
 70
     1
102
RTVSPropertyOp10
 70
     1
102
RTVSPropertyOp11
 70
     1
102
RTVSPropertyOp12
 70
     1
102
RTVSPropertyOp13
 70
     1
102
RTVSPropertyOp14
 70
     1
102
RTVSPropertyOp15
 70
     1
102
RTVSPropertyOp16
 70
     1
102
RTVSPropertyOp17
 70
     1
102
RTVSPropertyOp18
 70
     1
102
RTVSPropertyOp19
 70
     1
102
RTVSPropertyOp20
 70
     1
102
RTVSPropertyOp21
 70
     1
102
RTVSPropertyOp22
 70
     1
102
RTVSPropertyOp23
 70
     1
102
RTVSPropertyOp24
 70
     1
102
RTVSPropertyOp25
 70
     1
102
RTVSPropertyOp26
 70
     1
102
RTVSPropertyOp27
 70
     1
102
RTVSPropertyOp28
 70
     1
102
RTVSPropertyOp29
 70
     1
102
RTVSPropertyOp30
 70
     1
102
RTVSPropertyOp31
 70
     1
102
RTVSPropertyOp32
 70
     1
  0
XRECORD
  5
9D
102
{ACAD_REACTORS
330
9C
102
}
330
9C
100
AcDbXrecord
280
     1
102
RTVSPropertyOp0
 70
     1
102
RTVSPropertyOp1
 70
     1
102
RTVSPropertyOp2
 70
     1
102
RTVSPropertyOp3
 70
     1
102
RTVSPropertyOp4
 70
     1
102
RTVSPropertyOp5
 70
     1
102
RTVSPropertyOp6
 70
     1
102
RTVSPropertyOp7
 70
     1
102
RTVSPropertyOp8
 70
     1
102
RTVSPropertyOp9
 70
     1
102
RTVSPropertyOp10
 70
     1
102
RTVSPropertyOp11
 70
     1
102
RTVSPropertyOp12
 70
     1
102
RTVSPropertyOp13
 70
     1
102
RTVSPropertyOp14
 70
     1
102
RTVSPropertyOp15
 70
     1
102
RTVSPropertyOp16
 70
     1
102
RTVSPropertyOp17
 70
     1
102
RTVSPropertyOp18
 70
     1
102
RTVSPropertyOp19
 70
     1
102
RTVSPropertyOp20
 70
     1
102
RTVSPropertyOp21
 70
     1
102
RTVSPropertyOp22
 70
     1
102
RTVSPropertyOp23
 70
     1
102
RTVSPropertyOp24
 70
     1
102
RTVSPropertyOp25
 70
     1
102
RTVSPropertyOp26
 70
     1
102
RTVSPropertyOp27
 70
     1
102
RTVSPropertyOp28
 70
     1
102
RTVSPropertyOp29
 70
     1
102
RTVSPropertyOp30
 70
     1
102
RTVSPropertyOp31
 70
     1
102
RTVSPropertyOp32
 70
     1
  0
XRECORD
  5
A5
102
{ACAD_REACTORS
330
A4
102
}
330
A4
100
AcDbXrecord
280
     1
102
RTVSPropertyOp0
 70
     1
102
RTVSPropertyOp1
 70
     1
102
RTVSPropertyOp2
 70
     1
102
RTVSPropertyOp3
 70
     1
102
RTVSPropertyOp4
 70
     1
102
RTVSPropertyOp5
 70
     1
102
RTVSPropertyOp6
 70
     1
102
RTVSPropertyOp7
 70
     1
102
RTVSPropertyOp8
 70
     1
102
RTVSPropertyOp9
 70
     1
102
RTVSPropertyOp10
 70
     1
102
RTVSPropertyOp11
 70
     1
102
RTVSPropertyOp12
 70
     1
102
RTVSPropertyOp13
 70
     1
102
RTVSPropertyOp14
 70
     1
102
RTVSPropertyOp15
 70
     1
102
RTVSPropertyOp16
 70
     1
102
RTVSPropertyOp17
 70
     1
102
RTVSPropertyOp18
 70
     1
102
RTVSPropertyOp19
 70
     1
102
RTVSPropertyOp20
 70
     1
102
RTVSPropertyOp21
 70
     1
102
RTVSPropertyOp22
 70
     1
102
RTVSPropertyOp23
 70
     1
102
RTVSPropertyOp24
 70
     1
102
RTVSPropertyOp25
 70
     1
102
RTVSPropertyOp26
 70
     1
102
RTVSPropertyOp27
 70
     1
102
RTVSPropertyOp28
 70
     1
102
RTVSPropertyOp29
 70
     1
102
RTVSPropertyOp30
 70
     1
102
RTVSPropertyOp31
 70
     1
102
RTVSPropertyOp32
 70
     1
  0
XRECORD
  5
AD
102
{ACAD_REACTORS
330
AC
102
}
330
AC
100
AcDbXrecord
280
     1
102
RTVSPropertyOp0
 70
     1
102
RTVSPropertyOp1
 70
     1
102
RTVSPropertyOp2
 70
     1
102
RTVSPropertyOp3
 70
     1
102
RTVSPropertyOp4
 70
     1
102
RTVSPropertyOp5
 70
     1
102
RTVSPropertyOp6
 70
     1
102
RTVSPropertyOp7
 70
     1
102
RTVSPropertyOp8
 70
     1
102
RTVSPropertyOp9
 70
     1
102
RTVSPropertyOp10
 70
     1
102
RTVSPropertyOp11
 70
     1
102
RTVSPropertyOp12
 70
     1
102
RTVSPropertyOp13
 70
     1
102
RTVSPropertyOp14
 70
     1
102
RTVSPropertyOp15
 70
     1
102
RTVSPropertyOp16
 70
     1
102
RTVSPropertyOp17
 70
     1
102
RTVSPropertyOp18
 70
     1
102
RTVSPropertyOp19
 70
     1
102
RTVSPropertyOp20
 70
     1
102
RTVSPropertyOp21
 70
     1
102
RTVSPropertyOp22
 70
     1
102
RTVSPropertyOp23
 70
     1
102
RTVSPropertyOp24
 70
     1
102
RTVSPropertyOp25
 70
     1
102
RTVSPropertyOp26
 70
     1
102
RTVSPropertyOp27
 70
     1
102
RTVSPropertyOp28
 70
     1
102
RTVSPropertyOp29
 70
     1
102
RTVSPropertyOp30
 70
     1
102
RTVSPropertyOp31
 70
     1
102
RTVSPropertyOp32
 70
     1
  0
XRECORD
  5
A1
102
{ACAD_REACTORS
330
A0
102
}
330
A0
100
AcDbXrecord
280
     1
102
RTVSPropertyOp0
 70
     1
102
RTVSPropertyOp1
 70
     1
102
RTVSPropertyOp2
 70
     1
102
RTVSPropertyOp3
 70
     1
102
RTVSPropertyOp4
 70
     1
102
RTVSPropertyOp5
 70
     1
102
RTVSPropertyOp6
 70
     1
102
RTVSPropertyOp7
 70
     1
102
RTVSPropertyOp8
 70
     1
102
RTVSPropertyOp9
 70
     1
102
RTVSPropertyOp10
 70
     1
102
RTVSPropertyOp11
 70
     1
102
RTVSPropertyOp12
 70
     1
102
RTVSPropertyOp13
 70
     1
102
RTVSPropertyOp14
 70
     1
102
RTVSPropertyOp15
 70
     1
102
RTVSPropertyOp16
 70
     1
102
RTVSPropertyOp17
 70
     1
102
RTVSPropertyOp18
 70
     1
102
RTVSPropertyOp19
 70
     1
102
RTVSPropertyOp20
 70
     1
102
RTVSPropertyOp21
 70
     1
102
RTVSPropertyOp22
 70
     1
102
RTVSPropertyOp23
 70
     1
102
RTVSPropertyOp24
 70
     1
102
RTVSPropertyOp25
 70
     1
102
RTVSPropertyOp26
 70
     1
102
RTVSPropertyOp27
 70
     1
102
RTVSPropertyOp28
 70
     1
102
RTVSPropertyOp29
 70
     1
102
RTVSPropertyOp30
 70
     1
102
RTVSPropertyOp31
 70
     1
102
RTVSPropertyOp32
 70
     1
  0
XRECORD
  5
A3
102
{ACAD_REACTORS
330
A2
102
}
330
A2
100
AcDbXrecord
280
     1
102
RTVSPropertyOp0
 70
     1
102
RTVSPropertyOp1
 70
     1
102
RTVSPropertyOp2
 70
     1
102
RTVSPropertyOp3
 70
     1
102
RTVSPropertyOp4
 70
     1
102
RTVSPropertyOp5
 70
     1
102
RTVSPropertyOp6
 70
     1
102
RTVSPropertyOp7
 70
     1
102
RTVSPropertyOp8
 70
     1
102
RTVSPropertyOp9
 70
     1
102
RTVSPropertyOp10
 70
     1
102
RTVSPropertyOp11
 70
     1
102
RTVSPropertyOp12
 70
     1
102
RTVSPropertyOp13
 70
     1
102
RTVSPropertyOp14
 70
     1
102
RTVSPropertyOp15
 70
     1
102
RTVSPropertyOp16
 70
     1
102
RTVSPropertyOp17
 70
     1
102
RTVSPropertyOp18
 70
     1
102
RTVSPropertyOp19
 70
     1
102
RTVSPropertyOp20
 70
     1
102
RTVSPropertyOp21
 70
     1
102
RTVSPropertyOp22
 70
     1
102
RTVSPropertyOp23
 70
     1
102
RTVSPropertyOp24
 70
     1
102
RTVSPropertyOp25
 70
     1
102
RTVSPropertyOp26
 70
     1
102
RTVSPropertyOp27
 70
     1
102
RTVSPropertyOp28
 70
     1
102
RTVSPropertyOp29
 70
     1
102
RTVSPropertyOp30
 70
     1
102
RTVSPropertyOp31
 70
     1
102
RTVSPropertyOp32
 70
     1
  0
XRECORD
  5
AB
102
{ACAD_REACTORS
330
AA
102
}
330
AA
100
AcDbXrecord
280
     1
102
RTVSPropertyOp0
 70
     1
102
RTVSPropertyOp1
 70
     1
102
RTVSPropertyOp2
 70
     1
102
RTVSPropertyOp3
 70
     1
102
RTVSPropertyOp4
 70
     1
102
RTVSPropertyOp5
 70
     1
102
RTVSPropertyOp6
 70
     1
102
RTVSPropertyOp7
 70
     1
102
RTVSPropertyOp8
 70
     1
102
RTVSPropertyOp9
 70
     1
102
RTVSPropertyOp10
 70
     1
102
RTVSPropertyOp11
 70
     1
102
RTVSPropertyOp12
 70
     1
102
RTVSPropertyOp13
 70
     1
102
RTVSPropertyOp14
 70
     1
102
RTVSPropertyOp15
 70
     1
102
RTVSPropertyOp16
 70
     1
102
RTVSPropertyOp17
 70
     1
102
RTVSPropertyOp18
 70
     1
102
RTVSPropertyOp19
 70
     1
102
RTVSPropertyOp20
 70
     1
102
RTVSPropertyOp21
 70
     1
102
RTVSPropertyOp22
 70
     1
102
RTVSPropertyOp23
 70
     1
102
RTVSPropertyOp24
 70
     1
102
RTVSPropertyOp25
 70
     1
102
RTVSPropertyOp26
 70
     1
102
RTVSPropertyOp27
 70
     1
102
RTVSPropertyOp28
 70
     1
102
RTVSPropertyOp29
 70
     1
102
RTVSPropertyOp30
 70
     1
102
RTVSPropertyOp31
 70
     1
102
RTVSPropertyOp32
 70
     1
  0
XRECORD
  5
8F
102
{ACAD_REACTORS
330
8E
102
}
330
8E
100
AcDbXrecord
280
     1
102
RTVSPropertyOp0
 70
     1
102
RTVSPropertyOp1
 70
     1
102
RTVSPropertyOp2
 70
     1
102
RTVSPropertyOp3
 70
     1
102
RTVSPropertyOp4
 70
     1
102
RTVSPropertyOp5
 70
     1
102
RTVSPropertyOp6
 70
     1
102
RTVSPropertyOp7
 70
     1
102
RTVSPropertyOp8
 70
     1
102
RTVSPropertyOp9
 70
     1
102
RTVSPropertyOp10
 70
     1
102
RTVSPropertyOp11
 70
     1
102
RTVSPropertyOp12
 70
     1
102
RTVSPropertyOp13
 70
     1
102
RTVSPropertyOp14
 70
     1
102
RTVSPropertyOp15
 70
     1
102
RTVSPropertyOp16
 70
     1
102
RTVSPropertyOp17
 70
     1
102
RTVSPropertyOp18
 70
     1
102
RTVSPropertyOp19
 70
     1
102
RTVSPropertyOp20
 70
     1
102
RTVSPropertyOp21
 70
     1
102
RTVSPropertyOp22
 70
     1
102
RTVSPropertyOp23
 70
     1
102
RTVSPropertyOp24
 70
     1
102
RTVSPropertyOp25
 70
     1
102
RTVSPropertyOp26
 70
     1
102
RTVSPropertyOp27
 70
     1
102
RTVSPropertyOp28
 70
     1
102
RTVSPropertyOp29
 70
     1
102
RTVSPropertyOp30
 70
     1
102
RTVSPropertyOp31
 70
     1
102
RTVSPropertyOp32
 70
     1
  0
XRECORD
  5
91
102
{ACAD_REACTORS
330
90
102
}
330
90
100
AcDbXrecord
280
     1
102
RTVSPropertyOp0
 70
     1
102
RTVSPropertyOp1
 70
     1
102
RTVSPropertyOp2
 70
     1
102
RTVSPropertyOp3
 70
     1
102
RTVSPropertyOp4
 70
     1
102
RTVSPropertyOp5
 70
     1
102
RTVSPropertyOp6
 70
     1
102
RTVSPropertyOp7
 70
     1
102
RTVSPropertyOp8
 70
     1
102
RTVSPropertyOp9
 70
     1
102
RTVSPropertyOp10
 70
     1
102
RTVSPropertyOp11
 70
     1
102
RTVSPropertyOp12
 70
     1
102
RTVSPropertyOp13
 70
     1
102
RTVSPropertyOp14
 70
     1
102
RTVSPropertyOp15
 70
     1
102
RTVSPropertyOp16
 70
     1
102
RTVSPropertyOp17
 70
     1
102
RTVSPropertyOp18
 70
     1
102
RTVSPropertyOp19
 70
     1
102
RTVSPropertyOp20
 70
     1
102
RTVSPropertyOp21
 70
     1
102
RTVSPropertyOp22
 70
     1
102
RTVSPropertyOp23
 70
     1
102
RTVSPropertyOp24
 70
     1
102
RTVSPropertyOp25
 70
     1
102
RTVSPropertyOp26
 70
     1
102
RTVSPropertyOp27
 70
     1
102
RTVSPropertyOp28
 70
     1
102
RTVSPropertyOp29
 70
     1
102
RTVSPropertyOp30
 70
     1
102
RTVSPropertyOp31
 70
     1
102
RTVSPropertyOp32
 70
     1
  0
XRECORD
  5
93
102
{ACAD_REACTORS
330
92
102
}
330
92
100
AcDbXrecord
280
     1
102
RTVSPropertyOp0
 70
     1
102
RTVSPropertyOp1
 70
     1
102
RTVSPropertyOp2
 70
     1
102
RTVSPropertyOp3
 70
     1
102
RTVSPropertyOp4
 70
     1
102
RTVSPropertyOp5
 70
     1
102
RTVSPropertyOp6
 70
     1
102
RTVSPropertyOp7
 70
     1
102
RTVSPropertyOp8
 70
     1
102
RTVSPropertyOp9
 70
     1
102
RTVSPropertyOp10
 70
     1
102
RTVSPropertyOp11
 70
     1
102
RTVSPropertyOp12
 70
     1
102
RTVSPropertyOp13
 70
     1
102
RTVSPropertyOp14
 70
     1
102
RTVSPropertyOp15
 70
     1
102
RTVSPropertyOp16
 70
     1
102
RTVSPropertyOp17
 70
     1
102
RTVSPropertyOp18
 70
     1
102
RTVSPropertyOp19
 70
     1
102
RTVSPropertyOp20
 70
     1
102
RTVSPropertyOp21
 70
     1
102
RTVSPropertyOp22
 70
     1
102
RTVSPropertyOp23
 70
     1
102
RTVSPropertyOp24
 70
     1
102
RTVSPropertyOp25
 70
     1
102
RTVSPropertyOp26
 70
     1
102
RTVSPropertyOp27
 70
     1
102
RTVSPropertyOp28
 70
     1
102
RTVSPropertyOp29
 70
     1
102
RTVSPropertyOp30
 70
     1
102
RTVSPropertyOp31
 70
     1
102
RTVSPropertyOp32
 70
     1
  0
XRECORD
  5
95
102
{ACAD_REACTORS
330
94
102
}
330
94
100
AcDbXrecord
280
     1
102
RTVSPropertyOp0
 70
     1
102
RTVSPropertyOp1
 70
     1
102
RTVSPropertyOp2
 70
     1
102
RTVSPropertyOp3
 70
     1
102
RTVSPropertyOp4
 70
     1
102
RTVSPropertyOp5
 70
     1
102
RTVSPropertyOp6
 70
     1
102
RTVSPropertyOp7
 70
     1
102
RTVSPropertyOp8
 70
     1
102
RTVSPropertyOp9
 70
     1
102
RTVSPropertyOp10
 70
     1
102
RTVSPropertyOp11
 70
     1
102
RTVSPropertyOp12
 70
     1
102
RTVSPropertyOp13
 70
     1
102
RTVSPropertyOp14
 70
     1
102
RTVSPropertyOp15
 70
     1
102
RTVSPropertyOp16
 70
     1
102
RTVSPropertyOp17
 70
     1
102
RTVSPropertyOp18
 70
     1
102
RTVSPropertyOp19
 70
     1
102
RTVSPropertyOp20
 70
     1
102
RTVSPropertyOp21
 70
     1
102
RTVSPropertyOp22
 70
     1
102
RTVSPropertyOp23
 70
     1
102
RTVSPropertyOp24
 70
     1
102
RTVSPropertyOp25
 70
     1
102
RTVSPropertyOp26
 70
     1
102
RTVSPropertyOp27
 70
     1
102
RTVSPropertyOp28
 70
     1
102
RTVSPropertyOp29
 70
     1
102
RTVSPropertyOp30
 70
     1
102
RTVSPropertyOp31
 70
     1
102
RTVSPropertyOp32
 70
     1
  0
XRECORD
  5
A9
102
{ACAD_REACTORS
330
A8
102
}
330
A8
100
AcDbXrecord
280
     1
102
RTVSPropertyOp0
 70
     1
102
RTVSPropertyOp1
 70
     1
102
RTVSPropertyOp2
 70
     1
102
RTVSPropertyOp3
 70
     1
102
RTVSPropertyOp4
 70
     1
102
RTVSPropertyOp5
 70
     1
102
RTVSPropertyOp6
 70
     1
102
RTVSPropertyOp7
 70
     1
102
RTVSPropertyOp8
 70
     1
102
RTVSPropertyOp9
 70
     1
102
RTVSPropertyOp10
 70
     1
102
RTVSPropertyOp11
 70
     1
102
RTVSPropertyOp12
 70
     1
102
RTVSPropertyOp13
 70
     1
102
RTVSPropertyOp14
 70
     1
102
RTVSPropertyOp15
 70
     1
102
RTVSPropertyOp16
 70
     1
102
RTVSPropertyOp17
 70
     1
102
RTVSPropertyOp18
 70
     1
102
RTVSPropertyOp19
 70
     1
102
RTVSPropertyOp20
 70
     1
102
RTVSPropertyOp21
 70
     1
102
RTVSPropertyOp22
 70
     1
102
RTVSPropertyOp23
 70
     1
102
RTVSPropertyOp24
 70
     1
102
RTVSPropertyOp25
 70
     1
102
RTVSPropertyOp26
 70
     1
102
RTVSPropertyOp27
 70
     1
102
RTVSPropertyOp28
 70
     1
102
RTVSPropertyOp29
 70
     1
102
RTVSPropertyOp30
 70
     1
102
RTVSPropertyOp31
 70
     1
102
RTVSPropertyOp32
 70
     1
  0
XRECORD
  5
9F
102
{ACAD_REACTORS
330
9E
102
}
330
9E
100
AcDbXrecord
280
     1
102
RTVSPropertyOp0
 70
     1
102
RTVSPropertyOp1
 70
     1
102
RTVSPropertyOp2
 70
     1
102
RTVSPropertyOp3
 70
     1
102
RTVSPropertyOp4
 70
     1
102
RTVSPropertyOp5
 70
     1
102
RTVSPropertyOp6
 70
     1
102
RTVSPropertyOp7
 70
     1
102
RTVSPropertyOp8
 70
     1
102
RTVSPropertyOp9
 70
     1
102
RTVSPropertyOp10
 70
     1
102
RTVSPropertyOp11
 70
     1
102
RTVSPropertyOp12
 70
     1
102
RTVSPropertyOp13
 70
     1
102
RTVSPropertyOp14
 70
     1
102
RTVSPropertyOp15
 70
     1
102
RTVSPropertyOp16
 70
     1
102
RTVSPropertyOp17
 70
     1
102
RTVSPropertyOp18
 70
     1
102
RTVSPropertyOp19
 70
     1
102
RTVSPropertyOp20
 70
     1
102
RTVSPropertyOp21
 70
     1
102
RTVSPropertyOp22
 70
     1
102
RTVSPropertyOp23
 70
     1
102
RTVSPropertyOp24
 70
     1
102
RTVSPropertyOp25
 70
     1
102
RTVSPropertyOp26
 70
     1
102
RTVSPropertyOp27
 70
     1
102
RTVSPropertyOp28
 70
     1
102
RTVSPropertyOp29
 70
     1
102
RTVSPropertyOp30
 70
     1
102
RTVSPropertyOp31
 70
     1
102
RTVSPropertyOp32
 70
     1
  0
XRECORD
  5
A7
102
{ACAD_REACTORS
330
A6
102
}
330
A6
100
AcDbXrecord
280
     1
102
RTVSPropertyOp0
 70
     1
102
RTVSPropertyOp1
 70
     1
102
RTVSPropertyOp2
 70
     1
102
RTVSPropertyOp3
 70
     1
102
RTVSPropertyOp4
 70
     1
102
RTVSPropertyOp5
 70
     1
102
RTVSPropertyOp6
 70
     1
102
RTVSPropertyOp7
 70
     1
102
RTVSPropertyOp8
 70
     1
102
RTVSPropertyOp9
 70
     1
102
RTVSPropertyOp10
 70
     1
102
RTVSPropertyOp11
 70
     1
102
RTVSPropertyOp12
 70
     1
102
RTVSPropertyOp13
 70
     1
102
RTVSPropertyOp14
 70
     1
102
RTVSPropertyOp15
 70
     1
102
RTVSPropertyOp16
 70
     1
102
RTVSPropertyOp17
 70
     1
102
RTVSPropertyOp18
 70
     1
102
RTVSPropertyOp19
 70
     1
102
RTVSPropertyOp20
 70
     1
102
RTVSPropertyOp21
 70
     1
102
RTVSPropertyOp22
 70
     1
102
RTVSPropertyOp23
 70
     1
102
RTVSPropertyOp24
 70
     1
102
RTVSPropertyOp25
 70
     1
102
RTVSPropertyOp26
 70
     1
102
RTVSPropertyOp27
 70
     1
102
RTVSPropertyOp28
 70
     1
102
RTVSPropertyOp29
 70
     1
102
RTVSPropertyOp30
 70
     1
102
RTVSPropertyOp31
 70
     1
102
RTVSPropertyOp32
 70
     1
  0
ENDSEC
  0
EOF
