  0
SECTION
  2
HEADER
  9
$ACADVER
  1
AC1021
  9
$ACADMAINTVER
 70
    25
  9
$DWGCODEPAGE
  3
ANSI_1252
  9
$INSBASE
 10
0.0
 20
0.0
 30
0.0
  9
$EXTMIN
 10
-187.3887
 20
-100.0623
 30
0.0
  9
$EXTMAX
 10
-82.232
 20
97.0277
 30
0.0
  9
$LIMMIN
 10
0.0
 20
0.0
  9
$LIMMAX
 10
12.0
 20
9.0
  9
$ORTHOMODE
 70
     0
  9
$REGENMODE
 70
     1
  9
$FILLMODE
 70
     1
  9
$QTEXTMODE
 70
     0
  9
$MIRRTEXT
 70
     1
  9
$LTSCALE
 40
1.0
  9
$ATTMODE
 70
     1
  9
$TEXTSIZE
 40
0.2
  9
$TRACEWID
 40
0.05
  9
$TEXTSTYLE
  7
Standard
  9
$CLAYER
  8
0
  9
$CELTYPE
  6
ByLayer
  9
$CECOLOR
 62
   256
  9
$CELTSCALE
 40
1.0
  9
$DISPSILH
 70
     0
  9
$DIMSCALE
 40
1.0
  9
$DIMASZ
 40
0.18
  9
$DIMEXO
 40
0.0625
  9
$DIMDLI
 40
0.38
  9
$DIMRND
 40
0.0
  9
$DIMDLE
 40
0.0
  9
$DIMEXE
 40
0.18
  9
$DIMTP
 40
0.0
  9
$DIMTM
 40
0.0
  9
$DIMTXT
 40
0.18
  9
$DIMCEN
 40
0.09
  9
$DIMTSZ
 40
0.0
  9
$DIMTOL
 70
     0
  9
$DIMLIM
 70
     0
  9
$DIMTIH
 70
     1
  9
$DIMTOH
 70
     1
  9
$DIMSE1
 70
     0
  9
$DIMSE2
 70
     0
  9
$DIMTAD
 70
     0
  9
$DIMZIN
 70
     0
  9
$DIMBLK
  1

  9
$DIMASO
 70
     1
  9
$DIMSHO
 70
     1
  9
$DIMPOST
  1

  9
$DIMAPOST
  1

  9
$DIMALT
 70
     0
  9
$DIMALTD
 70
     2
  9
$DIMALTF
 40
25.4
  9
$DIMLFAC
 40
1.0
  9
$DIMTOFL
 70
     0
  9
$DIMTVP
 40
0.0
  9
$DIMTIX
 70
     0
  9
$DIMSOXD
 70
     0
  9
$DIMSAH
 70
     0
  9
$DIMBLK1
  1

  9
$DIMBLK2
  1

  9
$DIMSTYLE
  2
Standard
  9
$DIMCLRD
 70
     0
  9
$DIMCLRE
 70
     0
  9
$DIMCLRT
 70
     0
  9
$DIMTFAC
 40
1.0
  9
$DIMGAP
 40
0.09
  9
$DIMJUST
 70
     0
  9
$DIMSD1
 70
     0
  9
$DIMSD2
 70
     0
  9
$DIMTOLJ
 70
     1
  9
$DIMTZIN
 70
     0
  9
$DIMALTZ
 70
     0
  9
$DIMALTTZ
 70
     0
  9
$DIMUPT
 70
     0
  9
$DIMDEC
 70
     4
  9
$DIMTDEC
 70
     4
  9
$DIMALTU
 70
     2
  9
$DIMALTTD
 70
     2
  9
$DIMTXSTY
  7
Standard
  9
$DIMAUNIT
 70
     0
  9
$DIMADEC
 70
     0
  9
$DIMALTRND
 40
0.0
  9
$DIMAZIN
 70
     0
  9
$DIMDSEP
 70
    46
  9
$DIMATFIT
 70
     3
  9
$DIMFRAC
 70
     0
  9
$DIMLDRBLK
  1

  9
$DIMLUNIT
 70
     2
  9
$DIMLWD
 70
    -2
  9
$DIMLWE
 70
    -2
  9
$DIMTMOVE
 70
     0
  9
$DIMFXL
 40
1.0
  9
$DIMFXLON
 70
     0
  9
$DIMJOGANG
 40
0.7853981633974483
  9
$DIMTFILL
 70
     0
  9
$DIMTFILLCLR
 70
     0
  9
$DIMARCSYM
 70
     0
  9
$DIMLTYPE
  6

  9
$DIMLTEX1
  6

  9
$DIMLTEX2
  6

  9
$LUNITS
 70
     2
  9
$LUPREC
 70
     4
  9
$SKETCHINC
 40
0.1
  9
$FILLETRAD
 40
0.5
  9
$AUNITS
 70
     0
  9
$AUPREC
 70
     0
  9
$MENU
  1
.
  9
$ELEVATION
 40
0.0
  9
$PELEVATION
 40
0.0
  9
$THICKNESS
 40
0.0
  9
$LIMCHECK
 70
     0
  9
$CHAMFERA
 40
0.5
  9
$CHAMFERB
 40
0.5
  9
$CHAMFERC
 40
1.0
  9
$CHAMFERD
 40
0.0
  9
$SKPOLY
 70
     0
  9
$TDCREATE
 40
2458492.791086562
  9
$TDUCREATE
 40
2458492.791086562
  9
$TDUPDATE
 40
2458492.791086759
  9
$TDUUPDATE
 40
2458492.791086759
  9
$TDINDWG
 40
0.0000000116
  9
$TDUSRTIMER
 40
0.0000000116
  9
$USRTIMER
 70
     1
  9
$ANGBASE
 50
0.0
  9
$ANGDIR
 70
     0
  9
$PDMODE
 70
     0
  9
$PDSIZE
 40
0.0
  9
$PLINEWID
 40
0.0
  9
$SPLFRAME
 70
     0
  9
$SPLINETYPE
 70
     6
  9
$SPLINESEGS
 70
     8
  9
$HANDSEED
  5
106
  9
$SURFTAB1
 70
     6
  9
$SURFTAB2
 70
     6
  9
$SURFTYPE
 70
     6
  9
$SURFU
 70
     6
  9
$SURFV
 70
     6
  9
$UCSBASE
  2

  9
$UCSNAME
  2

  9
$UCSORG
 10
0.0
 20
0.0
 30
0.0
  9
$UCSXDIR
 10
1.0
 20
0.0
 30
0.0
  9
$UCSYDIR
 10
0.0
 20
1.0
 30
0.0
  9
$UCSORTHOREF
  2

  9
$UCSORTHOVIEW
 70
     0
  9
$UCSORGTOP
 10
0.0
 20
0.0
 30
0.0
  9
$UCSORGBOTTOM
 10
0.0
 20
0.0
 30
0.0
  9
$UCSORGLEFT
 10
0.0
 20
0.0
 30
0.0
  9
$UCSORGRIGHT
 10
0.0
 20
0.0
 30
0.0
  9
$UCSORGFRONT
 10
0.0
 20
0.0
 30
0.0
  9
$UCSORGBACK
 10
0.0
 20
0.0
 30
0.0
  9
$PUCSBASE
  2

  9
$PUCSNAME
  2

  9
$PUCSORG
 10
0.0
 20
0.0
 30
0.0
  9
$PUCSXDIR
 10
1.0
 20
0.0
 30
0.0
  9
$PUCSYDIR
 10
0.0
 20
1.0
 30
0.0
  9
$PUCSORTHOREF
  2

  9
$PUCSORTHOVIEW
 70
     0
  9
$PUCSORGTOP
 10
0.0
 20
0.0
 30
0.0
  9
$PUCSORGBOTTOM
 10
0.0
 20
0.0
 30
0.0
  9
$PUCSORGLEFT
 10
0.0
 20
0.0
 30
0.0
  9
$PUCSORGRIGHT
 10
0.0
 20
0.0
 30
0.0
  9
$PUCSORGFRONT
 10
0.0
 20
0.0
 30
0.0
  9
$PUCSORGBACK
 10
0.0
 20
0.0
 30
0.0
  9
$USERI1
 70
     0
  9
$USERI2
 70
     0
  9
$USERI3
 70
     0
  9
$USERI4
 70
     0
  9
$USERI5
 70
     0
  9
$USERR1
 40
0.0
  9
$USERR2
 40
0.0
  9
$USERR3
 40
0.0
  9
$USERR4
 40
0.0
  9
$USERR5
 40
0.0
  9
$WORLDVIEW
 70
     1
  9
$SHADEDGE
 70
     3
  9
$SHADEDIF
 70
    70
  9
$TILEMODE
 70
     1
  9
$MAXACTVP
 70
    64
  9
$PINSBASE
 10
0.0
 20
0.0
 30
0.0
  9
$PLIMCHECK
 70
     0
  9
$PEXTMIN
 10
1.000000000000000E+20
 20
1.000000000000000E+20
 30
1.000000000000000E+20
  9
$PEXTMAX
 10
-1.000000000000000E+20
 20
-1.000000000000000E+20
 30
-1.000000000000000E+20
  9
$PLIMMIN
 10
0.0
 20
0.0
  9
$PLIMMAX
 10
12.0
 20
9.0
  9
$UNITMODE
 70
     0
  9
$VISRETAIN
 70
     1
  9
$PLINEGEN
 70
     0
  9
$PSLTSCALE
 70
     1
  9
$TREEDEPTH
 70
  3020
  9
$CMLSTYLE
  2
Standard
  9
$CMLJUST
 70
     0
  9
$CMLSCALE
 40
1.0
  9
$PROXYGRAPHICS
 70
     1
  9
$MEASUREMENT
 70
     0
  9
$CELWEIGHT
370
    -1
  9
$ENDCAPS
280
     0
  9
$JOINSTYLE
280
     0
  9
$LWDISPLAY
290
     0
  9
$INSUNITS
 70
     4
  9
$HYPERLINKBASE
  1

  9
$STYLESHEET
  1

  9
$XEDIT
290
     1
  9
$CEPSNTYPE
380
     0
  9
$PSTYLEMODE
290
     1
  9
$FINGERPRINTGUID
  2
{4D00A624-3AA0-4308-AF68-FF15A67261FC}
  9
$VERSIONGUID
  2
{FAEB1C32-E019-11D5-929B-00C0DF256EC4}
  9
$EXTNAMES
290
     1
  9
$PSVPSCALE
 40
0.0
  9
$OLESTARTUP
290
     0
  9
$SORTENTS
280
   127
  9
$INDEXCTL
280
     0
  9
$HIDETEXT
280
     1
  9
$XCLIPFRAME
290
     0
  9
$HALOGAP
280
     0
  9
$OBSCOLOR
 70
   257
  9
$OBSLTYPE
280
     0
  9
$INTERSECTIONDISPLAY
280
     0
  9
$INTERSECTIONCOLOR
 70
   257
  9
$DIMASSOC
280
     2
  9
$PROJECTNAME
  1

  9
$CAMERADISPLAY
290
     0
  9
$LENSLENGTH
 40
50.0
  9
$CAMERAHEIGHT
 40
0.0
  9
$STEPSPERSEC
 40
2.0
  9
$STEPSIZE
 40
6.0
  9
$3DDWFPREC
 40
2.0
  9
$PSOLWIDTH
 40
0.25
  9
$PSOLHEIGHT
 40
4.0
  9
$LOFTANG1
 40
1.570796326794897
  9
$LOFTANG2
 40
1.570796326794897
  9
$LOFTMAG1
 40
0.0
  9
$LOFTMAG2
 40
0.0
  9
$LOFTPARAM
 70
     7
  9
$LOFTNORMALS
280
     1
  9
$LATITUDE
 40
37.795
  9
$LONGITUDE
 40
-122.394
  9
$NORTHDIRECTION
 40
0.0
  9
$TIMEZONE
 70
 -8000
  9
$LIGHTGLYPHDISPLAY
280
     1
  9
$TILEMODELIGHTSYNCH
280
     1
  9
$SOLIDHIST
280
     1
  9
$SHOWHIST
280
     1
  9
$DWFFRAME
280
     2
  9
$DGNFRAME
280
     2
  9
$REALWORLDSCALE
290
     1
  9
$INTERFERECOLOR
 62
   256
  9
$CSHADOW
280
     0
  9
$SHADOWPLANELOCATION
 40
0.0
  0
ENDSEC
  0
SECTION
  2
CLASSES
  0
CLASS
  1
ACDBDICTIONARYWDFLT
  2
AcDbDictionaryWithDefault
  3
ObjectDBX Classes
 90
        0
 91
        4
280
     0
281
     0
  0
CLASS
  1
VISUALSTYLE
  2
AcDbVisualStyle
  3
ObjectDBX Classes
 90
     4095
 91
        4
280
     0
281
     0
  0
CLASS
  1
MATERIAL
  2
AcDbMaterial
  3
ObjectDBX Classes
 90
     1153
 91
        4
280
     0
281
     0
  0
ENDSEC
  0
SECTION
  2
TABLES
  0
TABLE
  2
VPORT
  5
8
330
0
100
AcDbSymbolTable
 70
     1
  0
VPORT
  5
29
330
8
100
AcDbSymbolTableRecord
100
AcDbViewportTableRecord
  2
*Active
 70
     0
 10
0.0
 20
0.0
 11
1.0
 21
1.0
 12
10.42990654205607
 22
4.5
 13
0.0
 23
0.0
 14
0.5
 24
0.5
 15
0.5
 25
0.5
 16
0.0
 26
0.0
 36
1.0
 17
0.0
 27
0.0
 37
0.0
 40
9.0
 41
1.972972972850329
 42
50.0
 43
0.0
 44
0.0
 50
0.0
 51
0.0
 71
     0
 72
   100
 73
     1
 74
     3
 75
     0
 76
     0
 77
     0
 78
     0
281
     0
 65
     1
110
0.0
120
0.0
130
0.0
111
1.0
121
0.0
131
0.0
112
0.0
122
1.0
132
0.0
 79
     0
146
0.0
 60
     3
 61
     5
292
     1
282
     1
141
0.0
142
0.0
 63
   250
  0
ENDTAB
  0
TABLE
  2
LTYPE
  5
5
330
0
100
AcDbSymbolTable
 70
     1
  0
LTYPE
  5
14
330
5
100
AcDbSymbolTableRecord
100
AcDbLinetypeTableRecord
  2
ByBlock
 70
     0
  3

 72
    65
 73
     0
 40
0.0
  0
LTYPE
  5
15
330
5
100
AcDbSymbolTableRecord
100
AcDbLinetypeTableRecord
  2
ByLayer
 70
     0
  3

 72
    65
 73
     0
 40
0.0
  0
LTYPE
  5
16
330
5
100
AcDbSymbolTableRecord
100
AcDbLinetypeTableRecord
  2
Continuous
 70
     0
  3
Solid line
 72
    65
 73
     0
 40
0.0
  0
ENDTAB
  0
TABLE
  2
LAYER
  5
2
330
0
100
AcDbSymbolTable
 70
     2
  0
LAYER
  5
10
330
2
100
AcDbSymbolTableRecord
100
AcDbLayerTableRecord
  2
0
 70
     0
 62
     7
  6
Continuous
370
    -3
390
F
347
3E
  0
LAYER
  5
40
330
2
100
AcDbSymbolTableRecord
100
AcDbLayerTableRecord
  2
layer 1
 70
     0
 62
     7
  6
Continuous
370
    -3
390
F
347
3E
  0
ENDTAB
  0
TABLE
  2
STYLE
  5
3
330
0
100
AcDbSymbolTable
 70
     1
  0
STYLE
  5
11
330
3
100
AcDbSymbolTableRecord
100
AcDbTextStyleTableRecord
  2
Standard
 70
     0
 40
0.0
 41
1.0
 50
0.0
 71
     0
 42
0.2
  3
txt
  4

  0
ENDTAB
  0
TABLE
  2
VIEW
  5
6
330
0
100
AcDbSymbolTable
 70
     0
  0
ENDTAB
  0
TABLE
  2
UCS
  5
7
330
0
100
AcDbSymbolTable
 70
     0
  0
ENDTAB
  0
TABLE
  2
APPID
  5
9
330
0
100
AcDbSymbolTable
 70
     2
  0
APPID
  5
12
330
9
100
AcDbSymbolTableRecord
100
AcDbRegAppTableRecord
  2
ACAD
 70
     0
  0
APPID
  5
3F
330
9
100
AcDbSymbolTableRecord
100
AcDbRegAppTableRecord
  2
ODA
 70
     0
  0
ENDTAB
  0
TABLE
  2
DIMSTYLE
  5
A
330
0
100
AcDbSymbolTable
 70
     1
100
AcDbDimStyleTable
  0
DIMSTYLE
105
27
330
A
100
AcDbSymbolTableRecord
100
AcDbDimStyleTableRecord
  2
Standard
 70
     0
178
     0
340
11
  0
ENDTAB
  0
TABLE
  2
BLOCK_RECORD
  5
1
330
0
100
AcDbSymbolTable
 70
     1
  0
BLOCK_RECORD
  5
1F
330
1
100
AcDbSymbolTableRecord
100
AcDbBlockTableRecord
  2
*Model_Space
340
22
 70
     0
280
     1
281
     0
  0
BLOCK_RECORD
  5
1B
330
1
100
AcDbSymbolTableRecord
100
AcDbBlockTableRecord
  2
*Paper_Space
340
1E
 70
     0
280
     1
281
     0
  0
BLOCK_RECORD
  5
23
330
1
100
AcDbSymbolTableRecord
100
AcDbBlockTableRecord
  2
*Paper_Space0
340
26
 70
     0
280
     1
281
     0
  0
ENDTAB
  0
ENDSEC
  0
SECTION
  2
BLOCKS
  0
BLOCK
  5
20
330
1F
100
AcDbEntity
  8
0
100
AcDbBlockBegin
  2
*Model_Space
 70
     0
 10
0.0
 20
0.0
 30
0.0
  3
*Model_Space
  1

  0
ENDBLK
  5
21
330
1F
100
AcDbEntity
  8
0
100
AcDbBlockEnd
  0
BLOCK
  5
1C
330
1B
100
AcDbEntity
 67
     1
  8
0
100
AcDbBlockBegin
  2
*Paper_Space
 70
     0
 10
0.0
 20
0.0
 30
0.0
  3
*Paper_Space
  1

  0
ENDBLK
  5
1D
330
1B
100
AcDbEntity
 67
     1
  8
0
100
AcDbBlockEnd
  0
BLOCK
  5
24
330
23
100
AcDbEntity
  8
0
100
AcDbBlockBegin
  2
*Paper_Space0
 70
     0
 10
0.0
 20
0.0
 30
0.0
  3
*Paper_Space0
  1

  0
ENDBLK
  5
25
330
23
100
AcDbEntity
  8
0
100
AcDbBlockEnd
  0
ENDSEC
  0
SECTION
  2
ENTITIES
  0
SPLINE
  5
41
330
1F
100
AcDbEntity
  8
layer 1
 62
   250
370
     9
100
AcDbSpline
210
0.0
220
0.0
230
1.0
 70
    11
 71
     3
 72
    20
 73
    16
 74
     0
 42
0.0000000001
 43
0.0000000001
 12
1.0
 22
0.0
 32
0.0
 13
1.0
 23
0.0
 33
0.0
 40
0.0
 40
0.0
 40
0.0
 40
0.0
 40
0.2
 40
0.2
 40
0.2
 40
0.2
 40
0.4
 40
0.4
 40
0.4
 40
0.4
 40
0.6
 40
0.6
 40
0.6
 40
0.6
 40
1.0
 40
1.0
 40
1.0
 40
1.0
 10
-82.277
 20
-100.0173
 30
0.0
 10
-82.277
 20
-100.0173
 30
0.0
 10
-187.3437
 20
-100.0173
 30
0.0
 10
-187.3437
 20
-100.0173
 30
0.0
 10
-187.3437
 20
-100.0173
 30
0.0
 10
-187.3437
 20
-100.0173
 30
0.0
 10
-187.3437
 20
96.9827
 30
0.0
 10
-187.3437
 20
96.9827
 30
0.0
 10
-187.3437
 20
96.9827
 30
0.0
 10
-187.3437
 20
96.9827
 30
0.0
 10
-82.277
 20
96.9827
 30
0.0
 10
-82.277
 20
96.9827
 30
0.0
 10
-82.277
 20
96.9827
 30
0.0
 10
-82.277
 20
96.9827
 30
0.0
 10
-82.277
 20
-100.0173
 30
0.0
 10
-82.277
 20
-100.0173
 30
0.0
  0
SPLINE
  5
42
330
1F
100
AcDbEntity
  8
layer 1
 62
     7
370
     9
100
AcDbSpline
210
0.0
220
0.0
230
1.0
 70
    11
 71
     3
 72
    32
 73
    28
 74
     0
 42
0.0000000001
 43
0.0000000001
 12
1.0
 22
0.0
 32
0.0
 13
1.0
 23
0.0
 33
0.0
 40
0.0
 40
0.0
 40
0.0
 40
0.0
 40
0.125
 40
0.125
 40
0.125
 40
0.125
 40
0.25
 40
0.25
 40
0.25
 40
0.25
 40
0.375
 40
0.375
 40
0.375
 40
0.375
 40
0.5
 40
0.5
 40
0.5
 40
0.5
 40
0.625
 40
0.625
 40
0.625
 40
0.625
 40
0.75
 40
0.75
 40
0.75
 40
0.75
 40
1.0
 40
1.0
 40
1.0
 40
1.0
 10
-152.5951
 20
8.7887
 30
0.0
 10
-152.5951
 20
8.7887
 30
0.0
 10
-152.3215
 20
14.8993
 30
0.0
 10
-145.846
 20
12.3456
 30
0.0
 10
-145.846
 20
12.3456
 30
0.0
 10
-142.8363
 20
10.6128
 30
0.0
 10
-143.7483
 20
8.0591
 30
0.0
 10
-143.7483
 20
8.0591
 30
0.0
 10
-143.7483
 20
8.0591
 30
0.0
 10
-143.7483
 20
8.0591
 30
0.0
 10
-141.2858
 20
5.5053
 30
0.0
 10
-141.2858
 20
5.5053
 30
0.0
 10
-141.2858
 20
5.5053
 30
0.0
 10
-141.2858
 20
5.5053
 30
0.0
 10
-139.553
 20
12.2545
 30
0.0
 10
-143.1099
 20
14.2609
 30
0.0
 10
-143.1099
 20
14.2609
 30
0.0
 10
-146.6669
 20
16.2674
 30
0.0
 10
-149.2206
 20
16.9058
 30
0.0
 10
-152.6863
 20
14.0785
 30
0.0
 10
-152.6863
 20
14.0785
 30
0.0
 10
-152.6863
 20
14.0785
 30
0.0
 10
-154.784
 20
11.9808
 30
0.0
 10
-153.7808
 20
9.792
 30
0.0
 10
-153.7808
 20
9.792
 30
0.0
 10
-153.0511
 20
8.6519
 30
0.0
 10
-152.5951
 20
8.7887
 30
0.0
 10
-152.5951
 20
8.7887
 30
0.0
  0
SPLINE
  5
43
330
1F
100
AcDbEntity
  8
layer 1
 62
     7
370
     9
100
AcDbSpline
210
0.0
220
0.0
230
1.0
 70
    11
 71
     3
 72
    24
 73
    20
 74
     0
 42
0.0000000001
 43
0.0000000001
 12
1.0
 22
0.0
 32
0.0
 13
1.0
 23
0.0
 33
0.0
 40
0.0
 40
0.0
 40
0.0
 40
0.0
 40
0.1666666666666667
 40
0.1666666666666667
 40
0.1666666666666667
 40
0.1666666666666667
 40
0.3333333333333333
 40
0.3333333333333333
 40
0.3333333333333333
 40
0.3333333333333333
 40
0.5
 40
0.5
 40
0.5
 40
0.5
 40
0.6666666666666666
 40
0.6666666666666666
 40
0.6666666666666666
 40
0.6666666666666666
 40
1.0
 40
1.0
 40
1.0
 40
1.0
 10
-144.0675
 20
6.919
 30
0.0
 10
-144.0675
 20
6.919
 30
0.0
 10
-146.074
 20
3.5901
 30
0.0
 10
-148.5365
 20
2.8605
 30
0.0
 10
-148.5365
 20
2.8605
 30
0.0
 10
-146.4844
 20
2.45
 30
0.0
 10
-144.5236
 20
0.398
 30
0.0
 10
-145.39
 20
-2.2013
 30
0.0
 10
-145.39
 20
-2.2013
 30
0.0
 10
-143.8851
 20
-0.8789
 30
0.0
 10
-142.2435
 20
4.1829
 30
0.0
 10
-142.2435
 20
4.3653
 30
0.0
 10
-142.2435
 20
4.3653
 30
0.0
 10
-142.2435
 20
4.5477
 30
0.0
 10
-143.8851
 20
6.9646
 30
0.0
 10
-143.8851
 20
6.9646
 30
0.0
 10
-143.8851
 20
6.9646
 30
0.0
 10
-143.8851
 20
6.9646
 30
0.0
 10
-144.0675
 20
6.919
 30
0.0
 10
-144.0675
 20
6.919
 30
0.0
  0
SPLINE
  5
44
330
1F
100
AcDbEntity
  8
layer 1
 62
     7
370
     9
100
AcDbSpline
210
0.0
220
0.0
230
1.0
 70
    11
 71
     3
 72
    20
 73
    16
 74
     0
 42
0.0000000001
 43
0.0000000001
 12
1.0
 22
0.0
 32
0.0
 13
1.0
 23
0.0
 33
0.0
 40
0.0
 40
0.0
 40
0.0
 40
0.0
 40
0.2
 40
0.2
 40
0.2
 40
0.2
 40
0.4
 40
0.4
 40
0.4
 40
0.4
 40
0.6
 40
0.6
 40
0.6
 40
0.6
 40
1.0
 40
1.0
 40
1.0
 40
1.0
 10
-162.6275
 20
21.1924
 30
0.0
 10
-164.3604
 20
16.3586
 30
0.0
 10
-159.253
 20
13.1665
 30
0.0
 10
-159.253
 20
13.1665
 30
0.0
 10
-159.253
 20
13.1665
 30
0.0
 10
-159.0705
 20
16.1762
 30
0.0
 10
-156.4257
 20
18.6387
 30
0.0
 10
-156.4257
 20
18.6387
 30
0.0
 10
-156.4257
 20
18.6387
 30
0.0
 10
-161.8979
 20
19.7331
 30
0.0
 10
-158.5233
 20
24.3845
 30
0.0
 10
-158.5233
 20
24.3845
 30
0.0
 10
-158.5233
 20
24.3845
 30
0.0
 10
-162.0803
 20
23.7461
 30
0.0
 10
-162.6275
 20
21.1924
 30
0.0
 10
-162.6275
 20
21.1924
 30
0.0
  0
SPLINE
  5
45
330
1F
100
AcDbEntity
  8
layer 1
 62
     7
370
     9
100
AcDbSpline
210
0.0
220
0.0
230
1.0
 70
    11
 71
     3
 72
    24
 73
    20
 74
     0
 42
0.0000000001
 43
0.0000000001
 12
1.0
 22
0.0
 32
0.0
 13
1.0
 23
0.0
 33
0.0
 40
0.0
 40
0.0
 40
0.0
 40
0.0
 40
0.1666666666666667
 40
0.1666666666666667
 40
0.1666666666666667
 40
0.1666666666666667
 40
0.3333333333333333
 40
0.3333333333333333
 40
0.3333333333333333
 40
0.3333333333333333
 40
0.5
 40
0.5
 40
0.5
 40
0.5
 40
0.6666666666666666
 40
0.6666666666666666
 40
0.6666666666666666
 40
0.6666666666666666
 40
1.0
 40
1.0
 40
1.0
 40
1.0
 10
-164.4516
 20
10.1568
 30
0.0
 10
-155.3312
 20
6.0526
 30
0.0
 10
-157.7025
 20
0.2156
 30
0.0
 10
-156.8817
 20
1.2188
 30
0.0
 10
-156.8817
 20
1.2188
 30
0.0
 10
-156.0608
 20
2.222
 30
0.0
 10
-153.1423
 20
3.4077
 30
0.0
 10
-153.1423
 20
3.4077
 30
0.0
 10
-153.1423
 20
3.4077
 30
0.0
 10
-159.4354
 20
5.2317
 30
0.0
 10
-159.5266
 20
11.7072
 30
0.0
 10
-159.5266
 20
11.7072
 30
0.0
 10
-159.5266
 20
11.7072
 30
0.0
 10
-159.5266
 20
11.7072
 30
0.0
 10
-164.7252
 20
13.4401
 30
0.0
 10
-165.7284
 20
17.9091
 30
0.0
 10
-165.7284
 20
17.9091
 30
0.0
 10
-165.9071
 20
18.705
 30
0.0
 10
-169.0118
 20
14.2609
 30
0.0
 10
-164.4516
 20
10.1568
 30
0.0
  0
SPLINE
  5
46
330
1F
100
AcDbEntity
  8
layer 1
 62
     7
370
     9
100
AcDbSpline
210
0.0
220
0.0
230
1.0
 70
    11
 71
     3
 72
    20
 73
    16
 74
     0
 42
0.0000000001
 43
0.0000000001
 12
1.0
 22
0.0
 32
0.0
 13
1.0
 23
0.0
 33
0.0
 40
0.0
 40
0.0
 40
0.0
 40
0.0
 40
0.2
 40
0.2
 40
0.2
 40
0.2
 40
0.4
 40
0.4
 40
0.4
 40
0.4
 40
0.6
 40
0.6
 40
0.6
 40
0.6
 40
1.0
 40
1.0
 40
1.0
 40
1.0
 10
-174.028
 20
9.4271
 30
0.0
 10
-172.3863
 20
10.8864
 30
0.0
 10
-168.0997
 20
11.16
 30
0.0
 10
-168.0997
 20
11.16
 30
0.0
 10
-168.0997
 20
11.16
 30
0.0
 10
-168.9206
 20
12.2545
 30
0.0
 10
-168.5558
 20
14.717
 30
0.0
 10
-168.5558
 20
14.717
 30
0.0
 10
-168.5558
 20
14.717
 30
0.0
 10
-169.559
 20
13.1665
 30
0.0
 10
-173.5719
 20
11.0688
 30
0.0
 10
-173.5719
 20
11.0688
 30
0.0
 10
-173.5719
 20
11.0688
 30
0.0
 10
-173.7544
 20
10.1568
 30
0.0
 10
-174.028
 20
9.4271
 30
0.0
 10
-174.028
 20
9.4271
 30
0.0
  0
SPLINE
  5
47
330
1F
100
AcDbEntity
  8
layer 1
 62
     7
370
     9
100
AcDbSpline
210
0.0
220
0.0
230
1.0
 70
    11
 71
     3
 72
    32
 73
    28
 74
     0
 42
0.0000000001
 43
0.0000000001
 12
1.0
 22
0.0
 32
0.0
 13
1.0
 23
0.0
 33
0.0
 40
0.0
 40
0.0
 40
0.0
 40
0.0
 40
0.125
 40
0.125
 40
0.125
 40
0.125
 40
0.25
 40
0.25
 40
0.25
 40
0.25
 40
0.375
 40
0.375
 40
0.375
 40
0.375
 40
0.5
 40
0.5
 40
0.5
 40
0.5
 40
0.625
 40
0.625
 40
0.625
 40
0.625
 40
0.75
 40
0.75
 40
0.75
 40
0.75
 40
1.0
 40
1.0
 40
1.0
 40
1.0
 10
-170.3798
 20
-3.3414
 30
0.0
 10
-167.4613
 20
-3.7062
 30
0.0
 10
-166.9141
 20
-1.7909
 30
0.0
 10
-166.9141
 20
-1.7909
 30
0.0
 10
-166.9141
 20
-1.7909
 30
0.0
 10
-168.0997
 20
-2.7942
 30
0.0
 10
-168.9206
 20
-2.2469
 30
0.0
 10
-168.9206
 20
-2.2469
 30
0.0
 10
-168.9206
 20
-2.2469
 30
0.0
 10
-168.9206
 20
-2.2469
 30
0.0
 10
-174.484
 20
-0.6965
 30
0.0
 10
-172.2039
 20
4.0461
 30
0.0
 10
-172.2039
 20
4.0461
 30
0.0
 10
-167.1877
 20
9.2447
 30
0.0
 10
-161.077
 20
4.5021
 30
0.0
 10
-161.077
 20
4.5021
 30
0.0
 10
-161.077
 20
4.5021
 30
0.0
 10
-163.4483
 20
9.792
 30
0.0
 10
-168.9206
 20
8.7887
 30
0.0
 10
-168.9206
 20
8.7887
 30
0.0
 10
-168.9206
 20
8.7887
 30
0.0
 10
-168.9206
 20
8.7887
 30
0.0
 10
-174.028
 20
8.4239
 30
0.0
 10
-175.396
 20
4.0461
 30
0.0
 10
-175.396
 20
4.0461
 30
0.0
 10
-176.7641
 20
-0.3317
 30
0.0
 10
-173.2983
 20
-2.9766
 30
0.0
 10
-170.3798
 20
-3.3414
 30
0.0
  0
SPLINE
  5
48
330
1F
100
AcDbEntity
  8
layer 1
 62
     7
370
     9
100
AcDbSpline
210
0.0
220
0.0
230
1.0
 70
    11
 71
     3
 72
    20
 73
    16
 74
     0
 42
0.0000000001
 43
0.0000000001
 12
1.0
 22
0.0
 32
0.0
 13
1.0
 23
0.0
 33
0.0
 40
0.0
 40
0.0
 40
0.0
 40
0.0
 40
0.2
 40
0.2
 40
0.2
 40
0.2
 40
0.4
 40
0.4
 40
0.4
 40
0.4
 40
0.6
 40
0.6
 40
0.6
 40
0.6
 40
1.0
 40
1.0
 40
1.0
 40
1.0
 10
-168.0997
 20
3.8637
 30
0.0
 10
-169.359
 20
3.8637
 30
0.0
 10
-170.3798
 20
2.8429
 30
0.0
 10
-170.3798
 20
1.5836
 30
0.0
 10
-170.3798
 20
1.5836
 30
0.0
 10
-170.3798
 20
0.3244
 30
0.0
 10
-169.359
 20
-0.6965
 30
0.0
 10
-168.0997
 20
-0.6965
 30
0.0
 10
-168.0997
 20
-0.6965
 30
0.0
 10
-166.8405
 20
-0.6965
 30
0.0
 10
-165.8196
 20
0.3244
 30
0.0
 10
-165.8196
 20
1.5836
 30
0.0
 10
-165.8196
 20
1.5836
 30
0.0
 10
-165.8196
 20
2.8429
 30
0.0
 10
-166.8405
 20
3.8637
 30
0.0
 10
-168.0997
 20
3.8637
 30
0.0
  0
SPLINE
  5
49
330
1F
100
AcDbEntity
  8
layer 1
 62
     7
370
     9
100
AcDbSpline
210
0.0
220
0.0
230
1.0
 70
    11
 71
     3
 72
    20
 73
    16
 74
     0
 42
0.0000000001
 43
0.0000000001
 12
1.0
 22
0.0
 32
0.0
 13
1.0
 23
0.0
 33
0.0
 40
0.0
 40
0.0
 40
0.0
 40
0.0
 40
0.2
 40
0.2
 40
0.2
 40
0.2
 40
0.4
 40
0.4
 40
0.4
 40
0.4
 40
0.6
 40
0.6
 40
0.6
 40
0.6
 40
1.0
 40
1.0
 40
1.0
 40
1.0
 10
-163.8131
 20
-1.5173
 30
0.0
 10
-163.8131
 20
-1.5173
 30
0.0
 10
-166.002
 20
-6.6247
 30
0.0
 10
-171.7479
 20
-5.3479
 30
0.0
 10
-171.7479
 20
-5.3479
 30
0.0
 10
-171.7479
 20
-5.3479
 30
0.0
 10
-173.2071
 20
-6.8071
 30
0.0
 10
-173.7544
 20
-6.8071
 30
0.0
 10
-173.7544
 20
-6.8071
 30
0.0
 10
-173.7544
 20
-6.8071
 30
0.0
 10
-171.4743
 20
-9.8169
 30
0.0
 10
-172.5687
 20
-14.7419
 30
0.0
 10
-172.5687
 20
-14.7419
 30
0.0
 10
-172.5687
 20
-14.7419
 30
0.0
 10
-163.9044
 20
-9.452
 30
0.0
 10
-163.8131
 20
-1.5173
 30
0.0
  0
SPLINE
  5
4A
330
1F
100
AcDbEntity
  8
layer 1
 62
     7
370
     9
100
AcDbSpline
210
0.0
220
0.0
230
1.0
 70
    11
 71
     3
 72
    28
 73
    24
 74
     0
 42
0.0000000001
 43
0.0000000001
 12
1.0
 22
0.0
 32
0.0
 13
1.0
 23
0.0
 33
0.0
 40
0.0
 40
0.0
 40
0.0
 40
0.0
 40
0.1428571428571428
 40
0.1428571428571428
 40
0.1428571428571428
 40
0.1428571428571428
 40
0.2857142857142857
 40
0.2857142857142857
 40
0.2857142857142857
 40
0.2857142857142857
 40
0.4285714285714285
 40
0.4285714285714285
 40
0.4285714285714285
 40
0.4285714285714285
 40
0.5714285714285714
 40
0.5714285714285714
 40
0.5714285714285714
 40
0.5714285714285714
 40
0.7142857142857143
 40
0.7142857142857143
 40
0.7142857142857143
 40
0.7142857142857143
 40
1.0
 40
1.0
 40
1.0
 40
1.0
 10
-164.2691
 20
4.0461
 30
0.0
 10
-164.2691
 20
4.0461
 30
0.0
 10
-156.3344
 20
-4.8919
 30
0.0
 10
-168.3733
 20
-14.1034
 30
0.0
 10
-168.3733
 20
-14.1034
 30
0.0
 10
-180.6858
 20
-23.9534
 30
0.0
 10
-180.2298
 20
-26.2335
 30
0.0
 10
-180.9594
 20
-28.696
 30
0.0
 10
-180.9594
 20
-28.696
 30
0.0
 10
-180.9594
 20
-28.696
 30
0.0
 10
-181.7803
 20
-35.2627
 30
0.0
 10
-178.2233
 20
-37.4516
 30
0.0
 10
-178.2233
 20
-37.4516
 30
0.0
 10
-178.2233
 20
-37.4516
 30
0.0
 10
-180.1386
 20
-30.9761
 30
0.0
 10
-177.4025
 20
-25.8687
 30
0.0
 10
-177.4025
 20
-25.8687
 30
0.0
 10
-174.6664
 20
-20.7613
 30
0.0
 10
-166.3784
 20
-16.0957
 30
0.0
 10
-164.3604
 20
-14.4682
 30
0.0
 10
-164.3604
 20
-14.4682
 30
0.0
 10
-161.533
 20
-12.1882
 30
0.0
 10
-151.683
 20
0.4892
 30
0.0
 10
-164.2691
 20
4.0461
 30
0.0
  0
SPLINE
  5
4B
330
1F
100
AcDbEntity
  8
layer 1
 62
     7
370
     9
100
AcDbSpline
210
0.0
220
0.0
230
1.0
 70
    11
 71
     3
 72
    24
 73
    20
 74
     0
 42
0.0000000001
 43
0.0000000001
 12
1.0
 22
0.0
 32
0.0
 13
1.0
 23
0.0
 33
0.0
 40
0.0
 40
0.0
 40
0.0
 40
0.0
 40
0.1666666666666667
 40
0.1666666666666667
 40
0.1666666666666667
 40
0.1666666666666667
 40
0.3333333333333333
 40
0.3333333333333333
 40
0.3333333333333333
 40
0.3333333333333333
 40
0.5
 40
0.5
 40
0.5
 40
0.5
 40
0.6666666666666666
 40
0.6666666666666666
 40
0.6666666666666666
 40
0.6666666666666666
 40
1.0
 40
1.0
 40
1.0
 40
1.0
 10
-175.7608
 20
-5.4391
 30
0.0
 10
-174.94
 20
-4.983
 30
0.0
 10
-174.3016
 20
-3.9798
 30
0.0
 10
-174.3016
 20
-3.9798
 30
0.0
 10
-174.3016
 20
-3.9798
 30
0.0
 10
-177.5849
 20
-2.703
 30
0.0
 10
-177.5849
 20
2.3132
 30
0.0
 10
-177.5849
 20
2.3132
 30
0.0
 10
-177.5849
 20
2.3132
 30
0.0
 10
-179.309
 20
-0.6178
 30
0.0
 10
-183.8799
 20
-2.4089
 30
0.0
 10
-184.7611
 20
-4.7529
 30
0.0
 10
-184.7611
 20
-4.7529
 30
0.0
 10
-184.7611
 20
-4.7529
 30
0.0
 10
-184.7611
 20
-5.107
 30
0.0
 10
-184.7611
 20
-5.107
 30
0.0
 10
-184.7611
 20
-5.107
 30
0.0
 10
-179.8884
 20
-2.6608
 30
0.0
 10
-175.7608
 20
-5.4391
 30
0.0
 10
-175.7608
 20
-5.4391
 30
0.0
  0
SPLINE
  5
4C
330
1F
100
AcDbEntity
  8
layer 1
 62
     7
370
     9
100
AcDbSpline
210
0.0
220
0.0
230
1.0
 70
    11
 71
     3
 72
    32
 73
    28
 74
     0
 42
0.0000000001
 43
0.0000000001
 12
1.0
 22
0.0
 32
0.0
 13
1.0
 23
0.0
 33
0.0
 40
0.0
 40
0.0
 40
0.0
 40
0.0
 40
0.125
 40
0.125
 40
0.125
 40
0.125
 40
0.25
 40
0.25
 40
0.25
 40
0.25
 40
0.375
 40
0.375
 40
0.375
 40
0.375
 40
0.5
 40
0.5
 40
0.5
 40
0.5
 40
0.625
 40
0.625
 40
0.625
 40
0.625
 40
0.75
 40
0.75
 40
0.75
 40
0.75
 40
1.0
 40
1.0
 40
1.0
 40
1.0
 10
-177.5849
 20
-9.7257
 30
0.0
 10
-180.0474
 20
-6.3511
 30
0.0
 10
-183.5131
 20
-8.6312
 30
0.0
 10
-183.5131
 20
-8.6312
 30
0.0
 10
-183.5131
 20
-8.6312
 30
0.0
 10
-183.5131
 20
-8.6312
 30
0.0
 10
-184.1516
 20
-9.6344
 30
0.0
 10
-183.1483
 20
-9.2696
 30
0.0
 10
-183.1483
 20
-9.2696
 30
0.0
 10
-179.2266
 20
-7.9928
 30
0.0
 10
-179.2266
 20
-12.0969
 30
0.0
 10
-179.2266
 20
-12.0969
 30
0.0
 10
-179.2266
 20
-12.0969
 30
0.0
 10
-179.1478
 20
-16.3512
 30
0.0
 10
-183.5578
 20
-16.318
 30
0.0
 10
-184.7611
 20
-16.2301
 30
0.0
 10
-184.7611
 20
-16.2301
 30
0.0
 10
-184.7611
 20
-16.2301
 30
0.0
 10
-184.7611
 20
-23.9638
 30
0.0
 10
-184.7611
 20
-23.9638
 30
0.0
 10
-184.7611
 20
-23.9638
 30
0.0
 10
-183.5804
 20
-21.1026
 30
0.0
 10
-181.9312
 20
-19.4319
 30
0.0
 10
-181.4155
 20
-18.5724
 30
0.0
 10
-181.4155
 20
-18.5724
 30
0.0
 10
-180.8682
 20
-17.6604
 30
0.0
 10
-175.1224
 20
-13.1002
 30
0.0
 10
-177.5849
 20
-9.7257
 30
0.0
  0
SPLINE
  5
4D
330
1F
100
AcDbEntity
  8
layer 1
 62
     7
370
     9
100
AcDbSpline
210
0.0
220
0.0
230
1.0
 70
    11
 71
     3
 72
    28
 73
    24
 74
     0
 42
0.0000000001
 43
0.0000000001
 12
1.0
 22
0.0
 32
0.0
 13
1.0
 23
0.0
 33
0.0
 40
0.0
 40
0.0
 40
0.0
 40
0.0
 40
0.1428571428571428
 40
0.1428571428571428
 40
0.1428571428571428
 40
0.1428571428571428
 40
0.2857142857142857
 40
0.2857142857142857
 40
0.2857142857142857
 40
0.2857142857142857
 40
0.4285714285714285
 40
0.4285714285714285
 40
0.4285714285714285
 40
0.4285714285714285
 40
0.5714285714285714
 40
0.5714285714285714
 40
0.5714285714285714
 40
0.5714285714285714
 40
0.7142857142857143
 40
0.7142857142857143
 40
0.7142857142857143
 40
0.7142857142857143
 40
1.0
 40
1.0
 40
1.0
 40
1.0
 10
-167.6437
 20
-19.2108
 30
0.0
 10
-162.9923
 20
-18.846
 30
0.0
 10
-160.9858
 20
-20.3965
 30
0.0
 10
-160.9858
 20
-20.3965
 30
0.0
 10
-160.9858
 20
-20.3965
 30
0.0
 10
-160.9858
 20
-20.3965
 30
0.0
 10
-159.5266
 20
-20.6701
 30
0.0
 10
-160.4386
 20
-19.9405
 30
0.0
 10
-160.4386
 20
-19.9405
 30
0.0
 10
-161.3507
 20
-19.2108
 30
0.0
 10
-161.6243
 20
-17.3868
 30
0.0
 10
-160.3474
 20
-15.4715
 30
0.0
 10
-160.3474
 20
-15.4715
 30
0.0
 10
-159.0705
 20
-13.5562
 30
0.0
 10
-155.0576
 20
-14.0122
 30
0.0
 10
-155.0576
 20
-14.0122
 30
0.0
 10
-155.0576
 20
-14.0122
 30
0.0
 10
-155.696
 20
-13.3738
 30
0.0
 10
-157.7025
 20
-10.0905
 30
0.0
 10
-157.7025
 20
-10.0905
 30
0.0
 10
-157.7025
 20
-10.0905
 30
0.0
 10
-159.8914
 20
-14.1034
 30
0.0
 10
-163.8131
 20
-17.2956
 30
0.0
 10
-167.6437
 20
-19.2108
 30
0.0
  0
SPLINE
  5
4E
330
1F
100
AcDbEntity
  8
layer 1
 62
     7
370
     9
100
AcDbSpline
210
0.0
220
0.0
230
1.0
 70
    11
 71
     3
 72
    32
 73
    28
 74
     0
 42
0.0000000001
 43
0.0000000001
 12
1.0
 22
0.0
 32
0.0
 13
1.0
 23
0.0
 33
0.0
 40
0.0
 40
0.0
 40
0.0
 40
0.0
 40
0.125
 40
0.125
 40
0.125
 40
0.125
 40
0.25
 40
0.25
 40
0.25
 40
0.25
 40
0.375
 40
0.375
 40
0.375
 40
0.375
 40
0.5
 40
0.5
 40
0.5
 40
0.5
 40
0.625
 40
0.625
 40
0.625
 40
0.625
 40
0.75
 40
0.75
 40
0.75
 40
0.75
 40
1.0
 40
1.0
 40
1.0
 40
1.0
 10
-155.7872
 20
-6.5335
 30
0.0
 10
-154.2368
 20
-12.4618
 30
0.0
 10
-150.2238
 20
-15.0155
 30
0.0
 10
-150.2238
 20
-15.0155
 30
0.0
 10
-150.2238
 20
-15.0155
 30
0.0
 10
-151.0446
 20
-8.996
 30
0.0
 10
-146.6669
 20
-5.6215
 30
0.0
 10
-146.6669
 20
-5.6215
 30
0.0
 10
-146.6669
 20
-5.6215
 30
0.0
 10
-146.302
 20
-4.7094
 30
0.0
 10
-147.4877
 20
-5.4391
 30
0.0
 10
-147.4877
 20
-5.4391
 30
0.0
 10
-147.4877
 20
-5.4391
 30
0.0
 10
-147.4877
 20
-5.4391
 30
0.0
 10
-151.5919
 20
-7.0808
 30
0.0
 10
-152.7775
 20
-3.7062
 30
0.0
 10
-152.7775
 20
-3.7062
 30
0.0
 10
-152.8687
 20
0.0331
 30
0.0
 10
-149.5854
 20
-0.5141
 30
0.0
 10
-149.5854
 20
-0.5141
 30
0.0
 10
-149.5854
 20
-0.5141
 30
0.0
 10
-149.5854
 20
-0.5141
 30
0.0
 10
-148.9469
 20
-0.0581
 30
0.0
 10
-149.7678
 20
0.1244
 30
0.0
 10
-149.7678
 20
0.1244
 30
0.0
 10
-151.7743
 20
1.4924
 30
0.0
 10
-157.3377
 20
-0.6053
 30
0.0
 10
-155.7872
 20
-6.5335
 30
0.0
  0
SPLINE
  5
4F
330
1F
100
AcDbEntity
  8
layer 1
 62
     7
370
     9
100
AcDbSpline
210
0.0
220
0.0
230
1.0
 70
    11
 71
     3
 72
    20
 73
    16
 74
     0
 42
0.0000000001
 43
0.0000000001
 12
1.0
 22
0.0
 32
0.0
 13
1.0
 23
0.0
 33
0.0
 40
0.0
 40
0.0
 40
0.0
 40
0.0
 40
0.2
 40
0.2
 40
0.2
 40
0.2
 40
0.4
 40
0.4
 40
0.4
 40
0.4
 40
0.6
 40
0.6
 40
0.6
 40
0.6
 40
1.0
 40
1.0
 40
1.0
 40
1.0
 10
-145.7548
 20
-13.6474
 30
0.0
 10
-147.3053
 20
-20.1229
 30
0.0
 10
-144.0219
 20
-22.403
 30
0.0
 10
-144.0219
 20
-22.403
 30
0.0
 10
-144.0219
 20
-22.403
 30
0.0
 10
-143.9307
 20
-16.6571
 30
0.0
 10
-142.6539
 20
-16.2011
 30
0.0
 10
-141.377
 20
-14.5594
 30
0.0
 10
-141.377
 20
-14.5594
 30
0.0
 10
-144.1131
 20
-13.1914
 30
0.0
 10
-143.5659
 20
-8.9048
 30
0.0
 10
-143.5659
 20
-8.9048
 30
0.0
 10
-143.5659
 20
-8.9048
 30
0.0
 10
-143.5659
 20
-8.9048
 30
0.0
 10
-144.2044
 20
-7.1719
 30
0.0
 10
-145.7548
 20
-13.6474
 30
0.0
  0
SPLINE
  5
50
330
1F
100
AcDbEntity
  8
layer 1
 62
     7
370
     9
100
AcDbSpline
210
0.0
220
0.0
230
1.0
 70
    11
 71
     3
 72
    32
 73
    28
 74
     0
 42
0.0000000001
 43
0.0000000001
 12
1.0
 22
0.0
 32
0.0
 13
1.0
 23
0.0
 33
0.0
 40
0.0
 40
0.0
 40
0.0
 40
0.0
 40
0.125
 40
0.125
 40
0.125
 40
0.125
 40
0.25
 40
0.25
 40
0.25
 40
0.25
 40
0.375
 40
0.375
 40
0.375
 40
0.375
 40
0.5
 40
0.5
 40
0.5
 40
0.5
 40
0.625
 40
0.625
 40
0.625
 40
0.625
 40
0.75
 40
0.75
 40
0.75
 40
0.75
 40
1.0
 40
1.0
 40
1.0
 40
1.0
 10
-98.4201
 20
14.2609
 30
0.0
 10
-101.977
 20
16.2674
 30
0.0
 10
-104.5307
 20
16.9058
 30
0.0
 10
-107.9965
 20
14.0785
 30
0.0
 10
-107.9965
 20
14.0785
 30
0.0
 10
-107.9965
 20
14.0785
 30
0.0
 10
-110.0941
 20
11.9808
 30
0.0
 10
-109.0909
 20
9.792
 30
0.0
 10
-109.0909
 20
9.792
 30
0.0
 10
-108.3613
 20
8.6519
 30
0.0
 10
-107.9053
 20
8.7887
 30
0.0
 10
-107.9053
 20
8.7887
 30
0.0
 10
-107.9053
 20
8.7887
 30
0.0
 10
-107.9053
 20
8.7887
 30
0.0
 10
-107.6316
 20
14.8993
 30
0.0
 10
-101.1562
 20
12.3456
 30
0.0
 10
-101.1562
 20
12.3456
 30
0.0
 10
-98.1465
 20
10.6128
 30
0.0
 10
-99.0585
 20
8.0591
 30
0.0
 10
-99.0585
 20
8.0591
 30
0.0
 10
-99.0585
 20
8.0591
 30
0.0
 10
-99.0585
 20
8.0591
 30
0.0
 10
-96.596
 20
5.5053
 30
0.0
 10
-96.596
 20
5.5053
 30
0.0
 10
-96.596
 20
5.5053
 30
0.0
 10
-96.596
 20
5.5053
 30
0.0
 10
-94.8631
 20
12.2545
 30
0.0
 10
-98.4201
 20
14.2609
 30
0.0
  0
SPLINE
  5
51
330
1F
100
AcDbEntity
  8
layer 1
 62
     7
370
     9
100
AcDbSpline
210
0.0
220
0.0
230
1.0
 70
    11
 71
     3
 72
    24
 73
    20
 74
     0
 42
0.0000000001
 43
0.0000000001
 12
1.0
 22
0.0
 32
0.0
 13
1.0
 23
0.0
 33
0.0
 40
0.0
 40
0.0
 40
0.0
 40
0.0
 40
0.1666666666666667
 40
0.1666666666666667
 40
0.1666666666666667
 40
0.1666666666666667
 40
0.3333333333333333
 40
0.3333333333333333
 40
0.3333333333333333
 40
0.3333333333333333
 40
0.5
 40
0.5
 40
0.5
 40
0.5
 40
0.6666666666666666
 40
0.6666666666666666
 40
0.6666666666666666
 40
0.6666666666666666
 40
1.0
 40
1.0
 40
1.0
 40
1.0
 10
-100.7002
 20
-2.2013
 30
0.0
 10
-99.1954
 20
-0.8789
 30
0.0
 10
-97.5537
 20
4.1829
 30
0.0
 10
-97.5537
 20
4.3653
 30
0.0
 10
-97.5537
 20
4.3653
 30
0.0
 10
-97.5537
 20
4.5477
 30
0.0
 10
-99.1954
 20
6.9646
 30
0.0
 10
-99.1954
 20
6.9646
 30
0.0
 10
-99.1954
 20
6.9646
 30
0.0
 10
-99.1954
 20
6.9646
 30
0.0
 10
-99.3777
 20
6.919
 30
0.0
 10
-99.3777
 20
6.919
 30
0.0
 10
-99.3777
 20
6.919
 30
0.0
 10
-99.3777
 20
6.919
 30
0.0
 10
-101.3842
 20
3.5901
 30
0.0
 10
-103.8467
 20
2.8605
 30
0.0
 10
-103.8467
 20
2.8605
 30
0.0
 10
-101.7947
 20
2.45
 30
0.0
 10
-99.8337
 20
0.398
 30
0.0
 10
-100.7002
 20
-2.2013
 30
0.0
  0
SPLINE
  5
52
330
1F
100
AcDbEntity
  8
layer 1
 62
     7
370
     9
100
AcDbSpline
210
0.0
220
0.0
230
1.0
 70
    11
 71
     3
 72
    20
 73
    16
 74
     0
 42
0.0000000001
 43
0.0000000001
 12
1.0
 22
0.0
 32
0.0
 13
1.0
 23
0.0
 33
0.0
 40
0.0
 40
0.0
 40
0.0
 40
0.0
 40
0.2
 40
0.2
 40
0.2
 40
0.2
 40
0.4
 40
0.4
 40
0.4
 40
0.4
 40
0.6
 40
0.6
 40
0.6
 40
0.6
 40
1.0
 40
1.0
 40
1.0
 40
1.0
 10
-117.9377
 20
21.1924
 30
0.0
 10
-119.6705
 20
16.3586
 30
0.0
 10
-114.5631
 20
13.1665
 30
0.0
 10
-114.5631
 20
13.1665
 30
0.0
 10
-114.5631
 20
13.1665
 30
0.0
 10
-114.3808
 20
16.1762
 30
0.0
 10
-111.7358
 20
18.6387
 30
0.0
 10
-111.7358
 20
18.6387
 30
0.0
 10
-111.7358
 20
18.6387
 30
0.0
 10
-117.208
 20
19.7331
 30
0.0
 10
-113.8335
 20
24.3845
 30
0.0
 10
-113.8335
 20
24.3845
 30
0.0
 10
-113.8335
 20
24.3845
 30
0.0
 10
-117.3905
 20
23.7461
 30
0.0
 10
-117.9377
 20
21.1924
 30
0.0
 10
-117.9377
 20
21.1924
 30
0.0
  0
SPLINE
  5
53
330
1F
100
AcDbEntity
  8
layer 1
 62
     7
370
     9
100
AcDbSpline
210
0.0
220
0.0
230
1.0
 70
    11
 71
     3
 72
    24
 73
    20
 74
     0
 42
0.0000000001
 43
0.0000000001
 12
1.0
 22
0.0
 32
0.0
 13
1.0
 23
0.0
 33
0.0
 40
0.0
 40
0.0
 40
0.0
 40
0.0
 40
0.1666666666666667
 40
0.1666666666666667
 40
0.1666666666666667
 40
0.1666666666666667
 40
0.3333333333333333
 40
0.3333333333333333
 40
0.3333333333333333
 40
0.3333333333333333
 40
0.5
 40
0.5
 40
0.5
 40
0.5
 40
0.6666666666666666
 40
0.6666666666666666
 40
0.6666666666666666
 40
0.6666666666666666
 40
1.0
 40
1.0
 40
1.0
 40
1.0
 10
-114.8368
 20
11.7072
 30
0.0
 10
-114.8368
 20
11.7072
 30
0.0
 10
-120.0354
 20
13.4401
 30
0.0
 10
-121.0386
 20
17.9091
 30
0.0
 10
-121.0386
 20
17.9091
 30
0.0
 10
-121.2173
 20
18.705
 30
0.0
 10
-124.3219
 20
14.2609
 30
0.0
 10
-119.7617
 20
10.1568
 30
0.0
 10
-119.7617
 20
10.1568
 30
0.0
 10
-110.6414
 20
6.0526
 30
0.0
 10
-113.0127
 20
0.2156
 30
0.0
 10
-112.1919
 20
1.2188
 30
0.0
 10
-112.1919
 20
1.2188
 30
0.0
 10
-111.371
 20
2.222
 30
0.0
 10
-108.4525
 20
3.4077
 30
0.0
 10
-108.4525
 20
3.4077
 30
0.0
 10
-108.4525
 20
3.4077
 30
0.0
 10
-114.7455
 20
5.2317
 30
0.0
 10
-114.8368
 20
11.7072
 30
0.0
 10
-114.8368
 20
11.7072
 30
0.0
  0
SPLINE
  5
54
330
1F
100
AcDbEntity
  8
layer 1
 62
     7
370
     9
100
AcDbSpline
210
0.0
220
0.0
230
1.0
 70
    11
 71
     3
 72
    20
 73
    16
 74
     0
 42
0.0000000001
 43
0.0000000001
 12
1.0
 22
0.0
 32
0.0
 13
1.0
 23
0.0
 33
0.0
 40
0.0
 40
0.0
 40
0.0
 40
0.0
 40
0.2
 40
0.2
 40
0.2
 40
0.2
 40
0.4
 40
0.4
 40
0.4
 40
0.4
 40
0.6
 40
0.6
 40
0.6
 40
0.6
 40
1.0
 40
1.0
 40
1.0
 40
1.0
 10
-129.3381
 20
9.4271
 30
0.0
 10
-127.6965
 20
10.8864
 30
0.0
 10
-123.4099
 20
11.16
 30
0.0
 10
-123.4099
 20
11.16
 30
0.0
 10
-123.4099
 20
11.16
 30
0.0
 10
-124.2307
 20
12.2545
 30
0.0
 10
-123.8659
 20
14.717
 30
0.0
 10
-123.8659
 20
14.717
 30
0.0
 10
-123.8659
 20
14.717
 30
0.0
 10
-124.8691
 20
13.1665
 30
0.0
 10
-128.8821
 20
11.0688
 30
0.0
 10
-128.8821
 20
11.0688
 30
0.0
 10
-128.8821
 20
11.0688
 30
0.0
 10
-129.0645
 20
10.1568
 30
0.0
 10
-129.3381
 20
9.4271
 30
0.0
 10
-129.3381
 20
9.4271
 30
0.0
  0
SPLINE
  5
55
330
1F
100
AcDbEntity
  8
layer 1
 62
     7
370
     9
100
AcDbSpline
210
0.0
220
0.0
230
1.0
 70
    11
 71
     3
 72
    32
 73
    28
 74
     0
 42
0.0000000001
 43
0.0000000001
 12
1.0
 22
0.0
 32
0.0
 13
1.0
 23
0.0
 33
0.0
 40
0.0
 40
0.0
 40
0.0
 40
0.0
 40
0.125
 40
0.125
 40
0.125
 40
0.125
 40
0.25
 40
0.25
 40
0.25
 40
0.25
 40
0.375
 40
0.375
 40
0.375
 40
0.375
 40
0.5
 40
0.5
 40
0.5
 40
0.5
 40
0.625
 40
0.625
 40
0.625
 40
0.625
 40
0.75
 40
0.75
 40
0.75
 40
0.75
 40
1.0
 40
1.0
 40
1.0
 40
1.0
 10
-125.69
 20
-3.3414
 30
0.0
 10
-122.7715
 20
-3.7062
 30
0.0
 10
-122.2243
 20
-1.7909
 30
0.0
 10
-122.2243
 20
-1.7909
 30
0.0
 10
-122.2243
 20
-1.7909
 30
0.0
 10
-123.4099
 20
-2.7942
 30
0.0
 10
-124.2307
 20
-2.2469
 30
0.0
 10
-124.2307
 20
-2.2469
 30
0.0
 10
-124.2307
 20
-2.2469
 30
0.0
 10
-124.2307
 20
-2.2469
 30
0.0
 10
-129.7941
 20
-0.6965
 30
0.0
 10
-127.5141
 20
4.0461
 30
0.0
 10
-127.5141
 20
4.0461
 30
0.0
 10
-122.4979
 20
9.2447
 30
0.0
 10
-116.3872
 20
4.5021
 30
0.0
 10
-116.3872
 20
4.5021
 30
0.0
 10
-116.3872
 20
4.5021
 30
0.0
 10
-118.7585
 20
9.792
 30
0.0
 10
-124.2307
 20
8.7887
 30
0.0
 10
-124.2307
 20
8.7887
 30
0.0
 10
-124.2307
 20
8.7887
 30
0.0
 10
-124.2307
 20
8.7887
 30
0.0
 10
-129.3381
 20
8.4239
 30
0.0
 10
-130.7062
 20
4.0461
 30
0.0
 10
-130.7062
 20
4.0461
 30
0.0
 10
-132.0743
 20
-0.3317
 30
0.0
 10
-128.6085
 20
-2.9766
 30
0.0
 10
-125.69
 20
-3.3414
 30
0.0
  0
SPLINE
  5
56
330
1F
100
AcDbEntity
  8
layer 1
 62
     7
370
     9
100
AcDbSpline
210
0.0
220
0.0
230
1.0
 70
    11
 71
     3
 72
    20
 73
    16
 74
     0
 42
0.0000000001
 43
0.0000000001
 12
1.0
 22
0.0
 32
0.0
 13
1.0
 23
0.0
 33
0.0
 40
0.0
 40
0.0
 40
0.0
 40
0.0
 40
0.2
 40
0.2
 40
0.2
 40
0.2
 40
0.4
 40
0.4
 40
0.4
 40
0.4
 40
0.6
 40
0.6
 40
0.6
 40
0.6
 40
1.0
 40
1.0
 40
1.0
 40
1.0
 10
-123.4099
 20
3.8637
 30
0.0
 10
-124.6692
 20
3.8637
 30
0.0
 10
-125.69
 20
2.8429
 30
0.0
 10
-125.69
 20
1.5836
 30
0.0
 10
-125.69
 20
1.5836
 30
0.0
 10
-125.69
 20
0.3244
 30
0.0
 10
-124.6692
 20
-0.6965
 30
0.0
 10
-123.4099
 20
-0.6965
 30
0.0
 10
-123.4099
 20
-0.6965
 30
0.0
 10
-122.1506
 20
-0.6965
 30
0.0
 10
-121.1298
 20
0.3244
 30
0.0
 10
-121.1298
 20
1.5836
 30
0.0
 10
-121.1298
 20
1.5836
 30
0.0
 10
-121.1298
 20
2.8429
 30
0.0
 10
-122.1506
 20
3.8637
 30
0.0
 10
-123.4099
 20
3.8637
 30
0.0
  0
SPLINE
  5
57
330
1F
100
AcDbEntity
  8
layer 1
 62
     7
370
     9
100
AcDbSpline
210
0.0
220
0.0
230
1.0
 70
    11
 71
     3
 72
    20
 73
    16
 74
     0
 42
0.0000000001
 43
0.0000000001
 12
1.0
 22
0.0
 32
0.0
 13
1.0
 23
0.0
 33
0.0
 40
0.0
 40
0.0
 40
0.0
 40
0.0
 40
0.2
 40
0.2
 40
0.2
 40
0.2
 40
0.4
 40
0.4
 40
0.4
 40
0.4
 40
0.6
 40
0.6
 40
0.6
 40
0.6
 40
1.0
 40
1.0
 40
1.0
 40
1.0
 10
-119.1233
 20
-1.5173
 30
0.0
 10
-119.1233
 20
-1.5173
 30
0.0
 10
-121.3122
 20
-6.6247
 30
0.0
 10
-127.0581
 20
-5.3479
 30
0.0
 10
-127.0581
 20
-5.3479
 30
0.0
 10
-127.0581
 20
-5.3479
 30
0.0
 10
-128.5173
 20
-6.8071
 30
0.0
 10
-129.0645
 20
-6.8071
 30
0.0
 10
-129.0645
 20
-6.8071
 30
0.0
 10
-129.0645
 20
-6.8071
 30
0.0
 10
-126.7844
 20
-9.8169
 30
0.0
 10
-127.8789
 20
-14.7419
 30
0.0
 10
-127.8789
 20
-14.7419
 30
0.0
 10
-127.8789
 20
-14.7419
 30
0.0
 10
-119.2145
 20
-9.452
 30
0.0
 10
-119.1233
 20
-1.5173
 30
0.0
  0
SPLINE
  5
58
330
1F
100
AcDbEntity
  8
layer 1
 62
     7
370
     9
100
AcDbSpline
210
0.0
220
0.0
230
1.0
 70
    11
 71
     3
 72
    28
 73
    24
 74
     0
 42
0.0000000001
 43
0.0000000001
 12
1.0
 22
0.0
 32
0.0
 13
1.0
 23
0.0
 33
0.0
 40
0.0
 40
0.0
 40
0.0
 40
0.0
 40
0.1428571428571428
 40
0.1428571428571428
 40
0.1428571428571428
 40
0.1428571428571428
 40
0.2857142857142857
 40
0.2857142857142857
 40
0.2857142857142857
 40
0.2857142857142857
 40
0.4285714285714285
 40
0.4285714285714285
 40
0.4285714285714285
 40
0.4285714285714285
 40
0.5714285714285714
 40
0.5714285714285714
 40
0.5714285714285714
 40
0.5714285714285714
 40
0.7142857142857143
 40
0.7142857142857143
 40
0.7142857142857143
 40
0.7142857142857143
 40
1.0
 40
1.0
 40
1.0
 40
1.0
 10
-119.5794
 20
4.0461
 30
0.0
 10
-119.5794
 20
4.0461
 30
0.0
 10
-111.6446
 20
-4.8919
 30
0.0
 10
-123.6835
 20
-14.1034
 30
0.0
 10
-123.6835
 20
-14.1034
 30
0.0
 10
-135.996
 20
-23.9534
 30
0.0
 10
-135.54
 20
-26.2335
 30
0.0
 10
-136.2696
 20
-28.696
 30
0.0
 10
-136.2696
 20
-28.696
 30
0.0
 10
-136.2696
 20
-28.696
 30
0.0
 10
-137.0905
 20
-35.2627
 30
0.0
 10
-133.5335
 20
-37.4516
 30
0.0
 10
-133.5335
 20
-37.4516
 30
0.0
 10
-133.5335
 20
-37.4516
 30
0.0
 10
-135.4488
 20
-30.9761
 30
0.0
 10
-132.7127
 20
-25.8687
 30
0.0
 10
-132.7127
 20
-25.8687
 30
0.0
 10
-129.9766
 20
-20.7613
 30
0.0
 10
-121.6886
 20
-16.0957
 30
0.0
 10
-119.6705
 20
-14.4682
 30
0.0
 10
-119.6705
 20
-14.4682
 30
0.0
 10
-116.8433
 20
-12.1882
 30
0.0
 10
-106.9933
 20
0.4892
 30
0.0
 10
-119.5794
 20
4.0461
 30
0.0
  0
SPLINE
  5
59
330
1F
100
AcDbEntity
  8
layer 1
 62
     7
370
     9
100
AcDbSpline
210
0.0
220
0.0
230
1.0
 70
    11
 71
     3
 72
    20
 73
    16
 74
     0
 42
0.0000000001
 43
0.0000000001
 12
1.0
 22
0.0
 32
0.0
 13
1.0
 23
0.0
 33
0.0
 40
0.0
 40
0.0
 40
0.0
 40
0.0
 40
0.2
 40
0.2
 40
0.2
 40
0.2
 40
0.4
 40
0.4
 40
0.4
 40
0.4
 40
0.6
 40
0.6
 40
0.6
 40
0.6
 40
1.0
 40
1.0
 40
1.0
 40
1.0
 10
-132.8951
 20
2.3132
 30
0.0
 10
-134.7192
 20
-0.7877
 30
0.0
 10
-139.7354
 20
-2.6118
 30
0.0
 10
-140.1914
 20
-5.1655
 30
0.0
 10
-140.1914
 20
-5.1655
 30
0.0
 10
-135.2664
 20
-2.6118
 30
0.0
 10
-131.071
 20
-5.4391
 30
0.0
 10
-131.071
 20
-5.4391
 30
0.0
 10
-131.071
 20
-5.4391
 30
0.0
 10
-130.2502
 20
-4.983
 30
0.0
 10
-129.6118
 20
-3.9798
 30
0.0
 10
-129.6118
 20
-3.9798
 30
0.0
 10
-129.6118
 20
-3.9798
 30
0.0
 10
-132.8951
 20
-2.703
 30
0.0
 10
-132.8951
 20
2.3132
 30
0.0
 10
-132.8951
 20
2.3132
 30
0.0
  0
SPLINE
  5
5A
330
1F
100
AcDbEntity
  8
layer 1
 62
     7
370
     9
100
AcDbSpline
210
0.0
220
0.0
230
1.0
 70
    11
 71
     3
 72
    40
 73
    36
 74
     0
 42
0.0000000001
 43
0.0000000001
 12
1.0
 22
0.0
 32
0.0
 13
1.0
 23
0.0
 33
0.0
 40
0.0
 40
0.0
 40
0.0
 40
0.0
 40
0.1
 40
0.1
 40
0.1
 40
0.1
 40
0.2
 40
0.2
 40
0.2
 40
0.2
 40
0.3
 40
0.3
 40
0.3
 40
0.3
 40
0.4
 40
0.4
 40
0.4
 40
0.4
 40
0.5
 40
0.5
 40
0.5
 40
0.5
 40
0.6
 40
0.6
 40
0.6
 40
0.6
 40
0.7
 40
0.7
 40
0.7
 40
0.7
 40
0.8
 40
0.8
 40
0.8
 40
0.8
 40
1.0
 40
1.0
 40
1.0
 40
1.0
 10
-136.7257
 20
-18.5724
 30
0.0
 10
-136.1784
 20
-17.6604
 30
0.0
 10
-130.4326
 20
-13.1002
 30
0.0
 10
-132.8951
 20
-9.7257
 30
0.0
 10
-132.8951
 20
-9.7257
 30
0.0
 10
-135.3576
 20
-6.3511
 30
0.0
 10
-138.8233
 20
-8.6312
 30
0.0
 10
-138.8233
 20
-8.6312
 30
0.0
 10
-138.8233
 20
-8.6312
 30
0.0
 10
-138.8233
 20
-8.6312
 30
0.0
 10
-139.4617
 20
-9.6344
 30
0.0
 10
-138.4585
 20
-9.2696
 30
0.0
 10
-138.4585
 20
-9.2696
 30
0.0
 10
-134.5368
 20
-7.9928
 30
0.0
 10
-134.5368
 20
-12.0969
 30
0.0
 10
-134.5368
 20
-12.0969
 30
0.0
 10
-134.5368
 20
-12.0969
 30
0.0
 10
-134.4455
 20
-17.0219
 30
0.0
 10
-140.3738
 20
-16.2011
 30
0.0
 10
-140.3738
 20
-16.2011
 30
0.0
 10
-140.3738
 20
-16.2011
 30
0.0
 10
-140.3738
 20
-16.2011
 30
0.0
 10
-141.3086
 20
-16.5659
 30
0.0
 10
-142.2663
 20
-20.0545
 30
0.0
 10
-142.2663
 20
-20.0545
 30
0.0
 10
-143.2239
 20
-24.5006
 30
0.0
 10
-140.1458
 20
-26.6895
 30
0.0
 10
-140.351
 20
-25.9371
 30
0.0
 10
-140.351
 20
-25.9371
 30
0.0
 10
-140.5562
 20
-25.1847
 30
0.0
 10
-140.2826
 20
-24.5006
 30
0.0
 10
-140.2826
 20
-24.5006
 30
0.0
 10
-140.2826
 20
-24.5006
 30
0.0
 10
-139.0969
 20
-21.3085
 30
0.0
 10
-137.2729
 20
-19.4844
 30
0.0
 10
-136.7257
 20
-18.5724
 30
0.0
  0
SPLINE
  5
5B
330
1F
100
AcDbEntity
  8
layer 1
 62
     7
370
     9
100
AcDbSpline
210
0.0
220
0.0
230
1.0
 70
    11
 71
     3
 72
    28
 73
    24
 74
     0
 42
0.0000000001
 43
0.0000000001
 12
1.0
 22
0.0
 32
0.0
 13
1.0
 23
0.0
 33
0.0
 40
0.0
 40
0.0
 40
0.0
 40
0.0
 40
0.1428571428571428
 40
0.1428571428571428
 40
0.1428571428571428
 40
0.1428571428571428
 40
0.2857142857142857
 40
0.2857142857142857
 40
0.2857142857142857
 40
0.2857142857142857
 40
0.4285714285714285
 40
0.4285714285714285
 40
0.4285714285714285
 40
0.4285714285714285
 40
0.5714285714285714
 40
0.5714285714285714
 40
0.5714285714285714
 40
0.5714285714285714
 40
0.7142857142857143
 40
0.7142857142857143
 40
0.7142857142857143
 40
0.7142857142857143
 40
1.0
 40
1.0
 40
1.0
 40
1.0
 10
-122.9539
 20
-19.2108
 30
0.0
 10
-118.3025
 20
-18.846
 30
0.0
 10
-116.296
 20
-20.3965
 30
0.0
 10
-116.296
 20
-20.3965
 30
0.0
 10
-116.296
 20
-20.3965
 30
0.0
 10
-116.296
 20
-20.3965
 30
0.0
 10
-114.8368
 20
-20.6701
 30
0.0
 10
-115.7488
 20
-19.9405
 30
0.0
 10
-115.7488
 20
-19.9405
 30
0.0
 10
-116.6608
 20
-19.2108
 30
0.0
 10
-116.9344
 20
-17.3868
 30
0.0
 10
-115.6576
 20
-15.4715
 30
0.0
 10
-115.6576
 20
-15.4715
 30
0.0
 10
-114.3808
 20
-13.5562
 30
0.0
 10
-110.3678
 20
-14.0122
 30
0.0
 10
-110.3678
 20
-14.0122
 30
0.0
 10
-110.3678
 20
-14.0122
 30
0.0
 10
-111.0062
 20
-13.3738
 30
0.0
 10
-113.0127
 20
-10.0905
 30
0.0
 10
-113.0127
 20
-10.0905
 30
0.0
 10
-113.0127
 20
-10.0905
 30
0.0
 10
-115.2016
 20
-14.1034
 30
0.0
 10
-119.1233
 20
-17.2956
 30
0.0
 10
-122.9539
 20
-19.2108
 30
0.0
  0
SPLINE
  5
5C
330
1F
100
AcDbEntity
  8
layer 1
 62
     7
370
     9
100
AcDbSpline
210
0.0
220
0.0
230
1.0
 70
    11
 71
     3
 72
    32
 73
    28
 74
     0
 42
0.0000000001
 43
0.0000000001
 12
1.0
 22
0.0
 32
0.0
 13
1.0
 23
0.0
 33
0.0
 40
0.0
 40
0.0
 40
0.0
 40
0.0
 40
0.125
 40
0.125
 40
0.125
 40
0.125
 40
0.25
 40
0.25
 40
0.25
 40
0.25
 40
0.375
 40
0.375
 40
0.375
 40
0.375
 40
0.5
 40
0.5
 40
0.5
 40
0.5
 40
0.625
 40
0.625
 40
0.625
 40
0.625
 40
0.75
 40
0.75
 40
0.75
 40
0.75
 40
1.0
 40
1.0
 40
1.0
 40
1.0
 10
-101.977
 20
-5.6215
 30
0.0
 10
-101.6122
 20
-4.7094
 30
0.0
 10
-102.7979
 20
-5.4391
 30
0.0
 10
-102.7979
 20
-5.4391
 30
0.0
 10
-102.7979
 20
-5.4391
 30
0.0
 10
-102.7979
 20
-5.4391
 30
0.0
 10
-106.902
 20
-7.0808
 30
0.0
 10
-108.0877
 20
-3.7062
 30
0.0
 10
-108.0877
 20
-3.7062
 30
0.0
 10
-108.1789
 20
0.0331
 30
0.0
 10
-104.8955
 20
-0.5141
 30
0.0
 10
-104.8955
 20
-0.5141
 30
0.0
 10
-104.8955
 20
-0.5141
 30
0.0
 10
-104.8955
 20
-0.5141
 30
0.0
 10
-104.2572
 20
-0.0581
 30
0.0
 10
-105.078
 20
0.1244
 30
0.0
 10
-105.078
 20
0.1244
 30
0.0
 10
-107.0844
 20
1.4924
 30
0.0
 10
-112.6479
 20
-0.6053
 30
0.0
 10
-111.0974
 20
-6.5335
 30
0.0
 10
-111.0974
 20
-6.5335
 30
0.0
 10
-109.5469
 20
-12.4618
 30
0.0
 10
-105.534
 20
-15.0155
 30
0.0
 10
-105.534
 20
-15.0155
 30
0.0
 10
-105.534
 20
-15.0155
 30
0.0
 10
-106.3548
 20
-8.996
 30
0.0
 10
-101.977
 20
-5.6215
 30
0.0
 10
-101.977
 20
-5.6215
 30
0.0
  0
SPLINE
  5
5D
330
1F
100
AcDbEntity
  8
layer 1
 62
     7
370
     9
100
AcDbSpline
210
0.0
220
0.0
230
1.0
 70
    11
 71
     3
 72
    20
 73
    16
 74
     0
 42
0.0000000001
 43
0.0000000001
 12
1.0
 22
0.0
 32
0.0
 13
1.0
 23
0.0
 33
0.0
 40
0.0
 40
0.0
 40
0.0
 40
0.0
 40
0.2
 40
0.2
 40
0.2
 40
0.2
 40
0.4
 40
0.4
 40
0.4
 40
0.4
 40
0.6
 40
0.6
 40
0.6
 40
0.6
 40
1.0
 40
1.0
 40
1.0
 40
1.0
 10
-98.8761
 20
-8.9048
 30
0.0
 10
-98.8761
 20
-8.9048
 30
0.0
 10
-99.5145
 20
-7.1719
 30
0.0
 10
-101.065
 20
-13.6474
 30
0.0
 10
-101.065
 20
-13.6474
 30
0.0
 10
-102.6155
 20
-20.1229
 30
0.0
 10
-99.3321
 20
-22.403
 30
0.0
 10
-99.3321
 20
-22.403
 30
0.0
 10
-99.3321
 20
-22.403
 30
0.0
 10
-99.2409
 20
-16.6571
 30
0.0
 10
-97.9641
 20
-16.2011
 30
0.0
 10
-96.6872
 20
-14.5594
 30
0.0
 10
-96.6872
 20
-14.5594
 30
0.0
 10
-99.4233
 20
-13.1914
 30
0.0
 10
-98.8761
 20
-8.9048
 30
0.0
 10
-98.8761
 20
-8.9048
 30
0.0
  0
SPLINE
  5
5E
330
1F
100
AcDbEntity
  8
layer 1
 62
     7
370
     9
100
AcDbSpline
210
0.0
220
0.0
230
1.0
 70
    11
 71
     3
 72
    16
 73
    12
 74
     0
 42
0.0000000001
 43
0.0000000001
 12
1.0
 22
0.0
 32
0.0
 13
1.0
 23
0.0
 33
0.0
 40
0.0
 40
0.0
 40
0.0
 40
0.0
 40
0.25
 40
0.25
 40
0.25
 40
0.25
 40
0.5
 40
0.5
 40
0.5
 40
0.5
 40
1.0
 40
1.0
 40
1.0
 40
1.0
 10
-84.8599
 20
-1.2303
 30
0.0
 10
-84.8599
 20
-1.2303
 30
0.0
 10
-84.8599
 20
5.927
 30
0.0
 10
-84.8599
 20
5.927
 30
0.0
 10
-84.8599
 20
5.927
 30
0.0
 10
-85.2607
 20
5.3996
 30
0.0
 10
-85.6034
 20
4.7842
 30
0.0
 10
-85.834
 20
4.0461
 30
0.0
 10
-85.834
 20
4.0461
 30
0.0
 10
-86.5329
 20
1.8095
 30
0.0
 10
-85.9668
 20
0.0287
 30
0.0
 10
-84.8599
 20
-1.2303
 30
0.0
  0
SPLINE
  5
5F
330
1F
100
AcDbEntity
  8
layer 1
 62
     7
370
     9
100
AcDbSpline
210
0.0
220
0.0
230
1.0
 70
    11
 71
     3
 72
    24
 73
    20
 74
     0
 42
0.0000000001
 43
0.0000000001
 12
1.0
 22
0.0
 32
0.0
 13
1.0
 23
0.0
 33
0.0
 40
0.0
 40
0.0
 40
0.0
 40
0.0
 40
0.1666666666666667
 40
0.1666666666666667
 40
0.1666666666666667
 40
0.1666666666666667
 40
0.3333333333333333
 40
0.3333333333333333
 40
0.3333333333333333
 40
0.3333333333333333
 40
0.5
 40
0.5
 40
0.5
 40
0.5
 40
0.6666666666666666
 40
0.6666666666666666
 40
0.6666666666666666
 40
0.6666666666666666
 40
1.0
 40
1.0
 40
1.0
 40
1.0
 10
-91.3975
 20
-28.696
 30
0.0
 10
-91.3975
 20
-28.696
 30
0.0
 10
-92.2183
 20
-35.2627
 30
0.0
 10
-88.6614
 20
-37.4516
 30
0.0
 10
-88.6614
 20
-37.4516
 30
0.0
 10
-88.6614
 20
-37.4516
 30
0.0
 10
-90.5766
 20
-30.9761
 30
0.0
 10
-87.8405
 20
-25.8687
 30
0.0
 10
-87.8405
 20
-25.8687
 30
0.0
 10
-87.1429
 20
-24.5665
 30
0.0
 10
-86.0834
 20
-23.2935
 30
0.0
 10
-84.8599
 20
-22.0918
 30
0.0
 10
-84.8599
 20
-22.0918
 30
0.0
 10
-84.8599
 20
-22.0918
 30
0.0
 10
-84.8599
 20
-19.2446
 30
0.0
 10
-84.8599
 20
-19.2446
 30
0.0
 10
-84.8599
 20
-19.2446
 30
0.0
 10
-90.9799
 20
-24.8862
 30
0.0
 10
-90.8165
 20
-26.7355
 30
0.0
 10
-91.3975
 20
-28.696
 30
0.0
  0
SPLINE
  5
60
330
1F
100
AcDbEntity
  8
layer 1
 62
     7
370
     9
100
AcDbSpline
210
0.0
220
0.0
230
1.0
 70
    11
 71
     3
 72
    24
 73
    20
 74
     0
 42
0.0000000001
 43
0.0000000001
 12
1.0
 22
0.0
 32
0.0
 13
1.0
 23
0.0
 33
0.0
 40
0.0
 40
0.0
 40
0.0
 40
0.0
 40
0.1666666666666667
 40
0.1666666666666667
 40
0.1666666666666667
 40
0.1666666666666667
 40
0.3333333333333333
 40
0.3333333333333333
 40
0.3333333333333333
 40
0.3333333333333333
 40
0.5
 40
0.5
 40
0.5
 40
0.5
 40
0.6666666666666666
 40
0.6666666666666666
 40
0.6666666666666666
 40
0.6666666666666666
 40
1.0
 40
1.0
 40
1.0
 40
1.0
 10
-88.0229
 20
2.3132
 30
0.0
 10
-89.8469
 20
-0.7877
 30
0.0
 10
-94.8631
 20
-2.6118
 30
0.0
 10
-95.3192
 20
-5.1655
 30
0.0
 10
-95.3192
 20
-5.1655
 30
0.0
 10
-90.3941
 20
-2.6118
 30
0.0
 10
-86.1989
 20
-5.4391
 30
0.0
 10
-86.1989
 20
-5.4391
 30
0.0
 10
-86.1989
 20
-5.4391
 30
0.0
 10
-85.5892
 20
-5.1004
 30
0.0
 10
-85.0815
 20
-4.4614
 30
0.0
 10
-84.8599
 20
-4.1541
 30
0.0
 10
-84.8599
 20
-4.1541
 30
0.0
 10
-84.8599
 20
-4.1541
 30
0.0
 10
-84.8599
 20
-3.9213
 30
0.0
 10
-84.8599
 20
-3.9213
 30
0.0
 10
-84.8599
 20
-3.9213
 30
0.0
 10
-88.0167
 20
-2.5665
 30
0.0
 10
-88.0229
 20
2.3132
 30
0.0
 10
-88.0229
 20
2.3132
 30
0.0
  0
SPLINE
  5
61
330
1F
100
AcDbEntity
  8
layer 1
 62
     7
370
     9
100
AcDbSpline
210
0.0
220
0.0
230
1.0
 70
    11
 71
     3
 72
    40
 73
    36
 74
     0
 42
0.0000000001
 43
0.0000000001
 12
1.0
 22
0.0
 32
0.0
 13
1.0
 23
0.0
 33
0.0
 40
0.0
 40
0.0
 40
0.0
 40
0.0
 40
0.1
 40
0.1
 40
0.1
 40
0.1
 40
0.2
 40
0.2
 40
0.2
 40
0.2
 40
0.3
 40
0.3
 40
0.3
 40
0.3
 40
0.4
 40
0.4
 40
0.4
 40
0.4
 40
0.5
 40
0.5
 40
0.5
 40
0.5
 40
0.6
 40
0.6
 40
0.6
 40
0.6
 40
0.7
 40
0.7
 40
0.7
 40
0.7
 40
0.8
 40
0.8
 40
0.8
 40
0.8
 40
1.0
 40
1.0
 40
1.0
 40
1.0
 10
-97.3941
 20
-20.0545
 30
0.0
 10
-98.3517
 20
-24.5006
 30
0.0
 10
-95.2736
 20
-26.6895
 30
0.0
 10
-95.4788
 20
-25.9371
 30
0.0
 10
-95.4788
 20
-25.9371
 30
0.0
 10
-95.684
 20
-25.1847
 30
0.0
 10
-95.4104
 20
-24.5006
 30
0.0
 10
-95.4104
 20
-24.5006
 30
0.0
 10
-95.4104
 20
-24.5006
 30
0.0
 10
-94.2247
 20
-21.3085
 30
0.0
 10
-92.4006
 20
-19.4844
 30
0.0
 10
-91.8534
 20
-18.5724
 30
0.0
 10
-91.8534
 20
-18.5724
 30
0.0
 10
-91.3062
 20
-17.6604
 30
0.0
 10
-85.5604
 20
-13.1002
 30
0.0
 10
-88.0229
 20
-9.7257
 30
0.0
 10
-88.0229
 20
-9.7257
 30
0.0
 10
-90.4854
 20
-6.3511
 30
0.0
 10
-93.9511
 20
-8.6312
 30
0.0
 10
-93.9511
 20
-8.6312
 30
0.0
 10
-93.9511
 20
-8.6312
 30
0.0
 10
-93.9511
 20
-8.6312
 30
0.0
 10
-94.5895
 20
-9.6344
 30
0.0
 10
-93.5863
 20
-9.2696
 30
0.0
 10
-93.5863
 20
-9.2696
 30
0.0
 10
-89.6645
 20
-7.9928
 30
0.0
 10
-89.6645
 20
-12.0969
 30
0.0
 10
-89.6645
 20
-12.0969
 30
0.0
 10
-89.6645
 20
-12.0969
 30
0.0
 10
-89.5733
 20
-17.0219
 30
0.0
 10
-95.5016
 20
-16.2011
 30
0.0
 10
-95.5016
 20
-16.2011
 30
0.0
 10
-95.5016
 20
-16.2011
 30
0.0
 10
-95.5016
 20
-16.2011
 30
0.0
 10
-96.4364
 20
-16.5659
 30
0.0
 10
-97.3941
 20
-20.0545
 30
0.0
  0
SPLINE
  5
62
330
1F
100
AcDbEntity
  8
layer 1
 62
     7
370
     9
100
AcDbSpline
210
0.0
220
0.0
230
1.0
 70
    11
 71
     3
 72
    32
 73
    28
 74
     0
 42
0.0000000001
 43
0.0000000001
 12
1.0
 22
0.0
 32
0.0
 13
1.0
 23
0.0
 33
0.0
 40
0.0
 40
0.0
 40
0.0
 40
0.0
 40
0.125
 40
0.125
 40
0.125
 40
0.125
 40
0.25
 40
0.25
 40
0.25
 40
0.25
 40
0.375
 40
0.375
 40
0.375
 40
0.375
 40
0.5
 40
0.5
 40
0.5
 40
0.5
 40
0.625
 40
0.625
 40
0.625
 40
0.625
 40
0.75
 40
0.75
 40
0.75
 40
0.75
 40
1.0
 40
1.0
 40
1.0
 40
1.0
 10
-153.7808
 20
90.5072
 30
0.0
 10
-153.0511
 20
89.3671
 30
0.0
 10
-152.5951
 20
89.504
 30
0.0
 10
-152.5951
 20
89.504
 30
0.0
 10
-152.5951
 20
89.504
 30
0.0
 10
-152.5951
 20
89.504
 30
0.0
 10
-152.3215
 20
95.6146
 30
0.0
 10
-145.846
 20
93.0609
 30
0.0
 10
-145.846
 20
93.0609
 30
0.0
 10
-142.8363
 20
91.3281
 30
0.0
 10
-143.7483
 20
88.7743
 30
0.0
 10
-143.7483
 20
88.7743
 30
0.0
 10
-143.7483
 20
88.7743
 30
0.0
 10
-143.7483
 20
88.7743
 30
0.0
 10
-141.2858
 20
86.2206
 30
0.0
 10
-141.2858
 20
86.2206
 30
0.0
 10
-141.2858
 20
86.2206
 30
0.0
 10
-141.2858
 20
86.2206
 30
0.0
 10
-139.825
 20
91.9207
 30
0.0
 10
-142.3512
 20
94.4005
 30
0.0
 10
-142.3512
 20
94.4005
 30
0.0
 10
-142.3512
 20
94.4005
 30
0.0
 10
-153.022
 20
94.4005
 30
0.0
 10
-153.022
 20
94.4005
 30
0.0
 10
-153.022
 20
94.4005
 30
0.0
 10
-153.5692
 20
93.6933
 30
0.0
 10
-154.5229
 20
92.1265
 30
0.0
 10
-153.7808
 20
90.5072
 30
0.0
  0
SPLINE
  5
63
330
1F
100
AcDbEntity
  8
layer 1
 62
     7
370
     9
100
AcDbSpline
210
0.0
220
0.0
230
1.0
 70
    11
 71
     3
 72
    24
 73
    20
 74
     0
 42
0.0000000001
 43
0.0000000001
 12
1.0
 22
0.0
 32
0.0
 13
1.0
 23
0.0
 33
0.0
 40
0.0
 40
0.0
 40
0.0
 40
0.0
 40
0.1666666666666667
 40
0.1666666666666667
 40
0.1666666666666667
 40
0.1666666666666667
 40
0.3333333333333333
 40
0.3333333333333333
 40
0.3333333333333333
 40
0.3333333333333333
 40
0.5
 40
0.5
 40
0.5
 40
0.5
 40
0.6666666666666666
 40
0.6666666666666666
 40
0.6666666666666666
 40
0.6666666666666666
 40
1.0
 40
1.0
 40
1.0
 40
1.0
 10
-145.39
 20
78.5139
 30
0.0
 10
-143.8851
 20
79.8364
 30
0.0
 10
-142.2435
 20
84.8982
 30
0.0
 10
-142.2435
 20
85.0806
 30
0.0
 10
-142.2435
 20
85.0806
 30
0.0
 10
-142.2435
 20
85.263
 30
0.0
 10
-143.8851
 20
87.6799
 30
0.0
 10
-143.8851
 20
87.6799
 30
0.0
 10
-143.8851
 20
87.6799
 30
0.0
 10
-143.8851
 20
87.6799
 30
0.0
 10
-144.0675
 20
87.6343
 30
0.0
 10
-144.0675
 20
87.6343
 30
0.0
 10
-144.0675
 20
87.6343
 30
0.0
 10
-144.0675
 20
87.6343
 30
0.0
 10
-146.074
 20
84.3053
 30
0.0
 10
-148.5365
 20
83.5757
 30
0.0
 10
-148.5365
 20
83.5757
 30
0.0
 10
-146.4844
 20
83.1653
 30
0.0
 10
-144.5236
 20
81.1132
 30
0.0
 10
-145.39
 20
78.5139
 30
0.0
  0
SPLINE
  5
64
330
1F
100
AcDbEntity
  8
layer 1
 62
     7
370
     9
100
AcDbSpline
210
0.0
220
0.0
230
1.0
 70
    11
 71
     3
 72
    16
 73
    12
 74
     0
 42
0.0000000001
 43
0.0000000001
 12
1.0
 22
0.0
 32
0.0
 13
1.0
 23
0.0
 33
0.0
 40
0.0
 40
0.0
 40
0.0
 40
0.0
 40
0.25
 40
0.25
 40
0.25
 40
0.25
 40
0.5
 40
0.5
 40
0.5
 40
0.5
 40
1.0
 40
1.0
 40
1.0
 40
1.0
 10
-159.1954
 20
94.4005
 30
0.0
 10
-159.1954
 20
94.4005
 30
0.0
 10
-159.9555
 20
94.4005
 30
0.0
 10
-159.9555
 20
94.4005
 30
0.0
 10
-159.9555
 20
94.4005
 30
0.0
 10
-159.5412
 20
94.0629
 30
0.0
 10
-159.253
 20
93.8817
 30
0.0
 10
-159.253
 20
93.8817
 30
0.0
 10
-159.253
 20
93.8817
 30
0.0
 10
-159.2424
 20
94.0568
 30
0.0
 10
-159.2217
 20
94.2295
 30
0.0
 10
-159.1954
 20
94.4005
 30
0.0
  0
SPLINE
  5
65
330
1F
100
AcDbEntity
  8
layer 1
 62
     7
370
     9
100
AcDbSpline
210
0.0
220
0.0
230
1.0
 70
    11
 71
     3
 72
    28
 73
    24
 74
     0
 42
0.0000000001
 43
0.0000000001
 12
1.0
 22
0.0
 32
0.0
 13
1.0
 23
0.0
 33
0.0
 40
0.0
 40
0.0
 40
0.0
 40
0.0
 40
0.1428571428571428
 40
0.1428571428571428
 40
0.1428571428571428
 40
0.1428571428571428
 40
0.2857142857142857
 40
0.2857142857142857
 40
0.2857142857142857
 40
0.2857142857142857
 40
0.4285714285714285
 40
0.4285714285714285
 40
0.4285714285714285
 40
0.4285714285714285
 40
0.5714285714285714
 40
0.5714285714285714
 40
0.5714285714285714
 40
0.5714285714285714
 40
0.7142857142857143
 40
0.7142857142857143
 40
0.7142857142857143
 40
0.7142857142857143
 40
1.0
 40
1.0
 40
1.0
 40
1.0
 10
-164.4516
 20
90.872
 30
0.0
 10
-155.3312
 20
86.7678
 30
0.0
 10
-157.7025
 20
80.9308
 30
0.0
 10
-156.8817
 20
81.9341
 30
0.0
 10
-156.8817
 20
81.9341
 30
0.0
 10
-156.0608
 20
82.9373
 30
0.0
 10
-153.1423
 20
84.123
 30
0.0
 10
-153.1423
 20
84.123
 30
0.0
 10
-153.1423
 20
84.123
 30
0.0
 10
-159.4354
 20
85.947
 30
0.0
 10
-159.5266
 20
92.4225
 30
0.0
 10
-159.5266
 20
92.4225
 30
0.0
 10
-159.5266
 20
92.4225
 30
0.0
 10
-159.5266
 20
92.4225
 30
0.0
 10
-161.2978
 20
93.0194
 30
0.0
 10
-162.9724
 20
94.4005
 30
0.0
 10
-162.9724
 20
94.4005
 30
0.0
 10
-162.9724
 20
94.4005
 30
0.0
 10
-166.7429
 20
94.4005
 30
0.0
 10
-166.7429
 20
94.4005
 30
0.0
 10
-166.7429
 20
94.4005
 30
0.0
 10
-166.4527
 20
93.2867
 30
0.0
 10
-165.7776
 20
92.0654
 30
0.0
 10
-164.4516
 20
90.872
 30
0.0
  0
SPLINE
  5
66
330
1F
100
AcDbEntity
  8
layer 1
 62
     7
370
     9
100
AcDbSpline
210
0.0
220
0.0
230
1.0
 70
    11
 71
     3
 72
    24
 73
    20
 74
     0
 42
0.0000000001
 43
0.0000000001
 12
1.0
 22
0.0
 32
0.0
 13
1.0
 23
0.0
 33
0.0
 40
0.0
 40
0.0
 40
0.0
 40
0.0
 40
0.1666666666666667
 40
0.1666666666666667
 40
0.1666666666666667
 40
0.1666666666666667
 40
0.3333333333333333
 40
0.3333333333333333
 40
0.3333333333333333
 40
0.3333333333333333
 40
0.5
 40
0.5
 40
0.5
 40
0.5
 40
0.6666666666666666
 40
0.6666666666666666
 40
0.6666666666666666
 40
0.6666666666666666
 40
1.0
 40
1.0
 40
1.0
 40
1.0
 10
-174.028
 20
90.1424
 30
0.0
 10
-172.3863
 20
91.6017
 30
0.0
 10
-168.0997
 20
91.8753
 30
0.0
 10
-168.0997
 20
91.8753
 30
0.0
 10
-168.0997
 20
91.8753
 30
0.0
 10
-168.5737
 20
92.5073
 30
0.0
 10
-168.6517
 20
93.5937
 30
0.0
 10
-168.6336
 20
94.4005
 30
0.0
 10
-168.6336
 20
94.4005
 30
0.0
 10
-168.6336
 20
94.4005
 30
0.0
 10
-169.5335
 20
94.4005
 30
0.0
 10
-169.5335
 20
94.4005
 30
0.0
 10
-169.5335
 20
94.4005
 30
0.0
 10
-171.0806
 20
93.0885
 30
0.0
 10
-173.5719
 20
91.7841
 30
0.0
 10
-173.5719
 20
91.7841
 30
0.0
 10
-173.5719
 20
91.7841
 30
0.0
 10
-173.7544
 20
90.872
 30
0.0
 10
-174.028
 20
90.1424
 30
0.0
 10
-174.028
 20
90.1424
 30
0.0
  0
SPLINE
  5
67
330
1F
100
AcDbEntity
  8
layer 1
 62
     7
370
     9
100
AcDbSpline
210
0.0
220
0.0
230
1.0
 70
    11
 71
     3
 72
    32
 73
    28
 74
     0
 42
0.0000000001
 43
0.0000000001
 12
1.0
 22
0.0
 32
0.0
 13
1.0
 23
0.0
 33
0.0
 40
0.0
 40
0.0
 40
0.0
 40
0.0
 40
0.125
 40
0.125
 40
0.125
 40
0.125
 40
0.25
 40
0.25
 40
0.25
 40
0.25
 40
0.375
 40
0.375
 40
0.375
 40
0.375
 40
0.5
 40
0.5
 40
0.5
 40
0.5
 40
0.625
 40
0.625
 40
0.625
 40
0.625
 40
0.75
 40
0.75
 40
0.75
 40
0.75
 40
1.0
 40
1.0
 40
1.0
 40
1.0
 10
-170.3798
 20
77.3739
 30
0.0
 10
-167.4613
 20
77.0091
 30
0.0
 10
-166.9141
 20
78.9244
 30
0.0
 10
-166.9141
 20
78.9244
 30
0.0
 10
-166.9141
 20
78.9244
 30
0.0
 10
-168.0997
 20
77.9211
 30
0.0
 10
-168.9206
 20
78.4683
 30
0.0
 10
-168.9206
 20
78.4683
 30
0.0
 10
-168.9206
 20
78.4683
 30
0.0
 10
-168.9206
 20
78.4683
 30
0.0
 10
-174.484
 20
80.0188
 30
0.0
 10
-172.2039
 20
84.7614
 30
0.0
 10
-172.2039
 20
84.7614
 30
0.0
 10
-167.1877
 20
89.96
 30
0.0
 10
-161.077
 20
85.2174
 30
0.0
 10
-161.077
 20
85.2174
 30
0.0
 10
-161.077
 20
85.2174
 30
0.0
 10
-163.4483
 20
90.5072
 30
0.0
 10
-168.9206
 20
89.504
 30
0.0
 10
-168.9206
 20
89.504
 30
0.0
 10
-168.9206
 20
89.504
 30
0.0
 10
-168.9206
 20
89.504
 30
0.0
 10
-174.028
 20
89.1392
 30
0.0
 10
-175.396
 20
84.7614
 30
0.0
 10
-175.396
 20
84.7614
 30
0.0
 10
-176.7641
 20
80.3836
 30
0.0
 10
-173.2983
 20
77.7387
 30
0.0
 10
-170.3798
 20
77.3739
 30
0.0
  0
SPLINE
  5
68
330
1F
100
AcDbEntity
  8
layer 1
 62
     7
370
     9
100
AcDbSpline
210
0.0
220
0.0
230
1.0
 70
    11
 71
     3
 72
    20
 73
    16
 74
     0
 42
0.0000000001
 43
0.0000000001
 12
1.0
 22
0.0
 32
0.0
 13
1.0
 23
0.0
 33
0.0
 40
0.0
 40
0.0
 40
0.0
 40
0.0
 40
0.2
 40
0.2
 40
0.2
 40
0.2
 40
0.4
 40
0.4
 40
0.4
 40
0.4
 40
0.6
 40
0.6
 40
0.6
 40
0.6
 40
1.0
 40
1.0
 40
1.0
 40
1.0
 10
-168.0997
 20
84.579
 30
0.0
 10
-169.359
 20
84.579
 30
0.0
 10
-170.3798
 20
83.5581
 30
0.0
 10
-170.3798
 20
82.2989
 30
0.0
 10
-170.3798
 20
82.2989
 30
0.0
 10
-170.3798
 20
81.0396
 30
0.0
 10
-169.359
 20
80.0188
 30
0.0
 10
-168.0997
 20
80.0188
 30
0.0
 10
-168.0997
 20
80.0188
 30
0.0
 10
-166.8405
 20
80.0188
 30
0.0
 10
-165.8196
 20
81.0396
 30
0.0
 10
-165.8196
 20
82.2989
 30
0.0
 10
-165.8196
 20
82.2989
 30
0.0
 10
-165.8196
 20
83.5581
 30
0.0
 10
-166.8405
 20
84.579
 30
0.0
 10
-168.0997
 20
84.579
 30
0.0
  0
SPLINE
  5
69
330
1F
100
AcDbEntity
  8
layer 1
 62
     7
370
     9
100
AcDbSpline
210
0.0
220
0.0
230
1.0
 70
    11
 71
     3
 72
    20
 73
    16
 74
     0
 42
0.0000000001
 43
0.0000000001
 12
1.0
 22
0.0
 32
0.0
 13
1.0
 23
0.0
 33
0.0
 40
0.0
 40
0.0
 40
0.0
 40
0.0
 40
0.2
 40
0.2
 40
0.2
 40
0.2
 40
0.4
 40
0.4
 40
0.4
 40
0.4
 40
0.6
 40
0.6
 40
0.6
 40
0.6
 40
1.0
 40
1.0
 40
1.0
 40
1.0
 10
-163.8131
 20
79.1979
 30
0.0
 10
-163.8131
 20
79.1979
 30
0.0
 10
-166.002
 20
74.0906
 30
0.0
 10
-171.7479
 20
75.3674
 30
0.0
 10
-171.7479
 20
75.3674
 30
0.0
 10
-171.7479
 20
75.3674
 30
0.0
 10
-173.2071
 20
73.9081
 30
0.0
 10
-173.7544
 20
73.9081
 30
0.0
 10
-173.7544
 20
73.9081
 30
0.0
 10
-173.7544
 20
73.9081
 30
0.0
 10
-171.4743
 20
70.8984
 30
0.0
 10
-172.5687
 20
65.9734
 30
0.0
 10
-172.5687
 20
65.9734
 30
0.0
 10
-172.5687
 20
65.9734
 30
0.0
 10
-163.9044
 20
71.2632
 30
0.0
 10
-163.8131
 20
79.1979
 30
0.0
  0
SPLINE
  5
6A
330
1F
100
AcDbEntity
  8
layer 1
 62
     7
370
     9
100
AcDbSpline
210
0.0
220
0.0
230
1.0
 70
    11
 71
     3
 72
    28
 73
    24
 74
     0
 42
0.0000000001
 43
0.0000000001
 12
1.0
 22
0.0
 32
0.0
 13
1.0
 23
0.0
 33
0.0
 40
0.0
 40
0.0
 40
0.0
 40
0.0
 40
0.1428571428571428
 40
0.1428571428571428
 40
0.1428571428571428
 40
0.1428571428571428
 40
0.2857142857142857
 40
0.2857142857142857
 40
0.2857142857142857
 40
0.2857142857142857
 40
0.4285714285714285
 40
0.4285714285714285
 40
0.4285714285714285
 40
0.4285714285714285
 40
0.5714285714285714
 40
0.5714285714285714
 40
0.5714285714285714
 40
0.5714285714285714
 40
0.7142857142857143
 40
0.7142857142857143
 40
0.7142857142857143
 40
0.7142857142857143
 40
1.0
 40
1.0
 40
1.0
 40
1.0
 10
-164.2691
 20
84.7614
 30
0.0
 10
-164.2691
 20
84.7614
 30
0.0
 10
-156.3344
 20
75.8234
 30
0.0
 10
-168.3733
 20
66.6118
 30
0.0
 10
-168.3733
 20
66.6118
 30
0.0
 10
-180.6858
 20
56.7619
 30
0.0
 10
-180.2298
 20
54.4817
 30
0.0
 10
-180.9594
 20
52.0192
 30
0.0
 10
-180.9594
 20
52.0192
 30
0.0
 10
-180.9594
 20
52.0192
 30
0.0
 10
-181.7803
 20
45.4526
 30
0.0
 10
-178.2233
 20
43.2637
 30
0.0
 10
-178.2233
 20
43.2637
 30
0.0
 10
-178.2233
 20
43.2637
 30
0.0
 10
-180.1386
 20
49.7392
 30
0.0
 10
-177.4025
 20
54.8466
 30
0.0
 10
-177.4025
 20
54.8466
 30
0.0
 10
-174.6664
 20
59.954
 30
0.0
 10
-166.3784
 20
64.6196
 30
0.0
 10
-164.3604
 20
66.247
 30
0.0
 10
-164.3604
 20
66.247
 30
0.0
 10
-161.533
 20
68.5271
 30
0.0
 10
-151.683
 20
81.2044
 30
0.0
 10
-164.2691
 20
84.7614
 30
0.0
  0
SPLINE
  5
6B
330
1F
100
AcDbEntity
  8
layer 1
 62
     7
370
     9
100
AcDbSpline
210
0.0
220
0.0
230
1.0
 70
    11
 71
     3
 72
    24
 73
    20
 74
     0
 42
0.0000000001
 43
0.0000000001
 12
1.0
 22
0.0
 32
0.0
 13
1.0
 23
0.0
 33
0.0
 40
0.0
 40
0.0
 40
0.0
 40
0.0
 40
0.1666666666666667
 40
0.1666666666666667
 40
0.1666666666666667
 40
0.1666666666666667
 40
0.3333333333333333
 40
0.3333333333333333
 40
0.3333333333333333
 40
0.3333333333333333
 40
0.5
 40
0.5
 40
0.5
 40
0.5
 40
0.6666666666666666
 40
0.6666666666666666
 40
0.6666666666666666
 40
0.6666666666666666
 40
1.0
 40
1.0
 40
1.0
 40
1.0
 10
-175.7608
 20
75.2762
 30
0.0
 10
-174.94
 20
75.7322
 30
0.0
 10
-174.3016
 20
76.7354
 30
0.0
 10
-174.3016
 20
76.7354
 30
0.0
 10
-174.3016
 20
76.7354
 30
0.0
 10
-177.5849
 20
78.0123
 30
0.0
 10
-177.5849
 20
83.0285
 30
0.0
 10
-177.5849
 20
83.0285
 30
0.0
 10
-177.5849
 20
83.0285
 30
0.0
 10
-179.309
 20
80.0974
 30
0.0
 10
-183.8799
 20
78.3063
 30
0.0
 10
-184.7611
 20
75.9624
 30
0.0
 10
-184.7611
 20
75.9624
 30
0.0
 10
-184.7611
 20
75.9624
 30
0.0
 10
-184.7611
 20
75.6083
 30
0.0
 10
-184.7611
 20
75.6083
 30
0.0
 10
-184.7611
 20
75.6083
 30
0.0
 10
-179.8884
 20
78.0545
 30
0.0
 10
-175.7608
 20
75.2762
 30
0.0
 10
-175.7608
 20
75.2762
 30
0.0
  0
SPLINE
  5
6C
330
1F
100
AcDbEntity
  8
layer 1
 62
     7
370
     9
100
AcDbSpline
210
0.0
220
0.0
230
1.0
 70
    11
 71
     3
 72
    32
 73
    28
 74
     0
 42
0.0000000001
 43
0.0000000001
 12
1.0
 22
0.0
 32
0.0
 13
1.0
 23
0.0
 33
0.0
 40
0.0
 40
0.0
 40
0.0
 40
0.0
 40
0.125
 40
0.125
 40
0.125
 40
0.125
 40
0.25
 40
0.25
 40
0.25
 40
0.25
 40
0.375
 40
0.375
 40
0.375
 40
0.375
 40
0.5
 40
0.5
 40
0.5
 40
0.5
 40
0.625
 40
0.625
 40
0.625
 40
0.625
 40
0.75
 40
0.75
 40
0.75
 40
0.75
 40
1.0
 40
1.0
 40
1.0
 40
1.0
 10
-177.5849
 20
70.9896
 30
0.0
 10
-180.0474
 20
74.3642
 30
0.0
 10
-183.5131
 20
72.0841
 30
0.0
 10
-183.5131
 20
72.0841
 30
0.0
 10
-183.5131
 20
72.0841
 30
0.0
 10
-183.5131
 20
72.0841
 30
0.0
 10
-184.1516
 20
71.0808
 30
0.0
 10
-183.1483
 20
71.4456
 30
0.0
 10
-183.1483
 20
71.4456
 30
0.0
 10
-179.2266
 20
72.7225
 30
0.0
 10
-179.2266
 20
68.6183
 30
0.0
 10
-179.2266
 20
68.6183
 30
0.0
 10
-179.2266
 20
68.6183
 30
0.0
 10
-179.1478
 20
64.364
 30
0.0
 10
-183.5578
 20
64.3972
 30
0.0
 10
-184.7611
 20
64.4851
 30
0.0
 10
-184.7611
 20
64.4851
 30
0.0
 10
-184.7611
 20
64.4851
 30
0.0
 10
-184.7611
 20
56.7515
 30
0.0
 10
-184.7611
 20
56.7515
 30
0.0
 10
-184.7611
 20
56.7515
 30
0.0
 10
-183.5804
 20
59.6127
 30
0.0
 10
-181.9312
 20
61.2834
 30
0.0
 10
-181.4155
 20
62.1428
 30
0.0
 10
-181.4155
 20
62.1428
 30
0.0
 10
-180.8682
 20
63.0549
 30
0.0
 10
-175.1224
 20
67.6151
 30
0.0
 10
-177.5849
 20
70.9896
 30
0.0
  0
SPLINE
  5
6D
330
1F
100
AcDbEntity
  8
layer 1
 62
     7
370
     9
100
AcDbSpline
210
0.0
220
0.0
230
1.0
 70
    11
 71
     3
 72
    28
 73
    24
 74
     0
 42
0.0000000001
 43
0.0000000001
 12
1.0
 22
0.0
 32
0.0
 13
1.0
 23
0.0
 33
0.0
 40
0.0
 40
0.0
 40
0.0
 40
0.0
 40
0.1428571428571428
 40
0.1428571428571428
 40
0.1428571428571428
 40
0.1428571428571428
 40
0.2857142857142857
 40
0.2857142857142857
 40
0.2857142857142857
 40
0.2857142857142857
 40
0.4285714285714285
 40
0.4285714285714285
 40
0.4285714285714285
 40
0.4285714285714285
 40
0.5714285714285714
 40
0.5714285714285714
 40
0.5714285714285714
 40
0.5714285714285714
 40
0.7142857142857143
 40
0.7142857142857143
 40
0.7142857142857143
 40
0.7142857142857143
 40
1.0
 40
1.0
 40
1.0
 40
1.0
 10
-167.6437
 20
61.5044
 30
0.0
 10
-162.9923
 20
61.8692
 30
0.0
 10
-160.9858
 20
60.3188
 30
0.0
 10
-160.9858
 20
60.3188
 30
0.0
 10
-160.9858
 20
60.3188
 30
0.0
 10
-160.9858
 20
60.3188
 30
0.0
 10
-159.5266
 20
60.0452
 30
0.0
 10
-160.4386
 20
60.7748
 30
0.0
 10
-160.4386
 20
60.7748
 30
0.0
 10
-161.3507
 20
61.5044
 30
0.0
 10
-161.6243
 20
63.3285
 30
0.0
 10
-160.3474
 20
65.2438
 30
0.0
 10
-160.3474
 20
65.2438
 30
0.0
 10
-159.0705
 20
67.1591
 30
0.0
 10
-155.0576
 20
66.703
 30
0.0
 10
-155.0576
 20
66.703
 30
0.0
 10
-155.0576
 20
66.703
 30
0.0
 10
-155.696
 20
67.3415
 30
0.0
 10
-157.7025
 20
70.6248
 30
0.0
 10
-157.7025
 20
70.6248
 30
0.0
 10
-157.7025
 20
70.6248
 30
0.0
 10
-159.8914
 20
66.6118
 30
0.0
 10
-163.8131
 20
63.4197
 30
0.0
 10
-167.6437
 20
61.5044
 30
0.0
  0
SPLINE
  5
6E
330
1F
100
AcDbEntity
  8
layer 1
 62
     7
370
     9
100
AcDbSpline
210
0.0
220
0.0
230
1.0
 70
    11
 71
     3
 72
    32
 73
    28
 74
     0
 42
0.0000000001
 43
0.0000000001
 12
1.0
 22
0.0
 32
0.0
 13
1.0
 23
0.0
 33
0.0
 40
0.0
 40
0.0
 40
0.0
 40
0.0
 40
0.125
 40
0.125
 40
0.125
 40
0.125
 40
0.25
 40
0.25
 40
0.25
 40
0.25
 40
0.375
 40
0.375
 40
0.375
 40
0.375
 40
0.5
 40
0.5
 40
0.5
 40
0.5
 40
0.625
 40
0.625
 40
0.625
 40
0.625
 40
0.75
 40
0.75
 40
0.75
 40
0.75
 40
1.0
 40
1.0
 40
1.0
 40
1.0
 10
-150.2238
 20
65.6998
 30
0.0
 10
-151.0446
 20
71.7192
 30
0.0
 10
-146.6669
 20
75.0938
 30
0.0
 10
-146.6669
 20
75.0938
 30
0.0
 10
-146.6669
 20
75.0938
 30
0.0
 10
-146.302
 20
76.0058
 30
0.0
 10
-147.4877
 20
75.2762
 30
0.0
 10
-147.4877
 20
75.2762
 30
0.0
 10
-147.4877
 20
75.2762
 30
0.0
 10
-147.4877
 20
75.2762
 30
0.0
 10
-151.5919
 20
73.6345
 30
0.0
 10
-152.7775
 20
77.0091
 30
0.0
 10
-152.7775
 20
77.0091
 30
0.0
 10
-152.8687
 20
80.7484
 30
0.0
 10
-149.5854
 20
80.2012
 30
0.0
 10
-149.5854
 20
80.2012
 30
0.0
 10
-149.5854
 20
80.2012
 30
0.0
 10
-149.5854
 20
80.2012
 30
0.0
 10
-148.9469
 20
80.6572
 30
0.0
 10
-149.7678
 20
80.8396
 30
0.0
 10
-149.7678
 20
80.8396
 30
0.0
 10
-151.7743
 20
82.2077
 30
0.0
 10
-157.3377
 20
80.11
 30
0.0
 10
-155.7872
 20
74.1817
 30
0.0
 10
-155.7872
 20
74.1817
 30
0.0
 10
-154.2368
 20
68.2535
 30
0.0
 10
-150.2238
 20
65.6998
 30
0.0
 10
-150.2238
 20
65.6998
 30
0.0
  0
SPLINE
  5
6F
330
1F
100
AcDbEntity
  8
layer 1
 62
     7
370
     9
100
AcDbSpline
210
0.0
220
0.0
230
1.0
 70
    11
 71
     3
 72
    20
 73
    16
 74
     0
 42
0.0000000001
 43
0.0000000001
 12
1.0
 22
0.0
 32
0.0
 13
1.0
 23
0.0
 33
0.0
 40
0.0
 40
0.0
 40
0.0
 40
0.0
 40
0.2
 40
0.2
 40
0.2
 40
0.2
 40
0.4
 40
0.4
 40
0.4
 40
0.4
 40
0.6
 40
0.6
 40
0.6
 40
0.6
 40
1.0
 40
1.0
 40
1.0
 40
1.0
 10
-143.5659
 20
71.8105
 30
0.0
 10
-143.5659
 20
71.8105
 30
0.0
 10
-144.2044
 20
73.5433
 30
0.0
 10
-145.7548
 20
67.0678
 30
0.0
 10
-145.7548
 20
67.0678
 30
0.0
 10
-147.3053
 20
60.5924
 30
0.0
 10
-144.0219
 20
58.3123
 30
0.0
 10
-144.0219
 20
58.3123
 30
0.0
 10
-144.0219
 20
58.3123
 30
0.0
 10
-143.9307
 20
64.0581
 30
0.0
 10
-142.6539
 20
64.5142
 30
0.0
 10
-141.377
 20
66.1558
 30
0.0
 10
-141.377
 20
66.1558
 30
0.0
 10
-144.1131
 20
67.5239
 30
0.0
 10
-143.5659
 20
71.8105
 30
0.0
 10
-143.5659
 20
71.8105
 30
0.0
  0
SPLINE
  5
70
330
1F
100
AcDbEntity
  8
layer 1
 62
     7
370
     9
100
AcDbSpline
210
0.0
220
0.0
230
1.0
 70
    11
 71
     3
 72
    32
 73
    28
 74
     0
 42
0.0000000001
 43
0.0000000001
 12
1.0
 22
0.0
 32
0.0
 13
1.0
 23
0.0
 33
0.0
 40
0.0
 40
0.0
 40
0.0
 40
0.0
 40
0.125
 40
0.125
 40
0.125
 40
0.125
 40
0.25
 40
0.25
 40
0.25
 40
0.25
 40
0.375
 40
0.375
 40
0.375
 40
0.375
 40
0.5
 40
0.5
 40
0.5
 40
0.5
 40
0.625
 40
0.625
 40
0.625
 40
0.625
 40
0.75
 40
0.75
 40
0.75
 40
0.75
 40
1.0
 40
1.0
 40
1.0
 40
1.0
 10
-109.0909
 20
90.5072
 30
0.0
 10
-108.3613
 20
89.3671
 30
0.0
 10
-107.9053
 20
89.504
 30
0.0
 10
-107.9053
 20
89.504
 30
0.0
 10
-107.9053
 20
89.504
 30
0.0
 10
-107.9053
 20
89.504
 30
0.0
 10
-107.6316
 20
95.6146
 30
0.0
 10
-101.1562
 20
93.0609
 30
0.0
 10
-101.1562
 20
93.0609
 30
0.0
 10
-98.1465
 20
91.3281
 30
0.0
 10
-99.0585
 20
88.7743
 30
0.0
 10
-99.0585
 20
88.7743
 30
0.0
 10
-99.0585
 20
88.7743
 30
0.0
 10
-99.0585
 20
88.7743
 30
0.0
 10
-96.596
 20
86.2206
 30
0.0
 10
-96.596
 20
86.2206
 30
0.0
 10
-96.596
 20
86.2206
 30
0.0
 10
-96.596
 20
86.2206
 30
0.0
 10
-95.1352
 20
91.9207
 30
0.0
 10
-97.6614
 20
94.4005
 30
0.0
 10
-97.6614
 20
94.4005
 30
0.0
 10
-97.6614
 20
94.4005
 30
0.0
 10
-108.3321
 20
94.4005
 30
0.0
 10
-108.3321
 20
94.4005
 30
0.0
 10
-108.3321
 20
94.4005
 30
0.0
 10
-108.8794
 20
93.6933
 30
0.0
 10
-109.8331
 20
92.1265
 30
0.0
 10
-109.0909
 20
90.5072
 30
0.0
  0
SPLINE
  5
71
330
1F
100
AcDbEntity
  8
layer 1
 62
     7
370
     9
100
AcDbSpline
210
0.0
220
0.0
230
1.0
 70
    11
 71
     3
 72
    24
 73
    20
 74
     0
 42
0.0000000001
 43
0.0000000001
 12
1.0
 22
0.0
 32
0.0
 13
1.0
 23
0.0
 33
0.0
 40
0.0
 40
0.0
 40
0.0
 40
0.0
 40
0.1666666666666667
 40
0.1666666666666667
 40
0.1666666666666667
 40
0.1666666666666667
 40
0.3333333333333333
 40
0.3333333333333333
 40
0.3333333333333333
 40
0.3333333333333333
 40
0.5
 40
0.5
 40
0.5
 40
0.5
 40
0.6666666666666666
 40
0.6666666666666666
 40
0.6666666666666666
 40
0.6666666666666666
 40
1.0
 40
1.0
 40
1.0
 40
1.0
 10
-100.7002
 20
78.5139
 30
0.0
 10
-99.1954
 20
79.8364
 30
0.0
 10
-97.5537
 20
84.8982
 30
0.0
 10
-97.5537
 20
85.0806
 30
0.0
 10
-97.5537
 20
85.0806
 30
0.0
 10
-97.5537
 20
85.263
 30
0.0
 10
-99.1954
 20
87.6799
 30
0.0
 10
-99.1954
 20
87.6799
 30
0.0
 10
-99.1954
 20
87.6799
 30
0.0
 10
-99.1954
 20
87.6799
 30
0.0
 10
-99.3777
 20
87.6343
 30
0.0
 10
-99.3777
 20
87.6343
 30
0.0
 10
-99.3777
 20
87.6343
 30
0.0
 10
-99.3777
 20
87.6343
 30
0.0
 10
-101.3842
 20
84.3053
 30
0.0
 10
-103.8467
 20
83.5757
 30
0.0
 10
-103.8467
 20
83.5757
 30
0.0
 10
-101.7947
 20
83.1653
 30
0.0
 10
-99.8337
 20
81.1132
 30
0.0
 10
-100.7002
 20
78.5139
 30
0.0
  0
SPLINE
  5
72
330
1F
100
AcDbEntity
  8
layer 1
 62
     7
370
     9
100
AcDbSpline
210
0.0
220
0.0
230
1.0
 70
    11
 71
     3
 72
    16
 73
    12
 74
     0
 42
0.0000000001
 43
0.0000000001
 12
1.0
 22
0.0
 32
0.0
 13
1.0
 23
0.0
 33
0.0
 40
0.0
 40
0.0
 40
0.0
 40
0.0
 40
0.25
 40
0.25
 40
0.25
 40
0.25
 40
0.5
 40
0.5
 40
0.5
 40
0.5
 40
1.0
 40
1.0
 40
1.0
 40
1.0
 10
-114.5056
 20
94.4005
 30
0.0
 10
-114.5056
 20
94.4005
 30
0.0
 10
-115.2657
 20
94.4005
 30
0.0
 10
-115.2657
 20
94.4005
 30
0.0
 10
-115.2657
 20
94.4005
 30
0.0
 10
-114.8513
 20
94.0629
 30
0.0
 10
-114.5631
 20
93.8817
 30
0.0
 10
-114.5631
 20
93.8817
 30
0.0
 10
-114.5631
 20
93.8817
 30
0.0
 10
-114.5525
 20
94.0568
 30
0.0
 10
-114.5319
 20
94.2295
 30
0.0
 10
-114.5056
 20
94.4005
 30
0.0
  0
SPLINE
  5
73
330
1F
100
AcDbEntity
  8
layer 1
 62
     7
370
     9
100
AcDbSpline
210
0.0
220
0.0
230
1.0
 70
    11
 71
     3
 72
    28
 73
    24
 74
     0
 42
0.0000000001
 43
0.0000000001
 12
1.0
 22
0.0
 32
0.0
 13
1.0
 23
0.0
 33
0.0
 40
0.0
 40
0.0
 40
0.0
 40
0.0
 40
0.1428571428571428
 40
0.1428571428571428
 40
0.1428571428571428
 40
0.1428571428571428
 40
0.2857142857142857
 40
0.2857142857142857
 40
0.2857142857142857
 40
0.2857142857142857
 40
0.4285714285714285
 40
0.4285714285714285
 40
0.4285714285714285
 40
0.4285714285714285
 40
0.5714285714285714
 40
0.5714285714285714
 40
0.5714285714285714
 40
0.5714285714285714
 40
0.7142857142857143
 40
0.7142857142857143
 40
0.7142857142857143
 40
0.7142857142857143
 40
1.0
 40
1.0
 40
1.0
 40
1.0
 10
-119.7617
 20
90.872
 30
0.0
 10
-110.6414
 20
86.7678
 30
0.0
 10
-113.0127
 20
80.9308
 30
0.0
 10
-112.1919
 20
81.9341
 30
0.0
 10
-112.1919
 20
81.9341
 30
0.0
 10
-111.371
 20
82.9373
 30
0.0
 10
-108.4525
 20
84.123
 30
0.0
 10
-108.4525
 20
84.123
 30
0.0
 10
-108.4525
 20
84.123
 30
0.0
 10
-114.7455
 20
85.947
 30
0.0
 10
-114.8368
 20
92.4225
 30
0.0
 10
-114.8368
 20
92.4225
 30
0.0
 10
-114.8368
 20
92.4225
 30
0.0
 10
-114.8368
 20
92.4225
 30
0.0
 10
-116.608
 20
93.0194
 30
0.0
 10
-118.2826
 20
94.4005
 30
0.0
 10
-118.2826
 20
94.4005
 30
0.0
 10
-118.2826
 20
94.4005
 30
0.0
 10
-122.0531
 20
94.4005
 30
0.0
 10
-122.0531
 20
94.4005
 30
0.0
 10
-122.0531
 20
94.4005
 30
0.0
 10
-121.7629
 20
93.2867
 30
0.0
 10
-121.0878
 20
92.0654
 30
0.0
 10
-119.7617
 20
90.872
 30
0.0
  0
SPLINE
  5
74
330
1F
100
AcDbEntity
  8
layer 1
 62
     7
370
     9
100
AcDbSpline
210
0.0
220
0.0
230
1.0
 70
    11
 71
     3
 72
    24
 73
    20
 74
     0
 42
0.0000000001
 43
0.0000000001
 12
1.0
 22
0.0
 32
0.0
 13
1.0
 23
0.0
 33
0.0
 40
0.0
 40
0.0
 40
0.0
 40
0.0
 40
0.1666666666666667
 40
0.1666666666666667
 40
0.1666666666666667
 40
0.1666666666666667
 40
0.3333333333333333
 40
0.3333333333333333
 40
0.3333333333333333
 40
0.3333333333333333
 40
0.5
 40
0.5
 40
0.5
 40
0.5
 40
0.6666666666666666
 40
0.6666666666666666
 40
0.6666666666666666
 40
0.6666666666666666
 40
1.0
 40
1.0
 40
1.0
 40
1.0
 10
-129.3381
 20
90.1424
 30
0.0
 10
-127.6965
 20
91.6017
 30
0.0
 10
-123.4099
 20
91.8753
 30
0.0
 10
-123.4099
 20
91.8753
 30
0.0
 10
-123.4099
 20
91.8753
 30
0.0
 10
-123.8839
 20
92.5073
 30
0.0
 10
-123.962
 20
93.5937
 30
0.0
 10
-123.9438
 20
94.4005
 30
0.0
 10
-123.9438
 20
94.4005
 30
0.0
 10
-123.9438
 20
94.4005
 30
0.0
 10
-124.8436
 20
94.4005
 30
0.0
 10
-124.8436
 20
94.4005
 30
0.0
 10
-124.8436
 20
94.4005
 30
0.0
 10
-126.3908
 20
93.0885
 30
0.0
 10
-128.8821
 20
91.7841
 30
0.0
 10
-128.8821
 20
91.7841
 30
0.0
 10
-128.8821
 20
91.7841
 30
0.0
 10
-129.0645
 20
90.872
 30
0.0
 10
-129.3381
 20
90.1424
 30
0.0
 10
-129.3381
 20
90.1424
 30
0.0
  0
SPLINE
  5
75
330
1F
100
AcDbEntity
  8
layer 1
 62
     7
370
     9
100
AcDbSpline
210
0.0
220
0.0
230
1.0
 70
    11
 71
     3
 72
    32
 73
    28
 74
     0
 42
0.0000000001
 43
0.0000000001
 12
1.0
 22
0.0
 32
0.0
 13
1.0
 23
0.0
 33
0.0
 40
0.0
 40
0.0
 40
0.0
 40
0.0
 40
0.125
 40
0.125
 40
0.125
 40
0.125
 40
0.25
 40
0.25
 40
0.25
 40
0.25
 40
0.375
 40
0.375
 40
0.375
 40
0.375
 40
0.5
 40
0.5
 40
0.5
 40
0.5
 40
0.625
 40
0.625
 40
0.625
 40
0.625
 40
0.75
 40
0.75
 40
0.75
 40
0.75
 40
1.0
 40
1.0
 40
1.0
 40
1.0
 10
-125.69
 20
77.3739
 30
0.0
 10
-122.7715
 20
77.0091
 30
0.0
 10
-122.2243
 20
78.9244
 30
0.0
 10
-122.2243
 20
78.9244
 30
0.0
 10
-122.2243
 20
78.9244
 30
0.0
 10
-123.4099
 20
77.9211
 30
0.0
 10
-124.2307
 20
78.4683
 30
0.0
 10
-124.2307
 20
78.4683
 30
0.0
 10
-124.2307
 20
78.4683
 30
0.0
 10
-124.2307
 20
78.4683
 30
0.0
 10
-129.7941
 20
80.0188
 30
0.0
 10
-127.5141
 20
84.7614
 30
0.0
 10
-127.5141
 20
84.7614
 30
0.0
 10
-122.4979
 20
89.96
 30
0.0
 10
-116.3872
 20
85.2174
 30
0.0
 10
-116.3872
 20
85.2174
 30
0.0
 10
-116.3872
 20
85.2174
 30
0.0
 10
-118.7585
 20
90.5072
 30
0.0
 10
-124.2307
 20
89.504
 30
0.0
 10
-124.2307
 20
89.504
 30
0.0
 10
-124.2307
 20
89.504
 30
0.0
 10
-124.2307
 20
89.504
 30
0.0
 10
-129.3381
 20
89.1392
 30
0.0
 10
-130.7062
 20
84.7614
 30
0.0
 10
-130.7062
 20
84.7614
 30
0.0
 10
-132.0743
 20
80.3836
 30
0.0
 10
-128.6085
 20
77.7387
 30
0.0
 10
-125.69
 20
77.3739
 30
0.0
  0
SPLINE
  5
76
330
1F
100
AcDbEntity
  8
layer 1
 62
     7
370
     9
100
AcDbSpline
210
0.0
220
0.0
230
1.0
 70
    11
 71
     3
 72
    20
 73
    16
 74
     0
 42
0.0000000001
 43
0.0000000001
 12
1.0
 22
0.0
 32
0.0
 13
1.0
 23
0.0
 33
0.0
 40
0.0
 40
0.0
 40
0.0
 40
0.0
 40
0.2
 40
0.2
 40
0.2
 40
0.2
 40
0.4
 40
0.4
 40
0.4
 40
0.4
 40
0.6
 40
0.6
 40
0.6
 40
0.6
 40
1.0
 40
1.0
 40
1.0
 40
1.0
 10
-123.4099
 20
84.579
 30
0.0
 10
-124.6692
 20
84.579
 30
0.0
 10
-125.69
 20
83.5581
 30
0.0
 10
-125.69
 20
82.2989
 30
0.0
 10
-125.69
 20
82.2989
 30
0.0
 10
-125.69
 20
81.0396
 30
0.0
 10
-124.6692
 20
80.0188
 30
0.0
 10
-123.4099
 20
80.0188
 30
0.0
 10
-123.4099
 20
80.0188
 30
0.0
 10
-122.1506
 20
80.0188
 30
0.0
 10
-121.1298
 20
81.0396
 30
0.0
 10
-121.1298
 20
82.2989
 30
0.0
 10
-121.1298
 20
82.2989
 30
0.0
 10
-121.1298
 20
83.5581
 30
0.0
 10
-122.1506
 20
84.579
 30
0.0
 10
-123.4099
 20
84.579
 30
0.0
  0
SPLINE
  5
77
330
1F
100
AcDbEntity
  8
layer 1
 62
     7
370
     9
100
AcDbSpline
210
0.0
220
0.0
230
1.0
 70
    11
 71
     3
 72
    20
 73
    16
 74
     0
 42
0.0000000001
 43
0.0000000001
 12
1.0
 22
0.0
 32
0.0
 13
1.0
 23
0.0
 33
0.0
 40
0.0
 40
0.0
 40
0.0
 40
0.0
 40
0.2
 40
0.2
 40
0.2
 40
0.2
 40
0.4
 40
0.4
 40
0.4
 40
0.4
 40
0.6
 40
0.6
 40
0.6
 40
0.6
 40
1.0
 40
1.0
 40
1.0
 40
1.0
 10
-127.0581
 20
75.3674
 30
0.0
 10
-127.0581
 20
75.3674
 30
0.0
 10
-128.5173
 20
73.9081
 30
0.0
 10
-129.0645
 20
73.9081
 30
0.0
 10
-129.0645
 20
73.9081
 30
0.0
 10
-129.0645
 20
73.9081
 30
0.0
 10
-126.7844
 20
70.8984
 30
0.0
 10
-127.8789
 20
65.9734
 30
0.0
 10
-127.8789
 20
65.9734
 30
0.0
 10
-127.8789
 20
65.9734
 30
0.0
 10
-119.2145
 20
71.2632
 30
0.0
 10
-119.1233
 20
79.1979
 30
0.0
 10
-119.1233
 20
79.1979
 30
0.0
 10
-119.1233
 20
79.1979
 30
0.0
 10
-121.3122
 20
74.0906
 30
0.0
 10
-127.0581
 20
75.3674
 30
0.0
  0
SPLINE
  5
78
330
1F
100
AcDbEntity
  8
layer 1
 62
     7
370
     9
100
AcDbSpline
210
0.0
220
0.0
230
1.0
 70
    11
 71
     3
 72
    28
 73
    24
 74
     0
 42
0.0000000001
 43
0.0000000001
 12
1.0
 22
0.0
 32
0.0
 13
1.0
 23
0.0
 33
0.0
 40
0.0
 40
0.0
 40
0.0
 40
0.0
 40
0.1428571428571428
 40
0.1428571428571428
 40
0.1428571428571428
 40
0.1428571428571428
 40
0.2857142857142857
 40
0.2857142857142857
 40
0.2857142857142857
 40
0.2857142857142857
 40
0.4285714285714285
 40
0.4285714285714285
 40
0.4285714285714285
 40
0.4285714285714285
 40
0.5714285714285714
 40
0.5714285714285714
 40
0.5714285714285714
 40
0.5714285714285714
 40
0.7142857142857143
 40
0.7142857142857143
 40
0.7142857142857143
 40
0.7142857142857143
 40
1.0
 40
1.0
 40
1.0
 40
1.0
 10
-123.6835
 20
66.6118
 30
0.0
 10
-135.996
 20
56.7619
 30
0.0
 10
-135.54
 20
54.4817
 30
0.0
 10
-136.2696
 20
52.0192
 30
0.0
 10
-136.2696
 20
52.0192
 30
0.0
 10
-136.2696
 20
52.0192
 30
0.0
 10
-137.0905
 20
45.4526
 30
0.0
 10
-133.5335
 20
43.2637
 30
0.0
 10
-133.5335
 20
43.2637
 30
0.0
 10
-133.5335
 20
43.2637
 30
0.0
 10
-135.4488
 20
49.7392
 30
0.0
 10
-132.7127
 20
54.8466
 30
0.0
 10
-132.7127
 20
54.8466
 30
0.0
 10
-129.9766
 20
59.954
 30
0.0
 10
-121.6886
 20
64.6196
 30
0.0
 10
-119.6705
 20
66.247
 30
0.0
 10
-119.6705
 20
66.247
 30
0.0
 10
-116.8433
 20
68.5271
 30
0.0
 10
-106.9933
 20
81.2044
 30
0.0
 10
-119.5794
 20
84.7614
 30
0.0
 10
-119.5794
 20
84.7614
 30
0.0
 10
-119.5794
 20
84.7614
 30
0.0
 10
-111.6446
 20
75.8234
 30
0.0
 10
-123.6835
 20
66.6118
 30
0.0
  0
SPLINE
  5
79
330
1F
100
AcDbEntity
  8
layer 1
 62
     7
370
     9
100
AcDbSpline
210
0.0
220
0.0
230
1.0
 70
    11
 71
     3
 72
    20
 73
    16
 74
     0
 42
0.0000000001
 43
0.0000000001
 12
1.0
 22
0.0
 32
0.0
 13
1.0
 23
0.0
 33
0.0
 40
0.0
 40
0.0
 40
0.0
 40
0.0
 40
0.2
 40
0.2
 40
0.2
 40
0.2
 40
0.4
 40
0.4
 40
0.4
 40
0.4
 40
0.6
 40
0.6
 40
0.6
 40
0.6
 40
1.0
 40
1.0
 40
1.0
 40
1.0
 10
-131.071
 20
75.2762
 30
0.0
 10
-130.2502
 20
75.7322
 30
0.0
 10
-129.6118
 20
76.7354
 30
0.0
 10
-129.6118
 20
76.7354
 30
0.0
 10
-129.6118
 20
76.7354
 30
0.0
 10
-132.8951
 20
78.0123
 30
0.0
 10
-132.8951
 20
83.0285
 30
0.0
 10
-132.8951
 20
83.0285
 30
0.0
 10
-132.8951
 20
83.0285
 30
0.0
 10
-134.7192
 20
79.9276
 30
0.0
 10
-139.7354
 20
78.1035
 30
0.0
 10
-140.1914
 20
75.5498
 30
0.0
 10
-140.1914
 20
75.5498
 30
0.0
 10
-135.2664
 20
78.1035
 30
0.0
 10
-131.071
 20
75.2762
 30
0.0
 10
-131.071
 20
75.2762
 30
0.0
  0
SPLINE
  5
7A
330
1F
100
AcDbEntity
  8
layer 1
 62
     7
370
     9
100
AcDbSpline
210
0.0
220
0.0
230
1.0
 70
    11
 71
     3
 72
    40
 73
    36
 74
     0
 42
0.0000000001
 43
0.0000000001
 12
1.0
 22
0.0
 32
0.0
 13
1.0
 23
0.0
 33
0.0
 40
0.0
 40
0.0
 40
0.0
 40
0.0
 40
0.1
 40
0.1
 40
0.1
 40
0.1
 40
0.2
 40
0.2
 40
0.2
 40
0.2
 40
0.3
 40
0.3
 40
0.3
 40
0.3
 40
0.4
 40
0.4
 40
0.4
 40
0.4
 40
0.5
 40
0.5
 40
0.5
 40
0.5
 40
0.6
 40
0.6
 40
0.6
 40
0.6
 40
0.7
 40
0.7
 40
0.7
 40
0.7
 40
0.8
 40
0.8
 40
0.8
 40
0.8
 40
1.0
 40
1.0
 40
1.0
 40
1.0
 10
-140.351
 20
54.7782
 30
0.0
 10
-140.5562
 20
55.5306
 30
0.0
 10
-140.2826
 20
56.2146
 30
0.0
 10
-140.2826
 20
56.2146
 30
0.0
 10
-140.2826
 20
56.2146
 30
0.0
 10
-139.0969
 20
59.4067
 30
0.0
 10
-137.2729
 20
61.2308
 30
0.0
 10
-136.7257
 20
62.1428
 30
0.0
 10
-136.7257
 20
62.1428
 30
0.0
 10
-136.1784
 20
63.0549
 30
0.0
 10
-130.4326
 20
67.6151
 30
0.0
 10
-132.8951
 20
70.9896
 30
0.0
 10
-132.8951
 20
70.9896
 30
0.0
 10
-135.3576
 20
74.3642
 30
0.0
 10
-138.8233
 20
72.0841
 30
0.0
 10
-138.8233
 20
72.0841
 30
0.0
 10
-138.8233
 20
72.0841
 30
0.0
 10
-138.8233
 20
72.0841
 30
0.0
 10
-139.4617
 20
71.0808
 30
0.0
 10
-138.4585
 20
71.4456
 30
0.0
 10
-138.4585
 20
71.4456
 30
0.0
 10
-134.5368
 20
72.7225
 30
0.0
 10
-134.5368
 20
68.6183
 30
0.0
 10
-134.5368
 20
68.6183
 30
0.0
 10
-134.5368
 20
68.6183
 30
0.0
 10
-134.4455
 20
63.6933
 30
0.0
 10
-140.3738
 20
64.5142
 30
0.0
 10
-140.3738
 20
64.5142
 30
0.0
 10
-140.3738
 20
64.5142
 30
0.0
 10
-140.3738
 20
64.5142
 30
0.0
 10
-141.3086
 20
64.1493
 30
0.0
 10
-142.2663
 20
60.6608
 30
0.0
 10
-142.2663
 20
60.6608
 30
0.0
 10
-143.2239
 20
56.2146
 30
0.0
 10
-140.1458
 20
54.0257
 30
0.0
 10
-140.351
 20
54.7782
 30
0.0
  0
SPLINE
  5
7B
330
1F
100
AcDbEntity
  8
layer 1
 62
     7
370
     9
100
AcDbSpline
210
0.0
220
0.0
230
1.0
 70
    11
 71
     3
 72
    28
 73
    24
 74
     0
 42
0.0000000001
 43
0.0000000001
 12
1.0
 22
0.0
 32
0.0
 13
1.0
 23
0.0
 33
0.0
 40
0.0
 40
0.0
 40
0.0
 40
0.0
 40
0.1428571428571428
 40
0.1428571428571428
 40
0.1428571428571428
 40
0.1428571428571428
 40
0.2857142857142857
 40
0.2857142857142857
 40
0.2857142857142857
 40
0.2857142857142857
 40
0.4285714285714285
 40
0.4285714285714285
 40
0.4285714285714285
 40
0.4285714285714285
 40
0.5714285714285714
 40
0.5714285714285714
 40
0.5714285714285714
 40
0.5714285714285714
 40
0.7142857142857143
 40
0.7142857142857143
 40
0.7142857142857143
 40
0.7142857142857143
 40
1.0
 40
1.0
 40
1.0
 40
1.0
 10
-122.9539
 20
61.5044
 30
0.0
 10
-118.3025
 20
61.8692
 30
0.0
 10
-116.296
 20
60.3188
 30
0.0
 10
-116.296
 20
60.3188
 30
0.0
 10
-116.296
 20
60.3188
 30
0.0
 10
-116.296
 20
60.3188
 30
0.0
 10
-114.8368
 20
60.0452
 30
0.0
 10
-115.7488
 20
60.7748
 30
0.0
 10
-115.7488
 20
60.7748
 30
0.0
 10
-116.6608
 20
61.5044
 30
0.0
 10
-116.9344
 20
63.3285
 30
0.0
 10
-115.6576
 20
65.2438
 30
0.0
 10
-115.6576
 20
65.2438
 30
0.0
 10
-114.3808
 20
67.1591
 30
0.0
 10
-110.3678
 20
66.703
 30
0.0
 10
-110.3678
 20
66.703
 30
0.0
 10
-110.3678
 20
66.703
 30
0.0
 10
-111.0062
 20
67.3415
 30
0.0
 10
-113.0127
 20
70.6248
 30
0.0
 10
-113.0127
 20
70.6248
 30
0.0
 10
-113.0127
 20
70.6248
 30
0.0
 10
-115.2016
 20
66.6118
 30
0.0
 10
-119.1233
 20
63.4197
 30
0.0
 10
-122.9539
 20
61.5044
 30
0.0
  0
SPLINE
  5
7C
330
1F
100
AcDbEntity
  8
layer 1
 62
     7
370
     9
100
AcDbSpline
210
0.0
220
0.0
230
1.0
 70
    11
 71
     3
 72
    32
 73
    28
 74
     0
 42
0.0000000001
 43
0.0000000001
 12
1.0
 22
0.0
 32
0.0
 13
1.0
 23
0.0
 33
0.0
 40
0.0
 40
0.0
 40
0.0
 40
0.0
 40
0.125
 40
0.125
 40
0.125
 40
0.125
 40
0.25
 40
0.25
 40
0.25
 40
0.25
 40
0.375
 40
0.375
 40
0.375
 40
0.375
 40
0.5
 40
0.5
 40
0.5
 40
0.5
 40
0.625
 40
0.625
 40
0.625
 40
0.625
 40
0.75
 40
0.75
 40
0.75
 40
0.75
 40
1.0
 40
1.0
 40
1.0
 40
1.0
 10
-105.534
 20
65.6998
 30
0.0
 10
-106.3548
 20
71.7192
 30
0.0
 10
-101.977
 20
75.0938
 30
0.0
 10
-101.977
 20
75.0938
 30
0.0
 10
-101.977
 20
75.0938
 30
0.0
 10
-101.6122
 20
76.0058
 30
0.0
 10
-102.7979
 20
75.2762
 30
0.0
 10
-102.7979
 20
75.2762
 30
0.0
 10
-102.7979
 20
75.2762
 30
0.0
 10
-102.7979
 20
75.2762
 30
0.0
 10
-106.902
 20
73.6345
 30
0.0
 10
-108.0877
 20
77.0091
 30
0.0
 10
-108.0877
 20
77.0091
 30
0.0
 10
-108.1789
 20
80.7484
 30
0.0
 10
-104.8955
 20
80.2012
 30
0.0
 10
-104.8955
 20
80.2012
 30
0.0
 10
-104.8955
 20
80.2012
 30
0.0
 10
-104.8955
 20
80.2012
 30
0.0
 10
-104.2572
 20
80.6572
 30
0.0
 10
-105.078
 20
80.8396
 30
0.0
 10
-105.078
 20
80.8396
 30
0.0
 10
-107.0844
 20
82.2077
 30
0.0
 10
-112.6479
 20
80.11
 30
0.0
 10
-111.0974
 20
74.1817
 30
0.0
 10
-111.0974
 20
74.1817
 30
0.0
 10
-109.5469
 20
68.2535
 30
0.0
 10
-105.534
 20
65.6998
 30
0.0
 10
-105.534
 20
65.6998
 30
0.0
  0
SPLINE
  5
7D
330
1F
100
AcDbEntity
  8
layer 1
 62
     7
370
     9
100
AcDbSpline
210
0.0
220
0.0
230
1.0
 70
    11
 71
     3
 72
    20
 73
    16
 74
     0
 42
0.0000000001
 43
0.0000000001
 12
1.0
 22
0.0
 32
0.0
 13
1.0
 23
0.0
 33
0.0
 40
0.0
 40
0.0
 40
0.0
 40
0.0
 40
0.2
 40
0.2
 40
0.2
 40
0.2
 40
0.4
 40
0.4
 40
0.4
 40
0.4
 40
0.6
 40
0.6
 40
0.6
 40
0.6
 40
1.0
 40
1.0
 40
1.0
 40
1.0
 10
-98.8761
 20
71.8105
 30
0.0
 10
-98.8761
 20
71.8105
 30
0.0
 10
-99.5145
 20
73.5433
 30
0.0
 10
-101.065
 20
67.0678
 30
0.0
 10
-101.065
 20
67.0678
 30
0.0
 10
-102.6155
 20
60.5924
 30
0.0
 10
-99.3321
 20
58.3123
 30
0.0
 10
-99.3321
 20
58.3123
 30
0.0
 10
-99.3321
 20
58.3123
 30
0.0
 10
-99.2409
 20
64.0581
 30
0.0
 10
-97.9641
 20
64.5142
 30
0.0
 10
-96.6872
 20
66.1558
 30
0.0
 10
-96.6872
 20
66.1558
 30
0.0
 10
-99.4233
 20
67.5239
 30
0.0
 10
-98.8761
 20
71.8105
 30
0.0
 10
-98.8761
 20
71.8105
 30
0.0
  0
SPLINE
  5
7E
330
1F
100
AcDbEntity
  8
layer 1
 62
     7
370
     9
100
AcDbSpline
210
0.0
220
0.0
230
1.0
 70
    11
 71
     3
 72
    16
 73
    12
 74
     0
 42
0.0000000001
 43
0.0000000001
 12
1.0
 22
0.0
 32
0.0
 13
1.0
 23
0.0
 33
0.0
 40
0.0
 40
0.0
 40
0.0
 40
0.0
 40
0.25
 40
0.25
 40
0.25
 40
0.25
 40
0.5
 40
0.5
 40
0.5
 40
0.5
 40
1.0
 40
1.0
 40
1.0
 40
1.0
 10
-84.8599
 20
79.4849
 30
0.0
 10
-84.8599
 20
79.4849
 30
0.0
 10
-84.8599
 20
86.6423
 30
0.0
 10
-84.8599
 20
86.6423
 30
0.0
 10
-84.8599
 20
86.6423
 30
0.0
 10
-85.2607
 20
86.1149
 30
0.0
 10
-85.6034
 20
85.4994
 30
0.0
 10
-85.834
 20
84.7614
 30
0.0
 10
-85.834
 20
84.7614
 30
0.0
 10
-86.5329
 20
82.5248
 30
0.0
 10
-85.9668
 20
80.7439
 30
0.0
 10
-84.8599
 20
79.4849
 30
0.0
  0
SPLINE
  5
7F
330
1F
100
AcDbEntity
  8
layer 1
 62
     7
370
     9
100
AcDbSpline
210
0.0
220
0.0
230
1.0
 70
    11
 71
     3
 72
    24
 73
    20
 74
     0
 42
0.0000000001
 43
0.0000000001
 12
1.0
 22
0.0
 32
0.0
 13
1.0
 23
0.0
 33
0.0
 40
0.0
 40
0.0
 40
0.0
 40
0.0
 40
0.1666666666666667
 40
0.1666666666666667
 40
0.1666666666666667
 40
0.1666666666666667
 40
0.3333333333333333
 40
0.3333333333333333
 40
0.3333333333333333
 40
0.3333333333333333
 40
0.5
 40
0.5
 40
0.5
 40
0.5
 40
0.6666666666666666
 40
0.6666666666666666
 40
0.6666666666666666
 40
0.6666666666666666
 40
1.0
 40
1.0
 40
1.0
 40
1.0
 10
-91.3975
 20
52.0192
 30
0.0
 10
-91.3975
 20
52.0192
 30
0.0
 10
-92.2183
 20
45.4526
 30
0.0
 10
-88.6614
 20
43.2637
 30
0.0
 10
-88.6614
 20
43.2637
 30
0.0
 10
-88.6614
 20
43.2637
 30
0.0
 10
-90.5766
 20
49.7392
 30
0.0
 10
-87.8405
 20
54.8466
 30
0.0
 10
-87.8405
 20
54.8466
 30
0.0
 10
-87.1429
 20
56.1487
 30
0.0
 10
-86.0834
 20
57.4218
 30
0.0
 10
-84.8599
 20
58.6235
 30
0.0
 10
-84.8599
 20
58.6235
 30
0.0
 10
-84.8599
 20
58.6235
 30
0.0
 10
-84.8599
 20
61.4707
 30
0.0
 10
-84.8599
 20
61.4707
 30
0.0
 10
-84.8599
 20
61.4707
 30
0.0
 10
-90.9799
 20
55.829
 30
0.0
 10
-90.8165
 20
53.9798
 30
0.0
 10
-91.3975
 20
52.0192
 30
0.0
  0
SPLINE
  5
80
330
1F
100
AcDbEntity
  8
layer 1
 62
     7
370
     9
100
AcDbSpline
210
0.0
220
0.0
230
1.0
 70
    11
 71
     3
 72
    24
 73
    20
 74
     0
 42
0.0000000001
 43
0.0000000001
 12
1.0
 22
0.0
 32
0.0
 13
1.0
 23
0.0
 33
0.0
 40
0.0
 40
0.0
 40
0.0
 40
0.0
 40
0.1666666666666667
 40
0.1666666666666667
 40
0.1666666666666667
 40
0.1666666666666667
 40
0.3333333333333333
 40
0.3333333333333333
 40
0.3333333333333333
 40
0.3333333333333333
 40
0.5
 40
0.5
 40
0.5
 40
0.5
 40
0.6666666666666666
 40
0.6666666666666666
 40
0.6666666666666666
 40
0.6666666666666666
 40
1.0
 40
1.0
 40
1.0
 40
1.0
 10
-88.0229
 20
83.0285
 30
0.0
 10
-89.8469
 20
79.9276
 30
0.0
 10
-94.8631
 20
78.1035
 30
0.0
 10
-95.3192
 20
75.5498
 30
0.0
 10
-95.3192
 20
75.5498
 30
0.0
 10
-90.3941
 20
78.1035
 30
0.0
 10
-86.1989
 20
75.2762
 30
0.0
 10
-86.1989
 20
75.2762
 30
0.0
 10
-86.1989
 20
75.2762
 30
0.0
 10
-85.5892
 20
75.6149
 30
0.0
 10
-85.0815
 20
76.2539
 30
0.0
 10
-84.8599
 20
76.5611
 30
0.0
 10
-84.8599
 20
76.5611
 30
0.0
 10
-84.8599
 20
76.5611
 30
0.0
 10
-84.8599
 20
76.794
 30
0.0
 10
-84.8599
 20
76.794
 30
0.0
 10
-84.8599
 20
76.794
 30
0.0
 10
-88.0167
 20
78.1488
 30
0.0
 10
-88.0229
 20
83.0285
 30
0.0
 10
-88.0229
 20
83.0285
 30
0.0
  0
SPLINE
  5
81
330
1F
100
AcDbEntity
  8
layer 1
 62
     7
370
     9
100
AcDbSpline
210
0.0
220
0.0
230
1.0
 70
    11
 71
     3
 72
    40
 73
    36
 74
     0
 42
0.0000000001
 43
0.0000000001
 12
1.0
 22
0.0
 32
0.0
 13
1.0
 23
0.0
 33
0.0
 40
0.0
 40
0.0
 40
0.0
 40
0.0
 40
0.1
 40
0.1
 40
0.1
 40
0.1
 40
0.2
 40
0.2
 40
0.2
 40
0.2
 40
0.3
 40
0.3
 40
0.3
 40
0.3
 40
0.4
 40
0.4
 40
0.4
 40
0.4
 40
0.5
 40
0.5
 40
0.5
 40
0.5
 40
0.6
 40
0.6
 40
0.6
 40
0.6
 40
0.7
 40
0.7
 40
0.7
 40
0.7
 40
0.8
 40
0.8
 40
0.8
 40
0.8
 40
1.0
 40
1.0
 40
1.0
 40
1.0
 10
-95.4788
 20
54.7782
 30
0.0
 10
-95.684
 20
55.5306
 30
0.0
 10
-95.4104
 20
56.2146
 30
0.0
 10
-95.4104
 20
56.2146
 30
0.0
 10
-95.4104
 20
56.2146
 30
0.0
 10
-94.2247
 20
59.4067
 30
0.0
 10
-92.4006
 20
61.2308
 30
0.0
 10
-91.8534
 20
62.1428
 30
0.0
 10
-91.8534
 20
62.1428
 30
0.0
 10
-91.3062
 20
63.0549
 30
0.0
 10
-85.5604
 20
67.6151
 30
0.0
 10
-88.0229
 20
70.9896
 30
0.0
 10
-88.0229
 20
70.9896
 30
0.0
 10
-90.4854
 20
74.3642
 30
0.0
 10
-93.9511
 20
72.0841
 30
0.0
 10
-93.9511
 20
72.0841
 30
0.0
 10
-93.9511
 20
72.0841
 30
0.0
 10
-93.9511
 20
72.0841
 30
0.0
 10
-94.5895
 20
71.0808
 30
0.0
 10
-93.5863
 20
71.4456
 30
0.0
 10
-93.5863
 20
71.4456
 30
0.0
 10
-89.6645
 20
72.7225
 30
0.0
 10
-89.6645
 20
68.6183
 30
0.0
 10
-89.6645
 20
68.6183
 30
0.0
 10
-89.6645
 20
68.6183
 30
0.0
 10
-89.5733
 20
63.6933
 30
0.0
 10
-95.5016
 20
64.5142
 30
0.0
 10
-95.5016
 20
64.5142
 30
0.0
 10
-95.5016
 20
64.5142
 30
0.0
 10
-95.5016
 20
64.5142
 30
0.0
 10
-96.4364
 20
64.1493
 30
0.0
 10
-97.3941
 20
60.6608
 30
0.0
 10
-97.3941
 20
60.6608
 30
0.0
 10
-98.3517
 20
56.2146
 30
0.0
 10
-95.2736
 20
54.0257
 30
0.0
 10
-95.4788
 20
54.7782
 30
0.0
  0
SPLINE
  5
82
330
1F
100
AcDbEntity
  8
layer 1
 62
     7
370
     9
100
AcDbSpline
210
0.0
220
0.0
230
1.0
 70
    11
 71
     3
 72
    32
 73
    28
 74
     0
 42
0.0000000001
 43
0.0000000001
 12
1.0
 22
0.0
 32
0.0
 13
1.0
 23
0.0
 33
0.0
 40
0.0
 40
0.0
 40
0.0
 40
0.0
 40
0.125
 40
0.125
 40
0.125
 40
0.125
 40
0.25
 40
0.25
 40
0.25
 40
0.25
 40
0.375
 40
0.375
 40
0.375
 40
0.375
 40
0.5
 40
0.5
 40
0.5
 40
0.5
 40
0.625
 40
0.625
 40
0.625
 40
0.625
 40
0.75
 40
0.75
 40
0.75
 40
0.75
 40
1.0
 40
1.0
 40
1.0
 40
1.0
 10
-143.1099
 20
-67.5488
 30
0.0
 10
-146.6669
 20
-65.5423
 30
0.0
 10
-149.2206
 20
-64.9039
 30
0.0
 10
-152.6863
 20
-67.7312
 30
0.0
 10
-152.6863
 20
-67.7312
 30
0.0
 10
-152.6863
 20
-67.7312
 30
0.0
 10
-154.784
 20
-69.8289
 30
0.0
 10
-153.7808
 20
-72.0178
 30
0.0
 10
-153.7808
 20
-72.0178
 30
0.0
 10
-153.0511
 20
-73.1578
 30
0.0
 10
-152.5951
 20
-73.021
 30
0.0
 10
-152.5951
 20
-73.021
 30
0.0
 10
-152.5951
 20
-73.021
 30
0.0
 10
-152.5951
 20
-73.021
 30
0.0
 10
-152.3215
 20
-66.9104
 30
0.0
 10
-145.846
 20
-69.4641
 30
0.0
 10
-145.846
 20
-69.4641
 30
0.0
 10
-142.8363
 20
-71.1969
 30
0.0
 10
-143.7483
 20
-73.7506
 30
0.0
 10
-143.7483
 20
-73.7506
 30
0.0
 10
-143.7483
 20
-73.7506
 30
0.0
 10
-143.7483
 20
-73.7506
 30
0.0
 10
-141.2858
 20
-76.3044
 30
0.0
 10
-141.2858
 20
-76.3044
 30
0.0
 10
-141.2858
 20
-76.3044
 30
0.0
 10
-141.2858
 20
-76.3044
 30
0.0
 10
-139.553
 20
-69.5553
 30
0.0
 10
-143.1099
 20
-67.5488
 30
0.0
  0
SPLINE
  5
83
330
1F
100
AcDbEntity
  8
layer 1
 62
     7
370
     9
100
AcDbSpline
210
0.0
220
0.0
230
1.0
 70
    11
 71
     3
 72
    24
 73
    20
 74
     0
 42
0.0000000001
 43
0.0000000001
 12
1.0
 22
0.0
 32
0.0
 13
1.0
 23
0.0
 33
0.0
 40
0.0
 40
0.0
 40
0.0
 40
0.0
 40
0.1666666666666667
 40
0.1666666666666667
 40
0.1666666666666667
 40
0.1666666666666667
 40
0.3333333333333333
 40
0.3333333333333333
 40
0.3333333333333333
 40
0.3333333333333333
 40
0.5
 40
0.5
 40
0.5
 40
0.5
 40
0.6666666666666666
 40
0.6666666666666666
 40
0.6666666666666666
 40
0.6666666666666666
 40
1.0
 40
1.0
 40
1.0
 40
1.0
 10
-144.0675
 20
-74.8907
 30
0.0
 10
-144.0675
 20
-74.8907
 30
0.0
 10
-146.074
 20
-78.2196
 30
0.0
 10
-148.5365
 20
-78.9493
 30
0.0
 10
-148.5365
 20
-78.9493
 30
0.0
 10
-146.4844
 20
-79.3597
 30
0.0
 10
-144.5236
 20
-81.4118
 30
0.0
 10
-145.39
 20
-84.0111
 30
0.0
 10
-145.39
 20
-84.0111
 30
0.0
 10
-143.8851
 20
-82.6886
 30
0.0
 10
-142.2435
 20
-77.6268
 30
0.0
 10
-142.2435
 20
-77.4444
 30
0.0
 10
-142.2435
 20
-77.4444
 30
0.0
 10
-142.2435
 20
-77.262
 30
0.0
 10
-143.8851
 20
-74.8451
 30
0.0
 10
-143.8851
 20
-74.8451
 30
0.0
 10
-143.8851
 20
-74.8451
 30
0.0
 10
-143.8851
 20
-74.8451
 30
0.0
 10
-144.0675
 20
-74.8907
 30
0.0
 10
-144.0675
 20
-74.8907
 30
0.0
  0
SPLINE
  5
84
330
1F
100
AcDbEntity
  8
layer 1
 62
     7
370
     9
100
AcDbSpline
210
0.0
220
0.0
230
1.0
 70
    11
 71
     3
 72
    20
 73
    16
 74
     0
 42
0.0000000001
 43
0.0000000001
 12
1.0
 22
0.0
 32
0.0
 13
1.0
 23
0.0
 33
0.0
 40
0.0
 40
0.0
 40
0.0
 40
0.0
 40
0.2
 40
0.2
 40
0.2
 40
0.2
 40
0.4
 40
0.4
 40
0.4
 40
0.4
 40
0.6
 40
0.6
 40
0.6
 40
0.6
 40
1.0
 40
1.0
 40
1.0
 40
1.0
 10
-159.253
 20
-68.6432
 30
0.0
 10
-159.0705
 20
-65.6335
 30
0.0
 10
-156.4257
 20
-63.171
 30
0.0
 10
-156.4257
 20
-63.171
 30
0.0
 10
-156.4257
 20
-63.171
 30
0.0
 10
-161.8979
 20
-62.0766
 30
0.0
 10
-158.5233
 20
-57.4252
 30
0.0
 10
-158.5233
 20
-57.4252
 30
0.0
 10
-158.5233
 20
-57.4252
 30
0.0
 10
-162.0803
 20
-58.0636
 30
0.0
 10
-162.6275
 20
-60.6173
 30
0.0
 10
-162.6275
 20
-60.6173
 30
0.0
 10
-162.6275
 20
-60.6173
 30
0.0
 10
-164.3604
 20
-65.4511
 30
0.0
 10
-159.253
 20
-68.6432
 30
0.0
 10
-159.253
 20
-68.6432
 30
0.0
  0
SPLINE
  5
85
330
1F
100
AcDbEntity
  8
layer 1
 62
     7
370
     9
100
AcDbSpline
210
0.0
220
0.0
230
1.0
 70
    11
 71
     3
 72
    24
 73
    20
 74
     0
 42
0.0000000001
 43
0.0000000001
 12
1.0
 22
0.0
 32
0.0
 13
1.0
 23
0.0
 33
0.0
 40
0.0
 40
0.0
 40
0.0
 40
0.0
 40
0.1666666666666667
 40
0.1666666666666667
 40
0.1666666666666667
 40
0.1666666666666667
 40
0.3333333333333333
 40
0.3333333333333333
 40
0.3333333333333333
 40
0.3333333333333333
 40
0.5
 40
0.5
 40
0.5
 40
0.5
 40
0.6666666666666666
 40
0.6666666666666666
 40
0.6666666666666666
 40
0.6666666666666666
 40
1.0
 40
1.0
 40
1.0
 40
1.0
 10
-159.5266
 20
-70.1025
 30
0.0
 10
-159.5266
 20
-70.1025
 30
0.0
 10
-164.7252
 20
-68.3696
 30
0.0
 10
-165.7284
 20
-63.9006
 30
0.0
 10
-165.7284
 20
-63.9006
 30
0.0
 10
-165.9071
 20
-63.1047
 30
0.0
 10
-169.0118
 20
-67.5488
 30
0.0
 10
-164.4516
 20
-71.653
 30
0.0
 10
-164.4516
 20
-71.653
 30
0.0
 10
-155.3312
 20
-75.7571
 30
0.0
 10
-157.7025
 20
-81.5942
 30
0.0
 10
-156.8817
 20
-80.5909
 30
0.0
 10
-156.8817
 20
-80.5909
 30
0.0
 10
-156.0608
 20
-79.5877
 30
0.0
 10
-153.1423
 20
-78.402
 30
0.0
 10
-153.1423
 20
-78.402
 30
0.0
 10
-153.1423
 20
-78.402
 30
0.0
 10
-159.4354
 20
-76.578
 30
0.0
 10
-159.5266
 20
-70.1025
 30
0.0
 10
-159.5266
 20
-70.1025
 30
0.0
  0
SPLINE
  5
86
330
1F
100
AcDbEntity
  8
layer 1
 62
     7
370
     9
100
AcDbSpline
210
0.0
220
0.0
230
1.0
 70
    11
 71
     3
 72
    20
 73
    16
 74
     0
 42
0.0000000001
 43
0.0000000001
 12
1.0
 22
0.0
 32
0.0
 13
1.0
 23
0.0
 33
0.0
 40
0.0
 40
0.0
 40
0.0
 40
0.0
 40
0.2
 40
0.2
 40
0.2
 40
0.2
 40
0.4
 40
0.4
 40
0.4
 40
0.4
 40
0.6
 40
0.6
 40
0.6
 40
0.6
 40
1.0
 40
1.0
 40
1.0
 40
1.0
 10
-174.028
 20
-72.3826
 30
0.0
 10
-172.3863
 20
-70.9233
 30
0.0
 10
-168.0997
 20
-70.6497
 30
0.0
 10
-168.0997
 20
-70.6497
 30
0.0
 10
-168.0997
 20
-70.6497
 30
0.0
 10
-168.9206
 20
-69.5553
 30
0.0
 10
-168.5558
 20
-67.0928
 30
0.0
 10
-168.5558
 20
-67.0928
 30
0.0
 10
-168.5558
 20
-67.0928
 30
0.0
 10
-169.559
 20
-68.6432
 30
0.0
 10
-173.5719
 20
-70.7409
 30
0.0
 10
-173.5719
 20
-70.7409
 30
0.0
 10
-173.5719
 20
-70.7409
 30
0.0
 10
-173.7544
 20
-71.653
 30
0.0
 10
-174.028
 20
-72.3826
 30
0.0
 10
-174.028
 20
-72.3826
 30
0.0
  0
SPLINE
  5
87
330
1F
100
AcDbEntity
  8
layer 1
 62
     7
370
     9
100
AcDbSpline
210
0.0
220
0.0
230
1.0
 70
    11
 71
     3
 72
    32
 73
    28
 74
     0
 42
0.0000000001
 43
0.0000000001
 12
1.0
 22
0.0
 32
0.0
 13
1.0
 23
0.0
 33
0.0
 40
0.0
 40
0.0
 40
0.0
 40
0.0
 40
0.125
 40
0.125
 40
0.125
 40
0.125
 40
0.25
 40
0.25
 40
0.25
 40
0.25
 40
0.375
 40
0.375
 40
0.375
 40
0.375
 40
0.5
 40
0.5
 40
0.5
 40
0.5
 40
0.625
 40
0.625
 40
0.625
 40
0.625
 40
0.75
 40
0.75
 40
0.75
 40
0.75
 40
1.0
 40
1.0
 40
1.0
 40
1.0
 10
-168.9206
 20
-73.021
 30
0.0
 10
-168.9206
 20
-73.021
 30
0.0
 10
-174.028
 20
-73.3858
 30
0.0
 10
-175.396
 20
-77.7636
 30
0.0
 10
-175.396
 20
-77.7636
 30
0.0
 10
-176.7641
 20
-82.1414
 30
0.0
 10
-173.2983
 20
-84.7863
 30
0.0
 10
-170.3798
 20
-85.1511
 30
0.0
 10
-170.3798
 20
-85.1511
 30
0.0
 10
-167.4613
 20
-85.5159
 30
0.0
 10
-166.9141
 20
-83.6006
 30
0.0
 10
-166.9141
 20
-83.6006
 30
0.0
 10
-166.9141
 20
-83.6006
 30
0.0
 10
-168.0997
 20
-84.6039
 30
0.0
 10
-168.9206
 20
-84.0567
 30
0.0
 10
-168.9206
 20
-84.0567
 30
0.0
 10
-168.9206
 20
-84.0567
 30
0.0
 10
-168.9206
 20
-84.0567
 30
0.0
 10
-174.484
 20
-82.5062
 30
0.0
 10
-172.2039
 20
-77.7636
 30
0.0
 10
-172.2039
 20
-77.7636
 30
0.0
 10
-167.1877
 20
-72.565
 30
0.0
 10
-161.077
 20
-77.3076
 30
0.0
 10
-161.077
 20
-77.3076
 30
0.0
 10
-161.077
 20
-77.3076
 30
0.0
 10
-163.4483
 20
-72.0178
 30
0.0
 10
-168.9206
 20
-73.021
 30
0.0
 10
-168.9206
 20
-73.021
 30
0.0
  0
SPLINE
  5
88
330
1F
100
AcDbEntity
  8
layer 1
 62
     7
370
     9
100
AcDbSpline
210
0.0
220
0.0
230
1.0
 70
    11
 71
     3
 72
    20
 73
    16
 74
     0
 42
0.0000000001
 43
0.0000000001
 12
1.0
 22
0.0
 32
0.0
 13
1.0
 23
0.0
 33
0.0
 40
0.0
 40
0.0
 40
0.0
 40
0.0
 40
0.2
 40
0.2
 40
0.2
 40
0.2
 40
0.4
 40
0.4
 40
0.4
 40
0.4
 40
0.6
 40
0.6
 40
0.6
 40
0.6
 40
1.0
 40
1.0
 40
1.0
 40
1.0
 10
-168.0997
 20
-77.946
 30
0.0
 10
-169.359
 20
-77.946
 30
0.0
 10
-170.3798
 20
-78.9669
 30
0.0
 10
-170.3798
 20
-80.2261
 30
0.0
 10
-170.3798
 20
-80.2261
 30
0.0
 10
-170.3798
 20
-81.4854
 30
0.0
 10
-169.359
 20
-82.5062
 30
0.0
 10
-168.0997
 20
-82.5062
 30
0.0
 10
-168.0997
 20
-82.5062
 30
0.0
 10
-166.8405
 20
-82.5062
 30
0.0
 10
-165.8196
 20
-81.4854
 30
0.0
 10
-165.8196
 20
-80.2261
 30
0.0
 10
-165.8196
 20
-80.2261
 30
0.0
 10
-165.8196
 20
-78.9669
 30
0.0
 10
-166.8405
 20
-77.946
 30
0.0
 10
-168.0997
 20
-77.946
 30
0.0
  0
SPLINE
  5
89
330
1F
100
AcDbEntity
  8
layer 1
 62
     7
370
     9
100
AcDbSpline
210
0.0
220
0.0
230
1.0
 70
    11
 71
     3
 72
    20
 73
    16
 74
     0
 42
0.0000000001
 43
0.0000000001
 12
1.0
 22
0.0
 32
0.0
 13
1.0
 23
0.0
 33
0.0
 40
0.0
 40
0.0
 40
0.0
 40
0.0
 40
0.2
 40
0.2
 40
0.2
 40
0.2
 40
0.4
 40
0.4
 40
0.4
 40
0.4
 40
0.6
 40
0.6
 40
0.6
 40
0.6
 40
1.0
 40
1.0
 40
1.0
 40
1.0
 10
-171.7479
 20
-87.1576
 30
0.0
 10
-171.7479
 20
-87.1576
 30
0.0
 10
-173.2071
 20
-88.6169
 30
0.0
 10
-173.7544
 20
-88.6169
 30
0.0
 10
-173.7544
 20
-88.6169
 30
0.0
 10
-173.7544
 20
-88.6169
 30
0.0
 10
-171.4743
 20
-91.6266
 30
0.0
 10
-172.5687
 20
-96.5516
 30
0.0
 10
-172.5687
 20
-96.5516
 30
0.0
 10
-172.5687
 20
-96.5516
 30
0.0
 10
-163.9044
 20
-91.2618
 30
0.0
 10
-163.8131
 20
-83.327
 30
0.0
 10
-163.8131
 20
-83.327
 30
0.0
 10
-163.8131
 20
-83.327
 30
0.0
 10
-166.002
 20
-88.4344
 30
0.0
 10
-171.7479
 20
-87.1576
 30
0.0
  0
SPLINE
  5
8A
330
1F
100
AcDbEntity
  8
layer 1
 62
     7
370
     9
100
AcDbSpline
210
0.0
220
0.0
230
1.0
 70
    11
 71
     3
 72
    24
 73
    20
 74
     0
 42
0.0000000001
 43
0.0000000001
 12
1.0
 22
0.0
 32
0.0
 13
1.0
 23
0.0
 33
0.0
 40
0.0
 40
0.0
 40
0.0
 40
0.0
 40
0.1666666666666667
 40
0.1666666666666667
 40
0.1666666666666667
 40
0.1666666666666667
 40
0.3333333333333333
 40
0.3333333333333333
 40
0.3333333333333333
 40
0.3333333333333333
 40
0.5
 40
0.5
 40
0.5
 40
0.5
 40
0.6666666666666666
 40
0.6666666666666666
 40
0.6666666666666666
 40
0.6666666666666666
 40
1.0
 40
1.0
 40
1.0
 40
1.0
 10
-164.2691
 20
-77.7636
 30
0.0
 10
-164.2691
 20
-77.7636
 30
0.0
 10
-156.3344
 20
-86.7016
 30
0.0
 10
-168.3733
 20
-95.9131
 30
0.0
 10
-168.3733
 20
-95.9131
 30
0.0
 10
-169.0359
 20
-96.4432
 30
0.0
 10
-169.6544
 20
-96.9471
 30
0.0
 10
-170.2452
 20
-97.4346
 30
0.0
 10
-170.2452
 20
-97.4346
 30
0.0
 10
-170.2452
 20
-97.4346
 30
0.0
 10
-165.9873
 20
-97.4346
 30
0.0
 10
-165.9873
 20
-97.4346
 30
0.0
 10
-165.9873
 20
-97.4346
 30
0.0
 10
-165.2893
 20
-96.9616
 30
0.0
 10
-164.7227
 20
-96.5701
 30
0.0
 10
-164.3604
 20
-96.278
 30
0.0
 10
-164.3604
 20
-96.278
 30
0.0
 10
-161.533
 20
-93.9979
 30
0.0
 10
-151.683
 20
-81.3205
 30
0.0
 10
-164.2691
 20
-77.7636
 30
0.0
  0
SPLINE
  5
8B
330
1F
100
AcDbEntity
  8
layer 1
 62
     7
370
     9
100
AcDbSpline
210
0.0
220
0.0
230
1.0
 70
    11
 71
     3
 72
    24
 73
    20
 74
     0
 42
0.0000000001
 43
0.0000000001
 12
1.0
 22
0.0
 32
0.0
 13
1.0
 23
0.0
 33
0.0
 40
0.0
 40
0.0
 40
0.0
 40
0.0
 40
0.1666666666666667
 40
0.1666666666666667
 40
0.1666666666666667
 40
0.1666666666666667
 40
0.3333333333333333
 40
0.3333333333333333
 40
0.3333333333333333
 40
0.3333333333333333
 40
0.5
 40
0.5
 40
0.5
 40
0.5
 40
0.6666666666666666
 40
0.6666666666666666
 40
0.6666666666666666
 40
0.6666666666666666
 40
1.0
 40
1.0
 40
1.0
 40
1.0
 10
-175.7608
 20
-87.2488
 30
0.0
 10
-174.94
 20
-86.7928
 30
0.0
 10
-174.3016
 20
-85.7895
 30
0.0
 10
-174.3016
 20
-85.7895
 30
0.0
 10
-174.3016
 20
-85.7895
 30
0.0
 10
-177.5849
 20
-84.5127
 30
0.0
 10
-177.5849
 20
-79.4965
 30
0.0
 10
-177.5849
 20
-79.4965
 30
0.0
 10
-177.5849
 20
-79.4965
 30
0.0
 10
-179.309
 20
-82.4275
 30
0.0
 10
-183.8799
 20
-84.2186
 30
0.0
 10
-184.7611
 20
-86.5626
 30
0.0
 10
-184.7611
 20
-86.5626
 30
0.0
 10
-184.7611
 20
-86.5626
 30
0.0
 10
-184.7611
 20
-86.9167
 30
0.0
 10
-184.7611
 20
-86.9167
 30
0.0
 10
-184.7611
 20
-86.9167
 30
0.0
 10
-179.8884
 20
-84.4705
 30
0.0
 10
-175.7608
 20
-87.2488
 30
0.0
 10
-175.7608
 20
-87.2488
 30
0.0
  0
SPLINE
  5
8C
330
1F
100
AcDbEntity
  8
layer 1
 62
     7
370
     9
100
AcDbSpline
210
0.0
220
0.0
230
1.0
 70
    11
 71
     3
 72
    28
 73
    24
 74
     0
 42
0.0000000001
 43
0.0000000001
 12
1.0
 22
0.0
 32
0.0
 13
1.0
 23
0.0
 33
0.0
 40
0.0
 40
0.0
 40
0.0
 40
0.0
 40
0.1428571428571428
 40
0.1428571428571428
 40
0.1428571428571428
 40
0.1428571428571428
 40
0.2857142857142857
 40
0.2857142857142857
 40
0.2857142857142857
 40
0.2857142857142857
 40
0.4285714285714285
 40
0.4285714285714285
 40
0.4285714285714285
 40
0.4285714285714285
 40
0.5714285714285714
 40
0.5714285714285714
 40
0.5714285714285714
 40
0.5714285714285714
 40
0.7142857142857143
 40
0.7142857142857143
 40
0.7142857142857143
 40
0.7142857142857143
 40
1.0
 40
1.0
 40
1.0
 40
1.0
 10
-177.5849
 20
-91.5354
 30
0.0
 10
-180.0474
 20
-88.1608
 30
0.0
 10
-183.5131
 20
-90.4409
 30
0.0
 10
-183.5131
 20
-90.4409
 30
0.0
 10
-183.5131
 20
-90.4409
 30
0.0
 10
-183.5131
 20
-90.4409
 30
0.0
 10
-184.1516
 20
-91.4441
 30
0.0
 10
-183.1483
 20
-91.0794
 30
0.0
 10
-183.1483
 20
-91.0794
 30
0.0
 10
-179.2266
 20
-89.8025
 30
0.0
 10
-179.2266
 20
-93.9066
 30
0.0
 10
-179.2266
 20
-93.9066
 30
0.0
 10
-179.2266
 20
-93.9066
 30
0.0
 10
-179.191
 20
-95.8277
 30
0.0
 10
-180.0723
 20
-96.8722
 30
0.0
 10
-181.1594
 20
-97.4346
 30
0.0
 10
-181.1594
 20
-97.4346
 30
0.0
 10
-181.1594
 20
-97.4346
 30
0.0
 10
-178.7879
 20
-97.4346
 30
0.0
 10
-178.7879
 20
-97.4346
 30
0.0
 10
-178.7879
 20
-97.4346
 30
0.0
 10
-177.3856
 20
-95.6557
 30
0.0
 10
-176.2152
 20
-93.4125
 30
0.0
 10
-177.5849
 20
-91.5354
 30
0.0
  0
SPLINE
  5
8D
330
1F
100
AcDbEntity
  8
layer 1
 62
     7
370
     9
100
AcDbSpline
210
0.0
220
0.0
230
1.0
 70
    11
 71
     3
 72
    24
 73
    20
 74
     0
 42
0.0000000001
 43
0.0000000001
 12
1.0
 22
0.0
 32
0.0
 13
1.0
 23
0.0
 33
0.0
 40
0.0
 40
0.0
 40
0.0
 40
0.0
 40
0.1666666666666667
 40
0.1666666666666667
 40
0.1666666666666667
 40
0.1666666666666667
 40
0.3333333333333333
 40
0.3333333333333333
 40
0.3333333333333333
 40
0.3333333333333333
 40
0.5
 40
0.5
 40
0.5
 40
0.5
 40
0.6666666666666666
 40
0.6666666666666666
 40
0.6666666666666666
 40
0.6666666666666666
 40
1.0
 40
1.0
 40
1.0
 40
1.0
 10
-155.0576
 20
-95.8219
 30
0.0
 10
-155.696
 20
-95.1835
 30
0.0
 10
-157.7025
 20
-91.9002
 30
0.0
 10
-157.7025
 20
-91.9002
 30
0.0
 10
-157.7025
 20
-91.9002
 30
0.0
 10
-158.8423
 20
-93.99
 30
0.0
 10
-160.4542
 20
-95.8544
 30
0.0
 10
-162.2763
 20
-97.4346
 30
0.0
 10
-162.2763
 20
-97.4346
 30
0.0
 10
-162.2763
 20
-97.4346
 30
0.0
 10
-160.4423
 20
-97.4346
 30
0.0
 10
-160.4423
 20
-97.4346
 30
0.0
 10
-160.4423
 20
-97.4346
 30
0.0
 10
-160.4103
 20
-97.3834
 30
0.0
 10
-160.3816
 20
-97.3325
 30
0.0
 10
-160.3474
 20
-97.2812
 30
0.0
 10
-160.3474
 20
-97.2812
 30
0.0
 10
-159.0705
 20
-95.3659
 30
0.0
 10
-155.0576
 20
-95.8219
 30
0.0
 10
-155.0576
 20
-95.8219
 30
0.0
  0
SPLINE
  5
8E
330
1F
100
AcDbEntity
  8
layer 1
 62
     7
370
     9
100
AcDbSpline
210
0.0
220
0.0
230
1.0
 70
    11
 71
     3
 72
    32
 73
    28
 74
     0
 42
0.0000000001
 43
0.0000000001
 12
1.0
 22
0.0
 32
0.0
 13
1.0
 23
0.0
 33
0.0
 40
0.0
 40
0.0
 40
0.0
 40
0.0
 40
0.125
 40
0.125
 40
0.125
 40
0.125
 40
0.25
 40
0.25
 40
0.25
 40
0.25
 40
0.375
 40
0.375
 40
0.375
 40
0.375
 40
0.5
 40
0.5
 40
0.5
 40
0.5
 40
0.625
 40
0.625
 40
0.625
 40
0.625
 40
0.75
 40
0.75
 40
0.75
 40
0.75
 40
1.0
 40
1.0
 40
1.0
 40
1.0
 10
-147.4877
 20
-87.2488
 30
0.0
 10
-147.4877
 20
-87.2488
 30
0.0
 10
-151.5919
 20
-88.8905
 30
0.0
 10
-152.7775
 20
-85.5159
 30
0.0
 10
-152.7775
 20
-85.5159
 30
0.0
 10
-152.8687
 20
-81.7766
 30
0.0
 10
-149.5854
 20
-82.3238
 30
0.0
 10
-149.5854
 20
-82.3238
 30
0.0
 10
-149.5854
 20
-82.3238
 30
0.0
 10
-149.5854
 20
-82.3238
 30
0.0
 10
-148.9469
 20
-81.8678
 30
0.0
 10
-149.7678
 20
-81.6854
 30
0.0
 10
-149.7678
 20
-81.6854
 30
0.0
 10
-151.7743
 20
-80.3173
 30
0.0
 10
-157.3377
 20
-82.415
 30
0.0
 10
-155.7872
 20
-88.3432
 30
0.0
 10
-155.7872
 20
-88.3432
 30
0.0
 10
-154.2368
 20
-94.2715
 30
0.0
 10
-150.2238
 20
-96.8252
 30
0.0
 10
-150.2238
 20
-96.8252
 30
0.0
 10
-150.2238
 20
-96.8252
 30
0.0
 10
-151.0446
 20
-90.8057
 30
0.0
 10
-146.6669
 20
-87.4312
 30
0.0
 10
-146.6669
 20
-87.4312
 30
0.0
 10
-146.6669
 20
-87.4312
 30
0.0
 10
-146.302
 20
-86.5192
 30
0.0
 10
-147.4877
 20
-87.2488
 30
0.0
 10
-147.4877
 20
-87.2488
 30
0.0
  0
SPLINE
  5
8F
330
1F
100
AcDbEntity
  8
layer 1
 62
     7
370
     9
100
AcDbSpline
210
0.0
220
0.0
230
1.0
 70
    11
 71
     3
 72
    24
 73
    20
 74
     0
 42
0.0000000001
 43
0.0000000001
 12
1.0
 22
0.0
 32
0.0
 13
1.0
 23
0.0
 33
0.0
 40
0.0
 40
0.0
 40
0.0
 40
0.0
 40
0.1666666666666667
 40
0.1666666666666667
 40
0.1666666666666667
 40
0.1666666666666667
 40
0.3333333333333333
 40
0.3333333333333333
 40
0.3333333333333333
 40
0.3333333333333333
 40
0.5
 40
0.5
 40
0.5
 40
0.5
 40
0.6666666666666666
 40
0.6666666666666666
 40
0.6666666666666666
 40
0.6666666666666666
 40
1.0
 40
1.0
 40
1.0
 40
1.0
 10
-143.5659
 20
-90.7145
 30
0.0
 10
-143.5659
 20
-90.7145
 30
0.0
 10
-144.2044
 20
-88.9817
 30
0.0
 10
-145.7548
 20
-95.4571
 30
0.0
 10
-145.7548
 20
-95.4571
 30
0.0
 10
-145.9252
 20
-96.169
 30
0.0
 10
-146.0287
 20
-96.8216
 30
0.0
 10
-146.0931
 20
-97.4346
 30
0.0
 10
-146.0931
 20
-97.4346
 30
0.0
 10
-146.0931
 20
-97.4346
 30
0.0
 10
-142.2781
 20
-97.4346
 30
0.0
 10
-142.2781
 20
-97.4346
 30
0.0
 10
-142.2781
 20
-97.4346
 30
0.0
 10
-141.9885
 20
-97.0883
 30
0.0
 10
-141.683
 20
-96.7625
 30
0.0
 10
-141.377
 20
-96.3691
 30
0.0
 10
-141.377
 20
-96.3691
 30
0.0
 10
-144.1131
 20
-95.0011
 30
0.0
 10
-143.5659
 20
-90.7145
 30
0.0
 10
-143.5659
 20
-90.7145
 30
0.0
  0
SPLINE
  5
90
330
1F
100
AcDbEntity
  8
layer 1
 62
     7
370
     9
100
AcDbSpline
210
0.0
220
0.0
230
1.0
 70
    11
 71
     3
 72
    32
 73
    28
 74
     0
 42
0.0000000001
 43
0.0000000001
 12
1.0
 22
0.0
 32
0.0
 13
1.0
 23
0.0
 33
0.0
 40
0.0
 40
0.0
 40
0.0
 40
0.0
 40
0.125
 40
0.125
 40
0.125
 40
0.125
 40
0.25
 40
0.25
 40
0.25
 40
0.25
 40
0.375
 40
0.375
 40
0.375
 40
0.375
 40
0.5
 40
0.5
 40
0.5
 40
0.5
 40
0.625
 40
0.625
 40
0.625
 40
0.625
 40
0.75
 40
0.75
 40
0.75
 40
0.75
 40
1.0
 40
1.0
 40
1.0
 40
1.0
 10
-98.4201
 20
-67.5488
 30
0.0
 10
-101.977
 20
-65.5423
 30
0.0
 10
-104.5307
 20
-64.9039
 30
0.0
 10
-107.9965
 20
-67.7312
 30
0.0
 10
-107.9965
 20
-67.7312
 30
0.0
 10
-107.9965
 20
-67.7312
 30
0.0
 10
-110.0941
 20
-69.8289
 30
0.0
 10
-109.0909
 20
-72.0178
 30
0.0
 10
-109.0909
 20
-72.0178
 30
0.0
 10
-108.3613
 20
-73.1578
 30
0.0
 10
-107.9053
 20
-73.021
 30
0.0
 10
-107.9053
 20
-73.021
 30
0.0
 10
-107.9053
 20
-73.021
 30
0.0
 10
-107.9053
 20
-73.021
 30
0.0
 10
-107.6316
 20
-66.9104
 30
0.0
 10
-101.1562
 20
-69.4641
 30
0.0
 10
-101.1562
 20
-69.4641
 30
0.0
 10
-98.1465
 20
-71.1969
 30
0.0
 10
-99.0585
 20
-73.7506
 30
0.0
 10
-99.0585
 20
-73.7506
 30
0.0
 10
-99.0585
 20
-73.7506
 30
0.0
 10
-99.0585
 20
-73.7506
 30
0.0
 10
-96.596
 20
-76.3044
 30
0.0
 10
-96.596
 20
-76.3044
 30
0.0
 10
-96.596
 20
-76.3044
 30
0.0
 10
-96.596
 20
-76.3044
 30
0.0
 10
-94.8631
 20
-69.5553
 30
0.0
 10
-98.4201
 20
-67.5488
 30
0.0
  0
SPLINE
  5
91
330
1F
100
AcDbEntity
  8
layer 1
 62
     7
370
     9
100
AcDbSpline
210
0.0
220
0.0
230
1.0
 70
    11
 71
     3
 72
    24
 73
    20
 74
     0
 42
0.0000000001
 43
0.0000000001
 12
1.0
 22
0.0
 32
0.0
 13
1.0
 23
0.0
 33
0.0
 40
0.0
 40
0.0
 40
0.0
 40
0.0
 40
0.1666666666666667
 40
0.1666666666666667
 40
0.1666666666666667
 40
0.1666666666666667
 40
0.3333333333333333
 40
0.3333333333333333
 40
0.3333333333333333
 40
0.3333333333333333
 40
0.5
 40
0.5
 40
0.5
 40
0.5
 40
0.6666666666666666
 40
0.6666666666666666
 40
0.6666666666666666
 40
0.6666666666666666
 40
1.0
 40
1.0
 40
1.0
 40
1.0
 10
-99.3777
 20
-74.8907
 30
0.0
 10
-99.3777
 20
-74.8907
 30
0.0
 10
-101.3842
 20
-78.2196
 30
0.0
 10
-103.8467
 20
-78.9493
 30
0.0
 10
-103.8467
 20
-78.9493
 30
0.0
 10
-101.7947
 20
-79.3597
 30
0.0
 10
-99.8337
 20
-81.4118
 30
0.0
 10
-100.7002
 20
-84.0111
 30
0.0
 10
-100.7002
 20
-84.0111
 30
0.0
 10
-99.1954
 20
-82.6886
 30
0.0
 10
-97.5537
 20
-77.6268
 30
0.0
 10
-97.5537
 20
-77.4444
 30
0.0
 10
-97.5537
 20
-77.4444
 30
0.0
 10
-97.5537
 20
-77.262
 30
0.0
 10
-99.1954
 20
-74.8451
 30
0.0
 10
-99.1954
 20
-74.8451
 30
0.0
 10
-99.1954
 20
-74.8451
 30
0.0
 10
-99.1954
 20
-74.8451
 30
0.0
 10
-99.3777
 20
-74.8907
 30
0.0
 10
-99.3777
 20
-74.8907
 30
0.0
  0
SPLINE
  5
92
330
1F
100
AcDbEntity
  8
layer 1
 62
     7
370
     9
100
AcDbSpline
210
0.0
220
0.0
230
1.0
 70
    11
 71
     3
 72
    20
 73
    16
 74
     0
 42
0.0000000001
 43
0.0000000001
 12
1.0
 22
0.0
 32
0.0
 13
1.0
 23
0.0
 33
0.0
 40
0.0
 40
0.0
 40
0.0
 40
0.0
 40
0.2
 40
0.2
 40
0.2
 40
0.2
 40
0.4
 40
0.4
 40
0.4
 40
0.4
 40
0.6
 40
0.6
 40
0.6
 40
0.6
 40
1.0
 40
1.0
 40
1.0
 40
1.0
 10
-114.5631
 20
-68.6432
 30
0.0
 10
-114.3808
 20
-65.6335
 30
0.0
 10
-111.7358
 20
-63.171
 30
0.0
 10
-111.7358
 20
-63.171
 30
0.0
 10
-111.7358
 20
-63.171
 30
0.0
 10
-117.208
 20
-62.0766
 30
0.0
 10
-113.8335
 20
-57.4252
 30
0.0
 10
-113.8335
 20
-57.4252
 30
0.0
 10
-113.8335
 20
-57.4252
 30
0.0
 10
-117.3905
 20
-58.0636
 30
0.0
 10
-117.9377
 20
-60.6173
 30
0.0
 10
-117.9377
 20
-60.6173
 30
0.0
 10
-117.9377
 20
-60.6173
 30
0.0
 10
-119.6705
 20
-65.4511
 30
0.0
 10
-114.5631
 20
-68.6432
 30
0.0
 10
-114.5631
 20
-68.6432
 30
0.0
  0
SPLINE
  5
93
330
1F
100
AcDbEntity
  8
layer 1
 62
     7
370
     9
100
AcDbSpline
210
0.0
220
0.0
230
1.0
 70
    11
 71
     3
 72
    24
 73
    20
 74
     0
 42
0.0000000001
 43
0.0000000001
 12
1.0
 22
0.0
 32
0.0
 13
1.0
 23
0.0
 33
0.0
 40
0.0
 40
0.0
 40
0.0
 40
0.0
 40
0.1666666666666667
 40
0.1666666666666667
 40
0.1666666666666667
 40
0.1666666666666667
 40
0.3333333333333333
 40
0.3333333333333333
 40
0.3333333333333333
 40
0.3333333333333333
 40
0.5
 40
0.5
 40
0.5
 40
0.5
 40
0.6666666666666666
 40
0.6666666666666666
 40
0.6666666666666666
 40
0.6666666666666666
 40
1.0
 40
1.0
 40
1.0
 40
1.0
 10
-114.8368
 20
-70.1025
 30
0.0
 10
-114.8368
 20
-70.1025
 30
0.0
 10
-120.0354
 20
-68.3696
 30
0.0
 10
-121.0386
 20
-63.9006
 30
0.0
 10
-121.0386
 20
-63.9006
 30
0.0
 10
-121.2173
 20
-63.1047
 30
0.0
 10
-124.3219
 20
-67.5488
 30
0.0
 10
-119.7617
 20
-71.653
 30
0.0
 10
-119.7617
 20
-71.653
 30
0.0
 10
-110.6414
 20
-75.7571
 30
0.0
 10
-113.0127
 20
-81.5942
 30
0.0
 10
-112.1919
 20
-80.5909
 30
0.0
 10
-112.1919
 20
-80.5909
 30
0.0
 10
-111.371
 20
-79.5877
 30
0.0
 10
-108.4525
 20
-78.402
 30
0.0
 10
-108.4525
 20
-78.402
 30
0.0
 10
-108.4525
 20
-78.402
 30
0.0
 10
-114.7455
 20
-76.578
 30
0.0
 10
-114.8368
 20
-70.1025
 30
0.0
 10
-114.8368
 20
-70.1025
 30
0.0
  0
SPLINE
  5
94
330
1F
100
AcDbEntity
  8
layer 1
 62
     7
370
     9
100
AcDbSpline
210
0.0
220
0.0
230
1.0
 70
    11
 71
     3
 72
    20
 73
    16
 74
     0
 42
0.0000000001
 43
0.0000000001
 12
1.0
 22
0.0
 32
0.0
 13
1.0
 23
0.0
 33
0.0
 40
0.0
 40
0.0
 40
0.0
 40
0.0
 40
0.2
 40
0.2
 40
0.2
 40
0.2
 40
0.4
 40
0.4
 40
0.4
 40
0.4
 40
0.6
 40
0.6
 40
0.6
 40
0.6
 40
1.0
 40
1.0
 40
1.0
 40
1.0
 10
-123.8659
 20
-67.0928
 30
0.0
 10
-124.8691
 20
-68.6432
 30
0.0
 10
-128.8821
 20
-70.7409
 30
0.0
 10
-128.8821
 20
-70.7409
 30
0.0
 10
-128.8821
 20
-70.7409
 30
0.0
 10
-129.0645
 20
-71.653
 30
0.0
 10
-129.3381
 20
-72.3826
 30
0.0
 10
-129.3381
 20
-72.3826
 30
0.0
 10
-129.3381
 20
-72.3826
 30
0.0
 10
-127.6965
 20
-70.9233
 30
0.0
 10
-123.4099
 20
-70.6497
 30
0.0
 10
-123.4099
 20
-70.6497
 30
0.0
 10
-123.4099
 20
-70.6497
 30
0.0
 10
-124.2307
 20
-69.5553
 30
0.0
 10
-123.8659
 20
-67.0928
 30
0.0
 10
-123.8659
 20
-67.0928
 30
0.0
  0
SPLINE
  5
95
330
1F
100
AcDbEntity
  8
layer 1
 62
     7
370
     9
100
AcDbSpline
210
0.0
220
0.0
230
1.0
 70
    11
 71
     3
 72
    32
 73
    28
 74
     0
 42
0.0000000001
 43
0.0000000001
 12
1.0
 22
0.0
 32
0.0
 13
1.0
 23
0.0
 33
0.0
 40
0.0
 40
0.0
 40
0.0
 40
0.0
 40
0.125
 40
0.125
 40
0.125
 40
0.125
 40
0.25
 40
0.25
 40
0.25
 40
0.25
 40
0.375
 40
0.375
 40
0.375
 40
0.375
 40
0.5
 40
0.5
 40
0.5
 40
0.5
 40
0.625
 40
0.625
 40
0.625
 40
0.625
 40
0.75
 40
0.75
 40
0.75
 40
0.75
 40
1.0
 40
1.0
 40
1.0
 40
1.0
 10
-124.2307
 20
-73.021
 30
0.0
 10
-124.2307
 20
-73.021
 30
0.0
 10
-129.3381
 20
-73.3858
 30
0.0
 10
-130.7062
 20
-77.7636
 30
0.0
 10
-130.7062
 20
-77.7636
 30
0.0
 10
-132.0743
 20
-82.1414
 30
0.0
 10
-128.6085
 20
-84.7863
 30
0.0
 10
-125.69
 20
-85.1511
 30
0.0
 10
-125.69
 20
-85.1511
 30
0.0
 10
-122.7715
 20
-85.5159
 30
0.0
 10
-122.2243
 20
-83.6006
 30
0.0
 10
-122.2243
 20
-83.6006
 30
0.0
 10
-122.2243
 20
-83.6006
 30
0.0
 10
-123.4099
 20
-84.6039
 30
0.0
 10
-124.2307
 20
-84.0567
 30
0.0
 10
-124.2307
 20
-84.0567
 30
0.0
 10
-124.2307
 20
-84.0567
 30
0.0
 10
-124.2307
 20
-84.0567
 30
0.0
 10
-129.7941
 20
-82.5062
 30
0.0
 10
-127.5141
 20
-77.7636
 30
0.0
 10
-127.5141
 20
-77.7636
 30
0.0
 10
-122.4979
 20
-72.565
 30
0.0
 10
-116.3872
 20
-77.3076
 30
0.0
 10
-116.3872
 20
-77.3076
 30
0.0
 10
-116.3872
 20
-77.3076
 30
0.0
 10
-118.7585
 20
-72.0178
 30
0.0
 10
-124.2307
 20
-73.021
 30
0.0
 10
-124.2307
 20
-73.021
 30
0.0
  0
SPLINE
  5
96
330
1F
100
AcDbEntity
  8
layer 1
 62
     7
370
     9
100
AcDbSpline
210
0.0
220
0.0
230
1.0
 70
    11
 71
     3
 72
    20
 73
    16
 74
     0
 42
0.0000000001
 43
0.0000000001
 12
1.0
 22
0.0
 32
0.0
 13
1.0
 23
0.0
 33
0.0
 40
0.0
 40
0.0
 40
0.0
 40
0.0
 40
0.2
 40
0.2
 40
0.2
 40
0.2
 40
0.4
 40
0.4
 40
0.4
 40
0.4
 40
0.6
 40
0.6
 40
0.6
 40
0.6
 40
1.0
 40
1.0
 40
1.0
 40
1.0
 10
-123.4099
 20
-77.946
 30
0.0
 10
-124.6692
 20
-77.946
 30
0.0
 10
-125.69
 20
-78.9669
 30
0.0
 10
-125.69
 20
-80.2261
 30
0.0
 10
-125.69
 20
-80.2261
 30
0.0
 10
-125.69
 20
-81.4854
 30
0.0
 10
-124.6692
 20
-82.5062
 30
0.0
 10
-123.4099
 20
-82.5062
 30
0.0
 10
-123.4099
 20
-82.5062
 30
0.0
 10
-122.1506
 20
-82.5062
 30
0.0
 10
-121.1298
 20
-81.4854
 30
0.0
 10
-121.1298
 20
-80.2261
 30
0.0
 10
-121.1298
 20
-80.2261
 30
0.0
 10
-121.1298
 20
-78.9669
 30
0.0
 10
-122.1506
 20
-77.946
 30
0.0
 10
-123.4099
 20
-77.946
 30
0.0
  0
SPLINE
  5
97
330
1F
100
AcDbEntity
  8
layer 1
 62
     7
370
     9
100
AcDbSpline
210
0.0
220
0.0
230
1.0
 70
    11
 71
     3
 72
    20
 73
    16
 74
     0
 42
0.0000000001
 43
0.0000000001
 12
1.0
 22
0.0
 32
0.0
 13
1.0
 23
0.0
 33
0.0
 40
0.0
 40
0.0
 40
0.0
 40
0.0
 40
0.2
 40
0.2
 40
0.2
 40
0.2
 40
0.4
 40
0.4
 40
0.4
 40
0.4
 40
0.6
 40
0.6
 40
0.6
 40
0.6
 40
1.0
 40
1.0
 40
1.0
 40
1.0
 10
-127.0581
 20
-87.1576
 30
0.0
 10
-127.0581
 20
-87.1576
 30
0.0
 10
-128.5173
 20
-88.6169
 30
0.0
 10
-129.0645
 20
-88.6169
 30
0.0
 10
-129.0645
 20
-88.6169
 30
0.0
 10
-129.0645
 20
-88.6169
 30
0.0
 10
-126.7844
 20
-91.6266
 30
0.0
 10
-127.8789
 20
-96.5516
 30
0.0
 10
-127.8789
 20
-96.5516
 30
0.0
 10
-127.8789
 20
-96.5516
 30
0.0
 10
-119.2145
 20
-91.2618
 30
0.0
 10
-119.1233
 20
-83.327
 30
0.0
 10
-119.1233
 20
-83.327
 30
0.0
 10
-119.1233
 20
-83.327
 30
0.0
 10
-121.3122
 20
-88.4344
 30
0.0
 10
-127.0581
 20
-87.1576
 30
0.0
  0
SPLINE
  5
98
330
1F
100
AcDbEntity
  8
layer 1
 62
     7
370
     9
100
AcDbSpline
210
0.0
220
0.0
230
1.0
 70
    11
 71
     3
 72
    24
 73
    20
 74
     0
 42
0.0000000001
 43
0.0000000001
 12
1.0
 22
0.0
 32
0.0
 13
1.0
 23
0.0
 33
0.0
 40
0.0
 40
0.0
 40
0.0
 40
0.0
 40
0.1666666666666667
 40
0.1666666666666667
 40
0.1666666666666667
 40
0.1666666666666667
 40
0.3333333333333333
 40
0.3333333333333333
 40
0.3333333333333333
 40
0.3333333333333333
 40
0.5
 40
0.5
 40
0.5
 40
0.5
 40
0.6666666666666666
 40
0.6666666666666666
 40
0.6666666666666666
 40
0.6666666666666666
 40
1.0
 40
1.0
 40
1.0
 40
1.0
 10
-119.5794
 20
-77.7636
 30
0.0
 10
-119.5794
 20
-77.7636
 30
0.0
 10
-111.6446
 20
-86.7016
 30
0.0
 10
-123.6835
 20
-95.9131
 30
0.0
 10
-123.6835
 20
-95.9131
 30
0.0
 10
-124.3461
 20
-96.4432
 30
0.0
 10
-124.9646
 20
-96.9471
 30
0.0
 10
-125.5554
 20
-97.4346
 30
0.0
 10
-125.5554
 20
-97.4346
 30
0.0
 10
-125.5554
 20
-97.4346
 30
0.0
 10
-121.2975
 20
-97.4346
 30
0.0
 10
-121.2975
 20
-97.4346
 30
0.0
 10
-121.2975
 20
-97.4346
 30
0.0
 10
-120.5995
 20
-96.9616
 30
0.0
 10
-120.0328
 20
-96.5701
 30
0.0
 10
-119.6705
 20
-96.278
 30
0.0
 10
-119.6705
 20
-96.278
 30
0.0
 10
-116.8433
 20
-93.9979
 30
0.0
 10
-106.9933
 20
-81.3205
 30
0.0
 10
-119.5794
 20
-77.7636
 30
0.0
  0
SPLINE
  5
99
330
1F
100
AcDbEntity
  8
layer 1
 62
     7
370
     9
100
AcDbSpline
210
0.0
220
0.0
230
1.0
 70
    11
 71
     3
 72
    20
 73
    16
 74
     0
 42
0.0000000001
 43
0.0000000001
 12
1.0
 22
0.0
 32
0.0
 13
1.0
 23
0.0
 33
0.0
 40
0.0
 40
0.0
 40
0.0
 40
0.0
 40
0.2
 40
0.2
 40
0.2
 40
0.2
 40
0.4
 40
0.4
 40
0.4
 40
0.4
 40
0.6
 40
0.6
 40
0.6
 40
0.6
 40
1.0
 40
1.0
 40
1.0
 40
1.0
 10
-132.8951
 20
-79.4965
 30
0.0
 10
-134.7192
 20
-82.5974
 30
0.0
 10
-139.7354
 20
-84.4215
 30
0.0
 10
-140.1914
 20
-86.9752
 30
0.0
 10
-140.1914
 20
-86.9752
 30
0.0
 10
-135.2664
 20
-84.4215
 30
0.0
 10
-131.071
 20
-87.2488
 30
0.0
 10
-131.071
 20
-87.2488
 30
0.0
 10
-131.071
 20
-87.2488
 30
0.0
 10
-130.2502
 20
-86.7928
 30
0.0
 10
-129.6118
 20
-85.7895
 30
0.0
 10
-129.6118
 20
-85.7895
 30
0.0
 10
-129.6118
 20
-85.7895
 30
0.0
 10
-132.8951
 20
-84.5127
 30
0.0
 10
-132.8951
 20
-79.4965
 30
0.0
 10
-132.8951
 20
-79.4965
 30
0.0
  0
SPLINE
  5
9A
330
1F
100
AcDbEntity
  8
layer 1
 62
     7
370
     9
100
AcDbSpline
210
0.0
220
0.0
230
1.0
 70
    11
 71
     3
 72
    28
 73
    24
 74
     0
 42
0.0000000001
 43
0.0000000001
 12
1.0
 22
0.0
 32
0.0
 13
1.0
 23
0.0
 33
0.0
 40
0.0
 40
0.0
 40
0.0
 40
0.0
 40
0.1428571428571428
 40
0.1428571428571428
 40
0.1428571428571428
 40
0.1428571428571428
 40
0.2857142857142857
 40
0.2857142857142857
 40
0.2857142857142857
 40
0.2857142857142857
 40
0.4285714285714285
 40
0.4285714285714285
 40
0.4285714285714285
 40
0.4285714285714285
 40
0.5714285714285714
 40
0.5714285714285714
 40
0.5714285714285714
 40
0.5714285714285714
 40
0.7142857142857143
 40
0.7142857142857143
 40
0.7142857142857143
 40
0.7142857142857143
 40
1.0
 40
1.0
 40
1.0
 40
1.0
 10
-132.8951
 20
-91.5354
 30
0.0
 10
-135.3576
 20
-88.1608
 30
0.0
 10
-138.8233
 20
-90.4409
 30
0.0
 10
-138.8233
 20
-90.4409
 30
0.0
 10
-138.8233
 20
-90.4409
 30
0.0
 10
-138.8233
 20
-90.4409
 30
0.0
 10
-139.4617
 20
-91.4441
 30
0.0
 10
-138.4585
 20
-91.0794
 30
0.0
 10
-138.4585
 20
-91.0794
 30
0.0
 10
-134.5368
 20
-89.8025
 30
0.0
 10
-134.5368
 20
-93.9066
 30
0.0
 10
-134.5368
 20
-93.9066
 30
0.0
 10
-134.5368
 20
-93.9066
 30
0.0
 10
-134.5012
 20
-95.8277
 30
0.0
 10
-135.3825
 20
-96.8722
 30
0.0
 10
-136.4695
 20
-97.4346
 30
0.0
 10
-136.4695
 20
-97.4346
 30
0.0
 10
-136.4695
 20
-97.4346
 30
0.0
 10
-134.098
 20
-97.4346
 30
0.0
 10
-134.098
 20
-97.4346
 30
0.0
 10
-134.098
 20
-97.4346
 30
0.0
 10
-132.6957
 20
-95.6557
 30
0.0
 10
-131.5253
 20
-93.4125
 30
0.0
 10
-132.8951
 20
-91.5354
 30
0.0
  0
SPLINE
  5
9B
330
1F
100
AcDbEntity
  8
layer 1
 62
     7
370
     9
100
AcDbSpline
210
0.0
220
0.0
230
1.0
 70
    11
 71
     3
 72
    24
 73
    20
 74
     0
 42
0.0000000001
 43
0.0000000001
 12
1.0
 22
0.0
 32
0.0
 13
1.0
 23
0.0
 33
0.0
 40
0.0
 40
0.0
 40
0.0
 40
0.0
 40
0.1666666666666667
 40
0.1666666666666667
 40
0.1666666666666667
 40
0.1666666666666667
 40
0.3333333333333333
 40
0.3333333333333333
 40
0.3333333333333333
 40
0.3333333333333333
 40
0.5
 40
0.5
 40
0.5
 40
0.5
 40
0.6666666666666666
 40
0.6666666666666666
 40
0.6666666666666666
 40
0.6666666666666666
 40
1.0
 40
1.0
 40
1.0
 40
1.0
 10
-110.3678
 20
-95.8219
 30
0.0
 10
-111.0062
 20
-95.1835
 30
0.0
 10
-113.0127
 20
-91.9002
 30
0.0
 10
-113.0127
 20
-91.9002
 30
0.0
 10
-113.0127
 20
-91.9002
 30
0.0
 10
-114.1526
 20
-93.99
 30
0.0
 10
-115.7644
 20
-95.8544
 30
0.0
 10
-117.5866
 20
-97.4346
 30
0.0
 10
-117.5866
 20
-97.4346
 30
0.0
 10
-117.5866
 20
-97.4346
 30
0.0
 10
-115.7525
 20
-97.4346
 30
0.0
 10
-115.7525
 20
-97.4346
 30
0.0
 10
-115.7525
 20
-97.4346
 30
0.0
 10
-115.7205
 20
-97.3834
 30
0.0
 10
-115.6918
 20
-97.3325
 30
0.0
 10
-115.6576
 20
-97.2812
 30
0.0
 10
-115.6576
 20
-97.2812
 30
0.0
 10
-114.3808
 20
-95.3659
 30
0.0
 10
-110.3678
 20
-95.8219
 30
0.0
 10
-110.3678
 20
-95.8219
 30
0.0
  0
SPLINE
  5
9C
330
1F
100
AcDbEntity
  8
layer 1
 62
     7
370
     9
100
AcDbSpline
210
0.0
220
0.0
230
1.0
 70
    11
 71
     3
 72
    32
 73
    28
 74
     0
 42
0.0000000001
 43
0.0000000001
 12
1.0
 22
0.0
 32
0.0
 13
1.0
 23
0.0
 33
0.0
 40
0.0
 40
0.0
 40
0.0
 40
0.0
 40
0.125
 40
0.125
 40
0.125
 40
0.125
 40
0.25
 40
0.25
 40
0.25
 40
0.25
 40
0.375
 40
0.375
 40
0.375
 40
0.375
 40
0.5
 40
0.5
 40
0.5
 40
0.5
 40
0.625
 40
0.625
 40
0.625
 40
0.625
 40
0.75
 40
0.75
 40
0.75
 40
0.75
 40
1.0
 40
1.0
 40
1.0
 40
1.0
 10
-102.7979
 20
-87.2488
 30
0.0
 10
-102.7979
 20
-87.2488
 30
0.0
 10
-106.902
 20
-88.8905
 30
0.0
 10
-108.0877
 20
-85.5159
 30
0.0
 10
-108.0877
 20
-85.5159
 30
0.0
 10
-108.1789
 20
-81.7766
 30
0.0
 10
-104.8955
 20
-82.3238
 30
0.0
 10
-104.8955
 20
-82.3238
 30
0.0
 10
-104.8955
 20
-82.3238
 30
0.0
 10
-104.8955
 20
-82.3238
 30
0.0
 10
-104.2572
 20
-81.8678
 30
0.0
 10
-105.078
 20
-81.6854
 30
0.0
 10
-105.078
 20
-81.6854
 30
0.0
 10
-107.0844
 20
-80.3173
 30
0.0
 10
-112.6479
 20
-82.415
 30
0.0
 10
-111.0974
 20
-88.3432
 30
0.0
 10
-111.0974
 20
-88.3432
 30
0.0
 10
-109.5469
 20
-94.2715
 30
0.0
 10
-105.534
 20
-96.8252
 30
0.0
 10
-105.534
 20
-96.8252
 30
0.0
 10
-105.534
 20
-96.8252
 30
0.0
 10
-106.3548
 20
-90.8057
 30
0.0
 10
-101.977
 20
-87.4312
 30
0.0
 10
-101.977
 20
-87.4312
 30
0.0
 10
-101.977
 20
-87.4312
 30
0.0
 10
-101.6122
 20
-86.5192
 30
0.0
 10
-102.7979
 20
-87.2488
 30
0.0
 10
-102.7979
 20
-87.2488
 30
0.0
  0
SPLINE
  5
9D
330
1F
100
AcDbEntity
  8
layer 1
 62
     7
370
     9
100
AcDbSpline
210
0.0
220
0.0
230
1.0
 70
    11
 71
     3
 72
    24
 73
    20
 74
     0
 42
0.0000000001
 43
0.0000000001
 12
1.0
 22
0.0
 32
0.0
 13
1.0
 23
0.0
 33
0.0
 40
0.0
 40
0.0
 40
0.0
 40
0.0
 40
0.1666666666666667
 40
0.1666666666666667
 40
0.1666666666666667
 40
0.1666666666666667
 40
0.3333333333333333
 40
0.3333333333333333
 40
0.3333333333333333
 40
0.3333333333333333
 40
0.5
 40
0.5
 40
0.5
 40
0.5
 40
0.6666666666666666
 40
0.6666666666666666
 40
0.6666666666666666
 40
0.6666666666666666
 40
1.0
 40
1.0
 40
1.0
 40
1.0
 10
-98.8761
 20
-90.7145
 30
0.0
 10
-98.8761
 20
-90.7145
 30
0.0
 10
-99.5145
 20
-88.9817
 30
0.0
 10
-101.065
 20
-95.4571
 30
0.0
 10
-101.065
 20
-95.4571
 30
0.0
 10
-101.2354
 20
-96.169
 30
0.0
 10
-101.3388
 20
-96.8216
 30
0.0
 10
-101.4032
 20
-97.4346
 30
0.0
 10
-101.4032
 20
-97.4346
 30
0.0
 10
-101.4032
 20
-97.4346
 30
0.0
 10
-97.5883
 20
-97.4346
 30
0.0
 10
-97.5883
 20
-97.4346
 30
0.0
 10
-97.5883
 20
-97.4346
 30
0.0
 10
-97.2987
 20
-97.0883
 30
0.0
 10
-96.9932
 20
-96.7625
 30
0.0
 10
-96.6872
 20
-96.3691
 30
0.0
 10
-96.6872
 20
-96.3691
 30
0.0
 10
-99.4233
 20
-95.0011
 30
0.0
 10
-98.8761
 20
-90.7145
 30
0.0
 10
-98.8761
 20
-90.7145
 30
0.0
  0
SPLINE
  5
9E
330
1F
100
AcDbEntity
  8
layer 1
 62
     7
370
     9
100
AcDbSpline
210
0.0
220
0.0
230
1.0
 70
    11
 71
     3
 72
    16
 73
    12
 74
     0
 42
0.0000000001
 43
0.0000000001
 12
1.0
 22
0.0
 32
0.0
 13
1.0
 23
0.0
 33
0.0
 40
0.0
 40
0.0
 40
0.0
 40
0.0
 40
0.25
 40
0.25
 40
0.25
 40
0.25
 40
0.5
 40
0.5
 40
0.5
 40
0.5
 40
1.0
 40
1.0
 40
1.0
 40
1.0
 10
-84.8599
 20
-83.0401
 30
0.0
 10
-84.8599
 20
-83.0401
 30
0.0
 10
-84.8599
 20
-75.8827
 30
0.0
 10
-84.8599
 20
-75.8827
 30
0.0
 10
-84.8599
 20
-75.8827
 30
0.0
 10
-85.2607
 20
-76.4101
 30
0.0
 10
-85.6034
 20
-77.0256
 30
0.0
 10
-85.834
 20
-77.7636
 30
0.0
 10
-85.834
 20
-77.7636
 30
0.0
 10
-86.5329
 20
-80.0002
 30
0.0
 10
-85.9668
 20
-81.7811
 30
0.0
 10
-84.8599
 20
-83.0401
 30
0.0
  0
SPLINE
  5
9F
330
1F
100
AcDbEntity
  8
layer 1
 62
     7
370
     9
100
AcDbSpline
210
0.0
220
0.0
230
1.0
 70
    11
 71
     3
 72
    24
 73
    20
 74
     0
 42
0.0000000001
 43
0.0000000001
 12
1.0
 22
0.0
 32
0.0
 13
1.0
 23
0.0
 33
0.0
 40
0.0
 40
0.0
 40
0.0
 40
0.0
 40
0.1666666666666667
 40
0.1666666666666667
 40
0.1666666666666667
 40
0.1666666666666667
 40
0.3333333333333333
 40
0.3333333333333333
 40
0.3333333333333333
 40
0.3333333333333333
 40
0.5
 40
0.5
 40
0.5
 40
0.5
 40
0.6666666666666666
 40
0.6666666666666666
 40
0.6666666666666666
 40
0.6666666666666666
 40
1.0
 40
1.0
 40
1.0
 40
1.0
 10
-88.0229
 20
-79.4965
 30
0.0
 10
-89.8469
 20
-82.5974
 30
0.0
 10
-94.8631
 20
-84.4215
 30
0.0
 10
-95.3192
 20
-86.9752
 30
0.0
 10
-95.3192
 20
-86.9752
 30
0.0
 10
-90.3941
 20
-84.4215
 30
0.0
 10
-86.1989
 20
-87.2488
 30
0.0
 10
-86.1989
 20
-87.2488
 30
0.0
 10
-86.1989
 20
-87.2488
 30
0.0
 10
-85.5892
 20
-86.9101
 30
0.0
 10
-85.0815
 20
-86.271
 30
0.0
 10
-84.8599
 20
-85.9638
 30
0.0
 10
-84.8599
 20
-85.9638
 30
0.0
 10
-84.8599
 20
-85.9638
 30
0.0
 10
-84.8599
 20
-85.731
 30
0.0
 10
-84.8599
 20
-85.731
 30
0.0
 10
-84.8599
 20
-85.731
 30
0.0
 10
-88.0167
 20
-84.3762
 30
0.0
 10
-88.0229
 20
-79.4965
 30
0.0
 10
-88.0229
 20
-79.4965
 30
0.0
  0
SPLINE
  5
A0
330
1F
100
AcDbEntity
  8
layer 1
 62
     7
370
     9
100
AcDbSpline
210
0.0
220
0.0
230
1.0
 70
    11
 71
     3
 72
    28
 73
    24
 74
     0
 42
0.0000000001
 43
0.0000000001
 12
1.0
 22
0.0
 32
0.0
 13
1.0
 23
0.0
 33
0.0
 40
0.0
 40
0.0
 40
0.0
 40
0.0
 40
0.1428571428571428
 40
0.1428571428571428
 40
0.1428571428571428
 40
0.1428571428571428
 40
0.2857142857142857
 40
0.2857142857142857
 40
0.2857142857142857
 40
0.2857142857142857
 40
0.4285714285714285
 40
0.4285714285714285
 40
0.4285714285714285
 40
0.4285714285714285
 40
0.5714285714285714
 40
0.5714285714285714
 40
0.5714285714285714
 40
0.5714285714285714
 40
0.7142857142857143
 40
0.7142857142857143
 40
0.7142857142857143
 40
0.7142857142857143
 40
1.0
 40
1.0
 40
1.0
 40
1.0
 10
-88.0229
 20
-91.5354
 30
0.0
 10
-90.4854
 20
-88.1608
 30
0.0
 10
-93.9511
 20
-90.4409
 30
0.0
 10
-93.9511
 20
-90.4409
 30
0.0
 10
-93.9511
 20
-90.4409
 30
0.0
 10
-93.9511
 20
-90.4409
 30
0.0
 10
-94.5895
 20
-91.4441
 30
0.0
 10
-93.5863
 20
-91.0794
 30
0.0
 10
-93.5863
 20
-91.0794
 30
0.0
 10
-89.6645
 20
-89.8025
 30
0.0
 10
-89.6645
 20
-93.9066
 30
0.0
 10
-89.6645
 20
-93.9066
 30
0.0
 10
-89.6645
 20
-93.9066
 30
0.0
 10
-89.629
 20
-95.8277
 30
0.0
 10
-90.5102
 20
-96.8722
 30
0.0
 10
-91.5973
 20
-97.4346
 30
0.0
 10
-91.5973
 20
-97.4346
 30
0.0
 10
-91.5973
 20
-97.4346
 30
0.0
 10
-89.2258
 20
-97.4346
 30
0.0
 10
-89.2258
 20
-97.4346
 30
0.0
 10
-89.2258
 20
-97.4346
 30
0.0
 10
-87.8235
 20
-95.6557
 30
0.0
 10
-86.6531
 20
-93.4125
 30
0.0
 10
-88.0229
 20
-91.5354
 30
0.0
  0
SPLINE
  5
A1
330
1F
100
AcDbEntity
  8
layer 1
 62
     7
370
     9
100
AcDbSpline
210
0.0
220
0.0
230
1.0
 70
    11
 71
     3
 72
    32
 73
    28
 74
     0
 42
0.0000000001
 43
0.0000000001
 12
1.0
 22
0.0
 32
0.0
 13
1.0
 23
0.0
 33
0.0
 40
0.0
 40
0.0
 40
0.0
 40
0.0
 40
0.125
 40
0.125
 40
0.125
 40
0.125
 40
0.25
 40
0.25
 40
0.25
 40
0.25
 40
0.375
 40
0.375
 40
0.375
 40
0.375
 40
0.5
 40
0.5
 40
0.5
 40
0.5
 40
0.625
 40
0.625
 40
0.625
 40
0.625
 40
0.75
 40
0.75
 40
0.75
 40
0.75
 40
1.0
 40
1.0
 40
1.0
 40
1.0
 10
-123.8659
 20
-27.7837
 30
0.0
 10
-117.3905
 20
-25.2299
 30
0.0
 10
-117.1168
 20
-31.3406
 30
0.0
 10
-117.1168
 20
-31.3406
 30
0.0
 10
-117.1168
 20
-31.3406
 30
0.0
 10
-117.1168
 20
-31.3406
 30
0.0
 10
-116.6608
 20
-31.4774
 30
0.0
 10
-115.9312
 20
-30.3373
 30
0.0
 10
-115.9312
 20
-30.3373
 30
0.0
 10
-114.9279
 20
-28.1484
 30
0.0
 10
-117.0257
 20
-26.0508
 30
0.0
 10
-117.0257
 20
-26.0508
 30
0.0
 10
-117.0257
 20
-26.0508
 30
0.0
 10
-120.4914
 20
-23.2235
 30
0.0
 10
-123.0451
 20
-23.8619
 30
0.0
 10
-126.602
 20
-25.8684
 30
0.0
 10
-126.602
 20
-25.8684
 30
0.0
 10
-130.159
 20
-27.8748
 30
0.0
 10
-128.4261
 20
-34.6239
 30
0.0
 10
-128.4261
 20
-34.6239
 30
0.0
 10
-128.4261
 20
-34.6239
 30
0.0
 10
-128.4261
 20
-34.6239
 30
0.0
 10
-125.9636
 20
-32.0702
 30
0.0
 10
-125.9636
 20
-32.0702
 30
0.0
 10
-125.9636
 20
-32.0702
 30
0.0
 10
-125.9636
 20
-32.0702
 30
0.0
 10
-126.8756
 20
-29.5165
 30
0.0
 10
-123.8659
 20
-27.7837
 30
0.0
  0
SPLINE
  5
A2
330
1F
100
AcDbEntity
  8
layer 1
 62
     7
370
     9
100
AcDbSpline
210
0.0
220
0.0
230
1.0
 70
    11
 71
     3
 72
    24
 73
    20
 74
     0
 42
0.0000000001
 43
0.0000000001
 12
1.0
 22
0.0
 32
0.0
 13
1.0
 23
0.0
 33
0.0
 40
0.0
 40
0.0
 40
0.0
 40
0.0
 40
0.1666666666666667
 40
0.1666666666666667
 40
0.1666666666666667
 40
0.1666666666666667
 40
0.3333333333333333
 40
0.3333333333333333
 40
0.3333333333333333
 40
0.3333333333333333
 40
0.5
 40
0.5
 40
0.5
 40
0.5
 40
0.6666666666666666
 40
0.6666666666666666
 40
0.6666666666666666
 40
0.6666666666666666
 40
1.0
 40
1.0
 40
1.0
 40
1.0
 10
-121.1754
 20
-37.2688
 30
0.0
 10
-123.6379
 20
-36.5392
 30
0.0
 10
-125.6444
 20
-33.2102
 30
0.0
 10
-125.6444
 20
-33.2102
 30
0.0
 10
-125.6444
 20
-33.2102
 30
0.0
 10
-125.6444
 20
-33.2102
 30
0.0
 10
-125.8268
 20
-33.1646
 30
0.0
 10
-125.8268
 20
-33.1646
 30
0.0
 10
-125.8268
 20
-33.1646
 30
0.0
 10
-125.8268
 20
-33.1646
 30
0.0
 10
-127.4685
 20
-35.5816
 30
0.0
 10
-127.4685
 20
-35.764
 30
0.0
 10
-127.4685
 20
-35.764
 30
0.0
 10
-127.4685
 20
-35.9464
 30
0.0
 10
-125.8268
 20
-41.0082
 30
0.0
 10
-124.3219
 20
-42.3306
 30
0.0
 10
-124.3219
 20
-42.3306
 30
0.0
 10
-125.1884
 20
-39.7313
 30
0.0
 10
-123.2275
 20
-37.6792
 30
0.0
 10
-121.1754
 20
-37.2688
 30
0.0
  0
SPLINE
  5
A3
330
1F
100
AcDbEntity
  8
layer 1
 62
     7
370
     9
100
AcDbSpline
210
0.0
220
0.0
230
1.0
 70
    11
 71
     3
 72
    20
 73
    16
 74
     0
 42
0.0000000001
 43
0.0000000001
 12
1.0
 22
0.0
 32
0.0
 13
1.0
 23
0.0
 33
0.0
 40
0.0
 40
0.0
 40
0.0
 40
0.0
 40
0.2
 40
0.2
 40
0.2
 40
0.2
 40
0.4
 40
0.4
 40
0.4
 40
0.4
 40
0.6
 40
0.6
 40
0.6
 40
0.6
 40
1.0
 40
1.0
 40
1.0
 40
1.0
 10
-113.2863
 20
-21.4906
 30
0.0
 10
-113.2863
 20
-21.4906
 30
0.0
 10
-110.6414
 20
-23.9531
 30
0.0
 10
-110.459
 20
-26.9628
 30
0.0
 10
-110.459
 20
-26.9628
 30
0.0
 10
-110.459
 20
-26.9628
 30
0.0
 10
-105.3516
 20
-23.7707
 30
0.0
 10
-107.0844
 20
-18.9369
 30
0.0
 10
-107.0844
 20
-18.9369
 30
0.0
 10
-107.0844
 20
-18.9369
 30
0.0
 10
-107.6316
 20
-16.3832
 30
0.0
 10
-111.1886
 20
-15.7448
 30
0.0
 10
-111.1886
 20
-15.7448
 30
0.0
 10
-111.1886
 20
-15.7448
 30
0.0
 10
-107.8141
 20
-20.3961
 30
0.0
 10
-113.2863
 20
-21.4906
 30
0.0
  0
SPLINE
  5
A4
330
1F
100
AcDbEntity
  8
layer 1
 62
     7
370
     9
100
AcDbSpline
210
0.0
220
0.0
230
1.0
 70
    11
 71
     3
 72
    24
 73
    20
 74
     0
 42
0.0000000001
 43
0.0000000001
 12
1.0
 22
0.0
 32
0.0
 13
1.0
 23
0.0
 33
0.0
 40
0.0
 40
0.0
 40
0.0
 40
0.0
 40
0.1666666666666667
 40
0.1666666666666667
 40
0.1666666666666667
 40
0.1666666666666667
 40
0.3333333333333333
 40
0.3333333333333333
 40
0.3333333333333333
 40
0.3333333333333333
 40
0.5
 40
0.5
 40
0.5
 40
0.5
 40
0.6666666666666666
 40
0.6666666666666666
 40
0.6666666666666666
 40
0.6666666666666666
 40
1.0
 40
1.0
 40
1.0
 40
1.0
 10
-112.8303
 20
-38.9105
 30
0.0
 10
-112.0094
 20
-39.9137
 30
0.0
 10
-114.3807
 20
-34.0767
 30
0.0
 10
-105.2604
 20
-29.9725
 30
0.0
 10
-105.2604
 20
-29.9725
 30
0.0
 10
-100.7002
 20
-25.8684
 30
0.0
 10
-103.8048
 20
-21.4242
 30
0.0
 10
-103.9835
 20
-22.2202
 30
0.0
 10
-103.9835
 20
-22.2202
 30
0.0
 10
-104.9868
 20
-26.6892
 30
0.0
 10
-110.1854
 20
-28.4221
 30
0.0
 10
-110.1854
 20
-28.4221
 30
0.0
 10
-110.1854
 20
-28.4221
 30
0.0
 10
-110.1854
 20
-28.4221
 30
0.0
 10
-110.2766
 20
-34.8975
 30
0.0
 10
-116.5696
 20
-36.7216
 30
0.0
 10
-116.5696
 20
-36.7216
 30
0.0
 10
-116.5696
 20
-36.7216
 30
0.0
 10
-113.6511
 20
-37.9073
 30
0.0
 10
-112.8303
 20
-38.9105
 30
0.0
  0
SPLINE
  5
A5
330
1F
100
AcDbEntity
  8
layer 1
 62
     7
370
     9
100
AcDbSpline
210
0.0
220
0.0
230
1.0
 70
    11
 71
     3
 72
    20
 73
    16
 74
     0
 42
0.0000000001
 43
0.0000000001
 12
1.0
 22
0.0
 32
0.0
 13
1.0
 23
0.0
 33
0.0
 40
0.0
 40
0.0
 40
0.0
 40
0.0
 40
0.2
 40
0.2
 40
0.2
 40
0.2
 40
0.4
 40
0.4
 40
0.4
 40
0.4
 40
0.6
 40
0.6
 40
0.6
 40
0.6
 40
1.0
 40
1.0
 40
1.0
 40
1.0
 10
-95.684
 20
-30.7022
 30
0.0
 10
-95.684
 20
-30.7022
 30
0.0
 10
-95.9576
 20
-29.9725
 30
0.0
 10
-96.14
 20
-29.0605
 30
0.0
 10
-96.14
 20
-29.0605
 30
0.0
 10
-96.14
 20
-29.0605
 30
0.0
 10
-100.153
 20
-26.9628
 30
0.0
 10
-101.1562
 20
-25.4123
 30
0.0
 10
-101.1562
 20
-25.4123
 30
0.0
 10
-101.1562
 20
-25.4123
 30
0.0
 10
-100.7914
 20
-27.8748
 30
0.0
 10
-101.6122
 20
-28.9693
 30
0.0
 10
-101.6122
 20
-28.9693
 30
0.0
 10
-101.6122
 20
-28.9693
 30
0.0
 10
-97.3257
 20
-29.2429
 30
0.0
 10
-95.684
 20
-30.7022
 30
0.0
  0
SPLINE
  5
A6
330
1F
100
AcDbEntity
  8
layer 1
 62
     7
370
     9
100
AcDbSpline
210
0.0
220
0.0
230
1.0
 70
    11
 71
     3
 72
    32
 73
    28
 74
     0
 42
0.0000000001
 43
0.0000000001
 12
1.0
 22
0.0
 32
0.0
 13
1.0
 23
0.0
 33
0.0
 40
0.0
 40
0.0
 40
0.0
 40
0.0
 40
0.125
 40
0.125
 40
0.125
 40
0.125
 40
0.25
 40
0.25
 40
0.25
 40
0.25
 40
0.375
 40
0.375
 40
0.375
 40
0.375
 40
0.5
 40
0.5
 40
0.5
 40
0.5
 40
0.625
 40
0.625
 40
0.625
 40
0.625
 40
0.75
 40
0.75
 40
0.75
 40
0.75
 40
1.0
 40
1.0
 40
1.0
 40
1.0
 10
-100.7914
 20
-31.3406
 30
0.0
 10
-100.7914
 20
-31.3406
 30
0.0
 10
-106.2636
 20
-30.3373
 30
0.0
 10
-108.6349
 20
-35.6271
 30
0.0
 10
-108.6349
 20
-35.6271
 30
0.0
 10
-108.6349
 20
-35.6271
 30
0.0
 10
-102.5243
 20
-30.8846
 30
0.0
 10
-97.508
 20
-36.0832
 30
0.0
 10
-97.508
 20
-36.0832
 30
0.0
 10
-95.2279
 20
-40.8258
 30
0.0
 10
-100.7914
 20
-42.3762
 30
0.0
 10
-100.7914
 20
-42.3762
 30
0.0
 10
-100.7914
 20
-42.3762
 30
0.0
 10
-100.7914
 20
-42.3762
 30
0.0
 10
-101.6122
 20
-42.9235
 30
0.0
 10
-102.7979
 20
-41.9202
 30
0.0
 10
-102.7979
 20
-41.9202
 30
0.0
 10
-102.7979
 20
-41.9202
 30
0.0
 10
-102.2507
 20
-43.8355
 30
0.0
 10
-99.3321
 20
-43.4707
 30
0.0
 10
-99.3321
 20
-43.4707
 30
0.0
 10
-96.4136
 20
-43.1059
 30
0.0
 10
-92.9479
 20
-40.4609
 30
0.0
 10
-94.3159
 20
-36.0832
 30
0.0
 10
-94.3159
 20
-36.0832
 30
0.0
 10
-95.684
 20
-31.7054
 30
0.0
 10
-100.7914
 20
-31.3406
 30
0.0
 10
-100.7914
 20
-31.3406
 30
0.0
  0
SPLINE
  5
A7
330
1F
100
AcDbEntity
  8
layer 1
 62
     7
370
     9
100
AcDbSpline
210
0.0
220
0.0
230
1.0
 70
    11
 71
     3
 72
    20
 73
    16
 74
     0
 42
0.0000000001
 43
0.0000000001
 12
1.0
 22
0.0
 32
0.0
 13
1.0
 23
0.0
 33
0.0
 40
0.0
 40
0.0
 40
0.0
 40
0.0
 40
0.2
 40
0.2
 40
0.2
 40
0.2
 40
0.4
 40
0.4
 40
0.4
 40
0.4
 40
0.6
 40
0.6
 40
0.6
 40
0.6
 40
1.0
 40
1.0
 40
1.0
 40
1.0
 10
-99.3321
 20
-38.5457
 30
0.0
 10
-99.3321
 20
-37.2864
 30
0.0
 10
-100.3529
 20
-36.2656
 30
0.0
 10
-101.6122
 20
-36.2656
 30
0.0
 10
-101.6122
 20
-36.2656
 30
0.0
 10
-102.8715
 20
-36.2656
 30
0.0
 10
-103.8923
 20
-37.2864
 30
0.0
 10
-103.8923
 20
-38.5457
 30
0.0
 10
-103.8923
 20
-38.5457
 30
0.0
 10
-103.8923
 20
-39.8049
 30
0.0
 10
-102.8715
 20
-40.8258
 30
0.0
 10
-101.6122
 20
-40.8258
 30
0.0
 10
-101.6122
 20
-40.8258
 30
0.0
 10
-100.3529
 20
-40.8258
 30
0.0
 10
-99.3321
 20
-39.8049
 30
0.0
 10
-99.3321
 20
-38.5457
 30
0.0
  0
SPLINE
  5
A8
330
1F
100
AcDbEntity
  8
layer 1
 62
     7
370
     9
100
AcDbSpline
210
0.0
220
0.0
230
1.0
 70
    11
 71
     3
 72
    20
 73
    16
 74
     0
 42
0.0000000001
 43
0.0000000001
 12
1.0
 22
0.0
 32
0.0
 13
1.0
 23
0.0
 33
0.0
 40
0.0
 40
0.0
 40
0.0
 40
0.0
 40
0.2
 40
0.2
 40
0.2
 40
0.2
 40
0.4
 40
0.4
 40
0.4
 40
0.4
 40
0.6
 40
0.6
 40
0.6
 40
0.6
 40
1.0
 40
1.0
 40
1.0
 40
1.0
 10
-105.8988
 20
-41.6466
 30
0.0
 10
-105.8076
 20
-49.5813
 30
0.0
 10
-97.1432
 20
-54.8711
 30
0.0
 10
-97.1432
 20
-54.8711
 30
0.0
 10
-97.1432
 20
-54.8711
 30
0.0
 10
-98.2377
 20
-49.9462
 30
0.0
 10
-95.9576
 20
-46.9364
 30
0.0
 10
-95.9576
 20
-46.9364
 30
0.0
 10
-95.9576
 20
-46.9364
 30
0.0
 10
-96.5048
 20
-46.9364
 30
0.0
 10
-97.964
 20
-45.4772
 30
0.0
 10
-97.964
 20
-45.4772
 30
0.0
 10
-97.964
 20
-45.4772
 30
0.0
 10
-103.7099
 20
-46.754
 30
0.0
 10
-105.8988
 20
-41.6466
 30
0.0
 10
-105.8988
 20
-41.6466
 30
0.0
  0
SPLINE
  5
A9
330
1F
100
AcDbEntity
  8
layer 1
 62
     7
370
     9
100
AcDbSpline
210
0.0
220
0.0
230
1.0
 70
    11
 71
     3
 72
    28
 73
    24
 74
     0
 42
0.0000000001
 43
0.0000000001
 12
1.0
 22
0.0
 32
0.0
 13
1.0
 23
0.0
 33
0.0
 40
0.0
 40
0.0
 40
0.0
 40
0.0
 40
0.1428571428571428
 40
0.1428571428571428
 40
0.1428571428571428
 40
0.1428571428571428
 40
0.2857142857142857
 40
0.2857142857142857
 40
0.2857142857142857
 40
0.2857142857142857
 40
0.4285714285714285
 40
0.4285714285714285
 40
0.4285714285714285
 40
0.4285714285714285
 40
0.5714285714285714
 40
0.5714285714285714
 40
0.5714285714285714
 40
0.5714285714285714
 40
0.7142857142857143
 40
0.7142857142857143
 40
0.7142857142857143
 40
0.7142857142857143
 40
1.0
 40
1.0
 40
1.0
 40
1.0
 10
-105.4428
 20
-36.0832
 30
0.0
 10
-118.0289
 20
-39.6401
 30
0.0
 10
-108.1789
 20
-52.3174
 30
0.0
 10
-105.3516
 20
-54.5975
 30
0.0
 10
-105.3516
 20
-54.5975
 30
0.0
 10
-103.3336
 20
-56.225
 30
0.0
 10
-95.0455
 20
-60.8906
 30
0.0
 10
-92.3094
 20
-65.998
 30
0.0
 10
-92.3094
 20
-65.998
 30
0.0
 10
-89.5733
 20
-71.1054
 30
0.0
 10
-91.4886
 20
-77.5809
 30
0.0
 10
-91.4886
 20
-77.5809
 30
0.0
 10
-91.4886
 20
-77.5809
 30
0.0
 10
-87.9316
 20
-75.392
 30
0.0
 10
-88.7525
 20
-68.8253
 30
0.0
 10
-88.7525
 20
-68.8253
 30
0.0
 10
-88.7525
 20
-68.8253
 30
0.0
 10
-89.4821
 20
-66.3628
 30
0.0
 10
-89.0261
 20
-64.0827
 30
0.0
 10
-101.3386
 20
-54.2327
 30
0.0
 10
-101.3386
 20
-54.2327
 30
0.0
 10
-113.3775
 20
-45.0212
 30
0.0
 10
-105.4428
 20
-36.0832
 30
0.0
 10
-105.4428
 20
-36.0832
 30
0.0
  0
SPLINE
  5
AA
330
1F
100
AcDbEntity
  8
layer 1
 62
     7
370
     9
100
AcDbSpline
210
0.0
220
0.0
230
1.0
 70
    11
 71
     3
 72
    24
 73
    20
 74
     0
 42
0.0000000001
 43
0.0000000001
 12
1.0
 22
0.0
 32
0.0
 13
1.0
 23
0.0
 33
0.0
 40
0.0
 40
0.0
 40
0.0
 40
0.0
 40
0.1666666666666667
 40
0.1666666666666667
 40
0.1666666666666667
 40
0.1666666666666667
 40
0.3333333333333333
 40
0.3333333333333333
 40
0.3333333333333333
 40
0.3333333333333333
 40
0.5
 40
0.5
 40
0.5
 40
0.5
 40
0.6666666666666666
 40
0.6666666666666666
 40
0.6666666666666666
 40
0.6666666666666666
 40
1.0
 40
1.0
 40
1.0
 40
1.0
 10
-92.1271
 20
-37.8161
 30
0.0
 10
-92.1271
 20
-37.8161
 30
0.0
 10
-92.1271
 20
-42.8322
 30
0.0
 10
-95.4104
 20
-44.1091
 30
0.0
 10
-95.4104
 20
-44.1091
 30
0.0
 10
-95.4104
 20
-44.1091
 30
0.0
 10
-94.7719
 20
-45.1123
 30
0.0
 10
-93.9511
 20
-45.5684
 30
0.0
 10
-93.9511
 20
-45.5684
 30
0.0
 10
-93.9511
 20
-45.5684
 30
0.0
 10
-89.7722
 20
-42.7532
 30
0.0
 10
-84.8599
 20
-45.2805
 30
0.0
 10
-84.8599
 20
-45.2805
 30
0.0
 10
-84.8599
 20
-45.2805
 30
0.0
 10
-84.8599
 20
-45.1945
 30
0.0
 10
-84.8599
 20
-45.1945
 30
0.0
 10
-84.8599
 20
-45.1945
 30
0.0
 10
-85.4283
 20
-42.6936
 30
0.0
 10
-90.3272
 20
-40.8757
 30
0.0
 10
-92.1271
 20
-37.8161
 30
0.0
  0
SPLINE
  5
AB
330
1F
100
AcDbEntity
  8
layer 1
 62
     7
370
     9
100
AcDbSpline
210
0.0
220
0.0
230
1.0
 70
    11
 71
     3
 72
    32
 73
    28
 74
     0
 42
0.0000000001
 43
0.0000000001
 12
1.0
 22
0.0
 32
0.0
 13
1.0
 23
0.0
 33
0.0
 40
0.0
 40
0.0
 40
0.0
 40
0.0
 40
0.125
 40
0.125
 40
0.125
 40
0.125
 40
0.25
 40
0.25
 40
0.25
 40
0.25
 40
0.375
 40
0.375
 40
0.375
 40
0.375
 40
0.5
 40
0.5
 40
0.5
 40
0.5
 40
0.625
 40
0.625
 40
0.625
 40
0.625
 40
0.75
 40
0.75
 40
0.75
 40
0.75
 40
1.0
 40
1.0
 40
1.0
 40
1.0
 10
-90.4854
 20
-52.2262
 30
0.0
 10
-90.4854
 20
-52.2262
 30
0.0
 10
-90.4854
 20
-48.1221
 30
0.0
 10
-86.5636
 20
-49.3989
 30
0.0
 10
-86.5636
 20
-49.3989
 30
0.0
 10
-85.5604
 20
-49.7637
 30
0.0
 10
-86.1988
 20
-48.7605
 30
0.0
 10
-86.1988
 20
-48.7605
 30
0.0
 10
-86.1988
 20
-48.7605
 30
0.0
 10
-86.1988
 20
-48.7605
 30
0.0
 10
-89.6645
 20
-46.4804
 30
0.0
 10
-92.1271
 20
-49.8549
 30
0.0
 10
-92.1271
 20
-49.8549
 30
0.0
 10
-94.5895
 20
-53.2295
 30
0.0
 10
-88.8437
 20
-57.7897
 30
0.0
 10
-88.2965
 20
-58.7017
 30
0.0
 10
-88.2965
 20
-58.7017
 30
0.0
 10
-87.7672
 20
-59.5838
 30
0.0
 10
-86.0452
 20
-61.323
 30
0.0
 10
-84.8599
 20
-64.3241
 30
0.0
 10
-84.8599
 20
-64.3241
 30
0.0
 10
-84.8599
 20
-64.3241
 30
0.0
 10
-84.8599
 20
-56.3523
 30
0.0
 10
-84.8599
 20
-56.3523
 30
0.0
 10
-84.8599
 20
-56.3523
 30
0.0
 10
-85.91
 20
-56.4425
 30
0.0
 10
-90.5663
 20
-56.5968
 30
0.0
 10
-90.4854
 20
-52.2262
 30
0.0
  0
SPLINE
  5
AC
330
1F
100
AcDbEntity
  8
layer 1
 62
     7
370
     9
100
AcDbSpline
210
0.0
220
0.0
230
1.0
 70
    11
 71
     3
 72
    28
 73
    24
 74
     0
 42
0.0000000001
 43
0.0000000001
 12
1.0
 22
0.0
 32
0.0
 13
1.0
 23
0.0
 33
0.0
 40
0.0
 40
0.0
 40
0.0
 40
0.0
 40
0.1428571428571428
 40
0.1428571428571428
 40
0.1428571428571428
 40
0.1428571428571428
 40
0.2857142857142857
 40
0.2857142857142857
 40
0.2857142857142857
 40
0.2857142857142857
 40
0.4285714285714285
 40
0.4285714285714285
 40
0.4285714285714285
 40
0.4285714285714285
 40
0.5714285714285714
 40
0.5714285714285714
 40
0.5714285714285714
 40
0.5714285714285714
 40
0.7142857142857143
 40
0.7142857142857143
 40
0.7142857142857143
 40
0.7142857142857143
 40
1.0
 40
1.0
 40
1.0
 40
1.0
 10
-109.2733
 20
-60.0698
 30
0.0
 10
-110.1854
 20
-60.7994
 30
0.0
 10
-108.7261
 20
-60.5258
 30
0.0
 10
-108.7261
 20
-60.5258
 30
0.0
 10
-108.7261
 20
-60.5258
 30
0.0
 10
-108.7261
 20
-60.5258
 30
0.0
 10
-106.7196
 20
-58.9753
 30
0.0
 10
-102.0682
 20
-59.3401
 30
0.0
 10
-102.0682
 20
-59.3401
 30
0.0
 10
-105.8988
 20
-57.4248
 30
0.0
 10
-109.8206
 20
-54.2327
 30
0.0
 10
-112.0094
 20
-50.2198
 30
0.0
 10
-112.0094
 20
-50.2198
 30
0.0
 10
-112.0094
 20
-50.2198
 30
0.0
 10
-114.0159
 20
-53.5031
 30
0.0
 10
-114.6543
 20
-54.1415
 30
0.0
 10
-114.6543
 20
-54.1415
 30
0.0
 10
-114.6543
 20
-54.1415
 30
0.0
 10
-110.6414
 20
-53.6855
 30
0.0
 10
-109.3645
 20
-55.6008
 30
0.0
 10
-109.3645
 20
-55.6008
 30
0.0
 10
-108.0877
 20
-57.516
 30
0.0
 10
-108.3613
 20
-59.3401
 30
0.0
 10
-109.2733
 20
-60.0698
 30
0.0
  0
SPLINE
  5
AD
330
1F
100
AcDbEntity
  8
layer 1
 62
     7
370
     9
100
AcDbSpline
210
0.0
220
0.0
230
1.0
 70
    11
 71
     3
 72
    32
 73
    28
 74
     0
 42
0.0000000001
 43
0.0000000001
 12
1.0
 22
0.0
 32
0.0
 13
1.0
 23
0.0
 33
0.0
 40
0.0
 40
0.0
 40
0.0
 40
0.0
 40
0.125
 40
0.125
 40
0.125
 40
0.125
 40
0.25
 40
0.25
 40
0.25
 40
0.25
 40
0.375
 40
0.375
 40
0.375
 40
0.375
 40
0.5
 40
0.5
 40
0.5
 40
0.5
 40
0.625
 40
0.625
 40
0.625
 40
0.625
 40
0.75
 40
0.75
 40
0.75
 40
0.75
 40
1.0
 40
1.0
 40
1.0
 40
1.0
 10
-113.9247
 20
-46.6628
 30
0.0
 10
-112.3743
 20
-40.7345
 30
0.0
 10
-117.9377
 20
-38.6369
 30
0.0
 10
-119.9442
 20
-40.0049
 30
0.0
 10
-119.9442
 20
-40.0049
 30
0.0
 10
-120.765
 20
-40.1873
 30
0.0
 10
-120.1265
 20
-40.6434
 30
0.0
 10
-120.1265
 20
-40.6434
 30
0.0
 10
-120.1265
 20
-40.6434
 30
0.0
 10
-120.1265
 20
-40.6434
 30
0.0
 10
-116.8432
 20
-40.0961
 30
0.0
 10
-116.9344
 20
-43.8355
 30
0.0
 10
-116.9344
 20
-43.8355
 30
0.0
 10
-118.1201
 20
-47.21
 30
0.0
 10
-122.2243
 20
-45.5684
 30
0.0
 10
-122.2243
 20
-45.5684
 30
0.0
 10
-122.2243
 20
-45.5684
 30
0.0
 10
-122.2243
 20
-45.5684
 30
0.0
 10
-123.4099
 20
-44.8387
 30
0.0
 10
-123.0451
 20
-45.7508
 30
0.0
 10
-123.0451
 20
-45.7508
 30
0.0
 10
-123.0451
 20
-45.7508
 30
0.0
 10
-118.6673
 20
-49.1253
 30
0.0
 10
-119.4882
 20
-55.1448
 30
0.0
 10
-119.4882
 20
-55.1448
 30
0.0
 10
-119.4882
 20
-55.1448
 30
0.0
 10
-115.4752
 20
-52.5911
 30
0.0
 10
-113.9247
 20
-46.6628
 30
0.0
  0
SPLINE
  5
AE
330
1F
100
AcDbEntity
  8
layer 1
 62
     7
370
     9
100
AcDbSpline
210
0.0
220
0.0
230
1.0
 70
    11
 71
     3
 72
    20
 73
    16
 74
     0
 42
0.0000000001
 43
0.0000000001
 12
1.0
 22
0.0
 32
0.0
 13
1.0
 23
0.0
 33
0.0
 40
0.0
 40
0.0
 40
0.0
 40
0.0
 40
0.2
 40
0.2
 40
0.2
 40
0.2
 40
0.4
 40
0.4
 40
0.4
 40
0.4
 40
0.6
 40
0.6
 40
0.6
 40
0.6
 40
1.0
 40
1.0
 40
1.0
 40
1.0
 10
-128.3349
 20
-54.6887
 30
0.0
 10
-127.0581
 20
-56.3304
 30
0.0
 10
-125.7812
 20
-56.7864
 30
0.0
 10
-125.69
 20
-62.5322
 30
0.0
 10
-125.69
 20
-62.5322
 30
0.0
 10
-125.69
 20
-62.5322
 30
0.0
 10
-122.4067
 20
-60.2522
 30
0.0
 10
-123.9571
 20
-53.7767
 30
0.0
 10
-123.9571
 20
-53.7767
 30
0.0
 10
-125.5076
 20
-47.3012
 30
0.0
 10
-126.146
 20
-49.0341
 30
0.0
 10
-126.146
 20
-49.0341
 30
0.0
 10
-126.146
 20
-49.0341
 30
0.0
 10
-126.146
 20
-49.0341
 30
0.0
 10
-125.5988
 20
-53.3207
 30
0.0
 10
-128.3349
 20
-54.6887
 30
0.0
  0
SPLINE
  5
AF
330
1F
100
AcDbEntity
  8
layer 1
 62
     7
370
     9
100
AcDbSpline
210
0.0
220
0.0
230
1.0
 70
    11
 71
     3
 72
    32
 73
    28
 74
     0
 42
0.0000000001
 43
0.0000000001
 12
1.0
 22
0.0
 32
0.0
 13
1.0
 23
0.0
 33
0.0
 40
0.0
 40
0.0
 40
0.0
 40
0.0
 40
0.125
 40
0.125
 40
0.125
 40
0.125
 40
0.25
 40
0.25
 40
0.25
 40
0.25
 40
0.375
 40
0.375
 40
0.375
 40
0.375
 40
0.5
 40
0.5
 40
0.5
 40
0.5
 40
0.625
 40
0.625
 40
0.625
 40
0.625
 40
0.75
 40
0.75
 40
0.75
 40
0.75
 40
1.0
 40
1.0
 40
1.0
 40
1.0
 10
-173.1159
 20
-34.6239
 30
0.0
 10
-173.1159
 20
-34.6239
 30
0.0
 10
-170.6534
 20
-32.0702
 30
0.0
 10
-170.6534
 20
-32.0702
 30
0.0
 10
-170.6534
 20
-32.0702
 30
0.0
 10
-170.6534
 20
-32.0702
 30
0.0
 10
-171.5654
 20
-29.5165
 30
0.0
 10
-168.5557
 20
-27.7837
 30
0.0
 10
-168.5557
 20
-27.7837
 30
0.0
 10
-162.0803
 20
-25.2299
 30
0.0
 10
-161.8067
 20
-31.3406
 30
0.0
 10
-161.8067
 20
-31.3406
 30
0.0
 10
-161.8067
 20
-31.3406
 30
0.0
 10
-161.8067
 20
-31.3406
 30
0.0
 10
-161.3507
 20
-31.4774
 30
0.0
 10
-160.621
 20
-30.3373
 30
0.0
 10
-160.621
 20
-30.3373
 30
0.0
 10
-159.6178
 20
-28.1484
 30
0.0
 10
-161.7154
 20
-26.0508
 30
0.0
 10
-161.7154
 20
-26.0508
 30
0.0
 10
-161.7154
 20
-26.0508
 30
0.0
 10
-165.1812
 20
-23.2235
 30
0.0
 10
-167.7349
 20
-23.8619
 30
0.0
 10
-171.2918
 20
-25.8684
 30
0.0
 10
-171.2918
 20
-25.8684
 30
0.0
 10
-174.8488
 20
-27.8748
 30
0.0
 10
-173.1159
 20
-34.6239
 30
0.0
 10
-173.1159
 20
-34.6239
 30
0.0
  0
SPLINE
  5
B0
330
1F
100
AcDbEntity
  8
layer 1
 62
     7
370
     9
100
AcDbSpline
210
0.0
220
0.0
230
1.0
 70
    11
 71
     3
 72
    24
 73
    20
 74
     0
 42
0.0000000001
 43
0.0000000001
 12
1.0
 22
0.0
 32
0.0
 13
1.0
 23
0.0
 33
0.0
 40
0.0
 40
0.0
 40
0.0
 40
0.0
 40
0.1666666666666667
 40
0.1666666666666667
 40
0.1666666666666667
 40
0.1666666666666667
 40
0.3333333333333333
 40
0.3333333333333333
 40
0.3333333333333333
 40
0.3333333333333333
 40
0.5
 40
0.5
 40
0.5
 40
0.5
 40
0.6666666666666666
 40
0.6666666666666666
 40
0.6666666666666666
 40
0.6666666666666666
 40
1.0
 40
1.0
 40
1.0
 40
1.0
 10
-165.8652
 20
-37.2688
 30
0.0
 10
-168.3277
 20
-36.5392
 30
0.0
 10
-170.3342
 20
-33.2102
 30
0.0
 10
-170.3342
 20
-33.2102
 30
0.0
 10
-170.3342
 20
-33.2102
 30
0.0
 10
-170.3342
 20
-33.2102
 30
0.0
 10
-170.5166
 20
-33.1646
 30
0.0
 10
-170.5166
 20
-33.1646
 30
0.0
 10
-170.5166
 20
-33.1646
 30
0.0
 10
-170.5166
 20
-33.1646
 30
0.0
 10
-172.1583
 20
-35.5816
 30
0.0
 10
-172.1583
 20
-35.764
 30
0.0
 10
-172.1583
 20
-35.764
 30
0.0
 10
-172.1583
 20
-35.9464
 30
0.0
 10
-170.5166
 20
-41.0082
 30
0.0
 10
-169.0118
 20
-42.3306
 30
0.0
 10
-169.0118
 20
-42.3306
 30
0.0
 10
-169.8782
 20
-39.7313
 30
0.0
 10
-167.9173
 20
-37.6792
 30
0.0
 10
-165.8652
 20
-37.2688
 30
0.0
  0
SPLINE
  5
B1
330
1F
100
AcDbEntity
  8
layer 1
 62
     7
370
     9
100
AcDbSpline
210
0.0
220
0.0
230
1.0
 70
    11
 71
     3
 72
    20
 73
    16
 74
     0
 42
0.0000000001
 43
0.0000000001
 12
1.0
 22
0.0
 32
0.0
 13
1.0
 23
0.0
 33
0.0
 40
0.0
 40
0.0
 40
0.0
 40
0.0
 40
0.2
 40
0.2
 40
0.2
 40
0.2
 40
0.4
 40
0.4
 40
0.4
 40
0.4
 40
0.6
 40
0.6
 40
0.6
 40
0.6
 40
1.0
 40
1.0
 40
1.0
 40
1.0
 10
-157.9761
 20
-21.4906
 30
0.0
 10
-157.9761
 20
-21.4906
 30
0.0
 10
-155.3312
 20
-23.9531
 30
0.0
 10
-155.1488
 20
-26.9628
 30
0.0
 10
-155.1488
 20
-26.9628
 30
0.0
 10
-155.1488
 20
-26.9628
 30
0.0
 10
-150.0414
 20
-23.7707
 30
0.0
 10
-151.7743
 20
-18.9369
 30
0.0
 10
-151.7743
 20
-18.9369
 30
0.0
 10
-151.7743
 20
-18.9369
 30
0.0
 10
-152.3215
 20
-16.3832
 30
0.0
 10
-155.8784
 20
-15.7448
 30
0.0
 10
-155.8784
 20
-15.7448
 30
0.0
 10
-155.8784
 20
-15.7448
 30
0.0
 10
-152.5039
 20
-20.3961
 30
0.0
 10
-157.9761
 20
-21.4906
 30
0.0
  0
SPLINE
  5
B2
330
1F
100
AcDbEntity
  8
layer 1
 62
     7
370
     9
100
AcDbSpline
210
0.0
220
0.0
230
1.0
 70
    11
 71
     3
 72
    24
 73
    20
 74
     0
 42
0.0000000001
 43
0.0000000001
 12
1.0
 22
0.0
 32
0.0
 13
1.0
 23
0.0
 33
0.0
 40
0.0
 40
0.0
 40
0.0
 40
0.0
 40
0.1666666666666667
 40
0.1666666666666667
 40
0.1666666666666667
 40
0.1666666666666667
 40
0.3333333333333333
 40
0.3333333333333333
 40
0.3333333333333333
 40
0.3333333333333333
 40
0.5
 40
0.5
 40
0.5
 40
0.5
 40
0.6666666666666666
 40
0.6666666666666666
 40
0.6666666666666666
 40
0.6666666666666666
 40
1.0
 40
1.0
 40
1.0
 40
1.0
 10
-157.5201
 20
-38.9105
 30
0.0
 10
-156.6992
 20
-39.9137
 30
0.0
 10
-159.0705
 20
-34.0767
 30
0.0
 10
-149.9502
 20
-29.9725
 30
0.0
 10
-149.9502
 20
-29.9725
 30
0.0
 10
-145.39
 20
-25.8684
 30
0.0
 10
-148.4946
 20
-21.4242
 30
0.0
 10
-148.6733
 20
-22.2202
 30
0.0
 10
-148.6733
 20
-22.2202
 30
0.0
 10
-149.6766
 20
-26.6892
 30
0.0
 10
-154.8752
 20
-28.4221
 30
0.0
 10
-154.8752
 20
-28.4221
 30
0.0
 10
-154.8752
 20
-28.4221
 30
0.0
 10
-154.8752
 20
-28.4221
 30
0.0
 10
-154.9664
 20
-34.8975
 30
0.0
 10
-161.2594
 20
-36.7216
 30
0.0
 10
-161.2594
 20
-36.7216
 30
0.0
 10
-161.2594
 20
-36.7216
 30
0.0
 10
-158.3409
 20
-37.9073
 30
0.0
 10
-157.5201
 20
-38.9105
 30
0.0
  0
SPLINE
  5
B3
330
1F
100
AcDbEntity
  8
layer 1
 62
     7
370
     9
100
AcDbSpline
210
0.0
220
0.0
230
1.0
 70
    11
 71
     3
 72
    20
 73
    16
 74
     0
 42
0.0000000001
 43
0.0000000001
 12
1.0
 22
0.0
 32
0.0
 13
1.0
 23
0.0
 33
0.0
 40
0.0
 40
0.0
 40
0.0
 40
0.0
 40
0.2
 40
0.2
 40
0.2
 40
0.2
 40
0.4
 40
0.4
 40
0.4
 40
0.4
 40
0.6
 40
0.6
 40
0.6
 40
0.6
 40
1.0
 40
1.0
 40
1.0
 40
1.0
 10
-140.8298
 20
-29.0605
 30
0.0
 10
-140.8298
 20
-29.0605
 30
0.0
 10
-144.8428
 20
-26.9628
 30
0.0
 10
-145.846
 20
-25.4123
 30
0.0
 10
-145.846
 20
-25.4123
 30
0.0
 10
-145.846
 20
-25.4123
 30
0.0
 10
-145.4812
 20
-27.8748
 30
0.0
 10
-146.302
 20
-28.9693
 30
0.0
 10
-146.302
 20
-28.9693
 30
0.0
 10
-146.302
 20
-28.9693
 30
0.0
 10
-142.0154
 20
-29.2429
 30
0.0
 10
-140.3738
 20
-30.7022
 30
0.0
 10
-140.3738
 20
-30.7022
 30
0.0
 10
-140.3738
 20
-30.7022
 30
0.0
 10
-140.6474
 20
-29.9725
 30
0.0
 10
-140.8298
 20
-29.0605
 30
0.0
  0
SPLINE
  5
B4
330
1F
100
AcDbEntity
  8
layer 1
 62
     7
370
     9
100
AcDbSpline
210
0.0
220
0.0
230
1.0
 70
    11
 71
     3
 72
    32
 73
    28
 74
     0
 42
0.0000000001
 43
0.0000000001
 12
1.0
 22
0.0
 32
0.0
 13
1.0
 23
0.0
 33
0.0
 40
0.0
 40
0.0
 40
0.0
 40
0.0
 40
0.125
 40
0.125
 40
0.125
 40
0.125
 40
0.25
 40
0.25
 40
0.25
 40
0.25
 40
0.375
 40
0.375
 40
0.375
 40
0.375
 40
0.5
 40
0.5
 40
0.5
 40
0.5
 40
0.625
 40
0.625
 40
0.625
 40
0.625
 40
0.75
 40
0.75
 40
0.75
 40
0.75
 40
1.0
 40
1.0
 40
1.0
 40
1.0
 10
-139.0057
 20
-36.0832
 30
0.0
 10
-140.3738
 20
-31.7054
 30
0.0
 10
-145.4812
 20
-31.3406
 30
0.0
 10
-145.4812
 20
-31.3406
 30
0.0
 10
-145.4812
 20
-31.3406
 30
0.0
 10
-145.4812
 20
-31.3406
 30
0.0
 10
-150.9534
 20
-30.3373
 30
0.0
 10
-153.3247
 20
-35.6271
 30
0.0
 10
-153.3247
 20
-35.6271
 30
0.0
 10
-153.3247
 20
-35.6271
 30
0.0
 10
-147.2141
 20
-30.8846
 30
0.0
 10
-142.1979
 20
-36.0832
 30
0.0
 10
-142.1979
 20
-36.0832
 30
0.0
 10
-139.9178
 20
-40.8258
 30
0.0
 10
-145.4812
 20
-42.3762
 30
0.0
 10
-145.4812
 20
-42.3762
 30
0.0
 10
-145.4812
 20
-42.3762
 30
0.0
 10
-145.4812
 20
-42.3762
 30
0.0
 10
-146.302
 20
-42.9235
 30
0.0
 10
-147.4877
 20
-41.9202
 30
0.0
 10
-147.4877
 20
-41.9202
 30
0.0
 10
-147.4877
 20
-41.9202
 30
0.0
 10
-146.9404
 20
-43.8355
 30
0.0
 10
-144.0219
 20
-43.4707
 30
0.0
 10
-144.0219
 20
-43.4707
 30
0.0
 10
-141.1034
 20
-43.1059
 30
0.0
 10
-137.6377
 20
-40.4609
 30
0.0
 10
-139.0057
 20
-36.0832
 30
0.0
  0
SPLINE
  5
B5
330
1F
100
AcDbEntity
  8
layer 1
 62
     7
370
     9
100
AcDbSpline
210
0.0
220
0.0
230
1.0
 70
    11
 71
     3
 72
    20
 73
    16
 74
     0
 42
0.0000000001
 43
0.0000000001
 12
1.0
 22
0.0
 32
0.0
 13
1.0
 23
0.0
 33
0.0
 40
0.0
 40
0.0
 40
0.0
 40
0.0
 40
0.2
 40
0.2
 40
0.2
 40
0.2
 40
0.4
 40
0.4
 40
0.4
 40
0.4
 40
0.6
 40
0.6
 40
0.6
 40
0.6
 40
1.0
 40
1.0
 40
1.0
 40
1.0
 10
-144.0219
 20
-38.5457
 30
0.0
 10
-144.0219
 20
-37.2864
 30
0.0
 10
-145.0428
 20
-36.2656
 30
0.0
 10
-146.302
 20
-36.2656
 30
0.0
 10
-146.302
 20
-36.2656
 30
0.0
 10
-147.5613
 20
-36.2656
 30
0.0
 10
-148.5821
 20
-37.2864
 30
0.0
 10
-148.5821
 20
-38.5457
 30
0.0
 10
-148.5821
 20
-38.5457
 30
0.0
 10
-148.5821
 20
-39.8049
 30
0.0
 10
-147.5613
 20
-40.8258
 30
0.0
 10
-146.302
 20
-40.8258
 30
0.0
 10
-146.302
 20
-40.8258
 30
0.0
 10
-145.0428
 20
-40.8258
 30
0.0
 10
-144.0219
 20
-39.8049
 30
0.0
 10
-144.0219
 20
-38.5457
 30
0.0
  0
SPLINE
  5
B6
330
1F
100
AcDbEntity
  8
layer 1
 62
     7
370
     9
100
AcDbSpline
210
0.0
220
0.0
230
1.0
 70
    11
 71
     3
 72
    20
 73
    16
 74
     0
 42
0.0000000001
 43
0.0000000001
 12
1.0
 22
0.0
 32
0.0
 13
1.0
 23
0.0
 33
0.0
 40
0.0
 40
0.0
 40
0.0
 40
0.0
 40
0.2
 40
0.2
 40
0.2
 40
0.2
 40
0.4
 40
0.4
 40
0.4
 40
0.4
 40
0.6
 40
0.6
 40
0.6
 40
0.6
 40
1.0
 40
1.0
 40
1.0
 40
1.0
 10
-142.6539
 20
-45.4772
 30
0.0
 10
-148.3997
 20
-46.754
 30
0.0
 10
-150.5886
 20
-41.6466
 30
0.0
 10
-150.5886
 20
-41.6466
 30
0.0
 10
-150.5886
 20
-41.6466
 30
0.0
 10
-150.4974
 20
-49.5813
 30
0.0
 10
-141.833
 20
-54.8711
 30
0.0
 10
-141.833
 20
-54.8711
 30
0.0
 10
-141.833
 20
-54.8711
 30
0.0
 10
-142.9275
 20
-49.9462
 30
0.0
 10
-140.6474
 20
-46.9364
 30
0.0
 10
-140.6474
 20
-46.9364
 30
0.0
 10
-140.6474
 20
-46.9364
 30
0.0
 10
-141.1946
 20
-46.9364
 30
0.0
 10
-142.6539
 20
-45.4772
 30
0.0
 10
-142.6539
 20
-45.4772
 30
0.0
  0
SPLINE
  5
B7
330
1F
100
AcDbEntity
  8
layer 1
 62
     7
370
     9
100
AcDbSpline
210
0.0
220
0.0
230
1.0
 70
    11
 71
     3
 72
    28
 73
    24
 74
     0
 42
0.0000000001
 43
0.0000000001
 12
1.0
 22
0.0
 32
0.0
 13
1.0
 23
0.0
 33
0.0
 40
0.0
 40
0.0
 40
0.0
 40
0.0
 40
0.1428571428571428
 40
0.1428571428571428
 40
0.1428571428571428
 40
0.1428571428571428
 40
0.2857142857142857
 40
0.2857142857142857
 40
0.2857142857142857
 40
0.2857142857142857
 40
0.4285714285714285
 40
0.4285714285714285
 40
0.4285714285714285
 40
0.4285714285714285
 40
0.5714285714285714
 40
0.5714285714285714
 40
0.5714285714285714
 40
0.5714285714285714
 40
0.7142857142857143
 40
0.7142857142857143
 40
0.7142857142857143
 40
0.7142857142857143
 40
1.0
 40
1.0
 40
1.0
 40
1.0
 10
-133.4423
 20
-68.8253
 30
0.0
 10
-134.1719
 20
-66.3628
 30
0.0
 10
-133.7159
 20
-64.0827
 30
0.0
 10
-146.0284
 20
-54.2327
 30
0.0
 10
-146.0284
 20
-54.2327
 30
0.0
 10
-158.0673
 20
-45.0212
 30
0.0
 10
-150.1326
 20
-36.0832
 30
0.0
 10
-150.1326
 20
-36.0832
 30
0.0
 10
-150.1326
 20
-36.0832
 30
0.0
 10
-162.7187
 20
-39.6401
 30
0.0
 10
-152.8687
 20
-52.3174
 30
0.0
 10
-150.0414
 20
-54.5975
 30
0.0
 10
-150.0414
 20
-54.5975
 30
0.0
 10
-148.0233
 20
-56.225
 30
0.0
 10
-139.7354
 20
-60.8906
 30
0.0
 10
-136.9992
 20
-65.998
 30
0.0
 10
-136.9992
 20
-65.998
 30
0.0
 10
-134.2631
 20
-71.1054
 30
0.0
 10
-136.1784
 20
-77.5809
 30
0.0
 10
-136.1784
 20
-77.5809
 30
0.0
 10
-136.1784
 20
-77.5809
 30
0.0
 10
-132.6215
 20
-75.392
 30
0.0
 10
-133.4423
 20
-68.8253
 30
0.0
 10
-133.4423
 20
-68.8253
 30
0.0
  0
SPLINE
  5
B8
330
1F
100
AcDbEntity
  8
layer 1
 62
     7
370
     9
100
AcDbSpline
210
0.0
220
0.0
230
1.0
 70
    11
 71
     3
 72
    20
 73
    16
 74
     0
 42
0.0000000001
 43
0.0000000001
 12
1.0
 22
0.0
 32
0.0
 13
1.0
 23
0.0
 33
0.0
 40
0.0
 40
0.0
 40
0.0
 40
0.0
 40
0.2
 40
0.2
 40
0.2
 40
0.2
 40
0.4
 40
0.4
 40
0.4
 40
0.4
 40
0.6
 40
0.6
 40
0.6
 40
0.6
 40
1.0
 40
1.0
 40
1.0
 40
1.0
 10
-138.6409
 20
-45.5684
 30
0.0
 10
-138.6409
 20
-45.5684
 30
0.0
 10
-134.4455
 20
-42.741
 30
0.0
 10
-129.5206
 20
-45.2947
 30
0.0
 10
-129.5206
 20
-45.2947
 30
0.0
 10
-129.9766
 20
-42.741
 30
0.0
 10
-134.9928
 20
-40.917
 30
0.0
 10
-136.8168
 20
-37.8161
 30
0.0
 10
-136.8168
 20
-37.8161
 30
0.0
 10
-136.8168
 20
-37.8161
 30
0.0
 10
-136.8168
 20
-42.8322
 30
0.0
 10
-140.1002
 20
-44.1091
 30
0.0
 10
-140.1002
 20
-44.1091
 30
0.0
 10
-140.1002
 20
-44.1091
 30
0.0
 10
-139.4617
 20
-45.1123
 30
0.0
 10
-138.6409
 20
-45.5684
 30
0.0
  0
SPLINE
  5
B9
330
1F
100
AcDbEntity
  8
layer 1
 62
     7
370
     9
100
AcDbSpline
210
0.0
220
0.0
230
1.0
 70
    11
 71
     3
 72
    40
 73
    36
 74
     0
 42
0.0000000001
 43
0.0000000001
 12
1.0
 22
0.0
 32
0.0
 13
1.0
 23
0.0
 33
0.0
 40
0.0
 40
0.0
 40
0.0
 40
0.0
 40
0.1
 40
0.1
 40
0.1
 40
0.1
 40
0.2
 40
0.2
 40
0.2
 40
0.2
 40
0.3
 40
0.3
 40
0.3
 40
0.3
 40
0.4
 40
0.4
 40
0.4
 40
0.4
 40
0.5
 40
0.5
 40
0.5
 40
0.5
 40
0.6
 40
0.6
 40
0.6
 40
0.6
 40
0.7
 40
0.7
 40
0.7
 40
0.7
 40
0.8
 40
0.8
 40
0.8
 40
0.8
 40
1.0
 40
1.0
 40
1.0
 40
1.0
 10
-127.4456
 20
-60.1837
 30
0.0
 10
-128.4033
 20
-56.6952
 30
0.0
 10
-129.3381
 20
-56.3304
 30
0.0
 10
-129.3381
 20
-56.3304
 30
0.0
 10
-129.3381
 20
-56.3304
 30
0.0
 10
-129.3381
 20
-56.3304
 30
0.0
 10
-135.2664
 20
-57.1512
 30
0.0
 10
-135.1752
 20
-52.2262
 30
0.0
 10
-135.1752
 20
-52.2262
 30
0.0
 10
-135.1752
 20
-52.2262
 30
0.0
 10
-135.1752
 20
-48.1221
 30
0.0
 10
-131.2534
 20
-49.3989
 30
0.0
 10
-131.2534
 20
-49.3989
 30
0.0
 10
-130.2502
 20
-49.7637
 30
0.0
 10
-130.8886
 20
-48.7605
 30
0.0
 10
-130.8886
 20
-48.7605
 30
0.0
 10
-130.8886
 20
-48.7605
 30
0.0
 10
-130.8886
 20
-48.7605
 30
0.0
 10
-134.3543
 20
-46.4804
 30
0.0
 10
-136.8168
 20
-49.8549
 30
0.0
 10
-136.8168
 20
-49.8549
 30
0.0
 10
-139.2793
 20
-53.2295
 30
0.0
 10
-133.5335
 20
-57.7897
 30
0.0
 10
-132.9863
 20
-58.7017
 30
0.0
 10
-132.9863
 20
-58.7017
 30
0.0
 10
-132.439
 20
-59.6137
 30
0.0
 10
-130.615
 20
-61.4378
 30
0.0
 10
-129.4293
 20
-64.6299
 30
0.0
 10
-129.4293
 20
-64.6299
 30
0.0
 10
-129.4293
 20
-64.6299
 30
0.0
 10
-129.1557
 20
-65.314
 30
0.0
 10
-129.3609
 20
-66.0664
 30
0.0
 10
-129.3609
 20
-66.0664
 30
0.0
 10
-129.5661
 20
-66.8188
 30
0.0
 10
-126.488
 20
-64.6299
 30
0.0
 10
-127.4456
 20
-60.1837
 30
0.0
  0
SPLINE
  5
BA
330
1F
100
AcDbEntity
  8
layer 1
 62
     7
370
     9
100
AcDbSpline
210
0.0
220
0.0
230
1.0
 70
    11
 71
     3
 72
    28
 73
    24
 74
     0
 42
0.0000000001
 43
0.0000000001
 12
1.0
 22
0.0
 32
0.0
 13
1.0
 23
0.0
 33
0.0
 40
0.0
 40
0.0
 40
0.0
 40
0.0
 40
0.1428571428571428
 40
0.1428571428571428
 40
0.1428571428571428
 40
0.1428571428571428
 40
0.2857142857142857
 40
0.2857142857142857
 40
0.2857142857142857
 40
0.2857142857142857
 40
0.4285714285714285
 40
0.4285714285714285
 40
0.4285714285714285
 40
0.4285714285714285
 40
0.5714285714285714
 40
0.5714285714285714
 40
0.5714285714285714
 40
0.5714285714285714
 40
0.7142857142857143
 40
0.7142857142857143
 40
0.7142857142857143
 40
0.7142857142857143
 40
1.0
 40
1.0
 40
1.0
 40
1.0
 10
-153.9631
 20
-60.0698
 30
0.0
 10
-154.8752
 20
-60.7994
 30
0.0
 10
-153.4159
 20
-60.5258
 30
0.0
 10
-153.4159
 20
-60.5258
 30
0.0
 10
-153.4159
 20
-60.5258
 30
0.0
 10
-153.4159
 20
-60.5258
 30
0.0
 10
-151.4094
 20
-58.9753
 30
0.0
 10
-146.7581
 20
-59.3401
 30
0.0
 10
-146.7581
 20
-59.3401
 30
0.0
 10
-150.5886
 20
-57.4248
 30
0.0
 10
-154.5104
 20
-54.2327
 30
0.0
 10
-156.6992
 20
-50.2198
 30
0.0
 10
-156.6992
 20
-50.2198
 30
0.0
 10
-156.6992
 20
-50.2198
 30
0.0
 10
-158.7057
 20
-53.5031
 30
0.0
 10
-159.3442
 20
-54.1415
 30
0.0
 10
-159.3442
 20
-54.1415
 30
0.0
 10
-159.3442
 20
-54.1415
 30
0.0
 10
-155.3312
 20
-53.6855
 30
0.0
 10
-154.0543
 20
-55.6008
 30
0.0
 10
-154.0543
 20
-55.6008
 30
0.0
 10
-152.7775
 20
-57.516
 30
0.0
 10
-153.0511
 20
-59.3401
 30
0.0
 10
-153.9631
 20
-60.0698
 30
0.0
  0
SPLINE
  5
BB
330
1F
100
AcDbEntity
  8
layer 1
 62
     7
370
     9
100
AcDbSpline
210
0.0
220
0.0
230
1.0
 70
    11
 71
     3
 72
    32
 73
    28
 74
     0
 42
0.0000000001
 43
0.0000000001
 12
1.0
 22
0.0
 32
0.0
 13
1.0
 23
0.0
 33
0.0
 40
0.0
 40
0.0
 40
0.0
 40
0.0
 40
0.125
 40
0.125
 40
0.125
 40
0.125
 40
0.25
 40
0.25
 40
0.25
 40
0.25
 40
0.375
 40
0.375
 40
0.375
 40
0.375
 40
0.5
 40
0.5
 40
0.5
 40
0.5
 40
0.625
 40
0.625
 40
0.625
 40
0.625
 40
0.75
 40
0.75
 40
0.75
 40
0.75
 40
1.0
 40
1.0
 40
1.0
 40
1.0
 10
-158.6145
 20
-46.6628
 30
0.0
 10
-157.064
 20
-40.7345
 30
0.0
 10
-162.6275
 20
-38.6369
 30
0.0
 10
-164.634
 20
-40.0049
 30
0.0
 10
-164.634
 20
-40.0049
 30
0.0
 10
-165.4548
 20
-40.1873
 30
0.0
 10
-164.8164
 20
-40.6434
 30
0.0
 10
-164.8164
 20
-40.6434
 30
0.0
 10
-164.8164
 20
-40.6434
 30
0.0
 10
-164.8164
 20
-40.6434
 30
0.0
 10
-161.533
 20
-40.0961
 30
0.0
 10
-161.6243
 20
-43.8355
 30
0.0
 10
-161.6243
 20
-43.8355
 30
0.0
 10
-162.8099
 20
-47.21
 30
0.0
 10
-166.9141
 20
-45.5684
 30
0.0
 10
-166.9141
 20
-45.5684
 30
0.0
 10
-166.9141
 20
-45.5684
 30
0.0
 10
-166.9141
 20
-45.5684
 30
0.0
 10
-168.0997
 20
-44.8387
 30
0.0
 10
-167.7349
 20
-45.7508
 30
0.0
 10
-167.7349
 20
-45.7508
 30
0.0
 10
-167.7349
 20
-45.7508
 30
0.0
 10
-163.3571
 20
-49.1253
 30
0.0
 10
-164.1779
 20
-55.1448
 30
0.0
 10
-164.1779
 20
-55.1448
 30
0.0
 10
-164.1779
 20
-55.1448
 30
0.0
 10
-160.165
 20
-52.5911
 30
0.0
 10
-158.6145
 20
-46.6628
 30
0.0
  0
SPLINE
  5
BC
330
1F
100
AcDbEntity
  8
layer 1
 62
     7
370
     9
100
AcDbSpline
210
0.0
220
0.0
230
1.0
 70
    11
 71
     3
 72
    20
 73
    16
 74
     0
 42
0.0000000001
 43
0.0000000001
 12
1.0
 22
0.0
 32
0.0
 13
1.0
 23
0.0
 33
0.0
 40
0.0
 40
0.0
 40
0.0
 40
0.0
 40
0.2
 40
0.2
 40
0.2
 40
0.2
 40
0.4
 40
0.4
 40
0.4
 40
0.4
 40
0.6
 40
0.6
 40
0.6
 40
0.6
 40
1.0
 40
1.0
 40
1.0
 40
1.0
 10
-173.0247
 20
-54.6887
 30
0.0
 10
-171.7479
 20
-56.3304
 30
0.0
 10
-170.471
 20
-56.7864
 30
0.0
 10
-170.3798
 20
-62.5322
 30
0.0
 10
-170.3798
 20
-62.5322
 30
0.0
 10
-170.3798
 20
-62.5322
 30
0.0
 10
-167.0965
 20
-60.2522
 30
0.0
 10
-168.6469
 20
-53.7767
 30
0.0
 10
-168.6469
 20
-53.7767
 30
0.0
 10
-170.1974
 20
-47.3012
 30
0.0
 10
-170.8358
 20
-49.0341
 30
0.0
 10
-170.8358
 20
-49.0341
 30
0.0
 10
-170.8358
 20
-49.0341
 30
0.0
 10
-170.8358
 20
-49.0341
 30
0.0
 10
-170.2886
 20
-53.3207
 30
0.0
 10
-173.0247
 20
-54.6887
 30
0.0
  0
SPLINE
  5
BD
330
1F
100
AcDbEntity
  8
layer 1
 62
     7
370
     9
100
AcDbSpline
210
0.0
220
0.0
230
1.0
 70
    11
 71
     3
 72
    16
 73
    12
 74
     0
 42
0.0000000001
 43
0.0000000001
 12
1.0
 22
0.0
 32
0.0
 13
1.0
 23
0.0
 33
0.0
 40
0.0
 40
0.0
 40
0.0
 40
0.0
 40
0.25
 40
0.25
 40
0.25
 40
0.25
 40
0.5
 40
0.5
 40
0.5
 40
0.5
 40
1.0
 40
1.0
 40
1.0
 40
1.0
 10
-183.8779
 20
-36.0832
 30
0.0
 10
-184.0907
 20
-35.4024
 30
0.0
 10
-184.4008
 20
-34.8287
 30
0.0
 10
-184.7611
 20
-34.3283
 30
0.0
 10
-184.7611
 20
-34.3283
 30
0.0
 10
-184.7611
 20
-34.3283
 30
0.0
 10
-184.7611
 20
-41.2585
 30
0.0
 10
-184.7611
 20
-41.2585
 30
0.0
 10
-184.7611
 20
-41.2585
 30
0.0
 10
-183.7134
 20
-40.006
 30
0.0
 10
-183.198
 20
-38.2592
 30
0.0
 10
-183.8779
 20
-36.0832
 30
0.0
  0
SPLINE
  5
BE
330
1F
100
AcDbEntity
  8
layer 1
 62
     7
370
     9
100
AcDbSpline
210
0.0
220
0.0
230
1.0
 70
    11
 71
     3
 72
    24
 73
    20
 74
     0
 42
0.0000000001
 43
0.0000000001
 12
1.0
 22
0.0
 32
0.0
 13
1.0
 23
0.0
 33
0.0
 40
0.0
 40
0.0
 40
0.0
 40
0.0
 40
0.1666666666666667
 40
0.1666666666666667
 40
0.1666666666666667
 40
0.1666666666666667
 40
0.3333333333333333
 40
0.3333333333333333
 40
0.3333333333333333
 40
0.3333333333333333
 40
0.5
 40
0.5
 40
0.5
 40
0.5
 40
0.6666666666666666
 40
0.6666666666666666
 40
0.6666666666666666
 40
0.6666666666666666
 40
1.0
 40
1.0
 40
1.0
 40
1.0
 10
-181.0507
 20
-77.5809
 30
0.0
 10
-177.4937
 20
-75.392
 30
0.0
 10
-178.3145
 20
-68.8253
 30
0.0
 10
-178.3145
 20
-68.8253
 30
0.0
 10
-178.3145
 20
-68.8253
 30
0.0
 10
-178.8925
 20
-66.8745
 30
0.0
 10
-178.7331
 20
-65.0341
 30
0.0
 10
-184.7611
 20
-59.4576
 30
0.0
 10
-184.7611
 20
-59.4576
 30
0.0
 10
-184.7611
 20
-59.4576
 30
0.0
 10
-184.7611
 20
-62.3099
 30
0.0
 10
-184.7611
 20
-62.3099
 30
0.0
 10
-184.7611
 20
-62.3099
 30
0.0
 10
-183.5759
 20
-63.4853
 30
0.0
 10
-182.5519
 20
-64.7279
 30
0.0
 10
-181.8715
 20
-65.998
 30
0.0
 10
-181.8715
 20
-65.998
 30
0.0
 10
-179.1354
 20
-71.1054
 30
0.0
 10
-181.0507
 20
-77.5809
 30
0.0
 10
-181.0507
 20
-77.5809
 30
0.0
  0
SPLINE
  5
BF
330
1F
100
AcDbEntity
  8
layer 1
 62
     7
370
     9
100
AcDbSpline
210
0.0
220
0.0
230
1.0
 70
    11
 71
     3
 72
    24
 73
    20
 74
     0
 42
0.0000000001
 43
0.0000000001
 12
1.0
 22
0.0
 32
0.0
 13
1.0
 23
0.0
 33
0.0
 40
0.0
 40
0.0
 40
0.0
 40
0.0
 40
0.1666666666666667
 40
0.1666666666666667
 40
0.1666666666666667
 40
0.1666666666666667
 40
0.3333333333333333
 40
0.3333333333333333
 40
0.3333333333333333
 40
0.3333333333333333
 40
0.5
 40
0.5
 40
0.5
 40
0.5
 40
0.6666666666666666
 40
0.6666666666666666
 40
0.6666666666666666
 40
0.6666666666666666
 40
1.0
 40
1.0
 40
1.0
 40
1.0
 10
-183.5131
 20
-45.5684
 30
0.0
 10
-183.5131
 20
-45.5684
 30
0.0
 10
-179.3178
 20
-42.741
 30
0.0
 10
-174.3927
 20
-45.2947
 30
0.0
 10
-174.3927
 20
-45.2947
 30
0.0
 10
-174.8488
 20
-42.741
 30
0.0
 10
-179.865
 20
-40.917
 30
0.0
 10
-181.6891
 20
-37.8161
 30
0.0
 10
-181.6891
 20
-37.8161
 30
0.0
 10
-181.6891
 20
-37.8161
 30
0.0
 10
-181.6977
 20
-42.5961
 30
0.0
 10
-184.7611
 20
-44.0063
 30
0.0
 10
-184.7611
 20
-44.0063
 30
0.0
 10
-184.7611
 20
-44.0063
 30
0.0
 10
-184.7611
 20
-44.4051
 30
0.0
 10
-184.7611
 20
-44.4051
 30
0.0
 10
-184.7611
 20
-44.4051
 30
0.0
 10
-184.5086
 20
-44.7374
 30
0.0
 10
-184.0525
 20
-45.2687
 30
0.0
 10
-183.5131
 20
-45.5684
 30
0.0
  0
SPLINE
  5
C0
330
1F
100
AcDbEntity
  8
layer 1
 62
     7
370
     9
100
AcDbSpline
210
0.0
220
0.0
230
1.0
 70
    11
 71
     3
 72
    40
 73
    36
 74
     0
 42
0.0000000001
 43
0.0000000001
 12
1.0
 22
0.0
 32
0.0
 13
1.0
 23
0.0
 33
0.0
 40
0.0
 40
0.0
 40
0.0
 40
0.0
 40
0.1
 40
0.1
 40
0.1
 40
0.1
 40
0.2
 40
0.2
 40
0.2
 40
0.2
 40
0.3
 40
0.3
 40
0.3
 40
0.3
 40
0.4
 40
0.4
 40
0.4
 40
0.4
 40
0.5
 40
0.5
 40
0.5
 40
0.5
 40
0.6
 40
0.6
 40
0.6
 40
0.6
 40
0.7
 40
0.7
 40
0.7
 40
0.7
 40
0.8
 40
0.8
 40
0.8
 40
0.8
 40
1.0
 40
1.0
 40
1.0
 40
1.0
 10
-174.2332
 20
-66.0664
 30
0.0
 10
-174.4384
 20
-66.8188
 30
0.0
 10
-171.3602
 20
-64.6299
 30
0.0
 10
-172.3179
 20
-60.1837
 30
0.0
 10
-172.3179
 20
-60.1837
 30
0.0
 10
-173.2755
 20
-56.6952
 30
0.0
 10
-174.2104
 20
-56.3304
 30
0.0
 10
-174.2104
 20
-56.3304
 30
0.0
 10
-174.2104
 20
-56.3304
 30
0.0
 10
-174.2104
 20
-56.3304
 30
0.0
 10
-180.1386
 20
-57.1512
 30
0.0
 10
-180.0474
 20
-52.2262
 30
0.0
 10
-180.0474
 20
-52.2262
 30
0.0
 10
-180.0474
 20
-52.2262
 30
0.0
 10
-180.0474
 20
-48.1221
 30
0.0
 10
-176.1256
 20
-49.3989
 30
0.0
 10
-176.1256
 20
-49.3989
 30
0.0
 10
-175.1224
 20
-49.7637
 30
0.0
 10
-175.7608
 20
-48.7605
 30
0.0
 10
-175.7608
 20
-48.7605
 30
0.0
 10
-175.7608
 20
-48.7605
 30
0.0
 10
-175.7608
 20
-48.7605
 30
0.0
 10
-179.2265
 20
-46.4804
 30
0.0
 10
-181.6891
 20
-49.8549
 30
0.0
 10
-181.6891
 20
-49.8549
 30
0.0
 10
-184.1516
 20
-53.2295
 30
0.0
 10
-178.4057
 20
-57.7897
 30
0.0
 10
-177.8585
 20
-58.7017
 30
0.0
 10
-177.8585
 20
-58.7017
 30
0.0
 10
-177.3113
 20
-59.6137
 30
0.0
 10
-175.4872
 20
-61.4378
 30
0.0
 10
-174.3015
 20
-64.6299
 30
0.0
 10
-174.3015
 20
-64.6299
 30
0.0
 10
-174.3015
 20
-64.6299
 30
0.0
 10
-174.0279
 20
-65.314
 30
0.0
 10
-174.2332
 20
-66.0664
 30
0.0
  0
SPLINE
  5
C1
330
1F
100
AcDbEntity
  8
layer 1
 62
     7
370
     9
100
AcDbSpline
210
0.0
220
0.0
230
1.0
 70
    11
 71
     3
 72
    32
 73
    28
 74
     0
 42
0.0000000001
 43
0.0000000001
 12
1.0
 22
0.0
 32
0.0
 13
1.0
 23
0.0
 33
0.0
 40
0.0
 40
0.0
 40
0.0
 40
0.0
 40
0.125
 40
0.125
 40
0.125
 40
0.125
 40
0.25
 40
0.25
 40
0.25
 40
0.25
 40
0.375
 40
0.375
 40
0.375
 40
0.375
 40
0.5
 40
0.5
 40
0.5
 40
0.5
 40
0.625
 40
0.625
 40
0.625
 40
0.625
 40
0.75
 40
0.75
 40
0.75
 40
0.75
 40
1.0
 40
1.0
 40
1.0
 40
1.0
 10
-126.602
 20
55.6677
 30
0.0
 10
-130.159
 20
53.6613
 30
0.0
 10
-128.4261
 20
46.9122
 30
0.0
 10
-128.4261
 20
46.9122
 30
0.0
 10
-128.4261
 20
46.9122
 30
0.0
 10
-128.4261
 20
46.9122
 30
0.0
 10
-125.9636
 20
49.4659
 30
0.0
 10
-125.9636
 20
49.4659
 30
0.0
 10
-125.9636
 20
49.4659
 30
0.0
 10
-125.9636
 20
49.4659
 30
0.0
 10
-126.8756
 20
52.0196
 30
0.0
 10
-123.8659
 20
53.7525
 30
0.0
 10
-123.8659
 20
53.7525
 30
0.0
 10
-117.3905
 20
56.3062
 30
0.0
 10
-117.1168
 20
50.1955
 30
0.0
 10
-117.1168
 20
50.1955
 30
0.0
 10
-117.1168
 20
50.1955
 30
0.0
 10
-117.1168
 20
50.1955
 30
0.0
 10
-116.6608
 20
50.0587
 30
0.0
 10
-115.9312
 20
51.1988
 30
0.0
 10
-115.9312
 20
51.1988
 30
0.0
 10
-114.9279
 20
53.3877
 30
0.0
 10
-117.0257
 20
55.4853
 30
0.0
 10
-117.0257
 20
55.4853
 30
0.0
 10
-117.0257
 20
55.4853
 30
0.0
 10
-120.4914
 20
58.3127
 30
0.0
 10
-123.0451
 20
57.6742
 30
0.0
 10
-126.602
 20
55.6677
 30
0.0
  0
SPLINE
  5
C2
330
1F
100
AcDbEntity
  8
layer 1
 62
     7
370
     9
100
AcDbSpline
210
0.0
220
0.0
230
1.0
 70
    11
 71
     3
 72
    24
 73
    20
 74
     0
 42
0.0000000001
 43
0.0000000001
 12
1.0
 22
0.0
 32
0.0
 13
1.0
 23
0.0
 33
0.0
 40
0.0
 40
0.0
 40
0.0
 40
0.0
 40
0.1666666666666667
 40
0.1666666666666667
 40
0.1666666666666667
 40
0.1666666666666667
 40
0.3333333333333333
 40
0.3333333333333333
 40
0.3333333333333333
 40
0.3333333333333333
 40
0.5
 40
0.5
 40
0.5
 40
0.5
 40
0.6666666666666666
 40
0.6666666666666666
 40
0.6666666666666666
 40
0.6666666666666666
 40
1.0
 40
1.0
 40
1.0
 40
1.0
 10
-125.6444
 20
48.3259
 30
0.0
 10
-125.6444
 20
48.3259
 30
0.0
 10
-125.8268
 20
48.3715
 30
0.0
 10
-125.8268
 20
48.3715
 30
0.0
 10
-125.8268
 20
48.3715
 30
0.0
 10
-125.8268
 20
48.3715
 30
0.0
 10
-127.4685
 20
45.9545
 30
0.0
 10
-127.4685
 20
45.7721
 30
0.0
 10
-127.4685
 20
45.7721
 30
0.0
 10
-127.4685
 20
45.5897
 30
0.0
 10
-125.8268
 20
40.5279
 30
0.0
 10
-124.3219
 20
39.2055
 30
0.0
 10
-124.3219
 20
39.2055
 30
0.0
 10
-125.1884
 20
41.8048
 30
0.0
 10
-123.2275
 20
43.8569
 30
0.0
 10
-121.1754
 20
44.2673
 30
0.0
 10
-121.1754
 20
44.2673
 30
0.0
 10
-123.6379
 20
44.9969
 30
0.0
 10
-125.6444
 20
48.3259
 30
0.0
 10
-125.6444
 20
48.3259
 30
0.0
  0
SPLINE
  5
C3
330
1F
100
AcDbEntity
  8
layer 1
 62
     7
370
     9
100
AcDbSpline
210
0.0
220
0.0
230
1.0
 70
    11
 71
     3
 72
    20
 73
    16
 74
     0
 42
0.0000000001
 43
0.0000000001
 12
1.0
 22
0.0
 32
0.0
 13
1.0
 23
0.0
 33
0.0
 40
0.0
 40
0.0
 40
0.0
 40
0.0
 40
0.2
 40
0.2
 40
0.2
 40
0.2
 40
0.4
 40
0.4
 40
0.4
 40
0.4
 40
0.6
 40
0.6
 40
0.6
 40
0.6
 40
1.0
 40
1.0
 40
1.0
 40
1.0
 10
-113.2863
 20
60.0455
 30
0.0
 10
-113.2863
 20
60.0455
 30
0.0
 10
-110.6414
 20
57.583
 30
0.0
 10
-110.459
 20
54.5733
 30
0.0
 10
-110.459
 20
54.5733
 30
0.0
 10
-110.459
 20
54.5733
 30
0.0
 10
-105.3516
 20
57.7654
 30
0.0
 10
-107.0844
 20
62.5992
 30
0.0
 10
-107.0844
 20
62.5992
 30
0.0
 10
-107.0844
 20
62.5992
 30
0.0
 10
-107.6316
 20
65.1529
 30
0.0
 10
-111.1886
 20
65.7913
 30
0.0
 10
-111.1886
 20
65.7913
 30
0.0
 10
-111.1886
 20
65.7913
 30
0.0
 10
-107.8141
 20
61.1399
 30
0.0
 10
-113.2863
 20
60.0455
 30
0.0
  0
SPLINE
  5
C4
330
1F
100
AcDbEntity
  8
layer 1
 62
     7
370
     9
100
AcDbSpline
210
0.0
220
0.0
230
1.0
 70
    11
 71
     3
 72
    24
 73
    20
 74
     0
 42
0.0000000001
 43
0.0000000001
 12
1.0
 22
0.0
 32
0.0
 13
1.0
 23
0.0
 33
0.0
 40
0.0
 40
0.0
 40
0.0
 40
0.0
 40
0.1666666666666667
 40
0.1666666666666667
 40
0.1666666666666667
 40
0.1666666666666667
 40
0.3333333333333333
 40
0.3333333333333333
 40
0.3333333333333333
 40
0.3333333333333333
 40
0.5
 40
0.5
 40
0.5
 40
0.5
 40
0.6666666666666666
 40
0.6666666666666666
 40
0.6666666666666666
 40
0.6666666666666666
 40
1.0
 40
1.0
 40
1.0
 40
1.0
 10
-112.8303
 20
42.6256
 30
0.0
 10
-112.0094
 20
41.6224
 30
0.0
 10
-114.3807
 20
47.4594
 30
0.0
 10
-105.2604
 20
51.5636
 30
0.0
 10
-105.2604
 20
51.5636
 30
0.0
 10
-100.7002
 20
55.6677
 30
0.0
 10
-103.8048
 20
60.1118
 30
0.0
 10
-103.9835
 20
59.3159
 30
0.0
 10
-103.9835
 20
59.3159
 30
0.0
 10
-104.9868
 20
54.8469
 30
0.0
 10
-110.1854
 20
53.114
 30
0.0
 10
-110.1854
 20
53.114
 30
0.0
 10
-110.1854
 20
53.114
 30
0.0
 10
-110.1854
 20
53.114
 30
0.0
 10
-110.2766
 20
46.6386
 30
0.0
 10
-116.5696
 20
44.8145
 30
0.0
 10
-116.5696
 20
44.8145
 30
0.0
 10
-116.5696
 20
44.8145
 30
0.0
 10
-113.6511
 20
43.6289
 30
0.0
 10
-112.8303
 20
42.6256
 30
0.0
  0
SPLINE
  5
C5
330
1F
100
AcDbEntity
  8
layer 1
 62
     7
370
     9
100
AcDbSpline
210
0.0
220
0.0
230
1.0
 70
    11
 71
     3
 72
    20
 73
    16
 74
     0
 42
0.0000000001
 43
0.0000000001
 12
1.0
 22
0.0
 32
0.0
 13
1.0
 23
0.0
 33
0.0
 40
0.0
 40
0.0
 40
0.0
 40
0.0
 40
0.2
 40
0.2
 40
0.2
 40
0.2
 40
0.4
 40
0.4
 40
0.4
 40
0.4
 40
0.6
 40
0.6
 40
0.6
 40
0.6
 40
1.0
 40
1.0
 40
1.0
 40
1.0
 10
-95.684
 20
50.834
 30
0.0
 10
-95.684
 20
50.834
 30
0.0
 10
-95.9576
 20
51.5636
 30
0.0
 10
-96.14
 20
52.4756
 30
0.0
 10
-96.14
 20
52.4756
 30
0.0
 10
-96.14
 20
52.4756
 30
0.0
 10
-100.153
 20
54.5733
 30
0.0
 10
-101.1562
 20
56.1238
 30
0.0
 10
-101.1562
 20
56.1238
 30
0.0
 10
-101.1562
 20
56.1238
 30
0.0
 10
-100.7914
 20
53.6613
 30
0.0
 10
-101.6122
 20
52.5668
 30
0.0
 10
-101.6122
 20
52.5668
 30
0.0
 10
-101.6122
 20
52.5668
 30
0.0
 10
-97.3257
 20
52.2932
 30
0.0
 10
-95.684
 20
50.834
 30
0.0
  0
SPLINE
  5
C6
330
1F
100
AcDbEntity
  8
layer 1
 62
     7
370
     9
100
AcDbSpline
210
0.0
220
0.0
230
1.0
 70
    11
 71
     3
 72
    32
 73
    28
 74
     0
 42
0.0000000001
 43
0.0000000001
 12
1.0
 22
0.0
 32
0.0
 13
1.0
 23
0.0
 33
0.0
 40
0.0
 40
0.0
 40
0.0
 40
0.0
 40
0.125
 40
0.125
 40
0.125
 40
0.125
 40
0.25
 40
0.25
 40
0.25
 40
0.25
 40
0.375
 40
0.375
 40
0.375
 40
0.375
 40
0.5
 40
0.5
 40
0.5
 40
0.5
 40
0.625
 40
0.625
 40
0.625
 40
0.625
 40
0.75
 40
0.75
 40
0.75
 40
0.75
 40
1.0
 40
1.0
 40
1.0
 40
1.0
 10
-100.7914
 20
50.1955
 30
0.0
 10
-100.7914
 20
50.1955
 30
0.0
 10
-106.2636
 20
51.1988
 30
0.0
 10
-108.6349
 20
45.9089
 30
0.0
 10
-108.6349
 20
45.9089
 30
0.0
 10
-108.6349
 20
45.9089
 30
0.0
 10
-102.5243
 20
50.6515
 30
0.0
 10
-97.508
 20
45.4529
 30
0.0
 10
-97.508
 20
45.4529
 30
0.0
 10
-95.2279
 20
40.7103
 30
0.0
 10
-100.7914
 20
39.1599
 30
0.0
 10
-100.7914
 20
39.1599
 30
0.0
 10
-100.7914
 20
39.1599
 30
0.0
 10
-100.7914
 20
39.1599
 30
0.0
 10
-101.6122
 20
38.6127
 30
0.0
 10
-102.7979
 20
39.6159
 30
0.0
 10
-102.7979
 20
39.6159
 30
0.0
 10
-102.7979
 20
39.6159
 30
0.0
 10
-102.2507
 20
37.7006
 30
0.0
 10
-99.3321
 20
38.0654
 30
0.0
 10
-99.3321
 20
38.0654
 30
0.0
 10
-96.4136
 20
38.4302
 30
0.0
 10
-92.9479
 20
41.0752
 30
0.0
 10
-94.3159
 20
45.4529
 30
0.0
 10
-94.3159
 20
45.4529
 30
0.0
 10
-95.684
 20
49.8307
 30
0.0
 10
-100.7914
 20
50.1955
 30
0.0
 10
-100.7914
 20
50.1955
 30
0.0
  0
SPLINE
  5
C7
330
1F
100
AcDbEntity
  8
layer 1
 62
     7
370
     9
100
AcDbSpline
210
0.0
220
0.0
230
1.0
 70
    11
 71
     3
 72
    20
 73
    16
 74
     0
 42
0.0000000001
 43
0.0000000001
 12
1.0
 22
0.0
 32
0.0
 13
1.0
 23
0.0
 33
0.0
 40
0.0
 40
0.0
 40
0.0
 40
0.0
 40
0.2
 40
0.2
 40
0.2
 40
0.2
 40
0.4
 40
0.4
 40
0.4
 40
0.4
 40
0.6
 40
0.6
 40
0.6
 40
0.6
 40
1.0
 40
1.0
 40
1.0
 40
1.0
 10
-99.3321
 20
42.9904
 30
0.0
 10
-99.3321
 20
44.2497
 30
0.0
 10
-100.3529
 20
45.2705
 30
0.0
 10
-101.6122
 20
45.2705
 30
0.0
 10
-101.6122
 20
45.2705
 30
0.0
 10
-102.8715
 20
45.2705
 30
0.0
 10
-103.8923
 20
44.2497
 30
0.0
 10
-103.8923
 20
42.9904
 30
0.0
 10
-103.8923
 20
42.9904
 30
0.0
 10
-103.8923
 20
41.7312
 30
0.0
 10
-102.8715
 20
40.7103
 30
0.0
 10
-101.6122
 20
40.7103
 30
0.0
 10
-101.6122
 20
40.7103
 30
0.0
 10
-100.3529
 20
40.7103
 30
0.0
 10
-99.3321
 20
41.7312
 30
0.0
 10
-99.3321
 20
42.9904
 30
0.0
  0
SPLINE
  5
C8
330
1F
100
AcDbEntity
  8
layer 1
 62
     7
370
     9
100
AcDbSpline
210
0.0
220
0.0
230
1.0
 70
    11
 71
     3
 72
    20
 73
    16
 74
     0
 42
0.0000000001
 43
0.0000000001
 12
1.0
 22
0.0
 32
0.0
 13
1.0
 23
0.0
 33
0.0
 40
0.0
 40
0.0
 40
0.0
 40
0.0
 40
0.2
 40
0.2
 40
0.2
 40
0.2
 40
0.4
 40
0.4
 40
0.4
 40
0.4
 40
0.6
 40
0.6
 40
0.6
 40
0.6
 40
1.0
 40
1.0
 40
1.0
 40
1.0
 10
-105.8988
 20
39.8895
 30
0.0
 10
-105.8076
 20
31.9548
 30
0.0
 10
-97.1432
 20
26.665
 30
0.0
 10
-97.1432
 20
26.665
 30
0.0
 10
-97.1432
 20
26.665
 30
0.0
 10
-98.2377
 20
31.59
 30
0.0
 10
-95.9576
 20
34.5997
 30
0.0
 10
-95.9576
 20
34.5997
 30
0.0
 10
-95.9576
 20
34.5997
 30
0.0
 10
-96.5048
 20
34.5997
 30
0.0
 10
-97.964
 20
36.059
 30
0.0
 10
-97.964
 20
36.059
 30
0.0
 10
-97.964
 20
36.059
 30
0.0
 10
-103.7099
 20
34.7821
 30
0.0
 10
-105.8988
 20
39.8895
 30
0.0
 10
-105.8988
 20
39.8895
 30
0.0
  0
SPLINE
  5
C9
330
1F
100
AcDbEntity
  8
layer 1
 62
     7
370
     9
100
AcDbSpline
210
0.0
220
0.0
230
1.0
 70
    11
 71
     3
 72
    28
 73
    24
 74
     0
 42
0.0000000001
 43
0.0000000001
 12
1.0
 22
0.0
 32
0.0
 13
1.0
 23
0.0
 33
0.0
 40
0.0
 40
0.0
 40
0.0
 40
0.0
 40
0.1428571428571428
 40
0.1428571428571428
 40
0.1428571428571428
 40
0.1428571428571428
 40
0.2857142857142857
 40
0.2857142857142857
 40
0.2857142857142857
 40
0.2857142857142857
 40
0.4285714285714285
 40
0.4285714285714285
 40
0.4285714285714285
 40
0.4285714285714285
 40
0.5714285714285714
 40
0.5714285714285714
 40
0.5714285714285714
 40
0.5714285714285714
 40
0.7142857142857143
 40
0.7142857142857143
 40
0.7142857142857143
 40
0.7142857142857143
 40
1.0
 40
1.0
 40
1.0
 40
1.0
 10
-105.4428
 20
45.4529
 30
0.0
 10
-118.0289
 20
41.896
 30
0.0
 10
-108.1789
 20
29.2187
 30
0.0
 10
-105.3516
 20
26.9386
 30
0.0
 10
-105.3516
 20
26.9386
 30
0.0
 10
-103.3336
 20
25.3111
 30
0.0
 10
-95.0455
 20
20.6455
 30
0.0
 10
-92.3094
 20
15.5381
 30
0.0
 10
-92.3094
 20
15.5381
 30
0.0
 10
-89.5733
 20
10.4307
 30
0.0
 10
-91.4886
 20
3.9552
 30
0.0
 10
-91.4886
 20
3.9552
 30
0.0
 10
-91.4886
 20
3.9552
 30
0.0
 10
-87.9316
 20
6.1441
 30
0.0
 10
-88.7525
 20
12.7108
 30
0.0
 10
-88.7525
 20
12.7108
 30
0.0
 10
-88.7525
 20
12.7108
 30
0.0
 10
-89.4821
 20
15.1733
 30
0.0
 10
-89.0261
 20
17.4534
 30
0.0
 10
-101.3386
 20
27.3034
 30
0.0
 10
-101.3386
 20
27.3034
 30
0.0
 10
-113.3775
 20
36.515
 30
0.0
 10
-105.4428
 20
45.4529
 30
0.0
 10
-105.4428
 20
45.4529
 30
0.0
  0
SPLINE
  5
CA
330
1F
100
AcDbEntity
  8
layer 1
 62
     7
370
     9
100
AcDbSpline
210
0.0
220
0.0
230
1.0
 70
    11
 71
     3
 72
    24
 73
    20
 74
     0
 42
0.0000000001
 43
0.0000000001
 12
1.0
 22
0.0
 32
0.0
 13
1.0
 23
0.0
 33
0.0
 40
0.0
 40
0.0
 40
0.0
 40
0.0
 40
0.1666666666666667
 40
0.1666666666666667
 40
0.1666666666666667
 40
0.1666666666666667
 40
0.3333333333333333
 40
0.3333333333333333
 40
0.3333333333333333
 40
0.3333333333333333
 40
0.5
 40
0.5
 40
0.5
 40
0.5
 40
0.6666666666666666
 40
0.6666666666666666
 40
0.6666666666666666
 40
0.6666666666666666
 40
1.0
 40
1.0
 40
1.0
 40
1.0
 10
-92.1271
 20
43.7201
 30
0.0
 10
-92.1271
 20
43.7201
 30
0.0
 10
-92.1271
 20
38.7039
 30
0.0
 10
-95.4104
 20
37.427
 30
0.0
 10
-95.4104
 20
37.427
 30
0.0
 10
-95.4104
 20
37.427
 30
0.0
 10
-94.7719
 20
36.4238
 30
0.0
 10
-93.9511
 20
35.9677
 30
0.0
 10
-93.9511
 20
35.9677
 30
0.0
 10
-93.9511
 20
35.9677
 30
0.0
 10
-89.7722
 20
38.7829
 30
0.0
 10
-84.8599
 20
36.2556
 30
0.0
 10
-84.8599
 20
36.2556
 30
0.0
 10
-84.8599
 20
36.2556
 30
0.0
 10
-84.8599
 20
36.3416
 30
0.0
 10
-84.8599
 20
36.3416
 30
0.0
 10
-84.8599
 20
36.3416
 30
0.0
 10
-85.4283
 20
38.8425
 30
0.0
 10
-90.3272
 20
40.6604
 30
0.0
 10
-92.1271
 20
43.7201
 30
0.0
  0
SPLINE
  5
CB
330
1F
100
AcDbEntity
  8
layer 1
 62
     7
370
     9
100
AcDbSpline
210
0.0
220
0.0
230
1.0
 70
    11
 71
     3
 72
    32
 73
    28
 74
     0
 42
0.0000000001
 43
0.0000000001
 12
1.0
 22
0.0
 32
0.0
 13
1.0
 23
0.0
 33
0.0
 40
0.0
 40
0.0
 40
0.0
 40
0.0
 40
0.125
 40
0.125
 40
0.125
 40
0.125
 40
0.25
 40
0.25
 40
0.25
 40
0.25
 40
0.375
 40
0.375
 40
0.375
 40
0.375
 40
0.5
 40
0.5
 40
0.5
 40
0.5
 40
0.625
 40
0.625
 40
0.625
 40
0.625
 40
0.75
 40
0.75
 40
0.75
 40
0.75
 40
1.0
 40
1.0
 40
1.0
 40
1.0
 10
-90.4854
 20
29.3099
 30
0.0
 10
-90.4854
 20
29.3099
 30
0.0
 10
-90.4854
 20
33.414
 30
0.0
 10
-86.5636
 20
32.1372
 30
0.0
 10
-86.5636
 20
32.1372
 30
0.0
 10
-85.5604
 20
31.7724
 30
0.0
 10
-86.1988
 20
32.7756
 30
0.0
 10
-86.1988
 20
32.7756
 30
0.0
 10
-86.1988
 20
32.7756
 30
0.0
 10
-86.1988
 20
32.7756
 30
0.0
 10
-89.6645
 20
35.0557
 30
0.0
 10
-92.1271
 20
31.6812
 30
0.0
 10
-92.1271
 20
31.6812
 30
0.0
 10
-94.5895
 20
28.3066
 30
0.0
 10
-88.8437
 20
23.7464
 30
0.0
 10
-88.2965
 20
22.8344
 30
0.0
 10
-88.2965
 20
22.8344
 30
0.0
 10
-87.7672
 20
21.9523
 30
0.0
 10
-86.0452
 20
20.213
 30
0.0
 10
-84.8599
 20
17.212
 30
0.0
 10
-84.8599
 20
17.212
 30
0.0
 10
-84.8599
 20
17.212
 30
0.0
 10
-84.8599
 20
25.1838
 30
0.0
 10
-84.8599
 20
25.1838
 30
0.0
 10
-84.8599
 20
25.1838
 30
0.0
 10
-85.91
 20
25.0937
 30
0.0
 10
-90.5663
 20
24.9394
 30
0.0
 10
-90.4854
 20
29.3099
 30
0.0
  0
SPLINE
  5
CC
330
1F
100
AcDbEntity
  8
layer 1
 62
     7
370
     9
100
AcDbSpline
210
0.0
220
0.0
230
1.0
 70
    11
 71
     3
 72
    28
 73
    24
 74
     0
 42
0.0000000001
 43
0.0000000001
 12
1.0
 22
0.0
 32
0.0
 13
1.0
 23
0.0
 33
0.0
 40
0.0
 40
0.0
 40
0.0
 40
0.0
 40
0.1428571428571428
 40
0.1428571428571428
 40
0.1428571428571428
 40
0.1428571428571428
 40
0.2857142857142857
 40
0.2857142857142857
 40
0.2857142857142857
 40
0.2857142857142857
 40
0.4285714285714285
 40
0.4285714285714285
 40
0.4285714285714285
 40
0.4285714285714285
 40
0.5714285714285714
 40
0.5714285714285714
 40
0.5714285714285714
 40
0.5714285714285714
 40
0.7142857142857143
 40
0.7142857142857143
 40
0.7142857142857143
 40
0.7142857142857143
 40
1.0
 40
1.0
 40
1.0
 40
1.0
 10
-112.0094
 20
31.3163
 30
0.0
 10
-112.0094
 20
31.3163
 30
0.0
 10
-114.0159
 20
28.033
 30
0.0
 10
-114.6543
 20
27.3946
 30
0.0
 10
-114.6543
 20
27.3946
 30
0.0
 10
-114.6543
 20
27.3946
 30
0.0
 10
-110.6414
 20
27.8506
 30
0.0
 10
-109.3645
 20
25.9354
 30
0.0
 10
-109.3645
 20
25.9354
 30
0.0
 10
-108.0877
 20
24.0201
 30
0.0
 10
-108.3613
 20
22.196
 30
0.0
 10
-109.2733
 20
21.4664
 30
0.0
 10
-109.2733
 20
21.4664
 30
0.0
 10
-110.1854
 20
20.7367
 30
0.0
 10
-108.7261
 20
21.0103
 30
0.0
 10
-108.7261
 20
21.0103
 30
0.0
 10
-108.7261
 20
21.0103
 30
0.0
 10
-108.7261
 20
21.0103
 30
0.0
 10
-106.7196
 20
22.5608
 30
0.0
 10
-102.0682
 20
22.196
 30
0.0
 10
-102.0682
 20
22.196
 30
0.0
 10
-105.8988
 20
24.1113
 30
0.0
 10
-109.8206
 20
27.3034
 30
0.0
 10
-112.0094
 20
31.3163
 30
0.0
  0
SPLINE
  5
CD
330
1F
100
AcDbEntity
  8
layer 1
 62
     7
370
     9
100
AcDbSpline
210
0.0
220
0.0
230
1.0
 70
    11
 71
     3
 72
    32
 73
    28
 74
     0
 42
0.0000000001
 43
0.0000000001
 12
1.0
 22
0.0
 32
0.0
 13
1.0
 23
0.0
 33
0.0
 40
0.0
 40
0.0
 40
0.0
 40
0.0
 40
0.125
 40
0.125
 40
0.125
 40
0.125
 40
0.25
 40
0.25
 40
0.25
 40
0.25
 40
0.375
 40
0.375
 40
0.375
 40
0.375
 40
0.5
 40
0.5
 40
0.5
 40
0.5
 40
0.625
 40
0.625
 40
0.625
 40
0.625
 40
0.75
 40
0.75
 40
0.75
 40
0.75
 40
1.0
 40
1.0
 40
1.0
 40
1.0
 10
-122.2243
 20
35.9677
 30
0.0
 10
-122.2243
 20
35.9677
 30
0.0
 10
-123.4099
 20
36.6974
 30
0.0
 10
-123.0451
 20
35.7853
 30
0.0
 10
-123.0451
 20
35.7853
 30
0.0
 10
-123.0451
 20
35.7853
 30
0.0
 10
-118.6673
 20
32.4108
 30
0.0
 10
-119.4882
 20
26.3913
 30
0.0
 10
-119.4882
 20
26.3913
 30
0.0
 10
-119.4882
 20
26.3913
 30
0.0
 10
-115.4752
 20
28.9451
 30
0.0
 10
-113.9247
 20
34.8733
 30
0.0
 10
-113.9247
 20
34.8733
 30
0.0
 10
-112.3743
 20
40.8016
 30
0.0
 10
-117.9377
 20
42.8992
 30
0.0
 10
-119.9442
 20
41.5312
 30
0.0
 10
-119.9442
 20
41.5312
 30
0.0
 10
-120.765
 20
41.3488
 30
0.0
 10
-120.1265
 20
40.8927
 30
0.0
 10
-120.1265
 20
40.8927
 30
0.0
 10
-120.1265
 20
40.8927
 30
0.0
 10
-120.1265
 20
40.8927
 30
0.0
 10
-116.8432
 20
41.4399
 30
0.0
 10
-116.9344
 20
37.7006
 30
0.0
 10
-116.9344
 20
37.7006
 30
0.0
 10
-118.1201
 20
34.3261
 30
0.0
 10
-122.2243
 20
35.9677
 30
0.0
 10
-122.2243
 20
35.9677
 30
0.0
  0
SPLINE
  5
CE
330
1F
100
AcDbEntity
  8
layer 1
 62
     7
370
     9
100
AcDbSpline
210
0.0
220
0.0
230
1.0
 70
    11
 71
     3
 72
    20
 73
    16
 74
     0
 42
0.0000000001
 43
0.0000000001
 12
1.0
 22
0.0
 32
0.0
 13
1.0
 23
0.0
 33
0.0
 40
0.0
 40
0.0
 40
0.0
 40
0.0
 40
0.2
 40
0.2
 40
0.2
 40
0.2
 40
0.4
 40
0.4
 40
0.4
 40
0.4
 40
0.6
 40
0.6
 40
0.6
 40
0.6
 40
1.0
 40
1.0
 40
1.0
 40
1.0
 10
-125.69
 20
19.0039
 30
0.0
 10
-125.69
 20
19.0039
 30
0.0
 10
-122.4067
 20
21.2839
 30
0.0
 10
-123.9571
 20
27.7594
 30
0.0
 10
-123.9571
 20
27.7594
 30
0.0
 10
-125.5076
 20
34.2349
 30
0.0
 10
-126.146
 20
32.502
 30
0.0
 10
-126.146
 20
32.502
 30
0.0
 10
-126.146
 20
32.502
 30
0.0
 10
-126.146
 20
32.502
 30
0.0
 10
-125.5988
 20
28.2154
 30
0.0
 10
-128.3349
 20
26.8474
 30
0.0
 10
-128.3349
 20
26.8474
 30
0.0
 10
-127.0581
 20
25.2057
 30
0.0
 10
-125.7812
 20
24.7497
 30
0.0
 10
-125.69
 20
19.0039
 30
0.0
  0
SPLINE
  5
CF
330
1F
100
AcDbEntity
  8
layer 1
 62
     7
370
     9
100
AcDbSpline
210
0.0
220
0.0
230
1.0
 70
    11
 71
     3
 72
    32
 73
    28
 74
     0
 42
0.0000000001
 43
0.0000000001
 12
1.0
 22
0.0
 32
0.0
 13
1.0
 23
0.0
 33
0.0
 40
0.0
 40
0.0
 40
0.0
 40
0.0
 40
0.125
 40
0.125
 40
0.125
 40
0.125
 40
0.25
 40
0.25
 40
0.25
 40
0.25
 40
0.375
 40
0.375
 40
0.375
 40
0.375
 40
0.5
 40
0.5
 40
0.5
 40
0.5
 40
0.625
 40
0.625
 40
0.625
 40
0.625
 40
0.75
 40
0.75
 40
0.75
 40
0.75
 40
1.0
 40
1.0
 40
1.0
 40
1.0
 10
-171.2918
 20
55.6677
 30
0.0
 10
-174.8488
 20
53.6613
 30
0.0
 10
-173.1159
 20
46.9122
 30
0.0
 10
-173.1159
 20
46.9122
 30
0.0
 10
-173.1159
 20
46.9122
 30
0.0
 10
-173.1159
 20
46.9122
 30
0.0
 10
-170.6534
 20
49.4659
 30
0.0
 10
-170.6534
 20
49.4659
 30
0.0
 10
-170.6534
 20
49.4659
 30
0.0
 10
-170.6534
 20
49.4659
 30
0.0
 10
-171.5654
 20
52.0196
 30
0.0
 10
-168.5557
 20
53.7525
 30
0.0
 10
-168.5557
 20
53.7525
 30
0.0
 10
-162.0803
 20
56.3062
 30
0.0
 10
-161.8067
 20
50.1955
 30
0.0
 10
-161.8067
 20
50.1955
 30
0.0
 10
-161.8067
 20
50.1955
 30
0.0
 10
-161.8067
 20
50.1955
 30
0.0
 10
-161.3507
 20
50.0587
 30
0.0
 10
-160.621
 20
51.1988
 30
0.0
 10
-160.621
 20
51.1988
 30
0.0
 10
-159.6178
 20
53.3877
 30
0.0
 10
-161.7154
 20
55.4853
 30
0.0
 10
-161.7154
 20
55.4853
 30
0.0
 10
-161.7154
 20
55.4853
 30
0.0
 10
-165.1812
 20
58.3127
 30
0.0
 10
-167.7349
 20
57.6742
 30
0.0
 10
-171.2918
 20
55.6677
 30
0.0
  0
SPLINE
  5
D0
330
1F
100
AcDbEntity
  8
layer 1
 62
     7
370
     9
100
AcDbSpline
210
0.0
220
0.0
230
1.0
 70
    11
 71
     3
 72
    24
 73
    20
 74
     0
 42
0.0000000001
 43
0.0000000001
 12
1.0
 22
0.0
 32
0.0
 13
1.0
 23
0.0
 33
0.0
 40
0.0
 40
0.0
 40
0.0
 40
0.0
 40
0.1666666666666667
 40
0.1666666666666667
 40
0.1666666666666667
 40
0.1666666666666667
 40
0.3333333333333333
 40
0.3333333333333333
 40
0.3333333333333333
 40
0.3333333333333333
 40
0.5
 40
0.5
 40
0.5
 40
0.5
 40
0.6666666666666666
 40
0.6666666666666666
 40
0.6666666666666666
 40
0.6666666666666666
 40
1.0
 40
1.0
 40
1.0
 40
1.0
 10
-165.8652
 20
44.2673
 30
0.0
 10
-168.3277
 20
44.9969
 30
0.0
 10
-170.3342
 20
48.3259
 30
0.0
 10
-170.3342
 20
48.3259
 30
0.0
 10
-170.3342
 20
48.3259
 30
0.0
 10
-170.3342
 20
48.3259
 30
0.0
 10
-170.5166
 20
48.3715
 30
0.0
 10
-170.5166
 20
48.3715
 30
0.0
 10
-170.5166
 20
48.3715
 30
0.0
 10
-170.5166
 20
48.3715
 30
0.0
 10
-172.1583
 20
45.9545
 30
0.0
 10
-172.1583
 20
45.7721
 30
0.0
 10
-172.1583
 20
45.7721
 30
0.0
 10
-172.1583
 20
45.5897
 30
0.0
 10
-170.5166
 20
40.5279
 30
0.0
 10
-169.0118
 20
39.2055
 30
0.0
 10
-169.0118
 20
39.2055
 30
0.0
 10
-169.8782
 20
41.8048
 30
0.0
 10
-167.9173
 20
43.8569
 30
0.0
 10
-165.8652
 20
44.2673
 30
0.0
  0
SPLINE
  5
D1
330
1F
100
AcDbEntity
  8
layer 1
 62
     7
370
     9
100
AcDbSpline
210
0.0
220
0.0
230
1.0
 70
    11
 71
     3
 72
    20
 73
    16
 74
     0
 42
0.0000000001
 43
0.0000000001
 12
1.0
 22
0.0
 32
0.0
 13
1.0
 23
0.0
 33
0.0
 40
0.0
 40
0.0
 40
0.0
 40
0.0
 40
0.2
 40
0.2
 40
0.2
 40
0.2
 40
0.4
 40
0.4
 40
0.4
 40
0.4
 40
0.6
 40
0.6
 40
0.6
 40
0.6
 40
1.0
 40
1.0
 40
1.0
 40
1.0
 10
-157.9761
 20
60.0455
 30
0.0
 10
-157.9761
 20
60.0455
 30
0.0
 10
-155.3312
 20
57.583
 30
0.0
 10
-155.1488
 20
54.5733
 30
0.0
 10
-155.1488
 20
54.5733
 30
0.0
 10
-155.1488
 20
54.5733
 30
0.0
 10
-150.0414
 20
57.7654
 30
0.0
 10
-151.7743
 20
62.5992
 30
0.0
 10
-151.7743
 20
62.5992
 30
0.0
 10
-151.7743
 20
62.5992
 30
0.0
 10
-152.3215
 20
65.1529
 30
0.0
 10
-155.8784
 20
65.7913
 30
0.0
 10
-155.8784
 20
65.7913
 30
0.0
 10
-155.8784
 20
65.7913
 30
0.0
 10
-152.5039
 20
61.1399
 30
0.0
 10
-157.9761
 20
60.0455
 30
0.0
  0
SPLINE
  5
D2
330
1F
100
AcDbEntity
  8
layer 1
 62
     7
370
     9
100
AcDbSpline
210
0.0
220
0.0
230
1.0
 70
    11
 71
     3
 72
    24
 73
    20
 74
     0
 42
0.0000000001
 43
0.0000000001
 12
1.0
 22
0.0
 32
0.0
 13
1.0
 23
0.0
 33
0.0
 40
0.0
 40
0.0
 40
0.0
 40
0.0
 40
0.1666666666666667
 40
0.1666666666666667
 40
0.1666666666666667
 40
0.1666666666666667
 40
0.3333333333333333
 40
0.3333333333333333
 40
0.3333333333333333
 40
0.3333333333333333
 40
0.5
 40
0.5
 40
0.5
 40
0.5
 40
0.6666666666666666
 40
0.6666666666666666
 40
0.6666666666666666
 40
0.6666666666666666
 40
1.0
 40
1.0
 40
1.0
 40
1.0
 10
-157.5201
 20
42.6256
 30
0.0
 10
-156.6992
 20
41.6224
 30
0.0
 10
-159.0705
 20
47.4594
 30
0.0
 10
-149.9502
 20
51.5636
 30
0.0
 10
-149.9502
 20
51.5636
 30
0.0
 10
-145.39
 20
55.6677
 30
0.0
 10
-148.4946
 20
60.1118
 30
0.0
 10
-148.6733
 20
59.3159
 30
0.0
 10
-148.6733
 20
59.3159
 30
0.0
 10
-149.6766
 20
54.8469
 30
0.0
 10
-154.8752
 20
53.114
 30
0.0
 10
-154.8752
 20
53.114
 30
0.0
 10
-154.8752
 20
53.114
 30
0.0
 10
-154.8752
 20
53.114
 30
0.0
 10
-154.9664
 20
46.6386
 30
0.0
 10
-161.2594
 20
44.8145
 30
0.0
 10
-161.2594
 20
44.8145
 30
0.0
 10
-161.2594
 20
44.8145
 30
0.0
 10
-158.3409
 20
43.6289
 30
0.0
 10
-157.5201
 20
42.6256
 30
0.0
  0
SPLINE
  5
D3
330
1F
100
AcDbEntity
  8
layer 1
 62
     7
370
     9
100
AcDbSpline
210
0.0
220
0.0
230
1.0
 70
    11
 71
     3
 72
    20
 73
    16
 74
     0
 42
0.0000000001
 43
0.0000000001
 12
1.0
 22
0.0
 32
0.0
 13
1.0
 23
0.0
 33
0.0
 40
0.0
 40
0.0
 40
0.0
 40
0.0
 40
0.2
 40
0.2
 40
0.2
 40
0.2
 40
0.4
 40
0.4
 40
0.4
 40
0.4
 40
0.6
 40
0.6
 40
0.6
 40
0.6
 40
1.0
 40
1.0
 40
1.0
 40
1.0
 10
-140.3738
 20
50.834
 30
0.0
 10
-140.3738
 20
50.834
 30
0.0
 10
-140.6474
 20
51.5636
 30
0.0
 10
-140.8298
 20
52.4756
 30
0.0
 10
-140.8298
 20
52.4756
 30
0.0
 10
-140.8298
 20
52.4756
 30
0.0
 10
-144.8428
 20
54.5733
 30
0.0
 10
-145.846
 20
56.1238
 30
0.0
 10
-145.846
 20
56.1238
 30
0.0
 10
-145.846
 20
56.1238
 30
0.0
 10
-145.4812
 20
53.6613
 30
0.0
 10
-146.302
 20
52.5668
 30
0.0
 10
-146.302
 20
52.5668
 30
0.0
 10
-146.302
 20
52.5668
 30
0.0
 10
-142.0154
 20
52.2932
 30
0.0
 10
-140.3738
 20
50.834
 30
0.0
  0
SPLINE
  5
D4
330
1F
100
AcDbEntity
  8
layer 1
 62
     7
370
     9
100
AcDbSpline
210
0.0
220
0.0
230
1.0
 70
    11
 71
     3
 72
    32
 73
    28
 74
     0
 42
0.0000000001
 43
0.0000000001
 12
1.0
 22
0.0
 32
0.0
 13
1.0
 23
0.0
 33
0.0
 40
0.0
 40
0.0
 40
0.0
 40
0.0
 40
0.125
 40
0.125
 40
0.125
 40
0.125
 40
0.25
 40
0.25
 40
0.25
 40
0.25
 40
0.375
 40
0.375
 40
0.375
 40
0.375
 40
0.5
 40
0.5
 40
0.5
 40
0.5
 40
0.625
 40
0.625
 40
0.625
 40
0.625
 40
0.75
 40
0.75
 40
0.75
 40
0.75
 40
1.0
 40
1.0
 40
1.0
 40
1.0
 10
-153.3247
 20
45.9089
 30
0.0
 10
-153.3247
 20
45.9089
 30
0.0
 10
-147.2141
 20
50.6515
 30
0.0
 10
-142.1979
 20
45.4529
 30
0.0
 10
-142.1979
 20
45.4529
 30
0.0
 10
-139.9178
 20
40.7103
 30
0.0
 10
-145.4812
 20
39.1599
 30
0.0
 10
-145.4812
 20
39.1599
 30
0.0
 10
-145.4812
 20
39.1599
 30
0.0
 10
-145.4812
 20
39.1599
 30
0.0
 10
-146.302
 20
38.6127
 30
0.0
 10
-147.4877
 20
39.6159
 30
0.0
 10
-147.4877
 20
39.6159
 30
0.0
 10
-147.4877
 20
39.6159
 30
0.0
 10
-146.9404
 20
37.7006
 30
0.0
 10
-144.0219
 20
38.0654
 30
0.0
 10
-144.0219
 20
38.0654
 30
0.0
 10
-141.1034
 20
38.4302
 30
0.0
 10
-137.6377
 20
41.0752
 30
0.0
 10
-139.0057
 20
45.4529
 30
0.0
 10
-139.0057
 20
45.4529
 30
0.0
 10
-140.3738
 20
49.8307
 30
0.0
 10
-145.4812
 20
50.1955
 30
0.0
 10
-145.4812
 20
50.1955
 30
0.0
 10
-145.4812
 20
50.1955
 30
0.0
 10
-145.4812
 20
50.1955
 30
0.0
 10
-150.9534
 20
51.1988
 30
0.0
 10
-153.3247
 20
45.9089
 30
0.0
  0
SPLINE
  5
D5
330
1F
100
AcDbEntity
  8
layer 1
 62
     7
370
     9
100
AcDbSpline
210
0.0
220
0.0
230
1.0
 70
    11
 71
     3
 72
    20
 73
    16
 74
     0
 42
0.0000000001
 43
0.0000000001
 12
1.0
 22
0.0
 32
0.0
 13
1.0
 23
0.0
 33
0.0
 40
0.0
 40
0.0
 40
0.0
 40
0.0
 40
0.2
 40
0.2
 40
0.2
 40
0.2
 40
0.4
 40
0.4
 40
0.4
 40
0.4
 40
0.6
 40
0.6
 40
0.6
 40
0.6
 40
1.0
 40
1.0
 40
1.0
 40
1.0
 10
-144.0219
 20
42.9904
 30
0.0
 10
-144.0219
 20
44.2497
 30
0.0
 10
-145.0428
 20
45.2705
 30
0.0
 10
-146.302
 20
45.2705
 30
0.0
 10
-146.302
 20
45.2705
 30
0.0
 10
-147.5613
 20
45.2705
 30
0.0
 10
-148.5821
 20
44.2497
 30
0.0
 10
-148.5821
 20
42.9904
 30
0.0
 10
-148.5821
 20
42.9904
 30
0.0
 10
-148.5821
 20
41.7312
 30
0.0
 10
-147.5613
 20
40.7103
 30
0.0
 10
-146.302
 20
40.7103
 30
0.0
 10
-146.302
 20
40.7103
 30
0.0
 10
-145.0428
 20
40.7103
 30
0.0
 10
-144.0219
 20
41.7312
 30
0.0
 10
-144.0219
 20
42.9904
 30
0.0
  0
SPLINE
  5
D6
330
1F
100
AcDbEntity
  8
layer 1
 62
     7
370
     9
100
AcDbSpline
210
0.0
220
0.0
230
1.0
 70
    11
 71
     3
 72
    20
 73
    16
 74
     0
 42
0.0000000001
 43
0.0000000001
 12
1.0
 22
0.0
 32
0.0
 13
1.0
 23
0.0
 33
0.0
 40
0.0
 40
0.0
 40
0.0
 40
0.0
 40
0.2
 40
0.2
 40
0.2
 40
0.2
 40
0.4
 40
0.4
 40
0.4
 40
0.4
 40
0.6
 40
0.6
 40
0.6
 40
0.6
 40
1.0
 40
1.0
 40
1.0
 40
1.0
 10
-150.5886
 20
39.8895
 30
0.0
 10
-150.4974
 20
31.9548
 30
0.0
 10
-141.833
 20
26.665
 30
0.0
 10
-141.833
 20
26.665
 30
0.0
 10
-141.833
 20
26.665
 30
0.0
 10
-142.9275
 20
31.59
 30
0.0
 10
-140.6474
 20
34.5997
 30
0.0
 10
-140.6474
 20
34.5997
 30
0.0
 10
-140.6474
 20
34.5997
 30
0.0
 10
-141.1946
 20
34.5997
 30
0.0
 10
-142.6539
 20
36.059
 30
0.0
 10
-142.6539
 20
36.059
 30
0.0
 10
-142.6539
 20
36.059
 30
0.0
 10
-148.3997
 20
34.7821
 30
0.0
 10
-150.5886
 20
39.8895
 30
0.0
 10
-150.5886
 20
39.8895
 30
0.0
  0
SPLINE
  5
D7
330
1F
100
AcDbEntity
  8
layer 1
 62
     7
370
     9
100
AcDbSpline
210
0.0
220
0.0
230
1.0
 70
    11
 71
     3
 72
    28
 73
    24
 74
     0
 42
0.0000000001
 43
0.0000000001
 12
1.0
 22
0.0
 32
0.0
 13
1.0
 23
0.0
 33
0.0
 40
0.0
 40
0.0
 40
0.0
 40
0.0
 40
0.1428571428571428
 40
0.1428571428571428
 40
0.1428571428571428
 40
0.1428571428571428
 40
0.2857142857142857
 40
0.2857142857142857
 40
0.2857142857142857
 40
0.2857142857142857
 40
0.4285714285714285
 40
0.4285714285714285
 40
0.4285714285714285
 40
0.4285714285714285
 40
0.5714285714285714
 40
0.5714285714285714
 40
0.5714285714285714
 40
0.5714285714285714
 40
0.7142857142857143
 40
0.7142857142857143
 40
0.7142857142857143
 40
0.7142857142857143
 40
1.0
 40
1.0
 40
1.0
 40
1.0
 10
-150.0414
 20
26.9386
 30
0.0
 10
-148.0233
 20
25.3111
 30
0.0
 10
-139.7354
 20
20.6455
 30
0.0
 10
-136.9992
 20
15.5381
 30
0.0
 10
-136.9992
 20
15.5381
 30
0.0
 10
-134.2631
 20
10.4307
 30
0.0
 10
-136.1784
 20
3.9552
 30
0.0
 10
-136.1784
 20
3.9552
 30
0.0
 10
-136.1784
 20
3.9552
 30
0.0
 10
-132.6215
 20
6.1441
 30
0.0
 10
-133.4423
 20
12.7108
 30
0.0
 10
-133.4423
 20
12.7108
 30
0.0
 10
-133.4423
 20
12.7108
 30
0.0
 10
-134.1719
 20
15.1733
 30
0.0
 10
-133.7159
 20
17.4534
 30
0.0
 10
-146.0284
 20
27.3034
 30
0.0
 10
-146.0284
 20
27.3034
 30
0.0
 10
-158.0673
 20
36.515
 30
0.0
 10
-150.1326
 20
45.4529
 30
0.0
 10
-150.1326
 20
45.4529
 30
0.0
 10
-150.1326
 20
45.4529
 30
0.0
 10
-162.7187
 20
41.896
 30
0.0
 10
-152.8687
 20
29.2187
 30
0.0
 10
-150.0414
 20
26.9386
 30
0.0
  0
SPLINE
  5
D8
330
1F
100
AcDbEntity
  8
layer 1
 62
     7
370
     9
100
AcDbSpline
210
0.0
220
0.0
230
1.0
 70
    11
 71
     3
 72
    20
 73
    16
 74
     0
 42
0.0000000001
 43
0.0000000001
 12
1.0
 22
0.0
 32
0.0
 13
1.0
 23
0.0
 33
0.0
 40
0.0
 40
0.0
 40
0.0
 40
0.0
 40
0.2
 40
0.2
 40
0.2
 40
0.2
 40
0.4
 40
0.4
 40
0.4
 40
0.4
 40
0.6
 40
0.6
 40
0.6
 40
0.6
 40
1.0
 40
1.0
 40
1.0
 40
1.0
 10
-136.8168
 20
43.7201
 30
0.0
 10
-136.8168
 20
43.7201
 30
0.0
 10
-136.8168
 20
38.7039
 30
0.0
 10
-140.1002
 20
37.427
 30
0.0
 10
-140.1002
 20
37.427
 30
0.0
 10
-140.1002
 20
37.427
 30
0.0
 10
-139.4617
 20
36.4238
 30
0.0
 10
-138.6409
 20
35.9677
 30
0.0
 10
-138.6409
 20
35.9677
 30
0.0
 10
-138.6409
 20
35.9677
 30
0.0
 10
-134.4455
 20
38.7951
 30
0.0
 10
-129.5206
 20
36.2413
 30
0.0
 10
-129.5206
 20
36.2413
 30
0.0
 10
-129.9766
 20
38.7951
 30
0.0
 10
-134.9928
 20
40.6191
 30
0.0
 10
-136.8168
 20
43.7201
 30
0.0
  0
SPLINE
  5
D9
330
1F
100
AcDbEntity
  8
layer 1
 62
     7
370
     9
100
AcDbSpline
210
0.0
220
0.0
230
1.0
 70
    11
 71
     3
 72
    40
 73
    36
 74
     0
 42
0.0000000001
 43
0.0000000001
 12
1.0
 22
0.0
 32
0.0
 13
1.0
 23
0.0
 33
0.0
 40
0.0
 40
0.0
 40
0.0
 40
0.0
 40
0.1
 40
0.1
 40
0.1
 40
0.1
 40
0.2
 40
0.2
 40
0.2
 40
0.2
 40
0.3
 40
0.3
 40
0.3
 40
0.3
 40
0.4
 40
0.4
 40
0.4
 40
0.4
 40
0.5
 40
0.5
 40
0.5
 40
0.5
 40
0.6
 40
0.6
 40
0.6
 40
0.6
 40
0.7
 40
0.7
 40
0.7
 40
0.7
 40
0.8
 40
0.8
 40
0.8
 40
0.8
 40
1.0
 40
1.0
 40
1.0
 40
1.0
 10
-129.3381
 20
25.2057
 30
0.0
 10
-129.3381
 20
25.2057
 30
0.0
 10
-135.2664
 20
24.3849
 30
0.0
 10
-135.1752
 20
29.3099
 30
0.0
 10
-135.1752
 20
29.3099
 30
0.0
 10
-135.1752
 20
29.3099
 30
0.0
 10
-135.1752
 20
33.414
 30
0.0
 10
-131.2534
 20
32.1372
 30
0.0
 10
-131.2534
 20
32.1372
 30
0.0
 10
-130.2502
 20
31.7724
 30
0.0
 10
-130.8886
 20
32.7756
 30
0.0
 10
-130.8886
 20
32.7756
 30
0.0
 10
-130.8886
 20
32.7756
 30
0.0
 10
-130.8886
 20
32.7756
 30
0.0
 10
-134.3543
 20
35.0557
 30
0.0
 10
-136.8168
 20
31.6812
 30
0.0
 10
-136.8168
 20
31.6812
 30
0.0
 10
-139.2793
 20
28.3066
 30
0.0
 10
-133.5335
 20
23.7464
 30
0.0
 10
-132.9863
 20
22.8344
 30
0.0
 10
-132.9863
 20
22.8344
 30
0.0
 10
-132.439
 20
21.9224
 30
0.0
 10
-130.615
 20
20.0983
 30
0.0
 10
-129.4293
 20
16.9062
 30
0.0
 10
-129.4293
 20
16.9062
 30
0.0
 10
-129.4293
 20
16.9062
 30
0.0
 10
-129.1557
 20
16.2221
 30
0.0
 10
-129.3609
 20
15.4697
 30
0.0
 10
-129.3609
 20
15.4697
 30
0.0
 10
-129.5661
 20
14.7173
 30
0.0
 10
-126.488
 20
16.9062
 30
0.0
 10
-127.4456
 20
21.3524
 30
0.0
 10
-127.4456
 20
21.3524
 30
0.0
 10
-128.4033
 20
24.8409
 30
0.0
 10
-129.3381
 20
25.2057
 30
0.0
 10
-129.3381
 20
25.2057
 30
0.0
  0
SPLINE
  5
DA
330
1F
100
AcDbEntity
  8
layer 1
 62
     7
370
     9
100
AcDbSpline
210
0.0
220
0.0
230
1.0
 70
    11
 71
     3
 72
    28
 73
    24
 74
     0
 42
0.0000000001
 43
0.0000000001
 12
1.0
 22
0.0
 32
0.0
 13
1.0
 23
0.0
 33
0.0
 40
0.0
 40
0.0
 40
0.0
 40
0.0
 40
0.1428571428571428
 40
0.1428571428571428
 40
0.1428571428571428
 40
0.1428571428571428
 40
0.2857142857142857
 40
0.2857142857142857
 40
0.2857142857142857
 40
0.2857142857142857
 40
0.4285714285714285
 40
0.4285714285714285
 40
0.4285714285714285
 40
0.4285714285714285
 40
0.5714285714285714
 40
0.5714285714285714
 40
0.5714285714285714
 40
0.5714285714285714
 40
0.7142857142857143
 40
0.7142857142857143
 40
0.7142857142857143
 40
0.7142857142857143
 40
1.0
 40
1.0
 40
1.0
 40
1.0
 10
-153.9631
 20
21.4664
 30
0.0
 10
-154.8752
 20
20.7367
 30
0.0
 10
-153.4159
 20
21.0103
 30
0.0
 10
-153.4159
 20
21.0103
 30
0.0
 10
-153.4159
 20
21.0103
 30
0.0
 10
-153.4159
 20
21.0103
 30
0.0
 10
-151.4094
 20
22.5608
 30
0.0
 10
-146.7581
 20
22.196
 30
0.0
 10
-146.7581
 20
22.196
 30
0.0
 10
-150.5886
 20
24.1113
 30
0.0
 10
-154.5104
 20
27.3034
 30
0.0
 10
-156.6992
 20
31.3163
 30
0.0
 10
-156.6992
 20
31.3163
 30
0.0
 10
-156.6992
 20
31.3163
 30
0.0
 10
-158.7057
 20
28.033
 30
0.0
 10
-159.3442
 20
27.3946
 30
0.0
 10
-159.3442
 20
27.3946
 30
0.0
 10
-159.3442
 20
27.3946
 30
0.0
 10
-155.3312
 20
27.8506
 30
0.0
 10
-154.0543
 20
25.9354
 30
0.0
 10
-154.0543
 20
25.9354
 30
0.0
 10
-152.7775
 20
24.0201
 30
0.0
 10
-153.0511
 20
22.196
 30
0.0
 10
-153.9631
 20
21.4664
 30
0.0
  0
SPLINE
  5
DB
330
1F
100
AcDbEntity
  8
layer 1
 62
     7
370
     9
100
AcDbSpline
210
0.0
220
0.0
230
1.0
 70
    11
 71
     3
 72
    32
 73
    28
 74
     0
 42
0.0000000001
 43
0.0000000001
 12
1.0
 22
0.0
 32
0.0
 13
1.0
 23
0.0
 33
0.0
 40
0.0
 40
0.0
 40
0.0
 40
0.0
 40
0.125
 40
0.125
 40
0.125
 40
0.125
 40
0.25
 40
0.25
 40
0.25
 40
0.25
 40
0.375
 40
0.375
 40
0.375
 40
0.375
 40
0.5
 40
0.5
 40
0.5
 40
0.5
 40
0.625
 40
0.625
 40
0.625
 40
0.625
 40
0.75
 40
0.75
 40
0.75
 40
0.75
 40
1.0
 40
1.0
 40
1.0
 40
1.0
 10
-164.1779
 20
26.3913
 30
0.0
 10
-164.1779
 20
26.3913
 30
0.0
 10
-160.165
 20
28.9451
 30
0.0
 10
-158.6145
 20
34.8733
 30
0.0
 10
-158.6145
 20
34.8733
 30
0.0
 10
-157.064
 20
40.8016
 30
0.0
 10
-162.6275
 20
42.8992
 30
0.0
 10
-164.634
 20
41.5312
 30
0.0
 10
-164.634
 20
41.5312
 30
0.0
 10
-165.4548
 20
41.3488
 30
0.0
 10
-164.8164
 20
40.8927
 30
0.0
 10
-164.8164
 20
40.8927
 30
0.0
 10
-164.8164
 20
40.8927
 30
0.0
 10
-164.8164
 20
40.8927
 30
0.0
 10
-161.533
 20
41.4399
 30
0.0
 10
-161.6243
 20
37.7006
 30
0.0
 10
-161.6243
 20
37.7006
 30
0.0
 10
-162.8099
 20
34.3261
 30
0.0
 10
-166.9141
 20
35.9677
 30
0.0
 10
-166.9141
 20
35.9677
 30
0.0
 10
-166.9141
 20
35.9677
 30
0.0
 10
-166.9141
 20
35.9677
 30
0.0
 10
-168.0997
 20
36.6974
 30
0.0
 10
-167.7349
 20
35.7853
 30
0.0
 10
-167.7349
 20
35.7853
 30
0.0
 10
-167.7349
 20
35.7853
 30
0.0
 10
-163.3571
 20
32.4108
 30
0.0
 10
-164.1779
 20
26.3913
 30
0.0
  0
SPLINE
  5
DC
330
1F
100
AcDbEntity
  8
layer 1
 62
     7
370
     9
100
AcDbSpline
210
0.0
220
0.0
230
1.0
 70
    11
 71
     3
 72
    20
 73
    16
 74
     0
 42
0.0000000001
 43
0.0000000001
 12
1.0
 22
0.0
 32
0.0
 13
1.0
 23
0.0
 33
0.0
 40
0.0
 40
0.0
 40
0.0
 40
0.0
 40
0.2
 40
0.2
 40
0.2
 40
0.2
 40
0.4
 40
0.4
 40
0.4
 40
0.4
 40
0.6
 40
0.6
 40
0.6
 40
0.6
 40
1.0
 40
1.0
 40
1.0
 40
1.0
 10
-173.0247
 20
26.8474
 30
0.0
 10
-171.7479
 20
25.2057
 30
0.0
 10
-170.471
 20
24.7497
 30
0.0
 10
-170.3798
 20
19.0039
 30
0.0
 10
-170.3798
 20
19.0039
 30
0.0
 10
-170.3798
 20
19.0039
 30
0.0
 10
-167.0965
 20
21.2839
 30
0.0
 10
-168.6469
 20
27.7594
 30
0.0
 10
-168.6469
 20
27.7594
 30
0.0
 10
-170.1974
 20
34.2349
 30
0.0
 10
-170.8358
 20
32.502
 30
0.0
 10
-170.8358
 20
32.502
 30
0.0
 10
-170.8358
 20
32.502
 30
0.0
 10
-170.8358
 20
32.502
 30
0.0
 10
-170.2886
 20
28.2154
 30
0.0
 10
-173.0247
 20
26.8474
 30
0.0
  0
SPLINE
  5
DD
330
1F
100
AcDbEntity
  8
layer 1
 62
     7
370
     9
100
AcDbSpline
210
0.0
220
0.0
230
1.0
 70
    11
 71
     3
 72
    16
 73
    12
 74
     0
 42
0.0000000001
 43
0.0000000001
 12
1.0
 22
0.0
 32
0.0
 13
1.0
 23
0.0
 33
0.0
 40
0.0
 40
0.0
 40
0.0
 40
0.0
 40
0.25
 40
0.25
 40
0.25
 40
0.25
 40
0.5
 40
0.5
 40
0.5
 40
0.5
 40
1.0
 40
1.0
 40
1.0
 40
1.0
 10
-183.8779
 20
45.4529
 30
0.0
 10
-184.0907
 20
46.1337
 30
0.0
 10
-184.4008
 20
46.7074
 30
0.0
 10
-184.7611
 20
47.2078
 30
0.0
 10
-184.7611
 20
47.2078
 30
0.0
 10
-184.7611
 20
47.2078
 30
0.0
 10
-184.7611
 20
40.2776
 30
0.0
 10
-184.7611
 20
40.2776
 30
0.0
 10
-184.7611
 20
40.2776
 30
0.0
 10
-183.7134
 20
41.5301
 30
0.0
 10
-183.198
 20
43.2769
 30
0.0
 10
-183.8779
 20
45.4529
 30
0.0
  0
SPLINE
  5
DE
330
1F
100
AcDbEntity
  8
layer 1
 62
     7
370
     9
100
AcDbSpline
210
0.0
220
0.0
230
1.0
 70
    11
 71
     3
 72
    24
 73
    20
 74
     0
 42
0.0000000001
 43
0.0000000001
 12
1.0
 22
0.0
 32
0.0
 13
1.0
 23
0.0
 33
0.0
 40
0.0
 40
0.0
 40
0.0
 40
0.0
 40
0.1666666666666667
 40
0.1666666666666667
 40
0.1666666666666667
 40
0.1666666666666667
 40
0.3333333333333333
 40
0.3333333333333333
 40
0.3333333333333333
 40
0.3333333333333333
 40
0.5
 40
0.5
 40
0.5
 40
0.5
 40
0.6666666666666666
 40
0.6666666666666666
 40
0.6666666666666666
 40
0.6666666666666666
 40
1.0
 40
1.0
 40
1.0
 40
1.0
 10
-181.0507
 20
3.9552
 30
0.0
 10
-177.4937
 20
6.1441
 30
0.0
 10
-178.3145
 20
12.7108
 30
0.0
 10
-178.3145
 20
12.7108
 30
0.0
 10
-178.3145
 20
12.7108
 30
0.0
 10
-178.8925
 20
14.6616
 30
0.0
 10
-178.7331
 20
16.502
 30
0.0
 10
-184.7611
 20
22.0785
 30
0.0
 10
-184.7611
 20
22.0785
 30
0.0
 10
-184.7611
 20
22.0785
 30
0.0
 10
-184.7611
 20
19.2263
 30
0.0
 10
-184.7611
 20
19.2263
 30
0.0
 10
-184.7611
 20
19.2263
 30
0.0
 10
-183.5759
 20
18.0508
 30
0.0
 10
-182.5519
 20
16.8082
 30
0.0
 10
-181.8715
 20
15.5381
 30
0.0
 10
-181.8715
 20
15.5381
 30
0.0
 10
-179.1354
 20
10.4307
 30
0.0
 10
-181.0507
 20
3.9552
 30
0.0
 10
-181.0507
 20
3.9552
 30
0.0
  0
SPLINE
  5
DF
330
1F
100
AcDbEntity
  8
layer 1
 62
     7
370
     9
100
AcDbSpline
210
0.0
220
0.0
230
1.0
 70
    11
 71
     3
 72
    24
 73
    20
 74
     0
 42
0.0000000001
 43
0.0000000001
 12
1.0
 22
0.0
 32
0.0
 13
1.0
 23
0.0
 33
0.0
 40
0.0
 40
0.0
 40
0.0
 40
0.0
 40
0.1666666666666667
 40
0.1666666666666667
 40
0.1666666666666667
 40
0.1666666666666667
 40
0.3333333333333333
 40
0.3333333333333333
 40
0.3333333333333333
 40
0.3333333333333333
 40
0.5
 40
0.5
 40
0.5
 40
0.5
 40
0.6666666666666666
 40
0.6666666666666666
 40
0.6666666666666666
 40
0.6666666666666666
 40
1.0
 40
1.0
 40
1.0
 40
1.0
 10
-183.5131
 20
35.9677
 30
0.0
 10
-183.5131
 20
35.9677
 30
0.0
 10
-179.3178
 20
38.7951
 30
0.0
 10
-174.3927
 20
36.2413
 30
0.0
 10
-174.3927
 20
36.2413
 30
0.0
 10
-174.8488
 20
38.7951
 30
0.0
 10
-179.865
 20
40.6191
 30
0.0
 10
-181.6891
 20
43.7201
 30
0.0
 10
-181.6891
 20
43.7201
 30
0.0
 10
-181.6891
 20
43.7201
 30
0.0
 10
-181.6977
 20
38.94
 30
0.0
 10
-184.7611
 20
37.5298
 30
0.0
 10
-184.7611
 20
37.5298
 30
0.0
 10
-184.7611
 20
37.5298
 30
0.0
 10
-184.7611
 20
37.131
 30
0.0
 10
-184.7611
 20
37.131
 30
0.0
 10
-184.7611
 20
37.131
 30
0.0
 10
-184.5086
 20
36.7987
 30
0.0
 10
-184.0525
 20
36.2674
 30
0.0
 10
-183.5131
 20
35.9677
 30
0.0
  0
SPLINE
  5
E0
330
1F
100
AcDbEntity
  8
layer 1
 62
     7
370
     9
100
AcDbSpline
210
0.0
220
0.0
230
1.0
 70
    11
 71
     3
 72
    40
 73
    36
 74
     0
 42
0.0000000001
 43
0.0000000001
 12
1.0
 22
0.0
 32
0.0
 13
1.0
 23
0.0
 33
0.0
 40
0.0
 40
0.0
 40
0.0
 40
0.0
 40
0.1
 40
0.1
 40
0.1
 40
0.1
 40
0.2
 40
0.2
 40
0.2
 40
0.2
 40
0.3
 40
0.3
 40
0.3
 40
0.3
 40
0.4
 40
0.4
 40
0.4
 40
0.4
 40
0.5
 40
0.5
 40
0.5
 40
0.5
 40
0.6
 40
0.6
 40
0.6
 40
0.6
 40
0.7
 40
0.7
 40
0.7
 40
0.7
 40
0.8
 40
0.8
 40
0.8
 40
0.8
 40
1.0
 40
1.0
 40
1.0
 40
1.0
 10
-174.2332
 20
15.4697
 30
0.0
 10
-174.4384
 20
14.7173
 30
0.0
 10
-171.3602
 20
16.9062
 30
0.0
 10
-172.3179
 20
21.3524
 30
0.0
 10
-172.3179
 20
21.3524
 30
0.0
 10
-173.2755
 20
24.8409
 30
0.0
 10
-174.2104
 20
25.2057
 30
0.0
 10
-174.2104
 20
25.2057
 30
0.0
 10
-174.2104
 20
25.2057
 30
0.0
 10
-174.2104
 20
25.2057
 30
0.0
 10
-180.1386
 20
24.3849
 30
0.0
 10
-180.0474
 20
29.3099
 30
0.0
 10
-180.0474
 20
29.3099
 30
0.0
 10
-180.0474
 20
29.3099
 30
0.0
 10
-180.0474
 20
33.414
 30
0.0
 10
-176.1256
 20
32.1372
 30
0.0
 10
-176.1256
 20
32.1372
 30
0.0
 10
-175.1224
 20
31.7724
 30
0.0
 10
-175.7608
 20
32.7756
 30
0.0
 10
-175.7608
 20
32.7756
 30
0.0
 10
-175.7608
 20
32.7756
 30
0.0
 10
-175.7608
 20
32.7756
 30
0.0
 10
-179.2265
 20
35.0557
 30
0.0
 10
-181.6891
 20
31.6812
 30
0.0
 10
-181.6891
 20
31.6812
 30
0.0
 10
-184.1516
 20
28.3066
 30
0.0
 10
-178.4057
 20
23.7464
 30
0.0
 10
-177.8585
 20
22.8344
 30
0.0
 10
-177.8585
 20
22.8344
 30
0.0
 10
-177.3113
 20
21.9224
 30
0.0
 10
-175.4872
 20
20.0983
 30
0.0
 10
-174.3015
 20
16.9062
 30
0.0
 10
-174.3015
 20
16.9062
 30
0.0
 10
-174.3015
 20
16.9062
 30
0.0
 10
-174.0279
 20
16.2221
 30
0.0
 10
-174.2332
 20
15.4697
 30
0.0
  0
SPLINE
  5
E1
330
1F
100
AcDbEntity
  8
layer 1
 62
     7
370
     9
100
AcDbSpline
210
0.0
220
0.0
230
1.0
 70
    11
 71
     3
 72
    20
 73
    16
 74
     0
 42
0.0000000001
 43
0.0000000001
 12
1.0
 22
0.0
 32
0.0
 13
1.0
 23
0.0
 33
0.0
 40
0.0
 40
0.0
 40
0.0
 40
0.0
 40
0.2
 40
0.2
 40
0.2
 40
0.2
 40
0.4
 40
0.4
 40
0.4
 40
0.4
 40
0.6
 40
0.6
 40
0.6
 40
0.6
 40
1.0
 40
1.0
 40
1.0
 40
1.0
 10
-91.4886
 20
83.8497
 30
0.0
 10
-87.9316
 20
86.0386
 30
0.0
 10
-88.7525
 20
92.6052
 30
0.0
 10
-88.7525
 20
92.6052
 30
0.0
 10
-88.7525
 20
92.6052
 30
0.0
 10
-88.9229
 20
93.1803
 30
0.0
 10
-89.0301
 20
93.7466
 30
0.0
 10
-89.2489
 20
94.4005
 30
0.0
 10
-89.2489
 20
94.4005
 30
0.0
 10
-89.2489
 20
94.4005
 30
0.0
 10
-91.8259
 20
94.4005
 30
0.0
 10
-91.8259
 20
94.4005
 30
0.0
 10
-91.8259
 20
94.4005
 30
0.0
 10
-89.8202
 20
89.4945
 30
0.0
 10
-91.4886
 20
83.8497
 30
0.0
 10
-91.4886
 20
83.8497
 30
0.0
  0
SPLINE
  5
E2
330
1F
100
AcDbEntity
  8
layer 1
 62
     7
370
     9
100
AcDbSpline
210
0.0
220
0.0
230
1.0
 70
    11
 71
     3
 72
    20
 73
    16
 74
     0
 42
0.0000000001
 43
0.0000000001
 12
1.0
 22
0.0
 32
0.0
 13
1.0
 23
0.0
 33
0.0
 40
0.0
 40
0.0
 40
0.0
 40
0.0
 40
0.2
 40
0.2
 40
0.2
 40
0.2
 40
0.4
 40
0.4
 40
0.4
 40
0.4
 40
0.6
 40
0.6
 40
0.6
 40
0.6
 40
1.0
 40
1.0
 40
1.0
 40
1.0
 10
-136.1784
 20
83.8497
 30
0.0
 10
-132.6215
 20
86.0386
 30
0.0
 10
-133.4423
 20
92.6052
 30
0.0
 10
-133.4423
 20
92.6052
 30
0.0
 10
-133.4423
 20
92.6052
 30
0.0
 10
-133.6127
 20
93.1803
 30
0.0
 10
-133.7199
 20
93.7466
 30
0.0
 10
-133.9387
 20
94.4005
 30
0.0
 10
-133.9387
 20
94.4005
 30
0.0
 10
-133.9387
 20
94.4005
 30
0.0
 10
-136.5157
 20
94.4005
 30
0.0
 10
-136.5157
 20
94.4005
 30
0.0
 10
-136.5157
 20
94.4005
 30
0.0
 10
-134.51
 20
89.4945
 30
0.0
 10
-136.1784
 20
83.8497
 30
0.0
 10
-136.1784
 20
83.8497
 30
0.0
  0
SPLINE
  5
E3
330
1F
100
AcDbEntity
  8
layer 1
 62
     7
370
     9
100
AcDbSpline
210
0.0
220
0.0
230
1.0
 70
    11
 71
     3
 72
    20
 73
    16
 74
     0
 42
0.0000000001
 43
0.0000000001
 12
1.0
 22
0.0
 32
0.0
 13
1.0
 23
0.0
 33
0.0
 40
0.0
 40
0.0
 40
0.0
 40
0.0
 40
0.2
 40
0.2
 40
0.2
 40
0.2
 40
0.4
 40
0.4
 40
0.4
 40
0.4
 40
0.6
 40
0.6
 40
0.6
 40
0.6
 40
1.0
 40
1.0
 40
1.0
 40
1.0
 10
-181.0507
 20
83.8497
 30
0.0
 10
-177.4937
 20
86.0386
 30
0.0
 10
-178.3145
 20
92.6052
 30
0.0
 10
-178.3145
 20
92.6052
 30
0.0
 10
-178.3145
 20
92.6052
 30
0.0
 10
-178.4849
 20
93.1803
 30
0.0
 10
-178.5922
 20
93.7466
 30
0.0
 10
-178.8109
 20
94.4005
 30
0.0
 10
-178.8109
 20
94.4005
 30
0.0
 10
-178.8109
 20
94.4005
 30
0.0
 10
-181.3879
 20
94.4005
 30
0.0
 10
-181.3879
 20
94.4005
 30
0.0
 10
-181.3879
 20
94.4005
 30
0.0
 10
-179.3822
 20
89.4945
 30
0.0
 10
-181.0507
 20
83.8497
 30
0.0
 10
-181.0507
 20
83.8497
 30
0.0
  0
ENDSEC
  0
SECTION
  2
OBJECTS
  0
DICTIONARY
  5
C
330
0
100
AcDbDictionary
281
     1
  3
ACAD_GROUP
350
D
  3
ACAD_LAYOUT
350
1A
  3
ACAD_MATERIAL
350
3B
  3
ACAD_MLEADERSTYLE
350
105
  3
ACAD_MLINESTYLE
350
17
  3
ACAD_PLOTSETTINGS
350
19
  3
ACAD_PLOTSTYLENAME
350
E
  3
ACAD_TABLESTYLE
350
104
  3
ACAD_VISUALSTYLE
350
2A
  0
DICTIONARY
  5
D
102
{ACAD_REACTORS
330
C
102
}
330
C
100
AcDbDictionary
281
     1
  0
DICTIONARY
  5
1A
102
{ACAD_REACTORS
330
C
102
}
330
C
100
AcDbDictionary
281
     1
  3
Layout1
350
1E
  3
Layout2
350
26
  3
Model
350
22
  0
DICTIONARY
  5
3B
102
{ACAD_REACTORS
330
C
102
}
330
C
100
AcDbDictionary
281
     1
  3
ByBlock
350
3D
  3
ByLayer
350
3C
  3
Global
350
3E
  0
DICTIONARY
  5
105
102
{ACAD_REACTORS
330
C
102
}
330
C
100
AcDbDictionary
281
     1
  0
DICTIONARY
  5
17
102
{ACAD_REACTORS
330
C
102
}
330
C
100
AcDbDictionary
281
     1
  3
Standard
350
18
  0
DICTIONARY
  5
19
102
{ACAD_REACTORS
330
C
102
}
330
C
100
AcDbDictionary
281
     1
  0
ACDBDICTIONARYWDFLT
  5
E
102
{ACAD_REACTORS
330
C
102
}
330
C
100
AcDbDictionary
281
     1
  3
Normal
350
F
100
AcDbDictionaryWithDefault
340
F
  0
DICTIONARY
  5
104
102
{ACAD_REACTORS
330
C
102
}
330
C
100
AcDbDictionary
281
     1
  0
DICTIONARY
  5
2A
102
{ACAD_REACTORS
330
C
102
}
330
C
100
AcDbDictionary
281
     1
  3
2dWireframe
350
2F
  3
3D Hidden
350
31
  3
3dWireframe
350
30
  3
Basic
350
32
  3
Brighten
350
36
  3
ColorChange
350
3A
  3
Conceptual
350
34
  3
Dim
350
35
  3
Facepattern
350
39
  3
Flat
350
2B
  3
FlatWithEdges
350
2C
  3
Gouraud
350
2D
  3
GouraudWithEdges
350
2E
  3
Linepattern
350
38
  3
Realistic
350
33
  3
Thicken
350
37
  0
LAYOUT
  5
1E
102
{ACAD_REACTORS
330
1A
102
}
330
1A
100
AcDbPlotSettings
  1

  2
none_device
  4

  6

 40
0.0
 41
0.0
 42
0.0
 43
0.0
 44
0.0
 45
0.0
 46
0.0
 47
0.0
 48
0.0
 49
0.0
140
0.0
141
0.0
142
1.0
143
1.0
 70
   688
 72
     0
 73
     0
 74
     5
  7

 75
    16
 76
     0
 77
     2
 78
   300
147
1.0
148
0.0
149
0.0
100
AcDbLayout
  1
Layout1
 70
     1
 71
     1
 10
0.0
 20
0.0
 11
12.0
 21
9.0
 12
0.0
 22
0.0
 32
0.0
 14
1.000000000000000E+20
 24
1.000000000000000E+20
 34
1.000000000000000E+20
 15
-1.000000000000000E+20
 25
-1.000000000000000E+20
 35
-1.000000000000000E+20
146
0.0
 13
0.0
 23
0.0
 33
0.0
 16
1.0
 26
0.0
 36
0.0
 17
0.0
 27
1.0
 37
0.0
 76
     0
330
1B
  0
LAYOUT
  5
26
102
{ACAD_REACTORS
330
1A
102
}
330
1A
100
AcDbPlotSettings
  1

  2
none_device
  4

  6

 40
0.0
 41
0.0
 42
0.0
 43
0.0
 44
0.0
 45
0.0
 46
0.0
 47
0.0
 48
0.0
 49
0.0
140
0.0
141
0.0
142
1.0
143
1.0
 70
   688
 72
     0
 73
     0
 74
     5
  7

 75
    16
 76
     0
 77
     2
 78
   300
147
1.0
148
0.0
149
0.0
100
AcDbLayout
  1
Layout2
 70
     1
 71
     2
 10
0.0
 20
0.0
 11
0.0
 21
0.0
 12
0.0
 22
0.0
 32
0.0
 14
0.0
 24
0.0
 34
0.0
 15
0.0
 25
0.0
 35
0.0
146
0.0
 13
0.0
 23
0.0
 33
0.0
 16
1.0
 26
0.0
 36
0.0
 17
0.0
 27
1.0
 37
0.0
 76
     0
330
23
  0
LAYOUT
  5
22
102
{ACAD_REACTORS
330
1A
102
}
330
1A
100
AcDbPlotSettings
  1

  2
none_device
  4

  6

 40
0.0
 41
0.0
 42
0.0
 43
0.0
 44
0.0
 45
0.0
 46
0.0
 47
0.0
 48
0.0
 49
0.0
140
0.0
141
0.0
142
1.0
143
1.0
 70
  1712
 72
     0
 73
     0
 74
     0
  7

 75
     0
 76
     0
 77
     2
 78
   300
147
1.0
148
0.0
149
0.0
100
AcDbLayout
  1
Model
 70
     1
 71
     0
 10
0.0
 20
0.0
 11
12.0
 21
9.0
 12
0.0
 22
0.0
 32
0.0
 14
-187.3887
 24
-100.0623
 34
0.0
 15
-82.232
 25
97.0277
 35
0.0
146
0.0
 13
0.0
 23
0.0
 33
0.0
 16
1.0
 26
0.0
 36
0.0
 17
0.0
 27
1.0
 37
0.0
 76
     0
330
1F
331
29
  0
MATERIAL
  5
3D
102
{ACAD_REACTORS
330
3B
102
}
330
3B
100
AcDbMaterial
  1
ByBlock
 72
     1
 94
      127
  0
MATERIAL
  5
3C
102
{ACAD_REACTORS
330
3B
102
}
330
3B
100
AcDbMaterial
  1
ByLayer
 72
     1
 94
      127
  0
MATERIAL
  5
3E
102
{ACAD_REACTORS
330
3B
102
}
330
3B
100
AcDbMaterial
  1
Global
 72
     1
 94
      127
  0
MLINESTYLE
  5
18
102
{ACAD_REACTORS
330
17
102
}
330
17
100
AcDbMlineStyle
  2
Standard
 70
     0
  3

 62
   256
 51
90.0
 52
90.0
 71
     2
 49
0.5
 62
   256
  6
BYLAYER
 49
-0.5
 62
   256
  6
BYLAYER
  0
ACDBPLACEHOLDER
  5
F
102
{ACAD_REACTORS
330
E
102
}
330
E
  0
VISUALSTYLE
  5
2F
102
{ACAD_REACTORS
330
2A
102
}
102
{ACAD_XDICTIONARY
360
EC
102
}
330
2A
100
AcDbVisualStyle
  2
2dWireframe
 70
     4
 71
     0
 72
     2
 73
     0
 90
        0
 40
-0.6
 41
-30.0
 62
     5
 63
     7
421
 16777215
 74
     1
 91
        4
 64
     7
 65
   257
 75
     1
175
     1
 42
1.0
 92
        0
 66
   257
 43
1.0
 76
     1
 77
     6
 78
     2
 67
     7
 79
     5
170
     0
171
     0
290
     0
174
     0
 93
        1
 44
0.0
173
     0
291
     0
 45
0.0
  0
VISUALSTYLE
  5
31
102
{ACAD_REACTORS
330
2A
102
}
102
{ACAD_XDICTIONARY
360
F0
102
}
330
2A
100
AcDbVisualStyle
  2
3D Hidden
 70
     6
 71
     1
 72
     2
 73
     2
 90
        0
 40
-0.6
 41
-30.0
 62
     5
 63
     7
421
 16777215
 74
     2
 91
        2
 64
     7
 65
   257
 75
     2
175
     1
 42
40.0
 92
        0
 66
   257
 43
1.0
 76
     1
 77
     6
 78
     2
 67
     7
 79
     3
170
     0
171
     0
290
     0
174
     0
 93
        1
 44
0.0
173
     0
291
     0
 45
0.0
  0
VISUALSTYLE
  5
30
102
{ACAD_REACTORS
330
2A
102
}
102
{ACAD_XDICTIONARY
360
EE
102
}
330
2A
100
AcDbVisualStyle
  2
3dWireframe
 70
     5
 71
     0
 72
     2
 73
     0
 90
        0
 40
-0.6
 41
-30.0
 62
     5
 63
     7
421
 16777215
 74
     1
 91
        4
 64
     7
 65
   257
 75
     1
175
     1
 42
1.0
 92
        0
 66
   257
 43
1.0
 76
     1
 77
     6
 78
     2
 67
     7
 79
     5
170
     0
171
     0
290
     0
174
     0
 93
        1
 44
0.0
173
     0
291
     0
 45
0.0
  0
VISUALSTYLE
  5
32
102
{ACAD_REACTORS
330
2A
102
}
102
{ACAD_XDICTIONARY
360
F2
102
}
330
2A
100
AcDbVisualStyle
  2
Basic
 70
     7
 71
     1
 72
     0
 73
     1
 90
        0
 40
-0.6
 41
-30.0
 62
     5
 63
     7
421
 16777215
 74
     0
 91
        4
 64
     7
 65
   257
 75
     1
175
     1
 42
1.0
 92
        8
 66
     7
 43
1.0
 76
     1
 77
     6
 78
     2
 67
     7
 79
     5
170
     0
171
     0
290
     0
174
     0
 93
        1
 44
0.0
173
     0
291
     1
 45
0.0
  0
VISUALSTYLE
  5
36
102
{ACAD_REACTORS
330
2A
102
}
102
{ACAD_XDICTIONARY
360
FA
102
}
330
2A
100
AcDbVisualStyle
  2
Brighten
 70
    12
 71
     2
 72
     2
 73
     0
 90
        0
 40
-0.6
 41
-30.0
 62
     5
 63
     7
421
 16777215
 74
     1
 91
        4
 64
     7
 65
   257
 75
     1
175
     1
 42
1.0
 92
        8
 66
     7
 43
1.0
 76
     1
 77
     6
 78
     2
 67
     7
 79
     5
170
     0
171
     0
290
     0
174
     0
 93
        1
 44
50.0
173
     0
291
     1
 45
0.0
  0
VISUALSTYLE
  5
3A
102
{ACAD_REACTORS
330
2A
102
}
102
{ACAD_XDICTIONARY
360
102
102
}
330
2A
100
AcDbVisualStyle
  2
ColorChange
 70
    16
 71
     2
 72
     2
 73
     3
 90
        0
 40
-0.6
 41
-30.0
 62
     5
 63
     8
421
  8421504
 74
     1
 91
        4
 64
     7
 65
   257
 75
     1
175
     1
 42
1.0
 92
        8
 66
     8
424
  8421504
 43
1.0
 76
     1
 77
     6
 78
     2
 67
     7
 79
     5
170
     0
171
     0
290
     0
174
     0
 93
        1
 44
0.0
173
     0
291
     1
 45
0.0
  0
VISUALSTYLE
  5
34
102
{ACAD_REACTORS
330
2A
102
}
102
{ACAD_XDICTIONARY
360
F6
102
}
330
2A
100
AcDbVisualStyle
  2
Conceptual
 70
     9
 71
     3
 72
     2
 73
     0
 90
        0
 40
-0.6
 41
-30.0
 62
     5
 63
     7
421
 16777215
 74
     2
 91
        2
 64
     7
 65
   257
 75
     1
175
     1
 42
40.0
 92
        8
 66
     7
 43
1.0
 76
     1
 77
     6
 78
     2
 67
     7
 79
     3
170
     0
171
     0
290
     0
174
     0
 93
        1
 44
0.0
173
     0
291
     0
 45
0.0
  0
VISUALSTYLE
  5
35
102
{ACAD_REACTORS
330
2A
102
}
102
{ACAD_XDICTIONARY
360
F8
102
}
330
2A
100
AcDbVisualStyle
  2
Dim
 70
    11
 71
     2
 72
     2
 73
     0
 90
        0
 40
-0.6
 41
-30.0
 62
     5
 63
     7
421
 16777215
 74
     1
 91
        4
 64
     7
 65
   257
 75
     1
175
     1
 42
1.0
 92
        8
 66
     7
 43
1.0
 76
     1
 77
     6
 78
     2
 67
     7
 79
     5
170
     0
171
     0
290
     0
174
     0
 93
        1
 44
-50.0
173
     0
291
     1
 45
0.0
  0
VISUALSTYLE
  5
39
102
{ACAD_REACTORS
330
2A
102
}
102
{ACAD_XDICTIONARY
360
100
102
}
330
2A
100
AcDbVisualStyle
  2
Facepattern
 70
    15
 71
     2
 72
     2
 73
     0
 90
        0
 40
-0.6
 41
-30.0
 62
     5
 63
     7
421
 16777215
 74
     1
 91
        4
 64
     7
 65
   257
 75
     1
175
     1
 42
1.0
 92
        8
 66
     7
 43
1.0
 76
     1
 77
     6
 78
     2
 67
     7
 79
     5
170
     0
171
     0
290
     0
174
     0
 93
        1
 44
0.0
173
     0
291
     1
 45
0.0
  0
VISUALSTYLE
  5
2B
102
{ACAD_REACTORS
330
2A
102
}
102
{ACAD_XDICTIONARY
360
E4
102
}
330
2A
100
AcDbVisualStyle
  2
Flat
 70
     0
 71
     2
 72
     1
 73
     1
 90
        2
 40
-0.6
 41
30.0
 62
     5
 63
     7
421
 16777215
 74
     0
 91
        4
 64
     7
 65
   257
 75
     1
175
     1
 42
1.0
 92
        8
 66
     7
 43
1.0
 76
     1
 77
     6
 78
     2
 67
     7
 79
     5
170
     0
171
     0
290
     0
174
     0
 93
       13
 44
0.0
173
     0
291
     1
 45
0.0
  0
VISUALSTYLE
  5
2C
102
{ACAD_REACTORS
330
2A
102
}
102
{ACAD_XDICTIONARY
360
E6
102
}
330
2A
100
AcDbVisualStyle
  2
FlatWithEdges
 70
     1
 71
     2
 72
     1
 73
     1
 90
        2
 40
-0.6
 41
30.0
 62
     5
 63
     7
421
 16777215
 74
     1
 91
        4
 64
     7
 65
   257
 75
     1
175
     1
 42
1.0
 92
        0
 66
   257
 43
1.0
 76
     1
 77
     6
 78
     2
 67
     7
 79
     5
170
     0
171
     0
290
     0
174
     0
 93
       13
 44
0.0
173
     0
291
     1
 45
0.0
  0
VISUALSTYLE
  5
2D
102
{ACAD_REACTORS
330
2A
102
}
102
{ACAD_XDICTIONARY
360
E8
102
}
330
2A
100
AcDbVisualStyle
  2
Gouraud
 70
     2
 71
     2
 72
     2
 73
     1
 90
        2
 40
-0.6
 41
30.0
 62
     5
 63
     7
421
 16777215
 74
     0
 91
        4
 64
     7
 65
   257
 75
     1
175
     1
 42
1.0
 92
        0
 66
     7
 43
1.0
 76
     1
 77
     6
 78
     2
 67
     7
 79
     5
170
     0
171
     0
290
     0
174
     0
 93
       13
 44
0.0
173
     0
291
     1
 45
0.0
  0
VISUALSTYLE
  5
2E
102
{ACAD_REACTORS
330
2A
102
}
102
{ACAD_XDICTIONARY
360
EA
102
}
330
2A
100
AcDbVisualStyle
  2
GouraudWithEdges
 70
     3
 71
     2
 72
     2
 73
     1
 90
        2
 40
-0.6
 41
30.0
 62
     5
 63
     7
421
 16777215
 74
     1
 91
        4
 64
     7
 65
   257
 75
     1
175
     1
 42
1.0
 92
        0
 66
   257
 43
1.0
 76
     1
 77
     6
 78
     2
 67
     7
 79
     5
170
     0
171
     0
290
     0
174
     0
 93
       13
 44
0.0
173
     0
291
     1
 45
0.0
  0
VISUALSTYLE
  5
38
102
{ACAD_REACTORS
330
2A
102
}
102
{ACAD_XDICTIONARY
360
FE
102
}
330
2A
100
AcDbVisualStyle
  2
Linepattern
 70
    14
 71
     2
 72
     2
 73
     0
 90
        0
 40
-0.6
 41
-30.0
 62
     5
 63
     7
421
 16777215
 74
     1
 91
        4
 64
     7
 65
   257
 75
     7
175
     7
 42
1.0
 92
        8
 66
     7
 43
1.0
 76
     1
 77
     6
 78
     2
 67
     7
 79
     5
170
     0
171
     0
290
     0
174
     0
 93
        1
 44
0.0
173
     0
291
     1
 45
0.0
  0
VISUALSTYLE
  5
33
102
{ACAD_REACTORS
330
2A
102
}
102
{ACAD_XDICTIONARY
360
F4
102
}
330
2A
100
AcDbVisualStyle
  2
Realistic
 70
     8
 71
     2
 72
     2
 73
     0
 90
        0
 40
-0.6
 41
-30.0
 62
     5
 63
     7
421
 16777215
 74
     1
 91
        0
 64
     7
 65
   257
 75
     1
175
     1
 42
1.0
 92
        8
 66
     8
424
  7895160
 43
1.0
 76
     1
 77
     6
 78
     2
 67
     7
 79
     5
170
     0
171
     0
290
     0
174
     0
 93
       13
 44
0.0
173
     0
291
     0
 45
0.0
  0
VISUALSTYLE
  5
37
102
{ACAD_REACTORS
330
2A
102
}
102
{ACAD_XDICTIONARY
360
FC
102
}
330
2A
100
AcDbVisualStyle
  2
Thicken
 70
    13
 71
     2
 72
     2
 73
     0
 90
        0
 40
-0.6
 41
-30.0
 62
     5
 63
     7
421
 16777215
 74
     1
 91
        4
 64
     7
 65
   257
 75
     1
175
     1
 42
1.0
 92
       12
 66
     7
 43
1.0
 76
     1
 77
     6
 78
     2
 67
     7
 79
     5
170
     0
171
     0
290
     0
174
     0
 93
        1
 44
0.0
173
     0
291
     1
 45
0.0
  0
DICTIONARY
  5
EC
330
2F
100
AcDbDictionary
280
     1
281
     1
  3
ACAD_XREC_ROUNDTRIP
360
ED
  0
DICTIONARY
  5
F0
330
31
100
AcDbDictionary
280
     1
281
     1
  3
ACAD_XREC_ROUNDTRIP
360
F1
  0
DICTIONARY
  5
EE
330
30
100
AcDbDictionary
280
     1
281
     1
  3
ACAD_XREC_ROUNDTRIP
360
EF
  0
DICTIONARY
  5
F2
330
32
100
AcDbDictionary
280
     1
281
     1
  3
ACAD_XREC_ROUNDTRIP
360
F3
  0
DICTIONARY
  5
FA
330
36
100
AcDbDictionary
280
     1
281
     1
  3
ACAD_XREC_ROUNDTRIP
360
FB
  0
DICTIONARY
  5
102
330
3A
100
AcDbDictionary
280
     1
281
     1
  3
ACAD_XREC_ROUNDTRIP
360
103
  0
DICTIONARY
  5
F6
330
34
100
AcDbDictionary
280
     1
281
     1
  3
ACAD_XREC_ROUNDTRIP
360
F7
  0
DICTIONARY
  5
F8
330
35
100
AcDbDictionary
280
     1
281
     1
  3
ACAD_XREC_ROUNDTRIP
360
F9
  0
DICTIONARY
  5
100
330
39
100
AcDbDictionary
280
     1
281
     1
  3
ACAD_XREC_ROUNDTRIP
360
101
  0
DICTIONARY
  5
E4
330
2B
100
AcDbDictionary
280
     1
281
     1
  3
ACAD_XREC_ROUNDTRIP
360
E5
  0
DICTIONARY
  5
E6
330
2C
100
AcDbDictionary
280
     1
281
     1
  3
ACAD_XREC_ROUNDTRIP
360
E7
  0
DICTIONARY
  5
E8
330
2D
100
AcDbDictionary
280
     1
281
     1
  3
ACAD_XREC_ROUNDTRIP
360
E9
  0
DICTIONARY
  5
EA
330
2E
100
AcDbDictionary
280
     1
281
     1
  3
ACAD_XREC_ROUNDTRIP
360
EB
  0
DICTIONARY
  5
FE
330
38
100
AcDbDictionary
280
     1
281
     1
  3
ACAD_XREC_ROUNDTRIP
360
FF
  0
DICTIONARY
  5
F4
330
33
100
AcDbDictionary
280
     1
281
     1
  3
ACAD_XREC_ROUNDTRIP
360
F5
  0
DICTIONARY
  5
FC
330
37
100
AcDbDictionary
280
     1
281
     1
  3
ACAD_XREC_ROUNDTRIP
360
FD
  0
XRECORD
  5
ED
102
{ACAD_REACTORS
330
EC
102
}
330
EC
100
AcDbXrecord
280
     1
102
RTVSPropertyOp0
 70
     1
102
RTVSPropertyOp1
 70
     1
102
RTVSPropertyOp2
 70
     1
102
RTVSPropertyOp3
 70
     1
102
RTVSPropertyOp4
 70
     1
102
RTVSPropertyOp5
 70
     1
102
RTVSPropertyOp6
 70
     1
102
RTVSPropertyOp7
 70
     1
102
RTVSPropertyOp8
 70
     1
102
RTVSPropertyOp9
 70
     1
102
RTVSPropertyOp10
 70
     1
102
RTVSPropertyOp11
 70
     1
102
RTVSPropertyOp12
 70
     1
102
RTVSPropertyOp13
 70
     1
102
RTVSPropertyOp14
 70
     1
102
RTVSPropertyOp15
 70
     1
102
RTVSPropertyOp16
 70
     1
102
RTVSPropertyOp17
 70
     1
102
RTVSPropertyOp18
 70
     1
102
RTVSPropertyOp19
 70
     1
102
RTVSPropertyOp20
 70
     1
102
RTVSPropertyOp21
 70
     1
102
RTVSPropertyOp22
 70
     1
102
RTVSPropertyOp23
 70
     1
102
RTVSPropertyOp24
 70
     1
102
RTVSPropertyOp25
 70
     1
102
RTVSPropertyOp26
 70
     1
102
RTVSPropertyOp27
 70
     1
102
RTVSPropertyOp28
 70
     1
102
RTVSPropertyOp29
 70
     1
102
RTVSPropertyOp30
 70
     1
102
RTVSPropertyOp31
 70
     1
102
RTVSPropertyOp32
 70
     1
  0
XRECORD
  5
F1
102
{ACAD_REACTORS
330
F0
102
}
330
F0
100
AcDbXrecord
280
     1
102
RTVSPropertyOp0
 70
     1
102
RTVSPropertyOp1
 70
     1
102
RTVSPropertyOp2
 70
     1
102
RTVSPropertyOp3
 70
     1
102
RTVSPropertyOp4
 70
     1
102
RTVSPropertyOp5
 70
     1
102
RTVSPropertyOp6
 70
     1
102
RTVSPropertyOp7
 70
     1
102
RTVSPropertyOp8
 70
     1
102
RTVSPropertyOp9
 70
     1
102
RTVSPropertyOp10
 70
     1
102
RTVSPropertyOp11
 70
     1
102
RTVSPropertyOp12
 70
     1
102
RTVSPropertyOp13
 70
     1
102
RTVSPropertyOp14
 70
     1
102
RTVSPropertyOp15
 70
     1
102
RTVSPropertyOp16
 70
     1
102
RTVSPropertyOp17
 70
     1
102
RTVSPropertyOp18
 70
     1
102
RTVSPropertyOp19
 70
     1
102
RTVSPropertyOp20
 70
     1
102
RTVSPropertyOp21
 70
     1
102
RTVSPropertyOp22
 70
     1
102
RTVSPropertyOp23
 70
     1
102
RTVSPropertyOp24
 70
     1
102
RTVSPropertyOp25
 70
     1
102
RTVSPropertyOp26
 70
     1
102
RTVSPropertyOp27
 70
     1
102
RTVSPropertyOp28
 70
     1
102
RTVSPropertyOp29
 70
     1
102
RTVSPropertyOp30
 70
     1
102
RTVSPropertyOp31
 70
     1
102
RTVSPropertyOp32
 70
     1
  0
XRECORD
  5
EF
102
{ACAD_REACTORS
330
EE
102
}
330
EE
100
AcDbXrecord
280
     1
102
RTVSPropertyOp0
 70
     1
102
RTVSPropertyOp1
 70
     1
102
RTVSPropertyOp2
 70
     1
102
RTVSPropertyOp3
 70
     1
102
RTVSPropertyOp4
 70
     1
102
RTVSPropertyOp5
 70
     1
102
RTVSPropertyOp6
 70
     1
102
RTVSPropertyOp7
 70
     1
102
RTVSPropertyOp8
 70
     1
102
RTVSPropertyOp9
 70
     1
102
RTVSPropertyOp10
 70
     1
102
RTVSPropertyOp11
 70
     1
102
RTVSPropertyOp12
 70
     1
102
RTVSPropertyOp13
 70
     1
102
RTVSPropertyOp14
 70
     1
102
RTVSPropertyOp15
 70
     1
102
RTVSPropertyOp16
 70
     1
102
RTVSPropertyOp17
 70
     1
102
RTVSPropertyOp18
 70
     1
102
RTVSPropertyOp19
 70
     1
102
RTVSPropertyOp20
 70
     1
102
RTVSPropertyOp21
 70
     1
102
RTVSPropertyOp22
 70
     1
102
RTVSPropertyOp23
 70
     1
102
RTVSPropertyOp24
 70
     1
102
RTVSPropertyOp25
 70
     1
102
RTVSPropertyOp26
 70
     1
102
RTVSPropertyOp27
 70
     1
102
RTVSPropertyOp28
 70
     1
102
RTVSPropertyOp29
 70
     1
102
RTVSPropertyOp30
 70
     1
102
RTVSPropertyOp31
 70
     1
102
RTVSPropertyOp32
 70
     1
  0
XRECORD
  5
F3
102
{ACAD_REACTORS
330
F2
102
}
330
F2
100
AcDbXrecord
280
     1
102
RTVSPropertyOp0
 70
     1
102
RTVSPropertyOp1
 70
     1
102
RTVSPropertyOp2
 70
     1
102
RTVSPropertyOp3
 70
     1
102
RTVSPropertyOp4
 70
     1
102
RTVSPropertyOp5
 70
     1
102
RTVSPropertyOp6
 70
     1
102
RTVSPropertyOp7
 70
     1
102
RTVSPropertyOp8
 70
     1
102
RTVSPropertyOp9
 70
     1
102
RTVSPropertyOp10
 70
     1
102
RTVSPropertyOp11
 70
     1
102
RTVSPropertyOp12
 70
     1
102
RTVSPropertyOp13
 70
     1
102
RTVSPropertyOp14
 70
     1
102
RTVSPropertyOp15
 70
     1
102
RTVSPropertyOp16
 70
     1
102
RTVSPropertyOp17
 70
     1
102
RTVSPropertyOp18
 70
     1
102
RTVSPropertyOp19
 70
     1
102
RTVSPropertyOp20
 70
     1
102
RTVSPropertyOp21
 70
     1
102
RTVSPropertyOp22
 70
     1
102
RTVSPropertyOp23
 70
     1
102
RTVSPropertyOp24
 70
     1
102
RTVSPropertyOp25
 70
     1
102
RTVSPropertyOp26
 70
     1
102
RTVSPropertyOp27
 70
     1
102
RTVSPropertyOp28
 70
     1
102
RTVSPropertyOp29
 70
     1
102
RTVSPropertyOp30
 70
     1
102
RTVSPropertyOp31
 70
     1
102
RTVSPropertyOp32
 70
     1
  0
XRECORD
  5
FB
102
{ACAD_REACTORS
330
FA
102
}
330
FA
100
AcDbXrecord
280
     1
102
RTVSPropertyOp0
 70
     1
102
RTVSPropertyOp1
 70
     1
102
RTVSPropertyOp2
 70
     1
102
RTVSPropertyOp3
 70
     1
102
RTVSPropertyOp4
 70
     1
102
RTVSPropertyOp5
 70
     1
102
RTVSPropertyOp6
 70
     1
102
RTVSPropertyOp7
 70
     1
102
RTVSPropertyOp8
 70
     1
102
RTVSPropertyOp9
 70
     1
102
RTVSPropertyOp10
 70
     1
102
RTVSPropertyOp11
 70
     1
102
RTVSPropertyOp12
 70
     1
102
RTVSPropertyOp13
 70
     1
102
RTVSPropertyOp14
 70
     1
102
RTVSPropertyOp15
 70
     1
102
RTVSPropertyOp16
 70
     1
102
RTVSPropertyOp17
 70
     1
102
RTVSPropertyOp18
 70
     1
102
RTVSPropertyOp19
 70
     1
102
RTVSPropertyOp20
 70
     1
102
RTVSPropertyOp21
 70
     1
102
RTVSPropertyOp22
 70
     1
102
RTVSPropertyOp23
 70
     1
102
RTVSPropertyOp24
 70
     1
102
RTVSPropertyOp25
 70
     1
102
RTVSPropertyOp26
 70
     1
102
RTVSPropertyOp27
 70
     1
102
RTVSPropertyOp28
 70
     1
102
RTVSPropertyOp29
 70
     1
102
RTVSPropertyOp30
 70
     1
102
RTVSPropertyOp31
 70
     1
102
RTVSPropertyOp32
 70
     1
  0
XRECORD
  5
103
102
{ACAD_REACTORS
330
102
102
}
330
102
100
AcDbXrecord
280
     1
102
RTVSPropertyOp0
 70
     1
102
RTVSPropertyOp1
 70
     1
102
RTVSPropertyOp2
 70
     1
102
RTVSPropertyOp3
 70
     1
102
RTVSPropertyOp4
 70
     1
102
RTVSPropertyOp5
 70
     1
102
RTVSPropertyOp6
 70
     1
102
RTVSPropertyOp7
 70
     1
102
RTVSPropertyOp8
 70
     1
102
RTVSPropertyOp9
 70
     1
102
RTVSPropertyOp10
 70
     1
102
RTVSPropertyOp11
 70
     1
102
RTVSPropertyOp12
 70
     1
102
RTVSPropertyOp13
 70
     1
102
RTVSPropertyOp14
 70
     1
102
RTVSPropertyOp15
 70
     1
102
RTVSPropertyOp16
 70
     1
102
RTVSPropertyOp17
 70
     1
102
RTVSPropertyOp18
 70
     1
102
RTVSPropertyOp19
 70
     1
102
RTVSPropertyOp20
 70
     1
102
RTVSPropertyOp21
 70
     1
102
RTVSPropertyOp22
 70
     1
102
RTVSPropertyOp23
 70
     1
102
RTVSPropertyOp24
 70
     1
102
RTVSPropertyOp25
 70
     1
102
RTVSPropertyOp26
 70
     1
102
RTVSPropertyOp27
 70
     1
102
RTVSPropertyOp28
 70
     1
102
RTVSPropertyOp29
 70
     1
102
RTVSPropertyOp30
 70
     1
102
RTVSPropertyOp31
 70
     1
102
RTVSPropertyOp32
 70
     1
  0
XRECORD
  5
F7
102
{ACAD_REACTORS
330
F6
102
}
330
F6
100
AcDbXrecord
280
     1
102
RTVSPropertyOp0
 70
     1
102
RTVSPropertyOp1
 70
     1
102
RTVSPropertyOp2
 70
     1
102
RTVSPropertyOp3
 70
     1
102
RTVSPropertyOp4
 70
     1
102
RTVSPropertyOp5
 70
     1
102
RTVSPropertyOp6
 70
     1
102
RTVSPropertyOp7
 70
     1
102
RTVSPropertyOp8
 70
     1
102
RTVSPropertyOp9
 70
     1
102
RTVSPropertyOp10
 70
     1
102
RTVSPropertyOp11
 70
     1
102
RTVSPropertyOp12
 70
     1
102
RTVSPropertyOp13
 70
     1
102
RTVSPropertyOp14
 70
     1
102
RTVSPropertyOp15
 70
     1
102
RTVSPropertyOp16
 70
     1
102
RTVSPropertyOp17
 70
     1
102
RTVSPropertyOp18
 70
     1
102
RTVSPropertyOp19
 70
     1
102
RTVSPropertyOp20
 70
     1
102
RTVSPropertyOp21
 70
     1
102
RTVSPropertyOp22
 70
     1
102
RTVSPropertyOp23
 70
     1
102
RTVSPropertyOp24
 70
     1
102
RTVSPropertyOp25
 70
     1
102
RTVSPropertyOp26
 70
     1
102
RTVSPropertyOp27
 70
     1
102
RTVSPropertyOp28
 70
     1
102
RTVSPropertyOp29
 70
     1
102
RTVSPropertyOp30
 70
     1
102
RTVSPropertyOp31
 70
     1
102
RTVSPropertyOp32
 70
     1
  0
XRECORD
  5
F9
102
{ACAD_REACTORS
330
F8
102
}
330
F8
100
AcDbXrecord
280
     1
102
RTVSPropertyOp0
 70
     1
102
RTVSPropertyOp1
 70
     1
102
RTVSPropertyOp2
 70
     1
102
RTVSPropertyOp3
 70
     1
102
RTVSPropertyOp4
 70
     1
102
RTVSPropertyOp5
 70
     1
102
RTVSPropertyOp6
 70
     1
102
RTVSPropertyOp7
 70
     1
102
RTVSPropertyOp8
 70
     1
102
RTVSPropertyOp9
 70
     1
102
RTVSPropertyOp10
 70
     1
102
RTVSPropertyOp11
 70
     1
102
RTVSPropertyOp12
 70
     1
102
RTVSPropertyOp13
 70
     1
102
RTVSPropertyOp14
 70
     1
102
RTVSPropertyOp15
 70
     1
102
RTVSPropertyOp16
 70
     1
102
RTVSPropertyOp17
 70
     1
102
RTVSPropertyOp18
 70
     1
102
RTVSPropertyOp19
 70
     1
102
RTVSPropertyOp20
 70
     1
102
RTVSPropertyOp21
 70
     1
102
RTVSPropertyOp22
 70
     1
102
RTVSPropertyOp23
 70
     1
102
RTVSPropertyOp24
 70
     1
102
RTVSPropertyOp25
 70
     1
102
RTVSPropertyOp26
 70
     1
102
RTVSPropertyOp27
 70
     1
102
RTVSPropertyOp28
 70
     1
102
RTVSPropertyOp29
 70
     1
102
RTVSPropertyOp30
 70
     1
102
RTVSPropertyOp31
 70
     1
102
RTVSPropertyOp32
 70
     1
  0
XRECORD
  5
101
102
{ACAD_REACTORS
330
100
102
}
330
100
100
AcDbXrecord
280
     1
102
RTVSPropertyOp0
 70
     1
102
RTVSPropertyOp1
 70
     1
102
RTVSPropertyOp2
 70
     1
102
RTVSPropertyOp3
 70
     1
102
RTVSPropertyOp4
 70
     1
102
RTVSPropertyOp5
 70
     1
102
RTVSPropertyOp6
 70
     1
102
RTVSPropertyOp7
 70
     1
102
RTVSPropertyOp8
 70
     1
102
RTVSPropertyOp9
 70
     1
102
RTVSPropertyOp10
 70
     1
102
RTVSPropertyOp11
 70
     1
102
RTVSPropertyOp12
 70
     1
102
RTVSPropertyOp13
 70
     1
102
RTVSPropertyOp14
 70
     1
102
RTVSPropertyOp15
 70
     1
102
RTVSPropertyOp16
 70
     1
102
RTVSPropertyOp17
 70
     1
102
RTVSPropertyOp18
 70
     1
102
RTVSPropertyOp19
 70
     1
102
RTVSPropertyOp20
 70
     1
102
RTVSPropertyOp21
 70
     1
102
RTVSPropertyOp22
 70
     1
102
RTVSPropertyOp23
 70
     1
102
RTVSPropertyOp24
 70
     1
102
RTVSPropertyOp25
 70
     1
102
RTVSPropertyOp26
 70
     1
102
RTVSPropertyOp27
 70
     1
102
RTVSPropertyOp28
 70
     1
102
RTVSPropertyOp29
 70
     1
102
RTVSPropertyOp30
 70
     1
102
RTVSPropertyOp31
 70
     1
102
RTVSPropertyOp32
 70
     1
  0
XRECORD
  5
E5
102
{ACAD_REACTORS
330
E4
102
}
330
E4
100
AcDbXrecord
280
     1
102
RTVSPropertyOp0
 70
     1
102
RTVSPropertyOp1
 70
     1
102
RTVSPropertyOp2
 70
     1
102
RTVSPropertyOp3
 70
     1
102
RTVSPropertyOp4
 70
     1
102
RTVSPropertyOp5
 70
     1
102
RTVSPropertyOp6
 70
     1
102
RTVSPropertyOp7
 70
     1
102
RTVSPropertyOp8
 70
     1
102
RTVSPropertyOp9
 70
     1
102
RTVSPropertyOp10
 70
     1
102
RTVSPropertyOp11
 70
     1
102
RTVSPropertyOp12
 70
     1
102
RTVSPropertyOp13
 70
     1
102
RTVSPropertyOp14
 70
     1
102
RTVSPropertyOp15
 70
     1
102
RTVSPropertyOp16
 70
     1
102
RTVSPropertyOp17
 70
     1
102
RTVSPropertyOp18
 70
     1
102
RTVSPropertyOp19
 70
     1
102
RTVSPropertyOp20
 70
     1
102
RTVSPropertyOp21
 70
     1
102
RTVSPropertyOp22
 70
     1
102
RTVSPropertyOp23
 70
     1
102
RTVSPropertyOp24
 70
     1
102
RTVSPropertyOp25
 70
     1
102
RTVSPropertyOp26
 70
     1
102
RTVSPropertyOp27
 70
     1
102
RTVSPropertyOp28
 70
     1
102
RTVSPropertyOp29
 70
     1
102
RTVSPropertyOp30
 70
     1
102
RTVSPropertyOp31
 70
     1
102
RTVSPropertyOp32
 70
     1
  0
XRECORD
  5
E7
102
{ACAD_REACTORS
330
E6
102
}
330
E6
100
AcDbXrecord
280
     1
102
RTVSPropertyOp0
 70
     1
102
RTVSPropertyOp1
 70
     1
102
RTVSPropertyOp2
 70
     1
102
RTVSPropertyOp3
 70
     1
102
RTVSPropertyOp4
 70
     1
102
RTVSPropertyOp5
 70
     1
102
RTVSPropertyOp6
 70
     1
102
RTVSPropertyOp7
 70
     1
102
RTVSPropertyOp8
 70
     1
102
RTVSPropertyOp9
 70
     1
102
RTVSPropertyOp10
 70
     1
102
RTVSPropertyOp11
 70
     1
102
RTVSPropertyOp12
 70
     1
102
RTVSPropertyOp13
 70
     1
102
RTVSPropertyOp14
 70
     1
102
RTVSPropertyOp15
 70
     1
102
RTVSPropertyOp16
 70
     1
102
RTVSPropertyOp17
 70
     1
102
RTVSPropertyOp18
 70
     1
102
RTVSPropertyOp19
 70
     1
102
RTVSPropertyOp20
 70
     1
102
RTVSPropertyOp21
 70
     1
102
RTVSPropertyOp22
 70
     1
102
RTVSPropertyOp23
 70
     1
102
RTVSPropertyOp24
 70
     1
102
RTVSPropertyOp25
 70
     1
102
RTVSPropertyOp26
 70
     1
102
RTVSPropertyOp27
 70
     1
102
RTVSPropertyOp28
 70
     1
102
RTVSPropertyOp29
 70
     1
102
RTVSPropertyOp30
 70
     1
102
RTVSPropertyOp31
 70
     1
102
RTVSPropertyOp32
 70
     1
  0
XRECORD
  5
E9
102
{ACAD_REACTORS
330
E8
102
}
330
E8
100
AcDbXrecord
280
     1
102
RTVSPropertyOp0
 70
     1
102
RTVSPropertyOp1
 70
     1
102
RTVSPropertyOp2
 70
     1
102
RTVSPropertyOp3
 70
     1
102
RTVSPropertyOp4
 70
     1
102
RTVSPropertyOp5
 70
     1
102
RTVSPropertyOp6
 70
     1
102
RTVSPropertyOp7
 70
     1
102
RTVSPropertyOp8
 70
     1
102
RTVSPropertyOp9
 70
     1
102
RTVSPropertyOp10
 70
     1
102
RTVSPropertyOp11
 70
     1
102
RTVSPropertyOp12
 70
     1
102
RTVSPropertyOp13
 70
     1
102
RTVSPropertyOp14
 70
     1
102
RTVSPropertyOp15
 70
     1
102
RTVSPropertyOp16
 70
     1
102
RTVSPropertyOp17
 70
     1
102
RTVSPropertyOp18
 70
     1
102
RTVSPropertyOp19
 70
     1
102
RTVSPropertyOp20
 70
     1
102
RTVSPropertyOp21
 70
     1
102
RTVSPropertyOp22
 70
     1
102
RTVSPropertyOp23
 70
     1
102
RTVSPropertyOp24
 70
     1
102
RTVSPropertyOp25
 70
     1
102
RTVSPropertyOp26
 70
     1
102
RTVSPropertyOp27
 70
     1
102
RTVSPropertyOp28
 70
     1
102
RTVSPropertyOp29
 70
     1
102
RTVSPropertyOp30
 70
     1
102
RTVSPropertyOp31
 70
     1
102
RTVSPropertyOp32
 70
     1
  0
XRECORD
  5
EB
102
{ACAD_REACTORS
330
EA
102
}
330
EA
100
AcDbXrecord
280
     1
102
RTVSPropertyOp0
 70
     1
102
RTVSPropertyOp1
 70
     1
102
RTVSPropertyOp2
 70
     1
102
RTVSPropertyOp3
 70
     1
102
RTVSPropertyOp4
 70
     1
102
RTVSPropertyOp5
 70
     1
102
RTVSPropertyOp6
 70
     1
102
RTVSPropertyOp7
 70
     1
102
RTVSPropertyOp8
 70
     1
102
RTVSPropertyOp9
 70
     1
102
RTVSPropertyOp10
 70
     1
102
RTVSPropertyOp11
 70
     1
102
RTVSPropertyOp12
 70
     1
102
RTVSPropertyOp13
 70
     1
102
RTVSPropertyOp14
 70
     1
102
RTVSPropertyOp15
 70
     1
102
RTVSPropertyOp16
 70
     1
102
RTVSPropertyOp17
 70
     1
102
RTVSPropertyOp18
 70
     1
102
RTVSPropertyOp19
 70
     1
102
RTVSPropertyOp20
 70
     1
102
RTVSPropertyOp21
 70
     1
102
RTVSPropertyOp22
 70
     1
102
RTVSPropertyOp23
 70
     1
102
RTVSPropertyOp24
 70
     1
102
RTVSPropertyOp25
 70
     1
102
RTVSPropertyOp26
 70
     1
102
RTVSPropertyOp27
 70
     1
102
RTVSPropertyOp28
 70
     1
102
RTVSPropertyOp29
 70
     1
102
RTVSPropertyOp30
 70
     1
102
RTVSPropertyOp31
 70
     1
102
RTVSPropertyOp32
 70
     1
  0
XRECORD
  5
FF
102
{ACAD_REACTORS
330
FE
102
}
330
FE
100
AcDbXrecord
280
     1
102
RTVSPropertyOp0
 70
     1
102
RTVSPropertyOp1
 70
     1
102
RTVSPropertyOp2
 70
     1
102
RTVSPropertyOp3
 70
     1
102
RTVSPropertyOp4
 70
     1
102
RTVSPropertyOp5
 70
     1
102
RTVSPropertyOp6
 70
     1
102
RTVSPropertyOp7
 70
     1
102
RTVSPropertyOp8
 70
     1
102
RTVSPropertyOp9
 70
     1
102
RTVSPropertyOp10
 70
     1
102
RTVSPropertyOp11
 70
     1
102
RTVSPropertyOp12
 70
     1
102
RTVSPropertyOp13
 70
     1
102
RTVSPropertyOp14
 70
     1
102
RTVSPropertyOp15
 70
     1
102
RTVSPropertyOp16
 70
     1
102
RTVSPropertyOp17
 70
     1
102
RTVSPropertyOp18
 70
     1
102
RTVSPropertyOp19
 70
     1
102
RTVSPropertyOp20
 70
     1
102
RTVSPropertyOp21
 70
     1
102
RTVSPropertyOp22
 70
     1
102
RTVSPropertyOp23
 70
     1
102
RTVSPropertyOp24
 70
     1
102
RTVSPropertyOp25
 70
     1
102
RTVSPropertyOp26
 70
     1
102
RTVSPropertyOp27
 70
     1
102
RTVSPropertyOp28
 70
     1
102
RTVSPropertyOp29
 70
     1
102
RTVSPropertyOp30
 70
     1
102
RTVSPropertyOp31
 70
     1
102
RTVSPropertyOp32
 70
     1
  0
XRECORD
  5
F5
102
{ACAD_REACTORS
330
F4
102
}
330
F4
100
AcDbXrecord
280
     1
102
RTVSPropertyOp0
 70
     1
102
RTVSPropertyOp1
 70
     1
102
RTVSPropertyOp2
 70
     1
102
RTVSPropertyOp3
 70
     1
102
RTVSPropertyOp4
 70
     1
102
RTVSPropertyOp5
 70
     1
102
RTVSPropertyOp6
 70
     1
102
RTVSPropertyOp7
 70
     1
102
RTVSPropertyOp8
 70
     1
102
RTVSPropertyOp9
 70
     1
102
RTVSPropertyOp10
 70
     1
102
RTVSPropertyOp11
 70
     1
102
RTVSPropertyOp12
 70
     1
102
RTVSPropertyOp13
 70
     1
102
RTVSPropertyOp14
 70
     1
102
RTVSPropertyOp15
 70
     1
102
RTVSPropertyOp16
 70
     1
102
RTVSPropertyOp17
 70
     1
102
RTVSPropertyOp18
 70
     1
102
RTVSPropertyOp19
 70
     1
102
RTVSPropertyOp20
 70
     1
102
RTVSPropertyOp21
 70
     1
102
RTVSPropertyOp22
 70
     1
102
RTVSPropertyOp23
 70
     1
102
RTVSPropertyOp24
 70
     1
102
RTVSPropertyOp25
 70
     1
102
RTVSPropertyOp26
 70
     1
102
RTVSPropertyOp27
 70
     1
102
RTVSPropertyOp28
 70
     1
102
RTVSPropertyOp29
 70
     1
102
RTVSPropertyOp30
 70
     1
102
RTVSPropertyOp31
 70
     1
102
RTVSPropertyOp32
 70
     1
  0
XRECORD
  5
FD
102
{ACAD_REACTORS
330
FC
102
}
330
FC
100
AcDbXrecord
280
     1
102
RTVSPropertyOp0
 70
     1
102
RTVSPropertyOp1
 70
     1
102
RTVSPropertyOp2
 70
     1
102
RTVSPropertyOp3
 70
     1
102
RTVSPropertyOp4
 70
     1
102
RTVSPropertyOp5
 70
     1
102
RTVSPropertyOp6
 70
     1
102
RTVSPropertyOp7
 70
     1
102
RTVSPropertyOp8
 70
     1
102
RTVSPropertyOp9
 70
     1
102
RTVSPropertyOp10
 70
     1
102
RTVSPropertyOp11
 70
     1
102
RTVSPropertyOp12
 70
     1
102
RTVSPropertyOp13
 70
     1
102
RTVSPropertyOp14
 70
     1
102
RTVSPropertyOp15
 70
     1
102
RTVSPropertyOp16
 70
     1
102
RTVSPropertyOp17
 70
     1
102
RTVSPropertyOp18
 70
     1
102
RTVSPropertyOp19
 70
     1
102
RTVSPropertyOp20
 70
     1
102
RTVSPropertyOp21
 70
     1
102
RTVSPropertyOp22
 70
     1
102
RTVSPropertyOp23
 70
     1
102
RTVSPropertyOp24
 70
     1
102
RTVSPropertyOp25
 70
     1
102
RTVSPropertyOp26
 70
     1
102
RTVSPropertyOp27
 70
     1
102
RTVSPropertyOp28
 70
     1
102
RTVSPropertyOp29
 70
     1
102
RTVSPropertyOp30
 70
     1
102
RTVSPropertyOp31
 70
     1
102
RTVSPropertyOp32
 70
     1
  0
ENDSEC
  0
EOF
