  0
SECTION
  2
HEADER
  9
$ACADVER
  1
AC1021
  9
$ACADMAINTVER
 70
    25
  9
$DWGCODEPAGE
  3
ANSI_1252
  9
$INSBASE
 10
0.0
 20
0.0
 30
0.0
  9
$EXTMIN
 10
-41.2245
 20
-111.952
 30
0.0
  9
$EXTMAX
 10
196.5055
 20
125.778
 30
0.0
  9
$LIMMIN
 10
0.0
 20
0.0
  9
$LIMMAX
 10
12.0
 20
9.0
  9
$ORTHOMODE
 70
     0
  9
$REGENMODE
 70
     1
  9
$FILLMODE
 70
     1
  9
$QTEXTMODE
 70
     0
  9
$MIRRTEXT
 70
     1
  9
$LTSCALE
 40
1.0
  9
$ATTMODE
 70
     1
  9
$TEXTSIZE
 40
0.2
  9
$TRACEWID
 40
0.05
  9
$TEXTSTYLE
  7
Standard
  9
$CLAYER
  8
0
  9
$CELTYPE
  6
ByLayer
  9
$CECOLOR
 62
   256
  9
$CELTSCALE
 40
1.0
  9
$DISPSILH
 70
     0
  9
$DIMSCALE
 40
1.0
  9
$DIMASZ
 40
0.18
  9
$DIMEXO
 40
0.0625
  9
$DIMDLI
 40
0.38
  9
$DIMRND
 40
0.0
  9
$DIMDLE
 40
0.0
  9
$DIMEXE
 40
0.18
  9
$DIMTP
 40
0.0
  9
$DIMTM
 40
0.0
  9
$DIMTXT
 40
0.18
  9
$DIMCEN
 40
0.09
  9
$DIMTSZ
 40
0.0
  9
$DIMTOL
 70
     0
  9
$DIMLIM
 70
     0
  9
$DIMTIH
 70
     1
  9
$DIMTOH
 70
     1
  9
$DIMSE1
 70
     0
  9
$DIMSE2
 70
     0
  9
$DIMTAD
 70
     0
  9
$DIMZIN
 70
     0
  9
$DIMBLK
  1

  9
$DIMASO
 70
     1
  9
$DIMSHO
 70
     1
  9
$DIMPOST
  1

  9
$DIMAPOST
  1

  9
$DIMALT
 70
     0
  9
$DIMALTD
 70
     2
  9
$DIMALTF
 40
25.4
  9
$DIMLFAC
 40
1.0
  9
$DIMTOFL
 70
     0
  9
$DIMTVP
 40
0.0
  9
$DIMTIX
 70
     0
  9
$DIMSOXD
 70
     0
  9
$DIMSAH
 70
     0
  9
$DIMBLK1
  1

  9
$DIMBLK2
  1

  9
$DIMSTYLE
  2
Standard
  9
$DIMCLRD
 70
     0
  9
$DIMCLRE
 70
     0
  9
$DIMCLRT
 70
     0
  9
$DIMTFAC
 40
1.0
  9
$DIMGAP
 40
0.09
  9
$DIMJUST
 70
     0
  9
$DIMSD1
 70
     0
  9
$DIMSD2
 70
     0
  9
$DIMTOLJ
 70
     1
  9
$DIMTZIN
 70
     0
  9
$DIMALTZ
 70
     0
  9
$DIMALTTZ
 70
     0
  9
$DIMUPT
 70
     0
  9
$DIMDEC
 70
     4
  9
$DIMTDEC
 70
     4
  9
$DIMALTU
 70
     2
  9
$DIMALTTD
 70
     2
  9
$DIMTXSTY
  7
Standard
  9
$DIMAUNIT
 70
     0
  9
$DIMADEC
 70
     0
  9
$DIMALTRND
 40
0.0
  9
$DIMAZIN
 70
     0
  9
$DIMDSEP
 70
    46
  9
$DIMATFIT
 70
     3
  9
$DIMFRAC
 70
     0
  9
$DIMLDRBLK
  1

  9
$DIMLUNIT
 70
     2
  9
$DIMLWD
 70
    -2
  9
$DIMLWE
 70
    -2
  9
$DIMTMOVE
 70
     0
  9
$DIMFXL
 40
1.0
  9
$DIMFXLON
 70
     0
  9
$DIMJOGANG
 40
0.7853981633974483
  9
$DIMTFILL
 70
     0
  9
$DIMTFILLCLR
 70
     0
  9
$DIMARCSYM
 70
     0
  9
$DIMLTYPE
  6

  9
$DIMLTEX1
  6

  9
$DIMLTEX2
  6

  9
$LUNITS
 70
     2
  9
$LUPREC
 70
     4
  9
$SKETCHINC
 40
0.1
  9
$FILLETRAD
 40
0.5
  9
$AUNITS
 70
     0
  9
$AUPREC
 70
     0
  9
$MENU
  1
.
  9
$ELEVATION
 40
0.0
  9
$PELEVATION
 40
0.0
  9
$THICKNESS
 40
0.0
  9
$LIMCHECK
 70
     0
  9
$CHAMFERA
 40
0.5
  9
$CHAMFERB
 40
0.5
  9
$CHAMFERC
 40
1.0
  9
$CHAMFERD
 40
0.0
  9
$SKPOLY
 70
     0
  9
$TDCREATE
 40
2458492.678162697
  9
$TDUCREATE
 40
2458492.678162697
  9
$TDUPDATE
 40
2458492.678162905
  9
$TDUUPDATE
 40
2458492.678162905
  9
$TDINDWG
 40
0.0000000116
  9
$TDUSRTIMER
 40
0.0000000116
  9
$USRTIMER
 70
     1
  9
$ANGBASE
 50
0.0
  9
$ANGDIR
 70
     0
  9
$PDMODE
 70
     0
  9
$PDSIZE
 40
0.0
  9
$PLINEWID
 40
0.0
  9
$SPLFRAME
 70
     0
  9
$SPLINETYPE
 70
     6
  9
$SPLINESEGS
 70
     8
  9
$HANDSEED
  5
A1
  9
$SURFTAB1
 70
     6
  9
$SURFTAB2
 70
     6
  9
$SURFTYPE
 70
     6
  9
$SURFU
 70
     6
  9
$SURFV
 70
     6
  9
$UCSBASE
  2

  9
$UCSNAME
  2

  9
$UCSORG
 10
0.0
 20
0.0
 30
0.0
  9
$UCSXDIR
 10
1.0
 20
0.0
 30
0.0
  9
$UCSYDIR
 10
0.0
 20
1.0
 30
0.0
  9
$UCSORTHOREF
  2

  9
$UCSORTHOVIEW
 70
     0
  9
$UCSORGTOP
 10
0.0
 20
0.0
 30
0.0
  9
$UCSORGBOTTOM
 10
0.0
 20
0.0
 30
0.0
  9
$UCSORGLEFT
 10
0.0
 20
0.0
 30
0.0
  9
$UCSORGRIGHT
 10
0.0
 20
0.0
 30
0.0
  9
$UCSORGFRONT
 10
0.0
 20
0.0
 30
0.0
  9
$UCSORGBACK
 10
0.0
 20
0.0
 30
0.0
  9
$PUCSBASE
  2

  9
$PUCSNAME
  2

  9
$PUCSORG
 10
0.0
 20
0.0
 30
0.0
  9
$PUCSXDIR
 10
1.0
 20
0.0
 30
0.0
  9
$PUCSYDIR
 10
0.0
 20
1.0
 30
0.0
  9
$PUCSORTHOREF
  2

  9
$PUCSORTHOVIEW
 70
     0
  9
$PUCSORGTOP
 10
0.0
 20
0.0
 30
0.0
  9
$PUCSORGBOTTOM
 10
0.0
 20
0.0
 30
0.0
  9
$PUCSORGLEFT
 10
0.0
 20
0.0
 30
0.0
  9
$PUCSORGRIGHT
 10
0.0
 20
0.0
 30
0.0
  9
$PUCSORGFRONT
 10
0.0
 20
0.0
 30
0.0
  9
$PUCSORGBACK
 10
0.0
 20
0.0
 30
0.0
  9
$USERI1
 70
     0
  9
$USERI2
 70
     0
  9
$USERI3
 70
     0
  9
$USERI4
 70
     0
  9
$USERI5
 70
     0
  9
$USERR1
 40
0.0
  9
$USERR2
 40
0.0
  9
$USERR3
 40
0.0
  9
$USERR4
 40
0.0
  9
$USERR5
 40
0.0
  9
$WORLDVIEW
 70
     1
  9
$SHADEDGE
 70
     3
  9
$SHADEDIF
 70
    70
  9
$TILEMODE
 70
     1
  9
$MAXACTVP
 70
    64
  9
$PINSBASE
 10
0.0
 20
0.0
 30
0.0
  9
$PLIMCHECK
 70
     0
  9
$PEXTMIN
 10
1.000000000000000E+20
 20
1.000000000000000E+20
 30
1.000000000000000E+20
  9
$PEXTMAX
 10
-1.000000000000000E+20
 20
-1.000000000000000E+20
 30
-1.000000000000000E+20
  9
$PLIMMIN
 10
0.0
 20
0.0
  9
$PLIMMAX
 10
12.0
 20
9.0
  9
$UNITMODE
 70
     0
  9
$VISRETAIN
 70
     1
  9
$PLINEGEN
 70
     0
  9
$PSLTSCALE
 70
     1
  9
$TREEDEPTH
 70
  3020
  9
$CMLSTYLE
  2
Standard
  9
$CMLJUST
 70
     0
  9
$CMLSCALE
 40
1.0
  9
$PROXYGRAPHICS
 70
     1
  9
$MEASUREMENT
 70
     0
  9
$CELWEIGHT
370
    -1
  9
$ENDCAPS
280
     0
  9
$JOINSTYLE
280
     0
  9
$LWDISPLAY
290
     0
  9
$INSUNITS
 70
     4
  9
$HYPERLINKBASE
  1

  9
$STYLESHEET
  1

  9
$XEDIT
290
     1
  9
$CEPSNTYPE
380
     0
  9
$PSTYLEMODE
290
     1
  9
$FINGERPRINTGUID
  2
{47F5BB9A-87DC-43FF-99CF-7ACB81621D6D}
  9
$VERSIONGUID
  2
{FAEB1C32-E019-11D5-929B-00C0DF256EC4}
  9
$EXTNAMES
290
     1
  9
$PSVPSCALE
 40
0.0
  9
$OLESTARTUP
290
     0
  9
$SORTENTS
280
   127
  9
$INDEXCTL
280
     0
  9
$HIDETEXT
280
     1
  9
$XCLIPFRAME
290
     0
  9
$HALOGAP
280
     0
  9
$OBSCOLOR
 70
   257
  9
$OBSLTYPE
280
     0
  9
$INTERSECTIONDISPLAY
280
     0
  9
$INTERSECTIONCOLOR
 70
   257
  9
$DIMASSOC
280
     2
  9
$PROJECTNAME
  1

  9
$CAMERADISPLAY
290
     0
  9
$LENSLENGTH
 40
50.0
  9
$CAMERAHEIGHT
 40
0.0
  9
$STEPSPERSEC
 40
2.0
  9
$STEPSIZE
 40
6.0
  9
$3DDWFPREC
 40
2.0
  9
$PSOLWIDTH
 40
0.25
  9
$PSOLHEIGHT
 40
4.0
  9
$LOFTANG1
 40
1.570796326794897
  9
$LOFTANG2
 40
1.570796326794897
  9
$LOFTMAG1
 40
0.0
  9
$LOFTMAG2
 40
0.0
  9
$LOFTPARAM
 70
     7
  9
$LOFTNORMALS
280
     1
  9
$LATITUDE
 40
37.795
  9
$LONGITUDE
 40
-122.394
  9
$NORTHDIRECTION
 40
0.0
  9
$TIMEZONE
 70
 -8000
  9
$LIGHTGLYPHDISPLAY
280
     1
  9
$TILEMODELIGHTSYNCH
280
     1
  9
$SOLIDHIST
280
     1
  9
$SHOWHIST
280
     1
  9
$DWFFRAME
280
     2
  9
$DGNFRAME
280
     2
  9
$REALWORLDSCALE
290
     1
  9
$INTERFERECOLOR
 62
   256
  9
$CSHADOW
280
     0
  9
$SHADOWPLANELOCATION
 40
0.0
  0
ENDSEC
  0
SECTION
  2
CLASSES
  0
CLASS
  1
ACDBDICTIONARYWDFLT
  2
AcDbDictionaryWithDefault
  3
ObjectDBX Classes
 90
        0
 91
        4
280
     0
281
     0
  0
CLASS
  1
VISUALSTYLE
  2
AcDbVisualStyle
  3
ObjectDBX Classes
 90
     4095
 91
        4
280
     0
281
     0
  0
CLASS
  1
MATERIAL
  2
AcDbMaterial
  3
ObjectDBX Classes
 90
     1153
 91
        4
280
     0
281
     0
  0
ENDSEC
  0
SECTION
  2
TABLES
  0
TABLE
  2
VPORT
  5
8
330
0
100
AcDbSymbolTable
 70
     1
  0
VPORT
  5
29
330
8
100
AcDbSymbolTableRecord
100
AcDbViewportTableRecord
  2
*Active
 70
     0
 10
0.0
 20
0.0
 11
1.0
 21
1.0
 12
10.42990654205607
 22
4.5
 13
0.0
 23
0.0
 14
0.5
 24
0.5
 15
0.5
 25
0.5
 16
0.0
 26
0.0
 36
1.0
 17
0.0
 27
0.0
 37
0.0
 40
9.0
 41
1.972972972850329
 42
50.0
 43
0.0
 44
0.0
 50
0.0
 51
0.0
 71
     0
 72
   100
 73
     1
 74
     3
 75
     0
 76
     0
 77
     0
 78
     0
281
     0
 65
     1
110
0.0
120
0.0
130
0.0
111
1.0
121
0.0
131
0.0
112
0.0
122
1.0
132
0.0
 79
     0
146
0.0
 60
     3
 61
     5
292
     1
282
     1
141
0.0
142
0.0
 63
   250
  0
ENDTAB
  0
TABLE
  2
LTYPE
  5
5
330
0
100
AcDbSymbolTable
 70
     1
  0
LTYPE
  5
14
330
5
100
AcDbSymbolTableRecord
100
AcDbLinetypeTableRecord
  2
ByBlock
 70
     0
  3

 72
    65
 73
     0
 40
0.0
  0
LTYPE
  5
15
330
5
100
AcDbSymbolTableRecord
100
AcDbLinetypeTableRecord
  2
ByLayer
 70
     0
  3

 72
    65
 73
     0
 40
0.0
  0
LTYPE
  5
16
330
5
100
AcDbSymbolTableRecord
100
AcDbLinetypeTableRecord
  2
Continuous
 70
     0
  3
Solid line
 72
    65
 73
     0
 40
0.0
  0
ENDTAB
  0
TABLE
  2
LAYER
  5
2
330
0
100
AcDbSymbolTable
 70
     2
  0
LAYER
  5
10
330
2
100
AcDbSymbolTableRecord
100
AcDbLayerTableRecord
  2
0
 70
     0
 62
     7
  6
Continuous
370
    -3
390
F
347
3E
  0
LAYER
  5
40
330
2
100
AcDbSymbolTableRecord
100
AcDbLayerTableRecord
  2
layer 1
 70
     0
 62
     7
  6
Continuous
370
    -3
390
F
347
3E
  0
ENDTAB
  0
TABLE
  2
STYLE
  5
3
330
0
100
AcDbSymbolTable
 70
     1
  0
STYLE
  5
11
330
3
100
AcDbSymbolTableRecord
100
AcDbTextStyleTableRecord
  2
Standard
 70
     0
 40
0.0
 41
1.0
 50
0.0
 71
     0
 42
0.2
  3
txt
  4

  0
ENDTAB
  0
TABLE
  2
VIEW
  5
6
330
0
100
AcDbSymbolTable
 70
     0
  0
ENDTAB
  0
TABLE
  2
UCS
  5
7
330
0
100
AcDbSymbolTable
 70
     0
  0
ENDTAB
  0
TABLE
  2
APPID
  5
9
330
0
100
AcDbSymbolTable
 70
     2
  0
APPID
  5
12
330
9
100
AcDbSymbolTableRecord
100
AcDbRegAppTableRecord
  2
ACAD
 70
     0
  0
APPID
  5
3F
330
9
100
AcDbSymbolTableRecord
100
AcDbRegAppTableRecord
  2
ODA
 70
     0
  0
ENDTAB
  0
TABLE
  2
DIMSTYLE
  5
A
330
0
100
AcDbSymbolTable
 70
     1
100
AcDbDimStyleTable
  0
DIMSTYLE
105
27
330
A
100
AcDbSymbolTableRecord
100
AcDbDimStyleTableRecord
  2
Standard
 70
     0
178
     0
340
11
  0
ENDTAB
  0
TABLE
  2
BLOCK_RECORD
  5
1
330
0
100
AcDbSymbolTable
 70
     1
  0
BLOCK_RECORD
  5
1F
330
1
100
AcDbSymbolTableRecord
100
AcDbBlockTableRecord
  2
*Model_Space
340
22
 70
     0
280
     1
281
     0
  0
BLOCK_RECORD
  5
1B
330
1
100
AcDbSymbolTableRecord
100
AcDbBlockTableRecord
  2
*Paper_Space
340
1E
 70
     0
280
     1
281
     0
  0
BLOCK_RECORD
  5
23
330
1
100
AcDbSymbolTableRecord
100
AcDbBlockTableRecord
  2
*Paper_Space0
340
26
 70
     0
280
     1
281
     0
  0
ENDTAB
  0
ENDSEC
  0
SECTION
  2
BLOCKS
  0
BLOCK
  5
20
330
1F
100
AcDbEntity
  8
0
100
AcDbBlockBegin
  2
*Model_Space
 70
     0
 10
0.0
 20
0.0
 30
0.0
  3
*Model_Space
  1

  0
ENDBLK
  5
21
330
1F
100
AcDbEntity
  8
0
100
AcDbBlockEnd
  0
BLOCK
  5
1C
330
1B
100
AcDbEntity
 67
     1
  8
0
100
AcDbBlockBegin
  2
*Paper_Space
 70
     0
 10
0.0
 20
0.0
 30
0.0
  3
*Paper_Space
  1

  0
ENDBLK
  5
1D
330
1B
100
AcDbEntity
 67
     1
  8
0
100
AcDbBlockEnd
  0
BLOCK
  5
24
330
23
100
AcDbEntity
  8
0
100
AcDbBlockBegin
  2
*Paper_Space0
 70
     0
 10
0.0
 20
0.0
 30
0.0
  3
*Paper_Space0
  1

  0
ENDBLK
  5
25
330
23
100
AcDbEntity
  8
0
100
AcDbBlockEnd
  0
ENDSEC
  0
SECTION
  2
ENTITIES
  0
SPLINE
  5
41
330
1F
100
AcDbEntity
  8
layer 1
 62
   250
370
     9
100
AcDbSpline
210
0.0
220
0.0
230
1.0
 70
    11
 71
     3
 72
    20
 73
    16
 74
     0
 42
0.0000000001
 43
0.0000000001
 12
1.0
 22
0.0
 32
0.0
 13
1.0
 23
0.0
 33
0.0
 40
0.0
 40
0.0
 40
0.0
 40
0.0
 40
0.2
 40
0.2
 40
0.2
 40
0.2
 40
0.4
 40
0.4
 40
0.4
 40
0.4
 40
0.6
 40
0.6
 40
0.6
 40
0.6
 40
1.0
 40
1.0
 40
1.0
 40
1.0
 10
-41.1864
 20
125.7399
 30
0.0
 10
-41.1864
 20
125.7399
 30
0.0
 10
196.4674
 20
125.7399
 30
0.0
 10
196.4674
 20
125.7399
 30
0.0
 10
196.4674
 20
125.7399
 30
0.0
 10
196.4674
 20
125.7399
 30
0.0
 10
196.4674
 20
-111.9139
 30
0.0
 10
196.4674
 20
-111.9139
 30
0.0
 10
196.4674
 20
-111.9139
 30
0.0
 10
196.4674
 20
-111.9139
 30
0.0
 10
-41.1864
 20
-111.9139
 30
0.0
 10
-41.1864
 20
-111.9139
 30
0.0
 10
-41.1864
 20
-111.9139
 30
0.0
 10
-41.1864
 20
-111.9139
 30
0.0
 10
-41.1864
 20
125.7399
 30
0.0
 10
-41.1864
 20
125.7399
 30
0.0
  0
SPLINE
  5
42
330
1F
100
AcDbEntity
  8
layer 1
 62
     7
370
     9
100
AcDbSpline
210
0.0
220
0.0
230
1.0
 70
    11
 71
     3
 72
    32
 73
    28
 74
     0
 42
0.0000000001
 43
0.0000000001
 12
1.0
 22
0.0
 32
0.0
 13
1.0
 23
0.0
 33
0.0
 40
0.0
 40
0.0
 40
0.0
 40
0.0
 40
0.125
 40
0.125
 40
0.125
 40
0.125
 40
0.25
 40
0.25
 40
0.25
 40
0.25
 40
0.375
 40
0.375
 40
0.375
 40
0.375
 40
0.5
 40
0.5
 40
0.5
 40
0.5
 40
0.625
 40
0.625
 40
0.625
 40
0.625
 40
0.75
 40
0.75
 40
0.75
 40
0.75
 40
1.0
 40
1.0
 40
1.0
 40
1.0
 10
-34.8902
 20
119.7092
 30
0.0
 10
-34.9572
 20
119.6447
 30
0.0
 10
-35.0912
 20
119.5108
 30
0.0
 10
-35.1582
 20
119.4438
 30
0.0
 10
-35.1582
 20
119.4438
 30
0.0
 10
-35.2972
 20
113.6017
 30
0.0
 10
-35.379
 20
107.7373
 30
0.0
 10
-35.0639
 20
101.8976
 30
0.0
 10
-35.0639
 20
101.8976
 30
0.0
 10
-33.7442
 20
102.9792
 30
0.0
 10
-33.2282
 20
104.7207
 30
0.0
 10
-31.968
 20
105.8568
 30
0.0
 10
-31.968
 20
105.8568
 30
0.0
 10
-30.0453
 20
107.7918
 30
0.0
 10
-27.4481
 20
108.8958
 30
0.0
 10
-24.8012
 20
109.3944
 30
0.0
 10
-24.8012
 20
109.3944
 30
0.0
 10
-24.3572
 20
111.0788
 30
0.0
 10
-24.1562
 20
112.8922
 30
0.0
 10
-23.092
 20
114.3335
 30
0.0
 10
-23.092
 20
114.3335
 30
0.0
 10
-21.7598
 20
116.6481
 30
0.0
 10
-19.2965
 20
117.9157
 30
0.0
 10
-17.3292
 20
119.6051
 30
0.0
 10
-17.3292
 20
119.6051
 30
0.0
 10
-23.1714
 20
119.9449
 30
0.0
 10
-29.0432
 20
119.8457
 30
0.0
 10
-34.8902
 20
119.7092
 30
0.0
  0
SPLINE
  5
43
330
1F
100
AcDbEntity
  8
layer 1
 62
     7
370
     9
100
AcDbSpline
210
0.0
220
0.0
230
1.0
 70
    11
 71
     3
 72
    44
 73
    40
 74
     0
 42
0.0000000001
 43
0.0000000001
 12
1.0
 22
0.0
 32
0.0
 13
1.0
 23
0.0
 33
0.0
 40
0.0
 40
0.0
 40
0.0
 40
0.0
 40
0.0909090909090909
 40
0.0909090909090909
 40
0.0909090909090909
 40
0.0909090909090909
 40
0.1818181818181818
 40
0.1818181818181818
 40
0.1818181818181818
 40
0.1818181818181818
 40
0.2727272727272727
 40
0.2727272727272727
 40
0.2727272727272727
 40
0.2727272727272727
 40
0.3636363636363636
 40
0.3636363636363636
 40
0.3636363636363636
 40
0.3636363636363636
 40
0.4545454545454545
 40
0.4545454545454545
 40
0.4545454545454545
 40
0.4545454545454545
 40
0.5454545454545454
 40
0.5454545454545454
 40
0.5454545454545454
 40
0.5454545454545454
 40
0.6363636363636364
 40
0.6363636363636364
 40
0.6363636363636364
 40
0.6363636363636364
 40
0.7272727272727273
 40
0.7272727272727273
 40
0.7272727272727273
 40
0.7272727272727273
 40
0.8181818181818182
 40
0.8181818181818182
 40
0.8181818181818182
 40
0.8181818181818182
 40
1.0
 40
1.0
 40
1.0
 40
1.0
 10
36.7134
 20
119.6199
 30
0.0
 10
38.0729
 20
118.263
 30
0.0
 10
39.983
 20
117.6081
 30
0.0
 10
41.2309
 20
116.1221
 30
0.0
 10
41.2309
 20
116.1221
 30
0.0
 10
42.9599
 20
114.2492
 30
0.0
 10
43.7637
 20
111.7585
 30
0.0
 10
44.3119
 20
109.32
 30
0.0
 10
44.3119
 20
109.32
 30
0.0
 10
47.1821
 20
108.7271
 30
0.0
 10
50.035
 20
107.5686
 30
0.0
 10
52.0146
 20
105.326
 30
0.0
 10
52.0146
 20
105.326
 30
0.0
 10
53.4385
 20
103.7532
 30
0.0
 10
54.0141
 20
101.6917
 30
0.0
 10
54.9244
 20
99.8262
 30
0.0
 10
54.9244
 20
99.8262
 30
0.0
 10
55.8324
 20
101.6793
 30
0.0
 10
56.661
 20
103.6044
 30
0.0
 10
57.9733
 20
105.2193
 30
0.0
 10
57.9733
 20
105.2193
 30
0.0
 10
59.9752
 20
107.4669
 30
0.0
 10
62.8008
 20
108.861
 30
0.0
 10
65.7405
 20
109.3969
 30
0.0
 10
65.7405
 20
109.3969
 30
0.0
 10
66.2788
 20
111.9322
 30
0.0
 10
67.1545
 20
114.5989
 30
0.0
 10
69.1341
 20
116.3851
 30
0.0
 10
69.1341
 20
116.3851
 30
0.0
 10
70.3819
 20
117.5981
 30
0.0
 10
71.9249
 20
118.4466
 30
0.0
 10
73.2174
 20
119.6025
 30
0.0
 10
73.2174
 20
119.6025
 30
0.0
 10
68.1691
 20
120.0044
 30
0.0
 10
63.0985
 20
119.7068
 30
0.0
 10
58.0428
 20
119.7837
 30
0.0
 10
58.0428
 20
119.7837
 30
0.0
 10
50.933
 20
119.7142
 30
0.0
 10
43.8183
 20
119.9648
 30
0.0
 10
36.7134
 20
119.6199
 30
0.0
  0
SPLINE
  5
44
330
1F
100
AcDbEntity
  8
layer 1
 62
     7
370
     9
100
AcDbSpline
210
0.0
220
0.0
230
1.0
 70
    11
 71
     3
 72
    72
 73
    68
 74
     0
 42
0.0000000001
 43
0.0000000001
 12
1.0
 22
0.0
 32
0.0
 13
1.0
 23
0.0
 33
0.0
 40
0.0
 40
0.0
 40
0.0
 40
0.0
 40
0.0555555555555556
 40
0.0555555555555556
 40
0.0555555555555556
 40
0.0555555555555556
 40
0.1111111111111111
 40
0.1111111111111111
 40
0.1111111111111111
 40
0.1111111111111111
 40
0.1666666666666667
 40
0.1666666666666667
 40
0.1666666666666667
 40
0.1666666666666667
 40
0.2222222222222222
 40
0.2222222222222222
 40
0.2222222222222222
 40
0.2222222222222222
 40
0.2777777777777778
 40
0.2777777777777778
 40
0.2777777777777778
 40
0.2777777777777778
 40
0.3333333333333333
 40
0.3333333333333333
 40
0.3333333333333333
 40
0.3333333333333333
 40
0.3888888888888889
 40
0.3888888888888889
 40
0.3888888888888889
 40
0.3888888888888889
 40
0.4444444444444444
 40
0.4444444444444444
 40
0.4444444444444444
 40
0.4444444444444444
 40
0.5
 40
0.5
 40
0.5
 40
0.5
 40
0.5555555555555556
 40
0.5555555555555556
 40
0.5555555555555556
 40
0.5555555555555556
 40
0.6111111111111112
 40
0.6111111111111112
 40
0.6111111111111112
 40
0.6111111111111112
 40
0.6666666666666666
 40
0.6666666666666666
 40
0.6666666666666666
 40
0.6666666666666666
 40
0.7222222222222222
 40
0.7222222222222222
 40
0.7222222222222222
 40
0.7222222222222222
 40
0.7777777777777778
 40
0.7777777777777778
 40
0.7777777777777778
 40
0.7777777777777778
 40
0.8333333333333334
 40
0.8333333333333334
 40
0.8333333333333334
 40
0.8333333333333334
 40
0.8888888888888888
 40
0.8888888888888888
 40
0.8888888888888888
 40
0.8888888888888888
 40
1.0
 40
1.0
 40
1.0
 40
1.0
 10
9.5916
 20
95.1773
 30
0.0
 10
8.783
 20
92.9199
 30
0.0
 10
7.8874
 20
90.5681
 30
0.0
 10
6.0045
 20
88.9705
 30
0.0
 10
6.0045
 20
88.9705
 30
0.0
 10
4.1018
 20
87.1075
 30
0.0
 10
1.5913
 20
86.0259
 30
0.0
 10
-1.0035
 20
85.5447
 30
0.0
 10
-1.0035
 20
85.5447
 30
0.0
 10
-1.5939
 20
83.3666
 30
0.0
 10
-2.172
 20
81.0669
 30
0.0
 10
-3.715
 20
79.3379
 30
0.0
 10
-3.715
 20
79.3379
 30
0.0
 10
-5.3746
 20
77.0283
 30
0.0
 10
-8.0736
 20
75.9393
 30
0.0
 10
-10.5419
 20
74.7485
 30
0.0
 10
-10.5419
 20
74.7485
 30
0.0
 10
-8.4755
 20
73.7438
 30
0.0
 10
-6.1436
 20
73.1013
 30
0.0
 10
-4.5609
 20
71.3276
 30
0.0
 10
-4.5609
 20
71.3276
 30
0.0
 10
-2.6309
 20
69.4075
 30
0.0
 10
-1.6014
 20
66.8052
 30
0.0
 10
-0.9936
 20
64.1955
 30
0.0
 10
-0.9936
 20
64.1955
 30
0.0
 10
1.4077
 20
63.5431
 30
0.0
 10
3.8314
 20
62.7046
 30
0.0
 10
5.7193
 20
61.0127
 30
0.0
 10
5.7193
 20
61.0127
 30
0.0
 10
7.8328
 20
59.4772
 30
0.0
 10
8.391
 20
56.7533
 30
0.0
 10
9.748
 20
54.672
 30
0.0
 10
9.748
 20
54.672
 30
0.0
 10
10.517
 20
56.0835
 30
0.0
 10
11.0032
 20
57.6414
 30
0.0
 10
11.9409
 20
58.9662
 30
0.0
 10
11.9409
 20
58.9662
 30
0.0
 10
13.8809
 20
61.8091
 30
0.0
 10
17.0785
 20
63.5481
 30
0.0
 10
20.425
 20
64.1335
 30
0.0
 10
20.425
 20
64.1335
 30
0.0
 10
20.9881
 20
66.2669
 30
0.0
 10
21.5165
 20
68.5169
 30
0.0
 10
23.0025
 20
70.2311
 30
0.0
 10
23.0025
 20
70.2311
 30
0.0
 10
24.6993
 20
72.3596
 30
0.0
 10
27.1229
 20
73.7835
 30
0.0
 10
29.7253
 20
74.5029
 30
0.0
 10
29.7253
 20
74.5029
 30
0.0
 10
29.7277
 20
74.6394
 30
0.0
 10
29.7302
 20
74.9122
 30
0.0
 10
29.7327
 20
75.0462
 30
0.0
 10
29.7327
 20
75.0462
 30
0.0
 10
28.0855
 20
75.6317
 30
0.0
 10
26.473
 20
76.3511
 30
0.0
 10
25.0342
 20
77.3533
 30
0.0
 10
25.0342
 20
77.3533
 30
0.0
 10
22.4616
 20
79.3751
 30
0.0
 10
21.1072
 20
82.4934
 30
0.0
 10
20.3605
 20
85.6017
 30
0.0
 10
20.3605
 20
85.6017
 30
0.0
 10
17.9244
 20
86.1747
 30
0.0
 10
15.4238
 20
86.9265
 30
0.0
 10
13.5956
 20
88.7349
 30
0.0
 10
13.5956
 20
88.7349
 30
0.0
 10
11.5415
 20
90.382
 30
0.0
 10
10.9114
 20
93.0166
 30
0.0
 10
9.5916
 20
95.1773
 30
0.0
  0
SPLINE
  5
45
330
1F
100
AcDbEntity
  8
layer 1
 62
     7
370
     9
100
AcDbSpline
210
0.0
220
0.0
230
1.0
 70
    11
 71
     3
 72
    72
 73
    68
 74
     0
 42
0.0000000001
 43
0.0000000001
 12
1.0
 22
0.0
 32
0.0
 13
1.0
 23
0.0
 33
0.0
 40
0.0
 40
0.0
 40
0.0
 40
0.0
 40
0.0555555555555556
 40
0.0555555555555556
 40
0.0555555555555556
 40
0.0555555555555556
 40
0.1111111111111111
 40
0.1111111111111111
 40
0.1111111111111111
 40
0.1111111111111111
 40
0.1666666666666667
 40
0.1666666666666667
 40
0.1666666666666667
 40
0.1666666666666667
 40
0.2222222222222222
 40
0.2222222222222222
 40
0.2222222222222222
 40
0.2222222222222222
 40
0.2777777777777778
 40
0.2777777777777778
 40
0.2777777777777778
 40
0.2777777777777778
 40
0.3333333333333333
 40
0.3333333333333333
 40
0.3333333333333333
 40
0.3333333333333333
 40
0.3888888888888889
 40
0.3888888888888889
 40
0.3888888888888889
 40
0.3888888888888889
 40
0.4444444444444444
 40
0.4444444444444444
 40
0.4444444444444444
 40
0.4444444444444444
 40
0.5
 40
0.5
 40
0.5
 40
0.5
 40
0.5555555555555556
 40
0.5555555555555556
 40
0.5555555555555556
 40
0.5555555555555556
 40
0.6111111111111112
 40
0.6111111111111112
 40
0.6111111111111112
 40
0.6111111111111112
 40
0.6666666666666666
 40
0.6666666666666666
 40
0.6666666666666666
 40
0.6666666666666666
 40
0.7222222222222222
 40
0.7222222222222222
 40
0.7222222222222222
 40
0.7222222222222222
 40
0.7777777777777778
 40
0.7777777777777778
 40
0.7777777777777778
 40
0.7777777777777778
 40
0.8333333333333334
 40
0.8333333333333334
 40
0.8333333333333334
 40
0.8333333333333334
 40
0.8888888888888888
 40
0.8888888888888888
 40
0.8888888888888888
 40
0.8888888888888888
 40
1.0
 40
1.0
 40
1.0
 40
1.0
 10
51.511
 20
89.1119
 30
0.0
 10
49.5761
 20
87.1993
 30
0.0
 10
46.9936
 20
86.15
 30
0.0
 10
44.3789
 20
85.5471
 30
0.0
 10
44.3789
 20
85.5471
 30
0.0
 10
43.7339
 20
83.5179
 30
0.0
 10
43.1609
 20
81.3845
 30
0.0
 10
41.8734
 20
79.648
 30
0.0
 10
41.8734
 20
79.648
 30
0.0
 10
40.2361
 20
77.3334
 30
0.0
 10
37.6462
 20
75.9194
 30
0.0
 10
35.0042
 20
75.0561
 30
0.0
 10
35.0042
 20
75.0561
 30
0.0
 10
35.0018
 20
74.9197
 30
0.0
 10
34.9992
 20
74.6518
 30
0.0
 10
34.9992
 20
74.5178
 30
0.0
 10
34.9992
 20
74.5178
 30
0.0
 10
39.8417
 20
73.2924
 30
0.0
 10
43.5702
 20
69.0552
 30
0.0
 10
44.3144
 20
64.1335
 30
0.0
 10
44.3144
 20
64.1335
 30
0.0
 10
45.8624
 20
63.6845
 30
0.0
 10
47.4972
 20
63.3769
 30
0.0
 10
48.8765
 20
62.4938
 30
0.0
 10
48.8765
 20
62.4938
 30
0.0
 10
51.8037
 20
60.9135
 30
0.0
 10
53.7784
 20
57.9614
 30
0.0
 10
54.7136
 20
54.8209
 30
0.0
 10
54.7136
 20
54.8209
 30
0.0
 10
54.8426
 20
54.8233
 30
0.0
 10
55.1031
 20
54.8233
 30
0.0
 10
55.2321
 20
54.8233
 30
0.0
 10
55.2321
 20
54.8233
 30
0.0
 10
55.8126
 20
56.535
 30
0.0
 10
56.594
 20
58.1847
 30
0.0
 10
57.6557
 20
59.6533
 30
0.0
 10
57.6557
 20
59.6533
 30
0.0
 10
59.675
 20
62.1588
 30
0.0
 10
62.7338
 20
63.4364
 30
0.0
 10
65.7777
 20
64.1955
 30
0.0
 10
65.7777
 20
64.1955
 30
0.0
 10
66.3334
 20
66.324
 30
0.0
 10
66.9387
 20
68.5268
 30
0.0
 10
68.3577
 20
70.2659
 30
0.0
 10
68.3577
 20
70.2659
 30
0.0
 10
69.9676
 20
72.6275
 30
0.0
 10
72.7386
 20
73.6793
 30
0.0
 10
75.2466
 20
74.7783
 30
0.0
 10
75.2466
 20
74.7783
 30
0.0
 10
73.3935
 20
75.6565
 30
0.0
 10
71.4834
 20
76.485
 30
0.0
 10
69.8808
 20
77.7924
 30
0.0
 10
69.8808
 20
77.7924
 30
0.0
 10
67.6333
 20
79.7968
 30
0.0
 10
66.2391
 20
82.6174
 30
0.0
 10
65.7032
 20
85.5546
 30
0.0
 10
65.7032
 20
85.5546
 30
0.0
 10
62.4461
 20
86.1375
 30
0.0
 10
59.2608
 20
87.7823
 30
0.0
 10
57.3432
 20
90.5434
 30
0.0
 10
57.3432
 20
90.5434
 30
0.0
 10
56.3062
 20
91.9301
 30
0.0
 10
55.7183
 20
93.5772
 30
0.0
 10
54.927
 20
95.098
 30
0.0
 10
54.927
 20
95.098
 30
0.0
 10
53.9272
 20
93.0389
 30
0.0
 10
53.3269
 20
90.6475
 30
0.0
 10
51.511
 20
89.1119
 30
0.0
  0
SPLINE
  5
46
330
1F
100
AcDbEntity
  8
layer 1
 62
     7
370
     9
100
AcDbSpline
210
0.0
220
0.0
230
1.0
 70
    11
 71
     3
 72
    68
 73
    64
 74
     0
 42
0.0000000001
 43
0.0000000001
 12
1.0
 22
0.0
 32
0.0
 13
1.0
 23
0.0
 33
0.0
 40
0.0
 40
0.0
 40
0.0
 40
0.0
 40
0.0588235294117647
 40
0.0588235294117647
 40
0.0588235294117647
 40
0.0588235294117647
 40
0.1176470588235294
 40
0.1176470588235294
 40
0.1176470588235294
 40
0.1176470588235294
 40
0.1764705882352941
 40
0.1764705882352941
 40
0.1764705882352941
 40
0.1764705882352941
 40
0.2352941176470588
 40
0.2352941176470588
 40
0.2352941176470588
 40
0.2352941176470588
 40
0.2941176470588235
 40
0.2941176470588235
 40
0.2941176470588235
 40
0.2941176470588235
 40
0.3529411764705883
 40
0.3529411764705883
 40
0.3529411764705883
 40
0.3529411764705883
 40
0.4117647058823529
 40
0.4117647058823529
 40
0.4117647058823529
 40
0.4117647058823529
 40
0.4705882352941176
 40
0.4705882352941176
 40
0.4705882352941176
 40
0.4705882352941176
 40
0.5294117647058824
 40
0.5294117647058824
 40
0.5294117647058824
 40
0.5294117647058824
 40
0.5882352941176471
 40
0.5882352941176471
 40
0.5882352941176471
 40
0.5882352941176471
 40
0.6470588235294118
 40
0.6470588235294118
 40
0.6470588235294118
 40
0.6470588235294118
 40
0.7058823529411765
 40
0.7058823529411765
 40
0.7058823529411765
 40
0.7058823529411765
 40
0.7647058823529411
 40
0.7647058823529411
 40
0.7647058823529411
 40
0.7647058823529411
 40
0.8235294117647058
 40
0.8235294117647058
 40
0.8235294117647058
 40
0.8235294117647058
 40
0.8823529411764706
 40
0.8823529411764706
 40
0.8823529411764706
 40
0.8823529411764706
 40
1.0
 40
1.0
 40
1.0
 40
1.0
 10
100.3144
 20
95.0732
 30
0.0
 10
99.5825
 20
93.5301
 30
0.0
 10
98.9053
 20
91.9524
 30
0.0
 10
97.98
 20
90.5111
 30
0.0
 10
97.98
 20
90.5111
 30
0.0
 10
95.9706
 20
87.7872
 30
0.0
 10
92.8226
 20
86.145
 30
0.0
 10
89.5381
 20
85.5397
 30
0.0
 10
89.5381
 20
85.5397
 30
0.0
 10
89.0072
 20
83.7685
 30
0.0
 10
88.6996
 20
81.8633
 30
0.0
 10
87.551
 20
80.355
 30
0.0
 10
87.551
 20
80.355
 30
0.0
 10
85.9187
 20
77.5269
 30
0.0
 10
82.8699
 20
76.0236
 30
0.0
 10
80.0022
 20
74.7435
 30
0.0
 10
80.0022
 20
74.7435
 30
0.0
 10
82.0612
 20
73.7463
 30
0.0
 10
84.4526
 20
73.1459
 30
0.0
 10
85.9882
 20
71.3301
 30
0.0
 10
85.9882
 20
71.3301
 30
0.0
 10
87.9008
 20
69.3976
 30
0.0
 10
88.9501
 20
66.8127
 30
0.0
 10
89.553
 20
64.198
 30
0.0
 10
89.553
 20
64.198
 30
0.0
 10
91.9072
 20
63.4637
 30
0.0
 10
94.4325
 20
62.7617
 30
0.0
 10
96.2683
 20
61.0152
 30
0.0
 10
96.2683
 20
61.0152
 30
0.0
 10
98.2504
 20
59.3804
 30
0.0
 10
99.2154
 20
56.9146
 30
0.0
 10
100.2523
 20
54.6373
 30
0.0
 10
100.2523
 20
54.6373
 30
0.0
 10
101.3315
 20
56.9989
 30
0.0
 10
102.4354
 20
59.4821
 30
0.0
 10
104.5168
 20
61.1492
 30
0.0
 10
104.5168
 20
61.1492
 30
0.0
 10
106.3029
 20
62.7939
 30
0.0
 10
108.6298
 20
63.6299
 30
0.0
 10
110.9666
 20
64.1335
 30
0.0
 10
110.9666
 20
64.1335
 30
0.0
 10
111.7207
 20
69.0206
 30
0.0
 10
115.4195
 20
73.3494
 30
0.0
 10
120.2743
 20
74.4955
 30
0.0
 10
120.2743
 20
74.4955
 30
0.0
 10
120.2743
 20
74.6369
 30
0.0
 10
120.2793
 20
74.9148
 30
0.0
 10
120.2793
 20
75.0537
 30
0.0
 10
120.2793
 20
75.0537
 30
0.0
 10
118.5651
 20
75.6292
 30
0.0
 10
116.9154
 20
76.4131
 30
0.0
 10
115.4468
 20
77.4748
 30
0.0
 10
115.4468
 20
77.4748
 30
0.0
 10
112.9413
 20
79.4941
 30
0.0
 10
111.6637
 20
82.5554
 30
0.0
 10
110.9046
 20
85.5968
 30
0.0
 10
110.9046
 20
85.5968
 30
0.0
 10
108.7736
 20
86.1524
 30
0.0
 10
106.5733
 20
86.7578
 30
0.0
 10
104.8342
 20
88.1767
 30
0.0
 10
104.8342
 20
88.1767
 30
0.0
 10
102.4701
 20
89.7892
 30
0.0
 10
101.4208
 20
92.5651
 30
0.0
 10
100.3144
 20
95.0732
 30
0.0
  0
SPLINE
  5
47
330
1F
100
AcDbEntity
  8
layer 1
 62
     7
370
     9
100
AcDbSpline
210
0.0
220
0.0
230
1.0
 70
    11
 71
     3
 72
    72
 73
    68
 74
     0
 42
0.0000000001
 43
0.0000000001
 12
1.0
 22
0.0
 32
0.0
 13
1.0
 23
0.0
 33
0.0
 40
0.0
 40
0.0
 40
0.0
 40
0.0
 40
0.0555555555555556
 40
0.0555555555555556
 40
0.0555555555555556
 40
0.0555555555555556
 40
0.1111111111111111
 40
0.1111111111111111
 40
0.1111111111111111
 40
0.1111111111111111
 40
0.1666666666666667
 40
0.1666666666666667
 40
0.1666666666666667
 40
0.1666666666666667
 40
0.2222222222222222
 40
0.2222222222222222
 40
0.2222222222222222
 40
0.2222222222222222
 40
0.2777777777777778
 40
0.2777777777777778
 40
0.2777777777777778
 40
0.2777777777777778
 40
0.3333333333333333
 40
0.3333333333333333
 40
0.3333333333333333
 40
0.3333333333333333
 40
0.3888888888888889
 40
0.3888888888888889
 40
0.3888888888888889
 40
0.3888888888888889
 40
0.4444444444444444
 40
0.4444444444444444
 40
0.4444444444444444
 40
0.4444444444444444
 40
0.5
 40
0.5
 40
0.5
 40
0.5
 40
0.5555555555555556
 40
0.5555555555555556
 40
0.5555555555555556
 40
0.5555555555555556
 40
0.6111111111111112
 40
0.6111111111111112
 40
0.6111111111111112
 40
0.6111111111111112
 40
0.6666666666666666
 40
0.6666666666666666
 40
0.6666666666666666
 40
0.6666666666666666
 40
0.7222222222222222
 40
0.7222222222222222
 40
0.7222222222222222
 40
0.7222222222222222
 40
0.7777777777777778
 40
0.7777777777777778
 40
0.7777777777777778
 40
0.7777777777777778
 40
0.8333333333333334
 40
0.8333333333333334
 40
0.8333333333333334
 40
0.8333333333333334
 40
0.8888888888888888
 40
0.8888888888888888
 40
0.8888888888888888
 40
0.8888888888888888
 40
1.0
 40
1.0
 40
1.0
 40
1.0
 10
142.06
 20
89.1119
 30
0.0
 10
140.1226
 20
87.1993
 30
0.0
 10
137.5377
 20
86.1475
 30
0.0
 10
134.9205
 20
85.5471
 30
0.0
 10
134.9205
 20
85.5471
 30
0.0
 10
134.216
 20
83.3616
 30
0.0
 10
133.6529
 20
81.0024
 30
0.0
 10
132.1148
 20
79.2213
 30
0.0
 10
132.1148
 20
79.2213
 30
0.0
 10
130.4924
 20
77.1127
 30
0.0
 10
128.0092
 20
75.9194
 30
0.0
 10
125.5533
 20
75.0462
 30
0.0
 10
125.5533
 20
75.0462
 30
0.0
 10
125.5508
 20
74.9172
 30
0.0
 10
125.5484
 20
74.6592
 30
0.0
 10
125.5484
 20
74.5302
 30
0.0
 10
125.5484
 20
74.5302
 30
0.0
 10
127.9522
 20
73.7811
 30
0.0
 10
130.294
 20
72.5903
 30
0.0
 10
131.9312
 20
70.6255
 30
0.0
 10
131.9312
 20
70.6255
 30
0.0
 10
133.628
 20
68.8642
 30
0.0
 10
134.273
 20
66.4331
 30
0.0
 10
134.8585
 20
64.1335
 30
0.0
 10
134.8585
 20
64.1335
 30
0.0
 10
136.7736
 20
63.6497
 30
0.0
 10
138.7309
 20
63.1337
 30
0.0
 10
140.3409
 20
61.9232
 30
0.0
 10
140.3409
 20
61.9232
 30
0.0
 10
142.9482
 20
60.266
 30
0.0
 10
144.2381
 20
57.3537
 30
0.0
 10
145.5405
 20
54.6745
 30
0.0
 10
145.5405
 20
54.6745
 30
0.0
 10
146.3244
 20
55.7685
 30
0.0
 10
146.6792
 20
57.1056
 30
0.0
 10
147.3713
 20
58.2566
 30
0.0
 10
147.3713
 20
58.2566
 30
0.0
 10
149.0483
 20
61.6726
 30
0.0
 10
152.8165
 20
63.3396
 30
0.0
 10
156.3243
 20
64.193
 30
0.0
 10
156.3243
 20
64.193
 30
0.0
 10
156.9271
 20
66.6068
 30
0.0
 10
157.6911
 20
69.1198
 30
0.0
 10
159.4574
 20
70.9579
 30
0.0
 10
159.4574
 20
70.9579
 30
0.0
 10
161.1121
 20
72.883
 30
0.0
 10
163.5555
 20
73.7587
 30
0.0
 10
165.7957
 20
74.7783
 30
0.0
 10
165.7957
 20
74.7783
 30
0.0
 10
164.0592
 20
75.6416
 30
0.0
 10
162.2259
 20
76.3585
 30
0.0
 10
160.6854
 20
77.5592
 30
0.0
 10
160.6854
 20
77.5592
 30
0.0
 10
158.3113
 20
79.5909
 30
0.0
 10
156.7956
 20
82.4983
 30
0.0
 10
156.2498
 20
85.557
 30
0.0
 10
156.2498
 20
85.557
 30
0.0
 10
153.8857
 20
85.9688
 30
0.0
 10
151.6232
 20
86.9338
 30
0.0
 10
149.7801
 20
88.4843
 30
0.0
 10
149.7801
 20
88.4843
 30
0.0
 10
147.6367
 20
90.1662
 30
0.0
 10
146.5774
 20
92.6916
 30
0.0
 10
145.6844
 20
95.1724
 30
0.0
 10
145.6844
 20
95.1724
 30
0.0
 10
144.4143
 20
93.1878
 30
0.0
 10
143.9281
 20
90.6748
 30
0.0
 10
142.06
 20
89.1119
 30
0.0
  0
SPLINE
  5
48
330
1F
100
AcDbEntity
  8
layer 1
 62
     7
370
     9
100
AcDbSpline
210
0.0
220
0.0
230
1.0
 70
    11
 71
     3
 72
    44
 73
    40
 74
     0
 42
0.0000000001
 43
0.0000000001
 12
1.0
 22
0.0
 32
0.0
 13
1.0
 23
0.0
 33
0.0
 40
0.0
 40
0.0
 40
0.0
 40
0.0
 40
0.0909090909090909
 40
0.0909090909090909
 40
0.0909090909090909
 40
0.0909090909090909
 40
0.1818181818181818
 40
0.1818181818181818
 40
0.1818181818181818
 40
0.1818181818181818
 40
0.2727272727272727
 40
0.2727272727272727
 40
0.2727272727272727
 40
0.2727272727272727
 40
0.3636363636363636
 40
0.3636363636363636
 40
0.3636363636363636
 40
0.3636363636363636
 40
0.4545454545454545
 40
0.4545454545454545
 40
0.4545454545454545
 40
0.4545454545454545
 40
0.5454545454545454
 40
0.5454545454545454
 40
0.5454545454545454
 40
0.5454545454545454
 40
0.6363636363636364
 40
0.6363636363636364
 40
0.6363636363636364
 40
0.6363636363636364
 40
0.7272727272727273
 40
0.7272727272727273
 40
0.7272727272727273
 40
0.7272727272727273
 40
0.8181818181818182
 40
0.8181818181818182
 40
0.8181818181818182
 40
0.8181818181818182
 40
1.0
 40
1.0
 40
1.0
 40
1.0
 10
187.249
 20
89.0624
 30
0.0
 10
185.324
 20
87.1298
 30
0.0
 10
182.7291
 20
86.0234
 30
0.0
 10
180.0822
 20
85.5248
 30
0.0
 10
180.0822
 20
85.5248
 30
0.0
 10
179.4298
 20
83.1359
 30
0.0
 10
178.8517
 20
80.5262
 30
0.0
 10
176.9639
 20
78.7623
 30
0.0
 10
176.9639
 20
78.7623
 30
0.0
 10
175.2299
 20
76.8448
 30
0.0
 10
172.826
 20
75.8351
 30
0.0
 10
170.5487
 20
74.7435
 30
0.0
 10
170.5487
 20
74.7435
 30
0.0
 10
172.7789
 20
73.6967
 30
0.0
 10
175.339
 20
72.9947
 30
0.0
 10
176.9019
 20
70.9431
 30
0.0
 10
176.9019
 20
70.9431
 30
0.0
 10
178.7426
 20
69.1198
 30
0.0
 10
179.5389
 20
66.5968
 30
0.0
 10
180.0846
 20
64.1286
 30
0.0
 10
180.0846
 20
64.1286
 30
0.0
 10
182.6696
 20
63.553
 30
0.0
 10
185.3363
 20
62.6401
 30
0.0
 10
187.2019
 20
60.663
 30
0.0
 10
187.2019
 20
60.663
 30
0.0
 10
188.4546
 20
59.4474
 30
0.0
 10
189.1666
 20
57.8101
 30
0.0
 10
190.3474
 20
56.535
 30
0.0
 10
190.3474
 20
56.535
 30
0.0
 10
190.6923
 20
63.6374
 30
0.0
 10
190.4392
 20
70.7546
 30
0.0
 10
190.5112
 20
77.8619
 30
0.0
 10
190.5112
 20
77.8619
 30
0.0
 10
190.4392
 20
82.9151
 30
0.0
 10
190.7171
 20
87.9758
 30
0.0
 10
190.3449
 20
93.0191
 30
0.0
 10
190.3449
 20
93.0191
 30
0.0
 10
189.0252
 20
91.94
 30
0.0
 10
188.5092
 20
90.1985
 30
0.0
 10
187.249
 20
89.0624
 30
0.0
  0
SPLINE
  5
49
330
1F
100
AcDbEntity
  8
layer 1
 62
     7
370
     9
100
AcDbSpline
210
0.0
220
0.0
230
1.0
 70
    11
 71
     3
 72
    64
 73
    60
 74
     0
 42
0.0000000001
 43
0.0000000001
 12
1.0
 22
0.0
 32
0.0
 13
1.0
 23
0.0
 33
0.0
 40
0.0
 40
0.0
 40
0.0
 40
0.0
 40
0.0625
 40
0.0625
 40
0.0625
 40
0.0625
 40
0.125
 40
0.125
 40
0.125
 40
0.125
 40
0.1875
 40
0.1875
 40
0.1875
 40
0.1875
 40
0.25
 40
0.25
 40
0.25
 40
0.25
 40
0.3125
 40
0.3125
 40
0.3125
 40
0.3125
 40
0.375
 40
0.375
 40
0.375
 40
0.375
 40
0.4375
 40
0.4375
 40
0.4375
 40
0.4375
 40
0.5
 40
0.5
 40
0.5
 40
0.5
 40
0.5625
 40
0.5625
 40
0.5625
 40
0.5625
 40
0.625
 40
0.625
 40
0.625
 40
0.625
 40
0.6875
 40
0.6875
 40
0.6875
 40
0.6875
 40
0.75
 40
0.75
 40
0.75
 40
0.75
 40
0.8125
 40
0.8125
 40
0.8125
 40
0.8125
 40
0.875
 40
0.875
 40
0.875
 40
0.875
 40
1.0
 40
1.0
 40
1.0
 40
1.0
 10
-20.8469
 20
67.6933
 30
0.0
 10
-22.1344
 20
65.9271
 30
0.0
 10
-22.2609
 20
63.6647
 30
0.0
 10
-22.447
 20
61.566
 30
0.0
 10
-22.447
 20
61.566
 30
0.0
 10
-24.0719
 20
61.4022
 30
0.0
 10
-25.8033
 20
61.5262
 30
0.0
 10
-27.2918
 20
60.7398
 30
0.0
 10
-27.2918
 20
60.7398
 30
0.0
 10
-30.9509
 20
59.1571
 30
0.0
 10
-33.5234
 20
55.0416
 30
0.0
 10
-32.8238
 20
51.0327
 30
0.0
 10
-32.8238
 20
51.0327
 30
0.0
 10
-32.3847
 20
46.0291
 30
0.0
 10
-27.3142
 20
42.3031
 30
0.0
 10
-22.4073
 20
42.7719
 30
0.0
 10
-22.4073
 20
42.7719
 30
0.0
 10
-22.1443
 20
40.7005
 30
0.0
 10
-22.1418
 20
38.4356
 30
0.0
 10
-20.8568
 20
36.6743
 30
0.0
 10
-20.8568
 20
36.6743
 30
0.0
 10
-19.0534
 20
33.5685
 30
0.0
 10
-15.2851
 20
31.5864
 30
0.0
 10
-11.6905
 20
32.2586
 30
0.0
 10
-11.6905
 20
32.2586
 30
0.0
 10
-8.922
 20
32.5935
 30
0.0
 10
-6.3843
 20
34.2904
 30
0.0
 10
-4.9454
 20
36.6669
 30
0.0
 10
-4.9454
 20
36.6669
 30
0.0
 10
-3.6431
 20
38.3984
 30
0.0
 10
-3.772
 20
40.7253
 30
0.0
 10
-3.6158
 20
42.7695
 30
0.0
 10
-3.6158
 20
42.7695
 30
0.0
 10
-2.0206
 20
42.9332
 30
0.0
 10
-0.3933
 20
43.0026
 30
0.0
 10
1.1522
 20
43.474
 30
0.0
 10
1.1522
 20
43.474
 30
0.0
 10
3.9108
 20
44.4911
 30
0.0
 10
5.8904
 20
47.0016
 30
0.0
 10
6.7934
 20
49.7353
 30
0.0
 10
6.7934
 20
49.7353
 30
0.0
 10
7.6319
 20
53.3969
 30
0.0
 10
6.3592
 20
57.5645
 30
0.0
 10
3.2137
 20
59.7451
 30
0.0
 10
3.2137
 20
59.7451
 30
0.0
 10
1.2961
 20
61.3055
 30
0.0
 10
-1.2764
 20
61.4791
 30
0.0
 10
-3.6381
 20
61.6155
 30
0.0
 10
-3.6381
 20
61.6155
 30
0.0
 10
-3.7968
 20
63.3446
 30
0.0
 10
-3.7819
 20
65.1307
 30
0.0
 10
-4.3947
 20
66.7779
 30
0.0
 10
-4.3947
 20
66.7779
 30
0.0
 10
-5.3646
 20
68.6931
 30
0.0
 10
-6.9325
 20
70.3353
 30
0.0
 10
-8.917
 20
71.2011
 30
0.0
 10
-8.917
 20
71.2011
 30
0.0
 10
-12.9879
 20
73.4288
 30
0.0
 10
-18.5919
 20
71.727
 30
0.0
 10
-20.8469
 20
67.6933
 30
0.0
  0
SPLINE
  5
4A
330
1F
100
AcDbEntity
  8
layer 1
 62
     7
370
     9
100
AcDbSpline
210
0.0
220
0.0
230
1.0
 70
    11
 71
     3
 72
    60
 73
    56
 74
     0
 42
0.0000000001
 43
0.0000000001
 12
1.0
 22
0.0
 32
0.0
 13
1.0
 23
0.0
 33
0.0
 40
0.0
 40
0.0
 40
0.0
 40
0.0
 40
0.0666666666666667
 40
0.0666666666666667
 40
0.0666666666666667
 40
0.0666666666666667
 40
0.1333333333333333
 40
0.1333333333333333
 40
0.1333333333333333
 40
0.1333333333333333
 40
0.2
 40
0.2
 40
0.2
 40
0.2
 40
0.2666666666666667
 40
0.2666666666666667
 40
0.2666666666666667
 40
0.2666666666666667
 40
0.3333333333333333
 40
0.3333333333333333
 40
0.3333333333333333
 40
0.3333333333333333
 40
0.4
 40
0.4
 40
0.4
 40
0.4
 40
0.4666666666666667
 40
0.4666666666666667
 40
0.4666666666666667
 40
0.4666666666666667
 40
0.5333333333333333
 40
0.5333333333333333
 40
0.5333333333333333
 40
0.5333333333333333
 40
0.6
 40
0.6
 40
0.6
 40
0.6
 40
0.6666666666666666
 40
0.6666666666666666
 40
0.6666666666666666
 40
0.6666666666666666
 40
0.7333333333333333
 40
0.7333333333333333
 40
0.7333333333333333
 40
0.7333333333333333
 40
0.8
 40
0.8
 40
0.8
 40
0.8
 40
0.8666666666666667
 40
0.8666666666666667
 40
0.8666666666666667
 40
0.8666666666666667
 40
1.0
 40
1.0
 40
1.0
 40
1.0
 10
25.0466
 20
68.6881
 30
0.0
 10
23.4093
 20
66.7085
 30
0.0
 10
22.8933
 20
64.074
 30
0.0
 10
22.9528
 20
61.566
 30
0.0
 10
22.9528
 20
61.566
 30
0.0
 10
21.4966
 20
61.4345
 30
0.0
 10
19.9983
 20
61.4791
 30
0.0
 10
18.6066
 20
60.973
 30
0.0
 10
18.6066
 20
60.973
 30
0.0
 10
14.0595
 20
59.6607
 30
0.0
 10
11.3505
 20
54.3222
 30
0.0
 10
12.6529
 20
49.8222
 30
0.0
 10
12.6529
 20
49.8222
 30
0.0
 10
13.6129
 20
45.2205
 30
0.0
 10
18.4801
 20
42.4048
 30
0.0
 10
22.995
 20
42.7719
 30
0.0
 10
22.995
 20
42.7719
 30
0.0
 10
23.1513
 20
41.0677
 30
0.0
 10
23.0595
 20
39.2617
 30
0.0
 10
23.8559
 20
37.6914
 30
0.0
 10
23.8559
 20
37.6914
 30
0.0
 10
25.3393
 20
34.2035
 30
0.0
 10
29.1696
 20
31.8096
 30
0.0
 10
32.9825
 20
32.2363
 30
0.0
 10
32.9825
 20
32.2363
 30
0.0
 10
36.3141
 20
32.2388
 30
0.0
 10
39.1247
 20
34.6128
 30
0.0
 10
40.7496
 20
37.3491
 30
0.0
 10
40.7496
 20
37.3491
 30
0.0
 10
41.6228
 20
39.0434
 30
0.0
 10
41.7592
 20
40.9461
 30
0.0
 10
41.7816
 20
42.8141
 30
0.0
 10
41.7816
 20
42.8141
 30
0.0
 10
42.9748
 20
42.9158
 30
0.0
 10
44.1854
 20
42.9332
 30
0.0
 10
45.3687
 20
43.1564
 30
0.0
 10
45.3687
 20
43.1564
 30
0.0
 10
47.9983
 20
43.7469
 30
0.0
 10
50.1193
 20
45.7612
 30
0.0
 10
51.3721
 20
48.0757
 30
0.0
 10
51.3721
 20
48.0757
 30
0.0
 10
53.3591
 20
51.6554
 30
0.0
 10
52.28
 20
56.4879
 30
0.0
 10
49.189
 20
59.0902
 30
0.0
 10
49.189
 20
59.0902
 30
0.0
 10
47.2814
 20
61.1045
 30
0.0
 10
44.4012
 20
61.6627
 30
0.0
 10
41.7394
 20
61.6007
 30
0.0
 10
41.7394
 20
61.6007
 30
0.0
 10
41.8362
 20
64.5379
 30
0.0
 10
41.0597
 20
67.7355
 30
0.0
 10
38.6509
 20
69.6357
 30
0.0
 10
38.6509
 20
69.6357
 30
0.0
 10
34.9968
 20
73.4089
 30
0.0
 10
28.1772
 20
72.8309
 30
0.0
 10
25.0466
 20
68.6881
 30
0.0
  0
SPLINE
  5
4B
330
1F
100
AcDbEntity
  8
layer 1
 62
     7
370
     9
100
AcDbSpline
210
0.0
220
0.0
230
1.0
 70
    11
 71
     3
 72
    64
 73
    60
 74
     0
 42
0.0000000001
 43
0.0000000001
 12
1.0
 22
0.0
 32
0.0
 13
1.0
 23
0.0
 33
0.0
 40
0.0
 40
0.0
 40
0.0
 40
0.0
 40
0.0625
 40
0.0625
 40
0.0625
 40
0.0625
 40
0.125
 40
0.125
 40
0.125
 40
0.125
 40
0.1875
 40
0.1875
 40
0.1875
 40
0.1875
 40
0.25
 40
0.25
 40
0.25
 40
0.25
 40
0.3125
 40
0.3125
 40
0.3125
 40
0.3125
 40
0.375
 40
0.375
 40
0.375
 40
0.375
 40
0.4375
 40
0.4375
 40
0.4375
 40
0.4375
 40
0.5
 40
0.5
 40
0.5
 40
0.5
 40
0.5625
 40
0.5625
 40
0.5625
 40
0.5625
 40
0.625
 40
0.625
 40
0.625
 40
0.625
 40
0.6875
 40
0.6875
 40
0.6875
 40
0.6875
 40
0.75
 40
0.75
 40
0.75
 40
0.75
 40
0.8125
 40
0.8125
 40
0.8125
 40
0.8125
 40
0.875
 40
0.875
 40
0.875
 40
0.875
 40
1.0
 40
1.0
 40
1.0
 40
1.0
 10
75.1846
 20
71.8808
 30
0.0
 10
73.0016
 20
71.0622
 30
0.0
 10
70.8383
 20
69.8243
 30
0.0
 10
69.7046
 20
67.6909
 30
0.0
 10
69.7046
 20
67.6909
 30
0.0
 10
68.4271
 20
65.9568
 30
0.0
 10
68.3105
 20
63.7341
 30
0.0
 10
68.0674
 20
61.6726
 30
0.0
 10
68.0674
 20
61.6726
 30
0.0
 10
64.7358
 20
61.566
 30
0.0
 10
61.1759
 20
60.4397
 30
0.0
 10
59.3278
 20
57.4727
 30
0.0
 10
59.3278
 20
57.4727
 30
0.0
 10
56.4973
 20
53.8087
 30
0.0
 10
57.3209
 20
48.1105
 30
0.0
 10
60.836
 20
45.1807
 30
0.0
 10
60.836
 20
45.1807
 30
0.0
 10
62.7586
 20
43.2457
 30
0.0
 10
65.5619
 20
42.958
 30
0.0
 10
68.1368
 20
42.7397
 30
0.0
 10
68.1368
 20
42.7397
 30
0.0
 10
68.4048
 20
40.6782
 30
0.0
 10
68.4097
 20
38.4257
 30
0.0
 10
69.6873
 20
36.6694
 30
0.0
 10
69.6873
 20
36.6694
 30
0.0
 10
70.7863
 20
34.7096
 30
0.0
 10
72.7559
 20
33.3874
 30
0.0
 10
74.81
 20
32.5811
 30
0.0
 10
74.81
 20
32.5811
 30
0.0
 10
78.8065
 20
31.249
 30
0.0
 10
83.4727
 20
33.0674
 30
0.0
 10
85.6037
 20
36.6669
 30
0.0
 10
85.6037
 20
36.6669
 30
0.0
 10
86.9011
 20
38.3984
 30
0.0
 10
86.7746
 20
40.7253
 30
0.0
 10
86.9308
 20
42.7695
 30
0.0
 10
86.9308
 20
42.7695
 30
0.0
 10
88.5259
 20
42.9332
 30
0.0
 10
90.1508
 20
43.0026
 30
0.0
 10
91.6988
 20
43.474
 30
0.0
 10
91.6988
 20
43.474
 30
0.0
 10
94.4574
 20
44.4911
 30
0.0
 10
96.437
 20
47.0016
 30
0.0
 10
97.34
 20
49.7353
 30
0.0
 10
97.34
 20
49.7353
 30
0.0
 10
98.176
 20
53.3969
 30
0.0
 10
96.9058
 20
57.5645
 30
0.0
 10
93.7603
 20
59.7451
 30
0.0
 10
93.7603
 20
59.7451
 30
0.0
 10
91.8427
 20
61.3055
 30
0.0
 10
89.2701
 20
61.4791
 30
0.0
 10
86.9085
 20
61.6155
 30
0.0
 10
86.9085
 20
61.6155
 30
0.0
 10
86.7497
 20
63.3446
 30
0.0
 10
86.7621
 20
65.1307
 30
0.0
 10
86.1519
 20
66.7779
 30
0.0
 10
86.1519
 20
66.7779
 30
0.0
 10
84.2318
 20
70.69
 30
0.0
 10
79.4812
 20
73.1881
 30
0.0
 10
75.1846
 20
71.8808
 30
0.0
  0
SPLINE
  5
4C
330
1F
100
AcDbEntity
  8
layer 1
 62
     7
370
     9
100
AcDbSpline
210
0.0
220
0.0
230
1.0
 70
    11
 71
     3
 72
    72
 73
    68
 74
     0
 42
0.0000000001
 43
0.0000000001
 12
1.0
 22
0.0
 32
0.0
 13
1.0
 23
0.0
 33
0.0
 40
0.0
 40
0.0
 40
0.0
 40
0.0
 40
0.0555555555555556
 40
0.0555555555555556
 40
0.0555555555555556
 40
0.0555555555555556
 40
0.1111111111111111
 40
0.1111111111111111
 40
0.1111111111111111
 40
0.1111111111111111
 40
0.1666666666666667
 40
0.1666666666666667
 40
0.1666666666666667
 40
0.1666666666666667
 40
0.2222222222222222
 40
0.2222222222222222
 40
0.2222222222222222
 40
0.2222222222222222
 40
0.2777777777777778
 40
0.2777777777777778
 40
0.2777777777777778
 40
0.2777777777777778
 40
0.3333333333333333
 40
0.3333333333333333
 40
0.3333333333333333
 40
0.3333333333333333
 40
0.3888888888888889
 40
0.3888888888888889
 40
0.3888888888888889
 40
0.3888888888888889
 40
0.4444444444444444
 40
0.4444444444444444
 40
0.4444444444444444
 40
0.4444444444444444
 40
0.5
 40
0.5
 40
0.5
 40
0.5
 40
0.5555555555555556
 40
0.5555555555555556
 40
0.5555555555555556
 40
0.5555555555555556
 40
0.6111111111111112
 40
0.6111111111111112
 40
0.6111111111111112
 40
0.6111111111111112
 40
0.6666666666666666
 40
0.6666666666666666
 40
0.6666666666666666
 40
0.6666666666666666
 40
0.7222222222222222
 40
0.7222222222222222
 40
0.7222222222222222
 40
0.7222222222222222
 40
0.7777777777777778
 40
0.7777777777777778
 40
0.7777777777777778
 40
0.7777777777777778
 40
0.8333333333333334
 40
0.8333333333333334
 40
0.8333333333333334
 40
0.8333333333333334
 40
0.8888888888888888
 40
0.8888888888888888
 40
0.8888888888888888
 40
0.8888888888888888
 40
1.0
 40
1.0
 40
1.0
 40
1.0
 10
160.2512
 20
67.6909
 30
0.0
 10
158.9736
 20
65.9568
 30
0.0
 10
158.8571
 20
63.7341
 30
0.0
 10
158.614
 20
61.6726
 30
0.0
 10
158.614
 20
61.6726
 30
0.0
 10
156.6567
 20
61.3501
 30
0.0
 10
154.5307
 20
61.3575
 30
0.0
 10
152.8115
 20
60.2487
 30
0.0
 10
152.8115
 20
60.2487
 30
0.0
 10
150.7823
 20
59.1422
 30
0.0
 10
149.4625
 20
57.0758
 30
0.0
 10
148.6266
 20
54.9771
 30
0.0
 10
148.6266
 20
54.9771
 30
0.0
 10
147.1902
 20
50.9757
 30
0.0
 10
149.2045
 20
46.235
 30
0.0
 10
152.8091
 20
44.1264
 30
0.0
 10
152.8091
 20
44.1264
 30
0.0
 10
154.5505
 20
43.0101
 30
0.0
 10
156.6963
 20
43.0051
 30
0.0
 10
158.6834
 20
42.7397
 30
0.0
 10
158.6834
 20
42.7397
 30
0.0
 10
158.8521
 20
41.3232
 30
0.0
 10
158.9489
 20
39.8794
 30
0.0
 10
159.3359
 20
38.4977
 30
0.0
 10
159.3359
 20
38.4977
 30
0.0
 10
160.6482
 20
34.5806
 30
0.0
 10
164.786
 20
31.7898
 30
0.0
 10
168.9338
 20
32.2214
 30
0.0
 10
168.9338
 20
32.2214
 30
0.0
 10
172.3969
 20
32.2462
 30
0.0
 10
175.3043
 20
34.7815
 30
0.0
 10
176.7779
 20
37.7534
 30
0.0
 10
176.7779
 20
37.7534
 30
0.0
 10
177.3534
 20
39.3634
 30
0.0
 10
177.4005
 20
41.0826
 30
0.0
 10
177.4774
 20
42.7695
 30
0.0
 10
177.4774
 20
42.7695
 30
0.0
 10
179.0055
 20
42.9282
 30
0.0
 10
180.5684
 20
42.9729
 30
0.0
 10
182.0568
 20
43.4194
 30
0.0
 10
182.0568
 20
43.4194
 30
0.0
 10
184.5897
 20
44.2877
 30
0.0
 10
186.5246
 20
46.3888
 30
0.0
 10
187.5938
 20
48.7976
 30
0.0
 10
187.5938
 20
48.7976
 30
0.0
 10
188.3628
 20
50.6359
 30
0.0
 10
188.023
 20
52.7097
 30
0.0
 10
187.8617
 20
54.6274
 30
0.0
 10
187.8617
 20
54.6274
 30
0.0
 10
187.3309
 20
56.9964
 30
0.0
 10
185.5943
 20
58.9984
 30
0.0
 10
183.5627
 20
60.2462
 30
0.0
 10
183.5627
 20
60.2462
 30
0.0
 10
181.7517
 20
61.3973
 30
0.0
 10
179.524
 20
61.4642
 30
0.0
 10
177.4526
 20
61.6155
 30
0.0
 10
177.4526
 20
61.6155
 30
0.0
 10
177.3062
 20
63.2901
 30
0.0
 10
177.3062
 20
65.0067
 30
0.0
 10
176.7754
 20
66.6167
 30
0.0
 10
176.7754
 20
66.6167
 30
0.0
 10
175.7905
 20
68.8171
 30
0.0
 10
173.9051
 20
70.5561
 30
0.0
 10
171.6899
 20
71.4715
 30
0.0
 10
171.6899
 20
71.4715
 30
0.0
 10
167.6587
 20
73.3097
 30
0.0
 10
162.4467
 20
71.4864
 30
0.0
 10
160.2512
 20
67.6909
 30
0.0
  0
SPLINE
  5
4D
330
1F
100
AcDbEntity
  8
layer 1
 62
     7
370
     9
100
AcDbSpline
210
0.0
220
0.0
230
1.0
 70
    11
 71
     3
 72
    68
 73
    64
 74
     0
 42
0.0000000001
 43
0.0000000001
 12
1.0
 22
0.0
 32
0.0
 13
1.0
 23
0.0
 33
0.0
 40
0.0
 40
0.0
 40
0.0
 40
0.0
 40
0.0588235294117647
 40
0.0588235294117647
 40
0.0588235294117647
 40
0.0588235294117647
 40
0.1176470588235294
 40
0.1176470588235294
 40
0.1176470588235294
 40
0.1176470588235294
 40
0.1764705882352941
 40
0.1764705882352941
 40
0.1764705882352941
 40
0.1764705882352941
 40
0.2352941176470588
 40
0.2352941176470588
 40
0.2352941176470588
 40
0.2352941176470588
 40
0.2941176470588235
 40
0.2941176470588235
 40
0.2941176470588235
 40
0.2941176470588235
 40
0.3529411764705883
 40
0.3529411764705883
 40
0.3529411764705883
 40
0.3529411764705883
 40
0.4117647058823529
 40
0.4117647058823529
 40
0.4117647058823529
 40
0.4117647058823529
 40
0.4705882352941176
 40
0.4705882352941176
 40
0.4705882352941176
 40
0.4705882352941176
 40
0.5294117647058824
 40
0.5294117647058824
 40
0.5294117647058824
 40
0.5294117647058824
 40
0.5882352941176471
 40
0.5882352941176471
 40
0.5882352941176471
 40
0.5882352941176471
 40
0.6470588235294118
 40
0.6470588235294118
 40
0.6470588235294118
 40
0.6470588235294118
 40
0.7058823529411765
 40
0.7058823529411765
 40
0.7058823529411765
 40
0.7058823529411765
 40
0.7647058823529411
 40
0.7647058823529411
 40
0.7647058823529411
 40
0.7647058823529411
 40
0.8235294117647058
 40
0.8235294117647058
 40
0.8235294117647058
 40
0.8235294117647058
 40
0.8823529411764706
 40
0.8823529411764706
 40
0.8823529411764706
 40
0.8823529411764706
 40
1.0
 40
1.0
 40
1.0
 40
1.0
 10
9.5892
 20
49.7775
 30
0.0
 10
8.8896
 20
48.0906
 30
0.0
 10
8.2595
 20
46.3591
 30
0.0
 10
7.2027
 20
44.8532
 30
0.0
 10
7.2027
 20
44.8532
 30
0.0
 10
5.1809
 20
42.2807
 30
0.0
 10
2.0602
 20
40.9263
 30
0.0
 10
-1.0482
 20
40.1796
 30
0.0
 10
-1.0482
 20
40.1796
 30
0.0
 10
-1.6311
 20
37.7534
 30
0.0
 10
-2.3481
 20
35.2255
 30
0.0
 10
-4.1987
 20
33.432
 30
0.0
 10
-4.1987
 20
33.432
 30
0.0
 10
-5.8261
 20
31.3457
 30
0.0
 10
-8.4457
 20
30.7032
 30
0.0
 10
-10.6238
 20
29.4206
 30
0.0
 10
-10.6238
 20
29.4206
 30
0.0
 10
-8.3812
 20
28.5722
 30
0.0
 10
-6.0295
 20
27.6941
 30
0.0
 10
-4.422
 20
25.8186
 30
0.0
 10
-4.422
 20
25.8186
 30
0.0
 10
-2.5466
 20
23.9234
 30
0.0
 10
-1.4724
 20
21.4054
 30
0.0
 10
-0.9912
 20
18.8131
 30
0.0
 10
-0.9912
 20
18.8131
 30
0.0
 10
1.512
 20
18.2375
 30
0.0
 10
4.0249
 20
17.3916
 30
0.0
 10
5.8854
 20
15.5286
 30
0.0
 10
5.8854
 20
15.5286
 30
0.0
 10
7.8701
 20
13.9583
 30
0.0
 10
8.6192
 20
11.5074
 30
0.0
 10
9.5817
 20
9.2796
 30
0.0
 10
9.5817
 20
9.2796
 30
0.0
 10
10.4673
 20
10.3885
 30
0.0
 10
10.7973
 20
11.8174
 30
0.0
 10
11.5142
 20
13.023
 30
0.0
 10
11.5142
 20
13.023
 30
0.0
 10
13.2408
 20
16.3125
 30
0.0
 10
16.8428
 20
18.1309
 30
0.0
 10
20.3605
 20
18.818
 30
0.0
 10
20.3605
 20
18.818
 30
0.0
 10
21.1742
 20
21.8693
 30
0.0
 10
22.3525
 20
25.1092
 30
0.0
 10
25.064
 20
26.9846
 30
0.0
 10
25.064
 20
26.9846
 30
0.0
 10
26.4705
 20
28.2101
 30
0.0
 10
28.3559
 20
28.5599
 30
0.0
 10
29.8865
 20
29.5546
 30
0.0
 10
29.8865
 20
29.5546
 30
0.0
 10
27.7481
 20
30.6808
 30
0.0
 10
25.3443
 20
31.4896
 30
0.0
 10
23.7095
 20
33.36
 30
0.0
 10
23.7095
 20
33.36
 30
0.0
 10
21.7324
 20
35.1263
 30
0.0
 10
21.0204
 20
37.7708
 30
0.0
 10
20.4225
 20
40.2466
 30
0.0
 10
20.4225
 20
40.2466
 30
0.0
 10
17.9195
 20
40.7824
 30
0.0
 10
15.3395
 20
41.5911
 30
0.0
 10
13.5385
 20
43.5261
 30
0.0
 10
13.5385
 20
43.5261
 30
0.0
 10
11.6308
 20
45.2055
 30
0.0
 10
10.8692
 20
47.6664
 30
0.0
 10
9.5892
 20
49.7775
 30
0.0
  0
SPLINE
  5
4E
330
1F
100
AcDbEntity
  8
layer 1
 62
     7
370
     9
100
AcDbSpline
210
0.0
220
0.0
230
1.0
 70
    11
 71
     3
 72
    72
 73
    68
 74
     0
 42
0.0000000001
 43
0.0000000001
 12
1.0
 22
0.0
 32
0.0
 13
1.0
 23
0.0
 33
0.0
 40
0.0
 40
0.0
 40
0.0
 40
0.0
 40
0.0555555555555556
 40
0.0555555555555556
 40
0.0555555555555556
 40
0.0555555555555556
 40
0.1111111111111111
 40
0.1111111111111111
 40
0.1111111111111111
 40
0.1111111111111111
 40
0.1666666666666667
 40
0.1666666666666667
 40
0.1666666666666667
 40
0.1666666666666667
 40
0.2222222222222222
 40
0.2222222222222222
 40
0.2222222222222222
 40
0.2222222222222222
 40
0.2777777777777778
 40
0.2777777777777778
 40
0.2777777777777778
 40
0.2777777777777778
 40
0.3333333333333333
 40
0.3333333333333333
 40
0.3333333333333333
 40
0.3333333333333333
 40
0.3888888888888889
 40
0.3888888888888889
 40
0.3888888888888889
 40
0.3888888888888889
 40
0.4444444444444444
 40
0.4444444444444444
 40
0.4444444444444444
 40
0.4444444444444444
 40
0.5
 40
0.5
 40
0.5
 40
0.5
 40
0.5555555555555556
 40
0.5555555555555556
 40
0.5555555555555556
 40
0.5555555555555556
 40
0.6111111111111112
 40
0.6111111111111112
 40
0.6111111111111112
 40
0.6111111111111112
 40
0.6666666666666666
 40
0.6666666666666666
 40
0.6666666666666666
 40
0.6666666666666666
 40
0.7222222222222222
 40
0.7222222222222222
 40
0.7222222222222222
 40
0.7222222222222222
 40
0.7777777777777778
 40
0.7777777777777778
 40
0.7777777777777778
 40
0.7777777777777778
 40
0.8333333333333334
 40
0.8333333333333334
 40
0.8333333333333334
 40
0.8333333333333334
 40
0.8888888888888888
 40
0.8888888888888888
 40
0.8888888888888888
 40
0.8888888888888888
 40
1.0
 40
1.0
 40
1.0
 40
1.0
 10
54.7112
 20
49.5518
 30
0.0
 10
53.962
 20
47.1479
 30
0.0
 10
52.7712
 20
44.8061
 30
0.0
 10
50.8064
 20
43.1689
 30
0.0
 10
50.8064
 20
43.1689
 30
0.0
 10
49.0451
 20
41.4696
 30
0.0
 10
46.6091
 20
40.8271
 30
0.0
 10
44.3095
 20
40.2416
 30
0.0
 10
44.3095
 20
40.2416
 30
0.0
 10
43.8306
 20
38.2025
 30
0.0
 10
43.2998
 20
36.1112
 30
0.0
 10
41.9056
 20
34.4714
 30
0.0
 10
41.9056
 20
34.4714
 30
0.0
 10
40.2311
 20
32.0204
 30
0.0
 10
37.4279
 20
30.8248
 30
0.0
 10
34.8554
 20
29.5596
 30
0.0
 10
34.8554
 20
29.5596
 30
0.0
 10
35.9494
 20
28.7732
 30
0.0
 10
37.284
 20
28.4184
 30
0.0
 10
38.4375
 20
27.7288
 30
0.0
 10
38.4375
 20
27.7288
 30
0.0
 10
41.8535
 20
26.0494
 30
0.0
 10
43.5181
 20
22.2836
 30
0.0
 10
44.3715
 20
18.7758
 30
0.0
 10
44.3715
 20
18.7758
 30
0.0
 10
46.7803
 20
18.1631
 30
0.0
 10
49.3131
 20
17.4263
 30
0.0
 10
51.1315
 20
15.6327
 30
0.0
 10
51.1315
 20
15.6327
 30
0.0
 10
53.1409
 20
14.0252
 30
0.0
 10
53.8628
 20
11.5074
 30
0.0
 10
54.9294
 20
9.2772
 30
0.0
 10
54.9294
 20
9.2772
 30
0.0
 10
55.8126
 20
11.0162
 30
0.0
 10
56.532
 20
12.8618
 30
0.0
 10
57.7401
 20
14.4147
 30
0.0
 10
57.7401
 20
14.4147
 30
0.0
 10
59.7718
 20
16.7888
 30
0.0
 10
62.6793
 20
18.3045
 30
0.0
 10
65.738
 20
18.8503
 30
0.0
 10
65.738
 20
18.8503
 30
0.0
 10
66.2937
 20
22.1224
 30
0.0
 10
67.9905
 20
25.2654
 30
0.0
 10
70.7243
 20
27.2153
 30
0.0
 10
70.7243
 20
27.2153
 30
0.0
 10
72.0589
 20
28.2895
 30
0.0
 10
73.7607
 20
28.6715
 30
0.0
 10
75.2789
 20
29.4033
 30
0.0
 10
75.2789
 20
29.4033
 30
0.0
 10
74.2097
 20
30.2418
 30
0.0
 10
72.8477
 20
30.5543
 30
0.0
 10
71.7016
 20
31.2589
 30
0.0
 10
71.7016
 20
31.2589
 30
0.0
 10
68.3031
 20
32.9532
 30
0.0
 10
66.4277
 20
36.59
 30
0.0
 10
65.7355
 20
40.1796
 30
0.0
 10
65.7355
 20
40.1796
 30
0.0
 10
63.5475
 20
40.8791
 30
0.0
 10
61.1859
 20
41.4448
 30
0.0
 10
59.4022
 20
42.9853
 30
0.0
 10
59.4022
 20
42.9853
 30
0.0
 10
57.2911
 20
44.6077
 30
0.0
 10
56.1003
 20
47.0909
 30
0.0
 10
55.2271
 20
49.5468
 30
0.0
 10
55.2271
 20
49.5468
 30
0.0
 10
55.0981
 20
49.5493
 30
0.0
 10
54.8401
 20
49.5518
 30
0.0
 10
54.7112
 20
49.5518
 30
0.0
  0
SPLINE
  5
4F
330
1F
100
AcDbEntity
  8
layer 1
 62
     7
370
     9
100
AcDbSpline
210
0.0
220
0.0
230
1.0
 70
    11
 71
     3
 72
    68
 73
    64
 74
     0
 42
0.0000000001
 43
0.0000000001
 12
1.0
 22
0.0
 32
0.0
 13
1.0
 23
0.0
 33
0.0
 40
0.0
 40
0.0
 40
0.0
 40
0.0
 40
0.0588235294117647
 40
0.0588235294117647
 40
0.0588235294117647
 40
0.0588235294117647
 40
0.1176470588235294
 40
0.1176470588235294
 40
0.1176470588235294
 40
0.1176470588235294
 40
0.1764705882352941
 40
0.1764705882352941
 40
0.1764705882352941
 40
0.1764705882352941
 40
0.2352941176470588
 40
0.2352941176470588
 40
0.2352941176470588
 40
0.2352941176470588
 40
0.2941176470588235
 40
0.2941176470588235
 40
0.2941176470588235
 40
0.2941176470588235
 40
0.3529411764705883
 40
0.3529411764705883
 40
0.3529411764705883
 40
0.3529411764705883
 40
0.4117647058823529
 40
0.4117647058823529
 40
0.4117647058823529
 40
0.4117647058823529
 40
0.4705882352941176
 40
0.4705882352941176
 40
0.4705882352941176
 40
0.4705882352941176
 40
0.5294117647058824
 40
0.5294117647058824
 40
0.5294117647058824
 40
0.5294117647058824
 40
0.5882352941176471
 40
0.5882352941176471
 40
0.5882352941176471
 40
0.5882352941176471
 40
0.6470588235294118
 40
0.6470588235294118
 40
0.6470588235294118
 40
0.6470588235294118
 40
0.7058823529411765
 40
0.7058823529411765
 40
0.7058823529411765
 40
0.7058823529411765
 40
0.7647058823529411
 40
0.7647058823529411
 40
0.7647058823529411
 40
0.7647058823529411
 40
0.8235294117647058
 40
0.8235294117647058
 40
0.8235294117647058
 40
0.8235294117647058
 40
0.8823529411764706
 40
0.8823529411764706
 40
0.8823529411764706
 40
0.8823529411764706
 40
1.0
 40
1.0
 40
1.0
 40
1.0
 10
97.7419
 20
44.8558
 30
0.0
 10
95.73
 20
42.2734
 30
0.0
 10
92.6043
 20
40.9288
 30
0.0
 10
89.4984
 20
40.1796
 30
0.0
 10
89.4984
 20
40.1796
 30
0.0
 10
88.9254
 20
37.7435
 30
0.0
 10
88.1737
 20
35.2429
 30
0.0
 10
86.3652
 20
33.4147
 30
0.0
 10
86.3652
 20
33.4147
 30
0.0
 10
84.7181
 20
31.3606
 30
0.0
 10
82.0835
 20
30.7305
 30
0.0
 10
79.9228
 20
29.4107
 30
0.0
 10
79.9228
 20
29.4107
 30
0.0
 10
82.1802
 20
28.602
 30
0.0
 10
84.532
 20
27.709
 30
0.0
 10
86.1296
 20
25.8236
 30
0.0
 10
86.1296
 20
25.8236
 30
0.0
 10
87.9926
 20
23.9209
 30
0.0
 10
89.0742
 20
21.4104
 30
0.0
 10
89.5554
 20
18.8156
 30
0.0
 10
89.5554
 20
18.8156
 30
0.0
 10
91.7335
 20
18.2276
 30
0.0
 10
94.0332
 20
17.6471
 30
0.0
 10
95.7622
 20
16.1041
 30
0.0
 10
95.7622
 20
16.1041
 30
0.0
 10
98.0718
 20
14.447
 30
0.0
 10
99.1584
 20
11.7455
 30
0.0
 10
100.354
 20
9.2772
 30
0.0
 10
100.354
 20
9.2772
 30
0.0
 10
101.2893
 20
11.3759
 30
0.0
 10
102.0186
 20
13.668
 30
0.0
 10
103.7725
 20
15.2557
 30
0.0
 10
103.7725
 20
15.2557
 30
0.0
 10
105.6926
 20
17.1907
 30
0.0
 10
108.2924
 20
18.2177
 30
0.0
 10
110.9046
 20
18.8255
 30
0.0
 10
110.9046
 20
18.8255
 30
0.0
 10
111.5546
 20
21.2293
 30
0.0
 10
112.3955
 20
23.6505
 30
0.0
 10
114.0874
 20
25.5384
 30
0.0
 10
114.0874
 20
25.5384
 30
0.0
 10
115.6205
 20
27.6519
 30
0.0
 10
118.3468
 20
28.2101
 30
0.0
 10
120.4281
 20
29.567
 30
0.0
 10
120.4281
 20
29.567
 30
0.0
 10
119.0166
 20
30.3361
 30
0.0
 10
117.4587
 20
30.8223
 30
0.0
 10
116.1339
 20
31.76
 30
0.0
 10
116.1339
 20
31.76
 30
0.0
 10
113.2911
 20
33.7
 30
0.0
 10
111.552
 20
36.8976
 30
0.0
 10
110.9666
 20
40.2441
 30
0.0
 10
110.9666
 20
40.2441
 30
0.0
 10
109.1656
 20
40.7427
 30
0.0
 10
107.2902
 20
41.147
 30
0.0
 10
105.7124
 20
42.2039
 30
0.0
 10
105.7124
 20
42.2039
 30
0.0
 10
102.9936
 20
43.9056
 30
0.0
 10
101.463
 20
46.8701
 30
0.0
 10
100.2598
 20
49.7353
 30
0.0
 10
100.2598
 20
49.7353
 30
0.0
 10
99.4536
 20
48.0906
 30
0.0
 10
98.8012
 20
46.3641
 30
0.0
 10
97.7419
 20
44.8558
 30
0.0
  0
SPLINE
  5
50
330
1F
100
AcDbEntity
  8
layer 1
 62
     7
370
     9
100
AcDbSpline
210
0.0
220
0.0
230
1.0
 70
    11
 71
     3
 72
    68
 73
    64
 74
     0
 42
0.0000000001
 43
0.0000000001
 12
1.0
 22
0.0
 32
0.0
 13
1.0
 23
0.0
 33
0.0
 40
0.0
 40
0.0
 40
0.0
 40
0.0
 40
0.0588235294117647
 40
0.0588235294117647
 40
0.0588235294117647
 40
0.0588235294117647
 40
0.1176470588235294
 40
0.1176470588235294
 40
0.1176470588235294
 40
0.1176470588235294
 40
0.1764705882352941
 40
0.1764705882352941
 40
0.1764705882352941
 40
0.1764705882352941
 40
0.2352941176470588
 40
0.2352941176470588
 40
0.2352941176470588
 40
0.2352941176470588
 40
0.2941176470588235
 40
0.2941176470588235
 40
0.2941176470588235
 40
0.2941176470588235
 40
0.3529411764705883
 40
0.3529411764705883
 40
0.3529411764705883
 40
0.3529411764705883
 40
0.4117647058823529
 40
0.4117647058823529
 40
0.4117647058823529
 40
0.4117647058823529
 40
0.4705882352941176
 40
0.4705882352941176
 40
0.4705882352941176
 40
0.4705882352941176
 40
0.5294117647058824
 40
0.5294117647058824
 40
0.5294117647058824
 40
0.5294117647058824
 40
0.5882352941176471
 40
0.5882352941176471
 40
0.5882352941176471
 40
0.5882352941176471
 40
0.6470588235294118
 40
0.6470588235294118
 40
0.6470588235294118
 40
0.6470588235294118
 40
0.7058823529411765
 40
0.7058823529411765
 40
0.7058823529411765
 40
0.7058823529411765
 40
0.7647058823529411
 40
0.7647058823529411
 40
0.7647058823529411
 40
0.7647058823529411
 40
0.8235294117647058
 40
0.8235294117647058
 40
0.8235294117647058
 40
0.8235294117647058
 40
0.8823529411764706
 40
0.8823529411764706
 40
0.8823529411764706
 40
0.8823529411764706
 40
1.0
 40
1.0
 40
1.0
 40
1.0
 10
114.8539
 20
22.2911
 30
0.0
 10
113.7376
 20
20.5496
 30
0.0
 10
113.7277
 20
18.4012
 30
0.0
 10
113.4672
 20
16.4192
 30
0.0
 10
113.4672
 20
16.4192
 30
0.0
 10
111.4132
 20
16.1388
 30
0.0
 10
109.1482
 20
16.1438
 30
0.0
 10
107.4043
 20
14.8687
 30
0.0
 10
107.4043
 20
14.8687
 30
0.0
 10
105.8663
 20
13.931
 30
0.0
 10
104.6234
 20
12.5542
 30
0.0
 10
103.8965
 20
10.902
 30
0.0
 10
103.8965
 20
10.902
 30
0.0
 10
101.6689
 20
6.8262
 30
0.0
 10
103.3781
 20
1.2346
 30
0.0
 10
107.4018
 20
-1.0352
 30
0.0
 10
107.4018
 20
-1.0352
 30
0.0
 10
109.1408
 20
-2.417
 30
0.0
 10
111.4752
 20
-2.1789
 30
0.0
 10
113.5466
 20
-2.3649
 30
0.0
 10
113.5466
 20
-2.3649
 30
0.0
 10
113.6806
 20
-4.2626
 30
0.0
 10
113.5565
 20
-6.2919
 30
0.0
 10
114.6084
 20
-7.9738
 30
0.0
 10
114.6084
 20
-7.9738
 30
0.0
 10
115.5684
 20
-9.9931
 30
0.0
 10
117.3569
 20
-11.4568
 30
0.0
 10
119.3366
 20
-12.4143
 30
0.0
 10
119.3366
 20
-12.4143
 30
0.0
 10
121.279
 20
-13.2925
 30
0.0
 10
123.5067
 20
-12.9502
 30
0.0
 10
125.5508
 20
-12.722
 30
0.0
 10
125.5508
 20
-12.722
 30
0.0
 10
129.9417
 20
-11.5188
 30
0.0
 10
132.802
 20
-6.8178
 30
0.0
 10
132.3108
 20
-2.35
 30
0.0
 10
132.3108
 20
-2.35
 30
0.0
 10
133.9927
 20
-2.2111
 30
0.0
 10
135.7218
 20
-2.2111
 30
0.0
 10
137.3467
 20
-1.6827
 30
0.0
 10
137.3467
 20
-1.6827
 30
0.0
 10
139.3908
 20
-0.6259
 30
0.0
 10
141.2811
 20
1.0039
 30
0.0
 10
142.142
 20
3.1894
 30
0.0
 10
142.142
 20
3.1894
 30
0.0
 10
144.1141
 20
7.243
 30
0.0
 10
142.2883
 20
12.6187
 30
0.0
 10
138.4184
 20
14.8489
 30
0.0
 10
138.4184
 20
14.8489
 30
0.0
 10
136.6719
 20
16.0966
 30
0.0
 10
134.4516
 20
16.2108
 30
0.0
 10
132.4001
 20
16.4936
 30
0.0
 10
132.4001
 20
16.4936
 30
0.0
 10
132.1917
 20
17.9944
 30
0.0
 10
132.0454
 20
19.5126
 30
0.0
 10
131.6187
 20
20.9688
 30
0.0
 10
131.6187
 20
20.9688
 30
0.0
 10
130.7975
 20
23.2461
 30
0.0
 10
128.9196
 20
25.0
 30
0.0
 10
126.7738
 20
26.0369
 30
0.0
 10
126.7738
 20
26.0369
 30
0.0
 10
122.6508
 20
28.2125
 30
0.0
 10
117.1362
 20
26.223
 30
0.0
 10
114.8539
 20
22.2911
 30
0.0
  0
SPLINE
  5
51
330
1F
100
AcDbEntity
  8
layer 1
 62
     7
370
     9
100
AcDbSpline
210
0.0
220
0.0
230
1.0
 70
    11
 71
     3
 72
    68
 73
    64
 74
     0
 42
0.0000000001
 43
0.0000000001
 12
1.0
 22
0.0
 32
0.0
 13
1.0
 23
0.0
 33
0.0
 40
0.0
 40
0.0
 40
0.0
 40
0.0
 40
0.0588235294117647
 40
0.0588235294117647
 40
0.0588235294117647
 40
0.0588235294117647
 40
0.1176470588235294
 40
0.1176470588235294
 40
0.1176470588235294
 40
0.1176470588235294
 40
0.1764705882352941
 40
0.1764705882352941
 40
0.1764705882352941
 40
0.1764705882352941
 40
0.2352941176470588
 40
0.2352941176470588
 40
0.2352941176470588
 40
0.2352941176470588
 40
0.2941176470588235
 40
0.2941176470588235
 40
0.2941176470588235
 40
0.2941176470588235
 40
0.3529411764705883
 40
0.3529411764705883
 40
0.3529411764705883
 40
0.3529411764705883
 40
0.4117647058823529
 40
0.4117647058823529
 40
0.4117647058823529
 40
0.4117647058823529
 40
0.4705882352941176
 40
0.4705882352941176
 40
0.4705882352941176
 40
0.4705882352941176
 40
0.5294117647058824
 40
0.5294117647058824
 40
0.5294117647058824
 40
0.5294117647058824
 40
0.5882352941176471
 40
0.5882352941176471
 40
0.5882352941176471
 40
0.5882352941176471
 40
0.6470588235294118
 40
0.6470588235294118
 40
0.6470588235294118
 40
0.6470588235294118
 40
0.7058823529411765
 40
0.7058823529411765
 40
0.7058823529411765
 40
0.7058823529411765
 40
0.7647058823529411
 40
0.7647058823529411
 40
0.7647058823529411
 40
0.7647058823529411
 40
0.8235294117647058
 40
0.8235294117647058
 40
0.8235294117647058
 40
0.8235294117647058
 40
0.8823529411764706
 40
0.8823529411764706
 40
0.8823529411764706
 40
0.8823529411764706
 40
1.0
 40
1.0
 40
1.0
 40
1.0
 10
100.3243
 20
4.5191
 30
0.0
 10
99.2303
 20
2.2021
 30
0.0
 10
98.1636
 20
-0.2464
 30
0.0
 10
96.2087
 20
-1.9804
 30
0.0
 10
96.2087
 20
-1.9804
 30
0.0
 10
94.4177
 20
-3.7442
 30
0.0
 10
91.9072
 20
-4.4413
 30
0.0
 10
89.5306
 20
-5.0019
 30
0.0
 10
89.5306
 20
-5.0019
 30
0.0
 10
89.037
 20
-6.8551
 30
0.0
 10
88.7393
 20
-8.852
 30
0.0
 10
87.4865
 20
-10.3826
 30
0.0
 10
87.4865
 20
-10.3826
 30
0.0
 10
85.7599
 20
-13.0618
 30
0.0
 10
82.8326
 20
-14.5502
 30
0.0
 10
80.0047
 20
-15.798
 30
0.0
 10
80.0047
 20
-15.798
 30
0.0
 10
81.9619
 20
-16.7358
 30
0.0
 10
84.1748
 20
-17.3708
 30
0.0
 10
85.6607
 20
-19.0503
 30
0.0
 10
85.6607
 20
-19.0503
 30
0.0
 10
87.7743
 20
-20.9455
 30
0.0
 10
88.9402
 20
-23.6223
 30
0.0
 10
89.5554
 20
-26.3486
 30
0.0
 10
89.5554
 20
-26.3486
 30
0.0
 10
91.9097
 20
-27.0829
 30
0.0
 10
94.4325
 20
-27.7849
 30
0.0
 10
96.2683
 20
-29.5314
 30
0.0
 10
96.2683
 20
-29.5314
 30
0.0
 10
98.2975
 20
-31.2133
 30
0.0
 10
99.2948
 20
-33.7387
 30
0.0
 10
100.292
 20
-36.1053
 30
0.0
 10
100.292
 20
-36.1053
 30
0.0
 10
100.8825
 20
-34.726
 30
0.0
 10
101.3513
 20
-33.2872
 30
0.0
 10
102.2072
 20
-32.0419
 30
0.0
 10
102.2072
 20
-32.0419
 30
0.0
 10
104.1198
 20
-28.9782
 30
0.0
 10
107.4465
 20
-27.0357
 30
0.0
 10
110.9616
 20
-26.4131
 30
0.0
 10
110.9616
 20
-26.4131
 30
0.0
 10
111.7878
 20
-21.5658
 30
0.0
 10
115.422
 20
-17.2021
 30
0.0
 10
120.2718
 20
-16.0486
 30
0.0
 10
120.2718
 20
-16.0486
 30
0.0
 10
120.2743
 20
-15.9096
 30
0.0
 10
120.2793
 20
-15.6318
 30
0.0
 10
120.2793
 20
-15.4929
 30
0.0
 10
120.2793
 20
-15.4929
 30
0.0
 10
118.5651
 20
-14.9174
 30
0.0
 10
116.9154
 20
-14.1335
 30
0.0
 10
115.4468
 20
-13.0717
 30
0.0
 10
115.4468
 20
-13.0717
 30
0.0
 10
112.9388
 20
-11.0524
 30
0.0
 10
111.6612
 20
-7.9887
 30
0.0
 10
110.9071
 20
-4.9449
 30
0.0
 10
110.9071
 20
-4.9449
 30
0.0
 10
108.7811
 20
-4.3867
 30
0.0
 10
106.5137
 20
-3.8732
 30
0.0
 10
104.8169
 20
-2.3897
 30
0.0
 10
104.8169
 20
-2.3897
 30
0.0
 10
102.5048
 20
-0.7251
 30
0.0
 10
101.4059
 20
1.9962
 30
0.0
 10
100.3243
 20
4.5191
 30
0.0
  0
SPLINE
  5
52
330
1F
100
AcDbEntity
  8
layer 1
 62
     7
370
     9
100
AcDbSpline
210
0.0
220
0.0
230
1.0
 70
    11
 71
     3
 72
    64
 73
    60
 74
     0
 42
0.0000000001
 43
0.0000000001
 12
1.0
 22
0.0
 32
0.0
 13
1.0
 23
0.0
 33
0.0
 40
0.0
 40
0.0
 40
0.0
 40
0.0
 40
0.0625
 40
0.0625
 40
0.0625
 40
0.0625
 40
0.125
 40
0.125
 40
0.125
 40
0.125
 40
0.1875
 40
0.1875
 40
0.1875
 40
0.1875
 40
0.25
 40
0.25
 40
0.25
 40
0.25
 40
0.3125
 40
0.3125
 40
0.3125
 40
0.3125
 40
0.375
 40
0.375
 40
0.375
 40
0.375
 40
0.4375
 40
0.4375
 40
0.4375
 40
0.4375
 40
0.5
 40
0.5
 40
0.5
 40
0.5
 40
0.5625
 40
0.5625
 40
0.5625
 40
0.5625
 40
0.625
 40
0.625
 40
0.625
 40
0.625
 40
0.6875
 40
0.6875
 40
0.6875
 40
0.6875
 40
0.75
 40
0.75
 40
0.75
 40
0.75
 40
0.8125
 40
0.8125
 40
0.8125
 40
0.8125
 40
0.875
 40
0.875
 40
0.875
 40
0.875
 40
1.0
 40
1.0
 40
1.0
 40
1.0
 10
-20.8469
 20
-22.8532
 30
0.0
 10
-22.1344
 20
-24.6195
 30
0.0
 10
-22.2609
 20
-26.8795
 30
0.0
 10
-22.447
 20
-28.9806
 30
0.0
 10
-22.447
 20
-28.9806
 30
0.0
 10
-23.5112
 20
-29.06
 30
0.0
 10
-24.5804
 20
-29.1196
 30
0.0
 10
-25.6397
 20
-29.2709
 30
0.0
 10
-25.6397
 20
-29.2709
 30
0.0
 10
-30.5094
 20
-30.3128
 30
0.0
 10
-34.1138
 20
-35.7208
 30
0.0
 10
-32.6452
 20
-40.6177
 30
0.0
 10
-32.6452
 20
-40.6177
 30
0.0
 10
-31.6529
 20
-45.1301
 30
0.0
 10
-26.9271
 20
-48.1691
 30
0.0
 10
-22.4073
 20
-47.7747
 30
0.0
 10
-22.4073
 20
-47.7747
 30
0.0
 10
-22.1443
 20
-49.846
 30
0.0
 10
-22.1418
 20
-52.1109
 30
0.0
 10
-20.8568
 20
-53.8722
 30
0.0
 10
-20.8568
 20
-53.8722
 30
0.0
 10
-19.0534
 20
-56.9781
 30
0.0
 10
-15.2851
 20
-58.9602
 30
0.0
 10
-11.6905
 20
-58.288
 30
0.0
 10
-11.6905
 20
-58.288
 30
0.0
 10
-8.339
 20
-57.9084
 30
0.0
 10
-5.449
 20
-55.4872
 30
0.0
 10
-4.1714
 20
-52.4136
 30
0.0
 10
-4.1714
 20
-52.4136
 30
0.0
 10
-3.653
 20
-50.9326
 30
0.0
 10
-3.8018
 20
-49.3127
 30
0.0
 10
-3.6281
 20
-47.7771
 30
0.0
 10
-3.6281
 20
-47.7771
 30
0.0
 10
-1.5691
 20
-47.5539
 30
0.0
 10
0.6685
 20
-47.5886
 30
0.0
 10
2.4695
 20
-46.4177
 30
0.0
 10
2.4695
 20
-46.4177
 30
0.0
 10
4.5533
 20
-45.2567
 30
0.0
 10
5.9747
 20
-43.2151
 30
0.0
 10
6.7413
 20
-40.9948
 30
0.0
 10
6.7413
 20
-40.9948
 30
0.0
 10
7.7286
 20
-37.1348
 30
0.0
 10
6.2452
 20
-32.5975
 30
0.0
 10
2.7473
 20
-30.5137
 30
0.0
 10
2.7473
 20
-30.5137
 30
0.0
 10
0.924
 20
-29.1493
 30
0.0
 10
-1.4674
 20
-29.1071
 30
0.0
 10
-3.6381
 20
-28.9285
 30
0.0
 10
-3.6381
 20
-28.9285
 30
0.0
 10
-3.7968
 20
-27.1995
 30
0.0
 10
-3.7819
 20
-25.4134
 30
0.0
 10
-4.3947
 20
-23.7687
 30
0.0
 10
-4.3947
 20
-23.7687
 30
0.0
 10
-5.3646
 20
-21.8535
 30
0.0
 10
-6.9325
 20
-20.2088
 30
0.0
 10
-8.917
 20
-19.3455
 30
0.0
 10
-8.917
 20
-19.3455
 30
0.0
 10
-12.9879
 20
-17.1178
 30
0.0
 10
-18.5919
 20
-18.8196
 30
0.0
 10
-20.8469
 20
-22.8532
 30
0.0
  0
SPLINE
  5
53
330
1F
100
AcDbEntity
  8
layer 1
 62
     7
370
     9
100
AcDbSpline
210
0.0
220
0.0
230
1.0
 70
    11
 71
     3
 72
    68
 73
    64
 74
     0
 42
0.0000000001
 43
0.0000000001
 12
1.0
 22
0.0
 32
0.0
 13
1.0
 23
0.0
 33
0.0
 40
0.0
 40
0.0
 40
0.0
 40
0.0
 40
0.0588235294117647
 40
0.0588235294117647
 40
0.0588235294117647
 40
0.0588235294117647
 40
0.1176470588235294
 40
0.1176470588235294
 40
0.1176470588235294
 40
0.1176470588235294
 40
0.1764705882352941
 40
0.1764705882352941
 40
0.1764705882352941
 40
0.1764705882352941
 40
0.2352941176470588
 40
0.2352941176470588
 40
0.2352941176470588
 40
0.2352941176470588
 40
0.2941176470588235
 40
0.2941176470588235
 40
0.2941176470588235
 40
0.2941176470588235
 40
0.3529411764705883
 40
0.3529411764705883
 40
0.3529411764705883
 40
0.3529411764705883
 40
0.4117647058823529
 40
0.4117647058823529
 40
0.4117647058823529
 40
0.4117647058823529
 40
0.4705882352941176
 40
0.4705882352941176
 40
0.4705882352941176
 40
0.4705882352941176
 40
0.5294117647058824
 40
0.5294117647058824
 40
0.5294117647058824
 40
0.5294117647058824
 40
0.5882352941176471
 40
0.5882352941176471
 40
0.5882352941176471
 40
0.5882352941176471
 40
0.6470588235294118
 40
0.6470588235294118
 40
0.6470588235294118
 40
0.6470588235294118
 40
0.7058823529411765
 40
0.7058823529411765
 40
0.7058823529411765
 40
0.7058823529411765
 40
0.7647058823529411
 40
0.7647058823529411
 40
0.7647058823529411
 40
0.7647058823529411
 40
0.8235294117647058
 40
0.8235294117647058
 40
0.8235294117647058
 40
0.8235294117647058
 40
0.8823529411764706
 40
0.8823529411764706
 40
0.8823529411764706
 40
0.8823529411764706
 40
1.0
 40
1.0
 40
1.0
 40
1.0
 10
75.1846
 20
-18.6658
 30
0.0
 10
73.0016
 20
-19.4844
 30
0.0
 10
70.8383
 20
-20.7223
 30
0.0
 10
69.7046
 20
-22.8557
 30
0.0
 10
69.7046
 20
-22.8557
 30
0.0
 10
68.4271
 20
-24.5897
 30
0.0
 10
68.313
 20
-26.81
 30
0.0
 10
68.0649
 20
-28.869
 30
0.0
 10
68.0649
 20
-28.869
 30
0.0
 10
66.5641
 20
-29.0799
 30
0.0
 10
65.0459
 20
-29.2336
 30
0.0
 10
63.5921
 20
-29.6802
 30
0.0
 10
63.5921
 20
-29.6802
 30
0.0
 10
61.3545
 20
-30.5509
 30
0.0
 10
59.5485
 20
-32.3147
 30
0.0
 10
58.4942
 20
-34.463
 30
0.0
 10
58.4942
 20
-34.463
 30
0.0
 10
56.4824
 20
-38.3355
 30
0.0
 10
57.9907
 20
-43.4606
 30
0.0
 10
61.5183
 20
-45.9215
 30
0.0
 10
61.5183
 20
-45.9215
 30
0.0
 10
63.3713
 20
-47.4472
 30
0.0
 10
65.8595
 20
-47.5514
 30
0.0
 10
68.1368
 20
-47.8069
 30
0.0
 10
68.1368
 20
-47.8069
 30
0.0
 10
68.4048
 20
-49.8684
 30
0.0
 10
68.4097
 20
-52.1209
 30
0.0
 10
69.6873
 20
-53.8772
 30
0.0
 10
69.6873
 20
-53.8772
 30
0.0
 10
70.7863
 20
-55.837
 30
0.0
 10
72.7559
 20
-57.1567
 30
0.0
 10
74.81
 20
-57.9655
 30
0.0
 10
74.81
 20
-57.9655
 30
0.0
 10
78.799
 20
-59.2902
 30
0.0
 10
83.4876
 20
-57.4941
 30
0.0
 10
85.5863
 20
-53.8722
 30
0.0
 10
85.5863
 20
-53.8722
 30
0.0
 10
86.9606
 20
-52.1481
 30
0.0
 10
86.7348
 20
-49.8287
 30
0.0
 10
86.9184
 20
-47.7771
 30
0.0
 10
86.9184
 20
-47.7771
 30
0.0
 10
88.9749
 20
-47.5539
 30
0.0
 10
91.2126
 20
-47.5886
 30
0.0
 10
93.0161
 20
-46.4177
 30
0.0
 10
93.0161
 20
-46.4177
 30
0.0
 10
95.0999
 20
-45.2567
 30
0.0
 10
96.5213
 20
-43.2151
 30
0.0
 10
97.2879
 20
-40.9948
 30
0.0
 10
97.2879
 20
-40.9948
 30
0.0
 10
98.2752
 20
-37.1348
 30
0.0
 10
96.7918
 20
-32.5975
 30
0.0
 10
93.2939
 20
-30.5137
 30
0.0
 10
93.2939
 20
-30.5137
 30
0.0
 10
91.4681
 20
-29.1493
 30
0.0
 10
89.0767
 20
-29.1071
 30
0.0
 10
86.9085
 20
-28.9285
 30
0.0
 10
86.9085
 20
-28.9285
 30
0.0
 10
86.7497
 20
-27.1995
 30
0.0
 10
86.7621
 20
-25.4134
 30
0.0
 10
86.1519
 20
-23.7687
 30
0.0
 10
86.1519
 20
-23.7687
 30
0.0
 10
84.2318
 20
-19.8565
 30
0.0
 10
79.4812
 20
-17.3584
 30
0.0
 10
75.1846
 20
-18.6658
 30
0.0
  0
SPLINE
  5
54
330
1F
100
AcDbEntity
  8
layer 1
 62
     7
370
     9
100
AcDbSpline
210
0.0
220
0.0
230
1.0
 70
    11
 71
     3
 72
    72
 73
    68
 74
     0
 42
0.0000000001
 43
0.0000000001
 12
1.0
 22
0.0
 32
0.0
 13
1.0
 23
0.0
 33
0.0
 40
0.0
 40
0.0
 40
0.0
 40
0.0
 40
0.0555555555555556
 40
0.0555555555555556
 40
0.0555555555555556
 40
0.0555555555555556
 40
0.1111111111111111
 40
0.1111111111111111
 40
0.1111111111111111
 40
0.1111111111111111
 40
0.1666666666666667
 40
0.1666666666666667
 40
0.1666666666666667
 40
0.1666666666666667
 40
0.2222222222222222
 40
0.2222222222222222
 40
0.2222222222222222
 40
0.2222222222222222
 40
0.2777777777777778
 40
0.2777777777777778
 40
0.2777777777777778
 40
0.2777777777777778
 40
0.3333333333333333
 40
0.3333333333333333
 40
0.3333333333333333
 40
0.3333333333333333
 40
0.3888888888888889
 40
0.3888888888888889
 40
0.3888888888888889
 40
0.3888888888888889
 40
0.4444444444444444
 40
0.4444444444444444
 40
0.4444444444444444
 40
0.4444444444444444
 40
0.5
 40
0.5
 40
0.5
 40
0.5
 40
0.5555555555555556
 40
0.5555555555555556
 40
0.5555555555555556
 40
0.5555555555555556
 40
0.6111111111111112
 40
0.6111111111111112
 40
0.6111111111111112
 40
0.6111111111111112
 40
0.6666666666666666
 40
0.6666666666666666
 40
0.6666666666666666
 40
0.6666666666666666
 40
0.7222222222222222
 40
0.7222222222222222
 40
0.7222222222222222
 40
0.7222222222222222
 40
0.7777777777777778
 40
0.7777777777777778
 40
0.7777777777777778
 40
0.7777777777777778
 40
0.8333333333333334
 40
0.8333333333333334
 40
0.8333333333333334
 40
0.8333333333333334
 40
0.8888888888888888
 40
0.8888888888888888
 40
0.8888888888888888
 40
0.8888888888888888
 40
1.0
 40
1.0
 40
1.0
 40
1.0
 10
116.2803
 20
-21.0621
 30
0.0
 10
114.1866
 20
-23.1162
 30
0.0
 10
113.3927
 20
-26.1228
 30
0.0
 10
113.4994
 20
-28.9881
 30
0.0
 10
113.4994
 20
-28.9881
 30
0.0
 10
112.3012
 20
-29.0873
 30
0.0
 10
111.0907
 20
-29.1071
 30
0.0
 10
109.9123
 20
-29.3304
 30
0.0
 10
109.9123
 20
-29.3304
 30
0.0
 10
105.6578
 20
-30.2954
 30
0.0
 10
102.5793
 20
-34.6417
 30
0.0
 10
102.9663
 20
-38.973
 30
0.0
 10
102.9663
 20
-38.973
 30
0.0
 10
102.9216
 20
-40.8981
 30
0.0
 10
103.9238
 20
-42.6271
 30
0.0
 10
104.9112
 20
-44.2073
 30
0.0
 10
104.9112
 20
-44.2073
 30
0.0
 10
106.918
 20
-46.8146
 30
0.0
 10
110.3266
 20
-47.9259
 30
0.0
 10
113.5341
 20
-47.7747
 30
0.0
 10
113.5341
 20
-47.7747
 30
0.0
 10
113.6507
 20
-49.6674
 30
0.0
 10
113.7028
 20
-51.6321
 30
0.0
 10
114.6084
 20
-53.3588
 30
0.0
 10
114.6084
 20
-53.3588
 30
0.0
 10
116.712
 20
-57.7521
 30
0.0
 10
122.5814
 20
-59.6623
 30
0.0
 10
126.9326
 20
-57.519
 30
0.0
 10
126.9326
 20
-57.519
 30
0.0
 10
128.6741
 20
-56.5068
 30
0.0
 10
130.1451
 20
-55.063
 30
0.0
 10
131.2069
 20
-53.3538
 30
0.0
 10
131.2069
 20
-53.3538
 30
0.0
 10
132.1595
 20
-51.6347
 30
0.0
 10
132.3058
 20
-49.6526
 30
0.0
 10
132.3282
 20
-47.7325
 30
0.0
 10
132.3282
 20
-47.7325
 30
0.0
 10
133.8439
 20
-47.5787
 30
0.0
 10
135.434
 20
-47.6655
 30
0.0
 10
136.8778
 20
-47.0999
 30
0.0
 10
136.8778
 20
-47.0999
 30
0.0
 10
138.9269
 20
-46.3804
 30
0.0
 10
140.4724
 20
-44.7209
 30
0.0
 10
141.6755
 20
-42.9769
 30
0.0
 10
141.6755
 20
-42.9769
 30
0.0
 10
143.0722
 20
-41.042
 30
0.0
 10
142.973
 20
-38.4669
 30
0.0
 10
142.6728
 20
-36.2219
 30
0.0
 10
142.6728
 20
-36.2219
 30
0.0
 10
142.0228
 20
-33.374
 30
0.0
 10
139.8125
 20
-31.0223
 30
0.0
 10
137.2301
 20
-29.7695
 30
0.0
 10
137.2301
 20
-29.7695
 30
0.0
 10
135.7019
 20
-29.0129
 30
0.0
 10
133.9431
 20
-29.0476
 30
0.0
 10
132.286
 20
-28.9533
 30
0.0
 10
132.286
 20
-28.9533
 30
0.0
 10
132.1322
 20
-27.4277
 30
0.0
 10
132.2215
 20
-25.8425
 30
0.0
 10
131.6534
 20
-24.3963
 30
0.0
 10
131.6534
 20
-24.3963
 30
0.0
 10
130.9216
 20
-22.3621
 30
0.0
 10
129.3041
 20
-20.7545
 30
0.0
 10
127.5106
 20
-19.6233
 30
0.0
 10
127.5106
 20
-19.6233
 30
0.0
 10
124.0302
 20
-17.3956
 30
0.0
 10
119.1803
 20
-18.2738
 30
0.0
 10
116.2803
 20
-21.0621
 30
0.0
  0
SPLINE
  5
55
330
1F
100
AcDbEntity
  8
layer 1
 62
     7
370
     9
100
AcDbSpline
210
0.0
220
0.0
230
1.0
 70
    11
 71
     3
 72
    68
 73
    64
 74
     0
 42
0.0000000001
 43
0.0000000001
 12
1.0
 22
0.0
 32
0.0
 13
1.0
 23
0.0
 33
0.0
 40
0.0
 40
0.0
 40
0.0
 40
0.0
 40
0.0588235294117647
 40
0.0588235294117647
 40
0.0588235294117647
 40
0.0588235294117647
 40
0.1176470588235294
 40
0.1176470588235294
 40
0.1176470588235294
 40
0.1176470588235294
 40
0.1764705882352941
 40
0.1764705882352941
 40
0.1764705882352941
 40
0.1764705882352941
 40
0.2352941176470588
 40
0.2352941176470588
 40
0.2352941176470588
 40
0.2352941176470588
 40
0.2941176470588235
 40
0.2941176470588235
 40
0.2941176470588235
 40
0.2941176470588235
 40
0.3529411764705883
 40
0.3529411764705883
 40
0.3529411764705883
 40
0.3529411764705883
 40
0.4117647058823529
 40
0.4117647058823529
 40
0.4117647058823529
 40
0.4117647058823529
 40
0.4705882352941176
 40
0.4705882352941176
 40
0.4705882352941176
 40
0.4705882352941176
 40
0.5294117647058824
 40
0.5294117647058824
 40
0.5294117647058824
 40
0.5294117647058824
 40
0.5882352941176471
 40
0.5882352941176471
 40
0.5882352941176471
 40
0.5882352941176471
 40
0.6470588235294118
 40
0.6470588235294118
 40
0.6470588235294118
 40
0.6470588235294118
 40
0.7058823529411765
 40
0.7058823529411765
 40
0.7058823529411765
 40
0.7058823529411765
 40
0.7647058823529411
 40
0.7647058823529411
 40
0.7647058823529411
 40
0.7647058823529411
 40
0.8235294117647058
 40
0.8235294117647058
 40
0.8235294117647058
 40
0.8235294117647058
 40
0.8823529411764706
 40
0.8823529411764706
 40
0.8823529411764706
 40
0.8823529411764706
 40
1.0
 40
1.0
 40
1.0
 40
1.0
 10
9.5892
 20
-40.769
 30
0.0
 10
8.6391
 20
-43.0215
 30
0.0
 10
7.8353
 20
-45.4974
 30
0.0
 10
5.8953
 20
-47.1123
 30
0.0
 10
5.8953
 20
-47.1123
 30
0.0
 10
4.0224
 20
-48.9703
 30
0.0
 10
1.3904
 20
-49.6203
 30
0.0
 10
-1.0482
 20
-50.362
 30
0.0
 10
-1.0482
 20
-50.362
 30
0.0
 10
-1.6287
 20
-52.7907
 30
0.0
 10
-2.3481
 20
-55.321
 30
0.0
 10
-4.1987
 20
-57.1145
 30
0.0
 10
-4.1987
 20
-57.1145
 30
0.0
 10
-5.8261
 20
-59.2009
 30
0.0
 10
-8.4432
 20
-59.8434
 30
0.0
 10
-10.6238
 20
-61.1259
 30
0.0
 10
-10.6238
 20
-61.1259
 30
0.0
 10
-8.917
 20
-61.7659
 30
0.0
 10
-7.1756
 20
-62.4159
 30
0.0
 10
-5.7343
 20
-63.567
 30
0.0
 10
-5.7343
 20
-63.567
 30
0.0
 10
-3.1072
 20
-65.4945
 30
0.0
 10
-1.5567
 20
-68.573
 30
0.0
 10
-0.9912
 20
-71.7335
 30
0.0
 10
-0.9912
 20
-71.7335
 30
0.0
 10
1.9262
 20
-72.3339
 30
0.0
 10
4.7939
 20
-73.5444
 30
0.0
 10
6.7437
 20
-75.8912
 30
0.0
 10
6.7437
 20
-75.8912
 30
0.0
 10
8.2421
 20
-77.4143
 30
0.0
 10
8.7606
 20
-79.5156
 30
0.0
 10
9.7306
 20
-81.3538
 30
0.0
 10
9.7306
 20
-81.3538
 30
0.0
 10
10.5592
 20
-79.5329
 30
0.0
 10
11.2463
 20
-77.6203
 30
0.0
 10
12.4867
 20
-76.0252
 30
0.0
 10
12.4867
 20
-76.0252
 30
0.0
 10
14.4737
 20
-73.6536
 30
0.0
 10
17.3712
 20
-72.3165
 30
0.0
 10
20.3605
 20
-71.7286
 30
0.0
 10
20.3605
 20
-71.7286
 30
0.0
 10
21.1618
 20
-68.6599
 30
0.0
 10
22.3575
 20
-65.4473
 30
0.0
 10
25.0863
 20
-63.5744
 30
0.0
 10
25.0863
 20
-63.5744
 30
0.0
 10
26.4854
 20
-62.3464
 30
0.0
 10
28.3559
 20
-61.9744
 30
0.0
 10
29.889
 20
-60.992
 30
0.0
 10
29.889
 20
-60.992
 30
0.0
 10
27.7481
 20
-59.8682
 30
0.0
 10
25.3468
 20
-59.057
 30
0.0
 10
23.7095
 20
-57.1865
 30
0.0
 10
23.7095
 20
-57.1865
 30
0.0
 10
21.7324
 20
-55.4203
 30
0.0
 10
21.0204
 20
-52.7758
 30
0.0
 10
20.4225
 20
-50.3
 30
0.0
 10
20.4225
 20
-50.3
 30
0.0
 10
18.1601
 20
-49.7617
 30
0.0
 10
15.7984
 20
-49.1316
 30
0.0
 10
14.0074
 20
-47.5563
 30
0.0
 10
14.0074
 20
-47.5563
 30
0.0
 10
11.7499
 20
-45.8793
 30
0.0
 10
11.0106
 20
-43.0637
 30
0.0
 10
9.5892
 20
-40.769
 30
0.0
  0
SPLINE
  5
56
330
1F
100
AcDbEntity
  8
layer 1
 62
     7
370
     9
100
AcDbSpline
210
0.0
220
0.0
230
1.0
 70
    11
 71
     3
 72
    76
 73
    72
 74
     0
 42
0.0000000001
 43
0.0000000001
 12
1.0
 22
0.0
 32
0.0
 13
1.0
 23
0.0
 33
0.0
 40
0.0
 40
0.0
 40
0.0
 40
0.0
 40
0.0526315789473684
 40
0.0526315789473684
 40
0.0526315789473684
 40
0.0526315789473684
 40
0.1052631578947368
 40
0.1052631578947368
 40
0.1052631578947368
 40
0.1052631578947368
 40
0.1578947368421053
 40
0.1578947368421053
 40
0.1578947368421053
 40
0.1578947368421053
 40
0.2105263157894737
 40
0.2105263157894737
 40
0.2105263157894737
 40
0.2105263157894737
 40
0.2631578947368421
 40
0.2631578947368421
 40
0.2631578947368421
 40
0.2631578947368421
 40
0.3157894736842105
 40
0.3157894736842105
 40
0.3157894736842105
 40
0.3157894736842105
 40
0.3684210526315789
 40
0.3684210526315789
 40
0.3684210526315789
 40
0.3684210526315789
 40
0.4210526315789473
 40
0.4210526315789473
 40
0.4210526315789473
 40
0.4210526315789473
 40
0.4736842105263158
 40
0.4736842105263158
 40
0.4736842105263158
 40
0.4736842105263158
 40
0.5263157894736842
 40
0.5263157894736842
 40
0.5263157894736842
 40
0.5263157894736842
 40
0.5789473684210527
 40
0.5789473684210527
 40
0.5789473684210527
 40
0.5789473684210527
 40
0.631578947368421
 40
0.631578947368421
 40
0.631578947368421
 40
0.631578947368421
 40
0.6842105263157895
 40
0.6842105263157895
 40
0.6842105263157895
 40
0.6842105263157895
 40
0.7368421052631579
 40
0.7368421052631579
 40
0.7368421052631579
 40
0.7368421052631579
 40
0.7894736842105263
 40
0.7894736842105263
 40
0.7894736842105263
 40
0.7894736842105263
 40
0.8421052631578947
 40
0.8421052631578947
 40
0.8421052631578947
 40
0.8421052631578947
 40
0.8947368421052632
 40
0.8947368421052632
 40
0.8947368421052632
 40
0.8947368421052632
 40
1.0
 40
1.0
 40
1.0
 40
1.0
 10
54.7112
 20
-40.9948
 30
0.0
 10
53.962
 20
-43.3987
 30
0.0
 10
52.7712
 20
-45.7405
 30
0.0
 10
50.8064
 20
-47.3777
 30
0.0
 10
50.8064
 20
-47.3777
 30
0.0
 10
49.0451
 20
-49.077
 30
0.0
 10
46.6091
 20
-49.7195
 30
0.0
 10
44.3095
 20
-50.305
 30
0.0
 10
44.3095
 20
-50.305
 30
0.0
 10
43.8306
 20
-52.3441
 30
0.0
 10
43.2998
 20
-54.4354
 30
0.0
 10
41.9056
 20
-56.0752
 30
0.0
 10
41.9056
 20
-56.0752
 30
0.0
 10
40.2311
 20
-58.5236
 30
0.0
 10
37.4304
 20
-59.7218
 30
0.0
 10
34.8579
 20
-60.987
 30
0.0
 10
34.8579
 20
-60.987
 30
0.0
 10
36.2049
 20
-61.9173
 30
0.0
 10
37.8372
 20
-62.3539
 30
0.0
 10
39.1917
 20
-63.2891
 30
0.0
 10
39.1917
 20
-63.2891
 30
0.0
 10
41.9701
 20
-65.2985
 30
0.0
 10
43.6992
 20
-68.4441
 30
0.0
 10
44.3715
 20
-71.7708
 30
0.0
 10
44.3715
 20
-71.7708
 30
0.0
 10
46.7803
 20
-72.381
 30
0.0
 10
49.3131
 20
-73.1177
 30
0.0
 10
51.1289
 20
-74.9163
 30
0.0
 10
51.1289
 20
-74.9163
 30
0.0
 10
53.0243
 20
-76.4866
 30
0.0
 10
53.9768
 20
-78.8234
 30
0.0
 10
54.6789
 20
-81.1156
 30
0.0
 10
54.6789
 20
-81.1156
 30
0.0
 10
54.8178
 20
-81.1181
 30
0.0
 10
55.0957
 20
-81.1231
 30
0.0
 10
55.2346
 20
-81.1231
 30
0.0
 10
55.2346
 20
-81.1231
 30
0.0
 10
55.8696
 20
-79.3717
 30
0.0
 10
56.5568
 20
-77.5979
 30
0.0
 10
57.7351
 20
-76.1294
 30
0.0
 10
57.7351
 20
-76.1294
 30
0.0
 10
59.7743
 20
-73.7602
 30
0.0
 10
62.6768
 20
-72.2396
 30
0.0
 10
65.738
 20
-71.6963
 30
0.0
 10
65.738
 20
-71.6963
 30
0.0
 10
66.2689
 20
-68.5309
 30
0.0
 10
67.8788
 20
-65.5119
 30
0.0
 10
70.4489
 20
-63.5421
 30
0.0
 10
70.4489
 20
-63.5421
 30
0.0
 10
71.8033
 20
-62.2943
 30
0.0
 10
73.6639
 20
-61.9322
 30
0.0
 10
75.2789
 20
-61.1458
 30
0.0
 10
75.2789
 20
-61.1458
 30
0.0
 10
74.2121
 20
-60.3048
 30
0.0
 10
72.8477
 20
-59.9922
 30
0.0
 10
71.7016
 20
-59.2852
 30
0.0
 10
71.7016
 20
-59.2852
 30
0.0
 10
68.3031
 20
-57.5934
 30
0.0
 10
66.4251
 20
-53.9516
 30
0.0
 10
65.738
 20
-50.362
 30
0.0
 10
65.738
 20
-50.362
 30
0.0
 10
63.5252
 20
-49.6823
 30
0.0
 10
61.1833
 20
-49.0844
 30
0.0
 10
59.3625
 20
-47.5737
 30
0.0
 10
59.3625
 20
-47.5737
 30
0.0
 10
57.2738
 20
-45.924
 30
0.0
 10
56.1053
 20
-43.4507
 30
0.0
 10
55.2271
 20
-40.9998
 30
0.0
 10
55.2271
 20
-40.9998
 30
0.0
 10
55.0981
 20
-40.9973
 30
0.0
 10
54.8401
 20
-40.9948
 30
0.0
 10
54.7112
 20
-40.9948
 30
0.0
  0
SPLINE
  5
57
330
1F
100
AcDbEntity
  8
layer 1
 62
     7
370
     9
100
AcDbSpline
210
0.0
220
0.0
230
1.0
 70
    11
 71
     3
 72
    68
 73
    64
 74
     0
 42
0.0000000001
 43
0.0000000001
 12
1.0
 22
0.0
 32
0.0
 13
1.0
 23
0.0
 33
0.0
 40
0.0
 40
0.0
 40
0.0
 40
0.0
 40
0.0588235294117647
 40
0.0588235294117647
 40
0.0588235294117647
 40
0.0588235294117647
 40
0.1176470588235294
 40
0.1176470588235294
 40
0.1176470588235294
 40
0.1176470588235294
 40
0.1764705882352941
 40
0.1764705882352941
 40
0.1764705882352941
 40
0.1764705882352941
 40
0.2352941176470588
 40
0.2352941176470588
 40
0.2352941176470588
 40
0.2352941176470588
 40
0.2941176470588235
 40
0.2941176470588235
 40
0.2941176470588235
 40
0.2941176470588235
 40
0.3529411764705883
 40
0.3529411764705883
 40
0.3529411764705883
 40
0.3529411764705883
 40
0.4117647058823529
 40
0.4117647058823529
 40
0.4117647058823529
 40
0.4117647058823529
 40
0.4705882352941176
 40
0.4705882352941176
 40
0.4705882352941176
 40
0.4705882352941176
 40
0.5294117647058824
 40
0.5294117647058824
 40
0.5294117647058824
 40
0.5294117647058824
 40
0.5882352941176471
 40
0.5882352941176471
 40
0.5882352941176471
 40
0.5882352941176471
 40
0.6470588235294118
 40
0.6470588235294118
 40
0.6470588235294118
 40
0.6470588235294118
 40
0.7058823529411765
 40
0.7058823529411765
 40
0.7058823529411765
 40
0.7058823529411765
 40
0.7647058823529411
 40
0.7647058823529411
 40
0.7647058823529411
 40
0.7647058823529411
 40
0.8235294117647058
 40
0.8235294117647058
 40
0.8235294117647058
 40
0.8235294117647058
 40
0.8823529411764706
 40
0.8823529411764706
 40
0.8823529411764706
 40
0.8823529411764706
 40
1.0
 40
1.0
 40
1.0
 40
1.0
 10
145.5455
 20
-40.841
 30
0.0
 10
144.4167
 20
-42.9769
 30
0.0
 10
143.613
 20
-45.3832
 30
0.0
 10
141.7401
 20
-47.0205
 30
0.0
 10
141.7401
 20
-47.0205
 30
0.0
 10
139.9366
 20
-48.9381
 30
0.0
 10
137.3293
 20
-49.7047
 30
0.0
 10
134.8535
 20
-50.305
 30
0.0
 10
134.8535
 20
-50.305
 30
0.0
 10
134.3177
 20
-52.808
 30
0.0
 10
133.509
 20
-55.388
 30
0.0
 10
131.574
 20
-57.189
 30
0.0
 10
131.574
 20
-57.189
 30
0.0
 10
129.8921
 20
-59.0992
 30
0.0
 10
127.4238
 20
-59.8558
 30
0.0
 10
125.3176
 20
-61.1458
 30
0.0
 10
125.3176
 20
-61.1458
 30
0.0
 10
127.4485
 20
-61.947
 30
0.0
 10
129.6688
 20
-62.7731
 30
0.0
 10
131.1994
 20
-64.5568
 30
0.0
 10
131.1994
 20
-64.5568
 30
0.0
 10
133.3453
 20
-66.385
 30
0.0
 10
134.2036
 20
-69.1461
 30
0.0
 10
134.9181
 20
-71.7708
 30
0.0
 10
134.9181
 20
-71.7708
 30
0.0
 10
137.6866
 20
-72.4107
 30
0.0
 10
140.527
 20
-73.4303
 30
0.0
 10
142.4297
 20
-75.653
 30
0.0
 10
142.4297
 20
-75.653
 30
0.0
 10
144.0025
 20
-77.2556
 30
0.0
 10
144.5359
 20
-79.4808
 30
0.0
 10
145.6795
 20
-81.3513
 30
0.0
 10
145.6795
 20
-81.3513
 30
0.0
 10
146.2723
 20
-79.8108
 30
0.0
 10
146.8404
 20
-78.2355
 30
0.0
 10
147.7707
 20
-76.8587
 30
0.0
 10
147.7707
 20
-76.8587
 30
0.0
 10
149.7726
 20
-74.0803
 30
0.0
 10
152.9256
 20
-72.2644
 30
0.0
 10
156.2845
 20
-71.6987
 30
0.0
 10
156.2845
 20
-71.6987
 30
0.0
 10
156.7137
 20
-69.4711
 30
0.0
 10
157.515
 20
-67.2657
 30
0.0
 10
159.0108
 20
-65.5242
 30
0.0
 10
159.0108
 20
-65.5242
 30
0.0
 10
160.611
 20
-63.2073
 30
0.0
 10
163.3274
 20
-62.1976
 30
0.0
 10
165.8155
 20
-61.1408
 30
0.0
 10
165.8155
 20
-61.1408
 30
0.0
 10
164.7066
 20
-60.2626
 30
0.0
 10
163.2802
 20
-59.9277
 30
0.0
 10
162.0771
 20
-59.2132
 30
0.0
 10
162.0771
 20
-59.2132
 30
0.0
 10
158.7876
 20
-57.4867
 30
0.0
 10
156.9692
 20
-53.8847
 30
0.0
 10
156.2821
 20
-50.3645
 30
0.0
 10
156.2821
 20
-50.3645
 30
0.0
 10
153.2432
 20
-49.531
 30
0.0
 10
149.9537
 20
-48.4196
 30
0.0
 10
148.1081
 20
-45.671
 30
0.0
 10
148.1081
 20
-45.671
 30
0.0
 10
146.8926
 20
-44.2545
 30
0.0
 10
146.5402
 20
-42.3691
 30
0.0
 10
145.5455
 20
-40.841
 30
0.0
  0
SPLINE
  5
58
330
1F
100
AcDbEntity
  8
layer 1
 62
     7
370
     9
100
AcDbSpline
210
0.0
220
0.0
230
1.0
 70
    11
 71
     3
 72
    44
 73
    40
 74
     0
 42
0.0000000001
 43
0.0000000001
 12
1.0
 22
0.0
 32
0.0
 13
1.0
 23
0.0
 33
0.0
 40
0.0
 40
0.0
 40
0.0
 40
0.0
 40
0.0909090909090909
 40
0.0909090909090909
 40
0.0909090909090909
 40
0.0909090909090909
 40
0.1818181818181818
 40
0.1818181818181818
 40
0.1818181818181818
 40
0.1818181818181818
 40
0.2727272727272727
 40
0.2727272727272727
 40
0.2727272727272727
 40
0.2727272727272727
 40
0.3636363636363636
 40
0.3636363636363636
 40
0.3636363636363636
 40
0.3636363636363636
 40
0.4545454545454545
 40
0.4545454545454545
 40
0.4545454545454545
 40
0.4545454545454545
 40
0.5454545454545454
 40
0.5454545454545454
 40
0.5454545454545454
 40
0.5454545454545454
 40
0.6363636363636364
 40
0.6363636363636364
 40
0.6363636363636364
 40
0.6363636363636364
 40
0.7272727272727273
 40
0.7272727272727273
 40
0.7272727272727273
 40
0.7272727272727273
 40
0.8181818181818182
 40
0.8181818181818182
 40
0.8181818181818182
 40
0.8181818181818182
 40
1.0
 40
1.0
 40
1.0
 40
1.0
 10
-35.0639
 20
-42.714
 30
0.0
 10
-35.4112
 20
-49.8138
 30
0.0
 10
-35.1607
 20
-56.9286
 30
0.0
 10
-35.2301
 20
-64.0358
 30
0.0
 10
-35.2301
 20
-64.0358
 30
0.0
 10
-35.1582
 20
-69.0866
 30
0.0
 10
-35.4385
 20
-74.1497
 30
0.0
 10
-35.0639
 20
-79.1931
 30
0.0
 10
-35.0639
 20
-79.1931
 30
0.0
 10
-33.6227
 20
-77.9874
 30
0.0
 10
-33.0843
 20
-76.0326
 30
0.0
 10
-31.586
 20
-74.8716
 30
0.0
 10
-31.586
 20
-74.8716
 30
0.0
 10
-29.7577
 20
-73.0508
 30
0.0
 10
-27.2372
 20
-72.3363
 30
0.0
 10
-24.811
 20
-71.7434
 30
0.0
 10
-24.811
 20
-71.7434
 30
0.0
 10
-24.2852
 20
-68.8757
 30
0.0
 10
-23.0696
 20
-65.9981
 30
0.0
 10
-20.7749
 20
-64.1077
 30
0.0
 10
-20.7749
 20
-64.1077
 30
0.0
 10
-19.2617
 20
-62.5375
 30
0.0
 10
-17.1507
 20
-61.9197
 30
0.0
 10
-15.1908
 20
-61.1309
 30
0.0
 10
-15.1908
 20
-61.1309
 30
0.0
 10
-17.3391
 20
-59.7913
 30
0.0
 10
-20.0356
 20
-59.2381
 30
0.0
 10
-21.6233
 20
-57.1195
 30
0.0
 10
-21.6233
 20
-57.1195
 30
0.0
 10
-23.4591
 20
-55.2863
 30
0.0
 10
-24.2653
 20
-52.7634
 30
0.0
 10
-24.8012
 20
-50.2925
 30
0.0
 10
-24.8012
 20
-50.2925
 30
0.0
 10
-27.1429
 20
-49.8386
 30
0.0
 10
-29.5021
 20
-49.0745
 30
0.0
 10
-31.3205
 20
-47.4695
 30
0.0
 10
-31.3205
 20
-47.4695
 30
0.0
 10
-32.8288
 20
-46.0977
 30
0.0
 10
-33.7269
 20
-44.2272
 30
0.0
 10
-35.0639
 20
-42.714
 30
0.0
  0
SPLINE
  5
59
330
1F
100
AcDbEntity
  8
layer 1
 62
     7
370
     9
100
AcDbSpline
210
0.0
220
0.0
230
1.0
 70
    11
 71
     3
 72
    60
 73
    56
 74
     0
 42
0.0000000001
 43
0.0000000001
 12
1.0
 22
0.0
 32
0.0
 13
1.0
 23
0.0
 33
0.0
 40
0.0
 40
0.0
 40
0.0
 40
0.0
 40
0.0666666666666667
 40
0.0666666666666667
 40
0.0666666666666667
 40
0.0666666666666667
 40
0.1333333333333333
 40
0.1333333333333333
 40
0.1333333333333333
 40
0.1333333333333333
 40
0.2
 40
0.2
 40
0.2
 40
0.2
 40
0.2666666666666667
 40
0.2666666666666667
 40
0.2666666666666667
 40
0.2666666666666667
 40
0.3333333333333333
 40
0.3333333333333333
 40
0.3333333333333333
 40
0.3333333333333333
 40
0.4
 40
0.4
 40
0.4
 40
0.4
 40
0.4666666666666667
 40
0.4666666666666667
 40
0.4666666666666667
 40
0.4666666666666667
 40
0.5333333333333333
 40
0.5333333333333333
 40
0.5333333333333333
 40
0.5333333333333333
 40
0.6
 40
0.6
 40
0.6
 40
0.6
 40
0.6666666666666666
 40
0.6666666666666666
 40
0.6666666666666666
 40
0.6666666666666666
 40
0.7333333333333333
 40
0.7333333333333333
 40
0.7333333333333333
 40
0.7333333333333333
 40
0.8
 40
0.8
 40
0.8
 40
0.8
 40
0.8666666666666667
 40
0.8666666666666667
 40
0.8666666666666667
 40
0.8666666666666667
 40
1.0
 40
1.0
 40
1.0
 40
1.0
 10
-21.3307
 20
-68.9948
 30
0.0
 10
-22.1443
 20
-70.575
 30
0.0
 10
-22.2609
 20
-72.376
 30
0.0
 10
-22.4543
 20
-74.11
 30
0.0
 10
-22.4543
 20
-74.11
 30
0.0
 10
-26.0614
 20
-74.3011
 30
0.0
 10
-30.095
 20
-75.6829
 30
0.0
 10
-31.7447
 20
-79.1782
 30
0.0
 10
-31.7447
 20
-79.1782
 30
0.0
 10
-34.1535
 20
-83.1672
 30
0.0
 10
-32.7693
 20
-88.9002
 30
0.0
 10
-28.7977
 20
-91.3412
 30
0.0
 10
-28.7977
 20
-91.3412
 30
0.0
 10
-26.9395
 20
-92.6683
 30
0.0
 10
-24.635
 20
-93.028
 30
0.0
 10
-22.4147
 20
-93.1893
 30
0.0
 10
-22.4147
 20
-93.1893
 30
0.0
 10
-22.1889
 20
-94.901
 30
0.0
 10
-22.1815
 20
-96.7145
 30
0.0
 10
-21.3454
 20
-98.2748
 30
0.0
 10
-21.3454
 20
-98.2748
 30
0.0
 10
-19.7653
 20
-101.7677
 30
0.0
 10
-15.7986
 20
-104.2335
 30
0.0
 10
-11.9163
 20
-103.4471
 30
0.0
 10
-11.9163
 20
-103.4471
 30
0.0
 10
-9.1601
 20
-103.4745
 30
0.0
 10
-6.801
 20
-101.6114
 30
0.0
 10
-5.2332
 20
-99.4978
 30
0.0
 10
-5.2332
 20
-99.4978
 30
0.0
 10
-3.7671
 20
-97.7712
 30
0.0
 10
-3.7298
 20
-95.3501
 30
0.0
 10
-3.5611
 20
-93.2117
 30
0.0
 10
-3.5611
 20
-93.2117
 30
0.0
 10
-0.7406
 20
-92.9934
 30
0.0
 10
2.3305
 20
-92.4004
 30
0.0
 10
4.3003
 20
-90.1728
 30
0.0
 10
4.3003
 20
-90.1728
 30
0.0
 10
8.0461
 20
-86.794
 30
0.0
 10
7.8651
 20
-80.3094
 30
0.0
 10
4.1712
 20
-76.9703
 30
0.0
 10
4.1712
 20
-76.9703
 30
0.0
 10
2.1123
 20
-74.9088
 30
0.0
 10
-0.8423
 20
-74.2192
 30
0.0
 10
-3.6579
 20
-74.0778
 30
0.0
 10
-3.6579
 20
-74.0778
 30
0.0
 10
-3.8241
 20
-72.2073
 30
0.0
 10
-3.648
 20
-70.1558
 30
0.0
 10
-4.7395
 20
-68.521
 30
0.0
 10
-4.7395
 20
-68.521
 30
0.0
 10
-6.2825
 20
-65.8244
 30
0.0
 10
-9.1453
 20
-64.0209
 30
0.0
 10
-12.1941
 20
-63.5793
 30
0.0
 10
-12.1941
 20
-63.5793
 30
0.0
 10
-15.9227
 20
-63.4057
 30
0.0
 10
-19.8099
 20
-65.5093
 30
0.0
 10
-21.3307
 20
-68.9948
 30
0.0
  0
SPLINE
  5
5A
330
1F
100
AcDbEntity
  8
layer 1
 62
     7
370
     9
100
AcDbSpline
210
0.0
220
0.0
230
1.0
 70
    11
 71
     3
 72
    60
 73
    56
 74
     0
 42
0.0000000001
 43
0.0000000001
 12
1.0
 22
0.0
 32
0.0
 13
1.0
 23
0.0
 33
0.0
 40
0.0
 40
0.0
 40
0.0
 40
0.0
 40
0.0666666666666667
 40
0.0666666666666667
 40
0.0666666666666667
 40
0.0666666666666667
 40
0.1333333333333333
 40
0.1333333333333333
 40
0.1333333333333333
 40
0.1333333333333333
 40
0.2
 40
0.2
 40
0.2
 40
0.2
 40
0.2666666666666667
 40
0.2666666666666667
 40
0.2666666666666667
 40
0.2666666666666667
 40
0.3333333333333333
 40
0.3333333333333333
 40
0.3333333333333333
 40
0.3333333333333333
 40
0.4
 40
0.4
 40
0.4
 40
0.4
 40
0.4666666666666667
 40
0.4666666666666667
 40
0.4666666666666667
 40
0.4666666666666667
 40
0.5333333333333333
 40
0.5333333333333333
 40
0.5333333333333333
 40
0.5333333333333333
 40
0.6
 40
0.6
 40
0.6
 40
0.6
 40
0.6666666666666666
 40
0.6666666666666666
 40
0.6666666666666666
 40
0.6666666666666666
 40
0.7333333333333333
 40
0.7333333333333333
 40
0.7333333333333333
 40
0.7333333333333333
 40
0.8
 40
0.8
 40
0.8
 40
0.8
 40
0.8666666666666667
 40
0.8666666666666667
 40
0.8666666666666667
 40
0.8666666666666667
 40
1.0
 40
1.0
 40
1.0
 40
1.0
 10
31.4171
 20
-63.6811
 30
0.0
 10
28.7925
 20
-63.9167
 30
0.0
 10
26.4135
 20
-65.4846
 30
0.0
 10
24.811
 20
-67.5163
 30
0.0
 10
24.811
 20
-67.5163
 30
0.0
 10
23.2704
 20
-69.357
 30
0.0
 10
23.1786
 20
-71.8476
 30
0.0
 10
22.9206
 20
-74.12
 30
0.0
 10
22.9206
 20
-74.12
 30
0.0
 10
20.095
 20
-74.306
 30
0.0
 10
17.0636
 20
-74.9535
 30
0.0
 10
15.0492
 20
-77.1118
 30
0.0
 10
15.0492
 20
-77.1118
 30
0.0
 10
11.291
 20
-80.6988
 30
0.0
 10
11.4571
 20
-87.6126
 30
0.0
 10
15.6967
 20
-90.7458
 30
0.0
 10
15.6967
 20
-90.7458
 30
0.0
 10
17.6689
 20
-92.6163
 30
0.0
 10
20.4002
 20
-93.0306
 30
0.0
 10
22.9876
 20
-93.1745
 30
0.0
 10
22.9876
 20
-93.1745
 30
0.0
 10
22.5584
 20
-97.7191
 30
0.0
 10
25.6469
 20
-102.2861
 30
0.0
 10
30.0924
 20
-103.3827
 30
0.0
 10
30.0924
 20
-103.3827
 30
0.0
 10
31.7768
 20
-103.6308
 30
0.0
 10
33.5307
 20
-103.5265
 30
0.0
 10
35.2002
 20
-103.2214
 30
0.0
 10
35.2002
 20
-103.2214
 30
0.0
 10
39.3976
 20
-101.9289
 30
0.0
 10
42.1562
 20
-97.4735
 30
0.0
 10
41.7816
 20
-93.1397
 30
0.0
 10
41.7816
 20
-93.1397
 30
0.0
 10
43.5876
 20
-92.9585
 30
0.0
 10
45.4307
 20
-92.7552
 30
0.0
 10
47.1226
 20
-92.0582
 30
0.0
 10
47.1226
 20
-92.0582
 30
0.0
 10
48.9261
 20
-91.0411
 30
0.0
 10
50.6006
 20
-89.6022
 30
0.0
 10
51.4267
 20
-87.6622
 30
0.0
 10
51.4267
 20
-87.6622
 30
0.0
 10
53.6618
 20
-83.4128
 30
0.0
 10
51.7342
 20
-77.5062
 30
0.0
 10
47.3756
 20
-75.4621
 30
0.0
 10
47.3756
 20
-75.4621
 30
0.0
 10
45.6862
 20
-74.5243
 30
0.0
 10
43.7413
 20
-74.2663
 30
0.0
 10
41.856
 20
-74.0381
 30
0.0
 10
41.856
 20
-74.0381
 30
0.0
 10
41.6253
 20
-72.4877
 30
0.0
 10
41.5087
 20
-70.9024
 30
0.0
 10
41.0126
 20
-69.4115
 30
0.0
 10
41.0126
 20
-69.4115
 30
0.0
 10
39.4795
 20
-65.7574
 30
0.0
 10
35.3937
 20
-63.1775
 30
0.0
 10
31.4171
 20
-63.6811
 30
0.0
  0
SPLINE
  5
5B
330
1F
100
AcDbEntity
  8
layer 1
 62
     7
370
     9
100
AcDbSpline
210
0.0
220
0.0
230
1.0
 70
    11
 71
     3
 72
    60
 73
    56
 74
     0
 42
0.0000000001
 43
0.0000000001
 12
1.0
 22
0.0
 32
0.0
 13
1.0
 23
0.0
 33
0.0
 40
0.0
 40
0.0
 40
0.0
 40
0.0
 40
0.0666666666666667
 40
0.0666666666666667
 40
0.0666666666666667
 40
0.0666666666666667
 40
0.1333333333333333
 40
0.1333333333333333
 40
0.1333333333333333
 40
0.1333333333333333
 40
0.2
 40
0.2
 40
0.2
 40
0.2
 40
0.2666666666666667
 40
0.2666666666666667
 40
0.2666666666666667
 40
0.2666666666666667
 40
0.3333333333333333
 40
0.3333333333333333
 40
0.3333333333333333
 40
0.3333333333333333
 40
0.4
 40
0.4
 40
0.4
 40
0.4
 40
0.4666666666666667
 40
0.4666666666666667
 40
0.4666666666666667
 40
0.4666666666666667
 40
0.5333333333333333
 40
0.5333333333333333
 40
0.5333333333333333
 40
0.5333333333333333
 40
0.6
 40
0.6
 40
0.6
 40
0.6
 40
0.6666666666666666
 40
0.6666666666666666
 40
0.6666666666666666
 40
0.6666666666666666
 40
0.7333333333333333
 40
0.7333333333333333
 40
0.7333333333333333
 40
0.7333333333333333
 40
0.8
 40
0.8
 40
0.8
 40
0.8
 40
0.8666666666666667
 40
0.8666666666666667
 40
0.8666666666666667
 40
0.8666666666666667
 40
1.0
 40
1.0
 40
1.0
 40
1.0
 10
70.5357
 20
-66.8515
 30
0.0
 10
68.8042
 20
-68.8782
 30
0.0
 10
68.2609
 20
-71.5301
 30
0.0
 10
68.0922
 20
-74.1125
 30
0.0
 10
68.0922
 20
-74.1125
 30
0.0
 10
64.4455
 20
-74.2291
 30
0.0
 10
60.5086
 20
-75.7597
 30
0.0
 10
58.8143
 20
-79.2079
 30
0.0
 10
58.8143
 20
-79.2079
 30
0.0
 10
56.3707
 20
-83.1846
 30
0.0
 10
57.8096
 20
-88.8927
 30
0.0
 10
61.7515
 20
-91.3387
 30
0.0
 10
61.7515
 20
-91.3387
 30
0.0
 10
63.6045
 20
-92.6709
 30
0.0
 10
65.9116
 20
-93.0256
 30
0.0
 10
68.1319
 20
-93.1893
 30
0.0
 10
68.1319
 20
-93.1893
 30
0.0
 10
68.3601
 20
-95.0821
 30
0.0
 10
68.4072
 20
-97.0915
 30
0.0
 10
69.4566
 20
-98.7611
 30
0.0
 10
69.4566
 20
-98.7611
 30
0.0
 10
71.0815
 20
-102.0803
 30
0.0
 10
74.9936
 20
-104.0153
 30
0.0
 10
78.6279
 20
-103.4571
 30
0.0
 10
78.6279
 20
-103.4571
 30
0.0
 10
81.3839
 20
-103.4695
 30
0.0
 10
83.7456
 20
-101.6139
 30
0.0
 10
85.3134
 20
-99.4978
 30
0.0
 10
85.3134
 20
-99.4978
 30
0.0
 10
86.7795
 20
-97.7712
 30
0.0
 10
86.8168
 20
-95.3501
 30
0.0
 10
86.9854
 20
-93.2117
 30
0.0
 10
86.9854
 20
-93.2117
 30
0.0
 10
89.806
 20
-92.9934
 30
0.0
 10
92.8771
 20
-92.4004
 30
0.0
 10
94.8469
 20
-90.1728
 30
0.0
 10
94.8469
 20
-90.1728
 30
0.0
 10
98.5927
 20
-86.794
 30
0.0
 10
98.4092
 20
-80.3094
 30
0.0
 10
94.7178
 20
-76.9703
 30
0.0
 10
94.7178
 20
-76.9703
 30
0.0
 10
92.6589
 20
-74.9088
 30
0.0
 10
89.7043
 20
-74.2192
 30
0.0
 10
86.8887
 20
-74.0778
 30
0.0
 10
86.8887
 20
-74.0778
 30
0.0
 10
86.72
 20
-72.2073
 30
0.0
 10
86.8986
 20
-70.1558
 30
0.0
 10
85.8071
 20
-68.521
 30
0.0
 10
85.8071
 20
-68.521
 30
0.0
 10
84.2615
 20
-65.8269
 30
0.0
 10
81.4013
 20
-64.0184
 30
0.0
 10
78.35
 20
-63.5793
 30
0.0
 10
78.35
 20
-63.5793
 30
0.0
 10
75.4228
 20
-63.4305
 30
0.0
 10
72.5773
 20
-64.8172
 30
0.0
 10
70.5357
 20
-66.8515
 30
0.0
  0
SPLINE
  5
5C
330
1F
100
AcDbEntity
  8
layer 1
 62
     7
370
     9
100
AcDbSpline
210
0.0
220
0.0
230
1.0
 70
    11
 71
     3
 72
    68
 73
    64
 74
     0
 42
0.0000000001
 43
0.0000000001
 12
1.0
 22
0.0
 32
0.0
 13
1.0
 23
0.0
 33
0.0
 40
0.0
 40
0.0
 40
0.0
 40
0.0
 40
0.0588235294117647
 40
0.0588235294117647
 40
0.0588235294117647
 40
0.0588235294117647
 40
0.1176470588235294
 40
0.1176470588235294
 40
0.1176470588235294
 40
0.1176470588235294
 40
0.1764705882352941
 40
0.1764705882352941
 40
0.1764705882352941
 40
0.1764705882352941
 40
0.2352941176470588
 40
0.2352941176470588
 40
0.2352941176470588
 40
0.2352941176470588
 40
0.2941176470588235
 40
0.2941176470588235
 40
0.2941176470588235
 40
0.2941176470588235
 40
0.3529411764705883
 40
0.3529411764705883
 40
0.3529411764705883
 40
0.3529411764705883
 40
0.4117647058823529
 40
0.4117647058823529
 40
0.4117647058823529
 40
0.4117647058823529
 40
0.4705882352941176
 40
0.4705882352941176
 40
0.4705882352941176
 40
0.4705882352941176
 40
0.5294117647058824
 40
0.5294117647058824
 40
0.5294117647058824
 40
0.5294117647058824
 40
0.5882352941176471
 40
0.5882352941176471
 40
0.5882352941176471
 40
0.5882352941176471
 40
0.6470588235294118
 40
0.6470588235294118
 40
0.6470588235294118
 40
0.6470588235294118
 40
0.7058823529411765
 40
0.7058823529411765
 40
0.7058823529411765
 40
0.7058823529411765
 40
0.7647058823529411
 40
0.7647058823529411
 40
0.7647058823529411
 40
0.7647058823529411
 40
0.8235294117647058
 40
0.8235294117647058
 40
0.8235294117647058
 40
0.8235294117647058
 40
0.8823529411764706
 40
0.8823529411764706
 40
0.8823529411764706
 40
0.8823529411764706
 40
1.0
 40
1.0
 40
1.0
 40
1.0
 10
159.5368
 20
-69.5034
 30
0.0
 10
158.9092
 20
-70.9521
 30
0.0
 10
158.8174
 20
-72.5596
 30
0.0
 10
158.6388
 20
-74.11
 30
0.0
 10
158.6388
 20
-74.11
 30
0.0
 10
156.6195
 20
-74.316
 30
0.0
 10
154.553
 20
-74.5764
 30
0.0
 10
152.7941
 20
-75.6754
 30
0.0
 10
152.7941
 20
-75.6754
 30
0.0
 10
150.5194
 20
-76.7099
 30
0.0
 10
149.2938
 20
-79.069
 30
0.0
 10
148.4876
 20
-81.3091
 30
0.0
 10
148.4876
 20
-81.3091
 30
0.0
 10
147.3093
 20
-85.2634
 30
0.0
 10
149.3758
 20
-89.952
 30
0.0
 10
153.0646
 20
-91.805
 30
0.0
 10
153.0646
 20
-91.805
 30
0.0
 10
154.7614
 20
-92.7949
 30
0.0
 10
156.7559
 20
-93.028
 30
0.0
 10
158.6784
 20
-93.1893
 30
0.0
 10
158.6784
 20
-93.1893
 30
0.0
 10
158.9017
 20
-94.901
 30
0.0
 10
158.9116
 20
-96.7145
 30
0.0
 10
159.7501
 20
-98.2748
 30
0.0
 10
159.7501
 20
-98.2748
 30
0.0
 10
161.2138
 20
-101.6635
 30
0.0
 10
164.9894
 20
-103.9458
 30
0.0
 10
168.6882
 20
-103.5017
 30
0.0
 10
168.6882
 20
-103.5017
 30
0.0
 10
171.6799
 20
-103.7101
 30
0.0
 10
174.2078
 20
-101.7999
 30
0.0
 10
175.8575
 20
-99.4953
 30
0.0
 10
175.8575
 20
-99.4953
 30
0.0
 10
177.3286
 20
-97.7712
 30
0.0
 10
177.3633
 20
-95.3451
 30
0.0
 10
177.5295
 20
-93.2092
 30
0.0
 10
177.5295
 20
-93.2092
 30
0.0
 10
179.7498
 20
-92.8818
 30
0.0
 10
182.2255
 20
-92.8048
 30
0.0
 10
184.0389
 20
-91.2892
 30
0.0
 10
184.0389
 20
-91.2892
 30
0.0
 10
186.4477
 20
-89.6493
 30
0.0
 10
188.3083
 20
-86.9032
 30
0.0
 10
188.0602
 20
-83.8841
 30
0.0
 10
188.0602
 20
-83.8841
 30
0.0
 10
188.4497
 20
-80.1407
 30
0.0
 10
185.897
 20
-76.6503
 30
0.0
 10
182.5877
 20
-75.1768
 30
0.0
 10
182.5877
 20
-75.1768
 30
0.0
 10
181.0001
 20
-74.3506
 30
0.0
 10
179.1643
 20
-74.3134
 30
0.0
 10
177.4353
 20
-74.0778
 30
0.0
 10
177.4353
 20
-74.0778
 30
0.0
 10
177.2715
 20
-72.3711
 30
0.0
 10
177.4253
 20
-70.5577
 30
0.0
 10
176.629
 20
-68.9898
 30
0.0
 10
176.629
 20
-68.9898
 30
0.0
 10
175.468
 20
-66.8341
 30
0.0
 10
173.5529
 20
-65.0454
 30
0.0
 10
171.2532
 20
-64.1772
 30
0.0
 10
171.2532
 20
-64.1772
 30
0.0
 10
166.8028
 20
-62.3563
 30
0.0
 10
161.2063
 20
-65.0951
 30
0.0
 10
159.5368
 20
-69.5034
 30
0.0
  0
SPLINE
  5
5D
330
1F
100
AcDbEntity
  8
layer 1
 62
     7
370
     9
100
AcDbSpline
210
0.0
220
0.0
230
1.0
 70
    11
 71
     3
 72
    44
 73
    40
 74
     0
 42
0.0000000001
 43
0.0000000001
 12
1.0
 22
0.0
 32
0.0
 13
1.0
 23
0.0
 33
0.0
 40
0.0
 40
0.0
 40
0.0
 40
0.0
 40
0.0909090909090909
 40
0.0909090909090909
 40
0.0909090909090909
 40
0.0909090909090909
 40
0.1818181818181818
 40
0.1818181818181818
 40
0.1818181818181818
 40
0.1818181818181818
 40
0.2727272727272727
 40
0.2727272727272727
 40
0.2727272727272727
 40
0.2727272727272727
 40
0.3636363636363636
 40
0.3636363636363636
 40
0.3636363636363636
 40
0.3636363636363636
 40
0.4545454545454545
 40
0.4545454545454545
 40
0.4545454545454545
 40
0.4545454545454545
 40
0.5454545454545454
 40
0.5454545454545454
 40
0.5454545454545454
 40
0.5454545454545454
 40
0.6363636363636364
 40
0.6363636363636364
 40
0.6363636363636364
 40
0.6363636363636364
 40
0.7272727272727273
 40
0.7272727272727273
 40
0.7272727272727273
 40
0.7272727272727273
 40
0.8181818181818182
 40
0.8181818181818182
 40
0.8181818181818182
 40
0.8181818181818182
 40
1.0
 40
1.0
 40
1.0
 40
1.0
 10
100.3243
 20
-86.0275
 30
0.0
 10
99.2303
 20
-88.3444
 30
0.0
 10
98.1636
 20
-90.793
 30
0.0
 10
96.2087
 20
-92.527
 30
0.0
 10
96.2087
 20
-92.527
 30
0.0
 10
94.4202
 20
-94.2883
 30
0.0
 10
91.9146
 20
-94.9854
 30
0.0
 10
89.5431
 20
-95.5485
 30
0.0
 10
89.5431
 20
-95.5485
 30
0.0
 10
89.0072
 20
-98.0913
 30
0.0
 10
88.1315
 20
-100.7679
 30
0.0
 10
86.147
 20
-102.559
 30
0.0
 10
86.147
 20
-102.559
 30
0.0
 10
84.8967
 20
-103.7696
 30
0.0
 10
83.3561
 20
-104.6205
 30
0.0
 10
82.0636
 20
-105.7766
 30
0.0
 10
82.0636
 20
-105.7766
 30
0.0
 10
86.6976
 20
-106.1635
 30
0.0
 10
91.354
 20
-105.8956
 30
0.0
 10
95.9979
 20
-105.9601
 30
0.0
 10
95.9979
 20
-105.9601
 30
0.0
 10
103.5244
 20
-105.8758
 30
0.0
 10
111.0584
 20
-106.156
 30
0.0
 10
118.5799
 20
-105.7839
 30
0.0
 10
118.5799
 20
-105.7839
 30
0.0
 10
117.2801
 20
-104.5262
 30
0.0
 10
115.4791
 20
-103.9334
 30
0.0
 10
114.2933
 20
-102.5466
 30
0.0
 10
114.2933
 20
-102.5466
 30
0.0
 10
112.3881
 20
-100.6563
 30
0.0
 10
111.5397
 20
-98.0417
 30
0.0
 10
110.9691
 20
-95.4889
 30
0.0
 10
110.9691
 20
-95.4889
 30
0.0
 10
108.4859
 20
-94.8862
 30
0.0
 10
105.8017
 20
-94.1842
 30
0.0
 10
103.9834
 20
-92.264
 30
0.0
 10
103.9834
 20
-92.264
 30
0.0
 10
102.2146
 20
-90.5548
 30
0.0
 10
101.2769
 20
-88.2402
 30
0.0
 10
100.3243
 20
-86.0275
 30
0.0
  0
SPLINE
  5
5E
330
1F
100
AcDbEntity
  8
layer 1
 62
     7
370
     9
100
AcDbSpline
210
0.0
220
0.0
230
1.0
 70
    11
 71
     3
 72
    52
 73
    48
 74
     0
 42
0.0000000001
 43
0.0000000001
 12
1.0
 22
0.0
 32
0.0
 13
1.0
 23
0.0
 33
0.0
 40
0.0
 40
0.0
 40
0.0
 40
0.0
 40
0.0769230769230769
 40
0.0769230769230769
 40
0.0769230769230769
 40
0.0769230769230769
 40
0.1538461538461539
 40
0.1538461538461539
 40
0.1538461538461539
 40
0.1538461538461539
 40
0.2307692307692308
 40
0.2307692307692308
 40
0.2307692307692308
 40
0.2307692307692308
 40
0.3076923076923077
 40
0.3076923076923077
 40
0.3076923076923077
 40
0.3076923076923077
 40
0.3846153846153846
 40
0.3846153846153846
 40
0.3846153846153846
 40
0.3846153846153846
 40
0.4615384615384616
 40
0.4615384615384616
 40
0.4615384615384616
 40
0.4615384615384616
 40
0.5384615384615384
 40
0.5384615384615384
 40
0.5384615384615384
 40
0.5384615384615384
 40
0.6153846153846154
 40
0.6153846153846154
 40
0.6153846153846154
 40
0.6153846153846154
 40
0.6923076923076923
 40
0.6923076923076923
 40
0.6923076923076923
 40
0.6923076923076923
 40
0.7692307692307693
 40
0.7692307692307693
 40
0.7692307692307693
 40
0.7692307692307693
 40
0.8461538461538461
 40
0.8461538461538461
 40
0.8461538461538461
 40
0.8461538461538461
 40
1.0
 40
1.0
 40
1.0
 40
1.0
 10
9.7504
 20
2.6412
 30
0.0
 10
11.3977
 20
-1.6107
 30
0.0
 10
15.208
 20
-4.8605
 30
0.0
 10
19.718
 20
-5.6668
 30
0.0
 10
19.718
 20
-5.6668
 30
0.0
 10
20.3506
 20
-7.7902
 30
0.0
 10
21.0303
 20
-10.0105
 30
0.0
 10
22.5808
 20
-11.6701
 30
0.0
 10
22.5808
 20
-11.6701
 30
0.0
 10
23.9898
 20
-13.5108
 30
0.0
 10
26.0339
 20
-14.6544
 30
0.0
 10
28.0284
 20
-15.7559
 30
0.0
 10
28.0284
 20
-15.7559
 30
0.0
 10
25.4808
 20
-16.8548
 30
0.0
 10
23.2282
 20
-18.6484
 30
0.0
 10
21.6877
 20
-20.9679
 30
0.0
 10
21.6877
 20
-20.9679
 30
0.0
 10
20.8418
 20
-22.4117
 30
0.0
 10
20.3257
 20
-24.0142
 30
0.0
 10
19.7527
 20
-25.5795
 30
0.0
 10
19.7527
 20
-25.5795
 30
0.0
 10
17.6466
 20
-26.3808
 30
0.0
 10
15.4238
 20
-27.1052
 30
0.0
 10
13.7221
 20
-28.6507
 30
0.0
 10
13.7221
 20
-28.6507
 30
0.0
 10
11.926
 20
-30.0523
 30
0.0
 10
10.7303
 20
-32.0195
 30
0.0
 10
9.738
 20
-34.0339
 30
0.0
 10
9.738
 20
-34.0339
 30
0.0
 10
8.0065
 20
-29.7769
 30
0.0
 10
4.0795
 20
-26.6835
 30
0.0
 10
-0.3858
 20
-25.7284
 30
0.0
 10
-0.3858
 20
-25.7284
 30
0.0
 10
-1.2714
 20
-21.3028
 30
0.0
 10
-4.4691
 20
-17.5122
 30
0.0
 10
-8.6069
 20
-15.7633
 30
0.0
 10
-8.6069
 20
-15.7633
 30
0.0
 10
-6.5331
 20
-14.6172
 30
0.0
 10
-4.4095
 20
-13.3868
 30
0.0
 10
-2.9733
 20
-11.4518
 30
0.0
 10
-2.9733
 20
-11.4518
 30
0.0
 10
-1.5741
 20
-9.8294
 30
0.0
 10
-0.8944
 20
-7.7456
 30
0.0
 10
-0.3263
 20
-5.7164
 30
0.0
 10
-0.3263
 20
-5.7164
 30
0.0
 10
4.1068
 20
-4.7191
 30
0.0
 10
8.0958
 20
-1.6505
 30
0.0
 10
9.7504
 20
2.6412
 30
0.0
  0
SPLINE
  5
5F
330
1F
100
AcDbEntity
  8
layer 1
 62
     7
370
     9
100
AcDbSpline
210
0.0
220
0.0
230
1.0
 70
    11
 71
     3
 72
    44
 73
    40
 74
     0
 42
0.0000000001
 43
0.0000000001
 12
1.0
 22
0.0
 32
0.0
 13
1.0
 23
0.0
 33
0.0
 40
0.0
 40
0.0
 40
0.0
 40
0.0
 40
0.0909090909090909
 40
0.0909090909090909
 40
0.0909090909090909
 40
0.0909090909090909
 40
0.1818181818181818
 40
0.1818181818181818
 40
0.1818181818181818
 40
0.1818181818181818
 40
0.2727272727272727
 40
0.2727272727272727
 40
0.2727272727272727
 40
0.2727272727272727
 40
0.3636363636363636
 40
0.3636363636363636
 40
0.3636363636363636
 40
0.3636363636363636
 40
0.4545454545454545
 40
0.4545454545454545
 40
0.4545454545454545
 40
0.4545454545454545
 40
0.5454545454545454
 40
0.5454545454545454
 40
0.5454545454545454
 40
0.5454545454545454
 40
0.6363636363636364
 40
0.6363636363636364
 40
0.6363636363636364
 40
0.6363636363636364
 40
0.7272727272727273
 40
0.7272727272727273
 40
0.7272727272727273
 40
0.7272727272727273
 40
0.8181818181818182
 40
0.8181818181818182
 40
0.8181818181818182
 40
0.8181818181818182
 40
1.0
 40
1.0
 40
1.0
 40
1.0
 10
-8.4656
 20
119.6175
 30
0.0
 10
-3.0105
 20
120.002
 30
0.0
 10
2.467
 20
119.7018
 30
0.0
 10
7.9321
 20
119.7837
 30
0.0
 10
7.9321
 20
119.7837
 30
0.0
 10
14.6251
 20
119.7217
 30
0.0
 10
21.3255
 20
119.9573
 30
0.0
 10
28.0135
 20
119.6175
 30
0.0
 10
28.0135
 20
119.6175
 30
0.0
 10
26.4135
 20
118.2059
 30
0.0
 10
24.4065
 20
117.2757
 30
0.0
 10
23.0248
 20
115.6136
 30
0.0
 10
23.0248
 20
115.6136
 30
0.0
 10
21.6257
 20
113.7903
 30
0.0
 10
20.9335
 20
111.5675
 30
0.0
 10
20.4275
 20
109.3572
 30
0.0
 10
20.4275
 20
109.3572
 30
0.0
 10
16.8056
 20
108.7072
 30
0.0
 10
13.1465
 20
106.8095
 30
0.0
 10
11.4398
 20
103.4009
 30
0.0
 10
11.4398
 20
103.4009
 30
0.0
 10
10.7352
 20
102.2524
 30
0.0
 10
10.4227
 20
100.8904
 30
0.0
 10
9.5842
 20
99.8212
 30
0.0
 10
9.5842
 20
99.8212
 30
0.0
 10
8.7531
 20
101.6123
 30
0.0
 10
8.2694
 20
103.6094
 30
0.0
 10
6.853
 20
105.068
 30
0.0
 10
6.853
 20
105.068
 30
0.0
 10
4.9105
 20
107.4569
 30
0.0
 10
1.9931
 20
108.7667
 30
0.0
 10
-0.9713
 20
109.3572
 30
0.0
 10
-0.9713
 20
109.3572
 30
0.0
 10
-1.4724
 20
112.0041
 30
0.0
 10
-2.5763
 20
114.5989
 30
0.0
 10
-4.5088
 20
116.5215
 30
0.0
 10
-4.5088
 20
116.5215
 30
0.0
 10
-5.645
 20
117.7818
 30
0.0
 10
-7.3865
 20
118.2977
 30
0.0
 10
-8.4656
 20
119.6175
 30
0.0
  0
SPLINE
  5
60
330
1F
100
AcDbEntity
  8
layer 1
 62
     7
370
     9
100
AcDbSpline
210
0.0
220
0.0
230
1.0
 70
    11
 71
     3
 72
    44
 73
    40
 74
     0
 42
0.0000000001
 43
0.0000000001
 12
1.0
 22
0.0
 32
0.0
 13
1.0
 23
0.0
 33
0.0
 40
0.0
 40
0.0
 40
0.0
 40
0.0
 40
0.0909090909090909
 40
0.0909090909090909
 40
0.0909090909090909
 40
0.0909090909090909
 40
0.1818181818181818
 40
0.1818181818181818
 40
0.1818181818181818
 40
0.1818181818181818
 40
0.2727272727272727
 40
0.2727272727272727
 40
0.2727272727272727
 40
0.2727272727272727
 40
0.3636363636363636
 40
0.3636363636363636
 40
0.3636363636363636
 40
0.3636363636363636
 40
0.4545454545454545
 40
0.4545454545454545
 40
0.4545454545454545
 40
0.4545454545454545
 40
0.5454545454545454
 40
0.5454545454545454
 40
0.5454545454545454
 40
0.5454545454545454
 40
0.6363636363636364
 40
0.6363636363636364
 40
0.6363636363636364
 40
0.6363636363636364
 40
0.7272727272727273
 40
0.7272727272727273
 40
0.7272727272727273
 40
0.7272727272727273
 40
0.8181818181818182
 40
0.8181818181818182
 40
0.8181818181818182
 40
0.8181818181818182
 40
1.0
 40
1.0
 40
1.0
 40
1.0
 10
82.081
 20
119.6175
 30
0.0
 10
87.9504
 20
120.0094
 30
0.0
 10
93.8397
 20
119.6919
 30
0.0
 10
99.719
 20
119.7837
 30
0.0
 10
99.719
 20
119.7837
 30
0.0
 10
105.9977
 20
119.7291
 30
0.0
 10
112.2839
 20
119.9474
 30
0.0
 10
118.5601
 20
119.6175
 30
0.0
 10
118.5601
 20
119.6175
 30
0.0
 10
116.9601
 20
118.2059
 30
0.0
 10
114.9531
 20
117.2757
 30
0.0
 10
113.5713
 20
115.6136
 30
0.0
 10
113.5713
 20
115.6136
 30
0.0
 10
112.1747
 20
113.7903
 30
0.0
 10
111.4826
 20
111.57
 30
0.0
 10
110.9741
 20
109.3646
 30
0.0
 10
110.9741
 20
109.3646
 30
0.0
 10
107.8012
 20
108.737
 30
0.0
 10
104.7326
 20
107.2163
 30
0.0
 10
102.6934
 20
104.6562
 30
0.0
 10
102.6934
 20
104.6562
 30
0.0
 10
101.6986
 20
103.1578
 30
0.0
 10
101.1181
 20
101.4412
 30
0.0
 10
100.3466
 20
99.8262
 30
0.0
 10
100.3466
 20
99.8262
 30
0.0
 10
99.0765
 20
102.6964
 30
0.0
 10
97.5682
 20
105.7403
 30
0.0
 10
94.7451
 20
107.3701
 30
0.0
 10
94.7451
 20
107.3701
 30
0.0
 10
93.2418
 20
108.5162
 30
0.0
 10
91.3416
 20
108.8263
 30
0.0
 10
89.5753
 20
109.3572
 30
0.0
 10
89.5753
 20
109.3572
 30
0.0
 10
89.0767
 20
112.0041
 30
0.0
 10
87.9703
 20
114.5989
 30
0.0
 10
86.0377
 20
116.5215
 30
0.0
 10
86.0377
 20
116.5215
 30
0.0
 10
84.9016
 20
117.7818
 30
0.0
 10
83.1601
 20
118.2977
 30
0.0
 10
82.081
 20
119.6175
 30
0.0
  0
SPLINE
  5
61
330
1F
100
AcDbEntity
  8
layer 1
 62
     7
370
     9
100
AcDbSpline
210
0.0
220
0.0
230
1.0
 70
    11
 71
     3
 72
    44
 73
    40
 74
     0
 42
0.0000000001
 43
0.0000000001
 12
1.0
 22
0.0
 32
0.0
 13
1.0
 23
0.0
 33
0.0
 40
0.0
 40
0.0
 40
0.0
 40
0.0
 40
0.0909090909090909
 40
0.0909090909090909
 40
0.0909090909090909
 40
0.0909090909090909
 40
0.1818181818181818
 40
0.1818181818181818
 40
0.1818181818181818
 40
0.1818181818181818
 40
0.2727272727272727
 40
0.2727272727272727
 40
0.2727272727272727
 40
0.2727272727272727
 40
0.3636363636363636
 40
0.3636363636363636
 40
0.3636363636363636
 40
0.3636363636363636
 40
0.4545454545454545
 40
0.4545454545454545
 40
0.4545454545454545
 40
0.4545454545454545
 40
0.5454545454545454
 40
0.5454545454545454
 40
0.5454545454545454
 40
0.5454545454545454
 40
0.6363636363636364
 40
0.6363636363636364
 40
0.6363636363636364
 40
0.6363636363636364
 40
0.7272727272727273
 40
0.7272727272727273
 40
0.7272727272727273
 40
0.7272727272727273
 40
0.8181818181818182
 40
0.8181818181818182
 40
0.8181818181818182
 40
0.8181818181818182
 40
1.0
 40
1.0
 40
1.0
 40
1.0
 10
127.26
 20
119.6199
 30
0.0
 10
134.3623
 20
119.9648
 30
0.0
 10
141.4795
 20
119.7142
 30
0.0
 10
148.5894
 20
119.7837
 30
0.0
 10
148.5894
 20
119.7837
 30
0.0
 10
153.6451
 20
119.7068
 30
0.0
 10
158.7156
 20
120.0044
 30
0.0
 10
163.764
 20
119.6025
 30
0.0
 10
163.764
 20
119.6025
 30
0.0
 10
162.4715
 20
118.4466
 30
0.0
 10
160.9285
 20
117.5981
 30
0.0
 10
159.6806
 20
116.3851
 30
0.0
 10
159.6806
 20
116.3851
 30
0.0
 10
157.6986
 20
114.5989
 30
0.0
 10
156.8254
 20
111.9297
 30
0.0
 10
156.287
 20
109.3944
 30
0.0
 10
156.287
 20
109.3944
 30
0.0
 10
152.9827
 20
108.8411
 30
0.0
 10
149.8917
 20
107.0699
 30
0.0
 10
147.8625
 20
104.3907
 30
0.0
 10
147.8625
 20
104.3907
 30
0.0
 10
146.8479
 20
102.9891
 30
0.0
 10
146.2872
 20
101.3469
 30
0.0
 10
145.6918
 20
99.7419
 30
0.0
 10
145.6918
 20
99.7419
 30
0.0
 10
144.5185
 20
101.595
 30
0.0
 10
143.9876
 20
103.8351
 30
0.0
 10
142.4346
 20
105.4426
 30
0.0
 10
142.4346
 20
105.4426
 30
0.0
 10
140.522
 20
107.6703
 30
0.0
 10
137.6444
 20
108.6998
 30
0.0
 10
134.8585
 20
109.32
 30
0.0
 10
134.8585
 20
109.32
 30
0.0
 10
134.3103
 20
111.7585
 30
0.0
 10
133.5065
 20
114.2492
 30
0.0
 10
131.7774
 20
116.1221
 30
0.0
 10
131.7774
 20
116.1221
 30
0.0
 10
130.5296
 20
117.6081
 30
0.0
 10
128.6194
 20
118.263
 30
0.0
 10
127.26
 20
119.6199
 30
0.0
  0
SPLINE
  5
62
330
1F
100
AcDbEntity
  8
layer 1
 62
     7
370
     9
100
AcDbSpline
210
0.0
220
0.0
230
1.0
 70
    11
 71
     3
 72
    32
 73
    28
 74
     0
 42
0.0000000001
 43
0.0000000001
 12
1.0
 22
0.0
 32
0.0
 13
1.0
 23
0.0
 33
0.0
 40
0.0
 40
0.0
 40
0.0
 40
0.0
 40
0.125
 40
0.125
 40
0.125
 40
0.125
 40
0.25
 40
0.25
 40
0.25
 40
0.25
 40
0.375
 40
0.375
 40
0.375
 40
0.375
 40
0.5
 40
0.5
 40
0.5
 40
0.5
 40
0.625
 40
0.625
 40
0.625
 40
0.625
 40
0.75
 40
0.75
 40
0.75
 40
0.75
 40
1.0
 40
1.0
 40
1.0
 40
1.0
 10
172.6276
 20
119.6224
 30
0.0
 10
178.4648
 20
119.9276
 30
0.0
 10
184.3292
 20
119.8531
 30
0.0
 10
190.1713
 20
119.7118
 30
0.0
 10
190.1713
 20
119.7118
 30
0.0
 10
190.2383
 20
119.6447
 30
0.0
 10
190.3722
 20
119.5108
 30
0.0
 10
190.4367
 20
119.4438
 30
0.0
 10
190.4367
 20
119.4438
 30
0.0
 10
190.5732
 20
113.5967
 30
0.0
 10
190.6724
 20
107.7248
 30
0.0
 10
190.33
 20
101.8827
 30
0.0
 10
190.33
 20
101.8827
 30
0.0
 10
189.174
 20
103.1752
 30
0.0
 10
188.3232
 20
104.7157
 30
0.0
 10
187.1126
 20
105.966
 30
0.0
 10
187.1126
 20
105.966
 30
0.0
 10
185.3264
 20
107.9432
 30
0.0
 10
182.6621
 20
108.8164
 30
0.0
 10
180.1318
 20
109.3596
 30
0.0
 10
180.1318
 20
109.3596
 30
0.0
 10
179.5885
 20
111.8726
 30
0.0
 10
178.7475
 20
114.4601
 30
0.0
 10
176.8225
 20
116.266
 30
0.0
 10
176.8225
 20
116.266
 30
0.0
 10
175.6417
 20
117.6552
 30
0.0
 10
173.796
 20
118.2307
 30
0.0
 10
172.6276
 20
119.6224
 30
0.0
  0
SPLINE
  5
63
330
1F
100
AcDbEntity
  8
layer 1
 62
     7
370
     9
100
AcDbSpline
210
0.0
220
0.0
230
1.0
 70
    11
 71
     3
 72
    68
 73
    64
 74
     0
 42
0.0000000001
 43
0.0000000001
 12
1.0
 22
0.0
 32
0.0
 13
1.0
 23
0.0
 33
0.0
 40
0.0
 40
0.0
 40
0.0
 40
0.0
 40
0.0588235294117647
 40
0.0588235294117647
 40
0.0588235294117647
 40
0.0588235294117647
 40
0.1176470588235294
 40
0.1176470588235294
 40
0.1176470588235294
 40
0.1176470588235294
 40
0.1764705882352941
 40
0.1764705882352941
 40
0.1764705882352941
 40
0.1764705882352941
 40
0.2352941176470588
 40
0.2352941176470588
 40
0.2352941176470588
 40
0.2352941176470588
 40
0.2941176470588235
 40
0.2941176470588235
 40
0.2941176470588235
 40
0.2941176470588235
 40
0.3529411764705883
 40
0.3529411764705883
 40
0.3529411764705883
 40
0.3529411764705883
 40
0.4117647058823529
 40
0.4117647058823529
 40
0.4117647058823529
 40
0.4117647058823529
 40
0.4705882352941176
 40
0.4705882352941176
 40
0.4705882352941176
 40
0.4705882352941176
 40
0.5294117647058824
 40
0.5294117647058824
 40
0.5294117647058824
 40
0.5294117647058824
 40
0.5882352941176471
 40
0.5882352941176471
 40
0.5882352941176471
 40
0.5882352941176471
 40
0.6470588235294118
 40
0.6470588235294118
 40
0.6470588235294118
 40
0.6470588235294118
 40
0.7058823529411765
 40
0.7058823529411765
 40
0.7058823529411765
 40
0.7058823529411765
 40
0.7647058823529411
 40
0.7647058823529411
 40
0.7647058823529411
 40
0.7647058823529411
 40
0.8235294117647058
 40
0.8235294117647058
 40
0.8235294117647058
 40
0.8235294117647058
 40
0.8823529411764706
 40
0.8823529411764706
 40
0.8823529411764706
 40
0.8823529411764706
 40
1.0
 40
1.0
 40
1.0
 40
1.0
 10
-20.6112
 20
113.3487
 30
0.0
 10
-18.3538
 20
116.9556
 30
0.0
 10
-13.3551
 20
118.521
 30
0.0
 10
-9.4529
 20
116.7894
 30
0.0
 10
-9.4529
 20
116.7894
 30
0.0
 10
-7.3294
 20
115.8443
 30
0.0
 10
-5.5656
 20
114.145
 30
0.0
 10
-4.4666
 20
112.1008
 30
0.0
 10
-4.4666
 20
112.1008
 30
0.0
 10
-3.6629
 20
110.533
 30
0.0
 10
-3.8191
 20
108.7122
 30
0.0
 10
-3.6579
 20
107.0079
 30
0.0
 10
-3.6579
 20
107.0079
 30
0.0
 10
-1.0333
 20
106.8144
 30
0.0
 10
1.8121
 20
106.4076
 30
0.0
 10
3.7843
 20
104.4776
 30
0.0
 10
3.7843
 20
104.4776
 30
0.0
 10
7.1506
 20
101.7488
 30
0.0
 10
8.1305
 20
96.3855
 30
0.0
 10
5.7044
 20
92.7387
 30
0.0
 10
5.7044
 20
92.7387
 30
0.0
 10
4.7865
 20
91.1387
 30
0.0
 10
3.3353
 20
89.9058
 30
0.0
 10
1.7352
 20
89.0226
 30
0.0
 10
1.7352
 20
89.0226
 30
0.0
 10
0.0954
 20
88.1817
 30
0.0
 10
-1.8247
 20
88.3702
 30
0.0
 10
-3.5984
 20
88.1544
 30
0.0
 10
-3.5984
 20
88.1544
 30
0.0
 10
-3.7968
 20
86.1996
 30
0.0
 10
-3.6207
 20
84.0687
 30
0.0
 10
-4.7495
 20
82.3445
 30
0.0
 10
-4.7495
 20
82.3445
 30
0.0
 10
-6.2651
 20
79.8588
 30
0.0
 10
-8.8675
 20
77.6684
 30
0.0
 10
-11.9163
 20
77.646
 30
0.0
 10
-11.9163
 20
77.646
 30
0.0
 10
-15.6175
 20
76.8993
 30
0.0
 10
-19.3857
 20
79.0848
 30
0.0
 10
-21.0775
 20
82.3396
 30
0.0
 10
-21.0775
 20
82.3396
 30
0.0
 10
-22.1791
 20
84.0587
 30
0.0
 10
-22.1741
 20
86.1698
 30
0.0
 10
-22.4768
 20
88.1172
 30
0.0
 10
-22.4768
 20
88.1172
 30
0.0
 10
-24.3447
 20
88.2635
 30
0.0
 10
-26.3591
 20
88.3107
 30
0.0
 10
-28.0336
 20
89.2633
 30
0.0
 10
-28.0336
 20
89.2633
 30
0.0
 10
-31.8762
 20
91.2032
 30
0.0
 10
-33.8584
 20
96.12
 30
0.0
 10
-32.5188
 20
100.1909
 30
0.0
 10
-32.5188
 20
100.1909
 30
0.0
 10
-31.7001
 20
102.4384
 30
0.0
 10
-30.2861
 20
104.6264
 30
0.0
 10
-28.031
 20
105.6386
 30
0.0
 10
-28.031
 20
105.6386
 30
0.0
 10
-26.3491
 20
106.6557
 30
0.0
 10
-24.3521
 20
106.74
 30
0.0
 10
-22.4543
 20
106.9757
 30
0.0
 10
-22.4543
 20
106.9757
 30
0.0
 10
-22.2609
 20
109.1885
 30
0.0
 10
-21.9731
 20
111.5005
 30
0.0
 10
-20.6112
 20
113.3487
 30
0.0
  0
SPLINE
  5
64
330
1F
100
AcDbEntity
  8
layer 1
 62
     7
370
     9
100
AcDbSpline
210
0.0
220
0.0
230
1.0
 70
    11
 71
     3
 72
    68
 73
    64
 74
     0
 42
0.0000000001
 43
0.0000000001
 12
1.0
 22
0.0
 32
0.0
 13
1.0
 23
0.0
 33
0.0
 40
0.0
 40
0.0
 40
0.0
 40
0.0
 40
0.0588235294117647
 40
0.0588235294117647
 40
0.0588235294117647
 40
0.0588235294117647
 40
0.1176470588235294
 40
0.1176470588235294
 40
0.1176470588235294
 40
0.1176470588235294
 40
0.1764705882352941
 40
0.1764705882352941
 40
0.1764705882352941
 40
0.1764705882352941
 40
0.2352941176470588
 40
0.2352941176470588
 40
0.2352941176470588
 40
0.2352941176470588
 40
0.2941176470588235
 40
0.2941176470588235
 40
0.2941176470588235
 40
0.2941176470588235
 40
0.3529411764705883
 40
0.3529411764705883
 40
0.3529411764705883
 40
0.3529411764705883
 40
0.4117647058823529
 40
0.4117647058823529
 40
0.4117647058823529
 40
0.4117647058823529
 40
0.4705882352941176
 40
0.4705882352941176
 40
0.4705882352941176
 40
0.4705882352941176
 40
0.5294117647058824
 40
0.5294117647058824
 40
0.5294117647058824
 40
0.5294117647058824
 40
0.5882352941176471
 40
0.5882352941176471
 40
0.5882352941176471
 40
0.5882352941176471
 40
0.6470588235294118
 40
0.6470588235294118
 40
0.6470588235294118
 40
0.6470588235294118
 40
0.7058823529411765
 40
0.7058823529411765
 40
0.7058823529411765
 40
0.7058823529411765
 40
0.7647058823529411
 40
0.7647058823529411
 40
0.7647058823529411
 40
0.7647058823529411
 40
0.8235294117647058
 40
0.8235294117647058
 40
0.8235294117647058
 40
0.8235294117647058
 40
0.8823529411764706
 40
0.8823529411764706
 40
0.8823529411764706
 40
0.8823529411764706
 40
1.0
 40
1.0
 40
1.0
 40
1.0
 10
25.3616
 20
114.2641
 30
0.0
 10
28.2914
 20
117.7792
 30
0.0
 10
33.9896
 20
118.6028
 30
0.0
 10
37.6537
 20
115.7724
 30
0.0
 10
37.6537
 20
115.7724
 30
0.0
 10
40.6182
 20
113.9267
 30
0.0
 10
41.7444
 20
110.3668
 30
0.0
 10
41.856
 20
107.0377
 30
0.0
 10
41.856
 20
107.0377
 30
0.0
 10
43.9076
 20
106.7574
 30
0.0
 10
46.1253
 20
106.6408
 30
0.0
 10
47.8718
 20
105.3955
 30
0.0
 10
47.8718
 20
105.3955
 30
0.0
 10
51.2853
 20
103.4035
 30
0.0
 10
53.1136
 20
99.0374
 30
0.0
 10
52.1337
 20
95.1997
 30
0.0
 10
52.1337
 20
95.1997
 30
0.0
 10
51.3274
 20
92.9298
 30
0.0
 10
50.0077
 20
90.7467
 30
0.0
 10
47.8866
 20
89.489
 30
0.0
 10
47.8866
 20
89.489
 30
0.0
 10
46.1551
 20
88.2114
 30
0.0
 10
43.8207
 20
88.4397
 30
0.0
 10
41.7964
 20
88.1916
 30
0.0
 10
41.7964
 20
88.1916
 30
0.0
 10
41.6402
 20
86.1202
 30
0.0
 10
41.5782
 20
83.8925
 30
0.0
 10
40.4271
 20
82.084
 30
0.0
 10
40.4271
 20
82.084
 30
0.0
 10
39.1644
 20
80.0573
 30
0.0
 10
37.16
 20
78.3555
 30
0.0
 10
34.8083
 20
77.7874
 30
0.0
 10
34.8083
 20
77.7874
 30
0.0
 10
32.8286
 20
77.6063
 30
0.0
 10
30.6679
 20
77.254
 30
0.0
 10
28.7999
 20
78.1471
 30
0.0
 10
28.7999
 20
78.1471
 30
0.0
 10
26.989
 20
79.0278
 30
0.0
 10
25.3194
 20
80.3103
 30
0.0
 10
24.3123
 20
82.0866
 30
0.0
 10
24.3123
 20
82.0866
 30
0.0
 10
23.134
 20
83.8851
 30
0.0
 10
23.1712
 20
86.1252
 30
0.0
 10
22.9504
 20
88.1817
 30
0.0
 10
22.9504
 20
88.1817
 30
0.0
 10
20.8939
 20
88.3627
 30
0.0
 10
18.5794
 20
88.1395
 30
0.0
 10
16.8553
 20
89.5138
 30
0.0
 10
16.8553
 20
89.5138
 30
0.0
 10
13.2334
 20
91.6125
 30
0.0
 10
11.4373
 20
96.3011
 30
0.0
 10
12.762
 20
100.2901
 30
0.0
 10
12.762
 20
100.2901
 30
0.0
 10
13.5683
 20
102.3442
 30
0.0
 10
14.8905
 20
104.3138
 30
0.0
 10
16.8503
 20
105.4128
 30
0.0
 10
16.8503
 20
105.4128
 30
0.0
 10
18.6066
 20
106.6904
 30
0.0
 10
20.8567
 20
106.6929
 30
0.0
 10
22.9206
 20
106.9633
 30
0.0
 10
22.9206
 20
106.9633
 30
0.0
 10
23.1364
 20
109.5382
 30
0.0
 10
23.4242
 20
112.339
 30
0.0
 10
25.3616
 20
114.2641
 30
0.0
  0
SPLINE
  5
65
330
1F
100
AcDbEntity
  8
layer 1
 62
     7
370
     9
100
AcDbSpline
210
0.0
220
0.0
230
1.0
 70
    11
 71
     3
 72
    64
 73
    60
 74
     0
 42
0.0000000001
 43
0.0000000001
 12
1.0
 22
0.0
 32
0.0
 13
1.0
 23
0.0
 33
0.0
 40
0.0
 40
0.0
 40
0.0
 40
0.0
 40
0.0625
 40
0.0625
 40
0.0625
 40
0.0625
 40
0.125
 40
0.125
 40
0.125
 40
0.125
 40
0.1875
 40
0.1875
 40
0.1875
 40
0.1875
 40
0.25
 40
0.25
 40
0.25
 40
0.25
 40
0.3125
 40
0.3125
 40
0.3125
 40
0.3125
 40
0.375
 40
0.375
 40
0.375
 40
0.375
 40
0.4375
 40
0.4375
 40
0.4375
 40
0.4375
 40
0.5
 40
0.5
 40
0.5
 40
0.5
 40
0.5625
 40
0.5625
 40
0.5625
 40
0.5625
 40
0.625
 40
0.625
 40
0.625
 40
0.625
 40
0.6875
 40
0.6875
 40
0.6875
 40
0.6875
 40
0.75
 40
0.75
 40
0.75
 40
0.75
 40
0.8125
 40
0.8125
 40
0.8125
 40
0.8125
 40
0.875
 40
0.875
 40
0.875
 40
0.875
 40
1.0
 40
1.0
 40
1.0
 40
1.0
 10
69.469
 20
112.5821
 30
0.0
 10
71.5107
 20
116.6406
 30
0.0
 10
76.9236
 20
118.6375
 30
0.0
 10
81.0937
 20
116.7894
 30
0.0
 10
81.0937
 20
116.7894
 30
0.0
 10
83.3189
 20
115.7872
 30
0.0
 10
85.1869
 20
113.9713
 30
0.0
 10
86.2363
 20
111.7635
 30
0.0
 10
86.2363
 20
111.7635
 30
0.0
 10
86.8639
 20
110.2651
 30
0.0
 10
86.7374
 20
108.5956
 30
0.0
 10
86.8887
 20
107.0079
 30
0.0
 10
86.8887
 20
107.0079
 30
0.0
 10
89.5108
 20
106.8144
 30
0.0
 10
92.3587
 20
106.4076
 30
0.0
 10
94.3309
 20
104.4776
 30
0.0
 10
94.3309
 20
104.4776
 30
0.0
 10
97.6972
 20
101.7488
 30
0.0
 10
98.6771
 20
96.3855
 30
0.0
 10
96.2509
 20
92.7387
 30
0.0
 10
96.2509
 20
92.7387
 30
0.0
 10
95.333
 20
91.1387
 30
0.0
 10
93.8819
 20
89.9058
 30
0.0
 10
92.2818
 20
89.0226
 30
0.0
 10
92.2818
 20
89.0226
 30
0.0
 10
90.642
 20
88.1817
 30
0.0
 10
88.7195
 20
88.3702
 30
0.0
 10
86.9482
 20
88.1544
 30
0.0
 10
86.9482
 20
88.1544
 30
0.0
 10
86.7473
 20
86.1996
 30
0.0
 10
86.9259
 20
84.0687
 30
0.0
 10
85.7971
 20
82.3445
 30
0.0
 10
85.7971
 20
82.3445
 30
0.0
 10
84.2814
 20
79.8539
 30
0.0
 10
81.6767
 20
77.6758
 30
0.0
 10
78.6279
 20
77.6361
 30
0.0
 10
78.6279
 20
77.6361
 30
0.0
 10
74.7976
 20
77.0358
 30
0.0
 10
70.749
 20
79.2684
 30
0.0
 10
69.2134
 20
82.8208
 30
0.0
 10
69.2134
 20
82.8208
 30
0.0
 10
68.37
 20
84.4556
 30
0.0
 10
68.3378
 20
86.3385
 30
0.0
 10
68.0649
 20
88.1147
 30
0.0
 10
68.0649
 20
88.1147
 30
0.0
 10
65.9091
 20
88.2635
 30
0.0
 10
63.5301
 20
88.3677
 30
0.0
 10
61.7515
 20
89.7544
 30
0.0
 10
61.7515
 20
89.7544
 30
0.0
 10
57.755
 20
92.2898
 30
0.0
 10
56.3236
 20
98.2137
 30
0.0
 10
58.9904
 20
102.2003
 30
0.0
 10
58.9904
 20
102.2003
 30
0.0
 10
60.7616
 20
105.4972
 30
0.0
 10
64.5224
 20
106.9384
 30
0.0
 10
68.0922
 20
106.9732
 30
0.0
 10
68.0922
 20
106.9732
 30
0.0
 10
68.2906
 20
108.8883
 30
0.0
 10
68.4494
 20
110.8903
 30
0.0
 10
69.469
 20
112.5821
 30
0.0
  0
SPLINE
  5
66
330
1F
100
AcDbEntity
  8
layer 1
 62
     7
370
     9
100
AcDbSpline
210
0.0
220
0.0
230
1.0
 70
    11
 71
     3
 72
    64
 73
    60
 74
     0
 42
0.0000000001
 43
0.0000000001
 12
1.0
 22
0.0
 32
0.0
 13
1.0
 23
0.0
 33
0.0
 40
0.0
 40
0.0
 40
0.0
 40
0.0
 40
0.0625
 40
0.0625
 40
0.0625
 40
0.0625
 40
0.125
 40
0.125
 40
0.125
 40
0.125
 40
0.1875
 40
0.1875
 40
0.1875
 40
0.1875
 40
0.25
 40
0.25
 40
0.25
 40
0.25
 40
0.3125
 40
0.3125
 40
0.3125
 40
0.3125
 40
0.375
 40
0.375
 40
0.375
 40
0.375
 40
0.4375
 40
0.4375
 40
0.4375
 40
0.4375
 40
0.5
 40
0.5
 40
0.5
 40
0.5
 40
0.5625
 40
0.5625
 40
0.5625
 40
0.5625
 40
0.625
 40
0.625
 40
0.625
 40
0.625
 40
0.6875
 40
0.6875
 40
0.6875
 40
0.6875
 40
0.75
 40
0.75
 40
0.75
 40
0.75
 40
0.8125
 40
0.8125
 40
0.8125
 40
0.8125
 40
0.875
 40
0.875
 40
0.875
 40
0.875
 40
1.0
 40
1.0
 40
1.0
 40
1.0
 10
115.9082
 20
114.2641
 30
0.0
 10
118.838
 20
117.7792
 30
0.0
 10
124.5362
 20
118.6028
 30
0.0
 10
128.2002
 20
115.7724
 30
0.0
 10
128.2002
 20
115.7724
 30
0.0
 10
131.1647
 20
113.9267
 30
0.0
 10
132.291
 20
110.3668
 30
0.0
 10
132.4026
 20
107.0402
 30
0.0
 10
132.4026
 20
107.0402
 30
0.0
 10
135.8657
 20
106.8913
 30
0.0
 10
139.624
 20
105.6336
 30
0.0
 10
141.4076
 20
102.431
 30
0.0
 10
141.4076
 20
102.431
 30
0.0
 10
144.1736
 20
98.5834
 30
0.0
 10
143.025
 20
92.714
 30
0.0
 10
139.1551
 20
90.0274
 30
0.0
 10
139.1551
 20
90.0274
 30
0.0
 10
137.3492
 20
88.2859
 30
0.0
 10
134.6675
 20
88.3926
 30
0.0
 10
132.343
 20
88.1916
 30
0.0
 10
132.343
 20
88.1916
 30
0.0
 10
132.1868
 20
86.1202
 30
0.0
 10
132.1247
 20
83.8925
 30
0.0
 10
130.9737
 20
82.084
 30
0.0
 10
130.9737
 20
82.084
 30
0.0
 10
129.711
 20
80.0573
 30
0.0
 10
127.7066
 20
78.3555
 30
0.0
 10
125.3548
 20
77.7874
 30
0.0
 10
125.3548
 20
77.7874
 30
0.0
 10
123.3727
 20
77.6063
 30
0.0
 10
121.2145
 20
77.254
 30
0.0
 10
119.3465
 20
78.1471
 30
0.0
 10
119.3465
 20
78.1471
 30
0.0
 10
117.5356
 20
79.0278
 30
0.0
 10
115.866
 20
80.3103
 30
0.0
 10
114.8589
 20
82.0866
 30
0.0
 10
114.8589
 20
82.0866
 30
0.0
 10
113.6806
 20
83.8851
 30
0.0
 10
113.7178
 20
86.1252
 30
0.0
 10
113.4969
 20
88.1817
 30
0.0
 10
113.4969
 20
88.1817
 30
0.0
 10
111.4404
 20
88.3653
 30
0.0
 10
109.1259
 20
88.137
 30
0.0
 10
107.4043
 20
89.5163
 30
0.0
 10
107.4043
 20
89.5163
 30
0.0
 10
104.0032
 20
91.5282
 30
0.0
 10
102.1601
 20
95.8769
 30
0.0
 10
103.1473
 20
99.7195
 30
0.0
 10
103.1473
 20
99.7195
 30
0.0
 10
103.9511
 20
101.9869
 30
0.0
 10
105.2634
 20
104.1824
 30
0.0
 10
107.4043
 20
105.4153
 30
0.0
 10
107.4043
 20
105.4153
 30
0.0
 10
109.1482
 20
106.6904
 30
0.0
 10
111.4132
 20
106.6854
 30
0.0
 10
113.4672
 20
106.9657
 30
0.0
 10
113.4672
 20
106.9657
 30
0.0
 10
113.683
 20
109.5382
 30
0.0
 10
113.9708
 20
112.3415
 30
0.0
 10
115.9082
 20
114.2641
 30
0.0
  0
SPLINE
  5
67
330
1F
100
AcDbEntity
  8
layer 1
 62
     7
370
     9
100
AcDbSpline
210
0.0
220
0.0
230
1.0
 70
    11
 71
     3
 72
    68
 73
    64
 74
     0
 42
0.0000000001
 43
0.0000000001
 12
1.0
 22
0.0
 32
0.0
 13
1.0
 23
0.0
 33
0.0
 40
0.0
 40
0.0
 40
0.0
 40
0.0
 40
0.0588235294117647
 40
0.0588235294117647
 40
0.0588235294117647
 40
0.0588235294117647
 40
0.1176470588235294
 40
0.1176470588235294
 40
0.1176470588235294
 40
0.1176470588235294
 40
0.1764705882352941
 40
0.1764705882352941
 40
0.1764705882352941
 40
0.1764705882352941
 40
0.2352941176470588
 40
0.2352941176470588
 40
0.2352941176470588
 40
0.2352941176470588
 40
0.2941176470588235
 40
0.2941176470588235
 40
0.2941176470588235
 40
0.2941176470588235
 40
0.3529411764705883
 40
0.3529411764705883
 40
0.3529411764705883
 40
0.3529411764705883
 40
0.4117647058823529
 40
0.4117647058823529
 40
0.4117647058823529
 40
0.4117647058823529
 40
0.4705882352941176
 40
0.4705882352941176
 40
0.4705882352941176
 40
0.4705882352941176
 40
0.5294117647058824
 40
0.5294117647058824
 40
0.5294117647058824
 40
0.5294117647058824
 40
0.5882352941176471
 40
0.5882352941176471
 40
0.5882352941176471
 40
0.5882352941176471
 40
0.6470588235294118
 40
0.6470588235294118
 40
0.6470588235294118
 40
0.6470588235294118
 40
0.7058823529411765
 40
0.7058823529411765
 40
0.7058823529411765
 40
0.7058823529411765
 40
0.7647058823529411
 40
0.7647058823529411
 40
0.7647058823529411
 40
0.7647058823529411
 40
0.8235294117647058
 40
0.8235294117647058
 40
0.8235294117647058
 40
0.8235294117647058
 40
0.8823529411764706
 40
0.8823529411764706
 40
0.8823529411764706
 40
0.8823529411764706
 40
1.0
 40
1.0
 40
1.0
 40
1.0
 10
160.0156
 20
112.5821
 30
0.0
 10
162.0572
 20
116.6332
 30
0.0
 10
167.4949
 20
118.6648
 30
0.0
 10
171.6551
 20
116.7845
 30
0.0
 10
171.6551
 20
116.7845
 30
0.0
 10
173.791
 20
115.8641
 30
0.0
 10
175.5226
 20
114.1326
 30
0.0
 10
176.6265
 20
112.1034
 30
0.0
 10
176.6265
 20
112.1034
 30
0.0
 10
177.4278
 20
110.533
 30
0.0
 10
177.2715
 20
108.7146
 30
0.0
 10
177.4353
 20
107.0079
 30
0.0
 10
177.4353
 20
107.0079
 30
0.0
 10
179.4173
 20
106.7499
 30
0.0
 10
181.5434
 20
106.6953
 30
0.0
 10
183.2997
 20
105.6113
 30
0.0
 10
183.2997
 20
105.6113
 30
0.0
 10
185.8201
 20
104.1303
 30
0.0
 10
187.9734
 20
101.4883
 30
0.0
 10
188.0056
 20
98.4494
 30
0.0
 10
188.0056
 20
98.4494
 30
0.0
 10
188.7672
 20
94.3066
 30
0.0
 10
185.8871
 20
90.1961
 30
0.0
 10
182.1065
 20
88.7349
 30
0.0
 10
182.1065
 20
88.7349
 30
0.0
 10
180.6379
 20
88.2015
 30
0.0
 10
179.018
 20
88.3454
 30
0.0
 10
177.4948
 20
88.1519
 30
0.0
 10
177.4948
 20
88.1519
 30
0.0
 10
177.2913
 20
86.1971
 30
0.0
 10
177.4749
 20
84.0661
 30
0.0
 10
176.3437
 20
82.3445
 30
0.0
 10
176.3437
 20
82.3445
 30
0.0
 10
174.8305
 20
79.8613
 30
0.0
 10
172.2356
 20
77.6039
 30
0.0
 10
169.1745
 20
77.6237
 30
0.0
 10
169.1745
 20
77.6237
 30
0.0
 10
165.3442
 20
77.0507
 30
0.0
 10
161.2931
 20
79.261
 30
0.0
 10
159.76
 20
82.8208
 30
0.0
 10
159.76
 20
82.8208
 30
0.0
 10
158.9166
 20
84.4556
 30
0.0
 10
158.8819
 20
86.3385
 30
0.0
 10
158.6115
 20
88.1147
 30
0.0
 10
158.6115
 20
88.1147
 30
0.0
 10
156.4532
 20
88.2611
 30
0.0
 10
154.0792
 20
88.3727
 30
0.0
 10
152.2956
 20
89.752
 30
0.0
 10
152.2956
 20
89.752
 30
0.0
 10
150.2415
 20
90.9279
 30
0.0
 10
149.1574
 20
93.1679
 30
0.0
 10
148.4529
 20
95.3262
 30
0.0
 10
148.4529
 20
95.3262
 30
0.0
 10
147.5003
 20
98.3278
 30
0.0
 10
148.8225
 20
101.4759
 30
0.0
 10
150.6657
 20
103.8276
 30
0.0
 10
150.6657
 20
103.8276
 30
0.0
 10
152.6503
 20
106.1074
 30
0.0
 10
155.7487
 20
106.8119
 30
0.0
 10
158.6388
 20
106.9757
 30
0.0
 10
158.6388
 20
106.9757
 30
0.0
 10
158.8372
 20
108.8908
 30
0.0
 10
158.996
 20
110.8903
 30
0.0
 10
160.0156
 20
112.5821
 30
0.0
  0
SPLINE
  5
68
330
1F
100
AcDbEntity
  8
layer 1
 62
     7
370
     9
100
AcDbSpline
210
0.0
220
0.0
230
1.0
 70
    11
 71
     3
 72
    44
 73
    40
 74
     0
 42
0.0000000001
 43
0.0000000001
 12
1.0
 22
0.0
 32
0.0
 13
1.0
 23
0.0
 33
0.0
 40
0.0
 40
0.0
 40
0.0
 40
0.0
 40
0.0909090909090909
 40
0.0909090909090909
 40
0.0909090909090909
 40
0.0909090909090909
 40
0.1818181818181818
 40
0.1818181818181818
 40
0.1818181818181818
 40
0.1818181818181818
 40
0.2727272727272727
 40
0.2727272727272727
 40
0.2727272727272727
 40
0.2727272727272727
 40
0.3636363636363636
 40
0.3636363636363636
 40
0.3636363636363636
 40
0.3636363636363636
 40
0.4545454545454545
 40
0.4545454545454545
 40
0.4545454545454545
 40
0.4545454545454545
 40
0.5454545454545454
 40
0.5454545454545454
 40
0.5454545454545454
 40
0.5454545454545454
 40
0.6363636363636364
 40
0.6363636363636364
 40
0.6363636363636364
 40
0.6363636363636364
 40
0.7272727272727273
 40
0.7272727272727273
 40
0.7272727272727273
 40
0.7272727272727273
 40
0.8181818181818182
 40
0.8181818181818182
 40
0.8181818181818182
 40
0.8181818181818182
 40
1.0
 40
1.0
 40
1.0
 40
1.0
 10
-35.0491
 20
93.0365
 30
0.0
 10
-33.6078
 20
91.3818
 30
0.0
 10
-32.5509
 20
89.3798
 30
0.0
 10
-30.812
 20
87.9907
 30
0.0
 10
-30.812
 20
87.9907
 30
0.0
 10
-29.0581
 20
86.6982
 30
0.0
 10
-26.9594
 20
85.9838
 30
0.0
 10
-24.8409
 20
85.5595
 30
0.0
 10
-24.8409
 20
85.5595
 30
0.0
 10
-24.3075
 20
83.1756
 30
0.0
 10
-23.5385
 20
80.6923
 30
0.0
 10
-21.7995
 20
78.8938
 30
0.0
 10
-21.7995
 20
78.8938
 30
0.0
 10
-20.0679
 20
76.9341
 30
0.0
 10
-17.6169
 20
75.8698
 30
0.0
 10
-15.3
 20
74.7758
 30
0.0
 10
-15.3
 20
74.7758
 30
0.0
 10
-17.8228
 20
73.6942
 30
0.0
 10
-20.5442
 20
72.5953
 30
0.0
 10
-22.2088
 20
70.2857
 30
0.0
 10
-22.2088
 20
70.2857
 30
0.0
 10
-23.7071
 20
68.5715
 30
0.0
 10
-24.2231
 20
66.2794
 30
0.0
 10
-24.7614
 20
64.131
 30
0.0
 10
-24.7614
 20
64.131
 30
0.0
 10
-27.3142
 20
63.5604
 30
0.0
 10
-29.9288
 20
62.712
 30
0.0
 10
-31.8191
 20
60.8069
 30
0.0
 10
-31.8191
 20
60.8069
 30
0.0
 10
-33.2083
 20
59.621
 30
0.0
 10
-33.8013
 20
57.8176
 30
0.0
 10
-35.0564
 20
56.5202
 30
0.0
 10
-35.0564
 20
56.5202
 30
0.0
 10
-35.4212
 20
63.6299
 30
0.0
 10
-35.1557
 20
70.7496
 30
0.0
 10
-35.2301
 20
77.8619
 30
0.0
 10
-35.2301
 20
77.8619
 30
0.0
 10
-35.1532
 20
82.9201
 30
0.0
 10
-35.451
 20
87.9881
 30
0.0
 10
-35.0491
 20
93.0365
 30
0.0
  0
SPLINE
  5
69
330
1F
100
AcDbEntity
  8
layer 1
 62
     7
370
     9
100
AcDbSpline
210
0.0
220
0.0
230
1.0
 70
    11
 71
     3
 72
    68
 73
    64
 74
     0
 42
0.0000000001
 43
0.0000000001
 12
1.0
 22
0.0
 32
0.0
 13
1.0
 23
0.0
 33
0.0
 40
0.0
 40
0.0
 40
0.0
 40
0.0
 40
0.0588235294117647
 40
0.0588235294117647
 40
0.0588235294117647
 40
0.0588235294117647
 40
0.1176470588235294
 40
0.1176470588235294
 40
0.1176470588235294
 40
0.1176470588235294
 40
0.1764705882352941
 40
0.1764705882352941
 40
0.1764705882352941
 40
0.1764705882352941
 40
0.2352941176470588
 40
0.2352941176470588
 40
0.2352941176470588
 40
0.2352941176470588
 40
0.2941176470588235
 40
0.2941176470588235
 40
0.2941176470588235
 40
0.2941176470588235
 40
0.3529411764705883
 40
0.3529411764705883
 40
0.3529411764705883
 40
0.3529411764705883
 40
0.4117647058823529
 40
0.4117647058823529
 40
0.4117647058823529
 40
0.4117647058823529
 40
0.4705882352941176
 40
0.4705882352941176
 40
0.4705882352941176
 40
0.4705882352941176
 40
0.5294117647058824
 40
0.5294117647058824
 40
0.5294117647058824
 40
0.5294117647058824
 40
0.5882352941176471
 40
0.5882352941176471
 40
0.5882352941176471
 40
0.5882352941176471
 40
0.6470588235294118
 40
0.6470588235294118
 40
0.6470588235294118
 40
0.6470588235294118
 40
0.7058823529411765
 40
0.7058823529411765
 40
0.7058823529411765
 40
0.7058823529411765
 40
0.7647058823529411
 40
0.7647058823529411
 40
0.7647058823529411
 40
0.7647058823529411
 40
0.8235294117647058
 40
0.8235294117647058
 40
0.8235294117647058
 40
0.8235294117647058
 40
0.8823529411764706
 40
0.8823529411764706
 40
0.8823529411764706
 40
0.8823529411764706
 40
1.0
 40
1.0
 40
1.0
 40
1.0
 10
116.2803
 20
69.4844
 30
0.0
 10
119.1803
 20
72.2728
 30
0.0
 10
124.0302
 20
73.1509
 30
0.0
 10
127.5106
 20
70.9233
 30
0.0
 10
127.5106
 20
70.9233
 30
0.0
 10
129.3041
 20
69.7896
 30
0.0
 10
130.9216
 20
68.1845
 30
0.0
 10
131.6534
 20
66.1503
 30
0.0
 10
131.6534
 20
66.1503
 30
0.0
 10
132.219
 20
64.7065
 30
0.0
 10
132.1322
 20
63.1214
 30
0.0
 10
132.286
 20
61.6007
 30
0.0
 10
132.286
 20
61.6007
 30
0.0
 10
134.4665
 20
61.5808
 30
0.0
 10
136.8604
 20
61.3774
 30
0.0
 10
138.649
 20
59.9783
 30
0.0
 10
138.649
 20
59.9783
 30
0.0
 10
140.9561
 20
58.336
 30
0.0
 10
142.8514
 20
55.7312
 30
0.0
 10
142.8365
 20
52.7966
 30
0.0
 10
142.8365
 20
52.7966
 30
0.0
 10
143.3848
 20
48.7728
 30
0.0
 10
140.5046
 20
44.8905
 30
0.0
 10
136.8753
 20
43.4516
 30
0.0
 10
136.8753
 20
43.4516
 30
0.0
 10
135.434
 20
42.8786
 30
0.0
 10
133.8414
 20
42.9679
 30
0.0
 10
132.3282
 20
42.8141
 30
0.0
 10
132.3282
 20
42.8141
 30
0.0
 10
132.3058
 20
40.894
 30
0.0
 10
132.1595
 20
38.9119
 30
0.0
 10
131.2069
 20
37.1928
 30
0.0
 10
131.2069
 20
37.1928
 30
0.0
 10
130.1451
 20
35.4835
 30
0.0
 10
128.6741
 20
34.0398
 30
0.0
 10
126.9326
 20
33.0276
 30
0.0
 10
126.9326
 20
33.0276
 30
0.0
 10
122.5814
 20
30.8818
 30
0.0
 10
116.712
 20
32.7944
 30
0.0
 10
114.6084
 20
37.1878
 30
0.0
 10
114.6084
 20
37.1878
 30
0.0
 10
113.7028
 20
38.9119
 30
0.0
 10
113.6507
 20
40.8791
 30
0.0
 10
113.5341
 20
42.7719
 30
0.0
 10
113.5341
 20
42.7719
 30
0.0
 10
110.3266
 20
42.6206
 30
0.0
 10
106.918
 20
43.732
 30
0.0
 10
104.9112
 20
46.3392
 30
0.0
 10
104.9112
 20
46.3392
 30
0.0
 10
103.9238
 20
47.9195
 30
0.0
 10
102.9216
 20
49.6485
 30
0.0
 10
102.9663
 20
51.5736
 30
0.0
 10
102.9663
 20
51.5736
 30
0.0
 10
102.686
 20
54.2007
 30
0.0
 10
103.8345
 20
56.7335
 30
0.0
 10
105.4917
 20
58.6982
 30
0.0
 10
105.4917
 20
58.6982
 30
0.0
 10
107.5556
 20
60.8663
 30
0.0
 10
110.5821
 20
61.6602
 30
0.0
 10
113.4994
 20
61.5585
 30
0.0
 10
113.4994
 20
61.5585
 30
0.0
 10
113.3927
 20
64.4238
 30
0.0
 10
114.1866
 20
67.4303
 30
0.0
 10
116.2803
 20
69.4844
 30
0.0
  0
SPLINE
  5
6A
330
1F
100
AcDbEntity
  8
layer 1
 62
     7
370
     9
100
AcDbSpline
210
0.0
220
0.0
230
1.0
 70
    11
 71
     3
 72
    68
 73
    64
 74
     0
 42
0.0000000001
 43
0.0000000001
 12
1.0
 22
0.0
 32
0.0
 13
1.0
 23
0.0
 33
0.0
 40
0.0
 40
0.0
 40
0.0
 40
0.0
 40
0.0588235294117647
 40
0.0588235294117647
 40
0.0588235294117647
 40
0.0588235294117647
 40
0.1176470588235294
 40
0.1176470588235294
 40
0.1176470588235294
 40
0.1176470588235294
 40
0.1764705882352941
 40
0.1764705882352941
 40
0.1764705882352941
 40
0.1764705882352941
 40
0.2352941176470588
 40
0.2352941176470588
 40
0.2352941176470588
 40
0.2352941176470588
 40
0.2941176470588235
 40
0.2941176470588235
 40
0.2941176470588235
 40
0.2941176470588235
 40
0.3529411764705883
 40
0.3529411764705883
 40
0.3529411764705883
 40
0.3529411764705883
 40
0.4117647058823529
 40
0.4117647058823529
 40
0.4117647058823529
 40
0.4117647058823529
 40
0.4705882352941176
 40
0.4705882352941176
 40
0.4705882352941176
 40
0.4705882352941176
 40
0.5294117647058824
 40
0.5294117647058824
 40
0.5294117647058824
 40
0.5294117647058824
 40
0.5882352941176471
 40
0.5882352941176471
 40
0.5882352941176471
 40
0.5882352941176471
 40
0.6470588235294118
 40
0.6470588235294118
 40
0.6470588235294118
 40
0.6470588235294118
 40
0.7058823529411765
 40
0.7058823529411765
 40
0.7058823529411765
 40
0.7058823529411765
 40
0.7647058823529411
 40
0.7647058823529411
 40
0.7647058823529411
 40
0.7647058823529411
 40
0.8235294117647058
 40
0.8235294117647058
 40
0.8235294117647058
 40
0.8235294117647058
 40
0.8823529411764706
 40
0.8823529411764706
 40
0.8823529411764706
 40
0.8823529411764706
 40
1.0
 40
1.0
 40
1.0
 40
1.0
 10
145.548
 20
49.7056
 30
0.0
 10
146.5402
 20
48.1749
 30
0.0
 10
146.89
 20
46.2896
 30
0.0
 10
148.1155
 20
44.8831
 30
0.0
 10
148.1155
 20
44.8831
 30
0.0
 10
149.9909
 20
42.1716
 30
0.0
 10
153.2283
 20
40.9932
 30
0.0
 10
156.2821
 20
40.1796
 30
0.0
 10
156.2821
 20
40.1796
 30
0.0
 10
156.9692
 20
36.6619
 30
0.0
 10
158.7876
 20
33.0599
 30
0.0
 10
162.0771
 20
31.3333
 30
0.0
 10
162.0771
 20
31.3333
 30
0.0
 10
163.2827
 20
30.6164
 30
0.0
 10
164.7141
 20
30.2864
 30
0.0
 10
165.8205
 20
29.3983
 30
0.0
 10
165.8205
 20
29.3983
 30
0.0
 10
164.2948
 20
28.6839
 30
0.0
 10
162.6253
 20
28.2473
 30
0.0
 10
161.2584
 20
27.2326
 30
0.0
 10
161.2584
 20
27.2326
 30
0.0
 10
158.547
 20
25.2456
 30
0.0
 10
156.8353
 20
22.1298
 30
0.0
 10
156.2845
 20
18.8478
 30
0.0
 10
156.2845
 20
18.8478
 30
0.0
 10
152.9256
 20
18.2822
 30
0.0
 10
149.7726
 20
16.4663
 30
0.0
 10
147.7707
 20
13.6879
 30
0.0
 10
147.7707
 20
13.6879
 30
0.0
 10
146.8404
 20
12.3086
 30
0.0
 10
146.2723
 20
10.7358
 30
0.0
 10
145.6795
 20
9.1953
 30
0.0
 10
145.6795
 20
9.1953
 30
0.0
 10
144.5359
 20
11.0658
 30
0.0
 10
144.0025
 20
13.291
 30
0.0
 10
142.4297
 20
14.8935
 30
0.0
 10
142.4297
 20
14.8935
 30
0.0
 10
140.527
 20
17.1163
 30
0.0
 10
137.689
 20
18.1359
 30
0.0
 10
134.9205
 20
18.7758
 30
0.0
 10
134.9205
 20
18.7758
 30
0.0
 10
134.1713
 20
21.8817
 30
0.0
 10
132.8194
 20
25.0025
 30
0.0
 10
130.2469
 20
27.0218
 30
0.0
 10
130.2469
 20
27.0218
 30
0.0
 10
128.7386
 20
28.081
 30
0.0
 10
127.0095
 20
28.7087
 30
0.0
 10
125.3226
 20
29.4083
 30
0.0
 10
125.3226
 20
29.4083
 30
0.0
 10
127.4337
 20
30.6883
 30
0.0
 10
129.8921
 20
31.4499
 30
0.0
 10
131.574
 20
33.3576
 30
0.0
 10
131.574
 20
33.3576
 30
0.0
 10
133.509
 20
35.1586
 30
0.0
 10
134.3177
 20
37.7386
 30
0.0
 10
134.8535
 20
40.2416
 30
0.0
 10
134.8535
 20
40.2416
 30
0.0
 10
137.3293
 20
40.8419
 30
0.0
 10
139.9366
 20
41.6085
 30
0.0
 10
141.7401
 20
43.5261
 30
0.0
 10
141.7401
 20
43.5261
 30
0.0
 10
143.613
 20
45.1634
 30
0.0
 10
144.4167
 20
47.5697
 30
0.0
 10
145.548
 20
49.7056
 30
0.0
  0
SPLINE
  5
6B
330
1F
100
AcDbEntity
  8
layer 1
 62
     7
370
     9
100
AcDbSpline
210
0.0
220
0.0
230
1.0
 70
    11
 71
     3
 72
    44
 73
    40
 74
     0
 42
0.0000000001
 43
0.0000000001
 12
1.0
 22
0.0
 32
0.0
 13
1.0
 23
0.0
 33
0.0
 40
0.0
 40
0.0
 40
0.0
 40
0.0
 40
0.0909090909090909
 40
0.0909090909090909
 40
0.0909090909090909
 40
0.0909090909090909
 40
0.1818181818181818
 40
0.1818181818181818
 40
0.1818181818181818
 40
0.1818181818181818
 40
0.2727272727272727
 40
0.2727272727272727
 40
0.2727272727272727
 40
0.2727272727272727
 40
0.3636363636363636
 40
0.3636363636363636
 40
0.3636363636363636
 40
0.3636363636363636
 40
0.4545454545454545
 40
0.4545454545454545
 40
0.4545454545454545
 40
0.4545454545454545
 40
0.5454545454545454
 40
0.5454545454545454
 40
0.5454545454545454
 40
0.5454545454545454
 40
0.6363636363636364
 40
0.6363636363636364
 40
0.6363636363636364
 40
0.6363636363636364
 40
0.7272727272727273
 40
0.7272727272727273
 40
0.7272727272727273
 40
0.7272727272727273
 40
0.8181818181818182
 40
0.8181818181818182
 40
0.8181818181818182
 40
0.8181818181818182
 40
1.0
 40
1.0
 40
1.0
 40
1.0
 10
-35.0639
 20
47.8326
 30
0.0
 10
-33.6524
 20
46.2326
 30
0.0
 10
-32.7221
 20
44.2281
 30
0.0
 10
-31.0601
 20
42.8439
 30
0.0
 10
-31.0601
 20
42.8439
 30
0.0
 10
-29.2342
 20
41.4448
 30
0.0
 10
-27.0115
 20
40.7526
 30
0.0
 10
-24.8037
 20
40.2466
 30
0.0
 10
-24.8037
 20
40.2466
 30
0.0
 10
-24.2629
 20
37.7782
 30
0.0
 10
-23.4591
 20
35.2578
 30
0.0
 10
-21.6233
 20
33.427
 30
0.0
 10
-21.6233
 20
33.427
 30
0.0
 10
-20.0356
 20
31.311
 30
0.0
 10
-17.3416
 20
30.7553
 30
0.0
 10
-15.1933
 20
29.4157
 30
0.0
 10
-15.1933
 20
29.4157
 30
0.0
 10
-17.2151
 20
28.6243
 30
0.0
 10
-19.341
 20
27.9173
 30
0.0
 10
-20.9213
 20
26.3446
 30
0.0
 10
-20.9213
 20
26.3446
 30
0.0
 10
-23.1266
 20
24.4394
 30
0.0
 10
-24.2727
 20
21.6485
 30
0.0
 10
-24.8086
 20
18.8478
 30
0.0
 10
-24.8086
 20
18.8478
 30
0.0
 10
-27.453
 20
18.3467
 30
0.0
 10
-30.0479
 20
17.2428
 30
0.0
 10
-31.968
 20
15.3103
 30
0.0
 10
-31.968
 20
15.3103
 30
0.0
 10
-33.2282
 20
14.1766
 30
0.0
 10
-33.7442
 20
12.4326
 30
0.0
 10
-35.0639
 20
11.3535
 30
0.0
 10
-35.0639
 20
11.3535
 30
0.0
 10
-35.4608
 20
17.6372
 30
0.0
 10
-35.1309
 20
23.9408
 30
0.0
 10
-35.2301
 20
30.2319
 30
0.0
 10
-35.2301
 20
30.2319
 30
0.0
 10
-35.1855
 20
36.0988
 30
0.0
 10
-35.384
 20
41.9707
 30
0.0
 10
-35.0639
 20
47.8326
 30
0.0
  0
SPLINE
  5
6C
330
1F
100
AcDbEntity
  8
layer 1
 62
     7
370
     9
100
AcDbSpline
210
0.0
220
0.0
230
1.0
 70
    11
 71
     3
 72
    44
 73
    40
 74
     0
 42
0.0000000001
 43
0.0000000001
 12
1.0
 22
0.0
 32
0.0
 13
1.0
 23
0.0
 33
0.0
 40
0.0
 40
0.0
 40
0.0
 40
0.0
 40
0.0909090909090909
 40
0.0909090909090909
 40
0.0909090909090909
 40
0.0909090909090909
 40
0.1818181818181818
 40
0.1818181818181818
 40
0.1818181818181818
 40
0.1818181818181818
 40
0.2727272727272727
 40
0.2727272727272727
 40
0.2727272727272727
 40
0.2727272727272727
 40
0.3636363636363636
 40
0.3636363636363636
 40
0.3636363636363636
 40
0.3636363636363636
 40
0.4545454545454545
 40
0.4545454545454545
 40
0.4545454545454545
 40
0.4545454545454545
 40
0.5454545454545454
 40
0.5454545454545454
 40
0.5454545454545454
 40
0.5454545454545454
 40
0.6363636363636364
 40
0.6363636363636364
 40
0.6363636363636364
 40
0.6363636363636364
 40
0.7272727272727273
 40
0.7272727272727273
 40
0.7272727272727273
 40
0.7272727272727273
 40
0.8181818181818182
 40
0.8181818181818182
 40
0.8181818181818182
 40
0.8181818181818182
 40
1.0
 40
1.0
 40
1.0
 40
1.0
 10
186.8496
 20
43.3227
 30
0.0
 10
188.3331
 20
44.5705
 30
0.0
 10
188.9904
 20
46.4807
 30
0.0
 10
190.3474
 20
47.8401
 30
0.0
 10
190.3474
 20
47.8401
 30
0.0
 10
190.6923
 20
40.7352
 30
0.0
 10
190.4392
 20
33.6206
 30
0.0
 10
190.5112
 20
26.5108
 30
0.0
 10
190.5112
 20
26.5108
 30
0.0
 10
190.4343
 20
21.455
 30
0.0
 10
190.7295
 20
16.3845
 30
0.0
 10
190.33
 20
11.3361
 30
0.0
 10
190.33
 20
11.3361
 30
0.0
 10
189.174
 20
12.6286
 30
0.0
 10
188.3232
 20
14.1716
 30
0.0
 10
187.1126
 20
15.4195
 30
0.0
 10
187.1126
 20
15.4195
 30
0.0
 10
185.3215
 20
17.404
 30
0.0
 10
182.6448
 20
18.2797
 30
0.0
 10
180.102
 20
18.8156
 30
0.0
 10
180.102
 20
18.8156
 30
0.0
 10
179.5686
 20
21.202
 30
0.0
 10
178.7996
 20
23.6579
 30
0.0
 10
177.0631
 20
25.4664
 30
0.0
 10
177.0631
 20
25.4664
 30
0.0
 10
175.3812
 20
27.4956
 30
0.0
 10
172.8955
 20
28.5524
 30
0.0
 10
170.4743
 20
29.4133
 30
0.0
 10
170.4743
 20
29.4133
 30
0.0
 10
172.4837
 20
30.6536
 30
0.0
 10
174.9024
 20
31.244
 30
0.0
 10
176.5571
 20
33.0202
 30
0.0
 10
176.5571
 20
33.0202
 30
0.0
 10
178.5863
 20
34.9081
 30
0.0
 10
179.4967
 20
37.5972
 30
0.0
 10
180.04
 20
40.2416
 30
0.0
 10
180.04
 20
40.2416
 30
0.0
 10
182.4811
 20
40.7874
 30
0.0
 10
184.9742
 20
41.5911
 30
0.0
 10
186.8496
 20
43.3227
 30
0.0
  0
SPLINE
  5
6D
330
1F
100
AcDbEntity
  8
layer 1
 62
     7
370
     9
100
AcDbSpline
210
0.0
220
0.0
230
1.0
 70
    11
 71
     3
 72
    64
 73
    60
 74
     0
 42
0.0000000001
 43
0.0000000001
 12
1.0
 22
0.0
 32
0.0
 13
1.0
 23
0.0
 33
0.0
 40
0.0
 40
0.0
 40
0.0
 40
0.0
 40
0.0625
 40
0.0625
 40
0.0625
 40
0.0625
 40
0.125
 40
0.125
 40
0.125
 40
0.125
 40
0.1875
 40
0.1875
 40
0.1875
 40
0.1875
 40
0.25
 40
0.25
 40
0.25
 40
0.25
 40
0.3125
 40
0.3125
 40
0.3125
 40
0.3125
 40
0.375
 40
0.375
 40
0.375
 40
0.375
 40
0.4375
 40
0.4375
 40
0.4375
 40
0.4375
 40
0.5
 40
0.5
 40
0.5
 40
0.5
 40
0.5625
 40
0.5625
 40
0.5625
 40
0.5625
 40
0.625
 40
0.625
 40
0.625
 40
0.625
 40
0.6875
 40
0.6875
 40
0.6875
 40
0.6875
 40
0.75
 40
0.75
 40
0.75
 40
0.75
 40
0.8125
 40
0.8125
 40
0.8125
 40
0.8125
 40
0.875
 40
0.875
 40
0.875
 40
0.875
 40
1.0
 40
1.0
 40
1.0
 40
1.0
 10
-21.0775
 20
22.0355
 30
0.0
 10
-19.5147
 20
25.2431
 30
0.0
 10
-15.878
 20
27.0045
 30
0.0
 10
-12.4174
 20
26.9846
 30
0.0
 10
-12.4174
 20
26.9846
 30
0.0
 10
-9.2817
 20
26.6299
 30
0.0
 10
-6.3222
 20
24.7767
 30
0.0
 10
-4.7395
 20
22.0256
 30
0.0
 10
-4.7395
 20
22.0256
 30
0.0
 10
-3.6455
 20
20.3908
 30
0.0
 10
-3.8241
 20
18.3343
 30
0.0
 10
-3.6579
 20
16.4613
 30
0.0
 10
-3.6579
 20
16.4613
 30
0.0
 10
-1.0333
 20
16.2703
 30
0.0
 10
1.8121
 20
15.861
 30
0.0
 10
3.7843
 20
13.931
 30
0.0
 10
3.7843
 20
13.931
 30
0.0
 10
7.2375
 20
11.1501
 30
0.0
 10
8.0908
 20
5.6751
 30
0.0
 10
5.63
 20
1.9888
 30
0.0
 10
5.63
 20
1.9888
 30
0.0
 10
4.6351
 20
0.545
 30
0.0
 10
3.3327
 20
-0.7623
 30
0.0
 10
1.7203
 20
-1.4991
 30
0.0
 10
1.7203
 20
-1.4991
 30
0.0
 10
0.0979
 20
-2.3897
 30
0.0
 10
-1.8271
 20
-2.1764
 30
0.0
 10
-3.5984
 20
-2.3947
 30
0.0
 10
-3.5984
 20
-2.3947
 30
0.0
 10
-3.7968
 20
-4.347
 30
0.0
 10
-3.6207
 20
-6.4805
 30
0.0
 10
-4.7495
 20
-8.202
 30
0.0
 10
-4.7495
 20
-8.202
 30
0.0
 10
-6.2403
 20
-10.7175
 30
0.0
 10
-8.8724
 20
-12.8732
 30
0.0
 10
-11.9163
 20
-12.9055
 30
0.0
 10
-11.9163
 20
-12.9055
 30
0.0
 10
-15.7912
 20
-13.6795
 30
0.0
 10
-19.7751
 20
-11.2311
 30
0.0
 10
-21.3331
 20
-7.7258
 30
0.0
 10
-21.3331
 20
-7.7258
 30
0.0
 10
-22.1766
 20
-6.091
 30
0.0
 10
-22.2088
 20
-4.2081
 30
0.0
 10
-22.4817
 20
-2.4319
 30
0.0
 10
-22.4817
 20
-2.4319
 30
0.0
 10
-24.6374
 20
-2.2831
 30
0.0
 10
-27.0139
 20
-2.1764
 30
0.0
 10
-28.7951
 20
-0.7946
 30
0.0
 10
-28.7951
 20
-0.7946
 30
0.0
 10
-32.7693
 20
1.6514
 30
0.0
 10
-34.156
 20
7.3769
 30
0.0
 10
-31.7447
 20
11.3684
 30
0.0
 10
-31.7447
 20
11.3684
 30
0.0
 10
-30.1198
 20
14.8985
 30
0.0
 10
-26.096
 20
16.3299
 30
0.0
 10
-22.4543
 20
16.4291
 30
0.0
 10
-22.4543
 20
16.4291
 30
0.0
 10
-22.2559
 20
18.3442
 30
0.0
 10
-22.0972
 20
20.3461
 30
0.0
 10
-21.0775
 20
22.0355
 30
0.0
  0
SPLINE
  5
6E
330
1F
100
AcDbEntity
  8
layer 1
 62
     7
370
     9
100
AcDbSpline
210
0.0
220
0.0
230
1.0
 70
    11
 71
     3
 72
    64
 73
    60
 74
     0
 42
0.0000000001
 43
0.0000000001
 12
1.0
 22
0.0
 32
0.0
 13
1.0
 23
0.0
 33
0.0
 40
0.0
 40
0.0
 40
0.0
 40
0.0
 40
0.0625
 40
0.0625
 40
0.0625
 40
0.0625
 40
0.125
 40
0.125
 40
0.125
 40
0.125
 40
0.1875
 40
0.1875
 40
0.1875
 40
0.1875
 40
0.25
 40
0.25
 40
0.25
 40
0.25
 40
0.3125
 40
0.3125
 40
0.3125
 40
0.3125
 40
0.375
 40
0.375
 40
0.375
 40
0.375
 40
0.4375
 40
0.4375
 40
0.4375
 40
0.4375
 40
0.5
 40
0.5
 40
0.5
 40
0.5
 40
0.5625
 40
0.5625
 40
0.5625
 40
0.5625
 40
0.625
 40
0.625
 40
0.625
 40
0.625
 40
0.6875
 40
0.6875
 40
0.6875
 40
0.6875
 40
0.75
 40
0.75
 40
0.75
 40
0.75
 40
0.8125
 40
0.8125
 40
0.8125
 40
0.8125
 40
0.875
 40
0.875
 40
0.875
 40
0.875
 40
1.0
 40
1.0
 40
1.0
 40
1.0
 10
24.3073
 20
22.2911
 30
0.0
 10
26.4159
 20
25.8956
 30
0.0
 10
31.1566
 20
27.9099
 30
0.0
 10
35.158
 20
26.4735
 30
0.0
 10
35.158
 20
26.4735
 30
0.0
 10
37.2543
 20
25.6376
 30
0.0
 10
39.3207
 20
24.3178
 30
0.0
 10
40.4296
 20
22.2886
 30
0.0
 10
40.4296
 20
22.2886
 30
0.0
 10
41.536
 20
20.5719
 30
0.0
 10
41.5285
 20
18.4459
 30
0.0
 10
41.8535
 20
16.4936
 30
0.0
 10
41.8535
 20
16.4936
 30
0.0
 10
45.3042
 20
16.3324
 30
0.0
 10
49.1072
 20
15.1094
 30
0.0
 10
50.8511
 20
11.8794
 30
0.0
 10
50.8511
 20
11.8794
 30
0.0
 10
53.5576
 20
8.017
 30
0.0
 10
52.4884
 20
2.15
 30
0.0
 10
48.6085
 20
-0.5192
 30
0.0
 10
48.6085
 20
-0.5192
 30
0.0
 10
46.7927
 20
-2.2682
 30
0.0
 10
44.1011
 20
-2.1566
 30
0.0
 10
41.7642
 20
-2.3525
 30
0.0
 10
41.7642
 20
-2.3525
 30
0.0
 10
42.2554
 20
-6.8203
 30
0.0
 10
39.3952
 20
-11.5188
 30
0.0
 10
35.0042
 20
-12.722
 30
0.0
 10
35.0042
 20
-12.722
 30
0.0
 10
32.9676
 20
-12.9427
 30
0.0
 10
30.7325
 20
-13.3173
 30
0.0
 10
28.8074
 20
-12.3994
 30
0.0
 10
28.8074
 20
-12.3994
 30
0.0
 10
26.6045
 20
-11.4518
 30
0.0
 10
24.7911
 20
-9.6657
 30
0.0
 10
23.8137
 20
-7.4727
 30
0.0
 10
23.8137
 20
-7.4727
 30
0.0
 10
22.9876
 20
-5.9049
 30
0.0
 10
23.1488
 20
-4.0766
 30
0.0
 10
23.0
 20
-2.3649
 30
0.0
 10
23.0
 20
-2.3649
 30
0.0
 10
20.9311
 20
-2.1789
 30
0.0
 10
18.5917
 20
-2.4195
 30
0.0
 10
16.8577
 20
-1.0328
 30
0.0
 10
16.8577
 20
-1.0328
 30
0.0
 10
14.3373
 20
0.4805
 30
0.0
 10
12.4321
 20
3.1522
 30
0.0
 10
12.4023
 20
6.1663
 30
0.0
 10
12.4023
 20
6.1663
 30
0.0
 10
11.9707
 20
10.3141
 30
0.0
 10
14.7615
 20
14.4519
 30
0.0
 10
18.6786
 20
15.7642
 30
0.0
 10
18.6786
 20
15.7642
 30
0.0
 10
20.0604
 20
16.1488
 30
0.0
 10
21.5016
 20
16.248
 30
0.0
 10
22.9206
 20
16.4167
 30
0.0
 10
22.9206
 20
16.4167
 30
0.0
 10
23.1835
 20
18.4012
 30
0.0
 10
23.191
 20
20.5496
 30
0.0
 10
24.3073
 20
22.2911
 30
0.0
  0
SPLINE
  5
6F
330
1F
100
AcDbEntity
  8
layer 1
 62
     7
370
     9
100
AcDbSpline
210
0.0
220
0.0
230
1.0
 70
    11
 71
     3
 72
    64
 73
    60
 74
     0
 42
0.0000000001
 43
0.0000000001
 12
1.0
 22
0.0
 32
0.0
 13
1.0
 23
0.0
 33
0.0
 40
0.0
 40
0.0
 40
0.0
 40
0.0
 40
0.0625
 40
0.0625
 40
0.0625
 40
0.0625
 40
0.125
 40
0.125
 40
0.125
 40
0.125
 40
0.1875
 40
0.1875
 40
0.1875
 40
0.1875
 40
0.25
 40
0.25
 40
0.25
 40
0.25
 40
0.3125
 40
0.3125
 40
0.3125
 40
0.3125
 40
0.375
 40
0.375
 40
0.375
 40
0.375
 40
0.4375
 40
0.4375
 40
0.4375
 40
0.4375
 40
0.5
 40
0.5
 40
0.5
 40
0.5
 40
0.5625
 40
0.5625
 40
0.5625
 40
0.5625
 40
0.625
 40
0.625
 40
0.625
 40
0.625
 40
0.6875
 40
0.6875
 40
0.6875
 40
0.6875
 40
0.75
 40
0.75
 40
0.75
 40
0.75
 40
0.8125
 40
0.8125
 40
0.8125
 40
0.8125
 40
0.875
 40
0.875
 40
0.875
 40
0.875
 40
1.0
 40
1.0
 40
1.0
 40
1.0
 10
71.6768
 20
24.7817
 30
0.0
 10
73.6341
 20
26.1039
 30
0.0
 10
75.9338
 20
27.1235
 30
0.0
 10
78.35
 20
26.9673
 30
0.0
 10
78.35
 20
26.9673
 30
0.0
 10
81.7089
 20
26.4959
 30
0.0
 10
84.8173
 20
24.3253
 30
0.0
 10
86.2363
 20
21.2169
 30
0.0
 10
86.2363
 20
21.2169
 30
0.0
 10
86.8639
 20
19.7185
 30
0.0
 10
86.7374
 20
18.0515
 30
0.0
 10
86.8887
 20
16.4613
 30
0.0
 10
86.8887
 20
16.4613
 30
0.0
 10
89.5108
 20
16.2703
 30
0.0
 10
92.3587
 20
15.861
 30
0.0
 10
94.3309
 20
13.931
 30
0.0
 10
94.3309
 20
13.931
 30
0.0
 10
97.784
 20
11.1501
 30
0.0
 10
98.6374
 20
5.6751
 30
0.0
 10
96.1765
 20
1.9888
 30
0.0
 10
96.1765
 20
1.9888
 30
0.0
 10
95.1817
 20
0.545
 30
0.0
 10
93.8793
 20
-0.7623
 30
0.0
 10
92.2669
 20
-1.4991
 30
0.0
 10
92.2669
 20
-1.4991
 30
0.0
 10
90.6445
 20
-2.3897
 30
0.0
 10
88.7169
 20
-2.1764
 30
0.0
 10
86.9482
 20
-2.3947
 30
0.0
 10
86.9482
 20
-2.3947
 30
0.0
 10
86.7473
 20
-4.347
 30
0.0
 10
86.9259
 20
-6.4805
 30
0.0
 10
85.7971
 20
-8.202
 30
0.0
 10
85.7971
 20
-8.202
 30
0.0
 10
84.3062
 20
-10.7225
 30
0.0
 10
81.6692
 20
-12.8659
 30
0.0
 10
78.6279
 20
-12.9154
 30
0.0
 10
78.6279
 20
-12.9154
 30
0.0
 10
74.9985
 20
-13.4612
 30
0.0
 10
71.0765
 20
-11.5411
 30
0.0
 10
69.4615
 20
-8.212
 30
0.0
 10
69.4615
 20
-8.212
 30
0.0
 10
68.4147
 20
-6.468
 30
0.0
 10
68.3427
 20
-4.3867
 30
0.0
 10
68.0649
 20
-2.4319
 30
0.0
 10
68.0649
 20
-2.4319
 30
0.0
 10
65.9091
 20
-2.2805
 30
0.0
 10
63.5301
 20
-2.1813
 30
0.0
 10
61.7539
 20
-0.7896
 30
0.0
 10
61.7539
 20
-0.7896
 30
0.0
 10
57.688
 20
1.7233
 30
0.0
 10
56.3311
 20
7.6547
 30
0.0
 10
58.9904
 20
11.6537
 30
0.0
 10
58.9904
 20
11.6537
 30
0.0
 10
60.7616
 20
14.9506
 30
0.0
 10
64.5224
 20
16.3918
 30
0.0
 10
68.0922
 20
16.4266
 30
0.0
 10
68.0922
 20
16.4266
 30
0.0
 10
68.2361
 20
19.5126
 30
0.0
 10
69.1465
 20
22.7872
 30
0.0
 10
71.6768
 20
24.7817
 30
0.0
  0
SPLINE
  5
70
330
1F
100
AcDbEntity
  8
layer 1
 62
     7
370
     9
100
AcDbSpline
210
0.0
220
0.0
230
1.0
 70
    11
 71
     3
 72
    72
 73
    68
 74
     0
 42
0.0000000001
 43
0.0000000001
 12
1.0
 22
0.0
 32
0.0
 13
1.0
 23
0.0
 33
0.0
 40
0.0
 40
0.0
 40
0.0
 40
0.0
 40
0.0555555555555556
 40
0.0555555555555556
 40
0.0555555555555556
 40
0.0555555555555556
 40
0.1111111111111111
 40
0.1111111111111111
 40
0.1111111111111111
 40
0.1111111111111111
 40
0.1666666666666667
 40
0.1666666666666667
 40
0.1666666666666667
 40
0.1666666666666667
 40
0.2222222222222222
 40
0.2222222222222222
 40
0.2222222222222222
 40
0.2222222222222222
 40
0.2777777777777778
 40
0.2777777777777778
 40
0.2777777777777778
 40
0.2777777777777778
 40
0.3333333333333333
 40
0.3333333333333333
 40
0.3333333333333333
 40
0.3333333333333333
 40
0.3888888888888889
 40
0.3888888888888889
 40
0.3888888888888889
 40
0.3888888888888889
 40
0.4444444444444444
 40
0.4444444444444444
 40
0.4444444444444444
 40
0.4444444444444444
 40
0.5
 40
0.5
 40
0.5
 40
0.5
 40
0.5555555555555556
 40
0.5555555555555556
 40
0.5555555555555556
 40
0.5555555555555556
 40
0.6111111111111112
 40
0.6111111111111112
 40
0.6111111111111112
 40
0.6111111111111112
 40
0.6666666666666666
 40
0.6666666666666666
 40
0.6666666666666666
 40
0.6666666666666666
 40
0.7222222222222222
 40
0.7222222222222222
 40
0.7222222222222222
 40
0.7222222222222222
 40
0.7777777777777778
 40
0.7777777777777778
 40
0.7777777777777778
 40
0.7777777777777778
 40
0.8333333333333334
 40
0.8333333333333334
 40
0.8333333333333334
 40
0.8333333333333334
 40
0.8888888888888888
 40
0.8888888888888888
 40
0.8888888888888888
 40
0.8888888888888888
 40
1.0
 40
1.0
 40
1.0
 40
1.0
 10
165.8701
 20
26.6001
 30
0.0
 10
170.1518
 20
27.9769
 30
0.0
 10
174.818
 20
25.2382
 30
0.0
 10
176.7084
 20
21.3856
 30
0.0
 10
176.7084
 20
21.3856
 30
0.0
 10
177.4179
 20
19.85
 30
0.0
 10
177.2765
 20
18.111
 30
0.0
 10
177.4353
 20
16.4613
 30
0.0
 10
177.4353
 20
16.4613
 30
0.0
 10
179.4173
 20
16.2033
 30
0.0
 10
181.5434
 20
16.1488
 30
0.0
 10
183.2997
 20
15.0647
 30
0.0
 10
183.2997
 20
15.0647
 30
0.0
 10
185.4654
 20
13.7946
 30
0.0
 10
187.2912
 20
11.7206
 30
0.0
 10
187.8642
 20
9.2301
 30
0.0
 10
187.8642
 20
9.2301
 30
0.0
 10
188.1545
 20
7.1314
 30
0.0
 10
188.276
 20
4.8813
 30
0.0
 10
187.3259
 20
2.9141
 30
0.0
 10
187.3259
 20
2.9141
 30
0.0
 10
186.3063
 20
1.0312
 30
0.0
 10
184.6988
 20
-0.4994
 30
0.0
 10
182.8283
 20
-1.524
 30
0.0
 10
182.8283
 20
-1.524
 30
0.0
 10
181.1886
 20
-2.3674
 30
0.0
 10
179.2635
 20
-2.1739
 30
0.0
 10
177.4948
 20
-2.3922
 30
0.0
 10
177.4948
 20
-2.3922
 30
0.0
 10
177.2715
 20
-4.161
 30
0.0
 10
177.4948
 20
-6.0934
 30
0.0
 10
176.5968
 20
-7.7108
 30
0.0
 10
176.5968
 20
-7.7108
 30
0.0
 10
175.0786
 20
-10.6207
 30
0.0
 10
172.1711
 20
-13.1412
 30
0.0
 10
168.6882
 20
-12.9552
 30
0.0
 10
168.6882
 20
-12.9552
 30
0.0
 10
164.9944
 20
-13.3967
 30
0.0
 10
161.2038
 20
-11.1244
 30
0.0
 10
159.76
 20
-7.7258
 30
0.0
 10
159.76
 20
-7.7258
 30
0.0
 10
158.9191
 20
-6.091
 30
0.0
 10
158.8819
 20
-4.2081
 30
0.0
 10
158.6115
 20
-2.4319
 30
0.0
 10
158.6115
 20
-2.4319
 30
0.0
 10
156.7435
 20
-2.2781
 30
0.0
 10
154.7267
 20
-2.2433
 30
0.0
 10
153.0596
 20
-1.2808
 30
0.0
 10
153.0596
 20
-1.2808
 30
0.0
 10
149.3956
 20
0.6169
 30
0.0
 10
147.2994
 20
5.2658
 30
0.0
 10
148.4901
 20
9.2374
 30
0.0
 10
148.4901
 20
9.2374
 30
0.0
 10
149.3336
 20
11.5991
 30
0.0
 10
150.6508
 20
14.0252
 30
0.0
 10
153.0621
 20
15.092
 30
0.0
 10
153.0621
 20
15.092
 30
0.0
 10
154.744
 20
16.1116
 30
0.0
 10
156.741
 20
16.1934
 30
0.0
 10
158.6388
 20
16.4291
 30
0.0
 10
158.6388
 20
16.4291
 30
0.0
 10
158.8298
 20
18.6444
 30
0.0
 10
159.1225
 20
20.9539
 30
0.0
 10
160.477
 20
22.8046
 30
0.0
 10
160.477
 20
22.8046
 30
0.0
 10
161.6033
 20
24.8239
 30
0.0
 10
163.7913
 20
25.8509
 30
0.0
 10
165.8701
 20
26.6001
 30
0.0
  0
SPLINE
  5
71
330
1F
100
AcDbEntity
  8
layer 1
 62
     7
370
     9
100
AcDbSpline
210
0.0
220
0.0
230
1.0
 70
    11
 71
     3
 72
    72
 73
    68
 74
     0
 42
0.0000000001
 43
0.0000000001
 12
1.0
 22
0.0
 32
0.0
 13
1.0
 23
0.0
 33
0.0
 40
0.0
 40
0.0
 40
0.0
 40
0.0
 40
0.0555555555555556
 40
0.0555555555555556
 40
0.0555555555555556
 40
0.0555555555555556
 40
0.1111111111111111
 40
0.1111111111111111
 40
0.1111111111111111
 40
0.1111111111111111
 40
0.1666666666666667
 40
0.1666666666666667
 40
0.1666666666666667
 40
0.1666666666666667
 40
0.2222222222222222
 40
0.2222222222222222
 40
0.2222222222222222
 40
0.2222222222222222
 40
0.2777777777777778
 40
0.2777777777777778
 40
0.2777777777777778
 40
0.2777777777777778
 40
0.3333333333333333
 40
0.3333333333333333
 40
0.3333333333333333
 40
0.3333333333333333
 40
0.3888888888888889
 40
0.3888888888888889
 40
0.3888888888888889
 40
0.3888888888888889
 40
0.4444444444444444
 40
0.4444444444444444
 40
0.4444444444444444
 40
0.4444444444444444
 40
0.5
 40
0.5
 40
0.5
 40
0.5
 40
0.5555555555555556
 40
0.5555555555555556
 40
0.5555555555555556
 40
0.5555555555555556
 40
0.6111111111111112
 40
0.6111111111111112
 40
0.6111111111111112
 40
0.6111111111111112
 40
0.6666666666666666
 40
0.6666666666666666
 40
0.6666666666666666
 40
0.6666666666666666
 40
0.7222222222222222
 40
0.7222222222222222
 40
0.7222222222222222
 40
0.7222222222222222
 40
0.7777777777777778
 40
0.7777777777777778
 40
0.7777777777777778
 40
0.7777777777777778
 40
0.8333333333333334
 40
0.8333333333333334
 40
0.8333333333333334
 40
0.8333333333333334
 40
0.8888888888888888
 40
0.8888888888888888
 40
0.8888888888888888
 40
0.8888888888888888
 40
1.0
 40
1.0
 40
1.0
 40
1.0
 10
51.124
 20
-1.8018
 30
0.0
 10
53.1756
 20
-0.2389
 30
0.0
 10
53.8776
 20
2.3212
 30
0.0
 10
54.9244
 20
4.5514
 30
0.0
 10
54.9244
 20
4.5514
 30
0.0
 10
55.9615
 20
2.4402
 30
0.0
 10
56.8495
 20
0.1902
 30
0.0
 10
58.5712
 20
-1.4868
 30
0.0
 10
58.5712
 20
-1.4868
 30
0.0
 10
60.3846
 20
-3.5334
 30
0.0
 10
63.0861
 20
-4.4289
 30
0.0
 10
65.6785
 20
-4.987
 30
0.0
 10
65.6785
 20
-4.987
 30
0.0
 10
66.2689
 20
-7.6067
 30
0.0
 10
67.2512
 20
-10.2635
 30
0.0
 10
69.2581
 20
-12.139
 30
0.0
 10
69.2581
 20
-12.139
 30
0.0
 10
70.8458
 20
-13.9276
 30
0.0
 10
73.1653
 20
-14.7314
 30
0.0
 10
75.2541
 20
-15.7608
 30
0.0
 10
75.2541
 20
-15.7608
 30
0.0
 10
72.627
 20
-16.8722
 30
0.0
 10
69.789
 20
-18.1026
 30
0.0
 10
68.1815
 20
-20.5982
 30
0.0
 10
68.1815
 20
-20.5982
 30
0.0
 10
66.8122
 20
-22.2281
 30
0.0
 10
66.3408
 20
-24.3541
 30
0.0
 10
65.7777
 20
-26.3511
 30
0.0
 10
65.7777
 20
-26.3511
 30
0.0
 10
63.3813
 20
-27.0357
 30
0.0
 10
60.8857
 20
-27.7974
 30
0.0
 10
59.0202
 20
-29.5363
 30
0.0
 10
59.0202
 20
-29.5363
 30
0.0
 10
56.9265
 20
-31.1686
 30
0.0
 10
56.0259
 20
-33.7536
 30
0.0
 10
54.9939
 20
-36.0978
 30
0.0
 10
54.9939
 20
-36.0978
 30
0.0
 10
53.8057
 20
-32.9176
 30
0.0
 10
51.9873
 20
-29.6802
 30
0.0
 10
48.874
 20
-28.0578
 30
0.0
 10
48.874
 20
-28.0578
 30
0.0
 10
47.5195
 20
-27.1622
 30
0.0
 10
45.8475
 20
-26.9961
 30
0.0
 10
44.4037
 20
-26.3287
 30
0.0
 10
44.4037
 20
-26.3287
 30
0.0
 10
43.6025
 20
-24.6245
 30
0.0
 10
43.332
 20
-22.6548
 30
0.0
 10
42.1562
 20
-21.1291
 30
0.0
 10
42.1562
 20
-21.1291
 30
0.0
 10
40.5635
 20
-18.5467
 30
0.0
 10
37.8769
 20
-16.8424
 30
0.0
 10
35.0018
 20
-16.0189
 30
0.0
 10
35.0018
 20
-16.0189
 30
0.0
 10
35.0018
 20
-15.8874
 30
0.0
 10
35.0018
 20
-15.6244
 30
0.0
 10
35.0018
 20
-15.4929
 30
0.0
 10
35.0018
 20
-15.4929
 30
0.0
 10
37.6462
 20
-14.6272
 30
0.0
 10
40.2361
 20
-13.2132
 30
0.0
 10
41.8734
 20
-10.8986
 30
0.0
 10
41.8734
 20
-10.8986
 30
0.0
 10
43.1609
 20
-9.1596
 30
0.0
 10
43.7339
 20
-7.0237
 30
0.0
 10
44.3764
 20
-4.992
 30
0.0
 10
44.3764
 20
-4.992
 30
0.0
 10
46.815
 20
-4.4165
 30
0.0
 10
49.3131
 20
-3.6276
 30
0.0
 10
51.124
 20
-1.8018
 30
0.0
  0
SPLINE
  5
72
330
1F
100
AcDbEntity
  8
layer 1
 62
     7
370
     9
100
AcDbSpline
210
0.0
220
0.0
230
1.0
 70
    11
 71
     3
 72
    68
 73
    64
 74
     0
 42
0.0000000001
 43
0.0000000001
 12
1.0
 22
0.0
 32
0.0
 13
1.0
 23
0.0
 33
0.0
 40
0.0
 40
0.0
 40
0.0
 40
0.0
 40
0.0588235294117647
 40
0.0588235294117647
 40
0.0588235294117647
 40
0.0588235294117647
 40
0.1176470588235294
 40
0.1176470588235294
 40
0.1176470588235294
 40
0.1176470588235294
 40
0.1764705882352941
 40
0.1764705882352941
 40
0.1764705882352941
 40
0.1764705882352941
 40
0.2352941176470588
 40
0.2352941176470588
 40
0.2352941176470588
 40
0.2352941176470588
 40
0.2941176470588235
 40
0.2941176470588235
 40
0.2941176470588235
 40
0.2941176470588235
 40
0.3529411764705883
 40
0.3529411764705883
 40
0.3529411764705883
 40
0.3529411764705883
 40
0.4117647058823529
 40
0.4117647058823529
 40
0.4117647058823529
 40
0.4117647058823529
 40
0.4705882352941176
 40
0.4705882352941176
 40
0.4705882352941176
 40
0.4705882352941176
 40
0.5294117647058824
 40
0.5294117647058824
 40
0.5294117647058824
 40
0.5294117647058824
 40
0.5882352941176471
 40
0.5882352941176471
 40
0.5882352941176471
 40
0.5882352941176471
 40
0.6470588235294118
 40
0.6470588235294118
 40
0.6470588235294118
 40
0.6470588235294118
 40
0.7058823529411765
 40
0.7058823529411765
 40
0.7058823529411765
 40
0.7058823529411765
 40
0.7647058823529411
 40
0.7647058823529411
 40
0.7647058823529411
 40
0.7647058823529411
 40
0.8235294117647058
 40
0.8235294117647058
 40
0.8235294117647058
 40
0.8235294117647058
 40
0.8823529411764706
 40
0.8823529411764706
 40
0.8823529411764706
 40
0.8823529411764706
 40
1.0
 40
1.0
 40
1.0
 40
1.0
 10
141.6731
 20
-1.8043
 30
0.0
 10
143.7891
 20
-0.2166
 30
0.0
 10
144.3448
 20
2.48
 30
0.0
 10
145.6844
 20
4.6258
 30
0.0
 10
145.6844
 20
4.6258
 30
0.0
 10
146.4758
 20
2.604
 30
0.0
 10
147.1828
 20
0.478
 30
0.0
 10
148.7555
 20
-1.1022
 30
0.0
 10
148.7555
 20
-1.1022
 30
0.0
 10
150.6533
 20
-3.3002
 30
0.0
 10
153.4367
 20
-4.4438
 30
0.0
 10
156.225
 20
-4.987
 30
0.0
 10
156.225
 20
-4.987
 30
0.0
 10
156.8155
 20
-7.6042
 30
0.0
 10
157.7928
 20
-10.2685
 30
0.0
 10
159.8072
 20
-12.134
 30
0.0
 10
159.8072
 20
-12.134
 30
0.0
 10
161.4073
 20
-13.9127
 30
0.0
 10
163.7168
 20
-14.7115
 30
0.0
 10
165.7957
 20
-15.7658
 30
0.0
 10
165.7957
 20
-15.7658
 30
0.0
 10
163.1686
 20
-16.8722
 30
0.0
 10
160.3356
 20
-18.1026
 30
0.0
 10
158.7281
 20
-20.5982
 30
0.0
 10
158.7281
 20
-20.5982
 30
0.0
 10
157.3587
 20
-22.2281
 30
0.0
 10
156.8849
 20
-24.3565
 30
0.0
 10
156.3243
 20
-26.3536
 30
0.0
 10
156.3243
 20
-26.3536
 30
0.0
 10
153.4863
 20
-27.0333
 30
0.0
 10
150.6954
 20
-28.2141
 30
0.0
 10
148.6513
 20
-30.36
 30
0.0
 10
148.6513
 20
-30.36
 30
0.0
 10
147.1728
 20
-31.9972
 30
0.0
 10
146.5526
 20
-34.1281
 30
0.0
 10
145.729
 20
-36.1177
 30
0.0
 10
145.729
 20
-36.1177
 30
0.0
 10
144.2456
 20
-33.503
 30
0.0
 10
143.1119
 20
-30.4319
 30
0.0
 10
140.4848
 20
-28.7202
 30
0.0
 10
140.4848
 20
-28.7202
 30
0.0
 10
138.8401
 20
-27.4624
 30
0.0
 10
136.8356
 20
-26.8968
 30
0.0
 10
134.861
 20
-26.4131
 30
0.0
 10
134.861
 20
-26.4131
 30
0.0
 10
134.0845
 20
-21.531
 30
0.0
 10
130.4279
 20
-17.1575
 30
0.0
 10
125.5409
 20
-16.0263
 30
0.0
 10
125.5409
 20
-16.0263
 30
0.0
 10
125.5434
 20
-15.8948
 30
0.0
 10
125.5508
 20
-15.6318
 30
0.0
 10
125.5557
 20
-15.5004
 30
0.0
 10
125.5557
 20
-15.5004
 30
0.0
 10
128.0092
 20
-14.6272
 30
0.0
 10
130.49
 20
-13.4339
 30
0.0
 10
132.1098
 20
-11.3204
 30
0.0
 10
132.1098
 20
-11.3204
 30
0.0
 10
133.6727
 20
-9.5541
 30
0.0
 10
134.2756
 20
-7.2048
 30
0.0
 10
134.9056
 20
-4.987
 30
0.0
 10
134.9056
 20
-4.987
 30
0.0
 10
137.3516
 20
-4.4264
 30
0.0
 10
139.8522
 20
-3.6251
 30
0.0
 10
141.6731
 20
-1.8043
 30
0.0
  0
SPLINE
  5
73
330
1F
100
AcDbEntity
  8
layer 1
 62
     7
370
     9
100
AcDbSpline
210
0.0
220
0.0
230
1.0
 70
    11
 71
     3
 72
    44
 73
    40
 74
     0
 42
0.0000000001
 43
0.0000000001
 12
1.0
 22
0.0
 32
0.0
 13
1.0
 23
0.0
 33
0.0
 40
0.0
 40
0.0
 40
0.0
 40
0.0
 40
0.0909090909090909
 40
0.0909090909090909
 40
0.0909090909090909
 40
0.0909090909090909
 40
0.1818181818181818
 40
0.1818181818181818
 40
0.1818181818181818
 40
0.1818181818181818
 40
0.2727272727272727
 40
0.2727272727272727
 40
0.2727272727272727
 40
0.2727272727272727
 40
0.3636363636363636
 40
0.3636363636363636
 40
0.3636363636363636
 40
0.3636363636363636
 40
0.4545454545454545
 40
0.4545454545454545
 40
0.4545454545454545
 40
0.4545454545454545
 40
0.5454545454545454
 40
0.5454545454545454
 40
0.5454545454545454
 40
0.5454545454545454
 40
0.6363636363636364
 40
0.6363636363636364
 40
0.6363636363636364
 40
0.6363636363636364
 40
0.7272727272727273
 40
0.7272727272727273
 40
0.7272727272727273
 40
0.7272727272727273
 40
0.8181818181818182
 40
0.8181818181818182
 40
0.8181818181818182
 40
0.8181818181818182
 40
1.0
 40
1.0
 40
1.0
 40
1.0
 10
-35.0491
 20
2.4899
 30
0.0
 10
-33.3622
 20
0.5226
 30
0.0
 10
-32.0945
 20
-1.9407
 30
0.0
 10
-29.78
 20
-3.2729
 30
0.0
 10
-29.78
 20
-3.2729
 30
0.0
 10
-28.3437
 20
-4.3321
 30
0.0
 10
-26.5377
 20
-4.5331
 30
0.0
 10
-24.8583
 20
-4.9796
 30
0.0
 10
-24.8583
 20
-4.9796
 30
0.0
 10
-24.2877
 20
-7.3685
 30
0.0
 10
-23.6502
 20
-9.8988
 30
0.0
 10
-21.797
 20
-11.6503
 30
0.0
 10
-21.797
 20
-11.6503
 30
0.0
 10
-20.125
 20
-13.6994
 30
0.0
 10
-17.607
 20
-14.6544
 30
0.0
 10
-15.2925
 20
-15.7608
 30
0.0
 10
-15.2925
 20
-15.7608
 30
0.0
 10
-18.1727
 20
-16.9119
 30
0.0
 10
-21.1222
 20
-18.4028
 30
0.0
 10
-22.8265
 20
-21.1217
 30
0.0
 10
-22.8265
 20
-21.1217
 30
0.0
 10
-23.9106
 20
-22.692
 30
0.0
 10
-24.2504
 20
-24.622
 30
0.0
 10
-24.7614
 20
-26.4279
 30
0.0
 10
-24.7614
 20
-26.4279
 30
0.0
 10
-27.2918
 20
-27.0407
 30
0.0
 10
-29.9437
 20
-27.8122
 30
0.0
 10
-31.8191
 20
-29.7397
 30
0.0
 10
-31.8191
 20
-29.7397
 30
0.0
 10
-33.2059
 20
-30.9255
 30
0.0
 10
-33.8013
 20
-32.729
 30
0.0
 10
-35.0564
 20
-34.024
 30
0.0
 10
-35.0564
 20
-34.024
 30
0.0
 10
-35.4212
 20
-26.9167
 30
0.0
 10
-35.1557
 20
-19.797
 30
0.0
 10
-35.2301
 20
-12.6847
 30
0.0
 10
-35.2301
 20
-12.6847
 30
0.0
 10
-35.1557
 20
-7.6265
 30
0.0
 10
-35.451
 20
-2.5584
 30
0.0
 10
-35.0491
 20
2.4899
 30
0.0
  0
SPLINE
  5
74
330
1F
100
AcDbEntity
  8
layer 1
 62
     7
370
     9
100
AcDbSpline
210
0.0
220
0.0
230
1.0
 70
    11
 71
     3
 72
    44
 73
    40
 74
     0
 42
0.0000000001
 43
0.0000000001
 12
1.0
 22
0.0
 32
0.0
 13
1.0
 23
0.0
 33
0.0
 40
0.0
 40
0.0
 40
0.0
 40
0.0
 40
0.0909090909090909
 40
0.0909090909090909
 40
0.0909090909090909
 40
0.0909090909090909
 40
0.1818181818181818
 40
0.1818181818181818
 40
0.1818181818181818
 40
0.1818181818181818
 40
0.2727272727272727
 40
0.2727272727272727
 40
0.2727272727272727
 40
0.2727272727272727
 40
0.3636363636363636
 40
0.3636363636363636
 40
0.3636363636363636
 40
0.3636363636363636
 40
0.4545454545454545
 40
0.4545454545454545
 40
0.4545454545454545
 40
0.4545454545454545
 40
0.5454545454545454
 40
0.5454545454545454
 40
0.5454545454545454
 40
0.5454545454545454
 40
0.6363636363636364
 40
0.6363636363636364
 40
0.6363636363636364
 40
0.6363636363636364
 40
0.7272727272727273
 40
0.7272727272727273
 40
0.7272727272727273
 40
0.7272727272727273
 40
0.8181818181818182
 40
0.8181818181818182
 40
0.8181818181818182
 40
0.8181818181818182
 40
1.0
 40
1.0
 40
1.0
 40
1.0
 10
186.9935
 20
-1.7224
 30
0.0
 10
188.3827
 20
-0.5416
 30
0.0
 10
188.9582
 20
1.3041
 30
0.0
 10
190.3499
 20
2.4725
 30
0.0
 10
190.3499
 20
2.4725
 30
0.0
 10
190.7145
 20
-2.5708
 30
0.0
 10
190.4392
 20
-7.6315
 30
0.0
 10
190.5112
 20
-12.6847
 30
0.0
 10
190.5112
 20
-12.6847
 30
0.0
 10
190.4392
 20
-19.792
 30
0.0
 10
190.6923
 20
-26.9068
 30
0.0
 10
190.3474
 20
-34.0115
 30
0.0
 10
190.3474
 20
-34.0115
 30
0.0
 10
188.8665
 20
-32.3172
 30
0.0
 10
187.9312
 20
-30.1491
 30
0.0
 10
186.0285
 20
-28.8368
 30
0.0
 10
186.0285
 20
-28.8368
 30
0.0
 10
184.3218
 20
-27.5666
 30
0.0
 10
182.2057
 20
-27.0878
 30
0.0
 10
180.2261
 20
-26.4429
 30
0.0
 10
180.2261
 20
-26.4429
 30
0.0
 10
179.3851
 20
-24.1805
 30
0.0
 10
178.9386
 20
-21.6352
 30
0.0
 10
177.088
 20
-19.9111
 30
0.0
 10
177.088
 20
-19.9111
 30
0.0
 10
175.3787
 20
-17.8769
 30
0.0
 10
172.9153
 20
-16.8449
 30
0.0
 10
170.5537
 20
-15.7931
 30
0.0
 10
170.5537
 20
-15.7931
 30
0.0
 10
173.1709
 20
-14.6172
 30
0.0
 10
175.8525
 20
-13.3198
 30
0.0
 10
177.6535
 20
-10.9904
 30
0.0
 10
177.6535
 20
-10.9904
 30
0.0
 10
179.1718
 20
-9.3655
 30
0.0
 10
179.5364
 20
-7.1031
 30
0.0
 10
180.0723
 20
-5.0317
 30
0.0
 10
180.0723
 20
-5.0317
 30
0.0
 10
182.5902
 20
-4.4958
 30
0.0
 10
185.185
 20
-3.6524
 30
0.0
 10
186.9935
 20
-1.7224
 30
0.0
  0
SPLINE
  5
75
330
1F
100
AcDbEntity
  8
layer 1
 62
     7
370
     9
100
AcDbSpline
210
0.0
220
0.0
230
1.0
 70
    11
 71
     3
 72
    60
 73
    56
 74
     0
 42
0.0000000001
 43
0.0000000001
 12
1.0
 22
0.0
 32
0.0
 13
1.0
 23
0.0
 33
0.0
 40
0.0
 40
0.0
 40
0.0
 40
0.0
 40
0.0666666666666667
 40
0.0666666666666667
 40
0.0666666666666667
 40
0.0666666666666667
 40
0.1333333333333333
 40
0.1333333333333333
 40
0.1333333333333333
 40
0.1333333333333333
 40
0.2
 40
0.2
 40
0.2
 40
0.2
 40
0.2666666666666667
 40
0.2666666666666667
 40
0.2666666666666667
 40
0.2666666666666667
 40
0.3333333333333333
 40
0.3333333333333333
 40
0.3333333333333333
 40
0.3333333333333333
 40
0.4
 40
0.4
 40
0.4
 40
0.4
 40
0.4666666666666667
 40
0.4666666666666667
 40
0.4666666666666667
 40
0.4666666666666667
 40
0.5333333333333333
 40
0.5333333333333333
 40
0.5333333333333333
 40
0.5333333333333333
 40
0.6
 40
0.6
 40
0.6
 40
0.6
 40
0.6666666666666666
 40
0.6666666666666666
 40
0.6666666666666666
 40
0.6666666666666666
 40
0.7333333333333333
 40
0.7333333333333333
 40
0.7333333333333333
 40
0.7333333333333333
 40
0.8
 40
0.8
 40
0.8
 40
0.8
 40
0.8666666666666667
 40
0.8666666666666667
 40
0.8666666666666667
 40
0.8666666666666667
 40
1.0
 40
1.0
 40
1.0
 40
1.0
 10
24.5356
 20
-22.5952
 30
0.0
 10
27.0014
 20
-18.5169
 30
0.0
 10
32.9179
 20
-17.1128
 30
0.0
 10
36.9714
 20
-19.6208
 30
0.0
 10
36.9714
 20
-19.6208
 30
0.0
 10
38.579
 20
-20.6776
 30
0.0
 10
40.1195
 20
-22.0519
 30
0.0
 10
40.8761
 20
-23.8679
 30
0.0
 10
40.8761
 20
-23.8679
 30
0.0
 10
41.6774
 20
-25.4381
 30
0.0
 10
41.5806
 20
-27.2442
 30
0.0
 10
41.7419
 20
-28.9533
 30
0.0
 10
41.7419
 20
-28.9533
 30
0.0
 10
46.8745
 20
-28.3852
 30
0.0
 10
52.1213
 20
-32.5281
 30
0.0
 10
52.2999
 20
-37.75
 30
0.0
 10
52.2999
 20
-37.75
 30
0.0
 10
52.7588
 20
-41.228
 30
0.0
 10
50.6055
 20
-44.4976
 30
0.0
 10
47.8246
 20
-46.3755
 30
0.0
 10
47.8246
 20
-46.3755
 30
0.0
 10
46.0385
 20
-47.5811
 30
0.0
 10
43.848
 20
-47.6208
 30
0.0
 10
41.7816
 20
-47.7325
 30
0.0
 10
41.7816
 20
-47.7325
 30
0.0
 10
41.7592
 20
-49.598
 30
0.0
 10
41.6228
 20
-51.5032
 30
0.0
 10
40.7496
 20
-53.1975
 30
0.0
 10
40.7496
 20
-53.1975
 30
0.0
 10
39.1247
 20
-55.9313
 30
0.0
 10
36.3141
 20
-58.3078
 30
0.0
 10
32.9825
 20
-58.3103
 30
0.0
 10
32.9825
 20
-58.3103
 30
0.0
 10
29.1696
 20
-58.737
 30
0.0
 10
25.3393
 20
-56.3431
 30
0.0
 10
23.8559
 20
-52.8551
 30
0.0
 10
23.8559
 20
-52.8551
 30
0.0
 10
23.0595
 20
-51.2849
 30
0.0
 10
23.1513
 20
-49.4764
 30
0.0
 10
22.995
 20
-47.7747
 30
0.0
 10
22.995
 20
-47.7747
 30
0.0
 10
18.4751
 20
-48.1492
 30
0.0
 10
13.6402
 20
-45.3063
 30
0.0
 10
12.6479
 20
-40.7244
 30
0.0
 10
12.6479
 20
-40.7244
 30
0.0
 10
11.3902
 20
-36.3831
 30
0.0
 10
13.8536
 20
-31.3994
 30
0.0
 10
18.0559
 20
-29.7695
 30
0.0
 10
18.0559
 20
-29.7695
 30
0.0
 10
19.5865
 20
-29.065
 30
0.0
 10
21.3131
 20
-29.1419
 30
0.0
 10
22.9528
 20
-28.9856
 30
0.0
 10
22.9528
 20
-28.9856
 30
0.0
 10
22.9404
 20
-26.7827
 30
0.0
 10
23.2357
 20
-24.4458
 30
0.0
 10
24.5356
 20
-22.5952
 30
0.0
  0
SPLINE
  5
76
330
1F
100
AcDbEntity
  8
layer 1
 62
     7
370
     9
100
AcDbSpline
210
0.0
220
0.0
230
1.0
 70
    11
 71
     3
 72
    68
 73
    64
 74
     0
 42
0.0000000001
 43
0.0000000001
 12
1.0
 22
0.0
 32
0.0
 13
1.0
 23
0.0
 33
0.0
 40
0.0
 40
0.0
 40
0.0
 40
0.0
 40
0.0588235294117647
 40
0.0588235294117647
 40
0.0588235294117647
 40
0.0588235294117647
 40
0.1176470588235294
 40
0.1176470588235294
 40
0.1176470588235294
 40
0.1176470588235294
 40
0.1764705882352941
 40
0.1764705882352941
 40
0.1764705882352941
 40
0.1764705882352941
 40
0.2352941176470588
 40
0.2352941176470588
 40
0.2352941176470588
 40
0.2352941176470588
 40
0.2941176470588235
 40
0.2941176470588235
 40
0.2941176470588235
 40
0.2941176470588235
 40
0.3529411764705883
 40
0.3529411764705883
 40
0.3529411764705883
 40
0.3529411764705883
 40
0.4117647058823529
 40
0.4117647058823529
 40
0.4117647058823529
 40
0.4117647058823529
 40
0.4705882352941176
 40
0.4705882352941176
 40
0.4705882352941176
 40
0.4705882352941176
 40
0.5294117647058824
 40
0.5294117647058824
 40
0.5294117647058824
 40
0.5294117647058824
 40
0.5882352941176471
 40
0.5882352941176471
 40
0.5882352941176471
 40
0.5882352941176471
 40
0.6470588235294118
 40
0.6470588235294118
 40
0.6470588235294118
 40
0.6470588235294118
 40
0.7058823529411765
 40
0.7058823529411765
 40
0.7058823529411765
 40
0.7058823529411765
 40
0.7647058823529411
 40
0.7647058823529411
 40
0.7647058823529411
 40
0.7647058823529411
 40
0.8235294117647058
 40
0.8235294117647058
 40
0.8235294117647058
 40
0.8235294117647058
 40
0.8823529411764706
 40
0.8823529411764706
 40
0.8823529411764706
 40
0.8823529411764706
 40
1.0
 40
1.0
 40
1.0
 40
1.0
 10
160.2512
 20
-22.8557
 30
0.0
 10
162.4467
 20
-19.0602
 30
0.0
 10
167.6587
 20
-17.2369
 30
0.0
 10
171.6899
 20
-19.0751
 30
0.0
 10
171.6899
 20
-19.0751
 30
0.0
 10
173.9051
 20
-19.9904
 30
0.0
 10
175.7905
 20
-21.7295
 30
0.0
 10
176.7754
 20
-23.9299
 30
0.0
 10
176.7754
 20
-23.9299
 30
0.0
 10
177.3062
 20
-25.5399
 30
0.0
 10
177.3062
 20
-27.2541
 30
0.0
 10
177.4526
 20
-28.9285
 30
0.0
 10
177.4526
 20
-28.9285
 30
0.0
 10
179.8143
 20
-29.0799
 30
0.0
 10
182.3892
 20
-29.2287
 30
0.0
 10
184.2945
 20
-30.8213
 30
0.0
 10
184.2945
 20
-30.8213
 30
0.0
 10
188.3653
 20
-33.4807
 30
0.0
 10
189.3378
 20
-39.5957
 30
0.0
 10
186.6437
 20
-43.54
 30
0.0
 10
186.6437
 20
-43.54
 30
0.0
 10
185.5299
 20
-45.083
 30
0.0
 10
184.024
 20
-46.3705
 30
0.0
 10
182.2454
 20
-47.0751
 30
0.0
 10
182.2454
 20
-47.0751
 30
0.0
 10
180.695
 20
-47.5464
 30
0.0
 10
179.0626
 20
-47.6134
 30
0.0
 10
177.4675
 20
-47.7796
 30
0.0
 10
177.4675
 20
-47.7796
 30
0.0
 10
177.2442
 20
-49.5409
 30
0.0
 10
177.5196
 20
-51.4957
 30
0.0
 10
176.5992
 20
-53.1032
 30
0.0
 10
176.5992
 20
-53.1032
 30
0.0
 10
175.1009
 20
-55.9412
 30
0.0
 10
172.2704
 20
-58.3053
 30
0.0
 10
168.9338
 20
-58.3252
 30
0.0
 10
168.9338
 20
-58.3252
 30
0.0
 10
164.786
 20
-58.7568
 30
0.0
 10
160.6482
 20
-55.966
 30
0.0
 10
159.3359
 20
-52.0489
 30
0.0
 10
159.3359
 20
-52.0489
 30
0.0
 10
158.9489
 20
-50.6647
 30
0.0
 10
158.8521
 20
-49.2234
 30
0.0
 10
158.6834
 20
-47.8069
 30
0.0
 10
158.6834
 20
-47.8069
 30
0.0
 10
156.6963
 20
-47.5439
 30
0.0
 10
154.5505
 20
-47.534
 30
0.0
 10
152.8115
 20
-46.4202
 30
0.0
 10
152.8115
 20
-46.4202
 30
0.0
 10
149.1996
 20
-44.3413
 30
0.0
 10
147.1381
 20
-39.5535
 30
0.0
 10
148.6266
 20
-35.5695
 30
0.0
 10
148.6266
 20
-35.5695
 30
0.0
 10
149.4799
 20
-33.3988
 30
0.0
 10
150.8617
 20
-31.2852
 30
0.0
 10
153.0026
 20
-30.2111
 30
0.0
 10
153.0026
 20
-30.2111
 30
0.0
 10
154.6671
 20
-29.1692
 30
0.0
 10
156.7335
 20
-29.2039
 30
0.0
 10
158.614
 20
-28.874
 30
0.0
 10
158.614
 20
-28.874
 30
0.0
 10
158.8571
 20
-26.8125
 30
0.0
 10
158.9736
 20
-24.5897
 30
0.0
 10
160.2512
 20
-22.8557
 30
0.0
  0
SPLINE
  5
77
330
1F
100
AcDbEntity
  8
layer 1
 62
     7
370
     9
100
AcDbSpline
210
0.0
220
0.0
230
1.0
 70
    11
 71
     3
 72
    72
 73
    68
 74
     0
 42
0.0000000001
 43
0.0000000001
 12
1.0
 22
0.0
 32
0.0
 13
1.0
 23
0.0
 33
0.0
 40
0.0
 40
0.0
 40
0.0
 40
0.0
 40
0.0555555555555556
 40
0.0555555555555556
 40
0.0555555555555556
 40
0.0555555555555556
 40
0.1111111111111111
 40
0.1111111111111111
 40
0.1111111111111111
 40
0.1111111111111111
 40
0.1666666666666667
 40
0.1666666666666667
 40
0.1666666666666667
 40
0.1666666666666667
 40
0.2222222222222222
 40
0.2222222222222222
 40
0.2222222222222222
 40
0.2222222222222222
 40
0.2777777777777778
 40
0.2777777777777778
 40
0.2777777777777778
 40
0.2777777777777778
 40
0.3333333333333333
 40
0.3333333333333333
 40
0.3333333333333333
 40
0.3333333333333333
 40
0.3888888888888889
 40
0.3888888888888889
 40
0.3888888888888889
 40
0.3888888888888889
 40
0.4444444444444444
 40
0.4444444444444444
 40
0.4444444444444444
 40
0.4444444444444444
 40
0.5
 40
0.5
 40
0.5
 40
0.5
 40
0.5555555555555556
 40
0.5555555555555556
 40
0.5555555555555556
 40
0.5555555555555556
 40
0.6111111111111112
 40
0.6111111111111112
 40
0.6111111111111112
 40
0.6111111111111112
 40
0.6666666666666666
 40
0.6666666666666666
 40
0.6666666666666666
 40
0.6666666666666666
 40
0.7222222222222222
 40
0.7222222222222222
 40
0.7222222222222222
 40
0.7222222222222222
 40
0.7777777777777778
 40
0.7777777777777778
 40
0.7777777777777778
 40
0.7777777777777778
 40
0.8333333333333334
 40
0.8333333333333334
 40
0.8333333333333334
 40
0.8333333333333334
 40
0.8888888888888888
 40
0.8888888888888888
 40
0.8888888888888888
 40
0.8888888888888888
 40
1.0
 40
1.0
 40
1.0
 40
1.0
 10
96.4419
 20
-47.1123
 30
0.0
 10
98.3769
 20
-45.4824
 30
0.0
 10
99.1658
 20
-43.0042
 30
0.0
 10
100.2647
 20
-40.8062
 30
0.0
 10
100.2647
 20
-40.8062
 30
0.0
 10
101.453
 20
-43.3763
 30
0.0
 10
102.5569
 20
-46.1771
 30
0.0
 10
104.9732
 20
-47.8714
 30
0.0
 10
104.9732
 20
-47.8714
 30
0.0
 10
106.7196
 20
-49.206
 30
0.0
 10
108.8778
 20
-49.7592
 30
0.0
 10
110.9666
 20
-50.305
 30
0.0
 10
110.9666
 20
-50.305
 30
0.0
 10
111.552
 20
-53.649
 30
0.0
 10
113.2911
 20
-56.8466
 30
0.0
 10
116.1339
 20
-58.7866
 30
0.0
 10
116.1339
 20
-58.7866
 30
0.0
 10
117.4587
 20
-59.7243
 30
0.0
 10
119.0166
 20
-60.2105
 30
0.0
 10
120.4306
 20
-60.982
 30
0.0
 10
120.4306
 20
-60.982
 30
0.0
 10
119.0836
 20
-61.9197
 30
0.0
 10
117.4413
 20
-62.339
 30
0.0
 10
116.0967
 20
-63.2916
 30
0.0
 10
116.0967
 20
-63.2916
 30
0.0
 10
113.1571
 20
-65.1347
 30
0.0
 10
111.7108
 20
-68.4863
 30
0.0
 10
110.9046
 20
-71.7211
 30
0.0
 10
110.9046
 20
-71.7211
 30
0.0
 10
108.471
 20
-72.3041
 30
0.0
 10
106.0275
 20
-73.1971
 30
0.0
 10
104.1644
 20
-74.9262
 30
0.0
 10
104.1644
 20
-74.9262
 30
0.0
 10
102.2567
 20
-76.4866
 30
0.0
 10
101.2992
 20
-78.821
 30
0.0
 10
100.6021
 20
-81.1156
 30
0.0
 10
100.6021
 20
-81.1156
 30
0.0
 10
100.4632
 20
-81.1181
 30
0.0
 10
100.1854
 20
-81.1231
 30
0.0
 10
100.0464
 20
-81.1255
 30
0.0
 10
100.0464
 20
-81.1255
 30
0.0
 10
99.1881
 20
-78.5927
 30
0.0
 10
97.9899
 20
-76.0475
 30
0.0
 10
95.7598
 20
-74.4425
 30
0.0
 10
95.7598
 20
-74.4425
 30
0.0
 10
94.0332
 20
-72.9019
 30
0.0
 10
91.7335
 20
-72.319
 30
0.0
 10
89.5554
 20
-71.731
 30
0.0
 10
89.5554
 20
-71.731
 30
0.0
 10
88.9998
 20
-68.5582
 30
0.0
 10
87.4096
 20
-65.5242
 30
0.0
 10
84.8371
 20
-63.5372
 30
0.0
 10
84.8371
 20
-63.5372
 30
0.0
 10
83.4206
 20
-62.339
 30
0.0
 10
81.6196
 20
-61.7957
 30
0.0
 10
79.9253
 20
-61.1333
 30
0.0
 10
79.9253
 20
-61.1333
 30
0.0
 10
82.086
 20
-59.8161
 30
0.0
 10
84.7181
 20
-59.1835
 30
0.0
 10
86.3652
 20
-57.1319
 30
0.0
 10
86.3652
 20
-57.1319
 30
0.0
 10
88.1762
 20
-55.3037
 30
0.0
 10
88.9254
 20
-52.7981
 30
0.0
 10
89.4984
 20
-50.362
 30
0.0
 10
89.4984
 20
-50.362
 30
0.0
 10
91.937
 20
-49.6203
 30
0.0
 10
94.5715
 20
-48.9703
 30
0.0
 10
96.4419
 20
-47.1123
 30
0.0
  0
SPLINE
  5
78
330
1F
100
AcDbEntity
  8
layer 1
 62
     7
370
     9
100
AcDbSpline
210
0.0
220
0.0
230
1.0
 70
    11
 71
     3
 72
    44
 73
    40
 74
     0
 42
0.0000000001
 43
0.0000000001
 12
1.0
 22
0.0
 32
0.0
 13
1.0
 23
0.0
 33
0.0
 40
0.0
 40
0.0
 40
0.0
 40
0.0
 40
0.0909090909090909
 40
0.0909090909090909
 40
0.0909090909090909
 40
0.0909090909090909
 40
0.1818181818181818
 40
0.1818181818181818
 40
0.1818181818181818
 40
0.1818181818181818
 40
0.2727272727272727
 40
0.2727272727272727
 40
0.2727272727272727
 40
0.2727272727272727
 40
0.3636363636363636
 40
0.3636363636363636
 40
0.3636363636363636
 40
0.3636363636363636
 40
0.4545454545454545
 40
0.4545454545454545
 40
0.4545454545454545
 40
0.4545454545454545
 40
0.5454545454545454
 40
0.5454545454545454
 40
0.5454545454545454
 40
0.5454545454545454
 40
0.6363636363636364
 40
0.6363636363636364
 40
0.6363636363636364
 40
0.6363636363636364
 40
0.7272727272727273
 40
0.7272727272727273
 40
0.7272727272727273
 40
0.7272727272727273
 40
0.8181818181818182
 40
0.8181818181818182
 40
0.8181818181818182
 40
0.8181818181818182
 40
1.0
 40
1.0
 40
1.0
 40
1.0
 10
186.8273
 20
-47.1942
 30
0.0
 10
188.2934
 20
-45.9389
 30
0.0
 10
189.0599
 20
-44.118
 30
0.0
 10
190.3474
 20
-42.709
 30
0.0
 10
190.3474
 20
-42.709
 30
0.0
 10
190.6923
 20
-49.8113
 30
0.0
 10
190.4392
 20
-56.926
 30
0.0
 10
190.5112
 20
-64.0358
 30
0.0
 10
190.5112
 20
-64.0358
 30
0.0
 10
190.4343
 20
-69.0916
 30
0.0
 10
190.7295
 20
-74.1621
 30
0.0
 10
190.33
 20
-79.2105
 30
0.0
 10
190.33
 20
-79.2105
 30
0.0
 10
188.6258
 20
-77.268
 30
0.0
 10
187.4152
 20
-74.7228
 30
0.0
 10
185.0411
 20
-73.4849
 30
0.0
 10
185.0411
 20
-73.4849
 30
0.0
 10
183.5304
 20
-72.5645
 30
0.0
 10
181.7765
 20
-72.2272
 30
0.0
 10
180.102
 20
-71.7459
 30
0.0
 10
180.102
 20
-71.7459
 30
0.0
 10
179.5712
 20
-69.357
 30
0.0
 10
178.8145
 20
-66.8837
 30
0.0
 10
177.0482
 20
-65.0951
 30
0.0
 10
177.0482
 20
-65.0951
 30
0.0
 10
175.3911
 20
-63.0386
 30
0.0
 10
172.893
 20
-61.9917
 30
0.0
 10
170.4719
 20
-61.1359
 30
0.0
 10
170.4719
 20
-61.1359
 30
0.0
 10
172.4812
 20
-59.893
 30
0.0
 10
174.9024
 20
-59.3051
 30
0.0
 10
176.5571
 20
-57.5263
 30
0.0
 10
176.5571
 20
-57.5263
 30
0.0
 10
178.5888
 20
-55.6385
 30
0.0
 10
179.4992
 20
-52.9444
 30
0.0
 10
180.04
 20
-50.2951
 30
0.0
 10
180.04
 20
-50.2951
 30
0.0
 10
182.5157
 20
-49.8634
 30
0.0
 10
184.989
 20
-48.9753
 30
0.0
 10
186.8273
 20
-47.1942
 30
0.0
  0
SPLINE
  5
79
330
1F
100
AcDbEntity
  8
layer 1
 62
     7
370
     9
100
AcDbSpline
210
0.0
220
0.0
230
1.0
 70
    11
 71
     3
 72
    60
 73
    56
 74
     0
 42
0.0000000001
 43
0.0000000001
 12
1.0
 22
0.0
 32
0.0
 13
1.0
 23
0.0
 33
0.0
 40
0.0
 40
0.0
 40
0.0
 40
0.0
 40
0.0666666666666667
 40
0.0666666666666667
 40
0.0666666666666667
 40
0.0666666666666667
 40
0.1333333333333333
 40
0.1333333333333333
 40
0.1333333333333333
 40
0.1333333333333333
 40
0.2
 40
0.2
 40
0.2
 40
0.2
 40
0.2666666666666667
 40
0.2666666666666667
 40
0.2666666666666667
 40
0.2666666666666667
 40
0.3333333333333333
 40
0.3333333333333333
 40
0.3333333333333333
 40
0.3333333333333333
 40
0.4
 40
0.4
 40
0.4
 40
0.4
 40
0.4666666666666667
 40
0.4666666666666667
 40
0.4666666666666667
 40
0.4666666666666667
 40
0.5333333333333333
 40
0.5333333333333333
 40
0.5333333333333333
 40
0.5333333333333333
 40
0.6
 40
0.6
 40
0.6
 40
0.6
 40
0.6666666666666666
 40
0.6666666666666666
 40
0.6666666666666666
 40
0.6666666666666666
 40
0.7333333333333333
 40
0.7333333333333333
 40
0.7333333333333333
 40
0.7333333333333333
 40
0.8
 40
0.8
 40
0.8
 40
0.8
 40
0.8666666666666667
 40
0.8666666666666667
 40
0.8666666666666667
 40
0.8666666666666667
 40
1.0
 40
1.0
 40
1.0
 40
1.0
 10
121.9637
 20
-63.6885
 30
0.0
 10
125.9552
 20
-63.113
 30
0.0
 10
130.0111
 20
-65.7822
 30
0.0
 10
131.5616
 20
-69.4115
 30
0.0
 10
131.5616
 20
-69.4115
 30
0.0
 10
132.0553
 20
-70.9024
 30
0.0
 10
132.1694
 20
-72.4877
 30
0.0
 10
132.4026
 20
-74.0381
 30
0.0
 10
132.4026
 20
-74.0381
 30
0.0
 10
134.469
 20
-74.2762
 30
0.0
 10
136.6024
 20
-74.5987
 30
0.0
 10
138.401
 20
-75.7275
 30
0.0
 10
138.401
 20
-75.7275
 30
0.0
 10
142.5413
 20
-77.9675
 30
0.0
 10
144.1935
 20
-83.7651
 30
0.0
 10
141.9062
 20
-87.8657
 30
0.0
 10
141.9062
 20
-87.8657
 30
0.0
 10
141.0256
 20
-89.7659
 30
0.0
 10
139.3089
 20
-91.16
 30
0.0
 10
137.503
 20
-92.14
 30
0.0
 10
137.503
 20
-92.14
 30
0.0
 10
135.8483
 20
-92.7725
 30
0.0
 10
134.0771
 20
-92.9685
 30
0.0
 10
132.3282
 20
-93.1373
 30
0.0
 10
132.3282
 20
-93.1373
 30
0.0
 10
132.7127
 20
-97.5331
 30
0.0
 10
129.8524
 20
-102.0877
 30
0.0
 10
125.5508
 20
-103.2685
 30
0.0
 10
125.5508
 20
-103.2685
 30
0.0
 10
123.5687
 20
-103.4843
 30
0.0
 10
121.4278
 20
-103.8218
 30
0.0
 10
119.5251
 20
-103.0403
 30
0.0
 10
119.5251
 20
-103.0403
 30
0.0
 10
115.6254
 20
-101.4849
 30
0.0
 10
113.1769
 20
-97.3346
 30
0.0
 10
113.5341
 20
-93.1745
 30
0.0
 10
113.5341
 20
-93.1745
 30
0.0
 10
111.1279
 20
-93.0107
 30
0.0
 10
108.5702
 20
-92.7205
 30
0.0
 10
106.6626
 20
-91.0732
 30
0.0
 10
106.6626
 20
-91.0732
 30
0.0
 10
102.9613
 20
-88.5082
 30
0.0
 10
101.778
 20
-82.9886
 30
0.0
 10
104.1495
 20
-79.1484
 30
0.0
 10
104.1495
 20
-79.1484
 30
0.0
 10
105.8042
 20
-75.6605
 30
0.0
 10
109.8379
 20
-74.2241
 30
0.0
 10
113.4672
 20
-74.1225
 30
0.0
 10
113.4672
 20
-74.1225
 30
0.0
 10
113.7277
 20
-72.1379
 30
0.0
 10
113.7376
 20
-69.9945
 30
0.0
 10
114.8515
 20
-68.2555
 30
0.0
 10
114.8515
 20
-68.2555
 30
0.0
 10
116.382
 20
-65.7872
 30
0.0
 10
119.0687
 20
-64.0284
 30
0.0
 10
121.9637
 20
-63.6885
 30
0.0
  0
SPLINE
  5
7A
330
1F
100
AcDbEntity
  8
layer 1
 62
     7
370
     9
100
AcDbSpline
210
0.0
220
0.0
230
1.0
 70
    11
 71
     3
 72
    44
 73
    40
 74
     0
 42
0.0000000001
 43
0.0000000001
 12
1.0
 22
0.0
 32
0.0
 13
1.0
 23
0.0
 33
0.0
 40
0.0
 40
0.0
 40
0.0
 40
0.0
 40
0.0909090909090909
 40
0.0909090909090909
 40
0.0909090909090909
 40
0.0909090909090909
 40
0.1818181818181818
 40
0.1818181818181818
 40
0.1818181818181818
 40
0.1818181818181818
 40
0.2727272727272727
 40
0.2727272727272727
 40
0.2727272727272727
 40
0.2727272727272727
 40
0.3636363636363636
 40
0.3636363636363636
 40
0.3636363636363636
 40
0.3636363636363636
 40
0.4545454545454545
 40
0.4545454545454545
 40
0.4545454545454545
 40
0.4545454545454545
 40
0.5454545454545454
 40
0.5454545454545454
 40
0.5454545454545454
 40
0.5454545454545454
 40
0.6363636363636364
 40
0.6363636363636364
 40
0.6363636363636364
 40
0.6363636363636364
 40
0.7272727272727273
 40
0.7272727272727273
 40
0.7272727272727273
 40
0.7272727272727273
 40
0.8181818181818182
 40
0.8181818181818182
 40
0.8181818181818182
 40
0.8181818181818182
 40
1.0
 40
1.0
 40
1.0
 40
1.0
 10
9.5966
 20
-85.9208
 30
0.0
 10
10.8395
 20
-87.9277
 30
0.0
 10
11.4199
 20
-90.3564
 30
0.0
 10
13.1937
 20
-92.0135
 30
0.0
 10
13.1937
 20
-92.0135
 30
0.0
 10
15.0468
 20
-94.0799
 30
0.0
 10
17.8029
 20
-94.8986
 30
0.0
 10
20.4225
 20
-95.4889
 30
0.0
 10
20.4225
 20
-95.4889
 30
0.0
 10
20.9931
 20
-98.0417
 30
0.0
 10
21.8415
 20
-100.6539
 30
0.0
 10
23.7467
 20
-102.5466
 30
0.0
 10
23.7467
 20
-102.5466
 30
0.0
 10
24.9325
 20
-103.9334
 30
0.0
 10
26.736
 20
-104.5262
 30
0.0
 10
28.0334
 20
-105.7839
 30
0.0
 10
28.0334
 20
-105.7839
 30
0.0
 10
20.9236
 20
-106.1487
 30
0.0
 10
13.8039
 20
-105.8807
 30
0.0
 10
6.6917
 20
-105.9576
 30
0.0
 10
6.6917
 20
-105.9576
 30
0.0
 10
1.6335
 20
-105.8807
 30
0.0
 10
-3.4346
 20
-106.1759
 30
0.0
 10
-8.483
 20
-105.7766
 30
0.0
 10
-8.483
 20
-105.7766
 30
0.0
 10
-7.1905
 20
-104.6205
 30
0.0
 10
-5.6499
 20
-103.7696
 30
0.0
 10
-4.3996
 20
-102.559
 30
0.0
 10
-4.3996
 20
-102.559
 30
0.0
 10
-2.4151
 20
-100.7679
 30
0.0
 10
-1.5394
 20
-98.0913
 30
0.0
 10
-1.0035
 20
-95.5485
 30
0.0
 10
-1.0035
 20
-95.5485
 30
0.0
 10
1.4573
 20
-95.0424
 30
0.0
 10
3.9058
 20
-94.1394
 30
0.0
 10
5.7787
 20
-92.4004
 30
0.0
 10
5.7787
 20
-92.4004
 30
0.0
 10
7.7212
 20
-90.721
 30
0.0
 10
8.7482
 20
-88.2849
 30
0.0
 10
9.5966
 20
-85.9208
 30
0.0
  0
SPLINE
  5
7B
330
1F
100
AcDbEntity
  8
layer 1
 62
     7
370
     9
100
AcDbSpline
210
0.0
220
0.0
230
1.0
 70
    11
 71
     3
 72
    44
 73
    40
 74
     0
 42
0.0000000001
 43
0.0000000001
 12
1.0
 22
0.0
 32
0.0
 13
1.0
 23
0.0
 33
0.0
 40
0.0
 40
0.0
 40
0.0
 40
0.0
 40
0.0909090909090909
 40
0.0909090909090909
 40
0.0909090909090909
 40
0.0909090909090909
 40
0.1818181818181818
 40
0.1818181818181818
 40
0.1818181818181818
 40
0.1818181818181818
 40
0.2727272727272727
 40
0.2727272727272727
 40
0.2727272727272727
 40
0.2727272727272727
 40
0.3636363636363636
 40
0.3636363636363636
 40
0.3636363636363636
 40
0.3636363636363636
 40
0.4545454545454545
 40
0.4545454545454545
 40
0.4545454545454545
 40
0.4545454545454545
 40
0.5454545454545454
 40
0.5454545454545454
 40
0.5454545454545454
 40
0.5454545454545454
 40
0.6363636363636364
 40
0.6363636363636364
 40
0.6363636363636364
 40
0.6363636363636364
 40
0.7272727272727273
 40
0.7272727272727273
 40
0.7272727272727273
 40
0.7272727272727273
 40
0.8181818181818182
 40
0.8181818181818182
 40
0.8181818181818182
 40
0.8181818181818182
 40
1.0
 40
1.0
 40
1.0
 40
1.0
 10
51.5383
 20
-92.011
 30
0.0
 10
53.2624
 20
-90.3861
 30
0.0
 10
53.9595
 20
-88.079
 30
0.0
 10
54.927
 20
-85.9927
 30
0.0
 10
54.927
 20
-85.9927
 30
0.0
 10
56.0656
 20
-88.2428
 30
0.0
 10
56.9686
 20
-90.7259
 30
0.0
 10
58.8664
 20
-92.4799
 30
0.0
 10
58.8664
 20
-92.4799
 30
0.0
 10
60.8063
 20
-94.1221
 30
0.0
 10
63.2374
 20
-95.0499
 30
0.0
 10
65.7057
 20
-95.5336
 30
0.0
 10
65.7057
 20
-95.5336
 30
0.0
 10
66.2068
 20
-98.1805
 30
0.0
 10
67.3107
 20
-100.7728
 30
0.0
 10
69.2433
 20
-102.6955
 30
0.0
 10
69.2433
 20
-102.6955
 30
0.0
 10
70.377
 20
-103.9557
 30
0.0
 10
72.1209
 20
-104.4717
 30
0.0
 10
73.2
 20
-105.7914
 30
0.0
 10
73.2
 20
-105.7914
 30
0.0
 10
68.1567
 20
-106.1635
 30
0.0
 10
63.0935
 20
-105.8857
 30
0.0
 10
58.0428
 20
-105.9576
 30
0.0
 10
58.0428
 20
-105.9576
 30
0.0
 10
50.933
 20
-105.8857
 30
0.0
 10
43.8183
 20
-106.1387
 30
0.0
 10
36.716
 20
-105.794
 30
0.0
 10
36.716
 20
-105.794
 30
0.0
 10
37.991
 20
-104.6131
 30
0.0
 10
39.6283
 20
-103.9011
 30
0.0
 10
40.8439
 20
-102.6483
 30
0.0
 10
40.8439
 20
-102.6483
 30
0.0
 10
42.821
 20
-100.7828
 30
0.0
 10
43.7339
 20
-98.1185
 30
0.0
 10
44.3095
 20
-95.5312
 30
0.0
 10
44.3095
 20
-95.5312
 30
0.0
 10
46.9315
 20
-94.9258
 30
0.0
 10
49.6777
 20
-94.07
 30
0.0
 10
51.5383
 20
-92.011
 30
0.0
  0
SPLINE
  5
7C
330
1F
100
AcDbEntity
  8
layer 1
 62
     7
370
     9
100
AcDbSpline
210
0.0
220
0.0
230
1.0
 70
    11
 71
     3
 72
    44
 73
    40
 74
     0
 42
0.0000000001
 43
0.0000000001
 12
1.0
 22
0.0
 32
0.0
 13
1.0
 23
0.0
 33
0.0
 40
0.0
 40
0.0
 40
0.0
 40
0.0
 40
0.0909090909090909
 40
0.0909090909090909
 40
0.0909090909090909
 40
0.0909090909090909
 40
0.1818181818181818
 40
0.1818181818181818
 40
0.1818181818181818
 40
0.1818181818181818
 40
0.2727272727272727
 40
0.2727272727272727
 40
0.2727272727272727
 40
0.2727272727272727
 40
0.3636363636363636
 40
0.3636363636363636
 40
0.3636363636363636
 40
0.3636363636363636
 40
0.4545454545454545
 40
0.4545454545454545
 40
0.4545454545454545
 40
0.4545454545454545
 40
0.5454545454545454
 40
0.5454545454545454
 40
0.5454545454545454
 40
0.5454545454545454
 40
0.6363636363636364
 40
0.6363636363636364
 40
0.6363636363636364
 40
0.6363636363636364
 40
0.7272727272727273
 40
0.7272727272727273
 40
0.7272727272727273
 40
0.7272727272727273
 40
0.8181818181818182
 40
0.8181818181818182
 40
0.8181818181818182
 40
0.8181818181818182
 40
1.0
 40
1.0
 40
1.0
 40
1.0
 10
142.0873
 20
-92.0135
 30
0.0
 10
143.8611
 20
-90.3564
 30
0.0
 10
144.4416
 20
-87.9277
 30
0.0
 10
145.6844
 20
-85.9208
 30
0.0
 10
145.6844
 20
-85.9208
 30
0.0
 10
146.5948
 20
-88.2676
 30
0.0
 10
147.473
 20
-90.7558
 30
0.0
 10
149.4253
 20
-92.4675
 30
0.0
 10
149.4253
 20
-92.4675
 30
0.0
 10
151.3975
 20
-94.0477
 30
0.0
 10
153.7691
 20
-95.0871
 30
0.0
 10
156.2523
 20
-95.5361
 30
0.0
 10
156.2523
 20
-95.5361
 30
0.0
 10
156.7534
 20
-98.1805
 30
0.0
 10
157.8573
 20
-100.7728
 30
0.0
 10
159.7898
 20
-102.6955
 30
0.0
 10
159.7898
 20
-102.6955
 30
0.0
 10
160.9235
 20
-103.9557
 30
0.0
 10
162.6675
 20
-104.4717
 30
0.0
 10
163.7466
 20
-105.7914
 30
0.0
 10
163.7466
 20
-105.7914
 30
0.0
 10
158.7033
 20
-106.1635
 30
0.0
 10
153.6401
 20
-105.8857
 30
0.0
 10
148.5894
 20
-105.9576
 30
0.0
 10
148.5894
 20
-105.9576
 30
0.0
 10
141.4795
 20
-105.8857
 30
0.0
 10
134.3649
 20
-106.1387
 30
0.0
 10
127.2625
 20
-105.794
 30
0.0
 10
127.2625
 20
-105.794
 30
0.0
 10
128.5376
 20
-104.6131
 30
0.0
 10
130.1749
 20
-103.9011
 30
0.0
 10
131.3905
 20
-102.6483
 30
0.0
 10
131.3905
 20
-102.6483
 30
0.0
 10
133.3676
 20
-100.7828
 30
0.0
 10
134.278
 20
-98.1185
 30
0.0
 10
134.856
 20
-95.5312
 30
0.0
 10
134.856
 20
-95.5312
 30
0.0
 10
137.4781
 20
-94.9283
 30
0.0
 10
140.2219
 20
-94.0676
 30
0.0
 10
142.0873
 20
-92.0135
 30
0.0
  0
SPLINE
  5
7D
330
1F
100
AcDbEntity
  8
layer 1
 62
     7
370
     9
100
AcDbSpline
210
0.0
220
0.0
230
1.0
 70
    11
 71
     3
 72
    32
 73
    28
 74
     0
 42
0.0000000001
 43
0.0000000001
 12
1.0
 22
0.0
 32
0.0
 13
1.0
 23
0.0
 33
0.0
 40
0.0
 40
0.0
 40
0.0
 40
0.0
 40
0.125
 40
0.125
 40
0.125
 40
0.125
 40
0.25
 40
0.25
 40
0.25
 40
0.25
 40
0.375
 40
0.375
 40
0.375
 40
0.375
 40
0.5
 40
0.5
 40
0.5
 40
0.5
 40
0.625
 40
0.625
 40
0.625
 40
0.625
 40
0.75
 40
0.75
 40
0.75
 40
0.75
 40
1.0
 40
1.0
 40
1.0
 40
1.0
 10
-35.0589
 20
-88.0492
 30
0.0
 10
-33.8459
 20
-89.3095
 30
0.0
 10
-33.1067
 20
-90.9393
 30
0.0
 10
-31.8986
 20
-92.2094
 30
0.0
 10
-31.8986
 20
-92.2094
 30
0.0
 10
-30.0081
 20
-94.1493
 30
0.0
 10
-27.4332
 20
-95.0697
 30
0.0
 10
-24.8235
 20
-95.5287
 30
0.0
 10
-24.8235
 20
-95.5287
 30
0.0
 10
-24.4489
 20
-98.8802
 30
0.0
 10
-22.6231
 20
-102.0232
 30
0.0
 10
-19.7976
 20
-103.8912
 30
0.0
 10
-19.7976
 20
-103.8912
 30
0.0
 10
-18.9492
 20
-104.4717
 30
0.0
 10
-18.0015
 20
-104.9753
 30
0.0
 10
-17.3466
 20
-105.7963
 30
0.0
 10
-17.3466
 20
-105.7963
 30
0.0
 10
-23.1861
 20
-106.1015
 30
0.0
 10
-29.0481
 20
-106.0247
 30
0.0
 10
-34.8902
 20
-105.8857
 30
0.0
 10
-34.8902
 20
-105.8857
 30
0.0
 10
-34.9572
 20
-105.8187
 30
0.0
 10
-35.0912
 20
-105.6847
 30
0.0
 10
-35.1557
 20
-105.6177
 30
0.0
 10
-35.1557
 20
-105.6177
 30
0.0
 10
-35.2947
 20
-99.7658
 30
0.0
 10
-35.384
 20
-93.8939
 30
0.0
 10
-35.0589
 20
-88.0492
 30
0.0
  0
SPLINE
  5
7E
330
1F
100
AcDbEntity
  8
layer 1
 62
     7
370
     9
100
AcDbSpline
210
0.0
220
0.0
230
1.0
 70
    11
 71
     3
 72
    32
 73
    28
 74
     0
 42
0.0000000001
 43
0.0000000001
 12
1.0
 22
0.0
 32
0.0
 13
1.0
 23
0.0
 33
0.0
 40
0.0
 40
0.0
 40
0.0
 40
0.0
 40
0.125
 40
0.125
 40
0.125
 40
0.125
 40
0.25
 40
0.25
 40
0.25
 40
0.25
 40
0.375
 40
0.375
 40
0.375
 40
0.375
 40
0.5
 40
0.5
 40
0.5
 40
0.5
 40
0.625
 40
0.625
 40
0.625
 40
0.625
 40
0.75
 40
0.75
 40
0.75
 40
0.75
 40
1.0
 40
1.0
 40
1.0
 40
1.0
 10
187.6658
 20
-91.7109
 30
0.0
 10
188.6358
 20
-90.5548
 30
0.0
 10
189.1492
 20
-89.0366
 30
0.0
 10
190.3449
 20
-88.0691
 30
0.0
 10
190.3449
 20
-88.0691
 30
0.0
 10
190.6575
 20
-93.9087
 30
0.0
 10
190.5781
 20
-99.7732
 30
0.0
 10
190.4392
 20
-105.6177
 30
0.0
 10
190.4392
 20
-105.6177
 30
0.0
 10
190.3722
 20
-105.6847
 30
0.0
 10
190.2383
 20
-105.8187
 30
0.0
 10
190.1713
 20
-105.8832
 30
0.0
 10
190.1713
 20
-105.8832
 30
0.0
 10
184.3218
 20
-106.0196
 30
0.0
 10
178.4523
 20
-106.1164
 30
0.0
 10
172.6102
 20
-105.779
 30
0.0
 10
172.6102
 20
-105.779
 30
0.0
 10
174.3939
 20
-104.2236
 30
0.0
 10
176.6017
 20
-103.0874
 30
0.0
 10
177.9835
 20
-101.1103
 30
0.0
 10
177.9835
 20
-101.1103
 30
0.0
 10
179.1469
 20
-99.473
 30
0.0
 10
179.6183
 20
-97.4933
 30
0.0
 10
180.0996
 20
-95.5782
 30
0.0
 10
180.0996
 20
-95.5782
 30
0.0
 10
182.9028
 20
-94.9928
 30
0.0
 10
185.7258
 20
-93.9112
 30
0.0
 10
187.6658
 20
-91.7109
 30
0.0
  0
ENDSEC
  0
SECTION
  2
OBJECTS
  0
DICTIONARY
  5
C
330
0
100
AcDbDictionary
281
     1
  3
ACAD_GROUP
350
D
  3
ACAD_LAYOUT
350
1A
  3
ACAD_MATERIAL
350
3B
  3
ACAD_MLEADERSTYLE
350
A0
  3
ACAD_MLINESTYLE
350
17
  3
ACAD_PLOTSETTINGS
350
19
  3
ACAD_PLOTSTYLENAME
350
E
  3
ACAD_TABLESTYLE
350
9F
  3
ACAD_VISUALSTYLE
350
2A
  0
DICTIONARY
  5
D
102
{ACAD_REACTORS
330
C
102
}
330
C
100
AcDbDictionary
281
     1
  0
DICTIONARY
  5
1A
102
{ACAD_REACTORS
330
C
102
}
330
C
100
AcDbDictionary
281
     1
  3
Layout1
350
1E
  3
Layout2
350
26
  3
Model
350
22
  0
DICTIONARY
  5
3B
102
{ACAD_REACTORS
330
C
102
}
330
C
100
AcDbDictionary
281
     1
  3
ByBlock
350
3D
  3
ByLayer
350
3C
  3
Global
350
3E
  0
DICTIONARY
  5
A0
102
{ACAD_REACTORS
330
C
102
}
330
C
100
AcDbDictionary
281
     1
  0
DICTIONARY
  5
17
102
{ACAD_REACTORS
330
C
102
}
330
C
100
AcDbDictionary
281
     1
  3
Standard
350
18
  0
DICTIONARY
  5
19
102
{ACAD_REACTORS
330
C
102
}
330
C
100
AcDbDictionary
281
     1
  0
ACDBDICTIONARYWDFLT
  5
E
102
{ACAD_REACTORS
330
C
102
}
330
C
100
AcDbDictionary
281
     1
  3
Normal
350
F
100
AcDbDictionaryWithDefault
340
F
  0
DICTIONARY
  5
9F
102
{ACAD_REACTORS
330
C
102
}
330
C
100
AcDbDictionary
281
     1
  0
DICTIONARY
  5
2A
102
{ACAD_REACTORS
330
C
102
}
330
C
100
AcDbDictionary
281
     1
  3
2dWireframe
350
2F
  3
3D Hidden
350
31
  3
3dWireframe
350
30
  3
Basic
350
32
  3
Brighten
350
36
  3
ColorChange
350
3A
  3
Conceptual
350
34
  3
Dim
350
35
  3
Facepattern
350
39
  3
Flat
350
2B
  3
FlatWithEdges
350
2C
  3
Gouraud
350
2D
  3
GouraudWithEdges
350
2E
  3
Linepattern
350
38
  3
Realistic
350
33
  3
Thicken
350
37
  0
LAYOUT
  5
1E
102
{ACAD_REACTORS
330
1A
102
}
330
1A
100
AcDbPlotSettings
  1

  2
none_device
  4

  6

 40
0.0
 41
0.0
 42
0.0
 43
0.0
 44
0.0
 45
0.0
 46
0.0
 47
0.0
 48
0.0
 49
0.0
140
0.0
141
0.0
142
1.0
143
1.0
 70
   688
 72
     0
 73
     0
 74
     5
  7

 75
    16
 76
     0
 77
     2
 78
   300
147
1.0
148
0.0
149
0.0
100
AcDbLayout
  1
Layout1
 70
     1
 71
     1
 10
0.0
 20
0.0
 11
12.0
 21
9.0
 12
0.0
 22
0.0
 32
0.0
 14
1.000000000000000E+20
 24
1.000000000000000E+20
 34
1.000000000000000E+20
 15
-1.000000000000000E+20
 25
-1.000000000000000E+20
 35
-1.000000000000000E+20
146
0.0
 13
0.0
 23
0.0
 33
0.0
 16
1.0
 26
0.0
 36
0.0
 17
0.0
 27
1.0
 37
0.0
 76
     0
330
1B
  0
LAYOUT
  5
26
102
{ACAD_REACTORS
330
1A
102
}
330
1A
100
AcDbPlotSettings
  1

  2
none_device
  4

  6

 40
0.0
 41
0.0
 42
0.0
 43
0.0
 44
0.0
 45
0.0
 46
0.0
 47
0.0
 48
0.0
 49
0.0
140
0.0
141
0.0
142
1.0
143
1.0
 70
   688
 72
     0
 73
     0
 74
     5
  7

 75
    16
 76
     0
 77
     2
 78
   300
147
1.0
148
0.0
149
0.0
100
AcDbLayout
  1
Layout2
 70
     1
 71
     2
 10
0.0
 20
0.0
 11
0.0
 21
0.0
 12
0.0
 22
0.0
 32
0.0
 14
0.0
 24
0.0
 34
0.0
 15
0.0
 25
0.0
 35
0.0
146
0.0
 13
0.0
 23
0.0
 33
0.0
 16
1.0
 26
0.0
 36
0.0
 17
0.0
 27
1.0
 37
0.0
 76
     0
330
23
  0
LAYOUT
  5
22
102
{ACAD_REACTORS
330
1A
102
}
330
1A
100
AcDbPlotSettings
  1

  2
none_device
  4

  6

 40
0.0
 41
0.0
 42
0.0
 43
0.0
 44
0.0
 45
0.0
 46
0.0
 47
0.0
 48
0.0
 49
0.0
140
0.0
141
0.0
142
1.0
143
1.0
 70
  1712
 72
     0
 73
     0
 74
     0
  7

 75
     0
 76
     0
 77
     2
 78
   300
147
1.0
148
0.0
149
0.0
100
AcDbLayout
  1
Model
 70
     1
 71
     0
 10
0.0
 20
0.0
 11
12.0
 21
9.0
 12
0.0
 22
0.0
 32
0.0
 14
-41.2245
 24
-111.952
 34
0.0
 15
196.5055
 25
125.778
 35
0.0
146
0.0
 13
0.0
 23
0.0
 33
0.0
 16
1.0
 26
0.0
 36
0.0
 17
0.0
 27
1.0
 37
0.0
 76
     0
330
1F
331
29
  0
MATERIAL
  5
3D
102
{ACAD_REACTORS
330
3B
102
}
330
3B
100
AcDbMaterial
  1
ByBlock
 72
     1
 94
      127
  0
MATERIAL
  5
3C
102
{ACAD_REACTORS
330
3B
102
}
330
3B
100
AcDbMaterial
  1
ByLayer
 72
     1
 94
      127
  0
MATERIAL
  5
3E
102
{ACAD_REACTORS
330
3B
102
}
330
3B
100
AcDbMaterial
  1
Global
 72
     1
 94
      127
  0
MLINESTYLE
  5
18
102
{ACAD_REACTORS
330
17
102
}
330
17
100
AcDbMlineStyle
  2
Standard
 70
     0
  3

 62
   256
 51
90.0
 52
90.0
 71
     2
 49
0.5
 62
   256
  6
BYLAYER
 49
-0.5
 62
   256
  6
BYLAYER
  0
ACDBPLACEHOLDER
  5
F
102
{ACAD_REACTORS
330
E
102
}
330
E
  0
VISUALSTYLE
  5
2F
102
{ACAD_REACTORS
330
2A
102
}
102
{ACAD_XDICTIONARY
360
87
102
}
330
2A
100
AcDbVisualStyle
  2
2dWireframe
 70
     4
 71
     0
 72
     2
 73
     0
 90
        0
 40
-0.6
 41
-30.0
 62
     5
 63
     7
421
 16777215
 74
     1
 91
        4
 64
     7
 65
   257
 75
     1
175
     1
 42
1.0
 92
        0
 66
   257
 43
1.0
 76
     1
 77
     6
 78
     2
 67
     7
 79
     5
170
     0
171
     0
290
     0
174
     0
 93
        1
 44
0.0
173
     0
291
     0
 45
0.0
  0
VISUALSTYLE
  5
31
102
{ACAD_REACTORS
330
2A
102
}
102
{ACAD_XDICTIONARY
360
8B
102
}
330
2A
100
AcDbVisualStyle
  2
3D Hidden
 70
     6
 71
     1
 72
     2
 73
     2
 90
        0
 40
-0.6
 41
-30.0
 62
     5
 63
     7
421
 16777215
 74
     2
 91
        2
 64
     7
 65
   257
 75
     2
175
     1
 42
40.0
 92
        0
 66
   257
 43
1.0
 76
     1
 77
     6
 78
     2
 67
     7
 79
     3
170
     0
171
     0
290
     0
174
     0
 93
        1
 44
0.0
173
     0
291
     0
 45
0.0
  0
VISUALSTYLE
  5
30
102
{ACAD_REACTORS
330
2A
102
}
102
{ACAD_XDICTIONARY
360
89
102
}
330
2A
100
AcDbVisualStyle
  2
3dWireframe
 70
     5
 71
     0
 72
     2
 73
     0
 90
        0
 40
-0.6
 41
-30.0
 62
     5
 63
     7
421
 16777215
 74
     1
 91
        4
 64
     7
 65
   257
 75
     1
175
     1
 42
1.0
 92
        0
 66
   257
 43
1.0
 76
     1
 77
     6
 78
     2
 67
     7
 79
     5
170
     0
171
     0
290
     0
174
     0
 93
        1
 44
0.0
173
     0
291
     0
 45
0.0
  0
VISUALSTYLE
  5
32
102
{ACAD_REACTORS
330
2A
102
}
102
{ACAD_XDICTIONARY
360
8D
102
}
330
2A
100
AcDbVisualStyle
  2
Basic
 70
     7
 71
     1
 72
     0
 73
     1
 90
        0
 40
-0.6
 41
-30.0
 62
     5
 63
     7
421
 16777215
 74
     0
 91
        4
 64
     7
 65
   257
 75
     1
175
     1
 42
1.0
 92
        8
 66
     7
 43
1.0
 76
     1
 77
     6
 78
     2
 67
     7
 79
     5
170
     0
171
     0
290
     0
174
     0
 93
        1
 44
0.0
173
     0
291
     1
 45
0.0
  0
VISUALSTYLE
  5
36
102
{ACAD_REACTORS
330
2A
102
}
102
{ACAD_XDICTIONARY
360
95
102
}
330
2A
100
AcDbVisualStyle
  2
Brighten
 70
    12
 71
     2
 72
     2
 73
     0
 90
        0
 40
-0.6
 41
-30.0
 62
     5
 63
     7
421
 16777215
 74
     1
 91
        4
 64
     7
 65
   257
 75
     1
175
     1
 42
1.0
 92
        8
 66
     7
 43
1.0
 76
     1
 77
     6
 78
     2
 67
     7
 79
     5
170
     0
171
     0
290
     0
174
     0
 93
        1
 44
50.0
173
     0
291
     1
 45
0.0
  0
VISUALSTYLE
  5
3A
102
{ACAD_REACTORS
330
2A
102
}
102
{ACAD_XDICTIONARY
360
9D
102
}
330
2A
100
AcDbVisualStyle
  2
ColorChange
 70
    16
 71
     2
 72
     2
 73
     3
 90
        0
 40
-0.6
 41
-30.0
 62
     5
 63
     8
421
  8421504
 74
     1
 91
        4
 64
     7
 65
   257
 75
     1
175
     1
 42
1.0
 92
        8
 66
     8
424
  8421504
 43
1.0
 76
     1
 77
     6
 78
     2
 67
     7
 79
     5
170
     0
171
     0
290
     0
174
     0
 93
        1
 44
0.0
173
     0
291
     1
 45
0.0
  0
VISUALSTYLE
  5
34
102
{ACAD_REACTORS
330
2A
102
}
102
{ACAD_XDICTIONARY
360
91
102
}
330
2A
100
AcDbVisualStyle
  2
Conceptual
 70
     9
 71
     3
 72
     2
 73
     0
 90
        0
 40
-0.6
 41
-30.0
 62
     5
 63
     7
421
 16777215
 74
     2
 91
        2
 64
     7
 65
   257
 75
     1
175
     1
 42
40.0
 92
        8
 66
     7
 43
1.0
 76
     1
 77
     6
 78
     2
 67
     7
 79
     3
170
     0
171
     0
290
     0
174
     0
 93
        1
 44
0.0
173
     0
291
     0
 45
0.0
  0
VISUALSTYLE
  5
35
102
{ACAD_REACTORS
330
2A
102
}
102
{ACAD_XDICTIONARY
360
93
102
}
330
2A
100
AcDbVisualStyle
  2
Dim
 70
    11
 71
     2
 72
     2
 73
     0
 90
        0
 40
-0.6
 41
-30.0
 62
     5
 63
     7
421
 16777215
 74
     1
 91
        4
 64
     7
 65
   257
 75
     1
175
     1
 42
1.0
 92
        8
 66
     7
 43
1.0
 76
     1
 77
     6
 78
     2
 67
     7
 79
     5
170
     0
171
     0
290
     0
174
     0
 93
        1
 44
-50.0
173
     0
291
     1
 45
0.0
  0
VISUALSTYLE
  5
39
102
{ACAD_REACTORS
330
2A
102
}
102
{ACAD_XDICTIONARY
360
9B
102
}
330
2A
100
AcDbVisualStyle
  2
Facepattern
 70
    15
 71
     2
 72
     2
 73
     0
 90
        0
 40
-0.6
 41
-30.0
 62
     5
 63
     7
421
 16777215
 74
     1
 91
        4
 64
     7
 65
   257
 75
     1
175
     1
 42
1.0
 92
        8
 66
     7
 43
1.0
 76
     1
 77
     6
 78
     2
 67
     7
 79
     5
170
     0
171
     0
290
     0
174
     0
 93
        1
 44
0.0
173
     0
291
     1
 45
0.0
  0
VISUALSTYLE
  5
2B
102
{ACAD_REACTORS
330
2A
102
}
102
{ACAD_XDICTIONARY
360
7F
102
}
330
2A
100
AcDbVisualStyle
  2
Flat
 70
     0
 71
     2
 72
     1
 73
     1
 90
        2
 40
-0.6
 41
30.0
 62
     5
 63
     7
421
 16777215
 74
     0
 91
        4
 64
     7
 65
   257
 75
     1
175
     1
 42
1.0
 92
        8
 66
     7
 43
1.0
 76
     1
 77
     6
 78
     2
 67
     7
 79
     5
170
     0
171
     0
290
     0
174
     0
 93
       13
 44
0.0
173
     0
291
     1
 45
0.0
  0
VISUALSTYLE
  5
2C
102
{ACAD_REACTORS
330
2A
102
}
102
{ACAD_XDICTIONARY
360
81
102
}
330
2A
100
AcDbVisualStyle
  2
FlatWithEdges
 70
     1
 71
     2
 72
     1
 73
     1
 90
        2
 40
-0.6
 41
30.0
 62
     5
 63
     7
421
 16777215
 74
     1
 91
        4
 64
     7
 65
   257
 75
     1
175
     1
 42
1.0
 92
        0
 66
   257
 43
1.0
 76
     1
 77
     6
 78
     2
 67
     7
 79
     5
170
     0
171
     0
290
     0
174
     0
 93
       13
 44
0.0
173
     0
291
     1
 45
0.0
  0
VISUALSTYLE
  5
2D
102
{ACAD_REACTORS
330
2A
102
}
102
{ACAD_XDICTIONARY
360
83
102
}
330
2A
100
AcDbVisualStyle
  2
Gouraud
 70
     2
 71
     2
 72
     2
 73
     1
 90
        2
 40
-0.6
 41
30.0
 62
     5
 63
     7
421
 16777215
 74
     0
 91
        4
 64
     7
 65
   257
 75
     1
175
     1
 42
1.0
 92
        0
 66
     7
 43
1.0
 76
     1
 77
     6
 78
     2
 67
     7
 79
     5
170
     0
171
     0
290
     0
174
     0
 93
       13
 44
0.0
173
     0
291
     1
 45
0.0
  0
VISUALSTYLE
  5
2E
102
{ACAD_REACTORS
330
2A
102
}
102
{ACAD_XDICTIONARY
360
85
102
}
330
2A
100
AcDbVisualStyle
  2
GouraudWithEdges
 70
     3
 71
     2
 72
     2
 73
     1
 90
        2
 40
-0.6
 41
30.0
 62
     5
 63
     7
421
 16777215
 74
     1
 91
        4
 64
     7
 65
   257
 75
     1
175
     1
 42
1.0
 92
        0
 66
   257
 43
1.0
 76
     1
 77
     6
 78
     2
 67
     7
 79
     5
170
     0
171
     0
290
     0
174
     0
 93
       13
 44
0.0
173
     0
291
     1
 45
0.0
  0
VISUALSTYLE
  5
38
102
{ACAD_REACTORS
330
2A
102
}
102
{ACAD_XDICTIONARY
360
99
102
}
330
2A
100
AcDbVisualStyle
  2
Linepattern
 70
    14
 71
     2
 72
     2
 73
     0
 90
        0
 40
-0.6
 41
-30.0
 62
     5
 63
     7
421
 16777215
 74
     1
 91
        4
 64
     7
 65
   257
 75
     7
175
     7
 42
1.0
 92
        8
 66
     7
 43
1.0
 76
     1
 77
     6
 78
     2
 67
     7
 79
     5
170
     0
171
     0
290
     0
174
     0
 93
        1
 44
0.0
173
     0
291
     1
 45
0.0
  0
VISUALSTYLE
  5
33
102
{ACAD_REACTORS
330
2A
102
}
102
{ACAD_XDICTIONARY
360
8F
102
}
330
2A
100
AcDbVisualStyle
  2
Realistic
 70
     8
 71
     2
 72
     2
 73
     0
 90
        0
 40
-0.6
 41
-30.0
 62
     5
 63
     7
421
 16777215
 74
     1
 91
        0
 64
     7
 65
   257
 75
     1
175
     1
 42
1.0
 92
        8
 66
     8
424
  7895160
 43
1.0
 76
     1
 77
     6
 78
     2
 67
     7
 79
     5
170
     0
171
     0
290
     0
174
     0
 93
       13
 44
0.0
173
     0
291
     0
 45
0.0
  0
VISUALSTYLE
  5
37
102
{ACAD_REACTORS
330
2A
102
}
102
{ACAD_XDICTIONARY
360
97
102
}
330
2A
100
AcDbVisualStyle
  2
Thicken
 70
    13
 71
     2
 72
     2
 73
     0
 90
        0
 40
-0.6
 41
-30.0
 62
     5
 63
     7
421
 16777215
 74
     1
 91
        4
 64
     7
 65
   257
 75
     1
175
     1
 42
1.0
 92
       12
 66
     7
 43
1.0
 76
     1
 77
     6
 78
     2
 67
     7
 79
     5
170
     0
171
     0
290
     0
174
     0
 93
        1
 44
0.0
173
     0
291
     1
 45
0.0
  0
DICTIONARY
  5
87
330
2F
100
AcDbDictionary
280
     1
281
     1
  3
ACAD_XREC_ROUNDTRIP
360
88
  0
DICTIONARY
  5
8B
330
31
100
AcDbDictionary
280
     1
281
     1
  3
ACAD_XREC_ROUNDTRIP
360
8C
  0
DICTIONARY
  5
89
330
30
100
AcDbDictionary
280
     1
281
     1
  3
ACAD_XREC_ROUNDTRIP
360
8A
  0
DICTIONARY
  5
8D
330
32
100
AcDbDictionary
280
     1
281
     1
  3
ACAD_XREC_ROUNDTRIP
360
8E
  0
DICTIONARY
  5
95
330
36
100
AcDbDictionary
280
     1
281
     1
  3
ACAD_XREC_ROUNDTRIP
360
96
  0
DICTIONARY
  5
9D
330
3A
100
AcDbDictionary
280
     1
281
     1
  3
ACAD_XREC_ROUNDTRIP
360
9E
  0
DICTIONARY
  5
91
330
34
100
AcDbDictionary
280
     1
281
     1
  3
ACAD_XREC_ROUNDTRIP
360
92
  0
DICTIONARY
  5
93
330
35
100
AcDbDictionary
280
     1
281
     1
  3
ACAD_XREC_ROUNDTRIP
360
94
  0
DICTIONARY
  5
9B
330
39
100
AcDbDictionary
280
     1
281
     1
  3
ACAD_XREC_ROUNDTRIP
360
9C
  0
DICTIONARY
  5
7F
330
2B
100
AcDbDictionary
280
     1
281
     1
  3
ACAD_XREC_ROUNDTRIP
360
80
  0
DICTIONARY
  5
81
330
2C
100
AcDbDictionary
280
     1
281
     1
  3
ACAD_XREC_ROUNDTRIP
360
82
  0
DICTIONARY
  5
83
330
2D
100
AcDbDictionary
280
     1
281
     1
  3
ACAD_XREC_ROUNDTRIP
360
84
  0
DICTIONARY
  5
85
330
2E
100
AcDbDictionary
280
     1
281
     1
  3
ACAD_XREC_ROUNDTRIP
360
86
  0
DICTIONARY
  5
99
330
38
100
AcDbDictionary
280
     1
281
     1
  3
ACAD_XREC_ROUNDTRIP
360
9A
  0
DICTIONARY
  5
8F
330
33
100
AcDbDictionary
280
     1
281
     1
  3
ACAD_XREC_ROUNDTRIP
360
90
  0
DICTIONARY
  5
97
330
37
100
AcDbDictionary
280
     1
281
     1
  3
ACAD_XREC_ROUNDTRIP
360
98
  0
XRECORD
  5
88
102
{ACAD_REACTORS
330
87
102
}
330
87
100
AcDbXrecord
280
     1
102
RTVSPropertyOp0
 70
     1
102
RTVSPropertyOp1
 70
     1
102
RTVSPropertyOp2
 70
     1
102
RTVSPropertyOp3
 70
     1
102
RTVSPropertyOp4
 70
     1
102
RTVSPropertyOp5
 70
     1
102
RTVSPropertyOp6
 70
     1
102
RTVSPropertyOp7
 70
     1
102
RTVSPropertyOp8
 70
     1
102
RTVSPropertyOp9
 70
     1
102
RTVSPropertyOp10
 70
     1
102
RTVSPropertyOp11
 70
     1
102
RTVSPropertyOp12
 70
     1
102
RTVSPropertyOp13
 70
     1
102
RTVSPropertyOp14
 70
     1
102
RTVSPropertyOp15
 70
     1
102
RTVSPropertyOp16
 70
     1
102
RTVSPropertyOp17
 70
     1
102
RTVSPropertyOp18
 70
     1
102
RTVSPropertyOp19
 70
     1
102
RTVSPropertyOp20
 70
     1
102
RTVSPropertyOp21
 70
     1
102
RTVSPropertyOp22
 70
     1
102
RTVSPropertyOp23
 70
     1
102
RTVSPropertyOp24
 70
     1
102
RTVSPropertyOp25
 70
     1
102
RTVSPropertyOp26
 70
     1
102
RTVSPropertyOp27
 70
     1
102
RTVSPropertyOp28
 70
     1
102
RTVSPropertyOp29
 70
     1
102
RTVSPropertyOp30
 70
     1
102
RTVSPropertyOp31
 70
     1
102
RTVSPropertyOp32
 70
     1
  0
XRECORD
  5
8C
102
{ACAD_REACTORS
330
8B
102
}
330
8B
100
AcDbXrecord
280
     1
102
RTVSPropertyOp0
 70
     1
102
RTVSPropertyOp1
 70
     1
102
RTVSPropertyOp2
 70
     1
102
RTVSPropertyOp3
 70
     1
102
RTVSPropertyOp4
 70
     1
102
RTVSPropertyOp5
 70
     1
102
RTVSPropertyOp6
 70
     1
102
RTVSPropertyOp7
 70
     1
102
RTVSPropertyOp8
 70
     1
102
RTVSPropertyOp9
 70
     1
102
RTVSPropertyOp10
 70
     1
102
RTVSPropertyOp11
 70
     1
102
RTVSPropertyOp12
 70
     1
102
RTVSPropertyOp13
 70
     1
102
RTVSPropertyOp14
 70
     1
102
RTVSPropertyOp15
 70
     1
102
RTVSPropertyOp16
 70
     1
102
RTVSPropertyOp17
 70
     1
102
RTVSPropertyOp18
 70
     1
102
RTVSPropertyOp19
 70
     1
102
RTVSPropertyOp20
 70
     1
102
RTVSPropertyOp21
 70
     1
102
RTVSPropertyOp22
 70
     1
102
RTVSPropertyOp23
 70
     1
102
RTVSPropertyOp24
 70
     1
102
RTVSPropertyOp25
 70
     1
102
RTVSPropertyOp26
 70
     1
102
RTVSPropertyOp27
 70
     1
102
RTVSPropertyOp28
 70
     1
102
RTVSPropertyOp29
 70
     1
102
RTVSPropertyOp30
 70
     1
102
RTVSPropertyOp31
 70
     1
102
RTVSPropertyOp32
 70
     1
  0
XRECORD
  5
8A
102
{ACAD_REACTORS
330
89
102
}
330
89
100
AcDbXrecord
280
     1
102
RTVSPropertyOp0
 70
     1
102
RTVSPropertyOp1
 70
     1
102
RTVSPropertyOp2
 70
     1
102
RTVSPropertyOp3
 70
     1
102
RTVSPropertyOp4
 70
     1
102
RTVSPropertyOp5
 70
     1
102
RTVSPropertyOp6
 70
     1
102
RTVSPropertyOp7
 70
     1
102
RTVSPropertyOp8
 70
     1
102
RTVSPropertyOp9
 70
     1
102
RTVSPropertyOp10
 70
     1
102
RTVSPropertyOp11
 70
     1
102
RTVSPropertyOp12
 70
     1
102
RTVSPropertyOp13
 70
     1
102
RTVSPropertyOp14
 70
     1
102
RTVSPropertyOp15
 70
     1
102
RTVSPropertyOp16
 70
     1
102
RTVSPropertyOp17
 70
     1
102
RTVSPropertyOp18
 70
     1
102
RTVSPropertyOp19
 70
     1
102
RTVSPropertyOp20
 70
     1
102
RTVSPropertyOp21
 70
     1
102
RTVSPropertyOp22
 70
     1
102
RTVSPropertyOp23
 70
     1
102
RTVSPropertyOp24
 70
     1
102
RTVSPropertyOp25
 70
     1
102
RTVSPropertyOp26
 70
     1
102
RTVSPropertyOp27
 70
     1
102
RTVSPropertyOp28
 70
     1
102
RTVSPropertyOp29
 70
     1
102
RTVSPropertyOp30
 70
     1
102
RTVSPropertyOp31
 70
     1
102
RTVSPropertyOp32
 70
     1
  0
XRECORD
  5
8E
102
{ACAD_REACTORS
330
8D
102
}
330
8D
100
AcDbXrecord
280
     1
102
RTVSPropertyOp0
 70
     1
102
RTVSPropertyOp1
 70
     1
102
RTVSPropertyOp2
 70
     1
102
RTVSPropertyOp3
 70
     1
102
RTVSPropertyOp4
 70
     1
102
RTVSPropertyOp5
 70
     1
102
RTVSPropertyOp6
 70
     1
102
RTVSPropertyOp7
 70
     1
102
RTVSPropertyOp8
 70
     1
102
RTVSPropertyOp9
 70
     1
102
RTVSPropertyOp10
 70
     1
102
RTVSPropertyOp11
 70
     1
102
RTVSPropertyOp12
 70
     1
102
RTVSPropertyOp13
 70
     1
102
RTVSPropertyOp14
 70
     1
102
RTVSPropertyOp15
 70
     1
102
RTVSPropertyOp16
 70
     1
102
RTVSPropertyOp17
 70
     1
102
RTVSPropertyOp18
 70
     1
102
RTVSPropertyOp19
 70
     1
102
RTVSPropertyOp20
 70
     1
102
RTVSPropertyOp21
 70
     1
102
RTVSPropertyOp22
 70
     1
102
RTVSPropertyOp23
 70
     1
102
RTVSPropertyOp24
 70
     1
102
RTVSPropertyOp25
 70
     1
102
RTVSPropertyOp26
 70
     1
102
RTVSPropertyOp27
 70
     1
102
RTVSPropertyOp28
 70
     1
102
RTVSPropertyOp29
 70
     1
102
RTVSPropertyOp30
 70
     1
102
RTVSPropertyOp31
 70
     1
102
RTVSPropertyOp32
 70
     1
  0
XRECORD
  5
96
102
{ACAD_REACTORS
330
95
102
}
330
95
100
AcDbXrecord
280
     1
102
RTVSPropertyOp0
 70
     1
102
RTVSPropertyOp1
 70
     1
102
RTVSPropertyOp2
 70
     1
102
RTVSPropertyOp3
 70
     1
102
RTVSPropertyOp4
 70
     1
102
RTVSPropertyOp5
 70
     1
102
RTVSPropertyOp6
 70
     1
102
RTVSPropertyOp7
 70
     1
102
RTVSPropertyOp8
 70
     1
102
RTVSPropertyOp9
 70
     1
102
RTVSPropertyOp10
 70
     1
102
RTVSPropertyOp11
 70
     1
102
RTVSPropertyOp12
 70
     1
102
RTVSPropertyOp13
 70
     1
102
RTVSPropertyOp14
 70
     1
102
RTVSPropertyOp15
 70
     1
102
RTVSPropertyOp16
 70
     1
102
RTVSPropertyOp17
 70
     1
102
RTVSPropertyOp18
 70
     1
102
RTVSPropertyOp19
 70
     1
102
RTVSPropertyOp20
 70
     1
102
RTVSPropertyOp21
 70
     1
102
RTVSPropertyOp22
 70
     1
102
RTVSPropertyOp23
 70
     1
102
RTVSPropertyOp24
 70
     1
102
RTVSPropertyOp25
 70
     1
102
RTVSPropertyOp26
 70
     1
102
RTVSPropertyOp27
 70
     1
102
RTVSPropertyOp28
 70
     1
102
RTVSPropertyOp29
 70
     1
102
RTVSPropertyOp30
 70
     1
102
RTVSPropertyOp31
 70
     1
102
RTVSPropertyOp32
 70
     1
  0
XRECORD
  5
9E
102
{ACAD_REACTORS
330
9D
102
}
330
9D
100
AcDbXrecord
280
     1
102
RTVSPropertyOp0
 70
     1
102
RTVSPropertyOp1
 70
     1
102
RTVSPropertyOp2
 70
     1
102
RTVSPropertyOp3
 70
     1
102
RTVSPropertyOp4
 70
     1
102
RTVSPropertyOp5
 70
     1
102
RTVSPropertyOp6
 70
     1
102
RTVSPropertyOp7
 70
     1
102
RTVSPropertyOp8
 70
     1
102
RTVSPropertyOp9
 70
     1
102
RTVSPropertyOp10
 70
     1
102
RTVSPropertyOp11
 70
     1
102
RTVSPropertyOp12
 70
     1
102
RTVSPropertyOp13
 70
     1
102
RTVSPropertyOp14
 70
     1
102
RTVSPropertyOp15
 70
     1
102
RTVSPropertyOp16
 70
     1
102
RTVSPropertyOp17
 70
     1
102
RTVSPropertyOp18
 70
     1
102
RTVSPropertyOp19
 70
     1
102
RTVSPropertyOp20
 70
     1
102
RTVSPropertyOp21
 70
     1
102
RTVSPropertyOp22
 70
     1
102
RTVSPropertyOp23
 70
     1
102
RTVSPropertyOp24
 70
     1
102
RTVSPropertyOp25
 70
     1
102
RTVSPropertyOp26
 70
     1
102
RTVSPropertyOp27
 70
     1
102
RTVSPropertyOp28
 70
     1
102
RTVSPropertyOp29
 70
     1
102
RTVSPropertyOp30
 70
     1
102
RTVSPropertyOp31
 70
     1
102
RTVSPropertyOp32
 70
     1
  0
XRECORD
  5
92
102
{ACAD_REACTORS
330
91
102
}
330
91
100
AcDbXrecord
280
     1
102
RTVSPropertyOp0
 70
     1
102
RTVSPropertyOp1
 70
     1
102
RTVSPropertyOp2
 70
     1
102
RTVSPropertyOp3
 70
     1
102
RTVSPropertyOp4
 70
     1
102
RTVSPropertyOp5
 70
     1
102
RTVSPropertyOp6
 70
     1
102
RTVSPropertyOp7
 70
     1
102
RTVSPropertyOp8
 70
     1
102
RTVSPropertyOp9
 70
     1
102
RTVSPropertyOp10
 70
     1
102
RTVSPropertyOp11
 70
     1
102
RTVSPropertyOp12
 70
     1
102
RTVSPropertyOp13
 70
     1
102
RTVSPropertyOp14
 70
     1
102
RTVSPropertyOp15
 70
     1
102
RTVSPropertyOp16
 70
     1
102
RTVSPropertyOp17
 70
     1
102
RTVSPropertyOp18
 70
     1
102
RTVSPropertyOp19
 70
     1
102
RTVSPropertyOp20
 70
     1
102
RTVSPropertyOp21
 70
     1
102
RTVSPropertyOp22
 70
     1
102
RTVSPropertyOp23
 70
     1
102
RTVSPropertyOp24
 70
     1
102
RTVSPropertyOp25
 70
     1
102
RTVSPropertyOp26
 70
     1
102
RTVSPropertyOp27
 70
     1
102
RTVSPropertyOp28
 70
     1
102
RTVSPropertyOp29
 70
     1
102
RTVSPropertyOp30
 70
     1
102
RTVSPropertyOp31
 70
     1
102
RTVSPropertyOp32
 70
     1
  0
XRECORD
  5
94
102
{ACAD_REACTORS
330
93
102
}
330
93
100
AcDbXrecord
280
     1
102
RTVSPropertyOp0
 70
     1
102
RTVSPropertyOp1
 70
     1
102
RTVSPropertyOp2
 70
     1
102
RTVSPropertyOp3
 70
     1
102
RTVSPropertyOp4
 70
     1
102
RTVSPropertyOp5
 70
     1
102
RTVSPropertyOp6
 70
     1
102
RTVSPropertyOp7
 70
     1
102
RTVSPropertyOp8
 70
     1
102
RTVSPropertyOp9
 70
     1
102
RTVSPropertyOp10
 70
     1
102
RTVSPropertyOp11
 70
     1
102
RTVSPropertyOp12
 70
     1
102
RTVSPropertyOp13
 70
     1
102
RTVSPropertyOp14
 70
     1
102
RTVSPropertyOp15
 70
     1
102
RTVSPropertyOp16
 70
     1
102
RTVSPropertyOp17
 70
     1
102
RTVSPropertyOp18
 70
     1
102
RTVSPropertyOp19
 70
     1
102
RTVSPropertyOp20
 70
     1
102
RTVSPropertyOp21
 70
     1
102
RTVSPropertyOp22
 70
     1
102
RTVSPropertyOp23
 70
     1
102
RTVSPropertyOp24
 70
     1
102
RTVSPropertyOp25
 70
     1
102
RTVSPropertyOp26
 70
     1
102
RTVSPropertyOp27
 70
     1
102
RTVSPropertyOp28
 70
     1
102
RTVSPropertyOp29
 70
     1
102
RTVSPropertyOp30
 70
     1
102
RTVSPropertyOp31
 70
     1
102
RTVSPropertyOp32
 70
     1
  0
XRECORD
  5
9C
102
{ACAD_REACTORS
330
9B
102
}
330
9B
100
AcDbXrecord
280
     1
102
RTVSPropertyOp0
 70
     1
102
RTVSPropertyOp1
 70
     1
102
RTVSPropertyOp2
 70
     1
102
RTVSPropertyOp3
 70
     1
102
RTVSPropertyOp4
 70
     1
102
RTVSPropertyOp5
 70
     1
102
RTVSPropertyOp6
 70
     1
102
RTVSPropertyOp7
 70
     1
102
RTVSPropertyOp8
 70
     1
102
RTVSPropertyOp9
 70
     1
102
RTVSPropertyOp10
 70
     1
102
RTVSPropertyOp11
 70
     1
102
RTVSPropertyOp12
 70
     1
102
RTVSPropertyOp13
 70
     1
102
RTVSPropertyOp14
 70
     1
102
RTVSPropertyOp15
 70
     1
102
RTVSPropertyOp16
 70
     1
102
RTVSPropertyOp17
 70
     1
102
RTVSPropertyOp18
 70
     1
102
RTVSPropertyOp19
 70
     1
102
RTVSPropertyOp20
 70
     1
102
RTVSPropertyOp21
 70
     1
102
RTVSPropertyOp22
 70
     1
102
RTVSPropertyOp23
 70
     1
102
RTVSPropertyOp24
 70
     1
102
RTVSPropertyOp25
 70
     1
102
RTVSPropertyOp26
 70
     1
102
RTVSPropertyOp27
 70
     1
102
RTVSPropertyOp28
 70
     1
102
RTVSPropertyOp29
 70
     1
102
RTVSPropertyOp30
 70
     1
102
RTVSPropertyOp31
 70
     1
102
RTVSPropertyOp32
 70
     1
  0
XRECORD
  5
80
102
{ACAD_REACTORS
330
7F
102
}
330
7F
100
AcDbXrecord
280
     1
102
RTVSPropertyOp0
 70
     1
102
RTVSPropertyOp1
 70
     1
102
RTVSPropertyOp2
 70
     1
102
RTVSPropertyOp3
 70
     1
102
RTVSPropertyOp4
 70
     1
102
RTVSPropertyOp5
 70
     1
102
RTVSPropertyOp6
 70
     1
102
RTVSPropertyOp7
 70
     1
102
RTVSPropertyOp8
 70
     1
102
RTVSPropertyOp9
 70
     1
102
RTVSPropertyOp10
 70
     1
102
RTVSPropertyOp11
 70
     1
102
RTVSPropertyOp12
 70
     1
102
RTVSPropertyOp13
 70
     1
102
RTVSPropertyOp14
 70
     1
102
RTVSPropertyOp15
 70
     1
102
RTVSPropertyOp16
 70
     1
102
RTVSPropertyOp17
 70
     1
102
RTVSPropertyOp18
 70
     1
102
RTVSPropertyOp19
 70
     1
102
RTVSPropertyOp20
 70
     1
102
RTVSPropertyOp21
 70
     1
102
RTVSPropertyOp22
 70
     1
102
RTVSPropertyOp23
 70
     1
102
RTVSPropertyOp24
 70
     1
102
RTVSPropertyOp25
 70
     1
102
RTVSPropertyOp26
 70
     1
102
RTVSPropertyOp27
 70
     1
102
RTVSPropertyOp28
 70
     1
102
RTVSPropertyOp29
 70
     1
102
RTVSPropertyOp30
 70
     1
102
RTVSPropertyOp31
 70
     1
102
RTVSPropertyOp32
 70
     1
  0
XRECORD
  5
82
102
{ACAD_REACTORS
330
81
102
}
330
81
100
AcDbXrecord
280
     1
102
RTVSPropertyOp0
 70
     1
102
RTVSPropertyOp1
 70
     1
102
RTVSPropertyOp2
 70
     1
102
RTVSPropertyOp3
 70
     1
102
RTVSPropertyOp4
 70
     1
102
RTVSPropertyOp5
 70
     1
102
RTVSPropertyOp6
 70
     1
102
RTVSPropertyOp7
 70
     1
102
RTVSPropertyOp8
 70
     1
102
RTVSPropertyOp9
 70
     1
102
RTVSPropertyOp10
 70
     1
102
RTVSPropertyOp11
 70
     1
102
RTVSPropertyOp12
 70
     1
102
RTVSPropertyOp13
 70
     1
102
RTVSPropertyOp14
 70
     1
102
RTVSPropertyOp15
 70
     1
102
RTVSPropertyOp16
 70
     1
102
RTVSPropertyOp17
 70
     1
102
RTVSPropertyOp18
 70
     1
102
RTVSPropertyOp19
 70
     1
102
RTVSPropertyOp20
 70
     1
102
RTVSPropertyOp21
 70
     1
102
RTVSPropertyOp22
 70
     1
102
RTVSPropertyOp23
 70
     1
102
RTVSPropertyOp24
 70
     1
102
RTVSPropertyOp25
 70
     1
102
RTVSPropertyOp26
 70
     1
102
RTVSPropertyOp27
 70
     1
102
RTVSPropertyOp28
 70
     1
102
RTVSPropertyOp29
 70
     1
102
RTVSPropertyOp30
 70
     1
102
RTVSPropertyOp31
 70
     1
102
RTVSPropertyOp32
 70
     1
  0
XRECORD
  5
84
102
{ACAD_REACTORS
330
83
102
}
330
83
100
AcDbXrecord
280
     1
102
RTVSPropertyOp0
 70
     1
102
RTVSPropertyOp1
 70
     1
102
RTVSPropertyOp2
 70
     1
102
RTVSPropertyOp3
 70
     1
102
RTVSPropertyOp4
 70
     1
102
RTVSPropertyOp5
 70
     1
102
RTVSPropertyOp6
 70
     1
102
RTVSPropertyOp7
 70
     1
102
RTVSPropertyOp8
 70
     1
102
RTVSPropertyOp9
 70
     1
102
RTVSPropertyOp10
 70
     1
102
RTVSPropertyOp11
 70
     1
102
RTVSPropertyOp12
 70
     1
102
RTVSPropertyOp13
 70
     1
102
RTVSPropertyOp14
 70
     1
102
RTVSPropertyOp15
 70
     1
102
RTVSPropertyOp16
 70
     1
102
RTVSPropertyOp17
 70
     1
102
RTVSPropertyOp18
 70
     1
102
RTVSPropertyOp19
 70
     1
102
RTVSPropertyOp20
 70
     1
102
RTVSPropertyOp21
 70
     1
102
RTVSPropertyOp22
 70
     1
102
RTVSPropertyOp23
 70
     1
102
RTVSPropertyOp24
 70
     1
102
RTVSPropertyOp25
 70
     1
102
RTVSPropertyOp26
 70
     1
102
RTVSPropertyOp27
 70
     1
102
RTVSPropertyOp28
 70
     1
102
RTVSPropertyOp29
 70
     1
102
RTVSPropertyOp30
 70
     1
102
RTVSPropertyOp31
 70
     1
102
RTVSPropertyOp32
 70
     1
  0
XRECORD
  5
86
102
{ACAD_REACTORS
330
85
102
}
330
85
100
AcDbXrecord
280
     1
102
RTVSPropertyOp0
 70
     1
102
RTVSPropertyOp1
 70
     1
102
RTVSPropertyOp2
 70
     1
102
RTVSPropertyOp3
 70
     1
102
RTVSPropertyOp4
 70
     1
102
RTVSPropertyOp5
 70
     1
102
RTVSPropertyOp6
 70
     1
102
RTVSPropertyOp7
 70
     1
102
RTVSPropertyOp8
 70
     1
102
RTVSPropertyOp9
 70
     1
102
RTVSPropertyOp10
 70
     1
102
RTVSPropertyOp11
 70
     1
102
RTVSPropertyOp12
 70
     1
102
RTVSPropertyOp13
 70
     1
102
RTVSPropertyOp14
 70
     1
102
RTVSPropertyOp15
 70
     1
102
RTVSPropertyOp16
 70
     1
102
RTVSPropertyOp17
 70
     1
102
RTVSPropertyOp18
 70
     1
102
RTVSPropertyOp19
 70
     1
102
RTVSPropertyOp20
 70
     1
102
RTVSPropertyOp21
 70
     1
102
RTVSPropertyOp22
 70
     1
102
RTVSPropertyOp23
 70
     1
102
RTVSPropertyOp24
 70
     1
102
RTVSPropertyOp25
 70
     1
102
RTVSPropertyOp26
 70
     1
102
RTVSPropertyOp27
 70
     1
102
RTVSPropertyOp28
 70
     1
102
RTVSPropertyOp29
 70
     1
102
RTVSPropertyOp30
 70
     1
102
RTVSPropertyOp31
 70
     1
102
RTVSPropertyOp32
 70
     1
  0
XRECORD
  5
9A
102
{ACAD_REACTORS
330
99
102
}
330
99
100
AcDbXrecord
280
     1
102
RTVSPropertyOp0
 70
     1
102
RTVSPropertyOp1
 70
     1
102
RTVSPropertyOp2
 70
     1
102
RTVSPropertyOp3
 70
     1
102
RTVSPropertyOp4
 70
     1
102
RTVSPropertyOp5
 70
     1
102
RTVSPropertyOp6
 70
     1
102
RTVSPropertyOp7
 70
     1
102
RTVSPropertyOp8
 70
     1
102
RTVSPropertyOp9
 70
     1
102
RTVSPropertyOp10
 70
     1
102
RTVSPropertyOp11
 70
     1
102
RTVSPropertyOp12
 70
     1
102
RTVSPropertyOp13
 70
     1
102
RTVSPropertyOp14
 70
     1
102
RTVSPropertyOp15
 70
     1
102
RTVSPropertyOp16
 70
     1
102
RTVSPropertyOp17
 70
     1
102
RTVSPropertyOp18
 70
     1
102
RTVSPropertyOp19
 70
     1
102
RTVSPropertyOp20
 70
     1
102
RTVSPropertyOp21
 70
     1
102
RTVSPropertyOp22
 70
     1
102
RTVSPropertyOp23
 70
     1
102
RTVSPropertyOp24
 70
     1
102
RTVSPropertyOp25
 70
     1
102
RTVSPropertyOp26
 70
     1
102
RTVSPropertyOp27
 70
     1
102
RTVSPropertyOp28
 70
     1
102
RTVSPropertyOp29
 70
     1
102
RTVSPropertyOp30
 70
     1
102
RTVSPropertyOp31
 70
     1
102
RTVSPropertyOp32
 70
     1
  0
XRECORD
  5
90
102
{ACAD_REACTORS
330
8F
102
}
330
8F
100
AcDbXrecord
280
     1
102
RTVSPropertyOp0
 70
     1
102
RTVSPropertyOp1
 70
     1
102
RTVSPropertyOp2
 70
     1
102
RTVSPropertyOp3
 70
     1
102
RTVSPropertyOp4
 70
     1
102
RTVSPropertyOp5
 70
     1
102
RTVSPropertyOp6
 70
     1
102
RTVSPropertyOp7
 70
     1
102
RTVSPropertyOp8
 70
     1
102
RTVSPropertyOp9
 70
     1
102
RTVSPropertyOp10
 70
     1
102
RTVSPropertyOp11
 70
     1
102
RTVSPropertyOp12
 70
     1
102
RTVSPropertyOp13
 70
     1
102
RTVSPropertyOp14
 70
     1
102
RTVSPropertyOp15
 70
     1
102
RTVSPropertyOp16
 70
     1
102
RTVSPropertyOp17
 70
     1
102
RTVSPropertyOp18
 70
     1
102
RTVSPropertyOp19
 70
     1
102
RTVSPropertyOp20
 70
     1
102
RTVSPropertyOp21
 70
     1
102
RTVSPropertyOp22
 70
     1
102
RTVSPropertyOp23
 70
     1
102
RTVSPropertyOp24
 70
     1
102
RTVSPropertyOp25
 70
     1
102
RTVSPropertyOp26
 70
     1
102
RTVSPropertyOp27
 70
     1
102
RTVSPropertyOp28
 70
     1
102
RTVSPropertyOp29
 70
     1
102
RTVSPropertyOp30
 70
     1
102
RTVSPropertyOp31
 70
     1
102
RTVSPropertyOp32
 70
     1
  0
XRECORD
  5
98
102
{ACAD_REACTORS
330
97
102
}
330
97
100
AcDbXrecord
280
     1
102
RTVSPropertyOp0
 70
     1
102
RTVSPropertyOp1
 70
     1
102
RTVSPropertyOp2
 70
     1
102
RTVSPropertyOp3
 70
     1
102
RTVSPropertyOp4
 70
     1
102
RTVSPropertyOp5
 70
     1
102
RTVSPropertyOp6
 70
     1
102
RTVSPropertyOp7
 70
     1
102
RTVSPropertyOp8
 70
     1
102
RTVSPropertyOp9
 70
     1
102
RTVSPropertyOp10
 70
     1
102
RTVSPropertyOp11
 70
     1
102
RTVSPropertyOp12
 70
     1
102
RTVSPropertyOp13
 70
     1
102
RTVSPropertyOp14
 70
     1
102
RTVSPropertyOp15
 70
     1
102
RTVSPropertyOp16
 70
     1
102
RTVSPropertyOp17
 70
     1
102
RTVSPropertyOp18
 70
     1
102
RTVSPropertyOp19
 70
     1
102
RTVSPropertyOp20
 70
     1
102
RTVSPropertyOp21
 70
     1
102
RTVSPropertyOp22
 70
     1
102
RTVSPropertyOp23
 70
     1
102
RTVSPropertyOp24
 70
     1
102
RTVSPropertyOp25
 70
     1
102
RTVSPropertyOp26
 70
     1
102
RTVSPropertyOp27
 70
     1
102
RTVSPropertyOp28
 70
     1
102
RTVSPropertyOp29
 70
     1
102
RTVSPropertyOp30
 70
     1
102
RTVSPropertyOp31
 70
     1
102
RTVSPropertyOp32
 70
     1
  0
ENDSEC
  0
EOF
