  0
SECTION
  2
HEADER
  9
$ACADVER
  1
AC1021
  9
$ACADMAINTVER
 70
    25
  9
$DWGCODEPAGE
  3
ANSI_1252
  9
$INSBASE
 10
0.0
 20
0.0
 30
0.0
  9
$EXTMIN
 10
-187.6061
 20
-114.7161
 30
0.0
  9
$EXTMAX
 10
59.0535
 20
131.6069
 30
0.0
  9
$LIMMIN
 10
0.0
 20
0.0
  9
$LIMMAX
 10
12.0
 20
9.0
  9
$ORTHOMODE
 70
     0
  9
$REGENMODE
 70
     1
  9
$FILLMODE
 70
     1
  9
$QTEXTMODE
 70
     0
  9
$MIRRTEXT
 70
     1
  9
$LTSCALE
 40
1.0
  9
$ATTMODE
 70
     1
  9
$TEXTSIZE
 40
0.2
  9
$TRACEWID
 40
0.05
  9
$TEXTSTYLE
  7
Standard
  9
$CLAYER
  8
0
  9
$CELTYPE
  6
ByLayer
  9
$CECOLOR
 62
   256
  9
$CELTSCALE
 40
1.0
  9
$DISPSILH
 70
     0
  9
$DIMSCALE
 40
1.0
  9
$DIMASZ
 40
0.18
  9
$DIMEXO
 40
0.0625
  9
$DIMDLI
 40
0.38
  9
$DIMRND
 40
0.0
  9
$DIMDLE
 40
0.0
  9
$DIMEXE
 40
0.18
  9
$DIMTP
 40
0.0
  9
$DIMTM
 40
0.0
  9
$DIMTXT
 40
0.18
  9
$DIMCEN
 40
0.09
  9
$DIMTSZ
 40
0.0
  9
$DIMTOL
 70
     0
  9
$DIMLIM
 70
     0
  9
$DIMTIH
 70
     1
  9
$DIMTOH
 70
     1
  9
$DIMSE1
 70
     0
  9
$DIMSE2
 70
     0
  9
$DIMTAD
 70
     0
  9
$DIMZIN
 70
     0
  9
$DIMBLK
  1

  9
$DIMASO
 70
     1
  9
$DIMSHO
 70
     1
  9
$DIMPOST
  1

  9
$DIMAPOST
  1

  9
$DIMALT
 70
     0
  9
$DIMALTD
 70
     2
  9
$DIMALTF
 40
25.4
  9
$DIMLFAC
 40
1.0
  9
$DIMTOFL
 70
     0
  9
$DIMTVP
 40
0.0
  9
$DIMTIX
 70
     0
  9
$DIMSOXD
 70
     0
  9
$DIMSAH
 70
     0
  9
$DIMBLK1
  1

  9
$DIMBLK2
  1

  9
$DIMSTYLE
  2
Standard
  9
$DIMCLRD
 70
     0
  9
$DIMCLRE
 70
     0
  9
$DIMCLRT
 70
     0
  9
$DIMTFAC
 40
1.0
  9
$DIMGAP
 40
0.09
  9
$DIMJUST
 70
     0
  9
$DIMSD1
 70
     0
  9
$DIMSD2
 70
     0
  9
$DIMTOLJ
 70
     1
  9
$DIMTZIN
 70
     0
  9
$DIMALTZ
 70
     0
  9
$DIMALTTZ
 70
     0
  9
$DIMUPT
 70
     0
  9
$DIMDEC
 70
     4
  9
$DIMTDEC
 70
     4
  9
$DIMALTU
 70
     2
  9
$DIMALTTD
 70
     2
  9
$DIMTXSTY
  7
Standard
  9
$DIMAUNIT
 70
     0
  9
$DIMADEC
 70
     0
  9
$DIMALTRND
 40
0.0
  9
$DIMAZIN
 70
     0
  9
$DIMDSEP
 70
    46
  9
$DIMATFIT
 70
     3
  9
$DIMFRAC
 70
     0
  9
$DIMLDRBLK
  1

  9
$DIMLUNIT
 70
     2
  9
$DIMLWD
 70
    -2
  9
$DIMLWE
 70
    -2
  9
$DIMTMOVE
 70
     0
  9
$DIMFXL
 40
1.0
  9
$DIMFXLON
 70
     0
  9
$DIMJOGANG
 40
0.7853981633974483
  9
$DIMTFILL
 70
     0
  9
$DIMTFILLCLR
 70
     0
  9
$DIMARCSYM
 70
     0
  9
$DIMLTYPE
  6

  9
$DIMLTEX1
  6

  9
$DIMLTEX2
  6

  9
$LUNITS
 70
     2
  9
$LUPREC
 70
     4
  9
$SKETCHINC
 40
0.1
  9
$FILLETRAD
 40
0.5
  9
$AUNITS
 70
     0
  9
$AUPREC
 70
     0
  9
$MENU
  1
.
  9
$ELEVATION
 40
0.0
  9
$PELEVATION
 40
0.0
  9
$THICKNESS
 40
0.0
  9
$LIMCHECK
 70
     0
  9
$CHAMFERA
 40
0.5
  9
$CHAMFERB
 40
0.5
  9
$CHAMFERC
 40
1.0
  9
$CHAMFERD
 40
0.0
  9
$SKPOLY
 70
     0
  9
$TDCREATE
 40
2458492.783662512
  9
$TDUCREATE
 40
2458492.783662512
  9
$TDUPDATE
 40
2458492.783662639
  9
$TDUUPDATE
 40
2458492.783662639
  9
$TDINDWG
 40
0.0000000116
  9
$TDUSRTIMER
 40
0.0000000116
  9
$USRTIMER
 70
     1
  9
$ANGBASE
 50
0.0
  9
$ANGDIR
 70
     0
  9
$PDMODE
 70
     0
  9
$PDSIZE
 40
0.0
  9
$PLINEWID
 40
0.0
  9
$SPLFRAME
 70
     0
  9
$SPLINETYPE
 70
     6
  9
$SPLINESEGS
 70
     8
  9
$HANDSEED
  5
9F
  9
$SURFTAB1
 70
     6
  9
$SURFTAB2
 70
     6
  9
$SURFTYPE
 70
     6
  9
$SURFU
 70
     6
  9
$SURFV
 70
     6
  9
$UCSBASE
  2

  9
$UCSNAME
  2

  9
$UCSORG
 10
0.0
 20
0.0
 30
0.0
  9
$UCSXDIR
 10
1.0
 20
0.0
 30
0.0
  9
$UCSYDIR
 10
0.0
 20
1.0
 30
0.0
  9
$UCSORTHOREF
  2

  9
$UCSORTHOVIEW
 70
     0
  9
$UCSORGTOP
 10
0.0
 20
0.0
 30
0.0
  9
$UCSORGBOTTOM
 10
0.0
 20
0.0
 30
0.0
  9
$UCSORGLEFT
 10
0.0
 20
0.0
 30
0.0
  9
$UCSORGRIGHT
 10
0.0
 20
0.0
 30
0.0
  9
$UCSORGFRONT
 10
0.0
 20
0.0
 30
0.0
  9
$UCSORGBACK
 10
0.0
 20
0.0
 30
0.0
  9
$PUCSBASE
  2

  9
$PUCSNAME
  2

  9
$PUCSORG
 10
0.0
 20
0.0
 30
0.0
  9
$PUCSXDIR
 10
1.0
 20
0.0
 30
0.0
  9
$PUCSYDIR
 10
0.0
 20
1.0
 30
0.0
  9
$PUCSORTHOREF
  2

  9
$PUCSORTHOVIEW
 70
     0
  9
$PUCSORGTOP
 10
0.0
 20
0.0
 30
0.0
  9
$PUCSORGBOTTOM
 10
0.0
 20
0.0
 30
0.0
  9
$PUCSORGLEFT
 10
0.0
 20
0.0
 30
0.0
  9
$PUCSORGRIGHT
 10
0.0
 20
0.0
 30
0.0
  9
$PUCSORGFRONT
 10
0.0
 20
0.0
 30
0.0
  9
$PUCSORGBACK
 10
0.0
 20
0.0
 30
0.0
  9
$USERI1
 70
     0
  9
$USERI2
 70
     0
  9
$USERI3
 70
     0
  9
$USERI4
 70
     0
  9
$USERI5
 70
     0
  9
$USERR1
 40
0.0
  9
$USERR2
 40
0.0
  9
$USERR3
 40
0.0
  9
$USERR4
 40
0.0
  9
$USERR5
 40
0.0
  9
$WORLDVIEW
 70
     1
  9
$SHADEDGE
 70
     3
  9
$SHADEDIF
 70
    70
  9
$TILEMODE
 70
     1
  9
$MAXACTVP
 70
    64
  9
$PINSBASE
 10
0.0
 20
0.0
 30
0.0
  9
$PLIMCHECK
 70
     0
  9
$PEXTMIN
 10
1.000000000000000E+20
 20
1.000000000000000E+20
 30
1.000000000000000E+20
  9
$PEXTMAX
 10
-1.000000000000000E+20
 20
-1.000000000000000E+20
 30
-1.000000000000000E+20
  9
$PLIMMIN
 10
0.0
 20
0.0
  9
$PLIMMAX
 10
12.0
 20
9.0
  9
$UNITMODE
 70
     0
  9
$VISRETAIN
 70
     1
  9
$PLINEGEN
 70
     0
  9
$PSLTSCALE
 70
     1
  9
$TREEDEPTH
 70
  3020
  9
$CMLSTYLE
  2
Standard
  9
$CMLJUST
 70
     0
  9
$CMLSCALE
 40
1.0
  9
$PROXYGRAPHICS
 70
     1
  9
$MEASUREMENT
 70
     0
  9
$CELWEIGHT
370
    -1
  9
$ENDCAPS
280
     0
  9
$JOINSTYLE
280
     0
  9
$LWDISPLAY
290
     0
  9
$INSUNITS
 70
     4
  9
$HYPERLINKBASE
  1

  9
$STYLESHEET
  1

  9
$XEDIT
290
     1
  9
$CEPSNTYPE
380
     0
  9
$PSTYLEMODE
290
     1
  9
$FINGERPRINTGUID
  2
{B026D55D-9C4F-42B3-84CB-9D11FD18ADFC}
  9
$VERSIONGUID
  2
{FAEB1C32-E019-11D5-929B-00C0DF256EC4}
  9
$EXTNAMES
290
     1
  9
$PSVPSCALE
 40
0.0
  9
$OLESTARTUP
290
     0
  9
$SORTENTS
280
   127
  9
$INDEXCTL
280
     0
  9
$HIDETEXT
280
     1
  9
$XCLIPFRAME
290
     0
  9
$HALOGAP
280
     0
  9
$OBSCOLOR
 70
   257
  9
$OBSLTYPE
280
     0
  9
$INTERSECTIONDISPLAY
280
     0
  9
$INTERSECTIONCOLOR
 70
   257
  9
$DIMASSOC
280
     2
  9
$PROJECTNAME
  1

  9
$CAMERADISPLAY
290
     0
  9
$LENSLENGTH
 40
50.0
  9
$CAMERAHEIGHT
 40
0.0
  9
$STEPSPERSEC
 40
2.0
  9
$STEPSIZE
 40
6.0
  9
$3DDWFPREC
 40
2.0
  9
$PSOLWIDTH
 40
0.25
  9
$PSOLHEIGHT
 40
4.0
  9
$LOFTANG1
 40
1.570796326794897
  9
$LOFTANG2
 40
1.570796326794897
  9
$LOFTMAG1
 40
0.0
  9
$LOFTMAG2
 40
0.0
  9
$LOFTPARAM
 70
     7
  9
$LOFTNORMALS
280
     1
  9
$LATITUDE
 40
37.795
  9
$LONGITUDE
 40
-122.394
  9
$NORTHDIRECTION
 40
0.0
  9
$TIMEZONE
 70
 -8000
  9
$LIGHTGLYPHDISPLAY
280
     1
  9
$TILEMODELIGHTSYNCH
280
     1
  9
$SOLIDHIST
280
     1
  9
$SHOWHIST
280
     1
  9
$DWFFRAME
280
     2
  9
$DGNFRAME
280
     2
  9
$REALWORLDSCALE
290
     1
  9
$INTERFERECOLOR
 62
   256
  9
$CSHADOW
280
     0
  9
$SHADOWPLANELOCATION
 40
0.0
  0
ENDSEC
  0
SECTION
  2
CLASSES
  0
CLASS
  1
ACDBDICTIONARYWDFLT
  2
AcDbDictionaryWithDefault
  3
ObjectDBX Classes
 90
        0
 91
        4
280
     0
281
     0
  0
CLASS
  1
VISUALSTYLE
  2
AcDbVisualStyle
  3
ObjectDBX Classes
 90
     4095
 91
        4
280
     0
281
     0
  0
CLASS
  1
MATERIAL
  2
AcDbMaterial
  3
ObjectDBX Classes
 90
     1153
 91
        4
280
     0
281
     0
  0
ENDSEC
  0
SECTION
  2
TABLES
  0
TABLE
  2
VPORT
  5
8
330
0
100
AcDbSymbolTable
 70
     1
  0
VPORT
  5
29
330
8
100
AcDbSymbolTableRecord
100
AcDbViewportTableRecord
  2
*Active
 70
     0
 10
0.0
 20
0.0
 11
1.0
 21
1.0
 12
10.42990654205607
 22
4.5
 13
0.0
 23
0.0
 14
0.5
 24
0.5
 15
0.5
 25
0.5
 16
0.0
 26
0.0
 36
1.0
 17
0.0
 27
0.0
 37
0.0
 40
9.0
 41
1.972972972850329
 42
50.0
 43
0.0
 44
0.0
 50
0.0
 51
0.0
 71
     0
 72
   100
 73
     1
 74
     3
 75
     0
 76
     0
 77
     0
 78
     0
281
     0
 65
     1
110
0.0
120
0.0
130
0.0
111
1.0
121
0.0
131
0.0
112
0.0
122
1.0
132
0.0
 79
     0
146
0.0
 60
     3
 61
     5
292
     1
282
     1
141
0.0
142
0.0
 63
   250
  0
ENDTAB
  0
TABLE
  2
LTYPE
  5
5
330
0
100
AcDbSymbolTable
 70
     1
  0
LTYPE
  5
14
330
5
100
AcDbSymbolTableRecord
100
AcDbLinetypeTableRecord
  2
ByBlock
 70
     0
  3

 72
    65
 73
     0
 40
0.0
  0
LTYPE
  5
15
330
5
100
AcDbSymbolTableRecord
100
AcDbLinetypeTableRecord
  2
ByLayer
 70
     0
  3

 72
    65
 73
     0
 40
0.0
  0
LTYPE
  5
16
330
5
100
AcDbSymbolTableRecord
100
AcDbLinetypeTableRecord
  2
Continuous
 70
     0
  3
Solid line
 72
    65
 73
     0
 40
0.0
  0
ENDTAB
  0
TABLE
  2
LAYER
  5
2
330
0
100
AcDbSymbolTable
 70
     2
  0
LAYER
  5
10
330
2
100
AcDbSymbolTableRecord
100
AcDbLayerTableRecord
  2
0
 70
     0
 62
     7
  6
Continuous
370
    -3
390
F
347
3E
  0
LAYER
  5
40
330
2
100
AcDbSymbolTableRecord
100
AcDbLayerTableRecord
  2
layer 1
 70
     0
 62
     7
  6
Continuous
370
    -3
390
F
347
3E
  0
ENDTAB
  0
TABLE
  2
STYLE
  5
3
330
0
100
AcDbSymbolTable
 70
     1
  0
STYLE
  5
11
330
3
100
AcDbSymbolTableRecord
100
AcDbTextStyleTableRecord
  2
Standard
 70
     0
 40
0.0
 41
1.0
 50
0.0
 71
     0
 42
0.2
  3
txt
  4

  0
ENDTAB
  0
TABLE
  2
VIEW
  5
6
330
0
100
AcDbSymbolTable
 70
     0
  0
ENDTAB
  0
TABLE
  2
UCS
  5
7
330
0
100
AcDbSymbolTable
 70
     0
  0
ENDTAB
  0
TABLE
  2
APPID
  5
9
330
0
100
AcDbSymbolTable
 70
     2
  0
APPID
  5
12
330
9
100
AcDbSymbolTableRecord
100
AcDbRegAppTableRecord
  2
ACAD
 70
     0
  0
APPID
  5
3F
330
9
100
AcDbSymbolTableRecord
100
AcDbRegAppTableRecord
  2
ODA
 70
     0
  0
ENDTAB
  0
TABLE
  2
DIMSTYLE
  5
A
330
0
100
AcDbSymbolTable
 70
     1
100
AcDbDimStyleTable
  0
DIMSTYLE
105
27
330
A
100
AcDbSymbolTableRecord
100
AcDbDimStyleTableRecord
  2
Standard
 70
     0
178
     0
340
11
  0
ENDTAB
  0
TABLE
  2
BLOCK_RECORD
  5
1
330
0
100
AcDbSymbolTable
 70
     1
  0
BLOCK_RECORD
  5
1F
330
1
100
AcDbSymbolTableRecord
100
AcDbBlockTableRecord
  2
*Model_Space
340
22
 70
     0
280
     1
281
     0
  0
BLOCK_RECORD
  5
1B
330
1
100
AcDbSymbolTableRecord
100
AcDbBlockTableRecord
  2
*Paper_Space
340
1E
 70
     0
280
     1
281
     0
  0
BLOCK_RECORD
  5
23
330
1
100
AcDbSymbolTableRecord
100
AcDbBlockTableRecord
  2
*Paper_Space0
340
26
 70
     0
280
     1
281
     0
  0
ENDTAB
  0
ENDSEC
  0
SECTION
  2
BLOCKS
  0
BLOCK
  5
20
330
1F
100
AcDbEntity
  8
0
100
AcDbBlockBegin
  2
*Model_Space
 70
     0
 10
0.0
 20
0.0
 30
0.0
  3
*Model_Space
  1

  0
ENDBLK
  5
21
330
1F
100
AcDbEntity
  8
0
100
AcDbBlockEnd
  0
BLOCK
  5
1C
330
1B
100
AcDbEntity
 67
     1
  8
0
100
AcDbBlockBegin
  2
*Paper_Space
 70
     0
 10
0.0
 20
0.0
 30
0.0
  3
*Paper_Space
  1

  0
ENDBLK
  5
1D
330
1B
100
AcDbEntity
 67
     1
  8
0
100
AcDbBlockEnd
  0
BLOCK
  5
24
330
23
100
AcDbEntity
  8
0
100
AcDbBlockBegin
  2
*Paper_Space0
 70
     0
 10
0.0
 20
0.0
 30
0.0
  3
*Paper_Space0
  1

  0
ENDBLK
  5
25
330
23
100
AcDbEntity
  8
0
100
AcDbBlockEnd
  0
ENDSEC
  0
SECTION
  2
ENTITIES
  0
SPLINE
  5
41
330
1F
100
AcDbEntity
  8
layer 1
 62
   250
370
     9
100
AcDbSpline
210
0.0
220
0.0
230
1.0
 70
    11
 71
     3
 72
    24
 73
    20
 74
     0
 42
0.0000000001
 43
0.0000000001
 12
1.0
 22
0.0
 32
0.0
 13
1.0
 23
0.0
 33
0.0
 40
0.0
 40
0.0
 40
0.0
 40
0.0
 40
0.1666666666666667
 40
0.1666666666666667
 40
0.1666666666666667
 40
0.1666666666666667
 40
0.3333333333333333
 40
0.3333333333333333
 40
0.3333333333333333
 40
0.3333333333333333
 40
0.5
 40
0.5
 40
0.5
 40
0.5
 40
0.6666666666666666
 40
0.6666666666666666
 40
0.6666666666666666
 40
0.6666666666666666
 40
1.0
 40
1.0
 40
1.0
 40
1.0
 10
-187.568
 20
8.4455
 30
0.0
 10
-187.568
 20
8.4455
 30
0.0
 10
-187.568
 20
131.5688
 30
0.0
 10
-187.568
 20
131.5688
 30
0.0
 10
-187.568
 20
131.5688
 30
0.0
 10
-187.568
 20
131.5688
 30
0.0
 10
59.0154
 20
131.5688
 30
0.0
 10
59.0154
 20
131.5688
 30
0.0
 10
59.0154
 20
131.5688
 30
0.0
 10
59.0154
 20
131.5688
 30
0.0
 10
59.0154
 20
-114.678
 30
0.0
 10
59.0154
 20
-114.678
 30
0.0
 10
59.0154
 20
-114.678
 30
0.0
 10
59.0154
 20
-114.678
 30
0.0
 10
-187.568
 20
-114.678
 30
0.0
 10
-187.568
 20
-114.678
 30
0.0
 10
-187.568
 20
-114.678
 30
0.0
 10
-187.568
 20
-114.678
 30
0.0
 10
-187.568
 20
8.4455
 30
0.0
 10
-187.568
 20
8.4455
 30
0.0
  0
SPLINE
  5
42
330
1F
100
AcDbEntity
  8
layer 1
 62
     7
370
     9
100
AcDbSpline
210
0.0
220
0.0
230
1.0
 70
    11
 71
     3
 72
    28
 73
    24
 74
     0
 42
0.0000000001
 43
0.0000000001
 12
1.0
 22
0.0
 32
0.0
 13
1.0
 23
0.0
 33
0.0
 40
0.0
 40
0.0
 40
0.0
 40
0.0
 40
0.1428571428571428
 40
0.1428571428571428
 40
0.1428571428571428
 40
0.1428571428571428
 40
0.2857142857142857
 40
0.2857142857142857
 40
0.2857142857142857
 40
0.2857142857142857
 40
0.4285714285714285
 40
0.4285714285714285
 40
0.4285714285714285
 40
0.4285714285714285
 40
0.5714285714285714
 40
0.5714285714285714
 40
0.5714285714285714
 40
0.5714285714285714
 40
0.7142857142857143
 40
0.7142857142857143
 40
0.7142857142857143
 40
0.7142857142857143
 40
1.0
 40
1.0
 40
1.0
 40
1.0
 10
-156.8124
 20
-78.948
 30
0.0
 10
-159.0641
 20
-79.9167
 30
0.0
 10
-160.96
 20
-81.2561
 30
0.0
 10
-162.3433
 20
-82.8546
 30
0.0
 10
-162.3433
 20
-82.8546
 30
0.0
 10
-162.3433
 20
-82.8546
 30
0.0
 10
-162.3433
 20
-96.9094
 30
0.0
 10
-162.3433
 20
-96.9094
 30
0.0
 10
-162.3433
 20
-96.9094
 30
0.0
 10
-162.3433
 20
-96.9094
 30
0.0
 10
-125.7459
 20
-96.9094
 30
0.0
 10
-125.7459
 20
-96.9094
 30
0.0
 10
-125.7459
 20
-96.9094
 30
0.0
 10
-131.2376
 20
-93.8832
 30
0.0
 10
-136.2701
 20
-90.4524
 30
0.0
 10
-140.7603
 20
-86.6733
 30
0.0
 10
-140.7603
 20
-86.6733
 30
0.0
 10
-142.9818
 20
-84.2564
 30
0.0
 10
-145.2757
 20
-81.8739
 30
0.0
 10
-147.6398
 20
-79.5274
 30
0.0
 10
-147.6398
 20
-79.5274
 30
0.0
 10
-150.3874
 20
-78.2851
 30
0.0
 10
-153.8039
 20
-78.0693
 30
0.0
 10
-156.8124
 20
-78.948
 30
0.0
  0
SPLINE
  5
43
330
1F
100
AcDbEntity
  8
layer 1
 62
     7
370
     9
100
AcDbSpline
210
0.0
220
0.0
230
1.0
 70
    11
 71
     3
 72
    32
 73
    28
 74
     0
 42
0.0000000001
 43
0.0000000001
 12
1.0
 22
0.0
 32
0.0
 13
1.0
 23
0.0
 33
0.0
 40
0.0
 40
0.0
 40
0.0
 40
0.0
 40
0.125
 40
0.125
 40
0.125
 40
0.125
 40
0.25
 40
0.25
 40
0.25
 40
0.25
 40
0.375
 40
0.375
 40
0.375
 40
0.375
 40
0.5
 40
0.5
 40
0.5
 40
0.5
 40
0.625
 40
0.625
 40
0.625
 40
0.625
 40
0.75
 40
0.75
 40
0.75
 40
0.75
 40
1.0
 40
1.0
 40
1.0
 40
1.0
 10
-86.3989
 20
-83.1005
 30
0.0
 10
-90.6295
 20
-88.996
 30
0.0
 10
-97.2912
 20
-93.8169
 30
0.0
 10
-105.4797
 20
-96.9094
 30
0.0
 10
-105.4797
 20
-96.9094
 30
0.0
 10
-105.4797
 20
-96.9094
 30
0.0
 10
-93.1403
 20
-96.9094
 30
0.0
 10
-93.1403
 20
-96.9094
 30
0.0
 10
-93.1403
 20
-96.9094
 30
0.0
 10
-92.31
 20
-95.093
 30
0.0
 10
-91.0068
 20
-93.4055
 30
0.0
 10
-89.299
 20
-91.9363
 30
0.0
 10
-89.299
 20
-91.9363
 30
0.0
 10
-87.5186
 20
-90.6226
 30
0.0
 10
-84.6427
 20
-90.477
 30
0.0
 10
-82.6215
 20
-91.5983
 30
0.0
 10
-82.6215
 20
-91.5983
 30
0.0
 10
-81.4739
 20
-92.3557
 30
0.0
 10
-80.4956
 20
-93.2352
 30
0.0
 10
-79.7214
 20
-94.2057
 30
0.0
 10
-79.7214
 20
-94.2057
 30
0.0
 10
-80.0231
 20
-91.3434
 30
0.0
 10
-79.9781
 20
-88.468
 30
0.0
 10
-79.5867
 20
-85.6112
 30
0.0
 10
-79.5867
 20
-85.6112
 30
0.0
 10
-81.821
 20
-84.7247
 30
0.0
 10
-84.0929
 20
-83.8874
 30
0.0
 10
-86.3989
 20
-83.1005
 30
0.0
  0
SPLINE
  5
44
330
1F
100
AcDbEntity
  8
layer 1
 62
     7
370
     9
100
AcDbSpline
210
0.0
220
0.0
230
1.0
 70
    11
 71
     3
 72
    40
 73
    36
 74
     0
 42
0.0000000001
 43
0.0000000001
 12
1.0
 22
0.0
 32
0.0
 13
1.0
 23
0.0
 33
0.0
 40
0.0
 40
0.0
 40
0.0
 40
0.0
 40
0.1
 40
0.1
 40
0.1
 40
0.1
 40
0.2
 40
0.2
 40
0.2
 40
0.2
 40
0.3
 40
0.3
 40
0.3
 40
0.3
 40
0.4
 40
0.4
 40
0.4
 40
0.4
 40
0.5
 40
0.5
 40
0.5
 40
0.5
 40
0.6
 40
0.6
 40
0.6
 40
0.6
 40
0.7
 40
0.7
 40
0.7
 40
0.7
 40
0.8
 40
0.8
 40
0.8
 40
0.8
 40
1.0
 40
1.0
 40
1.0
 40
1.0
 10
-75.2701
 20
-91.1638
 30
0.0
 10
-75.2328
 20
-93.0789
 30
0.0
 10
-75.2109
 20
-94.9942
 30
0.0
 10
-75.2043
 20
-96.9094
 30
0.0
 10
-75.2043
 20
-96.9094
 30
0.0
 10
-75.2043
 20
-96.9094
 30
0.0
 10
-53.3485
 20
-96.9094
 30
0.0
 10
-53.3485
 20
-96.9094
 30
0.0
 10
-53.3485
 20
-96.9094
 30
0.0
 10
-53.3419
 20
-94.9942
 30
0.0
 10
-53.32
 20
-93.0789
 30
0.0
 10
-53.2828
 20
-91.1638
 30
0.0
 10
-53.2828
 20
-91.1638
 30
0.0
 10
-53.1708
 20
-90.5718
 30
0.0
 10
-53.4031
 20
-89.9728
 30
0.0
 10
-53.9263
 20
-89.5072
 30
0.0
 10
-53.9263
 20
-89.5072
 30
0.0
 10
-54.4492
 20
-89.0414
 30
0.0
 10
-55.2162
 20
-88.7501
 30
0.0
 10
-56.0478
 20
-88.7014
 30
0.0
 10
-56.0478
 20
-88.7014
 30
0.0
 10
-59.0667
 20
-88.4347
 30
0.0
 10
-61.9189
 20
-87.563
 30
0.0
 10
-64.2765
 20
-86.1872
 30
0.0
 10
-64.2765
 20
-86.1872
 30
0.0
 10
-66.634
 20
-87.563
 30
0.0
 10
-69.4862
 20
-88.4347
 30
0.0
 10
-72.5047
 20
-88.7014
 30
0.0
 10
-72.5047
 20
-88.7014
 30
0.0
 10
-73.3366
 20
-88.7501
 30
0.0
 10
-74.1038
 20
-89.0414
 30
0.0
 10
-74.6265
 20
-89.5072
 30
0.0
 10
-74.6265
 20
-89.5072
 30
0.0
 10
-75.1494
 20
-89.9728
 30
0.0
 10
-75.3821
 20
-90.5718
 30
0.0
 10
-75.2701
 20
-91.1638
 30
0.0
  0
SPLINE
  5
45
330
1F
100
AcDbEntity
  8
layer 1
 62
     7
370
     9
100
AcDbSpline
210
0.0
220
0.0
230
1.0
 70
    11
 71
     3
 72
    68
 73
    64
 74
     0
 42
0.0000000001
 43
0.0000000001
 12
1.0
 22
0.0
 32
0.0
 13
1.0
 23
0.0
 33
0.0
 40
0.0
 40
0.0
 40
0.0
 40
0.0
 40
0.0588235294117647
 40
0.0588235294117647
 40
0.0588235294117647
 40
0.0588235294117647
 40
0.1176470588235294
 40
0.1176470588235294
 40
0.1176470588235294
 40
0.1176470588235294
 40
0.1764705882352941
 40
0.1764705882352941
 40
0.1764705882352941
 40
0.1764705882352941
 40
0.2352941176470588
 40
0.2352941176470588
 40
0.2352941176470588
 40
0.2352941176470588
 40
0.2941176470588235
 40
0.2941176470588235
 40
0.2941176470588235
 40
0.2941176470588235
 40
0.3529411764705883
 40
0.3529411764705883
 40
0.3529411764705883
 40
0.3529411764705883
 40
0.4117647058823529
 40
0.4117647058823529
 40
0.4117647058823529
 40
0.4117647058823529
 40
0.4705882352941176
 40
0.4705882352941176
 40
0.4705882352941176
 40
0.4705882352941176
 40
0.5294117647058824
 40
0.5294117647058824
 40
0.5294117647058824
 40
0.5294117647058824
 40
0.5882352941176471
 40
0.5882352941176471
 40
0.5882352941176471
 40
0.5882352941176471
 40
0.6470588235294118
 40
0.6470588235294118
 40
0.6470588235294118
 40
0.6470588235294118
 40
0.7058823529411765
 40
0.7058823529411765
 40
0.7058823529411765
 40
0.7058823529411765
 40
0.7647058823529411
 40
0.7647058823529411
 40
0.7647058823529411
 40
0.7647058823529411
 40
0.8235294117647058
 40
0.8235294117647058
 40
0.8235294117647058
 40
0.8235294117647058
 40
0.8823529411764706
 40
0.8823529411764706
 40
0.8823529411764706
 40
0.8823529411764706
 40
1.0
 40
1.0
 40
1.0
 40
1.0
 10
-67.1766
 20
-73.9265
 30
0.0
 10
-66.3992
 20
-73.3858
 30
0.0
 10
-65.3606
 20
-73.0803
 30
0.0
 10
-64.2765
 20
-73.0743
 30
0.0
 10
-64.2765
 20
-73.0743
 30
0.0
 10
-63.1923
 20
-73.0803
 30
0.0
 10
-62.1537
 20
-73.3858
 30
0.0
 10
-61.3762
 20
-73.9265
 30
0.0
 10
-61.3762
 20
-73.9265
 30
0.0
 10
-59.6597
 20
-75.6592
 30
0.0
 10
-59.1968
 20
-77.8729
 30
0.0
 10
-60.1285
 20
-79.8894
 30
0.0
 10
-60.1285
 20
-79.8894
 30
0.0
 10
-60.5674
 20
-81.1216
 30
0.0
 10
-61.051
 20
-82.3452
 30
0.0
 10
-61.5788
 20
-83.5591
 30
0.0
 10
-61.5788
 20
-83.5591
 30
0.0
 10
-61.0088
 20
-84.2989
 30
0.0
 10
-59.9962
 20
-84.8108
 30
0.0
 10
-58.8315
 20
-84.9471
 30
0.0
 10
-58.8315
 20
-84.9471
 30
0.0
 10
-57.6667
 20
-85.084
 30
0.0
 10
-56.4793
 20
-84.8302
 30
0.0
 10
-55.6093
 20
-84.2591
 30
0.0
 10
-55.6093
 20
-84.2591
 30
0.0
 10
-53.9247
 20
-82.686
 30
0.0
 10
-53.3977
 20
-80.6295
 30
0.0
 10
-54.1933
 20
-78.7308
 30
0.0
 10
-54.1933
 20
-78.7308
 30
0.0
 10
-55.3725
 20
-76.1748
 30
0.0
 10
-56.7228
 20
-73.6611
 30
0.0
 10
-58.24
 20
-71.1986
 30
0.0
 10
-58.24
 20
-71.1986
 30
0.0
 10
-60.9687
 20
-65.898
 30
0.0
 10
-62.9898
 20
-60.4248
 30
0.0
 10
-64.2765
 20
-54.8514
 30
0.0
 10
-64.2765
 20
-54.8514
 30
0.0
 10
-65.5631
 20
-60.4248
 30
0.0
 10
-67.5841
 20
-65.898
 30
0.0
 10
-70.3129
 20
-71.1986
 30
0.0
 10
-70.3129
 20
-71.1986
 30
0.0
 10
-71.8301
 20
-73.6611
 30
0.0
 10
-73.1803
 20
-76.1748
 30
0.0
 10
-74.3595
 20
-78.7308
 30
0.0
 10
-74.3595
 20
-78.7308
 30
0.0
 10
-75.1551
 20
-80.6295
 30
0.0
 10
-74.6282
 20
-82.686
 30
0.0
 10
-72.9432
 20
-84.2591
 30
0.0
 10
-72.9432
 20
-84.2591
 30
0.0
 10
-72.0735
 20
-84.8302
 30
0.0
 10
-70.8856
 20
-85.084
 30
0.0
 10
-69.721
 20
-84.9471
 30
0.0
 10
-69.721
 20
-84.9471
 30
0.0
 10
-68.5566
 20
-84.8108
 30
0.0
 10
-67.544
 20
-84.2989
 30
0.0
 10
-66.9741
 20
-83.5591
 30
0.0
 10
-66.9741
 20
-83.5591
 30
0.0
 10
-67.5019
 20
-82.3452
 30
0.0
 10
-67.9855
 20
-81.1216
 30
0.0
 10
-68.4244
 20
-79.8894
 30
0.0
 10
-68.4244
 20
-79.8894
 30
0.0
 10
-69.356
 20
-77.8729
 30
0.0
 10
-68.8927
 20
-75.6592
 30
0.0
 10
-67.1766
 20
-73.9265
 30
0.0
  0
SPLINE
  5
46
330
1F
100
AcDbEntity
  8
layer 1
 62
     7
370
     9
100
AcDbSpline
210
0.0
220
0.0
230
1.0
 70
    11
 71
     3
 72
    20
 73
    16
 74
     0
 42
0.0000000001
 43
0.0000000001
 12
1.0
 22
0.0
 32
0.0
 13
1.0
 23
0.0
 33
0.0
 40
0.0
 40
0.0
 40
0.0
 40
0.0
 40
0.2
 40
0.2
 40
0.2
 40
0.2
 40
0.4
 40
0.4
 40
0.4
 40
0.4
 40
0.6
 40
0.6
 40
0.6
 40
0.6
 40
1.0
 40
1.0
 40
1.0
 40
1.0
 10
-70.0094
 20
-18.0141
 30
0.0
 10
-67.2919
 20
-24.1614
 30
0.0
 10
-65.373
 20
-30.4751
 30
0.0
 10
-64.2765
 20
-36.8749
 30
0.0
 10
-64.2765
 20
-36.8749
 30
0.0
 10
-63.1799
 20
-30.4751
 30
0.0
 10
-61.2605
 20
-24.1614
 30
0.0
 10
-58.5434
 20
-18.0141
 30
0.0
 10
-58.5434
 20
-18.0141
 30
0.0
 10
-60.5435
 20
-17.826
 30
0.0
 10
-62.4827
 20
-17.3921
 30
0.0
 10
-64.2765
 20
-16.7315
 30
0.0
 10
-64.2765
 20
-16.7315
 30
0.0
 10
-66.0698
 20
-17.3921
 30
0.0
 10
-68.0094
 20
-17.826
 30
0.0
 10
-70.0094
 20
-18.0141
 30
0.0
  0
SPLINE
  5
47
330
1F
100
AcDbEntity
  8
layer 1
 62
     7
370
     9
100
AcDbSpline
210
0.0
220
0.0
230
1.0
 70
    11
 71
     3
 72
    20
 73
    16
 74
     0
 42
0.0000000001
 43
0.0000000001
 12
1.0
 22
0.0
 32
0.0
 13
1.0
 23
0.0
 33
0.0
 40
0.0
 40
0.0
 40
0.0
 40
0.0
 40
0.2
 40
0.2
 40
0.2
 40
0.2
 40
0.4
 40
0.4
 40
0.4
 40
0.4
 40
0.6
 40
0.6
 40
0.6
 40
0.6
 40
1.0
 40
1.0
 40
1.0
 40
1.0
 10
-78.8861
 20
8.4455
 30
0.0
 10
-75.8409
 20
12.7763
 30
0.0
 10
-70.6229
 20
16.1237
 30
0.0
 10
-64.2765
 20
17.8172
 30
0.0
 10
-64.2765
 20
17.8172
 30
0.0
 10
-57.9301
 20
16.1237
 30
0.0
 10
-52.712
 20
12.7763
 30
0.0
 10
-49.6668
 20
8.4455
 30
0.0
 10
-49.6668
 20
8.4455
 30
0.0
 10
-52.712
 20
4.1147
 30
0.0
 10
-57.9301
 20
0.7672
 30
0.0
 10
-64.2765
 20
-0.9263
 30
0.0
 10
-64.2765
 20
-0.9263
 30
0.0
 10
-70.6229
 20
0.7672
 30
0.0
 10
-75.8409
 20
4.1147
 30
0.0
 10
-78.8861
 20
8.4455
 30
0.0
  0
SPLINE
  5
48
330
1F
100
AcDbEntity
  8
layer 1
 62
     7
370
     9
100
AcDbSpline
210
0.0
220
0.0
230
1.0
 70
    11
 71
     3
 72
    16
 73
    12
 74
     0
 42
0.0000000001
 43
0.0000000001
 12
1.0
 22
0.0
 32
0.0
 13
1.0
 23
0.0
 33
0.0
 40
0.0
 40
0.0
 40
0.0
 40
0.0
 40
0.25
 40
0.25
 40
0.25
 40
0.25
 40
0.5
 40
0.5
 40
0.5
 40
0.5
 40
1.0
 40
1.0
 40
1.0
 40
1.0
 10
-91.2259
 20
8.4455
 30
0.0
 10
-87.7429
 20
9.6526
 30
0.0
 10
-84.5076
 20
11.1959
 30
0.0
 10
-81.6102
 20
13.0322
 30
0.0
 10
-81.6102
 20
13.0322
 30
0.0
 10
-81.6102
 20
13.0322
 30
0.0
 10
-81.6102
 20
3.8585
 30
0.0
 10
-81.6102
 20
3.8585
 30
0.0
 10
-81.6102
 20
3.8585
 30
0.0
 10
-84.5076
 20
5.6948
 30
0.0
 10
-87.7429
 20
7.2382
 30
0.0
 10
-91.2259
 20
8.4455
 30
0.0
  0
SPLINE
  5
49
330
1F
100
AcDbEntity
  8
layer 1
 62
     7
370
     9
100
AcDbSpline
210
0.0
220
0.0
230
1.0
 70
    11
 71
     3
 72
    24
 73
    20
 74
     0
 42
0.0000000001
 43
0.0000000001
 12
1.0
 22
0.0
 32
0.0
 13
1.0
 23
0.0
 33
0.0
 40
0.0
 40
0.0
 40
0.0
 40
0.0
 40
0.1666666666666667
 40
0.1666666666666667
 40
0.1666666666666667
 40
0.1666666666666667
 40
0.3333333333333333
 40
0.3333333333333333
 40
0.3333333333333333
 40
0.3333333333333333
 40
0.5
 40
0.5
 40
0.5
 40
0.5
 40
0.6666666666666666
 40
0.6666666666666666
 40
0.6666666666666666
 40
0.6666666666666666
 40
1.0
 40
1.0
 40
1.0
 40
1.0
 10
-162.3433
 20
-2.891
 30
0.0
 10
-162.3433
 20
-2.891
 30
0.0
 10
-162.3433
 20
19.7818
 30
0.0
 10
-162.3433
 20
19.7818
 30
0.0
 10
-162.3433
 20
19.7818
 30
0.0
 10
-160.0201
 20
22.0929
 30
0.0
 10
-157.8155
 20
24.4637
 30
0.0
 10
-155.7336
 20
26.8897
 30
0.0
 10
-155.7336
 20
26.8897
 30
0.0
 10
-151.0182
 20
19.7368
 30
0.0
 10
-144.1189
 20
13.4337
 30
0.0
 10
-135.5447
 20
8.4455
 30
0.0
 10
-135.5447
 20
8.4455
 30
0.0
 10
-144.1189
 20
3.4574
 30
0.0
 10
-151.0182
 20
-2.8461
 30
0.0
 10
-155.7336
 20
-9.999
 30
0.0
 10
-155.7336
 20
-9.999
 30
0.0
 10
-157.8155
 20
-7.573
 30
0.0
 10
-160.0201
 20
-5.2021
 30
0.0
 10
-162.3433
 20
-2.891
 30
0.0
  0
SPLINE
  5
4A
330
1F
100
AcDbEntity
  8
layer 1
 62
     7
370
     9
100
AcDbSpline
210
0.0
220
0.0
230
1.0
 70
    11
 71
     3
 72
    16
 73
    12
 74
     0
 42
0.0000000001
 43
0.0000000001
 12
1.0
 22
0.0
 32
0.0
 13
1.0
 23
0.0
 33
0.0
 40
0.0
 40
0.0
 40
0.0
 40
0.0
 40
0.25
 40
0.25
 40
0.25
 40
0.25
 40
0.5
 40
0.5
 40
0.5
 40
0.5
 40
1.0
 40
1.0
 40
1.0
 40
1.0
 10
-162.3433
 20
-70.9583
 30
0.0
 10
-162.3433
 20
-70.9583
 30
0.0
 10
-162.3433
 20
-61.5006
 30
0.0
 10
-162.3433
 20
-61.5006
 30
0.0
 10
-162.3433
 20
-61.5006
 30
0.0
 10
-161.4121
 20
-63.5444
 30
0.0
 10
-160.3772
 20
-65.5633
 30
0.0
 10
-159.2405
 20
-67.553
 30
0.0
 10
-159.2405
 20
-67.553
 30
0.0
 10
-160.2239
 20
-68.7117
 30
0.0
 10
-161.2584
 20
-69.8473
 30
0.0
 10
-162.3433
 20
-70.9583
 30
0.0
  0
SPLINE
  5
4B
330
1F
100
AcDbEntity
  8
layer 1
 62
     7
370
     9
100
AcDbSpline
210
0.0
220
0.0
230
1.0
 70
    11
 71
     3
 72
    16
 73
    12
 74
     0
 42
0.0000000001
 43
0.0000000001
 12
1.0
 22
0.0
 32
0.0
 13
1.0
 23
0.0
 33
0.0
 40
0.0
 40
0.0
 40
0.0
 40
0.0
 40
0.25
 40
0.25
 40
0.25
 40
0.25
 40
0.5
 40
0.5
 40
0.5
 40
0.5
 40
1.0
 40
1.0
 40
1.0
 40
1.0
 10
-85.1171
 20
-80.7827
 30
0.0
 10
-80.2979
 20
-75.6944
 30
0.0
 10
-76.591
 20
-70.11
 30
0.0
 10
-74.1236
 20
-64.2215
 30
0.0
 10
-74.1236
 20
-64.2215
 30
0.0
 10
-75.3329
 20
-70.4636
 30
0.0
 10
-77.0217
 20
-76.6534
 30
0.0
 10
-79.182
 20
-82.7623
 30
0.0
 10
-79.182
 20
-82.7623
 30
0.0
 10
-81.2106
 20
-82.1824
 30
0.0
 10
-83.192
 20
-81.5214
 30
0.0
 10
-85.1171
 20
-80.7827
 30
0.0
  0
SPLINE
  5
4C
330
1F
100
AcDbEntity
  8
layer 1
 62
     7
370
     9
100
AcDbSpline
210
0.0
220
0.0
230
1.0
 70
    11
 71
     3
 72
    40
 73
    36
 74
     0
 42
0.0000000001
 43
0.0000000001
 12
1.0
 22
0.0
 32
0.0
 13
1.0
 23
0.0
 33
0.0
 40
0.0
 40
0.0
 40
0.0
 40
0.0
 40
0.1
 40
0.1
 40
0.1
 40
0.1
 40
0.2
 40
0.2
 40
0.2
 40
0.2
 40
0.3
 40
0.3
 40
0.3
 40
0.3
 40
0.4
 40
0.4
 40
0.4
 40
0.4
 40
0.5
 40
0.5
 40
0.5
 40
0.5
 40
0.6
 40
0.6
 40
0.6
 40
0.6
 40
0.7
 40
0.7
 40
0.7
 40
0.7
 40
0.8
 40
0.8
 40
0.8
 40
0.8
 40
1.0
 40
1.0
 40
1.0
 40
1.0
 10
-117.0194
 20
-81.7969
 30
0.0
 10
-115.2644
 20
-77.6362
 30
0.0
 10
-111.0846
 20
-74.2214
 30
0.0
 10
-105.5533
 20
-72.4297
 30
0.0
 10
-105.5533
 20
-72.4297
 30
0.0
 10
-101.5339
 20
-71.4079
 30
0.0
 10
-97.8082
 20
-69.87
 30
0.0
 10
-94.5597
 20
-67.8911
 30
0.0
 10
-94.5597
 20
-67.8911
 30
0.0
 10
-93.8058
 20
-70.9346
 30
0.0
 10
-92.9287
 20
-73.9614
 30
0.0
 10
-91.9293
 20
-76.9683
 30
0.0
 10
-91.9293
 20
-76.9683
 30
0.0
 10
-93.2961
 20
-78.0257
 30
0.0
 10
-94.8102
 20
-78.9804
 30
0.0
 10
-96.448
 20
-79.8171
 30
0.0
 10
-96.448
 20
-79.8171
 30
0.0
 10
-97.7252
 20
-80.9504
 30
0.0
 10
-99.7376
 20
-81.5225
 30
0.0
 10
-101.7529
 20
-81.325
 30
0.0
 10
-101.7529
 20
-81.325
 30
0.0
 10
-103.7678
 20
-81.1273
 30
0.0
 10
-105.4913
 20
-80.1888
 30
0.0
 10
-106.2956
 20
-78.8514
 30
0.0
 10
-106.2956
 20
-78.8514
 30
0.0
 10
-108.0526
 20
-81.7928
 30
0.0
 10
-107.0557
 20
-85.2065
 30
0.0
 10
-103.8
 20
-87.3978
 30
0.0
 10
-103.8
 20
-87.3978
 30
0.0
 10
-106.1997
 20
-88.4893
 30
0.0
 10
-109.2776
 20
-88.4514
 30
0.0
 10
-111.6236
 20
-87.3011
 30
0.0
 10
-111.6236
 20
-87.3011
 30
0.0
 10
-114.246
 20
-85.9605
 30
0.0
 10
-116.1502
 20
-84.0184
 30
0.0
 10
-117.0194
 20
-81.7969
 30
0.0
  0
SPLINE
  5
4D
330
1F
100
AcDbEntity
  8
layer 1
 62
     7
370
     9
100
AcDbSpline
210
0.0
220
0.0
230
1.0
 70
    11
 71
     3
 72
    16
 73
    12
 74
     0
 42
0.0000000001
 43
0.0000000001
 12
1.0
 22
0.0
 32
0.0
 13
1.0
 23
0.0
 33
0.0
 40
0.0
 40
0.0
 40
0.0
 40
0.0
 40
0.25
 40
0.25
 40
0.25
 40
0.25
 40
0.5
 40
0.5
 40
0.5
 40
0.5
 40
1.0
 40
1.0
 40
1.0
 40
1.0
 10
-89.5011
 20
-74.7957
 30
0.0
 10
-90.1422
 20
-71.7691
 30
0.0
 10
-91.0204
 20
-68.7709
 30
0.0
 10
-92.1319
 20
-65.8149
 30
0.0
 10
-92.1319
 20
-65.8149
 30
0.0
 10
-82.3599
 20
-57.795
 30
0.0
 10
-75.728
 20
-48.0662
 30
0.0
 10
-72.9097
 20
-37.6172
 30
0.0
 10
-72.9097
 20
-37.6172
 30
0.0
 10
-72.3103
 20
-51.0065
 30
0.0
 10
-78.1694
 20
-64.1349
 30
0.0
 10
-89.5011
 20
-74.7957
 30
0.0
  0
SPLINE
  5
4E
330
1F
100
AcDbEntity
  8
layer 1
 62
     7
370
     9
100
AcDbSpline
210
0.0
220
0.0
230
1.0
 70
    11
 71
     3
 72
    48
 73
    44
 74
     0
 42
0.0000000001
 43
0.0000000001
 12
1.0
 22
0.0
 32
0.0
 13
1.0
 23
0.0
 33
0.0
 40
0.0
 40
0.0
 40
0.0
 40
0.0
 40
0.0833333333333333
 40
0.0833333333333333
 40
0.0833333333333333
 40
0.0833333333333333
 40
0.1666666666666667
 40
0.1666666666666667
 40
0.1666666666666667
 40
0.1666666666666667
 40
0.25
 40
0.25
 40
0.25
 40
0.25
 40
0.3333333333333333
 40
0.3333333333333333
 40
0.3333333333333333
 40
0.3333333333333333
 40
0.4166666666666667
 40
0.4166666666666667
 40
0.4166666666666667
 40
0.4166666666666667
 40
0.5
 40
0.5
 40
0.5
 40
0.5
 40
0.5833333333333334
 40
0.5833333333333334
 40
0.5833333333333334
 40
0.5833333333333334
 40
0.6666666666666666
 40
0.6666666666666666
 40
0.6666666666666666
 40
0.6666666666666666
 40
0.75
 40
0.75
 40
0.75
 40
0.75
 40
0.8333333333333334
 40
0.8333333333333334
 40
0.8333333333333334
 40
0.8333333333333334
 40
1.0
 40
1.0
 40
1.0
 40
1.0
 10
-103.4628
 20
-37.279
 30
0.0
 10
-102.401
 20
-33.6919
 30
0.0
 10
-104.0984
 20
-29.9722
 30
0.0
 10
-107.9141
 20
-27.5259
 30
0.0
 10
-107.9141
 20
-27.5259
 30
0.0
 10
-110.861
 20
-26.5926
 30
0.0
 10
-114.2944
 20
-26.9491
 30
0.0
 10
-116.7494
 20
-28.4433
 30
0.0
 10
-116.7494
 20
-28.4433
 30
0.0
 10
-120.9309
 20
-32.4556
 30
0.0
 10
-122.7251
 20
-37.4895
 30
0.0
 10
-121.7406
 20
-42.4455
 30
0.0
 10
-121.7406
 20
-42.4455
 30
0.0
 10
-121.4211
 20
-48.0816
 30
0.0
 10
-117.4257
 20
-53.2838
 30
0.0
 10
-110.949
 20
-56.4962
 30
0.0
 10
-110.949
 20
-56.4962
 30
0.0
 10
-104.3907
 20
-59.236
 30
0.0
 10
-96.0844
 20
-58.5051
 30
0.0
 10
-90.6476
 20
-54.7097
 30
0.0
 10
-90.6476
 20
-54.7097
 30
0.0
 10
-91.4656
 20
-52.1197
 30
0.0
 10
-92.1628
 20
-49.5108
 30
0.0
 10
-92.7386
 20
-46.8875
 30
0.0
 10
-92.7386
 20
-46.8875
 30
0.0
 10
-94.3807
 20
-49.2264
 30
0.0
 10
-97.5991
 20
-50.7887
 30
0.0
 10
-101.2424
 20
-51.0151
 30
0.0
 10
-101.2424
 20
-51.0151
 30
0.0
 10
-104.8853
 20
-51.2416
 30
0.0
 10
-108.4316
 20
-50.0994
 30
0.0
 10
-110.6118
 20
-47.9983
 30
0.0
 10
-110.6118
 20
-47.9983
 30
0.0
 10
-114.5808
 20
-44.518
 30
0.0
 10
-115.6364
 20
-39.7808
 30
0.0
 10
-113.3772
 20
-35.5894
 30
0.0
 10
-113.3772
 20
-35.5894
 30
0.0
 10
-112.5613
 20
-34.3345
 30
0.0
 10
-110.7915
 20
-33.5402
 30
0.0
 10
-108.8581
 20
-33.5613
 30
0.0
 10
-108.8581
 20
-33.5613
 30
0.0
 10
-106.5072
 20
-34.3101
 30
0.0
 10
-104.5977
 20
-35.6259
 30
0.0
 10
-103.4628
 20
-37.279
 30
0.0
  0
SPLINE
  5
4F
330
1F
100
AcDbEntity
  8
layer 1
 62
     7
370
     9
100
AcDbSpline
210
0.0
220
0.0
230
1.0
 70
    11
 71
     3
 72
    20
 73
    16
 74
     0
 42
0.0000000001
 43
0.0000000001
 12
1.0
 22
0.0
 32
0.0
 13
1.0
 23
0.0
 33
0.0
 40
0.0
 40
0.0
 40
0.0
 40
0.0
 40
0.2
 40
0.2
 40
0.2
 40
0.2
 40
0.4
 40
0.4
 40
0.4
 40
0.4
 40
0.6
 40
0.6
 40
0.6
 40
0.6
 40
1.0
 40
1.0
 40
1.0
 40
1.0
 10
-90.5803
 20
-44.7631
 30
0.0
 10
-86.8981
 20
-37.2385
 30
0.0
 10
-87.0895
 20
-29.0198
 30
0.0
 10
-91.1201
 20
-21.5869
 30
0.0
 10
-91.1201
 20
-21.5869
 30
0.0
 10
-90.7568
 20
-18.854
 30
0.0
 10
-90.4422
 20
-16.1177
 30
0.0
 10
-90.1757
 20
-13.3789
 30
0.0
 10
-90.1757
 20
-13.3789
 30
0.0
 10
-78.026
 20
-25.1797
 30
0.0
 10
-77.223
 20
-41.1053
 30
0.0
 10
-88.1525
 20
-53.5026
 30
0.0
 10
-88.1525
 20
-53.5026
 30
0.0
 10
-88.9188
 20
-50.5833
 30
0.0
 10
-89.728
 20
-47.6701
 30
0.0
 10
-90.5803
 20
-44.7631
 30
0.0
  0
SPLINE
  5
50
330
1F
100
AcDbEntity
  8
layer 1
 62
     7
370
     9
100
AcDbSpline
210
0.0
220
0.0
230
1.0
 70
    11
 71
     3
 72
    32
 73
    28
 74
     0
 42
0.0000000001
 43
0.0000000001
 12
1.0
 22
0.0
 32
0.0
 13
1.0
 23
0.0
 33
0.0
 40
0.0
 40
0.0
 40
0.0
 40
0.0
 40
0.125
 40
0.125
 40
0.125
 40
0.125
 40
0.25
 40
0.25
 40
0.25
 40
0.25
 40
0.375
 40
0.375
 40
0.375
 40
0.375
 40
0.5
 40
0.5
 40
0.5
 40
0.5
 40
0.625
 40
0.625
 40
0.625
 40
0.625
 40
0.75
 40
0.75
 40
0.75
 40
0.75
 40
1.0
 40
1.0
 40
1.0
 40
1.0
 10
-94.0203
 20
-19.6556
 30
0.0
 10
-97.0829
 20
-15.8426
 30
0.0
 10
-102.8977
 20
-13.5999
 30
0.0
 10
-109.0309
 20
-13.8659
 30
0.0
 10
-109.0309
 20
-13.8659
 30
0.0
 10
-115.1636
 20
-14.1321
 30
0.0
 10
-120.5573
 20
-16.8611
 30
0.0
 10
-122.9545
 20
-20.9111
 30
0.0
 10
-122.9545
 20
-20.9111
 30
0.0
 10
-125.3517
 20
-16.6855
 30
0.0
 10
-126.4555
 20
-12.1413
 30
0.0
 10
-126.1919
 20
-7.5849
 30
0.0
 10
-126.1919
 20
-7.5849
 30
0.0
 10
-126.4547
 20
-5.5746
 30
0.0
 10
-125.3318
 20
-3.599
 30
0.0
 10
-123.1831
 20
-2.2915
 30
0.0
 10
-123.1831
 20
-2.2915
 30
0.0
 10
-121.0343
 20
-0.9838
 30
0.0
 10
-118.1294
 20
-0.5088
 30
0.0
 10
-115.4008
 20
-1.0182
 30
0.0
 10
-115.4008
 20
-1.0182
 30
0.0
 10
-106.5675
 20
-2.3446
 30
0.0
 10
-98.6526
 20
-5.8265
 30
0.0
 10
-93.0085
 20
-10.8679
 30
0.0
 10
-93.0085
 20
-10.8679
 30
0.0
 10
-93.3367
 20
-13.7977
 30
0.0
 10
-93.674
 20
-16.7269
 30
0.0
 10
-94.0203
 20
-19.6556
 30
0.0
  0
SPLINE
  5
51
330
1F
100
AcDbEntity
  8
layer 1
 62
     7
370
     9
100
AcDbSpline
210
0.0
220
0.0
230
1.0
 70
    11
 71
     3
 72
    24
 73
    20
 74
     0
 42
0.0000000001
 43
0.0000000001
 12
1.0
 22
0.0
 32
0.0
 13
1.0
 23
0.0
 33
0.0
 40
0.0
 40
0.0
 40
0.0
 40
0.0
 40
0.1666666666666667
 40
0.1666666666666667
 40
0.1666666666666667
 40
0.1666666666666667
 40
0.3333333333333333
 40
0.3333333333333333
 40
0.3333333333333333
 40
0.3333333333333333
 40
0.5
 40
0.5
 40
0.5
 40
0.5
 40
0.6666666666666666
 40
0.6666666666666666
 40
0.6666666666666666
 40
0.6666666666666666
 40
1.0
 40
1.0
 40
1.0
 40
1.0
 10
-145.4815
 20
-24.7739
 30
0.0
 10
-142.8528
 20
-24.1693
 30
0.0
 10
-139.9771
 20
-24.5304
 30
0.0
 10
-137.7926
 20
-25.7394
 30
0.0
 10
-137.7926
 20
-25.7394
 30
0.0
 10
-140.056
 20
-32.3986
 30
0.0
 10
-137.5256
 20
-39.427
 30
0.0
 10
-131.0483
 20
-44.4737
 30
0.0
 10
-131.0483
 20
-44.4737
 30
0.0
 10
-133.2285
 20
-38.9049
 30
0.0
 10
-133.5058
 20
-33.0427
 30
0.0
 10
-131.8576
 20
-27.381
 30
0.0
 10
-131.8576
 20
-27.381
 30
0.0
 10
-130.9495
 20
-22.1079
 30
0.0
 10
-132.2646
 20
-16.7607
 30
0.0
 10
-135.6343
 20
-12.0268
 30
0.0
 10
-135.6343
 20
-12.0268
 30
0.0
 10
-140.1998
 20
-15.6989
 30
0.0
 10
-143.5638
 20
-20.0535
 30
0.0
 10
-145.4815
 20
-24.7739
 30
0.0
  0
SPLINE
  5
52
330
1F
100
AcDbEntity
  8
layer 1
 62
     7
370
     9
100
AcDbSpline
210
0.0
220
0.0
230
1.0
 70
    11
 71
     3
 72
    16
 73
    12
 74
     0
 42
0.0000000001
 43
0.0000000001
 12
1.0
 22
0.0
 32
0.0
 13
1.0
 23
0.0
 33
0.0
 40
0.0
 40
0.0
 40
0.0
 40
0.0
 40
0.25
 40
0.25
 40
0.25
 40
0.25
 40
0.5
 40
0.5
 40
0.5
 40
0.5
 40
1.0
 40
1.0
 40
1.0
 40
1.0
 10
-149.2587
 20
-62.1452
 30
0.0
 10
-152.5768
 20
-53.4357
 30
0.0
 10
-153.3571
 20
-44.3308
 30
0.0
 10
-151.5518
 20
-35.3962
 30
0.0
 10
-151.5518
 20
-35.3962
 30
0.0
 10
-148.4409
 20
-44.5172
 30
0.0
 10
-142.0729
 20
-52.9029
 30
0.0
 10
-133.0715
 20
-59.7311
 30
0.0
 10
-133.0715
 20
-59.7311
 30
0.0
 10
-137.7769
 20
-62.0903
 30
0.0
 10
-143.6287
 20
-62.9631
 30
0.0
 10
-149.2587
 20
-62.1452
 30
0.0
  0
SPLINE
  5
53
330
1F
100
AcDbEntity
  8
layer 1
 62
     7
370
     9
100
AcDbSpline
210
0.0
220
0.0
230
1.0
 70
    11
 71
     3
 72
    20
 73
    16
 74
     0
 42
0.0000000001
 43
0.0000000001
 12
1.0
 22
0.0
 32
0.0
 13
1.0
 23
0.0
 33
0.0
 40
0.0
 40
0.0
 40
0.0
 40
0.0
 40
0.2
 40
0.2
 40
0.2
 40
0.2
 40
0.4
 40
0.4
 40
0.4
 40
0.4
 40
0.6
 40
0.6
 40
0.6
 40
0.6
 40
1.0
 40
1.0
 40
1.0
 40
1.0
 10
-141.0302
 20
-70.45
 30
0.0
 10
-135.7828
 20
-76.2825
 30
0.0
 10
-128.7767
 20
-81.199
 30
0.0
 10
-120.5267
 20
-84.8386
 30
0.0
 10
-120.5267
 20
-84.8386
 30
0.0
 10
-124.1154
 20
-80.7188
 30
0.0
 10
-125.1421
 20
-75.7141
 30
0.0
 10
-123.3595
 20
-71.0295
 30
0.0
 10
-123.3595
 20
-71.0295
 30
0.0
 10
-125.8071
 20
-72.6345
 30
0.0
 10
-129.0471
 20
-73.4755
 30
0.0
 10
-132.363
 20
-73.3668
 30
0.0
 10
-132.363
 20
-73.3668
 30
0.0
 10
-135.6786
 20
-73.2583
 30
0.0
 10
-138.7974
 20
-72.2084
 30
0.0
 10
-141.0302
 20
-70.45
 30
0.0
  0
SPLINE
  5
54
330
1F
100
AcDbEntity
  8
layer 1
 62
     7
370
     9
100
AcDbSpline
210
0.0
220
0.0
230
1.0
 70
    11
 71
     3
 72
    28
 73
    24
 74
     0
 42
0.0000000001
 43
0.0000000001
 12
1.0
 22
0.0
 32
0.0
 13
1.0
 23
0.0
 33
0.0
 40
0.0
 40
0.0
 40
0.0
 40
0.0
 40
0.1428571428571428
 40
0.1428571428571428
 40
0.1428571428571428
 40
0.1428571428571428
 40
0.2857142857142857
 40
0.2857142857142857
 40
0.2857142857142857
 40
0.2857142857142857
 40
0.4285714285714285
 40
0.4285714285714285
 40
0.4285714285714285
 40
0.4285714285714285
 40
0.5714285714285714
 40
0.5714285714285714
 40
0.5714285714285714
 40
0.5714285714285714
 40
0.7142857142857143
 40
0.7142857142857143
 40
0.7142857142857143
 40
0.7142857142857143
 40
1.0
 40
1.0
 40
1.0
 40
1.0
 10
-156.8124
 20
95.8386
 30
0.0
 10
-159.0641
 20
96.8077
 30
0.0
 10
-160.96
 20
98.1467
 30
0.0
 10
-162.3433
 20
99.7456
 30
0.0
 10
-162.3433
 20
99.7456
 30
0.0
 10
-162.3433
 20
99.7456
 30
0.0
 10
-162.3433
 20
113.8003
 30
0.0
 10
-162.3433
 20
113.8003
 30
0.0
 10
-162.3433
 20
113.8003
 30
0.0
 10
-162.3433
 20
113.8003
 30
0.0
 10
-125.7459
 20
113.8003
 30
0.0
 10
-125.7459
 20
113.8003
 30
0.0
 10
-125.7459
 20
113.8003
 30
0.0
 10
-131.2376
 20
110.7739
 30
0.0
 10
-136.2701
 20
107.3432
 30
0.0
 10
-140.7603
 20
103.5643
 30
0.0
 10
-140.7603
 20
103.5643
 30
0.0
 10
-142.9818
 20
101.1474
 30
0.0
 10
-145.2757
 20
98.7647
 30
0.0
 10
-147.6398
 20
96.4181
 30
0.0
 10
-147.6398
 20
96.4181
 30
0.0
 10
-150.3874
 20
95.1759
 30
0.0
 10
-153.8039
 20
94.9603
 30
0.0
 10
-156.8124
 20
95.8386
 30
0.0
  0
SPLINE
  5
55
330
1F
100
AcDbEntity
  8
layer 1
 62
     7
370
     9
100
AcDbSpline
210
0.0
220
0.0
230
1.0
 70
    11
 71
     3
 72
    32
 73
    28
 74
     0
 42
0.0000000001
 43
0.0000000001
 12
1.0
 22
0.0
 32
0.0
 13
1.0
 23
0.0
 33
0.0
 40
0.0
 40
0.0
 40
0.0
 40
0.0
 40
0.125
 40
0.125
 40
0.125
 40
0.125
 40
0.25
 40
0.25
 40
0.25
 40
0.25
 40
0.375
 40
0.375
 40
0.375
 40
0.375
 40
0.5
 40
0.5
 40
0.5
 40
0.5
 40
0.625
 40
0.625
 40
0.625
 40
0.625
 40
0.75
 40
0.75
 40
0.75
 40
0.75
 40
1.0
 40
1.0
 40
1.0
 40
1.0
 10
-86.3989
 20
99.9912
 30
0.0
 10
-90.6295
 20
105.8867
 30
0.0
 10
-97.2912
 20
110.7077
 30
0.0
 10
-105.4797
 20
113.8003
 30
0.0
 10
-105.4797
 20
113.8003
 30
0.0
 10
-105.4797
 20
113.8003
 30
0.0
 10
-93.1403
 20
113.8003
 30
0.0
 10
-93.1403
 20
113.8003
 30
0.0
 10
-93.1403
 20
113.8003
 30
0.0
 10
-92.31
 20
111.9838
 30
0.0
 10
-91.0068
 20
110.2962
 30
0.0
 10
-89.299
 20
108.8273
 30
0.0
 10
-89.299
 20
108.8273
 30
0.0
 10
-87.5186
 20
107.5133
 30
0.0
 10
-84.6427
 20
107.3678
 30
0.0
 10
-82.6215
 20
108.4891
 30
0.0
 10
-82.6215
 20
108.4891
 30
0.0
 10
-81.4739
 20
109.2466
 30
0.0
 10
-80.4956
 20
110.1258
 30
0.0
 10
-79.7214
 20
111.0965
 30
0.0
 10
-79.7214
 20
111.0965
 30
0.0
 10
-80.0231
 20
108.2343
 30
0.0
 10
-79.9781
 20
105.3586
 30
0.0
 10
-79.5867
 20
102.5019
 30
0.0
 10
-79.5867
 20
102.5019
 30
0.0
 10
-81.821
 20
101.6154
 30
0.0
 10
-84.0929
 20
100.7781
 30
0.0
 10
-86.3989
 20
99.9912
 30
0.0
  0
SPLINE
  5
56
330
1F
100
AcDbEntity
  8
layer 1
 62
     7
370
     9
100
AcDbSpline
210
0.0
220
0.0
230
1.0
 70
    11
 71
     3
 72
    40
 73
    36
 74
     0
 42
0.0000000001
 43
0.0000000001
 12
1.0
 22
0.0
 32
0.0
 13
1.0
 23
0.0
 33
0.0
 40
0.0
 40
0.0
 40
0.0
 40
0.0
 40
0.1
 40
0.1
 40
0.1
 40
0.1
 40
0.2
 40
0.2
 40
0.2
 40
0.2
 40
0.3
 40
0.3
 40
0.3
 40
0.3
 40
0.4
 40
0.4
 40
0.4
 40
0.4
 40
0.5
 40
0.5
 40
0.5
 40
0.5
 40
0.6
 40
0.6
 40
0.6
 40
0.6
 40
0.7
 40
0.7
 40
0.7
 40
0.7
 40
0.8
 40
0.8
 40
0.8
 40
0.8
 40
1.0
 40
1.0
 40
1.0
 40
1.0
 10
-75.2701
 20
108.0546
 30
0.0
 10
-75.2328
 20
109.9697
 30
0.0
 10
-75.2109
 20
111.885
 30
0.0
 10
-75.2043
 20
113.8003
 30
0.0
 10
-75.2043
 20
113.8003
 30
0.0
 10
-75.2043
 20
113.8003
 30
0.0
 10
-53.3485
 20
113.8003
 30
0.0
 10
-53.3485
 20
113.8003
 30
0.0
 10
-53.3485
 20
113.8003
 30
0.0
 10
-53.3419
 20
111.885
 30
0.0
 10
-53.32
 20
109.9697
 30
0.0
 10
-53.2828
 20
108.0546
 30
0.0
 10
-53.2828
 20
108.0546
 30
0.0
 10
-53.1708
 20
107.4625
 30
0.0
 10
-53.4031
 20
106.8635
 30
0.0
 10
-53.9263
 20
106.398
 30
0.0
 10
-53.9263
 20
106.398
 30
0.0
 10
-54.4492
 20
105.9324
 30
0.0
 10
-55.2162
 20
105.641
 30
0.0
 10
-56.0478
 20
105.5921
 30
0.0
 10
-56.0478
 20
105.5921
 30
0.0
 10
-59.0667
 20
105.3254
 30
0.0
 10
-61.9189
 20
104.454
 30
0.0
 10
-64.2765
 20
103.0781
 30
0.0
 10
-64.2765
 20
103.0781
 30
0.0
 10
-66.634
 20
104.454
 30
0.0
 10
-69.4862
 20
105.3254
 30
0.0
 10
-72.5047
 20
105.5921
 30
0.0
 10
-72.5047
 20
105.5921
 30
0.0
 10
-73.3366
 20
105.641
 30
0.0
 10
-74.1038
 20
105.9324
 30
0.0
 10
-74.6265
 20
106.398
 30
0.0
 10
-74.6265
 20
106.398
 30
0.0
 10
-75.1494
 20
106.8635
 30
0.0
 10
-75.3821
 20
107.4625
 30
0.0
 10
-75.2701
 20
108.0546
 30
0.0
  0
SPLINE
  5
57
330
1F
100
AcDbEntity
  8
layer 1
 62
     7
370
     9
100
AcDbSpline
210
0.0
220
0.0
230
1.0
 70
    11
 71
     3
 72
    68
 73
    64
 74
     0
 42
0.0000000001
 43
0.0000000001
 12
1.0
 22
0.0
 32
0.0
 13
1.0
 23
0.0
 33
0.0
 40
0.0
 40
0.0
 40
0.0
 40
0.0
 40
0.0588235294117647
 40
0.0588235294117647
 40
0.0588235294117647
 40
0.0588235294117647
 40
0.1176470588235294
 40
0.1176470588235294
 40
0.1176470588235294
 40
0.1176470588235294
 40
0.1764705882352941
 40
0.1764705882352941
 40
0.1764705882352941
 40
0.1764705882352941
 40
0.2352941176470588
 40
0.2352941176470588
 40
0.2352941176470588
 40
0.2352941176470588
 40
0.2941176470588235
 40
0.2941176470588235
 40
0.2941176470588235
 40
0.2941176470588235
 40
0.3529411764705883
 40
0.3529411764705883
 40
0.3529411764705883
 40
0.3529411764705883
 40
0.4117647058823529
 40
0.4117647058823529
 40
0.4117647058823529
 40
0.4117647058823529
 40
0.4705882352941176
 40
0.4705882352941176
 40
0.4705882352941176
 40
0.4705882352941176
 40
0.5294117647058824
 40
0.5294117647058824
 40
0.5294117647058824
 40
0.5294117647058824
 40
0.5882352941176471
 40
0.5882352941176471
 40
0.5882352941176471
 40
0.5882352941176471
 40
0.6470588235294118
 40
0.6470588235294118
 40
0.6470588235294118
 40
0.6470588235294118
 40
0.7058823529411765
 40
0.7058823529411765
 40
0.7058823529411765
 40
0.7058823529411765
 40
0.7647058823529411
 40
0.7647058823529411
 40
0.7647058823529411
 40
0.7647058823529411
 40
0.8235294117647058
 40
0.8235294117647058
 40
0.8235294117647058
 40
0.8235294117647058
 40
0.8823529411764706
 40
0.8823529411764706
 40
0.8823529411764706
 40
0.8823529411764706
 40
1.0
 40
1.0
 40
1.0
 40
1.0
 10
-67.1766
 20
90.8172
 30
0.0
 10
-66.3992
 20
90.2765
 30
0.0
 10
-65.3606
 20
89.9713
 30
0.0
 10
-64.2765
 20
89.9651
 30
0.0
 10
-64.2765
 20
89.9651
 30
0.0
 10
-63.1923
 20
89.9713
 30
0.0
 10
-62.1537
 20
90.2765
 30
0.0
 10
-61.3762
 20
90.8172
 30
0.0
 10
-61.3762
 20
90.8172
 30
0.0
 10
-59.6597
 20
92.5499
 30
0.0
 10
-59.1968
 20
94.7636
 30
0.0
 10
-60.1285
 20
96.7804
 30
0.0
 10
-60.1285
 20
96.7804
 30
0.0
 10
-60.5674
 20
98.0123
 30
0.0
 10
-61.051
 20
99.2359
 30
0.0
 10
-61.5788
 20
100.45
 30
0.0
 10
-61.5788
 20
100.45
 30
0.0
 10
-61.0088
 20
101.1899
 30
0.0
 10
-59.9962
 20
101.7014
 30
0.0
 10
-58.8315
 20
101.8381
 30
0.0
 10
-58.8315
 20
101.8381
 30
0.0
 10
-57.6667
 20
101.9746
 30
0.0
 10
-56.4793
 20
101.7209
 30
0.0
 10
-55.6093
 20
101.1501
 30
0.0
 10
-55.6093
 20
101.1501
 30
0.0
 10
-53.9247
 20
99.577
 30
0.0
 10
-53.3977
 20
97.5202
 30
0.0
 10
-54.1933
 20
95.6215
 30
0.0
 10
-54.1933
 20
95.6215
 30
0.0
 10
-55.3725
 20
93.0658
 30
0.0
 10
-56.7228
 20
90.5521
 30
0.0
 10
-58.24
 20
88.0893
 30
0.0
 10
-58.24
 20
88.0893
 30
0.0
 10
-60.9687
 20
82.7889
 30
0.0
 10
-62.9898
 20
77.3154
 30
0.0
 10
-64.2765
 20
71.7421
 30
0.0
 10
-64.2765
 20
71.7421
 30
0.0
 10
-65.5631
 20
77.3154
 30
0.0
 10
-67.5841
 20
82.7889
 30
0.0
 10
-70.3129
 20
88.0893
 30
0.0
 10
-70.3129
 20
88.0893
 30
0.0
 10
-71.8301
 20
90.5521
 30
0.0
 10
-73.1803
 20
93.0658
 30
0.0
 10
-74.3595
 20
95.6215
 30
0.0
 10
-74.3595
 20
95.6215
 30
0.0
 10
-75.1551
 20
97.5202
 30
0.0
 10
-74.6282
 20
99.577
 30
0.0
 10
-72.9432
 20
101.1501
 30
0.0
 10
-72.9432
 20
101.1501
 30
0.0
 10
-72.0735
 20
101.7209
 30
0.0
 10
-70.8856
 20
101.9746
 30
0.0
 10
-69.721
 20
101.8381
 30
0.0
 10
-69.721
 20
101.8381
 30
0.0
 10
-68.5566
 20
101.7014
 30
0.0
 10
-67.544
 20
101.1899
 30
0.0
 10
-66.9741
 20
100.45
 30
0.0
 10
-66.9741
 20
100.45
 30
0.0
 10
-67.5019
 20
99.2359
 30
0.0
 10
-67.9855
 20
98.0123
 30
0.0
 10
-68.4244
 20
96.7804
 30
0.0
 10
-68.4244
 20
96.7804
 30
0.0
 10
-69.356
 20
94.7636
 30
0.0
 10
-68.8927
 20
92.5499
 30
0.0
 10
-67.1766
 20
90.8172
 30
0.0
  0
SPLINE
  5
58
330
1F
100
AcDbEntity
  8
layer 1
 62
     7
370
     9
100
AcDbSpline
210
0.0
220
0.0
230
1.0
 70
    11
 71
     3
 72
    20
 73
    16
 74
     0
 42
0.0000000001
 43
0.0000000001
 12
1.0
 22
0.0
 32
0.0
 13
1.0
 23
0.0
 33
0.0
 40
0.0
 40
0.0
 40
0.0
 40
0.0
 40
0.2
 40
0.2
 40
0.2
 40
0.2
 40
0.4
 40
0.4
 40
0.4
 40
0.4
 40
0.6
 40
0.6
 40
0.6
 40
0.6
 40
1.0
 40
1.0
 40
1.0
 40
1.0
 10
-70.0094
 20
34.9048
 30
0.0
 10
-67.2919
 20
41.0521
 30
0.0
 10
-65.373
 20
47.3659
 30
0.0
 10
-64.2765
 20
53.7656
 30
0.0
 10
-64.2765
 20
53.7656
 30
0.0
 10
-63.1799
 20
47.3659
 30
0.0
 10
-61.2605
 20
41.0521
 30
0.0
 10
-58.5434
 20
34.9048
 30
0.0
 10
-58.5434
 20
34.9048
 30
0.0
 10
-60.5435
 20
34.7167
 30
0.0
 10
-62.4827
 20
34.2831
 30
0.0
 10
-64.2765
 20
33.6225
 30
0.0
 10
-64.2765
 20
33.6225
 30
0.0
 10
-66.0698
 20
34.2831
 30
0.0
 10
-68.0094
 20
34.7167
 30
0.0
 10
-70.0094
 20
34.9048
 30
0.0
  0
SPLINE
  5
59
330
1F
100
AcDbEntity
  8
layer 1
 62
     7
370
     9
100
AcDbSpline
210
0.0
220
0.0
230
1.0
 70
    11
 71
     3
 72
    16
 73
    12
 74
     0
 42
0.0000000001
 43
0.0000000001
 12
1.0
 22
0.0
 32
0.0
 13
1.0
 23
0.0
 33
0.0
 40
0.0
 40
0.0
 40
0.0
 40
0.0
 40
0.25
 40
0.25
 40
0.25
 40
0.25
 40
0.5
 40
0.5
 40
0.5
 40
0.5
 40
1.0
 40
1.0
 40
1.0
 40
1.0
 10
-162.3433
 20
87.8491
 30
0.0
 10
-162.3433
 20
87.8491
 30
0.0
 10
-162.3433
 20
78.3916
 30
0.0
 10
-162.3433
 20
78.3916
 30
0.0
 10
-162.3433
 20
78.3916
 30
0.0
 10
-161.4121
 20
80.4354
 30
0.0
 10
-160.3772
 20
82.4543
 30
0.0
 10
-159.2405
 20
84.444
 30
0.0
 10
-159.2405
 20
84.444
 30
0.0
 10
-160.2239
 20
85.6024
 30
0.0
 10
-161.2584
 20
86.738
 30
0.0
 10
-162.3433
 20
87.8491
 30
0.0
  0
SPLINE
  5
5A
330
1F
100
AcDbEntity
  8
layer 1
 62
     7
370
     9
100
AcDbSpline
210
0.0
220
0.0
230
1.0
 70
    11
 71
     3
 72
    16
 73
    12
 74
     0
 42
0.0000000001
 43
0.0000000001
 12
1.0
 22
0.0
 32
0.0
 13
1.0
 23
0.0
 33
0.0
 40
0.0
 40
0.0
 40
0.0
 40
0.0
 40
0.25
 40
0.25
 40
0.25
 40
0.25
 40
0.5
 40
0.5
 40
0.5
 40
0.5
 40
1.0
 40
1.0
 40
1.0
 40
1.0
 10
-85.1171
 20
97.6736
 30
0.0
 10
-80.2979
 20
92.5853
 30
0.0
 10
-76.591
 20
87.0007
 30
0.0
 10
-74.1236
 20
81.1122
 30
0.0
 10
-74.1236
 20
81.1122
 30
0.0
 10
-75.3329
 20
87.3545
 30
0.0
 10
-77.0217
 20
93.5441
 30
0.0
 10
-79.182
 20
99.653
 30
0.0
 10
-79.182
 20
99.653
 30
0.0
 10
-81.2106
 20
99.0733
 30
0.0
 10
-83.192
 20
98.4121
 30
0.0
 10
-85.1171
 20
97.6736
 30
0.0
  0
SPLINE
  5
5B
330
1F
100
AcDbEntity
  8
layer 1
 62
     7
370
     9
100
AcDbSpline
210
0.0
220
0.0
230
1.0
 70
    11
 71
     3
 72
    40
 73
    36
 74
     0
 42
0.0000000001
 43
0.0000000001
 12
1.0
 22
0.0
 32
0.0
 13
1.0
 23
0.0
 33
0.0
 40
0.0
 40
0.0
 40
0.0
 40
0.0
 40
0.1
 40
0.1
 40
0.1
 40
0.1
 40
0.2
 40
0.2
 40
0.2
 40
0.2
 40
0.3
 40
0.3
 40
0.3
 40
0.3
 40
0.4
 40
0.4
 40
0.4
 40
0.4
 40
0.5
 40
0.5
 40
0.5
 40
0.5
 40
0.6
 40
0.6
 40
0.6
 40
0.6
 40
0.7
 40
0.7
 40
0.7
 40
0.7
 40
0.8
 40
0.8
 40
0.8
 40
0.8
 40
1.0
 40
1.0
 40
1.0
 40
1.0
 10
-117.0194
 20
98.6875
 30
0.0
 10
-115.2644
 20
94.5269
 30
0.0
 10
-111.0846
 20
91.1121
 30
0.0
 10
-105.5533
 20
89.3205
 30
0.0
 10
-105.5533
 20
89.3205
 30
0.0
 10
-101.5339
 20
88.299
 30
0.0
 10
-97.8082
 20
86.7608
 30
0.0
 10
-94.5597
 20
84.7819
 30
0.0
 10
-94.5597
 20
84.7819
 30
0.0
 10
-93.8058
 20
87.8253
 30
0.0
 10
-92.9287
 20
90.8524
 30
0.0
 10
-91.9293
 20
93.8593
 30
0.0
 10
-91.9293
 20
93.8593
 30
0.0
 10
-93.2961
 20
94.9167
 30
0.0
 10
-94.8102
 20
95.8712
 30
0.0
 10
-96.448
 20
96.7078
 30
0.0
 10
-96.448
 20
96.7078
 30
0.0
 10
-97.7252
 20
97.8414
 30
0.0
 10
-99.7376
 20
98.4132
 30
0.0
 10
-101.7529
 20
98.2158
 30
0.0
 10
-101.7529
 20
98.2158
 30
0.0
 10
-103.7678
 20
98.018
 30
0.0
 10
-105.4913
 20
97.0798
 30
0.0
 10
-106.2956
 20
95.7421
 30
0.0
 10
-106.2956
 20
95.7421
 30
0.0
 10
-108.0526
 20
98.6835
 30
0.0
 10
-107.0557
 20
102.0975
 30
0.0
 10
-103.8
 20
104.2885
 30
0.0
 10
-103.8
 20
104.2885
 30
0.0
 10
-106.1997
 20
105.38
 30
0.0
 10
-109.2776
 20
105.3421
 30
0.0
 10
-111.6236
 20
104.1919
 30
0.0
 10
-111.6236
 20
104.1919
 30
0.0
 10
-114.246
 20
102.8511
 30
0.0
 10
-116.1502
 20
100.9091
 30
0.0
 10
-117.0194
 20
98.6875
 30
0.0
  0
SPLINE
  5
5C
330
1F
100
AcDbEntity
  8
layer 1
 62
     7
370
     9
100
AcDbSpline
210
0.0
220
0.0
230
1.0
 70
    11
 71
     3
 72
    16
 73
    12
 74
     0
 42
0.0000000001
 43
0.0000000001
 12
1.0
 22
0.0
 32
0.0
 13
1.0
 23
0.0
 33
0.0
 40
0.0
 40
0.0
 40
0.0
 40
0.0
 40
0.25
 40
0.25
 40
0.25
 40
0.25
 40
0.5
 40
0.5
 40
0.5
 40
0.5
 40
1.0
 40
1.0
 40
1.0
 40
1.0
 10
-89.5011
 20
91.6865
 30
0.0
 10
-90.1422
 20
88.6598
 30
0.0
 10
-91.0204
 20
85.6616
 30
0.0
 10
-92.1319
 20
82.7056
 30
0.0
 10
-92.1319
 20
82.7056
 30
0.0
 10
-82.3599
 20
74.6859
 30
0.0
 10
-75.728
 20
64.9572
 30
0.0
 10
-72.9097
 20
54.5079
 30
0.0
 10
-72.9097
 20
54.5079
 30
0.0
 10
-72.3103
 20
67.8972
 30
0.0
 10
-78.1694
 20
81.0259
 30
0.0
 10
-89.5011
 20
91.6865
 30
0.0
  0
SPLINE
  5
5D
330
1F
100
AcDbEntity
  8
layer 1
 62
     7
370
     9
100
AcDbSpline
210
0.0
220
0.0
230
1.0
 70
    11
 71
     3
 72
    48
 73
    44
 74
     0
 42
0.0000000001
 43
0.0000000001
 12
1.0
 22
0.0
 32
0.0
 13
1.0
 23
0.0
 33
0.0
 40
0.0
 40
0.0
 40
0.0
 40
0.0
 40
0.0833333333333333
 40
0.0833333333333333
 40
0.0833333333333333
 40
0.0833333333333333
 40
0.1666666666666667
 40
0.1666666666666667
 40
0.1666666666666667
 40
0.1666666666666667
 40
0.25
 40
0.25
 40
0.25
 40
0.25
 40
0.3333333333333333
 40
0.3333333333333333
 40
0.3333333333333333
 40
0.3333333333333333
 40
0.4166666666666667
 40
0.4166666666666667
 40
0.4166666666666667
 40
0.4166666666666667
 40
0.5
 40
0.5
 40
0.5
 40
0.5
 40
0.5833333333333334
 40
0.5833333333333334
 40
0.5833333333333334
 40
0.5833333333333334
 40
0.6666666666666666
 40
0.6666666666666666
 40
0.6666666666666666
 40
0.6666666666666666
 40
0.75
 40
0.75
 40
0.75
 40
0.75
 40
0.8333333333333334
 40
0.8333333333333334
 40
0.8333333333333334
 40
0.8333333333333334
 40
1.0
 40
1.0
 40
1.0
 40
1.0
 10
-103.4628
 20
54.1701
 30
0.0
 10
-102.401
 20
50.5829
 30
0.0
 10
-104.0984
 20
46.863
 30
0.0
 10
-107.9141
 20
44.4169
 30
0.0
 10
-107.9141
 20
44.4169
 30
0.0
 10
-110.861
 20
43.4836
 30
0.0
 10
-114.2944
 20
43.8399
 30
0.0
 10
-116.7494
 20
45.3343
 30
0.0
 10
-116.7494
 20
45.3343
 30
0.0
 10
-120.9309
 20
49.3467
 30
0.0
 10
-122.7251
 20
54.3803
 30
0.0
 10
-121.7406
 20
59.3365
 30
0.0
 10
-121.7406
 20
59.3365
 30
0.0
 10
-121.4211
 20
64.9723
 30
0.0
 10
-117.4257
 20
70.1745
 30
0.0
 10
-110.949
 20
73.3869
 30
0.0
 10
-110.949
 20
73.3869
 30
0.0
 10
-104.3907
 20
76.1267
 30
0.0
 10
-96.0844
 20
75.3958
 30
0.0
 10
-90.6476
 20
71.6004
 30
0.0
 10
-90.6476
 20
71.6004
 30
0.0
 10
-91.4656
 20
69.0104
 30
0.0
 10
-92.1628
 20
66.4015
 30
0.0
 10
-92.7386
 20
63.7784
 30
0.0
 10
-92.7386
 20
63.7784
 30
0.0
 10
-94.3807
 20
66.1175
 30
0.0
 10
-97.5991
 20
67.6794
 30
0.0
 10
-101.2424
 20
67.9059
 30
0.0
 10
-101.2424
 20
67.9059
 30
0.0
 10
-104.8853
 20
68.1322
 30
0.0
 10
-108.4316
 20
66.9904
 30
0.0
 10
-110.6118
 20
64.889
 30
0.0
 10
-110.6118
 20
64.889
 30
0.0
 10
-114.5808
 20
61.4087
 30
0.0
 10
-115.6364
 20
56.6716
 30
0.0
 10
-113.3772
 20
52.4801
 30
0.0
 10
-113.3772
 20
52.4801
 30
0.0
 10
-112.5613
 20
51.2251
 30
0.0
 10
-110.7915
 20
50.4311
 30
0.0
 10
-108.8581
 20
50.4523
 30
0.0
 10
-108.8581
 20
50.4523
 30
0.0
 10
-106.5072
 20
51.2008
 30
0.0
 10
-104.5977
 20
52.5166
 30
0.0
 10
-103.4628
 20
54.1701
 30
0.0
  0
SPLINE
  5
5E
330
1F
100
AcDbEntity
  8
layer 1
 62
     7
370
     9
100
AcDbSpline
210
0.0
220
0.0
230
1.0
 70
    11
 71
     3
 72
    20
 73
    16
 74
     0
 42
0.0000000001
 43
0.0000000001
 12
1.0
 22
0.0
 32
0.0
 13
1.0
 23
0.0
 33
0.0
 40
0.0
 40
0.0
 40
0.0
 40
0.0
 40
0.2
 40
0.2
 40
0.2
 40
0.2
 40
0.4
 40
0.4
 40
0.4
 40
0.4
 40
0.6
 40
0.6
 40
0.6
 40
0.6
 40
1.0
 40
1.0
 40
1.0
 40
1.0
 10
-90.5803
 20
61.6541
 30
0.0
 10
-86.8981
 20
54.1292
 30
0.0
 10
-87.0895
 20
45.9105
 30
0.0
 10
-91.1201
 20
38.4778
 30
0.0
 10
-91.1201
 20
38.4778
 30
0.0
 10
-90.7568
 20
35.7448
 30
0.0
 10
-90.4422
 20
33.0084
 30
0.0
 10
-90.1757
 20
30.2696
 30
0.0
 10
-90.1757
 20
30.2696
 30
0.0
 10
-78.026
 20
42.0704
 30
0.0
 10
-77.223
 20
57.996
 30
0.0
 10
-88.1525
 20
70.3933
 30
0.0
 10
-88.1525
 20
70.3933
 30
0.0
 10
-88.9188
 20
67.4741
 30
0.0
 10
-89.728
 20
64.5609
 30
0.0
 10
-90.5803
 20
61.6541
 30
0.0
  0
SPLINE
  5
5F
330
1F
100
AcDbEntity
  8
layer 1
 62
     7
370
     9
100
AcDbSpline
210
0.0
220
0.0
230
1.0
 70
    11
 71
     3
 72
    32
 73
    28
 74
     0
 42
0.0000000001
 43
0.0000000001
 12
1.0
 22
0.0
 32
0.0
 13
1.0
 23
0.0
 33
0.0
 40
0.0
 40
0.0
 40
0.0
 40
0.0
 40
0.125
 40
0.125
 40
0.125
 40
0.125
 40
0.25
 40
0.25
 40
0.25
 40
0.25
 40
0.375
 40
0.375
 40
0.375
 40
0.375
 40
0.5
 40
0.5
 40
0.5
 40
0.5
 40
0.625
 40
0.625
 40
0.625
 40
0.625
 40
0.75
 40
0.75
 40
0.75
 40
0.75
 40
1.0
 40
1.0
 40
1.0
 40
1.0
 10
-94.0203
 20
36.5466
 30
0.0
 10
-97.0829
 20
32.7336
 30
0.0
 10
-102.8977
 20
30.4906
 30
0.0
 10
-109.0309
 20
30.7569
 30
0.0
 10
-109.0309
 20
30.7569
 30
0.0
 10
-115.1636
 20
31.0227
 30
0.0
 10
-120.5573
 20
33.7518
 30
0.0
 10
-122.9545
 20
37.8018
 30
0.0
 10
-122.9545
 20
37.8018
 30
0.0
 10
-125.3517
 20
33.5765
 30
0.0
 10
-126.4555
 20
29.0323
 30
0.0
 10
-126.1919
 20
24.4756
 30
0.0
 10
-126.1919
 20
24.4756
 30
0.0
 10
-126.4547
 20
22.4653
 30
0.0
 10
-125.3318
 20
20.4899
 30
0.0
 10
-123.1831
 20
19.1823
 30
0.0
 10
-123.1831
 20
19.1823
 30
0.0
 10
-121.0343
 20
17.8748
 30
0.0
 10
-118.1294
 20
17.3995
 30
0.0
 10
-115.4008
 20
17.9089
 30
0.0
 10
-115.4008
 20
17.9089
 30
0.0
 10
-106.5675
 20
19.2355
 30
0.0
 10
-98.6526
 20
22.7172
 30
0.0
 10
-93.0085
 20
27.7589
 30
0.0
 10
-93.0085
 20
27.7589
 30
0.0
 10
-93.3367
 20
30.6887
 30
0.0
 10
-93.674
 20
33.6179
 30
0.0
 10
-94.0203
 20
36.5466
 30
0.0
  0
SPLINE
  5
60
330
1F
100
AcDbEntity
  8
layer 1
 62
     7
370
     9
100
AcDbSpline
210
0.0
220
0.0
230
1.0
 70
    11
 71
     3
 72
    24
 73
    20
 74
     0
 42
0.0000000001
 43
0.0000000001
 12
1.0
 22
0.0
 32
0.0
 13
1.0
 23
0.0
 33
0.0
 40
0.0
 40
0.0
 40
0.0
 40
0.0
 40
0.1666666666666667
 40
0.1666666666666667
 40
0.1666666666666667
 40
0.1666666666666667
 40
0.3333333333333333
 40
0.3333333333333333
 40
0.3333333333333333
 40
0.3333333333333333
 40
0.5
 40
0.5
 40
0.5
 40
0.5
 40
0.6666666666666666
 40
0.6666666666666666
 40
0.6666666666666666
 40
0.6666666666666666
 40
1.0
 40
1.0
 40
1.0
 40
1.0
 10
-145.4815
 20
41.6646
 30
0.0
 10
-142.8528
 20
41.06
 30
0.0
 10
-139.9771
 20
41.4211
 30
0.0
 10
-137.7926
 20
42.6303
 30
0.0
 10
-137.7926
 20
42.6303
 30
0.0
 10
-140.056
 20
49.2893
 30
0.0
 10
-137.5256
 20
56.3177
 30
0.0
 10
-131.0483
 20
61.3644
 30
0.0
 10
-131.0483
 20
61.3644
 30
0.0
 10
-133.2285
 20
55.7956
 30
0.0
 10
-133.5058
 20
49.9334
 30
0.0
 10
-131.8576
 20
44.2719
 30
0.0
 10
-131.8576
 20
44.2719
 30
0.0
 10
-130.9495
 20
38.9986
 30
0.0
 10
-132.2646
 20
33.6515
 30
0.0
 10
-135.6343
 20
28.9179
 30
0.0
 10
-135.6343
 20
28.9179
 30
0.0
 10
-140.1998
 20
32.5899
 30
0.0
 10
-143.5638
 20
36.9446
 30
0.0
 10
-145.4815
 20
41.6646
 30
0.0
  0
SPLINE
  5
61
330
1F
100
AcDbEntity
  8
layer 1
 62
     7
370
     9
100
AcDbSpline
210
0.0
220
0.0
230
1.0
 70
    11
 71
     3
 72
    16
 73
    12
 74
     0
 42
0.0000000001
 43
0.0000000001
 12
1.0
 22
0.0
 32
0.0
 13
1.0
 23
0.0
 33
0.0
 40
0.0
 40
0.0
 40
0.0
 40
0.0
 40
0.25
 40
0.25
 40
0.25
 40
0.25
 40
0.5
 40
0.5
 40
0.5
 40
0.5
 40
1.0
 40
1.0
 40
1.0
 40
1.0
 10
-149.2587
 20
79.036
 30
0.0
 10
-152.5768
 20
70.3265
 30
0.0
 10
-153.3571
 20
61.2215
 30
0.0
 10
-151.5518
 20
52.287
 30
0.0
 10
-151.5518
 20
52.287
 30
0.0
 10
-148.4409
 20
61.4079
 30
0.0
 10
-142.0729
 20
69.7936
 30
0.0
 10
-133.0715
 20
76.6221
 30
0.0
 10
-133.0715
 20
76.6221
 30
0.0
 10
-137.7769
 20
78.9811
 30
0.0
 10
-143.6287
 20
79.8538
 30
0.0
 10
-149.2587
 20
79.036
 30
0.0
  0
SPLINE
  5
62
330
1F
100
AcDbEntity
  8
layer 1
 62
     7
370
     9
100
AcDbSpline
210
0.0
220
0.0
230
1.0
 70
    11
 71
     3
 72
    20
 73
    16
 74
     0
 42
0.0000000001
 43
0.0000000001
 12
1.0
 22
0.0
 32
0.0
 13
1.0
 23
0.0
 33
0.0
 40
0.0
 40
0.0
 40
0.0
 40
0.0
 40
0.2
 40
0.2
 40
0.2
 40
0.2
 40
0.4
 40
0.4
 40
0.4
 40
0.4
 40
0.6
 40
0.6
 40
0.6
 40
0.6
 40
1.0
 40
1.0
 40
1.0
 40
1.0
 10
-141.0302
 20
87.341
 30
0.0
 10
-135.7828
 20
93.1732
 30
0.0
 10
-128.7767
 20
98.09
 30
0.0
 10
-120.5267
 20
101.7293
 30
0.0
 10
-120.5267
 20
101.7293
 30
0.0
 10
-124.1154
 20
97.6095
 30
0.0
 10
-125.1421
 20
92.6048
 30
0.0
 10
-123.3595
 20
87.9202
 30
0.0
 10
-123.3595
 20
87.9202
 30
0.0
 10
-125.8071
 20
89.5252
 30
0.0
 10
-129.0471
 20
90.3666
 30
0.0
 10
-132.363
 20
90.2578
 30
0.0
 10
-132.363
 20
90.2578
 30
0.0
 10
-135.6786
 20
90.149
 30
0.0
 10
-138.7974
 20
89.0994
 30
0.0
 10
-141.0302
 20
87.341
 30
0.0
  0
SPLINE
  5
63
330
1F
100
AcDbEntity
  8
layer 1
 62
     7
370
     9
100
AcDbSpline
210
0.0
220
0.0
230
1.0
 70
    11
 71
     3
 72
    28
 73
    24
 74
     0
 42
0.0000000001
 43
0.0000000001
 12
1.0
 22
0.0
 32
0.0
 13
1.0
 23
0.0
 33
0.0
 40
0.0
 40
0.0
 40
0.0
 40
0.0
 40
0.1428571428571428
 40
0.1428571428571428
 40
0.1428571428571428
 40
0.1428571428571428
 40
0.2857142857142857
 40
0.2857142857142857
 40
0.2857142857142857
 40
0.2857142857142857
 40
0.4285714285714285
 40
0.4285714285714285
 40
0.4285714285714285
 40
0.4285714285714285
 40
0.5714285714285714
 40
0.5714285714285714
 40
0.5714285714285714
 40
0.5714285714285714
 40
0.7142857142857143
 40
0.7142857142857143
 40
0.7142857142857143
 40
0.7142857142857143
 40
1.0
 40
1.0
 40
1.0
 40
1.0
 10
28.2598
 20
-78.948
 30
0.0
 10
30.5112
 20
-79.9167
 30
0.0
 10
32.4071
 20
-81.2561
 30
0.0
 10
33.7904
 20
-82.8546
 30
0.0
 10
33.7904
 20
-82.8546
 30
0.0
 10
33.7904
 20
-82.8546
 30
0.0
 10
33.7904
 20
-96.9094
 30
0.0
 10
33.7904
 20
-96.9094
 30
0.0
 10
33.7904
 20
-96.9094
 30
0.0
 10
33.7904
 20
-96.9094
 30
0.0
 10
-2.8069
 20
-96.9094
 30
0.0
 10
-2.8069
 20
-96.9094
 30
0.0
 10
-2.8069
 20
-96.9094
 30
0.0
 10
2.6848
 20
-93.8832
 30
0.0
 10
7.7172
 20
-90.4524
 30
0.0
 10
12.2074
 20
-86.6733
 30
0.0
 10
12.2074
 20
-86.6733
 30
0.0
 10
14.429
 20
-84.2564
 30
0.0
 10
16.7228
 20
-81.8739
 30
0.0
 10
19.087
 20
-79.5274
 30
0.0
 10
19.087
 20
-79.5274
 30
0.0
 10
21.8347
 20
-78.2851
 30
0.0
 10
25.2509
 20
-78.0693
 30
0.0
 10
28.2598
 20
-78.948
 30
0.0
  0
SPLINE
  5
64
330
1F
100
AcDbEntity
  8
layer 1
 62
     7
370
     9
100
AcDbSpline
210
0.0
220
0.0
230
1.0
 70
    11
 71
     3
 72
    32
 73
    28
 74
     0
 42
0.0000000001
 43
0.0000000001
 12
1.0
 22
0.0
 32
0.0
 13
1.0
 23
0.0
 33
0.0
 40
0.0
 40
0.0
 40
0.0
 40
0.0
 40
0.125
 40
0.125
 40
0.125
 40
0.125
 40
0.25
 40
0.25
 40
0.25
 40
0.25
 40
0.375
 40
0.375
 40
0.375
 40
0.375
 40
0.5
 40
0.5
 40
0.5
 40
0.5
 40
0.625
 40
0.625
 40
0.625
 40
0.625
 40
0.75
 40
0.75
 40
0.75
 40
0.75
 40
1.0
 40
1.0
 40
1.0
 40
1.0
 10
-42.154
 20
-83.1005
 30
0.0
 10
-37.9234
 20
-88.996
 30
0.0
 10
-31.2616
 20
-93.8169
 30
0.0
 10
-23.0727
 20
-96.9094
 30
0.0
 10
-23.0727
 20
-96.9094
 30
0.0
 10
-23.0727
 20
-96.9094
 30
0.0
 10
-35.4126
 20
-96.9094
 30
0.0
 10
-35.4126
 20
-96.9094
 30
0.0
 10
-35.4126
 20
-96.9094
 30
0.0
 10
-36.2429
 20
-95.093
 30
0.0
 10
-37.546
 20
-93.4055
 30
0.0
 10
-39.2538
 20
-91.9363
 30
0.0
 10
-39.2538
 20
-91.9363
 30
0.0
 10
-41.0343
 20
-90.6226
 30
0.0
 10
-43.9097
 20
-90.477
 30
0.0
 10
-45.9313
 20
-91.5983
 30
0.0
 10
-45.9313
 20
-91.5983
 30
0.0
 10
-47.079
 20
-92.3557
 30
0.0
 10
-48.0573
 20
-93.2352
 30
0.0
 10
-48.831
 20
-94.2057
 30
0.0
 10
-48.831
 20
-94.2057
 30
0.0
 10
-48.5298
 20
-91.3434
 30
0.0
 10
-48.5748
 20
-88.468
 30
0.0
 10
-48.9662
 20
-85.6112
 30
0.0
 10
-48.9662
 20
-85.6112
 30
0.0
 10
-46.7318
 20
-84.7247
 30
0.0
 10
-44.4599
 20
-83.8874
 30
0.0
 10
-42.154
 20
-83.1005
 30
0.0
  0
SPLINE
  5
65
330
1F
100
AcDbEntity
  8
layer 1
 62
     7
370
     9
100
AcDbSpline
210
0.0
220
0.0
230
1.0
 70
    11
 71
     3
 72
    16
 73
    12
 74
     0
 42
0.0000000001
 43
0.0000000001
 12
1.0
 22
0.0
 32
0.0
 13
1.0
 23
0.0
 33
0.0
 40
0.0
 40
0.0
 40
0.0
 40
0.0
 40
0.25
 40
0.25
 40
0.25
 40
0.25
 40
0.5
 40
0.5
 40
0.5
 40
0.5
 40
1.0
 40
1.0
 40
1.0
 40
1.0
 10
-37.3269
 20
8.4455
 30
0.0
 10
-40.8099
 20
9.6526
 30
0.0
 10
-44.0453
 20
11.1959
 30
0.0
 10
-46.9426
 20
13.0322
 30
0.0
 10
-46.9426
 20
13.0322
 30
0.0
 10
-46.9426
 20
13.0322
 30
0.0
 10
-46.9426
 20
3.8585
 30
0.0
 10
-46.9426
 20
3.8585
 30
0.0
 10
-46.9426
 20
3.8585
 30
0.0
 10
-44.0453
 20
5.6948
 30
0.0
 10
-40.8099
 20
7.2382
 30
0.0
 10
-37.3269
 20
8.4455
 30
0.0
  0
SPLINE
  5
66
330
1F
100
AcDbEntity
  8
layer 1
 62
     7
370
     9
100
AcDbSpline
210
0.0
220
0.0
230
1.0
 70
    11
 71
     3
 72
    24
 73
    20
 74
     0
 42
0.0000000001
 43
0.0000000001
 12
1.0
 22
0.0
 32
0.0
 13
1.0
 23
0.0
 33
0.0
 40
0.0
 40
0.0
 40
0.0
 40
0.0
 40
0.1666666666666667
 40
0.1666666666666667
 40
0.1666666666666667
 40
0.1666666666666667
 40
0.3333333333333333
 40
0.3333333333333333
 40
0.3333333333333333
 40
0.3333333333333333
 40
0.5
 40
0.5
 40
0.5
 40
0.5
 40
0.6666666666666666
 40
0.6666666666666666
 40
0.6666666666666666
 40
0.6666666666666666
 40
1.0
 40
1.0
 40
1.0
 40
1.0
 10
33.7904
 20
-2.891
 30
0.0
 10
33.7904
 20
-2.891
 30
0.0
 10
33.7904
 20
19.7818
 30
0.0
 10
33.7904
 20
19.7818
 30
0.0
 10
33.7904
 20
19.7818
 30
0.0
 10
31.4675
 20
22.0929
 30
0.0
 10
29.2628
 20
24.4637
 30
0.0
 10
27.1807
 20
26.8897
 30
0.0
 10
27.1807
 20
26.8897
 30
0.0
 10
22.4654
 20
19.7368
 30
0.0
 10
15.566
 20
13.4337
 30
0.0
 10
6.9919
 20
8.4455
 30
0.0
 10
6.9919
 20
8.4455
 30
0.0
 10
15.566
 20
3.4574
 30
0.0
 10
22.4654
 20
-2.8461
 30
0.0
 10
27.1807
 20
-9.999
 30
0.0
 10
27.1807
 20
-9.999
 30
0.0
 10
29.2628
 20
-7.573
 30
0.0
 10
31.4675
 20
-5.2021
 30
0.0
 10
33.7904
 20
-2.891
 30
0.0
  0
SPLINE
  5
67
330
1F
100
AcDbEntity
  8
layer 1
 62
     7
370
     9
100
AcDbSpline
210
0.0
220
0.0
230
1.0
 70
    11
 71
     3
 72
    16
 73
    12
 74
     0
 42
0.0000000001
 43
0.0000000001
 12
1.0
 22
0.0
 32
0.0
 13
1.0
 23
0.0
 33
0.0
 40
0.0
 40
0.0
 40
0.0
 40
0.0
 40
0.25
 40
0.25
 40
0.25
 40
0.25
 40
0.5
 40
0.5
 40
0.5
 40
0.5
 40
1.0
 40
1.0
 40
1.0
 40
1.0
 10
33.7904
 20
-70.9583
 30
0.0
 10
33.7904
 20
-70.9583
 30
0.0
 10
33.7904
 20
-61.5006
 30
0.0
 10
33.7904
 20
-61.5006
 30
0.0
 10
33.7904
 20
-61.5006
 30
0.0
 10
32.8596
 20
-63.5444
 30
0.0
 10
31.8247
 20
-65.5633
 30
0.0
 10
30.6879
 20
-67.553
 30
0.0
 10
30.6879
 20
-67.553
 30
0.0
 10
31.671
 20
-68.7117
 30
0.0
 10
32.7056
 20
-69.8473
 30
0.0
 10
33.7904
 20
-70.9583
 30
0.0
  0
SPLINE
  5
68
330
1F
100
AcDbEntity
  8
layer 1
 62
     7
370
     9
100
AcDbSpline
210
0.0
220
0.0
230
1.0
 70
    11
 71
     3
 72
    16
 73
    12
 74
     0
 42
0.0000000001
 43
0.0000000001
 12
1.0
 22
0.0
 32
0.0
 13
1.0
 23
0.0
 33
0.0
 40
0.0
 40
0.0
 40
0.0
 40
0.0
 40
0.25
 40
0.25
 40
0.25
 40
0.25
 40
0.5
 40
0.5
 40
0.5
 40
0.5
 40
1.0
 40
1.0
 40
1.0
 40
1.0
 10
-43.4357
 20
-80.7827
 30
0.0
 10
-48.2549
 20
-75.6944
 30
0.0
 10
-51.9618
 20
-70.11
 30
0.0
 10
-54.4293
 20
-64.2215
 30
0.0
 10
-54.4293
 20
-64.2215
 30
0.0
 10
-53.22
 20
-70.4636
 30
0.0
 10
-51.5311
 20
-76.6534
 30
0.0
 10
-49.3708
 20
-82.7623
 30
0.0
 10
-49.3708
 20
-82.7623
 30
0.0
 10
-47.3422
 20
-82.1824
 30
0.0
 10
-45.3609
 20
-81.5214
 30
0.0
 10
-43.4357
 20
-80.7827
 30
0.0
  0
SPLINE
  5
69
330
1F
100
AcDbEntity
  8
layer 1
 62
     7
370
     9
100
AcDbSpline
210
0.0
220
0.0
230
1.0
 70
    11
 71
     3
 72
    40
 73
    36
 74
     0
 42
0.0000000001
 43
0.0000000001
 12
1.0
 22
0.0
 32
0.0
 13
1.0
 23
0.0
 33
0.0
 40
0.0
 40
0.0
 40
0.0
 40
0.0
 40
0.1
 40
0.1
 40
0.1
 40
0.1
 40
0.2
 40
0.2
 40
0.2
 40
0.2
 40
0.3
 40
0.3
 40
0.3
 40
0.3
 40
0.4
 40
0.4
 40
0.4
 40
0.4
 40
0.5
 40
0.5
 40
0.5
 40
0.5
 40
0.6
 40
0.6
 40
0.6
 40
0.6
 40
0.7
 40
0.7
 40
0.7
 40
0.7
 40
0.8
 40
0.8
 40
0.8
 40
0.8
 40
1.0
 40
1.0
 40
1.0
 40
1.0
 10
-11.5335
 20
-81.7969
 30
0.0
 10
-13.2881
 20
-77.6362
 30
0.0
 10
-17.4683
 20
-74.2214
 30
0.0
 10
-22.9991
 20
-72.4297
 30
0.0
 10
-22.9991
 20
-72.4297
 30
0.0
 10
-27.0191
 20
-71.4079
 30
0.0
 10
-30.7446
 20
-69.87
 30
0.0
 10
-33.9932
 20
-67.8911
 30
0.0
 10
-33.9932
 20
-67.8911
 30
0.0
 10
-34.7466
 20
-70.9346
 30
0.0
 10
-35.6241
 20
-73.9614
 30
0.0
 10
-36.6235
 20
-76.9683
 30
0.0
 10
-36.6235
 20
-76.9683
 30
0.0
 10
-35.2567
 20
-78.0257
 30
0.0
 10
-33.7427
 20
-78.9804
 30
0.0
 10
-32.1043
 20
-79.8171
 30
0.0
 10
-32.1043
 20
-79.8171
 30
0.0
 10
-30.8277
 20
-80.9504
 30
0.0
 10
-28.8152
 20
-81.5225
 30
0.0
 10
-26.8
 20
-81.325
 30
0.0
 10
-26.8
 20
-81.325
 30
0.0
 10
-24.7851
 20
-81.1273
 30
0.0
 10
-23.0616
 20
-80.1888
 30
0.0
 10
-22.2573
 20
-78.8514
 30
0.0
 10
-22.2573
 20
-78.8514
 30
0.0
 10
-20.5002
 20
-81.7928
 30
0.0
 10
-21.4971
 20
-85.2065
 30
0.0
 10
-24.7529
 20
-87.3978
 30
0.0
 10
-24.7529
 20
-87.3978
 30
0.0
 10
-22.3531
 20
-88.4893
 30
0.0
 10
-19.2749
 20
-88.4514
 30
0.0
 10
-16.9292
 20
-87.3011
 30
0.0
 10
-16.9292
 20
-87.3011
 30
0.0
 10
-14.3064
 20
-85.9605
 30
0.0
 10
-12.4027
 20
-84.0184
 30
0.0
 10
-11.5335
 20
-81.7969
 30
0.0
  0
SPLINE
  5
6A
330
1F
100
AcDbEntity
  8
layer 1
 62
     7
370
     9
100
AcDbSpline
210
0.0
220
0.0
230
1.0
 70
    11
 71
     3
 72
    16
 73
    12
 74
     0
 42
0.0000000001
 43
0.0000000001
 12
1.0
 22
0.0
 32
0.0
 13
1.0
 23
0.0
 33
0.0
 40
0.0
 40
0.0
 40
0.0
 40
0.0
 40
0.25
 40
0.25
 40
0.25
 40
0.25
 40
0.5
 40
0.5
 40
0.5
 40
0.5
 40
1.0
 40
1.0
 40
1.0
 40
1.0
 10
-39.0517
 20
-74.7957
 30
0.0
 10
-38.4107
 20
-71.7691
 30
0.0
 10
-37.5324
 20
-68.7709
 30
0.0
 10
-36.4209
 20
-65.8149
 30
0.0
 10
-36.4209
 20
-65.8149
 30
0.0
 10
-46.1929
 20
-57.795
 30
0.0
 10
-52.8248
 20
-48.0662
 30
0.0
 10
-55.6432
 20
-37.6172
 30
0.0
 10
-55.6432
 20
-37.6172
 30
0.0
 10
-56.2426
 20
-51.0065
 30
0.0
 10
-50.3835
 20
-64.1349
 30
0.0
 10
-39.0517
 20
-74.7957
 30
0.0
  0
SPLINE
  5
6B
330
1F
100
AcDbEntity
  8
layer 1
 62
     7
370
     9
100
AcDbSpline
210
0.0
220
0.0
230
1.0
 70
    11
 71
     3
 72
    48
 73
    44
 74
     0
 42
0.0000000001
 43
0.0000000001
 12
1.0
 22
0.0
 32
0.0
 13
1.0
 23
0.0
 33
0.0
 40
0.0
 40
0.0
 40
0.0
 40
0.0
 40
0.0833333333333333
 40
0.0833333333333333
 40
0.0833333333333333
 40
0.0833333333333333
 40
0.1666666666666667
 40
0.1666666666666667
 40
0.1666666666666667
 40
0.1666666666666667
 40
0.25
 40
0.25
 40
0.25
 40
0.25
 40
0.3333333333333333
 40
0.3333333333333333
 40
0.3333333333333333
 40
0.3333333333333333
 40
0.4166666666666667
 40
0.4166666666666667
 40
0.4166666666666667
 40
0.4166666666666667
 40
0.5
 40
0.5
 40
0.5
 40
0.5
 40
0.5833333333333334
 40
0.5833333333333334
 40
0.5833333333333334
 40
0.5833333333333334
 40
0.6666666666666666
 40
0.6666666666666666
 40
0.6666666666666666
 40
0.6666666666666666
 40
0.75
 40
0.75
 40
0.75
 40
0.75
 40
0.8333333333333334
 40
0.8333333333333334
 40
0.8333333333333334
 40
0.8333333333333334
 40
1.0
 40
1.0
 40
1.0
 40
1.0
 10
-25.0901
 20
-37.279
 30
0.0
 10
-26.1519
 20
-33.6919
 30
0.0
 10
-24.4545
 20
-29.9722
 30
0.0
 10
-20.6387
 20
-27.5259
 30
0.0
 10
-20.6387
 20
-27.5259
 30
0.0
 10
-17.6918
 20
-26.5926
 30
0.0
 10
-14.2585
 20
-26.9491
 30
0.0
 10
-11.8034
 20
-28.4433
 30
0.0
 10
-11.8034
 20
-28.4433
 30
0.0
 10
-7.6216
 20
-32.4556
 30
0.0
 10
-5.8274
 20
-37.4895
 30
0.0
 10
-6.8122
 20
-42.4455
 30
0.0
 10
-6.8122
 20
-42.4455
 30
0.0
 10
-7.1317
 20
-48.0816
 30
0.0
 10
-11.1268
 20
-53.2838
 30
0.0
 10
-17.6038
 20
-56.4962
 30
0.0
 10
-17.6038
 20
-56.4962
 30
0.0
 10
-24.1623
 20
-59.236
 30
0.0
 10
-32.4685
 20
-58.5051
 30
0.0
 10
-37.9048
 20
-54.7097
 30
0.0
 10
-37.9048
 20
-54.7097
 30
0.0
 10
-37.0869
 20
-52.1197
 30
0.0
 10
-36.3895
 20
-49.5108
 30
0.0
 10
-35.8138
 20
-46.8875
 30
0.0
 10
-35.8138
 20
-46.8875
 30
0.0
 10
-34.1717
 20
-49.2264
 30
0.0
 10
-30.9533
 20
-50.7887
 30
0.0
 10
-27.3104
 20
-51.0151
 30
0.0
 10
-27.3104
 20
-51.0151
 30
0.0
 10
-23.6679
 20
-51.2416
 30
0.0
 10
-20.1212
 20
-50.0994
 30
0.0
 10
-17.9407
 20
-47.9983
 30
0.0
 10
-17.9407
 20
-47.9983
 30
0.0
 10
-13.972
 20
-44.518
 30
0.0
 10
-12.9164
 20
-39.7808
 30
0.0
 10
-15.1756
 20
-35.5894
 30
0.0
 10
-15.1756
 20
-35.5894
 30
0.0
 10
-15.991
 20
-34.3345
 30
0.0
 10
-17.7613
 20
-33.5402
 30
0.0
 10
-19.6943
 20
-33.5613
 30
0.0
 10
-19.6943
 20
-33.5613
 30
0.0
 10
-22.0457
 20
-34.3101
 30
0.0
 10
-23.9551
 20
-35.6259
 30
0.0
 10
-25.0901
 20
-37.279
 30
0.0
  0
SPLINE
  5
6C
330
1F
100
AcDbEntity
  8
layer 1
 62
     7
370
     9
100
AcDbSpline
210
0.0
220
0.0
230
1.0
 70
    11
 71
     3
 72
    20
 73
    16
 74
     0
 42
0.0000000001
 43
0.0000000001
 12
1.0
 22
0.0
 32
0.0
 13
1.0
 23
0.0
 33
0.0
 40
0.0
 40
0.0
 40
0.0
 40
0.0
 40
0.2
 40
0.2
 40
0.2
 40
0.2
 40
0.4
 40
0.4
 40
0.4
 40
0.4
 40
0.6
 40
0.6
 40
0.6
 40
0.6
 40
1.0
 40
1.0
 40
1.0
 40
1.0
 10
-37.9721
 20
-44.7631
 30
0.0
 10
-41.6548
 20
-37.2385
 30
0.0
 10
-41.4633
 20
-29.0198
 30
0.0
 10
-37.4327
 20
-21.5869
 30
0.0
 10
-37.4327
 20
-21.5869
 30
0.0
 10
-37.796
 20
-18.854
 30
0.0
 10
-38.1106
 20
-16.1177
 30
0.0
 10
-38.3771
 20
-13.3789
 30
0.0
 10
-38.3771
 20
-13.3789
 30
0.0
 10
-50.5269
 20
-25.1797
 30
0.0
 10
-51.3299
 20
-41.1053
 30
0.0
 10
-40.4004
 20
-53.5026
 30
0.0
 10
-40.4004
 20
-53.5026
 30
0.0
 10
-39.634
 20
-50.5833
 30
0.0
 10
-38.8248
 20
-47.6701
 30
0.0
 10
-37.9721
 20
-44.7631
 30
0.0
  0
SPLINE
  5
6D
330
1F
100
AcDbEntity
  8
layer 1
 62
     7
370
     9
100
AcDbSpline
210
0.0
220
0.0
230
1.0
 70
    11
 71
     3
 72
    32
 73
    28
 74
     0
 42
0.0000000001
 43
0.0000000001
 12
1.0
 22
0.0
 32
0.0
 13
1.0
 23
0.0
 33
0.0
 40
0.0
 40
0.0
 40
0.0
 40
0.0
 40
0.125
 40
0.125
 40
0.125
 40
0.125
 40
0.25
 40
0.25
 40
0.25
 40
0.25
 40
0.375
 40
0.375
 40
0.375
 40
0.375
 40
0.5
 40
0.5
 40
0.5
 40
0.5
 40
0.625
 40
0.625
 40
0.625
 40
0.625
 40
0.75
 40
0.75
 40
0.75
 40
0.75
 40
1.0
 40
1.0
 40
1.0
 40
1.0
 10
-34.5326
 20
-19.6556
 30
0.0
 10
-31.4696
 20
-15.8426
 30
0.0
 10
-25.6551
 20
-13.5999
 30
0.0
 10
-19.522
 20
-13.8659
 30
0.0
 10
-19.522
 20
-13.8659
 30
0.0
 10
-13.3888
 20
-14.1321
 30
0.0
 10
-7.9952
 20
-16.8611
 30
0.0
 10
-5.598
 20
-20.9111
 30
0.0
 10
-5.598
 20
-20.9111
 30
0.0
 10
-3.2012
 20
-16.6855
 30
0.0
 10
-2.0973
 20
-12.1413
 30
0.0
 10
-2.3609
 20
-7.5849
 30
0.0
 10
-2.3609
 20
-7.5849
 30
0.0
 10
-2.0981
 20
-5.5746
 30
0.0
 10
-3.2211
 20
-3.599
 30
0.0
 10
-5.3699
 20
-2.2915
 30
0.0
 10
-5.3699
 20
-2.2915
 30
0.0
 10
-7.5186
 20
-0.9838
 30
0.0
 10
-10.4234
 20
-0.5088
 30
0.0
 10
-13.152
 20
-1.0182
 30
0.0
 10
-13.152
 20
-1.0182
 30
0.0
 10
-21.9849
 20
-2.3446
 30
0.0
 10
-29.9002
 20
-5.8265
 30
0.0
 10
-35.5444
 20
-10.8679
 30
0.0
 10
-35.5444
 20
-10.8679
 30
0.0
 10
-35.2162
 20
-13.7977
 30
0.0
 10
-34.8789
 20
-16.7269
 30
0.0
 10
-34.5326
 20
-19.6556
 30
0.0
  0
SPLINE
  5
6E
330
1F
100
AcDbEntity
  8
layer 1
 62
     7
370
     9
100
AcDbSpline
210
0.0
220
0.0
230
1.0
 70
    11
 71
     3
 72
    24
 73
    20
 74
     0
 42
0.0000000001
 43
0.0000000001
 12
1.0
 22
0.0
 32
0.0
 13
1.0
 23
0.0
 33
0.0
 40
0.0
 40
0.0
 40
0.0
 40
0.0
 40
0.1666666666666667
 40
0.1666666666666667
 40
0.1666666666666667
 40
0.1666666666666667
 40
0.3333333333333333
 40
0.3333333333333333
 40
0.3333333333333333
 40
0.3333333333333333
 40
0.5
 40
0.5
 40
0.5
 40
0.5
 40
0.6666666666666666
 40
0.6666666666666666
 40
0.6666666666666666
 40
0.6666666666666666
 40
1.0
 40
1.0
 40
1.0
 40
1.0
 10
16.929
 20
-24.7739
 30
0.0
 10
14.3
 20
-24.1693
 30
0.0
 10
11.4242
 20
-24.5304
 30
0.0
 10
9.2398
 20
-25.7394
 30
0.0
 10
9.2398
 20
-25.7394
 30
0.0
 10
11.5035
 20
-32.3986
 30
0.0
 10
8.9728
 20
-39.427
 30
0.0
 10
2.4954
 20
-44.4737
 30
0.0
 10
2.4954
 20
-44.4737
 30
0.0
 10
4.6756
 20
-38.9049
 30
0.0
 10
4.9534
 20
-33.0427
 30
0.0
 10
3.3047
 20
-27.381
 30
0.0
 10
3.3047
 20
-27.381
 30
0.0
 10
2.3967
 20
-22.1079
 30
0.0
 10
3.7118
 20
-16.7607
 30
0.0
 10
7.082
 20
-12.0268
 30
0.0
 10
7.082
 20
-12.0268
 30
0.0
 10
11.6469
 20
-15.6989
 30
0.0
 10
15.0109
 20
-20.0535
 30
0.0
 10
16.929
 20
-24.7739
 30
0.0
  0
SPLINE
  5
6F
330
1F
100
AcDbEntity
  8
layer 1
 62
     7
370
     9
100
AcDbSpline
210
0.0
220
0.0
230
1.0
 70
    11
 71
     3
 72
    16
 73
    12
 74
     0
 42
0.0000000001
 43
0.0000000001
 12
1.0
 22
0.0
 32
0.0
 13
1.0
 23
0.0
 33
0.0
 40
0.0
 40
0.0
 40
0.0
 40
0.0
 40
0.25
 40
0.25
 40
0.25
 40
0.25
 40
0.5
 40
0.5
 40
0.5
 40
0.5
 40
1.0
 40
1.0
 40
1.0
 40
1.0
 10
20.706
 20
-62.1452
 30
0.0
 10
24.0239
 20
-53.4357
 30
0.0
 10
24.8043
 20
-44.3308
 30
0.0
 10
22.999
 20
-35.3962
 30
0.0
 10
22.999
 20
-35.3962
 30
0.0
 10
19.8884
 20
-44.5172
 30
0.0
 10
13.5201
 20
-52.9029
 30
0.0
 10
4.5186
 20
-59.7311
 30
0.0
 10
4.5186
 20
-59.7311
 30
0.0
 10
9.2241
 20
-62.0903
 30
0.0
 10
15.0762
 20
-62.9631
 30
0.0
 10
20.706
 20
-62.1452
 30
0.0
  0
SPLINE
  5
70
330
1F
100
AcDbEntity
  8
layer 1
 62
     7
370
     9
100
AcDbSpline
210
0.0
220
0.0
230
1.0
 70
    11
 71
     3
 72
    20
 73
    16
 74
     0
 42
0.0000000001
 43
0.0000000001
 12
1.0
 22
0.0
 32
0.0
 13
1.0
 23
0.0
 33
0.0
 40
0.0
 40
0.0
 40
0.0
 40
0.0
 40
0.2
 40
0.2
 40
0.2
 40
0.2
 40
0.4
 40
0.4
 40
0.4
 40
0.4
 40
0.6
 40
0.6
 40
0.6
 40
0.6
 40
1.0
 40
1.0
 40
1.0
 40
1.0
 10
12.4772
 20
-70.45
 30
0.0
 10
7.2303
 20
-76.2825
 30
0.0
 10
0.2238
 20
-81.199
 30
0.0
 10
-8.0262
 20
-84.8386
 30
0.0
 10
-8.0262
 20
-84.8386
 30
0.0
 10
-4.437
 20
-80.7188
 30
0.0
 10
-3.4103
 20
-75.7141
 30
0.0
 10
-5.1933
 20
-71.0295
 30
0.0
 10
-5.1933
 20
-71.0295
 30
0.0
 10
-2.7458
 20
-72.6345
 30
0.0
 10
0.4942
 20
-73.4755
 30
0.0
 10
3.8102
 20
-73.3668
 30
0.0
 10
3.8102
 20
-73.3668
 30
0.0
 10
7.1261
 20
-73.2583
 30
0.0
 10
10.245
 20
-72.2084
 30
0.0
 10
12.4772
 20
-70.45
 30
0.0
  0
SPLINE
  5
71
330
1F
100
AcDbEntity
  8
layer 1
 62
     7
370
     9
100
AcDbSpline
210
0.0
220
0.0
230
1.0
 70
    11
 71
     3
 72
    28
 73
    24
 74
     0
 42
0.0000000001
 43
0.0000000001
 12
1.0
 22
0.0
 32
0.0
 13
1.0
 23
0.0
 33
0.0
 40
0.0
 40
0.0
 40
0.0
 40
0.0
 40
0.1428571428571428
 40
0.1428571428571428
 40
0.1428571428571428
 40
0.1428571428571428
 40
0.2857142857142857
 40
0.2857142857142857
 40
0.2857142857142857
 40
0.2857142857142857
 40
0.4285714285714285
 40
0.4285714285714285
 40
0.4285714285714285
 40
0.4285714285714285
 40
0.5714285714285714
 40
0.5714285714285714
 40
0.5714285714285714
 40
0.5714285714285714
 40
0.7142857142857143
 40
0.7142857142857143
 40
0.7142857142857143
 40
0.7142857142857143
 40
1.0
 40
1.0
 40
1.0
 40
1.0
 10
28.2598
 20
95.8386
 30
0.0
 10
30.5112
 20
96.8077
 30
0.0
 10
32.4071
 20
98.1467
 30
0.0
 10
33.7904
 20
99.7456
 30
0.0
 10
33.7904
 20
99.7456
 30
0.0
 10
33.7904
 20
99.7456
 30
0.0
 10
33.7904
 20
113.8003
 30
0.0
 10
33.7904
 20
113.8003
 30
0.0
 10
33.7904
 20
113.8003
 30
0.0
 10
33.7904
 20
113.8003
 30
0.0
 10
-2.8069
 20
113.8003
 30
0.0
 10
-2.8069
 20
113.8003
 30
0.0
 10
-2.8069
 20
113.8003
 30
0.0
 10
2.6848
 20
110.7739
 30
0.0
 10
7.7172
 20
107.3432
 30
0.0
 10
12.2074
 20
103.5643
 30
0.0
 10
12.2074
 20
103.5643
 30
0.0
 10
14.429
 20
101.1474
 30
0.0
 10
16.7228
 20
98.7647
 30
0.0
 10
19.087
 20
96.4181
 30
0.0
 10
19.087
 20
96.4181
 30
0.0
 10
21.8347
 20
95.1759
 30
0.0
 10
25.2509
 20
94.9603
 30
0.0
 10
28.2598
 20
95.8386
 30
0.0
  0
SPLINE
  5
72
330
1F
100
AcDbEntity
  8
layer 1
 62
     7
370
     9
100
AcDbSpline
210
0.0
220
0.0
230
1.0
 70
    11
 71
     3
 72
    32
 73
    28
 74
     0
 42
0.0000000001
 43
0.0000000001
 12
1.0
 22
0.0
 32
0.0
 13
1.0
 23
0.0
 33
0.0
 40
0.0
 40
0.0
 40
0.0
 40
0.0
 40
0.125
 40
0.125
 40
0.125
 40
0.125
 40
0.25
 40
0.25
 40
0.25
 40
0.25
 40
0.375
 40
0.375
 40
0.375
 40
0.375
 40
0.5
 40
0.5
 40
0.5
 40
0.5
 40
0.625
 40
0.625
 40
0.625
 40
0.625
 40
0.75
 40
0.75
 40
0.75
 40
0.75
 40
1.0
 40
1.0
 40
1.0
 40
1.0
 10
-42.154
 20
99.9912
 30
0.0
 10
-37.9234
 20
105.8867
 30
0.0
 10
-31.2616
 20
110.7077
 30
0.0
 10
-23.0727
 20
113.8003
 30
0.0
 10
-23.0727
 20
113.8003
 30
0.0
 10
-23.0727
 20
113.8003
 30
0.0
 10
-35.4126
 20
113.8003
 30
0.0
 10
-35.4126
 20
113.8003
 30
0.0
 10
-35.4126
 20
113.8003
 30
0.0
 10
-36.2429
 20
111.9838
 30
0.0
 10
-37.546
 20
110.2962
 30
0.0
 10
-39.2538
 20
108.8273
 30
0.0
 10
-39.2538
 20
108.8273
 30
0.0
 10
-41.0343
 20
107.5133
 30
0.0
 10
-43.9097
 20
107.3678
 30
0.0
 10
-45.9313
 20
108.4891
 30
0.0
 10
-45.9313
 20
108.4891
 30
0.0
 10
-47.079
 20
109.2466
 30
0.0
 10
-48.0573
 20
110.1258
 30
0.0
 10
-48.831
 20
111.0965
 30
0.0
 10
-48.831
 20
111.0965
 30
0.0
 10
-48.5298
 20
108.2343
 30
0.0
 10
-48.5748
 20
105.3586
 30
0.0
 10
-48.9662
 20
102.5019
 30
0.0
 10
-48.9662
 20
102.5019
 30
0.0
 10
-46.7318
 20
101.6154
 30
0.0
 10
-44.4599
 20
100.7781
 30
0.0
 10
-42.154
 20
99.9912
 30
0.0
  0
SPLINE
  5
73
330
1F
100
AcDbEntity
  8
layer 1
 62
     7
370
     9
100
AcDbSpline
210
0.0
220
0.0
230
1.0
 70
    11
 71
     3
 72
    16
 73
    12
 74
     0
 42
0.0000000001
 43
0.0000000001
 12
1.0
 22
0.0
 32
0.0
 13
1.0
 23
0.0
 33
0.0
 40
0.0
 40
0.0
 40
0.0
 40
0.0
 40
0.25
 40
0.25
 40
0.25
 40
0.25
 40
0.5
 40
0.5
 40
0.5
 40
0.5
 40
1.0
 40
1.0
 40
1.0
 40
1.0
 10
33.7904
 20
87.8491
 30
0.0
 10
33.7904
 20
87.8491
 30
0.0
 10
33.7904
 20
78.3916
 30
0.0
 10
33.7904
 20
78.3916
 30
0.0
 10
33.7904
 20
78.3916
 30
0.0
 10
32.8596
 20
80.4354
 30
0.0
 10
31.8247
 20
82.4543
 30
0.0
 10
30.6879
 20
84.444
 30
0.0
 10
30.6879
 20
84.444
 30
0.0
 10
31.671
 20
85.6024
 30
0.0
 10
32.7056
 20
86.738
 30
0.0
 10
33.7904
 20
87.8491
 30
0.0
  0
SPLINE
  5
74
330
1F
100
AcDbEntity
  8
layer 1
 62
     7
370
     9
100
AcDbSpline
210
0.0
220
0.0
230
1.0
 70
    11
 71
     3
 72
    16
 73
    12
 74
     0
 42
0.0000000001
 43
0.0000000001
 12
1.0
 22
0.0
 32
0.0
 13
1.0
 23
0.0
 33
0.0
 40
0.0
 40
0.0
 40
0.0
 40
0.0
 40
0.25
 40
0.25
 40
0.25
 40
0.25
 40
0.5
 40
0.5
 40
0.5
 40
0.5
 40
1.0
 40
1.0
 40
1.0
 40
1.0
 10
-43.4357
 20
97.6736
 30
0.0
 10
-48.2549
 20
92.5853
 30
0.0
 10
-51.9618
 20
87.0007
 30
0.0
 10
-54.4293
 20
81.1122
 30
0.0
 10
-54.4293
 20
81.1122
 30
0.0
 10
-53.22
 20
87.3545
 30
0.0
 10
-51.5311
 20
93.5441
 30
0.0
 10
-49.3708
 20
99.653
 30
0.0
 10
-49.3708
 20
99.653
 30
0.0
 10
-47.3422
 20
99.0733
 30
0.0
 10
-45.3609
 20
98.4121
 30
0.0
 10
-43.4357
 20
97.6736
 30
0.0
  0
SPLINE
  5
75
330
1F
100
AcDbEntity
  8
layer 1
 62
     7
370
     9
100
AcDbSpline
210
0.0
220
0.0
230
1.0
 70
    11
 71
     3
 72
    40
 73
    36
 74
     0
 42
0.0000000001
 43
0.0000000001
 12
1.0
 22
0.0
 32
0.0
 13
1.0
 23
0.0
 33
0.0
 40
0.0
 40
0.0
 40
0.0
 40
0.0
 40
0.1
 40
0.1
 40
0.1
 40
0.1
 40
0.2
 40
0.2
 40
0.2
 40
0.2
 40
0.3
 40
0.3
 40
0.3
 40
0.3
 40
0.4
 40
0.4
 40
0.4
 40
0.4
 40
0.5
 40
0.5
 40
0.5
 40
0.5
 40
0.6
 40
0.6
 40
0.6
 40
0.6
 40
0.7
 40
0.7
 40
0.7
 40
0.7
 40
0.8
 40
0.8
 40
0.8
 40
0.8
 40
1.0
 40
1.0
 40
1.0
 40
1.0
 10
-11.5335
 20
98.6875
 30
0.0
 10
-13.2881
 20
94.5269
 30
0.0
 10
-17.4683
 20
91.1121
 30
0.0
 10
-22.9991
 20
89.3205
 30
0.0
 10
-22.9991
 20
89.3205
 30
0.0
 10
-27.0191
 20
88.299
 30
0.0
 10
-30.7446
 20
86.7608
 30
0.0
 10
-33.9932
 20
84.7819
 30
0.0
 10
-33.9932
 20
84.7819
 30
0.0
 10
-34.7466
 20
87.8253
 30
0.0
 10
-35.6241
 20
90.8524
 30
0.0
 10
-36.6235
 20
93.8593
 30
0.0
 10
-36.6235
 20
93.8593
 30
0.0
 10
-35.2567
 20
94.9167
 30
0.0
 10
-33.7427
 20
95.8712
 30
0.0
 10
-32.1043
 20
96.7078
 30
0.0
 10
-32.1043
 20
96.7078
 30
0.0
 10
-30.8277
 20
97.8414
 30
0.0
 10
-28.8152
 20
98.4132
 30
0.0
 10
-26.8
 20
98.2158
 30
0.0
 10
-26.8
 20
98.2158
 30
0.0
 10
-24.7851
 20
98.018
 30
0.0
 10
-23.0616
 20
97.0798
 30
0.0
 10
-22.2573
 20
95.7421
 30
0.0
 10
-22.2573
 20
95.7421
 30
0.0
 10
-20.5002
 20
98.6835
 30
0.0
 10
-21.4971
 20
102.0975
 30
0.0
 10
-24.7529
 20
104.2885
 30
0.0
 10
-24.7529
 20
104.2885
 30
0.0
 10
-22.3531
 20
105.38
 30
0.0
 10
-19.2749
 20
105.3421
 30
0.0
 10
-16.9292
 20
104.1919
 30
0.0
 10
-16.9292
 20
104.1919
 30
0.0
 10
-14.3064
 20
102.8511
 30
0.0
 10
-12.4027
 20
100.9091
 30
0.0
 10
-11.5335
 20
98.6875
 30
0.0
  0
SPLINE
  5
76
330
1F
100
AcDbEntity
  8
layer 1
 62
     7
370
     9
100
AcDbSpline
210
0.0
220
0.0
230
1.0
 70
    11
 71
     3
 72
    16
 73
    12
 74
     0
 42
0.0000000001
 43
0.0000000001
 12
1.0
 22
0.0
 32
0.0
 13
1.0
 23
0.0
 33
0.0
 40
0.0
 40
0.0
 40
0.0
 40
0.0
 40
0.25
 40
0.25
 40
0.25
 40
0.25
 40
0.5
 40
0.5
 40
0.5
 40
0.5
 40
1.0
 40
1.0
 40
1.0
 40
1.0
 10
-39.0517
 20
91.6865
 30
0.0
 10
-38.4107
 20
88.6598
 30
0.0
 10
-37.5324
 20
85.6616
 30
0.0
 10
-36.4209
 20
82.7056
 30
0.0
 10
-36.4209
 20
82.7056
 30
0.0
 10
-46.1929
 20
74.6859
 30
0.0
 10
-52.8248
 20
64.9572
 30
0.0
 10
-55.6432
 20
54.5079
 30
0.0
 10
-55.6432
 20
54.5079
 30
0.0
 10
-56.2426
 20
67.8972
 30
0.0
 10
-50.3835
 20
81.0259
 30
0.0
 10
-39.0517
 20
91.6865
 30
0.0
  0
SPLINE
  5
77
330
1F
100
AcDbEntity
  8
layer 1
 62
     7
370
     9
100
AcDbSpline
210
0.0
220
0.0
230
1.0
 70
    11
 71
     3
 72
    48
 73
    44
 74
     0
 42
0.0000000001
 43
0.0000000001
 12
1.0
 22
0.0
 32
0.0
 13
1.0
 23
0.0
 33
0.0
 40
0.0
 40
0.0
 40
0.0
 40
0.0
 40
0.0833333333333333
 40
0.0833333333333333
 40
0.0833333333333333
 40
0.0833333333333333
 40
0.1666666666666667
 40
0.1666666666666667
 40
0.1666666666666667
 40
0.1666666666666667
 40
0.25
 40
0.25
 40
0.25
 40
0.25
 40
0.3333333333333333
 40
0.3333333333333333
 40
0.3333333333333333
 40
0.3333333333333333
 40
0.4166666666666667
 40
0.4166666666666667
 40
0.4166666666666667
 40
0.4166666666666667
 40
0.5
 40
0.5
 40
0.5
 40
0.5
 40
0.5833333333333334
 40
0.5833333333333334
 40
0.5833333333333334
 40
0.5833333333333334
 40
0.6666666666666666
 40
0.6666666666666666
 40
0.6666666666666666
 40
0.6666666666666666
 40
0.75
 40
0.75
 40
0.75
 40
0.75
 40
0.8333333333333334
 40
0.8333333333333334
 40
0.8333333333333334
 40
0.8333333333333334
 40
1.0
 40
1.0
 40
1.0
 40
1.0
 10
-25.0901
 20
54.1701
 30
0.0
 10
-26.1519
 20
50.5829
 30
0.0
 10
-24.4545
 20
46.863
 30
0.0
 10
-20.6387
 20
44.4169
 30
0.0
 10
-20.6387
 20
44.4169
 30
0.0
 10
-17.6918
 20
43.4836
 30
0.0
 10
-14.2585
 20
43.8399
 30
0.0
 10
-11.8034
 20
45.3343
 30
0.0
 10
-11.8034
 20
45.3343
 30
0.0
 10
-7.6216
 20
49.3467
 30
0.0
 10
-5.8274
 20
54.3803
 30
0.0
 10
-6.8122
 20
59.3365
 30
0.0
 10
-6.8122
 20
59.3365
 30
0.0
 10
-7.1317
 20
64.9723
 30
0.0
 10
-11.1268
 20
70.1745
 30
0.0
 10
-17.6038
 20
73.3869
 30
0.0
 10
-17.6038
 20
73.3869
 30
0.0
 10
-24.1623
 20
76.1267
 30
0.0
 10
-32.4685
 20
75.3958
 30
0.0
 10
-37.9048
 20
71.6004
 30
0.0
 10
-37.9048
 20
71.6004
 30
0.0
 10
-37.0869
 20
69.0104
 30
0.0
 10
-36.3895
 20
66.4015
 30
0.0
 10
-35.8138
 20
63.7784
 30
0.0
 10
-35.8138
 20
63.7784
 30
0.0
 10
-34.1717
 20
66.1175
 30
0.0
 10
-30.9533
 20
67.6794
 30
0.0
 10
-27.3104
 20
67.9059
 30
0.0
 10
-27.3104
 20
67.9059
 30
0.0
 10
-23.6679
 20
68.1322
 30
0.0
 10
-20.1212
 20
66.9904
 30
0.0
 10
-17.9407
 20
64.889
 30
0.0
 10
-17.9407
 20
64.889
 30
0.0
 10
-13.972
 20
61.4087
 30
0.0
 10
-12.9164
 20
56.6716
 30
0.0
 10
-15.1756
 20
52.4801
 30
0.0
 10
-15.1756
 20
52.4801
 30
0.0
 10
-15.991
 20
51.2251
 30
0.0
 10
-17.7613
 20
50.4311
 30
0.0
 10
-19.6943
 20
50.4523
 30
0.0
 10
-19.6943
 20
50.4523
 30
0.0
 10
-22.0457
 20
51.2008
 30
0.0
 10
-23.9551
 20
52.5166
 30
0.0
 10
-25.0901
 20
54.1701
 30
0.0
  0
SPLINE
  5
78
330
1F
100
AcDbEntity
  8
layer 1
 62
     7
370
     9
100
AcDbSpline
210
0.0
220
0.0
230
1.0
 70
    11
 71
     3
 72
    20
 73
    16
 74
     0
 42
0.0000000001
 43
0.0000000001
 12
1.0
 22
0.0
 32
0.0
 13
1.0
 23
0.0
 33
0.0
 40
0.0
 40
0.0
 40
0.0
 40
0.0
 40
0.2
 40
0.2
 40
0.2
 40
0.2
 40
0.4
 40
0.4
 40
0.4
 40
0.4
 40
0.6
 40
0.6
 40
0.6
 40
0.6
 40
1.0
 40
1.0
 40
1.0
 40
1.0
 10
-37.9721
 20
61.6541
 30
0.0
 10
-41.6548
 20
54.1292
 30
0.0
 10
-41.4633
 20
45.9105
 30
0.0
 10
-37.4327
 20
38.4778
 30
0.0
 10
-37.4327
 20
38.4778
 30
0.0
 10
-37.796
 20
35.7448
 30
0.0
 10
-38.1106
 20
33.0084
 30
0.0
 10
-38.3771
 20
30.2696
 30
0.0
 10
-38.3771
 20
30.2696
 30
0.0
 10
-50.5269
 20
42.0704
 30
0.0
 10
-51.3299
 20
57.996
 30
0.0
 10
-40.4004
 20
70.3933
 30
0.0
 10
-40.4004
 20
70.3933
 30
0.0
 10
-39.634
 20
67.4741
 30
0.0
 10
-38.8248
 20
64.5609
 30
0.0
 10
-37.9721
 20
61.6541
 30
0.0
  0
SPLINE
  5
79
330
1F
100
AcDbEntity
  8
layer 1
 62
     7
370
     9
100
AcDbSpline
210
0.0
220
0.0
230
1.0
 70
    11
 71
     3
 72
    32
 73
    28
 74
     0
 42
0.0000000001
 43
0.0000000001
 12
1.0
 22
0.0
 32
0.0
 13
1.0
 23
0.0
 33
0.0
 40
0.0
 40
0.0
 40
0.0
 40
0.0
 40
0.125
 40
0.125
 40
0.125
 40
0.125
 40
0.25
 40
0.25
 40
0.25
 40
0.25
 40
0.375
 40
0.375
 40
0.375
 40
0.375
 40
0.5
 40
0.5
 40
0.5
 40
0.5
 40
0.625
 40
0.625
 40
0.625
 40
0.625
 40
0.75
 40
0.75
 40
0.75
 40
0.75
 40
1.0
 40
1.0
 40
1.0
 40
1.0
 10
-34.5326
 20
36.5466
 30
0.0
 10
-31.4696
 20
32.7336
 30
0.0
 10
-25.6551
 20
30.4906
 30
0.0
 10
-19.522
 20
30.7569
 30
0.0
 10
-19.522
 20
30.7569
 30
0.0
 10
-13.3888
 20
31.0227
 30
0.0
 10
-7.9952
 20
33.7518
 30
0.0
 10
-5.598
 20
37.8018
 30
0.0
 10
-5.598
 20
37.8018
 30
0.0
 10
-3.2012
 20
33.5765
 30
0.0
 10
-2.0973
 20
29.0323
 30
0.0
 10
-2.3609
 20
24.4756
 30
0.0
 10
-2.3609
 20
24.4756
 30
0.0
 10
-2.0981
 20
22.4653
 30
0.0
 10
-3.2211
 20
20.4899
 30
0.0
 10
-5.3699
 20
19.1823
 30
0.0
 10
-5.3699
 20
19.1823
 30
0.0
 10
-7.5186
 20
17.8748
 30
0.0
 10
-10.4234
 20
17.3995
 30
0.0
 10
-13.152
 20
17.9089
 30
0.0
 10
-13.152
 20
17.9089
 30
0.0
 10
-21.9849
 20
19.2355
 30
0.0
 10
-29.9002
 20
22.7172
 30
0.0
 10
-35.5444
 20
27.7589
 30
0.0
 10
-35.5444
 20
27.7589
 30
0.0
 10
-35.2162
 20
30.6887
 30
0.0
 10
-34.8789
 20
33.6179
 30
0.0
 10
-34.5326
 20
36.5466
 30
0.0
  0
SPLINE
  5
7A
330
1F
100
AcDbEntity
  8
layer 1
 62
     7
370
     9
100
AcDbSpline
210
0.0
220
0.0
230
1.0
 70
    11
 71
     3
 72
    24
 73
    20
 74
     0
 42
0.0000000001
 43
0.0000000001
 12
1.0
 22
0.0
 32
0.0
 13
1.0
 23
0.0
 33
0.0
 40
0.0
 40
0.0
 40
0.0
 40
0.0
 40
0.1666666666666667
 40
0.1666666666666667
 40
0.1666666666666667
 40
0.1666666666666667
 40
0.3333333333333333
 40
0.3333333333333333
 40
0.3333333333333333
 40
0.3333333333333333
 40
0.5
 40
0.5
 40
0.5
 40
0.5
 40
0.6666666666666666
 40
0.6666666666666666
 40
0.6666666666666666
 40
0.6666666666666666
 40
1.0
 40
1.0
 40
1.0
 40
1.0
 10
16.929
 20
41.6646
 30
0.0
 10
14.3
 20
41.06
 30
0.0
 10
11.4242
 20
41.4211
 30
0.0
 10
9.2398
 20
42.6303
 30
0.0
 10
9.2398
 20
42.6303
 30
0.0
 10
11.5035
 20
49.2893
 30
0.0
 10
8.9728
 20
56.3177
 30
0.0
 10
2.4954
 20
61.3644
 30
0.0
 10
2.4954
 20
61.3644
 30
0.0
 10
4.6756
 20
55.7956
 30
0.0
 10
4.9534
 20
49.9334
 30
0.0
 10
3.3047
 20
44.2719
 30
0.0
 10
3.3047
 20
44.2719
 30
0.0
 10
2.3967
 20
38.9986
 30
0.0
 10
3.7118
 20
33.6515
 30
0.0
 10
7.082
 20
28.9179
 30
0.0
 10
7.082
 20
28.9179
 30
0.0
 10
11.6469
 20
32.5899
 30
0.0
 10
15.0109
 20
36.9446
 30
0.0
 10
16.929
 20
41.6646
 30
0.0
  0
SPLINE
  5
7B
330
1F
100
AcDbEntity
  8
layer 1
 62
     7
370
     9
100
AcDbSpline
210
0.0
220
0.0
230
1.0
 70
    11
 71
     3
 72
    16
 73
    12
 74
     0
 42
0.0000000001
 43
0.0000000001
 12
1.0
 22
0.0
 32
0.0
 13
1.0
 23
0.0
 33
0.0
 40
0.0
 40
0.0
 40
0.0
 40
0.0
 40
0.25
 40
0.25
 40
0.25
 40
0.25
 40
0.5
 40
0.5
 40
0.5
 40
0.5
 40
1.0
 40
1.0
 40
1.0
 40
1.0
 10
20.706
 20
79.036
 30
0.0
 10
24.0239
 20
70.3265
 30
0.0
 10
24.8043
 20
61.2215
 30
0.0
 10
22.999
 20
52.287
 30
0.0
 10
22.999
 20
52.287
 30
0.0
 10
19.8884
 20
61.4079
 30
0.0
 10
13.5201
 20
69.7936
 30
0.0
 10
4.5186
 20
76.6221
 30
0.0
 10
4.5186
 20
76.6221
 30
0.0
 10
9.2241
 20
78.9811
 30
0.0
 10
15.0762
 20
79.8538
 30
0.0
 10
20.706
 20
79.036
 30
0.0
  0
SPLINE
  5
7C
330
1F
100
AcDbEntity
  8
layer 1
 62
     7
370
     9
100
AcDbSpline
210
0.0
220
0.0
230
1.0
 70
    11
 71
     3
 72
    20
 73
    16
 74
     0
 42
0.0000000001
 43
0.0000000001
 12
1.0
 22
0.0
 32
0.0
 13
1.0
 23
0.0
 33
0.0
 40
0.0
 40
0.0
 40
0.0
 40
0.0
 40
0.2
 40
0.2
 40
0.2
 40
0.2
 40
0.4
 40
0.4
 40
0.4
 40
0.4
 40
0.6
 40
0.6
 40
0.6
 40
0.6
 40
1.0
 40
1.0
 40
1.0
 40
1.0
 10
12.4772
 20
87.341
 30
0.0
 10
10.245
 20
89.0994
 30
0.0
 10
7.1261
 20
90.149
 30
0.0
 10
3.8102
 20
90.2578
 30
0.0
 10
3.8102
 20
90.2578
 30
0.0
 10
0.4942
 20
90.3666
 30
0.0
 10
-2.7458
 20
89.5252
 30
0.0
 10
-5.1933
 20
87.9202
 30
0.0
 10
-5.1933
 20
87.9202
 30
0.0
 10
-3.4103
 20
92.6048
 30
0.0
 10
-4.437
 20
97.6095
 30
0.0
 10
-8.0262
 20
101.7293
 30
0.0
 10
-8.0262
 20
101.7293
 30
0.0
 10
0.2238
 20
98.09
 30
0.0
 10
7.2303
 20
93.1732
 30
0.0
 10
12.4772
 20
87.341
 30
0.0
  0
ENDSEC
  0
SECTION
  2
OBJECTS
  0
DICTIONARY
  5
C
330
0
100
AcDbDictionary
281
     1
  3
ACAD_GROUP
350
D
  3
ACAD_LAYOUT
350
1A
  3
ACAD_MATERIAL
350
3B
  3
ACAD_MLEADERSTYLE
350
9E
  3
ACAD_MLINESTYLE
350
17
  3
ACAD_PLOTSETTINGS
350
19
  3
ACAD_PLOTSTYLENAME
350
E
  3
ACAD_TABLESTYLE
350
9D
  3
ACAD_VISUALSTYLE
350
2A
  0
DICTIONARY
  5
D
102
{ACAD_REACTORS
330
C
102
}
330
C
100
AcDbDictionary
281
     1
  0
DICTIONARY
  5
1A
102
{ACAD_REACTORS
330
C
102
}
330
C
100
AcDbDictionary
281
     1
  3
Layout1
350
1E
  3
Layout2
350
26
  3
Model
350
22
  0
DICTIONARY
  5
3B
102
{ACAD_REACTORS
330
C
102
}
330
C
100
AcDbDictionary
281
     1
  3
ByBlock
350
3D
  3
ByLayer
350
3C
  3
Global
350
3E
  0
DICTIONARY
  5
9E
102
{ACAD_REACTORS
330
C
102
}
330
C
100
AcDbDictionary
281
     1
  0
DICTIONARY
  5
17
102
{ACAD_REACTORS
330
C
102
}
330
C
100
AcDbDictionary
281
     1
  3
Standard
350
18
  0
DICTIONARY
  5
19
102
{ACAD_REACTORS
330
C
102
}
330
C
100
AcDbDictionary
281
     1
  0
ACDBDICTIONARYWDFLT
  5
E
102
{ACAD_REACTORS
330
C
102
}
330
C
100
AcDbDictionary
281
     1
  3
Normal
350
F
100
AcDbDictionaryWithDefault
340
F
  0
DICTIONARY
  5
9D
102
{ACAD_REACTORS
330
C
102
}
330
C
100
AcDbDictionary
281
     1
  0
DICTIONARY
  5
2A
102
{ACAD_REACTORS
330
C
102
}
330
C
100
AcDbDictionary
281
     1
  3
2dWireframe
350
2F
  3
3D Hidden
350
31
  3
3dWireframe
350
30
  3
Basic
350
32
  3
Brighten
350
36
  3
ColorChange
350
3A
  3
Conceptual
350
34
  3
Dim
350
35
  3
Facepattern
350
39
  3
Flat
350
2B
  3
FlatWithEdges
350
2C
  3
Gouraud
350
2D
  3
GouraudWithEdges
350
2E
  3
Linepattern
350
38
  3
Realistic
350
33
  3
Thicken
350
37
  0
LAYOUT
  5
1E
102
{ACAD_REACTORS
330
1A
102
}
330
1A
100
AcDbPlotSettings
  1

  2
none_device
  4

  6

 40
0.0
 41
0.0
 42
0.0
 43
0.0
 44
0.0
 45
0.0
 46
0.0
 47
0.0
 48
0.0
 49
0.0
140
0.0
141
0.0
142
1.0
143
1.0
 70
   688
 72
     0
 73
     0
 74
     5
  7

 75
    16
 76
     0
 77
     2
 78
   300
147
1.0
148
0.0
149
0.0
100
AcDbLayout
  1
Layout1
 70
     1
 71
     1
 10
0.0
 20
0.0
 11
12.0
 21
9.0
 12
0.0
 22
0.0
 32
0.0
 14
1.000000000000000E+20
 24
1.000000000000000E+20
 34
1.000000000000000E+20
 15
-1.000000000000000E+20
 25
-1.000000000000000E+20
 35
-1.000000000000000E+20
146
0.0
 13
0.0
 23
0.0
 33
0.0
 16
1.0
 26
0.0
 36
0.0
 17
0.0
 27
1.0
 37
0.0
 76
     0
330
1B
  0
LAYOUT
  5
26
102
{ACAD_REACTORS
330
1A
102
}
330
1A
100
AcDbPlotSettings
  1

  2
none_device
  4

  6

 40
0.0
 41
0.0
 42
0.0
 43
0.0
 44
0.0
 45
0.0
 46
0.0
 47
0.0
 48
0.0
 49
0.0
140
0.0
141
0.0
142
1.0
143
1.0
 70
   688
 72
     0
 73
     0
 74
     5
  7

 75
    16
 76
     0
 77
     2
 78
   300
147
1.0
148
0.0
149
0.0
100
AcDbLayout
  1
Layout2
 70
     1
 71
     2
 10
0.0
 20
0.0
 11
0.0
 21
0.0
 12
0.0
 22
0.0
 32
0.0
 14
0.0
 24
0.0
 34
0.0
 15
0.0
 25
0.0
 35
0.0
146
0.0
 13
0.0
 23
0.0
 33
0.0
 16
1.0
 26
0.0
 36
0.0
 17
0.0
 27
1.0
 37
0.0
 76
     0
330
23
  0
LAYOUT
  5
22
102
{ACAD_REACTORS
330
1A
102
}
330
1A
100
AcDbPlotSettings
  1

  2
none_device
  4

  6

 40
0.0
 41
0.0
 42
0.0
 43
0.0
 44
0.0
 45
0.0
 46
0.0
 47
0.0
 48
0.0
 49
0.0
140
0.0
141
0.0
142
1.0
143
1.0
 70
  1712
 72
     0
 73
     0
 74
     0
  7

 75
     0
 76
     0
 77
     2
 78
   300
147
1.0
148
0.0
149
0.0
100
AcDbLayout
  1
Model
 70
     1
 71
     0
 10
0.0
 20
0.0
 11
12.0
 21
9.0
 12
0.0
 22
0.0
 32
0.0
 14
-187.6061
 24
-114.7161
 34
0.0
 15
59.0535
 25
131.6069
 35
0.0
146
0.0
 13
0.0
 23
0.0
 33
0.0
 16
1.0
 26
0.0
 36
0.0
 17
0.0
 27
1.0
 37
0.0
 76
     0
330
1F
331
29
  0
MATERIAL
  5
3D
102
{ACAD_REACTORS
330
3B
102
}
330
3B
100
AcDbMaterial
  1
ByBlock
 72
     1
 94
      127
  0
MATERIAL
  5
3C
102
{ACAD_REACTORS
330
3B
102
}
330
3B
100
AcDbMaterial
  1
ByLayer
 72
     1
 94
      127
  0
MATERIAL
  5
3E
102
{ACAD_REACTORS
330
3B
102
}
330
3B
100
AcDbMaterial
  1
Global
 72
     1
 94
      127
  0
MLINESTYLE
  5
18
102
{ACAD_REACTORS
330
17
102
}
330
17
100
AcDbMlineStyle
  2
Standard
 70
     0
  3

 62
   256
 51
90.0
 52
90.0
 71
     2
 49
0.5
 62
   256
  6
BYLAYER
 49
-0.5
 62
   256
  6
BYLAYER
  0
ACDBPLACEHOLDER
  5
F
102
{ACAD_REACTORS
330
E
102
}
330
E
  0
VISUALSTYLE
  5
2F
102
{ACAD_REACTORS
330
2A
102
}
102
{ACAD_XDICTIONARY
360
85
102
}
330
2A
100
AcDbVisualStyle
  2
2dWireframe
 70
     4
 71
     0
 72
     2
 73
     0
 90
        0
 40
-0.6
 41
-30.0
 62
     5
 63
     7
421
 16777215
 74
     1
 91
        4
 64
     7
 65
   257
 75
     1
175
     1
 42
1.0
 92
        0
 66
   257
 43
1.0
 76
     1
 77
     6
 78
     2
 67
     7
 79
     5
170
     0
171
     0
290
     0
174
     0
 93
        1
 44
0.0
173
     0
291
     0
 45
0.0
  0
VISUALSTYLE
  5
31
102
{ACAD_REACTORS
330
2A
102
}
102
{ACAD_XDICTIONARY
360
89
102
}
330
2A
100
AcDbVisualStyle
  2
3D Hidden
 70
     6
 71
     1
 72
     2
 73
     2
 90
        0
 40
-0.6
 41
-30.0
 62
     5
 63
     7
421
 16777215
 74
     2
 91
        2
 64
     7
 65
   257
 75
     2
175
     1
 42
40.0
 92
        0
 66
   257
 43
1.0
 76
     1
 77
     6
 78
     2
 67
     7
 79
     3
170
     0
171
     0
290
     0
174
     0
 93
        1
 44
0.0
173
     0
291
     0
 45
0.0
  0
VISUALSTYLE
  5
30
102
{ACAD_REACTORS
330
2A
102
}
102
{ACAD_XDICTIONARY
360
87
102
}
330
2A
100
AcDbVisualStyle
  2
3dWireframe
 70
     5
 71
     0
 72
     2
 73
     0
 90
        0
 40
-0.6
 41
-30.0
 62
     5
 63
     7
421
 16777215
 74
     1
 91
        4
 64
     7
 65
   257
 75
     1
175
     1
 42
1.0
 92
        0
 66
   257
 43
1.0
 76
     1
 77
     6
 78
     2
 67
     7
 79
     5
170
     0
171
     0
290
     0
174
     0
 93
        1
 44
0.0
173
     0
291
     0
 45
0.0
  0
VISUALSTYLE
  5
32
102
{ACAD_REACTORS
330
2A
102
}
102
{ACAD_XDICTIONARY
360
8B
102
}
330
2A
100
AcDbVisualStyle
  2
Basic
 70
     7
 71
     1
 72
     0
 73
     1
 90
        0
 40
-0.6
 41
-30.0
 62
     5
 63
     7
421
 16777215
 74
     0
 91
        4
 64
     7
 65
   257
 75
     1
175
     1
 42
1.0
 92
        8
 66
     7
 43
1.0
 76
     1
 77
     6
 78
     2
 67
     7
 79
     5
170
     0
171
     0
290
     0
174
     0
 93
        1
 44
0.0
173
     0
291
     1
 45
0.0
  0
VISUALSTYLE
  5
36
102
{ACAD_REACTORS
330
2A
102
}
102
{ACAD_XDICTIONARY
360
93
102
}
330
2A
100
AcDbVisualStyle
  2
Brighten
 70
    12
 71
     2
 72
     2
 73
     0
 90
        0
 40
-0.6
 41
-30.0
 62
     5
 63
     7
421
 16777215
 74
     1
 91
        4
 64
     7
 65
   257
 75
     1
175
     1
 42
1.0
 92
        8
 66
     7
 43
1.0
 76
     1
 77
     6
 78
     2
 67
     7
 79
     5
170
     0
171
     0
290
     0
174
     0
 93
        1
 44
50.0
173
     0
291
     1
 45
0.0
  0
VISUALSTYLE
  5
3A
102
{ACAD_REACTORS
330
2A
102
}
102
{ACAD_XDICTIONARY
360
9B
102
}
330
2A
100
AcDbVisualStyle
  2
ColorChange
 70
    16
 71
     2
 72
     2
 73
     3
 90
        0
 40
-0.6
 41
-30.0
 62
     5
 63
     8
421
  8421504
 74
     1
 91
        4
 64
     7
 65
   257
 75
     1
175
     1
 42
1.0
 92
        8
 66
     8
424
  8421504
 43
1.0
 76
     1
 77
     6
 78
     2
 67
     7
 79
     5
170
     0
171
     0
290
     0
174
     0
 93
        1
 44
0.0
173
     0
291
     1
 45
0.0
  0
VISUALSTYLE
  5
34
102
{ACAD_REACTORS
330
2A
102
}
102
{ACAD_XDICTIONARY
360
8F
102
}
330
2A
100
AcDbVisualStyle
  2
Conceptual
 70
     9
 71
     3
 72
     2
 73
     0
 90
        0
 40
-0.6
 41
-30.0
 62
     5
 63
     7
421
 16777215
 74
     2
 91
        2
 64
     7
 65
   257
 75
     1
175
     1
 42
40.0
 92
        8
 66
     7
 43
1.0
 76
     1
 77
     6
 78
     2
 67
     7
 79
     3
170
     0
171
     0
290
     0
174
     0
 93
        1
 44
0.0
173
     0
291
     0
 45
0.0
  0
VISUALSTYLE
  5
35
102
{ACAD_REACTORS
330
2A
102
}
102
{ACAD_XDICTIONARY
360
91
102
}
330
2A
100
AcDbVisualStyle
  2
Dim
 70
    11
 71
     2
 72
     2
 73
     0
 90
        0
 40
-0.6
 41
-30.0
 62
     5
 63
     7
421
 16777215
 74
     1
 91
        4
 64
     7
 65
   257
 75
     1
175
     1
 42
1.0
 92
        8
 66
     7
 43
1.0
 76
     1
 77
     6
 78
     2
 67
     7
 79
     5
170
     0
171
     0
290
     0
174
     0
 93
        1
 44
-50.0
173
     0
291
     1
 45
0.0
  0
VISUALSTYLE
  5
39
102
{ACAD_REACTORS
330
2A
102
}
102
{ACAD_XDICTIONARY
360
99
102
}
330
2A
100
AcDbVisualStyle
  2
Facepattern
 70
    15
 71
     2
 72
     2
 73
     0
 90
        0
 40
-0.6
 41
-30.0
 62
     5
 63
     7
421
 16777215
 74
     1
 91
        4
 64
     7
 65
   257
 75
     1
175
     1
 42
1.0
 92
        8
 66
     7
 43
1.0
 76
     1
 77
     6
 78
     2
 67
     7
 79
     5
170
     0
171
     0
290
     0
174
     0
 93
        1
 44
0.0
173
     0
291
     1
 45
0.0
  0
VISUALSTYLE
  5
2B
102
{ACAD_REACTORS
330
2A
102
}
102
{ACAD_XDICTIONARY
360
7D
102
}
330
2A
100
AcDbVisualStyle
  2
Flat
 70
     0
 71
     2
 72
     1
 73
     1
 90
        2
 40
-0.6
 41
30.0
 62
     5
 63
     7
421
 16777215
 74
     0
 91
        4
 64
     7
 65
   257
 75
     1
175
     1
 42
1.0
 92
        8
 66
     7
 43
1.0
 76
     1
 77
     6
 78
     2
 67
     7
 79
     5
170
     0
171
     0
290
     0
174
     0
 93
       13
 44
0.0
173
     0
291
     1
 45
0.0
  0
VISUALSTYLE
  5
2C
102
{ACAD_REACTORS
330
2A
102
}
102
{ACAD_XDICTIONARY
360
7F
102
}
330
2A
100
AcDbVisualStyle
  2
FlatWithEdges
 70
     1
 71
     2
 72
     1
 73
     1
 90
        2
 40
-0.6
 41
30.0
 62
     5
 63
     7
421
 16777215
 74
     1
 91
        4
 64
     7
 65
   257
 75
     1
175
     1
 42
1.0
 92
        0
 66
   257
 43
1.0
 76
     1
 77
     6
 78
     2
 67
     7
 79
     5
170
     0
171
     0
290
     0
174
     0
 93
       13
 44
0.0
173
     0
291
     1
 45
0.0
  0
VISUALSTYLE
  5
2D
102
{ACAD_REACTORS
330
2A
102
}
102
{ACAD_XDICTIONARY
360
81
102
}
330
2A
100
AcDbVisualStyle
  2
Gouraud
 70
     2
 71
     2
 72
     2
 73
     1
 90
        2
 40
-0.6
 41
30.0
 62
     5
 63
     7
421
 16777215
 74
     0
 91
        4
 64
     7
 65
   257
 75
     1
175
     1
 42
1.0
 92
        0
 66
     7
 43
1.0
 76
     1
 77
     6
 78
     2
 67
     7
 79
     5
170
     0
171
     0
290
     0
174
     0
 93
       13
 44
0.0
173
     0
291
     1
 45
0.0
  0
VISUALSTYLE
  5
2E
102
{ACAD_REACTORS
330
2A
102
}
102
{ACAD_XDICTIONARY
360
83
102
}
330
2A
100
AcDbVisualStyle
  2
GouraudWithEdges
 70
     3
 71
     2
 72
     2
 73
     1
 90
        2
 40
-0.6
 41
30.0
 62
     5
 63
     7
421
 16777215
 74
     1
 91
        4
 64
     7
 65
   257
 75
     1
175
     1
 42
1.0
 92
        0
 66
   257
 43
1.0
 76
     1
 77
     6
 78
     2
 67
     7
 79
     5
170
     0
171
     0
290
     0
174
     0
 93
       13
 44
0.0
173
     0
291
     1
 45
0.0
  0
VISUALSTYLE
  5
38
102
{ACAD_REACTORS
330
2A
102
}
102
{ACAD_XDICTIONARY
360
97
102
}
330
2A
100
AcDbVisualStyle
  2
Linepattern
 70
    14
 71
     2
 72
     2
 73
     0
 90
        0
 40
-0.6
 41
-30.0
 62
     5
 63
     7
421
 16777215
 74
     1
 91
        4
 64
     7
 65
   257
 75
     7
175
     7
 42
1.0
 92
        8
 66
     7
 43
1.0
 76
     1
 77
     6
 78
     2
 67
     7
 79
     5
170
     0
171
     0
290
     0
174
     0
 93
        1
 44
0.0
173
     0
291
     1
 45
0.0
  0
VISUALSTYLE
  5
33
102
{ACAD_REACTORS
330
2A
102
}
102
{ACAD_XDICTIONARY
360
8D
102
}
330
2A
100
AcDbVisualStyle
  2
Realistic
 70
     8
 71
     2
 72
     2
 73
     0
 90
        0
 40
-0.6
 41
-30.0
 62
     5
 63
     7
421
 16777215
 74
     1
 91
        0
 64
     7
 65
   257
 75
     1
175
     1
 42
1.0
 92
        8
 66
     8
424
  7895160
 43
1.0
 76
     1
 77
     6
 78
     2
 67
     7
 79
     5
170
     0
171
     0
290
     0
174
     0
 93
       13
 44
0.0
173
     0
291
     0
 45
0.0
  0
VISUALSTYLE
  5
37
102
{ACAD_REACTORS
330
2A
102
}
102
{ACAD_XDICTIONARY
360
95
102
}
330
2A
100
AcDbVisualStyle
  2
Thicken
 70
    13
 71
     2
 72
     2
 73
     0
 90
        0
 40
-0.6
 41
-30.0
 62
     5
 63
     7
421
 16777215
 74
     1
 91
        4
 64
     7
 65
   257
 75
     1
175
     1
 42
1.0
 92
       12
 66
     7
 43
1.0
 76
     1
 77
     6
 78
     2
 67
     7
 79
     5
170
     0
171
     0
290
     0
174
     0
 93
        1
 44
0.0
173
     0
291
     1
 45
0.0
  0
DICTIONARY
  5
85
330
2F
100
AcDbDictionary
280
     1
281
     1
  3
ACAD_XREC_ROUNDTRIP
360
86
  0
DICTIONARY
  5
89
330
31
100
AcDbDictionary
280
     1
281
     1
  3
ACAD_XREC_ROUNDTRIP
360
8A
  0
DICTIONARY
  5
87
330
30
100
AcDbDictionary
280
     1
281
     1
  3
ACAD_XREC_ROUNDTRIP
360
88
  0
DICTIONARY
  5
8B
330
32
100
AcDbDictionary
280
     1
281
     1
  3
ACAD_XREC_ROUNDTRIP
360
8C
  0
DICTIONARY
  5
93
330
36
100
AcDbDictionary
280
     1
281
     1
  3
ACAD_XREC_ROUNDTRIP
360
94
  0
DICTIONARY
  5
9B
330
3A
100
AcDbDictionary
280
     1
281
     1
  3
ACAD_XREC_ROUNDTRIP
360
9C
  0
DICTIONARY
  5
8F
330
34
100
AcDbDictionary
280
     1
281
     1
  3
ACAD_XREC_ROUNDTRIP
360
90
  0
DICTIONARY
  5
91
330
35
100
AcDbDictionary
280
     1
281
     1
  3
ACAD_XREC_ROUNDTRIP
360
92
  0
DICTIONARY
  5
99
330
39
100
AcDbDictionary
280
     1
281
     1
  3
ACAD_XREC_ROUNDTRIP
360
9A
  0
DICTIONARY
  5
7D
330
2B
100
AcDbDictionary
280
     1
281
     1
  3
ACAD_XREC_ROUNDTRIP
360
7E
  0
DICTIONARY
  5
7F
330
2C
100
AcDbDictionary
280
     1
281
     1
  3
ACAD_XREC_ROUNDTRIP
360
80
  0
DICTIONARY
  5
81
330
2D
100
AcDbDictionary
280
     1
281
     1
  3
ACAD_XREC_ROUNDTRIP
360
82
  0
DICTIONARY
  5
83
330
2E
100
AcDbDictionary
280
     1
281
     1
  3
ACAD_XREC_ROUNDTRIP
360
84
  0
DICTIONARY
  5
97
330
38
100
AcDbDictionary
280
     1
281
     1
  3
ACAD_XREC_ROUNDTRIP
360
98
  0
DICTIONARY
  5
8D
330
33
100
AcDbDictionary
280
     1
281
     1
  3
ACAD_XREC_ROUNDTRIP
360
8E
  0
DICTIONARY
  5
95
330
37
100
AcDbDictionary
280
     1
281
     1
  3
ACAD_XREC_ROUNDTRIP
360
96
  0
XRECORD
  5
86
102
{ACAD_REACTORS
330
85
102
}
330
85
100
AcDbXrecord
280
     1
102
RTVSPropertyOp0
 70
     1
102
RTVSPropertyOp1
 70
     1
102
RTVSPropertyOp2
 70
     1
102
RTVSPropertyOp3
 70
     1
102
RTVSPropertyOp4
 70
     1
102
RTVSPropertyOp5
 70
     1
102
RTVSPropertyOp6
 70
     1
102
RTVSPropertyOp7
 70
     1
102
RTVSPropertyOp8
 70
     1
102
RTVSPropertyOp9
 70
     1
102
RTVSPropertyOp10
 70
     1
102
RTVSPropertyOp11
 70
     1
102
RTVSPropertyOp12
 70
     1
102
RTVSPropertyOp13
 70
     1
102
RTVSPropertyOp14
 70
     1
102
RTVSPropertyOp15
 70
     1
102
RTVSPropertyOp16
 70
     1
102
RTVSPropertyOp17
 70
     1
102
RTVSPropertyOp18
 70
     1
102
RTVSPropertyOp19
 70
     1
102
RTVSPropertyOp20
 70
     1
102
RTVSPropertyOp21
 70
     1
102
RTVSPropertyOp22
 70
     1
102
RTVSPropertyOp23
 70
     1
102
RTVSPropertyOp24
 70
     1
102
RTVSPropertyOp25
 70
     1
102
RTVSPropertyOp26
 70
     1
102
RTVSPropertyOp27
 70
     1
102
RTVSPropertyOp28
 70
     1
102
RTVSPropertyOp29
 70
     1
102
RTVSPropertyOp30
 70
     1
102
RTVSPropertyOp31
 70
     1
102
RTVSPropertyOp32
 70
     1
  0
XRECORD
  5
8A
102
{ACAD_REACTORS
330
89
102
}
330
89
100
AcDbXrecord
280
     1
102
RTVSPropertyOp0
 70
     1
102
RTVSPropertyOp1
 70
     1
102
RTVSPropertyOp2
 70
     1
102
RTVSPropertyOp3
 70
     1
102
RTVSPropertyOp4
 70
     1
102
RTVSPropertyOp5
 70
     1
102
RTVSPropertyOp6
 70
     1
102
RTVSPropertyOp7
 70
     1
102
RTVSPropertyOp8
 70
     1
102
RTVSPropertyOp9
 70
     1
102
RTVSPropertyOp10
 70
     1
102
RTVSPropertyOp11
 70
     1
102
RTVSPropertyOp12
 70
     1
102
RTVSPropertyOp13
 70
     1
102
RTVSPropertyOp14
 70
     1
102
RTVSPropertyOp15
 70
     1
102
RTVSPropertyOp16
 70
     1
102
RTVSPropertyOp17
 70
     1
102
RTVSPropertyOp18
 70
     1
102
RTVSPropertyOp19
 70
     1
102
RTVSPropertyOp20
 70
     1
102
RTVSPropertyOp21
 70
     1
102
RTVSPropertyOp22
 70
     1
102
RTVSPropertyOp23
 70
     1
102
RTVSPropertyOp24
 70
     1
102
RTVSPropertyOp25
 70
     1
102
RTVSPropertyOp26
 70
     1
102
RTVSPropertyOp27
 70
     1
102
RTVSPropertyOp28
 70
     1
102
RTVSPropertyOp29
 70
     1
102
RTVSPropertyOp30
 70
     1
102
RTVSPropertyOp31
 70
     1
102
RTVSPropertyOp32
 70
     1
  0
XRECORD
  5
88
102
{ACAD_REACTORS
330
87
102
}
330
87
100
AcDbXrecord
280
     1
102
RTVSPropertyOp0
 70
     1
102
RTVSPropertyOp1
 70
     1
102
RTVSPropertyOp2
 70
     1
102
RTVSPropertyOp3
 70
     1
102
RTVSPropertyOp4
 70
     1
102
RTVSPropertyOp5
 70
     1
102
RTVSPropertyOp6
 70
     1
102
RTVSPropertyOp7
 70
     1
102
RTVSPropertyOp8
 70
     1
102
RTVSPropertyOp9
 70
     1
102
RTVSPropertyOp10
 70
     1
102
RTVSPropertyOp11
 70
     1
102
RTVSPropertyOp12
 70
     1
102
RTVSPropertyOp13
 70
     1
102
RTVSPropertyOp14
 70
     1
102
RTVSPropertyOp15
 70
     1
102
RTVSPropertyOp16
 70
     1
102
RTVSPropertyOp17
 70
     1
102
RTVSPropertyOp18
 70
     1
102
RTVSPropertyOp19
 70
     1
102
RTVSPropertyOp20
 70
     1
102
RTVSPropertyOp21
 70
     1
102
RTVSPropertyOp22
 70
     1
102
RTVSPropertyOp23
 70
     1
102
RTVSPropertyOp24
 70
     1
102
RTVSPropertyOp25
 70
     1
102
RTVSPropertyOp26
 70
     1
102
RTVSPropertyOp27
 70
     1
102
RTVSPropertyOp28
 70
     1
102
RTVSPropertyOp29
 70
     1
102
RTVSPropertyOp30
 70
     1
102
RTVSPropertyOp31
 70
     1
102
RTVSPropertyOp32
 70
     1
  0
XRECORD
  5
8C
102
{ACAD_REACTORS
330
8B
102
}
330
8B
100
AcDbXrecord
280
     1
102
RTVSPropertyOp0
 70
     1
102
RTVSPropertyOp1
 70
     1
102
RTVSPropertyOp2
 70
     1
102
RTVSPropertyOp3
 70
     1
102
RTVSPropertyOp4
 70
     1
102
RTVSPropertyOp5
 70
     1
102
RTVSPropertyOp6
 70
     1
102
RTVSPropertyOp7
 70
     1
102
RTVSPropertyOp8
 70
     1
102
RTVSPropertyOp9
 70
     1
102
RTVSPropertyOp10
 70
     1
102
RTVSPropertyOp11
 70
     1
102
RTVSPropertyOp12
 70
     1
102
RTVSPropertyOp13
 70
     1
102
RTVSPropertyOp14
 70
     1
102
RTVSPropertyOp15
 70
     1
102
RTVSPropertyOp16
 70
     1
102
RTVSPropertyOp17
 70
     1
102
RTVSPropertyOp18
 70
     1
102
RTVSPropertyOp19
 70
     1
102
RTVSPropertyOp20
 70
     1
102
RTVSPropertyOp21
 70
     1
102
RTVSPropertyOp22
 70
     1
102
RTVSPropertyOp23
 70
     1
102
RTVSPropertyOp24
 70
     1
102
RTVSPropertyOp25
 70
     1
102
RTVSPropertyOp26
 70
     1
102
RTVSPropertyOp27
 70
     1
102
RTVSPropertyOp28
 70
     1
102
RTVSPropertyOp29
 70
     1
102
RTVSPropertyOp30
 70
     1
102
RTVSPropertyOp31
 70
     1
102
RTVSPropertyOp32
 70
     1
  0
XRECORD
  5
94
102
{ACAD_REACTORS
330
93
102
}
330
93
100
AcDbXrecord
280
     1
102
RTVSPropertyOp0
 70
     1
102
RTVSPropertyOp1
 70
     1
102
RTVSPropertyOp2
 70
     1
102
RTVSPropertyOp3
 70
     1
102
RTVSPropertyOp4
 70
     1
102
RTVSPropertyOp5
 70
     1
102
RTVSPropertyOp6
 70
     1
102
RTVSPropertyOp7
 70
     1
102
RTVSPropertyOp8
 70
     1
102
RTVSPropertyOp9
 70
     1
102
RTVSPropertyOp10
 70
     1
102
RTVSPropertyOp11
 70
     1
102
RTVSPropertyOp12
 70
     1
102
RTVSPropertyOp13
 70
     1
102
RTVSPropertyOp14
 70
     1
102
RTVSPropertyOp15
 70
     1
102
RTVSPropertyOp16
 70
     1
102
RTVSPropertyOp17
 70
     1
102
RTVSPropertyOp18
 70
     1
102
RTVSPropertyOp19
 70
     1
102
RTVSPropertyOp20
 70
     1
102
RTVSPropertyOp21
 70
     1
102
RTVSPropertyOp22
 70
     1
102
RTVSPropertyOp23
 70
     1
102
RTVSPropertyOp24
 70
     1
102
RTVSPropertyOp25
 70
     1
102
RTVSPropertyOp26
 70
     1
102
RTVSPropertyOp27
 70
     1
102
RTVSPropertyOp28
 70
     1
102
RTVSPropertyOp29
 70
     1
102
RTVSPropertyOp30
 70
     1
102
RTVSPropertyOp31
 70
     1
102
RTVSPropertyOp32
 70
     1
  0
XRECORD
  5
9C
102
{ACAD_REACTORS
330
9B
102
}
330
9B
100
AcDbXrecord
280
     1
102
RTVSPropertyOp0
 70
     1
102
RTVSPropertyOp1
 70
     1
102
RTVSPropertyOp2
 70
     1
102
RTVSPropertyOp3
 70
     1
102
RTVSPropertyOp4
 70
     1
102
RTVSPropertyOp5
 70
     1
102
RTVSPropertyOp6
 70
     1
102
RTVSPropertyOp7
 70
     1
102
RTVSPropertyOp8
 70
     1
102
RTVSPropertyOp9
 70
     1
102
RTVSPropertyOp10
 70
     1
102
RTVSPropertyOp11
 70
     1
102
RTVSPropertyOp12
 70
     1
102
RTVSPropertyOp13
 70
     1
102
RTVSPropertyOp14
 70
     1
102
RTVSPropertyOp15
 70
     1
102
RTVSPropertyOp16
 70
     1
102
RTVSPropertyOp17
 70
     1
102
RTVSPropertyOp18
 70
     1
102
RTVSPropertyOp19
 70
     1
102
RTVSPropertyOp20
 70
     1
102
RTVSPropertyOp21
 70
     1
102
RTVSPropertyOp22
 70
     1
102
RTVSPropertyOp23
 70
     1
102
RTVSPropertyOp24
 70
     1
102
RTVSPropertyOp25
 70
     1
102
RTVSPropertyOp26
 70
     1
102
RTVSPropertyOp27
 70
     1
102
RTVSPropertyOp28
 70
     1
102
RTVSPropertyOp29
 70
     1
102
RTVSPropertyOp30
 70
     1
102
RTVSPropertyOp31
 70
     1
102
RTVSPropertyOp32
 70
     1
  0
XRECORD
  5
90
102
{ACAD_REACTORS
330
8F
102
}
330
8F
100
AcDbXrecord
280
     1
102
RTVSPropertyOp0
 70
     1
102
RTVSPropertyOp1
 70
     1
102
RTVSPropertyOp2
 70
     1
102
RTVSPropertyOp3
 70
     1
102
RTVSPropertyOp4
 70
     1
102
RTVSPropertyOp5
 70
     1
102
RTVSPropertyOp6
 70
     1
102
RTVSPropertyOp7
 70
     1
102
RTVSPropertyOp8
 70
     1
102
RTVSPropertyOp9
 70
     1
102
RTVSPropertyOp10
 70
     1
102
RTVSPropertyOp11
 70
     1
102
RTVSPropertyOp12
 70
     1
102
RTVSPropertyOp13
 70
     1
102
RTVSPropertyOp14
 70
     1
102
RTVSPropertyOp15
 70
     1
102
RTVSPropertyOp16
 70
     1
102
RTVSPropertyOp17
 70
     1
102
RTVSPropertyOp18
 70
     1
102
RTVSPropertyOp19
 70
     1
102
RTVSPropertyOp20
 70
     1
102
RTVSPropertyOp21
 70
     1
102
RTVSPropertyOp22
 70
     1
102
RTVSPropertyOp23
 70
     1
102
RTVSPropertyOp24
 70
     1
102
RTVSPropertyOp25
 70
     1
102
RTVSPropertyOp26
 70
     1
102
RTVSPropertyOp27
 70
     1
102
RTVSPropertyOp28
 70
     1
102
RTVSPropertyOp29
 70
     1
102
RTVSPropertyOp30
 70
     1
102
RTVSPropertyOp31
 70
     1
102
RTVSPropertyOp32
 70
     1
  0
XRECORD
  5
92
102
{ACAD_REACTORS
330
91
102
}
330
91
100
AcDbXrecord
280
     1
102
RTVSPropertyOp0
 70
     1
102
RTVSPropertyOp1
 70
     1
102
RTVSPropertyOp2
 70
     1
102
RTVSPropertyOp3
 70
     1
102
RTVSPropertyOp4
 70
     1
102
RTVSPropertyOp5
 70
     1
102
RTVSPropertyOp6
 70
     1
102
RTVSPropertyOp7
 70
     1
102
RTVSPropertyOp8
 70
     1
102
RTVSPropertyOp9
 70
     1
102
RTVSPropertyOp10
 70
     1
102
RTVSPropertyOp11
 70
     1
102
RTVSPropertyOp12
 70
     1
102
RTVSPropertyOp13
 70
     1
102
RTVSPropertyOp14
 70
     1
102
RTVSPropertyOp15
 70
     1
102
RTVSPropertyOp16
 70
     1
102
RTVSPropertyOp17
 70
     1
102
RTVSPropertyOp18
 70
     1
102
RTVSPropertyOp19
 70
     1
102
RTVSPropertyOp20
 70
     1
102
RTVSPropertyOp21
 70
     1
102
RTVSPropertyOp22
 70
     1
102
RTVSPropertyOp23
 70
     1
102
RTVSPropertyOp24
 70
     1
102
RTVSPropertyOp25
 70
     1
102
RTVSPropertyOp26
 70
     1
102
RTVSPropertyOp27
 70
     1
102
RTVSPropertyOp28
 70
     1
102
RTVSPropertyOp29
 70
     1
102
RTVSPropertyOp30
 70
     1
102
RTVSPropertyOp31
 70
     1
102
RTVSPropertyOp32
 70
     1
  0
XRECORD
  5
9A
102
{ACAD_REACTORS
330
99
102
}
330
99
100
AcDbXrecord
280
     1
102
RTVSPropertyOp0
 70
     1
102
RTVSPropertyOp1
 70
     1
102
RTVSPropertyOp2
 70
     1
102
RTVSPropertyOp3
 70
     1
102
RTVSPropertyOp4
 70
     1
102
RTVSPropertyOp5
 70
     1
102
RTVSPropertyOp6
 70
     1
102
RTVSPropertyOp7
 70
     1
102
RTVSPropertyOp8
 70
     1
102
RTVSPropertyOp9
 70
     1
102
RTVSPropertyOp10
 70
     1
102
RTVSPropertyOp11
 70
     1
102
RTVSPropertyOp12
 70
     1
102
RTVSPropertyOp13
 70
     1
102
RTVSPropertyOp14
 70
     1
102
RTVSPropertyOp15
 70
     1
102
RTVSPropertyOp16
 70
     1
102
RTVSPropertyOp17
 70
     1
102
RTVSPropertyOp18
 70
     1
102
RTVSPropertyOp19
 70
     1
102
RTVSPropertyOp20
 70
     1
102
RTVSPropertyOp21
 70
     1
102
RTVSPropertyOp22
 70
     1
102
RTVSPropertyOp23
 70
     1
102
RTVSPropertyOp24
 70
     1
102
RTVSPropertyOp25
 70
     1
102
RTVSPropertyOp26
 70
     1
102
RTVSPropertyOp27
 70
     1
102
RTVSPropertyOp28
 70
     1
102
RTVSPropertyOp29
 70
     1
102
RTVSPropertyOp30
 70
     1
102
RTVSPropertyOp31
 70
     1
102
RTVSPropertyOp32
 70
     1
  0
XRECORD
  5
7E
102
{ACAD_REACTORS
330
7D
102
}
330
7D
100
AcDbXrecord
280
     1
102
RTVSPropertyOp0
 70
     1
102
RTVSPropertyOp1
 70
     1
102
RTVSPropertyOp2
 70
     1
102
RTVSPropertyOp3
 70
     1
102
RTVSPropertyOp4
 70
     1
102
RTVSPropertyOp5
 70
     1
102
RTVSPropertyOp6
 70
     1
102
RTVSPropertyOp7
 70
     1
102
RTVSPropertyOp8
 70
     1
102
RTVSPropertyOp9
 70
     1
102
RTVSPropertyOp10
 70
     1
102
RTVSPropertyOp11
 70
     1
102
RTVSPropertyOp12
 70
     1
102
RTVSPropertyOp13
 70
     1
102
RTVSPropertyOp14
 70
     1
102
RTVSPropertyOp15
 70
     1
102
RTVSPropertyOp16
 70
     1
102
RTVSPropertyOp17
 70
     1
102
RTVSPropertyOp18
 70
     1
102
RTVSPropertyOp19
 70
     1
102
RTVSPropertyOp20
 70
     1
102
RTVSPropertyOp21
 70
     1
102
RTVSPropertyOp22
 70
     1
102
RTVSPropertyOp23
 70
     1
102
RTVSPropertyOp24
 70
     1
102
RTVSPropertyOp25
 70
     1
102
RTVSPropertyOp26
 70
     1
102
RTVSPropertyOp27
 70
     1
102
RTVSPropertyOp28
 70
     1
102
RTVSPropertyOp29
 70
     1
102
RTVSPropertyOp30
 70
     1
102
RTVSPropertyOp31
 70
     1
102
RTVSPropertyOp32
 70
     1
  0
XRECORD
  5
80
102
{ACAD_REACTORS
330
7F
102
}
330
7F
100
AcDbXrecord
280
     1
102
RTVSPropertyOp0
 70
     1
102
RTVSPropertyOp1
 70
     1
102
RTVSPropertyOp2
 70
     1
102
RTVSPropertyOp3
 70
     1
102
RTVSPropertyOp4
 70
     1
102
RTVSPropertyOp5
 70
     1
102
RTVSPropertyOp6
 70
     1
102
RTVSPropertyOp7
 70
     1
102
RTVSPropertyOp8
 70
     1
102
RTVSPropertyOp9
 70
     1
102
RTVSPropertyOp10
 70
     1
102
RTVSPropertyOp11
 70
     1
102
RTVSPropertyOp12
 70
     1
102
RTVSPropertyOp13
 70
     1
102
RTVSPropertyOp14
 70
     1
102
RTVSPropertyOp15
 70
     1
102
RTVSPropertyOp16
 70
     1
102
RTVSPropertyOp17
 70
     1
102
RTVSPropertyOp18
 70
     1
102
RTVSPropertyOp19
 70
     1
102
RTVSPropertyOp20
 70
     1
102
RTVSPropertyOp21
 70
     1
102
RTVSPropertyOp22
 70
     1
102
RTVSPropertyOp23
 70
     1
102
RTVSPropertyOp24
 70
     1
102
RTVSPropertyOp25
 70
     1
102
RTVSPropertyOp26
 70
     1
102
RTVSPropertyOp27
 70
     1
102
RTVSPropertyOp28
 70
     1
102
RTVSPropertyOp29
 70
     1
102
RTVSPropertyOp30
 70
     1
102
RTVSPropertyOp31
 70
     1
102
RTVSPropertyOp32
 70
     1
  0
XRECORD
  5
82
102
{ACAD_REACTORS
330
81
102
}
330
81
100
AcDbXrecord
280
     1
102
RTVSPropertyOp0
 70
     1
102
RTVSPropertyOp1
 70
     1
102
RTVSPropertyOp2
 70
     1
102
RTVSPropertyOp3
 70
     1
102
RTVSPropertyOp4
 70
     1
102
RTVSPropertyOp5
 70
     1
102
RTVSPropertyOp6
 70
     1
102
RTVSPropertyOp7
 70
     1
102
RTVSPropertyOp8
 70
     1
102
RTVSPropertyOp9
 70
     1
102
RTVSPropertyOp10
 70
     1
102
RTVSPropertyOp11
 70
     1
102
RTVSPropertyOp12
 70
     1
102
RTVSPropertyOp13
 70
     1
102
RTVSPropertyOp14
 70
     1
102
RTVSPropertyOp15
 70
     1
102
RTVSPropertyOp16
 70
     1
102
RTVSPropertyOp17
 70
     1
102
RTVSPropertyOp18
 70
     1
102
RTVSPropertyOp19
 70
     1
102
RTVSPropertyOp20
 70
     1
102
RTVSPropertyOp21
 70
     1
102
RTVSPropertyOp22
 70
     1
102
RTVSPropertyOp23
 70
     1
102
RTVSPropertyOp24
 70
     1
102
RTVSPropertyOp25
 70
     1
102
RTVSPropertyOp26
 70
     1
102
RTVSPropertyOp27
 70
     1
102
RTVSPropertyOp28
 70
     1
102
RTVSPropertyOp29
 70
     1
102
RTVSPropertyOp30
 70
     1
102
RTVSPropertyOp31
 70
     1
102
RTVSPropertyOp32
 70
     1
  0
XRECORD
  5
84
102
{ACAD_REACTORS
330
83
102
}
330
83
100
AcDbXrecord
280
     1
102
RTVSPropertyOp0
 70
     1
102
RTVSPropertyOp1
 70
     1
102
RTVSPropertyOp2
 70
     1
102
RTVSPropertyOp3
 70
     1
102
RTVSPropertyOp4
 70
     1
102
RTVSPropertyOp5
 70
     1
102
RTVSPropertyOp6
 70
     1
102
RTVSPropertyOp7
 70
     1
102
RTVSPropertyOp8
 70
     1
102
RTVSPropertyOp9
 70
     1
102
RTVSPropertyOp10
 70
     1
102
RTVSPropertyOp11
 70
     1
102
RTVSPropertyOp12
 70
     1
102
RTVSPropertyOp13
 70
     1
102
RTVSPropertyOp14
 70
     1
102
RTVSPropertyOp15
 70
     1
102
RTVSPropertyOp16
 70
     1
102
RTVSPropertyOp17
 70
     1
102
RTVSPropertyOp18
 70
     1
102
RTVSPropertyOp19
 70
     1
102
RTVSPropertyOp20
 70
     1
102
RTVSPropertyOp21
 70
     1
102
RTVSPropertyOp22
 70
     1
102
RTVSPropertyOp23
 70
     1
102
RTVSPropertyOp24
 70
     1
102
RTVSPropertyOp25
 70
     1
102
RTVSPropertyOp26
 70
     1
102
RTVSPropertyOp27
 70
     1
102
RTVSPropertyOp28
 70
     1
102
RTVSPropertyOp29
 70
     1
102
RTVSPropertyOp30
 70
     1
102
RTVSPropertyOp31
 70
     1
102
RTVSPropertyOp32
 70
     1
  0
XRECORD
  5
98
102
{ACAD_REACTORS
330
97
102
}
330
97
100
AcDbXrecord
280
     1
102
RTVSPropertyOp0
 70
     1
102
RTVSPropertyOp1
 70
     1
102
RTVSPropertyOp2
 70
     1
102
RTVSPropertyOp3
 70
     1
102
RTVSPropertyOp4
 70
     1
102
RTVSPropertyOp5
 70
     1
102
RTVSPropertyOp6
 70
     1
102
RTVSPropertyOp7
 70
     1
102
RTVSPropertyOp8
 70
     1
102
RTVSPropertyOp9
 70
     1
102
RTVSPropertyOp10
 70
     1
102
RTVSPropertyOp11
 70
     1
102
RTVSPropertyOp12
 70
     1
102
RTVSPropertyOp13
 70
     1
102
RTVSPropertyOp14
 70
     1
102
RTVSPropertyOp15
 70
     1
102
RTVSPropertyOp16
 70
     1
102
RTVSPropertyOp17
 70
     1
102
RTVSPropertyOp18
 70
     1
102
RTVSPropertyOp19
 70
     1
102
RTVSPropertyOp20
 70
     1
102
RTVSPropertyOp21
 70
     1
102
RTVSPropertyOp22
 70
     1
102
RTVSPropertyOp23
 70
     1
102
RTVSPropertyOp24
 70
     1
102
RTVSPropertyOp25
 70
     1
102
RTVSPropertyOp26
 70
     1
102
RTVSPropertyOp27
 70
     1
102
RTVSPropertyOp28
 70
     1
102
RTVSPropertyOp29
 70
     1
102
RTVSPropertyOp30
 70
     1
102
RTVSPropertyOp31
 70
     1
102
RTVSPropertyOp32
 70
     1
  0
XRECORD
  5
8E
102
{ACAD_REACTORS
330
8D
102
}
330
8D
100
AcDbXrecord
280
     1
102
RTVSPropertyOp0
 70
     1
102
RTVSPropertyOp1
 70
     1
102
RTVSPropertyOp2
 70
     1
102
RTVSPropertyOp3
 70
     1
102
RTVSPropertyOp4
 70
     1
102
RTVSPropertyOp5
 70
     1
102
RTVSPropertyOp6
 70
     1
102
RTVSPropertyOp7
 70
     1
102
RTVSPropertyOp8
 70
     1
102
RTVSPropertyOp9
 70
     1
102
RTVSPropertyOp10
 70
     1
102
RTVSPropertyOp11
 70
     1
102
RTVSPropertyOp12
 70
     1
102
RTVSPropertyOp13
 70
     1
102
RTVSPropertyOp14
 70
     1
102
RTVSPropertyOp15
 70
     1
102
RTVSPropertyOp16
 70
     1
102
RTVSPropertyOp17
 70
     1
102
RTVSPropertyOp18
 70
     1
102
RTVSPropertyOp19
 70
     1
102
RTVSPropertyOp20
 70
     1
102
RTVSPropertyOp21
 70
     1
102
RTVSPropertyOp22
 70
     1
102
RTVSPropertyOp23
 70
     1
102
RTVSPropertyOp24
 70
     1
102
RTVSPropertyOp25
 70
     1
102
RTVSPropertyOp26
 70
     1
102
RTVSPropertyOp27
 70
     1
102
RTVSPropertyOp28
 70
     1
102
RTVSPropertyOp29
 70
     1
102
RTVSPropertyOp30
 70
     1
102
RTVSPropertyOp31
 70
     1
102
RTVSPropertyOp32
 70
     1
  0
XRECORD
  5
96
102
{ACAD_REACTORS
330
95
102
}
330
95
100
AcDbXrecord
280
     1
102
RTVSPropertyOp0
 70
     1
102
RTVSPropertyOp1
 70
     1
102
RTVSPropertyOp2
 70
     1
102
RTVSPropertyOp3
 70
     1
102
RTVSPropertyOp4
 70
     1
102
RTVSPropertyOp5
 70
     1
102
RTVSPropertyOp6
 70
     1
102
RTVSPropertyOp7
 70
     1
102
RTVSPropertyOp8
 70
     1
102
RTVSPropertyOp9
 70
     1
102
RTVSPropertyOp10
 70
     1
102
RTVSPropertyOp11
 70
     1
102
RTVSPropertyOp12
 70
     1
102
RTVSPropertyOp13
 70
     1
102
RTVSPropertyOp14
 70
     1
102
RTVSPropertyOp15
 70
     1
102
RTVSPropertyOp16
 70
     1
102
RTVSPropertyOp17
 70
     1
102
RTVSPropertyOp18
 70
     1
102
RTVSPropertyOp19
 70
     1
102
RTVSPropertyOp20
 70
     1
102
RTVSPropertyOp21
 70
     1
102
RTVSPropertyOp22
 70
     1
102
RTVSPropertyOp23
 70
     1
102
RTVSPropertyOp24
 70
     1
102
RTVSPropertyOp25
 70
     1
102
RTVSPropertyOp26
 70
     1
102
RTVSPropertyOp27
 70
     1
102
RTVSPropertyOp28
 70
     1
102
RTVSPropertyOp29
 70
     1
102
RTVSPropertyOp30
 70
     1
102
RTVSPropertyOp31
 70
     1
102
RTVSPropertyOp32
 70
     1
  0
ENDSEC
  0
EOF
