  0
SECTION
  2
HEADER
  9
$ACADVER
  1
AC1021
  9
$ACADMAINTVER
 70
    25
  9
$DWGCODEPAGE
  3
ANSI_1252
  9
$INSBASE
 10
0.0
 20
0.0
 30
0.0
  9
$EXTMIN
 10
-173.7932
 20
-115.2478
 30
0.0
  9
$EXTMAX
 10
20.8425
 20
131.7464
 30
0.0
  9
$LIMMIN
 10
0.0
 20
0.0
  9
$LIMMAX
 10
12.0
 20
9.0
  9
$ORTHOMODE
 70
     0
  9
$REGENMODE
 70
     1
  9
$FILLMODE
 70
     1
  9
$QTEXTMODE
 70
     0
  9
$MIRRTEXT
 70
     1
  9
$LTSCALE
 40
1.0
  9
$ATTMODE
 70
     1
  9
$TEXTSIZE
 40
0.2
  9
$TRACEWID
 40
0.05
  9
$TEXTSTYLE
  7
Standard
  9
$CLAYER
  8
0
  9
$CELTYPE
  6
ByLayer
  9
$CECOLOR
 62
   256
  9
$CELTSCALE
 40
1.0
  9
$DISPSILH
 70
     0
  9
$DIMSCALE
 40
1.0
  9
$DIMASZ
 40
0.18
  9
$DIMEXO
 40
0.0625
  9
$DIMDLI
 40
0.38
  9
$DIMRND
 40
0.0
  9
$DIMDLE
 40
0.0
  9
$DIMEXE
 40
0.18
  9
$DIMTP
 40
0.0
  9
$DIMTM
 40
0.0
  9
$DIMTXT
 40
0.18
  9
$DIMCEN
 40
0.09
  9
$DIMTSZ
 40
0.0
  9
$DIMTOL
 70
     0
  9
$DIMLIM
 70
     0
  9
$DIMTIH
 70
     1
  9
$DIMTOH
 70
     1
  9
$DIMSE1
 70
     0
  9
$DIMSE2
 70
     0
  9
$DIMTAD
 70
     0
  9
$DIMZIN
 70
     0
  9
$DIMBLK
  1

  9
$DIMASO
 70
     1
  9
$DIMSHO
 70
     1
  9
$DIMPOST
  1

  9
$DIMAPOST
  1

  9
$DIMALT
 70
     0
  9
$DIMALTD
 70
     2
  9
$DIMALTF
 40
25.4
  9
$DIMLFAC
 40
1.0
  9
$DIMTOFL
 70
     0
  9
$DIMTVP
 40
0.0
  9
$DIMTIX
 70
     0
  9
$DIMSOXD
 70
     0
  9
$DIMSAH
 70
     0
  9
$DIMBLK1
  1

  9
$DIMBLK2
  1

  9
$DIMSTYLE
  2
Standard
  9
$DIMCLRD
 70
     0
  9
$DIMCLRE
 70
     0
  9
$DIMCLRT
 70
     0
  9
$DIMTFAC
 40
1.0
  9
$DIMGAP
 40
0.09
  9
$DIMJUST
 70
     0
  9
$DIMSD1
 70
     0
  9
$DIMSD2
 70
     0
  9
$DIMTOLJ
 70
     1
  9
$DIMTZIN
 70
     0
  9
$DIMALTZ
 70
     0
  9
$DIMALTTZ
 70
     0
  9
$DIMUPT
 70
     0
  9
$DIMDEC
 70
     4
  9
$DIMTDEC
 70
     4
  9
$DIMALTU
 70
     2
  9
$DIMALTTD
 70
     2
  9
$DIMTXSTY
  7
Standard
  9
$DIMAUNIT
 70
     0
  9
$DIMADEC
 70
     0
  9
$DIMALTRND
 40
0.0
  9
$DIMAZIN
 70
     0
  9
$DIMDSEP
 70
    46
  9
$DIMATFIT
 70
     3
  9
$DIMFRAC
 70
     0
  9
$DIMLDRBLK
  1

  9
$DIMLUNIT
 70
     2
  9
$DIMLWD
 70
    -2
  9
$DIMLWE
 70
    -2
  9
$DIMTMOVE
 70
     0
  9
$DIMFXL
 40
1.0
  9
$DIMFXLON
 70
     0
  9
$DIMJOGANG
 40
0.7853981633974483
  9
$DIMTFILL
 70
     0
  9
$DIMTFILLCLR
 70
     0
  9
$DIMARCSYM
 70
     0
  9
$DIMLTYPE
  6

  9
$DIMLTEX1
  6

  9
$DIMLTEX2
  6

  9
$LUNITS
 70
     2
  9
$LUPREC
 70
     4
  9
$SKETCHINC
 40
0.1
  9
$FILLETRAD
 40
0.5
  9
$AUNITS
 70
     0
  9
$AUPREC
 70
     0
  9
$MENU
  1
.
  9
$ELEVATION
 40
0.0
  9
$PELEVATION
 40
0.0
  9
$THICKNESS
 40
0.0
  9
$LIMCHECK
 70
     0
  9
$CHAMFERA
 40
0.5
  9
$CHAMFERB
 40
0.5
  9
$CHAMFERC
 40
1.0
  9
$CHAMFERD
 40
0.0
  9
$SKPOLY
 70
     0
  9
$TDCREATE
 40
2458492.782397882
  9
$TDUCREATE
 40
2458492.782397882
  9
$TDUPDATE
 40
2458492.782398032
  9
$TDUUPDATE
 40
2458492.782398032
  9
$TDINDWG
 40
0.0000000116
  9
$TDUSRTIMER
 40
0.0000000116
  9
$USRTIMER
 70
     1
  9
$ANGBASE
 50
0.0
  9
$ANGDIR
 70
     0
  9
$PDMODE
 70
     0
  9
$PDSIZE
 40
0.0
  9
$PLINEWID
 40
0.0
  9
$SPLFRAME
 70
     0
  9
$SPLINETYPE
 70
     6
  9
$SPLINESEGS
 70
     8
  9
$HANDSEED
  5
CF
  9
$SURFTAB1
 70
     6
  9
$SURFTAB2
 70
     6
  9
$SURFTYPE
 70
     6
  9
$SURFU
 70
     6
  9
$SURFV
 70
     6
  9
$UCSBASE
  2

  9
$UCSNAME
  2

  9
$UCSORG
 10
0.0
 20
0.0
 30
0.0
  9
$UCSXDIR
 10
1.0
 20
0.0
 30
0.0
  9
$UCSYDIR
 10
0.0
 20
1.0
 30
0.0
  9
$UCSORTHOREF
  2

  9
$UCSORTHOVIEW
 70
     0
  9
$UCSORGTOP
 10
0.0
 20
0.0
 30
0.0
  9
$UCSORGBOTTOM
 10
0.0
 20
0.0
 30
0.0
  9
$UCSORGLEFT
 10
0.0
 20
0.0
 30
0.0
  9
$UCSORGRIGHT
 10
0.0
 20
0.0
 30
0.0
  9
$UCSORGFRONT
 10
0.0
 20
0.0
 30
0.0
  9
$UCSORGBACK
 10
0.0
 20
0.0
 30
0.0
  9
$PUCSBASE
  2

  9
$PUCSNAME
  2

  9
$PUCSORG
 10
0.0
 20
0.0
 30
0.0
  9
$PUCSXDIR
 10
1.0
 20
0.0
 30
0.0
  9
$PUCSYDIR
 10
0.0
 20
1.0
 30
0.0
  9
$PUCSORTHOREF
  2

  9
$PUCSORTHOVIEW
 70
     0
  9
$PUCSORGTOP
 10
0.0
 20
0.0
 30
0.0
  9
$PUCSORGBOTTOM
 10
0.0
 20
0.0
 30
0.0
  9
$PUCSORGLEFT
 10
0.0
 20
0.0
 30
0.0
  9
$PUCSORGRIGHT
 10
0.0
 20
0.0
 30
0.0
  9
$PUCSORGFRONT
 10
0.0
 20
0.0
 30
0.0
  9
$PUCSORGBACK
 10
0.0
 20
0.0
 30
0.0
  9
$USERI1
 70
     0
  9
$USERI2
 70
     0
  9
$USERI3
 70
     0
  9
$USERI4
 70
     0
  9
$USERI5
 70
     0
  9
$USERR1
 40
0.0
  9
$USERR2
 40
0.0
  9
$USERR3
 40
0.0
  9
$USERR4
 40
0.0
  9
$USERR5
 40
0.0
  9
$WORLDVIEW
 70
     1
  9
$SHADEDGE
 70
     3
  9
$SHADEDIF
 70
    70
  9
$TILEMODE
 70
     1
  9
$MAXACTVP
 70
    64
  9
$PINSBASE
 10
0.0
 20
0.0
 30
0.0
  9
$PLIMCHECK
 70
     0
  9
$PEXTMIN
 10
1.000000000000000E+20
 20
1.000000000000000E+20
 30
1.000000000000000E+20
  9
$PEXTMAX
 10
-1.000000000000000E+20
 20
-1.000000000000000E+20
 30
-1.000000000000000E+20
  9
$PLIMMIN
 10
0.0
 20
0.0
  9
$PLIMMAX
 10
12.0
 20
9.0
  9
$UNITMODE
 70
     0
  9
$VISRETAIN
 70
     1
  9
$PLINEGEN
 70
     0
  9
$PSLTSCALE
 70
     1
  9
$TREEDEPTH
 70
  3020
  9
$CMLSTYLE
  2
Standard
  9
$CMLJUST
 70
     0
  9
$CMLSCALE
 40
1.0
  9
$PROXYGRAPHICS
 70
     1
  9
$MEASUREMENT
 70
     0
  9
$CELWEIGHT
370
    -1
  9
$ENDCAPS
280
     0
  9
$JOINSTYLE
280
     0
  9
$LWDISPLAY
290
     0
  9
$INSUNITS
 70
     4
  9
$HYPERLINKBASE
  1

  9
$STYLESHEET
  1

  9
$XEDIT
290
     1
  9
$CEPSNTYPE
380
     0
  9
$PSTYLEMODE
290
     1
  9
$FINGERPRINTGUID
  2
{481450F9-FE2D-4660-8DE0-AE842949624F}
  9
$VERSIONGUID
  2
{FAEB1C32-E019-11D5-929B-00C0DF256EC4}
  9
$EXTNAMES
290
     1
  9
$PSVPSCALE
 40
0.0
  9
$OLESTARTUP
290
     0
  9
$SORTENTS
280
   127
  9
$INDEXCTL
280
     0
  9
$HIDETEXT
280
     1
  9
$XCLIPFRAME
290
     0
  9
$HALOGAP
280
     0
  9
$OBSCOLOR
 70
   257
  9
$OBSLTYPE
280
     0
  9
$INTERSECTIONDISPLAY
280
     0
  9
$INTERSECTIONCOLOR
 70
   257
  9
$DIMASSOC
280
     2
  9
$PROJECTNAME
  1

  9
$CAMERADISPLAY
290
     0
  9
$LENSLENGTH
 40
50.0
  9
$CAMERAHEIGHT
 40
0.0
  9
$STEPSPERSEC
 40
2.0
  9
$STEPSIZE
 40
6.0
  9
$3DDWFPREC
 40
2.0
  9
$PSOLWIDTH
 40
0.25
  9
$PSOLHEIGHT
 40
4.0
  9
$LOFTANG1
 40
1.570796326794897
  9
$LOFTANG2
 40
1.570796326794897
  9
$LOFTMAG1
 40
0.0
  9
$LOFTMAG2
 40
0.0
  9
$LOFTPARAM
 70
     7
  9
$LOFTNORMALS
280
     1
  9
$LATITUDE
 40
37.795
  9
$LONGITUDE
 40
-122.394
  9
$NORTHDIRECTION
 40
0.0
  9
$TIMEZONE
 70
 -8000
  9
$LIGHTGLYPHDISPLAY
280
     1
  9
$TILEMODELIGHTSYNCH
280
     1
  9
$SOLIDHIST
280
     1
  9
$SHOWHIST
280
     1
  9
$DWFFRAME
280
     2
  9
$DGNFRAME
280
     2
  9
$REALWORLDSCALE
290
     1
  9
$INTERFERECOLOR
 62
   256
  9
$CSHADOW
280
     0
  9
$SHADOWPLANELOCATION
 40
0.0
  0
ENDSEC
  0
SECTION
  2
CLASSES
  0
CLASS
  1
ACDBDICTIONARYWDFLT
  2
AcDbDictionaryWithDefault
  3
ObjectDBX Classes
 90
        0
 91
        4
280
     0
281
     0
  0
CLASS
  1
VISUALSTYLE
  2
AcDbVisualStyle
  3
ObjectDBX Classes
 90
     4095
 91
        4
280
     0
281
     0
  0
CLASS
  1
MATERIAL
  2
AcDbMaterial
  3
ObjectDBX Classes
 90
     1153
 91
        4
280
     0
281
     0
  0
ENDSEC
  0
SECTION
  2
TABLES
  0
TABLE
  2
VPORT
  5
8
330
0
100
AcDbSymbolTable
 70
     1
  0
VPORT
  5
29
330
8
100
AcDbSymbolTableRecord
100
AcDbViewportTableRecord
  2
*Active
 70
     0
 10
0.0
 20
0.0
 11
1.0
 21
1.0
 12
10.42990654205607
 22
4.5
 13
0.0
 23
0.0
 14
0.5
 24
0.5
 15
0.5
 25
0.5
 16
0.0
 26
0.0
 36
1.0
 17
0.0
 27
0.0
 37
0.0
 40
9.0
 41
1.972972972850329
 42
50.0
 43
0.0
 44
0.0
 50
0.0
 51
0.0
 71
     0
 72
   100
 73
     1
 74
     3
 75
     0
 76
     0
 77
     0
 78
     0
281
     0
 65
     1
110
0.0
120
0.0
130
0.0
111
1.0
121
0.0
131
0.0
112
0.0
122
1.0
132
0.0
 79
     0
146
0.0
 60
     3
 61
     5
292
     1
282
     1
141
0.0
142
0.0
 63
   250
  0
ENDTAB
  0
TABLE
  2
LTYPE
  5
5
330
0
100
AcDbSymbolTable
 70
     1
  0
LTYPE
  5
14
330
5
100
AcDbSymbolTableRecord
100
AcDbLinetypeTableRecord
  2
ByBlock
 70
     0
  3

 72
    65
 73
     0
 40
0.0
  0
LTYPE
  5
15
330
5
100
AcDbSymbolTableRecord
100
AcDbLinetypeTableRecord
  2
ByLayer
 70
     0
  3

 72
    65
 73
     0
 40
0.0
  0
LTYPE
  5
16
330
5
100
AcDbSymbolTableRecord
100
AcDbLinetypeTableRecord
  2
Continuous
 70
     0
  3
Solid line
 72
    65
 73
     0
 40
0.0
  0
ENDTAB
  0
TABLE
  2
LAYER
  5
2
330
0
100
AcDbSymbolTable
 70
     2
  0
LAYER
  5
10
330
2
100
AcDbSymbolTableRecord
100
AcDbLayerTableRecord
  2
0
 70
     0
 62
     7
  6
Continuous
370
    -3
390
F
347
3E
  0
LAYER
  5
40
330
2
100
AcDbSymbolTableRecord
100
AcDbLayerTableRecord
  2
layer 1
 70
     0
 62
     7
  6
Continuous
370
    -3
390
F
347
3E
  0
ENDTAB
  0
TABLE
  2
STYLE
  5
3
330
0
100
AcDbSymbolTable
 70
     1
  0
STYLE
  5
11
330
3
100
AcDbSymbolTableRecord
100
AcDbTextStyleTableRecord
  2
Standard
 70
     0
 40
0.0
 41
1.0
 50
0.0
 71
     0
 42
0.2
  3
txt
  4

  0
ENDTAB
  0
TABLE
  2
VIEW
  5
6
330
0
100
AcDbSymbolTable
 70
     0
  0
ENDTAB
  0
TABLE
  2
UCS
  5
7
330
0
100
AcDbSymbolTable
 70
     0
  0
ENDTAB
  0
TABLE
  2
APPID
  5
9
330
0
100
AcDbSymbolTable
 70
     2
  0
APPID
  5
12
330
9
100
AcDbSymbolTableRecord
100
AcDbRegAppTableRecord
  2
ACAD
 70
     0
  0
APPID
  5
3F
330
9
100
AcDbSymbolTableRecord
100
AcDbRegAppTableRecord
  2
ODA
 70
     0
  0
ENDTAB
  0
TABLE
  2
DIMSTYLE
  5
A
330
0
100
AcDbSymbolTable
 70
     1
100
AcDbDimStyleTable
  0
DIMSTYLE
105
27
330
A
100
AcDbSymbolTableRecord
100
AcDbDimStyleTableRecord
  2
Standard
 70
     0
178
     0
340
11
  0
ENDTAB
  0
TABLE
  2
BLOCK_RECORD
  5
1
330
0
100
AcDbSymbolTable
 70
     1
  0
BLOCK_RECORD
  5
1F
330
1
100
AcDbSymbolTableRecord
100
AcDbBlockTableRecord
  2
*Model_Space
340
22
 70
     0
280
     1
281
     0
  0
BLOCK_RECORD
  5
1B
330
1
100
AcDbSymbolTableRecord
100
AcDbBlockTableRecord
  2
*Paper_Space
340
1E
 70
     0
280
     1
281
     0
  0
BLOCK_RECORD
  5
23
330
1
100
AcDbSymbolTableRecord
100
AcDbBlockTableRecord
  2
*Paper_Space0
340
26
 70
     0
280
     1
281
     0
  0
ENDTAB
  0
ENDSEC
  0
SECTION
  2
BLOCKS
  0
BLOCK
  5
20
330
1F
100
AcDbEntity
  8
0
100
AcDbBlockBegin
  2
*Model_Space
 70
     0
 10
0.0
 20
0.0
 30
0.0
  3
*Model_Space
  1

  0
ENDBLK
  5
21
330
1F
100
AcDbEntity
  8
0
100
AcDbBlockEnd
  0
BLOCK
  5
1C
330
1B
100
AcDbEntity
 67
     1
  8
0
100
AcDbBlockBegin
  2
*Paper_Space
 70
     0
 10
0.0
 20
0.0
 30
0.0
  3
*Paper_Space
  1

  0
ENDBLK
  5
1D
330
1B
100
AcDbEntity
 67
     1
  8
0
100
AcDbBlockEnd
  0
BLOCK
  5
24
330
23
100
AcDbEntity
  8
0
100
AcDbBlockBegin
  2
*Paper_Space0
 70
     0
 10
0.0
 20
0.0
 30
0.0
  3
*Paper_Space0
  1

  0
ENDBLK
  5
25
330
23
100
AcDbEntity
  8
0
100
AcDbBlockEnd
  0
ENDSEC
  0
SECTION
  2
ENTITIES
  0
SPLINE
  5
41
330
1F
100
AcDbEntity
  8
layer 1
 62
   250
370
     9
100
AcDbSpline
210
0.0
220
0.0
230
1.0
 70
    11
 71
     3
 72
    20
 73
    16
 74
     0
 42
0.0000000001
 43
0.0000000001
 12
1.0
 22
0.0
 32
0.0
 13
1.0
 23
0.0
 33
0.0
 40
0.0
 40
0.0
 40
0.0
 40
0.0
 40
0.2
 40
0.2
 40
0.2
 40
0.2
 40
0.4
 40
0.4
 40
0.4
 40
0.4
 40
0.6
 40
0.6
 40
0.6
 40
0.6
 40
1.0
 40
1.0
 40
1.0
 40
1.0
 10
-173.7551
 20
131.7083
 30
0.0
 10
-173.7551
 20
131.7083
 30
0.0
 10
20.8044
 20
131.7083
 30
0.0
 10
20.8044
 20
131.7083
 30
0.0
 10
20.8044
 20
131.7083
 30
0.0
 10
20.8044
 20
131.7083
 30
0.0
 10
20.8044
 20
-115.2097
 30
0.0
 10
20.8044
 20
-115.2097
 30
0.0
 10
20.8044
 20
-115.2097
 30
0.0
 10
20.8044
 20
-115.2097
 30
0.0
 10
-173.7551
 20
-115.2097
 30
0.0
 10
-173.7551
 20
-115.2097
 30
0.0
 10
-173.7551
 20
-115.2097
 30
0.0
 10
-173.7551
 20
-115.2097
 30
0.0
 10
-173.7551
 20
131.7083
 30
0.0
 10
-173.7551
 20
131.7083
 30
0.0
  0
SPLINE
  5
42
330
1F
100
AcDbEntity
  8
layer 1
 62
     7
370
     9
100
AcDbSpline
210
0.0
220
0.0
230
1.0
 70
    11
 71
     3
 72
    36
 73
    32
 74
     0
 42
0.0000000001
 43
0.0000000001
 12
1.0
 22
0.0
 32
0.0
 13
1.0
 23
0.0
 33
0.0
 40
0.0
 40
0.0
 40
0.0
 40
0.0
 40
0.1111111111111111
 40
0.1111111111111111
 40
0.1111111111111111
 40
0.1111111111111111
 40
0.2222222222222222
 40
0.2222222222222222
 40
0.2222222222222222
 40
0.2222222222222222
 40
0.3333333333333333
 40
0.3333333333333333
 40
0.3333333333333333
 40
0.3333333333333333
 40
0.4444444444444444
 40
0.4444444444444444
 40
0.4444444444444444
 40
0.4444444444444444
 40
0.5555555555555556
 40
0.5555555555555556
 40
0.5555555555555556
 40
0.5555555555555556
 40
0.6666666666666666
 40
0.6666666666666666
 40
0.6666666666666666
 40
0.6666666666666666
 40
0.7777777777777778
 40
0.7777777777777778
 40
0.7777777777777778
 40
0.7777777777777778
 40
1.0
 40
1.0
 40
1.0
 40
1.0
 10
-78.3891
 20
-64.3861
 30
0.0
 10
-78.3891
 20
-64.3861
 30
0.0
 10
-78.3891
 20
78.5446
 30
0.0
 10
-78.3891
 20
78.5446
 30
0.0
 10
-78.3891
 20
78.5446
 30
0.0
 10
-78.3891
 20
79.6301
 30
0.0
 10
-77.5038
 20
80.5155
 30
0.0
 10
-76.4181
 20
80.5155
 30
0.0
 10
-76.4181
 20
80.5155
 30
0.0
 10
-76.4181
 20
80.5155
 30
0.0
 10
-76.2556
 20
80.5155
 30
0.0
 10
-76.2556
 20
80.5155
 30
0.0
 10
-76.2556
 20
80.5155
 30
0.0
 10
-75.1701
 20
80.5155
 30
0.0
 10
-74.2848
 20
79.6301
 30
0.0
 10
-74.2848
 20
78.5446
 30
0.0
 10
-74.2848
 20
78.5446
 30
0.0
 10
-74.2848
 20
78.5446
 30
0.0
 10
-74.2848
 20
-64.3861
 30
0.0
 10
-74.2848
 20
-64.3861
 30
0.0
 10
-74.2848
 20
-64.3861
 30
0.0
 10
-74.2848
 20
-65.4716
 30
0.0
 10
-75.1701
 20
-66.357
 30
0.0
 10
-76.2556
 20
-66.357
 30
0.0
 10
-76.2556
 20
-66.357
 30
0.0
 10
-76.2556
 20
-66.357
 30
0.0
 10
-76.4181
 20
-66.357
 30
0.0
 10
-76.4181
 20
-66.357
 30
0.0
 10
-76.4181
 20
-66.357
 30
0.0
 10
-77.5038
 20
-66.357
 30
0.0
 10
-78.3891
 20
-65.4716
 30
0.0
 10
-78.3891
 20
-64.3861
 30
0.0
  0
SPLINE
  5
43
330
1F
100
AcDbEntity
  8
layer 1
 62
     7
370
     9
100
AcDbSpline
210
0.0
220
0.0
230
1.0
 70
    11
 71
     3
 72
    24
 73
    20
 74
     0
 42
0.0000000001
 43
0.0000000001
 12
1.0
 22
0.0
 32
0.0
 13
1.0
 23
0.0
 33
0.0
 40
0.0
 40
0.0
 40
0.0
 40
0.0
 40
0.1666666666666667
 40
0.1666666666666667
 40
0.1666666666666667
 40
0.1666666666666667
 40
0.3333333333333333
 40
0.3333333333333333
 40
0.3333333333333333
 40
0.3333333333333333
 40
0.5
 40
0.5
 40
0.5
 40
0.5
 40
0.6666666666666666
 40
0.6666666666666666
 40
0.6666666666666666
 40
0.6666666666666666
 40
1.0
 40
1.0
 40
1.0
 40
1.0
 10
12.5259
 20
-106.2318
 30
0.0
 10
12.5259
 20
-106.2318
 30
0.0
 10
-20.9955
 20
-106.1669
 30
0.0
 10
-20.9955
 20
-106.1669
 30
0.0
 10
-20.9955
 20
-106.1669
 30
0.0
 10
-19.2773
 20
-105.5281
 30
0.0
 10
-16.6908
 20
-105.2049
 30
0.0
 10
-14.6435
 20
-104.5535
 30
0.0
 10
-14.6435
 20
-104.5535
 30
0.0
 10
-5.286
 20
-101.5759
 30
0.0
 10
3.0353
 20
-96.3315
 30
0.0
 10
7.9501
 20
-87.6034
 30
0.0
 10
7.9501
 20
-87.6034
 30
0.0
 10
11.2286
 20
-81.7814
 30
0.0
 10
10.674
 20
-80.8826
 30
0.0
 10
12.5622
 20
-76.4824
 30
0.0
 10
12.5622
 20
-76.4824
 30
0.0
 10
12.5622
 20
-76.4824
 30
0.0
 10
12.5259
 20
-106.2318
 30
0.0
 10
12.5259
 20
-106.2318
 30
0.0
  0
SPLINE
  5
44
330
1F
100
AcDbEntity
  8
layer 1
 62
     7
370
     9
100
AcDbSpline
210
0.0
220
0.0
230
1.0
 70
    11
 71
     3
 72
    24
 73
    20
 74
     0
 42
0.0000000001
 43
0.0000000001
 12
1.0
 22
0.0
 32
0.0
 13
1.0
 23
0.0
 33
0.0
 40
0.0
 40
0.0
 40
0.0
 40
0.0
 40
0.1666666666666667
 40
0.1666666666666667
 40
0.1666666666666667
 40
0.1666666666666667
 40
0.3333333333333333
 40
0.3333333333333333
 40
0.3333333333333333
 40
0.3333333333333333
 40
0.5
 40
0.5
 40
0.5
 40
0.5
 40
0.6666666666666666
 40
0.6666666666666666
 40
0.6666666666666666
 40
0.6666666666666666
 40
1.0
 40
1.0
 40
1.0
 40
1.0
 10
-58.9467
 20
-96.3965
 30
0.0
 10
-57.6752
 20
-96.7276
 30
0.0
 10
-54.8415
 20
-98.8164
 30
0.0
 10
-53.5265
 20
-99.6035
 30
0.0
 10
-53.5265
 20
-99.6035
 30
0.0
 10
-49.5631
 20
-101.9754
 30
0.0
 10
-39.1606
 20
-105.7583
 30
0.0
 10
-34.9789
 20
-106.2186
 30
0.0
 10
-34.9789
 20
-106.2186
 30
0.0
 10
-34.9789
 20
-106.2186
 30
0.0
 10
-61.7251
 20
-106.2046
 30
0.0
 10
-61.7251
 20
-106.2046
 30
0.0
 10
-61.7251
 20
-106.2046
 30
0.0
 10
-60.9566
 20
-105.5412
 30
0.0
 10
-60.3356
 20
-105.3758
 30
0.0
 10
-59.5407
 20
-104.5825
 30
0.0
 10
-59.5407
 20
-104.5825
 30
0.0
 10
-55.9888
 20
-101.0377
 30
0.0
 10
-58.6214
 20
-97.3209
 30
0.0
 10
-58.9467
 20
-96.3965
 30
0.0
  0
SPLINE
  5
45
330
1F
100
AcDbEntity
  8
layer 1
 62
     7
370
     9
100
AcDbSpline
210
0.0
220
0.0
230
1.0
 70
    11
 71
     3
 72
    16
 73
    12
 74
     0
 42
0.0000000001
 43
0.0000000001
 12
1.0
 22
0.0
 32
0.0
 13
1.0
 23
0.0
 33
0.0
 40
0.0
 40
0.0
 40
0.0
 40
0.0
 40
0.25
 40
0.25
 40
0.25
 40
0.25
 40
0.5
 40
0.5
 40
0.5
 40
0.5
 40
1.0
 40
1.0
 40
1.0
 40
1.0
 10
-72.5922
 20
-102.1448
 30
0.0
 10
-70.9146
 20
-104.1014
 30
0.0
 10
-73.1941
 20
-103.432
 30
0.0
 10
-68.6957
 20
-106.2078
 30
0.0
 10
-68.6957
 20
-106.2078
 30
0.0
 10
-68.6957
 20
-106.2078
 30
0.0
 10
-74.1543
 20
-106.242
 30
0.0
 10
-74.1543
 20
-106.242
 30
0.0
 10
-74.1543
 20
-106.242
 30
0.0
 10
-73.9821
 20
-104.7004
 30
0.0
 10
-73.3883
 20
-103.212
 30
0.0
 10
-72.5922
 20
-102.1448
 30
0.0
  0
SPLINE
  5
46
330
1F
100
AcDbEntity
  8
layer 1
 62
     7
370
     9
100
AcDbSpline
210
0.0
220
0.0
230
1.0
 70
    11
 71
     3
 72
    20
 73
    16
 74
     0
 42
0.0000000001
 43
0.0000000001
 12
1.0
 22
0.0
 32
0.0
 13
1.0
 23
0.0
 33
0.0
 40
0.0
 40
0.0
 40
0.0
 40
0.0
 40
0.2
 40
0.2
 40
0.2
 40
0.2
 40
0.4
 40
0.4
 40
0.4
 40
0.4
 40
0.6
 40
0.6
 40
0.6
 40
0.6
 40
1.0
 40
1.0
 40
1.0
 40
1.0
 10
-79.7905
 20
-102.1405
 30
0.0
 10
-78.9113
 20
-103.0191
 30
0.0
 10
-78.4008
 20
-104.7146
 30
0.0
 10
-78.1436
 20
-106.2207
 30
0.0
 10
-78.1436
 20
-106.2207
 30
0.0
 10
-78.1436
 20
-106.2207
 30
0.0
 10
-83.5493
 20
-106.1975
 30
0.0
 10
-83.5493
 20
-106.1975
 30
0.0
 10
-83.5493
 20
-106.1975
 30
0.0
 10
-82.7457
 20
-105.5444
 30
0.0
 10
-81.7786
 20
-105.2911
 30
0.0
 10
-81.1318
 20
-104.5877
 30
0.0
 10
-81.1318
 20
-104.5877
 30
0.0
 10
-80.5106
 20
-103.9122
 30
0.0
 10
-80.3141
 20
-102.9575
 30
0.0
 10
-79.7905
 20
-102.1405
 30
0.0
  0
SPLINE
  5
47
330
1F
100
AcDbEntity
  8
layer 1
 62
     7
370
     9
100
AcDbSpline
210
0.0
220
0.0
230
1.0
 70
    11
 71
     3
 72
    28
 73
    24
 74
     0
 42
0.0000000001
 43
0.0000000001
 12
1.0
 22
0.0
 32
0.0
 13
1.0
 23
0.0
 33
0.0
 40
0.0
 40
0.0
 40
0.0
 40
0.0
 40
0.1428571428571428
 40
0.1428571428571428
 40
0.1428571428571428
 40
0.1428571428571428
 40
0.2857142857142857
 40
0.2857142857142857
 40
0.2857142857142857
 40
0.2857142857142857
 40
0.4285714285714285
 40
0.4285714285714285
 40
0.4285714285714285
 40
0.4285714285714285
 40
0.5714285714285714
 40
0.5714285714285714
 40
0.5714285714285714
 40
0.5714285714285714
 40
0.7142857142857143
 40
0.7142857142857143
 40
0.7142857142857143
 40
0.7142857142857143
 40
1.0
 40
1.0
 40
1.0
 40
1.0
 10
-93.3819
 20
-96.3883
 30
0.0
 10
-93.7974
 20
-97.6342
 30
0.0
 10
-94.3022
 20
-97.4829
 30
0.0
 10
-94.535
 20
-99.1654
 30
0.0
 10
-94.535
 20
-99.1654
 30
0.0
 10
-95.0012
 20
-102.5364
 30
0.0
 10
-93.1832
 20
-104.7311
 30
0.0
 10
-90.526
 20
-106.227
 30
0.0
 10
-90.526
 20
-106.227
 30
0.0
 10
-90.526
 20
-106.227
 30
0.0
 10
-116.8683
 20
-106.1983
 30
0.0
 10
-116.8683
 20
-106.1983
 30
0.0
 10
-116.8683
 20
-106.1983
 30
0.0
 10
-115.1777
 20
-105.303
 30
0.0
 10
-112.4128
 20
-105.0099
 30
0.0
 10
-110.401
 20
-104.3601
 30
0.0
 10
-110.401
 20
-104.3601
 30
0.0
 10
-108.2787
 20
-103.6747
 30
0.0
 10
-106.2969
 20
-103.0358
 30
0.0
 10
-104.2613
 20
-102.2299
 30
0.0
 10
-104.2613
 20
-102.2299
 30
0.0
 10
-99.3321
 20
-100.2783
 30
0.0
 10
-94.5235
 20
-96.6744
 30
0.0
 10
-93.3819
 20
-96.3883
 30
0.0
  0
SPLINE
  5
48
330
1F
100
AcDbEntity
  8
layer 1
 62
     7
370
     9
100
AcDbSpline
210
0.0
220
0.0
230
1.0
 70
    11
 71
     3
 72
    24
 73
    20
 74
     0
 42
0.0000000001
 43
0.0000000001
 12
1.0
 22
0.0
 32
0.0
 13
1.0
 23
0.0
 33
0.0
 40
0.0
 40
0.0
 40
0.0
 40
0.0
 40
0.1666666666666667
 40
0.1666666666666667
 40
0.1666666666666667
 40
0.1666666666666667
 40
0.3333333333333333
 40
0.3333333333333333
 40
0.3333333333333333
 40
0.3333333333333333
 40
0.5
 40
0.5
 40
0.5
 40
0.5
 40
0.6666666666666666
 40
0.6666666666666666
 40
0.6666666666666666
 40
0.6666666666666666
 40
1.0
 40
1.0
 40
1.0
 40
1.0
 10
-164.8488
 20
-76.4453
 30
0.0
 10
-164.1028
 20
-78.29
 30
0.0
 10
-163.5898
 20
-80.4619
 30
0.0
 10
-162.7748
 20
-82.4275
 30
0.0
 10
-162.7748
 20
-82.4275
 30
0.0
 10
-158.7964
 20
-92.0246
 30
0.0
 10
-152.6137
 20
-98.4482
 30
0.0
 10
-143.1683
 20
-102.4628
 30
0.0
 10
-143.1683
 20
-102.4628
 30
0.0
 10
-137.7497
 20
-104.7658
 30
0.0
 10
-132.7659
 20
-105.6227
 30
0.0
 10
-131.382
 20
-106.2267
 30
0.0
 10
-131.382
 20
-106.2267
 30
0.0
 10
-131.382
 20
-106.2267
 30
0.0
 10
-164.8979
 20
-106.1827
 30
0.0
 10
-164.8979
 20
-106.1827
 30
0.0
 10
-164.8979
 20
-106.1827
 30
0.0
 10
-164.8979
 20
-106.1827
 30
0.0
 10
-164.8488
 20
-76.4453
 30
0.0
 10
-164.8488
 20
-76.4453
 30
0.0
  0
SPLINE
  5
49
330
1F
100
AcDbEntity
  8
layer 1
 62
     7
370
     9
100
AcDbSpline
210
0.0
220
0.0
230
1.0
 70
    11
 71
     3
 72
    28
 73
    24
 74
     0
 42
0.0000000001
 43
0.0000000001
 12
1.0
 22
0.0
 32
0.0
 13
1.0
 23
0.0
 33
0.0
 40
0.0
 40
0.0
 40
0.0
 40
0.0
 40
0.1428571428571428
 40
0.1428571428571428
 40
0.1428571428571428
 40
0.1428571428571428
 40
0.2857142857142857
 40
0.2857142857142857
 40
0.2857142857142857
 40
0.2857142857142857
 40
0.4285714285714285
 40
0.4285714285714285
 40
0.4285714285714285
 40
0.4285714285714285
 40
0.5714285714285714
 40
0.5714285714285714
 40
0.5714285714285714
 40
0.5714285714285714
 40
0.7142857142857143
 40
0.7142857142857143
 40
0.7142857142857143
 40
0.7142857142857143
 40
1.0
 40
1.0
 40
1.0
 40
1.0
 10
-84.7173
 20
-98.5019
 30
0.0
 10
-83.1795
 20
-102.6307
 30
0.0
 10
-88.8106
 20
-103.3791
 30
0.0
 10
-89.6841
 20
-99.2484
 30
0.0
 10
-89.6841
 20
-99.2484
 30
0.0
 10
-90.3958
 20
-95.8834
 30
0.0
 10
-87.7186
 20
-91.7428
 30
0.0
 10
-86.2442
 20
-90.4725
 30
0.0
 10
-86.2442
 20
-90.4725
 30
0.0
 10
-84.8291
 20
-91.4316
 30
0.0
 10
-81.5577
 20
-95.5
 30
0.0
 10
-81.8681
 20
-98.1964
 30
0.0
 10
-81.8681
 20
-98.1964
 30
0.0
 10
-83.1458
 20
-97.7279
 30
0.0
 10
-82.6534
 20
-95.8476
 30
0.0
 10
-86.3273
 20
-97.9113
 30
0.0
 10
-86.3273
 20
-97.9113
 30
0.0
 10
-86.2686
 20
-97.9602
 30
0.0
 10
-86.1834
 20
-98.0023
 30
0.0
 10
-86.1318
 20
-98.0286
 30
0.0
 10
-86.1318
 20
-98.0286
 30
0.0
 10
-84.1623
 20
-99.0242
 30
0.0
 10
-87.0494
 20
-97.8205
 30
0.0
 10
-84.7173
 20
-98.5019
 30
0.0
  0
SPLINE
  5
4A
330
1F
100
AcDbEntity
  8
layer 1
 62
     7
370
     9
100
AcDbSpline
210
0.0
220
0.0
230
1.0
 70
    11
 71
     3
 72
    28
 73
    24
 74
     0
 42
0.0000000001
 43
0.0000000001
 12
1.0
 22
0.0
 32
0.0
 13
1.0
 23
0.0
 33
0.0
 40
0.0
 40
0.0
 40
0.0
 40
0.0
 40
0.1428571428571428
 40
0.1428571428571428
 40
0.1428571428571428
 40
0.1428571428571428
 40
0.2857142857142857
 40
0.2857142857142857
 40
0.2857142857142857
 40
0.2857142857142857
 40
0.4285714285714285
 40
0.4285714285714285
 40
0.4285714285714285
 40
0.4285714285714285
 40
0.5714285714285714
 40
0.5714285714285714
 40
0.5714285714285714
 40
0.5714285714285714
 40
0.7142857142857143
 40
0.7142857142857143
 40
0.7142857142857143
 40
0.7142857142857143
 40
1.0
 40
1.0
 40
1.0
 40
1.0
 10
-66.1385
 20
-90.4661
 30
0.0
 10
-65.0444
 20
-91.1854
 30
0.0
 10
-64.1012
 20
-92.8146
 30
0.0
 10
-63.4054
 20
-94.4106
 30
0.0
 10
-63.4054
 20
-94.4106
 30
0.0
 10
-60.8501
 20
-100.2727
 30
0.0
 10
-64.5258
 20
-103.2693
 30
0.0
 10
-67.0411
 20
-101.5167
 30
0.0
 10
-67.0411
 20
-101.5167
 30
0.0
 10
-67.5911
 20
-101.1334
 30
0.0
 10
-68.2929
 20
-100.2683
 30
0.0
 10
-67.8683
 20
-99.1187
 30
0.0
 10
-67.8683
 20
-99.1187
 30
0.0
 10
-67.4861
 20
-98.084
 30
0.0
 10
-66.8329
 20
-98.5586
 30
0.0
 10
-65.984
 20
-98.0922
 30
0.0
 10
-65.984
 20
-98.0922
 30
0.0
 10
-68.8717
 20
-95.6933
 30
0.0
 10
-69.7733
 20
-97.7754
 30
0.0
 10
-70.3581
 20
-98.2022
 30
0.0
 10
-70.3581
 20
-98.2022
 30
0.0
 10
-71.1303
 20
-96.3831
 30
0.0
 10
-67.5307
 20
-91.2143
 30
0.0
 10
-66.1385
 20
-90.4661
 30
0.0
  0
SPLINE
  5
4B
330
1F
100
AcDbEntity
  8
layer 1
 62
     7
370
     9
100
AcDbSpline
210
0.0
220
0.0
230
1.0
 70
    11
 71
     3
 72
    76
 73
    72
 74
     0
 42
0.0000000001
 43
0.0000000001
 12
1.0
 22
0.0
 32
0.0
 13
1.0
 23
0.0
 33
0.0
 40
0.0
 40
0.0
 40
0.0
 40
0.0
 40
0.0526315789473684
 40
0.0526315789473684
 40
0.0526315789473684
 40
0.0526315789473684
 40
0.1052631578947368
 40
0.1052631578947368
 40
0.1052631578947368
 40
0.1052631578947368
 40
0.1578947368421053
 40
0.1578947368421053
 40
0.1578947368421053
 40
0.1578947368421053
 40
0.2105263157894737
 40
0.2105263157894737
 40
0.2105263157894737
 40
0.2105263157894737
 40
0.2631578947368421
 40
0.2631578947368421
 40
0.2631578947368421
 40
0.2631578947368421
 40
0.3157894736842105
 40
0.3157894736842105
 40
0.3157894736842105
 40
0.3157894736842105
 40
0.3684210526315789
 40
0.3684210526315789
 40
0.3684210526315789
 40
0.3684210526315789
 40
0.4210526315789473
 40
0.4210526315789473
 40
0.4210526315789473
 40
0.4210526315789473
 40
0.4736842105263158
 40
0.4736842105263158
 40
0.4736842105263158
 40
0.4736842105263158
 40
0.5263157894736842
 40
0.5263157894736842
 40
0.5263157894736842
 40
0.5263157894736842
 40
0.5789473684210527
 40
0.5789473684210527
 40
0.5789473684210527
 40
0.5789473684210527
 40
0.631578947368421
 40
0.631578947368421
 40
0.631578947368421
 40
0.631578947368421
 40
0.6842105263157895
 40
0.6842105263157895
 40
0.6842105263157895
 40
0.6842105263157895
 40
0.7368421052631579
 40
0.7368421052631579
 40
0.7368421052631579
 40
0.7368421052631579
 40
0.7894736842105263
 40
0.7894736842105263
 40
0.7894736842105263
 40
0.7894736842105263
 40
0.8421052631578947
 40
0.8421052631578947
 40
0.8421052631578947
 40
0.8421052631578947
 40
0.8947368421052632
 40
0.8947368421052632
 40
0.8947368421052632
 40
0.8947368421052632
 40
1.0
 40
1.0
 40
1.0
 40
1.0
 10
-18.0675
 20
-88.0723
 30
0.0
 10
-18.568
 20
-88.5297
 30
0.0
 10
-18.9197
 20
-89.5688
 30
0.0
 10
-19.9481
 20
-88.7664
 30
0.0
 10
-19.9481
 20
-88.7664
 30
0.0
 10
-20.5375
 20
-88.3069
 30
0.0
 10
-20.4568
 20
-87.3468
 30
0.0
 10
-20.0552
 20
-86.6365
 30
0.0
 10
-20.0552
 20
-86.6365
 30
0.0
 10
-18.0013
 20
-83.0036
 30
0.0
 10
-10.5412
 20
-82.4118
 30
0.0
 10
-9.6019
 20
-89.3729
 30
0.0
 10
-9.6019
 20
-89.3729
 30
0.0
 10
-9.0947
 20
-93.1331
 30
0.0
 10
-11.287
 20
-96.7958
 30
0.0
 10
-13.0686
 20
-98.2224
 30
0.0
 10
-13.0686
 20
-98.2224
 30
0.0
 10
-15.4291
 20
-100.1125
 30
0.0
 10
-15.1483
 20
-99.0312
 30
0.0
 10
-16.7766
 20
-97.7962
 30
0.0
 10
-16.7766
 20
-97.7962
 30
0.0
 10
-18.6083
 20
-96.4073
 30
0.0
 10
-20.1331
 20
-97.5446
 30
0.0
 10
-21.7567
 20
-97.7958
 30
0.0
 10
-21.7567
 20
-97.7958
 30
0.0
 10
-22.3659
 20
-94.2965
 30
0.0
 10
-24.8303
 20
-95.3727
 30
0.0
 10
-25.9038
 20
-96.4906
 30
0.0
 10
-25.9038
 20
-96.4906
 30
0.0
 10
-26.6392
 20
-97.2565
 30
0.0
 10
-26.1408
 20
-97.212
 30
0.0
 10
-27.1681
 20
-97.6264
 30
0.0
 10
-27.1681
 20
-97.6264
 30
0.0
 10
-28.5485
 20
-96.609
 30
0.0
 10
-27.459
 20
-95.8433
 30
0.0
 10
-28.9057
 20
-94.7576
 30
0.0
 10
-28.9057
 20
-94.7576
 30
0.0
 10
-29.8984
 20
-95.1504
 30
0.0
 10
-29.3167
 20
-95.2996
 30
0.0
 10
-30.2848
 20
-95.817
 30
0.0
 10
-30.2848
 20
-95.817
 30
0.0
 10
-31.7605
 20
-96.6059
 30
0.0
 10
-41.0781
 20
-98.3274
 30
0.0
 10
-43.8832
 20
-96.2152
 30
0.0
 10
-43.8832
 20
-96.2152
 30
0.0
 10
-43.235
 20
-95.7841
 30
0.0
 10
-42.2268
 20
-95.772
 30
0.0
 10
-41.4409
 20
-95.5825
 30
0.0
 10
-41.4409
 20
-95.5825
 30
0.0
 10
-37.0188
 20
-94.5159
 30
0.0
 10
-35.2186
 20
-90.5402
 30
0.0
 10
-36.339
 20
-86.4298
 30
0.0
 10
-36.339
 20
-86.4298
 30
0.0
 10
-36.7994
 20
-84.7411
 30
0.0
 10
-37.7179
 20
-83.747
 30
0.0
 10
-38.2046
 20
-82.3134
 30
0.0
 10
-38.2046
 20
-82.3134
 30
0.0
 10
-36.3614
 20
-82.9361
 30
0.0
 10
-33.0407
 20
-86.627
 30
0.0
 10
-25.9742
 20
-84.6088
 30
0.0
 10
-25.9742
 20
-84.6088
 30
0.0
 10
-24.3546
 20
-84.1462
 30
0.0
 10
-23.6693
 20
-83.4204
 30
0.0
 10
-22.3863
 20
-83.0088
 30
0.0
 10
-22.3863
 20
-83.0088
 30
0.0
 10
-22.8268
 20
-85.2334
 30
0.0
 10
-24.6088
 20
-87.4633
 30
0.0
 10
-22.4309
 20
-90.0269
 30
0.0
 10
-22.4309
 20
-90.0269
 30
0.0
 10
-21.1112
 20
-91.5804
 30
0.0
 10
-17.1103
 20
-92.0473
 30
0.0
 10
-18.0675
 20
-88.0723
 30
0.0
  0
SPLINE
  5
4C
330
1F
100
AcDbEntity
  8
layer 1
 62
     7
370
     9
100
AcDbSpline
210
0.0
220
0.0
230
1.0
 70
    11
 71
     3
 72
    72
 73
    68
 74
     0
 42
0.0000000001
 43
0.0000000001
 12
1.0
 22
0.0
 32
0.0
 13
1.0
 23
0.0
 33
0.0
 40
0.0
 40
0.0
 40
0.0
 40
0.0
 40
0.0555555555555556
 40
0.0555555555555556
 40
0.0555555555555556
 40
0.0555555555555556
 40
0.1111111111111111
 40
0.1111111111111111
 40
0.1111111111111111
 40
0.1111111111111111
 40
0.1666666666666667
 40
0.1666666666666667
 40
0.1666666666666667
 40
0.1666666666666667
 40
0.2222222222222222
 40
0.2222222222222222
 40
0.2222222222222222
 40
0.2222222222222222
 40
0.2777777777777778
 40
0.2777777777777778
 40
0.2777777777777778
 40
0.2777777777777778
 40
0.3333333333333333
 40
0.3333333333333333
 40
0.3333333333333333
 40
0.3333333333333333
 40
0.3888888888888889
 40
0.3888888888888889
 40
0.3888888888888889
 40
0.3888888888888889
 40
0.4444444444444444
 40
0.4444444444444444
 40
0.4444444444444444
 40
0.4444444444444444
 40
0.5
 40
0.5
 40
0.5
 40
0.5
 40
0.5555555555555556
 40
0.5555555555555556
 40
0.5555555555555556
 40
0.5555555555555556
 40
0.6111111111111112
 40
0.6111111111111112
 40
0.6111111111111112
 40
0.6111111111111112
 40
0.6666666666666666
 40
0.6666666666666666
 40
0.6666666666666666
 40
0.6666666666666666
 40
0.7222222222222222
 40
0.7222222222222222
 40
0.7222222222222222
 40
0.7222222222222222
 40
0.7777777777777778
 40
0.7777777777777778
 40
0.7777777777777778
 40
0.7777777777777778
 40
0.8333333333333334
 40
0.8333333333333334
 40
0.8333333333333334
 40
0.8333333333333334
 40
0.8888888888888888
 40
0.8888888888888888
 40
0.8888888888888888
 40
0.8888888888888888
 40
1.0
 40
1.0
 40
1.0
 40
1.0
 10
-130.5814
 20
-97.8104
 30
0.0
 10
-132.4274
 20
-97.4331
 30
0.0
 10
-133.863
 20
-96.4631
 30
0.0
 10
-135.7673
 20
-97.8831
 30
0.0
 10
-135.7673
 20
-97.8831
 30
0.0
 10
-137.2491
 20
-98.9877
 30
0.0
 10
-136.9301
 20
-100.1106
 30
0.0
 10
-139.2741
 20
-98.1815
 30
0.0
 10
-139.2741
 20
-98.1815
 30
0.0
 10
-145.2229
 20
-93.2858
 30
0.0
 10
-143.1702
 20
-82.5854
 30
0.0
 10
-136.0637
 20
-84.0621
 30
0.0
 10
-136.0637
 20
-84.0621
 30
0.0
 10
-133.0643
 20
-84.6854
 30
0.0
 10
-130.9429
 20
-87.7452
 30
0.0
 10
-132.4052
 20
-88.8034
 30
0.0
 10
-132.4052
 20
-88.8034
 30
0.0
 10
-132.9144
 20
-89.1718
 30
0.0
 10
-133.0114
 20
-89.0591
 30
0.0
 10
-133.4526
 20
-88.8544
 30
0.0
 10
-133.4526
 20
-88.8544
 30
0.0
 10
-134.1782
 20
-88.5178
 30
0.0
 10
-133.4396
 20
-88.5969
 30
0.0
 10
-134.3633
 20
-88.1729
 30
0.0
 10
-134.3633
 20
-88.1729
 30
0.0
 10
-134.8736
 20
-92.581
 30
0.0
 10
-130.667
 20
-91.1567
 30
0.0
 10
-129.795
 20
-89.9345
 30
0.0
 10
-129.795
 20
-89.9345
 30
0.0
 10
-127.8406
 20
-87.196
 30
0.0
 10
-129.4267
 20
-85.4946
 30
0.0
 10
-129.9421
 20
-83.0209
 30
0.0
 10
-129.9421
 20
-83.0209
 30
0.0
 10
-128.5972
 20
-83.4738
 30
0.0
 10
-127.8373
 20
-84.1914
 30
0.0
 10
-126.2037
 20
-84.6448
 30
0.0
 10
-126.2037
 20
-84.6448
 30
0.0
 10
-124.732
 20
-85.0533
 30
0.0
 10
-123.1175
 20
-85.226
 30
0.0
 10
-121.5015
 20
-85.1273
 30
0.0
 10
-121.5015
 20
-85.1273
 30
0.0
 10
-116.8716
 20
-84.8442
 30
0.0
 10
-115.7264
 20
-82.6667
 30
0.0
 10
-114.1014
 20
-82.3157
 30
0.0
 10
-114.1014
 20
-82.3157
 30
0.0
 10
-115.319
 20
-85.3086
 30
0.0
 10
-117.451
 20
-87.4072
 30
0.0
 10
-115.6791
 20
-91.7484
 30
0.0
 10
-115.6791
 20
-91.7484
 30
0.0
 10
-113.7804
 20
-96.4003
 30
0.0
 10
-110.1345
 20
-94.8257
 30
0.0
 10
-108.4312
 20
-96.2152
 30
0.0
 10
-108.4312
 20
-96.2152
 30
0.0
 10
-110.0435
 20
-97.5598
 30
0.0
 10
-114.3728
 20
-97.3416
 30
0.0
 10
-116.5472
 20
-97.0097
 30
0.0
 10
-116.5472
 20
-97.0097
 30
0.0
 10
-123.9335
 20
-95.8827
 30
0.0
 10
-121.8826
 20
-95.1921
 30
0.0
 10
-123.477
 20
-94.7753
 30
0.0
 10
-123.477
 20
-94.7753
 30
0.0
 10
-124.7157
 20
-95.9534
 30
0.0
 10
-123.9709
 20
-96.7504
 30
0.0
 10
-125.2146
 20
-97.6476
 30
0.0
 10
-125.2146
 20
-97.6476
 30
0.0
 10
-125.5276
 20
-97.4917
 30
0.0
 10
-129.5316
 20
-92.5319
 30
0.0
 10
-130.5814
 20
-97.8104
 30
0.0
  0
SPLINE
  5
4D
330
1F
100
AcDbEntity
  8
layer 1
 62
     7
370
     9
100
AcDbSpline
210
0.0
220
0.0
230
1.0
 70
    11
 71
     3
 72
    40
 73
    36
 74
     0
 42
0.0000000001
 43
0.0000000001
 12
1.0
 22
0.0
 32
0.0
 13
1.0
 23
0.0
 33
0.0
 40
0.0
 40
0.0
 40
0.0
 40
0.0
 40
0.1
 40
0.1
 40
0.1
 40
0.1
 40
0.2
 40
0.2
 40
0.2
 40
0.2
 40
0.3
 40
0.3
 40
0.3
 40
0.3
 40
0.4
 40
0.4
 40
0.4
 40
0.4
 40
0.5
 40
0.5
 40
0.5
 40
0.5
 40
0.6
 40
0.6
 40
0.6
 40
0.6
 40
0.7
 40
0.7
 40
0.7
 40
0.7
 40
0.8
 40
0.8
 40
0.8
 40
0.8
 40
1.0
 40
1.0
 40
1.0
 40
1.0
 10
-46.1778
 20
-87.2477
 30
0.0
 10
-47.5845
 20
-86.9638
 30
0.0
 10
-49.1126
 20
-86.3343
 30
0.0
 10
-50.2642
 20
-87.4704
 30
0.0
 10
-50.2642
 20
-87.4704
 30
0.0
 10
-53.7958
 20
-90.9548
 30
0.0
 10
-47.5022
 20
-94.9772
 30
0.0
 10
-46.8036
 20
-95.9935
 30
0.0
 10
-46.8036
 20
-95.9935
 30
0.0
 10
-49.4163
 20
-96.0983
 30
0.0
 10
-53.5491
 20
-93.0357
 30
0.0
 10
-55.1983
 20
-91.8303
 30
0.0
 10
-55.1983
 20
-91.8303
 30
0.0
 10
-57.032
 20
-90.49
 30
0.0
 10
-60.5581
 20
-87.6948
 30
0.0
 10
-61.4451
 20
-85.6838
 30
0.0
 10
-61.4451
 20
-85.6838
 30
0.0
 10
-59.5118
 20
-83.5817
 30
0.0
 10
-56.2532
 20
-81.9576
 30
0.0
 10
-53.5056
 20
-80.2617
 30
0.0
 10
-53.5056
 20
-80.2617
 30
0.0
 10
-53.5056
 20
-80.2617
 30
0.0
 10
-45.6206
 20
-75.2729
 30
0.0
 10
-45.6206
 20
-75.2729
 30
0.0
 10
-45.6206
 20
-75.2729
 30
0.0
 10
-43.6156
 20
-77.5408
 30
0.0
 10
-39.945
 20
-83.6666
 30
0.0
 10
-40.6286
 20
-88.2161
 30
0.0
 10
-40.6286
 20
-88.2161
 30
0.0
 10
-41.3813
 20
-93.2246
 30
0.0
 10
-47.8575
 20
-92.5657
 30
0.0
 10
-48.2184
 20
-89.4834
 30
0.0
 10
-48.2184
 20
-89.4834
 30
0.0
 10
-48.4358
 20
-87.6261
 30
0.0
 10
-46.9644
 20
-87.7754
 30
0.0
 10
-46.1778
 20
-87.2477
 30
0.0
  0
SPLINE
  5
4E
330
1F
100
AcDbEntity
  8
layer 1
 62
     7
370
     9
100
AcDbSpline
210
0.0
220
0.0
230
1.0
 70
    11
 71
     3
 72
    48
 73
    44
 74
     0
 42
0.0000000001
 43
0.0000000001
 12
1.0
 22
0.0
 32
0.0
 13
1.0
 23
0.0
 33
0.0
 40
0.0
 40
0.0
 40
0.0
 40
0.0
 40
0.0833333333333333
 40
0.0833333333333333
 40
0.0833333333333333
 40
0.0833333333333333
 40
0.1666666666666667
 40
0.1666666666666667
 40
0.1666666666666667
 40
0.1666666666666667
 40
0.25
 40
0.25
 40
0.25
 40
0.25
 40
0.3333333333333333
 40
0.3333333333333333
 40
0.3333333333333333
 40
0.3333333333333333
 40
0.4166666666666667
 40
0.4166666666666667
 40
0.4166666666666667
 40
0.4166666666666667
 40
0.5
 40
0.5
 40
0.5
 40
0.5
 40
0.5833333333333334
 40
0.5833333333333334
 40
0.5833333333333334
 40
0.5833333333333334
 40
0.6666666666666666
 40
0.6666666666666666
 40
0.6666666666666666
 40
0.6666666666666666
 40
0.75
 40
0.75
 40
0.75
 40
0.75
 40
0.8333333333333334
 40
0.8333333333333334
 40
0.8333333333333334
 40
0.8333333333333334
 40
1.0
 40
1.0
 40
1.0
 40
1.0
 10
-90.8855
 20
-85.6838
 30
0.0
 10
-91.6083
 20
-87.575
 30
0.0
 10
-95.4631
 20
-90.6099
 30
0.0
 10
-97.2925
 20
-91.9749
 30
0.0
 10
-97.2925
 20
-91.9749
 30
0.0
 10
-98.6715
 20
-93.0039
 30
0.0
 10
-103.2199
 20
-96.1945
 30
0.0
 10
-105.5493
 20
-95.9692
 30
0.0
 10
-105.5493
 20
-95.9692
 30
0.0
 10
-104.2416
 20
-94.3274
 30
0.0
 10
-101.6806
 20
-93.2891
 30
0.0
 10
-101.1813
 20
-90.7649
 30
0.0
 10
-101.1813
 20
-90.7649
 30
0.0
 10
-100.8787
 20
-89.2347
 30
0.0
 10
-101.536
 20
-87.8044
 30
0.0
 10
-102.3763
 20
-87.2096
 30
0.0
 10
-102.3763
 20
-87.2096
 30
0.0
 10
-103.4602
 20
-86.4422
 30
0.0
 10
-104.8971
 20
-87.0007
 30
0.0
 10
-106.1696
 20
-87.2615
 30
0.0
 10
-106.1696
 20
-87.2615
 30
0.0
 10
-106.1696
 20
-87.2615
 30
0.0
 10
-104.9294
 20
-87.8327
 30
0.0
 10
-104.9294
 20
-87.8327
 30
0.0
 10
-104.9294
 20
-87.8327
 30
0.0
 10
-102.8985
 20
-88.9872
 30
0.0
 10
-104.6748
 20
-92.5709
 30
0.0
 10
-108.6815
 20
-91.682
 30
0.0
 10
-108.6815
 20
-91.682
 30
0.0
 10
-111.0297
 20
-91.1609
 30
0.0
 10
-111.8338
 20
-89.5278
 30
0.0
 10
-111.8033
 20
-86.7111
 30
0.0
 10
-111.8033
 20
-86.7111
 30
0.0
 10
-111.7472
 20
-81.5078
 30
0.0
 10
-107.8392
 20
-77.651
 30
0.0
 10
-106.9646
 20
-75.2792
 30
0.0
 10
-106.9646
 20
-75.2792
 30
0.0
 10
-106.01
 20
-75.5335
 30
0.0
 10
-100.162
 20
-79.4549
 30
0.0
 10
-98.7107
 20
-80.3484
 30
0.0
 10
-98.7107
 20
-80.3484
 30
0.0
 10
-96.258
 20
-81.8587
 30
0.0
 10
-92.2948
 20
-83.8805
 30
0.0
 10
-90.8855
 20
-85.6838
 30
0.0
  0
SPLINE
  5
4F
330
1F
100
AcDbEntity
  8
layer 1
 62
     7
370
     9
100
AcDbSpline
210
0.0
220
0.0
230
1.0
 70
    11
 71
     3
 72
    72
 73
    68
 74
     0
 42
0.0000000001
 43
0.0000000001
 12
1.0
 22
0.0
 32
0.0
 13
1.0
 23
0.0
 33
0.0
 40
0.0
 40
0.0
 40
0.0
 40
0.0
 40
0.0555555555555556
 40
0.0555555555555556
 40
0.0555555555555556
 40
0.0555555555555556
 40
0.1111111111111111
 40
0.1111111111111111
 40
0.1111111111111111
 40
0.1111111111111111
 40
0.1666666666666667
 40
0.1666666666666667
 40
0.1666666666666667
 40
0.1666666666666667
 40
0.2222222222222222
 40
0.2222222222222222
 40
0.2222222222222222
 40
0.2222222222222222
 40
0.2777777777777778
 40
0.2777777777777778
 40
0.2777777777777778
 40
0.2777777777777778
 40
0.3333333333333333
 40
0.3333333333333333
 40
0.3333333333333333
 40
0.3333333333333333
 40
0.3888888888888889
 40
0.3888888888888889
 40
0.3888888888888889
 40
0.3888888888888889
 40
0.4444444444444444
 40
0.4444444444444444
 40
0.4444444444444444
 40
0.4444444444444444
 40
0.5
 40
0.5
 40
0.5
 40
0.5
 40
0.5555555555555556
 40
0.5555555555555556
 40
0.5555555555555556
 40
0.5555555555555556
 40
0.6111111111111112
 40
0.6111111111111112
 40
0.6111111111111112
 40
0.6111111111111112
 40
0.6666666666666666
 40
0.6666666666666666
 40
0.6666666666666666
 40
0.6666666666666666
 40
0.7222222222222222
 40
0.7222222222222222
 40
0.7222222222222222
 40
0.7222222222222222
 40
0.7777777777777778
 40
0.7777777777777778
 40
0.7777777777777778
 40
0.7777777777777778
 40
0.8333333333333334
 40
0.8333333333333334
 40
0.8333333333333334
 40
0.8333333333333334
 40
0.8888888888888888
 40
0.8888888888888888
 40
0.8888888888888888
 40
0.8888888888888888
 40
1.0
 40
1.0
 40
1.0
 40
1.0
 10
-11.5075
 20
-49.6967
 30
0.0
 10
-11.1164
 20
-51.8684
 30
0.0
 10
-9.0642
 20
-52.5932
 30
0.0
 10
-7.3106
 20
-53.5813
 30
0.0
 10
-7.3106
 20
-53.5813
 30
0.0
 10
-5.5226
 20
-54.5889
 30
0.0
 10
-3.9314
 20
-55.4217
 30
0.0
 10
-2.2976
 20
-56.6073
 30
0.0
 10
-2.2976
 20
-56.6073
 30
0.0
 10
0.9512
 20
-58.9647
 30
0.0
 10
2.9532
 20
-61.0719
 30
0.0
 10
4.807
 20
-65.7061
 30
0.0
 10
4.807
 20
-65.7061
 30
0.0
 10
8.7997
 20
-75.6878
 30
0.0
 10
2.8506
 20
-88.7418
 30
0.0
 10
-0.9359
 20
-90.1723
 30
0.0
 10
-0.9359
 20
-90.1723
 30
0.0
 10
-0.4416
 20
-88.0658
 30
0.0
 10
0.4175
 20
-86.5814
 30
0.0
 10
0.8745
 20
-84.1225
 30
0.0
 10
0.8745
 20
-84.1225
 30
0.0
 10
2.1243
 20
-77.3984
 30
0.0
 10
0.375
 20
-71.276
 30
0.0
 10
-3.412
 20
-66.2391
 30
0.0
 10
-3.412
 20
-66.2391
 30
0.0
 10
-5.7642
 20
-63.1105
 30
0.0
 10
-7.7875
 20
-61.054
 30
0.0
 10
-10.5308
 20
-58.4521
 30
0.0
 10
-10.5308
 20
-58.4521
 30
0.0
 10
-11.2293
 20
-57.7895
 30
0.0
 10
-11.8705
 20
-57.385
 30
0.0
 10
-12.5494
 20
-56.684
 30
0.0
 10
-12.5494
 20
-56.684
 30
0.0
 10
-13.311
 20
-55.8977
 30
0.0
 10
-13.6261
 20
-55.3987
 30
0.0
 10
-14.3717
 20
-54.7203
 30
0.0
 10
-14.3717
 20
-54.7203
 30
0.0
 10
-16.6928
 20
-52.6074
 30
0.0
 10
-16.4752
 20
-51.2382
 30
0.0
 10
-17.7358
 20
-50.7585
 30
0.0
 10
-17.7358
 20
-50.7585
 30
0.0
 10
-18.1776
 20
-51.6475
 30
0.0
 10
-17.9738
 20
-52.9287
 30
0.0
 10
-18.0205
 20
-54.0355
 30
0.0
 10
-18.0205
 20
-54.0355
 30
0.0
 10
-19.4997
 20
-53.4338
 30
0.0
 10
-24.0335
 20
-48.7961
 30
0.0
 10
-24.1064
 20
-46.4438
 30
0.0
 10
-24.1064
 20
-46.4438
 30
0.0
 10
-21.8203
 20
-46.045
 30
0.0
 10
-22.8614
 20
-46.5432
 30
0.0
 10
-20.9146
 20
-45.5801
 30
0.0
 10
-20.9146
 20
-45.5801
 30
0.0
 10
-20.9047
 20
-46.0556
 30
0.0
 10
-20.9506
 20
-46.9221
 30
0.0
 10
-20.8782
 20
-47.3415
 30
0.0
 10
-20.8782
 20
-47.3415
 30
0.0
 10
-20.4473
 20
-49.8393
 30
0.0
 10
-17.7834
 20
-48.0938
 30
0.0
 10
-16.236
 20
-47.9748
 30
0.0
 10
-16.236
 20
-47.9748
 30
0.0
 10
-15.869
 20
-49.1148
 30
0.0
 10
-16.0446
 20
-50.0736
 30
0.0
 10
-14.6712
 20
-50.41
 30
0.0
 10
-14.6712
 20
-50.41
 30
0.0
 10
-13.3148
 20
-50.7422
 30
0.0
 10
-12.5857
 20
-49.9457
 30
0.0
 10
-11.5075
 20
-49.6967
 30
0.0
  0
SPLINE
  5
50
330
1F
100
AcDbEntity
  8
layer 1
 62
     7
370
     9
100
AcDbSpline
210
0.0
220
0.0
230
1.0
 70
    11
 71
     3
 72
    56
 73
    52
 74
     0
 42
0.0000000001
 43
0.0000000001
 12
1.0
 22
0.0
 32
0.0
 13
1.0
 23
0.0
 33
0.0
 40
0.0
 40
0.0
 40
0.0
 40
0.0
 40
0.0714285714285714
 40
0.0714285714285714
 40
0.0714285714285714
 40
0.0714285714285714
 40
0.1428571428571428
 40
0.1428571428571428
 40
0.1428571428571428
 40
0.1428571428571428
 40
0.2142857142857143
 40
0.2142857142857143
 40
0.2142857142857143
 40
0.2142857142857143
 40
0.2857142857142857
 40
0.2857142857142857
 40
0.2857142857142857
 40
0.2857142857142857
 40
0.3571428571428572
 40
0.3571428571428572
 40
0.3571428571428572
 40
0.3571428571428572
 40
0.4285714285714285
 40
0.4285714285714285
 40
0.4285714285714285
 40
0.4285714285714285
 40
0.5
 40
0.5
 40
0.5
 40
0.5
 40
0.5714285714285714
 40
0.5714285714285714
 40
0.5714285714285714
 40
0.5714285714285714
 40
0.6428571428571429
 40
0.6428571428571429
 40
0.6428571428571429
 40
0.6428571428571429
 40
0.7142857142857143
 40
0.7142857142857143
 40
0.7142857142857143
 40
0.7142857142857143
 40
0.7857142857142857
 40
0.7857142857142857
 40
0.7857142857142857
 40
0.7857142857142857
 40
0.8571428571428571
 40
0.8571428571428571
 40
0.8571428571428571
 40
0.8571428571428571
 40
1.0
 40
1.0
 40
1.0
 40
1.0
 10
-128.2156
 20
-46.3921
 30
0.0
 10
-128.307
 20
-48.7397
 30
0.0
 10
-132.8595
 20
-53.6191
 30
0.0
 10
-134.3122
 20
-54.0171
 30
0.0
 10
-134.3122
 20
-54.0171
 30
0.0
 10
-134.3122
 20
-54.0171
 30
0.0
 10
-134.4362
 20
-50.7601
 30
0.0
 10
-134.4362
 20
-50.7601
 30
0.0
 10
-134.4362
 20
-50.7601
 30
0.0
 10
-135.2651
 20
-50.9266
 30
0.0
 10
-134.9459
 20
-50.782
 30
0.0
 10
-135.5315
 20
-51.6303
 30
0.0
 10
-135.5315
 20
-51.6303
 30
0.0
 10
-137.2531
 20
-54.1239
 30
0.0
 10
-139.4582
 20
-56.5141
 30
0.0
 10
-141.8137
 20
-58.4925
 30
0.0
 10
-141.8137
 20
-58.4925
 30
0.0
 10
-146.8242
 20
-62.7005
 30
0.0
 10
-152.6068
 20
-70.0194
 30
0.0
 10
-153.4193
 20
-77.04
 30
0.0
 10
-153.4193
 20
-77.04
 30
0.0
 10
-154.2145
 20
-83.9122
 30
0.0
 10
-152.4473
 20
-85.7623
 30
0.0
 10
-151.4048
 20
-90.147
 30
0.0
 10
-151.4048
 20
-90.147
 30
0.0
 10
-155.1927
 20
-88.5833
 30
0.0
 10
-161.1526
 20
-76.0718
 30
0.0
 10
-157.0746
 20
-65.5577
 30
0.0
 10
-157.0746
 20
-65.5577
 30
0.0
 10
-154.4159
 20
-58.702
 30
0.0
 10
-150.2081
 20
-56.6024
 30
0.0
 10
-144.8818
 20
-53.5164
 30
0.0
 10
-144.8818
 20
-53.5164
 30
0.0
 10
-140.6605
 20
-51.0706
 30
0.0
 10
-142.1738
 20
-51.9083
 30
0.0
 10
-140.6042
 20
-49.713
 30
0.0
 10
-140.6042
 20
-49.713
 30
0.0
 10
-137.8807
 20
-50.7252
 30
0.0
 10
-136.9606
 20
-51.3994
 30
0.0
 10
-136.1181
 20
-47.9853
 30
0.0
 10
-136.1181
 20
-47.9853
 30
0.0
 10
-134.2713
 20
-48.0524
 30
0.0
 10
-133.8465
 20
-49.0203
 30
0.0
 10
-131.8517
 20
-48.4904
 30
0.0
 10
-131.8517
 20
-48.4904
 30
0.0
 10
-131.4074
 20
-47.538
 30
0.0
 10
-131.4218
 20
-46.8773
 30
0.0
 10
-131.4361
 20
-45.5589
 30
0.0
 10
-131.4361
 20
-45.5589
 30
0.0
 10
-129.8431
 20
-46.3163
 30
0.0
 10
-130.3772
 20
-46.2505
 30
0.0
 10
-128.2156
 20
-46.3921
 30
0.0
  0
SPLINE
  5
51
330
1F
100
AcDbEntity
  8
layer 1
 62
     7
370
     9
100
AcDbSpline
210
0.0
220
0.0
230
1.0
 70
    11
 71
     3
 72
    36
 73
    32
 74
     0
 42
0.0000000001
 43
0.0000000001
 12
1.0
 22
0.0
 32
0.0
 13
1.0
 23
0.0
 33
0.0
 40
0.0
 40
0.0
 40
0.0
 40
0.0
 40
0.1111111111111111
 40
0.1111111111111111
 40
0.1111111111111111
 40
0.1111111111111111
 40
0.2222222222222222
 40
0.2222222222222222
 40
0.2222222222222222
 40
0.2222222222222222
 40
0.3333333333333333
 40
0.3333333333333333
 40
0.3333333333333333
 40
0.3333333333333333
 40
0.4444444444444444
 40
0.4444444444444444
 40
0.4444444444444444
 40
0.4444444444444444
 40
0.5555555555555556
 40
0.5555555555555556
 40
0.5555555555555556
 40
0.5555555555555556
 40
0.6666666666666666
 40
0.6666666666666666
 40
0.6666666666666666
 40
0.6666666666666666
 40
0.7777777777777778
 40
0.7777777777777778
 40
0.7777777777777778
 40
0.7777777777777778
 40
1.0
 40
1.0
 40
1.0
 40
1.0
 10
-135.2741
 20
-78.5644
 30
0.0
 10
-139.6629
 20
-77.8764
 30
0.0
 10
-141.4122
 20
-78.5535
 30
0.0
 10
-143.7583
 20
-80.8783
 30
0.0
 10
-143.7583
 20
-80.8783
 30
0.0
 10
-145.9409
 20
-83.0409
 30
0.0
 10
-146.1256
 20
-85.9533
 30
0.0
 10
-146.1113
 20
-90.0591
 30
0.0
 10
-146.1113
 20
-90.0591
 30
0.0
 10
-147.1697
 20
-89.5963
 30
0.0
 10
-147.5744
 20
-87.9225
 30
0.0
 10
-147.9345
 20
-86.5837
 30
0.0
 10
-147.9345
 20
-86.5837
 30
0.0
 10
-149.1593
 20
-82.0304
 30
0.0
 10
-148.6399
 20
-77.2643
 30
0.0
 10
-146.6961
 20
-73.214
 30
0.0
 10
-146.6961
 20
-73.214
 30
0.0
 10
-144.8147
 20
-69.2931
 30
0.0
 10
-139.3544
 20
-63.9048
 30
0.0
 10
-135.9852
 20
-62.9358
 30
0.0
 10
-135.9852
 20
-62.9358
 30
0.0
 10
-136.7085
 20
-66.2731
 30
0.0
 10
-137.6378
 20
-67.1223
 30
0.0
 10
-137.5817
 20
-71.3081
 30
0.0
 10
-137.5817
 20
-71.3081
 30
0.0
 10
-137.5625
 20
-72.7436
 30
0.0
 10
-137.379
 20
-74.2404
 30
0.0
 10
-136.8915
 20
-75.417
 30
0.0
 10
-136.8915
 20
-75.417
 30
0.0
 10
-136.334
 20
-76.7626
 30
0.0
 10
-135.6677
 20
-77.0619
 30
0.0
 10
-135.2741
 20
-78.5644
 30
0.0
  0
SPLINE
  5
52
330
1F
100
AcDbEntity
  8
layer 1
 62
     7
370
     9
100
AcDbSpline
210
0.0
220
0.0
230
1.0
 70
    11
 71
     3
 72
    32
 73
    28
 74
     0
 42
0.0000000001
 43
0.0000000001
 12
1.0
 22
0.0
 32
0.0
 13
1.0
 23
0.0
 33
0.0
 40
0.0
 40
0.0
 40
0.0
 40
0.0
 40
0.125
 40
0.125
 40
0.125
 40
0.125
 40
0.25
 40
0.25
 40
0.25
 40
0.25
 40
0.375
 40
0.375
 40
0.375
 40
0.375
 40
0.5
 40
0.5
 40
0.5
 40
0.5
 40
0.625
 40
0.625
 40
0.625
 40
0.625
 40
0.75
 40
0.75
 40
0.75
 40
0.75
 40
1.0
 40
1.0
 40
1.0
 40
1.0
 10
-16.3409
 20
-62.9141
 30
0.0
 10
-14.2435
 20
-63.5271
 30
0.0
 10
-11.4826
 20
-66.1058
 30
0.0
 10
-10.1164
 20
-67.2669
 30
0.0
 10
-10.1164
 20
-67.2669
 30
0.0
 10
-6.1106
 20
-70.6709
 30
0.0
 10
-3.7794
 20
-76.0096
 30
0.0
 10
-3.7309
 20
-81.8308
 30
0.0
 10
-3.7309
 20
-81.8308
 30
0.0
 10
-3.715
 20
-83.742
 30
0.0
 10
-4.3144
 20
-89.0133
 30
0.0
 10
-6.1834
 20
-90.0666
 30
0.0
 10
-6.1834
 20
-90.0666
 30
0.0
 10
-6.3773
 20
-85.2359
 30
0.0
 10
-5.8306
 20
-83.9363
 30
0.0
 10
-8.6921
 20
-80.9485
 30
0.0
 10
-8.6921
 20
-80.9485
 30
0.0
 10
-11.2288
 20
-78.3001
 30
0.0
 10
-12.4784
 20
-77.8075
 30
0.0
 10
-17.0682
 20
-78.5775
 30
0.0
 10
-17.0682
 20
-78.5775
 30
0.0
 10
-16.7586
 20
-77.2316
 30
0.0
 10
-15.9232
 20
-76.6514
 30
0.0
 10
-15.3779
 20
-75.2745
 30
0.0
 10
-15.3779
 20
-75.2745
 30
0.0
 10
-13.4854
 20
-70.495
 30
0.0
 10
-15.8646
 20
-65.2199
 30
0.0
 10
-16.3409
 20
-62.9141
 30
0.0
  0
SPLINE
  5
53
330
1F
100
AcDbEntity
  8
layer 1
 62
     7
370
     9
100
AcDbSpline
210
0.0
220
0.0
230
1.0
 70
    11
 71
     3
 72
    48
 73
    44
 74
     0
 42
0.0000000001
 43
0.0000000001
 12
1.0
 22
0.0
 32
0.0
 13
1.0
 23
0.0
 33
0.0
 40
0.0
 40
0.0
 40
0.0
 40
0.0
 40
0.0833333333333333
 40
0.0833333333333333
 40
0.0833333333333333
 40
0.0833333333333333
 40
0.1666666666666667
 40
0.1666666666666667
 40
0.1666666666666667
 40
0.1666666666666667
 40
0.25
 40
0.25
 40
0.25
 40
0.25
 40
0.3333333333333333
 40
0.3333333333333333
 40
0.3333333333333333
 40
0.3333333333333333
 40
0.4166666666666667
 40
0.4166666666666667
 40
0.4166666666666667
 40
0.4166666666666667
 40
0.5
 40
0.5
 40
0.5
 40
0.5
 40
0.5833333333333334
 40
0.5833333333333334
 40
0.5833333333333334
 40
0.5833333333333334
 40
0.6666666666666666
 40
0.6666666666666666
 40
0.6666666666666666
 40
0.6666666666666666
 40
0.75
 40
0.75
 40
0.75
 40
0.75
 40
0.8333333333333334
 40
0.8333333333333334
 40
0.8333333333333334
 40
0.8333333333333334
 40
1.0
 40
1.0
 40
1.0
 40
1.0
 10
-32.2881
 20
-68.8682
 30
0.0
 10
-35.5237
 20
-64.2175
 30
0.0
 10
-23.3267
 20
-59.8035
 30
0.0
 10
-21.8138
 20
-68.8456
 30
0.0
 10
-21.8138
 20
-68.8456
 30
0.0
 10
-21.5335
 20
-70.521
 30
0.0
 10
-21.8475
 20
-72.3235
 30
0.0
 10
-22.4054
 20
-73.663
 30
0.0
 10
-22.4054
 20
-73.663
 30
0.0
 10
-23.898
 20
-77.247
 30
0.0
 10
-29.8439
 20
-80.8734
 30
0.0
 10
-33.0547
 20
-78.4914
 30
0.0
 10
-33.0547
 20
-78.4914
 30
0.0
 10
-32.6655
 20
-77.5033
 30
0.0
 10
-31.6134
 20
-76.9472
 30
0.0
 10
-32.0465
 20
-75.3148
 30
0.0
 10
-32.0465
 20
-75.3148
 30
0.0
 10
-33.1388
 20
-75.1952
 30
0.0
 10
-33.398
 20
-75.7817
 30
0.0
 10
-34.7022
 20
-75.4847
 30
0.0
 10
-34.7022
 20
-75.4847
 30
0.0
 10
-35.9374
 20
-75.2031
 30
0.0
 10
-39.657
 20
-73.1473
 30
0.0
 10
-40.2587
 20
-71.2994
 30
0.0
 10
-40.2587
 20
-71.2994
 30
0.0
 10
-39.7066
 20
-70.4988
 30
0.0
 10
-38.9848
 20
-69.9102
 30
0.0
 10
-38.2944
 20
-69.0306
 30
0.0
 10
-38.2944
 20
-69.0306
 30
0.0
 10
-37.6421
 20
-68.1996
 30
0.0
 10
-37.2705
 20
-67.0551
 30
0.0
 10
-36.6005
 20
-66.6377
 30
0.0
 10
-36.6005
 20
-66.6377
 30
0.0
 10
-35.601
 20
-68.0962
 30
0.0
 10
-36.6374
 20
-70.3238
 30
0.0
 10
-33.9964
 20
-71.6996
 30
0.0
 10
-33.9964
 20
-71.6996
 30
0.0
 10
-31.7959
 20
-72.8459
 30
0.0
 10
-29.7208
 20
-71.1201
 30
0.0
 10
-30.5531
 20
-68.6278
 30
0.0
 10
-30.5531
 20
-68.6278
 30
0.0
 10
-31.472
 20
-68.7438
 30
0.0
 10
-30.9798
 20
-69.1035
 30
0.0
 10
-32.2881
 20
-68.8682
 30
0.0
  0
SPLINE
  5
54
330
1F
100
AcDbEntity
  8
layer 1
 62
     7
370
     9
100
AcDbSpline
210
0.0
220
0.0
230
1.0
 70
    11
 71
     3
 72
    52
 73
    48
 74
     0
 42
0.0000000001
 43
0.0000000001
 12
1.0
 22
0.0
 32
0.0
 13
1.0
 23
0.0
 33
0.0
 40
0.0
 40
0.0
 40
0.0
 40
0.0
 40
0.0769230769230769
 40
0.0769230769230769
 40
0.0769230769230769
 40
0.0769230769230769
 40
0.1538461538461539
 40
0.1538461538461539
 40
0.1538461538461539
 40
0.1538461538461539
 40
0.2307692307692308
 40
0.2307692307692308
 40
0.2307692307692308
 40
0.2307692307692308
 40
0.3076923076923077
 40
0.3076923076923077
 40
0.3076923076923077
 40
0.3076923076923077
 40
0.3846153846153846
 40
0.3846153846153846
 40
0.3846153846153846
 40
0.3846153846153846
 40
0.4615384615384616
 40
0.4615384615384616
 40
0.4615384615384616
 40
0.4615384615384616
 40
0.5384615384615384
 40
0.5384615384615384
 40
0.5384615384615384
 40
0.5384615384615384
 40
0.6153846153846154
 40
0.6153846153846154
 40
0.6153846153846154
 40
0.6153846153846154
 40
0.6923076923076923
 40
0.6923076923076923
 40
0.6923076923076923
 40
0.6923076923076923
 40
0.7692307692307693
 40
0.7692307692307693
 40
0.7692307692307693
 40
0.7692307692307693
 40
0.8461538461538461
 40
0.8461538461538461
 40
0.8461538461538461
 40
0.8461538461538461
 40
1.0
 40
1.0
 40
1.0
 40
1.0
 10
-117.8653
 20
-75.533
 30
0.0
 10
-118.6894
 20
-75.6511
 30
0.0
 10
-118.6359
 20
-75.5194
 30
0.0
 10
-119.2804
 20
-75.4158
 30
0.0
 10
-119.2804
 20
-75.4158
 30
0.0
 10
-121.7909
 20
-75.011
 30
0.0
 10
-119.5523
 20
-77.7376
 30
0.0
 10
-119.2805
 20
-78.4914
 30
0.0
 10
-119.2805
 20
-78.4914
 30
0.0
 10
-120.9069
 20
-79.6826
 30
0.0
 10
-124.1084
 20
-79.0586
 30
0.0
 10
-125.6752
 20
-78.2012
 30
0.0
 10
-125.6752
 20
-78.2012
 30
0.0
 10
-129.2846
 20
-76.2262
 30
0.0
 10
-131.5499
 20
-72.033
 30
0.0
 10
-130.2688
 20
-67.8602
 30
0.0
 10
-130.2688
 20
-67.8602
 30
0.0
 10
-128.8324
 20
-63.1817
 30
0.0
 10
-123.5803
 20
-62.2676
 30
0.0
 10
-120.7395
 20
-65.1264
 30
0.0
 10
-120.7395
 20
-65.1264
 30
0.0
 10
-120.1134
 20
-65.7564
 30
0.0
 10
-119.3044
 20
-66.6127
 30
0.0
 10
-119.528
 20
-67.9197
 30
0.0
 10
-119.528
 20
-67.9197
 30
0.0
 10
-119.8416
 20
-69.7543
 30
0.0
 10
-121.1684
 20
-68.4726
 30
0.0
 10
-121.673
 20
-68.7079
 30
0.0
 10
-121.673
 20
-68.7079
 30
0.0
 10
-122.89
 20
-69.2751
 30
0.0
 10
-121.4099
 20
-73.2294
 30
0.0
 10
-118.3765
 20
-71.7071
 30
0.0
 10
-118.3765
 20
-71.7071
 30
0.0
 10
-115.7396
 20
-70.3835
 30
0.0
 10
-116.7421
 20
-68.2661
 30
0.0
 10
-115.7822
 20
-66.6657
 30
0.0
 10
-115.7822
 20
-66.6657
 30
0.0
 10
-114.8833
 20
-67.0599
 30
0.0
 10
-114.5295
 20
-68.4455
 30
0.0
 10
-113.9458
 20
-69.1383
 30
0.0
 10
-113.9458
 20
-69.1383
 30
0.0
 10
-113.3461
 20
-69.8499
 30
0.0
 10
-112.5093
 20
-70.5448
 30
0.0
 10
-112.077
 20
-71.2994
 30
0.0
 10
-112.077
 20
-71.2994
 30
0.0
 10
-112.6131
 20
-73.2566
 30
0.0
 10
-116.7517
 20
-75.3733
 30
0.0
 10
-117.8653
 20
-75.533
 30
0.0
  0
SPLINE
  5
55
330
1F
100
AcDbEntity
  8
layer 1
 62
     7
370
     9
100
AcDbSpline
210
0.0
220
0.0
230
1.0
 70
    11
 71
     3
 72
    64
 73
    60
 74
     0
 42
0.0000000001
 43
0.0000000001
 12
1.0
 22
0.0
 32
0.0
 13
1.0
 23
0.0
 33
0.0
 40
0.0
 40
0.0
 40
0.0
 40
0.0
 40
0.0625
 40
0.0625
 40
0.0625
 40
0.0625
 40
0.125
 40
0.125
 40
0.125
 40
0.125
 40
0.1875
 40
0.1875
 40
0.1875
 40
0.1875
 40
0.25
 40
0.25
 40
0.25
 40
0.25
 40
0.3125
 40
0.3125
 40
0.3125
 40
0.3125
 40
0.375
 40
0.375
 40
0.375
 40
0.375
 40
0.4375
 40
0.4375
 40
0.4375
 40
0.4375
 40
0.5
 40
0.5
 40
0.5
 40
0.5
 40
0.5625
 40
0.5625
 40
0.5625
 40
0.5625
 40
0.625
 40
0.625
 40
0.625
 40
0.625
 40
0.6875
 40
0.6875
 40
0.6875
 40
0.6875
 40
0.75
 40
0.75
 40
0.75
 40
0.75
 40
0.8125
 40
0.8125
 40
0.8125
 40
0.8125
 40
0.875
 40
0.875
 40
0.875
 40
0.875
 40
1.0
 40
1.0
 40
1.0
 40
1.0
 10
-47.9396
 20
-70.6154
 30
0.0
 10
-50.1025
 20
-72.5211
 30
0.0
 10
-54.1252
 20
-74.5269
 30
0.0
 10
-56.6339
 20
-76.2589
 30
0.0
 10
-56.6339
 20
-76.2589
 30
0.0
 10
-60.4537
 20
-78.8959
 30
0.0
 10
-61.943
 20
-80.7418
 30
0.0
 10
-64.4009
 20
-82.5621
 30
0.0
 10
-64.4009
 20
-82.5621
 30
0.0
 10
-65.2862
 20
-81.9819
 30
0.0
 10
-67.2933
 20
-79.1756
 30
0.0
 10
-67.5478
 20
-77.5417
 30
0.0
 10
-67.5478
 20
-77.5417
 30
0.0
 10
-65.4868
 20
-77.8843
 30
0.0
 10
-62.9446
 20
-78.3685
 30
0.0
 10
-63.1269
 20
-75.409
 30
0.0
 10
-63.1269
 20
-75.409
 30
0.0
 10
-63.6879
 20
-74.2846
 30
0.0
 10
-64.1411
 20
-74.3528
 30
0.0
 10
-64.835
 20
-73.6065
 30
0.0
 10
-64.835
 20
-73.6065
 30
0.0
 10
-65.3421
 20
-74.1436
 30
0.0
 10
-64.8185
 20
-73.535
 30
0.0
 10
-65.1386
 20
-74.1622
 30
0.0
 10
-65.1386
 20
-74.1622
 30
0.0
 10
-66.5454
 20
-76.9183
 30
0.0
 10
-68.6317
 20
-73.4738
 30
0.0
 10
-68.9437
 20
-71.5559
 30
0.0
 10
-68.9437
 20
-71.5559
 30
0.0
 10
-67.6034
 20
-70.5605
 30
0.0
 10
-56.0486
 20
-69.0274
 30
0.0
 10
-55.1883
 20
-55.6402
 30
0.0
 10
-55.1883
 20
-55.6402
 30
0.0
 10
-54.9076
 20
-51.2745
 30
0.0
 10
-56.1332
 20
-46.7554
 30
0.0
 10
-57.5457
 20
-43.1444
 30
0.0
 10
-57.5457
 20
-43.1444
 30
0.0
 10
-59.6151
 20
-37.8541
 30
0.0
 10
-60.719
 20
-37.2089
 30
0.0
 10
-62.6904
 20
-33.5399
 30
0.0
 10
-62.6904
 20
-33.5399
 30
0.0
 10
-62.6904
 20
-33.5399
 30
0.0
 10
-55.9615
 20
-25.1789
 30
0.0
 10
-55.9615
 20
-25.1789
 30
0.0
 10
-55.9615
 20
-25.1789
 30
0.0
 10
-54.9864
 20
-25.8807
 30
0.0
 10
-53.0584
 20
-28.4644
 30
0.0
 10
-52.1907
 20
-29.6354
 30
0.0
 10
-52.1907
 20
-29.6354
 30
0.0
 10
-49.2684
 20
-33.5794
 30
0.0
 10
-44.3737
 20
-40.4718
 30
0.0
 10
-42.6357
 20
-44.9178
 30
0.0
 10
-42.6357
 20
-44.9178
 30
0.0
 10
-41.1888
 20
-48.6189
 30
0.0
 10
-41.0659
 20
-47.89
 30
0.0
 10
-43.0008
 20
-50.8015
 30
0.0
 10
-43.0008
 20
-50.8015
 30
0.0
 10
-48.0233
 20
-58.3602
 30
0.0
 10
-47.4489
 20
-61.6546
 30
0.0
 10
-47.9396
 20
-70.6154
 30
0.0
  0
SPLINE
  5
56
330
1F
100
AcDbEntity
  8
layer 1
 62
     7
370
     9
100
AcDbSpline
210
0.0
220
0.0
230
1.0
 70
    11
 71
     3
 72
    60
 73
    56
 74
     0
 42
0.0000000001
 43
0.0000000001
 12
1.0
 22
0.0
 32
0.0
 13
1.0
 23
0.0
 33
0.0
 40
0.0
 40
0.0
 40
0.0
 40
0.0
 40
0.0666666666666667
 40
0.0666666666666667
 40
0.0666666666666667
 40
0.0666666666666667
 40
0.1333333333333333
 40
0.1333333333333333
 40
0.1333333333333333
 40
0.1333333333333333
 40
0.2
 40
0.2
 40
0.2
 40
0.2
 40
0.2666666666666667
 40
0.2666666666666667
 40
0.2666666666666667
 40
0.2666666666666667
 40
0.3333333333333333
 40
0.3333333333333333
 40
0.3333333333333333
 40
0.3333333333333333
 40
0.4
 40
0.4
 40
0.4
 40
0.4
 40
0.4666666666666667
 40
0.4666666666666667
 40
0.4666666666666667
 40
0.4666666666666667
 40
0.5333333333333333
 40
0.5333333333333333
 40
0.5333333333333333
 40
0.5333333333333333
 40
0.6
 40
0.6
 40
0.6
 40
0.6
 40
0.6666666666666666
 40
0.6666666666666666
 40
0.6666666666666666
 40
0.6666666666666666
 40
0.7333333333333333
 40
0.7333333333333333
 40
0.7333333333333333
 40
0.7333333333333333
 40
0.8
 40
0.8
 40
0.8
 40
0.8
 40
0.8666666666666667
 40
0.8666666666666667
 40
0.8666666666666667
 40
0.8666666666666667
 40
1.0
 40
1.0
 40
1.0
 40
1.0
 10
-87.6904
 20
-82.6048
 30
0.0
 10
-88.8028
 20
-82.0707
 30
0.0
 10
-90.5553
 20
-80.2832
 30
0.0
 10
-91.7224
 20
-79.28
 30
0.0
 10
-91.7224
 20
-79.28
 30
0.0
 10
-93.9379
 20
-77.376
 30
0.0
 10
-97.4222
 20
-75.0839
 30
0.0
 10
-100.0164
 20
-73.4815
 30
0.0
 10
-100.0164
 20
-73.4815
 30
0.0
 10
-101.3362
 20
-72.6665
 30
0.0
 10
-103.055
 20
-71.4625
 30
0.0
 10
-104.3723
 20
-70.8082
 30
0.0
 10
-104.3723
 20
-70.8082
 30
0.0
 10
-104.7267
 20
-65.2301
 30
0.0
 10
-104.3008
 20
-60.9047
 30
0.0
 10
-106.4545
 20
-55.9969
 30
0.0
 10
-106.4545
 20
-55.9969
 30
0.0
 10
-107.9711
 20
-52.5407
 30
0.0
 10
-110.8907
 20
-49.0702
 30
0.0
 10
-110.788
 20
-47.9987
 30
0.0
 10
-110.788
 20
-47.9987
 30
0.0
 10
-110.4965
 20
-44.9594
 30
0.0
 10
-105.01
 20
-36.5202
 30
0.0
 10
-103.5367
 20
-34.399
 30
0.0
 10
-103.5367
 20
-34.399
 30
0.0
 10
-102.3864
 20
-32.743
 30
0.0
 10
-97.6972
 20
-26.0681
 30
0.0
 10
-96.4212
 20
-25.1725
 30
0.0
 10
-96.4212
 20
-25.1725
 30
0.0
 10
-95.8746
 20
-25.5412
 30
0.0
 10
-90.0495
 20
-32.7444
 30
0.0
 10
-89.6427
 20
-33.5399
 30
0.0
 10
-89.6427
 20
-33.5399
 30
0.0
 10
-93.1067
 20
-39.1341
 30
0.0
 10
-97.7997
 20
-46.9169
 30
0.0
 10
-97.1263
 20
-55.8853
 30
0.0
 10
-97.1263
 20
-55.8853
 30
0.0
 10
-96.1347
 20
-69.0904
 30
0.0
 10
-84.398
 20
-70.7526
 30
0.0
 10
-83.3696
 20
-71.5559
 30
0.0
 10
-83.3696
 20
-71.5559
 30
0.0
 10
-83.5472
 20
-72.8398
 30
0.0
 10
-84.8308
 20
-75.6467
 30
0.0
 10
-86.418
 20
-75.0901
 30
0.0
 10
-86.418
 20
-75.0901
 30
0.0
 10
-87.4651
 20
-74.723
 30
0.0
 10
-86.8912
 20
-74.551
 30
0.0
 10
-87.237
 20
-73.6443
 30
0.0
 10
-87.237
 20
-73.6443
 30
0.0
 10
-90.2758
 20
-75.0379
 30
0.0
 10
-90.5525
 20
-78.7618
 30
0.0
 10
-84.7953
 20
-77.5184
 30
0.0
 10
-84.7953
 20
-77.5184
 30
0.0
 10
-85.0667
 20
-79.35
 30
0.0
 10
-86.9387
 20
-81.498
 30
0.0
 10
-87.6904
 20
-82.6048
 30
0.0
  0
SPLINE
  5
57
330
1F
100
AcDbEntity
  8
layer 1
 62
     7
370
     9
100
AcDbSpline
210
0.0
220
0.0
230
1.0
 70
    11
 71
     3
 72
    12
 73
     8
 74
     0
 42
0.0000000001
 43
0.0000000001
 12
1.0
 22
0.0
 32
0.0
 13
1.0
 23
0.0
 33
0.0
 40
0.0
 40
0.0
 40
0.0
 40
0.0
 40
0.3333333333333333
 40
0.3333333333333333
 40
0.3333333333333333
 40
0.3333333333333333
 40
1.0
 40
1.0
 40
1.0
 40
1.0
 10
-39.3828
 20
-54.371
 30
0.0
 10
-38.7078
 20
-58.9135
 30
0.0
 10
-40.3382
 20
-64.6439
 30
0.0
 10
-42.8227
 20
-66.6929
 30
0.0
 10
-42.8227
 20
-66.6929
 30
0.0
 10
-43.8426
 20
-62.1832
 30
0.0
 10
-41.7474
 20
-56.4413
 30
0.0
 10
-39.3828
 20
-54.371
 30
0.0
  0
SPLINE
  5
58
330
1F
100
AcDbEntity
  8
layer 1
 62
     7
370
     9
100
AcDbSpline
210
0.0
220
0.0
230
1.0
 70
    11
 71
     3
 72
    16
 73
    12
 74
     0
 42
0.0000000001
 43
0.0000000001
 12
1.0
 22
0.0
 32
0.0
 13
1.0
 23
0.0
 33
0.0
 40
0.0
 40
0.0
 40
0.0
 40
0.0
 40
0.25
 40
0.25
 40
0.25
 40
0.25
 40
0.5
 40
0.5
 40
0.5
 40
0.5
 40
1.0
 40
1.0
 40
1.0
 40
1.0
 10
-109.5344
 20
-66.4456
 30
0.0
 10
-109.8755
 20
-66.5067
 30
0.0
 10
-109.4755
 20
-66.6733
 30
0.0
 10
-109.9438
 20
-66.268
 30
0.0
 10
-109.9438
 20
-66.268
 30
0.0
 10
-112.2374
 20
-64.2827
 30
0.0
 10
-113.4034
 20
-58.0937
 30
0.0
 10
-112.9712
 20
-54.3881
 30
0.0
 10
-112.9712
 20
-54.3881
 30
0.0
 10
-111.0726
 20
-55.6718
 30
0.0
 10
-107.9935
 20
-62.8836
 30
0.0
 10
-109.5344
 20
-66.4456
 30
0.0
  0
SPLINE
  5
59
330
1F
100
AcDbEntity
  8
layer 1
 62
     7
370
     9
100
AcDbSpline
210
0.0
220
0.0
230
1.0
 70
    11
 71
     3
 72
    28
 73
    24
 74
     0
 42
0.0000000001
 43
0.0000000001
 12
1.0
 22
0.0
 32
0.0
 13
1.0
 23
0.0
 33
0.0
 40
0.0
 40
0.0
 40
0.0
 40
0.0
 40
0.1428571428571428
 40
0.1428571428571428
 40
0.1428571428571428
 40
0.1428571428571428
 40
0.2857142857142857
 40
0.2857142857142857
 40
0.2857142857142857
 40
0.2857142857142857
 40
0.4285714285714285
 40
0.4285714285714285
 40
0.4285714285714285
 40
0.4285714285714285
 40
0.5714285714285714
 40
0.5714285714285714
 40
0.5714285714285714
 40
0.5714285714285714
 40
0.7142857142857143
 40
0.7142857142857143
 40
0.7142857142857143
 40
0.7142857142857143
 40
1.0
 40
1.0
 40
1.0
 40
1.0
 10
-24.1616
 20
-56.8864
 30
0.0
 10
-26.5923
 20
-56.8511
 30
0.0
 10
-27.6027
 20
-56.1504
 30
0.0
 10
-30.3726
 20
-56.6866
 30
0.0
 10
-30.3726
 20
-56.6866
 30
0.0
 10
-33.8294
 20
-57.3557
 30
0.0
 10
-33.4315
 20
-58.5824
 30
0.0
 10
-34.8668
 20
-59.1567
 30
0.0
 10
-34.8668
 20
-59.1567
 30
0.0
 10
-34.8241
 20
-55.2228
 30
0.0
 10
-34.979
 20
-54.4703
 30
0.0
 10
-35.3253
 20
-50.493
 30
0.0
 10
-35.3253
 20
-50.493
 30
0.0
 10
-34.5915
 20
-49.6405
 30
0.0
 10
-31.4271
 20
-48.069
 30
0.0
 10
-30.0708
 20
-48.091
 30
0.0
 10
-30.0708
 20
-48.091
 30
0.0
 10
-29.3958
 20
-49.8196
 30
0.0
 10
-27.1067
 20
-53.5192
 30
0.0
 10
-25.8395
 20
-55.0244
 30
0.0
 10
-25.8395
 20
-55.0244
 30
0.0
 10
-25.2537
 20
-55.7201
 30
0.0
 10
-24.6089
 20
-56.1552
 30
0.0
 10
-24.1616
 20
-56.8864
 30
0.0
  0
SPLINE
  5
5A
330
1F
100
AcDbEntity
  8
layer 1
 62
     7
370
     9
100
AcDbSpline
210
0.0
220
0.0
230
1.0
 70
    11
 71
     3
 72
    40
 73
    36
 74
     0
 42
0.0000000001
 43
0.0000000001
 12
1.0
 22
0.0
 32
0.0
 13
1.0
 23
0.0
 33
0.0
 40
0.0
 40
0.0
 40
0.0
 40
0.0
 40
0.1
 40
0.1
 40
0.1
 40
0.1
 40
0.2
 40
0.2
 40
0.2
 40
0.2
 40
0.3
 40
0.3
 40
0.3
 40
0.3
 40
0.4
 40
0.4
 40
0.4
 40
0.4
 40
0.5
 40
0.5
 40
0.5
 40
0.5
 40
0.6
 40
0.6
 40
0.6
 40
0.6
 40
0.7
 40
0.7
 40
0.7
 40
0.7
 40
0.8
 40
0.8
 40
0.8
 40
0.8
 40
1.0
 40
1.0
 40
1.0
 40
1.0
 10
-121.9875
 20
-48.0744
 30
0.0
 10
-120.8054
 20
-48.1552
 30
0.0
 10
-119.8531
 20
-48.8082
 30
0.0
 10
-118.859
 20
-49.3116
 30
0.0
 10
-118.859
 20
-49.3116
 30
0.0
 10
-117.6491
 20
-49.9244
 30
0.0
 10
-116.8911
 20
-49.9481
 30
0.0
 10
-116.9416
 20
-51.5056
 30
0.0
 10
-116.9416
 20
-51.5056
 30
0.0
 10
-116.9765
 20
-52.5922
 30
0.0
 10
-117.3448
 20
-53.9387
 30
0.0
 10
-117.4054
 20
-55.141
 30
0.0
 10
-117.4054
 20
-55.141
 30
0.0
 10
-117.4757
 20
-56.5389
 30
0.0
 10
-117.2949
 20
-57.8094
 30
0.0
 10
-117.5537
 20
-59.1859
 30
0.0
 10
-117.5537
 20
-59.1859
 30
0.0
 10
-119.0407
 20
-58.6398
 30
0.0
 10
-118.6241
 20
-57.31
 30
0.0
 10
-122.0056
 20
-56.6794
 30
0.0
 10
-122.0056
 20
-56.6794
 30
0.0
 10
-124.7985
 20
-56.1581
 30
0.0
 10
-125.7881
 20
-56.8938
 30
0.0
 10
-128.1788
 20
-56.8742
 30
0.0
 10
-128.1788
 20
-56.8742
 30
0.0
 10
-127.7005
 20
-56.2065
 30
0.0
 10
-127.0422
 20
-55.7634
 30
0.0
 10
-126.3927
 20
-54.9259
 30
0.0
 10
-126.3927
 20
-54.9259
 30
0.0
 10
-125.7404
 20
-54.0848
 30
0.0
 10
-125.4072
 20
-53.5342
 30
0.0
 10
-124.8409
 20
-52.6738
 30
0.0
 10
-124.8409
 20
-52.6738
 30
0.0
 10
-123.9197
 20
-51.2735
 30
0.0
 10
-122.9988
 20
-49.1466
 30
0.0
 10
-121.9875
 20
-48.0744
 30
0.0
  0
SPLINE
  5
5B
330
1F
100
AcDbEntity
  8
layer 1
 62
     7
370
     9
100
AcDbSpline
210
0.0
220
0.0
230
1.0
 70
    11
 71
     3
 72
    24
 73
    20
 74
     0
 42
0.0000000001
 43
0.0000000001
 12
1.0
 22
0.0
 32
0.0
 13
1.0
 23
0.0
 33
0.0
 40
0.0
 40
0.0
 40
0.0
 40
0.0
 40
0.1666666666666667
 40
0.1666666666666667
 40
0.1666666666666667
 40
0.1666666666666667
 40
0.3333333333333333
 40
0.3333333333333333
 40
0.3333333333333333
 40
0.3333333333333333
 40
0.5
 40
0.5
 40
0.5
 40
0.5
 40
0.6666666666666666
 40
0.6666666666666666
 40
0.6666666666666666
 40
0.6666666666666666
 40
1.0
 40
1.0
 40
1.0
 40
1.0
 10
12.4943
 20
-68.4772
 30
0.0
 10
10.3494
 20
-63.824
 30
0.0
 10
10.6335
 20
-60.4127
 30
0.0
 10
5.6564
 20
-53.5153
 30
0.0
 10
5.6564
 20
-53.5153
 30
0.0
 10
2.0577
 20
-48.528
 30
0.0
 10
-1.5628
 20
-46.5956
 30
0.0
 10
-5.9824
 20
-43.613
 30
0.0
 10
-5.9824
 20
-43.613
 30
0.0
 10
-0.9042
 20
-42.9047
 30
0.0
 10
1.9601
 20
-43.4702
 30
0.0
 10
6.1223
 20
-40.7624
 30
0.0
 10
6.1223
 20
-40.7624
 30
0.0
 10
10.8058
 20
-37.7156
 30
0.0
 10
10.6652
 20
-35.2966
 30
0.0
 10
12.5649
 20
-32.05
 30
0.0
 10
12.5649
 20
-32.05
 30
0.0
 10
12.5649
 20
-32.05
 30
0.0
 10
12.4943
 20
-68.4772
 30
0.0
 10
12.4943
 20
-68.4772
 30
0.0
  0
SPLINE
  5
5C
330
1F
100
AcDbEntity
  8
layer 1
 62
     7
370
     9
100
AcDbSpline
210
0.0
220
0.0
230
1.0
 70
    11
 71
     3
 72
    36
 73
    32
 74
     0
 42
0.0000000001
 43
0.0000000001
 12
1.0
 22
0.0
 32
0.0
 13
1.0
 23
0.0
 33
0.0
 40
0.0
 40
0.0
 40
0.0
 40
0.0
 40
0.1111111111111111
 40
0.1111111111111111
 40
0.1111111111111111
 40
0.1111111111111111
 40
0.2222222222222222
 40
0.2222222222222222
 40
0.2222222222222222
 40
0.2222222222222222
 40
0.3333333333333333
 40
0.3333333333333333
 40
0.3333333333333333
 40
0.3333333333333333
 40
0.4444444444444444
 40
0.4444444444444444
 40
0.4444444444444444
 40
0.4444444444444444
 40
0.5555555555555556
 40
0.5555555555555556
 40
0.5555555555555556
 40
0.5555555555555556
 40
0.6666666666666666
 40
0.6666666666666666
 40
0.6666666666666666
 40
0.6666666666666666
 40
0.7777777777777778
 40
0.7777777777777778
 40
0.7777777777777778
 40
0.7777777777777778
 40
1.0
 40
1.0
 40
1.0
 40
1.0
 10
-146.3721
 20
-43.5888
 30
0.0
 10
-147.3182
 20
-44.3594
 30
0.0
 10
-148.6341
 20
-44.9612
 30
0.0
 10
-149.6964
 20
-45.7088
 30
0.0
 10
-149.6964
 20
-45.7088
 30
0.0
 10
-152.5877
 20
-47.7437
 30
0.0
 10
-156.0151
 20
-50.634
 30
0.0
 10
-157.9967
 20
-53.5548
 30
0.0
 10
-157.9967
 20
-53.5548
 30
0.0
 10
-159.4628
 20
-55.7155
 30
0.0
 10
-160.8068
 20
-57.9443
 30
0.0
 10
-161.9544
 20
-60.5076
 30
0.0
 10
-161.9544
 20
-60.5076
 30
0.0
 10
-162.5728
 20
-61.8886
 30
0.0
 10
-163.025
 20
-63.0413
 30
0.0
 10
-163.5254
 20
-64.5405
 30
0.0
 10
-163.5254
 20
-64.5405
 30
0.0
 10
-163.9213
 20
-65.7271
 30
0.0
 10
-164.3332
 20
-67.4163
 30
0.0
 10
-164.8974
 20
-68.5173
 30
0.0
 10
-164.8974
 20
-68.5173
 30
0.0
 10
-164.8974
 20
-68.5173
 30
0.0
 10
-164.8628
 20
-32.015
 30
0.0
 10
-164.8628
 20
-32.015
 30
0.0
 10
-164.8628
 20
-32.015
 30
0.0
 10
-163.0233
 20
-35.1545
 30
0.0
 10
-163.2267
 20
-37.6825
 30
0.0
 10
-158.4833
 20
-40.7435
 30
0.0
 10
-158.4833
 20
-40.7435
 30
0.0
 10
-154.5571
 20
-43.277
 30
0.0
 10
-151.3906
 20
-43.1015
 30
0.0
 10
-146.3721
 20
-43.5888
 30
0.0
  0
SPLINE
  5
5D
330
1F
100
AcDbEntity
  8
layer 1
 62
     7
370
     9
100
AcDbSpline
210
0.0
220
0.0
230
1.0
 70
    11
 71
     3
 72
    40
 73
    36
 74
     0
 42
0.0000000001
 43
0.0000000001
 12
1.0
 22
0.0
 32
0.0
 13
1.0
 23
0.0
 33
0.0
 40
0.0
 40
0.0
 40
0.0
 40
0.0
 40
0.1
 40
0.1
 40
0.1
 40
0.1
 40
0.2
 40
0.2
 40
0.2
 40
0.2
 40
0.3
 40
0.3
 40
0.3
 40
0.3
 40
0.4
 40
0.4
 40
0.4
 40
0.4
 40
0.5
 40
0.5
 40
0.5
 40
0.5
 40
0.6
 40
0.6
 40
0.6
 40
0.6
 40
0.7
 40
0.7
 40
0.7
 40
0.7
 40
0.8
 40
0.8
 40
0.8
 40
0.8
 40
1.0
 40
1.0
 40
1.0
 40
1.0
 10
-31.8376
 20
-42.8882
 30
0.0
 10
-33.9475
 20
-43.6111
 30
0.0
 10
-35.039
 20
-44.5942
 30
0.0
 10
-36.8487
 20
-45.4766
 30
0.0
 10
-36.8487
 20
-45.4766
 30
0.0
 10
-36.8487
 20
-45.4766
 30
0.0
 10
-37.7065
 20
-43.6677
 30
0.0
 10
-37.7065
 20
-43.6677
 30
0.0
 10
-37.7065
 20
-43.6677
 30
0.0
 10
-39.921
 20
-37.5056
 30
0.0
 10
-42.3231
 20
-35.5176
 30
0.0
 10
-43.2648
 20
-32.9516
 30
0.0
 10
-43.2648
 20
-32.9516
 30
0.0
 10
-41.3009
 20
-33.6048
 30
0.0
 10
-38.5763
 20
-34.6504
 30
0.0
 10
-37.4775
 20
-32.377
 30
0.0
 10
-37.4775
 20
-32.377
 30
0.0
 10
-36.2198
 20
-29.7747
 30
0.0
 10
-37.5704
 20
-28.1196
 30
0.0
 10
-39.5865
 20
-27.4085
 30
0.0
 10
-39.5865
 20
-27.4085
 30
0.0
 10
-39.3016
 20
-28.1411
 30
0.0
 10
-38.7386
 20
-28.802
 30
0.0
 10
-39.2145
 20
-29.7751
 30
0.0
 10
-39.2145
 20
-29.7751
 30
0.0
 10
-39.9907
 20
-31.3626
 30
0.0
 10
-42.9379
 20
-31.0557
 30
0.0
 10
-43.0301
 20
-26.8521
 30
0.0
 10
-43.0301
 20
-26.8521
 30
0.0
 10
-43.1368
 20
-21.985
 30
0.0
 10
-39.1767
 20
-22.4314
 30
0.0
 10
-37.0289
 20
-24.7354
 30
0.0
 10
-37.0289
 20
-24.7354
 30
0.0
 10
-33.6505
 20
-28.359
 30
0.0
 10
-32.2475
 20
-36.5761
 30
0.0
 10
-31.8376
 20
-42.8882
 30
0.0
  0
SPLINE
  5
5E
330
1F
100
AcDbEntity
  8
layer 1
 62
     7
370
     9
100
AcDbSpline
210
0.0
220
0.0
230
1.0
 70
    11
 71
     3
 72
    28
 73
    24
 74
     0
 42
0.0000000001
 43
0.0000000001
 12
1.0
 22
0.0
 32
0.0
 13
1.0
 23
0.0
 33
0.0
 40
0.0
 40
0.0
 40
0.0
 40
0.0
 40
0.1428571428571428
 40
0.1428571428571428
 40
0.1428571428571428
 40
0.1428571428571428
 40
0.2857142857142857
 40
0.2857142857142857
 40
0.2857142857142857
 40
0.2857142857142857
 40
0.4285714285714285
 40
0.4285714285714285
 40
0.4285714285714285
 40
0.4285714285714285
 40
0.5714285714285714
 40
0.5714285714285714
 40
0.5714285714285714
 40
0.5714285714285714
 40
0.7142857142857143
 40
0.7142857142857143
 40
0.7142857142857143
 40
0.7142857142857143
 40
1.0
 40
1.0
 40
1.0
 40
1.0
 10
-108.9406
 20
-32.8444
 30
0.0
 10
-110.8097
 20
-37.0868
 30
0.0
 10
-111.6065
 20
-35.821
 30
0.0
 10
-115.3331
 20
-45.5581
 30
0.0
 10
-115.3331
 20
-45.5581
 30
0.0
 10
-117.0554
 20
-44.7644
 30
0.0
 10
-118.4398
 20
-43.6357
 30
0.0
 10
-120.5068
 20
-42.8435
 30
0.0
 10
-120.5068
 20
-42.8435
 30
0.0
 10
-119.8956
 20
-36.309
 30
0.0
 10
-118.8514
 20
-28.445
 30
0.0
 10
-115.1866
 20
-24.6512
 30
0.0
 10
-115.1866
 20
-24.6512
 30
0.0
 10
-112.7061
 20
-22.0832
 30
0.0
 10
-109.0211
 20
-22.4015
 30
0.0
 10
-109.3156
 20
-27.1192
 30
0.0
 10
-109.3156
 20
-27.1192
 30
0.0
 10
-109.6654
 20
-32.721
 30
0.0
 10
-115.0068
 20
-30.8016
 30
0.0
 10
-112.6848
 20
-27.488
 30
0.0
 10
-112.6848
 20
-27.488
 30
0.0
 10
-116.5304
 20
-27.9397
 30
0.0
 10
-116.8619
 20
-36.3687
 30
0.0
 10
-108.9406
 20
-32.8444
 30
0.0
  0
SPLINE
  5
5F
330
1F
100
AcDbEntity
  8
layer 1
 62
     7
370
     9
100
AcDbSpline
210
0.0
220
0.0
230
1.0
 70
    11
 71
     3
 72
    28
 73
    24
 74
     0
 42
0.0000000001
 43
0.0000000001
 12
1.0
 22
0.0
 32
0.0
 13
1.0
 23
0.0
 33
0.0
 40
0.0
 40
0.0
 40
0.0
 40
0.0
 40
0.1428571428571428
 40
0.1428571428571428
 40
0.1428571428571428
 40
0.1428571428571428
 40
0.2857142857142857
 40
0.2857142857142857
 40
0.2857142857142857
 40
0.2857142857142857
 40
0.4285714285714285
 40
0.4285714285714285
 40
0.4285714285714285
 40
0.4285714285714285
 40
0.5714285714285714
 40
0.5714285714285714
 40
0.5714285714285714
 40
0.5714285714285714
 40
0.7142857142857143
 40
0.7142857142857143
 40
0.7142857142857143
 40
0.7142857142857143
 40
1.0
 40
1.0
 40
1.0
 40
1.0
 10
-19.9398
 20
-21.47
 30
0.0
 10
-20.5159
 20
-23.5892
 30
0.0
 10
-21.6112
 20
-23.627
 30
0.0
 10
-21.665
 20
-27.1102
 30
0.0
 10
-21.665
 20
-27.1102
 30
0.0
 10
-21.7323
 20
-31.4554
 30
0.0
 10
-20.7447
 20
-34.8772
 30
0.0
 10
-17.7896
 20
-37.7069
 30
0.0
 10
-17.7896
 20
-37.7069
 30
0.0
 10
-17.7896
 20
-37.7069
 30
0.0
 10
-13.9632
 20
-40.9736
 30
0.0
 10
-13.9632
 20
-40.9736
 30
0.0
 10
-13.9632
 20
-40.9736
 30
0.0
 10
-16.2457
 20
-40.643
 30
0.0
 10
-17.9716
 20
-40.0695
 30
0.0
 10
-20.4589
 20
-40.0004
 30
0.0
 10
-20.4589
 20
-40.0004
 30
0.0
 10
-23.4568
 20
-39.917
 30
0.0
 10
-24.7397
 20
-40.7917
 30
0.0
 10
-26.8796
 20
-40.934
 30
0.0
 10
-26.8796
 20
-40.934
 30
0.0
 10
-29.8394
 20
-33.7129
 30
0.0
 10
-24.0655
 20
-22.402
 30
0.0
 10
-19.9398
 20
-21.47
 30
0.0
  0
SPLINE
  5
60
330
1F
100
AcDbEntity
  8
layer 1
 62
     7
370
     9
100
AcDbSpline
210
0.0
220
0.0
230
1.0
 70
    11
 71
     3
 72
    28
 73
    24
 74
     0
 42
0.0000000001
 43
0.0000000001
 12
1.0
 22
0.0
 32
0.0
 13
1.0
 23
0.0
 33
0.0
 40
0.0
 40
0.0
 40
0.0
 40
0.0
 40
0.1428571428571428
 40
0.1428571428571428
 40
0.1428571428571428
 40
0.1428571428571428
 40
0.2857142857142857
 40
0.2857142857142857
 40
0.2857142857142857
 40
0.2857142857142857
 40
0.4285714285714285
 40
0.4285714285714285
 40
0.4285714285714285
 40
0.4285714285714285
 40
0.5714285714285714
 40
0.5714285714285714
 40
0.5714285714285714
 40
0.5714285714285714
 40
0.7142857142857143
 40
0.7142857142857143
 40
0.7142857142857143
 40
0.7142857142857143
 40
1.0
 40
1.0
 40
1.0
 40
1.0
 10
-132.3978
 20
-21.4828
 30
0.0
 10
-128.7252
 20
-22.1371
 30
0.0
 10
-122.401
 20
-33.1512
 30
0.0
 10
-125.4651
 20
-40.9456
 30
0.0
 10
-125.4651
 20
-40.9456
 30
0.0
 10
-127.7763
 20
-40.7129
 30
0.0
 10
-128.8482
 20
-39.918
 30
0.0
 10
-131.9223
 20
-40.0014
 30
0.0
 10
-131.9223
 20
-40.0014
 30
0.0
 10
-134.3961
 20
-40.0684
 30
0.0
 10
-136.206
 20
-40.714
 30
0.0
 10
-138.3928
 20
-40.9766
 30
0.0
 10
-138.3928
 20
-40.9766
 30
0.0
 10
-138.3928
 20
-40.9766
 30
0.0
 10
-134.4162
 20
-37.6304
 30
0.0
 10
-134.4162
 20
-37.6304
 30
0.0
 10
-134.4162
 20
-37.6304
 30
0.0
 10
-133.4659
 20
-36.7132
 30
0.0
 10
-132.1969
 20
-35.1095
 30
0.0
 10
-131.5792
 20
-33.3735
 30
0.0
 10
-131.5792
 20
-33.3735
 30
0.0
 10
-129.1169
 20
-26.4561
 30
0.0
 10
-131.9306
 20
-23.0445
 30
0.0
 10
-132.3978
 20
-21.4828
 30
0.0
  0
SPLINE
  5
61
330
1F
100
AcDbEntity
  8
layer 1
 62
     7
370
     9
100
AcDbSpline
210
0.0
220
0.0
230
1.0
 70
    11
 71
     3
 72
    64
 73
    60
 74
     0
 42
0.0000000001
 43
0.0000000001
 12
1.0
 22
0.0
 32
0.0
 13
1.0
 23
0.0
 33
0.0
 40
0.0
 40
0.0
 40
0.0
 40
0.0
 40
0.0625
 40
0.0625
 40
0.0625
 40
0.0625
 40
0.125
 40
0.125
 40
0.125
 40
0.125
 40
0.1875
 40
0.1875
 40
0.1875
 40
0.1875
 40
0.25
 40
0.25
 40
0.25
 40
0.25
 40
0.3125
 40
0.3125
 40
0.3125
 40
0.3125
 40
0.375
 40
0.375
 40
0.375
 40
0.375
 40
0.4375
 40
0.4375
 40
0.4375
 40
0.4375
 40
0.5
 40
0.5
 40
0.5
 40
0.5
 40
0.5625
 40
0.5625
 40
0.5625
 40
0.5625
 40
0.625
 40
0.625
 40
0.625
 40
0.625
 40
0.6875
 40
0.6875
 40
0.6875
 40
0.6875
 40
0.75
 40
0.75
 40
0.75
 40
0.75
 40
0.8125
 40
0.8125
 40
0.8125
 40
0.8125
 40
0.875
 40
0.875
 40
0.875
 40
0.875
 40
1.0
 40
1.0
 40
1.0
 40
1.0
 10
5.2339
 20
-31.5762
 30
0.0
 10
4.9106
 20
-36.8637
 30
0.0
 10
-6.2547
 20
-39.6893
 30
0.0
 10
-12.4178
 20
-33.6848
 30
0.0
 10
-12.4178
 20
-33.6848
 30
0.0
 10
-14.7498
 20
-31.4129
 30
0.0
 10
-16.1085
 20
-27.3111
 30
0.0
 10
-14.2483
 20
-23.5392
 30
0.0
 10
-14.2483
 20
-23.5392
 30
0.0
 10
-13.5612
 20
-22.1462
 30
0.0
 10
-12.3655
 20
-20.7017
 30
0.0
 10
-10.135
 20
-21.0786
 30
0.0
 10
-10.135
 20
-21.0786
 30
0.0
 10
-6.8008
 20
-21.6422
 30
0.0
 10
-8.6874
 20
-24.4878
 30
0.0
 10
-8.8716
 20
-24.85
 30
0.0
 10
-8.8716
 20
-24.85
 30
0.0
 10
-7.1492
 20
-24.5781
 30
0.0
 10
-6.2691
 20
-24.2204
 30
0.0
 10
-5.8234
 20
-22.7259
 30
0.0
 10
-5.8234
 20
-22.7259
 30
0.0
 10
-5.3905
 20
-21.2743
 30
0.0
 10
-5.6895
 20
-19.8269
 30
0.0
 10
-6.5146
 20
-18.8443
 30
0.0
 10
-6.5146
 20
-18.8443
 30
0.0
 10
-8.9957
 20
-15.8891
 30
0.0
 10
-12.7207
 20
-17.5449
 30
0.0
 10
-14.0924
 20
-16.5868
 30
0.0
 10
-14.0924
 20
-16.5868
 30
0.0
 10
-14.0346
 20
-14.7691
 30
0.0
 10
-13.0814
 20
-15.4822
 30
0.0
 10
-11.4405
 20
-15.1195
 30
0.0
 10
-11.4405
 20
-15.1195
 30
0.0
 10
-9.7119
 20
-14.7375
 30
0.0
 10
-10.6969
 20
-13.8225
 30
0.0
 10
-9.5815
 20
-13.1576
 30
0.0
 10
-9.5815
 20
-13.1576
 30
0.0
 10
-7.3723
 20
-12.1216
 30
0.0
 10
-3.9992
 20
-13.8906
 30
0.0
 10
-2.3032
 20
-14.7427
 30
0.0
 10
-2.3032
 20
-14.7427
 30
0.0
 10
0.078
 20
-15.9389
 30
0.0
 10
1.2494
 20
-16.758
 30
0.0
 10
2.4159
 20
-19.1091
 30
0.0
 10
2.4159
 20
-19.1091
 30
0.0
 10
3.9094
 20
-22.1193
 30
0.0
 10
5.5048
 20
-28.8809
 30
0.0
 10
2.675
 20
-29.7567
 30
0.0
 10
2.675
 20
-29.7567
 30
0.0
 10
0.74
 20
-30.3554
 30
0.0
 10
0.788
 20
-28.9404
 30
0.0
 10
0.9206
 20
-27.3904
 30
0.0
 10
0.9206
 20
-27.3904
 30
0.0
 10
-4.4392
 20
-29.019
 30
0.0
 10
-1.608
 20
-34.3339
 30
0.0
 10
2.7555
 20
-33.1544
 30
0.0
 10
2.7555
 20
-33.1544
 30
0.0
 10
4.1129
 20
-32.7875
 30
0.0
 10
4.3383
 20
-31.8564
 30
0.0
 10
5.2339
 20
-31.5762
 30
0.0
  0
SPLINE
  5
62
330
1F
100
AcDbEntity
  8
layer 1
 62
     7
370
     9
100
AcDbSpline
210
0.0
220
0.0
230
1.0
 70
    11
 71
     3
 72
    52
 73
    48
 74
     0
 42
0.0000000001
 43
0.0000000001
 12
1.0
 22
0.0
 32
0.0
 13
1.0
 23
0.0
 33
0.0
 40
0.0
 40
0.0
 40
0.0
 40
0.0
 40
0.0769230769230769
 40
0.0769230769230769
 40
0.0769230769230769
 40
0.0769230769230769
 40
0.1538461538461539
 40
0.1538461538461539
 40
0.1538461538461539
 40
0.1538461538461539
 40
0.2307692307692308
 40
0.2307692307692308
 40
0.2307692307692308
 40
0.2307692307692308
 40
0.3076923076923077
 40
0.3076923076923077
 40
0.3076923076923077
 40
0.3076923076923077
 40
0.3846153846153846
 40
0.3846153846153846
 40
0.3846153846153846
 40
0.3846153846153846
 40
0.4615384615384616
 40
0.4615384615384616
 40
0.4615384615384616
 40
0.4615384615384616
 40
0.5384615384615384
 40
0.5384615384615384
 40
0.5384615384615384
 40
0.5384615384615384
 40
0.6153846153846154
 40
0.6153846153846154
 40
0.6153846153846154
 40
0.6153846153846154
 40
0.6923076923076923
 40
0.6923076923076923
 40
0.6923076923076923
 40
0.6923076923076923
 40
0.7692307692307693
 40
0.7692307692307693
 40
0.7692307692307693
 40
0.7692307692307693
 40
0.8461538461538461
 40
0.8461538461538461
 40
0.8461538461538461
 40
0.8461538461538461
 40
1.0
 40
1.0
 40
1.0
 40
1.0
 10
-143.4369
 20
-24.7636
 30
0.0
 10
-146.3717
 20
-21.8976
 30
0.0
 10
-140.3654
 20
-18.3996
 30
0.0
 10
-137.9315
 20
-23.8389
 30
0.0
 10
-137.9315
 20
-23.8389
 30
0.0
 10
-136.1085
 20
-27.9129
 30
0.0
 10
-137.8432
 20
-31.4899
 30
0.0
 10
-139.9902
 20
-33.6651
 30
0.0
 10
-139.9902
 20
-33.6651
 30
0.0
 10
-146.208
 20
-39.9637
 30
0.0
 10
-157.5343
 20
-36.5107
 30
0.0
 10
-157.507
 20
-31.5222
 30
0.0
 10
-157.507
 20
-31.5222
 30
0.0
 10
-157.4227
 20
-31.5723
 30
0.0
 10
-153.9042
 20
-35.1122
 30
0.0
 10
-151.2373
 20
-32.2988
 30
0.0
 10
-151.2373
 20
-32.2988
 30
0.0
 10
-149.1506
 20
-30.0973
 30
0.0
 10
-150.9236
 20
-28.0578
 30
0.0
 10
-153.2799
 20
-27.3778
 30
0.0
 10
-153.2799
 20
-27.3778
 30
0.0
 10
-153.1156
 20
-28.8252
 30
0.0
 10
-152.9853
 20
-30.2462
 30
0.0
 10
-154.8553
 20
-29.7899
 30
0.0
 10
-154.8553
 20
-29.7899
 30
0.0
 10
-157.8879
 20
-29.0502
 30
0.0
 10
-156.218
 20
-21.9917
 30
0.0
 10
-154.8732
 20
-19.2899
 30
0.0
 10
-154.8732
 20
-19.2899
 30
0.0
 10
-152.7663
 20
-15.0572
 30
0.0
 10
-146.6651
 20
-12.4836
 30
0.0
 10
-142.7664
 20
-13.005
 30
0.0
 10
-142.7664
 20
-13.005
 30
0.0
 10
-141.9011
 20
-14.174
 30
0.0
 10
-142.159
 20
-14.8753
 30
0.0
 10
-140.7587
 20
-15.1419
 30
0.0
 10
-140.7587
 20
-15.1419
 30
0.0
 10
-139.1796
 20
-15.4424
 30
0.0
 10
-138.151
 20
-14.8081
 30
0.0
 10
-138.2448
 20
-16.7269
 30
0.0
 10
-138.2448
 20
-16.7269
 30
0.0
 10
-141.1589
 20
-17.7488
 30
0.0
 10
-143.2596
 20
-15.8011
 30
0.0
 10
-145.8161
 20
-18.9001
 30
0.0
 10
-145.8161
 20
-18.9001
 30
0.0
 10
-147.7595
 20
-21.2558
 30
0.0
 10
-146.565
 20
-24.7868
 30
0.0
 10
-143.4369
 20
-24.7636
 30
0.0
  0
SPLINE
  5
63
330
1F
100
AcDbEntity
  8
layer 1
 62
     7
370
     9
100
AcDbSpline
210
0.0
220
0.0
230
1.0
 70
    11
 71
     3
 72
    32
 73
    28
 74
     0
 42
0.0000000001
 43
0.0000000001
 12
1.0
 22
0.0
 32
0.0
 13
1.0
 23
0.0
 33
0.0
 40
0.0
 40
0.0
 40
0.0
 40
0.0
 40
0.125
 40
0.125
 40
0.125
 40
0.125
 40
0.25
 40
0.25
 40
0.25
 40
0.25
 40
0.375
 40
0.375
 40
0.375
 40
0.375
 40
0.5
 40
0.5
 40
0.5
 40
0.5
 40
0.625
 40
0.625
 40
0.625
 40
0.625
 40
0.75
 40
0.75
 40
0.75
 40
0.75
 40
1.0
 40
1.0
 40
1.0
 40
1.0
 10
-45.7845
 20
-12.1053
 30
0.0
 10
-44.1668
 20
-13.1973
 30
0.0
 10
-43.1348
 20
-15.3335
 30
0.0
 10
-41.2468
 20
-16.2555
 30
0.0
 10
-41.2468
 20
-16.2555
 30
0.0
 10
-41.2468
 20
-16.2555
 30
0.0
 10
-42.0361
 20
-16.889
 30
0.0
 10
-42.0361
 20
-16.889
 30
0.0
 10
-42.0361
 20
-16.889
 30
0.0
 10
-42.6811
 20
-17.2511
 30
0.0
 10
-43.1173
 20
-17.22
 30
0.0
 10
-44.173
 20
-17.9953
 30
0.0
 10
-44.173
 20
-17.9953
 30
0.0
 10
-45.1569
 20
-18.7182
 30
0.0
 10
-45.7128
 20
-19.3002
 30
0.0
 10
-46.3722
 20
-20.3508
 30
0.0
 10
-46.3722
 20
-20.3508
 30
0.0
 10
-48.1747
 20
-23.2222
 30
0.0
 10
-47.2823
 20
-24.6488
 30
0.0
 10
-47.0652
 20
-27.8289
 30
0.0
 10
-47.0652
 20
-27.8289
 30
0.0
 10
-48.054
 20
-27.3277
 30
0.0
 10
-50.5219
 20
-22.7561
 30
0.0
 10
-52.6673
 20
-20.4065
 30
0.0
 10
-52.6673
 20
-20.4065
 30
0.0
 10
-52.0035
 20
-18.7002
 30
0.0
 10
-47.1928
 20
-13.1259
 30
0.0
 10
-45.7845
 20
-12.1053
 30
0.0
  0
SPLINE
  5
64
330
1F
100
AcDbEntity
  8
layer 1
 62
     7
370
     9
100
AcDbSpline
210
0.0
220
0.0
230
1.0
 70
    11
 71
     3
 72
    28
 73
    24
 74
     0
 42
0.0000000001
 43
0.0000000001
 12
1.0
 22
0.0
 32
0.0
 13
1.0
 23
0.0
 33
0.0
 40
0.0
 40
0.0
 40
0.0
 40
0.0
 40
0.1428571428571428
 40
0.1428571428571428
 40
0.1428571428571428
 40
0.1428571428571428
 40
0.2857142857142857
 40
0.2857142857142857
 40
0.2857142857142857
 40
0.2857142857142857
 40
0.4285714285714285
 40
0.4285714285714285
 40
0.4285714285714285
 40
0.4285714285714285
 40
0.5714285714285714
 40
0.5714285714285714
 40
0.5714285714285714
 40
0.5714285714285714
 40
0.7142857142857143
 40
0.7142857142857143
 40
0.7142857142857143
 40
0.7142857142857143
 40
1.0
 40
1.0
 40
1.0
 40
1.0
 10
-99.666
 20
-20.4655
 30
0.0
 10
-100.7705
 20
-21.564
 30
0.0
 10
-101.641
 20
-22.8152
 30
0.0
 10
-102.5073
 20
-24.1637
 30
0.0
 10
-102.5073
 20
-24.1637
 30
0.0
 10
-103.138
 20
-25.1459
 30
0.0
 10
-104.3266
 20
-27.1514
 30
0.0
 10
-105.1087
 20
-27.7913
 30
0.0
 10
-105.1087
 20
-27.7913
 30
0.0
 10
-105.5178
 20
-26.9269
 30
0.0
 10
-104.1501
 20
-23.4555
 30
0.0
 10
-105.8889
 20
-20.4749
 30
0.0
 10
-105.8889
 20
-20.4749
 30
0.0
 10
-106.9527
 20
-18.6514
 30
0.0
 10
-108.4883
 20
-17.4272
 30
0.0
 10
-111.0888
 20
-16.5776
 30
0.0
 10
-111.0888
 20
-16.5776
 30
0.0
 10
-111.0888
 20
-16.5776
 30
0.0
 10
-106.5811
 20
-12.0474
 30
0.0
 10
-106.5811
 20
-12.0474
 30
0.0
 10
-106.5811
 20
-12.0474
 30
0.0
 10
-105.4612
 20
-12.8332
 30
0.0
 10
-100.1722
 20
-18.823
 30
0.0
 10
-99.666
 20
-20.4655
 30
0.0
  0
SPLINE
  5
65
330
1F
100
AcDbEntity
  8
layer 1
 62
     7
370
     9
100
AcDbSpline
210
0.0
220
0.0
230
1.0
 70
    11
 71
     3
 72
    16
 73
    12
 74
     0
 42
0.0000000001
 43
0.0000000001
 12
1.0
 22
0.0
 32
0.0
 13
1.0
 23
0.0
 33
0.0
 40
0.0
 40
0.0
 40
0.0
 40
0.0
 40
0.25
 40
0.25
 40
0.25
 40
0.25
 40
0.5
 40
0.5
 40
0.5
 40
0.5
 40
1.0
 40
1.0
 40
1.0
 40
1.0
 10
-25.7288
 20
-15.8996
 30
0.0
 10
-28.7612
 20
-19.3572
 30
0.0
 10
-30.5574
 20
-20.427
 30
0.0
 10
-31.2049
 20
-27.3744
 30
0.0
 10
-31.2049
 20
-27.3744
 30
0.0
 10
-33.1248
 20
-24.2552
 30
0.0
 10
-29.7893
 20
-23.3
 30
0.0
 10
-36.5601
 20
-17.7027
 30
0.0
 10
-36.5601
 20
-17.7027
 30
0.0
 10
-30.2788
 20
-17.9725
 30
0.0
 10
-30.8852
 20
-17.7218
 30
0.0
 10
-25.7288
 20
-15.8996
 30
0.0
  0
SPLINE
  5
66
330
1F
100
AcDbEntity
  8
layer 1
 62
     7
370
     9
100
AcDbSpline
210
0.0
220
0.0
230
1.0
 70
    11
 71
     3
 72
    24
 73
    20
 74
     0
 42
0.0000000001
 43
0.0000000001
 12
1.0
 22
0.0
 32
0.0
 13
1.0
 23
0.0
 33
0.0
 40
0.0
 40
0.0
 40
0.0
 40
0.0
 40
0.1666666666666667
 40
0.1666666666666667
 40
0.1666666666666667
 40
0.1666666666666667
 40
0.3333333333333333
 40
0.3333333333333333
 40
0.3333333333333333
 40
0.3333333333333333
 40
0.5
 40
0.5
 40
0.5
 40
0.5
 40
0.6666666666666666
 40
0.6666666666666666
 40
0.6666666666666666
 40
0.6666666666666666
 40
1.0
 40
1.0
 40
1.0
 40
1.0
 10
-115.6958
 20
-17.77
 30
0.0
 10
-116.6414
 20
-18.0962
 30
0.0
 10
-118.8463
 20
-20.4773
 30
0.0
 10
-119.4046
 20
-21.3138
 30
0.0
 10
-119.4046
 20
-21.3138
 30
0.0
 10
-120.8371
 20
-23.4592
 30
0.0
 10
-120.1454
 20
-25.401
 30
0.0
 10
-120.9948
 20
-27.2816
 30
0.0
 10
-120.9948
 20
-27.2816
 30
0.0
 10
-122.0396
 20
-25.3645
 30
0.0
 10
-120.5242
 20
-21.5657
 30
0.0
 10
-126.617
 20
-15.9083
 30
0.0
 10
-126.617
 20
-15.9083
 30
0.0
 10
-125.0245
 20
-16.3962
 30
0.0
 10
-123.6625
 20
-17.2591
 30
0.0
 10
-121.7372
 20
-17.6486
 30
0.0
 10
-121.7372
 20
-17.6486
 30
0.0
 10
-119.3939
 20
-18.1227
 30
0.0
 10
-117.6472
 20
-17.5544
 30
0.0
 10
-115.6958
 20
-17.77
 30
0.0
  0
SPLINE
  5
67
330
1F
100
AcDbEntity
  8
layer 1
 62
     7
370
     9
100
AcDbSpline
210
0.0
220
0.0
230
1.0
 70
    11
 71
     3
 72
    28
 73
    24
 74
     0
 42
0.0000000001
 43
0.0000000001
 12
1.0
 22
0.0
 32
0.0
 13
1.0
 23
0.0
 33
0.0
 40
0.0
 40
0.0
 40
0.0
 40
0.0
 40
0.1428571428571428
 40
0.1428571428571428
 40
0.1428571428571428
 40
0.1428571428571428
 40
0.2857142857142857
 40
0.2857142857142857
 40
0.2857142857142857
 40
0.2857142857142857
 40
0.4285714285714285
 40
0.4285714285714285
 40
0.4285714285714285
 40
0.4285714285714285
 40
0.5714285714285714
 40
0.5714285714285714
 40
0.5714285714285714
 40
0.5714285714285714
 40
0.7142857142857143
 40
0.7142857142857143
 40
0.7142857142857143
 40
0.7142857142857143
 40
1.0
 40
1.0
 40
1.0
 40
1.0
 10
-155.1802
 20
-11.3581
 30
0.0
 10
-155.7325
 20
-12.532
 30
0.0
 10
-157.2444
 20
-13.4245
 30
0.0
 10
-158.2252
 20
-14.2794
 30
0.0
 10
-158.2252
 20
-14.2794
 30
0.0
 10
-159.1476
 20
-15.0834
 30
0.0
 10
-160.0934
 20
-16.2506
 30
0.0
 10
-160.9197
 20
-17.3952
 30
0.0
 10
-160.9197
 20
-17.3952
 30
0.0
 10
-164.5716
 20
-22.4541
 30
0.0
 10
-163.1602
 20
-21.6153
 30
0.0
 10
-164.8973
 20
-24.8369
 30
0.0
 10
-164.8973
 20
-24.8369
 30
0.0
 10
-164.8973
 20
-24.8369
 30
0.0
 10
-164.8625
 20
-4.5043
 30
0.0
 10
-164.8625
 20
-4.5043
 30
0.0
 10
-164.8625
 20
-4.5043
 30
0.0
 10
-163.5047
 20
-6.3601
 30
0.0
 10
-163.2441
 20
-7.7694
 30
0.0
 10
-161.2946
 20
-9.2274
 30
0.0
 10
-161.2946
 20
-9.2274
 30
0.0
 10
-159.719
 20
-10.4061
 30
0.0
 10
-157.4414
 20
-11.066
 30
0.0
 10
-155.1802
 20
-11.3581
 30
0.0
  0
SPLINE
  5
68
330
1F
100
AcDbEntity
  8
layer 1
 62
     7
370
     9
100
AcDbSpline
210
0.0
220
0.0
230
1.0
 70
    11
 71
     3
 72
    24
 73
    20
 74
     0
 42
0.0000000001
 43
0.0000000001
 12
1.0
 22
0.0
 32
0.0
 13
1.0
 23
0.0
 33
0.0
 40
0.0
 40
0.0
 40
0.0
 40
0.0
 40
0.1666666666666667
 40
0.1666666666666667
 40
0.1666666666666667
 40
0.1666666666666667
 40
0.3333333333333333
 40
0.3333333333333333
 40
0.3333333333333333
 40
0.3333333333333333
 40
0.5
 40
0.5
 40
0.5
 40
0.5
 40
0.6666666666666666
 40
0.6666666666666666
 40
0.6666666666666666
 40
0.6666666666666666
 40
1.0
 40
1.0
 40
1.0
 40
1.0
 10
12.4992
 20
-24.8078
 30
0.0
 10
11.8534
 20
-23.3825
 30
0.0
 10
11.5926
 20
-22.128
 30
0.0
 10
10.7857
 20
-20.7168
 30
0.0
 10
10.7857
 20
-20.7168
 30
0.0
 10
7.6556
 20
-15.2427
 30
0.0
 10
3.3017
 20
-12.2616
 30
0.0
 10
2.919
 20
-11.4495
 30
0.0
 10
2.919
 20
-11.4495
 30
0.0
 10
5.3211
 20
-10.4954
 30
0.0
 10
6.7312
 20
-10.9475
 30
0.0
 10
8.924
 20
-9.2371
 30
0.0
 10
8.924
 20
-9.2371
 30
0.0
 10
11.3109
 20
-7.3753
 30
0.0
 10
11.4932
 20
-5.7981
 30
0.0
 10
12.5661
 20
-4.5264
 30
0.0
 10
12.5661
 20
-4.5264
 30
0.0
 10
12.5661
 20
-4.5264
 30
0.0
 10
12.4992
 20
-24.8078
 30
0.0
 10
12.4992
 20
-24.8078
 30
0.0
  0
SPLINE
  5
69
330
1F
100
AcDbEntity
  8
layer 1
 62
     7
370
     9
100
AcDbSpline
210
0.0
220
0.0
230
1.0
 70
    11
 71
     3
 72
    40
 73
    36
 74
     0
 42
0.0000000001
 43
0.0000000001
 12
1.0
 22
0.0
 32
0.0
 13
1.0
 23
0.0
 33
0.0
 40
0.0
 40
0.0
 40
0.0
 40
0.0
 40
0.1
 40
0.1
 40
0.1
 40
0.1
 40
0.2
 40
0.2
 40
0.2
 40
0.2
 40
0.3
 40
0.3
 40
0.3
 40
0.3
 40
0.4
 40
0.4
 40
0.4
 40
0.4
 40
0.5
 40
0.5
 40
0.5
 40
0.5
 40
0.6
 40
0.6
 40
0.6
 40
0.6
 40
0.7
 40
0.7
 40
0.7
 40
0.7
 40
0.8
 40
0.8
 40
0.8
 40
0.8
 40
1.0
 40
1.0
 40
1.0
 40
1.0
 10
3.1721
 20
-4.5139
 30
0.0
 10
3.123
 20
-4.4838
 30
0.0
 10
-0.3787
 20
-3.5819
 30
0.0
 10
2.6939
 20
-1.2513
 30
0.0
 10
2.6939
 20
-1.2513
 30
0.0
 10
8.0582
 20
2.8173
 30
0.0
 10
10.8284
 20
-6.1387
 30
0.0
 10
2.7947
 20
-8.0568
 30
0.0
 10
2.7947
 20
-8.0568
 30
0.0
 10
-0.5229
 20
-8.8491
 30
0.0
 10
-5.5157
 20
-8.0841
 30
0.0
 10
-9.2395
 20
-8.4431
 30
0.0
 10
-9.2395
 20
-8.4431
 30
0.0
 10
-14.0579
 20
-8.9074
 30
0.0
 10
-16.1746
 20
-10.3255
 30
0.0
 10
-18.922
 20
-10.8514
 30
0.0
 10
-18.922
 20
-10.8514
 30
0.0
 10
-16.6183
 20
-8.5521
 30
0.0
 10
-14.8088
 20
-7.2309
 30
0.0
 10
-12.1167
 20
-4.4187
 30
0.0
 10
-12.1167
 20
-4.4187
 30
0.0
 10
-11.3784
 20
-3.6475
 30
0.0
 10
-10.75
 20
-2.8564
 30
0.0
 10
-10.0114
 20
-2.2341
 30
0.0
 10
-10.0114
 20
-2.2341
 30
0.0
 10
-8.4884
 20
-0.951
 30
0.0
 10
-1.9188
 20
4.2782
 30
0.0
 10
1.3311
 20
3.2481
 30
0.0
 10
1.3311
 20
3.2481
 30
0.0
 10
-0.5905
 20
2.0338
 30
0.0
 10
-3.2591
 20
0.7918
 30
0.0
 10
-2.6215
 20
-2.6943
 30
0.0
 10
-2.6215
 20
-2.6943
 30
0.0
 10
-1.9959
 20
-6.1142
 30
0.0
 10
1.6476
 20
-6.1979
 30
0.0
 10
3.1721
 20
-4.5139
 30
0.0
  0
SPLINE
  5
6A
330
1F
100
AcDbEntity
  8
layer 1
 62
     7
370
     9
100
AcDbSpline
210
0.0
220
0.0
230
1.0
 70
    11
 71
     3
 72
    40
 73
    36
 74
     0
 42
0.0000000001
 43
0.0000000001
 12
1.0
 22
0.0
 32
0.0
 13
1.0
 23
0.0
 33
0.0
 40
0.0
 40
0.0
 40
0.0
 40
0.0
 40
0.1
 40
0.1
 40
0.1
 40
0.1
 40
0.2
 40
0.2
 40
0.2
 40
0.2
 40
0.3
 40
0.3
 40
0.3
 40
0.3
 40
0.4
 40
0.4
 40
0.4
 40
0.4
 40
0.5
 40
0.5
 40
0.5
 40
0.5
 40
0.6
 40
0.6
 40
0.6
 40
0.6
 40
0.7
 40
0.7
 40
0.7
 40
0.7
 40
0.8
 40
0.8
 40
0.8
 40
0.8
 40
1.0
 40
1.0
 40
1.0
 40
1.0
 10
-153.6741
 20
3.3381
 30
0.0
 10
-149.6004
 20
3.465
 30
0.0
 10
-144.0599
 20
-0.4576
 30
0.0
 10
-142.2242
 20
-2.3403
 30
0.0
 10
-142.2242
 20
-2.3403
 30
0.0
 10
-142.2242
 20
-2.3403
 30
0.0
 10
-133.4136
 20
-10.8588
 30
0.0
 10
-133.4136
 20
-10.8588
 30
0.0
 10
-133.4136
 20
-10.8588
 30
0.0
 10
-136.8381
 20
-10.0259
 30
0.0
 10
-139.3327
 20
-8.7742
 30
0.0
 10
-143.3489
 20
-8.4198
 30
0.0
 10
-143.3489
 20
-8.4198
 30
0.0
 10
-146.972
 20
-8.1003
 30
0.0
 10
-151.9411
 20
-8.8404
 30
0.0
 10
-155.17
 20
-8.0455
 30
0.0
 10
-155.17
 20
-8.0455
 30
0.0
 10
-157.6874
 20
-7.4256
 30
0.0
 10
-162.1679
 20
-4.2804
 30
0.0
 10
-159.5399
 20
-1.1108
 30
0.0
 10
-159.5399
 20
-1.1108
 30
0.0
 10
-158.4163
 20
0.244
 30
0.0
 10
-156.1447
 20
-0.4013
 30
0.0
 10
-154.9017
 20
-1.3308
 30
0.0
 10
-154.9017
 20
-1.3308
 30
0.0
 10
-151.9592
 20
-3.5313
 30
0.0
 10
-155.5101
 20
-4.5113
 30
0.0
 10
-155.5146
 20
-4.5139
 30
0.0
 10
-155.5146
 20
-4.5139
 30
0.0
 10
-153.4728
 20
-6.5822
 30
0.0
 10
-150.1029
 20
-5.6927
 30
0.0
 10
-149.659
 20
-2.3483
 30
0.0
 10
-149.659
 20
-2.3483
 30
0.0
 10
-149.2163
 20
0.9871
 30
0.0
 10
-151.8766
 20
1.9778
 30
0.0
 10
-153.6741
 20
3.3381
 30
0.0
  0
SPLINE
  5
6B
330
1F
100
AcDbEntity
  8
layer 1
 62
     7
370
     9
100
AcDbSpline
210
0.0
220
0.0
230
1.0
 70
    11
 71
     3
 72
    20
 73
    16
 74
     0
 42
0.0000000001
 43
0.0000000001
 12
1.0
 22
0.0
 32
0.0
 13
1.0
 23
0.0
 33
0.0
 40
0.0
 40
0.0
 40
0.0
 40
0.0
 40
0.2
 40
0.2
 40
0.2
 40
0.2
 40
0.4
 40
0.4
 40
0.4
 40
0.4
 40
0.6
 40
0.6
 40
0.6
 40
0.6
 40
1.0
 40
1.0
 40
1.0
 40
1.0
 10
-48.9965
 20
-8.6238
 30
0.0
 10
-49.3211
 20
-9.2268
 30
0.0
 10
-54.9343
 20
-16.0962
 30
0.0
 10
-55.465
 20
-16.5001
 30
0.0
 10
-55.465
 20
-16.5001
 30
0.0
 10
-56.2524
 20
-15.8236
 30
0.0
 10
-63.1248
 20
-6.9542
 30
0.0
 10
-63.4496
 20
-6.0552
 30
0.0
 10
-63.4496
 20
-6.0552
 30
0.0
 10
-62.8708
 20
-5.1652
 30
0.0
 10
-57.4419
 20
1.725
 30
0.0
 10
-56.9544
 20
2.0528
 30
0.0
 10
-56.9544
 20
2.0528
 30
0.0
 10
-56.2281
 20
1.4199
 30
0.0
 10
-49.3844
 20
-7.7692
 30
0.0
 10
-48.9965
 20
-8.6238
 30
0.0
  0
SPLINE
  5
6C
330
1F
100
AcDbEntity
  8
layer 1
 62
     7
370
     9
100
AcDbSpline
210
0.0
220
0.0
230
1.0
 70
    11
 71
     3
 72
    24
 73
    20
 74
     0
 42
0.0000000001
 43
0.0000000001
 12
1.0
 22
0.0
 32
0.0
 13
1.0
 23
0.0
 33
0.0
 40
0.0
 40
0.0
 40
0.0
 40
0.0
 40
0.1666666666666667
 40
0.1666666666666667
 40
0.1666666666666667
 40
0.1666666666666667
 40
0.3333333333333333
 40
0.3333333333333333
 40
0.3333333333333333
 40
0.3333333333333333
 40
0.5
 40
0.5
 40
0.5
 40
0.5
 40
0.6666666666666666
 40
0.6666666666666666
 40
0.6666666666666666
 40
0.6666666666666666
 40
1.0
 40
1.0
 40
1.0
 40
1.0
 10
-88.8228
 20
-6.0907
 30
0.0
 10
-89.2246
 20
-6.9687
 30
0.0
 10
-96.2665
 20
-16.0316
 30
0.0
 10
-96.9536
 20
-16.5607
 30
0.0
 10
-96.9536
 20
-16.5607
 30
0.0
 10
-97.9591
 20
-15.2622
 30
0.0
 10
-99.1705
 20
-13.9298
 30
0.0
 10
-100.2095
 20
-12.5458
 30
0.0
 10
-100.2095
 20
-12.5458
 30
0.0
 10
-101.2118
 20
-11.2105
 30
0.0
 10
-102.5128
 20
-9.9653
 30
0.0
 10
-103.3309
 20
-8.6238
 30
0.0
 10
-103.3309
 20
-8.6238
 30
0.0
 10
-103.3309
 20
-8.6238
 30
0.0
 10
-95.4253
 20
2.0893
 30
0.0
 10
-95.4253
 20
2.0893
 30
0.0
 10
-95.4253
 20
2.0893
 30
0.0
 10
-95.4253
 20
2.0893
 30
0.0
 10
-88.8228
 20
-6.0907
 30
0.0
 10
-88.8228
 20
-6.0907
 30
0.0
  0
SPLINE
  5
6D
330
1F
100
AcDbEntity
  8
layer 1
 62
     7
370
     9
100
AcDbSpline
210
0.0
220
0.0
230
1.0
 70
    11
 71
     3
 72
    24
 73
    20
 74
     0
 42
0.0000000001
 43
0.0000000001
 12
1.0
 22
0.0
 32
0.0
 13
1.0
 23
0.0
 33
0.0
 40
0.0
 40
0.0
 40
0.0
 40
0.0
 40
0.1666666666666667
 40
0.1666666666666667
 40
0.1666666666666667
 40
0.1666666666666667
 40
0.3333333333333333
 40
0.3333333333333333
 40
0.3333333333333333
 40
0.3333333333333333
 40
0.5
 40
0.5
 40
0.5
 40
0.5
 40
0.6666666666666666
 40
0.6666666666666666
 40
0.6666666666666666
 40
0.6666666666666666
 40
1.0
 40
1.0
 40
1.0
 40
1.0
 10
-7.1129
 20
4.9156
 30
0.0
 10
-8.4786
 20
3.9734
 30
0.0
 10
-10.1841
 20
2.9655
 30
0.0
 10
-11.4037
 20
2.0331
 30
0.0
 10
-11.4037
 20
2.0331
 30
0.0
 10
-17.7772
 20
-2.8397
 30
0.0
 10
-23.8828
 20
-11.8119
 30
0.0
 10
-32.4106
 20
-12.9506
 30
0.0
 10
-32.4106
 20
-12.9506
 30
0.0
 10
-37.566
 20
-13.6389
 30
0.0
 10
-39.9415
 20
-10.8382
 30
0.0
 10
-41.9552
 20
-8.3671
 30
0.0
 10
-41.9552
 20
-8.3671
 30
0.0
 10
-40.2918
 20
-5.1736
 30
0.0
 10
-32.2399
 20
-0.5318
 30
0.0
 10
-27.7935
 20
1.7842
 30
0.0
 10
-27.7935
 20
1.7842
 30
0.0
 10
-22.3427
 20
4.6234
 30
0.0
 10
-13.956
 20
5.2606
 30
0.0
 10
-7.1129
 20
4.9156
 30
0.0
  0
SPLINE
  5
6E
330
1F
100
AcDbEntity
  8
layer 1
 62
     7
370
     9
100
AcDbSpline
210
0.0
220
0.0
230
1.0
 70
    11
 71
     3
 72
    40
 73
    36
 74
     0
 42
0.0000000001
 43
0.0000000001
 12
1.0
 22
0.0
 32
0.0
 13
1.0
 23
0.0
 33
0.0
 40
0.0
 40
0.0
 40
0.0
 40
0.0
 40
0.1
 40
0.1
 40
0.1
 40
0.1
 40
0.2
 40
0.2
 40
0.2
 40
0.2
 40
0.3
 40
0.3
 40
0.3
 40
0.3
 40
0.4
 40
0.4
 40
0.4
 40
0.4
 40
0.5
 40
0.5
 40
0.5
 40
0.5
 40
0.6
 40
0.6
 40
0.6
 40
0.6
 40
0.7
 40
0.7
 40
0.7
 40
0.7
 40
0.8
 40
0.8
 40
0.8
 40
0.8
 40
1.0
 40
1.0
 40
1.0
 40
1.0
 10
-110.3786
 20
-8.3671
 30
0.0
 10
-112.1212
 20
-10.888
 30
0.0
 10
-115.2151
 20
-13.6711
 30
0.0
 10
-120.1752
 20
-12.9175
 30
0.0
 10
-120.1752
 20
-12.9175
 30
0.0
 10
-125.6908
 20
-12.0793
 30
0.0
 10
-129.5859
 20
-8.2101
 30
0.0
 10
-133.6218
 20
-4.7354
 30
0.0
 10
-133.6218
 20
-4.7354
 30
0.0
 10
-134.9161
 20
-3.6211
 30
0.0
 10
-135.903
 20
-2.397
 30
0.0
 10
-137.2157
 20
-1.2623
 30
0.0
 10
-137.2157
 20
-1.2623
 30
0.0
 10
-137.2157
 20
-1.2623
 30
0.0
 10
-141.1098
 20
2.1555
 30
0.0
 10
-141.1098
 20
2.1555
 30
0.0
 10
-141.1098
 20
2.1555
 30
0.0
 10
-142.3993
 20
3.1603
 30
0.0
 10
-143.7985
 20
3.9223
 30
0.0
 10
-145.2448
 20
4.8867
 30
0.0
 10
-145.2448
 20
4.8867
 30
0.0
 10
-142.6119
 20
5.1622
 30
0.0
 10
-136.3567
 20
4.8014
 30
0.0
 10
-133.6543
 20
4.4918
 30
0.0
 10
-133.6543
 20
4.4918
 30
0.0
 10
-127.128
 20
3.7439
 30
0.0
 10
-122.105
 20
0.7425
 30
0.0
 10
-116.7985
 20
-2.7367
 30
0.0
 10
-116.7985
 20
-2.7367
 30
0.0
 10
-115.5257
 20
-3.5712
 30
0.0
 10
-114.4932
 20
-4.2726
 30
0.0
 10
-113.2701
 20
-5.2517
 30
0.0
 10
-113.2701
 20
-5.2517
 30
0.0
 10
-112.3429
 20
-5.994
 30
0.0
 10
-110.8229
 20
-7.3159
 30
0.0
 10
-110.3786
 20
-8.3671
 30
0.0
  0
SPLINE
  5
6F
330
1F
100
AcDbEntity
  8
layer 1
 62
     7
370
     9
100
AcDbSpline
210
0.0
220
0.0
230
1.0
 70
    11
 71
     3
 72
    20
 73
    16
 74
     0
 42
0.0000000001
 43
0.0000000001
 12
1.0
 22
0.0
 32
0.0
 13
1.0
 23
0.0
 33
0.0
 40
0.0
 40
0.0
 40
0.0
 40
0.0
 40
0.2
 40
0.2
 40
0.2
 40
0.2
 40
0.4
 40
0.4
 40
0.4
 40
0.4
 40
0.6
 40
0.6
 40
0.6
 40
0.6
 40
1.0
 40
1.0
 40
1.0
 40
1.0
 10
12.545
 20
1.3235
 30
0.0
 10
11.9956
 20
1.9166
 30
0.0
 10
11.7818
 20
2.5519
 30
0.0
 10
11.2826
 20
3.1708
 30
0.0
 10
11.2826
 20
3.1708
 30
0.0
 10
10.7784
 20
3.7959
 30
0.0
 10
10.4713
 20
3.8262
 30
0.0
 10
9.9529
 20
4.4763
 30
0.0
 10
9.9529
 20
4.4763
 30
0.0
 10
10.1694
 20
4.6051
 30
0.0
 10
12.2057
 20
5.3528
 30
0.0
 10
12.5668
 20
5.4872
 30
0.0
 10
12.5668
 20
5.4872
 30
0.0
 10
12.5668
 20
5.4872
 30
0.0
 10
12.545
 20
1.3235
 30
0.0
 10
12.545
 20
1.3235
 30
0.0
  0
SPLINE
  5
70
330
1F
100
AcDbEntity
  8
layer 1
 62
     7
370
     9
100
AcDbSpline
210
0.0
220
0.0
230
1.0
 70
    11
 71
     3
 72
    24
 73
    20
 74
     0
 42
0.0000000001
 43
0.0000000001
 12
1.0
 22
0.0
 32
0.0
 13
1.0
 23
0.0
 33
0.0
 40
0.0
 40
0.0
 40
0.0
 40
0.0
 40
0.1666666666666667
 40
0.1666666666666667
 40
0.1666666666666667
 40
0.1666666666666667
 40
0.3333333333333333
 40
0.3333333333333333
 40
0.3333333333333333
 40
0.3333333333333333
 40
0.5
 40
0.5
 40
0.5
 40
0.5
 40
0.6666666666666666
 40
0.6666666666666666
 40
0.6666666666666666
 40
0.6666666666666666
 40
1.0
 40
1.0
 40
1.0
 40
1.0
 10
12.5259
 20
120.3902
 30
0.0
 10
12.5259
 20
120.3902
 30
0.0
 10
-20.9955
 20
120.3253
 30
0.0
 10
-20.9955
 20
120.3253
 30
0.0
 10
-20.9955
 20
120.3253
 30
0.0
 10
-19.2773
 20
119.6864
 30
0.0
 10
-16.6908
 20
119.3633
 30
0.0
 10
-14.6435
 20
118.7119
 30
0.0
 10
-14.6435
 20
118.7119
 30
0.0
 10
-5.286
 20
115.7342
 30
0.0
 10
3.0353
 20
110.4899
 30
0.0
 10
7.9501
 20
101.7618
 30
0.0
 10
7.9501
 20
101.7618
 30
0.0
 10
11.2286
 20
95.9398
 30
0.0
 10
10.674
 20
95.041
 30
0.0
 10
12.5622
 20
90.6408
 30
0.0
 10
12.5622
 20
90.6408
 30
0.0
 10
12.5622
 20
90.6408
 30
0.0
 10
12.5259
 20
120.3902
 30
0.0
 10
12.5259
 20
120.3902
 30
0.0
  0
SPLINE
  5
71
330
1F
100
AcDbEntity
  8
layer 1
 62
     7
370
     9
100
AcDbSpline
210
0.0
220
0.0
230
1.0
 70
    11
 71
     3
 72
    24
 73
    20
 74
     0
 42
0.0000000001
 43
0.0000000001
 12
1.0
 22
0.0
 32
0.0
 13
1.0
 23
0.0
 33
0.0
 40
0.0
 40
0.0
 40
0.0
 40
0.0
 40
0.1666666666666667
 40
0.1666666666666667
 40
0.1666666666666667
 40
0.1666666666666667
 40
0.3333333333333333
 40
0.3333333333333333
 40
0.3333333333333333
 40
0.3333333333333333
 40
0.5
 40
0.5
 40
0.5
 40
0.5
 40
0.6666666666666666
 40
0.6666666666666666
 40
0.6666666666666666
 40
0.6666666666666666
 40
1.0
 40
1.0
 40
1.0
 40
1.0
 10
-58.9467
 20
110.5548
 30
0.0
 10
-57.6752
 20
110.886
 30
0.0
 10
-54.8415
 20
112.9747
 30
0.0
 10
-53.5265
 20
113.7619
 30
0.0
 10
-53.5265
 20
113.7619
 30
0.0
 10
-49.5631
 20
116.1338
 30
0.0
 10
-39.1606
 20
119.9165
 30
0.0
 10
-34.9789
 20
120.377
 30
0.0
 10
-34.9789
 20
120.377
 30
0.0
 10
-34.9789
 20
120.377
 30
0.0
 10
-61.7251
 20
120.363
 30
0.0
 10
-61.7251
 20
120.363
 30
0.0
 10
-61.7251
 20
120.363
 30
0.0
 10
-60.9566
 20
119.6995
 30
0.0
 10
-60.3356
 20
119.5341
 30
0.0
 10
-59.5407
 20
118.7408
 30
0.0
 10
-59.5407
 20
118.7408
 30
0.0
 10
-55.9888
 20
115.1962
 30
0.0
 10
-58.6214
 20
111.4792
 30
0.0
 10
-58.9467
 20
110.5548
 30
0.0
  0
SPLINE
  5
72
330
1F
100
AcDbEntity
  8
layer 1
 62
     7
370
     9
100
AcDbSpline
210
0.0
220
0.0
230
1.0
 70
    11
 71
     3
 72
    16
 73
    12
 74
     0
 42
0.0000000001
 43
0.0000000001
 12
1.0
 22
0.0
 32
0.0
 13
1.0
 23
0.0
 33
0.0
 40
0.0
 40
0.0
 40
0.0
 40
0.0
 40
0.25
 40
0.25
 40
0.25
 40
0.25
 40
0.5
 40
0.5
 40
0.5
 40
0.5
 40
1.0
 40
1.0
 40
1.0
 40
1.0
 10
-72.5922
 20
116.303
 30
0.0
 10
-70.9146
 20
118.2597
 30
0.0
 10
-73.1941
 20
117.5905
 30
0.0
 10
-68.6957
 20
120.366
 30
0.0
 10
-68.6957
 20
120.366
 30
0.0
 10
-68.6957
 20
120.366
 30
0.0
 10
-74.1543
 20
120.4003
 30
0.0
 10
-74.1543
 20
120.4003
 30
0.0
 10
-74.1543
 20
120.4003
 30
0.0
 10
-73.9821
 20
118.8586
 30
0.0
 10
-73.3883
 20
117.3703
 30
0.0
 10
-72.5922
 20
116.303
 30
0.0
  0
SPLINE
  5
73
330
1F
100
AcDbEntity
  8
layer 1
 62
     7
370
     9
100
AcDbSpline
210
0.0
220
0.0
230
1.0
 70
    11
 71
     3
 72
    20
 73
    16
 74
     0
 42
0.0000000001
 43
0.0000000001
 12
1.0
 22
0.0
 32
0.0
 13
1.0
 23
0.0
 33
0.0
 40
0.0
 40
0.0
 40
0.0
 40
0.0
 40
0.2
 40
0.2
 40
0.2
 40
0.2
 40
0.4
 40
0.4
 40
0.4
 40
0.4
 40
0.6
 40
0.6
 40
0.6
 40
0.6
 40
1.0
 40
1.0
 40
1.0
 40
1.0
 10
-79.7905
 20
116.2987
 30
0.0
 10
-78.9113
 20
117.1773
 30
0.0
 10
-78.4008
 20
118.8729
 30
0.0
 10
-78.1436
 20
120.3789
 30
0.0
 10
-78.1436
 20
120.3789
 30
0.0
 10
-78.1436
 20
120.3789
 30
0.0
 10
-83.5493
 20
120.3558
 30
0.0
 10
-83.5493
 20
120.3558
 30
0.0
 10
-83.5493
 20
120.3558
 30
0.0
 10
-82.7457
 20
119.7028
 30
0.0
 10
-81.7786
 20
119.4495
 30
0.0
 10
-81.1318
 20
118.7462
 30
0.0
 10
-81.1318
 20
118.7462
 30
0.0
 10
-80.5106
 20
118.0706
 30
0.0
 10
-80.3141
 20
117.1158
 30
0.0
 10
-79.7905
 20
116.2987
 30
0.0
  0
SPLINE
  5
74
330
1F
100
AcDbEntity
  8
layer 1
 62
     7
370
     9
100
AcDbSpline
210
0.0
220
0.0
230
1.0
 70
    11
 71
     3
 72
    28
 73
    24
 74
     0
 42
0.0000000001
 43
0.0000000001
 12
1.0
 22
0.0
 32
0.0
 13
1.0
 23
0.0
 33
0.0
 40
0.0
 40
0.0
 40
0.0
 40
0.0
 40
0.1428571428571428
 40
0.1428571428571428
 40
0.1428571428571428
 40
0.1428571428571428
 40
0.2857142857142857
 40
0.2857142857142857
 40
0.2857142857142857
 40
0.2857142857142857
 40
0.4285714285714285
 40
0.4285714285714285
 40
0.4285714285714285
 40
0.4285714285714285
 40
0.5714285714285714
 40
0.5714285714285714
 40
0.5714285714285714
 40
0.5714285714285714
 40
0.7142857142857143
 40
0.7142857142857143
 40
0.7142857142857143
 40
0.7142857142857143
 40
1.0
 40
1.0
 40
1.0
 40
1.0
 10
-93.3819
 20
110.5465
 30
0.0
 10
-93.7974
 20
111.7925
 30
0.0
 10
-94.3022
 20
111.6412
 30
0.0
 10
-94.535
 20
113.3237
 30
0.0
 10
-94.535
 20
113.3237
 30
0.0
 10
-95.0012
 20
116.6948
 30
0.0
 10
-93.1832
 20
118.8894
 30
0.0
 10
-90.526
 20
120.3854
 30
0.0
 10
-90.526
 20
120.3854
 30
0.0
 10
-90.526
 20
120.3854
 30
0.0
 10
-116.8683
 20
120.3567
 30
0.0
 10
-116.8683
 20
120.3567
 30
0.0
 10
-116.8683
 20
120.3567
 30
0.0
 10
-115.1777
 20
119.4614
 30
0.0
 10
-112.4128
 20
119.1682
 30
0.0
 10
-110.401
 20
118.5184
 30
0.0
 10
-110.401
 20
118.5184
 30
0.0
 10
-108.2787
 20
117.8329
 30
0.0
 10
-106.2969
 20
117.194
 30
0.0
 10
-104.2613
 20
116.3883
 30
0.0
 10
-104.2613
 20
116.3883
 30
0.0
 10
-99.3321
 20
114.4367
 30
0.0
 10
-94.5235
 20
110.8328
 30
0.0
 10
-93.3819
 20
110.5465
 30
0.0
  0
SPLINE
  5
75
330
1F
100
AcDbEntity
  8
layer 1
 62
     7
370
     9
100
AcDbSpline
210
0.0
220
0.0
230
1.0
 70
    11
 71
     3
 72
    24
 73
    20
 74
     0
 42
0.0000000001
 43
0.0000000001
 12
1.0
 22
0.0
 32
0.0
 13
1.0
 23
0.0
 33
0.0
 40
0.0
 40
0.0
 40
0.0
 40
0.0
 40
0.1666666666666667
 40
0.1666666666666667
 40
0.1666666666666667
 40
0.1666666666666667
 40
0.3333333333333333
 40
0.3333333333333333
 40
0.3333333333333333
 40
0.3333333333333333
 40
0.5
 40
0.5
 40
0.5
 40
0.5
 40
0.6666666666666666
 40
0.6666666666666666
 40
0.6666666666666666
 40
0.6666666666666666
 40
1.0
 40
1.0
 40
1.0
 40
1.0
 10
-164.8488
 20
90.6036
 30
0.0
 10
-164.1028
 20
92.4482
 30
0.0
 10
-163.5898
 20
94.6202
 30
0.0
 10
-162.7748
 20
96.586
 30
0.0
 10
-162.7748
 20
96.586
 30
0.0
 10
-158.7964
 20
106.183
 30
0.0
 10
-152.6137
 20
112.6065
 30
0.0
 10
-143.1683
 20
116.6212
 30
0.0
 10
-143.1683
 20
116.6212
 30
0.0
 10
-137.7497
 20
118.924
 30
0.0
 10
-132.7659
 20
119.7809
 30
0.0
 10
-131.382
 20
120.385
 30
0.0
 10
-131.382
 20
120.385
 30
0.0
 10
-131.382
 20
120.385
 30
0.0
 10
-164.8979
 20
120.341
 30
0.0
 10
-164.8979
 20
120.341
 30
0.0
 10
-164.8979
 20
120.341
 30
0.0
 10
-164.8979
 20
120.341
 30
0.0
 10
-164.8488
 20
90.6036
 30
0.0
 10
-164.8488
 20
90.6036
 30
0.0
  0
SPLINE
  5
76
330
1F
100
AcDbEntity
  8
layer 1
 62
     7
370
     9
100
AcDbSpline
210
0.0
220
0.0
230
1.0
 70
    11
 71
     3
 72
    28
 73
    24
 74
     0
 42
0.0000000001
 43
0.0000000001
 12
1.0
 22
0.0
 32
0.0
 13
1.0
 23
0.0
 33
0.0
 40
0.0
 40
0.0
 40
0.0
 40
0.0
 40
0.1428571428571428
 40
0.1428571428571428
 40
0.1428571428571428
 40
0.1428571428571428
 40
0.2857142857142857
 40
0.2857142857142857
 40
0.2857142857142857
 40
0.2857142857142857
 40
0.4285714285714285
 40
0.4285714285714285
 40
0.4285714285714285
 40
0.4285714285714285
 40
0.5714285714285714
 40
0.5714285714285714
 40
0.5714285714285714
 40
0.5714285714285714
 40
0.7142857142857143
 40
0.7142857142857143
 40
0.7142857142857143
 40
0.7142857142857143
 40
1.0
 40
1.0
 40
1.0
 40
1.0
 10
-84.7173
 20
112.6602
 30
0.0
 10
-83.1795
 20
116.789
 30
0.0
 10
-88.8106
 20
117.5375
 30
0.0
 10
-89.6841
 20
113.4067
 30
0.0
 10
-89.6841
 20
113.4067
 30
0.0
 10
-90.3958
 20
110.0418
 30
0.0
 10
-87.7186
 20
105.9011
 30
0.0
 10
-86.2442
 20
104.6308
 30
0.0
 10
-86.2442
 20
104.6308
 30
0.0
 10
-84.8291
 20
105.5902
 30
0.0
 10
-81.5577
 20
109.6583
 30
0.0
 10
-81.8681
 20
112.3547
 30
0.0
 10
-81.8681
 20
112.3547
 30
0.0
 10
-83.1458
 20
111.8863
 30
0.0
 10
-82.6534
 20
110.0059
 30
0.0
 10
-86.3273
 20
112.0697
 30
0.0
 10
-86.3273
 20
112.0697
 30
0.0
 10
-86.2686
 20
112.1184
 30
0.0
 10
-86.1834
 20
112.1607
 30
0.0
 10
-86.1318
 20
112.1869
 30
0.0
 10
-86.1318
 20
112.1869
 30
0.0
 10
-84.1623
 20
113.1826
 30
0.0
 10
-87.0494
 20
111.9788
 30
0.0
 10
-84.7173
 20
112.6602
 30
0.0
  0
SPLINE
  5
77
330
1F
100
AcDbEntity
  8
layer 1
 62
     7
370
     9
100
AcDbSpline
210
0.0
220
0.0
230
1.0
 70
    11
 71
     3
 72
    28
 73
    24
 74
     0
 42
0.0000000001
 43
0.0000000001
 12
1.0
 22
0.0
 32
0.0
 13
1.0
 23
0.0
 33
0.0
 40
0.0
 40
0.0
 40
0.0
 40
0.0
 40
0.1428571428571428
 40
0.1428571428571428
 40
0.1428571428571428
 40
0.1428571428571428
 40
0.2857142857142857
 40
0.2857142857142857
 40
0.2857142857142857
 40
0.2857142857142857
 40
0.4285714285714285
 40
0.4285714285714285
 40
0.4285714285714285
 40
0.4285714285714285
 40
0.5714285714285714
 40
0.5714285714285714
 40
0.5714285714285714
 40
0.5714285714285714
 40
0.7142857142857143
 40
0.7142857142857143
 40
0.7142857142857143
 40
0.7142857142857143
 40
1.0
 40
1.0
 40
1.0
 40
1.0
 10
-66.1385
 20
104.6244
 30
0.0
 10
-65.0444
 20
105.3436
 30
0.0
 10
-64.1012
 20
106.9729
 30
0.0
 10
-63.4054
 20
108.569
 30
0.0
 10
-63.4054
 20
108.569
 30
0.0
 10
-60.8501
 20
114.4311
 30
0.0
 10
-64.5258
 20
117.4277
 30
0.0
 10
-67.0411
 20
115.675
 30
0.0
 10
-67.0411
 20
115.675
 30
0.0
 10
-67.5911
 20
115.2917
 30
0.0
 10
-68.2929
 20
114.4267
 30
0.0
 10
-67.8683
 20
113.2772
 30
0.0
 10
-67.8683
 20
113.2772
 30
0.0
 10
-67.4861
 20
112.2424
 30
0.0
 10
-66.8329
 20
112.7168
 30
0.0
 10
-65.984
 20
112.2505
 30
0.0
 10
-65.984
 20
112.2505
 30
0.0
 10
-68.8717
 20
109.8515
 30
0.0
 10
-69.7733
 20
111.9339
 30
0.0
 10
-70.3581
 20
112.3605
 30
0.0
 10
-70.3581
 20
112.3605
 30
0.0
 10
-71.1303
 20
110.5414
 30
0.0
 10
-67.5307
 20
105.3726
 30
0.0
 10
-66.1385
 20
104.6244
 30
0.0
  0
SPLINE
  5
78
330
1F
100
AcDbEntity
  8
layer 1
 62
     7
370
     9
100
AcDbSpline
210
0.0
220
0.0
230
1.0
 70
    11
 71
     3
 72
    76
 73
    72
 74
     0
 42
0.0000000001
 43
0.0000000001
 12
1.0
 22
0.0
 32
0.0
 13
1.0
 23
0.0
 33
0.0
 40
0.0
 40
0.0
 40
0.0
 40
0.0
 40
0.0526315789473684
 40
0.0526315789473684
 40
0.0526315789473684
 40
0.0526315789473684
 40
0.1052631578947368
 40
0.1052631578947368
 40
0.1052631578947368
 40
0.1052631578947368
 40
0.1578947368421053
 40
0.1578947368421053
 40
0.1578947368421053
 40
0.1578947368421053
 40
0.2105263157894737
 40
0.2105263157894737
 40
0.2105263157894737
 40
0.2105263157894737
 40
0.2631578947368421
 40
0.2631578947368421
 40
0.2631578947368421
 40
0.2631578947368421
 40
0.3157894736842105
 40
0.3157894736842105
 40
0.3157894736842105
 40
0.3157894736842105
 40
0.3684210526315789
 40
0.3684210526315789
 40
0.3684210526315789
 40
0.3684210526315789
 40
0.4210526315789473
 40
0.4210526315789473
 40
0.4210526315789473
 40
0.4210526315789473
 40
0.4736842105263158
 40
0.4736842105263158
 40
0.4736842105263158
 40
0.4736842105263158
 40
0.5263157894736842
 40
0.5263157894736842
 40
0.5263157894736842
 40
0.5263157894736842
 40
0.5789473684210527
 40
0.5789473684210527
 40
0.5789473684210527
 40
0.5789473684210527
 40
0.631578947368421
 40
0.631578947368421
 40
0.631578947368421
 40
0.631578947368421
 40
0.6842105263157895
 40
0.6842105263157895
 40
0.6842105263157895
 40
0.6842105263157895
 40
0.7368421052631579
 40
0.7368421052631579
 40
0.7368421052631579
 40
0.7368421052631579
 40
0.7894736842105263
 40
0.7894736842105263
 40
0.7894736842105263
 40
0.7894736842105263
 40
0.8421052631578947
 40
0.8421052631578947
 40
0.8421052631578947
 40
0.8421052631578947
 40
0.8947368421052632
 40
0.8947368421052632
 40
0.8947368421052632
 40
0.8947368421052632
 40
1.0
 40
1.0
 40
1.0
 40
1.0
 10
-18.0675
 20
102.2306
 30
0.0
 10
-18.568
 20
102.6881
 30
0.0
 10
-18.9197
 20
103.727
 30
0.0
 10
-19.9481
 20
102.9248
 30
0.0
 10
-19.9481
 20
102.9248
 30
0.0
 10
-20.5375
 20
102.4652
 30
0.0
 10
-20.4568
 20
101.5052
 30
0.0
 10
-20.0552
 20
100.7949
 30
0.0
 10
-20.0552
 20
100.7949
 30
0.0
 10
-18.0013
 20
97.1619
 30
0.0
 10
-10.5412
 20
96.5701
 30
0.0
 10
-9.6019
 20
103.5312
 30
0.0
 10
-9.6019
 20
103.5312
 30
0.0
 10
-9.0947
 20
107.2913
 30
0.0
 10
-11.287
 20
110.9542
 30
0.0
 10
-13.0686
 20
112.3806
 30
0.0
 10
-13.0686
 20
112.3806
 30
0.0
 10
-15.4291
 20
114.271
 30
0.0
 10
-15.1483
 20
113.1894
 30
0.0
 10
-16.7766
 20
111.9546
 30
0.0
 10
-16.7766
 20
111.9546
 30
0.0
 10
-18.6083
 20
110.5656
 30
0.0
 10
-20.1331
 20
111.7029
 30
0.0
 10
-21.7567
 20
111.9542
 30
0.0
 10
-21.7567
 20
111.9542
 30
0.0
 10
-22.3659
 20
108.4549
 30
0.0
 10
-24.8303
 20
109.5311
 30
0.0
 10
-25.9038
 20
110.6491
 30
0.0
 10
-25.9038
 20
110.6491
 30
0.0
 10
-26.6392
 20
111.4148
 30
0.0
 10
-26.1408
 20
111.3703
 30
0.0
 10
-27.1681
 20
111.7848
 30
0.0
 10
-27.1681
 20
111.7848
 30
0.0
 10
-28.5485
 20
110.7674
 30
0.0
 10
-27.459
 20
110.0017
 30
0.0
 10
-28.9057
 20
108.9159
 30
0.0
 10
-28.9057
 20
108.9159
 30
0.0
 10
-29.8984
 20
109.3087
 30
0.0
 10
-29.3167
 20
109.4579
 30
0.0
 10
-30.2848
 20
109.9754
 30
0.0
 10
-30.2848
 20
109.9754
 30
0.0
 10
-31.7605
 20
110.7642
 30
0.0
 10
-41.0781
 20
112.4856
 30
0.0
 10
-43.8832
 20
110.3736
 30
0.0
 10
-43.8832
 20
110.3736
 30
0.0
 10
-43.235
 20
109.9424
 30
0.0
 10
-42.2268
 20
109.9303
 30
0.0
 10
-41.4409
 20
109.7409
 30
0.0
 10
-41.4409
 20
109.7409
 30
0.0
 10
-37.0188
 20
108.6743
 30
0.0
 10
-35.2186
 20
104.6987
 30
0.0
 10
-36.339
 20
100.5882
 30
0.0
 10
-36.339
 20
100.5882
 30
0.0
 10
-36.7994
 20
98.8993
 30
0.0
 10
-37.7179
 20
97.9053
 30
0.0
 10
-38.2046
 20
96.4717
 30
0.0
 10
-38.2046
 20
96.4717
 30
0.0
 10
-36.3614
 20
97.0945
 30
0.0
 10
-33.0407
 20
100.7854
 30
0.0
 10
-25.9742
 20
98.7671
 30
0.0
 10
-25.9742
 20
98.7671
 30
0.0
 10
-24.3546
 20
98.3046
 30
0.0
 10
-23.6693
 20
97.5789
 30
0.0
 10
-22.3863
 20
97.1672
 30
0.0
 10
-22.3863
 20
97.1672
 30
0.0
 10
-22.8268
 20
99.3918
 30
0.0
 10
-24.6088
 20
101.6215
 30
0.0
 10
-22.4309
 20
104.1851
 30
0.0
 10
-22.4309
 20
104.1851
 30
0.0
 10
-21.1112
 20
105.7387
 30
0.0
 10
-17.1103
 20
106.2057
 30
0.0
 10
-18.0675
 20
102.2306
 30
0.0
  0
SPLINE
  5
79
330
1F
100
AcDbEntity
  8
layer 1
 62
     7
370
     9
100
AcDbSpline
210
0.0
220
0.0
230
1.0
 70
    11
 71
     3
 72
    72
 73
    68
 74
     0
 42
0.0000000001
 43
0.0000000001
 12
1.0
 22
0.0
 32
0.0
 13
1.0
 23
0.0
 33
0.0
 40
0.0
 40
0.0
 40
0.0
 40
0.0
 40
0.0555555555555556
 40
0.0555555555555556
 40
0.0555555555555556
 40
0.0555555555555556
 40
0.1111111111111111
 40
0.1111111111111111
 40
0.1111111111111111
 40
0.1111111111111111
 40
0.1666666666666667
 40
0.1666666666666667
 40
0.1666666666666667
 40
0.1666666666666667
 40
0.2222222222222222
 40
0.2222222222222222
 40
0.2222222222222222
 40
0.2222222222222222
 40
0.2777777777777778
 40
0.2777777777777778
 40
0.2777777777777778
 40
0.2777777777777778
 40
0.3333333333333333
 40
0.3333333333333333
 40
0.3333333333333333
 40
0.3333333333333333
 40
0.3888888888888889
 40
0.3888888888888889
 40
0.3888888888888889
 40
0.3888888888888889
 40
0.4444444444444444
 40
0.4444444444444444
 40
0.4444444444444444
 40
0.4444444444444444
 40
0.5
 40
0.5
 40
0.5
 40
0.5
 40
0.5555555555555556
 40
0.5555555555555556
 40
0.5555555555555556
 40
0.5555555555555556
 40
0.6111111111111112
 40
0.6111111111111112
 40
0.6111111111111112
 40
0.6111111111111112
 40
0.6666666666666666
 40
0.6666666666666666
 40
0.6666666666666666
 40
0.6666666666666666
 40
0.7222222222222222
 40
0.7222222222222222
 40
0.7222222222222222
 40
0.7222222222222222
 40
0.7777777777777778
 40
0.7777777777777778
 40
0.7777777777777778
 40
0.7777777777777778
 40
0.8333333333333334
 40
0.8333333333333334
 40
0.8333333333333334
 40
0.8333333333333334
 40
0.8888888888888888
 40
0.8888888888888888
 40
0.8888888888888888
 40
0.8888888888888888
 40
1.0
 40
1.0
 40
1.0
 40
1.0
 10
-130.5814
 20
111.9687
 30
0.0
 10
-132.4274
 20
111.5916
 30
0.0
 10
-133.863
 20
110.6216
 30
0.0
 10
-135.7673
 20
112.0414
 30
0.0
 10
-135.7673
 20
112.0414
 30
0.0
 10
-137.2491
 20
113.146
 30
0.0
 10
-136.9301
 20
114.269
 30
0.0
 10
-139.2741
 20
112.3398
 30
0.0
 10
-139.2741
 20
112.3398
 30
0.0
 10
-145.2229
 20
107.444
 30
0.0
 10
-143.1702
 20
96.7438
 30
0.0
 10
-136.0637
 20
98.2204
 30
0.0
 10
-136.0637
 20
98.2204
 30
0.0
 10
-133.0643
 20
98.8437
 30
0.0
 10
-130.9429
 20
101.9037
 30
0.0
 10
-132.4052
 20
102.9617
 30
0.0
 10
-132.4052
 20
102.9617
 30
0.0
 10
-132.9144
 20
103.3301
 30
0.0
 10
-133.0114
 20
103.2174
 30
0.0
 10
-133.4526
 20
103.0128
 30
0.0
 10
-133.4526
 20
103.0128
 30
0.0
 10
-134.1782
 20
102.6761
 30
0.0
 10
-133.4396
 20
102.7553
 30
0.0
 10
-134.3633
 20
102.3313
 30
0.0
 10
-134.3633
 20
102.3313
 30
0.0
 10
-134.8736
 20
106.7395
 30
0.0
 10
-130.667
 20
105.3151
 30
0.0
 10
-129.795
 20
104.0929
 30
0.0
 10
-129.795
 20
104.0929
 30
0.0
 10
-127.8406
 20
101.3542
 30
0.0
 10
-129.4267
 20
99.653
 30
0.0
 10
-129.9421
 20
97.1792
 30
0.0
 10
-129.9421
 20
97.1792
 30
0.0
 10
-128.5972
 20
97.6322
 30
0.0
 10
-127.8373
 20
98.3497
 30
0.0
 10
-126.2037
 20
98.8031
 30
0.0
 10
-126.2037
 20
98.8031
 30
0.0
 10
-124.732
 20
99.2117
 30
0.0
 10
-123.1175
 20
99.3842
 30
0.0
 10
-121.5015
 20
99.2856
 30
0.0
 10
-121.5015
 20
99.2856
 30
0.0
 10
-116.8716
 20
99.0026
 30
0.0
 10
-115.7264
 20
96.8251
 30
0.0
 10
-114.1014
 20
96.474
 30
0.0
 10
-114.1014
 20
96.474
 30
0.0
 10
-115.319
 20
99.4671
 30
0.0
 10
-117.451
 20
101.5656
 30
0.0
 10
-115.6791
 20
105.9067
 30
0.0
 10
-115.6791
 20
105.9067
 30
0.0
 10
-113.7804
 20
110.5585
 30
0.0
 10
-110.1345
 20
108.9841
 30
0.0
 10
-108.4312
 20
110.3736
 30
0.0
 10
-108.4312
 20
110.3736
 30
0.0
 10
-110.0435
 20
111.7181
 30
0.0
 10
-114.3728
 20
111.5001
 30
0.0
 10
-116.5472
 20
111.1681
 30
0.0
 10
-116.5472
 20
111.1681
 30
0.0
 10
-123.9335
 20
110.041
 30
0.0
 10
-121.8826
 20
109.3505
 30
0.0
 10
-123.477
 20
108.9336
 30
0.0
 10
-123.477
 20
108.9336
 30
0.0
 10
-124.7157
 20
110.1117
 30
0.0
 10
-123.9709
 20
110.9086
 30
0.0
 10
-125.2146
 20
111.8059
 30
0.0
 10
-125.2146
 20
111.8059
 30
0.0
 10
-125.5276
 20
111.65
 30
0.0
 10
-129.5316
 20
106.6903
 30
0.0
 10
-130.5814
 20
111.9687
 30
0.0
  0
SPLINE
  5
7A
330
1F
100
AcDbEntity
  8
layer 1
 62
     7
370
     9
100
AcDbSpline
210
0.0
220
0.0
230
1.0
 70
    11
 71
     3
 72
    40
 73
    36
 74
     0
 42
0.0000000001
 43
0.0000000001
 12
1.0
 22
0.0
 32
0.0
 13
1.0
 23
0.0
 33
0.0
 40
0.0
 40
0.0
 40
0.0
 40
0.0
 40
0.1
 40
0.1
 40
0.1
 40
0.1
 40
0.2
 40
0.2
 40
0.2
 40
0.2
 40
0.3
 40
0.3
 40
0.3
 40
0.3
 40
0.4
 40
0.4
 40
0.4
 40
0.4
 40
0.5
 40
0.5
 40
0.5
 40
0.5
 40
0.6
 40
0.6
 40
0.6
 40
0.6
 40
0.7
 40
0.7
 40
0.7
 40
0.7
 40
0.8
 40
0.8
 40
0.8
 40
0.8
 40
1.0
 40
1.0
 40
1.0
 40
1.0
 10
-46.1778
 20
101.4061
 30
0.0
 10
-47.5845
 20
101.1221
 30
0.0
 10
-49.1126
 20
100.4926
 30
0.0
 10
-50.2642
 20
101.6288
 30
0.0
 10
-50.2642
 20
101.6288
 30
0.0
 10
-53.7958
 20
105.1132
 30
0.0
 10
-47.5022
 20
109.1355
 30
0.0
 10
-46.8036
 20
110.1518
 30
0.0
 10
-46.8036
 20
110.1518
 30
0.0
 10
-49.4163
 20
110.2567
 30
0.0
 10
-53.5491
 20
107.1941
 30
0.0
 10
-55.1983
 20
105.9886
 30
0.0
 10
-55.1983
 20
105.9886
 30
0.0
 10
-57.032
 20
104.6482
 30
0.0
 10
-60.5581
 20
101.8531
 30
0.0
 10
-61.4451
 20
99.8421
 30
0.0
 10
-61.4451
 20
99.8421
 30
0.0
 10
-59.5118
 20
97.7401
 30
0.0
 10
-56.2532
 20
96.1161
 30
0.0
 10
-53.5056
 20
94.42
 30
0.0
 10
-53.5056
 20
94.42
 30
0.0
 10
-53.5056
 20
94.42
 30
0.0
 10
-45.6206
 20
89.4312
 30
0.0
 10
-45.6206
 20
89.4312
 30
0.0
 10
-45.6206
 20
89.4312
 30
0.0
 10
-43.6156
 20
91.6991
 30
0.0
 10
-39.945
 20
97.8249
 30
0.0
 10
-40.6286
 20
102.3744
 30
0.0
 10
-40.6286
 20
102.3744
 30
0.0
 10
-41.3813
 20
107.3828
 30
0.0
 10
-47.8575
 20
106.7239
 30
0.0
 10
-48.2184
 20
103.6418
 30
0.0
 10
-48.2184
 20
103.6418
 30
0.0
 10
-48.4358
 20
101.7845
 30
0.0
 10
-46.9644
 20
101.9337
 30
0.0
 10
-46.1778
 20
101.4061
 30
0.0
  0
SPLINE
  5
7B
330
1F
100
AcDbEntity
  8
layer 1
 62
     7
370
     9
100
AcDbSpline
210
0.0
220
0.0
230
1.0
 70
    11
 71
     3
 72
    48
 73
    44
 74
     0
 42
0.0000000001
 43
0.0000000001
 12
1.0
 22
0.0
 32
0.0
 13
1.0
 23
0.0
 33
0.0
 40
0.0
 40
0.0
 40
0.0
 40
0.0
 40
0.0833333333333333
 40
0.0833333333333333
 40
0.0833333333333333
 40
0.0833333333333333
 40
0.1666666666666667
 40
0.1666666666666667
 40
0.1666666666666667
 40
0.1666666666666667
 40
0.25
 40
0.25
 40
0.25
 40
0.25
 40
0.3333333333333333
 40
0.3333333333333333
 40
0.3333333333333333
 40
0.3333333333333333
 40
0.4166666666666667
 40
0.4166666666666667
 40
0.4166666666666667
 40
0.4166666666666667
 40
0.5
 40
0.5
 40
0.5
 40
0.5
 40
0.5833333333333334
 40
0.5833333333333334
 40
0.5833333333333334
 40
0.5833333333333334
 40
0.6666666666666666
 40
0.6666666666666666
 40
0.6666666666666666
 40
0.6666666666666666
 40
0.75
 40
0.75
 40
0.75
 40
0.75
 40
0.8333333333333334
 40
0.8333333333333334
 40
0.8333333333333334
 40
0.8333333333333334
 40
1.0
 40
1.0
 40
1.0
 40
1.0
 10
-90.8855
 20
99.8421
 30
0.0
 10
-91.6083
 20
101.7333
 30
0.0
 10
-95.4631
 20
104.7682
 30
0.0
 10
-97.2925
 20
106.1332
 30
0.0
 10
-97.2925
 20
106.1332
 30
0.0
 10
-98.6715
 20
107.1623
 30
0.0
 10
-103.2199
 20
110.3528
 30
0.0
 10
-105.5493
 20
110.1275
 30
0.0
 10
-105.5493
 20
110.1275
 30
0.0
 10
-104.2416
 20
108.4858
 30
0.0
 10
-101.6806
 20
107.4474
 30
0.0
 10
-101.1813
 20
104.9231
 30
0.0
 10
-101.1813
 20
104.9231
 30
0.0
 10
-100.8787
 20
103.3932
 30
0.0
 10
-101.536
 20
101.9627
 30
0.0
 10
-102.3763
 20
101.3679
 30
0.0
 10
-102.3763
 20
101.3679
 30
0.0
 10
-103.4602
 20
100.6006
 30
0.0
 10
-104.8971
 20
101.1591
 30
0.0
 10
-106.1696
 20
101.4198
 30
0.0
 10
-106.1696
 20
101.4198
 30
0.0
 10
-106.1696
 20
101.4198
 30
0.0
 10
-104.9294
 20
101.991
 30
0.0
 10
-104.9294
 20
101.991
 30
0.0
 10
-104.9294
 20
101.991
 30
0.0
 10
-102.8985
 20
103.1455
 30
0.0
 10
-104.6748
 20
106.7293
 30
0.0
 10
-108.6815
 20
105.8403
 30
0.0
 10
-108.6815
 20
105.8403
 30
0.0
 10
-111.0297
 20
105.3194
 30
0.0
 10
-111.8338
 20
103.6861
 30
0.0
 10
-111.8033
 20
100.8694
 30
0.0
 10
-111.8033
 20
100.8694
 30
0.0
 10
-111.7472
 20
95.6661
 30
0.0
 10
-107.8392
 20
91.8093
 30
0.0
 10
-106.9646
 20
89.4375
 30
0.0
 10
-106.9646
 20
89.4375
 30
0.0
 10
-106.01
 20
89.6918
 30
0.0
 10
-100.162
 20
93.6132
 30
0.0
 10
-98.7107
 20
94.5067
 30
0.0
 10
-98.7107
 20
94.5067
 30
0.0
 10
-96.258
 20
96.0169
 30
0.0
 10
-92.2948
 20
98.0388
 30
0.0
 10
-90.8855
 20
99.8421
 30
0.0
  0
SPLINE
  5
7C
330
1F
100
AcDbEntity
  8
layer 1
 62
     7
370
     9
100
AcDbSpline
210
0.0
220
0.0
230
1.0
 70
    11
 71
     3
 72
    72
 73
    68
 74
     0
 42
0.0000000001
 43
0.0000000001
 12
1.0
 22
0.0
 32
0.0
 13
1.0
 23
0.0
 33
0.0
 40
0.0
 40
0.0
 40
0.0
 40
0.0
 40
0.0555555555555556
 40
0.0555555555555556
 40
0.0555555555555556
 40
0.0555555555555556
 40
0.1111111111111111
 40
0.1111111111111111
 40
0.1111111111111111
 40
0.1111111111111111
 40
0.1666666666666667
 40
0.1666666666666667
 40
0.1666666666666667
 40
0.1666666666666667
 40
0.2222222222222222
 40
0.2222222222222222
 40
0.2222222222222222
 40
0.2222222222222222
 40
0.2777777777777778
 40
0.2777777777777778
 40
0.2777777777777778
 40
0.2777777777777778
 40
0.3333333333333333
 40
0.3333333333333333
 40
0.3333333333333333
 40
0.3333333333333333
 40
0.3888888888888889
 40
0.3888888888888889
 40
0.3888888888888889
 40
0.3888888888888889
 40
0.4444444444444444
 40
0.4444444444444444
 40
0.4444444444444444
 40
0.4444444444444444
 40
0.5
 40
0.5
 40
0.5
 40
0.5
 40
0.5555555555555556
 40
0.5555555555555556
 40
0.5555555555555556
 40
0.5555555555555556
 40
0.6111111111111112
 40
0.6111111111111112
 40
0.6111111111111112
 40
0.6111111111111112
 40
0.6666666666666666
 40
0.6666666666666666
 40
0.6666666666666666
 40
0.6666666666666666
 40
0.7222222222222222
 40
0.7222222222222222
 40
0.7222222222222222
 40
0.7222222222222222
 40
0.7777777777777778
 40
0.7777777777777778
 40
0.7777777777777778
 40
0.7777777777777778
 40
0.8333333333333334
 40
0.8333333333333334
 40
0.8333333333333334
 40
0.8333333333333334
 40
0.8888888888888888
 40
0.8888888888888888
 40
0.8888888888888888
 40
0.8888888888888888
 40
1.0
 40
1.0
 40
1.0
 40
1.0
 10
-11.5075
 20
63.855
 30
0.0
 10
-11.1164
 20
66.0268
 30
0.0
 10
-9.0642
 20
66.7516
 30
0.0
 10
-7.3106
 20
67.7396
 30
0.0
 10
-7.3106
 20
67.7396
 30
0.0
 10
-5.5226
 20
68.7473
 30
0.0
 10
-3.9314
 20
69.58
 30
0.0
 10
-2.2976
 20
70.7656
 30
0.0
 10
-2.2976
 20
70.7656
 30
0.0
 10
0.9512
 20
73.123
 30
0.0
 10
2.9532
 20
75.2302
 30
0.0
 10
4.807
 20
79.8647
 30
0.0
 10
4.807
 20
79.8647
 30
0.0
 10
8.7997
 20
89.8461
 30
0.0
 10
2.8506
 20
102.9001
 30
0.0
 10
-0.9359
 20
104.3306
 30
0.0
 10
-0.9359
 20
104.3306
 30
0.0
 10
-0.4416
 20
102.2241
 30
0.0
 10
0.4175
 20
100.7397
 30
0.0
 10
0.8745
 20
98.2808
 30
0.0
 10
0.8745
 20
98.2808
 30
0.0
 10
2.1243
 20
91.5566
 30
0.0
 10
0.375
 20
85.4343
 30
0.0
 10
-3.412
 20
80.3975
 30
0.0
 10
-3.412
 20
80.3975
 30
0.0
 10
-5.7642
 20
77.2688
 30
0.0
 10
-7.7875
 20
75.2125
 30
0.0
 10
-10.5308
 20
72.6104
 30
0.0
 10
-10.5308
 20
72.6104
 30
0.0
 10
-11.2293
 20
71.9479
 30
0.0
 10
-11.8705
 20
71.5434
 30
0.0
 10
-12.5494
 20
70.8424
 30
0.0
 10
-12.5494
 20
70.8424
 30
0.0
 10
-13.311
 20
70.056
 30
0.0
 10
-13.6261
 20
69.5571
 30
0.0
 10
-14.3717
 20
68.8787
 30
0.0
 10
-14.3717
 20
68.8787
 30
0.0
 10
-16.6928
 20
66.7657
 30
0.0
 10
-16.4752
 20
65.3967
 30
0.0
 10
-17.7358
 20
64.9169
 30
0.0
 10
-17.7358
 20
64.9169
 30
0.0
 10
-18.1776
 20
65.8058
 30
0.0
 10
-17.9738
 20
67.0872
 30
0.0
 10
-18.0205
 20
68.194
 30
0.0
 10
-18.0205
 20
68.194
 30
0.0
 10
-19.4997
 20
67.592
 30
0.0
 10
-24.0335
 20
62.9545
 30
0.0
 10
-24.1064
 20
60.6021
 30
0.0
 10
-24.1064
 20
60.6021
 30
0.0
 10
-21.8203
 20
60.2033
 30
0.0
 10
-22.8614
 20
60.7016
 30
0.0
 10
-20.9146
 20
59.7384
 30
0.0
 10
-20.9146
 20
59.7384
 30
0.0
 10
-20.9047
 20
60.2138
 30
0.0
 10
-20.9506
 20
61.0805
 30
0.0
 10
-20.8782
 20
61.4999
 30
0.0
 10
-20.8782
 20
61.4999
 30
0.0
 10
-20.4473
 20
63.9976
 30
0.0
 10
-17.7834
 20
62.2522
 30
0.0
 10
-16.236
 20
62.1331
 30
0.0
 10
-16.236
 20
62.1331
 30
0.0
 10
-15.869
 20
63.2731
 30
0.0
 10
-16.0446
 20
64.2319
 30
0.0
 10
-14.6712
 20
64.5683
 30
0.0
 10
-14.6712
 20
64.5683
 30
0.0
 10
-13.3148
 20
64.9005
 30
0.0
 10
-12.5857
 20
64.1041
 30
0.0
 10
-11.5075
 20
63.855
 30
0.0
  0
SPLINE
  5
7D
330
1F
100
AcDbEntity
  8
layer 1
 62
     7
370
     9
100
AcDbSpline
210
0.0
220
0.0
230
1.0
 70
    11
 71
     3
 72
    56
 73
    52
 74
     0
 42
0.0000000001
 43
0.0000000001
 12
1.0
 22
0.0
 32
0.0
 13
1.0
 23
0.0
 33
0.0
 40
0.0
 40
0.0
 40
0.0
 40
0.0
 40
0.0714285714285714
 40
0.0714285714285714
 40
0.0714285714285714
 40
0.0714285714285714
 40
0.1428571428571428
 40
0.1428571428571428
 40
0.1428571428571428
 40
0.1428571428571428
 40
0.2142857142857143
 40
0.2142857142857143
 40
0.2142857142857143
 40
0.2142857142857143
 40
0.2857142857142857
 40
0.2857142857142857
 40
0.2857142857142857
 40
0.2857142857142857
 40
0.3571428571428572
 40
0.3571428571428572
 40
0.3571428571428572
 40
0.3571428571428572
 40
0.4285714285714285
 40
0.4285714285714285
 40
0.4285714285714285
 40
0.4285714285714285
 40
0.5
 40
0.5
 40
0.5
 40
0.5
 40
0.5714285714285714
 40
0.5714285714285714
 40
0.5714285714285714
 40
0.5714285714285714
 40
0.6428571428571429
 40
0.6428571428571429
 40
0.6428571428571429
 40
0.6428571428571429
 40
0.7142857142857143
 40
0.7142857142857143
 40
0.7142857142857143
 40
0.7142857142857143
 40
0.7857142857142857
 40
0.7857142857142857
 40
0.7857142857142857
 40
0.7857142857142857
 40
0.8571428571428571
 40
0.8571428571428571
 40
0.8571428571428571
 40
0.8571428571428571
 40
1.0
 40
1.0
 40
1.0
 40
1.0
 10
-128.2156
 20
60.5503
 30
0.0
 10
-128.307
 20
62.8981
 30
0.0
 10
-132.8595
 20
67.7774
 30
0.0
 10
-134.3122
 20
68.1754
 30
0.0
 10
-134.3122
 20
68.1754
 30
0.0
 10
-134.3122
 20
68.1754
 30
0.0
 10
-134.4362
 20
64.9184
 30
0.0
 10
-134.4362
 20
64.9184
 30
0.0
 10
-134.4362
 20
64.9184
 30
0.0
 10
-135.2651
 20
65.085
 30
0.0
 10
-134.9459
 20
64.9402
 30
0.0
 10
-135.5315
 20
65.7887
 30
0.0
 10
-135.5315
 20
65.7887
 30
0.0
 10
-137.2531
 20
68.2822
 30
0.0
 10
-139.4582
 20
70.6725
 30
0.0
 10
-141.8137
 20
72.6507
 30
0.0
 10
-141.8137
 20
72.6507
 30
0.0
 10
-146.8242
 20
76.8588
 30
0.0
 10
-152.6068
 20
84.1778
 30
0.0
 10
-153.4193
 20
91.1982
 30
0.0
 10
-153.4193
 20
91.1982
 30
0.0
 10
-154.2145
 20
98.0705
 30
0.0
 10
-152.4473
 20
99.9207
 30
0.0
 10
-151.4048
 20
104.3054
 30
0.0
 10
-151.4048
 20
104.3054
 30
0.0
 10
-155.1927
 20
102.7417
 30
0.0
 10
-161.1526
 20
90.2303
 30
0.0
 10
-157.0746
 20
79.7161
 30
0.0
 10
-157.0746
 20
79.7161
 30
0.0
 10
-154.4159
 20
72.8603
 30
0.0
 10
-150.2081
 20
70.7608
 30
0.0
 10
-144.8818
 20
67.6747
 30
0.0
 10
-144.8818
 20
67.6747
 30
0.0
 10
-140.6605
 20
65.2289
 30
0.0
 10
-142.1738
 20
66.0665
 30
0.0
 10
-140.6042
 20
63.8714
 30
0.0
 10
-140.6042
 20
63.8714
 30
0.0
 10
-137.8807
 20
64.8834
 30
0.0
 10
-136.9606
 20
65.5578
 30
0.0
 10
-136.1181
 20
62.1436
 30
0.0
 10
-136.1181
 20
62.1436
 30
0.0
 10
-134.2713
 20
62.2106
 30
0.0
 10
-133.8465
 20
63.1787
 30
0.0
 10
-131.8517
 20
62.6487
 30
0.0
 10
-131.8517
 20
62.6487
 30
0.0
 10
-131.4074
 20
61.6963
 30
0.0
 10
-131.4218
 20
61.0356
 30
0.0
 10
-131.4361
 20
59.7173
 30
0.0
 10
-131.4361
 20
59.7173
 30
0.0
 10
-129.8431
 20
60.4746
 30
0.0
 10
-130.3772
 20
60.4089
 30
0.0
 10
-128.2156
 20
60.5503
 30
0.0
  0
SPLINE
  5
7E
330
1F
100
AcDbEntity
  8
layer 1
 62
     7
370
     9
100
AcDbSpline
210
0.0
220
0.0
230
1.0
 70
    11
 71
     3
 72
    36
 73
    32
 74
     0
 42
0.0000000001
 43
0.0000000001
 12
1.0
 22
0.0
 32
0.0
 13
1.0
 23
0.0
 33
0.0
 40
0.0
 40
0.0
 40
0.0
 40
0.0
 40
0.1111111111111111
 40
0.1111111111111111
 40
0.1111111111111111
 40
0.1111111111111111
 40
0.2222222222222222
 40
0.2222222222222222
 40
0.2222222222222222
 40
0.2222222222222222
 40
0.3333333333333333
 40
0.3333333333333333
 40
0.3333333333333333
 40
0.3333333333333333
 40
0.4444444444444444
 40
0.4444444444444444
 40
0.4444444444444444
 40
0.4444444444444444
 40
0.5555555555555556
 40
0.5555555555555556
 40
0.5555555555555556
 40
0.5555555555555556
 40
0.6666666666666666
 40
0.6666666666666666
 40
0.6666666666666666
 40
0.6666666666666666
 40
0.7777777777777778
 40
0.7777777777777778
 40
0.7777777777777778
 40
0.7777777777777778
 40
1.0
 40
1.0
 40
1.0
 40
1.0
 10
-135.2741
 20
92.7227
 30
0.0
 10
-139.6629
 20
92.0348
 30
0.0
 10
-141.4122
 20
92.712
 30
0.0
 10
-143.7583
 20
95.0366
 30
0.0
 10
-143.7583
 20
95.0366
 30
0.0
 10
-145.9409
 20
97.1993
 30
0.0
 10
-146.1256
 20
100.1116
 30
0.0
 10
-146.1113
 20
104.2174
 30
0.0
 10
-146.1113
 20
104.2174
 30
0.0
 10
-147.1697
 20
103.7547
 30
0.0
 10
-147.5744
 20
102.0809
 30
0.0
 10
-147.9345
 20
100.742
 30
0.0
 10
-147.9345
 20
100.742
 30
0.0
 10
-149.1593
 20
96.1887
 30
0.0
 10
-148.6399
 20
91.4228
 30
0.0
 10
-146.6961
 20
87.3723
 30
0.0
 10
-146.6961
 20
87.3723
 30
0.0
 10
-144.8147
 20
83.4514
 30
0.0
 10
-139.3544
 20
78.063
 30
0.0
 10
-135.9852
 20
77.0942
 30
0.0
 10
-135.9852
 20
77.0942
 30
0.0
 10
-136.7085
 20
80.4314
 30
0.0
 10
-137.6378
 20
81.2806
 30
0.0
 10
-137.5817
 20
85.4664
 30
0.0
 10
-137.5817
 20
85.4664
 30
0.0
 10
-137.5625
 20
86.9019
 30
0.0
 10
-137.379
 20
88.3988
 30
0.0
 10
-136.8915
 20
89.5755
 30
0.0
 10
-136.8915
 20
89.5755
 30
0.0
 10
-136.334
 20
90.921
 30
0.0
 10
-135.6677
 20
91.2202
 30
0.0
 10
-135.2741
 20
92.7227
 30
0.0
  0
SPLINE
  5
7F
330
1F
100
AcDbEntity
  8
layer 1
 62
     7
370
     9
100
AcDbSpline
210
0.0
220
0.0
230
1.0
 70
    11
 71
     3
 72
    32
 73
    28
 74
     0
 42
0.0000000001
 43
0.0000000001
 12
1.0
 22
0.0
 32
0.0
 13
1.0
 23
0.0
 33
0.0
 40
0.0
 40
0.0
 40
0.0
 40
0.0
 40
0.125
 40
0.125
 40
0.125
 40
0.125
 40
0.25
 40
0.25
 40
0.25
 40
0.25
 40
0.375
 40
0.375
 40
0.375
 40
0.375
 40
0.5
 40
0.5
 40
0.5
 40
0.5
 40
0.625
 40
0.625
 40
0.625
 40
0.625
 40
0.75
 40
0.75
 40
0.75
 40
0.75
 40
1.0
 40
1.0
 40
1.0
 40
1.0
 10
-16.3409
 20
77.0724
 30
0.0
 10
-14.2435
 20
77.6854
 30
0.0
 10
-11.4826
 20
80.2642
 30
0.0
 10
-10.1164
 20
81.4253
 30
0.0
 10
-10.1164
 20
81.4253
 30
0.0
 10
-6.1106
 20
84.8292
 30
0.0
 10
-3.7794
 20
90.1678
 30
0.0
 10
-3.7309
 20
95.9892
 30
0.0
 10
-3.7309
 20
95.9892
 30
0.0
 10
-3.715
 20
97.9005
 30
0.0
 10
-4.3144
 20
103.1715
 30
0.0
 10
-6.1834
 20
104.2249
 30
0.0
 10
-6.1834
 20
104.2249
 30
0.0
 10
-6.3773
 20
99.3941
 30
0.0
 10
-5.8306
 20
98.0947
 30
0.0
 10
-8.6921
 20
95.1068
 30
0.0
 10
-8.6921
 20
95.1068
 30
0.0
 10
-11.2288
 20
92.4585
 30
0.0
 10
-12.4784
 20
91.9659
 30
0.0
 10
-17.0682
 20
92.7358
 30
0.0
 10
-17.0682
 20
92.7358
 30
0.0
 10
-16.7586
 20
91.39
 30
0.0
 10
-15.9232
 20
90.8098
 30
0.0
 10
-15.3779
 20
89.4329
 30
0.0
 10
-15.3779
 20
89.4329
 30
0.0
 10
-13.4854
 20
84.6534
 30
0.0
 10
-15.8646
 20
79.3781
 30
0.0
 10
-16.3409
 20
77.0724
 30
0.0
  0
SPLINE
  5
80
330
1F
100
AcDbEntity
  8
layer 1
 62
     7
370
     9
100
AcDbSpline
210
0.0
220
0.0
230
1.0
 70
    11
 71
     3
 72
    48
 73
    44
 74
     0
 42
0.0000000001
 43
0.0000000001
 12
1.0
 22
0.0
 32
0.0
 13
1.0
 23
0.0
 33
0.0
 40
0.0
 40
0.0
 40
0.0
 40
0.0
 40
0.0833333333333333
 40
0.0833333333333333
 40
0.0833333333333333
 40
0.0833333333333333
 40
0.1666666666666667
 40
0.1666666666666667
 40
0.1666666666666667
 40
0.1666666666666667
 40
0.25
 40
0.25
 40
0.25
 40
0.25
 40
0.3333333333333333
 40
0.3333333333333333
 40
0.3333333333333333
 40
0.3333333333333333
 40
0.4166666666666667
 40
0.4166666666666667
 40
0.4166666666666667
 40
0.4166666666666667
 40
0.5
 40
0.5
 40
0.5
 40
0.5
 40
0.5833333333333334
 40
0.5833333333333334
 40
0.5833333333333334
 40
0.5833333333333334
 40
0.6666666666666666
 40
0.6666666666666666
 40
0.6666666666666666
 40
0.6666666666666666
 40
0.75
 40
0.75
 40
0.75
 40
0.75
 40
0.8333333333333334
 40
0.8333333333333334
 40
0.8333333333333334
 40
0.8333333333333334
 40
1.0
 40
1.0
 40
1.0
 40
1.0
 10
-32.2881
 20
83.0266
 30
0.0
 10
-35.5237
 20
78.3759
 30
0.0
 10
-23.3267
 20
73.9619
 30
0.0
 10
-21.8138
 20
83.0039
 30
0.0
 10
-21.8138
 20
83.0039
 30
0.0
 10
-21.5335
 20
84.6795
 30
0.0
 10
-21.8475
 20
86.4819
 30
0.0
 10
-22.4054
 20
87.8212
 30
0.0
 10
-22.4054
 20
87.8212
 30
0.0
 10
-23.898
 20
91.4053
 30
0.0
 10
-29.8439
 20
95.0318
 30
0.0
 10
-33.0547
 20
92.6498
 30
0.0
 10
-33.0547
 20
92.6498
 30
0.0
 10
-32.6655
 20
91.6616
 30
0.0
 10
-31.6134
 20
91.1056
 30
0.0
 10
-32.0465
 20
89.473
 30
0.0
 10
-32.0465
 20
89.473
 30
0.0
 10
-33.1388
 20
89.3535
 30
0.0
 10
-33.398
 20
89.9399
 30
0.0
 10
-34.7022
 20
89.6429
 30
0.0
 10
-34.7022
 20
89.6429
 30
0.0
 10
-35.9374
 20
89.3616
 30
0.0
 10
-39.657
 20
87.3056
 30
0.0
 10
-40.2587
 20
85.4577
 30
0.0
 10
-40.2587
 20
85.4577
 30
0.0
 10
-39.7066
 20
84.6571
 30
0.0
 10
-38.9848
 20
84.0685
 30
0.0
 10
-38.2944
 20
83.1889
 30
0.0
 10
-38.2944
 20
83.1889
 30
0.0
 10
-37.6421
 20
82.358
 30
0.0
 10
-37.2705
 20
81.2134
 30
0.0
 10
-36.6005
 20
80.7961
 30
0.0
 10
-36.6005
 20
80.7961
 30
0.0
 10
-35.601
 20
82.2546
 30
0.0
 10
-36.6374
 20
84.4821
 30
0.0
 10
-33.9964
 20
85.8579
 30
0.0
 10
-33.9964
 20
85.8579
 30
0.0
 10
-31.7959
 20
87.0042
 30
0.0
 10
-29.7208
 20
85.2784
 30
0.0
 10
-30.5531
 20
82.7861
 30
0.0
 10
-30.5531
 20
82.7861
 30
0.0
 10
-31.472
 20
82.9022
 30
0.0
 10
-30.9798
 20
83.2619
 30
0.0
 10
-32.2881
 20
83.0266
 30
0.0
  0
SPLINE
  5
81
330
1F
100
AcDbEntity
  8
layer 1
 62
     7
370
     9
100
AcDbSpline
210
0.0
220
0.0
230
1.0
 70
    11
 71
     3
 72
    52
 73
    48
 74
     0
 42
0.0000000001
 43
0.0000000001
 12
1.0
 22
0.0
 32
0.0
 13
1.0
 23
0.0
 33
0.0
 40
0.0
 40
0.0
 40
0.0
 40
0.0
 40
0.0769230769230769
 40
0.0769230769230769
 40
0.0769230769230769
 40
0.0769230769230769
 40
0.1538461538461539
 40
0.1538461538461539
 40
0.1538461538461539
 40
0.1538461538461539
 40
0.2307692307692308
 40
0.2307692307692308
 40
0.2307692307692308
 40
0.2307692307692308
 40
0.3076923076923077
 40
0.3076923076923077
 40
0.3076923076923077
 40
0.3076923076923077
 40
0.3846153846153846
 40
0.3846153846153846
 40
0.3846153846153846
 40
0.3846153846153846
 40
0.4615384615384616
 40
0.4615384615384616
 40
0.4615384615384616
 40
0.4615384615384616
 40
0.5384615384615384
 40
0.5384615384615384
 40
0.5384615384615384
 40
0.5384615384615384
 40
0.6153846153846154
 40
0.6153846153846154
 40
0.6153846153846154
 40
0.6153846153846154
 40
0.6923076923076923
 40
0.6923076923076923
 40
0.6923076923076923
 40
0.6923076923076923
 40
0.7692307692307693
 40
0.7692307692307693
 40
0.7692307692307693
 40
0.7692307692307693
 40
0.8461538461538461
 40
0.8461538461538461
 40
0.8461538461538461
 40
0.8461538461538461
 40
1.0
 40
1.0
 40
1.0
 40
1.0
 10
-117.8653
 20
89.6913
 30
0.0
 10
-118.6894
 20
89.8094
 30
0.0
 10
-118.6359
 20
89.6778
 30
0.0
 10
-119.2804
 20
89.574
 30
0.0
 10
-119.2804
 20
89.574
 30
0.0
 10
-121.7909
 20
89.1694
 30
0.0
 10
-119.5523
 20
91.8959
 30
0.0
 10
-119.2805
 20
92.6498
 30
0.0
 10
-119.2805
 20
92.6498
 30
0.0
 10
-120.9069
 20
93.841
 30
0.0
 10
-124.1084
 20
93.217
 30
0.0
 10
-125.6752
 20
92.3596
 30
0.0
 10
-125.6752
 20
92.3596
 30
0.0
 10
-129.2846
 20
90.3845
 30
0.0
 10
-131.5499
 20
86.1915
 30
0.0
 10
-130.2688
 20
82.0186
 30
0.0
 10
-130.2688
 20
82.0186
 30
0.0
 10
-128.8324
 20
77.34
 30
0.0
 10
-123.5803
 20
76.426
 30
0.0
 10
-120.7395
 20
79.2848
 30
0.0
 10
-120.7395
 20
79.2848
 30
0.0
 10
-120.1134
 20
79.9147
 30
0.0
 10
-119.3044
 20
80.7709
 30
0.0
 10
-119.528
 20
82.078
 30
0.0
 10
-119.528
 20
82.078
 30
0.0
 10
-119.8416
 20
83.9126
 30
0.0
 10
-121.1684
 20
82.631
 30
0.0
 10
-121.673
 20
82.8663
 30
0.0
 10
-121.673
 20
82.8663
 30
0.0
 10
-122.89
 20
83.4334
 30
0.0
 10
-121.4099
 20
87.3878
 30
0.0
 10
-118.3765
 20
85.8653
 30
0.0
 10
-118.3765
 20
85.8653
 30
0.0
 10
-115.7396
 20
84.5418
 30
0.0
 10
-116.7421
 20
82.4245
 30
0.0
 10
-115.7822
 20
80.824
 30
0.0
 10
-115.7822
 20
80.824
 30
0.0
 10
-114.8833
 20
81.2182
 30
0.0
 10
-114.5295
 20
82.604
 30
0.0
 10
-113.9458
 20
83.2967
 30
0.0
 10
-113.9458
 20
83.2967
 30
0.0
 10
-113.3461
 20
84.0082
 30
0.0
 10
-112.5093
 20
84.7031
 30
0.0
 10
-112.077
 20
85.4577
 30
0.0
 10
-112.077
 20
85.4577
 30
0.0
 10
-112.6131
 20
87.4148
 30
0.0
 10
-116.7517
 20
89.5318
 30
0.0
 10
-117.8653
 20
89.6913
 30
0.0
  0
SPLINE
  5
82
330
1F
100
AcDbEntity
  8
layer 1
 62
     7
370
     9
100
AcDbSpline
210
0.0
220
0.0
230
1.0
 70
    11
 71
     3
 72
    64
 73
    60
 74
     0
 42
0.0000000001
 43
0.0000000001
 12
1.0
 22
0.0
 32
0.0
 13
1.0
 23
0.0
 33
0.0
 40
0.0
 40
0.0
 40
0.0
 40
0.0
 40
0.0625
 40
0.0625
 40
0.0625
 40
0.0625
 40
0.125
 40
0.125
 40
0.125
 40
0.125
 40
0.1875
 40
0.1875
 40
0.1875
 40
0.1875
 40
0.25
 40
0.25
 40
0.25
 40
0.25
 40
0.3125
 40
0.3125
 40
0.3125
 40
0.3125
 40
0.375
 40
0.375
 40
0.375
 40
0.375
 40
0.4375
 40
0.4375
 40
0.4375
 40
0.4375
 40
0.5
 40
0.5
 40
0.5
 40
0.5
 40
0.5625
 40
0.5625
 40
0.5625
 40
0.5625
 40
0.625
 40
0.625
 40
0.625
 40
0.625
 40
0.6875
 40
0.6875
 40
0.6875
 40
0.6875
 40
0.75
 40
0.75
 40
0.75
 40
0.75
 40
0.8125
 40
0.8125
 40
0.8125
 40
0.8125
 40
0.875
 40
0.875
 40
0.875
 40
0.875
 40
1.0
 40
1.0
 40
1.0
 40
1.0
 10
-47.9396
 20
84.7738
 30
0.0
 10
-50.1025
 20
86.6795
 30
0.0
 10
-54.1252
 20
88.6852
 30
0.0
 10
-56.6339
 20
90.4172
 30
0.0
 10
-56.6339
 20
90.4172
 30
0.0
 10
-60.4537
 20
93.0543
 30
0.0
 10
-61.943
 20
94.9001
 30
0.0
 10
-64.4009
 20
96.7205
 30
0.0
 10
-64.4009
 20
96.7205
 30
0.0
 10
-65.2862
 20
96.1403
 30
0.0
 10
-67.2933
 20
93.3339
 30
0.0
 10
-67.5478
 20
91.7
 30
0.0
 10
-67.5478
 20
91.7
 30
0.0
 10
-65.4868
 20
92.0426
 30
0.0
 10
-62.9446
 20
92.5268
 30
0.0
 10
-63.1269
 20
89.5674
 30
0.0
 10
-63.1269
 20
89.5674
 30
0.0
 10
-63.6879
 20
88.443
 30
0.0
 10
-64.1411
 20
88.5112
 30
0.0
 10
-64.835
 20
87.7648
 30
0.0
 10
-64.835
 20
87.7648
 30
0.0
 10
-65.3421
 20
88.3019
 30
0.0
 10
-64.8185
 20
87.6933
 30
0.0
 10
-65.1386
 20
88.3206
 30
0.0
 10
-65.1386
 20
88.3206
 30
0.0
 10
-66.5454
 20
91.0766
 30
0.0
 10
-68.6317
 20
87.6321
 30
0.0
 10
-68.9437
 20
85.7143
 30
0.0
 10
-68.9437
 20
85.7143
 30
0.0
 10
-67.6034
 20
84.7189
 30
0.0
 10
-56.0486
 20
83.1857
 30
0.0
 10
-55.1883
 20
69.7984
 30
0.0
 10
-55.1883
 20
69.7984
 30
0.0
 10
-54.9076
 20
65.4328
 30
0.0
 10
-56.1332
 20
60.9138
 30
0.0
 10
-57.5457
 20
57.3029
 30
0.0
 10
-57.5457
 20
57.3029
 30
0.0
 10
-59.6151
 20
52.0125
 30
0.0
 10
-60.719
 20
51.3671
 30
0.0
 10
-62.6904
 20
47.6981
 30
0.0
 10
-62.6904
 20
47.6981
 30
0.0
 10
-62.6904
 20
47.6981
 30
0.0
 10
-55.9615
 20
39.3371
 30
0.0
 10
-55.9615
 20
39.3371
 30
0.0
 10
-55.9615
 20
39.3371
 30
0.0
 10
-54.9864
 20
40.039
 30
0.0
 10
-53.0584
 20
42.6227
 30
0.0
 10
-52.1907
 20
43.7937
 30
0.0
 10
-52.1907
 20
43.7937
 30
0.0
 10
-49.2684
 20
47.7378
 30
0.0
 10
-44.3737
 20
54.6301
 30
0.0
 10
-42.6357
 20
59.0763
 30
0.0
 10
-42.6357
 20
59.0763
 30
0.0
 10
-41.1888
 20
62.7772
 30
0.0
 10
-41.0659
 20
62.0482
 30
0.0
 10
-43.0008
 20
64.96
 30
0.0
 10
-43.0008
 20
64.96
 30
0.0
 10
-48.0233
 20
72.5185
 30
0.0
 10
-47.4489
 20
75.813
 30
0.0
 10
-47.9396
 20
84.7738
 30
0.0
  0
SPLINE
  5
83
330
1F
100
AcDbEntity
  8
layer 1
 62
     7
370
     9
100
AcDbSpline
210
0.0
220
0.0
230
1.0
 70
    11
 71
     3
 72
    60
 73
    56
 74
     0
 42
0.0000000001
 43
0.0000000001
 12
1.0
 22
0.0
 32
0.0
 13
1.0
 23
0.0
 33
0.0
 40
0.0
 40
0.0
 40
0.0
 40
0.0
 40
0.0666666666666667
 40
0.0666666666666667
 40
0.0666666666666667
 40
0.0666666666666667
 40
0.1333333333333333
 40
0.1333333333333333
 40
0.1333333333333333
 40
0.1333333333333333
 40
0.2
 40
0.2
 40
0.2
 40
0.2
 40
0.2666666666666667
 40
0.2666666666666667
 40
0.2666666666666667
 40
0.2666666666666667
 40
0.3333333333333333
 40
0.3333333333333333
 40
0.3333333333333333
 40
0.3333333333333333
 40
0.4
 40
0.4
 40
0.4
 40
0.4
 40
0.4666666666666667
 40
0.4666666666666667
 40
0.4666666666666667
 40
0.4666666666666667
 40
0.5333333333333333
 40
0.5333333333333333
 40
0.5333333333333333
 40
0.5333333333333333
 40
0.6
 40
0.6
 40
0.6
 40
0.6
 40
0.6666666666666666
 40
0.6666666666666666
 40
0.6666666666666666
 40
0.6666666666666666
 40
0.7333333333333333
 40
0.7333333333333333
 40
0.7333333333333333
 40
0.7333333333333333
 40
0.8
 40
0.8
 40
0.8
 40
0.8
 40
0.8666666666666667
 40
0.8666666666666667
 40
0.8666666666666667
 40
0.8666666666666667
 40
1.0
 40
1.0
 40
1.0
 40
1.0
 10
-87.6904
 20
96.763
 30
0.0
 10
-88.8028
 20
96.2291
 30
0.0
 10
-90.5553
 20
94.4416
 30
0.0
 10
-91.7224
 20
93.4383
 30
0.0
 10
-91.7224
 20
93.4383
 30
0.0
 10
-93.9379
 20
91.5342
 30
0.0
 10
-97.4222
 20
89.2422
 30
0.0
 10
-100.0164
 20
87.64
 30
0.0
 10
-100.0164
 20
87.64
 30
0.0
 10
-101.3362
 20
86.8248
 30
0.0
 10
-103.055
 20
85.6209
 30
0.0
 10
-104.3723
 20
84.9666
 30
0.0
 10
-104.3723
 20
84.9666
 30
0.0
 10
-104.7267
 20
79.3884
 30
0.0
 10
-104.3008
 20
75.0631
 30
0.0
 10
-106.4545
 20
70.1552
 30
0.0
 10
-106.4545
 20
70.1552
 30
0.0
 10
-107.9711
 20
66.699
 30
0.0
 10
-110.8907
 20
63.2284
 30
0.0
 10
-110.788
 20
62.157
 30
0.0
 10
-110.788
 20
62.157
 30
0.0
 10
-110.4965
 20
59.1177
 30
0.0
 10
-105.01
 20
50.6785
 30
0.0
 10
-103.5367
 20
48.5575
 30
0.0
 10
-103.5367
 20
48.5575
 30
0.0
 10
-102.3864
 20
46.9013
 30
0.0
 10
-97.6972
 20
40.2264
 30
0.0
 10
-96.4212
 20
39.3308
 30
0.0
 10
-96.4212
 20
39.3308
 30
0.0
 10
-95.8746
 20
39.6994
 30
0.0
 10
-90.0495
 20
46.9028
 30
0.0
 10
-89.6427
 20
47.6981
 30
0.0
 10
-89.6427
 20
47.6981
 30
0.0
 10
-93.1067
 20
53.2925
 30
0.0
 10
-97.7997
 20
61.0753
 30
0.0
 10
-97.1263
 20
70.0437
 30
0.0
 10
-97.1263
 20
70.0437
 30
0.0
 10
-96.1347
 20
83.2487
 30
0.0
 10
-84.398
 20
84.911
 30
0.0
 10
-83.3696
 20
85.7143
 30
0.0
 10
-83.3696
 20
85.7143
 30
0.0
 10
-83.5472
 20
86.9981
 30
0.0
 10
-84.8308
 20
89.8049
 30
0.0
 10
-86.418
 20
89.2485
 30
0.0
 10
-86.418
 20
89.2485
 30
0.0
 10
-87.4651
 20
88.8814
 30
0.0
 10
-86.8912
 20
88.7094
 30
0.0
 10
-87.237
 20
87.8027
 30
0.0
 10
-87.237
 20
87.8027
 30
0.0
 10
-90.2758
 20
89.1963
 30
0.0
 10
-90.5525
 20
92.92
 30
0.0
 10
-84.7953
 20
91.6767
 30
0.0
 10
-84.7953
 20
91.6767
 30
0.0
 10
-85.0667
 20
93.5083
 30
0.0
 10
-86.9387
 20
95.6563
 30
0.0
 10
-87.6904
 20
96.763
 30
0.0
  0
SPLINE
  5
84
330
1F
100
AcDbEntity
  8
layer 1
 62
     7
370
     9
100
AcDbSpline
210
0.0
220
0.0
230
1.0
 70
    11
 71
     3
 72
    12
 73
     8
 74
     0
 42
0.0000000001
 43
0.0000000001
 12
1.0
 22
0.0
 32
0.0
 13
1.0
 23
0.0
 33
0.0
 40
0.0
 40
0.0
 40
0.0
 40
0.0
 40
0.3333333333333333
 40
0.3333333333333333
 40
0.3333333333333333
 40
0.3333333333333333
 40
1.0
 40
1.0
 40
1.0
 40
1.0
 10
-39.3828
 20
68.5295
 30
0.0
 10
-38.7078
 20
73.0718
 30
0.0
 10
-40.3382
 20
78.8023
 30
0.0
 10
-42.8227
 20
80.8513
 30
0.0
 10
-42.8227
 20
80.8513
 30
0.0
 10
-43.8426
 20
76.3416
 30
0.0
 10
-41.7474
 20
70.5996
 30
0.0
 10
-39.3828
 20
68.5295
 30
0.0
  0
SPLINE
  5
85
330
1F
100
AcDbEntity
  8
layer 1
 62
     7
370
     9
100
AcDbSpline
210
0.0
220
0.0
230
1.0
 70
    11
 71
     3
 72
    16
 73
    12
 74
     0
 42
0.0000000001
 43
0.0000000001
 12
1.0
 22
0.0
 32
0.0
 13
1.0
 23
0.0
 33
0.0
 40
0.0
 40
0.0
 40
0.0
 40
0.0
 40
0.25
 40
0.25
 40
0.25
 40
0.25
 40
0.5
 40
0.5
 40
0.5
 40
0.5
 40
1.0
 40
1.0
 40
1.0
 40
1.0
 10
-109.5344
 20
80.604
 30
0.0
 10
-109.8755
 20
80.6652
 30
0.0
 10
-109.4755
 20
80.8316
 30
0.0
 10
-109.9438
 20
80.4262
 30
0.0
 10
-109.9438
 20
80.4262
 30
0.0
 10
-112.2374
 20
78.4411
 30
0.0
 10
-113.4034
 20
72.2521
 30
0.0
 10
-112.9712
 20
68.5466
 30
0.0
 10
-112.9712
 20
68.5466
 30
0.0
 10
-111.0726
 20
69.8301
 30
0.0
 10
-107.9935
 20
77.0419
 30
0.0
 10
-109.5344
 20
80.604
 30
0.0
  0
SPLINE
  5
86
330
1F
100
AcDbEntity
  8
layer 1
 62
     7
370
     9
100
AcDbSpline
210
0.0
220
0.0
230
1.0
 70
    11
 71
     3
 72
    28
 73
    24
 74
     0
 42
0.0000000001
 43
0.0000000001
 12
1.0
 22
0.0
 32
0.0
 13
1.0
 23
0.0
 33
0.0
 40
0.0
 40
0.0
 40
0.0
 40
0.0
 40
0.1428571428571428
 40
0.1428571428571428
 40
0.1428571428571428
 40
0.1428571428571428
 40
0.2857142857142857
 40
0.2857142857142857
 40
0.2857142857142857
 40
0.2857142857142857
 40
0.4285714285714285
 40
0.4285714285714285
 40
0.4285714285714285
 40
0.4285714285714285
 40
0.5714285714285714
 40
0.5714285714285714
 40
0.5714285714285714
 40
0.5714285714285714
 40
0.7142857142857143
 40
0.7142857142857143
 40
0.7142857142857143
 40
0.7142857142857143
 40
1.0
 40
1.0
 40
1.0
 40
1.0
 10
-24.1616
 20
71.0449
 30
0.0
 10
-26.5923
 20
71.0094
 30
0.0
 10
-27.6027
 20
70.3086
 30
0.0
 10
-30.3726
 20
70.8451
 30
0.0
 10
-30.3726
 20
70.8451
 30
0.0
 10
-33.8294
 20
71.5139
 30
0.0
 10
-33.4315
 20
72.7408
 30
0.0
 10
-34.8668
 20
73.3149
 30
0.0
 10
-34.8668
 20
73.3149
 30
0.0
 10
-34.8241
 20
69.3812
 30
0.0
 10
-34.979
 20
68.6286
 30
0.0
 10
-35.3253
 20
64.6512
 30
0.0
 10
-35.3253
 20
64.6512
 30
0.0
 10
-34.5915
 20
63.7989
 30
0.0
 10
-31.4271
 20
62.2272
 30
0.0
 10
-30.0708
 20
62.2494
 30
0.0
 10
-30.0708
 20
62.2494
 30
0.0
 10
-29.3958
 20
63.9779
 30
0.0
 10
-27.1067
 20
67.6775
 30
0.0
 10
-25.8395
 20
69.1827
 30
0.0
 10
-25.8395
 20
69.1827
 30
0.0
 10
-25.2537
 20
69.8785
 30
0.0
 10
-24.6089
 20
70.3135
 30
0.0
 10
-24.1616
 20
71.0449
 30
0.0
  0
SPLINE
  5
87
330
1F
100
AcDbEntity
  8
layer 1
 62
     7
370
     9
100
AcDbSpline
210
0.0
220
0.0
230
1.0
 70
    11
 71
     3
 72
    40
 73
    36
 74
     0
 42
0.0000000001
 43
0.0000000001
 12
1.0
 22
0.0
 32
0.0
 13
1.0
 23
0.0
 33
0.0
 40
0.0
 40
0.0
 40
0.0
 40
0.0
 40
0.1
 40
0.1
 40
0.1
 40
0.1
 40
0.2
 40
0.2
 40
0.2
 40
0.2
 40
0.3
 40
0.3
 40
0.3
 40
0.3
 40
0.4
 40
0.4
 40
0.4
 40
0.4
 40
0.5
 40
0.5
 40
0.5
 40
0.5
 40
0.6
 40
0.6
 40
0.6
 40
0.6
 40
0.7
 40
0.7
 40
0.7
 40
0.7
 40
0.8
 40
0.8
 40
0.8
 40
0.8
 40
1.0
 40
1.0
 40
1.0
 40
1.0
 10
-121.9875
 20
62.2329
 30
0.0
 10
-120.8054
 20
62.3135
 30
0.0
 10
-119.8531
 20
62.9665
 30
0.0
 10
-118.859
 20
63.47
 30
0.0
 10
-118.859
 20
63.47
 30
0.0
 10
-117.6491
 20
64.0827
 30
0.0
 10
-116.8911
 20
64.1064
 30
0.0
 10
-116.9416
 20
65.6641
 30
0.0
 10
-116.9416
 20
65.6641
 30
0.0
 10
-116.9765
 20
66.7505
 30
0.0
 10
-117.3448
 20
68.0971
 30
0.0
 10
-117.4054
 20
69.2994
 30
0.0
 10
-117.4054
 20
69.2994
 30
0.0
 10
-117.4757
 20
70.6971
 30
0.0
 10
-117.2949
 20
71.9679
 30
0.0
 10
-117.5537
 20
73.3443
 30
0.0
 10
-117.5537
 20
73.3443
 30
0.0
 10
-119.0407
 20
72.7982
 30
0.0
 10
-118.6241
 20
71.4684
 30
0.0
 10
-122.0056
 20
70.8376
 30
0.0
 10
-122.0056
 20
70.8376
 30
0.0
 10
-124.7985
 20
70.3166
 30
0.0
 10
-125.7881
 20
71.0521
 30
0.0
 10
-128.1788
 20
71.0325
 30
0.0
 10
-128.1788
 20
71.0325
 30
0.0
 10
-127.7005
 20
70.3648
 30
0.0
 10
-127.0422
 20
69.9217
 30
0.0
 10
-126.3927
 20
69.0843
 30
0.0
 10
-126.3927
 20
69.0843
 30
0.0
 10
-125.7404
 20
68.2432
 30
0.0
 10
-125.4072
 20
67.6925
 30
0.0
 10
-124.8409
 20
66.832
 30
0.0
 10
-124.8409
 20
66.832
 30
0.0
 10
-123.9197
 20
65.4318
 30
0.0
 10
-122.9988
 20
63.305
 30
0.0
 10
-121.9875
 20
62.2329
 30
0.0
  0
SPLINE
  5
88
330
1F
100
AcDbEntity
  8
layer 1
 62
     7
370
     9
100
AcDbSpline
210
0.0
220
0.0
230
1.0
 70
    11
 71
     3
 72
    28
 73
    24
 74
     0
 42
0.0000000001
 43
0.0000000001
 12
1.0
 22
0.0
 32
0.0
 13
1.0
 23
0.0
 33
0.0
 40
0.0
 40
0.0
 40
0.0
 40
0.0
 40
0.1428571428571428
 40
0.1428571428571428
 40
0.1428571428571428
 40
0.1428571428571428
 40
0.2857142857142857
 40
0.2857142857142857
 40
0.2857142857142857
 40
0.2857142857142857
 40
0.4285714285714285
 40
0.4285714285714285
 40
0.4285714285714285
 40
0.4285714285714285
 40
0.5714285714285714
 40
0.5714285714285714
 40
0.5714285714285714
 40
0.5714285714285714
 40
0.7142857142857143
 40
0.7142857142857143
 40
0.7142857142857143
 40
0.7142857142857143
 40
1.0
 40
1.0
 40
1.0
 40
1.0
 10
12.4943
 20
82.6356
 30
0.0
 10
10.3494
 20
77.9824
 30
0.0
 10
10.6335
 20
74.5711
 30
0.0
 10
5.6564
 20
67.6736
 30
0.0
 10
5.6564
 20
67.6736
 30
0.0
 10
2.0577
 20
62.6863
 30
0.0
 10
-1.5628
 20
60.754
 30
0.0
 10
-5.9824
 20
57.7712
 30
0.0
 10
-5.9824
 20
57.7712
 30
0.0
 10
-0.9042
 20
57.063
 30
0.0
 10
1.9601
 20
57.6286
 30
0.0
 10
6.1223
 20
54.9207
 30
0.0
 10
6.1223
 20
54.9207
 30
0.0
 10
10.8058
 20
51.8739
 30
0.0
 10
10.6652
 20
49.4549
 30
0.0
 10
12.5649
 20
46.2083
 30
0.0
 10
12.5649
 20
46.2083
 30
0.0
 10
12.5649
 20
46.2083
 30
0.0
 10
12.5333
 20
62.4758
 30
0.0
 10
12.5333
 20
62.4758
 30
0.0
 10
12.5333
 20
62.4758
 30
0.0
 10
12.5333
 20
62.4758
 30
0.0
 10
12.4943
 20
82.6356
 30
0.0
 10
12.4943
 20
82.6356
 30
0.0
  0
SPLINE
  5
89
330
1F
100
AcDbEntity
  8
layer 1
 62
     7
370
     9
100
AcDbSpline
210
0.0
220
0.0
230
1.0
 70
    11
 71
     3
 72
    36
 73
    32
 74
     0
 42
0.0000000001
 43
0.0000000001
 12
1.0
 22
0.0
 32
0.0
 13
1.0
 23
0.0
 33
0.0
 40
0.0
 40
0.0
 40
0.0
 40
0.0
 40
0.1111111111111111
 40
0.1111111111111111
 40
0.1111111111111111
 40
0.1111111111111111
 40
0.2222222222222222
 40
0.2222222222222222
 40
0.2222222222222222
 40
0.2222222222222222
 40
0.3333333333333333
 40
0.3333333333333333
 40
0.3333333333333333
 40
0.3333333333333333
 40
0.4444444444444444
 40
0.4444444444444444
 40
0.4444444444444444
 40
0.4444444444444444
 40
0.5555555555555556
 40
0.5555555555555556
 40
0.5555555555555556
 40
0.5555555555555556
 40
0.6666666666666666
 40
0.6666666666666666
 40
0.6666666666666666
 40
0.6666666666666666
 40
0.7777777777777778
 40
0.7777777777777778
 40
0.7777777777777778
 40
0.7777777777777778
 40
1.0
 40
1.0
 40
1.0
 40
1.0
 10
-146.3721
 20
57.7472
 30
0.0
 10
-147.3182
 20
58.5177
 30
0.0
 10
-148.6341
 20
59.1195
 30
0.0
 10
-149.6964
 20
59.8671
 30
0.0
 10
-149.6964
 20
59.8671
 30
0.0
 10
-152.5877
 20
61.9021
 30
0.0
 10
-156.0151
 20
64.7924
 30
0.0
 10
-157.9967
 20
67.7132
 30
0.0
 10
-157.9967
 20
67.7132
 30
0.0
 10
-159.4628
 20
69.8739
 30
0.0
 10
-160.8068
 20
72.1026
 30
0.0
 10
-161.9544
 20
74.666
 30
0.0
 10
-161.9544
 20
74.666
 30
0.0
 10
-162.5728
 20
76.047
 30
0.0
 10
-163.025
 20
77.1998
 30
0.0
 10
-163.5254
 20
78.6989
 30
0.0
 10
-163.5254
 20
78.6989
 30
0.0
 10
-163.9213
 20
79.8856
 30
0.0
 10
-164.3332
 20
81.5745
 30
0.0
 10
-164.8974
 20
82.6756
 30
0.0
 10
-164.8974
 20
82.6756
 30
0.0
 10
-164.8974
 20
82.6756
 30
0.0
 10
-164.8628
 20
46.1732
 30
0.0
 10
-164.8628
 20
46.1732
 30
0.0
 10
-164.8628
 20
46.1732
 30
0.0
 10
-163.0233
 20
49.3129
 30
0.0
 10
-163.2267
 20
51.8409
 30
0.0
 10
-158.4833
 20
54.9018
 30
0.0
 10
-158.4833
 20
54.9018
 30
0.0
 10
-154.5571
 20
57.4353
 30
0.0
 10
-151.3906
 20
57.2598
 30
0.0
 10
-146.3721
 20
57.7472
 30
0.0
  0
SPLINE
  5
8A
330
1F
100
AcDbEntity
  8
layer 1
 62
     7
370
     9
100
AcDbSpline
210
0.0
220
0.0
230
1.0
 70
    11
 71
     3
 72
    40
 73
    36
 74
     0
 42
0.0000000001
 43
0.0000000001
 12
1.0
 22
0.0
 32
0.0
 13
1.0
 23
0.0
 33
0.0
 40
0.0
 40
0.0
 40
0.0
 40
0.0
 40
0.1
 40
0.1
 40
0.1
 40
0.1
 40
0.2
 40
0.2
 40
0.2
 40
0.2
 40
0.3
 40
0.3
 40
0.3
 40
0.3
 40
0.4
 40
0.4
 40
0.4
 40
0.4
 40
0.5
 40
0.5
 40
0.5
 40
0.5
 40
0.6
 40
0.6
 40
0.6
 40
0.6
 40
0.7
 40
0.7
 40
0.7
 40
0.7
 40
0.8
 40
0.8
 40
0.8
 40
0.8
 40
1.0
 40
1.0
 40
1.0
 40
1.0
 10
-31.8376
 20
57.0465
 30
0.0
 10
-33.9475
 20
57.7695
 30
0.0
 10
-35.039
 20
58.7525
 30
0.0
 10
-36.8487
 20
59.635
 30
0.0
 10
-36.8487
 20
59.635
 30
0.0
 10
-36.8487
 20
59.635
 30
0.0
 10
-37.7065
 20
57.826
 30
0.0
 10
-37.7065
 20
57.826
 30
0.0
 10
-37.7065
 20
57.826
 30
0.0
 10
-39.921
 20
51.664
 30
0.0
 10
-42.3231
 20
49.676
 30
0.0
 10
-43.2648
 20
47.11
 30
0.0
 10
-43.2648
 20
47.11
 30
0.0
 10
-41.3009
 20
47.7631
 30
0.0
 10
-38.5763
 20
48.8088
 30
0.0
 10
-37.4775
 20
46.5354
 30
0.0
 10
-37.4775
 20
46.5354
 30
0.0
 10
-36.2198
 20
43.933
 30
0.0
 10
-37.5704
 20
42.278
 30
0.0
 10
-39.5865
 20
41.5669
 30
0.0
 10
-39.5865
 20
41.5669
 30
0.0
 10
-39.3016
 20
42.2994
 30
0.0
 10
-38.7386
 20
42.9604
 30
0.0
 10
-39.2145
 20
43.9335
 30
0.0
 10
-39.2145
 20
43.9335
 30
0.0
 10
-39.9907
 20
45.521
 30
0.0
 10
-42.9379
 20
45.214
 30
0.0
 10
-43.0301
 20
41.0104
 30
0.0
 10
-43.0301
 20
41.0104
 30
0.0
 10
-43.1368
 20
36.1433
 30
0.0
 10
-39.1767
 20
36.5897
 30
0.0
 10
-37.0289
 20
38.8937
 30
0.0
 10
-37.0289
 20
38.8937
 30
0.0
 10
-33.6505
 20
42.5173
 30
0.0
 10
-32.2475
 20
50.7345
 30
0.0
 10
-31.8376
 20
57.0465
 30
0.0
  0
SPLINE
  5
8B
330
1F
100
AcDbEntity
  8
layer 1
 62
     7
370
     9
100
AcDbSpline
210
0.0
220
0.0
230
1.0
 70
    11
 71
     3
 72
    28
 73
    24
 74
     0
 42
0.0000000001
 43
0.0000000001
 12
1.0
 22
0.0
 32
0.0
 13
1.0
 23
0.0
 33
0.0
 40
0.0
 40
0.0
 40
0.0
 40
0.0
 40
0.1428571428571428
 40
0.1428571428571428
 40
0.1428571428571428
 40
0.1428571428571428
 40
0.2857142857142857
 40
0.2857142857142857
 40
0.2857142857142857
 40
0.2857142857142857
 40
0.4285714285714285
 40
0.4285714285714285
 40
0.4285714285714285
 40
0.4285714285714285
 40
0.5714285714285714
 40
0.5714285714285714
 40
0.5714285714285714
 40
0.5714285714285714
 40
0.7142857142857143
 40
0.7142857142857143
 40
0.7142857142857143
 40
0.7142857142857143
 40
1.0
 40
1.0
 40
1.0
 40
1.0
 10
-108.9406
 20
47.0027
 30
0.0
 10
-110.8097
 20
51.2451
 30
0.0
 10
-111.6065
 20
49.9793
 30
0.0
 10
-115.3331
 20
59.7166
 30
0.0
 10
-115.3331
 20
59.7166
 30
0.0
 10
-117.0554
 20
58.9227
 30
0.0
 10
-118.4398
 20
57.7941
 30
0.0
 10
-120.5068
 20
57.0018
 30
0.0
 10
-120.5068
 20
57.0018
 30
0.0
 10
-119.8956
 20
50.4673
 30
0.0
 10
-118.8514
 20
42.6034
 30
0.0
 10
-115.1866
 20
38.8096
 30
0.0
 10
-115.1866
 20
38.8096
 30
0.0
 10
-112.7061
 20
36.2415
 30
0.0
 10
-109.0211
 20
36.5598
 30
0.0
 10
-109.3156
 20
41.2774
 30
0.0
 10
-109.3156
 20
41.2774
 30
0.0
 10
-109.6654
 20
46.8794
 30
0.0
 10
-115.0068
 20
44.9599
 30
0.0
 10
-112.6848
 20
41.6463
 30
0.0
 10
-112.6848
 20
41.6463
 30
0.0
 10
-116.5304
 20
42.098
 30
0.0
 10
-116.8619
 20
50.527
 30
0.0
 10
-108.9406
 20
47.0027
 30
0.0
  0
SPLINE
  5
8C
330
1F
100
AcDbEntity
  8
layer 1
 62
     7
370
     9
100
AcDbSpline
210
0.0
220
0.0
230
1.0
 70
    11
 71
     3
 72
    28
 73
    24
 74
     0
 42
0.0000000001
 43
0.0000000001
 12
1.0
 22
0.0
 32
0.0
 13
1.0
 23
0.0
 33
0.0
 40
0.0
 40
0.0
 40
0.0
 40
0.0
 40
0.1428571428571428
 40
0.1428571428571428
 40
0.1428571428571428
 40
0.1428571428571428
 40
0.2857142857142857
 40
0.2857142857142857
 40
0.2857142857142857
 40
0.2857142857142857
 40
0.4285714285714285
 40
0.4285714285714285
 40
0.4285714285714285
 40
0.4285714285714285
 40
0.5714285714285714
 40
0.5714285714285714
 40
0.5714285714285714
 40
0.5714285714285714
 40
0.7142857142857143
 40
0.7142857142857143
 40
0.7142857142857143
 40
0.7142857142857143
 40
1.0
 40
1.0
 40
1.0
 40
1.0
 10
-19.9398
 20
35.6282
 30
0.0
 10
-20.5159
 20
37.7474
 30
0.0
 10
-21.6112
 20
37.7854
 30
0.0
 10
-21.665
 20
41.2685
 30
0.0
 10
-21.665
 20
41.2685
 30
0.0
 10
-21.7323
 20
45.6137
 30
0.0
 10
-20.7447
 20
49.0354
 30
0.0
 10
-17.7896
 20
51.8652
 30
0.0
 10
-17.7896
 20
51.8652
 30
0.0
 10
-17.7896
 20
51.8652
 30
0.0
 10
-13.9632
 20
55.132
 30
0.0
 10
-13.9632
 20
55.132
 30
0.0
 10
-13.9632
 20
55.132
 30
0.0
 10
-16.2457
 20
54.8012
 30
0.0
 10
-17.9716
 20
54.228
 30
0.0
 10
-20.4589
 20
54.1586
 30
0.0
 10
-20.4589
 20
54.1586
 30
0.0
 10
-23.4568
 20
54.0754
 30
0.0
 10
-24.7397
 20
54.9501
 30
0.0
 10
-26.8796
 20
55.0924
 30
0.0
 10
-26.8796
 20
55.0924
 30
0.0
 10
-29.8394
 20
47.8713
 30
0.0
 10
-24.0655
 20
36.5604
 30
0.0
 10
-19.9398
 20
35.6282
 30
0.0
  0
SPLINE
  5
8D
330
1F
100
AcDbEntity
  8
layer 1
 62
     7
370
     9
100
AcDbSpline
210
0.0
220
0.0
230
1.0
 70
    11
 71
     3
 72
    28
 73
    24
 74
     0
 42
0.0000000001
 43
0.0000000001
 12
1.0
 22
0.0
 32
0.0
 13
1.0
 23
0.0
 33
0.0
 40
0.0
 40
0.0
 40
0.0
 40
0.0
 40
0.1428571428571428
 40
0.1428571428571428
 40
0.1428571428571428
 40
0.1428571428571428
 40
0.2857142857142857
 40
0.2857142857142857
 40
0.2857142857142857
 40
0.2857142857142857
 40
0.4285714285714285
 40
0.4285714285714285
 40
0.4285714285714285
 40
0.4285714285714285
 40
0.5714285714285714
 40
0.5714285714285714
 40
0.5714285714285714
 40
0.5714285714285714
 40
0.7142857142857143
 40
0.7142857142857143
 40
0.7142857142857143
 40
0.7142857142857143
 40
1.0
 40
1.0
 40
1.0
 40
1.0
 10
-132.3978
 20
35.641
 30
0.0
 10
-128.7252
 20
36.2956
 30
0.0
 10
-122.401
 20
47.3094
 30
0.0
 10
-125.4651
 20
55.1039
 30
0.0
 10
-125.4651
 20
55.1039
 30
0.0
 10
-127.7763
 20
54.8712
 30
0.0
 10
-128.8482
 20
54.0762
 30
0.0
 10
-131.9223
 20
54.1597
 30
0.0
 10
-131.9223
 20
54.1597
 30
0.0
 10
-134.3961
 20
54.2268
 30
0.0
 10
-136.206
 20
54.8723
 30
0.0
 10
-138.3928
 20
55.1349
 30
0.0
 10
-138.3928
 20
55.1349
 30
0.0
 10
-138.3928
 20
55.1349
 30
0.0
 10
-134.4162
 20
51.7888
 30
0.0
 10
-134.4162
 20
51.7888
 30
0.0
 10
-134.4162
 20
51.7888
 30
0.0
 10
-133.4659
 20
50.8715
 30
0.0
 10
-132.1969
 20
49.2678
 30
0.0
 10
-131.5792
 20
47.5317
 30
0.0
 10
-131.5792
 20
47.5317
 30
0.0
 10
-129.1169
 20
40.6145
 30
0.0
 10
-131.9306
 20
37.2029
 30
0.0
 10
-132.3978
 20
35.641
 30
0.0
  0
SPLINE
  5
8E
330
1F
100
AcDbEntity
  8
layer 1
 62
     7
370
     9
100
AcDbSpline
210
0.0
220
0.0
230
1.0
 70
    11
 71
     3
 72
    64
 73
    60
 74
     0
 42
0.0000000001
 43
0.0000000001
 12
1.0
 22
0.0
 32
0.0
 13
1.0
 23
0.0
 33
0.0
 40
0.0
 40
0.0
 40
0.0
 40
0.0
 40
0.0625
 40
0.0625
 40
0.0625
 40
0.0625
 40
0.125
 40
0.125
 40
0.125
 40
0.125
 40
0.1875
 40
0.1875
 40
0.1875
 40
0.1875
 40
0.25
 40
0.25
 40
0.25
 40
0.25
 40
0.3125
 40
0.3125
 40
0.3125
 40
0.3125
 40
0.375
 40
0.375
 40
0.375
 40
0.375
 40
0.4375
 40
0.4375
 40
0.4375
 40
0.4375
 40
0.5
 40
0.5
 40
0.5
 40
0.5
 40
0.5625
 40
0.5625
 40
0.5625
 40
0.5625
 40
0.625
 40
0.625
 40
0.625
 40
0.625
 40
0.6875
 40
0.6875
 40
0.6875
 40
0.6875
 40
0.75
 40
0.75
 40
0.75
 40
0.75
 40
0.8125
 40
0.8125
 40
0.8125
 40
0.8125
 40
0.875
 40
0.875
 40
0.875
 40
0.875
 40
1.0
 40
1.0
 40
1.0
 40
1.0
 10
5.2339
 20
45.7345
 30
0.0
 10
4.9106
 20
51.022
 30
0.0
 10
-6.2547
 20
53.8477
 30
0.0
 10
-12.4178
 20
47.8431
 30
0.0
 10
-12.4178
 20
47.8431
 30
0.0
 10
-14.7498
 20
45.5712
 30
0.0
 10
-16.1085
 20
41.4694
 30
0.0
 10
-14.2483
 20
37.6976
 30
0.0
 10
-14.2483
 20
37.6976
 30
0.0
 10
-13.5612
 20
36.3046
 30
0.0
 10
-12.3655
 20
34.86
 30
0.0
 10
-10.135
 20
35.237
 30
0.0
 10
-10.135
 20
35.237
 30
0.0
 10
-6.8008
 20
35.8005
 30
0.0
 10
-8.6874
 20
38.6461
 30
0.0
 10
-8.8716
 20
39.0083
 30
0.0
 10
-8.8716
 20
39.0083
 30
0.0
 10
-7.1492
 20
38.7364
 30
0.0
 10
-6.2691
 20
38.3789
 30
0.0
 10
-5.8234
 20
36.8843
 30
0.0
 10
-5.8234
 20
36.8843
 30
0.0
 10
-5.3905
 20
35.4327
 30
0.0
 10
-5.6895
 20
33.9852
 30
0.0
 10
-6.5146
 20
33.0025
 30
0.0
 10
-6.5146
 20
33.0025
 30
0.0
 10
-8.9957
 20
30.0475
 30
0.0
 10
-12.7207
 20
31.7032
 30
0.0
 10
-14.0924
 20
30.745
 30
0.0
 10
-14.0924
 20
30.745
 30
0.0
 10
-14.0346
 20
28.9274
 30
0.0
 10
-13.0814
 20
29.6406
 30
0.0
 10
-11.4405
 20
29.2779
 30
0.0
 10
-11.4405
 20
29.2779
 30
0.0
 10
-9.7119
 20
28.8958
 30
0.0
 10
-10.6969
 20
27.9808
 30
0.0
 10
-9.5815
 20
27.3158
 30
0.0
 10
-9.5815
 20
27.3158
 30
0.0
 10
-7.3723
 20
26.2798
 30
0.0
 10
-3.9992
 20
28.0489
 30
0.0
 10
-2.3032
 20
28.9009
 30
0.0
 10
-2.3032
 20
28.9009
 30
0.0
 10
0.078
 20
30.0973
 30
0.0
 10
1.2494
 20
30.9164
 30
0.0
 10
2.4159
 20
33.2674
 30
0.0
 10
2.4159
 20
33.2674
 30
0.0
 10
3.9094
 20
36.2777
 30
0.0
 10
5.5048
 20
43.0393
 30
0.0
 10
2.675
 20
43.915
 30
0.0
 10
2.675
 20
43.915
 30
0.0
 10
0.74
 20
44.5137
 30
0.0
 10
0.788
 20
43.0988
 30
0.0
 10
0.9206
 20
41.5488
 30
0.0
 10
0.9206
 20
41.5488
 30
0.0
 10
-4.4392
 20
43.1774
 30
0.0
 10
-1.608
 20
48.4922
 30
0.0
 10
2.7555
 20
47.3128
 30
0.0
 10
2.7555
 20
47.3128
 30
0.0
 10
4.1129
 20
46.9458
 30
0.0
 10
4.3383
 20
46.0148
 30
0.0
 10
5.2339
 20
45.7345
 30
0.0
  0
SPLINE
  5
8F
330
1F
100
AcDbEntity
  8
layer 1
 62
     7
370
     9
100
AcDbSpline
210
0.0
220
0.0
230
1.0
 70
    11
 71
     3
 72
    52
 73
    48
 74
     0
 42
0.0000000001
 43
0.0000000001
 12
1.0
 22
0.0
 32
0.0
 13
1.0
 23
0.0
 33
0.0
 40
0.0
 40
0.0
 40
0.0
 40
0.0
 40
0.0769230769230769
 40
0.0769230769230769
 40
0.0769230769230769
 40
0.0769230769230769
 40
0.1538461538461539
 40
0.1538461538461539
 40
0.1538461538461539
 40
0.1538461538461539
 40
0.2307692307692308
 40
0.2307692307692308
 40
0.2307692307692308
 40
0.2307692307692308
 40
0.3076923076923077
 40
0.3076923076923077
 40
0.3076923076923077
 40
0.3076923076923077
 40
0.3846153846153846
 40
0.3846153846153846
 40
0.3846153846153846
 40
0.3846153846153846
 40
0.4615384615384616
 40
0.4615384615384616
 40
0.4615384615384616
 40
0.4615384615384616
 40
0.5384615384615384
 40
0.5384615384615384
 40
0.5384615384615384
 40
0.5384615384615384
 40
0.6153846153846154
 40
0.6153846153846154
 40
0.6153846153846154
 40
0.6153846153846154
 40
0.6923076923076923
 40
0.6923076923076923
 40
0.6923076923076923
 40
0.6923076923076923
 40
0.7692307692307693
 40
0.7692307692307693
 40
0.7692307692307693
 40
0.7692307692307693
 40
0.8461538461538461
 40
0.8461538461538461
 40
0.8461538461538461
 40
0.8461538461538461
 40
1.0
 40
1.0
 40
1.0
 40
1.0
 10
-143.4369
 20
38.9219
 30
0.0
 10
-146.3717
 20
36.056
 30
0.0
 10
-140.3654
 20
32.5578
 30
0.0
 10
-137.9315
 20
37.9972
 30
0.0
 10
-137.9315
 20
37.9972
 30
0.0
 10
-136.1085
 20
42.0713
 30
0.0
 10
-137.8432
 20
45.6483
 30
0.0
 10
-139.9902
 20
47.8234
 30
0.0
 10
-139.9902
 20
47.8234
 30
0.0
 10
-146.208
 20
54.1221
 30
0.0
 10
-157.5343
 20
50.669
 30
0.0
 10
-157.507
 20
45.6805
 30
0.0
 10
-157.507
 20
45.6805
 30
0.0
 10
-157.4227
 20
45.7307
 30
0.0
 10
-153.9042
 20
49.2705
 30
0.0
 10
-151.2373
 20
46.4571
 30
0.0
 10
-151.2373
 20
46.4571
 30
0.0
 10
-149.1506
 20
44.2556
 30
0.0
 10
-150.9236
 20
42.216
 30
0.0
 10
-153.2799
 20
41.5363
 30
0.0
 10
-153.2799
 20
41.5363
 30
0.0
 10
-153.1156
 20
42.9837
 30
0.0
 10
-152.9853
 20
44.4045
 30
0.0
 10
-154.8553
 20
43.9482
 30
0.0
 10
-154.8553
 20
43.9482
 30
0.0
 10
-157.8879
 20
43.2085
 30
0.0
 10
-156.218
 20
36.15
 30
0.0
 10
-154.8732
 20
33.4481
 30
0.0
 10
-154.8732
 20
33.4481
 30
0.0
 10
-152.7663
 20
29.2154
 30
0.0
 10
-146.6651
 20
26.6419
 30
0.0
 10
-142.7664
 20
27.1633
 30
0.0
 10
-142.7664
 20
27.1633
 30
0.0
 10
-141.9011
 20
28.3325
 30
0.0
 10
-142.159
 20
29.0337
 30
0.0
 10
-140.7587
 20
29.3002
 30
0.0
 10
-140.7587
 20
29.3002
 30
0.0
 10
-139.1796
 20
29.6007
 30
0.0
 10
-138.151
 20
28.9664
 30
0.0
 10
-138.2448
 20
30.8853
 30
0.0
 10
-138.2448
 20
30.8853
 30
0.0
 10
-141.1589
 20
31.907
 30
0.0
 10
-143.2596
 20
29.9596
 30
0.0
 10
-145.8161
 20
33.0585
 30
0.0
 10
-145.8161
 20
33.0585
 30
0.0
 10
-147.7595
 20
35.414
 30
0.0
 10
-146.565
 20
38.9453
 30
0.0
 10
-143.4369
 20
38.9219
 30
0.0
  0
SPLINE
  5
90
330
1F
100
AcDbEntity
  8
layer 1
 62
     7
370
     9
100
AcDbSpline
210
0.0
220
0.0
230
1.0
 70
    11
 71
     3
 72
    32
 73
    28
 74
     0
 42
0.0000000001
 43
0.0000000001
 12
1.0
 22
0.0
 32
0.0
 13
1.0
 23
0.0
 33
0.0
 40
0.0
 40
0.0
 40
0.0
 40
0.0
 40
0.125
 40
0.125
 40
0.125
 40
0.125
 40
0.25
 40
0.25
 40
0.25
 40
0.25
 40
0.375
 40
0.375
 40
0.375
 40
0.375
 40
0.5
 40
0.5
 40
0.5
 40
0.5
 40
0.625
 40
0.625
 40
0.625
 40
0.625
 40
0.75
 40
0.75
 40
0.75
 40
0.75
 40
1.0
 40
1.0
 40
1.0
 40
1.0
 10
-45.7845
 20
26.2637
 30
0.0
 10
-44.1668
 20
27.3556
 30
0.0
 10
-43.1348
 20
29.492
 30
0.0
 10
-41.2468
 20
30.4139
 30
0.0
 10
-41.2468
 20
30.4139
 30
0.0
 10
-41.2468
 20
30.4139
 30
0.0
 10
-42.0361
 20
31.0473
 30
0.0
 10
-42.0361
 20
31.0473
 30
0.0
 10
-42.0361
 20
31.0473
 30
0.0
 10
-42.6811
 20
31.4093
 30
0.0
 10
-43.1173
 20
31.3782
 30
0.0
 10
-44.173
 20
32.1537
 30
0.0
 10
-44.173
 20
32.1537
 30
0.0
 10
-45.1569
 20
32.8764
 30
0.0
 10
-45.7128
 20
33.4586
 30
0.0
 10
-46.3722
 20
34.5091
 30
0.0
 10
-46.3722
 20
34.5091
 30
0.0
 10
-48.1747
 20
37.3804
 30
0.0
 10
-47.2823
 20
38.8072
 30
0.0
 10
-47.0652
 20
41.9873
 30
0.0
 10
-47.0652
 20
41.9873
 30
0.0
 10
-48.054
 20
41.4859
 30
0.0
 10
-50.5219
 20
36.9145
 30
0.0
 10
-52.6673
 20
34.5649
 30
0.0
 10
-52.6673
 20
34.5649
 30
0.0
 10
-52.0035
 20
32.8585
 30
0.0
 10
-47.1928
 20
27.2843
 30
0.0
 10
-45.7845
 20
26.2637
 30
0.0
  0
SPLINE
  5
91
330
1F
100
AcDbEntity
  8
layer 1
 62
     7
370
     9
100
AcDbSpline
210
0.0
220
0.0
230
1.0
 70
    11
 71
     3
 72
    28
 73
    24
 74
     0
 42
0.0000000001
 43
0.0000000001
 12
1.0
 22
0.0
 32
0.0
 13
1.0
 23
0.0
 33
0.0
 40
0.0
 40
0.0
 40
0.0
 40
0.0
 40
0.1428571428571428
 40
0.1428571428571428
 40
0.1428571428571428
 40
0.1428571428571428
 40
0.2857142857142857
 40
0.2857142857142857
 40
0.2857142857142857
 40
0.2857142857142857
 40
0.4285714285714285
 40
0.4285714285714285
 40
0.4285714285714285
 40
0.4285714285714285
 40
0.5714285714285714
 40
0.5714285714285714
 40
0.5714285714285714
 40
0.5714285714285714
 40
0.7142857142857143
 40
0.7142857142857143
 40
0.7142857142857143
 40
0.7142857142857143
 40
1.0
 40
1.0
 40
1.0
 40
1.0
 10
-99.666
 20
34.6238
 30
0.0
 10
-100.7705
 20
35.7223
 30
0.0
 10
-101.641
 20
36.9734
 30
0.0
 10
-102.5073
 20
38.322
 30
0.0
 10
-102.5073
 20
38.322
 30
0.0
 10
-103.138
 20
39.3042
 30
0.0
 10
-104.3266
 20
41.3097
 30
0.0
 10
-105.1087
 20
41.9496
 30
0.0
 10
-105.1087
 20
41.9496
 30
0.0
 10
-105.5178
 20
41.0852
 30
0.0
 10
-104.1501
 20
37.6139
 30
0.0
 10
-105.8889
 20
34.6332
 30
0.0
 10
-105.8889
 20
34.6332
 30
0.0
 10
-106.9527
 20
32.8098
 30
0.0
 10
-108.4883
 20
31.5855
 30
0.0
 10
-111.0888
 20
30.7359
 30
0.0
 10
-111.0888
 20
30.7359
 30
0.0
 10
-111.0888
 20
30.7359
 30
0.0
 10
-106.5811
 20
26.2057
 30
0.0
 10
-106.5811
 20
26.2057
 30
0.0
 10
-106.5811
 20
26.2057
 30
0.0
 10
-105.4612
 20
26.9915
 30
0.0
 10
-100.1722
 20
32.9813
 30
0.0
 10
-99.666
 20
34.6238
 30
0.0
  0
SPLINE
  5
92
330
1F
100
AcDbEntity
  8
layer 1
 62
     7
370
     9
100
AcDbSpline
210
0.0
220
0.0
230
1.0
 70
    11
 71
     3
 72
    16
 73
    12
 74
     0
 42
0.0000000001
 43
0.0000000001
 12
1.0
 22
0.0
 32
0.0
 13
1.0
 23
0.0
 33
0.0
 40
0.0
 40
0.0
 40
0.0
 40
0.0
 40
0.25
 40
0.25
 40
0.25
 40
0.25
 40
0.5
 40
0.5
 40
0.5
 40
0.5
 40
1.0
 40
1.0
 40
1.0
 40
1.0
 10
-25.7288
 20
30.058
 30
0.0
 10
-28.7612
 20
33.5155
 30
0.0
 10
-30.5574
 20
34.5854
 30
0.0
 10
-31.2049
 20
41.5328
 30
0.0
 10
-31.2049
 20
41.5328
 30
0.0
 10
-33.1248
 20
38.4135
 30
0.0
 10
-29.7893
 20
37.4582
 30
0.0
 10
-36.5601
 20
31.861
 30
0.0
 10
-36.5601
 20
31.861
 30
0.0
 10
-30.2788
 20
32.1308
 30
0.0
 10
-30.8852
 20
31.8801
 30
0.0
 10
-25.7288
 20
30.058
 30
0.0
  0
SPLINE
  5
93
330
1F
100
AcDbEntity
  8
layer 1
 62
     7
370
     9
100
AcDbSpline
210
0.0
220
0.0
230
1.0
 70
    11
 71
     3
 72
    24
 73
    20
 74
     0
 42
0.0000000001
 43
0.0000000001
 12
1.0
 22
0.0
 32
0.0
 13
1.0
 23
0.0
 33
0.0
 40
0.0
 40
0.0
 40
0.0
 40
0.0
 40
0.1666666666666667
 40
0.1666666666666667
 40
0.1666666666666667
 40
0.1666666666666667
 40
0.3333333333333333
 40
0.3333333333333333
 40
0.3333333333333333
 40
0.3333333333333333
 40
0.5
 40
0.5
 40
0.5
 40
0.5
 40
0.6666666666666666
 40
0.6666666666666666
 40
0.6666666666666666
 40
0.6666666666666666
 40
1.0
 40
1.0
 40
1.0
 40
1.0
 10
-115.6958
 20
31.9282
 30
0.0
 10
-116.6414
 20
32.2545
 30
0.0
 10
-118.8463
 20
34.6358
 30
0.0
 10
-119.4046
 20
35.4721
 30
0.0
 10
-119.4046
 20
35.4721
 30
0.0
 10
-120.8371
 20
37.6175
 30
0.0
 10
-120.1454
 20
39.5594
 30
0.0
 10
-120.9948
 20
41.4399
 30
0.0
 10
-120.9948
 20
41.4399
 30
0.0
 10
-122.0396
 20
39.5228
 30
0.0
 10
-120.5242
 20
35.7241
 30
0.0
 10
-126.617
 20
30.0666
 30
0.0
 10
-126.617
 20
30.0666
 30
0.0
 10
-125.0245
 20
30.5546
 30
0.0
 10
-123.6625
 20
31.4174
 30
0.0
 10
-121.7372
 20
31.807
 30
0.0
 10
-121.7372
 20
31.807
 30
0.0
 10
-119.3939
 20
32.281
 30
0.0
 10
-117.6472
 20
31.7128
 30
0.0
 10
-115.6958
 20
31.9282
 30
0.0
  0
SPLINE
  5
94
330
1F
100
AcDbEntity
  8
layer 1
 62
     7
370
     9
100
AcDbSpline
210
0.0
220
0.0
230
1.0
 70
    11
 71
     3
 72
    28
 73
    24
 74
     0
 42
0.0000000001
 43
0.0000000001
 12
1.0
 22
0.0
 32
0.0
 13
1.0
 23
0.0
 33
0.0
 40
0.0
 40
0.0
 40
0.0
 40
0.0
 40
0.1428571428571428
 40
0.1428571428571428
 40
0.1428571428571428
 40
0.1428571428571428
 40
0.2857142857142857
 40
0.2857142857142857
 40
0.2857142857142857
 40
0.2857142857142857
 40
0.4285714285714285
 40
0.4285714285714285
 40
0.4285714285714285
 40
0.4285714285714285
 40
0.5714285714285714
 40
0.5714285714285714
 40
0.5714285714285714
 40
0.5714285714285714
 40
0.7142857142857143
 40
0.7142857142857143
 40
0.7142857142857143
 40
0.7142857142857143
 40
1.0
 40
1.0
 40
1.0
 40
1.0
 10
-155.1802
 20
25.5164
 30
0.0
 10
-155.7325
 20
26.6902
 30
0.0
 10
-157.2444
 20
27.5829
 30
0.0
 10
-158.2252
 20
28.4377
 30
0.0
 10
-158.2252
 20
28.4377
 30
0.0
 10
-159.1476
 20
29.2417
 30
0.0
 10
-160.0934
 20
30.4088
 30
0.0
 10
-160.9197
 20
31.5535
 30
0.0
 10
-160.9197
 20
31.5535
 30
0.0
 10
-164.5716
 20
36.6125
 30
0.0
 10
-163.1602
 20
35.7737
 30
0.0
 10
-164.8973
 20
38.9952
 30
0.0
 10
-164.8973
 20
38.9952
 30
0.0
 10
-164.8973
 20
38.9952
 30
0.0
 10
-164.8625
 20
18.6626
 30
0.0
 10
-164.8625
 20
18.6626
 30
0.0
 10
-164.8625
 20
18.6626
 30
0.0
 10
-163.5047
 20
20.5183
 30
0.0
 10
-163.2441
 20
21.9278
 30
0.0
 10
-161.2946
 20
23.3858
 30
0.0
 10
-161.2946
 20
23.3858
 30
0.0
 10
-159.719
 20
24.5644
 30
0.0
 10
-157.4414
 20
25.2243
 30
0.0
 10
-155.1802
 20
25.5164
 30
0.0
  0
SPLINE
  5
95
330
1F
100
AcDbEntity
  8
layer 1
 62
     7
370
     9
100
AcDbSpline
210
0.0
220
0.0
230
1.0
 70
    11
 71
     3
 72
    24
 73
    20
 74
     0
 42
0.0000000001
 43
0.0000000001
 12
1.0
 22
0.0
 32
0.0
 13
1.0
 23
0.0
 33
0.0
 40
0.0
 40
0.0
 40
0.0
 40
0.0
 40
0.1666666666666667
 40
0.1666666666666667
 40
0.1666666666666667
 40
0.1666666666666667
 40
0.3333333333333333
 40
0.3333333333333333
 40
0.3333333333333333
 40
0.3333333333333333
 40
0.5
 40
0.5
 40
0.5
 40
0.5
 40
0.6666666666666666
 40
0.6666666666666666
 40
0.6666666666666666
 40
0.6666666666666666
 40
1.0
 40
1.0
 40
1.0
 40
1.0
 10
12.4992
 20
38.9661
 30
0.0
 10
11.8534
 20
37.5408
 30
0.0
 10
11.5926
 20
36.2864
 30
0.0
 10
10.7857
 20
34.8751
 30
0.0
 10
10.7857
 20
34.8751
 30
0.0
 10
7.6556
 20
29.4011
 30
0.0
 10
3.3017
 20
26.42
 30
0.0
 10
2.919
 20
25.6077
 30
0.0
 10
2.919
 20
25.6077
 30
0.0
 10
5.3211
 20
24.6538
 30
0.0
 10
6.7312
 20
25.1058
 30
0.0
 10
8.924
 20
23.3955
 30
0.0
 10
8.924
 20
23.3955
 30
0.0
 10
11.3109
 20
21.5337
 30
0.0
 10
11.4932
 20
19.9564
 30
0.0
 10
12.5661
 20
18.6848
 30
0.0
 10
12.5661
 20
18.6848
 30
0.0
 10
12.5661
 20
18.6848
 30
0.0
 10
12.4992
 20
38.9661
 30
0.0
 10
12.4992
 20
38.9661
 30
0.0
  0
SPLINE
  5
96
330
1F
100
AcDbEntity
  8
layer 1
 62
     7
370
     9
100
AcDbSpline
210
0.0
220
0.0
230
1.0
 70
    11
 71
     3
 72
    40
 73
    36
 74
     0
 42
0.0000000001
 43
0.0000000001
 12
1.0
 22
0.0
 32
0.0
 13
1.0
 23
0.0
 33
0.0
 40
0.0
 40
0.0
 40
0.0
 40
0.0
 40
0.1
 40
0.1
 40
0.1
 40
0.1
 40
0.2
 40
0.2
 40
0.2
 40
0.2
 40
0.3
 40
0.3
 40
0.3
 40
0.3
 40
0.4
 40
0.4
 40
0.4
 40
0.4
 40
0.5
 40
0.5
 40
0.5
 40
0.5
 40
0.6
 40
0.6
 40
0.6
 40
0.6
 40
0.7
 40
0.7
 40
0.7
 40
0.7
 40
0.8
 40
0.8
 40
0.8
 40
0.8
 40
1.0
 40
1.0
 40
1.0
 40
1.0
 10
3.1721
 20
18.6724
 30
0.0
 10
3.123
 20
18.6421
 30
0.0
 10
-0.3787
 20
17.7402
 30
0.0
 10
2.6939
 20
15.4098
 30
0.0
 10
2.6939
 20
15.4098
 30
0.0
 10
8.0582
 20
11.3411
 30
0.0
 10
10.8284
 20
20.2971
 30
0.0
 10
2.7947
 20
22.2152
 30
0.0
 10
2.7947
 20
22.2152
 30
0.0
 10
-0.5229
 20
23.0074
 30
0.0
 10
-5.5157
 20
22.2426
 30
0.0
 10
-9.2395
 20
22.6014
 30
0.0
 10
-9.2395
 20
22.6014
 30
0.0
 10
-14.0579
 20
23.0656
 30
0.0
 10
-16.1746
 20
24.4839
 30
0.0
 10
-18.922
 20
25.0097
 30
0.0
 10
-18.922
 20
25.0097
 30
0.0
 10
-16.6183
 20
22.7105
 30
0.0
 10
-14.8088
 20
21.3892
 30
0.0
 10
-12.1167
 20
18.5771
 30
0.0
 10
-12.1167
 20
18.5771
 30
0.0
 10
-11.3784
 20
17.8057
 30
0.0
 10
-10.75
 20
17.0146
 30
0.0
 10
-10.0114
 20
16.3924
 30
0.0
 10
-10.0114
 20
16.3924
 30
0.0
 10
-8.4884
 20
15.1094
 30
0.0
 10
-1.9188
 20
9.8803
 30
0.0
 10
1.3311
 20
10.9103
 30
0.0
 10
1.3311
 20
10.9103
 30
0.0
 10
-0.5905
 20
12.1246
 30
0.0
 10
-3.2591
 20
13.3665
 30
0.0
 10
-2.6215
 20
16.8526
 30
0.0
 10
-2.6215
 20
16.8526
 30
0.0
 10
-1.9959
 20
20.2726
 30
0.0
 10
1.6476
 20
20.3561
 30
0.0
 10
3.1721
 20
18.6724
 30
0.0
  0
SPLINE
  5
97
330
1F
100
AcDbEntity
  8
layer 1
 62
     7
370
     9
100
AcDbSpline
210
0.0
220
0.0
230
1.0
 70
    11
 71
     3
 72
    40
 73
    36
 74
     0
 42
0.0000000001
 43
0.0000000001
 12
1.0
 22
0.0
 32
0.0
 13
1.0
 23
0.0
 33
0.0
 40
0.0
 40
0.0
 40
0.0
 40
0.0
 40
0.1
 40
0.1
 40
0.1
 40
0.1
 40
0.2
 40
0.2
 40
0.2
 40
0.2
 40
0.3
 40
0.3
 40
0.3
 40
0.3
 40
0.4
 40
0.4
 40
0.4
 40
0.4
 40
0.5
 40
0.5
 40
0.5
 40
0.5
 40
0.6
 40
0.6
 40
0.6
 40
0.6
 40
0.7
 40
0.7
 40
0.7
 40
0.7
 40
0.8
 40
0.8
 40
0.8
 40
0.8
 40
1.0
 40
1.0
 40
1.0
 40
1.0
 10
-153.6741
 20
10.8201
 30
0.0
 10
-149.6004
 20
10.6934
 30
0.0
 10
-144.0599
 20
14.6159
 30
0.0
 10
-142.2242
 20
16.4988
 30
0.0
 10
-142.2242
 20
16.4988
 30
0.0
 10
-142.2242
 20
16.4988
 30
0.0
 10
-133.4136
 20
25.0171
 30
0.0
 10
-133.4136
 20
25.0171
 30
0.0
 10
-133.4136
 20
25.0171
 30
0.0
 10
-136.8381
 20
24.1842
 30
0.0
 10
-139.3327
 20
22.9326
 30
0.0
 10
-143.3489
 20
22.5783
 30
0.0
 10
-143.3489
 20
22.5783
 30
0.0
 10
-146.972
 20
22.2586
 30
0.0
 10
-151.9411
 20
22.9988
 30
0.0
 10
-155.17
 20
22.2039
 30
0.0
 10
-155.17
 20
22.2039
 30
0.0
 10
-157.6874
 20
21.5838
 30
0.0
 10
-162.1679
 20
18.4387
 30
0.0
 10
-159.5399
 20
15.2691
 30
0.0
 10
-159.5399
 20
15.2691
 30
0.0
 10
-158.4163
 20
13.9143
 30
0.0
 10
-156.1447
 20
14.5596
 30
0.0
 10
-154.9017
 20
15.4891
 30
0.0
 10
-154.9017
 20
15.4891
 30
0.0
 10
-151.9592
 20
17.6896
 30
0.0
 10
-155.5101
 20
18.6697
 30
0.0
 10
-155.5146
 20
18.6724
 30
0.0
 10
-155.5146
 20
18.6724
 30
0.0
 10
-153.4728
 20
20.7406
 30
0.0
 10
-150.1029
 20
19.851
 30
0.0
 10
-149.659
 20
16.5066
 30
0.0
 10
-149.659
 20
16.5066
 30
0.0
 10
-149.2163
 20
13.1712
 30
0.0
 10
-151.8766
 20
12.1805
 30
0.0
 10
-153.6741
 20
10.8201
 30
0.0
  0
SPLINE
  5
98
330
1F
100
AcDbEntity
  8
layer 1
 62
     7
370
     9
100
AcDbSpline
210
0.0
220
0.0
230
1.0
 70
    11
 71
     3
 72
    20
 73
    16
 74
     0
 42
0.0000000001
 43
0.0000000001
 12
1.0
 22
0.0
 32
0.0
 13
1.0
 23
0.0
 33
0.0
 40
0.0
 40
0.0
 40
0.0
 40
0.0
 40
0.2
 40
0.2
 40
0.2
 40
0.2
 40
0.4
 40
0.4
 40
0.4
 40
0.4
 40
0.6
 40
0.6
 40
0.6
 40
0.6
 40
1.0
 40
1.0
 40
1.0
 40
1.0
 10
-48.9965
 20
22.7822
 30
0.0
 10
-49.3211
 20
23.3853
 30
0.0
 10
-54.9343
 20
30.2547
 30
0.0
 10
-55.465
 20
30.6585
 30
0.0
 10
-55.465
 20
30.6585
 30
0.0
 10
-56.2524
 20
29.9819
 30
0.0
 10
-63.1248
 20
21.1125
 30
0.0
 10
-63.4496
 20
20.2136
 30
0.0
 10
-63.4496
 20
20.2136
 30
0.0
 10
-62.8708
 20
19.3236
 30
0.0
 10
-57.4419
 20
12.4335
 30
0.0
 10
-56.9544
 20
12.1054
 30
0.0
 10
-56.9544
 20
12.1054
 30
0.0
 10
-56.2281
 20
12.7384
 30
0.0
 10
-49.3844
 20
21.9277
 30
0.0
 10
-48.9965
 20
22.7822
 30
0.0
  0
SPLINE
  5
99
330
1F
100
AcDbEntity
  8
layer 1
 62
     7
370
     9
100
AcDbSpline
210
0.0
220
0.0
230
1.0
 70
    11
 71
     3
 72
    24
 73
    20
 74
     0
 42
0.0000000001
 43
0.0000000001
 12
1.0
 22
0.0
 32
0.0
 13
1.0
 23
0.0
 33
0.0
 40
0.0
 40
0.0
 40
0.0
 40
0.0
 40
0.1666666666666667
 40
0.1666666666666667
 40
0.1666666666666667
 40
0.1666666666666667
 40
0.3333333333333333
 40
0.3333333333333333
 40
0.3333333333333333
 40
0.3333333333333333
 40
0.5
 40
0.5
 40
0.5
 40
0.5
 40
0.6666666666666666
 40
0.6666666666666666
 40
0.6666666666666666
 40
0.6666666666666666
 40
1.0
 40
1.0
 40
1.0
 40
1.0
 10
-88.8228
 20
20.2491
 30
0.0
 10
-89.2246
 20
21.1271
 30
0.0
 10
-96.2665
 20
30.19
 30
0.0
 10
-96.9536
 20
30.7191
 30
0.0
 10
-96.9536
 20
30.7191
 30
0.0
 10
-97.9591
 20
29.4206
 30
0.0
 10
-99.1705
 20
28.0882
 30
0.0
 10
-100.2095
 20
26.704
 30
0.0
 10
-100.2095
 20
26.704
 30
0.0
 10
-101.2118
 20
25.3689
 30
0.0
 10
-102.5128
 20
24.1237
 30
0.0
 10
-103.3309
 20
22.7822
 30
0.0
 10
-103.3309
 20
22.7822
 30
0.0
 10
-103.3309
 20
22.7822
 30
0.0
 10
-95.4253
 20
12.0691
 30
0.0
 10
-95.4253
 20
12.0691
 30
0.0
 10
-95.4253
 20
12.0691
 30
0.0
 10
-95.4253
 20
12.0691
 30
0.0
 10
-88.8228
 20
20.2491
 30
0.0
 10
-88.8228
 20
20.2491
 30
0.0
  0
SPLINE
  5
9A
330
1F
100
AcDbEntity
  8
layer 1
 62
     7
370
     9
100
AcDbSpline
210
0.0
220
0.0
230
1.0
 70
    11
 71
     3
 72
    24
 73
    20
 74
     0
 42
0.0000000001
 43
0.0000000001
 12
1.0
 22
0.0
 32
0.0
 13
1.0
 23
0.0
 33
0.0
 40
0.0
 40
0.0
 40
0.0
 40
0.0
 40
0.1666666666666667
 40
0.1666666666666667
 40
0.1666666666666667
 40
0.1666666666666667
 40
0.3333333333333333
 40
0.3333333333333333
 40
0.3333333333333333
 40
0.3333333333333333
 40
0.5
 40
0.5
 40
0.5
 40
0.5
 40
0.6666666666666666
 40
0.6666666666666666
 40
0.6666666666666666
 40
0.6666666666666666
 40
1.0
 40
1.0
 40
1.0
 40
1.0
 10
-7.1129
 20
9.2428
 30
0.0
 10
-8.4786
 20
10.185
 30
0.0
 10
-10.1841
 20
11.1928
 30
0.0
 10
-11.4037
 20
12.1253
 30
0.0
 10
-11.4037
 20
12.1253
 30
0.0
 10
-17.7772
 20
16.9979
 30
0.0
 10
-23.8828
 20
25.9701
 30
0.0
 10
-32.4106
 20
27.1089
 30
0.0
 10
-32.4106
 20
27.1089
 30
0.0
 10
-37.566
 20
27.7972
 30
0.0
 10
-39.9415
 20
24.9964
 30
0.0
 10
-41.9552
 20
22.5254
 30
0.0
 10
-41.9552
 20
22.5254
 30
0.0
 10
-40.2918
 20
19.3319
 30
0.0
 10
-32.2399
 20
14.6902
 30
0.0
 10
-27.7935
 20
12.3741
 30
0.0
 10
-27.7935
 20
12.3741
 30
0.0
 10
-22.3427
 20
9.5351
 30
0.0
 10
-13.956
 20
8.8979
 30
0.0
 10
-7.1129
 20
9.2428
 30
0.0
  0
SPLINE
  5
9B
330
1F
100
AcDbEntity
  8
layer 1
 62
     7
370
     9
100
AcDbSpline
210
0.0
220
0.0
230
1.0
 70
    11
 71
     3
 72
    40
 73
    36
 74
     0
 42
0.0000000001
 43
0.0000000001
 12
1.0
 22
0.0
 32
0.0
 13
1.0
 23
0.0
 33
0.0
 40
0.0
 40
0.0
 40
0.0
 40
0.0
 40
0.1
 40
0.1
 40
0.1
 40
0.1
 40
0.2
 40
0.2
 40
0.2
 40
0.2
 40
0.3
 40
0.3
 40
0.3
 40
0.3
 40
0.4
 40
0.4
 40
0.4
 40
0.4
 40
0.5
 40
0.5
 40
0.5
 40
0.5
 40
0.6
 40
0.6
 40
0.6
 40
0.6
 40
0.7
 40
0.7
 40
0.7
 40
0.7
 40
0.8
 40
0.8
 40
0.8
 40
0.8
 40
1.0
 40
1.0
 40
1.0
 40
1.0
 10
-110.3786
 20
22.5254
 30
0.0
 10
-112.1212
 20
25.0464
 30
0.0
 10
-115.2151
 20
27.8294
 30
0.0
 10
-120.1752
 20
27.0757
 30
0.0
 10
-120.1752
 20
27.0757
 30
0.0
 10
-125.6908
 20
26.2377
 30
0.0
 10
-129.5859
 20
22.3685
 30
0.0
 10
-133.6218
 20
18.8936
 30
0.0
 10
-133.6218
 20
18.8936
 30
0.0
 10
-134.9161
 20
17.7793
 30
0.0
 10
-135.903
 20
16.5553
 30
0.0
 10
-137.2157
 20
15.4206
 30
0.0
 10
-137.2157
 20
15.4206
 30
0.0
 10
-137.2157
 20
15.4206
 30
0.0
 10
-141.1098
 20
12.0029
 30
0.0
 10
-141.1098
 20
12.0029
 30
0.0
 10
-141.1098
 20
12.0029
 30
0.0
 10
-142.3993
 20
10.9981
 30
0.0
 10
-143.7985
 20
10.236
 30
0.0
 10
-145.2448
 20
9.2716
 30
0.0
 10
-145.2448
 20
9.2716
 30
0.0
 10
-142.6119
 20
8.9961
 30
0.0
 10
-136.3567
 20
9.3568
 30
0.0
 10
-133.6543
 20
9.6666
 30
0.0
 10
-133.6543
 20
9.6666
 30
0.0
 10
-127.128
 20
10.4143
 30
0.0
 10
-122.105
 20
13.4157
 30
0.0
 10
-116.7985
 20
16.8951
 30
0.0
 10
-116.7985
 20
16.8951
 30
0.0
 10
-115.5257
 20
17.7296
 30
0.0
 10
-114.4932
 20
18.431
 30
0.0
 10
-113.2701
 20
19.41
 30
0.0
 10
-113.2701
 20
19.41
 30
0.0
 10
-112.3429
 20
20.1523
 30
0.0
 10
-110.8229
 20
21.4742
 30
0.0
 10
-110.3786
 20
22.5254
 30
0.0
  0
SPLINE
  5
9C
330
1F
100
AcDbEntity
  8
layer 1
 62
     7
370
     9
100
AcDbSpline
210
0.0
220
0.0
230
1.0
 70
    11
 71
     3
 72
    20
 73
    16
 74
     0
 42
0.0000000001
 43
0.0000000001
 12
1.0
 22
0.0
 32
0.0
 13
1.0
 23
0.0
 33
0.0
 40
0.0
 40
0.0
 40
0.0
 40
0.0
 40
0.2
 40
0.2
 40
0.2
 40
0.2
 40
0.4
 40
0.4
 40
0.4
 40
0.4
 40
0.6
 40
0.6
 40
0.6
 40
0.6
 40
1.0
 40
1.0
 40
1.0
 40
1.0
 10
12.545
 20
12.8347
 30
0.0
 10
11.9956
 20
12.2418
 30
0.0
 10
11.7818
 20
11.6064
 30
0.0
 10
11.2826
 20
10.9875
 30
0.0
 10
11.2826
 20
10.9875
 30
0.0
 10
10.7784
 20
10.3623
 30
0.0
 10
10.4713
 20
10.3321
 30
0.0
 10
9.9529
 20
9.682
 30
0.0
 10
9.9529
 20
9.682
 30
0.0
 10
10.1694
 20
9.5531
 30
0.0
 10
12.2057
 20
8.8056
 30
0.0
 10
12.5668
 20
8.671
 30
0.0
 10
12.5668
 20
8.671
 30
0.0
 10
12.5668
 20
8.671
 30
0.0
 10
12.545
 20
12.8347
 30
0.0
 10
12.545
 20
12.8347
 30
0.0
  0
SPLINE
  5
9D
330
1F
100
AcDbEntity
  8
layer 1
 62
     7
370
     9
100
AcDbSpline
210
0.0
220
0.0
230
1.0
 70
    11
 71
     3
 72
    16
 73
    12
 74
     0
 42
0.0000000001
 43
0.0000000001
 12
1.0
 22
0.0
 32
0.0
 13
1.0
 23
0.0
 33
0.0
 40
0.0
 40
0.0
 40
0.0
 40
0.0
 40
0.25
 40
0.25
 40
0.25
 40
0.25
 40
0.5
 40
0.5
 40
0.5
 40
0.5
 40
1.0
 40
1.0
 40
1.0
 40
1.0
 10
-162.3748
 20
9.682
 30
0.0
 10
-162.7617
 20
10.3647
 30
0.0
 10
-163.2258
 20
10.318
 30
0.0
 10
-164.882
 20
12.9318
 30
0.0
 10
-164.882
 20
12.9318
 30
0.0
 10
-164.882
 20
12.9318
 30
0.0
 10
-164.9032
 20
8.711
 30
0.0
 10
-164.9032
 20
8.711
 30
0.0
 10
-164.9032
 20
8.711
 30
0.0
 10
-164.9032
 20
8.711
 30
0.0
 10
-162.3748
 20
9.682
 30
0.0
 10
-162.3748
 20
9.682
 30
0.0
  0
SPLINE
  5
9E
330
1F
100
AcDbEntity
  8
layer 1
 62
     7
370
     9
100
AcDbSpline
210
0.0
220
0.0
230
1.0
 70
    11
 71
     3
 72
    16
 73
    12
 74
     0
 42
0.0000000001
 43
0.0000000001
 12
1.0
 22
0.0
 32
0.0
 13
1.0
 23
0.0
 33
0.0
 40
0.0
 40
0.0
 40
0.0
 40
0.0
 40
0.25
 40
0.25
 40
0.25
 40
0.25
 40
0.5
 40
0.5
 40
0.5
 40
0.5
 40
1.0
 40
1.0
 40
1.0
 40
1.0
 10
-162.3748
 20
4.4763
 30
0.0
 10
-162.7617
 20
3.7937
 30
0.0
 10
-163.2258
 20
3.8402
 30
0.0
 10
-164.882
 20
1.2266
 30
0.0
 10
-164.882
 20
1.2266
 30
0.0
 10
-164.882
 20
1.2266
 30
0.0
 10
-164.9032
 20
5.4472
 30
0.0
 10
-164.9032
 20
5.4472
 30
0.0
 10
-164.9032
 20
5.4472
 30
0.0
 10
-164.9032
 20
5.4472
 30
0.0
 10
-162.3748
 20
4.4763
 30
0.0
 10
-162.3748
 20
4.4763
 30
0.0
  0
SPLINE
  5
9F
330
1F
100
AcDbEntity
  8
layer 1
 62
     7
370
     9
100
AcDbSpline
210
0.0
220
0.0
230
1.0
 70
    11
 71
     3
 72
    44
 73
    40
 74
     0
 42
0.0000000001
 43
0.0000000001
 12
1.0
 22
0.0
 32
0.0
 13
1.0
 23
0.0
 33
0.0
 40
0.0
 40
0.0
 40
0.0
 40
0.0
 40
0.0909090909090909
 40
0.0909090909090909
 40
0.0909090909090909
 40
0.0909090909090909
 40
0.1818181818181818
 40
0.1818181818181818
 40
0.1818181818181818
 40
0.1818181818181818
 40
0.2727272727272727
 40
0.2727272727272727
 40
0.2727272727272727
 40
0.2727272727272727
 40
0.3636363636363636
 40
0.3636363636363636
 40
0.3636363636363636
 40
0.3636363636363636
 40
0.4545454545454545
 40
0.4545454545454545
 40
0.4545454545454545
 40
0.4545454545454545
 40
0.5454545454545454
 40
0.5454545454545454
 40
0.5454545454545454
 40
0.5454545454545454
 40
0.6363636363636364
 40
0.6363636363636364
 40
0.6363636363636364
 40
0.6363636363636364
 40
0.7272727272727273
 40
0.7272727272727273
 40
0.7272727272727273
 40
0.7272727272727273
 40
0.8181818181818182
 40
0.8181818181818182
 40
0.8181818181818182
 40
0.8181818181818182
 40
1.0
 40
1.0
 40
1.0
 40
1.0
 10
-28.2637
 20
7.0792
 30
0.0
 10
-29.2228
 20
7.7011
 30
0.0
 10
-29.5556
 20
7.7918
 30
0.0
 10
-30.593
 20
8.1849
 30
0.0
 10
-30.593
 20
8.1849
 30
0.0
 10
-33.1382
 20
9.1493
 30
0.0
 10
-35.53
 20
10.3269
 30
0.0
 10
-37.7743
 20
11.8047
 30
0.0
 10
-37.7743
 20
11.8047
 30
0.0
 10
-40.8846
 20
13.8527
 30
0.0
 10
-43.6116
 20
15.9651
 30
0.0
 10
-45.4678
 20
18.4306
 30
0.0
 10
-45.4678
 20
18.4306
 30
0.0
 10
-46.3107
 20
17.9268
 30
0.0
 10
-49.2473
 20
13.7224
 30
0.0
 10
-49.8523
 20
12.8617
 30
0.0
 10
-49.8523
 20
12.8617
 30
0.0
 10
-50.7787
 20
11.5432
 30
0.0
 10
-53.1857
 20
8.6712
 30
0.0
 10
-53.8553
 20
7.0792
 30
0.0
 10
-53.8553
 20
7.0792
 30
0.0
 10
-53.1857
 20
5.487
 30
0.0
 10
-50.7787
 20
2.6151
 30
0.0
 10
-49.8523
 20
1.2967
 30
0.0
 10
-49.8523
 20
1.2967
 30
0.0
 10
-49.2473
 20
0.4359
 30
0.0
 10
-46.3107
 20
-3.7685
 30
0.0
 10
-45.4678
 20
-4.2724
 30
0.0
 10
-45.4678
 20
-4.2724
 30
0.0
 10
-43.6116
 20
-1.8067
 30
0.0
 10
-40.8846
 20
0.3055
 30
0.0
 10
-37.7743
 20
2.3536
 30
0.0
 10
-37.7743
 20
2.3536
 30
0.0
 10
-35.53
 20
3.8314
 30
0.0
 10
-33.1382
 20
5.009
 30
0.0
 10
-30.593
 20
5.9736
 30
0.0
 10
-30.593
 20
5.9736
 30
0.0
 10
-29.5555
 20
6.3666
 30
0.0
 10
-29.2229
 20
6.4571
 30
0.0
 10
-28.2637
 20
7.0792
 30
0.0
  0
SPLINE
  5
A0
330
1F
100
AcDbEntity
  8
layer 1
 62
     7
370
     9
100
AcDbSpline
210
0.0
220
0.0
230
1.0
 70
    11
 71
     3
 72
    36
 73
    32
 74
     0
 42
0.0000000001
 43
0.0000000001
 12
1.0
 22
0.0
 32
0.0
 13
1.0
 23
0.0
 33
0.0
 40
0.0
 40
0.0
 40
0.0
 40
0.0
 40
0.1111111111111111
 40
0.1111111111111111
 40
0.1111111111111111
 40
0.1111111111111111
 40
0.2222222222222222
 40
0.2222222222222222
 40
0.2222222222222222
 40
0.2222222222222222
 40
0.3333333333333333
 40
0.3333333333333333
 40
0.3333333333333333
 40
0.3333333333333333
 40
0.4444444444444444
 40
0.4444444444444444
 40
0.4444444444444444
 40
0.4444444444444444
 40
0.5555555555555556
 40
0.5555555555555556
 40
0.5555555555555556
 40
0.5555555555555556
 40
0.6666666666666666
 40
0.6666666666666666
 40
0.6666666666666666
 40
0.6666666666666666
 40
0.7777777777777778
 40
0.7777777777777778
 40
0.7777777777777778
 40
0.7777777777777778
 40
1.0
 40
1.0
 40
1.0
 40
1.0
 10
-76.5395
 20
-71.5158
 30
0.0
 10
-76.5395
 20
-71.5158
 30
0.0
 10
-77.3104
 20
-71.5158
 30
0.0
 10
-77.3104
 20
-71.5158
 30
0.0
 10
-77.3104
 20
-71.5158
 30
0.0
 10
-77.3104
 20
-71.5158
 30
0.0
 10
-80.1917
 20
-79.1061
 30
0.0
 10
-80.1917
 20
-79.1061
 30
0.0
 10
-80.1917
 20
-79.1061
 30
0.0
 10
-81.1032
 20
-81.1198
 30
0.0
 10
-83.2138
 20
-84.4832
 30
0.0
 10
-83.7053
 20
-86.2094
 30
0.0
 10
-83.7053
 20
-86.2094
 30
0.0
 10
-77.3381
 20
-91.9001
 30
0.0
 10
-77.3958
 20
-96.7871
 30
0.0
 10
-76.1195
 20
-99.0077
 30
0.0
 10
-76.1195
 20
-99.0077
 30
0.0
 10
-74.2975
 20
-92.7656
 30
0.0
 10
-72.2292
 20
-89.3259
 30
0.0
 10
-68.6226
 20
-86.2675
 30
0.0
 10
-68.6226
 20
-86.2675
 30
0.0
 10
-69.0893
 20
-84.6706
 30
0.0
 10
-71.1943
 20
-81.0029
 30
0.0
 10
-72.056
 20
-79.2235
 30
0.0
 10
-72.056
 20
-79.2235
 30
0.0
 10
-73.0781
 20
-77.1137
 30
0.0
 10
-74.4441
 20
-74.0305
 30
0.0
 10
-74.8431
 20
-71.5273
 30
0.0
 10
-74.8431
 20
-71.5273
 30
0.0
 10
-74.8431
 20
-71.5273
 30
0.0
 10
-76.5395
 20
-71.5158
 30
0.0
 10
-76.5395
 20
-71.5158
 30
0.0
  0
SPLINE
  5
A1
330
1F
100
AcDbEntity
  8
layer 1
 62
     7
370
     9
100
AcDbSpline
210
0.0
220
0.0
230
1.0
 70
    11
 71
     3
 72
    28
 73
    24
 74
     0
 42
0.0000000001
 43
0.0000000001
 12
1.0
 22
0.0
 32
0.0
 13
1.0
 23
0.0
 33
0.0
 40
0.0
 40
0.0
 40
0.0
 40
0.0
 40
0.1428571428571428
 40
0.1428571428571428
 40
0.1428571428571428
 40
0.1428571428571428
 40
0.2857142857142857
 40
0.2857142857142857
 40
0.2857142857142857
 40
0.2857142857142857
 40
0.4285714285714285
 40
0.4285714285714285
 40
0.4285714285714285
 40
0.4285714285714285
 40
0.5714285714285714
 40
0.5714285714285714
 40
0.5714285714285714
 40
0.5714285714285714
 40
0.7142857142857143
 40
0.7142857142857143
 40
0.7142857142857143
 40
0.7142857142857143
 40
1.0
 40
1.0
 40
1.0
 40
1.0
 10
-69.2335
 20
-43.624
 30
0.0
 10
-69.2335
 20
-43.624
 30
0.0
 10
-69.2335
 20
-66.5149
 30
0.0
 10
-69.2335
 20
-66.5149
 30
0.0
 10
-69.2335
 20
-66.5149
 30
0.0
 10
-69.2335
 20
-66.7739
 30
0.0
 10
-69.2526
 20
-67.0285
 30
0.0
 10
-69.2891
 20
-67.2773
 30
0.0
 10
-69.2891
 20
-67.2773
 30
0.0
 10
-64.6212
 20
-65.5769
 30
0.0
 10
-60.4151
 20
-61.1941
 30
0.0
 10
-59.8447
 20
-55.8199
 30
0.0
 10
-59.8447
 20
-55.8199
 30
0.0
 10
-59.2029
 20
-49.7726
 30
0.0
 10
-62.8205
 20
-41.9182
 30
0.0
 10
-65.6421
 20
-38.6726
 30
0.0
 10
-65.6421
 20
-38.6726
 30
0.0
 10
-66.4608
 20
-39.1754
 30
0.0
 10
-67.2394
 20
-40.577
 30
0.0
 10
-67.7713
 20
-41.354
 30
0.0
 10
-67.7713
 20
-41.354
 30
0.0
 10
-68.3462
 20
-42.1941
 30
0.0
 10
-68.7693
 20
-42.8332
 30
0.0
 10
-69.2335
 20
-43.624
 30
0.0
  0
SPLINE
  5
A2
330
1F
100
AcDbEntity
  8
layer 1
 62
     7
370
     9
100
AcDbSpline
210
0.0
220
0.0
230
1.0
 70
    11
 71
     3
 72
    36
 73
    32
 74
     0
 42
0.0000000001
 43
0.0000000001
 12
1.0
 22
0.0
 32
0.0
 13
1.0
 23
0.0
 33
0.0
 40
0.0
 40
0.0
 40
0.0
 40
0.0
 40
0.1111111111111111
 40
0.1111111111111111
 40
0.1111111111111111
 40
0.1111111111111111
 40
0.2222222222222222
 40
0.2222222222222222
 40
0.2222222222222222
 40
0.2222222222222222
 40
0.3333333333333333
 40
0.3333333333333333
 40
0.3333333333333333
 40
0.3333333333333333
 40
0.4444444444444444
 40
0.4444444444444444
 40
0.4444444444444444
 40
0.4444444444444444
 40
0.5555555555555556
 40
0.5555555555555556
 40
0.5555555555555556
 40
0.5555555555555556
 40
0.6666666666666666
 40
0.6666666666666666
 40
0.6666666666666666
 40
0.6666666666666666
 40
0.7777777777777778
 40
0.7777777777777778
 40
0.7777777777777778
 40
0.7777777777777778
 40
1.0
 40
1.0
 40
1.0
 40
1.0
 10
-69.2335
 20
-13.9914
 30
0.0
 10
-69.2335
 20
-13.9914
 30
0.0
 10
-69.2335
 20
-24.5009
 30
0.0
 10
-69.2335
 20
-24.5009
 30
0.0
 10
-69.2335
 20
-24.5009
 30
0.0
 10
-69.2335
 20
-24.5009
 30
0.0
 10
-65.3938
 20
-29.3747
 30
0.0
 10
-65.3938
 20
-29.3747
 30
0.0
 10
-65.3938
 20
-29.3747
 30
0.0
 10
-65.3938
 20
-29.3747
 30
0.0
 10
-62.17
 20
-25.3199
 30
0.0
 10
-62.17
 20
-25.3199
 30
0.0
 10
-62.17
 20
-25.3199
 30
0.0
 10
-61.1289
 20
-23.9805
 30
0.0
 10
-60.111
 20
-22.425
 30
0.0
 10
-58.9619
 20
-21.2396
 30
0.0
 10
-58.9619
 20
-21.2396
 30
0.0
 10
-59.2202
 20
-20.4524
 30
0.0
 10
-66.1277
 20
-11.745
 30
0.0
 10
-66.8831
 20
-11.1171
 30
0.0
 10
-66.8831
 20
-11.1171
 30
0.0
 10
-67.1975
 20
-11.3475
 30
0.0
 10
-67.0145
 20
-11.1978
 30
0.0
 10
-67.3067
 20
-11.5106
 30
0.0
 10
-67.3067
 20
-11.5106
 30
0.0
 10
-67.3067
 20
-11.5106
 30
0.0
 10
-68.5318
 20
-13.0833
 30
0.0
 10
-68.5318
 20
-13.0833
 30
0.0
 10
-68.5318
 20
-13.0833
 30
0.0
 10
-68.7169
 20
-13.3289
 30
0.0
 10
-68.9581
 20
-13.6397
 30
0.0
 10
-69.2335
 20
-13.9914
 30
0.0
  0
SPLINE
  5
A3
330
1F
100
AcDbEntity
  8
layer 1
 62
     7
370
     9
100
AcDbSpline
210
0.0
220
0.0
230
1.0
 70
    11
 71
     3
 72
    24
 73
    20
 74
     0
 42
0.0000000001
 43
0.0000000001
 12
1.0
 22
0.0
 32
0.0
 13
1.0
 23
0.0
 33
0.0
 40
0.0
 40
0.0
 40
0.0
 40
0.0
 40
0.1666666666666667
 40
0.1666666666666667
 40
0.1666666666666667
 40
0.1666666666666667
 40
0.3333333333333333
 40
0.3333333333333333
 40
0.3333333333333333
 40
0.3333333333333333
 40
0.5
 40
0.5
 40
0.5
 40
0.5
 40
0.6666666666666666
 40
0.6666666666666666
 40
0.6666666666666666
 40
0.6666666666666666
 40
1.0
 40
1.0
 40
1.0
 40
1.0
 10
-69.2335
 20
13.0983
 30
0.0
 10
-69.2335
 20
13.0983
 30
0.0
 10
-69.2335
 20
1.0601
 30
0.0
 10
-69.2335
 20
1.0601
 30
0.0
 10
-69.2335
 20
1.0601
 30
0.0
 10
-68.0319
 20
-0.4784
 30
0.0
 10
-66.971
 20
-1.7684
 30
0.0
 10
-66.6349
 20
-2.012
 30
0.0
 10
-66.6349
 20
-2.012
 30
0.0
 10
-65.7404
 20
-0.7786
 30
0.0
 10
-60.2243
 20
6.234
 30
0.0
 10
-60.2997
 20
7.0792
 30
0.0
 10
-60.2997
 20
7.0792
 30
0.0
 10
-60.2243
 20
7.9242
 30
0.0
 10
-65.7404
 20
14.9369
 30
0.0
 10
-66.6349
 20
16.1704
 30
0.0
 10
-66.6349
 20
16.1704
 30
0.0
 10
-66.971
 20
15.9267
 30
0.0
 10
-68.0319
 20
14.6368
 30
0.0
 10
-69.2335
 20
13.0983
 30
0.0
  0
SPLINE
  5
A4
330
1F
100
AcDbEntity
  8
layer 1
 62
     7
370
     9
100
AcDbSpline
210
0.0
220
0.0
230
1.0
 70
    11
 71
     3
 72
    36
 73
    32
 74
     0
 42
0.0000000001
 43
0.0000000001
 12
1.0
 22
0.0
 32
0.0
 13
1.0
 23
0.0
 33
0.0
 40
0.0
 40
0.0
 40
0.0
 40
0.0
 40
0.1111111111111111
 40
0.1111111111111111
 40
0.1111111111111111
 40
0.1111111111111111
 40
0.2222222222222222
 40
0.2222222222222222
 40
0.2222222222222222
 40
0.2222222222222222
 40
0.3333333333333333
 40
0.3333333333333333
 40
0.3333333333333333
 40
0.3333333333333333
 40
0.4444444444444444
 40
0.4444444444444444
 40
0.4444444444444444
 40
0.4444444444444444
 40
0.5555555555555556
 40
0.5555555555555556
 40
0.5555555555555556
 40
0.5555555555555556
 40
0.6666666666666666
 40
0.6666666666666666
 40
0.6666666666666666
 40
0.6666666666666666
 40
0.7777777777777778
 40
0.7777777777777778
 40
0.7777777777777778
 40
0.7777777777777778
 40
1.0
 40
1.0
 40
1.0
 40
1.0
 10
-69.2335
 20
38.6592
 30
0.0
 10
-69.2335
 20
38.6592
 30
0.0
 10
-69.2335
 20
28.1497
 30
0.0
 10
-69.2335
 20
28.1497
 30
0.0
 10
-69.2335
 20
28.1497
 30
0.0
 10
-68.9581
 20
27.798
 30
0.0
 10
-68.7169
 20
27.4872
 30
0.0
 10
-68.5318
 20
27.2415
 30
0.0
 10
-68.5318
 20
27.2415
 30
0.0
 10
-68.5318
 20
27.2415
 30
0.0
 10
-67.3067
 20
25.6688
 30
0.0
 10
-67.3067
 20
25.6688
 30
0.0
 10
-67.3067
 20
25.6688
 30
0.0
 10
-67.0145
 20
25.3562
 30
0.0
 10
-67.1975
 20
25.5059
 30
0.0
 10
-66.8831
 20
25.2753
 30
0.0
 10
-66.8831
 20
25.2753
 30
0.0
 10
-66.1277
 20
25.9033
 30
0.0
 10
-59.2202
 20
34.6106
 30
0.0
 10
-58.9619
 20
35.3979
 30
0.0
 10
-58.9619
 20
35.3979
 30
0.0
 10
-60.111
 20
36.5833
 30
0.0
 10
-61.1289
 20
38.1389
 30
0.0
 10
-62.17
 20
39.4783
 30
0.0
 10
-62.17
 20
39.4783
 30
0.0
 10
-62.17
 20
39.4783
 30
0.0
 10
-65.3938
 20
43.5332
 30
0.0
 10
-65.3938
 20
43.5332
 30
0.0
 10
-65.3938
 20
43.5332
 30
0.0
 10
-65.3938
 20
43.5332
 30
0.0
 10
-69.2335
 20
38.6592
 30
0.0
 10
-69.2335
 20
38.6592
 30
0.0
  0
SPLINE
  5
A5
330
1F
100
AcDbEntity
  8
layer 1
 62
     7
370
     9
100
AcDbSpline
210
0.0
220
0.0
230
1.0
 70
    11
 71
     3
 72
    28
 73
    24
 74
     0
 42
0.0000000001
 43
0.0000000001
 12
1.0
 22
0.0
 32
0.0
 13
1.0
 23
0.0
 33
0.0
 40
0.0
 40
0.0
 40
0.0
 40
0.0
 40
0.1428571428571428
 40
0.1428571428571428
 40
0.1428571428571428
 40
0.1428571428571428
 40
0.2857142857142857
 40
0.2857142857142857
 40
0.2857142857142857
 40
0.2857142857142857
 40
0.4285714285714285
 40
0.4285714285714285
 40
0.4285714285714285
 40
0.4285714285714285
 40
0.5714285714285714
 40
0.5714285714285714
 40
0.5714285714285714
 40
0.5714285714285714
 40
0.7142857142857143
 40
0.7142857142857143
 40
0.7142857142857143
 40
0.7142857142857143
 40
1.0
 40
1.0
 40
1.0
 40
1.0
 10
-69.289
 20
81.4355
 30
0.0
 10
-69.2525
 20
81.1869
 30
0.0
 10
-69.2335
 20
80.9323
 30
0.0
 10
-69.2335
 20
80.6734
 30
0.0
 10
-69.2335
 20
80.6734
 30
0.0
 10
-69.2335
 20
80.6734
 30
0.0
 10
-69.2335
 20
57.7824
 30
0.0
 10
-69.2335
 20
57.7824
 30
0.0
 10
-69.2335
 20
57.7824
 30
0.0
 10
-68.7693
 20
56.9915
 30
0.0
 10
-68.3462
 20
56.3524
 30
0.0
 10
-67.7713
 20
55.5124
 30
0.0
 10
-67.7713
 20
55.5124
 30
0.0
 10
-67.2394
 20
54.7352
 30
0.0
 10
-66.4608
 20
53.3336
 30
0.0
 10
-65.6421
 20
52.8309
 30
0.0
 10
-65.6421
 20
52.8309
 30
0.0
 10
-62.8205
 20
56.0766
 30
0.0
 10
-59.2029
 20
63.9309
 30
0.0
 10
-59.8447
 20
69.9783
 30
0.0
 10
-59.8447
 20
69.9783
 30
0.0
 10
-60.4151
 20
75.3525
 30
0.0
 10
-64.6211
 20
79.7352
 30
0.0
 10
-69.289
 20
81.4355
 30
0.0
  0
SPLINE
  5
A6
330
1F
100
AcDbEntity
  8
layer 1
 62
     7
370
     9
100
AcDbSpline
210
0.0
220
0.0
230
1.0
 70
    11
 71
     3
 72
    36
 73
    32
 74
     0
 42
0.0000000001
 43
0.0000000001
 12
1.0
 22
0.0
 32
0.0
 13
1.0
 23
0.0
 33
0.0
 40
0.0
 40
0.0
 40
0.0
 40
0.0
 40
0.1111111111111111
 40
0.1111111111111111
 40
0.1111111111111111
 40
0.1111111111111111
 40
0.2222222222222222
 40
0.2222222222222222
 40
0.2222222222222222
 40
0.2222222222222222
 40
0.3333333333333333
 40
0.3333333333333333
 40
0.3333333333333333
 40
0.3333333333333333
 40
0.4444444444444444
 40
0.4444444444444444
 40
0.4444444444444444
 40
0.4444444444444444
 40
0.5555555555555556
 40
0.5555555555555556
 40
0.5555555555555556
 40
0.5555555555555556
 40
0.6666666666666666
 40
0.6666666666666666
 40
0.6666666666666666
 40
0.6666666666666666
 40
0.7777777777777778
 40
0.7777777777777778
 40
0.7777777777777778
 40
0.7777777777777778
 40
1.0
 40
1.0
 40
1.0
 40
1.0
 10
-77.3104
 20
85.6743
 30
0.0
 10
-77.3104
 20
85.6743
 30
0.0
 10
-76.515
 20
85.6743
 30
0.0
 10
-76.515
 20
85.6743
 30
0.0
 10
-76.515
 20
85.6743
 30
0.0
 10
-76.515
 20
85.6743
 30
0.0
 10
-74.8431
 20
85.6855
 30
0.0
 10
-74.8431
 20
85.6855
 30
0.0
 10
-74.8431
 20
85.6855
 30
0.0
 10
-74.4441
 20
88.1888
 30
0.0
 10
-73.0781
 20
91.272
 30
0.0
 10
-72.056
 20
93.3819
 30
0.0
 10
-72.056
 20
93.3819
 30
0.0
 10
-71.1943
 20
95.1611
 30
0.0
 10
-69.0893
 20
98.829
 30
0.0
 10
-68.6226
 20
100.426
 30
0.0
 10
-68.6226
 20
100.426
 30
0.0
 10
-72.2292
 20
103.4843
 30
0.0
 10
-74.2975
 20
106.9238
 30
0.0
 10
-76.1195
 20
113.1661
 30
0.0
 10
-76.1195
 20
113.1661
 30
0.0
 10
-77.3958
 20
110.9454
 30
0.0
 10
-77.3381
 20
106.0586
 30
0.0
 10
-83.7053
 20
100.3676
 30
0.0
 10
-83.7053
 20
100.3676
 30
0.0
 10
-83.2138
 20
98.6415
 30
0.0
 10
-81.1032
 20
95.2781
 30
0.0
 10
-80.1917
 20
93.2644
 30
0.0
 10
-80.1917
 20
93.2644
 30
0.0
 10
-80.1917
 20
93.2644
 30
0.0
 10
-77.3104
 20
85.6743
 30
0.0
 10
-77.3104
 20
85.6743
 30
0.0
  0
SPLINE
  5
A7
330
1F
100
AcDbEntity
  8
layer 1
 62
     7
370
     9
100
AcDbSpline
210
0.0
220
0.0
230
1.0
 70
    11
 71
     3
 72
    28
 73
    24
 74
     0
 42
0.0000000001
 43
0.0000000001
 12
1.0
 22
0.0
 32
0.0
 13
1.0
 23
0.0
 33
0.0
 40
0.0
 40
0.0
 40
0.0
 40
0.0
 40
0.1428571428571428
 40
0.1428571428571428
 40
0.1428571428571428
 40
0.1428571428571428
 40
0.2857142857142857
 40
0.2857142857142857
 40
0.2857142857142857
 40
0.2857142857142857
 40
0.4285714285714285
 40
0.4285714285714285
 40
0.4285714285714285
 40
0.4285714285714285
 40
0.5714285714285714
 40
0.5714285714285714
 40
0.5714285714285714
 40
0.5714285714285714
 40
0.7142857142857143
 40
0.7142857142857143
 40
0.7142857142857143
 40
0.7142857142857143
 40
1.0
 40
1.0
 40
1.0
 40
1.0
 10
-83.4405
 20
57.2669
 30
0.0
 10
-83.4405
 20
57.2669
 30
0.0
 10
-83.4405
 20
80.6734
 30
0.0
 10
-83.4405
 20
80.6734
 30
0.0
 10
-83.4405
 20
80.6734
 30
0.0
 10
-83.4405
 20
80.906
 30
0.0
 10
-83.4247
 20
81.1349
 30
0.0
 10
-83.395
 20
81.3593
 30
0.0
 10
-83.395
 20
81.3593
 30
0.0
 10
-87.4128
 20
79.8505
 30
0.0
 10
-92.0143
 20
75.2547
 30
0.0
 10
-92.5054
 20
69.7982
 30
0.0
 10
-92.5054
 20
69.7982
 30
0.0
 10
-92.9685
 20
64.6524
 30
0.0
 10
-89.9851
 20
56.826
 30
0.0
 10
-87.1853
 20
53.4117
 30
0.0
 10
-87.1853
 20
53.4117
 30
0.0
 10
-86.6251
 20
52.7285
 30
0.0
 10
-87.195
 20
53.174
 30
0.0
 10
-86.3924
 20
52.7509
 30
0.0
 10
-86.3924
 20
52.7509
 30
0.0
 10
-85.575
 20
54.4563
 30
0.0
 10
-84.5147
 20
55.6799
 30
0.0
 10
-83.4405
 20
57.2669
 30
0.0
  0
SPLINE
  5
A8
330
1F
100
AcDbEntity
  8
layer 1
 62
     7
370
     9
100
AcDbSpline
210
0.0
220
0.0
230
1.0
 70
    11
 71
     3
 72
    32
 73
    28
 74
     0
 42
0.0000000001
 43
0.0000000001
 12
1.0
 22
0.0
 32
0.0
 13
1.0
 23
0.0
 33
0.0
 40
0.0
 40
0.0
 40
0.0
 40
0.0
 40
0.125
 40
0.125
 40
0.125
 40
0.125
 40
0.25
 40
0.25
 40
0.25
 40
0.25
 40
0.375
 40
0.375
 40
0.375
 40
0.375
 40
0.5
 40
0.5
 40
0.5
 40
0.5
 40
0.625
 40
0.625
 40
0.625
 40
0.625
 40
0.75
 40
0.75
 40
0.75
 40
0.75
 40
1.0
 40
1.0
 40
1.0
 40
1.0
 10
-83.4405
 20
27.655
 30
0.0
 10
-83.4405
 20
27.655
 30
0.0
 10
-83.4405
 20
39.2634
 30
0.0
 10
-83.4405
 20
39.2634
 30
0.0
 10
-83.4405
 20
39.2634
 30
0.0
 10
-84.0706
 20
40.061
 30
0.0
 10
-84.6076
 20
40.7343
 30
0.0
 10
-84.9088
 20
41.1196
 30
0.0
 10
-84.9088
 20
41.1196
 30
0.0
 10
-85.6117
 20
42.0189
 30
0.0
 10
-86.1796
 20
43.0832
 30
0.0
 10
-87.0423
 20
43.5993
 30
0.0
 10
-87.0423
 20
43.5993
 30
0.0
 10
-87.8573
 20
42.3317
 30
0.0
 10
-89.0974
 20
40.7451
 30
0.0
 10
-90.1637
 20
39.4254
 30
0.0
 10
-90.1637
 20
39.4254
 30
0.0
 10
-91.291
 20
38.03
 30
0.0
 10
-92.2774
 20
36.6278
 30
0.0
 10
-93.3683
 20
35.3247
 30
0.0
 10
-93.3683
 20
35.3247
 30
0.0
 10
-92.9005
 20
34.2546
 30
0.0
 10
-86.5829
 20
26.4845
 30
0.0
 10
-85.4345
 20
25.2153
 30
0.0
 10
-85.4345
 20
25.2153
 30
0.0
 10
-84.9504
 20
25.613
 30
0.0
 10
-84.1525
 20
26.6771
 30
0.0
 10
-83.4405
 20
27.655
 30
0.0
  0
SPLINE
  5
A9
330
1F
100
AcDbEntity
  8
layer 1
 62
     7
370
     9
100
AcDbSpline
210
0.0
220
0.0
230
1.0
 70
    11
 71
     3
 72
    32
 73
    28
 74
     0
 42
0.0000000001
 43
0.0000000001
 12
1.0
 22
0.0
 32
0.0
 13
1.0
 23
0.0
 33
0.0
 40
0.0
 40
0.0
 40
0.0
 40
0.0
 40
0.125
 40
0.125
 40
0.125
 40
0.125
 40
0.25
 40
0.25
 40
0.25
 40
0.25
 40
0.375
 40
0.375
 40
0.375
 40
0.375
 40
0.5
 40
0.5
 40
0.5
 40
0.5
 40
0.625
 40
0.625
 40
0.625
 40
0.625
 40
0.75
 40
0.75
 40
0.75
 40
0.75
 40
1.0
 40
1.0
 40
1.0
 40
1.0
 10
-83.4405
 20
-25.1051
 30
0.0
 10
-83.4405
 20
-25.1051
 30
0.0
 10
-83.4405
 20
-13.4967
 30
0.0
 10
-83.4405
 20
-13.4967
 30
0.0
 10
-83.4405
 20
-13.4967
 30
0.0
 10
-84.1525
 20
-12.5188
 30
0.0
 10
-84.9504
 20
-11.4546
 30
0.0
 10
-85.4345
 20
-11.057
 30
0.0
 10
-85.4345
 20
-11.057
 30
0.0
 10
-86.5829
 20
-12.3261
 30
0.0
 10
-92.9005
 20
-20.0962
 30
0.0
 10
-93.3683
 20
-21.1663
 30
0.0
 10
-93.3683
 20
-21.1663
 30
0.0
 10
-92.2774
 20
-22.4695
 30
0.0
 10
-91.291
 20
-23.8716
 30
0.0
 10
-90.1637
 20
-25.2671
 30
0.0
 10
-90.1637
 20
-25.2671
 30
0.0
 10
-89.0974
 20
-26.5868
 30
0.0
 10
-87.8573
 20
-28.1734
 30
0.0
 10
-87.0423
 20
-29.441
 30
0.0
 10
-87.0423
 20
-29.441
 30
0.0
 10
-86.1796
 20
-28.9249
 30
0.0
 10
-85.6117
 20
-27.8606
 30
0.0
 10
-84.9088
 20
-26.9614
 30
0.0
 10
-84.9088
 20
-26.9614
 30
0.0
 10
-84.6076
 20
-26.576
 30
0.0
 10
-84.0706
 20
-25.9026
 30
0.0
 10
-83.4405
 20
-25.1051
 30
0.0
  0
SPLINE
  5
AA
330
1F
100
AcDbEntity
  8
layer 1
 62
     7
370
     9
100
AcDbSpline
210
0.0
220
0.0
230
1.0
 70
    11
 71
     3
 72
    28
 73
    24
 74
     0
 42
0.0000000001
 43
0.0000000001
 12
1.0
 22
0.0
 32
0.0
 13
1.0
 23
0.0
 33
0.0
 40
0.0
 40
0.0
 40
0.0
 40
0.0
 40
0.1428571428571428
 40
0.1428571428571428
 40
0.1428571428571428
 40
0.1428571428571428
 40
0.2857142857142857
 40
0.2857142857142857
 40
0.2857142857142857
 40
0.2857142857142857
 40
0.4285714285714285
 40
0.4285714285714285
 40
0.4285714285714285
 40
0.4285714285714285
 40
0.5714285714285714
 40
0.5714285714285714
 40
0.5714285714285714
 40
0.5714285714285714
 40
0.7142857142857143
 40
0.7142857142857143
 40
0.7142857142857143
 40
0.7142857142857143
 40
1.0
 40
1.0
 40
1.0
 40
1.0
 10
-83.4405
 20
-66.5149
 30
0.0
 10
-83.4405
 20
-66.5149
 30
0.0
 10
-83.4405
 20
-43.1085
 30
0.0
 10
-83.4405
 20
-43.1085
 30
0.0
 10
-83.4405
 20
-43.1085
 30
0.0
 10
-84.5147
 20
-41.5217
 30
0.0
 10
-85.575
 20
-40.2981
 30
0.0
 10
-86.3924
 20
-38.5926
 30
0.0
 10
-86.3924
 20
-38.5926
 30
0.0
 10
-87.195
 20
-39.0156
 30
0.0
 10
-86.6251
 20
-38.5701
 30
0.0
 10
-87.1853
 20
-39.2535
 30
0.0
 10
-87.1853
 20
-39.2535
 30
0.0
 10
-89.9851
 20
-42.6676
 30
0.0
 10
-92.9685
 20
-50.4942
 30
0.0
 10
-92.5054
 20
-55.6399
 30
0.0
 10
-92.5054
 20
-55.6399
 30
0.0
 10
-92.0143
 20
-61.0964
 30
0.0
 10
-87.4128
 20
-65.6921
 30
0.0
 10
-83.395
 20
-67.201
 30
0.0
 10
-83.395
 20
-67.201
 30
0.0
 10
-83.4247
 20
-66.9764
 30
0.0
 10
-83.4405
 20
-66.7475
 30
0.0
 10
-83.4405
 20
-66.5149
 30
0.0
  0
SPLINE
  5
AB
330
1F
100
AcDbEntity
  8
layer 1
 62
     7
370
     9
100
AcDbSpline
210
0.0
220
0.0
230
1.0
 70
    11
 71
     3
 72
    24
 73
    20
 74
     0
 42
0.0000000001
 43
0.0000000001
 12
1.0
 22
0.0
 32
0.0
 13
1.0
 23
0.0
 33
0.0
 40
0.0
 40
0.0
 40
0.0
 40
0.0
 40
0.1666666666666667
 40
0.1666666666666667
 40
0.1666666666666667
 40
0.1666666666666667
 40
0.3333333333333333
 40
0.3333333333333333
 40
0.3333333333333333
 40
0.3333333333333333
 40
0.5
 40
0.5
 40
0.5
 40
0.5
 40
0.6666666666666666
 40
0.6666666666666666
 40
0.6666666666666666
 40
0.6666666666666666
 40
1.0
 40
1.0
 40
1.0
 40
1.0
 10
-83.4405
 20
13.541
 30
0.0
 10
-84.5632
 20
14.9618
 30
0.0
 10
-85.4921
 20
16.0887
 30
0.0
 10
-85.6836
 20
16.2455
 30
0.0
 10
-85.6836
 20
16.2455
 30
0.0
 10
-85.6836
 20
16.2455
 30
0.0
 10
-92.072
 20
7.0792
 30
0.0
 10
-92.072
 20
7.0792
 30
0.0
 10
-92.072
 20
7.0792
 30
0.0
 10
-92.072
 20
7.0792
 30
0.0
 10
-85.6836
 20
-2.0873
 30
0.0
 10
-85.6836
 20
-2.0873
 30
0.0
 10
-85.6836
 20
-2.0873
 30
0.0
 10
-85.4921
 20
-1.9304
 30
0.0
 10
-84.5632
 20
-0.8036
 30
0.0
 10
-83.4405
 20
0.6173
 30
0.0
 10
-83.4405
 20
0.6173
 30
0.0
 10
-83.4405
 20
0.6173
 30
0.0
 10
-83.4405
 20
13.541
 30
0.0
 10
-83.4405
 20
13.541
 30
0.0
  0
SPLINE
  5
AC
330
1F
100
AcDbEntity
  8
layer 1
 62
     7
370
     9
100
AcDbSpline
210
0.0
220
0.0
230
1.0
 70
    11
 71
     3
 72
    28
 73
    24
 74
     0
 42
0.0000000001
 43
0.0000000001
 12
1.0
 22
0.0
 32
0.0
 13
1.0
 23
0.0
 33
0.0
 40
0.0
 40
0.0
 40
0.0
 40
0.0
 40
0.1428571428571428
 40
0.1428571428571428
 40
0.1428571428571428
 40
0.1428571428571428
 40
0.2857142857142857
 40
0.2857142857142857
 40
0.2857142857142857
 40
0.2857142857142857
 40
0.4285714285714285
 40
0.4285714285714285
 40
0.4285714285714285
 40
0.4285714285714285
 40
0.5714285714285714
 40
0.5714285714285714
 40
0.5714285714285714
 40
0.5714285714285714
 40
0.7142857142857143
 40
0.7142857142857143
 40
0.7142857142857143
 40
0.7142857142857143
 40
1.0
 40
1.0
 40
1.0
 40
1.0
 10
-98.4835
 20
7.1879
 30
0.0
 10
-99.2238
 20
5.4188
 30
0.0
 10
-105.0912
 20
-1.8466
 30
0.0
 10
-106.5295
 20
-4.2755
 30
0.0
 10
-106.5295
 20
-4.2755
 30
0.0
 10
-107.4017
 20
-3.7995
 30
0.0
 10
-107.6947
 20
-3.0976
 30
0.0
 10
-108.479
 20
-2.3513
 30
0.0
 10
-108.479
 20
-2.3513
 30
0.0
 10
-115.9743
 20
4.7823
 30
0.0
 10
-123.135
 20
6.1156
 30
0.0
 10
-124.4832
 20
7.0792
 30
0.0
 10
-124.4832
 20
7.0792
 30
0.0
 10
-123.135
 20
8.0427
 30
0.0
 10
-115.9743
 20
9.3761
 30
0.0
 10
-108.479
 20
16.5096
 30
0.0
 10
-108.479
 20
16.5096
 30
0.0
 10
-107.6947
 20
17.2559
 30
0.0
 10
-107.4017
 20
17.9578
 30
0.0
 10
-106.5295
 20
18.4338
 30
0.0
 10
-106.5295
 20
18.4338
 30
0.0
 10
-105.0912
 20
16.0049
 30
0.0
 10
-99.2238
 20
8.9568
 30
0.0
 10
-98.4835
 20
7.1879
 30
0.0
  0
ENDSEC
  0
SECTION
  2
OBJECTS
  0
DICTIONARY
  5
C
330
0
100
AcDbDictionary
281
     1
  3
ACAD_GROUP
350
D
  3
ACAD_LAYOUT
350
1A
  3
ACAD_MATERIAL
350
3B
  3
ACAD_MLEADERSTYLE
350
CE
  3
ACAD_MLINESTYLE
350
17
  3
ACAD_PLOTSETTINGS
350
19
  3
ACAD_PLOTSTYLENAME
350
E
  3
ACAD_TABLESTYLE
350
CD
  3
ACAD_VISUALSTYLE
350
2A
  0
DICTIONARY
  5
D
102
{ACAD_REACTORS
330
C
102
}
330
C
100
AcDbDictionary
281
     1
  0
DICTIONARY
  5
1A
102
{ACAD_REACTORS
330
C
102
}
330
C
100
AcDbDictionary
281
     1
  3
Layout1
350
1E
  3
Layout2
350
26
  3
Model
350
22
  0
DICTIONARY
  5
3B
102
{ACAD_REACTORS
330
C
102
}
330
C
100
AcDbDictionary
281
     1
  3
ByBlock
350
3D
  3
ByLayer
350
3C
  3
Global
350
3E
  0
DICTIONARY
  5
CE
102
{ACAD_REACTORS
330
C
102
}
330
C
100
AcDbDictionary
281
     1
  0
DICTIONARY
  5
17
102
{ACAD_REACTORS
330
C
102
}
330
C
100
AcDbDictionary
281
     1
  3
Standard
350
18
  0
DICTIONARY
  5
19
102
{ACAD_REACTORS
330
C
102
}
330
C
100
AcDbDictionary
281
     1
  0
ACDBDICTIONARYWDFLT
  5
E
102
{ACAD_REACTORS
330
C
102
}
330
C
100
AcDbDictionary
281
     1
  3
Normal
350
F
100
AcDbDictionaryWithDefault
340
F
  0
DICTIONARY
  5
CD
102
{ACAD_REACTORS
330
C
102
}
330
C
100
AcDbDictionary
281
     1
  0
DICTIONARY
  5
2A
102
{ACAD_REACTORS
330
C
102
}
330
C
100
AcDbDictionary
281
     1
  3
2dWireframe
350
2F
  3
3D Hidden
350
31
  3
3dWireframe
350
30
  3
Basic
350
32
  3
Brighten
350
36
  3
ColorChange
350
3A
  3
Conceptual
350
34
  3
Dim
350
35
  3
Facepattern
350
39
  3
Flat
350
2B
  3
FlatWithEdges
350
2C
  3
Gouraud
350
2D
  3
GouraudWithEdges
350
2E
  3
Linepattern
350
38
  3
Realistic
350
33
  3
Thicken
350
37
  0
LAYOUT
  5
1E
102
{ACAD_REACTORS
330
1A
102
}
330
1A
100
AcDbPlotSettings
  1

  2
none_device
  4

  6

 40
0.0
 41
0.0
 42
0.0
 43
0.0
 44
0.0
 45
0.0
 46
0.0
 47
0.0
 48
0.0
 49
0.0
140
0.0
141
0.0
142
1.0
143
1.0
 70
   688
 72
     0
 73
     0
 74
     5
  7

 75
    16
 76
     0
 77
     2
 78
   300
147
1.0
148
0.0
149
0.0
100
AcDbLayout
  1
Layout1
 70
     1
 71
     1
 10
0.0
 20
0.0
 11
12.0
 21
9.0
 12
0.0
 22
0.0
 32
0.0
 14
1.000000000000000E+20
 24
1.000000000000000E+20
 34
1.000000000000000E+20
 15
-1.000000000000000E+20
 25
-1.000000000000000E+20
 35
-1.000000000000000E+20
146
0.0
 13
0.0
 23
0.0
 33
0.0
 16
1.0
 26
0.0
 36
0.0
 17
0.0
 27
1.0
 37
0.0
 76
     0
330
1B
  0
LAYOUT
  5
26
102
{ACAD_REACTORS
330
1A
102
}
330
1A
100
AcDbPlotSettings
  1

  2
none_device
  4

  6

 40
0.0
 41
0.0
 42
0.0
 43
0.0
 44
0.0
 45
0.0
 46
0.0
 47
0.0
 48
0.0
 49
0.0
140
0.0
141
0.0
142
1.0
143
1.0
 70
   688
 72
     0
 73
     0
 74
     5
  7

 75
    16
 76
     0
 77
     2
 78
   300
147
1.0
148
0.0
149
0.0
100
AcDbLayout
  1
Layout2
 70
     1
 71
     2
 10
0.0
 20
0.0
 11
0.0
 21
0.0
 12
0.0
 22
0.0
 32
0.0
 14
0.0
 24
0.0
 34
0.0
 15
0.0
 25
0.0
 35
0.0
146
0.0
 13
0.0
 23
0.0
 33
0.0
 16
1.0
 26
0.0
 36
0.0
 17
0.0
 27
1.0
 37
0.0
 76
     0
330
23
  0
LAYOUT
  5
22
102
{ACAD_REACTORS
330
1A
102
}
330
1A
100
AcDbPlotSettings
  1

  2
none_device
  4

  6

 40
0.0
 41
0.0
 42
0.0
 43
0.0
 44
0.0
 45
0.0
 46
0.0
 47
0.0
 48
0.0
 49
0.0
140
0.0
141
0.0
142
1.0
143
1.0
 70
  1712
 72
     0
 73
     0
 74
     0
  7

 75
     0
 76
     0
 77
     2
 78
   300
147
1.0
148
0.0
149
0.0
100
AcDbLayout
  1
Model
 70
     1
 71
     0
 10
0.0
 20
0.0
 11
12.0
 21
9.0
 12
0.0
 22
0.0
 32
0.0
 14
-173.7932
 24
-115.2478
 34
0.0
 15
20.8425
 25
131.7464
 35
0.0
146
0.0
 13
0.0
 23
0.0
 33
0.0
 16
1.0
 26
0.0
 36
0.0
 17
0.0
 27
1.0
 37
0.0
 76
     0
330
1F
331
29
  0
MATERIAL
  5
3D
102
{ACAD_REACTORS
330
3B
102
}
330
3B
100
AcDbMaterial
  1
ByBlock
 72
     1
 94
      127
  0
MATERIAL
  5
3C
102
{ACAD_REACTORS
330
3B
102
}
330
3B
100
AcDbMaterial
  1
ByLayer
 72
     1
 94
      127
  0
MATERIAL
  5
3E
102
{ACAD_REACTORS
330
3B
102
}
330
3B
100
AcDbMaterial
  1
Global
 72
     1
 94
      127
  0
MLINESTYLE
  5
18
102
{ACAD_REACTORS
330
17
102
}
330
17
100
AcDbMlineStyle
  2
Standard
 70
     0
  3

 62
   256
 51
90.0
 52
90.0
 71
     2
 49
0.5
 62
   256
  6
BYLAYER
 49
-0.5
 62
   256
  6
BYLAYER
  0
ACDBPLACEHOLDER
  5
F
102
{ACAD_REACTORS
330
E
102
}
330
E
  0
VISUALSTYLE
  5
2F
102
{ACAD_REACTORS
330
2A
102
}
102
{ACAD_XDICTIONARY
360
B5
102
}
330
2A
100
AcDbVisualStyle
  2
2dWireframe
 70
     4
 71
     0
 72
     2
 73
     0
 90
        0
 40
-0.6
 41
-30.0
 62
     5
 63
     7
421
 16777215
 74
     1
 91
        4
 64
     7
 65
   257
 75
     1
175
     1
 42
1.0
 92
        0
 66
   257
 43
1.0
 76
     1
 77
     6
 78
     2
 67
     7
 79
     5
170
     0
171
     0
290
     0
174
     0
 93
        1
 44
0.0
173
     0
291
     0
 45
0.0
  0
VISUALSTYLE
  5
31
102
{ACAD_REACTORS
330
2A
102
}
102
{ACAD_XDICTIONARY
360
B9
102
}
330
2A
100
AcDbVisualStyle
  2
3D Hidden
 70
     6
 71
     1
 72
     2
 73
     2
 90
        0
 40
-0.6
 41
-30.0
 62
     5
 63
     7
421
 16777215
 74
     2
 91
        2
 64
     7
 65
   257
 75
     2
175
     1
 42
40.0
 92
        0
 66
   257
 43
1.0
 76
     1
 77
     6
 78
     2
 67
     7
 79
     3
170
     0
171
     0
290
     0
174
     0
 93
        1
 44
0.0
173
     0
291
     0
 45
0.0
  0
VISUALSTYLE
  5
30
102
{ACAD_REACTORS
330
2A
102
}
102
{ACAD_XDICTIONARY
360
B7
102
}
330
2A
100
AcDbVisualStyle
  2
3dWireframe
 70
     5
 71
     0
 72
     2
 73
     0
 90
        0
 40
-0.6
 41
-30.0
 62
     5
 63
     7
421
 16777215
 74
     1
 91
        4
 64
     7
 65
   257
 75
     1
175
     1
 42
1.0
 92
        0
 66
   257
 43
1.0
 76
     1
 77
     6
 78
     2
 67
     7
 79
     5
170
     0
171
     0
290
     0
174
     0
 93
        1
 44
0.0
173
     0
291
     0
 45
0.0
  0
VISUALSTYLE
  5
32
102
{ACAD_REACTORS
330
2A
102
}
102
{ACAD_XDICTIONARY
360
BB
102
}
330
2A
100
AcDbVisualStyle
  2
Basic
 70
     7
 71
     1
 72
     0
 73
     1
 90
        0
 40
-0.6
 41
-30.0
 62
     5
 63
     7
421
 16777215
 74
     0
 91
        4
 64
     7
 65
   257
 75
     1
175
     1
 42
1.0
 92
        8
 66
     7
 43
1.0
 76
     1
 77
     6
 78
     2
 67
     7
 79
     5
170
     0
171
     0
290
     0
174
     0
 93
        1
 44
0.0
173
     0
291
     1
 45
0.0
  0
VISUALSTYLE
  5
36
102
{ACAD_REACTORS
330
2A
102
}
102
{ACAD_XDICTIONARY
360
C3
102
}
330
2A
100
AcDbVisualStyle
  2
Brighten
 70
    12
 71
     2
 72
     2
 73
     0
 90
        0
 40
-0.6
 41
-30.0
 62
     5
 63
     7
421
 16777215
 74
     1
 91
        4
 64
     7
 65
   257
 75
     1
175
     1
 42
1.0
 92
        8
 66
     7
 43
1.0
 76
     1
 77
     6
 78
     2
 67
     7
 79
     5
170
     0
171
     0
290
     0
174
     0
 93
        1
 44
50.0
173
     0
291
     1
 45
0.0
  0
VISUALSTYLE
  5
3A
102
{ACAD_REACTORS
330
2A
102
}
102
{ACAD_XDICTIONARY
360
CB
102
}
330
2A
100
AcDbVisualStyle
  2
ColorChange
 70
    16
 71
     2
 72
     2
 73
     3
 90
        0
 40
-0.6
 41
-30.0
 62
     5
 63
     8
421
  8421504
 74
     1
 91
        4
 64
     7
 65
   257
 75
     1
175
     1
 42
1.0
 92
        8
 66
     8
424
  8421504
 43
1.0
 76
     1
 77
     6
 78
     2
 67
     7
 79
     5
170
     0
171
     0
290
     0
174
     0
 93
        1
 44
0.0
173
     0
291
     1
 45
0.0
  0
VISUALSTYLE
  5
34
102
{ACAD_REACTORS
330
2A
102
}
102
{ACAD_XDICTIONARY
360
BF
102
}
330
2A
100
AcDbVisualStyle
  2
Conceptual
 70
     9
 71
     3
 72
     2
 73
     0
 90
        0
 40
-0.6
 41
-30.0
 62
     5
 63
     7
421
 16777215
 74
     2
 91
        2
 64
     7
 65
   257
 75
     1
175
     1
 42
40.0
 92
        8
 66
     7
 43
1.0
 76
     1
 77
     6
 78
     2
 67
     7
 79
     3
170
     0
171
     0
290
     0
174
     0
 93
        1
 44
0.0
173
     0
291
     0
 45
0.0
  0
VISUALSTYLE
  5
35
102
{ACAD_REACTORS
330
2A
102
}
102
{ACAD_XDICTIONARY
360
C1
102
}
330
2A
100
AcDbVisualStyle
  2
Dim
 70
    11
 71
     2
 72
     2
 73
     0
 90
        0
 40
-0.6
 41
-30.0
 62
     5
 63
     7
421
 16777215
 74
     1
 91
        4
 64
     7
 65
   257
 75
     1
175
     1
 42
1.0
 92
        8
 66
     7
 43
1.0
 76
     1
 77
     6
 78
     2
 67
     7
 79
     5
170
     0
171
     0
290
     0
174
     0
 93
        1
 44
-50.0
173
     0
291
     1
 45
0.0
  0
VISUALSTYLE
  5
39
102
{ACAD_REACTORS
330
2A
102
}
102
{ACAD_XDICTIONARY
360
C9
102
}
330
2A
100
AcDbVisualStyle
  2
Facepattern
 70
    15
 71
     2
 72
     2
 73
     0
 90
        0
 40
-0.6
 41
-30.0
 62
     5
 63
     7
421
 16777215
 74
     1
 91
        4
 64
     7
 65
   257
 75
     1
175
     1
 42
1.0
 92
        8
 66
     7
 43
1.0
 76
     1
 77
     6
 78
     2
 67
     7
 79
     5
170
     0
171
     0
290
     0
174
     0
 93
        1
 44
0.0
173
     0
291
     1
 45
0.0
  0
VISUALSTYLE
  5
2B
102
{ACAD_REACTORS
330
2A
102
}
102
{ACAD_XDICTIONARY
360
AD
102
}
330
2A
100
AcDbVisualStyle
  2
Flat
 70
     0
 71
     2
 72
     1
 73
     1
 90
        2
 40
-0.6
 41
30.0
 62
     5
 63
     7
421
 16777215
 74
     0
 91
        4
 64
     7
 65
   257
 75
     1
175
     1
 42
1.0
 92
        8
 66
     7
 43
1.0
 76
     1
 77
     6
 78
     2
 67
     7
 79
     5
170
     0
171
     0
290
     0
174
     0
 93
       13
 44
0.0
173
     0
291
     1
 45
0.0
  0
VISUALSTYLE
  5
2C
102
{ACAD_REACTORS
330
2A
102
}
102
{ACAD_XDICTIONARY
360
AF
102
}
330
2A
100
AcDbVisualStyle
  2
FlatWithEdges
 70
     1
 71
     2
 72
     1
 73
     1
 90
        2
 40
-0.6
 41
30.0
 62
     5
 63
     7
421
 16777215
 74
     1
 91
        4
 64
     7
 65
   257
 75
     1
175
     1
 42
1.0
 92
        0
 66
   257
 43
1.0
 76
     1
 77
     6
 78
     2
 67
     7
 79
     5
170
     0
171
     0
290
     0
174
     0
 93
       13
 44
0.0
173
     0
291
     1
 45
0.0
  0
VISUALSTYLE
  5
2D
102
{ACAD_REACTORS
330
2A
102
}
102
{ACAD_XDICTIONARY
360
B1
102
}
330
2A
100
AcDbVisualStyle
  2
Gouraud
 70
     2
 71
     2
 72
     2
 73
     1
 90
        2
 40
-0.6
 41
30.0
 62
     5
 63
     7
421
 16777215
 74
     0
 91
        4
 64
     7
 65
   257
 75
     1
175
     1
 42
1.0
 92
        0
 66
     7
 43
1.0
 76
     1
 77
     6
 78
     2
 67
     7
 79
     5
170
     0
171
     0
290
     0
174
     0
 93
       13
 44
0.0
173
     0
291
     1
 45
0.0
  0
VISUALSTYLE
  5
2E
102
{ACAD_REACTORS
330
2A
102
}
102
{ACAD_XDICTIONARY
360
B3
102
}
330
2A
100
AcDbVisualStyle
  2
GouraudWithEdges
 70
     3
 71
     2
 72
     2
 73
     1
 90
        2
 40
-0.6
 41
30.0
 62
     5
 63
     7
421
 16777215
 74
     1
 91
        4
 64
     7
 65
   257
 75
     1
175
     1
 42
1.0
 92
        0
 66
   257
 43
1.0
 76
     1
 77
     6
 78
     2
 67
     7
 79
     5
170
     0
171
     0
290
     0
174
     0
 93
       13
 44
0.0
173
     0
291
     1
 45
0.0
  0
VISUALSTYLE
  5
38
102
{ACAD_REACTORS
330
2A
102
}
102
{ACAD_XDICTIONARY
360
C7
102
}
330
2A
100
AcDbVisualStyle
  2
Linepattern
 70
    14
 71
     2
 72
     2
 73
     0
 90
        0
 40
-0.6
 41
-30.0
 62
     5
 63
     7
421
 16777215
 74
     1
 91
        4
 64
     7
 65
   257
 75
     7
175
     7
 42
1.0
 92
        8
 66
     7
 43
1.0
 76
     1
 77
     6
 78
     2
 67
     7
 79
     5
170
     0
171
     0
290
     0
174
     0
 93
        1
 44
0.0
173
     0
291
     1
 45
0.0
  0
VISUALSTYLE
  5
33
102
{ACAD_REACTORS
330
2A
102
}
102
{ACAD_XDICTIONARY
360
BD
102
}
330
2A
100
AcDbVisualStyle
  2
Realistic
 70
     8
 71
     2
 72
     2
 73
     0
 90
        0
 40
-0.6
 41
-30.0
 62
     5
 63
     7
421
 16777215
 74
     1
 91
        0
 64
     7
 65
   257
 75
     1
175
     1
 42
1.0
 92
        8
 66
     8
424
  7895160
 43
1.0
 76
     1
 77
     6
 78
     2
 67
     7
 79
     5
170
     0
171
     0
290
     0
174
     0
 93
       13
 44
0.0
173
     0
291
     0
 45
0.0
  0
VISUALSTYLE
  5
37
102
{ACAD_REACTORS
330
2A
102
}
102
{ACAD_XDICTIONARY
360
C5
102
}
330
2A
100
AcDbVisualStyle
  2
Thicken
 70
    13
 71
     2
 72
     2
 73
     0
 90
        0
 40
-0.6
 41
-30.0
 62
     5
 63
     7
421
 16777215
 74
     1
 91
        4
 64
     7
 65
   257
 75
     1
175
     1
 42
1.0
 92
       12
 66
     7
 43
1.0
 76
     1
 77
     6
 78
     2
 67
     7
 79
     5
170
     0
171
     0
290
     0
174
     0
 93
        1
 44
0.0
173
     0
291
     1
 45
0.0
  0
DICTIONARY
  5
B5
330
2F
100
AcDbDictionary
280
     1
281
     1
  3
ACAD_XREC_ROUNDTRIP
360
B6
  0
DICTIONARY
  5
B9
330
31
100
AcDbDictionary
280
     1
281
     1
  3
ACAD_XREC_ROUNDTRIP
360
BA
  0
DICTIONARY
  5
B7
330
30
100
AcDbDictionary
280
     1
281
     1
  3
ACAD_XREC_ROUNDTRIP
360
B8
  0
DICTIONARY
  5
BB
330
32
100
AcDbDictionary
280
     1
281
     1
  3
ACAD_XREC_ROUNDTRIP
360
BC
  0
DICTIONARY
  5
C3
330
36
100
AcDbDictionary
280
     1
281
     1
  3
ACAD_XREC_ROUNDTRIP
360
C4
  0
DICTIONARY
  5
CB
330
3A
100
AcDbDictionary
280
     1
281
     1
  3
ACAD_XREC_ROUNDTRIP
360
CC
  0
DICTIONARY
  5
BF
330
34
100
AcDbDictionary
280
     1
281
     1
  3
ACAD_XREC_ROUNDTRIP
360
C0
  0
DICTIONARY
  5
C1
330
35
100
AcDbDictionary
280
     1
281
     1
  3
ACAD_XREC_ROUNDTRIP
360
C2
  0
DICTIONARY
  5
C9
330
39
100
AcDbDictionary
280
     1
281
     1
  3
ACAD_XREC_ROUNDTRIP
360
CA
  0
DICTIONARY
  5
AD
330
2B
100
AcDbDictionary
280
     1
281
     1
  3
ACAD_XREC_ROUNDTRIP
360
AE
  0
DICTIONARY
  5
AF
330
2C
100
AcDbDictionary
280
     1
281
     1
  3
ACAD_XREC_ROUNDTRIP
360
B0
  0
DICTIONARY
  5
B1
330
2D
100
AcDbDictionary
280
     1
281
     1
  3
ACAD_XREC_ROUNDTRIP
360
B2
  0
DICTIONARY
  5
B3
330
2E
100
AcDbDictionary
280
     1
281
     1
  3
ACAD_XREC_ROUNDTRIP
360
B4
  0
DICTIONARY
  5
C7
330
38
100
AcDbDictionary
280
     1
281
     1
  3
ACAD_XREC_ROUNDTRIP
360
C8
  0
DICTIONARY
  5
BD
330
33
100
AcDbDictionary
280
     1
281
     1
  3
ACAD_XREC_ROUNDTRIP
360
BE
  0
DICTIONARY
  5
C5
330
37
100
AcDbDictionary
280
     1
281
     1
  3
ACAD_XREC_ROUNDTRIP
360
C6
  0
XRECORD
  5
B6
102
{ACAD_REACTORS
330
B5
102
}
330
B5
100
AcDbXrecord
280
     1
102
RTVSPropertyOp0
 70
     1
102
RTVSPropertyOp1
 70
     1
102
RTVSPropertyOp2
 70
     1
102
RTVSPropertyOp3
 70
     1
102
RTVSPropertyOp4
 70
     1
102
RTVSPropertyOp5
 70
     1
102
RTVSPropertyOp6
 70
     1
102
RTVSPropertyOp7
 70
     1
102
RTVSPropertyOp8
 70
     1
102
RTVSPropertyOp9
 70
     1
102
RTVSPropertyOp10
 70
     1
102
RTVSPropertyOp11
 70
     1
102
RTVSPropertyOp12
 70
     1
102
RTVSPropertyOp13
 70
     1
102
RTVSPropertyOp14
 70
     1
102
RTVSPropertyOp15
 70
     1
102
RTVSPropertyOp16
 70
     1
102
RTVSPropertyOp17
 70
     1
102
RTVSPropertyOp18
 70
     1
102
RTVSPropertyOp19
 70
     1
102
RTVSPropertyOp20
 70
     1
102
RTVSPropertyOp21
 70
     1
102
RTVSPropertyOp22
 70
     1
102
RTVSPropertyOp23
 70
     1
102
RTVSPropertyOp24
 70
     1
102
RTVSPropertyOp25
 70
     1
102
RTVSPropertyOp26
 70
     1
102
RTVSPropertyOp27
 70
     1
102
RTVSPropertyOp28
 70
     1
102
RTVSPropertyOp29
 70
     1
102
RTVSPropertyOp30
 70
     1
102
RTVSPropertyOp31
 70
     1
102
RTVSPropertyOp32
 70
     1
  0
XRECORD
  5
BA
102
{ACAD_REACTORS
330
B9
102
}
330
B9
100
AcDbXrecord
280
     1
102
RTVSPropertyOp0
 70
     1
102
RTVSPropertyOp1
 70
     1
102
RTVSPropertyOp2
 70
     1
102
RTVSPropertyOp3
 70
     1
102
RTVSPropertyOp4
 70
     1
102
RTVSPropertyOp5
 70
     1
102
RTVSPropertyOp6
 70
     1
102
RTVSPropertyOp7
 70
     1
102
RTVSPropertyOp8
 70
     1
102
RTVSPropertyOp9
 70
     1
102
RTVSPropertyOp10
 70
     1
102
RTVSPropertyOp11
 70
     1
102
RTVSPropertyOp12
 70
     1
102
RTVSPropertyOp13
 70
     1
102
RTVSPropertyOp14
 70
     1
102
RTVSPropertyOp15
 70
     1
102
RTVSPropertyOp16
 70
     1
102
RTVSPropertyOp17
 70
     1
102
RTVSPropertyOp18
 70
     1
102
RTVSPropertyOp19
 70
     1
102
RTVSPropertyOp20
 70
     1
102
RTVSPropertyOp21
 70
     1
102
RTVSPropertyOp22
 70
     1
102
RTVSPropertyOp23
 70
     1
102
RTVSPropertyOp24
 70
     1
102
RTVSPropertyOp25
 70
     1
102
RTVSPropertyOp26
 70
     1
102
RTVSPropertyOp27
 70
     1
102
RTVSPropertyOp28
 70
     1
102
RTVSPropertyOp29
 70
     1
102
RTVSPropertyOp30
 70
     1
102
RTVSPropertyOp31
 70
     1
102
RTVSPropertyOp32
 70
     1
  0
XRECORD
  5
B8
102
{ACAD_REACTORS
330
B7
102
}
330
B7
100
AcDbXrecord
280
     1
102
RTVSPropertyOp0
 70
     1
102
RTVSPropertyOp1
 70
     1
102
RTVSPropertyOp2
 70
     1
102
RTVSPropertyOp3
 70
     1
102
RTVSPropertyOp4
 70
     1
102
RTVSPropertyOp5
 70
     1
102
RTVSPropertyOp6
 70
     1
102
RTVSPropertyOp7
 70
     1
102
RTVSPropertyOp8
 70
     1
102
RTVSPropertyOp9
 70
     1
102
RTVSPropertyOp10
 70
     1
102
RTVSPropertyOp11
 70
     1
102
RTVSPropertyOp12
 70
     1
102
RTVSPropertyOp13
 70
     1
102
RTVSPropertyOp14
 70
     1
102
RTVSPropertyOp15
 70
     1
102
RTVSPropertyOp16
 70
     1
102
RTVSPropertyOp17
 70
     1
102
RTVSPropertyOp18
 70
     1
102
RTVSPropertyOp19
 70
     1
102
RTVSPropertyOp20
 70
     1
102
RTVSPropertyOp21
 70
     1
102
RTVSPropertyOp22
 70
     1
102
RTVSPropertyOp23
 70
     1
102
RTVSPropertyOp24
 70
     1
102
RTVSPropertyOp25
 70
     1
102
RTVSPropertyOp26
 70
     1
102
RTVSPropertyOp27
 70
     1
102
RTVSPropertyOp28
 70
     1
102
RTVSPropertyOp29
 70
     1
102
RTVSPropertyOp30
 70
     1
102
RTVSPropertyOp31
 70
     1
102
RTVSPropertyOp32
 70
     1
  0
XRECORD
  5
BC
102
{ACAD_REACTORS
330
BB
102
}
330
BB
100
AcDbXrecord
280
     1
102
RTVSPropertyOp0
 70
     1
102
RTVSPropertyOp1
 70
     1
102
RTVSPropertyOp2
 70
     1
102
RTVSPropertyOp3
 70
     1
102
RTVSPropertyOp4
 70
     1
102
RTVSPropertyOp5
 70
     1
102
RTVSPropertyOp6
 70
     1
102
RTVSPropertyOp7
 70
     1
102
RTVSPropertyOp8
 70
     1
102
RTVSPropertyOp9
 70
     1
102
RTVSPropertyOp10
 70
     1
102
RTVSPropertyOp11
 70
     1
102
RTVSPropertyOp12
 70
     1
102
RTVSPropertyOp13
 70
     1
102
RTVSPropertyOp14
 70
     1
102
RTVSPropertyOp15
 70
     1
102
RTVSPropertyOp16
 70
     1
102
RTVSPropertyOp17
 70
     1
102
RTVSPropertyOp18
 70
     1
102
RTVSPropertyOp19
 70
     1
102
RTVSPropertyOp20
 70
     1
102
RTVSPropertyOp21
 70
     1
102
RTVSPropertyOp22
 70
     1
102
RTVSPropertyOp23
 70
     1
102
RTVSPropertyOp24
 70
     1
102
RTVSPropertyOp25
 70
     1
102
RTVSPropertyOp26
 70
     1
102
RTVSPropertyOp27
 70
     1
102
RTVSPropertyOp28
 70
     1
102
RTVSPropertyOp29
 70
     1
102
RTVSPropertyOp30
 70
     1
102
RTVSPropertyOp31
 70
     1
102
RTVSPropertyOp32
 70
     1
  0
XRECORD
  5
C4
102
{ACAD_REACTORS
330
C3
102
}
330
C3
100
AcDbXrecord
280
     1
102
RTVSPropertyOp0
 70
     1
102
RTVSPropertyOp1
 70
     1
102
RTVSPropertyOp2
 70
     1
102
RTVSPropertyOp3
 70
     1
102
RTVSPropertyOp4
 70
     1
102
RTVSPropertyOp5
 70
     1
102
RTVSPropertyOp6
 70
     1
102
RTVSPropertyOp7
 70
     1
102
RTVSPropertyOp8
 70
     1
102
RTVSPropertyOp9
 70
     1
102
RTVSPropertyOp10
 70
     1
102
RTVSPropertyOp11
 70
     1
102
RTVSPropertyOp12
 70
     1
102
RTVSPropertyOp13
 70
     1
102
RTVSPropertyOp14
 70
     1
102
RTVSPropertyOp15
 70
     1
102
RTVSPropertyOp16
 70
     1
102
RTVSPropertyOp17
 70
     1
102
RTVSPropertyOp18
 70
     1
102
RTVSPropertyOp19
 70
     1
102
RTVSPropertyOp20
 70
     1
102
RTVSPropertyOp21
 70
     1
102
RTVSPropertyOp22
 70
     1
102
RTVSPropertyOp23
 70
     1
102
RTVSPropertyOp24
 70
     1
102
RTVSPropertyOp25
 70
     1
102
RTVSPropertyOp26
 70
     1
102
RTVSPropertyOp27
 70
     1
102
RTVSPropertyOp28
 70
     1
102
RTVSPropertyOp29
 70
     1
102
RTVSPropertyOp30
 70
     1
102
RTVSPropertyOp31
 70
     1
102
RTVSPropertyOp32
 70
     1
  0
XRECORD
  5
CC
102
{ACAD_REACTORS
330
CB
102
}
330
CB
100
AcDbXrecord
280
     1
102
RTVSPropertyOp0
 70
     1
102
RTVSPropertyOp1
 70
     1
102
RTVSPropertyOp2
 70
     1
102
RTVSPropertyOp3
 70
     1
102
RTVSPropertyOp4
 70
     1
102
RTVSPropertyOp5
 70
     1
102
RTVSPropertyOp6
 70
     1
102
RTVSPropertyOp7
 70
     1
102
RTVSPropertyOp8
 70
     1
102
RTVSPropertyOp9
 70
     1
102
RTVSPropertyOp10
 70
     1
102
RTVSPropertyOp11
 70
     1
102
RTVSPropertyOp12
 70
     1
102
RTVSPropertyOp13
 70
     1
102
RTVSPropertyOp14
 70
     1
102
RTVSPropertyOp15
 70
     1
102
RTVSPropertyOp16
 70
     1
102
RTVSPropertyOp17
 70
     1
102
RTVSPropertyOp18
 70
     1
102
RTVSPropertyOp19
 70
     1
102
RTVSPropertyOp20
 70
     1
102
RTVSPropertyOp21
 70
     1
102
RTVSPropertyOp22
 70
     1
102
RTVSPropertyOp23
 70
     1
102
RTVSPropertyOp24
 70
     1
102
RTVSPropertyOp25
 70
     1
102
RTVSPropertyOp26
 70
     1
102
RTVSPropertyOp27
 70
     1
102
RTVSPropertyOp28
 70
     1
102
RTVSPropertyOp29
 70
     1
102
RTVSPropertyOp30
 70
     1
102
RTVSPropertyOp31
 70
     1
102
RTVSPropertyOp32
 70
     1
  0
XRECORD
  5
C0
102
{ACAD_REACTORS
330
BF
102
}
330
BF
100
AcDbXrecord
280
     1
102
RTVSPropertyOp0
 70
     1
102
RTVSPropertyOp1
 70
     1
102
RTVSPropertyOp2
 70
     1
102
RTVSPropertyOp3
 70
     1
102
RTVSPropertyOp4
 70
     1
102
RTVSPropertyOp5
 70
     1
102
RTVSPropertyOp6
 70
     1
102
RTVSPropertyOp7
 70
     1
102
RTVSPropertyOp8
 70
     1
102
RTVSPropertyOp9
 70
     1
102
RTVSPropertyOp10
 70
     1
102
RTVSPropertyOp11
 70
     1
102
RTVSPropertyOp12
 70
     1
102
RTVSPropertyOp13
 70
     1
102
RTVSPropertyOp14
 70
     1
102
RTVSPropertyOp15
 70
     1
102
RTVSPropertyOp16
 70
     1
102
RTVSPropertyOp17
 70
     1
102
RTVSPropertyOp18
 70
     1
102
RTVSPropertyOp19
 70
     1
102
RTVSPropertyOp20
 70
     1
102
RTVSPropertyOp21
 70
     1
102
RTVSPropertyOp22
 70
     1
102
RTVSPropertyOp23
 70
     1
102
RTVSPropertyOp24
 70
     1
102
RTVSPropertyOp25
 70
     1
102
RTVSPropertyOp26
 70
     1
102
RTVSPropertyOp27
 70
     1
102
RTVSPropertyOp28
 70
     1
102
RTVSPropertyOp29
 70
     1
102
RTVSPropertyOp30
 70
     1
102
RTVSPropertyOp31
 70
     1
102
RTVSPropertyOp32
 70
     1
  0
XRECORD
  5
C2
102
{ACAD_REACTORS
330
C1
102
}
330
C1
100
AcDbXrecord
280
     1
102
RTVSPropertyOp0
 70
     1
102
RTVSPropertyOp1
 70
     1
102
RTVSPropertyOp2
 70
     1
102
RTVSPropertyOp3
 70
     1
102
RTVSPropertyOp4
 70
     1
102
RTVSPropertyOp5
 70
     1
102
RTVSPropertyOp6
 70
     1
102
RTVSPropertyOp7
 70
     1
102
RTVSPropertyOp8
 70
     1
102
RTVSPropertyOp9
 70
     1
102
RTVSPropertyOp10
 70
     1
102
RTVSPropertyOp11
 70
     1
102
RTVSPropertyOp12
 70
     1
102
RTVSPropertyOp13
 70
     1
102
RTVSPropertyOp14
 70
     1
102
RTVSPropertyOp15
 70
     1
102
RTVSPropertyOp16
 70
     1
102
RTVSPropertyOp17
 70
     1
102
RTVSPropertyOp18
 70
     1
102
RTVSPropertyOp19
 70
     1
102
RTVSPropertyOp20
 70
     1
102
RTVSPropertyOp21
 70
     1
102
RTVSPropertyOp22
 70
     1
102
RTVSPropertyOp23
 70
     1
102
RTVSPropertyOp24
 70
     1
102
RTVSPropertyOp25
 70
     1
102
RTVSPropertyOp26
 70
     1
102
RTVSPropertyOp27
 70
     1
102
RTVSPropertyOp28
 70
     1
102
RTVSPropertyOp29
 70
     1
102
RTVSPropertyOp30
 70
     1
102
RTVSPropertyOp31
 70
     1
102
RTVSPropertyOp32
 70
     1
  0
XRECORD
  5
CA
102
{ACAD_REACTORS
330
C9
102
}
330
C9
100
AcDbXrecord
280
     1
102
RTVSPropertyOp0
 70
     1
102
RTVSPropertyOp1
 70
     1
102
RTVSPropertyOp2
 70
     1
102
RTVSPropertyOp3
 70
     1
102
RTVSPropertyOp4
 70
     1
102
RTVSPropertyOp5
 70
     1
102
RTVSPropertyOp6
 70
     1
102
RTVSPropertyOp7
 70
     1
102
RTVSPropertyOp8
 70
     1
102
RTVSPropertyOp9
 70
     1
102
RTVSPropertyOp10
 70
     1
102
RTVSPropertyOp11
 70
     1
102
RTVSPropertyOp12
 70
     1
102
RTVSPropertyOp13
 70
     1
102
RTVSPropertyOp14
 70
     1
102
RTVSPropertyOp15
 70
     1
102
RTVSPropertyOp16
 70
     1
102
RTVSPropertyOp17
 70
     1
102
RTVSPropertyOp18
 70
     1
102
RTVSPropertyOp19
 70
     1
102
RTVSPropertyOp20
 70
     1
102
RTVSPropertyOp21
 70
     1
102
RTVSPropertyOp22
 70
     1
102
RTVSPropertyOp23
 70
     1
102
RTVSPropertyOp24
 70
     1
102
RTVSPropertyOp25
 70
     1
102
RTVSPropertyOp26
 70
     1
102
RTVSPropertyOp27
 70
     1
102
RTVSPropertyOp28
 70
     1
102
RTVSPropertyOp29
 70
     1
102
RTVSPropertyOp30
 70
     1
102
RTVSPropertyOp31
 70
     1
102
RTVSPropertyOp32
 70
     1
  0
XRECORD
  5
AE
102
{ACAD_REACTORS
330
AD
102
}
330
AD
100
AcDbXrecord
280
     1
102
RTVSPropertyOp0
 70
     1
102
RTVSPropertyOp1
 70
     1
102
RTVSPropertyOp2
 70
     1
102
RTVSPropertyOp3
 70
     1
102
RTVSPropertyOp4
 70
     1
102
RTVSPropertyOp5
 70
     1
102
RTVSPropertyOp6
 70
     1
102
RTVSPropertyOp7
 70
     1
102
RTVSPropertyOp8
 70
     1
102
RTVSPropertyOp9
 70
     1
102
RTVSPropertyOp10
 70
     1
102
RTVSPropertyOp11
 70
     1
102
RTVSPropertyOp12
 70
     1
102
RTVSPropertyOp13
 70
     1
102
RTVSPropertyOp14
 70
     1
102
RTVSPropertyOp15
 70
     1
102
RTVSPropertyOp16
 70
     1
102
RTVSPropertyOp17
 70
     1
102
RTVSPropertyOp18
 70
     1
102
RTVSPropertyOp19
 70
     1
102
RTVSPropertyOp20
 70
     1
102
RTVSPropertyOp21
 70
     1
102
RTVSPropertyOp22
 70
     1
102
RTVSPropertyOp23
 70
     1
102
RTVSPropertyOp24
 70
     1
102
RTVSPropertyOp25
 70
     1
102
RTVSPropertyOp26
 70
     1
102
RTVSPropertyOp27
 70
     1
102
RTVSPropertyOp28
 70
     1
102
RTVSPropertyOp29
 70
     1
102
RTVSPropertyOp30
 70
     1
102
RTVSPropertyOp31
 70
     1
102
RTVSPropertyOp32
 70
     1
  0
XRECORD
  5
B0
102
{ACAD_REACTORS
330
AF
102
}
330
AF
100
AcDbXrecord
280
     1
102
RTVSPropertyOp0
 70
     1
102
RTVSPropertyOp1
 70
     1
102
RTVSPropertyOp2
 70
     1
102
RTVSPropertyOp3
 70
     1
102
RTVSPropertyOp4
 70
     1
102
RTVSPropertyOp5
 70
     1
102
RTVSPropertyOp6
 70
     1
102
RTVSPropertyOp7
 70
     1
102
RTVSPropertyOp8
 70
     1
102
RTVSPropertyOp9
 70
     1
102
RTVSPropertyOp10
 70
     1
102
RTVSPropertyOp11
 70
     1
102
RTVSPropertyOp12
 70
     1
102
RTVSPropertyOp13
 70
     1
102
RTVSPropertyOp14
 70
     1
102
RTVSPropertyOp15
 70
     1
102
RTVSPropertyOp16
 70
     1
102
RTVSPropertyOp17
 70
     1
102
RTVSPropertyOp18
 70
     1
102
RTVSPropertyOp19
 70
     1
102
RTVSPropertyOp20
 70
     1
102
RTVSPropertyOp21
 70
     1
102
RTVSPropertyOp22
 70
     1
102
RTVSPropertyOp23
 70
     1
102
RTVSPropertyOp24
 70
     1
102
RTVSPropertyOp25
 70
     1
102
RTVSPropertyOp26
 70
     1
102
RTVSPropertyOp27
 70
     1
102
RTVSPropertyOp28
 70
     1
102
RTVSPropertyOp29
 70
     1
102
RTVSPropertyOp30
 70
     1
102
RTVSPropertyOp31
 70
     1
102
RTVSPropertyOp32
 70
     1
  0
XRECORD
  5
B2
102
{ACAD_REACTORS
330
B1
102
}
330
B1
100
AcDbXrecord
280
     1
102
RTVSPropertyOp0
 70
     1
102
RTVSPropertyOp1
 70
     1
102
RTVSPropertyOp2
 70
     1
102
RTVSPropertyOp3
 70
     1
102
RTVSPropertyOp4
 70
     1
102
RTVSPropertyOp5
 70
     1
102
RTVSPropertyOp6
 70
     1
102
RTVSPropertyOp7
 70
     1
102
RTVSPropertyOp8
 70
     1
102
RTVSPropertyOp9
 70
     1
102
RTVSPropertyOp10
 70
     1
102
RTVSPropertyOp11
 70
     1
102
RTVSPropertyOp12
 70
     1
102
RTVSPropertyOp13
 70
     1
102
RTVSPropertyOp14
 70
     1
102
RTVSPropertyOp15
 70
     1
102
RTVSPropertyOp16
 70
     1
102
RTVSPropertyOp17
 70
     1
102
RTVSPropertyOp18
 70
     1
102
RTVSPropertyOp19
 70
     1
102
RTVSPropertyOp20
 70
     1
102
RTVSPropertyOp21
 70
     1
102
RTVSPropertyOp22
 70
     1
102
RTVSPropertyOp23
 70
     1
102
RTVSPropertyOp24
 70
     1
102
RTVSPropertyOp25
 70
     1
102
RTVSPropertyOp26
 70
     1
102
RTVSPropertyOp27
 70
     1
102
RTVSPropertyOp28
 70
     1
102
RTVSPropertyOp29
 70
     1
102
RTVSPropertyOp30
 70
     1
102
RTVSPropertyOp31
 70
     1
102
RTVSPropertyOp32
 70
     1
  0
XRECORD
  5
B4
102
{ACAD_REACTORS
330
B3
102
}
330
B3
100
AcDbXrecord
280
     1
102
RTVSPropertyOp0
 70
     1
102
RTVSPropertyOp1
 70
     1
102
RTVSPropertyOp2
 70
     1
102
RTVSPropertyOp3
 70
     1
102
RTVSPropertyOp4
 70
     1
102
RTVSPropertyOp5
 70
     1
102
RTVSPropertyOp6
 70
     1
102
RTVSPropertyOp7
 70
     1
102
RTVSPropertyOp8
 70
     1
102
RTVSPropertyOp9
 70
     1
102
RTVSPropertyOp10
 70
     1
102
RTVSPropertyOp11
 70
     1
102
RTVSPropertyOp12
 70
     1
102
RTVSPropertyOp13
 70
     1
102
RTVSPropertyOp14
 70
     1
102
RTVSPropertyOp15
 70
     1
102
RTVSPropertyOp16
 70
     1
102
RTVSPropertyOp17
 70
     1
102
RTVSPropertyOp18
 70
     1
102
RTVSPropertyOp19
 70
     1
102
RTVSPropertyOp20
 70
     1
102
RTVSPropertyOp21
 70
     1
102
RTVSPropertyOp22
 70
     1
102
RTVSPropertyOp23
 70
     1
102
RTVSPropertyOp24
 70
     1
102
RTVSPropertyOp25
 70
     1
102
RTVSPropertyOp26
 70
     1
102
RTVSPropertyOp27
 70
     1
102
RTVSPropertyOp28
 70
     1
102
RTVSPropertyOp29
 70
     1
102
RTVSPropertyOp30
 70
     1
102
RTVSPropertyOp31
 70
     1
102
RTVSPropertyOp32
 70
     1
  0
XRECORD
  5
C8
102
{ACAD_REACTORS
330
C7
102
}
330
C7
100
AcDbXrecord
280
     1
102
RTVSPropertyOp0
 70
     1
102
RTVSPropertyOp1
 70
     1
102
RTVSPropertyOp2
 70
     1
102
RTVSPropertyOp3
 70
     1
102
RTVSPropertyOp4
 70
     1
102
RTVSPropertyOp5
 70
     1
102
RTVSPropertyOp6
 70
     1
102
RTVSPropertyOp7
 70
     1
102
RTVSPropertyOp8
 70
     1
102
RTVSPropertyOp9
 70
     1
102
RTVSPropertyOp10
 70
     1
102
RTVSPropertyOp11
 70
     1
102
RTVSPropertyOp12
 70
     1
102
RTVSPropertyOp13
 70
     1
102
RTVSPropertyOp14
 70
     1
102
RTVSPropertyOp15
 70
     1
102
RTVSPropertyOp16
 70
     1
102
RTVSPropertyOp17
 70
     1
102
RTVSPropertyOp18
 70
     1
102
RTVSPropertyOp19
 70
     1
102
RTVSPropertyOp20
 70
     1
102
RTVSPropertyOp21
 70
     1
102
RTVSPropertyOp22
 70
     1
102
RTVSPropertyOp23
 70
     1
102
RTVSPropertyOp24
 70
     1
102
RTVSPropertyOp25
 70
     1
102
RTVSPropertyOp26
 70
     1
102
RTVSPropertyOp27
 70
     1
102
RTVSPropertyOp28
 70
     1
102
RTVSPropertyOp29
 70
     1
102
RTVSPropertyOp30
 70
     1
102
RTVSPropertyOp31
 70
     1
102
RTVSPropertyOp32
 70
     1
  0
XRECORD
  5
BE
102
{ACAD_REACTORS
330
BD
102
}
330
BD
100
AcDbXrecord
280
     1
102
RTVSPropertyOp0
 70
     1
102
RTVSPropertyOp1
 70
     1
102
RTVSPropertyOp2
 70
     1
102
RTVSPropertyOp3
 70
     1
102
RTVSPropertyOp4
 70
     1
102
RTVSPropertyOp5
 70
     1
102
RTVSPropertyOp6
 70
     1
102
RTVSPropertyOp7
 70
     1
102
RTVSPropertyOp8
 70
     1
102
RTVSPropertyOp9
 70
     1
102
RTVSPropertyOp10
 70
     1
102
RTVSPropertyOp11
 70
     1
102
RTVSPropertyOp12
 70
     1
102
RTVSPropertyOp13
 70
     1
102
RTVSPropertyOp14
 70
     1
102
RTVSPropertyOp15
 70
     1
102
RTVSPropertyOp16
 70
     1
102
RTVSPropertyOp17
 70
     1
102
RTVSPropertyOp18
 70
     1
102
RTVSPropertyOp19
 70
     1
102
RTVSPropertyOp20
 70
     1
102
RTVSPropertyOp21
 70
     1
102
RTVSPropertyOp22
 70
     1
102
RTVSPropertyOp23
 70
     1
102
RTVSPropertyOp24
 70
     1
102
RTVSPropertyOp25
 70
     1
102
RTVSPropertyOp26
 70
     1
102
RTVSPropertyOp27
 70
     1
102
RTVSPropertyOp28
 70
     1
102
RTVSPropertyOp29
 70
     1
102
RTVSPropertyOp30
 70
     1
102
RTVSPropertyOp31
 70
     1
102
RTVSPropertyOp32
 70
     1
  0
XRECORD
  5
C6
102
{ACAD_REACTORS
330
C5
102
}
330
C5
100
AcDbXrecord
280
     1
102
RTVSPropertyOp0
 70
     1
102
RTVSPropertyOp1
 70
     1
102
RTVSPropertyOp2
 70
     1
102
RTVSPropertyOp3
 70
     1
102
RTVSPropertyOp4
 70
     1
102
RTVSPropertyOp5
 70
     1
102
RTVSPropertyOp6
 70
     1
102
RTVSPropertyOp7
 70
     1
102
RTVSPropertyOp8
 70
     1
102
RTVSPropertyOp9
 70
     1
102
RTVSPropertyOp10
 70
     1
102
RTVSPropertyOp11
 70
     1
102
RTVSPropertyOp12
 70
     1
102
RTVSPropertyOp13
 70
     1
102
RTVSPropertyOp14
 70
     1
102
RTVSPropertyOp15
 70
     1
102
RTVSPropertyOp16
 70
     1
102
RTVSPropertyOp17
 70
     1
102
RTVSPropertyOp18
 70
     1
102
RTVSPropertyOp19
 70
     1
102
RTVSPropertyOp20
 70
     1
102
RTVSPropertyOp21
 70
     1
102
RTVSPropertyOp22
 70
     1
102
RTVSPropertyOp23
 70
     1
102
RTVSPropertyOp24
 70
     1
102
RTVSPropertyOp25
 70
     1
102
RTVSPropertyOp26
 70
     1
102
RTVSPropertyOp27
 70
     1
102
RTVSPropertyOp28
 70
     1
102
RTVSPropertyOp29
 70
     1
102
RTVSPropertyOp30
 70
     1
102
RTVSPropertyOp31
 70
     1
102
RTVSPropertyOp32
 70
     1
  0
ENDSEC
  0
EOF
