  0
SECTION
  2
HEADER
  9
$ACADVER
  1
AC1021
  9
$ACADMAINTVER
 70
    25
  9
$DWGCODEPAGE
  3
ANSI_1252
  9
$INSBASE
 10
0.0
 20
0.0
 30
0.0
  9
$EXTMIN
 10
-187.554
 20
-111.1894
 30
0.0
  9
$EXTMAX
 10
-47.8713
 20
125.7781
 30
0.0
  9
$LIMMIN
 10
0.0
 20
0.0
  9
$LIMMAX
 10
12.0
 20
9.0
  9
$ORTHOMODE
 70
     0
  9
$REGENMODE
 70
     1
  9
$FILLMODE
 70
     1
  9
$QTEXTMODE
 70
     0
  9
$MIRRTEXT
 70
     1
  9
$LTSCALE
 40
1.0
  9
$ATTMODE
 70
     1
  9
$TEXTSIZE
 40
0.2
  9
$TRACEWID
 40
0.05
  9
$TEXTSTYLE
  7
Standard
  9
$CLAYER
  8
0
  9
$CELTYPE
  6
ByLayer
  9
$CECOLOR
 62
   256
  9
$CELTSCALE
 40
1.0
  9
$DISPSILH
 70
     0
  9
$DIMSCALE
 40
1.0
  9
$DIMASZ
 40
0.18
  9
$DIMEXO
 40
0.0625
  9
$DIMDLI
 40
0.38
  9
$DIMRND
 40
0.0
  9
$DIMDLE
 40
0.0
  9
$DIMEXE
 40
0.18
  9
$DIMTP
 40
0.0
  9
$DIMTM
 40
0.0
  9
$DIMTXT
 40
0.18
  9
$DIMCEN
 40
0.09
  9
$DIMTSZ
 40
0.0
  9
$DIMTOL
 70
     0
  9
$DIMLIM
 70
     0
  9
$DIMTIH
 70
     1
  9
$DIMTOH
 70
     1
  9
$DIMSE1
 70
     0
  9
$DIMSE2
 70
     0
  9
$DIMTAD
 70
     0
  9
$DIMZIN
 70
     0
  9
$DIMBLK
  1

  9
$DIMASO
 70
     1
  9
$DIMSHO
 70
     1
  9
$DIMPOST
  1

  9
$DIMAPOST
  1

  9
$DIMALT
 70
     0
  9
$DIMALTD
 70
     2
  9
$DIMALTF
 40
25.4
  9
$DIMLFAC
 40
1.0
  9
$DIMTOFL
 70
     0
  9
$DIMTVP
 40
0.0
  9
$DIMTIX
 70
     0
  9
$DIMSOXD
 70
     0
  9
$DIMSAH
 70
     0
  9
$DIMBLK1
  1

  9
$DIMBLK2
  1

  9
$DIMSTYLE
  2
Standard
  9
$DIMCLRD
 70
     0
  9
$DIMCLRE
 70
     0
  9
$DIMCLRT
 70
     0
  9
$DIMTFAC
 40
1.0
  9
$DIMGAP
 40
0.09
  9
$DIMJUST
 70
     0
  9
$DIMSD1
 70
     0
  9
$DIMSD2
 70
     0
  9
$DIMTOLJ
 70
     1
  9
$DIMTZIN
 70
     0
  9
$DIMALTZ
 70
     0
  9
$DIMALTTZ
 70
     0
  9
$DIMUPT
 70
     0
  9
$DIMDEC
 70
     4
  9
$DIMTDEC
 70
     4
  9
$DIMALTU
 70
     2
  9
$DIMALTTD
 70
     2
  9
$DIMTXSTY
  7
Standard
  9
$DIMAUNIT
 70
     0
  9
$DIMADEC
 70
     0
  9
$DIMALTRND
 40
0.0
  9
$DIMAZIN
 70
     0
  9
$DIMDSEP
 70
    46
  9
$DIMATFIT
 70
     3
  9
$DIMFRAC
 70
     0
  9
$DIMLDRBLK
  1

  9
$DIMLUNIT
 70
     2
  9
$DIMLWD
 70
    -2
  9
$DIMLWE
 70
    -2
  9
$DIMTMOVE
 70
     0
  9
$DIMFXL
 40
1.0
  9
$DIMFXLON
 70
     0
  9
$DIMJOGANG
 40
0.7853981633974483
  9
$DIMTFILL
 70
     0
  9
$DIMTFILLCLR
 70
     0
  9
$DIMARCSYM
 70
     0
  9
$DIMLTYPE
  6

  9
$DIMLTEX1
  6

  9
$DIMLTEX2
  6

  9
$LUNITS
 70
     2
  9
$LUPREC
 70
     4
  9
$SKETCHINC
 40
0.1
  9
$FILLETRAD
 40
0.5
  9
$AUNITS
 70
     0
  9
$AUPREC
 70
     0
  9
$MENU
  1
.
  9
$ELEVATION
 40
0.0
  9
$PELEVATION
 40
0.0
  9
$THICKNESS
 40
0.0
  9
$LIMCHECK
 70
     0
  9
$CHAMFERA
 40
0.5
  9
$CHAMFERB
 40
0.5
  9
$CHAMFERC
 40
1.0
  9
$CHAMFERD
 40
0.0
  9
$SKPOLY
 70
     0
  9
$TDCREATE
 40
2458492.677559525
  9
$TDUCREATE
 40
2458492.677559525
  9
$TDUPDATE
 40
2458492.677559838
  9
$TDUUPDATE
 40
2458492.677559838
  9
$TDINDWG
 40
0.0000000116
  9
$TDUSRTIMER
 40
0.0000000116
  9
$USRTIMER
 70
     1
  9
$ANGBASE
 50
0.0
  9
$ANGDIR
 70
     0
  9
$PDMODE
 70
     0
  9
$PDSIZE
 40
0.0
  9
$PLINEWID
 40
0.0
  9
$SPLFRAME
 70
     0
  9
$SPLINETYPE
 70
     6
  9
$SPLINESEGS
 70
     8
  9
$HANDSEED
  5
B2
  9
$SURFTAB1
 70
     6
  9
$SURFTAB2
 70
     6
  9
$SURFTYPE
 70
     6
  9
$SURFU
 70
     6
  9
$SURFV
 70
     6
  9
$UCSBASE
  2

  9
$UCSNAME
  2

  9
$UCSORG
 10
0.0
 20
0.0
 30
0.0
  9
$UCSXDIR
 10
1.0
 20
0.0
 30
0.0
  9
$UCSYDIR
 10
0.0
 20
1.0
 30
0.0
  9
$UCSORTHOREF
  2

  9
$UCSORTHOVIEW
 70
     0
  9
$UCSORGTOP
 10
0.0
 20
0.0
 30
0.0
  9
$UCSORGBOTTOM
 10
0.0
 20
0.0
 30
0.0
  9
$UCSORGLEFT
 10
0.0
 20
0.0
 30
0.0
  9
$UCSORGRIGHT
 10
0.0
 20
0.0
 30
0.0
  9
$UCSORGFRONT
 10
0.0
 20
0.0
 30
0.0
  9
$UCSORGBACK
 10
0.0
 20
0.0
 30
0.0
  9
$PUCSBASE
  2

  9
$PUCSNAME
  2

  9
$PUCSORG
 10
0.0
 20
0.0
 30
0.0
  9
$PUCSXDIR
 10
1.0
 20
0.0
 30
0.0
  9
$PUCSYDIR
 10
0.0
 20
1.0
 30
0.0
  9
$PUCSORTHOREF
  2

  9
$PUCSORTHOVIEW
 70
     0
  9
$PUCSORGTOP
 10
0.0
 20
0.0
 30
0.0
  9
$PUCSORGBOTTOM
 10
0.0
 20
0.0
 30
0.0
  9
$PUCSORGLEFT
 10
0.0
 20
0.0
 30
0.0
  9
$PUCSORGRIGHT
 10
0.0
 20
0.0
 30
0.0
  9
$PUCSORGFRONT
 10
0.0
 20
0.0
 30
0.0
  9
$PUCSORGBACK
 10
0.0
 20
0.0
 30
0.0
  9
$USERI1
 70
     0
  9
$USERI2
 70
     0
  9
$USERI3
 70
     0
  9
$USERI4
 70
     0
  9
$USERI5
 70
     0
  9
$USERR1
 40
0.0
  9
$USERR2
 40
0.0
  9
$USERR3
 40
0.0
  9
$USERR4
 40
0.0
  9
$USERR5
 40
0.0
  9
$WORLDVIEW
 70
     1
  9
$SHADEDGE
 70
     3
  9
$SHADEDIF
 70
    70
  9
$TILEMODE
 70
     1
  9
$MAXACTVP
 70
    64
  9
$PINSBASE
 10
0.0
 20
0.0
 30
0.0
  9
$PLIMCHECK
 70
     0
  9
$PEXTMIN
 10
1.000000000000000E+20
 20
1.000000000000000E+20
 30
1.000000000000000E+20
  9
$PEXTMAX
 10
-1.000000000000000E+20
 20
-1.000000000000000E+20
 30
-1.000000000000000E+20
  9
$PLIMMIN
 10
0.0
 20
0.0
  9
$PLIMMAX
 10
12.0
 20
9.0
  9
$UNITMODE
 70
     0
  9
$VISRETAIN
 70
     1
  9
$PLINEGEN
 70
     0
  9
$PSLTSCALE
 70
     1
  9
$TREEDEPTH
 70
  3020
  9
$CMLSTYLE
  2
Standard
  9
$CMLJUST
 70
     0
  9
$CMLSCALE
 40
1.0
  9
$PROXYGRAPHICS
 70
     1
  9
$MEASUREMENT
 70
     0
  9
$CELWEIGHT
370
    -1
  9
$ENDCAPS
280
     0
  9
$JOINSTYLE
280
     0
  9
$LWDISPLAY
290
     0
  9
$INSUNITS
 70
     4
  9
$HYPERLINKBASE
  1

  9
$STYLESHEET
  1

  9
$XEDIT
290
     1
  9
$CEPSNTYPE
380
     0
  9
$PSTYLEMODE
290
     1
  9
$FINGERPRINTGUID
  2
{78A4D056-AFFC-4225-A51A-85773D10E32F}
  9
$VERSIONGUID
  2
{FAEB1C32-E019-11D5-929B-00C0DF256EC4}
  9
$EXTNAMES
290
     1
  9
$PSVPSCALE
 40
0.0
  9
$OLESTARTUP
290
     0
  9
$SORTENTS
280
   127
  9
$INDEXCTL
280
     0
  9
$HIDETEXT
280
     1
  9
$XCLIPFRAME
290
     0
  9
$HALOGAP
280
     0
  9
$OBSCOLOR
 70
   257
  9
$OBSLTYPE
280
     0
  9
$INTERSECTIONDISPLAY
280
     0
  9
$INTERSECTIONCOLOR
 70
   257
  9
$DIMASSOC
280
     2
  9
$PROJECTNAME
  1

  9
$CAMERADISPLAY
290
     0
  9
$LENSLENGTH
 40
50.0
  9
$CAMERAHEIGHT
 40
0.0
  9
$STEPSPERSEC
 40
2.0
  9
$STEPSIZE
 40
6.0
  9
$3DDWFPREC
 40
2.0
  9
$PSOLWIDTH
 40
0.25
  9
$PSOLHEIGHT
 40
4.0
  9
$LOFTANG1
 40
1.570796326794897
  9
$LOFTANG2
 40
1.570796326794897
  9
$LOFTMAG1
 40
0.0
  9
$LOFTMAG2
 40
0.0
  9
$LOFTPARAM
 70
     7
  9
$LOFTNORMALS
280
     1
  9
$LATITUDE
 40
37.795
  9
$LONGITUDE
 40
-122.394
  9
$NORTHDIRECTION
 40
0.0
  9
$TIMEZONE
 70
 -8000
  9
$LIGHTGLYPHDISPLAY
280
     1
  9
$TILEMODELIGHTSYNCH
280
     1
  9
$SOLIDHIST
280
     1
  9
$SHOWHIST
280
     1
  9
$DWFFRAME
280
     2
  9
$DGNFRAME
280
     2
  9
$REALWORLDSCALE
290
     1
  9
$INTERFERECOLOR
 62
   256
  9
$CSHADOW
280
     0
  9
$SHADOWPLANELOCATION
 40
0.0
  0
ENDSEC
  0
SECTION
  2
CLASSES
  0
CLASS
  1
ACDBDICTIONARYWDFLT
  2
AcDbDictionaryWithDefault
  3
ObjectDBX Classes
 90
        0
 91
        4
280
     0
281
     0
  0
CLASS
  1
VISUALSTYLE
  2
AcDbVisualStyle
  3
ObjectDBX Classes
 90
     4095
 91
        4
280
     0
281
     0
  0
CLASS
  1
MATERIAL
  2
AcDbMaterial
  3
ObjectDBX Classes
 90
     1153
 91
        4
280
     0
281
     0
  0
ENDSEC
  0
SECTION
  2
TABLES
  0
TABLE
  2
VPORT
  5
8
330
0
100
AcDbSymbolTable
 70
     1
  0
VPORT
  5
29
330
8
100
AcDbSymbolTableRecord
100
AcDbViewportTableRecord
  2
*Active
 70
     0
 10
0.0
 20
0.0
 11
1.0
 21
1.0
 12
10.42990654205607
 22
4.5
 13
0.0
 23
0.0
 14
0.5
 24
0.5
 15
0.5
 25
0.5
 16
0.0
 26
0.0
 36
1.0
 17
0.0
 27
0.0
 37
0.0
 40
9.0
 41
1.972972972850329
 42
50.0
 43
0.0
 44
0.0
 50
0.0
 51
0.0
 71
     0
 72
   100
 73
     1
 74
     3
 75
     0
 76
     0
 77
     0
 78
     0
281
     0
 65
     1
110
0.0
120
0.0
130
0.0
111
1.0
121
0.0
131
0.0
112
0.0
122
1.0
132
0.0
 79
     0
146
0.0
 60
     3
 61
     5
292
     1
282
     1
141
0.0
142
0.0
 63
   250
  0
ENDTAB
  0
TABLE
  2
LTYPE
  5
5
330
0
100
AcDbSymbolTable
 70
     1
  0
LTYPE
  5
14
330
5
100
AcDbSymbolTableRecord
100
AcDbLinetypeTableRecord
  2
ByBlock
 70
     0
  3

 72
    65
 73
     0
 40
0.0
  0
LTYPE
  5
15
330
5
100
AcDbSymbolTableRecord
100
AcDbLinetypeTableRecord
  2
ByLayer
 70
     0
  3

 72
    65
 73
     0
 40
0.0
  0
LTYPE
  5
16
330
5
100
AcDbSymbolTableRecord
100
AcDbLinetypeTableRecord
  2
Continuous
 70
     0
  3
Solid line
 72
    65
 73
     0
 40
0.0
  0
ENDTAB
  0
TABLE
  2
LAYER
  5
2
330
0
100
AcDbSymbolTable
 70
     2
  0
LAYER
  5
10
330
2
100
AcDbSymbolTableRecord
100
AcDbLayerTableRecord
  2
0
 70
     0
 62
     7
  6
Continuous
370
    -3
390
F
347
3E
  0
LAYER
  5
40
330
2
100
AcDbSymbolTableRecord
100
AcDbLayerTableRecord
  2
layer 1
 70
     0
 62
     7
  6
Continuous
370
    -3
390
F
347
3E
  0
ENDTAB
  0
TABLE
  2
STYLE
  5
3
330
0
100
AcDbSymbolTable
 70
     1
  0
STYLE
  5
11
330
3
100
AcDbSymbolTableRecord
100
AcDbTextStyleTableRecord
  2
Standard
 70
     0
 40
0.0
 41
1.0
 50
0.0
 71
     0
 42
0.2
  3
txt
  4

  0
ENDTAB
  0
TABLE
  2
VIEW
  5
6
330
0
100
AcDbSymbolTable
 70
     0
  0
ENDTAB
  0
TABLE
  2
UCS
  5
7
330
0
100
AcDbSymbolTable
 70
     0
  0
ENDTAB
  0
TABLE
  2
APPID
  5
9
330
0
100
AcDbSymbolTable
 70
     2
  0
APPID
  5
12
330
9
100
AcDbSymbolTableRecord
100
AcDbRegAppTableRecord
  2
ACAD
 70
     0
  0
APPID
  5
3F
330
9
100
AcDbSymbolTableRecord
100
AcDbRegAppTableRecord
  2
ODA
 70
     0
  0
ENDTAB
  0
TABLE
  2
DIMSTYLE
  5
A
330
0
100
AcDbSymbolTable
 70
     1
100
AcDbDimStyleTable
  0
DIMSTYLE
105
27
330
A
100
AcDbSymbolTableRecord
100
AcDbDimStyleTableRecord
  2
Standard
 70
     0
178
     0
340
11
  0
ENDTAB
  0
TABLE
  2
BLOCK_RECORD
  5
1
330
0
100
AcDbSymbolTable
 70
     1
  0
BLOCK_RECORD
  5
1F
330
1
100
AcDbSymbolTableRecord
100
AcDbBlockTableRecord
  2
*Model_Space
340
22
 70
     0
280
     1
281
     0
  0
BLOCK_RECORD
  5
1B
330
1
100
AcDbSymbolTableRecord
100
AcDbBlockTableRecord
  2
*Paper_Space
340
1E
 70
     0
280
     1
281
     0
  0
BLOCK_RECORD
  5
23
330
1
100
AcDbSymbolTableRecord
100
AcDbBlockTableRecord
  2
*Paper_Space0
340
26
 70
     0
280
     1
281
     0
  0
ENDTAB
  0
ENDSEC
  0
SECTION
  2
BLOCKS
  0
BLOCK
  5
20
330
1F
100
AcDbEntity
  8
0
100
AcDbBlockBegin
  2
*Model_Space
 70
     0
 10
0.0
 20
0.0
 30
0.0
  3
*Model_Space
  1

  0
ENDBLK
  5
21
330
1F
100
AcDbEntity
  8
0
100
AcDbBlockEnd
  0
BLOCK
  5
1C
330
1B
100
AcDbEntity
 67
     1
  8
0
100
AcDbBlockBegin
  2
*Paper_Space
 70
     0
 10
0.0
 20
0.0
 30
0.0
  3
*Paper_Space
  1

  0
ENDBLK
  5
1D
330
1B
100
AcDbEntity
 67
     1
  8
0
100
AcDbBlockEnd
  0
BLOCK
  5
24
330
23
100
AcDbEntity
  8
0
100
AcDbBlockBegin
  2
*Paper_Space0
 70
     0
 10
0.0
 20
0.0
 30
0.0
  3
*Paper_Space0
  1

  0
ENDBLK
  5
25
330
23
100
AcDbEntity
  8
0
100
AcDbBlockEnd
  0
ENDSEC
  0
SECTION
  2
ENTITIES
  0
SPLINE
  5
41
330
1F
100
AcDbEntity
  8
layer 1
 62
   250
370
     9
100
AcDbSpline
210
0.0
220
0.0
230
1.0
 70
    11
 71
     3
 72
    24
 73
    20
 74
     0
 42
0.0000000001
 43
0.0000000001
 12
1.0
 22
0.0
 32
0.0
 13
1.0
 23
0.0
 33
0.0
 40
0.0
 40
0.0
 40
0.0
 40
0.0
 40
0.1666666666666667
 40
0.1666666666666667
 40
0.1666666666666667
 40
0.1666666666666667
 40
0.3333333333333333
 40
0.3333333333333333
 40
0.3333333333333333
 40
0.3333333333333333
 40
0.5
 40
0.5
 40
0.5
 40
0.5
 40
0.6666666666666666
 40
0.6666666666666666
 40
0.6666666666666666
 40
0.6666666666666666
 40
1.0
 40
1.0
 40
1.0
 40
1.0
 10
-187.5159
 20
7.2942
 30
0.0
 10
-187.5159
 20
7.2942
 30
0.0
 10
-187.5159
 20
-111.1513
 30
0.0
 10
-187.5159
 20
-111.1513
 30
0.0
 10
-187.5159
 20
-111.1513
 30
0.0
 10
-187.5159
 20
-111.1513
 30
0.0
 10
-47.9094
 20
-111.1513
 30
0.0
 10
-47.9094
 20
-111.1513
 30
0.0
 10
-47.9094
 20
-111.1513
 30
0.0
 10
-47.9094
 20
-111.1513
 30
0.0
 10
-47.9094
 20
125.74
 30
0.0
 10
-47.9094
 20
125.74
 30
0.0
 10
-47.9094
 20
125.74
 30
0.0
 10
-47.9094
 20
125.74
 30
0.0
 10
-187.5159
 20
125.74
 30
0.0
 10
-187.5159
 20
125.74
 30
0.0
 10
-187.5159
 20
125.74
 30
0.0
 10
-187.5159
 20
125.74
 30
0.0
 10
-187.5159
 20
7.2942
 30
0.0
 10
-187.5159
 20
7.2942
 30
0.0
  0
SPLINE
  5
42
330
1F
100
AcDbEntity
  8
layer 1
 62
     7
370
     9
100
AcDbSpline
210
0.0
220
0.0
230
1.0
 70
    11
 71
     3
 72
    36
 73
    32
 74
     0
 42
0.0000000001
 43
0.0000000001
 12
1.0
 22
0.0
 32
0.0
 13
1.0
 23
0.0
 33
0.0
 40
0.0
 40
0.0
 40
0.0
 40
0.0
 40
0.1111111111111111
 40
0.1111111111111111
 40
0.1111111111111111
 40
0.1111111111111111
 40
0.2222222222222222
 40
0.2222222222222222
 40
0.2222222222222222
 40
0.2222222222222222
 40
0.3333333333333333
 40
0.3333333333333333
 40
0.3333333333333333
 40
0.3333333333333333
 40
0.4444444444444444
 40
0.4444444444444444
 40
0.4444444444444444
 40
0.4444444444444444
 40
0.5555555555555556
 40
0.5555555555555556
 40
0.5555555555555556
 40
0.5555555555555556
 40
0.6666666666666666
 40
0.6666666666666666
 40
0.6666666666666666
 40
0.6666666666666666
 40
0.7777777777777778
 40
0.7777777777777778
 40
0.7777777777777778
 40
0.7777777777777778
 40
1.0
 40
1.0
 40
1.0
 40
1.0
 10
-117.9106
 20
-104.6233
 30
0.0
 10
-117.9106
 20
-104.6233
 30
0.0
 10
-120.5621
 20
-104.6233
 30
0.0
 10
-120.5621
 20
-104.6233
 30
0.0
 10
-120.5621
 20
-104.6233
 30
0.0
 10
-120.5621
 20
-104.6233
 30
0.0
 10
-120.5621
 20
-70.5133
 30
0.0
 10
-120.5621
 20
-70.5133
 30
0.0
 10
-120.5621
 20
-70.5133
 30
0.0
 10
-120.2625
 20
-71.0633
 30
0.0
 10
-119.7449
 20
-71.3817
 30
0.0
 10
-119.2003
 20
-71.3505
 30
0.0
 10
-119.2003
 20
-71.3505
 30
0.0
 10
-118.656
 20
-71.3189
 30
0.0
 10
-118.1655
 20
-70.9429
 30
0.0
 10
-117.9106
 20
-70.3611
 30
0.0
 10
-117.9106
 20
-70.3611
 30
0.0
 10
-117.6557
 20
-70.9429
 30
0.0
 10
-117.1654
 20
-71.3189
 30
0.0
 10
-116.6209
 20
-71.3505
 30
0.0
 10
-116.6209
 20
-71.3505
 30
0.0
 10
-116.0766
 20
-71.3817
 30
0.0
 10
-115.5586
 20
-71.0633
 30
0.0
 10
-115.2594
 20
-70.5133
 30
0.0
 10
-115.2594
 20
-70.5133
 30
0.0
 10
-115.2594
 20
-70.5133
 30
0.0
 10
-115.2594
 20
-104.6233
 30
0.0
 10
-115.2594
 20
-104.6233
 30
0.0
 10
-115.2594
 20
-104.6233
 30
0.0
 10
-115.2594
 20
-104.6233
 30
0.0
 10
-117.9106
 20
-104.6233
 30
0.0
 10
-117.9106
 20
-104.6233
 30
0.0
  0
SPLINE
  5
43
330
1F
100
AcDbEntity
  8
layer 1
 62
     7
370
     9
100
AcDbSpline
210
0.0
220
0.0
230
1.0
 70
    11
 71
     3
 72
    36
 73
    32
 74
     0
 42
0.0000000001
 43
0.0000000001
 12
1.0
 22
0.0
 32
0.0
 13
1.0
 23
0.0
 33
0.0
 40
0.0
 40
0.0
 40
0.0
 40
0.0
 40
0.1111111111111111
 40
0.1111111111111111
 40
0.1111111111111111
 40
0.1111111111111111
 40
0.2222222222222222
 40
0.2222222222222222
 40
0.2222222222222222
 40
0.2222222222222222
 40
0.3333333333333333
 40
0.3333333333333333
 40
0.3333333333333333
 40
0.3333333333333333
 40
0.4444444444444444
 40
0.4444444444444444
 40
0.4444444444444444
 40
0.4444444444444444
 40
0.5555555555555556
 40
0.5555555555555556
 40
0.5555555555555556
 40
0.5555555555555556
 40
0.6666666666666666
 40
0.6666666666666666
 40
0.6666666666666666
 40
0.6666666666666666
 40
0.7777777777777778
 40
0.7777777777777778
 40
0.7777777777777778
 40
0.7777777777777778
 40
1.0
 40
1.0
 40
1.0
 40
1.0
 10
-117.9106
 20
-21.4694
 30
0.0
 10
-117.9106
 20
-21.4694
 30
0.0
 10
-120.6044
 20
-25.0674
 30
0.0
 10
-120.6044
 20
-25.0674
 30
0.0
 10
-120.6044
 20
-25.0674
 30
0.0
 10
-120.6044
 20
-25.0674
 30
0.0
 10
-120.6044
 20
-63.1935
 30
0.0
 10
-120.6044
 20
-63.1935
 30
0.0
 10
-120.6044
 20
-63.1935
 30
0.0
 10
-120.2458
 20
-62.7586
 30
0.0
 10
-119.7562
 20
-62.5186
 30
0.0
 10
-119.2486
 20
-62.5278
 30
0.0
 10
-119.2486
 20
-62.5278
 30
0.0
 10
-118.7406
 20
-62.5378
 30
0.0
 10
-118.2577
 20
-62.7962
 30
0.0
 10
-117.9106
 20
-63.2443
 30
0.0
 10
-117.9106
 20
-63.2443
 30
0.0
 10
-117.5637
 20
-62.7962
 30
0.0
 10
-117.0809
 20
-62.5378
 30
0.0
 10
-116.5729
 20
-62.5278
 30
0.0
 10
-116.5729
 20
-62.5278
 30
0.0
 10
-116.0649
 20
-62.5186
 30
0.0
 10
-115.5757
 20
-62.7586
 30
0.0
 10
-115.2171
 20
-63.1935
 30
0.0
 10
-115.2171
 20
-63.1935
 30
0.0
 10
-115.2171
 20
-63.1935
 30
0.0
 10
-115.2171
 20
-25.0674
 30
0.0
 10
-115.2171
 20
-25.0674
 30
0.0
 10
-115.2171
 20
-25.0674
 30
0.0
 10
-115.2171
 20
-25.0674
 30
0.0
 10
-117.9106
 20
-21.4694
 30
0.0
 10
-117.9106
 20
-21.4694
 30
0.0
  0
SPLINE
  5
44
330
1F
100
AcDbEntity
  8
layer 1
 62
     7
370
     9
100
AcDbSpline
210
0.0
220
0.0
230
1.0
 70
    11
 71
     3
 72
    60
 73
    56
 74
     0
 42
0.0000000001
 43
0.0000000001
 12
1.0
 22
0.0
 32
0.0
 13
1.0
 23
0.0
 33
0.0
 40
0.0
 40
0.0
 40
0.0
 40
0.0
 40
0.0666666666666667
 40
0.0666666666666667
 40
0.0666666666666667
 40
0.0666666666666667
 40
0.1333333333333333
 40
0.1333333333333333
 40
0.1333333333333333
 40
0.1333333333333333
 40
0.2
 40
0.2
 40
0.2
 40
0.2
 40
0.2666666666666667
 40
0.2666666666666667
 40
0.2666666666666667
 40
0.2666666666666667
 40
0.3333333333333333
 40
0.3333333333333333
 40
0.3333333333333333
 40
0.3333333333333333
 40
0.4
 40
0.4
 40
0.4
 40
0.4
 40
0.4666666666666667
 40
0.4666666666666667
 40
0.4666666666666667
 40
0.4666666666666667
 40
0.5333333333333333
 40
0.5333333333333333
 40
0.5333333333333333
 40
0.5333333333333333
 40
0.6
 40
0.6
 40
0.6
 40
0.6
 40
0.6666666666666666
 40
0.6666666666666666
 40
0.6666666666666666
 40
0.6666666666666666
 40
0.7333333333333333
 40
0.7333333333333333
 40
0.7333333333333333
 40
0.7333333333333333
 40
0.8
 40
0.8
 40
0.8
 40
0.8
 40
0.8666666666666667
 40
0.8666666666666667
 40
0.8666666666666667
 40
0.8666666666666667
 40
1.0
 40
1.0
 40
1.0
 40
1.0
 10
-157.1764
 20
0.7053
 30
0.0
 10
-159.3892
 20
0.3294
 30
0.0
 10
-161.5928
 20
1.4647
 30
0.0
 10
-162.9003
 20
3.654
 30
0.0
 10
-162.9003
 20
3.654
 30
0.0
 10
-163.644
 20
4.6662
 30
0.0
 10
-164.6863
 20
5.2864
 30
0.0
 10
-165.8038
 20
5.3822
 30
0.0
 10
-165.8038
 20
5.3822
 30
0.0
 10
-162.7022
 20
-4.0039
 30
0.0
 10
-156.3731
 20
-11.2961
 30
0.0
 10
-148.4646
 20
-14.5958
 30
0.0
 10
-148.4646
 20
-14.5958
 30
0.0
 10
-149.2378
 20
-12.5265
 30
0.0
 10
-149.5289
 20
-10.2416
 30
0.0
 10
-149.3067
 20
-7.9874
 30
0.0
 10
-149.3067
 20
-7.9874
 30
0.0
 10
-150.8659
 20
-7.9221
 30
0.0
 10
-152.1865
 20
-6.5787
 30
0.0
 10
-152.5049
 20
-4.7337
 30
0.0
 10
-152.5049
 20
-4.7337
 30
0.0
 10
-150.0217
 20
-5.0323
 30
0.0
 10
-147.5448
 20
-4.0961
 30
0.0
 10
-145.6451
 20
-2.1411
 30
0.0
 10
-145.6451
 20
-2.1411
 30
0.0
 10
-143.3386
 20
-0.8904
 30
0.0
 10
-140.9044
 20
-0.0181
 30
0.0
 10
-138.4062
 20
0.4515
 30
0.0
 10
-138.4062
 20
0.4515
 30
0.0
 10
-138.4062
 20
0.4515
 30
0.0
 10
-132.0093
 20
0.4515
 30
0.0
 10
-132.0093
 20
0.4515
 30
0.0
 10
-132.0093
 20
0.4515
 30
0.0
 10
-132.0093
 20
0.4515
 30
0.0
 10
-131.967
 20
2.4846
 30
0.0
 10
-131.967
 20
2.4846
 30
0.0
 10
-131.967
 20
2.4846
 30
0.0
 10
-131.967
 20
2.4846
 30
0.0
 10
-140.4684
 20
2.4846
 30
0.0
 10
-140.4684
 20
2.4846
 30
0.0
 10
-140.4684
 20
2.4846
 30
0.0
 10
-144.0699
 20
2.2968
 30
0.0
 10
-147.6424
 20
1.6148
 30
0.0
 10
-151.1162
 20
0.4515
 30
0.0
 10
-151.1162
 20
0.4515
 30
0.0
 10
-152.5262
 20
-0.1975
 30
0.0
 10
-153.5391
 20
-1.7119
 30
0.0
 10
-153.7677
 20
-3.5139
 30
0.0
 10
-153.7677
 20
-3.5139
 30
0.0
 10
-154.7486
 20
-3.8605
 30
0.0
 10
-155.8076
 20
-3.525
 30
0.0
 10
-156.5215
 20
-2.6413
 30
0.0
 10
-156.5215
 20
-2.6413
 30
0.0
 10
-157.2354
 20
-1.7577
 30
0.0
 10
-157.4871
 20
-0.4705
 30
0.0
 10
-157.1764
 20
0.7053
 30
0.0
  0
SPLINE
  5
45
330
1F
100
AcDbEntity
  8
layer 1
 62
     7
370
     9
100
AcDbSpline
210
0.0
220
0.0
230
1.0
 70
    11
 71
     3
 72
    40
 73
    36
 74
     0
 42
0.0000000001
 43
0.0000000001
 12
1.0
 22
0.0
 32
0.0
 13
1.0
 23
0.0
 33
0.0
 40
0.0
 40
0.0
 40
0.0
 40
0.0
 40
0.1
 40
0.1
 40
0.1
 40
0.1
 40
0.2
 40
0.2
 40
0.2
 40
0.2
 40
0.3
 40
0.3
 40
0.3
 40
0.3
 40
0.4
 40
0.4
 40
0.4
 40
0.4
 40
0.5
 40
0.5
 40
0.5
 40
0.5
 40
0.6
 40
0.6
 40
0.6
 40
0.6
 40
0.7
 40
0.7
 40
0.7
 40
0.7
 40
0.8
 40
0.8
 40
0.8
 40
0.8
 40
1.0
 40
1.0
 40
1.0
 40
1.0
 10
-127.6324
 20
-3.9204
 30
0.0
 10
-129.7199
 20
-4.0834
 30
0.0
 10
-131.5936
 20
-5.5233
 30
0.0
 10
-132.5997
 20
-7.7381
 30
0.0
 10
-132.5997
 20
-7.7381
 30
0.0
 10
-133.6061
 20
-9.953
 30
0.0
 10
-133.6058
 20
-12.6355
 30
0.0
 10
-132.5983
 20
-14.85
 30
0.0
 10
-132.5983
 20
-14.85
 30
0.0
 10
-137.0529
 20
-16.5143
 30
0.0
 10
-141.8018
 20
-16.6552
 30
0.0
 10
-146.3183
 20
-15.2565
 30
0.0
 10
-146.3183
 20
-15.2565
 30
0.0
 10
-144.2823
 20
-14.4961
 30
0.0
 10
-142.4515
 20
-13.092
 30
0.0
 10
-141.0155
 20
-11.1899
 30
0.0
 10
-141.0155
 20
-11.1899
 30
0.0
 10
-139.4318
 20
-12.2169
 30
0.0
 10
-137.5343
 20
-12.2546
 30
0.0
 10
-135.9233
 20
-11.2914
 30
0.0
 10
-135.9233
 20
-11.2914
 30
0.0
 10
-136.5491
 20
-9.9779
 30
0.0
 10
-136.6244
 20
-8.385
 30
0.0
 10
-136.1274
 20
-6.9937
 30
0.0
 10
-136.1274
 20
-6.9937
 30
0.0
 10
-135.6304
 20
-5.6024
 30
0.0
 10
-134.6186
 20
-4.5761
 30
0.0
 10
-133.3981
 20
-4.2254
 30
0.0
 10
-133.3981
 20
-4.2254
 30
0.0
 10
-130.9173
 20
-3.4199
 30
0.0
 10
-128.3442
 20
-3.1106
 30
0.0
 10
-125.7807
 20
-3.3105
 30
0.0
 10
-125.7807
 20
-3.3105
 30
0.0
 10
-126.3722
 20
-3.614
 30
0.0
 10
-126.9952
 20
-3.8192
 30
0.0
 10
-127.6324
 20
-3.9204
 30
0.0
  0
SPLINE
  5
46
330
1F
100
AcDbEntity
  8
layer 1
 62
     7
370
     9
100
AcDbSpline
210
0.0
220
0.0
230
1.0
 70
    11
 71
     3
 72
    48
 73
    44
 74
     0
 42
0.0000000001
 43
0.0000000001
 12
1.0
 22
0.0
 32
0.0
 13
1.0
 23
0.0
 33
0.0
 40
0.0
 40
0.0
 40
0.0
 40
0.0
 40
0.0833333333333333
 40
0.0833333333333333
 40
0.0833333333333333
 40
0.0833333333333333
 40
0.1666666666666667
 40
0.1666666666666667
 40
0.1666666666666667
 40
0.1666666666666667
 40
0.25
 40
0.25
 40
0.25
 40
0.25
 40
0.3333333333333333
 40
0.3333333333333333
 40
0.3333333333333333
 40
0.3333333333333333
 40
0.4166666666666667
 40
0.4166666666666667
 40
0.4166666666666667
 40
0.4166666666666667
 40
0.5
 40
0.5
 40
0.5
 40
0.5
 40
0.5833333333333334
 40
0.5833333333333334
 40
0.5833333333333334
 40
0.5833333333333334
 40
0.6666666666666666
 40
0.6666666666666666
 40
0.6666666666666666
 40
0.6666666666666666
 40
0.75
 40
0.75
 40
0.75
 40
0.75
 40
0.8333333333333334
 40
0.8333333333333334
 40
0.8333333333333334
 40
0.8333333333333334
 40
1.0
 40
1.0
 40
1.0
 40
1.0
 10
-127.2114
 20
-19.3742
 30
0.0
 10
-125.4151
 20
-18.3706
 30
0.0
 10
-124.3976
 20
-16.0378
 30
0.0
 10
-124.7285
 20
-13.6806
 30
0.0
 10
-124.7285
 20
-13.6806
 30
0.0
 10
-124.8105
 20
-13.2312
 30
0.0
 10
-125.0746
 20
-12.862
 30
0.0
 10
-125.4307
 20
-12.698
 30
0.0
 10
-125.4307
 20
-12.698
 30
0.0
 10
-125.7867
 20
-12.5343
 30
0.0
 10
-126.1872
 20
-12.5978
 30
0.0
 10
-126.4961
 20
-12.8673
 30
0.0
 10
-126.4961
 20
-12.8673
 30
0.0
 10
-126.9892
 20
-12.7519
 30
0.0
 10
-127.3577
 20
-12.2532
 30
0.0
 10
-127.3967
 20
-11.6486
 30
0.0
 10
-127.3967
 20
-11.6486
 30
0.0
 10
-127.4361
 20
-11.0437
 30
0.0
 10
-127.1365
 20
-10.4816
 30
0.0
 10
-126.6643
 20
-10.2746
 30
0.0
 10
-126.6643
 20
-10.2746
 30
0.0
 10
-126.0054
 20
-10.0571
 30
0.0
 10
-125.327
 20
-9.9374
 30
0.0
 10
-124.6443
 20
-9.919
 30
0.0
 10
-124.6443
 20
-9.919
 30
0.0
 10
-122.357
 20
-10.4398
 30
0.0
 10
-120.8053
 20
-13.0284
 30
0.0
 10
-121.1091
 20
-15.8156
 30
0.0
 10
-121.1091
 20
-15.8156
 30
0.0
 10
-121.7141
 20
-18.7778
 30
0.0
 10
-123.2953
 20
-21.3123
 30
0.0
 10
-125.486
 20
-22.8309
 30
0.0
 10
-125.486
 20
-22.8309
 30
0.0
 10
-132.2173
 20
-25.8449
 30
0.0
 10
-139.5838
 20
-26.0949
 30
0.0
 10
-146.4447
 20
-23.5424
 30
0.0
 10
-146.4447
 20
-23.5424
 30
0.0
 10
-145.3008
 20
-22.5991
 30
0.0
 10
-144.7637
 20
-20.8957
 30
0.0
 10
-145.0977
 20
-19.2723
 30
0.0
 10
-145.0977
 20
-19.2723
 30
0.0
 10
-139.3381
 20
-21.8909
 30
0.0
 10
-132.9917
 20
-21.9271
 30
0.0
 10
-127.2114
 20
-19.3742
 30
0.0
  0
SPLINE
  5
47
330
1F
100
AcDbEntity
  8
layer 1
 62
     7
370
     9
100
AcDbSpline
210
0.0
220
0.0
230
1.0
 70
    11
 71
     3
 72
    20
 73
    16
 74
     0
 42
0.0000000001
 43
0.0000000001
 12
1.0
 22
0.0
 32
0.0
 13
1.0
 23
0.0
 33
0.0
 40
0.0
 40
0.0
 40
0.0
 40
0.0
 40
0.2
 40
0.2
 40
0.2
 40
0.2
 40
0.4
 40
0.4
 40
0.4
 40
0.4
 40
0.6
 40
0.6
 40
0.6
 40
0.6
 40
1.0
 40
1.0
 40
1.0
 40
1.0
 10
-171.6118
 20
5.128
 30
0.0
 10
-168.7749
 20
-6.8297
 30
0.0
 10
-161.6346
 20
-16.6115
 30
0.0
 10
-152.1681
 20
-21.5092
 30
0.0
 10
-152.1681
 20
-21.5092
 30
0.0
 10
-152.1826
 20
-19.9976
 30
0.0
 10
-151.7666
 20
-18.5262
 30
0.0
 10
-150.9898
 20
-17.3407
 30
0.0
 10
-150.9898
 20
-17.3407
 30
0.0
 10
-159.33
 20
-13.659
 30
0.0
 10
-165.7108
 20
-5.3844
 30
0.0
 10
-168.1607
 20
4.9246
 30
0.0
 10
-168.1607
 20
4.9246
 30
0.0
 10
-169.2319
 20
4.1074
 30
0.0
 10
-170.6117
 20
4.189
 30
0.0
 10
-171.6118
 20
5.128
 30
0.0
  0
SPLINE
  5
48
330
1F
100
AcDbEntity
  8
layer 1
 62
     7
370
     9
100
AcDbSpline
210
0.0
220
0.0
230
1.0
 70
    11
 71
     3
 72
    16
 73
    12
 74
     0
 42
0.0000000001
 43
0.0000000001
 12
1.0
 22
0.0
 32
0.0
 13
1.0
 23
0.0
 33
0.0
 40
0.0
 40
0.0
 40
0.0
 40
0.0
 40
0.25
 40
0.25
 40
0.25
 40
0.25
 40
0.5
 40
0.5
 40
0.5
 40
0.5
 40
1.0
 40
1.0
 40
1.0
 40
1.0
 10
-162.9844
 20
-18.764
 30
0.0
 10
-161.6262
 20
-20.4684
 30
0.0
 10
-160.1159
 20
-21.9857
 30
0.0
 10
-158.4811
 20
-23.2882
 30
0.0
 10
-158.4811
 20
-23.2882
 30
0.0
 10
-160.3641
 20
-23.5814
 30
0.0
 10
-162.0436
 20
-24.8655
 30
0.0
 10
-163.0686
 20
-26.796
 30
0.0
 10
-163.0686
 20
-26.796
 30
0.0
 10
-162.9837
 20
-24.12
 30
0.0
 10
-162.9556
 20
-21.4418
 30
0.0
 10
-162.9844
 20
-18.764
 30
0.0
  0
SPLINE
  5
49
330
1F
100
AcDbEntity
  8
layer 1
 62
     7
370
     9
100
AcDbSpline
210
0.0
220
0.0
230
1.0
 70
    11
 71
     3
 72
    80
 73
    76
 74
     0
 42
0.0000000001
 43
0.0000000001
 12
1.0
 22
0.0
 32
0.0
 13
1.0
 23
0.0
 33
0.0
 40
0.0
 40
0.0
 40
0.0
 40
0.0
 40
0.05
 40
0.05
 40
0.05
 40
0.05
 40
0.1
 40
0.1
 40
0.1
 40
0.1
 40
0.15
 40
0.15
 40
0.15
 40
0.15
 40
0.2
 40
0.2
 40
0.2
 40
0.2
 40
0.25
 40
0.25
 40
0.25
 40
0.25
 40
0.3
 40
0.3
 40
0.3
 40
0.3
 40
0.35
 40
0.35
 40
0.35
 40
0.35
 40
0.4
 40
0.4
 40
0.4
 40
0.4
 40
0.45
 40
0.45
 40
0.45
 40
0.45
 40
0.5
 40
0.5
 40
0.5
 40
0.5
 40
0.55
 40
0.55
 40
0.55
 40
0.55
 40
0.6
 40
0.6
 40
0.6
 40
0.6
 40
0.65
 40
0.65
 40
0.65
 40
0.65
 40
0.7
 40
0.7
 40
0.7
 40
0.7
 40
0.75
 40
0.75
 40
0.75
 40
0.75
 40
0.8
 40
0.8
 40
0.8
 40
0.8
 40
0.85
 40
0.85
 40
0.85
 40
0.85
 40
0.9
 40
0.9
 40
0.9
 40
0.9
 40
1.0
 40
1.0
 40
1.0
 40
1.0
 10
-126.6643
 20
-30.2527
 30
0.0
 10
-126.6643
 20
-30.2527
 30
0.0
 10
-126.6643
 20
-37.0472
 30
0.0
 10
-126.6643
 20
-37.0472
 30
0.0
 10
-126.6643
 20
-37.0472
 30
0.0
 10
-127.2004
 20
-36.0617
 30
0.0
 10
-127.9122
 20
-35.2338
 30
0.0
 10
-128.7478
 20
-34.6243
 30
0.0
 10
-128.7478
 20
-34.6243
 30
0.0
 10
-130.704
 20
-33.5489
 30
0.0
 10
-132.9934
 20
-33.8827
 30
0.0
 10
-134.6818
 20
-35.4884
 30
0.0
 10
-134.6818
 20
-35.4884
 30
0.0
 10
-135.5246
 20
-36.3315
 30
0.0
 10
-135.7699
 20
-37.7689
 30
0.0
 10
-135.2711
 20
-38.9454
 30
0.0
 10
-135.2711
 20
-38.9454
 30
0.0
 10
-134.6641
 20
-40.1326
 30
0.0
 10
-133.4307
 20
-40.6072
 30
0.0
 10
-132.3668
 20
-40.0637
 30
0.0
 10
-132.3668
 20
-40.0637
 30
0.0
 10
-132.5458
 20
-39.6427
 30
0.0
 10
-132.4975
 20
-39.1329
 30
0.0
 10
-132.2444
 20
-38.7718
 30
0.0
 10
-132.2444
 20
-38.7718
 30
0.0
 10
-131.9912
 20
-38.4104
 30
0.0
 10
-131.5829
 20
-38.2684
 30
0.0
 10
-131.2095
 20
-38.4114
 30
0.0
 10
-131.2095
 20
-38.4114
 30
0.0
 10
-130.65
 20
-38.7114
 30
0.0
 10
-130.2538
 20
-39.3334
 30
0.0
 10
-130.1576
 20
-40.0637
 30
0.0
 10
-130.1576
 20
-40.0637
 30
0.0
 10
-130.0688
 20
-41.7415
 30
0.0
 10
-130.8598
 20
-43.3063
 30
0.0
 10
-132.1357
 20
-43.978
 30
0.0
 10
-132.1357
 20
-43.978
 30
0.0
 10
-134.2906
 20
-44.5041
 30
0.0
 10
-136.5154
 20
-43.6148
 30
0.0
 10
-137.9855
 20
-41.6396
 30
0.0
 10
-137.9855
 20
-41.6396
 30
0.0
 10
-138.513
 20
-40.8131
 30
0.0
 10
-138.6412
 20
-39.7119
 30
0.0
 10
-138.322
 20
-38.742
 30
0.0
 10
-138.322
 20
-38.742
 30
0.0
 10
-137.9301
 20
-37.8296
 30
0.0
 10
-137.1016
 20
-37.3192
 30
0.0
 10
-136.2602
 20
-37.471
 30
0.0
 10
-136.2602
 20
-37.471
 30
0.0
 10
-135.9854
 20
-36.4558
 30
0.0
 10
-136.2463
 20
-35.3411
 30
0.0
 10
-136.9204
 20
-34.6498
 30
0.0
 10
-136.9204
 20
-34.6498
 30
0.0
 10
-137.5943
 20
-33.9583
 30
0.0
 10
-138.5472
 20
-33.828
 30
0.0
 10
-139.3321
 20
-34.3193
 30
0.0
 10
-139.3321
 20
-34.3193
 30
0.0
 10
-140.2653
 20
-34.7869
 30
0.0
 10
-141.0482
 20
-35.6073
 30
0.0
 10
-141.5629
 20
-36.6577
 30
0.0
 10
-141.5629
 20
-36.6577
 30
0.0
 10
-142.8409
 20
-34.5085
 30
0.0
 10
-144.1352
 20
-32.3731
 30
0.0
 10
-145.446
 20
-30.2527
 30
0.0
 10
-145.446
 20
-30.2527
 30
0.0
 10
-145.6764
 20
-29.498
 30
0.0
 10
-145.9835
 20
-28.7809
 30
0.0
 10
-146.3605
 20
-28.1177
 30
0.0
 10
-146.3605
 20
-28.1177
 30
0.0
 10
-140.0208
 20
-31.023
 30
0.0
 10
-133.0247
 20
-31.0593
 30
0.0
 10
-126.6643
 20
-28.2192
 30
0.0
 10
-126.6643
 20
-28.2192
 30
0.0
 10
-126.7105
 20
-28.8959
 30
0.0
 10
-126.7105
 20
-29.5761
 30
0.0
 10
-126.6643
 20
-30.2527
 30
0.0
  0
SPLINE
  5
4A
330
1F
100
AcDbEntity
  8
layer 1
 62
     7
370
     9
100
AcDbSpline
210
0.0
220
0.0
230
1.0
 70
    11
 71
     3
 72
    28
 73
    24
 74
     0
 42
0.0000000001
 43
0.0000000001
 12
1.0
 22
0.0
 32
0.0
 13
1.0
 23
0.0
 33
0.0
 40
0.0
 40
0.0
 40
0.0
 40
0.0
 40
0.1428571428571428
 40
0.1428571428571428
 40
0.1428571428571428
 40
0.1428571428571428
 40
0.2857142857142857
 40
0.2857142857142857
 40
0.2857142857142857
 40
0.2857142857142857
 40
0.4285714285714285
 40
0.4285714285714285
 40
0.4285714285714285
 40
0.4285714285714285
 40
0.5714285714285714
 40
0.5714285714285714
 40
0.5714285714285714
 40
0.5714285714285714
 40
0.7142857142857143
 40
0.7142857142857143
 40
0.7142857142857143
 40
0.7142857142857143
 40
1.0
 40
1.0
 40
1.0
 40
1.0
 10
-152.7996
 20
-27.8128
 30
0.0
 10
-154.8136
 20
-26.5798
 30
0.0
 10
-157.1964
 20
-26.5987
 30
0.0
 10
-159.1964
 20
-27.8635
 30
0.0
 10
-159.1964
 20
-27.8635
 30
0.0
 10
-159.8344
 20
-28.4081
 30
0.0
 10
-160.1958
 20
-29.3105
 30
0.0
 10
-160.1539
 20
-30.2527
 30
0.0
 10
-160.1539
 20
-30.2527
 30
0.0
 10
-160.1958
 20
-31.1949
 30
0.0
 10
-159.8344
 20
-32.097
 30
0.0
 10
-159.1964
 20
-32.6419
 30
0.0
 10
-159.1964
 20
-32.6419
 30
0.0
 10
-157.1964
 20
-33.9065
 30
0.0
 10
-154.8136
 20
-33.9253
 30
0.0
 10
-152.7996
 20
-32.6926
 30
0.0
 10
-152.7996
 20
-32.6926
 30
0.0
 10
-151.9405
 20
-31.8758
 30
0.0
 10
-151.0793
 20
-31.0625
 30
0.0
 10
-150.2158
 20
-30.2527
 30
0.0
 10
-150.2158
 20
-30.2527
 30
0.0
 10
-151.0793
 20
-29.4426
 30
0.0
 10
-151.9405
 20
-28.6293
 30
0.0
 10
-152.7996
 20
-27.8128
 30
0.0
  0
SPLINE
  5
4B
330
1F
100
AcDbEntity
  8
layer 1
 62
     7
370
     9
100
AcDbSpline
210
0.0
220
0.0
230
1.0
 70
    11
 71
     3
 72
   188
 73
   184
 74
     0
 42
0.0000000001
 43
0.0000000001
 12
1.0
 22
0.0
 32
0.0
 13
1.0
 23
0.0
 33
0.0
 40
0.0
 40
0.0
 40
0.0
 40
0.0
 40
0.0212765957446809
 40
0.0212765957446809
 40
0.0212765957446809
 40
0.0212765957446809
 40
0.0425531914893617
 40
0.0425531914893617
 40
0.0425531914893617
 40
0.0425531914893617
 40
0.0638297872340425
 40
0.0638297872340425
 40
0.0638297872340425
 40
0.0638297872340425
 40
0.0851063829787234
 40
0.0851063829787234
 40
0.0851063829787234
 40
0.0851063829787234
 40
0.1063829787234043
 40
0.1063829787234043
 40
0.1063829787234043
 40
0.1063829787234043
 40
0.1276595744680851
 40
0.1276595744680851
 40
0.1276595744680851
 40
0.1276595744680851
 40
0.148936170212766
 40
0.148936170212766
 40
0.148936170212766
 40
0.148936170212766
 40
0.1702127659574468
 40
0.1702127659574468
 40
0.1702127659574468
 40
0.1702127659574468
 40
0.1914893617021277
 40
0.1914893617021277
 40
0.1914893617021277
 40
0.1914893617021277
 40
0.2127659574468085
 40
0.2127659574468085
 40
0.2127659574468085
 40
0.2127659574468085
 40
0.2340425531914894
 40
0.2340425531914894
 40
0.2340425531914894
 40
0.2340425531914894
 40
0.2553191489361702
 40
0.2553191489361702
 40
0.2553191489361702
 40
0.2553191489361702
 40
0.2765957446808511
 40
0.2765957446808511
 40
0.2765957446808511
 40
0.2765957446808511
 40
0.2978723404255319
 40
0.2978723404255319
 40
0.2978723404255319
 40
0.2978723404255319
 40
0.3191489361702128
 40
0.3191489361702128
 40
0.3191489361702128
 40
0.3191489361702128
 40
0.3404255319148936
 40
0.3404255319148936
 40
0.3404255319148936
 40
0.3404255319148936
 40
0.3617021276595745
 40
0.3617021276595745
 40
0.3617021276595745
 40
0.3617021276595745
 40
0.3829787234042553
 40
0.3829787234042553
 40
0.3829787234042553
 40
0.3829787234042553
 40
0.4042553191489361
 40
0.4042553191489361
 40
0.4042553191489361
 40
0.4042553191489361
 40
0.425531914893617
 40
0.425531914893617
 40
0.425531914893617
 40
0.425531914893617
 40
0.4468085106382979
 40
0.4468085106382979
 40
0.4468085106382979
 40
0.4468085106382979
 40
0.4680851063829787
 40
0.4680851063829787
 40
0.4680851063829787
 40
0.4680851063829787
 40
0.4893617021276596
 40
0.4893617021276596
 40
0.4893617021276596
 40
0.4893617021276596
 40
0.5106382978723404
 40
0.5106382978723404
 40
0.5106382978723404
 40
0.5106382978723404
 40
0.5319148936170213
 40
0.5319148936170213
 40
0.5319148936170213
 40
0.5319148936170213
 40
0.5531914893617021
 40
0.5531914893617021
 40
0.5531914893617021
 40
0.5531914893617021
 40
0.574468085106383
 40
0.574468085106383
 40
0.574468085106383
 40
0.574468085106383
 40
0.5957446808510638
 40
0.5957446808510638
 40
0.5957446808510638
 40
0.5957446808510638
 40
0.6170212765957447
 40
0.6170212765957447
 40
0.6170212765957447
 40
0.6170212765957447
 40
0.6382978723404256
 40
0.6382978723404256
 40
0.6382978723404256
 40
0.6382978723404256
 40
0.6595744680851063
 40
0.6595744680851063
 40
0.6595744680851063
 40
0.6595744680851063
 40
0.6808510638297872
 40
0.6808510638297872
 40
0.6808510638297872
 40
0.6808510638297872
 40
0.7021276595744681
 40
0.7021276595744681
 40
0.7021276595744681
 40
0.7021276595744681
 40
0.723404255319149
 40
0.723404255319149
 40
0.723404255319149
 40
0.723404255319149
 40
0.7446808510638298
 40
0.7446808510638298
 40
0.7446808510638298
 40
0.7446808510638298
 40
0.7659574468085106
 40
0.7659574468085106
 40
0.7659574468085106
 40
0.7659574468085106
 40
0.7872340425531915
 40
0.7872340425531915
 40
0.7872340425531915
 40
0.7872340425531915
 40
0.8085106382978723
 40
0.8085106382978723
 40
0.8085106382978723
 40
0.8085106382978723
 40
0.8297872340425532
 40
0.8297872340425532
 40
0.8297872340425532
 40
0.8297872340425532
 40
0.851063829787234
 40
0.851063829787234
 40
0.851063829787234
 40
0.851063829787234
 40
0.8723404255319149
 40
0.8723404255319149
 40
0.8723404255319149
 40
0.8723404255319149
 40
0.8936170212765957
 40
0.8936170212765957
 40
0.8936170212765957
 40
0.8936170212765957
 40
0.9148936170212766
 40
0.9148936170212766
 40
0.9148936170212766
 40
0.9148936170212766
 40
0.9361702127659575
 40
0.9361702127659575
 40
0.9361702127659575
 40
0.9361702127659575
 40
0.9574468085106383
 40
0.9574468085106383
 40
0.9574468085106383
 40
0.9574468085106383
 40
1.0
 40
1.0
 40
1.0
 40
1.0
 10
-126.6643
 20
-44.3788
 30
0.0
 10
-129.8519
 20
-48.2285
 30
0.0
 10
-134.7315
 20
-49.1547
 30
0.0
 10
-138.7431
 20
-46.6721
 30
0.0
 10
-138.7431
 20
-46.6721
 30
0.0
 10
-139.812
 20
-45.6615
 30
0.0
 10
-140.9139
 20
-44.7033
 30
0.0
 10
-142.0468
 20
-43.8002
 30
0.0
 10
-142.0468
 20
-43.8002
 30
0.0
 10
-142.8132
 20
-43.1921
 30
0.0
 10
-143.7185
 20
-42.8899
 30
0.0
 10
-144.6352
 20
-42.9357
 30
0.0
 10
-144.6352
 20
-42.9357
 30
0.0
 10
-145.1058
 20
-42.9769
 30
0.0
 10
-145.518
 20
-43.3348
 30
0.0
 10
-145.7002
 20
-43.8609
 30
0.0
 10
-145.7002
 20
-43.8609
 30
0.0
 10
-145.8826
 20
-44.3874
 30
0.0
 10
-145.8042
 20
-44.9926
 30
0.0
 10
-145.4978
 20
-45.4268
 30
0.0
 10
-145.4978
 20
-45.4268
 30
0.0
 10
-146.7105
 20
-45.9234
 30
0.0
 10
-148.0478
 20
-45.3572
 30
0.0
 10
-148.7384
 20
-44.0543
 30
0.0
 10
-148.7384
 20
-44.0543
 30
0.0
 10
-149.251
 20
-42.6254
 30
0.0
 10
-148.8324
 20
-40.9586
 30
0.0
 10
-147.7492
 20
-40.1144
 30
0.0
 10
-147.7492
 20
-40.1144
 30
0.0
 10
-146.708
 20
-39.5872
 30
0.0
 10
-145.5471
 20
-39.5152
 30
0.0
 10
-144.4665
 20
-39.9111
 30
0.0
 10
-144.4665
 20
-39.9111
 30
0.0
 10
-145.6579
 20
-37.7018
 30
0.0
 10
-146.8785
 20
-35.5157
 30
0.0
 10
-148.128
 20
-33.3534
 30
0.0
 10
-148.128
 20
-33.3534
 30
0.0
 10
-150.3096
 20
-35.5349
 30
0.0
 10
-152.9724
 20
-36.8956
 30
0.0
 10
-155.7877
 20
-37.268
 30
0.0
 10
-155.7877
 20
-37.268
 30
0.0
 10
-158.6082
 20
-37.481
 30
0.0
 10
-161.307
 20
-35.8512
 30
0.0
 10
-162.858
 20
-32.9976
 30
0.0
 10
-162.858
 20
-32.9976
 30
0.0
 10
-162.858
 20
-32.9976
 30
0.0
 10
-162.858
 20
-43.8762
 30
0.0
 10
-162.858
 20
-43.8762
 30
0.0
 10
-162.858
 20
-43.8762
 30
0.0
 10
-162.8417
 20
-44.4814
 30
0.0
 10
-162.6212
 20
-45.0519
 30
0.0
 10
-162.2474
 20
-45.4552
 30
0.0
 10
-162.2474
 20
-45.4552
 30
0.0
 10
-161.8735
 20
-45.8585
 30
0.0
 10
-161.3794
 20
-46.0594
 30
0.0
 10
-160.8799
 20
-46.0112
 30
0.0
 10
-160.8799
 20
-46.0112
 30
0.0
 10
-160.5221
 20
-45.9873
 30
0.0
 10
-160.1948
 20
-45.7612
 30
0.0
 10
-159.996
 20
-45.4012
 30
0.0
 10
-159.996
 20
-45.4012
 30
0.0
 10
-159.7975
 20
-45.0413
 30
0.0
 10
-159.7506
 20
-44.5893
 30
0.0
 10
-159.87
 20
-44.1811
 30
0.0
 10
-159.87
 20
-44.1811
 30
0.0
 10
-159.5902
 20
-43.4004
 30
0.0
 10
-159.0062
 20
-42.8395
 30
0.0
 10
-158.3129
 20
-42.6865
 30
0.0
 10
-158.3129
 20
-42.6865
 30
0.0
 10
-157.6199
 20
-42.5334
 30
0.0
 10
-156.9096
 20
-42.8079
 30
0.0
 10
-156.4189
 20
-43.4189
 30
0.0
 10
-156.4189
 20
-43.4189
 30
0.0
 10
-156.1736
 20
-43.8147
 30
0.0
 10
-156.0792
 20
-44.3181
 30
0.0
 10
-156.1594
 20
-44.8031
 30
0.0
 10
-156.1594
 20
-44.8031
 30
0.0
 10
-156.24
 20
-45.288
 30
0.0
 10
-156.487
 20
-45.709
 30
0.0
 10
-156.8396
 20
-45.9608
 30
0.0
 10
-156.8396
 20
-45.9608
 30
0.0
 10
-156.0675
 20
-46.1233
 30
0.0
 10
-155.367
 20
-46.6089
 30
0.0
 10
-154.8618
 20
-47.3332
 30
0.0
 10
-154.8618
 20
-47.3332
 30
0.0
 10
-154.2768
 20
-47.826
 30
0.0
 10
-153.5945
 20
-48.1241
 30
0.0
 10
-152.8838
 20
-48.1973
 30
0.0
 10
-152.8838
 20
-48.1973
 30
0.0
 10
-152.8838
 20
-48.1973
 30
0.0
 10
-152.8838
 20
-49.519
 30
0.0
 10
-152.8838
 20
-49.519
 30
0.0
 10
-152.8838
 20
-49.519
 30
0.0
 10
-153.5945
 20
-49.5921
 30
0.0
 10
-154.2768
 20
-49.8903
 30
0.0
 10
-154.8618
 20
-50.383
 30
0.0
 10
-154.8618
 20
-50.383
 30
0.0
 10
-155.367
 20
-51.1069
 30
0.0
 10
-156.0675
 20
-51.5929
 30
0.0
 10
-156.8396
 20
-51.7555
 30
0.0
 10
-156.8396
 20
-51.7555
 30
0.0
 10
-156.487
 20
-52.0072
 30
0.0
 10
-156.24
 20
-52.4279
 30
0.0
 10
-156.1594
 20
-52.9132
 30
0.0
 10
-156.1594
 20
-52.9132
 30
0.0
 10
-156.0792
 20
-53.3982
 30
0.0
 10
-156.1736
 20
-53.9011
 30
0.0
 10
-156.4189
 20
-54.2973
 30
0.0
 10
-156.4189
 20
-54.2973
 30
0.0
 10
-156.9096
 20
-54.9079
 30
0.0
 10
-157.6199
 20
-55.1828
 30
0.0
 10
-158.3129
 20
-55.0297
 30
0.0
 10
-158.3129
 20
-55.0297
 30
0.0
 10
-159.0062
 20
-54.8763
 30
0.0
 10
-159.5902
 20
-54.3158
 30
0.0
 10
-159.87
 20
-53.5348
 30
0.0
 10
-159.87
 20
-53.5348
 30
0.0
 10
-159.7506
 20
-53.1269
 30
0.0
 10
-159.7975
 20
-52.6746
 30
0.0
 10
-159.996
 20
-52.3147
 30
0.0
 10
-159.996
 20
-52.3147
 30
0.0
 10
-160.1948
 20
-51.9547
 30
0.0
 10
-160.5221
 20
-51.7289
 30
0.0
 10
-160.8799
 20
-51.7047
 30
0.0
 10
-160.8799
 20
-51.7047
 30
0.0
 10
-161.3794
 20
-51.6564
 30
0.0
 10
-161.8735
 20
-51.8574
 30
0.0
 10
-162.2474
 20
-52.2607
 30
0.0
 10
-162.2474
 20
-52.2607
 30
0.0
 10
-162.6212
 20
-52.6644
 30
0.0
 10
-162.8417
 20
-53.2348
 30
0.0
 10
-162.858
 20
-53.8397
 30
0.0
 10
-162.858
 20
-53.8397
 30
0.0
 10
-162.858
 20
-53.8397
 30
0.0
 10
-162.858
 20
-64.7183
 30
0.0
 10
-162.858
 20
-64.7183
 30
0.0
 10
-162.858
 20
-64.7183
 30
0.0
 10
-161.307
 20
-61.865
 30
0.0
 10
-158.6082
 20
-60.2352
 30
0.0
 10
-155.7877
 20
-60.4482
 30
0.0
 10
-155.7877
 20
-60.4482
 30
0.0
 10
-152.9724
 20
-60.8206
 30
0.0
 10
-150.3096
 20
-62.1813
 30
0.0
 10
-148.128
 20
-64.3625
 30
0.0
 10
-148.128
 20
-64.3625
 30
0.0
 10
-146.8785
 20
-62.2005
 30
0.0
 10
-145.6579
 20
-60.0144
 30
0.0
 10
-144.4665
 20
-57.8048
 30
0.0
 10
-144.4665
 20
-57.8048
 30
0.0
 10
-145.5471
 20
-58.2006
 30
0.0
 10
-146.708
 20
-58.129
 30
0.0
 10
-147.7492
 20
-57.6018
 30
0.0
 10
-147.7492
 20
-57.6018
 30
0.0
 10
-148.8324
 20
-56.7576
 30
0.0
 10
-149.251
 20
-55.0905
 30
0.0
 10
-148.7384
 20
-53.6619
 30
0.0
 10
-148.7384
 20
-53.6619
 30
0.0
 10
-148.0478
 20
-52.359
 30
0.0
 10
-146.7105
 20
-51.7928
 30
0.0
 10
-145.4978
 20
-52.2894
 30
0.0
 10
-145.4978
 20
-52.2894
 30
0.0
 10
-145.8042
 20
-52.7236
 30
0.0
 10
-145.8826
 20
-53.3289
 30
0.0
 10
-145.7002
 20
-53.855
 30
0.0
 10
-145.7002
 20
-53.855
 30
0.0
 10
-145.518
 20
-54.3815
 30
0.0
 10
-145.1058
 20
-54.739
 30
0.0
 10
-144.6352
 20
-54.7801
 30
0.0
 10
-144.6352
 20
-54.7801
 30
0.0
 10
-143.7185
 20
-54.8263
 30
0.0
 10
-142.8132
 20
-54.5242
 30
0.0
 10
-142.0468
 20
-53.9161
 30
0.0
 10
-142.0468
 20
-53.9161
 30
0.0
 10
-140.9139
 20
-53.0125
 30
0.0
 10
-139.812
 20
-52.0544
 30
0.0
 10
-138.7431
 20
-51.0441
 30
0.0
 10
-138.7431
 20
-51.0441
 30
0.0
 10
-134.7315
 20
-48.5612
 30
0.0
 10
-129.8519
 20
-49.4877
 30
0.0
 10
-126.6643
 20
-53.3371
 30
0.0
 10
-126.6643
 20
-53.3371
 30
0.0
 10
-126.6643
 20
-53.3371
 30
0.0
 10
-126.6643
 20
-44.3788
 30
0.0
 10
-126.6643
 20
-44.3788
 30
0.0
  0
SPLINE
  5
4C
330
1F
100
AcDbEntity
  8
layer 1
 62
     7
370
     9
100
AcDbSpline
210
0.0
220
0.0
230
1.0
 70
    11
 71
     3
 72
   132
 73
   128
 74
     0
 42
0.0000000001
 43
0.0000000001
 12
1.0
 22
0.0
 32
0.0
 13
1.0
 23
0.0
 33
0.0
 40
0.0
 40
0.0
 40
0.0
 40
0.0
 40
0.0303030303030303
 40
0.0303030303030303
 40
0.0303030303030303
 40
0.0303030303030303
 40
0.0606060606060606
 40
0.0606060606060606
 40
0.0606060606060606
 40
0.0606060606060606
 40
0.0909090909090909
 40
0.0909090909090909
 40
0.0909090909090909
 40
0.0909090909090909
 40
0.1212121212121212
 40
0.1212121212121212
 40
0.1212121212121212
 40
0.1212121212121212
 40
0.1515151515151515
 40
0.1515151515151515
 40
0.1515151515151515
 40
0.1515151515151515
 40
0.1818181818181818
 40
0.1818181818181818
 40
0.1818181818181818
 40
0.1818181818181818
 40
0.2121212121212121
 40
0.2121212121212121
 40
0.2121212121212121
 40
0.2121212121212121
 40
0.2424242424242424
 40
0.2424242424242424
 40
0.2424242424242424
 40
0.2424242424242424
 40
0.2727272727272727
 40
0.2727272727272727
 40
0.2727272727272727
 40
0.2727272727272727
 40
0.303030303030303
 40
0.303030303030303
 40
0.303030303030303
 40
0.303030303030303
 40
0.3333333333333333
 40
0.3333333333333333
 40
0.3333333333333333
 40
0.3333333333333333
 40
0.3636363636363636
 40
0.3636363636363636
 40
0.3636363636363636
 40
0.3636363636363636
 40
0.3939393939393939
 40
0.3939393939393939
 40
0.3939393939393939
 40
0.3939393939393939
 40
0.4242424242424243
 40
0.4242424242424243
 40
0.4242424242424243
 40
0.4242424242424243
 40
0.4545454545454545
 40
0.4545454545454545
 40
0.4545454545454545
 40
0.4545454545454545
 40
0.4848484848484849
 40
0.4848484848484849
 40
0.4848484848484849
 40
0.4848484848484849
 40
0.5151515151515151
 40
0.5151515151515151
 40
0.5151515151515151
 40
0.5151515151515151
 40
0.5454545454545454
 40
0.5454545454545454
 40
0.5454545454545454
 40
0.5454545454545454
 40
0.5757575757575758
 40
0.5757575757575758
 40
0.5757575757575758
 40
0.5757575757575758
 40
0.6060606060606061
 40
0.6060606060606061
 40
0.6060606060606061
 40
0.6060606060606061
 40
0.6363636363636364
 40
0.6363636363636364
 40
0.6363636363636364
 40
0.6363636363636364
 40
0.6666666666666666
 40
0.6666666666666666
 40
0.6666666666666666
 40
0.6666666666666666
 40
0.696969696969697
 40
0.696969696969697
 40
0.696969696969697
 40
0.696969696969697
 40
0.7272727272727273
 40
0.7272727272727273
 40
0.7272727272727273
 40
0.7272727272727273
 40
0.7575757575757576
 40
0.7575757575757576
 40
0.7575757575757576
 40
0.7575757575757576
 40
0.7878787878787878
 40
0.7878787878787878
 40
0.7878787878787878
 40
0.7878787878787878
 40
0.8181818181818182
 40
0.8181818181818182
 40
0.8181818181818182
 40
0.8181818181818182
 40
0.8484848484848485
 40
0.8484848484848485
 40
0.8484848484848485
 40
0.8484848484848485
 40
0.8787878787878788
 40
0.8787878787878788
 40
0.8787878787878788
 40
0.8787878787878788
 40
0.9090909090909091
 40
0.9090909090909091
 40
0.9090909090909091
 40
0.9090909090909091
 40
0.9393939393939394
 40
0.9393939393939394
 40
0.9393939393939394
 40
0.9393939393939394
 40
1.0
 40
1.0
 40
1.0
 40
1.0
 10
-126.6643
 20
-67.4635
 30
0.0
 10
-126.6643
 20
-67.4635
 30
0.0
 10
-126.6643
 20
-74.258
 30
0.0
 10
-126.6643
 20
-74.258
 30
0.0
 10
-126.6643
 20
-74.258
 30
0.0
 10
-127.2004
 20
-73.2729
 30
0.0
 10
-127.9122
 20
-72.4446
 30
0.0
 10
-128.7478
 20
-71.835
 30
0.0
 10
-128.7478
 20
-71.835
 30
0.0
 10
-130.704
 20
-70.7598
 30
0.0
 10
-132.9934
 20
-71.0931
 30
0.0
 10
-134.6818
 20
-72.6995
 30
0.0
 10
-134.6818
 20
-72.6995
 30
0.0
 10
-135.5246
 20
-73.5423
 30
0.0
 10
-135.7699
 20
-74.9794
 30
0.0
 10
-135.2711
 20
-76.1562
 30
0.0
 10
-135.2711
 20
-76.1562
 30
0.0
 10
-134.6641
 20
-77.3433
 30
0.0
 10
-133.4307
 20
-77.818
 30
0.0
 10
-132.3668
 20
-77.2745
 30
0.0
 10
-132.3668
 20
-77.2745
 30
0.0
 10
-132.5458
 20
-76.8535
 30
0.0
 10
-132.4975
 20
-76.3437
 30
0.0
 10
-132.2444
 20
-75.9826
 30
0.0
 10
-132.2444
 20
-75.9826
 30
0.0
 10
-131.9912
 20
-75.6212
 30
0.0
 10
-131.5829
 20
-75.4792
 30
0.0
 10
-131.2095
 20
-75.6223
 30
0.0
 10
-131.2095
 20
-75.6223
 30
0.0
 10
-130.65
 20
-75.9223
 30
0.0
 10
-130.2538
 20
-76.5439
 30
0.0
 10
-130.1576
 20
-77.2745
 30
0.0
 10
-130.1576
 20
-77.2745
 30
0.0
 10
-130.0688
 20
-78.9522
 30
0.0
 10
-130.8598
 20
-80.5172
 30
0.0
 10
-132.1357
 20
-81.1888
 30
0.0
 10
-132.1357
 20
-81.1888
 30
0.0
 10
-134.2906
 20
-81.7149
 30
0.0
 10
-136.5154
 20
-80.8256
 30
0.0
 10
-137.9855
 20
-78.8504
 30
0.0
 10
-137.9855
 20
-78.8504
 30
0.0
 10
-138.513
 20
-78.0239
 30
0.0
 10
-138.6412
 20
-76.9227
 30
0.0
 10
-138.322
 20
-75.9528
 30
0.0
 10
-138.322
 20
-75.9528
 30
0.0
 10
-137.9301
 20
-75.0405
 30
0.0
 10
-137.1016
 20
-74.53
 30
0.0
 10
-136.2602
 20
-74.6818
 30
0.0
 10
-136.2602
 20
-74.6818
 30
0.0
 10
-135.9854
 20
-73.667
 30
0.0
 10
-136.2463
 20
-72.5519
 30
0.0
 10
-136.9204
 20
-71.8606
 30
0.0
 10
-136.9204
 20
-71.8606
 30
0.0
 10
-137.5943
 20
-71.1695
 30
0.0
 10
-138.5472
 20
-71.0387
 30
0.0
 10
-139.3321
 20
-71.5301
 30
0.0
 10
-139.3321
 20
-71.5301
 30
0.0
 10
-140.2653
 20
-71.9977
 30
0.0
 10
-141.0482
 20
-72.8181
 30
0.0
 10
-141.5629
 20
-73.8685
 30
0.0
 10
-141.5629
 20
-73.8685
 30
0.0
 10
-142.8409
 20
-71.719
 30
0.0
 10
-144.1352
 20
-69.584
 30
0.0
 10
-145.446
 20
-67.4635
 30
0.0
 10
-145.446
 20
-67.4635
 30
0.0
 10
-144.1352
 20
-65.3427
 30
0.0
 10
-142.8409
 20
-63.2077
 30
0.0
 10
-141.5629
 20
-61.0585
 30
0.0
 10
-141.5629
 20
-61.0585
 30
0.0
 10
-141.0482
 20
-62.1086
 30
0.0
 10
-140.2653
 20
-62.9293
 30
0.0
 10
-139.3321
 20
-63.3966
 30
0.0
 10
-139.3321
 20
-63.3966
 30
0.0
 10
-138.5472
 20
-63.8882
 30
0.0
 10
-137.5943
 20
-63.7576
 30
0.0
 10
-136.9204
 20
-63.0664
 30
0.0
 10
-136.9204
 20
-63.0664
 30
0.0
 10
-136.2463
 20
-62.3748
 30
0.0
 10
-135.9854
 20
-61.2601
 30
0.0
 10
-136.2602
 20
-60.2448
 30
0.0
 10
-136.2602
 20
-60.2448
 30
0.0
 10
-137.1016
 20
-60.3971
 30
0.0
 10
-137.9301
 20
-59.8862
 30
0.0
 10
-138.322
 20
-58.9742
 30
0.0
 10
-138.322
 20
-58.9742
 30
0.0
 10
-138.6412
 20
-58.0044
 30
0.0
 10
-138.513
 20
-56.9028
 30
0.0
 10
-137.9855
 20
-56.0763
 30
0.0
 10
-137.9855
 20
-56.0763
 30
0.0
 10
-136.5154
 20
-54.1014
 30
0.0
 10
-134.2906
 20
-53.2121
 30
0.0
 10
-132.1357
 20
-53.7382
 30
0.0
 10
-132.1357
 20
-53.7382
 30
0.0
 10
-130.8598
 20
-54.4099
 30
0.0
 10
-130.0688
 20
-55.9747
 30
0.0
 10
-130.1576
 20
-57.6525
 30
0.0
 10
-130.1576
 20
-57.6525
 30
0.0
 10
-130.2538
 20
-58.3828
 30
0.0
 10
-130.65
 20
-59.0048
 30
0.0
 10
-131.2095
 20
-59.3044
 30
0.0
 10
-131.2095
 20
-59.3044
 30
0.0
 10
-131.5829
 20
-59.4478
 30
0.0
 10
-131.9912
 20
-59.3058
 30
0.0
 10
-132.2444
 20
-58.9444
 30
0.0
 10
-132.2444
 20
-58.9444
 30
0.0
 10
-132.4975
 20
-58.583
 30
0.0
 10
-132.5458
 20
-58.0735
 30
0.0
 10
-132.3668
 20
-57.6525
 30
0.0
 10
-132.3668
 20
-57.6525
 30
0.0
 10
-133.4307
 20
-57.1087
 30
0.0
 10
-134.6641
 20
-57.5836
 30
0.0
 10
-135.2711
 20
-58.7708
 30
0.0
 10
-135.2711
 20
-58.7708
 30
0.0
 10
-135.7699
 20
-59.9473
 30
0.0
 10
-135.5246
 20
-61.3843
 30
0.0
 10
-134.6818
 20
-62.2275
 30
0.0
 10
-134.6818
 20
-62.2275
 30
0.0
 10
-132.9934
 20
-63.8336
 30
0.0
 10
-130.704
 20
-64.1669
 30
0.0
 10
-128.7478
 20
-63.0916
 30
0.0
 10
-128.7478
 20
-63.0916
 30
0.0
 10
-127.9122
 20
-62.482
 30
0.0
 10
-127.2004
 20
-61.6542
 30
0.0
 10
-126.6643
 20
-60.6686
 30
0.0
 10
-126.6643
 20
-60.6686
 30
0.0
 10
-126.6643
 20
-60.6686
 30
0.0
 10
-126.6643
 20
-67.4635
 30
0.0
 10
-126.6643
 20
-67.4635
 30
0.0
  0
SPLINE
  5
4D
330
1F
100
AcDbEntity
  8
layer 1
 62
     7
370
     9
100
AcDbSpline
210
0.0
220
0.0
230
1.0
 70
    11
 71
     3
 72
    28
 73
    24
 74
     0
 42
0.0000000001
 43
0.0000000001
 12
1.0
 22
0.0
 32
0.0
 13
1.0
 23
0.0
 33
0.0
 40
0.0
 40
0.0
 40
0.0
 40
0.0
 40
0.1428571428571428
 40
0.1428571428571428
 40
0.1428571428571428
 40
0.1428571428571428
 40
0.2857142857142857
 40
0.2857142857142857
 40
0.2857142857142857
 40
0.2857142857142857
 40
0.4285714285714285
 40
0.4285714285714285
 40
0.4285714285714285
 40
0.4285714285714285
 40
0.5714285714285714
 40
0.5714285714285714
 40
0.5714285714285714
 40
0.5714285714285714
 40
0.7142857142857143
 40
0.7142857142857143
 40
0.7142857142857143
 40
0.7142857142857143
 40
1.0
 40
1.0
 40
1.0
 40
1.0
 10
-152.7996
 20
-65.0232
 30
0.0
 10
-154.8136
 20
-63.7906
 30
0.0
 10
-157.1964
 20
-63.8097
 30
0.0
 10
-159.1964
 20
-65.0743
 30
0.0
 10
-159.1964
 20
-65.0743
 30
0.0
 10
-159.8344
 20
-65.6189
 30
0.0
 10
-160.1958
 20
-66.5213
 30
0.0
 10
-160.1539
 20
-67.4635
 30
0.0
 10
-160.1539
 20
-67.4635
 30
0.0
 10
-160.1958
 20
-68.4057
 30
0.0
 10
-159.8344
 20
-69.3081
 30
0.0
 10
-159.1964
 20
-69.8527
 30
0.0
 10
-159.1964
 20
-69.8527
 30
0.0
 10
-157.1964
 20
-71.1172
 30
0.0
 10
-154.8136
 20
-71.1365
 30
0.0
 10
-152.7996
 20
-69.9035
 30
0.0
 10
-152.7996
 20
-69.9035
 30
0.0
 10
-151.9405
 20
-69.0866
 30
0.0
 10
-151.0793
 20
-68.2733
 30
0.0
 10
-150.2158
 20
-67.4635
 30
0.0
 10
-150.2158
 20
-67.4635
 30
0.0
 10
-151.0793
 20
-66.6537
 30
0.0
 10
-151.9405
 20
-65.8404
 30
0.0
 10
-152.7996
 20
-65.0232
 30
0.0
  0
SPLINE
  5
4E
330
1F
100
AcDbEntity
  8
layer 1
 62
     7
370
     9
100
AcDbSpline
210
0.0
220
0.0
230
1.0
 70
    11
 71
     3
 72
   188
 73
   184
 74
     0
 42
0.0000000001
 43
0.0000000001
 12
1.0
 22
0.0
 32
0.0
 13
1.0
 23
0.0
 33
0.0
 40
0.0
 40
0.0
 40
0.0
 40
0.0
 40
0.0212765957446809
 40
0.0212765957446809
 40
0.0212765957446809
 40
0.0212765957446809
 40
0.0425531914893617
 40
0.0425531914893617
 40
0.0425531914893617
 40
0.0425531914893617
 40
0.0638297872340425
 40
0.0638297872340425
 40
0.0638297872340425
 40
0.0638297872340425
 40
0.0851063829787234
 40
0.0851063829787234
 40
0.0851063829787234
 40
0.0851063829787234
 40
0.1063829787234043
 40
0.1063829787234043
 40
0.1063829787234043
 40
0.1063829787234043
 40
0.1276595744680851
 40
0.1276595744680851
 40
0.1276595744680851
 40
0.1276595744680851
 40
0.148936170212766
 40
0.148936170212766
 40
0.148936170212766
 40
0.148936170212766
 40
0.1702127659574468
 40
0.1702127659574468
 40
0.1702127659574468
 40
0.1702127659574468
 40
0.1914893617021277
 40
0.1914893617021277
 40
0.1914893617021277
 40
0.1914893617021277
 40
0.2127659574468085
 40
0.2127659574468085
 40
0.2127659574468085
 40
0.2127659574468085
 40
0.2340425531914894
 40
0.2340425531914894
 40
0.2340425531914894
 40
0.2340425531914894
 40
0.2553191489361702
 40
0.2553191489361702
 40
0.2553191489361702
 40
0.2553191489361702
 40
0.2765957446808511
 40
0.2765957446808511
 40
0.2765957446808511
 40
0.2765957446808511
 40
0.2978723404255319
 40
0.2978723404255319
 40
0.2978723404255319
 40
0.2978723404255319
 40
0.3191489361702128
 40
0.3191489361702128
 40
0.3191489361702128
 40
0.3191489361702128
 40
0.3404255319148936
 40
0.3404255319148936
 40
0.3404255319148936
 40
0.3404255319148936
 40
0.3617021276595745
 40
0.3617021276595745
 40
0.3617021276595745
 40
0.3617021276595745
 40
0.3829787234042553
 40
0.3829787234042553
 40
0.3829787234042553
 40
0.3829787234042553
 40
0.4042553191489361
 40
0.4042553191489361
 40
0.4042553191489361
 40
0.4042553191489361
 40
0.425531914893617
 40
0.425531914893617
 40
0.425531914893617
 40
0.425531914893617
 40
0.4468085106382979
 40
0.4468085106382979
 40
0.4468085106382979
 40
0.4468085106382979
 40
0.4680851063829787
 40
0.4680851063829787
 40
0.4680851063829787
 40
0.4680851063829787
 40
0.4893617021276596
 40
0.4893617021276596
 40
0.4893617021276596
 40
0.4893617021276596
 40
0.5106382978723404
 40
0.5106382978723404
 40
0.5106382978723404
 40
0.5106382978723404
 40
0.5319148936170213
 40
0.5319148936170213
 40
0.5319148936170213
 40
0.5319148936170213
 40
0.5531914893617021
 40
0.5531914893617021
 40
0.5531914893617021
 40
0.5531914893617021
 40
0.574468085106383
 40
0.574468085106383
 40
0.574468085106383
 40
0.574468085106383
 40
0.5957446808510638
 40
0.5957446808510638
 40
0.5957446808510638
 40
0.5957446808510638
 40
0.6170212765957447
 40
0.6170212765957447
 40
0.6170212765957447
 40
0.6170212765957447
 40
0.6382978723404256
 40
0.6382978723404256
 40
0.6382978723404256
 40
0.6382978723404256
 40
0.6595744680851063
 40
0.6595744680851063
 40
0.6595744680851063
 40
0.6595744680851063
 40
0.6808510638297872
 40
0.6808510638297872
 40
0.6808510638297872
 40
0.6808510638297872
 40
0.7021276595744681
 40
0.7021276595744681
 40
0.7021276595744681
 40
0.7021276595744681
 40
0.723404255319149
 40
0.723404255319149
 40
0.723404255319149
 40
0.723404255319149
 40
0.7446808510638298
 40
0.7446808510638298
 40
0.7446808510638298
 40
0.7446808510638298
 40
0.7659574468085106
 40
0.7659574468085106
 40
0.7659574468085106
 40
0.7659574468085106
 40
0.7872340425531915
 40
0.7872340425531915
 40
0.7872340425531915
 40
0.7872340425531915
 40
0.8085106382978723
 40
0.8085106382978723
 40
0.8085106382978723
 40
0.8085106382978723
 40
0.8297872340425532
 40
0.8297872340425532
 40
0.8297872340425532
 40
0.8297872340425532
 40
0.851063829787234
 40
0.851063829787234
 40
0.851063829787234
 40
0.851063829787234
 40
0.8723404255319149
 40
0.8723404255319149
 40
0.8723404255319149
 40
0.8723404255319149
 40
0.8936170212765957
 40
0.8936170212765957
 40
0.8936170212765957
 40
0.8936170212765957
 40
0.9148936170212766
 40
0.9148936170212766
 40
0.9148936170212766
 40
0.9148936170212766
 40
0.9361702127659575
 40
0.9361702127659575
 40
0.9361702127659575
 40
0.9361702127659575
 40
0.9574468085106383
 40
0.9574468085106383
 40
0.9574468085106383
 40
0.9574468085106383
 40
1.0
 40
1.0
 40
1.0
 40
1.0
 10
-126.6643
 20
-81.5896
 30
0.0
 10
-129.8519
 20
-85.4393
 30
0.0
 10
-134.7315
 20
-86.3655
 30
0.0
 10
-138.7431
 20
-83.8829
 30
0.0
 10
-138.7431
 20
-83.8829
 30
0.0
 10
-139.812
 20
-82.8723
 30
0.0
 10
-140.9139
 20
-81.914
 30
0.0
 10
-142.0468
 20
-81.0106
 30
0.0
 10
-142.0468
 20
-81.0106
 30
0.0
 10
-142.8132
 20
-80.4025
 30
0.0
 10
-143.7185
 20
-80.1004
 30
0.0
 10
-144.6352
 20
-80.1465
 30
0.0
 10
-144.6352
 20
-80.1465
 30
0.0
 10
-145.1058
 20
-80.1877
 30
0.0
 10
-145.518
 20
-80.5456
 30
0.0
 10
-145.7002
 20
-81.0717
 30
0.0
 10
-145.7002
 20
-81.0717
 30
0.0
 10
-145.8826
 20
-81.5982
 30
0.0
 10
-145.8042
 20
-82.2034
 30
0.0
 10
-145.4978
 20
-82.6376
 30
0.0
 10
-145.4978
 20
-82.6376
 30
0.0
 10
-146.7105
 20
-83.1342
 30
0.0
 10
-148.0478
 20
-82.5681
 30
0.0
 10
-148.7384
 20
-81.2648
 30
0.0
 10
-148.7384
 20
-81.2648
 30
0.0
 10
-149.251
 20
-79.8362
 30
0.0
 10
-148.8324
 20
-78.1691
 30
0.0
 10
-147.7492
 20
-77.3252
 30
0.0
 10
-147.7492
 20
-77.3252
 30
0.0
 10
-146.708
 20
-76.7981
 30
0.0
 10
-145.5471
 20
-76.7264
 30
0.0
 10
-144.4665
 20
-77.1219
 30
0.0
 10
-144.4665
 20
-77.1219
 30
0.0
 10
-145.6579
 20
-74.9127
 30
0.0
 10
-146.8785
 20
-72.7264
 30
0.0
 10
-148.128
 20
-70.5645
 30
0.0
 10
-148.128
 20
-70.5645
 30
0.0
 10
-150.3096
 20
-72.7453
 30
0.0
 10
-152.9724
 20
-74.1064
 30
0.0
 10
-155.7877
 20
-74.4785
 30
0.0
 10
-155.7877
 20
-74.4785
 30
0.0
 10
-158.6082
 20
-74.6918
 30
0.0
 10
-161.307
 20
-73.062
 30
0.0
 10
-162.858
 20
-70.2084
 30
0.0
 10
-162.858
 20
-70.2084
 30
0.0
 10
-162.858
 20
-70.2084
 30
0.0
 10
-162.858
 20
-81.087
 30
0.0
 10
-162.858
 20
-81.087
 30
0.0
 10
-162.858
 20
-81.087
 30
0.0
 10
-162.8417
 20
-81.6923
 30
0.0
 10
-162.6212
 20
-82.2627
 30
0.0
 10
-162.2474
 20
-82.666
 30
0.0
 10
-162.2474
 20
-82.666
 30
0.0
 10
-161.8735
 20
-83.0693
 30
0.0
 10
-161.3794
 20
-83.2702
 30
0.0
 10
-160.8799
 20
-83.222
 30
0.0
 10
-160.8799
 20
-83.222
 30
0.0
 10
-160.5221
 20
-83.1981
 30
0.0
 10
-160.1948
 20
-82.972
 30
0.0
 10
-159.996
 20
-82.612
 30
0.0
 10
-159.996
 20
-82.612
 30
0.0
 10
-159.7975
 20
-82.2521
 30
0.0
 10
-159.7506
 20
-81.8001
 30
0.0
 10
-159.87
 20
-81.3923
 30
0.0
 10
-159.87
 20
-81.3923
 30
0.0
 10
-159.5902
 20
-80.6112
 30
0.0
 10
-159.0062
 20
-80.0503
 30
0.0
 10
-158.3129
 20
-79.8973
 30
0.0
 10
-158.3129
 20
-79.8973
 30
0.0
 10
-157.6199
 20
-79.7439
 30
0.0
 10
-156.9096
 20
-80.0187
 30
0.0
 10
-156.4189
 20
-80.6297
 30
0.0
 10
-156.4189
 20
-80.6297
 30
0.0
 10
-156.1736
 20
-81.0255
 30
0.0
 10
-156.0792
 20
-81.5289
 30
0.0
 10
-156.1594
 20
-82.0139
 30
0.0
 10
-156.1594
 20
-82.0139
 30
0.0
 10
-156.24
 20
-82.4988
 30
0.0
 10
-156.487
 20
-82.9199
 30
0.0
 10
-156.8396
 20
-83.1711
 30
0.0
 10
-156.8396
 20
-83.1711
 30
0.0
 10
-156.0675
 20
-83.3341
 30
0.0
 10
-155.367
 20
-83.8197
 30
0.0
 10
-154.8618
 20
-84.5437
 30
0.0
 10
-154.8618
 20
-84.5437
 30
0.0
 10
-154.2768
 20
-85.0368
 30
0.0
 10
-153.5945
 20
-85.3346
 30
0.0
 10
-152.8838
 20
-85.4081
 30
0.0
 10
-152.8838
 20
-85.4081
 30
0.0
 10
-152.8838
 20
-85.4081
 30
0.0
 10
-152.8838
 20
-86.7298
 30
0.0
 10
-152.8838
 20
-86.7298
 30
0.0
 10
-152.8838
 20
-86.7298
 30
0.0
 10
-153.5945
 20
-86.8028
 30
0.0
 10
-154.2768
 20
-87.1007
 30
0.0
 10
-154.8618
 20
-87.5938
 30
0.0
 10
-154.8618
 20
-87.5938
 30
0.0
 10
-155.367
 20
-88.3177
 30
0.0
 10
-156.0675
 20
-88.8037
 30
0.0
 10
-156.8396
 20
-88.9663
 30
0.0
 10
-156.8396
 20
-88.9663
 30
0.0
 10
-156.487
 20
-89.218
 30
0.0
 10
-156.24
 20
-89.6387
 30
0.0
 10
-156.1594
 20
-90.1237
 30
0.0
 10
-156.1594
 20
-90.1237
 30
0.0
 10
-156.0792
 20
-90.6087
 30
0.0
 10
-156.1736
 20
-91.1121
 30
0.0
 10
-156.4189
 20
-91.5081
 30
0.0
 10
-156.4189
 20
-91.5081
 30
0.0
 10
-156.9096
 20
-92.1188
 30
0.0
 10
-157.6199
 20
-92.3936
 30
0.0
 10
-158.3129
 20
-92.2405
 30
0.0
 10
-158.3129
 20
-92.2405
 30
0.0
 10
-159.0062
 20
-92.0873
 30
0.0
 10
-159.5902
 20
-91.5266
 30
0.0
 10
-159.87
 20
-90.7456
 30
0.0
 10
-159.87
 20
-90.7456
 30
0.0
 10
-159.7506
 20
-90.3375
 30
0.0
 10
-159.7975
 20
-89.8855
 30
0.0
 10
-159.996
 20
-89.5254
 30
0.0
 10
-159.996
 20
-89.5254
 30
0.0
 10
-160.1948
 20
-89.1655
 30
0.0
 10
-160.5221
 20
-88.9397
 30
0.0
 10
-160.8799
 20
-88.9155
 30
0.0
 10
-160.8799
 20
-88.9155
 30
0.0
 10
-161.3794
 20
-88.8672
 30
0.0
 10
-161.8735
 20
-89.0682
 30
0.0
 10
-162.2474
 20
-89.4715
 30
0.0
 10
-162.2474
 20
-89.4715
 30
0.0
 10
-162.6212
 20
-89.8749
 30
0.0
 10
-162.8417
 20
-90.4456
 30
0.0
 10
-162.858
 20
-91.0506
 30
0.0
 10
-162.858
 20
-91.0506
 30
0.0
 10
-162.858
 20
-91.0506
 30
0.0
 10
-162.858
 20
-101.9291
 30
0.0
 10
-162.858
 20
-101.9291
 30
0.0
 10
-162.858
 20
-101.9291
 30
0.0
 10
-161.307
 20
-99.0756
 30
0.0
 10
-158.6082
 20
-97.4458
 30
0.0
 10
-155.7877
 20
-97.659
 30
0.0
 10
-155.7877
 20
-97.659
 30
0.0
 10
-152.9724
 20
-98.0313
 30
0.0
 10
-150.3096
 20
-99.3922
 30
0.0
 10
-148.128
 20
-101.5733
 30
0.0
 10
-148.128
 20
-101.5733
 30
0.0
 10
-146.8785
 20
-99.4112
 30
0.0
 10
-145.6579
 20
-97.2251
 30
0.0
 10
-144.4665
 20
-95.0156
 30
0.0
 10
-144.4665
 20
-95.0156
 30
0.0
 10
-145.5471
 20
-95.4114
 30
0.0
 10
-146.708
 20
-95.3396
 30
0.0
 10
-147.7492
 20
-94.8124
 30
0.0
 10
-147.7492
 20
-94.8124
 30
0.0
 10
-148.8324
 20
-93.9683
 30
0.0
 10
-149.251
 20
-92.3014
 30
0.0
 10
-148.7384
 20
-90.8727
 30
0.0
 10
-148.7384
 20
-90.8727
 30
0.0
 10
-148.0478
 20
-89.5698
 30
0.0
 10
-146.7105
 20
-89.0033
 30
0.0
 10
-145.4978
 20
-89.5002
 30
0.0
 10
-145.4978
 20
-89.5002
 30
0.0
 10
-145.8042
 20
-89.9341
 30
0.0
 10
-145.8826
 20
-90.5396
 30
0.0
 10
-145.7002
 20
-91.0659
 30
0.0
 10
-145.7002
 20
-91.0659
 30
0.0
 10
-145.518
 20
-91.5921
 30
0.0
 10
-145.1058
 20
-91.9498
 30
0.0
 10
-144.6352
 20
-91.991
 30
0.0
 10
-144.6352
 20
-91.991
 30
0.0
 10
-143.7185
 20
-92.0372
 30
0.0
 10
-142.8132
 20
-91.7348
 30
0.0
 10
-142.0468
 20
-91.1268
 30
0.0
 10
-142.0468
 20
-91.1268
 30
0.0
 10
-140.9139
 20
-90.2234
 30
0.0
 10
-139.812
 20
-89.2652
 30
0.0
 10
-138.7431
 20
-88.2545
 30
0.0
 10
-138.7431
 20
-88.2545
 30
0.0
 10
-134.7315
 20
-85.772
 30
0.0
 10
-129.8519
 20
-86.6985
 30
0.0
 10
-126.6643
 20
-90.548
 30
0.0
 10
-126.6643
 20
-90.548
 30
0.0
 10
-126.6643
 20
-90.548
 30
0.0
 10
-126.6643
 20
-81.5896
 30
0.0
 10
-126.6643
 20
-81.5896
 30
0.0
  0
SPLINE
  5
4F
330
1F
100
AcDbEntity
  8
layer 1
 62
     7
370
     9
100
AcDbSpline
210
0.0
220
0.0
230
1.0
 70
    11
 71
     3
 72
    20
 73
    16
 74
     0
 42
0.0000000001
 43
0.0000000001
 12
1.0
 22
0.0
 32
0.0
 13
1.0
 23
0.0
 33
0.0
 40
0.0
 40
0.0
 40
0.0
 40
0.0
 40
0.2
 40
0.2
 40
0.2
 40
0.2
 40
0.4
 40
0.4
 40
0.4
 40
0.4
 40
0.6
 40
0.6
 40
0.6
 40
0.6
 40
1.0
 40
1.0
 40
1.0
 40
1.0
 10
-176.2489
 20
6.9581
 30
0.0
 10
-177.1907
 20
5.881
 30
0.0
 10
-178.2015
 20
4.8951
 30
0.0
 10
-179.2714
 20
4.0098
 30
0.0
 10
-179.2714
 20
4.0098
 30
0.0
 10
-179.2672
 20
4.9927
 30
0.0
 10
-179.2786
 20
5.9758
 30
0.0
 10
-179.3055
 20
6.9581
 30
0.0
 10
-179.3055
 20
6.9581
 30
0.0
 10
-179.2786
 20
7.9404
 30
0.0
 10
-179.2672
 20
8.9234
 30
0.0
 10
-179.2714
 20
9.9064
 30
0.0
 10
-179.2714
 20
9.9064
 30
0.0
 10
-178.2015
 20
9.021
 30
0.0
 10
-177.1907
 20
8.0351
 30
0.0
 10
-176.2489
 20
6.9581
 30
0.0
  0
SPLINE
  5
50
330
1F
100
AcDbEntity
  8
layer 1
 62
     7
370
     9
100
AcDbSpline
210
0.0
220
0.0
230
1.0
 70
    11
 71
     3
 72
    40
 73
    36
 74
     0
 42
0.0000000001
 43
0.0000000001
 12
1.0
 22
0.0
 32
0.0
 13
1.0
 23
0.0
 33
0.0
 40
0.0
 40
0.0
 40
0.0
 40
0.0
 40
0.1
 40
0.1
 40
0.1
 40
0.1
 40
0.2
 40
0.2
 40
0.2
 40
0.2
 40
0.3
 40
0.3
 40
0.3
 40
0.3
 40
0.4
 40
0.4
 40
0.4
 40
0.4
 40
0.5
 40
0.5
 40
0.5
 40
0.5
 40
0.6
 40
0.6
 40
0.6
 40
0.6
 40
0.7
 40
0.7
 40
0.7
 40
0.7
 40
0.8
 40
0.8
 40
0.8
 40
0.8
 40
1.0
 40
1.0
 40
1.0
 40
1.0
 10
-175.5679
 20
-20.9902
 30
0.0
 10
-175.8123
 20
-19.475
 30
0.0
 10
-176.8436
 20
-18.3277
 30
0.0
 10
-178.1141
 20
-18.1584
 30
0.0
 10
-178.1141
 20
-18.1584
 30
0.0
 10
-178.0598
 20
-17.033
 30
0.0
 10
-178.6249
 20
-15.9985
 30
0.0
 10
-179.5029
 20
-15.6165
 30
0.0
 10
-179.5029
 20
-15.6165
 30
0.0
 10
-179.4049
 20
-10.4323
 30
0.0
 10
-179.363
 20
-5.2467
 30
0.0
 10
-179.3765
 20
-0.0611
 30
0.0
 10
-179.3765
 20
-0.0611
 30
0.0
 10
-177.4027
 20
0.7053
 30
0.0
 10
-175.6411
 20
2.1123
 30
0.0
 10
-174.2843
 20
4.0054
 30
0.0
 10
-174.2843
 20
4.0054
 30
0.0
 10
-173.0932
 20
-1.1052
 30
0.0
 10
-171.1936
 20
-5.9354
 30
0.0
 10
-168.6659
 20
-10.279
 30
0.0
 10
-168.6659
 20
-10.279
 30
0.0
 10
-168.6659
 20
-10.279
 30
0.0
 10
-168.6659
 20
-33.3026
 30
0.0
 10
-168.6659
 20
-33.3026
 30
0.0
 10
-168.6659
 20
-33.3026
 30
0.0
 10
-169.0209
 20
-32.5833
 30
0.0
 10
-169.5496
 20
-32.0122
 30
0.0
 10
-170.1811
 20
-31.6653
 30
0.0
 10
-170.1811
 20
-31.6653
 30
0.0
 10
-169.791
 20
-29.2314
 30
0.0
 10
-170.7881
 20
-26.7811
 30
0.0
 10
-172.6217
 20
-25.6667
 30
0.0
 10
-172.6217
 20
-25.6667
 30
0.0
 10
-172.5234
 20
-23.4469
 30
0.0
 10
-173.7703
 20
-21.4677
 30
0.0
 10
-175.5679
 20
-20.9902
 30
0.0
  0
SPLINE
  5
51
330
1F
100
AcDbEntity
  8
layer 1
 62
     7
370
     9
100
AcDbSpline
210
0.0
220
0.0
230
1.0
 70
    11
 71
     3
 72
    48
 73
    44
 74
     0
 42
0.0000000001
 43
0.0000000001
 12
1.0
 22
0.0
 32
0.0
 13
1.0
 23
0.0
 33
0.0
 40
0.0
 40
0.0
 40
0.0
 40
0.0
 40
0.0833333333333333
 40
0.0833333333333333
 40
0.0833333333333333
 40
0.0833333333333333
 40
0.1666666666666667
 40
0.1666666666666667
 40
0.1666666666666667
 40
0.1666666666666667
 40
0.25
 40
0.25
 40
0.25
 40
0.25
 40
0.3333333333333333
 40
0.3333333333333333
 40
0.3333333333333333
 40
0.3333333333333333
 40
0.4166666666666667
 40
0.4166666666666667
 40
0.4166666666666667
 40
0.4166666666666667
 40
0.5
 40
0.5
 40
0.5
 40
0.5
 40
0.5833333333333334
 40
0.5833333333333334
 40
0.5833333333333334
 40
0.5833333333333334
 40
0.6666666666666666
 40
0.6666666666666666
 40
0.6666666666666666
 40
0.6666666666666666
 40
0.75
 40
0.75
 40
0.75
 40
0.75
 40
0.8333333333333334
 40
0.8333333333333334
 40
0.8333333333333334
 40
0.8333333333333334
 40
1.0
 40
1.0
 40
1.0
 40
1.0
 10
-179.4291
 20
-32.1084
 30
0.0
 10
-179.4291
 20
-32.1084
 30
0.0
 10
-179.3765
 20
-22.1447
 30
0.0
 10
-179.3765
 20
-22.1447
 30
0.0
 10
-179.3765
 20
-22.1447
 30
0.0
 10
-179.0502
 20
-21.7429
 30
0.0
 10
-178.7091
 20
-21.3598
 30
0.0
 10
-178.3533
 20
-20.9966
 30
0.0
 10
-178.3533
 20
-20.9966
 30
0.0
 10
-173.6254
 20
-26.9068
 30
0.0
 10
-171.0377
 20
-34.8458
 30
0.0
 10
-171.161
 20
-43.0628
 30
0.0
 10
-171.161
 20
-43.0628
 30
0.0
 10
-171.3562
 20
-51.2276
 30
0.0
 10
-173.913
 20
-59.0516
 30
0.0
 10
-178.3875
 20
-65.1758
 30
0.0
 10
-178.3875
 20
-65.1758
 30
0.0
 10
-178.7688
 20
-64.7914
 30
0.0
 10
-179.134
 20
-64.3842
 30
0.0
 10
-179.4819
 20
-63.9557
 30
0.0
 10
-179.4819
 20
-63.9557
 30
0.0
 10
-179.4819
 20
-63.9557
 30
0.0
 10
-179.4819
 20
-54.0049
 30
0.0
 10
-179.4819
 20
-54.0049
 30
0.0
 10
-179.4819
 20
-54.0049
 30
0.0
 10
-178.5494
 20
-53.3325
 30
0.0
 10
-177.9782
 20
-52.1172
 30
0.0
 10
-177.9782
 20
-50.8055
 30
0.0
 10
-177.9782
 20
-50.8055
 30
0.0
 10
-177.9782
 20
-49.4937
 30
0.0
 10
-178.5494
 20
-48.2786
 30
0.0
 10
-179.4819
 20
-47.6062
 30
0.0
 10
-179.4819
 20
-47.6062
 30
0.0
 10
-179.4819
 20
-47.6062
 30
0.0
 10
-179.4819
 20
-38.5194
 30
0.0
 10
-179.4819
 20
-38.5194
 30
0.0
 10
-179.4819
 20
-38.5194
 30
0.0
 10
-178.5419
 20
-37.857
 30
0.0
 10
-177.9597
 20
-36.6464
 30
0.0
 10
-177.9487
 20
-35.3318
 30
0.0
 10
-177.9487
 20
-35.3318
 30
0.0
 10
-177.938
 20
-34.0175
 30
0.0
 10
-178.5004
 20
-32.7932
 30
0.0
 10
-179.4291
 20
-32.1084
 30
0.0
  0
SPLINE
  5
52
330
1F
100
AcDbEntity
  8
layer 1
 62
     7
370
     9
100
AcDbSpline
210
0.0
220
0.0
230
1.0
 70
    11
 71
     3
 72
    48
 73
    44
 74
     0
 42
0.0000000001
 43
0.0000000001
 12
1.0
 22
0.0
 32
0.0
 13
1.0
 23
0.0
 33
0.0
 40
0.0
 40
0.0
 40
0.0
 40
0.0
 40
0.0833333333333333
 40
0.0833333333333333
 40
0.0833333333333333
 40
0.0833333333333333
 40
0.1666666666666667
 40
0.1666666666666667
 40
0.1666666666666667
 40
0.1666666666666667
 40
0.25
 40
0.25
 40
0.25
 40
0.25
 40
0.3333333333333333
 40
0.3333333333333333
 40
0.3333333333333333
 40
0.3333333333333333
 40
0.4166666666666667
 40
0.4166666666666667
 40
0.4166666666666667
 40
0.4166666666666667
 40
0.5
 40
0.5
 40
0.5
 40
0.5
 40
0.5833333333333334
 40
0.5833333333333334
 40
0.5833333333333334
 40
0.5833333333333334
 40
0.6666666666666666
 40
0.6666666666666666
 40
0.6666666666666666
 40
0.6666666666666666
 40
0.75
 40
0.75
 40
0.75
 40
0.75
 40
0.8333333333333334
 40
0.8333333333333334
 40
0.8333333333333334
 40
0.8333333333333334
 40
1.0
 40
1.0
 40
1.0
 40
1.0
 10
-179.4819
 20
-101.5858
 30
0.0
 10
-178.5494
 20
-100.9135
 30
0.0
 10
-177.9782
 20
-99.6982
 30
0.0
 10
-177.9782
 20
-98.3865
 30
0.0
 10
-177.9782
 20
-98.3865
 30
0.0
 10
-177.9782
 20
-97.0747
 30
0.0
 10
-178.5494
 20
-95.8596
 30
0.0
 10
-179.4819
 20
-95.1872
 30
0.0
 10
-179.4819
 20
-95.1872
 30
0.0
 10
-179.4819
 20
-95.1872
 30
0.0
 10
-179.4819
 20
-86.1006
 30
0.0
 10
-179.4819
 20
-86.1006
 30
0.0
 10
-179.4819
 20
-86.1006
 30
0.0
 10
-178.5494
 20
-85.4283
 30
0.0
 10
-177.9782
 20
-84.2131
 30
0.0
 10
-177.9782
 20
-82.9013
 30
0.0
 10
-177.9782
 20
-82.9013
 30
0.0
 10
-177.9782
 20
-81.5896
 30
0.0
 10
-178.5494
 20
-80.3744
 30
0.0
 10
-179.4819
 20
-79.7021
 30
0.0
 10
-179.4819
 20
-79.7021
 30
0.0
 10
-179.4819
 20
-79.7021
 30
0.0
 10
-179.4819
 20
-69.7509
 30
0.0
 10
-179.4819
 20
-69.7509
 30
0.0
 10
-179.4819
 20
-69.7509
 30
0.0
 10
-179.134
 20
-69.3227
 30
0.0
 10
-178.7688
 20
-68.9155
 30
0.0
 10
-178.3875
 20
-68.531
 30
0.0
 10
-178.3875
 20
-68.531
 30
0.0
 10
-173.913
 20
-74.6553
 30
0.0
 10
-171.3562
 20
-82.4793
 30
0.0
 10
-171.161
 20
-90.6439
 30
0.0
 10
-171.161
 20
-90.6439
 30
0.0
 10
-171.277
 20
-95.5054
 30
0.0
 10
-172.2323
 20
-100.2841
 30
0.0
 10
-173.9652
 20
-104.6742
 30
0.0
 10
-173.9652
 20
-104.6742
 30
0.0
 10
-173.9652
 20
-104.6742
 30
0.0
 10
-179.4819
 20
-104.6742
 30
0.0
 10
-179.4819
 20
-104.6742
 30
0.0
 10
-179.4819
 20
-104.6742
 30
0.0
 10
-179.4819
 20
-104.6742
 30
0.0
 10
-179.4819
 20
-101.5858
 30
0.0
 10
-179.4819
 20
-101.5858
 30
0.0
  0
SPLINE
  5
53
330
1F
100
AcDbEntity
  8
layer 1
 62
     7
370
     9
100
AcDbSpline
210
0.0
220
0.0
230
1.0
 70
    11
 71
     3
 72
    44
 73
    40
 74
     0
 42
0.0000000001
 43
0.0000000001
 12
1.0
 22
0.0
 32
0.0
 13
1.0
 23
0.0
 33
0.0
 40
0.0
 40
0.0
 40
0.0
 40
0.0
 40
0.0909090909090909
 40
0.0909090909090909
 40
0.0909090909090909
 40
0.0909090909090909
 40
0.1818181818181818
 40
0.1818181818181818
 40
0.1818181818181818
 40
0.1818181818181818
 40
0.2727272727272727
 40
0.2727272727272727
 40
0.2727272727272727
 40
0.2727272727272727
 40
0.3636363636363636
 40
0.3636363636363636
 40
0.3636363636363636
 40
0.3636363636363636
 40
0.4545454545454545
 40
0.4545454545454545
 40
0.4545454545454545
 40
0.4545454545454545
 40
0.5454545454545454
 40
0.5454545454545454
 40
0.5454545454545454
 40
0.5454545454545454
 40
0.6363636363636364
 40
0.6363636363636364
 40
0.6363636363636364
 40
0.6363636363636364
 40
0.7272727272727273
 40
0.7272727272727273
 40
0.7272727272727273
 40
0.7272727272727273
 40
0.8181818181818182
 40
0.8181818181818182
 40
0.8181818181818182
 40
0.8181818181818182
 40
1.0
 40
1.0
 40
1.0
 40
1.0
 10
-168.5815
 20
-66.8533
 30
0.0
 10
-168.5815
 20
-66.8533
 30
0.0
 10
-168.5815
 20
-82.4703
 30
0.0
 10
-168.5815
 20
-82.4703
 30
0.0
 10
-168.5815
 20
-82.4703
 30
0.0
 10
-168.9368
 20
-81.7508
 30
0.0
 10
-169.4654
 20
-81.1795
 30
0.0
 10
-170.0966
 20
-80.8328
 30
0.0
 10
-170.0966
 20
-80.8328
 30
0.0
 10
-169.7068
 20
-78.3988
 30
0.0
 10
-170.704
 20
-75.9486
 30
0.0
 10
-172.5376
 20
-74.8345
 30
0.0
 10
-172.5376
 20
-74.8345
 30
0.0
 10
-172.4393
 20
-72.6146
 30
0.0
 10
-173.6861
 20
-70.6351
 30
0.0
 10
-175.4838
 20
-70.1576
 30
0.0
 10
-175.4838
 20
-70.1576
 30
0.0
 10
-175.6
 20
-68.739
 30
0.0
 10
-176.3103
 20
-67.4916
 30
0.0
 10
-177.3657
 20
-66.8533
 30
0.0
 10
-177.3657
 20
-66.8533
 30
0.0
 10
-176.3103
 20
-66.2153
 30
0.0
 10
-175.6
 20
-64.9678
 30
0.0
 10
-175.4838
 20
-63.5492
 30
0.0
 10
-175.4838
 20
-63.5492
 30
0.0
 10
-173.6861
 20
-63.0717
 30
0.0
 10
-172.4393
 20
-61.0922
 30
0.0
 10
-172.5376
 20
-58.8723
 30
0.0
 10
-172.5376
 20
-58.8723
 30
0.0
 10
-170.704
 20
-57.7583
 30
0.0
 10
-169.7068
 20
-55.3081
 30
0.0
 10
-170.0966
 20
-52.8742
 30
0.0
 10
-170.0966
 20
-52.8742
 30
0.0
 10
-169.4654
 20
-52.5273
 30
0.0
 10
-168.9368
 20
-51.9561
 30
0.0
 10
-168.5815
 20
-51.2365
 30
0.0
 10
-168.5815
 20
-51.2365
 30
0.0
 10
-168.5815
 20
-51.2365
 30
0.0
 10
-168.5815
 20
-66.8533
 30
0.0
 10
-168.5815
 20
-66.8533
 30
0.0
  0
SPLINE
  5
54
330
1F
100
AcDbEntity
  8
layer 1
 62
     7
370
     9
100
AcDbSpline
210
0.0
220
0.0
230
1.0
 70
    11
 71
     3
 72
    20
 73
    16
 74
     0
 42
0.0000000001
 43
0.0000000001
 12
1.0
 22
0.0
 32
0.0
 13
1.0
 23
0.0
 33
0.0
 40
0.0
 40
0.0
 40
0.0
 40
0.0
 40
0.2
 40
0.2
 40
0.2
 40
0.2
 40
0.4
 40
0.4
 40
0.4
 40
0.4
 40
0.6
 40
0.6
 40
0.6
 40
0.6
 40
1.0
 40
1.0
 40
1.0
 40
1.0
 10
-168.5815
 20
-99.0171
 30
0.0
 10
-168.9361
 20
-100.1528
 30
0.0
 10
-169.5577
 20
-101.1386
 30
0.0
 10
-170.3703
 20
-101.8529
 30
0.0
 10
-170.3703
 20
-101.8529
 30
0.0
 10
-169.9446
 20
-102.7191
 30
0.0
 10
-169.961
 20
-103.8016
 30
0.0
 10
-170.4123
 20
-104.6488
 30
0.0
 10
-170.4123
 20
-104.6488
 30
0.0
 10
-170.4123
 20
-104.6488
 30
0.0
 10
-168.5815
 20
-104.6488
 30
0.0
 10
-168.5815
 20
-104.6488
 30
0.0
 10
-168.5815
 20
-104.6488
 30
0.0
 10
-168.5815
 20
-104.6488
 30
0.0
 10
-168.5815
 20
-99.0171
 30
0.0
 10
-168.5815
 20
-99.0171
 30
0.0
  0
SPLINE
  5
55
330
1F
100
AcDbEntity
  8
layer 1
 62
     7
370
     9
100
AcDbSpline
210
0.0
220
0.0
230
1.0
 70
    11
 71
     3
 72
    20
 73
    16
 74
     0
 42
0.0000000001
 43
0.0000000001
 12
1.0
 22
0.0
 32
0.0
 13
1.0
 23
0.0
 33
0.0
 40
0.0
 40
0.0
 40
0.0
 40
0.0
 40
0.2
 40
0.2
 40
0.2
 40
0.2
 40
0.4
 40
0.4
 40
0.4
 40
0.4
 40
0.6
 40
0.6
 40
0.6
 40
0.6
 40
1.0
 40
1.0
 40
1.0
 40
1.0
 10
-160.1539
 20
-104.6742
 30
0.0
 10
-160.1958
 20
-103.732
 30
0.0
 10
-159.8344
 20
-102.8297
 30
0.0
 10
-159.1964
 20
-102.285
 30
0.0
 10
-159.1964
 20
-102.285
 30
0.0
 10
-157.1964
 20
-101.0204
 30
0.0
 10
-154.8136
 20
-101.0014
 30
0.0
 10
-152.7996
 20
-102.2342
 30
0.0
 10
-152.7996
 20
-102.2342
 30
0.0
 10
-151.9405
 20
-103.051
 30
0.0
 10
-151.0793
 20
-103.8643
 30
0.0
 10
-150.2158
 20
-104.6742
 30
0.0
 10
-150.2158
 20
-104.6742
 30
0.0
 10
-150.2158
 20
-104.6742
 30
0.0
 10
-160.1539
 20
-104.6742
 30
0.0
 10
-160.1539
 20
-104.6742
 30
0.0
  0
SPLINE
  5
56
330
1F
100
AcDbEntity
  8
layer 1
 62
     7
370
     9
100
AcDbSpline
210
0.0
220
0.0
230
1.0
 70
    11
 71
     3
 72
    72
 73
    68
 74
     0
 42
0.0000000001
 43
0.0000000001
 12
1.0
 22
0.0
 32
0.0
 13
1.0
 23
0.0
 33
0.0
 40
0.0
 40
0.0
 40
0.0
 40
0.0
 40
0.0555555555555556
 40
0.0555555555555556
 40
0.0555555555555556
 40
0.0555555555555556
 40
0.1111111111111111
 40
0.1111111111111111
 40
0.1111111111111111
 40
0.1111111111111111
 40
0.1666666666666667
 40
0.1666666666666667
 40
0.1666666666666667
 40
0.1666666666666667
 40
0.2222222222222222
 40
0.2222222222222222
 40
0.2222222222222222
 40
0.2222222222222222
 40
0.2777777777777778
 40
0.2777777777777778
 40
0.2777777777777778
 40
0.2777777777777778
 40
0.3333333333333333
 40
0.3333333333333333
 40
0.3333333333333333
 40
0.3333333333333333
 40
0.3888888888888889
 40
0.3888888888888889
 40
0.3888888888888889
 40
0.3888888888888889
 40
0.4444444444444444
 40
0.4444444444444444
 40
0.4444444444444444
 40
0.4444444444444444
 40
0.5
 40
0.5
 40
0.5
 40
0.5
 40
0.5555555555555556
 40
0.5555555555555556
 40
0.5555555555555556
 40
0.5555555555555556
 40
0.6111111111111112
 40
0.6111111111111112
 40
0.6111111111111112
 40
0.6111111111111112
 40
0.6666666666666666
 40
0.6666666666666666
 40
0.6666666666666666
 40
0.6666666666666666
 40
0.7222222222222222
 40
0.7222222222222222
 40
0.7222222222222222
 40
0.7222222222222222
 40
0.7777777777777778
 40
0.7777777777777778
 40
0.7777777777777778
 40
0.7777777777777778
 40
0.8333333333333334
 40
0.8333333333333334
 40
0.8333333333333334
 40
0.8333333333333334
 40
0.8888888888888888
 40
0.8888888888888888
 40
0.8888888888888888
 40
0.8888888888888888
 40
1.0
 40
1.0
 40
1.0
 40
1.0
 10
-126.6643
 20
-104.6742
 30
0.0
 10
-126.6643
 20
-104.6742
 30
0.0
 10
-126.6643
 20
-97.8794
 30
0.0
 10
-126.6643
 20
-97.8794
 30
0.0
 10
-126.6643
 20
-97.8794
 30
0.0
 10
-127.2004
 20
-98.865
 30
0.0
 10
-127.9122
 20
-99.6928
 30
0.0
 10
-128.7478
 20
-100.3024
 30
0.0
 10
-128.7478
 20
-100.3024
 30
0.0
 10
-130.704
 20
-101.3778
 30
0.0
 10
-132.9934
 20
-101.0444
 30
0.0
 10
-134.6818
 20
-99.4382
 30
0.0
 10
-134.6818
 20
-99.4382
 30
0.0
 10
-135.5246
 20
-98.5954
 30
0.0
 10
-135.7699
 20
-97.1582
 30
0.0
 10
-135.2711
 20
-95.9815
 30
0.0
 10
-135.2711
 20
-95.9815
 30
0.0
 10
-134.6641
 20
-94.7944
 30
0.0
 10
-133.4307
 20
-94.3195
 30
0.0
 10
-132.3668
 20
-94.8633
 30
0.0
 10
-132.3668
 20
-94.8633
 30
0.0
 10
-132.5458
 20
-95.2842
 30
0.0
 10
-132.4975
 20
-95.7939
 30
0.0
 10
-132.2444
 20
-96.1551
 30
0.0
 10
-132.2444
 20
-96.1551
 30
0.0
 10
-131.9912
 20
-96.5164
 30
0.0
 10
-131.5829
 20
-96.6584
 30
0.0
 10
-131.2095
 20
-96.5152
 30
0.0
 10
-131.2095
 20
-96.5152
 30
0.0
 10
-130.65
 20
-96.2155
 30
0.0
 10
-130.2538
 20
-95.5937
 30
0.0
 10
-130.1576
 20
-94.8633
 30
0.0
 10
-130.1576
 20
-94.8633
 30
0.0
 10
-130.0688
 20
-93.1855
 30
0.0
 10
-130.8598
 20
-91.6204
 30
0.0
 10
-132.1357
 20
-90.9489
 30
0.0
 10
-132.1357
 20
-90.9489
 30
0.0
 10
-134.2906
 20
-90.4227
 30
0.0
 10
-136.5154
 20
-91.3121
 30
0.0
 10
-137.9855
 20
-93.2873
 30
0.0
 10
-137.9855
 20
-93.2873
 30
0.0
 10
-138.513
 20
-94.1137
 30
0.0
 10
-138.6412
 20
-95.2149
 30
0.0
 10
-138.322
 20
-96.1848
 30
0.0
 10
-138.322
 20
-96.1848
 30
0.0
 10
-137.9301
 20
-97.0971
 30
0.0
 10
-137.1016
 20
-97.6077
 30
0.0
 10
-136.2602
 20
-97.4558
 30
0.0
 10
-136.2602
 20
-97.4558
 30
0.0
 10
-135.9854
 20
-98.4708
 30
0.0
 10
-136.2463
 20
-99.5857
 30
0.0
 10
-136.9204
 20
-100.2771
 30
0.0
 10
-136.9204
 20
-100.2771
 30
0.0
 10
-137.5943
 20
-100.9684
 30
0.0
 10
-138.5472
 20
-101.0988
 30
0.0
 10
-139.3321
 20
-100.6074
 30
0.0
 10
-139.3321
 20
-100.6074
 30
0.0
 10
-140.2653
 20
-100.1399
 30
0.0
 10
-141.0482
 20
-99.3194
 30
0.0
 10
-141.5629
 20
-98.2691
 30
0.0
 10
-141.5629
 20
-98.2691
 30
0.0
 10
-142.8409
 20
-100.4186
 30
0.0
 10
-144.1352
 20
-102.5537
 30
0.0
 10
-145.446
 20
-104.6742
 30
0.0
 10
-145.446
 20
-104.6742
 30
0.0
 10
-145.446
 20
-104.6742
 30
0.0
 10
-126.6643
 20
-104.6742
 30
0.0
 10
-126.6643
 20
-104.6742
 30
0.0
  0
SPLINE
  5
57
330
1F
100
AcDbEntity
  8
layer 1
 62
     7
370
     9
100
AcDbSpline
210
0.0
220
0.0
230
1.0
 70
    11
 71
     3
 72
    60
 73
    56
 74
     0
 42
0.0000000001
 43
0.0000000001
 12
1.0
 22
0.0
 32
0.0
 13
1.0
 23
0.0
 33
0.0
 40
0.0
 40
0.0
 40
0.0
 40
0.0
 40
0.0666666666666667
 40
0.0666666666666667
 40
0.0666666666666667
 40
0.0666666666666667
 40
0.1333333333333333
 40
0.1333333333333333
 40
0.1333333333333333
 40
0.1333333333333333
 40
0.2
 40
0.2
 40
0.2
 40
0.2
 40
0.2666666666666667
 40
0.2666666666666667
 40
0.2666666666666667
 40
0.2666666666666667
 40
0.3333333333333333
 40
0.3333333333333333
 40
0.3333333333333333
 40
0.3333333333333333
 40
0.4
 40
0.4
 40
0.4
 40
0.4
 40
0.4666666666666667
 40
0.4666666666666667
 40
0.4666666666666667
 40
0.4666666666666667
 40
0.5333333333333333
 40
0.5333333333333333
 40
0.5333333333333333
 40
0.5333333333333333
 40
0.6
 40
0.6
 40
0.6
 40
0.6
 40
0.6666666666666666
 40
0.6666666666666666
 40
0.6666666666666666
 40
0.6666666666666666
 40
0.7333333333333333
 40
0.7333333333333333
 40
0.7333333333333333
 40
0.7333333333333333
 40
0.8
 40
0.8
 40
0.8
 40
0.8
 40
0.8666666666666667
 40
0.8666666666666667
 40
0.8666666666666667
 40
0.8666666666666667
 40
1.0
 40
1.0
 40
1.0
 40
1.0
 10
-78.645
 20
0.7053
 30
0.0
 10
-76.4319
 20
0.3294
 30
0.0
 10
-74.2284
 20
1.4647
 30
0.0
 10
-72.9211
 20
3.654
 30
0.0
 10
-72.9211
 20
3.654
 30
0.0
 10
-72.1771
 20
4.6662
 30
0.0
 10
-71.135
 20
5.2864
 30
0.0
 10
-70.0173
 20
5.3822
 30
0.0
 10
-70.0173
 20
5.3822
 30
0.0
 10
-73.1191
 20
-4.0039
 30
0.0
 10
-79.448
 20
-11.2961
 30
0.0
 10
-87.3565
 20
-14.5958
 30
0.0
 10
-87.3565
 20
-14.5958
 30
0.0
 10
-86.5833
 20
-12.5265
 30
0.0
 10
-86.2922
 20
-10.2416
 30
0.0
 10
-86.5148
 20
-7.9874
 30
0.0
 10
-86.5148
 20
-7.9874
 30
0.0
 10
-84.9556
 20
-7.9221
 30
0.0
 10
-83.635
 20
-6.5787
 30
0.0
 10
-83.3165
 20
-4.7337
 30
0.0
 10
-83.3165
 20
-4.7337
 30
0.0
 10
-85.7998
 20
-5.0323
 30
0.0
 10
-88.2766
 20
-4.0961
 30
0.0
 10
-90.1763
 20
-2.1411
 30
0.0
 10
-90.1763
 20
-2.1411
 30
0.0
 10
-92.4825
 20
-0.8904
 30
0.0
 10
-94.9171
 20
-0.0181
 30
0.0
 10
-97.4149
 20
0.4515
 30
0.0
 10
-97.4149
 20
0.4515
 30
0.0
 10
-97.4149
 20
0.4515
 30
0.0
 10
-103.8121
 20
0.4515
 30
0.0
 10
-103.8121
 20
0.4515
 30
0.0
 10
-103.8121
 20
0.4515
 30
0.0
 10
-103.8121
 20
0.4515
 30
0.0
 10
-103.8541
 20
2.4846
 30
0.0
 10
-103.8541
 20
2.4846
 30
0.0
 10
-103.8541
 20
2.4846
 30
0.0
 10
-103.8541
 20
2.4846
 30
0.0
 10
-95.3527
 20
2.4846
 30
0.0
 10
-95.3527
 20
2.4846
 30
0.0
 10
-95.3527
 20
2.4846
 30
0.0
 10
-91.7512
 20
2.2968
 30
0.0
 10
-88.179
 20
1.6148
 30
0.0
 10
-84.7053
 20
0.4515
 30
0.0
 10
-84.7053
 20
0.4515
 30
0.0
 10
-83.2949
 20
-0.1975
 30
0.0
 10
-82.282
 20
-1.7119
 30
0.0
 10
-82.0538
 20
-3.5139
 30
0.0
 10
-82.0538
 20
-3.5139
 30
0.0
 10
-81.0729
 20
-3.8605
 30
0.0
 10
-80.0136
 20
-3.525
 30
0.0
 10
-79.2996
 20
-2.6413
 30
0.0
 10
-79.2996
 20
-2.6413
 30
0.0
 10
-78.5861
 20
-1.7577
 30
0.0
 10
-78.334
 20
-0.4705
 30
0.0
 10
-78.645
 20
0.7053
 30
0.0
  0
SPLINE
  5
58
330
1F
100
AcDbEntity
  8
layer 1
 62
     7
370
     9
100
AcDbSpline
210
0.0
220
0.0
230
1.0
 70
    11
 71
     3
 72
    40
 73
    36
 74
     0
 42
0.0000000001
 43
0.0000000001
 12
1.0
 22
0.0
 32
0.0
 13
1.0
 23
0.0
 33
0.0
 40
0.0
 40
0.0
 40
0.0
 40
0.0
 40
0.1
 40
0.1
 40
0.1
 40
0.1
 40
0.2
 40
0.2
 40
0.2
 40
0.2
 40
0.3
 40
0.3
 40
0.3
 40
0.3
 40
0.4
 40
0.4
 40
0.4
 40
0.4
 40
0.5
 40
0.5
 40
0.5
 40
0.5
 40
0.6
 40
0.6
 40
0.6
 40
0.6
 40
0.7
 40
0.7
 40
0.7
 40
0.7
 40
0.8
 40
0.8
 40
0.8
 40
0.8
 40
1.0
 40
1.0
 40
1.0
 40
1.0
 10
-108.189
 20
-3.9204
 30
0.0
 10
-106.1016
 20
-4.0834
 30
0.0
 10
-104.2278
 20
-5.5233
 30
0.0
 10
-103.2214
 20
-7.7381
 30
0.0
 10
-103.2214
 20
-7.7381
 30
0.0
 10
-102.215
 20
-9.953
 30
0.0
 10
-102.2157
 20
-12.6355
 30
0.0
 10
-103.2228
 20
-14.85
 30
0.0
 10
-103.2228
 20
-14.85
 30
0.0
 10
-98.7685
 20
-16.5143
 30
0.0
 10
-94.0193
 20
-16.6552
 30
0.0
 10
-89.5028
 20
-15.2565
 30
0.0
 10
-89.5028
 20
-15.2565
 30
0.0
 10
-91.5388
 20
-14.4961
 30
0.0
 10
-93.3696
 20
-13.092
 30
0.0
 10
-94.8057
 20
-11.1899
 30
0.0
 10
-94.8057
 20
-11.1899
 30
0.0
 10
-96.3897
 20
-12.2169
 30
0.0
 10
-98.2868
 20
-12.2546
 30
0.0
 10
-99.8982
 20
-11.2914
 30
0.0
 10
-99.8982
 20
-11.2914
 30
0.0
 10
-99.2723
 20
-9.9779
 30
0.0
 10
-99.1967
 20
-8.385
 30
0.0
 10
-99.6937
 20
-6.9937
 30
0.0
 10
-99.6937
 20
-6.9937
 30
0.0
 10
-100.1911
 20
-5.6024
 30
0.0
 10
-101.2028
 20
-4.5761
 30
0.0
 10
-102.4234
 20
-4.2254
 30
0.0
 10
-102.4234
 20
-4.2254
 30
0.0
 10
-104.9038
 20
-3.4199
 30
0.0
 10
-107.4772
 20
-3.1106
 30
0.0
 10
-110.0407
 20
-3.3105
 30
0.0
 10
-110.0407
 20
-3.3105
 30
0.0
 10
-109.4489
 20
-3.614
 30
0.0
 10
-108.8263
 20
-3.8192
 30
0.0
 10
-108.189
 20
-3.9204
 30
0.0
  0
SPLINE
  5
59
330
1F
100
AcDbEntity
  8
layer 1
 62
     7
370
     9
100
AcDbSpline
210
0.0
220
0.0
230
1.0
 70
    11
 71
     3
 72
    48
 73
    44
 74
     0
 42
0.0000000001
 43
0.0000000001
 12
1.0
 22
0.0
 32
0.0
 13
1.0
 23
0.0
 33
0.0
 40
0.0
 40
0.0
 40
0.0
 40
0.0
 40
0.0833333333333333
 40
0.0833333333333333
 40
0.0833333333333333
 40
0.0833333333333333
 40
0.1666666666666667
 40
0.1666666666666667
 40
0.1666666666666667
 40
0.1666666666666667
 40
0.25
 40
0.25
 40
0.25
 40
0.25
 40
0.3333333333333333
 40
0.3333333333333333
 40
0.3333333333333333
 40
0.3333333333333333
 40
0.4166666666666667
 40
0.4166666666666667
 40
0.4166666666666667
 40
0.4166666666666667
 40
0.5
 40
0.5
 40
0.5
 40
0.5
 40
0.5833333333333334
 40
0.5833333333333334
 40
0.5833333333333334
 40
0.5833333333333334
 40
0.6666666666666666
 40
0.6666666666666666
 40
0.6666666666666666
 40
0.6666666666666666
 40
0.75
 40
0.75
 40
0.75
 40
0.75
 40
0.8333333333333334
 40
0.8333333333333334
 40
0.8333333333333334
 40
0.8333333333333334
 40
1.0
 40
1.0
 40
1.0
 40
1.0
 10
-108.6097
 20
-19.3742
 30
0.0
 10
-110.4064
 20
-18.3706
 30
0.0
 10
-111.4238
 20
-16.0378
 30
0.0
 10
-111.0926
 20
-13.6806
 30
0.0
 10
-111.0926
 20
-13.6806
 30
0.0
 10
-111.0106
 20
-13.2312
 30
0.0
 10
-110.7465
 20
-12.862
 30
0.0
 10
-110.3908
 20
-12.698
 30
0.0
 10
-110.3908
 20
-12.698
 30
0.0
 10
-110.0344
 20
-12.5343
 30
0.0
 10
-109.6343
 20
-12.5978
 30
0.0
 10
-109.325
 20
-12.8673
 30
0.0
 10
-109.325
 20
-12.8673
 30
0.0
 10
-108.8323
 20
-12.7519
 30
0.0
 10
-108.4634
 20
-12.2532
 30
0.0
 10
-108.4244
 20
-11.6486
 30
0.0
 10
-108.4244
 20
-11.6486
 30
0.0
 10
-108.385
 20
-11.0437
 30
0.0
 10
-108.685
 20
-10.4816
 30
0.0
 10
-109.1568
 20
-10.2746
 30
0.0
 10
-109.1568
 20
-10.2746
 30
0.0
 10
-109.8157
 20
-10.0571
 30
0.0
 10
-110.4941
 20
-9.9374
 30
0.0
 10
-111.1768
 20
-9.919
 30
0.0
 10
-111.1768
 20
-9.919
 30
0.0
 10
-113.4641
 20
-10.4398
 30
0.0
 10
-115.0159
 20
-13.0284
 30
0.0
 10
-114.7123
 20
-15.8156
 30
0.0
 10
-114.7123
 20
-15.8156
 30
0.0
 10
-114.107
 20
-18.7778
 30
0.0
 10
-112.5258
 20
-21.3123
 30
0.0
 10
-110.3351
 20
-22.8309
 30
0.0
 10
-110.3351
 20
-22.8309
 30
0.0
 10
-103.6038
 20
-25.8449
 30
0.0
 10
-96.2377
 20
-26.0949
 30
0.0
 10
-89.3765
 20
-23.5424
 30
0.0
 10
-89.3765
 20
-23.5424
 30
0.0
 10
-90.5203
 20
-22.5991
 30
0.0
 10
-91.0578
 20
-20.8957
 30
0.0
 10
-90.7234
 20
-19.2723
 30
0.0
 10
-90.7234
 20
-19.2723
 30
0.0
 10
-96.4834
 20
-21.8909
 30
0.0
 10
-102.8298
 20
-21.9271
 30
0.0
 10
-108.6097
 20
-19.3742
 30
0.0
  0
SPLINE
  5
5A
330
1F
100
AcDbEntity
  8
layer 1
 62
     7
370
     9
100
AcDbSpline
210
0.0
220
0.0
230
1.0
 70
    11
 71
     3
 72
    20
 73
    16
 74
     0
 42
0.0000000001
 43
0.0000000001
 12
1.0
 22
0.0
 32
0.0
 13
1.0
 23
0.0
 33
0.0
 40
0.0
 40
0.0
 40
0.0
 40
0.0
 40
0.2
 40
0.2
 40
0.2
 40
0.2
 40
0.4
 40
0.4
 40
0.4
 40
0.4
 40
0.6
 40
0.6
 40
0.6
 40
0.6
 40
1.0
 40
1.0
 40
1.0
 40
1.0
 10
-64.2095
 20
5.128
 30
0.0
 10
-67.0464
 20
-6.8297
 30
0.0
 10
-74.1866
 20
-16.6115
 30
0.0
 10
-83.6531
 20
-21.5092
 30
0.0
 10
-83.6531
 20
-21.5092
 30
0.0
 10
-83.6385
 20
-19.9976
 30
0.0
 10
-84.0545
 20
-18.5262
 30
0.0
 10
-84.8313
 20
-17.3407
 30
0.0
 10
-84.8313
 20
-17.3407
 30
0.0
 10
-76.4915
 20
-13.659
 30
0.0
 10
-70.1102
 20
-5.3844
 30
0.0
 10
-67.6605
 20
4.9246
 30
0.0
 10
-67.6605
 20
4.9246
 30
0.0
 10
-66.5895
 20
4.1074
 30
0.0
 10
-65.2095
 20
4.189
 30
0.0
 10
-64.2095
 20
5.128
 30
0.0
  0
SPLINE
  5
5B
330
1F
100
AcDbEntity
  8
layer 1
 62
     7
370
     9
100
AcDbSpline
210
0.0
220
0.0
230
1.0
 70
    11
 71
     3
 72
    16
 73
    12
 74
     0
 42
0.0000000001
 43
0.0000000001
 12
1.0
 22
0.0
 32
0.0
 13
1.0
 23
0.0
 33
0.0
 40
0.0
 40
0.0
 40
0.0
 40
0.0
 40
0.25
 40
0.25
 40
0.25
 40
0.25
 40
0.5
 40
0.5
 40
0.5
 40
0.5
 40
1.0
 40
1.0
 40
1.0
 40
1.0
 10
-72.837
 20
-18.764
 30
0.0
 10
-74.1951
 20
-20.4684
 30
0.0
 10
-75.7055
 20
-21.9857
 30
0.0
 10
-77.3404
 20
-23.2882
 30
0.0
 10
-77.3404
 20
-23.2882
 30
0.0
 10
-75.457
 20
-23.5814
 30
0.0
 10
-73.7779
 20
-24.8655
 30
0.0
 10
-72.7529
 20
-26.796
 30
0.0
 10
-72.7529
 20
-26.796
 30
0.0
 10
-72.8374
 20
-24.12
 30
0.0
 10
-72.8656
 20
-21.4418
 30
0.0
 10
-72.837
 20
-18.764
 30
0.0
  0
SPLINE
  5
5C
330
1F
100
AcDbEntity
  8
layer 1
 62
     7
370
     9
100
AcDbSpline
210
0.0
220
0.0
230
1.0
 70
    11
 71
     3
 72
    80
 73
    76
 74
     0
 42
0.0000000001
 43
0.0000000001
 12
1.0
 22
0.0
 32
0.0
 13
1.0
 23
0.0
 33
0.0
 40
0.0
 40
0.0
 40
0.0
 40
0.0
 40
0.05
 40
0.05
 40
0.05
 40
0.05
 40
0.1
 40
0.1
 40
0.1
 40
0.1
 40
0.15
 40
0.15
 40
0.15
 40
0.15
 40
0.2
 40
0.2
 40
0.2
 40
0.2
 40
0.25
 40
0.25
 40
0.25
 40
0.25
 40
0.3
 40
0.3
 40
0.3
 40
0.3
 40
0.35
 40
0.35
 40
0.35
 40
0.35
 40
0.4
 40
0.4
 40
0.4
 40
0.4
 40
0.45
 40
0.45
 40
0.45
 40
0.45
 40
0.5
 40
0.5
 40
0.5
 40
0.5
 40
0.55
 40
0.55
 40
0.55
 40
0.55
 40
0.6
 40
0.6
 40
0.6
 40
0.6
 40
0.65
 40
0.65
 40
0.65
 40
0.65
 40
0.7
 40
0.7
 40
0.7
 40
0.7
 40
0.75
 40
0.75
 40
0.75
 40
0.75
 40
0.8
 40
0.8
 40
0.8
 40
0.8
 40
0.85
 40
0.85
 40
0.85
 40
0.85
 40
0.9
 40
0.9
 40
0.9
 40
0.9
 40
1.0
 40
1.0
 40
1.0
 40
1.0
 10
-109.1568
 20
-30.2527
 30
0.0
 10
-109.1568
 20
-30.2527
 30
0.0
 10
-109.1568
 20
-37.0472
 30
0.0
 10
-109.1568
 20
-37.0472
 30
0.0
 10
-109.1568
 20
-37.0472
 30
0.0
 10
-108.6211
 20
-36.0617
 30
0.0
 10
-107.9092
 20
-35.2338
 30
0.0
 10
-107.0736
 20
-34.6243
 30
0.0
 10
-107.0736
 20
-34.6243
 30
0.0
 10
-105.1175
 20
-33.5489
 30
0.0
 10
-102.828
 20
-33.8827
 30
0.0
 10
-101.1396
 20
-35.4884
 30
0.0
 10
-101.1396
 20
-35.4884
 30
0.0
 10
-100.2965
 20
-36.3315
 30
0.0
 10
-100.0516
 20
-37.7689
 30
0.0
 10
-100.5503
 20
-38.9454
 30
0.0
 10
-100.5503
 20
-38.9454
 30
0.0
 10
-101.1574
 20
-40.1326
 30
0.0
 10
-102.3904
 20
-40.6072
 30
0.0
 10
-103.4543
 20
-40.0637
 30
0.0
 10
-103.4543
 20
-40.0637
 30
0.0
 10
-103.2753
 20
-39.6427
 30
0.0
 10
-103.324
 20
-39.1329
 30
0.0
 10
-103.5771
 20
-38.7718
 30
0.0
 10
-103.5771
 20
-38.7718
 30
0.0
 10
-103.8302
 20
-38.4104
 30
0.0
 10
-104.2382
 20
-38.2684
 30
0.0
 10
-104.6116
 20
-38.4114
 30
0.0
 10
-104.6116
 20
-38.4114
 30
0.0
 10
-105.1714
 20
-38.7114
 30
0.0
 10
-105.5673
 20
-39.3334
 30
0.0
 10
-105.6638
 20
-40.0637
 30
0.0
 10
-105.6638
 20
-40.0637
 30
0.0
 10
-105.7523
 20
-41.7415
 30
0.0
 10
-104.9616
 20
-43.3063
 30
0.0
 10
-103.6857
 20
-43.978
 30
0.0
 10
-103.6857
 20
-43.978
 30
0.0
 10
-101.5305
 20
-44.5041
 30
0.0
 10
-99.3057
 20
-43.6148
 30
0.0
 10
-97.836
 20
-41.6396
 30
0.0
 10
-97.836
 20
-41.6396
 30
0.0
 10
-97.3081
 20
-40.8131
 30
0.0
 10
-97.1799
 20
-39.7119
 30
0.0
 10
-97.4991
 20
-38.742
 30
0.0
 10
-97.4991
 20
-38.742
 30
0.0
 10
-97.8913
 20
-37.8296
 30
0.0
 10
-98.7199
 20
-37.3192
 30
0.0
 10
-99.5613
 20
-37.471
 30
0.0
 10
-99.5613
 20
-37.471
 30
0.0
 10
-99.8357
 20
-36.4558
 30
0.0
 10
-99.5748
 20
-35.3411
 30
0.0
 10
-98.901
 20
-34.6498
 30
0.0
 10
-98.901
 20
-34.6498
 30
0.0
 10
-98.2271
 20
-33.9583
 30
0.0
 10
-97.274
 20
-33.828
 30
0.0
 10
-96.489
 20
-34.3193
 30
0.0
 10
-96.489
 20
-34.3193
 30
0.0
 10
-95.5558
 20
-34.7869
 30
0.0
 10
-94.7729
 20
-35.6073
 30
0.0
 10
-94.2585
 20
-36.6577
 30
0.0
 10
-94.2585
 20
-36.6577
 30
0.0
 10
-92.9805
 20
-34.5085
 30
0.0
 10
-91.6859
 20
-32.3731
 30
0.0
 10
-90.3751
 20
-30.2527
 30
0.0
 10
-90.3751
 20
-30.2527
 30
0.0
 10
-90.1447
 20
-29.498
 30
0.0
 10
-89.8377
 20
-28.7809
 30
0.0
 10
-89.4606
 20
-28.1177
 30
0.0
 10
-89.4606
 20
-28.1177
 30
0.0
 10
-95.8007
 20
-31.023
 30
0.0
 10
-102.7968
 20
-31.0593
 30
0.0
 10
-109.1568
 20
-28.2192
 30
0.0
 10
-109.1568
 20
-28.2192
 30
0.0
 10
-109.111
 20
-28.8959
 30
0.0
 10
-109.111
 20
-29.5761
 30
0.0
 10
-109.1568
 20
-30.2527
 30
0.0
  0
SPLINE
  5
5D
330
1F
100
AcDbEntity
  8
layer 1
 62
     7
370
     9
100
AcDbSpline
210
0.0
220
0.0
230
1.0
 70
    11
 71
     3
 72
    28
 73
    24
 74
     0
 42
0.0000000001
 43
0.0000000001
 12
1.0
 22
0.0
 32
0.0
 13
1.0
 23
0.0
 33
0.0
 40
0.0
 40
0.0
 40
0.0
 40
0.0
 40
0.1428571428571428
 40
0.1428571428571428
 40
0.1428571428571428
 40
0.1428571428571428
 40
0.2857142857142857
 40
0.2857142857142857
 40
0.2857142857142857
 40
0.2857142857142857
 40
0.4285714285714285
 40
0.4285714285714285
 40
0.4285714285714285
 40
0.4285714285714285
 40
0.5714285714285714
 40
0.5714285714285714
 40
0.5714285714285714
 40
0.5714285714285714
 40
0.7142857142857143
 40
0.7142857142857143
 40
0.7142857142857143
 40
0.7142857142857143
 40
1.0
 40
1.0
 40
1.0
 40
1.0
 10
-83.0215
 20
-27.8128
 30
0.0
 10
-81.0079
 20
-26.5798
 30
0.0
 10
-78.6251
 20
-26.5987
 30
0.0
 10
-76.6247
 20
-27.8635
 30
0.0
 10
-76.6247
 20
-27.8635
 30
0.0
 10
-75.9867
 20
-28.4081
 30
0.0
 10
-75.6253
 20
-29.3105
 30
0.0
 10
-75.6676
 20
-30.2527
 30
0.0
 10
-75.6676
 20
-30.2527
 30
0.0
 10
-75.6253
 20
-31.1949
 30
0.0
 10
-75.9867
 20
-32.097
 30
0.0
 10
-76.6247
 20
-32.6419
 30
0.0
 10
-76.6247
 20
-32.6419
 30
0.0
 10
-78.6251
 20
-33.9065
 30
0.0
 10
-81.0079
 20
-33.9253
 30
0.0
 10
-83.0215
 20
-32.6926
 30
0.0
 10
-83.0215
 20
-32.6926
 30
0.0
 10
-83.8806
 20
-31.8758
 30
0.0
 10
-84.7423
 20
-31.0625
 30
0.0
 10
-85.6056
 20
-30.2527
 30
0.0
 10
-85.6056
 20
-30.2527
 30
0.0
 10
-84.7423
 20
-29.4426
 30
0.0
 10
-83.8806
 20
-28.6293
 30
0.0
 10
-83.0215
 20
-27.8128
 30
0.0
  0
SPLINE
  5
5E
330
1F
100
AcDbEntity
  8
layer 1
 62
     7
370
     9
100
AcDbSpline
210
0.0
220
0.0
230
1.0
 70
    11
 71
     3
 72
   188
 73
   184
 74
     0
 42
0.0000000001
 43
0.0000000001
 12
1.0
 22
0.0
 32
0.0
 13
1.0
 23
0.0
 33
0.0
 40
0.0
 40
0.0
 40
0.0
 40
0.0
 40
0.0212765957446809
 40
0.0212765957446809
 40
0.0212765957446809
 40
0.0212765957446809
 40
0.0425531914893617
 40
0.0425531914893617
 40
0.0425531914893617
 40
0.0425531914893617
 40
0.0638297872340425
 40
0.0638297872340425
 40
0.0638297872340425
 40
0.0638297872340425
 40
0.0851063829787234
 40
0.0851063829787234
 40
0.0851063829787234
 40
0.0851063829787234
 40
0.1063829787234043
 40
0.1063829787234043
 40
0.1063829787234043
 40
0.1063829787234043
 40
0.1276595744680851
 40
0.1276595744680851
 40
0.1276595744680851
 40
0.1276595744680851
 40
0.148936170212766
 40
0.148936170212766
 40
0.148936170212766
 40
0.148936170212766
 40
0.1702127659574468
 40
0.1702127659574468
 40
0.1702127659574468
 40
0.1702127659574468
 40
0.1914893617021277
 40
0.1914893617021277
 40
0.1914893617021277
 40
0.1914893617021277
 40
0.2127659574468085
 40
0.2127659574468085
 40
0.2127659574468085
 40
0.2127659574468085
 40
0.2340425531914894
 40
0.2340425531914894
 40
0.2340425531914894
 40
0.2340425531914894
 40
0.2553191489361702
 40
0.2553191489361702
 40
0.2553191489361702
 40
0.2553191489361702
 40
0.2765957446808511
 40
0.2765957446808511
 40
0.2765957446808511
 40
0.2765957446808511
 40
0.2978723404255319
 40
0.2978723404255319
 40
0.2978723404255319
 40
0.2978723404255319
 40
0.3191489361702128
 40
0.3191489361702128
 40
0.3191489361702128
 40
0.3191489361702128
 40
0.3404255319148936
 40
0.3404255319148936
 40
0.3404255319148936
 40
0.3404255319148936
 40
0.3617021276595745
 40
0.3617021276595745
 40
0.3617021276595745
 40
0.3617021276595745
 40
0.3829787234042553
 40
0.3829787234042553
 40
0.3829787234042553
 40
0.3829787234042553
 40
0.4042553191489361
 40
0.4042553191489361
 40
0.4042553191489361
 40
0.4042553191489361
 40
0.425531914893617
 40
0.425531914893617
 40
0.425531914893617
 40
0.425531914893617
 40
0.4468085106382979
 40
0.4468085106382979
 40
0.4468085106382979
 40
0.4468085106382979
 40
0.4680851063829787
 40
0.4680851063829787
 40
0.4680851063829787
 40
0.4680851063829787
 40
0.4893617021276596
 40
0.4893617021276596
 40
0.4893617021276596
 40
0.4893617021276596
 40
0.5106382978723404
 40
0.5106382978723404
 40
0.5106382978723404
 40
0.5106382978723404
 40
0.5319148936170213
 40
0.5319148936170213
 40
0.5319148936170213
 40
0.5319148936170213
 40
0.5531914893617021
 40
0.5531914893617021
 40
0.5531914893617021
 40
0.5531914893617021
 40
0.574468085106383
 40
0.574468085106383
 40
0.574468085106383
 40
0.574468085106383
 40
0.5957446808510638
 40
0.5957446808510638
 40
0.5957446808510638
 40
0.5957446808510638
 40
0.6170212765957447
 40
0.6170212765957447
 40
0.6170212765957447
 40
0.6170212765957447
 40
0.6382978723404256
 40
0.6382978723404256
 40
0.6382978723404256
 40
0.6382978723404256
 40
0.6595744680851063
 40
0.6595744680851063
 40
0.6595744680851063
 40
0.6595744680851063
 40
0.6808510638297872
 40
0.6808510638297872
 40
0.6808510638297872
 40
0.6808510638297872
 40
0.7021276595744681
 40
0.7021276595744681
 40
0.7021276595744681
 40
0.7021276595744681
 40
0.723404255319149
 40
0.723404255319149
 40
0.723404255319149
 40
0.723404255319149
 40
0.7446808510638298
 40
0.7446808510638298
 40
0.7446808510638298
 40
0.7446808510638298
 40
0.7659574468085106
 40
0.7659574468085106
 40
0.7659574468085106
 40
0.7659574468085106
 40
0.7872340425531915
 40
0.7872340425531915
 40
0.7872340425531915
 40
0.7872340425531915
 40
0.8085106382978723
 40
0.8085106382978723
 40
0.8085106382978723
 40
0.8085106382978723
 40
0.8297872340425532
 40
0.8297872340425532
 40
0.8297872340425532
 40
0.8297872340425532
 40
0.851063829787234
 40
0.851063829787234
 40
0.851063829787234
 40
0.851063829787234
 40
0.8723404255319149
 40
0.8723404255319149
 40
0.8723404255319149
 40
0.8723404255319149
 40
0.8936170212765957
 40
0.8936170212765957
 40
0.8936170212765957
 40
0.8936170212765957
 40
0.9148936170212766
 40
0.9148936170212766
 40
0.9148936170212766
 40
0.9148936170212766
 40
0.9361702127659575
 40
0.9361702127659575
 40
0.9361702127659575
 40
0.9361702127659575
 40
0.9574468085106383
 40
0.9574468085106383
 40
0.9574468085106383
 40
0.9574468085106383
 40
1.0
 40
1.0
 40
1.0
 40
1.0
 10
-109.1568
 20
-44.3788
 30
0.0
 10
-105.9692
 20
-48.2285
 30
0.0
 10
-101.0899
 20
-49.1547
 30
0.0
 10
-97.0783
 20
-46.6721
 30
0.0
 10
-97.0783
 20
-46.6721
 30
0.0
 10
-96.0094
 20
-45.6615
 30
0.0
 10
-94.9075
 20
-44.7033
 30
0.0
 10
-93.7747
 20
-43.8002
 30
0.0
 10
-93.7747
 20
-43.8002
 30
0.0
 10
-93.0079
 20
-43.1921
 30
0.0
 10
-92.1026
 20
-42.8899
 30
0.0
 10
-91.1863
 20
-42.9357
 30
0.0
 10
-91.1863
 20
-42.9357
 30
0.0
 10
-90.7153
 20
-42.9769
 30
0.0
 10
-90.3034
 20
-43.3348
 30
0.0
 10
-90.1209
 20
-43.8609
 30
0.0
 10
-90.1209
 20
-43.8609
 30
0.0
 10
-89.9388
 20
-44.3874
 30
0.0
 10
-90.0173
 20
-44.9926
 30
0.0
 10
-90.3236
 20
-45.4268
 30
0.0
 10
-90.3236
 20
-45.4268
 30
0.0
 10
-89.1106
 20
-45.9234
 30
0.0
 10
-87.7736
 20
-45.3572
 30
0.0
 10
-87.0832
 20
-44.0543
 30
0.0
 10
-87.0832
 20
-44.0543
 30
0.0
 10
-86.5701
 20
-42.6254
 30
0.0
 10
-86.9888
 20
-40.9586
 30
0.0
 10
-88.0722
 20
-40.1144
 30
0.0
 10
-88.0722
 20
-40.1144
 30
0.0
 10
-89.1131
 20
-39.5872
 30
0.0
 10
-90.2743
 20
-39.5152
 30
0.0
 10
-91.3546
 20
-39.9111
 30
0.0
 10
-91.3546
 20
-39.9111
 30
0.0
 10
-90.1635
 20
-37.7018
 30
0.0
 10
-88.9426
 20
-35.5157
 30
0.0
 10
-87.6931
 20
-33.3534
 30
0.0
 10
-87.6931
 20
-33.3534
 30
0.0
 10
-85.5119
 20
-35.5349
 30
0.0
 10
-82.8487
 20
-36.8956
 30
0.0
 10
-80.0338
 20
-37.268
 30
0.0
 10
-80.0338
 20
-37.268
 30
0.0
 10
-77.2129
 20
-37.481
 30
0.0
 10
-74.5144
 20
-35.8512
 30
0.0
 10
-72.9633
 20
-32.9976
 30
0.0
 10
-72.9633
 20
-32.9976
 30
0.0
 10
-72.9633
 20
-32.9976
 30
0.0
 10
-72.9633
 20
-43.8762
 30
0.0
 10
-72.9633
 20
-43.8762
 30
0.0
 10
-72.9633
 20
-43.8762
 30
0.0
 10
-72.9795
 20
-44.4814
 30
0.0
 10
-73.2002
 20
-45.0519
 30
0.0
 10
-73.5739
 20
-45.4552
 30
0.0
 10
-73.5739
 20
-45.4552
 30
0.0
 10
-73.9477
 20
-45.8585
 30
0.0
 10
-74.4418
 20
-46.0594
 30
0.0
 10
-74.9412
 20
-46.0112
 30
0.0
 10
-74.9412
 20
-46.0112
 30
0.0
 10
-75.299
 20
-45.9873
 30
0.0
 10
-75.6263
 20
-45.7612
 30
0.0
 10
-75.8252
 20
-45.4012
 30
0.0
 10
-75.8252
 20
-45.4012
 30
0.0
 10
-76.024
 20
-45.0413
 30
0.0
 10
-76.0705
 20
-44.5893
 30
0.0
 10
-75.9511
 20
-44.1811
 30
0.0
 10
-75.9511
 20
-44.1811
 30
0.0
 10
-76.2313
 20
-43.4004
 30
0.0
 10
-76.8153
 20
-42.8395
 30
0.0
 10
-77.5082
 20
-42.6865
 30
0.0
 10
-77.5082
 20
-42.6865
 30
0.0
 10
-78.2012
 20
-42.5334
 30
0.0
 10
-78.9116
 20
-42.8079
 30
0.0
 10
-79.4025
 20
-43.4189
 30
0.0
 10
-79.4025
 20
-43.4189
 30
0.0
 10
-79.6479
 20
-43.8147
 30
0.0
 10
-79.7419
 20
-44.3181
 30
0.0
 10
-79.6617
 20
-44.8031
 30
0.0
 10
-79.6617
 20
-44.8031
 30
0.0
 10
-79.5814
 20
-45.288
 30
0.0
 10
-79.3341
 20
-45.709
 30
0.0
 10
-78.9815
 20
-45.9608
 30
0.0
 10
-78.9815
 20
-45.9608
 30
0.0
 10
-79.7536
 20
-46.1233
 30
0.0
 10
-80.4541
 20
-46.6089
 30
0.0
 10
-80.9596
 20
-47.3332
 30
0.0
 10
-80.9596
 20
-47.3332
 30
0.0
 10
-81.5447
 20
-47.826
 30
0.0
 10
-82.2267
 20
-48.1241
 30
0.0
 10
-82.9373
 20
-48.1973
 30
0.0
 10
-82.9373
 20
-48.1973
 30
0.0
 10
-82.9373
 20
-48.1973
 30
0.0
 10
-82.9373
 20
-49.519
 30
0.0
 10
-82.9373
 20
-49.519
 30
0.0
 10
-82.9373
 20
-49.519
 30
0.0
 10
-82.2267
 20
-49.5921
 30
0.0
 10
-81.5447
 20
-49.8903
 30
0.0
 10
-80.9596
 20
-50.383
 30
0.0
 10
-80.9596
 20
-50.383
 30
0.0
 10
-80.4541
 20
-51.1069
 30
0.0
 10
-79.7536
 20
-51.5929
 30
0.0
 10
-78.9815
 20
-51.7555
 30
0.0
 10
-78.9815
 20
-51.7555
 30
0.0
 10
-79.3341
 20
-52.0072
 30
0.0
 10
-79.5814
 20
-52.4279
 30
0.0
 10
-79.6617
 20
-52.9132
 30
0.0
 10
-79.6617
 20
-52.9132
 30
0.0
 10
-79.7419
 20
-53.3982
 30
0.0
 10
-79.6479
 20
-53.9011
 30
0.0
 10
-79.4025
 20
-54.2973
 30
0.0
 10
-79.4025
 20
-54.2973
 30
0.0
 10
-78.9116
 20
-54.9079
 30
0.0
 10
-78.2012
 20
-55.1828
 30
0.0
 10
-77.5082
 20
-55.0297
 30
0.0
 10
-77.5082
 20
-55.0297
 30
0.0
 10
-76.8153
 20
-54.8763
 30
0.0
 10
-76.2313
 20
-54.3158
 30
0.0
 10
-75.9511
 20
-53.5348
 30
0.0
 10
-75.9511
 20
-53.5348
 30
0.0
 10
-76.0705
 20
-53.1269
 30
0.0
 10
-76.024
 20
-52.6746
 30
0.0
 10
-75.8252
 20
-52.3147
 30
0.0
 10
-75.8252
 20
-52.3147
 30
0.0
 10
-75.6263
 20
-51.9547
 30
0.0
 10
-75.299
 20
-51.7289
 30
0.0
 10
-74.9412
 20
-51.7047
 30
0.0
 10
-74.9412
 20
-51.7047
 30
0.0
 10
-74.4418
 20
-51.6564
 30
0.0
 10
-73.9477
 20
-51.8574
 30
0.0
 10
-73.5739
 20
-52.2607
 30
0.0
 10
-73.5739
 20
-52.2607
 30
0.0
 10
-73.2002
 20
-52.6644
 30
0.0
 10
-72.9795
 20
-53.2348
 30
0.0
 10
-72.9633
 20
-53.8397
 30
0.0
 10
-72.9633
 20
-53.8397
 30
0.0
 10
-72.9633
 20
-53.8397
 30
0.0
 10
-72.9633
 20
-64.7183
 30
0.0
 10
-72.9633
 20
-64.7183
 30
0.0
 10
-72.9633
 20
-64.7183
 30
0.0
 10
-74.5144
 20
-61.865
 30
0.0
 10
-77.2129
 20
-60.2352
 30
0.0
 10
-80.0338
 20
-60.4482
 30
0.0
 10
-80.0338
 20
-60.4482
 30
0.0
 10
-82.8487
 20
-60.8206
 30
0.0
 10
-85.5119
 20
-62.1813
 30
0.0
 10
-87.6931
 20
-64.3625
 30
0.0
 10
-87.6931
 20
-64.3625
 30
0.0
 10
-88.9426
 20
-62.2005
 30
0.0
 10
-90.1635
 20
-60.0144
 30
0.0
 10
-91.3546
 20
-57.8048
 30
0.0
 10
-91.3546
 20
-57.8048
 30
0.0
 10
-90.2743
 20
-58.2006
 30
0.0
 10
-89.1131
 20
-58.129
 30
0.0
 10
-88.0722
 20
-57.6018
 30
0.0
 10
-88.0722
 20
-57.6018
 30
0.0
 10
-86.9888
 20
-56.7576
 30
0.0
 10
-86.5701
 20
-55.0905
 30
0.0
 10
-87.0832
 20
-53.6619
 30
0.0
 10
-87.0832
 20
-53.6619
 30
0.0
 10
-87.7736
 20
-52.359
 30
0.0
 10
-89.1106
 20
-51.7928
 30
0.0
 10
-90.3236
 20
-52.2894
 30
0.0
 10
-90.3236
 20
-52.2894
 30
0.0
 10
-90.0173
 20
-52.7236
 30
0.0
 10
-89.9388
 20
-53.3289
 30
0.0
 10
-90.1209
 20
-53.855
 30
0.0
 10
-90.1209
 20
-53.855
 30
0.0
 10
-90.3034
 20
-54.3815
 30
0.0
 10
-90.7153
 20
-54.739
 30
0.0
 10
-91.1863
 20
-54.7801
 30
0.0
 10
-91.1863
 20
-54.7801
 30
0.0
 10
-92.1026
 20
-54.8263
 30
0.0
 10
-93.0079
 20
-54.5242
 30
0.0
 10
-93.7747
 20
-53.9161
 30
0.0
 10
-93.7747
 20
-53.9161
 30
0.0
 10
-94.9075
 20
-53.0125
 30
0.0
 10
-96.0094
 20
-52.0544
 30
0.0
 10
-97.0783
 20
-51.0441
 30
0.0
 10
-97.0783
 20
-51.0441
 30
0.0
 10
-101.0899
 20
-48.5612
 30
0.0
 10
-105.9692
 20
-49.4877
 30
0.0
 10
-109.1568
 20
-53.3371
 30
0.0
 10
-109.1568
 20
-53.3371
 30
0.0
 10
-109.1568
 20
-53.3371
 30
0.0
 10
-109.1568
 20
-44.3788
 30
0.0
 10
-109.1568
 20
-44.3788
 30
0.0
  0
SPLINE
  5
5F
330
1F
100
AcDbEntity
  8
layer 1
 62
     7
370
     9
100
AcDbSpline
210
0.0
220
0.0
230
1.0
 70
    11
 71
     3
 72
   132
 73
   128
 74
     0
 42
0.0000000001
 43
0.0000000001
 12
1.0
 22
0.0
 32
0.0
 13
1.0
 23
0.0
 33
0.0
 40
0.0
 40
0.0
 40
0.0
 40
0.0
 40
0.0303030303030303
 40
0.0303030303030303
 40
0.0303030303030303
 40
0.0303030303030303
 40
0.0606060606060606
 40
0.0606060606060606
 40
0.0606060606060606
 40
0.0606060606060606
 40
0.0909090909090909
 40
0.0909090909090909
 40
0.0909090909090909
 40
0.0909090909090909
 40
0.1212121212121212
 40
0.1212121212121212
 40
0.1212121212121212
 40
0.1212121212121212
 40
0.1515151515151515
 40
0.1515151515151515
 40
0.1515151515151515
 40
0.1515151515151515
 40
0.1818181818181818
 40
0.1818181818181818
 40
0.1818181818181818
 40
0.1818181818181818
 40
0.2121212121212121
 40
0.2121212121212121
 40
0.2121212121212121
 40
0.2121212121212121
 40
0.2424242424242424
 40
0.2424242424242424
 40
0.2424242424242424
 40
0.2424242424242424
 40
0.2727272727272727
 40
0.2727272727272727
 40
0.2727272727272727
 40
0.2727272727272727
 40
0.303030303030303
 40
0.303030303030303
 40
0.303030303030303
 40
0.303030303030303
 40
0.3333333333333333
 40
0.3333333333333333
 40
0.3333333333333333
 40
0.3333333333333333
 40
0.3636363636363636
 40
0.3636363636363636
 40
0.3636363636363636
 40
0.3636363636363636
 40
0.3939393939393939
 40
0.3939393939393939
 40
0.3939393939393939
 40
0.3939393939393939
 40
0.4242424242424243
 40
0.4242424242424243
 40
0.4242424242424243
 40
0.4242424242424243
 40
0.4545454545454545
 40
0.4545454545454545
 40
0.4545454545454545
 40
0.4545454545454545
 40
0.4848484848484849
 40
0.4848484848484849
 40
0.4848484848484849
 40
0.4848484848484849
 40
0.5151515151515151
 40
0.5151515151515151
 40
0.5151515151515151
 40
0.5151515151515151
 40
0.5454545454545454
 40
0.5454545454545454
 40
0.5454545454545454
 40
0.5454545454545454
 40
0.5757575757575758
 40
0.5757575757575758
 40
0.5757575757575758
 40
0.5757575757575758
 40
0.6060606060606061
 40
0.6060606060606061
 40
0.6060606060606061
 40
0.6060606060606061
 40
0.6363636363636364
 40
0.6363636363636364
 40
0.6363636363636364
 40
0.6363636363636364
 40
0.6666666666666666
 40
0.6666666666666666
 40
0.6666666666666666
 40
0.6666666666666666
 40
0.696969696969697
 40
0.696969696969697
 40
0.696969696969697
 40
0.696969696969697
 40
0.7272727272727273
 40
0.7272727272727273
 40
0.7272727272727273
 40
0.7272727272727273
 40
0.7575757575757576
 40
0.7575757575757576
 40
0.7575757575757576
 40
0.7575757575757576
 40
0.7878787878787878
 40
0.7878787878787878
 40
0.7878787878787878
 40
0.7878787878787878
 40
0.8181818181818182
 40
0.8181818181818182
 40
0.8181818181818182
 40
0.8181818181818182
 40
0.8484848484848485
 40
0.8484848484848485
 40
0.8484848484848485
 40
0.8484848484848485
 40
0.8787878787878788
 40
0.8787878787878788
 40
0.8787878787878788
 40
0.8787878787878788
 40
0.9090909090909091
 40
0.9090909090909091
 40
0.9090909090909091
 40
0.9090909090909091
 40
0.9393939393939394
 40
0.9393939393939394
 40
0.9393939393939394
 40
0.9393939393939394
 40
1.0
 40
1.0
 40
1.0
 40
1.0
 10
-109.1568
 20
-67.4635
 30
0.0
 10
-109.1568
 20
-67.4635
 30
0.0
 10
-109.1568
 20
-74.258
 30
0.0
 10
-109.1568
 20
-74.258
 30
0.0
 10
-109.1568
 20
-74.258
 30
0.0
 10
-108.6211
 20
-73.2729
 30
0.0
 10
-107.9092
 20
-72.4446
 30
0.0
 10
-107.0736
 20
-71.835
 30
0.0
 10
-107.0736
 20
-71.835
 30
0.0
 10
-105.1175
 20
-70.7598
 30
0.0
 10
-102.828
 20
-71.0931
 30
0.0
 10
-101.1396
 20
-72.6995
 30
0.0
 10
-101.1396
 20
-72.6995
 30
0.0
 10
-100.2965
 20
-73.5423
 30
0.0
 10
-100.0516
 20
-74.9794
 30
0.0
 10
-100.5503
 20
-76.1562
 30
0.0
 10
-100.5503
 20
-76.1562
 30
0.0
 10
-101.1574
 20
-77.3433
 30
0.0
 10
-102.3904
 20
-77.818
 30
0.0
 10
-103.4543
 20
-77.2745
 30
0.0
 10
-103.4543
 20
-77.2745
 30
0.0
 10
-103.2753
 20
-76.8535
 30
0.0
 10
-103.324
 20
-76.3437
 30
0.0
 10
-103.5771
 20
-75.9826
 30
0.0
 10
-103.5771
 20
-75.9826
 30
0.0
 10
-103.8302
 20
-75.6212
 30
0.0
 10
-104.2382
 20
-75.4792
 30
0.0
 10
-104.6116
 20
-75.6223
 30
0.0
 10
-104.6116
 20
-75.6223
 30
0.0
 10
-105.1714
 20
-75.9223
 30
0.0
 10
-105.5673
 20
-76.5439
 30
0.0
 10
-105.6638
 20
-77.2745
 30
0.0
 10
-105.6638
 20
-77.2745
 30
0.0
 10
-105.7523
 20
-78.9522
 30
0.0
 10
-104.9616
 20
-80.5172
 30
0.0
 10
-103.6857
 20
-81.1888
 30
0.0
 10
-103.6857
 20
-81.1888
 30
0.0
 10
-101.5305
 20
-81.7149
 30
0.0
 10
-99.3057
 20
-80.8256
 30
0.0
 10
-97.836
 20
-78.8504
 30
0.0
 10
-97.836
 20
-78.8504
 30
0.0
 10
-97.3081
 20
-78.0239
 30
0.0
 10
-97.1799
 20
-76.9227
 30
0.0
 10
-97.4991
 20
-75.9528
 30
0.0
 10
-97.4991
 20
-75.9528
 30
0.0
 10
-97.8913
 20
-75.0405
 30
0.0
 10
-98.7199
 20
-74.53
 30
0.0
 10
-99.5613
 20
-74.6818
 30
0.0
 10
-99.5613
 20
-74.6818
 30
0.0
 10
-99.8357
 20
-73.667
 30
0.0
 10
-99.5748
 20
-72.5519
 30
0.0
 10
-98.901
 20
-71.8606
 30
0.0
 10
-98.901
 20
-71.8606
 30
0.0
 10
-98.2271
 20
-71.1695
 30
0.0
 10
-97.274
 20
-71.0387
 30
0.0
 10
-96.489
 20
-71.5301
 30
0.0
 10
-96.489
 20
-71.5301
 30
0.0
 10
-95.5558
 20
-71.9977
 30
0.0
 10
-94.7729
 20
-72.8181
 30
0.0
 10
-94.2585
 20
-73.8685
 30
0.0
 10
-94.2585
 20
-73.8685
 30
0.0
 10
-92.9805
 20
-71.719
 30
0.0
 10
-91.6859
 20
-69.584
 30
0.0
 10
-90.3751
 20
-67.4635
 30
0.0
 10
-90.3751
 20
-67.4635
 30
0.0
 10
-91.6859
 20
-65.3427
 30
0.0
 10
-92.9805
 20
-63.2077
 30
0.0
 10
-94.2585
 20
-61.0585
 30
0.0
 10
-94.2585
 20
-61.0585
 30
0.0
 10
-94.7729
 20
-62.1086
 30
0.0
 10
-95.5558
 20
-62.9293
 30
0.0
 10
-96.489
 20
-63.3966
 30
0.0
 10
-96.489
 20
-63.3966
 30
0.0
 10
-97.274
 20
-63.8882
 30
0.0
 10
-98.2271
 20
-63.7576
 30
0.0
 10
-98.901
 20
-63.0664
 30
0.0
 10
-98.901
 20
-63.0664
 30
0.0
 10
-99.5748
 20
-62.3748
 30
0.0
 10
-99.8357
 20
-61.2601
 30
0.0
 10
-99.5613
 20
-60.2448
 30
0.0
 10
-99.5613
 20
-60.2448
 30
0.0
 10
-98.7199
 20
-60.3971
 30
0.0
 10
-97.8913
 20
-59.8862
 30
0.0
 10
-97.4991
 20
-58.9742
 30
0.0
 10
-97.4991
 20
-58.9742
 30
0.0
 10
-97.1799
 20
-58.0044
 30
0.0
 10
-97.3081
 20
-56.9028
 30
0.0
 10
-97.836
 20
-56.0763
 30
0.0
 10
-97.836
 20
-56.0763
 30
0.0
 10
-99.3057
 20
-54.1014
 30
0.0
 10
-101.5305
 20
-53.2121
 30
0.0
 10
-103.6857
 20
-53.7382
 30
0.0
 10
-103.6857
 20
-53.7382
 30
0.0
 10
-104.9616
 20
-54.4099
 30
0.0
 10
-105.7523
 20
-55.9747
 30
0.0
 10
-105.6638
 20
-57.6525
 30
0.0
 10
-105.6638
 20
-57.6525
 30
0.0
 10
-105.5673
 20
-58.3828
 30
0.0
 10
-105.1714
 20
-59.0048
 30
0.0
 10
-104.6116
 20
-59.3044
 30
0.0
 10
-104.6116
 20
-59.3044
 30
0.0
 10
-104.2382
 20
-59.4478
 30
0.0
 10
-103.8302
 20
-59.3058
 30
0.0
 10
-103.5771
 20
-58.9444
 30
0.0
 10
-103.5771
 20
-58.9444
 30
0.0
 10
-103.324
 20
-58.583
 30
0.0
 10
-103.2753
 20
-58.0735
 30
0.0
 10
-103.4543
 20
-57.6525
 30
0.0
 10
-103.4543
 20
-57.6525
 30
0.0
 10
-102.3904
 20
-57.1087
 30
0.0
 10
-101.1574
 20
-57.5836
 30
0.0
 10
-100.5503
 20
-58.7708
 30
0.0
 10
-100.5503
 20
-58.7708
 30
0.0
 10
-100.0516
 20
-59.9473
 30
0.0
 10
-100.2965
 20
-61.3843
 30
0.0
 10
-101.1396
 20
-62.2275
 30
0.0
 10
-101.1396
 20
-62.2275
 30
0.0
 10
-102.828
 20
-63.8336
 30
0.0
 10
-105.1175
 20
-64.1669
 30
0.0
 10
-107.0736
 20
-63.0916
 30
0.0
 10
-107.0736
 20
-63.0916
 30
0.0
 10
-107.9092
 20
-62.482
 30
0.0
 10
-108.6211
 20
-61.6542
 30
0.0
 10
-109.1568
 20
-60.6686
 30
0.0
 10
-109.1568
 20
-60.6686
 30
0.0
 10
-109.1568
 20
-60.6686
 30
0.0
 10
-109.1568
 20
-67.4635
 30
0.0
 10
-109.1568
 20
-67.4635
 30
0.0
  0
SPLINE
  5
60
330
1F
100
AcDbEntity
  8
layer 1
 62
     7
370
     9
100
AcDbSpline
210
0.0
220
0.0
230
1.0
 70
    11
 71
     3
 72
    28
 73
    24
 74
     0
 42
0.0000000001
 43
0.0000000001
 12
1.0
 22
0.0
 32
0.0
 13
1.0
 23
0.0
 33
0.0
 40
0.0
 40
0.0
 40
0.0
 40
0.0
 40
0.1428571428571428
 40
0.1428571428571428
 40
0.1428571428571428
 40
0.1428571428571428
 40
0.2857142857142857
 40
0.2857142857142857
 40
0.2857142857142857
 40
0.2857142857142857
 40
0.4285714285714285
 40
0.4285714285714285
 40
0.4285714285714285
 40
0.4285714285714285
 40
0.5714285714285714
 40
0.5714285714285714
 40
0.5714285714285714
 40
0.5714285714285714
 40
0.7142857142857143
 40
0.7142857142857143
 40
0.7142857142857143
 40
0.7142857142857143
 40
1.0
 40
1.0
 40
1.0
 40
1.0
 10
-83.0215
 20
-65.0232
 30
0.0
 10
-81.0079
 20
-63.7906
 30
0.0
 10
-78.6251
 20
-63.8097
 30
0.0
 10
-76.6247
 20
-65.0743
 30
0.0
 10
-76.6247
 20
-65.0743
 30
0.0
 10
-75.9867
 20
-65.6189
 30
0.0
 10
-75.6253
 20
-66.5213
 30
0.0
 10
-75.6676
 20
-67.4635
 30
0.0
 10
-75.6676
 20
-67.4635
 30
0.0
 10
-75.6253
 20
-68.4057
 30
0.0
 10
-75.9867
 20
-69.3081
 30
0.0
 10
-76.6247
 20
-69.8527
 30
0.0
 10
-76.6247
 20
-69.8527
 30
0.0
 10
-78.6251
 20
-71.1172
 30
0.0
 10
-81.0079
 20
-71.1365
 30
0.0
 10
-83.0215
 20
-69.9035
 30
0.0
 10
-83.0215
 20
-69.9035
 30
0.0
 10
-83.8806
 20
-69.0866
 30
0.0
 10
-84.7423
 20
-68.2733
 30
0.0
 10
-85.6056
 20
-67.4635
 30
0.0
 10
-85.6056
 20
-67.4635
 30
0.0
 10
-84.7423
 20
-66.6537
 30
0.0
 10
-83.8806
 20
-65.8404
 30
0.0
 10
-83.0215
 20
-65.0232
 30
0.0
  0
SPLINE
  5
61
330
1F
100
AcDbEntity
  8
layer 1
 62
     7
370
     9
100
AcDbSpline
210
0.0
220
0.0
230
1.0
 70
    11
 71
     3
 72
   188
 73
   184
 74
     0
 42
0.0000000001
 43
0.0000000001
 12
1.0
 22
0.0
 32
0.0
 13
1.0
 23
0.0
 33
0.0
 40
0.0
 40
0.0
 40
0.0
 40
0.0
 40
0.0212765957446809
 40
0.0212765957446809
 40
0.0212765957446809
 40
0.0212765957446809
 40
0.0425531914893617
 40
0.0425531914893617
 40
0.0425531914893617
 40
0.0425531914893617
 40
0.0638297872340425
 40
0.0638297872340425
 40
0.0638297872340425
 40
0.0638297872340425
 40
0.0851063829787234
 40
0.0851063829787234
 40
0.0851063829787234
 40
0.0851063829787234
 40
0.1063829787234043
 40
0.1063829787234043
 40
0.1063829787234043
 40
0.1063829787234043
 40
0.1276595744680851
 40
0.1276595744680851
 40
0.1276595744680851
 40
0.1276595744680851
 40
0.148936170212766
 40
0.148936170212766
 40
0.148936170212766
 40
0.148936170212766
 40
0.1702127659574468
 40
0.1702127659574468
 40
0.1702127659574468
 40
0.1702127659574468
 40
0.1914893617021277
 40
0.1914893617021277
 40
0.1914893617021277
 40
0.1914893617021277
 40
0.2127659574468085
 40
0.2127659574468085
 40
0.2127659574468085
 40
0.2127659574468085
 40
0.2340425531914894
 40
0.2340425531914894
 40
0.2340425531914894
 40
0.2340425531914894
 40
0.2553191489361702
 40
0.2553191489361702
 40
0.2553191489361702
 40
0.2553191489361702
 40
0.2765957446808511
 40
0.2765957446808511
 40
0.2765957446808511
 40
0.2765957446808511
 40
0.2978723404255319
 40
0.2978723404255319
 40
0.2978723404255319
 40
0.2978723404255319
 40
0.3191489361702128
 40
0.3191489361702128
 40
0.3191489361702128
 40
0.3191489361702128
 40
0.3404255319148936
 40
0.3404255319148936
 40
0.3404255319148936
 40
0.3404255319148936
 40
0.3617021276595745
 40
0.3617021276595745
 40
0.3617021276595745
 40
0.3617021276595745
 40
0.3829787234042553
 40
0.3829787234042553
 40
0.3829787234042553
 40
0.3829787234042553
 40
0.4042553191489361
 40
0.4042553191489361
 40
0.4042553191489361
 40
0.4042553191489361
 40
0.425531914893617
 40
0.425531914893617
 40
0.425531914893617
 40
0.425531914893617
 40
0.4468085106382979
 40
0.4468085106382979
 40
0.4468085106382979
 40
0.4468085106382979
 40
0.4680851063829787
 40
0.4680851063829787
 40
0.4680851063829787
 40
0.4680851063829787
 40
0.4893617021276596
 40
0.4893617021276596
 40
0.4893617021276596
 40
0.4893617021276596
 40
0.5106382978723404
 40
0.5106382978723404
 40
0.5106382978723404
 40
0.5106382978723404
 40
0.5319148936170213
 40
0.5319148936170213
 40
0.5319148936170213
 40
0.5319148936170213
 40
0.5531914893617021
 40
0.5531914893617021
 40
0.5531914893617021
 40
0.5531914893617021
 40
0.574468085106383
 40
0.574468085106383
 40
0.574468085106383
 40
0.574468085106383
 40
0.5957446808510638
 40
0.5957446808510638
 40
0.5957446808510638
 40
0.5957446808510638
 40
0.6170212765957447
 40
0.6170212765957447
 40
0.6170212765957447
 40
0.6170212765957447
 40
0.6382978723404256
 40
0.6382978723404256
 40
0.6382978723404256
 40
0.6382978723404256
 40
0.6595744680851063
 40
0.6595744680851063
 40
0.6595744680851063
 40
0.6595744680851063
 40
0.6808510638297872
 40
0.6808510638297872
 40
0.6808510638297872
 40
0.6808510638297872
 40
0.7021276595744681
 40
0.7021276595744681
 40
0.7021276595744681
 40
0.7021276595744681
 40
0.723404255319149
 40
0.723404255319149
 40
0.723404255319149
 40
0.723404255319149
 40
0.7446808510638298
 40
0.7446808510638298
 40
0.7446808510638298
 40
0.7446808510638298
 40
0.7659574468085106
 40
0.7659574468085106
 40
0.7659574468085106
 40
0.7659574468085106
 40
0.7872340425531915
 40
0.7872340425531915
 40
0.7872340425531915
 40
0.7872340425531915
 40
0.8085106382978723
 40
0.8085106382978723
 40
0.8085106382978723
 40
0.8085106382978723
 40
0.8297872340425532
 40
0.8297872340425532
 40
0.8297872340425532
 40
0.8297872340425532
 40
0.851063829787234
 40
0.851063829787234
 40
0.851063829787234
 40
0.851063829787234
 40
0.8723404255319149
 40
0.8723404255319149
 40
0.8723404255319149
 40
0.8723404255319149
 40
0.8936170212765957
 40
0.8936170212765957
 40
0.8936170212765957
 40
0.8936170212765957
 40
0.9148936170212766
 40
0.9148936170212766
 40
0.9148936170212766
 40
0.9148936170212766
 40
0.9361702127659575
 40
0.9361702127659575
 40
0.9361702127659575
 40
0.9361702127659575
 40
0.9574468085106383
 40
0.9574468085106383
 40
0.9574468085106383
 40
0.9574468085106383
 40
1.0
 40
1.0
 40
1.0
 40
1.0
 10
-109.1568
 20
-81.5896
 30
0.0
 10
-105.9692
 20
-85.4393
 30
0.0
 10
-101.0899
 20
-86.3655
 30
0.0
 10
-97.0783
 20
-83.8829
 30
0.0
 10
-97.0783
 20
-83.8829
 30
0.0
 10
-96.0094
 20
-82.8723
 30
0.0
 10
-94.9075
 20
-81.914
 30
0.0
 10
-93.7747
 20
-81.0106
 30
0.0
 10
-93.7747
 20
-81.0106
 30
0.0
 10
-93.0079
 20
-80.4025
 30
0.0
 10
-92.1026
 20
-80.1004
 30
0.0
 10
-91.1863
 20
-80.1465
 30
0.0
 10
-91.1863
 20
-80.1465
 30
0.0
 10
-90.7153
 20
-80.1877
 30
0.0
 10
-90.3034
 20
-80.5456
 30
0.0
 10
-90.1209
 20
-81.0717
 30
0.0
 10
-90.1209
 20
-81.0717
 30
0.0
 10
-89.9388
 20
-81.5982
 30
0.0
 10
-90.0173
 20
-82.2034
 30
0.0
 10
-90.3236
 20
-82.6376
 30
0.0
 10
-90.3236
 20
-82.6376
 30
0.0
 10
-89.1106
 20
-83.1342
 30
0.0
 10
-87.7736
 20
-82.5681
 30
0.0
 10
-87.0832
 20
-81.2648
 30
0.0
 10
-87.0832
 20
-81.2648
 30
0.0
 10
-86.5701
 20
-79.8362
 30
0.0
 10
-86.9888
 20
-78.1691
 30
0.0
 10
-88.0722
 20
-77.3252
 30
0.0
 10
-88.0722
 20
-77.3252
 30
0.0
 10
-89.1131
 20
-76.7981
 30
0.0
 10
-90.2743
 20
-76.7264
 30
0.0
 10
-91.3546
 20
-77.1219
 30
0.0
 10
-91.3546
 20
-77.1219
 30
0.0
 10
-90.1635
 20
-74.9127
 30
0.0
 10
-88.9426
 20
-72.7264
 30
0.0
 10
-87.6931
 20
-70.5645
 30
0.0
 10
-87.6931
 20
-70.5645
 30
0.0
 10
-85.5119
 20
-72.7453
 30
0.0
 10
-82.8487
 20
-74.1064
 30
0.0
 10
-80.0338
 20
-74.4785
 30
0.0
 10
-80.0338
 20
-74.4785
 30
0.0
 10
-77.2129
 20
-74.6918
 30
0.0
 10
-74.5144
 20
-73.062
 30
0.0
 10
-72.9633
 20
-70.2084
 30
0.0
 10
-72.9633
 20
-70.2084
 30
0.0
 10
-72.9633
 20
-70.2084
 30
0.0
 10
-72.9633
 20
-81.087
 30
0.0
 10
-72.9633
 20
-81.087
 30
0.0
 10
-72.9633
 20
-81.087
 30
0.0
 10
-72.9795
 20
-81.6923
 30
0.0
 10
-73.2002
 20
-82.2627
 30
0.0
 10
-73.5739
 20
-82.666
 30
0.0
 10
-73.5739
 20
-82.666
 30
0.0
 10
-73.9477
 20
-83.0693
 30
0.0
 10
-74.4418
 20
-83.2702
 30
0.0
 10
-74.9412
 20
-83.222
 30
0.0
 10
-74.9412
 20
-83.222
 30
0.0
 10
-75.299
 20
-83.1981
 30
0.0
 10
-75.6263
 20
-82.972
 30
0.0
 10
-75.8252
 20
-82.612
 30
0.0
 10
-75.8252
 20
-82.612
 30
0.0
 10
-76.024
 20
-82.2521
 30
0.0
 10
-76.0705
 20
-81.8001
 30
0.0
 10
-75.9511
 20
-81.3923
 30
0.0
 10
-75.9511
 20
-81.3923
 30
0.0
 10
-76.2313
 20
-80.6112
 30
0.0
 10
-76.8153
 20
-80.0503
 30
0.0
 10
-77.5082
 20
-79.8973
 30
0.0
 10
-77.5082
 20
-79.8973
 30
0.0
 10
-78.2012
 20
-79.7439
 30
0.0
 10
-78.9116
 20
-80.0187
 30
0.0
 10
-79.4025
 20
-80.6297
 30
0.0
 10
-79.4025
 20
-80.6297
 30
0.0
 10
-79.6479
 20
-81.0255
 30
0.0
 10
-79.7419
 20
-81.5289
 30
0.0
 10
-79.6617
 20
-82.0139
 30
0.0
 10
-79.6617
 20
-82.0139
 30
0.0
 10
-79.5814
 20
-82.4988
 30
0.0
 10
-79.3341
 20
-82.9199
 30
0.0
 10
-78.9815
 20
-83.1711
 30
0.0
 10
-78.9815
 20
-83.1711
 30
0.0
 10
-79.7536
 20
-83.3341
 30
0.0
 10
-80.4541
 20
-83.8197
 30
0.0
 10
-80.9596
 20
-84.5437
 30
0.0
 10
-80.9596
 20
-84.5437
 30
0.0
 10
-81.5447
 20
-85.0368
 30
0.0
 10
-82.2267
 20
-85.3346
 30
0.0
 10
-82.9373
 20
-85.4081
 30
0.0
 10
-82.9373
 20
-85.4081
 30
0.0
 10
-82.9373
 20
-85.4081
 30
0.0
 10
-82.9373
 20
-86.7298
 30
0.0
 10
-82.9373
 20
-86.7298
 30
0.0
 10
-82.9373
 20
-86.7298
 30
0.0
 10
-82.2267
 20
-86.8028
 30
0.0
 10
-81.5447
 20
-87.1007
 30
0.0
 10
-80.9596
 20
-87.5938
 30
0.0
 10
-80.9596
 20
-87.5938
 30
0.0
 10
-80.4541
 20
-88.3177
 30
0.0
 10
-79.7536
 20
-88.8037
 30
0.0
 10
-78.9815
 20
-88.9663
 30
0.0
 10
-78.9815
 20
-88.9663
 30
0.0
 10
-79.3341
 20
-89.218
 30
0.0
 10
-79.5814
 20
-89.6387
 30
0.0
 10
-79.6617
 20
-90.1237
 30
0.0
 10
-79.6617
 20
-90.1237
 30
0.0
 10
-79.7419
 20
-90.6087
 30
0.0
 10
-79.6479
 20
-91.1121
 30
0.0
 10
-79.4025
 20
-91.5081
 30
0.0
 10
-79.4025
 20
-91.5081
 30
0.0
 10
-78.9116
 20
-92.1188
 30
0.0
 10
-78.2012
 20
-92.3936
 30
0.0
 10
-77.5082
 20
-92.2405
 30
0.0
 10
-77.5082
 20
-92.2405
 30
0.0
 10
-76.8153
 20
-92.0873
 30
0.0
 10
-76.2313
 20
-91.5266
 30
0.0
 10
-75.9511
 20
-90.7456
 30
0.0
 10
-75.9511
 20
-90.7456
 30
0.0
 10
-76.0705
 20
-90.3375
 30
0.0
 10
-76.024
 20
-89.8855
 30
0.0
 10
-75.8252
 20
-89.5254
 30
0.0
 10
-75.8252
 20
-89.5254
 30
0.0
 10
-75.6263
 20
-89.1655
 30
0.0
 10
-75.299
 20
-88.9397
 30
0.0
 10
-74.9412
 20
-88.9155
 30
0.0
 10
-74.9412
 20
-88.9155
 30
0.0
 10
-74.4418
 20
-88.8672
 30
0.0
 10
-73.9477
 20
-89.0682
 30
0.0
 10
-73.5739
 20
-89.4715
 30
0.0
 10
-73.5739
 20
-89.4715
 30
0.0
 10
-73.2002
 20
-89.8749
 30
0.0
 10
-72.9795
 20
-90.4456
 30
0.0
 10
-72.9633
 20
-91.0506
 30
0.0
 10
-72.9633
 20
-91.0506
 30
0.0
 10
-72.9633
 20
-91.0506
 30
0.0
 10
-72.9633
 20
-101.9291
 30
0.0
 10
-72.9633
 20
-101.9291
 30
0.0
 10
-72.9633
 20
-101.9291
 30
0.0
 10
-74.5144
 20
-99.0756
 30
0.0
 10
-77.2129
 20
-97.4458
 30
0.0
 10
-80.0338
 20
-97.659
 30
0.0
 10
-80.0338
 20
-97.659
 30
0.0
 10
-82.8487
 20
-98.0313
 30
0.0
 10
-85.5119
 20
-99.3922
 30
0.0
 10
-87.6931
 20
-101.5733
 30
0.0
 10
-87.6931
 20
-101.5733
 30
0.0
 10
-88.9426
 20
-99.4112
 30
0.0
 10
-90.1635
 20
-97.2251
 30
0.0
 10
-91.3546
 20
-95.0156
 30
0.0
 10
-91.3546
 20
-95.0156
 30
0.0
 10
-90.2743
 20
-95.4114
 30
0.0
 10
-89.1131
 20
-95.3396
 30
0.0
 10
-88.0722
 20
-94.8124
 30
0.0
 10
-88.0722
 20
-94.8124
 30
0.0
 10
-86.9888
 20
-93.9683
 30
0.0
 10
-86.5701
 20
-92.3014
 30
0.0
 10
-87.0832
 20
-90.8727
 30
0.0
 10
-87.0832
 20
-90.8727
 30
0.0
 10
-87.7736
 20
-89.5698
 30
0.0
 10
-89.1106
 20
-89.0033
 30
0.0
 10
-90.3236
 20
-89.5002
 30
0.0
 10
-90.3236
 20
-89.5002
 30
0.0
 10
-90.0173
 20
-89.9341
 30
0.0
 10
-89.9388
 20
-90.5396
 30
0.0
 10
-90.1209
 20
-91.0659
 30
0.0
 10
-90.1209
 20
-91.0659
 30
0.0
 10
-90.3034
 20
-91.5921
 30
0.0
 10
-90.7153
 20
-91.9498
 30
0.0
 10
-91.1863
 20
-91.991
 30
0.0
 10
-91.1863
 20
-91.991
 30
0.0
 10
-92.1026
 20
-92.0372
 30
0.0
 10
-93.0079
 20
-91.7348
 30
0.0
 10
-93.7747
 20
-91.1268
 30
0.0
 10
-93.7747
 20
-91.1268
 30
0.0
 10
-94.9075
 20
-90.2234
 30
0.0
 10
-96.0094
 20
-89.2652
 30
0.0
 10
-97.0783
 20
-88.2545
 30
0.0
 10
-97.0783
 20
-88.2545
 30
0.0
 10
-101.0899
 20
-85.772
 30
0.0
 10
-105.9692
 20
-86.6985
 30
0.0
 10
-109.1568
 20
-90.548
 30
0.0
 10
-109.1568
 20
-90.548
 30
0.0
 10
-109.1568
 20
-90.548
 30
0.0
 10
-109.1568
 20
-81.5896
 30
0.0
 10
-109.1568
 20
-81.5896
 30
0.0
  0
SPLINE
  5
62
330
1F
100
AcDbEntity
  8
layer 1
 62
     7
370
     9
100
AcDbSpline
210
0.0
220
0.0
230
1.0
 70
    11
 71
     3
 72
    20
 73
    16
 74
     0
 42
0.0000000001
 43
0.0000000001
 12
1.0
 22
0.0
 32
0.0
 13
1.0
 23
0.0
 33
0.0
 40
0.0
 40
0.0
 40
0.0
 40
0.0
 40
0.2
 40
0.2
 40
0.2
 40
0.2
 40
0.4
 40
0.4
 40
0.4
 40
0.4
 40
0.6
 40
0.6
 40
0.6
 40
0.6
 40
1.0
 40
1.0
 40
1.0
 40
1.0
 10
-59.5723
 20
6.9581
 30
0.0
 10
-58.6305
 20
5.881
 30
0.0
 10
-57.6198
 20
4.8951
 30
0.0
 10
-56.5499
 20
4.0098
 30
0.0
 10
-56.5499
 20
4.0098
 30
0.0
 10
-56.5542
 20
4.9927
 30
0.0
 10
-56.5429
 20
5.9758
 30
0.0
 10
-56.5158
 20
6.9581
 30
0.0
 10
-56.5158
 20
6.9581
 30
0.0
 10
-56.5429
 20
7.9404
 30
0.0
 10
-56.5542
 20
8.9234
 30
0.0
 10
-56.5499
 20
9.9064
 30
0.0
 10
-56.5499
 20
9.9064
 30
0.0
 10
-57.6198
 20
9.021
 30
0.0
 10
-58.6305
 20
8.0351
 30
0.0
 10
-59.5723
 20
6.9581
 30
0.0
  0
SPLINE
  5
63
330
1F
100
AcDbEntity
  8
layer 1
 62
     7
370
     9
100
AcDbSpline
210
0.0
220
0.0
230
1.0
 70
    11
 71
     3
 72
    40
 73
    36
 74
     0
 42
0.0000000001
 43
0.0000000001
 12
1.0
 22
0.0
 32
0.0
 13
1.0
 23
0.0
 33
0.0
 40
0.0
 40
0.0
 40
0.0
 40
0.0
 40
0.1
 40
0.1
 40
0.1
 40
0.1
 40
0.2
 40
0.2
 40
0.2
 40
0.2
 40
0.3
 40
0.3
 40
0.3
 40
0.3
 40
0.4
 40
0.4
 40
0.4
 40
0.4
 40
0.5
 40
0.5
 40
0.5
 40
0.5
 40
0.6
 40
0.6
 40
0.6
 40
0.6
 40
0.7
 40
0.7
 40
0.7
 40
0.7
 40
0.8
 40
0.8
 40
0.8
 40
0.8
 40
1.0
 40
1.0
 40
1.0
 40
1.0
 10
-60.2535
 20
-20.9902
 30
0.0
 10
-60.0091
 20
-19.475
 30
0.0
 10
-58.9775
 20
-18.3277
 30
0.0
 10
-57.7073
 20
-18.1584
 30
0.0
 10
-57.7073
 20
-18.1584
 30
0.0
 10
-57.7615
 20
-17.033
 30
0.0
 10
-57.1964
 20
-15.9985
 30
0.0
 10
-56.3184
 20
-15.6165
 30
0.0
 10
-56.3184
 20
-15.6165
 30
0.0
 10
-56.4163
 20
-10.4323
 30
0.0
 10
-56.4583
 20
-5.2467
 30
0.0
 10
-56.4446
 20
-0.0611
 30
0.0
 10
-56.4446
 20
-0.0611
 30
0.0
 10
-58.4185
 20
0.7053
 30
0.0
 10
-60.18
 20
2.1123
 30
0.0
 10
-61.537
 20
4.0054
 30
0.0
 10
-61.537
 20
4.0054
 30
0.0
 10
-62.7279
 20
-1.1052
 30
0.0
 10
-64.6277
 20
-5.9354
 30
0.0
 10
-67.1555
 20
-10.279
 30
0.0
 10
-67.1555
 20
-10.279
 30
0.0
 10
-67.1555
 20
-10.279
 30
0.0
 10
-67.1555
 20
-33.3026
 30
0.0
 10
-67.1555
 20
-33.3026
 30
0.0
 10
-67.1555
 20
-33.3026
 30
0.0
 10
-66.8002
 20
-32.5833
 30
0.0
 10
-66.2716
 20
-32.0122
 30
0.0
 10
-65.6403
 20
-31.6653
 30
0.0
 10
-65.6403
 20
-31.6653
 30
0.0
 10
-66.0301
 20
-29.2314
 30
0.0
 10
-65.0331
 20
-26.7811
 30
0.0
 10
-63.1994
 20
-25.6667
 30
0.0
 10
-63.1994
 20
-25.6667
 30
0.0
 10
-63.2979
 20
-23.4469
 30
0.0
 10
-62.0509
 20
-21.4677
 30
0.0
 10
-60.2535
 20
-20.9902
 30
0.0
  0
SPLINE
  5
64
330
1F
100
AcDbEntity
  8
layer 1
 62
     7
370
     9
100
AcDbSpline
210
0.0
220
0.0
230
1.0
 70
    11
 71
     3
 72
    48
 73
    44
 74
     0
 42
0.0000000001
 43
0.0000000001
 12
1.0
 22
0.0
 32
0.0
 13
1.0
 23
0.0
 33
0.0
 40
0.0
 40
0.0
 40
0.0
 40
0.0
 40
0.0833333333333333
 40
0.0833333333333333
 40
0.0833333333333333
 40
0.0833333333333333
 40
0.1666666666666667
 40
0.1666666666666667
 40
0.1666666666666667
 40
0.1666666666666667
 40
0.25
 40
0.25
 40
0.25
 40
0.25
 40
0.3333333333333333
 40
0.3333333333333333
 40
0.3333333333333333
 40
0.3333333333333333
 40
0.4166666666666667
 40
0.4166666666666667
 40
0.4166666666666667
 40
0.4166666666666667
 40
0.5
 40
0.5
 40
0.5
 40
0.5
 40
0.5833333333333334
 40
0.5833333333333334
 40
0.5833333333333334
 40
0.5833333333333334
 40
0.6666666666666666
 40
0.6666666666666666
 40
0.6666666666666666
 40
0.6666666666666666
 40
0.75
 40
0.75
 40
0.75
 40
0.75
 40
0.8333333333333334
 40
0.8333333333333334
 40
0.8333333333333334
 40
0.8333333333333334
 40
1.0
 40
1.0
 40
1.0
 40
1.0
 10
-56.3921
 20
-32.1084
 30
0.0
 10
-56.3921
 20
-32.1084
 30
0.0
 10
-56.4446
 20
-22.1447
 30
0.0
 10
-56.4446
 20
-22.1447
 30
0.0
 10
-56.4446
 20
-22.1447
 30
0.0
 10
-56.7708
 20
-21.7429
 30
0.0
 10
-57.1122
 20
-21.3598
 30
0.0
 10
-57.4678
 20
-20.9966
 30
0.0
 10
-57.4678
 20
-20.9966
 30
0.0
 10
-62.1958
 20
-26.9068
 30
0.0
 10
-64.7836
 20
-34.8458
 30
0.0
 10
-64.6604
 20
-43.0628
 30
0.0
 10
-64.6604
 20
-43.0628
 30
0.0
 10
-64.4652
 20
-51.2276
 30
0.0
 10
-61.9081
 20
-59.0516
 30
0.0
 10
-57.4336
 20
-65.1758
 30
0.0
 10
-57.4336
 20
-65.1758
 30
0.0
 10
-57.0525
 20
-64.7914
 30
0.0
 10
-56.6872
 20
-64.3842
 30
0.0
 10
-56.3396
 20
-63.9557
 30
0.0
 10
-56.3396
 20
-63.9557
 30
0.0
 10
-56.3396
 20
-63.9557
 30
0.0
 10
-56.3396
 20
-54.0049
 30
0.0
 10
-56.3396
 20
-54.0049
 30
0.0
 10
-56.3396
 20
-54.0049
 30
0.0
 10
-57.2719
 20
-53.3325
 30
0.0
 10
-57.8432
 20
-52.1172
 30
0.0
 10
-57.8432
 20
-50.8055
 30
0.0
 10
-57.8432
 20
-50.8055
 30
0.0
 10
-57.8432
 20
-49.4937
 30
0.0
 10
-57.2719
 20
-48.2786
 30
0.0
 10
-56.3396
 20
-47.6062
 30
0.0
 10
-56.3396
 20
-47.6062
 30
0.0
 10
-56.3396
 20
-47.6062
 30
0.0
 10
-56.3396
 20
-38.5194
 30
0.0
 10
-56.3396
 20
-38.5194
 30
0.0
 10
-56.3396
 20
-38.5194
 30
0.0
 10
-57.2793
 20
-37.857
 30
0.0
 10
-57.8616
 20
-36.6464
 30
0.0
 10
-57.8724
 20
-35.3318
 30
0.0
 10
-57.8724
 20
-35.3318
 30
0.0
 10
-57.8833
 20
-34.0175
 30
0.0
 10
-57.3209
 20
-32.7932
 30
0.0
 10
-56.3921
 20
-32.1084
 30
0.0
  0
SPLINE
  5
65
330
1F
100
AcDbEntity
  8
layer 1
 62
     7
370
     9
100
AcDbSpline
210
0.0
220
0.0
230
1.0
 70
    11
 71
     3
 72
    48
 73
    44
 74
     0
 42
0.0000000001
 43
0.0000000001
 12
1.0
 22
0.0
 32
0.0
 13
1.0
 23
0.0
 33
0.0
 40
0.0
 40
0.0
 40
0.0
 40
0.0
 40
0.0833333333333333
 40
0.0833333333333333
 40
0.0833333333333333
 40
0.0833333333333333
 40
0.1666666666666667
 40
0.1666666666666667
 40
0.1666666666666667
 40
0.1666666666666667
 40
0.25
 40
0.25
 40
0.25
 40
0.25
 40
0.3333333333333333
 40
0.3333333333333333
 40
0.3333333333333333
 40
0.3333333333333333
 40
0.4166666666666667
 40
0.4166666666666667
 40
0.4166666666666667
 40
0.4166666666666667
 40
0.5
 40
0.5
 40
0.5
 40
0.5
 40
0.5833333333333334
 40
0.5833333333333334
 40
0.5833333333333334
 40
0.5833333333333334
 40
0.6666666666666666
 40
0.6666666666666666
 40
0.6666666666666666
 40
0.6666666666666666
 40
0.75
 40
0.75
 40
0.75
 40
0.75
 40
0.8333333333333334
 40
0.8333333333333334
 40
0.8333333333333334
 40
0.8333333333333334
 40
1.0
 40
1.0
 40
1.0
 40
1.0
 10
-56.3396
 20
-101.5858
 30
0.0
 10
-57.2719
 20
-100.9135
 30
0.0
 10
-57.8432
 20
-99.6982
 30
0.0
 10
-57.8432
 20
-98.3865
 30
0.0
 10
-57.8432
 20
-98.3865
 30
0.0
 10
-57.8432
 20
-97.0747
 30
0.0
 10
-57.2719
 20
-95.8596
 30
0.0
 10
-56.3396
 20
-95.1872
 30
0.0
 10
-56.3396
 20
-95.1872
 30
0.0
 10
-56.3396
 20
-95.1872
 30
0.0
 10
-56.3396
 20
-86.1006
 30
0.0
 10
-56.3396
 20
-86.1006
 30
0.0
 10
-56.3396
 20
-86.1006
 30
0.0
 10
-57.2719
 20
-85.4283
 30
0.0
 10
-57.8432
 20
-84.2131
 30
0.0
 10
-57.8432
 20
-82.9013
 30
0.0
 10
-57.8432
 20
-82.9013
 30
0.0
 10
-57.8432
 20
-81.5896
 30
0.0
 10
-57.2719
 20
-80.3744
 30
0.0
 10
-56.3396
 20
-79.7021
 30
0.0
 10
-56.3396
 20
-79.7021
 30
0.0
 10
-56.3396
 20
-79.7021
 30
0.0
 10
-56.3396
 20
-69.7509
 30
0.0
 10
-56.3396
 20
-69.7509
 30
0.0
 10
-56.3396
 20
-69.7509
 30
0.0
 10
-56.6872
 20
-69.3227
 30
0.0
 10
-57.0525
 20
-68.9155
 30
0.0
 10
-57.4336
 20
-68.531
 30
0.0
 10
-57.4336
 20
-68.531
 30
0.0
 10
-61.9081
 20
-74.6553
 30
0.0
 10
-64.4652
 20
-82.4793
 30
0.0
 10
-64.6604
 20
-90.6439
 30
0.0
 10
-64.6604
 20
-90.6439
 30
0.0
 10
-64.5441
 20
-95.5054
 30
0.0
 10
-63.5889
 20
-100.2841
 30
0.0
 10
-61.856
 20
-104.6742
 30
0.0
 10
-61.856
 20
-104.6742
 30
0.0
 10
-61.856
 20
-104.6742
 30
0.0
 10
-56.3396
 20
-104.6742
 30
0.0
 10
-56.3396
 20
-104.6742
 30
0.0
 10
-56.3396
 20
-104.6742
 30
0.0
 10
-56.3396
 20
-104.6742
 30
0.0
 10
-56.3396
 20
-101.5858
 30
0.0
 10
-56.3396
 20
-101.5858
 30
0.0
  0
SPLINE
  5
66
330
1F
100
AcDbEntity
  8
layer 1
 62
     7
370
     9
100
AcDbSpline
210
0.0
220
0.0
230
1.0
 70
    11
 71
     3
 72
    44
 73
    40
 74
     0
 42
0.0000000001
 43
0.0000000001
 12
1.0
 22
0.0
 32
0.0
 13
1.0
 23
0.0
 33
0.0
 40
0.0
 40
0.0
 40
0.0
 40
0.0
 40
0.0909090909090909
 40
0.0909090909090909
 40
0.0909090909090909
 40
0.0909090909090909
 40
0.1818181818181818
 40
0.1818181818181818
 40
0.1818181818181818
 40
0.1818181818181818
 40
0.2727272727272727
 40
0.2727272727272727
 40
0.2727272727272727
 40
0.2727272727272727
 40
0.3636363636363636
 40
0.3636363636363636
 40
0.3636363636363636
 40
0.3636363636363636
 40
0.4545454545454545
 40
0.4545454545454545
 40
0.4545454545454545
 40
0.4545454545454545
 40
0.5454545454545454
 40
0.5454545454545454
 40
0.5454545454545454
 40
0.5454545454545454
 40
0.6363636363636364
 40
0.6363636363636364
 40
0.6363636363636364
 40
0.6363636363636364
 40
0.7272727272727273
 40
0.7272727272727273
 40
0.7272727272727273
 40
0.7272727272727273
 40
0.8181818181818182
 40
0.8181818181818182
 40
0.8181818181818182
 40
0.8181818181818182
 40
1.0
 40
1.0
 40
1.0
 40
1.0
 10
-67.2396
 20
-66.8533
 30
0.0
 10
-67.2396
 20
-66.8533
 30
0.0
 10
-67.2396
 20
-82.4703
 30
0.0
 10
-67.2396
 20
-82.4703
 30
0.0
 10
-67.2396
 20
-82.4703
 30
0.0
 10
-66.8844
 20
-81.7508
 30
0.0
 10
-66.3559
 20
-81.1795
 30
0.0
 10
-65.7245
 20
-80.8328
 30
0.0
 10
-65.7245
 20
-80.8328
 30
0.0
 10
-66.1143
 20
-78.3988
 30
0.0
 10
-65.1172
 20
-75.9486
 30
0.0
 10
-63.2835
 20
-74.8345
 30
0.0
 10
-63.2835
 20
-74.8345
 30
0.0
 10
-63.382
 20
-72.6146
 30
0.0
 10
-62.1352
 20
-70.6351
 30
0.0
 10
-60.3377
 20
-70.1576
 30
0.0
 10
-60.3377
 20
-70.1576
 30
0.0
 10
-60.2216
 20
-68.739
 30
0.0
 10
-59.511
 20
-67.4916
 30
0.0
 10
-58.4556
 20
-66.8533
 30
0.0
 10
-58.4556
 20
-66.8533
 30
0.0
 10
-59.511
 20
-66.2153
 30
0.0
 10
-60.2216
 20
-64.9678
 30
0.0
 10
-60.3377
 20
-63.5492
 30
0.0
 10
-60.3377
 20
-63.5492
 30
0.0
 10
-62.1352
 20
-63.0717
 30
0.0
 10
-63.382
 20
-61.0922
 30
0.0
 10
-63.2835
 20
-58.8723
 30
0.0
 10
-63.2835
 20
-58.8723
 30
0.0
 10
-65.1172
 20
-57.7583
 30
0.0
 10
-66.1143
 20
-55.3081
 30
0.0
 10
-65.7245
 20
-52.8742
 30
0.0
 10
-65.7245
 20
-52.8742
 30
0.0
 10
-66.3559
 20
-52.5273
 30
0.0
 10
-66.8844
 20
-51.9561
 30
0.0
 10
-67.2396
 20
-51.2365
 30
0.0
 10
-67.2396
 20
-51.2365
 30
0.0
 10
-67.2396
 20
-51.2365
 30
0.0
 10
-67.2396
 20
-66.8533
 30
0.0
 10
-67.2396
 20
-66.8533
 30
0.0
  0
SPLINE
  5
67
330
1F
100
AcDbEntity
  8
layer 1
 62
     7
370
     9
100
AcDbSpline
210
0.0
220
0.0
230
1.0
 70
    11
 71
     3
 72
    20
 73
    16
 74
     0
 42
0.0000000001
 43
0.0000000001
 12
1.0
 22
0.0
 32
0.0
 13
1.0
 23
0.0
 33
0.0
 40
0.0
 40
0.0
 40
0.0
 40
0.0
 40
0.2
 40
0.2
 40
0.2
 40
0.2
 40
0.4
 40
0.4
 40
0.4
 40
0.4
 40
0.6
 40
0.6
 40
0.6
 40
0.6
 40
1.0
 40
1.0
 40
1.0
 40
1.0
 10
-67.2396
 20
-99.0171
 30
0.0
 10
-66.8852
 20
-100.1528
 30
0.0
 10
-66.2634
 20
-101.1386
 30
0.0
 10
-65.451
 20
-101.8529
 30
0.0
 10
-65.451
 20
-101.8529
 30
0.0
 10
-65.8766
 20
-102.7191
 30
0.0
 10
-65.8604
 20
-103.8016
 30
0.0
 10
-65.4088
 20
-104.6488
 30
0.0
 10
-65.4088
 20
-104.6488
 30
0.0
 10
-65.4088
 20
-104.6488
 30
0.0
 10
-67.2396
 20
-104.6488
 30
0.0
 10
-67.2396
 20
-104.6488
 30
0.0
 10
-67.2396
 20
-104.6488
 30
0.0
 10
-67.2396
 20
-104.6488
 30
0.0
 10
-67.2396
 20
-99.0171
 30
0.0
 10
-67.2396
 20
-99.0171
 30
0.0
  0
SPLINE
  5
68
330
1F
100
AcDbEntity
  8
layer 1
 62
     7
370
     9
100
AcDbSpline
210
0.0
220
0.0
230
1.0
 70
    11
 71
     3
 72
    20
 73
    16
 74
     0
 42
0.0000000001
 43
0.0000000001
 12
1.0
 22
0.0
 32
0.0
 13
1.0
 23
0.0
 33
0.0
 40
0.0
 40
0.0
 40
0.0
 40
0.0
 40
0.2
 40
0.2
 40
0.2
 40
0.2
 40
0.4
 40
0.4
 40
0.4
 40
0.4
 40
0.6
 40
0.6
 40
0.6
 40
0.6
 40
1.0
 40
1.0
 40
1.0
 40
1.0
 10
-75.6676
 20
-104.6742
 30
0.0
 10
-75.6253
 20
-103.732
 30
0.0
 10
-75.9867
 20
-102.8297
 30
0.0
 10
-76.6247
 20
-102.285
 30
0.0
 10
-76.6247
 20
-102.285
 30
0.0
 10
-78.6251
 20
-101.0204
 30
0.0
 10
-81.0079
 20
-101.0014
 30
0.0
 10
-83.0215
 20
-102.2342
 30
0.0
 10
-83.0215
 20
-102.2342
 30
0.0
 10
-83.8806
 20
-103.051
 30
0.0
 10
-84.7423
 20
-103.8643
 30
0.0
 10
-85.6056
 20
-104.6742
 30
0.0
 10
-85.6056
 20
-104.6742
 30
0.0
 10
-85.6056
 20
-104.6742
 30
0.0
 10
-75.6676
 20
-104.6742
 30
0.0
 10
-75.6676
 20
-104.6742
 30
0.0
  0
SPLINE
  5
69
330
1F
100
AcDbEntity
  8
layer 1
 62
     7
370
     9
100
AcDbSpline
210
0.0
220
0.0
230
1.0
 70
    11
 71
     3
 72
    72
 73
    68
 74
     0
 42
0.0000000001
 43
0.0000000001
 12
1.0
 22
0.0
 32
0.0
 13
1.0
 23
0.0
 33
0.0
 40
0.0
 40
0.0
 40
0.0
 40
0.0
 40
0.0555555555555556
 40
0.0555555555555556
 40
0.0555555555555556
 40
0.0555555555555556
 40
0.1111111111111111
 40
0.1111111111111111
 40
0.1111111111111111
 40
0.1111111111111111
 40
0.1666666666666667
 40
0.1666666666666667
 40
0.1666666666666667
 40
0.1666666666666667
 40
0.2222222222222222
 40
0.2222222222222222
 40
0.2222222222222222
 40
0.2222222222222222
 40
0.2777777777777778
 40
0.2777777777777778
 40
0.2777777777777778
 40
0.2777777777777778
 40
0.3333333333333333
 40
0.3333333333333333
 40
0.3333333333333333
 40
0.3333333333333333
 40
0.3888888888888889
 40
0.3888888888888889
 40
0.3888888888888889
 40
0.3888888888888889
 40
0.4444444444444444
 40
0.4444444444444444
 40
0.4444444444444444
 40
0.4444444444444444
 40
0.5
 40
0.5
 40
0.5
 40
0.5
 40
0.5555555555555556
 40
0.5555555555555556
 40
0.5555555555555556
 40
0.5555555555555556
 40
0.6111111111111112
 40
0.6111111111111112
 40
0.6111111111111112
 40
0.6111111111111112
 40
0.6666666666666666
 40
0.6666666666666666
 40
0.6666666666666666
 40
0.6666666666666666
 40
0.7222222222222222
 40
0.7222222222222222
 40
0.7222222222222222
 40
0.7222222222222222
 40
0.7777777777777778
 40
0.7777777777777778
 40
0.7777777777777778
 40
0.7777777777777778
 40
0.8333333333333334
 40
0.8333333333333334
 40
0.8333333333333334
 40
0.8333333333333334
 40
0.8888888888888888
 40
0.8888888888888888
 40
0.8888888888888888
 40
0.8888888888888888
 40
1.0
 40
1.0
 40
1.0
 40
1.0
 10
-109.1568
 20
-104.6742
 30
0.0
 10
-109.1568
 20
-104.6742
 30
0.0
 10
-109.1568
 20
-97.8794
 30
0.0
 10
-109.1568
 20
-97.8794
 30
0.0
 10
-109.1568
 20
-97.8794
 30
0.0
 10
-108.6211
 20
-98.865
 30
0.0
 10
-107.9092
 20
-99.6928
 30
0.0
 10
-107.0736
 20
-100.3024
 30
0.0
 10
-107.0736
 20
-100.3024
 30
0.0
 10
-105.1175
 20
-101.3778
 30
0.0
 10
-102.828
 20
-101.0444
 30
0.0
 10
-101.1396
 20
-99.4382
 30
0.0
 10
-101.1396
 20
-99.4382
 30
0.0
 10
-100.2965
 20
-98.5954
 30
0.0
 10
-100.0516
 20
-97.1582
 30
0.0
 10
-100.5503
 20
-95.9815
 30
0.0
 10
-100.5503
 20
-95.9815
 30
0.0
 10
-101.1574
 20
-94.7944
 30
0.0
 10
-102.3904
 20
-94.3195
 30
0.0
 10
-103.4543
 20
-94.8633
 30
0.0
 10
-103.4543
 20
-94.8633
 30
0.0
 10
-103.2753
 20
-95.2842
 30
0.0
 10
-103.324
 20
-95.7939
 30
0.0
 10
-103.5771
 20
-96.1551
 30
0.0
 10
-103.5771
 20
-96.1551
 30
0.0
 10
-103.8302
 20
-96.5164
 30
0.0
 10
-104.2382
 20
-96.6584
 30
0.0
 10
-104.6116
 20
-96.5152
 30
0.0
 10
-104.6116
 20
-96.5152
 30
0.0
 10
-105.1714
 20
-96.2155
 30
0.0
 10
-105.5673
 20
-95.5937
 30
0.0
 10
-105.6638
 20
-94.8633
 30
0.0
 10
-105.6638
 20
-94.8633
 30
0.0
 10
-105.7523
 20
-93.1855
 30
0.0
 10
-104.9616
 20
-91.6204
 30
0.0
 10
-103.6857
 20
-90.9489
 30
0.0
 10
-103.6857
 20
-90.9489
 30
0.0
 10
-101.5305
 20
-90.4227
 30
0.0
 10
-99.3057
 20
-91.3121
 30
0.0
 10
-97.836
 20
-93.2873
 30
0.0
 10
-97.836
 20
-93.2873
 30
0.0
 10
-97.3081
 20
-94.1137
 30
0.0
 10
-97.1799
 20
-95.2149
 30
0.0
 10
-97.4991
 20
-96.1848
 30
0.0
 10
-97.4991
 20
-96.1848
 30
0.0
 10
-97.8913
 20
-97.0971
 30
0.0
 10
-98.7199
 20
-97.6077
 30
0.0
 10
-99.5613
 20
-97.4558
 30
0.0
 10
-99.5613
 20
-97.4558
 30
0.0
 10
-99.8357
 20
-98.4708
 30
0.0
 10
-99.5748
 20
-99.5857
 30
0.0
 10
-98.901
 20
-100.2771
 30
0.0
 10
-98.901
 20
-100.2771
 30
0.0
 10
-98.2271
 20
-100.9684
 30
0.0
 10
-97.274
 20
-101.0988
 30
0.0
 10
-96.489
 20
-100.6074
 30
0.0
 10
-96.489
 20
-100.6074
 30
0.0
 10
-95.5558
 20
-100.1399
 30
0.0
 10
-94.7729
 20
-99.3194
 30
0.0
 10
-94.2585
 20
-98.2691
 30
0.0
 10
-94.2585
 20
-98.2691
 30
0.0
 10
-92.9805
 20
-100.4186
 30
0.0
 10
-91.6859
 20
-102.5537
 30
0.0
 10
-90.3751
 20
-104.6742
 30
0.0
 10
-90.3751
 20
-104.6742
 30
0.0
 10
-90.3751
 20
-104.6742
 30
0.0
 10
-109.1568
 20
-104.6742
 30
0.0
 10
-109.1568
 20
-104.6742
 30
0.0
  0
SPLINE
  5
6A
330
1F
100
AcDbEntity
  8
layer 1
 62
     7
370
     9
100
AcDbSpline
210
0.0
220
0.0
230
1.0
 70
    11
 71
     3
 72
    36
 73
    32
 74
     0
 42
0.0000000001
 43
0.0000000001
 12
1.0
 22
0.0
 32
0.0
 13
1.0
 23
0.0
 33
0.0
 40
0.0
 40
0.0
 40
0.0
 40
0.0
 40
0.1111111111111111
 40
0.1111111111111111
 40
0.1111111111111111
 40
0.1111111111111111
 40
0.2222222222222222
 40
0.2222222222222222
 40
0.2222222222222222
 40
0.2222222222222222
 40
0.3333333333333333
 40
0.3333333333333333
 40
0.3333333333333333
 40
0.3333333333333333
 40
0.4444444444444444
 40
0.4444444444444444
 40
0.4444444444444444
 40
0.4444444444444444
 40
0.5555555555555556
 40
0.5555555555555556
 40
0.5555555555555556
 40
0.5555555555555556
 40
0.6666666666666666
 40
0.6666666666666666
 40
0.6666666666666666
 40
0.6666666666666666
 40
0.7777777777777778
 40
0.7777777777777778
 40
0.7777777777777778
 40
0.7777777777777778
 40
1.0
 40
1.0
 40
1.0
 40
1.0
 10
-117.9106
 20
118.5397
 30
0.0
 10
-117.9106
 20
118.5397
 30
0.0
 10
-120.5621
 20
118.5397
 30
0.0
 10
-120.5621
 20
118.5397
 30
0.0
 10
-120.5621
 20
118.5397
 30
0.0
 10
-120.5621
 20
118.5397
 30
0.0
 10
-120.5621
 20
84.4299
 30
0.0
 10
-120.5621
 20
84.4299
 30
0.0
 10
-120.5621
 20
84.4299
 30
0.0
 10
-120.2625
 20
84.9798
 30
0.0
 10
-119.7449
 20
85.2979
 30
0.0
 10
-119.2003
 20
85.2667
 30
0.0
 10
-119.2003
 20
85.2667
 30
0.0
 10
-118.656
 20
85.2351
 30
0.0
 10
-118.1655
 20
84.8591
 30
0.0
 10
-117.9106
 20
84.2773
 30
0.0
 10
-117.9106
 20
84.2773
 30
0.0
 10
-117.6557
 20
84.8591
 30
0.0
 10
-117.1654
 20
85.2351
 30
0.0
 10
-116.6209
 20
85.2667
 30
0.0
 10
-116.6209
 20
85.2667
 30
0.0
 10
-116.0766
 20
85.2979
 30
0.0
 10
-115.5586
 20
84.9798
 30
0.0
 10
-115.2594
 20
84.4299
 30
0.0
 10
-115.2594
 20
84.4299
 30
0.0
 10
-115.2594
 20
84.4299
 30
0.0
 10
-115.2594
 20
118.5397
 30
0.0
 10
-115.2594
 20
118.5397
 30
0.0
 10
-115.2594
 20
118.5397
 30
0.0
 10
-115.2594
 20
118.5397
 30
0.0
 10
-117.9106
 20
118.5397
 30
0.0
 10
-117.9106
 20
118.5397
 30
0.0
  0
SPLINE
  5
6B
330
1F
100
AcDbEntity
  8
layer 1
 62
     7
370
     9
100
AcDbSpline
210
0.0
220
0.0
230
1.0
 70
    11
 71
     3
 72
    36
 73
    32
 74
     0
 42
0.0000000001
 43
0.0000000001
 12
1.0
 22
0.0
 32
0.0
 13
1.0
 23
0.0
 33
0.0
 40
0.0
 40
0.0
 40
0.0
 40
0.0
 40
0.1111111111111111
 40
0.1111111111111111
 40
0.1111111111111111
 40
0.1111111111111111
 40
0.2222222222222222
 40
0.2222222222222222
 40
0.2222222222222222
 40
0.2222222222222222
 40
0.3333333333333333
 40
0.3333333333333333
 40
0.3333333333333333
 40
0.3333333333333333
 40
0.4444444444444444
 40
0.4444444444444444
 40
0.4444444444444444
 40
0.4444444444444444
 40
0.5555555555555556
 40
0.5555555555555556
 40
0.5555555555555556
 40
0.5555555555555556
 40
0.6666666666666666
 40
0.6666666666666666
 40
0.6666666666666666
 40
0.6666666666666666
 40
0.7777777777777778
 40
0.7777777777777778
 40
0.7777777777777778
 40
0.7777777777777778
 40
1.0
 40
1.0
 40
1.0
 40
1.0
 10
-117.9106
 20
35.386
 30
0.0
 10
-117.9106
 20
35.386
 30
0.0
 10
-120.6044
 20
38.9836
 30
0.0
 10
-120.6044
 20
38.9836
 30
0.0
 10
-120.6044
 20
38.9836
 30
0.0
 10
-120.6044
 20
38.9836
 30
0.0
 10
-120.6044
 20
77.1096
 30
0.0
 10
-120.6044
 20
77.1096
 30
0.0
 10
-120.6044
 20
77.1096
 30
0.0
 10
-120.2458
 20
76.6748
 30
0.0
 10
-119.7562
 20
76.4348
 30
0.0
 10
-119.2486
 20
76.4444
 30
0.0
 10
-119.2486
 20
76.4444
 30
0.0
 10
-118.7406
 20
76.4539
 30
0.0
 10
-118.2577
 20
76.7124
 30
0.0
 10
-117.9106
 20
77.1605
 30
0.0
 10
-117.9106
 20
77.1605
 30
0.0
 10
-117.5637
 20
76.7124
 30
0.0
 10
-117.0809
 20
76.4539
 30
0.0
 10
-116.5729
 20
76.4444
 30
0.0
 10
-116.5729
 20
76.4444
 30
0.0
 10
-116.0649
 20
76.4348
 30
0.0
 10
-115.5757
 20
76.6748
 30
0.0
 10
-115.2171
 20
77.1096
 30
0.0
 10
-115.2171
 20
77.1096
 30
0.0
 10
-115.2171
 20
77.1096
 30
0.0
 10
-115.2171
 20
38.9836
 30
0.0
 10
-115.2171
 20
38.9836
 30
0.0
 10
-115.2171
 20
38.9836
 30
0.0
 10
-115.2171
 20
38.9836
 30
0.0
 10
-117.9106
 20
35.386
 30
0.0
 10
-117.9106
 20
35.386
 30
0.0
  0
SPLINE
  5
6C
330
1F
100
AcDbEntity
  8
layer 1
 62
     7
370
     9
100
AcDbSpline
210
0.0
220
0.0
230
1.0
 70
    11
 71
     3
 72
    60
 73
    56
 74
     0
 42
0.0000000001
 43
0.0000000001
 12
1.0
 22
0.0
 32
0.0
 13
1.0
 23
0.0
 33
0.0
 40
0.0
 40
0.0
 40
0.0
 40
0.0
 40
0.0666666666666667
 40
0.0666666666666667
 40
0.0666666666666667
 40
0.0666666666666667
 40
0.1333333333333333
 40
0.1333333333333333
 40
0.1333333333333333
 40
0.1333333333333333
 40
0.2
 40
0.2
 40
0.2
 40
0.2
 40
0.2666666666666667
 40
0.2666666666666667
 40
0.2666666666666667
 40
0.2666666666666667
 40
0.3333333333333333
 40
0.3333333333333333
 40
0.3333333333333333
 40
0.3333333333333333
 40
0.4
 40
0.4
 40
0.4
 40
0.4
 40
0.4666666666666667
 40
0.4666666666666667
 40
0.4666666666666667
 40
0.4666666666666667
 40
0.5333333333333333
 40
0.5333333333333333
 40
0.5333333333333333
 40
0.5333333333333333
 40
0.6
 40
0.6
 40
0.6
 40
0.6
 40
0.6666666666666666
 40
0.6666666666666666
 40
0.6666666666666666
 40
0.6666666666666666
 40
0.7333333333333333
 40
0.7333333333333333
 40
0.7333333333333333
 40
0.7333333333333333
 40
0.8
 40
0.8
 40
0.8
 40
0.8
 40
0.8666666666666667
 40
0.8666666666666667
 40
0.8666666666666667
 40
0.8666666666666667
 40
1.0
 40
1.0
 40
1.0
 40
1.0
 10
-157.1764
 20
13.2109
 30
0.0
 10
-159.3892
 20
13.5868
 30
0.0
 10
-161.5928
 20
12.4515
 30
0.0
 10
-162.9003
 20
10.2625
 30
0.0
 10
-162.9003
 20
10.2625
 30
0.0
 10
-163.644
 20
9.2504
 30
0.0
 10
-164.6863
 20
8.6302
 30
0.0
 10
-165.8038
 20
8.534
 30
0.0
 10
-165.8038
 20
8.534
 30
0.0
 10
-162.7022
 20
17.9203
 30
0.0
 10
-156.3731
 20
25.2122
 30
0.0
 10
-148.4646
 20
28.512
 30
0.0
 10
-148.4646
 20
28.512
 30
0.0
 10
-149.2378
 20
26.4426
 30
0.0
 10
-149.5289
 20
24.1578
 30
0.0
 10
-149.3067
 20
21.9035
 30
0.0
 10
-149.3067
 20
21.9035
 30
0.0
 10
-150.8659
 20
21.8382
 30
0.0
 10
-152.1865
 20
20.4949
 30
0.0
 10
-152.5049
 20
18.6502
 30
0.0
 10
-152.5049
 20
18.6502
 30
0.0
 10
-150.0217
 20
18.9485
 30
0.0
 10
-147.5448
 20
18.0123
 30
0.0
 10
-145.6451
 20
16.0572
 30
0.0
 10
-145.6451
 20
16.0572
 30
0.0
 10
-143.3386
 20
14.8066
 30
0.0
 10
-140.9044
 20
13.9347
 30
0.0
 10
-138.4062
 20
13.465
 30
0.0
 10
-138.4062
 20
13.465
 30
0.0
 10
-138.4062
 20
13.465
 30
0.0
 10
-132.0093
 20
13.465
 30
0.0
 10
-132.0093
 20
13.465
 30
0.0
 10
-132.0093
 20
13.465
 30
0.0
 10
-132.0093
 20
13.465
 30
0.0
 10
-131.967
 20
11.4316
 30
0.0
 10
-131.967
 20
11.4316
 30
0.0
 10
-131.967
 20
11.4316
 30
0.0
 10
-131.967
 20
11.4316
 30
0.0
 10
-140.4684
 20
11.4316
 30
0.0
 10
-140.4684
 20
11.4316
 30
0.0
 10
-140.4684
 20
11.4316
 30
0.0
 10
-144.0699
 20
11.619
 30
0.0
 10
-147.6424
 20
12.3013
 30
0.0
 10
-151.1162
 20
13.465
 30
0.0
 10
-151.1162
 20
13.465
 30
0.0
 10
-152.5262
 20
14.1136
 30
0.0
 10
-153.5391
 20
15.628
 30
0.0
 10
-153.7677
 20
17.43
 30
0.0
 10
-153.7677
 20
17.43
 30
0.0
 10
-154.7486
 20
17.7766
 30
0.0
 10
-155.8076
 20
17.4411
 30
0.0
 10
-156.5215
 20
16.5575
 30
0.0
 10
-156.5215
 20
16.5575
 30
0.0
 10
-157.2354
 20
15.6738
 30
0.0
 10
-157.4871
 20
14.3869
 30
0.0
 10
-157.1764
 20
13.2109
 30
0.0
  0
SPLINE
  5
6D
330
1F
100
AcDbEntity
  8
layer 1
 62
     7
370
     9
100
AcDbSpline
210
0.0
220
0.0
230
1.0
 70
    11
 71
     3
 72
    40
 73
    36
 74
     0
 42
0.0000000001
 43
0.0000000001
 12
1.0
 22
0.0
 32
0.0
 13
1.0
 23
0.0
 33
0.0
 40
0.0
 40
0.0
 40
0.0
 40
0.0
 40
0.1
 40
0.1
 40
0.1
 40
0.1
 40
0.2
 40
0.2
 40
0.2
 40
0.2
 40
0.3
 40
0.3
 40
0.3
 40
0.3
 40
0.4
 40
0.4
 40
0.4
 40
0.4
 40
0.5
 40
0.5
 40
0.5
 40
0.5
 40
0.6
 40
0.6
 40
0.6
 40
0.6
 40
0.7
 40
0.7
 40
0.7
 40
0.7
 40
0.8
 40
0.8
 40
0.8
 40
0.8
 40
1.0
 40
1.0
 40
1.0
 40
1.0
 10
-127.6324
 20
17.8366
 30
0.0
 10
-129.7199
 20
17.9995
 30
0.0
 10
-131.5936
 20
19.4395
 30
0.0
 10
-132.5997
 20
21.6543
 30
0.0
 10
-132.5997
 20
21.6543
 30
0.0
 10
-133.6061
 20
23.8692
 30
0.0
 10
-133.6058
 20
26.5516
 30
0.0
 10
-132.5983
 20
28.7658
 30
0.0
 10
-132.5983
 20
28.7658
 30
0.0
 10
-137.0529
 20
30.4308
 30
0.0
 10
-141.8018
 20
30.5714
 30
0.0
 10
-146.3183
 20
29.1727
 30
0.0
 10
-146.3183
 20
29.1727
 30
0.0
 10
-144.2823
 20
28.4122
 30
0.0
 10
-142.4515
 20
27.0082
 30
0.0
 10
-141.0155
 20
25.1061
 30
0.0
 10
-141.0155
 20
25.1061
 30
0.0
 10
-139.4318
 20
26.1331
 30
0.0
 10
-137.5343
 20
26.1707
 30
0.0
 10
-135.9233
 20
25.2076
 30
0.0
 10
-135.9233
 20
25.2076
 30
0.0
 10
-136.5491
 20
23.894
 30
0.0
 10
-136.6244
 20
22.3011
 30
0.0
 10
-136.1274
 20
20.9099
 30
0.0
 10
-136.1274
 20
20.9099
 30
0.0
 10
-135.6304
 20
19.5186
 30
0.0
 10
-134.6186
 20
18.4926
 30
0.0
 10
-133.3981
 20
18.1415
 30
0.0
 10
-133.3981
 20
18.1415
 30
0.0
 10
-130.9173
 20
17.3361
 30
0.0
 10
-128.3442
 20
17.0268
 30
0.0
 10
-125.7807
 20
17.2267
 30
0.0
 10
-125.7807
 20
17.2267
 30
0.0
 10
-126.3722
 20
17.5302
 30
0.0
 10
-126.9952
 20
17.7354
 30
0.0
 10
-127.6324
 20
17.8366
 30
0.0
  0
SPLINE
  5
6E
330
1F
100
AcDbEntity
  8
layer 1
 62
     7
370
     9
100
AcDbSpline
210
0.0
220
0.0
230
1.0
 70
    11
 71
     3
 72
    48
 73
    44
 74
     0
 42
0.0000000001
 43
0.0000000001
 12
1.0
 22
0.0
 32
0.0
 13
1.0
 23
0.0
 33
0.0
 40
0.0
 40
0.0
 40
0.0
 40
0.0
 40
0.0833333333333333
 40
0.0833333333333333
 40
0.0833333333333333
 40
0.0833333333333333
 40
0.1666666666666667
 40
0.1666666666666667
 40
0.1666666666666667
 40
0.1666666666666667
 40
0.25
 40
0.25
 40
0.25
 40
0.25
 40
0.3333333333333333
 40
0.3333333333333333
 40
0.3333333333333333
 40
0.3333333333333333
 40
0.4166666666666667
 40
0.4166666666666667
 40
0.4166666666666667
 40
0.4166666666666667
 40
0.5
 40
0.5
 40
0.5
 40
0.5
 40
0.5833333333333334
 40
0.5833333333333334
 40
0.5833333333333334
 40
0.5833333333333334
 40
0.6666666666666666
 40
0.6666666666666666
 40
0.6666666666666666
 40
0.6666666666666666
 40
0.75
 40
0.75
 40
0.75
 40
0.75
 40
0.8333333333333334
 40
0.8333333333333334
 40
0.8333333333333334
 40
0.8333333333333334
 40
1.0
 40
1.0
 40
1.0
 40
1.0
 10
-127.2114
 20
33.2904
 30
0.0
 10
-125.4151
 20
32.2868
 30
0.0
 10
-124.3976
 20
29.954
 30
0.0
 10
-124.7285
 20
27.5968
 30
0.0
 10
-124.7285
 20
27.5968
 30
0.0
 10
-124.8105
 20
27.1474
 30
0.0
 10
-125.0746
 20
26.7782
 30
0.0
 10
-125.4307
 20
26.6145
 30
0.0
 10
-125.4307
 20
26.6145
 30
0.0
 10
-125.7867
 20
26.4505
 30
0.0
 10
-126.1872
 20
26.514
 30
0.0
 10
-126.4961
 20
26.7835
 30
0.0
 10
-126.4961
 20
26.7835
 30
0.0
 10
-126.9892
 20
26.6681
 30
0.0
 10
-127.3577
 20
26.1693
 30
0.0
 10
-127.3967
 20
25.5643
 30
0.0
 10
-127.3967
 20
25.5643
 30
0.0
 10
-127.4361
 20
24.9598
 30
0.0
 10
-127.1365
 20
24.3978
 30
0.0
 10
-126.6643
 20
24.1908
 30
0.0
 10
-126.6643
 20
24.1908
 30
0.0
 10
-126.0054
 20
23.9732
 30
0.0
 10
-125.327
 20
23.8536
 30
0.0
 10
-124.6443
 20
23.8352
 30
0.0
 10
-124.6443
 20
23.8352
 30
0.0
 10
-122.357
 20
24.3559
 30
0.0
 10
-120.8053
 20
26.9446
 30
0.0
 10
-121.1091
 20
29.7318
 30
0.0
 10
-121.1091
 20
29.7318
 30
0.0
 10
-121.7141
 20
32.694
 30
0.0
 10
-123.2953
 20
35.2284
 30
0.0
 10
-125.486
 20
36.7471
 30
0.0
 10
-125.486
 20
36.7471
 30
0.0
 10
-132.2173
 20
39.7611
 30
0.0
 10
-139.5838
 20
40.0111
 30
0.0
 10
-146.4447
 20
37.4585
 30
0.0
 10
-146.4447
 20
37.4585
 30
0.0
 10
-145.3008
 20
36.5153
 30
0.0
 10
-144.7637
 20
34.8119
 30
0.0
 10
-145.0977
 20
33.1885
 30
0.0
 10
-145.0977
 20
33.1885
 30
0.0
 10
-139.3381
 20
35.8071
 30
0.0
 10
-132.9917
 20
35.8433
 30
0.0
 10
-127.2114
 20
33.2904
 30
0.0
  0
SPLINE
  5
6F
330
1F
100
AcDbEntity
  8
layer 1
 62
     7
370
     9
100
AcDbSpline
210
0.0
220
0.0
230
1.0
 70
    11
 71
     3
 72
    20
 73
    16
 74
     0
 42
0.0000000001
 43
0.0000000001
 12
1.0
 22
0.0
 32
0.0
 13
1.0
 23
0.0
 33
0.0
 40
0.0
 40
0.0
 40
0.0
 40
0.0
 40
0.2
 40
0.2
 40
0.2
 40
0.2
 40
0.4
 40
0.4
 40
0.4
 40
0.4
 40
0.6
 40
0.6
 40
0.6
 40
0.6
 40
1.0
 40
1.0
 40
1.0
 40
1.0
 10
-171.6118
 20
8.7882
 30
0.0
 10
-168.7749
 20
20.7459
 30
0.0
 10
-161.6346
 20
30.5277
 30
0.0
 10
-152.1681
 20
35.4254
 30
0.0
 10
-152.1681
 20
35.4254
 30
0.0
 10
-152.1826
 20
33.9138
 30
0.0
 10
-151.7666
 20
32.4423
 30
0.0
 10
-150.9898
 20
31.2569
 30
0.0
 10
-150.9898
 20
31.2569
 30
0.0
 10
-159.33
 20
27.5752
 30
0.0
 10
-165.7108
 20
19.3006
 30
0.0
 10
-168.1607
 20
8.9916
 30
0.0
 10
-168.1607
 20
8.9916
 30
0.0
 10
-169.2319
 20
9.8085
 30
0.0
 10
-170.6117
 20
9.7275
 30
0.0
 10
-171.6118
 20
8.7882
 30
0.0
  0
SPLINE
  5
70
330
1F
100
AcDbEntity
  8
layer 1
 62
     7
370
     9
100
AcDbSpline
210
0.0
220
0.0
230
1.0
 70
    11
 71
     3
 72
    16
 73
    12
 74
     0
 42
0.0000000001
 43
0.0000000001
 12
1.0
 22
0.0
 32
0.0
 13
1.0
 23
0.0
 33
0.0
 40
0.0
 40
0.0
 40
0.0
 40
0.0
 40
0.25
 40
0.25
 40
0.25
 40
0.25
 40
0.5
 40
0.5
 40
0.5
 40
0.5
 40
1.0
 40
1.0
 40
1.0
 40
1.0
 10
-162.9844
 20
32.6805
 30
0.0
 10
-161.6262
 20
34.3845
 30
0.0
 10
-160.1159
 20
35.9019
 30
0.0
 10
-158.4811
 20
37.2047
 30
0.0
 10
-158.4811
 20
37.2047
 30
0.0
 10
-160.3641
 20
37.4976
 30
0.0
 10
-162.0436
 20
38.7816
 30
0.0
 10
-163.0686
 20
40.7122
 30
0.0
 10
-163.0686
 20
40.7122
 30
0.0
 10
-162.9837
 20
38.0362
 30
0.0
 10
-162.9556
 20
35.3579
 30
0.0
 10
-162.9844
 20
32.6805
 30
0.0
  0
SPLINE
  5
71
330
1F
100
AcDbEntity
  8
layer 1
 62
     7
370
     9
100
AcDbSpline
210
0.0
220
0.0
230
1.0
 70
    11
 71
     3
 72
    80
 73
    76
 74
     0
 42
0.0000000001
 43
0.0000000001
 12
1.0
 22
0.0
 32
0.0
 13
1.0
 23
0.0
 33
0.0
 40
0.0
 40
0.0
 40
0.0
 40
0.0
 40
0.05
 40
0.05
 40
0.05
 40
0.05
 40
0.1
 40
0.1
 40
0.1
 40
0.1
 40
0.15
 40
0.15
 40
0.15
 40
0.15
 40
0.2
 40
0.2
 40
0.2
 40
0.2
 40
0.25
 40
0.25
 40
0.25
 40
0.25
 40
0.3
 40
0.3
 40
0.3
 40
0.3
 40
0.35
 40
0.35
 40
0.35
 40
0.35
 40
0.4
 40
0.4
 40
0.4
 40
0.4
 40
0.45
 40
0.45
 40
0.45
 40
0.45
 40
0.5
 40
0.5
 40
0.5
 40
0.5
 40
0.55
 40
0.55
 40
0.55
 40
0.55
 40
0.6
 40
0.6
 40
0.6
 40
0.6
 40
0.65
 40
0.65
 40
0.65
 40
0.65
 40
0.7
 40
0.7
 40
0.7
 40
0.7
 40
0.75
 40
0.75
 40
0.75
 40
0.75
 40
0.8
 40
0.8
 40
0.8
 40
0.8
 40
0.85
 40
0.85
 40
0.85
 40
0.85
 40
0.9
 40
0.9
 40
0.9
 40
0.9
 40
1.0
 40
1.0
 40
1.0
 40
1.0
 10
-126.6643
 20
44.1689
 30
0.0
 10
-126.6643
 20
44.1689
 30
0.0
 10
-126.6643
 20
50.9637
 30
0.0
 10
-126.6643
 20
50.9637
 30
0.0
 10
-126.6643
 20
50.9637
 30
0.0
 10
-127.2004
 20
49.9783
 30
0.0
 10
-127.9122
 20
49.1504
 30
0.0
 10
-128.7478
 20
48.5404
 30
0.0
 10
-128.7478
 20
48.5404
 30
0.0
 10
-130.704
 20
47.4652
 30
0.0
 10
-132.9934
 20
47.7989
 30
0.0
 10
-134.6818
 20
49.4049
 30
0.0
 10
-134.6818
 20
49.4049
 30
0.0
 10
-135.5246
 20
50.2476
 30
0.0
 10
-135.7699
 20
51.6848
 30
0.0
 10
-135.2711
 20
52.8616
 30
0.0
 10
-135.2711
 20
52.8616
 30
0.0
 10
-134.6641
 20
54.0487
 30
0.0
 10
-133.4307
 20
54.5237
 30
0.0
 10
-132.3668
 20
53.9799
 30
0.0
 10
-132.3668
 20
53.9799
 30
0.0
 10
-132.5458
 20
53.5588
 30
0.0
 10
-132.4975
 20
53.049
 30
0.0
 10
-132.2444
 20
52.688
 30
0.0
 10
-132.2444
 20
52.688
 30
0.0
 10
-131.9912
 20
52.3266
 30
0.0
 10
-131.5829
 20
52.1846
 30
0.0
 10
-131.2095
 20
52.3276
 30
0.0
 10
-131.2095
 20
52.3276
 30
0.0
 10
-130.65
 20
52.6276
 30
0.0
 10
-130.2538
 20
53.2493
 30
0.0
 10
-130.1576
 20
53.9799
 30
0.0
 10
-130.1576
 20
53.9799
 30
0.0
 10
-130.0688
 20
55.6576
 30
0.0
 10
-130.8598
 20
57.2225
 30
0.0
 10
-132.1357
 20
57.8942
 30
0.0
 10
-132.1357
 20
57.8942
 30
0.0
 10
-134.2906
 20
58.4203
 30
0.0
 10
-136.5154
 20
57.531
 30
0.0
 10
-137.9855
 20
55.5558
 30
0.0
 10
-137.9855
 20
55.5558
 30
0.0
 10
-138.513
 20
54.7293
 30
0.0
 10
-138.6412
 20
53.6281
 30
0.0
 10
-138.322
 20
52.6582
 30
0.0
 10
-138.322
 20
52.6582
 30
0.0
 10
-137.9301
 20
51.7458
 30
0.0
 10
-137.1016
 20
51.2354
 30
0.0
 10
-136.2602
 20
51.3872
 30
0.0
 10
-136.2602
 20
51.3872
 30
0.0
 10
-135.9854
 20
50.3722
 30
0.0
 10
-136.2463
 20
49.2572
 30
0.0
 10
-136.9204
 20
48.566
 30
0.0
 10
-136.9204
 20
48.566
 30
0.0
 10
-137.5943
 20
47.8748
 30
0.0
 10
-138.5472
 20
47.7441
 30
0.0
 10
-139.3321
 20
48.2355
 30
0.0
 10
-139.3321
 20
48.2355
 30
0.0
 10
-140.2653
 20
48.703
 30
0.0
 10
-141.0482
 20
49.5235
 30
0.0
 10
-141.5629
 20
50.5739
 30
0.0
 10
-141.5629
 20
50.5739
 30
0.0
 10
-142.8409
 20
48.4244
 30
0.0
 10
-144.1352
 20
46.2894
 30
0.0
 10
-145.446
 20
44.1689
 30
0.0
 10
-145.446
 20
44.1689
 30
0.0
 10
-145.6764
 20
43.4141
 30
0.0
 10
-145.9835
 20
42.697
 30
0.0
 10
-146.3605
 20
42.0339
 30
0.0
 10
-146.3605
 20
42.0339
 30
0.0
 10
-140.0208
 20
44.9392
 30
0.0
 10
-133.0247
 20
44.9754
 30
0.0
 10
-126.6643
 20
42.1354
 30
0.0
 10
-126.6643
 20
42.1354
 30
0.0
 10
-126.7105
 20
42.8121
 30
0.0
 10
-126.7105
 20
43.4922
 30
0.0
 10
-126.6643
 20
44.1689
 30
0.0
  0
SPLINE
  5
72
330
1F
100
AcDbEntity
  8
layer 1
 62
     7
370
     9
100
AcDbSpline
210
0.0
220
0.0
230
1.0
 70
    11
 71
     3
 72
    28
 73
    24
 74
     0
 42
0.0000000001
 43
0.0000000001
 12
1.0
 22
0.0
 32
0.0
 13
1.0
 23
0.0
 33
0.0
 40
0.0
 40
0.0
 40
0.0
 40
0.0
 40
0.1428571428571428
 40
0.1428571428571428
 40
0.1428571428571428
 40
0.1428571428571428
 40
0.2857142857142857
 40
0.2857142857142857
 40
0.2857142857142857
 40
0.2857142857142857
 40
0.4285714285714285
 40
0.4285714285714285
 40
0.4285714285714285
 40
0.4285714285714285
 40
0.5714285714285714
 40
0.5714285714285714
 40
0.5714285714285714
 40
0.5714285714285714
 40
0.7142857142857143
 40
0.7142857142857143
 40
0.7142857142857143
 40
0.7142857142857143
 40
1.0
 40
1.0
 40
1.0
 40
1.0
 10
-152.7996
 20
41.7289
 30
0.0
 10
-154.8136
 20
40.496
 30
0.0
 10
-157.1964
 20
40.5151
 30
0.0
 10
-159.1964
 20
41.7797
 30
0.0
 10
-159.1964
 20
41.7797
 30
0.0
 10
-159.8344
 20
42.3243
 30
0.0
 10
-160.1958
 20
43.2267
 30
0.0
 10
-160.1539
 20
44.1689
 30
0.0
 10
-160.1539
 20
44.1689
 30
0.0
 10
-160.1958
 20
45.1111
 30
0.0
 10
-159.8344
 20
46.0135
 30
0.0
 10
-159.1964
 20
46.5581
 30
0.0
 10
-159.1964
 20
46.5581
 30
0.0
 10
-157.1964
 20
47.8226
 30
0.0
 10
-154.8136
 20
47.8417
 30
0.0
 10
-152.7996
 20
46.6089
 30
0.0
 10
-152.7996
 20
46.6089
 30
0.0
 10
-151.9405
 20
45.792
 30
0.0
 10
-151.0793
 20
44.9787
 30
0.0
 10
-150.2158
 20
44.1689
 30
0.0
 10
-150.2158
 20
44.1689
 30
0.0
 10
-151.0793
 20
43.3591
 30
0.0
 10
-151.9405
 20
42.5458
 30
0.0
 10
-152.7996
 20
41.7289
 30
0.0
  0
SPLINE
  5
73
330
1F
100
AcDbEntity
  8
layer 1
 62
     7
370
     9
100
AcDbSpline
210
0.0
220
0.0
230
1.0
 70
    11
 71
     3
 72
   188
 73
   184
 74
     0
 42
0.0000000001
 43
0.0000000001
 12
1.0
 22
0.0
 32
0.0
 13
1.0
 23
0.0
 33
0.0
 40
0.0
 40
0.0
 40
0.0
 40
0.0
 40
0.0212765957446809
 40
0.0212765957446809
 40
0.0212765957446809
 40
0.0212765957446809
 40
0.0425531914893617
 40
0.0425531914893617
 40
0.0425531914893617
 40
0.0425531914893617
 40
0.0638297872340425
 40
0.0638297872340425
 40
0.0638297872340425
 40
0.0638297872340425
 40
0.0851063829787234
 40
0.0851063829787234
 40
0.0851063829787234
 40
0.0851063829787234
 40
0.1063829787234043
 40
0.1063829787234043
 40
0.1063829787234043
 40
0.1063829787234043
 40
0.1276595744680851
 40
0.1276595744680851
 40
0.1276595744680851
 40
0.1276595744680851
 40
0.148936170212766
 40
0.148936170212766
 40
0.148936170212766
 40
0.148936170212766
 40
0.1702127659574468
 40
0.1702127659574468
 40
0.1702127659574468
 40
0.1702127659574468
 40
0.1914893617021277
 40
0.1914893617021277
 40
0.1914893617021277
 40
0.1914893617021277
 40
0.2127659574468085
 40
0.2127659574468085
 40
0.2127659574468085
 40
0.2127659574468085
 40
0.2340425531914894
 40
0.2340425531914894
 40
0.2340425531914894
 40
0.2340425531914894
 40
0.2553191489361702
 40
0.2553191489361702
 40
0.2553191489361702
 40
0.2553191489361702
 40
0.2765957446808511
 40
0.2765957446808511
 40
0.2765957446808511
 40
0.2765957446808511
 40
0.2978723404255319
 40
0.2978723404255319
 40
0.2978723404255319
 40
0.2978723404255319
 40
0.3191489361702128
 40
0.3191489361702128
 40
0.3191489361702128
 40
0.3191489361702128
 40
0.3404255319148936
 40
0.3404255319148936
 40
0.3404255319148936
 40
0.3404255319148936
 40
0.3617021276595745
 40
0.3617021276595745
 40
0.3617021276595745
 40
0.3617021276595745
 40
0.3829787234042553
 40
0.3829787234042553
 40
0.3829787234042553
 40
0.3829787234042553
 40
0.4042553191489361
 40
0.4042553191489361
 40
0.4042553191489361
 40
0.4042553191489361
 40
0.425531914893617
 40
0.425531914893617
 40
0.425531914893617
 40
0.425531914893617
 40
0.4468085106382979
 40
0.4468085106382979
 40
0.4468085106382979
 40
0.4468085106382979
 40
0.4680851063829787
 40
0.4680851063829787
 40
0.4680851063829787
 40
0.4680851063829787
 40
0.4893617021276596
 40
0.4893617021276596
 40
0.4893617021276596
 40
0.4893617021276596
 40
0.5106382978723404
 40
0.5106382978723404
 40
0.5106382978723404
 40
0.5106382978723404
 40
0.5319148936170213
 40
0.5319148936170213
 40
0.5319148936170213
 40
0.5319148936170213
 40
0.5531914893617021
 40
0.5531914893617021
 40
0.5531914893617021
 40
0.5531914893617021
 40
0.574468085106383
 40
0.574468085106383
 40
0.574468085106383
 40
0.574468085106383
 40
0.5957446808510638
 40
0.5957446808510638
 40
0.5957446808510638
 40
0.5957446808510638
 40
0.6170212765957447
 40
0.6170212765957447
 40
0.6170212765957447
 40
0.6170212765957447
 40
0.6382978723404256
 40
0.6382978723404256
 40
0.6382978723404256
 40
0.6382978723404256
 40
0.6595744680851063
 40
0.6595744680851063
 40
0.6595744680851063
 40
0.6595744680851063
 40
0.6808510638297872
 40
0.6808510638297872
 40
0.6808510638297872
 40
0.6808510638297872
 40
0.7021276595744681
 40
0.7021276595744681
 40
0.7021276595744681
 40
0.7021276595744681
 40
0.723404255319149
 40
0.723404255319149
 40
0.723404255319149
 40
0.723404255319149
 40
0.7446808510638298
 40
0.7446808510638298
 40
0.7446808510638298
 40
0.7446808510638298
 40
0.7659574468085106
 40
0.7659574468085106
 40
0.7659574468085106
 40
0.7659574468085106
 40
0.7872340425531915
 40
0.7872340425531915
 40
0.7872340425531915
 40
0.7872340425531915
 40
0.8085106382978723
 40
0.8085106382978723
 40
0.8085106382978723
 40
0.8085106382978723
 40
0.8297872340425532
 40
0.8297872340425532
 40
0.8297872340425532
 40
0.8297872340425532
 40
0.851063829787234
 40
0.851063829787234
 40
0.851063829787234
 40
0.851063829787234
 40
0.8723404255319149
 40
0.8723404255319149
 40
0.8723404255319149
 40
0.8723404255319149
 40
0.8936170212765957
 40
0.8936170212765957
 40
0.8936170212765957
 40
0.8936170212765957
 40
0.9148936170212766
 40
0.9148936170212766
 40
0.9148936170212766
 40
0.9148936170212766
 40
0.9361702127659575
 40
0.9361702127659575
 40
0.9361702127659575
 40
0.9361702127659575
 40
0.9574468085106383
 40
0.9574468085106383
 40
0.9574468085106383
 40
0.9574468085106383
 40
1.0
 40
1.0
 40
1.0
 40
1.0
 10
-126.6643
 20
58.295
 30
0.0
 10
-129.8519
 20
62.1447
 30
0.0
 10
-134.7315
 20
63.0709
 30
0.0
 10
-138.7431
 20
60.5883
 30
0.0
 10
-138.7431
 20
60.5883
 30
0.0
 10
-139.812
 20
59.5776
 30
0.0
 10
-140.9139
 20
58.6194
 30
0.0
 10
-142.0468
 20
57.7164
 30
0.0
 10
-142.0468
 20
57.7164
 30
0.0
 10
-142.8132
 20
57.1082
 30
0.0
 10
-143.7185
 20
56.8057
 30
0.0
 10
-144.6352
 20
56.8522
 30
0.0
 10
-144.6352
 20
56.8522
 30
0.0
 10
-145.1058
 20
56.8934
 30
0.0
 10
-145.518
 20
57.2509
 30
0.0
 10
-145.7002
 20
57.777
 30
0.0
 10
-145.7002
 20
57.777
 30
0.0
 10
-145.8826
 20
58.3035
 30
0.0
 10
-145.8042
 20
58.9087
 30
0.0
 10
-145.4978
 20
59.343
 30
0.0
 10
-145.4978
 20
59.343
 30
0.0
 10
-146.7105
 20
59.8396
 30
0.0
 10
-148.0478
 20
59.2733
 30
0.0
 10
-148.7384
 20
57.9705
 30
0.0
 10
-148.7384
 20
57.9705
 30
0.0
 10
-149.251
 20
56.542
 30
0.0
 10
-148.8324
 20
54.8748
 30
0.0
 10
-147.7492
 20
54.0306
 30
0.0
 10
-147.7492
 20
54.0306
 30
0.0
 10
-146.708
 20
53.5034
 30
0.0
 10
-145.5471
 20
53.4317
 30
0.0
 10
-144.4665
 20
53.8275
 30
0.0
 10
-144.4665
 20
53.8275
 30
0.0
 10
-145.6579
 20
51.618
 30
0.0
 10
-146.8785
 20
49.4318
 30
0.0
 10
-148.128
 20
47.2698
 30
0.0
 10
-148.128
 20
47.2698
 30
0.0
 10
-150.3096
 20
49.4506
 30
0.0
 10
-152.9724
 20
50.8118
 30
0.0
 10
-155.7877
 20
51.1838
 30
0.0
 10
-155.7877
 20
51.1838
 30
0.0
 10
-158.6082
 20
51.3972
 30
0.0
 10
-161.307
 20
49.7673
 30
0.0
 10
-162.858
 20
46.9138
 30
0.0
 10
-162.858
 20
46.9138
 30
0.0
 10
-162.858
 20
46.9138
 30
0.0
 10
-162.858
 20
57.7926
 30
0.0
 10
-162.858
 20
57.7926
 30
0.0
 10
-162.858
 20
57.7926
 30
0.0
 10
-162.8417
 20
58.3975
 30
0.0
 10
-162.6212
 20
58.9681
 30
0.0
 10
-162.2474
 20
59.3713
 30
0.0
 10
-162.2474
 20
59.3713
 30
0.0
 10
-161.8735
 20
59.7747
 30
0.0
 10
-161.3794
 20
59.9755
 30
0.0
 10
-160.8799
 20
59.9273
 30
0.0
 10
-160.8799
 20
59.9273
 30
0.0
 10
-160.5221
 20
59.9035
 30
0.0
 10
-160.1948
 20
59.6774
 30
0.0
 10
-159.996
 20
59.3174
 30
0.0
 10
-159.996
 20
59.3174
 30
0.0
 10
-159.7975
 20
58.9574
 30
0.0
 10
-159.7506
 20
58.5055
 30
0.0
 10
-159.87
 20
58.0975
 30
0.0
 10
-159.87
 20
58.0975
 30
0.0
 10
-159.5902
 20
57.3165
 30
0.0
 10
-159.0062
 20
56.7556
 30
0.0
 10
-158.3129
 20
56.6027
 30
0.0
 10
-158.3129
 20
56.6027
 30
0.0
 10
-157.6199
 20
56.4497
 30
0.0
 10
-156.9096
 20
56.724
 30
0.0
 10
-156.4189
 20
57.3351
 30
0.0
 10
-156.4189
 20
57.3351
 30
0.0
 10
-156.1736
 20
57.7308
 30
0.0
 10
-156.0792
 20
58.2343
 30
0.0
 10
-156.1594
 20
58.7193
 30
0.0
 10
-156.1594
 20
58.7193
 30
0.0
 10
-156.24
 20
59.2042
 30
0.0
 10
-156.487
 20
59.6251
 30
0.0
 10
-156.8396
 20
59.8765
 30
0.0
 10
-156.8396
 20
59.8765
 30
0.0
 10
-156.0675
 20
60.0394
 30
0.0
 10
-155.367
 20
60.5251
 30
0.0
 10
-154.8618
 20
61.2493
 30
0.0
 10
-154.8618
 20
61.2493
 30
0.0
 10
-154.2768
 20
61.7421
 30
0.0
 10
-153.5945
 20
62.0403
 30
0.0
 10
-152.8838
 20
62.1135
 30
0.0
 10
-152.8838
 20
62.1135
 30
0.0
 10
-152.8838
 20
62.1135
 30
0.0
 10
-152.8838
 20
63.4352
 30
0.0
 10
-152.8838
 20
63.4352
 30
0.0
 10
-152.8838
 20
63.4352
 30
0.0
 10
-153.5945
 20
63.5082
 30
0.0
 10
-154.2768
 20
63.8065
 30
0.0
 10
-154.8618
 20
64.2992
 30
0.0
 10
-154.8618
 20
64.2992
 30
0.0
 10
-155.367
 20
65.023
 30
0.0
 10
-156.0675
 20
65.5091
 30
0.0
 10
-156.8396
 20
65.6717
 30
0.0
 10
-156.8396
 20
65.6717
 30
0.0
 10
-156.487
 20
65.9234
 30
0.0
 10
-156.24
 20
66.344
 30
0.0
 10
-156.1594
 20
66.829
 30
0.0
 10
-156.1594
 20
66.829
 30
0.0
 10
-156.0792
 20
67.3143
 30
0.0
 10
-156.1736
 20
67.8173
 30
0.0
 10
-156.4189
 20
68.2135
 30
0.0
 10
-156.4189
 20
68.2135
 30
0.0
 10
-156.9096
 20
68.8241
 30
0.0
 10
-157.6199
 20
69.0989
 30
0.0
 10
-158.3129
 20
68.9459
 30
0.0
 10
-158.3129
 20
68.9459
 30
0.0
 10
-159.0062
 20
68.7929
 30
0.0
 10
-159.5902
 20
68.232
 30
0.0
 10
-159.87
 20
67.451
 30
0.0
 10
-159.87
 20
67.451
 30
0.0
 10
-159.7506
 20
67.043
 30
0.0
 10
-159.7975
 20
66.5912
 30
0.0
 10
-159.996
 20
66.2311
 30
0.0
 10
-159.996
 20
66.2311
 30
0.0
 10
-160.1948
 20
65.8709
 30
0.0
 10
-160.5221
 20
65.645
 30
0.0
 10
-160.8799
 20
65.6209
 30
0.0
 10
-160.8799
 20
65.6209
 30
0.0
 10
-161.3794
 20
65.5726
 30
0.0
 10
-161.8735
 20
65.7736
 30
0.0
 10
-162.2474
 20
66.1772
 30
0.0
 10
-162.2474
 20
66.1772
 30
0.0
 10
-162.6212
 20
66.5805
 30
0.0
 10
-162.8417
 20
67.151
 30
0.0
 10
-162.858
 20
67.7559
 30
0.0
 10
-162.858
 20
67.7559
 30
0.0
 10
-162.858
 20
67.7559
 30
0.0
 10
-162.858
 20
78.6344
 30
0.0
 10
-162.858
 20
78.6344
 30
0.0
 10
-162.858
 20
78.6344
 30
0.0
 10
-161.307
 20
75.7809
 30
0.0
 10
-158.6082
 20
74.1511
 30
0.0
 10
-155.7877
 20
74.3644
 30
0.0
 10
-155.7877
 20
74.3644
 30
0.0
 10
-152.9724
 20
74.7367
 30
0.0
 10
-150.3096
 20
76.0975
 30
0.0
 10
-148.128
 20
78.2787
 30
0.0
 10
-148.128
 20
78.2787
 30
0.0
 10
-146.8785
 20
76.1167
 30
0.0
 10
-145.6579
 20
73.9306
 30
0.0
 10
-144.4665
 20
71.721
 30
0.0
 10
-144.4665
 20
71.721
 30
0.0
 10
-145.5471
 20
72.1168
 30
0.0
 10
-146.708
 20
72.0451
 30
0.0
 10
-147.7492
 20
71.5176
 30
0.0
 10
-147.7492
 20
71.5176
 30
0.0
 10
-148.8324
 20
70.6737
 30
0.0
 10
-149.251
 20
69.0067
 30
0.0
 10
-148.7384
 20
67.5781
 30
0.0
 10
-148.7384
 20
67.5781
 30
0.0
 10
-148.0478
 20
66.2752
 30
0.0
 10
-146.7105
 20
65.7089
 30
0.0
 10
-145.4978
 20
66.2056
 30
0.0
 10
-145.4978
 20
66.2056
 30
0.0
 10
-145.8042
 20
66.6398
 30
0.0
 10
-145.8826
 20
67.2451
 30
0.0
 10
-145.7002
 20
67.7712
 30
0.0
 10
-145.7002
 20
67.7712
 30
0.0
 10
-145.518
 20
68.2977
 30
0.0
 10
-145.1058
 20
68.6556
 30
0.0
 10
-144.6352
 20
68.6963
 30
0.0
 10
-144.6352
 20
68.6963
 30
0.0
 10
-143.7185
 20
68.7425
 30
0.0
 10
-142.8132
 20
68.4404
 30
0.0
 10
-142.0468
 20
67.8323
 30
0.0
 10
-142.0468
 20
67.8323
 30
0.0
 10
-140.9139
 20
66.9287
 30
0.0
 10
-139.812
 20
65.9706
 30
0.0
 10
-138.7431
 20
64.9602
 30
0.0
 10
-138.7431
 20
64.9602
 30
0.0
 10
-134.7315
 20
62.4774
 30
0.0
 10
-129.8519
 20
63.4039
 30
0.0
 10
-126.6643
 20
67.2535
 30
0.0
 10
-126.6643
 20
67.2535
 30
0.0
 10
-126.6643
 20
67.2535
 30
0.0
 10
-126.6643
 20
58.295
 30
0.0
 10
-126.6643
 20
58.295
 30
0.0
  0
SPLINE
  5
74
330
1F
100
AcDbEntity
  8
layer 1
 62
     7
370
     9
100
AcDbSpline
210
0.0
220
0.0
230
1.0
 70
    11
 71
     3
 72
   132
 73
   128
 74
     0
 42
0.0000000001
 43
0.0000000001
 12
1.0
 22
0.0
 32
0.0
 13
1.0
 23
0.0
 33
0.0
 40
0.0
 40
0.0
 40
0.0
 40
0.0
 40
0.0303030303030303
 40
0.0303030303030303
 40
0.0303030303030303
 40
0.0303030303030303
 40
0.0606060606060606
 40
0.0606060606060606
 40
0.0606060606060606
 40
0.0606060606060606
 40
0.0909090909090909
 40
0.0909090909090909
 40
0.0909090909090909
 40
0.0909090909090909
 40
0.1212121212121212
 40
0.1212121212121212
 40
0.1212121212121212
 40
0.1212121212121212
 40
0.1515151515151515
 40
0.1515151515151515
 40
0.1515151515151515
 40
0.1515151515151515
 40
0.1818181818181818
 40
0.1818181818181818
 40
0.1818181818181818
 40
0.1818181818181818
 40
0.2121212121212121
 40
0.2121212121212121
 40
0.2121212121212121
 40
0.2121212121212121
 40
0.2424242424242424
 40
0.2424242424242424
 40
0.2424242424242424
 40
0.2424242424242424
 40
0.2727272727272727
 40
0.2727272727272727
 40
0.2727272727272727
 40
0.2727272727272727
 40
0.303030303030303
 40
0.303030303030303
 40
0.303030303030303
 40
0.303030303030303
 40
0.3333333333333333
 40
0.3333333333333333
 40
0.3333333333333333
 40
0.3333333333333333
 40
0.3636363636363636
 40
0.3636363636363636
 40
0.3636363636363636
 40
0.3636363636363636
 40
0.3939393939393939
 40
0.3939393939393939
 40
0.3939393939393939
 40
0.3939393939393939
 40
0.4242424242424243
 40
0.4242424242424243
 40
0.4242424242424243
 40
0.4242424242424243
 40
0.4545454545454545
 40
0.4545454545454545
 40
0.4545454545454545
 40
0.4545454545454545
 40
0.4848484848484849
 40
0.4848484848484849
 40
0.4848484848484849
 40
0.4848484848484849
 40
0.5151515151515151
 40
0.5151515151515151
 40
0.5151515151515151
 40
0.5151515151515151
 40
0.5454545454545454
 40
0.5454545454545454
 40
0.5454545454545454
 40
0.5454545454545454
 40
0.5757575757575758
 40
0.5757575757575758
 40
0.5757575757575758
 40
0.5757575757575758
 40
0.6060606060606061
 40
0.6060606060606061
 40
0.6060606060606061
 40
0.6060606060606061
 40
0.6363636363636364
 40
0.6363636363636364
 40
0.6363636363636364
 40
0.6363636363636364
 40
0.6666666666666666
 40
0.6666666666666666
 40
0.6666666666666666
 40
0.6666666666666666
 40
0.696969696969697
 40
0.696969696969697
 40
0.696969696969697
 40
0.696969696969697
 40
0.7272727272727273
 40
0.7272727272727273
 40
0.7272727272727273
 40
0.7272727272727273
 40
0.7575757575757576
 40
0.7575757575757576
 40
0.7575757575757576
 40
0.7575757575757576
 40
0.7878787878787878
 40
0.7878787878787878
 40
0.7878787878787878
 40
0.7878787878787878
 40
0.8181818181818182
 40
0.8181818181818182
 40
0.8181818181818182
 40
0.8181818181818182
 40
0.8484848484848485
 40
0.8484848484848485
 40
0.8484848484848485
 40
0.8484848484848485
 40
0.8787878787878788
 40
0.8787878787878788
 40
0.8787878787878788
 40
0.8787878787878788
 40
0.9090909090909091
 40
0.9090909090909091
 40
0.9090909090909091
 40
0.9090909090909091
 40
0.9393939393939394
 40
0.9393939393939394
 40
0.9393939393939394
 40
0.9393939393939394
 40
1.0
 40
1.0
 40
1.0
 40
1.0
 10
-126.6643
 20
81.3797
 30
0.0
 10
-126.6643
 20
81.3797
 30
0.0
 10
-126.6643
 20
88.1745
 30
0.0
 10
-126.6643
 20
88.1745
 30
0.0
 10
-126.6643
 20
88.1745
 30
0.0
 10
-127.2004
 20
87.1886
 30
0.0
 10
-127.9122
 20
86.3607
 30
0.0
 10
-128.7478
 20
85.7512
 30
0.0
 10
-128.7478
 20
85.7512
 30
0.0
 10
-130.704
 20
84.676
 30
0.0
 10
-132.9934
 20
85.0097
 30
0.0
 10
-134.6818
 20
86.6156
 30
0.0
 10
-134.6818
 20
86.6156
 30
0.0
 10
-135.5246
 20
87.4584
 30
0.0
 10
-135.7699
 20
88.8959
 30
0.0
 10
-135.2711
 20
90.0724
 30
0.0
 10
-135.2711
 20
90.0724
 30
0.0
 10
-134.6641
 20
91.2595
 30
0.0
 10
-133.4307
 20
91.7342
 30
0.0
 10
-132.3668
 20
91.1907
 30
0.0
 10
-132.3668
 20
91.1907
 30
0.0
 10
-132.5458
 20
90.7696
 30
0.0
 10
-132.4975
 20
90.2598
 30
0.0
 10
-132.2444
 20
89.8988
 30
0.0
 10
-132.2444
 20
89.8988
 30
0.0
 10
-131.9912
 20
89.5374
 30
0.0
 10
-131.5829
 20
89.3954
 30
0.0
 10
-131.2095
 20
89.5385
 30
0.0
 10
-131.2095
 20
89.5385
 30
0.0
 10
-130.65
 20
89.8385
 30
0.0
 10
-130.2538
 20
90.4601
 30
0.0
 10
-130.1576
 20
91.1907
 30
0.0
 10
-130.1576
 20
91.1907
 30
0.0
 10
-130.0688
 20
92.8684
 30
0.0
 10
-130.8598
 20
94.4333
 30
0.0
 10
-132.1357
 20
95.105
 30
0.0
 10
-132.1357
 20
95.105
 30
0.0
 10
-134.2906
 20
95.6311
 30
0.0
 10
-136.5154
 20
94.7418
 30
0.0
 10
-137.9855
 20
92.7666
 30
0.0
 10
-137.9855
 20
92.7666
 30
0.0
 10
-138.513
 20
91.9401
 30
0.0
 10
-138.6412
 20
90.8389
 30
0.0
 10
-138.322
 20
89.869
 30
0.0
 10
-138.322
 20
89.869
 30
0.0
 10
-137.9301
 20
88.9566
 30
0.0
 10
-137.1016
 20
88.4461
 30
0.0
 10
-136.2602
 20
88.598
 30
0.0
 10
-136.2602
 20
88.598
 30
0.0
 10
-135.9854
 20
87.5831
 30
0.0
 10
-136.2463
 20
86.468
 30
0.0
 10
-136.9204
 20
85.7768
 30
0.0
 10
-136.9204
 20
85.7768
 30
0.0
 10
-137.5943
 20
85.0852
 30
0.0
 10
-138.5472
 20
84.9549
 30
0.0
 10
-139.3321
 20
85.4463
 30
0.0
 10
-139.3321
 20
85.4463
 30
0.0
 10
-140.2653
 20
85.9138
 30
0.0
 10
-141.0482
 20
86.7343
 30
0.0
 10
-141.5629
 20
87.7847
 30
0.0
 10
-141.5629
 20
87.7847
 30
0.0
 10
-142.8409
 20
85.6355
 30
0.0
 10
-144.1352
 20
83.5002
 30
0.0
 10
-145.446
 20
81.3797
 30
0.0
 10
-145.446
 20
81.3797
 30
0.0
 10
-144.1352
 20
79.2592
 30
0.0
 10
-142.8409
 20
77.1238
 30
0.0
 10
-141.5629
 20
74.9746
 30
0.0
 10
-141.5629
 20
74.9746
 30
0.0
 10
-141.0482
 20
76.0251
 30
0.0
 10
-140.2653
 20
76.8455
 30
0.0
 10
-139.3321
 20
77.3127
 30
0.0
 10
-139.3321
 20
77.3127
 30
0.0
 10
-138.5472
 20
77.8044
 30
0.0
 10
-137.5943
 20
77.6738
 30
0.0
 10
-136.9204
 20
76.9825
 30
0.0
 10
-136.9204
 20
76.9825
 30
0.0
 10
-136.2463
 20
76.2914
 30
0.0
 10
-135.9854
 20
75.1763
 30
0.0
 10
-136.2602
 20
74.1613
 30
0.0
 10
-136.2602
 20
74.1613
 30
0.0
 10
-137.1016
 20
74.3133
 30
0.0
 10
-137.9301
 20
73.8024
 30
0.0
 10
-138.322
 20
72.8903
 30
0.0
 10
-138.322
 20
72.8903
 30
0.0
 10
-138.6412
 20
71.9202
 30
0.0
 10
-138.513
 20
70.8189
 30
0.0
 10
-137.9855
 20
69.9929
 30
0.0
 10
-137.9855
 20
69.9929
 30
0.0
 10
-136.5154
 20
68.0175
 30
0.0
 10
-134.2906
 20
67.1283
 30
0.0
 10
-132.1357
 20
67.6544
 30
0.0
 10
-132.1357
 20
67.6544
 30
0.0
 10
-130.8598
 20
68.3261
 30
0.0
 10
-130.0688
 20
69.8909
 30
0.0
 10
-130.1576
 20
71.5687
 30
0.0
 10
-130.1576
 20
71.5687
 30
0.0
 10
-130.2538
 20
72.2989
 30
0.0
 10
-130.65
 20
72.9209
 30
0.0
 10
-131.2095
 20
73.2205
 30
0.0
 10
-131.2095
 20
73.2205
 30
0.0
 10
-131.5829
 20
73.3639
 30
0.0
 10
-131.9912
 20
73.2219
 30
0.0
 10
-132.2444
 20
72.8606
 30
0.0
 10
-132.2444
 20
72.8606
 30
0.0
 10
-132.4975
 20
72.4992
 30
0.0
 10
-132.5458
 20
71.9897
 30
0.0
 10
-132.3668
 20
71.5687
 30
0.0
 10
-132.3668
 20
71.5687
 30
0.0
 10
-133.4307
 20
71.0248
 30
0.0
 10
-134.6641
 20
71.4998
 30
0.0
 10
-135.2711
 20
72.687
 30
0.0
 10
-135.2711
 20
72.687
 30
0.0
 10
-135.7699
 20
73.8635
 30
0.0
 10
-135.5246
 20
75.3009
 30
0.0
 10
-134.6818
 20
76.1437
 30
0.0
 10
-134.6818
 20
76.1437
 30
0.0
 10
-132.9934
 20
77.7498
 30
0.0
 10
-130.704
 20
78.0831
 30
0.0
 10
-128.7478
 20
77.0078
 30
0.0
 10
-128.7478
 20
77.0078
 30
0.0
 10
-127.9122
 20
76.3982
 30
0.0
 10
-127.2004
 20
75.5704
 30
0.0
 10
-126.6643
 20
74.5849
 30
0.0
 10
-126.6643
 20
74.5849
 30
0.0
 10
-126.6643
 20
74.5849
 30
0.0
 10
-126.6643
 20
81.3797
 30
0.0
 10
-126.6643
 20
81.3797
 30
0.0
  0
SPLINE
  5
75
330
1F
100
AcDbEntity
  8
layer 1
 62
     7
370
     9
100
AcDbSpline
210
0.0
220
0.0
230
1.0
 70
    11
 71
     3
 72
    28
 73
    24
 74
     0
 42
0.0000000001
 43
0.0000000001
 12
1.0
 22
0.0
 32
0.0
 13
1.0
 23
0.0
 33
0.0
 40
0.0
 40
0.0
 40
0.0
 40
0.0
 40
0.1428571428571428
 40
0.1428571428571428
 40
0.1428571428571428
 40
0.1428571428571428
 40
0.2857142857142857
 40
0.2857142857142857
 40
0.2857142857142857
 40
0.2857142857142857
 40
0.4285714285714285
 40
0.4285714285714285
 40
0.4285714285714285
 40
0.4285714285714285
 40
0.5714285714285714
 40
0.5714285714285714
 40
0.5714285714285714
 40
0.5714285714285714
 40
0.7142857142857143
 40
0.7142857142857143
 40
0.7142857142857143
 40
0.7142857142857143
 40
1.0
 40
1.0
 40
1.0
 40
1.0
 10
-152.7996
 20
78.9397
 30
0.0
 10
-154.8136
 20
77.7068
 30
0.0
 10
-157.1964
 20
77.7259
 30
0.0
 10
-159.1964
 20
78.9905
 30
0.0
 10
-159.1964
 20
78.9905
 30
0.0
 10
-159.8344
 20
79.5351
 30
0.0
 10
-160.1958
 20
80.4374
 30
0.0
 10
-160.1539
 20
81.3797
 30
0.0
 10
-160.1539
 20
81.3797
 30
0.0
 10
-160.1958
 20
82.3219
 30
0.0
 10
-159.8344
 20
83.2239
 30
0.0
 10
-159.1964
 20
83.7689
 30
0.0
 10
-159.1964
 20
83.7689
 30
0.0
 10
-157.1964
 20
85.0334
 30
0.0
 10
-154.8136
 20
85.0522
 30
0.0
 10
-152.7996
 20
83.8197
 30
0.0
 10
-152.7996
 20
83.8197
 30
0.0
 10
-151.9405
 20
83.0028
 30
0.0
 10
-151.0793
 20
82.1894
 30
0.0
 10
-150.2158
 20
81.3797
 30
0.0
 10
-150.2158
 20
81.3797
 30
0.0
 10
-151.0793
 20
80.5696
 30
0.0
 10
-151.9405
 20
79.7563
 30
0.0
 10
-152.7996
 20
78.9397
 30
0.0
  0
SPLINE
  5
76
330
1F
100
AcDbEntity
  8
layer 1
 62
     7
370
     9
100
AcDbSpline
210
0.0
220
0.0
230
1.0
 70
    11
 71
     3
 72
   188
 73
   184
 74
     0
 42
0.0000000001
 43
0.0000000001
 12
1.0
 22
0.0
 32
0.0
 13
1.0
 23
0.0
 33
0.0
 40
0.0
 40
0.0
 40
0.0
 40
0.0
 40
0.0212765957446809
 40
0.0212765957446809
 40
0.0212765957446809
 40
0.0212765957446809
 40
0.0425531914893617
 40
0.0425531914893617
 40
0.0425531914893617
 40
0.0425531914893617
 40
0.0638297872340425
 40
0.0638297872340425
 40
0.0638297872340425
 40
0.0638297872340425
 40
0.0851063829787234
 40
0.0851063829787234
 40
0.0851063829787234
 40
0.0851063829787234
 40
0.1063829787234043
 40
0.1063829787234043
 40
0.1063829787234043
 40
0.1063829787234043
 40
0.1276595744680851
 40
0.1276595744680851
 40
0.1276595744680851
 40
0.1276595744680851
 40
0.148936170212766
 40
0.148936170212766
 40
0.148936170212766
 40
0.148936170212766
 40
0.1702127659574468
 40
0.1702127659574468
 40
0.1702127659574468
 40
0.1702127659574468
 40
0.1914893617021277
 40
0.1914893617021277
 40
0.1914893617021277
 40
0.1914893617021277
 40
0.2127659574468085
 40
0.2127659574468085
 40
0.2127659574468085
 40
0.2127659574468085
 40
0.2340425531914894
 40
0.2340425531914894
 40
0.2340425531914894
 40
0.2340425531914894
 40
0.2553191489361702
 40
0.2553191489361702
 40
0.2553191489361702
 40
0.2553191489361702
 40
0.2765957446808511
 40
0.2765957446808511
 40
0.2765957446808511
 40
0.2765957446808511
 40
0.2978723404255319
 40
0.2978723404255319
 40
0.2978723404255319
 40
0.2978723404255319
 40
0.3191489361702128
 40
0.3191489361702128
 40
0.3191489361702128
 40
0.3191489361702128
 40
0.3404255319148936
 40
0.3404255319148936
 40
0.3404255319148936
 40
0.3404255319148936
 40
0.3617021276595745
 40
0.3617021276595745
 40
0.3617021276595745
 40
0.3617021276595745
 40
0.3829787234042553
 40
0.3829787234042553
 40
0.3829787234042553
 40
0.3829787234042553
 40
0.4042553191489361
 40
0.4042553191489361
 40
0.4042553191489361
 40
0.4042553191489361
 40
0.425531914893617
 40
0.425531914893617
 40
0.425531914893617
 40
0.425531914893617
 40
0.4468085106382979
 40
0.4468085106382979
 40
0.4468085106382979
 40
0.4468085106382979
 40
0.4680851063829787
 40
0.4680851063829787
 40
0.4680851063829787
 40
0.4680851063829787
 40
0.4893617021276596
 40
0.4893617021276596
 40
0.4893617021276596
 40
0.4893617021276596
 40
0.5106382978723404
 40
0.5106382978723404
 40
0.5106382978723404
 40
0.5106382978723404
 40
0.5319148936170213
 40
0.5319148936170213
 40
0.5319148936170213
 40
0.5319148936170213
 40
0.5531914893617021
 40
0.5531914893617021
 40
0.5531914893617021
 40
0.5531914893617021
 40
0.574468085106383
 40
0.574468085106383
 40
0.574468085106383
 40
0.574468085106383
 40
0.5957446808510638
 40
0.5957446808510638
 40
0.5957446808510638
 40
0.5957446808510638
 40
0.6170212765957447
 40
0.6170212765957447
 40
0.6170212765957447
 40
0.6170212765957447
 40
0.6382978723404256
 40
0.6382978723404256
 40
0.6382978723404256
 40
0.6382978723404256
 40
0.6595744680851063
 40
0.6595744680851063
 40
0.6595744680851063
 40
0.6595744680851063
 40
0.6808510638297872
 40
0.6808510638297872
 40
0.6808510638297872
 40
0.6808510638297872
 40
0.7021276595744681
 40
0.7021276595744681
 40
0.7021276595744681
 40
0.7021276595744681
 40
0.723404255319149
 40
0.723404255319149
 40
0.723404255319149
 40
0.723404255319149
 40
0.7446808510638298
 40
0.7446808510638298
 40
0.7446808510638298
 40
0.7446808510638298
 40
0.7659574468085106
 40
0.7659574468085106
 40
0.7659574468085106
 40
0.7659574468085106
 40
0.7872340425531915
 40
0.7872340425531915
 40
0.7872340425531915
 40
0.7872340425531915
 40
0.8085106382978723
 40
0.8085106382978723
 40
0.8085106382978723
 40
0.8085106382978723
 40
0.8297872340425532
 40
0.8297872340425532
 40
0.8297872340425532
 40
0.8297872340425532
 40
0.851063829787234
 40
0.851063829787234
 40
0.851063829787234
 40
0.851063829787234
 40
0.8723404255319149
 40
0.8723404255319149
 40
0.8723404255319149
 40
0.8723404255319149
 40
0.8936170212765957
 40
0.8936170212765957
 40
0.8936170212765957
 40
0.8936170212765957
 40
0.9148936170212766
 40
0.9148936170212766
 40
0.9148936170212766
 40
0.9148936170212766
 40
0.9361702127659575
 40
0.9361702127659575
 40
0.9361702127659575
 40
0.9361702127659575
 40
0.9574468085106383
 40
0.9574468085106383
 40
0.9574468085106383
 40
0.9574468085106383
 40
1.0
 40
1.0
 40
1.0
 40
1.0
 10
-126.6643
 20
95.5058
 30
0.0
 10
-129.8519
 20
99.3555
 30
0.0
 10
-134.7315
 20
100.2817
 30
0.0
 10
-138.7431
 20
97.7991
 30
0.0
 10
-138.7431
 20
97.7991
 30
0.0
 10
-139.812
 20
96.7884
 30
0.0
 10
-140.9139
 20
95.8302
 30
0.0
 10
-142.0468
 20
94.9271
 30
0.0
 10
-142.0468
 20
94.9271
 30
0.0
 10
-142.8132
 20
94.319
 30
0.0
 10
-143.7185
 20
94.0165
 30
0.0
 10
-144.6352
 20
94.0627
 30
0.0
 10
-144.6352
 20
94.0627
 30
0.0
 10
-145.1058
 20
94.1039
 30
0.0
 10
-145.518
 20
94.4617
 30
0.0
 10
-145.7002
 20
94.9878
 30
0.0
 10
-145.7002
 20
94.9878
 30
0.0
 10
-145.8826
 20
95.5143
 30
0.0
 10
-145.8042
 20
96.1196
 30
0.0
 10
-145.4978
 20
96.5538
 30
0.0
 10
-145.4978
 20
96.5538
 30
0.0
 10
-146.7105
 20
97.0504
 30
0.0
 10
-148.0478
 20
96.4842
 30
0.0
 10
-148.7384
 20
95.1813
 30
0.0
 10
-148.7384
 20
95.1813
 30
0.0
 10
-149.251
 20
93.7524
 30
0.0
 10
-148.8324
 20
92.0856
 30
0.0
 10
-147.7492
 20
91.2414
 30
0.0
 10
-147.7492
 20
91.2414
 30
0.0
 10
-146.708
 20
90.7143
 30
0.0
 10
-145.5471
 20
90.6425
 30
0.0
 10
-144.4665
 20
91.038
 30
0.0
 10
-144.4665
 20
91.038
 30
0.0
 10
-145.6579
 20
88.8288
 30
0.0
 10
-146.8785
 20
86.6426
 30
0.0
 10
-148.128
 20
84.4806
 30
0.0
 10
-148.128
 20
84.4806
 30
0.0
 10
-150.3096
 20
86.6618
 30
0.0
 10
-152.9724
 20
88.0226
 30
0.0
 10
-155.7877
 20
88.3946
 30
0.0
 10
-155.7877
 20
88.3946
 30
0.0
 10
-158.6082
 20
88.608
 30
0.0
 10
-161.307
 20
86.9781
 30
0.0
 10
-162.858
 20
84.1246
 30
0.0
 10
-162.858
 20
84.1246
 30
0.0
 10
-162.858
 20
84.1246
 30
0.0
 10
-162.858
 20
95.0034
 30
0.0
 10
-162.858
 20
95.0034
 30
0.0
 10
-162.858
 20
95.0034
 30
0.0
 10
-162.8417
 20
95.6084
 30
0.0
 10
-162.6212
 20
96.1789
 30
0.0
 10
-162.2474
 20
96.5821
 30
0.0
 10
-162.2474
 20
96.5821
 30
0.0
 10
-161.8735
 20
96.9858
 30
0.0
 10
-161.3794
 20
97.1867
 30
0.0
 10
-160.8799
 20
97.1384
 30
0.0
 10
-160.8799
 20
97.1384
 30
0.0
 10
-160.5221
 20
97.1143
 30
0.0
 10
-160.1948
 20
96.8882
 30
0.0
 10
-159.996
 20
96.5282
 30
0.0
 10
-159.996
 20
96.5282
 30
0.0
 10
-159.7975
 20
96.1682
 30
0.0
 10
-159.7506
 20
95.7163
 30
0.0
 10
-159.87
 20
95.3084
 30
0.0
 10
-159.87
 20
95.3084
 30
0.0
 10
-159.5902
 20
94.5273
 30
0.0
 10
-159.0062
 20
93.9665
 30
0.0
 10
-158.3129
 20
93.8134
 30
0.0
 10
-158.3129
 20
93.8134
 30
0.0
 10
-157.6199
 20
93.6601
 30
0.0
 10
-156.9096
 20
93.9352
 30
0.0
 10
-156.4189
 20
94.5458
 30
0.0
 10
-156.4189
 20
94.5458
 30
0.0
 10
-156.1736
 20
94.9416
 30
0.0
 10
-156.0792
 20
95.4451
 30
0.0
 10
-156.1594
 20
95.93
 30
0.0
 10
-156.1594
 20
95.93
 30
0.0
 10
-156.24
 20
96.415
 30
0.0
 10
-156.487
 20
96.836
 30
0.0
 10
-156.8396
 20
97.0873
 30
0.0
 10
-156.8396
 20
97.0873
 30
0.0
 10
-156.0675
 20
97.2499
 30
0.0
 10
-155.367
 20
97.7359
 30
0.0
 10
-154.8618
 20
98.4601
 30
0.0
 10
-154.8618
 20
98.4601
 30
0.0
 10
-154.2768
 20
98.9529
 30
0.0
 10
-153.5945
 20
99.2508
 30
0.0
 10
-152.8838
 20
99.3243
 30
0.0
 10
-152.8838
 20
99.3243
 30
0.0
 10
-152.8838
 20
99.3243
 30
0.0
 10
-152.8838
 20
100.646
 30
0.0
 10
-152.8838
 20
100.646
 30
0.0
 10
-152.8838
 20
100.646
 30
0.0
 10
-153.5945
 20
100.719
 30
0.0
 10
-154.2768
 20
101.0173
 30
0.0
 10
-154.8618
 20
101.51
 30
0.0
 10
-154.8618
 20
101.51
 30
0.0
 10
-155.367
 20
102.2338
 30
0.0
 10
-156.0675
 20
102.7199
 30
0.0
 10
-156.8396
 20
102.8825
 30
0.0
 10
-156.8396
 20
102.8825
 30
0.0
 10
-156.487
 20
103.1342
 30
0.0
 10
-156.24
 20
103.5548
 30
0.0
 10
-156.1594
 20
104.0398
 30
0.0
 10
-156.1594
 20
104.0398
 30
0.0
 10
-156.0792
 20
104.5251
 30
0.0
 10
-156.1736
 20
105.0285
 30
0.0
 10
-156.4189
 20
105.4244
 30
0.0
 10
-156.4189
 20
105.4244
 30
0.0
 10
-156.9096
 20
106.0349
 30
0.0
 10
-157.6199
 20
106.3097
 30
0.0
 10
-158.3129
 20
106.1567
 30
0.0
 10
-158.3129
 20
106.1567
 30
0.0
 10
-159.0062
 20
106.0033
 30
0.0
 10
-159.5902
 20
105.4428
 30
0.0
 10
-159.87
 20
104.6618
 30
0.0
 10
-159.87
 20
104.6618
 30
0.0
 10
-159.7506
 20
104.2538
 30
0.0
 10
-159.7975
 20
103.802
 30
0.0
 10
-159.996
 20
103.4416
 30
0.0
 10
-159.996
 20
103.4416
 30
0.0
 10
-160.1948
 20
103.0817
 30
0.0
 10
-160.5221
 20
102.8558
 30
0.0
 10
-160.8799
 20
102.8317
 30
0.0
 10
-160.8799
 20
102.8317
 30
0.0
 10
-161.3794
 20
102.7834
 30
0.0
 10
-161.8735
 20
102.9843
 30
0.0
 10
-162.2474
 20
103.3877
 30
0.0
 10
-162.2474
 20
103.3877
 30
0.0
 10
-162.6212
 20
103.7913
 30
0.0
 10
-162.8417
 20
104.3618
 30
0.0
 10
-162.858
 20
104.9667
 30
0.0
 10
-162.858
 20
104.9667
 30
0.0
 10
-162.858
 20
104.9667
 30
0.0
 10
-162.858
 20
115.8455
 30
0.0
 10
-162.858
 20
115.8455
 30
0.0
 10
-162.858
 20
115.8455
 30
0.0
 10
-161.307
 20
112.992
 30
0.0
 10
-158.6082
 20
111.3622
 30
0.0
 10
-155.7877
 20
111.5752
 30
0.0
 10
-155.7877
 20
111.5752
 30
0.0
 10
-152.9724
 20
111.9475
 30
0.0
 10
-150.3096
 20
113.3083
 30
0.0
 10
-148.128
 20
115.4895
 30
0.0
 10
-148.128
 20
115.4895
 30
0.0
 10
-146.8785
 20
113.3275
 30
0.0
 10
-145.6579
 20
111.1414
 30
0.0
 10
-144.4665
 20
108.9318
 30
0.0
 10
-144.4665
 20
108.9318
 30
0.0
 10
-145.5471
 20
109.3276
 30
0.0
 10
-146.708
 20
109.2555
 30
0.0
 10
-147.7492
 20
108.7284
 30
0.0
 10
-147.7492
 20
108.7284
 30
0.0
 10
-148.8324
 20
107.8845
 30
0.0
 10
-149.251
 20
106.2174
 30
0.0
 10
-148.7384
 20
104.7889
 30
0.0
 10
-148.7384
 20
104.7889
 30
0.0
 10
-148.0478
 20
103.486
 30
0.0
 10
-146.7105
 20
102.9197
 30
0.0
 10
-145.4978
 20
103.4164
 30
0.0
 10
-145.4978
 20
103.4164
 30
0.0
 10
-145.8042
 20
103.8506
 30
0.0
 10
-145.8826
 20
104.4559
 30
0.0
 10
-145.7002
 20
104.982
 30
0.0
 10
-145.7002
 20
104.982
 30
0.0
 10
-145.518
 20
105.5085
 30
0.0
 10
-145.1058
 20
105.8659
 30
0.0
 10
-144.6352
 20
105.9071
 30
0.0
 10
-144.6352
 20
105.9071
 30
0.0
 10
-143.7185
 20
105.9533
 30
0.0
 10
-142.8132
 20
105.6512
 30
0.0
 10
-142.0468
 20
105.0431
 30
0.0
 10
-142.0468
 20
105.0431
 30
0.0
 10
-140.9139
 20
104.1396
 30
0.0
 10
-139.812
 20
103.1814
 30
0.0
 10
-138.7431
 20
102.171
 30
0.0
 10
-138.7431
 20
102.171
 30
0.0
 10
-134.7315
 20
99.6881
 30
0.0
 10
-129.8519
 20
100.6147
 30
0.0
 10
-126.6643
 20
104.4643
 30
0.0
 10
-126.6643
 20
104.4643
 30
0.0
 10
-126.6643
 20
104.4643
 30
0.0
 10
-126.6643
 20
95.5058
 30
0.0
 10
-126.6643
 20
95.5058
 30
0.0
  0
SPLINE
  5
77
330
1F
100
AcDbEntity
  8
layer 1
 62
     7
370
     9
100
AcDbSpline
210
0.0
220
0.0
230
1.0
 70
    11
 71
     3
 72
    40
 73
    36
 74
     0
 42
0.0000000001
 43
0.0000000001
 12
1.0
 22
0.0
 32
0.0
 13
1.0
 23
0.0
 33
0.0
 40
0.0
 40
0.0
 40
0.0
 40
0.0
 40
0.1
 40
0.1
 40
0.1
 40
0.1
 40
0.2
 40
0.2
 40
0.2
 40
0.2
 40
0.3
 40
0.3
 40
0.3
 40
0.3
 40
0.4
 40
0.4
 40
0.4
 40
0.4
 40
0.5
 40
0.5
 40
0.5
 40
0.5
 40
0.6
 40
0.6
 40
0.6
 40
0.6
 40
0.7
 40
0.7
 40
0.7
 40
0.7
 40
0.8
 40
0.8
 40
0.8
 40
0.8
 40
1.0
 40
1.0
 40
1.0
 40
1.0
 10
-175.5679
 20
34.9064
 30
0.0
 10
-175.8123
 20
33.3912
 30
0.0
 10
-176.8436
 20
32.2439
 30
0.0
 10
-178.1141
 20
32.0745
 30
0.0
 10
-178.1141
 20
32.0745
 30
0.0
 10
-178.0598
 20
30.9492
 30
0.0
 10
-178.6249
 20
29.915
 30
0.0
 10
-179.5029
 20
29.5327
 30
0.0
 10
-179.5029
 20
29.5327
 30
0.0
 10
-179.4049
 20
24.3485
 30
0.0
 10
-179.363
 20
19.1628
 30
0.0
 10
-179.3765
 20
13.9773
 30
0.0
 10
-179.3765
 20
13.9773
 30
0.0
 10
-177.4027
 20
13.2109
 30
0.0
 10
-175.6411
 20
11.8039
 30
0.0
 10
-174.2843
 20
9.9107
 30
0.0
 10
-174.2843
 20
9.9107
 30
0.0
 10
-173.0932
 20
15.0213
 30
0.0
 10
-171.1936
 20
19.8516
 30
0.0
 10
-168.6659
 20
24.1951
 30
0.0
 10
-168.6659
 20
24.1951
 30
0.0
 10
-168.6659
 20
24.1951
 30
0.0
 10
-168.6659
 20
47.2187
 30
0.0
 10
-168.6659
 20
47.2187
 30
0.0
 10
-168.6659
 20
47.2187
 30
0.0
 10
-169.0209
 20
46.4995
 30
0.0
 10
-169.5496
 20
45.9283
 30
0.0
 10
-170.1811
 20
45.5814
 30
0.0
 10
-170.1811
 20
45.5814
 30
0.0
 10
-169.791
 20
43.1476
 30
0.0
 10
-170.7881
 20
40.6973
 30
0.0
 10
-172.6217
 20
39.5833
 30
0.0
 10
-172.6217
 20
39.5833
 30
0.0
 10
-172.5234
 20
37.3634
 30
0.0
 10
-173.7703
 20
35.3839
 30
0.0
 10
-175.5679
 20
34.9064
 30
0.0
  0
SPLINE
  5
78
330
1F
100
AcDbEntity
  8
layer 1
 62
     7
370
     9
100
AcDbSpline
210
0.0
220
0.0
230
1.0
 70
    11
 71
     3
 72
    48
 73
    44
 74
     0
 42
0.0000000001
 43
0.0000000001
 12
1.0
 22
0.0
 32
0.0
 13
1.0
 23
0.0
 33
0.0
 40
0.0
 40
0.0
 40
0.0
 40
0.0
 40
0.0833333333333333
 40
0.0833333333333333
 40
0.0833333333333333
 40
0.0833333333333333
 40
0.1666666666666667
 40
0.1666666666666667
 40
0.1666666666666667
 40
0.1666666666666667
 40
0.25
 40
0.25
 40
0.25
 40
0.25
 40
0.3333333333333333
 40
0.3333333333333333
 40
0.3333333333333333
 40
0.3333333333333333
 40
0.4166666666666667
 40
0.4166666666666667
 40
0.4166666666666667
 40
0.4166666666666667
 40
0.5
 40
0.5
 40
0.5
 40
0.5
 40
0.5833333333333334
 40
0.5833333333333334
 40
0.5833333333333334
 40
0.5833333333333334
 40
0.6666666666666666
 40
0.6666666666666666
 40
0.6666666666666666
 40
0.6666666666666666
 40
0.75
 40
0.75
 40
0.75
 40
0.75
 40
0.8333333333333334
 40
0.8333333333333334
 40
0.8333333333333334
 40
0.8333333333333334
 40
1.0
 40
1.0
 40
1.0
 40
1.0
 10
-179.4291
 20
46.0245
 30
0.0
 10
-179.4291
 20
46.0245
 30
0.0
 10
-179.3765
 20
36.0609
 30
0.0
 10
-179.3765
 20
36.0609
 30
0.0
 10
-179.3765
 20
36.0609
 30
0.0
 10
-179.0502
 20
35.6593
 30
0.0
 10
-178.7091
 20
35.2759
 30
0.0
 10
-178.3533
 20
34.9127
 30
0.0
 10
-178.3533
 20
34.9127
 30
0.0
 10
-173.6254
 20
40.823
 30
0.0
 10
-171.0377
 20
48.7619
 30
0.0
 10
-171.161
 20
56.9789
 30
0.0
 10
-171.161
 20
56.9789
 30
0.0
 10
-171.3562
 20
65.1438
 30
0.0
 10
-173.913
 20
72.9677
 30
0.0
 10
-178.3875
 20
79.092
 30
0.0
 10
-178.3875
 20
79.092
 30
0.0
 10
-178.7688
 20
78.7076
 30
0.0
 10
-179.134
 20
78.3003
 30
0.0
 10
-179.4819
 20
77.8722
 30
0.0
 10
-179.4819
 20
77.8722
 30
0.0
 10
-179.4819
 20
77.8722
 30
0.0
 10
-179.4819
 20
67.921
 30
0.0
 10
-179.4819
 20
67.921
 30
0.0
 10
-179.4819
 20
67.921
 30
0.0
 10
-178.5494
 20
67.2486
 30
0.0
 10
-177.9782
 20
66.0334
 30
0.0
 10
-177.9782
 20
64.7216
 30
0.0
 10
-177.9782
 20
64.7216
 30
0.0
 10
-177.9782
 20
63.4099
 30
0.0
 10
-178.5494
 20
62.1948
 30
0.0
 10
-179.4819
 20
61.5224
 30
0.0
 10
-179.4819
 20
61.5224
 30
0.0
 10
-179.4819
 20
61.5224
 30
0.0
 10
-179.4819
 20
52.4359
 30
0.0
 10
-179.4819
 20
52.4359
 30
0.0
 10
-179.4819
 20
52.4359
 30
0.0
 10
-178.5419
 20
51.7735
 30
0.0
 10
-177.9597
 20
50.5625
 30
0.0
 10
-177.9487
 20
49.2484
 30
0.0
 10
-177.9487
 20
49.2484
 30
0.0
 10
-177.938
 20
47.9337
 30
0.0
 10
-178.5004
 20
46.7093
 30
0.0
 10
-179.4291
 20
46.0245
 30
0.0
  0
SPLINE
  5
79
330
1F
100
AcDbEntity
  8
layer 1
 62
     7
370
     9
100
AcDbSpline
210
0.0
220
0.0
230
1.0
 70
    11
 71
     3
 72
    48
 73
    44
 74
     0
 42
0.0000000001
 43
0.0000000001
 12
1.0
 22
0.0
 32
0.0
 13
1.0
 23
0.0
 33
0.0
 40
0.0
 40
0.0
 40
0.0
 40
0.0
 40
0.0833333333333333
 40
0.0833333333333333
 40
0.0833333333333333
 40
0.0833333333333333
 40
0.1666666666666667
 40
0.1666666666666667
 40
0.1666666666666667
 40
0.1666666666666667
 40
0.25
 40
0.25
 40
0.25
 40
0.25
 40
0.3333333333333333
 40
0.3333333333333333
 40
0.3333333333333333
 40
0.3333333333333333
 40
0.4166666666666667
 40
0.4166666666666667
 40
0.4166666666666667
 40
0.4166666666666667
 40
0.5
 40
0.5
 40
0.5
 40
0.5
 40
0.5833333333333334
 40
0.5833333333333334
 40
0.5833333333333334
 40
0.5833333333333334
 40
0.6666666666666666
 40
0.6666666666666666
 40
0.6666666666666666
 40
0.6666666666666666
 40
0.75
 40
0.75
 40
0.75
 40
0.75
 40
0.8333333333333334
 40
0.8333333333333334
 40
0.8333333333333334
 40
0.8333333333333334
 40
1.0
 40
1.0
 40
1.0
 40
1.0
 10
-179.4819
 20
115.502
 30
0.0
 10
-178.5494
 20
114.8295
 30
0.0
 10
-177.9782
 20
113.6147
 30
0.0
 10
-177.9782
 20
112.3026
 30
0.0
 10
-177.9782
 20
112.3026
 30
0.0
 10
-177.9782
 20
110.9908
 30
0.0
 10
-178.5494
 20
109.7757
 30
0.0
 10
-179.4819
 20
109.1033
 30
0.0
 10
-179.4819
 20
109.1033
 30
0.0
 10
-179.4819
 20
109.1033
 30
0.0
 10
-179.4819
 20
100.0168
 30
0.0
 10
-179.4819
 20
100.0168
 30
0.0
 10
-179.4819
 20
100.0168
 30
0.0
 10
-178.5494
 20
99.3445
 30
0.0
 10
-177.9782
 20
98.1293
 30
0.0
 10
-177.9782
 20
96.8175
 30
0.0
 10
-177.9782
 20
96.8175
 30
0.0
 10
-177.9782
 20
95.5058
 30
0.0
 10
-178.5494
 20
94.2905
 30
0.0
 10
-179.4819
 20
93.6182
 30
0.0
 10
-179.4819
 20
93.6182
 30
0.0
 10
-179.4819
 20
93.6182
 30
0.0
 10
-179.4819
 20
83.667
 30
0.0
 10
-179.4819
 20
83.667
 30
0.0
 10
-179.4819
 20
83.667
 30
0.0
 10
-179.134
 20
83.2388
 30
0.0
 10
-178.7688
 20
82.8317
 30
0.0
 10
-178.3875
 20
82.4472
 30
0.0
 10
-178.3875
 20
82.4472
 30
0.0
 10
-173.913
 20
88.5714
 30
0.0
 10
-171.3562
 20
96.3955
 30
0.0
 10
-171.161
 20
104.5602
 30
0.0
 10
-171.161
 20
104.5602
 30
0.0
 10
-171.277
 20
109.4217
 30
0.0
 10
-172.2323
 20
114.2005
 30
0.0
 10
-173.9652
 20
118.5905
 30
0.0
 10
-173.9652
 20
118.5905
 30
0.0
 10
-173.9652
 20
118.5905
 30
0.0
 10
-179.4819
 20
118.5905
 30
0.0
 10
-179.4819
 20
118.5905
 30
0.0
 10
-179.4819
 20
118.5905
 30
0.0
 10
-179.4819
 20
118.5905
 30
0.0
 10
-179.4819
 20
115.502
 30
0.0
 10
-179.4819
 20
115.502
 30
0.0
  0
SPLINE
  5
7A
330
1F
100
AcDbEntity
  8
layer 1
 62
     7
370
     9
100
AcDbSpline
210
0.0
220
0.0
230
1.0
 70
    11
 71
     3
 72
    44
 73
    40
 74
     0
 42
0.0000000001
 43
0.0000000001
 12
1.0
 22
0.0
 32
0.0
 13
1.0
 23
0.0
 33
0.0
 40
0.0
 40
0.0
 40
0.0
 40
0.0
 40
0.0909090909090909
 40
0.0909090909090909
 40
0.0909090909090909
 40
0.0909090909090909
 40
0.1818181818181818
 40
0.1818181818181818
 40
0.1818181818181818
 40
0.1818181818181818
 40
0.2727272727272727
 40
0.2727272727272727
 40
0.2727272727272727
 40
0.2727272727272727
 40
0.3636363636363636
 40
0.3636363636363636
 40
0.3636363636363636
 40
0.3636363636363636
 40
0.4545454545454545
 40
0.4545454545454545
 40
0.4545454545454545
 40
0.4545454545454545
 40
0.5454545454545454
 40
0.5454545454545454
 40
0.5454545454545454
 40
0.5454545454545454
 40
0.6363636363636364
 40
0.6363636363636364
 40
0.6363636363636364
 40
0.6363636363636364
 40
0.7272727272727273
 40
0.7272727272727273
 40
0.7272727272727273
 40
0.7272727272727273
 40
0.8181818181818182
 40
0.8181818181818182
 40
0.8181818181818182
 40
0.8181818181818182
 40
1.0
 40
1.0
 40
1.0
 40
1.0
 10
-168.5815
 20
80.7694
 30
0.0
 10
-168.5815
 20
80.7694
 30
0.0
 10
-168.5815
 20
96.3865
 30
0.0
 10
-168.5815
 20
96.3865
 30
0.0
 10
-168.5815
 20
96.3865
 30
0.0
 10
-168.9368
 20
95.667
 30
0.0
 10
-169.4654
 20
95.0957
 30
0.0
 10
-170.0966
 20
94.7492
 30
0.0
 10
-170.0966
 20
94.7492
 30
0.0
 10
-169.7068
 20
92.3149
 30
0.0
 10
-170.704
 20
89.8647
 30
0.0
 10
-172.5376
 20
88.7507
 30
0.0
 10
-172.5376
 20
88.7507
 30
0.0
 10
-172.4393
 20
86.5308
 30
0.0
 10
-173.6861
 20
84.5513
 30
0.0
 10
-175.4838
 20
84.0738
 30
0.0
 10
-175.4838
 20
84.0738
 30
0.0
 10
-175.6
 20
82.6552
 30
0.0
 10
-176.3103
 20
81.4077
 30
0.0
 10
-177.3657
 20
80.7694
 30
0.0
 10
-177.3657
 20
80.7694
 30
0.0
 10
-176.3103
 20
80.1315
 30
0.0
 10
-175.6
 20
78.884
 30
0.0
 10
-175.4838
 20
77.4654
 30
0.0
 10
-175.4838
 20
77.4654
 30
0.0
 10
-173.6861
 20
76.9879
 30
0.0
 10
-172.4393
 20
75.0083
 30
0.0
 10
-172.5376
 20
72.7885
 30
0.0
 10
-172.5376
 20
72.7885
 30
0.0
 10
-170.704
 20
71.6745
 30
0.0
 10
-169.7068
 20
69.2242
 30
0.0
 10
-170.0966
 20
66.7903
 30
0.0
 10
-170.0966
 20
66.7903
 30
0.0
 10
-169.4654
 20
66.4435
 30
0.0
 10
-168.9368
 20
65.8723
 30
0.0
 10
-168.5815
 20
65.1531
 30
0.0
 10
-168.5815
 20
65.1531
 30
0.0
 10
-168.5815
 20
65.1531
 30
0.0
 10
-168.5815
 20
80.7694
 30
0.0
 10
-168.5815
 20
80.7694
 30
0.0
  0
SPLINE
  5
7B
330
1F
100
AcDbEntity
  8
layer 1
 62
     7
370
     9
100
AcDbSpline
210
0.0
220
0.0
230
1.0
 70
    11
 71
     3
 72
    20
 73
    16
 74
     0
 42
0.0000000001
 43
0.0000000001
 12
1.0
 22
0.0
 32
0.0
 13
1.0
 23
0.0
 33
0.0
 40
0.0
 40
0.0
 40
0.0
 40
0.0
 40
0.2
 40
0.2
 40
0.2
 40
0.2
 40
0.4
 40
0.4
 40
0.4
 40
0.4
 40
0.6
 40
0.6
 40
0.6
 40
0.6
 40
1.0
 40
1.0
 40
1.0
 40
1.0
 10
-168.5815
 20
112.9331
 30
0.0
 10
-168.9361
 20
114.0691
 30
0.0
 10
-169.5577
 20
115.0546
 30
0.0
 10
-170.3703
 20
115.7692
 30
0.0
 10
-170.3703
 20
115.7692
 30
0.0
 10
-169.9446
 20
116.6355
 30
0.0
 10
-169.961
 20
117.7179
 30
0.0
 10
-170.4123
 20
118.5649
 30
0.0
 10
-170.4123
 20
118.5649
 30
0.0
 10
-170.4123
 20
118.5649
 30
0.0
 10
-168.5815
 20
118.5649
 30
0.0
 10
-168.5815
 20
118.5649
 30
0.0
 10
-168.5815
 20
118.5649
 30
0.0
 10
-168.5815
 20
118.5649
 30
0.0
 10
-168.5815
 20
112.9331
 30
0.0
 10
-168.5815
 20
112.9331
 30
0.0
  0
SPLINE
  5
7C
330
1F
100
AcDbEntity
  8
layer 1
 62
     7
370
     9
100
AcDbSpline
210
0.0
220
0.0
230
1.0
 70
    11
 71
     3
 72
    20
 73
    16
 74
     0
 42
0.0000000001
 43
0.0000000001
 12
1.0
 22
0.0
 32
0.0
 13
1.0
 23
0.0
 33
0.0
 40
0.0
 40
0.0
 40
0.0
 40
0.0
 40
0.2
 40
0.2
 40
0.2
 40
0.2
 40
0.4
 40
0.4
 40
0.4
 40
0.4
 40
0.6
 40
0.6
 40
0.6
 40
0.6
 40
1.0
 40
1.0
 40
1.0
 40
1.0
 10
-160.1539
 20
118.5905
 30
0.0
 10
-160.1958
 20
117.6483
 30
0.0
 10
-159.8344
 20
116.7459
 30
0.0
 10
-159.1964
 20
116.2012
 30
0.0
 10
-159.1964
 20
116.2012
 30
0.0
 10
-157.1964
 20
114.9364
 30
0.0
 10
-154.8136
 20
114.9176
 30
0.0
 10
-152.7996
 20
116.1501
 30
0.0
 10
-152.7996
 20
116.1501
 30
0.0
 10
-151.9405
 20
116.9671
 30
0.0
 10
-151.0793
 20
117.7807
 30
0.0
 10
-150.2158
 20
118.5905
 30
0.0
 10
-150.2158
 20
118.5905
 30
0.0
 10
-150.2158
 20
118.5905
 30
0.0
 10
-160.1539
 20
118.5905
 30
0.0
 10
-160.1539
 20
118.5905
 30
0.0
  0
SPLINE
  5
7D
330
1F
100
AcDbEntity
  8
layer 1
 62
     7
370
     9
100
AcDbSpline
210
0.0
220
0.0
230
1.0
 70
    11
 71
     3
 72
    72
 73
    68
 74
     0
 42
0.0000000001
 43
0.0000000001
 12
1.0
 22
0.0
 32
0.0
 13
1.0
 23
0.0
 33
0.0
 40
0.0
 40
0.0
 40
0.0
 40
0.0
 40
0.0555555555555556
 40
0.0555555555555556
 40
0.0555555555555556
 40
0.0555555555555556
 40
0.1111111111111111
 40
0.1111111111111111
 40
0.1111111111111111
 40
0.1111111111111111
 40
0.1666666666666667
 40
0.1666666666666667
 40
0.1666666666666667
 40
0.1666666666666667
 40
0.2222222222222222
 40
0.2222222222222222
 40
0.2222222222222222
 40
0.2222222222222222
 40
0.2777777777777778
 40
0.2777777777777778
 40
0.2777777777777778
 40
0.2777777777777778
 40
0.3333333333333333
 40
0.3333333333333333
 40
0.3333333333333333
 40
0.3333333333333333
 40
0.3888888888888889
 40
0.3888888888888889
 40
0.3888888888888889
 40
0.3888888888888889
 40
0.4444444444444444
 40
0.4444444444444444
 40
0.4444444444444444
 40
0.4444444444444444
 40
0.5
 40
0.5
 40
0.5
 40
0.5
 40
0.5555555555555556
 40
0.5555555555555556
 40
0.5555555555555556
 40
0.5555555555555556
 40
0.6111111111111112
 40
0.6111111111111112
 40
0.6111111111111112
 40
0.6111111111111112
 40
0.6666666666666666
 40
0.6666666666666666
 40
0.6666666666666666
 40
0.6666666666666666
 40
0.7222222222222222
 40
0.7222222222222222
 40
0.7222222222222222
 40
0.7222222222222222
 40
0.7777777777777778
 40
0.7777777777777778
 40
0.7777777777777778
 40
0.7777777777777778
 40
0.8333333333333334
 40
0.8333333333333334
 40
0.8333333333333334
 40
0.8333333333333334
 40
0.8888888888888888
 40
0.8888888888888888
 40
0.8888888888888888
 40
0.8888888888888888
 40
1.0
 40
1.0
 40
1.0
 40
1.0
 10
-126.6643
 20
118.5905
 30
0.0
 10
-126.6643
 20
118.5905
 30
0.0
 10
-126.6643
 20
111.7957
 30
0.0
 10
-126.6643
 20
111.7957
 30
0.0
 10
-126.6643
 20
111.7957
 30
0.0
 10
-127.2004
 20
112.7812
 30
0.0
 10
-127.9122
 20
113.609
 30
0.0
 10
-128.7478
 20
114.2186
 30
0.0
 10
-128.7478
 20
114.2186
 30
0.0
 10
-130.704
 20
115.2938
 30
0.0
 10
-132.9934
 20
114.9606
 30
0.0
 10
-134.6818
 20
113.3545
 30
0.0
 10
-134.6818
 20
113.3545
 30
0.0
 10
-135.5246
 20
112.5114
 30
0.0
 10
-135.7699
 20
111.0742
 30
0.0
 10
-135.2711
 20
109.8978
 30
0.0
 10
-135.2711
 20
109.8978
 30
0.0
 10
-134.6641
 20
108.7106
 30
0.0
 10
-133.4307
 20
108.2356
 30
0.0
 10
-132.3668
 20
108.7795
 30
0.0
 10
-132.3668
 20
108.7795
 30
0.0
 10
-132.5458
 20
109.2006
 30
0.0
 10
-132.4975
 20
109.71
 30
0.0
 10
-132.2444
 20
110.0714
 30
0.0
 10
-132.2444
 20
110.0714
 30
0.0
 10
-131.9912
 20
110.4327
 30
0.0
 10
-131.5829
 20
110.5748
 30
0.0
 10
-131.2095
 20
110.4317
 30
0.0
 10
-131.2095
 20
110.4317
 30
0.0
 10
-130.65
 20
110.1317
 30
0.0
 10
-130.2538
 20
109.5097
 30
0.0
 10
-130.1576
 20
108.7795
 30
0.0
 10
-130.1576
 20
108.7795
 30
0.0
 10
-130.0688
 20
107.1017
 30
0.0
 10
-130.8598
 20
105.5369
 30
0.0
 10
-132.1357
 20
104.8652
 30
0.0
 10
-132.1357
 20
104.8652
 30
0.0
 10
-134.2906
 20
104.3391
 30
0.0
 10
-136.5154
 20
105.2283
 30
0.0
 10
-137.9855
 20
107.2036
 30
0.0
 10
-137.9855
 20
107.2036
 30
0.0
 10
-138.513
 20
108.0297
 30
0.0
 10
-138.6412
 20
109.1313
 30
0.0
 10
-138.322
 20
110.1012
 30
0.0
 10
-138.322
 20
110.1012
 30
0.0
 10
-137.9301
 20
111.0132
 30
0.0
 10
-137.1016
 20
111.5241
 30
0.0
 10
-136.2602
 20
111.3717
 30
0.0
 10
-136.2602
 20
111.3717
 30
0.0
 10
-135.9854
 20
112.3871
 30
0.0
 10
-136.2463
 20
113.5018
 30
0.0
 10
-136.9204
 20
114.1933
 30
0.0
 10
-136.9204
 20
114.1933
 30
0.0
 10
-137.5943
 20
114.8846
 30
0.0
 10
-138.5472
 20
115.0152
 30
0.0
 10
-139.3321
 20
114.5235
 30
0.0
 10
-139.3321
 20
114.5235
 30
0.0
 10
-140.2653
 20
114.0563
 30
0.0
 10
-141.0482
 20
113.2355
 30
0.0
 10
-141.5629
 20
112.1851
 30
0.0
 10
-141.5629
 20
112.1851
 30
0.0
 10
-142.8409
 20
114.3346
 30
0.0
 10
-144.1352
 20
116.4696
 30
0.0
 10
-145.446
 20
118.5905
 30
0.0
 10
-145.446
 20
118.5905
 30
0.0
 10
-145.446
 20
118.5905
 30
0.0
 10
-126.6643
 20
118.5905
 30
0.0
 10
-126.6643
 20
118.5905
 30
0.0
  0
SPLINE
  5
7E
330
1F
100
AcDbEntity
  8
layer 1
 62
     7
370
     9
100
AcDbSpline
210
0.0
220
0.0
230
1.0
 70
    11
 71
     3
 72
    60
 73
    56
 74
     0
 42
0.0000000001
 43
0.0000000001
 12
1.0
 22
0.0
 32
0.0
 13
1.0
 23
0.0
 33
0.0
 40
0.0
 40
0.0
 40
0.0
 40
0.0
 40
0.0666666666666667
 40
0.0666666666666667
 40
0.0666666666666667
 40
0.0666666666666667
 40
0.1333333333333333
 40
0.1333333333333333
 40
0.1333333333333333
 40
0.1333333333333333
 40
0.2
 40
0.2
 40
0.2
 40
0.2
 40
0.2666666666666667
 40
0.2666666666666667
 40
0.2666666666666667
 40
0.2666666666666667
 40
0.3333333333333333
 40
0.3333333333333333
 40
0.3333333333333333
 40
0.3333333333333333
 40
0.4
 40
0.4
 40
0.4
 40
0.4
 40
0.4666666666666667
 40
0.4666666666666667
 40
0.4666666666666667
 40
0.4666666666666667
 40
0.5333333333333333
 40
0.5333333333333333
 40
0.5333333333333333
 40
0.5333333333333333
 40
0.6
 40
0.6
 40
0.6
 40
0.6
 40
0.6666666666666666
 40
0.6666666666666666
 40
0.6666666666666666
 40
0.6666666666666666
 40
0.7333333333333333
 40
0.7333333333333333
 40
0.7333333333333333
 40
0.7333333333333333
 40
0.8
 40
0.8
 40
0.8
 40
0.8
 40
0.8666666666666667
 40
0.8666666666666667
 40
0.8666666666666667
 40
0.8666666666666667
 40
1.0
 40
1.0
 40
1.0
 40
1.0
 10
-78.645
 20
13.2109
 30
0.0
 10
-76.4319
 20
13.5868
 30
0.0
 10
-74.2284
 20
12.4515
 30
0.0
 10
-72.9211
 20
10.2625
 30
0.0
 10
-72.9211
 20
10.2625
 30
0.0
 10
-72.1771
 20
9.2504
 30
0.0
 10
-71.135
 20
8.6302
 30
0.0
 10
-70.0173
 20
8.534
 30
0.0
 10
-70.0173
 20
8.534
 30
0.0
 10
-73.1191
 20
17.9203
 30
0.0
 10
-79.448
 20
25.2122
 30
0.0
 10
-87.3565
 20
28.512
 30
0.0
 10
-87.3565
 20
28.512
 30
0.0
 10
-86.5833
 20
26.4426
 30
0.0
 10
-86.2922
 20
24.1578
 30
0.0
 10
-86.5148
 20
21.9035
 30
0.0
 10
-86.5148
 20
21.9035
 30
0.0
 10
-84.9556
 20
21.8382
 30
0.0
 10
-83.635
 20
20.4949
 30
0.0
 10
-83.3165
 20
18.6502
 30
0.0
 10
-83.3165
 20
18.6502
 30
0.0
 10
-85.7998
 20
18.9485
 30
0.0
 10
-88.2766
 20
18.0123
 30
0.0
 10
-90.1763
 20
16.0572
 30
0.0
 10
-90.1763
 20
16.0572
 30
0.0
 10
-92.4825
 20
14.8066
 30
0.0
 10
-94.9171
 20
13.9347
 30
0.0
 10
-97.4149
 20
13.465
 30
0.0
 10
-97.4149
 20
13.465
 30
0.0
 10
-97.4149
 20
13.465
 30
0.0
 10
-103.8121
 20
13.465
 30
0.0
 10
-103.8121
 20
13.465
 30
0.0
 10
-103.8121
 20
13.465
 30
0.0
 10
-103.8121
 20
13.465
 30
0.0
 10
-103.8541
 20
11.4316
 30
0.0
 10
-103.8541
 20
11.4316
 30
0.0
 10
-103.8541
 20
11.4316
 30
0.0
 10
-103.8541
 20
11.4316
 30
0.0
 10
-95.3527
 20
11.4316
 30
0.0
 10
-95.3527
 20
11.4316
 30
0.0
 10
-95.3527
 20
11.4316
 30
0.0
 10
-91.7512
 20
11.619
 30
0.0
 10
-88.179
 20
12.3013
 30
0.0
 10
-84.7053
 20
13.465
 30
0.0
 10
-84.7053
 20
13.465
 30
0.0
 10
-83.2949
 20
14.1136
 30
0.0
 10
-82.282
 20
15.628
 30
0.0
 10
-82.0538
 20
17.43
 30
0.0
 10
-82.0538
 20
17.43
 30
0.0
 10
-81.0729
 20
17.7766
 30
0.0
 10
-80.0136
 20
17.4411
 30
0.0
 10
-79.2996
 20
16.5575
 30
0.0
 10
-79.2996
 20
16.5575
 30
0.0
 10
-78.5861
 20
15.6738
 30
0.0
 10
-78.334
 20
14.3869
 30
0.0
 10
-78.645
 20
13.2109
 30
0.0
  0
SPLINE
  5
7F
330
1F
100
AcDbEntity
  8
layer 1
 62
     7
370
     9
100
AcDbSpline
210
0.0
220
0.0
230
1.0
 70
    11
 71
     3
 72
    40
 73
    36
 74
     0
 42
0.0000000001
 43
0.0000000001
 12
1.0
 22
0.0
 32
0.0
 13
1.0
 23
0.0
 33
0.0
 40
0.0
 40
0.0
 40
0.0
 40
0.0
 40
0.1
 40
0.1
 40
0.1
 40
0.1
 40
0.2
 40
0.2
 40
0.2
 40
0.2
 40
0.3
 40
0.3
 40
0.3
 40
0.3
 40
0.4
 40
0.4
 40
0.4
 40
0.4
 40
0.5
 40
0.5
 40
0.5
 40
0.5
 40
0.6
 40
0.6
 40
0.6
 40
0.6
 40
0.7
 40
0.7
 40
0.7
 40
0.7
 40
0.8
 40
0.8
 40
0.8
 40
0.8
 40
1.0
 40
1.0
 40
1.0
 40
1.0
 10
-108.189
 20
17.8366
 30
0.0
 10
-106.1016
 20
17.9995
 30
0.0
 10
-104.2278
 20
19.4395
 30
0.0
 10
-103.2214
 20
21.6543
 30
0.0
 10
-103.2214
 20
21.6543
 30
0.0
 10
-102.215
 20
23.8692
 30
0.0
 10
-102.2157
 20
26.5516
 30
0.0
 10
-103.2228
 20
28.7658
 30
0.0
 10
-103.2228
 20
28.7658
 30
0.0
 10
-98.7685
 20
30.4308
 30
0.0
 10
-94.0193
 20
30.5714
 30
0.0
 10
-89.5028
 20
29.1727
 30
0.0
 10
-89.5028
 20
29.1727
 30
0.0
 10
-91.5388
 20
28.4122
 30
0.0
 10
-93.3696
 20
27.0082
 30
0.0
 10
-94.8057
 20
25.1061
 30
0.0
 10
-94.8057
 20
25.1061
 30
0.0
 10
-96.3897
 20
26.1331
 30
0.0
 10
-98.2868
 20
26.1707
 30
0.0
 10
-99.8982
 20
25.2076
 30
0.0
 10
-99.8982
 20
25.2076
 30
0.0
 10
-99.2723
 20
23.894
 30
0.0
 10
-99.1967
 20
22.3011
 30
0.0
 10
-99.6937
 20
20.9099
 30
0.0
 10
-99.6937
 20
20.9099
 30
0.0
 10
-100.1911
 20
19.5186
 30
0.0
 10
-101.2028
 20
18.4926
 30
0.0
 10
-102.4234
 20
18.1415
 30
0.0
 10
-102.4234
 20
18.1415
 30
0.0
 10
-104.9038
 20
17.3361
 30
0.0
 10
-107.4772
 20
17.0268
 30
0.0
 10
-110.0407
 20
17.2267
 30
0.0
 10
-110.0407
 20
17.2267
 30
0.0
 10
-109.4489
 20
17.5302
 30
0.0
 10
-108.8263
 20
17.7354
 30
0.0
 10
-108.189
 20
17.8366
 30
0.0
  0
SPLINE
  5
80
330
1F
100
AcDbEntity
  8
layer 1
 62
     7
370
     9
100
AcDbSpline
210
0.0
220
0.0
230
1.0
 70
    11
 71
     3
 72
    48
 73
    44
 74
     0
 42
0.0000000001
 43
0.0000000001
 12
1.0
 22
0.0
 32
0.0
 13
1.0
 23
0.0
 33
0.0
 40
0.0
 40
0.0
 40
0.0
 40
0.0
 40
0.0833333333333333
 40
0.0833333333333333
 40
0.0833333333333333
 40
0.0833333333333333
 40
0.1666666666666667
 40
0.1666666666666667
 40
0.1666666666666667
 40
0.1666666666666667
 40
0.25
 40
0.25
 40
0.25
 40
0.25
 40
0.3333333333333333
 40
0.3333333333333333
 40
0.3333333333333333
 40
0.3333333333333333
 40
0.4166666666666667
 40
0.4166666666666667
 40
0.4166666666666667
 40
0.4166666666666667
 40
0.5
 40
0.5
 40
0.5
 40
0.5
 40
0.5833333333333334
 40
0.5833333333333334
 40
0.5833333333333334
 40
0.5833333333333334
 40
0.6666666666666666
 40
0.6666666666666666
 40
0.6666666666666666
 40
0.6666666666666666
 40
0.75
 40
0.75
 40
0.75
 40
0.75
 40
0.8333333333333334
 40
0.8333333333333334
 40
0.8333333333333334
 40
0.8333333333333334
 40
1.0
 40
1.0
 40
1.0
 40
1.0
 10
-108.6097
 20
33.2904
 30
0.0
 10
-110.4064
 20
32.2868
 30
0.0
 10
-111.4238
 20
29.954
 30
0.0
 10
-111.0926
 20
27.5968
 30
0.0
 10
-111.0926
 20
27.5968
 30
0.0
 10
-111.0106
 20
27.1474
 30
0.0
 10
-110.7465
 20
26.7782
 30
0.0
 10
-110.3908
 20
26.6145
 30
0.0
 10
-110.3908
 20
26.6145
 30
0.0
 10
-110.0344
 20
26.4505
 30
0.0
 10
-109.6343
 20
26.514
 30
0.0
 10
-109.325
 20
26.7835
 30
0.0
 10
-109.325
 20
26.7835
 30
0.0
 10
-108.8323
 20
26.6681
 30
0.0
 10
-108.4634
 20
26.1693
 30
0.0
 10
-108.4244
 20
25.5643
 30
0.0
 10
-108.4244
 20
25.5643
 30
0.0
 10
-108.385
 20
24.9598
 30
0.0
 10
-108.685
 20
24.3978
 30
0.0
 10
-109.1568
 20
24.1908
 30
0.0
 10
-109.1568
 20
24.1908
 30
0.0
 10
-109.8157
 20
23.9732
 30
0.0
 10
-110.4941
 20
23.8536
 30
0.0
 10
-111.1768
 20
23.8352
 30
0.0
 10
-111.1768
 20
23.8352
 30
0.0
 10
-113.4641
 20
24.3559
 30
0.0
 10
-115.0159
 20
26.9446
 30
0.0
 10
-114.7123
 20
29.7318
 30
0.0
 10
-114.7123
 20
29.7318
 30
0.0
 10
-114.107
 20
32.694
 30
0.0
 10
-112.5258
 20
35.2284
 30
0.0
 10
-110.3351
 20
36.7471
 30
0.0
 10
-110.3351
 20
36.7471
 30
0.0
 10
-103.6038
 20
39.7611
 30
0.0
 10
-96.2377
 20
40.0111
 30
0.0
 10
-89.3765
 20
37.4585
 30
0.0
 10
-89.3765
 20
37.4585
 30
0.0
 10
-90.5203
 20
36.5153
 30
0.0
 10
-91.0578
 20
34.8119
 30
0.0
 10
-90.7234
 20
33.1885
 30
0.0
 10
-90.7234
 20
33.1885
 30
0.0
 10
-96.4834
 20
35.8071
 30
0.0
 10
-102.8298
 20
35.8433
 30
0.0
 10
-108.6097
 20
33.2904
 30
0.0
  0
SPLINE
  5
81
330
1F
100
AcDbEntity
  8
layer 1
 62
     7
370
     9
100
AcDbSpline
210
0.0
220
0.0
230
1.0
 70
    11
 71
     3
 72
    20
 73
    16
 74
     0
 42
0.0000000001
 43
0.0000000001
 12
1.0
 22
0.0
 32
0.0
 13
1.0
 23
0.0
 33
0.0
 40
0.0
 40
0.0
 40
0.0
 40
0.0
 40
0.2
 40
0.2
 40
0.2
 40
0.2
 40
0.4
 40
0.4
 40
0.4
 40
0.4
 40
0.6
 40
0.6
 40
0.6
 40
0.6
 40
1.0
 40
1.0
 40
1.0
 40
1.0
 10
-64.2095
 20
8.7882
 30
0.0
 10
-67.0464
 20
20.7459
 30
0.0
 10
-74.1866
 20
30.5277
 30
0.0
 10
-83.6531
 20
35.4254
 30
0.0
 10
-83.6531
 20
35.4254
 30
0.0
 10
-83.6385
 20
33.9138
 30
0.0
 10
-84.0545
 20
32.4423
 30
0.0
 10
-84.8313
 20
31.2569
 30
0.0
 10
-84.8313
 20
31.2569
 30
0.0
 10
-76.4915
 20
27.5752
 30
0.0
 10
-70.1102
 20
19.3006
 30
0.0
 10
-67.6605
 20
8.9916
 30
0.0
 10
-67.6605
 20
8.9916
 30
0.0
 10
-66.5895
 20
9.8085
 30
0.0
 10
-65.2095
 20
9.7275
 30
0.0
 10
-64.2095
 20
8.7882
 30
0.0
  0
SPLINE
  5
82
330
1F
100
AcDbEntity
  8
layer 1
 62
     7
370
     9
100
AcDbSpline
210
0.0
220
0.0
230
1.0
 70
    11
 71
     3
 72
    16
 73
    12
 74
     0
 42
0.0000000001
 43
0.0000000001
 12
1.0
 22
0.0
 32
0.0
 13
1.0
 23
0.0
 33
0.0
 40
0.0
 40
0.0
 40
0.0
 40
0.0
 40
0.25
 40
0.25
 40
0.25
 40
0.25
 40
0.5
 40
0.5
 40
0.5
 40
0.5
 40
1.0
 40
1.0
 40
1.0
 40
1.0
 10
-72.837
 20
32.6805
 30
0.0
 10
-74.1951
 20
34.3845
 30
0.0
 10
-75.7055
 20
35.9019
 30
0.0
 10
-77.3404
 20
37.2047
 30
0.0
 10
-77.3404
 20
37.2047
 30
0.0
 10
-75.457
 20
37.4976
 30
0.0
 10
-73.7779
 20
38.7816
 30
0.0
 10
-72.7529
 20
40.7122
 30
0.0
 10
-72.7529
 20
40.7122
 30
0.0
 10
-72.8374
 20
38.0362
 30
0.0
 10
-72.8656
 20
35.3579
 30
0.0
 10
-72.837
 20
32.6805
 30
0.0
  0
SPLINE
  5
83
330
1F
100
AcDbEntity
  8
layer 1
 62
     7
370
     9
100
AcDbSpline
210
0.0
220
0.0
230
1.0
 70
    11
 71
     3
 72
    80
 73
    76
 74
     0
 42
0.0000000001
 43
0.0000000001
 12
1.0
 22
0.0
 32
0.0
 13
1.0
 23
0.0
 33
0.0
 40
0.0
 40
0.0
 40
0.0
 40
0.0
 40
0.05
 40
0.05
 40
0.05
 40
0.05
 40
0.1
 40
0.1
 40
0.1
 40
0.1
 40
0.15
 40
0.15
 40
0.15
 40
0.15
 40
0.2
 40
0.2
 40
0.2
 40
0.2
 40
0.25
 40
0.25
 40
0.25
 40
0.25
 40
0.3
 40
0.3
 40
0.3
 40
0.3
 40
0.35
 40
0.35
 40
0.35
 40
0.35
 40
0.4
 40
0.4
 40
0.4
 40
0.4
 40
0.45
 40
0.45
 40
0.45
 40
0.45
 40
0.5
 40
0.5
 40
0.5
 40
0.5
 40
0.55
 40
0.55
 40
0.55
 40
0.55
 40
0.6
 40
0.6
 40
0.6
 40
0.6
 40
0.65
 40
0.65
 40
0.65
 40
0.65
 40
0.7
 40
0.7
 40
0.7
 40
0.7
 40
0.75
 40
0.75
 40
0.75
 40
0.75
 40
0.8
 40
0.8
 40
0.8
 40
0.8
 40
0.85
 40
0.85
 40
0.85
 40
0.85
 40
0.9
 40
0.9
 40
0.9
 40
0.9
 40
1.0
 40
1.0
 40
1.0
 40
1.0
 10
-109.1568
 20
44.1689
 30
0.0
 10
-109.1568
 20
44.1689
 30
0.0
 10
-109.1568
 20
50.9637
 30
0.0
 10
-109.1568
 20
50.9637
 30
0.0
 10
-109.1568
 20
50.9637
 30
0.0
 10
-108.6211
 20
49.9783
 30
0.0
 10
-107.9092
 20
49.1504
 30
0.0
 10
-107.0736
 20
48.5404
 30
0.0
 10
-107.0736
 20
48.5404
 30
0.0
 10
-105.1175
 20
47.4652
 30
0.0
 10
-102.828
 20
47.7989
 30
0.0
 10
-101.1396
 20
49.4049
 30
0.0
 10
-101.1396
 20
49.4049
 30
0.0
 10
-100.2965
 20
50.2476
 30
0.0
 10
-100.0516
 20
51.6848
 30
0.0
 10
-100.5503
 20
52.8616
 30
0.0
 10
-100.5503
 20
52.8616
 30
0.0
 10
-101.1574
 20
54.0487
 30
0.0
 10
-102.3904
 20
54.5237
 30
0.0
 10
-103.4543
 20
53.9799
 30
0.0
 10
-103.4543
 20
53.9799
 30
0.0
 10
-103.2753
 20
53.5588
 30
0.0
 10
-103.324
 20
53.049
 30
0.0
 10
-103.5771
 20
52.688
 30
0.0
 10
-103.5771
 20
52.688
 30
0.0
 10
-103.8302
 20
52.3266
 30
0.0
 10
-104.2382
 20
52.1846
 30
0.0
 10
-104.6116
 20
52.3276
 30
0.0
 10
-104.6116
 20
52.3276
 30
0.0
 10
-105.1714
 20
52.6276
 30
0.0
 10
-105.5673
 20
53.2493
 30
0.0
 10
-105.6638
 20
53.9799
 30
0.0
 10
-105.6638
 20
53.9799
 30
0.0
 10
-105.7523
 20
55.6576
 30
0.0
 10
-104.9616
 20
57.2225
 30
0.0
 10
-103.6857
 20
57.8942
 30
0.0
 10
-103.6857
 20
57.8942
 30
0.0
 10
-101.5305
 20
58.4203
 30
0.0
 10
-99.3057
 20
57.531
 30
0.0
 10
-97.836
 20
55.5558
 30
0.0
 10
-97.836
 20
55.5558
 30
0.0
 10
-97.3081
 20
54.7293
 30
0.0
 10
-97.1799
 20
53.6281
 30
0.0
 10
-97.4991
 20
52.6582
 30
0.0
 10
-97.4991
 20
52.6582
 30
0.0
 10
-97.8913
 20
51.7458
 30
0.0
 10
-98.7199
 20
51.2354
 30
0.0
 10
-99.5613
 20
51.3872
 30
0.0
 10
-99.5613
 20
51.3872
 30
0.0
 10
-99.8357
 20
50.3722
 30
0.0
 10
-99.5748
 20
49.2572
 30
0.0
 10
-98.901
 20
48.566
 30
0.0
 10
-98.901
 20
48.566
 30
0.0
 10
-98.2271
 20
47.8748
 30
0.0
 10
-97.274
 20
47.7441
 30
0.0
 10
-96.489
 20
48.2355
 30
0.0
 10
-96.489
 20
48.2355
 30
0.0
 10
-95.5558
 20
48.703
 30
0.0
 10
-94.7729
 20
49.5235
 30
0.0
 10
-94.2585
 20
50.5739
 30
0.0
 10
-94.2585
 20
50.5739
 30
0.0
 10
-92.9805
 20
48.4244
 30
0.0
 10
-91.6859
 20
46.2894
 30
0.0
 10
-90.3751
 20
44.1689
 30
0.0
 10
-90.3751
 20
44.1689
 30
0.0
 10
-90.1447
 20
43.4141
 30
0.0
 10
-89.8377
 20
42.697
 30
0.0
 10
-89.4606
 20
42.0339
 30
0.0
 10
-89.4606
 20
42.0339
 30
0.0
 10
-95.8007
 20
44.9392
 30
0.0
 10
-102.7968
 20
44.9754
 30
0.0
 10
-109.1568
 20
42.1354
 30
0.0
 10
-109.1568
 20
42.1354
 30
0.0
 10
-109.111
 20
42.8121
 30
0.0
 10
-109.111
 20
43.4922
 30
0.0
 10
-109.1568
 20
44.1689
 30
0.0
  0
SPLINE
  5
84
330
1F
100
AcDbEntity
  8
layer 1
 62
     7
370
     9
100
AcDbSpline
210
0.0
220
0.0
230
1.0
 70
    11
 71
     3
 72
    28
 73
    24
 74
     0
 42
0.0000000001
 43
0.0000000001
 12
1.0
 22
0.0
 32
0.0
 13
1.0
 23
0.0
 33
0.0
 40
0.0
 40
0.0
 40
0.0
 40
0.0
 40
0.1428571428571428
 40
0.1428571428571428
 40
0.1428571428571428
 40
0.1428571428571428
 40
0.2857142857142857
 40
0.2857142857142857
 40
0.2857142857142857
 40
0.2857142857142857
 40
0.4285714285714285
 40
0.4285714285714285
 40
0.4285714285714285
 40
0.4285714285714285
 40
0.5714285714285714
 40
0.5714285714285714
 40
0.5714285714285714
 40
0.5714285714285714
 40
0.7142857142857143
 40
0.7142857142857143
 40
0.7142857142857143
 40
0.7142857142857143
 40
1.0
 40
1.0
 40
1.0
 40
1.0
 10
-83.0215
 20
41.7289
 30
0.0
 10
-81.0079
 20
40.496
 30
0.0
 10
-78.6251
 20
40.5151
 30
0.0
 10
-76.6247
 20
41.7797
 30
0.0
 10
-76.6247
 20
41.7797
 30
0.0
 10
-75.9867
 20
42.3243
 30
0.0
 10
-75.6253
 20
43.2267
 30
0.0
 10
-75.6676
 20
44.1689
 30
0.0
 10
-75.6676
 20
44.1689
 30
0.0
 10
-75.6253
 20
45.1111
 30
0.0
 10
-75.9867
 20
46.0135
 30
0.0
 10
-76.6247
 20
46.5581
 30
0.0
 10
-76.6247
 20
46.5581
 30
0.0
 10
-78.6251
 20
47.8226
 30
0.0
 10
-81.0079
 20
47.8417
 30
0.0
 10
-83.0215
 20
46.6089
 30
0.0
 10
-83.0215
 20
46.6089
 30
0.0
 10
-83.8806
 20
45.792
 30
0.0
 10
-84.7423
 20
44.9787
 30
0.0
 10
-85.6056
 20
44.1689
 30
0.0
 10
-85.6056
 20
44.1689
 30
0.0
 10
-84.7423
 20
43.3591
 30
0.0
 10
-83.8806
 20
42.5458
 30
0.0
 10
-83.0215
 20
41.7289
 30
0.0
  0
SPLINE
  5
85
330
1F
100
AcDbEntity
  8
layer 1
 62
     7
370
     9
100
AcDbSpline
210
0.0
220
0.0
230
1.0
 70
    11
 71
     3
 72
   188
 73
   184
 74
     0
 42
0.0000000001
 43
0.0000000001
 12
1.0
 22
0.0
 32
0.0
 13
1.0
 23
0.0
 33
0.0
 40
0.0
 40
0.0
 40
0.0
 40
0.0
 40
0.0212765957446809
 40
0.0212765957446809
 40
0.0212765957446809
 40
0.0212765957446809
 40
0.0425531914893617
 40
0.0425531914893617
 40
0.0425531914893617
 40
0.0425531914893617
 40
0.0638297872340425
 40
0.0638297872340425
 40
0.0638297872340425
 40
0.0638297872340425
 40
0.0851063829787234
 40
0.0851063829787234
 40
0.0851063829787234
 40
0.0851063829787234
 40
0.1063829787234043
 40
0.1063829787234043
 40
0.1063829787234043
 40
0.1063829787234043
 40
0.1276595744680851
 40
0.1276595744680851
 40
0.1276595744680851
 40
0.1276595744680851
 40
0.148936170212766
 40
0.148936170212766
 40
0.148936170212766
 40
0.148936170212766
 40
0.1702127659574468
 40
0.1702127659574468
 40
0.1702127659574468
 40
0.1702127659574468
 40
0.1914893617021277
 40
0.1914893617021277
 40
0.1914893617021277
 40
0.1914893617021277
 40
0.2127659574468085
 40
0.2127659574468085
 40
0.2127659574468085
 40
0.2127659574468085
 40
0.2340425531914894
 40
0.2340425531914894
 40
0.2340425531914894
 40
0.2340425531914894
 40
0.2553191489361702
 40
0.2553191489361702
 40
0.2553191489361702
 40
0.2553191489361702
 40
0.2765957446808511
 40
0.2765957446808511
 40
0.2765957446808511
 40
0.2765957446808511
 40
0.2978723404255319
 40
0.2978723404255319
 40
0.2978723404255319
 40
0.2978723404255319
 40
0.3191489361702128
 40
0.3191489361702128
 40
0.3191489361702128
 40
0.3191489361702128
 40
0.3404255319148936
 40
0.3404255319148936
 40
0.3404255319148936
 40
0.3404255319148936
 40
0.3617021276595745
 40
0.3617021276595745
 40
0.3617021276595745
 40
0.3617021276595745
 40
0.3829787234042553
 40
0.3829787234042553
 40
0.3829787234042553
 40
0.3829787234042553
 40
0.4042553191489361
 40
0.4042553191489361
 40
0.4042553191489361
 40
0.4042553191489361
 40
0.425531914893617
 40
0.425531914893617
 40
0.425531914893617
 40
0.425531914893617
 40
0.4468085106382979
 40
0.4468085106382979
 40
0.4468085106382979
 40
0.4468085106382979
 40
0.4680851063829787
 40
0.4680851063829787
 40
0.4680851063829787
 40
0.4680851063829787
 40
0.4893617021276596
 40
0.4893617021276596
 40
0.4893617021276596
 40
0.4893617021276596
 40
0.5106382978723404
 40
0.5106382978723404
 40
0.5106382978723404
 40
0.5106382978723404
 40
0.5319148936170213
 40
0.5319148936170213
 40
0.5319148936170213
 40
0.5319148936170213
 40
0.5531914893617021
 40
0.5531914893617021
 40
0.5531914893617021
 40
0.5531914893617021
 40
0.574468085106383
 40
0.574468085106383
 40
0.574468085106383
 40
0.574468085106383
 40
0.5957446808510638
 40
0.5957446808510638
 40
0.5957446808510638
 40
0.5957446808510638
 40
0.6170212765957447
 40
0.6170212765957447
 40
0.6170212765957447
 40
0.6170212765957447
 40
0.6382978723404256
 40
0.6382978723404256
 40
0.6382978723404256
 40
0.6382978723404256
 40
0.6595744680851063
 40
0.6595744680851063
 40
0.6595744680851063
 40
0.6595744680851063
 40
0.6808510638297872
 40
0.6808510638297872
 40
0.6808510638297872
 40
0.6808510638297872
 40
0.7021276595744681
 40
0.7021276595744681
 40
0.7021276595744681
 40
0.7021276595744681
 40
0.723404255319149
 40
0.723404255319149
 40
0.723404255319149
 40
0.723404255319149
 40
0.7446808510638298
 40
0.7446808510638298
 40
0.7446808510638298
 40
0.7446808510638298
 40
0.7659574468085106
 40
0.7659574468085106
 40
0.7659574468085106
 40
0.7659574468085106
 40
0.7872340425531915
 40
0.7872340425531915
 40
0.7872340425531915
 40
0.7872340425531915
 40
0.8085106382978723
 40
0.8085106382978723
 40
0.8085106382978723
 40
0.8085106382978723
 40
0.8297872340425532
 40
0.8297872340425532
 40
0.8297872340425532
 40
0.8297872340425532
 40
0.851063829787234
 40
0.851063829787234
 40
0.851063829787234
 40
0.851063829787234
 40
0.8723404255319149
 40
0.8723404255319149
 40
0.8723404255319149
 40
0.8723404255319149
 40
0.8936170212765957
 40
0.8936170212765957
 40
0.8936170212765957
 40
0.8936170212765957
 40
0.9148936170212766
 40
0.9148936170212766
 40
0.9148936170212766
 40
0.9148936170212766
 40
0.9361702127659575
 40
0.9361702127659575
 40
0.9361702127659575
 40
0.9361702127659575
 40
0.9574468085106383
 40
0.9574468085106383
 40
0.9574468085106383
 40
0.9574468085106383
 40
1.0
 40
1.0
 40
1.0
 40
1.0
 10
-109.1568
 20
58.295
 30
0.0
 10
-105.9692
 20
62.1447
 30
0.0
 10
-101.0899
 20
63.0709
 30
0.0
 10
-97.0783
 20
60.5883
 30
0.0
 10
-97.0783
 20
60.5883
 30
0.0
 10
-96.0094
 20
59.5776
 30
0.0
 10
-94.9075
 20
58.6194
 30
0.0
 10
-93.7747
 20
57.7164
 30
0.0
 10
-93.7747
 20
57.7164
 30
0.0
 10
-93.0079
 20
57.1082
 30
0.0
 10
-92.1026
 20
56.8057
 30
0.0
 10
-91.1863
 20
56.8522
 30
0.0
 10
-91.1863
 20
56.8522
 30
0.0
 10
-90.7153
 20
56.8934
 30
0.0
 10
-90.3034
 20
57.2509
 30
0.0
 10
-90.1209
 20
57.777
 30
0.0
 10
-90.1209
 20
57.777
 30
0.0
 10
-89.9388
 20
58.3035
 30
0.0
 10
-90.0173
 20
58.9087
 30
0.0
 10
-90.3236
 20
59.343
 30
0.0
 10
-90.3236
 20
59.343
 30
0.0
 10
-89.1106
 20
59.8396
 30
0.0
 10
-87.7736
 20
59.2733
 30
0.0
 10
-87.0832
 20
57.9705
 30
0.0
 10
-87.0832
 20
57.9705
 30
0.0
 10
-86.5701
 20
56.542
 30
0.0
 10
-86.9888
 20
54.8748
 30
0.0
 10
-88.0722
 20
54.0306
 30
0.0
 10
-88.0722
 20
54.0306
 30
0.0
 10
-89.1131
 20
53.5034
 30
0.0
 10
-90.2743
 20
53.4317
 30
0.0
 10
-91.3546
 20
53.8275
 30
0.0
 10
-91.3546
 20
53.8275
 30
0.0
 10
-90.1635
 20
51.618
 30
0.0
 10
-88.9426
 20
49.4318
 30
0.0
 10
-87.6931
 20
47.2698
 30
0.0
 10
-87.6931
 20
47.2698
 30
0.0
 10
-85.5119
 20
49.4506
 30
0.0
 10
-82.8487
 20
50.8118
 30
0.0
 10
-80.0338
 20
51.1838
 30
0.0
 10
-80.0338
 20
51.1838
 30
0.0
 10
-77.2129
 20
51.3972
 30
0.0
 10
-74.5144
 20
49.7673
 30
0.0
 10
-72.9633
 20
46.9138
 30
0.0
 10
-72.9633
 20
46.9138
 30
0.0
 10
-72.9633
 20
46.9138
 30
0.0
 10
-72.9633
 20
57.7926
 30
0.0
 10
-72.9633
 20
57.7926
 30
0.0
 10
-72.9633
 20
57.7926
 30
0.0
 10
-72.9795
 20
58.3975
 30
0.0
 10
-73.2002
 20
58.9681
 30
0.0
 10
-73.5739
 20
59.3713
 30
0.0
 10
-73.5739
 20
59.3713
 30
0.0
 10
-73.9477
 20
59.7747
 30
0.0
 10
-74.4418
 20
59.9755
 30
0.0
 10
-74.9412
 20
59.9273
 30
0.0
 10
-74.9412
 20
59.9273
 30
0.0
 10
-75.299
 20
59.9035
 30
0.0
 10
-75.6263
 20
59.6774
 30
0.0
 10
-75.8252
 20
59.3174
 30
0.0
 10
-75.8252
 20
59.3174
 30
0.0
 10
-76.024
 20
58.9574
 30
0.0
 10
-76.0705
 20
58.5055
 30
0.0
 10
-75.9511
 20
58.0975
 30
0.0
 10
-75.9511
 20
58.0975
 30
0.0
 10
-76.2313
 20
57.3165
 30
0.0
 10
-76.8153
 20
56.7556
 30
0.0
 10
-77.5082
 20
56.6027
 30
0.0
 10
-77.5082
 20
56.6027
 30
0.0
 10
-78.2012
 20
56.4497
 30
0.0
 10
-78.9116
 20
56.724
 30
0.0
 10
-79.4025
 20
57.3351
 30
0.0
 10
-79.4025
 20
57.3351
 30
0.0
 10
-79.6479
 20
57.7308
 30
0.0
 10
-79.7419
 20
58.2343
 30
0.0
 10
-79.6617
 20
58.7193
 30
0.0
 10
-79.6617
 20
58.7193
 30
0.0
 10
-79.5814
 20
59.2042
 30
0.0
 10
-79.3341
 20
59.6251
 30
0.0
 10
-78.9815
 20
59.8765
 30
0.0
 10
-78.9815
 20
59.8765
 30
0.0
 10
-79.7536
 20
60.0394
 30
0.0
 10
-80.4541
 20
60.5251
 30
0.0
 10
-80.9596
 20
61.2493
 30
0.0
 10
-80.9596
 20
61.2493
 30
0.0
 10
-81.5447
 20
61.7421
 30
0.0
 10
-82.2267
 20
62.0403
 30
0.0
 10
-82.9373
 20
62.1135
 30
0.0
 10
-82.9373
 20
62.1135
 30
0.0
 10
-82.9373
 20
62.1135
 30
0.0
 10
-82.9373
 20
63.4352
 30
0.0
 10
-82.9373
 20
63.4352
 30
0.0
 10
-82.9373
 20
63.4352
 30
0.0
 10
-82.2267
 20
63.5082
 30
0.0
 10
-81.5447
 20
63.8065
 30
0.0
 10
-80.9596
 20
64.2992
 30
0.0
 10
-80.9596
 20
64.2992
 30
0.0
 10
-80.4541
 20
65.023
 30
0.0
 10
-79.7536
 20
65.5091
 30
0.0
 10
-78.9815
 20
65.6717
 30
0.0
 10
-78.9815
 20
65.6717
 30
0.0
 10
-79.3341
 20
65.9234
 30
0.0
 10
-79.5814
 20
66.344
 30
0.0
 10
-79.6617
 20
66.829
 30
0.0
 10
-79.6617
 20
66.829
 30
0.0
 10
-79.7419
 20
67.3143
 30
0.0
 10
-79.6479
 20
67.8173
 30
0.0
 10
-79.4025
 20
68.2135
 30
0.0
 10
-79.4025
 20
68.2135
 30
0.0
 10
-78.9116
 20
68.8241
 30
0.0
 10
-78.2012
 20
69.0989
 30
0.0
 10
-77.5082
 20
68.9459
 30
0.0
 10
-77.5082
 20
68.9459
 30
0.0
 10
-76.8153
 20
68.7929
 30
0.0
 10
-76.2313
 20
68.232
 30
0.0
 10
-75.9511
 20
67.451
 30
0.0
 10
-75.9511
 20
67.451
 30
0.0
 10
-76.0705
 20
67.043
 30
0.0
 10
-76.024
 20
66.5912
 30
0.0
 10
-75.8252
 20
66.2311
 30
0.0
 10
-75.8252
 20
66.2311
 30
0.0
 10
-75.6263
 20
65.8709
 30
0.0
 10
-75.299
 20
65.645
 30
0.0
 10
-74.9412
 20
65.6209
 30
0.0
 10
-74.9412
 20
65.6209
 30
0.0
 10
-74.4418
 20
65.5726
 30
0.0
 10
-73.9477
 20
65.7736
 30
0.0
 10
-73.5739
 20
66.1772
 30
0.0
 10
-73.5739
 20
66.1772
 30
0.0
 10
-73.2002
 20
66.5805
 30
0.0
 10
-72.9795
 20
67.151
 30
0.0
 10
-72.9633
 20
67.7559
 30
0.0
 10
-72.9633
 20
67.7559
 30
0.0
 10
-72.9633
 20
67.7559
 30
0.0
 10
-72.9633
 20
78.6344
 30
0.0
 10
-72.9633
 20
78.6344
 30
0.0
 10
-72.9633
 20
78.6344
 30
0.0
 10
-74.5144
 20
75.7809
 30
0.0
 10
-77.2129
 20
74.1511
 30
0.0
 10
-80.0338
 20
74.3644
 30
0.0
 10
-80.0338
 20
74.3644
 30
0.0
 10
-82.8487
 20
74.7367
 30
0.0
 10
-85.5119
 20
76.0975
 30
0.0
 10
-87.6931
 20
78.2787
 30
0.0
 10
-87.6931
 20
78.2787
 30
0.0
 10
-88.9426
 20
76.1167
 30
0.0
 10
-90.1635
 20
73.9306
 30
0.0
 10
-91.3546
 20
71.721
 30
0.0
 10
-91.3546
 20
71.721
 30
0.0
 10
-90.2743
 20
72.1168
 30
0.0
 10
-89.1131
 20
72.0451
 30
0.0
 10
-88.0722
 20
71.5176
 30
0.0
 10
-88.0722
 20
71.5176
 30
0.0
 10
-86.9888
 20
70.6737
 30
0.0
 10
-86.5701
 20
69.0067
 30
0.0
 10
-87.0832
 20
67.5781
 30
0.0
 10
-87.0832
 20
67.5781
 30
0.0
 10
-87.7736
 20
66.2752
 30
0.0
 10
-89.1106
 20
65.7089
 30
0.0
 10
-90.3236
 20
66.2056
 30
0.0
 10
-90.3236
 20
66.2056
 30
0.0
 10
-90.0173
 20
66.6398
 30
0.0
 10
-89.9388
 20
67.2451
 30
0.0
 10
-90.1209
 20
67.7712
 30
0.0
 10
-90.1209
 20
67.7712
 30
0.0
 10
-90.3034
 20
68.2977
 30
0.0
 10
-90.7153
 20
68.6556
 30
0.0
 10
-91.1863
 20
68.6963
 30
0.0
 10
-91.1863
 20
68.6963
 30
0.0
 10
-92.1026
 20
68.7425
 30
0.0
 10
-93.0079
 20
68.4404
 30
0.0
 10
-93.7747
 20
67.8323
 30
0.0
 10
-93.7747
 20
67.8323
 30
0.0
 10
-94.9075
 20
66.9287
 30
0.0
 10
-96.0094
 20
65.9706
 30
0.0
 10
-97.0783
 20
64.9602
 30
0.0
 10
-97.0783
 20
64.9602
 30
0.0
 10
-101.0899
 20
62.4774
 30
0.0
 10
-105.9692
 20
63.4039
 30
0.0
 10
-109.1568
 20
67.2535
 30
0.0
 10
-109.1568
 20
67.2535
 30
0.0
 10
-109.1568
 20
67.2535
 30
0.0
 10
-109.1568
 20
58.295
 30
0.0
 10
-109.1568
 20
58.295
 30
0.0
  0
SPLINE
  5
86
330
1F
100
AcDbEntity
  8
layer 1
 62
     7
370
     9
100
AcDbSpline
210
0.0
220
0.0
230
1.0
 70
    11
 71
     3
 72
   132
 73
   128
 74
     0
 42
0.0000000001
 43
0.0000000001
 12
1.0
 22
0.0
 32
0.0
 13
1.0
 23
0.0
 33
0.0
 40
0.0
 40
0.0
 40
0.0
 40
0.0
 40
0.0303030303030303
 40
0.0303030303030303
 40
0.0303030303030303
 40
0.0303030303030303
 40
0.0606060606060606
 40
0.0606060606060606
 40
0.0606060606060606
 40
0.0606060606060606
 40
0.0909090909090909
 40
0.0909090909090909
 40
0.0909090909090909
 40
0.0909090909090909
 40
0.1212121212121212
 40
0.1212121212121212
 40
0.1212121212121212
 40
0.1212121212121212
 40
0.1515151515151515
 40
0.1515151515151515
 40
0.1515151515151515
 40
0.1515151515151515
 40
0.1818181818181818
 40
0.1818181818181818
 40
0.1818181818181818
 40
0.1818181818181818
 40
0.2121212121212121
 40
0.2121212121212121
 40
0.2121212121212121
 40
0.2121212121212121
 40
0.2424242424242424
 40
0.2424242424242424
 40
0.2424242424242424
 40
0.2424242424242424
 40
0.2727272727272727
 40
0.2727272727272727
 40
0.2727272727272727
 40
0.2727272727272727
 40
0.303030303030303
 40
0.303030303030303
 40
0.303030303030303
 40
0.303030303030303
 40
0.3333333333333333
 40
0.3333333333333333
 40
0.3333333333333333
 40
0.3333333333333333
 40
0.3636363636363636
 40
0.3636363636363636
 40
0.3636363636363636
 40
0.3636363636363636
 40
0.3939393939393939
 40
0.3939393939393939
 40
0.3939393939393939
 40
0.3939393939393939
 40
0.4242424242424243
 40
0.4242424242424243
 40
0.4242424242424243
 40
0.4242424242424243
 40
0.4545454545454545
 40
0.4545454545454545
 40
0.4545454545454545
 40
0.4545454545454545
 40
0.4848484848484849
 40
0.4848484848484849
 40
0.4848484848484849
 40
0.4848484848484849
 40
0.5151515151515151
 40
0.5151515151515151
 40
0.5151515151515151
 40
0.5151515151515151
 40
0.5454545454545454
 40
0.5454545454545454
 40
0.5454545454545454
 40
0.5454545454545454
 40
0.5757575757575758
 40
0.5757575757575758
 40
0.5757575757575758
 40
0.5757575757575758
 40
0.6060606060606061
 40
0.6060606060606061
 40
0.6060606060606061
 40
0.6060606060606061
 40
0.6363636363636364
 40
0.6363636363636364
 40
0.6363636363636364
 40
0.6363636363636364
 40
0.6666666666666666
 40
0.6666666666666666
 40
0.6666666666666666
 40
0.6666666666666666
 40
0.696969696969697
 40
0.696969696969697
 40
0.696969696969697
 40
0.696969696969697
 40
0.7272727272727273
 40
0.7272727272727273
 40
0.7272727272727273
 40
0.7272727272727273
 40
0.7575757575757576
 40
0.7575757575757576
 40
0.7575757575757576
 40
0.7575757575757576
 40
0.7878787878787878
 40
0.7878787878787878
 40
0.7878787878787878
 40
0.7878787878787878
 40
0.8181818181818182
 40
0.8181818181818182
 40
0.8181818181818182
 40
0.8181818181818182
 40
0.8484848484848485
 40
0.8484848484848485
 40
0.8484848484848485
 40
0.8484848484848485
 40
0.8787878787878788
 40
0.8787878787878788
 40
0.8787878787878788
 40
0.8787878787878788
 40
0.9090909090909091
 40
0.9090909090909091
 40
0.9090909090909091
 40
0.9090909090909091
 40
0.9393939393939394
 40
0.9393939393939394
 40
0.9393939393939394
 40
0.9393939393939394
 40
1.0
 40
1.0
 40
1.0
 40
1.0
 10
-109.1568
 20
81.3797
 30
0.0
 10
-109.1568
 20
81.3797
 30
0.0
 10
-109.1568
 20
88.1745
 30
0.0
 10
-109.1568
 20
88.1745
 30
0.0
 10
-109.1568
 20
88.1745
 30
0.0
 10
-108.6211
 20
87.1886
 30
0.0
 10
-107.9092
 20
86.3607
 30
0.0
 10
-107.0736
 20
85.7512
 30
0.0
 10
-107.0736
 20
85.7512
 30
0.0
 10
-105.1175
 20
84.676
 30
0.0
 10
-102.828
 20
85.0097
 30
0.0
 10
-101.1396
 20
86.6156
 30
0.0
 10
-101.1396
 20
86.6156
 30
0.0
 10
-100.2965
 20
87.4584
 30
0.0
 10
-100.0516
 20
88.8959
 30
0.0
 10
-100.5503
 20
90.0724
 30
0.0
 10
-100.5503
 20
90.0724
 30
0.0
 10
-101.1574
 20
91.2595
 30
0.0
 10
-102.3904
 20
91.7342
 30
0.0
 10
-103.4543
 20
91.1907
 30
0.0
 10
-103.4543
 20
91.1907
 30
0.0
 10
-103.2753
 20
90.7696
 30
0.0
 10
-103.324
 20
90.2598
 30
0.0
 10
-103.5771
 20
89.8988
 30
0.0
 10
-103.5771
 20
89.8988
 30
0.0
 10
-103.8302
 20
89.5374
 30
0.0
 10
-104.2382
 20
89.3954
 30
0.0
 10
-104.6116
 20
89.5385
 30
0.0
 10
-104.6116
 20
89.5385
 30
0.0
 10
-105.1714
 20
89.8385
 30
0.0
 10
-105.5673
 20
90.4601
 30
0.0
 10
-105.6638
 20
91.1907
 30
0.0
 10
-105.6638
 20
91.1907
 30
0.0
 10
-105.7523
 20
92.8684
 30
0.0
 10
-104.9616
 20
94.4333
 30
0.0
 10
-103.6857
 20
95.105
 30
0.0
 10
-103.6857
 20
95.105
 30
0.0
 10
-101.5305
 20
95.6311
 30
0.0
 10
-99.3057
 20
94.7418
 30
0.0
 10
-97.836
 20
92.7666
 30
0.0
 10
-97.836
 20
92.7666
 30
0.0
 10
-97.3081
 20
91.9401
 30
0.0
 10
-97.1799
 20
90.8389
 30
0.0
 10
-97.4991
 20
89.869
 30
0.0
 10
-97.4991
 20
89.869
 30
0.0
 10
-97.8913
 20
88.9566
 30
0.0
 10
-98.7199
 20
88.4461
 30
0.0
 10
-99.5613
 20
88.598
 30
0.0
 10
-99.5613
 20
88.598
 30
0.0
 10
-99.8357
 20
87.5831
 30
0.0
 10
-99.5748
 20
86.468
 30
0.0
 10
-98.901
 20
85.7768
 30
0.0
 10
-98.901
 20
85.7768
 30
0.0
 10
-98.2271
 20
85.0852
 30
0.0
 10
-97.274
 20
84.9549
 30
0.0
 10
-96.489
 20
85.4463
 30
0.0
 10
-96.489
 20
85.4463
 30
0.0
 10
-95.5558
 20
85.9138
 30
0.0
 10
-94.7729
 20
86.7343
 30
0.0
 10
-94.2585
 20
87.7847
 30
0.0
 10
-94.2585
 20
87.7847
 30
0.0
 10
-92.9805
 20
85.6355
 30
0.0
 10
-91.6859
 20
83.5002
 30
0.0
 10
-90.3751
 20
81.3797
 30
0.0
 10
-90.3751
 20
81.3797
 30
0.0
 10
-91.6859
 20
79.2592
 30
0.0
 10
-92.9805
 20
77.1238
 30
0.0
 10
-94.2585
 20
74.9746
 30
0.0
 10
-94.2585
 20
74.9746
 30
0.0
 10
-94.7729
 20
76.0251
 30
0.0
 10
-95.5558
 20
76.8455
 30
0.0
 10
-96.489
 20
77.3127
 30
0.0
 10
-96.489
 20
77.3127
 30
0.0
 10
-97.274
 20
77.8044
 30
0.0
 10
-98.2271
 20
77.6738
 30
0.0
 10
-98.901
 20
76.9825
 30
0.0
 10
-98.901
 20
76.9825
 30
0.0
 10
-99.5748
 20
76.2914
 30
0.0
 10
-99.8357
 20
75.1763
 30
0.0
 10
-99.5613
 20
74.1613
 30
0.0
 10
-99.5613
 20
74.1613
 30
0.0
 10
-98.7199
 20
74.3133
 30
0.0
 10
-97.8913
 20
73.8024
 30
0.0
 10
-97.4991
 20
72.8903
 30
0.0
 10
-97.4991
 20
72.8903
 30
0.0
 10
-97.1799
 20
71.9202
 30
0.0
 10
-97.3081
 20
70.8189
 30
0.0
 10
-97.836
 20
69.9929
 30
0.0
 10
-97.836
 20
69.9929
 30
0.0
 10
-99.3057
 20
68.0175
 30
0.0
 10
-101.5305
 20
67.1283
 30
0.0
 10
-103.6857
 20
67.6544
 30
0.0
 10
-103.6857
 20
67.6544
 30
0.0
 10
-104.9616
 20
68.3261
 30
0.0
 10
-105.7523
 20
69.8909
 30
0.0
 10
-105.6638
 20
71.5687
 30
0.0
 10
-105.6638
 20
71.5687
 30
0.0
 10
-105.5673
 20
72.2989
 30
0.0
 10
-105.1714
 20
72.9209
 30
0.0
 10
-104.6116
 20
73.2205
 30
0.0
 10
-104.6116
 20
73.2205
 30
0.0
 10
-104.2382
 20
73.3639
 30
0.0
 10
-103.8302
 20
73.2219
 30
0.0
 10
-103.5771
 20
72.8606
 30
0.0
 10
-103.5771
 20
72.8606
 30
0.0
 10
-103.324
 20
72.4992
 30
0.0
 10
-103.2753
 20
71.9897
 30
0.0
 10
-103.4543
 20
71.5687
 30
0.0
 10
-103.4543
 20
71.5687
 30
0.0
 10
-102.3904
 20
71.0248
 30
0.0
 10
-101.1574
 20
71.4998
 30
0.0
 10
-100.5503
 20
72.687
 30
0.0
 10
-100.5503
 20
72.687
 30
0.0
 10
-100.0516
 20
73.8635
 30
0.0
 10
-100.2965
 20
75.3009
 30
0.0
 10
-101.1396
 20
76.1437
 30
0.0
 10
-101.1396
 20
76.1437
 30
0.0
 10
-102.828
 20
77.7498
 30
0.0
 10
-105.1175
 20
78.0831
 30
0.0
 10
-107.0736
 20
77.0078
 30
0.0
 10
-107.0736
 20
77.0078
 30
0.0
 10
-107.9092
 20
76.3982
 30
0.0
 10
-108.6211
 20
75.5704
 30
0.0
 10
-109.1568
 20
74.5849
 30
0.0
 10
-109.1568
 20
74.5849
 30
0.0
 10
-109.1568
 20
74.5849
 30
0.0
 10
-109.1568
 20
81.3797
 30
0.0
 10
-109.1568
 20
81.3797
 30
0.0
  0
SPLINE
  5
87
330
1F
100
AcDbEntity
  8
layer 1
 62
     7
370
     9
100
AcDbSpline
210
0.0
220
0.0
230
1.0
 70
    11
 71
     3
 72
    28
 73
    24
 74
     0
 42
0.0000000001
 43
0.0000000001
 12
1.0
 22
0.0
 32
0.0
 13
1.0
 23
0.0
 33
0.0
 40
0.0
 40
0.0
 40
0.0
 40
0.0
 40
0.1428571428571428
 40
0.1428571428571428
 40
0.1428571428571428
 40
0.1428571428571428
 40
0.2857142857142857
 40
0.2857142857142857
 40
0.2857142857142857
 40
0.2857142857142857
 40
0.4285714285714285
 40
0.4285714285714285
 40
0.4285714285714285
 40
0.4285714285714285
 40
0.5714285714285714
 40
0.5714285714285714
 40
0.5714285714285714
 40
0.5714285714285714
 40
0.7142857142857143
 40
0.7142857142857143
 40
0.7142857142857143
 40
0.7142857142857143
 40
1.0
 40
1.0
 40
1.0
 40
1.0
 10
-83.0215
 20
78.9397
 30
0.0
 10
-81.0079
 20
77.7068
 30
0.0
 10
-78.6251
 20
77.7259
 30
0.0
 10
-76.6247
 20
78.9905
 30
0.0
 10
-76.6247
 20
78.9905
 30
0.0
 10
-75.9867
 20
79.5351
 30
0.0
 10
-75.6253
 20
80.4374
 30
0.0
 10
-75.6676
 20
81.3797
 30
0.0
 10
-75.6676
 20
81.3797
 30
0.0
 10
-75.6253
 20
82.3219
 30
0.0
 10
-75.9867
 20
83.2239
 30
0.0
 10
-76.6247
 20
83.7689
 30
0.0
 10
-76.6247
 20
83.7689
 30
0.0
 10
-78.6251
 20
85.0334
 30
0.0
 10
-81.0079
 20
85.0522
 30
0.0
 10
-83.0215
 20
83.8197
 30
0.0
 10
-83.0215
 20
83.8197
 30
0.0
 10
-83.8806
 20
83.0028
 30
0.0
 10
-84.7423
 20
82.1894
 30
0.0
 10
-85.6056
 20
81.3797
 30
0.0
 10
-85.6056
 20
81.3797
 30
0.0
 10
-84.7423
 20
80.5696
 30
0.0
 10
-83.8806
 20
79.7563
 30
0.0
 10
-83.0215
 20
78.9397
 30
0.0
  0
SPLINE
  5
88
330
1F
100
AcDbEntity
  8
layer 1
 62
     7
370
     9
100
AcDbSpline
210
0.0
220
0.0
230
1.0
 70
    11
 71
     3
 72
   188
 73
   184
 74
     0
 42
0.0000000001
 43
0.0000000001
 12
1.0
 22
0.0
 32
0.0
 13
1.0
 23
0.0
 33
0.0
 40
0.0
 40
0.0
 40
0.0
 40
0.0
 40
0.0212765957446809
 40
0.0212765957446809
 40
0.0212765957446809
 40
0.0212765957446809
 40
0.0425531914893617
 40
0.0425531914893617
 40
0.0425531914893617
 40
0.0425531914893617
 40
0.0638297872340425
 40
0.0638297872340425
 40
0.0638297872340425
 40
0.0638297872340425
 40
0.0851063829787234
 40
0.0851063829787234
 40
0.0851063829787234
 40
0.0851063829787234
 40
0.1063829787234043
 40
0.1063829787234043
 40
0.1063829787234043
 40
0.1063829787234043
 40
0.1276595744680851
 40
0.1276595744680851
 40
0.1276595744680851
 40
0.1276595744680851
 40
0.148936170212766
 40
0.148936170212766
 40
0.148936170212766
 40
0.148936170212766
 40
0.1702127659574468
 40
0.1702127659574468
 40
0.1702127659574468
 40
0.1702127659574468
 40
0.1914893617021277
 40
0.1914893617021277
 40
0.1914893617021277
 40
0.1914893617021277
 40
0.2127659574468085
 40
0.2127659574468085
 40
0.2127659574468085
 40
0.2127659574468085
 40
0.2340425531914894
 40
0.2340425531914894
 40
0.2340425531914894
 40
0.2340425531914894
 40
0.2553191489361702
 40
0.2553191489361702
 40
0.2553191489361702
 40
0.2553191489361702
 40
0.2765957446808511
 40
0.2765957446808511
 40
0.2765957446808511
 40
0.2765957446808511
 40
0.2978723404255319
 40
0.2978723404255319
 40
0.2978723404255319
 40
0.2978723404255319
 40
0.3191489361702128
 40
0.3191489361702128
 40
0.3191489361702128
 40
0.3191489361702128
 40
0.3404255319148936
 40
0.3404255319148936
 40
0.3404255319148936
 40
0.3404255319148936
 40
0.3617021276595745
 40
0.3617021276595745
 40
0.3617021276595745
 40
0.3617021276595745
 40
0.3829787234042553
 40
0.3829787234042553
 40
0.3829787234042553
 40
0.3829787234042553
 40
0.4042553191489361
 40
0.4042553191489361
 40
0.4042553191489361
 40
0.4042553191489361
 40
0.425531914893617
 40
0.425531914893617
 40
0.425531914893617
 40
0.425531914893617
 40
0.4468085106382979
 40
0.4468085106382979
 40
0.4468085106382979
 40
0.4468085106382979
 40
0.4680851063829787
 40
0.4680851063829787
 40
0.4680851063829787
 40
0.4680851063829787
 40
0.4893617021276596
 40
0.4893617021276596
 40
0.4893617021276596
 40
0.4893617021276596
 40
0.5106382978723404
 40
0.5106382978723404
 40
0.5106382978723404
 40
0.5106382978723404
 40
0.5319148936170213
 40
0.5319148936170213
 40
0.5319148936170213
 40
0.5319148936170213
 40
0.5531914893617021
 40
0.5531914893617021
 40
0.5531914893617021
 40
0.5531914893617021
 40
0.574468085106383
 40
0.574468085106383
 40
0.574468085106383
 40
0.574468085106383
 40
0.5957446808510638
 40
0.5957446808510638
 40
0.5957446808510638
 40
0.5957446808510638
 40
0.6170212765957447
 40
0.6170212765957447
 40
0.6170212765957447
 40
0.6170212765957447
 40
0.6382978723404256
 40
0.6382978723404256
 40
0.6382978723404256
 40
0.6382978723404256
 40
0.6595744680851063
 40
0.6595744680851063
 40
0.6595744680851063
 40
0.6595744680851063
 40
0.6808510638297872
 40
0.6808510638297872
 40
0.6808510638297872
 40
0.6808510638297872
 40
0.7021276595744681
 40
0.7021276595744681
 40
0.7021276595744681
 40
0.7021276595744681
 40
0.723404255319149
 40
0.723404255319149
 40
0.723404255319149
 40
0.723404255319149
 40
0.7446808510638298
 40
0.7446808510638298
 40
0.7446808510638298
 40
0.7446808510638298
 40
0.7659574468085106
 40
0.7659574468085106
 40
0.7659574468085106
 40
0.7659574468085106
 40
0.7872340425531915
 40
0.7872340425531915
 40
0.7872340425531915
 40
0.7872340425531915
 40
0.8085106382978723
 40
0.8085106382978723
 40
0.8085106382978723
 40
0.8085106382978723
 40
0.8297872340425532
 40
0.8297872340425532
 40
0.8297872340425532
 40
0.8297872340425532
 40
0.851063829787234
 40
0.851063829787234
 40
0.851063829787234
 40
0.851063829787234
 40
0.8723404255319149
 40
0.8723404255319149
 40
0.8723404255319149
 40
0.8723404255319149
 40
0.8936170212765957
 40
0.8936170212765957
 40
0.8936170212765957
 40
0.8936170212765957
 40
0.9148936170212766
 40
0.9148936170212766
 40
0.9148936170212766
 40
0.9148936170212766
 40
0.9361702127659575
 40
0.9361702127659575
 40
0.9361702127659575
 40
0.9361702127659575
 40
0.9574468085106383
 40
0.9574468085106383
 40
0.9574468085106383
 40
0.9574468085106383
 40
1.0
 40
1.0
 40
1.0
 40
1.0
 10
-109.1568
 20
95.5058
 30
0.0
 10
-105.9692
 20
99.3555
 30
0.0
 10
-101.0899
 20
100.2817
 30
0.0
 10
-97.0783
 20
97.7991
 30
0.0
 10
-97.0783
 20
97.7991
 30
0.0
 10
-96.0094
 20
96.7884
 30
0.0
 10
-94.9075
 20
95.8302
 30
0.0
 10
-93.7747
 20
94.9271
 30
0.0
 10
-93.7747
 20
94.9271
 30
0.0
 10
-93.0079
 20
94.319
 30
0.0
 10
-92.1026
 20
94.0165
 30
0.0
 10
-91.1863
 20
94.0627
 30
0.0
 10
-91.1863
 20
94.0627
 30
0.0
 10
-90.7153
 20
94.1039
 30
0.0
 10
-90.3034
 20
94.4617
 30
0.0
 10
-90.1209
 20
94.9878
 30
0.0
 10
-90.1209
 20
94.9878
 30
0.0
 10
-89.9388
 20
95.5143
 30
0.0
 10
-90.0173
 20
96.1196
 30
0.0
 10
-90.3236
 20
96.5538
 30
0.0
 10
-90.3236
 20
96.5538
 30
0.0
 10
-89.1106
 20
97.0504
 30
0.0
 10
-87.7736
 20
96.4842
 30
0.0
 10
-87.0832
 20
95.1813
 30
0.0
 10
-87.0832
 20
95.1813
 30
0.0
 10
-86.5701
 20
93.7524
 30
0.0
 10
-86.9888
 20
92.0856
 30
0.0
 10
-88.0722
 20
91.2414
 30
0.0
 10
-88.0722
 20
91.2414
 30
0.0
 10
-89.1131
 20
90.7143
 30
0.0
 10
-90.2743
 20
90.6425
 30
0.0
 10
-91.3546
 20
91.038
 30
0.0
 10
-91.3546
 20
91.038
 30
0.0
 10
-90.1635
 20
88.8288
 30
0.0
 10
-88.9426
 20
86.6426
 30
0.0
 10
-87.6931
 20
84.4806
 30
0.0
 10
-87.6931
 20
84.4806
 30
0.0
 10
-85.5119
 20
86.6618
 30
0.0
 10
-82.8487
 20
88.0226
 30
0.0
 10
-80.0338
 20
88.3946
 30
0.0
 10
-80.0338
 20
88.3946
 30
0.0
 10
-77.2129
 20
88.608
 30
0.0
 10
-74.5144
 20
86.9781
 30
0.0
 10
-72.9633
 20
84.1246
 30
0.0
 10
-72.9633
 20
84.1246
 30
0.0
 10
-72.9633
 20
84.1246
 30
0.0
 10
-72.9633
 20
95.0034
 30
0.0
 10
-72.9633
 20
95.0034
 30
0.0
 10
-72.9633
 20
95.0034
 30
0.0
 10
-72.9795
 20
95.6084
 30
0.0
 10
-73.2002
 20
96.1789
 30
0.0
 10
-73.5739
 20
96.5821
 30
0.0
 10
-73.5739
 20
96.5821
 30
0.0
 10
-73.9477
 20
96.9858
 30
0.0
 10
-74.4418
 20
97.1867
 30
0.0
 10
-74.9412
 20
97.1384
 30
0.0
 10
-74.9412
 20
97.1384
 30
0.0
 10
-75.299
 20
97.1143
 30
0.0
 10
-75.6263
 20
96.8882
 30
0.0
 10
-75.8252
 20
96.5282
 30
0.0
 10
-75.8252
 20
96.5282
 30
0.0
 10
-76.024
 20
96.1682
 30
0.0
 10
-76.0705
 20
95.7163
 30
0.0
 10
-75.9511
 20
95.3084
 30
0.0
 10
-75.9511
 20
95.3084
 30
0.0
 10
-76.2313
 20
94.5273
 30
0.0
 10
-76.8153
 20
93.9665
 30
0.0
 10
-77.5082
 20
93.8134
 30
0.0
 10
-77.5082
 20
93.8134
 30
0.0
 10
-78.2012
 20
93.6601
 30
0.0
 10
-78.9116
 20
93.9352
 30
0.0
 10
-79.4025
 20
94.5458
 30
0.0
 10
-79.4025
 20
94.5458
 30
0.0
 10
-79.6479
 20
94.9416
 30
0.0
 10
-79.7419
 20
95.4451
 30
0.0
 10
-79.6617
 20
95.93
 30
0.0
 10
-79.6617
 20
95.93
 30
0.0
 10
-79.5814
 20
96.415
 30
0.0
 10
-79.3341
 20
96.836
 30
0.0
 10
-78.9815
 20
97.0873
 30
0.0
 10
-78.9815
 20
97.0873
 30
0.0
 10
-79.7536
 20
97.2499
 30
0.0
 10
-80.4541
 20
97.7359
 30
0.0
 10
-80.9596
 20
98.4601
 30
0.0
 10
-80.9596
 20
98.4601
 30
0.0
 10
-81.5447
 20
98.9529
 30
0.0
 10
-82.2267
 20
99.2508
 30
0.0
 10
-82.9373
 20
99.3243
 30
0.0
 10
-82.9373
 20
99.3243
 30
0.0
 10
-82.9373
 20
99.3243
 30
0.0
 10
-82.9373
 20
100.646
 30
0.0
 10
-82.9373
 20
100.646
 30
0.0
 10
-82.9373
 20
100.646
 30
0.0
 10
-82.2267
 20
100.719
 30
0.0
 10
-81.5447
 20
101.0173
 30
0.0
 10
-80.9596
 20
101.51
 30
0.0
 10
-80.9596
 20
101.51
 30
0.0
 10
-80.4541
 20
102.2338
 30
0.0
 10
-79.7536
 20
102.7199
 30
0.0
 10
-78.9815
 20
102.8825
 30
0.0
 10
-78.9815
 20
102.8825
 30
0.0
 10
-79.3341
 20
103.1342
 30
0.0
 10
-79.5814
 20
103.5548
 30
0.0
 10
-79.6617
 20
104.0398
 30
0.0
 10
-79.6617
 20
104.0398
 30
0.0
 10
-79.7419
 20
104.5251
 30
0.0
 10
-79.6479
 20
105.0285
 30
0.0
 10
-79.4025
 20
105.4244
 30
0.0
 10
-79.4025
 20
105.4244
 30
0.0
 10
-78.9116
 20
106.0349
 30
0.0
 10
-78.2012
 20
106.3097
 30
0.0
 10
-77.5082
 20
106.1567
 30
0.0
 10
-77.5082
 20
106.1567
 30
0.0
 10
-76.8153
 20
106.0033
 30
0.0
 10
-76.2313
 20
105.4428
 30
0.0
 10
-75.9511
 20
104.6618
 30
0.0
 10
-75.9511
 20
104.6618
 30
0.0
 10
-76.0705
 20
104.2538
 30
0.0
 10
-76.024
 20
103.802
 30
0.0
 10
-75.8252
 20
103.4416
 30
0.0
 10
-75.8252
 20
103.4416
 30
0.0
 10
-75.6263
 20
103.0817
 30
0.0
 10
-75.299
 20
102.8558
 30
0.0
 10
-74.9412
 20
102.8317
 30
0.0
 10
-74.9412
 20
102.8317
 30
0.0
 10
-74.4418
 20
102.7834
 30
0.0
 10
-73.9477
 20
102.9843
 30
0.0
 10
-73.5739
 20
103.3877
 30
0.0
 10
-73.5739
 20
103.3877
 30
0.0
 10
-73.2002
 20
103.7913
 30
0.0
 10
-72.9795
 20
104.3618
 30
0.0
 10
-72.9633
 20
104.9667
 30
0.0
 10
-72.9633
 20
104.9667
 30
0.0
 10
-72.9633
 20
104.9667
 30
0.0
 10
-72.9633
 20
115.8455
 30
0.0
 10
-72.9633
 20
115.8455
 30
0.0
 10
-72.9633
 20
115.8455
 30
0.0
 10
-74.5144
 20
112.992
 30
0.0
 10
-77.2129
 20
111.3622
 30
0.0
 10
-80.0338
 20
111.5752
 30
0.0
 10
-80.0338
 20
111.5752
 30
0.0
 10
-82.8487
 20
111.9475
 30
0.0
 10
-85.5119
 20
113.3083
 30
0.0
 10
-87.6931
 20
115.4895
 30
0.0
 10
-87.6931
 20
115.4895
 30
0.0
 10
-88.9426
 20
113.3275
 30
0.0
 10
-90.1635
 20
111.1414
 30
0.0
 10
-91.3546
 20
108.9318
 30
0.0
 10
-91.3546
 20
108.9318
 30
0.0
 10
-90.2743
 20
109.3276
 30
0.0
 10
-89.1131
 20
109.2555
 30
0.0
 10
-88.0722
 20
108.7284
 30
0.0
 10
-88.0722
 20
108.7284
 30
0.0
 10
-86.9888
 20
107.8845
 30
0.0
 10
-86.5701
 20
106.2174
 30
0.0
 10
-87.0832
 20
104.7889
 30
0.0
 10
-87.0832
 20
104.7889
 30
0.0
 10
-87.7736
 20
103.486
 30
0.0
 10
-89.1106
 20
102.9197
 30
0.0
 10
-90.3236
 20
103.4164
 30
0.0
 10
-90.3236
 20
103.4164
 30
0.0
 10
-90.0173
 20
103.8506
 30
0.0
 10
-89.9388
 20
104.4559
 30
0.0
 10
-90.1209
 20
104.982
 30
0.0
 10
-90.1209
 20
104.982
 30
0.0
 10
-90.3034
 20
105.5085
 30
0.0
 10
-90.7153
 20
105.8659
 30
0.0
 10
-91.1863
 20
105.9071
 30
0.0
 10
-91.1863
 20
105.9071
 30
0.0
 10
-92.1026
 20
105.9533
 30
0.0
 10
-93.0079
 20
105.6512
 30
0.0
 10
-93.7747
 20
105.0431
 30
0.0
 10
-93.7747
 20
105.0431
 30
0.0
 10
-94.9075
 20
104.1396
 30
0.0
 10
-96.0094
 20
103.1814
 30
0.0
 10
-97.0783
 20
102.171
 30
0.0
 10
-97.0783
 20
102.171
 30
0.0
 10
-101.0899
 20
99.6881
 30
0.0
 10
-105.9692
 20
100.6147
 30
0.0
 10
-109.1568
 20
104.4643
 30
0.0
 10
-109.1568
 20
104.4643
 30
0.0
 10
-109.1568
 20
104.4643
 30
0.0
 10
-109.1568
 20
95.5058
 30
0.0
 10
-109.1568
 20
95.5058
 30
0.0
  0
SPLINE
  5
89
330
1F
100
AcDbEntity
  8
layer 1
 62
     7
370
     9
100
AcDbSpline
210
0.0
220
0.0
230
1.0
 70
    11
 71
     3
 72
    40
 73
    36
 74
     0
 42
0.0000000001
 43
0.0000000001
 12
1.0
 22
0.0
 32
0.0
 13
1.0
 23
0.0
 33
0.0
 40
0.0
 40
0.0
 40
0.0
 40
0.0
 40
0.1
 40
0.1
 40
0.1
 40
0.1
 40
0.2
 40
0.2
 40
0.2
 40
0.2
 40
0.3
 40
0.3
 40
0.3
 40
0.3
 40
0.4
 40
0.4
 40
0.4
 40
0.4
 40
0.5
 40
0.5
 40
0.5
 40
0.5
 40
0.6
 40
0.6
 40
0.6
 40
0.6
 40
0.7
 40
0.7
 40
0.7
 40
0.7
 40
0.8
 40
0.8
 40
0.8
 40
0.8
 40
1.0
 40
1.0
 40
1.0
 40
1.0
 10
-60.2535
 20
34.9064
 30
0.0
 10
-60.0091
 20
33.3912
 30
0.0
 10
-58.9775
 20
32.2439
 30
0.0
 10
-57.7073
 20
32.0745
 30
0.0
 10
-57.7073
 20
32.0745
 30
0.0
 10
-57.7615
 20
30.9492
 30
0.0
 10
-57.1964
 20
29.915
 30
0.0
 10
-56.3184
 20
29.5327
 30
0.0
 10
-56.3184
 20
29.5327
 30
0.0
 10
-56.4163
 20
24.3485
 30
0.0
 10
-56.4583
 20
19.1628
 30
0.0
 10
-56.4446
 20
13.9773
 30
0.0
 10
-56.4446
 20
13.9773
 30
0.0
 10
-58.4185
 20
13.2109
 30
0.0
 10
-60.18
 20
11.8039
 30
0.0
 10
-61.537
 20
9.9107
 30
0.0
 10
-61.537
 20
9.9107
 30
0.0
 10
-62.7279
 20
15.0213
 30
0.0
 10
-64.6277
 20
19.8516
 30
0.0
 10
-67.1555
 20
24.1951
 30
0.0
 10
-67.1555
 20
24.1951
 30
0.0
 10
-67.1555
 20
24.1951
 30
0.0
 10
-67.1555
 20
47.2187
 30
0.0
 10
-67.1555
 20
47.2187
 30
0.0
 10
-67.1555
 20
47.2187
 30
0.0
 10
-66.8002
 20
46.4995
 30
0.0
 10
-66.2716
 20
45.9283
 30
0.0
 10
-65.6403
 20
45.5814
 30
0.0
 10
-65.6403
 20
45.5814
 30
0.0
 10
-66.0301
 20
43.1476
 30
0.0
 10
-65.0331
 20
40.6973
 30
0.0
 10
-63.1994
 20
39.5833
 30
0.0
 10
-63.1994
 20
39.5833
 30
0.0
 10
-63.2979
 20
37.3634
 30
0.0
 10
-62.0509
 20
35.3839
 30
0.0
 10
-60.2535
 20
34.9064
 30
0.0
  0
SPLINE
  5
8A
330
1F
100
AcDbEntity
  8
layer 1
 62
     7
370
     9
100
AcDbSpline
210
0.0
220
0.0
230
1.0
 70
    11
 71
     3
 72
    48
 73
    44
 74
     0
 42
0.0000000001
 43
0.0000000001
 12
1.0
 22
0.0
 32
0.0
 13
1.0
 23
0.0
 33
0.0
 40
0.0
 40
0.0
 40
0.0
 40
0.0
 40
0.0833333333333333
 40
0.0833333333333333
 40
0.0833333333333333
 40
0.0833333333333333
 40
0.1666666666666667
 40
0.1666666666666667
 40
0.1666666666666667
 40
0.1666666666666667
 40
0.25
 40
0.25
 40
0.25
 40
0.25
 40
0.3333333333333333
 40
0.3333333333333333
 40
0.3333333333333333
 40
0.3333333333333333
 40
0.4166666666666667
 40
0.4166666666666667
 40
0.4166666666666667
 40
0.4166666666666667
 40
0.5
 40
0.5
 40
0.5
 40
0.5
 40
0.5833333333333334
 40
0.5833333333333334
 40
0.5833333333333334
 40
0.5833333333333334
 40
0.6666666666666666
 40
0.6666666666666666
 40
0.6666666666666666
 40
0.6666666666666666
 40
0.75
 40
0.75
 40
0.75
 40
0.75
 40
0.8333333333333334
 40
0.8333333333333334
 40
0.8333333333333334
 40
0.8333333333333334
 40
1.0
 40
1.0
 40
1.0
 40
1.0
 10
-56.3921
 20
46.0245
 30
0.0
 10
-56.3921
 20
46.0245
 30
0.0
 10
-56.4446
 20
36.0609
 30
0.0
 10
-56.4446
 20
36.0609
 30
0.0
 10
-56.4446
 20
36.0609
 30
0.0
 10
-56.7708
 20
35.6593
 30
0.0
 10
-57.1122
 20
35.2759
 30
0.0
 10
-57.4678
 20
34.9127
 30
0.0
 10
-57.4678
 20
34.9127
 30
0.0
 10
-62.1958
 20
40.823
 30
0.0
 10
-64.7836
 20
48.7619
 30
0.0
 10
-64.6604
 20
56.9789
 30
0.0
 10
-64.6604
 20
56.9789
 30
0.0
 10
-64.4652
 20
65.1438
 30
0.0
 10
-61.9081
 20
72.9677
 30
0.0
 10
-57.4336
 20
79.092
 30
0.0
 10
-57.4336
 20
79.092
 30
0.0
 10
-57.0525
 20
78.7076
 30
0.0
 10
-56.6872
 20
78.3003
 30
0.0
 10
-56.3396
 20
77.8722
 30
0.0
 10
-56.3396
 20
77.8722
 30
0.0
 10
-56.3396
 20
77.8722
 30
0.0
 10
-56.3396
 20
67.921
 30
0.0
 10
-56.3396
 20
67.921
 30
0.0
 10
-56.3396
 20
67.921
 30
0.0
 10
-57.2719
 20
67.2486
 30
0.0
 10
-57.8432
 20
66.0334
 30
0.0
 10
-57.8432
 20
64.7216
 30
0.0
 10
-57.8432
 20
64.7216
 30
0.0
 10
-57.8432
 20
63.4099
 30
0.0
 10
-57.2719
 20
62.1948
 30
0.0
 10
-56.3396
 20
61.5224
 30
0.0
 10
-56.3396
 20
61.5224
 30
0.0
 10
-56.3396
 20
61.5224
 30
0.0
 10
-56.3396
 20
52.4359
 30
0.0
 10
-56.3396
 20
52.4359
 30
0.0
 10
-56.3396
 20
52.4359
 30
0.0
 10
-57.2793
 20
51.7735
 30
0.0
 10
-57.8616
 20
50.5625
 30
0.0
 10
-57.8724
 20
49.2484
 30
0.0
 10
-57.8724
 20
49.2484
 30
0.0
 10
-57.8833
 20
47.9337
 30
0.0
 10
-57.3209
 20
46.7093
 30
0.0
 10
-56.3921
 20
46.0245
 30
0.0
  0
SPLINE
  5
8B
330
1F
100
AcDbEntity
  8
layer 1
 62
     7
370
     9
100
AcDbSpline
210
0.0
220
0.0
230
1.0
 70
    11
 71
     3
 72
    48
 73
    44
 74
     0
 42
0.0000000001
 43
0.0000000001
 12
1.0
 22
0.0
 32
0.0
 13
1.0
 23
0.0
 33
0.0
 40
0.0
 40
0.0
 40
0.0
 40
0.0
 40
0.0833333333333333
 40
0.0833333333333333
 40
0.0833333333333333
 40
0.0833333333333333
 40
0.1666666666666667
 40
0.1666666666666667
 40
0.1666666666666667
 40
0.1666666666666667
 40
0.25
 40
0.25
 40
0.25
 40
0.25
 40
0.3333333333333333
 40
0.3333333333333333
 40
0.3333333333333333
 40
0.3333333333333333
 40
0.4166666666666667
 40
0.4166666666666667
 40
0.4166666666666667
 40
0.4166666666666667
 40
0.5
 40
0.5
 40
0.5
 40
0.5
 40
0.5833333333333334
 40
0.5833333333333334
 40
0.5833333333333334
 40
0.5833333333333334
 40
0.6666666666666666
 40
0.6666666666666666
 40
0.6666666666666666
 40
0.6666666666666666
 40
0.75
 40
0.75
 40
0.75
 40
0.75
 40
0.8333333333333334
 40
0.8333333333333334
 40
0.8333333333333334
 40
0.8333333333333334
 40
1.0
 40
1.0
 40
1.0
 40
1.0
 10
-56.3396
 20
115.502
 30
0.0
 10
-57.2719
 20
114.8295
 30
0.0
 10
-57.8432
 20
113.6147
 30
0.0
 10
-57.8432
 20
112.3026
 30
0.0
 10
-57.8432
 20
112.3026
 30
0.0
 10
-57.8432
 20
110.9908
 30
0.0
 10
-57.2719
 20
109.7757
 30
0.0
 10
-56.3396
 20
109.1033
 30
0.0
 10
-56.3396
 20
109.1033
 30
0.0
 10
-56.3396
 20
109.1033
 30
0.0
 10
-56.3396
 20
100.0168
 30
0.0
 10
-56.3396
 20
100.0168
 30
0.0
 10
-56.3396
 20
100.0168
 30
0.0
 10
-57.2719
 20
99.3445
 30
0.0
 10
-57.8432
 20
98.1293
 30
0.0
 10
-57.8432
 20
96.8175
 30
0.0
 10
-57.8432
 20
96.8175
 30
0.0
 10
-57.8432
 20
95.5058
 30
0.0
 10
-57.2719
 20
94.2905
 30
0.0
 10
-56.3396
 20
93.6182
 30
0.0
 10
-56.3396
 20
93.6182
 30
0.0
 10
-56.3396
 20
93.6182
 30
0.0
 10
-56.3396
 20
83.667
 30
0.0
 10
-56.3396
 20
83.667
 30
0.0
 10
-56.3396
 20
83.667
 30
0.0
 10
-56.6872
 20
83.2388
 30
0.0
 10
-57.0525
 20
82.8317
 30
0.0
 10
-57.4336
 20
82.4472
 30
0.0
 10
-57.4336
 20
82.4472
 30
0.0
 10
-61.9081
 20
88.5714
 30
0.0
 10
-64.4652
 20
96.3955
 30
0.0
 10
-64.6604
 20
104.5602
 30
0.0
 10
-64.6604
 20
104.5602
 30
0.0
 10
-64.5441
 20
109.4217
 30
0.0
 10
-63.5889
 20
114.2005
 30
0.0
 10
-61.856
 20
118.5905
 30
0.0
 10
-61.856
 20
118.5905
 30
0.0
 10
-61.856
 20
118.5905
 30
0.0
 10
-56.3396
 20
118.5905
 30
0.0
 10
-56.3396
 20
118.5905
 30
0.0
 10
-56.3396
 20
118.5905
 30
0.0
 10
-56.3396
 20
118.5905
 30
0.0
 10
-56.3396
 20
115.502
 30
0.0
 10
-56.3396
 20
115.502
 30
0.0
  0
SPLINE
  5
8C
330
1F
100
AcDbEntity
  8
layer 1
 62
     7
370
     9
100
AcDbSpline
210
0.0
220
0.0
230
1.0
 70
    11
 71
     3
 72
    44
 73
    40
 74
     0
 42
0.0000000001
 43
0.0000000001
 12
1.0
 22
0.0
 32
0.0
 13
1.0
 23
0.0
 33
0.0
 40
0.0
 40
0.0
 40
0.0
 40
0.0
 40
0.0909090909090909
 40
0.0909090909090909
 40
0.0909090909090909
 40
0.0909090909090909
 40
0.1818181818181818
 40
0.1818181818181818
 40
0.1818181818181818
 40
0.1818181818181818
 40
0.2727272727272727
 40
0.2727272727272727
 40
0.2727272727272727
 40
0.2727272727272727
 40
0.3636363636363636
 40
0.3636363636363636
 40
0.3636363636363636
 40
0.3636363636363636
 40
0.4545454545454545
 40
0.4545454545454545
 40
0.4545454545454545
 40
0.4545454545454545
 40
0.5454545454545454
 40
0.5454545454545454
 40
0.5454545454545454
 40
0.5454545454545454
 40
0.6363636363636364
 40
0.6363636363636364
 40
0.6363636363636364
 40
0.6363636363636364
 40
0.7272727272727273
 40
0.7272727272727273
 40
0.7272727272727273
 40
0.7272727272727273
 40
0.8181818181818182
 40
0.8181818181818182
 40
0.8181818181818182
 40
0.8181818181818182
 40
1.0
 40
1.0
 40
1.0
 40
1.0
 10
-67.2396
 20
80.7694
 30
0.0
 10
-67.2396
 20
80.7694
 30
0.0
 10
-67.2396
 20
96.3865
 30
0.0
 10
-67.2396
 20
96.3865
 30
0.0
 10
-67.2396
 20
96.3865
 30
0.0
 10
-66.8844
 20
95.667
 30
0.0
 10
-66.3559
 20
95.0957
 30
0.0
 10
-65.7245
 20
94.7492
 30
0.0
 10
-65.7245
 20
94.7492
 30
0.0
 10
-66.1143
 20
92.3149
 30
0.0
 10
-65.1172
 20
89.8647
 30
0.0
 10
-63.2835
 20
88.7507
 30
0.0
 10
-63.2835
 20
88.7507
 30
0.0
 10
-63.382
 20
86.5308
 30
0.0
 10
-62.1352
 20
84.5513
 30
0.0
 10
-60.3377
 20
84.0738
 30
0.0
 10
-60.3377
 20
84.0738
 30
0.0
 10
-60.2216
 20
82.6552
 30
0.0
 10
-59.511
 20
81.4077
 30
0.0
 10
-58.4556
 20
80.7694
 30
0.0
 10
-58.4556
 20
80.7694
 30
0.0
 10
-59.511
 20
80.1315
 30
0.0
 10
-60.2216
 20
78.884
 30
0.0
 10
-60.3377
 20
77.4654
 30
0.0
 10
-60.3377
 20
77.4654
 30
0.0
 10
-62.1352
 20
76.9879
 30
0.0
 10
-63.382
 20
75.0083
 30
0.0
 10
-63.2835
 20
72.7885
 30
0.0
 10
-63.2835
 20
72.7885
 30
0.0
 10
-65.1172
 20
71.6745
 30
0.0
 10
-66.1143
 20
69.2242
 30
0.0
 10
-65.7245
 20
66.7903
 30
0.0
 10
-65.7245
 20
66.7903
 30
0.0
 10
-66.3559
 20
66.4435
 30
0.0
 10
-66.8844
 20
65.8723
 30
0.0
 10
-67.2396
 20
65.1531
 30
0.0
 10
-67.2396
 20
65.1531
 30
0.0
 10
-67.2396
 20
65.1531
 30
0.0
 10
-67.2396
 20
80.7694
 30
0.0
 10
-67.2396
 20
80.7694
 30
0.0
  0
SPLINE
  5
8D
330
1F
100
AcDbEntity
  8
layer 1
 62
     7
370
     9
100
AcDbSpline
210
0.0
220
0.0
230
1.0
 70
    11
 71
     3
 72
    20
 73
    16
 74
     0
 42
0.0000000001
 43
0.0000000001
 12
1.0
 22
0.0
 32
0.0
 13
1.0
 23
0.0
 33
0.0
 40
0.0
 40
0.0
 40
0.0
 40
0.0
 40
0.2
 40
0.2
 40
0.2
 40
0.2
 40
0.4
 40
0.4
 40
0.4
 40
0.4
 40
0.6
 40
0.6
 40
0.6
 40
0.6
 40
1.0
 40
1.0
 40
1.0
 40
1.0
 10
-67.2396
 20
112.9331
 30
0.0
 10
-66.8852
 20
114.0691
 30
0.0
 10
-66.2634
 20
115.0546
 30
0.0
 10
-65.451
 20
115.7692
 30
0.0
 10
-65.451
 20
115.7692
 30
0.0
 10
-65.8766
 20
116.6355
 30
0.0
 10
-65.8604
 20
117.7179
 30
0.0
 10
-65.4088
 20
118.5649
 30
0.0
 10
-65.4088
 20
118.5649
 30
0.0
 10
-65.4088
 20
118.5649
 30
0.0
 10
-67.2396
 20
118.5649
 30
0.0
 10
-67.2396
 20
118.5649
 30
0.0
 10
-67.2396
 20
118.5649
 30
0.0
 10
-67.2396
 20
118.5649
 30
0.0
 10
-67.2396
 20
112.9331
 30
0.0
 10
-67.2396
 20
112.9331
 30
0.0
  0
SPLINE
  5
8E
330
1F
100
AcDbEntity
  8
layer 1
 62
     7
370
     9
100
AcDbSpline
210
0.0
220
0.0
230
1.0
 70
    11
 71
     3
 72
    20
 73
    16
 74
     0
 42
0.0000000001
 43
0.0000000001
 12
1.0
 22
0.0
 32
0.0
 13
1.0
 23
0.0
 33
0.0
 40
0.0
 40
0.0
 40
0.0
 40
0.0
 40
0.2
 40
0.2
 40
0.2
 40
0.2
 40
0.4
 40
0.4
 40
0.4
 40
0.4
 40
0.6
 40
0.6
 40
0.6
 40
0.6
 40
1.0
 40
1.0
 40
1.0
 40
1.0
 10
-75.6676
 20
118.5905
 30
0.0
 10
-75.6253
 20
117.6483
 30
0.0
 10
-75.9867
 20
116.7459
 30
0.0
 10
-76.6247
 20
116.2012
 30
0.0
 10
-76.6247
 20
116.2012
 30
0.0
 10
-78.6251
 20
114.9364
 30
0.0
 10
-81.0079
 20
114.9176
 30
0.0
 10
-83.0215
 20
116.1501
 30
0.0
 10
-83.0215
 20
116.1501
 30
0.0
 10
-83.8806
 20
116.9671
 30
0.0
 10
-84.7423
 20
117.7807
 30
0.0
 10
-85.6056
 20
118.5905
 30
0.0
 10
-85.6056
 20
118.5905
 30
0.0
 10
-85.6056
 20
118.5905
 30
0.0
 10
-75.6676
 20
118.5905
 30
0.0
 10
-75.6676
 20
118.5905
 30
0.0
  0
SPLINE
  5
8F
330
1F
100
AcDbEntity
  8
layer 1
 62
     7
370
     9
100
AcDbSpline
210
0.0
220
0.0
230
1.0
 70
    11
 71
     3
 72
    72
 73
    68
 74
     0
 42
0.0000000001
 43
0.0000000001
 12
1.0
 22
0.0
 32
0.0
 13
1.0
 23
0.0
 33
0.0
 40
0.0
 40
0.0
 40
0.0
 40
0.0
 40
0.0555555555555556
 40
0.0555555555555556
 40
0.0555555555555556
 40
0.0555555555555556
 40
0.1111111111111111
 40
0.1111111111111111
 40
0.1111111111111111
 40
0.1111111111111111
 40
0.1666666666666667
 40
0.1666666666666667
 40
0.1666666666666667
 40
0.1666666666666667
 40
0.2222222222222222
 40
0.2222222222222222
 40
0.2222222222222222
 40
0.2222222222222222
 40
0.2777777777777778
 40
0.2777777777777778
 40
0.2777777777777778
 40
0.2777777777777778
 40
0.3333333333333333
 40
0.3333333333333333
 40
0.3333333333333333
 40
0.3333333333333333
 40
0.3888888888888889
 40
0.3888888888888889
 40
0.3888888888888889
 40
0.3888888888888889
 40
0.4444444444444444
 40
0.4444444444444444
 40
0.4444444444444444
 40
0.4444444444444444
 40
0.5
 40
0.5
 40
0.5
 40
0.5
 40
0.5555555555555556
 40
0.5555555555555556
 40
0.5555555555555556
 40
0.5555555555555556
 40
0.6111111111111112
 40
0.6111111111111112
 40
0.6111111111111112
 40
0.6111111111111112
 40
0.6666666666666666
 40
0.6666666666666666
 40
0.6666666666666666
 40
0.6666666666666666
 40
0.7222222222222222
 40
0.7222222222222222
 40
0.7222222222222222
 40
0.7222222222222222
 40
0.7777777777777778
 40
0.7777777777777778
 40
0.7777777777777778
 40
0.7777777777777778
 40
0.8333333333333334
 40
0.8333333333333334
 40
0.8333333333333334
 40
0.8333333333333334
 40
0.8888888888888888
 40
0.8888888888888888
 40
0.8888888888888888
 40
0.8888888888888888
 40
1.0
 40
1.0
 40
1.0
 40
1.0
 10
-109.1568
 20
118.5905
 30
0.0
 10
-109.1568
 20
118.5905
 30
0.0
 10
-109.1568
 20
111.7957
 30
0.0
 10
-109.1568
 20
111.7957
 30
0.0
 10
-109.1568
 20
111.7957
 30
0.0
 10
-108.6211
 20
112.7812
 30
0.0
 10
-107.9092
 20
113.609
 30
0.0
 10
-107.0736
 20
114.2186
 30
0.0
 10
-107.0736
 20
114.2186
 30
0.0
 10
-105.1175
 20
115.2938
 30
0.0
 10
-102.828
 20
114.9606
 30
0.0
 10
-101.1396
 20
113.3545
 30
0.0
 10
-101.1396
 20
113.3545
 30
0.0
 10
-100.2965
 20
112.5114
 30
0.0
 10
-100.0516
 20
111.0742
 30
0.0
 10
-100.5503
 20
109.8978
 30
0.0
 10
-100.5503
 20
109.8978
 30
0.0
 10
-101.1574
 20
108.7106
 30
0.0
 10
-102.3904
 20
108.2356
 30
0.0
 10
-103.4543
 20
108.7795
 30
0.0
 10
-103.4543
 20
108.7795
 30
0.0
 10
-103.2753
 20
109.2006
 30
0.0
 10
-103.324
 20
109.71
 30
0.0
 10
-103.5771
 20
110.0714
 30
0.0
 10
-103.5771
 20
110.0714
 30
0.0
 10
-103.8302
 20
110.4327
 30
0.0
 10
-104.2382
 20
110.5748
 30
0.0
 10
-104.6116
 20
110.4317
 30
0.0
 10
-104.6116
 20
110.4317
 30
0.0
 10
-105.1714
 20
110.1317
 30
0.0
 10
-105.5673
 20
109.5097
 30
0.0
 10
-105.6638
 20
108.7795
 30
0.0
 10
-105.6638
 20
108.7795
 30
0.0
 10
-105.7523
 20
107.1017
 30
0.0
 10
-104.9616
 20
105.5369
 30
0.0
 10
-103.6857
 20
104.8652
 30
0.0
 10
-103.6857
 20
104.8652
 30
0.0
 10
-101.5305
 20
104.3391
 30
0.0
 10
-99.3057
 20
105.2283
 30
0.0
 10
-97.836
 20
107.2036
 30
0.0
 10
-97.836
 20
107.2036
 30
0.0
 10
-97.3081
 20
108.0297
 30
0.0
 10
-97.1799
 20
109.1313
 30
0.0
 10
-97.4991
 20
110.1012
 30
0.0
 10
-97.4991
 20
110.1012
 30
0.0
 10
-97.8913
 20
111.0132
 30
0.0
 10
-98.7199
 20
111.5241
 30
0.0
 10
-99.5613
 20
111.3717
 30
0.0
 10
-99.5613
 20
111.3717
 30
0.0
 10
-99.8357
 20
112.3871
 30
0.0
 10
-99.5748
 20
113.5018
 30
0.0
 10
-98.901
 20
114.1933
 30
0.0
 10
-98.901
 20
114.1933
 30
0.0
 10
-98.2271
 20
114.8846
 30
0.0
 10
-97.274
 20
115.0152
 30
0.0
 10
-96.489
 20
114.5235
 30
0.0
 10
-96.489
 20
114.5235
 30
0.0
 10
-95.5558
 20
114.0563
 30
0.0
 10
-94.7729
 20
113.2355
 30
0.0
 10
-94.2585
 20
112.1851
 30
0.0
 10
-94.2585
 20
112.1851
 30
0.0
 10
-92.9805
 20
114.3346
 30
0.0
 10
-91.6859
 20
116.4696
 30
0.0
 10
-90.3751
 20
118.5905
 30
0.0
 10
-90.3751
 20
118.5905
 30
0.0
 10
-90.3751
 20
118.5905
 30
0.0
 10
-109.1568
 20
118.5905
 30
0.0
 10
-109.1568
 20
118.5905
 30
0.0
  0
ENDSEC
  0
SECTION
  2
OBJECTS
  0
DICTIONARY
  5
C
330
0
100
AcDbDictionary
281
     1
  3
ACAD_GROUP
350
D
  3
ACAD_LAYOUT
350
1A
  3
ACAD_MATERIAL
350
3B
  3
ACAD_MLEADERSTYLE
350
B1
  3
ACAD_MLINESTYLE
350
17
  3
ACAD_PLOTSETTINGS
350
19
  3
ACAD_PLOTSTYLENAME
350
E
  3
ACAD_TABLESTYLE
350
B0
  3
ACAD_VISUALSTYLE
350
2A
  0
DICTIONARY
  5
D
102
{ACAD_REACTORS
330
C
102
}
330
C
100
AcDbDictionary
281
     1
  0
DICTIONARY
  5
1A
102
{ACAD_REACTORS
330
C
102
}
330
C
100
AcDbDictionary
281
     1
  3
Layout1
350
1E
  3
Layout2
350
26
  3
Model
350
22
  0
DICTIONARY
  5
3B
102
{ACAD_REACTORS
330
C
102
}
330
C
100
AcDbDictionary
281
     1
  3
ByBlock
350
3D
  3
ByLayer
350
3C
  3
Global
350
3E
  0
DICTIONARY
  5
B1
102
{ACAD_REACTORS
330
C
102
}
330
C
100
AcDbDictionary
281
     1
  0
DICTIONARY
  5
17
102
{ACAD_REACTORS
330
C
102
}
330
C
100
AcDbDictionary
281
     1
  3
Standard
350
18
  0
DICTIONARY
  5
19
102
{ACAD_REACTORS
330
C
102
}
330
C
100
AcDbDictionary
281
     1
  0
ACDBDICTIONARYWDFLT
  5
E
102
{ACAD_REACTORS
330
C
102
}
330
C
100
AcDbDictionary
281
     1
  3
Normal
350
F
100
AcDbDictionaryWithDefault
340
F
  0
DICTIONARY
  5
B0
102
{ACAD_REACTORS
330
C
102
}
330
C
100
AcDbDictionary
281
     1
  0
DICTIONARY
  5
2A
102
{ACAD_REACTORS
330
C
102
}
330
C
100
AcDbDictionary
281
     1
  3
2dWireframe
350
2F
  3
3D Hidden
350
31
  3
3dWireframe
350
30
  3
Basic
350
32
  3
Brighten
350
36
  3
ColorChange
350
3A
  3
Conceptual
350
34
  3
Dim
350
35
  3
Facepattern
350
39
  3
Flat
350
2B
  3
FlatWithEdges
350
2C
  3
Gouraud
350
2D
  3
GouraudWithEdges
350
2E
  3
Linepattern
350
38
  3
Realistic
350
33
  3
Thicken
350
37
  0
LAYOUT
  5
1E
102
{ACAD_REACTORS
330
1A
102
}
330
1A
100
AcDbPlotSettings
  1

  2
none_device
  4

  6

 40
0.0
 41
0.0
 42
0.0
 43
0.0
 44
0.0
 45
0.0
 46
0.0
 47
0.0
 48
0.0
 49
0.0
140
0.0
141
0.0
142
1.0
143
1.0
 70
   688
 72
     0
 73
     0
 74
     5
  7

 75
    16
 76
     0
 77
     2
 78
   300
147
1.0
148
0.0
149
0.0
100
AcDbLayout
  1
Layout1
 70
     1
 71
     1
 10
0.0
 20
0.0
 11
12.0
 21
9.0
 12
0.0
 22
0.0
 32
0.0
 14
1.000000000000000E+20
 24
1.000000000000000E+20
 34
1.000000000000000E+20
 15
-1.000000000000000E+20
 25
-1.000000000000000E+20
 35
-1.000000000000000E+20
146
0.0
 13
0.0
 23
0.0
 33
0.0
 16
1.0
 26
0.0
 36
0.0
 17
0.0
 27
1.0
 37
0.0
 76
     0
330
1B
  0
LAYOUT
  5
26
102
{ACAD_REACTORS
330
1A
102
}
330
1A
100
AcDbPlotSettings
  1

  2
none_device
  4

  6

 40
0.0
 41
0.0
 42
0.0
 43
0.0
 44
0.0
 45
0.0
 46
0.0
 47
0.0
 48
0.0
 49
0.0
140
0.0
141
0.0
142
1.0
143
1.0
 70
   688
 72
     0
 73
     0
 74
     5
  7

 75
    16
 76
     0
 77
     2
 78
   300
147
1.0
148
0.0
149
0.0
100
AcDbLayout
  1
Layout2
 70
     1
 71
     2
 10
0.0
 20
0.0
 11
0.0
 21
0.0
 12
0.0
 22
0.0
 32
0.0
 14
0.0
 24
0.0
 34
0.0
 15
0.0
 25
0.0
 35
0.0
146
0.0
 13
0.0
 23
0.0
 33
0.0
 16
1.0
 26
0.0
 36
0.0
 17
0.0
 27
1.0
 37
0.0
 76
     0
330
23
  0
LAYOUT
  5
22
102
{ACAD_REACTORS
330
1A
102
}
330
1A
100
AcDbPlotSettings
  1

  2
none_device
  4

  6

 40
0.0
 41
0.0
 42
0.0
 43
0.0
 44
0.0
 45
0.0
 46
0.0
 47
0.0
 48
0.0
 49
0.0
140
0.0
141
0.0
142
1.0
143
1.0
 70
  1712
 72
     0
 73
     0
 74
     0
  7

 75
     0
 76
     0
 77
     2
 78
   300
147
1.0
148
0.0
149
0.0
100
AcDbLayout
  1
Model
 70
     1
 71
     0
 10
0.0
 20
0.0
 11
12.0
 21
9.0
 12
0.0
 22
0.0
 32
0.0
 14
-187.554
 24
-111.1894
 34
0.0
 15
-47.8713
 25
125.7781
 35
0.0
146
0.0
 13
0.0
 23
0.0
 33
0.0
 16
1.0
 26
0.0
 36
0.0
 17
0.0
 27
1.0
 37
0.0
 76
     0
330
1F
331
29
  0
MATERIAL
  5
3D
102
{ACAD_REACTORS
330
3B
102
}
330
3B
100
AcDbMaterial
  1
ByBlock
 72
     1
 94
      127
  0
MATERIAL
  5
3C
102
{ACAD_REACTORS
330
3B
102
}
330
3B
100
AcDbMaterial
  1
ByLayer
 72
     1
 94
      127
  0
MATERIAL
  5
3E
102
{ACAD_REACTORS
330
3B
102
}
330
3B
100
AcDbMaterial
  1
Global
 72
     1
 94
      127
  0
MLINESTYLE
  5
18
102
{ACAD_REACTORS
330
17
102
}
330
17
100
AcDbMlineStyle
  2
Standard
 70
     0
  3

 62
   256
 51
90.0
 52
90.0
 71
     2
 49
0.5
 62
   256
  6
BYLAYER
 49
-0.5
 62
   256
  6
BYLAYER
  0
ACDBPLACEHOLDER
  5
F
102
{ACAD_REACTORS
330
E
102
}
330
E
  0
VISUALSTYLE
  5
2F
102
{ACAD_REACTORS
330
2A
102
}
102
{ACAD_XDICTIONARY
360
98
102
}
330
2A
100
AcDbVisualStyle
  2
2dWireframe
 70
     4
 71
     0
 72
     2
 73
     0
 90
        0
 40
-0.6
 41
-30.0
 62
     5
 63
     7
421
 16777215
 74
     1
 91
        4
 64
     7
 65
   257
 75
     1
175
     1
 42
1.0
 92
        0
 66
   257
 43
1.0
 76
     1
 77
     6
 78
     2
 67
     7
 79
     5
170
     0
171
     0
290
     0
174
     0
 93
        1
 44
0.0
173
     0
291
     0
 45
0.0
  0
VISUALSTYLE
  5
31
102
{ACAD_REACTORS
330
2A
102
}
102
{ACAD_XDICTIONARY
360
9C
102
}
330
2A
100
AcDbVisualStyle
  2
3D Hidden
 70
     6
 71
     1
 72
     2
 73
     2
 90
        0
 40
-0.6
 41
-30.0
 62
     5
 63
     7
421
 16777215
 74
     2
 91
        2
 64
     7
 65
   257
 75
     2
175
     1
 42
40.0
 92
        0
 66
   257
 43
1.0
 76
     1
 77
     6
 78
     2
 67
     7
 79
     3
170
     0
171
     0
290
     0
174
     0
 93
        1
 44
0.0
173
     0
291
     0
 45
0.0
  0
VISUALSTYLE
  5
30
102
{ACAD_REACTORS
330
2A
102
}
102
{ACAD_XDICTIONARY
360
9A
102
}
330
2A
100
AcDbVisualStyle
  2
3dWireframe
 70
     5
 71
     0
 72
     2
 73
     0
 90
        0
 40
-0.6
 41
-30.0
 62
     5
 63
     7
421
 16777215
 74
     1
 91
        4
 64
     7
 65
   257
 75
     1
175
     1
 42
1.0
 92
        0
 66
   257
 43
1.0
 76
     1
 77
     6
 78
     2
 67
     7
 79
     5
170
     0
171
     0
290
     0
174
     0
 93
        1
 44
0.0
173
     0
291
     0
 45
0.0
  0
VISUALSTYLE
  5
32
102
{ACAD_REACTORS
330
2A
102
}
102
{ACAD_XDICTIONARY
360
9E
102
}
330
2A
100
AcDbVisualStyle
  2
Basic
 70
     7
 71
     1
 72
     0
 73
     1
 90
        0
 40
-0.6
 41
-30.0
 62
     5
 63
     7
421
 16777215
 74
     0
 91
        4
 64
     7
 65
   257
 75
     1
175
     1
 42
1.0
 92
        8
 66
     7
 43
1.0
 76
     1
 77
     6
 78
     2
 67
     7
 79
     5
170
     0
171
     0
290
     0
174
     0
 93
        1
 44
0.0
173
     0
291
     1
 45
0.0
  0
VISUALSTYLE
  5
36
102
{ACAD_REACTORS
330
2A
102
}
102
{ACAD_XDICTIONARY
360
A6
102
}
330
2A
100
AcDbVisualStyle
  2
Brighten
 70
    12
 71
     2
 72
     2
 73
     0
 90
        0
 40
-0.6
 41
-30.0
 62
     5
 63
     7
421
 16777215
 74
     1
 91
        4
 64
     7
 65
   257
 75
     1
175
     1
 42
1.0
 92
        8
 66
     7
 43
1.0
 76
     1
 77
     6
 78
     2
 67
     7
 79
     5
170
     0
171
     0
290
     0
174
     0
 93
        1
 44
50.0
173
     0
291
     1
 45
0.0
  0
VISUALSTYLE
  5
3A
102
{ACAD_REACTORS
330
2A
102
}
102
{ACAD_XDICTIONARY
360
AE
102
}
330
2A
100
AcDbVisualStyle
  2
ColorChange
 70
    16
 71
     2
 72
     2
 73
     3
 90
        0
 40
-0.6
 41
-30.0
 62
     5
 63
     8
421
  8421504
 74
     1
 91
        4
 64
     7
 65
   257
 75
     1
175
     1
 42
1.0
 92
        8
 66
     8
424
  8421504
 43
1.0
 76
     1
 77
     6
 78
     2
 67
     7
 79
     5
170
     0
171
     0
290
     0
174
     0
 93
        1
 44
0.0
173
     0
291
     1
 45
0.0
  0
VISUALSTYLE
  5
34
102
{ACAD_REACTORS
330
2A
102
}
102
{ACAD_XDICTIONARY
360
A2
102
}
330
2A
100
AcDbVisualStyle
  2
Conceptual
 70
     9
 71
     3
 72
     2
 73
     0
 90
        0
 40
-0.6
 41
-30.0
 62
     5
 63
     7
421
 16777215
 74
     2
 91
        2
 64
     7
 65
   257
 75
     1
175
     1
 42
40.0
 92
        8
 66
     7
 43
1.0
 76
     1
 77
     6
 78
     2
 67
     7
 79
     3
170
     0
171
     0
290
     0
174
     0
 93
        1
 44
0.0
173
     0
291
     0
 45
0.0
  0
VISUALSTYLE
  5
35
102
{ACAD_REACTORS
330
2A
102
}
102
{ACAD_XDICTIONARY
360
A4
102
}
330
2A
100
AcDbVisualStyle
  2
Dim
 70
    11
 71
     2
 72
     2
 73
     0
 90
        0
 40
-0.6
 41
-30.0
 62
     5
 63
     7
421
 16777215
 74
     1
 91
        4
 64
     7
 65
   257
 75
     1
175
     1
 42
1.0
 92
        8
 66
     7
 43
1.0
 76
     1
 77
     6
 78
     2
 67
     7
 79
     5
170
     0
171
     0
290
     0
174
     0
 93
        1
 44
-50.0
173
     0
291
     1
 45
0.0
  0
VISUALSTYLE
  5
39
102
{ACAD_REACTORS
330
2A
102
}
102
{ACAD_XDICTIONARY
360
AC
102
}
330
2A
100
AcDbVisualStyle
  2
Facepattern
 70
    15
 71
     2
 72
     2
 73
     0
 90
        0
 40
-0.6
 41
-30.0
 62
     5
 63
     7
421
 16777215
 74
     1
 91
        4
 64
     7
 65
   257
 75
     1
175
     1
 42
1.0
 92
        8
 66
     7
 43
1.0
 76
     1
 77
     6
 78
     2
 67
     7
 79
     5
170
     0
171
     0
290
     0
174
     0
 93
        1
 44
0.0
173
     0
291
     1
 45
0.0
  0
VISUALSTYLE
  5
2B
102
{ACAD_REACTORS
330
2A
102
}
102
{ACAD_XDICTIONARY
360
90
102
}
330
2A
100
AcDbVisualStyle
  2
Flat
 70
     0
 71
     2
 72
     1
 73
     1
 90
        2
 40
-0.6
 41
30.0
 62
     5
 63
     7
421
 16777215
 74
     0
 91
        4
 64
     7
 65
   257
 75
     1
175
     1
 42
1.0
 92
        8
 66
     7
 43
1.0
 76
     1
 77
     6
 78
     2
 67
     7
 79
     5
170
     0
171
     0
290
     0
174
     0
 93
       13
 44
0.0
173
     0
291
     1
 45
0.0
  0
VISUALSTYLE
  5
2C
102
{ACAD_REACTORS
330
2A
102
}
102
{ACAD_XDICTIONARY
360
92
102
}
330
2A
100
AcDbVisualStyle
  2
FlatWithEdges
 70
     1
 71
     2
 72
     1
 73
     1
 90
        2
 40
-0.6
 41
30.0
 62
     5
 63
     7
421
 16777215
 74
     1
 91
        4
 64
     7
 65
   257
 75
     1
175
     1
 42
1.0
 92
        0
 66
   257
 43
1.0
 76
     1
 77
     6
 78
     2
 67
     7
 79
     5
170
     0
171
     0
290
     0
174
     0
 93
       13
 44
0.0
173
     0
291
     1
 45
0.0
  0
VISUALSTYLE
  5
2D
102
{ACAD_REACTORS
330
2A
102
}
102
{ACAD_XDICTIONARY
360
94
102
}
330
2A
100
AcDbVisualStyle
  2
Gouraud
 70
     2
 71
     2
 72
     2
 73
     1
 90
        2
 40
-0.6
 41
30.0
 62
     5
 63
     7
421
 16777215
 74
     0
 91
        4
 64
     7
 65
   257
 75
     1
175
     1
 42
1.0
 92
        0
 66
     7
 43
1.0
 76
     1
 77
     6
 78
     2
 67
     7
 79
     5
170
     0
171
     0
290
     0
174
     0
 93
       13
 44
0.0
173
     0
291
     1
 45
0.0
  0
VISUALSTYLE
  5
2E
102
{ACAD_REACTORS
330
2A
102
}
102
{ACAD_XDICTIONARY
360
96
102
}
330
2A
100
AcDbVisualStyle
  2
GouraudWithEdges
 70
     3
 71
     2
 72
     2
 73
     1
 90
        2
 40
-0.6
 41
30.0
 62
     5
 63
     7
421
 16777215
 74
     1
 91
        4
 64
     7
 65
   257
 75
     1
175
     1
 42
1.0
 92
        0
 66
   257
 43
1.0
 76
     1
 77
     6
 78
     2
 67
     7
 79
     5
170
     0
171
     0
290
     0
174
     0
 93
       13
 44
0.0
173
     0
291
     1
 45
0.0
  0
VISUALSTYLE
  5
38
102
{ACAD_REACTORS
330
2A
102
}
102
{ACAD_XDICTIONARY
360
AA
102
}
330
2A
100
AcDbVisualStyle
  2
Linepattern
 70
    14
 71
     2
 72
     2
 73
     0
 90
        0
 40
-0.6
 41
-30.0
 62
     5
 63
     7
421
 16777215
 74
     1
 91
        4
 64
     7
 65
   257
 75
     7
175
     7
 42
1.0
 92
        8
 66
     7
 43
1.0
 76
     1
 77
     6
 78
     2
 67
     7
 79
     5
170
     0
171
     0
290
     0
174
     0
 93
        1
 44
0.0
173
     0
291
     1
 45
0.0
  0
VISUALSTYLE
  5
33
102
{ACAD_REACTORS
330
2A
102
}
102
{ACAD_XDICTIONARY
360
A0
102
}
330
2A
100
AcDbVisualStyle
  2
Realistic
 70
     8
 71
     2
 72
     2
 73
     0
 90
        0
 40
-0.6
 41
-30.0
 62
     5
 63
     7
421
 16777215
 74
     1
 91
        0
 64
     7
 65
   257
 75
     1
175
     1
 42
1.0
 92
        8
 66
     8
424
  7895160
 43
1.0
 76
     1
 77
     6
 78
     2
 67
     7
 79
     5
170
     0
171
     0
290
     0
174
     0
 93
       13
 44
0.0
173
     0
291
     0
 45
0.0
  0
VISUALSTYLE
  5
37
102
{ACAD_REACTORS
330
2A
102
}
102
{ACAD_XDICTIONARY
360
A8
102
}
330
2A
100
AcDbVisualStyle
  2
Thicken
 70
    13
 71
     2
 72
     2
 73
     0
 90
        0
 40
-0.6
 41
-30.0
 62
     5
 63
     7
421
 16777215
 74
     1
 91
        4
 64
     7
 65
   257
 75
     1
175
     1
 42
1.0
 92
       12
 66
     7
 43
1.0
 76
     1
 77
     6
 78
     2
 67
     7
 79
     5
170
     0
171
     0
290
     0
174
     0
 93
        1
 44
0.0
173
     0
291
     1
 45
0.0
  0
DICTIONARY
  5
98
330
2F
100
AcDbDictionary
280
     1
281
     1
  3
ACAD_XREC_ROUNDTRIP
360
99
  0
DICTIONARY
  5
9C
330
31
100
AcDbDictionary
280
     1
281
     1
  3
ACAD_XREC_ROUNDTRIP
360
9D
  0
DICTIONARY
  5
9A
330
30
100
AcDbDictionary
280
     1
281
     1
  3
ACAD_XREC_ROUNDTRIP
360
9B
  0
DICTIONARY
  5
9E
330
32
100
AcDbDictionary
280
     1
281
     1
  3
ACAD_XREC_ROUNDTRIP
360
9F
  0
DICTIONARY
  5
A6
330
36
100
AcDbDictionary
280
     1
281
     1
  3
ACAD_XREC_ROUNDTRIP
360
A7
  0
DICTIONARY
  5
AE
330
3A
100
AcDbDictionary
280
     1
281
     1
  3
ACAD_XREC_ROUNDTRIP
360
AF
  0
DICTIONARY
  5
A2
330
34
100
AcDbDictionary
280
     1
281
     1
  3
ACAD_XREC_ROUNDTRIP
360
A3
  0
DICTIONARY
  5
A4
330
35
100
AcDbDictionary
280
     1
281
     1
  3
ACAD_XREC_ROUNDTRIP
360
A5
  0
DICTIONARY
  5
AC
330
39
100
AcDbDictionary
280
     1
281
     1
  3
ACAD_XREC_ROUNDTRIP
360
AD
  0
DICTIONARY
  5
90
330
2B
100
AcDbDictionary
280
     1
281
     1
  3
ACAD_XREC_ROUNDTRIP
360
91
  0
DICTIONARY
  5
92
330
2C
100
AcDbDictionary
280
     1
281
     1
  3
ACAD_XREC_ROUNDTRIP
360
93
  0
DICTIONARY
  5
94
330
2D
100
AcDbDictionary
280
     1
281
     1
  3
ACAD_XREC_ROUNDTRIP
360
95
  0
DICTIONARY
  5
96
330
2E
100
AcDbDictionary
280
     1
281
     1
  3
ACAD_XREC_ROUNDTRIP
360
97
  0
DICTIONARY
  5
AA
330
38
100
AcDbDictionary
280
     1
281
     1
  3
ACAD_XREC_ROUNDTRIP
360
AB
  0
DICTIONARY
  5
A0
330
33
100
AcDbDictionary
280
     1
281
     1
  3
ACAD_XREC_ROUNDTRIP
360
A1
  0
DICTIONARY
  5
A8
330
37
100
AcDbDictionary
280
     1
281
     1
  3
ACAD_XREC_ROUNDTRIP
360
A9
  0
XRECORD
  5
99
102
{ACAD_REACTORS
330
98
102
}
330
98
100
AcDbXrecord
280
     1
102
RTVSPropertyOp0
 70
     1
102
RTVSPropertyOp1
 70
     1
102
RTVSPropertyOp2
 70
     1
102
RTVSPropertyOp3
 70
     1
102
RTVSPropertyOp4
 70
     1
102
RTVSPropertyOp5
 70
     1
102
RTVSPropertyOp6
 70
     1
102
RTVSPropertyOp7
 70
     1
102
RTVSPropertyOp8
 70
     1
102
RTVSPropertyOp9
 70
     1
102
RTVSPropertyOp10
 70
     1
102
RTVSPropertyOp11
 70
     1
102
RTVSPropertyOp12
 70
     1
102
RTVSPropertyOp13
 70
     1
102
RTVSPropertyOp14
 70
     1
102
RTVSPropertyOp15
 70
     1
102
RTVSPropertyOp16
 70
     1
102
RTVSPropertyOp17
 70
     1
102
RTVSPropertyOp18
 70
     1
102
RTVSPropertyOp19
 70
     1
102
RTVSPropertyOp20
 70
     1
102
RTVSPropertyOp21
 70
     1
102
RTVSPropertyOp22
 70
     1
102
RTVSPropertyOp23
 70
     1
102
RTVSPropertyOp24
 70
     1
102
RTVSPropertyOp25
 70
     1
102
RTVSPropertyOp26
 70
     1
102
RTVSPropertyOp27
 70
     1
102
RTVSPropertyOp28
 70
     1
102
RTVSPropertyOp29
 70
     1
102
RTVSPropertyOp30
 70
     1
102
RTVSPropertyOp31
 70
     1
102
RTVSPropertyOp32
 70
     1
  0
XRECORD
  5
9D
102
{ACAD_REACTORS
330
9C
102
}
330
9C
100
AcDbXrecord
280
     1
102
RTVSPropertyOp0
 70
     1
102
RTVSPropertyOp1
 70
     1
102
RTVSPropertyOp2
 70
     1
102
RTVSPropertyOp3
 70
     1
102
RTVSPropertyOp4
 70
     1
102
RTVSPropertyOp5
 70
     1
102
RTVSPropertyOp6
 70
     1
102
RTVSPropertyOp7
 70
     1
102
RTVSPropertyOp8
 70
     1
102
RTVSPropertyOp9
 70
     1
102
RTVSPropertyOp10
 70
     1
102
RTVSPropertyOp11
 70
     1
102
RTVSPropertyOp12
 70
     1
102
RTVSPropertyOp13
 70
     1
102
RTVSPropertyOp14
 70
     1
102
RTVSPropertyOp15
 70
     1
102
RTVSPropertyOp16
 70
     1
102
RTVSPropertyOp17
 70
     1
102
RTVSPropertyOp18
 70
     1
102
RTVSPropertyOp19
 70
     1
102
RTVSPropertyOp20
 70
     1
102
RTVSPropertyOp21
 70
     1
102
RTVSPropertyOp22
 70
     1
102
RTVSPropertyOp23
 70
     1
102
RTVSPropertyOp24
 70
     1
102
RTVSPropertyOp25
 70
     1
102
RTVSPropertyOp26
 70
     1
102
RTVSPropertyOp27
 70
     1
102
RTVSPropertyOp28
 70
     1
102
RTVSPropertyOp29
 70
     1
102
RTVSPropertyOp30
 70
     1
102
RTVSPropertyOp31
 70
     1
102
RTVSPropertyOp32
 70
     1
  0
XRECORD
  5
9B
102
{ACAD_REACTORS
330
9A
102
}
330
9A
100
AcDbXrecord
280
     1
102
RTVSPropertyOp0
 70
     1
102
RTVSPropertyOp1
 70
     1
102
RTVSPropertyOp2
 70
     1
102
RTVSPropertyOp3
 70
     1
102
RTVSPropertyOp4
 70
     1
102
RTVSPropertyOp5
 70
     1
102
RTVSPropertyOp6
 70
     1
102
RTVSPropertyOp7
 70
     1
102
RTVSPropertyOp8
 70
     1
102
RTVSPropertyOp9
 70
     1
102
RTVSPropertyOp10
 70
     1
102
RTVSPropertyOp11
 70
     1
102
RTVSPropertyOp12
 70
     1
102
RTVSPropertyOp13
 70
     1
102
RTVSPropertyOp14
 70
     1
102
RTVSPropertyOp15
 70
     1
102
RTVSPropertyOp16
 70
     1
102
RTVSPropertyOp17
 70
     1
102
RTVSPropertyOp18
 70
     1
102
RTVSPropertyOp19
 70
     1
102
RTVSPropertyOp20
 70
     1
102
RTVSPropertyOp21
 70
     1
102
RTVSPropertyOp22
 70
     1
102
RTVSPropertyOp23
 70
     1
102
RTVSPropertyOp24
 70
     1
102
RTVSPropertyOp25
 70
     1
102
RTVSPropertyOp26
 70
     1
102
RTVSPropertyOp27
 70
     1
102
RTVSPropertyOp28
 70
     1
102
RTVSPropertyOp29
 70
     1
102
RTVSPropertyOp30
 70
     1
102
RTVSPropertyOp31
 70
     1
102
RTVSPropertyOp32
 70
     1
  0
XRECORD
  5
9F
102
{ACAD_REACTORS
330
9E
102
}
330
9E
100
AcDbXrecord
280
     1
102
RTVSPropertyOp0
 70
     1
102
RTVSPropertyOp1
 70
     1
102
RTVSPropertyOp2
 70
     1
102
RTVSPropertyOp3
 70
     1
102
RTVSPropertyOp4
 70
     1
102
RTVSPropertyOp5
 70
     1
102
RTVSPropertyOp6
 70
     1
102
RTVSPropertyOp7
 70
     1
102
RTVSPropertyOp8
 70
     1
102
RTVSPropertyOp9
 70
     1
102
RTVSPropertyOp10
 70
     1
102
RTVSPropertyOp11
 70
     1
102
RTVSPropertyOp12
 70
     1
102
RTVSPropertyOp13
 70
     1
102
RTVSPropertyOp14
 70
     1
102
RTVSPropertyOp15
 70
     1
102
RTVSPropertyOp16
 70
     1
102
RTVSPropertyOp17
 70
     1
102
RTVSPropertyOp18
 70
     1
102
RTVSPropertyOp19
 70
     1
102
RTVSPropertyOp20
 70
     1
102
RTVSPropertyOp21
 70
     1
102
RTVSPropertyOp22
 70
     1
102
RTVSPropertyOp23
 70
     1
102
RTVSPropertyOp24
 70
     1
102
RTVSPropertyOp25
 70
     1
102
RTVSPropertyOp26
 70
     1
102
RTVSPropertyOp27
 70
     1
102
RTVSPropertyOp28
 70
     1
102
RTVSPropertyOp29
 70
     1
102
RTVSPropertyOp30
 70
     1
102
RTVSPropertyOp31
 70
     1
102
RTVSPropertyOp32
 70
     1
  0
XRECORD
  5
A7
102
{ACAD_REACTORS
330
A6
102
}
330
A6
100
AcDbXrecord
280
     1
102
RTVSPropertyOp0
 70
     1
102
RTVSPropertyOp1
 70
     1
102
RTVSPropertyOp2
 70
     1
102
RTVSPropertyOp3
 70
     1
102
RTVSPropertyOp4
 70
     1
102
RTVSPropertyOp5
 70
     1
102
RTVSPropertyOp6
 70
     1
102
RTVSPropertyOp7
 70
     1
102
RTVSPropertyOp8
 70
     1
102
RTVSPropertyOp9
 70
     1
102
RTVSPropertyOp10
 70
     1
102
RTVSPropertyOp11
 70
     1
102
RTVSPropertyOp12
 70
     1
102
RTVSPropertyOp13
 70
     1
102
RTVSPropertyOp14
 70
     1
102
RTVSPropertyOp15
 70
     1
102
RTVSPropertyOp16
 70
     1
102
RTVSPropertyOp17
 70
     1
102
RTVSPropertyOp18
 70
     1
102
RTVSPropertyOp19
 70
     1
102
RTVSPropertyOp20
 70
     1
102
RTVSPropertyOp21
 70
     1
102
RTVSPropertyOp22
 70
     1
102
RTVSPropertyOp23
 70
     1
102
RTVSPropertyOp24
 70
     1
102
RTVSPropertyOp25
 70
     1
102
RTVSPropertyOp26
 70
     1
102
RTVSPropertyOp27
 70
     1
102
RTVSPropertyOp28
 70
     1
102
RTVSPropertyOp29
 70
     1
102
RTVSPropertyOp30
 70
     1
102
RTVSPropertyOp31
 70
     1
102
RTVSPropertyOp32
 70
     1
  0
XRECORD
  5
AF
102
{ACAD_REACTORS
330
AE
102
}
330
AE
100
AcDbXrecord
280
     1
102
RTVSPropertyOp0
 70
     1
102
RTVSPropertyOp1
 70
     1
102
RTVSPropertyOp2
 70
     1
102
RTVSPropertyOp3
 70
     1
102
RTVSPropertyOp4
 70
     1
102
RTVSPropertyOp5
 70
     1
102
RTVSPropertyOp6
 70
     1
102
RTVSPropertyOp7
 70
     1
102
RTVSPropertyOp8
 70
     1
102
RTVSPropertyOp9
 70
     1
102
RTVSPropertyOp10
 70
     1
102
RTVSPropertyOp11
 70
     1
102
RTVSPropertyOp12
 70
     1
102
RTVSPropertyOp13
 70
     1
102
RTVSPropertyOp14
 70
     1
102
RTVSPropertyOp15
 70
     1
102
RTVSPropertyOp16
 70
     1
102
RTVSPropertyOp17
 70
     1
102
RTVSPropertyOp18
 70
     1
102
RTVSPropertyOp19
 70
     1
102
RTVSPropertyOp20
 70
     1
102
RTVSPropertyOp21
 70
     1
102
RTVSPropertyOp22
 70
     1
102
RTVSPropertyOp23
 70
     1
102
RTVSPropertyOp24
 70
     1
102
RTVSPropertyOp25
 70
     1
102
RTVSPropertyOp26
 70
     1
102
RTVSPropertyOp27
 70
     1
102
RTVSPropertyOp28
 70
     1
102
RTVSPropertyOp29
 70
     1
102
RTVSPropertyOp30
 70
     1
102
RTVSPropertyOp31
 70
     1
102
RTVSPropertyOp32
 70
     1
  0
XRECORD
  5
A3
102
{ACAD_REACTORS
330
A2
102
}
330
A2
100
AcDbXrecord
280
     1
102
RTVSPropertyOp0
 70
     1
102
RTVSPropertyOp1
 70
     1
102
RTVSPropertyOp2
 70
     1
102
RTVSPropertyOp3
 70
     1
102
RTVSPropertyOp4
 70
     1
102
RTVSPropertyOp5
 70
     1
102
RTVSPropertyOp6
 70
     1
102
RTVSPropertyOp7
 70
     1
102
RTVSPropertyOp8
 70
     1
102
RTVSPropertyOp9
 70
     1
102
RTVSPropertyOp10
 70
     1
102
RTVSPropertyOp11
 70
     1
102
RTVSPropertyOp12
 70
     1
102
RTVSPropertyOp13
 70
     1
102
RTVSPropertyOp14
 70
     1
102
RTVSPropertyOp15
 70
     1
102
RTVSPropertyOp16
 70
     1
102
RTVSPropertyOp17
 70
     1
102
RTVSPropertyOp18
 70
     1
102
RTVSPropertyOp19
 70
     1
102
RTVSPropertyOp20
 70
     1
102
RTVSPropertyOp21
 70
     1
102
RTVSPropertyOp22
 70
     1
102
RTVSPropertyOp23
 70
     1
102
RTVSPropertyOp24
 70
     1
102
RTVSPropertyOp25
 70
     1
102
RTVSPropertyOp26
 70
     1
102
RTVSPropertyOp27
 70
     1
102
RTVSPropertyOp28
 70
     1
102
RTVSPropertyOp29
 70
     1
102
RTVSPropertyOp30
 70
     1
102
RTVSPropertyOp31
 70
     1
102
RTVSPropertyOp32
 70
     1
  0
XRECORD
  5
A5
102
{ACAD_REACTORS
330
A4
102
}
330
A4
100
AcDbXrecord
280
     1
102
RTVSPropertyOp0
 70
     1
102
RTVSPropertyOp1
 70
     1
102
RTVSPropertyOp2
 70
     1
102
RTVSPropertyOp3
 70
     1
102
RTVSPropertyOp4
 70
     1
102
RTVSPropertyOp5
 70
     1
102
RTVSPropertyOp6
 70
     1
102
RTVSPropertyOp7
 70
     1
102
RTVSPropertyOp8
 70
     1
102
RTVSPropertyOp9
 70
     1
102
RTVSPropertyOp10
 70
     1
102
RTVSPropertyOp11
 70
     1
102
RTVSPropertyOp12
 70
     1
102
RTVSPropertyOp13
 70
     1
102
RTVSPropertyOp14
 70
     1
102
RTVSPropertyOp15
 70
     1
102
RTVSPropertyOp16
 70
     1
102
RTVSPropertyOp17
 70
     1
102
RTVSPropertyOp18
 70
     1
102
RTVSPropertyOp19
 70
     1
102
RTVSPropertyOp20
 70
     1
102
RTVSPropertyOp21
 70
     1
102
RTVSPropertyOp22
 70
     1
102
RTVSPropertyOp23
 70
     1
102
RTVSPropertyOp24
 70
     1
102
RTVSPropertyOp25
 70
     1
102
RTVSPropertyOp26
 70
     1
102
RTVSPropertyOp27
 70
     1
102
RTVSPropertyOp28
 70
     1
102
RTVSPropertyOp29
 70
     1
102
RTVSPropertyOp30
 70
     1
102
RTVSPropertyOp31
 70
     1
102
RTVSPropertyOp32
 70
     1
  0
XRECORD
  5
AD
102
{ACAD_REACTORS
330
AC
102
}
330
AC
100
AcDbXrecord
280
     1
102
RTVSPropertyOp0
 70
     1
102
RTVSPropertyOp1
 70
     1
102
RTVSPropertyOp2
 70
     1
102
RTVSPropertyOp3
 70
     1
102
RTVSPropertyOp4
 70
     1
102
RTVSPropertyOp5
 70
     1
102
RTVSPropertyOp6
 70
     1
102
RTVSPropertyOp7
 70
     1
102
RTVSPropertyOp8
 70
     1
102
RTVSPropertyOp9
 70
     1
102
RTVSPropertyOp10
 70
     1
102
RTVSPropertyOp11
 70
     1
102
RTVSPropertyOp12
 70
     1
102
RTVSPropertyOp13
 70
     1
102
RTVSPropertyOp14
 70
     1
102
RTVSPropertyOp15
 70
     1
102
RTVSPropertyOp16
 70
     1
102
RTVSPropertyOp17
 70
     1
102
RTVSPropertyOp18
 70
     1
102
RTVSPropertyOp19
 70
     1
102
RTVSPropertyOp20
 70
     1
102
RTVSPropertyOp21
 70
     1
102
RTVSPropertyOp22
 70
     1
102
RTVSPropertyOp23
 70
     1
102
RTVSPropertyOp24
 70
     1
102
RTVSPropertyOp25
 70
     1
102
RTVSPropertyOp26
 70
     1
102
RTVSPropertyOp27
 70
     1
102
RTVSPropertyOp28
 70
     1
102
RTVSPropertyOp29
 70
     1
102
RTVSPropertyOp30
 70
     1
102
RTVSPropertyOp31
 70
     1
102
RTVSPropertyOp32
 70
     1
  0
XRECORD
  5
91
102
{ACAD_REACTORS
330
90
102
}
330
90
100
AcDbXrecord
280
     1
102
RTVSPropertyOp0
 70
     1
102
RTVSPropertyOp1
 70
     1
102
RTVSPropertyOp2
 70
     1
102
RTVSPropertyOp3
 70
     1
102
RTVSPropertyOp4
 70
     1
102
RTVSPropertyOp5
 70
     1
102
RTVSPropertyOp6
 70
     1
102
RTVSPropertyOp7
 70
     1
102
RTVSPropertyOp8
 70
     1
102
RTVSPropertyOp9
 70
     1
102
RTVSPropertyOp10
 70
     1
102
RTVSPropertyOp11
 70
     1
102
RTVSPropertyOp12
 70
     1
102
RTVSPropertyOp13
 70
     1
102
RTVSPropertyOp14
 70
     1
102
RTVSPropertyOp15
 70
     1
102
RTVSPropertyOp16
 70
     1
102
RTVSPropertyOp17
 70
     1
102
RTVSPropertyOp18
 70
     1
102
RTVSPropertyOp19
 70
     1
102
RTVSPropertyOp20
 70
     1
102
RTVSPropertyOp21
 70
     1
102
RTVSPropertyOp22
 70
     1
102
RTVSPropertyOp23
 70
     1
102
RTVSPropertyOp24
 70
     1
102
RTVSPropertyOp25
 70
     1
102
RTVSPropertyOp26
 70
     1
102
RTVSPropertyOp27
 70
     1
102
RTVSPropertyOp28
 70
     1
102
RTVSPropertyOp29
 70
     1
102
RTVSPropertyOp30
 70
     1
102
RTVSPropertyOp31
 70
     1
102
RTVSPropertyOp32
 70
     1
  0
XRECORD
  5
93
102
{ACAD_REACTORS
330
92
102
}
330
92
100
AcDbXrecord
280
     1
102
RTVSPropertyOp0
 70
     1
102
RTVSPropertyOp1
 70
     1
102
RTVSPropertyOp2
 70
     1
102
RTVSPropertyOp3
 70
     1
102
RTVSPropertyOp4
 70
     1
102
RTVSPropertyOp5
 70
     1
102
RTVSPropertyOp6
 70
     1
102
RTVSPropertyOp7
 70
     1
102
RTVSPropertyOp8
 70
     1
102
RTVSPropertyOp9
 70
     1
102
RTVSPropertyOp10
 70
     1
102
RTVSPropertyOp11
 70
     1
102
RTVSPropertyOp12
 70
     1
102
RTVSPropertyOp13
 70
     1
102
RTVSPropertyOp14
 70
     1
102
RTVSPropertyOp15
 70
     1
102
RTVSPropertyOp16
 70
     1
102
RTVSPropertyOp17
 70
     1
102
RTVSPropertyOp18
 70
     1
102
RTVSPropertyOp19
 70
     1
102
RTVSPropertyOp20
 70
     1
102
RTVSPropertyOp21
 70
     1
102
RTVSPropertyOp22
 70
     1
102
RTVSPropertyOp23
 70
     1
102
RTVSPropertyOp24
 70
     1
102
RTVSPropertyOp25
 70
     1
102
RTVSPropertyOp26
 70
     1
102
RTVSPropertyOp27
 70
     1
102
RTVSPropertyOp28
 70
     1
102
RTVSPropertyOp29
 70
     1
102
RTVSPropertyOp30
 70
     1
102
RTVSPropertyOp31
 70
     1
102
RTVSPropertyOp32
 70
     1
  0
XRECORD
  5
95
102
{ACAD_REACTORS
330
94
102
}
330
94
100
AcDbXrecord
280
     1
102
RTVSPropertyOp0
 70
     1
102
RTVSPropertyOp1
 70
     1
102
RTVSPropertyOp2
 70
     1
102
RTVSPropertyOp3
 70
     1
102
RTVSPropertyOp4
 70
     1
102
RTVSPropertyOp5
 70
     1
102
RTVSPropertyOp6
 70
     1
102
RTVSPropertyOp7
 70
     1
102
RTVSPropertyOp8
 70
     1
102
RTVSPropertyOp9
 70
     1
102
RTVSPropertyOp10
 70
     1
102
RTVSPropertyOp11
 70
     1
102
RTVSPropertyOp12
 70
     1
102
RTVSPropertyOp13
 70
     1
102
RTVSPropertyOp14
 70
     1
102
RTVSPropertyOp15
 70
     1
102
RTVSPropertyOp16
 70
     1
102
RTVSPropertyOp17
 70
     1
102
RTVSPropertyOp18
 70
     1
102
RTVSPropertyOp19
 70
     1
102
RTVSPropertyOp20
 70
     1
102
RTVSPropertyOp21
 70
     1
102
RTVSPropertyOp22
 70
     1
102
RTVSPropertyOp23
 70
     1
102
RTVSPropertyOp24
 70
     1
102
RTVSPropertyOp25
 70
     1
102
RTVSPropertyOp26
 70
     1
102
RTVSPropertyOp27
 70
     1
102
RTVSPropertyOp28
 70
     1
102
RTVSPropertyOp29
 70
     1
102
RTVSPropertyOp30
 70
     1
102
RTVSPropertyOp31
 70
     1
102
RTVSPropertyOp32
 70
     1
  0
XRECORD
  5
97
102
{ACAD_REACTORS
330
96
102
}
330
96
100
AcDbXrecord
280
     1
102
RTVSPropertyOp0
 70
     1
102
RTVSPropertyOp1
 70
     1
102
RTVSPropertyOp2
 70
     1
102
RTVSPropertyOp3
 70
     1
102
RTVSPropertyOp4
 70
     1
102
RTVSPropertyOp5
 70
     1
102
RTVSPropertyOp6
 70
     1
102
RTVSPropertyOp7
 70
     1
102
RTVSPropertyOp8
 70
     1
102
RTVSPropertyOp9
 70
     1
102
RTVSPropertyOp10
 70
     1
102
RTVSPropertyOp11
 70
     1
102
RTVSPropertyOp12
 70
     1
102
RTVSPropertyOp13
 70
     1
102
RTVSPropertyOp14
 70
     1
102
RTVSPropertyOp15
 70
     1
102
RTVSPropertyOp16
 70
     1
102
RTVSPropertyOp17
 70
     1
102
RTVSPropertyOp18
 70
     1
102
RTVSPropertyOp19
 70
     1
102
RTVSPropertyOp20
 70
     1
102
RTVSPropertyOp21
 70
     1
102
RTVSPropertyOp22
 70
     1
102
RTVSPropertyOp23
 70
     1
102
RTVSPropertyOp24
 70
     1
102
RTVSPropertyOp25
 70
     1
102
RTVSPropertyOp26
 70
     1
102
RTVSPropertyOp27
 70
     1
102
RTVSPropertyOp28
 70
     1
102
RTVSPropertyOp29
 70
     1
102
RTVSPropertyOp30
 70
     1
102
RTVSPropertyOp31
 70
     1
102
RTVSPropertyOp32
 70
     1
  0
XRECORD
  5
AB
102
{ACAD_REACTORS
330
AA
102
}
330
AA
100
AcDbXrecord
280
     1
102
RTVSPropertyOp0
 70
     1
102
RTVSPropertyOp1
 70
     1
102
RTVSPropertyOp2
 70
     1
102
RTVSPropertyOp3
 70
     1
102
RTVSPropertyOp4
 70
     1
102
RTVSPropertyOp5
 70
     1
102
RTVSPropertyOp6
 70
     1
102
RTVSPropertyOp7
 70
     1
102
RTVSPropertyOp8
 70
     1
102
RTVSPropertyOp9
 70
     1
102
RTVSPropertyOp10
 70
     1
102
RTVSPropertyOp11
 70
     1
102
RTVSPropertyOp12
 70
     1
102
RTVSPropertyOp13
 70
     1
102
RTVSPropertyOp14
 70
     1
102
RTVSPropertyOp15
 70
     1
102
RTVSPropertyOp16
 70
     1
102
RTVSPropertyOp17
 70
     1
102
RTVSPropertyOp18
 70
     1
102
RTVSPropertyOp19
 70
     1
102
RTVSPropertyOp20
 70
     1
102
RTVSPropertyOp21
 70
     1
102
RTVSPropertyOp22
 70
     1
102
RTVSPropertyOp23
 70
     1
102
RTVSPropertyOp24
 70
     1
102
RTVSPropertyOp25
 70
     1
102
RTVSPropertyOp26
 70
     1
102
RTVSPropertyOp27
 70
     1
102
RTVSPropertyOp28
 70
     1
102
RTVSPropertyOp29
 70
     1
102
RTVSPropertyOp30
 70
     1
102
RTVSPropertyOp31
 70
     1
102
RTVSPropertyOp32
 70
     1
  0
XRECORD
  5
A1
102
{ACAD_REACTORS
330
A0
102
}
330
A0
100
AcDbXrecord
280
     1
102
RTVSPropertyOp0
 70
     1
102
RTVSPropertyOp1
 70
     1
102
RTVSPropertyOp2
 70
     1
102
RTVSPropertyOp3
 70
     1
102
RTVSPropertyOp4
 70
     1
102
RTVSPropertyOp5
 70
     1
102
RTVSPropertyOp6
 70
     1
102
RTVSPropertyOp7
 70
     1
102
RTVSPropertyOp8
 70
     1
102
RTVSPropertyOp9
 70
     1
102
RTVSPropertyOp10
 70
     1
102
RTVSPropertyOp11
 70
     1
102
RTVSPropertyOp12
 70
     1
102
RTVSPropertyOp13
 70
     1
102
RTVSPropertyOp14
 70
     1
102
RTVSPropertyOp15
 70
     1
102
RTVSPropertyOp16
 70
     1
102
RTVSPropertyOp17
 70
     1
102
RTVSPropertyOp18
 70
     1
102
RTVSPropertyOp19
 70
     1
102
RTVSPropertyOp20
 70
     1
102
RTVSPropertyOp21
 70
     1
102
RTVSPropertyOp22
 70
     1
102
RTVSPropertyOp23
 70
     1
102
RTVSPropertyOp24
 70
     1
102
RTVSPropertyOp25
 70
     1
102
RTVSPropertyOp26
 70
     1
102
RTVSPropertyOp27
 70
     1
102
RTVSPropertyOp28
 70
     1
102
RTVSPropertyOp29
 70
     1
102
RTVSPropertyOp30
 70
     1
102
RTVSPropertyOp31
 70
     1
102
RTVSPropertyOp32
 70
     1
  0
XRECORD
  5
A9
102
{ACAD_REACTORS
330
A8
102
}
330
A8
100
AcDbXrecord
280
     1
102
RTVSPropertyOp0
 70
     1
102
RTVSPropertyOp1
 70
     1
102
RTVSPropertyOp2
 70
     1
102
RTVSPropertyOp3
 70
     1
102
RTVSPropertyOp4
 70
     1
102
RTVSPropertyOp5
 70
     1
102
RTVSPropertyOp6
 70
     1
102
RTVSPropertyOp7
 70
     1
102
RTVSPropertyOp8
 70
     1
102
RTVSPropertyOp9
 70
     1
102
RTVSPropertyOp10
 70
     1
102
RTVSPropertyOp11
 70
     1
102
RTVSPropertyOp12
 70
     1
102
RTVSPropertyOp13
 70
     1
102
RTVSPropertyOp14
 70
     1
102
RTVSPropertyOp15
 70
     1
102
RTVSPropertyOp16
 70
     1
102
RTVSPropertyOp17
 70
     1
102
RTVSPropertyOp18
 70
     1
102
RTVSPropertyOp19
 70
     1
102
RTVSPropertyOp20
 70
     1
102
RTVSPropertyOp21
 70
     1
102
RTVSPropertyOp22
 70
     1
102
RTVSPropertyOp23
 70
     1
102
RTVSPropertyOp24
 70
     1
102
RTVSPropertyOp25
 70
     1
102
RTVSPropertyOp26
 70
     1
102
RTVSPropertyOp27
 70
     1
102
RTVSPropertyOp28
 70
     1
102
RTVSPropertyOp29
 70
     1
102
RTVSPropertyOp30
 70
     1
102
RTVSPropertyOp31
 70
     1
102
RTVSPropertyOp32
 70
     1
  0
ENDSEC
  0
EOF
