  0
SECTION
  2
HEADER
  9
$ACADVER
  1
AC1021
  9
$ACADMAINTVER
 70
    25
  9
$DWGCODEPAGE
  3
ANSI_1252
  9
$INSBASE
 10
0.0
 20
0.0
 30
0.0
  9
$EXTMIN
 10
81.5776
 20
-96.8959
 30
0.0
  9
$EXTMAX
 10
196.2112
 20
101.7747
 30
0.0
  9
$LIMMIN
 10
0.0
 20
0.0
  9
$LIMMAX
 10
12.0
 20
9.0
  9
$ORTHOMODE
 70
     0
  9
$REGENMODE
 70
     1
  9
$FILLMODE
 70
     1
  9
$QTEXTMODE
 70
     0
  9
$MIRRTEXT
 70
     1
  9
$LTSCALE
 40
1.0
  9
$ATTMODE
 70
     1
  9
$TEXTSIZE
 40
0.2
  9
$TRACEWID
 40
0.05
  9
$TEXTSTYLE
  7
Standard
  9
$CLAYER
  8
0
  9
$CELTYPE
  6
ByLayer
  9
$CECOLOR
 62
   256
  9
$CELTSCALE
 40
1.0
  9
$DISPSILH
 70
     0
  9
$DIMSCALE
 40
1.0
  9
$DIMASZ
 40
0.18
  9
$DIMEXO
 40
0.0625
  9
$DIMDLI
 40
0.38
  9
$DIMRND
 40
0.0
  9
$DIMDLE
 40
0.0
  9
$DIMEXE
 40
0.18
  9
$DIMTP
 40
0.0
  9
$DIMTM
 40
0.0
  9
$DIMTXT
 40
0.18
  9
$DIMCEN
 40
0.09
  9
$DIMTSZ
 40
0.0
  9
$DIMTOL
 70
     0
  9
$DIMLIM
 70
     0
  9
$DIMTIH
 70
     1
  9
$DIMTOH
 70
     1
  9
$DIMSE1
 70
     0
  9
$DIMSE2
 70
     0
  9
$DIMTAD
 70
     0
  9
$DIMZIN
 70
     0
  9
$DIMBLK
  1

  9
$DIMASO
 70
     1
  9
$DIMSHO
 70
     1
  9
$DIMPOST
  1

  9
$DIMAPOST
  1

  9
$DIMALT
 70
     0
  9
$DIMALTD
 70
     2
  9
$DIMALTF
 40
25.4
  9
$DIMLFAC
 40
1.0
  9
$DIMTOFL
 70
     0
  9
$DIMTVP
 40
0.0
  9
$DIMTIX
 70
     0
  9
$DIMSOXD
 70
     0
  9
$DIMSAH
 70
     0
  9
$DIMBLK1
  1

  9
$DIMBLK2
  1

  9
$DIMSTYLE
  2
Standard
  9
$DIMCLRD
 70
     0
  9
$DIMCLRE
 70
     0
  9
$DIMCLRT
 70
     0
  9
$DIMTFAC
 40
1.0
  9
$DIMGAP
 40
0.09
  9
$DIMJUST
 70
     0
  9
$DIMSD1
 70
     0
  9
$DIMSD2
 70
     0
  9
$DIMTOLJ
 70
     1
  9
$DIMTZIN
 70
     0
  9
$DIMALTZ
 70
     0
  9
$DIMALTTZ
 70
     0
  9
$DIMUPT
 70
     0
  9
$DIMDEC
 70
     4
  9
$DIMTDEC
 70
     4
  9
$DIMALTU
 70
     2
  9
$DIMALTTD
 70
     2
  9
$DIMTXSTY
  7
Standard
  9
$DIMAUNIT
 70
     0
  9
$DIMADEC
 70
     0
  9
$DIMALTRND
 40
0.0
  9
$DIMAZIN
 70
     0
  9
$DIMDSEP
 70
    46
  9
$DIMATFIT
 70
     3
  9
$DIMFRAC
 70
     0
  9
$DIMLDRBLK
  1

  9
$DIMLUNIT
 70
     2
  9
$DIMLWD
 70
    -2
  9
$DIMLWE
 70
    -2
  9
$DIMTMOVE
 70
     0
  9
$DIMFXL
 40
1.0
  9
$DIMFXLON
 70
     0
  9
$DIMJOGANG
 40
0.7853981633974483
  9
$DIMTFILL
 70
     0
  9
$DIMTFILLCLR
 70
     0
  9
$DIMARCSYM
 70
     0
  9
$DIMLTYPE
  6

  9
$DIMLTEX1
  6

  9
$DIMLTEX2
  6

  9
$LUNITS
 70
     2
  9
$LUPREC
 70
     4
  9
$SKETCHINC
 40
0.1
  9
$FILLETRAD
 40
0.5
  9
$AUNITS
 70
     0
  9
$AUPREC
 70
     0
  9
$MENU
  1
.
  9
$ELEVATION
 40
0.0
  9
$PELEVATION
 40
0.0
  9
$THICKNESS
 40
0.0
  9
$LIMCHECK
 70
     0
  9
$CHAMFERA
 40
0.5
  9
$CHAMFERB
 40
0.5
  9
$CHAMFERC
 40
1.0
  9
$CHAMFERD
 40
0.0
  9
$SKPOLY
 70
     0
  9
$TDCREATE
 40
2458492.779098646
  9
$TDUCREATE
 40
2458492.779098646
  9
$TDUPDATE
 40
2458492.779098843
  9
$TDUUPDATE
 40
2458492.779098843
  9
$TDINDWG
 40
0.0000000116
  9
$TDUSRTIMER
 40
0.0000000116
  9
$USRTIMER
 70
     1
  9
$ANGBASE
 50
0.0
  9
$ANGDIR
 70
     0
  9
$PDMODE
 70
     0
  9
$PDSIZE
 40
0.0
  9
$PLINEWID
 40
0.0
  9
$SPLFRAME
 70
     0
  9
$SPLINETYPE
 70
     6
  9
$SPLINESEGS
 70
     8
  9
$HANDSEED
  5
8E
  9
$SURFTAB1
 70
     6
  9
$SURFTAB2
 70
     6
  9
$SURFTYPE
 70
     6
  9
$SURFU
 70
     6
  9
$SURFV
 70
     6
  9
$UCSBASE
  2

  9
$UCSNAME
  2

  9
$UCSORG
 10
0.0
 20
0.0
 30
0.0
  9
$UCSXDIR
 10
1.0
 20
0.0
 30
0.0
  9
$UCSYDIR
 10
0.0
 20
1.0
 30
0.0
  9
$UCSORTHOREF
  2

  9
$UCSORTHOVIEW
 70
     0
  9
$UCSORGTOP
 10
0.0
 20
0.0
 30
0.0
  9
$UCSORGBOTTOM
 10
0.0
 20
0.0
 30
0.0
  9
$UCSORGLEFT
 10
0.0
 20
0.0
 30
0.0
  9
$UCSORGRIGHT
 10
0.0
 20
0.0
 30
0.0
  9
$UCSORGFRONT
 10
0.0
 20
0.0
 30
0.0
  9
$UCSORGBACK
 10
0.0
 20
0.0
 30
0.0
  9
$PUCSBASE
  2

  9
$PUCSNAME
  2

  9
$PUCSORG
 10
0.0
 20
0.0
 30
0.0
  9
$PUCSXDIR
 10
1.0
 20
0.0
 30
0.0
  9
$PUCSYDIR
 10
0.0
 20
1.0
 30
0.0
  9
$PUCSORTHOREF
  2

  9
$PUCSORTHOVIEW
 70
     0
  9
$PUCSORGTOP
 10
0.0
 20
0.0
 30
0.0
  9
$PUCSORGBOTTOM
 10
0.0
 20
0.0
 30
0.0
  9
$PUCSORGLEFT
 10
0.0
 20
0.0
 30
0.0
  9
$PUCSORGRIGHT
 10
0.0
 20
0.0
 30
0.0
  9
$PUCSORGFRONT
 10
0.0
 20
0.0
 30
0.0
  9
$PUCSORGBACK
 10
0.0
 20
0.0
 30
0.0
  9
$USERI1
 70
     0
  9
$USERI2
 70
     0
  9
$USERI3
 70
     0
  9
$USERI4
 70
     0
  9
$USERI5
 70
     0
  9
$USERR1
 40
0.0
  9
$USERR2
 40
0.0
  9
$USERR3
 40
0.0
  9
$USERR4
 40
0.0
  9
$USERR5
 40
0.0
  9
$WORLDVIEW
 70
     1
  9
$SHADEDGE
 70
     3
  9
$SHADEDIF
 70
    70
  9
$TILEMODE
 70
     1
  9
$MAXACTVP
 70
    64
  9
$PINSBASE
 10
0.0
 20
0.0
 30
0.0
  9
$PLIMCHECK
 70
     0
  9
$PEXTMIN
 10
1.000000000000000E+20
 20
1.000000000000000E+20
 30
1.000000000000000E+20
  9
$PEXTMAX
 10
-1.000000000000000E+20
 20
-1.000000000000000E+20
 30
-1.000000000000000E+20
  9
$PLIMMIN
 10
0.0
 20
0.0
  9
$PLIMMAX
 10
12.0
 20
9.0
  9
$UNITMODE
 70
     0
  9
$VISRETAIN
 70
     1
  9
$PLINEGEN
 70
     0
  9
$PSLTSCALE
 70
     1
  9
$TREEDEPTH
 70
  3020
  9
$CMLSTYLE
  2
Standard
  9
$CMLJUST
 70
     0
  9
$CMLSCALE
 40
1.0
  9
$PROXYGRAPHICS
 70
     1
  9
$MEASUREMENT
 70
     0
  9
$CELWEIGHT
370
    -1
  9
$ENDCAPS
280
     0
  9
$JOINSTYLE
280
     0
  9
$LWDISPLAY
290
     0
  9
$INSUNITS
 70
     4
  9
$HYPERLINKBASE
  1

  9
$STYLESHEET
  1

  9
$XEDIT
290
     1
  9
$CEPSNTYPE
380
     0
  9
$PSTYLEMODE
290
     1
  9
$FINGERPRINTGUID
  2
{6AE3F95D-B53B-4AB7-9176-265C6131A580}
  9
$VERSIONGUID
  2
{FAEB1C32-E019-11D5-929B-00C0DF256EC4}
  9
$EXTNAMES
290
     1
  9
$PSVPSCALE
 40
0.0
  9
$OLESTARTUP
290
     0
  9
$SORTENTS
280
   127
  9
$INDEXCTL
280
     0
  9
$HIDETEXT
280
     1
  9
$XCLIPFRAME
290
     0
  9
$HALOGAP
280
     0
  9
$OBSCOLOR
 70
   257
  9
$OBSLTYPE
280
     0
  9
$INTERSECTIONDISPLAY
280
     0
  9
$INTERSECTIONCOLOR
 70
   257
  9
$DIMASSOC
280
     2
  9
$PROJECTNAME
  1

  9
$CAMERADISPLAY
290
     0
  9
$LENSLENGTH
 40
50.0
  9
$CAMERAHEIGHT
 40
0.0
  9
$STEPSPERSEC
 40
2.0
  9
$STEPSIZE
 40
6.0
  9
$3DDWFPREC
 40
2.0
  9
$PSOLWIDTH
 40
0.25
  9
$PSOLHEIGHT
 40
4.0
  9
$LOFTANG1
 40
1.570796326794897
  9
$LOFTANG2
 40
1.570796326794897
  9
$LOFTMAG1
 40
0.0
  9
$LOFTMAG2
 40
0.0
  9
$LOFTPARAM
 70
     7
  9
$LOFTNORMALS
280
     1
  9
$LATITUDE
 40
37.795
  9
$LONGITUDE
 40
-122.394
  9
$NORTHDIRECTION
 40
0.0
  9
$TIMEZONE
 70
 -8000
  9
$LIGHTGLYPHDISPLAY
280
     1
  9
$TILEMODELIGHTSYNCH
280
     1
  9
$SOLIDHIST
280
     1
  9
$SHOWHIST
280
     1
  9
$DWFFRAME
280
     2
  9
$DGNFRAME
280
     2
  9
$REALWORLDSCALE
290
     1
  9
$INTERFERECOLOR
 62
   256
  9
$CSHADOW
280
     0
  9
$SHADOWPLANELOCATION
 40
0.0
  0
ENDSEC
  0
SECTION
  2
CLASSES
  0
CLASS
  1
ACDBDICTIONARYWDFLT
  2
AcDbDictionaryWithDefault
  3
ObjectDBX Classes
 90
        0
 91
        4
280
     0
281
     0
  0
CLASS
  1
VISUALSTYLE
  2
AcDbVisualStyle
  3
ObjectDBX Classes
 90
     4095
 91
        4
280
     0
281
     0
  0
CLASS
  1
MATERIAL
  2
AcDbMaterial
  3
ObjectDBX Classes
 90
     1153
 91
        4
280
     0
281
     0
  0
ENDSEC
  0
SECTION
  2
TABLES
  0
TABLE
  2
VPORT
  5
8
330
0
100
AcDbSymbolTable
 70
     1
  0
VPORT
  5
29
330
8
100
AcDbSymbolTableRecord
100
AcDbViewportTableRecord
  2
*Active
 70
     0
 10
0.0
 20
0.0
 11
1.0
 21
1.0
 12
10.42990654205607
 22
4.5
 13
0.0
 23
0.0
 14
0.5
 24
0.5
 15
0.5
 25
0.5
 16
0.0
 26
0.0
 36
1.0
 17
0.0
 27
0.0
 37
0.0
 40
9.0
 41
1.972972972850329
 42
50.0
 43
0.0
 44
0.0
 50
0.0
 51
0.0
 71
     0
 72
   100
 73
     1
 74
     3
 75
     0
 76
     0
 77
     0
 78
     0
281
     0
 65
     1
110
0.0
120
0.0
130
0.0
111
1.0
121
0.0
131
0.0
112
0.0
122
1.0
132
0.0
 79
     0
146
0.0
 60
     3
 61
     5
292
     1
282
     1
141
0.0
142
0.0
 63
   250
  0
ENDTAB
  0
TABLE
  2
LTYPE
  5
5
330
0
100
AcDbSymbolTable
 70
     1
  0
LTYPE
  5
14
330
5
100
AcDbSymbolTableRecord
100
AcDbLinetypeTableRecord
  2
ByBlock
 70
     0
  3

 72
    65
 73
     0
 40
0.0
  0
LTYPE
  5
15
330
5
100
AcDbSymbolTableRecord
100
AcDbLinetypeTableRecord
  2
ByLayer
 70
     0
  3

 72
    65
 73
     0
 40
0.0
  0
LTYPE
  5
16
330
5
100
AcDbSymbolTableRecord
100
AcDbLinetypeTableRecord
  2
Continuous
 70
     0
  3
Solid line
 72
    65
 73
     0
 40
0.0
  0
ENDTAB
  0
TABLE
  2
LAYER
  5
2
330
0
100
AcDbSymbolTable
 70
     2
  0
LAYER
  5
10
330
2
100
AcDbSymbolTableRecord
100
AcDbLayerTableRecord
  2
0
 70
     0
 62
     7
  6
Continuous
370
    -3
390
F
347
3E
  0
LAYER
  5
40
330
2
100
AcDbSymbolTableRecord
100
AcDbLayerTableRecord
  2
layer 1
 70
     0
 62
     7
  6
Continuous
370
    -3
390
F
347
3E
  0
ENDTAB
  0
TABLE
  2
STYLE
  5
3
330
0
100
AcDbSymbolTable
 70
     1
  0
STYLE
  5
11
330
3
100
AcDbSymbolTableRecord
100
AcDbTextStyleTableRecord
  2
Standard
 70
     0
 40
0.0
 41
1.0
 50
0.0
 71
     0
 42
0.2
  3
txt
  4

  0
ENDTAB
  0
TABLE
  2
VIEW
  5
6
330
0
100
AcDbSymbolTable
 70
     0
  0
ENDTAB
  0
TABLE
  2
UCS
  5
7
330
0
100
AcDbSymbolTable
 70
     0
  0
ENDTAB
  0
TABLE
  2
APPID
  5
9
330
0
100
AcDbSymbolTable
 70
     2
  0
APPID
  5
12
330
9
100
AcDbSymbolTableRecord
100
AcDbRegAppTableRecord
  2
ACAD
 70
     0
  0
APPID
  5
3F
330
9
100
AcDbSymbolTableRecord
100
AcDbRegAppTableRecord
  2
ODA
 70
     0
  0
ENDTAB
  0
TABLE
  2
DIMSTYLE
  5
A
330
0
100
AcDbSymbolTable
 70
     1
100
AcDbDimStyleTable
  0
DIMSTYLE
105
27
330
A
100
AcDbSymbolTableRecord
100
AcDbDimStyleTableRecord
  2
Standard
 70
     0
178
     0
340
11
  0
ENDTAB
  0
TABLE
  2
BLOCK_RECORD
  5
1
330
0
100
AcDbSymbolTable
 70
     1
  0
BLOCK_RECORD
  5
1F
330
1
100
AcDbSymbolTableRecord
100
AcDbBlockTableRecord
  2
*Model_Space
340
22
 70
     0
280
     1
281
     0
  0
BLOCK_RECORD
  5
1B
330
1
100
AcDbSymbolTableRecord
100
AcDbBlockTableRecord
  2
*Paper_Space
340
1E
 70
     0
280
     1
281
     0
  0
BLOCK_RECORD
  5
23
330
1
100
AcDbSymbolTableRecord
100
AcDbBlockTableRecord
  2
*Paper_Space0
340
26
 70
     0
280
     1
281
     0
  0
ENDTAB
  0
ENDSEC
  0
SECTION
  2
BLOCKS
  0
BLOCK
  5
20
330
1F
100
AcDbEntity
  8
0
100
AcDbBlockBegin
  2
*Model_Space
 70
     0
 10
0.0
 20
0.0
 30
0.0
  3
*Model_Space
  1

  0
ENDBLK
  5
21
330
1F
100
AcDbEntity
  8
0
100
AcDbBlockEnd
  0
BLOCK
  5
1C
330
1B
100
AcDbEntity
 67
     1
  8
0
100
AcDbBlockBegin
  2
*Paper_Space
 70
     0
 10
0.0
 20
0.0
 30
0.0
  3
*Paper_Space
  1

  0
ENDBLK
  5
1D
330
1B
100
AcDbEntity
 67
     1
  8
0
100
AcDbBlockEnd
  0
BLOCK
  5
24
330
23
100
AcDbEntity
  8
0
100
AcDbBlockBegin
  2
*Paper_Space0
 70
     0
 10
0.0
 20
0.0
 30
0.0
  3
*Paper_Space0
  1

  0
ENDBLK
  5
25
330
23
100
AcDbEntity
  8
0
100
AcDbBlockEnd
  0
ENDSEC
  0
SECTION
  2
ENTITIES
  0
SPLINE
  5
41
330
1F
100
AcDbEntity
  8
layer 1
 62
   250
370
     9
100
AcDbSpline
210
0.0
220
0.0
230
1.0
 70
    11
 71
     3
 72
    20
 73
    16
 74
     0
 42
0.0000000001
 43
0.0000000001
 12
1.0
 22
0.0
 32
0.0
 13
1.0
 23
0.0
 33
0.0
 40
0.0
 40
0.0
 40
0.0
 40
0.0
 40
0.2
 40
0.2
 40
0.2
 40
0.2
 40
0.4
 40
0.4
 40
0.4
 40
0.4
 40
0.6
 40
0.6
 40
0.6
 40
0.6
 40
1.0
 40
1.0
 40
1.0
 40
1.0
 10
196.1731
 20
-96.8578
 30
0.0
 10
196.1731
 20
-96.8578
 30
0.0
 10
196.1731
 20
101.7366
 30
0.0
 10
196.1731
 20
101.7366
 30
0.0
 10
196.1731
 20
101.7366
 30
0.0
 10
196.1731
 20
101.7366
 30
0.0
 10
81.6157
 20
101.7366
 30
0.0
 10
81.6157
 20
101.7366
 30
0.0
 10
81.6157
 20
101.7366
 30
0.0
 10
81.6157
 20
101.7366
 30
0.0
 10
81.6157
 20
-96.8578
 30
0.0
 10
81.6157
 20
-96.8578
 30
0.0
 10
81.6157
 20
-96.8578
 30
0.0
 10
81.6157
 20
-96.8578
 30
0.0
 10
196.1731
 20
-96.8578
 30
0.0
 10
196.1731
 20
-96.8578
 30
0.0
  0
SPLINE
  5
42
330
1F
100
AcDbEntity
  8
layer 1
 62
     7
370
     9
100
AcDbSpline
210
0.0
220
0.0
230
1.0
 70
    11
 71
     3
 72
    88
 73
    84
 74
     0
 42
0.0000000001
 43
0.0000000001
 12
1.0
 22
0.0
 32
0.0
 13
1.0
 23
0.0
 33
0.0
 40
0.0
 40
0.0
 40
0.0
 40
0.0
 40
0.0454545454545455
 40
0.0454545454545455
 40
0.0454545454545455
 40
0.0454545454545455
 40
0.0909090909090909
 40
0.0909090909090909
 40
0.0909090909090909
 40
0.0909090909090909
 40
0.1363636363636364
 40
0.1363636363636364
 40
0.1363636363636364
 40
0.1363636363636364
 40
0.1818181818181818
 40
0.1818181818181818
 40
0.1818181818181818
 40
0.1818181818181818
 40
0.2272727272727273
 40
0.2272727272727273
 40
0.2272727272727273
 40
0.2272727272727273
 40
0.2727272727272727
 40
0.2727272727272727
 40
0.2727272727272727
 40
0.2727272727272727
 40
0.3181818181818182
 40
0.3181818181818182
 40
0.3181818181818182
 40
0.3181818181818182
 40
0.3636363636363636
 40
0.3636363636363636
 40
0.3636363636363636
 40
0.3636363636363636
 40
0.4090909090909091
 40
0.4090909090909091
 40
0.4090909090909091
 40
0.4090909090909091
 40
0.4545454545454545
 40
0.4545454545454545
 40
0.4545454545454545
 40
0.4545454545454545
 40
0.5
 40
0.5
 40
0.5
 40
0.5
 40
0.5454545454545454
 40
0.5454545454545454
 40
0.5454545454545454
 40
0.5454545454545454
 40
0.5909090909090909
 40
0.5909090909090909
 40
0.5909090909090909
 40
0.5909090909090909
 40
0.6363636363636364
 40
0.6363636363636364
 40
0.6363636363636364
 40
0.6363636363636364
 40
0.6818181818181818
 40
0.6818181818181818
 40
0.6818181818181818
 40
0.6818181818181818
 40
0.7272727272727273
 40
0.7272727272727273
 40
0.7272727272727273
 40
0.7272727272727273
 40
0.7727272727272727
 40
0.7727272727272727
 40
0.7727272727272727
 40
0.7727272727272727
 40
0.8181818181818182
 40
0.8181818181818182
 40
0.8181818181818182
 40
0.8181818181818182
 40
0.8636363636363636
 40
0.8636363636363636
 40
0.8636363636363636
 40
0.8636363636363636
 40
0.9090909090909091
 40
0.9090909090909091
 40
0.9090909090909091
 40
0.9090909090909091
 40
1.0
 40
1.0
 40
1.0
 40
1.0
 10
102.1563
 20
-82.2474
 30
0.0
 10
102.6438
 20
-82.9661
 30
0.0
 10
102.7299
 20
-83.8836
 30
0.0
 10
102.3854
 20
-84.681
 30
0.0
 10
102.3854
 20
-84.681
 30
0.0
 10
102.0399
 20
-85.4775
 30
0.0
 10
101.312
 20
-86.0428
 30
0.0
 10
100.4546
 20
-86.1796
 30
0.0
 10
100.4546
 20
-86.1796
 30
0.0
 10
97.0702
 20
-87.0604
 30
0.0
 10
93.5694
 20
-85.2336
 30
0.0
 10
92.3559
 20
-81.9538
 30
0.0
 10
92.3559
 20
-81.9538
 30
0.0
 10
91.7853
 20
-80.4219
 30
0.0
 10
91.9122
 20
-78.717
 30
0.0
 10
92.7004
 20
-77.2852
 30
0.0
 10
92.7004
 20
-77.2852
 30
0.0
 10
93.4897
 20
-75.8536
 30
0.0
 10
94.8641
 20
-74.8371
 30
0.0
 10
96.4636
 20
-74.5006
 30
0.0
 10
96.4636
 20
-74.5006
 30
0.0
 10
98.6724
 20
-74.0019
 30
0.0
 10
100.9657
 20
-74.8819
 30
0.0
 10
102.2738
 20
-76.7306
 30
0.0
 10
102.2738
 20
-76.7306
 30
0.0
 10
104.4909
 20
-79.26
 30
0.0
 10
106.4381
 20
-82.0134
 30
0.0
 10
108.0838
 20
-84.9471
 30
0.0
 10
108.0838
 20
-84.9471
 30
0.0
 10
109.9795
 20
-88.6459
 30
0.0
 10
113.6298
 20
-91.1238
 30
0.0
 10
117.767
 20
-91.5201
 30
0.0
 10
117.767
 20
-91.5201
 30
0.0
 10
114.5749
 20
-90.3557
 30
0.0
 10
112.0533
 20
-87.851
 30
0.0
 10
110.8675
 20
-84.6667
 30
0.0
 10
110.8675
 20
-84.6667
 30
0.0
 10
109.682
 20
-81.4825
 30
0.0
 10
109.9513
 20
-77.9384
 30
0.0
 10
111.605
 20
-74.9701
 30
0.0
 10
111.605
 20
-74.9701
 30
0.0
 10
109.7163
 20
-75.8836
 30
0.0
 10
108.3529
 20
-77.6152
 30
0.0
 10
107.9078
 20
-79.6651
 30
0.0
 10
107.9078
 20
-79.6651
 30
0.0
 10
106.3421
 20
-76.0446
 30
0.0
 10
103.7255
 20
-72.9776
 30
0.0
 10
100.3961
 20
-70.8619
 30
0.0
 10
100.3961
 20
-70.8619
 30
0.0
 10
96.5639
 20
-67.9271
 30
0.0
 10
93.751
 20
-63.8624
 30
0.0
 10
92.3559
 20
-59.2422
 30
0.0
 10
92.3559
 20
-59.2422
 30
0.0
 10
89.2696
 20
-51.154
 30
0.0
 10
91.844
 20
-41.9999
 30
0.0
 10
98.6944
 20
-36.7061
 30
0.0
 10
98.6944
 20
-36.7061
 30
0.0
 10
91.8875
 20
-39.0437
 30
0.0
 10
87.5045
 20
-45.6665
 30
0.0
 10
88.0127
 20
-52.845
 30
0.0
 10
88.0127
 20
-52.845
 30
0.0
 10
88.4328
 20
-59.8663
 30
0.0
 10
91.4199
 20
-66.4873
 30
0.0
 10
96.4049
 20
-71.4489
 30
0.0
 10
96.4049
 20
-71.4489
 30
0.0
 10
94.0228
 20
-71.6971
 30
0.0
 10
91.8459
 20
-72.9108
 30
0.0
 10
90.3816
 20
-74.807
 30
0.0
 10
90.3816
 20
-74.807
 30
0.0
 10
88.9176
 20
-76.7033
 30
0.0
 10
88.2946
 20
-79.1167
 30
0.0
 10
88.6581
 20
-81.4843
 30
0.0
 10
88.6581
 20
-81.4843
 30
0.0
 10
89.3272
 20
-86.5327
 30
0.0
 10
93.857
 20
-90.1561
 30
0.0
 10
98.9291
 20
-89.7008
 30
0.0
 10
98.9291
 20
-89.7008
 30
0.0
 10
100.6725
 20
-89.6042
 30
0.0
 10
102.3211
 20
-88.8737
 30
0.0
 10
103.5648
 20
-87.6466
 30
0.0
 10
103.5648
 20
-87.6466
 30
0.0
 10
104.6331
 20
-85.7621
 30
0.0
 10
104.0091
 20
-83.3699
 30
0.0
 10
102.1563
 20
-82.2474
 30
0.0
  0
SPLINE
  5
43
330
1F
100
AcDbEntity
  8
layer 1
 62
     7
370
     9
100
AcDbSpline
210
0.0
220
0.0
230
1.0
 70
    11
 71
     3
 72
    64
 73
    60
 74
     0
 42
0.0000000001
 43
0.0000000001
 12
1.0
 22
0.0
 32
0.0
 13
1.0
 23
0.0
 33
0.0
 40
0.0
 40
0.0
 40
0.0
 40
0.0
 40
0.0625
 40
0.0625
 40
0.0625
 40
0.0625
 40
0.125
 40
0.125
 40
0.125
 40
0.125
 40
0.1875
 40
0.1875
 40
0.1875
 40
0.1875
 40
0.25
 40
0.25
 40
0.25
 40
0.25
 40
0.3125
 40
0.3125
 40
0.3125
 40
0.3125
 40
0.375
 40
0.375
 40
0.375
 40
0.375
 40
0.4375
 40
0.4375
 40
0.4375
 40
0.4375
 40
0.5
 40
0.5
 40
0.5
 40
0.5
 40
0.5625
 40
0.5625
 40
0.5625
 40
0.5625
 40
0.625
 40
0.625
 40
0.625
 40
0.625
 40
0.6875
 40
0.6875
 40
0.6875
 40
0.6875
 40
0.75
 40
0.75
 40
0.75
 40
0.75
 40
0.8125
 40
0.8125
 40
0.8125
 40
0.8125
 40
0.875
 40
0.875
 40
0.875
 40
0.875
 40
1.0
 40
1.0
 40
1.0
 40
1.0
 10
105.7948
 20
-64.9344
 30
0.0
 10
100.0913
 20
-61.7743
 30
0.0
 10
96.9197
 20
-55.4307
 30
0.0
 10
97.8142
 20
-48.9718
 30
0.0
 10
97.8142
 20
-48.9718
 30
0.0
 10
98.6791
 20
-43.6184
 30
0.0
 10
101.4258
 20
-38.7488
 30
0.0
 10
105.5601
 20
-35.2391
 30
0.0
 10
105.5601
 20
-35.2391
 30
0.0
 10
99.1628
 20
-37.2649
 30
0.0
 10
94.5024
 20
-42.7932
 30
0.0
 10
93.5881
 20
-49.4413
 30
0.0
 10
93.5881
 20
-49.4413
 30
0.0
 10
92.4098
 20
-55.7411
 30
0.0
 10
94.6937
 20
-62.1893
 30
0.0
 10
99.5744
 20
-66.3429
 30
0.0
 10
99.5744
 20
-66.3429
 30
0.0
 10
102.907
 20
-68.5721
 30
0.0
 10
105.9102
 20
-71.259
 30
0.0
 10
108.4945
 20
-74.3246
 30
0.0
 10
108.4945
 20
-74.3246
 30
0.0
 10
110.6768
 20
-72.7335
 30
0.0
 10
113.3054
 20
-71.8709
 30
0.0
 10
116.0065
 20
-71.8599
 30
0.0
 10
116.0065
 20
-71.8599
 30
0.0
 10
112.0517
 20
-74.6544
 30
0.0
 10
110.7516
 20
-79.9304
 30
0.0
 10
112.9545
 20
-84.2428
 30
0.0
 10
112.9545
 20
-84.2428
 30
0.0
 10
114.4743
 20
-86.7591
 30
0.0
 10
116.5157
 20
-88.9198
 30
0.0
 10
118.941
 20
-90.5811
 30
0.0
 10
118.941
 20
-90.5811
 30
0.0
 10
115.1595
 20
-85.7219
 30
0.0
 10
115.8018
 20
-78.7618
 30
0.0
 10
120.4082
 20
-74.6766
 30
0.0
 10
120.4082
 20
-74.6766
 30
0.0
 10
122.1886
 20
-73.8286
 30
0.0
 10
124.2289
 20
-73.702
 30
0.0
 10
126.1004
 20
-74.3246
 30
0.0
 10
126.1004
 20
-74.3246
 30
0.0
 10
123.4423
 20
-72.2876
 30
0.0
 10
120.6154
 20
-70.4815
 30
0.0
 10
117.6497
 20
-68.9254
 30
0.0
 10
117.6497
 20
-68.9254
 30
0.0
 10
114.7158
 20
-69.1261
 30
0.0
 10
111.77
 20
-69.0673
 30
0.0
 10
108.8468
 20
-68.7494
 30
0.0
 10
108.8468
 20
-68.7494
 30
0.0
 10
111.2184
 20
-68.3819
 30
0.0
 10
113.6086
 20
-68.1469
 30
0.0
 10
116.0065
 20
-68.0452
 30
0.0
 10
116.0065
 20
-68.0452
 30
0.0
 10
111.2488
 20
-65.6776
 30
0.0
 10
106.9396
 20
-62.5003
 30
0.0
 10
103.2713
 20
-58.655
 30
0.0
 10
103.2713
 20
-58.655
 30
0.0
 10
103.365
 20
-60.9764
 30
0.0
 10
104.2565
 20
-63.1943
 30
0.0
 10
105.7948
 20
-64.9344
 30
0.0
  0
SPLINE
  5
44
330
1F
100
AcDbEntity
  8
layer 1
 62
     7
370
     9
100
AcDbSpline
210
0.0
220
0.0
230
1.0
 70
    11
 71
     3
 72
   132
 73
   128
 74
     0
 42
0.0000000001
 43
0.0000000001
 12
1.0
 22
0.0
 32
0.0
 13
1.0
 23
0.0
 33
0.0
 40
0.0
 40
0.0
 40
0.0
 40
0.0
 40
0.0303030303030303
 40
0.0303030303030303
 40
0.0303030303030303
 40
0.0303030303030303
 40
0.0606060606060606
 40
0.0606060606060606
 40
0.0606060606060606
 40
0.0606060606060606
 40
0.0909090909090909
 40
0.0909090909090909
 40
0.0909090909090909
 40
0.0909090909090909
 40
0.1212121212121212
 40
0.1212121212121212
 40
0.1212121212121212
 40
0.1212121212121212
 40
0.1515151515151515
 40
0.1515151515151515
 40
0.1515151515151515
 40
0.1515151515151515
 40
0.1818181818181818
 40
0.1818181818181818
 40
0.1818181818181818
 40
0.1818181818181818
 40
0.2121212121212121
 40
0.2121212121212121
 40
0.2121212121212121
 40
0.2121212121212121
 40
0.2424242424242424
 40
0.2424242424242424
 40
0.2424242424242424
 40
0.2424242424242424
 40
0.2727272727272727
 40
0.2727272727272727
 40
0.2727272727272727
 40
0.2727272727272727
 40
0.303030303030303
 40
0.303030303030303
 40
0.303030303030303
 40
0.303030303030303
 40
0.3333333333333333
 40
0.3333333333333333
 40
0.3333333333333333
 40
0.3333333333333333
 40
0.3636363636363636
 40
0.3636363636363636
 40
0.3636363636363636
 40
0.3636363636363636
 40
0.3939393939393939
 40
0.3939393939393939
 40
0.3939393939393939
 40
0.3939393939393939
 40
0.4242424242424243
 40
0.4242424242424243
 40
0.4242424242424243
 40
0.4242424242424243
 40
0.4545454545454545
 40
0.4545454545454545
 40
0.4545454545454545
 40
0.4545454545454545
 40
0.4848484848484849
 40
0.4848484848484849
 40
0.4848484848484849
 40
0.4848484848484849
 40
0.5151515151515151
 40
0.5151515151515151
 40
0.5151515151515151
 40
0.5151515151515151
 40
0.5454545454545454
 40
0.5454545454545454
 40
0.5454545454545454
 40
0.5454545454545454
 40
0.5757575757575758
 40
0.5757575757575758
 40
0.5757575757575758
 40
0.5757575757575758
 40
0.6060606060606061
 40
0.6060606060606061
 40
0.6060606060606061
 40
0.6060606060606061
 40
0.6363636363636364
 40
0.6363636363636364
 40
0.6363636363636364
 40
0.6363636363636364
 40
0.6666666666666666
 40
0.6666666666666666
 40
0.6666666666666666
 40
0.6666666666666666
 40
0.696969696969697
 40
0.696969696969697
 40
0.696969696969697
 40
0.696969696969697
 40
0.7272727272727273
 40
0.7272727272727273
 40
0.7272727272727273
 40
0.7272727272727273
 40
0.7575757575757576
 40
0.7575757575757576
 40
0.7575757575757576
 40
0.7575757575757576
 40
0.7878787878787878
 40
0.7878787878787878
 40
0.7878787878787878
 40
0.7878787878787878
 40
0.8181818181818182
 40
0.8181818181818182
 40
0.8181818181818182
 40
0.8181818181818182
 40
0.8484848484848485
 40
0.8484848484848485
 40
0.8484848484848485
 40
0.8484848484848485
 40
0.8787878787878788
 40
0.8787878787878788
 40
0.8787878787878788
 40
0.8787878787878788
 40
0.9090909090909091
 40
0.9090909090909091
 40
0.9090909090909091
 40
0.9090909090909091
 40
0.9393939393939394
 40
0.9393939393939394
 40
0.9393939393939394
 40
0.9393939393939394
 40
1.0
 40
1.0
 40
1.0
 40
1.0
 10
116.9455
 20
-45.157
 30
0.0
 10
116.7564
 20
-46.4545
 30
0.0
 10
117.2991
 20
-47.7497
 30
0.0
 10
118.3567
 20
-48.5243
 30
0.0
 10
118.3567
 20
-48.5243
 30
0.0
 10
119.414
 20
-49.2988
 30
0.0
 10
120.8131
 20
-49.426
 30
0.0
 10
121.9925
 20
-48.8545
 30
0.0
 10
121.9925
 20
-48.8545
 30
0.0
 10
123.0055
 20
-48.3145
 30
0.0
 10
123.6835
 20
-47.3063
 30
0.0
 10
123.801
 20
-46.1642
 30
0.0
 10
123.801
 20
-46.1642
 30
0.0
 10
123.919
 20
-45.0226
 30
0.0
 10
123.461
 20
-43.8972
 30
0.0
 10
122.5795
 20
-43.1618
 30
0.0
 10
122.5795
 20
-43.1618
 30
0.0
 10
120.0259
 20
-41.3911
 30
0.0
 10
116.7341
 20
-41.0799
 30
0.0
 10
113.8938
 20
-42.3403
 30
0.0
 10
113.8938
 20
-42.3403
 30
0.0
 10
111.8071
 20
-43.7867
 30
0.0
 10
110.4098
 20
-46.0303
 30
0.0
 10
110.0321
 20
-48.5409
 30
0.0
 10
110.0321
 20
-48.5409
 30
0.0
 10
109.6543
 20
-51.0518
 30
0.0
 10
110.3296
 20
-53.6072
 30
0.0
 10
111.8983
 20
-55.6035
 30
0.0
 10
111.8983
 20
-55.6035
 30
0.0
 10
115.9799
 20
-60.8114
 30
0.0
 10
123.2306
 20
-62.3015
 30
0.0
 10
129.0349
 20
-59.1245
 30
0.0
 10
129.0349
 20
-59.1245
 30
0.0
 10
133.2617
 20
-56.1382
 30
0.0
 10
135.3514
 20
-50.9555
 30
0.0
 10
134.3778
 20
-45.8726
 30
0.0
 10
134.3778
 20
-45.8726
 30
0.0
 10
133.4042
 20
-40.7894
 30
0.0
 10
129.5473
 20
-36.7455
 30
0.0
 10
124.5159
 20
-35.5326
 30
0.0
 10
124.5159
 20
-35.5326
 30
0.0
 10
132.3327
 20
-35.4599
 30
0.0
 10
138.8104
 20
-41.5749
 30
0.0
 10
139.1879
 20
-49.3825
 30
0.0
 10
139.1879
 20
-49.3825
 30
0.0
 10
138.7723
 20
-56.7491
 30
0.0
 10
133.4042
 20
-62.8912
 30
0.0
 10
126.1595
 20
-64.2889
 30
0.0
 10
126.1595
 20
-64.2889
 30
0.0
 10
132.7729
 20
-66.6616
 30
0.0
 10
137.6104
 20
-72.3943
 30
0.0
 10
138.8359
 20
-79.3131
 30
0.0
 10
138.8359
 20
-79.3131
 30
0.0
 10
139.623
 20
-82.1132
 30
0.0
 10
139.0819
 20
-85.1201
 30
0.0
 10
137.3684
 20
-87.4706
 30
0.0
 10
137.3684
 20
-87.4706
 30
0.0
 10
134.4854
 20
-90.32
 30
0.0
 10
130.3436
 20
-91.4938
 30
0.0
 10
126.3942
 20
-90.5811
 30
0.0
 10
126.3942
 20
-90.5811
 30
0.0
 10
122.771
 20
-89.5527
 30
0.0
 10
120.3688
 20
-86.1208
 30
0.0
 10
120.6427
 20
-82.3646
 30
0.0
 10
120.6427
 20
-82.3646
 30
0.0
 10
121.0022
 20
-80.833
 30
0.0
 10
122.0193
 20
-79.5379
 30
0.0
 10
123.4221
 20
-78.8251
 30
0.0
 10
123.4221
 20
-78.8251
 30
0.0
 10
124.825
 20
-78.1123
 30
0.0
 10
126.4707
 20
-78.0546
 30
0.0
 10
127.9199
 20
-78.6676
 30
0.0
 10
127.9199
 20
-78.6676
 30
0.0
 10
125.6744
 20
-78.4313
 30
0.0
 10
123.6003
 20
-79.8929
 30
0.0
 10
123.0664
 20
-82.0866
 30
0.0
 10
123.0664
 20
-82.0866
 30
0.0
 10
122.5331
 20
-84.2809
 30
0.0
 10
123.7041
 20
-86.5313
 30
0.0
 10
125.8075
 20
-87.3531
 30
0.0
 10
125.8075
 20
-87.3531
 30
0.0
 10
128.3806
 20
-88.6237
 30
0.0
 10
131.4785
 20
-88.1035
 30
0.0
 10
133.4954
 20
-86.0621
 30
0.0
 10
133.4954
 20
-86.0621
 30
0.0
 10
135.3495
 20
-82.6527
 30
0.0
 10
134.8556
 20
-78.445
 30
0.0
 10
132.2629
 20
-75.5574
 30
0.0
 10
132.2629
 20
-75.5574
 30
0.0
 10
128.2046
 20
-70.588
 30
0.0
 10
123.2472
 20
-66.4269
 30
0.0
 10
117.6497
 20
-63.2915
 30
0.0
 10
117.6497
 20
-63.2915
 30
0.0
 10
113.7339
 20
-61.9508
 30
0.0
 10
110.3299
 20
-59.4287
 30
0.0
 10
107.9078
 20
-56.073
 30
0.0
 10
107.9078
 20
-56.073
 30
0.0
 10
104.9087
 20
-51.7579
 30
0.0
 10
105.6153
 20
-45.8806
 30
0.0
 10
109.551
 20
-42.3988
 30
0.0
 10
109.551
 20
-42.3988
 30
0.0
 10
113.7288
 20
-39.1719
 30
0.0
 10
119.3394
 20
-38.4961
 30
0.0
 10
124.164
 20
-40.6381
 30
0.0
 10
124.164
 20
-40.6381
 30
0.0
 10
126.3405
 20
-41.5317
 30
0.0
 10
128.0302
 20
-43.3147
 30
0.0
 10
128.8042
 20
-45.5367
 30
0.0
 10
128.8042
 20
-45.5367
 30
0.0
 10
129.5785
 20
-47.7586
 30
0.0
 10
129.3633
 20
-50.2056
 30
0.0
 10
128.2134
 20
-52.2585
 30
0.0
 10
128.2134
 20
-52.2585
 30
0.0
 10
127.0131
 20
-53.8902
 30
0.0
 10
125.1923
 20
-54.9543
 30
0.0
 10
123.1815
 20
-55.1987
 30
0.0
 10
123.1815
 20
-55.1987
 30
0.0
 10
121.1702
 20
-55.4431
 30
0.0
 10
119.1476
 20
-54.8464
 30
0.0
 10
117.591
 20
-53.5492
 30
0.0
 10
117.591
 20
-53.5492
 30
0.0
 10
116.3778
 20
-52.5316
 30
0.0
 10
115.6253
 20
-51.0679
 30
0.0
 10
115.5037
 20
-49.489
 30
0.0
 10
115.5037
 20
-49.489
 30
0.0
 10
115.3825
 20
-47.9099
 30
0.0
 10
115.9019
 20
-46.3485
 30
0.0
 10
116.9455
 20
-45.157
 30
0.0
  0
SPLINE
  5
45
330
1F
100
AcDbEntity
  8
layer 1
 62
     7
370
     9
100
AcDbSpline
210
0.0
220
0.0
230
1.0
 70
    11
 71
     3
 72
   108
 73
   104
 74
     0
 42
0.0000000001
 43
0.0000000001
 12
1.0
 22
0.0
 32
0.0
 13
1.0
 23
0.0
 33
0.0
 40
0.0
 40
0.0
 40
0.0
 40
0.0
 40
0.037037037037037
 40
0.037037037037037
 40
0.037037037037037
 40
0.037037037037037
 40
0.0740740740740741
 40
0.0740740740740741
 40
0.0740740740740741
 40
0.0740740740740741
 40
0.1111111111111111
 40
0.1111111111111111
 40
0.1111111111111111
 40
0.1111111111111111
 40
0.1481481481481481
 40
0.1481481481481481
 40
0.1481481481481481
 40
0.1481481481481481
 40
0.1851851851851852
 40
0.1851851851851852
 40
0.1851851851851852
 40
0.1851851851851852
 40
0.2222222222222222
 40
0.2222222222222222
 40
0.2222222222222222
 40
0.2222222222222222
 40
0.2592592592592592
 40
0.2592592592592592
 40
0.2592592592592592
 40
0.2592592592592592
 40
0.2962962962962963
 40
0.2962962962962963
 40
0.2962962962962963
 40
0.2962962962962963
 40
0.3333333333333333
 40
0.3333333333333333
 40
0.3333333333333333
 40
0.3333333333333333
 40
0.3703703703703703
 40
0.3703703703703703
 40
0.3703703703703703
 40
0.3703703703703703
 40
0.4074074074074074
 40
0.4074074074074074
 40
0.4074074074074074
 40
0.4074074074074074
 40
0.4444444444444444
 40
0.4444444444444444
 40
0.4444444444444444
 40
0.4444444444444444
 40
0.4814814814814815
 40
0.4814814814814815
 40
0.4814814814814815
 40
0.4814814814814815
 40
0.5185185185185185
 40
0.5185185185185185
 40
0.5185185185185185
 40
0.5185185185185185
 40
0.5555555555555556
 40
0.5555555555555556
 40
0.5555555555555556
 40
0.5555555555555556
 40
0.5925925925925926
 40
0.5925925925925926
 40
0.5925925925925926
 40
0.5925925925925926
 40
0.6296296296296297
 40
0.6296296296296297
 40
0.6296296296296297
 40
0.6296296296296297
 40
0.6666666666666666
 40
0.6666666666666666
 40
0.6666666666666666
 40
0.6666666666666666
 40
0.7037037037037037
 40
0.7037037037037037
 40
0.7037037037037037
 40
0.7037037037037037
 40
0.7407407407407407
 40
0.7407407407407407
 40
0.7407407407407407
 40
0.7407407407407407
 40
0.7777777777777778
 40
0.7777777777777778
 40
0.7777777777777778
 40
0.7777777777777778
 40
0.8148148148148148
 40
0.8148148148148148
 40
0.8148148148148148
 40
0.8148148148148148
 40
0.8518518518518519
 40
0.8518518518518519
 40
0.8518518518518519
 40
0.8518518518518519
 40
0.8888888888888888
 40
0.8888888888888888
 40
0.8888888888888888
 40
0.8888888888888888
 40
0.9259259259259259
 40
0.9259259259259259
 40
0.9259259259259259
 40
0.9259259259259259
 40
1.0
 40
1.0
 40
1.0
 40
1.0
 10
140.0389
 20
-92.3711
 30
0.0
 10
143.174
 20
-88.412
 30
0.0
 10
144.5216
 20
-83.3275
 30
0.0
 10
143.7592
 20
-78.3352
 30
0.0
 10
143.7592
 20
-78.3352
 30
0.0
 10
142.9964
 20
-73.343
 30
0.0
 10
140.1926
 20
-68.8927
 30
0.0
 10
136.0186
 20
-66.05
 30
0.0
 10
136.0186
 20
-66.05
 30
0.0
 10
140.5824
 20
-65.2505
 30
0.0
 10
144.971
 20
-63.662
 30
0.0
 10
148.9886
 20
-61.3547
 30
0.0
 10
148.9886
 20
-61.3547
 30
0.0
 10
156.2035
 20
-56.7394
 30
0.0
 10
159.9678
 20
-48.264
 30
0.0
 10
158.5548
 20
-39.8166
 30
0.0
 10
158.5548
 20
-39.8166
 30
0.0
 10
160.7746
 20
-45.7097
 30
0.0
 10
161.5198
 20
-52.0562
 30
0.0
 10
160.7263
 20
-58.303
 30
0.0
 10
160.7263
 20
-58.303
 30
0.0
 10
158.9186
 20
-58.1307
 30
0.0
 10
157.0953
 20
-58.31
 30
0.0
 10
155.3563
 20
-58.8315
 30
0.0
 10
155.3563
 20
-58.8315
 30
0.0
 10
154.6504
 20
-58.9742
 30
0.0
 10
154.0342
 20
-59.4008
 30
0.0
 10
153.6513
 20
-60.0109
 30
0.0
 10
153.6513
 20
-60.0109
 30
0.0
 10
153.2688
 20
-60.6207
 30
0.0
 10
153.1531
 20
-61.3612
 30
0.0
 10
153.3315
 20
-62.059
 30
0.0
 10
153.3315
 20
-62.059
 30
0.0
 10
153.412
 20
-61.352
 30
0.0
 10
153.8155
 20
-60.7224
 30
0.0
 10
154.4248
 20
-60.3551
 30
0.0
 10
154.4248
 20
-60.3551
 30
0.0
 10
155.0338
 20
-59.987
 30
0.0
 10
155.7791
 20
-59.9226
 30
0.0
 10
156.442
 20
-60.1807
 30
0.0
 10
156.442
 20
-60.1807
 30
0.0
 10
157.1618
 20
-60.4981
 30
0.0
 10
157.6812
 20
-61.1468
 30
0.0
 10
157.8334
 20
-61.9189
 30
0.0
 10
157.8334
 20
-61.9189
 30
0.0
 10
157.9855
 20
-62.6908
 30
0.0
 10
157.7507
 20
-63.4878
 30
0.0
 10
157.2048
 20
-64.0542
 30
0.0
 10
157.2048
 20
-64.0542
 30
0.0
 10
155.2474
 20
-66.0934
 30
0.0
 10
152.6241
 20
-67.3635
 30
0.0
 10
149.8103
 20
-67.6344
 30
0.0
 10
149.8103
 20
-67.6344
 30
0.0
 10
152.3266
 20
-71.1318
 30
0.0
 10
152.8591
 20
-75.6808
 30
0.0
 10
151.2188
 20
-79.6651
 30
0.0
 10
151.2188
 20
-79.6651
 30
0.0
 10
152.3448
 20
-74.5162
 30
0.0
 10
149.5565
 20
-69.3134
 30
0.0
 10
144.6458
 20
-67.3997
 30
0.0
 10
144.6458
 20
-67.3997
 30
0.0
 10
148.125
 20
-71.1503
 30
0.0
 10
149.4916
 20
-76.3958
 30
0.0
 10
148.2843
 20
-81.3671
 30
0.0
 10
148.2843
 20
-81.3671
 30
0.0
 10
150.2339
 20
-81.0489
 30
0.0
 10
152.2082
 20
-81.7685
 30
0.0
 10
153.496
 20
-83.266
 30
0.0
 10
153.496
 20
-83.266
 30
0.0
 10
154.7838
 20
-84.7633
 30
0.0
 10
155.1996
 20
-86.8232
 30
0.0
 10
154.5936
 20
-88.7028
 30
0.0
 10
154.5936
 20
-88.7028
 30
0.0
 10
153.7605
 20
-90.8333
 30
0.0
 10
151.4672
 20
-92.0051
 30
0.0
 10
149.2526
 20
-91.4321
 30
0.0
 10
149.2526
 20
-91.4321
 30
0.0
 10
148.1097
 20
-91.115
 30
0.0
 10
147.3255
 20
-90.0652
 30
0.0
 10
147.3453
 20
-88.8791
 30
0.0
 10
147.3453
 20
-88.8791
 30
0.0
 10
147.62
 20
-89.667
 30
0.0
 10
148.4348
 20
-90.1312
 30
0.0
 10
149.2526
 20
-89.9648
 30
0.0
 10
149.2526
 20
-89.9648
 30
0.0
 10
150.15
 20
-89.7695
 30
0.0
 10
150.8904
 20
-89.1393
 30
0.0
 10
151.2266
 20
-88.2843
 30
0.0
 10
151.2266
 20
-88.2843
 30
0.0
 10
151.5627
 20
-87.4301
 30
0.0
 10
151.4495
 20
-86.464
 30
0.0
 10
150.9253
 20
-85.7098
 30
0.0
 10
150.9253
 20
-85.7098
 30
0.0
 10
150.1194
 20
-85.0547
 30
0.0
 10
149.042
 20
-84.8384
 30
0.0
 10
148.0453
 20
-85.1317
 30
0.0
 10
148.0453
 20
-85.1317
 30
0.0
 10
147.0486
 20
-85.4246
 30
0.0
 10
146.2598
 20
-86.1895
 30
0.0
 10
145.9371
 20
-87.1771
 30
0.0
 10
145.9371
 20
-87.1771
 30
0.0
 10
144.6461
 20
-89.5506
 30
0.0
 10
142.5564
 20
-91.3907
 30
0.0
 10
140.0389
 20
-92.3711
 30
0.0
  0
SPLINE
  5
46
330
1F
100
AcDbEntity
  8
layer 1
 62
     7
370
     9
100
AcDbSpline
210
0.0
220
0.0
230
1.0
 70
    11
 71
     3
 72
    72
 73
    68
 74
     0
 42
0.0000000001
 43
0.0000000001
 12
1.0
 22
0.0
 32
0.0
 13
1.0
 23
0.0
 33
0.0
 40
0.0
 40
0.0
 40
0.0
 40
0.0
 40
0.0555555555555556
 40
0.0555555555555556
 40
0.0555555555555556
 40
0.0555555555555556
 40
0.1111111111111111
 40
0.1111111111111111
 40
0.1111111111111111
 40
0.1111111111111111
 40
0.1666666666666667
 40
0.1666666666666667
 40
0.1666666666666667
 40
0.1666666666666667
 40
0.2222222222222222
 40
0.2222222222222222
 40
0.2222222222222222
 40
0.2222222222222222
 40
0.2777777777777778
 40
0.2777777777777778
 40
0.2777777777777778
 40
0.2777777777777778
 40
0.3333333333333333
 40
0.3333333333333333
 40
0.3333333333333333
 40
0.3333333333333333
 40
0.3888888888888889
 40
0.3888888888888889
 40
0.3888888888888889
 40
0.3888888888888889
 40
0.4444444444444444
 40
0.4444444444444444
 40
0.4444444444444444
 40
0.4444444444444444
 40
0.5
 40
0.5
 40
0.5
 40
0.5
 40
0.5555555555555556
 40
0.5555555555555556
 40
0.5555555555555556
 40
0.5555555555555556
 40
0.6111111111111112
 40
0.6111111111111112
 40
0.6111111111111112
 40
0.6111111111111112
 40
0.6666666666666666
 40
0.6666666666666666
 40
0.6666666666666666
 40
0.6666666666666666
 40
0.7222222222222222
 40
0.7222222222222222
 40
0.7222222222222222
 40
0.7222222222222222
 40
0.7777777777777778
 40
0.7777777777777778
 40
0.7777777777777778
 40
0.7777777777777778
 40
0.8333333333333334
 40
0.8333333333333334
 40
0.8333333333333334
 40
0.8333333333333334
 40
0.8888888888888888
 40
0.8888888888888888
 40
0.8888888888888888
 40
0.8888888888888888
 40
1.0
 40
1.0
 40
1.0
 40
1.0
 10
152.7445
 20
-68.7494
 30
0.0
 10
157.3641
 20
-69.0818
 30
0.0
 10
161.6282
 20
-66.263
 30
0.0
 10
163.1322
 20
-61.883
 30
0.0
 10
163.1322
 20
-61.883
 30
0.0
 10
165.0413
 20
-54.6039
 30
0.0
 10
164.6314
 20
-46.9103
 30
0.0
 10
161.9582
 20
-39.8753
 30
0.0
 10
161.9582
 20
-39.8753
 30
0.0
 10
166.1638
 20
-43.9766
 30
0.0
 10
169.0286
 20
-49.2554
 30
0.0
 10
170.1747
 20
-55.0162
 30
0.0
 10
170.1747
 20
-55.0162
 30
0.0
 10
170.8516
 20
-60.5276
 30
0.0
 10
168.7654
 20
-66.0178
 30
0.0
 10
164.5995
 20
-69.6882
 30
0.0
 10
164.5995
 20
-69.6882
 30
0.0
 10
169.4479
 20
-68.9241
 30
0.0
 10
174.1053
 20
-71.8948
 30
0.0
 10
175.4567
 20
-76.6136
 30
0.0
 10
175.4567
 20
-76.6136
 30
0.0
 10
176.1835
 20
-81.0063
 30
0.0
 10
173.8059
 20
-85.3248
 30
0.0
 10
169.7052
 20
-87.0598
 30
0.0
 10
169.7052
 20
-87.0598
 30
0.0
 10
167.901
 20
-87.9835
 30
0.0
 10
165.7249
 20
-87.7772
 30
0.0
 10
164.1262
 20
-86.5313
 30
0.0
 10
164.1262
 20
-86.5313
 30
0.0
 10
162.5273
 20
-85.2849
 30
0.0
 10
161.7965
 20
-83.225
 30
0.0
 10
162.252
 20
-81.2496
 30
0.0
 10
162.252
 20
-81.2496
 30
0.0
 10
162.7349
 20
-83.0197
 30
0.0
 10
164.1437
 20
-84.3858
 30
0.0
 10
165.928
 20
-84.8135
 30
0.0
 10
165.928
 20
-84.8135
 30
0.0
 10
167.7121
 20
-85.2414
 30
0.0
 10
169.5877
 20
-84.6627
 30
0.0
 10
170.8202
 20
-83.3036
 30
0.0
 10
170.8202
 20
-83.3036
 30
0.0
 10
171.668
 20
-82.106
 30
0.0
 10
171.9786
 20
-80.6092
 30
0.0
 10
171.6779
 20
-79.1731
 30
0.0
 10
171.6779
 20
-79.1731
 30
0.0
 10
171.3774
 20
-77.737
 30
0.0
 10
170.4926
 20
-76.4908
 30
0.0
 10
169.2357
 20
-75.7331
 30
0.0
 10
169.2357
 20
-75.7331
 30
0.0
 10
167.0033
 20
-75.0622
 30
0.0
 10
164.5829
 20
-75.5952
 30
0.0
 10
162.839
 20
-77.1419
 30
0.0
 10
162.839
 20
-77.1419
 30
0.0
 10
159.8903
 20
-79.8433
 30
0.0
 10
157.6869
 20
-83.2593
 30
0.0
 10
156.442
 20
-87.0598
 30
0.0
 10
156.442
 20
-87.0598
 30
0.0
 10
155.9964
 20
-82.4958
 30
0.0
 10
157.0247
 20
-77.9092
 30
0.0
 10
159.3763
 20
-73.9724
 30
0.0
 10
159.3763
 20
-73.9724
 30
0.0
 10
157.997
 20
-73.7663
 30
0.0
 10
156.5979
 20
-73.7272
 30
0.0
 10
155.2093
 20
-73.8551
 30
0.0
 10
155.2093
 20
-73.8551
 30
0.0
 10
154.222
 20
-72.2385
 30
0.0
 10
153.3965
 20
-70.5282
 30
0.0
 10
152.7445
 20
-68.7494
 30
0.0
  0
SPLINE
  5
47
330
1F
100
AcDbEntity
  8
layer 1
 62
     7
370
     9
100
AcDbSpline
210
0.0
220
0.0
230
1.0
 70
    11
 71
     3
 72
    48
 73
    44
 74
     0
 42
0.0000000001
 43
0.0000000001
 12
1.0
 22
0.0
 32
0.0
 13
1.0
 23
0.0
 33
0.0
 40
0.0
 40
0.0
 40
0.0
 40
0.0
 40
0.0833333333333333
 40
0.0833333333333333
 40
0.0833333333333333
 40
0.0833333333333333
 40
0.1666666666666667
 40
0.1666666666666667
 40
0.1666666666666667
 40
0.1666666666666667
 40
0.25
 40
0.25
 40
0.25
 40
0.25
 40
0.3333333333333333
 40
0.3333333333333333
 40
0.3333333333333333
 40
0.3333333333333333
 40
0.4166666666666667
 40
0.4166666666666667
 40
0.4166666666666667
 40
0.4166666666666667
 40
0.5
 40
0.5
 40
0.5
 40
0.5
 40
0.5833333333333334
 40
0.5833333333333334
 40
0.5833333333333334
 40
0.5833333333333334
 40
0.6666666666666666
 40
0.6666666666666666
 40
0.6666666666666666
 40
0.6666666666666666
 40
0.75
 40
0.75
 40
0.75
 40
0.75
 40
0.8333333333333334
 40
0.8333333333333334
 40
0.8333333333333334
 40
0.8333333333333334
 40
1.0
 40
1.0
 40
1.0
 40
1.0
 10
160.785
 20
-82.3646
 30
0.0
 10
159.6075
 20
-83.1751
 30
0.0
 10
158.8756
 20
-84.4886
 30
0.0
 10
158.8067
 20
-85.9161
 30
0.0
 10
158.8067
 20
-85.9161
 30
0.0
 10
158.7375
 20
-87.3439
 30
0.0
 10
159.339
 20
-88.7216
 30
0.0
 10
160.4325
 20
-89.6421
 30
0.0
 10
160.4325
 20
-89.6421
 30
0.0
 10
162.8919
 20
-91.0318
 30
0.0
 10
165.7209
 20
-91.626
 30
0.0
 10
168.5315
 20
-91.3441
 30
0.0
 10
168.5315
 20
-91.3441
 30
0.0
 10
172.7631
 20
-90.6739
 30
0.0
 10
176.7927
 20
-89.0701
 30
0.0
 10
180.3276
 20
-86.6488
 30
0.0
 10
180.3276
 20
-86.6488
 30
0.0
 10
184.8292
 20
-82.9714
 30
0.0
 10
186.8346
 20
-77.0456
 30
0.0
 10
185.4921
 20
-71.3902
 30
0.0
 10
185.4921
 20
-71.3902
 30
0.0
 10
184.4922
 20
-68.3172
 30
0.0
 10
182.7835
 20
-65.523
 30
0.0
 10
180.5036
 20
-63.2327
 30
0.0
 10
180.5036
 20
-63.2327
 30
0.0
 10
183.741
 20
-67.2977
 30
0.0
 10
184.7924
 20
-72.6862
 30
0.0
 10
183.3206
 20
-77.6699
 30
0.0
 10
183.3206
 20
-77.6699
 30
0.0
 10
180.8717
 20
-81.6791
 30
0.0
 10
177.5144
 20
-85.0566
 30
0.0
 10
173.5199
 20
-87.5291
 30
0.0
 10
173.5199
 20
-87.5291
 30
0.0
 10
170.6796
 20
-89.3872
 30
0.0
 10
167.2255
 20
-90.0611
 30
0.0
 10
163.8952
 20
-89.4071
 30
0.0
 10
163.8952
 20
-89.4071
 30
0.0
 10
162.4036
 20
-89.0905
 30
0.0
 10
161.155
 20
-88.0761
 30
0.0
 10
160.5387
 20
-86.6818
 30
0.0
 10
160.5387
 20
-86.6818
 30
0.0
 10
159.9228
 20
-85.2867
 30
0.0
 10
160.0145
 20
-83.6808
 30
0.0
 10
160.785
 20
-82.3646
 30
0.0
  0
SPLINE
  5
48
330
1F
100
AcDbEntity
  8
layer 1
 62
     7
370
     9
100
AcDbSpline
210
0.0
220
0.0
230
1.0
 70
    11
 71
     3
 72
    24
 73
    20
 74
     0
 42
0.0000000001
 43
0.0000000001
 12
1.0
 22
0.0
 32
0.0
 13
1.0
 23
0.0
 33
0.0
 40
0.0
 40
0.0
 40
0.0
 40
0.0
 40
0.1666666666666667
 40
0.1666666666666667
 40
0.1666666666666667
 40
0.1666666666666667
 40
0.3333333333333333
 40
0.3333333333333333
 40
0.3333333333333333
 40
0.3333333333333333
 40
0.5
 40
0.5
 40
0.5
 40
0.5
 40
0.6666666666666666
 40
0.6666666666666666
 40
0.6666666666666666
 40
0.6666666666666666
 40
1.0
 40
1.0
 40
1.0
 40
1.0
 10
180.0341
 20
-90.0528
 30
0.0
 10
184.3905
 20
-88.5628
 30
0.0
 10
187.347
 20
-84.5034
 30
0.0
 10
187.4289
 20
-79.8999
 30
0.0
 10
187.4289
 20
-79.8999
 30
0.0
 10
188.5983
 20
-80.4225
 30
0.0
 10
189.3224
 20
-81.6142
 30
0.0
 10
189.2481
 20
-82.8928
 30
0.0
 10
189.2481
 20
-82.8928
 30
0.0
 10
188.935
 20
-85.1896
 30
0.0
 10
188.9152
 20
-87.5165
 30
0.0
 10
189.1893
 20
-89.8178
 30
0.0
 10
189.1893
 20
-89.8178
 30
0.0
 10
188.0497
 20
-88.7994
 30
0.0
 10
186.4174
 20
-88.5464
 30
0.0
 10
185.0224
 20
-89.1723
 30
0.0
 10
185.0224
 20
-89.1723
 30
0.0
 10
183.4204
 20
-89.7424
 30
0.0
 10
181.7348
 20
-90.0402
 30
0.0
 10
180.0341
 20
-90.0528
 30
0.0
  0
SPLINE
  5
49
330
1F
100
AcDbEntity
  8
layer 1
 62
     7
370
     9
100
AcDbSpline
210
0.0
220
0.0
230
1.0
 70
    11
 71
     3
 72
    28
 73
    24
 74
     0
 42
0.0000000001
 43
0.0000000001
 12
1.0
 22
0.0
 32
0.0
 13
1.0
 23
0.0
 33
0.0
 40
0.0
 40
0.0
 40
0.0
 40
0.0
 40
0.1428571428571428
 40
0.1428571428571428
 40
0.1428571428571428
 40
0.1428571428571428
 40
0.2857142857142857
 40
0.2857142857142857
 40
0.2857142857142857
 40
0.2857142857142857
 40
0.4285714285714285
 40
0.4285714285714285
 40
0.4285714285714285
 40
0.4285714285714285
 40
0.5714285714285714
 40
0.5714285714285714
 40
0.5714285714285714
 40
0.5714285714285714
 40
0.7142857142857143
 40
0.7142857142857143
 40
0.7142857142857143
 40
0.7142857142857143
 40
1.0
 40
1.0
 40
1.0
 40
1.0
 10
169.0597
 20
-67.7517
 30
0.0
 10
172.3253
 20
-67.7994
 30
0.0
 10
175.3384
 20
-69.5181
 30
0.0
 10
177.0412
 20
-72.3045
 30
0.0
 10
177.0412
 20
-72.3045
 30
0.0
 10
178.7445
 20
-75.0914
 30
0.0
 10
178.8996
 20
-78.5566
 30
0.0
 10
177.4519
 20
-81.4843
 30
0.0
 10
177.4519
 20
-81.4843
 30
0.0
 10
179.5032
 20
-79.0757
 30
0.0
 10
180.3572
 20
-75.8697
 30
0.0
 10
179.7761
 20
-72.76
 30
0.0
 10
179.7761
 20
-72.76
 30
0.0
 10
179.1952
 20
-69.6501
 30
0.0
 10
177.2413
 20
-66.9686
 30
0.0
 10
174.4589
 20
-65.4627
 30
0.0
 10
174.4589
 20
-65.4627
 30
0.0
 10
177.3899
 20
-61.3113
 30
0.0
 10
177.3899
 20
-55.7642
 30
0.0
 10
174.4589
 20
-51.6128
 30
0.0
 10
174.4589
 20
-51.6128
 30
0.0
 10
176.5038
 20
-57.5944
 30
0.0
 10
174.2921
 20
-64.2047
 30
0.0
 10
169.0597
 20
-67.7517
 30
0.0
  0
SPLINE
  5
4A
330
1F
100
AcDbEntity
  8
layer 1
 62
     7
370
     9
100
AcDbSpline
210
0.0
220
0.0
230
1.0
 70
    11
 71
     3
 72
    36
 73
    32
 74
     0
 42
0.0000000001
 43
0.0000000001
 12
1.0
 22
0.0
 32
0.0
 13
1.0
 23
0.0
 33
0.0
 40
0.0
 40
0.0
 40
0.0
 40
0.0
 40
0.1111111111111111
 40
0.1111111111111111
 40
0.1111111111111111
 40
0.1111111111111111
 40
0.2222222222222222
 40
0.2222222222222222
 40
0.2222222222222222
 40
0.2222222222222222
 40
0.3333333333333333
 40
0.3333333333333333
 40
0.3333333333333333
 40
0.3333333333333333
 40
0.4444444444444444
 40
0.4444444444444444
 40
0.4444444444444444
 40
0.4444444444444444
 40
0.5555555555555556
 40
0.5555555555555556
 40
0.5555555555555556
 40
0.5555555555555556
 40
0.6666666666666666
 40
0.6666666666666666
 40
0.6666666666666666
 40
0.6666666666666666
 40
0.7777777777777778
 40
0.7777777777777778
 40
0.7777777777777778
 40
0.7777777777777778
 40
1.0
 40
1.0
 40
1.0
 40
1.0
 10
135.7257
 20
-62.47
 30
0.0
 10
143.2564
 20
-60.28
 30
0.0
 10
148.6951
 20
-53.7258
 30
0.0
 10
149.4583
 20
-45.92
 30
0.0
 10
149.4583
 20
-45.92
 30
0.0
 10
150.3761
 20
-38.6444
 30
0.0
 10
145.9897
 20
-31.7439
 30
0.0
 10
139.0119
 20
-29.4874
 30
0.0
 10
139.0119
 20
-29.4874
 30
0.0
 10
143.438
 20
-27.9598
 30
0.0
 10
146.8796
 20
-24.427
 30
0.0
 10
148.2908
 20
-19.9622
 30
0.0
 10
148.2908
 20
-19.9622
 30
0.0
 10
149.7019
 20
-15.4974
 30
0.0
 10
148.9159
 20
-10.6283
 30
0.0
 10
146.1716
 20
-6.8345
 30
0.0
 10
146.1716
 20
-6.8345
 30
0.0
 10
146.9574
 20
-12.8814
 30
0.0
 10
145.1027
 20
-18.9738
 30
0.0
 10
141.0806
 20
-23.5575
 30
0.0
 10
141.0806
 20
-23.5575
 30
0.0
 10
137.059
 20
-28.1406
 30
0.0
 10
131.2595
 20
-30.7716
 30
0.0
 10
125.1614
 20
-30.7789
 30
0.0
 10
125.1614
 20
-30.7789
 30
0.0
 10
132.4078
 20
-31.3793
 30
0.0
 10
138.5976
 20
-36.242
 30
0.0
 10
140.8968
 20
-43.1396
 30
0.0
 10
140.8968
 20
-43.1396
 30
0.0
 10
143.196
 20
-50.0377
 30
0.0
 10
141.1616
 20
-57.6417
 30
0.0
 10
135.7257
 20
-62.47
 30
0.0
  0
SPLINE
  5
4B
330
1F
100
AcDbEntity
  8
layer 1
 62
     7
370
     9
100
AcDbSpline
210
0.0
220
0.0
230
1.0
 70
    11
 71
     3
 72
    64
 73
    60
 74
     0
 42
0.0000000001
 43
0.0000000001
 12
1.0
 22
0.0
 32
0.0
 13
1.0
 23
0.0
 33
0.0
 40
0.0
 40
0.0
 40
0.0
 40
0.0
 40
0.0625
 40
0.0625
 40
0.0625
 40
0.0625
 40
0.125
 40
0.125
 40
0.125
 40
0.125
 40
0.1875
 40
0.1875
 40
0.1875
 40
0.1875
 40
0.25
 40
0.25
 40
0.25
 40
0.25
 40
0.3125
 40
0.3125
 40
0.3125
 40
0.3125
 40
0.375
 40
0.375
 40
0.375
 40
0.375
 40
0.4375
 40
0.4375
 40
0.4375
 40
0.4375
 40
0.5
 40
0.5
 40
0.5
 40
0.5
 40
0.5625
 40
0.5625
 40
0.5625
 40
0.5625
 40
0.625
 40
0.625
 40
0.625
 40
0.625
 40
0.6875
 40
0.6875
 40
0.6875
 40
0.6875
 40
0.75
 40
0.75
 40
0.75
 40
0.75
 40
0.8125
 40
0.8125
 40
0.8125
 40
0.8125
 40
0.875
 40
0.875
 40
0.875
 40
0.875
 40
1.0
 40
1.0
 40
1.0
 40
1.0
 10
182.7336
 20
-53.667
 30
0.0
 10
181.6023
 20
-53.4725
 30
0.0
 10
180.4733
 20
-54.0222
 30
0.0
 10
179.9284
 20
-55.0323
 30
0.0
 10
179.9284
 20
-55.0323
 30
0.0
 10
179.3833
 20
-56.0427
 30
0.0
 10
179.5443
 20
-57.2883
 30
0.0
 10
180.3276
 20
-58.1273
 30
0.0
 10
180.3276
 20
-58.1273
 30
0.0
 10
181.8966
 20
-59.3893
 30
0.0
 10
184.1587
 20
-59.2887
 30
0.0
 10
185.6096
 20
-57.8922
 30
0.0
 10
185.6096
 20
-57.8922
 30
0.0
 10
187.024
 20
-56.4878
 30
0.0
 10
187.1748
 20
-54.2508
 30
0.0
 10
185.9616
 20
-52.6693
 30
0.0
 10
185.9616
 20
-52.6693
 30
0.0
 10
183.1707
 20
-50.435
 30
0.0
 10
179.8938
 20
-48.887
 30
0.0
 10
176.3957
 20
-48.1503
 30
0.0
 10
176.3957
 20
-48.1503
 30
0.0
 10
173.9956
 20
-47.585
 30
0.0
 10
171.6253
 20
-46.8996
 30
0.0
 10
169.2945
 20
-46.096
 30
0.0
 10
169.2945
 20
-46.096
 30
0.0
 10
174.3935
 20
-47.0093
 30
0.0
 10
179.6237
 20
-45.454
 30
0.0
 10
183.3947
 20
-41.9025
 30
0.0
 10
183.3947
 20
-41.9025
 30
0.0
 10
187.1657
 20
-38.3512
 30
0.0
 10
189.0324
 20
-33.2238
 30
0.0
 10
188.4263
 20
-28.0791
 30
0.0
 10
188.4263
 20
-28.0791
 30
0.0
 10
191.6299
 20
-34.7468
 30
0.0
 10
189.9159
 20
-42.7374
 30
0.0
 10
184.2596
 20
-47.5048
 30
0.0
 10
184.2596
 20
-47.5048
 30
0.0
 10
187.5246
 20
-48.4535
 30
0.0
 10
189.7262
 20
-51.5012
 30
0.0
 10
189.6001
 20
-54.8993
 30
0.0
 10
189.6001
 20
-54.8993
 30
0.0
 10
189.3428
 20
-58.2877
 30
0.0
 10
186.6503
 20
-60.9802
 30
0.0
 10
183.2619
 20
-61.2375
 30
0.0
 10
183.2619
 20
-61.2375
 30
0.0
 10
181.9247
 20
-61.4274
 30
0.0
 10
180.571
 20
-61.0236
 30
0.0
 10
179.5561
 20
-60.1327
 30
0.0
 10
179.5561
 20
-60.1327
 30
0.0
 10
178.5409
 20
-59.2417
 30
0.0
 10
177.9651
 20
-57.9518
 30
0.0
 10
177.9799
 20
-56.6013
 30
0.0
 10
177.9799
 20
-56.6013
 30
0.0
 10
177.9185
 20
-55.439
 30
0.0
 10
178.4961
 20
-54.3353
 30
0.0
 10
179.4868
 20
-53.7239
 30
0.0
 10
179.4868
 20
-53.7239
 30
0.0
 10
180.4774
 20
-53.1128
 30
0.0
 10
181.7225
 20
-53.0905
 30
0.0
 10
182.7336
 20
-53.667
 30
0.0
  0
SPLINE
  5
4C
330
1F
100
AcDbEntity
  8
layer 1
 62
     7
370
     9
100
AcDbSpline
210
0.0
220
0.0
230
1.0
 70
    11
 71
     3
 72
   124
 73
   120
 74
     0
 42
0.0000000001
 43
0.0000000001
 12
1.0
 22
0.0
 32
0.0
 13
1.0
 23
0.0
 33
0.0
 40
0.0
 40
0.0
 40
0.0
 40
0.0
 40
0.032258064516129
 40
0.032258064516129
 40
0.032258064516129
 40
0.032258064516129
 40
0.0645161290322581
 40
0.0645161290322581
 40
0.0645161290322581
 40
0.0645161290322581
 40
0.0967741935483871
 40
0.0967741935483871
 40
0.0967741935483871
 40
0.0967741935483871
 40
0.1290322580645161
 40
0.1290322580645161
 40
0.1290322580645161
 40
0.1290322580645161
 40
0.1612903225806452
 40
0.1612903225806452
 40
0.1612903225806452
 40
0.1612903225806452
 40
0.1935483870967742
 40
0.1935483870967742
 40
0.1935483870967742
 40
0.1935483870967742
 40
0.2258064516129032
 40
0.2258064516129032
 40
0.2258064516129032
 40
0.2258064516129032
 40
0.2580645161290323
 40
0.2580645161290323
 40
0.2580645161290323
 40
0.2580645161290323
 40
0.2903225806451613
 40
0.2903225806451613
 40
0.2903225806451613
 40
0.2903225806451613
 40
0.3225806451612903
 40
0.3225806451612903
 40
0.3225806451612903
 40
0.3225806451612903
 40
0.3548387096774194
 40
0.3548387096774194
 40
0.3548387096774194
 40
0.3548387096774194
 40
0.3870967741935484
 40
0.3870967741935484
 40
0.3870967741935484
 40
0.3870967741935484
 40
0.4193548387096774
 40
0.4193548387096774
 40
0.4193548387096774
 40
0.4193548387096774
 40
0.4516129032258064
 40
0.4516129032258064
 40
0.4516129032258064
 40
0.4516129032258064
 40
0.4838709677419355
 40
0.4838709677419355
 40
0.4838709677419355
 40
0.4838709677419355
 40
0.5161290322580645
 40
0.5161290322580645
 40
0.5161290322580645
 40
0.5161290322580645
 40
0.5483870967741935
 40
0.5483870967741935
 40
0.5483870967741935
 40
0.5483870967741935
 40
0.5806451612903226
 40
0.5806451612903226
 40
0.5806451612903226
 40
0.5806451612903226
 40
0.6129032258064516
 40
0.6129032258064516
 40
0.6129032258064516
 40
0.6129032258064516
 40
0.6451612903225806
 40
0.6451612903225806
 40
0.6451612903225806
 40
0.6451612903225806
 40
0.6774193548387096
 40
0.6774193548387096
 40
0.6774193548387096
 40
0.6774193548387096
 40
0.7096774193548387
 40
0.7096774193548387
 40
0.7096774193548387
 40
0.7096774193548387
 40
0.7419354838709677
 40
0.7419354838709677
 40
0.7419354838709677
 40
0.7419354838709677
 40
0.7741935483870968
 40
0.7741935483870968
 40
0.7741935483870968
 40
0.7741935483870968
 40
0.8064516129032258
 40
0.8064516129032258
 40
0.8064516129032258
 40
0.8064516129032258
 40
0.8387096774193549
 40
0.8387096774193549
 40
0.8387096774193549
 40
0.8387096774193549
 40
0.8709677419354839
 40
0.8709677419354839
 40
0.8709677419354839
 40
0.8709677419354839
 40
0.9032258064516129
 40
0.9032258064516129
 40
0.9032258064516129
 40
0.9032258064516129
 40
0.9354838709677419
 40
0.9354838709677419
 40
0.9354838709677419
 40
0.9354838709677419
 40
1.0
 40
1.0
 40
1.0
 40
1.0
 10
144.5871
 20
7.3674
 30
0.0
 10
143.5665
 20
7.9514
 30
0.0
 10
142.2895
 20
7.832
 30
0.0
 10
141.3953
 20
7.0682
 30
0.0
 10
141.3953
 20
7.0682
 30
0.0
 10
140.5006
 20
6.3063
 30
0.0
 10
140.1813
 20
5.0636
 30
0.0
 10
140.5964
 20
3.9639
 30
0.0
 10
140.5964
 20
3.9639
 30
0.0
 10
140.9231
 20
2.6445
 30
0.0
 10
141.9249
 20
1.5969
 30
0.0
 10
143.228
 20
1.2108
 30
0.0
 10
143.228
 20
1.2108
 30
0.0
 10
144.5313
 20
0.8247
 30
0.0
 10
145.9417
 20
1.1577
 30
0.0
 10
146.9346
 20
2.0862
 30
0.0
 10
146.9346
 20
2.0862
 30
0.0
 10
148.7401
 20
4.7996
 30
0.0
 10
148.1233
 20
8.4502
 30
0.0
 10
145.5261
 20
10.4196
 30
0.0
 10
145.5261
 20
10.4196
 30
0.0
 10
144.567
 20
11.2497
 30
0.0
 10
143.2924
 20
11.617
 30
0.0
 10
142.0387
 20
11.4249
 30
0.0
 10
142.0387
 20
11.4249
 30
0.0
 10
140.785
 20
11.2328
 30
0.0
 10
139.6788
 20
10.5012
 30
0.0
 10
139.0119
 20
9.4222
 30
0.0
 10
139.0119
 20
9.4222
 30
0.0
 10
136.7258
 20
6.1561
 30
0.0
 10
135.6849
 20
2.1798
 30
0.0
 10
136.0774
 20
-1.7876
 30
0.0
 10
136.0774
 20
-1.7876
 30
0.0
 10
136.0001
 20
-9.1927
 30
0.0
 10
133.2489
 20
-16.3211
 30
0.0
 10
128.3307
 20
-21.8582
 30
0.0
 10
128.3307
 20
-21.8582
 30
0.0
 10
126.1745
 20
-24.1101
 30
0.0
 10
123.0975
 20
-25.2369
 30
0.0
 10
119.9972
 20
-24.9102
 30
0.0
 10
119.9972
 20
-24.9102
 30
0.0
 10
117.9304
 20
-25.058
 30
0.0
 10
116.0738
 20
-23.6527
 30
0.0
 10
115.6545
 20
-21.6234
 30
0.0
 10
115.6545
 20
-21.6234
 30
0.0
 10
115.5402
 20
-20.7815
 30
0.0
 10
115.8962
 20
-19.9445
 30
0.0
 10
116.5817
 20
-19.4428
 30
0.0
 10
116.5817
 20
-19.4428
 30
0.0
 10
117.2672
 20
-18.9408
 30
0.0
 10
118.1726
 20
-18.8542
 30
0.0
 10
118.941
 20
-19.2174
 30
0.0
 10
118.941
 20
-19.2174
 30
0.0
 10
119.4491
 20
-19.5198
 30
0.0
 10
119.8116
 20
-20.0167
 30
0.0
 10
119.9446
 20
-20.5927
 30
0.0
 10
119.9446
 20
-20.5927
 30
0.0
 10
120.0777
 20
-21.1689
 30
0.0
 10
119.9693
 20
-21.7747
 30
0.0
 10
119.6452
 20
-22.2692
 30
0.0
 10
119.6452
 20
-22.2692
 30
0.0
 10
120.5335
 20
-22.1828
 30
0.0
 10
121.2952
 20
-21.5977
 30
0.0
 10
121.6072
 20
-20.7614
 30
0.0
 10
121.6072
 20
-20.7614
 30
0.0
 10
121.9192
 20
-19.9249
 30
0.0
 10
121.7269
 20
-18.984
 30
0.0
 10
121.1122
 20
-18.3372
 30
0.0
 10
121.1122
 20
-18.3372
 30
0.0
 10
119.3373
 20
-16.845
 30
0.0
 10
116.7534
 20
-16.8203
 30
0.0
 10
114.9503
 20
-18.2782
 30
0.0
 10
114.9503
 20
-18.2782
 30
0.0
 10
113.2612
 20
-20.1253
 30
0.0
 10
112.9532
 20
-22.85
 30
0.0
 10
114.1873
 20
-25.0274
 30
0.0
 10
114.1873
 20
-25.0274
 30
0.0
 10
115.192
 20
-28.6959
 30
0.0
 10
113.6636
 20
-32.5885
 30
0.0
 10
110.4313
 20
-34.5934
 30
0.0
 10
110.4313
 20
-34.5934
 30
0.0
 10
106.5583
 20
-38.0899
 30
0.0
 10
103.7854
 20
-42.6368
 30
0.0
 10
102.4498
 20
-47.6808
 30
0.0
 10
102.4498
 20
-47.6808
 30
0.0
 10
102.0115
 20
-49.9996
 30
0.0
 10
102.2151
 20
-52.3937
 30
0.0
 10
103.0366
 20
-54.6058
 30
0.0
 10
103.0366
 20
-54.6058
 30
0.0
 10
102.5842
 20
-49.3385
 30
0.0
 10
104.2768
 20
-44.1115
 30
0.0
 10
107.7318
 20
-40.1098
 30
0.0
 10
107.7318
 20
-40.1098
 30
0.0
 10
111.2895
 20
-36.1215
 30
0.0
 10
115.5966
 20
-32.8715
 30
0.0
 10
120.4082
 20
-30.5441
 30
0.0
 10
120.4082
 20
-30.5441
 30
0.0
 10
123.3969
 20
-28.8958
 30
0.0
 10
126.4098
 20
-27.2915
 30
0.0
 10
129.4457
 20
-25.7317
 30
0.0
 10
129.4457
 20
-25.7317
 30
0.0
 10
134.0575
 20
-22.6751
 30
0.0
 10
137.3641
 20
-18.0088
 30
0.0
 10
138.7184
 20
-12.6445
 30
0.0
 10
138.7184
 20
-12.6445
 30
0.0
 10
139.9538
 20
-8.6224
 30
0.0
 10
140.0555
 20
-4.3376
 30
0.0
 10
139.0119
 20
-0.2618
 30
0.0
 10
139.0119
 20
-0.2618
 30
0.0
 10
137.9197
 20
2.2595
 30
0.0
 10
138.3763
 20
5.183
 30
0.0
 10
140.1856
 20
7.2509
 30
0.0
 10
140.1856
 20
7.2509
 30
0.0
 10
140.7031
 20
7.9324
 30
0.0
 10
141.5026
 20
8.3431
 30
0.0
 10
142.3582
 20
8.3659
 30
0.0
 10
142.3582
 20
8.3659
 30
0.0
 10
143.2143
 20
8.3887
 30
0.0
 10
144.0339
 20
8.0215
 30
0.0
 10
144.5871
 20
7.3674
 30
0.0
  0
SPLINE
  5
4D
330
1F
100
AcDbEntity
  8
layer 1
 62
     7
370
     9
100
AcDbSpline
210
0.0
220
0.0
230
1.0
 70
    11
 71
     3
 72
    24
 73
    20
 74
     0
 42
0.0000000001
 43
0.0000000001
 12
1.0
 22
0.0
 32
0.0
 13
1.0
 23
0.0
 33
0.0
 40
0.0
 40
0.0
 40
0.0
 40
0.0
 40
0.1666666666666667
 40
0.1666666666666667
 40
0.1666666666666667
 40
0.1666666666666667
 40
0.3333333333333333
 40
0.3333333333333333
 40
0.3333333333333333
 40
0.3333333333333333
 40
0.5
 40
0.5
 40
0.5
 40
0.5
 40
0.6666666666666666
 40
0.6666666666666666
 40
0.6666666666666666
 40
0.6666666666666666
 40
1.0
 40
1.0
 40
1.0
 40
1.0
 10
180.9731
 20
-0.7313
 30
0.0
 10
187.0696
 20
5.4915
 30
0.0
 10
189.7425
 20
14.3001
 30
0.0
 10
188.1331
 20
22.8616
 30
0.0
 10
188.1331
 20
22.8616
 30
0.0
 10
191.6205
 20
16.1996
 30
0.0
 10
190.934
 20
8.1218
 30
0.0
 10
186.3724
 20
2.145
 30
0.0
 10
186.3724
 20
2.145
 30
0.0
 10
189.0568
 20
0.2235
 30
0.0
 10
190.6338
 20
-2.8883
 30
0.0
 10
190.5981
 20
-6.189
 30
0.0
 10
190.5981
 20
-6.189
 30
0.0
 10
190.0838
 20
-4.1643
 30
0.0
 10
188.7663
 20
-2.4379
 30
0.0
 10
186.9494
 20
-1.4071
 30
0.0
 10
186.9494
 20
-1.4071
 30
0.0
 10
185.1326
 20
-0.3775
 30
0.0
 10
182.9743
 20
-0.1333
 30
0.0
 10
180.9731
 20
-0.7313
 30
0.0
  0
SPLINE
  5
4E
330
1F
100
AcDbEntity
  8
layer 1
 62
     7
370
     9
100
AcDbSpline
210
0.0
220
0.0
230
1.0
 70
    11
 71
     3
 72
    56
 73
    52
 74
     0
 42
0.0000000001
 43
0.0000000001
 12
1.0
 22
0.0
 32
0.0
 13
1.0
 23
0.0
 33
0.0
 40
0.0
 40
0.0
 40
0.0
 40
0.0
 40
0.0714285714285714
 40
0.0714285714285714
 40
0.0714285714285714
 40
0.0714285714285714
 40
0.1428571428571428
 40
0.1428571428571428
 40
0.1428571428571428
 40
0.1428571428571428
 40
0.2142857142857143
 40
0.2142857142857143
 40
0.2142857142857143
 40
0.2142857142857143
 40
0.2857142857142857
 40
0.2857142857142857
 40
0.2857142857142857
 40
0.2857142857142857
 40
0.3571428571428572
 40
0.3571428571428572
 40
0.3571428571428572
 40
0.3571428571428572
 40
0.4285714285714285
 40
0.4285714285714285
 40
0.4285714285714285
 40
0.4285714285714285
 40
0.5
 40
0.5
 40
0.5
 40
0.5
 40
0.5714285714285714
 40
0.5714285714285714
 40
0.5714285714285714
 40
0.5714285714285714
 40
0.6428571428571429
 40
0.6428571428571429
 40
0.6428571428571429
 40
0.6428571428571429
 40
0.7142857142857143
 40
0.7142857142857143
 40
0.7142857142857143
 40
0.7142857142857143
 40
0.7857142857142857
 40
0.7857142857142857
 40
0.7857142857142857
 40
0.7857142857142857
 40
0.8571428571428571
 40
0.8571428571428571
 40
0.8571428571428571
 40
0.8571428571428571
 40
1.0
 40
1.0
 40
1.0
 40
1.0
 10
179.5062
 20
-11.8227
 30
0.0
 10
180.1385
 20
-13.0391
 30
0.0
 10
181.3863
 20
-13.8123
 30
0.0
 10
182.7578
 20
-13.8367
 30
0.0
 10
182.7578
 20
-13.8367
 30
0.0
 10
184.1284
 20
-13.8612
 30
0.0
 10
185.4033
 20
-13.1336
 30
0.0
 10
186.0791
 20
-11.9402
 30
0.0
 10
186.0791
 20
-11.9402
 30
0.0
 10
186.8901
 20
-10.4014
 30
0.0
 10
186.8145
 20
-8.5459
 30
0.0
 10
185.8806
 20
-7.0781
 30
0.0
 10
185.8806
 20
-7.0781
 30
0.0
 10
184.9467
 20
-5.6103
 30
0.0
 10
183.2978
 20
-4.7559
 30
0.0
 10
181.5601
 20
-4.839
 30
0.0
 10
181.5601
 20
-4.839
 30
0.0
 10
178.8132
 20
-4.854
 30
0.0
 10
176.1271
 20
-5.6474
 30
0.0
 10
173.8134
 20
-7.1278
 30
0.0
 10
173.8134
 20
-7.1278
 30
0.0
 10
172.1933
 20
-7.6941
 30
0.0
 10
170.4816
 20
-7.9527
 30
0.0
 10
168.7662
 20
-7.8908
 30
0.0
 10
168.7662
 20
-7.8908
 30
0.0
 10
163.5341
 20
-8.1279
 30
0.0
 10
158.6116
 20
-5.4064
 30
0.0
 10
156.0313
 20
-0.8478
 30
0.0
 10
156.0313
 20
-0.8478
 30
0.0
 10
159.6842
 20
-5.2758
 30
0.0
 10
165.5049
 20
-7.2914
 30
0.0
 10
171.1137
 20
-6.0715
 30
0.0
 10
171.1137
 20
-6.0715
 30
0.0
 10
174.2765
 20
-4.7749
 30
0.0
 10
177.5592
 20
-3.7922
 30
0.0
 10
180.9144
 20
-3.1373
 30
0.0
 10
180.9144
 20
-3.1373
 30
0.0
 10
183.132
 20
-2.627
 30
0.0
 10
185.4511
 20
-3.3702
 30
0.0
 10
186.9594
 20
-5.074
 30
0.0
 10
186.9594
 20
-5.074
 30
0.0
 10
189.4579
 20
-7.5098
 30
0.0
 10
189.7831
 20
-11.4128
 30
0.0
 10
187.7221
 20
-14.229
 30
0.0
 10
187.7221
 20
-14.229
 30
0.0
 10
186.5846
 20
-15.7654
 30
0.0
 10
184.6095
 20
-16.4297
 30
0.0
 10
182.7747
 20
-15.8923
 30
0.0
 10
182.7747
 20
-15.8923
 30
0.0
 10
180.9399
 20
-15.3552
 30
0.0
 10
179.6352
 20
-13.7302
 30
0.0
 10
179.5062
 20
-11.8227
 30
0.0
  0
SPLINE
  5
4F
330
1F
100
AcDbEntity
  8
layer 1
 62
     7
370
     9
100
AcDbSpline
210
0.0
220
0.0
230
1.0
 70
    11
 71
     3
 72
    96
 73
    92
 74
     0
 42
0.0000000001
 43
0.0000000001
 12
1.0
 22
0.0
 32
0.0
 13
1.0
 23
0.0
 33
0.0
 40
0.0
 40
0.0
 40
0.0
 40
0.0
 40
0.0416666666666667
 40
0.0416666666666667
 40
0.0416666666666667
 40
0.0416666666666667
 40
0.0833333333333333
 40
0.0833333333333333
 40
0.0833333333333333
 40
0.0833333333333333
 40
0.125
 40
0.125
 40
0.125
 40
0.125
 40
0.1666666666666667
 40
0.1666666666666667
 40
0.1666666666666667
 40
0.1666666666666667
 40
0.2083333333333333
 40
0.2083333333333333
 40
0.2083333333333333
 40
0.2083333333333333
 40
0.25
 40
0.25
 40
0.25
 40
0.25
 40
0.2916666666666667
 40
0.2916666666666667
 40
0.2916666666666667
 40
0.2916666666666667
 40
0.3333333333333333
 40
0.3333333333333333
 40
0.3333333333333333
 40
0.3333333333333333
 40
0.375
 40
0.375
 40
0.375
 40
0.375
 40
0.4166666666666667
 40
0.4166666666666667
 40
0.4166666666666667
 40
0.4166666666666667
 40
0.4583333333333333
 40
0.4583333333333333
 40
0.4583333333333333
 40
0.4583333333333333
 40
0.5
 40
0.5
 40
0.5
 40
0.5
 40
0.5416666666666666
 40
0.5416666666666666
 40
0.5416666666666666
 40
0.5416666666666666
 40
0.5833333333333334
 40
0.5833333333333334
 40
0.5833333333333334
 40
0.5833333333333334
 40
0.625
 40
0.625
 40
0.625
 40
0.625
 40
0.6666666666666666
 40
0.6666666666666666
 40
0.6666666666666666
 40
0.6666666666666666
 40
0.7083333333333334
 40
0.7083333333333334
 40
0.7083333333333334
 40
0.7083333333333334
 40
0.75
 40
0.75
 40
0.75
 40
0.75
 40
0.7916666666666666
 40
0.7916666666666666
 40
0.7916666666666666
 40
0.7916666666666666
 40
0.8333333333333334
 40
0.8333333333333334
 40
0.8333333333333334
 40
0.8333333333333334
 40
0.875
 40
0.875
 40
0.875
 40
0.875
 40
0.9166666666666666
 40
0.9166666666666666
 40
0.9166666666666666
 40
0.9166666666666666
 40
1.0
 40
1.0
 40
1.0
 40
1.0
 10
177.3932
 20
-24.3232
 30
0.0
 10
178.0051
 20
-23.639
 30
0.0
 10
178.9752
 20
-23.4021
 30
0.0
 10
179.8337
 20
-23.727
 30
0.0
 10
179.8337
 20
-23.727
 30
0.0
 10
180.692
 20
-24.0525
 30
0.0
 10
181.2615
 20
-24.8723
 30
0.0
 10
181.2666
 20
-25.7904
 30
0.0
 10
181.2666
 20
-25.7904
 30
0.0
 10
181.3879
 20
-27.2386
 30
0.0
 10
180.7668
 20
-28.6495
 30
0.0
 10
179.617
 20
-29.5389
 30
0.0
 10
179.617
 20
-29.5389
 30
0.0
 10
178.4671
 20
-30.4277
 30
0.0
 10
176.9451
 20
-30.6735
 30
0.0
 10
175.5739
 20
-30.1916
 30
0.0
 10
175.5739
 20
-30.1916
 30
0.0
 10
171.8051
 20
-29.1136
 30
0.0
 10
169.1692
 20
-25.718
 30
0.0
 10
169.0597
 20
-21.7994
 30
0.0
 10
169.0597
 20
-21.7994
 30
0.0
 10
168.6927
 20
-15.7324
 30
0.0
 10
173.1186
 20
-10.4314
 30
0.0
 10
179.1536
 20
-9.71
 30
0.0
 10
179.1536
 20
-9.71
 30
0.0
 10
179.7294
 20
-9.1839
 30
0.0
 10
180.3373
 20
-8.6937
 30
0.0
 10
180.9731
 20
-8.2427
 30
0.0
 10
180.9731
 20
-8.2427
 30
0.0
 10
180.9538
 20
-8.8319
 30
0.0
 10
180.993
 20
-9.4221
 30
0.0
 10
181.0906
 20
-10.0035
 30
0.0
 10
181.0906
 20
-10.0035
 30
0.0
 10
181.2978
 20
-10.6839
 30
0.0
 10
181.859
 20
-11.1976
 30
0.0
 10
182.5552
 20
-11.3441
 30
0.0
 10
182.5552
 20
-11.3441
 30
0.0
 10
183.2511
 20
-11.4909
 30
0.0
 10
183.9718
 20
-11.2467
 30
0.0
 10
184.4359
 20
-10.7077
 30
0.0
 10
184.4359
 20
-10.7077
 30
0.0
 10
184.9545
 20
-10.0826
 30
0.0
 10
185.1444
 20
-9.2477
 30
0.0
 10
184.9475
 20
-8.4598
 30
0.0
 10
184.9475
 20
-8.4598
 30
0.0
 10
184.7503
 20
-7.6718
 30
0.0
 10
184.1899
 20
-7.0245
 30
0.0
 10
183.4379
 20
-6.7167
 30
0.0
 10
183.4379
 20
-6.7167
 30
0.0
 10
178.0969
 20
-5.9653
 30
0.0
 10
172.7465
 20
-8.03
 30
0.0
 10
169.2945
 20
-12.1747
 30
0.0
 10
169.2945
 20
-12.1747
 30
0.0
 10
165.4376
 20
-17.7196
 30
0.0
 10
165.9245
 20
-25.1946
 30
0.0
 10
170.4682
 20
-30.1916
 30
0.0
 10
170.4682
 20
-30.1916
 30
0.0
 10
173.3383
 20
-32.9716
 30
0.0
 10
177.7532
 20
-33.3861
 30
0.0
 10
181.0906
 20
-31.1896
 30
0.0
 10
181.0906
 20
-31.1896
 30
0.0
 10
184.1392
 20
-29.1418
 30
0.0
 10
185.0433
 20
-25.0609
 30
0.0
 10
183.1446
 20
-21.9169
 30
0.0
 10
183.1446
 20
-21.9169
 30
0.0
 10
180.803
 20
-20.1709
 30
0.0
 10
177.6904
 20
-19.8552
 30
0.0
 10
175.0457
 20
-21.0954
 30
0.0
 10
175.0457
 20
-21.0954
 30
0.0
 10
174.0259
 20
-21.6164
 30
0.0
 10
173.2551
 20
-22.5214
 30
0.0
 10
172.9029
 20
-23.6114
 30
0.0
 10
172.9029
 20
-23.6114
 30
0.0
 10
172.5504
 20
-24.7009
 30
0.0
 10
172.6459
 20
-25.8862
 30
0.0
 10
173.1679
 20
-26.9054
 30
0.0
 10
173.1679
 20
-26.9054
 30
0.0
 10
173.8215
 20
-27.7797
 30
0.0
 10
174.8005
 20
-28.3539
 30
0.0
 10
175.883
 20
-28.4974
 30
0.0
 10
175.883
 20
-28.4974
 30
0.0
 10
176.9655
 20
-28.6409
 30
0.0
 10
178.0598
 20
-28.3421
 30
0.0
 10
178.9192
 20
-27.6681
 30
0.0
 10
178.9192
 20
-27.6681
 30
0.0
 10
179.5453
 20
-27.1055
 30
0.0
 10
179.7339
 20
-26.2014
 30
0.0
 10
179.3846
 20
-25.4355
 30
0.0
 10
179.3846
 20
-25.4355
 30
0.0
 10
179.0351
 20
-24.6695
 30
0.0
 10
178.2289
 20
-24.2191
 30
0.0
 10
177.3932
 20
-24.3232
 30
0.0
  0
SPLINE
  5
50
330
1F
100
AcDbEntity
  8
layer 1
 62
     7
370
     9
100
AcDbSpline
210
0.0
220
0.0
230
1.0
 70
    11
 71
     3
 72
    36
 73
    32
 74
     0
 42
0.0000000001
 43
0.0000000001
 12
1.0
 22
0.0
 32
0.0
 13
1.0
 23
0.0
 33
0.0
 40
0.0
 40
0.0
 40
0.0
 40
0.0
 40
0.1111111111111111
 40
0.1111111111111111
 40
0.1111111111111111
 40
0.1111111111111111
 40
0.2222222222222222
 40
0.2222222222222222
 40
0.2222222222222222
 40
0.2222222222222222
 40
0.3333333333333333
 40
0.3333333333333333
 40
0.3333333333333333
 40
0.3333333333333333
 40
0.4444444444444444
 40
0.4444444444444444
 40
0.4444444444444444
 40
0.4444444444444444
 40
0.5555555555555556
 40
0.5555555555555556
 40
0.5555555555555556
 40
0.5555555555555556
 40
0.6666666666666666
 40
0.6666666666666666
 40
0.6666666666666666
 40
0.6666666666666666
 40
0.7777777777777778
 40
0.7777777777777778
 40
0.7777777777777778
 40
0.7777777777777778
 40
1.0
 40
1.0
 40
1.0
 40
1.0
 10
154.0358
 20
-2.609
 30
0.0
 10
154.2488
 20
-7.4186
 30
0.0
 10
157.2217
 20
-11.6717
 30
0.0
 10
161.6653
 20
-13.5247
 30
0.0
 10
161.6653
 20
-13.5247
 30
0.0
 10
158.566
 20
-19.3841
 30
0.0
 10
158.0144
 20
-26.2607
 30
0.0
 10
160.1395
 20
-32.5394
 30
0.0
 10
160.1395
 20
-32.5394
 30
0.0
 10
162.211
 20
-38.7193
 30
0.0
 10
168.3399
 20
-42.5931
 30
0.0
 10
174.8112
 20
-41.8121
 30
0.0
 10
174.8112
 20
-41.8121
 30
0.0
 10
180.5058
 20
-40.2153
 30
0.0
 10
184.618
 20
-35.2617
 30
0.0
 10
185.1401
 20
-29.3704
 30
0.0
 10
185.1401
 20
-29.3704
 30
0.0
 10
184.1553
 20
-33.2042
 30
0.0
 10
181.1043
 20
-36.1626
 30
0.0
 10
177.2421
 20
-37.0288
 30
0.0
 10
177.2421
 20
-37.0288
 30
0.0
 10
173.3802
 20
-37.8954
 30
0.0
 10
169.358
 20
-36.5242
 30
0.0
 10
166.8295
 20
-33.4784
 30
0.0
 10
166.8295
 20
-33.4784
 30
0.0
 10
163.1502
 20
-26.2969
 30
0.0
 10
162.9345
 20
-17.8323
 30
0.0
 10
166.2425
 20
-10.4733
 30
0.0
 10
166.2425
 20
-10.4733
 30
0.0
 10
161.0431
 20
-10.2774
 30
0.0
 10
156.3632
 20
-7.2627
 30
0.0
 10
154.0358
 20
-2.609
 30
0.0
  0
SPLINE
  5
51
330
1F
100
AcDbEntity
  8
layer 1
 62
     7
370
     9
100
AcDbSpline
210
0.0
220
0.0
230
1.0
 70
    11
 71
     3
 72
    16
 73
    12
 74
     0
 42
0.0000000001
 43
0.0000000001
 12
1.0
 22
0.0
 32
0.0
 13
1.0
 23
0.0
 33
0.0
 40
0.0
 40
0.0
 40
0.0
 40
0.0
 40
0.25
 40
0.25
 40
0.25
 40
0.25
 40
0.5
 40
0.5
 40
0.5
 40
0.5
 40
1.0
 40
1.0
 40
1.0
 40
1.0
 10
151.336
 20
-47.563
 30
0.0
 10
153.0893
 20
-41.0467
 30
0.0
 10
151.1032
 20
-34.0943
 30
0.0
 10
146.1716
 20
-29.4874
 30
0.0
 10
146.1716
 20
-29.4874
 30
0.0
 10
151.1016
 20
-22.8648
 30
0.0
 10
152.9404
 20
-14.4396
 30
0.0
 10
151.2188
 20
-6.365
 30
0.0
 10
151.2188
 20
-6.365
 30
0.0
 10
158.994
 20
-18.9851
 30
0.0
 10
159.0396
 20
-34.8989
 30
0.0
 10
151.336
 20
-47.563
 30
0.0
  0
SPLINE
  5
52
330
1F
100
AcDbEntity
  8
layer 1
 62
     7
370
     9
100
AcDbSpline
210
0.0
220
0.0
230
1.0
 70
    11
 71
     3
 72
    16
 73
    12
 74
     0
 42
0.0000000001
 43
0.0000000001
 12
1.0
 22
0.0
 32
0.0
 13
1.0
 23
0.0
 33
0.0
 40
0.0
 40
0.0
 40
0.0
 40
0.0
 40
0.25
 40
0.25
 40
0.25
 40
0.25
 40
0.5
 40
0.5
 40
0.5
 40
0.5
 40
1.0
 40
1.0
 40
1.0
 40
1.0
 10
136.3121
 20
-22.2104
 30
0.0
 10
140.1325
 20
-19.996
 30
0.0
 10
142.7724
 20
-16.2001
 30
0.0
 10
143.5207
 20
-11.8485
 30
0.0
 10
143.5207
 20
-11.8485
 30
0.0
 10
144.2686
 20
-7.4969
 30
0.0
 10
143.0471
 20
-3.0378
 30
0.0
 10
140.1856
 20
0.3249
 30
0.0
 10
140.1856
 20
0.3249
 30
0.0
 10
143.489
 20
-7.2885
 30
0.0
 10
141.9684
 20
-16.1362
 30
0.0
 10
136.3121
 20
-22.2104
 30
0.0
  0
SPLINE
  5
53
330
1F
100
AcDbEntity
  8
layer 1
 62
     7
370
     9
100
AcDbSpline
210
0.0
220
0.0
230
1.0
 70
    11
 71
     3
 72
   136
 73
   132
 74
     0
 42
0.0000000001
 43
0.0000000001
 12
1.0
 22
0.0
 32
0.0
 13
1.0
 23
0.0
 33
0.0
 40
0.0
 40
0.0
 40
0.0
 40
0.0
 40
0.0294117647058824
 40
0.0294117647058824
 40
0.0294117647058824
 40
0.0294117647058824
 40
0.0588235294117647
 40
0.0588235294117647
 40
0.0588235294117647
 40
0.0588235294117647
 40
0.0882352941176471
 40
0.0882352941176471
 40
0.0882352941176471
 40
0.0882352941176471
 40
0.1176470588235294
 40
0.1176470588235294
 40
0.1176470588235294
 40
0.1176470588235294
 40
0.1470588235294118
 40
0.1470588235294118
 40
0.1470588235294118
 40
0.1470588235294118
 40
0.1764705882352941
 40
0.1764705882352941
 40
0.1764705882352941
 40
0.1764705882352941
 40
0.2058823529411765
 40
0.2058823529411765
 40
0.2058823529411765
 40
0.2058823529411765
 40
0.2352941176470588
 40
0.2352941176470588
 40
0.2352941176470588
 40
0.2352941176470588
 40
0.2647058823529412
 40
0.2647058823529412
 40
0.2647058823529412
 40
0.2647058823529412
 40
0.2941176470588235
 40
0.2941176470588235
 40
0.2941176470588235
 40
0.2941176470588235
 40
0.3235294117647059
 40
0.3235294117647059
 40
0.3235294117647059
 40
0.3235294117647059
 40
0.3529411764705883
 40
0.3529411764705883
 40
0.3529411764705883
 40
0.3529411764705883
 40
0.3823529411764706
 40
0.3823529411764706
 40
0.3823529411764706
 40
0.3823529411764706
 40
0.4117647058823529
 40
0.4117647058823529
 40
0.4117647058823529
 40
0.4117647058823529
 40
0.4411764705882353
 40
0.4411764705882353
 40
0.4411764705882353
 40
0.4411764705882353
 40
0.4705882352941176
 40
0.4705882352941176
 40
0.4705882352941176
 40
0.4705882352941176
 40
0.5
 40
0.5
 40
0.5
 40
0.5
 40
0.5294117647058824
 40
0.5294117647058824
 40
0.5294117647058824
 40
0.5294117647058824
 40
0.5588235294117647
 40
0.5588235294117647
 40
0.5588235294117647
 40
0.5588235294117647
 40
0.5882352941176471
 40
0.5882352941176471
 40
0.5882352941176471
 40
0.5882352941176471
 40
0.6176470588235294
 40
0.6176470588235294
 40
0.6176470588235294
 40
0.6176470588235294
 40
0.6470588235294118
 40
0.6470588235294118
 40
0.6470588235294118
 40
0.6470588235294118
 40
0.6764705882352942
 40
0.6764705882352942
 40
0.6764705882352942
 40
0.6764705882352942
 40
0.7058823529411765
 40
0.7058823529411765
 40
0.7058823529411765
 40
0.7058823529411765
 40
0.7352941176470589
 40
0.7352941176470589
 40
0.7352941176470589
 40
0.7352941176470589
 40
0.7647058823529411
 40
0.7647058823529411
 40
0.7647058823529411
 40
0.7647058823529411
 40
0.7941176470588235
 40
0.7941176470588235
 40
0.7941176470588235
 40
0.7941176470588235
 40
0.8235294117647058
 40
0.8235294117647058
 40
0.8235294117647058
 40
0.8235294117647058
 40
0.8529411764705882
 40
0.8529411764705882
 40
0.8529411764705882
 40
0.8529411764705882
 40
0.8823529411764706
 40
0.8823529411764706
 40
0.8823529411764706
 40
0.8823529411764706
 40
0.9117647058823529
 40
0.9117647058823529
 40
0.9117647058823529
 40
0.9117647058823529
 40
0.9411764705882353
 40
0.9411764705882353
 40
0.9411764705882353
 40
0.9411764705882353
 40
1.0
 40
1.0
 40
1.0
 40
1.0
 10
116.652
 20
-9.2992
 30
0.0
 10
118.4699
 20
-9.0653
 30
0.0
 10
119.9723
 20
-7.769
 30
0.0
 10
120.4708
 20
-6.0055
 30
0.0
 10
120.4708
 20
-6.0055
 30
0.0
 10
120.9692
 20
-4.2421
 30
0.0
 10
120.3672
 20
-2.3507
 30
0.0
 10
118.941
 20
-1.2008
 30
0.0
 10
118.941
 20
-1.2008
 30
0.0
 10
124.0432
 20
-1.3438
 30
0.0
 10
128.7897
 20
1.4048
 30
0.0
 10
131.2067
 20
5.9004
 30
0.0
 10
131.2067
 20
5.9004
 30
0.0
 10
132.3783
 20
8.47
 30
0.0
 10
133.474
 20
11.0727
 30
0.0
 10
134.4929
 20
13.7059
 30
0.0
 10
134.4929
 20
13.7059
 30
0.0
 10
137.2549
 20
18.245
 30
0.0
 10
141.5394
 20
21.6559
 30
0.0
 10
146.5823
 20
23.3311
 30
0.0
 10
146.5823
 20
23.3311
 30
0.0
 10
151.5786
 20
25.1227
 30
0.0
 10
157.028
 20
25.2061
 30
0.0
 10
162.076
 20
23.5658
 30
0.0
 10
162.076
 20
23.5658
 30
0.0
 10
159.0396
 20
22.9772
 30
0.0
 10
156.1603
 20
21.7571
 30
0.0
 10
153.6248
 20
19.9853
 30
0.0
 10
153.6248
 20
19.9853
 30
0.0
 10
151.4522
 20
18.9586
 30
0.0
 10
148.8638
 20
19.4563
 30
0.0
 10
147.2281
 20
21.2178
 30
0.0
 10
147.2281
 20
21.2178
 30
0.0
 10
146.6212
 20
20.3319
 30
0.0
 10
146.4678
 20
19.2113
 30
0.0
 10
146.8144
 20
18.1948
 30
0.0
 10
146.8144
 20
18.1948
 30
0.0
 10
147.161
 20
17.1783
 30
0.0
 10
147.9669
 20
16.3841
 30
0.0
 10
148.9886
 20
16.0539
 30
0.0
 10
148.9886
 20
16.0539
 30
0.0
 10
151.4176
 20
15.6128
 30
0.0
 10
153.9022
 20
16.456
 30
0.0
 10
155.5618
 20
18.2836
 30
0.0
 10
155.5618
 20
18.2836
 30
0.0
 10
157.4272
 20
19.6307
 30
0.0
 10
159.512
 20
20.6432
 30
0.0
 10
161.724
 20
21.2774
 30
0.0
 10
161.724
 20
21.2774
 30
0.0
 10
165.4062
 20
21.6267
 30
0.0
 10
169.0723
 20
20.4615
 30
0.0
 10
171.8767
 20
18.0491
 30
0.0
 10
171.8767
 20
18.0491
 30
0.0
 10
174.9118
 20
15.3156
 30
0.0
 10
176.4963
 20
11.3216
 30
0.0
 10
176.1609
 20
7.2509
 30
0.0
 10
176.1609
 20
7.2509
 30
0.0
 10
175.744
 20
4.6786
 30
0.0
 10
173.5435
 20
2.7744
 30
0.0
 10
170.9377
 20
2.7317
 30
0.0
 10
170.9377
 20
2.7317
 30
0.0
 10
173.2779
 20
3.5797
 30
0.0
 10
174.7661
 20
5.8835
 30
0.0
 10
174.5764
 20
8.3659
 30
0.0
 10
174.5764
 20
8.3659
 30
0.0
 10
174.302
 20
11.2307
 30
0.0
 10
172.7773
 20
13.8298
 30
0.0
 10
170.4094
 20
15.4671
 30
0.0
 10
170.4094
 20
15.4671
 30
0.0
 10
167.134
 20
18.2401
 30
0.0
 10
162.5297
 20
18.8148
 30
0.0
 10
158.672
 20
16.9341
 30
0.0
 10
158.672
 20
16.9341
 30
0.0
 10
155.0805
 20
14.9408
 30
0.0
 10
152.8883
 20
11.1228
 30
0.0
 10
152.9793
 20
7.0162
 30
0.0
 10
152.9793
 20
7.0162
 30
0.0
 10
153.4252
 20
4.1447
 30
0.0
 10
153.184
 20
1.2078
 30
0.0
 10
152.275
 20
-1.5528
 30
0.0
 10
152.275
 20
-1.5528
 30
0.0
 10
151.4616
 20
-3.1437
 30
0.0
 10
149.8811
 20
-4.2008
 30
0.0
 10
148.0995
 20
-4.344
 30
0.0
 10
148.0995
 20
-4.344
 30
0.0
 10
146.3175
 20
-4.4876
 30
0.0
 10
144.589
 20
-3.6975
 30
0.0
 10
143.5306
 20
-2.2571
 30
0.0
 10
143.5306
 20
-2.2571
 30
0.0
 10
145.2385
 20
-2.0033
 30
0.0
 10
146.8318
 20
-1.2472
 30
0.0
 10
148.1086
 20
-0.0858
 30
0.0
 10
148.1086
 20
-0.0858
 30
0.0
 10
150.5851
 20
3.2334
 30
0.0
 10
150.6087
 20
7.7792
 30
0.0
 10
148.1673
 20
11.1239
 30
0.0
 10
148.1673
 20
11.1239
 30
0.0
 10
146.1337
 20
13.2828
 30
0.0
 10
142.968
 20
13.9385
 30
0.0
 10
140.2444
 20
12.7669
 30
0.0
 10
140.2444
 20
12.7669
 30
0.0
 10
138.0748
 20
11.2639
 30
0.0
 10
136.5458
 20
9.0028
 30
0.0
 10
135.9601
 20
6.4295
 30
0.0
 10
135.9601
 20
6.4295
 30
0.0
 10
135.5247
 20
3.3327
 30
0.0
 10
134.3357
 20
0.3901
 30
0.0
 10
132.4977
 20
-2.1395
 30
0.0
 10
132.4977
 20
-2.1395
 30
0.0
 10
129.612
 20
-4.2088
 30
0.0
 10
125.7879
 20
-4.4151
 30
0.0
 10
122.6967
 20
-2.6678
 30
0.0
 10
122.6967
 20
-2.6678
 30
0.0
 10
124.5731
 20
-3.9655
 30
0.0
 10
126.3046
 20
-5.4604
 30
0.0
 10
127.8612
 20
-7.1278
 30
0.0
 10
127.8612
 20
-7.1278
 30
0.0
 10
130.485
 20
-11.4673
 30
0.0
 10
129.5082
 20
-17.0763
 30
0.0
 10
125.5727
 20
-20.2737
 30
0.0
 10
125.5727
 20
-20.2737
 30
0.0
 10
127.851
 20
-16.4286
 30
0.0
 10
127.3509
 20
-11.5464
 30
0.0
 10
124.3399
 20
-8.2427
 30
0.0
 10
124.3399
 20
-8.2427
 30
0.0
 10
123.3948
 20
-7.3376
 30
0.0
 10
121.9122
 20
-7.3121
 30
0.0
 10
120.9362
 20
-8.1843
 30
0.0
 10
120.9362
 20
-8.1843
 30
0.0
 10
119.9154
 20
-9.468
 30
0.0
 10
118.1694
 20
-9.9222
 30
0.0
 10
116.652
 20
-9.2992
 30
0.0
  0
SPLINE
  5
54
330
1F
100
AcDbEntity
  8
layer 1
 62
     7
370
     9
100
AcDbSpline
210
0.0
220
0.0
230
1.0
 70
    11
 71
     3
 72
    88
 73
    84
 74
     0
 42
0.0000000001
 43
0.0000000001
 12
1.0
 22
0.0
 32
0.0
 13
1.0
 23
0.0
 33
0.0
 40
0.0
 40
0.0
 40
0.0
 40
0.0
 40
0.0454545454545455
 40
0.0454545454545455
 40
0.0454545454545455
 40
0.0454545454545455
 40
0.0909090909090909
 40
0.0909090909090909
 40
0.0909090909090909
 40
0.0909090909090909
 40
0.1363636363636364
 40
0.1363636363636364
 40
0.1363636363636364
 40
0.1363636363636364
 40
0.1818181818181818
 40
0.1818181818181818
 40
0.1818181818181818
 40
0.1818181818181818
 40
0.2272727272727273
 40
0.2272727272727273
 40
0.2272727272727273
 40
0.2272727272727273
 40
0.2727272727272727
 40
0.2727272727272727
 40
0.2727272727272727
 40
0.2727272727272727
 40
0.3181818181818182
 40
0.3181818181818182
 40
0.3181818181818182
 40
0.3181818181818182
 40
0.3636363636363636
 40
0.3636363636363636
 40
0.3636363636363636
 40
0.3636363636363636
 40
0.4090909090909091
 40
0.4090909090909091
 40
0.4090909090909091
 40
0.4090909090909091
 40
0.4545454545454545
 40
0.4545454545454545
 40
0.4545454545454545
 40
0.4545454545454545
 40
0.5
 40
0.5
 40
0.5
 40
0.5
 40
0.5454545454545454
 40
0.5454545454545454
 40
0.5454545454545454
 40
0.5454545454545454
 40
0.5909090909090909
 40
0.5909090909090909
 40
0.5909090909090909
 40
0.5909090909090909
 40
0.6363636363636364
 40
0.6363636363636364
 40
0.6363636363636364
 40
0.6363636363636364
 40
0.6818181818181818
 40
0.6818181818181818
 40
0.6818181818181818
 40
0.6818181818181818
 40
0.7272727272727273
 40
0.7272727272727273
 40
0.7272727272727273
 40
0.7272727272727273
 40
0.7727272727272727
 40
0.7727272727272727
 40
0.7727272727272727
 40
0.7727272727272727
 40
0.8181818181818182
 40
0.8181818181818182
 40
0.8181818181818182
 40
0.8181818181818182
 40
0.8636363636363636
 40
0.8636363636363636
 40
0.8636363636363636
 40
0.8636363636363636
 40
0.9090909090909091
 40
0.9090909090909091
 40
0.9090909090909091
 40
0.9090909090909091
 40
1.0
 40
1.0
 40
1.0
 40
1.0
 10
163.0738
 20
8.0129
 30
0.0
 10
162.9552
 20
6.6983
 30
0.0
 10
163.4971
 20
5.4102
 30
0.0
 10
164.5203
 20
4.5745
 30
0.0
 10
164.5203
 20
4.5745
 30
0.0
 10
165.5433
 20
3.7396
 30
0.0
 10
166.9142
 20
3.4671
 30
0.0
 10
168.1795
 20
3.8467
 30
0.0
 10
168.1795
 20
3.8467
 30
0.0
 10
169.303
 20
4.3057
 30
0.0
 10
170.1833
 20
5.2133
 30
0.0
 10
170.6069
 20
6.3508
 30
0.0
 10
170.6069
 20
6.3508
 30
0.0
 10
171.0305
 20
7.4876
 30
0.0
 10
170.9589
 20
8.7501
 30
0.0
 10
170.4094
 20
9.8329
 30
0.0
 10
170.4094
 20
9.8329
 30
0.0
 10
168.7831
 20
13.0944
 30
0.0
 10
164.8734
 20
14.4922
 30
0.0
 10
161.5478
 20
13.0016
 30
0.0
 10
161.5478
 20
13.0016
 30
0.0
 10
159.4047
 20
12.3352
 30
0.0
 10
157.6772
 20
10.7378
 30
0.0
 10
156.8458
 20
8.6535
 30
0.0
 10
156.8458
 20
8.6535
 30
0.0
 10
156.0139
 20
6.5687
 30
0.0
 10
156.1676
 20
4.2204
 30
0.0
 10
157.2635
 20
2.2622
 30
0.0
 10
157.2635
 20
2.2622
 30
0.0
 10
159.919
 20
-2.0668
 30
0.0
 10
164.9271
 20
-4.3623
 30
0.0
 10
169.94
 20
-3.548
 30
0.0
 10
169.94
 20
-3.548
 30
0.0
 10
174.6505
 20
-3.0681
 30
0.0
 10
179.0281
 20
-0.9009
 30
0.0
 10
182.2644
 20
2.5557
 30
0.0
 10
182.2644
 20
2.5557
 30
0.0
 10
185.6461
 20
7.3655
 30
0.0
 10
186.701
 20
13.436
 30
0.0
 10
185.1401
 20
19.1054
 30
0.0
 10
185.1401
 20
19.1054
 30
0.0
 10
184.6481
 20
21.0134
 30
0.0
 10
185.0985
 20
23.0424
 30
0.0
 10
186.3522
 20
24.5625
 30
0.0
 10
186.3522
 20
24.5625
 30
0.0
 10
187.6057
 20
26.0834
 30
0.0
 10
189.511
 20
26.9124
 30
0.0
 10
191.4783
 20
26.7933
 30
0.0
 10
191.4783
 20
26.7933
 30
0.0
 10
190.035
 20
27.948
 30
0.0
 10
188.1323
 20
28.355
 30
0.0
 10
186.3431
 20
27.8941
 30
0.0
 10
186.3431
 20
27.8941
 30
0.0
 10
184.5537
 20
27.4321
 30
0.0
 10
183.0859
 20
26.1543
 30
0.0
 10
182.3816
 20
24.4461
 30
0.0
 10
182.3816
 20
24.4461
 30
0.0
 10
175.6219
 20
30.3017
 30
0.0
 10
166.8356
 20
33.2726
 30
0.0
 10
157.909
 20
32.7208
 30
0.0
 10
157.909
 20
32.7208
 30
0.0
 10
163.0408
 20
30.5592
 30
0.0
 10
168.0558
 20
28.1304
 30
0.0
 10
172.9332
 20
25.4436
 30
0.0
 10
172.9332
 20
25.4436
 30
0.0
 10
176.7573
 20
22.8077
 30
0.0
 10
179.2762
 20
18.6662
 30
0.0
 10
179.8579
 20
14.0587
 30
0.0
 10
179.8579
 20
14.0587
 30
0.0
 10
180.5165
 20
9.1297
 30
0.0
 10
178.4494
 20
4.2309
 30
0.0
 10
174.4589
 20
1.2647
 30
0.0
 10
174.4589
 20
1.2647
 30
0.0
 10
171.0665
 20
-0.2041
 30
0.0
 10
167.1546
 20
0.1961
 30
0.0
 10
164.13
 20
2.321
 30
0.0
 10
164.13
 20
2.321
 30
0.0
 10
163.1432
 20
2.8575
 30
0.0
 10
162.4513
 20
3.8115
 30
0.0
 10
162.2461
 20
4.9153
 30
0.0
 10
162.2461
 20
4.9153
 30
0.0
 10
162.0411
 20
6.0206
 30
0.0
 10
162.3451
 20
7.1581
 30
0.0
 10
163.0738
 20
8.0129
 30
0.0
  0
SPLINE
  5
55
330
1F
100
AcDbEntity
  8
layer 1
 62
     7
370
     9
100
AcDbSpline
210
0.0
220
0.0
230
1.0
 70
    11
 71
     3
 72
    36
 73
    32
 74
     0
 42
0.0000000001
 43
0.0000000001
 12
1.0
 22
0.0
 32
0.0
 13
1.0
 23
0.0
 33
0.0
 40
0.0
 40
0.0
 40
0.0
 40
0.0
 40
0.1111111111111111
 40
0.1111111111111111
 40
0.1111111111111111
 40
0.1111111111111111
 40
0.2222222222222222
 40
0.2222222222222222
 40
0.2222222222222222
 40
0.2222222222222222
 40
0.3333333333333333
 40
0.3333333333333333
 40
0.3333333333333333
 40
0.3333333333333333
 40
0.4444444444444444
 40
0.4444444444444444
 40
0.4444444444444444
 40
0.4444444444444444
 40
0.5555555555555556
 40
0.5555555555555556
 40
0.5555555555555556
 40
0.5555555555555556
 40
0.6666666666666666
 40
0.6666666666666666
 40
0.6666666666666666
 40
0.6666666666666666
 40
0.7777777777777778
 40
0.7777777777777778
 40
0.7777777777777778
 40
0.7777777777777778
 40
1.0
 40
1.0
 40
1.0
 40
1.0
 10
170.3507
 20
22.3924
 30
0.0
 10
163.1344
 20
30.0991
 30
0.0
 10
152.1535
 20
33.0162
 30
0.0
 10
142.0636
 20
29.9043
 30
0.0
 10
142.0636
 20
29.9043
 30
0.0
 10
139.8562
 20
29.0818
 30
0.0
 10
137.8964
 20
27.7076
 30
0.0
 10
136.3712
 20
25.9131
 30
0.0
 10
136.3712
 20
25.9131
 30
0.0
 10
133.5209
 20
22.6051
 30
0.0
 10
130.268
 20
19.6674
 30
0.0
 10
126.6877
 20
17.1689
 30
0.0
 10
126.6877
 20
17.1689
 30
0.0
 10
121.6187
 20
15.259
 30
0.0
 10
116.0497
 20
15.135
 30
0.0
 10
110.9008
 20
16.8166
 30
0.0
 10
110.9008
 20
16.8166
 30
0.0
 10
112.7761
 20
16.0198
 30
0.0
 10
114.6962
 20
15.3346
 30
0.0
 10
116.652
 20
14.7629
 30
0.0
 10
116.652
 20
14.7629
 30
0.0
 10
121.0497
 20
12.9987
 30
0.0
 10
126.0658
 20
13.8609
 30
0.0
 10
129.6219
 20
16.9929
 30
0.0
 10
129.6219
 20
16.9929
 30
0.0
 10
133.772
 20
21.4032
 30
0.0
 10
138.8689
 20
24.8142
 30
0.0
 10
144.5286
 20
26.9693
 30
0.0
 10
144.5286
 20
26.9693
 30
0.0
 10
153.3431
 20
30.0784
 30
0.0
 10
163.1422
 20
28.3416
 30
0.0
 10
170.3507
 20
22.3924
 30
0.0
  0
SPLINE
  5
56
330
1F
100
AcDbEntity
  8
layer 1
 62
     7
370
     9
100
AcDbSpline
210
0.0
220
0.0
230
1.0
 70
    11
 71
     3
 72
    56
 73
    52
 74
     0
 42
0.0000000001
 43
0.0000000001
 12
1.0
 22
0.0
 32
0.0
 13
1.0
 23
0.0
 33
0.0
 40
0.0
 40
0.0
 40
0.0
 40
0.0
 40
0.0714285714285714
 40
0.0714285714285714
 40
0.0714285714285714
 40
0.0714285714285714
 40
0.1428571428571428
 40
0.1428571428571428
 40
0.1428571428571428
 40
0.1428571428571428
 40
0.2142857142857143
 40
0.2142857142857143
 40
0.2142857142857143
 40
0.2142857142857143
 40
0.2857142857142857
 40
0.2857142857142857
 40
0.2857142857142857
 40
0.2857142857142857
 40
0.3571428571428572
 40
0.3571428571428572
 40
0.3571428571428572
 40
0.3571428571428572
 40
0.4285714285714285
 40
0.4285714285714285
 40
0.4285714285714285
 40
0.4285714285714285
 40
0.5
 40
0.5
 40
0.5
 40
0.5
 40
0.5714285714285714
 40
0.5714285714285714
 40
0.5714285714285714
 40
0.5714285714285714
 40
0.6428571428571429
 40
0.6428571428571429
 40
0.6428571428571429
 40
0.6428571428571429
 40
0.7142857142857143
 40
0.7142857142857143
 40
0.7142857142857143
 40
0.7142857142857143
 40
0.7857142857142857
 40
0.7857142857142857
 40
0.7857142857142857
 40
0.7857142857142857
 40
0.8571428571428571
 40
0.8571428571428571
 40
0.8571428571428571
 40
0.8571428571428571
 40
1.0
 40
1.0
 40
1.0
 40
1.0
 10
106.0295
 20
3.4359
 30
0.0
 10
107.8627
 20
5.8787
 30
0.0
 10
110.8624
 20
7.1554
 30
0.0
 10
113.8938
 20
6.7814
 30
0.0
 10
113.8938
 20
6.7814
 30
0.0
 10
120.2317
 20
5.997
 30
0.0
 10
126.619
 20
7.7942
 30
0.0
 10
131.6174
 20
11.7694
 30
0.0
 10
131.6174
 20
11.7694
 30
0.0
 10
130.5915
 20
7.443
 30
0.0
 10
126.7325
 20
4.3851
 30
0.0
 10
122.286
 20
4.3747
 30
0.0
 10
122.286
 20
4.3747
 30
0.0
 10
118.8484
 20
4.4409
 30
0.0
 10
115.4461
 20
3.6763
 30
0.0
 10
112.368
 20
2.145
 30
0.0
 10
112.368
 20
2.145
 30
0.0
 10
109.4193
 20
0.0864
 30
0.0
 10
108.5066
 20
-3.8689
 30
0.0
 10
110.255
 20
-7.0105
 30
0.0
 10
110.255
 20
-7.0105
 30
0.0
 10
111.0902
 20
-8.3487
 30
0.0
 10
112.4566
 20
-9.2668
 30
0.0
 10
114.0113
 20
-9.534
 30
0.0
 10
114.0113
 20
-9.534
 30
0.0
 10
111.6646
 20
-10.4464
 30
0.0
 10
108.9976
 20
-9.6775
 30
0.0
 10
107.4971
 20
-7.656
 30
0.0
 10
107.4971
 20
-7.656
 30
0.0
 10
105.4289
 20
-4.6448
 30
0.0
 10
105.7728
 20
-0.5923
 30
0.0
 10
108.3186
 20
2.0274
 30
0.0
 10
108.3186
 20
2.0274
 30
0.0
 10
108.4028
 20
2.1213
 30
0.0
 10
108.4358
 20
2.2509
 30
0.0
 10
108.4065
 20
2.3741
 30
0.0
 10
108.4065
 20
2.3741
 30
0.0
 10
108.3773
 20
2.4969
 30
0.0
 10
108.2896
 20
2.5984
 30
0.0
 10
108.1718
 20
2.6437
 30
0.0
 10
108.1718
 20
2.6437
 30
0.0
 10
107.7565
 20
2.373
 30
0.0
 10
107.3141
 20
2.1468
 30
0.0
 10
106.8513
 20
1.969
 30
0.0
 10
106.8513
 20
1.969
 30
0.0
 10
106.4526
 20
1.79
 30
0.0
 10
105.9831
 20
1.9451
 30
0.0
 10
105.7693
 20
2.3266
 30
0.0
 10
105.7693
 20
2.3266
 30
0.0
 10
105.556
 20
2.7081
 30
0.0
 10
105.6687
 20
3.1897
 30
0.0
 10
106.0295
 20
3.4359
 30
0.0
  0
SPLINE
  5
57
330
1F
100
AcDbEntity
  8
layer 1
 62
     7
370
     9
100
AcDbSpline
210
0.0
220
0.0
230
1.0
 70
    11
 71
     3
 72
    40
 73
    36
 74
     0
 42
0.0000000001
 43
0.0000000001
 12
1.0
 22
0.0
 32
0.0
 13
1.0
 23
0.0
 33
0.0
 40
0.0
 40
0.0
 40
0.0
 40
0.0
 40
0.1
 40
0.1
 40
0.1
 40
0.1
 40
0.2
 40
0.2
 40
0.2
 40
0.2
 40
0.3
 40
0.3
 40
0.3
 40
0.3
 40
0.4
 40
0.4
 40
0.4
 40
0.4
 40
0.5
 40
0.5
 40
0.5
 40
0.5
 40
0.6
 40
0.6
 40
0.6
 40
0.6
 40
0.7
 40
0.7
 40
0.7
 40
0.7
 40
0.8
 40
0.8
 40
0.8
 40
0.8
 40
1.0
 40
1.0
 40
1.0
 40
1.0
 10
102.1563
 20
-23.6774
 30
0.0
 10
102.4461
 20
-24.4664
 30
0.0
 10
102.3117
 20
-25.3494
 30
0.0
 10
101.7995
 20
-26.0158
 30
0.0
 10
101.7995
 20
-26.0158
 30
0.0
 10
101.2876
 20
-26.6825
 30
0.0
 10
100.4699
 20
-27.0403
 30
0.0
 10
99.6323
 20
-26.9642
 30
0.0
 10
99.6323
 20
-26.9642
 30
0.0
 10
98.5836
 20
-26.9051
 30
0.0
 10
97.6352
 20
-26.3187
 30
0.0
 10
97.1137
 20
-25.406
 30
0.0
 10
97.1137
 20
-25.406
 30
0.0
 10
96.5921
 20
-24.4935
 30
0.0
 10
96.5685
 20
-23.3791
 30
0.0
 10
97.0503
 20
-22.4454
 30
0.0
 10
97.0503
 20
-22.4454
 30
0.0
 10
97.5274
 20
-21.324
 30
0.0
 10
98.4596
 20
-20.4588
 30
0.0
 10
99.6133
 20
-20.0671
 30
0.0
 10
99.6133
 20
-20.0671
 30
0.0
 10
100.768
 20
-19.6746
 30
0.0
 10
102.0343
 20
-19.7926
 30
0.0
 10
103.0953
 20
-20.3912
 30
0.0
 10
103.0953
 20
-20.3912
 30
0.0
 10
104.6516
 20
-21.4651
 30
0.0
 10
105.5201
 20
-23.2857
 30
0.0
 10
105.3749
 20
-25.1712
 30
0.0
 10
105.3749
 20
-25.1712
 30
0.0
 10
105.2301
 20
-27.0567
 30
0.0
 10
104.0936
 20
-28.723
 30
0.0
 10
102.3911
 20
-29.5461
 30
0.0
 10
102.3911
 20
-29.5461
 30
0.0
 10
103.4548
 20
-27.7094
 30
0.0
 10
103.3641
 20
-25.4237
 30
0.0
 10
102.1563
 20
-23.6774
 30
0.0
  0
SPLINE
  5
58
330
1F
100
AcDbEntity
  8
layer 1
 62
     7
370
     9
100
AcDbSpline
210
0.0
220
0.0
230
1.0
 70
    11
 71
     3
 72
    44
 73
    40
 74
     0
 42
0.0000000001
 43
0.0000000001
 12
1.0
 22
0.0
 32
0.0
 13
1.0
 23
0.0
 33
0.0
 40
0.0
 40
0.0
 40
0.0
 40
0.0
 40
0.0909090909090909
 40
0.0909090909090909
 40
0.0909090909090909
 40
0.0909090909090909
 40
0.1818181818181818
 40
0.1818181818181818
 40
0.1818181818181818
 40
0.1818181818181818
 40
0.2727272727272727
 40
0.2727272727272727
 40
0.2727272727272727
 40
0.2727272727272727
 40
0.3636363636363636
 40
0.3636363636363636
 40
0.3636363636363636
 40
0.3636363636363636
 40
0.4545454545454545
 40
0.4545454545454545
 40
0.4545454545454545
 40
0.4545454545454545
 40
0.5454545454545454
 40
0.5454545454545454
 40
0.5454545454545454
 40
0.5454545454545454
 40
0.6363636363636364
 40
0.6363636363636364
 40
0.6363636363636364
 40
0.6363636363636364
 40
0.7272727272727273
 40
0.7272727272727273
 40
0.7272727272727273
 40
0.7272727272727273
 40
0.8181818181818182
 40
0.8181818181818182
 40
0.8181818181818182
 40
0.8181818181818182
 40
1.0
 40
1.0
 40
1.0
 40
1.0
 10
97.2263
 20
-30.4854
 30
0.0
 10
93.9034
 20
-29.5225
 30
0.0
 10
91.4075
 20
-26.7688
 30
0.0
 10
90.7744
 20
-23.3678
 30
0.0
 10
90.7744
 20
-23.3678
 30
0.0
 10
90.1412
 20
-19.9665
 30
0.0
 10
91.4794
 20
-16.4989
 30
0.0
 10
94.2336
 20
-14.405
 30
0.0
 10
94.2336
 20
-14.405
 30
0.0
 10
98.4615
 20
-11.6832
 30
0.0
 10
103.9171
 20
-11.7991
 30
0.0
 10
108.025
 20
-14.6985
 30
0.0
 10
108.025
 20
-14.6985
 30
0.0
 10
111.1997
 20
-17.2018
 30
0.0
 10
112.4665
 20
-21.4249
 30
0.0
 10
111.194
 20
-25.2622
 30
0.0
 10
111.194
 20
-25.2622
 30
0.0
 10
109.4201
 20
-29.221
 30
0.0
 10
105.9805
 20
-32.1874
 30
0.0
 10
101.8043
 20
-33.3609
 30
0.0
 10
101.8043
 20
-33.3609
 30
0.0
 10
104.0292
 20
-31.8123
 30
0.0
 10
105.7283
 20
-29.6218
 30
0.0
 10
106.675
 20
-27.0814
 30
0.0
 10
106.675
 20
-27.0814
 30
0.0
 10
107.8193
 20
-24.177
 30
0.0
 10
107.4914
 20
-20.8988
 30
0.0
 10
105.7948
 20
-18.2782
 30
0.0
 10
105.7948
 20
-18.2782
 30
0.0
 10
102.9496
 20
-16.0125
 30
0.0
 10
98.8693
 20
-16.1872
 30
0.0
 10
96.2289
 20
-18.6889
 30
0.0
 10
96.2289
 20
-18.6889
 30
0.0
 10
94.7807
 20
-20.3791
 30
0.0
 10
94.0719
 20
-22.5788
 30
0.0
 10
94.2591
 20
-24.7959
 30
0.0
 10
94.2591
 20
-24.7959
 30
0.0
 10
94.4466
 20
-27.0133
 30
0.0
 10
95.5152
 20
-29.0627
 30
0.0
 10
97.2263
 20
-30.4854
 30
0.0
  0
SPLINE
  5
59
330
1F
100
AcDbEntity
  8
layer 1
 62
     7
370
     9
100
AcDbSpline
210
0.0
220
0.0
230
1.0
 70
    11
 71
     3
 72
    60
 73
    56
 74
     0
 42
0.0000000001
 43
0.0000000001
 12
1.0
 22
0.0
 32
0.0
 13
1.0
 23
0.0
 33
0.0
 40
0.0
 40
0.0
 40
0.0
 40
0.0
 40
0.0666666666666667
 40
0.0666666666666667
 40
0.0666666666666667
 40
0.0666666666666667
 40
0.1333333333333333
 40
0.1333333333333333
 40
0.1333333333333333
 40
0.1333333333333333
 40
0.2
 40
0.2
 40
0.2
 40
0.2
 40
0.2666666666666667
 40
0.2666666666666667
 40
0.2666666666666667
 40
0.2666666666666667
 40
0.3333333333333333
 40
0.3333333333333333
 40
0.3333333333333333
 40
0.3333333333333333
 40
0.4
 40
0.4
 40
0.4
 40
0.4
 40
0.4666666666666667
 40
0.4666666666666667
 40
0.4666666666666667
 40
0.4666666666666667
 40
0.5333333333333333
 40
0.5333333333333333
 40
0.5333333333333333
 40
0.5333333333333333
 40
0.6
 40
0.6
 40
0.6
 40
0.6
 40
0.6666666666666666
 40
0.6666666666666666
 40
0.6666666666666666
 40
0.6666666666666666
 40
0.7333333333333333
 40
0.7333333333333333
 40
0.7333333333333333
 40
0.7333333333333333
 40
0.8
 40
0.8
 40
0.8
 40
0.8
 40
0.8666666666666667
 40
0.8666666666666667
 40
0.8666666666666667
 40
0.8666666666666667
 40
1.0
 40
1.0
 40
1.0
 40
1.0
 10
93.7056
 20
-7.48
 30
0.0
 10
95.0959
 20
-8.4281
 30
0.0
 10
95.6789
 20
-10.1891
 30
0.0
 10
95.131
 20
-11.7801
 30
0.0
 10
95.131
 20
-11.7801
 30
0.0
 10
94.5819
 20
-13.371
 30
0.0
 10
93.0373
 20
-14.398
 30
0.0
 10
91.3574
 20
-14.2877
 30
0.0
 10
91.3574
 20
-14.2877
 30
0.0
 10
90.3438
 20
-14.3494
 30
0.0
 10
89.3527
 20
-13.9736
 30
0.0
 10
88.6345
 20
-13.2551
 30
0.0
 10
88.6345
 20
-13.2551
 30
0.0
 10
87.9161
 20
-12.5372
 30
0.0
 10
87.5405
 20
-11.5456
 30
0.0
 10
87.6019
 20
-10.5315
 30
0.0
 10
87.6019
 20
-10.5315
 30
0.0
 10
87.6191
 20
-7.5428
 30
0.0
 10
89.1703
 20
-4.7722
 30
0.0
 10
91.7096
 20
-3.1958
 30
0.0
 10
91.7096
 20
-3.1958
 30
0.0
 10
94.5478
 20
-1.5083
 30
0.0
 10
98.2155
 20
-2.4255
 30
0.0
 10
99.9266
 20
-5.2498
 30
0.0
 10
99.9266
 20
-5.2498
 30
0.0
 10
100.805
 20
-7.8688
 30
0.0
 10
102.6532
 20
-10.0526
 30
0.0
 10
105.0906
 20
-11.3532
 30
0.0
 10
105.0906
 20
-11.3532
 30
0.0
 10
103.0291
 20
-11.5375
 30
0.0
 10
100.9914
 20
-10.8081
 30
0.0
 10
99.5159
 20
-9.358
 30
0.0
 10
99.5159
 20
-9.358
 30
0.0
 10
98.4084
 20
-7.8556
 30
0.0
 10
96.986
 20
-6.6137
 30
0.0
 10
95.3486
 20
-5.7195
 30
0.0
 10
95.3486
 20
-5.7195
 30
0.0
 10
94.1314
 20
-4.8288
 30
0.0
 10
92.512
 20
-4.7145
 30
0.0
 10
91.1814
 20
-5.426
 30
0.0
 10
91.1814
 20
-5.426
 30
0.0
 10
90.2861
 20
-5.8835
 30
0.0
 10
89.6747
 20
-6.7527
 30
0.0
 10
89.5451
 20
-7.7499
 30
0.0
 10
89.5451
 20
-7.7499
 30
0.0
 10
89.4163
 20
-8.7474
 30
0.0
 10
89.7874
 20
-9.7441
 30
0.0
 10
90.5359
 20
-10.4142
 30
0.0
 10
90.5359
 20
-10.4142
 30
0.0
 10
91.3869
 20
-11.0283
 30
0.0
 10
92.5528
 20
-10.9575
 30
0.0
 10
93.3223
 20
-10.2447
 30
0.0
 10
93.3223
 20
-10.2447
 30
0.0
 10
94.0917
 20
-9.5318
 30
0.0
 10
94.2527
 20
-8.375
 30
0.0
 10
93.7056
 20
-7.48
 30
0.0
  0
SPLINE
  5
5A
330
1F
100
AcDbEntity
  8
layer 1
 62
     7
370
     9
100
AcDbSpline
210
0.0
220
0.0
230
1.0
 70
    11
 71
     3
 72
    60
 73
    56
 74
     0
 42
0.0000000001
 43
0.0000000001
 12
1.0
 22
0.0
 32
0.0
 13
1.0
 23
0.0
 33
0.0
 40
0.0
 40
0.0
 40
0.0
 40
0.0
 40
0.0666666666666667
 40
0.0666666666666667
 40
0.0666666666666667
 40
0.0666666666666667
 40
0.1333333333333333
 40
0.1333333333333333
 40
0.1333333333333333
 40
0.1333333333333333
 40
0.2
 40
0.2
 40
0.2
 40
0.2
 40
0.2666666666666667
 40
0.2666666666666667
 40
0.2666666666666667
 40
0.2666666666666667
 40
0.3333333333333333
 40
0.3333333333333333
 40
0.3333333333333333
 40
0.3333333333333333
 40
0.4
 40
0.4
 40
0.4
 40
0.4
 40
0.4666666666666667
 40
0.4666666666666667
 40
0.4666666666666667
 40
0.4666666666666667
 40
0.5333333333333333
 40
0.5333333333333333
 40
0.5333333333333333
 40
0.5333333333333333
 40
0.6
 40
0.6
 40
0.6
 40
0.6
 40
0.6666666666666666
 40
0.6666666666666666
 40
0.6666666666666666
 40
0.6666666666666666
 40
0.7333333333333333
 40
0.7333333333333333
 40
0.7333333333333333
 40
0.7333333333333333
 40
0.8
 40
0.8
 40
0.8
 40
0.8
 40
0.8666666666666667
 40
0.8666666666666667
 40
0.8666666666666667
 40
0.8666666666666667
 40
1.0
 40
1.0
 40
1.0
 40
1.0
 10
115.9477
 20
-13.114
 30
0.0
 10
112.2334
 20
-13.7372
 30
0.0
 10
108.4261
 20
-12.799
 30
0.0
 10
105.4262
 20
-10.5215
 30
0.0
 10
105.4262
 20
-10.5215
 30
0.0
 10
102.4262
 20
-8.2438
 30
0.0
 10
100.5002
 20
-4.8286
 30
0.0
 10
100.1015
 20
-1.0825
 30
0.0
 10
100.1015
 20
-1.0825
 30
0.0
 10
99.4601
 20
0.7271
 30
0.0
 10
98.3934
 20
2.3569
 30
0.0
 10
96.9916
 20
3.6707
 30
0.0
 10
96.9916
 20
3.6707
 30
0.0
 10
93.7802
 20
5.9363
 30
0.0
 10
91.1304
 20
8.9073
 30
0.0
 10
89.2449
 20
12.3561
 30
0.0
 10
89.2449
 20
12.3561
 30
0.0
 10
87.2328
 20
15.8382
 30
0.0
 10
87.369
 20
20.1597
 30
0.0
 10
89.5971
 20
23.5071
 30
0.0
 10
89.5971
 20
23.5071
 30
0.0
 10
88.2796
 20
18.755
 30
0.0
 10
90.0022
 20
13.6812
 30
0.0
 10
93.9404
 20
10.7132
 30
0.0
 10
93.9404
 20
10.7132
 30
0.0
 10
96.2581
 20
9.5008
 30
0.0
 10
98.3593
 20
7.9144
 30
0.0
 10
100.1614
 20
6.0176
 30
0.0
 10
100.1614
 20
6.0176
 30
0.0
 10
100.9829
 20
9.1391
 30
0.0
 10
103.3934
 20
11.5942
 30
0.0
 10
106.499
 20
12.4734
 30
0.0
 10
106.499
 20
12.4734
 30
0.0
 10
110.0565
 20
12.9042
 30
0.0
 10
113.6587
 20
12.7859
 30
0.0
 10
117.1802
 20
12.1214
 30
0.0
 10
117.1802
 20
12.1214
 30
0.0
 10
121.6131
 20
11.0168
 30
0.0
 10
126.2837
 20
11.3662
 30
0.0
 10
130.5022
 20
13.1189
 30
0.0
 10
130.5022
 20
13.1189
 30
0.0
 10
127.2484
 20
10.3043
 30
0.0
 10
122.9924
 20
8.9272
 30
0.0
 10
118.706
 20
9.3047
 30
0.0
 10
118.706
 20
9.3047
 30
0.0
 10
115.398
 20
9.353
 30
0.0
 10
112.0938
 20
9.0586
 30
0.0
 10
108.8468
 20
8.4247
 30
0.0
 10
108.8468
 20
8.4247
 30
0.0
 10
104.0842
 20
6.7873
 30
0.0
 10
101.4483
 20
1.6972
 30
0.0
 10
102.8606
 20
-3.1373
 30
0.0
 10
102.8606
 20
-3.1373
 30
0.0
 10
104.4856
 20
-9.0253
 30
0.0
 10
109.8395
 20
-13.1065
 30
0.0
 10
115.9477
 20
-13.114
 30
0.0
  0
SPLINE
  5
5B
330
1F
100
AcDbEntity
  8
layer 1
 62
     7
370
     9
100
AcDbSpline
210
0.0
220
0.0
230
1.0
 70
    11
 71
     3
 72
    44
 73
    40
 74
     0
 42
0.0000000001
 43
0.0000000001
 12
1.0
 22
0.0
 32
0.0
 13
1.0
 23
0.0
 33
0.0
 40
0.0
 40
0.0
 40
0.0
 40
0.0
 40
0.0909090909090909
 40
0.0909090909090909
 40
0.0909090909090909
 40
0.0909090909090909
 40
0.1818181818181818
 40
0.1818181818181818
 40
0.1818181818181818
 40
0.1818181818181818
 40
0.2727272727272727
 40
0.2727272727272727
 40
0.2727272727272727
 40
0.2727272727272727
 40
0.3636363636363636
 40
0.3636363636363636
 40
0.3636363636363636
 40
0.3636363636363636
 40
0.4545454545454545
 40
0.4545454545454545
 40
0.4545454545454545
 40
0.4545454545454545
 40
0.5454545454545454
 40
0.5454545454545454
 40
0.5454545454545454
 40
0.5454545454545454
 40
0.6363636363636364
 40
0.6363636363636364
 40
0.6363636363636364
 40
0.6363636363636364
 40
0.7272727272727273
 40
0.7272727272727273
 40
0.7272727272727273
 40
0.7272727272727273
 40
0.8181818181818182
 40
0.8181818181818182
 40
0.8181818181818182
 40
0.8181818181818182
 40
1.0
 40
1.0
 40
1.0
 40
1.0
 10
91.9452
 20
21.1014
 30
0.0
 10
93.0846
 20
17.2738
 30
0.0
 10
96.524
 20
14.5888
 30
0.0
 10
100.5123
 20
14.4098
 30
0.0
 10
100.5123
 20
14.4098
 30
0.0
 10
102.445
 20
14.199
 30
0.0
 10
104.3812
 20
14.7685
 30
0.0
 10
105.8911
 20
15.9924
 30
0.0
 10
105.8911
 20
15.9924
 30
0.0
 10
107.4008
 20
17.2153
 30
0.0
 10
108.3591
 20
18.9908
 30
0.0
 10
108.5533
 20
20.9243
 30
0.0
 10
108.5533
 20
20.9243
 30
0.0
 10
111.1286
 20
19.7101
 30
0.0
 10
113.8229
 20
18.7654
 30
0.0
 10
116.5932
 20
18.1076
 30
0.0
 10
116.5932
 20
18.1076
 30
0.0
 10
121.3797
 20
16.4467
 30
0.0
 10
126.6877
 20
18.1446
 30
0.0
 10
129.6219
 20
22.2741
 30
0.0
 10
129.6219
 20
22.2741
 30
0.0
 10
131.3888
 20
25.7352
 30
0.0
 10
132.484
 20
29.4981
 30
0.0
 10
132.8497
 20
33.3663
 30
0.0
 10
132.8497
 20
33.3663
 30
0.0
 10
130.665
 20
27.7908
 30
0.0
 10
126.2662
 20
23.3708
 30
0.0
 10
120.7015
 20
21.1591
 30
0.0
 10
120.7015
 20
21.1591
 30
0.0
 10
114.4877
 20
20.3129
 30
0.0
 10
108.2348
 20
22.4187
 30
0.0
 10
103.7993
 20
26.8518
 30
0.0
 10
103.7993
 20
26.8518
 30
0.0
 10
104.9827
 20
23.6568
 30
0.0
 10
103.5468
 20
20.0857
 30
0.0
 10
100.4812
 20
18.598
 30
0.0
 10
100.4812
 20
18.598
 30
0.0
 10
97.4157
 20
17.1112
 30
0.0
 10
93.7217
 20
18.1937
 30
0.0
 10
91.9452
 20
21.1014
 30
0.0
  0
SPLINE
  5
5C
330
1F
100
AcDbEntity
  8
layer 1
 62
     7
370
     9
100
AcDbSpline
210
0.0
220
0.0
230
1.0
 70
    11
 71
     3
 72
   220
 73
   216
 74
     0
 42
0.0000000001
 43
0.0000000001
 12
1.0
 22
0.0
 32
0.0
 13
1.0
 23
0.0
 33
0.0
 40
0.0
 40
0.0
 40
0.0
 40
0.0
 40
0.0181818181818182
 40
0.0181818181818182
 40
0.0181818181818182
 40
0.0181818181818182
 40
0.0363636363636364
 40
0.0363636363636364
 40
0.0363636363636364
 40
0.0363636363636364
 40
0.0545454545454545
 40
0.0545454545454545
 40
0.0545454545454545
 40
0.0545454545454545
 40
0.0727272727272727
 40
0.0727272727272727
 40
0.0727272727272727
 40
0.0727272727272727
 40
0.0909090909090909
 40
0.0909090909090909
 40
0.0909090909090909
 40
0.0909090909090909
 40
0.1090909090909091
 40
0.1090909090909091
 40
0.1090909090909091
 40
0.1090909090909091
 40
0.1272727272727273
 40
0.1272727272727273
 40
0.1272727272727273
 40
0.1272727272727273
 40
0.1454545454545454
 40
0.1454545454545454
 40
0.1454545454545454
 40
0.1454545454545454
 40
0.1636363636363636
 40
0.1636363636363636
 40
0.1636363636363636
 40
0.1636363636363636
 40
0.1818181818181818
 40
0.1818181818181818
 40
0.1818181818181818
 40
0.1818181818181818
 40
0.2
 40
0.2
 40
0.2
 40
0.2
 40
0.2181818181818182
 40
0.2181818181818182
 40
0.2181818181818182
 40
0.2181818181818182
 40
0.2363636363636364
 40
0.2363636363636364
 40
0.2363636363636364
 40
0.2363636363636364
 40
0.2545454545454545
 40
0.2545454545454545
 40
0.2545454545454545
 40
0.2545454545454545
 40
0.2727272727272727
 40
0.2727272727272727
 40
0.2727272727272727
 40
0.2727272727272727
 40
0.2909090909090909
 40
0.2909090909090909
 40
0.2909090909090909
 40
0.2909090909090909
 40
0.3090909090909091
 40
0.3090909090909091
 40
0.3090909090909091
 40
0.3090909090909091
 40
0.3272727272727273
 40
0.3272727272727273
 40
0.3272727272727273
 40
0.3272727272727273
 40
0.3454545454545455
 40
0.3454545454545455
 40
0.3454545454545455
 40
0.3454545454545455
 40
0.3636363636363636
 40
0.3636363636363636
 40
0.3636363636363636
 40
0.3636363636363636
 40
0.3818181818181818
 40
0.3818181818181818
 40
0.3818181818181818
 40
0.3818181818181818
 40
0.4
 40
0.4
 40
0.4
 40
0.4
 40
0.4181818181818182
 40
0.4181818181818182
 40
0.4181818181818182
 40
0.4181818181818182
 40
0.4363636363636363
 40
0.4363636363636363
 40
0.4363636363636363
 40
0.4363636363636363
 40
0.4545454545454545
 40
0.4545454545454545
 40
0.4545454545454545
 40
0.4545454545454545
 40
0.4727272727272727
 40
0.4727272727272727
 40
0.4727272727272727
 40
0.4727272727272727
 40
0.4909090909090909
 40
0.4909090909090909
 40
0.4909090909090909
 40
0.4909090909090909
 40
0.509090909090909
 40
0.509090909090909
 40
0.509090909090909
 40
0.509090909090909
 40
0.5272727272727272
 40
0.5272727272727272
 40
0.5272727272727272
 40
0.5272727272727272
 40
0.5454545454545454
 40
0.5454545454545454
 40
0.5454545454545454
 40
0.5454545454545454
 40
0.5636363636363636
 40
0.5636363636363636
 40
0.5636363636363636
 40
0.5636363636363636
 40
0.5818181818181818
 40
0.5818181818181818
 40
0.5818181818181818
 40
0.5818181818181818
 40
0.6
 40
0.6
 40
0.6
 40
0.6
 40
0.6181818181818182
 40
0.6181818181818182
 40
0.6181818181818182
 40
0.6181818181818182
 40
0.6363636363636364
 40
0.6363636363636364
 40
0.6363636363636364
 40
0.6363636363636364
 40
0.6545454545454545
 40
0.6545454545454545
 40
0.6545454545454545
 40
0.6545454545454545
 40
0.6727272727272727
 40
0.6727272727272727
 40
0.6727272727272727
 40
0.6727272727272727
 40
0.6909090909090909
 40
0.6909090909090909
 40
0.6909090909090909
 40
0.6909090909090909
 40
0.7090909090909091
 40
0.7090909090909091
 40
0.7090909090909091
 40
0.7090909090909091
 40
0.7272727272727273
 40
0.7272727272727273
 40
0.7272727272727273
 40
0.7272727272727273
 40
0.7454545454545455
 40
0.7454545454545455
 40
0.7454545454545455
 40
0.7454545454545455
 40
0.7636363636363637
 40
0.7636363636363637
 40
0.7636363636363637
 40
0.7636363636363637
 40
0.7818181818181819
 40
0.7818181818181819
 40
0.7818181818181819
 40
0.7818181818181819
 40
0.8
 40
0.8
 40
0.8
 40
0.8
 40
0.8181818181818182
 40
0.8181818181818182
 40
0.8181818181818182
 40
0.8181818181818182
 40
0.8363636363636363
 40
0.8363636363636363
 40
0.8363636363636363
 40
0.8363636363636363
 40
0.8545454545454545
 40
0.8545454545454545
 40
0.8545454545454545
 40
0.8545454545454545
 40
0.8727272727272727
 40
0.8727272727272727
 40
0.8727272727272727
 40
0.8727272727272727
 40
0.8909090909090909
 40
0.8909090909090909
 40
0.8909090909090909
 40
0.8909090909090909
 40
0.9090909090909091
 40
0.9090909090909091
 40
0.9090909090909091
 40
0.9090909090909091
 40
0.9272727272727272
 40
0.9272727272727272
 40
0.9272727272727272
 40
0.9272727272727272
 40
0.9454545454545454
 40
0.9454545454545454
 40
0.9454545454545454
 40
0.9454545454545454
 40
0.9636363636363636
 40
0.9636363636363636
 40
0.9636363636363636
 40
0.9636363636363636
 40
1.0
 40
1.0
 40
1.0
 40
1.0
 10
185.8444
 20
43.9305
 30
0.0
 10
184.2658
 20
40.7116
 30
0.0
 10
183.7126
 20
37.0858
 30
0.0
 10
184.2596
 20
33.5423
 30
0.0
 10
184.2596
 20
33.5423
 30
0.0
 10
182.9665
 20
35.6169
 30
0.0
 10
182.108
 20
37.9338
 30
0.0
 10
181.7361
 20
40.3502
 30
0.0
 10
181.7361
 20
40.3502
 30
0.0
 10
181.1451
 20
44.3109
 30
0.0
 10
180.0403
 20
48.1782
 30
0.0
 10
178.4499
 20
51.8524
 30
0.0
 10
178.4499
 20
51.8524
 30
0.0
 10
176.2068
 20
56.4881
 30
0.0
 10
173.576
 20
60.925
 30
0.0
 10
170.5854
 20
65.1158
 30
0.0
 10
170.5854
 20
65.1158
 30
0.0
 10
167.3143
 20
70.4442
 30
0.0
 10
160.5224
 20
72.4035
 30
0.0
 10
154.9163
 20
69.6351
 30
0.0
 10
154.9163
 20
69.6351
 30
0.0
 10
156.9016
 20
71.8101
 30
0.0
 10
159.6969
 20
73.0678
 30
0.0
 10
162.6415
 20
73.1123
 30
0.0
 10
162.6415
 20
73.1123
 30
0.0
 10
165.586
 20
73.1569
 30
0.0
 10
168.4177
 20
71.9834
 30
0.0
 10
170.4682
 20
69.8698
 30
0.0
 10
170.4682
 20
69.8698
 30
0.0
 10
169.9724
 20
72.6828
 30
0.0
 10
170.113
 20
75.5693
 30
0.0
 10
170.8789
 20
78.3208
 30
0.0
 10
170.8789
 20
78.3208
 30
0.0
 10
171.4772
 20
80.9376
 30
0.0
 10
172.9724
 20
83.2631
 30
0.0
 10
175.1044
 20
84.8938
 30
0.0
 10
175.1044
 20
84.8938
 30
0.0
 10
176.4695
 20
85.4617
 30
0.0
 10
177.336
 20
86.8198
 30
0.0
 10
177.2759
 20
88.2972
 30
0.0
 10
177.2759
 20
88.2972
 30
0.0
 10
177.4165
 20
89.751
 30
0.0
 10
176.7761
 20
91.1705
 30
0.0
 10
175.5935
 20
92.028
 30
0.0
 10
175.5935
 20
92.028
 30
0.0
 10
174.4104
 20
92.8846
 30
0.0
 10
172.8621
 20
93.0512
 30
0.0
 10
171.5244
 20
92.4645
 30
0.0
 10
171.5244
 20
92.4645
 30
0.0
 10
173.1376
 20
93.3691
 30
0.0
 10
175.1058
 20
93.3646
 30
0.0
 10
176.7144
 20
92.4521
 30
0.0
 10
176.7144
 20
92.4521
 30
0.0
 10
178.3228
 20
91.5397
 30
0.0
 10
179.3371
 20
89.8522
 30
0.0
 10
179.3887
 20
88.0037
 30
0.0
 10
179.3887
 20
88.0037
 30
0.0
 10
182.523
 20
88.9
 30
0.0
 10
185.8653
 20
88.7353
 30
0.0
 10
188.8958
 20
87.5342
 30
0.0
 10
188.8958
 20
87.5342
 30
0.0
 10
185.0505
 20
87.9632
 30
0.0
 10
181.2149
 20
86.6532
 30
0.0
 10
178.4344
 20
83.9633
 30
0.0
 10
178.4344
 20
83.9633
 30
0.0
 10
175.6533
 20
81.2735
 30
0.0
 10
174.2175
 20
77.4829
 30
0.0
 10
174.5177
 20
73.6253
 30
0.0
 10
174.5177
 20
73.6253
 30
0.0
 10
175.3196
 20
75.6111
 30
0.0
 10
176.4947
 20
77.4245
 30
0.0
 10
177.9799
 20
78.966
 30
0.0
 10
177.9799
 20
78.966
 30
0.0
 10
180.3786
 20
81.0702
 30
0.0
 10
183.855
 20
81.4012
 30
0.0
 10
186.6071
 20
79.7878
 30
0.0
 10
186.6071
 20
79.7878
 30
0.0
 10
189.3106
 20
77.8191
 30
0.0
 10
190.5426
 20
74.4025
 30
0.0
 10
189.7179
 20
71.1608
 30
0.0
 10
189.7179
 20
71.1608
 30
0.0
 10
188.6289
 20
68.5459
 30
0.0
 10
185.74
 20
67.1781
 30
0.0
 10
183.0271
 20
67.9921
 30
0.0
 10
183.0271
 20
67.9921
 30
0.0
 10
181.8536
 20
68.3755
 30
0.0
 10
180.9439
 20
69.3105
 30
0.0
 10
180.5922
 20
70.4936
 30
0.0
 10
180.5922
 20
70.4936
 30
0.0
 10
180.2407
 20
71.6767
 30
0.0
 10
180.4929
 20
72.9572
 30
0.0
 10
181.2666
 20
73.9196
 30
0.0
 10
181.2666
 20
73.9196
 30
0.0
 10
181.034
 20
73.1947
 30
0.0
 10
181.1894
 20
72.4016
 30
0.0
 10
181.6774
 20
71.8187
 30
0.0
 10
181.6774
 20
71.8187
 30
0.0
 10
182.1657
 20
71.2357
 30
0.0
 10
182.9187
 20
70.9422
 30
0.0
 10
183.6726
 20
71.0433
 30
0.0
 10
183.6726
 20
71.0433
 30
0.0
 10
184.7484
 20
71.1901
 30
0.0
 10
185.6668
 20
71.8932
 30
0.0
 10
186.0888
 20
72.8937
 30
0.0
 10
186.0888
 20
72.8937
 30
0.0
 10
186.5105
 20
73.8933
 30
0.0
 10
186.3729
 20
75.0421
 30
0.0
 10
185.7269
 20
75.9148
 30
0.0
 10
185.7269
 20
75.9148
 30
0.0
 10
184.0686
 20
77.01
 30
0.0
 10
181.9352
 20
77.0781
 30
0.0
 10
180.2104
 20
76.0908
 30
0.0
 10
180.2104
 20
76.0908
 30
0.0
 10
177.8857
 20
73.9775
 30
0.0
 10
176.7085
 20
70.8815
 30
0.0
 10
177.0412
 20
67.7574
 30
0.0
 10
177.0412
 20
67.7574
 30
0.0
 10
177.1251
 20
63.2247
 30
0.0
 10
178.6686
 20
58.8409
 30
0.0
 10
181.4426
 20
55.2567
 30
0.0
 10
181.4426
 20
55.2567
 30
0.0
 10
180.7153
 20
57.1542
 30
0.0
 10
180.2898
 20
59.1543
 30
0.0
 10
180.1809
 20
61.1844
 30
0.0
 10
180.1809
 20
61.1844
 30
0.0
 10
179.7653
 20
63.1367
 30
0.0
 10
180.7502
 20
65.1188
 30
0.0
 10
182.5576
 20
65.9666
 30
0.0
 10
182.5576
 20
65.9666
 30
0.0
 10
183.7437
 20
66.421
 30
0.0
 10
185.0765
 20
66.2713
 30
0.0
 10
186.132
 20
65.5655
 30
0.0
 10
186.132
 20
65.5655
 30
0.0
 10
187.1879
 20
64.8602
 30
0.0
 10
187.8353
 20
63.6859
 30
0.0
 10
187.8688
 20
62.4166
 30
0.0
 10
187.8688
 20
62.4166
 30
0.0
 10
187.8289
 20
61.5914
 30
0.0
 10
187.3967
 20
60.8351
 30
0.0
 10
186.7058
 20
60.3828
 30
0.0
 10
186.7058
 20
60.3828
 30
0.0
 10
186.015
 20
59.9302
 30
0.0
 10
185.1493
 20
59.8357
 30
0.0
 10
184.3771
 20
60.1282
 30
0.0
 10
184.3771
 20
60.1282
 30
0.0
 10
183.6428
 20
60.4195
 30
0.0
 10
183.1707
 20
61.1399
 30
0.0
 10
183.1969
 20
61.93
 30
0.0
 10
183.1969
 20
61.93
 30
0.0
 10
183.223
 20
62.7195
 30
0.0
 10
183.7426
 20
63.4074
 30
0.0
 10
184.4946
 20
63.6489
 30
0.0
 10
184.4946
 20
63.6489
 30
0.0
 10
184.783
 20
63.7739
 30
0.0
 10
184.9837
 20
64.0416
 30
0.0
 10
185.0224
 20
64.3531
 30
0.0
 10
185.0224
 20
64.3531
 30
0.0
 10
183.9929
 20
64.4306
 30
0.0
 10
182.989
 20
64.0076
 30
0.0
 10
182.3258
 20
63.2164
 30
0.0
 10
182.3258
 20
63.2164
 30
0.0
 10
181.6626
 20
62.4252
 30
0.0
 10
181.4212
 20
61.3623
 30
0.0
 10
181.6774
 20
60.3626
 30
0.0
 10
181.6774
 20
60.3626
 30
0.0
 10
181.6768
 20
57.1306
 30
0.0
 10
182.9906
 20
54.0376
 30
0.0
 10
185.3159
 20
51.7947
 30
0.0
 10
185.3159
 20
51.7947
 30
0.0
 10
187.3704
 20
52.478
 30
0.0
 10
189.632
 20
52.0568
 30
0.0
 10
191.3024
 20
50.6797
 30
0.0
 10
191.3024
 20
50.6797
 30
0.0
 10
189.4727
 20
50.7658
 30
0.0
 10
187.6574
 20
50.3173
 30
0.0
 10
186.0791
 20
49.3877
 30
0.0
 10
186.0791
 20
49.3877
 30
0.0
 10
184.5118
 20
48.3894
 30
0.0
 10
183.6297
 20
46.6034
 30
0.0
 10
183.7901
 20
44.752
 30
0.0
 10
183.7901
 20
44.752
 30
0.0
 10
183.9594
 20
45.8139
 30
0.0
 10
184.6054
 20
46.7397
 30
0.0
 10
185.5431
 20
47.2658
 30
0.0
 10
185.5431
 20
47.2658
 30
0.0
 10
186.481
 20
47.7922
 30
0.0
 10
187.6078
 20
47.8603
 30
0.0
 10
188.6023
 20
47.4515
 30
0.0
 10
188.6023
 20
47.4515
 30
0.0
 10
189.9188
 20
46.4103
 30
0.0
 10
190.7121
 20
44.844
 30
0.0
 10
190.7741
 20
43.1667
 30
0.0
 10
190.7741
 20
43.1667
 30
0.0
 10
190.9622
 20
42.0576
 30
0.0
 10
190.5106
 20
40.9359
 30
0.0
 10
189.6057
 20
40.2668
 30
0.0
 10
189.6057
 20
40.2668
 30
0.0
 10
188.7005
 20
39.5969
 30
0.0
 10
187.4959
 20
39.4925
 30
0.0
 10
186.4899
 20
39.998
 30
0.0
 10
186.4899
 20
39.998
 30
0.0
 10
187.3328
 20
40.0095
 30
0.0
 10
188.1143
 20
40.4409
 30
0.0
 10
188.5739
 20
41.1481
 30
0.0
 10
188.5739
 20
41.1481
 30
0.0
 10
189.0335
 20
41.8551
 30
0.0
 10
189.1102
 20
42.7447
 30
0.0
 10
188.7786
 20
43.519
 30
0.0
 10
188.7786
 20
43.519
 30
0.0
 10
188.528
 20
44.0641
 30
0.0
 10
188.0175
 20
44.4435
 30
0.0
 10
187.4238
 20
44.5269
 30
0.0
 10
187.4238
 20
44.5269
 30
0.0
 10
186.8301
 20
44.6101
 30
0.0
 10
186.2347
 20
44.385
 30
0.0
 10
185.8444
 20
43.9305
 30
0.0
  0
SPLINE
  5
5D
330
1F
100
AcDbEntity
  8
layer 1
 62
     7
370
     9
100
AcDbSpline
210
0.0
220
0.0
230
1.0
 70
    11
 71
     3
 72
    80
 73
    76
 74
     0
 42
0.0000000001
 43
0.0000000001
 12
1.0
 22
0.0
 32
0.0
 13
1.0
 23
0.0
 33
0.0
 40
0.0
 40
0.0
 40
0.0
 40
0.0
 40
0.05
 40
0.05
 40
0.05
 40
0.05
 40
0.1
 40
0.1
 40
0.1
 40
0.1
 40
0.15
 40
0.15
 40
0.15
 40
0.15
 40
0.2
 40
0.2
 40
0.2
 40
0.2
 40
0.25
 40
0.25
 40
0.25
 40
0.25
 40
0.3
 40
0.3
 40
0.3
 40
0.3
 40
0.35
 40
0.35
 40
0.35
 40
0.35
 40
0.4
 40
0.4
 40
0.4
 40
0.4
 40
0.45
 40
0.45
 40
0.45
 40
0.45
 40
0.5
 40
0.5
 40
0.5
 40
0.5
 40
0.55
 40
0.55
 40
0.55
 40
0.55
 40
0.6
 40
0.6
 40
0.6
 40
0.6
 40
0.65
 40
0.65
 40
0.65
 40
0.65
 40
0.7
 40
0.7
 40
0.7
 40
0.7
 40
0.75
 40
0.75
 40
0.75
 40
0.75
 40
0.8
 40
0.8
 40
0.8
 40
0.8
 40
0.85
 40
0.85
 40
0.85
 40
0.85
 40
0.9
 40
0.9
 40
0.9
 40
0.9
 40
1.0
 40
1.0
 40
1.0
 40
1.0
 10
182.0881
 20
30.3736
 30
0.0
 10
181.8805
 20
29.7812
 30
0.0
 10
181.3538
 20
29.3581
 30
0.0
 10
180.7309
 20
29.2833
 30
0.0
 10
180.7309
 20
29.2833
 30
0.0
 10
180.1077
 20
29.2087
 30
0.0
 10
179.496
 20
29.4944
 30
0.0
 10
179.1536
 20
30.0216
 30
0.0
 10
179.1536
 20
30.0216
 30
0.0
 10
178.1615
 20
31.3598
 30
0.0
 10
177.6451
 20
32.9915
 30
0.0
 10
177.6867
 20
34.6573
 30
0.0
 10
177.6867
 20
34.6573
 30
0.0
 10
173.5258
 20
32.5721
 30
0.0
 10
168.6382
 20
32.507
 30
0.0
 10
164.4235
 20
34.4813
 30
0.0
 10
164.4235
 20
34.4813
 30
0.0
 10
166.6401
 20
34.2484
 30
0.0
 10
168.8558
 20
34.9223
 30
0.0
 10
170.5691
 20
36.3477
 30
0.0
 10
170.5691
 20
36.3477
 30
0.0
 10
172.2821
 20
37.7728
 30
0.0
 10
173.3461
 20
39.8306
 30
0.0
 10
173.5199
 20
42.052
 30
0.0
 10
173.5199
 20
42.052
 30
0.0
 10
173.4639
 20
45.1126
 30
0.0
 10
171.899
 20
47.9483
 30
0.0
 10
169.3395
 20
49.6272
 30
0.0
 10
169.3395
 20
49.6272
 30
0.0
 10
166.7798
 20
51.3062
 30
0.0
 10
163.5559
 20
51.612
 30
0.0
 10
160.7263
 20
50.4439
 30
0.0
 10
160.7263
 20
50.4439
 30
0.0
 10
158.9618
 20
49.9186
 30
0.0
 10
157.5138
 20
48.6515
 30
0.0
 10
156.7589
 20
46.9723
 30
0.0
 10
156.7589
 20
46.9723
 30
0.0
 10
156.0039
 20
45.2934
 30
0.0
 10
156.0168
 20
43.3684
 30
0.0
 10
156.794
 20
41.6997
 30
0.0
 10
156.794
 20
41.6997
 30
0.0
 10
155.4368
 20
43.3078
 30
0.0
 10
154.9544
 20
45.479
 30
0.0
 10
155.5028
 20
47.5099
 30
0.0
 10
155.5028
 20
47.5099
 30
0.0
 10
156.4439
 20
51.1339
 30
0.0
 10
159.0951
 20
54.0698
 30
0.0
 10
162.6043
 20
55.3742
 30
0.0
 10
162.6043
 20
55.3742
 30
0.0
 10
166.8008
 20
56.6641
 30
0.0
 10
171.367
 20
55.6127
 30
0.0
 10
174.5764
 20
52.6162
 30
0.0
 10
174.5764
 20
52.6162
 30
0.0
 10
172.2909
 20
53.4688
 30
0.0
 10
169.8509
 20
53.8286
 30
0.0
 10
167.4162
 20
53.6724
 30
0.0
 10
167.4162
 20
53.6724
 30
0.0
 10
170.2471
 20
52.9559
 30
0.0
 10
172.8259
 20
51.4738
 30
0.0
 10
174.8697
 20
49.3877
 30
0.0
 10
174.8697
 20
49.3877
 30
0.0
 10
178.1253
 20
46.2069
 30
0.0
 10
179.9649
 20
41.8502
 30
0.0
 10
179.9757
 20
37.2988
 30
0.0
 10
179.9757
 20
37.2988
 30
0.0
 10
179.5247
 20
35.3481
 30
0.0
 10
179.5247
 20
33.3209
 30
0.0
 10
179.9757
 20
31.3713
 30
0.0
 10
179.9757
 20
31.3713
 30
0.0
 10
180.0618
 20
30.9168
 30
0.0
 10
180.3601
 20
30.5316
 30
0.0
 10
180.7778
 20
30.3339
 30
0.0
 10
180.7778
 20
30.3339
 30
0.0
 10
181.1955
 20
30.1369
 30
0.0
 10
181.683
 20
30.1512
 30
0.0
 10
182.0881
 20
30.3736
 30
0.0
  0
SPLINE
  5
5E
330
1F
100
AcDbEntity
  8
layer 1
 62
     7
370
     9
100
AcDbSpline
210
0.0
220
0.0
230
1.0
 70
    11
 71
     3
 72
    52
 73
    48
 74
     0
 42
0.0000000001
 43
0.0000000001
 12
1.0
 22
0.0
 32
0.0
 13
1.0
 23
0.0
 33
0.0
 40
0.0
 40
0.0
 40
0.0
 40
0.0
 40
0.0769230769230769
 40
0.0769230769230769
 40
0.0769230769230769
 40
0.0769230769230769
 40
0.1538461538461539
 40
0.1538461538461539
 40
0.1538461538461539
 40
0.1538461538461539
 40
0.2307692307692308
 40
0.2307692307692308
 40
0.2307692307692308
 40
0.2307692307692308
 40
0.3076923076923077
 40
0.3076923076923077
 40
0.3076923076923077
 40
0.3076923076923077
 40
0.3846153846153846
 40
0.3846153846153846
 40
0.3846153846153846
 40
0.3846153846153846
 40
0.4615384615384616
 40
0.4615384615384616
 40
0.4615384615384616
 40
0.4615384615384616
 40
0.5384615384615384
 40
0.5384615384615384
 40
0.5384615384615384
 40
0.5384615384615384
 40
0.6153846153846154
 40
0.6153846153846154
 40
0.6153846153846154
 40
0.6153846153846154
 40
0.6923076923076923
 40
0.6923076923076923
 40
0.6923076923076923
 40
0.6923076923076923
 40
0.7692307692307693
 40
0.7692307692307693
 40
0.7692307692307693
 40
0.7692307692307693
 40
0.8461538461538461
 40
0.8461538461538461
 40
0.8461538461538461
 40
0.8461538461538461
 40
1.0
 40
1.0
 40
1.0
 40
1.0
 10
161.3715
 20
38.003
 30
0.0
 10
163.6852
 20
37.596
 30
0.0
 10
165.9428
 20
38.9635
 30
0.0
 10
166.6543
 20
41.202
 30
0.0
 10
166.6543
 20
41.202
 30
0.0
 10
167.366
 20
43.4403
 30
0.0
 10
166.3125
 20
45.8603
 30
0.0
 10
164.1887
 20
46.8645
 30
0.0
 10
164.1887
 20
46.8645
 30
0.0
 10
164.5405
 20
46.098
 30
0.0
 10
164.5091
 20
45.2102
 30
0.0
 10
164.1045
 20
44.4711
 30
0.0
 10
164.1045
 20
44.4711
 30
0.0
 10
163.7002
 20
43.7309
 30
0.0
 10
162.9694
 20
43.2265
 30
0.0
 10
162.1348
 20
43.1082
 30
0.0
 10
162.1348
 20
43.1082
 30
0.0
 10
161.4168
 20
43.2472
 30
0.0
 10
160.8081
 20
43.7196
 30
0.0
 10
160.495
 20
44.3801
 30
0.0
 10
160.495
 20
44.3801
 30
0.0
 10
160.1822
 20
45.0407
 30
0.0
 10
160.2026
 20
45.8101
 30
0.0
 10
160.5503
 20
46.4537
 30
0.0
 10
160.5503
 20
46.4537
 30
0.0
 10
161.5416
 20
48.0959
 30
0.0
 10
163.397
 20
49.0121
 30
0.0
 10
165.3037
 20
48.8009
 30
0.0
 10
165.3037
 20
48.8009
 30
0.0
 10
164.1751
 20
49.5639
 30
0.0
 10
162.7647
 20
49.7815
 30
0.0
 10
161.4584
 20
49.3955
 30
0.0
 10
161.4584
 20
49.3955
 30
0.0
 10
160.1527
 20
49.0091
 30
0.0
 10
159.0876
 20
48.0589
 30
0.0
 10
158.5548
 20
46.806
 30
0.0
 10
158.5548
 20
46.806
 30
0.0
 10
157.7612
 20
44.9725
 30
0.0
 10
158.5017
 20
42.8375
 30
0.0
 10
160.2595
 20
41.8899
 30
0.0
 10
160.2595
 20
41.8899
 30
0.0
 10
162.0178
 20
40.9415
 30
0.0
 10
164.2089
 20
41.4972
 30
0.0
 10
165.3037
 20
43.1667
 30
0.0
 10
165.3037
 20
43.1667
 30
0.0
 10
165.3778
 20
40.7334
 30
0.0
 10
163.7378
 20
38.5793
 30
0.0
 10
161.3715
 20
38.003
 30
0.0
  0
SPLINE
  5
5F
330
1F
100
AcDbEntity
  8
layer 1
 62
     7
370
     9
100
AcDbSpline
210
0.0
220
0.0
230
1.0
 70
    11
 71
     3
 72
    20
 73
    16
 74
     0
 42
0.0000000001
 43
0.0000000001
 12
1.0
 22
0.0
 32
0.0
 13
1.0
 23
0.0
 33
0.0
 40
0.0
 40
0.0
 40
0.0
 40
0.0
 40
0.2
 40
0.2
 40
0.2
 40
0.2
 40
0.4
 40
0.4
 40
0.4
 40
0.4
 40
0.6
 40
0.6
 40
0.6
 40
0.6
 40
1.0
 40
1.0
 40
1.0
 40
1.0
 10
166.8295
 20
47.6275
 30
0.0
 10
168.5843
 20
45.9569
 30
0.0
 10
169.3012
 20
43.4707
 30
0.0
 10
168.705
 20
41.1224
 30
0.0
 10
168.705
 20
41.1224
 30
0.0
 10
168.1092
 20
38.7752
 30
0.0
 10
166.2929
 20
36.9315
 30
0.0
 10
163.954
 20
36.3002
 30
0.0
 10
163.954
 20
36.3002
 30
0.0
 10
166.8324
 20
36.0733
 30
0.0
 10
169.4562
 20
37.9529
 30
0.0
 10
170.1669
 20
40.7513
 30
0.0
 10
170.1669
 20
40.7513
 30
0.0
 10
170.8776
 20
43.5511
 30
0.0
 10
169.4683
 20
46.4537
 30
0.0
 10
166.8295
 20
47.6275
 30
0.0
  0
SPLINE
  5
60
330
1F
100
AcDbEntity
  8
layer 1
 62
     7
370
     9
100
AcDbSpline
210
0.0
220
0.0
230
1.0
 70
    11
 71
     3
 72
    32
 73
    28
 74
     0
 42
0.0000000001
 43
0.0000000001
 12
1.0
 22
0.0
 32
0.0
 13
1.0
 23
0.0
 33
0.0
 40
0.0
 40
0.0
 40
0.0
 40
0.0
 40
0.125
 40
0.125
 40
0.125
 40
0.125
 40
0.25
 40
0.25
 40
0.25
 40
0.25
 40
0.375
 40
0.375
 40
0.375
 40
0.375
 40
0.5
 40
0.5
 40
0.5
 40
0.5
 40
0.625
 40
0.625
 40
0.625
 40
0.625
 40
0.75
 40
0.75
 40
0.75
 40
0.75
 40
1.0
 40
1.0
 40
1.0
 40
1.0
 10
159.9928
 20
37.328
 30
0.0
 10
156.6827
 20
38.2262
 30
0.0
 10
153.9089
 20
40.4865
 30
0.0
 10
152.3593
 20
43.5452
 30
0.0
 10
152.3593
 20
43.5452
 30
0.0
 10
150.8099
 20
46.6053
 30
0.0
 10
150.6299
 20
50.1791
 30
0.0
 10
151.8643
 20
53.3789
 30
0.0
 10
151.8643
 20
53.3789
 30
0.0
 10
153.3975
 20
57.851
 30
0.0
 10
156.7414
 20
61.472
 30
0.0
 10
161.0783
 20
63.3554
 30
0.0
 10
161.0783
 20
63.3554
 30
0.0
 10
166.3039
 20
64.4355
 30
0.0
 10
171.4922
 20
61.3585
 30
0.0
 10
173.0504
 20
56.2541
 30
0.0
 10
173.0504
 20
56.2541
 30
0.0
 10
170.3885
 20
58.7709
 30
0.0
 10
166.6119
 20
59.7257
 30
0.0
 10
163.0738
 20
58.7784
 30
0.0
 10
163.0738
 20
58.7784
 30
0.0
 10
158.7117
 20
57.1419
 30
0.0
 10
155.367
 20
53.5587
 30
0.0
 10
154.0358
 20
49.0944
 30
0.0
 10
154.0358
 20
49.0944
 30
0.0
 10
152.7936
 20
44.2334
 30
0.0
 10
155.3399
 20
39.2039
 30
0.0
 10
159.9928
 20
37.328
 30
0.0
  0
SPLINE
  5
61
330
1F
100
AcDbEntity
  8
layer 1
 62
     7
370
     9
100
AcDbSpline
210
0.0
220
0.0
230
1.0
 70
    11
 71
     3
 72
    36
 73
    32
 74
     0
 42
0.0000000001
 43
0.0000000001
 12
1.0
 22
0.0
 32
0.0
 13
1.0
 23
0.0
 33
0.0
 40
0.0
 40
0.0
 40
0.0
 40
0.0
 40
0.1111111111111111
 40
0.1111111111111111
 40
0.1111111111111111
 40
0.1111111111111111
 40
0.2222222222222222
 40
0.2222222222222222
 40
0.2222222222222222
 40
0.2222222222222222
 40
0.3333333333333333
 40
0.3333333333333333
 40
0.3333333333333333
 40
0.3333333333333333
 40
0.4444444444444444
 40
0.4444444444444444
 40
0.4444444444444444
 40
0.4444444444444444
 40
0.5555555555555556
 40
0.5555555555555556
 40
0.5555555555555556
 40
0.5555555555555556
 40
0.6666666666666666
 40
0.6666666666666666
 40
0.6666666666666666
 40
0.6666666666666666
 40
0.7777777777777778
 40
0.7777777777777778
 40
0.7777777777777778
 40
0.7777777777777778
 40
1.0
 40
1.0
 40
1.0
 40
1.0
 10
159.963
 20
35.3615
 30
0.0
 10
155.0987
 20
34.4907
 30
0.0
 10
150.2063
 20
36.7375
 30
0.0
 10
147.6978
 20
40.9957
 30
0.0
 10
147.6978
 20
40.9957
 30
0.0
 10
144.8884
 20
46.2257
 30
0.0
 10
144.3574
 20
52.3815
 30
0.0
 10
146.2303
 20
58.0146
 30
0.0
 10
146.2303
 20
58.0146
 30
0.0
 10
147.5929
 20
62.0684
 30
0.0
 10
150.4754
 20
65.4348
 30
0.0
 10
154.2703
 20
67.4054
 30
0.0
 10
154.2703
 20
67.4054
 30
0.0
 10
158.313
 20
68.2306
 30
0.0
 10
162.5163
 20
67.6514
 30
0.0
 10
166.1842
 20
65.7613
 30
0.0
 10
166.1842
 20
65.7613
 30
0.0
 10
163.0147
 20
66.2724
 30
0.0
 10
159.7645
 20
65.8228
 30
0.0
 10
156.8528
 20
64.4703
 30
0.0
 10
156.8528
 20
64.4703
 30
0.0
 10
152.238
 20
60.9733
 30
0.0
 10
149.2668
 20
55.731
 30
0.0
 10
148.6363
 20
49.9747
 30
0.0
 10
148.6363
 20
49.9747
 30
0.0
 10
148.0716
 20
46.5143
 30
0.0
 10
148.9706
 20
42.9746
 30
0.0
 10
151.119
 20
40.2024
 30
0.0
 10
151.119
 20
40.2024
 30
0.0
 10
153.2669
 20
37.4313
 30
0.0
 10
156.4707
 20
35.6775
 30
0.0
 10
159.963
 20
35.3615
 30
0.0
  0
SPLINE
  5
62
330
1F
100
AcDbEntity
  8
layer 1
 62
     7
370
     9
100
AcDbSpline
210
0.0
220
0.0
230
1.0
 70
    11
 71
     3
 72
   124
 73
   120
 74
     0
 42
0.0000000001
 43
0.0000000001
 12
1.0
 22
0.0
 32
0.0
 13
1.0
 23
0.0
 33
0.0
 40
0.0
 40
0.0
 40
0.0
 40
0.0
 40
0.032258064516129
 40
0.032258064516129
 40
0.032258064516129
 40
0.032258064516129
 40
0.0645161290322581
 40
0.0645161290322581
 40
0.0645161290322581
 40
0.0645161290322581
 40
0.0967741935483871
 40
0.0967741935483871
 40
0.0967741935483871
 40
0.0967741935483871
 40
0.1290322580645161
 40
0.1290322580645161
 40
0.1290322580645161
 40
0.1290322580645161
 40
0.1612903225806452
 40
0.1612903225806452
 40
0.1612903225806452
 40
0.1612903225806452
 40
0.1935483870967742
 40
0.1935483870967742
 40
0.1935483870967742
 40
0.1935483870967742
 40
0.2258064516129032
 40
0.2258064516129032
 40
0.2258064516129032
 40
0.2258064516129032
 40
0.2580645161290323
 40
0.2580645161290323
 40
0.2580645161290323
 40
0.2580645161290323
 40
0.2903225806451613
 40
0.2903225806451613
 40
0.2903225806451613
 40
0.2903225806451613
 40
0.3225806451612903
 40
0.3225806451612903
 40
0.3225806451612903
 40
0.3225806451612903
 40
0.3548387096774194
 40
0.3548387096774194
 40
0.3548387096774194
 40
0.3548387096774194
 40
0.3870967741935484
 40
0.3870967741935484
 40
0.3870967741935484
 40
0.3870967741935484
 40
0.4193548387096774
 40
0.4193548387096774
 40
0.4193548387096774
 40
0.4193548387096774
 40
0.4516129032258064
 40
0.4516129032258064
 40
0.4516129032258064
 40
0.4516129032258064
 40
0.4838709677419355
 40
0.4838709677419355
 40
0.4838709677419355
 40
0.4838709677419355
 40
0.5161290322580645
 40
0.5161290322580645
 40
0.5161290322580645
 40
0.5161290322580645
 40
0.5483870967741935
 40
0.5483870967741935
 40
0.5483870967741935
 40
0.5483870967741935
 40
0.5806451612903226
 40
0.5806451612903226
 40
0.5806451612903226
 40
0.5806451612903226
 40
0.6129032258064516
 40
0.6129032258064516
 40
0.6129032258064516
 40
0.6129032258064516
 40
0.6451612903225806
 40
0.6451612903225806
 40
0.6451612903225806
 40
0.6451612903225806
 40
0.6774193548387096
 40
0.6774193548387096
 40
0.6774193548387096
 40
0.6774193548387096
 40
0.7096774193548387
 40
0.7096774193548387
 40
0.7096774193548387
 40
0.7096774193548387
 40
0.7419354838709677
 40
0.7419354838709677
 40
0.7419354838709677
 40
0.7419354838709677
 40
0.7741935483870968
 40
0.7741935483870968
 40
0.7741935483870968
 40
0.7741935483870968
 40
0.8064516129032258
 40
0.8064516129032258
 40
0.8064516129032258
 40
0.8064516129032258
 40
0.8387096774193549
 40
0.8387096774193549
 40
0.8387096774193549
 40
0.8387096774193549
 40
0.8709677419354839
 40
0.8709677419354839
 40
0.8709677419354839
 40
0.8709677419354839
 40
0.9032258064516129
 40
0.9032258064516129
 40
0.9032258064516129
 40
0.9032258064516129
 40
0.9354838709677419
 40
0.9354838709677419
 40
0.9354838709677419
 40
0.9354838709677419
 40
1.0
 40
1.0
 40
1.0
 40
1.0
 10
134.6104
 20
35.6547
 30
0.0
 10
134.2962
 20
33.5205
 30
0.0
 10
133.8651
 20
31.4043
 30
0.0
 10
133.3192
 20
29.3165
 30
0.0
 10
133.3192
 20
29.3165
 30
0.0
 10
133.9367
 20
29.3932
 30
0.0
 10
134.5463
 20
29.1226
 30
0.0
 10
134.9036
 20
28.6123
 30
0.0
 10
134.9036
 20
28.6123
 30
0.0
 10
134.1347
 20
27.7623
 30
0.0
 10
133.6432
 20
26.6975
 30
0.0
 10
133.4954
 20
25.5611
 30
0.0
 10
133.4954
 20
25.5611
 30
0.0
 10
135.8188
 20
28.0746
 30
0.0
 10
138.5338
 20
30.1957
 30
0.0
 10
141.5354
 20
31.8405
 30
0.0
 10
141.5354
 20
31.8405
 30
0.0
 10
146.1566
 20
33.0049
 30
0.0
 10
150.9596
 20
33.2641
 30
0.0
 10
155.679
 20
32.6035
 30
0.0
 10
155.679
 20
32.6035
 30
0.0
 10
153.2497
 20
33.9313
 30
0.0
 10
150.6401
 20
34.9006
 30
0.0
 10
147.9323
 20
35.4787
 30
0.0
 10
147.9323
 20
35.4787
 30
0.0
 10
144.7465
 20
36.6316
 30
0.0
 10
142.5385
 20
39.5532
 30
0.0
 10
142.2986
 20
42.9319
 30
0.0
 10
142.2986
 20
42.9319
 30
0.0
 10
141.6751
 20
46.8476
 30
0.0
 10
140.6323
 20
50.6843
 30
0.0
 10
139.1879
 20
54.3764
 30
0.0
 10
139.1879
 20
54.3764
 30
0.0
 10
138.4581
 20
58.1243
 30
0.0
 10
136.5447
 20
61.5383
 30
0.0
 10
133.7299
 20
64.1184
 30
0.0
 10
133.7299
 20
64.1184
 30
0.0
 10
131.6928
 20
66.0047
 30
0.0
 10
128.6537
 20
66.3159
 30
0.0
 10
126.277
 20
64.8811
 30
0.0
 10
126.277
 20
64.8811
 30
0.0
 10
124.3534
 20
62.8397
 30
0.0
 10
123.7409
 20
59.8905
 30
0.0
 10
124.6919
 20
57.2519
 30
0.0
 10
124.6919
 20
57.2519
 30
0.0
 10
124.9516
 20
59.0585
 30
0.0
 10
125.57
 20
60.7943
 30
0.0
 10
126.5114
 20
62.3579
 30
0.0
 10
126.5114
 20
62.3579
 30
0.0
 10
127.9189
 20
63.7758
 30
0.0
 10
130.1333
 20
63.9971
 30
0.0
 10
131.7934
 20
62.8861
 30
0.0
 10
131.7934
 20
62.8861
 30
0.0
 10
134.7081
 20
60.6714
 30
0.0
 10
136.6445
 20
57.4088
 30
0.0
 10
137.1926
 20
53.7897
 30
0.0
 10
137.1926
 20
53.7897
 30
0.0
 10
134.4755
 20
54.9709
 30
0.0
 10
131.4479
 20
55.2387
 30
0.0
 10
128.5654
 20
54.5524
 30
0.0
 10
128.5654
 20
54.5524
 30
0.0
 10
125.6548
 20
52.8405
 30
0.0
 10
124.6182
 20
49.1341
 30
0.0
 10
126.2182
 20
46.1605
 30
0.0
 10
126.2182
 20
46.1605
 30
0.0
 10
127.2449
 20
43.6078
 30
0.0
 10
129.8961
 20
42.0992
 30
0.0
 10
132.6146
 20
42.5212
 30
0.0
 10
132.6146
 20
42.5212
 30
0.0
 10
133.8796
 20
43.091
 30
0.0
 10
134.759
 20
44.275
 30
0.0
 10
134.9385
 20
45.6502
 30
0.0
 10
134.9385
 20
45.6502
 30
0.0
 10
135.1177
 20
47.0254
 30
0.0
 10
134.5718
 20
48.3958
 30
0.0
 10
133.4954
 20
49.2704
 30
0.0
 10
133.4954
 20
49.2704
 30
0.0
 10
132.7566
 20
49.7493
 30
0.0
 10
131.8216
 20
49.807
 30
0.0
 10
131.0293
 20
49.4228
 30
0.0
 10
131.0293
 20
49.4228
 30
0.0
 10
130.2376
 20
49.0386
 30
0.0
 10
129.7038
 20
48.2692
 30
0.0
 10
129.6219
 20
47.3927
 30
0.0
 10
129.6219
 20
47.3927
 30
0.0
 10
129.0448
 20
47.9255
 30
0.0
 10
128.7366
 20
48.6883
 30
0.0
 10
128.7819
 20
49.473
 30
0.0
 10
128.7819
 20
49.473
 30
0.0
 10
128.8275
 20
50.2566
 30
0.0
 10
129.2219
 20
50.9797
 30
0.0
 10
129.8569
 20
51.4417
 30
0.0
 10
129.8569
 20
51.4417
 30
0.0
 10
131.8771
 20
52.0332
 30
0.0
 10
134.0526
 20
51.3081
 30
0.0
 10
135.3149
 20
49.6224
 30
0.0
 10
135.3149
 20
49.6224
 30
0.0
 10
137.5197
 20
45.9265
 30
0.0
 10
137.1425
 20
41.2399
 30
0.0
 10
134.3757
 20
37.9443
 30
0.0
 10
134.3757
 20
37.9443
 30
0.0
 10
135.8641
 20
39.2562
 30
0.0
 10
137.9996
 20
39.5344
 30
0.0
 10
139.7749
 20
38.6485
 30
0.0
 10
139.7749
 20
38.6485
 30
0.0
 10
140.5642
 20
38.1847
 30
0.0
 10
141.0286
 20
37.3197
 30
0.0
 10
140.9795
 20
36.4054
 30
0.0
 10
140.9795
 20
36.4054
 30
0.0
 10
140.9298
 20
35.4911
 30
0.0
 10
140.3745
 20
34.6809
 30
0.0
 10
139.5401
 20
34.3053
 30
0.0
 10
139.5401
 20
34.3053
 30
0.0
 10
139.3435
 20
35.3776
 30
0.0
 10
138.5504
 20
36.2417
 30
0.0
 10
137.4993
 20
36.5293
 30
0.0
 10
137.4993
 20
36.5293
 30
0.0
 10
136.4482
 20
36.8169
 30
0.0
 10
135.3254
 20
36.4773
 30
0.0
 10
134.6104
 20
35.6547
 30
0.0
  0
SPLINE
  5
63
330
1F
100
AcDbEntity
  8
layer 1
 62
     7
370
     9
100
AcDbSpline
210
0.0
220
0.0
230
1.0
 70
    11
 71
     3
 72
    52
 73
    48
 74
     0
 42
0.0000000001
 43
0.0000000001
 12
1.0
 22
0.0
 32
0.0
 13
1.0
 23
0.0
 33
0.0
 40
0.0
 40
0.0
 40
0.0
 40
0.0
 40
0.0769230769230769
 40
0.0769230769230769
 40
0.0769230769230769
 40
0.0769230769230769
 40
0.1538461538461539
 40
0.1538461538461539
 40
0.1538461538461539
 40
0.1538461538461539
 40
0.2307692307692308
 40
0.2307692307692308
 40
0.2307692307692308
 40
0.2307692307692308
 40
0.3076923076923077
 40
0.3076923076923077
 40
0.3076923076923077
 40
0.3076923076923077
 40
0.3846153846153846
 40
0.3846153846153846
 40
0.3846153846153846
 40
0.3846153846153846
 40
0.4615384615384616
 40
0.4615384615384616
 40
0.4615384615384616
 40
0.4615384615384616
 40
0.5384615384615384
 40
0.5384615384615384
 40
0.5384615384615384
 40
0.5384615384615384
 40
0.6153846153846154
 40
0.6153846153846154
 40
0.6153846153846154
 40
0.6153846153846154
 40
0.6923076923076923
 40
0.6923076923076923
 40
0.6923076923076923
 40
0.6923076923076923
 40
0.7692307692307693
 40
0.7692307692307693
 40
0.7692307692307693
 40
0.7692307692307693
 40
0.8461538461538461
 40
0.8461538461538461
 40
0.8461538461538461
 40
0.8461538461538461
 40
1.0
 40
1.0
 40
1.0
 40
1.0
 10
115.537
 20
30.1388
 30
0.0
 10
115.0144
 20
28.8358
 30
0.0
 10
115.3715
 20
27.3441
 30
0.0
 10
116.428
 20
26.4204
 30
0.0
 10
116.428
 20
26.4204
 30
0.0
 10
117.4845
 20
25.4956
 30
0.0
 10
119.0099
 20
25.3395
 30
0.0
 10
120.2317
 20
26.0303
 30
0.0
 10
120.2317
 20
26.0303
 30
0.0
 10
122.4848
 20
26.8008
 30
0.0
 10
124.396
 20
28.3378
 30
0.0
 10
125.6309
 20
30.3736
 30
0.0
 10
125.6309
 20
30.3736
 30
0.0
 10
127.8113
 20
32.929
 30
0.0
 10
129.8867
 20
35.5716
 30
0.0
 10
131.8522
 20
38.2963
 30
0.0
 10
131.8522
 20
38.2963
 30
0.0
 10
131.0417
 20
36.7405
 30
0.0
 10
130.3358
 20
35.1335
 30
0.0
 10
129.7392
 20
33.4838
 30
0.0
 10
129.7392
 20
33.4838
 30
0.0
 10
128.0187
 20
29.2588
 30
0.0
 10
124.7416
 20
25.8554
 30
0.0
 10
120.5842
 20
23.9766
 30
0.0
 10
120.5842
 20
23.9766
 30
0.0
 10
119.2994
 20
23.2139
 30
0.0
 10
117.7589
 20
23.0075
 30
0.0
 10
116.3193
 20
23.4068
 30
0.0
 10
116.3193
 20
23.4068
 30
0.0
 10
114.8792
 20
23.8054
 30
0.0
 10
113.6641
 20
24.7745
 30
0.0
 10
112.9545
 20
26.0891
 30
0.0
 10
112.9545
 20
26.0891
 30
0.0
 10
111.645
 20
28.1608
 30
0.0
 10
112.0439
 20
30.8782
 30
0.0
 10
113.8938
 20
32.486
 30
0.0
 10
113.8938
 20
32.486
 30
0.0
 10
115.1155
 20
33.4524
 30
0.0
 10
116.8733
 20
33.3255
 30
0.0
 10
117.943
 20
32.1928
 30
0.0
 10
117.943
 20
32.1928
 30
0.0
 10
118.343
 20
31.5207
 30
0.0
 10
118.2008
 20
30.6585
 30
0.0
 10
117.6057
 20
30.1512
 30
0.0
 10
117.6057
 20
30.1512
 30
0.0
 10
117.0112
 20
29.6438
 30
0.0
 10
116.1377
 20
29.6382
 30
0.0
 10
115.537
 20
30.1388
 30
0.0
  0
SPLINE
  5
64
330
1F
100
AcDbEntity
  8
layer 1
 62
     7
370
     9
100
AcDbSpline
210
0.0
220
0.0
230
1.0
 70
    11
 71
     3
 72
    44
 73
    40
 74
     0
 42
0.0000000001
 43
0.0000000001
 12
1.0
 22
0.0
 32
0.0
 13
1.0
 23
0.0
 33
0.0
 40
0.0
 40
0.0
 40
0.0
 40
0.0
 40
0.0909090909090909
 40
0.0909090909090909
 40
0.0909090909090909
 40
0.0909090909090909
 40
0.1818181818181818
 40
0.1818181818181818
 40
0.1818181818181818
 40
0.1818181818181818
 40
0.2727272727272727
 40
0.2727272727272727
 40
0.2727272727272727
 40
0.2727272727272727
 40
0.3636363636363636
 40
0.3636363636363636
 40
0.3636363636363636
 40
0.3636363636363636
 40
0.4545454545454545
 40
0.4545454545454545
 40
0.4545454545454545
 40
0.4545454545454545
 40
0.5454545454545454
 40
0.5454545454545454
 40
0.5454545454545454
 40
0.5454545454545454
 40
0.6363636363636364
 40
0.6363636363636364
 40
0.6363636363636364
 40
0.6363636363636364
 40
0.7272727272727273
 40
0.7272727272727273
 40
0.7272727272727273
 40
0.7272727272727273
 40
0.8181818181818182
 40
0.8181818181818182
 40
0.8181818181818182
 40
0.8181818181818182
 40
1.0
 40
1.0
 40
1.0
 40
1.0
 10
122.2272
 20
30.1388
 30
0.0
 10
123.4069
 20
35.1305
 30
0.0
 10
120.9695
 20
40.2735
 30
0.0
 10
116.3585
 20
42.5212
 30
0.0
 10
116.3585
 20
42.5212
 30
0.0
 10
113.4342
 20
43.9485
 30
0.0
 10
109.9154
 20
43.2254
 30
0.0
 10
107.79
 20
40.761
 30
0.0
 10
107.79
 20
40.761
 30
0.0
 10
108.2391
 20
43.8312
 30
0.0
 10
111.0465
 20
45.989
 30
0.0
 10
114.1285
 20
45.6322
 30
0.0
 10
114.1285
 20
45.6322
 30
0.0
 10
112.0498
 20
46.8663
 30
0.0
 10
109.4099
 20
46.6053
 30
0.0
 10
107.6143
 20
44.9867
 30
0.0
 10
107.6143
 20
44.9867
 30
0.0
 10
106.0038
 20
42.5185
 30
0.0
 10
105.2413
 20
39.5929
 30
0.0
 10
105.4428
 20
36.6533
 30
0.0
 10
105.4428
 20
36.6533
 30
0.0
 10
105.2848
 20
32.0933
 30
0.0
 10
107.3125
 20
27.7331
 30
0.0
 10
110.9008
 20
24.9156
 30
0.0
 10
110.9008
 20
24.9156
 30
0.0
 10
109.0746
 20
26.5671
 30
0.0
 10
108.2767
 20
29.0732
 30
0.0
 10
108.8109
 20
31.4762
 30
0.0
 10
108.8109
 20
31.4762
 30
0.0
 10
109.345
 20
33.8803
 30
0.0
 10
111.1291
 20
35.812
 30
0.0
 10
113.483
 20
36.535
 30
0.0
 10
113.483
 20
36.535
 30
0.0
 10
115.4917
 20
36.8521
 30
0.0
 10
117.5432
 20
36.3552
 30
0.0
 10
119.1846
 20
35.1541
 30
0.0
 10
119.1846
 20
35.1541
 30
0.0
 10
120.8257
 20
33.9541
 30
0.0
 10
121.9206
 20
32.1491
 30
0.0
 10
122.2272
 20
30.1388
 30
0.0
  0
SPLINE
  5
65
330
1F
100
AcDbEntity
  8
layer 1
 62
     7
370
     9
100
AcDbSpline
210
0.0
220
0.0
230
1.0
 70
    11
 71
     3
 72
   220
 73
   216
 74
     0
 42
0.0000000001
 43
0.0000000001
 12
1.0
 22
0.0
 32
0.0
 13
1.0
 23
0.0
 33
0.0
 40
0.0
 40
0.0
 40
0.0
 40
0.0
 40
0.0181818181818182
 40
0.0181818181818182
 40
0.0181818181818182
 40
0.0181818181818182
 40
0.0363636363636364
 40
0.0363636363636364
 40
0.0363636363636364
 40
0.0363636363636364
 40
0.0545454545454545
 40
0.0545454545454545
 40
0.0545454545454545
 40
0.0545454545454545
 40
0.0727272727272727
 40
0.0727272727272727
 40
0.0727272727272727
 40
0.0727272727272727
 40
0.0909090909090909
 40
0.0909090909090909
 40
0.0909090909090909
 40
0.0909090909090909
 40
0.1090909090909091
 40
0.1090909090909091
 40
0.1090909090909091
 40
0.1090909090909091
 40
0.1272727272727273
 40
0.1272727272727273
 40
0.1272727272727273
 40
0.1272727272727273
 40
0.1454545454545454
 40
0.1454545454545454
 40
0.1454545454545454
 40
0.1454545454545454
 40
0.1636363636363636
 40
0.1636363636363636
 40
0.1636363636363636
 40
0.1636363636363636
 40
0.1818181818181818
 40
0.1818181818181818
 40
0.1818181818181818
 40
0.1818181818181818
 40
0.2
 40
0.2
 40
0.2
 40
0.2
 40
0.2181818181818182
 40
0.2181818181818182
 40
0.2181818181818182
 40
0.2181818181818182
 40
0.2363636363636364
 40
0.2363636363636364
 40
0.2363636363636364
 40
0.2363636363636364
 40
0.2545454545454545
 40
0.2545454545454545
 40
0.2545454545454545
 40
0.2545454545454545
 40
0.2727272727272727
 40
0.2727272727272727
 40
0.2727272727272727
 40
0.2727272727272727
 40
0.2909090909090909
 40
0.2909090909090909
 40
0.2909090909090909
 40
0.2909090909090909
 40
0.3090909090909091
 40
0.3090909090909091
 40
0.3090909090909091
 40
0.3090909090909091
 40
0.3272727272727273
 40
0.3272727272727273
 40
0.3272727272727273
 40
0.3272727272727273
 40
0.3454545454545455
 40
0.3454545454545455
 40
0.3454545454545455
 40
0.3454545454545455
 40
0.3636363636363636
 40
0.3636363636363636
 40
0.3636363636363636
 40
0.3636363636363636
 40
0.3818181818181818
 40
0.3818181818181818
 40
0.3818181818181818
 40
0.3818181818181818
 40
0.4
 40
0.4
 40
0.4
 40
0.4
 40
0.4181818181818182
 40
0.4181818181818182
 40
0.4181818181818182
 40
0.4181818181818182
 40
0.4363636363636363
 40
0.4363636363636363
 40
0.4363636363636363
 40
0.4363636363636363
 40
0.4545454545454545
 40
0.4545454545454545
 40
0.4545454545454545
 40
0.4545454545454545
 40
0.4727272727272727
 40
0.4727272727272727
 40
0.4727272727272727
 40
0.4727272727272727
 40
0.4909090909090909
 40
0.4909090909090909
 40
0.4909090909090909
 40
0.4909090909090909
 40
0.509090909090909
 40
0.509090909090909
 40
0.509090909090909
 40
0.509090909090909
 40
0.5272727272727272
 40
0.5272727272727272
 40
0.5272727272727272
 40
0.5272727272727272
 40
0.5454545454545454
 40
0.5454545454545454
 40
0.5454545454545454
 40
0.5454545454545454
 40
0.5636363636363636
 40
0.5636363636363636
 40
0.5636363636363636
 40
0.5636363636363636
 40
0.5818181818181818
 40
0.5818181818181818
 40
0.5818181818181818
 40
0.5818181818181818
 40
0.6
 40
0.6
 40
0.6
 40
0.6
 40
0.6181818181818182
 40
0.6181818181818182
 40
0.6181818181818182
 40
0.6181818181818182
 40
0.6363636363636364
 40
0.6363636363636364
 40
0.6363636363636364
 40
0.6363636363636364
 40
0.6545454545454545
 40
0.6545454545454545
 40
0.6545454545454545
 40
0.6545454545454545
 40
0.6727272727272727
 40
0.6727272727272727
 40
0.6727272727272727
 40
0.6727272727272727
 40
0.6909090909090909
 40
0.6909090909090909
 40
0.6909090909090909
 40
0.6909090909090909
 40
0.7090909090909091
 40
0.7090909090909091
 40
0.7090909090909091
 40
0.7090909090909091
 40
0.7272727272727273
 40
0.7272727272727273
 40
0.7272727272727273
 40
0.7272727272727273
 40
0.7454545454545455
 40
0.7454545454545455
 40
0.7454545454545455
 40
0.7454545454545455
 40
0.7636363636363637
 40
0.7636363636363637
 40
0.7636363636363637
 40
0.7636363636363637
 40
0.7818181818181819
 40
0.7818181818181819
 40
0.7818181818181819
 40
0.7818181818181819
 40
0.8
 40
0.8
 40
0.8
 40
0.8
 40
0.8181818181818182
 40
0.8181818181818182
 40
0.8181818181818182
 40
0.8181818181818182
 40
0.8363636363636363
 40
0.8363636363636363
 40
0.8363636363636363
 40
0.8363636363636363
 40
0.8545454545454545
 40
0.8545454545454545
 40
0.8545454545454545
 40
0.8545454545454545
 40
0.8727272727272727
 40
0.8727272727272727
 40
0.8727272727272727
 40
0.8727272727272727
 40
0.8909090909090909
 40
0.8909090909090909
 40
0.8909090909090909
 40
0.8909090909090909
 40
0.9090909090909091
 40
0.9090909090909091
 40
0.9090909090909091
 40
0.9090909090909091
 40
0.9272727272727272
 40
0.9272727272727272
 40
0.9272727272727272
 40
0.9272727272727272
 40
0.9454545454545454
 40
0.9454545454545454
 40
0.9454545454545454
 40
0.9454545454545454
 40
0.9636363636363636
 40
0.9636363636363636
 40
0.9636363636363636
 40
0.9636363636363636
 40
1.0
 40
1.0
 40
1.0
 40
1.0
 10
102.1563
 20
29.3165
 30
0.0
 10
101.5224
 20
30.5005
 30
0.0
 10
100.3261
 20
31.2755
 30
0.0
 10
98.9868
 20
31.3713
 30
0.0
 10
98.9868
 20
31.3713
 30
0.0
 10
99.5424
 20
30.6963
 30
0.0
 10
99.6777
 20
29.7699
 30
0.0
 10
99.3399
 20
28.9653
 30
0.0
 10
99.3399
 20
28.9653
 30
0.0
 10
98.6262
 20
27.856
 30
0.0
 10
97.5
 20
27.079
 30
0.0
 10
96.2117
 20
26.8038
 30
0.0
 10
96.2117
 20
26.8038
 30
0.0
 10
94.9218
 20
26.5282
 30
0.0
 10
93.5769
 20
26.778
 30
0.0
 10
92.4734
 20
27.4973
 30
0.0
 10
92.4734
 20
27.4973
 30
0.0
 10
89.5118
 20
29.8662
 30
0.0
 10
88.4406
 20
33.8886
 30
0.0
 10
89.8319
 20
37.4152
 30
0.0
 10
89.8319
 20
37.4152
 30
0.0
 10
91.6801
 20
40.6397
 30
0.0
 10
95.7301
 20
41.8521
 30
0.0
 10
99.0453
 20
40.174
 30
0.0
 10
99.0453
 20
40.174
 30
0.0
 10
98.9812
 20
42.225
 30
0.0
 10
99.1778
 20
44.2761
 30
0.0
 10
99.6323
 20
46.2777
 30
0.0
 10
99.6323
 20
46.2777
 30
0.0
 10
94.918
 20
48.0296
 30
0.0
 10
91.0679
 20
51.5428
 30
0.0
 10
88.8929
 20
56.0781
 30
0.0
 10
88.8929
 20
56.0781
 30
0.0
 10
92.321
 20
52.3216
 30
0.0
 10
96.9471
 20
49.8743
 30
0.0
 10
101.9803
 20
49.1529
 30
0.0
 10
101.9803
 20
49.1529
 30
0.0
 10
96.9272
 20
51.6109
 30
0.0
 10
92.794
 20
55.621
 30
0.0
 10
90.1839
 20
60.5974
 30
0.0
 10
90.1839
 20
60.5974
 30
0.0
 10
87.655
 20
65.9988
 30
0.0
 10
88.5777
 20
72.3874
 30
0.0
 10
92.5319
 20
76.8535
 30
0.0
 10
92.5319
 20
76.8535
 30
0.0
 10
95.097
 20
79.9892
 30
0.0
 10
98.8731
 20
81.8879
 30
0.0
 10
102.9193
 20
82.077
 30
0.0
 10
102.9193
 20
82.077
 30
0.0
 10
98.9857
 20
81.0691
 30
0.0
 10
95.7242
 20
78.3264
 30
0.0
 10
94.0576
 20
74.6238
 30
0.0
 10
94.0576
 20
74.6238
 30
0.0
 10
91.2846
 20
69.2007
 30
0.0
 10
92.3285
 20
62.6095
 30
0.0
 10
96.6396
 20
58.3081
 30
0.0
 10
96.6396
 20
58.3081
 30
0.0
 10
101.0937
 20
54.6007
 30
0.0
 10
107.1072
 20
53.3666
 30
0.0
 10
112.6613
 20
55.0219
 30
0.0
 10
112.6613
 20
55.0219
 30
0.0
 10
110.7889
 20
56.9262
 30
0.0
 10
109.4177
 20
59.2648
 30
0.0
 10
108.6708
 20
61.8299
 30
0.0
 10
108.6708
 20
61.8299
 30
0.0
 10
108.3207
 20
64.0293
 30
0.0
 10
107.2221
 20
66.0395
 30
0.0
 10
105.5601
 20
67.5226
 30
0.0
 10
105.5601
 20
67.5226
 30
0.0
 10
103.5788
 20
68.7275
 30
0.0
 10
101.0757
 20
68.6583
 30
0.0
 10
99.1636
 20
67.3466
 30
0.0
 10
99.1636
 20
67.3466
 30
0.0
 10
98.6166
 20
66.9509
 30
0.0
 10
98.3537
 20
66.2705
 30
0.0
 10
98.4937
 20
65.6108
 30
0.0
 10
98.4937
 20
65.6108
 30
0.0
 10
98.6338
 20
64.9503
 30
0.0
 10
99.1486
 20
64.4344
 30
0.0
 10
99.8091
 20
64.2944
 30
0.0
 10
99.8091
 20
64.2944
 30
0.0
 10
100.9761
 20
64.2404
 30
0.0
 10
102.0533
 20
64.92
 30
0.0
 10
102.5086
 20
65.9969
 30
0.0
 10
102.5086
 20
65.9969
 30
0.0
 10
102.9268
 20
65.7538
 30
0.0
 10
103.2155
 20
65.3372
 30
0.0
 10
103.2949
 20
64.8612
 30
0.0
 10
103.2949
 20
64.8612
 30
0.0
 10
103.3743
 20
64.3842
 30
0.0
 10
103.2362
 20
63.8968
 30
0.0
 10
102.9193
 20
63.5313
 30
0.0
 10
102.9193
 20
63.5313
 30
0.0
 10
101.3641
 20
62.4013
 30
0.0
 10
99.228
 20
62.5234
 30
0.0
 10
97.8142
 20
63.8249
 30
0.0
 10
97.8142
 20
63.8249
 30
0.0
 10
97.1979
 20
64.3832
 30
0.0
 10
96.8526
 20
65.1783
 30
0.0
 10
96.8628
 20
66.0103
 30
0.0
 10
96.8628
 20
66.0103
 30
0.0
 10
96.8744
 20
66.8404
 30
0.0
 10
97.2424
 20
67.6267
 30
0.0
 10
97.8718
 20
68.1681
 30
0.0
 10
97.8718
 20
68.1681
 30
0.0
 10
99.389
 20
69.7904
 30
0.0
 10
101.598
 20
70.5778
 30
0.0
 10
103.7993
 20
70.2806
 30
0.0
 10
103.7993
 20
70.2806
 30
0.0
 10
107.6714
 20
69.7384
 30
0.0
 10
110.8887
 20
67.0228
 30
0.0
 10
112.0743
 20
63.2969
 30
0.0
 10
112.0743
 20
63.2969
 30
0.0
 10
112.8507
 20
60.9883
 30
0.0
 10
114.1344
 20
58.8825
 30
0.0
 10
115.8305
 20
57.1344
 30
0.0
 10
115.8305
 20
57.1344
 30
0.0
 10
114.9731
 20
59.0738
 30
0.0
 10
114.5524
 20
61.1777
 30
0.0
 10
114.598
 20
63.2969
 30
0.0
 10
114.598
 20
63.2969
 30
0.0
 10
114.3021
 20
65.0751
 30
0.0
 10
114.9197
 20
66.8828
 30
0.0
 10
116.2413
 20
68.1094
 30
0.0
 10
116.2413
 20
68.1094
 30
0.0
 10
116.8937
 20
68.6687
 30
0.0
 10
117.7844
 20
68.8638
 30
0.0
 10
118.611
 20
68.6282
 30
0.0
 10
118.611
 20
68.6282
 30
0.0
 10
119.4381
 20
68.3916
 30
0.0
 10
120.0911
 20
67.7563
 30
0.0
 10
120.3495
 20
66.9359
 30
0.0
 10
120.3495
 20
66.9359
 30
0.0
 10
120.485
 20
66.3376
 30
0.0
 10
120.3353
 20
65.712
 30
0.0
 10
119.9446
 20
65.2409
 30
0.0
 10
119.9446
 20
65.2409
 30
0.0
 10
119.5535
 20
64.7695
 30
0.0
 10
118.9659
 20
64.5063
 30
0.0
 10
118.3543
 20
64.5291
 30
0.0
 10
118.3543
 20
64.5291
 30
0.0
 10
118.4404
 20
64.9559
 30
0.0
 10
118.5783
 20
65.3694
 30
0.0
 10
118.7647
 20
65.7613
 30
0.0
 10
118.7647
 20
65.7613
 30
0.0
 10
118.5815
 20
66.1654
 30
0.0
 10
118.152
 20
66.3974
 30
0.0
 10
117.7141
 20
66.3282
 30
0.0
 10
117.7141
 20
66.3282
 30
0.0
 10
117.2766
 20
66.2601
 30
0.0
 10
116.9383
 20
65.9081
 30
0.0
 10
116.8867
 20
65.4678
 30
0.0
 10
116.8867
 20
65.4678
 30
0.0
 10
116.3051
 20
63.3071
 30
0.0
 10
116.3665
 20
61.0224
 30
0.0
 10
117.0627
 20
58.8949
 30
0.0
 10
117.0627
 20
58.8949
 30
0.0
 10
117.5754
 20
55.7007
 30
0.0
 10
119.1712
 20
52.7788
 30
0.0
 10
121.5817
 20
50.6202
 30
0.0
 10
121.5817
 20
50.6202
 30
0.0
 10
125.4938
 20
46.3241
 30
0.0
 10
126.6104
 20
40.1721
 30
0.0
 10
124.4577
 20
34.7745
 30
0.0
 10
124.4577
 20
34.7745
 30
0.0
 10
124.2909
 20
38.4202
 30
0.0
 10
123.3296
 20
41.9857
 30
0.0
 10
121.6405
 20
45.2215
 30
0.0
 10
121.6405
 20
45.2215
 30
0.0
 10
120.0251
 20
48.89
 30
0.0
 10
116.2421
 20
51.1133
 30
0.0
 10
112.2503
 20
50.7374
 30
0.0
 10
112.2503
 20
50.7374
 30
0.0
 10
108.1782
 20
50.5595
 30
0.0
 10
104.6779
 20
47.793
 30
0.0
 10
103.5648
 20
43.8717
 30
0.0
 10
103.5648
 20
43.8717
 30
0.0
 10
102.3664
 20
39.0896
 30
0.0
 10
103.0384
 20
34.0316
 30
0.0
 10
105.4428
 20
29.7273
 30
0.0
 10
105.4428
 20
29.7273
 30
0.0
 10
103.2627
 20
32.9802
 30
0.0
 10
100.5673
 20
35.8546
 30
0.0
 10
97.4611
 20
38.2378
 30
0.0
 10
97.4611
 20
38.2378
 30
0.0
 10
95.6703
 20
39.1462
 30
0.0
 10
93.4945
 20
38.7639
 30
0.0
 10
92.1212
 20
37.2988
 30
0.0
 10
92.1212
 20
37.2988
 30
0.0
 10
91.4891
 20
36.3032
 30
0.0
 10
91.294
 20
35.0908
 30
0.0
 10
91.5827
 20
33.9474
 30
0.0
 10
91.5827
 20
33.9474
 30
0.0
 10
91.8714
 20
32.8042
 30
0.0
 10
92.618
 20
31.8303
 30
0.0
 10
93.6469
 20
31.2538
 30
0.0
 10
93.6469
 20
31.2538
 30
0.0
 10
94.8383
 20
30.5251
 30
0.0
 10
96.3831
 20
30.7741
 30
0.0
 10
97.2851
 20
31.8405
 30
0.0
 10
97.2851
 20
31.8405
 30
0.0
 10
96.8317
 20
31.8151
 30
0.0
 10
96.3775
 20
31.8548
 30
0.0
 10
95.9354
 20
31.958
 30
0.0
 10
95.9354
 20
31.958
 30
0.0
 10
95.2037
 20
32.295
 30
0.0
 10
94.8185
 20
33.1071
 30
0.0
 10
95.021
 20
33.8859
 30
0.0
 10
95.021
 20
33.8859
 30
0.0
 10
95.2228
 20
34.6658
 30
0.0
 10
95.9544
 20
35.1882
 30
0.0
 10
96.7568
 20
35.1276
 30
0.0
 10
96.7568
 20
35.1276
 30
0.0
 10
99.4762
 20
34.3109
 30
0.0
 10
101.5412
 20
32.0887
 30
0.0
 10
102.1563
 20
29.3165
 30
0.0
  0
SPLINE
  5
66
330
1F
100
AcDbEntity
  8
layer 1
 62
     7
370
     9
100
AcDbSpline
210
0.0
220
0.0
230
1.0
 70
    11
 71
     3
 72
    32
 73
    28
 74
     0
 42
0.0000000001
 43
0.0000000001
 12
1.0
 22
0.0
 32
0.0
 13
1.0
 23
0.0
 33
0.0
 40
0.0
 40
0.0
 40
0.0
 40
0.0
 40
0.125
 40
0.125
 40
0.125
 40
0.125
 40
0.25
 40
0.25
 40
0.25
 40
0.25
 40
0.375
 40
0.375
 40
0.375
 40
0.375
 40
0.5
 40
0.5
 40
0.5
 40
0.5
 40
0.625
 40
0.625
 40
0.625
 40
0.625
 40
0.75
 40
0.75
 40
0.75
 40
0.75
 40
1.0
 40
1.0
 40
1.0
 40
1.0
 10
95.8766
 20
66.9359
 30
0.0
 10
95.4036
 20
69.197
 30
0.0
 10
96.3858
 20
71.5147
 30
0.0
 10
98.3413
 20
72.745
 30
0.0
 10
98.3413
 20
72.745
 30
0.0
 10
100.0543
 20
73.9443
 30
0.0
 10
101.5441
 20
75.4341
 30
0.0
 10
102.7431
 20
77.147
 30
0.0
 10
102.7431
 20
77.147
 30
0.0
 10
105.7283
 20
80.7662
 30
0.0
 10
106.4314
 20
85.7549
 30
0.0
 10
104.5626
 20
90.0585
 30
0.0
 10
104.5626
 20
90.0585
 30
0.0
 10
105.9499
 20
89.6676
 30
0.0
 10
107.1145
 20
88.7222
 30
0.0
 10
107.7814
 20
87.4443
 30
0.0
 10
107.7814
 20
87.4443
 30
0.0
 10
108.4479
 20
86.1668
 30
0.0
 10
108.5573
 20
84.6703
 30
0.0
 10
108.0838
 20
83.3093
 30
0.0
 10
108.0838
 20
83.3093
 30
0.0
 10
107.3026
 20
79.1809
 30
0.0
 10
104.9183
 20
75.5306
 30
0.0
 10
101.4524
 20
73.1558
 30
0.0
 10
101.4524
 20
73.1558
 30
0.0
 10
98.7899
 20
71.9748
 30
0.0
 10
96.7606
 20
69.7107
 30
0.0
 10
95.8766
 20
66.9359
 30
0.0
  0
SPLINE
  5
67
330
1F
100
AcDbEntity
  8
layer 1
 62
     7
370
     9
100
AcDbSpline
210
0.0
220
0.0
230
1.0
 70
    11
 71
     3
 72
    92
 73
    88
 74
     0
 42
0.0000000001
 43
0.0000000001
 12
1.0
 22
0.0
 32
0.0
 13
1.0
 23
0.0
 33
0.0
 40
0.0
 40
0.0
 40
0.0
 40
0.0
 40
0.0434782608695652
 40
0.0434782608695652
 40
0.0434782608695652
 40
0.0434782608695652
 40
0.0869565217391304
 40
0.0869565217391304
 40
0.0869565217391304
 40
0.0869565217391304
 40
0.1304347826086956
 40
0.1304347826086956
 40
0.1304347826086956
 40
0.1304347826086956
 40
0.1739130434782609
 40
0.1739130434782609
 40
0.1739130434782609
 40
0.1739130434782609
 40
0.2173913043478261
 40
0.2173913043478261
 40
0.2173913043478261
 40
0.2173913043478261
 40
0.2608695652173913
 40
0.2608695652173913
 40
0.2608695652173913
 40
0.2608695652173913
 40
0.3043478260869565
 40
0.3043478260869565
 40
0.3043478260869565
 40
0.3043478260869565
 40
0.3478260869565217
 40
0.3478260869565217
 40
0.3478260869565217
 40
0.3478260869565217
 40
0.391304347826087
 40
0.391304347826087
 40
0.391304347826087
 40
0.391304347826087
 40
0.4347826086956522
 40
0.4347826086956522
 40
0.4347826086956522
 40
0.4347826086956522
 40
0.4782608695652174
 40
0.4782608695652174
 40
0.4782608695652174
 40
0.4782608695652174
 40
0.5217391304347826
 40
0.5217391304347826
 40
0.5217391304347826
 40
0.5217391304347826
 40
0.5652173913043478
 40
0.5652173913043478
 40
0.5652173913043478
 40
0.5652173913043478
 40
0.6086956521739131
 40
0.6086956521739131
 40
0.6086956521739131
 40
0.6086956521739131
 40
0.6521739130434783
 40
0.6521739130434783
 40
0.6521739130434783
 40
0.6521739130434783
 40
0.6956521739130435
 40
0.6956521739130435
 40
0.6956521739130435
 40
0.6956521739130435
 40
0.7391304347826086
 40
0.7391304347826086
 40
0.7391304347826086
 40
0.7391304347826086
 40
0.782608695652174
 40
0.782608695652174
 40
0.782608695652174
 40
0.782608695652174
 40
0.8260869565217391
 40
0.8260869565217391
 40
0.8260869565217391
 40
0.8260869565217391
 40
0.8695652173913043
 40
0.8695652173913043
 40
0.8695652173913043
 40
0.8695652173913043
 40
0.9130434782608695
 40
0.9130434782608695
 40
0.9130434782608695
 40
0.9130434782608695
 40
1.0
 40
1.0
 40
1.0
 40
1.0
 10
97.4611
 20
85.2753
 30
0.0
 10
98.6724
 20
85.3158
 30
0.0
 10
99.8064
 20
85.8781
 30
0.0
 10
100.5721
 20
86.8168
 30
0.0
 10
100.5721
 20
86.8168
 30
0.0
 10
101.3367
 20
87.7566
 30
0.0
 10
101.6576
 20
88.9813
 30
0.0
 10
101.4524
 20
90.1757
 30
0.0
 10
101.4524
 20
90.1757
 30
0.0
 10
102.3911
 20
89.2333
 30
0.0
 10
102.8112
 20
87.8929
 30
0.0
 10
102.5775
 20
86.5831
 30
0.0
 10
102.5775
 20
86.5831
 30
0.0
 10
102.3439
 20
85.2742
 30
0.0
 10
101.4854
 20
84.1611
 30
0.0
 10
100.2786
 20
83.6028
 30
0.0
 10
100.2786
 20
83.6028
 30
0.0
 10
97.4772
 20
82.4765
 30
0.0
 10
94.2707
 20
83.4249
 30
0.0
 10
92.5319
 20
85.8912
 30
0.0
 10
92.5319
 20
85.8912
 30
0.0
 10
91.0488
 20
89.1385
 30
0.0
 10
92.0833
 20
92.982
 30
0.0
 10
94.9966
 20
95.0462
 30
0.0
 10
94.9966
 20
95.0462
 30
0.0
 10
98.9887
 20
97.3765
 30
0.0
 10
103.7596
 20
97.9707
 30
0.0
 10
108.2008
 20
96.6902
 30
0.0
 10
108.2008
 20
96.6902
 30
0.0
 10
113.7167
 20
94.7511
 30
0.0
 10
117.378
 20
89.5077
 30
0.0
 10
117.2975
 20
83.6615
 30
0.0
 10
117.2975
 20
83.6615
 30
0.0
 10
119.5758
 20
84.6942
 30
0.0
 10
122.0877
 20
85.099
 30
0.0
 10
124.5747
 20
84.835
 30
0.0
 10
124.5747
 20
84.835
 30
0.0
 10
123.8163
 20
87.3072
 30
0.0
 10
124.2165
 20
89.9904
 30
0.0
 10
125.6645
 20
92.1331
 30
0.0
 10
125.6645
 20
92.1331
 30
0.0
 10
127.1119
 20
94.2759
 30
0.0
 10
129.4513
 20
95.6493
 30
0.0
 10
132.0282
 20
95.8687
 30
0.0
 10
132.0282
 20
95.8687
 30
0.0
 10
129.9192
 20
95.1768
 30
0.0
 10
128.2269
 20
93.5821
 30
0.0
 10
127.4105
 20
91.5188
 30
0.0
 10
127.4105
 20
91.5188
 30
0.0
 10
126.5938
 20
89.4546
 30
0.0
 10
126.7376
 20
87.135
 30
0.0
 10
127.8027
 20
85.1873
 30
0.0
 10
127.8027
 20
85.1873
 30
0.0
 10
129.9267
 20
82.7888
 30
0.0
 10
132.2643
 20
80.5894
 30
0.0
 10
134.7864
 20
78.614
 30
0.0
 10
134.7864
 20
78.614
 30
0.0
 10
129.2968
 20
82.2608
 30
0.0
 10
122.2294
 20
82.5323
 30
0.0
 10
116.476
 20
79.3183
 30
0.0
 10
116.476
 20
79.3183
 30
0.0
 10
113.1681
 20
76.4382
 30
0.0
 10
111.3711
 20
72.1953
 30
0.0
 10
111.605
 20
67.8161
 30
0.0
 10
111.605
 20
67.8161
 30
0.0
 10
109.9409
 20
70.7748
 30
0.0
 10
109.4386
 20
74.2482
 30
0.0
 10
110.1965
 20
77.5578
 30
0.0
 10
110.1965
 20
77.5578
 30
0.0
 10
111.3601
 20
80.9103
 30
0.0
 10
111.6823
 20
84.498
 30
0.0
 10
111.1353
 20
88.0037
 30
0.0
 10
111.1353
 20
88.0037
 30
0.0
 10
110.6403
 20
91.3543
 30
0.0
 10
107.7128
 20
93.8027
 30
0.0
 10
104.3278
 20
93.6967
 30
0.0
 10
104.3278
 20
93.6967
 30
0.0
 10
100.908
 20
93.9854
 30
0.0
 10
97.53
 20
92.788
 30
0.0
 10
95.0551
 20
90.4105
 30
0.0
 10
95.0551
 20
90.4105
 30
0.0
 10
94.3815
 20
89.4519
 30
0.0
 10
94.2725
 20
88.2063
 30
0.0
 10
94.7702
 20
87.1455
 30
0.0
 10
94.7702
 20
87.1455
 30
0.0
 10
95.2673
 20
86.0844
 30
0.0
 10
96.2941
 20
85.3708
 30
0.0
 10
97.4611
 20
85.2753
 30
0.0
  0
SPLINE
  5
68
330
1F
100
AcDbEntity
  8
layer 1
 62
     7
370
     9
100
AcDbSpline
210
0.0
220
0.0
230
1.0
 70
    11
 71
     3
 72
    16
 73
    12
 74
     0
 42
0.0000000001
 43
0.0000000001
 12
1.0
 22
0.0
 32
0.0
 13
1.0
 23
0.0
 33
0.0
 40
0.0
 40
0.0
 40
0.0
 40
0.0
 40
0.25
 40
0.25
 40
0.25
 40
0.25
 40
0.5
 40
0.5
 40
0.5
 40
0.5
 40
1.0
 40
1.0
 40
1.0
 40
1.0
 10
111.957
 20
96.925
 30
0.0
 10
115.8976
 20
94.7009
 30
0.0
 10
118.6647
 20
90.8612
 30
0.0
 10
119.5275
 20
86.4195
 30
0.0
 10
119.5275
 20
86.4195
 30
0.0
 10
120.6706
 20
90.0955
 30
0.0
 10
119.6238
 20
94.1018
 30
0.0
 10
116.828
 20
96.749
 30
0.0
 10
116.828
 20
96.749
 30
0.0
 10
115.2046
 20
96.816
 30
0.0
 10
113.5812
 20
96.8748
 30
0.0
 10
111.957
 20
96.925
 30
0.0
  0
SPLINE
  5
69
330
1F
100
AcDbEntity
  8
layer 1
 62
     7
370
     9
100
AcDbSpline
210
0.0
220
0.0
230
1.0
 70
    11
 71
     3
 72
   104
 73
   100
 74
     0
 42
0.0000000001
 43
0.0000000001
 12
1.0
 22
0.0
 32
0.0
 13
1.0
 23
0.0
 33
0.0
 40
0.0
 40
0.0
 40
0.0
 40
0.0
 40
0.0384615384615385
 40
0.0384615384615385
 40
0.0384615384615385
 40
0.0384615384615385
 40
0.0769230769230769
 40
0.0769230769230769
 40
0.0769230769230769
 40
0.0769230769230769
 40
0.1153846153846154
 40
0.1153846153846154
 40
0.1153846153846154
 40
0.1153846153846154
 40
0.1538461538461539
 40
0.1538461538461539
 40
0.1538461538461539
 40
0.1538461538461539
 40
0.1923076923076923
 40
0.1923076923076923
 40
0.1923076923076923
 40
0.1923076923076923
 40
0.2307692307692308
 40
0.2307692307692308
 40
0.2307692307692308
 40
0.2307692307692308
 40
0.2692307692307692
 40
0.2692307692307692
 40
0.2692307692307692
 40
0.2692307692307692
 40
0.3076923076923077
 40
0.3076923076923077
 40
0.3076923076923077
 40
0.3076923076923077
 40
0.3461538461538461
 40
0.3461538461538461
 40
0.3461538461538461
 40
0.3461538461538461
 40
0.3846153846153846
 40
0.3846153846153846
 40
0.3846153846153846
 40
0.3846153846153846
 40
0.4230769230769231
 40
0.4230769230769231
 40
0.4230769230769231
 40
0.4230769230769231
 40
0.4615384615384616
 40
0.4615384615384616
 40
0.4615384615384616
 40
0.4615384615384616
 40
0.5
 40
0.5
 40
0.5
 40
0.5
 40
0.5384615384615384
 40
0.5384615384615384
 40
0.5384615384615384
 40
0.5384615384615384
 40
0.5769230769230769
 40
0.5769230769230769
 40
0.5769230769230769
 40
0.5769230769230769
 40
0.6153846153846154
 40
0.6153846153846154
 40
0.6153846153846154
 40
0.6153846153846154
 40
0.6538461538461539
 40
0.6538461538461539
 40
0.6538461538461539
 40
0.6538461538461539
 40
0.6923076923076923
 40
0.6923076923076923
 40
0.6923076923076923
 40
0.6923076923076923
 40
0.7307692307692307
 40
0.7307692307692307
 40
0.7307692307692307
 40
0.7307692307692307
 40
0.7692307692307693
 40
0.7692307692307693
 40
0.7692307692307693
 40
0.7692307692307693
 40
0.8076923076923077
 40
0.8076923076923077
 40
0.8076923076923077
 40
0.8076923076923077
 40
0.8461538461538461
 40
0.8461538461538461
 40
0.8461538461538461
 40
0.8461538461538461
 40
0.8846153846153846
 40
0.8846153846153846
 40
0.8846153846153846
 40
0.8846153846153846
 40
0.9230769230769231
 40
0.9230769230769231
 40
0.9230769230769231
 40
0.9230769230769231
 40
1.0
 40
1.0
 40
1.0
 40
1.0
 10
115.6545
 20
70.2218
 30
0.0
 10
115.3006
 20
72.8199
 30
0.0
 10
116.1428
 20
75.4378
 30
0.0
 10
117.9446
 20
77.3421
 30
0.0
 10
117.9446
 20
77.3421
 30
0.0
 10
119.7464
 20
79.2464
 30
0.0
 10
122.3139
 20
80.2326
 30
0.0
 10
124.9267
 20
80.0222
 30
0.0
 10
124.9267
 20
80.0222
 30
0.0
 10
126.7687
 20
80.1293
 30
0.0
 10
128.5413
 20
79.3067
 30
0.0
 10
129.6501
 20
77.8322
 30
0.0
 10
129.6501
 20
77.8322
 30
0.0
 10
130.7592
 20
76.3578
 30
0.0
 10
131.0567
 20
74.4269
 30
0.0
 10
130.4434
 20
72.6866
 30
0.0
 10
130.4434
 20
72.6866
 30
0.0
 10
132.0236
 20
74.2131
 30
0.0
 10
133.8485
 20
75.4625
 30
0.0
 10
135.8426
 20
76.3843
 30
0.0
 10
135.8426
 20
76.3843
 30
0.0
 10
136.3913
 20
76.5952
 30
0.0
 10
137.0132
 20
76.4589
 30
0.0
 10
137.4226
 20
76.0369
 30
0.0
 10
137.4226
 20
76.0369
 30
0.0
 10
137.8317
 20
75.6149
 30
0.0
 10
137.9492
 20
74.9892
 30
0.0
 10
137.7209
 20
74.4468
 30
0.0
 10
137.7209
 20
74.4468
 30
0.0
 10
137.2525
 20
74.5793
 30
0.0
 10
136.7502
 20
74.5085
 30
0.0
 10
136.3374
 20
74.2509
 30
0.0
 10
136.3374
 20
74.2509
 30
0.0
 10
135.9239
 20
73.9944
 30
0.0
 10
135.6382
 20
73.5762
 30
0.0
 10
135.5491
 20
73.0973
 30
0.0
 10
135.5491
 20
73.0973
 30
0.0
 10
135.4992
 20
71.9729
 30
0.0
 10
136.1694
 20
70.9422
 30
0.0
 10
137.2173
 20
70.5304
 30
0.0
 10
137.2173
 20
70.5304
 30
0.0
 10
138.2647
 20
70.1196
 30
0.0
 10
139.4578
 20
70.4198
 30
0.0
 10
140.1856
 20
71.2781
 30
0.0
 10
140.1856
 20
71.2781
 30
0.0
 10
140.9505
 20
72.3021
 30
0.0
 10
141.2346
 20
73.6073
 30
0.0
 10
140.9647
 20
74.8556
 30
0.0
 10
140.9647
 20
74.8556
 30
0.0
 10
140.6943
 20
76.105
 30
0.0
 10
139.8967
 20
77.1763
 30
0.0
 10
138.7771
 20
77.7925
 30
0.0
 10
138.7771
 20
77.7925
 30
0.0
 10
140.8408
 20
78.3567
 30
0.0
 10
142.5382
 20
79.8256
 30
0.0
 10
143.3932
 20
81.7865
 30
0.0
 10
143.3932
 20
81.7865
 30
0.0
 10
144.2482
 20
83.7476
 30
0.0
 10
144.1691
 20
85.9908
 30
0.0
 10
143.1789
 20
87.8865
 30
0.0
 10
143.1789
 20
87.8865
 30
0.0
 10
146.0728
 20
82.964
 30
0.0
 10
146.856
 20
77.08
 30
0.0
 10
145.3501
 20
71.5716
 30
0.0
 10
145.3501
 20
71.5716
 30
0.0
 10
144.7006
 20
68.2609
 30
0.0
 10
141.508
 20
66.0897
 30
0.0
 10
138.1904
 20
66.7011
 30
0.0
 10
138.1904
 20
66.7011
 30
0.0
 10
136.3787
 20
67.2567
 30
0.0
 10
134.5369
 20
67.7072
 30
0.0
 10
132.6737
 20
68.0509
 30
0.0
 10
132.6737
 20
68.0509
 30
0.0
 10
129.968
 20
68.8383
 30
0.0
 10
127.0494
 20
68.2931
 30
0.0
 10
124.8097
 20
66.5828
 30
0.0
 10
124.8097
 20
66.5828
 30
0.0
 10
122.3643
 20
64.1903
 30
0.0
 10
121.2845
 20
60.7291
 30
0.0
 10
121.934
 20
57.3691
 30
0.0
 10
121.934
 20
57.3691
 30
0.0
 10
120.7272
 20
60.0941
 30
0.0
 10
120.7063
 20
63.1973
 30
0.0
 10
121.8752
 20
65.9373
 30
0.0
 10
121.8752
 20
65.9373
 30
0.0
 10
122.8016
 20
67.7885
 30
0.0
 10
123.1879
 20
69.8631
 30
0.0
 10
122.9902
 20
71.9236
 30
0.0
 10
122.9902
 20
71.9236
 30
0.0
 10
122.9197
 20
72.8199
 30
0.0
 10
122.4676
 20
73.6414
 30
0.0
 10
121.7483
 20
74.1809
 30
0.0
 10
121.7483
 20
74.1809
 30
0.0
 10
121.0296
 20
74.7193
 30
0.0
 10
120.1139
 20
74.9238
 30
0.0
 10
119.2345
 20
74.7411
 30
0.0
 10
119.2345
 20
74.7411
 30
0.0
 10
117.0254
 20
74.4325
 30
0.0
 10
115.449
 20
72.4424
 30
0.0
 10
115.6545
 20
70.2218
 30
0.0
  0
SPLINE
  5
6A
330
1F
100
AcDbEntity
  8
layer 1
 62
     7
370
     9
100
AcDbSpline
210
0.0
220
0.0
230
1.0
 70
    11
 71
     3
 72
   128
 73
   124
 74
     0
 42
0.0000000001
 43
0.0000000001
 12
1.0
 22
0.0
 32
0.0
 13
1.0
 23
0.0
 33
0.0
 40
0.0
 40
0.0
 40
0.0
 40
0.0
 40
0.03125
 40
0.03125
 40
0.03125
 40
0.03125
 40
0.0625
 40
0.0625
 40
0.0625
 40
0.0625
 40
0.09375
 40
0.09375
 40
0.09375
 40
0.09375
 40
0.125
 40
0.125
 40
0.125
 40
0.125
 40
0.15625
 40
0.15625
 40
0.15625
 40
0.15625
 40
0.1875
 40
0.1875
 40
0.1875
 40
0.1875
 40
0.21875
 40
0.21875
 40
0.21875
 40
0.21875
 40
0.25
 40
0.25
 40
0.25
 40
0.25
 40
0.28125
 40
0.28125
 40
0.28125
 40
0.28125
 40
0.3125
 40
0.3125
 40
0.3125
 40
0.3125
 40
0.34375
 40
0.34375
 40
0.34375
 40
0.34375
 40
0.375
 40
0.375
 40
0.375
 40
0.375
 40
0.40625
 40
0.40625
 40
0.40625
 40
0.40625
 40
0.4375
 40
0.4375
 40
0.4375
 40
0.4375
 40
0.46875
 40
0.46875
 40
0.46875
 40
0.46875
 40
0.5
 40
0.5
 40
0.5
 40
0.5
 40
0.53125
 40
0.53125
 40
0.53125
 40
0.53125
 40
0.5625
 40
0.5625
 40
0.5625
 40
0.5625
 40
0.59375
 40
0.59375
 40
0.59375
 40
0.59375
 40
0.625
 40
0.625
 40
0.625
 40
0.625
 40
0.65625
 40
0.65625
 40
0.65625
 40
0.65625
 40
0.6875
 40
0.6875
 40
0.6875
 40
0.6875
 40
0.71875
 40
0.71875
 40
0.71875
 40
0.71875
 40
0.75
 40
0.75
 40
0.75
 40
0.75
 40
0.78125
 40
0.78125
 40
0.78125
 40
0.78125
 40
0.8125
 40
0.8125
 40
0.8125
 40
0.8125
 40
0.84375
 40
0.84375
 40
0.84375
 40
0.84375
 40
0.875
 40
0.875
 40
0.875
 40
0.875
 40
0.90625
 40
0.90625
 40
0.90625
 40
0.90625
 40
0.9375
 40
0.9375
 40
0.9375
 40
0.9375
 40
1.0
 40
1.0
 40
1.0
 40
1.0
 10
140.6551
 20
86.7127
 30
0.0
 10
141.1158
 20
85.4019
 30
0.0
 10
140.9111
 20
83.9491
 30
0.0
 10
140.1057
 20
82.8172
 30
0.0
 10
140.1057
 20
82.8172
 30
0.0
 10
139.3006
 20
81.6853
 30
0.0
 10
137.9951
 20
81.0152
 30
0.0
 10
136.6056
 20
81.02
 30
0.0
 10
136.6056
 20
81.02
 30
0.0
 10
134.6233
 20
81.1155
 30
0.0
 10
132.7622
 20
82.0043
 30
0.0
 10
131.4414
 20
83.4855
 30
0.0
 10
131.4414
 20
83.4855
 30
0.0
 10
130.236
 20
84.5842
 30
0.0
 10
129.5347
 20
86.1297
 30
0.0
 10
129.5015
 20
87.7614
 30
0.0
 10
129.5015
 20
87.7614
 30
0.0
 10
129.4682
 20
89.3921
 30
0.0
 10
130.1056
 20
90.9653
 30
0.0
 10
131.2652
 20
92.1122
 30
0.0
 10
131.2652
 20
92.1122
 30
0.0
 10
134.08
 20
94.9525
 30
0.0
 10
138.2199
 20
96.0324
 30
0.0
 10
142.0636
 20
94.9289
 30
0.0
 10
142.0636
 20
94.9289
 30
0.0
 10
146.8267
 20
93.5567
 30
0.0
 10
150.5508
 20
89.8331
 30
0.0
 10
151.9231
 20
85.0697
 30
0.0
 10
151.9231
 20
85.0697
 30
0.0
 10
157.1964
 20
88.0501
 30
0.0
 10
163.8856
 20
86.2472
 30
0.0
 10
166.947
 20
81.02
 30
0.0
 10
166.947
 20
81.02
 30
0.0
 10
164.0978
 20
81.9464
 30
0.0
 10
161.1713
 20
82.6139
 30
0.0
 10
158.2025
 20
83.016
 30
0.0
 10
158.2025
 20
83.016
 30
0.0
 10
157.3048
 20
83.1939
 30
0.0
 10
156.3739
 20
82.9715
 30
0.0
 10
155.6527
 20
82.4084
 30
0.0
 10
155.6527
 20
82.4084
 30
0.0
 10
154.9313
 20
81.8452
 30
0.0
 10
154.4911
 20
80.9953
 30
0.0
 10
154.4465
 20
80.0821
 30
0.0
 10
154.4465
 20
80.0821
 30
0.0
 10
154.4433
 20
79.0664
 30
0.0
 10
154.8822
 20
78.1011
 30
0.0
 10
155.6487
 20
77.4357
 30
0.0
 10
155.6487
 20
77.4357
 30
0.0
 10
156.4149
 20
76.7714
 30
0.0
 10
157.4331
 20
76.4723
 30
0.0
 10
158.4373
 20
76.6191
 30
0.0
 10
158.4373
 20
76.6191
 30
0.0
 10
158.9457
 20
76.6217
 30
0.0
 10
159.4286
 20
76.8415
 30
0.0
 10
159.7645
 20
77.2219
 30
0.0
 10
159.7645
 20
77.2219
 30
0.0
 10
160.1009
 20
77.6031
 30
0.0
 10
160.2584
 20
78.1096
 30
0.0
 10
160.1977
 20
78.614
 30
0.0
 10
160.1977
 20
78.614
 30
0.0
 10
160.1355
 20
79.109
 30
0.0
 10
159.8189
 20
79.5358
 30
0.0
 10
159.3634
 20
79.7403
 30
0.0
 10
159.3634
 20
79.7403
 30
0.0
 10
158.9076
 20
79.9439
 30
0.0
 10
158.3788
 20
79.8956
 30
0.0
 10
157.9678
 20
79.6115
 30
0.0
 10
157.9678
 20
79.6115
 30
0.0
 10
158.7356
 20
80.5467
 30
0.0
 10
160.0633
 20
80.7957
 30
0.0
 10
161.1177
 20
80.2031
 30
0.0
 10
161.1177
 20
80.2031
 30
0.0
 10
162.172
 20
79.6107
 30
0.0
 10
162.6504
 20
78.3482
 30
0.0
 10
162.252
 20
77.2058
 30
0.0
 10
162.252
 20
77.2058
 30
0.0
 10
161.4477
 20
75.2446
 30
0.0
 10
159.3097
 20
74.1884
 30
0.0
 10
157.2635
 20
74.7411
 30
0.0
 10
157.2635
 20
74.7411
 30
0.0
 10
155.1886
 20
75.0858
 30
0.0
 10
153.2999
 20
76.1439
 30
0.0
 10
151.9231
 20
77.7338
 30
0.0
 10
151.9231
 20
77.7338
 30
0.0
 10
151.376
 20
74.2756
 30
0.0
 10
150.1384
 20
70.962
 30
0.0
 10
148.2843
 20
67.9921
 30
0.0
 10
148.2843
 20
67.9921
 30
0.0
 10
145.9084
 20
63.5238
 30
0.0
 10
143.944
 20
58.8484
 30
0.0
 10
142.4156
 20
54.0244
 30
0.0
 10
142.4156
 20
54.0244
 30
0.0
 10
142.5363
 20
58.1139
 30
0.0
 10
143.4531
 20
62.1403
 30
0.0
 10
145.1153
 20
65.8786
 30
0.0
 10
145.1153
 20
65.8786
 30
0.0
 10
147.0607
 20
70.3667
 30
0.0
 10
148.2505
 20
75.1462
 30
0.0
 10
148.6363
 20
80.0222
 30
0.0
 10
148.6363
 20
80.0222
 30
0.0
 10
149.1917
 20
84.7537
 30
0.0
 10
146.8554
 20
89.3561
 30
0.0
 10
142.7094
 20
91.7015
 30
0.0
 10
142.7094
 20
91.7015
 30
0.0
 10
140.132
 20
93.2385
 30
0.0
 10
136.9085
 20
93.1931
 30
0.0
 10
134.3757
 20
91.5842
 30
0.0
 10
134.3757
 20
91.5842
 30
0.0
 10
133.3234
 20
90.6879
 30
0.0
 10
132.7225
 20
89.3722
 30
0.0
 10
132.7335
 20
87.9906
 30
0.0
 10
132.7335
 20
87.9906
 30
0.0
 10
132.745
 20
86.6086
 30
0.0
 10
133.3674
 20
85.3026
 30
0.0
 10
134.4341
 20
84.4243
 30
0.0
 10
134.4341
 20
84.4243
 30
0.0
 10
135.4657
 20
83.4893
 30
0.0
 10
136.9311
 20
83.2044
 30
0.0
 10
138.2376
 20
83.6851
 30
0.0
 10
138.2376
 20
83.6851
 30
0.0
 10
139.5442
 20
84.1659
 30
0.0
 10
140.4754
 20
85.3329
 30
0.0
 10
140.6551
 20
86.7127
 30
0.0
  0
SPLINE
  5
6B
330
1F
100
AcDbEntity
  8
layer 1
 62
     7
370
     9
100
AcDbSpline
210
0.0
220
0.0
230
1.0
 70
    11
 71
     3
 72
    88
 73
    84
 74
     0
 42
0.0000000001
 43
0.0000000001
 12
1.0
 22
0.0
 32
0.0
 13
1.0
 23
0.0
 33
0.0
 40
0.0
 40
0.0
 40
0.0
 40
0.0
 40
0.0454545454545455
 40
0.0454545454545455
 40
0.0454545454545455
 40
0.0454545454545455
 40
0.0909090909090909
 40
0.0909090909090909
 40
0.0909090909090909
 40
0.0909090909090909
 40
0.1363636363636364
 40
0.1363636363636364
 40
0.1363636363636364
 40
0.1363636363636364
 40
0.1818181818181818
 40
0.1818181818181818
 40
0.1818181818181818
 40
0.1818181818181818
 40
0.2272727272727273
 40
0.2272727272727273
 40
0.2272727272727273
 40
0.2272727272727273
 40
0.2727272727272727
 40
0.2727272727272727
 40
0.2727272727272727
 40
0.2727272727272727
 40
0.3181818181818182
 40
0.3181818181818182
 40
0.3181818181818182
 40
0.3181818181818182
 40
0.3636363636363636
 40
0.3636363636363636
 40
0.3636363636363636
 40
0.3636363636363636
 40
0.4090909090909091
 40
0.4090909090909091
 40
0.4090909090909091
 40
0.4090909090909091
 40
0.4545454545454545
 40
0.4545454545454545
 40
0.4545454545454545
 40
0.4545454545454545
 40
0.5
 40
0.5
 40
0.5
 40
0.5
 40
0.5454545454545454
 40
0.5454545454545454
 40
0.5454545454545454
 40
0.5454545454545454
 40
0.5909090909090909
 40
0.5909090909090909
 40
0.5909090909090909
 40
0.5909090909090909
 40
0.6363636363636364
 40
0.6363636363636364
 40
0.6363636363636364
 40
0.6363636363636364
 40
0.6818181818181818
 40
0.6818181818181818
 40
0.6818181818181818
 40
0.6818181818181818
 40
0.7272727272727273
 40
0.7272727272727273
 40
0.7272727272727273
 40
0.7272727272727273
 40
0.7727272727272727
 40
0.7727272727272727
 40
0.7727272727272727
 40
0.7727272727272727
 40
0.8181818181818182
 40
0.8181818181818182
 40
0.8181818181818182
 40
0.8181818181818182
 40
0.8636363636363636
 40
0.8636363636363636
 40
0.8636363636363636
 40
0.8636363636363636
 40
0.9090909090909091
 40
0.9090909090909091
 40
0.9090909090909091
 40
0.9090909090909091
 40
1.0
 40
1.0
 40
1.0
 40
1.0
 10
169.764
 20
87.7105
 30
0.0
 10
169.9534
 20
88.2111
 30
0.0
 10
170.432
 20
88.5424
 30
0.0
 10
170.9669
 20
88.5424
 30
0.0
 10
170.9669
 20
88.5424
 30
0.0
 10
171.5019
 20
88.5424
 30
0.0
 10
171.9811
 20
88.2111
 30
0.0
 10
172.1699
 20
87.7105
 30
0.0
 10
172.1699
 20
87.7105
 30
0.0
 10
172.0122
 20
87.1074
 30
0.0
 10
171.5827
 20
86.6116
 30
0.0
 10
171.0072
 20
86.3701
 30
0.0
 10
171.0072
 20
86.3701
 30
0.0
 10
170.432
 20
86.1289
 30
0.0
 10
169.7774
 20
86.1686
 30
0.0
 10
169.2357
 20
86.478
 30
0.0
 10
169.2357
 20
86.478
 30
0.0
 10
168.3587
 20
86.7326
 30
0.0
 10
167.6555
 20
87.3896
 30
0.0
 10
167.3424
 20
88.2478
 30
0.0
 10
167.3424
 20
88.2478
 30
0.0
 10
167.0293
 20
89.1055
 30
0.0
 10
167.1442
 20
90.0614
 30
0.0
 10
167.6512
 20
90.8212
 30
0.0
 10
167.6512
 20
90.8212
 30
0.0
 10
169.3921
 20
92.9755
 30
0.0
 10
171.6835
 20
94.6185
 30
0.0
 10
174.2829
 20
95.5744
 30
0.0
 10
174.2829
 20
95.5744
 30
0.0
 10
171.7603
 20
95.9739
 30
0.0
 10
169.1995
 20
96.0724
 30
0.0
 10
166.6537
 20
95.8687
 30
0.0
 10
166.6537
 20
95.8687
 30
0.0
 10
165.6957
 20
95.0443
 30
0.0
 10
164.8299
 20
94.1198
 30
0.0
 10
164.0712
 20
93.11
 30
0.0
 10
164.0712
 20
93.11
 30
0.0
 10
161.1952
 20
93.7611
 30
0.0
 10
158.2707
 20
94.1726
 30
0.0
 10
155.327
 20
94.3422
 30
0.0
 10
155.327
 20
94.3422
 30
0.0
 10
154.2271
 20
94.3194
 30
0.0
 10
153.2004
 20
93.7874
 30
0.0
 10
152.5457
 20
92.9036
 30
0.0
 10
152.5457
 20
92.9036
 30
0.0
 10
151.8911
 20
92.0197
 30
0.0
 10
151.6832
 20
90.8819
 30
0.0
 10
151.9818
 20
89.8237
 30
0.0
 10
151.9818
 20
89.8237
 30
0.0
 10
152.4293
 20
91.1016
 30
0.0
 10
153.5266
 20
92.0414
 30
0.0
 10
154.8575
 20
92.2882
 30
0.0
 10
154.8575
 20
92.2882
 30
0.0
 10
158.221
 20
93.2216
 30
0.0
 10
161.8179
 20
92.0687
 30
0.0
 10
164.0125
 20
89.3534
 30
0.0
 10
164.0125
 20
89.3534
 30
0.0
 10
162.0242
 20
89.6137
 30
0.0
 10
160.011
 20
89.1101
 30
0.0
 10
158.3785
 20
87.946
 30
0.0
 10
158.3785
 20
87.946
 30
0.0
 10
161.8085
 20
87.9015
 30
0.0
 10
165.1449
 20
86.8168
 30
0.0
 10
167.9447
 20
84.835
 30
0.0
 10
167.9447
 20
84.835
 30
0.0
 10
169.6604
 20
83.8252
 30
0.0
 10
171.8281
 20
84.0135
 30
0.0
 10
173.3437
 20
85.3045
 30
0.0
 10
173.3437
 20
85.3045
 30
0.0
 10
174.078
 20
85.7826
 30
0.0
 10
174.5483
 20
86.5746
 30
0.0
 10
174.6175
 20
87.4481
 30
0.0
 10
174.6175
 20
87.4481
 30
0.0
 10
174.6862
 20
88.3208
 30
0.0
 10
174.3457
 20
89.1774
 30
0.0
 10
173.6962
 20
89.765
 30
0.0
 10
173.6962
 20
89.765
 30
0.0
 10
172.9962
 20
90.5411
 30
0.0
 10
171.8603
 20
90.7456
 30
0.0
 10
170.9339
 20
90.261
 30
0.0
 10
170.9339
 20
90.261
 30
0.0
 10
170.0076
 20
89.7773
 30
0.0
 10
169.5263
 20
88.7278
 30
0.0
 10
169.764
 20
87.7105
 30
0.0
  0
ENDSEC
  0
SECTION
  2
OBJECTS
  0
DICTIONARY
  5
C
330
0
100
AcDbDictionary
281
     1
  3
ACAD_GROUP
350
D
  3
ACAD_LAYOUT
350
1A
  3
ACAD_MATERIAL
350
3B
  3
ACAD_MLEADERSTYLE
350
8D
  3
ACAD_MLINESTYLE
350
17
  3
ACAD_PLOTSETTINGS
350
19
  3
ACAD_PLOTSTYLENAME
350
E
  3
ACAD_TABLESTYLE
350
8C
  3
ACAD_VISUALSTYLE
350
2A
  0
DICTIONARY
  5
D
102
{ACAD_REACTORS
330
C
102
}
330
C
100
AcDbDictionary
281
     1
  0
DICTIONARY
  5
1A
102
{ACAD_REACTORS
330
C
102
}
330
C
100
AcDbDictionary
281
     1
  3
Layout1
350
1E
  3
Layout2
350
26
  3
Model
350
22
  0
DICTIONARY
  5
3B
102
{ACAD_REACTORS
330
C
102
}
330
C
100
AcDbDictionary
281
     1
  3
ByBlock
350
3D
  3
ByLayer
350
3C
  3
Global
350
3E
  0
DICTIONARY
  5
8D
102
{ACAD_REACTORS
330
C
102
}
330
C
100
AcDbDictionary
281
     1
  0
DICTIONARY
  5
17
102
{ACAD_REACTORS
330
C
102
}
330
C
100
AcDbDictionary
281
     1
  3
Standard
350
18
  0
DICTIONARY
  5
19
102
{ACAD_REACTORS
330
C
102
}
330
C
100
AcDbDictionary
281
     1
  0
ACDBDICTIONARYWDFLT
  5
E
102
{ACAD_REACTORS
330
C
102
}
330
C
100
AcDbDictionary
281
     1
  3
Normal
350
F
100
AcDbDictionaryWithDefault
340
F
  0
DICTIONARY
  5
8C
102
{ACAD_REACTORS
330
C
102
}
330
C
100
AcDbDictionary
281
     1
  0
DICTIONARY
  5
2A
102
{ACAD_REACTORS
330
C
102
}
330
C
100
AcDbDictionary
281
     1
  3
2dWireframe
350
2F
  3
3D Hidden
350
31
  3
3dWireframe
350
30
  3
Basic
350
32
  3
Brighten
350
36
  3
ColorChange
350
3A
  3
Conceptual
350
34
  3
Dim
350
35
  3
Facepattern
350
39
  3
Flat
350
2B
  3
FlatWithEdges
350
2C
  3
Gouraud
350
2D
  3
GouraudWithEdges
350
2E
  3
Linepattern
350
38
  3
Realistic
350
33
  3
Thicken
350
37
  0
LAYOUT
  5
1E
102
{ACAD_REACTORS
330
1A
102
}
330
1A
100
AcDbPlotSettings
  1

  2
none_device
  4

  6

 40
0.0
 41
0.0
 42
0.0
 43
0.0
 44
0.0
 45
0.0
 46
0.0
 47
0.0
 48
0.0
 49
0.0
140
0.0
141
0.0
142
1.0
143
1.0
 70
   688
 72
     0
 73
     0
 74
     5
  7

 75
    16
 76
     0
 77
     2
 78
   300
147
1.0
148
0.0
149
0.0
100
AcDbLayout
  1
Layout1
 70
     1
 71
     1
 10
0.0
 20
0.0
 11
12.0
 21
9.0
 12
0.0
 22
0.0
 32
0.0
 14
1.000000000000000E+20
 24
1.000000000000000E+20
 34
1.000000000000000E+20
 15
-1.000000000000000E+20
 25
-1.000000000000000E+20
 35
-1.000000000000000E+20
146
0.0
 13
0.0
 23
0.0
 33
0.0
 16
1.0
 26
0.0
 36
0.0
 17
0.0
 27
1.0
 37
0.0
 76
     0
330
1B
  0
LAYOUT
  5
26
102
{ACAD_REACTORS
330
1A
102
}
330
1A
100
AcDbPlotSettings
  1

  2
none_device
  4

  6

 40
0.0
 41
0.0
 42
0.0
 43
0.0
 44
0.0
 45
0.0
 46
0.0
 47
0.0
 48
0.0
 49
0.0
140
0.0
141
0.0
142
1.0
143
1.0
 70
   688
 72
     0
 73
     0
 74
     5
  7

 75
    16
 76
     0
 77
     2
 78
   300
147
1.0
148
0.0
149
0.0
100
AcDbLayout
  1
Layout2
 70
     1
 71
     2
 10
0.0
 20
0.0
 11
0.0
 21
0.0
 12
0.0
 22
0.0
 32
0.0
 14
0.0
 24
0.0
 34
0.0
 15
0.0
 25
0.0
 35
0.0
146
0.0
 13
0.0
 23
0.0
 33
0.0
 16
1.0
 26
0.0
 36
0.0
 17
0.0
 27
1.0
 37
0.0
 76
     0
330
23
  0
LAYOUT
  5
22
102
{ACAD_REACTORS
330
1A
102
}
330
1A
100
AcDbPlotSettings
  1

  2
none_device
  4

  6

 40
0.0
 41
0.0
 42
0.0
 43
0.0
 44
0.0
 45
0.0
 46
0.0
 47
0.0
 48
0.0
 49
0.0
140
0.0
141
0.0
142
1.0
143
1.0
 70
  1712
 72
     0
 73
     0
 74
     0
  7

 75
     0
 76
     0
 77
     2
 78
   300
147
1.0
148
0.0
149
0.0
100
AcDbLayout
  1
Model
 70
     1
 71
     0
 10
0.0
 20
0.0
 11
12.0
 21
9.0
 12
0.0
 22
0.0
 32
0.0
 14
81.5776
 24
-96.8959
 34
0.0
 15
196.2112
 25
101.7747
 35
0.0
146
0.0
 13
0.0
 23
0.0
 33
0.0
 16
1.0
 26
0.0
 36
0.0
 17
0.0
 27
1.0
 37
0.0
 76
     0
330
1F
331
29
  0
MATERIAL
  5
3D
102
{ACAD_REACTORS
330
3B
102
}
330
3B
100
AcDbMaterial
  1
ByBlock
 72
     1
 94
      127
  0
MATERIAL
  5
3C
102
{ACAD_REACTORS
330
3B
102
}
330
3B
100
AcDbMaterial
  1
ByLayer
 72
     1
 94
      127
  0
MATERIAL
  5
3E
102
{ACAD_REACTORS
330
3B
102
}
330
3B
100
AcDbMaterial
  1
Global
 72
     1
 94
      127
  0
MLINESTYLE
  5
18
102
{ACAD_REACTORS
330
17
102
}
330
17
100
AcDbMlineStyle
  2
Standard
 70
     0
  3

 62
   256
 51
90.0
 52
90.0
 71
     2
 49
0.5
 62
   256
  6
BYLAYER
 49
-0.5
 62
   256
  6
BYLAYER
  0
ACDBPLACEHOLDER
  5
F
102
{ACAD_REACTORS
330
E
102
}
330
E
  0
VISUALSTYLE
  5
2F
102
{ACAD_REACTORS
330
2A
102
}
102
{ACAD_XDICTIONARY
360
74
102
}
330
2A
100
AcDbVisualStyle
  2
2dWireframe
 70
     4
 71
     0
 72
     2
 73
     0
 90
        0
 40
-0.6
 41
-30.0
 62
     5
 63
     7
421
 16777215
 74
     1
 91
        4
 64
     7
 65
   257
 75
     1
175
     1
 42
1.0
 92
        0
 66
   257
 43
1.0
 76
     1
 77
     6
 78
     2
 67
     7
 79
     5
170
     0
171
     0
290
     0
174
     0
 93
        1
 44
0.0
173
     0
291
     0
 45
0.0
  0
VISUALSTYLE
  5
31
102
{ACAD_REACTORS
330
2A
102
}
102
{ACAD_XDICTIONARY
360
78
102
}
330
2A
100
AcDbVisualStyle
  2
3D Hidden
 70
     6
 71
     1
 72
     2
 73
     2
 90
        0
 40
-0.6
 41
-30.0
 62
     5
 63
     7
421
 16777215
 74
     2
 91
        2
 64
     7
 65
   257
 75
     2
175
     1
 42
40.0
 92
        0
 66
   257
 43
1.0
 76
     1
 77
     6
 78
     2
 67
     7
 79
     3
170
     0
171
     0
290
     0
174
     0
 93
        1
 44
0.0
173
     0
291
     0
 45
0.0
  0
VISUALSTYLE
  5
30
102
{ACAD_REACTORS
330
2A
102
}
102
{ACAD_XDICTIONARY
360
76
102
}
330
2A
100
AcDbVisualStyle
  2
3dWireframe
 70
     5
 71
     0
 72
     2
 73
     0
 90
        0
 40
-0.6
 41
-30.0
 62
     5
 63
     7
421
 16777215
 74
     1
 91
        4
 64
     7
 65
   257
 75
     1
175
     1
 42
1.0
 92
        0
 66
   257
 43
1.0
 76
     1
 77
     6
 78
     2
 67
     7
 79
     5
170
     0
171
     0
290
     0
174
     0
 93
        1
 44
0.0
173
     0
291
     0
 45
0.0
  0
VISUALSTYLE
  5
32
102
{ACAD_REACTORS
330
2A
102
}
102
{ACAD_XDICTIONARY
360
7A
102
}
330
2A
100
AcDbVisualStyle
  2
Basic
 70
     7
 71
     1
 72
     0
 73
     1
 90
        0
 40
-0.6
 41
-30.0
 62
     5
 63
     7
421
 16777215
 74
     0
 91
        4
 64
     7
 65
   257
 75
     1
175
     1
 42
1.0
 92
        8
 66
     7
 43
1.0
 76
     1
 77
     6
 78
     2
 67
     7
 79
     5
170
     0
171
     0
290
     0
174
     0
 93
        1
 44
0.0
173
     0
291
     1
 45
0.0
  0
VISUALSTYLE
  5
36
102
{ACAD_REACTORS
330
2A
102
}
102
{ACAD_XDICTIONARY
360
82
102
}
330
2A
100
AcDbVisualStyle
  2
Brighten
 70
    12
 71
     2
 72
     2
 73
     0
 90
        0
 40
-0.6
 41
-30.0
 62
     5
 63
     7
421
 16777215
 74
     1
 91
        4
 64
     7
 65
   257
 75
     1
175
     1
 42
1.0
 92
        8
 66
     7
 43
1.0
 76
     1
 77
     6
 78
     2
 67
     7
 79
     5
170
     0
171
     0
290
     0
174
     0
 93
        1
 44
50.0
173
     0
291
     1
 45
0.0
  0
VISUALSTYLE
  5
3A
102
{ACAD_REACTORS
330
2A
102
}
102
{ACAD_XDICTIONARY
360
8A
102
}
330
2A
100
AcDbVisualStyle
  2
ColorChange
 70
    16
 71
     2
 72
     2
 73
     3
 90
        0
 40
-0.6
 41
-30.0
 62
     5
 63
     8
421
  8421504
 74
     1
 91
        4
 64
     7
 65
   257
 75
     1
175
     1
 42
1.0
 92
        8
 66
     8
424
  8421504
 43
1.0
 76
     1
 77
     6
 78
     2
 67
     7
 79
     5
170
     0
171
     0
290
     0
174
     0
 93
        1
 44
0.0
173
     0
291
     1
 45
0.0
  0
VISUALSTYLE
  5
34
102
{ACAD_REACTORS
330
2A
102
}
102
{ACAD_XDICTIONARY
360
7E
102
}
330
2A
100
AcDbVisualStyle
  2
Conceptual
 70
     9
 71
     3
 72
     2
 73
     0
 90
        0
 40
-0.6
 41
-30.0
 62
     5
 63
     7
421
 16777215
 74
     2
 91
        2
 64
     7
 65
   257
 75
     1
175
     1
 42
40.0
 92
        8
 66
     7
 43
1.0
 76
     1
 77
     6
 78
     2
 67
     7
 79
     3
170
     0
171
     0
290
     0
174
     0
 93
        1
 44
0.0
173
     0
291
     0
 45
0.0
  0
VISUALSTYLE
  5
35
102
{ACAD_REACTORS
330
2A
102
}
102
{ACAD_XDICTIONARY
360
80
102
}
330
2A
100
AcDbVisualStyle
  2
Dim
 70
    11
 71
     2
 72
     2
 73
     0
 90
        0
 40
-0.6
 41
-30.0
 62
     5
 63
     7
421
 16777215
 74
     1
 91
        4
 64
     7
 65
   257
 75
     1
175
     1
 42
1.0
 92
        8
 66
     7
 43
1.0
 76
     1
 77
     6
 78
     2
 67
     7
 79
     5
170
     0
171
     0
290
     0
174
     0
 93
        1
 44
-50.0
173
     0
291
     1
 45
0.0
  0
VISUALSTYLE
  5
39
102
{ACAD_REACTORS
330
2A
102
}
102
{ACAD_XDICTIONARY
360
88
102
}
330
2A
100
AcDbVisualStyle
  2
Facepattern
 70
    15
 71
     2
 72
     2
 73
     0
 90
        0
 40
-0.6
 41
-30.0
 62
     5
 63
     7
421
 16777215
 74
     1
 91
        4
 64
     7
 65
   257
 75
     1
175
     1
 42
1.0
 92
        8
 66
     7
 43
1.0
 76
     1
 77
     6
 78
     2
 67
     7
 79
     5
170
     0
171
     0
290
     0
174
     0
 93
        1
 44
0.0
173
     0
291
     1
 45
0.0
  0
VISUALSTYLE
  5
2B
102
{ACAD_REACTORS
330
2A
102
}
102
{ACAD_XDICTIONARY
360
6C
102
}
330
2A
100
AcDbVisualStyle
  2
Flat
 70
     0
 71
     2
 72
     1
 73
     1
 90
        2
 40
-0.6
 41
30.0
 62
     5
 63
     7
421
 16777215
 74
     0
 91
        4
 64
     7
 65
   257
 75
     1
175
     1
 42
1.0
 92
        8
 66
     7
 43
1.0
 76
     1
 77
     6
 78
     2
 67
     7
 79
     5
170
     0
171
     0
290
     0
174
     0
 93
       13
 44
0.0
173
     0
291
     1
 45
0.0
  0
VISUALSTYLE
  5
2C
102
{ACAD_REACTORS
330
2A
102
}
102
{ACAD_XDICTIONARY
360
6E
102
}
330
2A
100
AcDbVisualStyle
  2
FlatWithEdges
 70
     1
 71
     2
 72
     1
 73
     1
 90
        2
 40
-0.6
 41
30.0
 62
     5
 63
     7
421
 16777215
 74
     1
 91
        4
 64
     7
 65
   257
 75
     1
175
     1
 42
1.0
 92
        0
 66
   257
 43
1.0
 76
     1
 77
     6
 78
     2
 67
     7
 79
     5
170
     0
171
     0
290
     0
174
     0
 93
       13
 44
0.0
173
     0
291
     1
 45
0.0
  0
VISUALSTYLE
  5
2D
102
{ACAD_REACTORS
330
2A
102
}
102
{ACAD_XDICTIONARY
360
70
102
}
330
2A
100
AcDbVisualStyle
  2
Gouraud
 70
     2
 71
     2
 72
     2
 73
     1
 90
        2
 40
-0.6
 41
30.0
 62
     5
 63
     7
421
 16777215
 74
     0
 91
        4
 64
     7
 65
   257
 75
     1
175
     1
 42
1.0
 92
        0
 66
     7
 43
1.0
 76
     1
 77
     6
 78
     2
 67
     7
 79
     5
170
     0
171
     0
290
     0
174
     0
 93
       13
 44
0.0
173
     0
291
     1
 45
0.0
  0
VISUALSTYLE
  5
2E
102
{ACAD_REACTORS
330
2A
102
}
102
{ACAD_XDICTIONARY
360
72
102
}
330
2A
100
AcDbVisualStyle
  2
GouraudWithEdges
 70
     3
 71
     2
 72
     2
 73
     1
 90
        2
 40
-0.6
 41
30.0
 62
     5
 63
     7
421
 16777215
 74
     1
 91
        4
 64
     7
 65
   257
 75
     1
175
     1
 42
1.0
 92
        0
 66
   257
 43
1.0
 76
     1
 77
     6
 78
     2
 67
     7
 79
     5
170
     0
171
     0
290
     0
174
     0
 93
       13
 44
0.0
173
     0
291
     1
 45
0.0
  0
VISUALSTYLE
  5
38
102
{ACAD_REACTORS
330
2A
102
}
102
{ACAD_XDICTIONARY
360
86
102
}
330
2A
100
AcDbVisualStyle
  2
Linepattern
 70
    14
 71
     2
 72
     2
 73
     0
 90
        0
 40
-0.6
 41
-30.0
 62
     5
 63
     7
421
 16777215
 74
     1
 91
        4
 64
     7
 65
   257
 75
     7
175
     7
 42
1.0
 92
        8
 66
     7
 43
1.0
 76
     1
 77
     6
 78
     2
 67
     7
 79
     5
170
     0
171
     0
290
     0
174
     0
 93
        1
 44
0.0
173
     0
291
     1
 45
0.0
  0
VISUALSTYLE
  5
33
102
{ACAD_REACTORS
330
2A
102
}
102
{ACAD_XDICTIONARY
360
7C
102
}
330
2A
100
AcDbVisualStyle
  2
Realistic
 70
     8
 71
     2
 72
     2
 73
     0
 90
        0
 40
-0.6
 41
-30.0
 62
     5
 63
     7
421
 16777215
 74
     1
 91
        0
 64
     7
 65
   257
 75
     1
175
     1
 42
1.0
 92
        8
 66
     8
424
  7895160
 43
1.0
 76
     1
 77
     6
 78
     2
 67
     7
 79
     5
170
     0
171
     0
290
     0
174
     0
 93
       13
 44
0.0
173
     0
291
     0
 45
0.0
  0
VISUALSTYLE
  5
37
102
{ACAD_REACTORS
330
2A
102
}
102
{ACAD_XDICTIONARY
360
84
102
}
330
2A
100
AcDbVisualStyle
  2
Thicken
 70
    13
 71
     2
 72
     2
 73
     0
 90
        0
 40
-0.6
 41
-30.0
 62
     5
 63
     7
421
 16777215
 74
     1
 91
        4
 64
     7
 65
   257
 75
     1
175
     1
 42
1.0
 92
       12
 66
     7
 43
1.0
 76
     1
 77
     6
 78
     2
 67
     7
 79
     5
170
     0
171
     0
290
     0
174
     0
 93
        1
 44
0.0
173
     0
291
     1
 45
0.0
  0
DICTIONARY
  5
74
330
2F
100
AcDbDictionary
280
     1
281
     1
  3
ACAD_XREC_ROUNDTRIP
360
75
  0
DICTIONARY
  5
78
330
31
100
AcDbDictionary
280
     1
281
     1
  3
ACAD_XREC_ROUNDTRIP
360
79
  0
DICTIONARY
  5
76
330
30
100
AcDbDictionary
280
     1
281
     1
  3
ACAD_XREC_ROUNDTRIP
360
77
  0
DICTIONARY
  5
7A
330
32
100
AcDbDictionary
280
     1
281
     1
  3
ACAD_XREC_ROUNDTRIP
360
7B
  0
DICTIONARY
  5
82
330
36
100
AcDbDictionary
280
     1
281
     1
  3
ACAD_XREC_ROUNDTRIP
360
83
  0
DICTIONARY
  5
8A
330
3A
100
AcDbDictionary
280
     1
281
     1
  3
ACAD_XREC_ROUNDTRIP
360
8B
  0
DICTIONARY
  5
7E
330
34
100
AcDbDictionary
280
     1
281
     1
  3
ACAD_XREC_ROUNDTRIP
360
7F
  0
DICTIONARY
  5
80
330
35
100
AcDbDictionary
280
     1
281
     1
  3
ACAD_XREC_ROUNDTRIP
360
81
  0
DICTIONARY
  5
88
330
39
100
AcDbDictionary
280
     1
281
     1
  3
ACAD_XREC_ROUNDTRIP
360
89
  0
DICTIONARY
  5
6C
330
2B
100
AcDbDictionary
280
     1
281
     1
  3
ACAD_XREC_ROUNDTRIP
360
6D
  0
DICTIONARY
  5
6E
330
2C
100
AcDbDictionary
280
     1
281
     1
  3
ACAD_XREC_ROUNDTRIP
360
6F
  0
DICTIONARY
  5
70
330
2D
100
AcDbDictionary
280
     1
281
     1
  3
ACAD_XREC_ROUNDTRIP
360
71
  0
DICTIONARY
  5
72
330
2E
100
AcDbDictionary
280
     1
281
     1
  3
ACAD_XREC_ROUNDTRIP
360
73
  0
DICTIONARY
  5
86
330
38
100
AcDbDictionary
280
     1
281
     1
  3
ACAD_XREC_ROUNDTRIP
360
87
  0
DICTIONARY
  5
7C
330
33
100
AcDbDictionary
280
     1
281
     1
  3
ACAD_XREC_ROUNDTRIP
360
7D
  0
DICTIONARY
  5
84
330
37
100
AcDbDictionary
280
     1
281
     1
  3
ACAD_XREC_ROUNDTRIP
360
85
  0
XRECORD
  5
75
102
{ACAD_REACTORS
330
74
102
}
330
74
100
AcDbXrecord
280
     1
102
RTVSPropertyOp0
 70
     1
102
RTVSPropertyOp1
 70
     1
102
RTVSPropertyOp2
 70
     1
102
RTVSPropertyOp3
 70
     1
102
RTVSPropertyOp4
 70
     1
102
RTVSPropertyOp5
 70
     1
102
RTVSPropertyOp6
 70
     1
102
RTVSPropertyOp7
 70
     1
102
RTVSPropertyOp8
 70
     1
102
RTVSPropertyOp9
 70
     1
102
RTVSPropertyOp10
 70
     1
102
RTVSPropertyOp11
 70
     1
102
RTVSPropertyOp12
 70
     1
102
RTVSPropertyOp13
 70
     1
102
RTVSPropertyOp14
 70
     1
102
RTVSPropertyOp15
 70
     1
102
RTVSPropertyOp16
 70
     1
102
RTVSPropertyOp17
 70
     1
102
RTVSPropertyOp18
 70
     1
102
RTVSPropertyOp19
 70
     1
102
RTVSPropertyOp20
 70
     1
102
RTVSPropertyOp21
 70
     1
102
RTVSPropertyOp22
 70
     1
102
RTVSPropertyOp23
 70
     1
102
RTVSPropertyOp24
 70
     1
102
RTVSPropertyOp25
 70
     1
102
RTVSPropertyOp26
 70
     1
102
RTVSPropertyOp27
 70
     1
102
RTVSPropertyOp28
 70
     1
102
RTVSPropertyOp29
 70
     1
102
RTVSPropertyOp30
 70
     1
102
RTVSPropertyOp31
 70
     1
102
RTVSPropertyOp32
 70
     1
  0
XRECORD
  5
79
102
{ACAD_REACTORS
330
78
102
}
330
78
100
AcDbXrecord
280
     1
102
RTVSPropertyOp0
 70
     1
102
RTVSPropertyOp1
 70
     1
102
RTVSPropertyOp2
 70
     1
102
RTVSPropertyOp3
 70
     1
102
RTVSPropertyOp4
 70
     1
102
RTVSPropertyOp5
 70
     1
102
RTVSPropertyOp6
 70
     1
102
RTVSPropertyOp7
 70
     1
102
RTVSPropertyOp8
 70
     1
102
RTVSPropertyOp9
 70
     1
102
RTVSPropertyOp10
 70
     1
102
RTVSPropertyOp11
 70
     1
102
RTVSPropertyOp12
 70
     1
102
RTVSPropertyOp13
 70
     1
102
RTVSPropertyOp14
 70
     1
102
RTVSPropertyOp15
 70
     1
102
RTVSPropertyOp16
 70
     1
102
RTVSPropertyOp17
 70
     1
102
RTVSPropertyOp18
 70
     1
102
RTVSPropertyOp19
 70
     1
102
RTVSPropertyOp20
 70
     1
102
RTVSPropertyOp21
 70
     1
102
RTVSPropertyOp22
 70
     1
102
RTVSPropertyOp23
 70
     1
102
RTVSPropertyOp24
 70
     1
102
RTVSPropertyOp25
 70
     1
102
RTVSPropertyOp26
 70
     1
102
RTVSPropertyOp27
 70
     1
102
RTVSPropertyOp28
 70
     1
102
RTVSPropertyOp29
 70
     1
102
RTVSPropertyOp30
 70
     1
102
RTVSPropertyOp31
 70
     1
102
RTVSPropertyOp32
 70
     1
  0
XRECORD
  5
77
102
{ACAD_REACTORS
330
76
102
}
330
76
100
AcDbXrecord
280
     1
102
RTVSPropertyOp0
 70
     1
102
RTVSPropertyOp1
 70
     1
102
RTVSPropertyOp2
 70
     1
102
RTVSPropertyOp3
 70
     1
102
RTVSPropertyOp4
 70
     1
102
RTVSPropertyOp5
 70
     1
102
RTVSPropertyOp6
 70
     1
102
RTVSPropertyOp7
 70
     1
102
RTVSPropertyOp8
 70
     1
102
RTVSPropertyOp9
 70
     1
102
RTVSPropertyOp10
 70
     1
102
RTVSPropertyOp11
 70
     1
102
RTVSPropertyOp12
 70
     1
102
RTVSPropertyOp13
 70
     1
102
RTVSPropertyOp14
 70
     1
102
RTVSPropertyOp15
 70
     1
102
RTVSPropertyOp16
 70
     1
102
RTVSPropertyOp17
 70
     1
102
RTVSPropertyOp18
 70
     1
102
RTVSPropertyOp19
 70
     1
102
RTVSPropertyOp20
 70
     1
102
RTVSPropertyOp21
 70
     1
102
RTVSPropertyOp22
 70
     1
102
RTVSPropertyOp23
 70
     1
102
RTVSPropertyOp24
 70
     1
102
RTVSPropertyOp25
 70
     1
102
RTVSPropertyOp26
 70
     1
102
RTVSPropertyOp27
 70
     1
102
RTVSPropertyOp28
 70
     1
102
RTVSPropertyOp29
 70
     1
102
RTVSPropertyOp30
 70
     1
102
RTVSPropertyOp31
 70
     1
102
RTVSPropertyOp32
 70
     1
  0
XRECORD
  5
7B
102
{ACAD_REACTORS
330
7A
102
}
330
7A
100
AcDbXrecord
280
     1
102
RTVSPropertyOp0
 70
     1
102
RTVSPropertyOp1
 70
     1
102
RTVSPropertyOp2
 70
     1
102
RTVSPropertyOp3
 70
     1
102
RTVSPropertyOp4
 70
     1
102
RTVSPropertyOp5
 70
     1
102
RTVSPropertyOp6
 70
     1
102
RTVSPropertyOp7
 70
     1
102
RTVSPropertyOp8
 70
     1
102
RTVSPropertyOp9
 70
     1
102
RTVSPropertyOp10
 70
     1
102
RTVSPropertyOp11
 70
     1
102
RTVSPropertyOp12
 70
     1
102
RTVSPropertyOp13
 70
     1
102
RTVSPropertyOp14
 70
     1
102
RTVSPropertyOp15
 70
     1
102
RTVSPropertyOp16
 70
     1
102
RTVSPropertyOp17
 70
     1
102
RTVSPropertyOp18
 70
     1
102
RTVSPropertyOp19
 70
     1
102
RTVSPropertyOp20
 70
     1
102
RTVSPropertyOp21
 70
     1
102
RTVSPropertyOp22
 70
     1
102
RTVSPropertyOp23
 70
     1
102
RTVSPropertyOp24
 70
     1
102
RTVSPropertyOp25
 70
     1
102
RTVSPropertyOp26
 70
     1
102
RTVSPropertyOp27
 70
     1
102
RTVSPropertyOp28
 70
     1
102
RTVSPropertyOp29
 70
     1
102
RTVSPropertyOp30
 70
     1
102
RTVSPropertyOp31
 70
     1
102
RTVSPropertyOp32
 70
     1
  0
XRECORD
  5
83
102
{ACAD_REACTORS
330
82
102
}
330
82
100
AcDbXrecord
280
     1
102
RTVSPropertyOp0
 70
     1
102
RTVSPropertyOp1
 70
     1
102
RTVSPropertyOp2
 70
     1
102
RTVSPropertyOp3
 70
     1
102
RTVSPropertyOp4
 70
     1
102
RTVSPropertyOp5
 70
     1
102
RTVSPropertyOp6
 70
     1
102
RTVSPropertyOp7
 70
     1
102
RTVSPropertyOp8
 70
     1
102
RTVSPropertyOp9
 70
     1
102
RTVSPropertyOp10
 70
     1
102
RTVSPropertyOp11
 70
     1
102
RTVSPropertyOp12
 70
     1
102
RTVSPropertyOp13
 70
     1
102
RTVSPropertyOp14
 70
     1
102
RTVSPropertyOp15
 70
     1
102
RTVSPropertyOp16
 70
     1
102
RTVSPropertyOp17
 70
     1
102
RTVSPropertyOp18
 70
     1
102
RTVSPropertyOp19
 70
     1
102
RTVSPropertyOp20
 70
     1
102
RTVSPropertyOp21
 70
     1
102
RTVSPropertyOp22
 70
     1
102
RTVSPropertyOp23
 70
     1
102
RTVSPropertyOp24
 70
     1
102
RTVSPropertyOp25
 70
     1
102
RTVSPropertyOp26
 70
     1
102
RTVSPropertyOp27
 70
     1
102
RTVSPropertyOp28
 70
     1
102
RTVSPropertyOp29
 70
     1
102
RTVSPropertyOp30
 70
     1
102
RTVSPropertyOp31
 70
     1
102
RTVSPropertyOp32
 70
     1
  0
XRECORD
  5
8B
102
{ACAD_REACTORS
330
8A
102
}
330
8A
100
AcDbXrecord
280
     1
102
RTVSPropertyOp0
 70
     1
102
RTVSPropertyOp1
 70
     1
102
RTVSPropertyOp2
 70
     1
102
RTVSPropertyOp3
 70
     1
102
RTVSPropertyOp4
 70
     1
102
RTVSPropertyOp5
 70
     1
102
RTVSPropertyOp6
 70
     1
102
RTVSPropertyOp7
 70
     1
102
RTVSPropertyOp8
 70
     1
102
RTVSPropertyOp9
 70
     1
102
RTVSPropertyOp10
 70
     1
102
RTVSPropertyOp11
 70
     1
102
RTVSPropertyOp12
 70
     1
102
RTVSPropertyOp13
 70
     1
102
RTVSPropertyOp14
 70
     1
102
RTVSPropertyOp15
 70
     1
102
RTVSPropertyOp16
 70
     1
102
RTVSPropertyOp17
 70
     1
102
RTVSPropertyOp18
 70
     1
102
RTVSPropertyOp19
 70
     1
102
RTVSPropertyOp20
 70
     1
102
RTVSPropertyOp21
 70
     1
102
RTVSPropertyOp22
 70
     1
102
RTVSPropertyOp23
 70
     1
102
RTVSPropertyOp24
 70
     1
102
RTVSPropertyOp25
 70
     1
102
RTVSPropertyOp26
 70
     1
102
RTVSPropertyOp27
 70
     1
102
RTVSPropertyOp28
 70
     1
102
RTVSPropertyOp29
 70
     1
102
RTVSPropertyOp30
 70
     1
102
RTVSPropertyOp31
 70
     1
102
RTVSPropertyOp32
 70
     1
  0
XRECORD
  5
7F
102
{ACAD_REACTORS
330
7E
102
}
330
7E
100
AcDbXrecord
280
     1
102
RTVSPropertyOp0
 70
     1
102
RTVSPropertyOp1
 70
     1
102
RTVSPropertyOp2
 70
     1
102
RTVSPropertyOp3
 70
     1
102
RTVSPropertyOp4
 70
     1
102
RTVSPropertyOp5
 70
     1
102
RTVSPropertyOp6
 70
     1
102
RTVSPropertyOp7
 70
     1
102
RTVSPropertyOp8
 70
     1
102
RTVSPropertyOp9
 70
     1
102
RTVSPropertyOp10
 70
     1
102
RTVSPropertyOp11
 70
     1
102
RTVSPropertyOp12
 70
     1
102
RTVSPropertyOp13
 70
     1
102
RTVSPropertyOp14
 70
     1
102
RTVSPropertyOp15
 70
     1
102
RTVSPropertyOp16
 70
     1
102
RTVSPropertyOp17
 70
     1
102
RTVSPropertyOp18
 70
     1
102
RTVSPropertyOp19
 70
     1
102
RTVSPropertyOp20
 70
     1
102
RTVSPropertyOp21
 70
     1
102
RTVSPropertyOp22
 70
     1
102
RTVSPropertyOp23
 70
     1
102
RTVSPropertyOp24
 70
     1
102
RTVSPropertyOp25
 70
     1
102
RTVSPropertyOp26
 70
     1
102
RTVSPropertyOp27
 70
     1
102
RTVSPropertyOp28
 70
     1
102
RTVSPropertyOp29
 70
     1
102
RTVSPropertyOp30
 70
     1
102
RTVSPropertyOp31
 70
     1
102
RTVSPropertyOp32
 70
     1
  0
XRECORD
  5
81
102
{ACAD_REACTORS
330
80
102
}
330
80
100
AcDbXrecord
280
     1
102
RTVSPropertyOp0
 70
     1
102
RTVSPropertyOp1
 70
     1
102
RTVSPropertyOp2
 70
     1
102
RTVSPropertyOp3
 70
     1
102
RTVSPropertyOp4
 70
     1
102
RTVSPropertyOp5
 70
     1
102
RTVSPropertyOp6
 70
     1
102
RTVSPropertyOp7
 70
     1
102
RTVSPropertyOp8
 70
     1
102
RTVSPropertyOp9
 70
     1
102
RTVSPropertyOp10
 70
     1
102
RTVSPropertyOp11
 70
     1
102
RTVSPropertyOp12
 70
     1
102
RTVSPropertyOp13
 70
     1
102
RTVSPropertyOp14
 70
     1
102
RTVSPropertyOp15
 70
     1
102
RTVSPropertyOp16
 70
     1
102
RTVSPropertyOp17
 70
     1
102
RTVSPropertyOp18
 70
     1
102
RTVSPropertyOp19
 70
     1
102
RTVSPropertyOp20
 70
     1
102
RTVSPropertyOp21
 70
     1
102
RTVSPropertyOp22
 70
     1
102
RTVSPropertyOp23
 70
     1
102
RTVSPropertyOp24
 70
     1
102
RTVSPropertyOp25
 70
     1
102
RTVSPropertyOp26
 70
     1
102
RTVSPropertyOp27
 70
     1
102
RTVSPropertyOp28
 70
     1
102
RTVSPropertyOp29
 70
     1
102
RTVSPropertyOp30
 70
     1
102
RTVSPropertyOp31
 70
     1
102
RTVSPropertyOp32
 70
     1
  0
XRECORD
  5
89
102
{ACAD_REACTORS
330
88
102
}
330
88
100
AcDbXrecord
280
     1
102
RTVSPropertyOp0
 70
     1
102
RTVSPropertyOp1
 70
     1
102
RTVSPropertyOp2
 70
     1
102
RTVSPropertyOp3
 70
     1
102
RTVSPropertyOp4
 70
     1
102
RTVSPropertyOp5
 70
     1
102
RTVSPropertyOp6
 70
     1
102
RTVSPropertyOp7
 70
     1
102
RTVSPropertyOp8
 70
     1
102
RTVSPropertyOp9
 70
     1
102
RTVSPropertyOp10
 70
     1
102
RTVSPropertyOp11
 70
     1
102
RTVSPropertyOp12
 70
     1
102
RTVSPropertyOp13
 70
     1
102
RTVSPropertyOp14
 70
     1
102
RTVSPropertyOp15
 70
     1
102
RTVSPropertyOp16
 70
     1
102
RTVSPropertyOp17
 70
     1
102
RTVSPropertyOp18
 70
     1
102
RTVSPropertyOp19
 70
     1
102
RTVSPropertyOp20
 70
     1
102
RTVSPropertyOp21
 70
     1
102
RTVSPropertyOp22
 70
     1
102
RTVSPropertyOp23
 70
     1
102
RTVSPropertyOp24
 70
     1
102
RTVSPropertyOp25
 70
     1
102
RTVSPropertyOp26
 70
     1
102
RTVSPropertyOp27
 70
     1
102
RTVSPropertyOp28
 70
     1
102
RTVSPropertyOp29
 70
     1
102
RTVSPropertyOp30
 70
     1
102
RTVSPropertyOp31
 70
     1
102
RTVSPropertyOp32
 70
     1
  0
XRECORD
  5
6D
102
{ACAD_REACTORS
330
6C
102
}
330
6C
100
AcDbXrecord
280
     1
102
RTVSPropertyOp0
 70
     1
102
RTVSPropertyOp1
 70
     1
102
RTVSPropertyOp2
 70
     1
102
RTVSPropertyOp3
 70
     1
102
RTVSPropertyOp4
 70
     1
102
RTVSPropertyOp5
 70
     1
102
RTVSPropertyOp6
 70
     1
102
RTVSPropertyOp7
 70
     1
102
RTVSPropertyOp8
 70
     1
102
RTVSPropertyOp9
 70
     1
102
RTVSPropertyOp10
 70
     1
102
RTVSPropertyOp11
 70
     1
102
RTVSPropertyOp12
 70
     1
102
RTVSPropertyOp13
 70
     1
102
RTVSPropertyOp14
 70
     1
102
RTVSPropertyOp15
 70
     1
102
RTVSPropertyOp16
 70
     1
102
RTVSPropertyOp17
 70
     1
102
RTVSPropertyOp18
 70
     1
102
RTVSPropertyOp19
 70
     1
102
RTVSPropertyOp20
 70
     1
102
RTVSPropertyOp21
 70
     1
102
RTVSPropertyOp22
 70
     1
102
RTVSPropertyOp23
 70
     1
102
RTVSPropertyOp24
 70
     1
102
RTVSPropertyOp25
 70
     1
102
RTVSPropertyOp26
 70
     1
102
RTVSPropertyOp27
 70
     1
102
RTVSPropertyOp28
 70
     1
102
RTVSPropertyOp29
 70
     1
102
RTVSPropertyOp30
 70
     1
102
RTVSPropertyOp31
 70
     1
102
RTVSPropertyOp32
 70
     1
  0
XRECORD
  5
6F
102
{ACAD_REACTORS
330
6E
102
}
330
6E
100
AcDbXrecord
280
     1
102
RTVSPropertyOp0
 70
     1
102
RTVSPropertyOp1
 70
     1
102
RTVSPropertyOp2
 70
     1
102
RTVSPropertyOp3
 70
     1
102
RTVSPropertyOp4
 70
     1
102
RTVSPropertyOp5
 70
     1
102
RTVSPropertyOp6
 70
     1
102
RTVSPropertyOp7
 70
     1
102
RTVSPropertyOp8
 70
     1
102
RTVSPropertyOp9
 70
     1
102
RTVSPropertyOp10
 70
     1
102
RTVSPropertyOp11
 70
     1
102
RTVSPropertyOp12
 70
     1
102
RTVSPropertyOp13
 70
     1
102
RTVSPropertyOp14
 70
     1
102
RTVSPropertyOp15
 70
     1
102
RTVSPropertyOp16
 70
     1
102
RTVSPropertyOp17
 70
     1
102
RTVSPropertyOp18
 70
     1
102
RTVSPropertyOp19
 70
     1
102
RTVSPropertyOp20
 70
     1
102
RTVSPropertyOp21
 70
     1
102
RTVSPropertyOp22
 70
     1
102
RTVSPropertyOp23
 70
     1
102
RTVSPropertyOp24
 70
     1
102
RTVSPropertyOp25
 70
     1
102
RTVSPropertyOp26
 70
     1
102
RTVSPropertyOp27
 70
     1
102
RTVSPropertyOp28
 70
     1
102
RTVSPropertyOp29
 70
     1
102
RTVSPropertyOp30
 70
     1
102
RTVSPropertyOp31
 70
     1
102
RTVSPropertyOp32
 70
     1
  0
XRECORD
  5
71
102
{ACAD_REACTORS
330
70
102
}
330
70
100
AcDbXrecord
280
     1
102
RTVSPropertyOp0
 70
     1
102
RTVSPropertyOp1
 70
     1
102
RTVSPropertyOp2
 70
     1
102
RTVSPropertyOp3
 70
     1
102
RTVSPropertyOp4
 70
     1
102
RTVSPropertyOp5
 70
     1
102
RTVSPropertyOp6
 70
     1
102
RTVSPropertyOp7
 70
     1
102
RTVSPropertyOp8
 70
     1
102
RTVSPropertyOp9
 70
     1
102
RTVSPropertyOp10
 70
     1
102
RTVSPropertyOp11
 70
     1
102
RTVSPropertyOp12
 70
     1
102
RTVSPropertyOp13
 70
     1
102
RTVSPropertyOp14
 70
     1
102
RTVSPropertyOp15
 70
     1
102
RTVSPropertyOp16
 70
     1
102
RTVSPropertyOp17
 70
     1
102
RTVSPropertyOp18
 70
     1
102
RTVSPropertyOp19
 70
     1
102
RTVSPropertyOp20
 70
     1
102
RTVSPropertyOp21
 70
     1
102
RTVSPropertyOp22
 70
     1
102
RTVSPropertyOp23
 70
     1
102
RTVSPropertyOp24
 70
     1
102
RTVSPropertyOp25
 70
     1
102
RTVSPropertyOp26
 70
     1
102
RTVSPropertyOp27
 70
     1
102
RTVSPropertyOp28
 70
     1
102
RTVSPropertyOp29
 70
     1
102
RTVSPropertyOp30
 70
     1
102
RTVSPropertyOp31
 70
     1
102
RTVSPropertyOp32
 70
     1
  0
XRECORD
  5
73
102
{ACAD_REACTORS
330
72
102
}
330
72
100
AcDbXrecord
280
     1
102
RTVSPropertyOp0
 70
     1
102
RTVSPropertyOp1
 70
     1
102
RTVSPropertyOp2
 70
     1
102
RTVSPropertyOp3
 70
     1
102
RTVSPropertyOp4
 70
     1
102
RTVSPropertyOp5
 70
     1
102
RTVSPropertyOp6
 70
     1
102
RTVSPropertyOp7
 70
     1
102
RTVSPropertyOp8
 70
     1
102
RTVSPropertyOp9
 70
     1
102
RTVSPropertyOp10
 70
     1
102
RTVSPropertyOp11
 70
     1
102
RTVSPropertyOp12
 70
     1
102
RTVSPropertyOp13
 70
     1
102
RTVSPropertyOp14
 70
     1
102
RTVSPropertyOp15
 70
     1
102
RTVSPropertyOp16
 70
     1
102
RTVSPropertyOp17
 70
     1
102
RTVSPropertyOp18
 70
     1
102
RTVSPropertyOp19
 70
     1
102
RTVSPropertyOp20
 70
     1
102
RTVSPropertyOp21
 70
     1
102
RTVSPropertyOp22
 70
     1
102
RTVSPropertyOp23
 70
     1
102
RTVSPropertyOp24
 70
     1
102
RTVSPropertyOp25
 70
     1
102
RTVSPropertyOp26
 70
     1
102
RTVSPropertyOp27
 70
     1
102
RTVSPropertyOp28
 70
     1
102
RTVSPropertyOp29
 70
     1
102
RTVSPropertyOp30
 70
     1
102
RTVSPropertyOp31
 70
     1
102
RTVSPropertyOp32
 70
     1
  0
XRECORD
  5
87
102
{ACAD_REACTORS
330
86
102
}
330
86
100
AcDbXrecord
280
     1
102
RTVSPropertyOp0
 70
     1
102
RTVSPropertyOp1
 70
     1
102
RTVSPropertyOp2
 70
     1
102
RTVSPropertyOp3
 70
     1
102
RTVSPropertyOp4
 70
     1
102
RTVSPropertyOp5
 70
     1
102
RTVSPropertyOp6
 70
     1
102
RTVSPropertyOp7
 70
     1
102
RTVSPropertyOp8
 70
     1
102
RTVSPropertyOp9
 70
     1
102
RTVSPropertyOp10
 70
     1
102
RTVSPropertyOp11
 70
     1
102
RTVSPropertyOp12
 70
     1
102
RTVSPropertyOp13
 70
     1
102
RTVSPropertyOp14
 70
     1
102
RTVSPropertyOp15
 70
     1
102
RTVSPropertyOp16
 70
     1
102
RTVSPropertyOp17
 70
     1
102
RTVSPropertyOp18
 70
     1
102
RTVSPropertyOp19
 70
     1
102
RTVSPropertyOp20
 70
     1
102
RTVSPropertyOp21
 70
     1
102
RTVSPropertyOp22
 70
     1
102
RTVSPropertyOp23
 70
     1
102
RTVSPropertyOp24
 70
     1
102
RTVSPropertyOp25
 70
     1
102
RTVSPropertyOp26
 70
     1
102
RTVSPropertyOp27
 70
     1
102
RTVSPropertyOp28
 70
     1
102
RTVSPropertyOp29
 70
     1
102
RTVSPropertyOp30
 70
     1
102
RTVSPropertyOp31
 70
     1
102
RTVSPropertyOp32
 70
     1
  0
XRECORD
  5
7D
102
{ACAD_REACTORS
330
7C
102
}
330
7C
100
AcDbXrecord
280
     1
102
RTVSPropertyOp0
 70
     1
102
RTVSPropertyOp1
 70
     1
102
RTVSPropertyOp2
 70
     1
102
RTVSPropertyOp3
 70
     1
102
RTVSPropertyOp4
 70
     1
102
RTVSPropertyOp5
 70
     1
102
RTVSPropertyOp6
 70
     1
102
RTVSPropertyOp7
 70
     1
102
RTVSPropertyOp8
 70
     1
102
RTVSPropertyOp9
 70
     1
102
RTVSPropertyOp10
 70
     1
102
RTVSPropertyOp11
 70
     1
102
RTVSPropertyOp12
 70
     1
102
RTVSPropertyOp13
 70
     1
102
RTVSPropertyOp14
 70
     1
102
RTVSPropertyOp15
 70
     1
102
RTVSPropertyOp16
 70
     1
102
RTVSPropertyOp17
 70
     1
102
RTVSPropertyOp18
 70
     1
102
RTVSPropertyOp19
 70
     1
102
RTVSPropertyOp20
 70
     1
102
RTVSPropertyOp21
 70
     1
102
RTVSPropertyOp22
 70
     1
102
RTVSPropertyOp23
 70
     1
102
RTVSPropertyOp24
 70
     1
102
RTVSPropertyOp25
 70
     1
102
RTVSPropertyOp26
 70
     1
102
RTVSPropertyOp27
 70
     1
102
RTVSPropertyOp28
 70
     1
102
RTVSPropertyOp29
 70
     1
102
RTVSPropertyOp30
 70
     1
102
RTVSPropertyOp31
 70
     1
102
RTVSPropertyOp32
 70
     1
  0
XRECORD
  5
85
102
{ACAD_REACTORS
330
84
102
}
330
84
100
AcDbXrecord
280
     1
102
RTVSPropertyOp0
 70
     1
102
RTVSPropertyOp1
 70
     1
102
RTVSPropertyOp2
 70
     1
102
RTVSPropertyOp3
 70
     1
102
RTVSPropertyOp4
 70
     1
102
RTVSPropertyOp5
 70
     1
102
RTVSPropertyOp6
 70
     1
102
RTVSPropertyOp7
 70
     1
102
RTVSPropertyOp8
 70
     1
102
RTVSPropertyOp9
 70
     1
102
RTVSPropertyOp10
 70
     1
102
RTVSPropertyOp11
 70
     1
102
RTVSPropertyOp12
 70
     1
102
RTVSPropertyOp13
 70
     1
102
RTVSPropertyOp14
 70
     1
102
RTVSPropertyOp15
 70
     1
102
RTVSPropertyOp16
 70
     1
102
RTVSPropertyOp17
 70
     1
102
RTVSPropertyOp18
 70
     1
102
RTVSPropertyOp19
 70
     1
102
RTVSPropertyOp20
 70
     1
102
RTVSPropertyOp21
 70
     1
102
RTVSPropertyOp22
 70
     1
102
RTVSPropertyOp23
 70
     1
102
RTVSPropertyOp24
 70
     1
102
RTVSPropertyOp25
 70
     1
102
RTVSPropertyOp26
 70
     1
102
RTVSPropertyOp27
 70
     1
102
RTVSPropertyOp28
 70
     1
102
RTVSPropertyOp29
 70
     1
102
RTVSPropertyOp30
 70
     1
102
RTVSPropertyOp31
 70
     1
102
RTVSPropertyOp32
 70
     1
  0
ENDSEC
  0
EOF
