  0
SECTION
  2
HEADER
  9
$ACADVER
  1
AC1021
  9
$ACADMAINTVER
 70
    25
  9
$DWGCODEPAGE
  3
ANSI_1252
  9
$INSBASE
 10
0.0
 20
0.0
 30
0.0
  9
$EXTMIN
 10
-187.6702
 20
-106.5901
 30
0.0
  9
$EXTMAX
 10
-23.3681
 20
124.7154
 30
0.0
  9
$LIMMIN
 10
0.0
 20
0.0
  9
$LIMMAX
 10
12.0
 20
9.0
  9
$ORTHOMODE
 70
     0
  9
$REGENMODE
 70
     1
  9
$FILLMODE
 70
     1
  9
$QTEXTMODE
 70
     0
  9
$MIRRTEXT
 70
     1
  9
$LTSCALE
 40
1.0
  9
$ATTMODE
 70
     1
  9
$TEXTSIZE
 40
0.2
  9
$TRACEWID
 40
0.05
  9
$TEXTSTYLE
  7
Standard
  9
$CLAYER
  8
0
  9
$CELTYPE
  6
ByLayer
  9
$CECOLOR
 62
   256
  9
$CELTSCALE
 40
1.0
  9
$DISPSILH
 70
     0
  9
$DIMSCALE
 40
1.0
  9
$DIMASZ
 40
0.18
  9
$DIMEXO
 40
0.0625
  9
$DIMDLI
 40
0.38
  9
$DIMRND
 40
0.0
  9
$DIMDLE
 40
0.0
  9
$DIMEXE
 40
0.18
  9
$DIMTP
 40
0.0
  9
$DIMTM
 40
0.0
  9
$DIMTXT
 40
0.18
  9
$DIMCEN
 40
0.09
  9
$DIMTSZ
 40
0.0
  9
$DIMTOL
 70
     0
  9
$DIMLIM
 70
     0
  9
$DIMTIH
 70
     1
  9
$DIMTOH
 70
     1
  9
$DIMSE1
 70
     0
  9
$DIMSE2
 70
     0
  9
$DIMTAD
 70
     0
  9
$DIMZIN
 70
     0
  9
$DIMBLK
  1

  9
$DIMASO
 70
     1
  9
$DIMSHO
 70
     1
  9
$DIMPOST
  1

  9
$DIMAPOST
  1

  9
$DIMALT
 70
     0
  9
$DIMALTD
 70
     2
  9
$DIMALTF
 40
25.4
  9
$DIMLFAC
 40
1.0
  9
$DIMTOFL
 70
     0
  9
$DIMTVP
 40
0.0
  9
$DIMTIX
 70
     0
  9
$DIMSOXD
 70
     0
  9
$DIMSAH
 70
     0
  9
$DIMBLK1
  1

  9
$DIMBLK2
  1

  9
$DIMSTYLE
  2
Standard
  9
$DIMCLRD
 70
     0
  9
$DIMCLRE
 70
     0
  9
$DIMCLRT
 70
     0
  9
$DIMTFAC
 40
1.0
  9
$DIMGAP
 40
0.09
  9
$DIMJUST
 70
     0
  9
$DIMSD1
 70
     0
  9
$DIMSD2
 70
     0
  9
$DIMTOLJ
 70
     1
  9
$DIMTZIN
 70
     0
  9
$DIMALTZ
 70
     0
  9
$DIMALTTZ
 70
     0
  9
$DIMUPT
 70
     0
  9
$DIMDEC
 70
     4
  9
$DIMTDEC
 70
     4
  9
$DIMALTU
 70
     2
  9
$DIMALTTD
 70
     2
  9
$DIMTXSTY
  7
Standard
  9
$DIMAUNIT
 70
     0
  9
$DIMADEC
 70
     0
  9
$DIMALTRND
 40
0.0
  9
$DIMAZIN
 70
     0
  9
$DIMDSEP
 70
    46
  9
$DIMATFIT
 70
     3
  9
$DIMFRAC
 70
     0
  9
$DIMLDRBLK
  1

  9
$DIMLUNIT
 70
     2
  9
$DIMLWD
 70
    -2
  9
$DIMLWE
 70
    -2
  9
$DIMTMOVE
 70
     0
  9
$DIMFXL
 40
1.0
  9
$DIMFXLON
 70
     0
  9
$DIMJOGANG
 40
0.7853981633974483
  9
$DIMTFILL
 70
     0
  9
$DIMTFILLCLR
 70
     0
  9
$DIMARCSYM
 70
     0
  9
$DIMLTYPE
  6

  9
$DIMLTEX1
  6

  9
$DIMLTEX2
  6

  9
$LUNITS
 70
     2
  9
$LUPREC
 70
     4
  9
$SKETCHINC
 40
0.1
  9
$FILLETRAD
 40
0.5
  9
$AUNITS
 70
     0
  9
$AUPREC
 70
     0
  9
$MENU
  1
.
  9
$ELEVATION
 40
0.0
  9
$PELEVATION
 40
0.0
  9
$THICKNESS
 40
0.0
  9
$LIMCHECK
 70
     0
  9
$CHAMFERA
 40
0.5
  9
$CHAMFERB
 40
0.5
  9
$CHAMFERC
 40
1.0
  9
$CHAMFERD
 40
0.0
  9
$SKPOLY
 70
     0
  9
$TDCREATE
 40
2458492.777026088
  9
$TDUCREATE
 40
2458492.777026088
  9
$TDUPDATE
 40
2458492.777026192
  9
$TDUUPDATE
 40
2458492.777026192
  9
$TDINDWG
 40
0.0000000116
  9
$TDUSRTIMER
 40
0.0000000116
  9
$USRTIMER
 70
     1
  9
$ANGBASE
 50
0.0
  9
$ANGDIR
 70
     0
  9
$PDMODE
 70
     0
  9
$PDSIZE
 40
0.0
  9
$PLINEWID
 40
0.0
  9
$SPLFRAME
 70
     0
  9
$SPLINETYPE
 70
     6
  9
$SPLINESEGS
 70
     8
  9
$HANDSEED
  5
97
  9
$SURFTAB1
 70
     6
  9
$SURFTAB2
 70
     6
  9
$SURFTYPE
 70
     6
  9
$SURFU
 70
     6
  9
$SURFV
 70
     6
  9
$UCSBASE
  2

  9
$UCSNAME
  2

  9
$UCSORG
 10
0.0
 20
0.0
 30
0.0
  9
$UCSXDIR
 10
1.0
 20
0.0
 30
0.0
  9
$UCSYDIR
 10
0.0
 20
1.0
 30
0.0
  9
$UCSORTHOREF
  2

  9
$UCSORTHOVIEW
 70
     0
  9
$UCSORGTOP
 10
0.0
 20
0.0
 30
0.0
  9
$UCSORGBOTTOM
 10
0.0
 20
0.0
 30
0.0
  9
$UCSORGLEFT
 10
0.0
 20
0.0
 30
0.0
  9
$UCSORGRIGHT
 10
0.0
 20
0.0
 30
0.0
  9
$UCSORGFRONT
 10
0.0
 20
0.0
 30
0.0
  9
$UCSORGBACK
 10
0.0
 20
0.0
 30
0.0
  9
$PUCSBASE
  2

  9
$PUCSNAME
  2

  9
$PUCSORG
 10
0.0
 20
0.0
 30
0.0
  9
$PUCSXDIR
 10
1.0
 20
0.0
 30
0.0
  9
$PUCSYDIR
 10
0.0
 20
1.0
 30
0.0
  9
$PUCSORTHOREF
  2

  9
$PUCSORTHOVIEW
 70
     0
  9
$PUCSORGTOP
 10
0.0
 20
0.0
 30
0.0
  9
$PUCSORGBOTTOM
 10
0.0
 20
0.0
 30
0.0
  9
$PUCSORGLEFT
 10
0.0
 20
0.0
 30
0.0
  9
$PUCSORGRIGHT
 10
0.0
 20
0.0
 30
0.0
  9
$PUCSORGFRONT
 10
0.0
 20
0.0
 30
0.0
  9
$PUCSORGBACK
 10
0.0
 20
0.0
 30
0.0
  9
$USERI1
 70
     0
  9
$USERI2
 70
     0
  9
$USERI3
 70
     0
  9
$USERI4
 70
     0
  9
$USERI5
 70
     0
  9
$USERR1
 40
0.0
  9
$USERR2
 40
0.0
  9
$USERR3
 40
0.0
  9
$USERR4
 40
0.0
  9
$USERR5
 40
0.0
  9
$WORLDVIEW
 70
     1
  9
$SHADEDGE
 70
     3
  9
$SHADEDIF
 70
    70
  9
$TILEMODE
 70
     1
  9
$MAXACTVP
 70
    64
  9
$PINSBASE
 10
0.0
 20
0.0
 30
0.0
  9
$PLIMCHECK
 70
     0
  9
$PEXTMIN
 10
1.000000000000000E+20
 20
1.000000000000000E+20
 30
1.000000000000000E+20
  9
$PEXTMAX
 10
-1.000000000000000E+20
 20
-1.000000000000000E+20
 30
-1.000000000000000E+20
  9
$PLIMMIN
 10
0.0
 20
0.0
  9
$PLIMMAX
 10
12.0
 20
9.0
  9
$UNITMODE
 70
     0
  9
$VISRETAIN
 70
     1
  9
$PLINEGEN
 70
     0
  9
$PSLTSCALE
 70
     1
  9
$TREEDEPTH
 70
  3020
  9
$CMLSTYLE
  2
Standard
  9
$CMLJUST
 70
     0
  9
$CMLSCALE
 40
1.0
  9
$PROXYGRAPHICS
 70
     1
  9
$MEASUREMENT
 70
     0
  9
$CELWEIGHT
370
    -1
  9
$ENDCAPS
280
     0
  9
$JOINSTYLE
280
     0
  9
$LWDISPLAY
290
     0
  9
$INSUNITS
 70
     4
  9
$HYPERLINKBASE
  1

  9
$STYLESHEET
  1

  9
$XEDIT
290
     1
  9
$CEPSNTYPE
380
     0
  9
$PSTYLEMODE
290
     1
  9
$FINGERPRINTGUID
  2
{DE8CE4F8-E279-4AC8-B05D-0FD8E6C5C24E}
  9
$VERSIONGUID
  2
{FAEB1C32-E019-11D5-929B-00C0DF256EC4}
  9
$EXTNAMES
290
     1
  9
$PSVPSCALE
 40
0.0
  9
$OLESTARTUP
290
     0
  9
$SORTENTS
280
   127
  9
$INDEXCTL
280
     0
  9
$HIDETEXT
280
     1
  9
$XCLIPFRAME
290
     0
  9
$HALOGAP
280
     0
  9
$OBSCOLOR
 70
   257
  9
$OBSLTYPE
280
     0
  9
$INTERSECTIONDISPLAY
280
     0
  9
$INTERSECTIONCOLOR
 70
   257
  9
$DIMASSOC
280
     2
  9
$PROJECTNAME
  1

  9
$CAMERADISPLAY
290
     0
  9
$LENSLENGTH
 40
50.0
  9
$CAMERAHEIGHT
 40
0.0
  9
$STEPSPERSEC
 40
2.0
  9
$STEPSIZE
 40
6.0
  9
$3DDWFPREC
 40
2.0
  9
$PSOLWIDTH
 40
0.25
  9
$PSOLHEIGHT
 40
4.0
  9
$LOFTANG1
 40
1.570796326794897
  9
$LOFTANG2
 40
1.570796326794897
  9
$LOFTMAG1
 40
0.0
  9
$LOFTMAG2
 40
0.0
  9
$LOFTPARAM
 70
     7
  9
$LOFTNORMALS
280
     1
  9
$LATITUDE
 40
37.795
  9
$LONGITUDE
 40
-122.394
  9
$NORTHDIRECTION
 40
0.0
  9
$TIMEZONE
 70
 -8000
  9
$LIGHTGLYPHDISPLAY
280
     1
  9
$TILEMODELIGHTSYNCH
280
     1
  9
$SOLIDHIST
280
     1
  9
$SHOWHIST
280
     1
  9
$DWFFRAME
280
     2
  9
$DGNFRAME
280
     2
  9
$REALWORLDSCALE
290
     1
  9
$INTERFERECOLOR
 62
   256
  9
$CSHADOW
280
     0
  9
$SHADOWPLANELOCATION
 40
0.0
  0
ENDSEC
  0
SECTION
  2
CLASSES
  0
CLASS
  1
ACDBDICTIONARYWDFLT
  2
AcDbDictionaryWithDefault
  3
ObjectDBX Classes
 90
        0
 91
        4
280
     0
281
     0
  0
CLASS
  1
VISUALSTYLE
  2
AcDbVisualStyle
  3
ObjectDBX Classes
 90
     4095
 91
        4
280
     0
281
     0
  0
CLASS
  1
MATERIAL
  2
AcDbMaterial
  3
ObjectDBX Classes
 90
     1153
 91
        4
280
     0
281
     0
  0
ENDSEC
  0
SECTION
  2
TABLES
  0
TABLE
  2
VPORT
  5
8
330
0
100
AcDbSymbolTable
 70
     1
  0
VPORT
  5
29
330
8
100
AcDbSymbolTableRecord
100
AcDbViewportTableRecord
  2
*Active
 70
     0
 10
0.0
 20
0.0
 11
1.0
 21
1.0
 12
10.42990654205607
 22
4.5
 13
0.0
 23
0.0
 14
0.5
 24
0.5
 15
0.5
 25
0.5
 16
0.0
 26
0.0
 36
1.0
 17
0.0
 27
0.0
 37
0.0
 40
9.0
 41
1.972972972850329
 42
50.0
 43
0.0
 44
0.0
 50
0.0
 51
0.0
 71
     0
 72
   100
 73
     1
 74
     3
 75
     0
 76
     0
 77
     0
 78
     0
281
     0
 65
     1
110
0.0
120
0.0
130
0.0
111
1.0
121
0.0
131
0.0
112
0.0
122
1.0
132
0.0
 79
     0
146
0.0
 60
     3
 61
     5
292
     1
282
     1
141
0.0
142
0.0
 63
   250
  0
ENDTAB
  0
TABLE
  2
LTYPE
  5
5
330
0
100
AcDbSymbolTable
 70
     1
  0
LTYPE
  5
14
330
5
100
AcDbSymbolTableRecord
100
AcDbLinetypeTableRecord
  2
ByBlock
 70
     0
  3

 72
    65
 73
     0
 40
0.0
  0
LTYPE
  5
15
330
5
100
AcDbSymbolTableRecord
100
AcDbLinetypeTableRecord
  2
ByLayer
 70
     0
  3

 72
    65
 73
     0
 40
0.0
  0
LTYPE
  5
16
330
5
100
AcDbSymbolTableRecord
100
AcDbLinetypeTableRecord
  2
Continuous
 70
     0
  3
Solid line
 72
    65
 73
     0
 40
0.0
  0
ENDTAB
  0
TABLE
  2
LAYER
  5
2
330
0
100
AcDbSymbolTable
 70
     2
  0
LAYER
  5
10
330
2
100
AcDbSymbolTableRecord
100
AcDbLayerTableRecord
  2
0
 70
     0
 62
     7
  6
Continuous
370
    -3
390
F
347
3E
  0
LAYER
  5
40
330
2
100
AcDbSymbolTableRecord
100
AcDbLayerTableRecord
  2
layer 1
 70
     0
 62
     7
  6
Continuous
370
    -3
390
F
347
3E
  0
ENDTAB
  0
TABLE
  2
STYLE
  5
3
330
0
100
AcDbSymbolTable
 70
     1
  0
STYLE
  5
11
330
3
100
AcDbSymbolTableRecord
100
AcDbTextStyleTableRecord
  2
Standard
 70
     0
 40
0.0
 41
1.0
 50
0.0
 71
     0
 42
0.2
  3
txt
  4

  0
ENDTAB
  0
TABLE
  2
VIEW
  5
6
330
0
100
AcDbSymbolTable
 70
     0
  0
ENDTAB
  0
TABLE
  2
UCS
  5
7
330
0
100
AcDbSymbolTable
 70
     0
  0
ENDTAB
  0
TABLE
  2
APPID
  5
9
330
0
100
AcDbSymbolTable
 70
     2
  0
APPID
  5
12
330
9
100
AcDbSymbolTableRecord
100
AcDbRegAppTableRecord
  2
ACAD
 70
     0
  0
APPID
  5
3F
330
9
100
AcDbSymbolTableRecord
100
AcDbRegAppTableRecord
  2
ODA
 70
     0
  0
ENDTAB
  0
TABLE
  2
DIMSTYLE
  5
A
330
0
100
AcDbSymbolTable
 70
     1
100
AcDbDimStyleTable
  0
DIMSTYLE
105
27
330
A
100
AcDbSymbolTableRecord
100
AcDbDimStyleTableRecord
  2
Standard
 70
     0
178
     0
340
11
  0
ENDTAB
  0
TABLE
  2
BLOCK_RECORD
  5
1
330
0
100
AcDbSymbolTable
 70
     1
  0
BLOCK_RECORD
  5
1F
330
1
100
AcDbSymbolTableRecord
100
AcDbBlockTableRecord
  2
*Model_Space
340
22
 70
     0
280
     1
281
     0
  0
BLOCK_RECORD
  5
1B
330
1
100
AcDbSymbolTableRecord
100
AcDbBlockTableRecord
  2
*Paper_Space
340
1E
 70
     0
280
     1
281
     0
  0
BLOCK_RECORD
  5
23
330
1
100
AcDbSymbolTableRecord
100
AcDbBlockTableRecord
  2
*Paper_Space0
340
26
 70
     0
280
     1
281
     0
  0
ENDTAB
  0
ENDSEC
  0
SECTION
  2
BLOCKS
  0
BLOCK
  5
20
330
1F
100
AcDbEntity
  8
0
100
AcDbBlockBegin
  2
*Model_Space
 70
     0
 10
0.0
 20
0.0
 30
0.0
  3
*Model_Space
  1

  0
ENDBLK
  5
21
330
1F
100
AcDbEntity
  8
0
100
AcDbBlockEnd
  0
BLOCK
  5
1C
330
1B
100
AcDbEntity
 67
     1
  8
0
100
AcDbBlockBegin
  2
*Paper_Space
 70
     0
 10
0.0
 20
0.0
 30
0.0
  3
*Paper_Space
  1

  0
ENDBLK
  5
1D
330
1B
100
AcDbEntity
 67
     1
  8
0
100
AcDbBlockEnd
  0
BLOCK
  5
24
330
23
100
AcDbEntity
  8
0
100
AcDbBlockBegin
  2
*Paper_Space0
 70
     0
 10
0.0
 20
0.0
 30
0.0
  3
*Paper_Space0
  1

  0
ENDBLK
  5
25
330
23
100
AcDbEntity
  8
0
100
AcDbBlockEnd
  0
ENDSEC
  0
SECTION
  2
ENTITIES
  0
SPLINE
  5
41
330
1F
100
AcDbEntity
  8
layer 1
100
AcDbSpline
210
0.0
220
0.0
230
1.0
 70
    11
 71
     3
 72
    20
 73
    16
 74
     0
 42
0.0000000001
 43
0.0000000001
 12
1.0
 22
0.0
 32
0.0
 13
1.0
 23
0.0
 33
0.0
 40
0.0
 40
0.0
 40
0.0
 40
0.0
 40
0.2
 40
0.2
 40
0.2
 40
0.2
 40
0.4
 40
0.4
 40
0.4
 40
0.4
 40
0.6
 40
0.6
 40
0.6
 40
0.6
 40
1.0
 40
1.0
 40
1.0
 40
1.0
 10
-187.6702
 20
-106.5901
 30
0.0
 10
-187.6702
 20
-106.5901
 30
0.0
 10
-187.6702
 20
124.7154
 30
0.0
 10
-187.6702
 20
124.7154
 30
0.0
 10
-187.6702
 20
124.7154
 30
0.0
 10
-187.6702
 20
124.7154
 30
0.0
 10
-23.3681
 20
124.7154
 30
0.0
 10
-23.3681
 20
124.7154
 30
0.0
 10
-23.3681
 20
124.7154
 30
0.0
 10
-23.3681
 20
124.7154
 30
0.0
 10
-23.3681
 20
-106.59
 30
0.0
 10
-23.3681
 20
-106.59
 30
0.0
 10
-23.3681
 20
-106.59
 30
0.0
 10
-23.3681
 20
-106.59
 30
0.0
 10
-187.6702
 20
-106.5901
 30
0.0
 10
-187.6702
 20
-106.5901
 30
0.0
  0
SPLINE
  5
42
330
1F
100
AcDbEntity
  8
layer 1
 62
     7
100
AcDbSpline
210
0.0
220
0.0
230
1.0
 70
    11
 71
     3
 72
    16
 73
    12
 74
     0
 42
0.0000000001
 43
0.0000000001
 12
1.0
 22
0.0
 32
0.0
 13
1.0
 23
0.0
 33
0.0
 40
0.0
 40
0.0
 40
0.0
 40
0.0
 40
0.25
 40
0.25
 40
0.25
 40
0.25
 40
0.5
 40
0.5
 40
0.5
 40
0.5
 40
1.0
 40
1.0
 40
1.0
 40
1.0
 10
-181.282
 20
-99.5662
 30
0.0
 10
-181.282
 20
-99.5662
 30
0.0
 10
-181.282
 20
-75.1049
 30
0.0
 10
-181.282
 20
-75.1049
 30
0.0
 10
-181.282
 20
-75.1049
 30
0.0
 10
-179.6688
 20
-88.009
 30
0.0
 10
-171.2712
 20
-97.4334
 30
0.0
 10
-158.2026
 20
-99.5662
 30
0.0
 10
-158.2026
 20
-99.5662
 30
0.0
 10
-158.2026
 20
-99.5662
 30
0.0
 10
-181.282
 20
-99.5662
 30
0.0
 10
-181.282
 20
-99.5662
 30
0.0
  0
SPLINE
  5
43
330
1F
100
AcDbEntity
  8
layer 1
 62
     7
100
AcDbSpline
210
0.0
220
0.0
230
1.0
 70
    11
 71
     3
 72
    16
 73
    12
 74
     0
 42
0.0000000001
 43
0.0000000001
 12
1.0
 22
0.0
 32
0.0
 13
1.0
 23
0.0
 33
0.0
 40
0.0
 40
0.0
 40
0.0
 40
0.0
 40
0.25
 40
0.25
 40
0.25
 40
0.25
 40
0.5
 40
0.5
 40
0.5
 40
0.5
 40
1.0
 40
1.0
 40
1.0
 40
1.0
 10
-181.282
 20
-68.2382
 30
0.0
 10
-181.1969
 20
-62.0896
 30
0.0
 10
-181.1969
 20
-43.1462
 30
0.0
 10
-181.282
 20
-32.7617
 30
0.0
 10
-181.282
 20
-32.7617
 30
0.0
 10
-179.8892
 20
-39.5663
 30
0.0
 10
-174.6579
 20
-44.8291
 30
0.0
 10
-170.7805
 20
-48.3165
 30
0.0
 10
-170.7805
 20
-48.3165
 30
0.0
 10
-174.7143
 20
-52.5084
 30
0.0
 10
-179.8982
 20
-60.0906
 30
0.0
 10
-181.282
 20
-68.2382
 30
0.0
  0
SPLINE
  5
44
330
1F
100
AcDbEntity
  8
layer 1
 62
     7
100
AcDbSpline
210
0.0
220
0.0
230
1.0
 70
    11
 71
     3
 72
    24
 73
    20
 74
     0
 42
0.0000000001
 43
0.0000000001
 12
1.0
 22
0.0
 32
0.0
 13
1.0
 23
0.0
 33
0.0
 40
0.0
 40
0.0
 40
0.0
 40
0.0
 40
0.1666666666666667
 40
0.1666666666666667
 40
0.1666666666666667
 40
0.1666666666666667
 40
0.3333333333333333
 40
0.3333333333333333
 40
0.3333333333333333
 40
0.3333333333333333
 40
0.5
 40
0.5
 40
0.5
 40
0.5
 40
0.6666666666666666
 40
0.6666666666666666
 40
0.6666666666666666
 40
0.6666666666666666
 40
1.0
 40
1.0
 40
1.0
 40
1.0
 10
-181.282
 20
-25.5045
 30
0.0
 10
-181.1969
 20
-19.3548
 30
0.0
 10
-181.1969
 20
-3.6162
 30
0.0
 10
-181.282
 20
6.7684
 30
0.0
 10
-181.282
 20
6.7684
 30
0.0
 10
-176.452
 20
-0.1912
 30
0.0
 10
-169.6579
 20
-9.9863
 30
0.0
 10
-164.7641
 20
-16.99
 30
0.0
 10
-164.7641
 20
-16.99
 30
0.0
 10
-166.1873
 20
-16.3854
 30
0.0
 10
-168.7345
 20
-15.591
 30
0.0
 10
-172.2036
 20
-16.9457
 30
0.0
 10
-172.2036
 20
-16.9457
 30
0.0
 10
-171.022
 20
-15.5712
 30
0.0
 10
-171.2529
 20
-10.6213
 30
0.0
 10
-176.3898
 20
-10.5592
 30
0.0
 10
-176.3898
 20
-10.5592
 30
0.0
 10
-173.2013
 20
-16.8547
 30
0.0
 10
-180.0319
 20
-17.9256
 30
0.0
 10
-181.282
 20
-25.5045
 30
0.0
  0
SPLINE
  5
45
330
1F
100
AcDbEntity
  8
layer 1
 62
     7
100
AcDbSpline
210
0.0
220
0.0
230
1.0
 70
    11
 71
     3
 72
    44
 73
    40
 74
     0
 42
0.0000000001
 43
0.0000000001
 12
1.0
 22
0.0
 32
0.0
 13
1.0
 23
0.0
 33
0.0
 40
0.0
 40
0.0
 40
0.0
 40
0.0
 40
0.0909090909090909
 40
0.0909090909090909
 40
0.0909090909090909
 40
0.0909090909090909
 40
0.1818181818181818
 40
0.1818181818181818
 40
0.1818181818181818
 40
0.1818181818181818
 40
0.2727272727272727
 40
0.2727272727272727
 40
0.2727272727272727
 40
0.2727272727272727
 40
0.3636363636363636
 40
0.3636363636363636
 40
0.3636363636363636
 40
0.3636363636363636
 40
0.4545454545454545
 40
0.4545454545454545
 40
0.4545454545454545
 40
0.4545454545454545
 40
0.5454545454545454
 40
0.5454545454545454
 40
0.5454545454545454
 40
0.5454545454545454
 40
0.6363636363636364
 40
0.6363636363636364
 40
0.6363636363636364
 40
0.6363636363636364
 40
0.7272727272727273
 40
0.7272727272727273
 40
0.7272727272727273
 40
0.7272727272727273
 40
0.8181818181818182
 40
0.8181818181818182
 40
0.8181818181818182
 40
0.8181818181818182
 40
1.0
 40
1.0
 40
1.0
 40
1.0
 10
-158.2361
 20
-42.3794
 30
0.0
 10
-158.8465
 20
-43.0944
 30
0.0
 10
-160.0421
 20
-41.9055
 30
0.0
 10
-159.1202
 20
-40.9773
 30
0.0
 10
-159.1202
 20
-40.9773
 30
0.0
 10
-153.9287
 20
-35.7494
 30
0.0
 10
-138.3509
 20
-25.9451
 30
0.0
 10
-138.3148
 20
-21.4646
 30
0.0
 10
-138.3148
 20
-21.4646
 30
0.0
 10
-140.0265
 20
-21.4083
 30
0.0
 10
-140.977
 20
-19.7087
 30
0.0
 10
-143.2948
 20
-20.7931
 30
0.0
 10
-143.2948
 20
-20.7931
 30
0.0
 10
-138.4178
 20
-12.7629
 30
0.0
 10
-141.9308
 20
-3.0741
 30
0.0
 10
-149.4842
 20
-6.1863
 30
0.0
 10
-149.4842
 20
-6.1863
 30
0.0
 10
-147.1863
 20
-2.7596
 30
0.0
 10
-145.9638
 20
-0.8368
 30
0.0
 10
-144.0954
 20
1.5342
 30
0.0
 10
-144.0954
 20
1.5342
 30
0.0
 10
-139.2654
 20
-5.4253
 30
0.0
 10
-127.567
 20
-21.7652
 30
0.0
 10
-122.6733
 20
-28.7689
 30
0.0
 10
-122.6733
 20
-28.7689
 30
0.0
 10
-125.0412
 20
-29.8183
 30
0.0
 10
-126.3201
 20
-30.298
 30
0.0
 10
-129.0785
 20
-31.4771
 30
0.0
 10
-129.0785
 20
-31.4771
 30
0.0
 10
-128.3704
 20
-29.8653
 30
0.0
 10
-127.9956
 20
-25.7235
 30
0.0
 10
-130.2982
 20
-25.0111
 30
0.0
 10
-130.2982
 20
-25.0111
 30
0.0
 10
-131.5662
 20
-28.7474
 30
0.0
 10
-136.7955
 20
-30.7632
 30
0.0
 10
-142.4763
 20
-33.1144
 30
0.0
 10
-142.4763
 20
-33.1144
 30
0.0
 10
-148.7479
 20
-35.7082
 30
0.0
 10
-155.5706
 20
-38.6078
 30
0.0
 10
-158.2361
 20
-42.3794
 30
0.0
  0
SPLINE
  5
46
330
1F
100
AcDbEntity
  8
layer 1
 62
     7
100
AcDbSpline
210
0.0
220
0.0
230
1.0
 70
    11
 71
     3
 72
    40
 73
    36
 74
     0
 42
0.0000000001
 43
0.0000000001
 12
1.0
 22
0.0
 32
0.0
 13
1.0
 23
0.0
 33
0.0
 40
0.0
 40
0.0
 40
0.0
 40
0.0
 40
0.1
 40
0.1
 40
0.1
 40
0.1
 40
0.2
 40
0.2
 40
0.2
 40
0.2
 40
0.3
 40
0.3
 40
0.3
 40
0.3
 40
0.4
 40
0.4
 40
0.4
 40
0.4
 40
0.5
 40
0.5
 40
0.5
 40
0.5
 40
0.6
 40
0.6
 40
0.6
 40
0.6
 40
0.7
 40
0.7
 40
0.7
 40
0.7
 40
0.8
 40
0.8
 40
0.8
 40
0.8
 40
1.0
 40
1.0
 40
1.0
 40
1.0
 10
-156.6823
 20
-45.2303
 30
0.0
 10
-157.6089
 20
-45.4018
 30
0.0
 10
-157.3355
 20
-46.7109
 30
0.0
 10
-156.2312
 20
-46.2161
 30
0.0
 10
-156.2312
 20
-46.2161
 30
0.0
 10
-149.5072
 20
-43.2025
 30
0.0
 10
-133.6304
 20
-41.6259
 30
0.0
 10
-129.7313
 20
-44.6362
 30
0.0
 10
-129.7313
 20
-44.6362
 30
0.0
 10
-130.5396
 20
-46.146
 30
0.0
 10
-130.825
 20
-46.0033
 30
0.0
 10
-132.9228
 20
-47.4676
 30
0.0
 10
-132.9228
 20
-47.4676
 30
0.0
 10
-126.0969
 20
-49.6105
 30
0.0
 10
-120.8508
 20
-55.3593
 30
0.0
 10
-122.0854
 20
-61.7874
 30
0.0
 10
-122.0854
 20
-61.7874
 30
0.0
 10
-117.7022
 20
-55.8454
 30
0.0
 10
-116.5461
 20
-54.3056
 30
0.0
 10
-110.7272
 20
-46.0154
 30
0.0
 10
-110.7272
 20
-46.0154
 30
0.0
 10
-114.8208
 20
-40.0083
 30
0.0
 10
-115.7459
 20
-38.7583
 30
0.0
 10
-120.7003
 20
-31.7138
 30
0.0
 10
-120.7003
 20
-31.7138
 30
0.0
 10
-123.419
 20
-32.8666
 30
0.0
 10
-125.1322
 20
-33.5837
 30
0.0
 10
-128.3677
 20
-34.6363
 30
0.0
 10
-128.3677
 20
-34.6363
 30
0.0
 10
-125.9297
 20
-34.9367
 30
0.0
 10
-123.2915
 20
-37.5463
 30
0.0
 10
-124.262
 20
-41.8809
 30
0.0
 10
-124.262
 20
-41.8809
 30
0.0
 10
-136.861
 20
-34.4691
 30
0.0
 10
-153.6338
 20
-43.4184
 30
0.0
 10
-156.6823
 20
-45.2303
 30
0.0
  0
SPLINE
  5
47
330
1F
100
AcDbEntity
  8
layer 1
 62
     7
100
AcDbSpline
210
0.0
220
0.0
230
1.0
 70
    11
 71
     3
 72
    16
 73
    12
 74
     0
 42
0.0000000001
 43
0.0000000001
 12
1.0
 22
0.0
 32
0.0
 13
1.0
 23
0.0
 33
0.0
 40
0.0
 40
0.0
 40
0.0
 40
0.0
 40
0.25
 40
0.25
 40
0.25
 40
0.25
 40
0.5
 40
0.5
 40
0.5
 40
0.5
 40
1.0
 40
1.0
 40
1.0
 40
1.0
 10
-149.7638
 20
-99.4842
 30
0.0
 10
-143.6141
 20
-99.3974
 30
0.0
 10
-134.9945
 20
-99.3974
 30
0.0
 10
-124.6116
 20
-99.4842
 30
0.0
 10
-124.6116
 20
-99.4842
 30
0.0
 10
-122.1449
 20
-94.7909
 30
0.0
 10
-126.3504
 20
-92.7889
 30
0.0
 10
-130.6855
 20
-93.2508
 30
0.0
 10
-130.6855
 20
-93.2508
 30
0.0
 10
-137.3637
 20
-93.9632
 30
0.0
 10
-141.8838
 20
-97.8238
 30
0.0
 10
-149.7638
 20
-99.4842
 30
0.0
  0
SPLINE
  5
48
330
1F
100
AcDbEntity
  8
layer 1
 62
     7
100
AcDbSpline
210
0.0
220
0.0
230
1.0
 70
    11
 71
     3
 72
    48
 73
    44
 74
     0
 42
0.0000000001
 43
0.0000000001
 12
1.0
 22
0.0
 32
0.0
 13
1.0
 23
0.0
 33
0.0
 40
0.0
 40
0.0
 40
0.0
 40
0.0
 40
0.0833333333333333
 40
0.0833333333333333
 40
0.0833333333333333
 40
0.0833333333333333
 40
0.1666666666666667
 40
0.1666666666666667
 40
0.1666666666666667
 40
0.1666666666666667
 40
0.25
 40
0.25
 40
0.25
 40
0.25
 40
0.3333333333333333
 40
0.3333333333333333
 40
0.3333333333333333
 40
0.3333333333333333
 40
0.4166666666666667
 40
0.4166666666666667
 40
0.4166666666666667
 40
0.4166666666666667
 40
0.5
 40
0.5
 40
0.5
 40
0.5
 40
0.5833333333333334
 40
0.5833333333333334
 40
0.5833333333333334
 40
0.5833333333333334
 40
0.6666666666666666
 40
0.6666666666666666
 40
0.6666666666666666
 40
0.6666666666666666
 40
0.75
 40
0.75
 40
0.75
 40
0.75
 40
0.8333333333333334
 40
0.8333333333333334
 40
0.8333333333333334
 40
0.8333333333333334
 40
1.0
 40
1.0
 40
1.0
 40
1.0
 10
-159.2704
 20
-51.3905
 30
0.0
 10
-145.5536
 20
-61.1906
 30
0.0
 10
-143.6716
 20
-56.7537
 30
0.0
 10
-136.7971
 20
-62.4209
 30
0.0
 10
-136.7971
 20
-62.4209
 30
0.0
 10
-130.6715
 20
-67.4695
 30
0.0
 10
-126.8093
 20
-79.1496
 30
0.0
 10
-134.4249
 20
-89.4613
 30
0.0
 10
-134.4249
 20
-89.4613
 30
0.0
 10
-131.4266
 20
-86.2107
 30
0.0
 10
-128.6301
 20
-89.2836
 30
0.0
 10
-124.3926
 20
-85.6306
 30
0.0
 10
-124.3926
 20
-85.6306
 30
0.0
 10
-123.7425
 20
-86.2654
 30
0.0
 10
-122.7902
 20
-88.3403
 30
0.0
 10
-125.9114
 20
-90.468
 30
0.0
 10
-125.9114
 20
-90.468
 30
0.0
 10
-119.7539
 20
-88.0545
 30
0.0
 10
-115.9126
 20
-96.0364
 30
0.0
 10
-120.9721
 20
-99.5829
 30
0.0
 10
-120.9721
 20
-99.5829
 30
0.0
 10
-120.9721
 20
-99.5829
 30
0.0
 10
-106.6843
 20
-99.6102
 30
0.0
 10
-106.6843
 20
-99.6102
 30
0.0
 10
-106.6843
 20
-99.6102
 30
0.0
 10
-106.6843
 20
-99.6102
 30
0.0
 10
-127.9392
 20
-69.9634
 30
0.0
 10
-127.9392
 20
-69.9634
 30
0.0
 10
-127.9392
 20
-69.9634
 30
0.0
 10
-126.3081
 20
-67.9994
 30
0.0
 10
-126.1637
 20
-67.6199
 30
0.0
 10
-124.2725
 20
-64.9786
 30
0.0
 10
-124.2725
 20
-64.9786
 30
0.0
 10
-126.7121
 20
-66.8511
 30
0.0
 10
-131.3854
 20
-66.0766
 30
0.0
 10
-131.2505
 20
-61.5962
 30
0.0
 10
-131.2505
 20
-61.5962
 30
0.0
 10
-130.8419
 20
-57.363
 30
0.0
 10
-125.7792
 20
-57.0849
 30
0.0
 10
-124.5096
 20
-59.5001
 30
0.0
 10
-124.5096
 20
-59.5001
 30
0.0
 10
-128.8522
 20
-43.0944
 30
0.0
 10
-155.2362
 20
-48.2239
 30
0.0
 10
-159.2704
 20
-51.3905
 30
0.0
  0
SPLINE
  5
49
330
1F
100
AcDbEntity
  8
layer 1
 62
     7
100
AcDbSpline
210
0.0
220
0.0
230
1.0
 70
    11
 71
     3
 72
    36
 73
    32
 74
     0
 42
0.0000000001
 43
0.0000000001
 12
1.0
 22
0.0
 32
0.0
 13
1.0
 23
0.0
 33
0.0
 40
0.0
 40
0.0
 40
0.0
 40
0.0
 40
0.1111111111111111
 40
0.1111111111111111
 40
0.1111111111111111
 40
0.1111111111111111
 40
0.2222222222222222
 40
0.2222222222222222
 40
0.2222222222222222
 40
0.2222222222222222
 40
0.3333333333333333
 40
0.3333333333333333
 40
0.3333333333333333
 40
0.3333333333333333
 40
0.4444444444444444
 40
0.4444444444444444
 40
0.4444444444444444
 40
0.4444444444444444
 40
0.5555555555555556
 40
0.5555555555555556
 40
0.5555555555555556
 40
0.5555555555555556
 40
0.6666666666666666
 40
0.6666666666666666
 40
0.6666666666666666
 40
0.6666666666666666
 40
0.7777777777777778
 40
0.7777777777777778
 40
0.7777777777777778
 40
0.7777777777777778
 40
1.0
 40
1.0
 40
1.0
 40
1.0
 10
-163.6446
 20
-53.9623
 30
0.0
 10
-161.9832
 20
-55.3473
 30
0.0
 10
-156.6049
 20
-58.0403
 30
0.0
 10
-153.2722
 20
-59.617
 30
0.0
 10
-153.2722
 20
-59.617
 30
0.0
 10
-158.2105
 20
-60.0786
 30
0.0
 10
-163.7209
 20
-66.0934
 30
0.0
 10
-163.6159
 20
-72.1265
 30
0.0
 10
-163.6159
 20
-72.1265
 30
0.0
 10
-163.5249
 20
-77.4834
 30
0.0
 10
-162.1395
 20
-84.0554
 30
0.0
 10
-152.8092
 20
-84.4975
 30
0.0
 10
-152.8092
 20
-84.4975
 30
0.0
 10
-137.6495
 20
-81.5723
 30
0.0
 10
-146.6928
 20
-64.9102
 30
0.0
 10
-156.2448
 20
-72.1705
 30
0.0
 10
-156.2448
 20
-72.1705
 30
0.0
 10
-152.8943
 20
-64.6505
 30
0.0
 10
-144.1806
 20
-65.4083
 30
0.0
 10
-140.2557
 20
-70.7562
 30
0.0
 10
-140.2557
 20
-70.7562
 30
0.0
 10
-134.8623
 20
-78.8668
 30
0.0
 10
-141.7186
 20
-90.0138
 30
0.0
 10
-149.861
 20
-92.075
 30
0.0
 10
-149.861
 20
-92.075
 30
0.0
 10
-157.7897
 20
-94.0829
 30
0.0
 10
-165.147
 20
-89.8121
 30
0.0
 10
-168.9455
 20
-84.7269
 30
0.0
 10
-168.9455
 20
-84.7269
 30
0.0
 10
-175.2475
 20
-75.7398
 30
0.0
 10
-174.7691
 20
-61.0767
 30
0.0
 10
-163.6446
 20
-53.9623
 30
0.0
  0
SPLINE
  5
4A
330
1F
100
AcDbEntity
  8
layer 1
 62
     7
100
AcDbSpline
210
0.0
220
0.0
230
1.0
 70
    11
 71
     3
 72
    20
 73
    16
 74
     0
 42
0.0000000001
 43
0.0000000001
 12
1.0
 22
0.0
 32
0.0
 13
1.0
 23
0.0
 33
0.0
 40
0.0
 40
0.0
 40
0.0
 40
0.0
 40
0.2
 40
0.2
 40
0.2
 40
0.2
 40
0.4
 40
0.4
 40
0.4
 40
0.4
 40
0.6
 40
0.6
 40
0.6
 40
0.6
 40
1.0
 40
1.0
 40
1.0
 40
1.0
 10
-117.4241
 20
-69.9999
 30
0.0
 10
-117.4241
 20
-69.9999
 30
0.0
 10
-105.5193
 20
-86.6878
 30
0.0
 10
-105.5193
 20
-86.6878
 30
0.0
 10
-105.5193
 20
-86.6878
 30
0.0
 10
-105.5193
 20
-86.6878
 30
0.0
 10
-93.6144
 20
-69.9999
 30
0.0
 10
-93.6144
 20
-69.9999
 30
0.0
 10
-93.6144
 20
-69.9999
 30
0.0
 10
-93.6144
 20
-69.9999
 30
0.0
 10
-105.5193
 20
-53.6325
 30
0.0
 10
-105.5193
 20
-53.6325
 30
0.0
 10
-105.5193
 20
-53.6325
 30
0.0
 10
-105.5193
 20
-53.6325
 30
0.0
 10
-117.4241
 20
-69.9999
 30
0.0
 10
-117.4241
 20
-69.9999
 30
0.0
  0
SPLINE
  5
4B
330
1F
100
AcDbEntity
  8
layer 1
 62
     7
100
AcDbSpline
210
0.0
220
0.0
230
1.0
 70
    11
 71
     3
 72
    16
 73
    12
 74
     0
 42
0.0000000001
 43
0.0000000001
 12
1.0
 22
0.0
 32
0.0
 13
1.0
 23
0.0
 33
0.0
 40
0.0
 40
0.0
 40
0.0
 40
0.0
 40
0.25
 40
0.25
 40
0.25
 40
0.25
 40
0.5
 40
0.5
 40
0.5
 40
0.5
 40
1.0
 40
1.0
 40
1.0
 40
1.0
 10
-126.3369
 20
-9.008
 30
0.0
 10
-117.0095
 20
-11.1226
 30
0.0
 10
-117.6764
 20
-0.4402
 30
0.0
 10
-121.5036
 20
0.6653
 30
0.0
 10
-121.5036
 20
0.6653
 30
0.0
 10
-108.0999
 20
3.029
 30
0.0
 10
-104.7326
 20
-14.531
 30
0.0
 10
-115.7334
 20
-23.7292
 30
0.0
 10
-115.7334
 20
-23.7292
 30
0.0
 10
-120.7794
 20
-16.9733
 30
0.0
 10
-122.3089
 20
-14.7511
 30
0.0
 10
-126.3369
 20
-9.008
 30
0.0
  0
SPLINE
  5
4C
330
1F
100
AcDbEntity
  8
layer 1
 62
     7
100
AcDbSpline
210
0.0
220
0.0
230
1.0
 70
    11
 71
     3
 72
    48
 73
    44
 74
     0
 42
0.0000000001
 43
0.0000000001
 12
1.0
 22
0.0
 32
0.0
 13
1.0
 23
0.0
 33
0.0
 40
0.0
 40
0.0
 40
0.0
 40
0.0
 40
0.0833333333333333
 40
0.0833333333333333
 40
0.0833333333333333
 40
0.0833333333333333
 40
0.1666666666666667
 40
0.1666666666666667
 40
0.1666666666666667
 40
0.1666666666666667
 40
0.25
 40
0.25
 40
0.25
 40
0.25
 40
0.3333333333333333
 40
0.3333333333333333
 40
0.3333333333333333
 40
0.3333333333333333
 40
0.4166666666666667
 40
0.4166666666666667
 40
0.4166666666666667
 40
0.4166666666666667
 40
0.5
 40
0.5
 40
0.5
 40
0.5
 40
0.5833333333333334
 40
0.5833333333333334
 40
0.5833333333333334
 40
0.5833333333333334
 40
0.6666666666666666
 40
0.6666666666666666
 40
0.6666666666666666
 40
0.6666666666666666
 40
0.75
 40
0.75
 40
0.75
 40
0.75
 40
0.8333333333333334
 40
0.8333333333333334
 40
0.8333333333333334
 40
0.8333333333333334
 40
1.0
 40
1.0
 40
1.0
 40
1.0
 10
-168.5782
 20
-20.8673
 30
0.0
 10
-181.1969
 20
-19.7238
 30
0.0
 10
-179.0688
 20
-38.1385
 30
0.0
 10
-170.6968
 20
-41.2156
 30
0.0
 10
-170.6968
 20
-41.2156
 30
0.0
 10
-172.0516
 20
-36.3645
 30
0.0
 10
-168.5673
 20
-34.6771
 30
0.0
 10
-166.5033
 20
-34.1211
 30
0.0
 10
-166.5033
 20
-34.1211
 30
0.0
 10
-167.1352
 20
-37.1998
 30
0.0
 10
-167.3479
 20
-40.0632
 30
0.0
 10
-165.686
 20
-43.157
 30
0.0
 10
-165.686
 20
-43.157
 30
0.0
 10
-161.1141
 20
-38.155
 30
0.0
 10
-150.2922
 20
-31.7488
 30
0.0
 10
-146.1384
 20
-21.8853
 30
0.0
 10
-146.1384
 20
-21.8853
 30
0.0
 10
-143.1323
 20
-14.9408
 30
0.0
 10
-143.6078
 20
-7.8859
 30
0.0
 10
-147.4992
 20
-8.3673
 30
0.0
 10
-147.4992
 20
-8.3673
 30
0.0
 10
-145.7647
 20
-9.8677
 30
0.0
 10
-146.4603
 20
-13.1895
 30
0.0
 10
-148.3923
 20
-13.5344
 30
0.0
 10
-148.3923
 20
-13.5344
 30
0.0
 10
-150.4292
 20
-13.8991
 30
0.0
 10
-152.6968
 20
-12.23
 30
0.0
 10
-151.7701
 20
-9.5442
 30
0.0
 10
-151.7701
 20
-9.5442
 30
0.0
 10
-151.7701
 20
-9.5442
 30
0.0
 10
-160.9412
 20
-22.4926
 30
0.0
 10
-160.9412
 20
-22.4926
 30
0.0
 10
-160.9412
 20
-22.4926
 30
0.0
 10
-160.9412
 20
-22.4926
 30
0.0
 10
-162.5388
 20
-20.4012
 30
0.0
 10
-162.5388
 20
-20.4012
 30
0.0
 10
-162.5388
 20
-20.4012
 30
0.0
 10
-161.2281
 20
-26.7227
 30
0.0
 10
-166.0429
 20
-28.023
 30
0.0
 10
-167.7837
 20
-27.502
 30
0.0
 10
-167.7837
 20
-27.502
 30
0.0
 10
-171.9894
 20
-26.2428
 30
0.0
 10
-170.7334
 20
-21.8243
 30
0.0
 10
-168.5782
 20
-20.8673
 30
0.0
  0
SPLINE
  5
4D
330
1F
100
AcDbEntity
  8
layer 1
 62
     7
100
AcDbSpline
210
0.0
220
0.0
230
1.0
 70
    11
 71
     3
 72
    16
 73
    12
 74
     0
 42
0.0000000001
 43
0.0000000001
 12
1.0
 22
0.0
 32
0.0
 13
1.0
 23
0.0
 33
0.0
 40
0.0
 40
0.0
 40
0.0
 40
0.0
 40
0.25
 40
0.25
 40
0.25
 40
0.25
 40
0.5
 40
0.5
 40
0.5
 40
0.5
 40
1.0
 40
1.0
 40
1.0
 40
1.0
 10
-29.7564
 20
-99.5662
 30
0.0
 10
-29.7564
 20
-99.5662
 30
0.0
 10
-29.7564
 20
-75.1049
 30
0.0
 10
-29.7564
 20
-75.1049
 30
0.0
 10
-29.7564
 20
-75.1049
 30
0.0
 10
-31.3697
 20
-88.009
 30
0.0
 10
-39.7688
 20
-97.4334
 30
0.0
 10
-52.8374
 20
-99.5662
 30
0.0
 10
-52.8374
 20
-99.5662
 30
0.0
 10
-52.8374
 20
-99.5662
 30
0.0
 10
-29.7564
 20
-99.5662
 30
0.0
 10
-29.7564
 20
-99.5662
 30
0.0
  0
SPLINE
  5
4E
330
1F
100
AcDbEntity
  8
layer 1
 62
     7
100
AcDbSpline
210
0.0
220
0.0
230
1.0
 70
    11
 71
     3
 72
    16
 73
    12
 74
     0
 42
0.0000000001
 43
0.0000000001
 12
1.0
 22
0.0
 32
0.0
 13
1.0
 23
0.0
 33
0.0
 40
0.0
 40
0.0
 40
0.0
 40
0.0
 40
0.25
 40
0.25
 40
0.25
 40
0.25
 40
0.5
 40
0.5
 40
0.5
 40
0.5
 40
1.0
 40
1.0
 40
1.0
 40
1.0
 10
-29.7564
 20
-68.2382
 30
0.0
 10
-29.8432
 20
-62.0896
 30
0.0
 10
-29.8432
 20
-43.1462
 30
0.0
 10
-29.7564
 20
-32.7617
 30
0.0
 10
-29.7564
 20
-32.7617
 30
0.0
 10
-31.1493
 20
-39.5663
 30
0.0
 10
-36.3802
 20
-44.8291
 30
0.0
 10
-40.2595
 20
-48.3165
 30
0.0
 10
-40.2595
 20
-48.3165
 30
0.0
 10
-36.3242
 20
-52.5084
 30
0.0
 10
-31.1419
 20
-60.0906
 30
0.0
 10
-29.7564
 20
-68.2382
 30
0.0
  0
SPLINE
  5
4F
330
1F
100
AcDbEntity
  8
layer 1
 62
     7
100
AcDbSpline
210
0.0
220
0.0
230
1.0
 70
    11
 71
     3
 72
    24
 73
    20
 74
     0
 42
0.0000000001
 43
0.0000000001
 12
1.0
 22
0.0
 32
0.0
 13
1.0
 23
0.0
 33
0.0
 40
0.0
 40
0.0
 40
0.0
 40
0.0
 40
0.1666666666666667
 40
0.1666666666666667
 40
0.1666666666666667
 40
0.1666666666666667
 40
0.3333333333333333
 40
0.3333333333333333
 40
0.3333333333333333
 40
0.3333333333333333
 40
0.5
 40
0.5
 40
0.5
 40
0.5
 40
0.6666666666666666
 40
0.6666666666666666
 40
0.6666666666666666
 40
0.6666666666666666
 40
1.0
 40
1.0
 40
1.0
 40
1.0
 10
-29.7564
 20
-25.5045
 30
0.0
 10
-29.8432
 20
-19.3548
 30
0.0
 10
-29.8432
 20
-3.6162
 30
0.0
 10
-29.7564
 20
6.7684
 30
0.0
 10
-29.7564
 20
6.7684
 30
0.0
 10
-34.5865
 20
-0.1912
 30
0.0
 10
-41.3805
 20
-9.9863
 30
0.0
 10
-46.2744
 20
-16.99
 30
0.0
 10
-46.2744
 20
-16.99
 30
0.0
 10
-44.8528
 20
-16.3854
 30
0.0
 10
-42.304
 20
-15.591
 30
0.0
 10
-38.8364
 20
-16.9457
 30
0.0
 10
-38.8364
 20
-16.9457
 30
0.0
 10
-40.0181
 20
-15.5712
 30
0.0
 10
-39.7855
 20
-10.6213
 30
0.0
 10
-34.6487
 20
-10.5592
 30
0.0
 10
-34.6487
 20
-10.5592
 30
0.0
 10
-37.8372
 20
-16.8547
 30
0.0
 10
-31.0081
 20
-17.9256
 30
0.0
 10
-29.7564
 20
-25.5045
 30
0.0
  0
SPLINE
  5
50
330
1F
100
AcDbEntity
  8
layer 1
 62
     7
100
AcDbSpline
210
0.0
220
0.0
230
1.0
 70
    11
 71
     3
 72
    44
 73
    40
 74
     0
 42
0.0000000001
 43
0.0000000001
 12
1.0
 22
0.0
 32
0.0
 13
1.0
 23
0.0
 33
0.0
 40
0.0
 40
0.0
 40
0.0
 40
0.0
 40
0.0909090909090909
 40
0.0909090909090909
 40
0.0909090909090909
 40
0.0909090909090909
 40
0.1818181818181818
 40
0.1818181818181818
 40
0.1818181818181818
 40
0.1818181818181818
 40
0.2727272727272727
 40
0.2727272727272727
 40
0.2727272727272727
 40
0.2727272727272727
 40
0.3636363636363636
 40
0.3636363636363636
 40
0.3636363636363636
 40
0.3636363636363636
 40
0.4545454545454545
 40
0.4545454545454545
 40
0.4545454545454545
 40
0.4545454545454545
 40
0.5454545454545454
 40
0.5454545454545454
 40
0.5454545454545454
 40
0.5454545454545454
 40
0.6363636363636364
 40
0.6363636363636364
 40
0.6363636363636364
 40
0.6363636363636364
 40
0.7272727272727273
 40
0.7272727272727273
 40
0.7272727272727273
 40
0.7272727272727273
 40
0.8181818181818182
 40
0.8181818181818182
 40
0.8181818181818182
 40
0.8181818181818182
 40
1.0
 40
1.0
 40
1.0
 40
1.0
 10
-52.804
 20
-42.3794
 30
0.0
 10
-52.1919
 20
-43.0944
 30
0.0
 10
-50.9978
 20
-41.9055
 30
0.0
 10
-51.9182
 20
-40.9773
 30
0.0
 10
-51.9182
 20
-40.9773
 30
0.0
 10
-57.1115
 20
-35.7494
 30
0.0
 10
-72.6872
 20
-25.9451
 30
0.0
 10
-72.7253
 20
-21.4646
 30
0.0
 10
-72.7253
 20
-21.4646
 30
0.0
 10
-71.0122
 20
-21.4083
 30
0.0
 10
-70.0614
 20
-19.7087
 30
0.0
 10
-67.7436
 20
-20.7931
 30
0.0
 10
-67.7436
 20
-20.7931
 30
0.0
 10
-72.6207
 20
-12.7629
 30
0.0
 10
-69.1072
 20
-3.0741
 30
0.0
 10
-61.5558
 20
-6.1863
 30
0.0
 10
-61.5558
 20
-6.1863
 30
0.0
 10
-63.8522
 20
-2.7596
 30
0.0
 10
-65.0746
 20
-0.8368
 30
0.0
 10
-66.9445
 20
1.5342
 30
0.0
 10
-66.9445
 20
1.5342
 30
0.0
 10
-71.7747
 20
-5.4253
 30
0.0
 10
-83.4729
 20
-21.7652
 30
0.0
 10
-88.3652
 20
-28.7689
 30
0.0
 10
-88.3652
 20
-28.7689
 30
0.0
 10
-85.9988
 20
-29.8183
 30
0.0
 10
-84.7199
 20
-30.298
 30
0.0
 10
-81.96
 20
-31.4771
 30
0.0
 10
-81.96
 20
-31.4771
 30
0.0
 10
-82.6692
 20
-29.8653
 30
0.0
 10
-83.0428
 20
-25.7235
 30
0.0
 10
-80.7418
 20
-25.0111
 30
0.0
 10
-80.7418
 20
-25.0111
 30
0.0
 10
-79.4723
 20
-28.7474
 30
0.0
 10
-74.244
 20
-30.7632
 30
0.0
 10
-68.5621
 20
-33.1144
 30
0.0
 10
-68.5621
 20
-33.1144
 30
0.0
 10
-62.2907
 20
-35.7082
 30
0.0
 10
-55.4678
 20
-38.6078
 30
0.0
 10
-52.804
 20
-42.3794
 30
0.0
  0
SPLINE
  5
51
330
1F
100
AcDbEntity
  8
layer 1
 62
     7
100
AcDbSpline
210
0.0
220
0.0
230
1.0
 70
    11
 71
     3
 72
    40
 73
    36
 74
     0
 42
0.0000000001
 43
0.0000000001
 12
1.0
 22
0.0
 32
0.0
 13
1.0
 23
0.0
 33
0.0
 40
0.0
 40
0.0
 40
0.0
 40
0.0
 40
0.1
 40
0.1
 40
0.1
 40
0.1
 40
0.2
 40
0.2
 40
0.2
 40
0.2
 40
0.3
 40
0.3
 40
0.3
 40
0.3
 40
0.4
 40
0.4
 40
0.4
 40
0.4
 40
0.5
 40
0.5
 40
0.5
 40
0.5
 40
0.6
 40
0.6
 40
0.6
 40
0.6
 40
0.7
 40
0.7
 40
0.7
 40
0.7
 40
0.8
 40
0.8
 40
0.8
 40
0.8
 40
1.0
 40
1.0
 40
1.0
 40
1.0
 10
-54.3562
 20
-45.2303
 30
0.0
 10
-53.4311
 20
-45.4018
 30
0.0
 10
-53.7045
 20
-46.7109
 30
0.0
 10
-54.8072
 20
-46.2161
 30
0.0
 10
-54.8072
 20
-46.2161
 30
0.0
 10
-61.5313
 20
-43.2025
 30
0.0
 10
-77.4095
 20
-41.6259
 30
0.0
 10
-81.3083
 20
-44.6362
 30
0.0
 10
-81.3083
 20
-44.6362
 30
0.0
 10
-80.5003
 20
-46.146
 30
0.0
 10
-80.2134
 20
-46.0033
 30
0.0
 10
-78.1156
 20
-47.4676
 30
0.0
 10
-78.1156
 20
-47.4676
 30
0.0
 10
-84.9431
 20
-49.6105
 30
0.0
 10
-90.1876
 20
-55.3593
 30
0.0
 10
-88.9542
 20
-61.7874
 30
0.0
 10
-88.9542
 20
-61.7874
 30
0.0
 10
-93.338
 20
-55.8454
 30
0.0
 10
-94.4923
 20
-54.3056
 30
0.0
 10
-100.3124
 20
-46.0154
 30
0.0
 10
-100.3124
 20
-46.0154
 30
0.0
 10
-96.2191
 20
-40.0083
 30
0.0
 10
-95.2942
 20
-38.7583
 30
0.0
 10
-90.3382
 20
-31.7138
 30
0.0
 10
-90.3382
 20
-31.7138
 30
0.0
 10
-87.6195
 20
-32.8666
 30
0.0
 10
-85.9062
 20
-33.5837
 30
0.0
 10
-82.6723
 20
-34.6363
 30
0.0
 10
-82.6723
 20
-34.6363
 30
0.0
 10
-85.1088
 20
-34.9367
 30
0.0
 10
-87.7469
 20
-37.5463
 30
0.0
 10
-86.7764
 20
-41.8809
 30
0.0
 10
-86.7764
 20
-41.8809
 30
0.0
 10
-74.1788
 20
-34.4691
 30
0.0
 10
-57.4046
 20
-43.4184
 30
0.0
 10
-54.3562
 20
-45.2303
 30
0.0
  0
SPLINE
  5
52
330
1F
100
AcDbEntity
  8
layer 1
 62
     7
100
AcDbSpline
210
0.0
220
0.0
230
1.0
 70
    11
 71
     3
 72
    16
 73
    12
 74
     0
 42
0.0000000001
 43
0.0000000001
 12
1.0
 22
0.0
 32
0.0
 13
1.0
 23
0.0
 33
0.0
 40
0.0
 40
0.0
 40
0.0
 40
0.0
 40
0.25
 40
0.25
 40
0.25
 40
0.25
 40
0.5
 40
0.5
 40
0.5
 40
0.5
 40
1.0
 40
1.0
 40
1.0
 40
1.0
 10
-61.2747
 20
-99.4842
 30
0.0
 10
-67.4244
 20
-99.3974
 30
0.0
 10
-76.0439
 20
-99.3974
 30
0.0
 10
-86.4269
 20
-99.4842
 30
0.0
 10
-86.4269
 20
-99.4842
 30
0.0
 10
-88.8952
 20
-94.7909
 30
0.0
 10
-84.6896
 20
-92.7889
 30
0.0
 10
-80.3545
 20
-93.2508
 30
0.0
 10
-80.3545
 20
-93.2508
 30
0.0
 10
-73.6759
 20
-93.9632
 30
0.0
 10
-69.1546
 20
-97.8238
 30
0.0
 10
-61.2747
 20
-99.4842
 30
0.0
  0
SPLINE
  5
53
330
1F
100
AcDbEntity
  8
layer 1
 62
     7
100
AcDbSpline
210
0.0
220
0.0
230
1.0
 70
    11
 71
     3
 72
    48
 73
    44
 74
     0
 42
0.0000000001
 43
0.0000000001
 12
1.0
 22
0.0
 32
0.0
 13
1.0
 23
0.0
 33
0.0
 40
0.0
 40
0.0
 40
0.0
 40
0.0
 40
0.0833333333333333
 40
0.0833333333333333
 40
0.0833333333333333
 40
0.0833333333333333
 40
0.1666666666666667
 40
0.1666666666666667
 40
0.1666666666666667
 40
0.1666666666666667
 40
0.25
 40
0.25
 40
0.25
 40
0.25
 40
0.3333333333333333
 40
0.3333333333333333
 40
0.3333333333333333
 40
0.3333333333333333
 40
0.4166666666666667
 40
0.4166666666666667
 40
0.4166666666666667
 40
0.4166666666666667
 40
0.5
 40
0.5
 40
0.5
 40
0.5
 40
0.5833333333333334
 40
0.5833333333333334
 40
0.5833333333333334
 40
0.5833333333333334
 40
0.6666666666666666
 40
0.6666666666666666
 40
0.6666666666666666
 40
0.6666666666666666
 40
0.75
 40
0.75
 40
0.75
 40
0.75
 40
0.8333333333333334
 40
0.8333333333333334
 40
0.8333333333333334
 40
0.8333333333333334
 40
1.0
 40
1.0
 40
1.0
 40
1.0
 10
-51.7697
 20
-51.3905
 30
0.0
 10
-65.4849
 20
-61.1906
 30
0.0
 10
-67.3669
 20
-56.7537
 30
0.0
 10
-74.2425
 20
-62.4209
 30
0.0
 10
-74.2425
 20
-62.4209
 30
0.0
 10
-80.3681
 20
-67.4695
 30
0.0
 10
-84.2308
 20
-79.1496
 30
0.0
 10
-76.6152
 20
-89.4613
 30
0.0
 10
-76.6152
 20
-89.4613
 30
0.0
 10
-79.6119
 20
-86.2107
 30
0.0
 10
-82.4095
 20
-89.2836
 30
0.0
 10
-86.6474
 20
-85.6306
 30
0.0
 10
-86.6474
 20
-85.6306
 30
0.0
 10
-87.2959
 20
-86.2654
 30
0.0
 10
-88.2497
 20
-88.3403
 30
0.0
 10
-85.127
 20
-90.468
 30
0.0
 10
-85.127
 20
-90.468
 30
0.0
 10
-91.2845
 20
-88.0545
 30
0.0
 10
-95.127
 20
-96.0364
 30
0.0
 10
-90.0679
 20
-99.5829
 30
0.0
 10
-90.0679
 20
-99.5829
 30
0.0
 10
-90.0679
 20
-99.5829
 30
0.0
 10
-104.3543
 20
-99.6102
 30
0.0
 10
-104.3543
 20
-99.6102
 30
0.0
 10
-104.3543
 20
-99.6102
 30
0.0
 10
-104.3543
 20
-99.6102
 30
0.0
 10
-83.1008
 20
-69.9634
 30
0.0
 10
-83.1008
 20
-69.9634
 30
0.0
 10
-83.1008
 20
-69.9634
 30
0.0
 10
-84.732
 20
-67.9994
 30
0.0
 10
-84.8747
 20
-67.6199
 30
0.0
 10
-86.7655
 20
-64.9786
 30
0.0
 10
-86.7655
 20
-64.9786
 30
0.0
 10
-84.3265
 20
-66.8511
 30
0.0
 10
-79.6542
 20
-66.0766
 30
0.0
 10
-79.7895
 20
-61.5962
 30
0.0
 10
-79.7895
 20
-61.5962
 30
0.0
 10
-80.1966
 20
-57.363
 30
0.0
 10
-85.2588
 20
-57.0849
 30
0.0
 10
-86.5303
 20
-59.5001
 30
0.0
 10
-86.5303
 20
-59.5001
 30
0.0
 10
-82.1863
 20
-43.0944
 30
0.0
 10
-55.8037
 20
-48.2239
 30
0.0
 10
-51.7697
 20
-51.3905
 30
0.0
  0
SPLINE
  5
54
330
1F
100
AcDbEntity
  8
layer 1
 62
     7
100
AcDbSpline
210
0.0
220
0.0
230
1.0
 70
    11
 71
     3
 72
    36
 73
    32
 74
     0
 42
0.0000000001
 43
0.0000000001
 12
1.0
 22
0.0
 32
0.0
 13
1.0
 23
0.0
 33
0.0
 40
0.0
 40
0.0
 40
0.0
 40
0.0
 40
0.1111111111111111
 40
0.1111111111111111
 40
0.1111111111111111
 40
0.1111111111111111
 40
0.2222222222222222
 40
0.2222222222222222
 40
0.2222222222222222
 40
0.2222222222222222
 40
0.3333333333333333
 40
0.3333333333333333
 40
0.3333333333333333
 40
0.3333333333333333
 40
0.4444444444444444
 40
0.4444444444444444
 40
0.4444444444444444
 40
0.4444444444444444
 40
0.5555555555555556
 40
0.5555555555555556
 40
0.5555555555555556
 40
0.5555555555555556
 40
0.6666666666666666
 40
0.6666666666666666
 40
0.6666666666666666
 40
0.6666666666666666
 40
0.7777777777777778
 40
0.7777777777777778
 40
0.7777777777777778
 40
0.7777777777777778
 40
1.0
 40
1.0
 40
1.0
 40
1.0
 10
-47.3938
 20
-53.9623
 30
0.0
 10
-49.0553
 20
-55.3473
 30
0.0
 10
-54.4351
 20
-58.0403
 30
0.0
 10
-57.7659
 20
-59.617
 30
0.0
 10
-57.7659
 20
-59.617
 30
0.0
 10
-52.8297
 20
-60.0786
 30
0.0
 10
-47.3191
 20
-66.0934
 30
0.0
 10
-47.4225
 20
-72.1265
 30
0.0
 10
-47.4225
 20
-72.1265
 30
0.0
 10
-47.5151
 20
-77.4834
 30
0.0
 10
-48.8989
 20
-84.0554
 30
0.0
 10
-58.2309
 20
-84.4975
 30
0.0
 10
-58.2309
 20
-84.4975
 30
0.0
 10
-73.389
 20
-81.5723
 30
0.0
 10
-64.3456
 20
-64.9102
 30
0.0
 10
-54.7951
 20
-72.1705
 30
0.0
 10
-54.7951
 20
-72.1705
 30
0.0
 10
-58.1441
 20
-64.6505
 30
0.0
 10
-66.8594
 20
-65.4083
 30
0.0
 10
-70.7827
 20
-70.7562
 30
0.0
 10
-70.7827
 20
-70.7562
 30
0.0
 10
-76.1777
 20
-78.8668
 30
0.0
 10
-69.32
 20
-90.0138
 30
0.0
 10
-61.1789
 20
-92.075
 30
0.0
 10
-61.1789
 20
-92.075
 30
0.0
 10
-53.2504
 20
-94.0829
 30
0.0
 10
-45.8929
 20
-89.8121
 30
0.0
 10
-42.0944
 20
-84.7269
 30
0.0
 10
-42.0944
 20
-84.7269
 30
0.0
 10
-35.7911
 20
-75.7398
 30
0.0
 10
-36.2693
 20
-61.0767
 30
0.0
 10
-47.3938
 20
-53.9623
 30
0.0
  0
SPLINE
  5
55
330
1F
100
AcDbEntity
  8
layer 1
 62
     7
100
AcDbSpline
210
0.0
220
0.0
230
1.0
 70
    11
 71
     3
 72
    20
 73
    16
 74
     0
 42
0.0000000001
 43
0.0000000001
 12
1.0
 22
0.0
 32
0.0
 13
1.0
 23
0.0
 33
0.0
 40
0.0
 40
0.0
 40
0.0
 40
0.0
 40
0.2
 40
0.2
 40
0.2
 40
0.2
 40
0.4
 40
0.4
 40
0.4
 40
0.4
 40
0.6
 40
0.6
 40
0.6
 40
0.6
 40
1.0
 40
1.0
 40
1.0
 40
1.0
 10
-97.4129
 20
-27.2437
 30
0.0
 10
-101.4517
 20
-23.1913
 30
0.0
 10
-104.8235
 20
-18.515
 30
0.0
 10
-105.5193
 20
-15.2889
 30
0.0
 10
-105.5193
 20
-15.2889
 30
0.0
 10
-106.2164
 20
-18.5149
 30
0.0
 10
-109.5883
 20
-23.1914
 30
0.0
 10
-113.6256
 20
-27.2439
 30
0.0
 10
-113.6256
 20
-27.2439
 30
0.0
 10
-113.6256
 20
-27.2439
 30
0.0
 10
-105.5193
 20
-38.1827
 30
0.0
 10
-105.5193
 20
-38.1827
 30
0.0
 10
-105.5193
 20
-38.1827
 30
0.0
 10
-105.5193
 20
-38.1827
 30
0.0
 10
-97.4129
 20
-27.2437
 30
0.0
 10
-97.4129
 20
-27.2437
 30
0.0
  0
SPLINE
  5
56
330
1F
100
AcDbEntity
  8
layer 1
 62
     7
100
AcDbSpline
210
0.0
220
0.0
230
1.0
 70
    11
 71
     3
 72
    16
 73
    12
 74
     0
 42
0.0000000001
 43
0.0000000001
 12
1.0
 22
0.0
 32
0.0
 13
1.0
 23
0.0
 33
0.0
 40
0.0
 40
0.0
 40
0.0
 40
0.0
 40
0.25
 40
0.25
 40
0.25
 40
0.25
 40
0.5
 40
0.5
 40
0.5
 40
0.5
 40
1.0
 40
1.0
 40
1.0
 40
1.0
 10
-84.7032
 20
-9.008
 30
0.0
 10
-94.0289
 20
-11.1226
 30
0.0
 10
-93.3636
 20
-0.4402
 30
0.0
 10
-89.5348
 20
0.6653
 30
0.0
 10
-89.5348
 20
0.6653
 30
0.0
 10
-102.9401
 20
3.029
 30
0.0
 10
-106.3058
 20
-14.531
 30
0.0
 10
-95.3047
 20
-23.7292
 30
0.0
 10
-95.3047
 20
-23.7292
 30
0.0
 10
-90.2608
 20
-16.9733
 30
0.0
 10
-88.7311
 20
-14.7511
 30
0.0
 10
-84.7032
 20
-9.008
 30
0.0
  0
SPLINE
  5
57
330
1F
100
AcDbEntity
  8
layer 1
 62
     7
100
AcDbSpline
210
0.0
220
0.0
230
1.0
 70
    11
 71
     3
 72
    20
 73
    16
 74
     0
 42
0.0000000001
 43
0.0000000001
 12
1.0
 22
0.0
 32
0.0
 13
1.0
 23
0.0
 33
0.0
 40
0.0
 40
0.0
 40
0.0
 40
0.0
 40
0.2
 40
0.2
 40
0.2
 40
0.2
 40
0.4
 40
0.4
 40
0.4
 40
0.4
 40
0.6
 40
0.6
 40
0.6
 40
0.6
 40
1.0
 40
1.0
 40
1.0
 40
1.0
 10
-50.0942
 20
-7.4149
 30
0.0
 10
-50.0942
 20
-7.4149
 30
0.0
 10
-61.7942
 20
9.0617
 30
0.0
 10
-61.7942
 20
9.0617
 30
0.0
 10
-61.7942
 20
9.0617
 30
0.0
 10
-61.7942
 20
9.0617
 30
0.0
 10
-50.0942
 20
25.5383
 30
0.0
 10
-50.0942
 20
25.5383
 30
0.0
 10
-50.0942
 20
25.5383
 30
0.0
 10
-50.0942
 20
25.5383
 30
0.0
 10
-38.5401
 20
9.0617
 30
0.0
 10
-38.5401
 20
9.0617
 30
0.0
 10
-38.5401
 20
9.0617
 30
0.0
 10
-38.5401
 20
9.0617
 30
0.0
 10
-50.0942
 20
-7.4149
 30
0.0
 10
-50.0942
 20
-7.4149
 30
0.0
  0
SPLINE
  5
58
330
1F
100
AcDbEntity
  8
layer 1
 62
     7
100
AcDbSpline
210
0.0
220
0.0
230
1.0
 70
    11
 71
     3
 72
    48
 73
    44
 74
     0
 42
0.0000000001
 43
0.0000000001
 12
1.0
 22
0.0
 32
0.0
 13
1.0
 23
0.0
 33
0.0
 40
0.0
 40
0.0
 40
0.0
 40
0.0
 40
0.0833333333333333
 40
0.0833333333333333
 40
0.0833333333333333
 40
0.0833333333333333
 40
0.1666666666666667
 40
0.1666666666666667
 40
0.1666666666666667
 40
0.1666666666666667
 40
0.25
 40
0.25
 40
0.25
 40
0.25
 40
0.3333333333333333
 40
0.3333333333333333
 40
0.3333333333333333
 40
0.3333333333333333
 40
0.4166666666666667
 40
0.4166666666666667
 40
0.4166666666666667
 40
0.4166666666666667
 40
0.5
 40
0.5
 40
0.5
 40
0.5
 40
0.5833333333333334
 40
0.5833333333333334
 40
0.5833333333333334
 40
0.5833333333333334
 40
0.6666666666666666
 40
0.6666666666666666
 40
0.6666666666666666
 40
0.6666666666666666
 40
0.75
 40
0.75
 40
0.75
 40
0.75
 40
0.8333333333333334
 40
0.8333333333333334
 40
0.8333333333333334
 40
0.8333333333333334
 40
1.0
 40
1.0
 40
1.0
 40
1.0
 10
-42.4603
 20
-20.8673
 30
0.0
 10
-29.8432
 20
-19.7238
 30
0.0
 10
-31.9696
 20
-38.1385
 30
0.0
 10
-40.3416
 20
-41.2156
 30
0.0
 10
-40.3416
 20
-41.2156
 30
0.0
 10
-38.9869
 20
-36.3645
 30
0.0
 10
-42.4723
 20
-34.6771
 30
0.0
 10
-44.5351
 20
-34.1211
 30
0.0
 10
-44.5351
 20
-34.1211
 30
0.0
 10
-43.9033
 20
-37.1998
 30
0.0
 10
-43.6921
 20
-40.0632
 30
0.0
 10
-45.3539
 20
-43.157
 30
0.0
 10
-45.3539
 20
-43.157
 30
0.0
 10
-49.924
 20
-38.155
 30
0.0
 10
-60.7462
 20
-31.7488
 30
0.0
 10
-64.9016
 20
-21.8853
 30
0.0
 10
-64.9016
 20
-21.8853
 30
0.0
 10
-67.9062
 20
-14.9408
 30
0.0
 10
-67.4321
 20
-7.8859
 30
0.0
 10
-63.5392
 20
-8.3673
 30
0.0
 10
-63.5392
 20
-8.3673
 30
0.0
 10
-65.2753
 20
-9.8677
 30
0.0
 10
-64.5781
 20
-13.1895
 30
0.0
 10
-62.6476
 20
-13.5344
 30
0.0
 10
-62.6476
 20
-13.5344
 30
0.0
 10
-60.611
 20
-13.8991
 30
0.0
 10
-58.3416
 20
-12.23
 30
0.0
 10
-59.2683
 20
-9.5442
 30
0.0
 10
-59.2683
 20
-9.5442
 30
0.0
 10
-59.2683
 20
-9.5442
 30
0.0
 10
-50.0973
 20
-22.4926
 30
0.0
 10
-50.0973
 20
-22.4926
 30
0.0
 10
-50.0973
 20
-22.4926
 30
0.0
 10
-50.0973
 20
-22.4926
 30
0.0
 10
-48.4993
 20
-20.4012
 30
0.0
 10
-48.4993
 20
-20.4012
 30
0.0
 10
-48.4993
 20
-20.4012
 30
0.0
 10
-49.8104
 20
-26.7227
 30
0.0
 10
-44.9955
 20
-28.023
 30
0.0
 10
-43.2562
 20
-27.502
 30
0.0
 10
-43.2562
 20
-27.502
 30
0.0
 10
-39.0491
 20
-26.2428
 30
0.0
 10
-40.305
 20
-21.8243
 30
0.0
 10
-42.4603
 20
-20.8673
 30
0.0
  0
SPLINE
  5
59
330
1F
100
AcDbEntity
  8
layer 1
 62
     7
100
AcDbSpline
210
0.0
220
0.0
230
1.0
 70
    11
 71
     3
 72
    16
 73
    12
 74
     0
 42
0.0000000001
 43
0.0000000001
 12
1.0
 22
0.0
 32
0.0
 13
1.0
 23
0.0
 33
0.0
 40
0.0
 40
0.0
 40
0.0
 40
0.0
 40
0.25
 40
0.25
 40
0.25
 40
0.25
 40
0.5
 40
0.5
 40
0.5
 40
0.5
 40
1.0
 40
1.0
 40
1.0
 40
1.0
 10
-181.282
 20
117.6895
 30
0.0
 10
-181.282
 20
117.6895
 30
0.0
 10
-181.282
 20
93.23
 30
0.0
 10
-181.282
 20
93.23
 30
0.0
 10
-181.282
 20
93.23
 30
0.0
 10
-179.6688
 20
106.1327
 30
0.0
 10
-171.2712
 20
115.5572
 30
0.0
 10
-158.2026
 20
117.6895
 30
0.0
 10
-158.2026
 20
117.6895
 30
0.0
 10
-158.2026
 20
117.6895
 30
0.0
 10
-181.282
 20
117.6895
 30
0.0
 10
-181.282
 20
117.6895
 30
0.0
  0
SPLINE
  5
5A
330
1F
100
AcDbEntity
  8
layer 1
 62
     7
100
AcDbSpline
210
0.0
220
0.0
230
1.0
 70
    11
 71
     3
 72
    16
 73
    12
 74
     0
 42
0.0000000001
 43
0.0000000001
 12
1.0
 22
0.0
 32
0.0
 13
1.0
 23
0.0
 33
0.0
 40
0.0
 40
0.0
 40
0.0
 40
0.0
 40
0.25
 40
0.25
 40
0.25
 40
0.25
 40
0.5
 40
0.5
 40
0.5
 40
0.5
 40
1.0
 40
1.0
 40
1.0
 40
1.0
 10
-181.282
 20
86.3631
 30
0.0
 10
-181.1969
 20
80.2135
 30
0.0
 10
-181.1969
 20
61.2698
 30
0.0
 10
-181.282
 20
50.8869
 30
0.0
 10
-181.282
 20
50.8869
 30
0.0
 10
-179.8892
 20
57.69
 30
0.0
 10
-174.6579
 20
62.9527
 30
0.0
 10
-170.7805
 20
66.4417
 30
0.0
 10
-170.7805
 20
66.4417
 30
0.0
 10
-174.7143
 20
70.6321
 30
0.0
 10
-179.8982
 20
78.2159
 30
0.0
 10
-181.282
 20
86.3631
 30
0.0
  0
SPLINE
  5
5B
330
1F
100
AcDbEntity
  8
layer 1
 62
     7
100
AcDbSpline
210
0.0
220
0.0
230
1.0
 70
    11
 71
     3
 72
    24
 73
    20
 74
     0
 42
0.0000000001
 43
0.0000000001
 12
1.0
 22
0.0
 32
0.0
 13
1.0
 23
0.0
 33
0.0
 40
0.0
 40
0.0
 40
0.0
 40
0.0
 40
0.1666666666666667
 40
0.1666666666666667
 40
0.1666666666666667
 40
0.1666666666666667
 40
0.3333333333333333
 40
0.3333333333333333
 40
0.3333333333333333
 40
0.3333333333333333
 40
0.5
 40
0.5
 40
0.5
 40
0.5
 40
0.6666666666666666
 40
0.6666666666666666
 40
0.6666666666666666
 40
0.6666666666666666
 40
1.0
 40
1.0
 40
1.0
 40
1.0
 10
-181.282
 20
43.6299
 30
0.0
 10
-181.1969
 20
37.4797
 30
0.0
 10
-181.1969
 20
21.7398
 30
0.0
 10
-181.282
 20
11.3554
 30
0.0
 10
-181.282
 20
11.3554
 30
0.0
 10
-176.452
 20
18.3162
 30
0.0
 10
-169.6579
 20
28.1101
 30
0.0
 10
-164.7641
 20
35.1133
 30
0.0
 10
-164.7641
 20
35.1133
 30
0.0
 10
-166.1873
 20
34.5091
 30
0.0
 10
-168.7345
 20
33.7146
 30
0.0
 10
-172.2036
 20
35.0709
 30
0.0
 10
-172.2036
 20
35.0709
 30
0.0
 10
-171.022
 20
33.6949
 30
0.0
 10
-171.2529
 20
28.7446
 30
0.0
 10
-176.3898
 20
28.6824
 30
0.0
 10
-176.3898
 20
28.6824
 30
0.0
 10
-173.2013
 20
34.9784
 30
0.0
 10
-180.0319
 20
36.0504
 30
0.0
 10
-181.282
 20
43.6299
 30
0.0
  0
SPLINE
  5
5C
330
1F
100
AcDbEntity
  8
layer 1
 62
     7
100
AcDbSpline
210
0.0
220
0.0
230
1.0
 70
    11
 71
     3
 72
    44
 73
    40
 74
     0
 42
0.0000000001
 43
0.0000000001
 12
1.0
 22
0.0
 32
0.0
 13
1.0
 23
0.0
 33
0.0
 40
0.0
 40
0.0
 40
0.0
 40
0.0
 40
0.0909090909090909
 40
0.0909090909090909
 40
0.0909090909090909
 40
0.0909090909090909
 40
0.1818181818181818
 40
0.1818181818181818
 40
0.1818181818181818
 40
0.1818181818181818
 40
0.2727272727272727
 40
0.2727272727272727
 40
0.2727272727272727
 40
0.2727272727272727
 40
0.3636363636363636
 40
0.3636363636363636
 40
0.3636363636363636
 40
0.3636363636363636
 40
0.4545454545454545
 40
0.4545454545454545
 40
0.4545454545454545
 40
0.4545454545454545
 40
0.5454545454545454
 40
0.5454545454545454
 40
0.5454545454545454
 40
0.5454545454545454
 40
0.6363636363636364
 40
0.6363636363636364
 40
0.6363636363636364
 40
0.6363636363636364
 40
0.7272727272727273
 40
0.7272727272727273
 40
0.7272727272727273
 40
0.7272727272727273
 40
0.8181818181818182
 40
0.8181818181818182
 40
0.8181818181818182
 40
0.8181818181818182
 40
1.0
 40
1.0
 40
1.0
 40
1.0
 10
-158.2361
 20
60.5044
 30
0.0
 10
-158.8465
 20
61.2197
 30
0.0
 10
-160.0421
 20
60.0287
 30
0.0
 10
-159.1202
 20
59.1025
 30
0.0
 10
-159.1202
 20
59.1025
 30
0.0
 10
-153.9287
 20
53.8743
 30
0.0
 10
-138.3509
 20
44.0684
 30
0.0
 10
-138.3148
 20
39.5879
 30
0.0
 10
-138.3148
 20
39.5879
 30
0.0
 10
-140.0265
 20
39.5332
 30
0.0
 10
-140.977
 20
37.8335
 30
0.0
 10
-143.2948
 20
38.9164
 30
0.0
 10
-143.2948
 20
38.9164
 30
0.0
 10
-138.4178
 20
30.8878
 30
0.0
 10
-141.9308
 20
21.199
 30
0.0
 10
-149.4842
 20
24.3111
 30
0.0
 10
-149.4842
 20
24.3111
 30
0.0
 10
-147.1863
 20
20.8845
 30
0.0
 10
-145.9638
 20
18.9601
 30
0.0
 10
-144.0954
 20
16.5909
 30
0.0
 10
-144.0954
 20
16.5909
 30
0.0
 10
-139.2654
 20
23.5502
 30
0.0
 10
-127.567
 20
39.8885
 30
0.0
 10
-122.6733
 20
46.8937
 30
0.0
 10
-122.6733
 20
46.8937
 30
0.0
 10
-125.0412
 20
47.9432
 30
0.0
 10
-126.3201
 20
48.4233
 30
0.0
 10
-129.0785
 20
49.6019
 30
0.0
 10
-129.0785
 20
49.6019
 30
0.0
 10
-128.3704
 20
47.9903
 30
0.0
 10
-127.9956
 20
43.8468
 30
0.0
 10
-130.2982
 20
43.136
 30
0.0
 10
-130.2982
 20
43.136
 30
0.0
 10
-131.5662
 20
46.8711
 30
0.0
 10
-136.7955
 20
48.8863
 30
0.0
 10
-142.4763
 20
51.2377
 30
0.0
 10
-142.4763
 20
51.2377
 30
0.0
 10
-148.7479
 20
53.832
 30
0.0
 10
-155.5706
 20
56.733
 30
0.0
 10
-158.2361
 20
60.5044
 30
0.0
  0
SPLINE
  5
5D
330
1F
100
AcDbEntity
  8
layer 1
 62
     7
100
AcDbSpline
210
0.0
220
0.0
230
1.0
 70
    11
 71
     3
 72
    40
 73
    36
 74
     0
 42
0.0000000001
 43
0.0000000001
 12
1.0
 22
0.0
 32
0.0
 13
1.0
 23
0.0
 33
0.0
 40
0.0
 40
0.0
 40
0.0
 40
0.0
 40
0.1
 40
0.1
 40
0.1
 40
0.1
 40
0.2
 40
0.2
 40
0.2
 40
0.2
 40
0.3
 40
0.3
 40
0.3
 40
0.3
 40
0.4
 40
0.4
 40
0.4
 40
0.4
 40
0.5
 40
0.5
 40
0.5
 40
0.5
 40
0.6
 40
0.6
 40
0.6
 40
0.6
 40
0.7
 40
0.7
 40
0.7
 40
0.7
 40
0.8
 40
0.8
 40
0.8
 40
0.8
 40
1.0
 40
1.0
 40
1.0
 40
1.0
 10
-156.6823
 20
63.3536
 30
0.0
 10
-157.6089
 20
63.5256
 30
0.0
 10
-157.3355
 20
64.8347
 30
0.0
 10
-156.2312
 20
64.3409
 30
0.0
 10
-156.2312
 20
64.3409
 30
0.0
 10
-149.5072
 20
61.3275
 30
0.0
 10
-133.6304
 20
59.7496
 30
0.0
 10
-129.7313
 20
62.7599
 30
0.0
 10
-129.7313
 20
62.7599
 30
0.0
 10
-130.5396
 20
64.2712
 30
0.0
 10
-130.825
 20
64.1266
 30
0.0
 10
-132.9228
 20
65.5925
 30
0.0
 10
-132.9228
 20
65.5925
 30
0.0
 10
-126.0969
 20
67.7342
 30
0.0
 10
-120.8508
 20
73.483
 30
0.0
 10
-122.0854
 20
79.9107
 30
0.0
 10
-122.0854
 20
79.9107
 30
0.0
 10
-117.7022
 20
73.9691
 30
0.0
 10
-116.5461
 20
72.4289
 30
0.0
 10
-110.7272
 20
64.1391
 30
0.0
 10
-110.7272
 20
64.1391
 30
0.0
 10
-114.8208
 20
58.1332
 30
0.0
 10
-115.7459
 20
56.8819
 30
0.0
 10
-120.7003
 20
49.8371
 30
0.0
 10
-120.7003
 20
49.8371
 30
0.0
 10
-123.419
 20
50.99
 30
0.0
 10
-125.1322
 20
51.7085
 30
0.0
 10
-128.3677
 20
52.7596
 30
0.0
 10
-128.3677
 20
52.7596
 30
0.0
 10
-125.9297
 20
53.0601
 30
0.0
 10
-123.2915
 20
55.6696
 30
0.0
 10
-124.262
 20
60.0046
 30
0.0
 10
-124.262
 20
60.0046
 30
0.0
 10
-136.861
 20
52.594
 30
0.0
 10
-153.6338
 20
61.5432
 30
0.0
 10
-156.6823
 20
63.3536
 30
0.0
  0
SPLINE
  5
5E
330
1F
100
AcDbEntity
  8
layer 1
 62
     7
100
AcDbSpline
210
0.0
220
0.0
230
1.0
 70
    11
 71
     3
 72
    16
 73
    12
 74
     0
 42
0.0000000001
 43
0.0000000001
 12
1.0
 22
0.0
 32
0.0
 13
1.0
 23
0.0
 33
0.0
 40
0.0
 40
0.0
 40
0.0
 40
0.0
 40
0.25
 40
0.25
 40
0.25
 40
0.25
 40
0.5
 40
0.5
 40
0.5
 40
0.5
 40
1.0
 40
1.0
 40
1.0
 40
1.0
 10
-149.7638
 20
117.6075
 30
0.0
 10
-143.6141
 20
117.5228
 30
0.0
 10
-134.9945
 20
117.5227
 30
0.0
 10
-124.6116
 20
117.6075
 30
0.0
 10
-124.6116
 20
117.6075
 30
0.0
 10
-122.1449
 20
112.9144
 30
0.0
 10
-126.3504
 20
110.9126
 30
0.0
 10
-130.6855
 20
111.3741
 30
0.0
 10
-130.6855
 20
111.3741
 30
0.0
 10
-137.3637
 20
112.0867
 30
0.0
 10
-141.8838
 20
115.9476
 30
0.0
 10
-149.7638
 20
117.6075
 30
0.0
  0
SPLINE
  5
5F
330
1F
100
AcDbEntity
  8
layer 1
 62
     7
100
AcDbSpline
210
0.0
220
0.0
230
1.0
 70
    11
 71
     3
 72
    48
 73
    44
 74
     0
 42
0.0000000001
 43
0.0000000001
 12
1.0
 22
0.0
 32
0.0
 13
1.0
 23
0.0
 33
0.0
 40
0.0
 40
0.0
 40
0.0
 40
0.0
 40
0.0833333333333333
 40
0.0833333333333333
 40
0.0833333333333333
 40
0.0833333333333333
 40
0.1666666666666667
 40
0.1666666666666667
 40
0.1666666666666667
 40
0.1666666666666667
 40
0.25
 40
0.25
 40
0.25
 40
0.25
 40
0.3333333333333333
 40
0.3333333333333333
 40
0.3333333333333333
 40
0.3333333333333333
 40
0.4166666666666667
 40
0.4166666666666667
 40
0.4166666666666667
 40
0.4166666666666667
 40
0.5
 40
0.5
 40
0.5
 40
0.5
 40
0.5833333333333334
 40
0.5833333333333334
 40
0.5833333333333334
 40
0.5833333333333334
 40
0.6666666666666666
 40
0.6666666666666666
 40
0.6666666666666666
 40
0.6666666666666666
 40
0.75
 40
0.75
 40
0.75
 40
0.75
 40
0.8333333333333334
 40
0.8333333333333334
 40
0.8333333333333334
 40
0.8333333333333334
 40
1.0
 40
1.0
 40
1.0
 40
1.0
 10
-159.2704
 20
69.5143
 30
0.0
 10
-145.5536
 20
79.3156
 30
0.0
 10
-143.6716
 20
74.8773
 30
0.0
 10
-136.7971
 20
80.5442
 30
0.0
 10
-136.7971
 20
80.5442
 30
0.0
 10
-130.6715
 20
85.5928
 30
0.0
 10
-126.8093
 20
97.2744
 30
0.0
 10
-134.4249
 20
107.5862
 30
0.0
 10
-134.4249
 20
107.5862
 30
0.0
 10
-131.4266
 20
104.3359
 30
0.0
 10
-128.6301
 20
107.4069
 30
0.0
 10
-124.3926
 20
103.7539
 30
0.0
 10
-124.3926
 20
103.7539
 30
0.0
 10
-123.7425
 20
104.3904
 30
0.0
 10
-122.7902
 20
106.4636
 30
0.0
 10
-125.9114
 20
108.5916
 30
0.0
 10
-125.9114
 20
108.5916
 30
0.0
 10
-119.7539
 20
106.1798
 30
0.0
 10
-115.9126
 20
114.1612
 30
0.0
 10
-120.9721
 20
117.7078
 30
0.0
 10
-120.9721
 20
117.7078
 30
0.0
 10
-120.9721
 20
117.7078
 30
0.0
 10
-106.6843
 20
117.7354
 30
0.0
 10
-106.6843
 20
117.7354
 30
0.0
 10
-106.6843
 20
117.7354
 30
0.0
 10
-106.6843
 20
117.7354
 30
0.0
 10
-127.9392
 20
88.0872
 30
0.0
 10
-127.9392
 20
88.0872
 30
0.0
 10
-127.9392
 20
88.0872
 30
0.0
 10
-126.3081
 20
86.1247
 30
0.0
 10
-126.1637
 20
85.7448
 30
0.0
 10
-124.2725
 20
83.1034
 30
0.0
 10
-124.2725
 20
83.1034
 30
0.0
 10
-126.7121
 20
84.9764
 30
0.0
 10
-131.3854
 20
84.1999
 30
0.0
 10
-131.2505
 20
79.7195
 30
0.0
 10
-131.2505
 20
79.7195
 30
0.0
 10
-130.8419
 20
75.4863
 30
0.0
 10
-125.7792
 20
75.2099
 30
0.0
 10
-124.5096
 20
77.6232
 30
0.0
 10
-124.5096
 20
77.6232
 30
0.0
 10
-128.8522
 20
61.2183
 30
0.0
 10
-155.2362
 20
66.3472
 30
0.0
 10
-159.2704
 20
69.5143
 30
0.0
  0
SPLINE
  5
60
330
1F
100
AcDbEntity
  8
layer 1
 62
     7
100
AcDbSpline
210
0.0
220
0.0
230
1.0
 70
    11
 71
     3
 72
    36
 73
    32
 74
     0
 42
0.0000000001
 43
0.0000000001
 12
1.0
 22
0.0
 32
0.0
 13
1.0
 23
0.0
 33
0.0
 40
0.0
 40
0.0
 40
0.0
 40
0.0
 40
0.1111111111111111
 40
0.1111111111111111
 40
0.1111111111111111
 40
0.1111111111111111
 40
0.2222222222222222
 40
0.2222222222222222
 40
0.2222222222222222
 40
0.2222222222222222
 40
0.3333333333333333
 40
0.3333333333333333
 40
0.3333333333333333
 40
0.3333333333333333
 40
0.4444444444444444
 40
0.4444444444444444
 40
0.4444444444444444
 40
0.4444444444444444
 40
0.5555555555555556
 40
0.5555555555555556
 40
0.5555555555555556
 40
0.5555555555555556
 40
0.6666666666666666
 40
0.6666666666666666
 40
0.6666666666666666
 40
0.6666666666666666
 40
0.7777777777777778
 40
0.7777777777777778
 40
0.7777777777777778
 40
0.7777777777777778
 40
1.0
 40
1.0
 40
1.0
 40
1.0
 10
-163.6446
 20
72.0871
 30
0.0
 10
-161.9832
 20
73.4726
 30
0.0
 10
-156.6049
 20
76.1651
 30
0.0
 10
-153.2722
 20
77.7403
 30
0.0
 10
-153.2722
 20
77.7403
 30
0.0
 10
-158.2105
 20
78.2039
 30
0.0
 10
-163.7209
 20
84.2182
 30
0.0
 10
-163.6159
 20
90.2498
 30
0.0
 10
-163.6159
 20
90.2498
 30
0.0
 10
-163.5249
 20
95.6083
 30
0.0
 10
-162.1395
 20
102.1806
 30
0.0
 10
-152.8092
 20
102.6223
 30
0.0
 10
-152.8092
 20
102.6223
 30
0.0
 10
-137.6495
 20
99.6957
 30
0.0
 10
-146.6928
 20
83.0335
 30
0.0
 10
-156.2448
 20
90.2937
 30
0.0
 10
-156.2448
 20
90.2937
 30
0.0
 10
-152.8943
 20
82.7753
 30
0.0
 10
-144.1806
 20
83.532
 30
0.0
 10
-140.2557
 20
88.8799
 30
0.0
 10
-140.2557
 20
88.8799
 30
0.0
 10
-134.8623
 20
96.9906
 30
0.0
 10
-141.7186
 20
108.1375
 30
0.0
 10
-149.861
 20
110.1987
 30
0.0
 10
-149.861
 20
110.1987
 30
0.0
 10
-157.7897
 20
112.2067
 30
0.0
 10
-165.147
 20
107.9368
 30
0.0
 10
-168.9455
 20
102.8502
 30
0.0
 10
-168.9455
 20
102.8502
 30
0.0
 10
-175.2475
 20
93.8633
 30
0.0
 10
-174.7691
 20
79.2
 30
0.0
 10
-163.6446
 20
72.0871
 30
0.0
  0
SPLINE
  5
61
330
1F
100
AcDbEntity
  8
layer 1
 62
     7
100
AcDbSpline
210
0.0
220
0.0
230
1.0
 70
    11
 71
     3
 72
    20
 73
    16
 74
     0
 42
0.0000000001
 43
0.0000000001
 12
1.0
 22
0.0
 32
0.0
 13
1.0
 23
0.0
 33
0.0
 40
0.0
 40
0.0
 40
0.0
 40
0.0
 40
0.2
 40
0.2
 40
0.2
 40
0.2
 40
0.4
 40
0.4
 40
0.4
 40
0.4
 40
0.6
 40
0.6
 40
0.6
 40
0.6
 40
1.0
 40
1.0
 40
1.0
 40
1.0
 10
-117.4241
 20
88.1248
 30
0.0
 10
-117.4241
 20
88.1248
 30
0.0
 10
-105.5193
 20
104.8112
 30
0.0
 10
-105.5193
 20
104.8112
 30
0.0
 10
-105.5193
 20
104.8112
 30
0.0
 10
-105.5193
 20
104.8112
 30
0.0
 10
-93.6144
 20
88.1248
 30
0.0
 10
-93.6144
 20
88.1248
 30
0.0
 10
-93.6144
 20
88.1248
 30
0.0
 10
-93.6144
 20
88.1248
 30
0.0
 10
-105.5193
 20
71.7563
 30
0.0
 10
-105.5193
 20
71.7563
 30
0.0
 10
-105.5193
 20
71.7563
 30
0.0
 10
-105.5193
 20
71.7563
 30
0.0
 10
-117.4241
 20
88.1248
 30
0.0
 10
-117.4241
 20
88.1248
 30
0.0
  0
SPLINE
  5
62
330
1F
100
AcDbEntity
  8
layer 1
 62
     7
100
AcDbSpline
210
0.0
220
0.0
230
1.0
 70
    11
 71
     3
 72
    16
 73
    12
 74
     0
 42
0.0000000001
 43
0.0000000001
 12
1.0
 22
0.0
 32
0.0
 13
1.0
 23
0.0
 33
0.0
 40
0.0
 40
0.0
 40
0.0
 40
0.0
 40
0.25
 40
0.25
 40
0.25
 40
0.25
 40
0.5
 40
0.5
 40
0.5
 40
0.5
 40
1.0
 40
1.0
 40
1.0
 40
1.0
 10
-126.3369
 20
27.1334
 30
0.0
 10
-117.0095
 20
29.2474
 30
0.0
 10
-117.6764
 20
18.5638
 30
0.0
 10
-121.5036
 20
17.458
 30
0.0
 10
-121.5036
 20
17.458
 30
0.0
 10
-108.0999
 20
15.0948
 30
0.0
 10
-104.7326
 20
32.6558
 30
0.0
 10
-115.7334
 20
41.8525
 30
0.0
 10
-115.7334
 20
41.8525
 30
0.0
 10
-120.7794
 20
35.0967
 30
0.0
 10
-122.3089
 20
32.8744
 30
0.0
 10
-126.3369
 20
27.1334
 30
0.0
  0
SPLINE
  5
63
330
1F
100
AcDbEntity
  8
layer 1
 62
     7
100
AcDbSpline
210
0.0
220
0.0
230
1.0
 70
    11
 71
     3
 72
    20
 73
    16
 74
     0
 42
0.0000000001
 43
0.0000000001
 12
1.0
 22
0.0
 32
0.0
 13
1.0
 23
0.0
 33
0.0
 40
0.0
 40
0.0
 40
0.0
 40
0.0
 40
0.2
 40
0.2
 40
0.2
 40
0.2
 40
0.4
 40
0.4
 40
0.4
 40
0.4
 40
0.6
 40
0.6
 40
0.6
 40
0.6
 40
1.0
 40
1.0
 40
1.0
 40
1.0
 10
-160.9443
 20
25.5383
 30
0.0
 10
-160.9443
 20
25.5383
 30
0.0
 10
-172.4984
 20
9.0617
 30
0.0
 10
-172.4984
 20
9.0617
 30
0.0
 10
-172.4984
 20
9.0617
 30
0.0
 10
-172.4984
 20
9.0617
 30
0.0
 10
-160.9443
 20
-7.4149
 30
0.0
 10
-160.9443
 20
-7.4149
 30
0.0
 10
-160.9443
 20
-7.4149
 30
0.0
 10
-160.9443
 20
-7.4149
 30
0.0
 10
-149.2459
 20
9.0617
 30
0.0
 10
-149.2459
 20
9.0617
 30
0.0
 10
-149.2459
 20
9.0617
 30
0.0
 10
-149.2459
 20
9.0617
 30
0.0
 10
-160.9443
 20
25.5383
 30
0.0
 10
-160.9443
 20
25.5383
 30
0.0
  0
SPLINE
  5
64
330
1F
100
AcDbEntity
  8
layer 1
 62
     7
100
AcDbSpline
210
0.0
220
0.0
230
1.0
 70
    11
 71
     3
 72
    48
 73
    44
 74
     0
 42
0.0000000001
 43
0.0000000001
 12
1.0
 22
0.0
 32
0.0
 13
1.0
 23
0.0
 33
0.0
 40
0.0
 40
0.0
 40
0.0
 40
0.0
 40
0.0833333333333333
 40
0.0833333333333333
 40
0.0833333333333333
 40
0.0833333333333333
 40
0.1666666666666667
 40
0.1666666666666667
 40
0.1666666666666667
 40
0.1666666666666667
 40
0.25
 40
0.25
 40
0.25
 40
0.25
 40
0.3333333333333333
 40
0.3333333333333333
 40
0.3333333333333333
 40
0.3333333333333333
 40
0.4166666666666667
 40
0.4166666666666667
 40
0.4166666666666667
 40
0.4166666666666667
 40
0.5
 40
0.5
 40
0.5
 40
0.5
 40
0.5833333333333334
 40
0.5833333333333334
 40
0.5833333333333334
 40
0.5833333333333334
 40
0.6666666666666666
 40
0.6666666666666666
 40
0.6666666666666666
 40
0.6666666666666666
 40
0.75
 40
0.75
 40
0.75
 40
0.75
 40
0.8333333333333334
 40
0.8333333333333334
 40
0.8333333333333334
 40
0.8333333333333334
 40
1.0
 40
1.0
 40
1.0
 40
1.0
 10
-168.5782
 20
38.991
 30
0.0
 10
-181.1969
 20
37.8472
 30
0.0
 10
-179.0688
 20
56.2637
 30
0.0
 10
-170.6968
 20
59.3409
 30
0.0
 10
-170.6968
 20
59.3409
 30
0.0
 10
-172.0516
 20
54.4879
 30
0.0
 10
-168.5673
 20
52.8008
 30
0.0
 10
-166.5033
 20
52.2447
 30
0.0
 10
-166.5033
 20
52.2447
 30
0.0
 10
-167.1352
 20
55.3236
 30
0.0
 10
-167.3479
 20
58.1864
 30
0.0
 10
-165.686
 20
61.2803
 30
0.0
 10
-165.686
 20
61.2803
 30
0.0
 10
-161.1141
 20
56.2804
 30
0.0
 10
-150.2922
 20
49.872
 30
0.0
 10
-146.1384
 20
40.0086
 30
0.0
 10
-146.1384
 20
40.0086
 30
0.0
 10
-143.1323
 20
33.0645
 30
0.0
 10
-143.6078
 20
26.0092
 30
0.0
 10
-147.4992
 20
26.4921
 30
0.0
 10
-147.4992
 20
26.4921
 30
0.0
 10
-145.7647
 20
27.993
 30
0.0
 10
-146.4603
 20
31.3133
 30
0.0
 10
-148.3923
 20
31.6592
 30
0.0
 10
-148.3923
 20
31.6592
 30
0.0
 10
-150.4292
 20
32.0241
 30
0.0
 10
-152.6968
 20
30.3531
 30
0.0
 10
-151.7701
 20
27.668
 30
0.0
 10
-151.7701
 20
27.668
 30
0.0
 10
-151.7701
 20
27.668
 30
0.0
 10
-160.9412
 20
40.6163
 30
0.0
 10
-160.9412
 20
40.6163
 30
0.0
 10
-160.9412
 20
40.6163
 30
0.0
 10
-160.9412
 20
40.6163
 30
0.0
 10
-162.5388
 20
38.5249
 30
0.0
 10
-162.5388
 20
38.5249
 30
0.0
 10
-162.5388
 20
38.5249
 30
0.0
 10
-161.2281
 20
44.8477
 30
0.0
 10
-166.0429
 20
46.1463
 30
0.0
 10
-167.7837
 20
45.6253
 30
0.0
 10
-167.7837
 20
45.6253
 30
0.0
 10
-171.9894
 20
44.3662
 30
0.0
 10
-170.7334
 20
39.948
 30
0.0
 10
-168.5782
 20
38.991
 30
0.0
  0
SPLINE
  5
65
330
1F
100
AcDbEntity
  8
layer 1
 62
     7
100
AcDbSpline
210
0.0
220
0.0
230
1.0
 70
    11
 71
     3
 72
    16
 73
    12
 74
     0
 42
0.0000000001
 43
0.0000000001
 12
1.0
 22
0.0
 32
0.0
 13
1.0
 23
0.0
 33
0.0
 40
0.0
 40
0.0
 40
0.0
 40
0.0
 40
0.25
 40
0.25
 40
0.25
 40
0.25
 40
0.5
 40
0.5
 40
0.5
 40
0.5
 40
1.0
 40
1.0
 40
1.0
 40
1.0
 10
-29.7564
 20
117.6895
 30
0.0
 10
-29.7564
 20
117.6895
 30
0.0
 10
-29.7564
 20
93.23
 30
0.0
 10
-29.7564
 20
93.23
 30
0.0
 10
-29.7564
 20
93.23
 30
0.0
 10
-31.3697
 20
106.1327
 30
0.0
 10
-39.7688
 20
115.5572
 30
0.0
 10
-52.8374
 20
117.6895
 30
0.0
 10
-52.8374
 20
117.6895
 30
0.0
 10
-52.8374
 20
117.6895
 30
0.0
 10
-29.7564
 20
117.6895
 30
0.0
 10
-29.7564
 20
117.6895
 30
0.0
  0
SPLINE
  5
66
330
1F
100
AcDbEntity
  8
layer 1
 62
     7
100
AcDbSpline
210
0.0
220
0.0
230
1.0
 70
    11
 71
     3
 72
    16
 73
    12
 74
     0
 42
0.0000000001
 43
0.0000000001
 12
1.0
 22
0.0
 32
0.0
 13
1.0
 23
0.0
 33
0.0
 40
0.0
 40
0.0
 40
0.0
 40
0.0
 40
0.25
 40
0.25
 40
0.25
 40
0.25
 40
0.5
 40
0.5
 40
0.5
 40
0.5
 40
1.0
 40
1.0
 40
1.0
 40
1.0
 10
-29.7564
 20
86.3631
 30
0.0
 10
-29.8432
 20
80.2135
 30
0.0
 10
-29.8432
 20
61.2698
 30
0.0
 10
-29.7564
 20
50.8869
 30
0.0
 10
-29.7564
 20
50.8869
 30
0.0
 10
-31.1493
 20
57.69
 30
0.0
 10
-36.3802
 20
62.9527
 30
0.0
 10
-40.2595
 20
66.4417
 30
0.0
 10
-40.2595
 20
66.4417
 30
0.0
 10
-36.3242
 20
70.6321
 30
0.0
 10
-31.1419
 20
78.2159
 30
0.0
 10
-29.7564
 20
86.3631
 30
0.0
  0
SPLINE
  5
67
330
1F
100
AcDbEntity
  8
layer 1
 62
     7
100
AcDbSpline
210
0.0
220
0.0
230
1.0
 70
    11
 71
     3
 72
    24
 73
    20
 74
     0
 42
0.0000000001
 43
0.0000000001
 12
1.0
 22
0.0
 32
0.0
 13
1.0
 23
0.0
 33
0.0
 40
0.0
 40
0.0
 40
0.0
 40
0.0
 40
0.1666666666666667
 40
0.1666666666666667
 40
0.1666666666666667
 40
0.1666666666666667
 40
0.3333333333333333
 40
0.3333333333333333
 40
0.3333333333333333
 40
0.3333333333333333
 40
0.5
 40
0.5
 40
0.5
 40
0.5
 40
0.6666666666666666
 40
0.6666666666666666
 40
0.6666666666666666
 40
0.6666666666666666
 40
1.0
 40
1.0
 40
1.0
 40
1.0
 10
-29.7564
 20
43.6299
 30
0.0
 10
-29.8432
 20
37.4797
 30
0.0
 10
-29.8432
 20
21.7398
 30
0.0
 10
-29.7564
 20
11.3554
 30
0.0
 10
-29.7564
 20
11.3554
 30
0.0
 10
-34.5865
 20
18.3162
 30
0.0
 10
-41.3805
 20
28.1101
 30
0.0
 10
-46.2744
 20
35.1133
 30
0.0
 10
-46.2744
 20
35.1133
 30
0.0
 10
-44.8528
 20
34.5091
 30
0.0
 10
-42.304
 20
33.7146
 30
0.0
 10
-38.8364
 20
35.0709
 30
0.0
 10
-38.8364
 20
35.0709
 30
0.0
 10
-40.0181
 20
33.6949
 30
0.0
 10
-39.7855
 20
28.7446
 30
0.0
 10
-34.6487
 20
28.6824
 30
0.0
 10
-34.6487
 20
28.6824
 30
0.0
 10
-37.8372
 20
34.9784
 30
0.0
 10
-31.0081
 20
36.0504
 30
0.0
 10
-29.7564
 20
43.6299
 30
0.0
  0
SPLINE
  5
68
330
1F
100
AcDbEntity
  8
layer 1
 62
     7
100
AcDbSpline
210
0.0
220
0.0
230
1.0
 70
    11
 71
     3
 72
    44
 73
    40
 74
     0
 42
0.0000000001
 43
0.0000000001
 12
1.0
 22
0.0
 32
0.0
 13
1.0
 23
0.0
 33
0.0
 40
0.0
 40
0.0
 40
0.0
 40
0.0
 40
0.0909090909090909
 40
0.0909090909090909
 40
0.0909090909090909
 40
0.0909090909090909
 40
0.1818181818181818
 40
0.1818181818181818
 40
0.1818181818181818
 40
0.1818181818181818
 40
0.2727272727272727
 40
0.2727272727272727
 40
0.2727272727272727
 40
0.2727272727272727
 40
0.3636363636363636
 40
0.3636363636363636
 40
0.3636363636363636
 40
0.3636363636363636
 40
0.4545454545454545
 40
0.4545454545454545
 40
0.4545454545454545
 40
0.4545454545454545
 40
0.5454545454545454
 40
0.5454545454545454
 40
0.5454545454545454
 40
0.5454545454545454
 40
0.6363636363636364
 40
0.6363636363636364
 40
0.6363636363636364
 40
0.6363636363636364
 40
0.7272727272727273
 40
0.7272727272727273
 40
0.7272727272727273
 40
0.7272727272727273
 40
0.8181818181818182
 40
0.8181818181818182
 40
0.8181818181818182
 40
0.8181818181818182
 40
1.0
 40
1.0
 40
1.0
 40
1.0
 10
-52.804
 20
60.5044
 30
0.0
 10
-52.1919
 20
61.2197
 30
0.0
 10
-50.9978
 20
60.0287
 30
0.0
 10
-51.9182
 20
59.1025
 30
0.0
 10
-51.9182
 20
59.1025
 30
0.0
 10
-57.1115
 20
53.8743
 30
0.0
 10
-72.6872
 20
44.0684
 30
0.0
 10
-72.7253
 20
39.5879
 30
0.0
 10
-72.7253
 20
39.5879
 30
0.0
 10
-71.0122
 20
39.5332
 30
0.0
 10
-70.0614
 20
37.8335
 30
0.0
 10
-67.7436
 20
38.9164
 30
0.0
 10
-67.7436
 20
38.9164
 30
0.0
 10
-72.6207
 20
30.8878
 30
0.0
 10
-69.1072
 20
21.199
 30
0.0
 10
-61.5558
 20
24.3111
 30
0.0
 10
-61.5558
 20
24.3111
 30
0.0
 10
-63.8522
 20
20.8845
 30
0.0
 10
-65.0746
 20
18.9601
 30
0.0
 10
-66.9445
 20
16.5909
 30
0.0
 10
-66.9445
 20
16.5909
 30
0.0
 10
-71.7747
 20
23.5502
 30
0.0
 10
-83.4729
 20
39.8885
 30
0.0
 10
-88.3652
 20
46.8937
 30
0.0
 10
-88.3652
 20
46.8937
 30
0.0
 10
-85.9988
 20
47.9432
 30
0.0
 10
-84.7199
 20
48.4233
 30
0.0
 10
-81.96
 20
49.6019
 30
0.0
 10
-81.96
 20
49.6019
 30
0.0
 10
-82.6692
 20
47.9903
 30
0.0
 10
-83.0428
 20
43.8468
 30
0.0
 10
-80.7418
 20
43.136
 30
0.0
 10
-80.7418
 20
43.136
 30
0.0
 10
-79.4723
 20
46.8711
 30
0.0
 10
-74.244
 20
48.8863
 30
0.0
 10
-68.5621
 20
51.2377
 30
0.0
 10
-68.5621
 20
51.2377
 30
0.0
 10
-62.2907
 20
53.832
 30
0.0
 10
-55.4678
 20
56.733
 30
0.0
 10
-52.804
 20
60.5044
 30
0.0
  0
SPLINE
  5
69
330
1F
100
AcDbEntity
  8
layer 1
 62
     7
100
AcDbSpline
210
0.0
220
0.0
230
1.0
 70
    11
 71
     3
 72
    40
 73
    36
 74
     0
 42
0.0000000001
 43
0.0000000001
 12
1.0
 22
0.0
 32
0.0
 13
1.0
 23
0.0
 33
0.0
 40
0.0
 40
0.0
 40
0.0
 40
0.0
 40
0.1
 40
0.1
 40
0.1
 40
0.1
 40
0.2
 40
0.2
 40
0.2
 40
0.2
 40
0.3
 40
0.3
 40
0.3
 40
0.3
 40
0.4
 40
0.4
 40
0.4
 40
0.4
 40
0.5
 40
0.5
 40
0.5
 40
0.5
 40
0.6
 40
0.6
 40
0.6
 40
0.6
 40
0.7
 40
0.7
 40
0.7
 40
0.7
 40
0.8
 40
0.8
 40
0.8
 40
0.8
 40
1.0
 40
1.0
 40
1.0
 40
1.0
 10
-54.3562
 20
63.3536
 30
0.0
 10
-53.4311
 20
63.5256
 30
0.0
 10
-53.7045
 20
64.8347
 30
0.0
 10
-54.8072
 20
64.3409
 30
0.0
 10
-54.8072
 20
64.3409
 30
0.0
 10
-61.5313
 20
61.3275
 30
0.0
 10
-77.4095
 20
59.7496
 30
0.0
 10
-81.3083
 20
62.7599
 30
0.0
 10
-81.3083
 20
62.7599
 30
0.0
 10
-80.5003
 20
64.2712
 30
0.0
 10
-80.2134
 20
64.1266
 30
0.0
 10
-78.1156
 20
65.5925
 30
0.0
 10
-78.1156
 20
65.5925
 30
0.0
 10
-84.9431
 20
67.7342
 30
0.0
 10
-90.1876
 20
73.483
 30
0.0
 10
-88.9542
 20
79.9107
 30
0.0
 10
-88.9542
 20
79.9107
 30
0.0
 10
-93.338
 20
73.9691
 30
0.0
 10
-94.4923
 20
72.4289
 30
0.0
 10
-100.3124
 20
64.1391
 30
0.0
 10
-100.3124
 20
64.1391
 30
0.0
 10
-96.2191
 20
58.1332
 30
0.0
 10
-95.2942
 20
56.8819
 30
0.0
 10
-90.3382
 20
49.8371
 30
0.0
 10
-90.3382
 20
49.8371
 30
0.0
 10
-87.6195
 20
50.99
 30
0.0
 10
-85.9062
 20
51.7085
 30
0.0
 10
-82.6723
 20
52.7596
 30
0.0
 10
-82.6723
 20
52.7596
 30
0.0
 10
-85.1088
 20
53.0601
 30
0.0
 10
-87.7469
 20
55.6696
 30
0.0
 10
-86.7764
 20
60.0046
 30
0.0
 10
-86.7764
 20
60.0046
 30
0.0
 10
-74.1788
 20
52.594
 30
0.0
 10
-57.4046
 20
61.5432
 30
0.0
 10
-54.3562
 20
63.3536
 30
0.0
  0
SPLINE
  5
6A
330
1F
100
AcDbEntity
  8
layer 1
 62
     7
100
AcDbSpline
210
0.0
220
0.0
230
1.0
 70
    11
 71
     3
 72
    16
 73
    12
 74
     0
 42
0.0000000001
 43
0.0000000001
 12
1.0
 22
0.0
 32
0.0
 13
1.0
 23
0.0
 33
0.0
 40
0.0
 40
0.0
 40
0.0
 40
0.0
 40
0.25
 40
0.25
 40
0.25
 40
0.25
 40
0.5
 40
0.5
 40
0.5
 40
0.5
 40
1.0
 40
1.0
 40
1.0
 40
1.0
 10
-61.2747
 20
117.6075
 30
0.0
 10
-67.4244
 20
117.5228
 30
0.0
 10
-76.0439
 20
117.5227
 30
0.0
 10
-86.4269
 20
117.6075
 30
0.0
 10
-86.4269
 20
117.6075
 30
0.0
 10
-88.8952
 20
112.9144
 30
0.0
 10
-84.6896
 20
110.9126
 30
0.0
 10
-80.3545
 20
111.3741
 30
0.0
 10
-80.3545
 20
111.3741
 30
0.0
 10
-73.6759
 20
112.0867
 30
0.0
 10
-69.1546
 20
115.9476
 30
0.0
 10
-61.2747
 20
117.6075
 30
0.0
  0
SPLINE
  5
6B
330
1F
100
AcDbEntity
  8
layer 1
 62
     7
100
AcDbSpline
210
0.0
220
0.0
230
1.0
 70
    11
 71
     3
 72
    48
 73
    44
 74
     0
 42
0.0000000001
 43
0.0000000001
 12
1.0
 22
0.0
 32
0.0
 13
1.0
 23
0.0
 33
0.0
 40
0.0
 40
0.0
 40
0.0
 40
0.0
 40
0.0833333333333333
 40
0.0833333333333333
 40
0.0833333333333333
 40
0.0833333333333333
 40
0.1666666666666667
 40
0.1666666666666667
 40
0.1666666666666667
 40
0.1666666666666667
 40
0.25
 40
0.25
 40
0.25
 40
0.25
 40
0.3333333333333333
 40
0.3333333333333333
 40
0.3333333333333333
 40
0.3333333333333333
 40
0.4166666666666667
 40
0.4166666666666667
 40
0.4166666666666667
 40
0.4166666666666667
 40
0.5
 40
0.5
 40
0.5
 40
0.5
 40
0.5833333333333334
 40
0.5833333333333334
 40
0.5833333333333334
 40
0.5833333333333334
 40
0.6666666666666666
 40
0.6666666666666666
 40
0.6666666666666666
 40
0.6666666666666666
 40
0.75
 40
0.75
 40
0.75
 40
0.75
 40
0.8333333333333334
 40
0.8333333333333334
 40
0.8333333333333334
 40
0.8333333333333334
 40
1.0
 40
1.0
 40
1.0
 40
1.0
 10
-51.7697
 20
69.5143
 30
0.0
 10
-65.4849
 20
79.3156
 30
0.0
 10
-67.3669
 20
74.8773
 30
0.0
 10
-74.2425
 20
80.5442
 30
0.0
 10
-74.2425
 20
80.5442
 30
0.0
 10
-80.3681
 20
85.5928
 30
0.0
 10
-84.2308
 20
97.2744
 30
0.0
 10
-76.6152
 20
107.5862
 30
0.0
 10
-76.6152
 20
107.5862
 30
0.0
 10
-79.6119
 20
104.3359
 30
0.0
 10
-82.4095
 20
107.4069
 30
0.0
 10
-86.6474
 20
103.7539
 30
0.0
 10
-86.6474
 20
103.7539
 30
0.0
 10
-87.2959
 20
104.3904
 30
0.0
 10
-88.2497
 20
106.4636
 30
0.0
 10
-85.127
 20
108.5916
 30
0.0
 10
-85.127
 20
108.5916
 30
0.0
 10
-91.2845
 20
106.1798
 30
0.0
 10
-95.127
 20
114.1612
 30
0.0
 10
-90.0679
 20
117.7078
 30
0.0
 10
-90.0679
 20
117.7078
 30
0.0
 10
-90.0679
 20
117.7078
 30
0.0
 10
-104.3543
 20
117.7354
 30
0.0
 10
-104.3543
 20
117.7354
 30
0.0
 10
-104.3543
 20
117.7354
 30
0.0
 10
-104.3543
 20
117.7354
 30
0.0
 10
-83.1008
 20
88.0872
 30
0.0
 10
-83.1008
 20
88.0872
 30
0.0
 10
-83.1008
 20
88.0872
 30
0.0
 10
-84.732
 20
86.1247
 30
0.0
 10
-84.8747
 20
85.7448
 30
0.0
 10
-86.7655
 20
83.1034
 30
0.0
 10
-86.7655
 20
83.1034
 30
0.0
 10
-84.3265
 20
84.9764
 30
0.0
 10
-79.6542
 20
84.1999
 30
0.0
 10
-79.7895
 20
79.7195
 30
0.0
 10
-79.7895
 20
79.7195
 30
0.0
 10
-80.1966
 20
75.4863
 30
0.0
 10
-85.2588
 20
75.2099
 30
0.0
 10
-86.5303
 20
77.6232
 30
0.0
 10
-86.5303
 20
77.6232
 30
0.0
 10
-82.1863
 20
61.2183
 30
0.0
 10
-55.8037
 20
66.3472
 30
0.0
 10
-51.7697
 20
69.5143
 30
0.0
  0
SPLINE
  5
6C
330
1F
100
AcDbEntity
  8
layer 1
 62
     7
100
AcDbSpline
210
0.0
220
0.0
230
1.0
 70
    11
 71
     3
 72
    36
 73
    32
 74
     0
 42
0.0000000001
 43
0.0000000001
 12
1.0
 22
0.0
 32
0.0
 13
1.0
 23
0.0
 33
0.0
 40
0.0
 40
0.0
 40
0.0
 40
0.0
 40
0.1111111111111111
 40
0.1111111111111111
 40
0.1111111111111111
 40
0.1111111111111111
 40
0.2222222222222222
 40
0.2222222222222222
 40
0.2222222222222222
 40
0.2222222222222222
 40
0.3333333333333333
 40
0.3333333333333333
 40
0.3333333333333333
 40
0.3333333333333333
 40
0.4444444444444444
 40
0.4444444444444444
 40
0.4444444444444444
 40
0.4444444444444444
 40
0.5555555555555556
 40
0.5555555555555556
 40
0.5555555555555556
 40
0.5555555555555556
 40
0.6666666666666666
 40
0.6666666666666666
 40
0.6666666666666666
 40
0.6666666666666666
 40
0.7777777777777778
 40
0.7777777777777778
 40
0.7777777777777778
 40
0.7777777777777778
 40
1.0
 40
1.0
 40
1.0
 40
1.0
 10
-47.3938
 20
72.0871
 30
0.0
 10
-49.0553
 20
73.4726
 30
0.0
 10
-54.4351
 20
76.1651
 30
0.0
 10
-57.7659
 20
77.7403
 30
0.0
 10
-57.7659
 20
77.7403
 30
0.0
 10
-52.8297
 20
78.2039
 30
0.0
 10
-47.3191
 20
84.2182
 30
0.0
 10
-47.4225
 20
90.2498
 30
0.0
 10
-47.4225
 20
90.2498
 30
0.0
 10
-47.5151
 20
95.6083
 30
0.0
 10
-48.8989
 20
102.1806
 30
0.0
 10
-58.2309
 20
102.6223
 30
0.0
 10
-58.2309
 20
102.6223
 30
0.0
 10
-73.389
 20
99.6957
 30
0.0
 10
-64.3456
 20
83.0335
 30
0.0
 10
-54.7951
 20
90.2937
 30
0.0
 10
-54.7951
 20
90.2937
 30
0.0
 10
-58.1441
 20
82.7753
 30
0.0
 10
-66.8594
 20
83.532
 30
0.0
 10
-70.7827
 20
88.8799
 30
0.0
 10
-70.7827
 20
88.8799
 30
0.0
 10
-76.1777
 20
96.9906
 30
0.0
 10
-69.32
 20
108.1375
 30
0.0
 10
-61.1789
 20
110.1987
 30
0.0
 10
-61.1789
 20
110.1987
 30
0.0
 10
-53.2504
 20
112.2067
 30
0.0
 10
-45.8929
 20
107.9368
 30
0.0
 10
-42.0944
 20
102.8502
 30
0.0
 10
-42.0944
 20
102.8502
 30
0.0
 10
-35.7911
 20
93.8633
 30
0.0
 10
-36.2693
 20
79.2
 30
0.0
 10
-47.3938
 20
72.0871
 30
0.0
  0
SPLINE
  5
6D
330
1F
100
AcDbEntity
  8
layer 1
 62
     7
100
AcDbSpline
210
0.0
220
0.0
230
1.0
 70
    11
 71
     3
 72
    20
 73
    16
 74
     0
 42
0.0000000001
 43
0.0000000001
 12
1.0
 22
0.0
 32
0.0
 13
1.0
 23
0.0
 33
0.0
 40
0.0
 40
0.0
 40
0.0
 40
0.0
 40
0.2
 40
0.2
 40
0.2
 40
0.2
 40
0.4
 40
0.4
 40
0.4
 40
0.4
 40
0.6
 40
0.6
 40
0.6
 40
0.6
 40
1.0
 40
1.0
 40
1.0
 40
1.0
 10
-97.4129
 20
45.3687
 30
0.0
 10
-101.4517
 20
41.3162
 30
0.0
 10
-104.8235
 20
36.6382
 30
0.0
 10
-105.5193
 20
33.4137
 30
0.0
 10
-105.5193
 20
33.4137
 30
0.0
 10
-106.2164
 20
36.6382
 30
0.0
 10
-109.5883
 20
41.3162
 30
0.0
 10
-113.6256
 20
45.3687
 30
0.0
 10
-113.6256
 20
45.3687
 30
0.0
 10
-113.6256
 20
45.3687
 30
0.0
 10
-105.5193
 20
56.3061
 30
0.0
 10
-105.5193
 20
56.3061
 30
0.0
 10
-105.5193
 20
56.3061
 30
0.0
 10
-105.5193
 20
56.3061
 30
0.0
 10
-97.4129
 20
45.3687
 30
0.0
 10
-97.4129
 20
45.3687
 30
0.0
  0
SPLINE
  5
6E
330
1F
100
AcDbEntity
  8
layer 1
 62
     7
100
AcDbSpline
210
0.0
220
0.0
230
1.0
 70
    11
 71
     3
 72
    16
 73
    12
 74
     0
 42
0.0000000001
 43
0.0000000001
 12
1.0
 22
0.0
 32
0.0
 13
1.0
 23
0.0
 33
0.0
 40
0.0
 40
0.0
 40
0.0
 40
0.0
 40
0.25
 40
0.25
 40
0.25
 40
0.25
 40
0.5
 40
0.5
 40
0.5
 40
0.5
 40
1.0
 40
1.0
 40
1.0
 40
1.0
 10
-84.7032
 20
27.1334
 30
0.0
 10
-94.0289
 20
29.2474
 30
0.0
 10
-93.3636
 20
18.5638
 30
0.0
 10
-89.5348
 20
17.458
 30
0.0
 10
-89.5348
 20
17.458
 30
0.0
 10
-102.9401
 20
15.0948
 30
0.0
 10
-106.3058
 20
32.6558
 30
0.0
 10
-95.3047
 20
41.8525
 30
0.0
 10
-95.3047
 20
41.8525
 30
0.0
 10
-90.2608
 20
35.0967
 30
0.0
 10
-88.7311
 20
32.8744
 30
0.0
 10
-84.7032
 20
27.1334
 30
0.0
  0
SPLINE
  5
6F
330
1F
100
AcDbEntity
  8
layer 1
 62
     7
100
AcDbSpline
210
0.0
220
0.0
230
1.0
 70
    11
 71
     3
 72
    48
 73
    44
 74
     0
 42
0.0000000001
 43
0.0000000001
 12
1.0
 22
0.0
 32
0.0
 13
1.0
 23
0.0
 33
0.0
 40
0.0
 40
0.0
 40
0.0
 40
0.0
 40
0.0833333333333333
 40
0.0833333333333333
 40
0.0833333333333333
 40
0.0833333333333333
 40
0.1666666666666667
 40
0.1666666666666667
 40
0.1666666666666667
 40
0.1666666666666667
 40
0.25
 40
0.25
 40
0.25
 40
0.25
 40
0.3333333333333333
 40
0.3333333333333333
 40
0.3333333333333333
 40
0.3333333333333333
 40
0.4166666666666667
 40
0.4166666666666667
 40
0.4166666666666667
 40
0.4166666666666667
 40
0.5
 40
0.5
 40
0.5
 40
0.5
 40
0.5833333333333334
 40
0.5833333333333334
 40
0.5833333333333334
 40
0.5833333333333334
 40
0.6666666666666666
 40
0.6666666666666666
 40
0.6666666666666666
 40
0.6666666666666666
 40
0.75
 40
0.75
 40
0.75
 40
0.75
 40
0.8333333333333334
 40
0.8333333333333334
 40
0.8333333333333334
 40
0.8333333333333334
 40
1.0
 40
1.0
 40
1.0
 40
1.0
 10
-42.4603
 20
38.991
 30
0.0
 10
-29.8432
 20
37.8472
 30
0.0
 10
-31.9696
 20
56.2637
 30
0.0
 10
-40.3416
 20
59.3409
 30
0.0
 10
-40.3416
 20
59.3409
 30
0.0
 10
-38.9869
 20
54.4879
 30
0.0
 10
-42.4723
 20
52.8008
 30
0.0
 10
-44.5351
 20
52.2447
 30
0.0
 10
-44.5351
 20
52.2447
 30
0.0
 10
-43.9033
 20
55.3236
 30
0.0
 10
-43.6921
 20
58.1864
 30
0.0
 10
-45.3539
 20
61.2803
 30
0.0
 10
-45.3539
 20
61.2803
 30
0.0
 10
-49.924
 20
56.2804
 30
0.0
 10
-60.7462
 20
49.872
 30
0.0
 10
-64.9016
 20
40.0086
 30
0.0
 10
-64.9016
 20
40.0086
 30
0.0
 10
-67.9062
 20
33.0645
 30
0.0
 10
-67.4321
 20
26.0092
 30
0.0
 10
-63.5392
 20
26.4921
 30
0.0
 10
-63.5392
 20
26.4921
 30
0.0
 10
-65.2753
 20
27.993
 30
0.0
 10
-64.5781
 20
31.3133
 30
0.0
 10
-62.6476
 20
31.6592
 30
0.0
 10
-62.6476
 20
31.6592
 30
0.0
 10
-60.611
 20
32.0241
 30
0.0
 10
-58.3416
 20
30.3531
 30
0.0
 10
-59.2683
 20
27.668
 30
0.0
 10
-59.2683
 20
27.668
 30
0.0
 10
-59.2683
 20
27.668
 30
0.0
 10
-50.0973
 20
40.6163
 30
0.0
 10
-50.0973
 20
40.6163
 30
0.0
 10
-50.0973
 20
40.6163
 30
0.0
 10
-50.0973
 20
40.6163
 30
0.0
 10
-48.4993
 20
38.5249
 30
0.0
 10
-48.4993
 20
38.5249
 30
0.0
 10
-48.4993
 20
38.5249
 30
0.0
 10
-49.8104
 20
44.8477
 30
0.0
 10
-44.9955
 20
46.1463
 30
0.0
 10
-43.2562
 20
45.6253
 30
0.0
 10
-43.2562
 20
45.6253
 30
0.0
 10
-39.0491
 20
44.3662
 30
0.0
 10
-40.305
 20
39.948
 30
0.0
 10
-42.4603
 20
38.991
 30
0.0
  0
SPLINE
  5
70
330
1F
100
AcDbEntity
  8
layer 1
 62
     7
100
AcDbSpline
210
0.0
220
0.0
230
1.0
 70
    11
 71
     3
 72
    16
 73
    12
 74
     0
 42
0.0000000001
 43
0.0000000001
 12
1.0
 22
0.0
 32
0.0
 13
1.0
 23
0.0
 33
0.0
 40
0.0
 40
0.0
 40
0.0
 40
0.0
 40
0.25
 40
0.25
 40
0.25
 40
0.25
 40
0.5
 40
0.5
 40
0.5
 40
0.5
 40
1.0
 40
1.0
 40
1.0
 40
1.0
 10
-110.0029
 20
1.7408
 30
0.0
 10
-107.6166
 20
-0.0089
 30
0.0
 10
-105.674
 20
-4.8433
 30
0.0
 10
-105.5193
 20
-7.7961
 30
0.0
 10
-105.5193
 20
-7.7961
 30
0.0
 10
-105.3657
 20
-4.8433
 30
0.0
 10
-103.3911
 20
-0.0984
 30
0.0
 10
-101.0064
 20
1.6513
 30
0.0
 10
-101.0064
 20
1.6513
 30
0.0
 10
-104.0382
 20
-0.2912
 30
0.0
 10
-107.8946
 20
0.2889
 30
0.0
 10
-110.0029
 20
1.7408
 30
0.0
  0
SPLINE
  5
71
330
1F
100
AcDbEntity
  8
layer 1
 62
     7
100
AcDbSpline
210
0.0
220
0.0
230
1.0
 70
    11
 71
     3
 72
    16
 73
    12
 74
     0
 42
0.0000000001
 43
0.0000000001
 12
1.0
 22
0.0
 32
0.0
 13
1.0
 23
0.0
 33
0.0
 40
0.0
 40
0.0
 40
0.0
 40
0.0
 40
0.25
 40
0.25
 40
0.25
 40
0.25
 40
0.5
 40
0.5
 40
0.5
 40
0.5
 40
1.0
 40
1.0
 40
1.0
 40
1.0
 10
-110.0332
 20
16.3538
 30
0.0
 10
-107.6474
 20
18.102
 30
0.0
 10
-105.674
 20
22.967
 30
0.0
 10
-105.5193
 20
25.9198
 30
0.0
 10
-105.5193
 20
25.9198
 30
0.0
 10
-105.3657
 20
22.967
 30
0.0
 10
-103.4825
 20
18.2525
 30
0.0
 10
-101.0963
 20
16.5043
 30
0.0
 10
-101.0963
 20
16.5043
 30
0.0
 10
-103.5872
 20
18.2054
 30
0.0
 10
-107.5349
 20
17.9258
 30
0.0
 10
-110.0332
 20
16.3538
 30
0.0
  0
SPLINE
  5
72
330
1F
100
AcDbEntity
  8
layer 1
 62
     7
100
AcDbSpline
210
0.0
220
0.0
230
1.0
 70
    11
 71
     3
 72
    28
 73
    24
 74
     0
 42
0.0000000001
 43
0.0000000001
 12
1.0
 22
0.0
 32
0.0
 13
1.0
 23
0.0
 33
0.0
 40
0.0
 40
0.0
 40
0.0
 40
0.0
 40
0.1428571428571428
 40
0.1428571428571428
 40
0.1428571428571428
 40
0.1428571428571428
 40
0.2857142857142857
 40
0.2857142857142857
 40
0.2857142857142857
 40
0.2857142857142857
 40
0.4285714285714285
 40
0.4285714285714285
 40
0.4285714285714285
 40
0.4285714285714285
 40
0.5714285714285714
 40
0.5714285714285714
 40
0.5714285714285714
 40
0.5714285714285714
 40
0.7142857142857143
 40
0.7142857142857143
 40
0.7142857142857143
 40
0.7142857142857143
 40
1.0
 40
1.0
 40
1.0
 40
1.0
 10
-138.7825
 20
9.0434
 30
0.0
 10
-134.7285
 20
14.9109
 30
0.0
 10
-133.5364
 20
16.7153
 30
0.0
 10
-129.5916
 20
22.4977
 30
0.0
 10
-129.5916
 20
22.4977
 30
0.0
 10
-130.3997
 20
11.6925
 30
0.0
 10
-115.9737
 20
10.953
 30
0.0
 10
-112.1869
 20
14.3657
 30
0.0
 10
-112.1869
 20
14.3657
 30
0.0
 10
-115.0289
 20
10.4879
 30
0.0
 10
-114.2026
 20
6.32
 30
0.0
 10
-112.1869
 20
3.758
 30
0.0
 10
-112.1869
 20
3.758
 30
0.0
 10
-115.9737
 20
7.1709
 30
0.0
 10
-130.3997
 20
6.4312
 30
0.0
 10
-129.5916
 20
-4.3729
 30
0.0
 10
-129.5916
 20
-4.3729
 30
0.0
 10
-133.5364
 20
1.4083
 30
0.0
 10
-134.7285
 20
3.2125
 30
0.0
 10
-138.7824
 20
9.0814
 30
0.0
 10
-138.7824
 20
9.0814
 30
0.0
 10
-138.7824
 20
9.0814
 30
0.0
 10
-138.7825
 20
9.0434
 30
0.0
 10
-138.7825
 20
9.0434
 30
0.0
  0
SPLINE
  5
73
330
1F
100
AcDbEntity
  8
layer 1
 62
     7
100
AcDbSpline
210
0.0
220
0.0
230
1.0
 70
    11
 71
     3
 72
    28
 73
    24
 74
     0
 42
0.0000000001
 43
0.0000000001
 12
1.0
 22
0.0
 32
0.0
 13
1.0
 23
0.0
 33
0.0
 40
0.0
 40
0.0
 40
0.0
 40
0.0
 40
0.1428571428571428
 40
0.1428571428571428
 40
0.1428571428571428
 40
0.1428571428571428
 40
0.2857142857142857
 40
0.2857142857142857
 40
0.2857142857142857
 40
0.2857142857142857
 40
0.4285714285714285
 40
0.4285714285714285
 40
0.4285714285714285
 40
0.4285714285714285
 40
0.5714285714285714
 40
0.5714285714285714
 40
0.5714285714285714
 40
0.5714285714285714
 40
0.7142857142857143
 40
0.7142857142857143
 40
0.7142857142857143
 40
0.7142857142857143
 40
1.0
 40
1.0
 40
1.0
 40
1.0
 10
-72.256
 20
9.0434
 30
0.0
 10
-76.31
 20
14.9109
 30
0.0
 10
-77.5036
 20
16.7153
 30
0.0
 10
-81.4468
 20
22.4977
 30
0.0
 10
-81.4468
 20
22.4977
 30
0.0
 10
-80.6387
 20
11.6925
 30
0.0
 10
-94.8249
 20
10.953
 30
0.0
 10
-98.6112
 20
14.3657
 30
0.0
 10
-98.6112
 20
14.3657
 30
0.0
 10
-96.4089
 20
11.463
 30
0.0
 10
-95.9516
 20
6.9611
 30
0.0
 10
-98.6416
 20
3.758
 30
0.0
 10
-98.6416
 20
3.758
 30
0.0
 10
-94.8552
 20
7.1709
 30
0.0
 10
-80.6387
 20
6.4312
 30
0.0
 10
-81.4468
 20
-4.3729
 30
0.0
 10
-81.4468
 20
-4.3729
 30
0.0
 10
-77.5036
 20
1.4083
 30
0.0
 10
-76.3099
 20
3.2125
 30
0.0
 10
-72.256
 20
9.0814
 30
0.0
 10
-72.256
 20
9.0814
 30
0.0
 10
-72.256
 20
9.0814
 30
0.0
 10
-72.256
 20
9.0434
 30
0.0
 10
-72.256
 20
9.0434
 30
0.0
  0
SPLINE
  5
74
330
1F
100
AcDbEntity
  8
layer 1
 62
     7
100
AcDbSpline
210
0.0
220
0.0
230
1.0
 70
    11
 71
     3
 72
    20
 73
    16
 74
     0
 42
0.0000000001
 43
0.0000000001
 12
1.0
 22
0.0
 32
0.0
 13
1.0
 23
0.0
 33
0.0
 40
0.0
 40
0.0
 40
0.0
 40
0.0
 40
0.2
 40
0.2
 40
0.2
 40
0.2
 40
0.4
 40
0.4
 40
0.4
 40
0.4
 40
0.6
 40
0.6
 40
0.6
 40
0.6
 40
1.0
 40
1.0
 40
1.0
 40
1.0
 10
-105.3948
 20
12.4398
 30
0.0
 10
-103.5265
 20
12.4398
 30
0.0
 10
-102.0107
 20
10.9237
 30
0.0
 10
-102.0107
 20
9.0559
 30
0.0
 10
-102.0107
 20
9.0559
 30
0.0
 10
-102.0109
 20
7.186
 30
0.0
 10
-103.5265
 20
5.6702
 30
0.0
 10
-105.3948
 20
5.6702
 30
0.0
 10
-105.3948
 20
5.6702
 30
0.0
 10
-107.2643
 20
5.6703
 30
0.0
 10
-108.7803
 20
7.1859
 30
0.0
 10
-108.7803
 20
9.0559
 30
0.0
 10
-108.7803
 20
9.0559
 30
0.0
 10
-108.7804
 20
10.9239
 30
0.0
 10
-107.2643
 20
12.4398
 30
0.0
 10
-105.3948
 20
12.4398
 30
0.0
  0
ENDSEC
  0
SECTION
  2
OBJECTS
  0
DICTIONARY
  5
C
330
0
100
AcDbDictionary
281
     1
  3
ACAD_GROUP
350
D
  3
ACAD_LAYOUT
350
1A
  3
ACAD_MATERIAL
350
3B
  3
ACAD_MLEADERSTYLE
350
96
  3
ACAD_MLINESTYLE
350
17
  3
ACAD_PLOTSETTINGS
350
19
  3
ACAD_PLOTSTYLENAME
350
E
  3
ACAD_TABLESTYLE
350
95
  3
ACAD_VISUALSTYLE
350
2A
  0
DICTIONARY
  5
D
102
{ACAD_REACTORS
330
C
102
}
330
C
100
AcDbDictionary
281
     1
  0
DICTIONARY
  5
1A
102
{ACAD_REACTORS
330
C
102
}
330
C
100
AcDbDictionary
281
     1
  3
Layout1
350
1E
  3
Layout2
350
26
  3
Model
350
22
  0
DICTIONARY
  5
3B
102
{ACAD_REACTORS
330
C
102
}
330
C
100
AcDbDictionary
281
     1
  3
ByBlock
350
3D
  3
ByLayer
350
3C
  3
Global
350
3E
  0
DICTIONARY
  5
96
102
{ACAD_REACTORS
330
C
102
}
330
C
100
AcDbDictionary
281
     1
  0
DICTIONARY
  5
17
102
{ACAD_REACTORS
330
C
102
}
330
C
100
AcDbDictionary
281
     1
  3
Standard
350
18
  0
DICTIONARY
  5
19
102
{ACAD_REACTORS
330
C
102
}
330
C
100
AcDbDictionary
281
     1
  0
ACDBDICTIONARYWDFLT
  5
E
102
{ACAD_REACTORS
330
C
102
}
330
C
100
AcDbDictionary
281
     1
  3
Normal
350
F
100
AcDbDictionaryWithDefault
340
F
  0
DICTIONARY
  5
95
102
{ACAD_REACTORS
330
C
102
}
330
C
100
AcDbDictionary
281
     1
  0
DICTIONARY
  5
2A
102
{ACAD_REACTORS
330
C
102
}
330
C
100
AcDbDictionary
281
     1
  3
2dWireframe
350
2F
  3
3D Hidden
350
31
  3
3dWireframe
350
30
  3
Basic
350
32
  3
Brighten
350
36
  3
ColorChange
350
3A
  3
Conceptual
350
34
  3
Dim
350
35
  3
Facepattern
350
39
  3
Flat
350
2B
  3
FlatWithEdges
350
2C
  3
Gouraud
350
2D
  3
GouraudWithEdges
350
2E
  3
Linepattern
350
38
  3
Realistic
350
33
  3
Thicken
350
37
  0
LAYOUT
  5
1E
102
{ACAD_REACTORS
330
1A
102
}
330
1A
100
AcDbPlotSettings
  1

  2
none_device
  4

  6

 40
0.0
 41
0.0
 42
0.0
 43
0.0
 44
0.0
 45
0.0
 46
0.0
 47
0.0
 48
0.0
 49
0.0
140
0.0
141
0.0
142
1.0
143
1.0
 70
   688
 72
     0
 73
     0
 74
     5
  7

 75
    16
 76
     0
 77
     2
 78
   300
147
1.0
148
0.0
149
0.0
100
AcDbLayout
  1
Layout1
 70
     1
 71
     1
 10
0.0
 20
0.0
 11
12.0
 21
9.0
 12
0.0
 22
0.0
 32
0.0
 14
1.000000000000000E+20
 24
1.000000000000000E+20
 34
1.000000000000000E+20
 15
-1.000000000000000E+20
 25
-1.000000000000000E+20
 35
-1.000000000000000E+20
146
0.0
 13
0.0
 23
0.0
 33
0.0
 16
1.0
 26
0.0
 36
0.0
 17
0.0
 27
1.0
 37
0.0
 76
     0
330
1B
  0
LAYOUT
  5
26
102
{ACAD_REACTORS
330
1A
102
}
330
1A
100
AcDbPlotSettings
  1

  2
none_device
  4

  6

 40
0.0
 41
0.0
 42
0.0
 43
0.0
 44
0.0
 45
0.0
 46
0.0
 47
0.0
 48
0.0
 49
0.0
140
0.0
141
0.0
142
1.0
143
1.0
 70
   688
 72
     0
 73
     0
 74
     5
  7

 75
    16
 76
     0
 77
     2
 78
   300
147
1.0
148
0.0
149
0.0
100
AcDbLayout
  1
Layout2
 70
     1
 71
     2
 10
0.0
 20
0.0
 11
0.0
 21
0.0
 12
0.0
 22
0.0
 32
0.0
 14
0.0
 24
0.0
 34
0.0
 15
0.0
 25
0.0
 35
0.0
146
0.0
 13
0.0
 23
0.0
 33
0.0
 16
1.0
 26
0.0
 36
0.0
 17
0.0
 27
1.0
 37
0.0
 76
     0
330
23
  0
LAYOUT
  5
22
102
{ACAD_REACTORS
330
1A
102
}
330
1A
100
AcDbPlotSettings
  1

  2
none_device
  4

  6

 40
0.0
 41
0.0
 42
0.0
 43
0.0
 44
0.0
 45
0.0
 46
0.0
 47
0.0
 48
0.0
 49
0.0
140
0.0
141
0.0
142
1.0
143
1.0
 70
  1712
 72
     0
 73
     0
 74
     0
  7

 75
     0
 76
     0
 77
     2
 78
   300
147
1.0
148
0.0
149
0.0
100
AcDbLayout
  1
Model
 70
     1
 71
     0
 10
0.0
 20
0.0
 11
12.0
 21
9.0
 12
0.0
 22
0.0
 32
0.0
 14
-187.6702
 24
-106.5901
 34
0.0
 15
-23.3681
 25
124.7154
 35
0.0
146
0.0
 13
0.0
 23
0.0
 33
0.0
 16
1.0
 26
0.0
 36
0.0
 17
0.0
 27
1.0
 37
0.0
 76
     0
330
1F
331
29
  0
MATERIAL
  5
3D
102
{ACAD_REACTORS
330
3B
102
}
330
3B
100
AcDbMaterial
  1
ByBlock
 72
     1
 94
      127
  0
MATERIAL
  5
3C
102
{ACAD_REACTORS
330
3B
102
}
330
3B
100
AcDbMaterial
  1
ByLayer
 72
     1
 94
      127
  0
MATERIAL
  5
3E
102
{ACAD_REACTORS
330
3B
102
}
330
3B
100
AcDbMaterial
  1
Global
 72
     1
 94
      127
  0
MLINESTYLE
  5
18
102
{ACAD_REACTORS
330
17
102
}
330
17
100
AcDbMlineStyle
  2
Standard
 70
     0
  3

 62
   256
 51
90.0
 52
90.0
 71
     2
 49
0.5
 62
   256
  6
BYLAYER
 49
-0.5
 62
   256
  6
BYLAYER
  0
ACDBPLACEHOLDER
  5
F
102
{ACAD_REACTORS
330
E
102
}
330
E
  0
VISUALSTYLE
  5
2F
102
{ACAD_REACTORS
330
2A
102
}
102
{ACAD_XDICTIONARY
360
7D
102
}
330
2A
100
AcDbVisualStyle
  2
2dWireframe
 70
     4
 71
     0
 72
     2
 73
     0
 90
        0
 40
-0.6
 41
-30.0
 62
     5
 63
     7
421
 16777215
 74
     1
 91
        4
 64
     7
 65
   257
 75
     1
175
     1
 42
1.0
 92
        0
 66
   257
 43
1.0
 76
     1
 77
     6
 78
     2
 67
     7
 79
     5
170
     0
171
     0
290
     0
174
     0
 93
        1
 44
0.0
173
     0
291
     0
 45
0.0
  0
VISUALSTYLE
  5
31
102
{ACAD_REACTORS
330
2A
102
}
102
{ACAD_XDICTIONARY
360
81
102
}
330
2A
100
AcDbVisualStyle
  2
3D Hidden
 70
     6
 71
     1
 72
     2
 73
     2
 90
        0
 40
-0.6
 41
-30.0
 62
     5
 63
     7
421
 16777215
 74
     2
 91
        2
 64
     7
 65
   257
 75
     2
175
     1
 42
40.0
 92
        0
 66
   257
 43
1.0
 76
     1
 77
     6
 78
     2
 67
     7
 79
     3
170
     0
171
     0
290
     0
174
     0
 93
        1
 44
0.0
173
     0
291
     0
 45
0.0
  0
VISUALSTYLE
  5
30
102
{ACAD_REACTORS
330
2A
102
}
102
{ACAD_XDICTIONARY
360
7F
102
}
330
2A
100
AcDbVisualStyle
  2
3dWireframe
 70
     5
 71
     0
 72
     2
 73
     0
 90
        0
 40
-0.6
 41
-30.0
 62
     5
 63
     7
421
 16777215
 74
     1
 91
        4
 64
     7
 65
   257
 75
     1
175
     1
 42
1.0
 92
        0
 66
   257
 43
1.0
 76
     1
 77
     6
 78
     2
 67
     7
 79
     5
170
     0
171
     0
290
     0
174
     0
 93
        1
 44
0.0
173
     0
291
     0
 45
0.0
  0
VISUALSTYLE
  5
32
102
{ACAD_REACTORS
330
2A
102
}
102
{ACAD_XDICTIONARY
360
83
102
}
330
2A
100
AcDbVisualStyle
  2
Basic
 70
     7
 71
     1
 72
     0
 73
     1
 90
        0
 40
-0.6
 41
-30.0
 62
     5
 63
     7
421
 16777215
 74
     0
 91
        4
 64
     7
 65
   257
 75
     1
175
     1
 42
1.0
 92
        8
 66
     7
 43
1.0
 76
     1
 77
     6
 78
     2
 67
     7
 79
     5
170
     0
171
     0
290
     0
174
     0
 93
        1
 44
0.0
173
     0
291
     1
 45
0.0
  0
VISUALSTYLE
  5
36
102
{ACAD_REACTORS
330
2A
102
}
102
{ACAD_XDICTIONARY
360
8B
102
}
330
2A
100
AcDbVisualStyle
  2
Brighten
 70
    12
 71
     2
 72
     2
 73
     0
 90
        0
 40
-0.6
 41
-30.0
 62
     5
 63
     7
421
 16777215
 74
     1
 91
        4
 64
     7
 65
   257
 75
     1
175
     1
 42
1.0
 92
        8
 66
     7
 43
1.0
 76
     1
 77
     6
 78
     2
 67
     7
 79
     5
170
     0
171
     0
290
     0
174
     0
 93
        1
 44
50.0
173
     0
291
     1
 45
0.0
  0
VISUALSTYLE
  5
3A
102
{ACAD_REACTORS
330
2A
102
}
102
{ACAD_XDICTIONARY
360
93
102
}
330
2A
100
AcDbVisualStyle
  2
ColorChange
 70
    16
 71
     2
 72
     2
 73
     3
 90
        0
 40
-0.6
 41
-30.0
 62
     5
 63
     8
421
  8421504
 74
     1
 91
        4
 64
     7
 65
   257
 75
     1
175
     1
 42
1.0
 92
        8
 66
     8
424
  8421504
 43
1.0
 76
     1
 77
     6
 78
     2
 67
     7
 79
     5
170
     0
171
     0
290
     0
174
     0
 93
        1
 44
0.0
173
     0
291
     1
 45
0.0
  0
VISUALSTYLE
  5
34
102
{ACAD_REACTORS
330
2A
102
}
102
{ACAD_XDICTIONARY
360
87
102
}
330
2A
100
AcDbVisualStyle
  2
Conceptual
 70
     9
 71
     3
 72
     2
 73
     0
 90
        0
 40
-0.6
 41
-30.0
 62
     5
 63
     7
421
 16777215
 74
     2
 91
        2
 64
     7
 65
   257
 75
     1
175
     1
 42
40.0
 92
        8
 66
     7
 43
1.0
 76
     1
 77
     6
 78
     2
 67
     7
 79
     3
170
     0
171
     0
290
     0
174
     0
 93
        1
 44
0.0
173
     0
291
     0
 45
0.0
  0
VISUALSTYLE
  5
35
102
{ACAD_REACTORS
330
2A
102
}
102
{ACAD_XDICTIONARY
360
89
102
}
330
2A
100
AcDbVisualStyle
  2
Dim
 70
    11
 71
     2
 72
     2
 73
     0
 90
        0
 40
-0.6
 41
-30.0
 62
     5
 63
     7
421
 16777215
 74
     1
 91
        4
 64
     7
 65
   257
 75
     1
175
     1
 42
1.0
 92
        8
 66
     7
 43
1.0
 76
     1
 77
     6
 78
     2
 67
     7
 79
     5
170
     0
171
     0
290
     0
174
     0
 93
        1
 44
-50.0
173
     0
291
     1
 45
0.0
  0
VISUALSTYLE
  5
39
102
{ACAD_REACTORS
330
2A
102
}
102
{ACAD_XDICTIONARY
360
91
102
}
330
2A
100
AcDbVisualStyle
  2
Facepattern
 70
    15
 71
     2
 72
     2
 73
     0
 90
        0
 40
-0.6
 41
-30.0
 62
     5
 63
     7
421
 16777215
 74
     1
 91
        4
 64
     7
 65
   257
 75
     1
175
     1
 42
1.0
 92
        8
 66
     7
 43
1.0
 76
     1
 77
     6
 78
     2
 67
     7
 79
     5
170
     0
171
     0
290
     0
174
     0
 93
        1
 44
0.0
173
     0
291
     1
 45
0.0
  0
VISUALSTYLE
  5
2B
102
{ACAD_REACTORS
330
2A
102
}
102
{ACAD_XDICTIONARY
360
75
102
}
330
2A
100
AcDbVisualStyle
  2
Flat
 70
     0
 71
     2
 72
     1
 73
     1
 90
        2
 40
-0.6
 41
30.0
 62
     5
 63
     7
421
 16777215
 74
     0
 91
        4
 64
     7
 65
   257
 75
     1
175
     1
 42
1.0
 92
        8
 66
     7
 43
1.0
 76
     1
 77
     6
 78
     2
 67
     7
 79
     5
170
     0
171
     0
290
     0
174
     0
 93
       13
 44
0.0
173
     0
291
     1
 45
0.0
  0
VISUALSTYLE
  5
2C
102
{ACAD_REACTORS
330
2A
102
}
102
{ACAD_XDICTIONARY
360
77
102
}
330
2A
100
AcDbVisualStyle
  2
FlatWithEdges
 70
     1
 71
     2
 72
     1
 73
     1
 90
        2
 40
-0.6
 41
30.0
 62
     5
 63
     7
421
 16777215
 74
     1
 91
        4
 64
     7
 65
   257
 75
     1
175
     1
 42
1.0
 92
        0
 66
   257
 43
1.0
 76
     1
 77
     6
 78
     2
 67
     7
 79
     5
170
     0
171
     0
290
     0
174
     0
 93
       13
 44
0.0
173
     0
291
     1
 45
0.0
  0
VISUALSTYLE
  5
2D
102
{ACAD_REACTORS
330
2A
102
}
102
{ACAD_XDICTIONARY
360
79
102
}
330
2A
100
AcDbVisualStyle
  2
Gouraud
 70
     2
 71
     2
 72
     2
 73
     1
 90
        2
 40
-0.6
 41
30.0
 62
     5
 63
     7
421
 16777215
 74
     0
 91
        4
 64
     7
 65
   257
 75
     1
175
     1
 42
1.0
 92
        0
 66
     7
 43
1.0
 76
     1
 77
     6
 78
     2
 67
     7
 79
     5
170
     0
171
     0
290
     0
174
     0
 93
       13
 44
0.0
173
     0
291
     1
 45
0.0
  0
VISUALSTYLE
  5
2E
102
{ACAD_REACTORS
330
2A
102
}
102
{ACAD_XDICTIONARY
360
7B
102
}
330
2A
100
AcDbVisualStyle
  2
GouraudWithEdges
 70
     3
 71
     2
 72
     2
 73
     1
 90
        2
 40
-0.6
 41
30.0
 62
     5
 63
     7
421
 16777215
 74
     1
 91
        4
 64
     7
 65
   257
 75
     1
175
     1
 42
1.0
 92
        0
 66
   257
 43
1.0
 76
     1
 77
     6
 78
     2
 67
     7
 79
     5
170
     0
171
     0
290
     0
174
     0
 93
       13
 44
0.0
173
     0
291
     1
 45
0.0
  0
VISUALSTYLE
  5
38
102
{ACAD_REACTORS
330
2A
102
}
102
{ACAD_XDICTIONARY
360
8F
102
}
330
2A
100
AcDbVisualStyle
  2
Linepattern
 70
    14
 71
     2
 72
     2
 73
     0
 90
        0
 40
-0.6
 41
-30.0
 62
     5
 63
     7
421
 16777215
 74
     1
 91
        4
 64
     7
 65
   257
 75
     7
175
     7
 42
1.0
 92
        8
 66
     7
 43
1.0
 76
     1
 77
     6
 78
     2
 67
     7
 79
     5
170
     0
171
     0
290
     0
174
     0
 93
        1
 44
0.0
173
     0
291
     1
 45
0.0
  0
VISUALSTYLE
  5
33
102
{ACAD_REACTORS
330
2A
102
}
102
{ACAD_XDICTIONARY
360
85
102
}
330
2A
100
AcDbVisualStyle
  2
Realistic
 70
     8
 71
     2
 72
     2
 73
     0
 90
        0
 40
-0.6
 41
-30.0
 62
     5
 63
     7
421
 16777215
 74
     1
 91
        0
 64
     7
 65
   257
 75
     1
175
     1
 42
1.0
 92
        8
 66
     8
424
  7895160
 43
1.0
 76
     1
 77
     6
 78
     2
 67
     7
 79
     5
170
     0
171
     0
290
     0
174
     0
 93
       13
 44
0.0
173
     0
291
     0
 45
0.0
  0
VISUALSTYLE
  5
37
102
{ACAD_REACTORS
330
2A
102
}
102
{ACAD_XDICTIONARY
360
8D
102
}
330
2A
100
AcDbVisualStyle
  2
Thicken
 70
    13
 71
     2
 72
     2
 73
     0
 90
        0
 40
-0.6
 41
-30.0
 62
     5
 63
     7
421
 16777215
 74
     1
 91
        4
 64
     7
 65
   257
 75
     1
175
     1
 42
1.0
 92
       12
 66
     7
 43
1.0
 76
     1
 77
     6
 78
     2
 67
     7
 79
     5
170
     0
171
     0
290
     0
174
     0
 93
        1
 44
0.0
173
     0
291
     1
 45
0.0
  0
DICTIONARY
  5
7D
330
2F
100
AcDbDictionary
280
     1
281
     1
  3
ACAD_XREC_ROUNDTRIP
360
7E
  0
DICTIONARY
  5
81
330
31
100
AcDbDictionary
280
     1
281
     1
  3
ACAD_XREC_ROUNDTRIP
360
82
  0
DICTIONARY
  5
7F
330
30
100
AcDbDictionary
280
     1
281
     1
  3
ACAD_XREC_ROUNDTRIP
360
80
  0
DICTIONARY
  5
83
330
32
100
AcDbDictionary
280
     1
281
     1
  3
ACAD_XREC_ROUNDTRIP
360
84
  0
DICTIONARY
  5
8B
330
36
100
AcDbDictionary
280
     1
281
     1
  3
ACAD_XREC_ROUNDTRIP
360
8C
  0
DICTIONARY
  5
93
330
3A
100
AcDbDictionary
280
     1
281
     1
  3
ACAD_XREC_ROUNDTRIP
360
94
  0
DICTIONARY
  5
87
330
34
100
AcDbDictionary
280
     1
281
     1
  3
ACAD_XREC_ROUNDTRIP
360
88
  0
DICTIONARY
  5
89
330
35
100
AcDbDictionary
280
     1
281
     1
  3
ACAD_XREC_ROUNDTRIP
360
8A
  0
DICTIONARY
  5
91
330
39
100
AcDbDictionary
280
     1
281
     1
  3
ACAD_XREC_ROUNDTRIP
360
92
  0
DICTIONARY
  5
75
330
2B
100
AcDbDictionary
280
     1
281
     1
  3
ACAD_XREC_ROUNDTRIP
360
76
  0
DICTIONARY
  5
77
330
2C
100
AcDbDictionary
280
     1
281
     1
  3
ACAD_XREC_ROUNDTRIP
360
78
  0
DICTIONARY
  5
79
330
2D
100
AcDbDictionary
280
     1
281
     1
  3
ACAD_XREC_ROUNDTRIP
360
7A
  0
DICTIONARY
  5
7B
330
2E
100
AcDbDictionary
280
     1
281
     1
  3
ACAD_XREC_ROUNDTRIP
360
7C
  0
DICTIONARY
  5
8F
330
38
100
AcDbDictionary
280
     1
281
     1
  3
ACAD_XREC_ROUNDTRIP
360
90
  0
DICTIONARY
  5
85
330
33
100
AcDbDictionary
280
     1
281
     1
  3
ACAD_XREC_ROUNDTRIP
360
86
  0
DICTIONARY
  5
8D
330
37
100
AcDbDictionary
280
     1
281
     1
  3
ACAD_XREC_ROUNDTRIP
360
8E
  0
XRECORD
  5
7E
102
{ACAD_REACTORS
330
7D
102
}
330
7D
100
AcDbXrecord
280
     1
102
RTVSPropertyOp0
 70
     1
102
RTVSPropertyOp1
 70
     1
102
RTVSPropertyOp2
 70
     1
102
RTVSPropertyOp3
 70
     1
102
RTVSPropertyOp4
 70
     1
102
RTVSPropertyOp5
 70
     1
102
RTVSPropertyOp6
 70
     1
102
RTVSPropertyOp7
 70
     1
102
RTVSPropertyOp8
 70
     1
102
RTVSPropertyOp9
 70
     1
102
RTVSPropertyOp10
 70
     1
102
RTVSPropertyOp11
 70
     1
102
RTVSPropertyOp12
 70
     1
102
RTVSPropertyOp13
 70
     1
102
RTVSPropertyOp14
 70
     1
102
RTVSPropertyOp15
 70
     1
102
RTVSPropertyOp16
 70
     1
102
RTVSPropertyOp17
 70
     1
102
RTVSPropertyOp18
 70
     1
102
RTVSPropertyOp19
 70
     1
102
RTVSPropertyOp20
 70
     1
102
RTVSPropertyOp21
 70
     1
102
RTVSPropertyOp22
 70
     1
102
RTVSPropertyOp23
 70
     1
102
RTVSPropertyOp24
 70
     1
102
RTVSPropertyOp25
 70
     1
102
RTVSPropertyOp26
 70
     1
102
RTVSPropertyOp27
 70
     1
102
RTVSPropertyOp28
 70
     1
102
RTVSPropertyOp29
 70
     1
102
RTVSPropertyOp30
 70
     1
102
RTVSPropertyOp31
 70
     1
102
RTVSPropertyOp32
 70
     1
  0
XRECORD
  5
82
102
{ACAD_REACTORS
330
81
102
}
330
81
100
AcDbXrecord
280
     1
102
RTVSPropertyOp0
 70
     1
102
RTVSPropertyOp1
 70
     1
102
RTVSPropertyOp2
 70
     1
102
RTVSPropertyOp3
 70
     1
102
RTVSPropertyOp4
 70
     1
102
RTVSPropertyOp5
 70
     1
102
RTVSPropertyOp6
 70
     1
102
RTVSPropertyOp7
 70
     1
102
RTVSPropertyOp8
 70
     1
102
RTVSPropertyOp9
 70
     1
102
RTVSPropertyOp10
 70
     1
102
RTVSPropertyOp11
 70
     1
102
RTVSPropertyOp12
 70
     1
102
RTVSPropertyOp13
 70
     1
102
RTVSPropertyOp14
 70
     1
102
RTVSPropertyOp15
 70
     1
102
RTVSPropertyOp16
 70
     1
102
RTVSPropertyOp17
 70
     1
102
RTVSPropertyOp18
 70
     1
102
RTVSPropertyOp19
 70
     1
102
RTVSPropertyOp20
 70
     1
102
RTVSPropertyOp21
 70
     1
102
RTVSPropertyOp22
 70
     1
102
RTVSPropertyOp23
 70
     1
102
RTVSPropertyOp24
 70
     1
102
RTVSPropertyOp25
 70
     1
102
RTVSPropertyOp26
 70
     1
102
RTVSPropertyOp27
 70
     1
102
RTVSPropertyOp28
 70
     1
102
RTVSPropertyOp29
 70
     1
102
RTVSPropertyOp30
 70
     1
102
RTVSPropertyOp31
 70
     1
102
RTVSPropertyOp32
 70
     1
  0
XRECORD
  5
80
102
{ACAD_REACTORS
330
7F
102
}
330
7F
100
AcDbXrecord
280
     1
102
RTVSPropertyOp0
 70
     1
102
RTVSPropertyOp1
 70
     1
102
RTVSPropertyOp2
 70
     1
102
RTVSPropertyOp3
 70
     1
102
RTVSPropertyOp4
 70
     1
102
RTVSPropertyOp5
 70
     1
102
RTVSPropertyOp6
 70
     1
102
RTVSPropertyOp7
 70
     1
102
RTVSPropertyOp8
 70
     1
102
RTVSPropertyOp9
 70
     1
102
RTVSPropertyOp10
 70
     1
102
RTVSPropertyOp11
 70
     1
102
RTVSPropertyOp12
 70
     1
102
RTVSPropertyOp13
 70
     1
102
RTVSPropertyOp14
 70
     1
102
RTVSPropertyOp15
 70
     1
102
RTVSPropertyOp16
 70
     1
102
RTVSPropertyOp17
 70
     1
102
RTVSPropertyOp18
 70
     1
102
RTVSPropertyOp19
 70
     1
102
RTVSPropertyOp20
 70
     1
102
RTVSPropertyOp21
 70
     1
102
RTVSPropertyOp22
 70
     1
102
RTVSPropertyOp23
 70
     1
102
RTVSPropertyOp24
 70
     1
102
RTVSPropertyOp25
 70
     1
102
RTVSPropertyOp26
 70
     1
102
RTVSPropertyOp27
 70
     1
102
RTVSPropertyOp28
 70
     1
102
RTVSPropertyOp29
 70
     1
102
RTVSPropertyOp30
 70
     1
102
RTVSPropertyOp31
 70
     1
102
RTVSPropertyOp32
 70
     1
  0
XRECORD
  5
84
102
{ACAD_REACTORS
330
83
102
}
330
83
100
AcDbXrecord
280
     1
102
RTVSPropertyOp0
 70
     1
102
RTVSPropertyOp1
 70
     1
102
RTVSPropertyOp2
 70
     1
102
RTVSPropertyOp3
 70
     1
102
RTVSPropertyOp4
 70
     1
102
RTVSPropertyOp5
 70
     1
102
RTVSPropertyOp6
 70
     1
102
RTVSPropertyOp7
 70
     1
102
RTVSPropertyOp8
 70
     1
102
RTVSPropertyOp9
 70
     1
102
RTVSPropertyOp10
 70
     1
102
RTVSPropertyOp11
 70
     1
102
RTVSPropertyOp12
 70
     1
102
RTVSPropertyOp13
 70
     1
102
RTVSPropertyOp14
 70
     1
102
RTVSPropertyOp15
 70
     1
102
RTVSPropertyOp16
 70
     1
102
RTVSPropertyOp17
 70
     1
102
RTVSPropertyOp18
 70
     1
102
RTVSPropertyOp19
 70
     1
102
RTVSPropertyOp20
 70
     1
102
RTVSPropertyOp21
 70
     1
102
RTVSPropertyOp22
 70
     1
102
RTVSPropertyOp23
 70
     1
102
RTVSPropertyOp24
 70
     1
102
RTVSPropertyOp25
 70
     1
102
RTVSPropertyOp26
 70
     1
102
RTVSPropertyOp27
 70
     1
102
RTVSPropertyOp28
 70
     1
102
RTVSPropertyOp29
 70
     1
102
RTVSPropertyOp30
 70
     1
102
RTVSPropertyOp31
 70
     1
102
RTVSPropertyOp32
 70
     1
  0
XRECORD
  5
8C
102
{ACAD_REACTORS
330
8B
102
}
330
8B
100
AcDbXrecord
280
     1
102
RTVSPropertyOp0
 70
     1
102
RTVSPropertyOp1
 70
     1
102
RTVSPropertyOp2
 70
     1
102
RTVSPropertyOp3
 70
     1
102
RTVSPropertyOp4
 70
     1
102
RTVSPropertyOp5
 70
     1
102
RTVSPropertyOp6
 70
     1
102
RTVSPropertyOp7
 70
     1
102
RTVSPropertyOp8
 70
     1
102
RTVSPropertyOp9
 70
     1
102
RTVSPropertyOp10
 70
     1
102
RTVSPropertyOp11
 70
     1
102
RTVSPropertyOp12
 70
     1
102
RTVSPropertyOp13
 70
     1
102
RTVSPropertyOp14
 70
     1
102
RTVSPropertyOp15
 70
     1
102
RTVSPropertyOp16
 70
     1
102
RTVSPropertyOp17
 70
     1
102
RTVSPropertyOp18
 70
     1
102
RTVSPropertyOp19
 70
     1
102
RTVSPropertyOp20
 70
     1
102
RTVSPropertyOp21
 70
     1
102
RTVSPropertyOp22
 70
     1
102
RTVSPropertyOp23
 70
     1
102
RTVSPropertyOp24
 70
     1
102
RTVSPropertyOp25
 70
     1
102
RTVSPropertyOp26
 70
     1
102
RTVSPropertyOp27
 70
     1
102
RTVSPropertyOp28
 70
     1
102
RTVSPropertyOp29
 70
     1
102
RTVSPropertyOp30
 70
     1
102
RTVSPropertyOp31
 70
     1
102
RTVSPropertyOp32
 70
     1
  0
XRECORD
  5
94
102
{ACAD_REACTORS
330
93
102
}
330
93
100
AcDbXrecord
280
     1
102
RTVSPropertyOp0
 70
     1
102
RTVSPropertyOp1
 70
     1
102
RTVSPropertyOp2
 70
     1
102
RTVSPropertyOp3
 70
     1
102
RTVSPropertyOp4
 70
     1
102
RTVSPropertyOp5
 70
     1
102
RTVSPropertyOp6
 70
     1
102
RTVSPropertyOp7
 70
     1
102
RTVSPropertyOp8
 70
     1
102
RTVSPropertyOp9
 70
     1
102
RTVSPropertyOp10
 70
     1
102
RTVSPropertyOp11
 70
     1
102
RTVSPropertyOp12
 70
     1
102
RTVSPropertyOp13
 70
     1
102
RTVSPropertyOp14
 70
     1
102
RTVSPropertyOp15
 70
     1
102
RTVSPropertyOp16
 70
     1
102
RTVSPropertyOp17
 70
     1
102
RTVSPropertyOp18
 70
     1
102
RTVSPropertyOp19
 70
     1
102
RTVSPropertyOp20
 70
     1
102
RTVSPropertyOp21
 70
     1
102
RTVSPropertyOp22
 70
     1
102
RTVSPropertyOp23
 70
     1
102
RTVSPropertyOp24
 70
     1
102
RTVSPropertyOp25
 70
     1
102
RTVSPropertyOp26
 70
     1
102
RTVSPropertyOp27
 70
     1
102
RTVSPropertyOp28
 70
     1
102
RTVSPropertyOp29
 70
     1
102
RTVSPropertyOp30
 70
     1
102
RTVSPropertyOp31
 70
     1
102
RTVSPropertyOp32
 70
     1
  0
XRECORD
  5
88
102
{ACAD_REACTORS
330
87
102
}
330
87
100
AcDbXrecord
280
     1
102
RTVSPropertyOp0
 70
     1
102
RTVSPropertyOp1
 70
     1
102
RTVSPropertyOp2
 70
     1
102
RTVSPropertyOp3
 70
     1
102
RTVSPropertyOp4
 70
     1
102
RTVSPropertyOp5
 70
     1
102
RTVSPropertyOp6
 70
     1
102
RTVSPropertyOp7
 70
     1
102
RTVSPropertyOp8
 70
     1
102
RTVSPropertyOp9
 70
     1
102
RTVSPropertyOp10
 70
     1
102
RTVSPropertyOp11
 70
     1
102
RTVSPropertyOp12
 70
     1
102
RTVSPropertyOp13
 70
     1
102
RTVSPropertyOp14
 70
     1
102
RTVSPropertyOp15
 70
     1
102
RTVSPropertyOp16
 70
     1
102
RTVSPropertyOp17
 70
     1
102
RTVSPropertyOp18
 70
     1
102
RTVSPropertyOp19
 70
     1
102
RTVSPropertyOp20
 70
     1
102
RTVSPropertyOp21
 70
     1
102
RTVSPropertyOp22
 70
     1
102
RTVSPropertyOp23
 70
     1
102
RTVSPropertyOp24
 70
     1
102
RTVSPropertyOp25
 70
     1
102
RTVSPropertyOp26
 70
     1
102
RTVSPropertyOp27
 70
     1
102
RTVSPropertyOp28
 70
     1
102
RTVSPropertyOp29
 70
     1
102
RTVSPropertyOp30
 70
     1
102
RTVSPropertyOp31
 70
     1
102
RTVSPropertyOp32
 70
     1
  0
XRECORD
  5
8A
102
{ACAD_REACTORS
330
89
102
}
330
89
100
AcDbXrecord
280
     1
102
RTVSPropertyOp0
 70
     1
102
RTVSPropertyOp1
 70
     1
102
RTVSPropertyOp2
 70
     1
102
RTVSPropertyOp3
 70
     1
102
RTVSPropertyOp4
 70
     1
102
RTVSPropertyOp5
 70
     1
102
RTVSPropertyOp6
 70
     1
102
RTVSPropertyOp7
 70
     1
102
RTVSPropertyOp8
 70
     1
102
RTVSPropertyOp9
 70
     1
102
RTVSPropertyOp10
 70
     1
102
RTVSPropertyOp11
 70
     1
102
RTVSPropertyOp12
 70
     1
102
RTVSPropertyOp13
 70
     1
102
RTVSPropertyOp14
 70
     1
102
RTVSPropertyOp15
 70
     1
102
RTVSPropertyOp16
 70
     1
102
RTVSPropertyOp17
 70
     1
102
RTVSPropertyOp18
 70
     1
102
RTVSPropertyOp19
 70
     1
102
RTVSPropertyOp20
 70
     1
102
RTVSPropertyOp21
 70
     1
102
RTVSPropertyOp22
 70
     1
102
RTVSPropertyOp23
 70
     1
102
RTVSPropertyOp24
 70
     1
102
RTVSPropertyOp25
 70
     1
102
RTVSPropertyOp26
 70
     1
102
RTVSPropertyOp27
 70
     1
102
RTVSPropertyOp28
 70
     1
102
RTVSPropertyOp29
 70
     1
102
RTVSPropertyOp30
 70
     1
102
RTVSPropertyOp31
 70
     1
102
RTVSPropertyOp32
 70
     1
  0
XRECORD
  5
92
102
{ACAD_REACTORS
330
91
102
}
330
91
100
AcDbXrecord
280
     1
102
RTVSPropertyOp0
 70
     1
102
RTVSPropertyOp1
 70
     1
102
RTVSPropertyOp2
 70
     1
102
RTVSPropertyOp3
 70
     1
102
RTVSPropertyOp4
 70
     1
102
RTVSPropertyOp5
 70
     1
102
RTVSPropertyOp6
 70
     1
102
RTVSPropertyOp7
 70
     1
102
RTVSPropertyOp8
 70
     1
102
RTVSPropertyOp9
 70
     1
102
RTVSPropertyOp10
 70
     1
102
RTVSPropertyOp11
 70
     1
102
RTVSPropertyOp12
 70
     1
102
RTVSPropertyOp13
 70
     1
102
RTVSPropertyOp14
 70
     1
102
RTVSPropertyOp15
 70
     1
102
RTVSPropertyOp16
 70
     1
102
RTVSPropertyOp17
 70
     1
102
RTVSPropertyOp18
 70
     1
102
RTVSPropertyOp19
 70
     1
102
RTVSPropertyOp20
 70
     1
102
RTVSPropertyOp21
 70
     1
102
RTVSPropertyOp22
 70
     1
102
RTVSPropertyOp23
 70
     1
102
RTVSPropertyOp24
 70
     1
102
RTVSPropertyOp25
 70
     1
102
RTVSPropertyOp26
 70
     1
102
RTVSPropertyOp27
 70
     1
102
RTVSPropertyOp28
 70
     1
102
RTVSPropertyOp29
 70
     1
102
RTVSPropertyOp30
 70
     1
102
RTVSPropertyOp31
 70
     1
102
RTVSPropertyOp32
 70
     1
  0
XRECORD
  5
76
102
{ACAD_REACTORS
330
75
102
}
330
75
100
AcDbXrecord
280
     1
102
RTVSPropertyOp0
 70
     1
102
RTVSPropertyOp1
 70
     1
102
RTVSPropertyOp2
 70
     1
102
RTVSPropertyOp3
 70
     1
102
RTVSPropertyOp4
 70
     1
102
RTVSPropertyOp5
 70
     1
102
RTVSPropertyOp6
 70
     1
102
RTVSPropertyOp7
 70
     1
102
RTVSPropertyOp8
 70
     1
102
RTVSPropertyOp9
 70
     1
102
RTVSPropertyOp10
 70
     1
102
RTVSPropertyOp11
 70
     1
102
RTVSPropertyOp12
 70
     1
102
RTVSPropertyOp13
 70
     1
102
RTVSPropertyOp14
 70
     1
102
RTVSPropertyOp15
 70
     1
102
RTVSPropertyOp16
 70
     1
102
RTVSPropertyOp17
 70
     1
102
RTVSPropertyOp18
 70
     1
102
RTVSPropertyOp19
 70
     1
102
RTVSPropertyOp20
 70
     1
102
RTVSPropertyOp21
 70
     1
102
RTVSPropertyOp22
 70
     1
102
RTVSPropertyOp23
 70
     1
102
RTVSPropertyOp24
 70
     1
102
RTVSPropertyOp25
 70
     1
102
RTVSPropertyOp26
 70
     1
102
RTVSPropertyOp27
 70
     1
102
RTVSPropertyOp28
 70
     1
102
RTVSPropertyOp29
 70
     1
102
RTVSPropertyOp30
 70
     1
102
RTVSPropertyOp31
 70
     1
102
RTVSPropertyOp32
 70
     1
  0
XRECORD
  5
78
102
{ACAD_REACTORS
330
77
102
}
330
77
100
AcDbXrecord
280
     1
102
RTVSPropertyOp0
 70
     1
102
RTVSPropertyOp1
 70
     1
102
RTVSPropertyOp2
 70
     1
102
RTVSPropertyOp3
 70
     1
102
RTVSPropertyOp4
 70
     1
102
RTVSPropertyOp5
 70
     1
102
RTVSPropertyOp6
 70
     1
102
RTVSPropertyOp7
 70
     1
102
RTVSPropertyOp8
 70
     1
102
RTVSPropertyOp9
 70
     1
102
RTVSPropertyOp10
 70
     1
102
RTVSPropertyOp11
 70
     1
102
RTVSPropertyOp12
 70
     1
102
RTVSPropertyOp13
 70
     1
102
RTVSPropertyOp14
 70
     1
102
RTVSPropertyOp15
 70
     1
102
RTVSPropertyOp16
 70
     1
102
RTVSPropertyOp17
 70
     1
102
RTVSPropertyOp18
 70
     1
102
RTVSPropertyOp19
 70
     1
102
RTVSPropertyOp20
 70
     1
102
RTVSPropertyOp21
 70
     1
102
RTVSPropertyOp22
 70
     1
102
RTVSPropertyOp23
 70
     1
102
RTVSPropertyOp24
 70
     1
102
RTVSPropertyOp25
 70
     1
102
RTVSPropertyOp26
 70
     1
102
RTVSPropertyOp27
 70
     1
102
RTVSPropertyOp28
 70
     1
102
RTVSPropertyOp29
 70
     1
102
RTVSPropertyOp30
 70
     1
102
RTVSPropertyOp31
 70
     1
102
RTVSPropertyOp32
 70
     1
  0
XRECORD
  5
7A
102
{ACAD_REACTORS
330
79
102
}
330
79
100
AcDbXrecord
280
     1
102
RTVSPropertyOp0
 70
     1
102
RTVSPropertyOp1
 70
     1
102
RTVSPropertyOp2
 70
     1
102
RTVSPropertyOp3
 70
     1
102
RTVSPropertyOp4
 70
     1
102
RTVSPropertyOp5
 70
     1
102
RTVSPropertyOp6
 70
     1
102
RTVSPropertyOp7
 70
     1
102
RTVSPropertyOp8
 70
     1
102
RTVSPropertyOp9
 70
     1
102
RTVSPropertyOp10
 70
     1
102
RTVSPropertyOp11
 70
     1
102
RTVSPropertyOp12
 70
     1
102
RTVSPropertyOp13
 70
     1
102
RTVSPropertyOp14
 70
     1
102
RTVSPropertyOp15
 70
     1
102
RTVSPropertyOp16
 70
     1
102
RTVSPropertyOp17
 70
     1
102
RTVSPropertyOp18
 70
     1
102
RTVSPropertyOp19
 70
     1
102
RTVSPropertyOp20
 70
     1
102
RTVSPropertyOp21
 70
     1
102
RTVSPropertyOp22
 70
     1
102
RTVSPropertyOp23
 70
     1
102
RTVSPropertyOp24
 70
     1
102
RTVSPropertyOp25
 70
     1
102
RTVSPropertyOp26
 70
     1
102
RTVSPropertyOp27
 70
     1
102
RTVSPropertyOp28
 70
     1
102
RTVSPropertyOp29
 70
     1
102
RTVSPropertyOp30
 70
     1
102
RTVSPropertyOp31
 70
     1
102
RTVSPropertyOp32
 70
     1
  0
XRECORD
  5
7C
102
{ACAD_REACTORS
330
7B
102
}
330
7B
100
AcDbXrecord
280
     1
102
RTVSPropertyOp0
 70
     1
102
RTVSPropertyOp1
 70
     1
102
RTVSPropertyOp2
 70
     1
102
RTVSPropertyOp3
 70
     1
102
RTVSPropertyOp4
 70
     1
102
RTVSPropertyOp5
 70
     1
102
RTVSPropertyOp6
 70
     1
102
RTVSPropertyOp7
 70
     1
102
RTVSPropertyOp8
 70
     1
102
RTVSPropertyOp9
 70
     1
102
RTVSPropertyOp10
 70
     1
102
RTVSPropertyOp11
 70
     1
102
RTVSPropertyOp12
 70
     1
102
RTVSPropertyOp13
 70
     1
102
RTVSPropertyOp14
 70
     1
102
RTVSPropertyOp15
 70
     1
102
RTVSPropertyOp16
 70
     1
102
RTVSPropertyOp17
 70
     1
102
RTVSPropertyOp18
 70
     1
102
RTVSPropertyOp19
 70
     1
102
RTVSPropertyOp20
 70
     1
102
RTVSPropertyOp21
 70
     1
102
RTVSPropertyOp22
 70
     1
102
RTVSPropertyOp23
 70
     1
102
RTVSPropertyOp24
 70
     1
102
RTVSPropertyOp25
 70
     1
102
RTVSPropertyOp26
 70
     1
102
RTVSPropertyOp27
 70
     1
102
RTVSPropertyOp28
 70
     1
102
RTVSPropertyOp29
 70
     1
102
RTVSPropertyOp30
 70
     1
102
RTVSPropertyOp31
 70
     1
102
RTVSPropertyOp32
 70
     1
  0
XRECORD
  5
90
102
{ACAD_REACTORS
330
8F
102
}
330
8F
100
AcDbXrecord
280
     1
102
RTVSPropertyOp0
 70
     1
102
RTVSPropertyOp1
 70
     1
102
RTVSPropertyOp2
 70
     1
102
RTVSPropertyOp3
 70
     1
102
RTVSPropertyOp4
 70
     1
102
RTVSPropertyOp5
 70
     1
102
RTVSPropertyOp6
 70
     1
102
RTVSPropertyOp7
 70
     1
102
RTVSPropertyOp8
 70
     1
102
RTVSPropertyOp9
 70
     1
102
RTVSPropertyOp10
 70
     1
102
RTVSPropertyOp11
 70
     1
102
RTVSPropertyOp12
 70
     1
102
RTVSPropertyOp13
 70
     1
102
RTVSPropertyOp14
 70
     1
102
RTVSPropertyOp15
 70
     1
102
RTVSPropertyOp16
 70
     1
102
RTVSPropertyOp17
 70
     1
102
RTVSPropertyOp18
 70
     1
102
RTVSPropertyOp19
 70
     1
102
RTVSPropertyOp20
 70
     1
102
RTVSPropertyOp21
 70
     1
102
RTVSPropertyOp22
 70
     1
102
RTVSPropertyOp23
 70
     1
102
RTVSPropertyOp24
 70
     1
102
RTVSPropertyOp25
 70
     1
102
RTVSPropertyOp26
 70
     1
102
RTVSPropertyOp27
 70
     1
102
RTVSPropertyOp28
 70
     1
102
RTVSPropertyOp29
 70
     1
102
RTVSPropertyOp30
 70
     1
102
RTVSPropertyOp31
 70
     1
102
RTVSPropertyOp32
 70
     1
  0
XRECORD
  5
86
102
{ACAD_REACTORS
330
85
102
}
330
85
100
AcDbXrecord
280
     1
102
RTVSPropertyOp0
 70
     1
102
RTVSPropertyOp1
 70
     1
102
RTVSPropertyOp2
 70
     1
102
RTVSPropertyOp3
 70
     1
102
RTVSPropertyOp4
 70
     1
102
RTVSPropertyOp5
 70
     1
102
RTVSPropertyOp6
 70
     1
102
RTVSPropertyOp7
 70
     1
102
RTVSPropertyOp8
 70
     1
102
RTVSPropertyOp9
 70
     1
102
RTVSPropertyOp10
 70
     1
102
RTVSPropertyOp11
 70
     1
102
RTVSPropertyOp12
 70
     1
102
RTVSPropertyOp13
 70
     1
102
RTVSPropertyOp14
 70
     1
102
RTVSPropertyOp15
 70
     1
102
RTVSPropertyOp16
 70
     1
102
RTVSPropertyOp17
 70
     1
102
RTVSPropertyOp18
 70
     1
102
RTVSPropertyOp19
 70
     1
102
RTVSPropertyOp20
 70
     1
102
RTVSPropertyOp21
 70
     1
102
RTVSPropertyOp22
 70
     1
102
RTVSPropertyOp23
 70
     1
102
RTVSPropertyOp24
 70
     1
102
RTVSPropertyOp25
 70
     1
102
RTVSPropertyOp26
 70
     1
102
RTVSPropertyOp27
 70
     1
102
RTVSPropertyOp28
 70
     1
102
RTVSPropertyOp29
 70
     1
102
RTVSPropertyOp30
 70
     1
102
RTVSPropertyOp31
 70
     1
102
RTVSPropertyOp32
 70
     1
  0
XRECORD
  5
8E
102
{ACAD_REACTORS
330
8D
102
}
330
8D
100
AcDbXrecord
280
     1
102
RTVSPropertyOp0
 70
     1
102
RTVSPropertyOp1
 70
     1
102
RTVSPropertyOp2
 70
     1
102
RTVSPropertyOp3
 70
     1
102
RTVSPropertyOp4
 70
     1
102
RTVSPropertyOp5
 70
     1
102
RTVSPropertyOp6
 70
     1
102
RTVSPropertyOp7
 70
     1
102
RTVSPropertyOp8
 70
     1
102
RTVSPropertyOp9
 70
     1
102
RTVSPropertyOp10
 70
     1
102
RTVSPropertyOp11
 70
     1
102
RTVSPropertyOp12
 70
     1
102
RTVSPropertyOp13
 70
     1
102
RTVSPropertyOp14
 70
     1
102
RTVSPropertyOp15
 70
     1
102
RTVSPropertyOp16
 70
     1
102
RTVSPropertyOp17
 70
     1
102
RTVSPropertyOp18
 70
     1
102
RTVSPropertyOp19
 70
     1
102
RTVSPropertyOp20
 70
     1
102
RTVSPropertyOp21
 70
     1
102
RTVSPropertyOp22
 70
     1
102
RTVSPropertyOp23
 70
     1
102
RTVSPropertyOp24
 70
     1
102
RTVSPropertyOp25
 70
     1
102
RTVSPropertyOp26
 70
     1
102
RTVSPropertyOp27
 70
     1
102
RTVSPropertyOp28
 70
     1
102
RTVSPropertyOp29
 70
     1
102
RTVSPropertyOp30
 70
     1
102
RTVSPropertyOp31
 70
     1
102
RTVSPropertyOp32
 70
     1
  0
ENDSEC
  0
EOF
