  0
SECTION
  2
HEADER
  9
$ACADVER
  1
AC1021
  9
$ACADMAINTVER
 70
    25
  9
$DWGCODEPAGE
  3
ANSI_1252
  9
$INSBASE
 10
0.0
 20
0.0
 30
0.0
  9
$EXTMIN
 10
22.9114
 20
-115.3272
 30
0.0
  9
$EXTMAX
 10
196.0876
 20
131.6489
 30
0.0
  9
$LIMMIN
 10
0.0
 20
0.0
  9
$LIMMAX
 10
12.0
 20
9.0
  9
$ORTHOMODE
 70
     0
  9
$REGENMODE
 70
     1
  9
$FILLMODE
 70
     1
  9
$QTEXTMODE
 70
     0
  9
$MIRRTEXT
 70
     1
  9
$LTSCALE
 40
1.0
  9
$ATTMODE
 70
     1
  9
$TEXTSIZE
 40
0.2
  9
$TRACEWID
 40
0.05
  9
$TEXTSTYLE
  7
Standard
  9
$CLAYER
  8
0
  9
$CELTYPE
  6
ByLayer
  9
$CECOLOR
 62
   256
  9
$CELTSCALE
 40
1.0
  9
$DISPSILH
 70
     0
  9
$DIMSCALE
 40
1.0
  9
$DIMASZ
 40
0.18
  9
$DIMEXO
 40
0.0625
  9
$DIMDLI
 40
0.38
  9
$DIMRND
 40
0.0
  9
$DIMDLE
 40
0.0
  9
$DIMEXE
 40
0.18
  9
$DIMTP
 40
0.0
  9
$DIMTM
 40
0.0
  9
$DIMTXT
 40
0.18
  9
$DIMCEN
 40
0.09
  9
$DIMTSZ
 40
0.0
  9
$DIMTOL
 70
     0
  9
$DIMLIM
 70
     0
  9
$DIMTIH
 70
     1
  9
$DIMTOH
 70
     1
  9
$DIMSE1
 70
     0
  9
$DIMSE2
 70
     0
  9
$DIMTAD
 70
     0
  9
$DIMZIN
 70
     0
  9
$DIMBLK
  1

  9
$DIMASO
 70
     1
  9
$DIMSHO
 70
     1
  9
$DIMPOST
  1

  9
$DIMAPOST
  1

  9
$DIMALT
 70
     0
  9
$DIMALTD
 70
     2
  9
$DIMALTF
 40
25.4
  9
$DIMLFAC
 40
1.0
  9
$DIMTOFL
 70
     0
  9
$DIMTVP
 40
0.0
  9
$DIMTIX
 70
     0
  9
$DIMSOXD
 70
     0
  9
$DIMSAH
 70
     0
  9
$DIMBLK1
  1

  9
$DIMBLK2
  1

  9
$DIMSTYLE
  2
Standard
  9
$DIMCLRD
 70
     0
  9
$DIMCLRE
 70
     0
  9
$DIMCLRT
 70
     0
  9
$DIMTFAC
 40
1.0
  9
$DIMGAP
 40
0.09
  9
$DIMJUST
 70
     0
  9
$DIMSD1
 70
     0
  9
$DIMSD2
 70
     0
  9
$DIMTOLJ
 70
     1
  9
$DIMTZIN
 70
     0
  9
$DIMALTZ
 70
     0
  9
$DIMALTTZ
 70
     0
  9
$DIMUPT
 70
     0
  9
$DIMDEC
 70
     4
  9
$DIMTDEC
 70
     4
  9
$DIMALTU
 70
     2
  9
$DIMALTTD
 70
     2
  9
$DIMTXSTY
  7
Standard
  9
$DIMAUNIT
 70
     0
  9
$DIMADEC
 70
     0
  9
$DIMALTRND
 40
0.0
  9
$DIMAZIN
 70
     0
  9
$DIMDSEP
 70
    46
  9
$DIMATFIT
 70
     3
  9
$DIMFRAC
 70
     0
  9
$DIMLDRBLK
  1

  9
$DIMLUNIT
 70
     2
  9
$DIMLWD
 70
    -2
  9
$DIMLWE
 70
    -2
  9
$DIMTMOVE
 70
     0
  9
$DIMFXL
 40
1.0
  9
$DIMFXLON
 70
     0
  9
$DIMJOGANG
 40
0.7853981633974483
  9
$DIMTFILL
 70
     0
  9
$DIMTFILLCLR
 70
     0
  9
$DIMARCSYM
 70
     0
  9
$DIMLTYPE
  6

  9
$DIMLTEX1
  6

  9
$DIMLTEX2
  6

  9
$LUNITS
 70
     2
  9
$LUPREC
 70
     4
  9
$SKETCHINC
 40
0.1
  9
$FILLETRAD
 40
0.5
  9
$AUNITS
 70
     0
  9
$AUPREC
 70
     0
  9
$MENU
  1
.
  9
$ELEVATION
 40
0.0
  9
$PELEVATION
 40
0.0
  9
$THICKNESS
 40
0.0
  9
$LIMCHECK
 70
     0
  9
$CHAMFERA
 40
0.5
  9
$CHAMFERB
 40
0.5
  9
$CHAMFERC
 40
1.0
  9
$CHAMFERD
 40
0.0
  9
$SKPOLY
 70
     0
  9
$TDCREATE
 40
2458492.776736782
  9
$TDUCREATE
 40
2458492.776736782
  9
$TDUPDATE
 40
2458492.776737049
  9
$TDUUPDATE
 40
2458492.776737049
  9
$TDINDWG
 40
0.0000000116
  9
$TDUSRTIMER
 40
0.0000000116
  9
$USRTIMER
 70
     1
  9
$ANGBASE
 50
0.0
  9
$ANGDIR
 70
     0
  9
$PDMODE
 70
     0
  9
$PDSIZE
 40
0.0
  9
$PLINEWID
 40
0.0
  9
$SPLFRAME
 70
     0
  9
$SPLINETYPE
 70
     6
  9
$SPLINESEGS
 70
     8
  9
$HANDSEED
  5
AD
  9
$SURFTAB1
 70
     6
  9
$SURFTAB2
 70
     6
  9
$SURFTYPE
 70
     6
  9
$SURFU
 70
     6
  9
$SURFV
 70
     6
  9
$UCSBASE
  2

  9
$UCSNAME
  2

  9
$UCSORG
 10
0.0
 20
0.0
 30
0.0
  9
$UCSXDIR
 10
1.0
 20
0.0
 30
0.0
  9
$UCSYDIR
 10
0.0
 20
1.0
 30
0.0
  9
$UCSORTHOREF
  2

  9
$UCSORTHOVIEW
 70
     0
  9
$UCSORGTOP
 10
0.0
 20
0.0
 30
0.0
  9
$UCSORGBOTTOM
 10
0.0
 20
0.0
 30
0.0
  9
$UCSORGLEFT
 10
0.0
 20
0.0
 30
0.0
  9
$UCSORGRIGHT
 10
0.0
 20
0.0
 30
0.0
  9
$UCSORGFRONT
 10
0.0
 20
0.0
 30
0.0
  9
$UCSORGBACK
 10
0.0
 20
0.0
 30
0.0
  9
$PUCSBASE
  2

  9
$PUCSNAME
  2

  9
$PUCSORG
 10
0.0
 20
0.0
 30
0.0
  9
$PUCSXDIR
 10
1.0
 20
0.0
 30
0.0
  9
$PUCSYDIR
 10
0.0
 20
1.0
 30
0.0
  9
$PUCSORTHOREF
  2

  9
$PUCSORTHOVIEW
 70
     0
  9
$PUCSORGTOP
 10
0.0
 20
0.0
 30
0.0
  9
$PUCSORGBOTTOM
 10
0.0
 20
0.0
 30
0.0
  9
$PUCSORGLEFT
 10
0.0
 20
0.0
 30
0.0
  9
$PUCSORGRIGHT
 10
0.0
 20
0.0
 30
0.0
  9
$PUCSORGFRONT
 10
0.0
 20
0.0
 30
0.0
  9
$PUCSORGBACK
 10
0.0
 20
0.0
 30
0.0
  9
$USERI1
 70
     0
  9
$USERI2
 70
     0
  9
$USERI3
 70
     0
  9
$USERI4
 70
     0
  9
$USERI5
 70
     0
  9
$USERR1
 40
0.0
  9
$USERR2
 40
0.0
  9
$USERR3
 40
0.0
  9
$USERR4
 40
0.0
  9
$USERR5
 40
0.0
  9
$WORLDVIEW
 70
     1
  9
$SHADEDGE
 70
     3
  9
$SHADEDIF
 70
    70
  9
$TILEMODE
 70
     1
  9
$MAXACTVP
 70
    64
  9
$PINSBASE
 10
0.0
 20
0.0
 30
0.0
  9
$PLIMCHECK
 70
     0
  9
$PEXTMIN
 10
1.000000000000000E+20
 20
1.000000000000000E+20
 30
1.000000000000000E+20
  9
$PEXTMAX
 10
-1.000000000000000E+20
 20
-1.000000000000000E+20
 30
-1.000000000000000E+20
  9
$PLIMMIN
 10
0.0
 20
0.0
  9
$PLIMMAX
 10
12.0
 20
9.0
  9
$UNITMODE
 70
     0
  9
$VISRETAIN
 70
     1
  9
$PLINEGEN
 70
     0
  9
$PSLTSCALE
 70
     1
  9
$TREEDEPTH
 70
  3020
  9
$CMLSTYLE
  2
Standard
  9
$CMLJUST
 70
     0
  9
$CMLSCALE
 40
1.0
  9
$PROXYGRAPHICS
 70
     1
  9
$MEASUREMENT
 70
     0
  9
$CELWEIGHT
370
    -1
  9
$ENDCAPS
280
     0
  9
$JOINSTYLE
280
     0
  9
$LWDISPLAY
290
     0
  9
$INSUNITS
 70
     4
  9
$HYPERLINKBASE
  1

  9
$STYLESHEET
  1

  9
$XEDIT
290
     1
  9
$CEPSNTYPE
380
     0
  9
$PSTYLEMODE
290
     1
  9
$FINGERPRINTGUID
  2
{7C6B7AA6-8C6A-4C7B-B57A-275D84F1D60D}
  9
$VERSIONGUID
  2
{FAEB1C32-E019-11D5-929B-00C0DF256EC4}
  9
$EXTNAMES
290
     1
  9
$PSVPSCALE
 40
0.0
  9
$OLESTARTUP
290
     0
  9
$SORTENTS
280
   127
  9
$INDEXCTL
280
     0
  9
$HIDETEXT
280
     1
  9
$XCLIPFRAME
290
     0
  9
$HALOGAP
280
     0
  9
$OBSCOLOR
 70
   257
  9
$OBSLTYPE
280
     0
  9
$INTERSECTIONDISPLAY
280
     0
  9
$INTERSECTIONCOLOR
 70
   257
  9
$DIMASSOC
280
     2
  9
$PROJECTNAME
  1

  9
$CAMERADISPLAY
290
     0
  9
$LENSLENGTH
 40
50.0
  9
$CAMERAHEIGHT
 40
0.0
  9
$STEPSPERSEC
 40
2.0
  9
$STEPSIZE
 40
6.0
  9
$3DDWFPREC
 40
2.0
  9
$PSOLWIDTH
 40
0.25
  9
$PSOLHEIGHT
 40
4.0
  9
$LOFTANG1
 40
1.570796326794897
  9
$LOFTANG2
 40
1.570796326794897
  9
$LOFTMAG1
 40
0.0
  9
$LOFTMAG2
 40
0.0
  9
$LOFTPARAM
 70
     7
  9
$LOFTNORMALS
280
     1
  9
$LATITUDE
 40
37.795
  9
$LONGITUDE
 40
-122.394
  9
$NORTHDIRECTION
 40
0.0
  9
$TIMEZONE
 70
 -8000
  9
$LIGHTGLYPHDISPLAY
280
     1
  9
$TILEMODELIGHTSYNCH
280
     1
  9
$SOLIDHIST
280
     1
  9
$SHOWHIST
280
     1
  9
$DWFFRAME
280
     2
  9
$DGNFRAME
280
     2
  9
$REALWORLDSCALE
290
     1
  9
$INTERFERECOLOR
 62
   256
  9
$CSHADOW
280
     0
  9
$SHADOWPLANELOCATION
 40
0.0
  0
ENDSEC
  0
SECTION
  2
CLASSES
  0
CLASS
  1
ACDBDICTIONARYWDFLT
  2
AcDbDictionaryWithDefault
  3
ObjectDBX Classes
 90
        0
 91
        4
280
     0
281
     0
  0
CLASS
  1
VISUALSTYLE
  2
AcDbVisualStyle
  3
ObjectDBX Classes
 90
     4095
 91
        4
280
     0
281
     0
  0
CLASS
  1
MATERIAL
  2
AcDbMaterial
  3
ObjectDBX Classes
 90
     1153
 91
        4
280
     0
281
     0
  0
ENDSEC
  0
SECTION
  2
TABLES
  0
TABLE
  2
VPORT
  5
8
330
0
100
AcDbSymbolTable
 70
     1
  0
VPORT
  5
29
330
8
100
AcDbSymbolTableRecord
100
AcDbViewportTableRecord
  2
*Active
 70
     0
 10
0.0
 20
0.0
 11
1.0
 21
1.0
 12
10.42990654205607
 22
4.5
 13
0.0
 23
0.0
 14
0.5
 24
0.5
 15
0.5
 25
0.5
 16
0.0
 26
0.0
 36
1.0
 17
0.0
 27
0.0
 37
0.0
 40
9.0
 41
1.972972972850329
 42
50.0
 43
0.0
 44
0.0
 50
0.0
 51
0.0
 71
     0
 72
   100
 73
     1
 74
     3
 75
     0
 76
     0
 77
     0
 78
     0
281
     0
 65
     1
110
0.0
120
0.0
130
0.0
111
1.0
121
0.0
131
0.0
112
0.0
122
1.0
132
0.0
 79
     0
146
0.0
 60
     3
 61
     5
292
     1
282
     1
141
0.0
142
0.0
 63
   250
  0
ENDTAB
  0
TABLE
  2
LTYPE
  5
5
330
0
100
AcDbSymbolTable
 70
     1
  0
LTYPE
  5
14
330
5
100
AcDbSymbolTableRecord
100
AcDbLinetypeTableRecord
  2
ByBlock
 70
     0
  3

 72
    65
 73
     0
 40
0.0
  0
LTYPE
  5
15
330
5
100
AcDbSymbolTableRecord
100
AcDbLinetypeTableRecord
  2
ByLayer
 70
     0
  3

 72
    65
 73
     0
 40
0.0
  0
LTYPE
  5
16
330
5
100
AcDbSymbolTableRecord
100
AcDbLinetypeTableRecord
  2
Continuous
 70
     0
  3
Solid line
 72
    65
 73
     0
 40
0.0
  0
ENDTAB
  0
TABLE
  2
LAYER
  5
2
330
0
100
AcDbSymbolTable
 70
     2
  0
LAYER
  5
10
330
2
100
AcDbSymbolTableRecord
100
AcDbLayerTableRecord
  2
0
 70
     0
 62
     7
  6
Continuous
370
    -3
390
F
347
3E
  0
LAYER
  5
40
330
2
100
AcDbSymbolTableRecord
100
AcDbLayerTableRecord
  2
layer 1
 70
     0
 62
     7
  6
Continuous
370
    -3
390
F
347
3E
  0
ENDTAB
  0
TABLE
  2
STYLE
  5
3
330
0
100
AcDbSymbolTable
 70
     1
  0
STYLE
  5
11
330
3
100
AcDbSymbolTableRecord
100
AcDbTextStyleTableRecord
  2
Standard
 70
     0
 40
0.0
 41
1.0
 50
0.0
 71
     0
 42
0.2
  3
txt
  4

  0
ENDTAB
  0
TABLE
  2
VIEW
  5
6
330
0
100
AcDbSymbolTable
 70
     0
  0
ENDTAB
  0
TABLE
  2
UCS
  5
7
330
0
100
AcDbSymbolTable
 70
     0
  0
ENDTAB
  0
TABLE
  2
APPID
  5
9
330
0
100
AcDbSymbolTable
 70
     2
  0
APPID
  5
12
330
9
100
AcDbSymbolTableRecord
100
AcDbRegAppTableRecord
  2
ACAD
 70
     0
  0
APPID
  5
3F
330
9
100
AcDbSymbolTableRecord
100
AcDbRegAppTableRecord
  2
ODA
 70
     0
  0
ENDTAB
  0
TABLE
  2
DIMSTYLE
  5
A
330
0
100
AcDbSymbolTable
 70
     1
100
AcDbDimStyleTable
  0
DIMSTYLE
105
27
330
A
100
AcDbSymbolTableRecord
100
AcDbDimStyleTableRecord
  2
Standard
 70
     0
178
     0
340
11
  0
ENDTAB
  0
TABLE
  2
BLOCK_RECORD
  5
1
330
0
100
AcDbSymbolTable
 70
     1
  0
BLOCK_RECORD
  5
1F
330
1
100
AcDbSymbolTableRecord
100
AcDbBlockTableRecord
  2
*Model_Space
340
22
 70
     0
280
     1
281
     0
  0
BLOCK_RECORD
  5
1B
330
1
100
AcDbSymbolTableRecord
100
AcDbBlockTableRecord
  2
*Paper_Space
340
1E
 70
     0
280
     1
281
     0
  0
BLOCK_RECORD
  5
23
330
1
100
AcDbSymbolTableRecord
100
AcDbBlockTableRecord
  2
*Paper_Space0
340
26
 70
     0
280
     1
281
     0
  0
ENDTAB
  0
ENDSEC
  0
SECTION
  2
BLOCKS
  0
BLOCK
  5
20
330
1F
100
AcDbEntity
  8
0
100
AcDbBlockBegin
  2
*Model_Space
 70
     0
 10
0.0
 20
0.0
 30
0.0
  3
*Model_Space
  1

  0
ENDBLK
  5
21
330
1F
100
AcDbEntity
  8
0
100
AcDbBlockEnd
  0
BLOCK
  5
1C
330
1B
100
AcDbEntity
 67
     1
  8
0
100
AcDbBlockBegin
  2
*Paper_Space
 70
     0
 10
0.0
 20
0.0
 30
0.0
  3
*Paper_Space
  1

  0
ENDBLK
  5
1D
330
1B
100
AcDbEntity
 67
     1
  8
0
100
AcDbBlockEnd
  0
BLOCK
  5
24
330
23
100
AcDbEntity
  8
0
100
AcDbBlockBegin
  2
*Paper_Space0
 70
     0
 10
0.0
 20
0.0
 30
0.0
  3
*Paper_Space0
  1

  0
ENDBLK
  5
25
330
23
100
AcDbEntity
  8
0
100
AcDbBlockEnd
  0
ENDSEC
  0
SECTION
  2
ENTITIES
  0
LWPOLYLINE
  5
41
330
1F
100
AcDbEntity
  8
layer 1
 62
   250
370
     9
100
AcDbPolyline
 90
        5
 70
     1
 43
0.0
 10
22.9495
 20
-115.289
 10
196.0495
 20
-115.289
 10
196.0495
 20
131.6108
 10
22.9495
 20
131.6108
 10
22.9495
 20
-115.289
  0
SPLINE
  5
42
330
1F
100
AcDbEntity
  8
layer 1
 62
     7
370
     9
100
AcDbSpline
210
0.0
220
0.0
230
1.0
 70
    11
 71
     3
 72
    32
 73
    28
 74
     0
 42
0.0000000001
 43
0.0000000001
 12
1.0
 22
0.0
 32
0.0
 13
1.0
 23
0.0
 33
0.0
 40
0.0
 40
0.0
 40
0.0
 40
0.0
 40
0.125
 40
0.125
 40
0.125
 40
0.125
 40
0.25
 40
0.25
 40
0.25
 40
0.25
 40
0.375
 40
0.375
 40
0.375
 40
0.375
 40
0.5
 40
0.5
 40
0.5
 40
0.5
 40
0.625
 40
0.625
 40
0.625
 40
0.625
 40
0.75
 40
0.75
 40
0.75
 40
0.75
 40
1.0
 40
1.0
 40
1.0
 40
1.0
 10
150.0557
 20
120.4511
 30
0.0
 10
149.3186
 20
119.861
 30
0.0
 10
148.1298
 20
119.88
 30
0.0
 10
147.4128
 20
120.4966
 30
0.0
 10
147.4128
 20
120.4966
 30
0.0
 10
146.6967
 20
121.1132
 30
0.0
 10
146.5201
 20
122.1507
 30
0.0
 10
146.9929
 20
122.9692
 30
0.0
 10
146.9929
 20
122.9692
 30
0.0
 10
144.5192
 20
122.0323
 30
0.0
 10
141.7218
 20
122.8011
 30
0.0
 10
140.074
 20
124.8718
 30
0.0
 10
140.074
 20
124.8718
 30
0.0
 10
140.074
 20
124.8718
 30
0.0
 10
159.903
 20
124.8718
 30
0.0
 10
159.903
 20
124.8718
 30
0.0
 10
159.903
 20
124.8718
 30
0.0
 10
158.2554
 20
122.8011
 30
0.0
 10
155.458
 20
122.0323
 30
0.0
 10
152.9831
 20
122.9692
 30
0.0
 10
152.9831
 20
122.9692
 30
0.0
 10
153.4569
 20
122.1507
 30
0.0
 10
153.2803
 20
121.1132
 30
0.0
 10
152.5633
 20
120.4966
 30
0.0
 10
152.5633
 20
120.4966
 30
0.0
 10
151.8483
 20
119.88
 30
0.0
 10
150.7939
 20
119.861
 30
0.0
 10
150.0557
 20
120.4511
 30
0.0
  0
SPLINE
  5
43
330
1F
100
AcDbEntity
  8
layer 1
 62
     7
370
     9
100
AcDbSpline
210
0.0
220
0.0
230
1.0
 70
    11
 71
     3
 72
   124
 73
   120
 74
     0
 42
0.0000000001
 43
0.0000000001
 12
1.0
 22
0.0
 32
0.0
 13
1.0
 23
0.0
 33
0.0
 40
0.0
 40
0.0
 40
0.0
 40
0.0
 40
0.032258064516129
 40
0.032258064516129
 40
0.032258064516129
 40
0.032258064516129
 40
0.0645161290322581
 40
0.0645161290322581
 40
0.0645161290322581
 40
0.0645161290322581
 40
0.0967741935483871
 40
0.0967741935483871
 40
0.0967741935483871
 40
0.0967741935483871
 40
0.1290322580645161
 40
0.1290322580645161
 40
0.1290322580645161
 40
0.1290322580645161
 40
0.1612903225806452
 40
0.1612903225806452
 40
0.1612903225806452
 40
0.1612903225806452
 40
0.1935483870967742
 40
0.1935483870967742
 40
0.1935483870967742
 40
0.1935483870967742
 40
0.2258064516129032
 40
0.2258064516129032
 40
0.2258064516129032
 40
0.2258064516129032
 40
0.2580645161290323
 40
0.2580645161290323
 40
0.2580645161290323
 40
0.2580645161290323
 40
0.2903225806451613
 40
0.2903225806451613
 40
0.2903225806451613
 40
0.2903225806451613
 40
0.3225806451612903
 40
0.3225806451612903
 40
0.3225806451612903
 40
0.3225806451612903
 40
0.3548387096774194
 40
0.3548387096774194
 40
0.3548387096774194
 40
0.3548387096774194
 40
0.3870967741935484
 40
0.3870967741935484
 40
0.3870967741935484
 40
0.3870967741935484
 40
0.4193548387096774
 40
0.4193548387096774
 40
0.4193548387096774
 40
0.4193548387096774
 40
0.4516129032258064
 40
0.4516129032258064
 40
0.4516129032258064
 40
0.4516129032258064
 40
0.4838709677419355
 40
0.4838709677419355
 40
0.4838709677419355
 40
0.4838709677419355
 40
0.5161290322580645
 40
0.5161290322580645
 40
0.5161290322580645
 40
0.5161290322580645
 40
0.5483870967741935
 40
0.5483870967741935
 40
0.5483870967741935
 40
0.5483870967741935
 40
0.5806451612903226
 40
0.5806451612903226
 40
0.5806451612903226
 40
0.5806451612903226
 40
0.6129032258064516
 40
0.6129032258064516
 40
0.6129032258064516
 40
0.6129032258064516
 40
0.6451612903225806
 40
0.6451612903225806
 40
0.6451612903225806
 40
0.6451612903225806
 40
0.6774193548387096
 40
0.6774193548387096
 40
0.6774193548387096
 40
0.6774193548387096
 40
0.7096774193548387
 40
0.7096774193548387
 40
0.7096774193548387
 40
0.7096774193548387
 40
0.7419354838709677
 40
0.7419354838709677
 40
0.7419354838709677
 40
0.7419354838709677
 40
0.7741935483870968
 40
0.7741935483870968
 40
0.7741935483870968
 40
0.7741935483870968
 40
0.8064516129032258
 40
0.8064516129032258
 40
0.8064516129032258
 40
0.8064516129032258
 40
0.8387096774193549
 40
0.8387096774193549
 40
0.8387096774193549
 40
0.8387096774193549
 40
0.8709677419354839
 40
0.8709677419354839
 40
0.8709677419354839
 40
0.8709677419354839
 40
0.9032258064516129
 40
0.9032258064516129
 40
0.9032258064516129
 40
0.9032258064516129
 40
0.9354838709677419
 40
0.9354838709677419
 40
0.9354838709677419
 40
0.9354838709677419
 40
1.0
 40
1.0
 40
1.0
 40
1.0
 10
149.9214
 20
15.5114
 30
0.0
 10
151.9964
 20
17.2163
 30
0.0
 10
154.4744
 20
18.569
 30
0.0
 10
156.9883
 20
19.5102
 30
0.0
 10
156.9883
 20
19.5102
 30
0.0
 10
154.6711
 20
19.9491
 30
0.0
 10
152.8404
 20
21.7323
 30
0.0
 10
152.3423
 20
24.0357
 30
0.0
 10
152.3423
 20
24.0357
 30
0.0
 10
151.842
 20
26.3413
 30
0.0
 10
152.7727
 20
28.7209
 30
0.0
 10
154.7007
 20
30.0799
 30
0.0
 10
154.7007
 20
30.0799
 30
0.0
 10
154.2883
 20
32.3125
 30
0.0
 10
155.4347
 20
34.5441
 30
0.0
 10
157.4907
 20
35.5086
 30
0.0
 10
157.4907
 20
35.5086
 30
0.0
 10
159.5477
 20
36.4731
 30
0.0
 10
161.9961
 20
35.9295
 30
0.0
 10
163.4503
 20
34.1855
 30
0.0
 10
163.4503
 20
34.1855
 30
0.0
 10
165.3571
 20
34.543
 30
0.0
 10
167.3116
 20
33.8778
 30
0.0
 10
168.604
 20
32.4331
 30
0.0
 10
168.604
 20
32.4331
 30
0.0
 10
169.8985
 20
30.9874
 30
0.0
 10
170.3427
 20
28.9726
 30
0.0
 10
169.779
 20
27.1165
 30
0.0
 10
169.779
 20
27.1165
 30
0.0
 10
168.9287
 20
28.9821
 30
0.0
 10
167.1032
 20
30.2121
 30
0.0
 10
165.0568
 20
30.2967
 30
0.0
 10
165.0568
 20
30.2967
 30
0.0
 10
163.0093
 20
30.3824
 30
0.0
 10
161.0865
 20
29.3089
 30
0.0
 10
160.085
 20
27.5205
 30
0.0
 10
160.085
 20
27.5205
 30
0.0
 10
159.4367
 20
24.683
 30
0.0
 10
160.9924
 20
21.8042
 30
0.0
 10
163.72
 20
20.7899
 30
0.0
 10
163.72
 20
20.7899
 30
0.0
 10
166.1895
 20
20.2781
 30
0.0
 10
168.7594
 20
20.7931
 30
0.0
 10
170.8408
 20
22.2145
 30
0.0
 10
170.8408
 20
22.2145
 30
0.0
 10
172.9232
 20
23.636
 30
0.0
 10
174.3372
 20
25.8432
 30
0.0
 10
174.7582
 20
28.3296
 30
0.0
 10
174.7582
 20
28.3296
 30
0.0
 10
176.3097
 20
34.047
 30
0.0
 10
174.6334
 20
40.1547
 30
0.0
 10
170.3839
 20
44.2825
 30
0.0
 10
170.3839
 20
44.2825
 30
0.0
 10
168.3004
 20
40.803
 30
0.0
 10
164.6729
 20
38.5376
 30
0.0
 10
160.6339
 20
38.1907
 30
0.0
 10
160.6339
 20
38.1907
 30
0.0
 10
156.5949
 20
37.8449
 30
0.0
 10
152.6342
 20
39.4598
 30
0.0
 10
149.988
 20
42.5322
 30
0.0
 10
149.988
 20
42.5322
 30
0.0
 10
147.343
 20
39.4598
 30
0.0
 10
143.3833
 20
37.8449
 30
0.0
 10
139.3433
 20
38.1907
 30
0.0
 10
139.3433
 20
38.1907
 30
0.0
 10
135.3032
 20
38.5376
 30
0.0
 10
131.6756
 20
40.803
 30
0.0
 10
129.5932
 20
44.2825
 30
0.0
 10
129.5932
 20
44.2825
 30
0.0
 10
125.3438
 20
40.1547
 30
0.0
 10
123.6675
 20
34.047
 30
0.0
 10
125.2179
 20
28.3296
 30
0.0
 10
125.2179
 20
28.3296
 30
0.0
 10
125.6388
 20
25.8432
 30
0.0
 10
127.055
 20
23.636
 30
0.0
 10
129.1353
 20
22.2145
 30
0.0
 10
129.1353
 20
22.2145
 30
0.0
 10
131.2187
 20
20.7931
 30
0.0
 10
133.7877
 20
20.2781
 30
0.0
 10
136.2572
 20
20.7899
 30
0.0
 10
136.2572
 20
20.7899
 30
0.0
 10
138.9868
 20
21.8042
 30
0.0
 10
140.5415
 20
24.683
 30
0.0
 10
139.8911
 20
27.5205
 30
0.0
 10
139.8911
 20
27.5205
 30
0.0
 10
138.8906
 20
29.3089
 30
0.0
 10
136.9689
 20
30.3824
 30
0.0
 10
134.9214
 20
30.2967
 30
0.0
 10
134.9214
 20
30.2967
 30
0.0
 10
132.8739
 20
30.2121
 30
0.0
 10
131.0474
 20
28.9821
 30
0.0
 10
130.1992
 20
27.1165
 30
0.0
 10
130.1992
 20
27.1165
 30
0.0
 10
129.6345
 20
28.9726
 30
0.0
 10
130.0786
 20
30.9874
 30
0.0
 10
131.3732
 20
32.4331
 30
0.0
 10
131.3732
 20
32.4331
 30
0.0
 10
132.6655
 20
33.8778
 30
0.0
 10
134.62
 20
34.543
 30
0.0
 10
136.5258
 20
34.1855
 30
0.0
 10
136.5258
 20
34.1855
 30
0.0
 10
137.9811
 20
35.9295
 30
0.0
 10
140.4294
 20
36.4731
 30
0.0
 10
142.4854
 20
35.5086
 30
0.0
 10
142.4854
 20
35.5086
 30
0.0
 10
144.5424
 20
34.5441
 30
0.0
 10
145.6889
 20
32.3125
 30
0.0
 10
145.2764
 20
30.0799
 30
0.0
 10
145.2764
 20
30.0799
 30
0.0
 10
147.2065
 20
28.7209
 30
0.0
 10
148.1351
 20
26.3413
 30
0.0
 10
147.6359
 20
24.0357
 30
0.0
 10
147.6359
 20
24.0357
 30
0.0
 10
147.1357
 20
21.7323
 30
0.0
 10
145.306
 20
19.9491
 30
0.0
 10
142.9888
 20
19.5102
 30
0.0
 10
142.9888
 20
19.5102
 30
0.0
 10
145.5038
 20
18.569
 30
0.0
 10
147.8464
 20
17.2163
 30
0.0
 10
149.9214
 20
15.5114
 30
0.0
  0
SPLINE
  5
44
330
1F
100
AcDbEntity
  8
layer 1
 62
     7
370
     9
100
AcDbSpline
210
0.0
220
0.0
230
1.0
 70
    11
 71
     3
 72
    28
 73
    24
 74
     0
 42
0.0000000001
 43
0.0000000001
 12
1.0
 22
0.0
 32
0.0
 13
1.0
 23
0.0
 33
0.0
 40
0.0
 40
0.0
 40
0.0
 40
0.0
 40
0.1428571428571428
 40
0.1428571428571428
 40
0.1428571428571428
 40
0.1428571428571428
 40
0.2857142857142857
 40
0.2857142857142857
 40
0.2857142857142857
 40
0.2857142857142857
 40
0.4285714285714285
 40
0.4285714285714285
 40
0.4285714285714285
 40
0.4285714285714285
 40
0.5714285714285714
 40
0.5714285714285714
 40
0.5714285714285714
 40
0.5714285714285714
 40
0.7142857142857143
 40
0.7142857142857143
 40
0.7142857142857143
 40
0.7142857142857143
 40
1.0
 40
1.0
 40
1.0
 40
1.0
 10
150.0557
 20
64.1982
 30
0.0
 10
148.8648
 20
63.5594
 30
0.0
 10
147.2891
 20
63.6028
 30
0.0
 10
146.1373
 20
64.3113
 30
0.0
 10
146.1373
 20
64.3113
 30
0.0
 10
144.9877
 20
65.0211
 30
0.0
 10
144.3002
 20
66.288
 30
0.0
 10
144.3352
 20
67.6386
 30
0.0
 10
144.3352
 20
67.6386
 30
0.0
 10
144.3573
 20
71.8447
 30
0.0
 10
146.5793
 20
75.7715
 30
0.0
 10
150.0557
 20
78.1395
 30
0.0
 10
150.0557
 20
78.1395
 30
0.0
 10
153.531
 20
75.7715
 30
0.0
 10
155.6197
 20
71.8447
 30
0.0
 10
155.643
 20
67.6386
 30
0.0
 10
155.643
 20
67.6386
 30
0.0
 10
155.6769
 20
66.288
 30
0.0
 10
154.9884
 20
65.0211
 30
0.0
 10
153.8388
 20
64.3113
 30
0.0
 10
153.8388
 20
64.3113
 30
0.0
 10
152.6871
 20
63.6028
 30
0.0
 10
151.2476
 20
63.5594
 30
0.0
 10
150.0557
 20
64.1982
 30
0.0
  0
SPLINE
  5
45
330
1F
100
AcDbEntity
  8
layer 1
 62
     7
370
     9
100
AcDbSpline
210
0.0
220
0.0
230
1.0
 70
    11
 71
     3
 72
   148
 73
   144
 74
     0
 42
0.0000000001
 43
0.0000000001
 12
1.0
 22
0.0
 32
0.0
 13
1.0
 23
0.0
 33
0.0
 40
0.0
 40
0.0
 40
0.0
 40
0.0
 40
0.027027027027027
 40
0.027027027027027
 40
0.027027027027027
 40
0.027027027027027
 40
0.0540540540540541
 40
0.0540540540540541
 40
0.0540540540540541
 40
0.0540540540540541
 40
0.0810810810810811
 40
0.0810810810810811
 40
0.0810810810810811
 40
0.0810810810810811
 40
0.1081081081081081
 40
0.1081081081081081
 40
0.1081081081081081
 40
0.1081081081081081
 40
0.1351351351351351
 40
0.1351351351351351
 40
0.1351351351351351
 40
0.1351351351351351
 40
0.1621621621621622
 40
0.1621621621621622
 40
0.1621621621621622
 40
0.1621621621621622
 40
0.1891891891891892
 40
0.1891891891891892
 40
0.1891891891891892
 40
0.1891891891891892
 40
0.2162162162162162
 40
0.2162162162162162
 40
0.2162162162162162
 40
0.2162162162162162
 40
0.2432432432432433
 40
0.2432432432432433
 40
0.2432432432432433
 40
0.2432432432432433
 40
0.2702702702702703
 40
0.2702702702702703
 40
0.2702702702702703
 40
0.2702702702702703
 40
0.2972972972972973
 40
0.2972972972972973
 40
0.2972972972972973
 40
0.2972972972972973
 40
0.3243243243243243
 40
0.3243243243243243
 40
0.3243243243243243
 40
0.3243243243243243
 40
0.3513513513513514
 40
0.3513513513513514
 40
0.3513513513513514
 40
0.3513513513513514
 40
0.3783783783783784
 40
0.3783783783783784
 40
0.3783783783783784
 40
0.3783783783783784
 40
0.4054054054054054
 40
0.4054054054054054
 40
0.4054054054054054
 40
0.4054054054054054
 40
0.4324324324324325
 40
0.4324324324324325
 40
0.4324324324324325
 40
0.4324324324324325
 40
0.4594594594594595
 40
0.4594594594594595
 40
0.4594594594594595
 40
0.4594594594594595
 40
0.4864864864864865
 40
0.4864864864864865
 40
0.4864864864864865
 40
0.4864864864864865
 40
0.5135135135135135
 40
0.5135135135135135
 40
0.5135135135135135
 40
0.5135135135135135
 40
0.5405405405405406
 40
0.5405405405405406
 40
0.5405405405405406
 40
0.5405405405405406
 40
0.5675675675675675
 40
0.5675675675675675
 40
0.5675675675675675
 40
0.5675675675675675
 40
0.5945945945945946
 40
0.5945945945945946
 40
0.5945945945945946
 40
0.5945945945945946
 40
0.6216216216216216
 40
0.6216216216216216
 40
0.6216216216216216
 40
0.6216216216216216
 40
0.6486486486486487
 40
0.6486486486486487
 40
0.6486486486486487
 40
0.6486486486486487
 40
0.6756756756756757
 40
0.6756756756756757
 40
0.6756756756756757
 40
0.6756756756756757
 40
0.7027027027027027
 40
0.7027027027027027
 40
0.7027027027027027
 40
0.7027027027027027
 40
0.7297297297297297
 40
0.7297297297297297
 40
0.7297297297297297
 40
0.7297297297297297
 40
0.7567567567567568
 40
0.7567567567567568
 40
0.7567567567567568
 40
0.7567567567567568
 40
0.7837837837837838
 40
0.7837837837837838
 40
0.7837837837837838
 40
0.7837837837837838
 40
0.8108108108108109
 40
0.8108108108108109
 40
0.8108108108108109
 40
0.8108108108108109
 40
0.8378378378378378
 40
0.8378378378378378
 40
0.8378378378378378
 40
0.8378378378378378
 40
0.8648648648648649
 40
0.8648648648648649
 40
0.8648648648648649
 40
0.8648648648648649
 40
0.8918918918918919
 40
0.8918918918918919
 40
0.8918918918918919
 40
0.8918918918918919
 40
0.918918918918919
 40
0.918918918918919
 40
0.918918918918919
 40
0.918918918918919
 40
0.9459459459459459
 40
0.9459459459459459
 40
0.9459459459459459
 40
0.9459459459459459
 40
1.0
 40
1.0
 40
1.0
 40
1.0
 10
150.0557
 20
82.3139
 30
0.0
 10
149.9817
 20
83.9288
 30
0.0
 10
148.573
 20
85.2329
 30
0.0
 10
146.9601
 20
85.3418
 30
0.0
 10
146.9601
 20
85.3418
 30
0.0
 10
148.8765
 20
86.7431
 30
0.0
 10
149.5851
 20
89.273
 30
0.0
 10
148.6724
 20
91.4632
 30
0.0
 10
148.6724
 20
91.4632
 30
0.0
 10
147.7618
 20
93.6557
 30
0.0
 10
145.4657
 20
94.9364
 30
0.0
 10
143.1221
 20
94.563
 30
0.0
 10
143.1221
 20
94.563
 30
0.0
 10
142.0867
 20
94.3093
 30
0.0
 10
141.1771
 20
93.6874
 30
0.0
 10
140.5648
 20
92.8138
 30
0.0
 10
140.5648
 20
92.8138
 30
0.0
 10
138.5955
 20
94.3938
 30
0.0
 10
135.9008
 20
94.728
 30
0.0
 10
133.6068
 20
93.6726
 30
0.0
 10
133.6068
 20
93.6726
 30
0.0
 10
131.3119
 20
92.6171
 30
0.0
 10
129.81
 20
90.357
 30
0.0
 10
129.7275
 20
87.8325
 30
0.0
 10
129.7275
 20
87.8325
 30
0.0
 10
129.7508
 20
85.7755
 30
0.0
 10
130.4615
 20
83.786
 30
0.0
 10
131.7475
 20
82.1774
 30
0.0
 10
131.7475
 20
82.1774
 30
0.0
 10
131.6914
 20
83.7417
 30
0.0
 10
132.307
 20
85.2551
 30
0.0
 10
133.4397
 20
86.336
 30
0.0
 10
133.4397
 20
86.336
 30
0.0
 10
134.5703
 20
87.4158
 30
0.0
 10
136.1112
 20
87.9604
 30
0.0
 10
137.6701
 20
87.8325
 30
0.0
 10
137.6701
 20
87.8325
 30
0.0
 10
139.3581
 20
87.6336
 30
0.0
 10
140.8356
 20
86.6046
 30
0.0
 10
141.6066
 20
85.0901
 30
0.0
 10
141.6066
 20
85.0901
 30
0.0
 10
142.3776
 20
83.5757
 30
0.0
 10
142.3405
 20
81.7756
 30
0.0
 10
141.5071
 20
80.2939
 30
0.0
 10
141.5071
 20
80.2939
 30
0.0
 10
138.0699
 20
76.6504
 30
0.0
 10
132.4371
 20
76.1851
 30
0.0
 10
128.4489
 20
79.2162
 30
0.0
 10
128.4489
 20
79.2162
 30
0.0
 10
122.3529
 20
84.9198
 30
0.0
 10
121.9055
 20
94.4393
 30
0.0
 10
127.4389
 20
100.6887
 30
0.0
 10
127.4389
 20
100.6887
 30
0.0
 10
127.4389
 20
99.1309
 30
0.0
 10
128.1305
 20
97.6534
 30
0.0
 10
129.3236
 20
96.6508
 30
0.0
 10
129.3236
 20
96.6508
 30
0.0
 10
128.91
 20
99.3889
 30
0.0
 10
129.4314
 20
102.1874
 30
0.0
 10
130.8042
 20
104.5934
 30
0.0
 10
130.8042
 20
104.5934
 30
0.0
 10
132.4498
 20
101.043
 30
0.0
 10
135.8204
 20
98.6021
 30
0.0
 10
139.7081
 20
98.1483
 30
0.0
 10
139.7081
 20
98.1483
 30
0.0
 10
143.5927
 20
97.6967
 30
0.0
 10
147.436
 20
99.2959
 30
0.0
 10
149.8537
 20
102.3725
 30
0.0
 10
149.8537
 20
102.3725
 30
0.0
 10
149.8537
 20
102.3725
 30
0.0
 10
149.9548
 20
102.4284
 30
0.0
 10
149.9548
 20
102.4284
 30
0.0
 10
149.9548
 20
102.4284
 30
0.0
 10
149.9548
 20
102.4284
 30
0.0
 10
149.9548
 20
102.4284
 30
0.0
 10
149.9548
 20
102.4284
 30
0.0
 10
149.9548
 20
102.4284
 30
0.0
 10
152.3703
 20
99.3518
 30
0.0
 10
156.3834
 20
97.6967
 30
0.0
 10
160.2701
 20
98.1483
 30
0.0
 10
160.2701
 20
98.1483
 30
0.0
 10
164.1557
 20
98.6021
 30
0.0
 10
167.5284
 20
101.043
 30
0.0
 10
169.173
 20
104.5934
 30
0.0
 10
169.173
 20
104.5934
 30
0.0
 10
170.5447
 20
102.1874
 30
0.0
 10
171.0672
 20
99.3889
 30
0.0
 10
170.6526
 20
96.6508
 30
0.0
 10
170.6526
 20
96.6508
 30
0.0
 10
171.8466
 20
97.6534
 30
0.0
 10
172.5372
 20
99.1309
 30
0.0
 10
172.5372
 20
100.6887
 30
0.0
 10
172.5372
 20
100.6887
 30
0.0
 10
178.0727
 20
94.4393
 30
0.0
 10
177.6243
 20
84.9198
 30
0.0
 10
171.5293
 20
79.2162
 30
0.0
 10
171.5293
 20
79.2162
 30
0.0
 10
167.54
 20
76.1851
 30
0.0
 10
161.9072
 20
76.6504
 30
0.0
 10
158.4711
 20
80.2939
 30
0.0
 10
158.4711
 20
80.2939
 30
0.0
 10
157.6366
 20
81.7756
 30
0.0
 10
157.6007
 20
83.5757
 30
0.0
 10
158.3716
 20
85.0901
 30
0.0
 10
158.3716
 20
85.0901
 30
0.0
 10
159.1426
 20
86.6046
 30
0.0
 10
160.6191
 20
87.6336
 30
0.0
 10
162.3059
 20
87.8325
 30
0.0
 10
162.3059
 20
87.8325
 30
0.0
 10
163.8659
 20
87.9604
 30
0.0
 10
165.4069
 20
87.4158
 30
0.0
 10
166.5385
 20
86.336
 30
0.0
 10
166.5385
 20
86.336
 30
0.0
 10
167.6701
 20
85.2551
 30
0.0
 10
168.2867
 20
83.7417
 30
0.0
 10
168.2296
 20
82.1774
 30
0.0
 10
168.2296
 20
82.1774
 30
0.0
 10
169.5145
 20
83.786
 30
0.0
 10
170.2264
 20
85.7755
 30
0.0
 10
170.2496
 20
87.8325
 30
0.0
 10
170.2496
 20
87.8325
 30
0.0
 10
170.166
 20
90.357
 30
0.0
 10
168.6653
 20
92.6171
 30
0.0
 10
166.3703
 20
93.6726
 30
0.0
 10
166.3703
 20
93.6726
 30
0.0
 10
164.0764
 20
94.728
 30
0.0
 10
161.3816
 20
94.3938
 30
0.0
 10
159.4124
 20
92.8138
 30
0.0
 10
159.4124
 20
92.8138
 30
0.0
 10
158.8
 20
93.6874
 30
0.0
 10
157.8904
 20
94.3093
 30
0.0
 10
156.854
 20
94.563
 30
0.0
 10
156.854
 20
94.563
 30
0.0
 10
154.5103
 20
94.9364
 30
0.0
 10
152.2164
 20
93.6557
 30
0.0
 10
151.3047
 20
91.4632
 30
0.0
 10
151.3047
 20
91.4632
 30
0.0
 10
150.3941
 20
89.273
 30
0.0
 10
151.1007
 20
86.7431
 30
0.0
 10
153.0181
 20
85.3418
 30
0.0
 10
153.0181
 20
85.3418
 30
0.0
 10
151.4042
 20
85.2329
 30
0.0
 10
150.1298
 20
83.9288
 30
0.0
 10
150.0557
 20
82.3139
 30
0.0
  0
SPLINE
  5
46
330
1F
100
AcDbEntity
  8
layer 1
 62
     7
370
     9
100
AcDbSpline
210
0.0
220
0.0
230
1.0
 70
    11
 71
     3
 72
    84
 73
    80
 74
     0
 42
0.0000000001
 43
0.0000000001
 12
1.0
 22
0.0
 32
0.0
 13
1.0
 23
0.0
 33
0.0
 40
0.0
 40
0.0
 40
0.0
 40
0.0
 40
0.0476190476190476
 40
0.0476190476190476
 40
0.0476190476190476
 40
0.0476190476190476
 40
0.0952380952380952
 40
0.0952380952380952
 40
0.0952380952380952
 40
0.0952380952380952
 40
0.1428571428571428
 40
0.1428571428571428
 40
0.1428571428571428
 40
0.1428571428571428
 40
0.1904761904761905
 40
0.1904761904761905
 40
0.1904761904761905
 40
0.1904761904761905
 40
0.2380952380952381
 40
0.2380952380952381
 40
0.2380952380952381
 40
0.2380952380952381
 40
0.2857142857142857
 40
0.2857142857142857
 40
0.2857142857142857
 40
0.2857142857142857
 40
0.3333333333333333
 40
0.3333333333333333
 40
0.3333333333333333
 40
0.3333333333333333
 40
0.3809523809523809
 40
0.3809523809523809
 40
0.3809523809523809
 40
0.3809523809523809
 40
0.4285714285714285
 40
0.4285714285714285
 40
0.4285714285714285
 40
0.4285714285714285
 40
0.4761904761904762
 40
0.4761904761904762
 40
0.4761904761904762
 40
0.4761904761904762
 40
0.5238095238095238
 40
0.5238095238095238
 40
0.5238095238095238
 40
0.5238095238095238
 40
0.5714285714285714
 40
0.5714285714285714
 40
0.5714285714285714
 40
0.5714285714285714
 40
0.6190476190476191
 40
0.6190476190476191
 40
0.6190476190476191
 40
0.6190476190476191
 40
0.6666666666666666
 40
0.6666666666666666
 40
0.6666666666666666
 40
0.6666666666666666
 40
0.7142857142857143
 40
0.7142857142857143
 40
0.7142857142857143
 40
0.7142857142857143
 40
0.7619047619047619
 40
0.7619047619047619
 40
0.7619047619047619
 40
0.7619047619047619
 40
0.8095238095238095
 40
0.8095238095238095
 40
0.8095238095238095
 40
0.8095238095238095
 40
0.8571428571428571
 40
0.8571428571428571
 40
0.8571428571428571
 40
0.8571428571428571
 40
0.9047619047619048
 40
0.9047619047619048
 40
0.9047619047619048
 40
0.9047619047619048
 40
1.0
 40
1.0
 40
1.0
 40
1.0
 10
150.0557
 20
110.4884
 30
0.0
 10
149.3239
 20
111.6106
 30
0.0
 10
147.9321
 20
112.278
 30
0.0
 10
146.5942
 20
112.2568
 30
0.0
 10
146.5942
 20
112.2568
 30
0.0
 10
145.2542
 20
112.2345
 30
0.0
 10
144.0199
 20
111.5259
 30
0.0
 10
143.3251
 20
110.3817
 30
0.0
 10
143.3251
 20
110.3817
 30
0.0
 10
142.6884
 20
109.3008
 30
0.0
 10
142.6123
 20
107.9788
 30
0.0
 10
143.1199
 20
106.8324
 30
0.0
 10
143.1199
 20
106.8324
 30
0.0
 10
143.6266
 20
105.6848
 30
0.0
 10
144.6545
 20
104.8514
 30
0.0
 10
145.8824
 20
104.5934
 30
0.0
 10
145.8824
 20
104.5934
 30
0.0
 10
145.5503
 20
104.1048
 30
0.0
 10
145.1675
 20
103.6532
 30
0.0
 10
144.7391
 20
103.246
 30
0.0
 10
144.7391
 20
103.246
 30
0.0
 10
143.0025
 20
102.0657
 30
0.0
 10
140.7763
 20
101.8849
 30
0.0
 10
138.8726
 20
102.7669
 30
0.0
 10
138.8726
 20
102.7669
 30
0.0
 10
136.969
 20
103.65
 30
0.0
 10
135.6692
 20
105.468
 30
0.0
 10
135.4492
 20
107.5546
 30
0.0
 10
135.4492
 20
107.5546
 30
0.0
 10
134.9785
 20
113.2456
 30
0.0
 10
139.0186
 20
118.319
 30
0.0
 10
144.6704
 20
119.1323
 30
0.0
 10
144.6704
 20
119.1323
 30
0.0
 10
144.6513
 20
117.8822
 30
0.0
 10
145.3642
 20
116.7336
 30
0.0
 10
146.4948
 20
116.1974
 30
0.0
 10
146.4948
 20
116.1974
 30
0.0
 10
147.6243
 20
115.6612
 30
0.0
 10
149.0996
 20
115.8336
 30
0.0
 10
150.0557
 20
116.6416
 30
0.0
 10
150.0557
 20
116.6416
 30
0.0
 10
151.0129
 20
115.8336
 30
0.0
 10
152.3529
 20
115.6612
 30
0.0
 10
153.4835
 20
116.1974
 30
0.0
 10
153.4835
 20
116.1974
 30
0.0
 10
154.6129
 20
116.7336
 30
0.0
 10
155.3268
 20
117.8822
 30
0.0
 10
155.3068
 20
119.1323
 30
0.0
 10
155.3068
 20
119.1323
 30
0.0
 10
160.9586
 20
118.319
 30
0.0
 10
164.9996
 20
113.2456
 30
0.0
 10
164.528
 20
107.5546
 30
0.0
 10
164.528
 20
107.5546
 30
0.0
 10
164.3091
 20
105.468
 30
0.0
 10
163.0093
 20
103.65
 30
0.0
 10
161.1055
 20
102.7669
 30
0.0
 10
161.1055
 20
102.7669
 30
0.0
 10
159.2009
 20
101.8849
 30
0.0
 10
156.9735
 20
102.0657
 30
0.0
 10
155.239
 20
103.246
 30
0.0
 10
155.239
 20
103.246
 30
0.0
 10
154.8107
 20
103.6532
 30
0.0
 10
154.4257
 20
104.1048
 30
0.0
 10
154.0936
 20
104.5934
 30
0.0
 10
154.0936
 20
104.5934
 30
0.0
 10
155.3226
 20
104.8514
 30
0.0
 10
156.3516
 20
105.6848
 30
0.0
 10
156.8571
 20
106.8324
 30
0.0
 10
156.8571
 20
106.8324
 30
0.0
 10
157.3648
 20
107.9788
 30
0.0
 10
157.2886
 20
109.3008
 30
0.0
 10
156.6531
 20
110.3817
 30
0.0
 10
156.6531
 20
110.3817
 30
0.0
 10
155.9561
 20
111.5259
 30
0.0
 10
154.7219
 20
112.2345
 30
0.0
 10
153.384
 20
112.2568
 30
0.0
 10
153.384
 20
112.2568
 30
0.0
 10
152.0451
 20
112.278
 30
0.0
 10
150.7886
 20
111.6106
 30
0.0
 10
150.0557
 20
110.4884
 30
0.0
  0
SPLINE
  5
47
330
1F
100
AcDbEntity
  8
layer 1
 62
     7
370
     9
100
AcDbSpline
210
0.0
220
0.0
230
1.0
 70
    11
 71
     3
 72
    32
 73
    28
 74
     0
 42
0.0000000001
 43
0.0000000001
 12
1.0
 22
0.0
 32
0.0
 13
1.0
 23
0.0
 33
0.0
 40
0.0
 40
0.0
 40
0.0
 40
0.0
 40
0.125
 40
0.125
 40
0.125
 40
0.125
 40
0.25
 40
0.25
 40
0.25
 40
0.25
 40
0.375
 40
0.375
 40
0.375
 40
0.375
 40
0.5
 40
0.5
 40
0.5
 40
0.5
 40
0.625
 40
0.625
 40
0.625
 40
0.625
 40
0.75
 40
0.75
 40
0.75
 40
0.75
 40
1.0
 40
1.0
 40
1.0
 40
1.0
 10
150.0557
 20
-104.4504
 30
0.0
 10
149.3186
 20
-103.8602
 30
0.0
 10
148.1298
 20
-103.8793
 30
0.0
 10
147.4128
 20
-104.4948
 30
0.0
 10
147.4128
 20
-104.4948
 30
0.0
 10
146.6967
 20
-105.1104
 30
0.0
 10
146.5201
 20
-106.15
 30
0.0
 10
146.9929
 20
-106.9675
 30
0.0
 10
146.9929
 20
-106.9675
 30
0.0
 10
144.5192
 20
-106.0315
 30
0.0
 10
141.7218
 20
-106.7994
 30
0.0
 10
140.074
 20
-108.869
 30
0.0
 10
140.074
 20
-108.869
 30
0.0
 10
140.074
 20
-108.869
 30
0.0
 10
159.903
 20
-108.869
 30
0.0
 10
159.903
 20
-108.869
 30
0.0
 10
159.903
 20
-108.869
 30
0.0
 10
158.2554
 20
-106.7994
 30
0.0
 10
155.458
 20
-106.0315
 30
0.0
 10
152.9831
 20
-106.9675
 30
0.0
 10
152.9831
 20
-106.9675
 30
0.0
 10
153.4569
 20
-106.15
 30
0.0
 10
153.2803
 20
-105.1104
 30
0.0
 10
152.5633
 20
-104.4948
 30
0.0
 10
152.5633
 20
-104.4948
 30
0.0
 10
151.8483
 20
-103.8793
 30
0.0
 10
150.7939
 20
-103.8602
 30
0.0
 10
150.0557
 20
-104.4504
 30
0.0
  0
SPLINE
  5
48
330
1F
100
AcDbEntity
  8
layer 1
 62
     7
370
     9
100
AcDbSpline
210
0.0
220
0.0
230
1.0
 70
    11
 71
     3
 72
   124
 73
   120
 74
     0
 42
0.0000000001
 43
0.0000000001
 12
1.0
 22
0.0
 32
0.0
 13
1.0
 23
0.0
 33
0.0
 40
0.0
 40
0.0
 40
0.0
 40
0.0
 40
0.032258064516129
 40
0.032258064516129
 40
0.032258064516129
 40
0.032258064516129
 40
0.0645161290322581
 40
0.0645161290322581
 40
0.0645161290322581
 40
0.0645161290322581
 40
0.0967741935483871
 40
0.0967741935483871
 40
0.0967741935483871
 40
0.0967741935483871
 40
0.1290322580645161
 40
0.1290322580645161
 40
0.1290322580645161
 40
0.1290322580645161
 40
0.1612903225806452
 40
0.1612903225806452
 40
0.1612903225806452
 40
0.1612903225806452
 40
0.1935483870967742
 40
0.1935483870967742
 40
0.1935483870967742
 40
0.1935483870967742
 40
0.2258064516129032
 40
0.2258064516129032
 40
0.2258064516129032
 40
0.2258064516129032
 40
0.2580645161290323
 40
0.2580645161290323
 40
0.2580645161290323
 40
0.2580645161290323
 40
0.2903225806451613
 40
0.2903225806451613
 40
0.2903225806451613
 40
0.2903225806451613
 40
0.3225806451612903
 40
0.3225806451612903
 40
0.3225806451612903
 40
0.3225806451612903
 40
0.3548387096774194
 40
0.3548387096774194
 40
0.3548387096774194
 40
0.3548387096774194
 40
0.3870967741935484
 40
0.3870967741935484
 40
0.3870967741935484
 40
0.3870967741935484
 40
0.4193548387096774
 40
0.4193548387096774
 40
0.4193548387096774
 40
0.4193548387096774
 40
0.4516129032258064
 40
0.4516129032258064
 40
0.4516129032258064
 40
0.4516129032258064
 40
0.4838709677419355
 40
0.4838709677419355
 40
0.4838709677419355
 40
0.4838709677419355
 40
0.5161290322580645
 40
0.5161290322580645
 40
0.5161290322580645
 40
0.5161290322580645
 40
0.5483870967741935
 40
0.5483870967741935
 40
0.5483870967741935
 40
0.5483870967741935
 40
0.5806451612903226
 40
0.5806451612903226
 40
0.5806451612903226
 40
0.5806451612903226
 40
0.6129032258064516
 40
0.6129032258064516
 40
0.6129032258064516
 40
0.6129032258064516
 40
0.6451612903225806
 40
0.6451612903225806
 40
0.6451612903225806
 40
0.6451612903225806
 40
0.6774193548387096
 40
0.6774193548387096
 40
0.6774193548387096
 40
0.6774193548387096
 40
0.7096774193548387
 40
0.7096774193548387
 40
0.7096774193548387
 40
0.7096774193548387
 40
0.7419354838709677
 40
0.7419354838709677
 40
0.7419354838709677
 40
0.7419354838709677
 40
0.7741935483870968
 40
0.7741935483870968
 40
0.7741935483870968
 40
0.7741935483870968
 40
0.8064516129032258
 40
0.8064516129032258
 40
0.8064516129032258
 40
0.8064516129032258
 40
0.8387096774193549
 40
0.8387096774193549
 40
0.8387096774193549
 40
0.8387096774193549
 40
0.8709677419354839
 40
0.8709677419354839
 40
0.8709677419354839
 40
0.8709677419354839
 40
0.9032258064516129
 40
0.9032258064516129
 40
0.9032258064516129
 40
0.9032258064516129
 40
0.9354838709677419
 40
0.9354838709677419
 40
0.9354838709677419
 40
0.9354838709677419
 40
1.0
 40
1.0
 40
1.0
 40
1.0
 10
149.9214
 20
0.4892
 30
0.0
 10
151.9964
 20
-1.2156
 30
0.0
 10
154.4744
 20
-2.5662
 30
0.0
 10
156.9883
 20
-3.5096
 30
0.0
 10
156.9883
 20
-3.5096
 30
0.0
 10
154.6711
 20
-3.9463
 30
0.0
 10
152.8404
 20
-5.7305
 30
0.0
 10
152.3423
 20
-8.035
 30
0.0
 10
152.3423
 20
-8.035
 30
0.0
 10
151.842
 20
-10.3406
 30
0.0
 10
152.7727
 20
-12.7202
 30
0.0
 10
154.7007
 20
-14.0771
 30
0.0
 10
154.7007
 20
-14.0771
 30
0.0
 10
154.2883
 20
-16.3108
 30
0.0
 10
155.4347
 20
-18.5423
 30
0.0
 10
157.4907
 20
-19.5079
 30
0.0
 10
157.4907
 20
-19.5079
 30
0.0
 10
159.5477
 20
-20.4725
 30
0.0
 10
161.9961
 20
-19.9289
 30
0.0
 10
163.4503
 20
-18.1838
 30
0.0
 10
163.4503
 20
-18.1838
 30
0.0
 10
165.3571
 20
-18.5402
 30
0.0
 10
167.3116
 20
-17.876
 30
0.0
 10
168.604
 20
-16.4303
 30
0.0
 10
168.604
 20
-16.4303
 30
0.0
 10
169.8985
 20
-14.9867
 30
0.0
 10
170.3427
 20
-12.9709
 30
0.0
 10
169.779
 20
-11.1158
 30
0.0
 10
169.779
 20
-11.1158
 30
0.0
 10
168.9287
 20
-12.9815
 30
0.0
 10
167.1032
 20
-14.2093
 30
0.0
 10
165.0568
 20
-14.2961
 30
0.0
 10
165.0568
 20
-14.2961
 30
0.0
 10
163.0093
 20
-14.3796
 30
0.0
 10
161.0865
 20
-13.3072
 30
0.0
 10
160.085
 20
-11.5188
 30
0.0
 10
160.085
 20
-11.5188
 30
0.0
 10
159.4367
 20
-8.6812
 30
0.0
 10
160.9924
 20
-5.8014
 30
0.0
 10
163.72
 20
-4.7893
 30
0.0
 10
163.72
 20
-4.7893
 30
0.0
 10
166.1895
 20
-4.2774
 30
0.0
 10
168.7594
 20
-4.7903
 30
0.0
 10
170.8408
 20
-6.2128
 30
0.0
 10
170.8408
 20
-6.2128
 30
0.0
 10
172.9232
 20
-7.6353
 30
0.0
 10
174.3372
 20
-9.8414
 30
0.0
 10
174.7582
 20
-12.3268
 30
0.0
 10
174.7582
 20
-12.3268
 30
0.0
 10
176.3097
 20
-18.0463
 30
0.0
 10
174.6334
 20
-24.154
 30
0.0
 10
170.3839
 20
-28.2797
 30
0.0
 10
170.3839
 20
-28.2797
 30
0.0
 10
168.3004
 20
-24.8023
 30
0.0
 10
164.6729
 20
-22.5358
 30
0.0
 10
160.6339
 20
-22.189
 30
0.0
 10
160.6339
 20
-22.189
 30
0.0
 10
156.5949
 20
-21.8421
 30
0.0
 10
152.6342
 20
-23.457
 30
0.0
 10
149.988
 20
-26.5304
 30
0.0
 10
149.988
 20
-26.5304
 30
0.0
 10
147.343
 20
-23.457
 30
0.0
 10
143.3833
 20
-21.8421
 30
0.0
 10
139.3433
 20
-22.189
 30
0.0
 10
139.3433
 20
-22.189
 30
0.0
 10
135.3032
 20
-22.5358
 30
0.0
 10
131.6756
 20
-24.8023
 30
0.0
 10
129.5932
 20
-28.2797
 30
0.0
 10
129.5932
 20
-28.2797
 30
0.0
 10
125.3438
 20
-24.154
 30
0.0
 10
123.6675
 20
-18.0463
 30
0.0
 10
125.2179
 20
-12.3268
 30
0.0
 10
125.2179
 20
-12.3268
 30
0.0
 10
125.6388
 20
-9.8414
 30
0.0
 10
127.055
 20
-7.6353
 30
0.0
 10
129.1353
 20
-6.2128
 30
0.0
 10
129.1353
 20
-6.2128
 30
0.0
 10
131.2187
 20
-4.7903
 30
0.0
 10
133.7877
 20
-4.2774
 30
0.0
 10
136.2572
 20
-4.7893
 30
0.0
 10
136.2572
 20
-4.7893
 30
0.0
 10
138.9868
 20
-5.8014
 30
0.0
 10
140.5415
 20
-8.6812
 30
0.0
 10
139.8911
 20
-11.5188
 30
0.0
 10
139.8911
 20
-11.5188
 30
0.0
 10
138.8906
 20
-13.3072
 30
0.0
 10
136.9689
 20
-14.3796
 30
0.0
 10
134.9214
 20
-14.2961
 30
0.0
 10
134.9214
 20
-14.2961
 30
0.0
 10
132.8739
 20
-14.2093
 30
0.0
 10
131.0474
 20
-12.9815
 30
0.0
 10
130.1992
 20
-11.1158
 30
0.0
 10
130.1992
 20
-11.1158
 30
0.0
 10
129.6345
 20
-12.9709
 30
0.0
 10
130.0786
 20
-14.9867
 30
0.0
 10
131.3732
 20
-16.4303
 30
0.0
 10
131.3732
 20
-16.4303
 30
0.0
 10
132.6655
 20
-17.876
 30
0.0
 10
134.62
 20
-18.5402
 30
0.0
 10
136.5258
 20
-18.1838
 30
0.0
 10
136.5258
 20
-18.1838
 30
0.0
 10
137.9811
 20
-19.9289
 30
0.0
 10
140.4294
 20
-20.4725
 30
0.0
 10
142.4854
 20
-19.5079
 30
0.0
 10
142.4854
 20
-19.5079
 30
0.0
 10
144.5424
 20
-18.5423
 30
0.0
 10
145.6889
 20
-16.3108
 30
0.0
 10
145.2764
 20
-14.0771
 30
0.0
 10
145.2764
 20
-14.0771
 30
0.0
 10
147.2065
 20
-12.7202
 30
0.0
 10
148.1351
 20
-10.3406
 30
0.0
 10
147.6359
 20
-8.035
 30
0.0
 10
147.6359
 20
-8.035
 30
0.0
 10
147.1357
 20
-5.7305
 30
0.0
 10
145.306
 20
-3.9463
 30
0.0
 10
142.9888
 20
-3.5096
 30
0.0
 10
142.9888
 20
-3.5096
 30
0.0
 10
145.5038
 20
-2.5662
 30
0.0
 10
147.8464
 20
-1.2156
 30
0.0
 10
149.9214
 20
0.4892
 30
0.0
  0
SPLINE
  5
49
330
1F
100
AcDbEntity
  8
layer 1
 62
     7
370
     9
100
AcDbSpline
210
0.0
220
0.0
230
1.0
 70
    11
 71
     3
 72
   148
 73
   144
 74
     0
 42
0.0000000001
 43
0.0000000001
 12
1.0
 22
0.0
 32
0.0
 13
1.0
 23
0.0
 33
0.0
 40
0.0
 40
0.0
 40
0.0
 40
0.0
 40
0.027027027027027
 40
0.027027027027027
 40
0.027027027027027
 40
0.027027027027027
 40
0.0540540540540541
 40
0.0540540540540541
 40
0.0540540540540541
 40
0.0540540540540541
 40
0.0810810810810811
 40
0.0810810810810811
 40
0.0810810810810811
 40
0.0810810810810811
 40
0.1081081081081081
 40
0.1081081081081081
 40
0.1081081081081081
 40
0.1081081081081081
 40
0.1351351351351351
 40
0.1351351351351351
 40
0.1351351351351351
 40
0.1351351351351351
 40
0.1621621621621622
 40
0.1621621621621622
 40
0.1621621621621622
 40
0.1621621621621622
 40
0.1891891891891892
 40
0.1891891891891892
 40
0.1891891891891892
 40
0.1891891891891892
 40
0.2162162162162162
 40
0.2162162162162162
 40
0.2162162162162162
 40
0.2162162162162162
 40
0.2432432432432433
 40
0.2432432432432433
 40
0.2432432432432433
 40
0.2432432432432433
 40
0.2702702702702703
 40
0.2702702702702703
 40
0.2702702702702703
 40
0.2702702702702703
 40
0.2972972972972973
 40
0.2972972972972973
 40
0.2972972972972973
 40
0.2972972972972973
 40
0.3243243243243243
 40
0.3243243243243243
 40
0.3243243243243243
 40
0.3243243243243243
 40
0.3513513513513514
 40
0.3513513513513514
 40
0.3513513513513514
 40
0.3513513513513514
 40
0.3783783783783784
 40
0.3783783783783784
 40
0.3783783783783784
 40
0.3783783783783784
 40
0.4054054054054054
 40
0.4054054054054054
 40
0.4054054054054054
 40
0.4054054054054054
 40
0.4324324324324325
 40
0.4324324324324325
 40
0.4324324324324325
 40
0.4324324324324325
 40
0.4594594594594595
 40
0.4594594594594595
 40
0.4594594594594595
 40
0.4594594594594595
 40
0.4864864864864865
 40
0.4864864864864865
 40
0.4864864864864865
 40
0.4864864864864865
 40
0.5135135135135135
 40
0.5135135135135135
 40
0.5135135135135135
 40
0.5135135135135135
 40
0.5405405405405406
 40
0.5405405405405406
 40
0.5405405405405406
 40
0.5405405405405406
 40
0.5675675675675675
 40
0.5675675675675675
 40
0.5675675675675675
 40
0.5675675675675675
 40
0.5945945945945946
 40
0.5945945945945946
 40
0.5945945945945946
 40
0.5945945945945946
 40
0.6216216216216216
 40
0.6216216216216216
 40
0.6216216216216216
 40
0.6216216216216216
 40
0.6486486486486487
 40
0.6486486486486487
 40
0.6486486486486487
 40
0.6486486486486487
 40
0.6756756756756757
 40
0.6756756756756757
 40
0.6756756756756757
 40
0.6756756756756757
 40
0.7027027027027027
 40
0.7027027027027027
 40
0.7027027027027027
 40
0.7027027027027027
 40
0.7297297297297297
 40
0.7297297297297297
 40
0.7297297297297297
 40
0.7297297297297297
 40
0.7567567567567568
 40
0.7567567567567568
 40
0.7567567567567568
 40
0.7567567567567568
 40
0.7837837837837838
 40
0.7837837837837838
 40
0.7837837837837838
 40
0.7837837837837838
 40
0.8108108108108109
 40
0.8108108108108109
 40
0.8108108108108109
 40
0.8108108108108109
 40
0.8378378378378378
 40
0.8378378378378378
 40
0.8378378378378378
 40
0.8378378378378378
 40
0.8648648648648649
 40
0.8648648648648649
 40
0.8648648648648649
 40
0.8648648648648649
 40
0.8918918918918919
 40
0.8918918918918919
 40
0.8918918918918919
 40
0.8918918918918919
 40
0.918918918918919
 40
0.918918918918919
 40
0.918918918918919
 40
0.918918918918919
 40
0.9459459459459459
 40
0.9459459459459459
 40
0.9459459459459459
 40
0.9459459459459459
 40
1.0
 40
1.0
 40
1.0
 40
1.0
 10
150.0557
 20
-66.3111
 30
0.0
 10
149.9817
 20
-67.9272
 30
0.0
 10
148.573
 20
-69.2301
 30
0.0
 10
146.9601
 20
-69.3412
 30
0.0
 10
146.9601
 20
-69.3412
 30
0.0
 10
148.8765
 20
-70.7403
 30
0.0
 10
149.5851
 20
-73.2712
 30
0.0
 10
148.6724
 20
-75.4615
 30
0.0
 10
148.6724
 20
-75.4615
 30
0.0
 10
147.7618
 20
-77.6539
 30
0.0
 10
145.4657
 20
-78.9346
 30
0.0
 10
143.1221
 20
-78.5624
 30
0.0
 10
143.1221
 20
-78.5624
 30
0.0
 10
142.0867
 20
-78.3085
 30
0.0
 10
141.1771
 20
-77.6856
 30
0.0
 10
140.5648
 20
-76.811
 30
0.0
 10
140.5648
 20
-76.811
 30
0.0
 10
138.5955
 20
-78.3932
 30
0.0
 10
135.9008
 20
-78.7253
 30
0.0
 10
133.6068
 20
-77.6718
 30
0.0
 10
133.6068
 20
-77.6718
 30
0.0
 10
131.3119
 20
-76.6164
 30
0.0
 10
129.81
 20
-74.3553
 30
0.0
 10
129.7275
 20
-71.8318
 30
0.0
 10
129.7275
 20
-71.8318
 30
0.0
 10
129.7508
 20
-69.7737
 30
0.0
 10
130.4615
 20
-67.7833
 30
0.0
 10
131.7475
 20
-66.1768
 30
0.0
 10
131.7475
 20
-66.1768
 30
0.0
 10
131.6914
 20
-67.741
 30
0.0
 10
132.307
 20
-69.2534
 30
0.0
 10
133.4397
 20
-70.3332
 30
0.0
 10
133.4397
 20
-70.3332
 30
0.0
 10
134.5703
 20
-71.4152
 30
0.0
 10
136.1112
 20
-71.9598
 30
0.0
 10
137.6701
 20
-71.8318
 30
0.0
 10
137.6701
 20
-71.8318
 30
0.0
 10
139.3581
 20
-71.6319
 30
0.0
 10
140.8356
 20
-70.6028
 30
0.0
 10
141.6066
 20
-69.0884
 30
0.0
 10
141.6066
 20
-69.0884
 30
0.0
 10
142.3776
 20
-67.5729
 30
0.0
 10
142.3405
 20
-65.7728
 30
0.0
 10
141.5071
 20
-64.2922
 30
0.0
 10
141.5071
 20
-64.2922
 30
0.0
 10
138.0699
 20
-60.6476
 30
0.0
 10
132.4371
 20
-60.1844
 30
0.0
 10
128.4489
 20
-63.2155
 30
0.0
 10
128.4489
 20
-63.2155
 30
0.0
 10
122.3529
 20
-68.9181
 30
0.0
 10
121.9055
 20
-78.4387
 30
0.0
 10
127.4389
 20
-84.688
 30
0.0
 10
127.4389
 20
-84.688
 30
0.0
 10
127.4389
 20
-83.1291
 30
0.0
 10
128.1305
 20
-81.6506
 30
0.0
 10
129.3236
 20
-80.649
 30
0.0
 10
129.3236
 20
-80.649
 30
0.0
 10
128.91
 20
-83.3872
 30
0.0
 10
129.4314
 20
-86.1856
 30
0.0
 10
130.8042
 20
-88.5916
 30
0.0
 10
130.8042
 20
-88.5916
 30
0.0
 10
132.4498
 20
-85.0413
 30
0.0
 10
135.8204
 20
-82.6003
 30
0.0
 10
139.7081
 20
-82.1477
 30
0.0
 10
139.7081
 20
-82.1477
 30
0.0
 10
143.5927
 20
-81.6939
 30
0.0
 10
147.436
 20
-83.2941
 30
0.0
 10
149.8537
 20
-86.3707
 30
0.0
 10
149.8537
 20
-86.3707
 30
0.0
 10
149.8537
 20
-86.3707
 30
0.0
 10
150.0557
 20
-86.4828
 30
0.0
 10
150.0557
 20
-86.4828
 30
0.0
 10
150.0557
 20
-86.4828
 30
0.0
 10
150.0557
 20
-86.4828
 30
0.0
 10
150.1245
 20
-86.3707
 30
0.0
 10
150.1245
 20
-86.3707
 30
0.0
 10
150.1245
 20
-86.3707
 30
0.0
 10
152.54
 20
-83.2941
 30
0.0
 10
156.3834
 20
-81.6939
 30
0.0
 10
160.2701
 20
-82.1477
 30
0.0
 10
160.2701
 20
-82.1477
 30
0.0
 10
164.1557
 20
-82.6003
 30
0.0
 10
167.5284
 20
-85.0413
 30
0.0
 10
169.173
 20
-88.5916
 30
0.0
 10
169.173
 20
-88.5916
 30
0.0
 10
170.5447
 20
-86.1856
 30
0.0
 10
171.0672
 20
-83.3872
 30
0.0
 10
170.6526
 20
-80.649
 30
0.0
 10
170.6526
 20
-80.649
 30
0.0
 10
171.8466
 20
-81.6506
 30
0.0
 10
172.5372
 20
-83.1291
 30
0.0
 10
172.5372
 20
-84.688
 30
0.0
 10
172.5372
 20
-84.688
 30
0.0
 10
178.0727
 20
-78.4387
 30
0.0
 10
177.6243
 20
-68.9181
 30
0.0
 10
171.5293
 20
-63.2155
 30
0.0
 10
171.5293
 20
-63.2155
 30
0.0
 10
167.54
 20
-60.1844
 30
0.0
 10
161.9072
 20
-60.6476
 30
0.0
 10
158.4711
 20
-64.2922
 30
0.0
 10
158.4711
 20
-64.2922
 30
0.0
 10
157.6366
 20
-65.7728
 30
0.0
 10
157.6007
 20
-67.5729
 30
0.0
 10
158.3716
 20
-69.0884
 30
0.0
 10
158.3716
 20
-69.0884
 30
0.0
 10
159.1426
 20
-70.6028
 30
0.0
 10
160.6191
 20
-71.6319
 30
0.0
 10
162.3059
 20
-71.8318
 30
0.0
 10
162.3059
 20
-71.8318
 30
0.0
 10
163.8659
 20
-71.9598
 30
0.0
 10
165.4069
 20
-71.4152
 30
0.0
 10
166.5385
 20
-70.3332
 30
0.0
 10
166.5385
 20
-70.3332
 30
0.0
 10
167.6701
 20
-69.2534
 30
0.0
 10
168.2867
 20
-67.741
 30
0.0
 10
168.2296
 20
-66.1768
 30
0.0
 10
168.2296
 20
-66.1768
 30
0.0
 10
169.5145
 20
-67.7833
 30
0.0
 10
170.2264
 20
-69.7737
 30
0.0
 10
170.2496
 20
-71.8318
 30
0.0
 10
170.2496
 20
-71.8318
 30
0.0
 10
170.166
 20
-74.3553
 30
0.0
 10
168.6653
 20
-76.6164
 30
0.0
 10
166.3703
 20
-77.6718
 30
0.0
 10
166.3703
 20
-77.6718
 30
0.0
 10
164.0764
 20
-78.7253
 30
0.0
 10
161.3816
 20
-78.3932
 30
0.0
 10
159.4124
 20
-76.811
 30
0.0
 10
159.4124
 20
-76.811
 30
0.0
 10
158.8
 20
-77.6856
 30
0.0
 10
157.8904
 20
-78.3085
 30
0.0
 10
156.854
 20
-78.5624
 30
0.0
 10
156.854
 20
-78.5624
 30
0.0
 10
154.5103
 20
-78.9346
 30
0.0
 10
152.2164
 20
-77.6539
 30
0.0
 10
151.3047
 20
-75.4615
 30
0.0
 10
151.3047
 20
-75.4615
 30
0.0
 10
150.3941
 20
-73.2712
 30
0.0
 10
151.1007
 20
-70.7403
 30
0.0
 10
153.0181
 20
-69.3412
 30
0.0
 10
153.0181
 20
-69.3412
 30
0.0
 10
151.4042
 20
-69.2301
 30
0.0
 10
150.1298
 20
-67.9272
 30
0.0
 10
150.0557
 20
-66.3111
 30
0.0
  0
SPLINE
  5
4A
330
1F
100
AcDbEntity
  8
layer 1
 62
     7
370
     9
100
AcDbSpline
210
0.0
220
0.0
230
1.0
 70
    11
 71
     3
 72
    84
 73
    80
 74
     0
 42
0.0000000001
 43
0.0000000001
 12
1.0
 22
0.0
 32
0.0
 13
1.0
 23
0.0
 33
0.0
 40
0.0
 40
0.0
 40
0.0
 40
0.0
 40
0.0476190476190476
 40
0.0476190476190476
 40
0.0476190476190476
 40
0.0476190476190476
 40
0.0952380952380952
 40
0.0952380952380952
 40
0.0952380952380952
 40
0.0952380952380952
 40
0.1428571428571428
 40
0.1428571428571428
 40
0.1428571428571428
 40
0.1428571428571428
 40
0.1904761904761905
 40
0.1904761904761905
 40
0.1904761904761905
 40
0.1904761904761905
 40
0.2380952380952381
 40
0.2380952380952381
 40
0.2380952380952381
 40
0.2380952380952381
 40
0.2857142857142857
 40
0.2857142857142857
 40
0.2857142857142857
 40
0.2857142857142857
 40
0.3333333333333333
 40
0.3333333333333333
 40
0.3333333333333333
 40
0.3333333333333333
 40
0.3809523809523809
 40
0.3809523809523809
 40
0.3809523809523809
 40
0.3809523809523809
 40
0.4285714285714285
 40
0.4285714285714285
 40
0.4285714285714285
 40
0.4285714285714285
 40
0.4761904761904762
 40
0.4761904761904762
 40
0.4761904761904762
 40
0.4761904761904762
 40
0.5238095238095238
 40
0.5238095238095238
 40
0.5238095238095238
 40
0.5238095238095238
 40
0.5714285714285714
 40
0.5714285714285714
 40
0.5714285714285714
 40
0.5714285714285714
 40
0.6190476190476191
 40
0.6190476190476191
 40
0.6190476190476191
 40
0.6190476190476191
 40
0.6666666666666666
 40
0.6666666666666666
 40
0.6666666666666666
 40
0.6666666666666666
 40
0.7142857142857143
 40
0.7142857142857143
 40
0.7142857142857143
 40
0.7142857142857143
 40
0.7619047619047619
 40
0.7619047619047619
 40
0.7619047619047619
 40
0.7619047619047619
 40
0.8095238095238095
 40
0.8095238095238095
 40
0.8095238095238095
 40
0.8095238095238095
 40
0.8571428571428571
 40
0.8571428571428571
 40
0.8571428571428571
 40
0.8571428571428571
 40
0.9047619047619048
 40
0.9047619047619048
 40
0.9047619047619048
 40
0.9047619047619048
 40
1.0
 40
1.0
 40
1.0
 40
1.0
 10
149.9214
 20
-100.6409
 30
0.0
 10
150.8785
 20
-99.8329
 30
0.0
 10
152.3528
 20
-99.6595
 30
0.0
 10
153.4834
 20
-100.1957
 30
0.0
 10
153.4834
 20
-100.1957
 30
0.0
 10
154.6129
 20
-100.7319
 30
0.0
 10
155.3268
 20
-101.8794
 30
0.0
 10
155.3067
 20
-103.1316
 30
0.0
 10
155.3067
 20
-103.1316
 30
0.0
 10
160.9586
 20
-102.3183
 30
0.0
 10
164.9997
 20
-97.245
 30
0.0
 10
164.528
 20
-91.5529
 30
0.0
 10
164.528
 20
-91.5529
 30
0.0
 10
164.309
 20
-89.4663
 30
0.0
 10
163.0093
 20
-87.6493
 30
0.0
 10
161.1056
 20
-86.7662
 30
0.0
 10
161.1056
 20
-86.7662
 30
0.0
 10
159.2008
 20
-85.8831
 30
0.0
 10
156.9735
 20
-86.065
 30
0.0
 10
155.239
 20
-87.2453
 30
0.0
 10
155.239
 20
-87.2453
 30
0.0
 10
154.8107
 20
-87.6514
 30
0.0
 10
154.4257
 20
-88.1041
 30
0.0
 10
154.0937
 20
-88.5916
 30
0.0
 10
154.0937
 20
-88.5916
 30
0.0
 10
155.3226
 20
-88.8497
 30
0.0
 10
156.3516
 20
-89.682
 30
0.0
 10
156.8572
 20
-90.8306
 30
0.0
 10
156.8572
 20
-90.8306
 30
0.0
 10
157.3648
 20
-91.977
 30
0.0
 10
157.2887
 20
-93.299
 30
0.0
 10
156.6531
 20
-94.381
 30
0.0
 10
156.6531
 20
-94.381
 30
0.0
 10
155.9455
 20
-95.5443
 30
0.0
 10
154.6827
 20
-96.255
 30
0.0
 10
153.3195
 20
-96.255
 30
0.0
 10
153.3195
 20
-96.255
 30
0.0
 10
151.9584
 20
-96.255
 30
0.0
 10
150.6956
 20
-95.5443
 30
0.0
 10
149.988
 20
-94.381
 30
0.0
 10
149.988
 20
-94.381
 30
0.0
 10
149.2816
 20
-95.5443
 30
0.0
 10
148.0177
 20
-96.255
 30
0.0
 10
146.6566
 20
-96.255
 30
0.0
 10
146.6566
 20
-96.255
 30
0.0
 10
145.2954
 20
-96.255
 30
0.0
 10
144.0316
 20
-95.5443
 30
0.0
 10
143.3251
 20
-94.381
 30
0.0
 10
143.3251
 20
-94.381
 30
0.0
 10
142.6885
 20
-93.299
 30
0.0
 10
142.6123
 20
-91.977
 30
0.0
 10
143.12
 20
-90.8306
 30
0.0
 10
143.12
 20
-90.8306
 30
0.0
 10
143.6266
 20
-89.682
 30
0.0
 10
144.6545
 20
-88.8497
 30
0.0
 10
145.8824
 20
-88.5916
 30
0.0
 10
145.8824
 20
-88.5916
 30
0.0
 10
145.5503
 20
-88.1041
 30
0.0
 10
145.1675
 20
-87.6514
 30
0.0
 10
144.7391
 20
-87.2453
 30
0.0
 10
144.7391
 20
-87.2453
 30
0.0
 10
143.0026
 20
-86.065
 30
0.0
 10
140.7763
 20
-85.8831
 30
0.0
 10
138.8726
 20
-86.7662
 30
0.0
 10
138.8726
 20
-86.7662
 30
0.0
 10
136.9689
 20
-87.6493
 30
0.0
 10
135.6691
 20
-89.4663
 30
0.0
 10
135.4492
 20
-91.5529
 30
0.0
 10
135.4492
 20
-91.5529
 30
0.0
 10
134.9785
 20
-97.245
 30
0.0
 10
139.0186
 20
-102.3183
 30
0.0
 10
144.6704
 20
-103.1316
 30
0.0
 10
144.6704
 20
-103.1316
 30
0.0
 10
144.6514
 20
-101.8794
 30
0.0
 10
145.3642
 20
-100.7319
 30
0.0
 10
146.4948
 20
-100.1957
 30
0.0
 10
146.4948
 20
-100.1957
 30
0.0
 10
147.6243
 20
-99.6595
 30
0.0
 10
148.9653
 20
-99.8329
 30
0.0
 10
149.9214
 20
-100.6409
 30
0.0
  0
SPLINE
  5
4B
330
1F
100
AcDbEntity
  8
layer 1
 62
     7
370
     9
100
AcDbSpline
210
0.0
220
0.0
230
1.0
 70
    11
 71
     3
 72
    68
 73
    64
 74
     0
 42
0.0000000001
 43
0.0000000001
 12
1.0
 22
0.0
 32
0.0
 13
1.0
 23
0.0
 33
0.0
 40
0.0
 40
0.0
 40
0.0
 40
0.0
 40
0.0588235294117647
 40
0.0588235294117647
 40
0.0588235294117647
 40
0.0588235294117647
 40
0.1176470588235294
 40
0.1176470588235294
 40
0.1176470588235294
 40
0.1176470588235294
 40
0.1764705882352941
 40
0.1764705882352941
 40
0.1764705882352941
 40
0.1764705882352941
 40
0.2352941176470588
 40
0.2352941176470588
 40
0.2352941176470588
 40
0.2352941176470588
 40
0.2941176470588235
 40
0.2941176470588235
 40
0.2941176470588235
 40
0.2941176470588235
 40
0.3529411764705883
 40
0.3529411764705883
 40
0.3529411764705883
 40
0.3529411764705883
 40
0.4117647058823529
 40
0.4117647058823529
 40
0.4117647058823529
 40
0.4117647058823529
 40
0.4705882352941176
 40
0.4705882352941176
 40
0.4705882352941176
 40
0.4705882352941176
 40
0.5294117647058824
 40
0.5294117647058824
 40
0.5294117647058824
 40
0.5294117647058824
 40
0.5882352941176471
 40
0.5882352941176471
 40
0.5882352941176471
 40
0.5882352941176471
 40
0.6470588235294118
 40
0.6470588235294118
 40
0.6470588235294118
 40
0.6470588235294118
 40
0.7058823529411765
 40
0.7058823529411765
 40
0.7058823529411765
 40
0.7058823529411765
 40
0.7647058823529411
 40
0.7647058823529411
 40
0.7647058823529411
 40
0.7647058823529411
 40
0.8235294117647058
 40
0.8235294117647058
 40
0.8235294117647058
 40
0.8235294117647058
 40
0.8823529411764706
 40
0.8823529411764706
 40
0.8823529411764706
 40
0.8823529411764706
 40
1.0
 40
1.0
 40
1.0
 40
1.0
 10
149.9214
 20
3.6884
 30
0.0
 10
149.9214
 20
3.6884
 30
0.0
 10
150.2578
 20
3.6261
 30
0.0
 10
150.2578
 20
3.6261
 30
0.0
 10
150.2578
 20
3.6261
 30
0.0
 10
153.31
 20
3.1174
 30
0.0
 10
156.4437
 20
3.5901
 30
0.0
 10
159.2114
 20
4.9714
 30
0.0
 10
159.2114
 20
4.9714
 30
0.0
 10
161.9971
 20
6.1316
 30
0.0
 10
165.0187
 20
6.6149
 30
0.0
 10
168.0286
 20
6.3853
 30
0.0
 10
168.0286
 20
6.3853
 30
0.0
 10
168.66
 20
6.6551
 30
0.0
 10
169.0196
 20
7.3267
 30
0.0
 10
168.8927
 20
8.0014
 30
0.0
 10
168.8927
 20
8.0014
 30
0.0
 10
169.0196
 20
8.6751
 30
0.0
 10
168.66
 20
9.3467
 30
0.0
 10
168.0286
 20
9.6163
 30
0.0
 10
168.0286
 20
9.6163
 30
0.0
 10
165.0187
 20
9.3858
 30
0.0
 10
161.9971
 20
9.8702
 30
0.0
 10
159.2114
 20
11.0293
 30
0.0
 10
159.2114
 20
11.0293
 30
0.0
 10
156.4437
 20
12.4116
 30
0.0
 10
153.31
 20
12.8833
 30
0.0
 10
150.2578
 20
12.3767
 30
0.0
 10
150.2578
 20
12.3767
 30
0.0
 10
150.2578
 20
12.3767
 30
0.0
 10
149.9214
 20
12.3122
 30
0.0
 10
149.9214
 20
12.3122
 30
0.0
 10
149.9214
 20
12.3122
 30
0.0
 10
149.9214
 20
12.3122
 30
0.0
 10
149.7184
 20
12.3767
 30
0.0
 10
149.7184
 20
12.3767
 30
0.0
 10
149.7184
 20
12.3767
 30
0.0
 10
146.6682
 20
12.8833
 30
0.0
 10
143.5335
 20
12.4116
 30
0.0
 10
140.7678
 20
11.0293
 30
0.0
 10
140.7678
 20
11.0293
 30
0.0
 10
137.9811
 20
9.8702
 30
0.0
 10
134.9584
 20
9.3858
 30
0.0
 10
131.9485
 20
9.6163
 30
0.0
 10
131.9485
 20
9.6163
 30
0.0
 10
131.3171
 20
9.3467
 30
0.0
 10
130.9586
 20
8.6751
 30
0.0
 10
131.0855
 20
8.0014
 30
0.0
 10
131.0855
 20
8.0014
 30
0.0
 10
130.9586
 20
7.3267
 30
0.0
 10
131.3171
 20
6.6551
 30
0.0
 10
131.9485
 20
6.3853
 30
0.0
 10
131.9485
 20
6.3853
 30
0.0
 10
134.9584
 20
6.6149
 30
0.0
 10
137.9811
 20
6.1316
 30
0.0
 10
140.7678
 20
4.9714
 30
0.0
 10
140.7678
 20
4.9714
 30
0.0
 10
143.5335
 20
3.5901
 30
0.0
 10
146.6682
 20
3.1174
 30
0.0
 10
149.7184
 20
3.6261
 30
0.0
 10
149.7184
 20
3.6261
 30
0.0
 10
149.7184
 20
3.6261
 30
0.0
 10
149.9214
 20
3.6884
 30
0.0
 10
149.9214
 20
3.6884
 30
0.0
  0
SPLINE
  5
4C
330
1F
100
AcDbEntity
  8
layer 1
 62
     7
370
     9
100
AcDbSpline
210
0.0
220
0.0
230
1.0
 70
    11
 71
     3
 72
    76
 73
    72
 74
     0
 42
0.0000000001
 43
0.0000000001
 12
1.0
 22
0.0
 32
0.0
 13
1.0
 23
0.0
 33
0.0
 40
0.0
 40
0.0
 40
0.0
 40
0.0
 40
0.0526315789473684
 40
0.0526315789473684
 40
0.0526315789473684
 40
0.0526315789473684
 40
0.1052631578947368
 40
0.1052631578947368
 40
0.1052631578947368
 40
0.1052631578947368
 40
0.1578947368421053
 40
0.1578947368421053
 40
0.1578947368421053
 40
0.1578947368421053
 40
0.2105263157894737
 40
0.2105263157894737
 40
0.2105263157894737
 40
0.2105263157894737
 40
0.2631578947368421
 40
0.2631578947368421
 40
0.2631578947368421
 40
0.2631578947368421
 40
0.3157894736842105
 40
0.3157894736842105
 40
0.3157894736842105
 40
0.3157894736842105
 40
0.3684210526315789
 40
0.3684210526315789
 40
0.3684210526315789
 40
0.3684210526315789
 40
0.4210526315789473
 40
0.4210526315789473
 40
0.4210526315789473
 40
0.4210526315789473
 40
0.4736842105263158
 40
0.4736842105263158
 40
0.4736842105263158
 40
0.4736842105263158
 40
0.5263157894736842
 40
0.5263157894736842
 40
0.5263157894736842
 40
0.5263157894736842
 40
0.5789473684210527
 40
0.5789473684210527
 40
0.5789473684210527
 40
0.5789473684210527
 40
0.631578947368421
 40
0.631578947368421
 40
0.631578947368421
 40
0.631578947368421
 40
0.6842105263157895
 40
0.6842105263157895
 40
0.6842105263157895
 40
0.6842105263157895
 40
0.7368421052631579
 40
0.7368421052631579
 40
0.7368421052631579
 40
0.7368421052631579
 40
0.7894736842105263
 40
0.7894736842105263
 40
0.7894736842105263
 40
0.7894736842105263
 40
0.8421052631578947
 40
0.8421052631578947
 40
0.8421052631578947
 40
0.8421052631578947
 40
0.8947368421052632
 40
0.8947368421052632
 40
0.8947368421052632
 40
0.8947368421052632
 40
1.0
 40
1.0
 40
1.0
 40
1.0
 10
149.9214
 20
59.0022
 30
0.0
 10
153.4717
 20
57.8843
 30
0.0
 10
157.405
 20
59.7647
 30
0.0
 10
158.6721
 20
63.2633
 30
0.0
 10
158.6721
 20
63.2633
 30
0.0
 10
161.6248
 20
60.3199
 30
0.0
 10
163.9992
 20
56.85
 30
0.0
 10
165.6712
 20
53.0321
 30
0.0
 10
165.6712
 20
53.0321
 30
0.0
 10
167.1857
 20
49.5366
 30
0.0
 10
165.8944
 20
45.4596
 30
0.0
 10
162.6434
 20
43.4734
 30
0.0
 10
162.6434
 20
43.4734
 30
0.0
 10
160.6699
 20
42.42
 30
0.0
 10
158.2839
 20
42.4983
 30
0.0
 10
156.3834
 20
43.6776
 30
0.0
 10
156.3834
 20
43.6776
 30
0.0
 10
154.4828
 20
44.8567
 30
0.0
 10
153.3533
 20
46.9593
 30
0.0
 10
153.4221
 20
49.1951
 30
0.0
 10
153.4221
 20
49.1951
 30
0.0
 10
154.8869
 20
47.8995
 30
0.0
 10
157.0613
 20
47.8118
 30
0.0
 10
158.6266
 20
48.9856
 30
0.0
 10
158.6266
 20
48.9856
 30
0.0
 10
160.1917
 20
50.1596
 30
0.0
 10
160.7185
 20
52.2716
 30
0.0
 10
159.8829
 20
54.042
 30
0.0
 10
159.8829
 20
54.042
 30
0.0
 10
158.58
 20
55.9299
 30
0.0
 10
156.2269
 20
56.7866
 30
0.0
 10
154.0154
 20
56.1806
 30
0.0
 10
154.0154
 20
56.1806
 30
0.0
 10
151.8028
 20
55.5746
 30
0.0
 10
150.0811
 20
53.637
 30
0.0
 10
149.9214
 20
51.3494
 30
0.0
 10
149.9214
 20
51.3494
 30
0.0
 10
149.7627
 20
53.637
 30
0.0
 10
148.1742
 20
55.5746
 30
0.0
 10
145.9628
 20
56.1806
 30
0.0
 10
145.9628
 20
56.1806
 30
0.0
 10
143.7503
 20
56.7866
 30
0.0
 10
141.3971
 20
55.9299
 30
0.0
 10
140.0941
 20
54.042
 30
0.0
 10
140.0941
 20
54.042
 30
0.0
 10
139.2608
 20
52.2716
 30
0.0
 10
139.7853
 20
50.1596
 30
0.0
 10
141.3506
 20
48.9856
 30
0.0
 10
141.3506
 20
48.9856
 30
0.0
 10
142.9158
 20
47.8118
 30
0.0
 10
145.0903
 20
47.8995
 30
0.0
 10
146.5561
 20
49.1951
 30
0.0
 10
146.5561
 20
49.1951
 30
0.0
 10
146.6227
 20
46.9593
 30
0.0
 10
145.4954
 20
44.8567
 30
0.0
 10
143.5927
 20
43.6776
 30
0.0
 10
143.5927
 20
43.6776
 30
0.0
 10
141.6922
 20
42.4983
 30
0.0
 10
139.3073
 20
42.42
 30
0.0
 10
137.3338
 20
43.4734
 30
0.0
 10
137.3338
 20
43.4734
 30
0.0
 10
134.0838
 20
45.4596
 30
0.0
 10
132.7914
 20
49.5366
 30
0.0
 10
134.3048
 20
53.0321
 30
0.0
 10
134.3048
 20
53.0321
 30
0.0
 10
135.98
 20
56.85
 30
0.0
 10
138.3544
 20
60.3199
 30
0.0
 10
141.3051
 20
63.2633
 30
0.0
 10
141.3051
 20
63.2633
 30
0.0
 10
142.5722
 20
59.7647
 30
0.0
 10
146.371
 20
57.8843
 30
0.0
 10
149.9214
 20
59.0022
 30
0.0
  0
SPLINE
  5
4D
330
1F
100
AcDbEntity
  8
layer 1
 62
     7
370
     9
100
AcDbSpline
210
0.0
220
0.0
230
1.0
 70
    11
 71
     3
 72
    76
 73
    72
 74
     0
 42
0.0000000001
 43
0.0000000001
 12
1.0
 22
0.0
 32
0.0
 13
1.0
 23
0.0
 33
0.0
 40
0.0
 40
0.0
 40
0.0
 40
0.0
 40
0.0526315789473684
 40
0.0526315789473684
 40
0.0526315789473684
 40
0.0526315789473684
 40
0.1052631578947368
 40
0.1052631578947368
 40
0.1052631578947368
 40
0.1052631578947368
 40
0.1578947368421053
 40
0.1578947368421053
 40
0.1578947368421053
 40
0.1578947368421053
 40
0.2105263157894737
 40
0.2105263157894737
 40
0.2105263157894737
 40
0.2105263157894737
 40
0.2631578947368421
 40
0.2631578947368421
 40
0.2631578947368421
 40
0.2631578947368421
 40
0.3157894736842105
 40
0.3157894736842105
 40
0.3157894736842105
 40
0.3157894736842105
 40
0.3684210526315789
 40
0.3684210526315789
 40
0.3684210526315789
 40
0.3684210526315789
 40
0.4210526315789473
 40
0.4210526315789473
 40
0.4210526315789473
 40
0.4210526315789473
 40
0.4736842105263158
 40
0.4736842105263158
 40
0.4736842105263158
 40
0.4736842105263158
 40
0.5263157894736842
 40
0.5263157894736842
 40
0.5263157894736842
 40
0.5263157894736842
 40
0.5789473684210527
 40
0.5789473684210527
 40
0.5789473684210527
 40
0.5789473684210527
 40
0.631578947368421
 40
0.631578947368421
 40
0.631578947368421
 40
0.631578947368421
 40
0.6842105263157895
 40
0.6842105263157895
 40
0.6842105263157895
 40
0.6842105263157895
 40
0.7368421052631579
 40
0.7368421052631579
 40
0.7368421052631579
 40
0.7368421052631579
 40
0.7894736842105263
 40
0.7894736842105263
 40
0.7894736842105263
 40
0.7894736842105263
 40
0.8421052631578947
 40
0.8421052631578947
 40
0.8421052631578947
 40
0.8421052631578947
 40
0.8947368421052632
 40
0.8947368421052632
 40
0.8947368421052632
 40
0.8947368421052632
 40
1.0
 40
1.0
 40
1.0
 40
1.0
 10
149.9214
 20
-42.9994
 30
0.0
 10
153.4717
 20
-41.8826
 30
0.0
 10
157.405
 20
-43.763
 30
0.0
 10
158.6721
 20
-47.2626
 30
0.0
 10
158.6721
 20
-47.2626
 30
0.0
 10
161.6248
 20
-44.3183
 30
0.0
 10
163.9992
 20
-40.8482
 30
0.0
 10
165.6712
 20
-37.0313
 30
0.0
 10
165.6712
 20
-37.0313
 30
0.0
 10
167.1857
 20
-33.535
 30
0.0
 10
165.8944
 20
-29.4589
 30
0.0
 10
162.6434
 20
-27.4716
 30
0.0
 10
162.6434
 20
-27.4716
 30
0.0
 10
160.6699
 20
-26.4183
 30
0.0
 10
158.2839
 20
-26.4955
 30
0.0
 10
156.3834
 20
-27.6758
 30
0.0
 10
156.3834
 20
-27.6758
 30
0.0
 10
154.4828
 20
-28.8551
 30
0.0
 10
153.3533
 20
-30.9586
 30
0.0
 10
153.4221
 20
-33.1943
 30
0.0
 10
153.4221
 20
-33.1943
 30
0.0
 10
154.8869
 20
-31.8978
 30
0.0
 10
157.0613
 20
-31.811
 30
0.0
 10
158.6266
 20
-32.9839
 30
0.0
 10
158.6266
 20
-32.9839
 30
0.0
 10
160.1917
 20
-34.1589
 30
0.0
 10
160.7185
 20
-36.2709
 30
0.0
 10
159.8829
 20
-38.0403
 30
0.0
 10
159.8829
 20
-38.0403
 30
0.0
 10
158.58
 20
-39.9271
 30
0.0
 10
156.2269
 20
-40.7858
 30
0.0
 10
154.0154
 20
-40.1798
 30
0.0
 10
154.0154
 20
-40.1798
 30
0.0
 10
151.8028
 20
-39.5728
 30
0.0
 10
150.0811
 20
-37.6363
 30
0.0
 10
149.9214
 20
-35.3487
 30
0.0
 10
149.9214
 20
-35.3487
 30
0.0
 10
149.7627
 20
-37.6363
 30
0.0
 10
148.1742
 20
-39.5728
 30
0.0
 10
145.9628
 20
-40.1798
 30
0.0
 10
145.9628
 20
-40.1798
 30
0.0
 10
143.7503
 20
-40.7858
 30
0.0
 10
141.3971
 20
-39.9271
 30
0.0
 10
140.0941
 20
-38.0403
 30
0.0
 10
140.0941
 20
-38.0403
 30
0.0
 10
139.2608
 20
-36.2709
 30
0.0
 10
139.7853
 20
-34.1589
 30
0.0
 10
141.3506
 20
-32.9839
 30
0.0
 10
141.3506
 20
-32.9839
 30
0.0
 10
142.9158
 20
-31.811
 30
0.0
 10
145.0903
 20
-31.8978
 30
0.0
 10
146.5561
 20
-33.1943
 30
0.0
 10
146.5561
 20
-33.1943
 30
0.0
 10
146.6227
 20
-30.9586
 30
0.0
 10
145.4954
 20
-28.8551
 30
0.0
 10
143.5927
 20
-27.6758
 30
0.0
 10
143.5927
 20
-27.6758
 30
0.0
 10
141.6922
 20
-26.4955
 30
0.0
 10
139.3073
 20
-26.4183
 30
0.0
 10
137.3338
 20
-27.4716
 30
0.0
 10
137.3338
 20
-27.4716
 30
0.0
 10
134.0838
 20
-29.4589
 30
0.0
 10
132.7914
 20
-33.535
 30
0.0
 10
134.3048
 20
-37.0313
 30
0.0
 10
134.3048
 20
-37.0313
 30
0.0
 10
135.98
 20
-40.8482
 30
0.0
 10
138.3544
 20
-44.3183
 30
0.0
 10
141.3051
 20
-47.2626
 30
0.0
 10
141.3051
 20
-47.2626
 30
0.0
 10
142.5722
 20
-43.763
 30
0.0
 10
146.371
 20
-41.8826
 30
0.0
 10
149.9214
 20
-42.9994
 30
0.0
  0
SPLINE
  5
4E
330
1F
100
AcDbEntity
  8
layer 1
 62
     7
370
     9
100
AcDbSpline
210
0.0
220
0.0
230
1.0
 70
    11
 71
     3
 72
    28
 73
    24
 74
     0
 42
0.0000000001
 43
0.0000000001
 12
1.0
 22
0.0
 32
0.0
 13
1.0
 23
0.0
 33
0.0
 40
0.0
 40
0.0
 40
0.0
 40
0.0
 40
0.1428571428571428
 40
0.1428571428571428
 40
0.1428571428571428
 40
0.1428571428571428
 40
0.2857142857142857
 40
0.2857142857142857
 40
0.2857142857142857
 40
0.2857142857142857
 40
0.4285714285714285
 40
0.4285714285714285
 40
0.4285714285714285
 40
0.4285714285714285
 40
0.5714285714285714
 40
0.5714285714285714
 40
0.5714285714285714
 40
0.5714285714285714
 40
0.7142857142857143
 40
0.7142857142857143
 40
0.7142857142857143
 40
0.7142857142857143
 40
1.0
 40
1.0
 40
1.0
 40
1.0
 10
149.9214
 20
-62.1379
 30
0.0
 10
153.3967
 20
-59.7699
 30
0.0
 10
155.6197
 20
-55.844
 30
0.0
 10
155.643
 20
-51.638
 30
0.0
 10
155.643
 20
-51.638
 30
0.0
 10
155.6769
 20
-50.2864
 30
0.0
 10
154.9884
 20
-49.0183
 30
0.0
 10
153.8388
 20
-48.3107
 30
0.0
 10
153.8388
 20
-48.3107
 30
0.0
 10
152.6871
 20
-47.6021
 30
0.0
 10
151.1133
 20
-47.5588
 30
0.0
 10
149.9214
 20
-48.1965
 30
0.0
 10
149.9214
 20
-48.1965
 30
0.0
 10
148.7305
 20
-47.5588
 30
0.0
 10
147.2891
 20
-47.6021
 30
0.0
 10
146.1373
 20
-48.3107
 30
0.0
 10
146.1373
 20
-48.3107
 30
0.0
 10
144.9877
 20
-49.0183
 30
0.0
 10
144.3002
 20
-50.2864
 30
0.0
 10
144.3352
 20
-51.638
 30
0.0
 10
144.3352
 20
-51.638
 30
0.0
 10
144.3573
 20
-55.844
 30
0.0
 10
146.445
 20
-59.7699
 30
0.0
 10
149.9214
 20
-62.1379
 30
0.0
  0
SPLINE
  5
4F
330
1F
100
AcDbEntity
  8
layer 1
 62
     7
370
     9
100
AcDbSpline
210
0.0
220
0.0
230
1.0
 70
    11
 71
     3
 72
    32
 73
    28
 74
     0
 42
0.0000000001
 43
0.0000000001
 12
1.0
 22
0.0
 32
0.0
 13
1.0
 23
0.0
 33
0.0
 40
0.0
 40
0.0
 40
0.0
 40
0.0
 40
0.125
 40
0.125
 40
0.125
 40
0.125
 40
0.25
 40
0.25
 40
0.25
 40
0.25
 40
0.375
 40
0.375
 40
0.375
 40
0.375
 40
0.5
 40
0.5
 40
0.5
 40
0.5
 40
0.625
 40
0.625
 40
0.625
 40
0.625
 40
0.75
 40
0.75
 40
0.75
 40
0.75
 40
1.0
 40
1.0
 40
1.0
 40
1.0
 10
69.0791
 20
120.4511
 30
0.0
 10
68.342
 20
119.861
 30
0.0
 10
67.1532
 20
119.88
 30
0.0
 10
66.4362
 20
120.4966
 30
0.0
 10
66.4362
 20
120.4966
 30
0.0
 10
65.7202
 20
121.1132
 30
0.0
 10
65.5436
 20
122.1507
 30
0.0
 10
66.0163
 20
122.9692
 30
0.0
 10
66.0163
 20
122.9692
 30
0.0
 10
63.5427
 20
122.0323
 30
0.0
 10
60.7452
 20
122.8011
 30
0.0
 10
59.0975
 20
124.8718
 30
0.0
 10
59.0975
 20
124.8718
 30
0.0
 10
59.0975
 20
124.8718
 30
0.0
 10
78.9265
 20
124.8718
 30
0.0
 10
78.9265
 20
124.8718
 30
0.0
 10
78.9265
 20
124.8718
 30
0.0
 10
77.2788
 20
122.8011
 30
0.0
 10
74.4814
 20
122.0323
 30
0.0
 10
72.0066
 20
122.9692
 30
0.0
 10
72.0066
 20
122.9692
 30
0.0
 10
72.4804
 20
122.1507
 30
0.0
 10
72.3038
 20
121.1132
 30
0.0
 10
71.5867
 20
120.4966
 30
0.0
 10
71.5867
 20
120.4966
 30
0.0
 10
70.8718
 20
119.88
 30
0.0
 10
69.8174
 20
119.861
 30
0.0
 10
69.0791
 20
120.4511
 30
0.0
  0
SPLINE
  5
50
330
1F
100
AcDbEntity
  8
layer 1
 62
     7
370
     9
100
AcDbSpline
210
0.0
220
0.0
230
1.0
 70
    11
 71
     3
 72
    28
 73
    24
 74
     0
 42
0.0000000001
 43
0.0000000001
 12
1.0
 22
0.0
 32
0.0
 13
1.0
 23
0.0
 33
0.0
 40
0.0
 40
0.0
 40
0.0
 40
0.0
 40
0.1428571428571428
 40
0.1428571428571428
 40
0.1428571428571428
 40
0.1428571428571428
 40
0.2857142857142857
 40
0.2857142857142857
 40
0.2857142857142857
 40
0.2857142857142857
 40
0.4285714285714285
 40
0.4285714285714285
 40
0.4285714285714285
 40
0.4285714285714285
 40
0.5714285714285714
 40
0.5714285714285714
 40
0.5714285714285714
 40
0.5714285714285714
 40
0.7142857142857143
 40
0.7142857142857143
 40
0.7142857142857143
 40
0.7142857142857143
 40
1.0
 40
1.0
 40
1.0
 40
1.0
 10
45.722
 20
116.5073
 30
0.0
 10
47.3909
 20
117.0541
 30
0.0
 10
48.6463
 20
118.4416
 30
0.0
 10
49.0249
 20
120.156
 30
0.0
 10
49.0249
 20
120.156
 30
0.0
 10
49.4024
 20
121.8704
 30
0.0
 10
48.8472
 20
123.6556
 30
0.0
 10
47.5633
 20
124.8539
 30
0.0
 10
47.5633
 20
124.8539
 30
0.0
 10
47.5633
 20
124.8539
 30
0.0
 10
52.2897
 20
124.8539
 30
0.0
 10
52.2897
 20
124.8539
 30
0.0
 10
52.2897
 20
124.8539
 30
0.0
 10
52.6514
 20
123.5478
 30
0.0
 10
53.5504
 20
122.4584
 30
0.0
 10
54.7624
 20
121.8545
 30
0.0
 10
54.7624
 20
121.8545
 30
0.0
 10
55.9755
 20
121.2517
 30
0.0
 10
57.3874
 20
121.1914
 30
0.0
 10
58.647
 20
121.6906
 30
0.0
 10
58.647
 20
121.6906
 30
0.0
 10
56.0759
 20
117.1577
 30
0.0
 10
50.7128
 20
115.0066
 30
0.0
 10
45.722
 20
116.5073
 30
0.0
  0
SPLINE
  5
51
330
1F
100
AcDbEntity
  8
layer 1
 62
     7
370
     9
100
AcDbSpline
210
0.0
220
0.0
230
1.0
 70
    11
 71
     3
 72
    28
 73
    24
 74
     0
 42
0.0000000001
 43
0.0000000001
 12
1.0
 22
0.0
 32
0.0
 13
1.0
 23
0.0
 33
0.0
 40
0.0
 40
0.0
 40
0.0
 40
0.0
 40
0.1428571428571428
 40
0.1428571428571428
 40
0.1428571428571428
 40
0.1428571428571428
 40
0.2857142857142857
 40
0.2857142857142857
 40
0.2857142857142857
 40
0.2857142857142857
 40
0.4285714285714285
 40
0.4285714285714285
 40
0.4285714285714285
 40
0.4285714285714285
 40
0.5714285714285714
 40
0.5714285714285714
 40
0.5714285714285714
 40
0.5714285714285714
 40
0.7142857142857143
 40
0.7142857142857143
 40
0.7142857142857143
 40
0.7142857142857143
 40
1.0
 40
1.0
 40
1.0
 40
1.0
 10
39.5297
 20
119.2
 30
0.0
 10
39.0527
 20
121.3532
 30
0.0
 10
39.9157
 20
123.5837
 30
0.0
 10
41.72
 20
124.8539
 30
0.0
 10
41.72
 20
124.8539
 30
0.0
 10
41.72
 20
124.8539
 30
0.0
 10
37.1596
 20
124.8539
 30
0.0
 10
37.1596
 20
124.8539
 30
0.0
 10
37.1596
 20
124.8539
 30
0.0
 10
38.158
 20
123.4568
 30
0.0
 10
38.2003
 20
121.5923
 30
0.0
 10
37.2675
 20
120.1507
 30
0.0
 10
37.2675
 20
120.1507
 30
0.0
 10
36.3336
 20
118.7113
 30
0.0
 10
34.615
 20
117.9869
 30
0.0
 10
32.9334
 20
118.3253
 30
0.0
 10
32.9334
 20
118.3253
 30
0.0
 10
35.146
 20
113.6613
 30
0.0
 10
40.471
 20
111.3589
 30
0.0
 10
45.3857
 20
112.94
 30
0.0
 10
45.3857
 20
112.94
 30
0.0
 10
42.6824
 20
114.1689
 30
0.0
 10
40.5757
 20
116.4206
 30
0.0
 10
39.5297
 20
119.2
 30
0.0
  0
SPLINE
  5
52
330
1F
100
AcDbEntity
  8
layer 1
 62
     7
370
     9
100
AcDbSpline
210
0.0
220
0.0
230
1.0
 70
    11
 71
     3
 72
    32
 73
    28
 74
     0
 42
0.0000000001
 43
0.0000000001
 12
1.0
 22
0.0
 32
0.0
 13
1.0
 23
0.0
 33
0.0
 40
0.0
 40
0.0
 40
0.0
 40
0.0
 40
0.125
 40
0.125
 40
0.125
 40
0.125
 40
0.25
 40
0.25
 40
0.25
 40
0.25
 40
0.375
 40
0.375
 40
0.375
 40
0.375
 40
0.5
 40
0.5
 40
0.5
 40
0.5
 40
0.625
 40
0.625
 40
0.625
 40
0.625
 40
0.75
 40
0.75
 40
0.75
 40
0.75
 40
1.0
 40
1.0
 40
1.0
 40
1.0
 10
43.905
 20
109.7756
 30
0.0
 10
37.2432
 20
108.3267
 30
0.0
 10
30.5782
 20
112.2113
 30
0.0
 10
28.5581
 20
118.723
 30
0.0
 10
28.5581
 20
118.723
 30
0.0
 10
28.5581
 20
118.723
 30
0.0
 10
28.5581
 20
90.7917
 30
0.0
 10
28.5581
 20
90.7917
 30
0.0
 10
28.5581
 20
90.7917
 30
0.0
 10
29.7712
 20
93.8577
 30
0.0
 10
31.8822
 20
96.4869
 30
0.0
 10
34.615
 20
98.3334
 30
0.0
 10
34.615
 20
98.3334
 30
0.0
 10
34.1158
 20
99.1161
 30
0.0
 10
33.256
 20
99.5952
 30
0.0
 10
32.3274
 20
99.6121
 30
0.0
 10
32.3274
 20
99.6121
 30
0.0
 10
34.0577
 20
103.4744
 30
0.0
 10
37.7381
 20
106.1005
 30
0.0
 10
41.9537
 20
106.477
 30
0.0
 10
41.9537
 20
106.477
 30
0.0
 10
41.3848
 20
107.1739
 30
0.0
 10
40.471
 20
107.4859
 30
0.0
 10
39.5963
 20
107.286
 30
0.0
 10
39.5963
 20
107.286
 30
0.0
 10
41.1711
 20
107.8508
 30
0.0
 10
42.6296
 20
108.6948
 30
0.0
 10
43.905
 20
109.7756
 30
0.0
  0
SPLINE
  5
53
330
1F
100
AcDbEntity
  8
layer 1
 62
     7
370
     9
100
AcDbSpline
210
0.0
220
0.0
230
1.0
 70
    11
 71
     3
 72
    96
 73
    92
 74
     0
 42
0.0000000001
 43
0.0000000001
 12
1.0
 22
0.0
 32
0.0
 13
1.0
 23
0.0
 33
0.0
 40
0.0
 40
0.0
 40
0.0
 40
0.0
 40
0.0416666666666667
 40
0.0416666666666667
 40
0.0416666666666667
 40
0.0416666666666667
 40
0.0833333333333333
 40
0.0833333333333333
 40
0.0833333333333333
 40
0.0833333333333333
 40
0.125
 40
0.125
 40
0.125
 40
0.125
 40
0.1666666666666667
 40
0.1666666666666667
 40
0.1666666666666667
 40
0.1666666666666667
 40
0.2083333333333333
 40
0.2083333333333333
 40
0.2083333333333333
 40
0.2083333333333333
 40
0.25
 40
0.25
 40
0.25
 40
0.25
 40
0.2916666666666667
 40
0.2916666666666667
 40
0.2916666666666667
 40
0.2916666666666667
 40
0.3333333333333333
 40
0.3333333333333333
 40
0.3333333333333333
 40
0.3333333333333333
 40
0.375
 40
0.375
 40
0.375
 40
0.375
 40
0.4166666666666667
 40
0.4166666666666667
 40
0.4166666666666667
 40
0.4166666666666667
 40
0.4583333333333333
 40
0.4583333333333333
 40
0.4583333333333333
 40
0.4583333333333333
 40
0.5
 40
0.5
 40
0.5
 40
0.5
 40
0.5416666666666666
 40
0.5416666666666666
 40
0.5416666666666666
 40
0.5416666666666666
 40
0.5833333333333334
 40
0.5833333333333334
 40
0.5833333333333334
 40
0.5833333333333334
 40
0.625
 40
0.625
 40
0.625
 40
0.625
 40
0.6666666666666666
 40
0.6666666666666666
 40
0.6666666666666666
 40
0.6666666666666666
 40
0.7083333333333334
 40
0.7083333333333334
 40
0.7083333333333334
 40
0.7083333333333334
 40
0.75
 40
0.75
 40
0.75
 40
0.75
 40
0.7916666666666666
 40
0.7916666666666666
 40
0.7916666666666666
 40
0.7916666666666666
 40
0.8333333333333334
 40
0.8333333333333334
 40
0.8333333333333334
 40
0.8333333333333334
 40
0.875
 40
0.875
 40
0.875
 40
0.875
 40
0.9166666666666666
 40
0.9166666666666666
 40
0.9166666666666666
 40
0.9166666666666666
 40
1.0
 40
1.0
 40
1.0
 40
1.0
 10
31.7204
 20
87.4962
 30
0.0
 10
30.8214
 20
88.1857
 30
0.0
 10
29.6718
 20
88.4575
 30
0.0
 10
28.5581
 20
88.2502
 30
0.0
 10
28.5581
 20
88.2502
 30
0.0
 10
28.5581
 20
88.2502
 30
0.0
 10
28.5581
 20
58.3465
 30
0.0
 10
28.5581
 20
58.3465
 30
0.0
 10
28.5581
 20
58.3465
 30
0.0
 10
29.1948
 20
60.1444
 30
0.0
 10
30.9621
 20
61.2919
 30
0.0
 10
32.8647
 20
61.1439
 30
0.0
 10
32.8647
 20
61.1439
 30
0.0
 10
31.6411
 20
62.0545
 30
0.0
 10
31.1091
 20
63.6271
 30
0.0
 10
31.5268
 20
65.093
 30
0.0
 10
31.5268
 20
65.093
 30
0.0
 10
31.9467
 20
66.5598
 30
0.0
 10
33.2306
 20
67.6143
 30
0.0
 10
34.7504
 20
67.7391
 30
0.0
 10
34.7504
 20
67.7391
 30
0.0
 10
35.7023
 20
67.7073
 30
0.0
 10
36.5875
 20
67.2399
 30
0.0
 10
37.1512
 20
66.4721
 30
0.0
 10
37.1512
 20
66.4721
 30
0.0
 10
37.7149
 20
65.7053
 30
0.0
 10
37.8978
 20
64.7207
 30
0.0
 10
37.6451
 20
63.8027
 30
0.0
 10
37.6451
 20
63.8027
 30
0.0
 10
37.5256
 20
63.1491
 30
0.0
 10
37.3912
 20
62.4965
 30
0.0
 10
37.2421
 20
61.8503
 30
0.0
 10
37.2421
 20
61.8503
 30
0.0
 10
38.0565
 20
63.1893
 30
0.0
 10
39.5953
 20
63.9063
 30
0.0
 10
41.1447
 20
63.6673
 30
0.0
 10
41.1447
 20
63.6673
 30
0.0
 10
42.5841
 20
63.4833
 30
0.0
 10
43.7929
 20
62.4902
 30
0.0
 10
44.2519
 20
61.1132
 30
0.0
 10
44.2519
 20
61.1132
 30
0.0
 10
44.7109
 20
59.7351
 30
0.0
 10
44.3408
 20
58.2164
 30
0.0
 10
43.299
 20
57.2053
 30
0.0
 10
43.299
 20
57.2053
 30
0.0
 10
42.3683
 20
58.5422
 30
0.0
 10
40.5545
 20
58.9134
 30
0.0
 10
39.1722
 20
58.0514
 30
0.0
 10
39.1722
 20
58.0514
 30
0.0
 10
37.791
 20
57.1905
 30
0.0
 10
37.3257
 20
55.3979
 30
0.0
 10
38.1157
 20
53.9744
 30
0.0
 10
38.1157
 20
53.9744
 30
0.0
 10
38.7979
 20
52.4049
 30
0.0
 10
40.1696
 20
51.2383
 30
0.0
 10
41.8279
 20
50.8174
 30
0.0
 10
41.8279
 20
50.8174
 30
0.0
 10
43.4883
 20
50.3965
 30
0.0
 10
45.2482
 20
50.7667
 30
0.0
 10
46.5966
 20
51.8211
 30
0.0
 10
46.5966
 20
51.8211
 30
0.0
 10
49.651
 20
54.2832
 30
0.0
 10
51.6689
 20
57.8029
 30
0.0
 10
52.2516
 20
61.6822
 30
0.0
 10
52.2516
 20
61.6822
 30
0.0
 10
50.753
 20
61.6007
 30
0.0
 10
49.2512
 20
61.771
 30
0.0
 10
47.8097
 20
62.1867
 30
0.0
 10
47.8097
 20
62.1867
 30
0.0
 10
50.771
 20
63.2464
 30
0.0
 10
53.269
 20
65.3055
 30
0.0
 10
54.8766
 20
68.0088
 30
0.0
 10
54.8766
 20
68.0088
 30
0.0
 10
49.3263
 20
66.0575
 30
0.0
 10
43.1658
 20
67.0601
 30
0.0
 10
38.5197
 20
70.6686
 30
0.0
 10
38.5197
 20
70.6686
 30
0.0
 10
37.6599
 20
70.2942
 30
0.0
 10
37.0507
 20
69.5074
 30
0.0
 10
36.9047
 20
68.582
 30
0.0
 10
36.9047
 20
68.582
 30
0.0
 10
34.3898
 20
71.0504
 30
0.0
 10
33.0646
 20
74.4855
 30
0.0
 10
33.2698
 20
78.0052
 30
0.0
 10
33.2698
 20
78.0052
 30
0.0
 10
32.4639
 20
77.9122
 30
0.0
 10
31.6506
 20
77.9122
 30
0.0
 10
30.8468
 20
78.0052
 30
0.0
 10
30.8468
 20
78.0052
 30
0.0
 10
30.281
 20
81.1897
 30
0.0
 10
30.5824
 20
84.4672
 30
0.0
 10
31.7204
 20
87.4962
 30
0.0
  0
SPLINE
  5
54
330
1F
100
AcDbEntity
  8
layer 1
 62
     7
370
     9
100
AcDbSpline
210
0.0
220
0.0
230
1.0
 70
    11
 71
     3
 72
    88
 73
    84
 74
     0
 42
0.0000000001
 43
0.0000000001
 12
1.0
 22
0.0
 32
0.0
 13
1.0
 23
0.0
 33
0.0
 40
0.0
 40
0.0
 40
0.0
 40
0.0
 40
0.0454545454545455
 40
0.0454545454545455
 40
0.0454545454545455
 40
0.0454545454545455
 40
0.0909090909090909
 40
0.0909090909090909
 40
0.0909090909090909
 40
0.0909090909090909
 40
0.1363636363636364
 40
0.1363636363636364
 40
0.1363636363636364
 40
0.1363636363636364
 40
0.1818181818181818
 40
0.1818181818181818
 40
0.1818181818181818
 40
0.1818181818181818
 40
0.2272727272727273
 40
0.2272727272727273
 40
0.2272727272727273
 40
0.2272727272727273
 40
0.2727272727272727
 40
0.2727272727272727
 40
0.2727272727272727
 40
0.2727272727272727
 40
0.3181818181818182
 40
0.3181818181818182
 40
0.3181818181818182
 40
0.3181818181818182
 40
0.3636363636363636
 40
0.3636363636363636
 40
0.3636363636363636
 40
0.3636363636363636
 40
0.4090909090909091
 40
0.4090909090909091
 40
0.4090909090909091
 40
0.4090909090909091
 40
0.4545454545454545
 40
0.4545454545454545
 40
0.4545454545454545
 40
0.4545454545454545
 40
0.5
 40
0.5
 40
0.5
 40
0.5
 40
0.5454545454545454
 40
0.5454545454545454
 40
0.5454545454545454
 40
0.5454545454545454
 40
0.5909090909090909
 40
0.5909090909090909
 40
0.5909090909090909
 40
0.5909090909090909
 40
0.6363636363636364
 40
0.6363636363636364
 40
0.6363636363636364
 40
0.6363636363636364
 40
0.6818181818181818
 40
0.6818181818181818
 40
0.6818181818181818
 40
0.6818181818181818
 40
0.7272727272727273
 40
0.7272727272727273
 40
0.7272727272727273
 40
0.7272727272727273
 40
0.7727272727272727
 40
0.7727272727272727
 40
0.7727272727272727
 40
0.7727272727272727
 40
0.8181818181818182
 40
0.8181818181818182
 40
0.8181818181818182
 40
0.8181818181818182
 40
0.8636363636363636
 40
0.8636363636363636
 40
0.8636363636363636
 40
0.8636363636363636
 40
0.9090909090909091
 40
0.9090909090909091
 40
0.9090909090909091
 40
0.9090909090909091
 40
1.0
 40
1.0
 40
1.0
 40
1.0
 10
28.5581
 20
55.5238
 30
0.0
 10
28.5581
 20
55.5238
 30
0.0
 10
28.5581
 20
-39.521
 30
0.0
 10
28.5581
 20
-39.521
 30
0.0
 10
28.5581
 20
-39.521
 30
0.0
 10
29.1314
 20
-37.0049
 30
0.0
 10
31.0477
 20
-35.0113
 30
0.0
 10
33.5384
 20
-34.3387
 30
0.0
 10
33.5384
 20
-34.3387
 30
0.0
 10
32.8319
 20
-33.5064
 30
0.0
 10
31.8314
 20
-32.9765
 30
0.0
 10
30.7463
 20
-32.857
 30
0.0
 10
30.7463
 20
-32.857
 30
0.0
 10
32.8414
 20
-31.0369
 30
0.0
 10
35.6631
 20
-30.2913
 30
0.0
 10
38.3854
 20
-30.837
 30
0.0
 10
38.3854
 20
-30.837
 30
0.0
 10
35.6007
 20
-28.4775
 30
0.0
 10
33.5077
 20
-25.4072
 30
0.0
 10
32.3274
 20
-21.9531
 30
0.0
 10
32.3274
 20
-21.9531
 30
0.0
 10
33.1915
 20
-21.5301
 30
0.0
 10
34.0037
 20
-21.0118
 30
0.0
 10
34.7504
 20
-20.4048
 30
0.0
 10
34.7504
 20
-20.4048
 30
0.0
 10
32.044
 20
-17.1156
 30
0.0
 10
30.8468
 20
-12.8408
 30
0.0
 10
31.4528
 20
-8.6252
 30
0.0
 10
31.4528
 20
-8.6252
 30
0.0
 10
32.3634
 20
-9.4099
 30
0.0
 10
33.6378
 20
-9.6172
 30
0.0
 10
34.7504
 20
-9.1646
 30
0.0
 10
34.7504
 20
-9.1646
 30
0.0
 10
33.0773
 20
-4.7332
 30
0.0
 10
33.5765
 20
0.2227
 30
0.0
 10
36.0957
 20
4.231
 30
0.0
 10
36.0957
 20
4.231
 30
0.0
 10
36.6626
 20
3.367
 30
0.0
 10
37.6207
 20
2.8382
 30
0.0
 10
38.654
 20
2.817
 30
0.0
 10
38.654
 20
2.817
 30
0.0
 10
39.6915
 20
5.1141
 30
0.0
 10
41.5275
 20
6.9565
 30
0.0
 10
43.8215
 20
8.0014
 30
0.0
 10
43.8215
 20
8.0014
 30
0.0
 10
41.5275
 20
9.0463
 30
0.0
 10
39.6915
 20
10.8865
 30
0.0
 10
38.654
 20
13.1837
 30
0.0
 10
38.654
 20
13.1837
 30
0.0
 10
37.6207
 20
13.1636
 30
0.0
 10
36.6626
 20
12.6348
 30
0.0
 10
36.0957
 20
11.7707
 30
0.0
 10
36.0957
 20
11.7707
 30
0.0
 10
33.5765
 20
15.778
 30
0.0
 10
33.0773
 20
20.736
 30
0.0
 10
34.7504
 20
25.1652
 30
0.0
 10
34.7504
 20
25.1652
 30
0.0
 10
33.6378
 20
25.62
 30
0.0
 10
32.3634
 20
25.4117
 30
0.0
 10
31.4528
 20
24.6269
 30
0.0
 10
31.4528
 20
24.6269
 30
0.0
 10
30.8468
 20
28.8425
 30
0.0
 10
32.044
 20
33.1184
 30
0.0
 10
34.7504
 20
36.4065
 30
0.0
 10
34.7504
 20
36.4065
 30
0.0
 10
34.0037
 20
37.0125
 30
0.0
 10
33.1915
 20
37.5318
 30
0.0
 10
32.3274
 20
37.9538
 30
0.0
 10
32.3274
 20
37.9538
 30
0.0
 10
33.5077
 20
41.4079
 30
0.0
 10
35.6007
 20
44.4792
 30
0.0
 10
38.3854
 20
46.8398
 30
0.0
 10
38.3854
 20
46.8398
 30
0.0
 10
35.6631
 20
46.2941
 30
0.0
 10
32.8414
 20
47.0386
 30
0.0
 10
30.7463
 20
48.8587
 30
0.0
 10
30.7463
 20
48.8587
 30
0.0
 10
31.8314
 20
48.9782
 30
0.0
 10
32.8319
 20
49.5081
 30
0.0
 10
33.5384
 20
50.3394
 30
0.0
 10
33.5384
 20
50.3394
 30
0.0
 10
31.0477
 20
51.0131
 30
0.0
 10
29.1314
 20
53.0067
 30
0.0
 10
28.5581
 20
55.5238
 30
0.0
  0
SPLINE
  5
55
330
1F
100
AcDbEntity
  8
layer 1
 62
     7
370
     9
100
AcDbSpline
210
0.0
220
0.0
230
1.0
 70
    11
 71
     3
 72
    56
 73
    52
 74
     0
 42
0.0000000001
 43
0.0000000001
 12
1.0
 22
0.0
 32
0.0
 13
1.0
 23
0.0
 33
0.0
 40
0.0
 40
0.0
 40
0.0
 40
0.0
 40
0.0714285714285714
 40
0.0714285714285714
 40
0.0714285714285714
 40
0.0714285714285714
 40
0.1428571428571428
 40
0.1428571428571428
 40
0.1428571428571428
 40
0.1428571428571428
 40
0.2142857142857143
 40
0.2142857142857143
 40
0.2142857142857143
 40
0.2142857142857143
 40
0.2857142857142857
 40
0.2857142857142857
 40
0.2857142857142857
 40
0.2857142857142857
 40
0.3571428571428572
 40
0.3571428571428572
 40
0.3571428571428572
 40
0.3571428571428572
 40
0.4285714285714285
 40
0.4285714285714285
 40
0.4285714285714285
 40
0.4285714285714285
 40
0.5
 40
0.5
 40
0.5
 40
0.5
 40
0.5714285714285714
 40
0.5714285714285714
 40
0.5714285714285714
 40
0.5714285714285714
 40
0.6428571428571429
 40
0.6428571428571429
 40
0.6428571428571429
 40
0.6428571428571429
 40
0.7142857142857143
 40
0.7142857142857143
 40
0.7142857142857143
 40
0.7142857142857143
 40
0.7857142857142857
 40
0.7857142857142857
 40
0.7857142857142857
 40
0.7857142857142857
 40
0.8571428571428571
 40
0.8571428571428571
 40
0.8571428571428571
 40
0.8571428571428571
 40
1.0
 40
1.0
 40
1.0
 40
1.0
 10
57.8379
 20
13.722
 30
0.0
 10
54.7719
 20
12.5692
 30
0.0
 10
51.3812
 20
12.6168
 30
0.0
 10
48.347
 20
13.8573
 30
0.0
 10
48.347
 20
13.8573
 30
0.0
 10
47.7367
 20
12.7543
 30
0.0
 10
47.0154
 20
11.7168
 30
0.0
 10
46.1926
 20
10.7596
 30
0.0
 10
46.1926
 20
10.7596
 30
0.0
 10
43.5127
 20
12.0679
 30
0.0
 10
41.3372
 20
14.2201
 30
0.0
 10
40.0004
 20
16.8853
 30
0.0
 10
40.0004
 20
16.8853
 30
0.0
 10
38.9808
 20
17.1602
 30
0.0
 10
37.8978
 20
16.7531
 30
0.0
 10
37.3088
 20
15.8753
 30
0.0
 10
37.3088
 20
15.8753
 30
0.0
 10
36.4489
 20
19.6012
 30
0.0
 10
36.6351
 20
23.4921
 30
0.0
 10
37.846
 20
27.1165
 30
0.0
 10
37.846
 20
27.1165
 30
0.0
 10
36.8815
 20
27.493
 30
0.0
 10
35.8524
 20
27.676
 30
0.0
 10
34.8181
 20
27.6559
 30
0.0
 10
34.8181
 20
27.6559
 30
0.0
 10
34.6224
 20
31.1597
 30
0.0
 10
35.7795
 20
34.6054
 30
0.0
 10
38.0491
 20
37.2812
 30
0.0
 10
38.0491
 20
37.2812
 30
0.0
 10
37.3098
 20
37.8607
 30
0.0
 10
36.6139
 20
38.4911
 30
0.0
 10
35.9624
 20
39.1669
 30
0.0
 10
35.9624
 20
39.1669
 30
0.0
 10
37.7794
 20
43.0335
 30
0.0
 10
41.2832
 20
45.8414
 30
0.0
 10
45.4523
 20
46.7731
 30
0.0
 10
45.4523
 20
46.7731
 30
0.0
 10
40.1569
 20
40.509
 30
0.0
 10
38.9512
 20
31.7509
 30
0.0
 10
42.3567
 20
24.2906
 30
0.0
 10
42.3567
 20
24.2906
 30
0.0
 10
45.6279
 20
18.9624
 30
0.0
 10
51.8117
 20
16.1629
 30
0.0
 10
57.9733
 20
17.2226
 30
0.0
 10
57.9733
 20
17.2226
 30
0.0
 10
60.1139
 20
17.6467
 30
0.0
 10
62.3105
 20
16.8102
 30
0.0
 10
63.6262
 20
15.0683
 30
0.0
 10
63.6262
 20
15.0683
 30
0.0
 10
61.6326
 20
14.9678
 30
0.0
 10
59.6728
 20
14.5131
 30
0.0
 10
57.8379
 20
13.722
 30
0.0
  0
SPLINE
  5
56
330
1F
100
AcDbEntity
  8
layer 1
 62
     7
370
     9
100
AcDbSpline
210
0.0
220
0.0
230
1.0
 70
    11
 71
     3
 72
   124
 73
   120
 74
     0
 42
0.0000000001
 43
0.0000000001
 12
1.0
 22
0.0
 32
0.0
 13
1.0
 23
0.0
 33
0.0
 40
0.0
 40
0.0
 40
0.0
 40
0.0
 40
0.032258064516129
 40
0.032258064516129
 40
0.032258064516129
 40
0.032258064516129
 40
0.0645161290322581
 40
0.0645161290322581
 40
0.0645161290322581
 40
0.0645161290322581
 40
0.0967741935483871
 40
0.0967741935483871
 40
0.0967741935483871
 40
0.0967741935483871
 40
0.1290322580645161
 40
0.1290322580645161
 40
0.1290322580645161
 40
0.1290322580645161
 40
0.1612903225806452
 40
0.1612903225806452
 40
0.1612903225806452
 40
0.1612903225806452
 40
0.1935483870967742
 40
0.1935483870967742
 40
0.1935483870967742
 40
0.1935483870967742
 40
0.2258064516129032
 40
0.2258064516129032
 40
0.2258064516129032
 40
0.2258064516129032
 40
0.2580645161290323
 40
0.2580645161290323
 40
0.2580645161290323
 40
0.2580645161290323
 40
0.2903225806451613
 40
0.2903225806451613
 40
0.2903225806451613
 40
0.2903225806451613
 40
0.3225806451612903
 40
0.3225806451612903
 40
0.3225806451612903
 40
0.3225806451612903
 40
0.3548387096774194
 40
0.3548387096774194
 40
0.3548387096774194
 40
0.3548387096774194
 40
0.3870967741935484
 40
0.3870967741935484
 40
0.3870967741935484
 40
0.3870967741935484
 40
0.4193548387096774
 40
0.4193548387096774
 40
0.4193548387096774
 40
0.4193548387096774
 40
0.4516129032258064
 40
0.4516129032258064
 40
0.4516129032258064
 40
0.4516129032258064
 40
0.4838709677419355
 40
0.4838709677419355
 40
0.4838709677419355
 40
0.4838709677419355
 40
0.5161290322580645
 40
0.5161290322580645
 40
0.5161290322580645
 40
0.5161290322580645
 40
0.5483870967741935
 40
0.5483870967741935
 40
0.5483870967741935
 40
0.5483870967741935
 40
0.5806451612903226
 40
0.5806451612903226
 40
0.5806451612903226
 40
0.5806451612903226
 40
0.6129032258064516
 40
0.6129032258064516
 40
0.6129032258064516
 40
0.6129032258064516
 40
0.6451612903225806
 40
0.6451612903225806
 40
0.6451612903225806
 40
0.6451612903225806
 40
0.6774193548387096
 40
0.6774193548387096
 40
0.6774193548387096
 40
0.6774193548387096
 40
0.7096774193548387
 40
0.7096774193548387
 40
0.7096774193548387
 40
0.7096774193548387
 40
0.7419354838709677
 40
0.7419354838709677
 40
0.7419354838709677
 40
0.7419354838709677
 40
0.7741935483870968
 40
0.7741935483870968
 40
0.7741935483870968
 40
0.7741935483870968
 40
0.8064516129032258
 40
0.8064516129032258
 40
0.8064516129032258
 40
0.8064516129032258
 40
0.8387096774193549
 40
0.8387096774193549
 40
0.8387096774193549
 40
0.8387096774193549
 40
0.8709677419354839
 40
0.8709677419354839
 40
0.8709677419354839
 40
0.8709677419354839
 40
0.9032258064516129
 40
0.9032258064516129
 40
0.9032258064516129
 40
0.9032258064516129
 40
0.9354838709677419
 40
0.9354838709677419
 40
0.9354838709677419
 40
0.9354838709677419
 40
1.0
 40
1.0
 40
1.0
 40
1.0
 10
68.9448
 20
15.5114
 30
0.0
 10
71.0199
 20
17.2163
 30
0.0
 10
73.4978
 20
18.569
 30
0.0
 10
76.0118
 20
19.5102
 30
0.0
 10
76.0118
 20
19.5102
 30
0.0
 10
73.6945
 20
19.9491
 30
0.0
 10
71.8638
 20
21.7323
 30
0.0
 10
71.3657
 20
24.0357
 30
0.0
 10
71.3657
 20
24.0357
 30
0.0
 10
70.8655
 20
26.3413
 30
0.0
 10
71.7961
 20
28.7209
 30
0.0
 10
73.7242
 20
30.0799
 30
0.0
 10
73.7242
 20
30.0799
 30
0.0
 10
73.3117
 20
32.3125
 30
0.0
 10
74.4581
 20
34.5441
 30
0.0
 10
76.5141
 20
35.5086
 30
0.0
 10
76.5141
 20
35.5086
 30
0.0
 10
78.5712
 20
36.4731
 30
0.0
 10
81.0195
 20
35.9295
 30
0.0
 10
82.4737
 20
34.1855
 30
0.0
 10
82.4737
 20
34.1855
 30
0.0
 10
84.3806
 20
34.543
 30
0.0
 10
86.335
 20
33.8778
 30
0.0
 10
87.6274
 20
32.4331
 30
0.0
 10
87.6274
 20
32.4331
 30
0.0
 10
88.9219
 20
30.9874
 30
0.0
 10
89.3661
 20
28.9726
 30
0.0
 10
88.8024
 20
27.1165
 30
0.0
 10
88.8024
 20
27.1165
 30
0.0
 10
87.9521
 20
28.9821
 30
0.0
 10
86.1267
 20
30.2121
 30
0.0
 10
84.0802
 20
30.2967
 30
0.0
 10
84.0802
 20
30.2967
 30
0.0
 10
82.0327
 20
30.3824
 30
0.0
 10
80.11
 20
29.3089
 30
0.0
 10
79.1084
 20
27.5205
 30
0.0
 10
79.1084
 20
27.5205
 30
0.0
 10
78.4601
 20
24.683
 30
0.0
 10
80.0158
 20
21.8042
 30
0.0
 10
82.7434
 20
20.7899
 30
0.0
 10
82.7434
 20
20.7899
 30
0.0
 10
85.2129
 20
20.2781
 30
0.0
 10
87.7829
 20
20.7931
 30
0.0
 10
89.8642
 20
22.2145
 30
0.0
 10
89.8642
 20
22.2145
 30
0.0
 10
91.9467
 20
23.636
 30
0.0
 10
93.3607
 20
25.8432
 30
0.0
 10
93.7816
 20
28.3296
 30
0.0
 10
93.7816
 20
28.3296
 30
0.0
 10
95.3331
 20
34.047
 30
0.0
 10
93.6568
 20
40.1547
 30
0.0
 10
89.4074
 20
44.2825
 30
0.0
 10
89.4074
 20
44.2825
 30
0.0
 10
87.3239
 20
40.803
 30
0.0
 10
83.6963
 20
38.5376
 30
0.0
 10
79.6573
 20
38.1907
 30
0.0
 10
79.6573
 20
38.1907
 30
0.0
 10
75.6183
 20
37.8449
 30
0.0
 10
71.6576
 20
39.4598
 30
0.0
 10
69.0115
 20
42.5322
 30
0.0
 10
69.0115
 20
42.5322
 30
0.0
 10
66.3664
 20
39.4598
 30
0.0
 10
62.4067
 20
37.8449
 30
0.0
 10
58.3667
 20
38.1907
 30
0.0
 10
58.3667
 20
38.1907
 30
0.0
 10
54.3267
 20
38.5376
 30
0.0
 10
50.6991
 20
40.803
 30
0.0
 10
48.6166
 20
44.2825
 30
0.0
 10
48.6166
 20
44.2825
 30
0.0
 10
44.3672
 20
40.1547
 30
0.0
 10
42.6909
 20
34.047
 30
0.0
 10
44.2413
 20
28.3296
 30
0.0
 10
44.2413
 20
28.3296
 30
0.0
 10
44.6623
 20
25.8432
 30
0.0
 10
46.0784
 20
23.636
 30
0.0
 10
48.1587
 20
22.2145
 30
0.0
 10
48.1587
 20
22.2145
 30
0.0
 10
50.2422
 20
20.7931
 30
0.0
 10
52.8111
 20
20.2781
 30
0.0
 10
55.2806
 20
20.7899
 30
0.0
 10
55.2806
 20
20.7899
 30
0.0
 10
58.0103
 20
21.8042
 30
0.0
 10
59.565
 20
24.683
 30
0.0
 10
58.9145
 20
27.5205
 30
0.0
 10
58.9145
 20
27.5205
 30
0.0
 10
57.914
 20
29.3089
 30
0.0
 10
55.9924
 20
30.3824
 30
0.0
 10
53.9449
 20
30.2967
 30
0.0
 10
53.9449
 20
30.2967
 30
0.0
 10
51.8973
 20
30.2121
 30
0.0
 10
50.0709
 20
28.9821
 30
0.0
 10
49.2227
 20
27.1165
 30
0.0
 10
49.2227
 20
27.1165
 30
0.0
 10
48.6579
 20
28.9726
 30
0.0
 10
49.1021
 20
30.9874
 30
0.0
 10
50.3966
 20
32.4331
 30
0.0
 10
50.3966
 20
32.4331
 30
0.0
 10
51.689
 20
33.8778
 30
0.0
 10
53.6434
 20
34.543
 30
0.0
 10
55.5492
 20
34.1855
 30
0.0
 10
55.5492
 20
34.1855
 30
0.0
 10
57.0045
 20
35.9295
 30
0.0
 10
59.4529
 20
36.4731
 30
0.0
 10
61.5088
 20
35.5086
 30
0.0
 10
61.5088
 20
35.5086
 30
0.0
 10
63.5659
 20
34.5441
 30
0.0
 10
64.7123
 20
32.3125
 30
0.0
 10
64.2999
 20
30.0799
 30
0.0
 10
64.2999
 20
30.0799
 30
0.0
 10
66.23
 20
28.7209
 30
0.0
 10
67.1586
 20
26.3413
 30
0.0
 10
66.6594
 20
24.0357
 30
0.0
 10
66.6594
 20
24.0357
 30
0.0
 10
66.1591
 20
21.7323
 30
0.0
 10
64.3295
 20
19.9491
 30
0.0
 10
62.0123
 20
19.5102
 30
0.0
 10
62.0123
 20
19.5102
 30
0.0
 10
64.5272
 20
18.569
 30
0.0
 10
66.8698
 20
17.2163
 30
0.0
 10
68.9448
 20
15.5114
 30
0.0
  0
SPLINE
  5
57
330
1F
100
AcDbEntity
  8
layer 1
 62
     7
370
     9
100
AcDbSpline
210
0.0
220
0.0
230
1.0
 70
    11
 71
     3
 72
    28
 73
    24
 74
     0
 42
0.0000000001
 43
0.0000000001
 12
1.0
 22
0.0
 32
0.0
 13
1.0
 23
0.0
 33
0.0
 40
0.0
 40
0.0
 40
0.0
 40
0.0
 40
0.1428571428571428
 40
0.1428571428571428
 40
0.1428571428571428
 40
0.1428571428571428
 40
0.2857142857142857
 40
0.2857142857142857
 40
0.2857142857142857
 40
0.2857142857142857
 40
0.4285714285714285
 40
0.4285714285714285
 40
0.4285714285714285
 40
0.4285714285714285
 40
0.5714285714285714
 40
0.5714285714285714
 40
0.5714285714285714
 40
0.5714285714285714
 40
0.7142857142857143
 40
0.7142857142857143
 40
0.7142857142857143
 40
0.7142857142857143
 40
1.0
 40
1.0
 40
1.0
 40
1.0
 10
69.0791
 20
64.1982
 30
0.0
 10
67.8882
 20
63.5594
 30
0.0
 10
66.3125
 20
63.6028
 30
0.0
 10
65.1608
 20
64.3113
 30
0.0
 10
65.1608
 20
64.3113
 30
0.0
 10
64.0111
 20
65.0211
 30
0.0
 10
63.3237
 20
66.288
 30
0.0
 10
63.3586
 20
67.6386
 30
0.0
 10
63.3586
 20
67.6386
 30
0.0
 10
63.3808
 20
71.8447
 30
0.0
 10
65.6028
 20
75.7715
 30
0.0
 10
69.0791
 20
78.1395
 30
0.0
 10
69.0791
 20
78.1395
 30
0.0
 10
72.5545
 20
75.7715
 30
0.0
 10
74.6432
 20
71.8447
 30
0.0
 10
74.6665
 20
67.6386
 30
0.0
 10
74.6665
 20
67.6386
 30
0.0
 10
74.7004
 20
66.288
 30
0.0
 10
74.0119
 20
65.0211
 30
0.0
 10
72.8622
 20
64.3113
 30
0.0
 10
72.8622
 20
64.3113
 30
0.0
 10
71.7105
 20
63.6028
 30
0.0
 10
70.271
 20
63.5594
 30
0.0
 10
69.0791
 20
64.1982
 30
0.0
  0
SPLINE
  5
58
330
1F
100
AcDbEntity
  8
layer 1
 62
     7
370
     9
100
AcDbSpline
210
0.0
220
0.0
230
1.0
 70
    11
 71
     3
 72
   148
 73
   144
 74
     0
 42
0.0000000001
 43
0.0000000001
 12
1.0
 22
0.0
 32
0.0
 13
1.0
 23
0.0
 33
0.0
 40
0.0
 40
0.0
 40
0.0
 40
0.0
 40
0.027027027027027
 40
0.027027027027027
 40
0.027027027027027
 40
0.027027027027027
 40
0.0540540540540541
 40
0.0540540540540541
 40
0.0540540540540541
 40
0.0540540540540541
 40
0.0810810810810811
 40
0.0810810810810811
 40
0.0810810810810811
 40
0.0810810810810811
 40
0.1081081081081081
 40
0.1081081081081081
 40
0.1081081081081081
 40
0.1081081081081081
 40
0.1351351351351351
 40
0.1351351351351351
 40
0.1351351351351351
 40
0.1351351351351351
 40
0.1621621621621622
 40
0.1621621621621622
 40
0.1621621621621622
 40
0.1621621621621622
 40
0.1891891891891892
 40
0.1891891891891892
 40
0.1891891891891892
 40
0.1891891891891892
 40
0.2162162162162162
 40
0.2162162162162162
 40
0.2162162162162162
 40
0.2162162162162162
 40
0.2432432432432433
 40
0.2432432432432433
 40
0.2432432432432433
 40
0.2432432432432433
 40
0.2702702702702703
 40
0.2702702702702703
 40
0.2702702702702703
 40
0.2702702702702703
 40
0.2972972972972973
 40
0.2972972972972973
 40
0.2972972972972973
 40
0.2972972972972973
 40
0.3243243243243243
 40
0.3243243243243243
 40
0.3243243243243243
 40
0.3243243243243243
 40
0.3513513513513514
 40
0.3513513513513514
 40
0.3513513513513514
 40
0.3513513513513514
 40
0.3783783783783784
 40
0.3783783783783784
 40
0.3783783783783784
 40
0.3783783783783784
 40
0.4054054054054054
 40
0.4054054054054054
 40
0.4054054054054054
 40
0.4054054054054054
 40
0.4324324324324325
 40
0.4324324324324325
 40
0.4324324324324325
 40
0.4324324324324325
 40
0.4594594594594595
 40
0.4594594594594595
 40
0.4594594594594595
 40
0.4594594594594595
 40
0.4864864864864865
 40
0.4864864864864865
 40
0.4864864864864865
 40
0.4864864864864865
 40
0.5135135135135135
 40
0.5135135135135135
 40
0.5135135135135135
 40
0.5135135135135135
 40
0.5405405405405406
 40
0.5405405405405406
 40
0.5405405405405406
 40
0.5405405405405406
 40
0.5675675675675675
 40
0.5675675675675675
 40
0.5675675675675675
 40
0.5675675675675675
 40
0.5945945945945946
 40
0.5945945945945946
 40
0.5945945945945946
 40
0.5945945945945946
 40
0.6216216216216216
 40
0.6216216216216216
 40
0.6216216216216216
 40
0.6216216216216216
 40
0.6486486486486487
 40
0.6486486486486487
 40
0.6486486486486487
 40
0.6486486486486487
 40
0.6756756756756757
 40
0.6756756756756757
 40
0.6756756756756757
 40
0.6756756756756757
 40
0.7027027027027027
 40
0.7027027027027027
 40
0.7027027027027027
 40
0.7027027027027027
 40
0.7297297297297297
 40
0.7297297297297297
 40
0.7297297297297297
 40
0.7297297297297297
 40
0.7567567567567568
 40
0.7567567567567568
 40
0.7567567567567568
 40
0.7567567567567568
 40
0.7837837837837838
 40
0.7837837837837838
 40
0.7837837837837838
 40
0.7837837837837838
 40
0.8108108108108109
 40
0.8108108108108109
 40
0.8108108108108109
 40
0.8108108108108109
 40
0.8378378378378378
 40
0.8378378378378378
 40
0.8378378378378378
 40
0.8378378378378378
 40
0.8648648648648649
 40
0.8648648648648649
 40
0.8648648648648649
 40
0.8648648648648649
 40
0.8918918918918919
 40
0.8918918918918919
 40
0.8918918918918919
 40
0.8918918918918919
 40
0.918918918918919
 40
0.918918918918919
 40
0.918918918918919
 40
0.918918918918919
 40
0.9459459459459459
 40
0.9459459459459459
 40
0.9459459459459459
 40
0.9459459459459459
 40
1.0
 40
1.0
 40
1.0
 40
1.0
 10
69.0791
 20
82.3139
 30
0.0
 10
69.0051
 20
83.9288
 30
0.0
 10
67.5964
 20
85.2329
 30
0.0
 10
65.9836
 20
85.3418
 30
0.0
 10
65.9836
 20
85.3418
 30
0.0
 10
67.9
 20
86.7431
 30
0.0
 10
68.6086
 20
89.273
 30
0.0
 10
67.6958
 20
91.4632
 30
0.0
 10
67.6958
 20
91.4632
 30
0.0
 10
66.7852
 20
93.6557
 30
0.0
 10
64.4892
 20
94.9364
 30
0.0
 10
62.1456
 20
94.563
 30
0.0
 10
62.1456
 20
94.563
 30
0.0
 10
61.1101
 20
94.3093
 30
0.0
 10
60.2006
 20
93.6874
 30
0.0
 10
59.5882
 20
92.8138
 30
0.0
 10
59.5882
 20
92.8138
 30
0.0
 10
57.6189
 20
94.3938
 30
0.0
 10
54.9242
 20
94.728
 30
0.0
 10
52.6302
 20
93.6726
 30
0.0
 10
52.6302
 20
93.6726
 30
0.0
 10
50.3353
 20
92.6171
 30
0.0
 10
48.8334
 20
90.357
 30
0.0
 10
48.7509
 20
87.8325
 30
0.0
 10
48.7509
 20
87.8325
 30
0.0
 10
48.7743
 20
85.7755
 30
0.0
 10
49.4849
 20
83.786
 30
0.0
 10
50.7709
 20
82.1774
 30
0.0
 10
50.7709
 20
82.1774
 30
0.0
 10
50.7149
 20
83.7417
 30
0.0
 10
51.3304
 20
85.2551
 30
0.0
 10
52.4632
 20
86.336
 30
0.0
 10
52.4632
 20
86.336
 30
0.0
 10
53.5937
 20
87.4158
 30
0.0
 10
55.1347
 20
87.9604
 30
0.0
 10
56.6935
 20
87.8325
 30
0.0
 10
56.6935
 20
87.8325
 30
0.0
 10
58.3815
 20
87.6336
 30
0.0
 10
59.859
 20
86.6046
 30
0.0
 10
60.63
 20
85.0901
 30
0.0
 10
60.63
 20
85.0901
 30
0.0
 10
61.401
 20
83.5757
 30
0.0
 10
61.3639
 20
81.7756
 30
0.0
 10
60.5305
 20
80.2939
 30
0.0
 10
60.5305
 20
80.2939
 30
0.0
 10
57.0933
 20
76.6504
 30
0.0
 10
51.4606
 20
76.1851
 30
0.0
 10
47.4723
 20
79.2162
 30
0.0
 10
47.4723
 20
79.2162
 30
0.0
 10
41.3763
 20
84.9198
 30
0.0
 10
40.929
 20
94.4393
 30
0.0
 10
46.4623
 20
100.6887
 30
0.0
 10
46.4623
 20
100.6887
 30
0.0
 10
46.4623
 20
99.1309
 30
0.0
 10
47.154
 20
97.6534
 30
0.0
 10
48.347
 20
96.6508
 30
0.0
 10
48.347
 20
96.6508
 30
0.0
 10
47.9334
 20
99.3889
 30
0.0
 10
48.4549
 20
102.1874
 30
0.0
 10
49.8276
 20
104.5934
 30
0.0
 10
49.8276
 20
104.5934
 30
0.0
 10
51.4732
 20
101.043
 30
0.0
 10
54.8438
 20
98.6021
 30
0.0
 10
58.7316
 20
98.1483
 30
0.0
 10
58.7316
 20
98.1483
 30
0.0
 10
62.6161
 20
97.6967
 30
0.0
 10
66.4594
 20
99.2959
 30
0.0
 10
68.8772
 20
102.3725
 30
0.0
 10
68.8772
 20
102.3725
 30
0.0
 10
68.8772
 20
102.3725
 30
0.0
 10
68.9782
 20
102.4284
 30
0.0
 10
68.9782
 20
102.4284
 30
0.0
 10
68.9782
 20
102.4284
 30
0.0
 10
68.9782
 20
102.4284
 30
0.0
 10
68.9782
 20
102.4284
 30
0.0
 10
68.9782
 20
102.4284
 30
0.0
 10
68.9782
 20
102.4284
 30
0.0
 10
71.3937
 20
99.3518
 30
0.0
 10
75.4068
 20
97.6967
 30
0.0
 10
79.2935
 20
98.1483
 30
0.0
 10
79.2935
 20
98.1483
 30
0.0
 10
83.1791
 20
98.6021
 30
0.0
 10
86.5519
 20
101.043
 30
0.0
 10
88.1964
 20
104.5934
 30
0.0
 10
88.1964
 20
104.5934
 30
0.0
 10
89.5681
 20
102.1874
 30
0.0
 10
90.0906
 20
99.3889
 30
0.0
 10
89.676
 20
96.6508
 30
0.0
 10
89.676
 20
96.6508
 30
0.0
 10
90.87
 20
97.6534
 30
0.0
 10
91.5607
 20
99.1309
 30
0.0
 10
91.5607
 20
100.6887
 30
0.0
 10
91.5607
 20
100.6887
 30
0.0
 10
97.0961
 20
94.4393
 30
0.0
 10
96.6477
 20
84.9198
 30
0.0
 10
90.5527
 20
79.2162
 30
0.0
 10
90.5527
 20
79.2162
 30
0.0
 10
86.5635
 20
76.1851
 30
0.0
 10
80.9306
 20
76.6504
 30
0.0
 10
77.4946
 20
80.2939
 30
0.0
 10
77.4946
 20
80.2939
 30
0.0
 10
76.6601
 20
81.7756
 30
0.0
 10
76.6241
 20
83.5757
 30
0.0
 10
77.3951
 20
85.0901
 30
0.0
 10
77.3951
 20
85.0901
 30
0.0
 10
78.1661
 20
86.6046
 30
0.0
 10
79.6425
 20
87.6336
 30
0.0
 10
81.3294
 20
87.8325
 30
0.0
 10
81.3294
 20
87.8325
 30
0.0
 10
82.8894
 20
87.9604
 30
0.0
 10
84.4303
 20
87.4158
 30
0.0
 10
85.5619
 20
86.336
 30
0.0
 10
85.5619
 20
86.336
 30
0.0
 10
86.6935
 20
85.2551
 30
0.0
 10
87.3101
 20
83.7417
 30
0.0
 10
87.253
 20
82.1774
 30
0.0
 10
87.253
 20
82.1774
 30
0.0
 10
88.538
 20
83.786
 30
0.0
 10
89.2498
 20
85.7755
 30
0.0
 10
89.273
 20
87.8325
 30
0.0
 10
89.273
 20
87.8325
 30
0.0
 10
89.1895
 20
90.357
 30
0.0
 10
87.6888
 20
92.6171
 30
0.0
 10
85.3937
 20
93.6726
 30
0.0
 10
85.3937
 20
93.6726
 30
0.0
 10
83.0998
 20
94.728
 30
0.0
 10
80.405
 20
94.3938
 30
0.0
 10
78.4358
 20
92.8138
 30
0.0
 10
78.4358
 20
92.8138
 30
0.0
 10
77.8235
 20
93.6874
 30
0.0
 10
76.9138
 20
94.3093
 30
0.0
 10
75.8775
 20
94.563
 30
0.0
 10
75.8775
 20
94.563
 30
0.0
 10
73.5337
 20
94.9364
 30
0.0
 10
71.2399
 20
93.6557
 30
0.0
 10
70.3281
 20
91.4632
 30
0.0
 10
70.3281
 20
91.4632
 30
0.0
 10
69.4176
 20
89.273
 30
0.0
 10
70.1241
 20
86.7431
 30
0.0
 10
72.0415
 20
85.3418
 30
0.0
 10
72.0415
 20
85.3418
 30
0.0
 10
70.4276
 20
85.2329
 30
0.0
 10
69.1532
 20
83.9288
 30
0.0
 10
69.0791
 20
82.3139
 30
0.0
  0
SPLINE
  5
59
330
1F
100
AcDbEntity
  8
layer 1
 62
     7
370
     9
100
AcDbSpline
210
0.0
220
0.0
230
1.0
 70
    11
 71
     3
 72
    56
 73
    52
 74
     0
 42
0.0000000001
 43
0.0000000001
 12
1.0
 22
0.0
 32
0.0
 13
1.0
 23
0.0
 33
0.0
 40
0.0
 40
0.0
 40
0.0
 40
0.0
 40
0.0714285714285714
 40
0.0714285714285714
 40
0.0714285714285714
 40
0.0714285714285714
 40
0.1428571428571428
 40
0.1428571428571428
 40
0.1428571428571428
 40
0.1428571428571428
 40
0.2142857142857143
 40
0.2142857142857143
 40
0.2142857142857143
 40
0.2142857142857143
 40
0.2857142857142857
 40
0.2857142857142857
 40
0.2857142857142857
 40
0.2857142857142857
 40
0.3571428571428572
 40
0.3571428571428572
 40
0.3571428571428572
 40
0.3571428571428572
 40
0.4285714285714285
 40
0.4285714285714285
 40
0.4285714285714285
 40
0.4285714285714285
 40
0.5
 40
0.5
 40
0.5
 40
0.5
 40
0.5714285714285714
 40
0.5714285714285714
 40
0.5714285714285714
 40
0.5714285714285714
 40
0.6428571428571429
 40
0.6428571428571429
 40
0.6428571428571429
 40
0.6428571428571429
 40
0.7142857142857143
 40
0.7142857142857143
 40
0.7142857142857143
 40
0.7142857142857143
 40
0.7857142857142857
 40
0.7857142857142857
 40
0.7857142857142857
 40
0.7857142857142857
 40
0.8571428571428571
 40
0.8571428571428571
 40
0.8571428571428571
 40
0.8571428571428571
 40
1.0
 40
1.0
 40
1.0
 40
1.0
 10
44.7797
 20
104.3924
 30
0.0
 10
41.2695
 20
104.4347
 30
0.0
 10
37.9423
 20
102.8272
 30
0.0
 10
35.7943
 20
100.051
 30
0.0
 10
35.7943
 20
100.051
 30
0.0
 10
36.6774
 20
99.5941
 30
0.0
 10
37.3616
 20
98.8263
 30
0.0
 10
37.7128
 20
97.8966
 30
0.0
 10
37.7128
 20
97.8966
 30
0.0
 10
35.1227
 20
96.1273
 30
0.0
 10
33.2962
 20
93.4473
 30
0.0
 10
32.5971
 20
90.3908
 30
0.0
 10
32.5971
 20
90.3908
 30
0.0
 10
33.6209
 20
90.7197
 30
0.0
 10
34.7451
 20
90.4902
 30
0.0
 10
35.5584
 20
89.7848
 30
0.0
 10
35.5584
 20
89.7848
 30
0.0
 10
33.9001
 20
87.4274
 30
0.0
 10
33.0709
 20
84.5856
 30
0.0
 10
33.2021
 20
81.7079
 30
0.0
 10
33.2021
 20
81.7079
 30
0.0
 10
34.2988
 20
82.0178
 30
0.0
 10
35.4283
 20
82.1986
 30
0.0
 10
36.5684
 20
82.2452
 30
0.0
 10
36.5684
 20
82.2452
 30
0.0
 10
35.7541
 20
79.2067
 30
0.0
 10
36.4267
 20
75.9588
 30
0.0
 10
38.3854
 20
73.4946
 30
0.0
 10
38.3854
 20
73.4946
 30
0.0
 10
38.9967
 20
73.998
 30
0.0
 10
39.6492
 20
74.4485
 30
0.0
 10
40.3367
 20
74.8409
 30
0.0
 10
40.3367
 20
74.8409
 30
0.0
 10
43.9674
 20
70.73
 30
0.0
 10
49.9196
 20
69.5952
 30
0.0
 10
54.8089
 20
72.0816
 30
0.0
 10
54.8089
 20
72.0816
 30
0.0
 10
55.085
 20
72.437
 30
0.0
 10
55.1315
 20
72.9192
 30
0.0
 10
54.9305
 20
73.3201
 30
0.0
 10
54.9305
 20
73.3201
 30
0.0
 10
54.7296
 20
73.7219
 30
0.0
 10
54.3171
 20
73.9726
 30
0.0
 10
53.8666
 20
73.9673
 30
0.0
 10
53.8666
 20
73.9673
 30
0.0
 10
50.7953
 20
73.7071
 30
0.0
 10
47.7293
 20
74.5162
 30
0.0
 10
45.1826
 20
76.2549
 30
0.0
 10
45.1826
 20
76.2549
 30
0.0
 10
37.6715
 20
84.0685
 30
0.0
 10
37.4949
 20
96.3663
 30
0.0
 10
44.7797
 20
104.3924
 30
0.0
  0
SPLINE
  5
5A
330
1F
100
AcDbEntity
  8
layer 1
 62
     7
370
     9
100
AcDbSpline
210
0.0
220
0.0
230
1.0
 70
    11
 71
     3
 72
    84
 73
    80
 74
     0
 42
0.0000000001
 43
0.0000000001
 12
1.0
 22
0.0
 32
0.0
 13
1.0
 23
0.0
 33
0.0
 40
0.0
 40
0.0
 40
0.0
 40
0.0
 40
0.0476190476190476
 40
0.0476190476190476
 40
0.0476190476190476
 40
0.0476190476190476
 40
0.0952380952380952
 40
0.0952380952380952
 40
0.0952380952380952
 40
0.0952380952380952
 40
0.1428571428571428
 40
0.1428571428571428
 40
0.1428571428571428
 40
0.1428571428571428
 40
0.1904761904761905
 40
0.1904761904761905
 40
0.1904761904761905
 40
0.1904761904761905
 40
0.2380952380952381
 40
0.2380952380952381
 40
0.2380952380952381
 40
0.2380952380952381
 40
0.2857142857142857
 40
0.2857142857142857
 40
0.2857142857142857
 40
0.2857142857142857
 40
0.3333333333333333
 40
0.3333333333333333
 40
0.3333333333333333
 40
0.3333333333333333
 40
0.3809523809523809
 40
0.3809523809523809
 40
0.3809523809523809
 40
0.3809523809523809
 40
0.4285714285714285
 40
0.4285714285714285
 40
0.4285714285714285
 40
0.4285714285714285
 40
0.4761904761904762
 40
0.4761904761904762
 40
0.4761904761904762
 40
0.4761904761904762
 40
0.5238095238095238
 40
0.5238095238095238
 40
0.5238095238095238
 40
0.5238095238095238
 40
0.5714285714285714
 40
0.5714285714285714
 40
0.5714285714285714
 40
0.5714285714285714
 40
0.6190476190476191
 40
0.6190476190476191
 40
0.6190476190476191
 40
0.6190476190476191
 40
0.6666666666666666
 40
0.6666666666666666
 40
0.6666666666666666
 40
0.6666666666666666
 40
0.7142857142857143
 40
0.7142857142857143
 40
0.7142857142857143
 40
0.7142857142857143
 40
0.7619047619047619
 40
0.7619047619047619
 40
0.7619047619047619
 40
0.7619047619047619
 40
0.8095238095238095
 40
0.8095238095238095
 40
0.8095238095238095
 40
0.8095238095238095
 40
0.8571428571428571
 40
0.8571428571428571
 40
0.8571428571428571
 40
0.8571428571428571
 40
0.9047619047619048
 40
0.9047619047619048
 40
0.9047619047619048
 40
0.9047619047619048
 40
1.0
 40
1.0
 40
1.0
 40
1.0
 10
69.0791
 20
110.4884
 30
0.0
 10
68.3473
 20
111.6106
 30
0.0
 10
66.9555
 20
112.278
 30
0.0
 10
65.6177
 20
112.2568
 30
0.0
 10
65.6177
 20
112.2568
 30
0.0
 10
64.2777
 20
112.2345
 30
0.0
 10
63.0434
 20
111.5259
 30
0.0
 10
62.3486
 20
110.3817
 30
0.0
 10
62.3486
 20
110.3817
 30
0.0
 10
61.7119
 20
109.3008
 30
0.0
 10
61.6357
 20
107.9788
 30
0.0
 10
62.1434
 20
106.8324
 30
0.0
 10
62.1434
 20
106.8324
 30
0.0
 10
62.65
 20
105.6848
 30
0.0
 10
63.678
 20
104.8514
 30
0.0
 10
64.9059
 20
104.5934
 30
0.0
 10
64.9059
 20
104.5934
 30
0.0
 10
64.5737
 20
104.1048
 30
0.0
 10
64.1909
 20
103.6532
 30
0.0
 10
63.7625
 20
103.246
 30
0.0
 10
63.7625
 20
103.246
 30
0.0
 10
62.026
 20
102.0657
 30
0.0
 10
59.7998
 20
101.8849
 30
0.0
 10
57.896
 20
102.7669
 30
0.0
 10
57.896
 20
102.7669
 30
0.0
 10
55.9924
 20
103.65
 30
0.0
 10
54.6926
 20
105.468
 30
0.0
 10
54.4726
 20
107.5546
 30
0.0
 10
54.4726
 20
107.5546
 30
0.0
 10
54.0019
 20
113.2456
 30
0.0
 10
58.042
 20
118.319
 30
0.0
 10
63.6938
 20
119.1323
 30
0.0
 10
63.6938
 20
119.1323
 30
0.0
 10
63.6748
 20
117.8822
 30
0.0
 10
64.3876
 20
116.7336
 30
0.0
 10
65.5182
 20
116.1974
 30
0.0
 10
65.5182
 20
116.1974
 30
0.0
 10
66.6477
 20
115.6612
 30
0.0
 10
68.1231
 20
115.8336
 30
0.0
 10
69.0791
 20
116.6416
 30
0.0
 10
69.0791
 20
116.6416
 30
0.0
 10
70.0363
 20
115.8336
 30
0.0
 10
71.3763
 20
115.6612
 30
0.0
 10
72.5069
 20
116.1974
 30
0.0
 10
72.5069
 20
116.1974
 30
0.0
 10
73.6363
 20
116.7336
 30
0.0
 10
74.3502
 20
117.8822
 30
0.0
 10
74.3302
 20
119.1323
 30
0.0
 10
74.3302
 20
119.1323
 30
0.0
 10
79.982
 20
118.319
 30
0.0
 10
84.0231
 20
113.2456
 30
0.0
 10
83.5515
 20
107.5546
 30
0.0
 10
83.5515
 20
107.5546
 30
0.0
 10
83.3325
 20
105.468
 30
0.0
 10
82.0327
 20
103.65
 30
0.0
 10
80.129
 20
102.7669
 30
0.0
 10
80.129
 20
102.7669
 30
0.0
 10
78.2243
 20
101.8849
 30
0.0
 10
75.9969
 20
102.0657
 30
0.0
 10
74.2624
 20
103.246
 30
0.0
 10
74.2624
 20
103.246
 30
0.0
 10
73.8342
 20
103.6532
 30
0.0
 10
73.4492
 20
104.1048
 30
0.0
 10
73.1171
 20
104.5934
 30
0.0
 10
73.1171
 20
104.5934
 30
0.0
 10
74.3461
 20
104.8514
 30
0.0
 10
75.3751
 20
105.6848
 30
0.0
 10
75.8806
 20
106.8324
 30
0.0
 10
75.8806
 20
106.8324
 30
0.0
 10
76.3882
 20
107.9788
 30
0.0
 10
76.3121
 20
109.3008
 30
0.0
 10
75.6765
 20
110.3817
 30
0.0
 10
75.6765
 20
110.3817
 30
0.0
 10
74.9795
 20
111.5259
 30
0.0
 10
73.7453
 20
112.2345
 30
0.0
 10
72.4074
 20
112.2568
 30
0.0
 10
72.4074
 20
112.2568
 30
0.0
 10
71.0686
 20
112.278
 30
0.0
 10
69.8121
 20
111.6106
 30
0.0
 10
69.0791
 20
110.4884
 30
0.0
  0
SPLINE
  5
5B
330
1F
100
AcDbEntity
  8
layer 1
 62
     7
370
     9
100
AcDbSpline
210
0.0
220
0.0
230
1.0
 70
    11
 71
     3
 72
    32
 73
    28
 74
     0
 42
0.0000000001
 43
0.0000000001
 12
1.0
 22
0.0
 32
0.0
 13
1.0
 23
0.0
 33
0.0
 40
0.0
 40
0.0
 40
0.0
 40
0.0
 40
0.125
 40
0.125
 40
0.125
 40
0.125
 40
0.25
 40
0.25
 40
0.25
 40
0.25
 40
0.375
 40
0.375
 40
0.375
 40
0.375
 40
0.5
 40
0.5
 40
0.5
 40
0.5
 40
0.625
 40
0.625
 40
0.625
 40
0.625
 40
0.75
 40
0.75
 40
0.75
 40
0.75
 40
1.0
 40
1.0
 40
1.0
 40
1.0
 10
69.0791
 20
-104.4504
 30
0.0
 10
68.342
 20
-103.8602
 30
0.0
 10
67.1532
 20
-103.8793
 30
0.0
 10
66.4362
 20
-104.4948
 30
0.0
 10
66.4362
 20
-104.4948
 30
0.0
 10
65.7202
 20
-105.1104
 30
0.0
 10
65.5436
 20
-106.15
 30
0.0
 10
66.0163
 20
-106.9675
 30
0.0
 10
66.0163
 20
-106.9675
 30
0.0
 10
63.5427
 20
-106.0315
 30
0.0
 10
60.7452
 20
-106.7994
 30
0.0
 10
59.0975
 20
-108.869
 30
0.0
 10
59.0975
 20
-108.869
 30
0.0
 10
59.0975
 20
-108.869
 30
0.0
 10
78.9265
 20
-108.869
 30
0.0
 10
78.9265
 20
-108.869
 30
0.0
 10
78.9265
 20
-108.869
 30
0.0
 10
77.2788
 20
-106.7994
 30
0.0
 10
74.4814
 20
-106.0315
 30
0.0
 10
72.0066
 20
-106.9675
 30
0.0
 10
72.0066
 20
-106.9675
 30
0.0
 10
72.4804
 20
-106.15
 30
0.0
 10
72.3038
 20
-105.1104
 30
0.0
 10
71.5867
 20
-104.4948
 30
0.0
 10
71.5867
 20
-104.4948
 30
0.0
 10
70.8718
 20
-103.8793
 30
0.0
 10
69.8174
 20
-103.8602
 30
0.0
 10
69.0791
 20
-104.4504
 30
0.0
  0
SPLINE
  5
5C
330
1F
100
AcDbEntity
  8
layer 1
 62
     7
370
     9
100
AcDbSpline
210
0.0
220
0.0
230
1.0
 70
    11
 71
     3
 72
    28
 73
    24
 74
     0
 42
0.0000000001
 43
0.0000000001
 12
1.0
 22
0.0
 32
0.0
 13
1.0
 23
0.0
 33
0.0
 40
0.0
 40
0.0
 40
0.0
 40
0.0
 40
0.1428571428571428
 40
0.1428571428571428
 40
0.1428571428571428
 40
0.1428571428571428
 40
0.2857142857142857
 40
0.2857142857142857
 40
0.2857142857142857
 40
0.2857142857142857
 40
0.4285714285714285
 40
0.4285714285714285
 40
0.4285714285714285
 40
0.4285714285714285
 40
0.5714285714285714
 40
0.5714285714285714
 40
0.5714285714285714
 40
0.5714285714285714
 40
0.7142857142857143
 40
0.7142857142857143
 40
0.7142857142857143
 40
0.7142857142857143
 40
1.0
 40
1.0
 40
1.0
 40
1.0
 10
45.722
 20
-100.5066
 30
0.0
 10
47.3909
 20
-101.0534
 30
0.0
 10
48.6463
 20
-102.4389
 30
0.0
 10
49.0249
 20
-104.1543
 30
0.0
 10
49.0249
 20
-104.1543
 30
0.0
 10
49.4024
 20
-105.8687
 30
0.0
 10
48.8472
 20
-107.655
 30
0.0
 10
47.5633
 20
-108.8532
 30
0.0
 10
47.5633
 20
-108.8532
 30
0.0
 10
47.5633
 20
-108.8532
 30
0.0
 10
52.2897
 20
-108.8532
 30
0.0
 10
52.2897
 20
-108.8532
 30
0.0
 10
52.2897
 20
-108.8532
 30
0.0
 10
52.6514
 20
-107.5471
 30
0.0
 10
53.5504
 20
-106.4567
 30
0.0
 10
54.7624
 20
-105.8539
 30
0.0
 10
54.7624
 20
-105.8539
 30
0.0
 10
55.9755
 20
-105.25
 30
0.0
 10
57.3874
 20
-105.1907
 30
0.0
 10
58.647
 20
-105.6889
 30
0.0
 10
58.647
 20
-105.6889
 30
0.0
 10
56.0759
 20
-101.156
 30
0.0
 10
50.7128
 20
-99.0048
 30
0.0
 10
45.722
 20
-100.5066
 30
0.0
  0
SPLINE
  5
5D
330
1F
100
AcDbEntity
  8
layer 1
 62
     7
370
     9
100
AcDbSpline
210
0.0
220
0.0
230
1.0
 70
    11
 71
     3
 72
    28
 73
    24
 74
     0
 42
0.0000000001
 43
0.0000000001
 12
1.0
 22
0.0
 32
0.0
 13
1.0
 23
0.0
 33
0.0
 40
0.0
 40
0.0
 40
0.0
 40
0.0
 40
0.1428571428571428
 40
0.1428571428571428
 40
0.1428571428571428
 40
0.1428571428571428
 40
0.2857142857142857
 40
0.2857142857142857
 40
0.2857142857142857
 40
0.2857142857142857
 40
0.4285714285714285
 40
0.4285714285714285
 40
0.4285714285714285
 40
0.4285714285714285
 40
0.5714285714285714
 40
0.5714285714285714
 40
0.5714285714285714
 40
0.5714285714285714
 40
0.7142857142857143
 40
0.7142857142857143
 40
0.7142857142857143
 40
0.7142857142857143
 40
1.0
 40
1.0
 40
1.0
 40
1.0
 10
39.5297
 20
-103.1982
 30
0.0
 10
39.0527
 20
-105.3525
 30
0.0
 10
39.9157
 20
-107.582
 30
0.0
 10
41.72
 20
-108.8532
 30
0.0
 10
41.72
 20
-108.8532
 30
0.0
 10
41.72
 20
-108.8532
 30
0.0
 10
37.1596
 20
-108.8532
 30
0.0
 10
37.1596
 20
-108.8532
 30
0.0
 10
37.1596
 20
-108.8532
 30
0.0
 10
38.158
 20
-107.4551
 30
0.0
 10
38.2003
 20
-105.5916
 30
0.0
 10
37.2675
 20
-104.1501
 30
0.0
 10
37.2675
 20
-104.1501
 30
0.0
 10
36.3336
 20
-102.7096
 30
0.0
 10
34.615
 20
-101.9851
 30
0.0
 10
32.9334
 20
-102.3236
 30
0.0
 10
32.9334
 20
-102.3236
 30
0.0
 10
35.146
 20
-97.6595
 30
0.0
 10
40.471
 20
-95.3561
 30
0.0
 10
45.3857
 20
-96.9383
 30
0.0
 10
45.3857
 20
-96.9383
 30
0.0
 10
42.6824
 20
-98.1672
 30
0.0
 10
40.5757
 20
-100.4188
 30
0.0
 10
39.5297
 20
-103.1982
 30
0.0
  0
SPLINE
  5
5E
330
1F
100
AcDbEntity
  8
layer 1
 62
     7
370
     9
100
AcDbSpline
210
0.0
220
0.0
230
1.0
 70
    11
 71
     3
 72
    32
 73
    28
 74
     0
 42
0.0000000001
 43
0.0000000001
 12
1.0
 22
0.0
 32
0.0
 13
1.0
 23
0.0
 33
0.0
 40
0.0
 40
0.0
 40
0.0
 40
0.0
 40
0.125
 40
0.125
 40
0.125
 40
0.125
 40
0.25
 40
0.25
 40
0.25
 40
0.25
 40
0.375
 40
0.375
 40
0.375
 40
0.375
 40
0.5
 40
0.5
 40
0.5
 40
0.5
 40
0.625
 40
0.625
 40
0.625
 40
0.625
 40
0.75
 40
0.75
 40
0.75
 40
0.75
 40
1.0
 40
1.0
 40
1.0
 40
1.0
 10
43.905
 20
-93.775
 30
0.0
 10
37.2432
 20
-92.3239
 30
0.0
 10
30.5782
 20
-96.2096
 30
0.0
 10
28.5581
 20
-102.7212
 30
0.0
 10
28.5581
 20
-102.7212
 30
0.0
 10
28.5581
 20
-102.7212
 30
0.0
 10
28.5581
 20
-74.7899
 30
0.0
 10
28.5581
 20
-74.7899
 30
0.0
 10
28.5581
 20
-74.7899
 30
0.0
 10
29.7712
 20
-77.857
 30
0.0
 10
31.8822
 20
-80.4862
 30
0.0
 10
34.615
 20
-82.3328
 30
0.0
 10
34.615
 20
-82.3328
 30
0.0
 10
34.1158
 20
-83.1154
 30
0.0
 10
33.256
 20
-83.5945
 30
0.0
 10
32.3274
 20
-83.6103
 30
0.0
 10
32.3274
 20
-83.6103
 30
0.0
 10
34.0577
 20
-87.4727
 30
0.0
 10
37.7381
 20
-90.0977
 30
0.0
 10
41.9537
 20
-90.4763
 30
0.0
 10
41.9537
 20
-90.4763
 30
0.0
 10
41.3848
 20
-91.1711
 30
0.0
 10
40.471
 20
-91.4853
 30
0.0
 10
39.5963
 20
-91.2843
 30
0.0
 10
39.5963
 20
-91.2843
 30
0.0
 10
41.1711
 20
-91.8491
 30
0.0
 10
42.6296
 20
-92.693
 30
0.0
 10
43.905
 20
-93.775
 30
0.0
  0
SPLINE
  5
5F
330
1F
100
AcDbEntity
  8
layer 1
 62
     7
370
     9
100
AcDbSpline
210
0.0
220
0.0
230
1.0
 70
    11
 71
     3
 72
    96
 73
    92
 74
     0
 42
0.0000000001
 43
0.0000000001
 12
1.0
 22
0.0
 32
0.0
 13
1.0
 23
0.0
 33
0.0
 40
0.0
 40
0.0
 40
0.0
 40
0.0
 40
0.0416666666666667
 40
0.0416666666666667
 40
0.0416666666666667
 40
0.0416666666666667
 40
0.0833333333333333
 40
0.0833333333333333
 40
0.0833333333333333
 40
0.0833333333333333
 40
0.125
 40
0.125
 40
0.125
 40
0.125
 40
0.1666666666666667
 40
0.1666666666666667
 40
0.1666666666666667
 40
0.1666666666666667
 40
0.2083333333333333
 40
0.2083333333333333
 40
0.2083333333333333
 40
0.2083333333333333
 40
0.25
 40
0.25
 40
0.25
 40
0.25
 40
0.2916666666666667
 40
0.2916666666666667
 40
0.2916666666666667
 40
0.2916666666666667
 40
0.3333333333333333
 40
0.3333333333333333
 40
0.3333333333333333
 40
0.3333333333333333
 40
0.375
 40
0.375
 40
0.375
 40
0.375
 40
0.4166666666666667
 40
0.4166666666666667
 40
0.4166666666666667
 40
0.4166666666666667
 40
0.4583333333333333
 40
0.4583333333333333
 40
0.4583333333333333
 40
0.4583333333333333
 40
0.5
 40
0.5
 40
0.5
 40
0.5
 40
0.5416666666666666
 40
0.5416666666666666
 40
0.5416666666666666
 40
0.5416666666666666
 40
0.5833333333333334
 40
0.5833333333333334
 40
0.5833333333333334
 40
0.5833333333333334
 40
0.625
 40
0.625
 40
0.625
 40
0.625
 40
0.6666666666666666
 40
0.6666666666666666
 40
0.6666666666666666
 40
0.6666666666666666
 40
0.7083333333333334
 40
0.7083333333333334
 40
0.7083333333333334
 40
0.7083333333333334
 40
0.75
 40
0.75
 40
0.75
 40
0.75
 40
0.7916666666666666
 40
0.7916666666666666
 40
0.7916666666666666
 40
0.7916666666666666
 40
0.8333333333333334
 40
0.8333333333333334
 40
0.8333333333333334
 40
0.8333333333333334
 40
0.875
 40
0.875
 40
0.875
 40
0.875
 40
0.9166666666666666
 40
0.9166666666666666
 40
0.9166666666666666
 40
0.9166666666666666
 40
1.0
 40
1.0
 40
1.0
 40
1.0
 10
31.7204
 20
-71.4944
 30
0.0
 10
30.8214
 20
-72.1829
 30
0.0
 10
29.6718
 20
-72.4568
 30
0.0
 10
28.5581
 20
-72.2485
 30
0.0
 10
28.5581
 20
-72.2485
 30
0.0
 10
28.5581
 20
-72.2485
 30
0.0
 10
28.5581
 20
-42.3437
 30
0.0
 10
28.5581
 20
-42.3437
 30
0.0
 10
28.5581
 20
-42.3437
 30
0.0
 10
29.1948
 20
-44.1437
 30
0.0
 10
30.9621
 20
-45.2902
 30
0.0
 10
32.8647
 20
-45.1421
 30
0.0
 10
32.8647
 20
-45.1421
 30
0.0
 10
31.6411
 20
-46.0517
 30
0.0
 10
31.1091
 20
-47.6254
 30
0.0
 10
31.5268
 20
-49.0912
 30
0.0
 10
31.5268
 20
-49.0912
 30
0.0
 10
31.9467
 20
-50.5581
 30
0.0
 10
33.2306
 20
-51.6125
 30
0.0
 10
34.7504
 20
-51.7384
 30
0.0
 10
34.7504
 20
-51.7384
 30
0.0
 10
35.7023
 20
-51.7046
 30
0.0
 10
36.5875
 20
-51.2381
 30
0.0
 10
37.1512
 20
-50.4703
 30
0.0
 10
37.1512
 20
-50.4703
 30
0.0
 10
37.7149
 20
-49.7025
 30
0.0
 10
37.8978
 20
-48.72
 30
0.0
 10
37.6451
 20
-47.8009
 30
0.0
 10
37.6451
 20
-47.8009
 30
0.0
 10
37.5256
 20
-47.1473
 30
0.0
 10
37.3912
 20
-46.4959
 30
0.0
 10
37.2421
 20
-45.8486
 30
0.0
 10
37.2421
 20
-45.8486
 30
0.0
 10
38.0565
 20
-47.1865
 30
0.0
 10
39.5953
 20
-47.9035
 30
0.0
 10
41.1447
 20
-47.6666
 30
0.0
 10
41.1447
 20
-47.6666
 30
0.0
 10
42.5841
 20
-47.4815
 30
0.0
 10
43.7929
 20
-46.4885
 30
0.0
 10
44.2519
 20
-45.1115
 30
0.0
 10
44.2519
 20
-45.1115
 30
0.0
 10
44.7109
 20
-43.7345
 30
0.0
 10
44.3408
 20
-42.2157
 30
0.0
 10
43.299
 20
-41.2036
 30
0.0
 10
43.299
 20
-41.2036
 30
0.0
 10
42.3683
 20
-42.5404
 30
0.0
 10
40.5545
 20
-42.9116
 30
0.0
 10
39.1722
 20
-42.0507
 30
0.0
 10
39.1722
 20
-42.0507
 30
0.0
 10
37.791
 20
-41.1899
 30
0.0
 10
37.3257
 20
-39.3972
 30
0.0
 10
38.1157
 20
-37.9726
 30
0.0
 10
38.1157
 20
-37.9726
 30
0.0
 10
38.7979
 20
-36.4031
 30
0.0
 10
40.1696
 20
-35.2377
 30
0.0
 10
41.8279
 20
-34.8167
 30
0.0
 10
41.8279
 20
-34.8167
 30
0.0
 10
43.4883
 20
-34.3948
 30
0.0
 10
45.2482
 20
-34.7649
 30
0.0
 10
46.5966
 20
-35.8183
 30
0.0
 10
46.5966
 20
-35.8183
 30
0.0
 10
49.651
 20
-38.2814
 30
0.0
 10
51.6689
 20
-41.8012
 30
0.0
 10
52.2516
 20
-45.6794
 30
0.0
 10
52.2516
 20
-45.6794
 30
0.0
 10
50.753
 20
-45.6001
 30
0.0
 10
49.2512
 20
-45.7703
 30
0.0
 10
47.8097
 20
-46.1849
 30
0.0
 10
47.8097
 20
-46.1849
 30
0.0
 10
50.771
 20
-47.2446
 30
0.0
 10
53.269
 20
-49.3048
 30
0.0
 10
54.8766
 20
-52.0081
 30
0.0
 10
54.8766
 20
-52.0081
 30
0.0
 10
49.3263
 20
-50.0557
 30
0.0
 10
43.1658
 20
-51.0573
 30
0.0
 10
38.5197
 20
-54.6658
 30
0.0
 10
38.5197
 20
-54.6658
 30
0.0
 10
37.6599
 20
-54.2936
 30
0.0
 10
37.0507
 20
-53.5067
 30
0.0
 10
36.9047
 20
-52.5792
 30
0.0
 10
36.9047
 20
-52.5792
 30
0.0
 10
34.3898
 20
-55.0498
 30
0.0
 10
33.0646
 20
-58.4848
 30
0.0
 10
33.2698
 20
-62.0024
 30
0.0
 10
33.2698
 20
-62.0024
 30
0.0
 10
32.4639
 20
-61.9115
 30
0.0
 10
31.6506
 20
-61.9115
 30
0.0
 10
30.8468
 20
-62.0024
 30
0.0
 10
30.8468
 20
-62.0024
 30
0.0
 10
30.281
 20
-65.189
 30
0.0
 10
30.5824
 20
-68.4665
 30
0.0
 10
31.7204
 20
-71.4944
 30
0.0
  0
SPLINE
  5
60
330
1F
100
AcDbEntity
  8
layer 1
 62
     7
370
     9
100
AcDbSpline
210
0.0
220
0.0
230
1.0
 70
    11
 71
     3
 72
    56
 73
    52
 74
     0
 42
0.0000000001
 43
0.0000000001
 12
1.0
 22
0.0
 32
0.0
 13
1.0
 23
0.0
 33
0.0
 40
0.0
 40
0.0
 40
0.0
 40
0.0
 40
0.0714285714285714
 40
0.0714285714285714
 40
0.0714285714285714
 40
0.0714285714285714
 40
0.1428571428571428
 40
0.1428571428571428
 40
0.1428571428571428
 40
0.1428571428571428
 40
0.2142857142857143
 40
0.2142857142857143
 40
0.2142857142857143
 40
0.2142857142857143
 40
0.2857142857142857
 40
0.2857142857142857
 40
0.2857142857142857
 40
0.2857142857142857
 40
0.3571428571428572
 40
0.3571428571428572
 40
0.3571428571428572
 40
0.3571428571428572
 40
0.4285714285714285
 40
0.4285714285714285
 40
0.4285714285714285
 40
0.4285714285714285
 40
0.5
 40
0.5
 40
0.5
 40
0.5
 40
0.5714285714285714
 40
0.5714285714285714
 40
0.5714285714285714
 40
0.5714285714285714
 40
0.6428571428571429
 40
0.6428571428571429
 40
0.6428571428571429
 40
0.6428571428571429
 40
0.7142857142857143
 40
0.7142857142857143
 40
0.7142857142857143
 40
0.7142857142857143
 40
0.7857142857142857
 40
0.7857142857142857
 40
0.7857142857142857
 40
0.7857142857142857
 40
0.8571428571428571
 40
0.8571428571428571
 40
0.8571428571428571
 40
0.8571428571428571
 40
1.0
 40
1.0
 40
1.0
 40
1.0
 10
57.8379
 20
2.2798
 30
0.0
 10
54.7719
 20
3.4326
 30
0.0
 10
51.3812
 20
3.3839
 30
0.0
 10
48.347
 20
2.1444
 30
0.0
 10
48.347
 20
2.1444
 30
0.0
 10
47.7367
 20
3.2475
 30
0.0
 10
47.0154
 20
4.285
 30
0.0
 10
46.1926
 20
5.2411
 30
0.0
 10
46.1926
 20
5.2411
 30
0.0
 10
43.5127
 20
3.9339
 30
0.0
 10
41.3372
 20
1.7827
 30
0.0
 10
40.0004
 20
-0.8846
 30
0.0
 10
40.0004
 20
-0.8846
 30
0.0
 10
38.9808
 20
-1.1574
 30
0.0
 10
37.8978
 20
-0.7524
 30
0.0
 10
37.3088
 20
0.1254
 30
0.0
 10
37.3088
 20
0.1254
 30
0.0
 10
36.4489
 20
-3.5995
 30
0.0
 10
36.6351
 20
-7.4893
 30
0.0
 10
37.846
 20
-11.1158
 30
0.0
 10
37.846
 20
-11.1158
 30
0.0
 10
36.8815
 20
-11.4913
 30
0.0
 10
35.8524
 20
-11.6732
 30
0.0
 10
34.8181
 20
-11.6552
 30
0.0
 10
34.8181
 20
-11.6552
 30
0.0
 10
34.6224
 20
-15.158
 30
0.0
 10
35.7795
 20
-18.6026
 30
0.0
 10
38.0491
 20
-21.2794
 30
0.0
 10
38.0491
 20
-21.2794
 30
0.0
 10
37.3098
 20
-21.8579
 30
0.0
 10
36.6139
 20
-22.4893
 30
0.0
 10
35.9624
 20
-23.1641
 30
0.0
 10
35.9624
 20
-23.1641
 30
0.0
 10
37.7794
 20
-27.0317
 30
0.0
 10
41.2832
 20
-29.8407
 30
0.0
 10
45.4523
 20
-30.7703
 30
0.0
 10
45.4523
 20
-30.7703
 30
0.0
 10
40.1569
 20
-24.5083
 30
0.0
 10
38.9512
 20
-15.7503
 30
0.0
 10
42.3567
 20
-8.2878
 30
0.0
 10
42.3567
 20
-8.2878
 30
0.0
 10
45.6279
 20
-2.9617
 30
0.0
 10
51.8117
 20
-0.1612
 30
0.0
 10
57.9733
 20
-1.2209
 30
0.0
 10
57.9733
 20
-1.2209
 30
0.0
 10
60.1139
 20
-1.6439
 30
0.0
 10
62.3105
 20
-0.8084
 30
0.0
 10
63.6262
 20
0.9334
 30
0.0
 10
63.6262
 20
0.9334
 30
0.0
 10
61.6326
 20
1.0328
 30
0.0
 10
59.6728
 20
1.4897
 30
0.0
 10
57.8379
 20
2.2798
 30
0.0
  0
SPLINE
  5
61
330
1F
100
AcDbEntity
  8
layer 1
 62
     7
370
     9
100
AcDbSpline
210
0.0
220
0.0
230
1.0
 70
    11
 71
     3
 72
   124
 73
   120
 74
     0
 42
0.0000000001
 43
0.0000000001
 12
1.0
 22
0.0
 32
0.0
 13
1.0
 23
0.0
 33
0.0
 40
0.0
 40
0.0
 40
0.0
 40
0.0
 40
0.032258064516129
 40
0.032258064516129
 40
0.032258064516129
 40
0.032258064516129
 40
0.0645161290322581
 40
0.0645161290322581
 40
0.0645161290322581
 40
0.0645161290322581
 40
0.0967741935483871
 40
0.0967741935483871
 40
0.0967741935483871
 40
0.0967741935483871
 40
0.1290322580645161
 40
0.1290322580645161
 40
0.1290322580645161
 40
0.1290322580645161
 40
0.1612903225806452
 40
0.1612903225806452
 40
0.1612903225806452
 40
0.1612903225806452
 40
0.1935483870967742
 40
0.1935483870967742
 40
0.1935483870967742
 40
0.1935483870967742
 40
0.2258064516129032
 40
0.2258064516129032
 40
0.2258064516129032
 40
0.2258064516129032
 40
0.2580645161290323
 40
0.2580645161290323
 40
0.2580645161290323
 40
0.2580645161290323
 40
0.2903225806451613
 40
0.2903225806451613
 40
0.2903225806451613
 40
0.2903225806451613
 40
0.3225806451612903
 40
0.3225806451612903
 40
0.3225806451612903
 40
0.3225806451612903
 40
0.3548387096774194
 40
0.3548387096774194
 40
0.3548387096774194
 40
0.3548387096774194
 40
0.3870967741935484
 40
0.3870967741935484
 40
0.3870967741935484
 40
0.3870967741935484
 40
0.4193548387096774
 40
0.4193548387096774
 40
0.4193548387096774
 40
0.4193548387096774
 40
0.4516129032258064
 40
0.4516129032258064
 40
0.4516129032258064
 40
0.4516129032258064
 40
0.4838709677419355
 40
0.4838709677419355
 40
0.4838709677419355
 40
0.4838709677419355
 40
0.5161290322580645
 40
0.5161290322580645
 40
0.5161290322580645
 40
0.5161290322580645
 40
0.5483870967741935
 40
0.5483870967741935
 40
0.5483870967741935
 40
0.5483870967741935
 40
0.5806451612903226
 40
0.5806451612903226
 40
0.5806451612903226
 40
0.5806451612903226
 40
0.6129032258064516
 40
0.6129032258064516
 40
0.6129032258064516
 40
0.6129032258064516
 40
0.6451612903225806
 40
0.6451612903225806
 40
0.6451612903225806
 40
0.6451612903225806
 40
0.6774193548387096
 40
0.6774193548387096
 40
0.6774193548387096
 40
0.6774193548387096
 40
0.7096774193548387
 40
0.7096774193548387
 40
0.7096774193548387
 40
0.7096774193548387
 40
0.7419354838709677
 40
0.7419354838709677
 40
0.7419354838709677
 40
0.7419354838709677
 40
0.7741935483870968
 40
0.7741935483870968
 40
0.7741935483870968
 40
0.7741935483870968
 40
0.8064516129032258
 40
0.8064516129032258
 40
0.8064516129032258
 40
0.8064516129032258
 40
0.8387096774193549
 40
0.8387096774193549
 40
0.8387096774193549
 40
0.8387096774193549
 40
0.8709677419354839
 40
0.8709677419354839
 40
0.8709677419354839
 40
0.8709677419354839
 40
0.9032258064516129
 40
0.9032258064516129
 40
0.9032258064516129
 40
0.9032258064516129
 40
0.9354838709677419
 40
0.9354838709677419
 40
0.9354838709677419
 40
0.9354838709677419
 40
1.0
 40
1.0
 40
1.0
 40
1.0
 10
68.9448
 20
0.4892
 30
0.0
 10
71.0199
 20
-1.2156
 30
0.0
 10
73.4978
 20
-2.5662
 30
0.0
 10
76.0118
 20
-3.5096
 30
0.0
 10
76.0118
 20
-3.5096
 30
0.0
 10
73.6945
 20
-3.9463
 30
0.0
 10
71.8638
 20
-5.7305
 30
0.0
 10
71.3657
 20
-8.035
 30
0.0
 10
71.3657
 20
-8.035
 30
0.0
 10
70.8655
 20
-10.3406
 30
0.0
 10
71.7961
 20
-12.7202
 30
0.0
 10
73.7242
 20
-14.0771
 30
0.0
 10
73.7242
 20
-14.0771
 30
0.0
 10
73.3117
 20
-16.3108
 30
0.0
 10
74.4581
 20
-18.5423
 30
0.0
 10
76.5141
 20
-19.5079
 30
0.0
 10
76.5141
 20
-19.5079
 30
0.0
 10
78.5712
 20
-20.4725
 30
0.0
 10
81.0195
 20
-19.9289
 30
0.0
 10
82.4737
 20
-18.1838
 30
0.0
 10
82.4737
 20
-18.1838
 30
0.0
 10
84.3806
 20
-18.5402
 30
0.0
 10
86.335
 20
-17.876
 30
0.0
 10
87.6274
 20
-16.4303
 30
0.0
 10
87.6274
 20
-16.4303
 30
0.0
 10
88.9219
 20
-14.9867
 30
0.0
 10
89.3661
 20
-12.9709
 30
0.0
 10
88.8024
 20
-11.1158
 30
0.0
 10
88.8024
 20
-11.1158
 30
0.0
 10
87.9521
 20
-12.9815
 30
0.0
 10
86.1267
 20
-14.2093
 30
0.0
 10
84.0802
 20
-14.2961
 30
0.0
 10
84.0802
 20
-14.2961
 30
0.0
 10
82.0327
 20
-14.3796
 30
0.0
 10
80.11
 20
-13.3072
 30
0.0
 10
79.1084
 20
-11.5188
 30
0.0
 10
79.1084
 20
-11.5188
 30
0.0
 10
78.4601
 20
-8.6812
 30
0.0
 10
80.0158
 20
-5.8014
 30
0.0
 10
82.7434
 20
-4.7893
 30
0.0
 10
82.7434
 20
-4.7893
 30
0.0
 10
85.2129
 20
-4.2774
 30
0.0
 10
87.7829
 20
-4.7903
 30
0.0
 10
89.8642
 20
-6.2128
 30
0.0
 10
89.8642
 20
-6.2128
 30
0.0
 10
91.9467
 20
-7.6353
 30
0.0
 10
93.3607
 20
-9.8414
 30
0.0
 10
93.7816
 20
-12.3268
 30
0.0
 10
93.7816
 20
-12.3268
 30
0.0
 10
95.3331
 20
-18.0463
 30
0.0
 10
93.6568
 20
-24.154
 30
0.0
 10
89.4074
 20
-28.2797
 30
0.0
 10
89.4074
 20
-28.2797
 30
0.0
 10
87.3239
 20
-24.8023
 30
0.0
 10
83.6963
 20
-22.5358
 30
0.0
 10
79.6573
 20
-22.189
 30
0.0
 10
79.6573
 20
-22.189
 30
0.0
 10
75.6183
 20
-21.8421
 30
0.0
 10
71.6576
 20
-23.457
 30
0.0
 10
69.0115
 20
-26.5304
 30
0.0
 10
69.0115
 20
-26.5304
 30
0.0
 10
66.3664
 20
-23.457
 30
0.0
 10
62.4067
 20
-21.8421
 30
0.0
 10
58.3667
 20
-22.189
 30
0.0
 10
58.3667
 20
-22.189
 30
0.0
 10
54.3267
 20
-22.5358
 30
0.0
 10
50.6991
 20
-24.8023
 30
0.0
 10
48.6166
 20
-28.2797
 30
0.0
 10
48.6166
 20
-28.2797
 30
0.0
 10
44.3672
 20
-24.154
 30
0.0
 10
42.6909
 20
-18.0463
 30
0.0
 10
44.2413
 20
-12.3268
 30
0.0
 10
44.2413
 20
-12.3268
 30
0.0
 10
44.6623
 20
-9.8414
 30
0.0
 10
46.0784
 20
-7.6353
 30
0.0
 10
48.1587
 20
-6.2128
 30
0.0
 10
48.1587
 20
-6.2128
 30
0.0
 10
50.2422
 20
-4.7903
 30
0.0
 10
52.8111
 20
-4.2774
 30
0.0
 10
55.2806
 20
-4.7893
 30
0.0
 10
55.2806
 20
-4.7893
 30
0.0
 10
58.0103
 20
-5.8014
 30
0.0
 10
59.565
 20
-8.6812
 30
0.0
 10
58.9145
 20
-11.5188
 30
0.0
 10
58.9145
 20
-11.5188
 30
0.0
 10
57.914
 20
-13.3072
 30
0.0
 10
55.9924
 20
-14.3796
 30
0.0
 10
53.9449
 20
-14.2961
 30
0.0
 10
53.9449
 20
-14.2961
 30
0.0
 10
51.8973
 20
-14.2093
 30
0.0
 10
50.0709
 20
-12.9815
 30
0.0
 10
49.2227
 20
-11.1158
 30
0.0
 10
49.2227
 20
-11.1158
 30
0.0
 10
48.6579
 20
-12.9709
 30
0.0
 10
49.1021
 20
-14.9867
 30
0.0
 10
50.3966
 20
-16.4303
 30
0.0
 10
50.3966
 20
-16.4303
 30
0.0
 10
51.689
 20
-17.876
 30
0.0
 10
53.6434
 20
-18.5402
 30
0.0
 10
55.5492
 20
-18.1838
 30
0.0
 10
55.5492
 20
-18.1838
 30
0.0
 10
57.0045
 20
-19.9289
 30
0.0
 10
59.4529
 20
-20.4725
 30
0.0
 10
61.5088
 20
-19.5079
 30
0.0
 10
61.5088
 20
-19.5079
 30
0.0
 10
63.5659
 20
-18.5423
 30
0.0
 10
64.7123
 20
-16.3108
 30
0.0
 10
64.2999
 20
-14.0771
 30
0.0
 10
64.2999
 20
-14.0771
 30
0.0
 10
66.23
 20
-12.7202
 30
0.0
 10
67.1586
 20
-10.3406
 30
0.0
 10
66.6594
 20
-8.035
 30
0.0
 10
66.6594
 20
-8.035
 30
0.0
 10
66.1591
 20
-5.7305
 30
0.0
 10
64.3295
 20
-3.9463
 30
0.0
 10
62.0123
 20
-3.5096
 30
0.0
 10
62.0123
 20
-3.5096
 30
0.0
 10
64.5272
 20
-2.5662
 30
0.0
 10
66.8698
 20
-1.2156
 30
0.0
 10
68.9448
 20
0.4892
 30
0.0
  0
SPLINE
  5
62
330
1F
100
AcDbEntity
  8
layer 1
 62
     7
370
     9
100
AcDbSpline
210
0.0
220
0.0
230
1.0
 70
    11
 71
     3
 72
   148
 73
   144
 74
     0
 42
0.0000000001
 43
0.0000000001
 12
1.0
 22
0.0
 32
0.0
 13
1.0
 23
0.0
 33
0.0
 40
0.0
 40
0.0
 40
0.0
 40
0.0
 40
0.027027027027027
 40
0.027027027027027
 40
0.027027027027027
 40
0.027027027027027
 40
0.0540540540540541
 40
0.0540540540540541
 40
0.0540540540540541
 40
0.0540540540540541
 40
0.0810810810810811
 40
0.0810810810810811
 40
0.0810810810810811
 40
0.0810810810810811
 40
0.1081081081081081
 40
0.1081081081081081
 40
0.1081081081081081
 40
0.1081081081081081
 40
0.1351351351351351
 40
0.1351351351351351
 40
0.1351351351351351
 40
0.1351351351351351
 40
0.1621621621621622
 40
0.1621621621621622
 40
0.1621621621621622
 40
0.1621621621621622
 40
0.1891891891891892
 40
0.1891891891891892
 40
0.1891891891891892
 40
0.1891891891891892
 40
0.2162162162162162
 40
0.2162162162162162
 40
0.2162162162162162
 40
0.2162162162162162
 40
0.2432432432432433
 40
0.2432432432432433
 40
0.2432432432432433
 40
0.2432432432432433
 40
0.2702702702702703
 40
0.2702702702702703
 40
0.2702702702702703
 40
0.2702702702702703
 40
0.2972972972972973
 40
0.2972972972972973
 40
0.2972972972972973
 40
0.2972972972972973
 40
0.3243243243243243
 40
0.3243243243243243
 40
0.3243243243243243
 40
0.3243243243243243
 40
0.3513513513513514
 40
0.3513513513513514
 40
0.3513513513513514
 40
0.3513513513513514
 40
0.3783783783783784
 40
0.3783783783783784
 40
0.3783783783783784
 40
0.3783783783783784
 40
0.4054054054054054
 40
0.4054054054054054
 40
0.4054054054054054
 40
0.4054054054054054
 40
0.4324324324324325
 40
0.4324324324324325
 40
0.4324324324324325
 40
0.4324324324324325
 40
0.4594594594594595
 40
0.4594594594594595
 40
0.4594594594594595
 40
0.4594594594594595
 40
0.4864864864864865
 40
0.4864864864864865
 40
0.4864864864864865
 40
0.4864864864864865
 40
0.5135135135135135
 40
0.5135135135135135
 40
0.5135135135135135
 40
0.5135135135135135
 40
0.5405405405405406
 40
0.5405405405405406
 40
0.5405405405405406
 40
0.5405405405405406
 40
0.5675675675675675
 40
0.5675675675675675
 40
0.5675675675675675
 40
0.5675675675675675
 40
0.5945945945945946
 40
0.5945945945945946
 40
0.5945945945945946
 40
0.5945945945945946
 40
0.6216216216216216
 40
0.6216216216216216
 40
0.6216216216216216
 40
0.6216216216216216
 40
0.6486486486486487
 40
0.6486486486486487
 40
0.6486486486486487
 40
0.6486486486486487
 40
0.6756756756756757
 40
0.6756756756756757
 40
0.6756756756756757
 40
0.6756756756756757
 40
0.7027027027027027
 40
0.7027027027027027
 40
0.7027027027027027
 40
0.7027027027027027
 40
0.7297297297297297
 40
0.7297297297297297
 40
0.7297297297297297
 40
0.7297297297297297
 40
0.7567567567567568
 40
0.7567567567567568
 40
0.7567567567567568
 40
0.7567567567567568
 40
0.7837837837837838
 40
0.7837837837837838
 40
0.7837837837837838
 40
0.7837837837837838
 40
0.8108108108108109
 40
0.8108108108108109
 40
0.8108108108108109
 40
0.8108108108108109
 40
0.8378378378378378
 40
0.8378378378378378
 40
0.8378378378378378
 40
0.8378378378378378
 40
0.8648648648648649
 40
0.8648648648648649
 40
0.8648648648648649
 40
0.8648648648648649
 40
0.8918918918918919
 40
0.8918918918918919
 40
0.8918918918918919
 40
0.8918918918918919
 40
0.918918918918919
 40
0.918918918918919
 40
0.918918918918919
 40
0.918918918918919
 40
0.9459459459459459
 40
0.9459459459459459
 40
0.9459459459459459
 40
0.9459459459459459
 40
1.0
 40
1.0
 40
1.0
 40
1.0
 10
69.0791
 20
-66.3111
 30
0.0
 10
69.0051
 20
-67.9272
 30
0.0
 10
67.5964
 20
-69.2301
 30
0.0
 10
65.9836
 20
-69.3412
 30
0.0
 10
65.9836
 20
-69.3412
 30
0.0
 10
67.9
 20
-70.7403
 30
0.0
 10
68.6086
 20
-73.2712
 30
0.0
 10
67.6958
 20
-75.4615
 30
0.0
 10
67.6958
 20
-75.4615
 30
0.0
 10
66.7852
 20
-77.6539
 30
0.0
 10
64.4892
 20
-78.9346
 30
0.0
 10
62.1456
 20
-78.5624
 30
0.0
 10
62.1456
 20
-78.5624
 30
0.0
 10
61.1101
 20
-78.3085
 30
0.0
 10
60.2006
 20
-77.6856
 30
0.0
 10
59.5882
 20
-76.811
 30
0.0
 10
59.5882
 20
-76.811
 30
0.0
 10
57.6189
 20
-78.3932
 30
0.0
 10
54.9242
 20
-78.7253
 30
0.0
 10
52.6302
 20
-77.6718
 30
0.0
 10
52.6302
 20
-77.6718
 30
0.0
 10
50.3353
 20
-76.6164
 30
0.0
 10
48.8334
 20
-74.3553
 30
0.0
 10
48.7509
 20
-71.8318
 30
0.0
 10
48.7509
 20
-71.8318
 30
0.0
 10
48.7743
 20
-69.7737
 30
0.0
 10
49.4849
 20
-67.7833
 30
0.0
 10
50.7709
 20
-66.1768
 30
0.0
 10
50.7709
 20
-66.1768
 30
0.0
 10
50.7149
 20
-67.741
 30
0.0
 10
51.3304
 20
-69.2534
 30
0.0
 10
52.4632
 20
-70.3332
 30
0.0
 10
52.4632
 20
-70.3332
 30
0.0
 10
53.5937
 20
-71.4152
 30
0.0
 10
55.1347
 20
-71.9598
 30
0.0
 10
56.6935
 20
-71.8318
 30
0.0
 10
56.6935
 20
-71.8318
 30
0.0
 10
58.3815
 20
-71.6319
 30
0.0
 10
59.859
 20
-70.6028
 30
0.0
 10
60.63
 20
-69.0884
 30
0.0
 10
60.63
 20
-69.0884
 30
0.0
 10
61.401
 20
-67.5729
 30
0.0
 10
61.3639
 20
-65.7728
 30
0.0
 10
60.5305
 20
-64.2922
 30
0.0
 10
60.5305
 20
-64.2922
 30
0.0
 10
57.0933
 20
-60.6476
 30
0.0
 10
51.4606
 20
-60.1844
 30
0.0
 10
47.4723
 20
-63.2155
 30
0.0
 10
47.4723
 20
-63.2155
 30
0.0
 10
41.3763
 20
-68.9181
 30
0.0
 10
40.929
 20
-78.4387
 30
0.0
 10
46.4623
 20
-84.688
 30
0.0
 10
46.4623
 20
-84.688
 30
0.0
 10
46.4623
 20
-83.1291
 30
0.0
 10
47.154
 20
-81.6506
 30
0.0
 10
48.347
 20
-80.649
 30
0.0
 10
48.347
 20
-80.649
 30
0.0
 10
47.9334
 20
-83.3872
 30
0.0
 10
48.4549
 20
-86.1856
 30
0.0
 10
49.8276
 20
-88.5916
 30
0.0
 10
49.8276
 20
-88.5916
 30
0.0
 10
51.4732
 20
-85.0413
 30
0.0
 10
54.8438
 20
-82.6003
 30
0.0
 10
58.7316
 20
-82.1477
 30
0.0
 10
58.7316
 20
-82.1477
 30
0.0
 10
62.6161
 20
-81.6939
 30
0.0
 10
66.4594
 20
-83.2941
 30
0.0
 10
68.8772
 20
-86.3707
 30
0.0
 10
68.8772
 20
-86.3707
 30
0.0
 10
68.8772
 20
-86.3707
 30
0.0
 10
69.0791
 20
-86.4828
 30
0.0
 10
69.0791
 20
-86.4828
 30
0.0
 10
69.0791
 20
-86.4828
 30
0.0
 10
69.0791
 20
-86.4828
 30
0.0
 10
69.1479
 20
-86.3707
 30
0.0
 10
69.1479
 20
-86.3707
 30
0.0
 10
69.1479
 20
-86.3707
 30
0.0
 10
71.5635
 20
-83.2941
 30
0.0
 10
75.4068
 20
-81.6939
 30
0.0
 10
79.2935
 20
-82.1477
 30
0.0
 10
79.2935
 20
-82.1477
 30
0.0
 10
83.1791
 20
-82.6003
 30
0.0
 10
86.5519
 20
-85.0413
 30
0.0
 10
88.1964
 20
-88.5916
 30
0.0
 10
88.1964
 20
-88.5916
 30
0.0
 10
89.5681
 20
-86.1856
 30
0.0
 10
90.0906
 20
-83.3872
 30
0.0
 10
89.676
 20
-80.649
 30
0.0
 10
89.676
 20
-80.649
 30
0.0
 10
90.87
 20
-81.6506
 30
0.0
 10
91.5607
 20
-83.1291
 30
0.0
 10
91.5607
 20
-84.688
 30
0.0
 10
91.5607
 20
-84.688
 30
0.0
 10
97.0961
 20
-78.4387
 30
0.0
 10
96.6477
 20
-68.9181
 30
0.0
 10
90.5527
 20
-63.2155
 30
0.0
 10
90.5527
 20
-63.2155
 30
0.0
 10
86.5635
 20
-60.1844
 30
0.0
 10
80.9306
 20
-60.6476
 30
0.0
 10
77.4946
 20
-64.2922
 30
0.0
 10
77.4946
 20
-64.2922
 30
0.0
 10
76.6601
 20
-65.7728
 30
0.0
 10
76.6241
 20
-67.5729
 30
0.0
 10
77.3951
 20
-69.0884
 30
0.0
 10
77.3951
 20
-69.0884
 30
0.0
 10
78.1661
 20
-70.6028
 30
0.0
 10
79.6425
 20
-71.6319
 30
0.0
 10
81.3294
 20
-71.8318
 30
0.0
 10
81.3294
 20
-71.8318
 30
0.0
 10
82.8894
 20
-71.9598
 30
0.0
 10
84.4303
 20
-71.4152
 30
0.0
 10
85.5619
 20
-70.3332
 30
0.0
 10
85.5619
 20
-70.3332
 30
0.0
 10
86.6935
 20
-69.2534
 30
0.0
 10
87.3101
 20
-67.741
 30
0.0
 10
87.253
 20
-66.1768
 30
0.0
 10
87.253
 20
-66.1768
 30
0.0
 10
88.538
 20
-67.7833
 30
0.0
 10
89.2498
 20
-69.7737
 30
0.0
 10
89.273
 20
-71.8318
 30
0.0
 10
89.273
 20
-71.8318
 30
0.0
 10
89.1895
 20
-74.3553
 30
0.0
 10
87.6888
 20
-76.6164
 30
0.0
 10
85.3937
 20
-77.6718
 30
0.0
 10
85.3937
 20
-77.6718
 30
0.0
 10
83.0998
 20
-78.7253
 30
0.0
 10
80.405
 20
-78.3932
 30
0.0
 10
78.4358
 20
-76.811
 30
0.0
 10
78.4358
 20
-76.811
 30
0.0
 10
77.8235
 20
-77.6856
 30
0.0
 10
76.9138
 20
-78.3085
 30
0.0
 10
75.8775
 20
-78.5624
 30
0.0
 10
75.8775
 20
-78.5624
 30
0.0
 10
73.5337
 20
-78.9346
 30
0.0
 10
71.2399
 20
-77.6539
 30
0.0
 10
70.3281
 20
-75.4615
 30
0.0
 10
70.3281
 20
-75.4615
 30
0.0
 10
69.4176
 20
-73.2712
 30
0.0
 10
70.1241
 20
-70.7403
 30
0.0
 10
72.0415
 20
-69.3412
 30
0.0
 10
72.0415
 20
-69.3412
 30
0.0
 10
70.4276
 20
-69.2301
 30
0.0
 10
69.1532
 20
-67.9272
 30
0.0
 10
69.0791
 20
-66.3111
 30
0.0
  0
SPLINE
  5
63
330
1F
100
AcDbEntity
  8
layer 1
 62
     7
370
     9
100
AcDbSpline
210
0.0
220
0.0
230
1.0
 70
    11
 71
     3
 72
    56
 73
    52
 74
     0
 42
0.0000000001
 43
0.0000000001
 12
1.0
 22
0.0
 32
0.0
 13
1.0
 23
0.0
 33
0.0
 40
0.0
 40
0.0
 40
0.0
 40
0.0
 40
0.0714285714285714
 40
0.0714285714285714
 40
0.0714285714285714
 40
0.0714285714285714
 40
0.1428571428571428
 40
0.1428571428571428
 40
0.1428571428571428
 40
0.1428571428571428
 40
0.2142857142857143
 40
0.2142857142857143
 40
0.2142857142857143
 40
0.2142857142857143
 40
0.2857142857142857
 40
0.2857142857142857
 40
0.2857142857142857
 40
0.2857142857142857
 40
0.3571428571428572
 40
0.3571428571428572
 40
0.3571428571428572
 40
0.3571428571428572
 40
0.4285714285714285
 40
0.4285714285714285
 40
0.4285714285714285
 40
0.4285714285714285
 40
0.5
 40
0.5
 40
0.5
 40
0.5
 40
0.5714285714285714
 40
0.5714285714285714
 40
0.5714285714285714
 40
0.5714285714285714
 40
0.6428571428571429
 40
0.6428571428571429
 40
0.6428571428571429
 40
0.6428571428571429
 40
0.7142857142857143
 40
0.7142857142857143
 40
0.7142857142857143
 40
0.7142857142857143
 40
0.7857142857142857
 40
0.7857142857142857
 40
0.7857142857142857
 40
0.7857142857142857
 40
0.8571428571428571
 40
0.8571428571428571
 40
0.8571428571428571
 40
0.8571428571428571
 40
1.0
 40
1.0
 40
1.0
 40
1.0
 10
44.7797
 20
-88.3896
 30
0.0
 10
41.2695
 20
-88.432
 30
0.0
 10
37.9423
 20
-86.8244
 30
0.0
 10
35.7943
 20
-84.0482
 30
0.0
 10
35.7943
 20
-84.0482
 30
0.0
 10
36.6774
 20
-83.5913
 30
0.0
 10
37.3616
 20
-82.8245
 30
0.0
 10
37.7128
 20
-81.8938
 30
0.0
 10
37.7128
 20
-81.8938
 30
0.0
 10
35.1227
 20
-80.1255
 30
0.0
 10
33.2962
 20
-77.4456
 30
0.0
 10
32.5971
 20
-74.3891
 30
0.0
 10
32.5971
 20
-74.3891
 30
0.0
 10
33.6209
 20
-74.7169
 30
0.0
 10
34.7451
 20
-74.4885
 30
0.0
 10
35.5584
 20
-73.7831
 30
0.0
 10
35.5584
 20
-73.7831
 30
0.0
 10
33.9001
 20
-71.4267
 30
0.0
 10
33.0709
 20
-68.585
 30
0.0
 10
33.2021
 20
-65.7062
 30
0.0
 10
33.2021
 20
-65.7062
 30
0.0
 10
34.2988
 20
-66.015
 30
0.0
 10
35.4283
 20
-66.1958
 30
0.0
 10
36.5684
 20
-66.2434
 30
0.0
 10
36.5684
 20
-66.2434
 30
0.0
 10
35.7541
 20
-63.2039
 30
0.0
 10
36.4267
 20
-59.9581
 30
0.0
 10
38.3854
 20
-57.4939
 30
0.0
 10
38.3854
 20
-57.4939
 30
0.0
 10
38.9967
 20
-57.9962
 30
0.0
 10
39.6492
 20
-58.4468
 30
0.0
 10
40.3367
 20
-58.8402
 30
0.0
 10
40.3367
 20
-58.8402
 30
0.0
 10
43.9674
 20
-54.7293
 30
0.0
 10
49.9196
 20
-53.5934
 30
0.0
 10
54.8089
 20
-56.0799
 30
0.0
 10
54.8089
 20
-56.0799
 30
0.0
 10
55.085
 20
-56.4352
 30
0.0
 10
55.1315
 20
-56.9164
 30
0.0
 10
54.9305
 20
-57.3183
 30
0.0
 10
54.9305
 20
-57.3183
 30
0.0
 10
54.7296
 20
-57.7213
 30
0.0
 10
54.3171
 20
-57.9719
 30
0.0
 10
53.8666
 20
-57.9645
 30
0.0
 10
53.8666
 20
-57.9645
 30
0.0
 10
50.7953
 20
-57.7065
 30
0.0
 10
47.7293
 20
-58.5155
 30
0.0
 10
45.1826
 20
-60.2542
 30
0.0
 10
45.1826
 20
-60.2542
 30
0.0
 10
37.6715
 20
-68.0667
 30
0.0
 10
37.4949
 20
-80.3635
 30
0.0
 10
44.7797
 20
-88.3896
 30
0.0
  0
SPLINE
  5
64
330
1F
100
AcDbEntity
  8
layer 1
 62
     7
370
     9
100
AcDbSpline
210
0.0
220
0.0
230
1.0
 70
    11
 71
     3
 72
    84
 73
    80
 74
     0
 42
0.0000000001
 43
0.0000000001
 12
1.0
 22
0.0
 32
0.0
 13
1.0
 23
0.0
 33
0.0
 40
0.0
 40
0.0
 40
0.0
 40
0.0
 40
0.0476190476190476
 40
0.0476190476190476
 40
0.0476190476190476
 40
0.0476190476190476
 40
0.0952380952380952
 40
0.0952380952380952
 40
0.0952380952380952
 40
0.0952380952380952
 40
0.1428571428571428
 40
0.1428571428571428
 40
0.1428571428571428
 40
0.1428571428571428
 40
0.1904761904761905
 40
0.1904761904761905
 40
0.1904761904761905
 40
0.1904761904761905
 40
0.2380952380952381
 40
0.2380952380952381
 40
0.2380952380952381
 40
0.2380952380952381
 40
0.2857142857142857
 40
0.2857142857142857
 40
0.2857142857142857
 40
0.2857142857142857
 40
0.3333333333333333
 40
0.3333333333333333
 40
0.3333333333333333
 40
0.3333333333333333
 40
0.3809523809523809
 40
0.3809523809523809
 40
0.3809523809523809
 40
0.3809523809523809
 40
0.4285714285714285
 40
0.4285714285714285
 40
0.4285714285714285
 40
0.4285714285714285
 40
0.4761904761904762
 40
0.4761904761904762
 40
0.4761904761904762
 40
0.4761904761904762
 40
0.5238095238095238
 40
0.5238095238095238
 40
0.5238095238095238
 40
0.5238095238095238
 40
0.5714285714285714
 40
0.5714285714285714
 40
0.5714285714285714
 40
0.5714285714285714
 40
0.6190476190476191
 40
0.6190476190476191
 40
0.6190476190476191
 40
0.6190476190476191
 40
0.6666666666666666
 40
0.6666666666666666
 40
0.6666666666666666
 40
0.6666666666666666
 40
0.7142857142857143
 40
0.7142857142857143
 40
0.7142857142857143
 40
0.7142857142857143
 40
0.7619047619047619
 40
0.7619047619047619
 40
0.7619047619047619
 40
0.7619047619047619
 40
0.8095238095238095
 40
0.8095238095238095
 40
0.8095238095238095
 40
0.8095238095238095
 40
0.8571428571428571
 40
0.8571428571428571
 40
0.8571428571428571
 40
0.8571428571428571
 40
0.9047619047619048
 40
0.9047619047619048
 40
0.9047619047619048
 40
0.9047619047619048
 40
1.0
 40
1.0
 40
1.0
 40
1.0
 10
68.9448
 20
-100.6409
 30
0.0
 10
69.902
 20
-99.8329
 30
0.0
 10
71.3763
 20
-99.6595
 30
0.0
 10
72.5069
 20
-100.1957
 30
0.0
 10
72.5069
 20
-100.1957
 30
0.0
 10
73.6364
 20
-100.7319
 30
0.0
 10
74.3503
 20
-101.8794
 30
0.0
 10
74.3302
 20
-103.1316
 30
0.0
 10
74.3302
 20
-103.1316
 30
0.0
 10
79.982
 20
-102.3183
 30
0.0
 10
84.0231
 20
-97.245
 30
0.0
 10
83.5514
 20
-91.5529
 30
0.0
 10
83.5514
 20
-91.5529
 30
0.0
 10
83.3325
 20
-89.4663
 30
0.0
 10
82.0327
 20
-87.6493
 30
0.0
 10
80.129
 20
-86.7662
 30
0.0
 10
80.129
 20
-86.7662
 30
0.0
 10
78.2243
 20
-85.8831
 30
0.0
 10
75.9969
 20
-86.065
 30
0.0
 10
74.2625
 20
-87.2453
 30
0.0
 10
74.2625
 20
-87.2453
 30
0.0
 10
73.8341
 20
-87.6514
 30
0.0
 10
73.4492
 20
-88.1041
 30
0.0
 10
73.1171
 20
-88.5916
 30
0.0
 10
73.1171
 20
-88.5916
 30
0.0
 10
74.346
 20
-88.8497
 30
0.0
 10
75.3751
 20
-89.682
 30
0.0
 10
75.8806
 20
-90.8306
 30
0.0
 10
75.8806
 20
-90.8306
 30
0.0
 10
76.3883
 20
-91.977
 30
0.0
 10
76.3121
 20
-93.299
 30
0.0
 10
75.6765
 20
-94.381
 30
0.0
 10
75.6765
 20
-94.381
 30
0.0
 10
74.969
 20
-95.5443
 30
0.0
 10
73.7062
 20
-96.255
 30
0.0
 10
72.3429
 20
-96.255
 30
0.0
 10
72.3429
 20
-96.255
 30
0.0
 10
70.9818
 20
-96.255
 30
0.0
 10
69.719
 20
-95.5443
 30
0.0
 10
69.0115
 20
-94.381
 30
0.0
 10
69.0115
 20
-94.381
 30
0.0
 10
68.305
 20
-95.5443
 30
0.0
 10
67.0412
 20
-96.255
 30
0.0
 10
65.68
 20
-96.255
 30
0.0
 10
65.68
 20
-96.255
 30
0.0
 10
64.3189
 20
-96.255
 30
0.0
 10
63.0551
 20
-95.5443
 30
0.0
 10
62.3486
 20
-94.381
 30
0.0
 10
62.3486
 20
-94.381
 30
0.0
 10
61.7119
 20
-93.299
 30
0.0
 10
61.6357
 20
-91.977
 30
0.0
 10
62.1434
 20
-90.8306
 30
0.0
 10
62.1434
 20
-90.8306
 30
0.0
 10
62.65
 20
-89.682
 30
0.0
 10
63.678
 20
-88.8497
 30
0.0
 10
64.9059
 20
-88.5916
 30
0.0
 10
64.9059
 20
-88.5916
 30
0.0
 10
64.5738
 20
-88.1041
 30
0.0
 10
64.1909
 20
-87.6514
 30
0.0
 10
63.7626
 20
-87.2453
 30
0.0
 10
63.7626
 20
-87.2453
 30
0.0
 10
62.026
 20
-86.065
 30
0.0
 10
59.7997
 20
-85.8831
 30
0.0
 10
57.8961
 20
-86.7662
 30
0.0
 10
57.8961
 20
-86.7662
 30
0.0
 10
55.9924
 20
-87.6493
 30
0.0
 10
54.6926
 20
-89.4663
 30
0.0
 10
54.4726
 20
-91.5529
 30
0.0
 10
54.4726
 20
-91.5529
 30
0.0
 10
54.002
 20
-97.245
 30
0.0
 10
58.042
 20
-102.3183
 30
0.0
 10
63.6938
 20
-103.1316
 30
0.0
 10
63.6938
 20
-103.1316
 30
0.0
 10
63.6748
 20
-101.8794
 30
0.0
 10
64.3876
 20
-100.7319
 30
0.0
 10
65.5182
 20
-100.1957
 30
0.0
 10
65.5182
 20
-100.1957
 30
0.0
 10
66.6477
 20
-99.6595
 30
0.0
 10
67.9888
 20
-99.8329
 30
0.0
 10
68.9448
 20
-100.6409
 30
0.0
  0
SPLINE
  5
65
330
1F
100
AcDbEntity
  8
layer 1
 62
     7
370
     9
100
AcDbSpline
210
0.0
220
0.0
230
1.0
 70
    11
 71
     3
 72
    68
 73
    64
 74
     0
 42
0.0000000001
 43
0.0000000001
 12
1.0
 22
0.0
 32
0.0
 13
1.0
 23
0.0
 33
0.0
 40
0.0
 40
0.0
 40
0.0
 40
0.0
 40
0.0588235294117647
 40
0.0588235294117647
 40
0.0588235294117647
 40
0.0588235294117647
 40
0.1176470588235294
 40
0.1176470588235294
 40
0.1176470588235294
 40
0.1176470588235294
 40
0.1764705882352941
 40
0.1764705882352941
 40
0.1764705882352941
 40
0.1764705882352941
 40
0.2352941176470588
 40
0.2352941176470588
 40
0.2352941176470588
 40
0.2352941176470588
 40
0.2941176470588235
 40
0.2941176470588235
 40
0.2941176470588235
 40
0.2941176470588235
 40
0.3529411764705883
 40
0.3529411764705883
 40
0.3529411764705883
 40
0.3529411764705883
 40
0.4117647058823529
 40
0.4117647058823529
 40
0.4117647058823529
 40
0.4117647058823529
 40
0.4705882352941176
 40
0.4705882352941176
 40
0.4705882352941176
 40
0.4705882352941176
 40
0.5294117647058824
 40
0.5294117647058824
 40
0.5294117647058824
 40
0.5294117647058824
 40
0.5882352941176471
 40
0.5882352941176471
 40
0.5882352941176471
 40
0.5882352941176471
 40
0.6470588235294118
 40
0.6470588235294118
 40
0.6470588235294118
 40
0.6470588235294118
 40
0.7058823529411765
 40
0.7058823529411765
 40
0.7058823529411765
 40
0.7058823529411765
 40
0.7647058823529411
 40
0.7647058823529411
 40
0.7647058823529411
 40
0.7647058823529411
 40
0.8235294117647058
 40
0.8235294117647058
 40
0.8235294117647058
 40
0.8235294117647058
 40
0.8823529411764706
 40
0.8823529411764706
 40
0.8823529411764706
 40
0.8823529411764706
 40
1.0
 40
1.0
 40
1.0
 40
1.0
 10
68.9448
 20
3.6884
 30
0.0
 10
68.9448
 20
3.6884
 30
0.0
 10
69.2812
 20
3.6261
 30
0.0
 10
69.2812
 20
3.6261
 30
0.0
 10
69.2812
 20
3.6261
 30
0.0
 10
72.3334
 20
3.1174
 30
0.0
 10
75.4671
 20
3.5901
 30
0.0
 10
78.2349
 20
4.9714
 30
0.0
 10
78.2349
 20
4.9714
 30
0.0
 10
81.0206
 20
6.1316
 30
0.0
 10
84.0421
 20
6.6149
 30
0.0
 10
87.0521
 20
6.3853
 30
0.0
 10
87.0521
 20
6.3853
 30
0.0
 10
87.6835
 20
6.6551
 30
0.0
 10
88.0431
 20
7.3267
 30
0.0
 10
87.9161
 20
8.0014
 30
0.0
 10
87.9161
 20
8.0014
 30
0.0
 10
88.0431
 20
8.6751
 30
0.0
 10
87.6835
 20
9.3467
 30
0.0
 10
87.0521
 20
9.6163
 30
0.0
 10
87.0521
 20
9.6163
 30
0.0
 10
84.0421
 20
9.3858
 30
0.0
 10
81.0206
 20
9.8702
 30
0.0
 10
78.2349
 20
11.0293
 30
0.0
 10
78.2349
 20
11.0293
 30
0.0
 10
75.4671
 20
12.4116
 30
0.0
 10
72.3334
 20
12.8833
 30
0.0
 10
69.2812
 20
12.3767
 30
0.0
 10
69.2812
 20
12.3767
 30
0.0
 10
69.2812
 20
12.3767
 30
0.0
 10
68.9448
 20
12.3122
 30
0.0
 10
68.9448
 20
12.3122
 30
0.0
 10
68.9448
 20
12.3122
 30
0.0
 10
68.9448
 20
12.3122
 30
0.0
 10
68.7418
 20
12.3767
 30
0.0
 10
68.7418
 20
12.3767
 30
0.0
 10
68.7418
 20
12.3767
 30
0.0
 10
65.6917
 20
12.8833
 30
0.0
 10
62.557
 20
12.4116
 30
0.0
 10
59.7913
 20
11.0293
 30
0.0
 10
59.7913
 20
11.0293
 30
0.0
 10
57.0045
 20
9.8702
 30
0.0
 10
53.9818
 20
9.3858
 30
0.0
 10
50.972
 20
9.6163
 30
0.0
 10
50.972
 20
9.6163
 30
0.0
 10
50.3406
 20
9.3467
 30
0.0
 10
49.982
 20
8.6751
 30
0.0
 10
50.109
 20
8.0014
 30
0.0
 10
50.109
 20
8.0014
 30
0.0
 10
49.982
 20
7.3267
 30
0.0
 10
50.3406
 20
6.6551
 30
0.0
 10
50.972
 20
6.3853
 30
0.0
 10
50.972
 20
6.3853
 30
0.0
 10
53.9818
 20
6.6149
 30
0.0
 10
57.0045
 20
6.1316
 30
0.0
 10
59.7913
 20
4.9714
 30
0.0
 10
59.7913
 20
4.9714
 30
0.0
 10
62.557
 20
3.5901
 30
0.0
 10
65.6917
 20
3.1174
 30
0.0
 10
68.7418
 20
3.6261
 30
0.0
 10
68.7418
 20
3.6261
 30
0.0
 10
68.7418
 20
3.6261
 30
0.0
 10
68.9448
 20
3.6884
 30
0.0
 10
68.9448
 20
3.6884
 30
0.0
  0
SPLINE
  5
66
330
1F
100
AcDbEntity
  8
layer 1
 62
     7
370
     9
100
AcDbSpline
210
0.0
220
0.0
230
1.0
 70
    11
 71
     3
 72
    28
 73
    24
 74
     0
 42
0.0000000001
 43
0.0000000001
 12
1.0
 22
0.0
 32
0.0
 13
1.0
 23
0.0
 33
0.0
 40
0.0
 40
0.0
 40
0.0
 40
0.0
 40
0.1428571428571428
 40
0.1428571428571428
 40
0.1428571428571428
 40
0.1428571428571428
 40
0.2857142857142857
 40
0.2857142857142857
 40
0.2857142857142857
 40
0.2857142857142857
 40
0.4285714285714285
 40
0.4285714285714285
 40
0.4285714285714285
 40
0.4285714285714285
 40
0.5714285714285714
 40
0.5714285714285714
 40
0.5714285714285714
 40
0.5714285714285714
 40
0.7142857142857143
 40
0.7142857142857143
 40
0.7142857142857143
 40
0.7142857142857143
 40
1.0
 40
1.0
 40
1.0
 40
1.0
 10
92.302
 20
116.5073
 30
0.0
 10
90.6342
 20
117.0541
 30
0.0
 10
89.3777
 20
118.4416
 30
0.0
 10
89.0002
 20
120.156
 30
0.0
 10
89.0002
 20
120.156
 30
0.0
 10
88.6216
 20
121.8704
 30
0.0
 10
89.1779
 20
123.6556
 30
0.0
 10
90.4618
 20
124.8539
 30
0.0
 10
90.4618
 20
124.8539
 30
0.0
 10
90.4618
 20
124.8539
 30
0.0
 10
85.7343
 20
124.8539
 30
0.0
 10
85.7343
 20
124.8539
 30
0.0
 10
85.7343
 20
124.8539
 30
0.0
 10
85.3726
 20
123.5478
 30
0.0
 10
84.4736
 20
122.4584
 30
0.0
 10
83.2606
 20
121.8545
 30
0.0
 10
83.2606
 20
121.8545
 30
0.0
 10
82.0486
 20
121.2517
 30
0.0
 10
80.6377
 20
121.1914
 30
0.0
 10
79.3781
 20
121.6906
 30
0.0
 10
79.3781
 20
121.6906
 30
0.0
 10
81.9481
 20
117.1577
 30
0.0
 10
87.3133
 20
115.0066
 30
0.0
 10
92.302
 20
116.5073
 30
0.0
  0
SPLINE
  5
67
330
1F
100
AcDbEntity
  8
layer 1
 62
     7
370
     9
100
AcDbSpline
210
0.0
220
0.0
230
1.0
 70
    11
 71
     3
 72
    28
 73
    24
 74
     0
 42
0.0000000001
 43
0.0000000001
 12
1.0
 22
0.0
 32
0.0
 13
1.0
 23
0.0
 33
0.0
 40
0.0
 40
0.0
 40
0.0
 40
0.0
 40
0.1428571428571428
 40
0.1428571428571428
 40
0.1428571428571428
 40
0.1428571428571428
 40
0.2857142857142857
 40
0.2857142857142857
 40
0.2857142857142857
 40
0.2857142857142857
 40
0.4285714285714285
 40
0.4285714285714285
 40
0.4285714285714285
 40
0.4285714285714285
 40
0.5714285714285714
 40
0.5714285714285714
 40
0.5714285714285714
 40
0.5714285714285714
 40
0.7142857142857143
 40
0.7142857142857143
 40
0.7142857142857143
 40
0.7142857142857143
 40
1.0
 40
1.0
 40
1.0
 40
1.0
 10
98.4943
 20
119.2
 30
0.0
 10
98.9723
 20
121.3532
 30
0.0
 10
98.1072
 20
123.5837
 30
0.0
 10
96.3051
 20
124.8539
 30
0.0
 10
96.3051
 20
124.8539
 30
0.0
 10
96.3051
 20
124.8539
 30
0.0
 10
100.8633
 20
124.8539
 30
0.0
 10
100.8633
 20
124.8539
 30
0.0
 10
100.8633
 20
124.8539
 30
0.0
 10
99.8671
 20
123.4568
 30
0.0
 10
99.8248
 20
121.5923
 30
0.0
 10
100.7576
 20
120.1507
 30
0.0
 10
100.7576
 20
120.1507
 30
0.0
 10
101.6904
 20
118.7113
 30
0.0
 10
103.4079
 20
117.9869
 30
0.0
 10
105.0916
 20
118.3253
 30
0.0
 10
105.0916
 20
118.3253
 30
0.0
 10
102.8781
 20
113.6613
 30
0.0
 10
97.553
 20
111.3589
 30
0.0
 10
92.6383
 20
112.94
 30
0.0
 10
92.6383
 20
112.94
 30
0.0
 10
95.3426
 20
114.1689
 30
0.0
 10
97.4494
 20
116.4206
 30
0.0
 10
98.4943
 20
119.2
 30
0.0
  0
SPLINE
  5
68
330
1F
100
AcDbEntity
  8
layer 1
 62
     7
370
     9
100
AcDbSpline
210
0.0
220
0.0
230
1.0
 70
    11
 71
     3
 72
    52
 73
    48
 74
     0
 42
0.0000000001
 43
0.0000000001
 12
1.0
 22
0.0
 32
0.0
 13
1.0
 23
0.0
 33
0.0
 40
0.0
 40
0.0
 40
0.0
 40
0.0
 40
0.0769230769230769
 40
0.0769230769230769
 40
0.0769230769230769
 40
0.0769230769230769
 40
0.1538461538461539
 40
0.1538461538461539
 40
0.1538461538461539
 40
0.1538461538461539
 40
0.2307692307692308
 40
0.2307692307692308
 40
0.2307692307692308
 40
0.2307692307692308
 40
0.3076923076923077
 40
0.3076923076923077
 40
0.3076923076923077
 40
0.3076923076923077
 40
0.3846153846153846
 40
0.3846153846153846
 40
0.3846153846153846
 40
0.3846153846153846
 40
0.4615384615384616
 40
0.4615384615384616
 40
0.4615384615384616
 40
0.4615384615384616
 40
0.5384615384615384
 40
0.5384615384615384
 40
0.5384615384615384
 40
0.5384615384615384
 40
0.6153846153846154
 40
0.6153846153846154
 40
0.6153846153846154
 40
0.6153846153846154
 40
0.6923076923076923
 40
0.6923076923076923
 40
0.6923076923076923
 40
0.6923076923076923
 40
0.7692307692307693
 40
0.7692307692307693
 40
0.7692307692307693
 40
0.7692307692307693
 40
0.8461538461538461
 40
0.8461538461538461
 40
0.8461538461538461
 40
0.8461538461538461
 40
1.0
 40
1.0
 40
1.0
 40
1.0
 10
94.119
 20
109.7756
 30
0.0
 10
100.7808
 20
108.3267
 30
0.0
 10
107.4448
 20
112.2113
 30
0.0
 10
109.4669
 20
118.723
 30
0.0
 10
109.4669
 20
118.723
 30
0.0
 10
111.4869
 20
112.2113
 30
0.0
 10
118.152
 20
108.3267
 30
0.0
 10
124.8138
 20
109.7756
 30
0.0
 10
124.8138
 20
109.7756
 30
0.0
 10
123.5383
 20
108.6948
 30
0.0
 10
122.0788
 20
107.8508
 30
0.0
 10
120.5051
 20
107.286
 30
0.0
 10
120.5051
 20
107.286
 30
0.0
 10
121.3808
 20
107.4859
 30
0.0
 10
122.2935
 20
107.1739
 30
0.0
 10
122.8625
 20
106.477
 30
0.0
 10
122.8625
 20
106.477
 30
0.0
 10
118.6469
 20
106.1005
 30
0.0
 10
114.9654
 20
103.4744
 30
0.0
 10
113.2362
 20
99.6121
 30
0.0
 10
113.2362
 20
99.6121
 30
0.0
 10
114.1659
 20
99.5952
 30
0.0
 10
115.0236
 20
99.1161
 30
0.0
 10
115.5238
 20
98.3334
 30
0.0
 10
115.5238
 20
98.3334
 30
0.0
 10
112.791
 20
96.4869
 30
0.0
 10
110.6811
 20
93.8577
 30
0.0
 10
109.4669
 20
90.7917
 30
0.0
 10
109.4669
 20
90.7917
 30
0.0
 10
108.2528
 20
93.8577
 30
0.0
 10
106.1408
 20
96.4869
 30
0.0
 10
103.4079
 20
98.3334
 30
0.0
 10
103.4079
 20
98.3334
 30
0.0
 10
103.9082
 20
99.1161
 30
0.0
 10
104.768
 20
99.5952
 30
0.0
 10
105.6966
 20
99.6121
 30
0.0
 10
105.6966
 20
99.6121
 30
0.0
 10
103.9663
 20
103.4744
 30
0.0
 10
100.2869
 20
106.1005
 30
0.0
 10
96.0713
 20
106.477
 30
0.0
 10
96.0713
 20
106.477
 30
0.0
 10
96.6393
 20
107.1739
 30
0.0
 10
97.553
 20
107.4859
 30
0.0
 10
98.4266
 20
107.286
 30
0.0
 10
98.4266
 20
107.286
 30
0.0
 10
96.8529
 20
107.8508
 30
0.0
 10
95.3945
 20
108.6948
 30
0.0
 10
94.119
 20
109.7756
 30
0.0
  0
SPLINE
  5
69
330
1F
100
AcDbEntity
  8
layer 1
 62
     7
370
     9
100
AcDbSpline
210
0.0
220
0.0
230
1.0
 70
    11
 71
     3
 72
   180
 73
   176
 74
     0
 42
0.0000000001
 43
0.0000000001
 12
1.0
 22
0.0
 32
0.0
 13
1.0
 23
0.0
 33
0.0
 40
0.0
 40
0.0
 40
0.0
 40
0.0
 40
0.0222222222222222
 40
0.0222222222222222
 40
0.0222222222222222
 40
0.0222222222222222
 40
0.0444444444444444
 40
0.0444444444444444
 40
0.0444444444444444
 40
0.0444444444444444
 40
0.0666666666666667
 40
0.0666666666666667
 40
0.0666666666666667
 40
0.0666666666666667
 40
0.0888888888888889
 40
0.0888888888888889
 40
0.0888888888888889
 40
0.0888888888888889
 40
0.1111111111111111
 40
0.1111111111111111
 40
0.1111111111111111
 40
0.1111111111111111
 40
0.1333333333333333
 40
0.1333333333333333
 40
0.1333333333333333
 40
0.1333333333333333
 40
0.1555555555555556
 40
0.1555555555555556
 40
0.1555555555555556
 40
0.1555555555555556
 40
0.1777777777777778
 40
0.1777777777777778
 40
0.1777777777777778
 40
0.1777777777777778
 40
0.2
 40
0.2
 40
0.2
 40
0.2
 40
0.2222222222222222
 40
0.2222222222222222
 40
0.2222222222222222
 40
0.2222222222222222
 40
0.2444444444444444
 40
0.2444444444444444
 40
0.2444444444444444
 40
0.2444444444444444
 40
0.2666666666666667
 40
0.2666666666666667
 40
0.2666666666666667
 40
0.2666666666666667
 40
0.2888888888888889
 40
0.2888888888888889
 40
0.2888888888888889
 40
0.2888888888888889
 40
0.3111111111111111
 40
0.3111111111111111
 40
0.3111111111111111
 40
0.3111111111111111
 40
0.3333333333333333
 40
0.3333333333333333
 40
0.3333333333333333
 40
0.3333333333333333
 40
0.3555555555555556
 40
0.3555555555555556
 40
0.3555555555555556
 40
0.3555555555555556
 40
0.3777777777777778
 40
0.3777777777777778
 40
0.3777777777777778
 40
0.3777777777777778
 40
0.4
 40
0.4
 40
0.4
 40
0.4
 40
0.4222222222222222
 40
0.4222222222222222
 40
0.4222222222222222
 40
0.4222222222222222
 40
0.4444444444444444
 40
0.4444444444444444
 40
0.4444444444444444
 40
0.4444444444444444
 40
0.4666666666666667
 40
0.4666666666666667
 40
0.4666666666666667
 40
0.4666666666666667
 40
0.4888888888888889
 40
0.4888888888888889
 40
0.4888888888888889
 40
0.4888888888888889
 40
0.5111111111111111
 40
0.5111111111111111
 40
0.5111111111111111
 40
0.5111111111111111
 40
0.5333333333333333
 40
0.5333333333333333
 40
0.5333333333333333
 40
0.5333333333333333
 40
0.5555555555555556
 40
0.5555555555555556
 40
0.5555555555555556
 40
0.5555555555555556
 40
0.5777777777777777
 40
0.5777777777777777
 40
0.5777777777777777
 40
0.5777777777777777
 40
0.6
 40
0.6
 40
0.6
 40
0.6
 40
0.6222222222222222
 40
0.6222222222222222
 40
0.6222222222222222
 40
0.6222222222222222
 40
0.6444444444444445
 40
0.6444444444444445
 40
0.6444444444444445
 40
0.6444444444444445
 40
0.6666666666666666
 40
0.6666666666666666
 40
0.6666666666666666
 40
0.6666666666666666
 40
0.6888888888888889
 40
0.6888888888888889
 40
0.6888888888888889
 40
0.6888888888888889
 40
0.7111111111111111
 40
0.7111111111111111
 40
0.7111111111111111
 40
0.7111111111111111
 40
0.7333333333333333
 40
0.7333333333333333
 40
0.7333333333333333
 40
0.7333333333333333
 40
0.7555555555555555
 40
0.7555555555555555
 40
0.7555555555555555
 40
0.7555555555555555
 40
0.7777777777777778
 40
0.7777777777777778
 40
0.7777777777777778
 40
0.7777777777777778
 40
0.8
 40
0.8
 40
0.8
 40
0.8
 40
0.8222222222222222
 40
0.8222222222222222
 40
0.8222222222222222
 40
0.8222222222222222
 40
0.8444444444444444
 40
0.8444444444444444
 40
0.8444444444444444
 40
0.8444444444444444
 40
0.8666666666666667
 40
0.8666666666666667
 40
0.8666666666666667
 40
0.8666666666666667
 40
0.8888888888888888
 40
0.8888888888888888
 40
0.8888888888888888
 40
0.8888888888888888
 40
0.9111111111111111
 40
0.9111111111111111
 40
0.9111111111111111
 40
0.9111111111111111
 40
0.9333333333333333
 40
0.9333333333333333
 40
0.9333333333333333
 40
0.9333333333333333
 40
0.9555555555555556
 40
0.9555555555555556
 40
0.9555555555555556
 40
0.9555555555555556
 40
1.0
 40
1.0
 40
1.0
 40
1.0
 10
106.3026
 20
87.4962
 30
0.0
 10
107.2015
 20
88.1857
 30
0.0
 10
108.3533
 20
88.4575
 30
0.0
 10
109.4669
 20
88.2502
 30
0.0
 10
109.4669
 20
88.2502
 30
0.0
 10
110.5806
 20
88.4575
 30
0.0
 10
111.7302
 20
88.1857
 30
0.0
 10
112.6292
 20
87.4962
 30
0.0
 10
112.6292
 20
87.4962
 30
0.0
 10
111.4912
 20
84.4672
 30
0.0
 10
111.1898
 20
81.1897
 30
0.0
 10
111.7545
 20
78.0052
 30
0.0
 10
111.7545
 20
78.0052
 30
0.0
 10
112.5594
 20
77.9122
 30
0.0
 10
113.3727
 20
77.9122
 30
0.0
 10
114.1786
 20
78.0052
 30
0.0
 10
114.1786
 20
78.0052
 30
0.0
 10
113.9734
 20
74.4855
 30
0.0
 10
115.2975
 20
71.0504
 30
0.0
 10
117.8135
 20
68.582
 30
0.0
 10
117.8135
 20
68.582
 30
0.0
 10
117.9595
 20
69.5074
 30
0.0
 10
118.5687
 20
70.2942
 30
0.0
 10
119.4285
 20
70.6686
 30
0.0
 10
119.4285
 20
70.6686
 30
0.0
 10
124.0745
 20
67.0601
 30
0.0
 10
130.2351
 20
66.0575
 30
0.0
 10
135.7854
 20
68.0088
 30
0.0
 10
135.7854
 20
68.0088
 30
0.0
 10
134.1789
 20
65.3055
 30
0.0
 10
131.6798
 20
63.2464
 30
0.0
 10
128.7174
 20
62.1867
 30
0.0
 10
128.7174
 20
62.1867
 30
0.0
 10
130.1589
 20
61.771
 30
0.0
 10
131.6618
 20
61.6007
 30
0.0
 10
133.1604
 20
61.6822
 30
0.0
 10
133.1604
 20
61.6822
 30
0.0
 10
132.5777
 20
57.8029
 30
0.0
 10
130.5598
 20
54.2832
 30
0.0
 10
127.5065
 20
51.8211
 30
0.0
 10
127.5065
 20
51.8211
 30
0.0
 10
126.157
 20
50.7667
 30
0.0
 10
124.3971
 20
50.3965
 30
0.0
 10
122.7367
 20
50.8174
 30
0.0
 10
122.7367
 20
50.8174
 30
0.0
 10
121.0784
 20
51.2383
 30
0.0
 10
119.7066
 20
52.4049
 30
0.0
 10
119.0245
 20
53.9744
 30
0.0
 10
119.0245
 20
53.9744
 30
0.0
 10
118.2345
 20
55.3979
 30
0.0
 10
118.6998
 20
57.1905
 30
0.0
 10
120.081
 20
58.0514
 30
0.0
 10
120.081
 20
58.0514
 30
0.0
 10
121.4633
 20
58.9134
 30
0.0
 10
123.2771
 20
58.5422
 30
0.0
 10
124.2067
 20
57.2053
 30
0.0
 10
124.2067
 20
57.2053
 30
0.0
 10
125.2495
 20
58.2164
 30
0.0
 10
125.6197
 20
59.7351
 30
0.0
 10
125.1607
 20
61.1132
 30
0.0
 10
125.1607
 20
61.1132
 30
0.0
 10
124.7006
 20
62.4902
 30
0.0
 10
123.495
 20
63.4833
 30
0.0
 10
122.0535
 20
63.6673
 30
0.0
 10
122.0535
 20
63.6673
 30
0.0
 10
120.5051
 20
63.9063
 30
0.0
 10
118.9642
 20
63.1893
 30
0.0
 10
118.1499
 20
61.8503
 30
0.0
 10
118.1499
 20
61.8503
 30
0.0
 10
118.3
 20
62.4965
 30
0.0
 10
118.4343
 20
63.1491
 30
0.0
 10
118.5539
 20
63.8027
 30
0.0
 10
118.5539
 20
63.8027
 30
0.0
 10
118.8066
 20
64.7207
 30
0.0
 10
118.6237
 20
65.7053
 30
0.0
 10
118.06
 20
66.4721
 30
0.0
 10
118.06
 20
66.4721
 30
0.0
 10
117.4963
 20
67.2399
 30
0.0
 10
116.611
 20
67.7073
 30
0.0
 10
115.6592
 20
67.7391
 30
0.0
 10
115.6592
 20
67.7391
 30
0.0
 10
114.1394
 20
67.6143
 30
0.0
 10
112.8555
 20
66.5598
 30
0.0
 10
112.4367
 20
65.093
 30
0.0
 10
112.4367
 20
65.093
 30
0.0
 10
112.0168
 20
63.6271
 30
0.0
 10
112.5509
 20
62.0545
 30
0.0
 10
113.7745
 20
61.1439
 30
0.0
 10
113.7745
 20
61.1439
 30
0.0
 10
111.8719
 20
61.2919
 30
0.0
 10
110.1047
 20
60.1444
 30
0.0
 10
109.4669
 20
58.3465
 30
0.0
 10
109.4669
 20
58.3465
 30
0.0
 10
108.8292
 20
60.1444
 30
0.0
 10
107.0619
 20
61.2919
 30
0.0
 10
105.1593
 20
61.1439
 30
0.0
 10
105.1593
 20
61.1439
 30
0.0
 10
106.383
 20
62.0545
 30
0.0
 10
106.9149
 20
63.6271
 30
0.0
 10
106.4972
 20
65.093
 30
0.0
 10
106.4972
 20
65.093
 30
0.0
 10
106.0773
 20
66.5598
 30
0.0
 10
104.7944
 20
67.6143
 30
0.0
 10
103.2747
 20
67.7391
 30
0.0
 10
103.2747
 20
67.7391
 30
0.0
 10
102.3207
 20
67.7073
 30
0.0
 10
101.4376
 20
67.2399
 30
0.0
 10
100.8739
 20
66.4721
 30
0.0
 10
100.8739
 20
66.4721
 30
0.0
 10
100.3091
 20
65.7053
 30
0.0
 10
100.1272
 20
64.7207
 30
0.0
 10
100.38
 20
63.8027
 30
0.0
 10
100.38
 20
63.8027
 30
0.0
 10
100.4974
 20
63.1491
 30
0.0
 10
100.6317
 20
62.4965
 30
0.0
 10
100.784
 20
61.8503
 30
0.0
 10
100.784
 20
61.8503
 30
0.0
 10
99.9686
 20
63.1893
 30
0.0
 10
98.4287
 20
63.9063
 30
0.0
 10
96.8793
 20
63.6673
 30
0.0
 10
96.8793
 20
63.6673
 30
0.0
 10
95.4389
 20
63.4833
 30
0.0
 10
94.2321
 20
62.4902
 30
0.0
 10
93.7731
 20
61.1132
 30
0.0
 10
93.7731
 20
61.1132
 30
0.0
 10
93.3141
 20
59.7351
 30
0.0
 10
93.6843
 20
58.2164
 30
0.0
 10
94.725
 20
57.2053
 30
0.0
 10
94.725
 20
57.2053
 30
0.0
 10
95.6567
 20
58.5422
 30
0.0
 10
97.4695
 20
58.9134
 30
0.0
 10
98.8507
 20
58.0514
 30
0.0
 10
98.8507
 20
58.0514
 30
0.0
 10
100.233
 20
57.1905
 30
0.0
 10
100.6973
 20
55.3979
 30
0.0
 10
99.9072
 20
53.9744
 30
0.0
 10
99.9072
 20
53.9744
 30
0.0
 10
99.2251
 20
52.4049
 30
0.0
 10
97.8555
 20
51.2383
 30
0.0
 10
96.1951
 20
50.8174
 30
0.0
 10
96.1951
 20
50.8174
 30
0.0
 10
94.5367
 20
50.3965
 30
0.0
 10
92.7748
 20
50.7667
 30
0.0
 10
91.4274
 20
51.8211
 30
0.0
 10
91.4274
 20
51.8211
 30
0.0
 10
88.3741
 20
54.2832
 30
0.0
 10
86.3551
 20
57.8029
 30
0.0
 10
85.7724
 20
61.6822
 30
0.0
 10
85.7724
 20
61.6822
 30
0.0
 10
87.2721
 20
61.6007
 30
0.0
 10
88.7728
 20
61.771
 30
0.0
 10
90.2164
 20
62.1867
 30
0.0
 10
90.2164
 20
62.1867
 30
0.0
 10
87.2541
 20
63.2464
 30
0.0
 10
84.755
 20
65.3055
 30
0.0
 10
83.1474
 20
68.0088
 30
0.0
 10
83.1474
 20
68.0088
 30
0.0
 10
88.6967
 20
66.0575
 30
0.0
 10
94.8572
 20
67.0601
 30
0.0
 10
99.5043
 20
70.6686
 30
0.0
 10
99.5043
 20
70.6686
 30
0.0
 10
100.3641
 20
70.2942
 30
0.0
 10
100.9733
 20
69.5074
 30
0.0
 10
101.1203
 20
68.582
 30
0.0
 10
101.1203
 20
68.582
 30
0.0
 10
103.6342
 20
71.0504
 30
0.0
 10
104.9605
 20
74.4855
 30
0.0
 10
104.7553
 20
78.0052
 30
0.0
 10
104.7553
 20
78.0052
 30
0.0
 10
105.5601
 20
77.9122
 30
0.0
 10
106.3724
 20
77.9122
 30
0.0
 10
107.1772
 20
78.0052
 30
0.0
 10
107.1772
 20
78.0052
 30
0.0
 10
107.7441
 20
81.1897
 30
0.0
 10
107.4416
 20
84.4672
 30
0.0
 10
106.3026
 20
87.4962
 30
0.0
  0
SPLINE
  5
6A
330
1F
100
AcDbEntity
  8
layer 1
 62
     7
370
     9
100
AcDbSpline
210
0.0
220
0.0
230
1.0
 70
    11
 71
     3
 72
   164
 73
   160
 74
     0
 42
0.0000000001
 43
0.0000000001
 12
1.0
 22
0.0
 32
0.0
 13
1.0
 23
0.0
 33
0.0
 40
0.0
 40
0.0
 40
0.0
 40
0.0
 40
0.024390243902439
 40
0.024390243902439
 40
0.024390243902439
 40
0.024390243902439
 40
0.0487804878048781
 40
0.0487804878048781
 40
0.0487804878048781
 40
0.0487804878048781
 40
0.0731707317073171
 40
0.0731707317073171
 40
0.0731707317073171
 40
0.0731707317073171
 40
0.0975609756097561
 40
0.0975609756097561
 40
0.0975609756097561
 40
0.0975609756097561
 40
0.1219512195121951
 40
0.1219512195121951
 40
0.1219512195121951
 40
0.1219512195121951
 40
0.1463414634146341
 40
0.1463414634146341
 40
0.1463414634146341
 40
0.1463414634146341
 40
0.1707317073170732
 40
0.1707317073170732
 40
0.1707317073170732
 40
0.1707317073170732
 40
0.1951219512195122
 40
0.1951219512195122
 40
0.1951219512195122
 40
0.1951219512195122
 40
0.2195121951219512
 40
0.2195121951219512
 40
0.2195121951219512
 40
0.2195121951219512
 40
0.2439024390243902
 40
0.2439024390243902
 40
0.2439024390243902
 40
0.2439024390243902
 40
0.2682926829268293
 40
0.2682926829268293
 40
0.2682926829268293
 40
0.2682926829268293
 40
0.2926829268292683
 40
0.2926829268292683
 40
0.2926829268292683
 40
0.2926829268292683
 40
0.3170731707317073
 40
0.3170731707317073
 40
0.3170731707317073
 40
0.3170731707317073
 40
0.3414634146341464
 40
0.3414634146341464
 40
0.3414634146341464
 40
0.3414634146341464
 40
0.3658536585365854
 40
0.3658536585365854
 40
0.3658536585365854
 40
0.3658536585365854
 40
0.3902439024390244
 40
0.3902439024390244
 40
0.3902439024390244
 40
0.3902439024390244
 40
0.4146341463414634
 40
0.4146341463414634
 40
0.4146341463414634
 40
0.4146341463414634
 40
0.4390243902439024
 40
0.4390243902439024
 40
0.4390243902439024
 40
0.4390243902439024
 40
0.4634146341463415
 40
0.4634146341463415
 40
0.4634146341463415
 40
0.4634146341463415
 40
0.4878048780487805
 40
0.4878048780487805
 40
0.4878048780487805
 40
0.4878048780487805
 40
0.5121951219512195
 40
0.5121951219512195
 40
0.5121951219512195
 40
0.5121951219512195
 40
0.5365853658536586
 40
0.5365853658536586
 40
0.5365853658536586
 40
0.5365853658536586
 40
0.5609756097560976
 40
0.5609756097560976
 40
0.5609756097560976
 40
0.5609756097560976
 40
0.5853658536585366
 40
0.5853658536585366
 40
0.5853658536585366
 40
0.5853658536585366
 40
0.6097560975609756
 40
0.6097560975609756
 40
0.6097560975609756
 40
0.6097560975609756
 40
0.6341463414634146
 40
0.6341463414634146
 40
0.6341463414634146
 40
0.6341463414634146
 40
0.6585365853658537
 40
0.6585365853658537
 40
0.6585365853658537
 40
0.6585365853658537
 40
0.6829268292682927
 40
0.6829268292682927
 40
0.6829268292682927
 40
0.6829268292682927
 40
0.7073170731707317
 40
0.7073170731707317
 40
0.7073170731707317
 40
0.7073170731707317
 40
0.7317073170731707
 40
0.7317073170731707
 40
0.7317073170731707
 40
0.7317073170731707
 40
0.7560975609756098
 40
0.7560975609756098
 40
0.7560975609756098
 40
0.7560975609756098
 40
0.7804878048780488
 40
0.7804878048780488
 40
0.7804878048780488
 40
0.7804878048780488
 40
0.8048780487804879
 40
0.8048780487804879
 40
0.8048780487804879
 40
0.8048780487804879
 40
0.8292682926829268
 40
0.8292682926829268
 40
0.8292682926829268
 40
0.8292682926829268
 40
0.8536585365853658
 40
0.8536585365853658
 40
0.8536585365853658
 40
0.8536585365853658
 40
0.8780487804878049
 40
0.8780487804878049
 40
0.8780487804878049
 40
0.8780487804878049
 40
0.9024390243902439
 40
0.9024390243902439
 40
0.9024390243902439
 40
0.9024390243902439
 40
0.926829268292683
 40
0.926829268292683
 40
0.926829268292683
 40
0.926829268292683
 40
0.9512195121951219
 40
0.9512195121951219
 40
0.9512195121951219
 40
0.9512195121951219
 40
1.0
 40
1.0
 40
1.0
 40
1.0
 10
109.4669
 20
55.5238
 30
0.0
 10
110.0401
 20
53.0067
 30
0.0
 10
111.9565
 20
51.0131
 30
0.0
 10
114.4472
 20
50.3394
 30
0.0
 10
114.4472
 20
50.3394
 30
0.0
 10
113.7407
 20
49.5081
 30
0.0
 10
112.7402
 20
48.9782
 30
0.0
 10
111.6541
 20
48.8587
 30
0.0
 10
111.6541
 20
48.8587
 30
0.0
 10
113.7502
 20
47.0386
 30
0.0
 10
116.5719
 20
46.2941
 30
0.0
 10
119.2942
 20
46.8398
 30
0.0
 10
119.2942
 20
46.8398
 30
0.0
 10
116.5106
 20
44.4792
 30
0.0
 10
114.4165
 20
41.4079
 30
0.0
 10
113.2362
 20
37.9538
 30
0.0
 10
113.2362
 20
37.9538
 30
0.0
 10
114.1003
 20
37.5318
 30
0.0
 10
114.9136
 20
37.0125
 30
0.0
 10
115.6592
 20
36.4065
 30
0.0
 10
115.6592
 20
36.4065
 30
0.0
 10
112.9528
 20
33.1184
 30
0.0
 10
111.7545
 20
28.8425
 30
0.0
 10
112.3616
 20
24.6269
 30
0.0
 10
112.3616
 20
24.6269
 30
0.0
 10
113.2722
 20
25.4117
 30
0.0
 10
114.5466
 20
25.62
 30
0.0
 10
115.6592
 20
25.1652
 30
0.0
 10
115.6592
 20
25.1652
 30
0.0
 10
113.9861
 20
20.736
 30
0.0
 10
114.4853
 20
15.778
 30
0.0
 10
117.0055
 20
11.7707
 30
0.0
 10
117.0055
 20
11.7707
 30
0.0
 10
117.5713
 20
12.6348
 30
0.0
 10
118.5295
 20
13.1636
 30
0.0
 10
119.5639
 20
13.1837
 30
0.0
 10
119.5639
 20
13.1837
 30
0.0
 10
120.6014
 20
10.8865
 30
0.0
 10
122.4363
 20
9.0463
 30
0.0
 10
124.7303
 20
8.0014
 30
0.0
 10
124.7303
 20
8.0014
 30
0.0
 10
122.4363
 20
6.9565
 30
0.0
 10
120.6014
 20
5.1141
 30
0.0
 10
119.5639
 20
2.817
 30
0.0
 10
119.5639
 20
2.817
 30
0.0
 10
118.5295
 20
2.8382
 30
0.0
 10
117.5713
 20
3.367
 30
0.0
 10
117.0055
 20
4.231
 30
0.0
 10
117.0055
 20
4.231
 30
0.0
 10
114.4853
 20
0.2227
 30
0.0
 10
113.9861
 20
-4.7332
 30
0.0
 10
115.6592
 20
-9.1646
 30
0.0
 10
115.6592
 20
-9.1646
 30
0.0
 10
114.5466
 20
-9.6172
 30
0.0
 10
113.2722
 20
-9.4099
 30
0.0
 10
112.3616
 20
-8.6252
 30
0.0
 10
112.3616
 20
-8.6252
 30
0.0
 10
111.7545
 20
-12.8408
 30
0.0
 10
112.9528
 20
-17.1156
 30
0.0
 10
115.6592
 20
-20.4048
 30
0.0
 10
115.6592
 20
-20.4048
 30
0.0
 10
114.9136
 20
-21.0118
 30
0.0
 10
114.1003
 20
-21.5301
 30
0.0
 10
113.2362
 20
-21.9531
 30
0.0
 10
113.2362
 20
-21.9531
 30
0.0
 10
114.4165
 20
-25.4072
 30
0.0
 10
116.5106
 20
-28.4775
 30
0.0
 10
119.2942
 20
-30.837
 30
0.0
 10
119.2942
 20
-30.837
 30
0.0
 10
116.5719
 20
-30.2913
 30
0.0
 10
113.7502
 20
-31.0369
 30
0.0
 10
111.6541
 20
-32.857
 30
0.0
 10
111.6541
 20
-32.857
 30
0.0
 10
112.7402
 20
-32.9765
 30
0.0
 10
113.7407
 20
-33.5064
 30
0.0
 10
114.4472
 20
-34.3387
 30
0.0
 10
114.4472
 20
-34.3387
 30
0.0
 10
111.9565
 20
-35.0113
 30
0.0
 10
110.0401
 20
-37.0049
 30
0.0
 10
109.4669
 20
-39.521
 30
0.0
 10
109.4669
 20
-39.521
 30
0.0
 10
108.8937
 20
-37.0049
 30
0.0
 10
106.9773
 20
-35.0113
 30
0.0
 10
104.4856
 20
-34.3387
 30
0.0
 10
104.4856
 20
-34.3387
 30
0.0
 10
105.1932
 20
-33.5064
 30
0.0
 10
106.1936
 20
-32.9765
 30
0.0
 10
107.2787
 20
-32.857
 30
0.0
 10
107.2787
 20
-32.857
 30
0.0
 10
105.1815
 20
-31.0369
 30
0.0
 10
102.3609
 20
-30.2913
 30
0.0
 10
99.6397
 20
-30.837
 30
0.0
 10
99.6397
 20
-30.837
 30
0.0
 10
102.4233
 20
-28.4775
 30
0.0
 10
104.5163
 20
-25.4072
 30
0.0
 10
105.6966
 20
-21.9531
 30
0.0
 10
105.6966
 20
-21.9531
 30
0.0
 10
104.8336
 20
-21.5301
 30
0.0
 10
104.0203
 20
-21.0118
 30
0.0
 10
103.2747
 20
-20.4048
 30
0.0
 10
103.2747
 20
-20.4048
 30
0.0
 10
105.9811
 20
-17.1156
 30
0.0
 10
107.1772
 20
-12.8408
 30
0.0
 10
106.5723
 20
-8.6252
 30
0.0
 10
106.5723
 20
-8.6252
 30
0.0
 10
105.6617
 20
-9.4099
 30
0.0
 10
104.3873
 20
-9.6172
 30
0.0
 10
103.2747
 20
-9.1646
 30
0.0
 10
103.2747
 20
-9.1646
 30
0.0
 10
104.9478
 20
-4.7332
 30
0.0
 10
104.4486
 20
0.2227
 30
0.0
 10
101.9273
 20
4.231
 30
0.0
 10
101.9273
 20
4.231
 30
0.0
 10
101.3604
 20
3.367
 30
0.0
 10
100.4033
 20
2.8382
 30
0.0
 10
99.37
 20
2.817
 30
0.0
 10
99.37
 20
2.817
 30
0.0
 10
98.3325
 20
5.1141
 30
0.0
 10
96.4954
 20
6.9565
 30
0.0
 10
94.2036
 20
8.0014
 30
0.0
 10
94.2036
 20
8.0014
 30
0.0
 10
96.4954
 20
9.0463
 30
0.0
 10
98.3325
 20
10.8865
 30
0.0
 10
99.37
 20
13.1837
 30
0.0
 10
99.37
 20
13.1837
 30
0.0
 10
100.4033
 20
13.1636
 30
0.0
 10
101.3604
 20
12.6348
 30
0.0
 10
101.9273
 20
11.7707
 30
0.0
 10
101.9273
 20
11.7707
 30
0.0
 10
104.4486
 20
15.778
 30
0.0
 10
104.9478
 20
20.736
 30
0.0
 10
103.2747
 20
25.1652
 30
0.0
 10
103.2747
 20
25.1652
 30
0.0
 10
104.3873
 20
25.62
 30
0.0
 10
105.6617
 20
25.4117
 30
0.0
 10
106.5723
 20
24.6269
 30
0.0
 10
106.5723
 20
24.6269
 30
0.0
 10
107.1772
 20
28.8425
 30
0.0
 10
105.9811
 20
33.1184
 30
0.0
 10
103.2747
 20
36.4065
 30
0.0
 10
103.2747
 20
36.4065
 30
0.0
 10
104.0203
 20
37.0125
 30
0.0
 10
104.8336
 20
37.5318
 30
0.0
 10
105.6966
 20
37.9538
 30
0.0
 10
105.6966
 20
37.9538
 30
0.0
 10
104.5163
 20
41.4079
 30
0.0
 10
102.4233
 20
44.4792
 30
0.0
 10
99.6397
 20
46.8398
 30
0.0
 10
99.6397
 20
46.8398
 30
0.0
 10
102.3609
 20
46.2941
 30
0.0
 10
105.1815
 20
47.0386
 30
0.0
 10
107.2787
 20
48.8587
 30
0.0
 10
107.2787
 20
48.8587
 30
0.0
 10
106.1936
 20
48.9782
 30
0.0
 10
105.1932
 20
49.5081
 30
0.0
 10
104.4856
 20
50.3394
 30
0.0
 10
104.4856
 20
50.3394
 30
0.0
 10
106.9773
 20
51.0131
 30
0.0
 10
108.8937
 20
53.0067
 30
0.0
 10
109.4669
 20
55.5238
 30
0.0
  0
SPLINE
  5
6B
330
1F
100
AcDbEntity
  8
layer 1
 62
     7
370
     9
100
AcDbSpline
210
0.0
220
0.0
230
1.0
 70
    11
 71
     3
 72
    56
 73
    52
 74
     0
 42
0.0000000001
 43
0.0000000001
 12
1.0
 22
0.0
 32
0.0
 13
1.0
 23
0.0
 33
0.0
 40
0.0
 40
0.0
 40
0.0
 40
0.0
 40
0.0714285714285714
 40
0.0714285714285714
 40
0.0714285714285714
 40
0.0714285714285714
 40
0.1428571428571428
 40
0.1428571428571428
 40
0.1428571428571428
 40
0.1428571428571428
 40
0.2142857142857143
 40
0.2142857142857143
 40
0.2142857142857143
 40
0.2142857142857143
 40
0.2857142857142857
 40
0.2857142857142857
 40
0.2857142857142857
 40
0.2857142857142857
 40
0.3571428571428572
 40
0.3571428571428572
 40
0.3571428571428572
 40
0.3571428571428572
 40
0.4285714285714285
 40
0.4285714285714285
 40
0.4285714285714285
 40
0.4285714285714285
 40
0.5
 40
0.5
 40
0.5
 40
0.5
 40
0.5714285714285714
 40
0.5714285714285714
 40
0.5714285714285714
 40
0.5714285714285714
 40
0.6428571428571429
 40
0.6428571428571429
 40
0.6428571428571429
 40
0.6428571428571429
 40
0.7142857142857143
 40
0.7142857142857143
 40
0.7142857142857143
 40
0.7142857142857143
 40
0.7857142857142857
 40
0.7857142857142857
 40
0.7857142857142857
 40
0.7857142857142857
 40
0.8571428571428571
 40
0.8571428571428571
 40
0.8571428571428571
 40
0.8571428571428571
 40
1.0
 40
1.0
 40
1.0
 40
1.0
 10
80.1861
 20
13.722
 30
0.0
 10
83.2542
 20
12.5692
 30
0.0
 10
86.6438
 20
12.6168
 30
0.0
 10
89.676
 20
13.8573
 30
0.0
 10
89.676
 20
13.8573
 30
0.0
 10
90.2873
 20
12.7543
 30
0.0
 10
91.0107
 20
11.7168
 30
0.0
 10
91.8303
 20
10.7596
 30
0.0
 10
91.8303
 20
10.7596
 30
0.0
 10
94.5114
 20
12.0679
 30
0.0
 10
96.6879
 20
14.2201
 30
0.0
 10
98.0237
 20
16.8853
 30
0.0
 10
98.0237
 20
16.8853
 30
0.0
 10
99.0453
 20
17.1602
 30
0.0
 10
100.1262
 20
16.7531
 30
0.0
 10
100.7163
 20
15.8753
 30
0.0
 10
100.7163
 20
15.8753
 30
0.0
 10
101.5751
 20
19.6012
 30
0.0
 10
101.3879
 20
23.4921
 30
0.0
 10
100.1769
 20
27.1165
 30
0.0
 10
100.1769
 20
27.1165
 30
0.0
 10
101.1425
 20
27.493
 30
0.0
 10
102.1716
 20
27.676
 30
0.0
 10
103.2059
 20
27.6559
 30
0.0
 10
103.2059
 20
27.6559
 30
0.0
 10
103.4016
 20
31.1597
 30
0.0
 10
102.2456
 20
34.6054
 30
0.0
 10
99.976
 20
37.2812
 30
0.0
 10
99.976
 20
37.2812
 30
0.0
 10
100.7142
 20
37.8607
 30
0.0
 10
101.4122
 20
38.4911
 30
0.0
 10
102.0616
 20
39.1669
 30
0.0
 10
102.0616
 20
39.1669
 30
0.0
 10
100.2457
 20
43.0335
 30
0.0
 10
96.7408
 20
45.8414
 30
0.0
 10
92.5707
 20
46.7731
 30
0.0
 10
92.5707
 20
46.7731
 30
0.0
 10
97.8671
 20
40.509
 30
0.0
 10
99.0728
 20
31.7509
 30
0.0
 10
95.6684
 20
24.2906
 30
0.0
 10
95.6684
 20
24.2906
 30
0.0
 10
92.3972
 20
18.9624
 30
0.0
 10
86.2123
 20
16.1629
 30
0.0
 10
80.0518
 20
17.2226
 30
0.0
 10
80.0518
 20
17.2226
 30
0.0
 10
77.9091
 20
17.6467
 30
0.0
 10
75.7146
 20
16.8102
 30
0.0
 10
74.3968
 20
15.0683
 30
0.0
 10
74.3968
 20
15.0683
 30
0.0
 10
76.3904
 20
14.9678
 30
0.0
 10
78.3522
 20
14.5131
 30
0.0
 10
80.1861
 20
13.722
 30
0.0
  0
SPLINE
  5
6C
330
1F
100
AcDbEntity
  8
layer 1
 62
     7
370
     9
100
AcDbSpline
210
0.0
220
0.0
230
1.0
 70
    11
 71
     3
 72
    76
 73
    72
 74
     0
 42
0.0000000001
 43
0.0000000001
 12
1.0
 22
0.0
 32
0.0
 13
1.0
 23
0.0
 33
0.0
 40
0.0
 40
0.0
 40
0.0
 40
0.0
 40
0.0526315789473684
 40
0.0526315789473684
 40
0.0526315789473684
 40
0.0526315789473684
 40
0.1052631578947368
 40
0.1052631578947368
 40
0.1052631578947368
 40
0.1052631578947368
 40
0.1578947368421053
 40
0.1578947368421053
 40
0.1578947368421053
 40
0.1578947368421053
 40
0.2105263157894737
 40
0.2105263157894737
 40
0.2105263157894737
 40
0.2105263157894737
 40
0.2631578947368421
 40
0.2631578947368421
 40
0.2631578947368421
 40
0.2631578947368421
 40
0.3157894736842105
 40
0.3157894736842105
 40
0.3157894736842105
 40
0.3157894736842105
 40
0.3684210526315789
 40
0.3684210526315789
 40
0.3684210526315789
 40
0.3684210526315789
 40
0.4210526315789473
 40
0.4210526315789473
 40
0.4210526315789473
 40
0.4210526315789473
 40
0.4736842105263158
 40
0.4736842105263158
 40
0.4736842105263158
 40
0.4736842105263158
 40
0.5263157894736842
 40
0.5263157894736842
 40
0.5263157894736842
 40
0.5263157894736842
 40
0.5789473684210527
 40
0.5789473684210527
 40
0.5789473684210527
 40
0.5789473684210527
 40
0.631578947368421
 40
0.631578947368421
 40
0.631578947368421
 40
0.631578947368421
 40
0.6842105263157895
 40
0.6842105263157895
 40
0.6842105263157895
 40
0.6842105263157895
 40
0.7368421052631579
 40
0.7368421052631579
 40
0.7368421052631579
 40
0.7368421052631579
 40
0.7894736842105263
 40
0.7894736842105263
 40
0.7894736842105263
 40
0.7894736842105263
 40
0.8421052631578947
 40
0.8421052631578947
 40
0.8421052631578947
 40
0.8421052631578947
 40
0.8947368421052632
 40
0.8947368421052632
 40
0.8947368421052632
 40
0.8947368421052632
 40
1.0
 40
1.0
 40
1.0
 40
1.0
 10
68.9448
 20
59.0022
 30
0.0
 10
72.4952
 20
57.8843
 30
0.0
 10
76.4285
 20
59.7647
 30
0.0
 10
77.6955
 20
63.2633
 30
0.0
 10
77.6955
 20
63.2633
 30
0.0
 10
80.6482
 20
60.3199
 30
0.0
 10
83.0226
 20
56.85
 30
0.0
 10
84.6947
 20
53.0321
 30
0.0
 10
84.6947
 20
53.0321
 30
0.0
 10
86.2092
 20
49.5366
 30
0.0
 10
84.9179
 20
45.4596
 30
0.0
 10
81.6668
 20
43.4734
 30
0.0
 10
81.6668
 20
43.4734
 30
0.0
 10
79.6933
 20
42.42
 30
0.0
 10
77.3073
 20
42.4983
 30
0.0
 10
75.4068
 20
43.6776
 30
0.0
 10
75.4068
 20
43.6776
 30
0.0
 10
73.5063
 20
44.8567
 30
0.0
 10
72.3767
 20
46.9593
 30
0.0
 10
72.4456
 20
49.1951
 30
0.0
 10
72.4456
 20
49.1951
 30
0.0
 10
73.9103
 20
47.8995
 30
0.0
 10
76.0847
 20
47.8118
 30
0.0
 10
77.65
 20
48.9856
 30
0.0
 10
77.65
 20
48.9856
 30
0.0
 10
79.2152
 20
50.1596
 30
0.0
 10
79.7419
 20
52.2716
 30
0.0
 10
78.9064
 20
54.042
 30
0.0
 10
78.9064
 20
54.042
 30
0.0
 10
77.6035
 20
55.9299
 30
0.0
 10
75.2503
 20
56.7866
 30
0.0
 10
73.0388
 20
56.1806
 30
0.0
 10
73.0388
 20
56.1806
 30
0.0
 10
70.8263
 20
55.5746
 30
0.0
 10
69.1045
 20
53.637
 30
0.0
 10
68.9448
 20
51.3494
 30
0.0
 10
68.9448
 20
51.3494
 30
0.0
 10
68.7862
 20
53.637
 30
0.0
 10
67.1977
 20
55.5746
 30
0.0
 10
64.9863
 20
56.1806
 30
0.0
 10
64.9863
 20
56.1806
 30
0.0
 10
62.7737
 20
56.7866
 30
0.0
 10
60.4206
 20
55.9299
 30
0.0
 10
59.1176
 20
54.042
 30
0.0
 10
59.1176
 20
54.042
 30
0.0
 10
58.2842
 20
52.2716
 30
0.0
 10
58.8088
 20
50.1596
 30
0.0
 10
60.3741
 20
48.9856
 30
0.0
 10
60.3741
 20
48.9856
 30
0.0
 10
61.9392
 20
47.8118
 30
0.0
 10
64.1137
 20
47.8995
 30
0.0
 10
65.5795
 20
49.1951
 30
0.0
 10
65.5795
 20
49.1951
 30
0.0
 10
65.6462
 20
46.9593
 30
0.0
 10
64.5188
 20
44.8567
 30
0.0
 10
62.6161
 20
43.6776
 30
0.0
 10
62.6161
 20
43.6776
 30
0.0
 10
60.7156
 20
42.4983
 30
0.0
 10
58.3307
 20
42.42
 30
0.0
 10
56.3573
 20
43.4734
 30
0.0
 10
56.3573
 20
43.4734
 30
0.0
 10
53.1072
 20
45.4596
 30
0.0
 10
51.8149
 20
49.5366
 30
0.0
 10
53.3282
 20
53.0321
 30
0.0
 10
53.3282
 20
53.0321
 30
0.0
 10
55.0035
 20
56.85
 30
0.0
 10
57.3779
 20
60.3199
 30
0.0
 10
60.3286
 20
63.2633
 30
0.0
 10
60.3286
 20
63.2633
 30
0.0
 10
61.5956
 20
59.7647
 30
0.0
 10
65.3945
 20
57.8843
 30
0.0
 10
68.9448
 20
59.0022
 30
0.0
  0
SPLINE
  5
6D
330
1F
100
AcDbEntity
  8
layer 1
 62
     7
370
     9
100
AcDbSpline
210
0.0
220
0.0
230
1.0
 70
    11
 71
     3
 72
    56
 73
    52
 74
     0
 42
0.0000000001
 43
0.0000000001
 12
1.0
 22
0.0
 32
0.0
 13
1.0
 23
0.0
 33
0.0
 40
0.0
 40
0.0
 40
0.0
 40
0.0
 40
0.0714285714285714
 40
0.0714285714285714
 40
0.0714285714285714
 40
0.0714285714285714
 40
0.1428571428571428
 40
0.1428571428571428
 40
0.1428571428571428
 40
0.1428571428571428
 40
0.2142857142857143
 40
0.2142857142857143
 40
0.2142857142857143
 40
0.2142857142857143
 40
0.2857142857142857
 40
0.2857142857142857
 40
0.2857142857142857
 40
0.2857142857142857
 40
0.3571428571428572
 40
0.3571428571428572
 40
0.3571428571428572
 40
0.3571428571428572
 40
0.4285714285714285
 40
0.4285714285714285
 40
0.4285714285714285
 40
0.4285714285714285
 40
0.5
 40
0.5
 40
0.5
 40
0.5
 40
0.5714285714285714
 40
0.5714285714285714
 40
0.5714285714285714
 40
0.5714285714285714
 40
0.6428571428571429
 40
0.6428571428571429
 40
0.6428571428571429
 40
0.6428571428571429
 40
0.7142857142857143
 40
0.7142857142857143
 40
0.7142857142857143
 40
0.7142857142857143
 40
0.7857142857142857
 40
0.7857142857142857
 40
0.7857142857142857
 40
0.7857142857142857
 40
0.8571428571428571
 40
0.8571428571428571
 40
0.8571428571428571
 40
0.8571428571428571
 40
1.0
 40
1.0
 40
1.0
 40
1.0
 10
93.2443
 20
104.3924
 30
0.0
 10
96.7556
 20
104.4347
 30
0.0
 10
100.0828
 20
102.8272
 30
0.0
 10
102.2308
 20
100.051
 30
0.0
 10
102.2308
 20
100.051
 30
0.0
 10
101.3466
 20
99.5941
 30
0.0
 10
100.6624
 20
98.8263
 30
0.0
 10
100.3113
 20
97.8966
 30
0.0
 10
100.3113
 20
97.8966
 30
0.0
 10
102.9013
 20
96.1273
 30
0.0
 10
104.7289
 20
93.4473
 30
0.0
 10
105.4279
 20
90.3908
 30
0.0
 10
105.4279
 20
90.3908
 30
0.0
 10
104.4021
 20
90.7197
 30
0.0
 10
103.2799
 20
90.4902
 30
0.0
 10
102.4656
 20
89.7848
 30
0.0
 10
102.4656
 20
89.7848
 30
0.0
 10
104.1239
 20
87.4274
 30
0.0
 10
104.9531
 20
84.5856
 30
0.0
 10
104.8219
 20
81.7079
 30
0.0
 10
104.8219
 20
81.7079
 30
0.0
 10
103.7252
 20
82.0178
 30
0.0
 10
102.5946
 20
82.1986
 30
0.0
 10
101.4566
 20
82.2452
 30
0.0
 10
101.4566
 20
82.2452
 30
0.0
 10
102.2699
 20
79.2067
 30
0.0
 10
101.5973
 20
75.9588
 30
0.0
 10
99.6397
 20
73.4946
 30
0.0
 10
99.6397
 20
73.4946
 30
0.0
 10
99.0273
 20
73.998
 30
0.0
 10
98.3748
 20
74.4485
 30
0.0
 10
97.6863
 20
74.8409
 30
0.0
 10
97.6863
 20
74.8409
 30
0.0
 10
94.0566
 20
70.73
 30
0.0
 10
88.1044
 20
69.5952
 30
0.0
 10
83.214
 20
72.0816
 30
0.0
 10
83.214
 20
72.0816
 30
0.0
 10
82.9391
 20
72.437
 30
0.0
 10
82.8925
 20
72.9192
 30
0.0
 10
83.0935
 20
73.3201
 30
0.0
 10
83.0935
 20
73.3201
 30
0.0
 10
83.2944
 20
73.7219
 30
0.0
 10
83.7079
 20
73.9726
 30
0.0
 10
84.1574
 20
73.9673
 30
0.0
 10
84.1574
 20
73.9673
 30
0.0
 10
87.2276
 20
73.7071
 30
0.0
 10
90.2957
 20
74.5162
 30
0.0
 10
92.8403
 20
76.2549
 30
0.0
 10
92.8403
 20
76.2549
 30
0.0
 10
100.3525
 20
84.0685
 30
0.0
 10
100.5302
 20
96.3663
 30
0.0
 10
93.2443
 20
104.3924
 30
0.0
  0
SPLINE
  5
6E
330
1F
100
AcDbEntity
  8
layer 1
 62
     7
370
     9
100
AcDbSpline
210
0.0
220
0.0
230
1.0
 70
    11
 71
     3
 72
    28
 73
    24
 74
     0
 42
0.0000000001
 43
0.0000000001
 12
1.0
 22
0.0
 32
0.0
 13
1.0
 23
0.0
 33
0.0
 40
0.0
 40
0.0
 40
0.0
 40
0.0
 40
0.1428571428571428
 40
0.1428571428571428
 40
0.1428571428571428
 40
0.1428571428571428
 40
0.2857142857142857
 40
0.2857142857142857
 40
0.2857142857142857
 40
0.2857142857142857
 40
0.4285714285714285
 40
0.4285714285714285
 40
0.4285714285714285
 40
0.4285714285714285
 40
0.5714285714285714
 40
0.5714285714285714
 40
0.5714285714285714
 40
0.5714285714285714
 40
0.7142857142857143
 40
0.7142857142857143
 40
0.7142857142857143
 40
0.7142857142857143
 40
1.0
 40
1.0
 40
1.0
 40
1.0
 10
92.302
 20
-100.5066
 30
0.0
 10
90.6342
 20
-101.0534
 30
0.0
 10
89.3777
 20
-102.4389
 30
0.0
 10
89.0002
 20
-104.1543
 30
0.0
 10
89.0002
 20
-104.1543
 30
0.0
 10
88.6216
 20
-105.8687
 30
0.0
 10
89.1779
 20
-107.655
 30
0.0
 10
90.4618
 20
-108.8532
 30
0.0
 10
90.4618
 20
-108.8532
 30
0.0
 10
90.4618
 20
-108.8532
 30
0.0
 10
85.7343
 20
-108.8532
 30
0.0
 10
85.7343
 20
-108.8532
 30
0.0
 10
85.7343
 20
-108.8532
 30
0.0
 10
85.3726
 20
-107.5471
 30
0.0
 10
84.4736
 20
-106.4567
 30
0.0
 10
83.2606
 20
-105.8539
 30
0.0
 10
83.2606
 20
-105.8539
 30
0.0
 10
82.0486
 20
-105.25
 30
0.0
 10
80.6377
 20
-105.1907
 30
0.0
 10
79.3781
 20
-105.6889
 30
0.0
 10
79.3781
 20
-105.6889
 30
0.0
 10
81.9481
 20
-101.156
 30
0.0
 10
87.3133
 20
-99.0048
 30
0.0
 10
92.302
 20
-100.5066
 30
0.0
  0
SPLINE
  5
6F
330
1F
100
AcDbEntity
  8
layer 1
 62
     7
370
     9
100
AcDbSpline
210
0.0
220
0.0
230
1.0
 70
    11
 71
     3
 72
    28
 73
    24
 74
     0
 42
0.0000000001
 43
0.0000000001
 12
1.0
 22
0.0
 32
0.0
 13
1.0
 23
0.0
 33
0.0
 40
0.0
 40
0.0
 40
0.0
 40
0.0
 40
0.1428571428571428
 40
0.1428571428571428
 40
0.1428571428571428
 40
0.1428571428571428
 40
0.2857142857142857
 40
0.2857142857142857
 40
0.2857142857142857
 40
0.2857142857142857
 40
0.4285714285714285
 40
0.4285714285714285
 40
0.4285714285714285
 40
0.4285714285714285
 40
0.5714285714285714
 40
0.5714285714285714
 40
0.5714285714285714
 40
0.5714285714285714
 40
0.7142857142857143
 40
0.7142857142857143
 40
0.7142857142857143
 40
0.7142857142857143
 40
1.0
 40
1.0
 40
1.0
 40
1.0
 10
98.4943
 20
-103.1982
 30
0.0
 10
98.9723
 20
-105.3525
 30
0.0
 10
98.1072
 20
-107.582
 30
0.0
 10
96.3051
 20
-108.8532
 30
0.0
 10
96.3051
 20
-108.8532
 30
0.0
 10
96.3051
 20
-108.8532
 30
0.0
 10
100.8633
 20
-108.8532
 30
0.0
 10
100.8633
 20
-108.8532
 30
0.0
 10
100.8633
 20
-108.8532
 30
0.0
 10
99.8671
 20
-107.4551
 30
0.0
 10
99.8248
 20
-105.5916
 30
0.0
 10
100.7576
 20
-104.1501
 30
0.0
 10
100.7576
 20
-104.1501
 30
0.0
 10
101.6904
 20
-102.7096
 30
0.0
 10
103.4079
 20
-101.9851
 30
0.0
 10
105.0916
 20
-102.3236
 30
0.0
 10
105.0916
 20
-102.3236
 30
0.0
 10
102.8781
 20
-97.6595
 30
0.0
 10
97.553
 20
-95.3561
 30
0.0
 10
92.6383
 20
-96.9383
 30
0.0
 10
92.6383
 20
-96.9383
 30
0.0
 10
95.3426
 20
-98.1672
 30
0.0
 10
97.4494
 20
-100.4188
 30
0.0
 10
98.4943
 20
-103.1982
 30
0.0
  0
SPLINE
  5
70
330
1F
100
AcDbEntity
  8
layer 1
 62
     7
370
     9
100
AcDbSpline
210
0.0
220
0.0
230
1.0
 70
    11
 71
     3
 72
    52
 73
    48
 74
     0
 42
0.0000000001
 43
0.0000000001
 12
1.0
 22
0.0
 32
0.0
 13
1.0
 23
0.0
 33
0.0
 40
0.0
 40
0.0
 40
0.0
 40
0.0
 40
0.0769230769230769
 40
0.0769230769230769
 40
0.0769230769230769
 40
0.0769230769230769
 40
0.1538461538461539
 40
0.1538461538461539
 40
0.1538461538461539
 40
0.1538461538461539
 40
0.2307692307692308
 40
0.2307692307692308
 40
0.2307692307692308
 40
0.2307692307692308
 40
0.3076923076923077
 40
0.3076923076923077
 40
0.3076923076923077
 40
0.3076923076923077
 40
0.3846153846153846
 40
0.3846153846153846
 40
0.3846153846153846
 40
0.3846153846153846
 40
0.4615384615384616
 40
0.4615384615384616
 40
0.4615384615384616
 40
0.4615384615384616
 40
0.5384615384615384
 40
0.5384615384615384
 40
0.5384615384615384
 40
0.5384615384615384
 40
0.6153846153846154
 40
0.6153846153846154
 40
0.6153846153846154
 40
0.6153846153846154
 40
0.6923076923076923
 40
0.6923076923076923
 40
0.6923076923076923
 40
0.6923076923076923
 40
0.7692307692307693
 40
0.7692307692307693
 40
0.7692307692307693
 40
0.7692307692307693
 40
0.8461538461538461
 40
0.8461538461538461
 40
0.8461538461538461
 40
0.8461538461538461
 40
1.0
 40
1.0
 40
1.0
 40
1.0
 10
94.119
 20
-93.775
 30
0.0
 10
100.7808
 20
-92.3239
 30
0.0
 10
107.4448
 20
-96.2096
 30
0.0
 10
109.4669
 20
-102.7212
 30
0.0
 10
109.4669
 20
-102.7212
 30
0.0
 10
111.4869
 20
-96.2096
 30
0.0
 10
118.152
 20
-92.3239
 30
0.0
 10
124.8138
 20
-93.775
 30
0.0
 10
124.8138
 20
-93.775
 30
0.0
 10
123.5383
 20
-92.693
 30
0.0
 10
122.0788
 20
-91.8491
 30
0.0
 10
120.5051
 20
-91.2843
 30
0.0
 10
120.5051
 20
-91.2843
 30
0.0
 10
121.3808
 20
-91.4853
 30
0.0
 10
122.2935
 20
-91.1711
 30
0.0
 10
122.8625
 20
-90.4763
 30
0.0
 10
122.8625
 20
-90.4763
 30
0.0
 10
118.6469
 20
-90.0977
 30
0.0
 10
114.9654
 20
-87.4727
 30
0.0
 10
113.2362
 20
-83.6103
 30
0.0
 10
113.2362
 20
-83.6103
 30
0.0
 10
114.1659
 20
-83.5945
 30
0.0
 10
115.0236
 20
-83.1154
 30
0.0
 10
115.5238
 20
-82.3328
 30
0.0
 10
115.5238
 20
-82.3328
 30
0.0
 10
112.791
 20
-80.4862
 30
0.0
 10
110.6811
 20
-77.857
 30
0.0
 10
109.4669
 20
-74.7899
 30
0.0
 10
109.4669
 20
-74.7899
 30
0.0
 10
108.2528
 20
-77.857
 30
0.0
 10
106.1408
 20
-80.4862
 30
0.0
 10
103.4079
 20
-82.3328
 30
0.0
 10
103.4079
 20
-82.3328
 30
0.0
 10
103.9082
 20
-83.1154
 30
0.0
 10
104.768
 20
-83.5945
 30
0.0
 10
105.6966
 20
-83.6103
 30
0.0
 10
105.6966
 20
-83.6103
 30
0.0
 10
103.9663
 20
-87.4727
 30
0.0
 10
100.2869
 20
-90.0977
 30
0.0
 10
96.0713
 20
-90.4763
 30
0.0
 10
96.0713
 20
-90.4763
 30
0.0
 10
96.6393
 20
-91.1711
 30
0.0
 10
97.553
 20
-91.4853
 30
0.0
 10
98.4266
 20
-91.2843
 30
0.0
 10
98.4266
 20
-91.2843
 30
0.0
 10
96.8529
 20
-91.8491
 30
0.0
 10
95.3945
 20
-92.693
 30
0.0
 10
94.119
 20
-93.775
 30
0.0
  0
SPLINE
  5
71
330
1F
100
AcDbEntity
  8
layer 1
 62
     7
370
     9
100
AcDbSpline
210
0.0
220
0.0
230
1.0
 70
    11
 71
     3
 72
   180
 73
   176
 74
     0
 42
0.0000000001
 43
0.0000000001
 12
1.0
 22
0.0
 32
0.0
 13
1.0
 23
0.0
 33
0.0
 40
0.0
 40
0.0
 40
0.0
 40
0.0
 40
0.0222222222222222
 40
0.0222222222222222
 40
0.0222222222222222
 40
0.0222222222222222
 40
0.0444444444444444
 40
0.0444444444444444
 40
0.0444444444444444
 40
0.0444444444444444
 40
0.0666666666666667
 40
0.0666666666666667
 40
0.0666666666666667
 40
0.0666666666666667
 40
0.0888888888888889
 40
0.0888888888888889
 40
0.0888888888888889
 40
0.0888888888888889
 40
0.1111111111111111
 40
0.1111111111111111
 40
0.1111111111111111
 40
0.1111111111111111
 40
0.1333333333333333
 40
0.1333333333333333
 40
0.1333333333333333
 40
0.1333333333333333
 40
0.1555555555555556
 40
0.1555555555555556
 40
0.1555555555555556
 40
0.1555555555555556
 40
0.1777777777777778
 40
0.1777777777777778
 40
0.1777777777777778
 40
0.1777777777777778
 40
0.2
 40
0.2
 40
0.2
 40
0.2
 40
0.2222222222222222
 40
0.2222222222222222
 40
0.2222222222222222
 40
0.2222222222222222
 40
0.2444444444444444
 40
0.2444444444444444
 40
0.2444444444444444
 40
0.2444444444444444
 40
0.2666666666666667
 40
0.2666666666666667
 40
0.2666666666666667
 40
0.2666666666666667
 40
0.2888888888888889
 40
0.2888888888888889
 40
0.2888888888888889
 40
0.2888888888888889
 40
0.3111111111111111
 40
0.3111111111111111
 40
0.3111111111111111
 40
0.3111111111111111
 40
0.3333333333333333
 40
0.3333333333333333
 40
0.3333333333333333
 40
0.3333333333333333
 40
0.3555555555555556
 40
0.3555555555555556
 40
0.3555555555555556
 40
0.3555555555555556
 40
0.3777777777777778
 40
0.3777777777777778
 40
0.3777777777777778
 40
0.3777777777777778
 40
0.4
 40
0.4
 40
0.4
 40
0.4
 40
0.4222222222222222
 40
0.4222222222222222
 40
0.4222222222222222
 40
0.4222222222222222
 40
0.4444444444444444
 40
0.4444444444444444
 40
0.4444444444444444
 40
0.4444444444444444
 40
0.4666666666666667
 40
0.4666666666666667
 40
0.4666666666666667
 40
0.4666666666666667
 40
0.4888888888888889
 40
0.4888888888888889
 40
0.4888888888888889
 40
0.4888888888888889
 40
0.5111111111111111
 40
0.5111111111111111
 40
0.5111111111111111
 40
0.5111111111111111
 40
0.5333333333333333
 40
0.5333333333333333
 40
0.5333333333333333
 40
0.5333333333333333
 40
0.5555555555555556
 40
0.5555555555555556
 40
0.5555555555555556
 40
0.5555555555555556
 40
0.5777777777777777
 40
0.5777777777777777
 40
0.5777777777777777
 40
0.5777777777777777
 40
0.6
 40
0.6
 40
0.6
 40
0.6
 40
0.6222222222222222
 40
0.6222222222222222
 40
0.6222222222222222
 40
0.6222222222222222
 40
0.6444444444444445
 40
0.6444444444444445
 40
0.6444444444444445
 40
0.6444444444444445
 40
0.6666666666666666
 40
0.6666666666666666
 40
0.6666666666666666
 40
0.6666666666666666
 40
0.6888888888888889
 40
0.6888888888888889
 40
0.6888888888888889
 40
0.6888888888888889
 40
0.7111111111111111
 40
0.7111111111111111
 40
0.7111111111111111
 40
0.7111111111111111
 40
0.7333333333333333
 40
0.7333333333333333
 40
0.7333333333333333
 40
0.7333333333333333
 40
0.7555555555555555
 40
0.7555555555555555
 40
0.7555555555555555
 40
0.7555555555555555
 40
0.7777777777777778
 40
0.7777777777777778
 40
0.7777777777777778
 40
0.7777777777777778
 40
0.8
 40
0.8
 40
0.8
 40
0.8
 40
0.8222222222222222
 40
0.8222222222222222
 40
0.8222222222222222
 40
0.8222222222222222
 40
0.8444444444444444
 40
0.8444444444444444
 40
0.8444444444444444
 40
0.8444444444444444
 40
0.8666666666666667
 40
0.8666666666666667
 40
0.8666666666666667
 40
0.8666666666666667
 40
0.8888888888888888
 40
0.8888888888888888
 40
0.8888888888888888
 40
0.8888888888888888
 40
0.9111111111111111
 40
0.9111111111111111
 40
0.9111111111111111
 40
0.9111111111111111
 40
0.9333333333333333
 40
0.9333333333333333
 40
0.9333333333333333
 40
0.9333333333333333
 40
0.9555555555555556
 40
0.9555555555555556
 40
0.9555555555555556
 40
0.9555555555555556
 40
1.0
 40
1.0
 40
1.0
 40
1.0
 10
106.3026
 20
-71.4944
 30
0.0
 10
107.2015
 20
-72.1829
 30
0.0
 10
108.3533
 20
-72.4568
 30
0.0
 10
109.4669
 20
-72.2485
 30
0.0
 10
109.4669
 20
-72.2485
 30
0.0
 10
110.5806
 20
-72.4568
 30
0.0
 10
111.7302
 20
-72.1829
 30
0.0
 10
112.6292
 20
-71.4944
 30
0.0
 10
112.6292
 20
-71.4944
 30
0.0
 10
111.4912
 20
-68.4665
 30
0.0
 10
111.1898
 20
-65.189
 30
0.0
 10
111.7545
 20
-62.0024
 30
0.0
 10
111.7545
 20
-62.0024
 30
0.0
 10
112.5594
 20
-61.9115
 30
0.0
 10
113.3727
 20
-61.9115
 30
0.0
 10
114.1786
 20
-62.0024
 30
0.0
 10
114.1786
 20
-62.0024
 30
0.0
 10
113.9734
 20
-58.4848
 30
0.0
 10
115.2975
 20
-55.0498
 30
0.0
 10
117.8135
 20
-52.5792
 30
0.0
 10
117.8135
 20
-52.5792
 30
0.0
 10
117.9595
 20
-53.5067
 30
0.0
 10
118.5687
 20
-54.2936
 30
0.0
 10
119.4285
 20
-54.6658
 30
0.0
 10
119.4285
 20
-54.6658
 30
0.0
 10
124.0745
 20
-51.0573
 30
0.0
 10
130.2351
 20
-50.0557
 30
0.0
 10
135.7854
 20
-52.0081
 30
0.0
 10
135.7854
 20
-52.0081
 30
0.0
 10
134.1789
 20
-49.3048
 30
0.0
 10
131.6798
 20
-47.2446
 30
0.0
 10
128.7174
 20
-46.1849
 30
0.0
 10
128.7174
 20
-46.1849
 30
0.0
 10
130.1589
 20
-45.7703
 30
0.0
 10
131.6618
 20
-45.6001
 30
0.0
 10
133.1604
 20
-45.6794
 30
0.0
 10
133.1604
 20
-45.6794
 30
0.0
 10
132.5777
 20
-41.8012
 30
0.0
 10
130.5598
 20
-38.2814
 30
0.0
 10
127.5065
 20
-35.8183
 30
0.0
 10
127.5065
 20
-35.8183
 30
0.0
 10
126.157
 20
-34.7649
 30
0.0
 10
124.3971
 20
-34.3948
 30
0.0
 10
122.7367
 20
-34.8167
 30
0.0
 10
122.7367
 20
-34.8167
 30
0.0
 10
121.0784
 20
-35.2377
 30
0.0
 10
119.7066
 20
-36.4031
 30
0.0
 10
119.0245
 20
-37.9726
 30
0.0
 10
119.0245
 20
-37.9726
 30
0.0
 10
118.2345
 20
-39.3972
 30
0.0
 10
118.6998
 20
-41.1899
 30
0.0
 10
120.081
 20
-42.0507
 30
0.0
 10
120.081
 20
-42.0507
 30
0.0
 10
121.4633
 20
-42.9116
 30
0.0
 10
123.2771
 20
-42.5404
 30
0.0
 10
124.2067
 20
-41.2036
 30
0.0
 10
124.2067
 20
-41.2036
 30
0.0
 10
125.2495
 20
-42.2157
 30
0.0
 10
125.6197
 20
-43.7345
 30
0.0
 10
125.1607
 20
-45.1115
 30
0.0
 10
125.1607
 20
-45.1115
 30
0.0
 10
124.7006
 20
-46.4885
 30
0.0
 10
123.495
 20
-47.4815
 30
0.0
 10
122.0535
 20
-47.6666
 30
0.0
 10
122.0535
 20
-47.6666
 30
0.0
 10
120.5051
 20
-47.9035
 30
0.0
 10
118.9642
 20
-47.1865
 30
0.0
 10
118.1499
 20
-45.8486
 30
0.0
 10
118.1499
 20
-45.8486
 30
0.0
 10
118.3
 20
-46.4959
 30
0.0
 10
118.4343
 20
-47.1473
 30
0.0
 10
118.5539
 20
-47.8009
 30
0.0
 10
118.5539
 20
-47.8009
 30
0.0
 10
118.8066
 20
-48.72
 30
0.0
 10
118.6237
 20
-49.7025
 30
0.0
 10
118.06
 20
-50.4703
 30
0.0
 10
118.06
 20
-50.4703
 30
0.0
 10
117.4963
 20
-51.2381
 30
0.0
 10
116.611
 20
-51.7046
 30
0.0
 10
115.6592
 20
-51.7384
 30
0.0
 10
115.6592
 20
-51.7384
 30
0.0
 10
114.1394
 20
-51.6125
 30
0.0
 10
112.8555
 20
-50.5581
 30
0.0
 10
112.4367
 20
-49.0912
 30
0.0
 10
112.4367
 20
-49.0912
 30
0.0
 10
112.0168
 20
-47.6254
 30
0.0
 10
112.5509
 20
-46.0517
 30
0.0
 10
113.7745
 20
-45.1421
 30
0.0
 10
113.7745
 20
-45.1421
 30
0.0
 10
111.8719
 20
-45.2902
 30
0.0
 10
110.1047
 20
-44.1437
 30
0.0
 10
109.4669
 20
-42.3437
 30
0.0
 10
109.4669
 20
-42.3437
 30
0.0
 10
108.8292
 20
-44.1437
 30
0.0
 10
107.0619
 20
-45.2902
 30
0.0
 10
105.1593
 20
-45.1421
 30
0.0
 10
105.1593
 20
-45.1421
 30
0.0
 10
106.383
 20
-46.0517
 30
0.0
 10
106.9149
 20
-47.6254
 30
0.0
 10
106.4972
 20
-49.0912
 30
0.0
 10
106.4972
 20
-49.0912
 30
0.0
 10
106.0773
 20
-50.5581
 30
0.0
 10
104.7944
 20
-51.6125
 30
0.0
 10
103.2747
 20
-51.7384
 30
0.0
 10
103.2747
 20
-51.7384
 30
0.0
 10
102.3207
 20
-51.7046
 30
0.0
 10
101.4376
 20
-51.2381
 30
0.0
 10
100.8739
 20
-50.4703
 30
0.0
 10
100.8739
 20
-50.4703
 30
0.0
 10
100.3091
 20
-49.7025
 30
0.0
 10
100.1272
 20
-48.72
 30
0.0
 10
100.38
 20
-47.8009
 30
0.0
 10
100.38
 20
-47.8009
 30
0.0
 10
100.4974
 20
-47.1473
 30
0.0
 10
100.6317
 20
-46.4959
 30
0.0
 10
100.784
 20
-45.8486
 30
0.0
 10
100.784
 20
-45.8486
 30
0.0
 10
99.9686
 20
-47.1865
 30
0.0
 10
98.4287
 20
-47.9035
 30
0.0
 10
96.8793
 20
-47.6666
 30
0.0
 10
96.8793
 20
-47.6666
 30
0.0
 10
95.4389
 20
-47.4815
 30
0.0
 10
94.2321
 20
-46.4885
 30
0.0
 10
93.7731
 20
-45.1115
 30
0.0
 10
93.7731
 20
-45.1115
 30
0.0
 10
93.3141
 20
-43.7345
 30
0.0
 10
93.6843
 20
-42.2157
 30
0.0
 10
94.725
 20
-41.2036
 30
0.0
 10
94.725
 20
-41.2036
 30
0.0
 10
95.6567
 20
-42.5404
 30
0.0
 10
97.4695
 20
-42.9116
 30
0.0
 10
98.8507
 20
-42.0507
 30
0.0
 10
98.8507
 20
-42.0507
 30
0.0
 10
100.233
 20
-41.1899
 30
0.0
 10
100.6973
 20
-39.3972
 30
0.0
 10
99.9072
 20
-37.9726
 30
0.0
 10
99.9072
 20
-37.9726
 30
0.0
 10
99.2251
 20
-36.4031
 30
0.0
 10
97.8555
 20
-35.2377
 30
0.0
 10
96.1951
 20
-34.8167
 30
0.0
 10
96.1951
 20
-34.8167
 30
0.0
 10
94.5367
 20
-34.3948
 30
0.0
 10
92.7748
 20
-34.7649
 30
0.0
 10
91.4274
 20
-35.8183
 30
0.0
 10
91.4274
 20
-35.8183
 30
0.0
 10
88.3741
 20
-38.2814
 30
0.0
 10
86.3551
 20
-41.8012
 30
0.0
 10
85.7724
 20
-45.6794
 30
0.0
 10
85.7724
 20
-45.6794
 30
0.0
 10
87.2721
 20
-45.6001
 30
0.0
 10
88.7728
 20
-45.7703
 30
0.0
 10
90.2164
 20
-46.1849
 30
0.0
 10
90.2164
 20
-46.1849
 30
0.0
 10
87.2541
 20
-47.2446
 30
0.0
 10
84.755
 20
-49.3048
 30
0.0
 10
83.1474
 20
-52.0081
 30
0.0
 10
83.1474
 20
-52.0081
 30
0.0
 10
88.6967
 20
-50.0557
 30
0.0
 10
94.8572
 20
-51.0573
 30
0.0
 10
99.5043
 20
-54.6658
 30
0.0
 10
99.5043
 20
-54.6658
 30
0.0
 10
100.3641
 20
-54.2936
 30
0.0
 10
100.9733
 20
-53.5067
 30
0.0
 10
101.1203
 20
-52.5792
 30
0.0
 10
101.1203
 20
-52.5792
 30
0.0
 10
103.6342
 20
-55.0498
 30
0.0
 10
104.9605
 20
-58.4848
 30
0.0
 10
104.7553
 20
-62.0024
 30
0.0
 10
104.7553
 20
-62.0024
 30
0.0
 10
105.5601
 20
-61.9115
 30
0.0
 10
106.3724
 20
-61.9115
 30
0.0
 10
107.1772
 20
-62.0024
 30
0.0
 10
107.1772
 20
-62.0024
 30
0.0
 10
107.7441
 20
-65.189
 30
0.0
 10
107.4416
 20
-68.4665
 30
0.0
 10
106.3026
 20
-71.4944
 30
0.0
  0
SPLINE
  5
72
330
1F
100
AcDbEntity
  8
layer 1
 62
     7
370
     9
100
AcDbSpline
210
0.0
220
0.0
230
1.0
 70
    11
 71
     3
 72
    56
 73
    52
 74
     0
 42
0.0000000001
 43
0.0000000001
 12
1.0
 22
0.0
 32
0.0
 13
1.0
 23
0.0
 33
0.0
 40
0.0
 40
0.0
 40
0.0
 40
0.0
 40
0.0714285714285714
 40
0.0714285714285714
 40
0.0714285714285714
 40
0.0714285714285714
 40
0.1428571428571428
 40
0.1428571428571428
 40
0.1428571428571428
 40
0.1428571428571428
 40
0.2142857142857143
 40
0.2142857142857143
 40
0.2142857142857143
 40
0.2142857142857143
 40
0.2857142857142857
 40
0.2857142857142857
 40
0.2857142857142857
 40
0.2857142857142857
 40
0.3571428571428572
 40
0.3571428571428572
 40
0.3571428571428572
 40
0.3571428571428572
 40
0.4285714285714285
 40
0.4285714285714285
 40
0.4285714285714285
 40
0.4285714285714285
 40
0.5
 40
0.5
 40
0.5
 40
0.5
 40
0.5714285714285714
 40
0.5714285714285714
 40
0.5714285714285714
 40
0.5714285714285714
 40
0.6428571428571429
 40
0.6428571428571429
 40
0.6428571428571429
 40
0.6428571428571429
 40
0.7142857142857143
 40
0.7142857142857143
 40
0.7142857142857143
 40
0.7142857142857143
 40
0.7857142857142857
 40
0.7857142857142857
 40
0.7857142857142857
 40
0.7857142857142857
 40
0.8571428571428571
 40
0.8571428571428571
 40
0.8571428571428571
 40
0.8571428571428571
 40
1.0
 40
1.0
 40
1.0
 40
1.0
 10
80.1861
 20
2.2798
 30
0.0
 10
83.2542
 20
3.4326
 30
0.0
 10
86.6438
 20
3.3839
 30
0.0
 10
89.676
 20
2.1444
 30
0.0
 10
89.676
 20
2.1444
 30
0.0
 10
90.2873
 20
3.2475
 30
0.0
 10
91.0107
 20
4.285
 30
0.0
 10
91.8303
 20
5.2411
 30
0.0
 10
91.8303
 20
5.2411
 30
0.0
 10
94.5114
 20
3.9339
 30
0.0
 10
96.6879
 20
1.7827
 30
0.0
 10
98.0237
 20
-0.8846
 30
0.0
 10
98.0237
 20
-0.8846
 30
0.0
 10
99.0453
 20
-1.1574
 30
0.0
 10
100.1262
 20
-0.7524
 30
0.0
 10
100.7163
 20
0.1254
 30
0.0
 10
100.7163
 20
0.1254
 30
0.0
 10
101.5751
 20
-3.5995
 30
0.0
 10
101.3879
 20
-7.4893
 30
0.0
 10
100.1769
 20
-11.1158
 30
0.0
 10
100.1769
 20
-11.1158
 30
0.0
 10
101.1425
 20
-11.4913
 30
0.0
 10
102.1716
 20
-11.6732
 30
0.0
 10
103.2059
 20
-11.6552
 30
0.0
 10
103.2059
 20
-11.6552
 30
0.0
 10
103.4016
 20
-15.158
 30
0.0
 10
102.2456
 20
-18.6026
 30
0.0
 10
99.976
 20
-21.2794
 30
0.0
 10
99.976
 20
-21.2794
 30
0.0
 10
100.7142
 20
-21.8579
 30
0.0
 10
101.4122
 20
-22.4893
 30
0.0
 10
102.0616
 20
-23.1641
 30
0.0
 10
102.0616
 20
-23.1641
 30
0.0
 10
100.2457
 20
-27.0317
 30
0.0
 10
96.7408
 20
-29.8407
 30
0.0
 10
92.5707
 20
-30.7703
 30
0.0
 10
92.5707
 20
-30.7703
 30
0.0
 10
97.8671
 20
-24.5083
 30
0.0
 10
99.0728
 20
-15.7503
 30
0.0
 10
95.6684
 20
-8.2878
 30
0.0
 10
95.6684
 20
-8.2878
 30
0.0
 10
92.3972
 20
-2.9617
 30
0.0
 10
86.2123
 20
-0.1612
 30
0.0
 10
80.0518
 20
-1.2209
 30
0.0
 10
80.0518
 20
-1.2209
 30
0.0
 10
77.9091
 20
-1.6439
 30
0.0
 10
75.7146
 20
-0.8084
 30
0.0
 10
74.3968
 20
0.9334
 30
0.0
 10
74.3968
 20
0.9334
 30
0.0
 10
76.3904
 20
1.0328
 30
0.0
 10
78.3522
 20
1.4897
 30
0.0
 10
80.1861
 20
2.2798
 30
0.0
  0
SPLINE
  5
73
330
1F
100
AcDbEntity
  8
layer 1
 62
     7
370
     9
100
AcDbSpline
210
0.0
220
0.0
230
1.0
 70
    11
 71
     3
 72
    76
 73
    72
 74
     0
 42
0.0000000001
 43
0.0000000001
 12
1.0
 22
0.0
 32
0.0
 13
1.0
 23
0.0
 33
0.0
 40
0.0
 40
0.0
 40
0.0
 40
0.0
 40
0.0526315789473684
 40
0.0526315789473684
 40
0.0526315789473684
 40
0.0526315789473684
 40
0.1052631578947368
 40
0.1052631578947368
 40
0.1052631578947368
 40
0.1052631578947368
 40
0.1578947368421053
 40
0.1578947368421053
 40
0.1578947368421053
 40
0.1578947368421053
 40
0.2105263157894737
 40
0.2105263157894737
 40
0.2105263157894737
 40
0.2105263157894737
 40
0.2631578947368421
 40
0.2631578947368421
 40
0.2631578947368421
 40
0.2631578947368421
 40
0.3157894736842105
 40
0.3157894736842105
 40
0.3157894736842105
 40
0.3157894736842105
 40
0.3684210526315789
 40
0.3684210526315789
 40
0.3684210526315789
 40
0.3684210526315789
 40
0.4210526315789473
 40
0.4210526315789473
 40
0.4210526315789473
 40
0.4210526315789473
 40
0.4736842105263158
 40
0.4736842105263158
 40
0.4736842105263158
 40
0.4736842105263158
 40
0.5263157894736842
 40
0.5263157894736842
 40
0.5263157894736842
 40
0.5263157894736842
 40
0.5789473684210527
 40
0.5789473684210527
 40
0.5789473684210527
 40
0.5789473684210527
 40
0.631578947368421
 40
0.631578947368421
 40
0.631578947368421
 40
0.631578947368421
 40
0.6842105263157895
 40
0.6842105263157895
 40
0.6842105263157895
 40
0.6842105263157895
 40
0.7368421052631579
 40
0.7368421052631579
 40
0.7368421052631579
 40
0.7368421052631579
 40
0.7894736842105263
 40
0.7894736842105263
 40
0.7894736842105263
 40
0.7894736842105263
 40
0.8421052631578947
 40
0.8421052631578947
 40
0.8421052631578947
 40
0.8421052631578947
 40
0.8947368421052632
 40
0.8947368421052632
 40
0.8947368421052632
 40
0.8947368421052632
 40
1.0
 40
1.0
 40
1.0
 40
1.0
 10
68.9448
 20
-42.9994
 30
0.0
 10
72.4952
 20
-41.8826
 30
0.0
 10
76.4285
 20
-43.763
 30
0.0
 10
77.6955
 20
-47.2626
 30
0.0
 10
77.6955
 20
-47.2626
 30
0.0
 10
80.6482
 20
-44.3183
 30
0.0
 10
83.0226
 20
-40.8482
 30
0.0
 10
84.6947
 20
-37.0313
 30
0.0
 10
84.6947
 20
-37.0313
 30
0.0
 10
86.2092
 20
-33.535
 30
0.0
 10
84.9179
 20
-29.4589
 30
0.0
 10
81.6668
 20
-27.4716
 30
0.0
 10
81.6668
 20
-27.4716
 30
0.0
 10
79.6933
 20
-26.4183
 30
0.0
 10
77.3073
 20
-26.4955
 30
0.0
 10
75.4068
 20
-27.6758
 30
0.0
 10
75.4068
 20
-27.6758
 30
0.0
 10
73.5063
 20
-28.8551
 30
0.0
 10
72.3767
 20
-30.9586
 30
0.0
 10
72.4456
 20
-33.1943
 30
0.0
 10
72.4456
 20
-33.1943
 30
0.0
 10
73.9103
 20
-31.8978
 30
0.0
 10
76.0847
 20
-31.811
 30
0.0
 10
77.65
 20
-32.9839
 30
0.0
 10
77.65
 20
-32.9839
 30
0.0
 10
79.2152
 20
-34.1589
 30
0.0
 10
79.7419
 20
-36.2709
 30
0.0
 10
78.9064
 20
-38.0403
 30
0.0
 10
78.9064
 20
-38.0403
 30
0.0
 10
77.6035
 20
-39.9271
 30
0.0
 10
75.2503
 20
-40.7858
 30
0.0
 10
73.0388
 20
-40.1798
 30
0.0
 10
73.0388
 20
-40.1798
 30
0.0
 10
70.8263
 20
-39.5728
 30
0.0
 10
69.1045
 20
-37.6363
 30
0.0
 10
68.9448
 20
-35.3487
 30
0.0
 10
68.9448
 20
-35.3487
 30
0.0
 10
68.7862
 20
-37.6363
 30
0.0
 10
67.1977
 20
-39.5728
 30
0.0
 10
64.9863
 20
-40.1798
 30
0.0
 10
64.9863
 20
-40.1798
 30
0.0
 10
62.7737
 20
-40.7858
 30
0.0
 10
60.4206
 20
-39.9271
 30
0.0
 10
59.1176
 20
-38.0403
 30
0.0
 10
59.1176
 20
-38.0403
 30
0.0
 10
58.2842
 20
-36.2709
 30
0.0
 10
58.8088
 20
-34.1589
 30
0.0
 10
60.3741
 20
-32.9839
 30
0.0
 10
60.3741
 20
-32.9839
 30
0.0
 10
61.9392
 20
-31.811
 30
0.0
 10
64.1137
 20
-31.8978
 30
0.0
 10
65.5795
 20
-33.1943
 30
0.0
 10
65.5795
 20
-33.1943
 30
0.0
 10
65.6462
 20
-30.9586
 30
0.0
 10
64.5188
 20
-28.8551
 30
0.0
 10
62.6161
 20
-27.6758
 30
0.0
 10
62.6161
 20
-27.6758
 30
0.0
 10
60.7156
 20
-26.4955
 30
0.0
 10
58.3307
 20
-26.4183
 30
0.0
 10
56.3573
 20
-27.4716
 30
0.0
 10
56.3573
 20
-27.4716
 30
0.0
 10
53.1072
 20
-29.4589
 30
0.0
 10
51.8149
 20
-33.535
 30
0.0
 10
53.3282
 20
-37.0313
 30
0.0
 10
53.3282
 20
-37.0313
 30
0.0
 10
55.0035
 20
-40.8482
 30
0.0
 10
57.3779
 20
-44.3183
 30
0.0
 10
60.3286
 20
-47.2626
 30
0.0
 10
60.3286
 20
-47.2626
 30
0.0
 10
61.5956
 20
-43.763
 30
0.0
 10
65.3945
 20
-41.8826
 30
0.0
 10
68.9448
 20
-42.9994
 30
0.0
  0
SPLINE
  5
74
330
1F
100
AcDbEntity
  8
layer 1
 62
     7
370
     9
100
AcDbSpline
210
0.0
220
0.0
230
1.0
 70
    11
 71
     3
 72
    28
 73
    24
 74
     0
 42
0.0000000001
 43
0.0000000001
 12
1.0
 22
0.0
 32
0.0
 13
1.0
 23
0.0
 33
0.0
 40
0.0
 40
0.0
 40
0.0
 40
0.0
 40
0.1428571428571428
 40
0.1428571428571428
 40
0.1428571428571428
 40
0.1428571428571428
 40
0.2857142857142857
 40
0.2857142857142857
 40
0.2857142857142857
 40
0.2857142857142857
 40
0.4285714285714285
 40
0.4285714285714285
 40
0.4285714285714285
 40
0.4285714285714285
 40
0.5714285714285714
 40
0.5714285714285714
 40
0.5714285714285714
 40
0.5714285714285714
 40
0.7142857142857143
 40
0.7142857142857143
 40
0.7142857142857143
 40
0.7142857142857143
 40
1.0
 40
1.0
 40
1.0
 40
1.0
 10
68.9448
 20
-62.1379
 30
0.0
 10
72.4202
 20
-59.7699
 30
0.0
 10
74.6432
 20
-55.844
 30
0.0
 10
74.6665
 20
-51.638
 30
0.0
 10
74.6665
 20
-51.638
 30
0.0
 10
74.7004
 20
-50.2864
 30
0.0
 10
74.0119
 20
-49.0183
 30
0.0
 10
72.8622
 20
-48.3107
 30
0.0
 10
72.8622
 20
-48.3107
 30
0.0
 10
71.7105
 20
-47.6021
 30
0.0
 10
70.1367
 20
-47.5588
 30
0.0
 10
68.9448
 20
-48.1965
 30
0.0
 10
68.9448
 20
-48.1965
 30
0.0
 10
67.7539
 20
-47.5588
 30
0.0
 10
66.3125
 20
-47.6021
 30
0.0
 10
65.1608
 20
-48.3107
 30
0.0
 10
65.1608
 20
-48.3107
 30
0.0
 10
64.0111
 20
-49.0183
 30
0.0
 10
63.3237
 20
-50.2864
 30
0.0
 10
63.3586
 20
-51.638
 30
0.0
 10
63.3586
 20
-51.638
 30
0.0
 10
63.3808
 20
-55.844
 30
0.0
 10
65.4685
 20
-59.7699
 30
0.0
 10
68.9448
 20
-62.1379
 30
0.0
  0
SPLINE
  5
75
330
1F
100
AcDbEntity
  8
layer 1
 62
     7
370
     9
100
AcDbSpline
210
0.0
220
0.0
230
1.0
 70
    11
 71
     3
 72
    56
 73
    52
 74
     0
 42
0.0000000001
 43
0.0000000001
 12
1.0
 22
0.0
 32
0.0
 13
1.0
 23
0.0
 33
0.0
 40
0.0
 40
0.0
 40
0.0
 40
0.0
 40
0.0714285714285714
 40
0.0714285714285714
 40
0.0714285714285714
 40
0.0714285714285714
 40
0.1428571428571428
 40
0.1428571428571428
 40
0.1428571428571428
 40
0.1428571428571428
 40
0.2142857142857143
 40
0.2142857142857143
 40
0.2142857142857143
 40
0.2142857142857143
 40
0.2857142857142857
 40
0.2857142857142857
 40
0.2857142857142857
 40
0.2857142857142857
 40
0.3571428571428572
 40
0.3571428571428572
 40
0.3571428571428572
 40
0.3571428571428572
 40
0.4285714285714285
 40
0.4285714285714285
 40
0.4285714285714285
 40
0.4285714285714285
 40
0.5
 40
0.5
 40
0.5
 40
0.5
 40
0.5714285714285714
 40
0.5714285714285714
 40
0.5714285714285714
 40
0.5714285714285714
 40
0.6428571428571429
 40
0.6428571428571429
 40
0.6428571428571429
 40
0.6428571428571429
 40
0.7142857142857143
 40
0.7142857142857143
 40
0.7142857142857143
 40
0.7142857142857143
 40
0.7857142857142857
 40
0.7857142857142857
 40
0.7857142857142857
 40
0.7857142857142857
 40
0.8571428571428571
 40
0.8571428571428571
 40
0.8571428571428571
 40
0.8571428571428571
 40
1.0
 40
1.0
 40
1.0
 40
1.0
 10
93.2443
 20
-88.3896
 30
0.0
 10
96.7556
 20
-88.432
 30
0.0
 10
100.0828
 20
-86.8244
 30
0.0
 10
102.2308
 20
-84.0482
 30
0.0
 10
102.2308
 20
-84.0482
 30
0.0
 10
101.3466
 20
-83.5913
 30
0.0
 10
100.6624
 20
-82.8245
 30
0.0
 10
100.3113
 20
-81.8938
 30
0.0
 10
100.3113
 20
-81.8938
 30
0.0
 10
102.9013
 20
-80.1255
 30
0.0
 10
104.7289
 20
-77.4456
 30
0.0
 10
105.4279
 20
-74.3891
 30
0.0
 10
105.4279
 20
-74.3891
 30
0.0
 10
104.4021
 20
-74.7169
 30
0.0
 10
103.2799
 20
-74.4885
 30
0.0
 10
102.4656
 20
-73.7831
 30
0.0
 10
102.4656
 20
-73.7831
 30
0.0
 10
104.1239
 20
-71.4267
 30
0.0
 10
104.9531
 20
-68.585
 30
0.0
 10
104.8219
 20
-65.7062
 30
0.0
 10
104.8219
 20
-65.7062
 30
0.0
 10
103.7252
 20
-66.015
 30
0.0
 10
102.5946
 20
-66.1958
 30
0.0
 10
101.4566
 20
-66.2434
 30
0.0
 10
101.4566
 20
-66.2434
 30
0.0
 10
102.2699
 20
-63.2039
 30
0.0
 10
101.5973
 20
-59.9581
 30
0.0
 10
99.6397
 20
-57.4939
 30
0.0
 10
99.6397
 20
-57.4939
 30
0.0
 10
99.0273
 20
-57.9962
 30
0.0
 10
98.3748
 20
-58.4468
 30
0.0
 10
97.6863
 20
-58.8402
 30
0.0
 10
97.6863
 20
-58.8402
 30
0.0
 10
94.0566
 20
-54.7293
 30
0.0
 10
88.1044
 20
-53.5934
 30
0.0
 10
83.214
 20
-56.0799
 30
0.0
 10
83.214
 20
-56.0799
 30
0.0
 10
82.9391
 20
-56.4352
 30
0.0
 10
82.8925
 20
-56.9164
 30
0.0
 10
83.0935
 20
-57.3183
 30
0.0
 10
83.0935
 20
-57.3183
 30
0.0
 10
83.2944
 20
-57.7213
 30
0.0
 10
83.7079
 20
-57.9719
 30
0.0
 10
84.1574
 20
-57.9645
 30
0.0
 10
84.1574
 20
-57.9645
 30
0.0
 10
87.2276
 20
-57.7065
 30
0.0
 10
90.2957
 20
-58.5155
 30
0.0
 10
92.8403
 20
-60.2542
 30
0.0
 10
92.8403
 20
-60.2542
 30
0.0
 10
100.3525
 20
-68.0667
 30
0.0
 10
100.5302
 20
-80.3635
 30
0.0
 10
93.2443
 20
-88.3896
 30
0.0
  0
SPLINE
  5
76
330
1F
100
AcDbEntity
  8
layer 1
 62
     7
370
     9
100
AcDbSpline
210
0.0
220
0.0
230
1.0
 70
    11
 71
     3
 72
    28
 73
    24
 74
     0
 42
0.0000000001
 43
0.0000000001
 12
1.0
 22
0.0
 32
0.0
 13
1.0
 23
0.0
 33
0.0
 40
0.0
 40
0.0
 40
0.0
 40
0.0
 40
0.1428571428571428
 40
0.1428571428571428
 40
0.1428571428571428
 40
0.1428571428571428
 40
0.2857142857142857
 40
0.2857142857142857
 40
0.2857142857142857
 40
0.2857142857142857
 40
0.4285714285714285
 40
0.4285714285714285
 40
0.4285714285714285
 40
0.4285714285714285
 40
0.5714285714285714
 40
0.5714285714285714
 40
0.5714285714285714
 40
0.5714285714285714
 40
0.7142857142857143
 40
0.7142857142857143
 40
0.7142857142857143
 40
0.7142857142857143
 40
1.0
 40
1.0
 40
1.0
 40
1.0
 10
173.2119
 20
116.5073
 30
0.0
 10
171.543
 20
117.0541
 30
0.0
 10
170.2865
 20
118.4416
 30
0.0
 10
169.909
 20
120.156
 30
0.0
 10
169.909
 20
120.156
 30
0.0
 10
169.5314
 20
121.8704
 30
0.0
 10
170.0866
 20
123.6556
 30
0.0
 10
171.3706
 20
124.8539
 30
0.0
 10
171.3706
 20
124.8539
 30
0.0
 10
171.3706
 20
124.8539
 30
0.0
 10
166.6441
 20
124.8539
 30
0.0
 10
166.6441
 20
124.8539
 30
0.0
 10
166.6441
 20
124.8539
 30
0.0
 10
166.2814
 20
123.5478
 30
0.0
 10
165.3835
 20
122.4584
 30
0.0
 10
164.1715
 20
121.8545
 30
0.0
 10
164.1715
 20
121.8545
 30
0.0
 10
162.9584
 20
121.2517
 30
0.0
 10
161.5465
 20
121.1914
 30
0.0
 10
160.2869
 20
121.6906
 30
0.0
 10
160.2869
 20
121.6906
 30
0.0
 10
162.8569
 20
117.1577
 30
0.0
 10
168.221
 20
115.0066
 30
0.0
 10
173.2119
 20
116.5073
 30
0.0
  0
SPLINE
  5
77
330
1F
100
AcDbEntity
  8
layer 1
 62
     7
370
     9
100
AcDbSpline
210
0.0
220
0.0
230
1.0
 70
    11
 71
     3
 72
    28
 73
    24
 74
     0
 42
0.0000000001
 43
0.0000000001
 12
1.0
 22
0.0
 32
0.0
 13
1.0
 23
0.0
 33
0.0
 40
0.0
 40
0.0
 40
0.0
 40
0.0
 40
0.1428571428571428
 40
0.1428571428571428
 40
0.1428571428571428
 40
0.1428571428571428
 40
0.2857142857142857
 40
0.2857142857142857
 40
0.2857142857142857
 40
0.2857142857142857
 40
0.4285714285714285
 40
0.4285714285714285
 40
0.4285714285714285
 40
0.4285714285714285
 40
0.5714285714285714
 40
0.5714285714285714
 40
0.5714285714285714
 40
0.5714285714285714
 40
0.7142857142857143
 40
0.7142857142857143
 40
0.7142857142857143
 40
0.7142857142857143
 40
1.0
 40
1.0
 40
1.0
 40
1.0
 10
179.4041
 20
119.2
 30
0.0
 10
179.8801
 20
121.3532
 30
0.0
 10
179.016
 20
123.5837
 30
0.0
 10
177.2138
 20
124.8539
 30
0.0
 10
177.2138
 20
124.8539
 30
0.0
 10
177.2138
 20
124.8539
 30
0.0
 10
181.7721
 20
124.8539
 30
0.0
 10
181.7721
 20
124.8539
 30
0.0
 10
181.7721
 20
124.8539
 30
0.0
 10
180.7748
 20
123.4568
 30
0.0
 10
180.7335
 20
121.5923
 30
0.0
 10
181.6663
 20
120.1507
 30
0.0
 10
181.6663
 20
120.1507
 30
0.0
 10
182.5981
 20
118.7113
 30
0.0
 10
184.3167
 20
117.9869
 30
0.0
 10
186.0004
 20
118.3253
 30
0.0
 10
186.0004
 20
118.3253
 30
0.0
 10
183.7868
 20
113.6613
 30
0.0
 10
178.4608
 20
111.3589
 30
0.0
 10
173.5482
 20
112.94
 30
0.0
 10
173.5482
 20
112.94
 30
0.0
 10
176.2514
 20
114.1689
 30
0.0
 10
178.3571
 20
116.4206
 30
0.0
 10
179.4041
 20
119.2
 30
0.0
  0
SPLINE
  5
78
330
1F
100
AcDbEntity
  8
layer 1
 62
     7
370
     9
100
AcDbSpline
210
0.0
220
0.0
230
1.0
 70
    11
 71
     3
 72
    32
 73
    28
 74
     0
 42
0.0000000001
 43
0.0000000001
 12
1.0
 22
0.0
 32
0.0
 13
1.0
 23
0.0
 33
0.0
 40
0.0
 40
0.0
 40
0.0
 40
0.0
 40
0.125
 40
0.125
 40
0.125
 40
0.125
 40
0.25
 40
0.25
 40
0.25
 40
0.25
 40
0.375
 40
0.375
 40
0.375
 40
0.375
 40
0.5
 40
0.5
 40
0.5
 40
0.5
 40
0.625
 40
0.625
 40
0.625
 40
0.625
 40
0.75
 40
0.75
 40
0.75
 40
0.75
 40
1.0
 40
1.0
 40
1.0
 40
1.0
 10
175.0288
 20
109.7756
 30
0.0
 10
181.6907
 20
108.3267
 30
0.0
 10
188.3536
 20
112.2113
 30
0.0
 10
190.3757
 20
118.723
 30
0.0
 10
190.3757
 20
118.723
 30
0.0
 10
190.3757
 20
118.723
 30
0.0
 10
190.3757
 20
90.7917
 30
0.0
 10
190.3757
 20
90.7917
 30
0.0
 10
190.3757
 20
90.7917
 30
0.0
 10
189.1616
 20
93.8577
 30
0.0
 10
187.0496
 20
96.4869
 30
0.0
 10
184.3167
 20
98.3334
 30
0.0
 10
184.3167
 20
98.3334
 30
0.0
 10
184.818
 20
99.1161
 30
0.0
 10
185.6768
 20
99.5952
 30
0.0
 10
186.6064
 20
99.6121
 30
0.0
 10
186.6064
 20
99.6121
 30
0.0
 10
184.8772
 20
103.4744
 30
0.0
 10
181.1947
 20
106.1005
 30
0.0
 10
176.9801
 20
106.477
 30
0.0
 10
176.9801
 20
106.477
 30
0.0
 10
177.547
 20
107.1739
 30
0.0
 10
178.4608
 20
107.4859
 30
0.0
 10
179.3354
 20
107.286
 30
0.0
 10
179.3354
 20
107.286
 30
0.0
 10
177.7627
 20
107.8508
 30
0.0
 10
176.3022
 20
108.6948
 30
0.0
 10
175.0288
 20
109.7756
 30
0.0
  0
SPLINE
  5
79
330
1F
100
AcDbEntity
  8
layer 1
 62
     7
370
     9
100
AcDbSpline
210
0.0
220
0.0
230
1.0
 70
    11
 71
     3
 72
    96
 73
    92
 74
     0
 42
0.0000000001
 43
0.0000000001
 12
1.0
 22
0.0
 32
0.0
 13
1.0
 23
0.0
 33
0.0
 40
0.0
 40
0.0
 40
0.0
 40
0.0
 40
0.0416666666666667
 40
0.0416666666666667
 40
0.0416666666666667
 40
0.0416666666666667
 40
0.0833333333333333
 40
0.0833333333333333
 40
0.0833333333333333
 40
0.0833333333333333
 40
0.125
 40
0.125
 40
0.125
 40
0.125
 40
0.1666666666666667
 40
0.1666666666666667
 40
0.1666666666666667
 40
0.1666666666666667
 40
0.2083333333333333
 40
0.2083333333333333
 40
0.2083333333333333
 40
0.2083333333333333
 40
0.25
 40
0.25
 40
0.25
 40
0.25
 40
0.2916666666666667
 40
0.2916666666666667
 40
0.2916666666666667
 40
0.2916666666666667
 40
0.3333333333333333
 40
0.3333333333333333
 40
0.3333333333333333
 40
0.3333333333333333
 40
0.375
 40
0.375
 40
0.375
 40
0.375
 40
0.4166666666666667
 40
0.4166666666666667
 40
0.4166666666666667
 40
0.4166666666666667
 40
0.4583333333333333
 40
0.4583333333333333
 40
0.4583333333333333
 40
0.4583333333333333
 40
0.5
 40
0.5
 40
0.5
 40
0.5
 40
0.5416666666666666
 40
0.5416666666666666
 40
0.5416666666666666
 40
0.5416666666666666
 40
0.5833333333333334
 40
0.5833333333333334
 40
0.5833333333333334
 40
0.5833333333333334
 40
0.625
 40
0.625
 40
0.625
 40
0.625
 40
0.6666666666666666
 40
0.6666666666666666
 40
0.6666666666666666
 40
0.6666666666666666
 40
0.7083333333333334
 40
0.7083333333333334
 40
0.7083333333333334
 40
0.7083333333333334
 40
0.75
 40
0.75
 40
0.75
 40
0.75
 40
0.7916666666666666
 40
0.7916666666666666
 40
0.7916666666666666
 40
0.7916666666666666
 40
0.8333333333333334
 40
0.8333333333333334
 40
0.8333333333333334
 40
0.8333333333333334
 40
0.875
 40
0.875
 40
0.875
 40
0.875
 40
0.9166666666666666
 40
0.9166666666666666
 40
0.9166666666666666
 40
0.9166666666666666
 40
1.0
 40
1.0
 40
1.0
 40
1.0
 10
187.2114
 20
87.4962
 30
0.0
 10
188.1124
 20
88.1857
 30
0.0
 10
189.2621
 20
88.4575
 30
0.0
 10
190.3757
 20
88.2502
 30
0.0
 10
190.3757
 20
88.2502
 30
0.0
 10
190.3757
 20
88.2502
 30
0.0
 10
190.3757
 20
58.3465
 30
0.0
 10
190.3757
 20
58.3465
 30
0.0
 10
190.3757
 20
58.3465
 30
0.0
 10
189.7369
 20
60.1444
 30
0.0
 10
187.9707
 20
61.2919
 30
0.0
 10
186.067
 20
61.1439
 30
0.0
 10
186.067
 20
61.1439
 30
0.0
 10
187.2917
 20
62.0545
 30
0.0
 10
187.8248
 20
63.6271
 30
0.0
 10
187.4049
 20
65.093
 30
0.0
 10
187.4049
 20
65.093
 30
0.0
 10
186.9872
 20
66.5598
 30
0.0
 10
185.7032
 20
67.6143
 30
0.0
 10
184.1824
 20
67.7391
 30
0.0
 10
184.1824
 20
67.7391
 30
0.0
 10
183.2305
 20
67.7073
 30
0.0
 10
182.3464
 20
67.2399
 30
0.0
 10
181.7827
 20
66.4721
 30
0.0
 10
181.7827
 20
66.4721
 30
0.0
 10
181.219
 20
65.7053
 30
0.0
 10
181.036
 20
64.7207
 30
0.0
 10
181.2888
 20
63.8027
 30
0.0
 10
181.2888
 20
63.8027
 30
0.0
 10
181.4062
 20
63.1491
 30
0.0
 10
181.5416
 20
62.4965
 30
0.0
 10
181.6917
 20
61.8503
 30
0.0
 10
181.6917
 20
61.8503
 30
0.0
 10
180.8774
 20
63.1893
 30
0.0
 10
179.3364
 20
63.9063
 30
0.0
 10
177.7881
 20
63.6673
 30
0.0
 10
177.7881
 20
63.6673
 30
0.0
 10
176.3477
 20
63.4833
 30
0.0
 10
175.1409
 20
62.4902
 30
0.0
 10
174.6819
 20
61.1132
 30
0.0
 10
174.6819
 20
61.1132
 30
0.0
 10
174.2229
 20
59.7351
 30
0.0
 10
174.5931
 20
58.2164
 30
0.0
 10
175.6338
 20
57.2053
 30
0.0
 10
175.6338
 20
57.2053
 30
0.0
 10
176.5645
 20
58.5422
 30
0.0
 10
178.3793
 20
58.9134
 30
0.0
 10
179.7616
 20
58.0514
 30
0.0
 10
179.7616
 20
58.0514
 30
0.0
 10
181.1418
 20
57.1905
 30
0.0
 10
181.6061
 20
55.3979
 30
0.0
 10
180.8182
 20
53.9744
 30
0.0
 10
180.8182
 20
53.9744
 30
0.0
 10
180.1339
 20
52.4049
 30
0.0
 10
178.7643
 20
51.2383
 30
0.0
 10
177.1038
 20
50.8174
 30
0.0
 10
177.1038
 20
50.8174
 30
0.0
 10
175.4455
 20
50.3965
 30
0.0
 10
173.6857
 20
50.7667
 30
0.0
 10
172.3351
 20
51.8211
 30
0.0
 10
172.3351
 20
51.8211
 30
0.0
 10
169.2818
 20
54.2832
 30
0.0
 10
167.2639
 20
57.8029
 30
0.0
 10
166.6822
 20
61.6822
 30
0.0
 10
166.6822
 20
61.6822
 30
0.0
 10
168.1808
 20
61.6007
 30
0.0
 10
169.6816
 20
61.771
 30
0.0
 10
171.1242
 20
62.1867
 30
0.0
 10
171.1242
 20
62.1867
 30
0.0
 10
168.1629
 20
63.2464
 30
0.0
 10
165.6637
 20
65.3055
 30
0.0
 10
164.0562
 20
68.0088
 30
0.0
 10
164.0562
 20
68.0088
 30
0.0
 10
169.6054
 20
66.0575
 30
0.0
 10
175.7681
 20
67.0601
 30
0.0
 10
180.4131
 20
70.6686
 30
0.0
 10
180.4131
 20
70.6686
 30
0.0
 10
181.2719
 20
70.2942
 30
0.0
 10
181.881
 20
69.5074
 30
0.0
 10
182.0291
 20
68.582
 30
0.0
 10
182.0291
 20
68.582
 30
0.0
 10
184.543
 20
71.0504
 30
0.0
 10
185.8693
 20
74.4855
 30
0.0
 10
185.6641
 20
78.0052
 30
0.0
 10
185.6641
 20
78.0052
 30
0.0
 10
186.4679
 20
77.9122
 30
0.0
 10
187.2812
 20
77.9122
 30
0.0
 10
188.0871
 20
78.0052
 30
0.0
 10
188.0871
 20
78.0052
 30
0.0
 10
188.6529
 20
81.1897
 30
0.0
 10
188.3493
 20
84.4672
 30
0.0
 10
187.2114
 20
87.4962
 30
0.0
  0
SPLINE
  5
7A
330
1F
100
AcDbEntity
  8
layer 1
 62
     7
370
     9
100
AcDbSpline
210
0.0
220
0.0
230
1.0
 70
    11
 71
     3
 72
    88
 73
    84
 74
     0
 42
0.0000000001
 43
0.0000000001
 12
1.0
 22
0.0
 32
0.0
 13
1.0
 23
0.0
 33
0.0
 40
0.0
 40
0.0
 40
0.0
 40
0.0
 40
0.0454545454545455
 40
0.0454545454545455
 40
0.0454545454545455
 40
0.0454545454545455
 40
0.0909090909090909
 40
0.0909090909090909
 40
0.0909090909090909
 40
0.0909090909090909
 40
0.1363636363636364
 40
0.1363636363636364
 40
0.1363636363636364
 40
0.1363636363636364
 40
0.1818181818181818
 40
0.1818181818181818
 40
0.1818181818181818
 40
0.1818181818181818
 40
0.2272727272727273
 40
0.2272727272727273
 40
0.2272727272727273
 40
0.2272727272727273
 40
0.2727272727272727
 40
0.2727272727272727
 40
0.2727272727272727
 40
0.2727272727272727
 40
0.3181818181818182
 40
0.3181818181818182
 40
0.3181818181818182
 40
0.3181818181818182
 40
0.3636363636363636
 40
0.3636363636363636
 40
0.3636363636363636
 40
0.3636363636363636
 40
0.4090909090909091
 40
0.4090909090909091
 40
0.4090909090909091
 40
0.4090909090909091
 40
0.4545454545454545
 40
0.4545454545454545
 40
0.4545454545454545
 40
0.4545454545454545
 40
0.5
 40
0.5
 40
0.5
 40
0.5
 40
0.5454545454545454
 40
0.5454545454545454
 40
0.5454545454545454
 40
0.5454545454545454
 40
0.5909090909090909
 40
0.5909090909090909
 40
0.5909090909090909
 40
0.5909090909090909
 40
0.6363636363636364
 40
0.6363636363636364
 40
0.6363636363636364
 40
0.6363636363636364
 40
0.6818181818181818
 40
0.6818181818181818
 40
0.6818181818181818
 40
0.6818181818181818
 40
0.7272727272727273
 40
0.7272727272727273
 40
0.7272727272727273
 40
0.7272727272727273
 40
0.7727272727272727
 40
0.7727272727272727
 40
0.7727272727272727
 40
0.7727272727272727
 40
0.8181818181818182
 40
0.8181818181818182
 40
0.8181818181818182
 40
0.8181818181818182
 40
0.8636363636363636
 40
0.8636363636363636
 40
0.8636363636363636
 40
0.8636363636363636
 40
0.9090909090909091
 40
0.9090909090909091
 40
0.9090909090909091
 40
0.9090909090909091
 40
1.0
 40
1.0
 40
1.0
 40
1.0
 10
190.3757
 20
55.5238
 30
0.0
 10
190.3757
 20
55.5238
 30
0.0
 10
190.3757
 20
-39.521
 30
0.0
 10
190.3757
 20
-39.521
 30
0.0
 10
190.3757
 20
-39.521
 30
0.0
 10
189.8025
 20
-37.0049
 30
0.0
 10
187.8861
 20
-35.0113
 30
0.0
 10
185.3933
 20
-34.3387
 30
0.0
 10
185.3933
 20
-34.3387
 30
0.0
 10
186.1019
 20
-33.5064
 30
0.0
 10
187.1024
 20
-32.9765
 30
0.0
 10
188.1875
 20
-32.857
 30
0.0
 10
188.1875
 20
-32.857
 30
0.0
 10
186.0924
 20
-31.0369
 30
0.0
 10
183.2686
 20
-30.2913
 30
0.0
 10
180.5485
 20
-30.837
 30
0.0
 10
180.5485
 20
-30.837
 30
0.0
 10
183.3321
 20
-28.4775
 30
0.0
 10
185.424
 20
-25.4072
 30
0.0
 10
186.6064
 20
-21.9531
 30
0.0
 10
186.6064
 20
-21.9531
 30
0.0
 10
185.7424
 20
-21.5301
 30
0.0
 10
184.9291
 20
-21.0118
 30
0.0
 10
184.1824
 20
-20.4048
 30
0.0
 10
184.1824
 20
-20.4048
 30
0.0
 10
186.8888
 20
-17.1156
 30
0.0
 10
188.086
 20
-12.8408
 30
0.0
 10
187.4811
 20
-8.6252
 30
0.0
 10
187.4811
 20
-8.6252
 30
0.0
 10
186.5705
 20
-9.4099
 30
0.0
 10
185.296
 20
-9.6172
 30
0.0
 10
184.1824
 20
-9.1646
 30
0.0
 10
184.1824
 20
-9.1646
 30
0.0
 10
185.8566
 20
-4.7332
 30
0.0
 10
185.3574
 20
0.2227
 30
0.0
 10
182.8361
 20
4.231
 30
0.0
 10
182.8361
 20
4.231
 30
0.0
 10
182.2692
 20
3.367
 30
0.0
 10
181.3121
 20
2.8382
 30
0.0
 10
180.2788
 20
2.817
 30
0.0
 10
180.2788
 20
2.817
 30
0.0
 10
179.2402
 20
5.1141
 30
0.0
 10
177.4042
 20
6.9565
 30
0.0
 10
175.1124
 20
8.0014
 30
0.0
 10
175.1124
 20
8.0014
 30
0.0
 10
177.4042
 20
9.0463
 30
0.0
 10
179.2402
 20
10.8865
 30
0.0
 10
180.2788
 20
13.1837
 30
0.0
 10
180.2788
 20
13.1837
 30
0.0
 10
181.3121
 20
13.1636
 30
0.0
 10
182.2692
 20
12.6348
 30
0.0
 10
182.8361
 20
11.7707
 30
0.0
 10
182.8361
 20
11.7707
 30
0.0
 10
185.3574
 20
15.778
 30
0.0
 10
185.8566
 20
20.736
 30
0.0
 10
184.1824
 20
25.1652
 30
0.0
 10
184.1824
 20
25.1652
 30
0.0
 10
185.296
 20
25.62
 30
0.0
 10
186.5705
 20
25.4117
 30
0.0
 10
187.4811
 20
24.6269
 30
0.0
 10
187.4811
 20
24.6269
 30
0.0
 10
188.086
 20
28.8425
 30
0.0
 10
186.8888
 20
33.1184
 30
0.0
 10
184.1824
 20
36.4065
 30
0.0
 10
184.1824
 20
36.4065
 30
0.0
 10
184.9291
 20
37.0125
 30
0.0
 10
185.7424
 20
37.5318
 30
0.0
 10
186.6064
 20
37.9538
 30
0.0
 10
186.6064
 20
37.9538
 30
0.0
 10
185.424
 20
41.4079
 30
0.0
 10
183.3321
 20
44.4792
 30
0.0
 10
180.5485
 20
46.8398
 30
0.0
 10
180.5485
 20
46.8398
 30
0.0
 10
183.2686
 20
46.2941
 30
0.0
 10
186.0924
 20
47.0386
 30
0.0
 10
188.1875
 20
48.8587
 30
0.0
 10
188.1875
 20
48.8587
 30
0.0
 10
187.1024
 20
48.9782
 30
0.0
 10
186.1019
 20
49.5081
 30
0.0
 10
185.3933
 20
50.3394
 30
0.0
 10
185.3933
 20
50.3394
 30
0.0
 10
187.8861
 20
51.0131
 30
0.0
 10
189.8025
 20
53.0067
 30
0.0
 10
190.3757
 20
55.5238
 30
0.0
  0
SPLINE
  5
7B
330
1F
100
AcDbEntity
  8
layer 1
 62
     7
370
     9
100
AcDbSpline
210
0.0
220
0.0
230
1.0
 70
    11
 71
     3
 72
    56
 73
    52
 74
     0
 42
0.0000000001
 43
0.0000000001
 12
1.0
 22
0.0
 32
0.0
 13
1.0
 23
0.0
 33
0.0
 40
0.0
 40
0.0
 40
0.0
 40
0.0
 40
0.0714285714285714
 40
0.0714285714285714
 40
0.0714285714285714
 40
0.0714285714285714
 40
0.1428571428571428
 40
0.1428571428571428
 40
0.1428571428571428
 40
0.1428571428571428
 40
0.2142857142857143
 40
0.2142857142857143
 40
0.2142857142857143
 40
0.2142857142857143
 40
0.2857142857142857
 40
0.2857142857142857
 40
0.2857142857142857
 40
0.2857142857142857
 40
0.3571428571428572
 40
0.3571428571428572
 40
0.3571428571428572
 40
0.3571428571428572
 40
0.4285714285714285
 40
0.4285714285714285
 40
0.4285714285714285
 40
0.4285714285714285
 40
0.5
 40
0.5
 40
0.5
 40
0.5
 40
0.5714285714285714
 40
0.5714285714285714
 40
0.5714285714285714
 40
0.5714285714285714
 40
0.6428571428571429
 40
0.6428571428571429
 40
0.6428571428571429
 40
0.6428571428571429
 40
0.7142857142857143
 40
0.7142857142857143
 40
0.7142857142857143
 40
0.7142857142857143
 40
0.7857142857142857
 40
0.7857142857142857
 40
0.7857142857142857
 40
0.7857142857142857
 40
0.8571428571428571
 40
0.8571428571428571
 40
0.8571428571428571
 40
0.8571428571428571
 40
1.0
 40
1.0
 40
1.0
 40
1.0
 10
161.0938
 20
13.722
 30
0.0
 10
164.162
 20
12.5692
 30
0.0
 10
167.5526
 20
12.6168
 30
0.0
 10
170.5848
 20
13.8573
 30
0.0
 10
170.5848
 20
13.8573
 30
0.0
 10
171.1971
 20
12.7543
 30
0.0
 10
171.9184
 20
11.7168
 30
0.0
 10
172.7391
 20
10.7596
 30
0.0
 10
172.7391
 20
10.7596
 30
0.0
 10
175.4212
 20
12.0679
 30
0.0
 10
177.5967
 20
14.2201
 30
0.0
 10
178.9314
 20
16.8853
 30
0.0
 10
178.9314
 20
16.8853
 30
0.0
 10
179.953
 20
17.1602
 30
0.0
 10
181.035
 20
16.7531
 30
0.0
 10
181.6251
 20
15.8753
 30
0.0
 10
181.6251
 20
15.8753
 30
0.0
 10
182.4849
 20
19.6012
 30
0.0
 10
182.2977
 20
23.4921
 30
0.0
 10
181.0857
 20
27.1165
 30
0.0
 10
181.0857
 20
27.1165
 30
0.0
 10
182.0503
 20
27.493
 30
0.0
 10
183.0793
 20
27.676
 30
0.0
 10
184.1158
 20
27.6559
 30
0.0
 10
184.1158
 20
27.6559
 30
0.0
 10
184.3093
 20
31.1597
 30
0.0
 10
183.1533
 20
34.6054
 30
0.0
 10
180.8848
 20
37.2812
 30
0.0
 10
180.8848
 20
37.2812
 30
0.0
 10
181.6219
 20
37.8607
 30
0.0
 10
182.3199
 20
38.4911
 30
0.0
 10
182.9714
 20
39.1669
 30
0.0
 10
182.9714
 20
39.1669
 30
0.0
 10
181.1545
 20
43.0335
 30
0.0
 10
177.6496
 20
45.8414
 30
0.0
 10
173.4794
 20
46.7731
 30
0.0
 10
173.4794
 20
46.7731
 30
0.0
 10
178.7759
 20
40.509
 30
0.0
 10
179.9826
 20
31.7509
 30
0.0
 10
176.5772
 20
24.2906
 30
0.0
 10
176.5772
 20
24.2906
 30
0.0
 10
173.306
 20
18.9624
 30
0.0
 10
167.1211
 20
16.1629
 30
0.0
 10
160.9606
 20
17.2226
 30
0.0
 10
160.9606
 20
17.2226
 30
0.0
 10
158.8179
 20
17.6467
 30
0.0
 10
156.6234
 20
16.8102
 30
0.0
 10
155.3056
 20
15.0683
 30
0.0
 10
155.3056
 20
15.0683
 30
0.0
 10
157.3002
 20
14.9678
 30
0.0
 10
159.261
 20
14.5131
 30
0.0
 10
161.0938
 20
13.722
 30
0.0
  0
SPLINE
  5
7C
330
1F
100
AcDbEntity
  8
layer 1
 62
     7
370
     9
100
AcDbSpline
210
0.0
220
0.0
230
1.0
 70
    11
 71
     3
 72
    56
 73
    52
 74
     0
 42
0.0000000001
 43
0.0000000001
 12
1.0
 22
0.0
 32
0.0
 13
1.0
 23
0.0
 33
0.0
 40
0.0
 40
0.0
 40
0.0
 40
0.0
 40
0.0714285714285714
 40
0.0714285714285714
 40
0.0714285714285714
 40
0.0714285714285714
 40
0.1428571428571428
 40
0.1428571428571428
 40
0.1428571428571428
 40
0.1428571428571428
 40
0.2142857142857143
 40
0.2142857142857143
 40
0.2142857142857143
 40
0.2142857142857143
 40
0.2857142857142857
 40
0.2857142857142857
 40
0.2857142857142857
 40
0.2857142857142857
 40
0.3571428571428572
 40
0.3571428571428572
 40
0.3571428571428572
 40
0.3571428571428572
 40
0.4285714285714285
 40
0.4285714285714285
 40
0.4285714285714285
 40
0.4285714285714285
 40
0.5
 40
0.5
 40
0.5
 40
0.5
 40
0.5714285714285714
 40
0.5714285714285714
 40
0.5714285714285714
 40
0.5714285714285714
 40
0.6428571428571429
 40
0.6428571428571429
 40
0.6428571428571429
 40
0.6428571428571429
 40
0.7142857142857143
 40
0.7142857142857143
 40
0.7142857142857143
 40
0.7142857142857143
 40
0.7857142857142857
 40
0.7857142857142857
 40
0.7857142857142857
 40
0.7857142857142857
 40
0.8571428571428571
 40
0.8571428571428571
 40
0.8571428571428571
 40
0.8571428571428571
 40
1.0
 40
1.0
 40
1.0
 40
1.0
 10
174.1531
 20
104.3924
 30
0.0
 10
177.6644
 20
104.4347
 30
0.0
 10
180.9916
 20
102.8272
 30
0.0
 10
183.1396
 20
100.051
 30
0.0
 10
183.1396
 20
100.051
 30
0.0
 10
182.2565
 20
99.5941
 30
0.0
 10
181.5722
 20
98.8263
 30
0.0
 10
181.2211
 20
97.8966
 30
0.0
 10
181.2211
 20
97.8966
 30
0.0
 10
183.8101
 20
96.1273
 30
0.0
 10
185.6376
 20
93.4473
 30
0.0
 10
186.3367
 20
90.3908
 30
0.0
 10
186.3367
 20
90.3908
 30
0.0
 10
185.3108
 20
90.7197
 30
0.0
 10
184.1887
 20
90.4902
 30
0.0
 10
183.3754
 20
89.7848
 30
0.0
 10
183.3754
 20
89.7848
 30
0.0
 10
185.0338
 20
87.4274
 30
0.0
 10
185.8619
 20
84.5856
 30
0.0
 10
185.7307
 20
81.7079
 30
0.0
 10
185.7307
 20
81.7079
 30
0.0
 10
184.6329
 20
82.0178
 30
0.0
 10
183.5034
 20
82.1986
 30
0.0
 10
182.3654
 20
82.2452
 30
0.0
 10
182.3654
 20
82.2452
 30
0.0
 10
183.1798
 20
79.2067
 30
0.0
 10
182.505
 20
75.9588
 30
0.0
 10
180.5485
 20
73.4946
 30
0.0
 10
180.5485
 20
73.4946
 30
0.0
 10
179.9361
 20
73.998
 30
0.0
 10
179.2825
 20
74.4485
 30
0.0
 10
178.5951
 20
74.8409
 30
0.0
 10
178.5951
 20
74.8409
 30
0.0
 10
174.9643
 20
70.73
 30
0.0
 10
169.0121
 20
69.5952
 30
0.0
 10
164.1249
 20
72.0816
 30
0.0
 10
164.1249
 20
72.0816
 30
0.0
 10
163.8489
 20
72.437
 30
0.0
 10
163.8003
 20
72.9192
 30
0.0
 10
164.0023
 20
73.3201
 30
0.0
 10
164.0023
 20
73.3201
 30
0.0
 10
164.2032
 20
73.7219
 30
0.0
 10
164.6167
 20
73.9726
 30
0.0
 10
165.0662
 20
73.9673
 30
0.0
 10
165.0662
 20
73.9673
 30
0.0
 10
168.1385
 20
73.7071
 30
0.0
 10
171.2045
 20
74.5162
 30
0.0
 10
173.7491
 20
76.2549
 30
0.0
 10
173.7491
 20
76.2549
 30
0.0
 10
181.2623
 20
84.0685
 30
0.0
 10
181.439
 20
96.3663
 30
0.0
 10
174.1531
 20
104.3924
 30
0.0
  0
SPLINE
  5
7D
330
1F
100
AcDbEntity
  8
layer 1
 62
     7
370
     9
100
AcDbSpline
210
0.0
220
0.0
230
1.0
 70
    11
 71
     3
 72
    28
 73
    24
 74
     0
 42
0.0000000001
 43
0.0000000001
 12
1.0
 22
0.0
 32
0.0
 13
1.0
 23
0.0
 33
0.0
 40
0.0
 40
0.0
 40
0.0
 40
0.0
 40
0.1428571428571428
 40
0.1428571428571428
 40
0.1428571428571428
 40
0.1428571428571428
 40
0.2857142857142857
 40
0.2857142857142857
 40
0.2857142857142857
 40
0.2857142857142857
 40
0.4285714285714285
 40
0.4285714285714285
 40
0.4285714285714285
 40
0.4285714285714285
 40
0.5714285714285714
 40
0.5714285714285714
 40
0.5714285714285714
 40
0.5714285714285714
 40
0.7142857142857143
 40
0.7142857142857143
 40
0.7142857142857143
 40
0.7142857142857143
 40
1.0
 40
1.0
 40
1.0
 40
1.0
 10
173.2119
 20
-100.5066
 30
0.0
 10
171.543
 20
-101.0534
 30
0.0
 10
170.2865
 20
-102.4389
 30
0.0
 10
169.909
 20
-104.1543
 30
0.0
 10
169.909
 20
-104.1543
 30
0.0
 10
169.5314
 20
-105.8687
 30
0.0
 10
170.0866
 20
-107.655
 30
0.0
 10
171.3706
 20
-108.8532
 30
0.0
 10
171.3706
 20
-108.8532
 30
0.0
 10
171.3706
 20
-108.8532
 30
0.0
 10
166.6441
 20
-108.8532
 30
0.0
 10
166.6441
 20
-108.8532
 30
0.0
 10
166.6441
 20
-108.8532
 30
0.0
 10
166.2814
 20
-107.5471
 30
0.0
 10
165.3835
 20
-106.4567
 30
0.0
 10
164.1715
 20
-105.8539
 30
0.0
 10
164.1715
 20
-105.8539
 30
0.0
 10
162.9584
 20
-105.25
 30
0.0
 10
161.5465
 20
-105.1907
 30
0.0
 10
160.2869
 20
-105.6889
 30
0.0
 10
160.2869
 20
-105.6889
 30
0.0
 10
162.8569
 20
-101.156
 30
0.0
 10
168.221
 20
-99.0048
 30
0.0
 10
173.2119
 20
-100.5066
 30
0.0
  0
SPLINE
  5
7E
330
1F
100
AcDbEntity
  8
layer 1
 62
     7
370
     9
100
AcDbSpline
210
0.0
220
0.0
230
1.0
 70
    11
 71
     3
 72
    28
 73
    24
 74
     0
 42
0.0000000001
 43
0.0000000001
 12
1.0
 22
0.0
 32
0.0
 13
1.0
 23
0.0
 33
0.0
 40
0.0
 40
0.0
 40
0.0
 40
0.0
 40
0.1428571428571428
 40
0.1428571428571428
 40
0.1428571428571428
 40
0.1428571428571428
 40
0.2857142857142857
 40
0.2857142857142857
 40
0.2857142857142857
 40
0.2857142857142857
 40
0.4285714285714285
 40
0.4285714285714285
 40
0.4285714285714285
 40
0.4285714285714285
 40
0.5714285714285714
 40
0.5714285714285714
 40
0.5714285714285714
 40
0.5714285714285714
 40
0.7142857142857143
 40
0.7142857142857143
 40
0.7142857142857143
 40
0.7142857142857143
 40
1.0
 40
1.0
 40
1.0
 40
1.0
 10
179.4041
 20
-103.1982
 30
0.0
 10
179.8801
 20
-105.3525
 30
0.0
 10
179.016
 20
-107.582
 30
0.0
 10
177.2138
 20
-108.8532
 30
0.0
 10
177.2138
 20
-108.8532
 30
0.0
 10
177.2138
 20
-108.8532
 30
0.0
 10
181.7721
 20
-108.8532
 30
0.0
 10
181.7721
 20
-108.8532
 30
0.0
 10
181.7721
 20
-108.8532
 30
0.0
 10
180.7748
 20
-107.4551
 30
0.0
 10
180.7335
 20
-105.5916
 30
0.0
 10
181.6663
 20
-104.1501
 30
0.0
 10
181.6663
 20
-104.1501
 30
0.0
 10
182.5981
 20
-102.7096
 30
0.0
 10
184.3167
 20
-101.9851
 30
0.0
 10
186.0004
 20
-102.3236
 30
0.0
 10
186.0004
 20
-102.3236
 30
0.0
 10
183.7868
 20
-97.6595
 30
0.0
 10
178.4608
 20
-95.3561
 30
0.0
 10
173.5482
 20
-96.9383
 30
0.0
 10
173.5482
 20
-96.9383
 30
0.0
 10
176.2514
 20
-98.1672
 30
0.0
 10
178.3571
 20
-100.4188
 30
0.0
 10
179.4041
 20
-103.1982
 30
0.0
  0
SPLINE
  5
7F
330
1F
100
AcDbEntity
  8
layer 1
 62
     7
370
     9
100
AcDbSpline
210
0.0
220
0.0
230
1.0
 70
    11
 71
     3
 72
    32
 73
    28
 74
     0
 42
0.0000000001
 43
0.0000000001
 12
1.0
 22
0.0
 32
0.0
 13
1.0
 23
0.0
 33
0.0
 40
0.0
 40
0.0
 40
0.0
 40
0.0
 40
0.125
 40
0.125
 40
0.125
 40
0.125
 40
0.25
 40
0.25
 40
0.25
 40
0.25
 40
0.375
 40
0.375
 40
0.375
 40
0.375
 40
0.5
 40
0.5
 40
0.5
 40
0.5
 40
0.625
 40
0.625
 40
0.625
 40
0.625
 40
0.75
 40
0.75
 40
0.75
 40
0.75
 40
1.0
 40
1.0
 40
1.0
 40
1.0
 10
175.0288
 20
-93.775
 30
0.0
 10
181.6907
 20
-92.3239
 30
0.0
 10
188.3536
 20
-96.2096
 30
0.0
 10
190.3757
 20
-102.7212
 30
0.0
 10
190.3757
 20
-102.7212
 30
0.0
 10
190.3757
 20
-102.7212
 30
0.0
 10
190.3757
 20
-74.7899
 30
0.0
 10
190.3757
 20
-74.7899
 30
0.0
 10
190.3757
 20
-74.7899
 30
0.0
 10
189.1616
 20
-77.857
 30
0.0
 10
187.0496
 20
-80.4862
 30
0.0
 10
184.3167
 20
-82.3328
 30
0.0
 10
184.3167
 20
-82.3328
 30
0.0
 10
184.818
 20
-83.1154
 30
0.0
 10
185.6768
 20
-83.5945
 30
0.0
 10
186.6064
 20
-83.6103
 30
0.0
 10
186.6064
 20
-83.6103
 30
0.0
 10
184.8772
 20
-87.4727
 30
0.0
 10
181.1947
 20
-90.0977
 30
0.0
 10
176.9801
 20
-90.4763
 30
0.0
 10
176.9801
 20
-90.4763
 30
0.0
 10
177.547
 20
-91.1711
 30
0.0
 10
178.4608
 20
-91.4853
 30
0.0
 10
179.3354
 20
-91.2843
 30
0.0
 10
179.3354
 20
-91.2843
 30
0.0
 10
177.7627
 20
-91.8491
 30
0.0
 10
176.3022
 20
-92.693
 30
0.0
 10
175.0288
 20
-93.775
 30
0.0
  0
SPLINE
  5
80
330
1F
100
AcDbEntity
  8
layer 1
 62
     7
370
     9
100
AcDbSpline
210
0.0
220
0.0
230
1.0
 70
    11
 71
     3
 72
    96
 73
    92
 74
     0
 42
0.0000000001
 43
0.0000000001
 12
1.0
 22
0.0
 32
0.0
 13
1.0
 23
0.0
 33
0.0
 40
0.0
 40
0.0
 40
0.0
 40
0.0
 40
0.0416666666666667
 40
0.0416666666666667
 40
0.0416666666666667
 40
0.0416666666666667
 40
0.0833333333333333
 40
0.0833333333333333
 40
0.0833333333333333
 40
0.0833333333333333
 40
0.125
 40
0.125
 40
0.125
 40
0.125
 40
0.1666666666666667
 40
0.1666666666666667
 40
0.1666666666666667
 40
0.1666666666666667
 40
0.2083333333333333
 40
0.2083333333333333
 40
0.2083333333333333
 40
0.2083333333333333
 40
0.25
 40
0.25
 40
0.25
 40
0.25
 40
0.2916666666666667
 40
0.2916666666666667
 40
0.2916666666666667
 40
0.2916666666666667
 40
0.3333333333333333
 40
0.3333333333333333
 40
0.3333333333333333
 40
0.3333333333333333
 40
0.375
 40
0.375
 40
0.375
 40
0.375
 40
0.4166666666666667
 40
0.4166666666666667
 40
0.4166666666666667
 40
0.4166666666666667
 40
0.4583333333333333
 40
0.4583333333333333
 40
0.4583333333333333
 40
0.4583333333333333
 40
0.5
 40
0.5
 40
0.5
 40
0.5
 40
0.5416666666666666
 40
0.5416666666666666
 40
0.5416666666666666
 40
0.5416666666666666
 40
0.5833333333333334
 40
0.5833333333333334
 40
0.5833333333333334
 40
0.5833333333333334
 40
0.625
 40
0.625
 40
0.625
 40
0.625
 40
0.6666666666666666
 40
0.6666666666666666
 40
0.6666666666666666
 40
0.6666666666666666
 40
0.7083333333333334
 40
0.7083333333333334
 40
0.7083333333333334
 40
0.7083333333333334
 40
0.75
 40
0.75
 40
0.75
 40
0.75
 40
0.7916666666666666
 40
0.7916666666666666
 40
0.7916666666666666
 40
0.7916666666666666
 40
0.8333333333333334
 40
0.8333333333333334
 40
0.8333333333333334
 40
0.8333333333333334
 40
0.875
 40
0.875
 40
0.875
 40
0.875
 40
0.9166666666666666
 40
0.9166666666666666
 40
0.9166666666666666
 40
0.9166666666666666
 40
1.0
 40
1.0
 40
1.0
 40
1.0
 10
187.2114
 20
-71.4944
 30
0.0
 10
188.1124
 20
-72.1829
 30
0.0
 10
189.2621
 20
-72.4568
 30
0.0
 10
190.3757
 20
-72.2485
 30
0.0
 10
190.3757
 20
-72.2485
 30
0.0
 10
190.3757
 20
-72.2485
 30
0.0
 10
190.3757
 20
-42.3437
 30
0.0
 10
190.3757
 20
-42.3437
 30
0.0
 10
190.3757
 20
-42.3437
 30
0.0
 10
189.7369
 20
-44.1437
 30
0.0
 10
187.9707
 20
-45.2902
 30
0.0
 10
186.067
 20
-45.1421
 30
0.0
 10
186.067
 20
-45.1421
 30
0.0
 10
187.2917
 20
-46.0517
 30
0.0
 10
187.8248
 20
-47.6254
 30
0.0
 10
187.4049
 20
-49.0912
 30
0.0
 10
187.4049
 20
-49.0912
 30
0.0
 10
186.9872
 20
-50.5581
 30
0.0
 10
185.7032
 20
-51.6125
 30
0.0
 10
184.1824
 20
-51.7384
 30
0.0
 10
184.1824
 20
-51.7384
 30
0.0
 10
183.2305
 20
-51.7046
 30
0.0
 10
182.3464
 20
-51.2381
 30
0.0
 10
181.7827
 20
-50.4703
 30
0.0
 10
181.7827
 20
-50.4703
 30
0.0
 10
181.219
 20
-49.7025
 30
0.0
 10
181.036
 20
-48.72
 30
0.0
 10
181.2888
 20
-47.8009
 30
0.0
 10
181.2888
 20
-47.8009
 30
0.0
 10
181.4062
 20
-47.1473
 30
0.0
 10
181.5416
 20
-46.4959
 30
0.0
 10
181.6917
 20
-45.8486
 30
0.0
 10
181.6917
 20
-45.8486
 30
0.0
 10
180.8774
 20
-47.1865
 30
0.0
 10
179.3364
 20
-47.9035
 30
0.0
 10
177.7881
 20
-47.6666
 30
0.0
 10
177.7881
 20
-47.6666
 30
0.0
 10
176.3477
 20
-47.4815
 30
0.0
 10
175.1409
 20
-46.4885
 30
0.0
 10
174.6819
 20
-45.1115
 30
0.0
 10
174.6819
 20
-45.1115
 30
0.0
 10
174.2229
 20
-43.7345
 30
0.0
 10
174.5931
 20
-42.2157
 30
0.0
 10
175.6338
 20
-41.2036
 30
0.0
 10
175.6338
 20
-41.2036
 30
0.0
 10
176.5645
 20
-42.5404
 30
0.0
 10
178.3793
 20
-42.9116
 30
0.0
 10
179.7616
 20
-42.0507
 30
0.0
 10
179.7616
 20
-42.0507
 30
0.0
 10
181.1418
 20
-41.1899
 30
0.0
 10
181.6061
 20
-39.3972
 30
0.0
 10
180.8182
 20
-37.9726
 30
0.0
 10
180.8182
 20
-37.9726
 30
0.0
 10
180.1339
 20
-36.4031
 30
0.0
 10
178.7643
 20
-35.2377
 30
0.0
 10
177.1038
 20
-34.8167
 30
0.0
 10
177.1038
 20
-34.8167
 30
0.0
 10
175.4455
 20
-34.3948
 30
0.0
 10
173.6857
 20
-34.7649
 30
0.0
 10
172.3351
 20
-35.8183
 30
0.0
 10
172.3351
 20
-35.8183
 30
0.0
 10
169.2818
 20
-38.2814
 30
0.0
 10
167.2639
 20
-41.8012
 30
0.0
 10
166.6822
 20
-45.6794
 30
0.0
 10
166.6822
 20
-45.6794
 30
0.0
 10
168.1808
 20
-45.6001
 30
0.0
 10
169.6816
 20
-45.7703
 30
0.0
 10
171.1242
 20
-46.1849
 30
0.0
 10
171.1242
 20
-46.1849
 30
0.0
 10
168.1629
 20
-47.2446
 30
0.0
 10
165.6637
 20
-49.3048
 30
0.0
 10
164.0562
 20
-52.0081
 30
0.0
 10
164.0562
 20
-52.0081
 30
0.0
 10
169.6054
 20
-50.0557
 30
0.0
 10
175.7681
 20
-51.0573
 30
0.0
 10
180.4131
 20
-54.6658
 30
0.0
 10
180.4131
 20
-54.6658
 30
0.0
 10
181.2719
 20
-54.2936
 30
0.0
 10
181.881
 20
-53.5067
 30
0.0
 10
182.0291
 20
-52.5792
 30
0.0
 10
182.0291
 20
-52.5792
 30
0.0
 10
184.543
 20
-55.0498
 30
0.0
 10
185.8693
 20
-58.4848
 30
0.0
 10
185.6641
 20
-62.0024
 30
0.0
 10
185.6641
 20
-62.0024
 30
0.0
 10
186.4679
 20
-61.9115
 30
0.0
 10
187.2812
 20
-61.9115
 30
0.0
 10
188.0871
 20
-62.0024
 30
0.0
 10
188.0871
 20
-62.0024
 30
0.0
 10
188.6529
 20
-65.189
 30
0.0
 10
188.3493
 20
-68.4665
 30
0.0
 10
187.2114
 20
-71.4944
 30
0.0
  0
SPLINE
  5
81
330
1F
100
AcDbEntity
  8
layer 1
 62
     7
370
     9
100
AcDbSpline
210
0.0
220
0.0
230
1.0
 70
    11
 71
     3
 72
    56
 73
    52
 74
     0
 42
0.0000000001
 43
0.0000000001
 12
1.0
 22
0.0
 32
0.0
 13
1.0
 23
0.0
 33
0.0
 40
0.0
 40
0.0
 40
0.0
 40
0.0
 40
0.0714285714285714
 40
0.0714285714285714
 40
0.0714285714285714
 40
0.0714285714285714
 40
0.1428571428571428
 40
0.1428571428571428
 40
0.1428571428571428
 40
0.1428571428571428
 40
0.2142857142857143
 40
0.2142857142857143
 40
0.2142857142857143
 40
0.2142857142857143
 40
0.2857142857142857
 40
0.2857142857142857
 40
0.2857142857142857
 40
0.2857142857142857
 40
0.3571428571428572
 40
0.3571428571428572
 40
0.3571428571428572
 40
0.3571428571428572
 40
0.4285714285714285
 40
0.4285714285714285
 40
0.4285714285714285
 40
0.4285714285714285
 40
0.5
 40
0.5
 40
0.5
 40
0.5
 40
0.5714285714285714
 40
0.5714285714285714
 40
0.5714285714285714
 40
0.5714285714285714
 40
0.6428571428571429
 40
0.6428571428571429
 40
0.6428571428571429
 40
0.6428571428571429
 40
0.7142857142857143
 40
0.7142857142857143
 40
0.7142857142857143
 40
0.7142857142857143
 40
0.7857142857142857
 40
0.7857142857142857
 40
0.7857142857142857
 40
0.7857142857142857
 40
0.8571428571428571
 40
0.8571428571428571
 40
0.8571428571428571
 40
0.8571428571428571
 40
1.0
 40
1.0
 40
1.0
 40
1.0
 10
161.0938
 20
2.2798
 30
0.0
 10
164.162
 20
3.4326
 30
0.0
 10
167.5526
 20
3.3839
 30
0.0
 10
170.5848
 20
2.1444
 30
0.0
 10
170.5848
 20
2.1444
 30
0.0
 10
171.1971
 20
3.2475
 30
0.0
 10
171.9184
 20
4.285
 30
0.0
 10
172.7391
 20
5.2411
 30
0.0
 10
172.7391
 20
5.2411
 30
0.0
 10
175.4212
 20
3.9339
 30
0.0
 10
177.5967
 20
1.7827
 30
0.0
 10
178.9314
 20
-0.8846
 30
0.0
 10
178.9314
 20
-0.8846
 30
0.0
 10
179.953
 20
-1.1574
 30
0.0
 10
181.035
 20
-0.7524
 30
0.0
 10
181.6251
 20
0.1254
 30
0.0
 10
181.6251
 20
0.1254
 30
0.0
 10
182.4849
 20
-3.5995
 30
0.0
 10
182.2977
 20
-7.4893
 30
0.0
 10
181.0857
 20
-11.1158
 30
0.0
 10
181.0857
 20
-11.1158
 30
0.0
 10
182.0503
 20
-11.4913
 30
0.0
 10
183.0793
 20
-11.6732
 30
0.0
 10
184.1158
 20
-11.6552
 30
0.0
 10
184.1158
 20
-11.6552
 30
0.0
 10
184.3093
 20
-15.158
 30
0.0
 10
183.1533
 20
-18.6026
 30
0.0
 10
180.8848
 20
-21.2794
 30
0.0
 10
180.8848
 20
-21.2794
 30
0.0
 10
181.6219
 20
-21.8579
 30
0.0
 10
182.3199
 20
-22.4893
 30
0.0
 10
182.9714
 20
-23.1641
 30
0.0
 10
182.9714
 20
-23.1641
 30
0.0
 10
181.1545
 20
-27.0317
 30
0.0
 10
177.6496
 20
-29.8407
 30
0.0
 10
173.4794
 20
-30.7703
 30
0.0
 10
173.4794
 20
-30.7703
 30
0.0
 10
178.7759
 20
-24.5083
 30
0.0
 10
179.9826
 20
-15.7503
 30
0.0
 10
176.5772
 20
-8.2878
 30
0.0
 10
176.5772
 20
-8.2878
 30
0.0
 10
173.306
 20
-2.9617
 30
0.0
 10
167.1211
 20
-0.1612
 30
0.0
 10
160.9606
 20
-1.2209
 30
0.0
 10
160.9606
 20
-1.2209
 30
0.0
 10
158.8179
 20
-1.6439
 30
0.0
 10
156.6234
 20
-0.8084
 30
0.0
 10
155.3056
 20
0.9334
 30
0.0
 10
155.3056
 20
0.9334
 30
0.0
 10
157.3002
 20
1.0328
 30
0.0
 10
159.261
 20
1.4897
 30
0.0
 10
161.0938
 20
2.2798
 30
0.0
  0
SPLINE
  5
82
330
1F
100
AcDbEntity
  8
layer 1
 62
     7
370
     9
100
AcDbSpline
210
0.0
220
0.0
230
1.0
 70
    11
 71
     3
 72
    56
 73
    52
 74
     0
 42
0.0000000001
 43
0.0000000001
 12
1.0
 22
0.0
 32
0.0
 13
1.0
 23
0.0
 33
0.0
 40
0.0
 40
0.0
 40
0.0
 40
0.0
 40
0.0714285714285714
 40
0.0714285714285714
 40
0.0714285714285714
 40
0.0714285714285714
 40
0.1428571428571428
 40
0.1428571428571428
 40
0.1428571428571428
 40
0.1428571428571428
 40
0.2142857142857143
 40
0.2142857142857143
 40
0.2142857142857143
 40
0.2142857142857143
 40
0.2857142857142857
 40
0.2857142857142857
 40
0.2857142857142857
 40
0.2857142857142857
 40
0.3571428571428572
 40
0.3571428571428572
 40
0.3571428571428572
 40
0.3571428571428572
 40
0.4285714285714285
 40
0.4285714285714285
 40
0.4285714285714285
 40
0.4285714285714285
 40
0.5
 40
0.5
 40
0.5
 40
0.5
 40
0.5714285714285714
 40
0.5714285714285714
 40
0.5714285714285714
 40
0.5714285714285714
 40
0.6428571428571429
 40
0.6428571428571429
 40
0.6428571428571429
 40
0.6428571428571429
 40
0.7142857142857143
 40
0.7142857142857143
 40
0.7142857142857143
 40
0.7142857142857143
 40
0.7857142857142857
 40
0.7857142857142857
 40
0.7857142857142857
 40
0.7857142857142857
 40
0.8571428571428571
 40
0.8571428571428571
 40
0.8571428571428571
 40
0.8571428571428571
 40
1.0
 40
1.0
 40
1.0
 40
1.0
 10
174.1531
 20
-88.3896
 30
0.0
 10
177.6644
 20
-88.432
 30
0.0
 10
180.9916
 20
-86.8244
 30
0.0
 10
183.1396
 20
-84.0482
 30
0.0
 10
183.1396
 20
-84.0482
 30
0.0
 10
182.2565
 20
-83.5913
 30
0.0
 10
181.5722
 20
-82.8245
 30
0.0
 10
181.2211
 20
-81.8938
 30
0.0
 10
181.2211
 20
-81.8938
 30
0.0
 10
183.8101
 20
-80.1255
 30
0.0
 10
185.6376
 20
-77.4456
 30
0.0
 10
186.3367
 20
-74.3891
 30
0.0
 10
186.3367
 20
-74.3891
 30
0.0
 10
185.3108
 20
-74.7169
 30
0.0
 10
184.1887
 20
-74.4885
 30
0.0
 10
183.3754
 20
-73.7831
 30
0.0
 10
183.3754
 20
-73.7831
 30
0.0
 10
185.0338
 20
-71.4267
 30
0.0
 10
185.8619
 20
-68.585
 30
0.0
 10
185.7307
 20
-65.7062
 30
0.0
 10
185.7307
 20
-65.7062
 30
0.0
 10
184.6329
 20
-66.015
 30
0.0
 10
183.5034
 20
-66.1958
 30
0.0
 10
182.3654
 20
-66.2434
 30
0.0
 10
182.3654
 20
-66.2434
 30
0.0
 10
183.1798
 20
-63.2039
 30
0.0
 10
182.505
 20
-59.9581
 30
0.0
 10
180.5485
 20
-57.4939
 30
0.0
 10
180.5485
 20
-57.4939
 30
0.0
 10
179.9361
 20
-57.9962
 30
0.0
 10
179.2825
 20
-58.4468
 30
0.0
 10
178.5951
 20
-58.8402
 30
0.0
 10
178.5951
 20
-58.8402
 30
0.0
 10
174.9643
 20
-54.7293
 30
0.0
 10
169.0121
 20
-53.5934
 30
0.0
 10
164.1249
 20
-56.0799
 30
0.0
 10
164.1249
 20
-56.0799
 30
0.0
 10
163.8489
 20
-56.4352
 30
0.0
 10
163.8003
 20
-56.9164
 30
0.0
 10
164.0023
 20
-57.3183
 30
0.0
 10
164.0023
 20
-57.3183
 30
0.0
 10
164.2032
 20
-57.7213
 30
0.0
 10
164.6167
 20
-57.9719
 30
0.0
 10
165.0662
 20
-57.9645
 30
0.0
 10
165.0662
 20
-57.9645
 30
0.0
 10
168.1385
 20
-57.7065
 30
0.0
 10
171.2045
 20
-58.5155
 30
0.0
 10
173.7491
 20
-60.2542
 30
0.0
 10
173.7491
 20
-60.2542
 30
0.0
 10
181.2623
 20
-68.0667
 30
0.0
 10
181.439
 20
-80.3635
 30
0.0
 10
174.1531
 20
-88.3896
 30
0.0
  0
SPLINE
  5
83
330
1F
100
AcDbEntity
  8
layer 1
 62
     7
370
     9
100
AcDbSpline
210
0.0
220
0.0
230
1.0
 70
    11
 71
     3
 72
    28
 73
    24
 74
     0
 42
0.0000000001
 43
0.0000000001
 12
1.0
 22
0.0
 32
0.0
 13
1.0
 23
0.0
 33
0.0
 40
0.0
 40
0.0
 40
0.0
 40
0.0
 40
0.1428571428571428
 40
0.1428571428571428
 40
0.1428571428571428
 40
0.1428571428571428
 40
0.2857142857142857
 40
0.2857142857142857
 40
0.2857142857142857
 40
0.2857142857142857
 40
0.4285714285714285
 40
0.4285714285714285
 40
0.4285714285714285
 40
0.4285714285714285
 40
0.5714285714285714
 40
0.5714285714285714
 40
0.5714285714285714
 40
0.5714285714285714
 40
0.7142857142857143
 40
0.7142857142857143
 40
0.7142857142857143
 40
0.7142857142857143
 40
1.0
 40
1.0
 40
1.0
 40
1.0
 10
126.6308
 20
116.5073
 30
0.0
 10
128.2997
 20
117.0541
 30
0.0
 10
129.554
 20
118.4416
 30
0.0
 10
129.9337
 20
120.156
 30
0.0
 10
129.9337
 20
120.156
 30
0.0
 10
130.3112
 20
121.8704
 30
0.0
 10
129.7549
 20
123.6556
 30
0.0
 10
128.4721
 20
124.8539
 30
0.0
 10
128.4721
 20
124.8539
 30
0.0
 10
128.4721
 20
124.8539
 30
0.0
 10
133.1985
 20
124.8539
 30
0.0
 10
133.1985
 20
124.8539
 30
0.0
 10
133.1985
 20
124.8539
 30
0.0
 10
133.5591
 20
123.5478
 30
0.0
 10
134.4592
 20
122.4584
 30
0.0
 10
135.6712
 20
121.8545
 30
0.0
 10
135.6712
 20
121.8545
 30
0.0
 10
136.8842
 20
121.2517
 30
0.0
 10
138.2961
 20
121.1914
 30
0.0
 10
139.5557
 20
121.6906
 30
0.0
 10
139.5557
 20
121.6906
 30
0.0
 10
136.9847
 20
117.1577
 30
0.0
 10
131.6205
 20
115.0066
 30
0.0
 10
126.6308
 20
116.5073
 30
0.0
  0
SPLINE
  5
84
330
1F
100
AcDbEntity
  8
layer 1
 62
     7
370
     9
100
AcDbSpline
210
0.0
220
0.0
230
1.0
 70
    11
 71
     3
 72
    28
 73
    24
 74
     0
 42
0.0000000001
 43
0.0000000001
 12
1.0
 22
0.0
 32
0.0
 13
1.0
 23
0.0
 33
0.0
 40
0.0
 40
0.0
 40
0.0
 40
0.0
 40
0.1428571428571428
 40
0.1428571428571428
 40
0.1428571428571428
 40
0.1428571428571428
 40
0.2857142857142857
 40
0.2857142857142857
 40
0.2857142857142857
 40
0.2857142857142857
 40
0.4285714285714285
 40
0.4285714285714285
 40
0.4285714285714285
 40
0.4285714285714285
 40
0.5714285714285714
 40
0.5714285714285714
 40
0.5714285714285714
 40
0.5714285714285714
 40
0.7142857142857143
 40
0.7142857142857143
 40
0.7142857142857143
 40
0.7142857142857143
 40
1.0
 40
1.0
 40
1.0
 40
1.0
 10
120.4385
 20
119.2
 30
0.0
 10
119.9615
 20
121.3532
 30
0.0
 10
120.8245
 20
123.5837
 30
0.0
 10
122.6288
 20
124.8539
 30
0.0
 10
122.6288
 20
124.8539
 30
0.0
 10
122.6288
 20
124.8539
 30
0.0
 10
118.0684
 20
124.8539
 30
0.0
 10
118.0684
 20
124.8539
 30
0.0
 10
118.0684
 20
124.8539
 30
0.0
 10
119.0668
 20
123.4568
 30
0.0
 10
119.1091
 20
121.5923
 30
0.0
 10
118.1763
 20
120.1507
 30
0.0
 10
118.1763
 20
120.1507
 30
0.0
 10
117.2435
 20
118.7113
 30
0.0
 10
115.5238
 20
117.9869
 30
0.0
 10
113.8422
 20
118.3253
 30
0.0
 10
113.8422
 20
118.3253
 30
0.0
 10
116.0547
 20
113.6613
 30
0.0
 10
121.3798
 20
111.3589
 30
0.0
 10
126.2945
 20
112.94
 30
0.0
 10
126.2945
 20
112.94
 30
0.0
 10
123.5912
 20
114.1689
 30
0.0
 10
121.4845
 20
116.4206
 30
0.0
 10
120.4385
 20
119.2
 30
0.0
  0
SPLINE
  5
85
330
1F
100
AcDbEntity
  8
layer 1
 62
     7
370
     9
100
AcDbSpline
210
0.0
220
0.0
230
1.0
 70
    11
 71
     3
 72
    56
 73
    52
 74
     0
 42
0.0000000001
 43
0.0000000001
 12
1.0
 22
0.0
 32
0.0
 13
1.0
 23
0.0
 33
0.0
 40
0.0
 40
0.0
 40
0.0
 40
0.0
 40
0.0714285714285714
 40
0.0714285714285714
 40
0.0714285714285714
 40
0.0714285714285714
 40
0.1428571428571428
 40
0.1428571428571428
 40
0.1428571428571428
 40
0.1428571428571428
 40
0.2142857142857143
 40
0.2142857142857143
 40
0.2142857142857143
 40
0.2142857142857143
 40
0.2857142857142857
 40
0.2857142857142857
 40
0.2857142857142857
 40
0.2857142857142857
 40
0.3571428571428572
 40
0.3571428571428572
 40
0.3571428571428572
 40
0.3571428571428572
 40
0.4285714285714285
 40
0.4285714285714285
 40
0.4285714285714285
 40
0.4285714285714285
 40
0.5
 40
0.5
 40
0.5
 40
0.5
 40
0.5714285714285714
 40
0.5714285714285714
 40
0.5714285714285714
 40
0.5714285714285714
 40
0.6428571428571429
 40
0.6428571428571429
 40
0.6428571428571429
 40
0.6428571428571429
 40
0.7142857142857143
 40
0.7142857142857143
 40
0.7142857142857143
 40
0.7142857142857143
 40
0.7857142857142857
 40
0.7857142857142857
 40
0.7857142857142857
 40
0.7857142857142857
 40
0.8571428571428571
 40
0.8571428571428571
 40
0.8571428571428571
 40
0.8571428571428571
 40
1.0
 40
1.0
 40
1.0
 40
1.0
 10
138.7477
 20
13.722
 30
0.0
 10
135.6796
 20
12.5692
 30
0.0
 10
132.29
 20
12.6168
 30
0.0
 10
129.2557
 20
13.8573
 30
0.0
 10
129.2557
 20
13.8573
 30
0.0
 10
128.6455
 20
12.7543
 30
0.0
 10
127.9232
 20
11.7168
 30
0.0
 10
127.1014
 20
10.7596
 30
0.0
 10
127.1014
 20
10.7596
 30
0.0
 10
124.4214
 20
12.0679
 30
0.0
 10
122.2449
 20
14.2201
 30
0.0
 10
120.9091
 20
16.8853
 30
0.0
 10
120.9091
 20
16.8853
 30
0.0
 10
119.8886
 20
17.1602
 30
0.0
 10
118.8066
 20
16.7531
 30
0.0
 10
118.2175
 20
15.8753
 30
0.0
 10
118.2175
 20
15.8753
 30
0.0
 10
117.3577
 20
19.6012
 30
0.0
 10
117.5438
 20
23.4921
 30
0.0
 10
118.7548
 20
27.1165
 30
0.0
 10
118.7548
 20
27.1165
 30
0.0
 10
117.7903
 20
27.493
 30
0.0
 10
116.7612
 20
27.676
 30
0.0
 10
115.7269
 20
27.6559
 30
0.0
 10
115.7269
 20
27.6559
 30
0.0
 10
115.5323
 20
31.1597
 30
0.0
 10
116.6882
 20
34.6054
 30
0.0
 10
118.9579
 20
37.2812
 30
0.0
 10
118.9579
 20
37.2812
 30
0.0
 10
118.2186
 20
37.8607
 30
0.0
 10
117.5216
 20
38.4911
 30
0.0
 10
116.8702
 20
39.1669
 30
0.0
 10
116.8702
 20
39.1669
 30
0.0
 10
118.6882
 20
43.0335
 30
0.0
 10
122.192
 20
45.8414
 30
0.0
 10
126.3611
 20
46.7731
 30
0.0
 10
126.3611
 20
46.7731
 30
0.0
 10
121.0667
 20
40.509
 30
0.0
 10
119.86
 20
31.7509
 30
0.0
 10
123.2655
 20
24.2906
 30
0.0
 10
123.2655
 20
24.2906
 30
0.0
 10
126.5356
 20
18.9624
 30
0.0
 10
132.7215
 20
16.1629
 30
0.0
 10
138.8821
 20
17.2226
 30
0.0
 10
138.8821
 20
17.2226
 30
0.0
 10
141.0226
 20
17.6467
 30
0.0
 10
143.2193
 20
16.8102
 30
0.0
 10
144.5349
 20
15.0683
 30
0.0
 10
144.5349
 20
15.0683
 30
0.0
 10
142.5414
 20
14.9678
 30
0.0
 10
140.5816
 20
14.5131
 30
0.0
 10
138.7477
 20
13.722
 30
0.0
  0
SPLINE
  5
86
330
1F
100
AcDbEntity
  8
layer 1
 62
     7
370
     9
100
AcDbSpline
210
0.0
220
0.0
230
1.0
 70
    11
 71
     3
 72
    56
 73
    52
 74
     0
 42
0.0000000001
 43
0.0000000001
 12
1.0
 22
0.0
 32
0.0
 13
1.0
 23
0.0
 33
0.0
 40
0.0
 40
0.0
 40
0.0
 40
0.0
 40
0.0714285714285714
 40
0.0714285714285714
 40
0.0714285714285714
 40
0.0714285714285714
 40
0.1428571428571428
 40
0.1428571428571428
 40
0.1428571428571428
 40
0.1428571428571428
 40
0.2142857142857143
 40
0.2142857142857143
 40
0.2142857142857143
 40
0.2142857142857143
 40
0.2857142857142857
 40
0.2857142857142857
 40
0.2857142857142857
 40
0.2857142857142857
 40
0.3571428571428572
 40
0.3571428571428572
 40
0.3571428571428572
 40
0.3571428571428572
 40
0.4285714285714285
 40
0.4285714285714285
 40
0.4285714285714285
 40
0.4285714285714285
 40
0.5
 40
0.5
 40
0.5
 40
0.5
 40
0.5714285714285714
 40
0.5714285714285714
 40
0.5714285714285714
 40
0.5714285714285714
 40
0.6428571428571429
 40
0.6428571428571429
 40
0.6428571428571429
 40
0.6428571428571429
 40
0.7142857142857143
 40
0.7142857142857143
 40
0.7142857142857143
 40
0.7142857142857143
 40
0.7857142857142857
 40
0.7857142857142857
 40
0.7857142857142857
 40
0.7857142857142857
 40
0.8571428571428571
 40
0.8571428571428571
 40
0.8571428571428571
 40
0.8571428571428571
 40
1.0
 40
1.0
 40
1.0
 40
1.0
 10
125.6884
 20
104.3924
 30
0.0
 10
122.1783
 20
104.4347
 30
0.0
 10
118.851
 20
102.8272
 30
0.0
 10
116.7031
 20
100.051
 30
0.0
 10
116.7031
 20
100.051
 30
0.0
 10
117.5861
 20
99.5941
 30
0.0
 10
118.2694
 20
98.8263
 30
0.0
 10
118.6215
 20
97.8966
 30
0.0
 10
118.6215
 20
97.8966
 30
0.0
 10
116.0315
 20
96.1273
 30
0.0
 10
114.205
 20
93.4473
 30
0.0
 10
113.5059
 20
90.3908
 30
0.0
 10
113.5059
 20
90.3908
 30
0.0
 10
114.5297
 20
90.7197
 30
0.0
 10
115.6539
 20
90.4902
 30
0.0
 10
116.4672
 20
89.7848
 30
0.0
 10
116.4672
 20
89.7848
 30
0.0
 10
114.8089
 20
87.4274
 30
0.0
 10
113.9787
 20
84.5856
 30
0.0
 10
114.1119
 20
81.7079
 30
0.0
 10
114.1119
 20
81.7079
 30
0.0
 10
115.2076
 20
82.0178
 30
0.0
 10
116.3371
 20
82.1986
 30
0.0
 10
117.4772
 20
82.2452
 30
0.0
 10
117.4772
 20
82.2452
 30
0.0
 10
116.6618
 20
79.2067
 30
0.0
 10
117.3366
 20
75.9588
 30
0.0
 10
119.2942
 20
73.4946
 30
0.0
 10
119.2942
 20
73.4946
 30
0.0
 10
119.9044
 20
73.998
 30
0.0
 10
120.558
 20
74.4485
 30
0.0
 10
121.2455
 20
74.8409
 30
0.0
 10
121.2455
 20
74.8409
 30
0.0
 10
124.8773
 20
70.73
 30
0.0
 10
130.8295
 20
69.5952
 30
0.0
 10
135.7177
 20
72.0816
 30
0.0
 10
135.7177
 20
72.0816
 30
0.0
 10
135.9937
 20
72.437
 30
0.0
 10
136.0403
 20
72.9192
 30
0.0
 10
135.8404
 20
73.3201
 30
0.0
 10
135.8404
 20
73.3201
 30
0.0
 10
135.6394
 20
73.7219
 30
0.0
 10
135.2259
 20
73.9726
 30
0.0
 10
134.7764
 20
73.9673
 30
0.0
 10
134.7764
 20
73.9673
 30
0.0
 10
131.7041
 20
73.7071
 30
0.0
 10
128.6381
 20
74.5162
 30
0.0
 10
126.0935
 20
76.2549
 30
0.0
 10
126.0935
 20
76.2549
 30
0.0
 10
118.5803
 20
84.0685
 30
0.0
 10
118.4037
 20
96.3663
 30
0.0
 10
125.6884
 20
104.3924
 30
0.0
  0
SPLINE
  5
87
330
1F
100
AcDbEntity
  8
layer 1
 62
     7
370
     9
100
AcDbSpline
210
0.0
220
0.0
230
1.0
 70
    11
 71
     3
 72
    28
 73
    24
 74
     0
 42
0.0000000001
 43
0.0000000001
 12
1.0
 22
0.0
 32
0.0
 13
1.0
 23
0.0
 33
0.0
 40
0.0
 40
0.0
 40
0.0
 40
0.0
 40
0.1428571428571428
 40
0.1428571428571428
 40
0.1428571428571428
 40
0.1428571428571428
 40
0.2857142857142857
 40
0.2857142857142857
 40
0.2857142857142857
 40
0.2857142857142857
 40
0.4285714285714285
 40
0.4285714285714285
 40
0.4285714285714285
 40
0.4285714285714285
 40
0.5714285714285714
 40
0.5714285714285714
 40
0.5714285714285714
 40
0.5714285714285714
 40
0.7142857142857143
 40
0.7142857142857143
 40
0.7142857142857143
 40
0.7142857142857143
 40
1.0
 40
1.0
 40
1.0
 40
1.0
 10
126.6308
 20
-100.5066
 30
0.0
 10
128.2997
 20
-101.0534
 30
0.0
 10
129.554
 20
-102.4389
 30
0.0
 10
129.9337
 20
-104.1543
 30
0.0
 10
129.9337
 20
-104.1543
 30
0.0
 10
130.3112
 20
-105.8687
 30
0.0
 10
129.7549
 20
-107.655
 30
0.0
 10
128.4721
 20
-108.8532
 30
0.0
 10
128.4721
 20
-108.8532
 30
0.0
 10
128.4721
 20
-108.8532
 30
0.0
 10
133.1985
 20
-108.8532
 30
0.0
 10
133.1985
 20
-108.8532
 30
0.0
 10
133.1985
 20
-108.8532
 30
0.0
 10
133.5591
 20
-107.5471
 30
0.0
 10
134.4592
 20
-106.4567
 30
0.0
 10
135.6712
 20
-105.8539
 30
0.0
 10
135.6712
 20
-105.8539
 30
0.0
 10
136.8842
 20
-105.25
 30
0.0
 10
138.2961
 20
-105.1907
 30
0.0
 10
139.5557
 20
-105.6889
 30
0.0
 10
139.5557
 20
-105.6889
 30
0.0
 10
136.9847
 20
-101.156
 30
0.0
 10
131.6205
 20
-99.0048
 30
0.0
 10
126.6308
 20
-100.5066
 30
0.0
  0
SPLINE
  5
88
330
1F
100
AcDbEntity
  8
layer 1
 62
     7
370
     9
100
AcDbSpline
210
0.0
220
0.0
230
1.0
 70
    11
 71
     3
 72
    28
 73
    24
 74
     0
 42
0.0000000001
 43
0.0000000001
 12
1.0
 22
0.0
 32
0.0
 13
1.0
 23
0.0
 33
0.0
 40
0.0
 40
0.0
 40
0.0
 40
0.0
 40
0.1428571428571428
 40
0.1428571428571428
 40
0.1428571428571428
 40
0.1428571428571428
 40
0.2857142857142857
 40
0.2857142857142857
 40
0.2857142857142857
 40
0.2857142857142857
 40
0.4285714285714285
 40
0.4285714285714285
 40
0.4285714285714285
 40
0.4285714285714285
 40
0.5714285714285714
 40
0.5714285714285714
 40
0.5714285714285714
 40
0.5714285714285714
 40
0.7142857142857143
 40
0.7142857142857143
 40
0.7142857142857143
 40
0.7142857142857143
 40
1.0
 40
1.0
 40
1.0
 40
1.0
 10
120.4385
 20
-103.1982
 30
0.0
 10
119.9615
 20
-105.3525
 30
0.0
 10
120.8245
 20
-107.582
 30
0.0
 10
122.6288
 20
-108.8532
 30
0.0
 10
122.6288
 20
-108.8532
 30
0.0
 10
122.6288
 20
-108.8532
 30
0.0
 10
118.0684
 20
-108.8532
 30
0.0
 10
118.0684
 20
-108.8532
 30
0.0
 10
118.0684
 20
-108.8532
 30
0.0
 10
119.0668
 20
-107.4551
 30
0.0
 10
119.1091
 20
-105.5916
 30
0.0
 10
118.1763
 20
-104.1501
 30
0.0
 10
118.1763
 20
-104.1501
 30
0.0
 10
117.2435
 20
-102.7096
 30
0.0
 10
115.5238
 20
-101.9851
 30
0.0
 10
113.8422
 20
-102.3236
 30
0.0
 10
113.8422
 20
-102.3236
 30
0.0
 10
116.0547
 20
-97.6595
 30
0.0
 10
121.3798
 20
-95.3561
 30
0.0
 10
126.2945
 20
-96.9383
 30
0.0
 10
126.2945
 20
-96.9383
 30
0.0
 10
123.5912
 20
-98.1672
 30
0.0
 10
121.4845
 20
-100.4188
 30
0.0
 10
120.4385
 20
-103.1982
 30
0.0
  0
SPLINE
  5
89
330
1F
100
AcDbEntity
  8
layer 1
 62
     7
370
     9
100
AcDbSpline
210
0.0
220
0.0
230
1.0
 70
    11
 71
     3
 72
    56
 73
    52
 74
     0
 42
0.0000000001
 43
0.0000000001
 12
1.0
 22
0.0
 32
0.0
 13
1.0
 23
0.0
 33
0.0
 40
0.0
 40
0.0
 40
0.0
 40
0.0
 40
0.0714285714285714
 40
0.0714285714285714
 40
0.0714285714285714
 40
0.0714285714285714
 40
0.1428571428571428
 40
0.1428571428571428
 40
0.1428571428571428
 40
0.1428571428571428
 40
0.2142857142857143
 40
0.2142857142857143
 40
0.2142857142857143
 40
0.2142857142857143
 40
0.2857142857142857
 40
0.2857142857142857
 40
0.2857142857142857
 40
0.2857142857142857
 40
0.3571428571428572
 40
0.3571428571428572
 40
0.3571428571428572
 40
0.3571428571428572
 40
0.4285714285714285
 40
0.4285714285714285
 40
0.4285714285714285
 40
0.4285714285714285
 40
0.5
 40
0.5
 40
0.5
 40
0.5
 40
0.5714285714285714
 40
0.5714285714285714
 40
0.5714285714285714
 40
0.5714285714285714
 40
0.6428571428571429
 40
0.6428571428571429
 40
0.6428571428571429
 40
0.6428571428571429
 40
0.7142857142857143
 40
0.7142857142857143
 40
0.7142857142857143
 40
0.7142857142857143
 40
0.7857142857142857
 40
0.7857142857142857
 40
0.7857142857142857
 40
0.7857142857142857
 40
0.8571428571428571
 40
0.8571428571428571
 40
0.8571428571428571
 40
0.8571428571428571
 40
1.0
 40
1.0
 40
1.0
 40
1.0
 10
138.7477
 20
2.2798
 30
0.0
 10
135.6796
 20
3.4326
 30
0.0
 10
132.29
 20
3.3839
 30
0.0
 10
129.2557
 20
2.1444
 30
0.0
 10
129.2557
 20
2.1444
 30
0.0
 10
128.6455
 20
3.2475
 30
0.0
 10
127.9232
 20
4.285
 30
0.0
 10
127.1014
 20
5.2411
 30
0.0
 10
127.1014
 20
5.2411
 30
0.0
 10
124.4214
 20
3.9339
 30
0.0
 10
122.2449
 20
1.7827
 30
0.0
 10
120.9091
 20
-0.8846
 30
0.0
 10
120.9091
 20
-0.8846
 30
0.0
 10
119.8886
 20
-1.1574
 30
0.0
 10
118.8066
 20
-0.7524
 30
0.0
 10
118.2175
 20
0.1254
 30
0.0
 10
118.2175
 20
0.1254
 30
0.0
 10
117.3577
 20
-3.5995
 30
0.0
 10
117.5438
 20
-7.4893
 30
0.0
 10
118.7548
 20
-11.1158
 30
0.0
 10
118.7548
 20
-11.1158
 30
0.0
 10
117.7903
 20
-11.4913
 30
0.0
 10
116.7612
 20
-11.6732
 30
0.0
 10
115.7269
 20
-11.6552
 30
0.0
 10
115.7269
 20
-11.6552
 30
0.0
 10
115.5323
 20
-15.158
 30
0.0
 10
116.6882
 20
-18.6026
 30
0.0
 10
118.9579
 20
-21.2794
 30
0.0
 10
118.9579
 20
-21.2794
 30
0.0
 10
118.2186
 20
-21.8579
 30
0.0
 10
117.5216
 20
-22.4893
 30
0.0
 10
116.8702
 20
-23.1641
 30
0.0
 10
116.8702
 20
-23.1641
 30
0.0
 10
118.6882
 20
-27.0317
 30
0.0
 10
122.192
 20
-29.8407
 30
0.0
 10
126.3611
 20
-30.7703
 30
0.0
 10
126.3611
 20
-30.7703
 30
0.0
 10
121.0667
 20
-24.5083
 30
0.0
 10
119.86
 20
-15.7503
 30
0.0
 10
123.2655
 20
-8.2878
 30
0.0
 10
123.2655
 20
-8.2878
 30
0.0
 10
126.5356
 20
-2.9617
 30
0.0
 10
132.7215
 20
-0.1612
 30
0.0
 10
138.8821
 20
-1.2209
 30
0.0
 10
138.8821
 20
-1.2209
 30
0.0
 10
141.0226
 20
-1.6439
 30
0.0
 10
143.2193
 20
-0.8084
 30
0.0
 10
144.5349
 20
0.9334
 30
0.0
 10
144.5349
 20
0.9334
 30
0.0
 10
142.5414
 20
1.0328
 30
0.0
 10
140.5816
 20
1.4897
 30
0.0
 10
138.7477
 20
2.2798
 30
0.0
  0
SPLINE
  5
8A
330
1F
100
AcDbEntity
  8
layer 1
 62
     7
370
     9
100
AcDbSpline
210
0.0
220
0.0
230
1.0
 70
    11
 71
     3
 72
    56
 73
    52
 74
     0
 42
0.0000000001
 43
0.0000000001
 12
1.0
 22
0.0
 32
0.0
 13
1.0
 23
0.0
 33
0.0
 40
0.0
 40
0.0
 40
0.0
 40
0.0
 40
0.0714285714285714
 40
0.0714285714285714
 40
0.0714285714285714
 40
0.0714285714285714
 40
0.1428571428571428
 40
0.1428571428571428
 40
0.1428571428571428
 40
0.1428571428571428
 40
0.2142857142857143
 40
0.2142857142857143
 40
0.2142857142857143
 40
0.2142857142857143
 40
0.2857142857142857
 40
0.2857142857142857
 40
0.2857142857142857
 40
0.2857142857142857
 40
0.3571428571428572
 40
0.3571428571428572
 40
0.3571428571428572
 40
0.3571428571428572
 40
0.4285714285714285
 40
0.4285714285714285
 40
0.4285714285714285
 40
0.4285714285714285
 40
0.5
 40
0.5
 40
0.5
 40
0.5
 40
0.5714285714285714
 40
0.5714285714285714
 40
0.5714285714285714
 40
0.5714285714285714
 40
0.6428571428571429
 40
0.6428571428571429
 40
0.6428571428571429
 40
0.6428571428571429
 40
0.7142857142857143
 40
0.7142857142857143
 40
0.7142857142857143
 40
0.7142857142857143
 40
0.7857142857142857
 40
0.7857142857142857
 40
0.7857142857142857
 40
0.7857142857142857
 40
0.8571428571428571
 40
0.8571428571428571
 40
0.8571428571428571
 40
0.8571428571428571
 40
1.0
 40
1.0
 40
1.0
 40
1.0
 10
125.6884
 20
-88.3896
 30
0.0
 10
118.4037
 20
-80.3635
 30
0.0
 10
118.5803
 20
-68.0667
 30
0.0
 10
126.0935
 20
-60.2542
 30
0.0
 10
126.0935
 20
-60.2542
 30
0.0
 10
128.6381
 20
-58.5155
 30
0.0
 10
131.7041
 20
-57.7065
 30
0.0
 10
134.7764
 20
-57.9645
 30
0.0
 10
134.7764
 20
-57.9645
 30
0.0
 10
135.2259
 20
-57.9719
 30
0.0
 10
135.6394
 20
-57.7213
 30
0.0
 10
135.8404
 20
-57.3183
 30
0.0
 10
135.8404
 20
-57.3183
 30
0.0
 10
136.0403
 20
-56.9164
 30
0.0
 10
135.9937
 20
-56.4352
 30
0.0
 10
135.7177
 20
-56.0799
 30
0.0
 10
135.7177
 20
-56.0799
 30
0.0
 10
130.8295
 20
-53.5934
 30
0.0
 10
124.8773
 20
-54.7293
 30
0.0
 10
121.2455
 20
-58.8402
 30
0.0
 10
121.2455
 20
-58.8402
 30
0.0
 10
120.558
 20
-58.4468
 30
0.0
 10
119.9044
 20
-57.9962
 30
0.0
 10
119.2942
 20
-57.4939
 30
0.0
 10
119.2942
 20
-57.4939
 30
0.0
 10
117.3366
 20
-59.9581
 30
0.0
 10
116.6618
 20
-63.2039
 30
0.0
 10
117.4772
 20
-66.2434
 30
0.0
 10
117.4772
 20
-66.2434
 30
0.0
 10
116.3371
 20
-66.1958
 30
0.0
 10
115.2076
 20
-66.015
 30
0.0
 10
114.1119
 20
-65.7062
 30
0.0
 10
114.1119
 20
-65.7062
 30
0.0
 10
113.9787
 20
-68.585
 30
0.0
 10
114.8089
 20
-71.4267
 30
0.0
 10
116.4672
 20
-73.7831
 30
0.0
 10
116.4672
 20
-73.7831
 30
0.0
 10
115.6539
 20
-74.4885
 30
0.0
 10
114.5297
 20
-74.7169
 30
0.0
 10
113.5059
 20
-74.3891
 30
0.0
 10
113.5059
 20
-74.3891
 30
0.0
 10
114.205
 20
-77.4456
 30
0.0
 10
116.0315
 20
-80.1255
 30
0.0
 10
118.6215
 20
-81.8938
 30
0.0
 10
118.6215
 20
-81.8938
 30
0.0
 10
118.2694
 20
-82.8245
 30
0.0
 10
117.5861
 20
-83.5913
 30
0.0
 10
116.7031
 20
-84.0482
 30
0.0
 10
116.7031
 20
-84.0482
 30
0.0
 10
118.851
 20
-86.8244
 30
0.0
 10
122.1783
 20
-88.432
 30
0.0
 10
125.6884
 20
-88.3896
 30
0.0
  0
ENDSEC
  0
SECTION
  2
OBJECTS
  0
DICTIONARY
  5
C
330
0
100
AcDbDictionary
281
     1
  3
ACAD_GROUP
350
D
  3
ACAD_LAYOUT
350
1A
  3
ACAD_MATERIAL
350
3B
  3
ACAD_MLEADERSTYLE
350
AC
  3
ACAD_MLINESTYLE
350
17
  3
ACAD_PLOTSETTINGS
350
19
  3
ACAD_PLOTSTYLENAME
350
E
  3
ACAD_TABLESTYLE
350
AB
  3
ACAD_VISUALSTYLE
350
2A
  0
DICTIONARY
  5
D
102
{ACAD_REACTORS
330
C
102
}
330
C
100
AcDbDictionary
281
     1
  0
DICTIONARY
  5
1A
102
{ACAD_REACTORS
330
C
102
}
330
C
100
AcDbDictionary
281
     1
  3
Layout1
350
1E
  3
Layout2
350
26
  3
Model
350
22
  0
DICTIONARY
  5
3B
102
{ACAD_REACTORS
330
C
102
}
330
C
100
AcDbDictionary
281
     1
  3
ByBlock
350
3D
  3
ByLayer
350
3C
  3
Global
350
3E
  0
DICTIONARY
  5
AC
102
{ACAD_REACTORS
330
C
102
}
330
C
100
AcDbDictionary
281
     1
  0
DICTIONARY
  5
17
102
{ACAD_REACTORS
330
C
102
}
330
C
100
AcDbDictionary
281
     1
  3
Standard
350
18
  0
DICTIONARY
  5
19
102
{ACAD_REACTORS
330
C
102
}
330
C
100
AcDbDictionary
281
     1
  0
ACDBDICTIONARYWDFLT
  5
E
102
{ACAD_REACTORS
330
C
102
}
330
C
100
AcDbDictionary
281
     1
  3
Normal
350
F
100
AcDbDictionaryWithDefault
340
F
  0
DICTIONARY
  5
AB
102
{ACAD_REACTORS
330
C
102
}
330
C
100
AcDbDictionary
281
     1
  0
DICTIONARY
  5
2A
102
{ACAD_REACTORS
330
C
102
}
330
C
100
AcDbDictionary
281
     1
  3
2dWireframe
350
2F
  3
3D Hidden
350
31
  3
3dWireframe
350
30
  3
Basic
350
32
  3
Brighten
350
36
  3
ColorChange
350
3A
  3
Conceptual
350
34
  3
Dim
350
35
  3
Facepattern
350
39
  3
Flat
350
2B
  3
FlatWithEdges
350
2C
  3
Gouraud
350
2D
  3
GouraudWithEdges
350
2E
  3
Linepattern
350
38
  3
Realistic
350
33
  3
Thicken
350
37
  0
LAYOUT
  5
1E
102
{ACAD_REACTORS
330
1A
102
}
330
1A
100
AcDbPlotSettings
  1

  2
none_device
  4

  6

 40
0.0
 41
0.0
 42
0.0
 43
0.0
 44
0.0
 45
0.0
 46
0.0
 47
0.0
 48
0.0
 49
0.0
140
0.0
141
0.0
142
1.0
143
1.0
 70
   688
 72
     0
 73
     0
 74
     5
  7

 75
    16
 76
     0
 77
     2
 78
   300
147
1.0
148
0.0
149
0.0
100
AcDbLayout
  1
Layout1
 70
     1
 71
     1
 10
0.0
 20
0.0
 11
12.0
 21
9.0
 12
0.0
 22
0.0
 32
0.0
 14
1.000000000000000E+20
 24
1.000000000000000E+20
 34
1.000000000000000E+20
 15
-1.000000000000000E+20
 25
-1.000000000000000E+20
 35
-1.000000000000000E+20
146
0.0
 13
0.0
 23
0.0
 33
0.0
 16
1.0
 26
0.0
 36
0.0
 17
0.0
 27
1.0
 37
0.0
 76
     0
330
1B
  0
LAYOUT
  5
26
102
{ACAD_REACTORS
330
1A
102
}
330
1A
100
AcDbPlotSettings
  1

  2
none_device
  4

  6

 40
0.0
 41
0.0
 42
0.0
 43
0.0
 44
0.0
 45
0.0
 46
0.0
 47
0.0
 48
0.0
 49
0.0
140
0.0
141
0.0
142
1.0
143
1.0
 70
   688
 72
     0
 73
     0
 74
     5
  7

 75
    16
 76
     0
 77
     2
 78
   300
147
1.0
148
0.0
149
0.0
100
AcDbLayout
  1
Layout2
 70
     1
 71
     2
 10
0.0
 20
0.0
 11
0.0
 21
0.0
 12
0.0
 22
0.0
 32
0.0
 14
0.0
 24
0.0
 34
0.0
 15
0.0
 25
0.0
 35
0.0
146
0.0
 13
0.0
 23
0.0
 33
0.0
 16
1.0
 26
0.0
 36
0.0
 17
0.0
 27
1.0
 37
0.0
 76
     0
330
23
  0
LAYOUT
  5
22
102
{ACAD_REACTORS
330
1A
102
}
330
1A
100
AcDbPlotSettings
  1

  2
none_device
  4

  6

 40
0.0
 41
0.0
 42
0.0
 43
0.0
 44
0.0
 45
0.0
 46
0.0
 47
0.0
 48
0.0
 49
0.0
140
0.0
141
0.0
142
1.0
143
1.0
 70
  1712
 72
     0
 73
     0
 74
     0
  7

 75
     0
 76
     0
 77
     2
 78
   300
147
1.0
148
0.0
149
0.0
100
AcDbLayout
  1
Model
 70
     1
 71
     0
 10
0.0
 20
0.0
 11
12.0
 21
9.0
 12
0.0
 22
0.0
 32
0.0
 14
22.9114
 24
-115.3272
 34
0.0
 15
196.0876
 25
131.6489
 35
0.0
146
0.0
 13
0.0
 23
0.0
 33
0.0
 16
1.0
 26
0.0
 36
0.0
 17
0.0
 27
1.0
 37
0.0
 76
     0
330
1F
331
29
  0
MATERIAL
  5
3D
102
{ACAD_REACTORS
330
3B
102
}
330
3B
100
AcDbMaterial
  1
ByBlock
 72
     1
 94
      127
  0
MATERIAL
  5
3C
102
{ACAD_REACTORS
330
3B
102
}
330
3B
100
AcDbMaterial
  1
ByLayer
 72
     1
 94
      127
  0
MATERIAL
  5
3E
102
{ACAD_REACTORS
330
3B
102
}
330
3B
100
AcDbMaterial
  1
Global
 72
     1
 94
      127
  0
MLINESTYLE
  5
18
102
{ACAD_REACTORS
330
17
102
}
330
17
100
AcDbMlineStyle
  2
Standard
 70
     0
  3

 62
   256
 51
90.0
 52
90.0
 71
     2
 49
0.5
 62
   256
  6
BYLAYER
 49
-0.5
 62
   256
  6
BYLAYER
  0
ACDBPLACEHOLDER
  5
F
102
{ACAD_REACTORS
330
E
102
}
330
E
  0
VISUALSTYLE
  5
2F
102
{ACAD_REACTORS
330
2A
102
}
102
{ACAD_XDICTIONARY
360
93
102
}
330
2A
100
AcDbVisualStyle
  2
2dWireframe
 70
     4
 71
     0
 72
     2
 73
     0
 90
        0
 40
-0.6
 41
-30.0
 62
     5
 63
     7
421
 16777215
 74
     1
 91
        4
 64
     7
 65
   257
 75
     1
175
     1
 42
1.0
 92
        0
 66
   257
 43
1.0
 76
     1
 77
     6
 78
     2
 67
     7
 79
     5
170
     0
171
     0
290
     0
174
     0
 93
        1
 44
0.0
173
     0
291
     0
 45
0.0
  0
VISUALSTYLE
  5
31
102
{ACAD_REACTORS
330
2A
102
}
102
{ACAD_XDICTIONARY
360
97
102
}
330
2A
100
AcDbVisualStyle
  2
3D Hidden
 70
     6
 71
     1
 72
     2
 73
     2
 90
        0
 40
-0.6
 41
-30.0
 62
     5
 63
     7
421
 16777215
 74
     2
 91
        2
 64
     7
 65
   257
 75
     2
175
     1
 42
40.0
 92
        0
 66
   257
 43
1.0
 76
     1
 77
     6
 78
     2
 67
     7
 79
     3
170
     0
171
     0
290
     0
174
     0
 93
        1
 44
0.0
173
     0
291
     0
 45
0.0
  0
VISUALSTYLE
  5
30
102
{ACAD_REACTORS
330
2A
102
}
102
{ACAD_XDICTIONARY
360
95
102
}
330
2A
100
AcDbVisualStyle
  2
3dWireframe
 70
     5
 71
     0
 72
     2
 73
     0
 90
        0
 40
-0.6
 41
-30.0
 62
     5
 63
     7
421
 16777215
 74
     1
 91
        4
 64
     7
 65
   257
 75
     1
175
     1
 42
1.0
 92
        0
 66
   257
 43
1.0
 76
     1
 77
     6
 78
     2
 67
     7
 79
     5
170
     0
171
     0
290
     0
174
     0
 93
        1
 44
0.0
173
     0
291
     0
 45
0.0
  0
VISUALSTYLE
  5
32
102
{ACAD_REACTORS
330
2A
102
}
102
{ACAD_XDICTIONARY
360
99
102
}
330
2A
100
AcDbVisualStyle
  2
Basic
 70
     7
 71
     1
 72
     0
 73
     1
 90
        0
 40
-0.6
 41
-30.0
 62
     5
 63
     7
421
 16777215
 74
     0
 91
        4
 64
     7
 65
   257
 75
     1
175
     1
 42
1.0
 92
        8
 66
     7
 43
1.0
 76
     1
 77
     6
 78
     2
 67
     7
 79
     5
170
     0
171
     0
290
     0
174
     0
 93
        1
 44
0.0
173
     0
291
     1
 45
0.0
  0
VISUALSTYLE
  5
36
102
{ACAD_REACTORS
330
2A
102
}
102
{ACAD_XDICTIONARY
360
A1
102
}
330
2A
100
AcDbVisualStyle
  2
Brighten
 70
    12
 71
     2
 72
     2
 73
     0
 90
        0
 40
-0.6
 41
-30.0
 62
     5
 63
     7
421
 16777215
 74
     1
 91
        4
 64
     7
 65
   257
 75
     1
175
     1
 42
1.0
 92
        8
 66
     7
 43
1.0
 76
     1
 77
     6
 78
     2
 67
     7
 79
     5
170
     0
171
     0
290
     0
174
     0
 93
        1
 44
50.0
173
     0
291
     1
 45
0.0
  0
VISUALSTYLE
  5
3A
102
{ACAD_REACTORS
330
2A
102
}
102
{ACAD_XDICTIONARY
360
A9
102
}
330
2A
100
AcDbVisualStyle
  2
ColorChange
 70
    16
 71
     2
 72
     2
 73
     3
 90
        0
 40
-0.6
 41
-30.0
 62
     5
 63
     8
421
  8421504
 74
     1
 91
        4
 64
     7
 65
   257
 75
     1
175
     1
 42
1.0
 92
        8
 66
     8
424
  8421504
 43
1.0
 76
     1
 77
     6
 78
     2
 67
     7
 79
     5
170
     0
171
     0
290
     0
174
     0
 93
        1
 44
0.0
173
     0
291
     1
 45
0.0
  0
VISUALSTYLE
  5
34
102
{ACAD_REACTORS
330
2A
102
}
102
{ACAD_XDICTIONARY
360
9D
102
}
330
2A
100
AcDbVisualStyle
  2
Conceptual
 70
     9
 71
     3
 72
     2
 73
     0
 90
        0
 40
-0.6
 41
-30.0
 62
     5
 63
     7
421
 16777215
 74
     2
 91
        2
 64
     7
 65
   257
 75
     1
175
     1
 42
40.0
 92
        8
 66
     7
 43
1.0
 76
     1
 77
     6
 78
     2
 67
     7
 79
     3
170
     0
171
     0
290
     0
174
     0
 93
        1
 44
0.0
173
     0
291
     0
 45
0.0
  0
VISUALSTYLE
  5
35
102
{ACAD_REACTORS
330
2A
102
}
102
{ACAD_XDICTIONARY
360
9F
102
}
330
2A
100
AcDbVisualStyle
  2
Dim
 70
    11
 71
     2
 72
     2
 73
     0
 90
        0
 40
-0.6
 41
-30.0
 62
     5
 63
     7
421
 16777215
 74
     1
 91
        4
 64
     7
 65
   257
 75
     1
175
     1
 42
1.0
 92
        8
 66
     7
 43
1.0
 76
     1
 77
     6
 78
     2
 67
     7
 79
     5
170
     0
171
     0
290
     0
174
     0
 93
        1
 44
-50.0
173
     0
291
     1
 45
0.0
  0
VISUALSTYLE
  5
39
102
{ACAD_REACTORS
330
2A
102
}
102
{ACAD_XDICTIONARY
360
A7
102
}
330
2A
100
AcDbVisualStyle
  2
Facepattern
 70
    15
 71
     2
 72
     2
 73
     0
 90
        0
 40
-0.6
 41
-30.0
 62
     5
 63
     7
421
 16777215
 74
     1
 91
        4
 64
     7
 65
   257
 75
     1
175
     1
 42
1.0
 92
        8
 66
     7
 43
1.0
 76
     1
 77
     6
 78
     2
 67
     7
 79
     5
170
     0
171
     0
290
     0
174
     0
 93
        1
 44
0.0
173
     0
291
     1
 45
0.0
  0
VISUALSTYLE
  5
2B
102
{ACAD_REACTORS
330
2A
102
}
102
{ACAD_XDICTIONARY
360
8B
102
}
330
2A
100
AcDbVisualStyle
  2
Flat
 70
     0
 71
     2
 72
     1
 73
     1
 90
        2
 40
-0.6
 41
30.0
 62
     5
 63
     7
421
 16777215
 74
     0
 91
        4
 64
     7
 65
   257
 75
     1
175
     1
 42
1.0
 92
        8
 66
     7
 43
1.0
 76
     1
 77
     6
 78
     2
 67
     7
 79
     5
170
     0
171
     0
290
     0
174
     0
 93
       13
 44
0.0
173
     0
291
     1
 45
0.0
  0
VISUALSTYLE
  5
2C
102
{ACAD_REACTORS
330
2A
102
}
102
{ACAD_XDICTIONARY
360
8D
102
}
330
2A
100
AcDbVisualStyle
  2
FlatWithEdges
 70
     1
 71
     2
 72
     1
 73
     1
 90
        2
 40
-0.6
 41
30.0
 62
     5
 63
     7
421
 16777215
 74
     1
 91
        4
 64
     7
 65
   257
 75
     1
175
     1
 42
1.0
 92
        0
 66
   257
 43
1.0
 76
     1
 77
     6
 78
     2
 67
     7
 79
     5
170
     0
171
     0
290
     0
174
     0
 93
       13
 44
0.0
173
     0
291
     1
 45
0.0
  0
VISUALSTYLE
  5
2D
102
{ACAD_REACTORS
330
2A
102
}
102
{ACAD_XDICTIONARY
360
8F
102
}
330
2A
100
AcDbVisualStyle
  2
Gouraud
 70
     2
 71
     2
 72
     2
 73
     1
 90
        2
 40
-0.6
 41
30.0
 62
     5
 63
     7
421
 16777215
 74
     0
 91
        4
 64
     7
 65
   257
 75
     1
175
     1
 42
1.0
 92
        0
 66
     7
 43
1.0
 76
     1
 77
     6
 78
     2
 67
     7
 79
     5
170
     0
171
     0
290
     0
174
     0
 93
       13
 44
0.0
173
     0
291
     1
 45
0.0
  0
VISUALSTYLE
  5
2E
102
{ACAD_REACTORS
330
2A
102
}
102
{ACAD_XDICTIONARY
360
91
102
}
330
2A
100
AcDbVisualStyle
  2
GouraudWithEdges
 70
     3
 71
     2
 72
     2
 73
     1
 90
        2
 40
-0.6
 41
30.0
 62
     5
 63
     7
421
 16777215
 74
     1
 91
        4
 64
     7
 65
   257
 75
     1
175
     1
 42
1.0
 92
        0
 66
   257
 43
1.0
 76
     1
 77
     6
 78
     2
 67
     7
 79
     5
170
     0
171
     0
290
     0
174
     0
 93
       13
 44
0.0
173
     0
291
     1
 45
0.0
  0
VISUALSTYLE
  5
38
102
{ACAD_REACTORS
330
2A
102
}
102
{ACAD_XDICTIONARY
360
A5
102
}
330
2A
100
AcDbVisualStyle
  2
Linepattern
 70
    14
 71
     2
 72
     2
 73
     0
 90
        0
 40
-0.6
 41
-30.0
 62
     5
 63
     7
421
 16777215
 74
     1
 91
        4
 64
     7
 65
   257
 75
     7
175
     7
 42
1.0
 92
        8
 66
     7
 43
1.0
 76
     1
 77
     6
 78
     2
 67
     7
 79
     5
170
     0
171
     0
290
     0
174
     0
 93
        1
 44
0.0
173
     0
291
     1
 45
0.0
  0
VISUALSTYLE
  5
33
102
{ACAD_REACTORS
330
2A
102
}
102
{ACAD_XDICTIONARY
360
9B
102
}
330
2A
100
AcDbVisualStyle
  2
Realistic
 70
     8
 71
     2
 72
     2
 73
     0
 90
        0
 40
-0.6
 41
-30.0
 62
     5
 63
     7
421
 16777215
 74
     1
 91
        0
 64
     7
 65
   257
 75
     1
175
     1
 42
1.0
 92
        8
 66
     8
424
  7895160
 43
1.0
 76
     1
 77
     6
 78
     2
 67
     7
 79
     5
170
     0
171
     0
290
     0
174
     0
 93
       13
 44
0.0
173
     0
291
     0
 45
0.0
  0
VISUALSTYLE
  5
37
102
{ACAD_REACTORS
330
2A
102
}
102
{ACAD_XDICTIONARY
360
A3
102
}
330
2A
100
AcDbVisualStyle
  2
Thicken
 70
    13
 71
     2
 72
     2
 73
     0
 90
        0
 40
-0.6
 41
-30.0
 62
     5
 63
     7
421
 16777215
 74
     1
 91
        4
 64
     7
 65
   257
 75
     1
175
     1
 42
1.0
 92
       12
 66
     7
 43
1.0
 76
     1
 77
     6
 78
     2
 67
     7
 79
     5
170
     0
171
     0
290
     0
174
     0
 93
        1
 44
0.0
173
     0
291
     1
 45
0.0
  0
DICTIONARY
  5
93
330
2F
100
AcDbDictionary
280
     1
281
     1
  3
ACAD_XREC_ROUNDTRIP
360
94
  0
DICTIONARY
  5
97
330
31
100
AcDbDictionary
280
     1
281
     1
  3
ACAD_XREC_ROUNDTRIP
360
98
  0
DICTIONARY
  5
95
330
30
100
AcDbDictionary
280
     1
281
     1
  3
ACAD_XREC_ROUNDTRIP
360
96
  0
DICTIONARY
  5
99
330
32
100
AcDbDictionary
280
     1
281
     1
  3
ACAD_XREC_ROUNDTRIP
360
9A
  0
DICTIONARY
  5
A1
330
36
100
AcDbDictionary
280
     1
281
     1
  3
ACAD_XREC_ROUNDTRIP
360
A2
  0
DICTIONARY
  5
A9
330
3A
100
AcDbDictionary
280
     1
281
     1
  3
ACAD_XREC_ROUNDTRIP
360
AA
  0
DICTIONARY
  5
9D
330
34
100
AcDbDictionary
280
     1
281
     1
  3
ACAD_XREC_ROUNDTRIP
360
9E
  0
DICTIONARY
  5
9F
330
35
100
AcDbDictionary
280
     1
281
     1
  3
ACAD_XREC_ROUNDTRIP
360
A0
  0
DICTIONARY
  5
A7
330
39
100
AcDbDictionary
280
     1
281
     1
  3
ACAD_XREC_ROUNDTRIP
360
A8
  0
DICTIONARY
  5
8B
330
2B
100
AcDbDictionary
280
     1
281
     1
  3
ACAD_XREC_ROUNDTRIP
360
8C
  0
DICTIONARY
  5
8D
330
2C
100
AcDbDictionary
280
     1
281
     1
  3
ACAD_XREC_ROUNDTRIP
360
8E
  0
DICTIONARY
  5
8F
330
2D
100
AcDbDictionary
280
     1
281
     1
  3
ACAD_XREC_ROUNDTRIP
360
90
  0
DICTIONARY
  5
91
330
2E
100
AcDbDictionary
280
     1
281
     1
  3
ACAD_XREC_ROUNDTRIP
360
92
  0
DICTIONARY
  5
A5
330
38
100
AcDbDictionary
280
     1
281
     1
  3
ACAD_XREC_ROUNDTRIP
360
A6
  0
DICTIONARY
  5
9B
330
33
100
AcDbDictionary
280
     1
281
     1
  3
ACAD_XREC_ROUNDTRIP
360
9C
  0
DICTIONARY
  5
A3
330
37
100
AcDbDictionary
280
     1
281
     1
  3
ACAD_XREC_ROUNDTRIP
360
A4
  0
XRECORD
  5
94
102
{ACAD_REACTORS
330
93
102
}
330
93
100
AcDbXrecord
280
     1
102
RTVSPropertyOp0
 70
     1
102
RTVSPropertyOp1
 70
     1
102
RTVSPropertyOp2
 70
     1
102
RTVSPropertyOp3
 70
     1
102
RTVSPropertyOp4
 70
     1
102
RTVSPropertyOp5
 70
     1
102
RTVSPropertyOp6
 70
     1
102
RTVSPropertyOp7
 70
     1
102
RTVSPropertyOp8
 70
     1
102
RTVSPropertyOp9
 70
     1
102
RTVSPropertyOp10
 70
     1
102
RTVSPropertyOp11
 70
     1
102
RTVSPropertyOp12
 70
     1
102
RTVSPropertyOp13
 70
     1
102
RTVSPropertyOp14
 70
     1
102
RTVSPropertyOp15
 70
     1
102
RTVSPropertyOp16
 70
     1
102
RTVSPropertyOp17
 70
     1
102
RTVSPropertyOp18
 70
     1
102
RTVSPropertyOp19
 70
     1
102
RTVSPropertyOp20
 70
     1
102
RTVSPropertyOp21
 70
     1
102
RTVSPropertyOp22
 70
     1
102
RTVSPropertyOp23
 70
     1
102
RTVSPropertyOp24
 70
     1
102
RTVSPropertyOp25
 70
     1
102
RTVSPropertyOp26
 70
     1
102
RTVSPropertyOp27
 70
     1
102
RTVSPropertyOp28
 70
     1
102
RTVSPropertyOp29
 70
     1
102
RTVSPropertyOp30
 70
     1
102
RTVSPropertyOp31
 70
     1
102
RTVSPropertyOp32
 70
     1
  0
XRECORD
  5
98
102
{ACAD_REACTORS
330
97
102
}
330
97
100
AcDbXrecord
280
     1
102
RTVSPropertyOp0
 70
     1
102
RTVSPropertyOp1
 70
     1
102
RTVSPropertyOp2
 70
     1
102
RTVSPropertyOp3
 70
     1
102
RTVSPropertyOp4
 70
     1
102
RTVSPropertyOp5
 70
     1
102
RTVSPropertyOp6
 70
     1
102
RTVSPropertyOp7
 70
     1
102
RTVSPropertyOp8
 70
     1
102
RTVSPropertyOp9
 70
     1
102
RTVSPropertyOp10
 70
     1
102
RTVSPropertyOp11
 70
     1
102
RTVSPropertyOp12
 70
     1
102
RTVSPropertyOp13
 70
     1
102
RTVSPropertyOp14
 70
     1
102
RTVSPropertyOp15
 70
     1
102
RTVSPropertyOp16
 70
     1
102
RTVSPropertyOp17
 70
     1
102
RTVSPropertyOp18
 70
     1
102
RTVSPropertyOp19
 70
     1
102
RTVSPropertyOp20
 70
     1
102
RTVSPropertyOp21
 70
     1
102
RTVSPropertyOp22
 70
     1
102
RTVSPropertyOp23
 70
     1
102
RTVSPropertyOp24
 70
     1
102
RTVSPropertyOp25
 70
     1
102
RTVSPropertyOp26
 70
     1
102
RTVSPropertyOp27
 70
     1
102
RTVSPropertyOp28
 70
     1
102
RTVSPropertyOp29
 70
     1
102
RTVSPropertyOp30
 70
     1
102
RTVSPropertyOp31
 70
     1
102
RTVSPropertyOp32
 70
     1
  0
XRECORD
  5
96
102
{ACAD_REACTORS
330
95
102
}
330
95
100
AcDbXrecord
280
     1
102
RTVSPropertyOp0
 70
     1
102
RTVSPropertyOp1
 70
     1
102
RTVSPropertyOp2
 70
     1
102
RTVSPropertyOp3
 70
     1
102
RTVSPropertyOp4
 70
     1
102
RTVSPropertyOp5
 70
     1
102
RTVSPropertyOp6
 70
     1
102
RTVSPropertyOp7
 70
     1
102
RTVSPropertyOp8
 70
     1
102
RTVSPropertyOp9
 70
     1
102
RTVSPropertyOp10
 70
     1
102
RTVSPropertyOp11
 70
     1
102
RTVSPropertyOp12
 70
     1
102
RTVSPropertyOp13
 70
     1
102
RTVSPropertyOp14
 70
     1
102
RTVSPropertyOp15
 70
     1
102
RTVSPropertyOp16
 70
     1
102
RTVSPropertyOp17
 70
     1
102
RTVSPropertyOp18
 70
     1
102
RTVSPropertyOp19
 70
     1
102
RTVSPropertyOp20
 70
     1
102
RTVSPropertyOp21
 70
     1
102
RTVSPropertyOp22
 70
     1
102
RTVSPropertyOp23
 70
     1
102
RTVSPropertyOp24
 70
     1
102
RTVSPropertyOp25
 70
     1
102
RTVSPropertyOp26
 70
     1
102
RTVSPropertyOp27
 70
     1
102
RTVSPropertyOp28
 70
     1
102
RTVSPropertyOp29
 70
     1
102
RTVSPropertyOp30
 70
     1
102
RTVSPropertyOp31
 70
     1
102
RTVSPropertyOp32
 70
     1
  0
XRECORD
  5
9A
102
{ACAD_REACTORS
330
99
102
}
330
99
100
AcDbXrecord
280
     1
102
RTVSPropertyOp0
 70
     1
102
RTVSPropertyOp1
 70
     1
102
RTVSPropertyOp2
 70
     1
102
RTVSPropertyOp3
 70
     1
102
RTVSPropertyOp4
 70
     1
102
RTVSPropertyOp5
 70
     1
102
RTVSPropertyOp6
 70
     1
102
RTVSPropertyOp7
 70
     1
102
RTVSPropertyOp8
 70
     1
102
RTVSPropertyOp9
 70
     1
102
RTVSPropertyOp10
 70
     1
102
RTVSPropertyOp11
 70
     1
102
RTVSPropertyOp12
 70
     1
102
RTVSPropertyOp13
 70
     1
102
RTVSPropertyOp14
 70
     1
102
RTVSPropertyOp15
 70
     1
102
RTVSPropertyOp16
 70
     1
102
RTVSPropertyOp17
 70
     1
102
RTVSPropertyOp18
 70
     1
102
RTVSPropertyOp19
 70
     1
102
RTVSPropertyOp20
 70
     1
102
RTVSPropertyOp21
 70
     1
102
RTVSPropertyOp22
 70
     1
102
RTVSPropertyOp23
 70
     1
102
RTVSPropertyOp24
 70
     1
102
RTVSPropertyOp25
 70
     1
102
RTVSPropertyOp26
 70
     1
102
RTVSPropertyOp27
 70
     1
102
RTVSPropertyOp28
 70
     1
102
RTVSPropertyOp29
 70
     1
102
RTVSPropertyOp30
 70
     1
102
RTVSPropertyOp31
 70
     1
102
RTVSPropertyOp32
 70
     1
  0
XRECORD
  5
A2
102
{ACAD_REACTORS
330
A1
102
}
330
A1
100
AcDbXrecord
280
     1
102
RTVSPropertyOp0
 70
     1
102
RTVSPropertyOp1
 70
     1
102
RTVSPropertyOp2
 70
     1
102
RTVSPropertyOp3
 70
     1
102
RTVSPropertyOp4
 70
     1
102
RTVSPropertyOp5
 70
     1
102
RTVSPropertyOp6
 70
     1
102
RTVSPropertyOp7
 70
     1
102
RTVSPropertyOp8
 70
     1
102
RTVSPropertyOp9
 70
     1
102
RTVSPropertyOp10
 70
     1
102
RTVSPropertyOp11
 70
     1
102
RTVSPropertyOp12
 70
     1
102
RTVSPropertyOp13
 70
     1
102
RTVSPropertyOp14
 70
     1
102
RTVSPropertyOp15
 70
     1
102
RTVSPropertyOp16
 70
     1
102
RTVSPropertyOp17
 70
     1
102
RTVSPropertyOp18
 70
     1
102
RTVSPropertyOp19
 70
     1
102
RTVSPropertyOp20
 70
     1
102
RTVSPropertyOp21
 70
     1
102
RTVSPropertyOp22
 70
     1
102
RTVSPropertyOp23
 70
     1
102
RTVSPropertyOp24
 70
     1
102
RTVSPropertyOp25
 70
     1
102
RTVSPropertyOp26
 70
     1
102
RTVSPropertyOp27
 70
     1
102
RTVSPropertyOp28
 70
     1
102
RTVSPropertyOp29
 70
     1
102
RTVSPropertyOp30
 70
     1
102
RTVSPropertyOp31
 70
     1
102
RTVSPropertyOp32
 70
     1
  0
XRECORD
  5
AA
102
{ACAD_REACTORS
330
A9
102
}
330
A9
100
AcDbXrecord
280
     1
102
RTVSPropertyOp0
 70
     1
102
RTVSPropertyOp1
 70
     1
102
RTVSPropertyOp2
 70
     1
102
RTVSPropertyOp3
 70
     1
102
RTVSPropertyOp4
 70
     1
102
RTVSPropertyOp5
 70
     1
102
RTVSPropertyOp6
 70
     1
102
RTVSPropertyOp7
 70
     1
102
RTVSPropertyOp8
 70
     1
102
RTVSPropertyOp9
 70
     1
102
RTVSPropertyOp10
 70
     1
102
RTVSPropertyOp11
 70
     1
102
RTVSPropertyOp12
 70
     1
102
RTVSPropertyOp13
 70
     1
102
RTVSPropertyOp14
 70
     1
102
RTVSPropertyOp15
 70
     1
102
RTVSPropertyOp16
 70
     1
102
RTVSPropertyOp17
 70
     1
102
RTVSPropertyOp18
 70
     1
102
RTVSPropertyOp19
 70
     1
102
RTVSPropertyOp20
 70
     1
102
RTVSPropertyOp21
 70
     1
102
RTVSPropertyOp22
 70
     1
102
RTVSPropertyOp23
 70
     1
102
RTVSPropertyOp24
 70
     1
102
RTVSPropertyOp25
 70
     1
102
RTVSPropertyOp26
 70
     1
102
RTVSPropertyOp27
 70
     1
102
RTVSPropertyOp28
 70
     1
102
RTVSPropertyOp29
 70
     1
102
RTVSPropertyOp30
 70
     1
102
RTVSPropertyOp31
 70
     1
102
RTVSPropertyOp32
 70
     1
  0
XRECORD
  5
9E
102
{ACAD_REACTORS
330
9D
102
}
330
9D
100
AcDbXrecord
280
     1
102
RTVSPropertyOp0
 70
     1
102
RTVSPropertyOp1
 70
     1
102
RTVSPropertyOp2
 70
     1
102
RTVSPropertyOp3
 70
     1
102
RTVSPropertyOp4
 70
     1
102
RTVSPropertyOp5
 70
     1
102
RTVSPropertyOp6
 70
     1
102
RTVSPropertyOp7
 70
     1
102
RTVSPropertyOp8
 70
     1
102
RTVSPropertyOp9
 70
     1
102
RTVSPropertyOp10
 70
     1
102
RTVSPropertyOp11
 70
     1
102
RTVSPropertyOp12
 70
     1
102
RTVSPropertyOp13
 70
     1
102
RTVSPropertyOp14
 70
     1
102
RTVSPropertyOp15
 70
     1
102
RTVSPropertyOp16
 70
     1
102
RTVSPropertyOp17
 70
     1
102
RTVSPropertyOp18
 70
     1
102
RTVSPropertyOp19
 70
     1
102
RTVSPropertyOp20
 70
     1
102
RTVSPropertyOp21
 70
     1
102
RTVSPropertyOp22
 70
     1
102
RTVSPropertyOp23
 70
     1
102
RTVSPropertyOp24
 70
     1
102
RTVSPropertyOp25
 70
     1
102
RTVSPropertyOp26
 70
     1
102
RTVSPropertyOp27
 70
     1
102
RTVSPropertyOp28
 70
     1
102
RTVSPropertyOp29
 70
     1
102
RTVSPropertyOp30
 70
     1
102
RTVSPropertyOp31
 70
     1
102
RTVSPropertyOp32
 70
     1
  0
XRECORD
  5
A0
102
{ACAD_REACTORS
330
9F
102
}
330
9F
100
AcDbXrecord
280
     1
102
RTVSPropertyOp0
 70
     1
102
RTVSPropertyOp1
 70
     1
102
RTVSPropertyOp2
 70
     1
102
RTVSPropertyOp3
 70
     1
102
RTVSPropertyOp4
 70
     1
102
RTVSPropertyOp5
 70
     1
102
RTVSPropertyOp6
 70
     1
102
RTVSPropertyOp7
 70
     1
102
RTVSPropertyOp8
 70
     1
102
RTVSPropertyOp9
 70
     1
102
RTVSPropertyOp10
 70
     1
102
RTVSPropertyOp11
 70
     1
102
RTVSPropertyOp12
 70
     1
102
RTVSPropertyOp13
 70
     1
102
RTVSPropertyOp14
 70
     1
102
RTVSPropertyOp15
 70
     1
102
RTVSPropertyOp16
 70
     1
102
RTVSPropertyOp17
 70
     1
102
RTVSPropertyOp18
 70
     1
102
RTVSPropertyOp19
 70
     1
102
RTVSPropertyOp20
 70
     1
102
RTVSPropertyOp21
 70
     1
102
RTVSPropertyOp22
 70
     1
102
RTVSPropertyOp23
 70
     1
102
RTVSPropertyOp24
 70
     1
102
RTVSPropertyOp25
 70
     1
102
RTVSPropertyOp26
 70
     1
102
RTVSPropertyOp27
 70
     1
102
RTVSPropertyOp28
 70
     1
102
RTVSPropertyOp29
 70
     1
102
RTVSPropertyOp30
 70
     1
102
RTVSPropertyOp31
 70
     1
102
RTVSPropertyOp32
 70
     1
  0
XRECORD
  5
A8
102
{ACAD_REACTORS
330
A7
102
}
330
A7
100
AcDbXrecord
280
     1
102
RTVSPropertyOp0
 70
     1
102
RTVSPropertyOp1
 70
     1
102
RTVSPropertyOp2
 70
     1
102
RTVSPropertyOp3
 70
     1
102
RTVSPropertyOp4
 70
     1
102
RTVSPropertyOp5
 70
     1
102
RTVSPropertyOp6
 70
     1
102
RTVSPropertyOp7
 70
     1
102
RTVSPropertyOp8
 70
     1
102
RTVSPropertyOp9
 70
     1
102
RTVSPropertyOp10
 70
     1
102
RTVSPropertyOp11
 70
     1
102
RTVSPropertyOp12
 70
     1
102
RTVSPropertyOp13
 70
     1
102
RTVSPropertyOp14
 70
     1
102
RTVSPropertyOp15
 70
     1
102
RTVSPropertyOp16
 70
     1
102
RTVSPropertyOp17
 70
     1
102
RTVSPropertyOp18
 70
     1
102
RTVSPropertyOp19
 70
     1
102
RTVSPropertyOp20
 70
     1
102
RTVSPropertyOp21
 70
     1
102
RTVSPropertyOp22
 70
     1
102
RTVSPropertyOp23
 70
     1
102
RTVSPropertyOp24
 70
     1
102
RTVSPropertyOp25
 70
     1
102
RTVSPropertyOp26
 70
     1
102
RTVSPropertyOp27
 70
     1
102
RTVSPropertyOp28
 70
     1
102
RTVSPropertyOp29
 70
     1
102
RTVSPropertyOp30
 70
     1
102
RTVSPropertyOp31
 70
     1
102
RTVSPropertyOp32
 70
     1
  0
XRECORD
  5
8C
102
{ACAD_REACTORS
330
8B
102
}
330
8B
100
AcDbXrecord
280
     1
102
RTVSPropertyOp0
 70
     1
102
RTVSPropertyOp1
 70
     1
102
RTVSPropertyOp2
 70
     1
102
RTVSPropertyOp3
 70
     1
102
RTVSPropertyOp4
 70
     1
102
RTVSPropertyOp5
 70
     1
102
RTVSPropertyOp6
 70
     1
102
RTVSPropertyOp7
 70
     1
102
RTVSPropertyOp8
 70
     1
102
RTVSPropertyOp9
 70
     1
102
RTVSPropertyOp10
 70
     1
102
RTVSPropertyOp11
 70
     1
102
RTVSPropertyOp12
 70
     1
102
RTVSPropertyOp13
 70
     1
102
RTVSPropertyOp14
 70
     1
102
RTVSPropertyOp15
 70
     1
102
RTVSPropertyOp16
 70
     1
102
RTVSPropertyOp17
 70
     1
102
RTVSPropertyOp18
 70
     1
102
RTVSPropertyOp19
 70
     1
102
RTVSPropertyOp20
 70
     1
102
RTVSPropertyOp21
 70
     1
102
RTVSPropertyOp22
 70
     1
102
RTVSPropertyOp23
 70
     1
102
RTVSPropertyOp24
 70
     1
102
RTVSPropertyOp25
 70
     1
102
RTVSPropertyOp26
 70
     1
102
RTVSPropertyOp27
 70
     1
102
RTVSPropertyOp28
 70
     1
102
RTVSPropertyOp29
 70
     1
102
RTVSPropertyOp30
 70
     1
102
RTVSPropertyOp31
 70
     1
102
RTVSPropertyOp32
 70
     1
  0
XRECORD
  5
8E
102
{ACAD_REACTORS
330
8D
102
}
330
8D
100
AcDbXrecord
280
     1
102
RTVSPropertyOp0
 70
     1
102
RTVSPropertyOp1
 70
     1
102
RTVSPropertyOp2
 70
     1
102
RTVSPropertyOp3
 70
     1
102
RTVSPropertyOp4
 70
     1
102
RTVSPropertyOp5
 70
     1
102
RTVSPropertyOp6
 70
     1
102
RTVSPropertyOp7
 70
     1
102
RTVSPropertyOp8
 70
     1
102
RTVSPropertyOp9
 70
     1
102
RTVSPropertyOp10
 70
     1
102
RTVSPropertyOp11
 70
     1
102
RTVSPropertyOp12
 70
     1
102
RTVSPropertyOp13
 70
     1
102
RTVSPropertyOp14
 70
     1
102
RTVSPropertyOp15
 70
     1
102
RTVSPropertyOp16
 70
     1
102
RTVSPropertyOp17
 70
     1
102
RTVSPropertyOp18
 70
     1
102
RTVSPropertyOp19
 70
     1
102
RTVSPropertyOp20
 70
     1
102
RTVSPropertyOp21
 70
     1
102
RTVSPropertyOp22
 70
     1
102
RTVSPropertyOp23
 70
     1
102
RTVSPropertyOp24
 70
     1
102
RTVSPropertyOp25
 70
     1
102
RTVSPropertyOp26
 70
     1
102
RTVSPropertyOp27
 70
     1
102
RTVSPropertyOp28
 70
     1
102
RTVSPropertyOp29
 70
     1
102
RTVSPropertyOp30
 70
     1
102
RTVSPropertyOp31
 70
     1
102
RTVSPropertyOp32
 70
     1
  0
XRECORD
  5
90
102
{ACAD_REACTORS
330
8F
102
}
330
8F
100
AcDbXrecord
280
     1
102
RTVSPropertyOp0
 70
     1
102
RTVSPropertyOp1
 70
     1
102
RTVSPropertyOp2
 70
     1
102
RTVSPropertyOp3
 70
     1
102
RTVSPropertyOp4
 70
     1
102
RTVSPropertyOp5
 70
     1
102
RTVSPropertyOp6
 70
     1
102
RTVSPropertyOp7
 70
     1
102
RTVSPropertyOp8
 70
     1
102
RTVSPropertyOp9
 70
     1
102
RTVSPropertyOp10
 70
     1
102
RTVSPropertyOp11
 70
     1
102
RTVSPropertyOp12
 70
     1
102
RTVSPropertyOp13
 70
     1
102
RTVSPropertyOp14
 70
     1
102
RTVSPropertyOp15
 70
     1
102
RTVSPropertyOp16
 70
     1
102
RTVSPropertyOp17
 70
     1
102
RTVSPropertyOp18
 70
     1
102
RTVSPropertyOp19
 70
     1
102
RTVSPropertyOp20
 70
     1
102
RTVSPropertyOp21
 70
     1
102
RTVSPropertyOp22
 70
     1
102
RTVSPropertyOp23
 70
     1
102
RTVSPropertyOp24
 70
     1
102
RTVSPropertyOp25
 70
     1
102
RTVSPropertyOp26
 70
     1
102
RTVSPropertyOp27
 70
     1
102
RTVSPropertyOp28
 70
     1
102
RTVSPropertyOp29
 70
     1
102
RTVSPropertyOp30
 70
     1
102
RTVSPropertyOp31
 70
     1
102
RTVSPropertyOp32
 70
     1
  0
XRECORD
  5
92
102
{ACAD_REACTORS
330
91
102
}
330
91
100
AcDbXrecord
280
     1
102
RTVSPropertyOp0
 70
     1
102
RTVSPropertyOp1
 70
     1
102
RTVSPropertyOp2
 70
     1
102
RTVSPropertyOp3
 70
     1
102
RTVSPropertyOp4
 70
     1
102
RTVSPropertyOp5
 70
     1
102
RTVSPropertyOp6
 70
     1
102
RTVSPropertyOp7
 70
     1
102
RTVSPropertyOp8
 70
     1
102
RTVSPropertyOp9
 70
     1
102
RTVSPropertyOp10
 70
     1
102
RTVSPropertyOp11
 70
     1
102
RTVSPropertyOp12
 70
     1
102
RTVSPropertyOp13
 70
     1
102
RTVSPropertyOp14
 70
     1
102
RTVSPropertyOp15
 70
     1
102
RTVSPropertyOp16
 70
     1
102
RTVSPropertyOp17
 70
     1
102
RTVSPropertyOp18
 70
     1
102
RTVSPropertyOp19
 70
     1
102
RTVSPropertyOp20
 70
     1
102
RTVSPropertyOp21
 70
     1
102
RTVSPropertyOp22
 70
     1
102
RTVSPropertyOp23
 70
     1
102
RTVSPropertyOp24
 70
     1
102
RTVSPropertyOp25
 70
     1
102
RTVSPropertyOp26
 70
     1
102
RTVSPropertyOp27
 70
     1
102
RTVSPropertyOp28
 70
     1
102
RTVSPropertyOp29
 70
     1
102
RTVSPropertyOp30
 70
     1
102
RTVSPropertyOp31
 70
     1
102
RTVSPropertyOp32
 70
     1
  0
XRECORD
  5
A6
102
{ACAD_REACTORS
330
A5
102
}
330
A5
100
AcDbXrecord
280
     1
102
RTVSPropertyOp0
 70
     1
102
RTVSPropertyOp1
 70
     1
102
RTVSPropertyOp2
 70
     1
102
RTVSPropertyOp3
 70
     1
102
RTVSPropertyOp4
 70
     1
102
RTVSPropertyOp5
 70
     1
102
RTVSPropertyOp6
 70
     1
102
RTVSPropertyOp7
 70
     1
102
RTVSPropertyOp8
 70
     1
102
RTVSPropertyOp9
 70
     1
102
RTVSPropertyOp10
 70
     1
102
RTVSPropertyOp11
 70
     1
102
RTVSPropertyOp12
 70
     1
102
RTVSPropertyOp13
 70
     1
102
RTVSPropertyOp14
 70
     1
102
RTVSPropertyOp15
 70
     1
102
RTVSPropertyOp16
 70
     1
102
RTVSPropertyOp17
 70
     1
102
RTVSPropertyOp18
 70
     1
102
RTVSPropertyOp19
 70
     1
102
RTVSPropertyOp20
 70
     1
102
RTVSPropertyOp21
 70
     1
102
RTVSPropertyOp22
 70
     1
102
RTVSPropertyOp23
 70
     1
102
RTVSPropertyOp24
 70
     1
102
RTVSPropertyOp25
 70
     1
102
RTVSPropertyOp26
 70
     1
102
RTVSPropertyOp27
 70
     1
102
RTVSPropertyOp28
 70
     1
102
RTVSPropertyOp29
 70
     1
102
RTVSPropertyOp30
 70
     1
102
RTVSPropertyOp31
 70
     1
102
RTVSPropertyOp32
 70
     1
  0
XRECORD
  5
9C
102
{ACAD_REACTORS
330
9B
102
}
330
9B
100
AcDbXrecord
280
     1
102
RTVSPropertyOp0
 70
     1
102
RTVSPropertyOp1
 70
     1
102
RTVSPropertyOp2
 70
     1
102
RTVSPropertyOp3
 70
     1
102
RTVSPropertyOp4
 70
     1
102
RTVSPropertyOp5
 70
     1
102
RTVSPropertyOp6
 70
     1
102
RTVSPropertyOp7
 70
     1
102
RTVSPropertyOp8
 70
     1
102
RTVSPropertyOp9
 70
     1
102
RTVSPropertyOp10
 70
     1
102
RTVSPropertyOp11
 70
     1
102
RTVSPropertyOp12
 70
     1
102
RTVSPropertyOp13
 70
     1
102
RTVSPropertyOp14
 70
     1
102
RTVSPropertyOp15
 70
     1
102
RTVSPropertyOp16
 70
     1
102
RTVSPropertyOp17
 70
     1
102
RTVSPropertyOp18
 70
     1
102
RTVSPropertyOp19
 70
     1
102
RTVSPropertyOp20
 70
     1
102
RTVSPropertyOp21
 70
     1
102
RTVSPropertyOp22
 70
     1
102
RTVSPropertyOp23
 70
     1
102
RTVSPropertyOp24
 70
     1
102
RTVSPropertyOp25
 70
     1
102
RTVSPropertyOp26
 70
     1
102
RTVSPropertyOp27
 70
     1
102
RTVSPropertyOp28
 70
     1
102
RTVSPropertyOp29
 70
     1
102
RTVSPropertyOp30
 70
     1
102
RTVSPropertyOp31
 70
     1
102
RTVSPropertyOp32
 70
     1
  0
XRECORD
  5
A4
102
{ACAD_REACTORS
330
A3
102
}
330
A3
100
AcDbXrecord
280
     1
102
RTVSPropertyOp0
 70
     1
102
RTVSPropertyOp1
 70
     1
102
RTVSPropertyOp2
 70
     1
102
RTVSPropertyOp3
 70
     1
102
RTVSPropertyOp4
 70
     1
102
RTVSPropertyOp5
 70
     1
102
RTVSPropertyOp6
 70
     1
102
RTVSPropertyOp7
 70
     1
102
RTVSPropertyOp8
 70
     1
102
RTVSPropertyOp9
 70
     1
102
RTVSPropertyOp10
 70
     1
102
RTVSPropertyOp11
 70
     1
102
RTVSPropertyOp12
 70
     1
102
RTVSPropertyOp13
 70
     1
102
RTVSPropertyOp14
 70
     1
102
RTVSPropertyOp15
 70
     1
102
RTVSPropertyOp16
 70
     1
102
RTVSPropertyOp17
 70
     1
102
RTVSPropertyOp18
 70
     1
102
RTVSPropertyOp19
 70
     1
102
RTVSPropertyOp20
 70
     1
102
RTVSPropertyOp21
 70
     1
102
RTVSPropertyOp22
 70
     1
102
RTVSPropertyOp23
 70
     1
102
RTVSPropertyOp24
 70
     1
102
RTVSPropertyOp25
 70
     1
102
RTVSPropertyOp26
 70
     1
102
RTVSPropertyOp27
 70
     1
102
RTVSPropertyOp28
 70
     1
102
RTVSPropertyOp29
 70
     1
102
RTVSPropertyOp30
 70
     1
102
RTVSPropertyOp31
 70
     1
102
RTVSPropertyOp32
 70
     1
  0
ENDSEC
  0
EOF
