  0
SECTION
  2
HEADER
  9
$ACADVER
  1
AC1021
  9
$ACADMAINTVER
 70
    25
  9
$DWGCODEPAGE
  3
ANSI_1252
  9
$INSBASE
 10
0.0
 20
0.0
 30
0.0
  9
$EXTMIN
 10
-59.5728
 20
-102.3465
 30
0.0
  9
$EXTMAX
 10
71.5219
 20
110.3603
 30
0.0
  9
$LIMMIN
 10
0.0
 20
0.0
  9
$LIMMAX
 10
12.0
 20
9.0
  9
$ORTHOMODE
 70
     0
  9
$REGENMODE
 70
     1
  9
$FILLMODE
 70
     1
  9
$QTEXTMODE
 70
     0
  9
$MIRRTEXT
 70
     1
  9
$LTSCALE
 40
1.0
  9
$ATTMODE
 70
     1
  9
$TEXTSIZE
 40
0.2
  9
$TRACEWID
 40
0.05
  9
$TEXTSTYLE
  7
Standard
  9
$CLAYER
  8
0
  9
$CELTYPE
  6
ByLayer
  9
$CECOLOR
 62
   256
  9
$CELTSCALE
 40
1.0
  9
$DISPSILH
 70
     0
  9
$DIMSCALE
 40
1.0
  9
$DIMASZ
 40
0.18
  9
$DIMEXO
 40
0.0625
  9
$DIMDLI
 40
0.38
  9
$DIMRND
 40
0.0
  9
$DIMDLE
 40
0.0
  9
$DIMEXE
 40
0.18
  9
$DIMTP
 40
0.0
  9
$DIMTM
 40
0.0
  9
$DIMTXT
 40
0.18
  9
$DIMCEN
 40
0.09
  9
$DIMTSZ
 40
0.0
  9
$DIMTOL
 70
     0
  9
$DIMLIM
 70
     0
  9
$DIMTIH
 70
     1
  9
$DIMTOH
 70
     1
  9
$DIMSE1
 70
     0
  9
$DIMSE2
 70
     0
  9
$DIMTAD
 70
     0
  9
$DIMZIN
 70
     0
  9
$DIMBLK
  1

  9
$DIMASO
 70
     1
  9
$DIMSHO
 70
     1
  9
$DIMPOST
  1

  9
$DIMAPOST
  1

  9
$DIMALT
 70
     0
  9
$DIMALTD
 70
     2
  9
$DIMALTF
 40
25.4
  9
$DIMLFAC
 40
1.0
  9
$DIMTOFL
 70
     0
  9
$DIMTVP
 40
0.0
  9
$DIMTIX
 70
     0
  9
$DIMSOXD
 70
     0
  9
$DIMSAH
 70
     0
  9
$DIMBLK1
  1

  9
$DIMBLK2
  1

  9
$DIMSTYLE
  2
Standard
  9
$DIMCLRD
 70
     0
  9
$DIMCLRE
 70
     0
  9
$DIMCLRT
 70
     0
  9
$DIMTFAC
 40
1.0
  9
$DIMGAP
 40
0.09
  9
$DIMJUST
 70
     0
  9
$DIMSD1
 70
     0
  9
$DIMSD2
 70
     0
  9
$DIMTOLJ
 70
     1
  9
$DIMTZIN
 70
     0
  9
$DIMALTZ
 70
     0
  9
$DIMALTTZ
 70
     0
  9
$DIMUPT
 70
     0
  9
$DIMDEC
 70
     4
  9
$DIMTDEC
 70
     4
  9
$DIMALTU
 70
     2
  9
$DIMALTTD
 70
     2
  9
$DIMTXSTY
  7
Standard
  9
$DIMAUNIT
 70
     0
  9
$DIMADEC
 70
     0
  9
$DIMALTRND
 40
0.0
  9
$DIMAZIN
 70
     0
  9
$DIMDSEP
 70
    46
  9
$DIMATFIT
 70
     3
  9
$DIMFRAC
 70
     0
  9
$DIMLDRBLK
  1

  9
$DIMLUNIT
 70
     2
  9
$DIMLWD
 70
    -2
  9
$DIMLWE
 70
    -2
  9
$DIMTMOVE
 70
     0
  9
$DIMFXL
 40
1.0
  9
$DIMFXLON
 70
     0
  9
$DIMJOGANG
 40
0.7853981633974483
  9
$DIMTFILL
 70
     0
  9
$DIMTFILLCLR
 70
     0
  9
$DIMARCSYM
 70
     0
  9
$DIMLTYPE
  6

  9
$DIMLTEX1
  6

  9
$DIMLTEX2
  6

  9
$LUNITS
 70
     2
  9
$LUPREC
 70
     4
  9
$SKETCHINC
 40
0.1
  9
$FILLETRAD
 40
0.5
  9
$AUNITS
 70
     0
  9
$AUPREC
 70
     0
  9
$MENU
  1
.
  9
$ELEVATION
 40
0.0
  9
$PELEVATION
 40
0.0
  9
$THICKNESS
 40
0.0
  9
$LIMCHECK
 70
     0
  9
$CHAMFERA
 40
0.5
  9
$CHAMFERB
 40
0.5
  9
$CHAMFERC
 40
1.0
  9
$CHAMFERD
 40
0.0
  9
$SKPOLY
 70
     0
  9
$TDCREATE
 40
2458492.774583148
  9
$TDUCREATE
 40
2458492.774583148
  9
$TDUPDATE
 40
2458492.774583437
  9
$TDUUPDATE
 40
2458492.774583437
  9
$TDINDWG
 40
0.0000000116
  9
$TDUSRTIMER
 40
0.0000000116
  9
$USRTIMER
 70
     1
  9
$ANGBASE
 50
0.0
  9
$ANGDIR
 70
     0
  9
$PDMODE
 70
     0
  9
$PDSIZE
 40
0.0
  9
$PLINEWID
 40
0.0
  9
$SPLFRAME
 70
     0
  9
$SPLINETYPE
 70
     6
  9
$SPLINESEGS
 70
     8
  9
$HANDSEED
  5
9F
  9
$SURFTAB1
 70
     6
  9
$SURFTAB2
 70
     6
  9
$SURFTYPE
 70
     6
  9
$SURFU
 70
     6
  9
$SURFV
 70
     6
  9
$UCSBASE
  2

  9
$UCSNAME
  2

  9
$UCSORG
 10
0.0
 20
0.0
 30
0.0
  9
$UCSXDIR
 10
1.0
 20
0.0
 30
0.0
  9
$UCSYDIR
 10
0.0
 20
1.0
 30
0.0
  9
$UCSORTHOREF
  2

  9
$UCSORTHOVIEW
 70
     0
  9
$UCSORGTOP
 10
0.0
 20
0.0
 30
0.0
  9
$UCSORGBOTTOM
 10
0.0
 20
0.0
 30
0.0
  9
$UCSORGLEFT
 10
0.0
 20
0.0
 30
0.0
  9
$UCSORGRIGHT
 10
0.0
 20
0.0
 30
0.0
  9
$UCSORGFRONT
 10
0.0
 20
0.0
 30
0.0
  9
$UCSORGBACK
 10
0.0
 20
0.0
 30
0.0
  9
$PUCSBASE
  2

  9
$PUCSNAME
  2

  9
$PUCSORG
 10
0.0
 20
0.0
 30
0.0
  9
$PUCSXDIR
 10
1.0
 20
0.0
 30
0.0
  9
$PUCSYDIR
 10
0.0
 20
1.0
 30
0.0
  9
$PUCSORTHOREF
  2

  9
$PUCSORTHOVIEW
 70
     0
  9
$PUCSORGTOP
 10
0.0
 20
0.0
 30
0.0
  9
$PUCSORGBOTTOM
 10
0.0
 20
0.0
 30
0.0
  9
$PUCSORGLEFT
 10
0.0
 20
0.0
 30
0.0
  9
$PUCSORGRIGHT
 10
0.0
 20
0.0
 30
0.0
  9
$PUCSORGFRONT
 10
0.0
 20
0.0
 30
0.0
  9
$PUCSORGBACK
 10
0.0
 20
0.0
 30
0.0
  9
$USERI1
 70
     0
  9
$USERI2
 70
     0
  9
$USERI3
 70
     0
  9
$USERI4
 70
     0
  9
$USERI5
 70
     0
  9
$USERR1
 40
0.0
  9
$USERR2
 40
0.0
  9
$USERR3
 40
0.0
  9
$USERR4
 40
0.0
  9
$USERR5
 40
0.0
  9
$WORLDVIEW
 70
     1
  9
$SHADEDGE
 70
     3
  9
$SHADEDIF
 70
    70
  9
$TILEMODE
 70
     1
  9
$MAXACTVP
 70
    64
  9
$PINSBASE
 10
0.0
 20
0.0
 30
0.0
  9
$PLIMCHECK
 70
     0
  9
$PEXTMIN
 10
1.000000000000000E+20
 20
1.000000000000000E+20
 30
1.000000000000000E+20
  9
$PEXTMAX
 10
-1.000000000000000E+20
 20
-1.000000000000000E+20
 30
-1.000000000000000E+20
  9
$PLIMMIN
 10
0.0
 20
0.0
  9
$PLIMMAX
 10
12.0
 20
9.0
  9
$UNITMODE
 70
     0
  9
$VISRETAIN
 70
     1
  9
$PLINEGEN
 70
     0
  9
$PSLTSCALE
 70
     1
  9
$TREEDEPTH
 70
  3020
  9
$CMLSTYLE
  2
Standard
  9
$CMLJUST
 70
     0
  9
$CMLSCALE
 40
1.0
  9
$PROXYGRAPHICS
 70
     1
  9
$MEASUREMENT
 70
     0
  9
$CELWEIGHT
370
    -1
  9
$ENDCAPS
280
     0
  9
$JOINSTYLE
280
     0
  9
$LWDISPLAY
290
     0
  9
$INSUNITS
 70
     4
  9
$HYPERLINKBASE
  1

  9
$STYLESHEET
  1

  9
$XEDIT
290
     1
  9
$CEPSNTYPE
380
     0
  9
$PSTYLEMODE
290
     1
  9
$FINGERPRINTGUID
  2
{14F94DB3-1F82-4D0C-8AD3-34F8D52CE6ED}
  9
$VERSIONGUID
  2
{FAEB1C32-E019-11D5-929B-00C0DF256EC4}
  9
$EXTNAMES
290
     1
  9
$PSVPSCALE
 40
0.0
  9
$OLESTARTUP
290
     0
  9
$SORTENTS
280
   127
  9
$INDEXCTL
280
     0
  9
$HIDETEXT
280
     1
  9
$XCLIPFRAME
290
     0
  9
$HALOGAP
280
     0
  9
$OBSCOLOR
 70
   257
  9
$OBSLTYPE
280
     0
  9
$INTERSECTIONDISPLAY
280
     0
  9
$INTERSECTIONCOLOR
 70
   257
  9
$DIMASSOC
280
     2
  9
$PROJECTNAME
  1

  9
$CAMERADISPLAY
290
     0
  9
$LENSLENGTH
 40
50.0
  9
$CAMERAHEIGHT
 40
0.0
  9
$STEPSPERSEC
 40
2.0
  9
$STEPSIZE
 40
6.0
  9
$3DDWFPREC
 40
2.0
  9
$PSOLWIDTH
 40
0.25
  9
$PSOLHEIGHT
 40
4.0
  9
$LOFTANG1
 40
1.570796326794897
  9
$LOFTANG2
 40
1.570796326794897
  9
$LOFTMAG1
 40
0.0
  9
$LOFTMAG2
 40
0.0
  9
$LOFTPARAM
 70
     7
  9
$LOFTNORMALS
280
     1
  9
$LATITUDE
 40
37.795
  9
$LONGITUDE
 40
-122.394
  9
$NORTHDIRECTION
 40
0.0
  9
$TIMEZONE
 70
 -8000
  9
$LIGHTGLYPHDISPLAY
280
     1
  9
$TILEMODELIGHTSYNCH
280
     1
  9
$SOLIDHIST
280
     1
  9
$SHOWHIST
280
     1
  9
$DWFFRAME
280
     2
  9
$DGNFRAME
280
     2
  9
$REALWORLDSCALE
290
     1
  9
$INTERFERECOLOR
 62
   256
  9
$CSHADOW
280
     0
  9
$SHADOWPLANELOCATION
 40
0.0
  0
ENDSEC
  0
SECTION
  2
CLASSES
  0
CLASS
  1
ACDBDICTIONARYWDFLT
  2
AcDbDictionaryWithDefault
  3
ObjectDBX Classes
 90
        0
 91
        4
280
     0
281
     0
  0
CLASS
  1
VISUALSTYLE
  2
AcDbVisualStyle
  3
ObjectDBX Classes
 90
     4095
 91
        4
280
     0
281
     0
  0
CLASS
  1
MATERIAL
  2
AcDbMaterial
  3
ObjectDBX Classes
 90
     1153
 91
        4
280
     0
281
     0
  0
ENDSEC
  0
SECTION
  2
TABLES
  0
TABLE
  2
VPORT
  5
8
330
0
100
AcDbSymbolTable
 70
     1
  0
VPORT
  5
29
330
8
100
AcDbSymbolTableRecord
100
AcDbViewportTableRecord
  2
*Active
 70
     0
 10
0.0
 20
0.0
 11
1.0
 21
1.0
 12
10.42990654205607
 22
4.5
 13
0.0
 23
0.0
 14
0.5
 24
0.5
 15
0.5
 25
0.5
 16
0.0
 26
0.0
 36
1.0
 17
0.0
 27
0.0
 37
0.0
 40
9.0
 41
1.972972972850329
 42
50.0
 43
0.0
 44
0.0
 50
0.0
 51
0.0
 71
     0
 72
   100
 73
     1
 74
     3
 75
     0
 76
     0
 77
     0
 78
     0
281
     0
 65
     1
110
0.0
120
0.0
130
0.0
111
1.0
121
0.0
131
0.0
112
0.0
122
1.0
132
0.0
 79
     0
146
0.0
 60
     3
 61
     5
292
     1
282
     1
141
0.0
142
0.0
 63
   250
  0
ENDTAB
  0
TABLE
  2
LTYPE
  5
5
330
0
100
AcDbSymbolTable
 70
     1
  0
LTYPE
  5
14
330
5
100
AcDbSymbolTableRecord
100
AcDbLinetypeTableRecord
  2
ByBlock
 70
     0
  3

 72
    65
 73
     0
 40
0.0
  0
LTYPE
  5
15
330
5
100
AcDbSymbolTableRecord
100
AcDbLinetypeTableRecord
  2
ByLayer
 70
     0
  3

 72
    65
 73
     0
 40
0.0
  0
LTYPE
  5
16
330
5
100
AcDbSymbolTableRecord
100
AcDbLinetypeTableRecord
  2
Continuous
 70
     0
  3
Solid line
 72
    65
 73
     0
 40
0.0
  0
ENDTAB
  0
TABLE
  2
LAYER
  5
2
330
0
100
AcDbSymbolTable
 70
     2
  0
LAYER
  5
10
330
2
100
AcDbSymbolTableRecord
100
AcDbLayerTableRecord
  2
0
 70
     0
 62
     7
  6
Continuous
370
    -3
390
F
347
3E
  0
LAYER
  5
40
330
2
100
AcDbSymbolTableRecord
100
AcDbLayerTableRecord
  2
layer 1
 70
     0
 62
     7
  6
Continuous
370
    -3
390
F
347
3E
  0
ENDTAB
  0
TABLE
  2
STYLE
  5
3
330
0
100
AcDbSymbolTable
 70
     1
  0
STYLE
  5
11
330
3
100
AcDbSymbolTableRecord
100
AcDbTextStyleTableRecord
  2
Standard
 70
     0
 40
0.0
 41
1.0
 50
0.0
 71
     0
 42
0.2
  3
txt
  4

  0
ENDTAB
  0
TABLE
  2
VIEW
  5
6
330
0
100
AcDbSymbolTable
 70
     0
  0
ENDTAB
  0
TABLE
  2
UCS
  5
7
330
0
100
AcDbSymbolTable
 70
     0
  0
ENDTAB
  0
TABLE
  2
APPID
  5
9
330
0
100
AcDbSymbolTable
 70
     2
  0
APPID
  5
12
330
9
100
AcDbSymbolTableRecord
100
AcDbRegAppTableRecord
  2
ACAD
 70
     0
  0
APPID
  5
3F
330
9
100
AcDbSymbolTableRecord
100
AcDbRegAppTableRecord
  2
ODA
 70
     0
  0
ENDTAB
  0
TABLE
  2
DIMSTYLE
  5
A
330
0
100
AcDbSymbolTable
 70
     1
100
AcDbDimStyleTable
  0
DIMSTYLE
105
27
330
A
100
AcDbSymbolTableRecord
100
AcDbDimStyleTableRecord
  2
Standard
 70
     0
178
     0
340
11
  0
ENDTAB
  0
TABLE
  2
BLOCK_RECORD
  5
1
330
0
100
AcDbSymbolTable
 70
     1
  0
BLOCK_RECORD
  5
1F
330
1
100
AcDbSymbolTableRecord
100
AcDbBlockTableRecord
  2
*Model_Space
340
22
 70
     0
280
     1
281
     0
  0
BLOCK_RECORD
  5
1B
330
1
100
AcDbSymbolTableRecord
100
AcDbBlockTableRecord
  2
*Paper_Space
340
1E
 70
     0
280
     1
281
     0
  0
BLOCK_RECORD
  5
23
330
1
100
AcDbSymbolTableRecord
100
AcDbBlockTableRecord
  2
*Paper_Space0
340
26
 70
     0
280
     1
281
     0
  0
ENDTAB
  0
ENDSEC
  0
SECTION
  2
BLOCKS
  0
BLOCK
  5
20
330
1F
100
AcDbEntity
  8
0
100
AcDbBlockBegin
  2
*Model_Space
 70
     0
 10
0.0
 20
0.0
 30
0.0
  3
*Model_Space
  1

  0
ENDBLK
  5
21
330
1F
100
AcDbEntity
  8
0
100
AcDbBlockEnd
  0
BLOCK
  5
1C
330
1B
100
AcDbEntity
 67
     1
  8
0
100
AcDbBlockBegin
  2
*Paper_Space
 70
     0
 10
0.0
 20
0.0
 30
0.0
  3
*Paper_Space
  1

  0
ENDBLK
  5
1D
330
1B
100
AcDbEntity
 67
     1
  8
0
100
AcDbBlockEnd
  0
BLOCK
  5
24
330
23
100
AcDbEntity
  8
0
100
AcDbBlockBegin
  2
*Paper_Space0
 70
     0
 10
0.0
 20
0.0
 30
0.0
  3
*Paper_Space0
  1

  0
ENDBLK
  5
25
330
23
100
AcDbEntity
  8
0
100
AcDbBlockEnd
  0
ENDSEC
  0
SECTION
  2
ENTITIES
  0
LWPOLYLINE
  5
41
330
1F
100
AcDbEntity
  8
layer 1
 62
   250
370
     9
100
AcDbPolyline
 90
        5
 70
     1
 43
0.0
 10
-59.5347
 20
-102.3084
 10
71.4837
 20
-102.3084
 10
71.4837
 20
110.3222
 10
-59.5347
 20
110.3222
 10
-59.5347
 20
-102.3084
  0
SPLINE
  5
42
330
1F
100
AcDbEntity
  8
layer 1
 62
     7
370
    50
100
AcDbSpline
210
0.0
220
0.0
230
1.0
 70
    11
 71
     3
 72
    20
 73
    16
 74
     0
 42
0.0000000001
 43
0.0000000001
 12
1.0
 22
0.0
 32
0.0
 13
1.0
 23
0.0
 33
0.0
 40
0.0
 40
0.0
 40
0.0
 40
0.0
 40
0.2
 40
0.2
 40
0.2
 40
0.2
 40
0.4
 40
0.4
 40
0.4
 40
0.4
 40
0.6
 40
0.6
 40
0.6
 40
0.6
 40
1.0
 40
1.0
 40
1.0
 40
1.0
 10
-55.7533
 20
105.537
 30
0.0
 10
-55.7533
 20
105.537
 30
0.0
 10
-34.7099
 20
105.537
 30
0.0
 10
-34.7099
 20
105.537
 30
0.0
 10
-34.7099
 20
105.537
 30
0.0
 10
-38.7989
 20
103.4426
 30
0.0
 10
-40.7936
 20
100.0518
 30
0.0
 10
-41.7909
 20
95.0652
 30
0.0
 10
-41.7909
 20
95.0652
 30
0.0
 10
-44.4504
 20
99.3204
 30
0.0
 10
-49.1046
 20
101.581
 30
0.0
 10
-55.7533
 20
96.7606
 30
0.0
 10
-55.7533
 20
96.7606
 30
0.0
 10
-55.7533
 20
96.7606
 30
0.0
 10
-55.7533
 20
105.537
 30
0.0
 10
-55.7533
 20
105.537
 30
0.0
  0
SPLINE
  5
43
330
1F
100
AcDbEntity
  8
layer 1
 62
     7
370
    50
100
AcDbSpline
210
0.0
220
0.0
230
1.0
 70
    11
 71
     3
 72
    20
 73
    16
 74
     0
 42
0.0000000001
 43
0.0000000001
 12
1.0
 22
0.0
 32
0.0
 13
1.0
 23
0.0
 33
0.0
 40
0.0
 40
0.0
 40
0.0
 40
0.0
 40
0.2
 40
0.2
 40
0.2
 40
0.2
 40
0.4
 40
0.4
 40
0.4
 40
0.4
 40
0.6
 40
0.6
 40
0.6
 40
0.6
 40
1.0
 40
1.0
 40
1.0
 40
1.0
 10
-29.2746
 20
105.537
 30
0.0
 10
-29.2746
 20
105.537
 30
0.0
 10
3.3377
 20
105.537
 30
0.0
 10
3.3377
 20
105.537
 30
0.0
 10
3.3377
 20
105.537
 30
0.0
 10
-1.3497
 20
96.8603
 30
0.0
 10
-10.8845
 20
102.0753
 30
0.0
 10
-17.1073
 20
101.3483
 30
0.0
 10
-17.1073
 20
101.3483
 30
0.0
 10
-24.6537
 20
102.1129
 30
0.0
 10
-32.8982
 20
96.9933
 30
0.0
 10
-36.8542
 20
87.8845
 30
0.0
 10
-36.8542
 20
87.8845
 30
0.0
 10
-39.7003
 20
100.92
 30
0.0
 10
-29.1894
 20
94.633
 30
0.0
 10
-29.2746
 20
105.537
 30
0.0
  0
SPLINE
  5
44
330
1F
100
AcDbEntity
  8
layer 1
 62
     7
370
    50
100
AcDbSpline
210
0.0
220
0.0
230
1.0
 70
    11
 71
     3
 72
    32
 73
    28
 74
     0
 42
0.0000000001
 43
0.0000000001
 12
1.0
 22
0.0
 32
0.0
 13
1.0
 23
0.0
 33
0.0
 40
0.0
 40
0.0
 40
0.0
 40
0.0
 40
0.125
 40
0.125
 40
0.125
 40
0.125
 40
0.25
 40
0.25
 40
0.25
 40
0.25
 40
0.375
 40
0.375
 40
0.375
 40
0.375
 40
0.5
 40
0.5
 40
0.5
 40
0.5
 40
0.625
 40
0.625
 40
0.625
 40
0.625
 40
0.75
 40
0.75
 40
0.75
 40
0.75
 40
1.0
 40
1.0
 40
1.0
 40
1.0
 10
-56.3021
 20
92.23
 30
0.0
 10
-54.5706
 20
91.5361
 30
0.0
 10
-52.873
 20
91.5323
 30
0.0
 10
-50.5253
 20
92.8364
 30
0.0
 10
-50.5253
 20
92.8364
 30
0.0
 10
-49.6986
 20
93.2955
 30
0.0
 10
-48.2645
 20
93.2752
 30
0.0
 10
-47.205
 20
92.7356
 30
0.0
 10
-47.205
 20
92.7356
 30
0.0
 10
-45.3569
 20
90.3284
 30
0.0
 10
-42.2557
 20
85.228
 30
0.0
 10
-42.3157
 20
78.7967
 30
0.0
 10
-42.3157
 20
78.7967
 30
0.0
 10
-42.9734
 20
78.6608
 30
0.0
 10
-43.7948
 20
78.4458
 30
0.0
 10
-43.9459
 20
79.0968
 30
0.0
 10
-43.9459
 20
79.0968
 30
0.0
 10
-45.3493
 20
85.1432
 30
0.0
 10
-52.2951
 20
80.1636
 30
0.0
 10
-51.9046
 20
88.7858
 30
0.0
 10
-51.9046
 20
88.7858
 30
0.0
 10
-54.2185
 20
88.6653
 30
0.0
 10
-54.6717
 20
85.1611
 30
0.0
 10
-56.3021
 20
85.9576
 30
0.0
 10
-56.3021
 20
85.9576
 30
0.0
 10
-56.3021
 20
85.9576
 30
0.0
 10
-56.3021
 20
92.23
 30
0.0
 10
-56.3021
 20
92.23
 30
0.0
  0
SPLINE
  5
45
330
1F
100
AcDbEntity
  8
layer 1
 62
     7
370
    50
100
AcDbSpline
210
0.0
220
0.0
230
1.0
 70
    11
 71
     3
 72
    36
 73
    32
 74
     0
 42
0.0000000001
 43
0.0000000001
 12
1.0
 22
0.0
 32
0.0
 13
1.0
 23
0.0
 33
0.0
 40
0.0
 40
0.0
 40
0.0
 40
0.0
 40
0.1111111111111111
 40
0.1111111111111111
 40
0.1111111111111111
 40
0.1111111111111111
 40
0.2222222222222222
 40
0.2222222222222222
 40
0.2222222222222222
 40
0.2222222222222222
 40
0.3333333333333333
 40
0.3333333333333333
 40
0.3333333333333333
 40
0.3333333333333333
 40
0.4444444444444444
 40
0.4444444444444444
 40
0.4444444444444444
 40
0.4444444444444444
 40
0.5555555555555556
 40
0.5555555555555556
 40
0.5555555555555556
 40
0.5555555555555556
 40
0.6666666666666666
 40
0.6666666666666666
 40
0.6666666666666666
 40
0.6666666666666666
 40
0.7777777777777778
 40
0.7777777777777778
 40
0.7777777777777778
 40
0.7777777777777778
 40
1.0
 40
1.0
 40
1.0
 40
1.0
 10
-56.1192
 20
82.0616
 30
0.0
 10
-54.3178
 20
77.6009
 30
0.0
 10
-47.9435
 20
74.5123
 30
0.0
 10
-41.6607
 20
75.8134
 30
0.0
 10
-41.6607
 20
75.8134
 30
0.0
 10
-40.2993
 20
72.6384
 30
0.0
 10
-34.9492
 20
63.1051
 30
0.0
 10
-22.3943
 20
54.8799
 30
0.0
 10
-22.3943
 20
54.8799
 30
0.0
 10
-22.1524
 20
54.7216
 30
0.0
 10
-21.2239
 20
52.336
 30
0.0
 10
-24.0896
 20
53.1399
 30
0.0
 10
-24.0896
 20
53.1399
 30
0.0
 10
-30.3485
 20
54.8959
 30
0.0
 10
-33.1688
 20
59.654
 30
0.0
 10
-36.4864
 20
61.1346
 30
0.0
 10
-36.4864
 20
61.1346
 30
0.0
 10
-35.1807
 20
68.3925
 30
0.0
 10
-46.7879
 20
64.9004
 30
0.0
 10
-42.7203
 20
73.3033
 30
0.0
 10
-42.7203
 20
73.3033
 30
0.0
 10
-43.7307
 20
73.4547
 30
0.0
 10
-48.3312
 20
74.3011
 30
0.0
 10
-48.2822
 20
68.7697
 30
0.0
 10
-48.2822
 20
68.7697
 30
0.0
 10
-49.4151
 20
69.5308
 30
0.0
 10
-52.7759
 20
70.1012
 30
0.0
 10
-56.1192
 20
69.5979
 30
0.0
 10
-56.1192
 20
69.5979
 30
0.0
 10
-56.1192
 20
69.5979
 30
0.0
 10
-56.1192
 20
82.0616
 30
0.0
 10
-56.1192
 20
82.0616
 30
0.0
  0
SPLINE
  5
46
330
1F
100
AcDbEntity
  8
layer 1
 62
     7
370
    50
100
AcDbSpline
210
0.0
220
0.0
230
1.0
 70
    11
 71
     3
 72
    84
 73
    80
 74
     0
 42
0.0000000001
 43
0.0000000001
 12
1.0
 22
0.0
 32
0.0
 13
1.0
 23
0.0
 33
0.0
 40
0.0
 40
0.0
 40
0.0
 40
0.0
 40
0.0476190476190476
 40
0.0476190476190476
 40
0.0476190476190476
 40
0.0476190476190476
 40
0.0952380952380952
 40
0.0952380952380952
 40
0.0952380952380952
 40
0.0952380952380952
 40
0.1428571428571428
 40
0.1428571428571428
 40
0.1428571428571428
 40
0.1428571428571428
 40
0.1904761904761905
 40
0.1904761904761905
 40
0.1904761904761905
 40
0.1904761904761905
 40
0.2380952380952381
 40
0.2380952380952381
 40
0.2380952380952381
 40
0.2380952380952381
 40
0.2857142857142857
 40
0.2857142857142857
 40
0.2857142857142857
 40
0.2857142857142857
 40
0.3333333333333333
 40
0.3333333333333333
 40
0.3333333333333333
 40
0.3333333333333333
 40
0.3809523809523809
 40
0.3809523809523809
 40
0.3809523809523809
 40
0.3809523809523809
 40
0.4285714285714285
 40
0.4285714285714285
 40
0.4285714285714285
 40
0.4285714285714285
 40
0.4761904761904762
 40
0.4761904761904762
 40
0.4761904761904762
 40
0.4761904761904762
 40
0.5238095238095238
 40
0.5238095238095238
 40
0.5238095238095238
 40
0.5238095238095238
 40
0.5714285714285714
 40
0.5714285714285714
 40
0.5714285714285714
 40
0.5714285714285714
 40
0.6190476190476191
 40
0.6190476190476191
 40
0.6190476190476191
 40
0.6190476190476191
 40
0.6666666666666666
 40
0.6666666666666666
 40
0.6666666666666666
 40
0.6666666666666666
 40
0.7142857142857143
 40
0.7142857142857143
 40
0.7142857142857143
 40
0.7142857142857143
 40
0.7619047619047619
 40
0.7619047619047619
 40
0.7619047619047619
 40
0.7619047619047619
 40
0.8095238095238095
 40
0.8095238095238095
 40
0.8095238095238095
 40
0.8095238095238095
 40
0.8571428571428571
 40
0.8571428571428571
 40
0.8571428571428571
 40
0.8571428571428571
 40
0.9047619047619048
 40
0.9047619047619048
 40
0.9047619047619048
 40
0.9047619047619048
 40
1.0
 40
1.0
 40
1.0
 40
1.0
 10
-27.462
 20
40.1422
 30
0.0
 10
-26.4716
 20
44.65
 30
0.0
 10
-17.4874
 20
46.2483
 30
0.0
 10
-11.8139
 20
44.3831
 30
0.0
 10
-11.8139
 20
44.3831
 30
0.0
 10
-7.1478
 20
43.0047
 30
0.0
 10
-2.1518
 20
37.7184
 30
0.0
 10
-1.4179
 20
31.5287
 30
0.0
 10
-1.4179
 20
31.5287
 30
0.0
 10
-1.1477
 20
29.2491
 30
0.0
 10
-2.6349
 20
28.7599
 30
0.0
 10
-2.6348
 20
28.7598
 30
0.0
 10
-2.6348
 20
28.7598
 30
0.0
 10
-12.0155
 20
44.1637
 30
0.0
 10
-18.2259
 20
32.6746
 30
0.0
 10
-15.9515
 20
25.8604
 30
0.0
 10
-15.9515
 20
25.8604
 30
0.0
 10
-14.6442
 20
25.471
 30
0.0
 10
-12.3479
 20
29.1986
 30
0.0
 10
-11.9276
 20
28.9332
 30
0.0
 10
-11.9276
 20
28.9332
 30
0.0
 10
-11.3133
 20
28.5453
 30
0.0
 10
-12.7781
 20
24.353
 30
0.0
 10
-11.2785
 20
25.3258
 30
0.0
 10
-11.2785
 20
25.3258
 30
0.0
 10
-7.6084
 20
29.264
 30
0.0
 10
-1.5641
 20
25.6072
 30
0.0
 10
-2.5567
 20
22.5868
 30
0.0
 10
-2.5567
 20
22.5868
 30
0.0
 10
-5.2889
 20
22.6884
 30
0.0
 10
-6.9721
 20
22.5011
 30
0.0
 10
-7.9703
 20
20.4322
 30
0.0
 10
-7.9703
 20
20.4322
 30
0.0
 10
-5.0087
 20
21.2351
 30
0.0
 10
-1.2596
 20
14.1218
 30
0.0
 10
-9.081
 20
8.8581
 30
0.0
 10
-9.081
 20
8.8581
 30
0.0
 10
-11.3413
 20
8.6974
 30
0.0
 10
-15.7648
 20
16.4573
 30
0.0
 10
-9.7884
 20
17.6098
 30
0.0
 10
-9.7884
 20
17.6098
 30
0.0
 10
-10.2049
 20
17.742
 30
0.0
 10
-10.7715
 20
19.5553
 30
0.0
 10
-12.913
 20
19.1254
 30
0.0
 10
-12.913
 20
19.1254
 30
0.0
 10
-12.5184
 20
21.1795
 30
0.0
 10
-13.8898
 20
21.9931
 30
0.0
 10
-14.3037
 20
21.9011
 30
0.0
 10
-14.3037
 20
21.9011
 30
0.0
 10
-20.699
 20
21.2158
 30
0.0
 10
-15.0136
 20
13.0891
 30
0.0
 10
-17.4792
 20
13.2654
 30
0.0
 10
-17.4792
 20
13.2654
 30
0.0
 10
-18.2529
 20
12.4786
 30
0.0
 10
-21.915
 20
18.8795
 30
0.0
 10
-26.2057
 20
18.0183
 30
0.0
 10
-26.2057
 20
18.0183
 30
0.0
 10
-33.3821
 20
16.578
 30
0.0
 10
-33.263
 20
25.0097
 30
0.0
 10
-30.7257
 20
25.7727
 30
0.0
 10
-30.7257
 20
25.7727
 30
0.0
 10
-20.5498
 20
21.0127
 30
0.0
 10
-17.7899
 20
33.049
 30
0.0
 10
-20.2018
 20
35.7353
 30
0.0
 10
-20.2018
 20
35.7353
 30
0.0
 10
-21.8037
 20
31.44
 30
0.0
 10
-22.9285
 20
30.7963
 30
0.0
 10
-24.8536
 20
30.2682
 30
0.0
 10
-24.8536
 20
30.2682
 30
0.0
 10
-26.9611
 20
29.5147
 30
0.0
 10
-30.1003
 20
31.8359
 30
0.0
 10
-28.3152
 20
32.8392
 30
0.0
 10
-28.3152
 20
32.8392
 30
0.0
 10
-27.1545
 20
31.926
 30
0.0
 10
-24.1813
 20
32.3442
 30
0.0
 10
-23.253
 20
34.6955
 30
0.0
 10
-23.253
 20
34.6955
 30
0.0
 10
-28.3779
 20
35.5633
 30
0.0
 10
-27.7909
 20
37.9595
 30
0.0
 10
-27.462
 20
40.1422
 30
0.0
  0
SPLINE
  5
47
330
1F
100
AcDbEntity
  8
layer 1
 62
     7
370
    50
100
AcDbSpline
210
0.0
220
0.0
230
1.0
 70
    11
 71
     3
 72
    44
 73
    40
 74
     0
 42
0.0000000001
 43
0.0000000001
 12
1.0
 22
0.0
 32
0.0
 13
1.0
 23
0.0
 33
0.0
 40
0.0
 40
0.0
 40
0.0
 40
0.0
 40
0.0909090909090909
 40
0.0909090909090909
 40
0.0909090909090909
 40
0.0909090909090909
 40
0.1818181818181818
 40
0.1818181818181818
 40
0.1818181818181818
 40
0.1818181818181818
 40
0.2727272727272727
 40
0.2727272727272727
 40
0.2727272727272727
 40
0.2727272727272727
 40
0.3636363636363636
 40
0.3636363636363636
 40
0.3636363636363636
 40
0.3636363636363636
 40
0.4545454545454545
 40
0.4545454545454545
 40
0.4545454545454545
 40
0.4545454545454545
 40
0.5454545454545454
 40
0.5454545454545454
 40
0.5454545454545454
 40
0.5454545454545454
 40
0.6363636363636364
 40
0.6363636363636364
 40
0.6363636363636364
 40
0.6363636363636364
 40
0.7272727272727273
 40
0.7272727272727273
 40
0.7272727272727273
 40
0.7272727272727273
 40
0.8181818181818182
 40
0.8181818181818182
 40
0.8181818181818182
 40
0.8181818181818182
 40
1.0
 40
1.0
 40
1.0
 40
1.0
 10
-56.1671
 20
67.996
 30
0.0
 10
-54.9082
 20
66.0871
 30
0.0
 10
-53.4955
 20
64.4513
 30
0.0
 10
-50.7954
 20
63.0671
 30
0.0
 10
-50.7954
 20
63.0671
 30
0.0
 10
-55.222
 20
58.2609
 30
0.0
 10
-50.6271
 20
55.9455
 30
0.0
 10
-49.5677
 20
55.4059
 30
0.0
 10
-49.5677
 20
55.4059
 30
0.0
 10
-47.902
 20
64.3637
 30
0.0
 10
-41.3666
 20
56.361
 30
0.0
 10
-37.1608
 20
60.3163
 30
0.0
 10
-37.1608
 20
60.3163
 30
0.0
 10
-35.6907
 20
58.635
 30
0.0
 10
-34.669
 20
56.775
 30
0.0
 10
-34.6877
 20
54.7653
 30
0.0
 10
-34.6877
 20
54.7653
 30
0.0
 10
-40.2852
 20
56.0439
 30
0.0
 10
-45.8676
 20
55.8077
 30
0.0
 10
-49.3541
 20
52.1086
 30
0.0
 10
-49.3541
 20
52.1086
 30
0.0
 10
-48.7382
 20
51.0858
 30
0.0
 10
-46.4604
 20
52.0706
 30
0.0
 10
-46.5292
 20
51.4195
 30
0.0
 10
-46.5292
 20
51.4195
 30
0.0
 10
-45.5459
 20
51.3581
 30
0.0
 10
-46.3982
 20
50.5963
 30
0.0
 10
-46.7762
 20
50.4679
 30
0.0
 10
-46.7762
 20
50.4679
 30
0.0
 10
-51.7786
 20
48.7691
 30
0.0
 10
-53.5414
 20
45.11
 30
0.0
 10
-55.1172
 20
42.1806
 30
0.0
 10
-55.1172
 20
42.1806
 30
0.0
 10
-55.4334
 20
41.5928
 30
0.0
 10
-55.8878
 20
42.561
 30
0.0
 10
-56.1671
 20
41.945
 30
0.0
 10
-56.1671
 20
41.945
 30
0.0
 10
-56.1671
 20
41.945
 30
0.0
 10
-56.1671
 20
67.996
 30
0.0
 10
-56.1671
 20
67.996
 30
0.0
  0
SPLINE
  5
48
330
1F
100
AcDbEntity
  8
layer 1
 62
     7
370
    50
100
AcDbSpline
210
0.0
220
0.0
230
1.0
 70
    11
 71
     3
 72
    60
 73
    56
 74
     0
 42
0.0000000001
 43
0.0000000001
 12
1.0
 22
0.0
 32
0.0
 13
1.0
 23
0.0
 33
0.0
 40
0.0
 40
0.0
 40
0.0
 40
0.0
 40
0.0666666666666667
 40
0.0666666666666667
 40
0.0666666666666667
 40
0.0666666666666667
 40
0.1333333333333333
 40
0.1333333333333333
 40
0.1333333333333333
 40
0.1333333333333333
 40
0.2
 40
0.2
 40
0.2
 40
0.2
 40
0.2666666666666667
 40
0.2666666666666667
 40
0.2666666666666667
 40
0.2666666666666667
 40
0.3333333333333333
 40
0.3333333333333333
 40
0.3333333333333333
 40
0.3333333333333333
 40
0.4
 40
0.4
 40
0.4
 40
0.4
 40
0.4666666666666667
 40
0.4666666666666667
 40
0.4666666666666667
 40
0.4666666666666667
 40
0.5333333333333333
 40
0.5333333333333333
 40
0.5333333333333333
 40
0.5333333333333333
 40
0.6
 40
0.6
 40
0.6
 40
0.6
 40
0.6666666666666666
 40
0.6666666666666666
 40
0.6666666666666666
 40
0.6666666666666666
 40
0.7333333333333333
 40
0.7333333333333333
 40
0.7333333333333333
 40
0.7333333333333333
 40
0.8
 40
0.8
 40
0.8
 40
0.8
 40
0.8666666666666667
 40
0.8666666666666667
 40
0.8666666666666667
 40
0.8666666666666667
 40
1.0
 40
1.0
 40
1.0
 40
1.0
 10
-56.1671
 20
37.0355
 30
0.0
 10
-54.1434
 20
36.7862
 30
0.0
 10
-52.1891
 20
36.8738
 30
0.0
 10
-50.1899
 20
38.5216
 30
0.0
 10
-50.1899
 20
38.5216
 30
0.0
 10
-50.2899
 20
37.3054
 30
0.0
 10
-49.9834
 20
36.7254
 30
0.0
 10
-50.0149
 20
36.0906
 30
0.0
 10
-50.0149
 20
36.0906
 30
0.0
 10
-51.3604
 20
34.5271
 30
0.0
 10
-49.5138
 20
32.9218
 30
0.0
 10
-51.7183
 20
29.2142
 30
0.0
 10
-51.7183
 20
29.2142
 30
0.0
 10
-50.5674
 20
28.8589
 30
0.0
 10
-50.0164
 20
30.6226
 30
0.0
 10
-47.5013
 20
30.8049
 30
0.0
 10
-47.5013
 20
30.8049
 30
0.0
 10
-44.218
 20
26.8742
 30
0.0
 10
-37.2134
 20
28.5053
 30
0.0
 10
-36.2489
 20
29.9988
 30
0.0
 10
-36.2489
 20
29.9988
 30
0.0
 10
-35.7483
 20
28.032
 30
0.0
 10
-34.4605
 20
27.4244
 30
0.0
 10
-34.0273
 20
26.6001
 30
0.0
 10
-34.0273
 20
26.6001
 30
0.0
 10
-34.9344
 20
24.7439
 30
0.0
 10
-36.4092
 20
22.4144
 30
0.0
 10
-37.4795
 20
21.7275
 30
0.0
 10
-37.4795
 20
21.7275
 30
0.0
 10
-38.6169
 20
21.9638
 30
0.0
 10
-39.2114
 20
23.0868
 30
0.0
 10
-39.5309
 20
24.0917
 30
0.0
 10
-39.5309
 20
24.0917
 30
0.0
 10
-41.6199
 20
21.187
 30
0.0
 10
-40.3553
 20
18.4955
 30
0.0
 10
-40.1776
 20
16.8711
 30
0.0
 10
-40.1776
 20
16.8711
 30
0.0
 10
-42.1107
 20
16.9014
 30
0.0
 10
-43.4336
 20
16.8011
 30
0.0
 10
-45.1591
 20
16.7246
 30
0.0
 10
-45.1591
 20
16.7246
 30
0.0
 10
-46.9478
 20
17.4611
 30
0.0
 10
-46.9083
 20
18.1993
 30
0.0
 10
-47.8914
 20
18.454
 30
0.0
 10
-47.8914
 20
18.454
 30
0.0
 10
-40.8972
 20
25.7159
 30
0.0
 10
-53.2548
 20
30.4905
 30
0.0
 10
-55.1172
 20
22.8376
 30
0.0
 10
-55.1172
 20
22.8376
 30
0.0
 10
-55.275
 20
22.1892
 30
0.0
 10
-55.8878
 20
22.2604
 30
0.0
 10
-56.1671
 20
22.602
 30
0.0
 10
-56.1671
 20
22.602
 30
0.0
 10
-56.1671
 20
22.602
 30
0.0
 10
-56.1671
 20
37.0355
 30
0.0
 10
-56.1671
 20
37.0355
 30
0.0
  0
SPLINE
  5
49
330
1F
100
AcDbEntity
  8
layer 1
 62
     7
370
    50
100
AcDbSpline
210
0.0
220
0.0
230
1.0
 70
    11
 71
     3
 72
    36
 73
    32
 74
     0
 42
0.0000000001
 43
0.0000000001
 12
1.0
 22
0.0
 32
0.0
 13
1.0
 23
0.0
 33
0.0
 40
0.0
 40
0.0
 40
0.0
 40
0.0
 40
0.1111111111111111
 40
0.1111111111111111
 40
0.1111111111111111
 40
0.1111111111111111
 40
0.2222222222222222
 40
0.2222222222222222
 40
0.2222222222222222
 40
0.2222222222222222
 40
0.3333333333333333
 40
0.3333333333333333
 40
0.3333333333333333
 40
0.3333333333333333
 40
0.4444444444444444
 40
0.4444444444444444
 40
0.4444444444444444
 40
0.4444444444444444
 40
0.5555555555555556
 40
0.5555555555555556
 40
0.5555555555555556
 40
0.5555555555555556
 40
0.6666666666666666
 40
0.6666666666666666
 40
0.6666666666666666
 40
0.6666666666666666
 40
0.7777777777777778
 40
0.7777777777777778
 40
0.7777777777777778
 40
0.7777777777777778
 40
1.0
 40
1.0
 40
1.0
 40
1.0
 10
-41.2908
 20
38.897
 30
0.0
 10
-44.5142
 20
44.6362
 30
0.0
 10
-40.6262
 20
47.9841
 30
0.0
 10
-38.5348
 20
48.4423
 30
0.0
 10
-38.5348
 20
48.4423
 30
0.0
 10
-38.0949
 20
47.1559
 30
0.0
 10
-37.7936
 20
45.963
 30
0.0
 10
-37.8933
 20
44.2294
 30
0.0
 10
-37.8933
 20
44.2294
 30
0.0
 10
-34.6802
 20
47.9629
 30
0.0
 10
-32.4549
 20
49.981
 30
0.0
 10
-27.0868
 20
50.9029
 30
0.0
 10
-27.0868
 20
50.9029
 30
0.0
 10
-24.787
 20
51.2455
 30
0.0
 10
-22.3135
 20
49.3994
 30
0.0
 10
-26.5985
 20
48.0674
 30
0.0
 10
-26.5985
 20
48.0674
 30
0.0
 10
-31.2122
 20
46.8774
 30
0.0
 10
-34.3691
 20
43.3095
 30
0.0
 10
-35.9576
 20
39.0428
 30
0.0
 10
-35.9576
 20
39.0428
 30
0.0
 10
-36.7957
 20
36.289
 30
0.0
 10
-37.0634
 20
34.4431
 30
0.0
 10
-37.0201
 20
32.3006
 30
0.0
 10
-37.0201
 20
32.3006
 30
0.0
 10
-43.6202
 20
30.7097
 30
0.0
 10
-50.4812
 20
36.6419
 30
0.0
 10
-46.5305
 20
41.9901
 30
0.0
 10
-46.5305
 20
41.9901
 30
0.0
 10
-45.1576
 20
39.1194
 30
0.0
 10
-43.4951
 20
38.202
 30
0.0
 10
-41.2908
 20
38.897
 30
0.0
  0
ELLIPSE
  5
4A
330
1F
100
AcDbEntity
  8
layer 1
 62
     7
370
    50
100
AcDbEllipse
 10
-16.7218
 20
3.2733
 30
0.0
 11
0.0
 21
2.447
 31
0.0
210
0.0
220
0.0
230
1.0
 40
1.0
 41
0.0
 42
6.283185307179586
  0
SPLINE
  5
4B
330
1F
100
AcDbEntity
  8
layer 1
 62
     7
370
    50
100
AcDbSpline
210
0.0
220
0.0
230
1.0
 70
    11
 71
     3
 72
    36
 73
    32
 74
     0
 42
0.0000000001
 43
0.0000000001
 12
1.0
 22
0.0
 32
0.0
 13
1.0
 23
0.0
 33
0.0
 40
0.0
 40
0.0
 40
0.0
 40
0.0
 40
0.1111111111111111
 40
0.1111111111111111
 40
0.1111111111111111
 40
0.1111111111111111
 40
0.2222222222222222
 40
0.2222222222222222
 40
0.2222222222222222
 40
0.2222222222222222
 40
0.3333333333333333
 40
0.3333333333333333
 40
0.3333333333333333
 40
0.3333333333333333
 40
0.4444444444444444
 40
0.4444444444444444
 40
0.4444444444444444
 40
0.4444444444444444
 40
0.5555555555555556
 40
0.5555555555555556
 40
0.5555555555555556
 40
0.5555555555555556
 40
0.6666666666666666
 40
0.6666666666666666
 40
0.6666666666666666
 40
0.6666666666666666
 40
0.7777777777777778
 40
0.7777777777777778
 40
0.7777777777777778
 40
0.7777777777777778
 40
1.0
 40
1.0
 40
1.0
 40
1.0
 10
-37.0713
 20
4.6331
 30
0.0
 10
-37.0713
 20
4.6331
 30
0.0
 10
-28.422
 20
4.6331
 30
0.0
 10
-28.422
 20
4.6331
 30
0.0
 10
-28.422
 20
4.6331
 30
0.0
 10
-27.6657
 20
4.6331
 30
0.0
 10
-27.047
 20
4.0144
 30
0.0
 10
-27.047
 20
3.2581
 30
0.0
 10
-27.047
 20
3.2581
 30
0.0
 10
-27.047
 20
3.2581
 30
0.0
 10
-27.047
 20
3.2581
 30
0.0
 10
-27.047
 20
3.2581
 30
0.0
 10
-27.047
 20
3.2581
 30
0.0
 10
-27.047
 20
2.5017
 30
0.0
 10
-27.6657
 20
1.883
 30
0.0
 10
-28.422
 20
1.883
 30
0.0
 10
-28.422
 20
1.883
 30
0.0
 10
-28.422
 20
1.883
 30
0.0
 10
-37.0713
 20
1.883
 30
0.0
 10
-37.0713
 20
1.883
 30
0.0
 10
-37.0713
 20
1.883
 30
0.0
 10
-37.8276
 20
1.883
 30
0.0
 10
-38.4463
 20
2.5017
 30
0.0
 10
-38.4463
 20
3.2581
 30
0.0
 10
-38.4463
 20
3.2581
 30
0.0
 10
-38.4463
 20
3.2581
 30
0.0
 10
-38.4463
 20
3.2581
 30
0.0
 10
-38.4463
 20
3.2581
 30
0.0
 10
-38.4463
 20
3.2581
 30
0.0
 10
-38.4463
 20
4.0144
 30
0.0
 10
-37.8276
 20
4.6331
 30
0.0
 10
-37.0713
 20
4.6331
 30
0.0
  0
SPLINE
  5
4C
330
1F
100
AcDbEntity
  8
layer 1
 62
     7
370
    50
100
AcDbSpline
210
0.0
220
0.0
230
1.0
 70
    11
 71
     3
 72
    36
 73
    32
 74
     0
 42
0.0000000001
 43
0.0000000001
 12
1.0
 22
0.0
 32
0.0
 13
1.0
 23
0.0
 33
0.0
 40
0.0
 40
0.0
 40
0.0
 40
0.0
 40
0.1111111111111111
 40
0.1111111111111111
 40
0.1111111111111111
 40
0.1111111111111111
 40
0.2222222222222222
 40
0.2222222222222222
 40
0.2222222222222222
 40
0.2222222222222222
 40
0.3333333333333333
 40
0.3333333333333333
 40
0.3333333333333333
 40
0.3333333333333333
 40
0.4444444444444444
 40
0.4444444444444444
 40
0.4444444444444444
 40
0.4444444444444444
 40
0.5555555555555556
 40
0.5555555555555556
 40
0.5555555555555556
 40
0.5555555555555556
 40
0.6666666666666666
 40
0.6666666666666666
 40
0.6666666666666666
 40
0.6666666666666666
 40
0.7777777777777778
 40
0.7777777777777778
 40
0.7777777777777778
 40
0.7777777777777778
 40
1.0
 40
1.0
 40
1.0
 40
1.0
 10
-40.0359
 20
8.2799
 30
0.0
 10
-40.0359
 20
8.2799
 30
0.0
 10
-36.7075
 20
8.2799
 30
0.0
 10
-36.7075
 20
8.2799
 30
0.0
 10
-36.7075
 20
8.2799
 30
0.0
 10
-36.4164
 20
8.2799
 30
0.0
 10
-36.1783
 20
7.8092
 30
0.0
 10
-36.1783
 20
7.2337
 30
0.0
 10
-36.1783
 20
7.2337
 30
0.0
 10
-36.1783
 20
7.2337
 30
0.0
 10
-36.1783
 20
7.2337
 30
0.0
 10
-36.1783
 20
7.2337
 30
0.0
 10
-36.1783
 20
7.2337
 30
0.0
 10
-36.1783
 20
6.6582
 30
0.0
 10
-36.4164
 20
6.1874
 30
0.0
 10
-36.7075
 20
6.1874
 30
0.0
 10
-36.7075
 20
6.1874
 30
0.0
 10
-36.7075
 20
6.1874
 30
0.0
 10
-40.0359
 20
6.1874
 30
0.0
 10
-40.0359
 20
6.1874
 30
0.0
 10
-40.0359
 20
6.1874
 30
0.0
 10
-40.327
 20
6.1874
 30
0.0
 10
-40.5651
 20
6.6582
 30
0.0
 10
-40.5651
 20
7.2337
 30
0.0
 10
-40.5651
 20
7.2337
 30
0.0
 10
-40.5651
 20
7.2337
 30
0.0
 10
-40.5651
 20
7.2337
 30
0.0
 10
-40.5651
 20
7.2337
 30
0.0
 10
-40.5651
 20
7.2337
 30
0.0
 10
-40.5651
 20
7.8092
 30
0.0
 10
-40.327
 20
8.2799
 30
0.0
 10
-40.0359
 20
8.2799
 30
0.0
  0
SPLINE
  5
4D
330
1F
100
AcDbEntity
  8
layer 1
 62
     7
370
    50
100
AcDbSpline
210
0.0
220
0.0
230
1.0
 70
    11
 71
     3
 72
    16
 73
    12
 74
     0
 42
0.0000000001
 43
0.0000000001
 12
1.0
 22
0.0
 32
0.0
 13
1.0
 23
0.0
 33
0.0
 40
0.0
 40
0.0
 40
0.0
 40
0.0
 40
0.25
 40
0.25
 40
0.25
 40
0.25
 40
0.5
 40
0.5
 40
0.5
 40
0.5
 40
1.0
 40
1.0
 40
1.0
 40
1.0
 10
-33.7308
 20
11.4985
 30
0.0
 10
-33.7308
 20
11.4985
 30
0.0
 10
-22.8014
 20
11.5082
 30
0.0
 10
-22.8014
 20
11.5082
 30
0.0
 10
-22.8014
 20
11.5082
 30
0.0
 10
-23.2647
 20
9.4419
 30
0.0
 10
-25.2562
 20
6.1992
 30
0.0
 10
-28.3148
 20
6.2722
 30
0.0
 10
-28.3148
 20
6.2722
 30
0.0
 10
-30.7564
 20
6.2526
 30
0.0
 10
-33.8331
 20
8.5607
 30
0.0
 10
-33.7308
 20
11.4985
 30
0.0
  0
SPLINE
  5
4E
330
1F
100
AcDbEntity
  8
layer 1
 62
     7
370
    50
100
AcDbSpline
210
0.0
220
0.0
230
1.0
 70
    11
 71
     3
 72
    20
 73
    16
 74
     0
 42
0.0000000001
 43
0.0000000001
 12
1.0
 22
0.0
 32
0.0
 13
1.0
 23
0.0
 33
0.0
 40
0.0
 40
0.0
 40
0.0
 40
0.0
 40
0.2
 40
0.2
 40
0.2
 40
0.2
 40
0.4
 40
0.4
 40
0.4
 40
0.4
 40
0.6
 40
0.6
 40
0.6
 40
0.6
 40
1.0
 40
1.0
 40
1.0
 40
1.0
 10
5.2864
 20
86.2655
 30
0.0
 10
3.5553
 20
91.6682
 30
0.0
 10
2.6843
 20
93.54
 30
0.0
 10
-0.0818
 20
96.0425
 30
0.0
 10
-0.0818
 20
96.0425
 30
0.0
 10
2.7192
 20
96.7594
 30
0.0
 10
4.1541
 20
98.0597
 30
0.0
 10
5.3632
 20
100.8145
 30
0.0
 10
5.3632
 20
100.8145
 30
0.0
 10
6.5723
 20
98.0597
 30
0.0
 10
7.9121
 20
96.7594
 30
0.0
 10
10.7132
 20
96.0425
 30
0.0
 10
10.7132
 20
96.0425
 30
0.0
 10
7.9471
 20
93.54
 30
0.0
 10
7.0176
 20
91.6682
 30
0.0
 10
5.2864
 20
86.2655
 30
0.0
  0
SPLINE
  5
4F
330
1F
100
AcDbEntity
  8
layer 1
 62
     7
370
    50
100
AcDbSpline
210
0.0
220
0.0
230
1.0
 70
    11
 71
     3
 72
    44
 73
    40
 74
     0
 42
0.0000000001
 43
0.0000000001
 12
1.0
 22
0.0
 32
0.0
 13
1.0
 23
0.0
 33
0.0
 40
0.0
 40
0.0
 40
0.0
 40
0.0
 40
0.0909090909090909
 40
0.0909090909090909
 40
0.0909090909090909
 40
0.0909090909090909
 40
0.1818181818181818
 40
0.1818181818181818
 40
0.1818181818181818
 40
0.1818181818181818
 40
0.2727272727272727
 40
0.2727272727272727
 40
0.2727272727272727
 40
0.2727272727272727
 40
0.3636363636363636
 40
0.3636363636363636
 40
0.3636363636363636
 40
0.3636363636363636
 40
0.4545454545454545
 40
0.4545454545454545
 40
0.4545454545454545
 40
0.4545454545454545
 40
0.5454545454545454
 40
0.5454545454545454
 40
0.5454545454545454
 40
0.5454545454545454
 40
0.6363636363636364
 40
0.6363636363636364
 40
0.6363636363636364
 40
0.6363636363636364
 40
0.7272727272727273
 40
0.7272727272727273
 40
0.7272727272727273
 40
0.7272727272727273
 40
0.8181818181818182
 40
0.8181818181818182
 40
0.8181818181818182
 40
0.8181818181818182
 40
1.0
 40
1.0
 40
1.0
 40
1.0
 10
7.6594
 20
3.2894
 30
0.0
 10
8.9211
 20
7.0381
 30
0.0
 10
11.6285
 20
7.5188
 30
0.0
 10
14.5727
 20
7.8244
 30
0.0
 10
14.5727
 20
7.8244
 30
0.0
 10
10.881
 20
10.5007
 30
0.0
 10
7.3403
 20
18.0354
 30
0.0
 10
6.2499
 20
23.6401
 30
0.0
 10
6.2499
 20
23.6401
 30
0.0
 10
5.4921
 20
23.8483
 30
0.0
 10
4.8113
 20
23.8636
 30
0.0
 10
4.3007
 20
23.5332
 30
0.0
 10
4.3007
 20
23.5332
 30
0.0
 10
3.1259
 20
17.9755
 30
0.0
 10
-0.3363
 20
10.4379
 30
0.0
 10
-3.9413
 20
7.8244
 30
0.0
 10
-3.9413
 20
7.8244
 30
0.0
 10
-0.9971
 20
7.5188
 30
0.0
 10
1.7103
 20
7.0381
 30
0.0
 10
2.972
 20
3.2894
 30
0.0
 10
2.972
 20
3.2894
 30
0.0
 10
1.7103
 20
-0.4593
 30
0.0
 10
-0.9971
 20
-0.9569
 30
0.0
 10
-3.9413
 20
-1.2625
 30
0.0
 10
-3.9413
 20
-1.2625
 30
0.0
 10
-0.3363
 20
-3.876
 30
0.0
 10
3.1259
 20
-11.4137
 30
0.0
 10
4.3007
 20
-16.9714
 30
0.0
 10
4.3007
 20
-16.9714
 30
0.0
 10
4.8113
 20
-17.3018
 30
0.0
 10
5.4921
 20
-17.2864
 30
0.0
 10
6.2499
 20
-17.0782
 30
0.0
 10
6.2499
 20
-17.0782
 30
0.0
 10
7.3403
 20
-11.4735
 30
0.0
 10
10.881
 20
-3.9389
 30
0.0
 10
14.5727
 20
-1.2625
 30
0.0
 10
14.5727
 20
-1.2625
 30
0.0
 10
11.6285
 20
-0.9569
 30
0.0
 10
8.9211
 20
-0.4593
 30
0.0
 10
7.6594
 20
3.2894
 30
0.0
  0
SPLINE
  5
50
330
1F
100
AcDbEntity
  8
layer 1
 62
     7
370
    50
100
AcDbSpline
210
0.0
220
0.0
230
1.0
 70
    11
 71
     3
 72
    20
 73
    16
 74
     0
 42
0.0000000001
 43
0.0000000001
 12
1.0
 22
0.0
 32
0.0
 13
1.0
 23
0.0
 33
0.0
 40
0.0
 40
0.0
 40
0.0
 40
0.0
 40
0.2
 40
0.2
 40
0.2
 40
0.2
 40
0.4
 40
0.4
 40
0.4
 40
0.4
 40
0.6
 40
0.6
 40
0.6
 40
0.6
 40
1.0
 40
1.0
 40
1.0
 40
1.0
 10
66.3847
 20
105.537
 30
0.0
 10
66.3847
 20
105.537
 30
0.0
 10
45.3413
 20
105.537
 30
0.0
 10
45.3413
 20
105.537
 30
0.0
 10
45.3413
 20
105.537
 30
0.0
 10
49.4303
 20
103.4426
 30
0.0
 10
51.4249
 20
100.0518
 30
0.0
 10
52.4223
 20
95.0652
 30
0.0
 10
52.4223
 20
95.0652
 30
0.0
 10
55.0818
 20
99.3204
 30
0.0
 10
59.7359
 20
101.581
 30
0.0
 10
66.3847
 20
96.7606
 30
0.0
 10
66.3847
 20
96.7606
 30
0.0
 10
66.3847
 20
96.7606
 30
0.0
 10
66.3847
 20
105.537
 30
0.0
 10
66.3847
 20
105.537
 30
0.0
  0
SPLINE
  5
51
330
1F
100
AcDbEntity
  8
layer 1
 62
     7
370
    50
100
AcDbSpline
210
0.0
220
0.0
230
1.0
 70
    11
 71
     3
 72
    20
 73
    16
 74
     0
 42
0.0000000001
 43
0.0000000001
 12
1.0
 22
0.0
 32
0.0
 13
1.0
 23
0.0
 33
0.0
 40
0.0
 40
0.0
 40
0.0
 40
0.0
 40
0.2
 40
0.2
 40
0.2
 40
0.2
 40
0.4
 40
0.4
 40
0.4
 40
0.4
 40
0.6
 40
0.6
 40
0.6
 40
0.6
 40
1.0
 40
1.0
 40
1.0
 40
1.0
 10
39.906
 20
105.537
 30
0.0
 10
39.906
 20
105.537
 30
0.0
 10
7.2937
 20
105.537
 30
0.0
 10
7.2937
 20
105.537
 30
0.0
 10
7.2937
 20
105.537
 30
0.0
 10
11.9811
 20
96.8603
 30
0.0
 10
21.5159
 20
102.0753
 30
0.0
 10
27.7387
 20
101.3483
 30
0.0
 10
27.7387
 20
101.3483
 30
0.0
 10
35.2851
 20
102.1129
 30
0.0
 10
43.5296
 20
96.9933
 30
0.0
 10
47.4856
 20
87.8845
 30
0.0
 10
47.4856
 20
87.8845
 30
0.0
 10
50.3317
 20
100.92
 30
0.0
 10
39.8208
 20
94.633
 30
0.0
 10
39.906
 20
105.537
 30
0.0
  0
SPLINE
  5
52
330
1F
100
AcDbEntity
  8
layer 1
 62
     7
370
    50
100
AcDbSpline
210
0.0
220
0.0
230
1.0
 70
    11
 71
     3
 72
    44
 73
    40
 74
     0
 42
0.0000000001
 43
0.0000000001
 12
1.0
 22
0.0
 32
0.0
 13
1.0
 23
0.0
 33
0.0
 40
0.0
 40
0.0
 40
0.0
 40
0.0
 40
0.0909090909090909
 40
0.0909090909090909
 40
0.0909090909090909
 40
0.0909090909090909
 40
0.1818181818181818
 40
0.1818181818181818
 40
0.1818181818181818
 40
0.1818181818181818
 40
0.2727272727272727
 40
0.2727272727272727
 40
0.2727272727272727
 40
0.2727272727272727
 40
0.3636363636363636
 40
0.3636363636363636
 40
0.3636363636363636
 40
0.3636363636363636
 40
0.4545454545454545
 40
0.4545454545454545
 40
0.4545454545454545
 40
0.4545454545454545
 40
0.5454545454545454
 40
0.5454545454545454
 40
0.5454545454545454
 40
0.5454545454545454
 40
0.6363636363636364
 40
0.6363636363636364
 40
0.6363636363636364
 40
0.6363636363636364
 40
0.7272727272727273
 40
0.7272727272727273
 40
0.7272727272727273
 40
0.7272727272727273
 40
0.8181818181818182
 40
0.8181818181818182
 40
0.8181818181818182
 40
0.8181818181818182
 40
1.0
 40
1.0
 40
1.0
 40
1.0
 10
31.3842
 20
96.2122
 30
0.0
 10
21.8464
 20
97.6157
 30
0.0
 10
14.2224
 20
92.9059
 30
0.0
 10
13.7989
 20
83.8505
 30
0.0
 10
13.7989
 20
83.8505
 30
0.0
 10
13.086
 20
73.9849
 30
0.0
 10
23.2421
 20
66.5351
 30
0.0
 10
27.2952
 20
72.7752
 30
0.0
 10
27.2952
 20
72.7752
 30
0.0
 10
14.0961
 20
81.7158
 30
0.0
 10
38.321
 20
90.419
 30
0.0
 10
32.0668
 20
72.0533
 30
0.0
 10
32.0668
 20
72.0533
 30
0.0
 10
30.4691
 20
69.0995
 30
0.0
 10
28.4087
 20
67.0247
 30
0.0
 10
25.464
 20
66.3971
 30
0.0
 10
25.464
 20
66.3971
 30
0.0
 10
26.0633
 20
63.5373
 30
0.0
 10
25.6404
 20
60.767
 30
0.0
 10
25.7992
 20
57.4165
 30
0.0
 10
25.7992
 20
57.4165
 30
0.0
 10
30.5334
 20
57.3758
 30
0.0
 10
40.8088
 20
64.7088
 30
0.0
 10
38.3448
 20
80.8417
 30
0.0
 10
38.3448
 20
80.8417
 30
0.0
 10
42.5012
 20
80.7819
 30
0.0
 10
43.4944
 20
77.4584
 30
0.0
 10
44.6486
 20
74.7698
 30
0.0
 10
44.6486
 20
74.7698
 30
0.0
 10
47.8977
 20
90.3757
 30
0.0
 10
32.4872
 20
94.0462
 30
0.0
 10
26.8954
 20
87.3941
 30
0.0
 10
26.8954
 20
87.3941
 30
0.0
 10
27.0043
 20
89.7929
 30
0.0
 10
27.8085
 20
92.8014
 30
0.0
 10
30.5107
 20
94.195
 30
0.0
 10
30.5107
 20
94.195
 30
0.0
 10
31.1705
 20
94.5353
 30
0.0
 10
31.6184
 20
95.5654
 30
0.0
 10
31.3842
 20
96.2122
 30
0.0
  0
SPLINE
  5
53
330
1F
100
AcDbEntity
  8
layer 1
 62
     7
370
    50
100
AcDbSpline
210
0.0
220
0.0
230
1.0
 70
    11
 71
     3
 72
    32
 73
    28
 74
     0
 42
0.0000000001
 43
0.0000000001
 12
1.0
 22
0.0
 32
0.0
 13
1.0
 23
0.0
 33
0.0
 40
0.0
 40
0.0
 40
0.0
 40
0.0
 40
0.125
 40
0.125
 40
0.125
 40
0.125
 40
0.25
 40
0.25
 40
0.25
 40
0.25
 40
0.375
 40
0.375
 40
0.375
 40
0.375
 40
0.5
 40
0.5
 40
0.5
 40
0.5
 40
0.625
 40
0.625
 40
0.625
 40
0.625
 40
0.75
 40
0.75
 40
0.75
 40
0.75
 40
1.0
 40
1.0
 40
1.0
 40
1.0
 10
66.9335
 20
92.23
 30
0.0
 10
65.202
 20
91.5361
 30
0.0
 10
63.5044
 20
91.5323
 30
0.0
 10
61.1567
 20
92.8364
 30
0.0
 10
61.1567
 20
92.8364
 30
0.0
 10
60.33
 20
93.2955
 30
0.0
 10
58.8958
 20
93.2752
 30
0.0
 10
57.8364
 20
92.7356
 30
0.0
 10
57.8364
 20
92.7356
 30
0.0
 10
55.9882
 20
90.3284
 30
0.0
 10
52.8871
 20
85.228
 30
0.0
 10
52.947
 20
78.7967
 30
0.0
 10
52.947
 20
78.7967
 30
0.0
 10
53.6048
 20
78.6608
 30
0.0
 10
54.4262
 20
78.4458
 30
0.0
 10
54.5773
 20
79.0968
 30
0.0
 10
54.5773
 20
79.0968
 30
0.0
 10
55.9807
 20
85.1432
 30
0.0
 10
62.9265
 20
80.1636
 30
0.0
 10
62.536
 20
88.7858
 30
0.0
 10
62.536
 20
88.7858
 30
0.0
 10
64.8498
 20
88.6653
 30
0.0
 10
65.303
 20
85.1611
 30
0.0
 10
66.9335
 20
85.9576
 30
0.0
 10
66.9335
 20
85.9576
 30
0.0
 10
66.9335
 20
85.9576
 30
0.0
 10
66.9335
 20
92.23
 30
0.0
 10
66.9335
 20
92.23
 30
0.0
  0
SPLINE
  5
54
330
1F
100
AcDbEntity
  8
layer 1
 62
     7
370
    50
100
AcDbSpline
210
0.0
220
0.0
230
1.0
 70
    11
 71
     3
 72
    36
 73
    32
 74
     0
 42
0.0000000001
 43
0.0000000001
 12
1.0
 22
0.0
 32
0.0
 13
1.0
 23
0.0
 33
0.0
 40
0.0
 40
0.0
 40
0.0
 40
0.0
 40
0.1111111111111111
 40
0.1111111111111111
 40
0.1111111111111111
 40
0.1111111111111111
 40
0.2222222222222222
 40
0.2222222222222222
 40
0.2222222222222222
 40
0.2222222222222222
 40
0.3333333333333333
 40
0.3333333333333333
 40
0.3333333333333333
 40
0.3333333333333333
 40
0.4444444444444444
 40
0.4444444444444444
 40
0.4444444444444444
 40
0.4444444444444444
 40
0.5555555555555556
 40
0.5555555555555556
 40
0.5555555555555556
 40
0.5555555555555556
 40
0.6666666666666666
 40
0.6666666666666666
 40
0.6666666666666666
 40
0.6666666666666666
 40
0.7777777777777778
 40
0.7777777777777778
 40
0.7777777777777778
 40
0.7777777777777778
 40
1.0
 40
1.0
 40
1.0
 40
1.0
 10
66.7505
 20
82.0616
 30
0.0
 10
64.9491
 20
77.6009
 30
0.0
 10
58.5749
 20
74.5123
 30
0.0
 10
52.292
 20
75.8134
 30
0.0
 10
52.292
 20
75.8134
 30
0.0
 10
50.9306
 20
72.6384
 30
0.0
 10
45.5805
 20
63.1051
 30
0.0
 10
33.0257
 20
54.8799
 30
0.0
 10
33.0257
 20
54.8799
 30
0.0
 10
32.7838
 20
54.7216
 30
0.0
 10
31.8553
 20
52.336
 30
0.0
 10
34.721
 20
53.1399
 30
0.0
 10
34.721
 20
53.1399
 30
0.0
 10
40.9798
 20
54.8959
 30
0.0
 10
43.8002
 20
59.654
 30
0.0
 10
47.1177
 20
61.1346
 30
0.0
 10
47.1177
 20
61.1346
 30
0.0
 10
45.8121
 20
68.3925
 30
0.0
 10
57.4193
 20
64.9004
 30
0.0
 10
53.3516
 20
73.3033
 30
0.0
 10
53.3516
 20
73.3033
 30
0.0
 10
54.362
 20
73.4547
 30
0.0
 10
58.9626
 20
74.3011
 30
0.0
 10
58.9135
 20
68.7697
 30
0.0
 10
58.9135
 20
68.7697
 30
0.0
 10
60.0464
 20
69.5308
 30
0.0
 10
63.4073
 20
70.1012
 30
0.0
 10
66.7505
 20
69.5979
 30
0.0
 10
66.7505
 20
69.5979
 30
0.0
 10
66.7505
 20
69.5979
 30
0.0
 10
66.7505
 20
82.0616
 30
0.0
 10
66.7505
 20
82.0616
 30
0.0
  0
SPLINE
  5
55
330
1F
100
AcDbEntity
  8
layer 1
 62
     7
370
    50
100
AcDbSpline
210
0.0
220
0.0
230
1.0
 70
    11
 71
     3
 72
    84
 73
    80
 74
     0
 42
0.0000000001
 43
0.0000000001
 12
1.0
 22
0.0
 32
0.0
 13
1.0
 23
0.0
 33
0.0
 40
0.0
 40
0.0
 40
0.0
 40
0.0
 40
0.0476190476190476
 40
0.0476190476190476
 40
0.0476190476190476
 40
0.0476190476190476
 40
0.0952380952380952
 40
0.0952380952380952
 40
0.0952380952380952
 40
0.0952380952380952
 40
0.1428571428571428
 40
0.1428571428571428
 40
0.1428571428571428
 40
0.1428571428571428
 40
0.1904761904761905
 40
0.1904761904761905
 40
0.1904761904761905
 40
0.1904761904761905
 40
0.2380952380952381
 40
0.2380952380952381
 40
0.2380952380952381
 40
0.2380952380952381
 40
0.2857142857142857
 40
0.2857142857142857
 40
0.2857142857142857
 40
0.2857142857142857
 40
0.3333333333333333
 40
0.3333333333333333
 40
0.3333333333333333
 40
0.3333333333333333
 40
0.3809523809523809
 40
0.3809523809523809
 40
0.3809523809523809
 40
0.3809523809523809
 40
0.4285714285714285
 40
0.4285714285714285
 40
0.4285714285714285
 40
0.4285714285714285
 40
0.4761904761904762
 40
0.4761904761904762
 40
0.4761904761904762
 40
0.4761904761904762
 40
0.5238095238095238
 40
0.5238095238095238
 40
0.5238095238095238
 40
0.5238095238095238
 40
0.5714285714285714
 40
0.5714285714285714
 40
0.5714285714285714
 40
0.5714285714285714
 40
0.6190476190476191
 40
0.6190476190476191
 40
0.6190476190476191
 40
0.6190476190476191
 40
0.6666666666666666
 40
0.6666666666666666
 40
0.6666666666666666
 40
0.6666666666666666
 40
0.7142857142857143
 40
0.7142857142857143
 40
0.7142857142857143
 40
0.7142857142857143
 40
0.7619047619047619
 40
0.7619047619047619
 40
0.7619047619047619
 40
0.7619047619047619
 40
0.8095238095238095
 40
0.8095238095238095
 40
0.8095238095238095
 40
0.8095238095238095
 40
0.8571428571428571
 40
0.8571428571428571
 40
0.8571428571428571
 40
0.8571428571428571
 40
0.9047619047619048
 40
0.9047619047619048
 40
0.9047619047619048
 40
0.9047619047619048
 40
1.0
 40
1.0
 40
1.0
 40
1.0
 10
38.0933
 20
40.1422
 30
0.0
 10
37.1029
 20
44.65
 30
0.0
 10
28.1188
 20
46.2483
 30
0.0
 10
22.4452
 20
44.3831
 30
0.0
 10
22.4452
 20
44.3831
 30
0.0
 10
17.7792
 20
43.0047
 30
0.0
 10
12.7832
 20
37.7184
 30
0.0
 10
12.0493
 20
31.5287
 30
0.0
 10
12.0493
 20
31.5287
 30
0.0
 10
11.779
 20
29.2491
 30
0.0
 10
13.2662
 20
28.7599
 30
0.0
 10
13.2661
 20
28.7598
 30
0.0
 10
13.2661
 20
28.7598
 30
0.0
 10
22.6469
 20
44.1637
 30
0.0
 10
28.8572
 20
32.6746
 30
0.0
 10
26.5829
 20
25.8604
 30
0.0
 10
26.5829
 20
25.8604
 30
0.0
 10
25.2755
 20
25.471
 30
0.0
 10
22.9792
 20
29.1986
 30
0.0
 10
22.559
 20
28.9332
 30
0.0
 10
22.559
 20
28.9332
 30
0.0
 10
21.9446
 20
28.5453
 30
0.0
 10
23.4094
 20
24.353
 30
0.0
 10
21.9098
 20
25.3258
 30
0.0
 10
21.9098
 20
25.3258
 30
0.0
 10
18.2398
 20
29.264
 30
0.0
 10
12.1955
 20
25.6072
 30
0.0
 10
13.1881
 20
22.5868
 30
0.0
 10
13.1881
 20
22.5868
 30
0.0
 10
15.9203
 20
22.6884
 30
0.0
 10
17.6034
 20
22.5011
 30
0.0
 10
18.6017
 20
20.4322
 30
0.0
 10
18.6017
 20
20.4322
 30
0.0
 10
15.64
 20
21.2351
 30
0.0
 10
11.891
 20
14.1218
 30
0.0
 10
19.7124
 20
8.8581
 30
0.0
 10
19.7124
 20
8.8581
 30
0.0
 10
21.9726
 20
8.6974
 30
0.0
 10
26.3962
 20
16.4573
 30
0.0
 10
20.4197
 20
17.6098
 30
0.0
 10
20.4197
 20
17.6098
 30
0.0
 10
20.8363
 20
17.742
 30
0.0
 10
21.4028
 20
19.5553
 30
0.0
 10
23.5443
 20
19.1254
 30
0.0
 10
23.5443
 20
19.1254
 30
0.0
 10
23.1497
 20
21.1795
 30
0.0
 10
24.5212
 20
21.9931
 30
0.0
 10
24.935
 20
21.9011
 30
0.0
 10
24.935
 20
21.9011
 30
0.0
 10
31.3304
 20
21.2158
 30
0.0
 10
25.645
 20
13.0891
 30
0.0
 10
28.1105
 20
13.2654
 30
0.0
 10
28.1105
 20
13.2654
 30
0.0
 10
28.8842
 20
12.4786
 30
0.0
 10
32.5464
 20
18.8795
 30
0.0
 10
36.8371
 20
18.0183
 30
0.0
 10
36.8371
 20
18.0183
 30
0.0
 10
44.0135
 20
16.578
 30
0.0
 10
43.8943
 20
25.0097
 30
0.0
 10
41.3571
 20
25.7727
 30
0.0
 10
41.3571
 20
25.7727
 30
0.0
 10
31.1811
 20
21.0127
 30
0.0
 10
28.4213
 20
33.049
 30
0.0
 10
30.8331
 20
35.7353
 30
0.0
 10
30.8331
 20
35.7353
 30
0.0
 10
32.4351
 20
31.44
 30
0.0
 10
33.5599
 20
30.7963
 30
0.0
 10
35.485
 20
30.2682
 30
0.0
 10
35.485
 20
30.2682
 30
0.0
 10
37.5925
 20
29.5147
 30
0.0
 10
40.7316
 20
31.8359
 30
0.0
 10
38.9466
 20
32.8392
 30
0.0
 10
38.9466
 20
32.8392
 30
0.0
 10
37.7859
 20
31.926
 30
0.0
 10
34.8127
 20
32.3442
 30
0.0
 10
33.8843
 20
34.6955
 30
0.0
 10
33.8843
 20
34.6955
 30
0.0
 10
39.0093
 20
35.5633
 30
0.0
 10
38.4222
 20
37.9595
 30
0.0
 10
38.0933
 20
40.1422
 30
0.0
  0
SPLINE
  5
56
330
1F
100
AcDbEntity
  8
layer 1
 62
     7
370
    50
100
AcDbSpline
210
0.0
220
0.0
230
1.0
 70
    11
 71
     3
 72
    44
 73
    40
 74
     0
 42
0.0000000001
 43
0.0000000001
 12
1.0
 22
0.0
 32
0.0
 13
1.0
 23
0.0
 33
0.0
 40
0.0
 40
0.0
 40
0.0
 40
0.0
 40
0.0909090909090909
 40
0.0909090909090909
 40
0.0909090909090909
 40
0.0909090909090909
 40
0.1818181818181818
 40
0.1818181818181818
 40
0.1818181818181818
 40
0.1818181818181818
 40
0.2727272727272727
 40
0.2727272727272727
 40
0.2727272727272727
 40
0.2727272727272727
 40
0.3636363636363636
 40
0.3636363636363636
 40
0.3636363636363636
 40
0.3636363636363636
 40
0.4545454545454545
 40
0.4545454545454545
 40
0.4545454545454545
 40
0.4545454545454545
 40
0.5454545454545454
 40
0.5454545454545454
 40
0.5454545454545454
 40
0.5454545454545454
 40
0.6363636363636364
 40
0.6363636363636364
 40
0.6363636363636364
 40
0.6363636363636364
 40
0.7272727272727273
 40
0.7272727272727273
 40
0.7272727272727273
 40
0.7272727272727273
 40
0.8181818181818182
 40
0.8181818181818182
 40
0.8181818181818182
 40
0.8181818181818182
 40
1.0
 40
1.0
 40
1.0
 40
1.0
 10
66.7984
 20
67.996
 30
0.0
 10
65.5395
 20
66.0871
 30
0.0
 10
64.1269
 20
64.4513
 30
0.0
 10
61.4267
 20
63.0671
 30
0.0
 10
61.4267
 20
63.0671
 30
0.0
 10
65.8534
 20
58.2609
 30
0.0
 10
61.2585
 20
55.9455
 30
0.0
 10
60.199
 20
55.4059
 30
0.0
 10
60.199
 20
55.4059
 30
0.0
 10
58.5333
 20
64.3637
 30
0.0
 10
51.9979
 20
56.361
 30
0.0
 10
47.7922
 20
60.3163
 30
0.0
 10
47.7922
 20
60.3163
 30
0.0
 10
46.3221
 20
58.635
 30
0.0
 10
45.3004
 20
56.775
 30
0.0
 10
45.3191
 20
54.7653
 30
0.0
 10
45.3191
 20
54.7653
 30
0.0
 10
50.9166
 20
56.0439
 30
0.0
 10
56.4989
 20
55.8077
 30
0.0
 10
59.9855
 20
52.1086
 30
0.0
 10
59.9855
 20
52.1086
 30
0.0
 10
59.3695
 20
51.0858
 30
0.0
 10
57.0918
 20
52.0706
 30
0.0
 10
57.1606
 20
51.4195
 30
0.0
 10
57.1606
 20
51.4195
 30
0.0
 10
56.1772
 20
51.3581
 30
0.0
 10
57.0295
 20
50.5963
 30
0.0
 10
57.4075
 20
50.4679
 30
0.0
 10
57.4075
 20
50.4679
 30
0.0
 10
62.41
 20
48.7691
 30
0.0
 10
64.1728
 20
45.11
 30
0.0
 10
65.7486
 20
42.1806
 30
0.0
 10
65.7486
 20
42.1806
 30
0.0
 10
66.0648
 20
41.5928
 30
0.0
 10
66.5191
 20
42.561
 30
0.0
 10
66.7984
 20
41.945
 30
0.0
 10
66.7984
 20
41.945
 30
0.0
 10
66.7984
 20
41.945
 30
0.0
 10
66.7984
 20
67.996
 30
0.0
 10
66.7984
 20
67.996
 30
0.0
  0
SPLINE
  5
57
330
1F
100
AcDbEntity
  8
layer 1
 62
     7
370
    50
100
AcDbSpline
210
0.0
220
0.0
230
1.0
 70
    11
 71
     3
 72
    60
 73
    56
 74
     0
 42
0.0000000001
 43
0.0000000001
 12
1.0
 22
0.0
 32
0.0
 13
1.0
 23
0.0
 33
0.0
 40
0.0
 40
0.0
 40
0.0
 40
0.0
 40
0.0666666666666667
 40
0.0666666666666667
 40
0.0666666666666667
 40
0.0666666666666667
 40
0.1333333333333333
 40
0.1333333333333333
 40
0.1333333333333333
 40
0.1333333333333333
 40
0.2
 40
0.2
 40
0.2
 40
0.2
 40
0.2666666666666667
 40
0.2666666666666667
 40
0.2666666666666667
 40
0.2666666666666667
 40
0.3333333333333333
 40
0.3333333333333333
 40
0.3333333333333333
 40
0.3333333333333333
 40
0.4
 40
0.4
 40
0.4
 40
0.4
 40
0.4666666666666667
 40
0.4666666666666667
 40
0.4666666666666667
 40
0.4666666666666667
 40
0.5333333333333333
 40
0.5333333333333333
 40
0.5333333333333333
 40
0.5333333333333333
 40
0.6
 40
0.6
 40
0.6
 40
0.6
 40
0.6666666666666666
 40
0.6666666666666666
 40
0.6666666666666666
 40
0.6666666666666666
 40
0.7333333333333333
 40
0.7333333333333333
 40
0.7333333333333333
 40
0.7333333333333333
 40
0.8
 40
0.8
 40
0.8
 40
0.8
 40
0.8666666666666667
 40
0.8666666666666667
 40
0.8666666666666667
 40
0.8666666666666667
 40
1.0
 40
1.0
 40
1.0
 40
1.0
 10
66.7984
 20
37.0355
 30
0.0
 10
64.7748
 20
36.7862
 30
0.0
 10
62.8205
 20
36.8738
 30
0.0
 10
60.8212
 20
38.5216
 30
0.0
 10
60.8212
 20
38.5216
 30
0.0
 10
60.9212
 20
37.3054
 30
0.0
 10
60.6148
 20
36.7254
 30
0.0
 10
60.6463
 20
36.0906
 30
0.0
 10
60.6463
 20
36.0906
 30
0.0
 10
61.9917
 20
34.5271
 30
0.0
 10
60.1452
 20
32.9218
 30
0.0
 10
62.3497
 20
29.2142
 30
0.0
 10
62.3497
 20
29.2142
 30
0.0
 10
61.1988
 20
28.8589
 30
0.0
 10
60.6477
 20
30.6226
 30
0.0
 10
58.1327
 20
30.8049
 30
0.0
 10
58.1327
 20
30.8049
 30
0.0
 10
54.8494
 20
26.8742
 30
0.0
 10
47.8448
 20
28.5053
 30
0.0
 10
46.8802
 20
29.9988
 30
0.0
 10
46.8802
 20
29.9988
 30
0.0
 10
46.3797
 20
28.032
 30
0.0
 10
45.0919
 20
27.4244
 30
0.0
 10
44.6587
 20
26.6001
 30
0.0
 10
44.6587
 20
26.6001
 30
0.0
 10
45.5657
 20
24.7439
 30
0.0
 10
47.0405
 20
22.4144
 30
0.0
 10
48.1109
 20
21.7275
 30
0.0
 10
48.1109
 20
21.7275
 30
0.0
 10
49.2483
 20
21.9638
 30
0.0
 10
49.8427
 20
23.0868
 30
0.0
 10
50.1623
 20
24.0917
 30
0.0
 10
50.1623
 20
24.0917
 30
0.0
 10
52.2512
 20
21.187
 30
0.0
 10
50.9867
 20
18.4955
 30
0.0
 10
50.809
 20
16.8711
 30
0.0
 10
50.809
 20
16.8711
 30
0.0
 10
52.7421
 20
16.9014
 30
0.0
 10
54.065
 20
16.8011
 30
0.0
 10
55.7905
 20
16.7246
 30
0.0
 10
55.7905
 20
16.7246
 30
0.0
 10
57.5791
 20
17.4611
 30
0.0
 10
57.5396
 20
18.1993
 30
0.0
 10
58.5227
 20
18.454
 30
0.0
 10
58.5227
 20
18.454
 30
0.0
 10
51.5286
 20
25.7159
 30
0.0
 10
63.8862
 20
30.4905
 30
0.0
 10
65.7486
 20
22.8376
 30
0.0
 10
65.7486
 20
22.8376
 30
0.0
 10
65.9064
 20
22.1892
 30
0.0
 10
66.5191
 20
22.2604
 30
0.0
 10
66.7984
 20
22.602
 30
0.0
 10
66.7984
 20
22.602
 30
0.0
 10
66.7984
 20
22.602
 30
0.0
 10
66.7984
 20
37.0355
 30
0.0
 10
66.7984
 20
37.0355
 30
0.0
  0
SPLINE
  5
58
330
1F
100
AcDbEntity
  8
layer 1
 62
     7
370
    50
100
AcDbSpline
210
0.0
220
0.0
230
1.0
 70
    11
 71
     3
 72
    72
 73
    68
 74
     0
 42
0.0000000001
 43
0.0000000001
 12
1.0
 22
0.0
 32
0.0
 13
1.0
 23
0.0
 33
0.0
 40
0.0
 40
0.0
 40
0.0
 40
0.0
 40
0.0555555555555556
 40
0.0555555555555556
 40
0.0555555555555556
 40
0.0555555555555556
 40
0.1111111111111111
 40
0.1111111111111111
 40
0.1111111111111111
 40
0.1111111111111111
 40
0.1666666666666667
 40
0.1666666666666667
 40
0.1666666666666667
 40
0.1666666666666667
 40
0.2222222222222222
 40
0.2222222222222222
 40
0.2222222222222222
 40
0.2222222222222222
 40
0.2777777777777778
 40
0.2777777777777778
 40
0.2777777777777778
 40
0.2777777777777778
 40
0.3333333333333333
 40
0.3333333333333333
 40
0.3333333333333333
 40
0.3333333333333333
 40
0.3888888888888889
 40
0.3888888888888889
 40
0.3888888888888889
 40
0.3888888888888889
 40
0.4444444444444444
 40
0.4444444444444444
 40
0.4444444444444444
 40
0.4444444444444444
 40
0.5
 40
0.5
 40
0.5
 40
0.5
 40
0.5555555555555556
 40
0.5555555555555556
 40
0.5555555555555556
 40
0.5555555555555556
 40
0.6111111111111112
 40
0.6111111111111112
 40
0.6111111111111112
 40
0.6111111111111112
 40
0.6666666666666666
 40
0.6666666666666666
 40
0.6666666666666666
 40
0.6666666666666666
 40
0.7222222222222222
 40
0.7222222222222222
 40
0.7222222222222222
 40
0.7222222222222222
 40
0.7777777777777778
 40
0.7777777777777778
 40
0.7777777777777778
 40
0.7777777777777778
 40
0.8333333333333334
 40
0.8333333333333334
 40
0.8333333333333334
 40
0.8333333333333334
 40
0.8888888888888888
 40
0.8888888888888888
 40
0.8888888888888888
 40
0.8888888888888888
 40
1.0
 40
1.0
 40
1.0
 40
1.0
 10
66.9335
 20
20.3642
 30
0.0
 10
65.1338
 20
17.4528
 30
0.0
 10
60.7411
 20
14.6857
 30
0.0
 10
55.1525
 20
13.6699
 30
0.0
 10
55.1525
 20
13.6699
 30
0.0
 10
52.8247
 20
13.5833
 30
0.0
 10
50.7424
 20
13.9382
 30
0.0
 10
50.0923
 20
12.9892
 30
0.0
 10
50.0923
 20
12.9892
 30
0.0
 10
49.6303
 20
12.3875
 30
0.0
 10
50.3984
 20
11.8974
 30
0.0
 10
50.3984
 20
11.8974
 30
0.0
 10
50.3984
 20
11.8974
 30
0.0
 10
50.5718
 20
11.707
 30
0.0
 10
53.1136
 20
11.079
 30
0.0
 10
55.1053
 20
11.1822
 30
0.0
 10
55.1053
 20
11.1822
 30
0.0
 10
55.4927
 20
11.2022
 30
0.0
 10
54.7292
 20
9.4983
 30
0.0
 10
55.1268
 20
9.3421
 30
0.0
 10
55.1268
 20
9.3421
 30
0.0
 10
56.6602
 20
9.085
 30
0.0
 10
57.8654
 20
8.6037
 30
0.0
 10
59.4164
 20
7.2761
 30
0.0
 10
59.4164
 20
7.2761
 30
0.0
 10
60.4248
 20
6.7893
 30
0.0
 10
59.8944
 20
6.4225
 30
0.0
 10
60.7591
 20
5.8086
 30
0.0
 10
60.7591
 20
5.8086
 30
0.0
 10
61.6795
 20
5.155
 30
0.0
 10
64.5924
 20
4.114
 30
0.0
 10
65.1913
 20
3.2537
 30
0.0
 10
65.1913
 20
3.2537
 30
0.0
 10
64.5924
 20
2.3934
 30
0.0
 10
61.6795
 20
1.4069
 30
0.0
 10
60.7591
 20
0.7533
 30
0.0
 10
60.7591
 20
0.7533
 30
0.0
 10
59.8944
 20
0.1394
 30
0.0
 10
60.4248
 20
-0.2275
 30
0.0
 10
59.4164
 20
-0.7142
 30
0.0
 10
59.4164
 20
-0.7142
 30
0.0
 10
57.8654
 20
-2.0418
 30
0.0
 10
56.6602
 20
-2.5232
 30
0.0
 10
55.1268
 20
-2.7803
 30
0.0
 10
55.1268
 20
-2.7803
 30
0.0
 10
54.7292
 20
-2.9365
 30
0.0
 10
55.4927
 20
-4.6403
 30
0.0
 10
55.1053
 20
-4.6203
 30
0.0
 10
55.1053
 20
-4.6203
 30
0.0
 10
53.1136
 20
-4.5171
 30
0.0
 10
50.5718
 20
-5.1451
 30
0.0
 10
50.3984
 20
-5.3356
 30
0.0
 10
50.3984
 20
-5.3356
 30
0.0
 10
50.3984
 20
-5.3356
 30
0.0
 10
49.6303
 20
-5.8257
 30
0.0
 10
50.0923
 20
-6.4274
 30
0.0
 10
50.0923
 20
-6.4274
 30
0.0
 10
50.7424
 20
-7.3764
 30
0.0
 10
52.8247
 20
-7.0214
 30
0.0
 10
55.1525
 20
-7.1081
 30
0.0
 10
55.1525
 20
-7.1081
 30
0.0
 10
60.7411
 20
-8.1238
 30
0.0
 10
65.1338
 20
-10.8909
 30
0.0
 10
66.9335
 20
-13.8023
 30
0.0
 10
66.9335
 20
-13.8023
 30
0.0
 10
66.9335
 20
-13.8023
 30
0.0
 10
66.9335
 20
20.3642
 30
0.0
 10
66.9335
 20
20.3642
 30
0.0
  0
SPLINE
  5
59
330
1F
100
AcDbEntity
  8
layer 1
 62
     7
370
    50
100
AcDbSpline
210
0.0
220
0.0
230
1.0
 70
    11
 71
     3
 72
    36
 73
    32
 74
     0
 42
0.0000000001
 43
0.0000000001
 12
1.0
 22
0.0
 32
0.0
 13
1.0
 23
0.0
 33
0.0
 40
0.0
 40
0.0
 40
0.0
 40
0.0
 40
0.1111111111111111
 40
0.1111111111111111
 40
0.1111111111111111
 40
0.1111111111111111
 40
0.2222222222222222
 40
0.2222222222222222
 40
0.2222222222222222
 40
0.2222222222222222
 40
0.3333333333333333
 40
0.3333333333333333
 40
0.3333333333333333
 40
0.3333333333333333
 40
0.4444444444444444
 40
0.4444444444444444
 40
0.4444444444444444
 40
0.4444444444444444
 40
0.5555555555555556
 40
0.5555555555555556
 40
0.5555555555555556
 40
0.5555555555555556
 40
0.6666666666666666
 40
0.6666666666666666
 40
0.6666666666666666
 40
0.6666666666666666
 40
0.7777777777777778
 40
0.7777777777777778
 40
0.7777777777777778
 40
0.7777777777777778
 40
1.0
 40
1.0
 40
1.0
 40
1.0
 10
51.9222
 20
38.897
 30
0.0
 10
55.1456
 20
44.6362
 30
0.0
 10
51.2576
 20
47.9841
 30
0.0
 10
49.1661
 20
48.4423
 30
0.0
 10
49.1661
 20
48.4423
 30
0.0
 10
48.7262
 20
47.1559
 30
0.0
 10
48.425
 20
45.963
 30
0.0
 10
48.5247
 20
44.2294
 30
0.0
 10
48.5247
 20
44.2294
 30
0.0
 10
45.3115
 20
47.9629
 30
0.0
 10
43.0863
 20
49.981
 30
0.0
 10
37.7182
 20
50.9029
 30
0.0
 10
37.7182
 20
50.9029
 30
0.0
 10
35.4184
 20
51.2455
 30
0.0
 10
32.9449
 20
49.3994
 30
0.0
 10
37.2299
 20
48.0674
 30
0.0
 10
37.2299
 20
48.0674
 30
0.0
 10
41.8436
 20
46.8774
 30
0.0
 10
45.0005
 20
43.3095
 30
0.0
 10
46.5889
 20
39.0428
 30
0.0
 10
46.5889
 20
39.0428
 30
0.0
 10
47.4271
 20
36.289
 30
0.0
 10
47.6948
 20
34.4431
 30
0.0
 10
47.6515
 20
32.3006
 30
0.0
 10
47.6515
 20
32.3006
 30
0.0
 10
54.2516
 20
30.7097
 30
0.0
 10
61.1125
 20
36.6419
 30
0.0
 10
57.1618
 20
41.9901
 30
0.0
 10
57.1618
 20
41.9901
 30
0.0
 10
55.7889
 20
39.1194
 30
0.0
 10
54.1264
 20
38.202
 30
0.0
 10
51.9222
 20
38.897
 30
0.0
  0
ELLIPSE
  5
5A
330
1F
100
AcDbEntity
  8
layer 1
 62
     7
370
    50
100
AcDbEllipse
 10
27.3532
 20
3.2733
 30
0.0
 11
0.0
 21
2.447
 31
0.0
210
0.0
220
0.0
230
1.0
 40
0.9999591336330199
 41
0.0
 42
6.283185307179586
  0
SPLINE
  5
5B
330
1F
100
AcDbEntity
  8
layer 1
 62
     7
370
    50
100
AcDbSpline
210
0.0
220
0.0
230
1.0
 70
    11
 71
     3
 72
    36
 73
    32
 74
     0
 42
0.0000000001
 43
0.0000000001
 12
1.0
 22
0.0
 32
0.0
 13
1.0
 23
0.0
 33
0.0
 40
0.0
 40
0.0
 40
0.0
 40
0.0
 40
0.1111111111111111
 40
0.1111111111111111
 40
0.1111111111111111
 40
0.1111111111111111
 40
0.2222222222222222
 40
0.2222222222222222
 40
0.2222222222222222
 40
0.2222222222222222
 40
0.3333333333333333
 40
0.3333333333333333
 40
0.3333333333333333
 40
0.3333333333333333
 40
0.4444444444444444
 40
0.4444444444444444
 40
0.4444444444444444
 40
0.4444444444444444
 40
0.5555555555555556
 40
0.5555555555555556
 40
0.5555555555555556
 40
0.5555555555555556
 40
0.6666666666666666
 40
0.6666666666666666
 40
0.6666666666666666
 40
0.6666666666666666
 40
0.7777777777777778
 40
0.7777777777777778
 40
0.7777777777777778
 40
0.7777777777777778
 40
1.0
 40
1.0
 40
1.0
 40
1.0
 10
47.7026
 20
4.6331
 30
0.0
 10
47.7026
 20
4.6331
 30
0.0
 10
39.0534
 20
4.6331
 30
0.0
 10
39.0534
 20
4.6331
 30
0.0
 10
39.0534
 20
4.6331
 30
0.0
 10
38.2971
 20
4.6331
 30
0.0
 10
37.6784
 20
4.0144
 30
0.0
 10
37.6784
 20
3.2581
 30
0.0
 10
37.6784
 20
3.2581
 30
0.0
 10
37.6784
 20
3.2581
 30
0.0
 10
37.6784
 20
3.2581
 30
0.0
 10
37.6784
 20
3.2581
 30
0.0
 10
37.6784
 20
3.2581
 30
0.0
 10
37.6784
 20
2.5017
 30
0.0
 10
38.2971
 20
1.883
 30
0.0
 10
39.0534
 20
1.883
 30
0.0
 10
39.0534
 20
1.883
 30
0.0
 10
39.0534
 20
1.883
 30
0.0
 10
47.7026
 20
1.883
 30
0.0
 10
47.7026
 20
1.883
 30
0.0
 10
47.7026
 20
1.883
 30
0.0
 10
48.459
 20
1.883
 30
0.0
 10
49.0777
 20
2.5017
 30
0.0
 10
49.0777
 20
3.2581
 30
0.0
 10
49.0777
 20
3.2581
 30
0.0
 10
49.0777
 20
3.2581
 30
0.0
 10
49.0777
 20
3.2581
 30
0.0
 10
49.0777
 20
3.2581
 30
0.0
 10
49.0777
 20
3.2581
 30
0.0
 10
49.0777
 20
4.0144
 30
0.0
 10
48.459
 20
4.6331
 30
0.0
 10
47.7026
 20
4.6331
 30
0.0
  0
SPLINE
  5
5C
330
1F
100
AcDbEntity
  8
layer 1
 62
     7
370
    50
100
AcDbSpline
210
0.0
220
0.0
230
1.0
 70
    11
 71
     3
 72
    36
 73
    32
 74
     0
 42
0.0000000001
 43
0.0000000001
 12
1.0
 22
0.0
 32
0.0
 13
1.0
 23
0.0
 33
0.0
 40
0.0
 40
0.0
 40
0.0
 40
0.0
 40
0.1111111111111111
 40
0.1111111111111111
 40
0.1111111111111111
 40
0.1111111111111111
 40
0.2222222222222222
 40
0.2222222222222222
 40
0.2222222222222222
 40
0.2222222222222222
 40
0.3333333333333333
 40
0.3333333333333333
 40
0.3333333333333333
 40
0.3333333333333333
 40
0.4444444444444444
 40
0.4444444444444444
 40
0.4444444444444444
 40
0.4444444444444444
 40
0.5555555555555556
 40
0.5555555555555556
 40
0.5555555555555556
 40
0.5555555555555556
 40
0.6666666666666666
 40
0.6666666666666666
 40
0.6666666666666666
 40
0.6666666666666666
 40
0.7777777777777778
 40
0.7777777777777778
 40
0.7777777777777778
 40
0.7777777777777778
 40
1.0
 40
1.0
 40
1.0
 40
1.0
 10
50.6673
 20
8.2799
 30
0.0
 10
50.6673
 20
8.2799
 30
0.0
 10
47.3389
 20
8.2799
 30
0.0
 10
47.3389
 20
8.2799
 30
0.0
 10
47.3389
 20
8.2799
 30
0.0
 10
47.0478
 20
8.2799
 30
0.0
 10
46.8097
 20
7.8092
 30
0.0
 10
46.8097
 20
7.2337
 30
0.0
 10
46.8097
 20
7.2337
 30
0.0
 10
46.8097
 20
7.2337
 30
0.0
 10
46.8097
 20
7.2337
 30
0.0
 10
46.8097
 20
7.2337
 30
0.0
 10
46.8097
 20
7.2337
 30
0.0
 10
46.8097
 20
6.6582
 30
0.0
 10
47.0478
 20
6.1874
 30
0.0
 10
47.3389
 20
6.1874
 30
0.0
 10
47.3389
 20
6.1874
 30
0.0
 10
47.3389
 20
6.1874
 30
0.0
 10
50.6673
 20
6.1874
 30
0.0
 10
50.6673
 20
6.1874
 30
0.0
 10
50.6673
 20
6.1874
 30
0.0
 10
50.9583
 20
6.1874
 30
0.0
 10
51.1964
 20
6.6582
 30
0.0
 10
51.1964
 20
7.2337
 30
0.0
 10
51.1964
 20
7.2337
 30
0.0
 10
51.1964
 20
7.2337
 30
0.0
 10
51.1964
 20
7.2337
 30
0.0
 10
51.1964
 20
7.2337
 30
0.0
 10
51.1964
 20
7.2337
 30
0.0
 10
51.1964
 20
7.8092
 30
0.0
 10
50.9583
 20
8.2799
 30
0.0
 10
50.6673
 20
8.2799
 30
0.0
  0
SPLINE
  5
5D
330
1F
100
AcDbEntity
  8
layer 1
 62
     7
370
    50
100
AcDbSpline
210
0.0
220
0.0
230
1.0
 70
    11
 71
     3
 72
    16
 73
    12
 74
     0
 42
0.0000000001
 43
0.0000000001
 12
1.0
 22
0.0
 32
0.0
 13
1.0
 23
0.0
 33
0.0
 40
0.0
 40
0.0
 40
0.0
 40
0.0
 40
0.25
 40
0.25
 40
0.25
 40
0.25
 40
0.5
 40
0.5
 40
0.5
 40
0.5
 40
1.0
 40
1.0
 40
1.0
 40
1.0
 10
44.3621
 20
11.4985
 30
0.0
 10
44.3621
 20
11.4985
 30
0.0
 10
33.4327
 20
11.5082
 30
0.0
 10
33.4327
 20
11.5082
 30
0.0
 10
33.4327
 20
11.5082
 30
0.0
 10
33.8961
 20
9.4419
 30
0.0
 10
35.8875
 20
6.1992
 30
0.0
 10
38.9461
 20
6.2722
 30
0.0
 10
38.9461
 20
6.2722
 30
0.0
 10
41.3877
 20
6.2526
 30
0.0
 10
44.4645
 20
8.5607
 30
0.0
 10
44.3621
 20
11.4985
 30
0.0
  0
SPLINE
  5
5E
330
1F
100
AcDbEntity
  8
layer 1
 62
     7
370
    50
100
AcDbSpline
210
0.0
220
0.0
230
1.0
 70
    11
 71
     3
 72
    56
 73
    52
 74
     0
 42
0.0000000001
 43
0.0000000001
 12
1.0
 22
0.0
 32
0.0
 13
1.0
 23
0.0
 33
0.0
 40
0.0
 40
0.0
 40
0.0
 40
0.0
 40
0.0714285714285714
 40
0.0714285714285714
 40
0.0714285714285714
 40
0.0714285714285714
 40
0.1428571428571428
 40
0.1428571428571428
 40
0.1428571428571428
 40
0.1428571428571428
 40
0.2142857142857143
 40
0.2142857142857143
 40
0.2142857142857143
 40
0.2142857142857143
 40
0.2857142857142857
 40
0.2857142857142857
 40
0.2857142857142857
 40
0.2857142857142857
 40
0.3571428571428572
 40
0.3571428571428572
 40
0.3571428571428572
 40
0.3571428571428572
 40
0.4285714285714285
 40
0.4285714285714285
 40
0.4285714285714285
 40
0.4285714285714285
 40
0.5
 40
0.5
 40
0.5
 40
0.5
 40
0.5714285714285714
 40
0.5714285714285714
 40
0.5714285714285714
 40
0.5714285714285714
 40
0.6428571428571429
 40
0.6428571428571429
 40
0.6428571428571429
 40
0.6428571428571429
 40
0.7142857142857143
 40
0.7142857142857143
 40
0.7142857142857143
 40
0.7142857142857143
 40
0.7857142857142857
 40
0.7857142857142857
 40
0.7857142857142857
 40
0.7857142857142857
 40
0.8571428571428571
 40
0.8571428571428571
 40
0.8571428571428571
 40
0.8571428571428571
 40
1.0
 40
1.0
 40
1.0
 40
1.0
 10
6.4188
 20
31.5555
 30
0.0
 10
7.1086
 20
33.7083
 30
0.0
 10
9.0905
 20
42.4741
 30
0.0
 10
13.1938
 20
45.6701
 30
0.0
 10
13.1938
 20
45.6701
 30
0.0
 10
14.4589
 20
46.6553
 30
0.0
 10
14.5661
 20
47.5729
 30
0.0
 10
14.3539
 20
48.2179
 30
0.0
 10
14.3539
 20
48.2179
 30
0.0
 10
5.3638
 20
49.6283
 30
0.0
 10
7.1822
 20
56.4468
 30
0.0
 10
9.1153
 20
57.5647
 30
0.0
 10
9.1153
 20
57.5647
 30
0.0
 10
15.3428
 20
49.6294
 30
0.0
 10
19.8332
 20
56.0365
 30
0.0
 10
12.6545
 20
59.1523
 30
0.0
 10
12.6545
 20
59.1523
 30
0.0
 10
17.9005
 20
58.366
 30
0.0
 10
20.3795
 20
62.9576
 30
0.0
 10
15.8448
 20
66.2539
 30
0.0
 10
15.8448
 20
66.2539
 30
0.0
 10
10.3109
 20
69.7969
 30
0.0
 10
6.6654
 20
73.7895
 30
0.0
 10
5.1825
 20
81.8985
 30
0.0
 10
5.1825
 20
81.8985
 30
0.0
 10
3.8314
 20
73.6577
 30
0.0
 10
-0.5237
 20
69.1761
 30
0.0
 10
-5.5303
 20
65.8967
 30
0.0
 10
-5.5303
 20
65.8967
 30
0.0
 10
-9.1423
 20
62.7982
 30
0.0
 10
-7.2692
 20
58.366
 30
0.0
 10
-2.0232
 20
59.1523
 30
0.0
 10
-2.0232
 20
59.1523
 30
0.0
 10
-9.2018
 20
56.0365
 30
0.0
 10
-4.7114
 20
49.6294
 30
0.0
 10
1.5161
 20
57.5647
 30
0.0
 10
1.5161
 20
57.5647
 30
0.0
 10
3.4492
 20
56.4468
 30
0.0
 10
5.2676
 20
49.6283
 30
0.0
 10
-3.7225
 20
48.2179
 30
0.0
 10
-3.7225
 20
48.2179
 30
0.0
 10
-3.9348
 20
47.5729
 30
0.0
 10
-3.8275
 20
46.6553
 30
0.0
 10
-2.5625
 20
45.6701
 30
0.0
 10
-2.5625
 20
45.6701
 30
0.0
 10
1.2844
 20
42.6739
 30
0.0
 10
3.44
 20
34.3647
 30
0.0
 10
4.2441
 20
31.6069
 30
0.0
 10
4.2441
 20
31.6069
 30
0.0
 10
4.4969
 20
31.4496
 30
0.0
 10
6.119
 20
31.4418
 30
0.0
 10
6.4188
 20
31.5555
 30
0.0
  0
SPLINE
  5
5F
330
1F
100
AcDbEntity
  8
layer 1
 62
     7
370
    50
100
AcDbSpline
210
0.0
220
0.0
230
1.0
 70
    11
 71
     3
 72
    44
 73
    40
 74
     0
 42
0.0000000001
 43
0.0000000001
 12
1.0
 22
0.0
 32
0.0
 13
1.0
 23
0.0
 33
0.0
 40
0.0
 40
0.0
 40
0.0
 40
0.0
 40
0.0909090909090909
 40
0.0909090909090909
 40
0.0909090909090909
 40
0.0909090909090909
 40
0.1818181818181818
 40
0.1818181818181818
 40
0.1818181818181818
 40
0.1818181818181818
 40
0.2727272727272727
 40
0.2727272727272727
 40
0.2727272727272727
 40
0.2727272727272727
 40
0.3636363636363636
 40
0.3636363636363636
 40
0.3636363636363636
 40
0.3636363636363636
 40
0.4545454545454545
 40
0.4545454545454545
 40
0.4545454545454545
 40
0.4545454545454545
 40
0.5454545454545454
 40
0.5454545454545454
 40
0.5454545454545454
 40
0.5454545454545454
 40
0.6363636363636364
 40
0.6363636363636364
 40
0.6363636363636364
 40
0.6363636363636364
 40
0.7272727272727273
 40
0.7272727272727273
 40
0.7272727272727273
 40
0.7272727272727273
 40
0.8181818181818182
 40
0.8181818181818182
 40
0.8181818181818182
 40
0.8181818181818182
 40
1.0
 40
1.0
 40
1.0
 40
1.0
 10
-20.7381
 20
96.2055
 30
0.0
 10
-11.2002
 20
97.609
 30
0.0
 10
-3.5762
 20
92.8992
 30
0.0
 10
-3.1527
 20
83.8438
 30
0.0
 10
-3.1527
 20
83.8438
 30
0.0
 10
-2.4398
 20
73.9782
 30
0.0
 10
-12.5959
 20
66.5284
 30
0.0
 10
-16.649
 20
72.7685
 30
0.0
 10
-16.649
 20
72.7685
 30
0.0
 10
-3.4499
 20
81.7091
 30
0.0
 10
-27.6749
 20
90.4123
 30
0.0
 10
-21.4206
 20
72.0466
 30
0.0
 10
-21.4206
 20
72.0466
 30
0.0
 10
-19.8229
 20
69.0928
 30
0.0
 10
-17.7625
 20
67.018
 30
0.0
 10
-14.8179
 20
66.3905
 30
0.0
 10
-14.8179
 20
66.3905
 30
0.0
 10
-15.4171
 20
63.5306
 30
0.0
 10
-14.9943
 20
60.7603
 30
0.0
 10
-15.1531
 20
57.4098
 30
0.0
 10
-15.1531
 20
57.4098
 30
0.0
 10
-19.8872
 20
57.3692
 30
0.0
 10
-30.1626
 20
64.7021
 30
0.0
 10
-27.6987
 20
80.835
 30
0.0
 10
-27.6987
 20
80.835
 30
0.0
 10
-31.855
 20
80.7752
 30
0.0
 10
-32.8483
 20
77.4517
 30
0.0
 10
-34.0024
 20
74.7631
 30
0.0
 10
-34.0024
 20
74.7631
 30
0.0
 10
-37.2516
 20
90.3691
 30
0.0
 10
-21.8411
 20
94.0395
 30
0.0
 10
-16.2492
 20
87.3874
 30
0.0
 10
-16.2492
 20
87.3874
 30
0.0
 10
-16.3581
 20
89.7862
 30
0.0
 10
-17.1624
 20
92.7947
 30
0.0
 10
-19.8646
 20
94.1883
 30
0.0
 10
-19.8646
 20
94.1883
 30
0.0
 10
-20.5244
 20
94.5286
 30
0.0
 10
-20.9722
 20
95.5587
 30
0.0
 10
-20.7381
 20
96.2055
 30
0.0
  0
SPLINE
  5
60
330
1F
100
AcDbEntity
  8
layer 1
 62
     7
370
    50
100
AcDbSpline
210
0.0
220
0.0
230
1.0
 70
    11
 71
     3
 72
    20
 73
    16
 74
     0
 42
0.0000000001
 43
0.0000000001
 12
1.0
 22
0.0
 32
0.0
 13
1.0
 23
0.0
 33
0.0
 40
0.0
 40
0.0
 40
0.0
 40
0.0
 40
0.2
 40
0.2
 40
0.2
 40
0.2
 40
0.4
 40
0.4
 40
0.4
 40
0.4
 40
0.6
 40
0.6
 40
0.6
 40
0.6
 40
1.0
 40
1.0
 40
1.0
 40
1.0
 10
-55.7533
 20
-98.9752
 30
0.0
 10
-55.7533
 20
-98.9752
 30
0.0
 10
-34.7099
 20
-98.9752
 30
0.0
 10
-34.7099
 20
-98.9752
 30
0.0
 10
-34.7099
 20
-98.9752
 30
0.0
 10
-38.7989
 20
-96.8808
 30
0.0
 10
-40.7936
 20
-93.4899
 30
0.0
 10
-41.7909
 20
-88.5033
 30
0.0
 10
-41.7909
 20
-88.5033
 30
0.0
 10
-44.4504
 20
-92.7585
 30
0.0
 10
-49.1046
 20
-95.0191
 30
0.0
 10
-55.7533
 20
-90.1988
 30
0.0
 10
-55.7533
 20
-90.1988
 30
0.0
 10
-55.7533
 20
-90.1988
 30
0.0
 10
-55.7533
 20
-98.9752
 30
0.0
 10
-55.7533
 20
-98.9752
 30
0.0
  0
SPLINE
  5
61
330
1F
100
AcDbEntity
  8
layer 1
 62
     7
370
    50
100
AcDbSpline
210
0.0
220
0.0
230
1.0
 70
    11
 71
     3
 72
    20
 73
    16
 74
     0
 42
0.0000000001
 43
0.0000000001
 12
1.0
 22
0.0
 32
0.0
 13
1.0
 23
0.0
 33
0.0
 40
0.0
 40
0.0
 40
0.0
 40
0.0
 40
0.2
 40
0.2
 40
0.2
 40
0.2
 40
0.4
 40
0.4
 40
0.4
 40
0.4
 40
0.6
 40
0.6
 40
0.6
 40
0.6
 40
1.0
 40
1.0
 40
1.0
 40
1.0
 10
-29.2746
 20
-98.9752
 30
0.0
 10
-29.2746
 20
-98.9752
 30
0.0
 10
3.3377
 20
-98.9752
 30
0.0
 10
3.3377
 20
-98.9752
 30
0.0
 10
3.3377
 20
-98.9752
 30
0.0
 10
-1.3497
 20
-90.2985
 30
0.0
 10
-10.8845
 20
-95.5134
 30
0.0
 10
-17.1073
 20
-94.7864
 30
0.0
 10
-17.1073
 20
-94.7864
 30
0.0
 10
-24.6537
 20
-95.551
 30
0.0
 10
-32.8982
 20
-90.4315
 30
0.0
 10
-36.8542
 20
-81.3226
 30
0.0
 10
-36.8542
 20
-81.3226
 30
0.0
 10
-39.7003
 20
-94.3582
 30
0.0
 10
-29.1894
 20
-88.0711
 30
0.0
 10
-29.2746
 20
-98.9752
 30
0.0
  0
SPLINE
  5
62
330
1F
100
AcDbEntity
  8
layer 1
 62
     7
370
    50
100
AcDbSpline
210
0.0
220
0.0
230
1.0
 70
    11
 71
     3
 72
    32
 73
    28
 74
     0
 42
0.0000000001
 43
0.0000000001
 12
1.0
 22
0.0
 32
0.0
 13
1.0
 23
0.0
 33
0.0
 40
0.0
 40
0.0
 40
0.0
 40
0.0
 40
0.125
 40
0.125
 40
0.125
 40
0.125
 40
0.25
 40
0.25
 40
0.25
 40
0.25
 40
0.375
 40
0.375
 40
0.375
 40
0.375
 40
0.5
 40
0.5
 40
0.5
 40
0.5
 40
0.625
 40
0.625
 40
0.625
 40
0.625
 40
0.75
 40
0.75
 40
0.75
 40
0.75
 40
1.0
 40
1.0
 40
1.0
 40
1.0
 10
-56.3021
 20
-85.6681
 30
0.0
 10
-54.5706
 20
-84.9742
 30
0.0
 10
-52.873
 20
-84.9705
 30
0.0
 10
-50.5253
 20
-86.2745
 30
0.0
 10
-50.5253
 20
-86.2745
 30
0.0
 10
-49.6986
 20
-86.7337
 30
0.0
 10
-48.2645
 20
-86.7134
 30
0.0
 10
-47.205
 20
-86.1738
 30
0.0
 10
-47.205
 20
-86.1738
 30
0.0
 10
-45.3569
 20
-83.7666
 30
0.0
 10
-42.2557
 20
-78.6662
 30
0.0
 10
-42.3157
 20
-72.2348
 30
0.0
 10
-42.3157
 20
-72.2348
 30
0.0
 10
-42.9734
 20
-72.099
 30
0.0
 10
-43.7948
 20
-71.884
 30
0.0
 10
-43.9459
 20
-72.5349
 30
0.0
 10
-43.9459
 20
-72.5349
 30
0.0
 10
-45.3493
 20
-78.5814
 30
0.0
 10
-52.2951
 20
-73.6018
 30
0.0
 10
-51.9046
 20
-82.224
 30
0.0
 10
-51.9046
 20
-82.224
 30
0.0
 10
-54.2185
 20
-82.1035
 30
0.0
 10
-54.6717
 20
-78.5992
 30
0.0
 10
-56.3021
 20
-79.3958
 30
0.0
 10
-56.3021
 20
-79.3958
 30
0.0
 10
-56.3021
 20
-79.3958
 30
0.0
 10
-56.3021
 20
-85.6681
 30
0.0
 10
-56.3021
 20
-85.6681
 30
0.0
  0
SPLINE
  5
63
330
1F
100
AcDbEntity
  8
layer 1
 62
     7
370
    50
100
AcDbSpline
210
0.0
220
0.0
230
1.0
 70
    11
 71
     3
 72
    36
 73
    32
 74
     0
 42
0.0000000001
 43
0.0000000001
 12
1.0
 22
0.0
 32
0.0
 13
1.0
 23
0.0
 33
0.0
 40
0.0
 40
0.0
 40
0.0
 40
0.0
 40
0.1111111111111111
 40
0.1111111111111111
 40
0.1111111111111111
 40
0.1111111111111111
 40
0.2222222222222222
 40
0.2222222222222222
 40
0.2222222222222222
 40
0.2222222222222222
 40
0.3333333333333333
 40
0.3333333333333333
 40
0.3333333333333333
 40
0.3333333333333333
 40
0.4444444444444444
 40
0.4444444444444444
 40
0.4444444444444444
 40
0.4444444444444444
 40
0.5555555555555556
 40
0.5555555555555556
 40
0.5555555555555556
 40
0.5555555555555556
 40
0.6666666666666666
 40
0.6666666666666666
 40
0.6666666666666666
 40
0.6666666666666666
 40
0.7777777777777778
 40
0.7777777777777778
 40
0.7777777777777778
 40
0.7777777777777778
 40
1.0
 40
1.0
 40
1.0
 40
1.0
 10
-56.1192
 20
-75.4997
 30
0.0
 10
-54.3178
 20
-71.0391
 30
0.0
 10
-47.9435
 20
-67.9504
 30
0.0
 10
-41.6607
 20
-69.2516
 30
0.0
 10
-41.6607
 20
-69.2516
 30
0.0
 10
-40.2993
 20
-66.0766
 30
0.0
 10
-34.9492
 20
-56.5433
 30
0.0
 10
-22.3943
 20
-48.3181
 30
0.0
 10
-22.3943
 20
-48.3181
 30
0.0
 10
-22.1524
 20
-48.1597
 30
0.0
 10
-21.2239
 20
-45.7741
 30
0.0
 10
-24.0896
 20
-46.5781
 30
0.0
 10
-24.0896
 20
-46.5781
 30
0.0
 10
-30.3485
 20
-48.334
 30
0.0
 10
-33.1688
 20
-53.0921
 30
0.0
 10
-36.4864
 20
-54.5727
 30
0.0
 10
-36.4864
 20
-54.5727
 30
0.0
 10
-35.1807
 20
-61.8306
 30
0.0
 10
-46.7879
 20
-58.3386
 30
0.0
 10
-42.7203
 20
-66.7415
 30
0.0
 10
-42.7203
 20
-66.7415
 30
0.0
 10
-43.7307
 20
-66.8929
 30
0.0
 10
-48.3312
 20
-67.7392
 30
0.0
 10
-48.2822
 20
-62.2078
 30
0.0
 10
-48.2822
 20
-62.2078
 30
0.0
 10
-49.4151
 20
-62.9689
 30
0.0
 10
-52.7759
 20
-63.5393
 30
0.0
 10
-56.1192
 20
-63.036
 30
0.0
 10
-56.1192
 20
-63.036
 30
0.0
 10
-56.1192
 20
-63.036
 30
0.0
 10
-56.1192
 20
-75.4997
 30
0.0
 10
-56.1192
 20
-75.4997
 30
0.0
  0
SPLINE
  5
64
330
1F
100
AcDbEntity
  8
layer 1
 62
     7
370
    50
100
AcDbSpline
210
0.0
220
0.0
230
1.0
 70
    11
 71
     3
 72
    84
 73
    80
 74
     0
 42
0.0000000001
 43
0.0000000001
 12
1.0
 22
0.0
 32
0.0
 13
1.0
 23
0.0
 33
0.0
 40
0.0
 40
0.0
 40
0.0
 40
0.0
 40
0.0476190476190476
 40
0.0476190476190476
 40
0.0476190476190476
 40
0.0476190476190476
 40
0.0952380952380952
 40
0.0952380952380952
 40
0.0952380952380952
 40
0.0952380952380952
 40
0.1428571428571428
 40
0.1428571428571428
 40
0.1428571428571428
 40
0.1428571428571428
 40
0.1904761904761905
 40
0.1904761904761905
 40
0.1904761904761905
 40
0.1904761904761905
 40
0.2380952380952381
 40
0.2380952380952381
 40
0.2380952380952381
 40
0.2380952380952381
 40
0.2857142857142857
 40
0.2857142857142857
 40
0.2857142857142857
 40
0.2857142857142857
 40
0.3333333333333333
 40
0.3333333333333333
 40
0.3333333333333333
 40
0.3333333333333333
 40
0.3809523809523809
 40
0.3809523809523809
 40
0.3809523809523809
 40
0.3809523809523809
 40
0.4285714285714285
 40
0.4285714285714285
 40
0.4285714285714285
 40
0.4285714285714285
 40
0.4761904761904762
 40
0.4761904761904762
 40
0.4761904761904762
 40
0.4761904761904762
 40
0.5238095238095238
 40
0.5238095238095238
 40
0.5238095238095238
 40
0.5238095238095238
 40
0.5714285714285714
 40
0.5714285714285714
 40
0.5714285714285714
 40
0.5714285714285714
 40
0.6190476190476191
 40
0.6190476190476191
 40
0.6190476190476191
 40
0.6190476190476191
 40
0.6666666666666666
 40
0.6666666666666666
 40
0.6666666666666666
 40
0.6666666666666666
 40
0.7142857142857143
 40
0.7142857142857143
 40
0.7142857142857143
 40
0.7142857142857143
 40
0.7619047619047619
 40
0.7619047619047619
 40
0.7619047619047619
 40
0.7619047619047619
 40
0.8095238095238095
 40
0.8095238095238095
 40
0.8095238095238095
 40
0.8095238095238095
 40
0.8571428571428571
 40
0.8571428571428571
 40
0.8571428571428571
 40
0.8571428571428571
 40
0.9047619047619048
 40
0.9047619047619048
 40
0.9047619047619048
 40
0.9047619047619048
 40
1.0
 40
1.0
 40
1.0
 40
1.0
 10
-27.462
 20
-33.5804
 30
0.0
 10
-26.4716
 20
-38.0882
 30
0.0
 10
-17.4874
 20
-39.6864
 30
0.0
 10
-11.8139
 20
-37.8213
 30
0.0
 10
-11.8139
 20
-37.8213
 30
0.0
 10
-7.1478
 20
-36.4429
 30
0.0
 10
-2.1518
 20
-31.1566
 30
0.0
 10
-1.4179
 20
-24.9668
 30
0.0
 10
-1.4179
 20
-24.9668
 30
0.0
 10
-1.1477
 20
-22.6873
 30
0.0
 10
-2.6349
 20
-22.198
 30
0.0
 10
-2.6348
 20
-22.1979
 30
0.0
 10
-2.6348
 20
-22.1979
 30
0.0
 10
-12.0155
 20
-37.6018
 30
0.0
 10
-18.2259
 20
-26.1127
 30
0.0
 10
-15.9515
 20
-19.2986
 30
0.0
 10
-15.9515
 20
-19.2986
 30
0.0
 10
-14.6442
 20
-18.9091
 30
0.0
 10
-12.3479
 20
-22.6368
 30
0.0
 10
-11.9276
 20
-22.3713
 30
0.0
 10
-11.9276
 20
-22.3713
 30
0.0
 10
-11.3133
 20
-21.9834
 30
0.0
 10
-12.7781
 20
-17.7911
 30
0.0
 10
-11.2785
 20
-18.764
 30
0.0
 10
-11.2785
 20
-18.764
 30
0.0
 10
-7.6084
 20
-22.7022
 30
0.0
 10
-1.5641
 20
-19.0453
 30
0.0
 10
-2.5567
 20
-16.0249
 30
0.0
 10
-2.5567
 20
-16.0249
 30
0.0
 10
-5.2889
 20
-16.1266
 30
0.0
 10
-6.9721
 20
-15.9392
 30
0.0
 10
-7.9703
 20
-13.8703
 30
0.0
 10
-7.9703
 20
-13.8703
 30
0.0
 10
-5.0087
 20
-14.6732
 30
0.0
 10
-1.2596
 20
-7.56
 30
0.0
 10
-9.081
 20
-2.2962
 30
0.0
 10
-9.081
 20
-2.2962
 30
0.0
 10
-11.3413
 20
-2.1356
 30
0.0
 10
-15.7648
 20
-9.8955
 30
0.0
 10
-9.7884
 20
-11.0479
 30
0.0
 10
-9.7884
 20
-11.0479
 30
0.0
 10
-10.2049
 20
-11.1801
 30
0.0
 10
-10.7715
 20
-12.9935
 30
0.0
 10
-12.913
 20
-12.5636
 30
0.0
 10
-12.913
 20
-12.5636
 30
0.0
 10
-12.5184
 20
-14.6176
 30
0.0
 10
-13.8898
 20
-15.4312
 30
0.0
 10
-14.3037
 20
-15.3392
 30
0.0
 10
-14.3037
 20
-15.3392
 30
0.0
 10
-20.699
 20
-14.6539
 30
0.0
 10
-15.0136
 20
-6.5273
 30
0.0
 10
-17.4792
 20
-6.7035
 30
0.0
 10
-17.4792
 20
-6.7035
 30
0.0
 10
-18.2529
 20
-5.9167
 30
0.0
 10
-21.915
 20
-12.3176
 30
0.0
 10
-26.2057
 20
-11.4565
 30
0.0
 10
-26.2057
 20
-11.4565
 30
0.0
 10
-33.3821
 20
-10.0162
 30
0.0
 10
-33.263
 20
-18.4478
 30
0.0
 10
-30.7257
 20
-19.2108
 30
0.0
 10
-30.7257
 20
-19.2108
 30
0.0
 10
-20.5498
 20
-14.4509
 30
0.0
 10
-17.7899
 20
-26.4871
 30
0.0
 10
-20.2018
 20
-29.1735
 30
0.0
 10
-20.2018
 20
-29.1735
 30
0.0
 10
-21.8037
 20
-24.8782
 30
0.0
 10
-22.9285
 20
-24.2344
 30
0.0
 10
-24.8536
 20
-23.7064
 30
0.0
 10
-24.8536
 20
-23.7064
 30
0.0
 10
-26.9611
 20
-22.9528
 30
0.0
 10
-30.1003
 20
-25.2741
 30
0.0
 10
-28.3152
 20
-26.2774
 30
0.0
 10
-28.3152
 20
-26.2774
 30
0.0
 10
-27.1545
 20
-25.3641
 30
0.0
 10
-24.1813
 20
-25.7823
 30
0.0
 10
-23.253
 20
-28.1336
 30
0.0
 10
-23.253
 20
-28.1336
 30
0.0
 10
-28.3779
 20
-29.0014
 30
0.0
 10
-27.7909
 20
-31.3976
 30
0.0
 10
-27.462
 20
-33.5804
 30
0.0
  0
SPLINE
  5
65
330
1F
100
AcDbEntity
  8
layer 1
 62
     7
370
    50
100
AcDbSpline
210
0.0
220
0.0
230
1.0
 70
    11
 71
     3
 72
    44
 73
    40
 74
     0
 42
0.0000000001
 43
0.0000000001
 12
1.0
 22
0.0
 32
0.0
 13
1.0
 23
0.0
 33
0.0
 40
0.0
 40
0.0
 40
0.0
 40
0.0
 40
0.0909090909090909
 40
0.0909090909090909
 40
0.0909090909090909
 40
0.0909090909090909
 40
0.1818181818181818
 40
0.1818181818181818
 40
0.1818181818181818
 40
0.1818181818181818
 40
0.2727272727272727
 40
0.2727272727272727
 40
0.2727272727272727
 40
0.2727272727272727
 40
0.3636363636363636
 40
0.3636363636363636
 40
0.3636363636363636
 40
0.3636363636363636
 40
0.4545454545454545
 40
0.4545454545454545
 40
0.4545454545454545
 40
0.4545454545454545
 40
0.5454545454545454
 40
0.5454545454545454
 40
0.5454545454545454
 40
0.5454545454545454
 40
0.6363636363636364
 40
0.6363636363636364
 40
0.6363636363636364
 40
0.6363636363636364
 40
0.7272727272727273
 40
0.7272727272727273
 40
0.7272727272727273
 40
0.7272727272727273
 40
0.8181818181818182
 40
0.8181818181818182
 40
0.8181818181818182
 40
0.8181818181818182
 40
1.0
 40
1.0
 40
1.0
 40
1.0
 10
-56.1671
 20
-61.4342
 30
0.0
 10
-54.9082
 20
-59.5252
 30
0.0
 10
-53.4955
 20
-57.8894
 30
0.0
 10
-50.7954
 20
-56.5052
 30
0.0
 10
-50.7954
 20
-56.5052
 30
0.0
 10
-55.222
 20
-51.6991
 30
0.0
 10
-50.6271
 20
-49.3836
 30
0.0
 10
-49.5677
 20
-48.844
 30
0.0
 10
-49.5677
 20
-48.844
 30
0.0
 10
-47.902
 20
-57.8019
 30
0.0
 10
-41.3666
 20
-49.7991
 30
0.0
 10
-37.1608
 20
-53.7544
 30
0.0
 10
-37.1608
 20
-53.7544
 30
0.0
 10
-35.6907
 20
-52.0732
 30
0.0
 10
-34.669
 20
-50.2131
 30
0.0
 10
-34.6877
 20
-48.2034
 30
0.0
 10
-34.6877
 20
-48.2034
 30
0.0
 10
-40.2852
 20
-49.4821
 30
0.0
 10
-45.8676
 20
-49.2459
 30
0.0
 10
-49.3541
 20
-45.5468
 30
0.0
 10
-49.3541
 20
-45.5468
 30
0.0
 10
-48.7382
 20
-44.5239
 30
0.0
 10
-46.4604
 20
-45.5088
 30
0.0
 10
-46.5292
 20
-44.8577
 30
0.0
 10
-46.5292
 20
-44.8577
 30
0.0
 10
-45.5459
 20
-44.7963
 30
0.0
 10
-46.3982
 20
-44.0344
 30
0.0
 10
-46.7762
 20
-43.9061
 30
0.0
 10
-46.7762
 20
-43.9061
 30
0.0
 10
-51.7786
 20
-42.2073
 30
0.0
 10
-53.5414
 20
-38.5481
 30
0.0
 10
-55.1172
 20
-35.6188
 30
0.0
 10
-55.1172
 20
-35.6188
 30
0.0
 10
-55.4334
 20
-35.031
 30
0.0
 10
-55.8878
 20
-35.9991
 30
0.0
 10
-56.1671
 20
-35.3831
 30
0.0
 10
-56.1671
 20
-35.3831
 30
0.0
 10
-56.1671
 20
-35.3831
 30
0.0
 10
-56.1671
 20
-61.4342
 30
0.0
 10
-56.1671
 20
-61.4342
 30
0.0
  0
SPLINE
  5
66
330
1F
100
AcDbEntity
  8
layer 1
 62
     7
370
    50
100
AcDbSpline
210
0.0
220
0.0
230
1.0
 70
    11
 71
     3
 72
    60
 73
    56
 74
     0
 42
0.0000000001
 43
0.0000000001
 12
1.0
 22
0.0
 32
0.0
 13
1.0
 23
0.0
 33
0.0
 40
0.0
 40
0.0
 40
0.0
 40
0.0
 40
0.0666666666666667
 40
0.0666666666666667
 40
0.0666666666666667
 40
0.0666666666666667
 40
0.1333333333333333
 40
0.1333333333333333
 40
0.1333333333333333
 40
0.1333333333333333
 40
0.2
 40
0.2
 40
0.2
 40
0.2
 40
0.2666666666666667
 40
0.2666666666666667
 40
0.2666666666666667
 40
0.2666666666666667
 40
0.3333333333333333
 40
0.3333333333333333
 40
0.3333333333333333
 40
0.3333333333333333
 40
0.4
 40
0.4
 40
0.4
 40
0.4
 40
0.4666666666666667
 40
0.4666666666666667
 40
0.4666666666666667
 40
0.4666666666666667
 40
0.5333333333333333
 40
0.5333333333333333
 40
0.5333333333333333
 40
0.5333333333333333
 40
0.6
 40
0.6
 40
0.6
 40
0.6
 40
0.6666666666666666
 40
0.6666666666666666
 40
0.6666666666666666
 40
0.6666666666666666
 40
0.7333333333333333
 40
0.7333333333333333
 40
0.7333333333333333
 40
0.7333333333333333
 40
0.8
 40
0.8
 40
0.8
 40
0.8
 40
0.8666666666666667
 40
0.8666666666666667
 40
0.8666666666666667
 40
0.8666666666666667
 40
1.0
 40
1.0
 40
1.0
 40
1.0
 10
-56.1671
 20
-30.4736
 30
0.0
 10
-54.1434
 20
-30.2244
 30
0.0
 10
-52.1891
 20
-30.3119
 30
0.0
 10
-50.1899
 20
-31.9597
 30
0.0
 10
-50.1899
 20
-31.9597
 30
0.0
 10
-50.2899
 20
-30.7435
 30
0.0
 10
-49.9834
 20
-30.1636
 30
0.0
 10
-50.0149
 20
-29.5287
 30
0.0
 10
-50.0149
 20
-29.5287
 30
0.0
 10
-51.3604
 20
-27.9652
 30
0.0
 10
-49.5138
 20
-26.36
 30
0.0
 10
-51.7183
 20
-22.6523
 30
0.0
 10
-51.7183
 20
-22.6523
 30
0.0
 10
-50.5674
 20
-22.2971
 30
0.0
 10
-50.0164
 20
-24.0608
 30
0.0
 10
-47.5013
 20
-24.2431
 30
0.0
 10
-47.5013
 20
-24.2431
 30
0.0
 10
-44.218
 20
-20.3123
 30
0.0
 10
-37.2134
 20
-21.9434
 30
0.0
 10
-36.2489
 20
-23.437
 30
0.0
 10
-36.2489
 20
-23.437
 30
0.0
 10
-35.7483
 20
-21.4702
 30
0.0
 10
-34.4605
 20
-20.8625
 30
0.0
 10
-34.0273
 20
-20.0382
 30
0.0
 10
-34.0273
 20
-20.0382
 30
0.0
 10
-34.9344
 20
-18.1821
 30
0.0
 10
-36.4092
 20
-15.8526
 30
0.0
 10
-37.4795
 20
-15.1656
 30
0.0
 10
-37.4795
 20
-15.1656
 30
0.0
 10
-38.6169
 20
-15.4019
 30
0.0
 10
-39.2114
 20
-16.525
 30
0.0
 10
-39.5309
 20
-17.5298
 30
0.0
 10
-39.5309
 20
-17.5298
 30
0.0
 10
-41.6199
 20
-14.6251
 30
0.0
 10
-40.3553
 20
-11.9337
 30
0.0
 10
-40.1776
 20
-10.3092
 30
0.0
 10
-40.1776
 20
-10.3092
 30
0.0
 10
-42.1107
 20
-10.3396
 30
0.0
 10
-43.4336
 20
-10.2393
 30
0.0
 10
-45.1591
 20
-10.1628
 30
0.0
 10
-45.1591
 20
-10.1628
 30
0.0
 10
-46.9478
 20
-10.8992
 30
0.0
 10
-46.9083
 20
-11.6374
 30
0.0
 10
-47.8914
 20
-11.8922
 30
0.0
 10
-47.8914
 20
-11.8922
 30
0.0
 10
-40.8972
 20
-19.154
 30
0.0
 10
-53.2548
 20
-23.9286
 30
0.0
 10
-55.1172
 20
-16.2757
 30
0.0
 10
-55.1172
 20
-16.2757
 30
0.0
 10
-55.275
 20
-15.6274
 30
0.0
 10
-55.8878
 20
-15.6985
 30
0.0
 10
-56.1671
 20
-16.0401
 30
0.0
 10
-56.1671
 20
-16.0401
 30
0.0
 10
-56.1671
 20
-16.0401
 30
0.0
 10
-56.1671
 20
-30.4736
 30
0.0
 10
-56.1671
 20
-30.4736
 30
0.0
  0
SPLINE
  5
67
330
1F
100
AcDbEntity
  8
layer 1
 62
     7
370
    50
100
AcDbSpline
210
0.0
220
0.0
230
1.0
 70
    11
 71
     3
 72
    72
 73
    68
 74
     0
 42
0.0000000001
 43
0.0000000001
 12
1.0
 22
0.0
 32
0.0
 13
1.0
 23
0.0
 33
0.0
 40
0.0
 40
0.0
 40
0.0
 40
0.0
 40
0.0555555555555556
 40
0.0555555555555556
 40
0.0555555555555556
 40
0.0555555555555556
 40
0.1111111111111111
 40
0.1111111111111111
 40
0.1111111111111111
 40
0.1111111111111111
 40
0.1666666666666667
 40
0.1666666666666667
 40
0.1666666666666667
 40
0.1666666666666667
 40
0.2222222222222222
 40
0.2222222222222222
 40
0.2222222222222222
 40
0.2222222222222222
 40
0.2777777777777778
 40
0.2777777777777778
 40
0.2777777777777778
 40
0.2777777777777778
 40
0.3333333333333333
 40
0.3333333333333333
 40
0.3333333333333333
 40
0.3333333333333333
 40
0.3888888888888889
 40
0.3888888888888889
 40
0.3888888888888889
 40
0.3888888888888889
 40
0.4444444444444444
 40
0.4444444444444444
 40
0.4444444444444444
 40
0.4444444444444444
 40
0.5
 40
0.5
 40
0.5
 40
0.5
 40
0.5555555555555556
 40
0.5555555555555556
 40
0.5555555555555556
 40
0.5555555555555556
 40
0.6111111111111112
 40
0.6111111111111112
 40
0.6111111111111112
 40
0.6111111111111112
 40
0.6666666666666666
 40
0.6666666666666666
 40
0.6666666666666666
 40
0.6666666666666666
 40
0.7222222222222222
 40
0.7222222222222222
 40
0.7222222222222222
 40
0.7222222222222222
 40
0.7777777777777778
 40
0.7777777777777778
 40
0.7777777777777778
 40
0.7777777777777778
 40
0.8333333333333334
 40
0.8333333333333334
 40
0.8333333333333334
 40
0.8333333333333334
 40
0.8888888888888888
 40
0.8888888888888888
 40
0.8888888888888888
 40
0.8888888888888888
 40
1.0
 40
1.0
 40
1.0
 40
1.0
 10
-54.5288
 20
3.1789
 30
0.0
 10
-53.93
 20
2.3187
 30
0.0
 10
-51.0482
 20
1.4069
 30
0.0
 10
-50.1277
 20
0.7533
 30
0.0
 10
-50.1277
 20
0.7533
 30
0.0
 10
-49.2631
 20
0.1392
 30
0.0
 10
-49.7934
 20
-0.2275
 30
0.0
 10
-48.785
 20
-0.7142
 30
0.0
 10
-48.785
 20
-0.7142
 30
0.0
 10
-47.234
 20
-2.0418
 30
0.0
 10
-46.0288
 20
-2.5232
 30
0.0
 10
-44.4954
 20
-2.7803
 30
0.0
 10
-44.4954
 20
-2.7803
 30
0.0
 10
-44.0978
 20
-2.9365
 30
0.0
 10
-44.8614
 20
-4.6403
 30
0.0
 10
-44.4739
 20
-4.6203
 30
0.0
 10
-44.4739
 20
-4.6203
 30
0.0
 10
-42.4822
 20
-4.5171
 30
0.0
 10
-39.9404
 20
-5.1451
 30
0.0
 10
-39.7671
 20
-5.3356
 30
0.0
 10
-39.7671
 20
-5.3356
 30
0.0
 10
-39.7671
 20
-5.3356
 30
0.0
 10
-38.999
 20
-5.8257
 30
0.0
 10
-39.4609
 20
-6.4274
 30
0.0
 10
-39.4609
 20
-6.4274
 30
0.0
 10
-40.111
 20
-7.3764
 30
0.0
 10
-42.1933
 20
-7.0214
 30
0.0
 10
-44.5211
 20
-7.1081
 30
0.0
 10
-44.5211
 20
-7.1081
 30
0.0
 10
-50.1097
 20
-8.1238
 30
0.0
 10
-54.5024
 20
-10.8909
 30
0.0
 10
-56.3021
 20
-13.8023
 30
0.0
 10
-56.3021
 20
-13.8023
 30
0.0
 10
-56.3021
 20
-13.8023
 30
0.0
 10
-56.3021
 20
20.3642
 30
0.0
 10
-56.3021
 20
20.3642
 30
0.0
 10
-56.3021
 20
20.3642
 30
0.0
 10
-54.5024
 20
17.4528
 30
0.0
 10
-50.1097
 20
14.6857
 30
0.0
 10
-44.5211
 20
13.6699
 30
0.0
 10
-44.5211
 20
13.6699
 30
0.0
 10
-42.1933
 20
13.5833
 30
0.0
 10
-40.111
 20
13.9382
 30
0.0
 10
-39.4609
 20
12.9892
 30
0.0
 10
-39.4609
 20
12.9892
 30
0.0
 10
-38.999
 20
12.3875
 30
0.0
 10
-39.7671
 20
11.8974
 30
0.0
 10
-39.7671
 20
11.8974
 30
0.0
 10
-39.7671
 20
11.8974
 30
0.0
 10
-39.9404
 20
11.707
 30
0.0
 10
-42.4822
 20
11.079
 30
0.0
 10
-44.4739
 20
11.1822
 30
0.0
 10
-44.4739
 20
11.1822
 30
0.0
 10
-44.8614
 20
11.2022
 30
0.0
 10
-44.0978
 20
9.4983
 30
0.0
 10
-44.4954
 20
9.3421
 30
0.0
 10
-44.4954
 20
9.3421
 30
0.0
 10
-46.0288
 20
9.085
 30
0.0
 10
-47.234
 20
8.6037
 30
0.0
 10
-48.785
 20
7.2761
 30
0.0
 10
-48.785
 20
7.2761
 30
0.0
 10
-49.7934
 20
6.7893
 30
0.0
 10
-49.2631
 20
6.4225
 30
0.0
 10
-50.1277
 20
5.8086
 30
0.0
 10
-50.1277
 20
5.8086
 30
0.0
 10
-51.0481
 20
5.155
 30
0.0
 10
-53.93
 20
4.0392
 30
0.0
 10
-54.5288
 20
3.1789
 30
0.0
  0
SPLINE
  5
68
330
1F
100
AcDbEntity
  8
layer 1
 62
     7
370
    50
100
AcDbSpline
210
0.0
220
0.0
230
1.0
 70
    11
 71
     3
 72
    36
 73
    32
 74
     0
 42
0.0000000001
 43
0.0000000001
 12
1.0
 22
0.0
 32
0.0
 13
1.0
 23
0.0
 33
0.0
 40
0.0
 40
0.0
 40
0.0
 40
0.0
 40
0.1111111111111111
 40
0.1111111111111111
 40
0.1111111111111111
 40
0.1111111111111111
 40
0.2222222222222222
 40
0.2222222222222222
 40
0.2222222222222222
 40
0.2222222222222222
 40
0.3333333333333333
 40
0.3333333333333333
 40
0.3333333333333333
 40
0.3333333333333333
 40
0.4444444444444444
 40
0.4444444444444444
 40
0.4444444444444444
 40
0.4444444444444444
 40
0.5555555555555556
 40
0.5555555555555556
 40
0.5555555555555556
 40
0.5555555555555556
 40
0.6666666666666666
 40
0.6666666666666666
 40
0.6666666666666666
 40
0.6666666666666666
 40
0.7777777777777778
 40
0.7777777777777778
 40
0.7777777777777778
 40
0.7777777777777778
 40
1.0
 40
1.0
 40
1.0
 40
1.0
 10
-41.2908
 20
-32.3351
 30
0.0
 10
-44.5142
 20
-38.0743
 30
0.0
 10
-40.6262
 20
-41.4223
 30
0.0
 10
-38.5348
 20
-41.8804
 30
0.0
 10
-38.5348
 20
-41.8804
 30
0.0
 10
-38.0949
 20
-40.5941
 30
0.0
 10
-37.7936
 20
-39.4012
 30
0.0
 10
-37.8933
 20
-37.6676
 30
0.0
 10
-37.8933
 20
-37.6676
 30
0.0
 10
-34.6802
 20
-41.401
 30
0.0
 10
-32.4549
 20
-43.4191
 30
0.0
 10
-27.0868
 20
-44.341
 30
0.0
 10
-27.0868
 20
-44.341
 30
0.0
 10
-24.787
 20
-44.6837
 30
0.0
 10
-22.3135
 20
-42.8375
 30
0.0
 10
-26.5985
 20
-41.5056
 30
0.0
 10
-26.5985
 20
-41.5056
 30
0.0
 10
-31.2122
 20
-40.3156
 30
0.0
 10
-34.3691
 20
-36.7477
 30
0.0
 10
-35.9576
 20
-32.481
 30
0.0
 10
-35.9576
 20
-32.481
 30
0.0
 10
-36.7957
 20
-29.7272
 30
0.0
 10
-37.0634
 20
-27.8813
 30
0.0
 10
-37.0201
 20
-25.7387
 30
0.0
 10
-37.0201
 20
-25.7387
 30
0.0
 10
-43.6202
 20
-24.1478
 30
0.0
 10
-50.4812
 20
-30.0801
 30
0.0
 10
-46.5305
 20
-35.4283
 30
0.0
 10
-46.5305
 20
-35.4283
 30
0.0
 10
-45.1576
 20
-32.5575
 30
0.0
 10
-43.4951
 20
-31.6402
 30
0.0
 10
-41.2908
 20
-32.3351
 30
0.0
  0
ELLIPSE
  5
69
330
1F
100
AcDbEntity
  8
layer 1
 62
     7
370
    50
100
AcDbEllipse
 10
-16.7218
 20
3.2885
 30
0.0
 11
2.447
 21
0.0
 31
0.0
210
0.0
220
0.0
230
1.0
 40
0.9999591336330199
 41
0.0
 42
6.283185307179586
  0
SPLINE
  5
6A
330
1F
100
AcDbEntity
  8
layer 1
 62
     7
370
    50
100
AcDbSpline
210
0.0
220
0.0
230
1.0
 70
    11
 71
     3
 72
    36
 73
    32
 74
     0
 42
0.0000000001
 43
0.0000000001
 12
1.0
 22
0.0
 32
0.0
 13
1.0
 23
0.0
 33
0.0
 40
0.0
 40
0.0
 40
0.0
 40
0.0
 40
0.1111111111111111
 40
0.1111111111111111
 40
0.1111111111111111
 40
0.1111111111111111
 40
0.2222222222222222
 40
0.2222222222222222
 40
0.2222222222222222
 40
0.2222222222222222
 40
0.3333333333333333
 40
0.3333333333333333
 40
0.3333333333333333
 40
0.3333333333333333
 40
0.4444444444444444
 40
0.4444444444444444
 40
0.4444444444444444
 40
0.4444444444444444
 40
0.5555555555555556
 40
0.5555555555555556
 40
0.5555555555555556
 40
0.5555555555555556
 40
0.6666666666666666
 40
0.6666666666666666
 40
0.6666666666666666
 40
0.6666666666666666
 40
0.7777777777777778
 40
0.7777777777777778
 40
0.7777777777777778
 40
0.7777777777777778
 40
1.0
 40
1.0
 40
1.0
 40
1.0
 10
-37.0713
 20
1.9287
 30
0.0
 10
-37.0713
 20
1.9287
 30
0.0
 10
-28.422
 20
1.9287
 30
0.0
 10
-28.422
 20
1.9287
 30
0.0
 10
-28.422
 20
1.9287
 30
0.0
 10
-27.6657
 20
1.9287
 30
0.0
 10
-27.047
 20
2.5475
 30
0.0
 10
-27.047
 20
3.3038
 30
0.0
 10
-27.047
 20
3.3038
 30
0.0
 10
-27.047
 20
3.3038
 30
0.0
 10
-27.047
 20
3.3038
 30
0.0
 10
-27.047
 20
3.3038
 30
0.0
 10
-27.047
 20
3.3038
 30
0.0
 10
-27.047
 20
4.0601
 30
0.0
 10
-27.6657
 20
4.6788
 30
0.0
 10
-28.422
 20
4.6788
 30
0.0
 10
-28.422
 20
4.6788
 30
0.0
 10
-28.422
 20
4.6788
 30
0.0
 10
-37.0713
 20
4.6788
 30
0.0
 10
-37.0713
 20
4.6788
 30
0.0
 10
-37.0713
 20
4.6788
 30
0.0
 10
-37.8276
 20
4.6788
 30
0.0
 10
-38.4463
 20
4.0601
 30
0.0
 10
-38.4463
 20
3.3038
 30
0.0
 10
-38.4463
 20
3.3038
 30
0.0
 10
-38.4463
 20
3.3038
 30
0.0
 10
-38.4463
 20
3.3038
 30
0.0
 10
-38.4463
 20
3.3038
 30
0.0
 10
-38.4463
 20
3.3038
 30
0.0
 10
-38.4463
 20
2.5475
 30
0.0
 10
-37.8276
 20
1.9287
 30
0.0
 10
-37.0713
 20
1.9287
 30
0.0
  0
SPLINE
  5
6B
330
1F
100
AcDbEntity
  8
layer 1
 62
     7
370
    50
100
AcDbSpline
210
0.0
220
0.0
230
1.0
 70
    11
 71
     3
 72
    36
 73
    32
 74
     0
 42
0.0000000001
 43
0.0000000001
 12
1.0
 22
0.0
 32
0.0
 13
1.0
 23
0.0
 33
0.0
 40
0.0
 40
0.0
 40
0.0
 40
0.0
 40
0.1111111111111111
 40
0.1111111111111111
 40
0.1111111111111111
 40
0.1111111111111111
 40
0.2222222222222222
 40
0.2222222222222222
 40
0.2222222222222222
 40
0.2222222222222222
 40
0.3333333333333333
 40
0.3333333333333333
 40
0.3333333333333333
 40
0.3333333333333333
 40
0.4444444444444444
 40
0.4444444444444444
 40
0.4444444444444444
 40
0.4444444444444444
 40
0.5555555555555556
 40
0.5555555555555556
 40
0.5555555555555556
 40
0.5555555555555556
 40
0.6666666666666666
 40
0.6666666666666666
 40
0.6666666666666666
 40
0.6666666666666666
 40
0.7777777777777778
 40
0.7777777777777778
 40
0.7777777777777778
 40
0.7777777777777778
 40
1.0
 40
1.0
 40
1.0
 40
1.0
 10
-40.0359
 20
-1.7181
 30
0.0
 10
-40.0359
 20
-1.7181
 30
0.0
 10
-36.7075
 20
-1.7181
 30
0.0
 10
-36.7075
 20
-1.7181
 30
0.0
 10
-36.7075
 20
-1.7181
 30
0.0
 10
-36.4164
 20
-1.7181
 30
0.0
 10
-36.1783
 20
-1.2473
 30
0.0
 10
-36.1783
 20
-0.6718
 30
0.0
 10
-36.1783
 20
-0.6718
 30
0.0
 10
-36.1783
 20
-0.6718
 30
0.0
 10
-36.1783
 20
-0.6718
 30
0.0
 10
-36.1783
 20
-0.6718
 30
0.0
 10
-36.1783
 20
-0.6718
 30
0.0
 10
-36.1783
 20
-0.0964
 30
0.0
 10
-36.4164
 20
0.3744
 30
0.0
 10
-36.7075
 20
0.3744
 30
0.0
 10
-36.7075
 20
0.3744
 30
0.0
 10
-36.7075
 20
0.3744
 30
0.0
 10
-40.0359
 20
0.3744
 30
0.0
 10
-40.0359
 20
0.3744
 30
0.0
 10
-40.0359
 20
0.3744
 30
0.0
 10
-40.327
 20
0.3744
 30
0.0
 10
-40.5651
 20
-0.0964
 30
0.0
 10
-40.5651
 20
-0.6718
 30
0.0
 10
-40.5651
 20
-0.6718
 30
0.0
 10
-40.5651
 20
-0.6718
 30
0.0
 10
-40.5651
 20
-0.6718
 30
0.0
 10
-40.5651
 20
-0.6718
 30
0.0
 10
-40.5651
 20
-0.6718
 30
0.0
 10
-40.5651
 20
-1.2473
 30
0.0
 10
-40.327
 20
-1.7181
 30
0.0
 10
-40.0359
 20
-1.7181
 30
0.0
  0
SPLINE
  5
6C
330
1F
100
AcDbEntity
  8
layer 1
 62
     7
370
    50
100
AcDbSpline
210
0.0
220
0.0
230
1.0
 70
    11
 71
     3
 72
    16
 73
    12
 74
     0
 42
0.0000000001
 43
0.0000000001
 12
1.0
 22
0.0
 32
0.0
 13
1.0
 23
0.0
 33
0.0
 40
0.0
 40
0.0
 40
0.0
 40
0.0
 40
0.25
 40
0.25
 40
0.25
 40
0.25
 40
0.5
 40
0.5
 40
0.5
 40
0.5
 40
1.0
 40
1.0
 40
1.0
 40
1.0
 10
-33.7308
 20
-4.9366
 30
0.0
 10
-33.7308
 20
-4.9366
 30
0.0
 10
-22.8014
 20
-4.9464
 30
0.0
 10
-22.8014
 20
-4.9464
 30
0.0
 10
-22.8014
 20
-4.9464
 30
0.0
 10
-23.2647
 20
-2.88
 30
0.0
 10
-25.2562
 20
0.3626
 30
0.0
 10
-28.3148
 20
0.2896
 30
0.0
 10
-28.3148
 20
0.2896
 30
0.0
 10
-30.7564
 20
0.3092
 30
0.0
 10
-33.8331
 20
-1.9988
 30
0.0
 10
-33.7308
 20
-4.9366
 30
0.0
  0
SPLINE
  5
6D
330
1F
100
AcDbEntity
  8
layer 1
 62
     7
370
    50
100
AcDbSpline
210
0.0
220
0.0
230
1.0
 70
    11
 71
     3
 72
    20
 73
    16
 74
     0
 42
0.0000000001
 43
0.0000000001
 12
1.0
 22
0.0
 32
0.0
 13
1.0
 23
0.0
 33
0.0
 40
0.0
 40
0.0
 40
0.0
 40
0.0
 40
0.2
 40
0.2
 40
0.2
 40
0.2
 40
0.4
 40
0.4
 40
0.4
 40
0.4
 40
0.6
 40
0.6
 40
0.6
 40
0.6
 40
1.0
 40
1.0
 40
1.0
 40
1.0
 10
5.2864
 20
-79.7037
 30
0.0
 10
3.5553
 20
-85.1063
 30
0.0
 10
2.6843
 20
-86.9782
 30
0.0
 10
-0.0818
 20
-89.4806
 30
0.0
 10
-0.0818
 20
-89.4806
 30
0.0
 10
2.7192
 20
-90.1976
 30
0.0
 10
4.1541
 20
-91.4979
 30
0.0
 10
5.3632
 20
-94.2526
 30
0.0
 10
5.3632
 20
-94.2526
 30
0.0
 10
6.5723
 20
-91.4979
 30
0.0
 10
7.9121
 20
-90.1976
 30
0.0
 10
10.7132
 20
-89.4806
 30
0.0
 10
10.7132
 20
-89.4806
 30
0.0
 10
7.9471
 20
-86.9782
 30
0.0
 10
7.0176
 20
-85.1063
 30
0.0
 10
5.2864
 20
-79.7037
 30
0.0
  0
SPLINE
  5
6E
330
1F
100
AcDbEntity
  8
layer 1
 62
     7
370
    50
100
AcDbSpline
210
0.0
220
0.0
230
1.0
 70
    11
 71
     3
 72
    20
 73
    16
 74
     0
 42
0.0000000001
 43
0.0000000001
 12
1.0
 22
0.0
 32
0.0
 13
1.0
 23
0.0
 33
0.0
 40
0.0
 40
0.0
 40
0.0
 40
0.0
 40
0.2
 40
0.2
 40
0.2
 40
0.2
 40
0.4
 40
0.4
 40
0.4
 40
0.4
 40
0.6
 40
0.6
 40
0.6
 40
0.6
 40
1.0
 40
1.0
 40
1.0
 40
1.0
 10
66.3847
 20
-98.9752
 30
0.0
 10
66.3847
 20
-98.9752
 30
0.0
 10
45.3413
 20
-98.9752
 30
0.0
 10
45.3413
 20
-98.9752
 30
0.0
 10
45.3413
 20
-98.9752
 30
0.0
 10
49.4303
 20
-96.8808
 30
0.0
 10
51.4249
 20
-93.4899
 30
0.0
 10
52.4223
 20
-88.5033
 30
0.0
 10
52.4223
 20
-88.5033
 30
0.0
 10
55.0818
 20
-92.7585
 30
0.0
 10
59.7359
 20
-95.0191
 30
0.0
 10
66.3847
 20
-90.1988
 30
0.0
 10
66.3847
 20
-90.1988
 30
0.0
 10
66.3847
 20
-90.1988
 30
0.0
 10
66.3847
 20
-98.9752
 30
0.0
 10
66.3847
 20
-98.9752
 30
0.0
  0
SPLINE
  5
6F
330
1F
100
AcDbEntity
  8
layer 1
 62
     7
370
    50
100
AcDbSpline
210
0.0
220
0.0
230
1.0
 70
    11
 71
     3
 72
    20
 73
    16
 74
     0
 42
0.0000000001
 43
0.0000000001
 12
1.0
 22
0.0
 32
0.0
 13
1.0
 23
0.0
 33
0.0
 40
0.0
 40
0.0
 40
0.0
 40
0.0
 40
0.2
 40
0.2
 40
0.2
 40
0.2
 40
0.4
 40
0.4
 40
0.4
 40
0.4
 40
0.6
 40
0.6
 40
0.6
 40
0.6
 40
1.0
 40
1.0
 40
1.0
 40
1.0
 10
39.906
 20
-98.9752
 30
0.0
 10
39.906
 20
-98.9752
 30
0.0
 10
7.2937
 20
-98.9752
 30
0.0
 10
7.2937
 20
-98.9752
 30
0.0
 10
7.2937
 20
-98.9752
 30
0.0
 10
11.9811
 20
-90.2985
 30
0.0
 10
21.5159
 20
-95.5134
 30
0.0
 10
27.7387
 20
-94.7864
 30
0.0
 10
27.7387
 20
-94.7864
 30
0.0
 10
35.2851
 20
-95.551
 30
0.0
 10
43.5296
 20
-90.4315
 30
0.0
 10
47.4856
 20
-81.3226
 30
0.0
 10
47.4856
 20
-81.3226
 30
0.0
 10
50.3317
 20
-94.3582
 30
0.0
 10
39.8208
 20
-88.0711
 30
0.0
 10
39.906
 20
-98.9752
 30
0.0
  0
SPLINE
  5
70
330
1F
100
AcDbEntity
  8
layer 1
 62
     7
370
    50
100
AcDbSpline
210
0.0
220
0.0
230
1.0
 70
    11
 71
     3
 72
    44
 73
    40
 74
     0
 42
0.0000000001
 43
0.0000000001
 12
1.0
 22
0.0
 32
0.0
 13
1.0
 23
0.0
 33
0.0
 40
0.0
 40
0.0
 40
0.0
 40
0.0
 40
0.0909090909090909
 40
0.0909090909090909
 40
0.0909090909090909
 40
0.0909090909090909
 40
0.1818181818181818
 40
0.1818181818181818
 40
0.1818181818181818
 40
0.1818181818181818
 40
0.2727272727272727
 40
0.2727272727272727
 40
0.2727272727272727
 40
0.2727272727272727
 40
0.3636363636363636
 40
0.3636363636363636
 40
0.3636363636363636
 40
0.3636363636363636
 40
0.4545454545454545
 40
0.4545454545454545
 40
0.4545454545454545
 40
0.4545454545454545
 40
0.5454545454545454
 40
0.5454545454545454
 40
0.5454545454545454
 40
0.5454545454545454
 40
0.6363636363636364
 40
0.6363636363636364
 40
0.6363636363636364
 40
0.6363636363636364
 40
0.7272727272727273
 40
0.7272727272727273
 40
0.7272727272727273
 40
0.7272727272727273
 40
0.8181818181818182
 40
0.8181818181818182
 40
0.8181818181818182
 40
0.8181818181818182
 40
1.0
 40
1.0
 40
1.0
 40
1.0
 10
31.3842
 20
-89.6503
 30
0.0
 10
21.8464
 20
-91.0538
 30
0.0
 10
14.2224
 20
-86.3441
 30
0.0
 10
13.7989
 20
-77.2886
 30
0.0
 10
13.7989
 20
-77.2886
 30
0.0
 10
13.086
 20
-67.423
 30
0.0
 10
23.2421
 20
-59.9732
 30
0.0
 10
27.2952
 20
-66.2133
 30
0.0
 10
27.2952
 20
-66.2133
 30
0.0
 10
14.0961
 20
-75.1539
 30
0.0
 10
38.321
 20
-83.8571
 30
0.0
 10
32.0668
 20
-65.4914
 30
0.0
 10
32.0668
 20
-65.4914
 30
0.0
 10
30.4691
 20
-62.5376
 30
0.0
 10
28.4087
 20
-60.4629
 30
0.0
 10
25.464
 20
-59.8353
 30
0.0
 10
25.464
 20
-59.8353
 30
0.0
 10
26.0633
 20
-56.9754
 30
0.0
 10
25.6404
 20
-54.2052
 30
0.0
 10
25.7992
 20
-50.8546
 30
0.0
 10
25.7992
 20
-50.8546
 30
0.0
 10
30.5334
 20
-50.814
 30
0.0
 10
40.8088
 20
-58.147
 30
0.0
 10
38.3448
 20
-74.2798
 30
0.0
 10
38.3448
 20
-74.2798
 30
0.0
 10
42.5012
 20
-74.22
 30
0.0
 10
43.4944
 20
-70.8965
 30
0.0
 10
44.6486
 20
-68.208
 30
0.0
 10
44.6486
 20
-68.208
 30
0.0
 10
47.8977
 20
-83.8139
 30
0.0
 10
32.4872
 20
-87.4844
 30
0.0
 10
26.8954
 20
-80.8322
 30
0.0
 10
26.8954
 20
-80.8322
 30
0.0
 10
27.0043
 20
-83.231
 30
0.0
 10
27.8085
 20
-86.2395
 30
0.0
 10
30.5107
 20
-87.6332
 30
0.0
 10
30.5107
 20
-87.6332
 30
0.0
 10
31.1705
 20
-87.9734
 30
0.0
 10
31.6184
 20
-89.0036
 30
0.0
 10
31.3842
 20
-89.6503
 30
0.0
  0
SPLINE
  5
71
330
1F
100
AcDbEntity
  8
layer 1
 62
     7
370
    50
100
AcDbSpline
210
0.0
220
0.0
230
1.0
 70
    11
 71
     3
 72
    32
 73
    28
 74
     0
 42
0.0000000001
 43
0.0000000001
 12
1.0
 22
0.0
 32
0.0
 13
1.0
 23
0.0
 33
0.0
 40
0.0
 40
0.0
 40
0.0
 40
0.0
 40
0.125
 40
0.125
 40
0.125
 40
0.125
 40
0.25
 40
0.25
 40
0.25
 40
0.25
 40
0.375
 40
0.375
 40
0.375
 40
0.375
 40
0.5
 40
0.5
 40
0.5
 40
0.5
 40
0.625
 40
0.625
 40
0.625
 40
0.625
 40
0.75
 40
0.75
 40
0.75
 40
0.75
 40
1.0
 40
1.0
 40
1.0
 40
1.0
 10
66.9335
 20
-85.6681
 30
0.0
 10
65.202
 20
-84.9742
 30
0.0
 10
63.5044
 20
-84.9705
 30
0.0
 10
61.1567
 20
-86.2745
 30
0.0
 10
61.1567
 20
-86.2745
 30
0.0
 10
60.33
 20
-86.7337
 30
0.0
 10
58.8958
 20
-86.7134
 30
0.0
 10
57.8364
 20
-86.1738
 30
0.0
 10
57.8364
 20
-86.1738
 30
0.0
 10
55.9882
 20
-83.7666
 30
0.0
 10
52.8871
 20
-78.6662
 30
0.0
 10
52.947
 20
-72.2348
 30
0.0
 10
52.947
 20
-72.2348
 30
0.0
 10
53.6048
 20
-72.099
 30
0.0
 10
54.4262
 20
-71.884
 30
0.0
 10
54.5773
 20
-72.5349
 30
0.0
 10
54.5773
 20
-72.5349
 30
0.0
 10
55.9807
 20
-78.5814
 30
0.0
 10
62.9265
 20
-73.6018
 30
0.0
 10
62.536
 20
-82.224
 30
0.0
 10
62.536
 20
-82.224
 30
0.0
 10
64.8498
 20
-82.1035
 30
0.0
 10
65.303
 20
-78.5992
 30
0.0
 10
66.9335
 20
-79.3958
 30
0.0
 10
66.9335
 20
-79.3958
 30
0.0
 10
66.9335
 20
-79.3958
 30
0.0
 10
66.9335
 20
-85.6681
 30
0.0
 10
66.9335
 20
-85.6681
 30
0.0
  0
SPLINE
  5
72
330
1F
100
AcDbEntity
  8
layer 1
 62
     7
370
    50
100
AcDbSpline
210
0.0
220
0.0
230
1.0
 70
    11
 71
     3
 72
    36
 73
    32
 74
     0
 42
0.0000000001
 43
0.0000000001
 12
1.0
 22
0.0
 32
0.0
 13
1.0
 23
0.0
 33
0.0
 40
0.0
 40
0.0
 40
0.0
 40
0.0
 40
0.1111111111111111
 40
0.1111111111111111
 40
0.1111111111111111
 40
0.1111111111111111
 40
0.2222222222222222
 40
0.2222222222222222
 40
0.2222222222222222
 40
0.2222222222222222
 40
0.3333333333333333
 40
0.3333333333333333
 40
0.3333333333333333
 40
0.3333333333333333
 40
0.4444444444444444
 40
0.4444444444444444
 40
0.4444444444444444
 40
0.4444444444444444
 40
0.5555555555555556
 40
0.5555555555555556
 40
0.5555555555555556
 40
0.5555555555555556
 40
0.6666666666666666
 40
0.6666666666666666
 40
0.6666666666666666
 40
0.6666666666666666
 40
0.7777777777777778
 40
0.7777777777777778
 40
0.7777777777777778
 40
0.7777777777777778
 40
1.0
 40
1.0
 40
1.0
 40
1.0
 10
66.7505
 20
-75.4997
 30
0.0
 10
64.9491
 20
-71.0391
 30
0.0
 10
58.5749
 20
-67.9504
 30
0.0
 10
52.292
 20
-69.2516
 30
0.0
 10
52.292
 20
-69.2516
 30
0.0
 10
50.9306
 20
-66.0766
 30
0.0
 10
45.5805
 20
-56.5433
 30
0.0
 10
33.0257
 20
-48.3181
 30
0.0
 10
33.0257
 20
-48.3181
 30
0.0
 10
32.7838
 20
-48.1597
 30
0.0
 10
31.8553
 20
-45.7741
 30
0.0
 10
34.721
 20
-46.5781
 30
0.0
 10
34.721
 20
-46.5781
 30
0.0
 10
40.9798
 20
-48.334
 30
0.0
 10
43.8002
 20
-53.0921
 30
0.0
 10
47.1177
 20
-54.5727
 30
0.0
 10
47.1177
 20
-54.5727
 30
0.0
 10
45.8121
 20
-61.8306
 30
0.0
 10
57.4193
 20
-58.3386
 30
0.0
 10
53.3516
 20
-66.7415
 30
0.0
 10
53.3516
 20
-66.7415
 30
0.0
 10
54.362
 20
-66.8929
 30
0.0
 10
58.9626
 20
-67.7392
 30
0.0
 10
58.9135
 20
-62.2078
 30
0.0
 10
58.9135
 20
-62.2078
 30
0.0
 10
60.0464
 20
-62.9689
 30
0.0
 10
63.4073
 20
-63.5393
 30
0.0
 10
66.7505
 20
-63.036
 30
0.0
 10
66.7505
 20
-63.036
 30
0.0
 10
66.7505
 20
-63.036
 30
0.0
 10
66.7505
 20
-75.4997
 30
0.0
 10
66.7505
 20
-75.4997
 30
0.0
  0
SPLINE
  5
73
330
1F
100
AcDbEntity
  8
layer 1
 62
     7
370
    50
100
AcDbSpline
210
0.0
220
0.0
230
1.0
 70
    11
 71
     3
 72
    84
 73
    80
 74
     0
 42
0.0000000001
 43
0.0000000001
 12
1.0
 22
0.0
 32
0.0
 13
1.0
 23
0.0
 33
0.0
 40
0.0
 40
0.0
 40
0.0
 40
0.0
 40
0.0476190476190476
 40
0.0476190476190476
 40
0.0476190476190476
 40
0.0476190476190476
 40
0.0952380952380952
 40
0.0952380952380952
 40
0.0952380952380952
 40
0.0952380952380952
 40
0.1428571428571428
 40
0.1428571428571428
 40
0.1428571428571428
 40
0.1428571428571428
 40
0.1904761904761905
 40
0.1904761904761905
 40
0.1904761904761905
 40
0.1904761904761905
 40
0.2380952380952381
 40
0.2380952380952381
 40
0.2380952380952381
 40
0.2380952380952381
 40
0.2857142857142857
 40
0.2857142857142857
 40
0.2857142857142857
 40
0.2857142857142857
 40
0.3333333333333333
 40
0.3333333333333333
 40
0.3333333333333333
 40
0.3333333333333333
 40
0.3809523809523809
 40
0.3809523809523809
 40
0.3809523809523809
 40
0.3809523809523809
 40
0.4285714285714285
 40
0.4285714285714285
 40
0.4285714285714285
 40
0.4285714285714285
 40
0.4761904761904762
 40
0.4761904761904762
 40
0.4761904761904762
 40
0.4761904761904762
 40
0.5238095238095238
 40
0.5238095238095238
 40
0.5238095238095238
 40
0.5238095238095238
 40
0.5714285714285714
 40
0.5714285714285714
 40
0.5714285714285714
 40
0.5714285714285714
 40
0.6190476190476191
 40
0.6190476190476191
 40
0.6190476190476191
 40
0.6190476190476191
 40
0.6666666666666666
 40
0.6666666666666666
 40
0.6666666666666666
 40
0.6666666666666666
 40
0.7142857142857143
 40
0.7142857142857143
 40
0.7142857142857143
 40
0.7142857142857143
 40
0.7619047619047619
 40
0.7619047619047619
 40
0.7619047619047619
 40
0.7619047619047619
 40
0.8095238095238095
 40
0.8095238095238095
 40
0.8095238095238095
 40
0.8095238095238095
 40
0.8571428571428571
 40
0.8571428571428571
 40
0.8571428571428571
 40
0.8571428571428571
 40
0.9047619047619048
 40
0.9047619047619048
 40
0.9047619047619048
 40
0.9047619047619048
 40
1.0
 40
1.0
 40
1.0
 40
1.0
 10
38.0933
 20
-33.5804
 30
0.0
 10
37.1029
 20
-38.0882
 30
0.0
 10
28.1188
 20
-39.6864
 30
0.0
 10
22.4452
 20
-37.8213
 30
0.0
 10
22.4452
 20
-37.8213
 30
0.0
 10
17.7792
 20
-36.4429
 30
0.0
 10
12.7832
 20
-31.1566
 30
0.0
 10
12.0493
 20
-24.9668
 30
0.0
 10
12.0493
 20
-24.9668
 30
0.0
 10
11.779
 20
-22.6873
 30
0.0
 10
13.2662
 20
-22.198
 30
0.0
 10
13.2661
 20
-22.1979
 30
0.0
 10
13.2661
 20
-22.1979
 30
0.0
 10
22.6469
 20
-37.6018
 30
0.0
 10
28.8572
 20
-26.1127
 30
0.0
 10
26.5829
 20
-19.2986
 30
0.0
 10
26.5829
 20
-19.2986
 30
0.0
 10
25.2755
 20
-18.9091
 30
0.0
 10
22.9792
 20
-22.6368
 30
0.0
 10
22.559
 20
-22.3713
 30
0.0
 10
22.559
 20
-22.3713
 30
0.0
 10
21.9446
 20
-21.9834
 30
0.0
 10
23.4094
 20
-17.7911
 30
0.0
 10
21.9098
 20
-18.764
 30
0.0
 10
21.9098
 20
-18.764
 30
0.0
 10
18.2398
 20
-22.7022
 30
0.0
 10
12.1955
 20
-19.0453
 30
0.0
 10
13.1881
 20
-16.0249
 30
0.0
 10
13.1881
 20
-16.0249
 30
0.0
 10
15.9203
 20
-16.1266
 30
0.0
 10
17.6034
 20
-15.9392
 30
0.0
 10
18.6017
 20
-13.8703
 30
0.0
 10
18.6017
 20
-13.8703
 30
0.0
 10
15.64
 20
-14.6732
 30
0.0
 10
11.891
 20
-7.56
 30
0.0
 10
19.7124
 20
-2.2962
 30
0.0
 10
19.7124
 20
-2.2962
 30
0.0
 10
21.9726
 20
-2.1356
 30
0.0
 10
26.3962
 20
-9.8955
 30
0.0
 10
20.4197
 20
-11.0479
 30
0.0
 10
20.4197
 20
-11.0479
 30
0.0
 10
20.8363
 20
-11.1801
 30
0.0
 10
21.4028
 20
-12.9935
 30
0.0
 10
23.5443
 20
-12.5636
 30
0.0
 10
23.5443
 20
-12.5636
 30
0.0
 10
23.1497
 20
-14.6176
 30
0.0
 10
24.5212
 20
-15.4312
 30
0.0
 10
24.935
 20
-15.3392
 30
0.0
 10
24.935
 20
-15.3392
 30
0.0
 10
31.3304
 20
-14.6539
 30
0.0
 10
25.645
 20
-6.5273
 30
0.0
 10
28.1105
 20
-6.7035
 30
0.0
 10
28.1105
 20
-6.7035
 30
0.0
 10
28.8842
 20
-5.9167
 30
0.0
 10
32.5464
 20
-12.3176
 30
0.0
 10
36.8371
 20
-11.4565
 30
0.0
 10
36.8371
 20
-11.4565
 30
0.0
 10
44.0135
 20
-10.0162
 30
0.0
 10
43.8943
 20
-18.4478
 30
0.0
 10
41.3571
 20
-19.2108
 30
0.0
 10
41.3571
 20
-19.2108
 30
0.0
 10
31.1811
 20
-14.4509
 30
0.0
 10
28.4213
 20
-26.4871
 30
0.0
 10
30.8331
 20
-29.1735
 30
0.0
 10
30.8331
 20
-29.1735
 30
0.0
 10
32.4351
 20
-24.8782
 30
0.0
 10
33.5599
 20
-24.2344
 30
0.0
 10
35.485
 20
-23.7064
 30
0.0
 10
35.485
 20
-23.7064
 30
0.0
 10
37.5925
 20
-22.9528
 30
0.0
 10
40.7316
 20
-25.2741
 30
0.0
 10
38.9466
 20
-26.2774
 30
0.0
 10
38.9466
 20
-26.2774
 30
0.0
 10
37.7859
 20
-25.3641
 30
0.0
 10
34.8127
 20
-25.7823
 30
0.0
 10
33.8843
 20
-28.1336
 30
0.0
 10
33.8843
 20
-28.1336
 30
0.0
 10
39.0093
 20
-29.0014
 30
0.0
 10
38.4222
 20
-31.3976
 30
0.0
 10
38.0933
 20
-33.5804
 30
0.0
  0
SPLINE
  5
74
330
1F
100
AcDbEntity
  8
layer 1
 62
     7
370
    50
100
AcDbSpline
210
0.0
220
0.0
230
1.0
 70
    11
 71
     3
 72
    44
 73
    40
 74
     0
 42
0.0000000001
 43
0.0000000001
 12
1.0
 22
0.0
 32
0.0
 13
1.0
 23
0.0
 33
0.0
 40
0.0
 40
0.0
 40
0.0
 40
0.0
 40
0.0909090909090909
 40
0.0909090909090909
 40
0.0909090909090909
 40
0.0909090909090909
 40
0.1818181818181818
 40
0.1818181818181818
 40
0.1818181818181818
 40
0.1818181818181818
 40
0.2727272727272727
 40
0.2727272727272727
 40
0.2727272727272727
 40
0.2727272727272727
 40
0.3636363636363636
 40
0.3636363636363636
 40
0.3636363636363636
 40
0.3636363636363636
 40
0.4545454545454545
 40
0.4545454545454545
 40
0.4545454545454545
 40
0.4545454545454545
 40
0.5454545454545454
 40
0.5454545454545454
 40
0.5454545454545454
 40
0.5454545454545454
 40
0.6363636363636364
 40
0.6363636363636364
 40
0.6363636363636364
 40
0.6363636363636364
 40
0.7272727272727273
 40
0.7272727272727273
 40
0.7272727272727273
 40
0.7272727272727273
 40
0.8181818181818182
 40
0.8181818181818182
 40
0.8181818181818182
 40
0.8181818181818182
 40
1.0
 40
1.0
 40
1.0
 40
1.0
 10
66.7984
 20
-61.4342
 30
0.0
 10
65.5395
 20
-59.5252
 30
0.0
 10
64.1269
 20
-57.8894
 30
0.0
 10
61.4267
 20
-56.5052
 30
0.0
 10
61.4267
 20
-56.5052
 30
0.0
 10
65.8534
 20
-51.6991
 30
0.0
 10
61.2585
 20
-49.3836
 30
0.0
 10
60.199
 20
-48.844
 30
0.0
 10
60.199
 20
-48.844
 30
0.0
 10
58.5333
 20
-57.8019
 30
0.0
 10
51.9979
 20
-49.7991
 30
0.0
 10
47.7922
 20
-53.7544
 30
0.0
 10
47.7922
 20
-53.7544
 30
0.0
 10
46.3221
 20
-52.0732
 30
0.0
 10
45.3004
 20
-50.2131
 30
0.0
 10
45.3191
 20
-48.2034
 30
0.0
 10
45.3191
 20
-48.2034
 30
0.0
 10
50.9166
 20
-49.4821
 30
0.0
 10
56.4989
 20
-49.2459
 30
0.0
 10
59.9855
 20
-45.5468
 30
0.0
 10
59.9855
 20
-45.5468
 30
0.0
 10
59.3695
 20
-44.5239
 30
0.0
 10
57.0918
 20
-45.5088
 30
0.0
 10
57.1606
 20
-44.8577
 30
0.0
 10
57.1606
 20
-44.8577
 30
0.0
 10
56.1772
 20
-44.7963
 30
0.0
 10
57.0295
 20
-44.0344
 30
0.0
 10
57.4075
 20
-43.9061
 30
0.0
 10
57.4075
 20
-43.9061
 30
0.0
 10
62.41
 20
-42.2073
 30
0.0
 10
64.1728
 20
-38.5481
 30
0.0
 10
65.7486
 20
-35.6188
 30
0.0
 10
65.7486
 20
-35.6188
 30
0.0
 10
66.0648
 20
-35.031
 30
0.0
 10
66.5191
 20
-35.9991
 30
0.0
 10
66.7984
 20
-35.3831
 30
0.0
 10
66.7984
 20
-35.3831
 30
0.0
 10
66.7984
 20
-35.3831
 30
0.0
 10
66.7984
 20
-61.4342
 30
0.0
 10
66.7984
 20
-61.4342
 30
0.0
  0
SPLINE
  5
75
330
1F
100
AcDbEntity
  8
layer 1
 62
     7
370
    50
100
AcDbSpline
210
0.0
220
0.0
230
1.0
 70
    11
 71
     3
 72
    60
 73
    56
 74
     0
 42
0.0000000001
 43
0.0000000001
 12
1.0
 22
0.0
 32
0.0
 13
1.0
 23
0.0
 33
0.0
 40
0.0
 40
0.0
 40
0.0
 40
0.0
 40
0.0666666666666667
 40
0.0666666666666667
 40
0.0666666666666667
 40
0.0666666666666667
 40
0.1333333333333333
 40
0.1333333333333333
 40
0.1333333333333333
 40
0.1333333333333333
 40
0.2
 40
0.2
 40
0.2
 40
0.2
 40
0.2666666666666667
 40
0.2666666666666667
 40
0.2666666666666667
 40
0.2666666666666667
 40
0.3333333333333333
 40
0.3333333333333333
 40
0.3333333333333333
 40
0.3333333333333333
 40
0.4
 40
0.4
 40
0.4
 40
0.4
 40
0.4666666666666667
 40
0.4666666666666667
 40
0.4666666666666667
 40
0.4666666666666667
 40
0.5333333333333333
 40
0.5333333333333333
 40
0.5333333333333333
 40
0.5333333333333333
 40
0.6
 40
0.6
 40
0.6
 40
0.6
 40
0.6666666666666666
 40
0.6666666666666666
 40
0.6666666666666666
 40
0.6666666666666666
 40
0.7333333333333333
 40
0.7333333333333333
 40
0.7333333333333333
 40
0.7333333333333333
 40
0.8
 40
0.8
 40
0.8
 40
0.8
 40
0.8666666666666667
 40
0.8666666666666667
 40
0.8666666666666667
 40
0.8666666666666667
 40
1.0
 40
1.0
 40
1.0
 40
1.0
 10
66.7984
 20
-30.4736
 30
0.0
 10
64.7748
 20
-30.2244
 30
0.0
 10
62.8205
 20
-30.3119
 30
0.0
 10
60.8212
 20
-31.9597
 30
0.0
 10
60.8212
 20
-31.9597
 30
0.0
 10
60.9212
 20
-30.7435
 30
0.0
 10
60.6148
 20
-30.1636
 30
0.0
 10
60.6463
 20
-29.5287
 30
0.0
 10
60.6463
 20
-29.5287
 30
0.0
 10
61.9917
 20
-27.9652
 30
0.0
 10
60.1452
 20
-26.36
 30
0.0
 10
62.3497
 20
-22.6523
 30
0.0
 10
62.3497
 20
-22.6523
 30
0.0
 10
61.1988
 20
-22.2971
 30
0.0
 10
60.6477
 20
-24.0608
 30
0.0
 10
58.1327
 20
-24.2431
 30
0.0
 10
58.1327
 20
-24.2431
 30
0.0
 10
54.8494
 20
-20.3123
 30
0.0
 10
47.8448
 20
-21.9434
 30
0.0
 10
46.8802
 20
-23.437
 30
0.0
 10
46.8802
 20
-23.437
 30
0.0
 10
46.3797
 20
-21.4702
 30
0.0
 10
45.0919
 20
-20.8625
 30
0.0
 10
44.6587
 20
-20.0382
 30
0.0
 10
44.6587
 20
-20.0382
 30
0.0
 10
45.5657
 20
-18.1821
 30
0.0
 10
47.0405
 20
-15.8526
 30
0.0
 10
48.1109
 20
-15.1656
 30
0.0
 10
48.1109
 20
-15.1656
 30
0.0
 10
49.2483
 20
-15.4019
 30
0.0
 10
49.8427
 20
-16.525
 30
0.0
 10
50.1623
 20
-17.5298
 30
0.0
 10
50.1623
 20
-17.5298
 30
0.0
 10
52.2512
 20
-14.6251
 30
0.0
 10
50.9867
 20
-11.9337
 30
0.0
 10
50.809
 20
-10.3092
 30
0.0
 10
50.809
 20
-10.3092
 30
0.0
 10
52.7421
 20
-10.3396
 30
0.0
 10
54.065
 20
-10.2393
 30
0.0
 10
55.7905
 20
-10.1628
 30
0.0
 10
55.7905
 20
-10.1628
 30
0.0
 10
57.5791
 20
-10.8992
 30
0.0
 10
57.5396
 20
-11.6374
 30
0.0
 10
58.5227
 20
-11.8922
 30
0.0
 10
58.5227
 20
-11.8922
 30
0.0
 10
51.5286
 20
-19.154
 30
0.0
 10
63.8862
 20
-23.9286
 30
0.0
 10
65.7486
 20
-16.2757
 30
0.0
 10
65.7486
 20
-16.2757
 30
0.0
 10
65.9064
 20
-15.6274
 30
0.0
 10
66.5191
 20
-15.6985
 30
0.0
 10
66.7984
 20
-16.0401
 30
0.0
 10
66.7984
 20
-16.0401
 30
0.0
 10
66.7984
 20
-16.0401
 30
0.0
 10
66.7984
 20
-30.4736
 30
0.0
 10
66.7984
 20
-30.4736
 30
0.0
  0
SPLINE
  5
76
330
1F
100
AcDbEntity
  8
layer 1
 62
     7
370
    50
100
AcDbSpline
210
0.0
220
0.0
230
1.0
 70
    11
 71
     3
 72
    36
 73
    32
 74
     0
 42
0.0000000001
 43
0.0000000001
 12
1.0
 22
0.0
 32
0.0
 13
1.0
 23
0.0
 33
0.0
 40
0.0
 40
0.0
 40
0.0
 40
0.0
 40
0.1111111111111111
 40
0.1111111111111111
 40
0.1111111111111111
 40
0.1111111111111111
 40
0.2222222222222222
 40
0.2222222222222222
 40
0.2222222222222222
 40
0.2222222222222222
 40
0.3333333333333333
 40
0.3333333333333333
 40
0.3333333333333333
 40
0.3333333333333333
 40
0.4444444444444444
 40
0.4444444444444444
 40
0.4444444444444444
 40
0.4444444444444444
 40
0.5555555555555556
 40
0.5555555555555556
 40
0.5555555555555556
 40
0.5555555555555556
 40
0.6666666666666666
 40
0.6666666666666666
 40
0.6666666666666666
 40
0.6666666666666666
 40
0.7777777777777778
 40
0.7777777777777778
 40
0.7777777777777778
 40
0.7777777777777778
 40
1.0
 40
1.0
 40
1.0
 40
1.0
 10
51.9222
 20
-32.3351
 30
0.0
 10
55.1456
 20
-38.0743
 30
0.0
 10
51.2576
 20
-41.4223
 30
0.0
 10
49.1661
 20
-41.8804
 30
0.0
 10
49.1661
 20
-41.8804
 30
0.0
 10
48.7262
 20
-40.5941
 30
0.0
 10
48.425
 20
-39.4012
 30
0.0
 10
48.5247
 20
-37.6676
 30
0.0
 10
48.5247
 20
-37.6676
 30
0.0
 10
45.3115
 20
-41.401
 30
0.0
 10
43.0863
 20
-43.4191
 30
0.0
 10
37.7182
 20
-44.341
 30
0.0
 10
37.7182
 20
-44.341
 30
0.0
 10
35.4184
 20
-44.6837
 30
0.0
 10
32.9449
 20
-42.8375
 30
0.0
 10
37.2299
 20
-41.5056
 30
0.0
 10
37.2299
 20
-41.5056
 30
0.0
 10
41.8436
 20
-40.3156
 30
0.0
 10
45.0005
 20
-36.7477
 30
0.0
 10
46.5889
 20
-32.481
 30
0.0
 10
46.5889
 20
-32.481
 30
0.0
 10
47.4271
 20
-29.7272
 30
0.0
 10
47.6948
 20
-27.8813
 30
0.0
 10
47.6515
 20
-25.7387
 30
0.0
 10
47.6515
 20
-25.7387
 30
0.0
 10
54.2516
 20
-24.1478
 30
0.0
 10
61.1125
 20
-30.0801
 30
0.0
 10
57.1618
 20
-35.4283
 30
0.0
 10
57.1618
 20
-35.4283
 30
0.0
 10
55.7889
 20
-32.5575
 30
0.0
 10
54.1264
 20
-31.6402
 30
0.0
 10
51.9222
 20
-32.3351
 30
0.0
  0
ELLIPSE
  5
77
330
1F
100
AcDbEntity
  8
layer 1
 62
     7
370
    50
100
AcDbEllipse
 10
27.3532
 20
3.2885
 30
0.0
 11
0.0
 21
2.4469
 31
0.0
210
0.0
220
0.0
230
1.0
 40
1.0
 41
0.0
 42
6.283185307179586
  0
SPLINE
  5
78
330
1F
100
AcDbEntity
  8
layer 1
 62
     7
370
    50
100
AcDbSpline
210
0.0
220
0.0
230
1.0
 70
    11
 71
     3
 72
    36
 73
    32
 74
     0
 42
0.0000000001
 43
0.0000000001
 12
1.0
 22
0.0
 32
0.0
 13
1.0
 23
0.0
 33
0.0
 40
0.0
 40
0.0
 40
0.0
 40
0.0
 40
0.1111111111111111
 40
0.1111111111111111
 40
0.1111111111111111
 40
0.1111111111111111
 40
0.2222222222222222
 40
0.2222222222222222
 40
0.2222222222222222
 40
0.2222222222222222
 40
0.3333333333333333
 40
0.3333333333333333
 40
0.3333333333333333
 40
0.3333333333333333
 40
0.4444444444444444
 40
0.4444444444444444
 40
0.4444444444444444
 40
0.4444444444444444
 40
0.5555555555555556
 40
0.5555555555555556
 40
0.5555555555555556
 40
0.5555555555555556
 40
0.6666666666666666
 40
0.6666666666666666
 40
0.6666666666666666
 40
0.6666666666666666
 40
0.7777777777777778
 40
0.7777777777777778
 40
0.7777777777777778
 40
0.7777777777777778
 40
1.0
 40
1.0
 40
1.0
 40
1.0
 10
47.7026
 20
1.9287
 30
0.0
 10
47.7026
 20
1.9287
 30
0.0
 10
39.0534
 20
1.9287
 30
0.0
 10
39.0534
 20
1.9287
 30
0.0
 10
39.0534
 20
1.9287
 30
0.0
 10
38.2971
 20
1.9287
 30
0.0
 10
37.6784
 20
2.5475
 30
0.0
 10
37.6784
 20
3.3038
 30
0.0
 10
37.6784
 20
3.3038
 30
0.0
 10
37.6784
 20
3.3038
 30
0.0
 10
37.6784
 20
3.3038
 30
0.0
 10
37.6784
 20
3.3038
 30
0.0
 10
37.6784
 20
3.3038
 30
0.0
 10
37.6784
 20
4.0601
 30
0.0
 10
38.2971
 20
4.6788
 30
0.0
 10
39.0534
 20
4.6788
 30
0.0
 10
39.0534
 20
4.6788
 30
0.0
 10
39.0534
 20
4.6788
 30
0.0
 10
47.7026
 20
4.6788
 30
0.0
 10
47.7026
 20
4.6788
 30
0.0
 10
47.7026
 20
4.6788
 30
0.0
 10
48.459
 20
4.6788
 30
0.0
 10
49.0777
 20
4.0601
 30
0.0
 10
49.0777
 20
3.3038
 30
0.0
 10
49.0777
 20
3.3038
 30
0.0
 10
49.0777
 20
3.3038
 30
0.0
 10
49.0777
 20
3.3038
 30
0.0
 10
49.0777
 20
3.3038
 30
0.0
 10
49.0777
 20
3.3038
 30
0.0
 10
49.0777
 20
2.5475
 30
0.0
 10
48.459
 20
1.9287
 30
0.0
 10
47.7026
 20
1.9287
 30
0.0
  0
SPLINE
  5
79
330
1F
100
AcDbEntity
  8
layer 1
 62
     7
370
    50
100
AcDbSpline
210
0.0
220
0.0
230
1.0
 70
    11
 71
     3
 72
    36
 73
    32
 74
     0
 42
0.0000000001
 43
0.0000000001
 12
1.0
 22
0.0
 32
0.0
 13
1.0
 23
0.0
 33
0.0
 40
0.0
 40
0.0
 40
0.0
 40
0.0
 40
0.1111111111111111
 40
0.1111111111111111
 40
0.1111111111111111
 40
0.1111111111111111
 40
0.2222222222222222
 40
0.2222222222222222
 40
0.2222222222222222
 40
0.2222222222222222
 40
0.3333333333333333
 40
0.3333333333333333
 40
0.3333333333333333
 40
0.3333333333333333
 40
0.4444444444444444
 40
0.4444444444444444
 40
0.4444444444444444
 40
0.4444444444444444
 40
0.5555555555555556
 40
0.5555555555555556
 40
0.5555555555555556
 40
0.5555555555555556
 40
0.6666666666666666
 40
0.6666666666666666
 40
0.6666666666666666
 40
0.6666666666666666
 40
0.7777777777777778
 40
0.7777777777777778
 40
0.7777777777777778
 40
0.7777777777777778
 40
1.0
 40
1.0
 40
1.0
 40
1.0
 10
50.6673
 20
-1.7181
 30
0.0
 10
50.6673
 20
-1.7181
 30
0.0
 10
47.3389
 20
-1.7181
 30
0.0
 10
47.3389
 20
-1.7181
 30
0.0
 10
47.3389
 20
-1.7181
 30
0.0
 10
47.0478
 20
-1.7181
 30
0.0
 10
46.8097
 20
-1.2473
 30
0.0
 10
46.8097
 20
-0.6718
 30
0.0
 10
46.8097
 20
-0.6718
 30
0.0
 10
46.8097
 20
-0.6718
 30
0.0
 10
46.8097
 20
-0.6718
 30
0.0
 10
46.8097
 20
-0.6718
 30
0.0
 10
46.8097
 20
-0.6718
 30
0.0
 10
46.8097
 20
-0.0964
 30
0.0
 10
47.0478
 20
0.3744
 30
0.0
 10
47.3389
 20
0.3744
 30
0.0
 10
47.3389
 20
0.3744
 30
0.0
 10
47.3389
 20
0.3744
 30
0.0
 10
50.6673
 20
0.3744
 30
0.0
 10
50.6673
 20
0.3744
 30
0.0
 10
50.6673
 20
0.3744
 30
0.0
 10
50.9583
 20
0.3744
 30
0.0
 10
51.1964
 20
-0.0964
 30
0.0
 10
51.1964
 20
-0.6718
 30
0.0
 10
51.1964
 20
-0.6718
 30
0.0
 10
51.1964
 20
-0.6718
 30
0.0
 10
51.1964
 20
-0.6718
 30
0.0
 10
51.1964
 20
-0.6718
 30
0.0
 10
51.1964
 20
-0.6718
 30
0.0
 10
51.1964
 20
-1.2473
 30
0.0
 10
50.9583
 20
-1.7181
 30
0.0
 10
50.6673
 20
-1.7181
 30
0.0
  0
SPLINE
  5
7A
330
1F
100
AcDbEntity
  8
layer 1
 62
     7
370
    50
100
AcDbSpline
210
0.0
220
0.0
230
1.0
 70
    11
 71
     3
 72
    16
 73
    12
 74
     0
 42
0.0000000001
 43
0.0000000001
 12
1.0
 22
0.0
 32
0.0
 13
1.0
 23
0.0
 33
0.0
 40
0.0
 40
0.0
 40
0.0
 40
0.0
 40
0.25
 40
0.25
 40
0.25
 40
0.25
 40
0.5
 40
0.5
 40
0.5
 40
0.5
 40
1.0
 40
1.0
 40
1.0
 40
1.0
 10
44.3621
 20
-4.9366
 30
0.0
 10
44.3621
 20
-4.9366
 30
0.0
 10
33.4327
 20
-4.9464
 30
0.0
 10
33.4327
 20
-4.9464
 30
0.0
 10
33.4327
 20
-4.9464
 30
0.0
 10
33.8961
 20
-2.88
 30
0.0
 10
35.8875
 20
0.3626
 30
0.0
 10
38.9461
 20
0.2896
 30
0.0
 10
38.9461
 20
0.2896
 30
0.0
 10
41.3877
 20
0.3092
 30
0.0
 10
44.4645
 20
-1.9988
 30
0.0
 10
44.3621
 20
-4.9366
 30
0.0
  0
SPLINE
  5
7B
330
1F
100
AcDbEntity
  8
layer 1
 62
     7
370
    50
100
AcDbSpline
210
0.0
220
0.0
230
1.0
 70
    11
 71
     3
 72
    56
 73
    52
 74
     0
 42
0.0000000001
 43
0.0000000001
 12
1.0
 22
0.0
 32
0.0
 13
1.0
 23
0.0
 33
0.0
 40
0.0
 40
0.0
 40
0.0
 40
0.0
 40
0.0714285714285714
 40
0.0714285714285714
 40
0.0714285714285714
 40
0.0714285714285714
 40
0.1428571428571428
 40
0.1428571428571428
 40
0.1428571428571428
 40
0.1428571428571428
 40
0.2142857142857143
 40
0.2142857142857143
 40
0.2142857142857143
 40
0.2142857142857143
 40
0.2857142857142857
 40
0.2857142857142857
 40
0.2857142857142857
 40
0.2857142857142857
 40
0.3571428571428572
 40
0.3571428571428572
 40
0.3571428571428572
 40
0.3571428571428572
 40
0.4285714285714285
 40
0.4285714285714285
 40
0.4285714285714285
 40
0.4285714285714285
 40
0.5
 40
0.5
 40
0.5
 40
0.5
 40
0.5714285714285714
 40
0.5714285714285714
 40
0.5714285714285714
 40
0.5714285714285714
 40
0.6428571428571429
 40
0.6428571428571429
 40
0.6428571428571429
 40
0.6428571428571429
 40
0.7142857142857143
 40
0.7142857142857143
 40
0.7142857142857143
 40
0.7142857142857143
 40
0.7857142857142857
 40
0.7857142857142857
 40
0.7857142857142857
 40
0.7857142857142857
 40
0.8571428571428571
 40
0.8571428571428571
 40
0.8571428571428571
 40
0.8571428571428571
 40
1.0
 40
1.0
 40
1.0
 40
1.0
 10
6.4188
 20
-24.9936
 30
0.0
 10
7.1086
 20
-27.1465
 30
0.0
 10
9.0905
 20
-35.9123
 30
0.0
 10
13.1938
 20
-39.1082
 30
0.0
 10
13.1938
 20
-39.1082
 30
0.0
 10
14.4589
 20
-40.0935
 30
0.0
 10
14.5661
 20
-41.0111
 30
0.0
 10
14.3539
 20
-41.6561
 30
0.0
 10
14.3539
 20
-41.6561
 30
0.0
 10
5.3638
 20
-43.0664
 30
0.0
 10
7.1822
 20
-49.8849
 30
0.0
 10
9.1153
 20
-51.0029
 30
0.0
 10
9.1153
 20
-51.0029
 30
0.0
 10
15.3428
 20
-43.0676
 30
0.0
 10
19.8332
 20
-49.4746
 30
0.0
 10
12.6545
 20
-52.5904
 30
0.0
 10
12.6545
 20
-52.5904
 30
0.0
 10
17.9005
 20
-51.8042
 30
0.0
 10
20.3795
 20
-56.3958
 30
0.0
 10
15.8448
 20
-59.692
 30
0.0
 10
15.8448
 20
-59.692
 30
0.0
 10
10.3109
 20
-63.235
 30
0.0
 10
6.6654
 20
-67.2276
 30
0.0
 10
5.1825
 20
-75.3367
 30
0.0
 10
5.1825
 20
-75.3367
 30
0.0
 10
3.8314
 20
-67.0958
 30
0.0
 10
-0.5237
 20
-62.6143
 30
0.0
 10
-5.5303
 20
-59.3349
 30
0.0
 10
-5.5303
 20
-59.3349
 30
0.0
 10
-9.1423
 20
-56.2364
 30
0.0
 10
-7.2692
 20
-51.8042
 30
0.0
 10
-2.0232
 20
-52.5904
 30
0.0
 10
-2.0232
 20
-52.5904
 30
0.0
 10
-9.2018
 20
-49.4746
 30
0.0
 10
-4.7114
 20
-43.0676
 30
0.0
 10
1.5161
 20
-51.0029
 30
0.0
 10
1.5161
 20
-51.0029
 30
0.0
 10
3.4492
 20
-49.8849
 30
0.0
 10
5.2676
 20
-43.0664
 30
0.0
 10
-3.7225
 20
-41.6561
 30
0.0
 10
-3.7225
 20
-41.6561
 30
0.0
 10
-3.9348
 20
-41.0111
 30
0.0
 10
-3.8275
 20
-40.0935
 30
0.0
 10
-2.5625
 20
-39.1082
 30
0.0
 10
-2.5625
 20
-39.1082
 30
0.0
 10
1.2844
 20
-36.112
 30
0.0
 10
3.44
 20
-27.8028
 30
0.0
 10
4.2441
 20
-25.045
 30
0.0
 10
4.2441
 20
-25.045
 30
0.0
 10
4.4969
 20
-24.8878
 30
0.0
 10
6.119
 20
-24.8799
 30
0.0
 10
6.4188
 20
-24.9936
 30
0.0
  0
SPLINE
  5
7C
330
1F
100
AcDbEntity
  8
layer 1
 62
     7
370
    50
100
AcDbSpline
210
0.0
220
0.0
230
1.0
 70
    11
 71
     3
 72
    44
 73
    40
 74
     0
 42
0.0000000001
 43
0.0000000001
 12
1.0
 22
0.0
 32
0.0
 13
1.0
 23
0.0
 33
0.0
 40
0.0
 40
0.0
 40
0.0
 40
0.0
 40
0.0909090909090909
 40
0.0909090909090909
 40
0.0909090909090909
 40
0.0909090909090909
 40
0.1818181818181818
 40
0.1818181818181818
 40
0.1818181818181818
 40
0.1818181818181818
 40
0.2727272727272727
 40
0.2727272727272727
 40
0.2727272727272727
 40
0.2727272727272727
 40
0.3636363636363636
 40
0.3636363636363636
 40
0.3636363636363636
 40
0.3636363636363636
 40
0.4545454545454545
 40
0.4545454545454545
 40
0.4545454545454545
 40
0.4545454545454545
 40
0.5454545454545454
 40
0.5454545454545454
 40
0.5454545454545454
 40
0.5454545454545454
 40
0.6363636363636364
 40
0.6363636363636364
 40
0.6363636363636364
 40
0.6363636363636364
 40
0.7272727272727273
 40
0.7272727272727273
 40
0.7272727272727273
 40
0.7272727272727273
 40
0.8181818181818182
 40
0.8181818181818182
 40
0.8181818181818182
 40
0.8181818181818182
 40
1.0
 40
1.0
 40
1.0
 40
1.0
 10
-20.7381
 20
-89.6436
 30
0.0
 10
-11.2002
 20
-91.0471
 30
0.0
 10
-3.5762
 20
-86.3374
 30
0.0
 10
-3.1527
 20
-77.282
 30
0.0
 10
-3.1527
 20
-77.282
 30
0.0
 10
-2.4398
 20
-67.4164
 30
0.0
 10
-12.5959
 20
-59.9665
 30
0.0
 10
-16.649
 20
-66.2067
 30
0.0
 10
-16.649
 20
-66.2067
 30
0.0
 10
-3.4499
 20
-75.1472
 30
0.0
 10
-27.6749
 20
-83.8505
 30
0.0
 10
-21.4206
 20
-65.4847
 30
0.0
 10
-21.4206
 20
-65.4847
 30
0.0
 10
-19.8229
 20
-62.5309
 30
0.0
 10
-17.7625
 20
-60.4562
 30
0.0
 10
-14.8179
 20
-59.8286
 30
0.0
 10
-14.8179
 20
-59.8286
 30
0.0
 10
-15.4171
 20
-56.9688
 30
0.0
 10
-14.9943
 20
-54.1985
 30
0.0
 10
-15.1531
 20
-50.848
 30
0.0
 10
-15.1531
 20
-50.848
 30
0.0
 10
-19.8872
 20
-50.8073
 30
0.0
 10
-30.1626
 20
-58.1403
 30
0.0
 10
-27.6987
 20
-74.2732
 30
0.0
 10
-27.6987
 20
-74.2732
 30
0.0
 10
-31.855
 20
-74.2134
 30
0.0
 10
-32.8483
 20
-70.8898
 30
0.0
 10
-34.0024
 20
-68.2013
 30
0.0
 10
-34.0024
 20
-68.2013
 30
0.0
 10
-37.2516
 20
-83.8072
 30
0.0
 10
-21.8411
 20
-87.4777
 30
0.0
 10
-16.2492
 20
-80.8256
 30
0.0
 10
-16.2492
 20
-80.8256
 30
0.0
 10
-16.3581
 20
-83.2244
 30
0.0
 10
-17.1624
 20
-86.2329
 30
0.0
 10
-19.8646
 20
-87.6265
 30
0.0
 10
-19.8646
 20
-87.6265
 30
0.0
 10
-20.5244
 20
-87.9668
 30
0.0
 10
-20.9722
 20
-88.9969
 30
0.0
 10
-20.7381
 20
-89.6436
 30
0.0
  0
ENDSEC
  0
SECTION
  2
OBJECTS
  0
DICTIONARY
  5
C
330
0
100
AcDbDictionary
281
     1
  3
ACAD_GROUP
350
D
  3
ACAD_LAYOUT
350
1A
  3
ACAD_MATERIAL
350
3B
  3
ACAD_MLEADERSTYLE
350
9E
  3
ACAD_MLINESTYLE
350
17
  3
ACAD_PLOTSETTINGS
350
19
  3
ACAD_PLOTSTYLENAME
350
E
  3
ACAD_TABLESTYLE
350
9D
  3
ACAD_VISUALSTYLE
350
2A
  0
DICTIONARY
  5
D
102
{ACAD_REACTORS
330
C
102
}
330
C
100
AcDbDictionary
281
     1
  0
DICTIONARY
  5
1A
102
{ACAD_REACTORS
330
C
102
}
330
C
100
AcDbDictionary
281
     1
  3
Layout1
350
1E
  3
Layout2
350
26
  3
Model
350
22
  0
DICTIONARY
  5
3B
102
{ACAD_REACTORS
330
C
102
}
330
C
100
AcDbDictionary
281
     1
  3
ByBlock
350
3D
  3
ByLayer
350
3C
  3
Global
350
3E
  0
DICTIONARY
  5
9E
102
{ACAD_REACTORS
330
C
102
}
330
C
100
AcDbDictionary
281
     1
  0
DICTIONARY
  5
17
102
{ACAD_REACTORS
330
C
102
}
330
C
100
AcDbDictionary
281
     1
  3
Standard
350
18
  0
DICTIONARY
  5
19
102
{ACAD_REACTORS
330
C
102
}
330
C
100
AcDbDictionary
281
     1
  0
ACDBDICTIONARYWDFLT
  5
E
102
{ACAD_REACTORS
330
C
102
}
330
C
100
AcDbDictionary
281
     1
  3
Normal
350
F
100
AcDbDictionaryWithDefault
340
F
  0
DICTIONARY
  5
9D
102
{ACAD_REACTORS
330
C
102
}
330
C
100
AcDbDictionary
281
     1
  0
DICTIONARY
  5
2A
102
{ACAD_REACTORS
330
C
102
}
330
C
100
AcDbDictionary
281
     1
  3
2dWireframe
350
2F
  3
3D Hidden
350
31
  3
3dWireframe
350
30
  3
Basic
350
32
  3
Brighten
350
36
  3
ColorChange
350
3A
  3
Conceptual
350
34
  3
Dim
350
35
  3
Facepattern
350
39
  3
Flat
350
2B
  3
FlatWithEdges
350
2C
  3
Gouraud
350
2D
  3
GouraudWithEdges
350
2E
  3
Linepattern
350
38
  3
Realistic
350
33
  3
Thicken
350
37
  0
LAYOUT
  5
1E
102
{ACAD_REACTORS
330
1A
102
}
330
1A
100
AcDbPlotSettings
  1

  2
none_device
  4

  6

 40
0.0
 41
0.0
 42
0.0
 43
0.0
 44
0.0
 45
0.0
 46
0.0
 47
0.0
 48
0.0
 49
0.0
140
0.0
141
0.0
142
1.0
143
1.0
 70
   688
 72
     0
 73
     0
 74
     5
  7

 75
    16
 76
     0
 77
     2
 78
   300
147
1.0
148
0.0
149
0.0
100
AcDbLayout
  1
Layout1
 70
     1
 71
     1
 10
0.0
 20
0.0
 11
12.0
 21
9.0
 12
0.0
 22
0.0
 32
0.0
 14
1.000000000000000E+20
 24
1.000000000000000E+20
 34
1.000000000000000E+20
 15
-1.000000000000000E+20
 25
-1.000000000000000E+20
 35
-1.000000000000000E+20
146
0.0
 13
0.0
 23
0.0
 33
0.0
 16
1.0
 26
0.0
 36
0.0
 17
0.0
 27
1.0
 37
0.0
 76
     0
330
1B
  0
LAYOUT
  5
26
102
{ACAD_REACTORS
330
1A
102
}
330
1A
100
AcDbPlotSettings
  1

  2
none_device
  4

  6

 40
0.0
 41
0.0
 42
0.0
 43
0.0
 44
0.0
 45
0.0
 46
0.0
 47
0.0
 48
0.0
 49
0.0
140
0.0
141
0.0
142
1.0
143
1.0
 70
   688
 72
     0
 73
     0
 74
     5
  7

 75
    16
 76
     0
 77
     2
 78
   300
147
1.0
148
0.0
149
0.0
100
AcDbLayout
  1
Layout2
 70
     1
 71
     2
 10
0.0
 20
0.0
 11
0.0
 21
0.0
 12
0.0
 22
0.0
 32
0.0
 14
0.0
 24
0.0
 34
0.0
 15
0.0
 25
0.0
 35
0.0
146
0.0
 13
0.0
 23
0.0
 33
0.0
 16
1.0
 26
0.0
 36
0.0
 17
0.0
 27
1.0
 37
0.0
 76
     0
330
23
  0
LAYOUT
  5
22
102
{ACAD_REACTORS
330
1A
102
}
330
1A
100
AcDbPlotSettings
  1

  2
none_device
  4

  6

 40
0.0
 41
0.0
 42
0.0
 43
0.0
 44
0.0
 45
0.0
 46
0.0
 47
0.0
 48
0.0
 49
0.0
140
0.0
141
0.0
142
1.0
143
1.0
 70
  1712
 72
     0
 73
     0
 74
     0
  7

 75
     0
 76
     0
 77
     2
 78
   300
147
1.0
148
0.0
149
0.0
100
AcDbLayout
  1
Model
 70
     1
 71
     0
 10
0.0
 20
0.0
 11
12.0
 21
9.0
 12
0.0
 22
0.0
 32
0.0
 14
-59.5728
 24
-102.3465
 34
0.0
 15
71.5219
 25
110.3603
 35
0.0
146
0.0
 13
0.0
 23
0.0
 33
0.0
 16
1.0
 26
0.0
 36
0.0
 17
0.0
 27
1.0
 37
0.0
 76
     0
330
1F
331
29
  0
MATERIAL
  5
3D
102
{ACAD_REACTORS
330
3B
102
}
330
3B
100
AcDbMaterial
  1
ByBlock
 72
     1
 94
      127
  0
MATERIAL
  5
3C
102
{ACAD_REACTORS
330
3B
102
}
330
3B
100
AcDbMaterial
  1
ByLayer
 72
     1
 94
      127
  0
MATERIAL
  5
3E
102
{ACAD_REACTORS
330
3B
102
}
330
3B
100
AcDbMaterial
  1
Global
 72
     1
 94
      127
  0
MLINESTYLE
  5
18
102
{ACAD_REACTORS
330
17
102
}
330
17
100
AcDbMlineStyle
  2
Standard
 70
     0
  3

 62
   256
 51
90.0
 52
90.0
 71
     2
 49
0.5
 62
   256
  6
BYLAYER
 49
-0.5
 62
   256
  6
BYLAYER
  0
ACDBPLACEHOLDER
  5
F
102
{ACAD_REACTORS
330
E
102
}
330
E
  0
VISUALSTYLE
  5
2F
102
{ACAD_REACTORS
330
2A
102
}
102
{ACAD_XDICTIONARY
360
85
102
}
330
2A
100
AcDbVisualStyle
  2
2dWireframe
 70
     4
 71
     0
 72
     2
 73
     0
 90
        0
 40
-0.6
 41
-30.0
 62
     5
 63
     7
421
 16777215
 74
     1
 91
        4
 64
     7
 65
   257
 75
     1
175
     1
 42
1.0
 92
        0
 66
   257
 43
1.0
 76
     1
 77
     6
 78
     2
 67
     7
 79
     5
170
     0
171
     0
290
     0
174
     0
 93
        1
 44
0.0
173
     0
291
     0
 45
0.0
  0
VISUALSTYLE
  5
31
102
{ACAD_REACTORS
330
2A
102
}
102
{ACAD_XDICTIONARY
360
89
102
}
330
2A
100
AcDbVisualStyle
  2
3D Hidden
 70
     6
 71
     1
 72
     2
 73
     2
 90
        0
 40
-0.6
 41
-30.0
 62
     5
 63
     7
421
 16777215
 74
     2
 91
        2
 64
     7
 65
   257
 75
     2
175
     1
 42
40.0
 92
        0
 66
   257
 43
1.0
 76
     1
 77
     6
 78
     2
 67
     7
 79
     3
170
     0
171
     0
290
     0
174
     0
 93
        1
 44
0.0
173
     0
291
     0
 45
0.0
  0
VISUALSTYLE
  5
30
102
{ACAD_REACTORS
330
2A
102
}
102
{ACAD_XDICTIONARY
360
87
102
}
330
2A
100
AcDbVisualStyle
  2
3dWireframe
 70
     5
 71
     0
 72
     2
 73
     0
 90
        0
 40
-0.6
 41
-30.0
 62
     5
 63
     7
421
 16777215
 74
     1
 91
        4
 64
     7
 65
   257
 75
     1
175
     1
 42
1.0
 92
        0
 66
   257
 43
1.0
 76
     1
 77
     6
 78
     2
 67
     7
 79
     5
170
     0
171
     0
290
     0
174
     0
 93
        1
 44
0.0
173
     0
291
     0
 45
0.0
  0
VISUALSTYLE
  5
32
102
{ACAD_REACTORS
330
2A
102
}
102
{ACAD_XDICTIONARY
360
8B
102
}
330
2A
100
AcDbVisualStyle
  2
Basic
 70
     7
 71
     1
 72
     0
 73
     1
 90
        0
 40
-0.6
 41
-30.0
 62
     5
 63
     7
421
 16777215
 74
     0
 91
        4
 64
     7
 65
   257
 75
     1
175
     1
 42
1.0
 92
        8
 66
     7
 43
1.0
 76
     1
 77
     6
 78
     2
 67
     7
 79
     5
170
     0
171
     0
290
     0
174
     0
 93
        1
 44
0.0
173
     0
291
     1
 45
0.0
  0
VISUALSTYLE
  5
36
102
{ACAD_REACTORS
330
2A
102
}
102
{ACAD_XDICTIONARY
360
93
102
}
330
2A
100
AcDbVisualStyle
  2
Brighten
 70
    12
 71
     2
 72
     2
 73
     0
 90
        0
 40
-0.6
 41
-30.0
 62
     5
 63
     7
421
 16777215
 74
     1
 91
        4
 64
     7
 65
   257
 75
     1
175
     1
 42
1.0
 92
        8
 66
     7
 43
1.0
 76
     1
 77
     6
 78
     2
 67
     7
 79
     5
170
     0
171
     0
290
     0
174
     0
 93
        1
 44
50.0
173
     0
291
     1
 45
0.0
  0
VISUALSTYLE
  5
3A
102
{ACAD_REACTORS
330
2A
102
}
102
{ACAD_XDICTIONARY
360
9B
102
}
330
2A
100
AcDbVisualStyle
  2
ColorChange
 70
    16
 71
     2
 72
     2
 73
     3
 90
        0
 40
-0.6
 41
-30.0
 62
     5
 63
     8
421
  8421504
 74
     1
 91
        4
 64
     7
 65
   257
 75
     1
175
     1
 42
1.0
 92
        8
 66
     8
424
  8421504
 43
1.0
 76
     1
 77
     6
 78
     2
 67
     7
 79
     5
170
     0
171
     0
290
     0
174
     0
 93
        1
 44
0.0
173
     0
291
     1
 45
0.0
  0
VISUALSTYLE
  5
34
102
{ACAD_REACTORS
330
2A
102
}
102
{ACAD_XDICTIONARY
360
8F
102
}
330
2A
100
AcDbVisualStyle
  2
Conceptual
 70
     9
 71
     3
 72
     2
 73
     0
 90
        0
 40
-0.6
 41
-30.0
 62
     5
 63
     7
421
 16777215
 74
     2
 91
        2
 64
     7
 65
   257
 75
     1
175
     1
 42
40.0
 92
        8
 66
     7
 43
1.0
 76
     1
 77
     6
 78
     2
 67
     7
 79
     3
170
     0
171
     0
290
     0
174
     0
 93
        1
 44
0.0
173
     0
291
     0
 45
0.0
  0
VISUALSTYLE
  5
35
102
{ACAD_REACTORS
330
2A
102
}
102
{ACAD_XDICTIONARY
360
91
102
}
330
2A
100
AcDbVisualStyle
  2
Dim
 70
    11
 71
     2
 72
     2
 73
     0
 90
        0
 40
-0.6
 41
-30.0
 62
     5
 63
     7
421
 16777215
 74
     1
 91
        4
 64
     7
 65
   257
 75
     1
175
     1
 42
1.0
 92
        8
 66
     7
 43
1.0
 76
     1
 77
     6
 78
     2
 67
     7
 79
     5
170
     0
171
     0
290
     0
174
     0
 93
        1
 44
-50.0
173
     0
291
     1
 45
0.0
  0
VISUALSTYLE
  5
39
102
{ACAD_REACTORS
330
2A
102
}
102
{ACAD_XDICTIONARY
360
99
102
}
330
2A
100
AcDbVisualStyle
  2
Facepattern
 70
    15
 71
     2
 72
     2
 73
     0
 90
        0
 40
-0.6
 41
-30.0
 62
     5
 63
     7
421
 16777215
 74
     1
 91
        4
 64
     7
 65
   257
 75
     1
175
     1
 42
1.0
 92
        8
 66
     7
 43
1.0
 76
     1
 77
     6
 78
     2
 67
     7
 79
     5
170
     0
171
     0
290
     0
174
     0
 93
        1
 44
0.0
173
     0
291
     1
 45
0.0
  0
VISUALSTYLE
  5
2B
102
{ACAD_REACTORS
330
2A
102
}
102
{ACAD_XDICTIONARY
360
7D
102
}
330
2A
100
AcDbVisualStyle
  2
Flat
 70
     0
 71
     2
 72
     1
 73
     1
 90
        2
 40
-0.6
 41
30.0
 62
     5
 63
     7
421
 16777215
 74
     0
 91
        4
 64
     7
 65
   257
 75
     1
175
     1
 42
1.0
 92
        8
 66
     7
 43
1.0
 76
     1
 77
     6
 78
     2
 67
     7
 79
     5
170
     0
171
     0
290
     0
174
     0
 93
       13
 44
0.0
173
     0
291
     1
 45
0.0
  0
VISUALSTYLE
  5
2C
102
{ACAD_REACTORS
330
2A
102
}
102
{ACAD_XDICTIONARY
360
7F
102
}
330
2A
100
AcDbVisualStyle
  2
FlatWithEdges
 70
     1
 71
     2
 72
     1
 73
     1
 90
        2
 40
-0.6
 41
30.0
 62
     5
 63
     7
421
 16777215
 74
     1
 91
        4
 64
     7
 65
   257
 75
     1
175
     1
 42
1.0
 92
        0
 66
   257
 43
1.0
 76
     1
 77
     6
 78
     2
 67
     7
 79
     5
170
     0
171
     0
290
     0
174
     0
 93
       13
 44
0.0
173
     0
291
     1
 45
0.0
  0
VISUALSTYLE
  5
2D
102
{ACAD_REACTORS
330
2A
102
}
102
{ACAD_XDICTIONARY
360
81
102
}
330
2A
100
AcDbVisualStyle
  2
Gouraud
 70
     2
 71
     2
 72
     2
 73
     1
 90
        2
 40
-0.6
 41
30.0
 62
     5
 63
     7
421
 16777215
 74
     0
 91
        4
 64
     7
 65
   257
 75
     1
175
     1
 42
1.0
 92
        0
 66
     7
 43
1.0
 76
     1
 77
     6
 78
     2
 67
     7
 79
     5
170
     0
171
     0
290
     0
174
     0
 93
       13
 44
0.0
173
     0
291
     1
 45
0.0
  0
VISUALSTYLE
  5
2E
102
{ACAD_REACTORS
330
2A
102
}
102
{ACAD_XDICTIONARY
360
83
102
}
330
2A
100
AcDbVisualStyle
  2
GouraudWithEdges
 70
     3
 71
     2
 72
     2
 73
     1
 90
        2
 40
-0.6
 41
30.0
 62
     5
 63
     7
421
 16777215
 74
     1
 91
        4
 64
     7
 65
   257
 75
     1
175
     1
 42
1.0
 92
        0
 66
   257
 43
1.0
 76
     1
 77
     6
 78
     2
 67
     7
 79
     5
170
     0
171
     0
290
     0
174
     0
 93
       13
 44
0.0
173
     0
291
     1
 45
0.0
  0
VISUALSTYLE
  5
38
102
{ACAD_REACTORS
330
2A
102
}
102
{ACAD_XDICTIONARY
360
97
102
}
330
2A
100
AcDbVisualStyle
  2
Linepattern
 70
    14
 71
     2
 72
     2
 73
     0
 90
        0
 40
-0.6
 41
-30.0
 62
     5
 63
     7
421
 16777215
 74
     1
 91
        4
 64
     7
 65
   257
 75
     7
175
     7
 42
1.0
 92
        8
 66
     7
 43
1.0
 76
     1
 77
     6
 78
     2
 67
     7
 79
     5
170
     0
171
     0
290
     0
174
     0
 93
        1
 44
0.0
173
     0
291
     1
 45
0.0
  0
VISUALSTYLE
  5
33
102
{ACAD_REACTORS
330
2A
102
}
102
{ACAD_XDICTIONARY
360
8D
102
}
330
2A
100
AcDbVisualStyle
  2
Realistic
 70
     8
 71
     2
 72
     2
 73
     0
 90
        0
 40
-0.6
 41
-30.0
 62
     5
 63
     7
421
 16777215
 74
     1
 91
        0
 64
     7
 65
   257
 75
     1
175
     1
 42
1.0
 92
        8
 66
     8
424
  7895160
 43
1.0
 76
     1
 77
     6
 78
     2
 67
     7
 79
     5
170
     0
171
     0
290
     0
174
     0
 93
       13
 44
0.0
173
     0
291
     0
 45
0.0
  0
VISUALSTYLE
  5
37
102
{ACAD_REACTORS
330
2A
102
}
102
{ACAD_XDICTIONARY
360
95
102
}
330
2A
100
AcDbVisualStyle
  2
Thicken
 70
    13
 71
     2
 72
     2
 73
     0
 90
        0
 40
-0.6
 41
-30.0
 62
     5
 63
     7
421
 16777215
 74
     1
 91
        4
 64
     7
 65
   257
 75
     1
175
     1
 42
1.0
 92
       12
 66
     7
 43
1.0
 76
     1
 77
     6
 78
     2
 67
     7
 79
     5
170
     0
171
     0
290
     0
174
     0
 93
        1
 44
0.0
173
     0
291
     1
 45
0.0
  0
DICTIONARY
  5
85
330
2F
100
AcDbDictionary
280
     1
281
     1
  3
ACAD_XREC_ROUNDTRIP
360
86
  0
DICTIONARY
  5
89
330
31
100
AcDbDictionary
280
     1
281
     1
  3
ACAD_XREC_ROUNDTRIP
360
8A
  0
DICTIONARY
  5
87
330
30
100
AcDbDictionary
280
     1
281
     1
  3
ACAD_XREC_ROUNDTRIP
360
88
  0
DICTIONARY
  5
8B
330
32
100
AcDbDictionary
280
     1
281
     1
  3
ACAD_XREC_ROUNDTRIP
360
8C
  0
DICTIONARY
  5
93
330
36
100
AcDbDictionary
280
     1
281
     1
  3
ACAD_XREC_ROUNDTRIP
360
94
  0
DICTIONARY
  5
9B
330
3A
100
AcDbDictionary
280
     1
281
     1
  3
ACAD_XREC_ROUNDTRIP
360
9C
  0
DICTIONARY
  5
8F
330
34
100
AcDbDictionary
280
     1
281
     1
  3
ACAD_XREC_ROUNDTRIP
360
90
  0
DICTIONARY
  5
91
330
35
100
AcDbDictionary
280
     1
281
     1
  3
ACAD_XREC_ROUNDTRIP
360
92
  0
DICTIONARY
  5
99
330
39
100
AcDbDictionary
280
     1
281
     1
  3
ACAD_XREC_ROUNDTRIP
360
9A
  0
DICTIONARY
  5
7D
330
2B
100
AcDbDictionary
280
     1
281
     1
  3
ACAD_XREC_ROUNDTRIP
360
7E
  0
DICTIONARY
  5
7F
330
2C
100
AcDbDictionary
280
     1
281
     1
  3
ACAD_XREC_ROUNDTRIP
360
80
  0
DICTIONARY
  5
81
330
2D
100
AcDbDictionary
280
     1
281
     1
  3
ACAD_XREC_ROUNDTRIP
360
82
  0
DICTIONARY
  5
83
330
2E
100
AcDbDictionary
280
     1
281
     1
  3
ACAD_XREC_ROUNDTRIP
360
84
  0
DICTIONARY
  5
97
330
38
100
AcDbDictionary
280
     1
281
     1
  3
ACAD_XREC_ROUNDTRIP
360
98
  0
DICTIONARY
  5
8D
330
33
100
AcDbDictionary
280
     1
281
     1
  3
ACAD_XREC_ROUNDTRIP
360
8E
  0
DICTIONARY
  5
95
330
37
100
AcDbDictionary
280
     1
281
     1
  3
ACAD_XREC_ROUNDTRIP
360
96
  0
XRECORD
  5
86
102
{ACAD_REACTORS
330
85
102
}
330
85
100
AcDbXrecord
280
     1
102
RTVSPropertyOp0
 70
     1
102
RTVSPropertyOp1
 70
     1
102
RTVSPropertyOp2
 70
     1
102
RTVSPropertyOp3
 70
     1
102
RTVSPropertyOp4
 70
     1
102
RTVSPropertyOp5
 70
     1
102
RTVSPropertyOp6
 70
     1
102
RTVSPropertyOp7
 70
     1
102
RTVSPropertyOp8
 70
     1
102
RTVSPropertyOp9
 70
     1
102
RTVSPropertyOp10
 70
     1
102
RTVSPropertyOp11
 70
     1
102
RTVSPropertyOp12
 70
     1
102
RTVSPropertyOp13
 70
     1
102
RTVSPropertyOp14
 70
     1
102
RTVSPropertyOp15
 70
     1
102
RTVSPropertyOp16
 70
     1
102
RTVSPropertyOp17
 70
     1
102
RTVSPropertyOp18
 70
     1
102
RTVSPropertyOp19
 70
     1
102
RTVSPropertyOp20
 70
     1
102
RTVSPropertyOp21
 70
     1
102
RTVSPropertyOp22
 70
     1
102
RTVSPropertyOp23
 70
     1
102
RTVSPropertyOp24
 70
     1
102
RTVSPropertyOp25
 70
     1
102
RTVSPropertyOp26
 70
     1
102
RTVSPropertyOp27
 70
     1
102
RTVSPropertyOp28
 70
     1
102
RTVSPropertyOp29
 70
     1
102
RTVSPropertyOp30
 70
     1
102
RTVSPropertyOp31
 70
     1
102
RTVSPropertyOp32
 70
     1
  0
XRECORD
  5
8A
102
{ACAD_REACTORS
330
89
102
}
330
89
100
AcDbXrecord
280
     1
102
RTVSPropertyOp0
 70
     1
102
RTVSPropertyOp1
 70
     1
102
RTVSPropertyOp2
 70
     1
102
RTVSPropertyOp3
 70
     1
102
RTVSPropertyOp4
 70
     1
102
RTVSPropertyOp5
 70
     1
102
RTVSPropertyOp6
 70
     1
102
RTVSPropertyOp7
 70
     1
102
RTVSPropertyOp8
 70
     1
102
RTVSPropertyOp9
 70
     1
102
RTVSPropertyOp10
 70
     1
102
RTVSPropertyOp11
 70
     1
102
RTVSPropertyOp12
 70
     1
102
RTVSPropertyOp13
 70
     1
102
RTVSPropertyOp14
 70
     1
102
RTVSPropertyOp15
 70
     1
102
RTVSPropertyOp16
 70
     1
102
RTVSPropertyOp17
 70
     1
102
RTVSPropertyOp18
 70
     1
102
RTVSPropertyOp19
 70
     1
102
RTVSPropertyOp20
 70
     1
102
RTVSPropertyOp21
 70
     1
102
RTVSPropertyOp22
 70
     1
102
RTVSPropertyOp23
 70
     1
102
RTVSPropertyOp24
 70
     1
102
RTVSPropertyOp25
 70
     1
102
RTVSPropertyOp26
 70
     1
102
RTVSPropertyOp27
 70
     1
102
RTVSPropertyOp28
 70
     1
102
RTVSPropertyOp29
 70
     1
102
RTVSPropertyOp30
 70
     1
102
RTVSPropertyOp31
 70
     1
102
RTVSPropertyOp32
 70
     1
  0
XRECORD
  5
88
102
{ACAD_REACTORS
330
87
102
}
330
87
100
AcDbXrecord
280
     1
102
RTVSPropertyOp0
 70
     1
102
RTVSPropertyOp1
 70
     1
102
RTVSPropertyOp2
 70
     1
102
RTVSPropertyOp3
 70
     1
102
RTVSPropertyOp4
 70
     1
102
RTVSPropertyOp5
 70
     1
102
RTVSPropertyOp6
 70
     1
102
RTVSPropertyOp7
 70
     1
102
RTVSPropertyOp8
 70
     1
102
RTVSPropertyOp9
 70
     1
102
RTVSPropertyOp10
 70
     1
102
RTVSPropertyOp11
 70
     1
102
RTVSPropertyOp12
 70
     1
102
RTVSPropertyOp13
 70
     1
102
RTVSPropertyOp14
 70
     1
102
RTVSPropertyOp15
 70
     1
102
RTVSPropertyOp16
 70
     1
102
RTVSPropertyOp17
 70
     1
102
RTVSPropertyOp18
 70
     1
102
RTVSPropertyOp19
 70
     1
102
RTVSPropertyOp20
 70
     1
102
RTVSPropertyOp21
 70
     1
102
RTVSPropertyOp22
 70
     1
102
RTVSPropertyOp23
 70
     1
102
RTVSPropertyOp24
 70
     1
102
RTVSPropertyOp25
 70
     1
102
RTVSPropertyOp26
 70
     1
102
RTVSPropertyOp27
 70
     1
102
RTVSPropertyOp28
 70
     1
102
RTVSPropertyOp29
 70
     1
102
RTVSPropertyOp30
 70
     1
102
RTVSPropertyOp31
 70
     1
102
RTVSPropertyOp32
 70
     1
  0
XRECORD
  5
8C
102
{ACAD_REACTORS
330
8B
102
}
330
8B
100
AcDbXrecord
280
     1
102
RTVSPropertyOp0
 70
     1
102
RTVSPropertyOp1
 70
     1
102
RTVSPropertyOp2
 70
     1
102
RTVSPropertyOp3
 70
     1
102
RTVSPropertyOp4
 70
     1
102
RTVSPropertyOp5
 70
     1
102
RTVSPropertyOp6
 70
     1
102
RTVSPropertyOp7
 70
     1
102
RTVSPropertyOp8
 70
     1
102
RTVSPropertyOp9
 70
     1
102
RTVSPropertyOp10
 70
     1
102
RTVSPropertyOp11
 70
     1
102
RTVSPropertyOp12
 70
     1
102
RTVSPropertyOp13
 70
     1
102
RTVSPropertyOp14
 70
     1
102
RTVSPropertyOp15
 70
     1
102
RTVSPropertyOp16
 70
     1
102
RTVSPropertyOp17
 70
     1
102
RTVSPropertyOp18
 70
     1
102
RTVSPropertyOp19
 70
     1
102
RTVSPropertyOp20
 70
     1
102
RTVSPropertyOp21
 70
     1
102
RTVSPropertyOp22
 70
     1
102
RTVSPropertyOp23
 70
     1
102
RTVSPropertyOp24
 70
     1
102
RTVSPropertyOp25
 70
     1
102
RTVSPropertyOp26
 70
     1
102
RTVSPropertyOp27
 70
     1
102
RTVSPropertyOp28
 70
     1
102
RTVSPropertyOp29
 70
     1
102
RTVSPropertyOp30
 70
     1
102
RTVSPropertyOp31
 70
     1
102
RTVSPropertyOp32
 70
     1
  0
XRECORD
  5
94
102
{ACAD_REACTORS
330
93
102
}
330
93
100
AcDbXrecord
280
     1
102
RTVSPropertyOp0
 70
     1
102
RTVSPropertyOp1
 70
     1
102
RTVSPropertyOp2
 70
     1
102
RTVSPropertyOp3
 70
     1
102
RTVSPropertyOp4
 70
     1
102
RTVSPropertyOp5
 70
     1
102
RTVSPropertyOp6
 70
     1
102
RTVSPropertyOp7
 70
     1
102
RTVSPropertyOp8
 70
     1
102
RTVSPropertyOp9
 70
     1
102
RTVSPropertyOp10
 70
     1
102
RTVSPropertyOp11
 70
     1
102
RTVSPropertyOp12
 70
     1
102
RTVSPropertyOp13
 70
     1
102
RTVSPropertyOp14
 70
     1
102
RTVSPropertyOp15
 70
     1
102
RTVSPropertyOp16
 70
     1
102
RTVSPropertyOp17
 70
     1
102
RTVSPropertyOp18
 70
     1
102
RTVSPropertyOp19
 70
     1
102
RTVSPropertyOp20
 70
     1
102
RTVSPropertyOp21
 70
     1
102
RTVSPropertyOp22
 70
     1
102
RTVSPropertyOp23
 70
     1
102
RTVSPropertyOp24
 70
     1
102
RTVSPropertyOp25
 70
     1
102
RTVSPropertyOp26
 70
     1
102
RTVSPropertyOp27
 70
     1
102
RTVSPropertyOp28
 70
     1
102
RTVSPropertyOp29
 70
     1
102
RTVSPropertyOp30
 70
     1
102
RTVSPropertyOp31
 70
     1
102
RTVSPropertyOp32
 70
     1
  0
XRECORD
  5
9C
102
{ACAD_REACTORS
330
9B
102
}
330
9B
100
AcDbXrecord
280
     1
102
RTVSPropertyOp0
 70
     1
102
RTVSPropertyOp1
 70
     1
102
RTVSPropertyOp2
 70
     1
102
RTVSPropertyOp3
 70
     1
102
RTVSPropertyOp4
 70
     1
102
RTVSPropertyOp5
 70
     1
102
RTVSPropertyOp6
 70
     1
102
RTVSPropertyOp7
 70
     1
102
RTVSPropertyOp8
 70
     1
102
RTVSPropertyOp9
 70
     1
102
RTVSPropertyOp10
 70
     1
102
RTVSPropertyOp11
 70
     1
102
RTVSPropertyOp12
 70
     1
102
RTVSPropertyOp13
 70
     1
102
RTVSPropertyOp14
 70
     1
102
RTVSPropertyOp15
 70
     1
102
RTVSPropertyOp16
 70
     1
102
RTVSPropertyOp17
 70
     1
102
RTVSPropertyOp18
 70
     1
102
RTVSPropertyOp19
 70
     1
102
RTVSPropertyOp20
 70
     1
102
RTVSPropertyOp21
 70
     1
102
RTVSPropertyOp22
 70
     1
102
RTVSPropertyOp23
 70
     1
102
RTVSPropertyOp24
 70
     1
102
RTVSPropertyOp25
 70
     1
102
RTVSPropertyOp26
 70
     1
102
RTVSPropertyOp27
 70
     1
102
RTVSPropertyOp28
 70
     1
102
RTVSPropertyOp29
 70
     1
102
RTVSPropertyOp30
 70
     1
102
RTVSPropertyOp31
 70
     1
102
RTVSPropertyOp32
 70
     1
  0
XRECORD
  5
90
102
{ACAD_REACTORS
330
8F
102
}
330
8F
100
AcDbXrecord
280
     1
102
RTVSPropertyOp0
 70
     1
102
RTVSPropertyOp1
 70
     1
102
RTVSPropertyOp2
 70
     1
102
RTVSPropertyOp3
 70
     1
102
RTVSPropertyOp4
 70
     1
102
RTVSPropertyOp5
 70
     1
102
RTVSPropertyOp6
 70
     1
102
RTVSPropertyOp7
 70
     1
102
RTVSPropertyOp8
 70
     1
102
RTVSPropertyOp9
 70
     1
102
RTVSPropertyOp10
 70
     1
102
RTVSPropertyOp11
 70
     1
102
RTVSPropertyOp12
 70
     1
102
RTVSPropertyOp13
 70
     1
102
RTVSPropertyOp14
 70
     1
102
RTVSPropertyOp15
 70
     1
102
RTVSPropertyOp16
 70
     1
102
RTVSPropertyOp17
 70
     1
102
RTVSPropertyOp18
 70
     1
102
RTVSPropertyOp19
 70
     1
102
RTVSPropertyOp20
 70
     1
102
RTVSPropertyOp21
 70
     1
102
RTVSPropertyOp22
 70
     1
102
RTVSPropertyOp23
 70
     1
102
RTVSPropertyOp24
 70
     1
102
RTVSPropertyOp25
 70
     1
102
RTVSPropertyOp26
 70
     1
102
RTVSPropertyOp27
 70
     1
102
RTVSPropertyOp28
 70
     1
102
RTVSPropertyOp29
 70
     1
102
RTVSPropertyOp30
 70
     1
102
RTVSPropertyOp31
 70
     1
102
RTVSPropertyOp32
 70
     1
  0
XRECORD
  5
92
102
{ACAD_REACTORS
330
91
102
}
330
91
100
AcDbXrecord
280
     1
102
RTVSPropertyOp0
 70
     1
102
RTVSPropertyOp1
 70
     1
102
RTVSPropertyOp2
 70
     1
102
RTVSPropertyOp3
 70
     1
102
RTVSPropertyOp4
 70
     1
102
RTVSPropertyOp5
 70
     1
102
RTVSPropertyOp6
 70
     1
102
RTVSPropertyOp7
 70
     1
102
RTVSPropertyOp8
 70
     1
102
RTVSPropertyOp9
 70
     1
102
RTVSPropertyOp10
 70
     1
102
RTVSPropertyOp11
 70
     1
102
RTVSPropertyOp12
 70
     1
102
RTVSPropertyOp13
 70
     1
102
RTVSPropertyOp14
 70
     1
102
RTVSPropertyOp15
 70
     1
102
RTVSPropertyOp16
 70
     1
102
RTVSPropertyOp17
 70
     1
102
RTVSPropertyOp18
 70
     1
102
RTVSPropertyOp19
 70
     1
102
RTVSPropertyOp20
 70
     1
102
RTVSPropertyOp21
 70
     1
102
RTVSPropertyOp22
 70
     1
102
RTVSPropertyOp23
 70
     1
102
RTVSPropertyOp24
 70
     1
102
RTVSPropertyOp25
 70
     1
102
RTVSPropertyOp26
 70
     1
102
RTVSPropertyOp27
 70
     1
102
RTVSPropertyOp28
 70
     1
102
RTVSPropertyOp29
 70
     1
102
RTVSPropertyOp30
 70
     1
102
RTVSPropertyOp31
 70
     1
102
RTVSPropertyOp32
 70
     1
  0
XRECORD
  5
9A
102
{ACAD_REACTORS
330
99
102
}
330
99
100
AcDbXrecord
280
     1
102
RTVSPropertyOp0
 70
     1
102
RTVSPropertyOp1
 70
     1
102
RTVSPropertyOp2
 70
     1
102
RTVSPropertyOp3
 70
     1
102
RTVSPropertyOp4
 70
     1
102
RTVSPropertyOp5
 70
     1
102
RTVSPropertyOp6
 70
     1
102
RTVSPropertyOp7
 70
     1
102
RTVSPropertyOp8
 70
     1
102
RTVSPropertyOp9
 70
     1
102
RTVSPropertyOp10
 70
     1
102
RTVSPropertyOp11
 70
     1
102
RTVSPropertyOp12
 70
     1
102
RTVSPropertyOp13
 70
     1
102
RTVSPropertyOp14
 70
     1
102
RTVSPropertyOp15
 70
     1
102
RTVSPropertyOp16
 70
     1
102
RTVSPropertyOp17
 70
     1
102
RTVSPropertyOp18
 70
     1
102
RTVSPropertyOp19
 70
     1
102
RTVSPropertyOp20
 70
     1
102
RTVSPropertyOp21
 70
     1
102
RTVSPropertyOp22
 70
     1
102
RTVSPropertyOp23
 70
     1
102
RTVSPropertyOp24
 70
     1
102
RTVSPropertyOp25
 70
     1
102
RTVSPropertyOp26
 70
     1
102
RTVSPropertyOp27
 70
     1
102
RTVSPropertyOp28
 70
     1
102
RTVSPropertyOp29
 70
     1
102
RTVSPropertyOp30
 70
     1
102
RTVSPropertyOp31
 70
     1
102
RTVSPropertyOp32
 70
     1
  0
XRECORD
  5
7E
102
{ACAD_REACTORS
330
7D
102
}
330
7D
100
AcDbXrecord
280
     1
102
RTVSPropertyOp0
 70
     1
102
RTVSPropertyOp1
 70
     1
102
RTVSPropertyOp2
 70
     1
102
RTVSPropertyOp3
 70
     1
102
RTVSPropertyOp4
 70
     1
102
RTVSPropertyOp5
 70
     1
102
RTVSPropertyOp6
 70
     1
102
RTVSPropertyOp7
 70
     1
102
RTVSPropertyOp8
 70
     1
102
RTVSPropertyOp9
 70
     1
102
RTVSPropertyOp10
 70
     1
102
RTVSPropertyOp11
 70
     1
102
RTVSPropertyOp12
 70
     1
102
RTVSPropertyOp13
 70
     1
102
RTVSPropertyOp14
 70
     1
102
RTVSPropertyOp15
 70
     1
102
RTVSPropertyOp16
 70
     1
102
RTVSPropertyOp17
 70
     1
102
RTVSPropertyOp18
 70
     1
102
RTVSPropertyOp19
 70
     1
102
RTVSPropertyOp20
 70
     1
102
RTVSPropertyOp21
 70
     1
102
RTVSPropertyOp22
 70
     1
102
RTVSPropertyOp23
 70
     1
102
RTVSPropertyOp24
 70
     1
102
RTVSPropertyOp25
 70
     1
102
RTVSPropertyOp26
 70
     1
102
RTVSPropertyOp27
 70
     1
102
RTVSPropertyOp28
 70
     1
102
RTVSPropertyOp29
 70
     1
102
RTVSPropertyOp30
 70
     1
102
RTVSPropertyOp31
 70
     1
102
RTVSPropertyOp32
 70
     1
  0
XRECORD
  5
80
102
{ACAD_REACTORS
330
7F
102
}
330
7F
100
AcDbXrecord
280
     1
102
RTVSPropertyOp0
 70
     1
102
RTVSPropertyOp1
 70
     1
102
RTVSPropertyOp2
 70
     1
102
RTVSPropertyOp3
 70
     1
102
RTVSPropertyOp4
 70
     1
102
RTVSPropertyOp5
 70
     1
102
RTVSPropertyOp6
 70
     1
102
RTVSPropertyOp7
 70
     1
102
RTVSPropertyOp8
 70
     1
102
RTVSPropertyOp9
 70
     1
102
RTVSPropertyOp10
 70
     1
102
RTVSPropertyOp11
 70
     1
102
RTVSPropertyOp12
 70
     1
102
RTVSPropertyOp13
 70
     1
102
RTVSPropertyOp14
 70
     1
102
RTVSPropertyOp15
 70
     1
102
RTVSPropertyOp16
 70
     1
102
RTVSPropertyOp17
 70
     1
102
RTVSPropertyOp18
 70
     1
102
RTVSPropertyOp19
 70
     1
102
RTVSPropertyOp20
 70
     1
102
RTVSPropertyOp21
 70
     1
102
RTVSPropertyOp22
 70
     1
102
RTVSPropertyOp23
 70
     1
102
RTVSPropertyOp24
 70
     1
102
RTVSPropertyOp25
 70
     1
102
RTVSPropertyOp26
 70
     1
102
RTVSPropertyOp27
 70
     1
102
RTVSPropertyOp28
 70
     1
102
RTVSPropertyOp29
 70
     1
102
RTVSPropertyOp30
 70
     1
102
RTVSPropertyOp31
 70
     1
102
RTVSPropertyOp32
 70
     1
  0
XRECORD
  5
82
102
{ACAD_REACTORS
330
81
102
}
330
81
100
AcDbXrecord
280
     1
102
RTVSPropertyOp0
 70
     1
102
RTVSPropertyOp1
 70
     1
102
RTVSPropertyOp2
 70
     1
102
RTVSPropertyOp3
 70
     1
102
RTVSPropertyOp4
 70
     1
102
RTVSPropertyOp5
 70
     1
102
RTVSPropertyOp6
 70
     1
102
RTVSPropertyOp7
 70
     1
102
RTVSPropertyOp8
 70
     1
102
RTVSPropertyOp9
 70
     1
102
RTVSPropertyOp10
 70
     1
102
RTVSPropertyOp11
 70
     1
102
RTVSPropertyOp12
 70
     1
102
RTVSPropertyOp13
 70
     1
102
RTVSPropertyOp14
 70
     1
102
RTVSPropertyOp15
 70
     1
102
RTVSPropertyOp16
 70
     1
102
RTVSPropertyOp17
 70
     1
102
RTVSPropertyOp18
 70
     1
102
RTVSPropertyOp19
 70
     1
102
RTVSPropertyOp20
 70
     1
102
RTVSPropertyOp21
 70
     1
102
RTVSPropertyOp22
 70
     1
102
RTVSPropertyOp23
 70
     1
102
RTVSPropertyOp24
 70
     1
102
RTVSPropertyOp25
 70
     1
102
RTVSPropertyOp26
 70
     1
102
RTVSPropertyOp27
 70
     1
102
RTVSPropertyOp28
 70
     1
102
RTVSPropertyOp29
 70
     1
102
RTVSPropertyOp30
 70
     1
102
RTVSPropertyOp31
 70
     1
102
RTVSPropertyOp32
 70
     1
  0
XRECORD
  5
84
102
{ACAD_REACTORS
330
83
102
}
330
83
100
AcDbXrecord
280
     1
102
RTVSPropertyOp0
 70
     1
102
RTVSPropertyOp1
 70
     1
102
RTVSPropertyOp2
 70
     1
102
RTVSPropertyOp3
 70
     1
102
RTVSPropertyOp4
 70
     1
102
RTVSPropertyOp5
 70
     1
102
RTVSPropertyOp6
 70
     1
102
RTVSPropertyOp7
 70
     1
102
RTVSPropertyOp8
 70
     1
102
RTVSPropertyOp9
 70
     1
102
RTVSPropertyOp10
 70
     1
102
RTVSPropertyOp11
 70
     1
102
RTVSPropertyOp12
 70
     1
102
RTVSPropertyOp13
 70
     1
102
RTVSPropertyOp14
 70
     1
102
RTVSPropertyOp15
 70
     1
102
RTVSPropertyOp16
 70
     1
102
RTVSPropertyOp17
 70
     1
102
RTVSPropertyOp18
 70
     1
102
RTVSPropertyOp19
 70
     1
102
RTVSPropertyOp20
 70
     1
102
RTVSPropertyOp21
 70
     1
102
RTVSPropertyOp22
 70
     1
102
RTVSPropertyOp23
 70
     1
102
RTVSPropertyOp24
 70
     1
102
RTVSPropertyOp25
 70
     1
102
RTVSPropertyOp26
 70
     1
102
RTVSPropertyOp27
 70
     1
102
RTVSPropertyOp28
 70
     1
102
RTVSPropertyOp29
 70
     1
102
RTVSPropertyOp30
 70
     1
102
RTVSPropertyOp31
 70
     1
102
RTVSPropertyOp32
 70
     1
  0
XRECORD
  5
98
102
{ACAD_REACTORS
330
97
102
}
330
97
100
AcDbXrecord
280
     1
102
RTVSPropertyOp0
 70
     1
102
RTVSPropertyOp1
 70
     1
102
RTVSPropertyOp2
 70
     1
102
RTVSPropertyOp3
 70
     1
102
RTVSPropertyOp4
 70
     1
102
RTVSPropertyOp5
 70
     1
102
RTVSPropertyOp6
 70
     1
102
RTVSPropertyOp7
 70
     1
102
RTVSPropertyOp8
 70
     1
102
RTVSPropertyOp9
 70
     1
102
RTVSPropertyOp10
 70
     1
102
RTVSPropertyOp11
 70
     1
102
RTVSPropertyOp12
 70
     1
102
RTVSPropertyOp13
 70
     1
102
RTVSPropertyOp14
 70
     1
102
RTVSPropertyOp15
 70
     1
102
RTVSPropertyOp16
 70
     1
102
RTVSPropertyOp17
 70
     1
102
RTVSPropertyOp18
 70
     1
102
RTVSPropertyOp19
 70
     1
102
RTVSPropertyOp20
 70
     1
102
RTVSPropertyOp21
 70
     1
102
RTVSPropertyOp22
 70
     1
102
RTVSPropertyOp23
 70
     1
102
RTVSPropertyOp24
 70
     1
102
RTVSPropertyOp25
 70
     1
102
RTVSPropertyOp26
 70
     1
102
RTVSPropertyOp27
 70
     1
102
RTVSPropertyOp28
 70
     1
102
RTVSPropertyOp29
 70
     1
102
RTVSPropertyOp30
 70
     1
102
RTVSPropertyOp31
 70
     1
102
RTVSPropertyOp32
 70
     1
  0
XRECORD
  5
8E
102
{ACAD_REACTORS
330
8D
102
}
330
8D
100
AcDbXrecord
280
     1
102
RTVSPropertyOp0
 70
     1
102
RTVSPropertyOp1
 70
     1
102
RTVSPropertyOp2
 70
     1
102
RTVSPropertyOp3
 70
     1
102
RTVSPropertyOp4
 70
     1
102
RTVSPropertyOp5
 70
     1
102
RTVSPropertyOp6
 70
     1
102
RTVSPropertyOp7
 70
     1
102
RTVSPropertyOp8
 70
     1
102
RTVSPropertyOp9
 70
     1
102
RTVSPropertyOp10
 70
     1
102
RTVSPropertyOp11
 70
     1
102
RTVSPropertyOp12
 70
     1
102
RTVSPropertyOp13
 70
     1
102
RTVSPropertyOp14
 70
     1
102
RTVSPropertyOp15
 70
     1
102
RTVSPropertyOp16
 70
     1
102
RTVSPropertyOp17
 70
     1
102
RTVSPropertyOp18
 70
     1
102
RTVSPropertyOp19
 70
     1
102
RTVSPropertyOp20
 70
     1
102
RTVSPropertyOp21
 70
     1
102
RTVSPropertyOp22
 70
     1
102
RTVSPropertyOp23
 70
     1
102
RTVSPropertyOp24
 70
     1
102
RTVSPropertyOp25
 70
     1
102
RTVSPropertyOp26
 70
     1
102
RTVSPropertyOp27
 70
     1
102
RTVSPropertyOp28
 70
     1
102
RTVSPropertyOp29
 70
     1
102
RTVSPropertyOp30
 70
     1
102
RTVSPropertyOp31
 70
     1
102
RTVSPropertyOp32
 70
     1
  0
XRECORD
  5
96
102
{ACAD_REACTORS
330
95
102
}
330
95
100
AcDbXrecord
280
     1
102
RTVSPropertyOp0
 70
     1
102
RTVSPropertyOp1
 70
     1
102
RTVSPropertyOp2
 70
     1
102
RTVSPropertyOp3
 70
     1
102
RTVSPropertyOp4
 70
     1
102
RTVSPropertyOp5
 70
     1
102
RTVSPropertyOp6
 70
     1
102
RTVSPropertyOp7
 70
     1
102
RTVSPropertyOp8
 70
     1
102
RTVSPropertyOp9
 70
     1
102
RTVSPropertyOp10
 70
     1
102
RTVSPropertyOp11
 70
     1
102
RTVSPropertyOp12
 70
     1
102
RTVSPropertyOp13
 70
     1
102
RTVSPropertyOp14
 70
     1
102
RTVSPropertyOp15
 70
     1
102
RTVSPropertyOp16
 70
     1
102
RTVSPropertyOp17
 70
     1
102
RTVSPropertyOp18
 70
     1
102
RTVSPropertyOp19
 70
     1
102
RTVSPropertyOp20
 70
     1
102
RTVSPropertyOp21
 70
     1
102
RTVSPropertyOp22
 70
     1
102
RTVSPropertyOp23
 70
     1
102
RTVSPropertyOp24
 70
     1
102
RTVSPropertyOp25
 70
     1
102
RTVSPropertyOp26
 70
     1
102
RTVSPropertyOp27
 70
     1
102
RTVSPropertyOp28
 70
     1
102
RTVSPropertyOp29
 70
     1
102
RTVSPropertyOp30
 70
     1
102
RTVSPropertyOp31
 70
     1
102
RTVSPropertyOp32
 70
     1
  0
ENDSEC
  0
EOF
