  0
SECTION
  2
HEADER
  9
$ACADVER
  1
AC1021
  9
$ACADMAINTVER
 70
    25
  9
$DWGCODEPAGE
  3
ANSI_1252
  9
$INSBASE
 10
0.0
 20
0.0
 30
0.0
  9
$EXTMIN
 10
-187.2745
 20
-102.3524
 30
0.0
  9
$EXTMAX
 10
-66.8411
 20
110.3433
 30
0.0
  9
$LIMMIN
 10
0.0
 20
0.0
  9
$LIMMAX
 10
12.0
 20
9.0
  9
$ORTHOMODE
 70
     0
  9
$REGENMODE
 70
     1
  9
$FILLMODE
 70
     1
  9
$QTEXTMODE
 70
     0
  9
$MIRRTEXT
 70
     1
  9
$LTSCALE
 40
1.0
  9
$ATTMODE
 70
     1
  9
$TEXTSIZE
 40
0.2
  9
$TRACEWID
 40
0.05
  9
$TEXTSTYLE
  7
Standard
  9
$CLAYER
  8
0
  9
$CELTYPE
  6
ByLayer
  9
$CECOLOR
 62
   256
  9
$CELTSCALE
 40
1.0
  9
$DISPSILH
 70
     0
  9
$DIMSCALE
 40
1.0
  9
$DIMASZ
 40
0.18
  9
$DIMEXO
 40
0.0625
  9
$DIMDLI
 40
0.38
  9
$DIMRND
 40
0.0
  9
$DIMDLE
 40
0.0
  9
$DIMEXE
 40
0.18
  9
$DIMTP
 40
0.0
  9
$DIMTM
 40
0.0
  9
$DIMTXT
 40
0.18
  9
$DIMCEN
 40
0.09
  9
$DIMTSZ
 40
0.0
  9
$DIMTOL
 70
     0
  9
$DIMLIM
 70
     0
  9
$DIMTIH
 70
     1
  9
$DIMTOH
 70
     1
  9
$DIMSE1
 70
     0
  9
$DIMSE2
 70
     0
  9
$DIMTAD
 70
     0
  9
$DIMZIN
 70
     0
  9
$DIMBLK
  1

  9
$DIMASO
 70
     1
  9
$DIMSHO
 70
     1
  9
$DIMPOST
  1

  9
$DIMAPOST
  1

  9
$DIMALT
 70
     0
  9
$DIMALTD
 70
     2
  9
$DIMALTF
 40
25.4
  9
$DIMLFAC
 40
1.0
  9
$DIMTOFL
 70
     0
  9
$DIMTVP
 40
0.0
  9
$DIMTIX
 70
     0
  9
$DIMSOXD
 70
     0
  9
$DIMSAH
 70
     0
  9
$DIMBLK1
  1

  9
$DIMBLK2
  1

  9
$DIMSTYLE
  2
Standard
  9
$DIMCLRD
 70
     0
  9
$DIMCLRE
 70
     0
  9
$DIMCLRT
 70
     0
  9
$DIMTFAC
 40
1.0
  9
$DIMGAP
 40
0.09
  9
$DIMJUST
 70
     0
  9
$DIMSD1
 70
     0
  9
$DIMSD2
 70
     0
  9
$DIMTOLJ
 70
     1
  9
$DIMTZIN
 70
     0
  9
$DIMALTZ
 70
     0
  9
$DIMALTTZ
 70
     0
  9
$DIMUPT
 70
     0
  9
$DIMDEC
 70
     4
  9
$DIMTDEC
 70
     4
  9
$DIMALTU
 70
     2
  9
$DIMALTTD
 70
     2
  9
$DIMTXSTY
  7
Standard
  9
$DIMAUNIT
 70
     0
  9
$DIMADEC
 70
     0
  9
$DIMALTRND
 40
0.0
  9
$DIMAZIN
 70
     0
  9
$DIMDSEP
 70
    46
  9
$DIMATFIT
 70
     3
  9
$DIMFRAC
 70
     0
  9
$DIMLDRBLK
  1

  9
$DIMLUNIT
 70
     2
  9
$DIMLWD
 70
    -2
  9
$DIMLWE
 70
    -2
  9
$DIMTMOVE
 70
     0
  9
$DIMFXL
 40
1.0
  9
$DIMFXLON
 70
     0
  9
$DIMJOGANG
 40
0.7853981633974483
  9
$DIMTFILL
 70
     0
  9
$DIMTFILLCLR
 70
     0
  9
$DIMARCSYM
 70
     0
  9
$DIMLTYPE
  6

  9
$DIMLTEX1
  6

  9
$DIMLTEX2
  6

  9
$LUNITS
 70
     2
  9
$LUPREC
 70
     4
  9
$SKETCHINC
 40
0.1
  9
$FILLETRAD
 40
0.5
  9
$AUNITS
 70
     0
  9
$AUPREC
 70
     0
  9
$MENU
  1
.
  9
$ELEVATION
 40
0.0
  9
$PELEVATION
 40
0.0
  9
$THICKNESS
 40
0.0
  9
$LIMCHECK
 70
     0
  9
$CHAMFERA
 40
0.5
  9
$CHAMFERB
 40
0.5
  9
$CHAMFERC
 40
1.0
  9
$CHAMFERD
 40
0.0
  9
$SKPOLY
 70
     0
  9
$TDCREATE
 40
2458492.774255741
  9
$TDUCREATE
 40
2458492.774255741
  9
$TDUPDATE
 40
2458492.774255903
  9
$TDUUPDATE
 40
2458492.774255903
  9
$TDINDWG
 40
0.0000000116
  9
$TDUSRTIMER
 40
0.0000000116
  9
$USRTIMER
 70
     1
  9
$ANGBASE
 50
0.0
  9
$ANGDIR
 70
     0
  9
$PDMODE
 70
     0
  9
$PDSIZE
 40
0.0
  9
$PLINEWID
 40
0.0
  9
$SPLFRAME
 70
     0
  9
$SPLINETYPE
 70
     6
  9
$SPLINESEGS
 70
     8
  9
$HANDSEED
  5
B8
  9
$SURFTAB1
 70
     6
  9
$SURFTAB2
 70
     6
  9
$SURFTYPE
 70
     6
  9
$SURFU
 70
     6
  9
$SURFV
 70
     6
  9
$UCSBASE
  2

  9
$UCSNAME
  2

  9
$UCSORG
 10
0.0
 20
0.0
 30
0.0
  9
$UCSXDIR
 10
1.0
 20
0.0
 30
0.0
  9
$UCSYDIR
 10
0.0
 20
1.0
 30
0.0
  9
$UCSORTHOREF
  2

  9
$UCSORTHOVIEW
 70
     0
  9
$UCSORGTOP
 10
0.0
 20
0.0
 30
0.0
  9
$UCSORGBOTTOM
 10
0.0
 20
0.0
 30
0.0
  9
$UCSORGLEFT
 10
0.0
 20
0.0
 30
0.0
  9
$UCSORGRIGHT
 10
0.0
 20
0.0
 30
0.0
  9
$UCSORGFRONT
 10
0.0
 20
0.0
 30
0.0
  9
$UCSORGBACK
 10
0.0
 20
0.0
 30
0.0
  9
$PUCSBASE
  2

  9
$PUCSNAME
  2

  9
$PUCSORG
 10
0.0
 20
0.0
 30
0.0
  9
$PUCSXDIR
 10
1.0
 20
0.0
 30
0.0
  9
$PUCSYDIR
 10
0.0
 20
1.0
 30
0.0
  9
$PUCSORTHOREF
  2

  9
$PUCSORTHOVIEW
 70
     0
  9
$PUCSORGTOP
 10
0.0
 20
0.0
 30
0.0
  9
$PUCSORGBOTTOM
 10
0.0
 20
0.0
 30
0.0
  9
$PUCSORGLEFT
 10
0.0
 20
0.0
 30
0.0
  9
$PUCSORGRIGHT
 10
0.0
 20
0.0
 30
0.0
  9
$PUCSORGFRONT
 10
0.0
 20
0.0
 30
0.0
  9
$PUCSORGBACK
 10
0.0
 20
0.0
 30
0.0
  9
$USERI1
 70
     0
  9
$USERI2
 70
     0
  9
$USERI3
 70
     0
  9
$USERI4
 70
     0
  9
$USERI5
 70
     0
  9
$USERR1
 40
0.0
  9
$USERR2
 40
0.0
  9
$USERR3
 40
0.0
  9
$USERR4
 40
0.0
  9
$USERR5
 40
0.0
  9
$WORLDVIEW
 70
     1
  9
$SHADEDGE
 70
     3
  9
$SHADEDIF
 70
    70
  9
$TILEMODE
 70
     1
  9
$MAXACTVP
 70
    64
  9
$PINSBASE
 10
0.0
 20
0.0
 30
0.0
  9
$PLIMCHECK
 70
     0
  9
$PEXTMIN
 10
1.000000000000000E+20
 20
1.000000000000000E+20
 30
1.000000000000000E+20
  9
$PEXTMAX
 10
-1.000000000000000E+20
 20
-1.000000000000000E+20
 30
-1.000000000000000E+20
  9
$PLIMMIN
 10
0.0
 20
0.0
  9
$PLIMMAX
 10
12.0
 20
9.0
  9
$UNITMODE
 70
     0
  9
$VISRETAIN
 70
     1
  9
$PLINEGEN
 70
     0
  9
$PSLTSCALE
 70
     1
  9
$TREEDEPTH
 70
  3020
  9
$CMLSTYLE
  2
Standard
  9
$CMLJUST
 70
     0
  9
$CMLSCALE
 40
1.0
  9
$PROXYGRAPHICS
 70
     1
  9
$MEASUREMENT
 70
     0
  9
$CELWEIGHT
370
    -1
  9
$ENDCAPS
280
     0
  9
$JOINSTYLE
280
     0
  9
$LWDISPLAY
290
     0
  9
$INSUNITS
 70
     4
  9
$HYPERLINKBASE
  1

  9
$STYLESHEET
  1

  9
$XEDIT
290
     1
  9
$CEPSNTYPE
380
     0
  9
$PSTYLEMODE
290
     1
  9
$FINGERPRINTGUID
  2
{B54120E2-7D54-4EFA-9EDA-968C56A4AB45}
  9
$VERSIONGUID
  2
{FAEB1C32-E019-11D5-929B-00C0DF256EC4}
  9
$EXTNAMES
290
     1
  9
$PSVPSCALE
 40
0.0
  9
$OLESTARTUP
290
     0
  9
$SORTENTS
280
   127
  9
$INDEXCTL
280
     0
  9
$HIDETEXT
280
     1
  9
$XCLIPFRAME
290
     0
  9
$HALOGAP
280
     0
  9
$OBSCOLOR
 70
   257
  9
$OBSLTYPE
280
     0
  9
$INTERSECTIONDISPLAY
280
     0
  9
$INTERSECTIONCOLOR
 70
   257
  9
$DIMASSOC
280
     2
  9
$PROJECTNAME
  1

  9
$CAMERADISPLAY
290
     0
  9
$LENSLENGTH
 40
50.0
  9
$CAMERAHEIGHT
 40
0.0
  9
$STEPSPERSEC
 40
2.0
  9
$STEPSIZE
 40
6.0
  9
$3DDWFPREC
 40
2.0
  9
$PSOLWIDTH
 40
0.25
  9
$PSOLHEIGHT
 40
4.0
  9
$LOFTANG1
 40
1.570796326794897
  9
$LOFTANG2
 40
1.570796326794897
  9
$LOFTMAG1
 40
0.0
  9
$LOFTMAG2
 40
0.0
  9
$LOFTPARAM
 70
     7
  9
$LOFTNORMALS
280
     1
  9
$LATITUDE
 40
37.795
  9
$LONGITUDE
 40
-122.394
  9
$NORTHDIRECTION
 40
0.0
  9
$TIMEZONE
 70
 -8000
  9
$LIGHTGLYPHDISPLAY
280
     1
  9
$TILEMODELIGHTSYNCH
280
     1
  9
$SOLIDHIST
280
     1
  9
$SHOWHIST
280
     1
  9
$DWFFRAME
280
     2
  9
$DGNFRAME
280
     2
  9
$REALWORLDSCALE
290
     1
  9
$INTERFERECOLOR
 62
   256
  9
$CSHADOW
280
     0
  9
$SHADOWPLANELOCATION
 40
0.0
  0
ENDSEC
  0
SECTION
  2
CLASSES
  0
CLASS
  1
ACDBDICTIONARYWDFLT
  2
AcDbDictionaryWithDefault
  3
ObjectDBX Classes
 90
        0
 91
        4
280
     0
281
     0
  0
CLASS
  1
VISUALSTYLE
  2
AcDbVisualStyle
  3
ObjectDBX Classes
 90
     4095
 91
        4
280
     0
281
     0
  0
CLASS
  1
MATERIAL
  2
AcDbMaterial
  3
ObjectDBX Classes
 90
     1153
 91
        4
280
     0
281
     0
  0
ENDSEC
  0
SECTION
  2
TABLES
  0
TABLE
  2
VPORT
  5
8
330
0
100
AcDbSymbolTable
 70
     1
  0
VPORT
  5
29
330
8
100
AcDbSymbolTableRecord
100
AcDbViewportTableRecord
  2
*Active
 70
     0
 10
0.0
 20
0.0
 11
1.0
 21
1.0
 12
10.42990654205607
 22
4.5
 13
0.0
 23
0.0
 14
0.5
 24
0.5
 15
0.5
 25
0.5
 16
0.0
 26
0.0
 36
1.0
 17
0.0
 27
0.0
 37
0.0
 40
9.0
 41
1.972972972850329
 42
50.0
 43
0.0
 44
0.0
 50
0.0
 51
0.0
 71
     0
 72
   100
 73
     1
 74
     3
 75
     0
 76
     0
 77
     0
 78
     0
281
     0
 65
     1
110
0.0
120
0.0
130
0.0
111
1.0
121
0.0
131
0.0
112
0.0
122
1.0
132
0.0
 79
     0
146
0.0
 60
     3
 61
     5
292
     1
282
     1
141
0.0
142
0.0
 63
   250
  0
ENDTAB
  0
TABLE
  2
LTYPE
  5
5
330
0
100
AcDbSymbolTable
 70
     1
  0
LTYPE
  5
14
330
5
100
AcDbSymbolTableRecord
100
AcDbLinetypeTableRecord
  2
ByBlock
 70
     0
  3

 72
    65
 73
     0
 40
0.0
  0
LTYPE
  5
15
330
5
100
AcDbSymbolTableRecord
100
AcDbLinetypeTableRecord
  2
ByLayer
 70
     0
  3

 72
    65
 73
     0
 40
0.0
  0
LTYPE
  5
16
330
5
100
AcDbSymbolTableRecord
100
AcDbLinetypeTableRecord
  2
Continuous
 70
     0
  3
Solid line
 72
    65
 73
     0
 40
0.0
  0
ENDTAB
  0
TABLE
  2
LAYER
  5
2
330
0
100
AcDbSymbolTable
 70
     2
  0
LAYER
  5
10
330
2
100
AcDbSymbolTableRecord
100
AcDbLayerTableRecord
  2
0
 70
     0
 62
     7
  6
Continuous
370
    -3
390
F
347
3E
  0
LAYER
  5
40
330
2
100
AcDbSymbolTableRecord
100
AcDbLayerTableRecord
  2
layer 1
 70
     0
 62
     7
  6
Continuous
370
    -3
390
F
347
3E
  0
ENDTAB
  0
TABLE
  2
STYLE
  5
3
330
0
100
AcDbSymbolTable
 70
     1
  0
STYLE
  5
11
330
3
100
AcDbSymbolTableRecord
100
AcDbTextStyleTableRecord
  2
Standard
 70
     0
 40
0.0
 41
1.0
 50
0.0
 71
     0
 42
0.2
  3
txt
  4

  0
ENDTAB
  0
TABLE
  2
VIEW
  5
6
330
0
100
AcDbSymbolTable
 70
     0
  0
ENDTAB
  0
TABLE
  2
UCS
  5
7
330
0
100
AcDbSymbolTable
 70
     0
  0
ENDTAB
  0
TABLE
  2
APPID
  5
9
330
0
100
AcDbSymbolTable
 70
     2
  0
APPID
  5
12
330
9
100
AcDbSymbolTableRecord
100
AcDbRegAppTableRecord
  2
ACAD
 70
     0
  0
APPID
  5
3F
330
9
100
AcDbSymbolTableRecord
100
AcDbRegAppTableRecord
  2
ODA
 70
     0
  0
ENDTAB
  0
TABLE
  2
DIMSTYLE
  5
A
330
0
100
AcDbSymbolTable
 70
     1
100
AcDbDimStyleTable
  0
DIMSTYLE
105
27
330
A
100
AcDbSymbolTableRecord
100
AcDbDimStyleTableRecord
  2
Standard
 70
     0
178
     0
340
11
  0
ENDTAB
  0
TABLE
  2
BLOCK_RECORD
  5
1
330
0
100
AcDbSymbolTable
 70
     1
  0
BLOCK_RECORD
  5
1F
330
1
100
AcDbSymbolTableRecord
100
AcDbBlockTableRecord
  2
*Model_Space
340
22
 70
     0
280
     1
281
     0
  0
BLOCK_RECORD
  5
1B
330
1
100
AcDbSymbolTableRecord
100
AcDbBlockTableRecord
  2
*Paper_Space
340
1E
 70
     0
280
     1
281
     0
  0
BLOCK_RECORD
  5
23
330
1
100
AcDbSymbolTableRecord
100
AcDbBlockTableRecord
  2
*Paper_Space0
340
26
 70
     0
280
     1
281
     0
  0
ENDTAB
  0
ENDSEC
  0
SECTION
  2
BLOCKS
  0
BLOCK
  5
20
330
1F
100
AcDbEntity
  8
0
100
AcDbBlockBegin
  2
*Model_Space
 70
     0
 10
0.0
 20
0.0
 30
0.0
  3
*Model_Space
  1

  0
ENDBLK
  5
21
330
1F
100
AcDbEntity
  8
0
100
AcDbBlockEnd
  0
BLOCK
  5
1C
330
1B
100
AcDbEntity
 67
     1
  8
0
100
AcDbBlockBegin
  2
*Paper_Space
 70
     0
 10
0.0
 20
0.0
 30
0.0
  3
*Paper_Space
  1

  0
ENDBLK
  5
1D
330
1B
100
AcDbEntity
 67
     1
  8
0
100
AcDbBlockEnd
  0
BLOCK
  5
24
330
23
100
AcDbEntity
  8
0
100
AcDbBlockBegin
  2
*Paper_Space0
 70
     0
 10
0.0
 20
0.0
 30
0.0
  3
*Paper_Space0
  1

  0
ENDBLK
  5
25
330
23
100
AcDbEntity
  8
0
100
AcDbBlockEnd
  0
ENDSEC
  0
SECTION
  2
ENTITIES
  0
SPLINE
  5
41
330
1F
100
AcDbEntity
  8
layer 1
 62
   250
370
     9
100
AcDbSpline
210
0.0
220
0.0
230
1.0
 70
    11
 71
     3
 72
    20
 73
    16
 74
     0
 42
0.0000000001
 43
0.0000000001
 12
1.0
 22
0.0
 32
0.0
 13
1.0
 23
0.0
 33
0.0
 40
0.0
 40
0.0
 40
0.0
 40
0.0
 40
0.2
 40
0.2
 40
0.2
 40
0.2
 40
0.4
 40
0.4
 40
0.4
 40
0.4
 40
0.6
 40
0.6
 40
0.6
 40
0.6
 40
1.0
 40
1.0
 40
1.0
 40
1.0
 10
-187.2364
 20
110.3052
 30
0.0
 10
-187.2364
 20
110.3052
 30
0.0
 10
-66.8792
 20
110.3052
 30
0.0
 10
-66.8792
 20
110.3052
 30
0.0
 10
-66.8792
 20
110.3052
 30
0.0
 10
-66.8792
 20
110.3052
 30
0.0
 10
-66.8792
 20
-102.3143
 30
0.0
 10
-66.8792
 20
-102.3143
 30
0.0
 10
-66.8792
 20
-102.3143
 30
0.0
 10
-66.8792
 20
-102.3143
 30
0.0
 10
-187.2364
 20
-102.3143
 30
0.0
 10
-187.2364
 20
-102.3143
 30
0.0
 10
-187.2364
 20
-102.3143
 30
0.0
 10
-187.2364
 20
-102.3143
 30
0.0
 10
-187.2364
 20
110.3052
 30
0.0
 10
-187.2364
 20
110.3052
 30
0.0
  0
SPLINE
  5
42
330
1F
100
AcDbEntity
  8
layer 1
 62
     7
370
     9
100
AcDbSpline
210
0.0
220
0.0
230
1.0
 70
    11
 71
     3
 72
    16
 73
    12
 74
     0
 42
0.0000000001
 43
0.0000000001
 12
1.0
 22
0.0
 32
0.0
 13
1.0
 23
0.0
 33
0.0
 40
0.0
 40
0.0
 40
0.0
 40
0.0
 40
0.25
 40
0.25
 40
0.25
 40
0.25
 40
0.5
 40
0.5
 40
0.5
 40
0.5
 40
1.0
 40
1.0
 40
1.0
 40
1.0
 10
-103.9601
 20
104.9162
 30
0.0
 10
-103.6437
 20
105.7744
 30
0.0
 10
-103.039
 20
106.4369
 30
0.0
 10
-102.2575
 20
106.7639
 30
0.0
 10
-102.2575
 20
106.7639
 30
0.0
 10
-102.2575
 20
106.7639
 30
0.0
 10
-106.6486
 20
106.7838
 30
0.0
 10
-106.6486
 20
106.7838
 30
0.0
 10
-106.6486
 20
106.7838
 30
0.0
 10
-105.7339
 20
106.4595
 30
0.0
 10
-104.6051
 20
105.8836
 30
0.0
 10
-103.9601
 20
104.9162
 30
0.0
  0
SPLINE
  5
43
330
1F
100
AcDbEntity
  8
layer 1
 62
     7
370
     9
100
AcDbSpline
210
0.0
220
0.0
230
1.0
 70
    11
 71
     3
 72
    24
 73
    20
 74
     0
 42
0.0000000001
 43
0.0000000001
 12
1.0
 22
0.0
 32
0.0
 13
1.0
 23
0.0
 33
0.0
 40
0.0
 40
0.0
 40
0.0
 40
0.0
 40
0.1666666666666667
 40
0.1666666666666667
 40
0.1666666666666667
 40
0.1666666666666667
 40
0.3333333333333333
 40
0.3333333333333333
 40
0.3333333333333333
 40
0.3333333333333333
 40
0.5
 40
0.5
 40
0.5
 40
0.5
 40
0.6666666666666666
 40
0.6666666666666666
 40
0.6666666666666666
 40
0.6666666666666666
 40
1.0
 40
1.0
 40
1.0
 40
1.0
 10
-96.2793
 20
103.7749
 30
0.0
 10
-98.3984
 20
104.3484
 30
0.0
 10
-99.8548
 20
103.5059
 30
0.0
 10
-100.055
 20
101.1004
 30
0.0
 10
-100.055
 20
101.1004
 30
0.0
 10
-100.055
 20
101.1004
 30
0.0
 10
-94.6036
 20
101.1232
 30
0.0
 10
-94.6036
 20
101.1232
 30
0.0
 10
-94.6036
 20
101.1232
 30
0.0
 10
-92.8166
 20
104.2618
 30
0.0
 10
-90.2531
 20
105.4785
 30
0.0
 10
-87.4694
 20
106.7639
 30
0.0
 10
-87.4694
 20
106.7639
 30
0.0
 10
-87.4694
 20
106.7639
 30
0.0
 10
-98.7964
 20
106.7639
 30
0.0
 10
-98.7964
 20
106.7639
 30
0.0
 10
-98.7964
 20
106.7639
 30
0.0
 10
-97.4216
 20
106.1163
 30
0.0
 10
-96.1385
 20
105.4666
 30
0.0
 10
-96.2793
 20
103.7749
 30
0.0
  0
SPLINE
  5
44
330
1F
100
AcDbEntity
  8
layer 1
 62
     7
370
     9
100
AcDbSpline
210
0.0
220
0.0
230
1.0
 70
    11
 71
     3
 72
    16
 73
    12
 74
     0
 42
0.0000000001
 43
0.0000000001
 12
1.0
 22
0.0
 32
0.0
 13
1.0
 23
0.0
 33
0.0
 40
0.0
 40
0.0
 40
0.0
 40
0.0
 40
0.25
 40
0.25
 40
0.25
 40
0.25
 40
0.5
 40
0.5
 40
0.5
 40
0.5
 40
1.0
 40
1.0
 40
1.0
 40
1.0
 10
-70.6361
 20
98.1113
 30
0.0
 10
-70.6361
 20
98.1113
 30
0.0
 10
-70.6361
 20
106.7639
 30
0.0
 10
-70.6361
 20
106.7639
 30
0.0
 10
-70.6361
 20
106.7639
 30
0.0
 10
-70.6361
 20
106.7639
 30
0.0
 10
-80.2327
 20
106.7639
 30
0.0
 10
-80.2327
 20
106.7639
 30
0.0
 10
-80.2327
 20
106.7639
 30
0.0
 10
-74.8835
 20
104.4678
 30
0.0
 10
-72.4417
 20
102.5873
 30
0.0
 10
-70.6361
 20
98.1113
 30
0.0
  0
SPLINE
  5
45
330
1F
100
AcDbEntity
  8
layer 1
 62
     7
370
     9
100
AcDbSpline
210
0.0
220
0.0
230
1.0
 70
    11
 71
     3
 72
    48
 73
    44
 74
     0
 42
0.0000000001
 43
0.0000000001
 12
1.0
 22
0.0
 32
0.0
 13
1.0
 23
0.0
 33
0.0
 40
0.0
 40
0.0
 40
0.0
 40
0.0
 40
0.0833333333333333
 40
0.0833333333333333
 40
0.0833333333333333
 40
0.0833333333333333
 40
0.1666666666666667
 40
0.1666666666666667
 40
0.1666666666666667
 40
0.1666666666666667
 40
0.25
 40
0.25
 40
0.25
 40
0.25
 40
0.3333333333333333
 40
0.3333333333333333
 40
0.3333333333333333
 40
0.3333333333333333
 40
0.4166666666666667
 40
0.4166666666666667
 40
0.4166666666666667
 40
0.4166666666666667
 40
0.5
 40
0.5
 40
0.5
 40
0.5
 40
0.5833333333333334
 40
0.5833333333333334
 40
0.5833333333333334
 40
0.5833333333333334
 40
0.6666666666666666
 40
0.6666666666666666
 40
0.6666666666666666
 40
0.6666666666666666
 40
0.75
 40
0.75
 40
0.75
 40
0.75
 40
0.8333333333333334
 40
0.8333333333333334
 40
0.8333333333333334
 40
0.8333333333333334
 40
1.0
 40
1.0
 40
1.0
 40
1.0
 10
-122.3205
 20
103.6691
 30
0.0
 10
-118.6636
 20
102.7726
 30
0.0
 10
-116.2589
 20
99.2
 30
0.0
 10
-116.2589
 20
95.5942
 30
0.0
 10
-116.2589
 20
95.5942
 30
0.0
 10
-116.2589
 20
94.2279
 30
0.0
 10
-117.0981
 20
90.8746
 30
0.0
 10
-117.9895
 20
90.8746
 30
0.0
 10
-117.9895
 20
90.8746
 30
0.0
 10
-119.4067
 20
92.8974
 30
0.0
 10
-123.4957
 20
93.808
 30
0.0
 10
-123.4957
 20
89.3014
 30
0.0
 10
-123.4957
 20
89.3014
 30
0.0
 10
-123.4957
 20
86.8332
 30
0.0
 10
-121.5614
 20
85.3684
 30
0.0
 10
-119.0907
 20
85.3684
 30
0.0
 10
-119.0907
 20
85.3684
 30
0.0
 10
-114.8352
 20
85.3684
 30
0.0
 10
-111.6966
 20
90.4752
 30
0.0
 10
-111.6966
 20
94.6503
 30
0.0
 10
-111.6966
 20
94.6503
 30
0.0
 10
-111.6966
 20
97.2302
 30
0.0
 10
-111.9975
 20
98.7585
 30
0.0
 10
-113.2304
 20
101.0887
 30
0.0
 10
-113.2304
 20
101.0887
 30
0.0
 10
-113.2304
 20
101.0887
 30
0.0
 10
-106.8197
 20
101.1004
 30
0.0
 10
-106.8197
 20
101.1004
 30
0.0
 10
-106.8197
 20
101.1004
 30
0.0
 10
-108.5998
 20
103.7588
 30
0.0
 10
-112.8011
 20
104.0576
 30
0.0
 10
-115.0004
 20
102.8309
 30
0.0
 10
-115.0004
 20
102.8309
 30
0.0
 10
-114.8528
 20
104.8998
 30
0.0
 10
-112.9703
 20
106.4184
 30
0.0
 10
-111.382
 20
106.7639
 30
0.0
 10
-111.382
 20
106.7639
 30
0.0
 10
-111.382
 20
106.7639
 30
0.0
 10
-120.4346
 20
106.7194
 30
0.0
 10
-120.4346
 20
106.7194
 30
0.0
 10
-120.4346
 20
106.7194
 30
0.0
 10
-120.4346
 20
106.7194
 30
0.0
 10
-122.3205
 20
103.6691
 30
0.0
 10
-122.3205
 20
103.6691
 30
0.0
  0
SPLINE
  5
46
330
1F
100
AcDbEntity
  8
layer 1
 62
     7
370
     9
100
AcDbSpline
210
0.0
220
0.0
230
1.0
 70
    11
 71
     3
 72
    60
 73
    56
 74
     0
 42
0.0000000001
 43
0.0000000001
 12
1.0
 22
0.0
 32
0.0
 13
1.0
 23
0.0
 33
0.0
 40
0.0
 40
0.0
 40
0.0
 40
0.0
 40
0.0666666666666667
 40
0.0666666666666667
 40
0.0666666666666667
 40
0.0666666666666667
 40
0.1333333333333333
 40
0.1333333333333333
 40
0.1333333333333333
 40
0.1333333333333333
 40
0.2
 40
0.2
 40
0.2
 40
0.2
 40
0.2666666666666667
 40
0.2666666666666667
 40
0.2666666666666667
 40
0.2666666666666667
 40
0.3333333333333333
 40
0.3333333333333333
 40
0.3333333333333333
 40
0.3333333333333333
 40
0.4
 40
0.4
 40
0.4
 40
0.4
 40
0.4666666666666667
 40
0.4666666666666667
 40
0.4666666666666667
 40
0.4666666666666667
 40
0.5333333333333333
 40
0.5333333333333333
 40
0.5333333333333333
 40
0.5333333333333333
 40
0.6
 40
0.6
 40
0.6
 40
0.6
 40
0.6666666666666666
 40
0.6666666666666666
 40
0.6666666666666666
 40
0.6666666666666666
 40
0.7333333333333333
 40
0.7333333333333333
 40
0.7333333333333333
 40
0.7333333333333333
 40
0.8
 40
0.8
 40
0.8
 40
0.8
 40
0.8666666666666667
 40
0.8666666666666667
 40
0.8666666666666667
 40
0.8666666666666667
 40
1.0
 40
1.0
 40
1.0
 40
1.0
 10
-91.5597
 20
96.6955
 30
0.0
 10
-91.5597
 20
96.6955
 30
0.0
 10
-99.8977
 20
96.6955
 30
0.0
 10
-99.8977
 20
96.6955
 30
0.0
 10
-99.8977
 20
96.6955
 30
0.0
 10
-98.5027
 20
93.7882
 30
0.0
 10
-97.4247
 20
92.5455
 30
0.0
 10
-94.7065
 20
90.7169
 30
0.0
 10
-94.7065
 20
90.7169
 30
0.0
 10
-92.9969
 20
89.5667
 30
0.0
 10
-88.7617
 20
88.6549
 30
0.0
 10
-88.256
 20
85.8404
 30
0.0
 10
-88.256
 20
85.8404
 30
0.0
 10
-88.0862
 20
84.8648
 30
0.0
 10
-88.0575
 20
84.1623
 30
0.0
 10
-88.4133
 20
83.3233
 30
0.0
 10
-88.4133
 20
83.3233
 30
0.0
 10
-88.4133
 20
83.3233
 30
0.0
 10
-85.1096
 20
83.3233
 30
0.0
 10
-85.1096
 20
83.3233
 30
0.0
 10
-85.1096
 20
83.3233
 30
0.0
 10
-86.7719
 20
85.8057
 30
0.0
 10
-86.424
 20
84.3674
 30
0.0
 10
-87.2763
 20
87.9213
 30
0.0
 10
-87.2763
 20
87.9213
 30
0.0
 10
-87.6971
 20
89.6757
 30
0.0
 10
-88.8217
 20
91.0319
 30
0.0
 10
-90.9304
 20
91.0319
 30
0.0
 10
-90.9304
 20
91.0319
 30
0.0
 10
-90.9304
 20
91.0319
 30
0.0
 10
-91.5597
 20
91.0319
 30
0.0
 10
-91.5597
 20
91.0319
 30
0.0
 10
-91.5597
 20
91.0319
 30
0.0
 10
-91.0877
 20
94.3094
 30
0.0
 10
-89.0285
 20
95.0167
 30
0.0
 10
-86.6828
 20
94.021
 30
0.0
 10
-86.6828
 20
94.021
 30
0.0
 10
-85.1254
 20
101.395
 30
0.0
 10
-74.981
 20
97.2582
 30
0.0
 10
-78.1875
 20
89.4587
 30
0.0
 10
-78.1875
 20
89.4587
 30
0.0
 10
-78.3271
 20
91.4889
 30
0.0
 10
-82.5925
 20
91.5121
 30
0.0
 10
-82.5925
 20
88.5148
 30
0.0
 10
-82.5925
 20
88.5148
 30
0.0
 10
-82.5925
 20
85.9727
 30
0.0
 10
-81.0338
 20
85.5258
 30
0.0
 10
-78.6595
 20
85.5258
 30
0.0
 10
-78.6595
 20
85.5258
 30
0.0
 10
-75.3553
 20
85.5258
 30
0.0
 10
-74.2545
 20
90.7024
 30
0.0
 10
-74.2545
 20
93.2344
 30
0.0
 10
-74.2545
 20
93.2344
 30
0.0
 10
-74.2545
 20
102.8629
 30
0.0
 10
-87.6923
 20
105.9606
 30
0.0
 10
-91.5597
 20
96.6955
 30
0.0
  0
SPLINE
  5
47
330
1F
100
AcDbEntity
  8
layer 1
 62
     7
370
     9
100
AcDbSpline
210
0.0
220
0.0
230
1.0
 70
    11
 71
     3
 72
    60
 73
    56
 74
     0
 42
0.0000000001
 43
0.0000000001
 12
1.0
 22
0.0
 32
0.0
 13
1.0
 23
0.0
 33
0.0
 40
0.0
 40
0.0
 40
0.0
 40
0.0
 40
0.0666666666666667
 40
0.0666666666666667
 40
0.0666666666666667
 40
0.0666666666666667
 40
0.1333333333333333
 40
0.1333333333333333
 40
0.1333333333333333
 40
0.1333333333333333
 40
0.2
 40
0.2
 40
0.2
 40
0.2
 40
0.2666666666666667
 40
0.2666666666666667
 40
0.2666666666666667
 40
0.2666666666666667
 40
0.3333333333333333
 40
0.3333333333333333
 40
0.3333333333333333
 40
0.3333333333333333
 40
0.4
 40
0.4
 40
0.4
 40
0.4
 40
0.4666666666666667
 40
0.4666666666666667
 40
0.4666666666666667
 40
0.4666666666666667
 40
0.5333333333333333
 40
0.5333333333333333
 40
0.5333333333333333
 40
0.5333333333333333
 40
0.6
 40
0.6
 40
0.6
 40
0.6
 40
0.6666666666666666
 40
0.6666666666666666
 40
0.6666666666666666
 40
0.6666666666666666
 40
0.7333333333333333
 40
0.7333333333333333
 40
0.7333333333333333
 40
0.7333333333333333
 40
0.8
 40
0.8
 40
0.8
 40
0.8
 40
0.8666666666666667
 40
0.8666666666666667
 40
0.8666666666666667
 40
0.8666666666666667
 40
1.0
 40
1.0
 40
1.0
 40
1.0
 10
-91.5142
 20
65.3368
 30
0.0
 10
-91.5142
 20
65.3368
 30
0.0
 10
-99.8521
 20
65.3368
 30
0.0
 10
-99.8521
 20
65.3368
 30
0.0
 10
-99.8521
 20
65.3368
 30
0.0
 10
-98.4572
 20
68.244
 30
0.0
 10
-97.3792
 20
69.4868
 30
0.0
 10
-94.661
 20
71.3154
 30
0.0
 10
-94.661
 20
71.3154
 30
0.0
 10
-92.9514
 20
72.4656
 30
0.0
 10
-88.7162
 20
73.3773
 30
0.0
 10
-88.2105
 20
76.1919
 30
0.0
 10
-88.2105
 20
76.1919
 30
0.0
 10
-88.0407
 20
77.1674
 30
0.0
 10
-88.0119
 20
77.8699
 30
0.0
 10
-88.3678
 20
78.709
 30
0.0
 10
-88.3678
 20
78.709
 30
0.0
 10
-88.3678
 20
78.709
 30
0.0
 10
-85.0641
 20
78.709
 30
0.0
 10
-85.0641
 20
78.709
 30
0.0
 10
-85.0641
 20
78.709
 30
0.0
 10
-86.7264
 20
76.2265
 30
0.0
 10
-86.3785
 20
77.6649
 30
0.0
 10
-87.2308
 20
74.111
 30
0.0
 10
-87.2308
 20
74.111
 30
0.0
 10
-87.6515
 20
72.3566
 30
0.0
 10
-88.7762
 20
71.0003
 30
0.0
 10
-90.8849
 20
71.0003
 30
0.0
 10
-90.8849
 20
71.0003
 30
0.0
 10
-90.8849
 20
71.0003
 30
0.0
 10
-91.5142
 20
71.0003
 30
0.0
 10
-91.5142
 20
71.0003
 30
0.0
 10
-91.5142
 20
71.0003
 30
0.0
 10
-91.0422
 20
67.7228
 30
0.0
 10
-88.9829
 20
67.0155
 30
0.0
 10
-86.6373
 20
68.0112
 30
0.0
 10
-86.6373
 20
68.0112
 30
0.0
 10
-85.0798
 20
60.6372
 30
0.0
 10
-74.9355
 20
64.7741
 30
0.0
 10
-78.142
 20
72.5735
 30
0.0
 10
-78.142
 20
72.5735
 30
0.0
 10
-78.2816
 20
70.5433
 30
0.0
 10
-82.547
 20
70.5201
 30
0.0
 10
-82.547
 20
73.5174
 30
0.0
 10
-82.547
 20
73.5174
 30
0.0
 10
-82.547
 20
76.0596
 30
0.0
 10
-80.9883
 20
76.5065
 30
0.0
 10
-78.6139
 20
76.5065
 30
0.0
 10
-78.6139
 20
76.5065
 30
0.0
 10
-75.3097
 20
76.5065
 30
0.0
 10
-74.209
 20
71.3299
 30
0.0
 10
-74.209
 20
68.7978
 30
0.0
 10
-74.209
 20
68.7978
 30
0.0
 10
-74.209
 20
59.1694
 30
0.0
 10
-87.6468
 20
56.0716
 30
0.0
 10
-91.5142
 20
65.3368
 30
0.0
  0
SPLINE
  5
48
330
1F
100
AcDbEntity
  8
layer 1
 62
     7
370
     9
100
AcDbSpline
210
0.0
220
0.0
230
1.0
 70
    11
 71
     3
 72
    16
 73
    12
 74
     0
 42
0.0000000001
 43
0.0000000001
 12
1.0
 22
0.0
 32
0.0
 13
1.0
 23
0.0
 33
0.0
 40
0.0
 40
0.0
 40
0.0
 40
0.0
 40
0.25
 40
0.25
 40
0.25
 40
0.25
 40
0.5
 40
0.5
 40
0.5
 40
0.5
 40
1.0
 40
1.0
 40
1.0
 40
1.0
 10
-76.0968
 20
80.7541
 30
0.0
 10
-73.9539
 20
82.0217
 30
0.0
 10
-71.786
 20
84.764
 30
0.0
 10
-70.5906
 20
87.8335
 30
0.0
 10
-70.5906
 20
87.8335
 30
0.0
 10
-70.5906
 20
87.8335
 30
0.0
 10
-70.5906
 20
73.7369
 30
0.0
 10
-70.5906
 20
73.7369
 30
0.0
 10
-70.5906
 20
73.7369
 30
0.0
 10
-71.6705
 20
77.0191
 30
0.0
 10
-72.6645
 20
78.4874
 30
0.0
 10
-76.0968
 20
80.7541
 30
0.0
  0
SPLINE
  5
49
330
1F
100
AcDbEntity
  8
layer 1
 62
     7
370
     9
100
AcDbSpline
210
0.0
220
0.0
230
1.0
 70
    11
 71
     3
 72
   100
 73
    96
 74
     0
 42
0.0000000001
 43
0.0000000001
 12
1.0
 22
0.0
 32
0.0
 13
1.0
 23
0.0
 33
0.0
 40
0.0
 40
0.0
 40
0.0
 40
0.0
 40
0.04
 40
0.04
 40
0.04
 40
0.04
 40
0.08
 40
0.08
 40
0.08
 40
0.08
 40
0.12
 40
0.12
 40
0.12
 40
0.12
 40
0.16
 40
0.16
 40
0.16
 40
0.16
 40
0.2
 40
0.2
 40
0.2
 40
0.2
 40
0.24
 40
0.24
 40
0.24
 40
0.24
 40
0.28
 40
0.28
 40
0.28
 40
0.28
 40
0.32
 40
0.32
 40
0.32
 40
0.32
 40
0.36
 40
0.36
 40
0.36
 40
0.36
 40
0.4
 40
0.4
 40
0.4
 40
0.4
 40
0.44
 40
0.44
 40
0.44
 40
0.44
 40
0.48
 40
0.48
 40
0.48
 40
0.48
 40
0.52
 40
0.52
 40
0.52
 40
0.52
 40
0.56
 40
0.56
 40
0.56
 40
0.56
 40
0.6
 40
0.6
 40
0.6
 40
0.6
 40
0.64
 40
0.64
 40
0.64
 40
0.64
 40
0.68
 40
0.68
 40
0.68
 40
0.68
 40
0.72
 40
0.72
 40
0.72
 40
0.72
 40
0.76
 40
0.76
 40
0.76
 40
0.76
 40
0.8
 40
0.8
 40
0.8
 40
0.8
 40
0.84
 40
0.84
 40
0.84
 40
0.84
 40
0.88
 40
0.88
 40
0.88
 40
0.88
 40
0.92
 40
0.92
 40
0.92
 40
0.92
 40
1.0
 40
1.0
 40
1.0
 40
1.0
 10
-103.4705
 20
73.5174
 30
0.0
 10
-102.2425
 20
72.3174
 30
0.0
 10
-101.2272
 20
71.4774
 30
0.0
 10
-99.2228
 20
71.9442
 30
0.0
 10
-99.2228
 20
71.9442
 30
0.0
 10
-101.6966
 20
69.6619
 30
0.0
 10
-103.2843
 20
67.9148
 30
0.0
 10
-103.7851
 20
65.3368
 30
0.0
 10
-103.7851
 20
65.3368
 30
0.0
 10
-103.7851
 20
65.3368
 30
0.0
 10
-106.9315
 20
65.3368
 30
0.0
 10
-106.9315
 20
65.3368
 30
0.0
 10
-106.9315
 20
65.3368
 30
0.0
 10
-106.9315
 20
73.3837
 30
0.0
 10
-110.0588
 20
76.759
 30
0.0
 10
-114.7975
 20
80.9115
 30
0.0
 10
-114.7975
 20
80.9115
 30
0.0
 10
-110.7996
 20
84.1396
 30
0.0
 10
-106.8058
 20
89.5427
 30
0.0
 10
-106.9315
 20
96.4861
 30
0.0
 10
-106.9315
 20
96.4861
 30
0.0
 10
-106.9315
 20
96.4861
 30
0.0
 10
-103.7851
 20
96.4861
 30
0.0
 10
-103.7851
 20
96.4861
 30
0.0
 10
-103.7851
 20
96.4861
 30
0.0
 10
-103.2685
 20
94.2854
 30
0.0
 10
-102.2615
 20
91.1577
 30
0.0
 10
-99.2228
 20
89.8787
 30
0.0
 10
-99.2228
 20
89.8787
 30
0.0
 10
-101.0559
 20
89.8787
 30
0.0
 10
-103.1204
 20
89.1447
 30
0.0
 10
-103.4705
 20
87.8335
 30
0.0
 10
-103.4705
 20
87.8335
 30
0.0
 10
-102.3289
 20
87.5287
 30
0.0
 10
-101.3002
 20
85.8484
 30
0.0
 10
-99.2294
 20
85.7818
 30
0.0
 10
-99.2294
 20
85.7818
 30
0.0
 10
-97.6889
 20
85.7322
 30
0.0
 10
-94.6605
 20
85.7777
 30
0.0
 10
-94.6605
 20
83.5859
 30
0.0
 10
-94.6605
 20
83.5859
 30
0.0
 10
-94.6605
 20
82.7744
 30
0.0
 10
-96.1348
 20
82.7993
 30
0.0
 10
-96.7057
 20
82.7993
 30
0.0
 10
-96.7057
 20
82.7993
 30
0.0
 10
-100.467
 20
82.7993
 30
0.0
 10
-101.4984
 20
88.0097
 30
0.0
 10
-107.7181
 20
86.4176
 30
0.0
 10
-107.7181
 20
86.4176
 30
0.0
 10
-107.7181
 20
86.4176
 30
0.0
 10
-106.0656
 20
83.6906
 30
0.0
 10
-106.0656
 20
83.6906
 30
0.0
 10
-106.0656
 20
83.6906
 30
0.0
 10
-108.5537
 20
83.7432
 30
0.0
 10
-108.0584
 20
83.9344
 30
0.0
 10
-109.6071
 20
82.8005
 30
0.0
 10
-109.6071
 20
82.8005
 30
0.0
 10
-110.6706
 20
82.0219
 30
0.0
 10
-110.8061
 20
81.4489
 30
0.0
 10
-112.4377
 20
81.0688
 30
0.0
 10
-112.4377
 20
81.0688
 30
0.0
 10
-112.4377
 20
81.0688
 30
0.0
 10
-112.4377
 20
80.7541
 30
0.0
 10
-112.4377
 20
80.7541
 30
0.0
 10
-112.4377
 20
80.7541
 30
0.0
 10
-109.3977
 20
80.0459
 30
0.0
 10
-110.3415
 20
77.9224
 30
0.0
 10
-106.1449
 20
77.9224
 30
0.0
 10
-106.1449
 20
77.9224
 30
0.0
 10
-106.7019
 20
77.0907
 30
0.0
 10
-107.1285
 20
77.067
 30
0.0
 10
-107.5585
 20
75.8502
 30
0.0
 10
-107.5585
 20
75.8502
 30
0.0
 10
-107.806
 20
75.1501
 30
0.0
 10
-106.1659
 20
74.9333
 30
0.0
 10
-105.3583
 20
74.9333
 30
0.0
 10
-105.3583
 20
74.9333
 30
0.0
 10
-105.3583
 20
74.9333
 30
0.0
 10
-105.201
 20
74.9333
 30
0.0
 10
-105.201
 20
74.9333
 30
0.0
 10
-105.201
 20
74.9333
 30
0.0
 10
-101.0709
 20
74.9333
 30
0.0
 10
-98.8629
 20
78.8663
 30
0.0
 10
-97.0204
 20
78.8663
 30
0.0
 10
-97.0204
 20
78.8663
 30
0.0
 10
-96.3884
 20
78.8663
 30
0.0
 10
-94.6605
 20
79.0892
 30
0.0
 10
-94.6605
 20
78.0797
 30
0.0
 10
-94.6605
 20
78.0797
 30
0.0
 10
-94.6605
 20
75.805
 30
0.0
 10
-98.0773
 20
76.2238
 30
0.0
 10
-99.5081
 20
76.0052
 30
0.0
 10
-99.5081
 20
76.0052
 30
0.0
 10
-100.6043
 20
75.8377
 30
0.0
 10
-103.2182
 20
74.4624
 30
0.0
 10
-103.4705
 20
73.5174
 30
0.0
  0
SPLINE
  5
4A
330
1F
100
AcDbEntity
  8
layer 1
 62
     7
370
     9
100
AcDbSpline
210
0.0
220
0.0
230
1.0
 70
    11
 71
     3
 72
    20
 73
    16
 74
     0
 42
0.0000000001
 43
0.0000000001
 12
1.0
 22
0.0
 32
0.0
 13
1.0
 23
0.0
 33
0.0
 40
0.0
 40
0.0
 40
0.0
 40
0.0
 40
0.2
 40
0.2
 40
0.2
 40
0.2
 40
0.4
 40
0.4
 40
0.4
 40
0.4
 40
0.6
 40
0.6
 40
0.6
 40
0.6
 40
1.0
 40
1.0
 40
1.0
 40
1.0
 10
-126.8609
 20
77.9922
 30
0.0
 10
-125.1774
 20
77.9922
 30
0.0
 10
-123.8126
 20
79.3569
 30
0.0
 10
-123.8126
 20
81.0404
 30
0.0
 10
-123.8126
 20
81.0404
 30
0.0
 10
-123.8126
 20
82.7239
 30
0.0
 10
-125.1774
 20
84.0887
 30
0.0
 10
-126.8609
 20
84.0887
 30
0.0
 10
-126.8609
 20
84.0887
 30
0.0
 10
-128.5443
 20
84.0887
 30
0.0
 10
-129.9091
 20
82.7239
 30
0.0
 10
-129.9091
 20
81.0404
 30
0.0
 10
-129.9091
 20
81.0404
 30
0.0
 10
-129.9091
 20
79.3569
 30
0.0
 10
-128.5443
 20
77.9922
 30
0.0
 10
-126.8609
 20
77.9922
 30
0.0
  0
SPLINE
  5
4B
330
1F
100
AcDbEntity
  8
layer 1
 62
     7
370
     9
100
AcDbSpline
210
0.0
220
0.0
230
1.0
 70
    11
 71
     3
 72
    16
 73
    12
 74
     0
 42
0.0000000001
 43
0.0000000001
 12
1.0
 22
0.0
 32
0.0
 13
1.0
 23
0.0
 33
0.0
 40
0.0
 40
0.0
 40
0.0
 40
0.0
 40
0.25
 40
0.25
 40
0.25
 40
0.25
 40
0.5
 40
0.5
 40
0.5
 40
0.5
 40
1.0
 40
1.0
 40
1.0
 40
1.0
 10
-149.9764
 20
104.9162
 30
0.0
 10
-150.2928
 20
105.7744
 30
0.0
 10
-150.8975
 20
106.4369
 30
0.0
 10
-151.6791
 20
106.7639
 30
0.0
 10
-151.6791
 20
106.7639
 30
0.0
 10
-151.6791
 20
106.7639
 30
0.0
 10
-147.2879
 20
106.7838
 30
0.0
 10
-147.2879
 20
106.7838
 30
0.0
 10
-147.2879
 20
106.7838
 30
0.0
 10
-148.2026
 20
106.4595
 30
0.0
 10
-149.3314
 20
105.8836
 30
0.0
 10
-149.9764
 20
104.9162
 30
0.0
  0
SPLINE
  5
4C
330
1F
100
AcDbEntity
  8
layer 1
 62
     7
370
     9
100
AcDbSpline
210
0.0
220
0.0
230
1.0
 70
    11
 71
     3
 72
    24
 73
    20
 74
     0
 42
0.0000000001
 43
0.0000000001
 12
1.0
 22
0.0
 32
0.0
 13
1.0
 23
0.0
 33
0.0
 40
0.0
 40
0.0
 40
0.0
 40
0.0
 40
0.1666666666666667
 40
0.1666666666666667
 40
0.1666666666666667
 40
0.1666666666666667
 40
0.3333333333333333
 40
0.3333333333333333
 40
0.3333333333333333
 40
0.3333333333333333
 40
0.5
 40
0.5
 40
0.5
 40
0.5
 40
0.6666666666666666
 40
0.6666666666666666
 40
0.6666666666666666
 40
0.6666666666666666
 40
1.0
 40
1.0
 40
1.0
 40
1.0
 10
-157.6572
 20
103.7749
 30
0.0
 10
-155.5381
 20
104.3484
 30
0.0
 10
-154.0817
 20
103.5059
 30
0.0
 10
-153.8815
 20
101.1004
 30
0.0
 10
-153.8815
 20
101.1004
 30
0.0
 10
-153.8815
 20
101.1004
 30
0.0
 10
-159.3329
 20
101.1232
 30
0.0
 10
-159.3329
 20
101.1232
 30
0.0
 10
-159.3329
 20
101.1232
 30
0.0
 10
-161.1199
 20
104.2618
 30
0.0
 10
-163.6834
 20
105.4785
 30
0.0
 10
-166.4671
 20
106.7639
 30
0.0
 10
-166.4671
 20
106.7639
 30
0.0
 10
-166.4671
 20
106.7639
 30
0.0
 10
-155.1401
 20
106.7639
 30
0.0
 10
-155.1401
 20
106.7639
 30
0.0
 10
-155.1401
 20
106.7639
 30
0.0
 10
-156.5149
 20
106.1163
 30
0.0
 10
-157.7981
 20
105.4666
 30
0.0
 10
-157.6572
 20
103.7749
 30
0.0
  0
SPLINE
  5
4D
330
1F
100
AcDbEntity
  8
layer 1
 62
     7
370
     9
100
AcDbSpline
210
0.0
220
0.0
230
1.0
 70
    11
 71
     3
 72
    16
 73
    12
 74
     0
 42
0.0000000001
 43
0.0000000001
 12
1.0
 22
0.0
 32
0.0
 13
1.0
 23
0.0
 33
0.0
 40
0.0
 40
0.0
 40
0.0
 40
0.0
 40
0.25
 40
0.25
 40
0.25
 40
0.25
 40
0.5
 40
0.5
 40
0.5
 40
0.5
 40
1.0
 40
1.0
 40
1.0
 40
1.0
 10
-183.3004
 20
98.1113
 30
0.0
 10
-183.3004
 20
98.1113
 30
0.0
 10
-183.3004
 20
106.7639
 30
0.0
 10
-183.3004
 20
106.7639
 30
0.0
 10
-183.3004
 20
106.7639
 30
0.0
 10
-183.3004
 20
106.7639
 30
0.0
 10
-173.7038
 20
106.7639
 30
0.0
 10
-173.7038
 20
106.7639
 30
0.0
 10
-173.7038
 20
106.7639
 30
0.0
 10
-179.0531
 20
104.4678
 30
0.0
 10
-181.4948
 20
102.5873
 30
0.0
 10
-183.3004
 20
98.1113
 30
0.0
  0
SPLINE
  5
4E
330
1F
100
AcDbEntity
  8
layer 1
 62
     7
370
     9
100
AcDbSpline
210
0.0
220
0.0
230
1.0
 70
    11
 71
     3
 72
    16
 73
    12
 74
     0
 42
0.0000000001
 43
0.0000000001
 12
1.0
 22
0.0
 32
0.0
 13
1.0
 23
0.0
 33
0.0
 40
0.0
 40
0.0
 40
0.0
 40
0.0
 40
0.25
 40
0.25
 40
0.25
 40
0.25
 40
0.5
 40
0.5
 40
0.5
 40
0.5
 40
1.0
 40
1.0
 40
1.0
 40
1.0
 10
-120.2151
 20
95.7515
 30
0.0
 10
-122.8561
 20
97.0189
 30
0.0
 10
-125.1585
 20
95.7198
 30
0.0
 10
-127.0135
 20
93.7345
 30
0.0
 10
-127.0135
 20
93.7345
 30
0.0
 10
-128.1537
 20
96.4683
 30
0.0
 10
-131.6928
 20
96.5726
 30
0.0
 10
-133.7446
 20
95.9089
 30
0.0
 10
-133.7446
 20
95.9089
 30
0.0
 10
-131.1615
 20
101.7521
 30
0.0
 10
-123.1938
 20
102.0817
 30
0.0
 10
-120.2151
 20
95.7515
 30
0.0
  0
SPLINE
  5
4F
330
1F
100
AcDbEntity
  8
layer 1
 62
     7
370
     9
100
AcDbSpline
210
0.0
220
0.0
230
1.0
 70
    11
 71
     3
 72
    48
 73
    44
 74
     0
 42
0.0000000001
 43
0.0000000001
 12
1.0
 22
0.0
 32
0.0
 13
1.0
 23
0.0
 33
0.0
 40
0.0
 40
0.0
 40
0.0
 40
0.0
 40
0.0833333333333333
 40
0.0833333333333333
 40
0.0833333333333333
 40
0.0833333333333333
 40
0.1666666666666667
 40
0.1666666666666667
 40
0.1666666666666667
 40
0.1666666666666667
 40
0.25
 40
0.25
 40
0.25
 40
0.25
 40
0.3333333333333333
 40
0.3333333333333333
 40
0.3333333333333333
 40
0.3333333333333333
 40
0.4166666666666667
 40
0.4166666666666667
 40
0.4166666666666667
 40
0.4166666666666667
 40
0.5
 40
0.5
 40
0.5
 40
0.5
 40
0.5833333333333334
 40
0.5833333333333334
 40
0.5833333333333334
 40
0.5833333333333334
 40
0.6666666666666666
 40
0.6666666666666666
 40
0.6666666666666666
 40
0.6666666666666666
 40
0.75
 40
0.75
 40
0.75
 40
0.75
 40
0.8333333333333334
 40
0.8333333333333334
 40
0.8333333333333334
 40
0.8333333333333334
 40
1.0
 40
1.0
 40
1.0
 40
1.0
 10
-131.616
 20
103.6691
 30
0.0
 10
-135.2729
 20
102.7726
 30
0.0
 10
-137.6776
 20
99.2
 30
0.0
 10
-137.6776
 20
95.5942
 30
0.0
 10
-137.6776
 20
95.5942
 30
0.0
 10
-137.6776
 20
94.2279
 30
0.0
 10
-136.8384
 20
90.8746
 30
0.0
 10
-135.9471
 20
90.8746
 30
0.0
 10
-135.9471
 20
90.8746
 30
0.0
 10
-134.5298
 20
92.8974
 30
0.0
 10
-130.4409
 20
93.808
 30
0.0
 10
-130.4409
 20
89.3014
 30
0.0
 10
-130.4409
 20
89.3014
 30
0.0
 10
-130.4409
 20
86.8332
 30
0.0
 10
-132.3752
 20
85.3684
 30
0.0
 10
-134.8458
 20
85.3684
 30
0.0
 10
-134.8458
 20
85.3684
 30
0.0
 10
-139.1013
 20
85.3684
 30
0.0
 10
-142.2399
 20
90.4752
 30
0.0
 10
-142.2399
 20
94.6503
 30
0.0
 10
-142.2399
 20
94.6503
 30
0.0
 10
-142.2399
 20
97.2302
 30
0.0
 10
-141.9391
 20
98.7585
 30
0.0
 10
-140.7061
 20
101.0887
 30
0.0
 10
-140.7061
 20
101.0887
 30
0.0
 10
-140.7061
 20
101.0887
 30
0.0
 10
-147.1168
 20
101.1004
 30
0.0
 10
-147.1168
 20
101.1004
 30
0.0
 10
-147.1168
 20
101.1004
 30
0.0
 10
-145.3367
 20
103.7588
 30
0.0
 10
-141.1354
 20
104.0576
 30
0.0
 10
-138.9361
 20
102.8309
 30
0.0
 10
-138.9361
 20
102.8309
 30
0.0
 10
-139.0837
 20
104.8998
 30
0.0
 10
-140.9662
 20
106.4184
 30
0.0
 10
-142.5545
 20
106.7639
 30
0.0
 10
-142.5545
 20
106.7639
 30
0.0
 10
-142.5545
 20
106.7639
 30
0.0
 10
-133.5019
 20
106.7194
 30
0.0
 10
-133.5019
 20
106.7194
 30
0.0
 10
-133.5019
 20
106.7194
 30
0.0
 10
-133.5019
 20
106.7194
 30
0.0
 10
-131.616
 20
103.6691
 30
0.0
 10
-131.616
 20
103.6691
 30
0.0
  0
SPLINE
  5
50
330
1F
100
AcDbEntity
  8
layer 1
 62
     7
370
     9
100
AcDbSpline
210
0.0
220
0.0
230
1.0
 70
    11
 71
     3
 72
    60
 73
    56
 74
     0
 42
0.0000000001
 43
0.0000000001
 12
1.0
 22
0.0
 32
0.0
 13
1.0
 23
0.0
 33
0.0
 40
0.0
 40
0.0
 40
0.0
 40
0.0
 40
0.0666666666666667
 40
0.0666666666666667
 40
0.0666666666666667
 40
0.0666666666666667
 40
0.1333333333333333
 40
0.1333333333333333
 40
0.1333333333333333
 40
0.1333333333333333
 40
0.2
 40
0.2
 40
0.2
 40
0.2
 40
0.2666666666666667
 40
0.2666666666666667
 40
0.2666666666666667
 40
0.2666666666666667
 40
0.3333333333333333
 40
0.3333333333333333
 40
0.3333333333333333
 40
0.3333333333333333
 40
0.4
 40
0.4
 40
0.4
 40
0.4
 40
0.4666666666666667
 40
0.4666666666666667
 40
0.4666666666666667
 40
0.4666666666666667
 40
0.5333333333333333
 40
0.5333333333333333
 40
0.5333333333333333
 40
0.5333333333333333
 40
0.6
 40
0.6
 40
0.6
 40
0.6
 40
0.6666666666666666
 40
0.6666666666666666
 40
0.6666666666666666
 40
0.6666666666666666
 40
0.7333333333333333
 40
0.7333333333333333
 40
0.7333333333333333
 40
0.7333333333333333
 40
0.8
 40
0.8
 40
0.8
 40
0.8
 40
0.8666666666666667
 40
0.8666666666666667
 40
0.8666666666666667
 40
0.8666666666666667
 40
1.0
 40
1.0
 40
1.0
 40
1.0
 10
-162.3768
 20
96.6955
 30
0.0
 10
-162.3768
 20
96.6955
 30
0.0
 10
-154.0389
 20
96.6955
 30
0.0
 10
-154.0389
 20
96.6955
 30
0.0
 10
-154.0389
 20
96.6955
 30
0.0
 10
-155.4338
 20
93.7882
 30
0.0
 10
-156.5118
 20
92.5455
 30
0.0
 10
-159.23
 20
90.7169
 30
0.0
 10
-159.23
 20
90.7169
 30
0.0
 10
-160.9396
 20
89.5667
 30
0.0
 10
-165.1748
 20
88.6549
 30
0.0
 10
-165.6805
 20
85.8404
 30
0.0
 10
-165.6805
 20
85.8404
 30
0.0
 10
-165.8503
 20
84.8648
 30
0.0
 10
-165.879
 20
84.1623
 30
0.0
 10
-165.5232
 20
83.3233
 30
0.0
 10
-165.5232
 20
83.3233
 30
0.0
 10
-165.5232
 20
83.3233
 30
0.0
 10
-168.8269
 20
83.3233
 30
0.0
 10
-168.8269
 20
83.3233
 30
0.0
 10
-168.8269
 20
83.3233
 30
0.0
 10
-167.1646
 20
85.8057
 30
0.0
 10
-167.5125
 20
84.3674
 30
0.0
 10
-166.6602
 20
87.9213
 30
0.0
 10
-166.6602
 20
87.9213
 30
0.0
 10
-166.2395
 20
89.6757
 30
0.0
 10
-165.1148
 20
91.0319
 30
0.0
 10
-163.0061
 20
91.0319
 30
0.0
 10
-163.0061
 20
91.0319
 30
0.0
 10
-163.0061
 20
91.0319
 30
0.0
 10
-162.3768
 20
91.0319
 30
0.0
 10
-162.3768
 20
91.0319
 30
0.0
 10
-162.3768
 20
91.0319
 30
0.0
 10
-162.8488
 20
94.3094
 30
0.0
 10
-164.908
 20
95.0167
 30
0.0
 10
-167.2537
 20
94.021
 30
0.0
 10
-167.2537
 20
94.021
 30
0.0
 10
-168.8111
 20
101.395
 30
0.0
 10
-178.9555
 20
97.2582
 30
0.0
 10
-175.749
 20
89.4587
 30
0.0
 10
-175.749
 20
89.4587
 30
0.0
 10
-175.6094
 20
91.4889
 30
0.0
 10
-171.344
 20
91.5121
 30
0.0
 10
-171.344
 20
88.5148
 30
0.0
 10
-171.344
 20
88.5148
 30
0.0
 10
-171.344
 20
85.9727
 30
0.0
 10
-172.9027
 20
85.5258
 30
0.0
 10
-175.2771
 20
85.5258
 30
0.0
 10
-175.2771
 20
85.5258
 30
0.0
 10
-178.5812
 20
85.5258
 30
0.0
 10
-179.682
 20
90.7024
 30
0.0
 10
-179.682
 20
93.2344
 30
0.0
 10
-179.682
 20
93.2344
 30
0.0
 10
-179.682
 20
102.8629
 30
0.0
 10
-166.2442
 20
105.9606
 30
0.0
 10
-162.3768
 20
96.6955
 30
0.0
  0
SPLINE
  5
51
330
1F
100
AcDbEntity
  8
layer 1
 62
     7
370
     9
100
AcDbSpline
210
0.0
220
0.0
230
1.0
 70
    11
 71
     3
 72
    36
 73
    32
 74
     0
 42
0.0000000001
 43
0.0000000001
 12
1.0
 22
0.0
 32
0.0
 13
1.0
 23
0.0
 33
0.0
 40
0.0
 40
0.0
 40
0.0
 40
0.0
 40
0.1111111111111111
 40
0.1111111111111111
 40
0.1111111111111111
 40
0.1111111111111111
 40
0.2222222222222222
 40
0.2222222222222222
 40
0.2222222222222222
 40
0.2222222222222222
 40
0.3333333333333333
 40
0.3333333333333333
 40
0.3333333333333333
 40
0.3333333333333333
 40
0.4444444444444444
 40
0.4444444444444444
 40
0.4444444444444444
 40
0.4444444444444444
 40
0.5555555555555556
 40
0.5555555555555556
 40
0.5555555555555556
 40
0.5555555555555556
 40
0.6666666666666666
 40
0.6666666666666666
 40
0.6666666666666666
 40
0.6666666666666666
 40
0.7777777777777778
 40
0.7777777777777778
 40
0.7777777777777778
 40
0.7777777777777778
 40
1.0
 40
1.0
 40
1.0
 40
1.0
 10
-166.5117
 20
55.2684
 30
0.0
 10
-163.728
 20
56.5539
 30
0.0
 10
-161.1654
 20
57.7705
 30
0.0
 10
-159.3784
 20
60.909
 30
0.0
 10
-159.3784
 20
60.909
 30
0.0
 10
-159.3784
 20
60.909
 30
0.0
 10
-153.9271
 20
60.9318
 30
0.0
 10
-153.9271
 20
60.9318
 30
0.0
 10
-153.9271
 20
60.9318
 30
0.0
 10
-154.1272
 20
58.5264
 30
0.0
 10
-155.5836
 20
57.6839
 30
0.0
 10
-157.7028
 20
58.2574
 30
0.0
 10
-157.7028
 20
58.2574
 30
0.0
 10
-157.8436
 20
56.5657
 30
0.0
 10
-156.5595
 20
55.9161
 30
0.0
 10
-155.1847
 20
55.2684
 30
0.0
 10
-155.1847
 20
55.2684
 30
0.0
 10
-156.5595
 20
54.6207
 30
0.0
 10
-157.8427
 20
53.971
 30
0.0
 10
-157.7018
 20
52.2793
 30
0.0
 10
-157.7018
 20
52.2793
 30
0.0
 10
-155.5827
 20
52.8529
 30
0.0
 10
-154.1263
 20
52.0104
 30
0.0
 10
-153.9261
 20
49.6049
 30
0.0
 10
-153.9261
 20
49.6049
 30
0.0
 10
-153.9261
 20
49.6049
 30
0.0
 10
-159.3775
 20
49.6277
 30
0.0
 10
-159.3775
 20
49.6277
 30
0.0
 10
-159.3775
 20
49.6277
 30
0.0
 10
-161.1645
 20
52.7663
 30
0.0
 10
-163.6708
 20
54.0784
 30
0.0
 10
-166.5117
 20
55.2684
 30
0.0
  0
SPLINE
  5
52
330
1F
100
AcDbEntity
  8
layer 1
 62
     7
370
     9
100
AcDbSpline
210
0.0
220
0.0
230
1.0
 70
    11
 71
     3
 72
    16
 73
    12
 74
     0
 42
0.0000000001
 43
0.0000000001
 12
1.0
 22
0.0
 32
0.0
 13
1.0
 23
0.0
 33
0.0
 40
0.0
 40
0.0
 40
0.0
 40
0.0
 40
0.25
 40
0.25
 40
0.25
 40
0.25
 40
0.5
 40
0.5
 40
0.5
 40
0.5
 40
1.0
 40
1.0
 40
1.0
 40
1.0
 10
-173.7484
 20
55.2684
 30
0.0
 10
-179.0977
 20
57.5646
 30
0.0
 10
-181.5404
 20
59.445
 30
0.0
 10
-183.3459
 20
63.9209
 30
0.0
 10
-183.3459
 20
63.9209
 30
0.0
 10
-183.3459
 20
63.9209
 30
0.0
 10
-183.345
 20
46.6158
 30
0.0
 10
-183.345
 20
46.6158
 30
0.0
 10
-183.345
 20
46.6158
 30
0.0
 10
-181.5394
 20
51.0918
 30
0.0
 10
-178.9058
 20
53.1642
 30
0.0
 10
-173.7484
 20
55.2684
 30
0.0
  0
SPLINE
  5
53
330
1F
100
AcDbEntity
  8
layer 1
 62
     7
370
     9
100
AcDbSpline
210
0.0
220
0.0
230
1.0
 70
    11
 71
     3
 72
    16
 73
    12
 74
     0
 42
0.0000000001
 43
0.0000000001
 12
1.0
 22
0.0
 32
0.0
 13
1.0
 23
0.0
 33
0.0
 40
0.0
 40
0.0
 40
0.0
 40
0.0
 40
0.25
 40
0.25
 40
0.25
 40
0.25
 40
0.5
 40
0.5
 40
0.5
 40
0.5
 40
1.0
 40
1.0
 40
1.0
 40
1.0
 10
-120.2606
 20
66.2807
 30
0.0
 10
-122.9017
 20
65.0134
 30
0.0
 10
-125.204
 20
66.3124
 30
0.0
 10
-127.0591
 20
68.2978
 30
0.0
 10
-127.0591
 20
68.2978
 30
0.0
 10
-128.1992
 20
65.564
 30
0.0
 10
-131.7383
 20
65.4596
 30
0.0
 10
-133.7901
 20
66.1234
 30
0.0
 10
-133.7901
 20
66.1234
 30
0.0
 10
-131.207
 20
60.2801
 30
0.0
 10
-123.2394
 20
59.9506
 30
0.0
 10
-120.2606
 20
66.2807
 30
0.0
  0
SPLINE
  5
54
330
1F
100
AcDbEntity
  8
layer 1
 62
     7
370
     9
100
AcDbSpline
210
0.0
220
0.0
230
1.0
 70
    11
 71
     3
 72
    84
 73
    80
 74
     0
 42
0.0000000001
 43
0.0000000001
 12
1.0
 22
0.0
 32
0.0
 13
1.0
 23
0.0
 33
0.0
 40
0.0
 40
0.0
 40
0.0
 40
0.0
 40
0.0476190476190476
 40
0.0476190476190476
 40
0.0476190476190476
 40
0.0476190476190476
 40
0.0952380952380952
 40
0.0952380952380952
 40
0.0952380952380952
 40
0.0952380952380952
 40
0.1428571428571428
 40
0.1428571428571428
 40
0.1428571428571428
 40
0.1428571428571428
 40
0.1904761904761905
 40
0.1904761904761905
 40
0.1904761904761905
 40
0.1904761904761905
 40
0.2380952380952381
 40
0.2380952380952381
 40
0.2380952380952381
 40
0.2380952380952381
 40
0.2857142857142857
 40
0.2857142857142857
 40
0.2857142857142857
 40
0.2857142857142857
 40
0.3333333333333333
 40
0.3333333333333333
 40
0.3333333333333333
 40
0.3333333333333333
 40
0.3809523809523809
 40
0.3809523809523809
 40
0.3809523809523809
 40
0.3809523809523809
 40
0.4285714285714285
 40
0.4285714285714285
 40
0.4285714285714285
 40
0.4285714285714285
 40
0.4761904761904762
 40
0.4761904761904762
 40
0.4761904761904762
 40
0.4761904761904762
 40
0.5238095238095238
 40
0.5238095238095238
 40
0.5238095238095238
 40
0.5238095238095238
 40
0.5714285714285714
 40
0.5714285714285714
 40
0.5714285714285714
 40
0.5714285714285714
 40
0.6190476190476191
 40
0.6190476190476191
 40
0.6190476190476191
 40
0.6190476190476191
 40
0.6666666666666666
 40
0.6666666666666666
 40
0.6666666666666666
 40
0.6666666666666666
 40
0.7142857142857143
 40
0.7142857142857143
 40
0.7142857142857143
 40
0.7142857142857143
 40
0.7619047619047619
 40
0.7619047619047619
 40
0.7619047619047619
 40
0.7619047619047619
 40
0.8095238095238095
 40
0.8095238095238095
 40
0.8095238095238095
 40
0.8095238095238095
 40
0.8571428571428571
 40
0.8571428571428571
 40
0.8571428571428571
 40
0.8571428571428571
 40
0.9047619047619048
 40
0.9047619047619048
 40
0.9047619047619048
 40
0.9047619047619048
 40
1.0
 40
1.0
 40
1.0
 40
1.0
 10
-142.6
 20
55.3307
 30
0.0
 10
-141.0117
 20
55.6763
 30
0.0
 10
-139.1292
 20
57.1324
 30
0.0
 10
-138.9817
 20
59.2013
 30
0.0
 10
-138.9817
 20
59.2013
 30
0.0
 10
-141.1809
 20
57.9746
 30
0.0
 10
-145.3822
 20
58.2734
 30
0.0
 10
-147.1623
 20
60.9318
 30
0.0
 10
-147.1623
 20
60.9318
 30
0.0
 10
-147.1623
 20
60.9318
 30
0.0
 10
-140.7516
 20
60.9435
 30
0.0
 10
-140.7516
 20
60.9435
 30
0.0
 10
-140.7516
 20
60.9435
 30
0.0
 10
-141.9846
 20
63.2737
 30
0.0
 10
-142.2854
 20
64.802
 30
0.0
 10
-142.2854
 20
67.3819
 30
0.0
 10
-142.2854
 20
67.3819
 30
0.0
 10
-142.2854
 20
71.5571
 30
0.0
 10
-139.1468
 20
76.6638
 30
0.0
 10
-134.8914
 20
76.6638
 30
0.0
 10
-134.8914
 20
76.6638
 30
0.0
 10
-132.4207
 20
76.6638
 30
0.0
 10
-130.4864
 20
75.1991
 30
0.0
 10
-130.4864
 20
72.7308
 30
0.0
 10
-130.4864
 20
72.7308
 30
0.0
 10
-130.4864
 20
68.2243
 30
0.0
 10
-134.5753
 20
69.1348
 30
0.0
 10
-135.9926
 20
71.1576
 30
0.0
 10
-135.9926
 20
71.1576
 30
0.0
 10
-136.8839
 20
71.1576
 30
0.0
 10
-137.7231
 20
67.8043
 30
0.0
 10
-137.7231
 20
66.4381
 30
0.0
 10
-137.7231
 20
66.4381
 30
0.0
 10
-137.7231
 20
62.8322
 30
0.0
 10
-135.3184
 20
59.2596
 30
0.0
 10
-131.6615
 20
58.3631
 30
0.0
 10
-131.6615
 20
58.3631
 30
0.0
 10
-131.6615
 20
58.3631
 30
0.0
 10
-133.5465
 20
55.3488
 30
0.0
 10
-133.5465
 20
55.3488
 30
0.0
 10
-133.5465
 20
55.3488
 30
0.0
 10
-133.5465
 20
55.3488
 30
0.0
 10
-131.6606
 20
52.1736
 30
0.0
 10
-131.6606
 20
52.1736
 30
0.0
 10
-131.6606
 20
52.1736
 30
0.0
 10
-135.3175
 20
51.2771
 30
0.0
 10
-137.7222
 20
47.7045
 30
0.0
 10
-137.7222
 20
44.0987
 30
0.0
 10
-137.7222
 20
44.0987
 30
0.0
 10
-137.7222
 20
42.7324
 30
0.0
 10
-136.883
 20
39.3791
 30
0.0
 10
-135.9916
 20
39.3791
 30
0.0
 10
-135.9916
 20
39.3791
 30
0.0
 10
-134.5744
 20
41.4019
 30
0.0
 10
-130.4855
 20
42.3125
 30
0.0
 10
-130.4855
 20
37.8059
 30
0.0
 10
-130.4855
 20
37.8059
 30
0.0
 10
-130.4855
 20
35.3377
 30
0.0
 10
-132.4197
 20
33.8729
 30
0.0
 10
-134.8904
 20
33.8729
 30
0.0
 10
-134.8904
 20
33.8729
 30
0.0
 10
-139.1459
 20
33.8729
 30
0.0
 10
-142.2845
 20
38.9797
 30
0.0
 10
-142.2845
 20
43.1548
 30
0.0
 10
-142.2845
 20
43.1548
 30
0.0
 10
-142.2845
 20
45.7347
 30
0.0
 10
-141.9836
 20
47.263
 30
0.0
 10
-140.7507
 20
49.5932
 30
0.0
 10
-140.7507
 20
49.5932
 30
0.0
 10
-140.7507
 20
49.5932
 30
0.0
 10
-147.1614
 20
49.6049
 30
0.0
 10
-147.1614
 20
49.6049
 30
0.0
 10
-147.1614
 20
49.6049
 30
0.0
 10
-145.3813
 20
52.2633
 30
0.0
 10
-141.18
 20
52.5621
 30
0.0
 10
-138.9807
 20
51.3354
 30
0.0
 10
-138.9807
 20
51.3354
 30
0.0
 10
-139.1283
 20
53.4043
 30
0.0
 10
-141.0117
 20
54.9852
 30
0.0
 10
-142.6
 20
55.3307
 30
0.0
  0
SPLINE
  5
55
330
1F
100
AcDbEntity
  8
layer 1
 62
     7
370
     9
100
AcDbSpline
210
0.0
220
0.0
230
1.0
 70
    11
 71
     3
 72
    60
 73
    56
 74
     0
 42
0.0000000001
 43
0.0000000001
 12
1.0
 22
0.0
 32
0.0
 13
1.0
 23
0.0
 33
0.0
 40
0.0
 40
0.0
 40
0.0
 40
0.0
 40
0.0666666666666667
 40
0.0666666666666667
 40
0.0666666666666667
 40
0.0666666666666667
 40
0.1333333333333333
 40
0.1333333333333333
 40
0.1333333333333333
 40
0.1333333333333333
 40
0.2
 40
0.2
 40
0.2
 40
0.2
 40
0.2666666666666667
 40
0.2666666666666667
 40
0.2666666666666667
 40
0.2666666666666667
 40
0.3333333333333333
 40
0.3333333333333333
 40
0.3333333333333333
 40
0.3333333333333333
 40
0.4
 40
0.4
 40
0.4
 40
0.4
 40
0.4666666666666667
 40
0.4666666666666667
 40
0.4666666666666667
 40
0.4666666666666667
 40
0.5333333333333333
 40
0.5333333333333333
 40
0.5333333333333333
 40
0.5333333333333333
 40
0.6
 40
0.6
 40
0.6
 40
0.6
 40
0.6666666666666666
 40
0.6666666666666666
 40
0.6666666666666666
 40
0.6666666666666666
 40
0.7333333333333333
 40
0.7333333333333333
 40
0.7333333333333333
 40
0.7333333333333333
 40
0.8
 40
0.8
 40
0.8
 40
0.8
 40
0.8666666666666667
 40
0.8666666666666667
 40
0.8666666666666667
 40
0.8666666666666667
 40
1.0
 40
1.0
 40
1.0
 40
1.0
 10
-162.4223
 20
65.3368
 30
0.0
 10
-162.4223
 20
65.3368
 30
0.0
 10
-154.0844
 20
65.3368
 30
0.0
 10
-154.0844
 20
65.3368
 30
0.0
 10
-154.0844
 20
65.3368
 30
0.0
 10
-155.4793
 20
68.244
 30
0.0
 10
-156.5573
 20
69.4868
 30
0.0
 10
-159.2755
 20
71.3154
 30
0.0
 10
-159.2755
 20
71.3154
 30
0.0
 10
-160.9851
 20
72.4656
 30
0.0
 10
-165.2203
 20
73.3773
 30
0.0
 10
-165.726
 20
76.1919
 30
0.0
 10
-165.726
 20
76.1919
 30
0.0
 10
-165.8958
 20
77.1674
 30
0.0
 10
-165.9246
 20
77.8699
 30
0.0
 10
-165.5688
 20
78.709
 30
0.0
 10
-165.5688
 20
78.709
 30
0.0
 10
-165.5688
 20
78.709
 30
0.0
 10
-168.8725
 20
78.709
 30
0.0
 10
-168.8725
 20
78.709
 30
0.0
 10
-168.8725
 20
78.709
 30
0.0
 10
-167.2101
 20
76.2265
 30
0.0
 10
-167.558
 20
77.6649
 30
0.0
 10
-166.7057
 20
74.111
 30
0.0
 10
-166.7057
 20
74.111
 30
0.0
 10
-166.285
 20
72.3566
 30
0.0
 10
-165.1604
 20
71.0003
 30
0.0
 10
-163.0516
 20
71.0003
 30
0.0
 10
-163.0516
 20
71.0003
 30
0.0
 10
-163.0516
 20
71.0003
 30
0.0
 10
-162.4223
 20
71.0003
 30
0.0
 10
-162.4223
 20
71.0003
 30
0.0
 10
-162.4223
 20
71.0003
 30
0.0
 10
-162.8943
 20
67.7228
 30
0.0
 10
-164.9536
 20
67.0155
 30
0.0
 10
-167.2993
 20
68.0112
 30
0.0
 10
-167.2993
 20
68.0112
 30
0.0
 10
-168.8567
 20
60.6372
 30
0.0
 10
-179.001
 20
64.7741
 30
0.0
 10
-175.7945
 20
72.5735
 30
0.0
 10
-175.7945
 20
72.5735
 30
0.0
 10
-175.6549
 20
70.5433
 30
0.0
 10
-171.3896
 20
70.5201
 30
0.0
 10
-171.3896
 20
73.5174
 30
0.0
 10
-171.3896
 20
73.5174
 30
0.0
 10
-171.3896
 20
76.0596
 30
0.0
 10
-172.9482
 20
76.5065
 30
0.0
 10
-175.3226
 20
76.5065
 30
0.0
 10
-175.3226
 20
76.5065
 30
0.0
 10
-178.6268
 20
76.5065
 30
0.0
 10
-179.7276
 20
71.3299
 30
0.0
 10
-179.7276
 20
68.7978
 30
0.0
 10
-179.7276
 20
68.7978
 30
0.0
 10
-179.7276
 20
59.1694
 30
0.0
 10
-166.2897
 20
56.0716
 30
0.0
 10
-162.4223
 20
65.3368
 30
0.0
  0
SPLINE
  5
56
330
1F
100
AcDbEntity
  8
layer 1
 62
     7
370
     9
100
AcDbSpline
210
0.0
220
0.0
230
1.0
 70
    11
 71
     3
 72
    16
 73
    12
 74
     0
 42
0.0000000001
 43
0.0000000001
 12
1.0
 22
0.0
 32
0.0
 13
1.0
 23
0.0
 33
0.0
 40
0.0
 40
0.0
 40
0.0
 40
0.0
 40
0.25
 40
0.25
 40
0.25
 40
0.25
 40
0.5
 40
0.5
 40
0.5
 40
0.5
 40
1.0
 40
1.0
 40
1.0
 40
1.0
 10
-177.8397
 20
80.7541
 30
0.0
 10
-179.9826
 20
82.0217
 30
0.0
 10
-182.1505
 20
84.764
 30
0.0
 10
-183.3459
 20
87.8335
 30
0.0
 10
-183.3459
 20
87.8335
 30
0.0
 10
-183.3459
 20
87.8335
 30
0.0
 10
-183.3459
 20
73.7369
 30
0.0
 10
-183.3459
 20
73.7369
 30
0.0
 10
-183.3459
 20
73.7369
 30
0.0
 10
-182.2661
 20
77.0191
 30
0.0
 10
-181.272
 20
78.4874
 30
0.0
 10
-177.8397
 20
80.7541
 30
0.0
  0
SPLINE
  5
57
330
1F
100
AcDbEntity
  8
layer 1
 62
     7
370
     9
100
AcDbSpline
210
0.0
220
0.0
230
1.0
 70
    11
 71
     3
 72
   100
 73
    96
 74
     0
 42
0.0000000001
 43
0.0000000001
 12
1.0
 22
0.0
 32
0.0
 13
1.0
 23
0.0
 33
0.0
 40
0.0
 40
0.0
 40
0.0
 40
0.0
 40
0.04
 40
0.04
 40
0.04
 40
0.04
 40
0.08
 40
0.08
 40
0.08
 40
0.08
 40
0.12
 40
0.12
 40
0.12
 40
0.12
 40
0.16
 40
0.16
 40
0.16
 40
0.16
 40
0.2
 40
0.2
 40
0.2
 40
0.2
 40
0.24
 40
0.24
 40
0.24
 40
0.24
 40
0.28
 40
0.28
 40
0.28
 40
0.28
 40
0.32
 40
0.32
 40
0.32
 40
0.32
 40
0.36
 40
0.36
 40
0.36
 40
0.36
 40
0.4
 40
0.4
 40
0.4
 40
0.4
 40
0.44
 40
0.44
 40
0.44
 40
0.44
 40
0.48
 40
0.48
 40
0.48
 40
0.48
 40
0.52
 40
0.52
 40
0.52
 40
0.52
 40
0.56
 40
0.56
 40
0.56
 40
0.56
 40
0.6
 40
0.6
 40
0.6
 40
0.6
 40
0.64
 40
0.64
 40
0.64
 40
0.64
 40
0.68
 40
0.68
 40
0.68
 40
0.68
 40
0.72
 40
0.72
 40
0.72
 40
0.72
 40
0.76
 40
0.76
 40
0.76
 40
0.76
 40
0.8
 40
0.8
 40
0.8
 40
0.8
 40
0.84
 40
0.84
 40
0.84
 40
0.84
 40
0.88
 40
0.88
 40
0.88
 40
0.88
 40
0.92
 40
0.92
 40
0.92
 40
0.92
 40
1.0
 40
1.0
 40
1.0
 40
1.0
 10
-150.466
 20
73.5174
 30
0.0
 10
-151.694
 20
72.3174
 30
0.0
 10
-152.7094
 20
71.4774
 30
0.0
 10
-154.7137
 20
71.9442
 30
0.0
 10
-154.7137
 20
71.9442
 30
0.0
 10
-152.2399
 20
69.6619
 30
0.0
 10
-150.6522
 20
67.9148
 30
0.0
 10
-150.1514
 20
65.3368
 30
0.0
 10
-150.1514
 20
65.3368
 30
0.0
 10
-150.1514
 20
65.3368
 30
0.0
 10
-147.005
 20
65.3368
 30
0.0
 10
-147.005
 20
65.3368
 30
0.0
 10
-147.005
 20
65.3368
 30
0.0
 10
-147.005
 20
73.3837
 30
0.0
 10
-143.8778
 20
76.759
 30
0.0
 10
-139.139
 20
80.9115
 30
0.0
 10
-139.139
 20
80.9115
 30
0.0
 10
-143.137
 20
84.1396
 30
0.0
 10
-147.1308
 20
89.5427
 30
0.0
 10
-147.005
 20
96.4861
 30
0.0
 10
-147.005
 20
96.4861
 30
0.0
 10
-147.005
 20
96.4861
 30
0.0
 10
-150.1514
 20
96.4861
 30
0.0
 10
-150.1514
 20
96.4861
 30
0.0
 10
-150.1514
 20
96.4861
 30
0.0
 10
-150.668
 20
94.2854
 30
0.0
 10
-151.675
 20
91.1577
 30
0.0
 10
-154.7137
 20
89.8787
 30
0.0
 10
-154.7137
 20
89.8787
 30
0.0
 10
-152.8807
 20
89.8787
 30
0.0
 10
-150.8161
 20
89.1447
 30
0.0
 10
-150.466
 20
87.8335
 30
0.0
 10
-150.466
 20
87.8335
 30
0.0
 10
-151.6076
 20
87.5287
 30
0.0
 10
-152.6363
 20
85.8484
 30
0.0
 10
-154.7071
 20
85.7818
 30
0.0
 10
-154.7071
 20
85.7818
 30
0.0
 10
-156.2476
 20
85.7322
 30
0.0
 10
-159.276
 20
85.7777
 30
0.0
 10
-159.276
 20
83.5859
 30
0.0
 10
-159.276
 20
83.5859
 30
0.0
 10
-159.276
 20
82.7744
 30
0.0
 10
-157.8018
 20
82.7993
 30
0.0
 10
-157.2308
 20
82.7993
 30
0.0
 10
-157.2308
 20
82.7993
 30
0.0
 10
-153.4695
 20
82.7993
 30
0.0
 10
-152.4381
 20
88.0097
 30
0.0
 10
-146.2184
 20
86.4176
 30
0.0
 10
-146.2184
 20
86.4176
 30
0.0
 10
-146.2184
 20
86.4176
 30
0.0
 10
-147.8709
 20
83.6906
 30
0.0
 10
-147.8709
 20
83.6906
 30
0.0
 10
-147.8709
 20
83.6906
 30
0.0
 10
-145.3828
 20
83.7432
 30
0.0
 10
-145.8781
 20
83.9344
 30
0.0
 10
-144.3294
 20
82.8005
 30
0.0
 10
-144.3294
 20
82.8005
 30
0.0
 10
-143.2659
 20
82.0219
 30
0.0
 10
-143.1304
 20
81.4489
 30
0.0
 10
-141.4988
 20
81.0688
 30
0.0
 10
-141.4988
 20
81.0688
 30
0.0
 10
-141.4988
 20
81.0688
 30
0.0
 10
-141.4988
 20
80.7541
 30
0.0
 10
-141.4988
 20
80.7541
 30
0.0
 10
-141.4988
 20
80.7541
 30
0.0
 10
-144.5388
 20
80.0459
 30
0.0
 10
-143.595
 20
77.9224
 30
0.0
 10
-147.7916
 20
77.9224
 30
0.0
 10
-147.7916
 20
77.9224
 30
0.0
 10
-147.2347
 20
77.0907
 30
0.0
 10
-146.808
 20
77.067
 30
0.0
 10
-146.378
 20
75.8502
 30
0.0
 10
-146.378
 20
75.8502
 30
0.0
 10
-146.1305
 20
75.1501
 30
0.0
 10
-147.7706
 20
74.9333
 30
0.0
 10
-148.5782
 20
74.9333
 30
0.0
 10
-148.5782
 20
74.9333
 30
0.0
 10
-148.5782
 20
74.9333
 30
0.0
 10
-148.7355
 20
74.9333
 30
0.0
 10
-148.7355
 20
74.9333
 30
0.0
 10
-148.7355
 20
74.9333
 30
0.0
 10
-152.8656
 20
74.9333
 30
0.0
 10
-155.0736
 20
78.8663
 30
0.0
 10
-156.9162
 20
78.8663
 30
0.0
 10
-156.9162
 20
78.8663
 30
0.0
 10
-157.5481
 20
78.8663
 30
0.0
 10
-159.276
 20
79.0892
 30
0.0
 10
-159.276
 20
78.0797
 30
0.0
 10
-159.276
 20
78.0797
 30
0.0
 10
-159.276
 20
75.805
 30
0.0
 10
-155.8592
 20
76.2238
 30
0.0
 10
-154.4284
 20
76.0052
 30
0.0
 10
-154.4284
 20
76.0052
 30
0.0
 10
-153.3323
 20
75.8377
 30
0.0
 10
-150.7183
 20
74.4624
 30
0.0
 10
-150.466
 20
73.5174
 30
0.0
  0
SPLINE
  5
58
330
1F
100
AcDbEntity
  8
layer 1
 62
     7
370
     9
100
AcDbSpline
210
0.0
220
0.0
230
1.0
 70
    11
 71
     3
 72
    20
 73
    16
 74
     0
 42
0.0000000001
 43
0.0000000001
 12
1.0
 22
0.0
 32
0.0
 13
1.0
 23
0.0
 33
0.0
 40
0.0
 40
0.0
 40
0.0
 40
0.0
 40
0.2
 40
0.2
 40
0.2
 40
0.2
 40
0.4
 40
0.4
 40
0.4
 40
0.4
 40
0.6
 40
0.6
 40
0.6
 40
0.6
 40
1.0
 40
1.0
 40
1.0
 40
1.0
 10
-106.6031
 20
55.2485
 30
0.0
 10
-105.6884
 20
54.9734
 30
0.0
 10
-104.5998
 20
54.3724
 30
0.0
 10
-103.9548
 20
53.405
 30
0.0
 10
-103.9548
 20
53.405
 30
0.0
 10
-103.6384
 20
54.2632
 30
0.0
 10
-103.0336
 20
54.9257
 30
0.0
 10
-102.2521
 20
55.2527
 30
0.0
 10
-102.2521
 20
55.2527
 30
0.0
 10
-103.0336
 20
55.5798
 30
0.0
 10
-103.5982
 20
56.2578
 30
0.0
 10
-103.9146
 20
57.116
 30
0.0
 10
-103.9146
 20
57.116
 30
0.0
 10
-104.5596
 20
56.1487
 30
0.0
 10
-105.6884
 20
55.5728
 30
0.0
 10
-106.6031
 20
55.2485
 30
0.0
  0
SPLINE
  5
59
330
1F
100
AcDbEntity
  8
layer 1
 62
     7
370
     9
100
AcDbSpline
210
0.0
220
0.0
230
1.0
 70
    11
 71
     3
 72
    16
 73
    12
 74
     0
 42
0.0000000001
 43
0.0000000001
 12
1.0
 22
0.0
 32
0.0
 13
1.0
 23
0.0
 33
0.0
 40
0.0
 40
0.0
 40
0.0
 40
0.0
 40
0.25
 40
0.25
 40
0.25
 40
0.25
 40
0.5
 40
0.5
 40
0.5
 40
0.5
 40
1.0
 40
1.0
 40
1.0
 40
1.0
 10
-80.1871
 20
55.2683
 30
0.0
 10
-74.8379
 20
52.9722
 30
0.0
 10
-72.3971
 20
51.0918
 30
0.0
 10
-70.5915
 20
46.6158
 30
0.0
 10
-70.5915
 20
46.6158
 30
0.0
 10
-70.5915
 20
46.6158
 30
0.0
 10
-70.5906
 20
63.9209
 30
0.0
 10
-70.5906
 20
63.9209
 30
0.0
 10
-70.5906
 20
63.9209
 30
0.0
 10
-72.3961
 20
59.445
 30
0.0
 10
-74.8379
 20
57.5644
 30
0.0
 10
-80.1871
 20
55.2683
 30
0.0
  0
SPLINE
  5
5A
330
1F
100
AcDbEntity
  8
layer 1
 62
     7
370
     9
100
AcDbSpline
210
0.0
220
0.0
230
1.0
 70
    11
 71
     3
 72
    60
 73
    56
 74
     0
 42
0.0000000001
 43
0.0000000001
 12
1.0
 22
0.0
 32
0.0
 13
1.0
 23
0.0
 33
0.0
 40
0.0
 40
0.0
 40
0.0
 40
0.0
 40
0.0666666666666667
 40
0.0666666666666667
 40
0.0666666666666667
 40
0.0666666666666667
 40
0.1333333333333333
 40
0.1333333333333333
 40
0.1333333333333333
 40
0.1333333333333333
 40
0.2
 40
0.2
 40
0.2
 40
0.2
 40
0.2666666666666667
 40
0.2666666666666667
 40
0.2666666666666667
 40
0.2666666666666667
 40
0.3333333333333333
 40
0.3333333333333333
 40
0.3333333333333333
 40
0.3333333333333333
 40
0.4
 40
0.4
 40
0.4
 40
0.4
 40
0.4666666666666667
 40
0.4666666666666667
 40
0.4666666666666667
 40
0.4666666666666667
 40
0.5333333333333333
 40
0.5333333333333333
 40
0.5333333333333333
 40
0.5333333333333333
 40
0.6
 40
0.6
 40
0.6
 40
0.6
 40
0.6666666666666666
 40
0.6666666666666666
 40
0.6666666666666666
 40
0.6666666666666666
 40
0.7333333333333333
 40
0.7333333333333333
 40
0.7333333333333333
 40
0.7333333333333333
 40
0.8
 40
0.8
 40
0.8
 40
0.8
 40
0.8666666666666667
 40
0.8666666666666667
 40
0.8666666666666667
 40
0.8666666666666667
 40
1.0
 40
1.0
 40
1.0
 40
1.0
 10
-91.6043
 20
45.2
 30
0.0
 10
-91.6043
 20
45.2
 30
0.0
 10
-99.9422
 20
45.2
 30
0.0
 10
-99.9422
 20
45.2
 30
0.0
 10
-99.9422
 20
45.2
 30
0.0
 10
-98.5473
 20
42.2927
 30
0.0
 10
-97.4693
 20
41.05
 30
0.0
 10
-94.7511
 20
39.2214
 30
0.0
 10
-94.7511
 20
39.2214
 30
0.0
 10
-93.0415
 20
38.0712
 30
0.0
 10
-88.8063
 20
37.1594
 30
0.0
 10
-88.3006
 20
34.3449
 30
0.0
 10
-88.3006
 20
34.3449
 30
0.0
 10
-88.1308
 20
33.3693
 30
0.0
 10
-88.1021
 20
32.6668
 30
0.0
 10
-88.4579
 20
31.8278
 30
0.0
 10
-88.4579
 20
31.8278
 30
0.0
 10
-88.4579
 20
31.8278
 30
0.0
 10
-85.1542
 20
31.8278
 30
0.0
 10
-85.1542
 20
31.8278
 30
0.0
 10
-85.1542
 20
31.8278
 30
0.0
 10
-86.8165
 20
34.3102
 30
0.0
 10
-86.4686
 20
32.8719
 30
0.0
 10
-87.3209
 20
36.4258
 30
0.0
 10
-87.3209
 20
36.4258
 30
0.0
 10
-87.7416
 20
38.1802
 30
0.0
 10
-88.8663
 20
39.5364
 30
0.0
 10
-90.975
 20
39.5364
 30
0.0
 10
-90.975
 20
39.5364
 30
0.0
 10
-90.975
 20
39.5364
 30
0.0
 10
-91.6043
 20
39.5364
 30
0.0
 10
-91.6043
 20
39.5364
 30
0.0
 10
-91.6043
 20
39.5364
 30
0.0
 10
-91.1323
 20
42.8139
 30
0.0
 10
-89.0731
 20
43.5212
 30
0.0
 10
-86.7274
 20
42.5255
 30
0.0
 10
-86.7274
 20
42.5255
 30
0.0
 10
-85.17
 20
49.8995
 30
0.0
 10
-75.0256
 20
45.7626
 30
0.0
 10
-78.2321
 20
37.9632
 30
0.0
 10
-78.2321
 20
37.9632
 30
0.0
 10
-78.3717
 20
39.9934
 30
0.0
 10
-82.6371
 20
40.0166
 30
0.0
 10
-82.6371
 20
37.0193
 30
0.0
 10
-82.6371
 20
37.0193
 30
0.0
 10
-82.6371
 20
34.4772
 30
0.0
 10
-81.0784
 20
34.0302
 30
0.0
 10
-78.7041
 20
34.0302
 30
0.0
 10
-78.7041
 20
34.0302
 30
0.0
 10
-75.3999
 20
34.0302
 30
0.0
 10
-74.2991
 20
39.2069
 30
0.0
 10
-74.2991
 20
41.7389
 30
0.0
 10
-74.2991
 20
41.7389
 30
0.0
 10
-74.2991
 20
51.3674
 30
0.0
 10
-87.7369
 20
54.4651
 30
0.0
 10
-91.6043
 20
45.2
 30
0.0
  0
SPLINE
  5
5B
330
1F
100
AcDbEntity
  8
layer 1
 62
     7
370
     9
100
AcDbSpline
210
0.0
220
0.0
230
1.0
 70
    11
 71
     3
 72
    60
 73
    56
 74
     0
 42
0.0000000001
 43
0.0000000001
 12
1.0
 22
0.0
 32
0.0
 13
1.0
 23
0.0
 33
0.0
 40
0.0
 40
0.0
 40
0.0
 40
0.0
 40
0.0666666666666667
 40
0.0666666666666667
 40
0.0666666666666667
 40
0.0666666666666667
 40
0.1333333333333333
 40
0.1333333333333333
 40
0.1333333333333333
 40
0.1333333333333333
 40
0.2
 40
0.2
 40
0.2
 40
0.2
 40
0.2666666666666667
 40
0.2666666666666667
 40
0.2666666666666667
 40
0.2666666666666667
 40
0.3333333333333333
 40
0.3333333333333333
 40
0.3333333333333333
 40
0.3333333333333333
 40
0.4
 40
0.4
 40
0.4
 40
0.4
 40
0.4666666666666667
 40
0.4666666666666667
 40
0.4666666666666667
 40
0.4666666666666667
 40
0.5333333333333333
 40
0.5333333333333333
 40
0.5333333333333333
 40
0.5333333333333333
 40
0.6
 40
0.6
 40
0.6
 40
0.6
 40
0.6666666666666666
 40
0.6666666666666666
 40
0.6666666666666666
 40
0.6666666666666666
 40
0.7333333333333333
 40
0.7333333333333333
 40
0.7333333333333333
 40
0.7333333333333333
 40
0.8
 40
0.8
 40
0.8
 40
0.8
 40
0.8666666666666667
 40
0.8666666666666667
 40
0.8666666666666667
 40
0.8666666666666667
 40
1.0
 40
1.0
 40
1.0
 40
1.0
 10
-91.5588
 20
13.8413
 30
0.0
 10
-91.5588
 20
13.8413
 30
0.0
 10
-99.8967
 20
13.8413
 30
0.0
 10
-99.8967
 20
13.8413
 30
0.0
 10
-99.8967
 20
13.8413
 30
0.0
 10
-98.5018
 20
16.7485
 30
0.0
 10
-97.4238
 20
17.9913
 30
0.0
 10
-94.7056
 20
19.8199
 30
0.0
 10
-94.7056
 20
19.8199
 30
0.0
 10
-92.996
 20
20.97
 30
0.0
 10
-88.7608
 20
21.8818
 30
0.0
 10
-88.2551
 20
24.6964
 30
0.0
 10
-88.2551
 20
24.6964
 30
0.0
 10
-88.0853
 20
25.6719
 30
0.0
 10
-88.0565
 20
26.3744
 30
0.0
 10
-88.4124
 20
27.2135
 30
0.0
 10
-88.4124
 20
27.2135
 30
0.0
 10
-88.4124
 20
27.2135
 30
0.0
 10
-85.1086
 20
27.2135
 30
0.0
 10
-85.1086
 20
27.2135
 30
0.0
 10
-85.1086
 20
27.2135
 30
0.0
 10
-86.771
 20
24.731
 30
0.0
 10
-86.4231
 20
26.1694
 30
0.0
 10
-87.2754
 20
22.6155
 30
0.0
 10
-87.2754
 20
22.6155
 30
0.0
 10
-87.6961
 20
20.8611
 30
0.0
 10
-88.8207
 20
19.5048
 30
0.0
 10
-90.9295
 20
19.5048
 30
0.0
 10
-90.9295
 20
19.5048
 30
0.0
 10
-90.9295
 20
19.5048
 30
0.0
 10
-91.5588
 20
19.5048
 30
0.0
 10
-91.5588
 20
19.5048
 30
0.0
 10
-91.5588
 20
19.5048
 30
0.0
 10
-91.0868
 20
16.2273
 30
0.0
 10
-89.0275
 20
15.52
 30
0.0
 10
-86.6819
 20
16.5157
 30
0.0
 10
-86.6819
 20
16.5157
 30
0.0
 10
-85.1244
 20
9.1417
 30
0.0
 10
-74.9801
 20
13.2786
 30
0.0
 10
-78.1866
 20
21.078
 30
0.0
 10
-78.1866
 20
21.078
 30
0.0
 10
-78.3262
 20
19.0478
 30
0.0
 10
-82.5915
 20
19.0246
 30
0.0
 10
-82.5915
 20
22.0219
 30
0.0
 10
-82.5915
 20
22.0219
 30
0.0
 10
-82.5915
 20
24.5641
 30
0.0
 10
-81.0329
 20
25.011
 30
0.0
 10
-78.6585
 20
25.011
 30
0.0
 10
-78.6585
 20
25.011
 30
0.0
 10
-75.3543
 20
25.011
 30
0.0
 10
-74.2536
 20
19.8344
 30
0.0
 10
-74.2536
 20
17.3023
 30
0.0
 10
-74.2536
 20
17.3023
 30
0.0
 10
-74.2536
 20
7.6738
 30
0.0
 10
-87.6914
 20
4.5761
 30
0.0
 10
-91.5588
 20
13.8413
 30
0.0
  0
SPLINE
  5
5C
330
1F
100
AcDbEntity
  8
layer 1
 62
     7
370
     9
100
AcDbSpline
210
0.0
220
0.0
230
1.0
 70
    11
 71
     3
 72
    16
 73
    12
 74
     0
 42
0.0000000001
 43
0.0000000001
 12
1.0
 22
0.0
 32
0.0
 13
1.0
 23
0.0
 33
0.0
 40
0.0
 40
0.0
 40
0.0
 40
0.0
 40
0.25
 40
0.25
 40
0.25
 40
0.25
 40
0.5
 40
0.5
 40
0.5
 40
0.5
 40
1.0
 40
1.0
 40
1.0
 40
1.0
 10
-76.1414
 20
29.2586
 30
0.0
 10
-73.9985
 20
30.5262
 30
0.0
 10
-71.8306
 20
33.2685
 30
0.0
 10
-70.6352
 20
36.338
 30
0.0
 10
-70.6352
 20
36.338
 30
0.0
 10
-70.6352
 20
36.338
 30
0.0
 10
-70.6352
 20
22.2414
 30
0.0
 10
-70.6352
 20
22.2414
 30
0.0
 10
-70.6352
 20
22.2414
 30
0.0
 10
-71.7151
 20
25.5236
 30
0.0
 10
-72.7091
 20
26.9919
 30
0.0
 10
-76.1414
 20
29.2586
 30
0.0
  0
SPLINE
  5
5D
330
1F
100
AcDbEntity
  8
layer 1
 62
     7
370
     9
100
AcDbSpline
210
0.0
220
0.0
230
1.0
 70
    11
 71
     3
 72
   100
 73
    96
 74
     0
 42
0.0000000001
 43
0.0000000001
 12
1.0
 22
0.0
 32
0.0
 13
1.0
 23
0.0
 33
0.0
 40
0.0
 40
0.0
 40
0.0
 40
0.0
 40
0.04
 40
0.04
 40
0.04
 40
0.04
 40
0.08
 40
0.08
 40
0.08
 40
0.08
 40
0.12
 40
0.12
 40
0.12
 40
0.12
 40
0.16
 40
0.16
 40
0.16
 40
0.16
 40
0.2
 40
0.2
 40
0.2
 40
0.2
 40
0.24
 40
0.24
 40
0.24
 40
0.24
 40
0.28
 40
0.28
 40
0.28
 40
0.28
 40
0.32
 40
0.32
 40
0.32
 40
0.32
 40
0.36
 40
0.36
 40
0.36
 40
0.36
 40
0.4
 40
0.4
 40
0.4
 40
0.4
 40
0.44
 40
0.44
 40
0.44
 40
0.44
 40
0.48
 40
0.48
 40
0.48
 40
0.48
 40
0.52
 40
0.52
 40
0.52
 40
0.52
 40
0.56
 40
0.56
 40
0.56
 40
0.56
 40
0.6
 40
0.6
 40
0.6
 40
0.6
 40
0.64
 40
0.64
 40
0.64
 40
0.64
 40
0.68
 40
0.68
 40
0.68
 40
0.68
 40
0.72
 40
0.72
 40
0.72
 40
0.72
 40
0.76
 40
0.76
 40
0.76
 40
0.76
 40
0.8
 40
0.8
 40
0.8
 40
0.8
 40
0.84
 40
0.84
 40
0.84
 40
0.84
 40
0.88
 40
0.88
 40
0.88
 40
0.88
 40
0.92
 40
0.92
 40
0.92
 40
0.92
 40
1.0
 40
1.0
 40
1.0
 40
1.0
 10
-103.5151
 20
22.0219
 30
0.0
 10
-102.2871
 20
20.8219
 30
0.0
 10
-101.2717
 20
19.9819
 30
0.0
 10
-99.2674
 20
20.4487
 30
0.0
 10
-99.2674
 20
20.4487
 30
0.0
 10
-101.7412
 20
18.1664
 30
0.0
 10
-103.3289
 20
16.4193
 30
0.0
 10
-103.8297
 20
13.8413
 30
0.0
 10
-103.8297
 20
13.8413
 30
0.0
 10
-103.8297
 20
13.8413
 30
0.0
 10
-106.9761
 20
13.8413
 30
0.0
 10
-106.9761
 20
13.8413
 30
0.0
 10
-106.9761
 20
13.8413
 30
0.0
 10
-106.9761
 20
21.8882
 30
0.0
 10
-110.1034
 20
25.2635
 30
0.0
 10
-114.8421
 20
29.416
 30
0.0
 10
-114.8421
 20
29.416
 30
0.0
 10
-110.8442
 20
32.6441
 30
0.0
 10
-106.8504
 20
38.0472
 30
0.0
 10
-106.9761
 20
44.9906
 30
0.0
 10
-106.9761
 20
44.9906
 30
0.0
 10
-106.9761
 20
44.9906
 30
0.0
 10
-103.8297
 20
44.9906
 30
0.0
 10
-103.8297
 20
44.9906
 30
0.0
 10
-103.8297
 20
44.9906
 30
0.0
 10
-103.3131
 20
42.7899
 30
0.0
 10
-102.3061
 20
39.6622
 30
0.0
 10
-99.2674
 20
38.3832
 30
0.0
 10
-99.2674
 20
38.3832
 30
0.0
 10
-101.1005
 20
38.3832
 30
0.0
 10
-103.165
 20
37.6491
 30
0.0
 10
-103.5151
 20
36.338
 30
0.0
 10
-103.5151
 20
36.338
 30
0.0
 10
-102.3735
 20
36.0332
 30
0.0
 10
-101.3448
 20
34.3529
 30
0.0
 10
-99.274
 20
34.2863
 30
0.0
 10
-99.274
 20
34.2863
 30
0.0
 10
-97.7335
 20
34.2367
 30
0.0
 10
-94.7051
 20
34.2822
 30
0.0
 10
-94.7051
 20
32.0904
 30
0.0
 10
-94.7051
 20
32.0904
 30
0.0
 10
-94.7051
 20
31.2789
 30
0.0
 10
-96.1794
 20
31.3038
 30
0.0
 10
-96.7503
 20
31.3038
 30
0.0
 10
-96.7503
 20
31.3038
 30
0.0
 10
-100.5116
 20
31.3038
 30
0.0
 10
-101.543
 20
36.5142
 30
0.0
 10
-107.7627
 20
34.9221
 30
0.0
 10
-107.7627
 20
34.9221
 30
0.0
 10
-107.7627
 20
34.9221
 30
0.0
 10
-106.1102
 20
32.1951
 30
0.0
 10
-106.1102
 20
32.1951
 30
0.0
 10
-106.1102
 20
32.1951
 30
0.0
 10
-108.5983
 20
32.2477
 30
0.0
 10
-108.103
 20
32.4389
 30
0.0
 10
-109.6517
 20
31.305
 30
0.0
 10
-109.6517
 20
31.305
 30
0.0
 10
-110.7152
 20
30.5264
 30
0.0
 10
-110.8507
 20
29.9534
 30
0.0
 10
-112.4823
 20
29.5733
 30
0.0
 10
-112.4823
 20
29.5733
 30
0.0
 10
-112.4823
 20
29.5733
 30
0.0
 10
-112.4823
 20
29.2586
 30
0.0
 10
-112.4823
 20
29.2586
 30
0.0
 10
-112.4823
 20
29.2586
 30
0.0
 10
-109.4423
 20
28.5504
 30
0.0
 10
-110.3861
 20
26.4269
 30
0.0
 10
-106.1895
 20
26.4269
 30
0.0
 10
-106.1895
 20
26.4269
 30
0.0
 10
-106.7464
 20
25.5952
 30
0.0
 10
-107.1731
 20
25.5715
 30
0.0
 10
-107.6031
 20
24.3547
 30
0.0
 10
-107.6031
 20
24.3547
 30
0.0
 10
-107.8506
 20
23.6546
 30
0.0
 10
-106.2105
 20
23.4378
 30
0.0
 10
-105.4029
 20
23.4378
 30
0.0
 10
-105.4029
 20
23.4378
 30
0.0
 10
-105.4029
 20
23.4378
 30
0.0
 10
-105.2456
 20
23.4378
 30
0.0
 10
-105.2456
 20
23.4378
 30
0.0
 10
-105.2456
 20
23.4378
 30
0.0
 10
-101.1155
 20
23.4378
 30
0.0
 10
-98.9075
 20
27.3708
 30
0.0
 10
-97.065
 20
27.3708
 30
0.0
 10
-97.065
 20
27.3708
 30
0.0
 10
-96.433
 20
27.3708
 30
0.0
 10
-94.7051
 20
27.5937
 30
0.0
 10
-94.7051
 20
26.5842
 30
0.0
 10
-94.7051
 20
26.5842
 30
0.0
 10
-94.7051
 20
24.3095
 30
0.0
 10
-98.1219
 20
24.7283
 30
0.0
 10
-99.5527
 20
24.5097
 30
0.0
 10
-99.5527
 20
24.5097
 30
0.0
 10
-100.6488
 20
24.3422
 30
0.0
 10
-103.2628
 20
22.9669
 30
0.0
 10
-103.5151
 20
22.0219
 30
0.0
  0
SPLINE
  5
5E
330
1F
100
AcDbEntity
  8
layer 1
 62
     7
370
     9
100
AcDbSpline
210
0.0
220
0.0
230
1.0
 70
    11
 71
     3
 72
    20
 73
    16
 74
     0
 42
0.0000000001
 43
0.0000000001
 12
1.0
 22
0.0
 32
0.0
 13
1.0
 23
0.0
 33
0.0
 40
0.0
 40
0.0
 40
0.0
 40
0.0
 40
0.2
 40
0.2
 40
0.2
 40
0.2
 40
0.4
 40
0.4
 40
0.4
 40
0.4
 40
0.6
 40
0.6
 40
0.6
 40
0.6
 40
1.0
 40
1.0
 40
1.0
 40
1.0
 10
-126.9054
 20
26.4967
 30
0.0
 10
-125.222
 20
26.4967
 30
0.0
 10
-123.8572
 20
27.8614
 30
0.0
 10
-123.8572
 20
29.5449
 30
0.0
 10
-123.8572
 20
29.5449
 30
0.0
 10
-123.8572
 20
31.2284
 30
0.0
 10
-125.222
 20
32.5932
 30
0.0
 10
-126.9054
 20
32.5932
 30
0.0
 10
-126.9054
 20
32.5932
 30
0.0
 10
-128.5889
 20
32.5932
 30
0.0
 10
-129.9537
 20
31.2284
 30
0.0
 10
-129.9537
 20
29.5449
 30
0.0
 10
-129.9537
 20
29.5449
 30
0.0
 10
-129.9537
 20
27.8614
 30
0.0
 10
-128.5889
 20
26.4967
 30
0.0
 10
-126.9054
 20
26.4967
 30
0.0
  0
SPLINE
  5
5F
330
1F
100
AcDbEntity
  8
layer 1
 62
     7
370
     9
100
AcDbSpline
210
0.0
220
0.0
230
1.0
 70
    11
 71
     3
 72
    16
 73
    12
 74
     0
 42
0.0000000001
 43
0.0000000001
 12
1.0
 22
0.0
 32
0.0
 13
1.0
 23
0.0
 33
0.0
 40
0.0
 40
0.0
 40
0.0
 40
0.0
 40
0.25
 40
0.25
 40
0.25
 40
0.25
 40
0.5
 40
0.5
 40
0.5
 40
0.5
 40
1.0
 40
1.0
 40
1.0
 40
1.0
 10
-120.2597
 20
44.256
 30
0.0
 10
-122.9007
 20
45.5234
 30
0.0
 10
-125.2031
 20
44.2243
 30
0.0
 10
-127.0581
 20
42.239
 30
0.0
 10
-127.0581
 20
42.239
 30
0.0
 10
-128.1983
 20
44.9728
 30
0.0
 10
-131.7374
 20
45.0771
 30
0.0
 10
-133.7892
 20
44.4133
 30
0.0
 10
-133.7892
 20
44.4133
 30
0.0
 10
-131.2061
 20
50.2566
 30
0.0
 10
-123.2384
 20
50.5862
 30
0.0
 10
-120.2597
 20
44.256
 30
0.0
  0
SPLINE
  5
60
330
1F
100
AcDbEntity
  8
layer 1
 62
     7
370
     9
100
AcDbSpline
210
0.0
220
0.0
230
1.0
 70
    11
 71
     3
 72
    60
 73
    56
 74
     0
 42
0.0000000001
 43
0.0000000001
 12
1.0
 22
0.0
 32
0.0
 13
1.0
 23
0.0
 33
0.0
 40
0.0
 40
0.0
 40
0.0
 40
0.0
 40
0.0666666666666667
 40
0.0666666666666667
 40
0.0666666666666667
 40
0.0666666666666667
 40
0.1333333333333333
 40
0.1333333333333333
 40
0.1333333333333333
 40
0.1333333333333333
 40
0.2
 40
0.2
 40
0.2
 40
0.2
 40
0.2666666666666667
 40
0.2666666666666667
 40
0.2666666666666667
 40
0.2666666666666667
 40
0.3333333333333333
 40
0.3333333333333333
 40
0.3333333333333333
 40
0.3333333333333333
 40
0.4
 40
0.4
 40
0.4
 40
0.4
 40
0.4666666666666667
 40
0.4666666666666667
 40
0.4666666666666667
 40
0.4666666666666667
 40
0.5333333333333333
 40
0.5333333333333333
 40
0.5333333333333333
 40
0.5333333333333333
 40
0.6
 40
0.6
 40
0.6
 40
0.6
 40
0.6666666666666666
 40
0.6666666666666666
 40
0.6666666666666666
 40
0.6666666666666666
 40
0.7333333333333333
 40
0.7333333333333333
 40
0.7333333333333333
 40
0.7333333333333333
 40
0.8
 40
0.8
 40
0.8
 40
0.8
 40
0.8666666666666667
 40
0.8666666666666667
 40
0.8666666666666667
 40
0.8666666666666667
 40
1.0
 40
1.0
 40
1.0
 40
1.0
 10
-162.4214
 20
45.2
 30
0.0
 10
-162.4214
 20
45.2
 30
0.0
 10
-154.0835
 20
45.2
 30
0.0
 10
-154.0835
 20
45.2
 30
0.0
 10
-154.0835
 20
45.2
 30
0.0
 10
-155.4784
 20
42.2927
 30
0.0
 10
-156.5564
 20
41.05
 30
0.0
 10
-159.2746
 20
39.2214
 30
0.0
 10
-159.2746
 20
39.2214
 30
0.0
 10
-160.9842
 20
38.0712
 30
0.0
 10
-165.2194
 20
37.1594
 30
0.0
 10
-165.7251
 20
34.3449
 30
0.0
 10
-165.7251
 20
34.3449
 30
0.0
 10
-165.8949
 20
33.3693
 30
0.0
 10
-165.9236
 20
32.6668
 30
0.0
 10
-165.5678
 20
31.8278
 30
0.0
 10
-165.5678
 20
31.8278
 30
0.0
 10
-165.5678
 20
31.8278
 30
0.0
 10
-168.8715
 20
31.8278
 30
0.0
 10
-168.8715
 20
31.8278
 30
0.0
 10
-168.8715
 20
31.8278
 30
0.0
 10
-167.2092
 20
34.3102
 30
0.0
 10
-167.5571
 20
32.8719
 30
0.0
 10
-166.7048
 20
36.4258
 30
0.0
 10
-166.7048
 20
36.4258
 30
0.0
 10
-166.2841
 20
38.1802
 30
0.0
 10
-165.1594
 20
39.5364
 30
0.0
 10
-163.0507
 20
39.5364
 30
0.0
 10
-163.0507
 20
39.5364
 30
0.0
 10
-163.0507
 20
39.5364
 30
0.0
 10
-162.4214
 20
39.5364
 30
0.0
 10
-162.4214
 20
39.5364
 30
0.0
 10
-162.4214
 20
39.5364
 30
0.0
 10
-162.8934
 20
42.8139
 30
0.0
 10
-164.9526
 20
43.5212
 30
0.0
 10
-167.2983
 20
42.5255
 30
0.0
 10
-167.2983
 20
42.5255
 30
0.0
 10
-168.8557
 20
49.8995
 30
0.0
 10
-179.0001
 20
45.7626
 30
0.0
 10
-175.7936
 20
37.9632
 30
0.0
 10
-175.7936
 20
37.9632
 30
0.0
 10
-175.654
 20
39.9934
 30
0.0
 10
-171.3886
 20
40.0166
 30
0.0
 10
-171.3886
 20
37.0193
 30
0.0
 10
-171.3886
 20
37.0193
 30
0.0
 10
-171.3886
 20
34.4772
 30
0.0
 10
-172.9473
 20
34.0302
 30
0.0
 10
-175.3216
 20
34.0302
 30
0.0
 10
-175.3216
 20
34.0302
 30
0.0
 10
-178.6258
 20
34.0302
 30
0.0
 10
-179.7266
 20
39.2069
 30
0.0
 10
-179.7266
 20
41.7389
 30
0.0
 10
-179.7266
 20
41.7389
 30
0.0
 10
-179.7266
 20
51.3674
 30
0.0
 10
-166.2888
 20
54.4651
 30
0.0
 10
-162.4214
 20
45.2
 30
0.0
  0
SPLINE
  5
61
330
1F
100
AcDbEntity
  8
layer 1
 62
     7
370
     9
100
AcDbSpline
210
0.0
220
0.0
230
1.0
 70
    11
 71
     3
 72
    16
 73
    12
 74
     0
 42
0.0000000001
 43
0.0000000001
 12
1.0
 22
0.0
 32
0.0
 13
1.0
 23
0.0
 33
0.0
 40
0.0
 40
0.0
 40
0.0
 40
0.0
 40
0.25
 40
0.25
 40
0.25
 40
0.25
 40
0.5
 40
0.5
 40
0.5
 40
0.5
 40
1.0
 40
1.0
 40
1.0
 40
1.0
 10
-120.3052
 20
14.7852
 30
0.0
 10
-122.9462
 20
13.5179
 30
0.0
 10
-125.2486
 20
14.8169
 30
0.0
 10
-127.1037
 20
16.8023
 30
0.0
 10
-127.1037
 20
16.8023
 30
0.0
 10
-128.2438
 20
14.0684
 30
0.0
 10
-131.7829
 20
13.9641
 30
0.0
 10
-133.8347
 20
14.6279
 30
0.0
 10
-133.8347
 20
14.6279
 30
0.0
 10
-131.2516
 20
8.7846
 30
0.0
 10
-123.284
 20
8.4551
 30
0.0
 10
-120.3052
 20
14.7852
 30
0.0
  0
SPLINE
  5
62
330
1F
100
AcDbEntity
  8
layer 1
 62
     7
370
     9
100
AcDbSpline
210
0.0
220
0.0
230
1.0
 70
    11
 71
     3
 72
    60
 73
    56
 74
     0
 42
0.0000000001
 43
0.0000000001
 12
1.0
 22
0.0
 32
0.0
 13
1.0
 23
0.0
 33
0.0
 40
0.0
 40
0.0
 40
0.0
 40
0.0
 40
0.0666666666666667
 40
0.0666666666666667
 40
0.0666666666666667
 40
0.0666666666666667
 40
0.1333333333333333
 40
0.1333333333333333
 40
0.1333333333333333
 40
0.1333333333333333
 40
0.2
 40
0.2
 40
0.2
 40
0.2
 40
0.2666666666666667
 40
0.2666666666666667
 40
0.2666666666666667
 40
0.2666666666666667
 40
0.3333333333333333
 40
0.3333333333333333
 40
0.3333333333333333
 40
0.3333333333333333
 40
0.4
 40
0.4
 40
0.4
 40
0.4
 40
0.4666666666666667
 40
0.4666666666666667
 40
0.4666666666666667
 40
0.4666666666666667
 40
0.5333333333333333
 40
0.5333333333333333
 40
0.5333333333333333
 40
0.5333333333333333
 40
0.6
 40
0.6
 40
0.6
 40
0.6
 40
0.6666666666666666
 40
0.6666666666666666
 40
0.6666666666666666
 40
0.6666666666666666
 40
0.7333333333333333
 40
0.7333333333333333
 40
0.7333333333333333
 40
0.7333333333333333
 40
0.8
 40
0.8
 40
0.8
 40
0.8
 40
0.8666666666666667
 40
0.8666666666666667
 40
0.8666666666666667
 40
0.8666666666666667
 40
1.0
 40
1.0
 40
1.0
 40
1.0
 10
-162.4669
 20
13.8413
 30
0.0
 10
-162.4669
 20
13.8413
 30
0.0
 10
-154.129
 20
13.8413
 30
0.0
 10
-154.129
 20
13.8413
 30
0.0
 10
-154.129
 20
13.8413
 30
0.0
 10
-155.5239
 20
16.7485
 30
0.0
 10
-156.6019
 20
17.9913
 30
0.0
 10
-159.3201
 20
19.8199
 30
0.0
 10
-159.3201
 20
19.8199
 30
0.0
 10
-161.0297
 20
20.97
 30
0.0
 10
-165.2649
 20
21.8818
 30
0.0
 10
-165.7706
 20
24.6964
 30
0.0
 10
-165.7706
 20
24.6964
 30
0.0
 10
-165.9404
 20
25.6719
 30
0.0
 10
-165.9692
 20
26.3744
 30
0.0
 10
-165.6134
 20
27.2135
 30
0.0
 10
-165.6134
 20
27.2135
 30
0.0
 10
-165.6134
 20
27.2135
 30
0.0
 10
-168.9171
 20
27.2135
 30
0.0
 10
-168.9171
 20
27.2135
 30
0.0
 10
-168.9171
 20
27.2135
 30
0.0
 10
-167.2547
 20
24.731
 30
0.0
 10
-167.6026
 20
26.1694
 30
0.0
 10
-166.7503
 20
22.6155
 30
0.0
 10
-166.7503
 20
22.6155
 30
0.0
 10
-166.3296
 20
20.8611
 30
0.0
 10
-165.205
 20
19.5048
 30
0.0
 10
-163.0962
 20
19.5048
 30
0.0
 10
-163.0962
 20
19.5048
 30
0.0
 10
-163.0962
 20
19.5048
 30
0.0
 10
-162.4669
 20
19.5048
 30
0.0
 10
-162.4669
 20
19.5048
 30
0.0
 10
-162.4669
 20
19.5048
 30
0.0
 10
-162.9389
 20
16.2273
 30
0.0
 10
-164.9982
 20
15.52
 30
0.0
 10
-167.3438
 20
16.5157
 30
0.0
 10
-167.3438
 20
16.5157
 30
0.0
 10
-168.9013
 20
9.1417
 30
0.0
 10
-179.0456
 20
13.2786
 30
0.0
 10
-175.8391
 20
21.078
 30
0.0
 10
-175.8391
 20
21.078
 30
0.0
 10
-175.6995
 20
19.0478
 30
0.0
 10
-171.4342
 20
19.0246
 30
0.0
 10
-171.4342
 20
22.0219
 30
0.0
 10
-171.4342
 20
22.0219
 30
0.0
 10
-171.4342
 20
24.5641
 30
0.0
 10
-172.9928
 20
25.011
 30
0.0
 10
-175.3672
 20
25.011
 30
0.0
 10
-175.3672
 20
25.011
 30
0.0
 10
-178.6714
 20
25.011
 30
0.0
 10
-179.7721
 20
19.8344
 30
0.0
 10
-179.7721
 20
17.3023
 30
0.0
 10
-179.7721
 20
17.3023
 30
0.0
 10
-179.7721
 20
7.6738
 30
0.0
 10
-166.3343
 20
4.5761
 30
0.0
 10
-162.4669
 20
13.8413
 30
0.0
  0
SPLINE
  5
63
330
1F
100
AcDbEntity
  8
layer 1
 62
     7
370
     9
100
AcDbSpline
210
0.0
220
0.0
230
1.0
 70
    11
 71
     3
 72
    16
 73
    12
 74
     0
 42
0.0000000001
 43
0.0000000001
 12
1.0
 22
0.0
 32
0.0
 13
1.0
 23
0.0
 33
0.0
 40
0.0
 40
0.0
 40
0.0
 40
0.0
 40
0.25
 40
0.25
 40
0.25
 40
0.25
 40
0.5
 40
0.5
 40
0.5
 40
0.5
 40
1.0
 40
1.0
 40
1.0
 40
1.0
 10
-177.8843
 20
29.2586
 30
0.0
 10
-180.0272
 20
30.5262
 30
0.0
 10
-182.1951
 20
33.2685
 30
0.0
 10
-183.3905
 20
36.338
 30
0.0
 10
-183.3905
 20
36.338
 30
0.0
 10
-183.3905
 20
36.338
 30
0.0
 10
-183.3905
 20
22.2414
 30
0.0
 10
-183.3905
 20
22.2414
 30
0.0
 10
-183.3905
 20
22.2414
 30
0.0
 10
-182.3107
 20
25.5236
 30
0.0
 10
-181.3166
 20
26.9919
 30
0.0
 10
-177.8843
 20
29.2586
 30
0.0
  0
SPLINE
  5
64
330
1F
100
AcDbEntity
  8
layer 1
 62
     7
370
     9
100
AcDbSpline
210
0.0
220
0.0
230
1.0
 70
    11
 71
     3
 72
   100
 73
    96
 74
     0
 42
0.0000000001
 43
0.0000000001
 12
1.0
 22
0.0
 32
0.0
 13
1.0
 23
0.0
 33
0.0
 40
0.0
 40
0.0
 40
0.0
 40
0.0
 40
0.04
 40
0.04
 40
0.04
 40
0.04
 40
0.08
 40
0.08
 40
0.08
 40
0.08
 40
0.12
 40
0.12
 40
0.12
 40
0.12
 40
0.16
 40
0.16
 40
0.16
 40
0.16
 40
0.2
 40
0.2
 40
0.2
 40
0.2
 40
0.24
 40
0.24
 40
0.24
 40
0.24
 40
0.28
 40
0.28
 40
0.28
 40
0.28
 40
0.32
 40
0.32
 40
0.32
 40
0.32
 40
0.36
 40
0.36
 40
0.36
 40
0.36
 40
0.4
 40
0.4
 40
0.4
 40
0.4
 40
0.44
 40
0.44
 40
0.44
 40
0.44
 40
0.48
 40
0.48
 40
0.48
 40
0.48
 40
0.52
 40
0.52
 40
0.52
 40
0.52
 40
0.56
 40
0.56
 40
0.56
 40
0.56
 40
0.6
 40
0.6
 40
0.6
 40
0.6
 40
0.64
 40
0.64
 40
0.64
 40
0.64
 40
0.68
 40
0.68
 40
0.68
 40
0.68
 40
0.72
 40
0.72
 40
0.72
 40
0.72
 40
0.76
 40
0.76
 40
0.76
 40
0.76
 40
0.8
 40
0.8
 40
0.8
 40
0.8
 40
0.84
 40
0.84
 40
0.84
 40
0.84
 40
0.88
 40
0.88
 40
0.88
 40
0.88
 40
0.92
 40
0.92
 40
0.92
 40
0.92
 40
1.0
 40
1.0
 40
1.0
 40
1.0
 10
-150.5106
 20
22.0219
 30
0.0
 10
-151.7386
 20
20.8219
 30
0.0
 10
-152.754
 20
19.9819
 30
0.0
 10
-154.7583
 20
20.4487
 30
0.0
 10
-154.7583
 20
20.4487
 30
0.0
 10
-152.2845
 20
18.1664
 30
0.0
 10
-150.6968
 20
16.4193
 30
0.0
 10
-150.196
 20
13.8413
 30
0.0
 10
-150.196
 20
13.8413
 30
0.0
 10
-150.196
 20
13.8413
 30
0.0
 10
-147.0496
 20
13.8413
 30
0.0
 10
-147.0496
 20
13.8413
 30
0.0
 10
-147.0496
 20
13.8413
 30
0.0
 10
-147.0496
 20
21.8882
 30
0.0
 10
-143.9224
 20
25.2635
 30
0.0
 10
-139.1836
 20
29.416
 30
0.0
 10
-139.1836
 20
29.416
 30
0.0
 10
-143.1815
 20
32.6441
 30
0.0
 10
-147.1754
 20
38.0472
 30
0.0
 10
-147.0496
 20
44.9906
 30
0.0
 10
-147.0496
 20
44.9906
 30
0.0
 10
-147.0496
 20
44.9906
 30
0.0
 10
-150.196
 20
44.9906
 30
0.0
 10
-150.196
 20
44.9906
 30
0.0
 10
-150.196
 20
44.9906
 30
0.0
 10
-150.7126
 20
42.7899
 30
0.0
 10
-151.7196
 20
39.6622
 30
0.0
 10
-154.7583
 20
38.3832
 30
0.0
 10
-154.7583
 20
38.3832
 30
0.0
 10
-152.9252
 20
38.3832
 30
0.0
 10
-150.8607
 20
37.6491
 30
0.0
 10
-150.5106
 20
36.338
 30
0.0
 10
-150.5106
 20
36.338
 30
0.0
 10
-151.6522
 20
36.0332
 30
0.0
 10
-152.6809
 20
34.3529
 30
0.0
 10
-154.7517
 20
34.2863
 30
0.0
 10
-154.7517
 20
34.2863
 30
0.0
 10
-156.2922
 20
34.2367
 30
0.0
 10
-159.3206
 20
34.2822
 30
0.0
 10
-159.3206
 20
32.0904
 30
0.0
 10
-159.3206
 20
32.0904
 30
0.0
 10
-159.3206
 20
31.2789
 30
0.0
 10
-157.8464
 20
31.3038
 30
0.0
 10
-157.2754
 20
31.3038
 30
0.0
 10
-157.2754
 20
31.3038
 30
0.0
 10
-153.5141
 20
31.3038
 30
0.0
 10
-152.4827
 20
36.5142
 30
0.0
 10
-146.263
 20
34.9221
 30
0.0
 10
-146.263
 20
34.9221
 30
0.0
 10
-146.263
 20
34.9221
 30
0.0
 10
-147.9155
 20
32.1951
 30
0.0
 10
-147.9155
 20
32.1951
 30
0.0
 10
-147.9155
 20
32.1951
 30
0.0
 10
-145.4274
 20
32.2477
 30
0.0
 10
-145.9227
 20
32.4389
 30
0.0
 10
-144.374
 20
31.305
 30
0.0
 10
-144.374
 20
31.305
 30
0.0
 10
-143.3105
 20
30.5264
 30
0.0
 10
-143.175
 20
29.9534
 30
0.0
 10
-141.5434
 20
29.5733
 30
0.0
 10
-141.5434
 20
29.5733
 30
0.0
 10
-141.5434
 20
29.5733
 30
0.0
 10
-141.5434
 20
29.2586
 30
0.0
 10
-141.5434
 20
29.2586
 30
0.0
 10
-141.5434
 20
29.2586
 30
0.0
 10
-144.5834
 20
28.5504
 30
0.0
 10
-143.6396
 20
26.4269
 30
0.0
 10
-147.8362
 20
26.4269
 30
0.0
 10
-147.8362
 20
26.4269
 30
0.0
 10
-147.2793
 20
25.5952
 30
0.0
 10
-146.8526
 20
25.5715
 30
0.0
 10
-146.4226
 20
24.3547
 30
0.0
 10
-146.4226
 20
24.3547
 30
0.0
 10
-146.1751
 20
23.6546
 30
0.0
 10
-147.8152
 20
23.4378
 30
0.0
 10
-148.6228
 20
23.4378
 30
0.0
 10
-148.6228
 20
23.4378
 30
0.0
 10
-148.6228
 20
23.4378
 30
0.0
 10
-148.7801
 20
23.4378
 30
0.0
 10
-148.7801
 20
23.4378
 30
0.0
 10
-148.7801
 20
23.4378
 30
0.0
 10
-152.9102
 20
23.4378
 30
0.0
 10
-155.1182
 20
27.3708
 30
0.0
 10
-156.9607
 20
27.3708
 30
0.0
 10
-156.9607
 20
27.3708
 30
0.0
 10
-157.5927
 20
27.3708
 30
0.0
 10
-159.3206
 20
27.5937
 30
0.0
 10
-159.3206
 20
26.5842
 30
0.0
 10
-159.3206
 20
26.5842
 30
0.0
 10
-159.3206
 20
24.3095
 30
0.0
 10
-155.9038
 20
24.7283
 30
0.0
 10
-154.473
 20
24.5097
 30
0.0
 10
-154.473
 20
24.5097
 30
0.0
 10
-153.3769
 20
24.3422
 30
0.0
 10
-150.7629
 20
22.9669
 30
0.0
 10
-150.5106
 20
22.0219
 30
0.0
  0
SPLINE
  5
65
330
1F
100
AcDbEntity
  8
layer 1
 62
     7
370
     9
100
AcDbSpline
210
0.0
220
0.0
230
1.0
 70
    11
 71
     3
 72
    36
 73
    32
 74
     0
 42
0.0000000001
 43
0.0000000001
 12
1.0
 22
0.0
 32
0.0
 13
1.0
 23
0.0
 33
0.0
 40
0.0
 40
0.0
 40
0.0
 40
0.0
 40
0.1111111111111111
 40
0.1111111111111111
 40
0.1111111111111111
 40
0.1111111111111111
 40
0.2222222222222222
 40
0.2222222222222222
 40
0.2222222222222222
 40
0.2222222222222222
 40
0.3333333333333333
 40
0.3333333333333333
 40
0.3333333333333333
 40
0.3333333333333333
 40
0.4444444444444444
 40
0.4444444444444444
 40
0.4444444444444444
 40
0.4444444444444444
 40
0.5555555555555556
 40
0.5555555555555556
 40
0.5555555555555556
 40
0.5555555555555556
 40
0.6666666666666666
 40
0.6666666666666666
 40
0.6666666666666666
 40
0.6666666666666666
 40
0.7777777777777778
 40
0.7777777777777778
 40
0.7777777777777778
 40
0.7777777777777778
 40
1.0
 40
1.0
 40
1.0
 40
1.0
 10
-87.5135
 20
55.2908
 30
0.0
 10
-90.2972
 20
56.5763
 30
0.0
 10
-92.8598
 20
57.7928
 30
0.0
 10
-94.6468
 20
60.9314
 30
0.0
 10
-94.6468
 20
60.9314
 30
0.0
 10
-94.6468
 20
60.9314
 30
0.0
 10
-100.0981
 20
60.9542
 30
0.0
 10
-100.0981
 20
60.9542
 30
0.0
 10
-100.0981
 20
60.9542
 30
0.0
 10
-99.898
 20
58.5487
 30
0.0
 10
-98.4416
 20
57.7062
 30
0.0
 10
-96.3225
 20
58.2797
 30
0.0
 10
-96.3225
 20
58.2797
 30
0.0
 10
-96.1816
 20
56.588
 30
0.0
 10
-97.4657
 20
55.9385
 30
0.0
 10
-98.8405
 20
55.2908
 30
0.0
 10
-98.8405
 20
55.2908
 30
0.0
 10
-97.4657
 20
54.6431
 30
0.0
 10
-96.1826
 20
53.9934
 30
0.0
 10
-96.3234
 20
52.3017
 30
0.0
 10
-96.3234
 20
52.3017
 30
0.0
 10
-98.4425
 20
52.8752
 30
0.0
 10
-99.8989
 20
52.0327
 30
0.0
 10
-100.0991
 20
49.6273
 30
0.0
 10
-100.0991
 20
49.6273
 30
0.0
 10
-100.0991
 20
49.6273
 30
0.0
 10
-94.6477
 20
49.6501
 30
0.0
 10
-94.6477
 20
49.6501
 30
0.0
 10
-94.6477
 20
49.6501
 30
0.0
 10
-92.8608
 20
52.7886
 30
0.0
 10
-90.3544
 20
54.1007
 30
0.0
 10
-87.5135
 20
55.2908
 30
0.0
  0
SPLINE
  5
66
330
1F
100
AcDbEntity
  8
layer 1
 62
     7
370
     9
100
AcDbSpline
210
0.0
220
0.0
230
1.0
 70
    11
 71
     3
 72
    20
 73
    16
 74
     0
 42
0.0000000001
 43
0.0000000001
 12
1.0
 22
0.0
 32
0.0
 13
1.0
 23
0.0
 33
0.0
 40
0.0
 40
0.0
 40
0.0
 40
0.0
 40
0.2
 40
0.2
 40
0.2
 40
0.2
 40
0.4
 40
0.4
 40
0.4
 40
0.4
 40
0.6
 40
0.6
 40
0.6
 40
0.6
 40
1.0
 40
1.0
 40
1.0
 40
1.0
 10
-147.346
 20
55.2568
 30
0.0
 10
-148.2607
 20
54.9817
 30
0.0
 10
-149.3493
 20
54.3807
 30
0.0
 10
-149.9943
 20
53.4133
 30
0.0
 10
-149.9943
 20
53.4133
 30
0.0
 10
-150.3107
 20
54.2716
 30
0.0
 10
-150.9155
 20
54.9341
 30
0.0
 10
-151.697
 20
55.2611
 30
0.0
 10
-151.697
 20
55.2611
 30
0.0
 10
-150.9155
 20
55.5881
 30
0.0
 10
-150.3509
 20
56.2662
 30
0.0
 10
-150.0345
 20
57.1244
 30
0.0
 10
-150.0345
 20
57.1244
 30
0.0
 10
-149.3895
 20
56.157
 30
0.0
 10
-148.2607
 20
55.5811
 30
0.0
 10
-147.346
 20
55.2568
 30
0.0
  0
SPLINE
  5
67
330
1F
100
AcDbEntity
  8
layer 1
 62
     7
370
     9
100
AcDbSpline
210
0.0
220
0.0
230
1.0
 70
    11
 71
     3
 72
    84
 73
    80
 74
     0
 42
0.0000000001
 43
0.0000000001
 12
1.0
 22
0.0
 32
0.0
 13
1.0
 23
0.0
 33
0.0
 40
0.0
 40
0.0
 40
0.0
 40
0.0
 40
0.0476190476190476
 40
0.0476190476190476
 40
0.0476190476190476
 40
0.0476190476190476
 40
0.0952380952380952
 40
0.0952380952380952
 40
0.0952380952380952
 40
0.0952380952380952
 40
0.1428571428571428
 40
0.1428571428571428
 40
0.1428571428571428
 40
0.1428571428571428
 40
0.1904761904761905
 40
0.1904761904761905
 40
0.1904761904761905
 40
0.1904761904761905
 40
0.2380952380952381
 40
0.2380952380952381
 40
0.2380952380952381
 40
0.2380952380952381
 40
0.2857142857142857
 40
0.2857142857142857
 40
0.2857142857142857
 40
0.2857142857142857
 40
0.3333333333333333
 40
0.3333333333333333
 40
0.3333333333333333
 40
0.3333333333333333
 40
0.3809523809523809
 40
0.3809523809523809
 40
0.3809523809523809
 40
0.3809523809523809
 40
0.4285714285714285
 40
0.4285714285714285
 40
0.4285714285714285
 40
0.4285714285714285
 40
0.4761904761904762
 40
0.4761904761904762
 40
0.4761904761904762
 40
0.4761904761904762
 40
0.5238095238095238
 40
0.5238095238095238
 40
0.5238095238095238
 40
0.5238095238095238
 40
0.5714285714285714
 40
0.5714285714285714
 40
0.5714285714285714
 40
0.5714285714285714
 40
0.6190476190476191
 40
0.6190476190476191
 40
0.6190476190476191
 40
0.6190476190476191
 40
0.6666666666666666
 40
0.6666666666666666
 40
0.6666666666666666
 40
0.6666666666666666
 40
0.7142857142857143
 40
0.7142857142857143
 40
0.7142857142857143
 40
0.7142857142857143
 40
0.7619047619047619
 40
0.7619047619047619
 40
0.7619047619047619
 40
0.7619047619047619
 40
0.8095238095238095
 40
0.8095238095238095
 40
0.8095238095238095
 40
0.8095238095238095
 40
0.8571428571428571
 40
0.8571428571428571
 40
0.8571428571428571
 40
0.8571428571428571
 40
0.9047619047619048
 40
0.9047619047619048
 40
0.9047619047619048
 40
0.9047619047619048
 40
1.0
 40
1.0
 40
1.0
 40
1.0
 10
-111.7559
 20
55.35
 30
0.0
 10
-113.3443
 20
55.6956
 30
0.0
 10
-114.8062
 20
57.1324
 30
0.0
 10
-114.9537
 20
59.2013
 30
0.0
 10
-114.9537
 20
59.2013
 30
0.0
 10
-112.7545
 20
57.9746
 30
0.0
 10
-108.5532
 20
58.2734
 30
0.0
 10
-106.7731
 20
60.9318
 30
0.0
 10
-106.7731
 20
60.9318
 30
0.0
 10
-106.7731
 20
60.9318
 30
0.0
 10
-113.1838
 20
60.9435
 30
0.0
 10
-113.1838
 20
60.9435
 30
0.0
 10
-113.1838
 20
60.9435
 30
0.0
 10
-111.9508
 20
63.2737
 30
0.0
 10
-111.65
 20
64.802
 30
0.0
 10
-111.65
 20
67.3819
 30
0.0
 10
-111.65
 20
67.3819
 30
0.0
 10
-111.65
 20
71.5571
 30
0.0
 10
-114.7886
 20
76.6638
 30
0.0
 10
-119.044
 20
76.6638
 30
0.0
 10
-119.044
 20
76.6638
 30
0.0
 10
-121.5147
 20
76.6638
 30
0.0
 10
-123.449
 20
75.1991
 30
0.0
 10
-123.449
 20
72.7308
 30
0.0
 10
-123.449
 20
72.7308
 30
0.0
 10
-123.449
 20
68.2243
 30
0.0
 10
-119.3601
 20
69.1348
 30
0.0
 10
-117.9428
 20
71.1576
 30
0.0
 10
-117.9428
 20
71.1576
 30
0.0
 10
-117.0515
 20
71.1576
 30
0.0
 10
-116.2123
 20
67.8043
 30
0.0
 10
-116.2123
 20
66.4381
 30
0.0
 10
-116.2123
 20
66.4381
 30
0.0
 10
-116.2123
 20
62.8322
 30
0.0
 10
-118.617
 20
59.2596
 30
0.0
 10
-122.2739
 20
58.3631
 30
0.0
 10
-122.2739
 20
58.3631
 30
0.0
 10
-122.2739
 20
58.3631
 30
0.0
 10
-120.3889
 20
55.3488
 30
0.0
 10
-120.3889
 20
55.3488
 30
0.0
 10
-120.3889
 20
55.3488
 30
0.0
 10
-120.3889
 20
55.3488
 30
0.0
 10
-122.2748
 20
52.1736
 30
0.0
 10
-122.2748
 20
52.1736
 30
0.0
 10
-122.2748
 20
52.1736
 30
0.0
 10
-118.6179
 20
51.2771
 30
0.0
 10
-116.2132
 20
47.7045
 30
0.0
 10
-116.2132
 20
44.0987
 30
0.0
 10
-116.2132
 20
44.0987
 30
0.0
 10
-116.2132
 20
42.7324
 30
0.0
 10
-117.0524
 20
39.3791
 30
0.0
 10
-117.9438
 20
39.3791
 30
0.0
 10
-117.9438
 20
39.3791
 30
0.0
 10
-119.361
 20
41.4019
 30
0.0
 10
-123.4499
 20
42.3125
 30
0.0
 10
-123.4499
 20
37.8059
 30
0.0
 10
-123.4499
 20
37.8059
 30
0.0
 10
-123.4499
 20
35.3377
 30
0.0
 10
-121.5157
 20
33.8729
 30
0.0
 10
-119.045
 20
33.8729
 30
0.0
 10
-119.045
 20
33.8729
 30
0.0
 10
-114.7895
 20
33.8729
 30
0.0
 10
-111.6509
 20
38.9797
 30
0.0
 10
-111.6509
 20
43.1548
 30
0.0
 10
-111.6509
 20
43.1548
 30
0.0
 10
-111.6509
 20
45.7347
 30
0.0
 10
-111.9518
 20
47.263
 30
0.0
 10
-113.1847
 20
49.5932
 30
0.0
 10
-113.1847
 20
49.5932
 30
0.0
 10
-113.1847
 20
49.5932
 30
0.0
 10
-106.774
 20
49.6049
 30
0.0
 10
-106.774
 20
49.6049
 30
0.0
 10
-106.774
 20
49.6049
 30
0.0
 10
-108.5541
 20
52.2633
 30
0.0
 10
-112.7554
 20
52.5621
 30
0.0
 10
-114.9547
 20
51.3354
 30
0.0
 10
-114.9547
 20
51.3354
 30
0.0
 10
-114.8071
 20
53.4043
 30
0.0
 10
-113.3443
 20
55.0044
 30
0.0
 10
-111.7559
 20
55.35
 30
0.0
  0
SPLINE
  5
68
330
1F
100
AcDbEntity
  8
layer 1
 62
     7
370
     9
100
AcDbSpline
210
0.0
220
0.0
230
1.0
 70
    11
 71
     3
 72
    60
 73
    56
 74
     0
 42
0.0000000001
 43
0.0000000001
 12
1.0
 22
0.0
 32
0.0
 13
1.0
 23
0.0
 33
0.0
 40
0.0
 40
0.0
 40
0.0
 40
0.0
 40
0.0666666666666667
 40
0.0666666666666667
 40
0.0666666666666667
 40
0.0666666666666667
 40
0.1333333333333333
 40
0.1333333333333333
 40
0.1333333333333333
 40
0.1333333333333333
 40
0.2
 40
0.2
 40
0.2
 40
0.2
 40
0.2666666666666667
 40
0.2666666666666667
 40
0.2666666666666667
 40
0.2666666666666667
 40
0.3333333333333333
 40
0.3333333333333333
 40
0.3333333333333333
 40
0.3333333333333333
 40
0.4
 40
0.4
 40
0.4
 40
0.4
 40
0.4666666666666667
 40
0.4666666666666667
 40
0.4666666666666667
 40
0.4666666666666667
 40
0.5333333333333333
 40
0.5333333333333333
 40
0.5333333333333333
 40
0.5333333333333333
 40
0.6
 40
0.6
 40
0.6
 40
0.6
 40
0.6666666666666666
 40
0.6666666666666666
 40
0.6666666666666666
 40
0.6666666666666666
 40
0.7333333333333333
 40
0.7333333333333333
 40
0.7333333333333333
 40
0.7333333333333333
 40
0.8
 40
0.8
 40
0.8
 40
0.8
 40
0.8666666666666667
 40
0.8666666666666667
 40
0.8666666666666667
 40
0.8666666666666667
 40
1.0
 40
1.0
 40
1.0
 40
1.0
 10
-91.5597
 20
-6.2981
 30
0.0
 10
-91.5597
 20
-6.2981
 30
0.0
 10
-99.8977
 20
-6.2981
 30
0.0
 10
-99.8977
 20
-6.2981
 30
0.0
 10
-99.8977
 20
-6.2981
 30
0.0
 10
-98.5027
 20
-9.2054
 30
0.0
 10
-97.4247
 20
-10.4481
 30
0.0
 10
-94.7065
 20
-12.2767
 30
0.0
 10
-94.7065
 20
-12.2767
 30
0.0
 10
-92.9969
 20
-13.4269
 30
0.0
 10
-88.7617
 20
-14.3387
 30
0.0
 10
-88.256
 20
-17.1532
 30
0.0
 10
-88.256
 20
-17.1532
 30
0.0
 10
-88.0862
 20
-18.1288
 30
0.0
 10
-88.0575
 20
-18.8313
 30
0.0
 10
-88.4133
 20
-19.6703
 30
0.0
 10
-88.4133
 20
-19.6703
 30
0.0
 10
-88.4133
 20
-19.6703
 30
0.0
 10
-85.1096
 20
-19.6703
 30
0.0
 10
-85.1096
 20
-19.6703
 30
0.0
 10
-85.1096
 20
-19.6703
 30
0.0
 10
-86.7719
 20
-17.1879
 30
0.0
 10
-86.424
 20
-18.6262
 30
0.0
 10
-87.2763
 20
-15.0723
 30
0.0
 10
-87.2763
 20
-15.0723
 30
0.0
 10
-87.6971
 20
-13.3179
 30
0.0
 10
-88.8217
 20
-11.9617
 30
0.0
 10
-90.9304
 20
-11.9617
 30
0.0
 10
-90.9304
 20
-11.9617
 30
0.0
 10
-90.9304
 20
-11.9617
 30
0.0
 10
-91.5597
 20
-11.9617
 30
0.0
 10
-91.5597
 20
-11.9617
 30
0.0
 10
-91.5597
 20
-11.9617
 30
0.0
 10
-91.0877
 20
-8.6842
 30
0.0
 10
-89.0285
 20
-7.9769
 30
0.0
 10
-86.6828
 20
-8.9726
 30
0.0
 10
-86.6828
 20
-8.9726
 30
0.0
 10
-85.1254
 20
-1.5986
 30
0.0
 10
-74.981
 20
-5.7354
 30
0.0
 10
-78.1875
 20
-13.5349
 30
0.0
 10
-78.1875
 20
-13.5349
 30
0.0
 10
-78.3271
 20
-11.5046
 30
0.0
 10
-82.5925
 20
-11.4815
 30
0.0
 10
-82.5925
 20
-14.4788
 30
0.0
 10
-82.5925
 20
-14.4788
 30
0.0
 10
-82.5925
 20
-17.0209
 30
0.0
 10
-81.0338
 20
-17.4678
 30
0.0
 10
-78.6595
 20
-17.4678
 30
0.0
 10
-78.6595
 20
-17.4678
 30
0.0
 10
-75.3553
 20
-17.4678
 30
0.0
 10
-74.2545
 20
-12.2912
 30
0.0
 10
-74.2545
 20
-9.7592
 30
0.0
 10
-74.2545
 20
-9.7592
 30
0.0
 10
-74.2545
 20
-0.1307
 30
0.0
 10
-87.6923
 20
2.967
 30
0.0
 10
-91.5597
 20
-6.2981
 30
0.0
  0
SPLINE
  5
69
330
1F
100
AcDbEntity
  8
layer 1
 62
     7
370
     9
100
AcDbSpline
210
0.0
220
0.0
230
1.0
 70
    11
 71
     3
 72
    60
 73
    56
 74
     0
 42
0.0000000001
 43
0.0000000001
 12
1.0
 22
0.0
 32
0.0
 13
1.0
 23
0.0
 33
0.0
 40
0.0
 40
0.0
 40
0.0
 40
0.0
 40
0.0666666666666667
 40
0.0666666666666667
 40
0.0666666666666667
 40
0.0666666666666667
 40
0.1333333333333333
 40
0.1333333333333333
 40
0.1333333333333333
 40
0.1333333333333333
 40
0.2
 40
0.2
 40
0.2
 40
0.2
 40
0.2666666666666667
 40
0.2666666666666667
 40
0.2666666666666667
 40
0.2666666666666667
 40
0.3333333333333333
 40
0.3333333333333333
 40
0.3333333333333333
 40
0.3333333333333333
 40
0.4
 40
0.4
 40
0.4
 40
0.4
 40
0.4666666666666667
 40
0.4666666666666667
 40
0.4666666666666667
 40
0.4666666666666667
 40
0.5333333333333333
 40
0.5333333333333333
 40
0.5333333333333333
 40
0.5333333333333333
 40
0.6
 40
0.6
 40
0.6
 40
0.6
 40
0.6666666666666666
 40
0.6666666666666666
 40
0.6666666666666666
 40
0.6666666666666666
 40
0.7333333333333333
 40
0.7333333333333333
 40
0.7333333333333333
 40
0.7333333333333333
 40
0.8
 40
0.8
 40
0.8
 40
0.8
 40
0.8666666666666667
 40
0.8666666666666667
 40
0.8666666666666667
 40
0.8666666666666667
 40
1.0
 40
1.0
 40
1.0
 40
1.0
 10
-91.5142
 20
-37.6568
 30
0.0
 10
-91.5142
 20
-37.6568
 30
0.0
 10
-99.8521
 20
-37.6568
 30
0.0
 10
-99.8521
 20
-37.6568
 30
0.0
 10
-99.8521
 20
-37.6568
 30
0.0
 10
-98.4572
 20
-34.7496
 30
0.0
 10
-97.3792
 20
-33.5068
 30
0.0
 10
-94.661
 20
-31.6782
 30
0.0
 10
-94.661
 20
-31.6782
 30
0.0
 10
-92.9514
 20
-30.528
 30
0.0
 10
-88.7162
 20
-29.6163
 30
0.0
 10
-88.2105
 20
-26.8017
 30
0.0
 10
-88.2105
 20
-26.8017
 30
0.0
 10
-88.0407
 20
-25.8262
 30
0.0
 10
-88.0119
 20
-25.1237
 30
0.0
 10
-88.3678
 20
-24.2846
 30
0.0
 10
-88.3678
 20
-24.2846
 30
0.0
 10
-88.3678
 20
-24.2846
 30
0.0
 10
-85.0641
 20
-24.2846
 30
0.0
 10
-85.0641
 20
-24.2846
 30
0.0
 10
-85.0641
 20
-24.2846
 30
0.0
 10
-86.7264
 20
-26.7671
 30
0.0
 10
-86.3785
 20
-25.3287
 30
0.0
 10
-87.2308
 20
-28.8826
 30
0.0
 10
-87.2308
 20
-28.8826
 30
0.0
 10
-87.6515
 20
-30.637
 30
0.0
 10
-88.7762
 20
-31.9933
 30
0.0
 10
-90.8849
 20
-31.9933
 30
0.0
 10
-90.8849
 20
-31.9933
 30
0.0
 10
-90.8849
 20
-31.9933
 30
0.0
 10
-91.5142
 20
-31.9933
 30
0.0
 10
-91.5142
 20
-31.9933
 30
0.0
 10
-91.5142
 20
-31.9933
 30
0.0
 10
-91.0422
 20
-35.2708
 30
0.0
 10
-88.9829
 20
-35.9781
 30
0.0
 10
-86.6373
 20
-34.9824
 30
0.0
 10
-86.6373
 20
-34.9824
 30
0.0
 10
-85.0798
 20
-42.3564
 30
0.0
 10
-74.9355
 20
-38.2195
 30
0.0
 10
-78.142
 20
-30.4201
 30
0.0
 10
-78.142
 20
-30.4201
 30
0.0
 10
-78.2816
 20
-32.4503
 30
0.0
 10
-82.547
 20
-32.4735
 30
0.0
 10
-82.547
 20
-29.4761
 30
0.0
 10
-82.547
 20
-29.4761
 30
0.0
 10
-82.547
 20
-26.934
 30
0.0
 10
-80.9883
 20
-26.4871
 30
0.0
 10
-78.6139
 20
-26.4871
 30
0.0
 10
-78.6139
 20
-26.4871
 30
0.0
 10
-75.3097
 20
-26.4871
 30
0.0
 10
-74.209
 20
-31.6637
 30
0.0
 10
-74.209
 20
-34.1958
 30
0.0
 10
-74.209
 20
-34.1958
 30
0.0
 10
-74.209
 20
-43.8242
 30
0.0
 10
-87.6468
 20
-46.922
 30
0.0
 10
-91.5142
 20
-37.6568
 30
0.0
  0
SPLINE
  5
6A
330
1F
100
AcDbEntity
  8
layer 1
 62
     7
370
     9
100
AcDbSpline
210
0.0
220
0.0
230
1.0
 70
    11
 71
     3
 72
    16
 73
    12
 74
     0
 42
0.0000000001
 43
0.0000000001
 12
1.0
 22
0.0
 32
0.0
 13
1.0
 23
0.0
 33
0.0
 40
0.0
 40
0.0
 40
0.0
 40
0.0
 40
0.25
 40
0.25
 40
0.25
 40
0.25
 40
0.5
 40
0.5
 40
0.5
 40
0.5
 40
1.0
 40
1.0
 40
1.0
 40
1.0
 10
-76.0968
 20
-22.2395
 30
0.0
 10
-73.9539
 20
-20.9719
 30
0.0
 10
-71.786
 20
-18.2296
 30
0.0
 10
-70.5906
 20
-15.1601
 30
0.0
 10
-70.5906
 20
-15.1601
 30
0.0
 10
-70.5906
 20
-15.1601
 30
0.0
 10
-70.5906
 20
-29.2567
 30
0.0
 10
-70.5906
 20
-29.2567
 30
0.0
 10
-70.5906
 20
-29.2567
 30
0.0
 10
-71.6705
 20
-25.9745
 30
0.0
 10
-72.6645
 20
-24.5062
 30
0.0
 10
-76.0968
 20
-22.2395
 30
0.0
  0
SPLINE
  5
6B
330
1F
100
AcDbEntity
  8
layer 1
 62
     7
370
     9
100
AcDbSpline
210
0.0
220
0.0
230
1.0
 70
    11
 71
     3
 72
   100
 73
    96
 74
     0
 42
0.0000000001
 43
0.0000000001
 12
1.0
 22
0.0
 32
0.0
 13
1.0
 23
0.0
 33
0.0
 40
0.0
 40
0.0
 40
0.0
 40
0.0
 40
0.04
 40
0.04
 40
0.04
 40
0.04
 40
0.08
 40
0.08
 40
0.08
 40
0.08
 40
0.12
 40
0.12
 40
0.12
 40
0.12
 40
0.16
 40
0.16
 40
0.16
 40
0.16
 40
0.2
 40
0.2
 40
0.2
 40
0.2
 40
0.24
 40
0.24
 40
0.24
 40
0.24
 40
0.28
 40
0.28
 40
0.28
 40
0.28
 40
0.32
 40
0.32
 40
0.32
 40
0.32
 40
0.36
 40
0.36
 40
0.36
 40
0.36
 40
0.4
 40
0.4
 40
0.4
 40
0.4
 40
0.44
 40
0.44
 40
0.44
 40
0.44
 40
0.48
 40
0.48
 40
0.48
 40
0.48
 40
0.52
 40
0.52
 40
0.52
 40
0.52
 40
0.56
 40
0.56
 40
0.56
 40
0.56
 40
0.6
 40
0.6
 40
0.6
 40
0.6
 40
0.64
 40
0.64
 40
0.64
 40
0.64
 40
0.68
 40
0.68
 40
0.68
 40
0.68
 40
0.72
 40
0.72
 40
0.72
 40
0.72
 40
0.76
 40
0.76
 40
0.76
 40
0.76
 40
0.8
 40
0.8
 40
0.8
 40
0.8
 40
0.84
 40
0.84
 40
0.84
 40
0.84
 40
0.88
 40
0.88
 40
0.88
 40
0.88
 40
0.92
 40
0.92
 40
0.92
 40
0.92
 40
1.0
 40
1.0
 40
1.0
 40
1.0
 10
-103.4705
 20
-29.4761
 30
0.0
 10
-102.2425
 20
-30.6762
 30
0.0
 10
-101.2272
 20
-31.5162
 30
0.0
 10
-99.2228
 20
-31.0494
 30
0.0
 10
-99.2228
 20
-31.0494
 30
0.0
 10
-101.6966
 20
-33.3317
 30
0.0
 10
-103.2843
 20
-35.0788
 30
0.0
 10
-103.7851
 20
-37.6568
 30
0.0
 10
-103.7851
 20
-37.6568
 30
0.0
 10
-103.7851
 20
-37.6568
 30
0.0
 10
-106.9315
 20
-37.6568
 30
0.0
 10
-106.9315
 20
-37.6568
 30
0.0
 10
-106.9315
 20
-37.6568
 30
0.0
 10
-106.9315
 20
-29.6099
 30
0.0
 10
-110.0588
 20
-26.2346
 30
0.0
 10
-114.7975
 20
-22.0821
 30
0.0
 10
-114.7975
 20
-22.0821
 30
0.0
 10
-110.7996
 20
-18.854
 30
0.0
 10
-106.8058
 20
-13.4509
 30
0.0
 10
-106.9315
 20
-6.5075
 30
0.0
 10
-106.9315
 20
-6.5075
 30
0.0
 10
-106.9315
 20
-6.5075
 30
0.0
 10
-103.7851
 20
-6.5075
 30
0.0
 10
-103.7851
 20
-6.5075
 30
0.0
 10
-103.7851
 20
-6.5075
 30
0.0
 10
-103.2685
 20
-8.7082
 30
0.0
 10
-102.2615
 20
-11.8359
 30
0.0
 10
-99.2228
 20
-13.1149
 30
0.0
 10
-99.2228
 20
-13.1149
 30
0.0
 10
-101.0559
 20
-13.1149
 30
0.0
 10
-103.1204
 20
-13.8489
 30
0.0
 10
-103.4705
 20
-15.1601
 30
0.0
 10
-103.4705
 20
-15.1601
 30
0.0
 10
-102.3289
 20
-15.4649
 30
0.0
 10
-101.3002
 20
-17.1452
 30
0.0
 10
-99.2294
 20
-17.2118
 30
0.0
 10
-99.2294
 20
-17.2118
 30
0.0
 10
-97.6889
 20
-17.2614
 30
0.0
 10
-94.6605
 20
-17.2159
 30
0.0
 10
-94.6605
 20
-19.4077
 30
0.0
 10
-94.6605
 20
-19.4077
 30
0.0
 10
-94.6605
 20
-20.2192
 30
0.0
 10
-96.1348
 20
-20.1943
 30
0.0
 10
-96.7057
 20
-20.1943
 30
0.0
 10
-96.7057
 20
-20.1943
 30
0.0
 10
-100.467
 20
-20.1943
 30
0.0
 10
-101.4984
 20
-14.9839
 30
0.0
 10
-107.7181
 20
-16.5759
 30
0.0
 10
-107.7181
 20
-16.5759
 30
0.0
 10
-107.7181
 20
-16.5759
 30
0.0
 10
-106.0656
 20
-19.303
 30
0.0
 10
-106.0656
 20
-19.303
 30
0.0
 10
-106.0656
 20
-19.303
 30
0.0
 10
-108.5537
 20
-19.2504
 30
0.0
 10
-108.0584
 20
-19.0592
 30
0.0
 10
-109.6071
 20
-20.1931
 30
0.0
 10
-109.6071
 20
-20.1931
 30
0.0
 10
-110.6706
 20
-20.9717
 30
0.0
 10
-110.8061
 20
-21.5447
 30
0.0
 10
-112.4377
 20
-21.9248
 30
0.0
 10
-112.4377
 20
-21.9248
 30
0.0
 10
-112.4377
 20
-21.9248
 30
0.0
 10
-112.4377
 20
-22.2395
 30
0.0
 10
-112.4377
 20
-22.2395
 30
0.0
 10
-112.4377
 20
-22.2395
 30
0.0
 10
-109.3977
 20
-22.9477
 30
0.0
 10
-110.3415
 20
-25.0712
 30
0.0
 10
-106.1449
 20
-25.0712
 30
0.0
 10
-106.1449
 20
-25.0712
 30
0.0
 10
-106.7019
 20
-25.9029
 30
0.0
 10
-107.1285
 20
-25.9265
 30
0.0
 10
-107.5585
 20
-27.1434
 30
0.0
 10
-107.5585
 20
-27.1434
 30
0.0
 10
-107.806
 20
-27.8435
 30
0.0
 10
-106.1659
 20
-28.0603
 30
0.0
 10
-105.3583
 20
-28.0603
 30
0.0
 10
-105.3583
 20
-28.0603
 30
0.0
 10
-105.3583
 20
-28.0603
 30
0.0
 10
-105.201
 20
-28.0603
 30
0.0
 10
-105.201
 20
-28.0603
 30
0.0
 10
-105.201
 20
-28.0603
 30
0.0
 10
-101.0709
 20
-28.0603
 30
0.0
 10
-98.8629
 20
-24.1273
 30
0.0
 10
-97.0204
 20
-24.1273
 30
0.0
 10
-97.0204
 20
-24.1273
 30
0.0
 10
-96.3884
 20
-24.1273
 30
0.0
 10
-94.6605
 20
-23.9044
 30
0.0
 10
-94.6605
 20
-24.9139
 30
0.0
 10
-94.6605
 20
-24.9139
 30
0.0
 10
-94.6605
 20
-27.1886
 30
0.0
 10
-98.0773
 20
-26.7698
 30
0.0
 10
-99.5081
 20
-26.9884
 30
0.0
 10
-99.5081
 20
-26.9884
 30
0.0
 10
-100.6043
 20
-27.1559
 30
0.0
 10
-103.2182
 20
-28.5312
 30
0.0
 10
-103.4705
 20
-29.4761
 30
0.0
  0
SPLINE
  5
6C
330
1F
100
AcDbEntity
  8
layer 1
 62
     7
370
     9
100
AcDbSpline
210
0.0
220
0.0
230
1.0
 70
    11
 71
     3
 72
    20
 73
    16
 74
     0
 42
0.0000000001
 43
0.0000000001
 12
1.0
 22
0.0
 32
0.0
 13
1.0
 23
0.0
 33
0.0
 40
0.0
 40
0.0
 40
0.0
 40
0.0
 40
0.2
 40
0.2
 40
0.2
 40
0.2
 40
0.4
 40
0.4
 40
0.4
 40
0.4
 40
0.6
 40
0.6
 40
0.6
 40
0.6
 40
1.0
 40
1.0
 40
1.0
 40
1.0
 10
-126.8609
 20
-25.0014
 30
0.0
 10
-125.1774
 20
-25.0014
 30
0.0
 10
-123.8126
 20
-23.6367
 30
0.0
 10
-123.8126
 20
-21.9532
 30
0.0
 10
-123.8126
 20
-21.9532
 30
0.0
 10
-123.8126
 20
-20.2697
 30
0.0
 10
-125.1774
 20
-18.9049
 30
0.0
 10
-126.8609
 20
-18.9049
 30
0.0
 10
-126.8609
 20
-18.9049
 30
0.0
 10
-128.5443
 20
-18.9049
 30
0.0
 10
-129.9091
 20
-20.2697
 30
0.0
 10
-129.9091
 20
-21.9532
 30
0.0
 10
-129.9091
 20
-21.9532
 30
0.0
 10
-129.9091
 20
-23.6367
 30
0.0
 10
-128.5443
 20
-25.0014
 30
0.0
 10
-126.8609
 20
-25.0014
 30
0.0
  0
SPLINE
  5
6D
330
1F
100
AcDbEntity
  8
layer 1
 62
     7
370
     9
100
AcDbSpline
210
0.0
220
0.0
230
1.0
 70
    11
 71
     3
 72
    16
 73
    12
 74
     0
 42
0.0000000001
 43
0.0000000001
 12
1.0
 22
0.0
 32
0.0
 13
1.0
 23
0.0
 33
0.0
 40
0.0
 40
0.0
 40
0.0
 40
0.0
 40
0.25
 40
0.25
 40
0.25
 40
0.25
 40
0.5
 40
0.5
 40
0.5
 40
0.5
 40
1.0
 40
1.0
 40
1.0
 40
1.0
 10
-120.2151
 20
-7.2421
 30
0.0
 10
-122.8561
 20
-5.9747
 30
0.0
 10
-125.1585
 20
-7.2738
 30
0.0
 10
-127.0135
 20
-9.2591
 30
0.0
 10
-127.0135
 20
-9.2591
 30
0.0
 10
-128.1537
 20
-6.5253
 30
0.0
 10
-131.6928
 20
-6.421
 30
0.0
 10
-133.7446
 20
-7.0847
 30
0.0
 10
-133.7446
 20
-7.0847
 30
0.0
 10
-131.1615
 20
-1.2415
 30
0.0
 10
-123.1938
 20
-0.9119
 30
0.0
 10
-120.2151
 20
-7.2421
 30
0.0
  0
SPLINE
  5
6E
330
1F
100
AcDbEntity
  8
layer 1
 62
     7
370
     9
100
AcDbSpline
210
0.0
220
0.0
230
1.0
 70
    11
 71
     3
 72
    60
 73
    56
 74
     0
 42
0.0000000001
 43
0.0000000001
 12
1.0
 22
0.0
 32
0.0
 13
1.0
 23
0.0
 33
0.0
 40
0.0
 40
0.0
 40
0.0
 40
0.0
 40
0.0666666666666667
 40
0.0666666666666667
 40
0.0666666666666667
 40
0.0666666666666667
 40
0.1333333333333333
 40
0.1333333333333333
 40
0.1333333333333333
 40
0.1333333333333333
 40
0.2
 40
0.2
 40
0.2
 40
0.2
 40
0.2666666666666667
 40
0.2666666666666667
 40
0.2666666666666667
 40
0.2666666666666667
 40
0.3333333333333333
 40
0.3333333333333333
 40
0.3333333333333333
 40
0.3333333333333333
 40
0.4
 40
0.4
 40
0.4
 40
0.4
 40
0.4666666666666667
 40
0.4666666666666667
 40
0.4666666666666667
 40
0.4666666666666667
 40
0.5333333333333333
 40
0.5333333333333333
 40
0.5333333333333333
 40
0.5333333333333333
 40
0.6
 40
0.6
 40
0.6
 40
0.6
 40
0.6666666666666666
 40
0.6666666666666666
 40
0.6666666666666666
 40
0.6666666666666666
 40
0.7333333333333333
 40
0.7333333333333333
 40
0.7333333333333333
 40
0.7333333333333333
 40
0.8
 40
0.8
 40
0.8
 40
0.8
 40
0.8666666666666667
 40
0.8666666666666667
 40
0.8666666666666667
 40
0.8666666666666667
 40
1.0
 40
1.0
 40
1.0
 40
1.0
 10
-162.3768
 20
-6.2981
 30
0.0
 10
-162.3768
 20
-6.2981
 30
0.0
 10
-154.0389
 20
-6.2981
 30
0.0
 10
-154.0389
 20
-6.2981
 30
0.0
 10
-154.0389
 20
-6.2981
 30
0.0
 10
-155.4338
 20
-9.2054
 30
0.0
 10
-156.5118
 20
-10.4481
 30
0.0
 10
-159.23
 20
-12.2767
 30
0.0
 10
-159.23
 20
-12.2767
 30
0.0
 10
-160.9396
 20
-13.4269
 30
0.0
 10
-165.1748
 20
-14.3387
 30
0.0
 10
-165.6805
 20
-17.1532
 30
0.0
 10
-165.6805
 20
-17.1532
 30
0.0
 10
-165.8503
 20
-18.1288
 30
0.0
 10
-165.879
 20
-18.8313
 30
0.0
 10
-165.5232
 20
-19.6703
 30
0.0
 10
-165.5232
 20
-19.6703
 30
0.0
 10
-165.5232
 20
-19.6703
 30
0.0
 10
-168.8269
 20
-19.6703
 30
0.0
 10
-168.8269
 20
-19.6703
 30
0.0
 10
-168.8269
 20
-19.6703
 30
0.0
 10
-167.1646
 20
-17.1879
 30
0.0
 10
-167.5125
 20
-18.6262
 30
0.0
 10
-166.6602
 20
-15.0723
 30
0.0
 10
-166.6602
 20
-15.0723
 30
0.0
 10
-166.2395
 20
-13.3179
 30
0.0
 10
-165.1148
 20
-11.9617
 30
0.0
 10
-163.0061
 20
-11.9617
 30
0.0
 10
-163.0061
 20
-11.9617
 30
0.0
 10
-163.0061
 20
-11.9617
 30
0.0
 10
-162.3768
 20
-11.9617
 30
0.0
 10
-162.3768
 20
-11.9617
 30
0.0
 10
-162.3768
 20
-11.9617
 30
0.0
 10
-162.8488
 20
-8.6842
 30
0.0
 10
-164.908
 20
-7.9769
 30
0.0
 10
-167.2537
 20
-8.9726
 30
0.0
 10
-167.2537
 20
-8.9726
 30
0.0
 10
-168.8111
 20
-1.5986
 30
0.0
 10
-178.9555
 20
-5.7354
 30
0.0
 10
-175.749
 20
-13.5349
 30
0.0
 10
-175.749
 20
-13.5349
 30
0.0
 10
-175.6094
 20
-11.5046
 30
0.0
 10
-171.344
 20
-11.4815
 30
0.0
 10
-171.344
 20
-14.4788
 30
0.0
 10
-171.344
 20
-14.4788
 30
0.0
 10
-171.344
 20
-17.0209
 30
0.0
 10
-172.9027
 20
-17.4678
 30
0.0
 10
-175.2771
 20
-17.4678
 30
0.0
 10
-175.2771
 20
-17.4678
 30
0.0
 10
-178.5812
 20
-17.4678
 30
0.0
 10
-179.682
 20
-12.2912
 30
0.0
 10
-179.682
 20
-9.7592
 30
0.0
 10
-179.682
 20
-9.7592
 30
0.0
 10
-179.682
 20
-0.1307
 30
0.0
 10
-166.2442
 20
2.967
 30
0.0
 10
-162.3768
 20
-6.2981
 30
0.0
  0
SPLINE
  5
6F
330
1F
100
AcDbEntity
  8
layer 1
 62
     7
370
     9
100
AcDbSpline
210
0.0
220
0.0
230
1.0
 70
    11
 71
     3
 72
    36
 73
    32
 74
     0
 42
0.0000000001
 43
0.0000000001
 12
1.0
 22
0.0
 32
0.0
 13
1.0
 23
0.0
 33
0.0
 40
0.0
 40
0.0
 40
0.0
 40
0.0
 40
0.1111111111111111
 40
0.1111111111111111
 40
0.1111111111111111
 40
0.1111111111111111
 40
0.2222222222222222
 40
0.2222222222222222
 40
0.2222222222222222
 40
0.2222222222222222
 40
0.3333333333333333
 40
0.3333333333333333
 40
0.3333333333333333
 40
0.3333333333333333
 40
0.4444444444444444
 40
0.4444444444444444
 40
0.4444444444444444
 40
0.4444444444444444
 40
0.5555555555555556
 40
0.5555555555555556
 40
0.5555555555555556
 40
0.5555555555555556
 40
0.6666666666666666
 40
0.6666666666666666
 40
0.6666666666666666
 40
0.6666666666666666
 40
0.7777777777777778
 40
0.7777777777777778
 40
0.7777777777777778
 40
0.7777777777777778
 40
1.0
 40
1.0
 40
1.0
 40
1.0
 10
-166.5117
 20
-47.7252
 30
0.0
 10
-163.728
 20
-46.4397
 30
0.0
 10
-161.1654
 20
-45.2231
 30
0.0
 10
-159.3784
 20
-42.0846
 30
0.0
 10
-159.3784
 20
-42.0846
 30
0.0
 10
-159.3784
 20
-42.0846
 30
0.0
 10
-153.9271
 20
-42.0618
 30
0.0
 10
-153.9271
 20
-42.0618
 30
0.0
 10
-153.9271
 20
-42.0618
 30
0.0
 10
-154.1272
 20
-44.4672
 30
0.0
 10
-155.5836
 20
-45.3097
 30
0.0
 10
-157.7028
 20
-44.7362
 30
0.0
 10
-157.7028
 20
-44.7362
 30
0.0
 10
-157.8436
 20
-46.4279
 30
0.0
 10
-156.5595
 20
-47.0775
 30
0.0
 10
-155.1847
 20
-47.7252
 30
0.0
 10
-155.1847
 20
-47.7252
 30
0.0
 10
-156.5595
 20
-48.3729
 30
0.0
 10
-157.8427
 20
-49.0225
 30
0.0
 10
-157.7018
 20
-50.7142
 30
0.0
 10
-157.7018
 20
-50.7142
 30
0.0
 10
-155.5827
 20
-50.1407
 30
0.0
 10
-154.1263
 20
-50.9832
 30
0.0
 10
-153.9261
 20
-53.3887
 30
0.0
 10
-153.9261
 20
-53.3887
 30
0.0
 10
-153.9261
 20
-53.3887
 30
0.0
 10
-159.3775
 20
-53.3659
 30
0.0
 10
-159.3775
 20
-53.3659
 30
0.0
 10
-159.3775
 20
-53.3659
 30
0.0
 10
-161.1645
 20
-50.2273
 30
0.0
 10
-163.6708
 20
-48.9152
 30
0.0
 10
-166.5117
 20
-47.7252
 30
0.0
  0
SPLINE
  5
70
330
1F
100
AcDbEntity
  8
layer 1
 62
     7
370
     9
100
AcDbSpline
210
0.0
220
0.0
230
1.0
 70
    11
 71
     3
 72
    16
 73
    12
 74
     0
 42
0.0000000001
 43
0.0000000001
 12
1.0
 22
0.0
 32
0.0
 13
1.0
 23
0.0
 33
0.0
 40
0.0
 40
0.0
 40
0.0
 40
0.0
 40
0.25
 40
0.25
 40
0.25
 40
0.25
 40
0.5
 40
0.5
 40
0.5
 40
0.5
 40
1.0
 40
1.0
 40
1.0
 40
1.0
 10
-173.7484
 20
-47.7252
 30
0.0
 10
-179.0977
 20
-45.429
 30
0.0
 10
-181.5404
 20
-43.5486
 30
0.0
 10
-183.3459
 20
-39.0727
 30
0.0
 10
-183.3459
 20
-39.0727
 30
0.0
 10
-183.3459
 20
-39.0727
 30
0.0
 10
-183.345
 20
-56.3778
 30
0.0
 10
-183.345
 20
-56.3778
 30
0.0
 10
-183.345
 20
-56.3778
 30
0.0
 10
-181.5394
 20
-51.9018
 30
0.0
 10
-178.9058
 20
-49.8294
 30
0.0
 10
-173.7484
 20
-47.7252
 30
0.0
  0
SPLINE
  5
71
330
1F
100
AcDbEntity
  8
layer 1
 62
     7
370
     9
100
AcDbSpline
210
0.0
220
0.0
230
1.0
 70
    11
 71
     3
 72
    16
 73
    12
 74
     0
 42
0.0000000001
 43
0.0000000001
 12
1.0
 22
0.0
 32
0.0
 13
1.0
 23
0.0
 33
0.0
 40
0.0
 40
0.0
 40
0.0
 40
0.0
 40
0.25
 40
0.25
 40
0.25
 40
0.25
 40
0.5
 40
0.5
 40
0.5
 40
0.5
 40
1.0
 40
1.0
 40
1.0
 40
1.0
 10
-120.2606
 20
-36.7129
 30
0.0
 10
-122.9017
 20
-37.9802
 30
0.0
 10
-125.204
 20
-36.6812
 30
0.0
 10
-127.0591
 20
-34.6958
 30
0.0
 10
-127.0591
 20
-34.6958
 30
0.0
 10
-128.1992
 20
-37.4296
 30
0.0
 10
-131.7383
 20
-37.534
 30
0.0
 10
-133.7901
 20
-36.8702
 30
0.0
 10
-133.7901
 20
-36.8702
 30
0.0
 10
-131.207
 20
-42.7135
 30
0.0
 10
-123.2394
 20
-43.043
 30
0.0
 10
-120.2606
 20
-36.7129
 30
0.0
  0
SPLINE
  5
72
330
1F
100
AcDbEntity
  8
layer 1
 62
     7
370
     9
100
AcDbSpline
210
0.0
220
0.0
230
1.0
 70
    11
 71
     3
 72
    84
 73
    80
 74
     0
 42
0.0000000001
 43
0.0000000001
 12
1.0
 22
0.0
 32
0.0
 13
1.0
 23
0.0
 33
0.0
 40
0.0
 40
0.0
 40
0.0
 40
0.0
 40
0.0476190476190476
 40
0.0476190476190476
 40
0.0476190476190476
 40
0.0476190476190476
 40
0.0952380952380952
 40
0.0952380952380952
 40
0.0952380952380952
 40
0.0952380952380952
 40
0.1428571428571428
 40
0.1428571428571428
 40
0.1428571428571428
 40
0.1428571428571428
 40
0.1904761904761905
 40
0.1904761904761905
 40
0.1904761904761905
 40
0.1904761904761905
 40
0.2380952380952381
 40
0.2380952380952381
 40
0.2380952380952381
 40
0.2380952380952381
 40
0.2857142857142857
 40
0.2857142857142857
 40
0.2857142857142857
 40
0.2857142857142857
 40
0.3333333333333333
 40
0.3333333333333333
 40
0.3333333333333333
 40
0.3333333333333333
 40
0.3809523809523809
 40
0.3809523809523809
 40
0.3809523809523809
 40
0.3809523809523809
 40
0.4285714285714285
 40
0.4285714285714285
 40
0.4285714285714285
 40
0.4285714285714285
 40
0.4761904761904762
 40
0.4761904761904762
 40
0.4761904761904762
 40
0.4761904761904762
 40
0.5238095238095238
 40
0.5238095238095238
 40
0.5238095238095238
 40
0.5238095238095238
 40
0.5714285714285714
 40
0.5714285714285714
 40
0.5714285714285714
 40
0.5714285714285714
 40
0.6190476190476191
 40
0.6190476190476191
 40
0.6190476190476191
 40
0.6190476190476191
 40
0.6666666666666666
 40
0.6666666666666666
 40
0.6666666666666666
 40
0.6666666666666666
 40
0.7142857142857143
 40
0.7142857142857143
 40
0.7142857142857143
 40
0.7142857142857143
 40
0.7619047619047619
 40
0.7619047619047619
 40
0.7619047619047619
 40
0.7619047619047619
 40
0.8095238095238095
 40
0.8095238095238095
 40
0.8095238095238095
 40
0.8095238095238095
 40
0.8571428571428571
 40
0.8571428571428571
 40
0.8571428571428571
 40
0.8571428571428571
 40
0.9047619047619048
 40
0.9047619047619048
 40
0.9047619047619048
 40
0.9047619047619048
 40
1.0
 40
1.0
 40
1.0
 40
1.0
 10
-142.6
 20
-47.6629
 30
0.0
 10
-141.0117
 20
-47.3173
 30
0.0
 10
-139.1292
 20
-45.8611
 30
0.0
 10
-138.9817
 20
-43.7923
 30
0.0
 10
-138.9817
 20
-43.7923
 30
0.0
 10
-141.1809
 20
-45.019
 30
0.0
 10
-145.3822
 20
-44.7201
 30
0.0
 10
-147.1623
 20
-42.0618
 30
0.0
 10
-147.1623
 20
-42.0618
 30
0.0
 10
-147.1623
 20
-42.0618
 30
0.0
 10
-140.7516
 20
-42.05
 30
0.0
 10
-140.7516
 20
-42.05
 30
0.0
 10
-140.7516
 20
-42.05
 30
0.0
 10
-141.9846
 20
-39.7199
 30
0.0
 10
-142.2854
 20
-38.1916
 30
0.0
 10
-142.2854
 20
-35.6117
 30
0.0
 10
-142.2854
 20
-35.6117
 30
0.0
 10
-142.2854
 20
-31.4365
 30
0.0
 10
-139.1468
 20
-26.3298
 30
0.0
 10
-134.8914
 20
-26.3298
 30
0.0
 10
-134.8914
 20
-26.3298
 30
0.0
 10
-132.4207
 20
-26.3298
 30
0.0
 10
-130.4864
 20
-27.7945
 30
0.0
 10
-130.4864
 20
-30.2628
 30
0.0
 10
-130.4864
 20
-30.2628
 30
0.0
 10
-130.4864
 20
-34.7693
 30
0.0
 10
-134.5753
 20
-33.8588
 30
0.0
 10
-135.9926
 20
-31.836
 30
0.0
 10
-135.9926
 20
-31.836
 30
0.0
 10
-136.8839
 20
-31.836
 30
0.0
 10
-137.7231
 20
-35.1893
 30
0.0
 10
-137.7231
 20
-36.5555
 30
0.0
 10
-137.7231
 20
-36.5555
 30
0.0
 10
-137.7231
 20
-40.1614
 30
0.0
 10
-135.3184
 20
-43.734
 30
0.0
 10
-131.6615
 20
-44.6305
 30
0.0
 10
-131.6615
 20
-44.6305
 30
0.0
 10
-131.6615
 20
-44.6305
 30
0.0
 10
-133.5465
 20
-47.6448
 30
0.0
 10
-133.5465
 20
-47.6448
 30
0.0
 10
-133.5465
 20
-47.6448
 30
0.0
 10
-133.5465
 20
-47.6448
 30
0.0
 10
-131.6606
 20
-50.82
 30
0.0
 10
-131.6606
 20
-50.82
 30
0.0
 10
-131.6606
 20
-50.82
 30
0.0
 10
-135.3175
 20
-51.7165
 30
0.0
 10
-137.7222
 20
-55.2891
 30
0.0
 10
-137.7222
 20
-58.8949
 30
0.0
 10
-137.7222
 20
-58.8949
 30
0.0
 10
-137.7222
 20
-60.2612
 30
0.0
 10
-136.883
 20
-63.6145
 30
0.0
 10
-135.9916
 20
-63.6145
 30
0.0
 10
-135.9916
 20
-63.6145
 30
0.0
 10
-134.5744
 20
-61.5917
 30
0.0
 10
-130.4855
 20
-60.6811
 30
0.0
 10
-130.4855
 20
-65.1877
 30
0.0
 10
-130.4855
 20
-65.1877
 30
0.0
 10
-130.4855
 20
-67.6559
 30
0.0
 10
-132.4197
 20
-69.1207
 30
0.0
 10
-134.8904
 20
-69.1207
 30
0.0
 10
-134.8904
 20
-69.1207
 30
0.0
 10
-139.1459
 20
-69.1207
 30
0.0
 10
-142.2845
 20
-64.0139
 30
0.0
 10
-142.2845
 20
-59.8388
 30
0.0
 10
-142.2845
 20
-59.8388
 30
0.0
 10
-142.2845
 20
-57.2589
 30
0.0
 10
-141.9836
 20
-55.7306
 30
0.0
 10
-140.7507
 20
-53.4004
 30
0.0
 10
-140.7507
 20
-53.4004
 30
0.0
 10
-140.7507
 20
-53.4004
 30
0.0
 10
-147.1614
 20
-53.3887
 30
0.0
 10
-147.1614
 20
-53.3887
 30
0.0
 10
-147.1614
 20
-53.3887
 30
0.0
 10
-145.3813
 20
-50.7303
 30
0.0
 10
-141.18
 20
-50.4315
 30
0.0
 10
-138.9807
 20
-51.6582
 30
0.0
 10
-138.9807
 20
-51.6582
 30
0.0
 10
-139.1283
 20
-49.5893
 30
0.0
 10
-141.0117
 20
-48.0084
 30
0.0
 10
-142.6
 20
-47.6629
 30
0.0
  0
SPLINE
  5
73
330
1F
100
AcDbEntity
  8
layer 1
 62
     7
370
     9
100
AcDbSpline
210
0.0
220
0.0
230
1.0
 70
    11
 71
     3
 72
    60
 73
    56
 74
     0
 42
0.0000000001
 43
0.0000000001
 12
1.0
 22
0.0
 32
0.0
 13
1.0
 23
0.0
 33
0.0
 40
0.0
 40
0.0
 40
0.0
 40
0.0
 40
0.0666666666666667
 40
0.0666666666666667
 40
0.0666666666666667
 40
0.0666666666666667
 40
0.1333333333333333
 40
0.1333333333333333
 40
0.1333333333333333
 40
0.1333333333333333
 40
0.2
 40
0.2
 40
0.2
 40
0.2
 40
0.2666666666666667
 40
0.2666666666666667
 40
0.2666666666666667
 40
0.2666666666666667
 40
0.3333333333333333
 40
0.3333333333333333
 40
0.3333333333333333
 40
0.3333333333333333
 40
0.4
 40
0.4
 40
0.4
 40
0.4
 40
0.4666666666666667
 40
0.4666666666666667
 40
0.4666666666666667
 40
0.4666666666666667
 40
0.5333333333333333
 40
0.5333333333333333
 40
0.5333333333333333
 40
0.5333333333333333
 40
0.6
 40
0.6
 40
0.6
 40
0.6
 40
0.6666666666666666
 40
0.6666666666666666
 40
0.6666666666666666
 40
0.6666666666666666
 40
0.7333333333333333
 40
0.7333333333333333
 40
0.7333333333333333
 40
0.7333333333333333
 40
0.8
 40
0.8
 40
0.8
 40
0.8
 40
0.8666666666666667
 40
0.8666666666666667
 40
0.8666666666666667
 40
0.8666666666666667
 40
1.0
 40
1.0
 40
1.0
 40
1.0
 10
-162.4223
 20
-37.6568
 30
0.0
 10
-162.4223
 20
-37.6568
 30
0.0
 10
-154.0844
 20
-37.6568
 30
0.0
 10
-154.0844
 20
-37.6568
 30
0.0
 10
-154.0844
 20
-37.6568
 30
0.0
 10
-155.4793
 20
-34.7496
 30
0.0
 10
-156.5573
 20
-33.5068
 30
0.0
 10
-159.2755
 20
-31.6782
 30
0.0
 10
-159.2755
 20
-31.6782
 30
0.0
 10
-160.9851
 20
-30.528
 30
0.0
 10
-165.2203
 20
-29.6163
 30
0.0
 10
-165.726
 20
-26.8017
 30
0.0
 10
-165.726
 20
-26.8017
 30
0.0
 10
-165.8958
 20
-25.8262
 30
0.0
 10
-165.9246
 20
-25.1237
 30
0.0
 10
-165.5688
 20
-24.2846
 30
0.0
 10
-165.5688
 20
-24.2846
 30
0.0
 10
-165.5688
 20
-24.2846
 30
0.0
 10
-168.8725
 20
-24.2846
 30
0.0
 10
-168.8725
 20
-24.2846
 30
0.0
 10
-168.8725
 20
-24.2846
 30
0.0
 10
-167.2101
 20
-26.7671
 30
0.0
 10
-167.558
 20
-25.3287
 30
0.0
 10
-166.7057
 20
-28.8826
 30
0.0
 10
-166.7057
 20
-28.8826
 30
0.0
 10
-166.285
 20
-30.637
 30
0.0
 10
-165.1604
 20
-31.9933
 30
0.0
 10
-163.0516
 20
-31.9933
 30
0.0
 10
-163.0516
 20
-31.9933
 30
0.0
 10
-163.0516
 20
-31.9933
 30
0.0
 10
-162.4223
 20
-31.9933
 30
0.0
 10
-162.4223
 20
-31.9933
 30
0.0
 10
-162.4223
 20
-31.9933
 30
0.0
 10
-162.8943
 20
-35.2708
 30
0.0
 10
-164.9536
 20
-35.9781
 30
0.0
 10
-167.2993
 20
-34.9824
 30
0.0
 10
-167.2993
 20
-34.9824
 30
0.0
 10
-168.8567
 20
-42.3564
 30
0.0
 10
-179.001
 20
-38.2195
 30
0.0
 10
-175.7945
 20
-30.4201
 30
0.0
 10
-175.7945
 20
-30.4201
 30
0.0
 10
-175.6549
 20
-32.4503
 30
0.0
 10
-171.3896
 20
-32.4735
 30
0.0
 10
-171.3896
 20
-29.4761
 30
0.0
 10
-171.3896
 20
-29.4761
 30
0.0
 10
-171.3896
 20
-26.934
 30
0.0
 10
-172.9482
 20
-26.4871
 30
0.0
 10
-175.3226
 20
-26.4871
 30
0.0
 10
-175.3226
 20
-26.4871
 30
0.0
 10
-178.6268
 20
-26.4871
 30
0.0
 10
-179.7276
 20
-31.6637
 30
0.0
 10
-179.7276
 20
-34.1958
 30
0.0
 10
-179.7276
 20
-34.1958
 30
0.0
 10
-179.7276
 20
-43.8242
 30
0.0
 10
-166.2897
 20
-46.922
 30
0.0
 10
-162.4223
 20
-37.6568
 30
0.0
  0
SPLINE
  5
74
330
1F
100
AcDbEntity
  8
layer 1
 62
     7
370
     9
100
AcDbSpline
210
0.0
220
0.0
230
1.0
 70
    11
 71
     3
 72
    16
 73
    12
 74
     0
 42
0.0000000001
 43
0.0000000001
 12
1.0
 22
0.0
 32
0.0
 13
1.0
 23
0.0
 33
0.0
 40
0.0
 40
0.0
 40
0.0
 40
0.0
 40
0.25
 40
0.25
 40
0.25
 40
0.25
 40
0.5
 40
0.5
 40
0.5
 40
0.5
 40
1.0
 40
1.0
 40
1.0
 40
1.0
 10
-177.8397
 20
-22.2395
 30
0.0
 10
-179.9826
 20
-20.9719
 30
0.0
 10
-182.1505
 20
-18.2296
 30
0.0
 10
-183.3459
 20
-15.1601
 30
0.0
 10
-183.3459
 20
-15.1601
 30
0.0
 10
-183.3459
 20
-15.1601
 30
0.0
 10
-183.3459
 20
-29.2567
 30
0.0
 10
-183.3459
 20
-29.2567
 30
0.0
 10
-183.3459
 20
-29.2567
 30
0.0
 10
-182.2661
 20
-25.9745
 30
0.0
 10
-181.272
 20
-24.5062
 30
0.0
 10
-177.8397
 20
-22.2395
 30
0.0
  0
SPLINE
  5
75
330
1F
100
AcDbEntity
  8
layer 1
 62
     7
370
     9
100
AcDbSpline
210
0.0
220
0.0
230
1.0
 70
    11
 71
     3
 72
   100
 73
    96
 74
     0
 42
0.0000000001
 43
0.0000000001
 12
1.0
 22
0.0
 32
0.0
 13
1.0
 23
0.0
 33
0.0
 40
0.0
 40
0.0
 40
0.0
 40
0.0
 40
0.04
 40
0.04
 40
0.04
 40
0.04
 40
0.08
 40
0.08
 40
0.08
 40
0.08
 40
0.12
 40
0.12
 40
0.12
 40
0.12
 40
0.16
 40
0.16
 40
0.16
 40
0.16
 40
0.2
 40
0.2
 40
0.2
 40
0.2
 40
0.24
 40
0.24
 40
0.24
 40
0.24
 40
0.28
 40
0.28
 40
0.28
 40
0.28
 40
0.32
 40
0.32
 40
0.32
 40
0.32
 40
0.36
 40
0.36
 40
0.36
 40
0.36
 40
0.4
 40
0.4
 40
0.4
 40
0.4
 40
0.44
 40
0.44
 40
0.44
 40
0.44
 40
0.48
 40
0.48
 40
0.48
 40
0.48
 40
0.52
 40
0.52
 40
0.52
 40
0.52
 40
0.56
 40
0.56
 40
0.56
 40
0.56
 40
0.6
 40
0.6
 40
0.6
 40
0.6
 40
0.64
 40
0.64
 40
0.64
 40
0.64
 40
0.68
 40
0.68
 40
0.68
 40
0.68
 40
0.72
 40
0.72
 40
0.72
 40
0.72
 40
0.76
 40
0.76
 40
0.76
 40
0.76
 40
0.8
 40
0.8
 40
0.8
 40
0.8
 40
0.84
 40
0.84
 40
0.84
 40
0.84
 40
0.88
 40
0.88
 40
0.88
 40
0.88
 40
0.92
 40
0.92
 40
0.92
 40
0.92
 40
1.0
 40
1.0
 40
1.0
 40
1.0
 10
-150.466
 20
-29.4761
 30
0.0
 10
-151.694
 20
-30.6762
 30
0.0
 10
-152.7094
 20
-31.5162
 30
0.0
 10
-154.7137
 20
-31.0494
 30
0.0
 10
-154.7137
 20
-31.0494
 30
0.0
 10
-152.2399
 20
-33.3317
 30
0.0
 10
-150.6522
 20
-35.0788
 30
0.0
 10
-150.1514
 20
-37.6568
 30
0.0
 10
-150.1514
 20
-37.6568
 30
0.0
 10
-150.1514
 20
-37.6568
 30
0.0
 10
-147.005
 20
-37.6568
 30
0.0
 10
-147.005
 20
-37.6568
 30
0.0
 10
-147.005
 20
-37.6568
 30
0.0
 10
-147.005
 20
-29.6099
 30
0.0
 10
-143.8778
 20
-26.2346
 30
0.0
 10
-139.139
 20
-22.0821
 30
0.0
 10
-139.139
 20
-22.0821
 30
0.0
 10
-143.137
 20
-18.854
 30
0.0
 10
-147.1308
 20
-13.4509
 30
0.0
 10
-147.005
 20
-6.5075
 30
0.0
 10
-147.005
 20
-6.5075
 30
0.0
 10
-147.005
 20
-6.5075
 30
0.0
 10
-150.1514
 20
-6.5075
 30
0.0
 10
-150.1514
 20
-6.5075
 30
0.0
 10
-150.1514
 20
-6.5075
 30
0.0
 10
-150.668
 20
-8.7082
 30
0.0
 10
-151.675
 20
-11.8359
 30
0.0
 10
-154.7137
 20
-13.1149
 30
0.0
 10
-154.7137
 20
-13.1149
 30
0.0
 10
-152.8807
 20
-13.1149
 30
0.0
 10
-150.8161
 20
-13.8489
 30
0.0
 10
-150.466
 20
-15.1601
 30
0.0
 10
-150.466
 20
-15.1601
 30
0.0
 10
-151.6076
 20
-15.4649
 30
0.0
 10
-152.6363
 20
-17.1452
 30
0.0
 10
-154.7071
 20
-17.2118
 30
0.0
 10
-154.7071
 20
-17.2118
 30
0.0
 10
-156.2476
 20
-17.2614
 30
0.0
 10
-159.276
 20
-17.2159
 30
0.0
 10
-159.276
 20
-19.4077
 30
0.0
 10
-159.276
 20
-19.4077
 30
0.0
 10
-159.276
 20
-20.2192
 30
0.0
 10
-157.8018
 20
-20.1943
 30
0.0
 10
-157.2308
 20
-20.1943
 30
0.0
 10
-157.2308
 20
-20.1943
 30
0.0
 10
-153.4695
 20
-20.1943
 30
0.0
 10
-152.4381
 20
-14.9839
 30
0.0
 10
-146.2184
 20
-16.5759
 30
0.0
 10
-146.2184
 20
-16.5759
 30
0.0
 10
-146.2184
 20
-16.5759
 30
0.0
 10
-147.8709
 20
-19.303
 30
0.0
 10
-147.8709
 20
-19.303
 30
0.0
 10
-147.8709
 20
-19.303
 30
0.0
 10
-145.3828
 20
-19.2504
 30
0.0
 10
-145.8781
 20
-19.0592
 30
0.0
 10
-144.3294
 20
-20.1931
 30
0.0
 10
-144.3294
 20
-20.1931
 30
0.0
 10
-143.2659
 20
-20.9717
 30
0.0
 10
-143.1304
 20
-21.5447
 30
0.0
 10
-141.4988
 20
-21.9248
 30
0.0
 10
-141.4988
 20
-21.9248
 30
0.0
 10
-141.4988
 20
-21.9248
 30
0.0
 10
-141.4988
 20
-22.2395
 30
0.0
 10
-141.4988
 20
-22.2395
 30
0.0
 10
-141.4988
 20
-22.2395
 30
0.0
 10
-144.5388
 20
-22.9477
 30
0.0
 10
-143.595
 20
-25.0712
 30
0.0
 10
-147.7916
 20
-25.0712
 30
0.0
 10
-147.7916
 20
-25.0712
 30
0.0
 10
-147.2347
 20
-25.9029
 30
0.0
 10
-146.808
 20
-25.9265
 30
0.0
 10
-146.378
 20
-27.1434
 30
0.0
 10
-146.378
 20
-27.1434
 30
0.0
 10
-146.1305
 20
-27.8435
 30
0.0
 10
-147.7706
 20
-28.0603
 30
0.0
 10
-148.5782
 20
-28.0603
 30
0.0
 10
-148.5782
 20
-28.0603
 30
0.0
 10
-148.5782
 20
-28.0603
 30
0.0
 10
-148.7355
 20
-28.0603
 30
0.0
 10
-148.7355
 20
-28.0603
 30
0.0
 10
-148.7355
 20
-28.0603
 30
0.0
 10
-152.8656
 20
-28.0603
 30
0.0
 10
-155.0736
 20
-24.1273
 30
0.0
 10
-156.9162
 20
-24.1273
 30
0.0
 10
-156.9162
 20
-24.1273
 30
0.0
 10
-157.5481
 20
-24.1273
 30
0.0
 10
-159.276
 20
-23.9044
 30
0.0
 10
-159.276
 20
-24.9139
 30
0.0
 10
-159.276
 20
-24.9139
 30
0.0
 10
-159.276
 20
-27.1886
 30
0.0
 10
-155.8592
 20
-26.7698
 30
0.0
 10
-154.4284
 20
-26.9884
 30
0.0
 10
-154.4284
 20
-26.9884
 30
0.0
 10
-153.3323
 20
-27.1559
 30
0.0
 10
-150.7183
 20
-28.5312
 30
0.0
 10
-150.466
 20
-29.4761
 30
0.0
  0
SPLINE
  5
76
330
1F
100
AcDbEntity
  8
layer 1
 62
     7
370
     9
100
AcDbSpline
210
0.0
220
0.0
230
1.0
 70
    11
 71
     3
 72
    20
 73
    16
 74
     0
 42
0.0000000001
 43
0.0000000001
 12
1.0
 22
0.0
 32
0.0
 13
1.0
 23
0.0
 33
0.0
 40
0.0
 40
0.0
 40
0.0
 40
0.0
 40
0.2
 40
0.2
 40
0.2
 40
0.2
 40
0.4
 40
0.4
 40
0.4
 40
0.4
 40
0.6
 40
0.6
 40
0.6
 40
0.6
 40
1.0
 40
1.0
 40
1.0
 40
1.0
 10
-106.6031
 20
-47.7451
 30
0.0
 10
-105.6884
 20
-48.0202
 30
0.0
 10
-104.5998
 20
-48.6212
 30
0.0
 10
-103.9548
 20
-49.5886
 30
0.0
 10
-103.9548
 20
-49.5886
 30
0.0
 10
-103.6384
 20
-48.7304
 30
0.0
 10
-103.0336
 20
-48.0679
 30
0.0
 10
-102.2521
 20
-47.7409
 30
0.0
 10
-102.2521
 20
-47.7409
 30
0.0
 10
-103.0336
 20
-47.4138
 30
0.0
 10
-103.5982
 20
-46.7358
 30
0.0
 10
-103.9146
 20
-45.8776
 30
0.0
 10
-103.9146
 20
-45.8776
 30
0.0
 10
-104.5596
 20
-46.8449
 30
0.0
 10
-105.6884
 20
-47.4208
 30
0.0
 10
-106.6031
 20
-47.7451
 30
0.0
  0
SPLINE
  5
77
330
1F
100
AcDbEntity
  8
layer 1
 62
     7
370
     9
100
AcDbSpline
210
0.0
220
0.0
230
1.0
 70
    11
 71
     3
 72
    16
 73
    12
 74
     0
 42
0.0000000001
 43
0.0000000001
 12
1.0
 22
0.0
 32
0.0
 13
1.0
 23
0.0
 33
0.0
 40
0.0
 40
0.0
 40
0.0
 40
0.0
 40
0.25
 40
0.25
 40
0.25
 40
0.25
 40
0.5
 40
0.5
 40
0.5
 40
0.5
 40
1.0
 40
1.0
 40
1.0
 40
1.0
 10
-80.1871
 20
-47.7253
 30
0.0
 10
-74.8379
 20
-50.0214
 30
0.0
 10
-72.3971
 20
-51.9018
 30
0.0
 10
-70.5915
 20
-56.3778
 30
0.0
 10
-70.5915
 20
-56.3778
 30
0.0
 10
-70.5915
 20
-56.3778
 30
0.0
 10
-70.5906
 20
-39.0727
 30
0.0
 10
-70.5906
 20
-39.0727
 30
0.0
 10
-70.5906
 20
-39.0727
 30
0.0
 10
-72.3961
 20
-43.5486
 30
0.0
 10
-74.8379
 20
-45.4292
 30
0.0
 10
-80.1871
 20
-47.7253
 30
0.0
  0
SPLINE
  5
78
330
1F
100
AcDbEntity
  8
layer 1
 62
     7
370
     9
100
AcDbSpline
210
0.0
220
0.0
230
1.0
 70
    11
 71
     3
 72
    60
 73
    56
 74
     0
 42
0.0000000001
 43
0.0000000001
 12
1.0
 22
0.0
 32
0.0
 13
1.0
 23
0.0
 33
0.0
 40
0.0
 40
0.0
 40
0.0
 40
0.0
 40
0.0666666666666667
 40
0.0666666666666667
 40
0.0666666666666667
 40
0.0666666666666667
 40
0.1333333333333333
 40
0.1333333333333333
 40
0.1333333333333333
 40
0.1333333333333333
 40
0.2
 40
0.2
 40
0.2
 40
0.2
 40
0.2666666666666667
 40
0.2666666666666667
 40
0.2666666666666667
 40
0.2666666666666667
 40
0.3333333333333333
 40
0.3333333333333333
 40
0.3333333333333333
 40
0.3333333333333333
 40
0.4
 40
0.4
 40
0.4
 40
0.4
 40
0.4666666666666667
 40
0.4666666666666667
 40
0.4666666666666667
 40
0.4666666666666667
 40
0.5333333333333333
 40
0.5333333333333333
 40
0.5333333333333333
 40
0.5333333333333333
 40
0.6
 40
0.6
 40
0.6
 40
0.6
 40
0.6666666666666666
 40
0.6666666666666666
 40
0.6666666666666666
 40
0.6666666666666666
 40
0.7333333333333333
 40
0.7333333333333333
 40
0.7333333333333333
 40
0.7333333333333333
 40
0.8
 40
0.8
 40
0.8
 40
0.8
 40
0.8666666666666667
 40
0.8666666666666667
 40
0.8666666666666667
 40
0.8666666666666667
 40
1.0
 40
1.0
 40
1.0
 40
1.0
 10
-91.6043
 20
-57.7936
 30
0.0
 10
-91.6043
 20
-57.7936
 30
0.0
 10
-99.9422
 20
-57.7936
 30
0.0
 10
-99.9422
 20
-57.7936
 30
0.0
 10
-99.9422
 20
-57.7936
 30
0.0
 10
-98.5473
 20
-60.7009
 30
0.0
 10
-97.4693
 20
-61.9436
 30
0.0
 10
-94.7511
 20
-63.7722
 30
0.0
 10
-94.7511
 20
-63.7722
 30
0.0
 10
-93.0415
 20
-64.9224
 30
0.0
 10
-88.8063
 20
-65.8342
 30
0.0
 10
-88.3006
 20
-68.6487
 30
0.0
 10
-88.3006
 20
-68.6487
 30
0.0
 10
-88.1308
 20
-69.6243
 30
0.0
 10
-88.1021
 20
-70.3268
 30
0.0
 10
-88.4579
 20
-71.1658
 30
0.0
 10
-88.4579
 20
-71.1658
 30
0.0
 10
-88.4579
 20
-71.1658
 30
0.0
 10
-85.1542
 20
-71.1658
 30
0.0
 10
-85.1542
 20
-71.1658
 30
0.0
 10
-85.1542
 20
-71.1658
 30
0.0
 10
-86.8165
 20
-68.6834
 30
0.0
 10
-86.4686
 20
-70.1217
 30
0.0
 10
-87.3209
 20
-66.5678
 30
0.0
 10
-87.3209
 20
-66.5678
 30
0.0
 10
-87.7416
 20
-64.8134
 30
0.0
 10
-88.8663
 20
-63.4572
 30
0.0
 10
-90.975
 20
-63.4572
 30
0.0
 10
-90.975
 20
-63.4572
 30
0.0
 10
-90.975
 20
-63.4572
 30
0.0
 10
-91.6043
 20
-63.4572
 30
0.0
 10
-91.6043
 20
-63.4572
 30
0.0
 10
-91.6043
 20
-63.4572
 30
0.0
 10
-91.1323
 20
-60.1797
 30
0.0
 10
-89.0731
 20
-59.4724
 30
0.0
 10
-86.7274
 20
-60.4681
 30
0.0
 10
-86.7274
 20
-60.4681
 30
0.0
 10
-85.17
 20
-53.0941
 30
0.0
 10
-75.0256
 20
-57.2309
 30
0.0
 10
-78.2321
 20
-65.0304
 30
0.0
 10
-78.2321
 20
-65.0304
 30
0.0
 10
-78.3717
 20
-63.0002
 30
0.0
 10
-82.6371
 20
-62.977
 30
0.0
 10
-82.6371
 20
-65.9743
 30
0.0
 10
-82.6371
 20
-65.9743
 30
0.0
 10
-82.6371
 20
-68.5164
 30
0.0
 10
-81.0784
 20
-68.9633
 30
0.0
 10
-78.7041
 20
-68.9633
 30
0.0
 10
-78.7041
 20
-68.9633
 30
0.0
 10
-75.3999
 20
-68.9633
 30
0.0
 10
-74.2991
 20
-63.7867
 30
0.0
 10
-74.2991
 20
-61.2547
 30
0.0
 10
-74.2991
 20
-61.2547
 30
0.0
 10
-74.2991
 20
-51.6262
 30
0.0
 10
-87.7369
 20
-48.5285
 30
0.0
 10
-91.6043
 20
-57.7936
 30
0.0
  0
SPLINE
  5
79
330
1F
100
AcDbEntity
  8
layer 1
 62
     7
370
     9
100
AcDbSpline
210
0.0
220
0.0
230
1.0
 70
    11
 71
     3
 72
    16
 73
    12
 74
     0
 42
0.0000000001
 43
0.0000000001
 12
1.0
 22
0.0
 32
0.0
 13
1.0
 23
0.0
 33
0.0
 40
0.0
 40
0.0
 40
0.0
 40
0.0
 40
0.25
 40
0.25
 40
0.25
 40
0.25
 40
0.5
 40
0.5
 40
0.5
 40
0.5
 40
1.0
 40
1.0
 40
1.0
 40
1.0
 10
-103.9592
 20
-97.3731
 30
0.0
 10
-103.6428
 20
-98.2313
 30
0.0
 10
-103.038
 20
-98.8938
 30
0.0
 10
-102.2565
 20
-99.2208
 30
0.0
 10
-102.2565
 20
-99.2208
 30
0.0
 10
-102.2565
 20
-99.2208
 30
0.0
 10
-106.6477
 20
-99.2406
 30
0.0
 10
-106.6477
 20
-99.2406
 30
0.0
 10
-106.6477
 20
-99.2406
 30
0.0
 10
-105.7329
 20
-98.9163
 30
0.0
 10
-104.6042
 20
-98.3404
 30
0.0
 10
-103.9592
 20
-97.3731
 30
0.0
  0
SPLINE
  5
7A
330
1F
100
AcDbEntity
  8
layer 1
 62
     7
370
     9
100
AcDbSpline
210
0.0
220
0.0
230
1.0
 70
    11
 71
     3
 72
    24
 73
    20
 74
     0
 42
0.0000000001
 43
0.0000000001
 12
1.0
 22
0.0
 32
0.0
 13
1.0
 23
0.0
 33
0.0
 40
0.0
 40
0.0
 40
0.0
 40
0.0
 40
0.1666666666666667
 40
0.1666666666666667
 40
0.1666666666666667
 40
0.1666666666666667
 40
0.3333333333333333
 40
0.3333333333333333
 40
0.3333333333333333
 40
0.3333333333333333
 40
0.5
 40
0.5
 40
0.5
 40
0.5
 40
0.6666666666666666
 40
0.6666666666666666
 40
0.6666666666666666
 40
0.6666666666666666
 40
1.0
 40
1.0
 40
1.0
 40
1.0
 10
-96.2784
 20
-96.2317
 30
0.0
 10
-98.3975
 20
-96.8052
 30
0.0
 10
-99.8539
 20
-95.9627
 30
0.0
 10
-100.054
 20
-93.5573
 30
0.0
 10
-100.054
 20
-93.5573
 30
0.0
 10
-100.054
 20
-93.5573
 30
0.0
 10
-94.6027
 20
-93.5801
 30
0.0
 10
-94.6027
 20
-93.5801
 30
0.0
 10
-94.6027
 20
-93.5801
 30
0.0
 10
-92.8157
 20
-96.7186
 30
0.0
 10
-90.2521
 20
-97.9353
 30
0.0
 10
-87.4685
 20
-99.2208
 30
0.0
 10
-87.4685
 20
-99.2208
 30
0.0
 10
-87.4685
 20
-99.2208
 30
0.0
 10
-98.7955
 20
-99.2208
 30
0.0
 10
-98.7955
 20
-99.2208
 30
0.0
 10
-98.7955
 20
-99.2208
 30
0.0
 10
-97.4207
 20
-98.5731
 30
0.0
 10
-96.1375
 20
-97.9234
 30
0.0
 10
-96.2784
 20
-96.2317
 30
0.0
  0
SPLINE
  5
7B
330
1F
100
AcDbEntity
  8
layer 1
 62
     7
370
     9
100
AcDbSpline
210
0.0
220
0.0
230
1.0
 70
    11
 71
     3
 72
    16
 73
    12
 74
     0
 42
0.0000000001
 43
0.0000000001
 12
1.0
 22
0.0
 32
0.0
 13
1.0
 23
0.0
 33
0.0
 40
0.0
 40
0.0
 40
0.0
 40
0.0
 40
0.25
 40
0.25
 40
0.25
 40
0.25
 40
0.5
 40
0.5
 40
0.5
 40
0.5
 40
1.0
 40
1.0
 40
1.0
 40
1.0
 10
-70.6352
 20
-90.5682
 30
0.0
 10
-70.6352
 20
-90.5682
 30
0.0
 10
-70.6352
 20
-99.2208
 30
0.0
 10
-70.6352
 20
-99.2208
 30
0.0
 10
-70.6352
 20
-99.2208
 30
0.0
 10
-70.6352
 20
-99.2208
 30
0.0
 10
-80.2317
 20
-99.2208
 30
0.0
 10
-80.2317
 20
-99.2208
 30
0.0
 10
-80.2317
 20
-99.2208
 30
0.0
 10
-74.8825
 20
-96.9247
 30
0.0
 10
-72.4407
 20
-95.0441
 30
0.0
 10
-70.6352
 20
-90.5682
 30
0.0
  0
SPLINE
  5
7C
330
1F
100
AcDbEntity
  8
layer 1
 62
     7
370
     9
100
AcDbSpline
210
0.0
220
0.0
230
1.0
 70
    11
 71
     3
 72
    48
 73
    44
 74
     0
 42
0.0000000001
 43
0.0000000001
 12
1.0
 22
0.0
 32
0.0
 13
1.0
 23
0.0
 33
0.0
 40
0.0
 40
0.0
 40
0.0
 40
0.0
 40
0.0833333333333333
 40
0.0833333333333333
 40
0.0833333333333333
 40
0.0833333333333333
 40
0.1666666666666667
 40
0.1666666666666667
 40
0.1666666666666667
 40
0.1666666666666667
 40
0.25
 40
0.25
 40
0.25
 40
0.25
 40
0.3333333333333333
 40
0.3333333333333333
 40
0.3333333333333333
 40
0.3333333333333333
 40
0.4166666666666667
 40
0.4166666666666667
 40
0.4166666666666667
 40
0.4166666666666667
 40
0.5
 40
0.5
 40
0.5
 40
0.5
 40
0.5833333333333334
 40
0.5833333333333334
 40
0.5833333333333334
 40
0.5833333333333334
 40
0.6666666666666666
 40
0.6666666666666666
 40
0.6666666666666666
 40
0.6666666666666666
 40
0.75
 40
0.75
 40
0.75
 40
0.75
 40
0.8333333333333334
 40
0.8333333333333334
 40
0.8333333333333334
 40
0.8333333333333334
 40
1.0
 40
1.0
 40
1.0
 40
1.0
 10
-122.3196
 20
-96.126
 30
0.0
 10
-118.6627
 20
-95.2295
 30
0.0
 10
-116.258
 20
-91.6569
 30
0.0
 10
-116.258
 20
-88.051
 30
0.0
 10
-116.258
 20
-88.051
 30
0.0
 10
-116.258
 20
-86.6848
 30
0.0
 10
-117.0972
 20
-83.3315
 30
0.0
 10
-117.9885
 20
-83.3315
 30
0.0
 10
-117.9885
 20
-83.3315
 30
0.0
 10
-119.4058
 20
-85.3543
 30
0.0
 10
-123.4947
 20
-86.2648
 30
0.0
 10
-123.4947
 20
-81.7583
 30
0.0
 10
-123.4947
 20
-81.7583
 30
0.0
 10
-123.4947
 20
-79.29
 30
0.0
 10
-121.5604
 20
-77.8253
 30
0.0
 10
-119.0897
 20
-77.8253
 30
0.0
 10
-119.0897
 20
-77.8253
 30
0.0
 10
-114.8343
 20
-77.8253
 30
0.0
 10
-111.6957
 20
-82.932
 30
0.0
 10
-111.6957
 20
-87.1072
 30
0.0
 10
-111.6957
 20
-87.1072
 30
0.0
 10
-111.6957
 20
-89.6871
 30
0.0
 10
-111.9965
 20
-91.2154
 30
0.0
 10
-113.2295
 20
-93.5456
 30
0.0
 10
-113.2295
 20
-93.5456
 30
0.0
 10
-113.2295
 20
-93.5456
 30
0.0
 10
-106.8188
 20
-93.5573
 30
0.0
 10
-106.8188
 20
-93.5573
 30
0.0
 10
-106.8188
 20
-93.5573
 30
0.0
 10
-108.5989
 20
-96.2157
 30
0.0
 10
-112.8002
 20
-96.5145
 30
0.0
 10
-114.9994
 20
-95.2878
 30
0.0
 10
-114.9994
 20
-95.2878
 30
0.0
 10
-114.8519
 20
-97.3567
 30
0.0
 10
-112.9694
 20
-98.8752
 30
0.0
 10
-111.3811
 20
-99.2208
 30
0.0
 10
-111.3811
 20
-99.2208
 30
0.0
 10
-111.3811
 20
-99.2208
 30
0.0
 10
-120.4337
 20
-99.1763
 30
0.0
 10
-120.4337
 20
-99.1763
 30
0.0
 10
-120.4337
 20
-99.1763
 30
0.0
 10
-120.4337
 20
-99.1763
 30
0.0
 10
-122.3196
 20
-96.126
 30
0.0
 10
-122.3196
 20
-96.126
 30
0.0
  0
SPLINE
  5
7D
330
1F
100
AcDbEntity
  8
layer 1
 62
     7
370
     9
100
AcDbSpline
210
0.0
220
0.0
230
1.0
 70
    11
 71
     3
 72
    60
 73
    56
 74
     0
 42
0.0000000001
 43
0.0000000001
 12
1.0
 22
0.0
 32
0.0
 13
1.0
 23
0.0
 33
0.0
 40
0.0
 40
0.0
 40
0.0
 40
0.0
 40
0.0666666666666667
 40
0.0666666666666667
 40
0.0666666666666667
 40
0.0666666666666667
 40
0.1333333333333333
 40
0.1333333333333333
 40
0.1333333333333333
 40
0.1333333333333333
 40
0.2
 40
0.2
 40
0.2
 40
0.2
 40
0.2666666666666667
 40
0.2666666666666667
 40
0.2666666666666667
 40
0.2666666666666667
 40
0.3333333333333333
 40
0.3333333333333333
 40
0.3333333333333333
 40
0.3333333333333333
 40
0.4
 40
0.4
 40
0.4
 40
0.4
 40
0.4666666666666667
 40
0.4666666666666667
 40
0.4666666666666667
 40
0.4666666666666667
 40
0.5333333333333333
 40
0.5333333333333333
 40
0.5333333333333333
 40
0.5333333333333333
 40
0.6
 40
0.6
 40
0.6
 40
0.6
 40
0.6666666666666666
 40
0.6666666666666666
 40
0.6666666666666666
 40
0.6666666666666666
 40
0.7333333333333333
 40
0.7333333333333333
 40
0.7333333333333333
 40
0.7333333333333333
 40
0.8
 40
0.8
 40
0.8
 40
0.8
 40
0.8666666666666667
 40
0.8666666666666667
 40
0.8666666666666667
 40
0.8666666666666667
 40
1.0
 40
1.0
 40
1.0
 40
1.0
 10
-91.5588
 20
-89.1523
 30
0.0
 10
-91.5588
 20
-89.1523
 30
0.0
 10
-99.8967
 20
-89.1523
 30
0.0
 10
-99.8967
 20
-89.1523
 30
0.0
 10
-99.8967
 20
-89.1523
 30
0.0
 10
-98.5018
 20
-86.2451
 30
0.0
 10
-97.4238
 20
-85.0023
 30
0.0
 10
-94.7056
 20
-83.1737
 30
0.0
 10
-94.7056
 20
-83.1737
 30
0.0
 10
-92.996
 20
-82.0235
 30
0.0
 10
-88.7608
 20
-81.1118
 30
0.0
 10
-88.2551
 20
-78.2972
 30
0.0
 10
-88.2551
 20
-78.2972
 30
0.0
 10
-88.0853
 20
-77.3217
 30
0.0
 10
-88.0565
 20
-76.6192
 30
0.0
 10
-88.4124
 20
-75.7801
 30
0.0
 10
-88.4124
 20
-75.7801
 30
0.0
 10
-88.4124
 20
-75.7801
 30
0.0
 10
-85.1086
 20
-75.7801
 30
0.0
 10
-85.1086
 20
-75.7801
 30
0.0
 10
-85.1086
 20
-75.7801
 30
0.0
 10
-86.771
 20
-78.2626
 30
0.0
 10
-86.4231
 20
-76.8242
 30
0.0
 10
-87.2754
 20
-80.3781
 30
0.0
 10
-87.2754
 20
-80.3781
 30
0.0
 10
-87.6961
 20
-82.1325
 30
0.0
 10
-88.8207
 20
-83.4888
 30
0.0
 10
-90.9295
 20
-83.4888
 30
0.0
 10
-90.9295
 20
-83.4888
 30
0.0
 10
-90.9295
 20
-83.4888
 30
0.0
 10
-91.5588
 20
-83.4888
 30
0.0
 10
-91.5588
 20
-83.4888
 30
0.0
 10
-91.5588
 20
-83.4888
 30
0.0
 10
-91.0868
 20
-86.7663
 30
0.0
 10
-89.0275
 20
-87.4736
 30
0.0
 10
-86.6819
 20
-86.4779
 30
0.0
 10
-86.6819
 20
-86.4779
 30
0.0
 10
-85.1244
 20
-93.8519
 30
0.0
 10
-74.9801
 20
-89.715
 30
0.0
 10
-78.1866
 20
-81.9156
 30
0.0
 10
-78.1866
 20
-81.9156
 30
0.0
 10
-78.3262
 20
-83.9458
 30
0.0
 10
-82.5915
 20
-83.969
 30
0.0
 10
-82.5915
 20
-80.9717
 30
0.0
 10
-82.5915
 20
-80.9717
 30
0.0
 10
-82.5915
 20
-78.4295
 30
0.0
 10
-81.0329
 20
-77.9826
 30
0.0
 10
-78.6585
 20
-77.9826
 30
0.0
 10
-78.6585
 20
-77.9826
 30
0.0
 10
-75.3543
 20
-77.9826
 30
0.0
 10
-74.2536
 20
-83.1592
 30
0.0
 10
-74.2536
 20
-85.6913
 30
0.0
 10
-74.2536
 20
-85.6913
 30
0.0
 10
-74.2536
 20
-95.3197
 30
0.0
 10
-87.6914
 20
-98.4175
 30
0.0
 10
-91.5588
 20
-89.1523
 30
0.0
  0
SPLINE
  5
7E
330
1F
100
AcDbEntity
  8
layer 1
 62
     7
370
     9
100
AcDbSpline
210
0.0
220
0.0
230
1.0
 70
    11
 71
     3
 72
    16
 73
    12
 74
     0
 42
0.0000000001
 43
0.0000000001
 12
1.0
 22
0.0
 32
0.0
 13
1.0
 23
0.0
 33
0.0
 40
0.0
 40
0.0
 40
0.0
 40
0.0
 40
0.25
 40
0.25
 40
0.25
 40
0.25
 40
0.5
 40
0.5
 40
0.5
 40
0.5
 40
1.0
 40
1.0
 40
1.0
 40
1.0
 10
-76.1414
 20
-73.735
 30
0.0
 10
-73.9985
 20
-72.4674
 30
0.0
 10
-71.8306
 20
-69.7251
 30
0.0
 10
-70.6352
 20
-66.6556
 30
0.0
 10
-70.6352
 20
-66.6556
 30
0.0
 10
-70.6352
 20
-66.6556
 30
0.0
 10
-70.6352
 20
-80.7522
 30
0.0
 10
-70.6352
 20
-80.7522
 30
0.0
 10
-70.6352
 20
-80.7522
 30
0.0
 10
-71.7151
 20
-77.47
 30
0.0
 10
-72.7091
 20
-76.0017
 30
0.0
 10
-76.1414
 20
-73.735
 30
0.0
  0
SPLINE
  5
7F
330
1F
100
AcDbEntity
  8
layer 1
 62
     7
370
     9
100
AcDbSpline
210
0.0
220
0.0
230
1.0
 70
    11
 71
     3
 72
   100
 73
    96
 74
     0
 42
0.0000000001
 43
0.0000000001
 12
1.0
 22
0.0
 32
0.0
 13
1.0
 23
0.0
 33
0.0
 40
0.0
 40
0.0
 40
0.0
 40
0.0
 40
0.04
 40
0.04
 40
0.04
 40
0.04
 40
0.08
 40
0.08
 40
0.08
 40
0.08
 40
0.12
 40
0.12
 40
0.12
 40
0.12
 40
0.16
 40
0.16
 40
0.16
 40
0.16
 40
0.2
 40
0.2
 40
0.2
 40
0.2
 40
0.24
 40
0.24
 40
0.24
 40
0.24
 40
0.28
 40
0.28
 40
0.28
 40
0.28
 40
0.32
 40
0.32
 40
0.32
 40
0.32
 40
0.36
 40
0.36
 40
0.36
 40
0.36
 40
0.4
 40
0.4
 40
0.4
 40
0.4
 40
0.44
 40
0.44
 40
0.44
 40
0.44
 40
0.48
 40
0.48
 40
0.48
 40
0.48
 40
0.52
 40
0.52
 40
0.52
 40
0.52
 40
0.56
 40
0.56
 40
0.56
 40
0.56
 40
0.6
 40
0.6
 40
0.6
 40
0.6
 40
0.64
 40
0.64
 40
0.64
 40
0.64
 40
0.68
 40
0.68
 40
0.68
 40
0.68
 40
0.72
 40
0.72
 40
0.72
 40
0.72
 40
0.76
 40
0.76
 40
0.76
 40
0.76
 40
0.8
 40
0.8
 40
0.8
 40
0.8
 40
0.84
 40
0.84
 40
0.84
 40
0.84
 40
0.88
 40
0.88
 40
0.88
 40
0.88
 40
0.92
 40
0.92
 40
0.92
 40
0.92
 40
1.0
 40
1.0
 40
1.0
 40
1.0
 10
-103.5151
 20
-80.9717
 30
0.0
 10
-102.2871
 20
-82.1717
 30
0.0
 10
-101.2717
 20
-83.0117
 30
0.0
 10
-99.2674
 20
-82.5449
 30
0.0
 10
-99.2674
 20
-82.5449
 30
0.0
 10
-101.7412
 20
-84.8272
 30
0.0
 10
-103.3289
 20
-86.5743
 30
0.0
 10
-103.8297
 20
-89.1523
 30
0.0
 10
-103.8297
 20
-89.1523
 30
0.0
 10
-103.8297
 20
-89.1523
 30
0.0
 10
-106.9761
 20
-89.1523
 30
0.0
 10
-106.9761
 20
-89.1523
 30
0.0
 10
-106.9761
 20
-89.1523
 30
0.0
 10
-106.9761
 20
-81.1054
 30
0.0
 10
-110.1034
 20
-77.7301
 30
0.0
 10
-114.8421
 20
-73.5776
 30
0.0
 10
-114.8421
 20
-73.5776
 30
0.0
 10
-110.8442
 20
-70.3495
 30
0.0
 10
-106.8504
 20
-64.9464
 30
0.0
 10
-106.9761
 20
-58.003
 30
0.0
 10
-106.9761
 20
-58.003
 30
0.0
 10
-106.9761
 20
-58.003
 30
0.0
 10
-103.8297
 20
-58.003
 30
0.0
 10
-103.8297
 20
-58.003
 30
0.0
 10
-103.8297
 20
-58.003
 30
0.0
 10
-103.3131
 20
-60.2037
 30
0.0
 10
-102.3061
 20
-63.3314
 30
0.0
 10
-99.2674
 20
-64.6104
 30
0.0
 10
-99.2674
 20
-64.6104
 30
0.0
 10
-101.1005
 20
-64.6104
 30
0.0
 10
-103.165
 20
-65.3444
 30
0.0
 10
-103.5151
 20
-66.6556
 30
0.0
 10
-103.5151
 20
-66.6556
 30
0.0
 10
-102.3735
 20
-66.9604
 30
0.0
 10
-101.3448
 20
-68.6407
 30
0.0
 10
-99.274
 20
-68.7073
 30
0.0
 10
-99.274
 20
-68.7073
 30
0.0
 10
-97.7335
 20
-68.7569
 30
0.0
 10
-94.7051
 20
-68.7114
 30
0.0
 10
-94.7051
 20
-70.9032
 30
0.0
 10
-94.7051
 20
-70.9032
 30
0.0
 10
-94.7051
 20
-71.7147
 30
0.0
 10
-96.1794
 20
-71.6898
 30
0.0
 10
-96.7503
 20
-71.6898
 30
0.0
 10
-96.7503
 20
-71.6898
 30
0.0
 10
-100.5116
 20
-71.6898
 30
0.0
 10
-101.543
 20
-66.4794
 30
0.0
 10
-107.7627
 20
-68.0715
 30
0.0
 10
-107.7627
 20
-68.0715
 30
0.0
 10
-107.7627
 20
-68.0715
 30
0.0
 10
-106.1102
 20
-70.7985
 30
0.0
 10
-106.1102
 20
-70.7985
 30
0.0
 10
-106.1102
 20
-70.7985
 30
0.0
 10
-108.5983
 20
-70.7459
 30
0.0
 10
-108.103
 20
-70.5547
 30
0.0
 10
-109.6517
 20
-71.6886
 30
0.0
 10
-109.6517
 20
-71.6886
 30
0.0
 10
-110.7152
 20
-72.4672
 30
0.0
 10
-110.8507
 20
-73.0402
 30
0.0
 10
-112.4823
 20
-73.4203
 30
0.0
 10
-112.4823
 20
-73.4203
 30
0.0
 10
-112.4823
 20
-73.4203
 30
0.0
 10
-112.4823
 20
-73.735
 30
0.0
 10
-112.4823
 20
-73.735
 30
0.0
 10
-112.4823
 20
-73.735
 30
0.0
 10
-109.4423
 20
-74.4432
 30
0.0
 10
-110.3861
 20
-76.5667
 30
0.0
 10
-106.1895
 20
-76.5667
 30
0.0
 10
-106.1895
 20
-76.5667
 30
0.0
 10
-106.7464
 20
-77.3984
 30
0.0
 10
-107.1731
 20
-77.4221
 30
0.0
 10
-107.6031
 20
-78.6389
 30
0.0
 10
-107.6031
 20
-78.6389
 30
0.0
 10
-107.8506
 20
-79.339
 30
0.0
 10
-106.2105
 20
-79.5558
 30
0.0
 10
-105.4029
 20
-79.5558
 30
0.0
 10
-105.4029
 20
-79.5558
 30
0.0
 10
-105.4029
 20
-79.5558
 30
0.0
 10
-105.2456
 20
-79.5558
 30
0.0
 10
-105.2456
 20
-79.5558
 30
0.0
 10
-105.2456
 20
-79.5558
 30
0.0
 10
-101.1155
 20
-79.5558
 30
0.0
 10
-98.9075
 20
-75.6228
 30
0.0
 10
-97.065
 20
-75.6228
 30
0.0
 10
-97.065
 20
-75.6228
 30
0.0
 10
-96.433
 20
-75.6228
 30
0.0
 10
-94.7051
 20
-75.3999
 30
0.0
 10
-94.7051
 20
-76.4094
 30
0.0
 10
-94.7051
 20
-76.4094
 30
0.0
 10
-94.7051
 20
-78.6841
 30
0.0
 10
-98.1219
 20
-78.2653
 30
0.0
 10
-99.5527
 20
-78.4839
 30
0.0
 10
-99.5527
 20
-78.4839
 30
0.0
 10
-100.6488
 20
-78.6514
 30
0.0
 10
-103.2628
 20
-80.0267
 30
0.0
 10
-103.5151
 20
-80.9717
 30
0.0
  0
SPLINE
  5
80
330
1F
100
AcDbEntity
  8
layer 1
 62
     7
370
     9
100
AcDbSpline
210
0.0
220
0.0
230
1.0
 70
    11
 71
     3
 72
    20
 73
    16
 74
     0
 42
0.0000000001
 43
0.0000000001
 12
1.0
 22
0.0
 32
0.0
 13
1.0
 23
0.0
 33
0.0
 40
0.0
 40
0.0
 40
0.0
 40
0.0
 40
0.2
 40
0.2
 40
0.2
 40
0.2
 40
0.4
 40
0.4
 40
0.4
 40
0.4
 40
0.6
 40
0.6
 40
0.6
 40
0.6
 40
1.0
 40
1.0
 40
1.0
 40
1.0
 10
-126.9054
 20
-76.4969
 30
0.0
 10
-125.222
 20
-76.4969
 30
0.0
 10
-123.8572
 20
-75.1322
 30
0.0
 10
-123.8572
 20
-73.4487
 30
0.0
 10
-123.8572
 20
-73.4487
 30
0.0
 10
-123.8572
 20
-71.7652
 30
0.0
 10
-125.222
 20
-70.4004
 30
0.0
 10
-126.9054
 20
-70.4004
 30
0.0
 10
-126.9054
 20
-70.4004
 30
0.0
 10
-128.5889
 20
-70.4004
 30
0.0
 10
-129.9537
 20
-71.7652
 30
0.0
 10
-129.9537
 20
-73.4487
 30
0.0
 10
-129.9537
 20
-73.4487
 30
0.0
 10
-129.9537
 20
-75.1322
 30
0.0
 10
-128.5889
 20
-76.4969
 30
0.0
 10
-126.9054
 20
-76.4969
 30
0.0
  0
SPLINE
  5
81
330
1F
100
AcDbEntity
  8
layer 1
 62
     7
370
     9
100
AcDbSpline
210
0.0
220
0.0
230
1.0
 70
    11
 71
     3
 72
    16
 73
    12
 74
     0
 42
0.0000000001
 43
0.0000000001
 12
1.0
 22
0.0
 32
0.0
 13
1.0
 23
0.0
 33
0.0
 40
0.0
 40
0.0
 40
0.0
 40
0.0
 40
0.25
 40
0.25
 40
0.25
 40
0.25
 40
0.5
 40
0.5
 40
0.5
 40
0.5
 40
1.0
 40
1.0
 40
1.0
 40
1.0
 10
-120.2597
 20
-58.7376
 30
0.0
 10
-122.9007
 20
-57.4702
 30
0.0
 10
-125.2031
 20
-58.7693
 30
0.0
 10
-127.0581
 20
-60.7546
 30
0.0
 10
-127.0581
 20
-60.7546
 30
0.0
 10
-128.1983
 20
-58.0208
 30
0.0
 10
-131.7374
 20
-57.9165
 30
0.0
 10
-133.7892
 20
-58.5802
 30
0.0
 10
-133.7892
 20
-58.5802
 30
0.0
 10
-131.2061
 20
-52.737
 30
0.0
 10
-123.2384
 20
-52.4074
 30
0.0
 10
-120.2597
 20
-58.7376
 30
0.0
  0
SPLINE
  5
82
330
1F
100
AcDbEntity
  8
layer 1
 62
     7
370
     9
100
AcDbSpline
210
0.0
220
0.0
230
1.0
 70
    11
 71
     3
 72
    60
 73
    56
 74
     0
 42
0.0000000001
 43
0.0000000001
 12
1.0
 22
0.0
 32
0.0
 13
1.0
 23
0.0
 33
0.0
 40
0.0
 40
0.0
 40
0.0
 40
0.0
 40
0.0666666666666667
 40
0.0666666666666667
 40
0.0666666666666667
 40
0.0666666666666667
 40
0.1333333333333333
 40
0.1333333333333333
 40
0.1333333333333333
 40
0.1333333333333333
 40
0.2
 40
0.2
 40
0.2
 40
0.2
 40
0.2666666666666667
 40
0.2666666666666667
 40
0.2666666666666667
 40
0.2666666666666667
 40
0.3333333333333333
 40
0.3333333333333333
 40
0.3333333333333333
 40
0.3333333333333333
 40
0.4
 40
0.4
 40
0.4
 40
0.4
 40
0.4666666666666667
 40
0.4666666666666667
 40
0.4666666666666667
 40
0.4666666666666667
 40
0.5333333333333333
 40
0.5333333333333333
 40
0.5333333333333333
 40
0.5333333333333333
 40
0.6
 40
0.6
 40
0.6
 40
0.6
 40
0.6666666666666666
 40
0.6666666666666666
 40
0.6666666666666666
 40
0.6666666666666666
 40
0.7333333333333333
 40
0.7333333333333333
 40
0.7333333333333333
 40
0.7333333333333333
 40
0.8
 40
0.8
 40
0.8
 40
0.8
 40
0.8666666666666667
 40
0.8666666666666667
 40
0.8666666666666667
 40
0.8666666666666667
 40
1.0
 40
1.0
 40
1.0
 40
1.0
 10
-162.4214
 20
-57.7936
 30
0.0
 10
-162.4214
 20
-57.7936
 30
0.0
 10
-154.0835
 20
-57.7936
 30
0.0
 10
-154.0835
 20
-57.7936
 30
0.0
 10
-154.0835
 20
-57.7936
 30
0.0
 10
-155.4784
 20
-60.7009
 30
0.0
 10
-156.5564
 20
-61.9436
 30
0.0
 10
-159.2746
 20
-63.7722
 30
0.0
 10
-159.2746
 20
-63.7722
 30
0.0
 10
-160.9842
 20
-64.9224
 30
0.0
 10
-165.2194
 20
-65.8342
 30
0.0
 10
-165.7251
 20
-68.6487
 30
0.0
 10
-165.7251
 20
-68.6487
 30
0.0
 10
-165.8949
 20
-69.6243
 30
0.0
 10
-165.9236
 20
-70.3268
 30
0.0
 10
-165.5678
 20
-71.1658
 30
0.0
 10
-165.5678
 20
-71.1658
 30
0.0
 10
-165.5678
 20
-71.1658
 30
0.0
 10
-168.8715
 20
-71.1658
 30
0.0
 10
-168.8715
 20
-71.1658
 30
0.0
 10
-168.8715
 20
-71.1658
 30
0.0
 10
-167.2092
 20
-68.6834
 30
0.0
 10
-167.5571
 20
-70.1217
 30
0.0
 10
-166.7048
 20
-66.5678
 30
0.0
 10
-166.7048
 20
-66.5678
 30
0.0
 10
-166.2841
 20
-64.8134
 30
0.0
 10
-165.1594
 20
-63.4572
 30
0.0
 10
-163.0507
 20
-63.4572
 30
0.0
 10
-163.0507
 20
-63.4572
 30
0.0
 10
-163.0507
 20
-63.4572
 30
0.0
 10
-162.4214
 20
-63.4572
 30
0.0
 10
-162.4214
 20
-63.4572
 30
0.0
 10
-162.4214
 20
-63.4572
 30
0.0
 10
-162.8934
 20
-60.1797
 30
0.0
 10
-164.9526
 20
-59.4724
 30
0.0
 10
-167.2983
 20
-60.4681
 30
0.0
 10
-167.2983
 20
-60.4681
 30
0.0
 10
-168.8557
 20
-53.0941
 30
0.0
 10
-179.0001
 20
-57.2309
 30
0.0
 10
-175.7936
 20
-65.0304
 30
0.0
 10
-175.7936
 20
-65.0304
 30
0.0
 10
-175.654
 20
-63.0002
 30
0.0
 10
-171.3886
 20
-62.977
 30
0.0
 10
-171.3886
 20
-65.9743
 30
0.0
 10
-171.3886
 20
-65.9743
 30
0.0
 10
-171.3886
 20
-68.5164
 30
0.0
 10
-172.9473
 20
-68.9633
 30
0.0
 10
-175.3216
 20
-68.9633
 30
0.0
 10
-175.3216
 20
-68.9633
 30
0.0
 10
-178.6258
 20
-68.9633
 30
0.0
 10
-179.7266
 20
-63.7867
 30
0.0
 10
-179.7266
 20
-61.2547
 30
0.0
 10
-179.7266
 20
-61.2547
 30
0.0
 10
-179.7266
 20
-51.6262
 30
0.0
 10
-166.2888
 20
-48.5285
 30
0.0
 10
-162.4214
 20
-57.7936
 30
0.0
  0
SPLINE
  5
83
330
1F
100
AcDbEntity
  8
layer 1
 62
     7
370
     9
100
AcDbSpline
210
0.0
220
0.0
230
1.0
 70
    11
 71
     3
 72
    16
 73
    12
 74
     0
 42
0.0000000001
 43
0.0000000001
 12
1.0
 22
0.0
 32
0.0
 13
1.0
 23
0.0
 33
0.0
 40
0.0
 40
0.0
 40
0.0
 40
0.0
 40
0.25
 40
0.25
 40
0.25
 40
0.25
 40
0.5
 40
0.5
 40
0.5
 40
0.5
 40
1.0
 40
1.0
 40
1.0
 40
1.0
 10
-150.0665
 20
-97.3731
 30
0.0
 10
-150.3829
 20
-98.2313
 30
0.0
 10
-150.9877
 20
-98.8938
 30
0.0
 10
-151.7692
 20
-99.2208
 30
0.0
 10
-151.7692
 20
-99.2208
 30
0.0
 10
-151.7692
 20
-99.2208
 30
0.0
 10
-147.378
 20
-99.2406
 30
0.0
 10
-147.378
 20
-99.2406
 30
0.0
 10
-147.378
 20
-99.2406
 30
0.0
 10
-148.2928
 20
-98.9163
 30
0.0
 10
-149.4215
 20
-98.3404
 30
0.0
 10
-150.0665
 20
-97.3731
 30
0.0
  0
SPLINE
  5
84
330
1F
100
AcDbEntity
  8
layer 1
 62
     7
370
     9
100
AcDbSpline
210
0.0
220
0.0
230
1.0
 70
    11
 71
     3
 72
    24
 73
    20
 74
     0
 42
0.0000000001
 43
0.0000000001
 12
1.0
 22
0.0
 32
0.0
 13
1.0
 23
0.0
 33
0.0
 40
0.0
 40
0.0
 40
0.0
 40
0.0
 40
0.1666666666666667
 40
0.1666666666666667
 40
0.1666666666666667
 40
0.1666666666666667
 40
0.3333333333333333
 40
0.3333333333333333
 40
0.3333333333333333
 40
0.3333333333333333
 40
0.5
 40
0.5
 40
0.5
 40
0.5
 40
0.6666666666666666
 40
0.6666666666666666
 40
0.6666666666666666
 40
0.6666666666666666
 40
1.0
 40
1.0
 40
1.0
 40
1.0
 10
-157.7474
 20
-96.2317
 30
0.0
 10
-155.6282
 20
-96.8052
 30
0.0
 10
-154.1718
 20
-95.9627
 30
0.0
 10
-153.9717
 20
-93.5573
 30
0.0
 10
-153.9717
 20
-93.5573
 30
0.0
 10
-153.9717
 20
-93.5573
 30
0.0
 10
-159.423
 20
-93.5801
 30
0.0
 10
-159.423
 20
-93.5801
 30
0.0
 10
-159.423
 20
-93.5801
 30
0.0
 10
-161.21
 20
-96.7186
 30
0.0
 10
-163.7736
 20
-97.9353
 30
0.0
 10
-166.5572
 20
-99.2208
 30
0.0
 10
-166.5572
 20
-99.2208
 30
0.0
 10
-166.5572
 20
-99.2208
 30
0.0
 10
-155.2302
 20
-99.2208
 30
0.0
 10
-155.2302
 20
-99.2208
 30
0.0
 10
-155.2302
 20
-99.2208
 30
0.0
 10
-156.605
 20
-98.5731
 30
0.0
 10
-157.8882
 20
-97.9234
 30
0.0
 10
-157.7474
 20
-96.2317
 30
0.0
  0
SPLINE
  5
85
330
1F
100
AcDbEntity
  8
layer 1
 62
     7
370
     9
100
AcDbSpline
210
0.0
220
0.0
230
1.0
 70
    11
 71
     3
 72
    16
 73
    12
 74
     0
 42
0.0000000001
 43
0.0000000001
 12
1.0
 22
0.0
 32
0.0
 13
1.0
 23
0.0
 33
0.0
 40
0.0
 40
0.0
 40
0.0
 40
0.0
 40
0.25
 40
0.25
 40
0.25
 40
0.25
 40
0.5
 40
0.5
 40
0.5
 40
0.5
 40
1.0
 40
1.0
 40
1.0
 40
1.0
 10
-183.3905
 20
-90.5682
 30
0.0
 10
-183.3905
 20
-90.5682
 30
0.0
 10
-183.3905
 20
-99.2208
 30
0.0
 10
-183.3905
 20
-99.2208
 30
0.0
 10
-183.3905
 20
-99.2208
 30
0.0
 10
-183.3905
 20
-99.2208
 30
0.0
 10
-173.794
 20
-99.2208
 30
0.0
 10
-173.794
 20
-99.2208
 30
0.0
 10
-173.794
 20
-99.2208
 30
0.0
 10
-179.1432
 20
-96.9247
 30
0.0
 10
-181.585
 20
-95.0441
 30
0.0
 10
-183.3905
 20
-90.5682
 30
0.0
  0
SPLINE
  5
86
330
1F
100
AcDbEntity
  8
layer 1
 62
     7
370
     9
100
AcDbSpline
210
0.0
220
0.0
230
1.0
 70
    11
 71
     3
 72
    16
 73
    12
 74
     0
 42
0.0000000001
 43
0.0000000001
 12
1.0
 22
0.0
 32
0.0
 13
1.0
 23
0.0
 33
0.0
 40
0.0
 40
0.0
 40
0.0
 40
0.0
 40
0.25
 40
0.25
 40
0.25
 40
0.25
 40
0.5
 40
0.5
 40
0.5
 40
0.5
 40
1.0
 40
1.0
 40
1.0
 40
1.0
 10
-120.3052
 20
-88.2084
 30
0.0
 10
-122.9462
 20
-89.4757
 30
0.0
 10
-125.2486
 20
-88.1767
 30
0.0
 10
-127.1037
 20
-86.1913
 30
0.0
 10
-127.1037
 20
-86.1913
 30
0.0
 10
-128.2438
 20
-88.9251
 30
0.0
 10
-131.7829
 20
-89.0295
 30
0.0
 10
-133.8347
 20
-88.3657
 30
0.0
 10
-133.8347
 20
-88.3657
 30
0.0
 10
-131.2516
 20
-94.209
 30
0.0
 10
-123.284
 20
-94.5385
 30
0.0
 10
-120.3052
 20
-88.2084
 30
0.0
  0
SPLINE
  5
87
330
1F
100
AcDbEntity
  8
layer 1
 62
     7
370
     9
100
AcDbSpline
210
0.0
220
0.0
230
1.0
 70
    11
 71
     3
 72
    48
 73
    44
 74
     0
 42
0.0000000001
 43
0.0000000001
 12
1.0
 22
0.0
 32
0.0
 13
1.0
 23
0.0
 33
0.0
 40
0.0
 40
0.0
 40
0.0
 40
0.0
 40
0.0833333333333333
 40
0.0833333333333333
 40
0.0833333333333333
 40
0.0833333333333333
 40
0.1666666666666667
 40
0.1666666666666667
 40
0.1666666666666667
 40
0.1666666666666667
 40
0.25
 40
0.25
 40
0.25
 40
0.25
 40
0.3333333333333333
 40
0.3333333333333333
 40
0.3333333333333333
 40
0.3333333333333333
 40
0.4166666666666667
 40
0.4166666666666667
 40
0.4166666666666667
 40
0.4166666666666667
 40
0.5
 40
0.5
 40
0.5
 40
0.5
 40
0.5833333333333334
 40
0.5833333333333334
 40
0.5833333333333334
 40
0.5833333333333334
 40
0.6666666666666666
 40
0.6666666666666666
 40
0.6666666666666666
 40
0.6666666666666666
 40
0.75
 40
0.75
 40
0.75
 40
0.75
 40
0.8333333333333334
 40
0.8333333333333334
 40
0.8333333333333334
 40
0.8333333333333334
 40
1.0
 40
1.0
 40
1.0
 40
1.0
 10
-131.7061
 20
-96.126
 30
0.0
 10
-135.363
 20
-95.2295
 30
0.0
 10
-137.7677
 20
-91.6569
 30
0.0
 10
-137.7677
 20
-88.051
 30
0.0
 10
-137.7677
 20
-88.051
 30
0.0
 10
-137.7677
 20
-86.6848
 30
0.0
 10
-136.9285
 20
-83.3315
 30
0.0
 10
-136.0372
 20
-83.3315
 30
0.0
 10
-136.0372
 20
-83.3315
 30
0.0
 10
-134.6199
 20
-85.3543
 30
0.0
 10
-130.531
 20
-86.2648
 30
0.0
 10
-130.531
 20
-81.7583
 30
0.0
 10
-130.531
 20
-81.7583
 30
0.0
 10
-130.531
 20
-79.29
 30
0.0
 10
-132.4653
 20
-77.8253
 30
0.0
 10
-134.936
 20
-77.8253
 30
0.0
 10
-134.936
 20
-77.8253
 30
0.0
 10
-139.1914
 20
-77.8253
 30
0.0
 10
-142.33
 20
-82.932
 30
0.0
 10
-142.33
 20
-87.1072
 30
0.0
 10
-142.33
 20
-87.1072
 30
0.0
 10
-142.33
 20
-89.6871
 30
0.0
 10
-142.0292
 20
-91.2154
 30
0.0
 10
-140.7962
 20
-93.5456
 30
0.0
 10
-140.7962
 20
-93.5456
 30
0.0
 10
-140.7962
 20
-93.5456
 30
0.0
 10
-147.2069
 20
-93.5573
 30
0.0
 10
-147.2069
 20
-93.5573
 30
0.0
 10
-147.2069
 20
-93.5573
 30
0.0
 10
-145.4268
 20
-96.2157
 30
0.0
 10
-141.2255
 20
-96.5145
 30
0.0
 10
-139.0263
 20
-95.2878
 30
0.0
 10
-139.0263
 20
-95.2878
 30
0.0
 10
-139.1738
 20
-97.3567
 30
0.0
 10
-141.0563
 20
-98.8752
 30
0.0
 10
-142.6446
 20
-99.2208
 30
0.0
 10
-142.6446
 20
-99.2208
 30
0.0
 10
-142.6446
 20
-99.2208
 30
0.0
 10
-133.592
 20
-99.1763
 30
0.0
 10
-133.592
 20
-99.1763
 30
0.0
 10
-133.592
 20
-99.1763
 30
0.0
 10
-133.592
 20
-99.1763
 30
0.0
 10
-131.7061
 20
-96.126
 30
0.0
 10
-131.7061
 20
-96.126
 30
0.0
  0
SPLINE
  5
88
330
1F
100
AcDbEntity
  8
layer 1
 62
     7
370
     9
100
AcDbSpline
210
0.0
220
0.0
230
1.0
 70
    11
 71
     3
 72
    60
 73
    56
 74
     0
 42
0.0000000001
 43
0.0000000001
 12
1.0
 22
0.0
 32
0.0
 13
1.0
 23
0.0
 33
0.0
 40
0.0
 40
0.0
 40
0.0
 40
0.0
 40
0.0666666666666667
 40
0.0666666666666667
 40
0.0666666666666667
 40
0.0666666666666667
 40
0.1333333333333333
 40
0.1333333333333333
 40
0.1333333333333333
 40
0.1333333333333333
 40
0.2
 40
0.2
 40
0.2
 40
0.2
 40
0.2666666666666667
 40
0.2666666666666667
 40
0.2666666666666667
 40
0.2666666666666667
 40
0.3333333333333333
 40
0.3333333333333333
 40
0.3333333333333333
 40
0.3333333333333333
 40
0.4
 40
0.4
 40
0.4
 40
0.4
 40
0.4666666666666667
 40
0.4666666666666667
 40
0.4666666666666667
 40
0.4666666666666667
 40
0.5333333333333333
 40
0.5333333333333333
 40
0.5333333333333333
 40
0.5333333333333333
 40
0.6
 40
0.6
 40
0.6
 40
0.6
 40
0.6666666666666666
 40
0.6666666666666666
 40
0.6666666666666666
 40
0.6666666666666666
 40
0.7333333333333333
 40
0.7333333333333333
 40
0.7333333333333333
 40
0.7333333333333333
 40
0.8
 40
0.8
 40
0.8
 40
0.8
 40
0.8666666666666667
 40
0.8666666666666667
 40
0.8666666666666667
 40
0.8666666666666667
 40
1.0
 40
1.0
 40
1.0
 40
1.0
 10
-162.4669
 20
-89.1523
 30
0.0
 10
-162.4669
 20
-89.1523
 30
0.0
 10
-154.129
 20
-89.1523
 30
0.0
 10
-154.129
 20
-89.1523
 30
0.0
 10
-154.129
 20
-89.1523
 30
0.0
 10
-155.5239
 20
-86.2451
 30
0.0
 10
-156.6019
 20
-85.0023
 30
0.0
 10
-159.3201
 20
-83.1737
 30
0.0
 10
-159.3201
 20
-83.1737
 30
0.0
 10
-161.0297
 20
-82.0235
 30
0.0
 10
-165.2649
 20
-81.1118
 30
0.0
 10
-165.7706
 20
-78.2972
 30
0.0
 10
-165.7706
 20
-78.2972
 30
0.0
 10
-165.9404
 20
-77.3217
 30
0.0
 10
-165.9692
 20
-76.6192
 30
0.0
 10
-165.6134
 20
-75.7801
 30
0.0
 10
-165.6134
 20
-75.7801
 30
0.0
 10
-165.6134
 20
-75.7801
 30
0.0
 10
-168.9171
 20
-75.7801
 30
0.0
 10
-168.9171
 20
-75.7801
 30
0.0
 10
-168.9171
 20
-75.7801
 30
0.0
 10
-167.2547
 20
-78.2626
 30
0.0
 10
-167.6026
 20
-76.8242
 30
0.0
 10
-166.7503
 20
-80.3781
 30
0.0
 10
-166.7503
 20
-80.3781
 30
0.0
 10
-166.3296
 20
-82.1325
 30
0.0
 10
-165.205
 20
-83.4888
 30
0.0
 10
-163.0962
 20
-83.4888
 30
0.0
 10
-163.0962
 20
-83.4888
 30
0.0
 10
-163.0962
 20
-83.4888
 30
0.0
 10
-162.4669
 20
-83.4888
 30
0.0
 10
-162.4669
 20
-83.4888
 30
0.0
 10
-162.4669
 20
-83.4888
 30
0.0
 10
-162.9389
 20
-86.7663
 30
0.0
 10
-164.9982
 20
-87.4736
 30
0.0
 10
-167.3438
 20
-86.4779
 30
0.0
 10
-167.3438
 20
-86.4779
 30
0.0
 10
-168.9013
 20
-93.8519
 30
0.0
 10
-179.0456
 20
-89.715
 30
0.0
 10
-175.8391
 20
-81.9156
 30
0.0
 10
-175.8391
 20
-81.9156
 30
0.0
 10
-175.6995
 20
-83.9458
 30
0.0
 10
-171.4342
 20
-83.969
 30
0.0
 10
-171.4342
 20
-80.9717
 30
0.0
 10
-171.4342
 20
-80.9717
 30
0.0
 10
-171.4342
 20
-78.4295
 30
0.0
 10
-172.9928
 20
-77.9826
 30
0.0
 10
-175.3672
 20
-77.9826
 30
0.0
 10
-175.3672
 20
-77.9826
 30
0.0
 10
-178.6714
 20
-77.9826
 30
0.0
 10
-179.7721
 20
-83.1592
 30
0.0
 10
-179.7721
 20
-85.6913
 30
0.0
 10
-179.7721
 20
-85.6913
 30
0.0
 10
-179.7721
 20
-95.3197
 30
0.0
 10
-166.3343
 20
-98.4175
 30
0.0
 10
-162.4669
 20
-89.1523
 30
0.0
  0
SPLINE
  5
89
330
1F
100
AcDbEntity
  8
layer 1
 62
     7
370
     9
100
AcDbSpline
210
0.0
220
0.0
230
1.0
 70
    11
 71
     3
 72
    16
 73
    12
 74
     0
 42
0.0000000001
 43
0.0000000001
 12
1.0
 22
0.0
 32
0.0
 13
1.0
 23
0.0
 33
0.0
 40
0.0
 40
0.0
 40
0.0
 40
0.0
 40
0.25
 40
0.25
 40
0.25
 40
0.25
 40
0.5
 40
0.5
 40
0.5
 40
0.5
 40
1.0
 40
1.0
 40
1.0
 40
1.0
 10
-177.8843
 20
-73.735
 30
0.0
 10
-180.0272
 20
-72.4674
 30
0.0
 10
-182.1951
 20
-69.7251
 30
0.0
 10
-183.3905
 20
-66.6556
 30
0.0
 10
-183.3905
 20
-66.6556
 30
0.0
 10
-183.3905
 20
-66.6556
 30
0.0
 10
-183.3905
 20
-80.7522
 30
0.0
 10
-183.3905
 20
-80.7522
 30
0.0
 10
-183.3905
 20
-80.7522
 30
0.0
 10
-182.3107
 20
-77.47
 30
0.0
 10
-181.3166
 20
-76.0017
 30
0.0
 10
-177.8843
 20
-73.735
 30
0.0
  0
SPLINE
  5
8A
330
1F
100
AcDbEntity
  8
layer 1
 62
     7
370
     9
100
AcDbSpline
210
0.0
220
0.0
230
1.0
 70
    11
 71
     3
 72
   100
 73
    96
 74
     0
 42
0.0000000001
 43
0.0000000001
 12
1.0
 22
0.0
 32
0.0
 13
1.0
 23
0.0
 33
0.0
 40
0.0
 40
0.0
 40
0.0
 40
0.0
 40
0.04
 40
0.04
 40
0.04
 40
0.04
 40
0.08
 40
0.08
 40
0.08
 40
0.08
 40
0.12
 40
0.12
 40
0.12
 40
0.12
 40
0.16
 40
0.16
 40
0.16
 40
0.16
 40
0.2
 40
0.2
 40
0.2
 40
0.2
 40
0.24
 40
0.24
 40
0.24
 40
0.24
 40
0.28
 40
0.28
 40
0.28
 40
0.28
 40
0.32
 40
0.32
 40
0.32
 40
0.32
 40
0.36
 40
0.36
 40
0.36
 40
0.36
 40
0.4
 40
0.4
 40
0.4
 40
0.4
 40
0.44
 40
0.44
 40
0.44
 40
0.44
 40
0.48
 40
0.48
 40
0.48
 40
0.48
 40
0.52
 40
0.52
 40
0.52
 40
0.52
 40
0.56
 40
0.56
 40
0.56
 40
0.56
 40
0.6
 40
0.6
 40
0.6
 40
0.6
 40
0.64
 40
0.64
 40
0.64
 40
0.64
 40
0.68
 40
0.68
 40
0.68
 40
0.68
 40
0.72
 40
0.72
 40
0.72
 40
0.72
 40
0.76
 40
0.76
 40
0.76
 40
0.76
 40
0.8
 40
0.8
 40
0.8
 40
0.8
 40
0.84
 40
0.84
 40
0.84
 40
0.84
 40
0.88
 40
0.88
 40
0.88
 40
0.88
 40
0.92
 40
0.92
 40
0.92
 40
0.92
 40
1.0
 40
1.0
 40
1.0
 40
1.0
 10
-150.5106
 20
-80.9717
 30
0.0
 10
-151.7386
 20
-82.1717
 30
0.0
 10
-152.754
 20
-83.0117
 30
0.0
 10
-154.7583
 20
-82.5449
 30
0.0
 10
-154.7583
 20
-82.5449
 30
0.0
 10
-152.2845
 20
-84.8272
 30
0.0
 10
-150.6968
 20
-86.5743
 30
0.0
 10
-150.196
 20
-89.1523
 30
0.0
 10
-150.196
 20
-89.1523
 30
0.0
 10
-150.196
 20
-89.1523
 30
0.0
 10
-147.0496
 20
-89.1523
 30
0.0
 10
-147.0496
 20
-89.1523
 30
0.0
 10
-147.0496
 20
-89.1523
 30
0.0
 10
-147.0496
 20
-81.1054
 30
0.0
 10
-143.9224
 20
-77.7301
 30
0.0
 10
-139.1836
 20
-73.5776
 30
0.0
 10
-139.1836
 20
-73.5776
 30
0.0
 10
-143.1815
 20
-70.3495
 30
0.0
 10
-147.1754
 20
-64.9464
 30
0.0
 10
-147.0496
 20
-58.003
 30
0.0
 10
-147.0496
 20
-58.003
 30
0.0
 10
-147.0496
 20
-58.003
 30
0.0
 10
-150.196
 20
-58.003
 30
0.0
 10
-150.196
 20
-58.003
 30
0.0
 10
-150.196
 20
-58.003
 30
0.0
 10
-150.7126
 20
-60.2037
 30
0.0
 10
-151.7196
 20
-63.3314
 30
0.0
 10
-154.7583
 20
-64.6104
 30
0.0
 10
-154.7583
 20
-64.6104
 30
0.0
 10
-152.9252
 20
-64.6104
 30
0.0
 10
-150.8607
 20
-65.3444
 30
0.0
 10
-150.5106
 20
-66.6556
 30
0.0
 10
-150.5106
 20
-66.6556
 30
0.0
 10
-151.6522
 20
-66.9604
 30
0.0
 10
-152.6809
 20
-68.6407
 30
0.0
 10
-154.7517
 20
-68.7073
 30
0.0
 10
-154.7517
 20
-68.7073
 30
0.0
 10
-156.2922
 20
-68.7569
 30
0.0
 10
-159.3206
 20
-68.7114
 30
0.0
 10
-159.3206
 20
-70.9032
 30
0.0
 10
-159.3206
 20
-70.9032
 30
0.0
 10
-159.3206
 20
-71.7147
 30
0.0
 10
-157.8464
 20
-71.6898
 30
0.0
 10
-157.2754
 20
-71.6898
 30
0.0
 10
-157.2754
 20
-71.6898
 30
0.0
 10
-153.5141
 20
-71.6898
 30
0.0
 10
-152.4827
 20
-66.4794
 30
0.0
 10
-146.263
 20
-68.0715
 30
0.0
 10
-146.263
 20
-68.0715
 30
0.0
 10
-146.263
 20
-68.0715
 30
0.0
 10
-147.9155
 20
-70.7985
 30
0.0
 10
-147.9155
 20
-70.7985
 30
0.0
 10
-147.9155
 20
-70.7985
 30
0.0
 10
-145.4274
 20
-70.7459
 30
0.0
 10
-145.9227
 20
-70.5547
 30
0.0
 10
-144.374
 20
-71.6886
 30
0.0
 10
-144.374
 20
-71.6886
 30
0.0
 10
-143.3105
 20
-72.4672
 30
0.0
 10
-143.175
 20
-73.0402
 30
0.0
 10
-141.5434
 20
-73.4203
 30
0.0
 10
-141.5434
 20
-73.4203
 30
0.0
 10
-141.5434
 20
-73.4203
 30
0.0
 10
-141.5434
 20
-73.735
 30
0.0
 10
-141.5434
 20
-73.735
 30
0.0
 10
-141.5434
 20
-73.735
 30
0.0
 10
-144.5834
 20
-74.4432
 30
0.0
 10
-143.6396
 20
-76.5667
 30
0.0
 10
-147.8362
 20
-76.5667
 30
0.0
 10
-147.8362
 20
-76.5667
 30
0.0
 10
-147.2793
 20
-77.3984
 30
0.0
 10
-146.8526
 20
-77.4221
 30
0.0
 10
-146.4226
 20
-78.6389
 30
0.0
 10
-146.4226
 20
-78.6389
 30
0.0
 10
-146.1751
 20
-79.339
 30
0.0
 10
-147.8152
 20
-79.5558
 30
0.0
 10
-148.6228
 20
-79.5558
 30
0.0
 10
-148.6228
 20
-79.5558
 30
0.0
 10
-148.6228
 20
-79.5558
 30
0.0
 10
-148.7801
 20
-79.5558
 30
0.0
 10
-148.7801
 20
-79.5558
 30
0.0
 10
-148.7801
 20
-79.5558
 30
0.0
 10
-152.9102
 20
-79.5558
 30
0.0
 10
-155.1182
 20
-75.6228
 30
0.0
 10
-156.9607
 20
-75.6228
 30
0.0
 10
-156.9607
 20
-75.6228
 30
0.0
 10
-157.5927
 20
-75.6228
 30
0.0
 10
-159.3206
 20
-75.3999
 30
0.0
 10
-159.3206
 20
-76.4094
 30
0.0
 10
-159.3206
 20
-76.4094
 30
0.0
 10
-159.3206
 20
-78.6841
 30
0.0
 10
-155.9038
 20
-78.2653
 30
0.0
 10
-154.473
 20
-78.4839
 30
0.0
 10
-154.473
 20
-78.4839
 30
0.0
 10
-153.3769
 20
-78.6514
 30
0.0
 10
-150.7629
 20
-80.0267
 30
0.0
 10
-150.5106
 20
-80.9717
 30
0.0
  0
SPLINE
  5
8B
330
1F
100
AcDbEntity
  8
layer 1
 62
     7
370
     9
100
AcDbSpline
210
0.0
220
0.0
230
1.0
 70
    11
 71
     3
 72
    36
 73
    32
 74
     0
 42
0.0000000001
 43
0.0000000001
 12
1.0
 22
0.0
 32
0.0
 13
1.0
 23
0.0
 33
0.0
 40
0.0
 40
0.0
 40
0.0
 40
0.0
 40
0.1111111111111111
 40
0.1111111111111111
 40
0.1111111111111111
 40
0.1111111111111111
 40
0.2222222222222222
 40
0.2222222222222222
 40
0.2222222222222222
 40
0.2222222222222222
 40
0.3333333333333333
 40
0.3333333333333333
 40
0.3333333333333333
 40
0.3333333333333333
 40
0.4444444444444444
 40
0.4444444444444444
 40
0.4444444444444444
 40
0.4444444444444444
 40
0.5555555555555556
 40
0.5555555555555556
 40
0.5555555555555556
 40
0.5555555555555556
 40
0.6666666666666666
 40
0.6666666666666666
 40
0.6666666666666666
 40
0.6666666666666666
 40
0.7777777777777778
 40
0.7777777777777778
 40
0.7777777777777778
 40
0.7777777777777778
 40
1.0
 40
1.0
 40
1.0
 40
1.0
 10
-87.5135
 20
-47.7028
 30
0.0
 10
-90.2972
 20
-46.4173
 30
0.0
 10
-92.8598
 20
-45.2008
 30
0.0
 10
-94.6468
 20
-42.0622
 30
0.0
 10
-94.6468
 20
-42.0622
 30
0.0
 10
-94.6468
 20
-42.0622
 30
0.0
 10
-100.0981
 20
-42.0394
 30
0.0
 10
-100.0981
 20
-42.0394
 30
0.0
 10
-100.0981
 20
-42.0394
 30
0.0
 10
-99.898
 20
-44.4449
 30
0.0
 10
-98.4416
 20
-45.2874
 30
0.0
 10
-96.3225
 20
-44.7139
 30
0.0
 10
-96.3225
 20
-44.7139
 30
0.0
 10
-96.1816
 20
-46.4056
 30
0.0
 10
-97.4657
 20
-47.0551
 30
0.0
 10
-98.8405
 20
-47.7028
 30
0.0
 10
-98.8405
 20
-47.7028
 30
0.0
 10
-97.4657
 20
-48.3505
 30
0.0
 10
-96.1826
 20
-49.0002
 30
0.0
 10
-96.3234
 20
-50.6919
 30
0.0
 10
-96.3234
 20
-50.6919
 30
0.0
 10
-98.4425
 20
-50.1184
 30
0.0
 10
-99.8989
 20
-50.9609
 30
0.0
 10
-100.0991
 20
-53.3663
 30
0.0
 10
-100.0991
 20
-53.3663
 30
0.0
 10
-100.0991
 20
-53.3663
 30
0.0
 10
-94.6477
 20
-53.3435
 30
0.0
 10
-94.6477
 20
-53.3435
 30
0.0
 10
-94.6477
 20
-53.3435
 30
0.0
 10
-92.8608
 20
-50.205
 30
0.0
 10
-90.3544
 20
-48.8929
 30
0.0
 10
-87.5135
 20
-47.7028
 30
0.0
  0
SPLINE
  5
8C
330
1F
100
AcDbEntity
  8
layer 1
 62
     7
370
     9
100
AcDbSpline
210
0.0
220
0.0
230
1.0
 70
    11
 71
     3
 72
    20
 73
    16
 74
     0
 42
0.0000000001
 43
0.0000000001
 12
1.0
 22
0.0
 32
0.0
 13
1.0
 23
0.0
 33
0.0
 40
0.0
 40
0.0
 40
0.0
 40
0.0
 40
0.2
 40
0.2
 40
0.2
 40
0.2
 40
0.4
 40
0.4
 40
0.4
 40
0.4
 40
0.6
 40
0.6
 40
0.6
 40
0.6
 40
1.0
 40
1.0
 40
1.0
 40
1.0
 10
-147.346
 20
-47.7368
 30
0.0
 10
-148.2607
 20
-48.0119
 30
0.0
 10
-149.3493
 20
-48.6129
 30
0.0
 10
-149.9943
 20
-49.5802
 30
0.0
 10
-149.9943
 20
-49.5802
 30
0.0
 10
-150.3107
 20
-48.722
 30
0.0
 10
-150.9155
 20
-48.0595
 30
0.0
 10
-151.697
 20
-47.7325
 30
0.0
 10
-151.697
 20
-47.7325
 30
0.0
 10
-150.9155
 20
-47.4055
 30
0.0
 10
-150.3509
 20
-46.7274
 30
0.0
 10
-150.0345
 20
-45.8692
 30
0.0
 10
-150.0345
 20
-45.8692
 30
0.0
 10
-149.3895
 20
-46.8366
 30
0.0
 10
-148.2607
 20
-47.4125
 30
0.0
 10
-147.346
 20
-47.7368
 30
0.0
  0
SPLINE
  5
8D
330
1F
100
AcDbEntity
  8
layer 1
 62
     7
370
     9
100
AcDbSpline
210
0.0
220
0.0
230
1.0
 70
    11
 71
     3
 72
    84
 73
    80
 74
     0
 42
0.0000000001
 43
0.0000000001
 12
1.0
 22
0.0
 32
0.0
 13
1.0
 23
0.0
 33
0.0
 40
0.0
 40
0.0
 40
0.0
 40
0.0
 40
0.0476190476190476
 40
0.0476190476190476
 40
0.0476190476190476
 40
0.0476190476190476
 40
0.0952380952380952
 40
0.0952380952380952
 40
0.0952380952380952
 40
0.0952380952380952
 40
0.1428571428571428
 40
0.1428571428571428
 40
0.1428571428571428
 40
0.1428571428571428
 40
0.1904761904761905
 40
0.1904761904761905
 40
0.1904761904761905
 40
0.1904761904761905
 40
0.2380952380952381
 40
0.2380952380952381
 40
0.2380952380952381
 40
0.2380952380952381
 40
0.2857142857142857
 40
0.2857142857142857
 40
0.2857142857142857
 40
0.2857142857142857
 40
0.3333333333333333
 40
0.3333333333333333
 40
0.3333333333333333
 40
0.3333333333333333
 40
0.3809523809523809
 40
0.3809523809523809
 40
0.3809523809523809
 40
0.3809523809523809
 40
0.4285714285714285
 40
0.4285714285714285
 40
0.4285714285714285
 40
0.4285714285714285
 40
0.4761904761904762
 40
0.4761904761904762
 40
0.4761904761904762
 40
0.4761904761904762
 40
0.5238095238095238
 40
0.5238095238095238
 40
0.5238095238095238
 40
0.5238095238095238
 40
0.5714285714285714
 40
0.5714285714285714
 40
0.5714285714285714
 40
0.5714285714285714
 40
0.6190476190476191
 40
0.6190476190476191
 40
0.6190476190476191
 40
0.6190476190476191
 40
0.6666666666666666
 40
0.6666666666666666
 40
0.6666666666666666
 40
0.6666666666666666
 40
0.7142857142857143
 40
0.7142857142857143
 40
0.7142857142857143
 40
0.7142857142857143
 40
0.7619047619047619
 40
0.7619047619047619
 40
0.7619047619047619
 40
0.7619047619047619
 40
0.8095238095238095
 40
0.8095238095238095
 40
0.8095238095238095
 40
0.8095238095238095
 40
0.8571428571428571
 40
0.8571428571428571
 40
0.8571428571428571
 40
0.8571428571428571
 40
0.9047619047619048
 40
0.9047619047619048
 40
0.9047619047619048
 40
0.9047619047619048
 40
1.0
 40
1.0
 40
1.0
 40
1.0
 10
-111.7559
 20
-47.6436
 30
0.0
 10
-113.3443
 20
-47.298
 30
0.0
 10
-114.8062
 20
-45.8611
 30
0.0
 10
-114.9537
 20
-43.7923
 30
0.0
 10
-114.9537
 20
-43.7923
 30
0.0
 10
-112.7545
 20
-45.019
 30
0.0
 10
-108.5532
 20
-44.7201
 30
0.0
 10
-106.7731
 20
-42.0618
 30
0.0
 10
-106.7731
 20
-42.0618
 30
0.0
 10
-106.7731
 20
-42.0618
 30
0.0
 10
-113.1838
 20
-42.05
 30
0.0
 10
-113.1838
 20
-42.05
 30
0.0
 10
-113.1838
 20
-42.05
 30
0.0
 10
-111.9508
 20
-39.7199
 30
0.0
 10
-111.65
 20
-38.1916
 30
0.0
 10
-111.65
 20
-35.6117
 30
0.0
 10
-111.65
 20
-35.6117
 30
0.0
 10
-111.65
 20
-31.4365
 30
0.0
 10
-114.7886
 20
-26.3298
 30
0.0
 10
-119.044
 20
-26.3298
 30
0.0
 10
-119.044
 20
-26.3298
 30
0.0
 10
-121.5147
 20
-26.3298
 30
0.0
 10
-123.449
 20
-27.7945
 30
0.0
 10
-123.449
 20
-30.2628
 30
0.0
 10
-123.449
 20
-30.2628
 30
0.0
 10
-123.449
 20
-34.7693
 30
0.0
 10
-119.3601
 20
-33.8588
 30
0.0
 10
-117.9428
 20
-31.836
 30
0.0
 10
-117.9428
 20
-31.836
 30
0.0
 10
-117.0515
 20
-31.836
 30
0.0
 10
-116.2123
 20
-35.1893
 30
0.0
 10
-116.2123
 20
-36.5555
 30
0.0
 10
-116.2123
 20
-36.5555
 30
0.0
 10
-116.2123
 20
-40.1614
 30
0.0
 10
-118.617
 20
-43.734
 30
0.0
 10
-122.2739
 20
-44.6305
 30
0.0
 10
-122.2739
 20
-44.6305
 30
0.0
 10
-122.2739
 20
-44.6305
 30
0.0
 10
-120.3889
 20
-47.6448
 30
0.0
 10
-120.3889
 20
-47.6448
 30
0.0
 10
-120.3889
 20
-47.6448
 30
0.0
 10
-120.3889
 20
-47.6448
 30
0.0
 10
-122.2748
 20
-50.82
 30
0.0
 10
-122.2748
 20
-50.82
 30
0.0
 10
-122.2748
 20
-50.82
 30
0.0
 10
-118.6179
 20
-51.7165
 30
0.0
 10
-116.2132
 20
-55.2891
 30
0.0
 10
-116.2132
 20
-58.8949
 30
0.0
 10
-116.2132
 20
-58.8949
 30
0.0
 10
-116.2132
 20
-60.2612
 30
0.0
 10
-117.0524
 20
-63.6145
 30
0.0
 10
-117.9438
 20
-63.6145
 30
0.0
 10
-117.9438
 20
-63.6145
 30
0.0
 10
-119.361
 20
-61.5917
 30
0.0
 10
-123.4499
 20
-60.6811
 30
0.0
 10
-123.4499
 20
-65.1877
 30
0.0
 10
-123.4499
 20
-65.1877
 30
0.0
 10
-123.4499
 20
-67.6559
 30
0.0
 10
-121.5157
 20
-69.1207
 30
0.0
 10
-119.045
 20
-69.1207
 30
0.0
 10
-119.045
 20
-69.1207
 30
0.0
 10
-114.7895
 20
-69.1207
 30
0.0
 10
-111.6509
 20
-64.0139
 30
0.0
 10
-111.6509
 20
-59.8388
 30
0.0
 10
-111.6509
 20
-59.8388
 30
0.0
 10
-111.6509
 20
-57.2589
 30
0.0
 10
-111.9518
 20
-55.7306
 30
0.0
 10
-113.1847
 20
-53.4004
 30
0.0
 10
-113.1847
 20
-53.4004
 30
0.0
 10
-113.1847
 20
-53.4004
 30
0.0
 10
-106.774
 20
-53.3887
 30
0.0
 10
-106.774
 20
-53.3887
 30
0.0
 10
-106.774
 20
-53.3887
 30
0.0
 10
-108.5541
 20
-50.7303
 30
0.0
 10
-112.7554
 20
-50.4315
 30
0.0
 10
-114.9547
 20
-51.6582
 30
0.0
 10
-114.9547
 20
-51.6582
 30
0.0
 10
-114.8071
 20
-49.5893
 30
0.0
 10
-113.3443
 20
-47.9892
 30
0.0
 10
-111.7559
 20
-47.6436
 30
0.0
  0
SPLINE
  5
8E
330
1F
100
AcDbEntity
  8
layer 1
 62
     7
370
     9
100
AcDbSpline
210
0.0
220
0.0
230
1.0
 70
    11
 71
     3
 72
    84
 73
    80
 74
     0
 42
0.0000000001
 43
0.0000000001
 12
1.0
 22
0.0
 32
0.0
 13
1.0
 23
0.0
 33
0.0
 40
0.0
 40
0.0
 40
0.0
 40
0.0
 40
0.0476190476190476
 40
0.0476190476190476
 40
0.0476190476190476
 40
0.0476190476190476
 40
0.0952380952380952
 40
0.0952380952380952
 40
0.0952380952380952
 40
0.0952380952380952
 40
0.1428571428571428
 40
0.1428571428571428
 40
0.1428571428571428
 40
0.1428571428571428
 40
0.1904761904761905
 40
0.1904761904761905
 40
0.1904761904761905
 40
0.1904761904761905
 40
0.2380952380952381
 40
0.2380952380952381
 40
0.2380952380952381
 40
0.2380952380952381
 40
0.2857142857142857
 40
0.2857142857142857
 40
0.2857142857142857
 40
0.2857142857142857
 40
0.3333333333333333
 40
0.3333333333333333
 40
0.3333333333333333
 40
0.3333333333333333
 40
0.3809523809523809
 40
0.3809523809523809
 40
0.3809523809523809
 40
0.3809523809523809
 40
0.4285714285714285
 40
0.4285714285714285
 40
0.4285714285714285
 40
0.4285714285714285
 40
0.4761904761904762
 40
0.4761904761904762
 40
0.4761904761904762
 40
0.4761904761904762
 40
0.5238095238095238
 40
0.5238095238095238
 40
0.5238095238095238
 40
0.5238095238095238
 40
0.5714285714285714
 40
0.5714285714285714
 40
0.5714285714285714
 40
0.5714285714285714
 40
0.6190476190476191
 40
0.6190476190476191
 40
0.6190476190476191
 40
0.6190476190476191
 40
0.6666666666666666
 40
0.6666666666666666
 40
0.6666666666666666
 40
0.6666666666666666
 40
0.7142857142857143
 40
0.7142857142857143
 40
0.7142857142857143
 40
0.7142857142857143
 40
0.7619047619047619
 40
0.7619047619047619
 40
0.7619047619047619
 40
0.7619047619047619
 40
0.8095238095238095
 40
0.8095238095238095
 40
0.8095238095238095
 40
0.8095238095238095
 40
0.8571428571428571
 40
0.8571428571428571
 40
0.8571428571428571
 40
0.8571428571428571
 40
0.9047619047619048
 40
0.9047619047619048
 40
0.9047619047619048
 40
0.9047619047619048
 40
1.0
 40
1.0
 40
1.0
 40
1.0
 10
-142.6
 20
3.904
 30
0.0
 10
-141.0117
 20
4.2496
 30
0.0
 10
-139.1292
 20
5.7057
 30
0.0
 10
-138.9817
 20
7.7746
 30
0.0
 10
-138.9817
 20
7.7746
 30
0.0
 10
-141.1809
 20
6.5479
 30
0.0
 10
-145.3822
 20
6.8467
 30
0.0
 10
-147.1623
 20
9.5051
 30
0.0
 10
-147.1623
 20
9.5051
 30
0.0
 10
-147.1623
 20
9.5051
 30
0.0
 10
-140.7516
 20
9.5168
 30
0.0
 10
-140.7516
 20
9.5168
 30
0.0
 10
-140.7516
 20
9.5168
 30
0.0
 10
-141.9846
 20
11.847
 30
0.0
 10
-142.2854
 20
13.3753
 30
0.0
 10
-142.2854
 20
15.9552
 30
0.0
 10
-142.2854
 20
15.9552
 30
0.0
 10
-142.2854
 20
20.1303
 30
0.0
 10
-139.1468
 20
25.2371
 30
0.0
 10
-134.8914
 20
25.2371
 30
0.0
 10
-134.8914
 20
25.2371
 30
0.0
 10
-132.4207
 20
25.2371
 30
0.0
 10
-130.4864
 20
23.7723
 30
0.0
 10
-130.4864
 20
21.3041
 30
0.0
 10
-130.4864
 20
21.3041
 30
0.0
 10
-130.4864
 20
16.7976
 30
0.0
 10
-134.5753
 20
17.7081
 30
0.0
 10
-135.9926
 20
19.7309
 30
0.0
 10
-135.9926
 20
19.7309
 30
0.0
 10
-136.8839
 20
19.7309
 30
0.0
 10
-137.7231
 20
16.3776
 30
0.0
 10
-137.7231
 20
15.0113
 30
0.0
 10
-137.7231
 20
15.0113
 30
0.0
 10
-137.7231
 20
11.4055
 30
0.0
 10
-135.3184
 20
7.8329
 30
0.0
 10
-131.6615
 20
6.9364
 30
0.0
 10
-131.6615
 20
6.9364
 30
0.0
 10
-131.6615
 20
6.9364
 30
0.0
 10
-133.5465
 20
3.9221
 30
0.0
 10
-133.5465
 20
3.9221
 30
0.0
 10
-133.5465
 20
3.9221
 30
0.0
 10
-133.5465
 20
3.9221
 30
0.0
 10
-131.6606
 20
0.7469
 30
0.0
 10
-131.6606
 20
0.7469
 30
0.0
 10
-131.6606
 20
0.7469
 30
0.0
 10
-135.3175
 20
-0.1496
 30
0.0
 10
-137.7222
 20
-3.7222
 30
0.0
 10
-137.7222
 20
-7.3281
 30
0.0
 10
-137.7222
 20
-7.3281
 30
0.0
 10
-137.7222
 20
-8.6943
 30
0.0
 10
-136.883
 20
-12.0476
 30
0.0
 10
-135.9916
 20
-12.0476
 30
0.0
 10
-135.9916
 20
-12.0476
 30
0.0
 10
-134.5744
 20
-10.0248
 30
0.0
 10
-130.4855
 20
-9.1143
 30
0.0
 10
-130.4855
 20
-13.6208
 30
0.0
 10
-130.4855
 20
-13.6208
 30
0.0
 10
-130.4855
 20
-16.0891
 30
0.0
 10
-132.4197
 20
-17.5538
 30
0.0
 10
-134.8904
 20
-17.5538
 30
0.0
 10
-134.8904
 20
-17.5538
 30
0.0
 10
-139.1459
 20
-17.5538
 30
0.0
 10
-142.2845
 20
-12.4471
 30
0.0
 10
-142.2845
 20
-8.2719
 30
0.0
 10
-142.2845
 20
-8.2719
 30
0.0
 10
-142.2845
 20
-5.692
 30
0.0
 10
-141.9836
 20
-4.1637
 30
0.0
 10
-140.7507
 20
-1.8335
 30
0.0
 10
-140.7507
 20
-1.8335
 30
0.0
 10
-140.7507
 20
-1.8335
 30
0.0
 10
-147.1614
 20
-1.8218
 30
0.0
 10
-147.1614
 20
-1.8218
 30
0.0
 10
-147.1614
 20
-1.8218
 30
0.0
 10
-145.3813
 20
0.8366
 30
0.0
 10
-141.18
 20
1.1354
 30
0.0
 10
-138.9807
 20
-0.0913
 30
0.0
 10
-138.9807
 20
-0.0913
 30
0.0
 10
-139.1283
 20
1.9776
 30
0.0
 10
-141.0117
 20
3.5584
 30
0.0
 10
-142.6
 20
3.904
 30
0.0
  0
SPLINE
  5
8F
330
1F
100
AcDbEntity
  8
layer 1
 62
     7
370
     9
100
AcDbSpline
210
0.0
220
0.0
230
1.0
 70
    11
 71
     3
 72
    84
 73
    80
 74
     0
 42
0.0000000001
 43
0.0000000001
 12
1.0
 22
0.0
 32
0.0
 13
1.0
 23
0.0
 33
0.0
 40
0.0
 40
0.0
 40
0.0
 40
0.0
 40
0.0476190476190476
 40
0.0476190476190476
 40
0.0476190476190476
 40
0.0476190476190476
 40
0.0952380952380952
 40
0.0952380952380952
 40
0.0952380952380952
 40
0.0952380952380952
 40
0.1428571428571428
 40
0.1428571428571428
 40
0.1428571428571428
 40
0.1428571428571428
 40
0.1904761904761905
 40
0.1904761904761905
 40
0.1904761904761905
 40
0.1904761904761905
 40
0.2380952380952381
 40
0.2380952380952381
 40
0.2380952380952381
 40
0.2380952380952381
 40
0.2857142857142857
 40
0.2857142857142857
 40
0.2857142857142857
 40
0.2857142857142857
 40
0.3333333333333333
 40
0.3333333333333333
 40
0.3333333333333333
 40
0.3333333333333333
 40
0.3809523809523809
 40
0.3809523809523809
 40
0.3809523809523809
 40
0.3809523809523809
 40
0.4285714285714285
 40
0.4285714285714285
 40
0.4285714285714285
 40
0.4285714285714285
 40
0.4761904761904762
 40
0.4761904761904762
 40
0.4761904761904762
 40
0.4761904761904762
 40
0.5238095238095238
 40
0.5238095238095238
 40
0.5238095238095238
 40
0.5238095238095238
 40
0.5714285714285714
 40
0.5714285714285714
 40
0.5714285714285714
 40
0.5714285714285714
 40
0.6190476190476191
 40
0.6190476190476191
 40
0.6190476190476191
 40
0.6190476190476191
 40
0.6666666666666666
 40
0.6666666666666666
 40
0.6666666666666666
 40
0.6666666666666666
 40
0.7142857142857143
 40
0.7142857142857143
 40
0.7142857142857143
 40
0.7142857142857143
 40
0.7619047619047619
 40
0.7619047619047619
 40
0.7619047619047619
 40
0.7619047619047619
 40
0.8095238095238095
 40
0.8095238095238095
 40
0.8095238095238095
 40
0.8095238095238095
 40
0.8571428571428571
 40
0.8571428571428571
 40
0.8571428571428571
 40
0.8571428571428571
 40
0.9047619047619048
 40
0.9047619047619048
 40
0.9047619047619048
 40
0.9047619047619048
 40
1.0
 40
1.0
 40
1.0
 40
1.0
 10
-111.7559
 20
3.9233
 30
0.0
 10
-113.3443
 20
4.2688
 30
0.0
 10
-114.8062
 20
5.7057
 30
0.0
 10
-114.9537
 20
7.7746
 30
0.0
 10
-114.9537
 20
7.7746
 30
0.0
 10
-112.7545
 20
6.5479
 30
0.0
 10
-108.5532
 20
6.8467
 30
0.0
 10
-106.7731
 20
9.5051
 30
0.0
 10
-106.7731
 20
9.5051
 30
0.0
 10
-106.7731
 20
9.5051
 30
0.0
 10
-113.1838
 20
9.5168
 30
0.0
 10
-113.1838
 20
9.5168
 30
0.0
 10
-113.1838
 20
9.5168
 30
0.0
 10
-111.9508
 20
11.847
 30
0.0
 10
-111.65
 20
13.3753
 30
0.0
 10
-111.65
 20
15.9552
 30
0.0
 10
-111.65
 20
15.9552
 30
0.0
 10
-111.65
 20
20.1303
 30
0.0
 10
-114.7886
 20
25.2371
 30
0.0
 10
-119.044
 20
25.2371
 30
0.0
 10
-119.044
 20
25.2371
 30
0.0
 10
-121.5147
 20
25.2371
 30
0.0
 10
-123.449
 20
23.7723
 30
0.0
 10
-123.449
 20
21.3041
 30
0.0
 10
-123.449
 20
21.3041
 30
0.0
 10
-123.449
 20
16.7976
 30
0.0
 10
-119.3601
 20
17.7081
 30
0.0
 10
-117.9428
 20
19.7309
 30
0.0
 10
-117.9428
 20
19.7309
 30
0.0
 10
-117.0515
 20
19.7309
 30
0.0
 10
-116.2123
 20
16.3776
 30
0.0
 10
-116.2123
 20
15.0113
 30
0.0
 10
-116.2123
 20
15.0113
 30
0.0
 10
-116.2123
 20
11.4055
 30
0.0
 10
-118.617
 20
7.8329
 30
0.0
 10
-122.2739
 20
6.9364
 30
0.0
 10
-122.2739
 20
6.9364
 30
0.0
 10
-122.2739
 20
6.9364
 30
0.0
 10
-120.3889
 20
3.9221
 30
0.0
 10
-120.3889
 20
3.9221
 30
0.0
 10
-120.3889
 20
3.9221
 30
0.0
 10
-120.3889
 20
3.9221
 30
0.0
 10
-122.2748
 20
0.7469
 30
0.0
 10
-122.2748
 20
0.7469
 30
0.0
 10
-122.2748
 20
0.7469
 30
0.0
 10
-118.6179
 20
-0.1496
 30
0.0
 10
-116.2132
 20
-3.7222
 30
0.0
 10
-116.2132
 20
-7.3281
 30
0.0
 10
-116.2132
 20
-7.3281
 30
0.0
 10
-116.2132
 20
-8.6943
 30
0.0
 10
-117.0524
 20
-12.0476
 30
0.0
 10
-117.9438
 20
-12.0476
 30
0.0
 10
-117.9438
 20
-12.0476
 30
0.0
 10
-119.361
 20
-10.0248
 30
0.0
 10
-123.4499
 20
-9.1143
 30
0.0
 10
-123.4499
 20
-13.6208
 30
0.0
 10
-123.4499
 20
-13.6208
 30
0.0
 10
-123.4499
 20
-16.0891
 30
0.0
 10
-121.5157
 20
-17.5538
 30
0.0
 10
-119.045
 20
-17.5538
 30
0.0
 10
-119.045
 20
-17.5538
 30
0.0
 10
-114.7895
 20
-17.5538
 30
0.0
 10
-111.6509
 20
-12.4471
 30
0.0
 10
-111.6509
 20
-8.2719
 30
0.0
 10
-111.6509
 20
-8.2719
 30
0.0
 10
-111.6509
 20
-5.692
 30
0.0
 10
-111.9518
 20
-4.1637
 30
0.0
 10
-113.1847
 20
-1.8335
 30
0.0
 10
-113.1847
 20
-1.8335
 30
0.0
 10
-113.1847
 20
-1.8335
 30
0.0
 10
-106.774
 20
-1.8218
 30
0.0
 10
-106.774
 20
-1.8218
 30
0.0
 10
-106.774
 20
-1.8218
 30
0.0
 10
-108.5541
 20
0.8366
 30
0.0
 10
-112.7554
 20
1.1354
 30
0.0
 10
-114.9547
 20
-0.0913
 30
0.0
 10
-114.9547
 20
-0.0913
 30
0.0
 10
-114.8071
 20
1.9776
 30
0.0
 10
-113.3443
 20
3.5777
 30
0.0
 10
-111.7559
 20
3.9233
 30
0.0
  0
SPLINE
  5
90
330
1F
100
AcDbEntity
  8
layer 1
 62
     7
370
     9
100
AcDbSpline
210
0.0
220
0.0
230
1.0
 70
    11
 71
     3
 72
    36
 73
    32
 74
     0
 42
0.0000000001
 43
0.0000000001
 12
1.0
 22
0.0
 32
0.0
 13
1.0
 23
0.0
 33
0.0
 40
0.0
 40
0.0
 40
0.0
 40
0.0
 40
0.1111111111111111
 40
0.1111111111111111
 40
0.1111111111111111
 40
0.1111111111111111
 40
0.2222222222222222
 40
0.2222222222222222
 40
0.2222222222222222
 40
0.2222222222222222
 40
0.3333333333333333
 40
0.3333333333333333
 40
0.3333333333333333
 40
0.3333333333333333
 40
0.4444444444444444
 40
0.4444444444444444
 40
0.4444444444444444
 40
0.4444444444444444
 40
0.5555555555555556
 40
0.5555555555555556
 40
0.5555555555555556
 40
0.5555555555555556
 40
0.6666666666666666
 40
0.6666666666666666
 40
0.6666666666666666
 40
0.6666666666666666
 40
0.7777777777777778
 40
0.7777777777777778
 40
0.7777777777777778
 40
0.7777777777777778
 40
1.0
 40
1.0
 40
1.0
 40
1.0
 10
-166.5117
 20
3.7704
 30
0.0
 10
-163.728
 20
5.0559
 30
0.0
 10
-161.1654
 20
6.2724
 30
0.0
 10
-159.3784
 20
9.411
 30
0.0
 10
-159.3784
 20
9.411
 30
0.0
 10
-159.3784
 20
9.411
 30
0.0
 10
-153.9271
 20
9.4338
 30
0.0
 10
-153.9271
 20
9.4338
 30
0.0
 10
-153.9271
 20
9.4338
 30
0.0
 10
-154.1272
 20
7.0283
 30
0.0
 10
-155.5836
 20
6.1858
 30
0.0
 10
-157.7028
 20
6.7593
 30
0.0
 10
-157.7028
 20
6.7593
 30
0.0
 10
-157.8436
 20
5.0676
 30
0.0
 10
-156.5595
 20
4.4181
 30
0.0
 10
-155.1847
 20
3.7704
 30
0.0
 10
-155.1847
 20
3.7704
 30
0.0
 10
-156.5595
 20
3.1227
 30
0.0
 10
-157.8427
 20
2.473
 30
0.0
 10
-157.7018
 20
0.7813
 30
0.0
 10
-157.7018
 20
0.7813
 30
0.0
 10
-155.5827
 20
1.3548
 30
0.0
 10
-154.1263
 20
0.5123
 30
0.0
 10
-153.9261
 20
-1.8931
 30
0.0
 10
-153.9261
 20
-1.8931
 30
0.0
 10
-153.9261
 20
-1.8931
 30
0.0
 10
-159.3775
 20
-1.8703
 30
0.0
 10
-159.3775
 20
-1.8703
 30
0.0
 10
-159.3775
 20
-1.8703
 30
0.0
 10
-161.1645
 20
1.2682
 30
0.0
 10
-163.6708
 20
2.5803
 30
0.0
 10
-166.5117
 20
3.7704
 30
0.0
  0
SPLINE
  5
91
330
1F
100
AcDbEntity
  8
layer 1
 62
     7
370
     9
100
AcDbSpline
210
0.0
220
0.0
230
1.0
 70
    11
 71
     3
 72
    36
 73
    32
 74
     0
 42
0.0000000001
 43
0.0000000001
 12
1.0
 22
0.0
 32
0.0
 13
1.0
 23
0.0
 33
0.0
 40
0.0
 40
0.0
 40
0.0
 40
0.0
 40
0.1111111111111111
 40
0.1111111111111111
 40
0.1111111111111111
 40
0.1111111111111111
 40
0.2222222222222222
 40
0.2222222222222222
 40
0.2222222222222222
 40
0.2222222222222222
 40
0.3333333333333333
 40
0.3333333333333333
 40
0.3333333333333333
 40
0.3333333333333333
 40
0.4444444444444444
 40
0.4444444444444444
 40
0.4444444444444444
 40
0.4444444444444444
 40
0.5555555555555556
 40
0.5555555555555556
 40
0.5555555555555556
 40
0.5555555555555556
 40
0.6666666666666666
 40
0.6666666666666666
 40
0.6666666666666666
 40
0.6666666666666666
 40
0.7777777777777778
 40
0.7777777777777778
 40
0.7777777777777778
 40
0.7777777777777778
 40
1.0
 40
1.0
 40
1.0
 40
1.0
 10
-87.5135
 20
3.7329
 30
0.0
 10
-90.2972
 20
5.0184
 30
0.0
 10
-92.8598
 20
6.2349
 30
0.0
 10
-94.6468
 20
9.3735
 30
0.0
 10
-94.6468
 20
9.3735
 30
0.0
 10
-94.6468
 20
9.3735
 30
0.0
 10
-100.0981
 20
9.3963
 30
0.0
 10
-100.0981
 20
9.3963
 30
0.0
 10
-100.0981
 20
9.3963
 30
0.0
 10
-99.898
 20
6.9908
 30
0.0
 10
-98.4416
 20
6.1483
 30
0.0
 10
-96.3225
 20
6.7218
 30
0.0
 10
-96.3225
 20
6.7218
 30
0.0
 10
-96.1816
 20
5.0301
 30
0.0
 10
-97.4657
 20
4.3806
 30
0.0
 10
-98.8405
 20
3.7329
 30
0.0
 10
-98.8405
 20
3.7329
 30
0.0
 10
-97.4657
 20
3.0852
 30
0.0
 10
-96.1826
 20
2.4355
 30
0.0
 10
-96.3234
 20
0.7438
 30
0.0
 10
-96.3234
 20
0.7438
 30
0.0
 10
-98.4425
 20
1.3173
 30
0.0
 10
-99.8989
 20
0.4748
 30
0.0
 10
-100.0991
 20
-1.9306
 30
0.0
 10
-100.0991
 20
-1.9306
 30
0.0
 10
-100.0991
 20
-1.9306
 30
0.0
 10
-94.6477
 20
-1.9078
 30
0.0
 10
-94.6477
 20
-1.9078
 30
0.0
 10
-94.6477
 20
-1.9078
 30
0.0
 10
-92.8608
 20
1.2307
 30
0.0
 10
-90.3544
 20
2.5428
 30
0.0
 10
-87.5135
 20
3.7329
 30
0.0
  0
SPLINE
  5
92
330
1F
100
AcDbEntity
  8
layer 1
 62
     7
370
     9
100
AcDbSpline
210
0.0
220
0.0
230
1.0
 70
    11
 71
     3
 72
    16
 73
    12
 74
     0
 42
0.0000000001
 43
0.0000000001
 12
1.0
 22
0.0
 32
0.0
 13
1.0
 23
0.0
 33
0.0
 40
0.0
 40
0.0
 40
0.0
 40
0.0
 40
0.25
 40
0.25
 40
0.25
 40
0.25
 40
0.5
 40
0.5
 40
0.5
 40
0.5
 40
1.0
 40
1.0
 40
1.0
 40
1.0
 10
-80.1871
 20
3.7292
 30
0.0
 10
-74.8379
 20
1.4331
 30
0.0
 10
-72.3971
 20
-0.4474
 30
0.0
 10
-70.5915
 20
-4.9233
 30
0.0
 10
-70.5915
 20
-4.9233
 30
0.0
 10
-70.5915
 20
-4.9233
 30
0.0
 10
-70.5906
 20
12.3818
 30
0.0
 10
-70.5906
 20
12.3818
 30
0.0
 10
-70.5906
 20
12.3818
 30
0.0
 10
-72.3961
 20
7.9059
 30
0.0
 10
-74.8379
 20
6.0253
 30
0.0
 10
-80.1871
 20
3.7292
 30
0.0
  0
SPLINE
  5
93
330
1F
100
AcDbEntity
  8
layer 1
 62
     7
370
     9
100
AcDbSpline
210
0.0
220
0.0
230
1.0
 70
    11
 71
     3
 72
    16
 73
    12
 74
     0
 42
0.0000000001
 43
0.0000000001
 12
1.0
 22
0.0
 32
0.0
 13
1.0
 23
0.0
 33
0.0
 40
0.0
 40
0.0
 40
0.0
 40
0.0
 40
0.25
 40
0.25
 40
0.25
 40
0.25
 40
0.5
 40
0.5
 40
0.5
 40
0.5
 40
1.0
 40
1.0
 40
1.0
 40
1.0
 10
-173.7752
 20
3.775
 30
0.0
 10
-179.1244
 20
6.0712
 30
0.0
 10
-181.5671
 20
7.9516
 30
0.0
 10
-183.3727
 20
12.4275
 30
0.0
 10
-183.3727
 20
12.4275
 30
0.0
 10
-183.3727
 20
12.4275
 30
0.0
 10
-183.3717
 20
-4.8776
 30
0.0
 10
-183.3717
 20
-4.8776
 30
0.0
 10
-183.3717
 20
-4.8776
 30
0.0
 10
-181.5662
 20
-0.4017
 30
0.0
 10
-178.9326
 20
1.6707
 30
0.0
 10
-173.7752
 20
3.775
 30
0.0
  0
SPLINE
  5
94
330
1F
100
AcDbEntity
  8
layer 1
 62
     7
370
     9
100
AcDbSpline
210
0.0
220
0.0
230
1.0
 70
    11
 71
     3
 72
    20
 73
    16
 74
     0
 42
0.0000000001
 43
0.0000000001
 12
1.0
 22
0.0
 32
0.0
 13
1.0
 23
0.0
 33
0.0
 40
0.0
 40
0.0
 40
0.0
 40
0.0
 40
0.2
 40
0.2
 40
0.2
 40
0.2
 40
0.4
 40
0.4
 40
0.4
 40
0.4
 40
0.6
 40
0.6
 40
0.6
 40
0.6
 40
1.0
 40
1.0
 40
1.0
 40
1.0
 10
-147.3786
 20
3.7599
 30
0.0
 10
-148.2933
 20
3.4849
 30
0.0
 10
-149.3818
 20
2.8838
 30
0.0
 10
-150.0269
 20
1.9165
 30
0.0
 10
-150.0269
 20
1.9165
 30
0.0
 10
-150.3433
 20
2.7747
 30
0.0
 10
-150.948
 20
3.4372
 30
0.0
 10
-151.7295
 20
3.7642
 30
0.0
 10
-151.7295
 20
3.7642
 30
0.0
 10
-150.948
 20
4.0912
 30
0.0
 10
-150.3834
 20
4.7693
 30
0.0
 10
-150.067
 20
5.6275
 30
0.0
 10
-150.067
 20
5.6275
 30
0.0
 10
-149.422
 20
4.6601
 30
0.0
 10
-148.2933
 20
4.0842
 30
0.0
 10
-147.3786
 20
3.7599
 30
0.0
  0
SPLINE
  5
95
330
1F
100
AcDbEntity
  8
layer 1
 62
     7
370
     9
100
AcDbSpline
210
0.0
220
0.0
230
1.0
 70
    11
 71
     3
 72
    20
 73
    16
 74
     0
 42
0.0000000001
 43
0.0000000001
 12
1.0
 22
0.0
 32
0.0
 13
1.0
 23
0.0
 33
0.0
 40
0.0
 40
0.0
 40
0.0
 40
0.0
 40
0.2
 40
0.2
 40
0.2
 40
0.2
 40
0.4
 40
0.4
 40
0.4
 40
0.4
 40
0.6
 40
0.6
 40
0.6
 40
0.6
 40
1.0
 40
1.0
 40
1.0
 40
1.0
 10
-106.6031
 20
3.7498
 30
0.0
 10
-105.6884
 20
3.4748
 30
0.0
 10
-104.5998
 20
2.8737
 30
0.0
 10
-103.9548
 20
1.9064
 30
0.0
 10
-103.9548
 20
1.9064
 30
0.0
 10
-103.6384
 20
2.7646
 30
0.0
 10
-103.0336
 20
3.4271
 30
0.0
 10
-102.2521
 20
3.7541
 30
0.0
 10
-102.2521
 20
3.7541
 30
0.0
 10
-103.0336
 20
4.0811
 30
0.0
 10
-103.5982
 20
4.7592
 30
0.0
 10
-103.9146
 20
5.6174
 30
0.0
 10
-103.9146
 20
5.6174
 30
0.0
 10
-104.5596
 20
4.6501
 30
0.0
 10
-105.6884
 20
4.0741
 30
0.0
 10
-106.6031
 20
3.7498
 30
0.0
  0
ENDSEC
  0
SECTION
  2
OBJECTS
  0
DICTIONARY
  5
C
330
0
100
AcDbDictionary
281
     1
  3
ACAD_GROUP
350
D
  3
ACAD_LAYOUT
350
1A
  3
ACAD_MATERIAL
350
3B
  3
ACAD_MLEADERSTYLE
350
B7
  3
ACAD_MLINESTYLE
350
17
  3
ACAD_PLOTSETTINGS
350
19
  3
ACAD_PLOTSTYLENAME
350
E
  3
ACAD_TABLESTYLE
350
B6
  3
ACAD_VISUALSTYLE
350
2A
  0
DICTIONARY
  5
D
102
{ACAD_REACTORS
330
C
102
}
330
C
100
AcDbDictionary
281
     1
  0
DICTIONARY
  5
1A
102
{ACAD_REACTORS
330
C
102
}
330
C
100
AcDbDictionary
281
     1
  3
Layout1
350
1E
  3
Layout2
350
26
  3
Model
350
22
  0
DICTIONARY
  5
3B
102
{ACAD_REACTORS
330
C
102
}
330
C
100
AcDbDictionary
281
     1
  3
ByBlock
350
3D
  3
ByLayer
350
3C
  3
Global
350
3E
  0
DICTIONARY
  5
B7
102
{ACAD_REACTORS
330
C
102
}
330
C
100
AcDbDictionary
281
     1
  0
DICTIONARY
  5
17
102
{ACAD_REACTORS
330
C
102
}
330
C
100
AcDbDictionary
281
     1
  3
Standard
350
18
  0
DICTIONARY
  5
19
102
{ACAD_REACTORS
330
C
102
}
330
C
100
AcDbDictionary
281
     1
  0
ACDBDICTIONARYWDFLT
  5
E
102
{ACAD_REACTORS
330
C
102
}
330
C
100
AcDbDictionary
281
     1
  3
Normal
350
F
100
AcDbDictionaryWithDefault
340
F
  0
DICTIONARY
  5
B6
102
{ACAD_REACTORS
330
C
102
}
330
C
100
AcDbDictionary
281
     1
  0
DICTIONARY
  5
2A
102
{ACAD_REACTORS
330
C
102
}
330
C
100
AcDbDictionary
281
     1
  3
2dWireframe
350
2F
  3
3D Hidden
350
31
  3
3dWireframe
350
30
  3
Basic
350
32
  3
Brighten
350
36
  3
ColorChange
350
3A
  3
Conceptual
350
34
  3
Dim
350
35
  3
Facepattern
350
39
  3
Flat
350
2B
  3
FlatWithEdges
350
2C
  3
Gouraud
350
2D
  3
GouraudWithEdges
350
2E
  3
Linepattern
350
38
  3
Realistic
350
33
  3
Thicken
350
37
  0
LAYOUT
  5
1E
102
{ACAD_REACTORS
330
1A
102
}
330
1A
100
AcDbPlotSettings
  1

  2
none_device
  4

  6

 40
0.0
 41
0.0
 42
0.0
 43
0.0
 44
0.0
 45
0.0
 46
0.0
 47
0.0
 48
0.0
 49
0.0
140
0.0
141
0.0
142
1.0
143
1.0
 70
   688
 72
     0
 73
     0
 74
     5
  7

 75
    16
 76
     0
 77
     2
 78
   300
147
1.0
148
0.0
149
0.0
100
AcDbLayout
  1
Layout1
 70
     1
 71
     1
 10
0.0
 20
0.0
 11
12.0
 21
9.0
 12
0.0
 22
0.0
 32
0.0
 14
1.000000000000000E+20
 24
1.000000000000000E+20
 34
1.000000000000000E+20
 15
-1.000000000000000E+20
 25
-1.000000000000000E+20
 35
-1.000000000000000E+20
146
0.0
 13
0.0
 23
0.0
 33
0.0
 16
1.0
 26
0.0
 36
0.0
 17
0.0
 27
1.0
 37
0.0
 76
     0
330
1B
  0
LAYOUT
  5
26
102
{ACAD_REACTORS
330
1A
102
}
330
1A
100
AcDbPlotSettings
  1

  2
none_device
  4

  6

 40
0.0
 41
0.0
 42
0.0
 43
0.0
 44
0.0
 45
0.0
 46
0.0
 47
0.0
 48
0.0
 49
0.0
140
0.0
141
0.0
142
1.0
143
1.0
 70
   688
 72
     0
 73
     0
 74
     5
  7

 75
    16
 76
     0
 77
     2
 78
   300
147
1.0
148
0.0
149
0.0
100
AcDbLayout
  1
Layout2
 70
     1
 71
     2
 10
0.0
 20
0.0
 11
0.0
 21
0.0
 12
0.0
 22
0.0
 32
0.0
 14
0.0
 24
0.0
 34
0.0
 15
0.0
 25
0.0
 35
0.0
146
0.0
 13
0.0
 23
0.0
 33
0.0
 16
1.0
 26
0.0
 36
0.0
 17
0.0
 27
1.0
 37
0.0
 76
     0
330
23
  0
LAYOUT
  5
22
102
{ACAD_REACTORS
330
1A
102
}
330
1A
100
AcDbPlotSettings
  1

  2
none_device
  4

  6

 40
0.0
 41
0.0
 42
0.0
 43
0.0
 44
0.0
 45
0.0
 46
0.0
 47
0.0
 48
0.0
 49
0.0
140
0.0
141
0.0
142
1.0
143
1.0
 70
  1712
 72
     0
 73
     0
 74
     0
  7

 75
     0
 76
     0
 77
     2
 78
   300
147
1.0
148
0.0
149
0.0
100
AcDbLayout
  1
Model
 70
     1
 71
     0
 10
0.0
 20
0.0
 11
12.0
 21
9.0
 12
0.0
 22
0.0
 32
0.0
 14
-187.2745
 24
-102.3524
 34
0.0
 15
-66.8411
 25
110.3433
 35
0.0
146
0.0
 13
0.0
 23
0.0
 33
0.0
 16
1.0
 26
0.0
 36
0.0
 17
0.0
 27
1.0
 37
0.0
 76
     0
330
1F
331
29
  0
MATERIAL
  5
3D
102
{ACAD_REACTORS
330
3B
102
}
330
3B
100
AcDbMaterial
  1
ByBlock
 72
     1
 94
      127
  0
MATERIAL
  5
3C
102
{ACAD_REACTORS
330
3B
102
}
330
3B
100
AcDbMaterial
  1
ByLayer
 72
     1
 94
      127
  0
MATERIAL
  5
3E
102
{ACAD_REACTORS
330
3B
102
}
330
3B
100
AcDbMaterial
  1
Global
 72
     1
 94
      127
  0
MLINESTYLE
  5
18
102
{ACAD_REACTORS
330
17
102
}
330
17
100
AcDbMlineStyle
  2
Standard
 70
     0
  3

 62
   256
 51
90.0
 52
90.0
 71
     2
 49
0.5
 62
   256
  6
BYLAYER
 49
-0.5
 62
   256
  6
BYLAYER
  0
ACDBPLACEHOLDER
  5
F
102
{ACAD_REACTORS
330
E
102
}
330
E
  0
VISUALSTYLE
  5
2F
102
{ACAD_REACTORS
330
2A
102
}
102
{ACAD_XDICTIONARY
360
9E
102
}
330
2A
100
AcDbVisualStyle
  2
2dWireframe
 70
     4
 71
     0
 72
     2
 73
     0
 90
        0
 40
-0.6
 41
-30.0
 62
     5
 63
     7
421
 16777215
 74
     1
 91
        4
 64
     7
 65
   257
 75
     1
175
     1
 42
1.0
 92
        0
 66
   257
 43
1.0
 76
     1
 77
     6
 78
     2
 67
     7
 79
     5
170
     0
171
     0
290
     0
174
     0
 93
        1
 44
0.0
173
     0
291
     0
 45
0.0
  0
VISUALSTYLE
  5
31
102
{ACAD_REACTORS
330
2A
102
}
102
{ACAD_XDICTIONARY
360
A2
102
}
330
2A
100
AcDbVisualStyle
  2
3D Hidden
 70
     6
 71
     1
 72
     2
 73
     2
 90
        0
 40
-0.6
 41
-30.0
 62
     5
 63
     7
421
 16777215
 74
     2
 91
        2
 64
     7
 65
   257
 75
     2
175
     1
 42
40.0
 92
        0
 66
   257
 43
1.0
 76
     1
 77
     6
 78
     2
 67
     7
 79
     3
170
     0
171
     0
290
     0
174
     0
 93
        1
 44
0.0
173
     0
291
     0
 45
0.0
  0
VISUALSTYLE
  5
30
102
{ACAD_REACTORS
330
2A
102
}
102
{ACAD_XDICTIONARY
360
A0
102
}
330
2A
100
AcDbVisualStyle
  2
3dWireframe
 70
     5
 71
     0
 72
     2
 73
     0
 90
        0
 40
-0.6
 41
-30.0
 62
     5
 63
     7
421
 16777215
 74
     1
 91
        4
 64
     7
 65
   257
 75
     1
175
     1
 42
1.0
 92
        0
 66
   257
 43
1.0
 76
     1
 77
     6
 78
     2
 67
     7
 79
     5
170
     0
171
     0
290
     0
174
     0
 93
        1
 44
0.0
173
     0
291
     0
 45
0.0
  0
VISUALSTYLE
  5
32
102
{ACAD_REACTORS
330
2A
102
}
102
{ACAD_XDICTIONARY
360
A4
102
}
330
2A
100
AcDbVisualStyle
  2
Basic
 70
     7
 71
     1
 72
     0
 73
     1
 90
        0
 40
-0.6
 41
-30.0
 62
     5
 63
     7
421
 16777215
 74
     0
 91
        4
 64
     7
 65
   257
 75
     1
175
     1
 42
1.0
 92
        8
 66
     7
 43
1.0
 76
     1
 77
     6
 78
     2
 67
     7
 79
     5
170
     0
171
     0
290
     0
174
     0
 93
        1
 44
0.0
173
     0
291
     1
 45
0.0
  0
VISUALSTYLE
  5
36
102
{ACAD_REACTORS
330
2A
102
}
102
{ACAD_XDICTIONARY
360
AC
102
}
330
2A
100
AcDbVisualStyle
  2
Brighten
 70
    12
 71
     2
 72
     2
 73
     0
 90
        0
 40
-0.6
 41
-30.0
 62
     5
 63
     7
421
 16777215
 74
     1
 91
        4
 64
     7
 65
   257
 75
     1
175
     1
 42
1.0
 92
        8
 66
     7
 43
1.0
 76
     1
 77
     6
 78
     2
 67
     7
 79
     5
170
     0
171
     0
290
     0
174
     0
 93
        1
 44
50.0
173
     0
291
     1
 45
0.0
  0
VISUALSTYLE
  5
3A
102
{ACAD_REACTORS
330
2A
102
}
102
{ACAD_XDICTIONARY
360
B4
102
}
330
2A
100
AcDbVisualStyle
  2
ColorChange
 70
    16
 71
     2
 72
     2
 73
     3
 90
        0
 40
-0.6
 41
-30.0
 62
     5
 63
     8
421
  8421504
 74
     1
 91
        4
 64
     7
 65
   257
 75
     1
175
     1
 42
1.0
 92
        8
 66
     8
424
  8421504
 43
1.0
 76
     1
 77
     6
 78
     2
 67
     7
 79
     5
170
     0
171
     0
290
     0
174
     0
 93
        1
 44
0.0
173
     0
291
     1
 45
0.0
  0
VISUALSTYLE
  5
34
102
{ACAD_REACTORS
330
2A
102
}
102
{ACAD_XDICTIONARY
360
A8
102
}
330
2A
100
AcDbVisualStyle
  2
Conceptual
 70
     9
 71
     3
 72
     2
 73
     0
 90
        0
 40
-0.6
 41
-30.0
 62
     5
 63
     7
421
 16777215
 74
     2
 91
        2
 64
     7
 65
   257
 75
     1
175
     1
 42
40.0
 92
        8
 66
     7
 43
1.0
 76
     1
 77
     6
 78
     2
 67
     7
 79
     3
170
     0
171
     0
290
     0
174
     0
 93
        1
 44
0.0
173
     0
291
     0
 45
0.0
  0
VISUALSTYLE
  5
35
102
{ACAD_REACTORS
330
2A
102
}
102
{ACAD_XDICTIONARY
360
AA
102
}
330
2A
100
AcDbVisualStyle
  2
Dim
 70
    11
 71
     2
 72
     2
 73
     0
 90
        0
 40
-0.6
 41
-30.0
 62
     5
 63
     7
421
 16777215
 74
     1
 91
        4
 64
     7
 65
   257
 75
     1
175
     1
 42
1.0
 92
        8
 66
     7
 43
1.0
 76
     1
 77
     6
 78
     2
 67
     7
 79
     5
170
     0
171
     0
290
     0
174
     0
 93
        1
 44
-50.0
173
     0
291
     1
 45
0.0
  0
VISUALSTYLE
  5
39
102
{ACAD_REACTORS
330
2A
102
}
102
{ACAD_XDICTIONARY
360
B2
102
}
330
2A
100
AcDbVisualStyle
  2
Facepattern
 70
    15
 71
     2
 72
     2
 73
     0
 90
        0
 40
-0.6
 41
-30.0
 62
     5
 63
     7
421
 16777215
 74
     1
 91
        4
 64
     7
 65
   257
 75
     1
175
     1
 42
1.0
 92
        8
 66
     7
 43
1.0
 76
     1
 77
     6
 78
     2
 67
     7
 79
     5
170
     0
171
     0
290
     0
174
     0
 93
        1
 44
0.0
173
     0
291
     1
 45
0.0
  0
VISUALSTYLE
  5
2B
102
{ACAD_REACTORS
330
2A
102
}
102
{ACAD_XDICTIONARY
360
96
102
}
330
2A
100
AcDbVisualStyle
  2
Flat
 70
     0
 71
     2
 72
     1
 73
     1
 90
        2
 40
-0.6
 41
30.0
 62
     5
 63
     7
421
 16777215
 74
     0
 91
        4
 64
     7
 65
   257
 75
     1
175
     1
 42
1.0
 92
        8
 66
     7
 43
1.0
 76
     1
 77
     6
 78
     2
 67
     7
 79
     5
170
     0
171
     0
290
     0
174
     0
 93
       13
 44
0.0
173
     0
291
     1
 45
0.0
  0
VISUALSTYLE
  5
2C
102
{ACAD_REACTORS
330
2A
102
}
102
{ACAD_XDICTIONARY
360
98
102
}
330
2A
100
AcDbVisualStyle
  2
FlatWithEdges
 70
     1
 71
     2
 72
     1
 73
     1
 90
        2
 40
-0.6
 41
30.0
 62
     5
 63
     7
421
 16777215
 74
     1
 91
        4
 64
     7
 65
   257
 75
     1
175
     1
 42
1.0
 92
        0
 66
   257
 43
1.0
 76
     1
 77
     6
 78
     2
 67
     7
 79
     5
170
     0
171
     0
290
     0
174
     0
 93
       13
 44
0.0
173
     0
291
     1
 45
0.0
  0
VISUALSTYLE
  5
2D
102
{ACAD_REACTORS
330
2A
102
}
102
{ACAD_XDICTIONARY
360
9A
102
}
330
2A
100
AcDbVisualStyle
  2
Gouraud
 70
     2
 71
     2
 72
     2
 73
     1
 90
        2
 40
-0.6
 41
30.0
 62
     5
 63
     7
421
 16777215
 74
     0
 91
        4
 64
     7
 65
   257
 75
     1
175
     1
 42
1.0
 92
        0
 66
     7
 43
1.0
 76
     1
 77
     6
 78
     2
 67
     7
 79
     5
170
     0
171
     0
290
     0
174
     0
 93
       13
 44
0.0
173
     0
291
     1
 45
0.0
  0
VISUALSTYLE
  5
2E
102
{ACAD_REACTORS
330
2A
102
}
102
{ACAD_XDICTIONARY
360
9C
102
}
330
2A
100
AcDbVisualStyle
  2
GouraudWithEdges
 70
     3
 71
     2
 72
     2
 73
     1
 90
        2
 40
-0.6
 41
30.0
 62
     5
 63
     7
421
 16777215
 74
     1
 91
        4
 64
     7
 65
   257
 75
     1
175
     1
 42
1.0
 92
        0
 66
   257
 43
1.0
 76
     1
 77
     6
 78
     2
 67
     7
 79
     5
170
     0
171
     0
290
     0
174
     0
 93
       13
 44
0.0
173
     0
291
     1
 45
0.0
  0
VISUALSTYLE
  5
38
102
{ACAD_REACTORS
330
2A
102
}
102
{ACAD_XDICTIONARY
360
B0
102
}
330
2A
100
AcDbVisualStyle
  2
Linepattern
 70
    14
 71
     2
 72
     2
 73
     0
 90
        0
 40
-0.6
 41
-30.0
 62
     5
 63
     7
421
 16777215
 74
     1
 91
        4
 64
     7
 65
   257
 75
     7
175
     7
 42
1.0
 92
        8
 66
     7
 43
1.0
 76
     1
 77
     6
 78
     2
 67
     7
 79
     5
170
     0
171
     0
290
     0
174
     0
 93
        1
 44
0.0
173
     0
291
     1
 45
0.0
  0
VISUALSTYLE
  5
33
102
{ACAD_REACTORS
330
2A
102
}
102
{ACAD_XDICTIONARY
360
A6
102
}
330
2A
100
AcDbVisualStyle
  2
Realistic
 70
     8
 71
     2
 72
     2
 73
     0
 90
        0
 40
-0.6
 41
-30.0
 62
     5
 63
     7
421
 16777215
 74
     1
 91
        0
 64
     7
 65
   257
 75
     1
175
     1
 42
1.0
 92
        8
 66
     8
424
  7895160
 43
1.0
 76
     1
 77
     6
 78
     2
 67
     7
 79
     5
170
     0
171
     0
290
     0
174
     0
 93
       13
 44
0.0
173
     0
291
     0
 45
0.0
  0
VISUALSTYLE
  5
37
102
{ACAD_REACTORS
330
2A
102
}
102
{ACAD_XDICTIONARY
360
AE
102
}
330
2A
100
AcDbVisualStyle
  2
Thicken
 70
    13
 71
     2
 72
     2
 73
     0
 90
        0
 40
-0.6
 41
-30.0
 62
     5
 63
     7
421
 16777215
 74
     1
 91
        4
 64
     7
 65
   257
 75
     1
175
     1
 42
1.0
 92
       12
 66
     7
 43
1.0
 76
     1
 77
     6
 78
     2
 67
     7
 79
     5
170
     0
171
     0
290
     0
174
     0
 93
        1
 44
0.0
173
     0
291
     1
 45
0.0
  0
DICTIONARY
  5
9E
330
2F
100
AcDbDictionary
280
     1
281
     1
  3
ACAD_XREC_ROUNDTRIP
360
9F
  0
DICTIONARY
  5
A2
330
31
100
AcDbDictionary
280
     1
281
     1
  3
ACAD_XREC_ROUNDTRIP
360
A3
  0
DICTIONARY
  5
A0
330
30
100
AcDbDictionary
280
     1
281
     1
  3
ACAD_XREC_ROUNDTRIP
360
A1
  0
DICTIONARY
  5
A4
330
32
100
AcDbDictionary
280
     1
281
     1
  3
ACAD_XREC_ROUNDTRIP
360
A5
  0
DICTIONARY
  5
AC
330
36
100
AcDbDictionary
280
     1
281
     1
  3
ACAD_XREC_ROUNDTRIP
360
AD
  0
DICTIONARY
  5
B4
330
3A
100
AcDbDictionary
280
     1
281
     1
  3
ACAD_XREC_ROUNDTRIP
360
B5
  0
DICTIONARY
  5
A8
330
34
100
AcDbDictionary
280
     1
281
     1
  3
ACAD_XREC_ROUNDTRIP
360
A9
  0
DICTIONARY
  5
AA
330
35
100
AcDbDictionary
280
     1
281
     1
  3
ACAD_XREC_ROUNDTRIP
360
AB
  0
DICTIONARY
  5
B2
330
39
100
AcDbDictionary
280
     1
281
     1
  3
ACAD_XREC_ROUNDTRIP
360
B3
  0
DICTIONARY
  5
96
330
2B
100
AcDbDictionary
280
     1
281
     1
  3
ACAD_XREC_ROUNDTRIP
360
97
  0
DICTIONARY
  5
98
330
2C
100
AcDbDictionary
280
     1
281
     1
  3
ACAD_XREC_ROUNDTRIP
360
99
  0
DICTIONARY
  5
9A
330
2D
100
AcDbDictionary
280
     1
281
     1
  3
ACAD_XREC_ROUNDTRIP
360
9B
  0
DICTIONARY
  5
9C
330
2E
100
AcDbDictionary
280
     1
281
     1
  3
ACAD_XREC_ROUNDTRIP
360
9D
  0
DICTIONARY
  5
B0
330
38
100
AcDbDictionary
280
     1
281
     1
  3
ACAD_XREC_ROUNDTRIP
360
B1
  0
DICTIONARY
  5
A6
330
33
100
AcDbDictionary
280
     1
281
     1
  3
ACAD_XREC_ROUNDTRIP
360
A7
  0
DICTIONARY
  5
AE
330
37
100
AcDbDictionary
280
     1
281
     1
  3
ACAD_XREC_ROUNDTRIP
360
AF
  0
XRECORD
  5
9F
102
{ACAD_REACTORS
330
9E
102
}
330
9E
100
AcDbXrecord
280
     1
102
RTVSPropertyOp0
 70
     1
102
RTVSPropertyOp1
 70
     1
102
RTVSPropertyOp2
 70
     1
102
RTVSPropertyOp3
 70
     1
102
RTVSPropertyOp4
 70
     1
102
RTVSPropertyOp5
 70
     1
102
RTVSPropertyOp6
 70
     1
102
RTVSPropertyOp7
 70
     1
102
RTVSPropertyOp8
 70
     1
102
RTVSPropertyOp9
 70
     1
102
RTVSPropertyOp10
 70
     1
102
RTVSPropertyOp11
 70
     1
102
RTVSPropertyOp12
 70
     1
102
RTVSPropertyOp13
 70
     1
102
RTVSPropertyOp14
 70
     1
102
RTVSPropertyOp15
 70
     1
102
RTVSPropertyOp16
 70
     1
102
RTVSPropertyOp17
 70
     1
102
RTVSPropertyOp18
 70
     1
102
RTVSPropertyOp19
 70
     1
102
RTVSPropertyOp20
 70
     1
102
RTVSPropertyOp21
 70
     1
102
RTVSPropertyOp22
 70
     1
102
RTVSPropertyOp23
 70
     1
102
RTVSPropertyOp24
 70
     1
102
RTVSPropertyOp25
 70
     1
102
RTVSPropertyOp26
 70
     1
102
RTVSPropertyOp27
 70
     1
102
RTVSPropertyOp28
 70
     1
102
RTVSPropertyOp29
 70
     1
102
RTVSPropertyOp30
 70
     1
102
RTVSPropertyOp31
 70
     1
102
RTVSPropertyOp32
 70
     1
  0
XRECORD
  5
A3
102
{ACAD_REACTORS
330
A2
102
}
330
A2
100
AcDbXrecord
280
     1
102
RTVSPropertyOp0
 70
     1
102
RTVSPropertyOp1
 70
     1
102
RTVSPropertyOp2
 70
     1
102
RTVSPropertyOp3
 70
     1
102
RTVSPropertyOp4
 70
     1
102
RTVSPropertyOp5
 70
     1
102
RTVSPropertyOp6
 70
     1
102
RTVSPropertyOp7
 70
     1
102
RTVSPropertyOp8
 70
     1
102
RTVSPropertyOp9
 70
     1
102
RTVSPropertyOp10
 70
     1
102
RTVSPropertyOp11
 70
     1
102
RTVSPropertyOp12
 70
     1
102
RTVSPropertyOp13
 70
     1
102
RTVSPropertyOp14
 70
     1
102
RTVSPropertyOp15
 70
     1
102
RTVSPropertyOp16
 70
     1
102
RTVSPropertyOp17
 70
     1
102
RTVSPropertyOp18
 70
     1
102
RTVSPropertyOp19
 70
     1
102
RTVSPropertyOp20
 70
     1
102
RTVSPropertyOp21
 70
     1
102
RTVSPropertyOp22
 70
     1
102
RTVSPropertyOp23
 70
     1
102
RTVSPropertyOp24
 70
     1
102
RTVSPropertyOp25
 70
     1
102
RTVSPropertyOp26
 70
     1
102
RTVSPropertyOp27
 70
     1
102
RTVSPropertyOp28
 70
     1
102
RTVSPropertyOp29
 70
     1
102
RTVSPropertyOp30
 70
     1
102
RTVSPropertyOp31
 70
     1
102
RTVSPropertyOp32
 70
     1
  0
XRECORD
  5
A1
102
{ACAD_REACTORS
330
A0
102
}
330
A0
100
AcDbXrecord
280
     1
102
RTVSPropertyOp0
 70
     1
102
RTVSPropertyOp1
 70
     1
102
RTVSPropertyOp2
 70
     1
102
RTVSPropertyOp3
 70
     1
102
RTVSPropertyOp4
 70
     1
102
RTVSPropertyOp5
 70
     1
102
RTVSPropertyOp6
 70
     1
102
RTVSPropertyOp7
 70
     1
102
RTVSPropertyOp8
 70
     1
102
RTVSPropertyOp9
 70
     1
102
RTVSPropertyOp10
 70
     1
102
RTVSPropertyOp11
 70
     1
102
RTVSPropertyOp12
 70
     1
102
RTVSPropertyOp13
 70
     1
102
RTVSPropertyOp14
 70
     1
102
RTVSPropertyOp15
 70
     1
102
RTVSPropertyOp16
 70
     1
102
RTVSPropertyOp17
 70
     1
102
RTVSPropertyOp18
 70
     1
102
RTVSPropertyOp19
 70
     1
102
RTVSPropertyOp20
 70
     1
102
RTVSPropertyOp21
 70
     1
102
RTVSPropertyOp22
 70
     1
102
RTVSPropertyOp23
 70
     1
102
RTVSPropertyOp24
 70
     1
102
RTVSPropertyOp25
 70
     1
102
RTVSPropertyOp26
 70
     1
102
RTVSPropertyOp27
 70
     1
102
RTVSPropertyOp28
 70
     1
102
RTVSPropertyOp29
 70
     1
102
RTVSPropertyOp30
 70
     1
102
RTVSPropertyOp31
 70
     1
102
RTVSPropertyOp32
 70
     1
  0
XRECORD
  5
A5
102
{ACAD_REACTORS
330
A4
102
}
330
A4
100
AcDbXrecord
280
     1
102
RTVSPropertyOp0
 70
     1
102
RTVSPropertyOp1
 70
     1
102
RTVSPropertyOp2
 70
     1
102
RTVSPropertyOp3
 70
     1
102
RTVSPropertyOp4
 70
     1
102
RTVSPropertyOp5
 70
     1
102
RTVSPropertyOp6
 70
     1
102
RTVSPropertyOp7
 70
     1
102
RTVSPropertyOp8
 70
     1
102
RTVSPropertyOp9
 70
     1
102
RTVSPropertyOp10
 70
     1
102
RTVSPropertyOp11
 70
     1
102
RTVSPropertyOp12
 70
     1
102
RTVSPropertyOp13
 70
     1
102
RTVSPropertyOp14
 70
     1
102
RTVSPropertyOp15
 70
     1
102
RTVSPropertyOp16
 70
     1
102
RTVSPropertyOp17
 70
     1
102
RTVSPropertyOp18
 70
     1
102
RTVSPropertyOp19
 70
     1
102
RTVSPropertyOp20
 70
     1
102
RTVSPropertyOp21
 70
     1
102
RTVSPropertyOp22
 70
     1
102
RTVSPropertyOp23
 70
     1
102
RTVSPropertyOp24
 70
     1
102
RTVSPropertyOp25
 70
     1
102
RTVSPropertyOp26
 70
     1
102
RTVSPropertyOp27
 70
     1
102
RTVSPropertyOp28
 70
     1
102
RTVSPropertyOp29
 70
     1
102
RTVSPropertyOp30
 70
     1
102
RTVSPropertyOp31
 70
     1
102
RTVSPropertyOp32
 70
     1
  0
XRECORD
  5
AD
102
{ACAD_REACTORS
330
AC
102
}
330
AC
100
AcDbXrecord
280
     1
102
RTVSPropertyOp0
 70
     1
102
RTVSPropertyOp1
 70
     1
102
RTVSPropertyOp2
 70
     1
102
RTVSPropertyOp3
 70
     1
102
RTVSPropertyOp4
 70
     1
102
RTVSPropertyOp5
 70
     1
102
RTVSPropertyOp6
 70
     1
102
RTVSPropertyOp7
 70
     1
102
RTVSPropertyOp8
 70
     1
102
RTVSPropertyOp9
 70
     1
102
RTVSPropertyOp10
 70
     1
102
RTVSPropertyOp11
 70
     1
102
RTVSPropertyOp12
 70
     1
102
RTVSPropertyOp13
 70
     1
102
RTVSPropertyOp14
 70
     1
102
RTVSPropertyOp15
 70
     1
102
RTVSPropertyOp16
 70
     1
102
RTVSPropertyOp17
 70
     1
102
RTVSPropertyOp18
 70
     1
102
RTVSPropertyOp19
 70
     1
102
RTVSPropertyOp20
 70
     1
102
RTVSPropertyOp21
 70
     1
102
RTVSPropertyOp22
 70
     1
102
RTVSPropertyOp23
 70
     1
102
RTVSPropertyOp24
 70
     1
102
RTVSPropertyOp25
 70
     1
102
RTVSPropertyOp26
 70
     1
102
RTVSPropertyOp27
 70
     1
102
RTVSPropertyOp28
 70
     1
102
RTVSPropertyOp29
 70
     1
102
RTVSPropertyOp30
 70
     1
102
RTVSPropertyOp31
 70
     1
102
RTVSPropertyOp32
 70
     1
  0
XRECORD
  5
B5
102
{ACAD_REACTORS
330
B4
102
}
330
B4
100
AcDbXrecord
280
     1
102
RTVSPropertyOp0
 70
     1
102
RTVSPropertyOp1
 70
     1
102
RTVSPropertyOp2
 70
     1
102
RTVSPropertyOp3
 70
     1
102
RTVSPropertyOp4
 70
     1
102
RTVSPropertyOp5
 70
     1
102
RTVSPropertyOp6
 70
     1
102
RTVSPropertyOp7
 70
     1
102
RTVSPropertyOp8
 70
     1
102
RTVSPropertyOp9
 70
     1
102
RTVSPropertyOp10
 70
     1
102
RTVSPropertyOp11
 70
     1
102
RTVSPropertyOp12
 70
     1
102
RTVSPropertyOp13
 70
     1
102
RTVSPropertyOp14
 70
     1
102
RTVSPropertyOp15
 70
     1
102
RTVSPropertyOp16
 70
     1
102
RTVSPropertyOp17
 70
     1
102
RTVSPropertyOp18
 70
     1
102
RTVSPropertyOp19
 70
     1
102
RTVSPropertyOp20
 70
     1
102
RTVSPropertyOp21
 70
     1
102
RTVSPropertyOp22
 70
     1
102
RTVSPropertyOp23
 70
     1
102
RTVSPropertyOp24
 70
     1
102
RTVSPropertyOp25
 70
     1
102
RTVSPropertyOp26
 70
     1
102
RTVSPropertyOp27
 70
     1
102
RTVSPropertyOp28
 70
     1
102
RTVSPropertyOp29
 70
     1
102
RTVSPropertyOp30
 70
     1
102
RTVSPropertyOp31
 70
     1
102
RTVSPropertyOp32
 70
     1
  0
XRECORD
  5
A9
102
{ACAD_REACTORS
330
A8
102
}
330
A8
100
AcDbXrecord
280
     1
102
RTVSPropertyOp0
 70
     1
102
RTVSPropertyOp1
 70
     1
102
RTVSPropertyOp2
 70
     1
102
RTVSPropertyOp3
 70
     1
102
RTVSPropertyOp4
 70
     1
102
RTVSPropertyOp5
 70
     1
102
RTVSPropertyOp6
 70
     1
102
RTVSPropertyOp7
 70
     1
102
RTVSPropertyOp8
 70
     1
102
RTVSPropertyOp9
 70
     1
102
RTVSPropertyOp10
 70
     1
102
RTVSPropertyOp11
 70
     1
102
RTVSPropertyOp12
 70
     1
102
RTVSPropertyOp13
 70
     1
102
RTVSPropertyOp14
 70
     1
102
RTVSPropertyOp15
 70
     1
102
RTVSPropertyOp16
 70
     1
102
RTVSPropertyOp17
 70
     1
102
RTVSPropertyOp18
 70
     1
102
RTVSPropertyOp19
 70
     1
102
RTVSPropertyOp20
 70
     1
102
RTVSPropertyOp21
 70
     1
102
RTVSPropertyOp22
 70
     1
102
RTVSPropertyOp23
 70
     1
102
RTVSPropertyOp24
 70
     1
102
RTVSPropertyOp25
 70
     1
102
RTVSPropertyOp26
 70
     1
102
RTVSPropertyOp27
 70
     1
102
RTVSPropertyOp28
 70
     1
102
RTVSPropertyOp29
 70
     1
102
RTVSPropertyOp30
 70
     1
102
RTVSPropertyOp31
 70
     1
102
RTVSPropertyOp32
 70
     1
  0
XRECORD
  5
AB
102
{ACAD_REACTORS
330
AA
102
}
330
AA
100
AcDbXrecord
280
     1
102
RTVSPropertyOp0
 70
     1
102
RTVSPropertyOp1
 70
     1
102
RTVSPropertyOp2
 70
     1
102
RTVSPropertyOp3
 70
     1
102
RTVSPropertyOp4
 70
     1
102
RTVSPropertyOp5
 70
     1
102
RTVSPropertyOp6
 70
     1
102
RTVSPropertyOp7
 70
     1
102
RTVSPropertyOp8
 70
     1
102
RTVSPropertyOp9
 70
     1
102
RTVSPropertyOp10
 70
     1
102
RTVSPropertyOp11
 70
     1
102
RTVSPropertyOp12
 70
     1
102
RTVSPropertyOp13
 70
     1
102
RTVSPropertyOp14
 70
     1
102
RTVSPropertyOp15
 70
     1
102
RTVSPropertyOp16
 70
     1
102
RTVSPropertyOp17
 70
     1
102
RTVSPropertyOp18
 70
     1
102
RTVSPropertyOp19
 70
     1
102
RTVSPropertyOp20
 70
     1
102
RTVSPropertyOp21
 70
     1
102
RTVSPropertyOp22
 70
     1
102
RTVSPropertyOp23
 70
     1
102
RTVSPropertyOp24
 70
     1
102
RTVSPropertyOp25
 70
     1
102
RTVSPropertyOp26
 70
     1
102
RTVSPropertyOp27
 70
     1
102
RTVSPropertyOp28
 70
     1
102
RTVSPropertyOp29
 70
     1
102
RTVSPropertyOp30
 70
     1
102
RTVSPropertyOp31
 70
     1
102
RTVSPropertyOp32
 70
     1
  0
XRECORD
  5
B3
102
{ACAD_REACTORS
330
B2
102
}
330
B2
100
AcDbXrecord
280
     1
102
RTVSPropertyOp0
 70
     1
102
RTVSPropertyOp1
 70
     1
102
RTVSPropertyOp2
 70
     1
102
RTVSPropertyOp3
 70
     1
102
RTVSPropertyOp4
 70
     1
102
RTVSPropertyOp5
 70
     1
102
RTVSPropertyOp6
 70
     1
102
RTVSPropertyOp7
 70
     1
102
RTVSPropertyOp8
 70
     1
102
RTVSPropertyOp9
 70
     1
102
RTVSPropertyOp10
 70
     1
102
RTVSPropertyOp11
 70
     1
102
RTVSPropertyOp12
 70
     1
102
RTVSPropertyOp13
 70
     1
102
RTVSPropertyOp14
 70
     1
102
RTVSPropertyOp15
 70
     1
102
RTVSPropertyOp16
 70
     1
102
RTVSPropertyOp17
 70
     1
102
RTVSPropertyOp18
 70
     1
102
RTVSPropertyOp19
 70
     1
102
RTVSPropertyOp20
 70
     1
102
RTVSPropertyOp21
 70
     1
102
RTVSPropertyOp22
 70
     1
102
RTVSPropertyOp23
 70
     1
102
RTVSPropertyOp24
 70
     1
102
RTVSPropertyOp25
 70
     1
102
RTVSPropertyOp26
 70
     1
102
RTVSPropertyOp27
 70
     1
102
RTVSPropertyOp28
 70
     1
102
RTVSPropertyOp29
 70
     1
102
RTVSPropertyOp30
 70
     1
102
RTVSPropertyOp31
 70
     1
102
RTVSPropertyOp32
 70
     1
  0
XRECORD
  5
97
102
{ACAD_REACTORS
330
96
102
}
330
96
100
AcDbXrecord
280
     1
102
RTVSPropertyOp0
 70
     1
102
RTVSPropertyOp1
 70
     1
102
RTVSPropertyOp2
 70
     1
102
RTVSPropertyOp3
 70
     1
102
RTVSPropertyOp4
 70
     1
102
RTVSPropertyOp5
 70
     1
102
RTVSPropertyOp6
 70
     1
102
RTVSPropertyOp7
 70
     1
102
RTVSPropertyOp8
 70
     1
102
RTVSPropertyOp9
 70
     1
102
RTVSPropertyOp10
 70
     1
102
RTVSPropertyOp11
 70
     1
102
RTVSPropertyOp12
 70
     1
102
RTVSPropertyOp13
 70
     1
102
RTVSPropertyOp14
 70
     1
102
RTVSPropertyOp15
 70
     1
102
RTVSPropertyOp16
 70
     1
102
RTVSPropertyOp17
 70
     1
102
RTVSPropertyOp18
 70
     1
102
RTVSPropertyOp19
 70
     1
102
RTVSPropertyOp20
 70
     1
102
RTVSPropertyOp21
 70
     1
102
RTVSPropertyOp22
 70
     1
102
RTVSPropertyOp23
 70
     1
102
RTVSPropertyOp24
 70
     1
102
RTVSPropertyOp25
 70
     1
102
RTVSPropertyOp26
 70
     1
102
RTVSPropertyOp27
 70
     1
102
RTVSPropertyOp28
 70
     1
102
RTVSPropertyOp29
 70
     1
102
RTVSPropertyOp30
 70
     1
102
RTVSPropertyOp31
 70
     1
102
RTVSPropertyOp32
 70
     1
  0
XRECORD
  5
99
102
{ACAD_REACTORS
330
98
102
}
330
98
100
AcDbXrecord
280
     1
102
RTVSPropertyOp0
 70
     1
102
RTVSPropertyOp1
 70
     1
102
RTVSPropertyOp2
 70
     1
102
RTVSPropertyOp3
 70
     1
102
RTVSPropertyOp4
 70
     1
102
RTVSPropertyOp5
 70
     1
102
RTVSPropertyOp6
 70
     1
102
RTVSPropertyOp7
 70
     1
102
RTVSPropertyOp8
 70
     1
102
RTVSPropertyOp9
 70
     1
102
RTVSPropertyOp10
 70
     1
102
RTVSPropertyOp11
 70
     1
102
RTVSPropertyOp12
 70
     1
102
RTVSPropertyOp13
 70
     1
102
RTVSPropertyOp14
 70
     1
102
RTVSPropertyOp15
 70
     1
102
RTVSPropertyOp16
 70
     1
102
RTVSPropertyOp17
 70
     1
102
RTVSPropertyOp18
 70
     1
102
RTVSPropertyOp19
 70
     1
102
RTVSPropertyOp20
 70
     1
102
RTVSPropertyOp21
 70
     1
102
RTVSPropertyOp22
 70
     1
102
RTVSPropertyOp23
 70
     1
102
RTVSPropertyOp24
 70
     1
102
RTVSPropertyOp25
 70
     1
102
RTVSPropertyOp26
 70
     1
102
RTVSPropertyOp27
 70
     1
102
RTVSPropertyOp28
 70
     1
102
RTVSPropertyOp29
 70
     1
102
RTVSPropertyOp30
 70
     1
102
RTVSPropertyOp31
 70
     1
102
RTVSPropertyOp32
 70
     1
  0
XRECORD
  5
9B
102
{ACAD_REACTORS
330
9A
102
}
330
9A
100
AcDbXrecord
280
     1
102
RTVSPropertyOp0
 70
     1
102
RTVSPropertyOp1
 70
     1
102
RTVSPropertyOp2
 70
     1
102
RTVSPropertyOp3
 70
     1
102
RTVSPropertyOp4
 70
     1
102
RTVSPropertyOp5
 70
     1
102
RTVSPropertyOp6
 70
     1
102
RTVSPropertyOp7
 70
     1
102
RTVSPropertyOp8
 70
     1
102
RTVSPropertyOp9
 70
     1
102
RTVSPropertyOp10
 70
     1
102
RTVSPropertyOp11
 70
     1
102
RTVSPropertyOp12
 70
     1
102
RTVSPropertyOp13
 70
     1
102
RTVSPropertyOp14
 70
     1
102
RTVSPropertyOp15
 70
     1
102
RTVSPropertyOp16
 70
     1
102
RTVSPropertyOp17
 70
     1
102
RTVSPropertyOp18
 70
     1
102
RTVSPropertyOp19
 70
     1
102
RTVSPropertyOp20
 70
     1
102
RTVSPropertyOp21
 70
     1
102
RTVSPropertyOp22
 70
     1
102
RTVSPropertyOp23
 70
     1
102
RTVSPropertyOp24
 70
     1
102
RTVSPropertyOp25
 70
     1
102
RTVSPropertyOp26
 70
     1
102
RTVSPropertyOp27
 70
     1
102
RTVSPropertyOp28
 70
     1
102
RTVSPropertyOp29
 70
     1
102
RTVSPropertyOp30
 70
     1
102
RTVSPropertyOp31
 70
     1
102
RTVSPropertyOp32
 70
     1
  0
XRECORD
  5
9D
102
{ACAD_REACTORS
330
9C
102
}
330
9C
100
AcDbXrecord
280
     1
102
RTVSPropertyOp0
 70
     1
102
RTVSPropertyOp1
 70
     1
102
RTVSPropertyOp2
 70
     1
102
RTVSPropertyOp3
 70
     1
102
RTVSPropertyOp4
 70
     1
102
RTVSPropertyOp5
 70
     1
102
RTVSPropertyOp6
 70
     1
102
RTVSPropertyOp7
 70
     1
102
RTVSPropertyOp8
 70
     1
102
RTVSPropertyOp9
 70
     1
102
RTVSPropertyOp10
 70
     1
102
RTVSPropertyOp11
 70
     1
102
RTVSPropertyOp12
 70
     1
102
RTVSPropertyOp13
 70
     1
102
RTVSPropertyOp14
 70
     1
102
RTVSPropertyOp15
 70
     1
102
RTVSPropertyOp16
 70
     1
102
RTVSPropertyOp17
 70
     1
102
RTVSPropertyOp18
 70
     1
102
RTVSPropertyOp19
 70
     1
102
RTVSPropertyOp20
 70
     1
102
RTVSPropertyOp21
 70
     1
102
RTVSPropertyOp22
 70
     1
102
RTVSPropertyOp23
 70
     1
102
RTVSPropertyOp24
 70
     1
102
RTVSPropertyOp25
 70
     1
102
RTVSPropertyOp26
 70
     1
102
RTVSPropertyOp27
 70
     1
102
RTVSPropertyOp28
 70
     1
102
RTVSPropertyOp29
 70
     1
102
RTVSPropertyOp30
 70
     1
102
RTVSPropertyOp31
 70
     1
102
RTVSPropertyOp32
 70
     1
  0
XRECORD
  5
B1
102
{ACAD_REACTORS
330
B0
102
}
330
B0
100
AcDbXrecord
280
     1
102
RTVSPropertyOp0
 70
     1
102
RTVSPropertyOp1
 70
     1
102
RTVSPropertyOp2
 70
     1
102
RTVSPropertyOp3
 70
     1
102
RTVSPropertyOp4
 70
     1
102
RTVSPropertyOp5
 70
     1
102
RTVSPropertyOp6
 70
     1
102
RTVSPropertyOp7
 70
     1
102
RTVSPropertyOp8
 70
     1
102
RTVSPropertyOp9
 70
     1
102
RTVSPropertyOp10
 70
     1
102
RTVSPropertyOp11
 70
     1
102
RTVSPropertyOp12
 70
     1
102
RTVSPropertyOp13
 70
     1
102
RTVSPropertyOp14
 70
     1
102
RTVSPropertyOp15
 70
     1
102
RTVSPropertyOp16
 70
     1
102
RTVSPropertyOp17
 70
     1
102
RTVSPropertyOp18
 70
     1
102
RTVSPropertyOp19
 70
     1
102
RTVSPropertyOp20
 70
     1
102
RTVSPropertyOp21
 70
     1
102
RTVSPropertyOp22
 70
     1
102
RTVSPropertyOp23
 70
     1
102
RTVSPropertyOp24
 70
     1
102
RTVSPropertyOp25
 70
     1
102
RTVSPropertyOp26
 70
     1
102
RTVSPropertyOp27
 70
     1
102
RTVSPropertyOp28
 70
     1
102
RTVSPropertyOp29
 70
     1
102
RTVSPropertyOp30
 70
     1
102
RTVSPropertyOp31
 70
     1
102
RTVSPropertyOp32
 70
     1
  0
XRECORD
  5
A7
102
{ACAD_REACTORS
330
A6
102
}
330
A6
100
AcDbXrecord
280
     1
102
RTVSPropertyOp0
 70
     1
102
RTVSPropertyOp1
 70
     1
102
RTVSPropertyOp2
 70
     1
102
RTVSPropertyOp3
 70
     1
102
RTVSPropertyOp4
 70
     1
102
RTVSPropertyOp5
 70
     1
102
RTVSPropertyOp6
 70
     1
102
RTVSPropertyOp7
 70
     1
102
RTVSPropertyOp8
 70
     1
102
RTVSPropertyOp9
 70
     1
102
RTVSPropertyOp10
 70
     1
102
RTVSPropertyOp11
 70
     1
102
RTVSPropertyOp12
 70
     1
102
RTVSPropertyOp13
 70
     1
102
RTVSPropertyOp14
 70
     1
102
RTVSPropertyOp15
 70
     1
102
RTVSPropertyOp16
 70
     1
102
RTVSPropertyOp17
 70
     1
102
RTVSPropertyOp18
 70
     1
102
RTVSPropertyOp19
 70
     1
102
RTVSPropertyOp20
 70
     1
102
RTVSPropertyOp21
 70
     1
102
RTVSPropertyOp22
 70
     1
102
RTVSPropertyOp23
 70
     1
102
RTVSPropertyOp24
 70
     1
102
RTVSPropertyOp25
 70
     1
102
RTVSPropertyOp26
 70
     1
102
RTVSPropertyOp27
 70
     1
102
RTVSPropertyOp28
 70
     1
102
RTVSPropertyOp29
 70
     1
102
RTVSPropertyOp30
 70
     1
102
RTVSPropertyOp31
 70
     1
102
RTVSPropertyOp32
 70
     1
  0
XRECORD
  5
AF
102
{ACAD_REACTORS
330
AE
102
}
330
AE
100
AcDbXrecord
280
     1
102
RTVSPropertyOp0
 70
     1
102
RTVSPropertyOp1
 70
     1
102
RTVSPropertyOp2
 70
     1
102
RTVSPropertyOp3
 70
     1
102
RTVSPropertyOp4
 70
     1
102
RTVSPropertyOp5
 70
     1
102
RTVSPropertyOp6
 70
     1
102
RTVSPropertyOp7
 70
     1
102
RTVSPropertyOp8
 70
     1
102
RTVSPropertyOp9
 70
     1
102
RTVSPropertyOp10
 70
     1
102
RTVSPropertyOp11
 70
     1
102
RTVSPropertyOp12
 70
     1
102
RTVSPropertyOp13
 70
     1
102
RTVSPropertyOp14
 70
     1
102
RTVSPropertyOp15
 70
     1
102
RTVSPropertyOp16
 70
     1
102
RTVSPropertyOp17
 70
     1
102
RTVSPropertyOp18
 70
     1
102
RTVSPropertyOp19
 70
     1
102
RTVSPropertyOp20
 70
     1
102
RTVSPropertyOp21
 70
     1
102
RTVSPropertyOp22
 70
     1
102
RTVSPropertyOp23
 70
     1
102
RTVSPropertyOp24
 70
     1
102
RTVSPropertyOp25
 70
     1
102
RTVSPropertyOp26
 70
     1
102
RTVSPropertyOp27
 70
     1
102
RTVSPropertyOp28
 70
     1
102
RTVSPropertyOp29
 70
     1
102
RTVSPropertyOp30
 70
     1
102
RTVSPropertyOp31
 70
     1
102
RTVSPropertyOp32
 70
     1
  0
ENDSEC
  0
EOF
