  0
SECTION
  2
HEADER
  9
$ACADVER
  1
AC1021
  9
$ACADMAINTVER
 70
    25
  9
$DWGCODEPAGE
  3
ANSI_1252
  9
$INSBASE
 10
0.0
 20
0.0
 30
0.0
  9
$EXTMIN
 10
-179.7554
 20
-115.288
 30
0.0
  9
$EXTMAX
 10
-15.9618
 20
131.614
 30
0.0
  9
$LIMMIN
 10
0.0
 20
0.0
  9
$LIMMAX
 10
12.0
 20
9.0
  9
$ORTHOMODE
 70
     0
  9
$REGENMODE
 70
     1
  9
$FILLMODE
 70
     1
  9
$QTEXTMODE
 70
     0
  9
$MIRRTEXT
 70
     1
  9
$LTSCALE
 40
1.0
  9
$ATTMODE
 70
     1
  9
$TEXTSIZE
 40
0.2
  9
$TRACEWID
 40
0.05
  9
$TEXTSTYLE
  7
Standard
  9
$CLAYER
  8
0
  9
$CELTYPE
  6
ByLayer
  9
$CECOLOR
 62
   256
  9
$CELTSCALE
 40
1.0
  9
$DISPSILH
 70
     0
  9
$DIMSCALE
 40
1.0
  9
$DIMASZ
 40
0.18
  9
$DIMEXO
 40
0.0625
  9
$DIMDLI
 40
0.38
  9
$DIMRND
 40
0.0
  9
$DIMDLE
 40
0.0
  9
$DIMEXE
 40
0.18
  9
$DIMTP
 40
0.0
  9
$DIMTM
 40
0.0
  9
$DIMTXT
 40
0.18
  9
$DIMCEN
 40
0.09
  9
$DIMTSZ
 40
0.0
  9
$DIMTOL
 70
     0
  9
$DIMLIM
 70
     0
  9
$DIMTIH
 70
     1
  9
$DIMTOH
 70
     1
  9
$DIMSE1
 70
     0
  9
$DIMSE2
 70
     0
  9
$DIMTAD
 70
     0
  9
$DIMZIN
 70
     0
  9
$DIMBLK
  1

  9
$DIMASO
 70
     1
  9
$DIMSHO
 70
     1
  9
$DIMPOST
  1

  9
$DIMAPOST
  1

  9
$DIMALT
 70
     0
  9
$DIMALTD
 70
     2
  9
$DIMALTF
 40
25.4
  9
$DIMLFAC
 40
1.0
  9
$DIMTOFL
 70
     0
  9
$DIMTVP
 40
0.0
  9
$DIMTIX
 70
     0
  9
$DIMSOXD
 70
     0
  9
$DIMSAH
 70
     0
  9
$DIMBLK1
  1

  9
$DIMBLK2
  1

  9
$DIMSTYLE
  2
Standard
  9
$DIMCLRD
 70
     0
  9
$DIMCLRE
 70
     0
  9
$DIMCLRT
 70
     0
  9
$DIMTFAC
 40
1.0
  9
$DIMGAP
 40
0.09
  9
$DIMJUST
 70
     0
  9
$DIMSD1
 70
     0
  9
$DIMSD2
 70
     0
  9
$DIMTOLJ
 70
     1
  9
$DIMTZIN
 70
     0
  9
$DIMALTZ
 70
     0
  9
$DIMALTTZ
 70
     0
  9
$DIMUPT
 70
     0
  9
$DIMDEC
 70
     4
  9
$DIMTDEC
 70
     4
  9
$DIMALTU
 70
     2
  9
$DIMALTTD
 70
     2
  9
$DIMTXSTY
  7
Standard
  9
$DIMAUNIT
 70
     0
  9
$DIMADEC
 70
     0
  9
$DIMALTRND
 40
0.0
  9
$DIMAZIN
 70
     0
  9
$DIMDSEP
 70
    46
  9
$DIMATFIT
 70
     3
  9
$DIMFRAC
 70
     0
  9
$DIMLDRBLK
  1

  9
$DIMLUNIT
 70
     2
  9
$DIMLWD
 70
    -2
  9
$DIMLWE
 70
    -2
  9
$DIMTMOVE
 70
     0
  9
$DIMFXL
 40
1.0
  9
$DIMFXLON
 70
     0
  9
$DIMJOGANG
 40
0.7853981633974483
  9
$DIMTFILL
 70
     0
  9
$DIMTFILLCLR
 70
     0
  9
$DIMARCSYM
 70
     0
  9
$DIMLTYPE
  6

  9
$DIMLTEX1
  6

  9
$DIMLTEX2
  6

  9
$LUNITS
 70
     2
  9
$LUPREC
 70
     4
  9
$SKETCHINC
 40
0.1
  9
$FILLETRAD
 40
0.5
  9
$AUNITS
 70
     0
  9
$AUPREC
 70
     0
  9
$MENU
  1
.
  9
$ELEVATION
 40
0.0
  9
$PELEVATION
 40
0.0
  9
$THICKNESS
 40
0.0
  9
$LIMCHECK
 70
     0
  9
$CHAMFERA
 40
0.5
  9
$CHAMFERB
 40
0.5
  9
$CHAMFERC
 40
1.0
  9
$CHAMFERD
 40
0.0
  9
$SKPOLY
 70
     0
  9
$TDCREATE
 40
2458492.77352125
  9
$TDUCREATE
 40
2458492.77352125
  9
$TDUPDATE
 40
2458492.773521447
  9
$TDUUPDATE
 40
2458492.773521447
  9
$TDINDWG
 40
0.0000000116
  9
$TDUSRTIMER
 40
0.0000000116
  9
$USRTIMER
 70
     1
  9
$ANGBASE
 50
0.0
  9
$ANGDIR
 70
     0
  9
$PDMODE
 70
     0
  9
$PDSIZE
 40
0.0
  9
$PLINEWID
 40
0.0
  9
$SPLFRAME
 70
     0
  9
$SPLINETYPE
 70
     6
  9
$SPLINESEGS
 70
     8
  9
$HANDSEED
  5
F0
  9
$SURFTAB1
 70
     6
  9
$SURFTAB2
 70
     6
  9
$SURFTYPE
 70
     6
  9
$SURFU
 70
     6
  9
$SURFV
 70
     6
  9
$UCSBASE
  2

  9
$UCSNAME
  2

  9
$UCSORG
 10
0.0
 20
0.0
 30
0.0
  9
$UCSXDIR
 10
1.0
 20
0.0
 30
0.0
  9
$UCSYDIR
 10
0.0
 20
1.0
 30
0.0
  9
$UCSORTHOREF
  2

  9
$UCSORTHOVIEW
 70
     0
  9
$UCSORGTOP
 10
0.0
 20
0.0
 30
0.0
  9
$UCSORGBOTTOM
 10
0.0
 20
0.0
 30
0.0
  9
$UCSORGLEFT
 10
0.0
 20
0.0
 30
0.0
  9
$UCSORGRIGHT
 10
0.0
 20
0.0
 30
0.0
  9
$UCSORGFRONT
 10
0.0
 20
0.0
 30
0.0
  9
$UCSORGBACK
 10
0.0
 20
0.0
 30
0.0
  9
$PUCSBASE
  2

  9
$PUCSNAME
  2

  9
$PUCSORG
 10
0.0
 20
0.0
 30
0.0
  9
$PUCSXDIR
 10
1.0
 20
0.0
 30
0.0
  9
$PUCSYDIR
 10
0.0
 20
1.0
 30
0.0
  9
$PUCSORTHOREF
  2

  9
$PUCSORTHOVIEW
 70
     0
  9
$PUCSORGTOP
 10
0.0
 20
0.0
 30
0.0
  9
$PUCSORGBOTTOM
 10
0.0
 20
0.0
 30
0.0
  9
$PUCSORGLEFT
 10
0.0
 20
0.0
 30
0.0
  9
$PUCSORGRIGHT
 10
0.0
 20
0.0
 30
0.0
  9
$PUCSORGFRONT
 10
0.0
 20
0.0
 30
0.0
  9
$PUCSORGBACK
 10
0.0
 20
0.0
 30
0.0
  9
$USERI1
 70
     0
  9
$USERI2
 70
     0
  9
$USERI3
 70
     0
  9
$USERI4
 70
     0
  9
$USERI5
 70
     0
  9
$USERR1
 40
0.0
  9
$USERR2
 40
0.0
  9
$USERR3
 40
0.0
  9
$USERR4
 40
0.0
  9
$USERR5
 40
0.0
  9
$WORLDVIEW
 70
     1
  9
$SHADEDGE
 70
     3
  9
$SHADEDIF
 70
    70
  9
$TILEMODE
 70
     1
  9
$MAXACTVP
 70
    64
  9
$PINSBASE
 10
0.0
 20
0.0
 30
0.0
  9
$PLIMCHECK
 70
     0
  9
$PEXTMIN
 10
1.000000000000000E+20
 20
1.000000000000000E+20
 30
1.000000000000000E+20
  9
$PEXTMAX
 10
-1.000000000000000E+20
 20
-1.000000000000000E+20
 30
-1.000000000000000E+20
  9
$PLIMMIN
 10
0.0
 20
0.0
  9
$PLIMMAX
 10
12.0
 20
9.0
  9
$UNITMODE
 70
     0
  9
$VISRETAIN
 70
     1
  9
$PLINEGEN
 70
     0
  9
$PSLTSCALE
 70
     1
  9
$TREEDEPTH
 70
  3020
  9
$CMLSTYLE
  2
Standard
  9
$CMLJUST
 70
     0
  9
$CMLSCALE
 40
1.0
  9
$PROXYGRAPHICS
 70
     1
  9
$MEASUREMENT
 70
     0
  9
$CELWEIGHT
370
    -1
  9
$ENDCAPS
280
     0
  9
$JOINSTYLE
280
     0
  9
$LWDISPLAY
290
     0
  9
$INSUNITS
 70
     4
  9
$HYPERLINKBASE
  1

  9
$STYLESHEET
  1

  9
$XEDIT
290
     1
  9
$CEPSNTYPE
380
     0
  9
$PSTYLEMODE
290
     1
  9
$FINGERPRINTGUID
  2
{0A82E3D9-618C-4F1C-BC07-F12B79D85725}
  9
$VERSIONGUID
  2
{FAEB1C32-E019-11D5-929B-00C0DF256EC4}
  9
$EXTNAMES
290
     1
  9
$PSVPSCALE
 40
0.0
  9
$OLESTARTUP
290
     0
  9
$SORTENTS
280
   127
  9
$INDEXCTL
280
     0
  9
$HIDETEXT
280
     1
  9
$XCLIPFRAME
290
     0
  9
$HALOGAP
280
     0
  9
$OBSCOLOR
 70
   257
  9
$OBSLTYPE
280
     0
  9
$INTERSECTIONDISPLAY
280
     0
  9
$INTERSECTIONCOLOR
 70
   257
  9
$DIMASSOC
280
     2
  9
$PROJECTNAME
  1

  9
$CAMERADISPLAY
290
     0
  9
$LENSLENGTH
 40
50.0
  9
$CAMERAHEIGHT
 40
0.0
  9
$STEPSPERSEC
 40
2.0
  9
$STEPSIZE
 40
6.0
  9
$3DDWFPREC
 40
2.0
  9
$PSOLWIDTH
 40
0.25
  9
$PSOLHEIGHT
 40
4.0
  9
$LOFTANG1
 40
1.570796326794897
  9
$LOFTANG2
 40
1.570796326794897
  9
$LOFTMAG1
 40
0.0
  9
$LOFTMAG2
 40
0.0
  9
$LOFTPARAM
 70
     7
  9
$LOFTNORMALS
280
     1
  9
$LATITUDE
 40
37.795
  9
$LONGITUDE
 40
-122.394
  9
$NORTHDIRECTION
 40
0.0
  9
$TIMEZONE
 70
 -8000
  9
$LIGHTGLYPHDISPLAY
280
     1
  9
$TILEMODELIGHTSYNCH
280
     1
  9
$SOLIDHIST
280
     1
  9
$SHOWHIST
280
     1
  9
$DWFFRAME
280
     2
  9
$DGNFRAME
280
     2
  9
$REALWORLDSCALE
290
     1
  9
$INTERFERECOLOR
 62
   256
  9
$CSHADOW
280
     0
  9
$SHADOWPLANELOCATION
 40
0.0
  0
ENDSEC
  0
SECTION
  2
CLASSES
  0
CLASS
  1
ACDBDICTIONARYWDFLT
  2
AcDbDictionaryWithDefault
  3
ObjectDBX Classes
 90
        0
 91
        4
280
     0
281
     0
  0
CLASS
  1
VISUALSTYLE
  2
AcDbVisualStyle
  3
ObjectDBX Classes
 90
     4095
 91
        4
280
     0
281
     0
  0
CLASS
  1
MATERIAL
  2
AcDbMaterial
  3
ObjectDBX Classes
 90
     1153
 91
        4
280
     0
281
     0
  0
ENDSEC
  0
SECTION
  2
TABLES
  0
TABLE
  2
VPORT
  5
8
330
0
100
AcDbSymbolTable
 70
     1
  0
VPORT
  5
29
330
8
100
AcDbSymbolTableRecord
100
AcDbViewportTableRecord
  2
*Active
 70
     0
 10
0.0
 20
0.0
 11
1.0
 21
1.0
 12
10.42990654205607
 22
4.5
 13
0.0
 23
0.0
 14
0.5
 24
0.5
 15
0.5
 25
0.5
 16
0.0
 26
0.0
 36
1.0
 17
0.0
 27
0.0
 37
0.0
 40
9.0
 41
1.972972972850329
 42
50.0
 43
0.0
 44
0.0
 50
0.0
 51
0.0
 71
     0
 72
   100
 73
     1
 74
     3
 75
     0
 76
     0
 77
     0
 78
     0
281
     0
 65
     1
110
0.0
120
0.0
130
0.0
111
1.0
121
0.0
131
0.0
112
0.0
122
1.0
132
0.0
 79
     0
146
0.0
 60
     3
 61
     5
292
     1
282
     1
141
0.0
142
0.0
 63
   250
  0
ENDTAB
  0
TABLE
  2
LTYPE
  5
5
330
0
100
AcDbSymbolTable
 70
     1
  0
LTYPE
  5
14
330
5
100
AcDbSymbolTableRecord
100
AcDbLinetypeTableRecord
  2
ByBlock
 70
     0
  3

 72
    65
 73
     0
 40
0.0
  0
LTYPE
  5
15
330
5
100
AcDbSymbolTableRecord
100
AcDbLinetypeTableRecord
  2
ByLayer
 70
     0
  3

 72
    65
 73
     0
 40
0.0
  0
LTYPE
  5
16
330
5
100
AcDbSymbolTableRecord
100
AcDbLinetypeTableRecord
  2
Continuous
 70
     0
  3
Solid line
 72
    65
 73
     0
 40
0.0
  0
ENDTAB
  0
TABLE
  2
LAYER
  5
2
330
0
100
AcDbSymbolTable
 70
     2
  0
LAYER
  5
10
330
2
100
AcDbSymbolTableRecord
100
AcDbLayerTableRecord
  2
0
 70
     0
 62
     7
  6
Continuous
370
    -3
390
F
347
3E
  0
LAYER
  5
40
330
2
100
AcDbSymbolTableRecord
100
AcDbLayerTableRecord
  2
layer 1
 70
     0
 62
     7
  6
Continuous
370
    -3
390
F
347
3E
  0
ENDTAB
  0
TABLE
  2
STYLE
  5
3
330
0
100
AcDbSymbolTable
 70
     1
  0
STYLE
  5
11
330
3
100
AcDbSymbolTableRecord
100
AcDbTextStyleTableRecord
  2
Standard
 70
     0
 40
0.0
 41
1.0
 50
0.0
 71
     0
 42
0.2
  3
txt
  4

  0
ENDTAB
  0
TABLE
  2
VIEW
  5
6
330
0
100
AcDbSymbolTable
 70
     0
  0
ENDTAB
  0
TABLE
  2
UCS
  5
7
330
0
100
AcDbSymbolTable
 70
     0
  0
ENDTAB
  0
TABLE
  2
APPID
  5
9
330
0
100
AcDbSymbolTable
 70
     2
  0
APPID
  5
12
330
9
100
AcDbSymbolTableRecord
100
AcDbRegAppTableRecord
  2
ACAD
 70
     0
  0
APPID
  5
3F
330
9
100
AcDbSymbolTableRecord
100
AcDbRegAppTableRecord
  2
ODA
 70
     0
  0
ENDTAB
  0
TABLE
  2
DIMSTYLE
  5
A
330
0
100
AcDbSymbolTable
 70
     1
100
AcDbDimStyleTable
  0
DIMSTYLE
105
27
330
A
100
AcDbSymbolTableRecord
100
AcDbDimStyleTableRecord
  2
Standard
 70
     0
178
     0
340
11
  0
ENDTAB
  0
TABLE
  2
BLOCK_RECORD
  5
1
330
0
100
AcDbSymbolTable
 70
     1
  0
BLOCK_RECORD
  5
1F
330
1
100
AcDbSymbolTableRecord
100
AcDbBlockTableRecord
  2
*Model_Space
340
22
 70
     0
280
     1
281
     0
  0
BLOCK_RECORD
  5
1B
330
1
100
AcDbSymbolTableRecord
100
AcDbBlockTableRecord
  2
*Paper_Space
340
1E
 70
     0
280
     1
281
     0
  0
BLOCK_RECORD
  5
23
330
1
100
AcDbSymbolTableRecord
100
AcDbBlockTableRecord
  2
*Paper_Space0
340
26
 70
     0
280
     1
281
     0
  0
ENDTAB
  0
ENDSEC
  0
SECTION
  2
BLOCKS
  0
BLOCK
  5
20
330
1F
100
AcDbEntity
  8
0
100
AcDbBlockBegin
  2
*Model_Space
 70
     0
 10
0.0
 20
0.0
 30
0.0
  3
*Model_Space
  1

  0
ENDBLK
  5
21
330
1F
100
AcDbEntity
  8
0
100
AcDbBlockEnd
  0
BLOCK
  5
1C
330
1B
100
AcDbEntity
 67
     1
  8
0
100
AcDbBlockBegin
  2
*Paper_Space
 70
     0
 10
0.0
 20
0.0
 30
0.0
  3
*Paper_Space
  1

  0
ENDBLK
  5
1D
330
1B
100
AcDbEntity
 67
     1
  8
0
100
AcDbBlockEnd
  0
BLOCK
  5
24
330
23
100
AcDbEntity
  8
0
100
AcDbBlockBegin
  2
*Paper_Space0
 70
     0
 10
0.0
 20
0.0
 30
0.0
  3
*Paper_Space0
  1

  0
ENDBLK
  5
25
330
23
100
AcDbEntity
  8
0
100
AcDbBlockEnd
  0
ENDSEC
  0
SECTION
  2
ENTITIES
  0
LWPOLYLINE
  5
41
330
1F
100
AcDbEntity
  8
layer 1
 62
   250
370
     9
100
AcDbPolyline
 90
        5
 70
     1
 43
0.0
 10
-179.7173
 20
-115.2499
 10
-15.9999
 20
-115.2499
 10
-15.9999
 20
131.5759
 10
-179.7173
 20
131.5759
 10
-179.7173
 20
-115.2499
  0
SPLINE
  5
42
330
1F
100
AcDbEntity
  8
layer 1
 62
     7
370
    18
100
AcDbSpline
210
0.0
220
0.0
230
1.0
 70
    11
 71
     3
 72
    48
 73
    44
 74
     0
 42
0.0000000001
 43
0.0000000001
 12
1.0
 22
0.0
 32
0.0
 13
1.0
 23
0.0
 33
0.0
 40
0.0
 40
0.0
 40
0.0
 40
0.0
 40
0.0833333333333333
 40
0.0833333333333333
 40
0.0833333333333333
 40
0.0833333333333333
 40
0.1666666666666667
 40
0.1666666666666667
 40
0.1666666666666667
 40
0.1666666666666667
 40
0.25
 40
0.25
 40
0.25
 40
0.25
 40
0.3333333333333333
 40
0.3333333333333333
 40
0.3333333333333333
 40
0.3333333333333333
 40
0.4166666666666667
 40
0.4166666666666667
 40
0.4166666666666667
 40
0.4166666666666667
 40
0.5
 40
0.5
 40
0.5
 40
0.5
 40
0.5833333333333334
 40
0.5833333333333334
 40
0.5833333333333334
 40
0.5833333333333334
 40
0.6666666666666666
 40
0.6666666666666666
 40
0.6666666666666666
 40
0.6666666666666666
 40
0.75
 40
0.75
 40
0.75
 40
0.75
 40
0.8333333333333334
 40
0.8333333333333334
 40
0.8333333333333334
 40
0.8333333333333334
 40
1.0
 40
1.0
 40
1.0
 40
1.0
 10
-148.758
 20
-81.3033
 30
0.0
 10
-149.3507
 20
-81.7558
 30
0.0
 10
-149.6689
 20
-82.0622
 30
0.0
 10
-149.6689
 20
-82.0622
 30
0.0
 10
-149.6689
 20
-82.0622
 30
0.0
 10
-153.3891
 20
-81.6383
 30
0.0
 10
-154.4138
 20
-83.9397
 30
0.0
 10
-154.4138
 20
-83.9397
 30
0.0
 10
-154.4138
 20
-83.9397
 30
0.0
 10
-155.95
 20
-82.8797
 30
0.0
 10
-159.159
 20
-82.2743
 30
0.0
 10
-162.9477
 20
-83.8185
 30
0.0
 10
-162.9477
 20
-83.8185
 30
0.0
 10
-166.7378
 20
-85.3629
 30
0.0
 10
-167.6938
 20
-87.2709
 30
0.0
 10
-170.5606
 20
-87.4222
 30
0.0
 10
-170.5606
 20
-87.4222
 30
0.0
 10
-172.7321
 20
-87.5368
 30
0.0
 10
-174.3337
 20
-86.9923
 30
0.0
 10
-174.9845
 20
-86.7212
 30
0.0
 10
-174.9845
 20
-86.7212
 30
0.0
 10
-174.9845
 20
-86.7212
 30
0.0
 10
-174.9845
 20
-68.5235
 30
0.0
 10
-174.9845
 20
-68.5235
 30
0.0
 10
-174.9845
 20
-68.5235
 30
0.0
 10
-172.5069
 20
-66.6919
 30
0.0
 10
-170.8367
 20
-68.0663
 30
0.0
 10
-167.8638
 20
-70.7043
 30
0.0
 10
-167.8638
 20
-70.7043
 30
0.0
 10
-164.6715
 20
-73.536
 30
0.0
 10
-160.5924
 20
-72.4003
 30
0.0
 10
-160.5924
 20
-72.4003
 30
0.0
 10
-160.5924
 20
-72.4003
 30
0.0
 10
-160.5924
 20
-72.4003
 30
0.0
 10
-161.1045
 20
-73.7332
 30
0.0
 10
-159.3976
 20
-74.8841
 30
0.0
 10
-159.3976
 20
-74.8841
 30
0.0
 10
-157.6915
 20
-76.0347
 30
0.0
 10
-155.3693
 20
-74.8235
 30
0.0
 10
-155.3693
 20
-74.8235
 30
0.0
 10
-155.3693
 20
-74.8235
 30
0.0
 10
-154.6898
 20
-79.7454
 30
0.0
 10
-151.6924
 20
-81.6279
 30
0.0
 10
-148.758
 20
-81.3033
 30
0.0
  0
SPLINE
  5
43
330
1F
100
AcDbEntity
  8
layer 1
 62
     7
370
    18
100
AcDbSpline
210
0.0
220
0.0
230
1.0
 70
    11
 71
     3
 72
    28
 73
    24
 74
     0
 42
0.0000000001
 43
0.0000000001
 12
1.0
 22
0.0
 32
0.0
 13
1.0
 23
0.0
 33
0.0
 40
0.0
 40
0.0
 40
0.0
 40
0.0
 40
0.1428571428571428
 40
0.1428571428571428
 40
0.1428571428571428
 40
0.1428571428571428
 40
0.2857142857142857
 40
0.2857142857142857
 40
0.2857142857142857
 40
0.2857142857142857
 40
0.4285714285714285
 40
0.4285714285714285
 40
0.4285714285714285
 40
0.4285714285714285
 40
0.5714285714285714
 40
0.5714285714285714
 40
0.5714285714285714
 40
0.5714285714285714
 40
0.7142857142857143
 40
0.7142857142857143
 40
0.7142857142857143
 40
0.7142857142857143
 40
1.0
 40
1.0
 40
1.0
 40
1.0
 10
-153.1885
 20
-51.8923
 30
0.0
 10
-162.1025
 20
-45.3904
 30
0.0
 10
-169.5361
 20
-37.3524
 30
0.0
 10
-174.9845
 20
-28.2367
 30
0.0
 10
-174.9845
 20
-28.2367
 30
0.0
 10
-174.9845
 20
-28.2367
 30
0.0
 10
-174.9845
 20
-42.2691
 30
0.0
 10
-174.9845
 20
-42.2691
 30
0.0
 10
-174.9845
 20
-42.2691
 30
0.0
 10
-174.063
 20
-42.1749
 30
0.0
 10
-171.7747
 20
-42.1191
 30
0.0
 10
-169.7068
 20
-43.5072
 30
0.0
 10
-169.7068
 20
-43.5072
 30
0.0
 10
-167.0437
 20
-45.2943
 30
0.0
 10
-167.3172
 20
-47.5356
 30
0.0
 10
-164.6541
 20
-49.0196
 30
0.0
 10
-164.6541
 20
-49.0196
 30
0.0
 10
-161.9919
 20
-50.5033
 30
0.0
 10
-158.6804
 20
-50.3827
 30
0.0
 10
-156.9055
 20
-54.1989
 30
0.0
 10
-156.9055
 20
-54.1989
 30
0.0
 10
-156.9055
 20
-54.1989
 30
0.0
 10
-155.8233
 20
-52.3137
 30
0.0
 10
-153.1885
 20
-51.8923
 30
0.0
  0
SPLINE
  5
44
330
1F
100
AcDbEntity
  8
layer 1
 62
     7
370
    18
100
AcDbSpline
210
0.0
220
0.0
230
1.0
 70
    11
 71
     3
 72
    24
 73
    20
 74
     0
 42
0.0000000001
 43
0.0000000001
 12
1.0
 22
0.0
 32
0.0
 13
1.0
 23
0.0
 33
0.0
 40
0.0
 40
0.0
 40
0.0
 40
0.0
 40
0.1666666666666667
 40
0.1666666666666667
 40
0.1666666666666667
 40
0.1666666666666667
 40
0.3333333333333333
 40
0.3333333333333333
 40
0.3333333333333333
 40
0.3333333333333333
 40
0.5
 40
0.5
 40
0.5
 40
0.5
 40
0.6666666666666666
 40
0.6666666666666666
 40
0.6666666666666666
 40
0.6666666666666666
 40
1.0
 40
1.0
 40
1.0
 40
1.0
 10
-174.9845
 20
-44.914
 30
0.0
 10
-174.9845
 20
-44.914
 30
0.0
 10
-174.9845
 20
-63.8214
 30
0.0
 10
-174.9845
 20
-63.8214
 30
0.0
 10
-174.9845
 20
-63.8214
 30
0.0
 10
-174.522
 20
-63.2684
 30
0.0
 10
-173.5897
 20
-62.3909
 30
0.0
 10
-171.8906
 20
-61.6186
 30
0.0
 10
-171.8906
 20
-61.6186
 30
0.0
 10
-171.8906
 20
-61.6186
 30
0.0
 10
-173.4609
 20
-58.0446
 30
0.0
 10
-173.086
 20
-54.5919
 30
0.0
 10
-173.086
 20
-54.5919
 30
0.0
 10
-172.711
 20
-51.1396
 30
0.0
 10
-171.072
 20
-50.9572
 30
0.0
 10
-171.6184
 20
-47.8986
 30
0.0
 10
-171.6184
 20
-47.8986
 30
0.0
 10
-172.0067
 20
-45.723
 30
0.0
 10
-173.9149
 20
-45.0954
 30
0.0
 10
-174.9845
 20
-44.914
 30
0.0
  0
SPLINE
  5
45
330
1F
100
AcDbEntity
  8
layer 1
 62
     7
370
    18
100
AcDbSpline
210
0.0
220
0.0
230
1.0
 70
    11
 71
     3
 72
    20
 73
    16
 74
     0
 42
0.0000000001
 43
0.0000000001
 12
1.0
 22
0.0
 32
0.0
 13
1.0
 23
0.0
 33
0.0
 40
0.0
 40
0.0
 40
0.0
 40
0.0
 40
0.2
 40
0.2
 40
0.2
 40
0.2
 40
0.4
 40
0.4
 40
0.4
 40
0.4
 40
0.6
 40
0.6
 40
0.6
 40
0.6
 40
1.0
 40
1.0
 40
1.0
 40
1.0
 10
-174.9845
 20
-89.3712
 30
0.0
 10
-174.9845
 20
-89.3712
 30
0.0
 10
-174.9845
 20
-109.0938
 30
0.0
 10
-174.9845
 20
-109.0938
 30
0.0
 10
-174.9845
 20
-109.0938
 30
0.0
 10
-174.0199
 20
-108.731
 30
0.0
 10
-172.3394
 20
-107.7148
 30
0.0
 10
-171.4483
 20
-104.9276
 30
0.0
 10
-171.4483
 20
-104.9276
 30
0.0
 10
-170.1515
 20
-100.8693
 30
0.0
 10
-172.9851
 20
-97.932
 30
0.0
 10
-169.0247
 20
-94.1763
 30
0.0
 10
-169.0247
 20
-94.1763
 30
0.0
 10
-169.0247
 20
-94.1763
 30
0.0
 10
-172.9571
 20
-92.4312
 30
0.0
 10
-174.9845
 20
-89.3712
 30
0.0
  0
SPLINE
  5
46
330
1F
100
AcDbEntity
  8
layer 1
 62
   250
370
    18
100
AcDbSpline
210
0.0
220
0.0
230
1.0
 70
    24
 71
     3
 72
     8
 73
     4
 74
     0
 42
0.0000000001
 43
0.0000000001
 12
1.0
 22
0.0
 32
0.0
 13
1.0
 23
0.0
 33
0.0
 40
0.0
 40
0.0
 40
0.0
 40
0.0
 40
1.0
 40
1.0
 40
1.0
 40
1.0
 10
-101.4309
 20
-110.562
 30
0.0
 10
-101.4309
 20
-110.562
 30
0.0
 10
-103.4126
 20
-110.562
 30
0.0
 10
-103.4126
 20
-110.562
 30
0.0
  0
SPLINE
  5
47
330
1F
100
AcDbEntity
  8
layer 1
 62
     7
370
    18
100
AcDbSpline
210
0.0
220
0.0
230
1.0
 70
    11
 71
     3
 72
    36
 73
    32
 74
     0
 42
0.0000000001
 43
0.0000000001
 12
1.0
 22
0.0
 32
0.0
 13
1.0
 23
0.0
 33
0.0
 40
0.0
 40
0.0
 40
0.0
 40
0.0
 40
0.1111111111111111
 40
0.1111111111111111
 40
0.1111111111111111
 40
0.1111111111111111
 40
0.2222222222222222
 40
0.2222222222222222
 40
0.2222222222222222
 40
0.2222222222222222
 40
0.3333333333333333
 40
0.3333333333333333
 40
0.3333333333333333
 40
0.3333333333333333
 40
0.4444444444444444
 40
0.4444444444444444
 40
0.4444444444444444
 40
0.4444444444444444
 40
0.5555555555555556
 40
0.5555555555555556
 40
0.5555555555555556
 40
0.5555555555555556
 40
0.6666666666666666
 40
0.6666666666666666
 40
0.6666666666666666
 40
0.6666666666666666
 40
0.7777777777777778
 40
0.7777777777777778
 40
0.7777777777777778
 40
0.7777777777777778
 40
1.0
 40
1.0
 40
1.0
 40
1.0
 10
-131.3817
 20
-93.4488
 30
0.0
 10
-131.3889
 20
-94.9026
 30
0.0
 10
-131.3617
 20
-94.5845
 30
0.0
 10
-130.4171
 20
-94.952
 30
0.0
 10
-130.4171
 20
-94.952
 30
0.0
 10
-129.4707
 20
-95.3187
 30
0.0
 10
-127.4785
 20
-96.2127
 30
0.0
 10
-126.6413
 20
-97.6701
 30
0.0
 10
-126.6413
 20
-97.6701
 30
0.0
 10
-125.8038
 20
-99.1268
 30
0.0
 10
-125.654
 20
-99.9225
 30
0.0
 10
-125.654
 20
-99.9225
 30
0.0
 10
-125.654
 20
-99.9225
 30
0.0
 10
-125.654
 20
-99.9225
 30
0.0
 10
-126.1165
 20
-100.1936
 30
0.0
 10
-127.1085
 20
-98.9851
 30
0.0
 10
-127.1085
 20
-98.9851
 30
0.0
 10
-128.1007
 20
-97.7776
 30
0.0
 10
-128.7389
 20
-97.3433
 30
0.0
 10
-130.2499
 20
-97.3376
 30
0.0
 10
-130.2499
 20
-97.3376
 30
0.0
 10
-131.7596
 20
-97.3312
 30
0.0
 10
-134.3708
 20
-97.1619
 30
0.0
 10
-135.4888
 20
-95.5219
 30
0.0
 10
-135.4888
 20
-95.5219
 30
0.0
 10
-136.9302
 20
-93.4073
 30
0.0
 10
-136.6211
 20
-91.5196
 30
0.0
 10
-134.9535
 20
-90.9811
 30
0.0
 10
-134.9535
 20
-90.9811
 30
0.0
 10
-133.2866
 20
-90.4423
 30
0.0
 10
-131.3745
 20
-91.9951
 30
0.0
 10
-131.3817
 20
-93.4488
 30
0.0
  0
SPLINE
  5
48
330
1F
100
AcDbEntity
  8
layer 1
 62
     7
370
    18
100
AcDbSpline
210
0.0
220
0.0
230
1.0
 70
    11
 71
     3
 72
    20
 73
    16
 74
     0
 42
0.0000000001
 43
0.0000000001
 12
1.0
 22
0.0
 32
0.0
 13
1.0
 23
0.0
 33
0.0
 40
0.0
 40
0.0
 40
0.0
 40
0.0
 40
0.2
 40
0.2
 40
0.2
 40
0.2
 40
0.4
 40
0.4
 40
0.4
 40
0.4
 40
0.6
 40
0.6
 40
0.6
 40
0.6
 40
1.0
 40
1.0
 40
1.0
 40
1.0
 10
-115.7475
 20
-67.8529
 30
0.0
 10
-114.3288
 20
-69.1567
 30
0.0
 10
-112.7862
 20
-70.6784
 30
0.0
 10
-111.2451
 20
-72.3867
 30
0.0
 10
-111.2451
 20
-72.3867
 30
0.0
 10
-110.2316
 20
-71.4416
 30
0.0
 10
-107.0861
 20
-69.2414
 30
0.0
 10
-101.8436
 20
-72.0076
 30
0.0
 10
-101.8436
 20
-72.0076
 30
0.0
 10
-101.8436
 20
-72.0076
 30
0.0
 10
-101.3333
 20
-70.3052
 30
0.0
 10
-99.5972
 20
-69.4876
 30
0.0
 10
-99.5972
 20
-69.4876
 30
0.0
 10
-105.1226
 20
-69.3841
 30
0.0
 10
-110.5204
 20
-68.8256
 30
0.0
 10
-115.7475
 20
-67.8529
 30
0.0
  0
SPLINE
  5
49
330
1F
100
AcDbEntity
  8
layer 1
 62
     7
370
    18
100
AcDbSpline
210
0.0
220
0.0
230
1.0
 70
    11
 71
     3
 72
    40
 73
    36
 74
     0
 42
0.0000000001
 43
0.0000000001
 12
1.0
 22
0.0
 32
0.0
 13
1.0
 23
0.0
 33
0.0
 40
0.0
 40
0.0
 40
0.0
 40
0.0
 40
0.1
 40
0.1
 40
0.1
 40
0.1
 40
0.2
 40
0.2
 40
0.2
 40
0.2
 40
0.3
 40
0.3
 40
0.3
 40
0.3
 40
0.4
 40
0.4
 40
0.4
 40
0.4
 40
0.5
 40
0.5
 40
0.5
 40
0.5
 40
0.6
 40
0.6
 40
0.6
 40
0.6
 40
0.7
 40
0.7
 40
0.7
 40
0.7
 40
0.8
 40
0.8
 40
0.8
 40
0.8
 40
1.0
 40
1.0
 40
1.0
 40
1.0
 10
-103.4126
 20
-110.562
 30
0.0
 10
-100.0929
 20
-106.5061
 30
0.0
 10
-98.2872
 20
-99.8802
 30
0.0
 10
-101.7077
 20
-88.2718
 30
0.0
 10
-101.7077
 20
-88.2718
 30
0.0
 10
-103.2571
 20
-83.0123
 30
0.0
 10
-106.3315
 20
-78.2243
 30
0.0
 10
-109.6304
 20
-74.2511
 30
0.0
 10
-109.6304
 20
-74.2511
 30
0.0
 10
-108.7475
 20
-74.3929
 30
0.0
 10
-107.5893
 20
-74.8556
 30
0.0
 10
-106.9301
 20
-76.369
 30
0.0
 10
-106.9301
 20
-76.369
 30
0.0
 10
-105.9399
 20
-78.6405
 30
0.0
 10
-102.5262
 20
-79.2764
 30
0.0
 10
-102.5262
 20
-79.2764
 30
0.0
 10
-102.5262
 20
-79.2764
 30
0.0
 10
-102.5262
 20
-79.2764
 30
0.0
 10
-103.4138
 20
-81.1539
 30
0.0
 10
-102.4925
 20
-82.3656
 30
0.0
 10
-102.4925
 20
-82.3656
 30
0.0
 10
-101.5704
 20
-83.5774
 30
0.0
 10
-99.4539
 20
-83.8195
 30
0.0
 10
-99.4539
 20
-83.8195
 30
0.0
 10
-99.4539
 20
-83.8195
 30
0.0
 10
-99.4539
 20
-83.8195
 30
0.0
 10
-99.4539
 20
-106.5795
 30
0.0
 10
-99.4539
 20
-106.5795
 30
0.0
 10
-99.4539
 20
-106.5795
 30
0.0
 10
-99.4545
 20
-108.1503
 30
0.0
 10
-100.3392
 20
-109.61
 30
0.0
 10
-101.431
 20
-110.562
 30
0.0
 10
-101.431
 20
-110.562
 30
0.0
 10
-101.4482
 20
-110.577
 30
0.0
 10
-103.3952
 20
-110.5471
 30
0.0
 10
-103.4126
 20
-110.562
 30
0.0
  0
SPLINE
  5
4A
330
1F
100
AcDbEntity
  8
layer 1
 62
     7
370
    18
100
AcDbSpline
210
0.0
220
0.0
230
1.0
 70
    11
 71
     3
 72
    24
 73
    20
 74
     0
 42
0.0000000001
 43
0.0000000001
 12
1.0
 22
0.0
 32
0.0
 13
1.0
 23
0.0
 33
0.0
 40
0.0
 40
0.0
 40
0.0
 40
0.0
 40
0.1666666666666667
 40
0.1666666666666667
 40
0.1666666666666667
 40
0.1666666666666667
 40
0.3333333333333333
 40
0.3333333333333333
 40
0.3333333333333333
 40
0.3333333333333333
 40
0.5
 40
0.5
 40
0.5
 40
0.5
 40
0.6666666666666666
 40
0.6666666666666666
 40
0.6666666666666666
 40
0.6666666666666666
 40
1.0
 40
1.0
 40
1.0
 40
1.0
 10
-142.17
 20
-58.7389
 30
0.0
 10
-137.3622
 20
-62.0607
 30
0.0
 10
-129.126
 20
-66.9431
 30
0.0
 10
-124.0665
 20
-71.4321
 30
0.0
 10
-124.0665
 20
-71.4321
 30
0.0
 10
-117.6658
 20
-77.1108
 30
0.0
 10
-116.727
 20
-79.6396
 30
0.0
 10
-116.727
 20
-79.6396
 30
0.0
 10
-116.727
 20
-79.6396
 30
0.0
 10
-120.636
 20
-76.1722
 30
0.0
 10
-124.203
 20
-74.0669
 30
0.0
 10
-129.5624
 20
-71.2807
 30
0.0
 10
-129.5624
 20
-71.2807
 30
0.0
 10
-134.9214
 20
-68.4941
 30
0.0
 10
-139.6753
 20
-66.0784
 30
0.0
 10
-141.4418
 20
-62.8984
 30
0.0
 10
-141.4418
 20
-62.8984
 30
0.0
 10
-142.5448
 20
-60.9122
 30
0.0
 10
-142.4196
 20
-59.5108
 30
0.0
 10
-142.17
 20
-58.7389
 30
0.0
  0
SPLINE
  5
4B
330
1F
100
AcDbEntity
  8
layer 1
 62
     7
370
    18
100
AcDbSpline
210
0.0
220
0.0
230
1.0
 70
    11
 71
     3
 72
    32
 73
    28
 74
     0
 42
0.0000000001
 43
0.0000000001
 12
1.0
 22
0.0
 32
0.0
 13
1.0
 23
0.0
 33
0.0
 40
0.0
 40
0.0
 40
0.0
 40
0.0
 40
0.125
 40
0.125
 40
0.125
 40
0.125
 40
0.25
 40
0.25
 40
0.25
 40
0.25
 40
0.375
 40
0.375
 40
0.375
 40
0.375
 40
0.5
 40
0.5
 40
0.5
 40
0.5
 40
0.625
 40
0.625
 40
0.625
 40
0.625
 40
0.75
 40
0.75
 40
0.75
 40
0.75
 40
1.0
 40
1.0
 40
1.0
 40
1.0
 10
-114.5014
 20
-90.2685
 30
0.0
 10
-114.6527
 20
-91.1267
 30
0.0
 10
-115.0648
 20
-92.2007
 30
0.0
 10
-116.1468
 20
-92.9048
 30
0.0
 10
-116.1468
 20
-92.9048
 30
0.0
 10
-118.1951
 20
-94.2376
 30
0.0
 10
-120.2774
 20
-93.9955
 30
0.0
 10
-120.2774
 20
-93.9955
 30
0.0
 10
-120.2774
 20
-93.9955
 30
0.0
 10
-120.2774
 20
-93.9955
 30
0.0
 10
-119.8339
 20
-94.7826
 30
0.0
 10
-119.8339
 20
-96.7212
 30
0.0
 10
-119.8339
 20
-96.7212
 30
0.0
 10
-119.8339
 20
-98.6592
 30
0.0
 10
-118.5364
 20
-100.0827
 30
0.0
 10
-116.557
 20
-101.3547
 30
0.0
 10
-116.557
 20
-101.3547
 30
0.0
 10
-114.7575
 20
-102.5107
 30
0.0
 10
-112.8892
 20
-106.6545
 30
0.0
 10
-114.6511
 20
-109.254
 30
0.0
 10
-114.6511
 20
-109.254
 30
0.0
 10
-112.0547
 20
-108.0065
 30
0.0
 10
-109.3983
 20
-105.9068
 30
0.0
 10
-108.8762
 20
-102.4453
 30
0.0
 10
-108.8762
 20
-102.4453
 30
0.0
 10
-108.2708
 20
-98.433
 30
0.0
 10
-110.8424
 20
-93.9749
 30
0.0
 10
-114.5014
 20
-90.2685
 30
0.0
  0
SPLINE
  5
4C
330
1F
100
AcDbEntity
  8
layer 1
 62
   250
370
    18
100
AcDbSpline
210
0.0
220
0.0
230
1.0
 70
     8
 71
     3
 72
     8
 73
     4
 74
     0
 42
0.0000000001
 43
0.0000000001
 12
1.0
 22
0.0
 32
0.0
 13
1.0
 23
0.0
 33
0.0
 40
0.0
 40
0.0
 40
0.0
 40
0.0
 40
1.0
 40
1.0
 40
1.0
 40
1.0
 10
-118.2792
 20
-110.562
 30
0.0
 10
-118.1912
 20
-110.5392
 30
0.0
 10
-118.1017
 20
-110.5159
 30
0.0
 10
-118.0092
 20
-110.4908
 30
0.0
  0
SPLINE
  5
4D
330
1F
100
AcDbEntity
  8
layer 1
 62
     7
370
    18
100
AcDbSpline
210
0.0
220
0.0
230
1.0
 70
    11
 71
     3
 72
    44
 73
    40
 74
     0
 42
0.0000000001
 43
0.0000000001
 12
1.0
 22
0.0
 32
0.0
 13
1.0
 23
0.0
 33
0.0
 40
0.0
 40
0.0
 40
0.0
 40
0.0
 40
0.0909090909090909
 40
0.0909090909090909
 40
0.0909090909090909
 40
0.0909090909090909
 40
0.1818181818181818
 40
0.1818181818181818
 40
0.1818181818181818
 40
0.1818181818181818
 40
0.2727272727272727
 40
0.2727272727272727
 40
0.2727272727272727
 40
0.2727272727272727
 40
0.3636363636363636
 40
0.3636363636363636
 40
0.3636363636363636
 40
0.3636363636363636
 40
0.4545454545454545
 40
0.4545454545454545
 40
0.4545454545454545
 40
0.4545454545454545
 40
0.5454545454545454
 40
0.5454545454545454
 40
0.5454545454545454
 40
0.5454545454545454
 40
0.6363636363636364
 40
0.6363636363636364
 40
0.6363636363636364
 40
0.6363636363636364
 40
0.7272727272727273
 40
0.7272727272727273
 40
0.7272727272727273
 40
0.7272727272727273
 40
0.8181818181818182
 40
0.8181818181818182
 40
0.8181818181818182
 40
0.8181818181818182
 40
1.0
 40
1.0
 40
1.0
 40
1.0
 10
-147.7913
 20
-99.798
 30
0.0
 10
-147.4421
 20
-98.9929
 30
0.0
 10
-147.0587
 20
-97.903
 30
0.0
 10
-146.5972
 20
-96.2057
 30
0.0
 10
-146.5972
 20
-96.2057
 30
0.0
 10
-145.1975
 20
-91.057
 30
0.0
 10
-148.2699
 20
-88.9673
 30
0.0
 10
-148.2699
 20
-88.9673
 30
0.0
 10
-148.2699
 20
-88.9673
 30
0.0
 10
-145.2658
 20
-87.1501
 30
0.0
 10
-147.1765
 20
-84.1517
 30
0.0
 10
-147.1765
 20
-84.1517
 30
0.0
 10
-147.1765
 20
-84.1517
 30
0.0
 10
-143.3193
 20
-80.9718
 30
0.0
 10
-140.0764
 20
-81.2444
 30
0.0
 10
-140.0764
 20
-81.2444
 30
0.0
 10
-140.0764
 20
-81.2444
 30
0.0
 10
-140.0764
 20
-81.2444
 30
0.0
 10
-141.1347
 20
-82.1529
 30
0.0
 10
-141.2712
 20
-83.5158
 30
0.0
 10
-141.2712
 20
-83.5158
 30
0.0
 10
-141.4087
 20
-84.8786
 30
0.0
 10
-140.4868
 20
-86.0901
 30
0.0
 10
-140.4868
 20
-86.0901
 30
0.0
 10
-140.4868
 20
-86.0901
 30
0.0
 10
-142.6373
 20
-87.9981
 30
0.0
 10
-140.7253
 20
-90.5119
 30
0.0
 10
-140.7253
 20
-90.5119
 30
0.0
 10
-140.7253
 20
-90.5119
 30
0.0
 10
-142.9101
 20
-90.7236
 30
0.0
 10
-143.49
 20
-92.9953
 30
0.0
 10
-143.49
 20
-95.2669
 30
0.0
 10
-143.49
 20
-95.2669
 30
0.0
 10
-143.49
 20
-97.5383
 30
0.0
 10
-143.49
 20
-99.6886
 30
0.0
 10
-145.4025
 20
-99.9918
 30
0.0
 10
-145.4025
 20
-99.9918
 30
0.0
 10
-146.4853
 20
-100.1631
 30
0.0
 10
-147.2932
 20
-99.9848
 30
0.0
 10
-147.7913
 20
-99.798
 30
0.0
  0
SPLINE
  5
4E
330
1F
100
AcDbEntity
  8
layer 1
 62
     7
370
    18
100
AcDbSpline
210
0.0
220
0.0
230
1.0
 70
    11
 71
     3
 72
    52
 73
    48
 74
     0
 42
0.0000000001
 43
0.0000000001
 12
1.0
 22
0.0
 32
0.0
 13
1.0
 23
0.0
 33
0.0
 40
0.0
 40
0.0
 40
0.0
 40
0.0
 40
0.0769230769230769
 40
0.0769230769230769
 40
0.0769230769230769
 40
0.0769230769230769
 40
0.1538461538461539
 40
0.1538461538461539
 40
0.1538461538461539
 40
0.1538461538461539
 40
0.2307692307692308
 40
0.2307692307692308
 40
0.2307692307692308
 40
0.2307692307692308
 40
0.3076923076923077
 40
0.3076923076923077
 40
0.3076923076923077
 40
0.3076923076923077
 40
0.3846153846153846
 40
0.3846153846153846
 40
0.3846153846153846
 40
0.3846153846153846
 40
0.4615384615384616
 40
0.4615384615384616
 40
0.4615384615384616
 40
0.4615384615384616
 40
0.5384615384615384
 40
0.5384615384615384
 40
0.5384615384615384
 40
0.5384615384615384
 40
0.6153846153846154
 40
0.6153846153846154
 40
0.6153846153846154
 40
0.6153846153846154
 40
0.6923076923076923
 40
0.6923076923076923
 40
0.6923076923076923
 40
0.6923076923076923
 40
0.7692307692307693
 40
0.7692307692307693
 40
0.7692307692307693
 40
0.7692307692307693
 40
0.8461538461538461
 40
0.8461538461538461
 40
0.8461538461538461
 40
0.8461538461538461
 40
1.0
 40
1.0
 40
1.0
 40
1.0
 10
-150.4962
 20
-53.7753
 30
0.0
 10
-151.1628
 20
-54.2977
 30
0.0
 10
-152.0484
 20
-55.266
 30
0.0
 10
-152.1945
 20
-56.803
 30
0.0
 10
-152.1945
 20
-56.803
 30
0.0
 10
-152.4332
 20
-59.3171
 30
0.0
 10
-150.7607
 20
-59.8925
 30
0.0
 10
-150.7607
 20
-63.1331
 30
0.0
 10
-150.7607
 20
-63.1331
 30
0.0
 10
-150.7607
 20
-66.3741
 30
0.0
 10
-153.4237
 20
-67.4644
 30
0.0
 10
-153.4237
 20
-67.4644
 30
0.0
 10
-153.4237
 20
-67.4644
 30
0.0
 10
-153.4237
 20
-67.4644
 30
0.0
 10
-151.6828
 20
-68.0395
 30
0.0
 10
-151.3415
 20
-69.8264
 30
0.0
 10
-151.3415
 20
-69.8264
 30
0.0
 10
-151.0001
 20
-71.6136
 30
0.0
 10
-152.9804
 20
-72.7645
 30
0.0
 10
-152.9804
 20
-72.7645
 30
0.0
 10
-152.9804
 20
-72.7645
 30
0.0
 10
-152.9804
 20
-72.7645
 30
0.0
 10
-151.8623
 20
-73.5516
 30
0.0
 10
-151.2727
 20
-75.5735
 30
0.0
 10
-151.2727
 20
-75.5735
 30
0.0
 10
-150.6844
 20
-77.5951
 30
0.0
 10
-149.0714
 20
-78.1172
 30
0.0
 10
-148.0473
 20
-77.7537
 30
0.0
 10
-148.0473
 20
-77.7537
 30
0.0
 10
-147.0231
 20
-77.3907
 30
0.0
 10
-146.3579
 20
-75.5958
 30
0.0
 10
-148.0985
 20
-73.3471
 30
0.0
 10
-148.0985
 20
-73.3471
 30
0.0
 10
-149.8394
 20
-71.0987
 30
0.0
 10
-148.79
 20
-66.9419
 30
0.0
 10
-143.1317
 20
-67.2598
 30
0.0
 10
-143.1317
 20
-67.2598
 30
0.0
 10
-143.1317
 20
-67.2598
 30
0.0
 10
-144.6422
 20
-65.67
 30
0.0
 10
-145.1283
 20
-62.5577
 30
0.0
 10
-145.1283
 20
-62.5577
 30
0.0
 10
-145.429
 20
-60.6354
 30
0.0
 10
-144.5762
 20
-58.8798
 30
0.0
 10
-143.8808
 20
-57.817
 30
0.0
 10
-143.8808
 20
-57.817
 30
0.0
 10
-146.1585
 20
-56.558
 30
0.0
 10
-148.3655
 20
-55.2096
 30
0.0
 10
-150.4962
 20
-53.7753
 30
0.0
  0
SPLINE
  5
4F
330
1F
100
AcDbEntity
  8
layer 1
 62
     7
370
    18
100
AcDbSpline
210
0.0
220
0.0
230
1.0
 70
    11
 71
     3
 72
    36
 73
    32
 74
     0
 42
0.0000000001
 43
0.0000000001
 12
1.0
 22
0.0
 32
0.0
 13
1.0
 23
0.0
 33
0.0
 40
0.0
 40
0.0
 40
0.0
 40
0.0
 40
0.1111111111111111
 40
0.1111111111111111
 40
0.1111111111111111
 40
0.1111111111111111
 40
0.2222222222222222
 40
0.2222222222222222
 40
0.2222222222222222
 40
0.2222222222222222
 40
0.3333333333333333
 40
0.3333333333333333
 40
0.3333333333333333
 40
0.3333333333333333
 40
0.4444444444444444
 40
0.4444444444444444
 40
0.4444444444444444
 40
0.4444444444444444
 40
0.5555555555555556
 40
0.5555555555555556
 40
0.5555555555555556
 40
0.5555555555555556
 40
0.6666666666666666
 40
0.6666666666666666
 40
0.6666666666666666
 40
0.6666666666666666
 40
0.7777777777777778
 40
0.7777777777777778
 40
0.7777777777777778
 40
0.7777777777777778
 40
1.0
 40
1.0
 40
1.0
 40
1.0
 10
-118.0093
 20
-110.4907
 30
0.0
 10
-117.917
 20
-109.9262
 30
0.0
 10
-117.8756
 20
-108.8144
 30
0.0
 10
-118.6739
 20
-107.8059
 30
0.0
 10
-118.6739
 20
-107.8059
 30
0.0
 10
-119.8
 20
-106.3821
 30
0.0
 10
-121.984
 20
-105.8376
 30
0.0
 10
-125.9787
 20
-106.3522
 30
0.0
 10
-125.9787
 20
-106.3522
 30
0.0
 10
-129.9724
 20
-106.8667
 30
0.0
 10
-133.8639
 20
-106.5642
 30
0.0
 10
-136.9361
 20
-103.3532
 30
0.0
 10
-136.9361
 20
-103.3532
 30
0.0
 10
-136.9361
 20
-103.3532
 30
0.0
 10
-138.3357
 20
-105.5342
 30
0.0
 10
-142.8422
 20
-105.5342
 30
0.0
 10
-142.8422
 20
-105.5342
 30
0.0
 10
-146.0097
 20
-105.5342
 30
0.0
 10
-148.0968
 20
-103.4095
 30
0.0
 10
-149.0574
 20
-102.1469
 30
0.0
 10
-149.0574
 20
-102.1469
 30
0.0
 10
-149.3108
 20
-102.5952
 30
0.0
 10
-149.5765
 20
-103.1131
 30
0.0
 10
-149.8743
 20
-103.8379
 30
0.0
 10
-149.8743
 20
-103.8379
 30
0.0
 10
-150.9838
 20
-106.5381
 30
0.0
 10
-149.6457
 20
-109.1119
 30
0.0
 10
-147.992
 20
-110.515
 30
0.0
 10
-147.992
 20
-110.515
 30
0.0
 10
-147.992
 20
-110.515
 30
0.0
 10
-118.0093
 20
-110.4907
 30
0.0
 10
-118.0093
 20
-110.4907
 30
0.0
  0
SPLINE
  5
50
330
1F
100
AcDbEntity
  8
layer 1
 62
     7
370
    18
100
AcDbSpline
210
0.0
220
0.0
230
1.0
 70
    11
 71
     3
 72
    28
 73
    24
 74
     0
 42
0.0000000001
 43
0.0000000001
 12
1.0
 22
0.0
 32
0.0
 13
1.0
 23
0.0
 33
0.0
 40
0.0
 40
0.0
 40
0.0
 40
0.0
 40
0.1428571428571428
 40
0.1428571428571428
 40
0.1428571428571428
 40
0.1428571428571428
 40
0.2857142857142857
 40
0.2857142857142857
 40
0.2857142857142857
 40
0.2857142857142857
 40
0.4285714285714285
 40
0.4285714285714285
 40
0.4285714285714285
 40
0.4285714285714285
 40
0.5714285714285714
 40
0.5714285714285714
 40
0.5714285714285714
 40
0.5714285714285714
 40
0.7142857142857143
 40
0.7142857142857143
 40
0.7142857142857143
 40
0.7142857142857143
 40
1.0
 40
1.0
 40
1.0
 40
1.0
 10
-144.4177
 20
-78.8369
 30
0.0
 10
-143.4081
 20
-77.2826
 30
0.0
 10
-143.7288
 20
-75.4012
 30
0.0
 10
-143.9684
 20
-73.4305
 30
0.0
 10
-143.9684
 20
-73.4305
 30
0.0
 10
-144.3097
 20
-70.6142
 30
0.0
 10
-138.8481
 20
-69.5542
 30
0.0
 10
-127.1046
 20
-75.8537
 30
0.0
 10
-127.1046
 20
-75.8537
 30
0.0
 10
-115.3616
 20
-82.1529
 30
0.0
 10
-114.5426
 20
-86.2416
 30
0.0
 10
-114.5426
 20
-86.2416
 30
0.0
 10
-114.5426
 20
-86.2416
 30
0.0
 10
-119.0486
 20
-82.2441
 30
0.0
 10
-123.8958
 20
-79.8821
 30
0.0
 10
-128.2307
 20
-78.7309
 30
0.0
 10
-128.2307
 20
-78.7309
 30
0.0
 10
-132.5665
 20
-77.5799
 30
0.0
 10
-136.7998
 20
-76.8229
 30
0.0
 10
-141.7154
 20
-77.9734
 30
0.0
 10
-141.7154
 20
-77.9734
 30
0.0
 10
-142.6941
 20
-78.2027
 30
0.0
 10
-143.5969
 20
-78.5031
 30
0.0
 10
-144.4177
 20
-78.8369
 30
0.0
  0
SPLINE
  5
51
330
1F
100
AcDbEntity
  8
layer 1
 62
     7
370
    18
100
AcDbSpline
210
0.0
220
0.0
230
1.0
 70
    11
 71
     3
 72
    24
 73
    20
 74
     0
 42
0.0000000001
 43
0.0000000001
 12
1.0
 22
0.0
 32
0.0
 13
1.0
 23
0.0
 33
0.0
 40
0.0
 40
0.0
 40
0.0
 40
0.0
 40
0.1666666666666667
 40
0.1666666666666667
 40
0.1666666666666667
 40
0.1666666666666667
 40
0.3333333333333333
 40
0.3333333333333333
 40
0.3333333333333333
 40
0.3333333333333333
 40
0.5
 40
0.5
 40
0.5
 40
0.5
 40
0.6666666666666666
 40
0.6666666666666666
 40
0.6666666666666666
 40
0.6666666666666666
 40
1.0
 40
1.0
 40
1.0
 40
1.0
 10
-152.6731
 20
-110.562
 30
0.0
 10
-154.3499
 20
-109.6238
 30
0.0
 10
-156.9812
 20
-107.5179
 30
0.0
 10
-157.3494
 20
-103.4138
 30
0.0
 10
-157.3494
 20
-103.4138
 30
0.0
 10
-157.3494
 20
-103.4138
 30
0.0
 10
-159.3296
 20
-104.3527
 30
0.0
 10
-161.9926
 20
-104.3524
 30
0.0
 10
-161.9926
 20
-104.3524
 30
0.0
 10
-164.6557
 20
-104.3524
 30
0.0
 10
-165.4062
 20
-105.2913
 30
0.0
 10
-167.0451
 20
-107.5325
 30
0.0
 10
-167.0451
 20
-107.5325
 30
0.0
 10
-168.1211
 20
-109.004
 30
0.0
 10
-168.9328
 20
-109.9381
 30
0.0
 10
-169.7875
 20
-110.562
 30
0.0
 10
-169.7875
 20
-110.562
 30
0.0
 10
-169.7875
 20
-110.562
 30
0.0
 10
-152.6731
 20
-110.562
 30
0.0
 10
-152.6731
 20
-110.562
 30
0.0
  0
SPLINE
  5
52
330
1F
100
AcDbEntity
  8
layer 1
 62
     7
370
    18
100
AcDbSpline
210
0.0
220
0.0
230
1.0
 70
    11
 71
     3
 72
    28
 73
    24
 74
     0
 42
0.0000000001
 43
0.0000000001
 12
1.0
 22
0.0
 32
0.0
 13
1.0
 23
0.0
 33
0.0
 40
0.0
 40
0.0
 40
0.0
 40
0.0
 40
0.1428571428571428
 40
0.1428571428571428
 40
0.1428571428571428
 40
0.1428571428571428
 40
0.2857142857142857
 40
0.2857142857142857
 40
0.2857142857142857
 40
0.2857142857142857
 40
0.4285714285714285
 40
0.4285714285714285
 40
0.4285714285714285
 40
0.4285714285714285
 40
0.5714285714285714
 40
0.5714285714285714
 40
0.5714285714285714
 40
0.5714285714285714
 40
0.7142857142857143
 40
0.7142857142857143
 40
0.7142857142857143
 40
0.7142857142857143
 40
1.0
 40
1.0
 40
1.0
 40
1.0
 10
-116.6697
 20
-88.267
 30
0.0
 10
-117.2469
 20
-88.8639
 30
0.0
 10
-118.4533
 20
-89.6753
 30
0.0
 10
-120.4828
 20
-89.1493
 30
0.0
 10
-120.4828
 20
-89.1493
 30
0.0
 10
-123.5208
 20
-88.3618
 30
0.0
 10
-123.8278
 20
-86.6052
 30
0.0
 10
-127.6855
 20
-85.0303
 30
0.0
 10
-127.6855
 20
-85.0303
 30
0.0
 10
-131.5423
 20
-83.4555
 30
0.0
 10
-133.3518
 20
-85.636
 30
0.0
 10
-133.3518
 20
-85.636
 30
0.0
 10
-133.3518
 20
-85.636
 30
0.0
 10
-134.1708
 20
-82.8198
 30
0.0
 10
-137.5503
 20
-84.2275
 30
0.0
 10
-137.5503
 20
-84.2275
 30
0.0
 10
-137.5503
 20
-84.2275
 30
0.0
 10
-138.2155
 20
-80.4114
 30
0.0
 10
-131.303
 20
-80.3211
 30
0.0
 10
-124.0323
 20
-83.5466
 30
0.0
 10
-124.0323
 20
-83.5466
 30
0.0
 10
-121.6208
 20
-84.6163
 30
0.0
 10
-119.0243
 20
-86.2729
 30
0.0
 10
-116.6697
 20
-88.267
 30
0.0
  0
SPLINE
  5
53
330
1F
100
AcDbEntity
  8
layer 1
 62
     7
370
    18
100
AcDbSpline
210
0.0
220
0.0
230
1.0
 70
    11
 71
     3
 72
    28
 73
    24
 74
     0
 42
0.0000000001
 43
0.0000000001
 12
1.0
 22
0.0
 32
0.0
 13
1.0
 23
0.0
 33
0.0
 40
0.0
 40
0.0
 40
0.0
 40
0.0
 40
0.1428571428571428
 40
0.1428571428571428
 40
0.1428571428571428
 40
0.1428571428571428
 40
0.2857142857142857
 40
0.2857142857142857
 40
0.2857142857142857
 40
0.2857142857142857
 40
0.4285714285714285
 40
0.4285714285714285
 40
0.4285714285714285
 40
0.4285714285714285
 40
0.5714285714285714
 40
0.5714285714285714
 40
0.5714285714285714
 40
0.5714285714285714
 40
0.7142857142857143
 40
0.7142857142857143
 40
0.7142857142857143
 40
0.7142857142857143
 40
1.0
 40
1.0
 40
1.0
 40
1.0
 10
-163.1528
 20
-64.6775
 30
0.0
 10
-164.3475
 20
-63.0571
 30
0.0
 10
-164.1935
 20
-60.9221
 30
0.0
 10
-164.0567
 20
-59.4531
 30
0.0
 10
-164.0567
 20
-59.4531
 30
0.0
 10
-163.9201
 20
-57.984
 30
0.0
 10
-164.3468
 20
-56.2731
 30
0.0
 10
-164.7735
 20
-55.5917
 30
0.0
 10
-164.7735
 20
-55.5917
 30
0.0
 10
-164.7735
 20
-55.5917
 30
0.0
 10
-163.3402
 20
-55.9097
 30
0.0
 10
-162.4694
 20
-57.9539
 30
0.0
 10
-162.4694
 20
-57.9539
 30
0.0
 10
-161.5991
 20
-59.9983
 30
0.0
 10
-160.4218
 20
-61.088
 30
0.0
 10
-159.2269
 20
-61.8003
 30
0.0
 10
-159.2269
 20
-61.8003
 30
0.0
 10
-158.0321
 20
-62.5126
 30
0.0
 10
-157.2989
 20
-64.1173
 30
0.0
 10
-158.3568
 20
-65.5258
 30
0.0
 10
-158.3568
 20
-65.5258
 30
0.0
 10
-159.4152
 20
-66.9338
 30
0.0
 10
-161.9579
 20
-66.2978
 30
0.0
 10
-163.1528
 20
-64.6775
 30
0.0
  0
SPLINE
  5
54
330
1F
100
AcDbEntity
  8
layer 1
 62
     7
370
    18
100
AcDbSpline
210
0.0
220
0.0
230
1.0
 70
    11
 71
     3
 72
    24
 73
    20
 74
     0
 42
0.0000000001
 43
0.0000000001
 12
1.0
 22
0.0
 32
0.0
 13
1.0
 23
0.0
 33
0.0
 40
0.0
 40
0.0
 40
0.0
 40
0.0
 40
0.1666666666666667
 40
0.1666666666666667
 40
0.1666666666666667
 40
0.1666666666666667
 40
0.3333333333333333
 40
0.3333333333333333
 40
0.3333333333333333
 40
0.3333333333333333
 40
0.5
 40
0.5
 40
0.5
 40
0.5
 40
0.6666666666666666
 40
0.6666666666666666
 40
0.6666666666666666
 40
0.6666666666666666
 40
1.0
 40
1.0
 40
1.0
 40
1.0
 10
-163.8441
 20
-99.0825
 30
0.0
 10
-163.8441
 20
-99.0825
 30
0.0
 10
-161.4894
 20
-98.0152
 30
0.0
 10
-160.6186
 20
-94.9256
 30
0.0
 10
-160.6186
 20
-94.9256
 30
0.0
 10
-159.7478
 20
-91.8369
 30
0.0
 10
-158.775
 20
-89.2023
 30
0.0
 10
-155.37
 20
-89.5203
 30
0.0
 10
-155.37
 20
-89.5203
 30
0.0
 10
-151.9649
 20
-89.8382
 30
0.0
 10
-152.8611
 20
-93.3818
 30
0.0
 10
-155.0624
 20
-93.9947
 30
0.0
 10
-155.0624
 20
-93.9947
 30
0.0
 10
-157.265
 20
-94.6083
 30
0.0
 10
-157.7507
 20
-95.1761
 30
0.0
 10
-159.1337
 20
-96.8568
 30
0.0
 10
-159.1337
 20
-96.8568
 30
0.0
 10
-160.5157
 20
-98.5373
 30
0.0
 10
-163.8441
 20
-99.0825
 30
0.0
 10
-163.8441
 20
-99.0825
 30
0.0
  0
SPLINE
  5
55
330
1F
100
AcDbEntity
  8
layer 1
 62
     7
370
    18
100
AcDbSpline
210
0.0
220
0.0
230
1.0
 70
    11
 71
     3
 72
    48
 73
    44
 74
     0
 42
0.0000000001
 43
0.0000000001
 12
1.0
 22
0.0
 32
0.0
 13
1.0
 23
0.0
 33
0.0
 40
0.0
 40
0.0
 40
0.0
 40
0.0
 40
0.0833333333333333
 40
0.0833333333333333
 40
0.0833333333333333
 40
0.0833333333333333
 40
0.1666666666666667
 40
0.1666666666666667
 40
0.1666666666666667
 40
0.1666666666666667
 40
0.25
 40
0.25
 40
0.25
 40
0.25
 40
0.3333333333333333
 40
0.3333333333333333
 40
0.3333333333333333
 40
0.3333333333333333
 40
0.4166666666666667
 40
0.4166666666666667
 40
0.4166666666666667
 40
0.4166666666666667
 40
0.5
 40
0.5
 40
0.5
 40
0.5
 40
0.5833333333333334
 40
0.5833333333333334
 40
0.5833333333333334
 40
0.5833333333333334
 40
0.6666666666666666
 40
0.6666666666666666
 40
0.6666666666666666
 40
0.6666666666666666
 40
0.75
 40
0.75
 40
0.75
 40
0.75
 40
0.8333333333333334
 40
0.8333333333333334
 40
0.8333333333333334
 40
0.8333333333333334
 40
1.0
 40
1.0
 40
1.0
 40
1.0
 10
-46.6678
 20
-81.3018
 30
0.0
 10
-46.0752
 20
-81.7543
 30
0.0
 10
-45.757
 20
-82.0608
 30
0.0
 10
-45.757
 20
-82.0608
 30
0.0
 10
-45.757
 20
-82.0608
 30
0.0
 10
-42.0368
 20
-81.6368
 30
0.0
 10
-41.0121
 20
-83.9382
 30
0.0
 10
-41.0121
 20
-83.9382
 30
0.0
 10
-41.0121
 20
-83.9382
 30
0.0
 10
-39.4759
 20
-82.8782
 30
0.0
 10
-36.2668
 20
-82.2728
 30
0.0
 10
-32.4782
 20
-83.817
 30
0.0
 10
-32.4782
 20
-83.817
 30
0.0
 10
-28.6881
 20
-85.3614
 30
0.0
 10
-27.7321
 20
-87.2694
 30
0.0
 10
-24.8653
 20
-87.4207
 30
0.0
 10
-24.8653
 20
-87.4207
 30
0.0
 10
-22.6938
 20
-87.5353
 30
0.0
 10
-21.0922
 20
-86.9908
 30
0.0
 10
-20.4414
 20
-86.7197
 30
0.0
 10
-20.4414
 20
-86.7197
 30
0.0
 10
-20.4414
 20
-86.7197
 30
0.0
 10
-20.4414
 20
-68.522
 30
0.0
 10
-20.4414
 20
-68.522
 30
0.0
 10
-20.4414
 20
-68.522
 30
0.0
 10
-22.919
 20
-66.6904
 30
0.0
 10
-24.5891
 20
-68.0649
 30
0.0
 10
-27.562
 20
-70.7028
 30
0.0
 10
-27.562
 20
-70.7028
 30
0.0
 10
-30.7544
 20
-73.5345
 30
0.0
 10
-34.8335
 20
-72.3988
 30
0.0
 10
-34.8335
 20
-72.3988
 30
0.0
 10
-34.8335
 20
-72.3988
 30
0.0
 10
-34.8335
 20
-72.3988
 30
0.0
 10
-34.3214
 20
-73.7317
 30
0.0
 10
-36.0283
 20
-74.8826
 30
0.0
 10
-36.0283
 20
-74.8826
 30
0.0
 10
-37.7344
 20
-76.0332
 30
0.0
 10
-40.0566
 20
-74.822
 30
0.0
 10
-40.0566
 20
-74.822
 30
0.0
 10
-40.0566
 20
-74.822
 30
0.0
 10
-40.7361
 20
-79.7439
 30
0.0
 10
-43.7334
 20
-81.6264
 30
0.0
 10
-46.6678
 20
-81.3018
 30
0.0
  0
SPLINE
  5
56
330
1F
100
AcDbEntity
  8
layer 1
 62
     7
370
    18
100
AcDbSpline
210
0.0
220
0.0
230
1.0
 70
    11
 71
     3
 72
    28
 73
    24
 74
     0
 42
0.0000000001
 43
0.0000000001
 12
1.0
 22
0.0
 32
0.0
 13
1.0
 23
0.0
 33
0.0
 40
0.0
 40
0.0
 40
0.0
 40
0.0
 40
0.1428571428571428
 40
0.1428571428571428
 40
0.1428571428571428
 40
0.1428571428571428
 40
0.2857142857142857
 40
0.2857142857142857
 40
0.2857142857142857
 40
0.2857142857142857
 40
0.4285714285714285
 40
0.4285714285714285
 40
0.4285714285714285
 40
0.4285714285714285
 40
0.5714285714285714
 40
0.5714285714285714
 40
0.5714285714285714
 40
0.5714285714285714
 40
0.7142857142857143
 40
0.7142857142857143
 40
0.7142857142857143
 40
0.7142857142857143
 40
1.0
 40
1.0
 40
1.0
 40
1.0
 10
-42.2374
 20
-51.8908
 30
0.0
 10
-33.3234
 20
-45.3889
 30
0.0
 10
-25.8898
 20
-37.3509
 30
0.0
 10
-20.4413
 20
-28.2352
 30
0.0
 10
-20.4413
 20
-28.2352
 30
0.0
 10
-20.4413
 20
-28.2352
 30
0.0
 10
-20.4413
 20
-42.2676
 30
0.0
 10
-20.4413
 20
-42.2676
 30
0.0
 10
-20.4413
 20
-42.2676
 30
0.0
 10
-21.3629
 20
-42.1734
 30
0.0
 10
-23.6512
 20
-42.1177
 30
0.0
 10
-25.7191
 20
-43.5057
 30
0.0
 10
-25.7191
 20
-43.5057
 30
0.0
 10
-28.3822
 20
-45.2928
 30
0.0
 10
-28.1087
 20
-47.5341
 30
0.0
 10
-30.7718
 20
-49.0181
 30
0.0
 10
-30.7718
 20
-49.0181
 30
0.0
 10
-33.434
 20
-50.5018
 30
0.0
 10
-36.7455
 20
-50.3813
 30
0.0
 10
-38.5204
 20
-54.1974
 30
0.0
 10
-38.5204
 20
-54.1974
 30
0.0
 10
-38.5204
 20
-54.1974
 30
0.0
 10
-39.6026
 20
-52.3122
 30
0.0
 10
-42.2374
 20
-51.8908
 30
0.0
  0
SPLINE
  5
57
330
1F
100
AcDbEntity
  8
layer 1
 62
     7
370
    18
100
AcDbSpline
210
0.0
220
0.0
230
1.0
 70
    11
 71
     3
 72
    24
 73
    20
 74
     0
 42
0.0000000001
 43
0.0000000001
 12
1.0
 22
0.0
 32
0.0
 13
1.0
 23
0.0
 33
0.0
 40
0.0
 40
0.0
 40
0.0
 40
0.0
 40
0.1666666666666667
 40
0.1666666666666667
 40
0.1666666666666667
 40
0.1666666666666667
 40
0.3333333333333333
 40
0.3333333333333333
 40
0.3333333333333333
 40
0.3333333333333333
 40
0.5
 40
0.5
 40
0.5
 40
0.5
 40
0.6666666666666666
 40
0.6666666666666666
 40
0.6666666666666666
 40
0.6666666666666666
 40
1.0
 40
1.0
 40
1.0
 40
1.0
 10
-20.4414
 20
-44.9125
 30
0.0
 10
-20.4414
 20
-44.9125
 30
0.0
 10
-20.4414
 20
-63.8199
 30
0.0
 10
-20.4414
 20
-63.8199
 30
0.0
 10
-20.4414
 20
-63.8199
 30
0.0
 10
-20.9039
 20
-63.2669
 30
0.0
 10
-21.8362
 20
-62.3894
 30
0.0
 10
-23.5353
 20
-61.6171
 30
0.0
 10
-23.5353
 20
-61.6171
 30
0.0
 10
-23.5353
 20
-61.6171
 30
0.0
 10
-21.965
 20
-58.0431
 30
0.0
 10
-22.3398
 20
-54.5904
 30
0.0
 10
-22.3398
 20
-54.5904
 30
0.0
 10
-22.7148
 20
-51.1381
 30
0.0
 10
-24.3539
 20
-50.9557
 30
0.0
 10
-23.8075
 20
-47.8971
 30
0.0
 10
-23.8075
 20
-47.8971
 30
0.0
 10
-23.4192
 20
-45.7215
 30
0.0
 10
-21.5109
 20
-45.0939
 30
0.0
 10
-20.4414
 20
-44.9125
 30
0.0
  0
SPLINE
  5
58
330
1F
100
AcDbEntity
  8
layer 1
 62
   250
370
    18
100
AcDbSpline
210
0.0
220
0.0
230
1.0
 70
    24
 71
     3
 72
     8
 73
     4
 74
     0
 42
0.0000000001
 43
0.0000000001
 12
1.0
 22
0.0
 32
0.0
 13
1.0
 23
0.0
 33
0.0
 40
0.0
 40
0.0
 40
0.0
 40
0.0
 40
1.0
 40
1.0
 40
1.0
 40
1.0
 10
-93.9949
 20
-110.5605
 30
0.0
 10
-93.9949
 20
-110.5605
 30
0.0
 10
-92.0133
 20
-110.5605
 30
0.0
 10
-92.0133
 20
-110.5605
 30
0.0
  0
SPLINE
  5
59
330
1F
100
AcDbEntity
  8
layer 1
 62
     7
370
    18
100
AcDbSpline
210
0.0
220
0.0
230
1.0
 70
    11
 71
     3
 72
    36
 73
    32
 74
     0
 42
0.0000000001
 43
0.0000000001
 12
1.0
 22
0.0
 32
0.0
 13
1.0
 23
0.0
 33
0.0
 40
0.0
 40
0.0
 40
0.0
 40
0.0
 40
0.1111111111111111
 40
0.1111111111111111
 40
0.1111111111111111
 40
0.1111111111111111
 40
0.2222222222222222
 40
0.2222222222222222
 40
0.2222222222222222
 40
0.2222222222222222
 40
0.3333333333333333
 40
0.3333333333333333
 40
0.3333333333333333
 40
0.3333333333333333
 40
0.4444444444444444
 40
0.4444444444444444
 40
0.4444444444444444
 40
0.4444444444444444
 40
0.5555555555555556
 40
0.5555555555555556
 40
0.5555555555555556
 40
0.5555555555555556
 40
0.6666666666666666
 40
0.6666666666666666
 40
0.6666666666666666
 40
0.6666666666666666
 40
0.7777777777777778
 40
0.7777777777777778
 40
0.7777777777777778
 40
0.7777777777777778
 40
1.0
 40
1.0
 40
1.0
 40
1.0
 10
-64.0441
 20
-93.4473
 30
0.0
 10
-64.037
 20
-94.9011
 30
0.0
 10
-64.0642
 20
-94.583
 30
0.0
 10
-65.0088
 20
-94.9505
 30
0.0
 10
-65.0088
 20
-94.9505
 30
0.0
 10
-65.9552
 20
-95.3172
 30
0.0
 10
-67.9474
 20
-96.2112
 30
0.0
 10
-68.7846
 20
-97.6686
 30
0.0
 10
-68.7846
 20
-97.6686
 30
0.0
 10
-69.6221
 20
-99.1254
 30
0.0
 10
-69.7719
 20
-99.9211
 30
0.0
 10
-69.7719
 20
-99.9211
 30
0.0
 10
-69.7719
 20
-99.9211
 30
0.0
 10
-69.7719
 20
-99.9211
 30
0.0
 10
-69.3094
 20
-100.1921
 30
0.0
 10
-68.3174
 20
-98.9836
 30
0.0
 10
-68.3174
 20
-98.9836
 30
0.0
 10
-67.3251
 20
-97.7761
 30
0.0
 10
-66.6869
 20
-97.3418
 30
0.0
 10
-65.176
 20
-97.3361
 30
0.0
 10
-65.176
 20
-97.3361
 30
0.0
 10
-63.6663
 20
-97.3297
 30
0.0
 10
-61.0551
 20
-97.1605
 30
0.0
 10
-59.9371
 20
-95.5204
 30
0.0
 10
-59.9371
 20
-95.5204
 30
0.0
 10
-58.4957
 20
-93.4059
 30
0.0
 10
-58.8048
 20
-91.5181
 30
0.0
 10
-60.4724
 20
-90.9796
 30
0.0
 10
-60.4724
 20
-90.9796
 30
0.0
 10
-62.1393
 20
-90.4408
 30
0.0
 10
-64.0514
 20
-91.9936
 30
0.0
 10
-64.0441
 20
-93.4473
 30
0.0
  0
SPLINE
  5
5A
330
1F
100
AcDbEntity
  8
layer 1
 62
     7
370
    18
100
AcDbSpline
210
0.0
220
0.0
230
1.0
 70
    11
 71
     3
 72
    20
 73
    16
 74
     0
 42
0.0000000001
 43
0.0000000001
 12
1.0
 22
0.0
 32
0.0
 13
1.0
 23
0.0
 33
0.0
 40
0.0
 40
0.0
 40
0.0
 40
0.0
 40
0.2
 40
0.2
 40
0.2
 40
0.2
 40
0.4
 40
0.4
 40
0.4
 40
0.4
 40
0.6
 40
0.6
 40
0.6
 40
0.6
 40
1.0
 40
1.0
 40
1.0
 40
1.0
 10
-79.6784
 20
-67.8514
 30
0.0
 10
-81.0971
 20
-69.1552
 30
0.0
 10
-82.6397
 20
-70.6769
 30
0.0
 10
-84.1808
 20
-72.3852
 30
0.0
 10
-84.1808
 20
-72.3852
 30
0.0
 10
-85.1943
 20
-71.4401
 30
0.0
 10
-88.3398
 20
-69.2399
 30
0.0
 10
-93.5822
 20
-72.0061
 30
0.0
 10
-93.5822
 20
-72.0061
 30
0.0
 10
-93.5822
 20
-72.0061
 30
0.0
 10
-94.0926
 20
-70.3037
 30
0.0
 10
-95.8286
 20
-69.4862
 30
0.0
 10
-95.8286
 20
-69.4862
 30
0.0
 10
-90.3033
 20
-69.3826
 30
0.0
 10
-84.9055
 20
-68.8241
 30
0.0
 10
-79.6784
 20
-67.8514
 30
0.0
  0
SPLINE
  5
5B
330
1F
100
AcDbEntity
  8
layer 1
 62
     7
370
    18
100
AcDbSpline
210
0.0
220
0.0
230
1.0
 70
    11
 71
     3
 72
    40
 73
    36
 74
     0
 42
0.0000000001
 43
0.0000000001
 12
1.0
 22
0.0
 32
0.0
 13
1.0
 23
0.0
 33
0.0
 40
0.0
 40
0.0
 40
0.0
 40
0.0
 40
0.1
 40
0.1
 40
0.1
 40
0.1
 40
0.2
 40
0.2
 40
0.2
 40
0.2
 40
0.3
 40
0.3
 40
0.3
 40
0.3
 40
0.4
 40
0.4
 40
0.4
 40
0.4
 40
0.5
 40
0.5
 40
0.5
 40
0.5
 40
0.6
 40
0.6
 40
0.6
 40
0.6
 40
0.7
 40
0.7
 40
0.7
 40
0.7
 40
0.8
 40
0.8
 40
0.8
 40
0.8
 40
1.0
 40
1.0
 40
1.0
 40
1.0
 10
-92.0133
 20
-110.5605
 30
0.0
 10
-95.3329
 20
-106.5046
 30
0.0
 10
-97.1386
 20
-99.8787
 30
0.0
 10
-93.7182
 20
-88.2703
 30
0.0
 10
-93.7182
 20
-88.2703
 30
0.0
 10
-92.1688
 20
-83.0108
 30
0.0
 10
-89.0944
 20
-78.2228
 30
0.0
 10
-85.7955
 20
-74.2497
 30
0.0
 10
-85.7955
 20
-74.2497
 30
0.0
 10
-86.6784
 20
-74.3914
 30
0.0
 10
-87.8366
 20
-74.8541
 30
0.0
 10
-88.4957
 20
-76.3676
 30
0.0
 10
-88.4957
 20
-76.3676
 30
0.0
 10
-89.4859
 20
-78.639
 30
0.0
 10
-92.8997
 20
-79.2749
 30
0.0
 10
-92.8997
 20
-79.2749
 30
0.0
 10
-92.8997
 20
-79.2749
 30
0.0
 10
-92.8997
 20
-79.2749
 30
0.0
 10
-92.012
 20
-81.1525
 30
0.0
 10
-92.9334
 20
-82.3641
 30
0.0
 10
-92.9334
 20
-82.3641
 30
0.0
 10
-93.8555
 20
-83.5759
 30
0.0
 10
-95.9719
 20
-83.818
 30
0.0
 10
-95.9719
 20
-83.818
 30
0.0
 10
-95.9719
 20
-83.818
 30
0.0
 10
-95.9719
 20
-83.818
 30
0.0
 10
-95.9719
 20
-106.578
 30
0.0
 10
-95.9719
 20
-106.578
 30
0.0
 10
-95.9719
 20
-106.578
 30
0.0
 10
-95.9714
 20
-108.1489
 30
0.0
 10
-95.0867
 20
-109.6085
 30
0.0
 10
-93.9949
 20
-110.5605
 30
0.0
 10
-93.9949
 20
-110.5605
 30
0.0
 10
-93.9776
 20
-110.5756
 30
0.0
 10
-92.0307
 20
-110.5456
 30
0.0
 10
-92.0133
 20
-110.5605
 30
0.0
  0
SPLINE
  5
5C
330
1F
100
AcDbEntity
  8
layer 1
 62
     7
370
    18
100
AcDbSpline
210
0.0
220
0.0
230
1.0
 70
    11
 71
     3
 72
    32
 73
    28
 74
     0
 42
0.0000000001
 43
0.0000000001
 12
1.0
 22
0.0
 32
0.0
 13
1.0
 23
0.0
 33
0.0
 40
0.0
 40
0.0
 40
0.0
 40
0.0
 40
0.125
 40
0.125
 40
0.125
 40
0.125
 40
0.25
 40
0.25
 40
0.25
 40
0.25
 40
0.375
 40
0.375
 40
0.375
 40
0.375
 40
0.5
 40
0.5
 40
0.5
 40
0.5
 40
0.625
 40
0.625
 40
0.625
 40
0.625
 40
0.75
 40
0.75
 40
0.75
 40
0.75
 40
1.0
 40
1.0
 40
1.0
 40
1.0
 10
-80.9244
 20
-90.267
 30
0.0
 10
-80.7731
 20
-91.1253
 30
0.0
 10
-80.3611
 20
-92.1992
 30
0.0
 10
-79.279
 20
-92.9033
 30
0.0
 10
-79.279
 20
-92.9033
 30
0.0
 10
-77.2308
 20
-94.2361
 30
0.0
 10
-75.1485
 20
-93.994
 30
0.0
 10
-75.1485
 20
-93.994
 30
0.0
 10
-75.1485
 20
-93.994
 30
0.0
 10
-75.1485
 20
-93.994
 30
0.0
 10
-75.592
 20
-94.7811
 30
0.0
 10
-75.592
 20
-96.7197
 30
0.0
 10
-75.592
 20
-96.7197
 30
0.0
 10
-75.592
 20
-98.6577
 30
0.0
 10
-76.8894
 20
-100.0812
 30
0.0
 10
-78.8689
 20
-101.3532
 30
0.0
 10
-78.8689
 20
-101.3532
 30
0.0
 10
-80.6683
 20
-102.5092
 30
0.0
 10
-82.5367
 20
-106.653
 30
0.0
 10
-80.7748
 20
-109.2525
 30
0.0
 10
-80.7748
 20
-109.2525
 30
0.0
 10
-83.3712
 20
-108.005
 30
0.0
 10
-86.0276
 20
-105.9053
 30
0.0
 10
-86.5497
 20
-102.4438
 30
0.0
 10
-86.5497
 20
-102.4438
 30
0.0
 10
-87.1551
 20
-98.4316
 30
0.0
 10
-84.5834
 20
-93.9734
 30
0.0
 10
-80.9244
 20
-90.267
 30
0.0
  0
SPLINE
  5
5D
330
1F
100
AcDbEntity
  8
layer 1
 62
   250
370
    18
100
AcDbSpline
210
0.0
220
0.0
230
1.0
 70
     8
 71
     3
 72
     8
 73
     4
 74
     0
 42
0.0000000001
 43
0.0000000001
 12
1.0
 22
0.0
 32
0.0
 13
1.0
 23
0.0
 33
0.0
 40
0.0
 40
0.0
 40
0.0
 40
0.0
 40
1.0
 40
1.0
 40
1.0
 40
1.0
 10
-77.1466
 20
-110.5605
 30
0.0
 10
-77.2347
 20
-110.5378
 30
0.0
 10
-77.3241
 20
-110.5145
 30
0.0
 10
-77.4167
 20
-110.4893
 30
0.0
  0
SPLINE
  5
5E
330
1F
100
AcDbEntity
  8
layer 1
 62
     7
370
    18
100
AcDbSpline
210
0.0
220
0.0
230
1.0
 70
    11
 71
     3
 72
    44
 73
    40
 74
     0
 42
0.0000000001
 43
0.0000000001
 12
1.0
 22
0.0
 32
0.0
 13
1.0
 23
0.0
 33
0.0
 40
0.0
 40
0.0
 40
0.0
 40
0.0
 40
0.0909090909090909
 40
0.0909090909090909
 40
0.0909090909090909
 40
0.0909090909090909
 40
0.1818181818181818
 40
0.1818181818181818
 40
0.1818181818181818
 40
0.1818181818181818
 40
0.2727272727272727
 40
0.2727272727272727
 40
0.2727272727272727
 40
0.2727272727272727
 40
0.3636363636363636
 40
0.3636363636363636
 40
0.3636363636363636
 40
0.3636363636363636
 40
0.4545454545454545
 40
0.4545454545454545
 40
0.4545454545454545
 40
0.4545454545454545
 40
0.5454545454545454
 40
0.5454545454545454
 40
0.5454545454545454
 40
0.5454545454545454
 40
0.6363636363636364
 40
0.6363636363636364
 40
0.6363636363636364
 40
0.6363636363636364
 40
0.7272727272727273
 40
0.7272727272727273
 40
0.7272727272727273
 40
0.7272727272727273
 40
0.8181818181818182
 40
0.8181818181818182
 40
0.8181818181818182
 40
0.8181818181818182
 40
1.0
 40
1.0
 40
1.0
 40
1.0
 10
-47.6346
 20
-99.7965
 30
0.0
 10
-47.9838
 20
-98.9914
 30
0.0
 10
-48.3671
 20
-97.9015
 30
0.0
 10
-48.8287
 20
-96.2042
 30
0.0
 10
-48.8287
 20
-96.2042
 30
0.0
 10
-50.2284
 20
-91.0555
 30
0.0
 10
-47.156
 20
-88.9658
 30
0.0
 10
-47.156
 20
-88.9658
 30
0.0
 10
-47.156
 20
-88.9658
 30
0.0
 10
-50.16
 20
-87.1486
 30
0.0
 10
-48.2494
 20
-84.1502
 30
0.0
 10
-48.2494
 20
-84.1502
 30
0.0
 10
-48.2494
 20
-84.1502
 30
0.0
 10
-52.1066
 20
-80.9703
 30
0.0
 10
-55.3495
 20
-81.2429
 30
0.0
 10
-55.3495
 20
-81.2429
 30
0.0
 10
-55.3495
 20
-81.2429
 30
0.0
 10
-55.3495
 20
-81.2429
 30
0.0
 10
-54.2912
 20
-82.1514
 30
0.0
 10
-54.1547
 20
-83.5143
 30
0.0
 10
-54.1547
 20
-83.5143
 30
0.0
 10
-54.0172
 20
-84.8772
 30
0.0
 10
-54.9391
 20
-86.0886
 30
0.0
 10
-54.9391
 20
-86.0886
 30
0.0
 10
-54.9391
 20
-86.0886
 30
0.0
 10
-52.7886
 20
-87.9967
 30
0.0
 10
-54.7006
 20
-90.5104
 30
0.0
 10
-54.7006
 20
-90.5104
 30
0.0
 10
-54.7006
 20
-90.5104
 30
0.0
 10
-52.5157
 20
-90.7221
 30
0.0
 10
-51.9359
 20
-92.9938
 30
0.0
 10
-51.9359
 20
-95.2654
 30
0.0
 10
-51.9359
 20
-95.2654
 30
0.0
 10
-51.9359
 20
-97.5368
 30
0.0
 10
-51.9359
 20
-99.6871
 30
0.0
 10
-50.0234
 20
-99.9903
 30
0.0
 10
-50.0234
 20
-99.9903
 30
0.0
 10
-48.9406
 20
-100.1616
 30
0.0
 10
-48.1327
 20
-99.9833
 30
0.0
 10
-47.6346
 20
-99.7965
 30
0.0
  0
SPLINE
  5
5F
330
1F
100
AcDbEntity
  8
layer 1
 62
     7
370
    18
100
AcDbSpline
210
0.0
220
0.0
230
1.0
 70
    11
 71
     3
 72
    52
 73
    48
 74
     0
 42
0.0000000001
 43
0.0000000001
 12
1.0
 22
0.0
 32
0.0
 13
1.0
 23
0.0
 33
0.0
 40
0.0
 40
0.0
 40
0.0
 40
0.0
 40
0.0769230769230769
 40
0.0769230769230769
 40
0.0769230769230769
 40
0.0769230769230769
 40
0.1538461538461539
 40
0.1538461538461539
 40
0.1538461538461539
 40
0.1538461538461539
 40
0.2307692307692308
 40
0.2307692307692308
 40
0.2307692307692308
 40
0.2307692307692308
 40
0.3076923076923077
 40
0.3076923076923077
 40
0.3076923076923077
 40
0.3076923076923077
 40
0.3846153846153846
 40
0.3846153846153846
 40
0.3846153846153846
 40
0.3846153846153846
 40
0.4615384615384616
 40
0.4615384615384616
 40
0.4615384615384616
 40
0.4615384615384616
 40
0.5384615384615384
 40
0.5384615384615384
 40
0.5384615384615384
 40
0.5384615384615384
 40
0.6153846153846154
 40
0.6153846153846154
 40
0.6153846153846154
 40
0.6153846153846154
 40
0.6923076923076923
 40
0.6923076923076923
 40
0.6923076923076923
 40
0.6923076923076923
 40
0.7692307692307693
 40
0.7692307692307693
 40
0.7692307692307693
 40
0.7692307692307693
 40
0.8461538461538461
 40
0.8461538461538461
 40
0.8461538461538461
 40
0.8461538461538461
 40
1.0
 40
1.0
 40
1.0
 40
1.0
 10
-44.9296
 20
-53.7738
 30
0.0
 10
-44.263
 20
-54.2962
 30
0.0
 10
-43.3774
 20
-55.2645
 30
0.0
 10
-43.2314
 20
-56.8015
 30
0.0
 10
-43.2314
 20
-56.8015
 30
0.0
 10
-42.9926
 20
-59.3156
 30
0.0
 10
-44.6651
 20
-59.891
 30
0.0
 10
-44.6651
 20
-63.1316
 30
0.0
 10
-44.6651
 20
-63.1316
 30
0.0
 10
-44.6651
 20
-66.3726
 30
0.0
 10
-42.0022
 20
-67.4629
 30
0.0
 10
-42.0022
 20
-67.4629
 30
0.0
 10
-42.0022
 20
-67.4629
 30
0.0
 10
-42.0022
 20
-67.4629
 30
0.0
 10
-43.7431
 20
-68.038
 30
0.0
 10
-44.0844
 20
-69.8249
 30
0.0
 10
-44.0844
 20
-69.8249
 30
0.0
 10
-44.4257
 20
-71.6121
 30
0.0
 10
-42.4455
 20
-72.763
 30
0.0
 10
-42.4455
 20
-72.763
 30
0.0
 10
-42.4455
 20
-72.763
 30
0.0
 10
-42.4455
 20
-72.763
 30
0.0
 10
-43.5635
 20
-73.5501
 30
0.0
 10
-44.1531
 20
-75.572
 30
0.0
 10
-44.1531
 20
-75.572
 30
0.0
 10
-44.7415
 20
-77.5936
 30
0.0
 10
-46.3545
 20
-78.1157
 30
0.0
 10
-47.3786
 20
-77.7522
 30
0.0
 10
-47.3786
 20
-77.7522
 30
0.0
 10
-48.4027
 20
-77.3892
 30
0.0
 10
-49.068
 20
-75.5943
 30
0.0
 10
-47.3273
 20
-73.3456
 30
0.0
 10
-47.3273
 20
-73.3456
 30
0.0
 10
-45.5865
 20
-71.0972
 30
0.0
 10
-46.6359
 20
-66.9404
 30
0.0
 10
-52.2942
 20
-67.2584
 30
0.0
 10
-52.2942
 20
-67.2584
 30
0.0
 10
-52.2942
 20
-67.2584
 30
0.0
 10
-50.7837
 20
-65.6685
 30
0.0
 10
-50.2976
 20
-62.5562
 30
0.0
 10
-50.2976
 20
-62.5562
 30
0.0
 10
-49.9969
 20
-60.6339
 30
0.0
 10
-50.8497
 20
-58.8783
 30
0.0
 10
-51.545
 20
-57.8155
 30
0.0
 10
-51.545
 20
-57.8155
 30
0.0
 10
-49.2674
 20
-56.5565
 30
0.0
 10
-47.0603
 20
-55.2081
 30
0.0
 10
-44.9296
 20
-53.7738
 30
0.0
  0
SPLINE
  5
60
330
1F
100
AcDbEntity
  8
layer 1
 62
     7
370
    18
100
AcDbSpline
210
0.0
220
0.0
230
1.0
 70
    11
 71
     3
 72
    36
 73
    32
 74
     0
 42
0.0000000001
 43
0.0000000001
 12
1.0
 22
0.0
 32
0.0
 13
1.0
 23
0.0
 33
0.0
 40
0.0
 40
0.0
 40
0.0
 40
0.0
 40
0.1111111111111111
 40
0.1111111111111111
 40
0.1111111111111111
 40
0.1111111111111111
 40
0.2222222222222222
 40
0.2222222222222222
 40
0.2222222222222222
 40
0.2222222222222222
 40
0.3333333333333333
 40
0.3333333333333333
 40
0.3333333333333333
 40
0.3333333333333333
 40
0.4444444444444444
 40
0.4444444444444444
 40
0.4444444444444444
 40
0.4444444444444444
 40
0.5555555555555556
 40
0.5555555555555556
 40
0.5555555555555556
 40
0.5555555555555556
 40
0.6666666666666666
 40
0.6666666666666666
 40
0.6666666666666666
 40
0.6666666666666666
 40
0.7777777777777778
 40
0.7777777777777778
 40
0.7777777777777778
 40
0.7777777777777778
 40
1.0
 40
1.0
 40
1.0
 40
1.0
 10
-77.4165
 20
-110.4892
 30
0.0
 10
-77.5089
 20
-109.9247
 30
0.0
 10
-77.5503
 20
-108.8129
 30
0.0
 10
-76.752
 20
-107.8044
 30
0.0
 10
-76.752
 20
-107.8044
 30
0.0
 10
-75.6259
 20
-106.3806
 30
0.0
 10
-73.4419
 20
-105.8361
 30
0.0
 10
-69.4472
 20
-106.3507
 30
0.0
 10
-69.4472
 20
-106.3507
 30
0.0
 10
-65.4534
 20
-106.8652
 30
0.0
 10
-61.562
 20
-106.5627
 30
0.0
 10
-58.4897
 20
-103.3517
 30
0.0
 10
-58.4897
 20
-103.3517
 30
0.0
 10
-58.4897
 20
-103.3517
 30
0.0
 10
-57.0902
 20
-105.5327
 30
0.0
 10
-52.5837
 20
-105.5327
 30
0.0
 10
-52.5837
 20
-105.5327
 30
0.0
 10
-49.4161
 20
-105.5327
 30
0.0
 10
-47.3291
 20
-103.408
 30
0.0
 10
-46.3685
 20
-102.1454
 30
0.0
 10
-46.3685
 20
-102.1454
 30
0.0
 10
-46.1151
 20
-102.5937
 30
0.0
 10
-45.8494
 20
-103.1116
 30
0.0
 10
-45.5516
 20
-103.8364
 30
0.0
 10
-45.5516
 20
-103.8364
 30
0.0
 10
-44.4421
 20
-106.5366
 30
0.0
 10
-45.7802
 20
-109.1104
 30
0.0
 10
-47.4339
 20
-110.5135
 30
0.0
 10
-47.4339
 20
-110.5135
 30
0.0
 10
-47.4339
 20
-110.5135
 30
0.0
 10
-77.4165
 20
-110.4892
 30
0.0
 10
-77.4165
 20
-110.4892
 30
0.0
  0
SPLINE
  5
61
330
1F
100
AcDbEntity
  8
layer 1
 62
     7
370
    18
100
AcDbSpline
210
0.0
220
0.0
230
1.0
 70
    11
 71
     3
 72
    28
 73
    24
 74
     0
 42
0.0000000001
 43
0.0000000001
 12
1.0
 22
0.0
 32
0.0
 13
1.0
 23
0.0
 33
0.0
 40
0.0
 40
0.0
 40
0.0
 40
0.0
 40
0.1428571428571428
 40
0.1428571428571428
 40
0.1428571428571428
 40
0.1428571428571428
 40
0.2857142857142857
 40
0.2857142857142857
 40
0.2857142857142857
 40
0.2857142857142857
 40
0.4285714285714285
 40
0.4285714285714285
 40
0.4285714285714285
 40
0.4285714285714285
 40
0.5714285714285714
 40
0.5714285714285714
 40
0.5714285714285714
 40
0.5714285714285714
 40
0.7142857142857143
 40
0.7142857142857143
 40
0.7142857142857143
 40
0.7142857142857143
 40
1.0
 40
1.0
 40
1.0
 40
1.0
 10
-51.0082
 20
-78.8354
 30
0.0
 10
-52.0177
 20
-77.2811
 30
0.0
 10
-51.697
 20
-75.3997
 30
0.0
 10
-51.4575
 20
-73.429
 30
0.0
 10
-51.4575
 20
-73.429
 30
0.0
 10
-51.1161
 20
-70.6127
 30
0.0
 10
-56.5778
 20
-69.5527
 30
0.0
 10
-68.3212
 20
-75.8522
 30
0.0
 10
-68.3212
 20
-75.8522
 30
0.0
 10
-80.0642
 20
-82.1514
 30
0.0
 10
-80.8832
 20
-86.2401
 30
0.0
 10
-80.8832
 20
-86.2401
 30
0.0
 10
-80.8832
 20
-86.2401
 30
0.0
 10
-76.3772
 20
-82.2426
 30
0.0
 10
-71.5301
 20
-79.8806
 30
0.0
 10
-67.1952
 20
-78.7294
 30
0.0
 10
-67.1952
 20
-78.7294
 30
0.0
 10
-62.8593
 20
-77.5785
 30
0.0
 10
-58.6261
 20
-76.8214
 30
0.0
 10
-53.7105
 20
-77.9719
 30
0.0
 10
-53.7105
 20
-77.9719
 30
0.0
 10
-52.7318
 20
-78.2013
 30
0.0
 10
-51.829
 20
-78.5016
 30
0.0
 10
-51.0082
 20
-78.8354
 30
0.0
  0
SPLINE
  5
62
330
1F
100
AcDbEntity
  8
layer 1
 62
     7
370
    18
100
AcDbSpline
210
0.0
220
0.0
230
1.0
 70
    11
 71
     3
 72
    24
 73
    20
 74
     0
 42
0.0000000001
 43
0.0000000001
 12
1.0
 22
0.0
 32
0.0
 13
1.0
 23
0.0
 33
0.0
 40
0.0
 40
0.0
 40
0.0
 40
0.0
 40
0.1666666666666667
 40
0.1666666666666667
 40
0.1666666666666667
 40
0.1666666666666667
 40
0.3333333333333333
 40
0.3333333333333333
 40
0.3333333333333333
 40
0.3333333333333333
 40
0.5
 40
0.5
 40
0.5
 40
0.5
 40
0.6666666666666666
 40
0.6666666666666666
 40
0.6666666666666666
 40
0.6666666666666666
 40
1.0
 40
1.0
 40
1.0
 40
1.0
 10
-42.7527
 20
-110.5605
 30
0.0
 10
-41.0759
 20
-109.6223
 30
0.0
 10
-38.4446
 20
-107.5164
 30
0.0
 10
-38.0765
 20
-103.4123
 30
0.0
 10
-38.0765
 20
-103.4123
 30
0.0
 10
-38.0765
 20
-103.4123
 30
0.0
 10
-36.0963
 20
-104.3513
 30
0.0
 10
-33.4333
 20
-104.3509
 30
0.0
 10
-33.4333
 20
-104.3509
 30
0.0
 10
-30.7702
 20
-104.3509
 30
0.0
 10
-30.0196
 20
-105.2898
 30
0.0
 10
-28.3808
 20
-107.531
 30
0.0
 10
-28.3808
 20
-107.531
 30
0.0
 10
-27.3048
 20
-109.0025
 30
0.0
 10
-26.4931
 20
-109.9366
 30
0.0
 10
-25.6384
 20
-110.5605
 30
0.0
 10
-25.6384
 20
-110.5605
 30
0.0
 10
-25.6384
 20
-110.5605
 30
0.0
 10
-42.7527
 20
-110.5605
 30
0.0
 10
-42.7527
 20
-110.5605
 30
0.0
  0
SPLINE
  5
63
330
1F
100
AcDbEntity
  8
layer 1
 62
     7
370
    18
100
AcDbSpline
210
0.0
220
0.0
230
1.0
 70
    11
 71
     3
 72
    28
 73
    24
 74
     0
 42
0.0000000001
 43
0.0000000001
 12
1.0
 22
0.0
 32
0.0
 13
1.0
 23
0.0
 33
0.0
 40
0.0
 40
0.0
 40
0.0
 40
0.0
 40
0.1428571428571428
 40
0.1428571428571428
 40
0.1428571428571428
 40
0.1428571428571428
 40
0.2857142857142857
 40
0.2857142857142857
 40
0.2857142857142857
 40
0.2857142857142857
 40
0.4285714285714285
 40
0.4285714285714285
 40
0.4285714285714285
 40
0.4285714285714285
 40
0.5714285714285714
 40
0.5714285714285714
 40
0.5714285714285714
 40
0.5714285714285714
 40
0.7142857142857143
 40
0.7142857142857143
 40
0.7142857142857143
 40
0.7142857142857143
 40
1.0
 40
1.0
 40
1.0
 40
1.0
 10
-78.7562
 20
-88.2655
 30
0.0
 10
-78.179
 20
-88.8624
 30
0.0
 10
-76.9725
 20
-89.6738
 30
0.0
 10
-74.9431
 20
-89.1478
 30
0.0
 10
-74.9431
 20
-89.1478
 30
0.0
 10
-71.905
 20
-88.3603
 30
0.0
 10
-71.5981
 20
-86.6038
 30
0.0
 10
-67.7404
 20
-85.0289
 30
0.0
 10
-67.7404
 20
-85.0289
 30
0.0
 10
-63.8836
 20
-83.454
 30
0.0
 10
-62.074
 20
-85.6345
 30
0.0
 10
-62.074
 20
-85.6345
 30
0.0
 10
-62.074
 20
-85.6345
 30
0.0
 10
-61.255
 20
-82.8183
 30
0.0
 10
-57.8756
 20
-84.226
 30
0.0
 10
-57.8756
 20
-84.226
 30
0.0
 10
-57.8756
 20
-84.226
 30
0.0
 10
-57.2103
 20
-80.41
 30
0.0
 10
-64.1229
 20
-80.3196
 30
0.0
 10
-71.3936
 20
-83.5451
 30
0.0
 10
-71.3936
 20
-83.5451
 30
0.0
 10
-73.805
 20
-84.6148
 30
0.0
 10
-76.4015
 20
-86.2714
 30
0.0
 10
-78.7562
 20
-88.2655
 30
0.0
  0
SPLINE
  5
64
330
1F
100
AcDbEntity
  8
layer 1
 62
     7
370
    18
100
AcDbSpline
210
0.0
220
0.0
230
1.0
 70
    11
 71
     3
 72
    28
 73
    24
 74
     0
 42
0.0000000001
 43
0.0000000001
 12
1.0
 22
0.0
 32
0.0
 13
1.0
 23
0.0
 33
0.0
 40
0.0
 40
0.0
 40
0.0
 40
0.0
 40
0.1428571428571428
 40
0.1428571428571428
 40
0.1428571428571428
 40
0.1428571428571428
 40
0.2857142857142857
 40
0.2857142857142857
 40
0.2857142857142857
 40
0.2857142857142857
 40
0.4285714285714285
 40
0.4285714285714285
 40
0.4285714285714285
 40
0.4285714285714285
 40
0.5714285714285714
 40
0.5714285714285714
 40
0.5714285714285714
 40
0.5714285714285714
 40
0.7142857142857143
 40
0.7142857142857143
 40
0.7142857142857143
 40
0.7142857142857143
 40
1.0
 40
1.0
 40
1.0
 40
1.0
 10
-32.2731
 20
-64.676
 30
0.0
 10
-31.0784
 20
-63.0556
 30
0.0
 10
-31.2323
 20
-60.9206
 30
0.0
 10
-31.3691
 20
-59.4516
 30
0.0
 10
-31.3691
 20
-59.4516
 30
0.0
 10
-31.5058
 20
-57.9825
 30
0.0
 10
-31.079
 20
-56.2716
 30
0.0
 10
-30.6524
 20
-55.5902
 30
0.0
 10
-30.6524
 20
-55.5902
 30
0.0
 10
-30.6524
 20
-55.5902
 30
0.0
 10
-32.0857
 20
-55.9082
 30
0.0
 10
-32.9565
 20
-57.9524
 30
0.0
 10
-32.9565
 20
-57.9524
 30
0.0
 10
-33.8268
 20
-59.9968
 30
0.0
 10
-35.0041
 20
-61.0865
 30
0.0
 10
-36.1989
 20
-61.7988
 30
0.0
 10
-36.1989
 20
-61.7988
 30
0.0
 10
-37.3937
 20
-62.5112
 30
0.0
 10
-38.1269
 20
-64.1158
 30
0.0
 10
-37.0691
 20
-65.5243
 30
0.0
 10
-37.0691
 20
-65.5243
 30
0.0
 10
-36.0107
 20
-66.9323
 30
0.0
 10
-33.4679
 20
-66.2963
 30
0.0
 10
-32.2731
 20
-64.676
 30
0.0
  0
SPLINE
  5
65
330
1F
100
AcDbEntity
  8
layer 1
 62
     7
370
    18
100
AcDbSpline
210
0.0
220
0.0
230
1.0
 70
    11
 71
     3
 72
    24
 73
    20
 74
     0
 42
0.0000000001
 43
0.0000000001
 12
1.0
 22
0.0
 32
0.0
 13
1.0
 23
0.0
 33
0.0
 40
0.0
 40
0.0
 40
0.0
 40
0.0
 40
0.1666666666666667
 40
0.1666666666666667
 40
0.1666666666666667
 40
0.1666666666666667
 40
0.3333333333333333
 40
0.3333333333333333
 40
0.3333333333333333
 40
0.3333333333333333
 40
0.5
 40
0.5
 40
0.5
 40
0.5
 40
0.6666666666666666
 40
0.6666666666666666
 40
0.6666666666666666
 40
0.6666666666666666
 40
1.0
 40
1.0
 40
1.0
 40
1.0
 10
-31.5818
 20
-99.081
 30
0.0
 10
-31.5818
 20
-99.081
 30
0.0
 10
-33.9365
 20
-98.0137
 30
0.0
 10
-34.8073
 20
-94.9242
 30
0.0
 10
-34.8073
 20
-94.9242
 30
0.0
 10
-35.6781
 20
-91.8354
 30
0.0
 10
-36.6509
 20
-89.2008
 30
0.0
 10
-40.0559
 20
-89.5188
 30
0.0
 10
-40.0559
 20
-89.5188
 30
0.0
 10
-43.4609
 20
-89.8367
 30
0.0
 10
-42.5648
 20
-93.3803
 30
0.0
 10
-40.3634
 20
-93.9933
 30
0.0
 10
-40.3634
 20
-93.9933
 30
0.0
 10
-38.1608
 20
-94.6068
 30
0.0
 10
-37.6751
 20
-95.1747
 30
0.0
 10
-36.2922
 20
-96.8553
 30
0.0
 10
-36.2922
 20
-96.8553
 30
0.0
 10
-34.9101
 20
-98.5359
 30
0.0
 10
-31.5818
 20
-99.081
 30
0.0
 10
-31.5818
 20
-99.081
 30
0.0
  0
SPLINE
  5
66
330
1F
100
AcDbEntity
  8
layer 1
 62
     7
370
    18
100
AcDbSpline
210
0.0
220
0.0
230
1.0
 70
    11
 71
     3
 72
    20
 73
    16
 74
     0
 42
0.0000000001
 43
0.0000000001
 12
1.0
 22
0.0
 32
0.0
 13
1.0
 23
0.0
 33
0.0
 40
0.0
 40
0.0
 40
0.0
 40
0.0
 40
0.2
 40
0.2
 40
0.2
 40
0.2
 40
0.4
 40
0.4
 40
0.4
 40
0.4
 40
0.6
 40
0.6
 40
0.6
 40
0.6
 40
1.0
 40
1.0
 40
1.0
 40
1.0
 10
-20.4414
 20
-89.3697
 30
0.0
 10
-20.4414
 20
-89.3697
 30
0.0
 10
-20.4414
 20
-109.0923
 30
0.0
 10
-20.4414
 20
-109.0923
 30
0.0
 10
-20.4414
 20
-109.0923
 30
0.0
 10
-21.406
 20
-108.7295
 30
0.0
 10
-23.0864
 20
-107.7133
 30
0.0
 10
-23.9776
 20
-104.9261
 30
0.0
 10
-23.9776
 20
-104.9261
 30
0.0
 10
-25.2744
 20
-100.8678
 30
0.0
 10
-22.4407
 20
-97.9305
 30
0.0
 10
-26.4012
 20
-94.1748
 30
0.0
 10
-26.4012
 20
-94.1748
 30
0.0
 10
-26.4012
 20
-94.1748
 30
0.0
 10
-22.4687
 20
-92.4297
 30
0.0
 10
-20.4414
 20
-89.3697
 30
0.0
  0
SPLINE
  5
67
330
1F
100
AcDbEntity
  8
layer 1
 62
     7
370
    18
100
AcDbSpline
210
0.0
220
0.0
230
1.0
 70
    11
 71
     3
 72
    40
 73
    36
 74
     0
 42
0.0000000001
 43
0.0000000001
 12
1.0
 22
0.0
 32
0.0
 13
1.0
 23
0.0
 33
0.0
 40
0.0
 40
0.0
 40
0.0
 40
0.0
 40
0.1
 40
0.1
 40
0.1
 40
0.1
 40
0.2
 40
0.2
 40
0.2
 40
0.2
 40
0.3
 40
0.3
 40
0.3
 40
0.3
 40
0.4
 40
0.4
 40
0.4
 40
0.4
 40
0.5
 40
0.5
 40
0.5
 40
0.5
 40
0.6
 40
0.6
 40
0.6
 40
0.6
 40
0.7
 40
0.7
 40
0.7
 40
0.7
 40
0.8
 40
0.8
 40
0.8
 40
0.8
 40
1.0
 40
1.0
 40
1.0
 40
1.0
 10
-176.078
 20
5.8021
 30
0.0
 10
-175.7993
 20
-2.0755
 30
0.0
 10
-174.0238
 20
-9.6231
 30
0.0
 10
-171.0296
 20
-16.6291
 30
0.0
 10
-171.0296
 20
-16.6291
 30
0.0
 10
-171.0658
 20
-14.3425
 30
0.0
 10
-170.0497
 20
-11.4729
 30
0.0
 10
-167.0648
 20
-10.2009
 30
0.0
 10
-167.0648
 20
-10.2009
 30
0.0
 10
-165.0985
 20
-9.3632
 30
0.0
 10
-163.4251
 20
-9.4653
 30
0.0
 10
-162.089
 20
-9.9543
 30
0.0
 10
-162.089
 20
-9.9543
 30
0.0
 10
-162.7422
 20
-9.0092
 30
0.0
 10
-163.0662
 20
-8.0328
 30
0.0
 10
-162.9856
 20
-7.2247
 30
0.0
 10
-162.9856
 20
-7.2247
 30
0.0
 10
-162.831
 20
-5.6783
 30
0.0
 10
-162.2247
 20
-4.2419
 30
0.0
 10
-161.0034
 20
-3.2302
 30
0.0
 10
-161.0034
 20
-3.2302
 30
0.0
 10
-161.5868
 20
-2.6578
 30
0.0
 10
-162.0482
 20
-1.9746
 30
0.0
 10
-162.0482
 20
-1.2422
 30
0.0
 10
-162.0482
 20
-1.2422
 30
0.0
 10
-162.0482
 20
0.7561
 30
0.0
 10
-160.9221
 20
1.9832
 30
0.0
 10
-160.9221
 20
1.9832
 30
0.0
 10
-160.9221
 20
1.9832
 30
0.0
 10
-166.1959
 20
0.5296
 30
0.0
 10
-168.5
 20
5.3447
 30
0.0
 10
-172.1864
 20
6.299
 30
0.0
 10
-172.1864
 20
6.299
 30
0.0
 10
-173.5546
 20
6.653
 30
0.0
 10
-175.2322
 20
6.1296
 30
0.0
 10
-176.078
 20
5.8021
 30
0.0
  0
SPLINE
  5
68
330
1F
100
AcDbEntity
  8
layer 1
 62
     7
370
    18
100
AcDbSpline
210
0.0
220
0.0
230
1.0
 70
    11
 71
     3
 72
    36
 73
    32
 74
     0
 42
0.0000000001
 43
0.0000000001
 12
1.0
 22
0.0
 32
0.0
 13
1.0
 23
0.0
 33
0.0
 40
0.0
 40
0.0
 40
0.0
 40
0.0
 40
0.1111111111111111
 40
0.1111111111111111
 40
0.1111111111111111
 40
0.1111111111111111
 40
0.2222222222222222
 40
0.2222222222222222
 40
0.2222222222222222
 40
0.2222222222222222
 40
0.3333333333333333
 40
0.3333333333333333
 40
0.3333333333333333
 40
0.3333333333333333
 40
0.4444444444444444
 40
0.4444444444444444
 40
0.4444444444444444
 40
0.4444444444444444
 40
0.5555555555555556
 40
0.5555555555555556
 40
0.5555555555555556
 40
0.5555555555555556
 40
0.6666666666666666
 40
0.6666666666666666
 40
0.6666666666666666
 40
0.6666666666666666
 40
0.7777777777777778
 40
0.7777777777777778
 40
0.7777777777777778
 40
0.7777777777777778
 40
1.0
 40
1.0
 40
1.0
 40
1.0
 10
-110.4234
 20
-47.8903
 30
0.0
 10
-109.5789
 20
-48.5799
 30
0.0
 10
-108.4813
 20
-49.1561
 30
0.0
 10
-107.4112
 20
-49.3689
 30
0.0
 10
-107.4112
 20
-49.3689
 30
0.0
 10
-105.4308
 20
-49.763
 30
0.0
 10
-103.2468
 20
-48.2484
 30
0.0
 10
-103.2468
 20
-48.2484
 30
0.0
 10
-103.2468
 20
-48.2484
 30
0.0
 10
-102.8707
 20
-49.7927
 30
0.0
 10
-101.4372
 20
-51.4893
 30
0.0
 10
-99.9691
 20
-53.2757
 30
0.0
 10
-99.9691
 20
-53.2757
 30
0.0
 10
-98.5018
 20
-55.0633
 30
0.0
 10
-99.7984
 20
-55.971
 30
0.0
 10
-99.7991
 20
-58.3038
 30
0.0
 10
-99.7991
 20
-58.3038
 30
0.0
 10
-99.7984
 20
-59.7995
 30
0.0
 10
-99.0558
 20
-60.9062
 30
0.0
 10
-98.5224
 20
-61.5095
 30
0.0
 10
-98.5224
 20
-61.5095
 30
0.0
 10
-107.7427
 20
-61.4271
 30
0.0
 10
-116.582
 20
-59.9366
 30
0.0
 10
-124.7775
 20
-57.2623
 30
0.0
 10
-124.7775
 20
-57.2623
 30
0.0
 10
-121.6451
 20
-57.4699
 30
0.0
 10
-117.0332
 20
-56.7457
 30
0.0
 10
-113.1796
 20
-52.2463
 30
0.0
 10
-113.1796
 20
-52.2463
 30
0.0
 10
-111.9677
 20
-50.8305
 30
0.0
 10
-111.0769
 20
-49.3759
 30
0.0
 10
-110.4234
 20
-47.8903
 30
0.0
  0
SPLINE
  5
69
330
1F
100
AcDbEntity
  8
layer 1
 62
     7
370
    18
100
AcDbSpline
210
0.0
220
0.0
230
1.0
 70
    11
 71
     3
 72
    40
 73
    36
 74
     0
 42
0.0000000001
 43
0.0000000001
 12
1.0
 22
0.0
 32
0.0
 13
1.0
 23
0.0
 33
0.0
 40
0.0
 40
0.0
 40
0.0
 40
0.0
 40
0.1
 40
0.1
 40
0.1
 40
0.1
 40
0.2
 40
0.2
 40
0.2
 40
0.2
 40
0.3
 40
0.3
 40
0.3
 40
0.3
 40
0.4
 40
0.4
 40
0.4
 40
0.4
 40
0.5
 40
0.5
 40
0.5
 40
0.5
 40
0.6
 40
0.6
 40
0.6
 40
0.6
 40
0.7
 40
0.7
 40
0.7
 40
0.7
 40
0.8
 40
0.8
 40
0.8
 40
0.8
 40
1.0
 40
1.0
 40
1.0
 40
1.0
 10
-69.9383
 20
-57.0211
 30
0.0
 10
-77.8335
 20
-59.676
 30
0.0
 10
-86.3361
 20
-61.2327
 30
0.0
 10
-95.213
 20
-61.4799
 30
0.0
 10
-95.213
 20
-61.4799
 30
0.0
 10
-95.5816
 20
-60.7278
 30
0.0
 10
-96.1691
 20
-59.2429
 30
0.0
 10
-95.7708
 20
-58.0308
 30
0.0
 10
-95.7708
 20
-58.0308
 30
0.0
 10
-94.6955
 20
-54.7602
 30
0.0
 10
-89.2678
 20
-52.7156
 30
0.0
 10
-90.9064
 20
-48.0367
 30
0.0
 10
-90.9064
 20
-48.0367
 30
0.0
 10
-90.9064
 20
-48.0367
 30
0.0
 10
-89.5238
 20
-49.0361
 30
0.0
 10
-87.2709
 20
-49.0361
 30
0.0
 10
-87.2709
 20
-49.0361
 30
0.0
 10
-86.4454
 20
-49.0361
 30
0.0
 10
-85.6753
 20
-48.6267
 30
0.0
 10
-85.0301
 20
-48.1085
 30
0.0
 10
-85.0301
 20
-48.1085
 30
0.0
 10
-83.8898
 20
-49.1922
 30
0.0
 10
-82.2731
 20
-49.7477
 30
0.0
 10
-80.5298
 20
-49.8846
 30
0.0
 10
-80.5298
 20
-49.8846
 30
0.0
 10
-79.6191
 20
-49.9564
 30
0.0
 10
-78.5183
 20
-49.6686
 30
0.0
 10
-77.4529
 20
-49.0886
 30
0.0
 10
-77.4529
 20
-49.0886
 30
0.0
 10
-78.0041
 20
-50.2743
 30
0.0
 10
-78.1193
 20
-51.7592
 30
0.0
 10
-77.1753
 20
-53.504
 30
0.0
 10
-77.1753
 20
-53.504
 30
0.0
 10
-75.7429
 20
-56.1493
 30
0.0
 10
-72.5141
 20
-57.0515
 30
0.0
 10
-69.9383
 20
-57.0211
 30
0.0
  0
SPLINE
  5
6A
330
1F
100
AcDbEntity
  8
layer 1
 62
     7
370
    18
100
AcDbSpline
210
0.0
220
0.0
230
1.0
 70
    11
 71
     3
 72
    36
 73
    32
 74
     0
 42
0.0000000001
 43
0.0000000001
 12
1.0
 22
0.0
 32
0.0
 13
1.0
 23
0.0
 33
0.0
 40
0.0
 40
0.0
 40
0.0
 40
0.0
 40
0.1111111111111111
 40
0.1111111111111111
 40
0.1111111111111111
 40
0.1111111111111111
 40
0.2222222222222222
 40
0.2222222222222222
 40
0.2222222222222222
 40
0.2222222222222222
 40
0.3333333333333333
 40
0.3333333333333333
 40
0.3333333333333333
 40
0.3333333333333333
 40
0.4444444444444444
 40
0.4444444444444444
 40
0.4444444444444444
 40
0.4444444444444444
 40
0.5555555555555556
 40
0.5555555555555556
 40
0.5555555555555556
 40
0.5555555555555556
 40
0.6666666666666666
 40
0.6666666666666666
 40
0.6666666666666666
 40
0.6666666666666666
 40
0.7777777777777778
 40
0.7777777777777778
 40
0.7777777777777778
 40
0.7777777777777778
 40
1.0
 40
1.0
 40
1.0
 40
1.0
 10
-151.2647
 20
-23.5418
 30
0.0
 10
-151.2166
 20
-24.5588
 30
0.0
 10
-150.9001
 20
-25.6554
 30
0.0
 10
-150.3133
 20
-26.477
 30
0.0
 10
-150.3133
 20
-26.477
 30
0.0
 10
-149.2271
 20
-27.9977
 30
0.0
 10
-146.4755
 20
-28.2977
 30
0.0
 10
-146.4755
 20
-28.2977
 30
0.0
 10
-146.4755
 20
-28.2977
 30
0.0
 10
-147.4404
 20
-29.625
 30
0.0
 10
-147.7789
 20
-31.7236
 30
0.0
 10
-148.165
 20
-33.9081
 30
0.0
 10
-148.165
 20
-33.9081
 30
0.0
 10
-148.5518
 20
-36.0923
 30
0.0
 10
-150.1918
 20
-35.9212
 30
0.0
 10
-152.0514
 20
-37.5701
 30
0.0
 10
-152.0514
 20
-37.5701
 30
0.0
 10
-153.2462
 20
-38.63
 30
0.0
 10
-153.6017
 20
-39.8815
 30
0.0
 10
-153.704
 20
-40.6429
 30
0.0
 10
-153.704
 20
-40.6429
 30
0.0
 10
-159.9338
 20
-35.0027
 30
0.0
 10
-165.0892
 20
-28.4259
 30
0.0
 10
-168.8769
 20
-21.1714
 30
0.0
 10
-168.8769
 20
-21.1714
 30
0.0
 10
-166.8248
 20
-23.2813
 30
0.0
 10
-162.9885
 20
-25.6554
 30
0.0
 10
-156.6858
 20
-24.8925
 30
0.0
 10
-156.6858
 20
-24.8925
 30
0.0
 10
-154.5414
 20
-24.6349
 30
0.0
 10
-150.5428
 20
-23.9237
 30
0.0
 10
-151.2647
 20
-23.5418
 30
0.0
  0
SPLINE
  5
6B
330
1F
100
AcDbEntity
  8
layer 1
 62
     7
370
    18
100
AcDbSpline
210
0.0
220
0.0
230
1.0
 70
    11
 71
     3
 72
    40
 73
    36
 74
     0
 42
0.0000000001
 43
0.0000000001
 12
1.0
 22
0.0
 32
0.0
 13
1.0
 23
0.0
 33
0.0
 40
0.0
 40
0.0
 40
0.0
 40
0.0
 40
0.1
 40
0.1
 40
0.1
 40
0.1
 40
0.2
 40
0.2
 40
0.2
 40
0.2
 40
0.3
 40
0.3
 40
0.3
 40
0.3
 40
0.4
 40
0.4
 40
0.4
 40
0.4
 40
0.5
 40
0.5
 40
0.5
 40
0.5
 40
0.6
 40
0.6
 40
0.6
 40
0.6
 40
0.7
 40
0.7
 40
0.7
 40
0.7
 40
0.8
 40
0.8
 40
0.8
 40
0.8
 40
1.0
 40
1.0
 40
1.0
 40
1.0
 10
-128.9056
 20
-45.0732
 30
0.0
 10
-130.1209
 20
-44.8151
 30
0.0
 10
-131.1289
 20
-44.3276
 30
0.0
 10
-131.716
 20
-43.7055
 30
0.0
 10
-131.716
 20
-43.7055
 30
0.0
 10
-132.8394
 20
-42.515
 30
0.0
 10
-133.5402
 20
-41.1082
 30
0.0
 10
-133.4829
 20
-39.6269
 30
0.0
 10
-133.4829
 20
-39.6269
 30
0.0
 10
-134.3518
 20
-39.5881
 30
0.0
 10
-135.2226
 20
-39.3942
 30
0.0
 10
-135.8067
 20
-38.8763
 30
0.0
 10
-135.8067
 20
-38.8763
 30
0.0
 10
-137.3994
 20
-37.4631
 30
0.0
 10
-137.5807
 20
-35.8892
 30
0.0
 10
-137.5807
 20
-35.8892
 30
0.0
 10
-137.5807
 20
-35.8892
 30
0.0
 10
-140.1508
 20
-40.2256
 30
0.0
 10
-145.6188
 20
-38.2664
 30
0.0
 10
-148.9859
 20
-39.9043
 30
0.0
 10
-148.9859
 20
-39.9043
 30
0.0
 10
-150.2345
 20
-40.5121
 30
0.0
 10
-151.0024
 20
-41.9325
 30
0.0
 10
-151.3408
 20
-42.6954
 30
0.0
 10
-151.3408
 20
-42.6954
 30
0.0
 10
-145.0751
 20
-47.9117
 30
0.0
 10
-137.8446
 20
-52.2271
 30
0.0
 10
-129.9086
 20
-55.4021
 30
0.0
 10
-129.9086
 20
-55.4021
 30
0.0
 10
-131.7567
 20
-53.8077
 30
0.0
 10
-133.3251
 20
-51.1413
 30
0.0
 10
-132.2283
 20
-48.3695
 30
0.0
 10
-132.2283
 20
-48.3695
 30
0.0
 10
-131.5056
 20
-46.5436
 30
0.0
 10
-130.2409
 20
-45.5656
 30
0.0
 10
-128.9056
 20
-45.0732
 30
0.0
  0
SPLINE
  5
6C
330
1F
100
AcDbEntity
  8
layer 1
 62
     7
370
    18
100
AcDbSpline
210
0.0
220
0.0
230
1.0
 70
    11
 71
     3
 72
    36
 73
    32
 74
     0
 42
0.0000000001
 43
0.0000000001
 12
1.0
 22
0.0
 32
0.0
 13
1.0
 23
0.0
 33
0.0
 40
0.0
 40
0.0
 40
0.0
 40
0.0
 40
0.1111111111111111
 40
0.1111111111111111
 40
0.1111111111111111
 40
0.1111111111111111
 40
0.2222222222222222
 40
0.2222222222222222
 40
0.2222222222222222
 40
0.2222222222222222
 40
0.3333333333333333
 40
0.3333333333333333
 40
0.3333333333333333
 40
0.3333333333333333
 40
0.4444444444444444
 40
0.4444444444444444
 40
0.4444444444444444
 40
0.4444444444444444
 40
0.5555555555555556
 40
0.5555555555555556
 40
0.5555555555555556
 40
0.5555555555555556
 40
0.6666666666666666
 40
0.6666666666666666
 40
0.6666666666666666
 40
0.6666666666666666
 40
0.7777777777777778
 40
0.7777777777777778
 40
0.7777777777777778
 40
0.7777777777777778
 40
1.0
 40
1.0
 40
1.0
 40
1.0
 10
-64.8033
 20
-55.1059
 30
0.0
 10
-56.6292
 20
-51.7461
 30
0.0
 10
-49.2187
 20
-47.1748
 30
0.0
 10
-42.8627
 20
-41.6501
 30
0.0
 10
-42.8627
 20
-41.6501
 30
0.0
 10
-43.721
 20
-41.559
 30
0.0
 10
-45.1318
 20
-41.2439
 30
0.0
 10
-46.3266
 20
-40.1839
 30
0.0
 10
-46.3266
 20
-40.1839
 30
0.0
 10
-48.1852
 20
-38.5338
 30
0.0
 10
-47.992
 20
-37.0786
 30
0.0
 10
-50.4541
 20
-36.7356
 30
0.0
 10
-50.4541
 20
-36.7356
 30
0.0
 10
-52.9163
 20
-36.3932
 30
0.0
 10
-55.2819
 20
-36.0931
 30
0.0
 10
-56.7785
 20
-35.2367
 30
0.0
 10
-56.7785
 20
-35.2367
 30
0.0
 10
-56.7785
 20
-35.2367
 30
0.0
 10
-57.116
 20
-37.678
 30
0.0
 10
-58.8299
 20
-38.6413
 30
0.0
 10
-58.8299
 20
-38.6413
 30
0.0
 10
-59.7563
 20
-39.1623
 30
0.0
 10
-60.9919
 20
-39.4431
 30
0.0
 10
-62.1385
 20
-39.4851
 30
0.0
 10
-62.1385
 20
-39.4851
 30
0.0
 10
-61.4166
 20
-40.9459
 30
0.0
 10
-60.8869
 20
-42.5332
 30
0.0
 10
-60.6155
 20
-44.2955
 30
0.0
 10
-60.6155
 20
-44.2955
 30
0.0
 10
-59.7563
 20
-49.8819
 30
0.0
 10
-62.4267
 20
-53.2844
 30
0.0
 10
-64.8033
 20
-55.1059
 30
0.0
  0
SPLINE
  5
6D
330
1F
100
AcDbEntity
  8
layer 1
 62
   250
370
    18
100
AcDbSpline
210
0.0
220
0.0
230
1.0
 70
     8
 71
     3
 72
    12
 73
     8
 74
     0
 42
0.0000000001
 43
0.0000000001
 12
1.0
 22
0.0
 32
0.0
 13
1.0
 23
0.0
 33
0.0
 40
0.0
 40
0.0
 40
0.0
 40
0.0
 40
0.3333333333333333
 40
0.3333333333333333
 40
0.3333333333333333
 40
0.3333333333333333
 40
1.0
 40
1.0
 40
1.0
 40
1.0
 10
-67.2799
 20
24.7202
 30
0.0
 10
-66.6414
 20
22.7449
 30
0.0
 10
-66.7503
 20
20.4868
 30
0.0
 10
-67.284
 20
19.1212
 30
0.0
 10
-67.284
 20
19.1212
 30
0.0
 10
-67.284
 20
19.1212
 30
0.0
 10
-65.3657
 20
21.5245
 30
0.0
 10
-62.3791
 20
24.7202
 30
0.0
  0
SPLINE
  5
6E
330
1F
100
AcDbEntity
  8
layer 1
 62
   250
370
    18
100
AcDbSpline
210
0.0
220
0.0
230
1.0
 70
     8
 71
     3
 72
    12
 73
     8
 74
     0
 42
0.0000000001
 43
0.0000000001
 12
1.0
 22
0.0
 32
0.0
 13
1.0
 23
0.0
 33
0.0
 40
0.0
 40
0.0
 40
0.0
 40
0.0
 40
0.3333333333333333
 40
0.3333333333333333
 40
0.3333333333333333
 40
0.3333333333333333
 40
1.0
 40
1.0
 40
1.0
 40
1.0
 10
-32.6668
 20
24.7202
 30
0.0
 10
-32.4798
 20
24.2084
 30
0.0
 10
-32.4021
 20
23.7142
 30
0.0
 10
-32.4465
 20
23.2708
 30
0.0
 10
-32.4465
 20
23.2708
 30
0.0
 10
-32.601
 20
21.7243
 30
0.0
 10
-33.2267
 20
20.2902
 30
0.0
 10
-34.4478
 20
19.2788
 30
0.0
  0
SPLINE
  5
6F
330
1F
100
AcDbEntity
  8
layer 1
 62
   250
370
    18
100
AcDbSpline
210
0.0
220
0.0
230
1.0
 70
     8
 71
     3
 72
    12
 73
     8
 74
     0
 42
0.0000000001
 43
0.0000000001
 12
1.0
 22
0.0
 32
0.0
 13
1.0
 23
0.0
 33
0.0
 40
0.0
 40
0.0
 40
0.0
 40
0.0
 40
0.3333333333333333
 40
0.3333333333333333
 40
0.3333333333333333
 40
0.3333333333333333
 40
1.0
 40
1.0
 40
1.0
 40
1.0
 10
-79.8811
 20
24.7202
 30
0.0
 10
-80.7024
 20
19.9986
 30
0.0
 10
-82.2909
 20
16.0752
 30
0.0
 10
-85.4952
 20
13.2328
 30
0.0
 10
-85.4952
 20
13.2328
 30
0.0
 10
-86.6193
 20
12.2348
 30
0.0
 10
-87.6124
 20
11.4609
 30
0.0
 10
-88.456
 20
10.8611
 30
0.0
  0
SPLINE
  5
70
330
1F
100
AcDbEntity
  8
layer 1
 62
   250
370
    18
100
AcDbSpline
210
0.0
220
0.0
230
1.0
 70
     8
 71
     3
 72
    12
 73
     8
 74
     0
 42
0.0000000001
 43
0.0000000001
 12
1.0
 22
0.0
 32
0.0
 13
1.0
 23
0.0
 33
0.0
 40
0.0
 40
0.0
 40
0.0
 40
0.0
 40
0.3333333333333333
 40
0.3333333333333333
 40
0.3333333333333333
 40
0.3333333333333333
 40
1.0
 40
1.0
 40
1.0
 40
1.0
 10
-94.3857
 20
24.7202
 30
0.0
 10
-93.6387
 20
22.9685
 30
0.0
 10
-93.2263
 20
21.1965
 30
0.0
 10
-93.2263
 20
19.3731
 30
0.0
 10
-93.2263
 20
19.3731
 30
0.0
 10
-93.2263
 20
17.9626
 30
0.0
 10
-93.3117
 20
16.7934
 30
0.0
 10
-93.4293
 20
15.8397
 30
0.0
  0
SPLINE
  5
71
330
1F
100
AcDbEntity
  8
layer 1
 62
     7
370
    18
100
AcDbSpline
210
0.0
220
0.0
230
1.0
 70
    11
 71
     3
 72
    68
 73
    64
 74
     0
 42
0.0000000001
 43
0.0000000001
 12
1.0
 22
0.0
 32
0.0
 13
1.0
 23
0.0
 33
0.0
 40
0.0
 40
0.0
 40
0.0
 40
0.0
 40
0.0588235294117647
 40
0.0588235294117647
 40
0.0588235294117647
 40
0.0588235294117647
 40
0.1176470588235294
 40
0.1176470588235294
 40
0.1176470588235294
 40
0.1176470588235294
 40
0.1764705882352941
 40
0.1764705882352941
 40
0.1764705882352941
 40
0.1764705882352941
 40
0.2352941176470588
 40
0.2352941176470588
 40
0.2352941176470588
 40
0.2352941176470588
 40
0.2941176470588235
 40
0.2941176470588235
 40
0.2941176470588235
 40
0.2941176470588235
 40
0.3529411764705883
 40
0.3529411764705883
 40
0.3529411764705883
 40
0.3529411764705883
 40
0.4117647058823529
 40
0.4117647058823529
 40
0.4117647058823529
 40
0.4117647058823529
 40
0.4705882352941176
 40
0.4705882352941176
 40
0.4705882352941176
 40
0.4705882352941176
 40
0.5294117647058824
 40
0.5294117647058824
 40
0.5294117647058824
 40
0.5294117647058824
 40
0.5882352941176471
 40
0.5882352941176471
 40
0.5882352941176471
 40
0.5882352941176471
 40
0.6470588235294118
 40
0.6470588235294118
 40
0.6470588235294118
 40
0.6470588235294118
 40
0.7058823529411765
 40
0.7058823529411765
 40
0.7058823529411765
 40
0.7058823529411765
 40
0.7647058823529411
 40
0.7647058823529411
 40
0.7647058823529411
 40
0.7647058823529411
 40
0.8235294117647058
 40
0.8235294117647058
 40
0.8235294117647058
 40
0.8235294117647058
 40
0.8823529411764706
 40
0.8823529411764706
 40
0.8823529411764706
 40
0.8823529411764706
 40
1.0
 40
1.0
 40
1.0
 40
1.0
 10
-132.2322
 20
-36.5924
 30
0.0
 10
-132.2403
 20
-36.561
 30
0.0
 10
-132.2509
 20
-36.5329
 30
0.0
 10
-132.2583
 20
-36.4999
 30
0.0
 10
-132.2583
 20
-36.4999
 30
0.0
 10
-132.5842
 20
-34.9895
 30
0.0
 10
-130.9061
 20
-33.3301
 30
0.0
 10
-129.4579
 20
-32.0454
 30
0.0
 10
-129.4579
 20
-32.0454
 30
0.0
 10
-128.0097
 20
-30.7606
 30
0.0
 10
-124.2681
 20
-26.4984
 30
0.0
 10
-126.8267
 20
-23.2863
 30
0.0
 10
-126.8267
 20
-23.2863
 30
0.0
 10
-126.8267
 20
-23.2863
 30
0.0
 10
-123.5689
 20
-22.0657
 30
0.0
 10
-125.3067
 20
-19.196
 30
0.0
 10
-125.3067
 20
-19.196
 30
0.0
 10
-125.3067
 20
-19.196
 30
0.0
 10
-124.0028
 20
-17.9961
 30
0.0
 10
-121.8785
 20
-17.1823
 30
0.0
 10
-121.8785
 20
-17.1823
 30
0.0
 10
-119.7545
 20
-16.3689
 30
0.0
 10
-117.896
 20
-14.9348
 30
0.0
 10
-116.7854
 20
-10.7369
 30
0.0
 10
-116.7854
 20
-10.7369
 30
0.0
 10
-115.6748
 20
-6.5393
 30
0.0
 10
-115.2887
 20
-2.4702
 30
0.0
 10
-113.0442
 20
0.7637
 30
0.0
 10
-113.0442
 20
0.7637
 30
0.0
 10
-111.2834
 20
3.2993
 30
0.0
 10
-108.8288
 20
4.6331
 30
0.0
 10
-106.9773
 20
5.1851
 30
0.0
 10
-106.9773
 20
5.1851
 30
0.0
 10
-107.8204
 20
4.5851
 30
0.0
 10
-108.8129
 20
3.8113
 30
0.0
 10
-109.9372
 20
2.814
 30
0.0
 10
-109.9372
 20
2.814
 30
0.0
 10
-113.6923
 20
-0.5176
 30
0.0
 10
-115.2285
 20
-5.333
 30
0.0
 10
-115.9113
 20
-11.1783
 30
0.0
 10
-115.9113
 20
-11.1783
 30
0.0
 10
-116.5939
 20
-17.0236
 30
0.0
 10
-116.2867
 20
-18.9615
 30
0.0
 10
-118.0963
 20
-26.5936
 30
0.0
 10
-118.0963
 20
-26.5936
 30
0.0
 10
-119.9052
 20
-34.226
 30
0.0
 10
-120.7412
 20
-35.7854
 30
0.0
 10
-122.5679
 20
-37.4064
 30
0.0
 10
-122.5679
 20
-37.4064
 30
0.0
 10
-124.3948
 20
-39.0267
 30
0.0
 10
-127.1424
 20
-38.0421
 30
0.0
 10
-127.1424
 20
-37.0124
 30
0.0
 10
-127.1424
 20
-37.0124
 30
0.0
 10
-127.1424
 20
-35.9829
 30
0.0
 10
-125.0942
 20
-35.4072
 30
0.0
 10
-125.0942
 20
-35.4072
 30
0.0
 10
-125.0942
 20
-35.4072
 30
0.0
 10
-125.5715
 20
-34.3774
 30
0.0
 10
-129.7712
 20
-33.7717
 30
0.0
 10
-132.0574
 20
-36.3758
 30
0.0
 10
-132.0574
 20
-36.3758
 30
0.0
 10
-132.121
 20
-36.4478
 30
0.0
 10
-132.1735
 20
-36.5201
 30
0.0
 10
-132.2322
 20
-36.5924
 30
0.0
  0
SPLINE
  5
72
330
1F
100
AcDbEntity
  8
layer 1
 62
     7
370
    18
100
AcDbSpline
210
0.0
220
0.0
230
1.0
 70
    11
 71
     3
 72
    44
 73
    40
 74
     0
 42
0.0000000001
 43
0.0000000001
 12
1.0
 22
0.0
 32
0.0
 13
1.0
 23
0.0
 33
0.0
 40
0.0
 40
0.0
 40
0.0
 40
0.0
 40
0.0909090909090909
 40
0.0909090909090909
 40
0.0909090909090909
 40
0.0909090909090909
 40
0.1818181818181818
 40
0.1818181818181818
 40
0.1818181818181818
 40
0.1818181818181818
 40
0.2727272727272727
 40
0.2727272727272727
 40
0.2727272727272727
 40
0.2727272727272727
 40
0.3636363636363636
 40
0.3636363636363636
 40
0.3636363636363636
 40
0.3636363636363636
 40
0.4545454545454545
 40
0.4545454545454545
 40
0.4545454545454545
 40
0.4545454545454545
 40
0.5454545454545454
 40
0.5454545454545454
 40
0.5454545454545454
 40
0.5454545454545454
 40
0.6363636363636364
 40
0.6363636363636364
 40
0.6363636363636364
 40
0.6363636363636364
 40
0.7272727272727273
 40
0.7272727272727273
 40
0.7272727272727273
 40
0.7272727272727273
 40
0.8181818181818182
 40
0.8181818181818182
 40
0.8181818181818182
 40
0.8181818181818182
 40
1.0
 40
1.0
 40
1.0
 40
1.0
 10
-148.5237
 20
-22.2572
 30
0.0
 10
-144.3659
 20
-19.9673
 30
0.0
 10
-141.0936
 20
-16.5882
 30
0.0
 10
-137.6168
 20
-13.2853
 30
0.0
 10
-137.6168
 20
-13.2853
 30
0.0
 10
-132.1615
 20
-8.1029
 30
0.0
 10
-128.1482
 20
-3.0752
 30
0.0
 10
-128.1482
 20
-3.0752
 30
0.0
 10
-128.1482
 20
-3.0752
 30
0.0
 10
-129.0898
 20
-5.4842
 30
0.0
 10
-128.7098
 20
-10.6724
 30
0.0
 10
-125.2334
 20
-12.1822
 30
0.0
 10
-125.2334
 20
-12.1822
 30
0.0
 10
-122.9687
 20
-13.1656
 30
0.0
 10
-121.3194
 20
-12.3767
 30
0.0
 10
-120.4444
 20
-11.7074
 30
0.0
 10
-120.4444
 20
-11.7074
 30
0.0
 10
-121.5532
 20
-13.7177
 30
0.0
 10
-123.0494
 20
-14.8747
 30
0.0
 10
-124.3169
 20
-15.1055
 30
0.0
 10
-124.3169
 20
-15.1055
 30
0.0
 10
-126.1988
 20
-15.4483
 30
0.0
 10
-127.7917
 20
-16.9899
 30
0.0
 10
-127.7917
 20
-16.9899
 30
0.0
 10
-127.7917
 20
-16.9899
 30
0.0
 10
-130.3501
 20
-15.5761
 30
0.0
 10
-132.4278
 20
-18.3178
 30
0.0
 10
-132.4278
 20
-18.3178
 30
0.0
 10
-132.4278
 20
-18.3178
 30
0.0
 10
-136.5067
 20
-16.8827
 30
0.0
 10
-139.6202
 20
-19.1744
 30
0.0
 10
-141.889
 20
-20.6306
 30
0.0
 10
-141.889
 20
-20.6306
 30
0.0
 10
-144.158
 20
-22.087
 30
0.0
 10
-145.7516
 20
-23.4575
 30
0.0
 10
-147.127
 20
-23.2216
 30
0.0
 10
-147.127
 20
-23.2216
 30
0.0
 10
-147.8263
 20
-23.102
 30
0.0
 10
-148.263
 20
-22.6616
 30
0.0
 10
-148.5237
 20
-22.2572
 30
0.0
  0
SPLINE
  5
73
330
1F
100
AcDbEntity
  8
layer 1
 62
     7
370
    18
100
AcDbSpline
210
0.0
220
0.0
230
1.0
 70
    11
 71
     3
 72
    36
 73
    32
 74
     0
 42
0.0000000001
 43
0.0000000001
 12
1.0
 22
0.0
 32
0.0
 13
1.0
 23
0.0
 33
0.0
 40
0.0
 40
0.0
 40
0.0
 40
0.0
 40
0.1111111111111111
 40
0.1111111111111111
 40
0.1111111111111111
 40
0.1111111111111111
 40
0.2222222222222222
 40
0.2222222222222222
 40
0.2222222222222222
 40
0.2222222222222222
 40
0.3333333333333333
 40
0.3333333333333333
 40
0.3333333333333333
 40
0.3333333333333333
 40
0.4444444444444444
 40
0.4444444444444444
 40
0.4444444444444444
 40
0.4444444444444444
 40
0.5555555555555556
 40
0.5555555555555556
 40
0.5555555555555556
 40
0.5555555555555556
 40
0.6666666666666666
 40
0.6666666666666666
 40
0.6666666666666666
 40
0.6666666666666666
 40
0.7777777777777778
 40
0.7777777777777778
 40
0.7777777777777778
 40
0.7777777777777778
 40
1.0
 40
1.0
 40
1.0
 40
1.0
 10
-128.797
 20
0.193
 30
0.0
 10
-132.8529
 20
-4.4901
 30
0.0
 10
-137.8849
 20
-8.9611
 30
0.0
 10
-143.6026
 20
-13.1569
 30
0.0
 10
-143.6026
 20
-13.1569
 30
0.0
 10
-150.5777
 20
-18.2748
 30
0.0
 10
-156.4685
 20
-19.4319
 30
0.0
 10
-159.3167
 20
-18.8746
 30
0.0
 10
-159.3167
 20
-18.8746
 30
0.0
 10
-162.165
 20
-18.3179
 30
0.0
 10
-163.0822
 20
-15.7909
 30
0.0
 10
-161.4411
 20
-14.9334
 30
0.0
 10
-161.4411
 20
-14.9334
 30
0.0
 10
-159.8
 20
-14.0777
 30
0.0
 10
-158.6655
 20
-15.9409
 30
0.0
 10
-158.6655
 20
-15.9409
 30
0.0
 10
-158.6655
 20
-15.9409
 30
0.0
 10
-158.078
 20
-15.4196
 30
0.0
 10
-157.8857
 20
-14.0797
 30
0.0
 10
-158.6083
 20
-12.8007
 30
0.0
 10
-158.6083
 20
-12.8007
 30
0.0
 10
-157.049
 20
-13.5103
 30
0.0
 10
-155.1463
 20
-13.8586
 30
0.0
 10
-153.012
 20
-13.5188
 30
0.0
 10
-153.012
 20
-13.5188
 30
0.0
 10
-146.9527
 20
-12.5551
 30
0.0
 10
-140.3147
 20
-8.2293
 30
0.0
 10
-134.5583
 20
-4.0855
 30
0.0
 10
-134.5583
 20
-4.0855
 30
0.0
 10
-131.9505
 20
-2.2084
 30
0.0
 10
-130.0729
 20
-0.7944
 30
0.0
 10
-128.797
 20
0.193
 30
0.0
  0
SPLINE
  5
74
330
1F
100
AcDbEntity
  8
layer 1
 62
     7
370
    18
100
AcDbSpline
210
0.0
220
0.0
230
1.0
 70
    11
 71
     3
 72
    32
 73
    28
 74
     0
 42
0.0000000001
 43
0.0000000001
 12
1.0
 22
0.0
 32
0.0
 13
1.0
 23
0.0
 33
0.0
 40
0.0
 40
0.0
 40
0.0
 40
0.0
 40
0.125
 40
0.125
 40
0.125
 40
0.125
 40
0.25
 40
0.25
 40
0.25
 40
0.25
 40
0.375
 40
0.375
 40
0.375
 40
0.375
 40
0.5
 40
0.5
 40
0.5
 40
0.5
 40
0.625
 40
0.625
 40
0.625
 40
0.625
 40
0.75
 40
0.75
 40
0.75
 40
0.75
 40
1.0
 40
1.0
 40
1.0
 40
1.0
 10
-136.6979
 20
-24.3471
 30
0.0
 10
-137.7299
 20
-25.9768
 30
0.0
 10
-137.0827
 20
-26.8302
 30
0.0
 10
-138.7628
 20
-28.0102
 30
0.0
 10
-138.7628
 20
-28.0102
 30
0.0
 10
-140.4424
 20
-29.1905
 30
0.0
 10
-140.9669
 20
-29.8423
 30
0.0
 10
-141.7364
 20
-32.0462
 30
0.0
 10
-141.7364
 20
-32.0462
 30
0.0
 10
-141.7364
 20
-32.0462
 30
0.0
 10
-141.1596
 20
-31.5337
 30
0.0
 10
-139.9521
 20
-30.9906
 30
0.0
 10
-139.9521
 20
-30.9906
 30
0.0
 10
-138.7447
 20
-30.4473
 30
0.0
 10
-138.8673
 20
-30.3075
 30
0.0
 10
-137.8872
 20
-29.1593
 30
0.0
 10
-137.8872
 20
-29.1593
 30
0.0
 10
-136.9078
 20
-28.0102
 30
0.0
 10
-136.2251
 20
-28.1811
 30
0.0
 10
-134.4237
 20
-27.3585
 30
0.0
 10
-134.4237
 20
-27.3585
 30
0.0
 10
-132.6217
 20
-26.5356
 30
0.0
 10
-131.3607
 20
-24.6724
 30
0.0
 10
-132.3581
 20
-23.2913
 30
0.0
 10
-132.3581
 20
-23.2913
 30
0.0
 10
-133.3557
 20
-21.909
 30
0.0
 10
-135.666
 20
-22.7168
 30
0.0
 10
-136.6979
 20
-24.3471
 30
0.0
  0
SPLINE
  5
75
330
1F
100
AcDbEntity
  8
layer 1
 62
     7
370
    18
100
AcDbSpline
210
0.0
220
0.0
230
1.0
 70
    11
 71
     3
 72
    68
 73
    64
 74
     0
 42
0.0000000001
 43
0.0000000001
 12
1.0
 22
0.0
 32
0.0
 13
1.0
 23
0.0
 33
0.0
 40
0.0
 40
0.0
 40
0.0
 40
0.0
 40
0.0588235294117647
 40
0.0588235294117647
 40
0.0588235294117647
 40
0.0588235294117647
 40
0.1176470588235294
 40
0.1176470588235294
 40
0.1176470588235294
 40
0.1176470588235294
 40
0.1764705882352941
 40
0.1764705882352941
 40
0.1764705882352941
 40
0.1764705882352941
 40
0.2352941176470588
 40
0.2352941176470588
 40
0.2352941176470588
 40
0.2352941176470588
 40
0.2941176470588235
 40
0.2941176470588235
 40
0.2941176470588235
 40
0.2941176470588235
 40
0.3529411764705883
 40
0.3529411764705883
 40
0.3529411764705883
 40
0.3529411764705883
 40
0.4117647058823529
 40
0.4117647058823529
 40
0.4117647058823529
 40
0.4117647058823529
 40
0.4705882352941176
 40
0.4705882352941176
 40
0.4705882352941176
 40
0.4705882352941176
 40
0.5294117647058824
 40
0.5294117647058824
 40
0.5294117647058824
 40
0.5294117647058824
 40
0.5882352941176471
 40
0.5882352941176471
 40
0.5882352941176471
 40
0.5882352941176471
 40
0.6470588235294118
 40
0.6470588235294118
 40
0.6470588235294118
 40
0.6470588235294118
 40
0.7058823529411765
 40
0.7058823529411765
 40
0.7058823529411765
 40
0.7058823529411765
 40
0.7647058823529411
 40
0.7647058823529411
 40
0.7647058823529411
 40
0.7647058823529411
 40
0.8235294117647058
 40
0.8235294117647058
 40
0.8235294117647058
 40
0.8235294117647058
 40
0.8823529411764706
 40
0.8823529411764706
 40
0.8823529411764706
 40
0.8823529411764706
 40
1.0
 40
1.0
 40
1.0
 40
1.0
 10
-102.0029
 20
0.2062
 30
0.0
 10
-102.872
 20
-1.3461
 30
0.0
 10
-103.5447
 20
-3.8293
 30
0.0
 10
-102.769
 20
-6.7263
 30
0.0
 10
-102.769
 20
-6.7263
 30
0.0
 10
-101.7786
 20
-10.421
 30
0.0
 10
-98.8087
 20
-13.5405
 30
0.0
 10
-96.2485
 20
-17.2054
 30
0.0
 10
-96.2485
 20
-17.2054
 30
0.0
 10
-93.6882
 20
-20.8707
 30
0.0
 10
-93.8595
 20
-23.0507
 30
0.0
 10
-94.7125
 20
-24.9584
 30
0.0
 10
-94.7125
 20
-24.9584
 30
0.0
 10
-95.5664
 20
-26.8664
 30
0.0
 10
-95.5322
 20
-28.5324
 30
0.0
 10
-95.5322
 20
-28.5324
 30
0.0
 10
-95.5322
 20
-28.5324
 30
0.0
 10
-92.0162
 20
-29.4716
 30
0.0
 10
-93.3468
 20
-32.3788
 30
0.0
 10
-93.3468
 20
-32.3788
 30
0.0
 10
-93.3468
 20
-32.3788
 30
0.0
 10
-88.9773
 20
-33.0451
 30
0.0
 10
-88.2263
 20
-38.4058
 30
0.0
 10
-88.227
 20
-40.2229
 30
0.0
 10
-88.227
 20
-40.2229
 30
0.0
 10
-88.227
 20
-42.0401
 30
0.0
 10
-88.0904
 20
-44.2659
 30
0.0
 10
-86.6563
 20
-45.1293
 30
0.0
 10
-86.6563
 20
-45.1293
 30
0.0
 10
-86.625
 20
-45.148
 30
0.0
 10
-86.5949
 20
-45.1613
 30
0.0
 10
-86.5643
 20
-45.1786
 30
0.0
 10
-86.5643
 20
-45.1786
 30
0.0
 10
-86.5803
 20
-45.0906
 30
0.0
 10
-86.6004
 20
-45.0066
 30
0.0
 10
-86.6133
 20
-44.9157
 30
0.0
 10
-86.6133
 20
-44.9157
 30
0.0
 10
-87.0719
 20
-41.6396
 30
0.0
 10
-83.6195
 20
-39.434
 30
0.0
 10
-82.461
 20
-39.8625
 30
0.0
 10
-82.461
 20
-39.8625
 30
0.0
 10
-82.461
 20
-39.8625
 30
0.0
 10
-83.4511
 20
-41.5543
 30
0.0
 10
-82.6306
 20
-42.2823
 30
0.0
 10
-82.6306
 20
-42.2823
 30
0.0
 10
-81.8094
 20
-43.0108
 30
0.0
 10
-79.0822
 20
-41.9829
 30
0.0
 10
-79.0822
 20
-39.6911
 30
0.0
 10
-79.0822
 20
-39.6911
 30
0.0
 10
-79.0822
 20
-37.3994
 30
0.0
 10
-79.7332
 20
-35.7718
 30
0.0
 10
-84.5373
 20
-29.2403
 30
0.0
 10
-84.5373
 20
-29.2403
 30
0.0
 10
-89.3405
 20
-22.7084
 30
0.0
 10
-91.1027
 20
-21.5303
 30
0.0
 10
-95.2786
 20
-16.9692
 30
0.0
 10
-95.2786
 20
-16.9692
 30
0.0
 10
-99.4545
 20
-12.4081
 30
0.0
 10
-102.2058
 20
-8.039
 30
0.0
 10
-102.2058
 20
-3.327
 30
0.0
 10
-102.2058
 20
-3.327
 30
0.0
 10
-102.2058
 20
-1.9166
 30
0.0
 10
-102.1206
 20
-0.7473
 30
0.0
 10
-102.0029
 20
0.2062
 30
0.0
  0
SPLINE
  5
76
330
1F
100
AcDbEntity
  8
layer 1
 62
     7
370
    18
100
AcDbSpline
210
0.0
220
0.0
230
1.0
 70
    11
 71
     3
 72
    36
 73
    32
 74
     0
 42
0.0000000001
 43
0.0000000001
 12
1.0
 22
0.0
 32
0.0
 13
1.0
 23
0.0
 33
0.0
 40
0.0
 40
0.0
 40
0.0
 40
0.0
 40
0.1111111111111111
 40
0.1111111111111111
 40
0.1111111111111111
 40
0.1111111111111111
 40
0.2222222222222222
 40
0.2222222222222222
 40
0.2222222222222222
 40
0.2222222222222222
 40
0.3333333333333333
 40
0.3333333333333333
 40
0.3333333333333333
 40
0.3333333333333333
 40
0.4444444444444444
 40
0.4444444444444444
 40
0.4444444444444444
 40
0.4444444444444444
 40
0.5555555555555556
 40
0.5555555555555556
 40
0.5555555555555556
 40
0.5555555555555556
 40
0.6666666666666666
 40
0.6666666666666666
 40
0.6666666666666666
 40
0.6666666666666666
 40
0.7777777777777778
 40
0.7777777777777778
 40
0.7777777777777778
 40
0.7777777777777778
 40
1.0
 40
1.0
 40
1.0
 40
1.0
 10
-124.1621
 20
-44.8915
 30
0.0
 10
-122.632
 20
-45.3419
 30
0.0
 10
-121.7145
 20
-46.4212
 30
0.0
 10
-121.7145
 20
-47.1584
 30
0.0
 10
-121.7145
 20
-47.1584
 30
0.0
 10
-121.7145
 20
-47.1584
 30
0.0
 10
-124.0013
 20
-46.5527
 30
0.0
 10
-124.4795
 20
-48.1878
 30
0.0
 10
-124.4795
 20
-48.1878
 30
0.0
 10
-124.9575
 20
-49.8237
 30
0.0
 10
-122.2944
 20
-51.0351
 30
0.0
 10
-119.8364
 20
-49.6413
 30
0.0
 10
-119.8364
 20
-49.6413
 30
0.0
 10
-117.3788
 20
-48.249
 30
0.0
 10
-114.1359
 20
-43.7352
 30
0.0
 10
-113.2824
 20
-35.7402
 30
0.0
 10
-113.2824
 20
-35.7402
 30
0.0
 10
-112.583
 20
-29.186
 30
0.0
 10
-112.5738
 20
-22.8567
 30
0.0
 10
-113.4378
 20
-17.0007
 30
0.0
 10
-113.4378
 20
-17.0007
 30
0.0
 10
-113.5538
 20
-18.4992
 30
0.0
 10
-113.7537
 20
-20.6775
 30
0.0
 10
-114.1017
 20
-23.6411
 30
0.0
 10
-114.1017
 20
-23.6411
 30
0.0
 10
-114.8697
 20
-30.1824
 30
0.0
 10
-116.1162
 20
-37.4056
 30
0.0
 10
-119.6322
 20
-41.8883
 30
0.0
 10
-119.6322
 20
-41.8883
 30
0.0
 10
-120.8703
 20
-43.4677
 30
0.0
 10
-122.4937
 20
-44.4152
 30
0.0
 10
-124.1621
 20
-44.8915
 30
0.0
  0
SPLINE
  5
77
330
1F
100
AcDbEntity
  8
layer 1
 62
     7
370
    18
100
AcDbSpline
210
0.0
220
0.0
230
1.0
 70
    11
 71
     3
 72
    44
 73
    40
 74
     0
 42
0.0000000001
 43
0.0000000001
 12
1.0
 22
0.0
 32
0.0
 13
1.0
 23
0.0
 33
0.0
 40
0.0
 40
0.0
 40
0.0
 40
0.0
 40
0.0909090909090909
 40
0.0909090909090909
 40
0.0909090909090909
 40
0.0909090909090909
 40
0.1818181818181818
 40
0.1818181818181818
 40
0.1818181818181818
 40
0.1818181818181818
 40
0.2727272727272727
 40
0.2727272727272727
 40
0.2727272727272727
 40
0.2727272727272727
 40
0.3636363636363636
 40
0.3636363636363636
 40
0.3636363636363636
 40
0.3636363636363636
 40
0.4545454545454545
 40
0.4545454545454545
 40
0.4545454545454545
 40
0.4545454545454545
 40
0.5454545454545454
 40
0.5454545454545454
 40
0.5454545454545454
 40
0.5454545454545454
 40
0.6363636363636364
 40
0.6363636363636364
 40
0.6363636363636364
 40
0.6363636363636364
 40
0.7272727272727273
 40
0.7272727272727273
 40
0.7272727272727273
 40
0.7272727272727273
 40
0.8181818181818182
 40
0.8181818181818182
 40
0.8181818181818182
 40
0.8181818181818182
 40
1.0
 40
1.0
 40
1.0
 40
1.0
 10
-109.5094
 20
-45.2626
 30
0.0
 10
-108.3941
 20
-41.035
 30
0.0
 10
-108.7733
 20
-36.5925
 30
0.0
 10
-108.9475
 20
-32.0761
 30
0.0
 10
-108.9475
 20
-32.0761
 30
0.0
 10
-109.2201
 20
-24.9887
 30
0.0
 10
-110.3893
 20
-18.9164
 30
0.0
 10
-110.3893
 20
-18.9164
 30
0.0
 10
-110.3893
 20
-18.9164
 30
0.0
 10
-109.1355
 20
-21.2105
 30
0.0
 10
-104.7316
 20
-24.6405
 30
0.0
 10
-101.0708
 20
-23.5275
 30
0.0
 10
-101.0708
 20
-23.5275
 30
0.0
 10
-98.6845
 20
-22.8018
 30
0.0
 10
-98.1473
 20
-21.2086
 30
0.0
 10
-98.0623
 20
-20.1865
 30
0.0
 10
-98.0623
 20
-20.1865
 30
0.0
 10
-97.2437
 20
-22.3036
 30
0.0
 10
-97.3799
 20
-24.0605
 30
0.0
 10
-98.0924
 20
-25.0196
 30
0.0
 10
-98.0924
 20
-25.0196
 30
0.0
 10
-99.1496
 20
-26.4421
 30
0.0
 10
-99.0471
 20
-28.5323
 30
0.0
 10
-99.0471
 20
-28.5323
 30
0.0
 10
-99.0471
 20
-28.5323
 30
0.0
 10
-101.9832
 20
-29.1372
 30
0.0
 10
-101.2668
 20
-32.3789
 30
0.0
 10
-101.2668
 20
-32.3789
 30
0.0
 10
-101.2668
 20
-32.3789
 30
0.0
 10
-105.2948
 20
-33.9235
 30
0.0
 10
-105.6696
 20
-37.4969
 30
0.0
 10
-106.1138
 20
-39.9501
 30
0.0
 10
-106.1138
 20
-39.9501
 30
0.0
 10
-106.5579
 20
-42.4036
 30
0.0
 10
-106.5917
 20
-44.3722
 30
0.0
 10
-107.7527
 20
-45.0678
 30
0.0
 10
-107.7527
 20
-45.0678
 30
0.0
 10
-108.3425
 20
-45.4222
 30
0.0
 10
-109.002
 20
-45.3847
 30
0.0
 10
-109.5094
 20
-45.2626
 30
0.0
  0
SPLINE
  5
78
330
1F
100
AcDbEntity
  8
layer 1
 62
     7
370
    18
100
AcDbSpline
210
0.0
220
0.0
230
1.0
 70
    11
 71
     3
 72
    32
 73
    28
 74
     0
 42
0.0000000001
 43
0.0000000001
 12
1.0
 22
0.0
 32
0.0
 13
1.0
 23
0.0
 33
0.0
 40
0.0
 40
0.0
 40
0.0
 40
0.0
 40
0.125
 40
0.125
 40
0.125
 40
0.125
 40
0.25
 40
0.25
 40
0.25
 40
0.25
 40
0.375
 40
0.375
 40
0.375
 40
0.375
 40
0.5
 40
0.5
 40
0.5
 40
0.5
 40
0.625
 40
0.625
 40
0.625
 40
0.625
 40
0.75
 40
0.75
 40
0.75
 40
0.75
 40
1.0
 40
1.0
 40
1.0
 40
1.0
 10
-100.8606
 20
-15.7386
 30
0.0
 10
-103.4403
 20
-12.3111
 30
0.0
 10
-106.3817
 20
-7.7772
 30
0.0
 10
-106.0456
 20
-3.8489
 30
0.0
 10
-106.0456
 20
-3.8489
 30
0.0
 10
-105.671
 20
0.5424
 30
0.0
 10
-103.9636
 20
3.4495
 30
0.0
 10
-102.2226
 20
4.9947
 30
0.0
 10
-102.2226
 20
4.9947
 30
0.0
 10
-102.2226
 20
4.9947
 30
0.0
 10
-104.9878
 20
5.085
 30
0.0
 10
-108.4692
 20
0.4215
 30
0.0
 10
-108.4692
 20
0.4215
 30
0.0
 10
-111.9515
 20
-4.2428
 30
0.0
 10
-111.9515
 20
-10.6336
 30
0.0
 10
-109.9712
 20
-14.5704
 30
0.0
 10
-109.9712
 20
-14.5704
 30
0.0
 10
-107.9921
 20
-18.5077
 30
0.0
 10
-104.3988
 20
-18.5077
 30
0.0
 10
-103.528
 20
-18.0534
 30
0.0
 10
-103.528
 20
-18.0534
 30
0.0
 10
-102.6575
 20
-17.599
 30
0.0
 10
-102.7601
 20
-16.6905
 30
0.0
 10
-103.6307
 20
-16.3498
 30
0.0
 10
-103.6307
 20
-16.3498
 30
0.0
 10
-103.6307
 20
-16.3498
 30
0.0
 10
-102.762
 20
-15.2328
 30
0.0
 10
-100.8606
 20
-15.7386
 30
0.0
  0
SPLINE
  5
79
330
1F
100
AcDbEntity
  8
layer 1
 62
     7
370
    18
100
AcDbSpline
210
0.0
220
0.0
230
1.0
 70
    11
 71
     3
 72
    32
 73
    28
 74
     0
 42
0.0000000001
 43
0.0000000001
 12
1.0
 22
0.0
 32
0.0
 13
1.0
 23
0.0
 33
0.0
 40
0.0
 40
0.0
 40
0.0
 40
0.0
 40
0.125
 40
0.125
 40
0.125
 40
0.125
 40
0.25
 40
0.25
 40
0.25
 40
0.25
 40
0.375
 40
0.375
 40
0.375
 40
0.375
 40
0.5
 40
0.5
 40
0.5
 40
0.5
 40
0.625
 40
0.625
 40
0.625
 40
0.625
 40
0.75
 40
0.75
 40
0.75
 40
0.75
 40
1.0
 40
1.0
 40
1.0
 40
1.0
 10
-96.9082
 20
-47.9266
 30
0.0
 10
-96.9082
 20
-47.9266
 30
0.0
 10
-96.9086
 20
-47.2021
 30
0.0
 10
-96.4879
 20
-46.061
 30
0.0
 10
-96.4879
 20
-46.061
 30
0.0
 10
-96.0666
 20
-44.9188
 30
0.0
 10
-96.2651
 20
-44.897
 30
0.0
 10
-96.4873
 20
-43.4702
 30
0.0
 10
-96.4873
 20
-43.4702
 30
0.0
 10
-96.7105
 20
-42.0435
 30
0.0
 10
-96.0909
 20
-41.7364
 30
0.0
 10
-95.4731
 20
-40.0237
 30
0.0
 10
-95.4731
 20
-40.0237
 30
0.0
 10
-94.8545
 20
-38.3113
 30
0.0
 10
-95.4482
 20
-36.2035
 30
0.0
 10
-97.2546
 20
-35.8526
 30
0.0
 10
-97.2546
 20
-35.8526
 30
0.0
 10
-99.0613
 20
-35.501
 30
0.0
 10
-100.0511
 20
-37.5211
 30
0.0
 10
-99.481
 20
-39.3213
 30
0.0
 10
-99.481
 20
-39.3213
 30
0.0
 10
-98.9124
 20
-41.1209
 30
0.0
 10
-97.7747
 20
-41.3188
 30
0.0
 10
-98.0222
 20
-43.2068
 30
0.0
 10
-98.0222
 20
-43.2068
 30
0.0
 10
-98.2688
 20
-45.0954
 30
0.0
 10
-98.1204
 20
-45.8853
 30
0.0
 10
-96.9082
 20
-47.9266
 30
0.0
  0
SPLINE
  5
7A
330
1F
100
AcDbEntity
  8
layer 1
 62
     7
370
    18
100
AcDbSpline
210
0.0
220
0.0
230
1.0
 70
    11
 71
     3
 72
    40
 73
    36
 74
     0
 42
0.0000000001
 43
0.0000000001
 12
1.0
 22
0.0
 32
0.0
 13
1.0
 23
0.0
 33
0.0
 40
0.0
 40
0.0
 40
0.0
 40
0.0
 40
0.1
 40
0.1
 40
0.1
 40
0.1
 40
0.2
 40
0.2
 40
0.2
 40
0.2
 40
0.3
 40
0.3
 40
0.3
 40
0.3
 40
0.4
 40
0.4
 40
0.4
 40
0.4
 40
0.5
 40
0.5
 40
0.5
 40
0.5
 40
0.6
 40
0.6
 40
0.6
 40
0.6
 40
0.7
 40
0.7
 40
0.7
 40
0.7
 40
0.8
 40
0.8
 40
0.8
 40
0.8
 40
1.0
 40
1.0
 40
1.0
 40
1.0
 10
-26.2209
 20
-20.5319
 30
0.0
 10
-28.0171
 20
-22.1742
 30
0.0
 10
-31.0259
 20
-23.5707
 30
0.0
 10
-34.154
 20
-22.5964
 30
0.0
 10
-34.154
 20
-22.5964
 30
0.0
 10
-36.2123
 20
-21.9552
 30
0.0
 10
-37.3143
 20
-20.8328
 30
0.0
 10
-37.8697
 20
-19.6483
 30
0.0
 10
-37.8697
 20
-19.6483
 30
0.0
 10
-38.1606
 20
-20.7271
 30
0.0
 10
-38.7099
 20
-21.6212
 30
0.0
 10
-39.411
 20
-22.142
 30
0.0
 10
-39.411
 20
-22.142
 30
0.0
 10
-40.753
 20
-23.1385
 30
0.0
 10
-42.3386
 20
-23.7603
 30
0.0
 10
-44.0085
 20
-23.7092
 30
0.0
 10
-44.0085
 20
-23.7092
 30
0.0
 10
-44.0519
 20
-24.4803
 30
0.0
 10
-44.2703
 20
-25.2528
 30
0.0
 10
-44.8541
 20
-25.771
 30
0.0
 10
-44.8541
 20
-25.771
 30
0.0
 10
-46.4473
 20
-27.1848
 30
0.0
 10
-48.2214
 20
-27.345
 30
0.0
 10
-48.2214
 20
-27.345
 30
0.0
 10
-48.2214
 20
-27.345
 30
0.0
 10
-43.3333
 20
-29.6255
 30
0.0
 10
-45.5417
 20
-34.4766
 30
0.0
 10
-43.6955
 20
-37.4636
 30
0.0
 10
-43.6955
 20
-37.4636
 30
0.0
 10
-43.0104
 20
-38.5718
 30
0.0
 10
-41.4086
 20
-39.2536
 30
0.0
 10
-40.5492
 20
-39.5534
 30
0.0
 10
-40.5492
 20
-39.5534
 30
0.0
 10
-34.6668
 20
-33.9926
 30
0.0
 10
-29.8006
 20
-27.5756
 30
0.0
 10
-26.2209
 20
-20.5319
 30
0.0
  0
SPLINE
  5
7B
330
1F
100
AcDbEntity
  8
layer 1
 62
     7
370
    18
100
AcDbSpline
210
0.0
220
0.0
230
1.0
 70
    11
 71
     3
 72
    68
 73
    64
 74
     0
 42
0.0000000001
 43
0.0000000001
 12
1.0
 22
0.0
 32
0.0
 13
1.0
 23
0.0
 33
0.0
 40
0.0
 40
0.0
 40
0.0
 40
0.0
 40
0.0588235294117647
 40
0.0588235294117647
 40
0.0588235294117647
 40
0.0588235294117647
 40
0.1176470588235294
 40
0.1176470588235294
 40
0.1176470588235294
 40
0.1176470588235294
 40
0.1764705882352941
 40
0.1764705882352941
 40
0.1764705882352941
 40
0.1764705882352941
 40
0.2352941176470588
 40
0.2352941176470588
 40
0.2352941176470588
 40
0.2352941176470588
 40
0.2941176470588235
 40
0.2941176470588235
 40
0.2941176470588235
 40
0.2941176470588235
 40
0.3529411764705883
 40
0.3529411764705883
 40
0.3529411764705883
 40
0.3529411764705883
 40
0.4117647058823529
 40
0.4117647058823529
 40
0.4117647058823529
 40
0.4117647058823529
 40
0.4705882352941176
 40
0.4705882352941176
 40
0.4705882352941176
 40
0.4705882352941176
 40
0.5294117647058824
 40
0.5294117647058824
 40
0.5294117647058824
 40
0.5294117647058824
 40
0.5882352941176471
 40
0.5882352941176471
 40
0.5882352941176471
 40
0.5882352941176471
 40
0.6470588235294118
 40
0.6470588235294118
 40
0.6470588235294118
 40
0.6470588235294118
 40
0.7058823529411765
 40
0.7058823529411765
 40
0.7058823529411765
 40
0.7058823529411765
 40
0.7647058823529411
 40
0.7647058823529411
 40
0.7647058823529411
 40
0.7647058823529411
 40
0.8235294117647058
 40
0.8235294117647058
 40
0.8235294117647058
 40
0.8235294117647058
 40
0.8823529411764706
 40
0.8823529411764706
 40
0.8823529411764706
 40
0.8823529411764706
 40
1.0
 40
1.0
 40
1.0
 40
1.0
 10
-47.4282
 20
-22.5997
 30
0.0
 10
-47.4638
 20
-22.607
 30
0.0
 10
-47.4958
 20
-22.6167
 30
0.0
 10
-47.5333
 20
-22.6227
 30
0.0
 10
-47.5333
 20
-22.6227
 30
0.0
 10
-49.2354
 20
-22.912
 30
0.0
 10
-51.1058
 20
-21.4233
 30
0.0
 10
-52.5542
 20
-20.1387
 30
0.0
 10
-52.5542
 20
-20.1387
 30
0.0
 10
-54.0023
 20
-18.8536
 30
0.0
 10
-58.8056
 20
-15.534
 30
0.0
 10
-62.4262
 20
-17.8042
 30
0.0
 10
-62.4262
 20
-17.8042
 30
0.0
 10
-62.4262
 20
-17.8042
 30
0.0
 10
-63.8023
 20
-14.9137
 30
0.0
 10
-67.0364
 20
-16.4555
 30
0.0
 10
-67.0364
 20
-16.4555
 30
0.0
 10
-67.0364
 20
-16.4555
 30
0.0
 10
-68.3891
 20
-15.299
 30
0.0
 10
-69.3061
 20
-13.4141
 30
0.0
 10
-69.3061
 20
-13.4141
 30
0.0
 10
-70.2233
 20
-11.5299
 30
0.0
 10
-71.84
 20
-9.881
 30
0.0
 10
-76.5709
 20
-8.8952
 30
0.0
 10
-76.5709
 20
-8.8952
 30
0.0
 10
-81.3022
 20
-7.9101
 30
0.0
 10
-85.8889
 20
-7.5675
 30
0.0
 10
-89.534
 20
-5.5762
 30
0.0
 10
-89.534
 20
-5.5762
 30
0.0
 10
-92.3922
 20
-4.0144
 30
0.0
 10
-93.8952
 20
-1.8361
 30
0.0
 10
-94.5172
 20
-0.1932
 30
0.0
 10
-94.5172
 20
-0.1932
 30
0.0
 10
-93.8413
 20
-0.9412
 30
0.0
 10
-92.9686
 20
-1.8223
 30
0.0
 10
-91.8443
 20
-2.8196
 30
0.0
 10
-91.8443
 20
-2.8196
 30
0.0
 10
-88.0892
 20
-6.151
 30
0.0
 10
-82.6619
 20
-7.5138
 30
0.0
 10
-76.074
 20
-8.1196
 30
0.0
 10
-76.074
 20
-8.1196
 30
0.0
 10
-69.4855
 20
-8.7252
 30
0.0
 10
-67.3004
 20
-8.4527
 30
0.0
 10
-58.6985
 20
-10.0582
 30
0.0
 10
-58.6985
 20
-10.0582
 30
0.0
 10
-50.0956
 20
-11.6634
 30
0.0
 10
-48.3379
 20
-12.4051
 30
0.0
 10
-46.5114
 20
-14.0254
 30
0.0
 10
-46.5114
 20
-14.0254
 30
0.0
 10
-44.6851
 20
-15.6463
 30
0.0
 10
-45.7944
 20
-18.0837
 30
0.0
 10
-46.9551
 20
-18.0837
 30
0.0
 10
-46.9551
 20
-18.0837
 30
0.0
 10
-48.1158
 20
-18.0837
 30
0.0
 10
-48.7643
 20
-16.2666
 30
0.0
 10
-48.7643
 20
-16.2666
 30
0.0
 10
-48.7643
 20
-16.2666
 30
0.0
 10
-49.9248
 20
-16.6906
 30
0.0
 10
-50.6076
 20
-20.4164
 30
0.0
 10
-47.6724
 20
-22.445
 30
0.0
 10
-47.6724
 20
-22.445
 30
0.0
 10
-47.5913
 20
-22.5013
 30
0.0
 10
-47.5095
 20
-22.5477
 30
0.0
 10
-47.4282
 20
-22.5997
 30
0.0
  0
SPLINE
  5
7C
330
1F
100
AcDbEntity
  8
layer 1
 62
     7
370
    18
100
AcDbSpline
210
0.0
220
0.0
230
1.0
 70
    11
 71
     3
 72
    36
 73
    32
 74
     0
 42
0.0000000001
 43
0.0000000001
 12
1.0
 22
0.0
 32
0.0
 13
1.0
 23
0.0
 33
0.0
 40
0.0
 40
0.0
 40
0.0
 40
0.0
 40
0.1111111111111111
 40
0.1111111111111111
 40
0.1111111111111111
 40
0.1111111111111111
 40
0.2222222222222222
 40
0.2222222222222222
 40
0.2222222222222222
 40
0.2222222222222222
 40
0.3333333333333333
 40
0.3333333333333333
 40
0.3333333333333333
 40
0.3333333333333333
 40
0.4444444444444444
 40
0.4444444444444444
 40
0.4444444444444444
 40
0.4444444444444444
 40
0.5555555555555556
 40
0.5555555555555556
 40
0.5555555555555556
 40
0.5555555555555556
 40
0.6666666666666666
 40
0.6666666666666666
 40
0.6666666666666666
 40
0.6666666666666666
 40
0.7777777777777778
 40
0.7777777777777778
 40
0.7777777777777778
 40
0.7777777777777778
 40
1.0
 40
1.0
 40
1.0
 40
1.0
 10
-88.8901
 20
-19.5336
 30
0.0
 10
-83.6113
 20
-23.1324
 30
0.0
 10
-78.5738
 20
-27.6145
 30
0.0
 10
-73.8436
 20
-32.688
 30
0.0
 10
-73.8436
 20
-32.688
 30
0.0
 10
-68.0752
 20
-38.8763
 30
0.0
 10
-66.7713
 20
-44.1027
 30
0.0
 10
-67.3991
 20
-46.6294
 30
0.0
 10
-67.3991
 20
-46.6294
 30
0.0
 10
-68.0265
 20
-49.1567
 30
0.0
 10
-70.8748
 20
-49.9705
 30
0.0
 10
-71.8406
 20
-48.5141
 30
0.0
 10
-71.8406
 20
-48.5141
 30
0.0
 10
-72.806
 20
-47.0582
 30
0.0
 10
-70.706
 20
-46.0515
 30
0.0
 10
-70.706
 20
-46.0515
 30
0.0
 10
-70.706
 20
-46.0515
 30
0.0
 10
-71.2933
 20
-45.5306
 30
0.0
 10
-72.802
 20
-45.3428
 30
0.0
 10
-74.2431
 20
-45.984
 30
0.0
 10
-74.2431
 20
-45.984
 30
0.0
 10
-73.4433
 20
-44.6005
 30
0.0
 10
-73.0508
 20
-42.9123
 30
0.0
 10
-73.4339
 20
-41.0186
 30
0.0
 10
-73.4339
 20
-41.0186
 30
0.0
 10
-74.5199
 20
-35.6431
 30
0.0
 10
-79.3956
 20
-29.7533
 30
0.0
 10
-84.0666
 20
-24.6465
 30
0.0
 10
-84.0666
 20
-24.6465
 30
0.0
 10
-86.183
 20
-22.3317
 30
0.0
 10
-87.7773
 20
-20.6656
 30
0.0
 10
-88.8901
 20
-19.5336
 30
0.0
  0
SPLINE
  5
7D
330
1F
100
AcDbEntity
  8
layer 1
 62
     7
370
    18
100
AcDbSpline
210
0.0
220
0.0
230
1.0
 70
    11
 71
     3
 72
    32
 73
    28
 74
     0
 42
0.0000000001
 43
0.0000000001
 12
1.0
 22
0.0
 32
0.0
 13
1.0
 23
0.0
 33
0.0
 40
0.0
 40
0.0
 40
0.0
 40
0.0
 40
0.125
 40
0.125
 40
0.125
 40
0.125
 40
0.25
 40
0.25
 40
0.25
 40
0.25
 40
0.375
 40
0.375
 40
0.375
 40
0.375
 40
0.5
 40
0.5
 40
0.5
 40
0.5
 40
0.625
 40
0.625
 40
0.625
 40
0.625
 40
0.75
 40
0.75
 40
0.75
 40
0.75
 40
1.0
 40
1.0
 40
1.0
 40
1.0
 10
-81.0017
 20
-10.7517
 30
0.0
 10
-85.5576
 20
-9.9461
 30
0.0
 10
-91.2505
 20
-8.5863
 30
0.0
 10
-94.1442
 20
-5.5973
 30
0.0
 10
-94.1442
 20
-5.5973
 30
0.0
 10
-97.3787
 20
-2.2574
 30
0.0
 10
-98.4888
 20
0.8703
 30
0.0
 10
-98.4891
 20
3.0542
 30
0.0
 10
-98.4891
 20
3.0542
 30
0.0
 10
-98.4891
 20
3.0542
 30
0.0
 10
-100.5158
 20
1.3834
 30
0.0
 10
-99.261
 20
-4.0982
 30
0.0
 10
-99.261
 20
-4.0982
 30
0.0
 10
-98.006
 20
-9.5809
 30
0.0
 10
-92.9129
 20
-14.1002
 30
0.0
 10
-88.3744
 20
-15.6414
 30
0.0
 10
-88.3744
 20
-15.6414
 30
0.0
 10
-83.8373
 20
-17.1833
 30
0.0
 10
-81.2967
 20
-14.9294
 30
0.0
 10
-81.043
 20
-14.062
 30
0.0
 10
-81.043
 20
-14.062
 30
0.0
 10
-80.7897
 20
-13.1943
 30
0.0
 10
-81.5863
 20
-12.6164
 30
0.0
 10
-82.4734
 20
-12.9214
 30
0.0
 10
-82.4734
 20
-12.9214
 30
0.0
 10
-82.4734
 20
-12.9214
 30
0.0
 10
-82.7492
 20
-11.5873
 30
0.0
 10
-81.0017
 20
-10.7517
 30
0.0
  0
SPLINE
  5
7E
330
1F
100
AcDbEntity
  8
layer 1
 62
     7
370
    18
100
AcDbSpline
210
0.0
220
0.0
230
1.0
 70
    11
 71
     3
 72
    44
 73
    40
 74
     0
 42
0.0000000001
 43
0.0000000001
 12
1.0
 22
0.0
 32
0.0
 13
1.0
 23
0.0
 33
0.0
 40
0.0
 40
0.0
 40
0.0
 40
0.0
 40
0.0909090909090909
 40
0.0909090909090909
 40
0.0909090909090909
 40
0.0909090909090909
 40
0.1818181818181818
 40
0.1818181818181818
 40
0.1818181818181818
 40
0.1818181818181818
 40
0.2727272727272727
 40
0.2727272727272727
 40
0.2727272727272727
 40
0.2727272727272727
 40
0.3636363636363636
 40
0.3636363636363636
 40
0.3636363636363636
 40
0.3636363636363636
 40
0.4545454545454545
 40
0.4545454545454545
 40
0.4545454545454545
 40
0.4545454545454545
 40
0.5454545454545454
 40
0.5454545454545454
 40
0.5454545454545454
 40
0.5454545454545454
 40
0.6363636363636364
 40
0.6363636363636364
 40
0.6363636363636364
 40
0.6363636363636364
 40
0.7272727272727273
 40
0.7272727272727273
 40
0.7272727272727273
 40
0.7272727272727273
 40
0.8181818181818182
 40
0.8181818181818182
 40
0.8181818181818182
 40
0.8181818181818182
 40
1.0
 40
1.0
 40
1.0
 40
1.0
 10
-63.586
 20
-37.054
 30
0.0
 10
-66.2459
 20
-33.3517
 30
0.0
 10
-70.2559
 20
-30.415
 30
0.0
 10
-73.6985
 20
-27.3773
 30
0.0
 10
-73.6985
 20
-27.3773
 30
0.0
 10
-79.5394
 20
-22.537
 30
0.0
 10
-85.2071
 20
-18.9765
 30
0.0
 10
-85.2071
 20
-18.9765
 30
0.0
 10
-85.2071
 20
-18.9765
 30
0.0
 10
-82.4916
 20
-19.8118
 30
0.0
 10
-76.6439
 20
-19.4748
 30
0.0
 10
-74.9423
 20
-16.3907
 30
0.0
 10
-74.9423
 20
-16.3907
 30
0.0
 10
-73.8335
 20
-14.3809
 30
0.0
 10
-74.7231
 20
-12.9175
 30
0.0
 10
-75.4776
 20
-12.1416
 30
0.0
 10
-75.4776
 20
-12.1416
 30
0.0
 10
-73.2115
 20
-13.1248
 30
0.0
 10
-71.9076
 20
-14.4523
 30
0.0
 10
-71.6467
 20
-15.5775
 30
0.0
 10
-71.6467
 20
-15.5775
 30
0.0
 10
-71.2607
 20
-17.2472
 30
0.0
 10
-69.5226
 20
-18.6604
 30
0.0
 10
-69.5226
 20
-18.6604
 30
0.0
 10
-69.5226
 20
-18.6604
 30
0.0
 10
-71.1166
 20
-20.9302
 30
0.0
 10
-68.0265
 20
-22.7732
 30
0.0
 10
-68.0265
 20
-22.7732
 30
0.0
 10
-68.0265
 20
-22.7732
 30
0.0
 10
-69.9235
 20
-26.345
 30
0.0
 10
-67.1396
 20
-29.1413
 30
0.0
 10
-65.4196
 20
-31.1675
 30
0.0
 10
-65.4196
 20
-31.1675
 30
0.0
 10
-63.7783
 20
-33.1804
 30
0.0
 10
-62.2334
 20
-34.5942
 30
0.0
 10
-62.4992
 20
-35.8144
 30
0.0
 10
-62.4992
 20
-35.8144
 30
0.0
 10
-62.634
 20
-36.4347
 30
0.0
 10
-63.1303
 20
-36.822
 30
0.0
 10
-63.586
 20
-37.054
 30
0.0
  0
SPLINE
  5
7F
330
1F
100
AcDbEntity
  8
layer 1
 62
     7
370
    18
100
AcDbSpline
210
0.0
220
0.0
230
1.0
 70
    11
 71
     3
 72
    32
 73
    28
 74
     0
 42
0.0000000001
 43
0.0000000001
 12
1.0
 22
0.0
 32
0.0
 13
1.0
 23
0.0
 33
0.0
 40
0.0
 40
0.0
 40
0.0
 40
0.0
 40
0.125
 40
0.125
 40
0.125
 40
0.125
 40
0.25
 40
0.25
 40
0.25
 40
0.25
 40
0.375
 40
0.375
 40
0.375
 40
0.375
 40
0.5
 40
0.5
 40
0.5
 40
0.5
 40
0.625
 40
0.625
 40
0.625
 40
0.625
 40
0.75
 40
0.75
 40
0.75
 40
0.75
 40
1.0
 40
1.0
 40
1.0
 40
1.0
 10
-52.5526
 20
-31.0323
 30
0.0
 10
-52.5526
 20
-31.0323
 30
0.0
 10
-53.1302
 20
-30.5205
 30
0.0
 10
-53.7423
 20
-29.4492
 30
0.0
 10
-53.7423
 20
-29.4492
 30
0.0
 10
-54.3548
 20
-28.3777
 30
0.0
 10
-54.5125
 20
-28.4873
 30
0.0
 10
-55.8067
 20
-27.6171
 30
0.0
 10
-55.8067
 20
-27.6171
 30
0.0
 10
-57.1022
 20
-26.7482
 30
0.0
 10
-56.9089
 20
-26.1422
 30
0.0
 10
-57.8368
 20
-24.544
 30
0.0
 10
-57.8368
 20
-24.544
 30
0.0
 10
-58.7642
 20
-22.9452
 30
0.0
 10
-60.8636
 20
-21.8265
 30
0.0
 10
-62.4206
 20
-22.7118
 30
0.0
 10
-62.4206
 20
-22.7118
 30
0.0
 10
-63.9781
 20
-23.597
 30
0.0
 10
-63.0689
 20
-25.6465
 30
0.0
 10
-61.2308
 20
-26.5617
 30
0.0
 10
-61.2308
 20
-26.5617
 30
0.0
 10
-59.3938
 20
-27.4779
 30
0.0
 10
-58.4316
 20
-26.9034
 30
0.0
 10
-57.1022
 20
-28.3938
 30
0.0
 10
-57.1022
 20
-28.3938
 30
0.0
 10
-55.7714
 20
-29.8841
 30
0.0
 10
-55.0368
 20
-30.3493
 30
0.0
 10
-52.5526
 20
-31.0323
 30
0.0
  0
SPLINE
  5
80
330
1F
100
AcDbEntity
  8
layer 1
 62
     7
370
    18
100
AcDbSpline
210
0.0
220
0.0
230
1.0
 70
    11
 71
     3
 72
    48
 73
    44
 74
     0
 42
0.0000000001
 43
0.0000000001
 12
1.0
 22
0.0
 32
0.0
 13
1.0
 23
0.0
 33
0.0
 40
0.0
 40
0.0
 40
0.0
 40
0.0
 40
0.0833333333333333
 40
0.0833333333333333
 40
0.0833333333333333
 40
0.0833333333333333
 40
0.1666666666666667
 40
0.1666666666666667
 40
0.1666666666666667
 40
0.1666666666666667
 40
0.25
 40
0.25
 40
0.25
 40
0.25
 40
0.3333333333333333
 40
0.3333333333333333
 40
0.3333333333333333
 40
0.3333333333333333
 40
0.4166666666666667
 40
0.4166666666666667
 40
0.4166666666666667
 40
0.4166666666666667
 40
0.5
 40
0.5
 40
0.5
 40
0.5
 40
0.5833333333333334
 40
0.5833333333333334
 40
0.5833333333333334
 40
0.5833333333333334
 40
0.6666666666666666
 40
0.6666666666666666
 40
0.6666666666666666
 40
0.6666666666666666
 40
0.75
 40
0.75
 40
0.75
 40
0.75
 40
0.8333333333333334
 40
0.8333333333333334
 40
0.8333333333333334
 40
0.8333333333333334
 40
1.0
 40
1.0
 40
1.0
 40
1.0
 10
-148.7802
 20
97.3664
 30
0.0
 10
-149.3728
 20
97.8189
 30
0.0
 10
-149.6911
 20
98.1254
 30
0.0
 10
-149.6911
 20
98.1254
 30
0.0
 10
-149.6911
 20
98.1254
 30
0.0
 10
-153.4112
 20
97.7014
 30
0.0
 10
-154.436
 20
100.0028
 30
0.0
 10
-154.436
 20
100.0028
 30
0.0
 10
-154.436
 20
100.0028
 30
0.0
 10
-155.9721
 20
98.9428
 30
0.0
 10
-159.1812
 20
98.3374
 30
0.0
 10
-162.9699
 20
99.8816
 30
0.0
 10
-162.9699
 20
99.8816
 30
0.0
 10
-166.7599
 20
101.426
 30
0.0
 10
-167.7159
 20
103.334
 30
0.0
 10
-170.5827
 20
103.4853
 30
0.0
 10
-170.5827
 20
103.4853
 30
0.0
 10
-172.7543
 20
103.6
 30
0.0
 10
-174.3559
 20
103.0554
 30
0.0
 10
-175.0066
 20
102.7844
 30
0.0
 10
-175.0066
 20
102.7844
 30
0.0
 10
-175.0066
 20
102.7844
 30
0.0
 10
-175.0066
 20
84.5866
 30
0.0
 10
-175.0066
 20
84.5866
 30
0.0
 10
-175.0066
 20
84.5866
 30
0.0
 10
-172.529
 20
82.755
 30
0.0
 10
-170.8589
 20
84.1295
 30
0.0
 10
-167.886
 20
86.7674
 30
0.0
 10
-167.886
 20
86.7674
 30
0.0
 10
-164.6936
 20
89.5992
 30
0.0
 10
-160.6146
 20
88.4635
 30
0.0
 10
-160.6146
 20
88.4635
 30
0.0
 10
-160.6146
 20
88.4635
 30
0.0
 10
-160.6146
 20
88.4635
 30
0.0
 10
-161.1266
 20
89.7963
 30
0.0
 10
-159.4198
 20
90.9473
 30
0.0
 10
-159.4198
 20
90.9473
 30
0.0
 10
-157.7136
 20
92.0979
 30
0.0
 10
-155.3915
 20
90.8866
 30
0.0
 10
-155.3915
 20
90.8866
 30
0.0
 10
-155.3915
 20
90.8866
 30
0.0
 10
-154.712
 20
95.8085
 30
0.0
 10
-151.7146
 20
97.6911
 30
0.0
 10
-148.7802
 20
97.3664
 30
0.0
  0
SPLINE
  5
81
330
1F
100
AcDbEntity
  8
layer 1
 62
     7
370
    18
100
AcDbSpline
210
0.0
220
0.0
230
1.0
 70
    11
 71
     3
 72
    28
 73
    24
 74
     0
 42
0.0000000001
 43
0.0000000001
 12
1.0
 22
0.0
 32
0.0
 13
1.0
 23
0.0
 33
0.0
 40
0.0
 40
0.0
 40
0.0
 40
0.0
 40
0.1428571428571428
 40
0.1428571428571428
 40
0.1428571428571428
 40
0.1428571428571428
 40
0.2857142857142857
 40
0.2857142857142857
 40
0.2857142857142857
 40
0.2857142857142857
 40
0.4285714285714285
 40
0.4285714285714285
 40
0.4285714285714285
 40
0.4285714285714285
 40
0.5714285714285714
 40
0.5714285714285714
 40
0.5714285714285714
 40
0.5714285714285714
 40
0.7142857142857143
 40
0.7142857142857143
 40
0.7142857142857143
 40
0.7142857142857143
 40
1.0
 40
1.0
 40
1.0
 40
1.0
 10
-153.2107
 20
67.9555
 30
0.0
 10
-162.1246
 20
61.4535
 30
0.0
 10
-169.5582
 20
53.4156
 30
0.0
 10
-175.0067
 20
44.2998
 30
0.0
 10
-175.0067
 20
44.2998
 30
0.0
 10
-175.0067
 20
44.2998
 30
0.0
 10
-175.0067
 20
58.3323
 30
0.0
 10
-175.0067
 20
58.3323
 30
0.0
 10
-175.0067
 20
58.3323
 30
0.0
 10
-174.0852
 20
58.2381
 30
0.0
 10
-171.7969
 20
58.1823
 30
0.0
 10
-169.729
 20
59.5704
 30
0.0
 10
-169.729
 20
59.5704
 30
0.0
 10
-167.0658
 20
61.3575
 30
0.0
 10
-167.3394
 20
63.5988
 30
0.0
 10
-164.6762
 20
65.0828
 30
0.0
 10
-164.6762
 20
65.0828
 30
0.0
 10
-162.014
 20
66.5665
 30
0.0
 10
-158.7025
 20
66.4459
 30
0.0
 10
-156.9276
 20
70.262
 30
0.0
 10
-156.9276
 20
70.262
 30
0.0
 10
-156.9276
 20
70.262
 30
0.0
 10
-155.8454
 20
68.3769
 30
0.0
 10
-153.2107
 20
67.9555
 30
0.0
  0
SPLINE
  5
82
330
1F
100
AcDbEntity
  8
layer 1
 62
     7
370
    18
100
AcDbSpline
210
0.0
220
0.0
230
1.0
 70
    11
 71
     3
 72
    24
 73
    20
 74
     0
 42
0.0000000001
 43
0.0000000001
 12
1.0
 22
0.0
 32
0.0
 13
1.0
 23
0.0
 33
0.0
 40
0.0
 40
0.0
 40
0.0
 40
0.0
 40
0.1666666666666667
 40
0.1666666666666667
 40
0.1666666666666667
 40
0.1666666666666667
 40
0.3333333333333333
 40
0.3333333333333333
 40
0.3333333333333333
 40
0.3333333333333333
 40
0.5
 40
0.5
 40
0.5
 40
0.5
 40
0.6666666666666666
 40
0.6666666666666666
 40
0.6666666666666666
 40
0.6666666666666666
 40
1.0
 40
1.0
 40
1.0
 40
1.0
 10
-175.0066
 20
60.9771
 30
0.0
 10
-175.0066
 20
60.9771
 30
0.0
 10
-175.0066
 20
79.8845
 30
0.0
 10
-175.0066
 20
79.8845
 30
0.0
 10
-175.0066
 20
79.8845
 30
0.0
 10
-174.5441
 20
79.3315
 30
0.0
 10
-173.6118
 20
78.4541
 30
0.0
 10
-171.9127
 20
77.6818
 30
0.0
 10
-171.9127
 20
77.6818
 30
0.0
 10
-171.9127
 20
77.6818
 30
0.0
 10
-173.483
 20
74.1078
 30
0.0
 10
-173.1082
 20
70.655
 30
0.0
 10
-173.1082
 20
70.655
 30
0.0
 10
-172.7332
 20
67.2027
 30
0.0
 10
-171.0942
 20
67.0204
 30
0.0
 10
-171.6405
 20
63.9618
 30
0.0
 10
-171.6405
 20
63.9618
 30
0.0
 10
-172.0288
 20
61.7861
 30
0.0
 10
-173.9371
 20
61.1585
 30
0.0
 10
-175.0066
 20
60.9771
 30
0.0
  0
SPLINE
  5
83
330
1F
100
AcDbEntity
  8
layer 1
 62
     7
370
    18
100
AcDbSpline
210
0.0
220
0.0
230
1.0
 70
    11
 71
     3
 72
    20
 73
    16
 74
     0
 42
0.0000000001
 43
0.0000000001
 12
1.0
 22
0.0
 32
0.0
 13
1.0
 23
0.0
 33
0.0
 40
0.0
 40
0.0
 40
0.0
 40
0.0
 40
0.2
 40
0.2
 40
0.2
 40
0.2
 40
0.4
 40
0.4
 40
0.4
 40
0.4
 40
0.6
 40
0.6
 40
0.6
 40
0.6
 40
1.0
 40
1.0
 40
1.0
 40
1.0
 10
-175.0066
 20
105.4343
 30
0.0
 10
-175.0066
 20
105.4343
 30
0.0
 10
-175.0066
 20
125.1569
 30
0.0
 10
-175.0066
 20
125.1569
 30
0.0
 10
-175.0066
 20
125.1569
 30
0.0
 10
-174.042
 20
124.7942
 30
0.0
 10
-172.3616
 20
123.7779
 30
0.0
 10
-171.4705
 20
120.9908
 30
0.0
 10
-171.4705
 20
120.9908
 30
0.0
 10
-170.1736
 20
116.9325
 30
0.0
 10
-173.0073
 20
113.9952
 30
0.0
 10
-169.0468
 20
110.2394
 30
0.0
 10
-169.0468
 20
110.2394
 30
0.0
 10
-169.0468
 20
110.2394
 30
0.0
 10
-172.9793
 20
108.4943
 30
0.0
 10
-175.0066
 20
105.4343
 30
0.0
  0
SPLINE
  5
84
330
1F
100
AcDbEntity
  8
layer 1
 62
   250
370
    18
100
AcDbSpline
210
0.0
220
0.0
230
1.0
 70
    24
 71
     3
 72
     8
 73
     4
 74
     0
 42
0.0000000001
 43
0.0000000001
 12
1.0
 22
0.0
 32
0.0
 13
1.0
 23
0.0
 33
0.0
 40
0.0
 40
0.0
 40
0.0
 40
0.0
 40
1.0
 40
1.0
 40
1.0
 40
1.0
 10
-101.4531
 20
126.6251
 30
0.0
 10
-101.4531
 20
126.6251
 30
0.0
 10
-103.4347
 20
126.6251
 30
0.0
 10
-103.4347
 20
126.6251
 30
0.0
  0
SPLINE
  5
85
330
1F
100
AcDbEntity
  8
layer 1
 62
     7
370
    18
100
AcDbSpline
210
0.0
220
0.0
230
1.0
 70
    11
 71
     3
 72
    36
 73
    32
 74
     0
 42
0.0000000001
 43
0.0000000001
 12
1.0
 22
0.0
 32
0.0
 13
1.0
 23
0.0
 33
0.0
 40
0.0
 40
0.0
 40
0.0
 40
0.0
 40
0.1111111111111111
 40
0.1111111111111111
 40
0.1111111111111111
 40
0.1111111111111111
 40
0.2222222222222222
 40
0.2222222222222222
 40
0.2222222222222222
 40
0.2222222222222222
 40
0.3333333333333333
 40
0.3333333333333333
 40
0.3333333333333333
 40
0.3333333333333333
 40
0.4444444444444444
 40
0.4444444444444444
 40
0.4444444444444444
 40
0.4444444444444444
 40
0.5555555555555556
 40
0.5555555555555556
 40
0.5555555555555556
 40
0.5555555555555556
 40
0.6666666666666666
 40
0.6666666666666666
 40
0.6666666666666666
 40
0.6666666666666666
 40
0.7777777777777778
 40
0.7777777777777778
 40
0.7777777777777778
 40
0.7777777777777778
 40
1.0
 40
1.0
 40
1.0
 40
1.0
 10
-133.3128
 20
55.5336
 30
0.0
 10
-134.0348
 20
56.994
 30
0.0
 10
-134.5642
 20
58.5813
 30
0.0
 10
-134.8356
 20
60.3437
 30
0.0
 10
-134.8356
 20
60.3437
 30
0.0
 10
-135.6944
 20
65.9278
 30
0.0
 10
-133.0259
 20
69.3301
 30
0.0
 10
-130.6504
 20
71.1521
 30
0.0
 10
-130.6504
 20
71.1521
 30
0.0
 10
-138.823
 20
67.7923
 30
0.0
 10
-146.2325
 20
63.2217
 30
0.0
 10
-152.5879
 20
57.6978
 30
0.0
 10
-152.5879
 20
57.6978
 30
0.0
 10
-151.7298
 20
57.607
 30
0.0
 10
-150.3196
 20
57.2917
 30
0.0
 10
-149.1248
 20
56.232
 30
0.0
 10
-149.1248
 20
56.232
 30
0.0
 10
-147.266
 20
54.582
 30
0.0
 10
-147.4591
 20
53.1268
 30
0.0
 10
-144.9973
 20
52.7833
 30
0.0
 10
-144.9973
 20
52.7833
 30
0.0
 10
-142.5351
 20
52.4413
 30
0.0
 10
-140.1694
 20
52.1409
 30
0.0
 10
-138.6733
 20
51.2844
 30
0.0
 10
-138.6733
 20
51.2844
 30
0.0
 10
-138.6733
 20
51.2844
 30
0.0
 10
-138.3352
 20
53.7261
 30
0.0
 10
-136.6215
 20
54.6892
 30
0.0
 10
-136.6215
 20
54.6892
 30
0.0
 10
-135.6951
 20
55.2105
 30
0.0
 10
-134.4594
 20
55.4912
 30
0.0
 10
-133.3128
 20
55.5336
 30
0.0
  0
SPLINE
  5
86
330
1F
100
AcDbEntity
  8
layer 1
 62
     7
370
    18
100
AcDbSpline
210
0.0
220
0.0
230
1.0
 70
    11
 71
     3
 72
    40
 73
    36
 74
     0
 42
0.0000000001
 43
0.0000000001
 12
1.0
 22
0.0
 32
0.0
 13
1.0
 23
0.0
 33
0.0
 40
0.0
 40
0.0
 40
0.0
 40
0.0
 40
0.1
 40
0.1
 40
0.1
 40
0.1
 40
0.2
 40
0.2
 40
0.2
 40
0.2
 40
0.3
 40
0.3
 40
0.3
 40
0.3
 40
0.4
 40
0.4
 40
0.4
 40
0.4
 40
0.5
 40
0.5
 40
0.5
 40
0.5
 40
0.6
 40
0.6
 40
0.6
 40
0.6
 40
0.7
 40
0.7
 40
0.7
 40
0.7
 40
0.8
 40
0.8
 40
0.8
 40
0.8
 40
1.0
 40
1.0
 40
1.0
 40
1.0
 10
-34.467
 20
19.2805
 30
0.0
 10
-33.8831
 20
18.708
 30
0.0
 10
-33.4219
 20
18.0247
 30
0.0
 10
-33.4219
 20
17.2924
 30
0.0
 10
-33.4219
 20
17.2924
 30
0.0
 10
-33.4219
 20
15.2931
 30
0.0
 10
-34.5484
 20
14.0666
 30
0.0
 10
-34.5484
 20
14.0666
 30
0.0
 10
-34.5484
 20
14.0666
 30
0.0
 10
-29.2746
 20
15.5204
 30
0.0
 10
-26.9703
 20
10.7051
 30
0.0
 10
-23.2832
 20
9.7508
 30
0.0
 10
-23.2832
 20
9.7508
 30
0.0
 10
-21.9151
 20
9.3968
 30
0.0
 10
-20.2384
 20
9.9205
 30
0.0
 10
-19.3921
 20
10.2475
 30
0.0
 10
-19.3921
 20
10.2475
 30
0.0
 10
-19.6711
 20
18.1251
 30
0.0
 10
-21.4276
 20
25.6705
 30
0.0
 10
-24.4217
 20
32.6766
 30
0.0
 10
-24.4217
 20
32.6766
 30
0.0
 10
-24.3855
 20
30.39
 30
0.0
 10
-25.4016
 20
27.521
 30
0.0
 10
-28.3859
 20
26.249
 30
0.0
 10
-28.3859
 20
26.249
 30
0.0
 10
-30.3522
 20
25.4113
 30
0.0
 10
-32.0262
 20
25.5137
 30
0.0
 10
-33.3627
 20
26.0025
 30
0.0
 10
-33.3627
 20
26.0025
 30
0.0
 10
-32.709
 20
25.0573
 30
0.0
 10
-32.3846
 20
24.0809
 30
0.0
 10
-32.4657
 20
23.2725
 30
0.0
 10
-32.4657
 20
23.2725
 30
0.0
 10
-32.6203
 20
21.7261
 30
0.0
 10
-33.246
 20
20.292
 30
0.0
 10
-34.467
 20
19.2805
 30
0.0
  0
SPLINE
  5
87
330
1F
100
AcDbEntity
  8
layer 1
 62
     7
370
    18
100
AcDbSpline
210
0.0
220
0.0
230
1.0
 70
    11
 71
     3
 72
    32
 73
    28
 74
     0
 42
0.0000000001
 43
0.0000000001
 12
1.0
 22
0.0
 32
0.0
 13
1.0
 23
0.0
 33
0.0
 40
0.0
 40
0.0
 40
0.0
 40
0.0
 40
0.125
 40
0.125
 40
0.125
 40
0.125
 40
0.25
 40
0.25
 40
0.25
 40
0.25
 40
0.375
 40
0.375
 40
0.375
 40
0.375
 40
0.5
 40
0.5
 40
0.5
 40
0.5
 40
0.625
 40
0.625
 40
0.625
 40
0.625
 40
0.75
 40
0.75
 40
0.75
 40
0.75
 40
1.0
 40
1.0
 40
1.0
 40
1.0
 10
-70.953
 20
5.2348
 30
0.0
 10
-74.8162
 20
2.9463
 30
0.0
 10
-79.926
 20
0.3367
 30
0.0
 10
-84.3538
 20
0.6349
 30
0.0
 10
-84.3538
 20
0.6349
 30
0.0
 10
-89.3034
 20
0.9678
 30
0.0
 10
-92.5806
 20
2.4821
 30
0.0
 10
-94.3217
 20
4.0268
 30
0.0
 10
-94.3217
 20
4.0268
 30
0.0
 10
-94.3217
 20
4.0268
 30
0.0
 10
-94.4238
 20
1.5735
 30
0.0
 10
-89.1667
 20
-1.5156
 30
0.0
 10
-89.1667
 20
-1.5156
 30
0.0
 10
-83.9102
 20
-4.6049
 30
0.0
 10
-76.707
 20
-4.6051
 30
0.0
 10
-72.2693
 20
-2.8483
 30
0.0
 10
-72.2693
 20
-2.8483
 30
0.0
 10
-67.8314
 20
-1.0916
 30
0.0
 10
-67.8314
 20
2.096
 30
0.0
 10
-68.3434
 20
2.8686
 30
0.0
 10
-68.3434
 20
2.8686
 30
0.0
 10
-68.8555
 20
3.6406
 30
0.0
 10
-69.8796
 20
3.55
 30
0.0
 10
-70.2636
 20
2.7774
 30
0.0
 10
-70.2636
 20
2.7774
 30
0.0
 10
-70.2636
 20
2.7774
 30
0.0
 10
-71.5227
 20
3.548
 30
0.0
 10
-70.953
 20
5.2348
 30
0.0
  0
SPLINE
  5
88
330
1F
100
AcDbEntity
  8
layer 1
 62
     7
370
    18
100
AcDbSpline
210
0.0
220
0.0
230
1.0
 70
    11
 71
     3
 72
    44
 73
    40
 74
     0
 42
0.0000000001
 43
0.0000000001
 12
1.0
 22
0.0
 32
0.0
 13
1.0
 23
0.0
 33
0.0
 40
0.0
 40
0.0
 40
0.0
 40
0.0
 40
0.0909090909090909
 40
0.0909090909090909
 40
0.0909090909090909
 40
0.0909090909090909
 40
0.1818181818181818
 40
0.1818181818181818
 40
0.1818181818181818
 40
0.1818181818181818
 40
0.2727272727272727
 40
0.2727272727272727
 40
0.2727272727272727
 40
0.2727272727272727
 40
0.3636363636363636
 40
0.3636363636363636
 40
0.3636363636363636
 40
0.3636363636363636
 40
0.4545454545454545
 40
0.4545454545454545
 40
0.4545454545454545
 40
0.4545454545454545
 40
0.5454545454545454
 40
0.5454545454545454
 40
0.5454545454545454
 40
0.5454545454545454
 40
0.6363636363636364
 40
0.6363636363636364
 40
0.6363636363636364
 40
0.6363636363636364
 40
0.7272727272727273
 40
0.7272727272727273
 40
0.7272727272727273
 40
0.7272727272727273
 40
0.8181818181818182
 40
0.8181818181818182
 40
0.8181818181818182
 40
0.8181818181818182
 40
1.0
 40
1.0
 40
1.0
 40
1.0
 10
-37.6752
 20
-2.4381
 30
0.0
 10
-42.4404
 20
-1.4487
 30
0.0
 10
-47.4476
 20
-1.7855
 30
0.0
 10
-52.5381
 20
-1.9399
 30
0.0
 10
-52.5381
 20
-1.9399
 30
0.0
 10
-60.5263
 20
-2.1818
 30
0.0
 10
-67.3707
 20
-3.2191
 30
0.0
 10
-67.3707
 20
-3.2191
 30
0.0
 10
-67.3707
 20
-3.2191
 30
0.0
 10
-64.7848
 20
-2.1064
 30
0.0
 10
-60.9189
 20
1.8008
 30
0.0
 10
-62.1738
 20
5.0487
 30
0.0
 10
-62.1738
 20
5.0487
 30
0.0
 10
-62.9914
 20
7.166
 30
0.0
 10
-64.7872
 20
7.6424
 30
0.0
 10
-65.9393
 20
7.7175
 30
0.0
 10
-65.9393
 20
7.7175
 30
0.0
 10
-63.5529
 20
8.4438
 30
0.0
 10
-61.5727
 20
8.3238
 30
0.0
 10
-60.4923
 20
7.6912
 30
0.0
 10
-60.4923
 20
7.6912
 30
0.0
 10
-58.8879
 20
6.752
 30
0.0
 10
-56.5323
 20
6.8434
 30
0.0
 10
-56.5323
 20
6.8434
 30
0.0
 10
-56.5323
 20
6.8434
 30
0.0
 10
-55.8501
 20
4.2388
 30
0.0
 10
-52.197
 20
4.8744
 30
0.0
 10
-52.197
 20
4.8744
 30
0.0
 10
-52.197
 20
4.8744
 30
0.0
 10
-50.4563
 20
1.3004
 30
0.0
 10
-46.4284
 20
0.9678
 30
0.0
 10
-43.663
 20
0.5742
 30
0.0
 10
-43.663
 20
0.5742
 30
0.0
 10
-40.8983
 20
0.1804
 30
0.0
 10
-38.6789
 20
0.1502
 30
0.0
 10
-37.8942
 20
-0.8795
 30
0.0
 10
-37.8942
 20
-0.8795
 30
0.0
 10
-37.4953
 20
-1.4029
 30
0.0
 10
-37.5376
 20
-1.9883
 30
0.0
 10
-37.6752
 20
-2.4381
 30
0.0
  0
SPLINE
  5
89
330
1F
100
AcDbEntity
  8
layer 1
 62
     7
370
    18
100
AcDbSpline
210
0.0
220
0.0
230
1.0
 70
    11
 71
     3
 72
    36
 73
    32
 74
     0
 42
0.0000000001
 43
0.0000000001
 12
1.0
 22
0.0
 32
0.0
 13
1.0
 23
0.0
 33
0.0
 40
0.0
 40
0.0
 40
0.0
 40
0.0
 40
0.1111111111111111
 40
0.1111111111111111
 40
0.1111111111111111
 40
0.1111111111111111
 40
0.2222222222222222
 40
0.2222222222222222
 40
0.2222222222222222
 40
0.2222222222222222
 40
0.3333333333333333
 40
0.3333333333333333
 40
0.3333333333333333
 40
0.3333333333333333
 40
0.4444444444444444
 40
0.4444444444444444
 40
0.4444444444444444
 40
0.4444444444444444
 40
0.5555555555555556
 40
0.5555555555555556
 40
0.5555555555555556
 40
0.5555555555555556
 40
0.6666666666666666
 40
0.6666666666666666
 40
0.6666666666666666
 40
0.6666666666666666
 40
0.7777777777777778
 40
0.7777777777777778
 40
0.7777777777777778
 40
0.7777777777777778
 40
1.0
 40
1.0
 40
1.0
 40
1.0
 10
-34.7138
 20
-3.2491
 30
0.0
 10
-33.0392
 20
-3.8292
 30
0.0
 10
-31.3995
 20
-4.619
 30
0.0
 10
-29.8032
 20
-5.6951
 30
0.0
 10
-29.8032
 20
-5.6951
 30
0.0
 10
-24.7248
 20
-9.1183
 30
0.0
 10
-23.9136
 20
-13.2163
 30
0.0
 10
-24.1509
 20
-15.996
 30
0.0
 10
-24.1509
 20
-15.996
 30
0.0
 10
-21.1324
 20
-8.7203
 30
0.0
 10
-19.4507
 20
-0.8722
 30
0.0
 10
-19.3582
 20
7.3134
 30
0.0
 10
-19.3582
 20
7.3134
 30
0.0
 10
-20.0372
 20
6.8398
 30
0.0
 10
-21.2863
 20
6.1772
 30
0.0
 10
-22.9763
 20
6.1772
 30
0.0
 10
-22.9763
 20
6.1772
 30
0.0
 10
-25.6049
 20
6.1772
 30
0.0
 10
-26.6288
 20
7.3281
 30
0.0
 10
-28.643
 20
6.0257
 30
0.0
 10
-28.643
 20
6.0257
 30
0.0
 10
-30.6571
 20
4.7234
 30
0.0
 10
-32.5691
 20
3.4514
 30
0.0
 10
-34.3096
 20
3.1179
 30
0.0
 10
-34.3096
 20
3.1179
 30
0.0
 10
-34.3096
 20
3.1179
 30
0.0
 10
-32.6022
 20
1.18
 30
0.0
 10
-33.0462
 20
-0.577
 30
0.0
 10
-33.0462
 20
-0.577
 30
0.0
 10
-33.2862
 20
-1.5264
 30
0.0
 10
-33.9365
 20
-2.5002
 30
0.0
 10
-34.7138
 20
-3.2491
 30
0.0
  0
SPLINE
  5
8A
330
1F
100
AcDbEntity
  8
layer 1
 62
     7
370
    18
100
AcDbSpline
210
0.0
220
0.0
230
1.0
 70
    11
 71
     3
 72
    32
 73
    28
 74
     0
 42
0.0000000001
 43
0.0000000001
 12
1.0
 22
0.0
 32
0.0
 13
1.0
 23
0.0
 33
0.0
 40
0.0
 40
0.0
 40
0.0
 40
0.0
 40
0.125
 40
0.125
 40
0.125
 40
0.125
 40
0.25
 40
0.25
 40
0.25
 40
0.25
 40
0.375
 40
0.375
 40
0.375
 40
0.375
 40
0.5
 40
0.5
 40
0.5
 40
0.5
 40
0.625
 40
0.625
 40
0.625
 40
0.625
 40
0.75
 40
0.75
 40
0.75
 40
0.75
 40
1.0
 40
1.0
 40
1.0
 40
1.0
 10
-44.3721
 20
6.4584
 30
0.0
 10
-42.343
 20
6.9636
 30
0.0
 10
-42.1204
 20
7.9731
 30
0.0
 10
-39.9924
 20
7.7538
 30
0.0
 10
-39.9924
 20
7.7538
 30
0.0
 10
-37.8642
 20
7.5345
 30
0.0
 10
-36.9733
 20
7.6657
 30
0.0
 10
-34.6722
 20
8.7417
 30
0.0
 10
-34.6722
 20
8.7417
 30
0.0
 10
-34.6722
 20
8.7417
 30
0.0
 10
-35.4895
 20
8.7417
 30
0.0
 10
-36.7756
 20
9.1148
 30
0.0
 10
-36.7756
 20
9.1148
 30
0.0
 10
-38.0623
 20
9.488
 30
0.0
 10
-38.0875
 20
9.3127
 30
0.0
 10
-39.6957
 20
9.1148
 30
0.0
 10
-39.6957
 20
9.1148
 30
0.0
 10
-41.3039
 20
8.9171
 30
0.0
 10
-41.6499
 20
9.4659
 30
0.0
 10
-43.5804
 20
10.015
 30
0.0
 10
-43.5804
 20
10.015
 30
0.0
 10
-45.5105
 20
10.564
 30
0.0
 10
-47.8865
 20
10.0368
 30
0.0
 10
-48.2817
 20
8.4343
 30
0.0
 10
-48.2817
 20
8.4343
 30
0.0
 10
-48.6774
 20
6.8316
 30
0.0
 10
-46.4009
 20
5.9536
 30
0.0
 10
-44.3721
 20
6.4584
 30
0.0
  0
SPLINE
  5
8B
330
1F
100
AcDbEntity
  8
layer 1
 62
     7
370
    18
100
AcDbSpline
210
0.0
220
0.0
230
1.0
 70
    11
 71
     3
 72
    36
 73
    32
 74
     0
 42
0.0000000001
 43
0.0000000001
 12
1.0
 22
0.0
 32
0.0
 13
1.0
 23
0.0
 33
0.0
 40
0.0
 40
0.0
 40
0.0
 40
0.0
 40
0.1111111111111111
 40
0.1111111111111111
 40
0.1111111111111111
 40
0.1111111111111111
 40
0.2222222222222222
 40
0.2222222222222222
 40
0.2222222222222222
 40
0.2222222222222222
 40
0.3333333333333333
 40
0.3333333333333333
 40
0.3333333333333333
 40
0.3333333333333333
 40
0.4444444444444444
 40
0.4444444444444444
 40
0.4444444444444444
 40
0.4444444444444444
 40
0.5555555555555556
 40
0.5555555555555556
 40
0.5555555555555556
 40
0.5555555555555556
 40
0.6666666666666666
 40
0.6666666666666666
 40
0.6666666666666666
 40
0.6666666666666666
 40
0.7777777777777778
 40
0.7777777777777778
 40
0.7777777777777778
 40
0.7777777777777778
 40
1.0
 40
1.0
 40
1.0
 40
1.0
 10
-69.5301
 20
-5.9236
 30
0.0
 10
-67.8411
 20
-6.0264
 30
0.0
 10
-65.3859
 20
-6.2042
 30
0.0
 10
-62.0456
 20
-6.5128
 30
0.0
 10
-62.0456
 20
-6.5128
 30
0.0
 10
-54.6721
 20
-7.1942
 30
0.0
 10
-46.531
 20
-8.2999
 30
0.0
 10
-41.4784
 20
-11.4194
 30
0.0
 10
-41.4784
 20
-11.4194
 30
0.0
 10
-39.6982
 20
-12.518
 30
0.0
 10
-38.6307
 20
-13.9581
 30
0.0
 10
-38.0935
 20
-15.4385
 30
0.0
 10
-38.0935
 20
-15.4385
 30
0.0
 10
-37.5859
 20
-14.0807
 30
0.0
 10
-36.369
 20
-13.2665
 30
0.0
 10
-35.5383
 20
-13.2665
 30
0.0
 10
-35.5383
 20
-13.2665
 30
0.0
 10
-35.5383
 20
-13.2665
 30
0.0
 10
-36.2215
 20
-15.2958
 30
0.0
 10
-34.3777
 20
-15.7198
 30
0.0
 10
-34.3777
 20
-15.7198
 30
0.0
 10
-32.5343
 20
-16.1438
 30
0.0
 10
-31.1692
 20
-13.7814
 30
0.0
 10
-32.7392
 20
-11.6009
 30
0.0
 10
-32.7392
 20
-11.6009
 30
0.0
 10
-34.3095
 20
-9.4203
 30
0.0
 10
-39.3961
 20
-6.5431
 30
0.0
 10
-48.4086
 20
-5.7859
 30
0.0
 10
-48.4086
 20
-5.7859
 30
0.0
 10
-55.7953
 20
-5.1654
 30
0.0
 10
-62.9296
 20
-5.1565
 30
0.0
 10
-69.5301
 20
-5.9236
 30
0.0
  0
SPLINE
  5
8C
330
1F
100
AcDbEntity
  8
layer 1
 62
     7
370
    18
100
AcDbSpline
210
0.0
220
0.0
230
1.0
 70
    11
 71
     3
 72
    36
 73
    32
 74
     0
 42
0.0000000001
 43
0.0000000001
 12
1.0
 22
0.0
 32
0.0
 13
1.0
 23
0.0
 33
0.0
 40
0.0
 40
0.0
 40
0.0
 40
0.0
 40
0.1111111111111111
 40
0.1111111111111111
 40
0.1111111111111111
 40
0.1111111111111111
 40
0.2222222222222222
 40
0.2222222222222222
 40
0.2222222222222222
 40
0.2222222222222222
 40
0.3333333333333333
 40
0.3333333333333333
 40
0.3333333333333333
 40
0.3333333333333333
 40
0.4444444444444444
 40
0.4444444444444444
 40
0.4444444444444444
 40
0.4444444444444444
 40
0.5555555555555556
 40
0.5555555555555556
 40
0.5555555555555556
 40
0.5555555555555556
 40
0.6666666666666666
 40
0.6666666666666666
 40
0.6666666666666666
 40
0.6666666666666666
 40
0.7777777777777778
 40
0.7777777777777778
 40
0.7777777777777778
 40
0.7777777777777778
 40
1.0
 40
1.0
 40
1.0
 40
1.0
 10
-66.6733
 20
15.8573
 30
0.0
 10
-62.6175
 20
20.5404
 30
0.0
 10
-57.5661
 20
25.0092
 30
0.0
 10
-51.8486
 20
29.2044
 30
0.0
 10
-51.8486
 20
29.2044
 30
0.0
 10
-44.8729
 20
34.3227
 30
0.0
 10
-38.9827
 20
35.4799
 30
0.0
 10
-36.1342
 20
34.9227
 30
0.0
 10
-36.1342
 20
34.9227
 30
0.0
 10
-33.2858
 20
34.3658
 30
0.0
 10
-32.3689
 20
31.839
 30
0.0
 10
-34.0103
 20
30.9822
 30
0.0
 10
-34.0103
 20
30.9822
 30
0.0
 10
-35.6515
 20
30.1254
 30
0.0
 10
-36.7858
 20
31.9886
 30
0.0
 10
-36.7858
 20
31.9886
 30
0.0
 10
-36.7858
 20
31.9886
 30
0.0
 10
-37.3734
 20
31.4674
 30
0.0
 10
-37.5847
 20
30.1287
 30
0.0
 10
-36.862
 20
28.8503
 30
0.0
 10
-36.862
 20
28.8503
 30
0.0
 10
-38.4213
 20
29.5596
 30
0.0
 10
-40.3238
 20
29.9085
 30
0.0
 10
-42.4584
 20
29.5687
 30
0.0
 10
-42.4584
 20
29.5687
 30
0.0
 10
-48.5173
 20
28.6047
 30
0.0
 10
-55.1555
 20
24.2793
 30
0.0
 10
-60.9122
 20
20.1354
 30
0.0
 10
-60.9122
 20
20.1354
 30
0.0
 10
-63.52
 20
18.2586
 30
0.0
 10
-65.3972
 20
16.8446
 30
0.0
 10
-66.6733
 20
15.8573
 30
0.0
  0
SPLINE
  5
8D
330
1F
100
AcDbEntity
  8
layer 1
 62
     7
370
    18
100
AcDbSpline
210
0.0
220
0.0
230
1.0
 70
    11
 71
     3
 72
    36
 73
    32
 74
     0
 42
0.0000000001
 43
0.0000000001
 12
1.0
 22
0.0
 32
0.0
 13
1.0
 23
0.0
 33
0.0
 40
0.0
 40
0.0
 40
0.0
 40
0.0
 40
0.1111111111111111
 40
0.1111111111111111
 40
0.1111111111111111
 40
0.1111111111111111
 40
0.2222222222222222
 40
0.2222222222222222
 40
0.2222222222222222
 40
0.2222222222222222
 40
0.3333333333333333
 40
0.3333333333333333
 40
0.3333333333333333
 40
0.3333333333333333
 40
0.4444444444444444
 40
0.4444444444444444
 40
0.4444444444444444
 40
0.4444444444444444
 40
0.5555555555555556
 40
0.5555555555555556
 40
0.5555555555555556
 40
0.5555555555555556
 40
0.6666666666666666
 40
0.6666666666666666
 40
0.6666666666666666
 40
0.6666666666666666
 40
0.7777777777777778
 40
0.7777777777777778
 40
0.7777777777777778
 40
0.7777777777777778
 40
1.0
 40
1.0
 40
1.0
 40
1.0
 10
-26.575
 20
37.2196
 30
0.0
 10
-28.6269
 20
39.3296
 30
0.0
 10
-32.4632
 20
41.7036
 30
0.0
 10
-38.7655
 20
40.9406
 30
0.0
 10
-38.7655
 20
40.9406
 30
0.0
 10
-40.7519
 20
40.7002
 30
0.0
 10
-42.5407
 20
40.2301
 30
0.0
 10
-44.1871
 20
39.5896
 30
0.0
 10
-44.1871
 20
39.5896
 30
0.0
 10
-44.2344
 20
40.6069
 30
0.0
 10
-44.5509
 20
41.7032
 30
0.0
 10
-45.138
 20
42.5252
 30
0.0
 10
-45.138
 20
42.5252
 30
0.0
 10
-46.2243
 20
44.0462
 30
0.0
 10
-48.9756
 20
44.3451
 30
0.0
 10
-48.9756
 20
44.3451
 30
0.0
 10
-48.9756
 20
44.3451
 30
0.0
 10
-48.0108
 20
45.6732
 30
0.0
 10
-47.6725
 20
47.772
 30
0.0
 10
-47.2863
 20
49.9562
 30
0.0
 10
-47.2863
 20
49.9562
 30
0.0
 10
-46.8995
 20
52.1408
 30
0.0
 10
-45.2589
 20
51.9693
 30
0.0
 10
-43.3999
 20
53.6181
 30
0.0
 10
-43.3999
 20
53.6181
 30
0.0
 10
-42.2051
 20
54.6782
 30
0.0
 10
-41.8491
 20
55.9299
 30
0.0
 10
-41.747
 20
56.691
 30
0.0
 10
-41.747
 20
56.691
 30
0.0
 10
-35.5171
 20
51.0508
 30
0.0
 10
-30.3629
 20
44.4741
 30
0.0
 10
-26.575
 20
37.2196
 30
0.0
  0
SPLINE
  5
8E
330
1F
100
AcDbEntity
  8
layer 1
 62
     7
370
    18
100
AcDbSpline
210
0.0
220
0.0
230
1.0
 70
    11
 71
     3
 72
    32
 73
    28
 74
     0
 42
0.0000000001
 43
0.0000000001
 12
1.0
 22
0.0
 32
0.0
 13
1.0
 23
0.0
 33
0.0
 40
0.0
 40
0.0
 40
0.0
 40
0.0
 40
0.125
 40
0.125
 40
0.125
 40
0.125
 40
0.25
 40
0.25
 40
0.25
 40
0.25
 40
0.375
 40
0.375
 40
0.375
 40
0.375
 40
0.5
 40
0.5
 40
0.5
 40
0.5
 40
0.625
 40
0.625
 40
0.625
 40
0.625
 40
0.75
 40
0.75
 40
0.75
 40
0.75
 40
1.0
 40
1.0
 40
1.0
 40
1.0
 10
-76.5739
 20
22.8542
 30
0.0
 10
-77.4818
 20
18.8121
 30
0.0
 10
-79.0146
 20
13.7613
 30
0.0
 10
-82.3831
 20
11.1942
 30
0.0
 10
-82.3831
 20
11.1942
 30
0.0
 10
-86.1485
 20
8.3243
 30
0.0
 10
-89.673
 20
7.3391
 30
0.0
 10
-92.1353
 20
7.3391
 30
0.0
 10
-92.1353
 20
7.3391
 30
0.0
 10
-92.1353
 20
7.3391
 30
0.0
 10
-90.2516
 20
5.5404
 30
0.0
 10
-84.0729
 20
6.6543
 30
0.0
 10
-84.0729
 20
6.6543
 30
0.0
 10
-77.8936
 20
7.7676
 30
0.0
 10
-72.7996
 20
12.2863
 30
0.0
 10
-71.062
 20
16.312
 30
0.0
 10
-71.062
 20
16.312
 30
0.0
 10
-69.3245
 20
20.3382
 30
0.0
 10
-71.8649
 20
22.593
 30
0.0
 10
-72.8425
 20
22.8175
 30
0.0
 10
-72.8425
 20
22.8175
 30
0.0
 10
-73.8204
 20
23.0421
 30
0.0
 10
-74.4719
 20
22.3359
 30
0.0
 10
-74.1279
 20
21.5484
 30
0.0
 10
-74.1279
 20
21.5484
 30
0.0
 10
-74.1279
 20
21.5484
 30
0.0
 10
-75.6319
 20
21.3038
 30
0.0
 10
-76.5739
 20
22.8542
 30
0.0
  0
SPLINE
  5
8F
330
1F
100
AcDbEntity
  8
layer 1
 62
     7
370
    18
100
AcDbSpline
210
0.0
220
0.0
230
1.0
 70
    11
 71
     3
 72
    44
 73
    40
 74
     0
 42
0.0000000001
 43
0.0000000001
 12
1.0
 22
0.0
 32
0.0
 13
1.0
 23
0.0
 33
0.0
 40
0.0
 40
0.0
 40
0.0
 40
0.0
 40
0.0909090909090909
 40
0.0909090909090909
 40
0.0909090909090909
 40
0.0909090909090909
 40
0.1818181818181818
 40
0.1818181818181818
 40
0.1818181818181818
 40
0.1818181818181818
 40
0.2727272727272727
 40
0.2727272727272727
 40
0.2727272727272727
 40
0.2727272727272727
 40
0.3636363636363636
 40
0.3636363636363636
 40
0.3636363636363636
 40
0.3636363636363636
 40
0.4545454545454545
 40
0.4545454545454545
 40
0.4545454545454545
 40
0.4545454545454545
 40
0.5454545454545454
 40
0.5454545454545454
 40
0.5454545454545454
 40
0.5454545454545454
 40
0.6363636363636364
 40
0.6363636363636364
 40
0.6363636363636364
 40
0.6363636363636364
 40
0.7272727272727273
 40
0.7272727272727273
 40
0.7272727272727273
 40
0.7272727272727273
 40
0.8181818181818182
 40
0.8181818181818182
 40
0.8181818181818182
 40
0.8181818181818182
 40
1.0
 40
1.0
 40
1.0
 40
1.0
 10
-75.007
 20
27.7551
 30
0.0
 10
-73.8986
 20
29.7656
 30
0.0
 10
-72.4024
 20
30.9225
 30
0.0
 10
-71.1345
 20
31.1536
 30
0.0
 10
-71.1345
 20
31.1536
 30
0.0
 10
-69.2519
 20
31.4964
 30
0.0
 10
-67.6589
 20
33.038
 30
0.0
 10
-67.6589
 20
33.038
 30
0.0
 10
-67.6589
 20
33.038
 30
0.0
 10
-65.1005
 20
31.6243
 30
0.0
 10
-63.0239
 20
34.3657
 30
0.0
 10
-63.0239
 20
34.3657
 30
0.0
 10
-63.0239
 20
34.3657
 30
0.0
 10
-58.9445
 20
32.9308
 30
0.0
 10
-55.831
 20
35.222
 30
0.0
 10
-53.562
 20
36.6787
 30
0.0
 10
-53.562
 20
36.6787
 30
0.0
 10
-51.2934
 20
38.1348
 30
0.0
 10
-49.6997
 20
39.5056
 30
0.0
 10
-48.3243
 20
39.2697
 30
0.0
 10
-48.3243
 20
39.2697
 30
0.0
 10
-47.6251
 20
39.1498
 30
0.0
 10
-47.1883
 20
38.7093
 30
0.0
 10
-46.9273
 20
38.3051
 30
0.0
 10
-46.9273
 20
38.3051
 30
0.0
 10
-51.0858
 20
36.0151
 30
0.0
 10
-54.3576
 20
32.6361
 30
0.0
 10
-57.8341
 20
29.3333
 30
0.0
 10
-57.8341
 20
29.3333
 30
0.0
 10
-63.2898
 20
24.1511
 30
0.0
 10
-67.303
 20
19.1229
 30
0.0
 10
-67.303
 20
19.1229
 30
0.0
 10
-67.303
 20
19.1229
 30
0.0
 10
-66.3615
 20
21.5322
 30
0.0
 10
-66.7415
 20
26.7205
 30
0.0
 10
-70.2176
 20
28.2301
 30
0.0
 10
-70.2176
 20
28.2301
 30
0.0
 10
-72.4825
 20
29.2141
 30
0.0
 10
-74.1319
 20
28.4245
 30
0.0
 10
-75.007
 20
27.7551
 30
0.0
  0
SPLINE
  5
90
330
1F
100
AcDbEntity
  8
layer 1
 62
     7
370
    18
100
AcDbSpline
210
0.0
220
0.0
230
1.0
 70
    11
 71
     3
 72
    32
 73
    28
 74
     0
 42
0.0000000001
 43
0.0000000001
 12
1.0
 22
0.0
 32
0.0
 13
1.0
 23
0.0
 33
0.0
 40
0.0
 40
0.0
 40
0.0
 40
0.0
 40
0.125
 40
0.125
 40
0.125
 40
0.125
 40
0.25
 40
0.25
 40
0.25
 40
0.25
 40
0.375
 40
0.375
 40
0.375
 40
0.375
 40
0.5
 40
0.5
 40
0.5
 40
0.5
 40
0.625
 40
0.625
 40
0.625
 40
0.625
 40
0.75
 40
0.75
 40
0.75
 40
0.75
 40
1.0
 40
1.0
 40
1.0
 40
1.0
 10
-58.7535
 20
40.3946
 30
0.0
 10
-57.7214
 20
42.0249
 30
0.0
 10
-58.3684
 20
42.8785
 30
0.0
 10
-56.6885
 20
44.0584
 30
0.0
 10
-56.6885
 20
44.0584
 30
0.0
 10
-55.0089
 20
45.2383
 30
0.0
 10
-54.484
 20
45.8904
 30
0.0
 10
-53.7142
 20
48.0943
 30
0.0
 10
-53.7142
 20
48.0943
 30
0.0
 10
-53.7142
 20
48.0943
 30
0.0
 10
-54.2918
 20
47.5816
 30
0.0
 10
-55.4992
 20
47.0388
 30
0.0
 10
-55.4992
 20
47.0388
 30
0.0
 10
-56.7061
 20
46.4957
 30
0.0
 10
-56.584
 20
46.3556
 30
0.0
 10
-57.5638
 20
45.2068
 30
0.0
 10
-57.5638
 20
45.2068
 30
0.0
 10
-58.5436
 20
44.0584
 30
0.0
 10
-59.2258
 20
44.2292
 30
0.0
 10
-61.028
 20
43.406
 30
0.0
 10
-61.028
 20
43.406
 30
0.0
 10
-62.8301
 20
42.5838
 30
0.0
 10
-64.0904
 20
40.7205
 30
0.0
 10
-63.0929
 20
39.3391
 30
0.0
 10
-63.0929
 20
39.3391
 30
0.0
 10
-62.095
 20
37.9575
 30
0.0
 10
-59.7853
 20
38.7649
 30
0.0
 10
-58.7535
 20
40.3946
 30
0.0
  0
SPLINE
  5
91
330
1F
100
AcDbEntity
  8
layer 1
 62
     7
370
    18
100
AcDbSpline
210
0.0
220
0.0
230
1.0
 70
    11
 71
     3
 72
    68
 73
    64
 74
     0
 42
0.0000000001
 43
0.0000000001
 12
1.0
 22
0.0
 32
0.0
 13
1.0
 23
0.0
 33
0.0
 40
0.0
 40
0.0
 40
0.0
 40
0.0
 40
0.0588235294117647
 40
0.0588235294117647
 40
0.0588235294117647
 40
0.0588235294117647
 40
0.1176470588235294
 40
0.1176470588235294
 40
0.1176470588235294
 40
0.1176470588235294
 40
0.1764705882352941
 40
0.1764705882352941
 40
0.1764705882352941
 40
0.1764705882352941
 40
0.2352941176470588
 40
0.2352941176470588
 40
0.2352941176470588
 40
0.2352941176470588
 40
0.2941176470588235
 40
0.2941176470588235
 40
0.2941176470588235
 40
0.2941176470588235
 40
0.3529411764705883
 40
0.3529411764705883
 40
0.3529411764705883
 40
0.3529411764705883
 40
0.4117647058823529
 40
0.4117647058823529
 40
0.4117647058823529
 40
0.4117647058823529
 40
0.4705882352941176
 40
0.4705882352941176
 40
0.4705882352941176
 40
0.4705882352941176
 40
0.5294117647058824
 40
0.5294117647058824
 40
0.5294117647058824
 40
0.5294117647058824
 40
0.5882352941176471
 40
0.5882352941176471
 40
0.5882352941176471
 40
0.5882352941176471
 40
0.6470588235294118
 40
0.6470588235294118
 40
0.6470588235294118
 40
0.6470588235294118
 40
0.7058823529411765
 40
0.7058823529411765
 40
0.7058823529411765
 40
0.7058823529411765
 40
0.7647058823529411
 40
0.7647058823529411
 40
0.7647058823529411
 40
0.7647058823529411
 40
0.8235294117647058
 40
0.8235294117647058
 40
0.8235294117647058
 40
0.8235294117647058
 40
0.8823529411764706
 40
0.8823529411764706
 40
0.8823529411764706
 40
0.8823529411764706
 40
1.0
 40
1.0
 40
1.0
 40
1.0
 10
-88.9253
 20
4.2221
 30
0.0
 10
-87.8509
 20
4.1173
 30
0.0
 10
-86.532
 20
4.0415
 30
0.0
 10
-84.942
 20
4.0415
 30
0.0
 10
-84.942
 20
4.0415
 30
0.0
 10
-79.6314
 20
4.0415
 30
0.0
 10
-74.7072
 20
6.4823
 30
0.0
 10
-69.5659
 20
10.1878
 30
0.0
 10
-69.5659
 20
10.1878
 30
0.0
 10
-64.4246
 20
13.8924
 30
0.0
 10
-63.0966
 20
15.4558
 30
0.0
 10
-55.7344
 20
19.7174
 30
0.0
 10
-55.7344
 20
19.7174
 30
0.0
 10
-48.3729
 20
23.9792
 30
0.0
 10
-46.5384
 20
24.5573
 30
0.0
 10
-43.955
 20
24.5578
 30
0.0
 10
-43.955
 20
24.5578
 30
0.0
 10
-41.3723
 20
24.5578
 30
0.0
 10
-40.2137
 20
22.1375
 30
0.0
 10
-41.0347
 20
21.4094
 30
0.0
 10
-41.0347
 20
21.4094
 30
0.0
 10
-41.8549
 20
20.6811
 30
0.0
 10
-43.7621
 20
21.5594
 30
0.0
 10
-43.7621
 20
21.5594
 30
0.0
 10
-43.7621
 20
21.5594
 30
0.0
 10
-44.2448
 20
20.5314
 30
0.0
 10
-41.7587
 20
17.4686
 30
0.0
 10
-38.0658
 20
17.8754
 30
0.0
 10
-38.0658
 20
17.8754
 30
0.0
 10
-37.9637
 20
17.8869
 30
0.0
 10
-37.8693
 20
17.9048
 30
0.0
 10
-37.7703
 20
17.9191
 30
0.0
 10
-37.7703
 20
17.9191
 30
0.0
 10
-37.7893
 20
17.8919
 30
0.0
 10
-37.8044
 20
17.8652
 30
0.0
 10
-37.826
 20
17.8373
 30
0.0
 10
-37.826
 20
17.8373
 30
0.0
 10
-38.7984
 20
16.5654
 30
0.0
 10
-41.3079
 20
16.4441
 30
0.0
 10
-43.3561
 20
16.4441
 30
0.0
 10
-43.3561
 20
16.4441
 30
0.0
 10
-45.4042
 20
16.4441
 30
0.0
 10
-51.446
 20
15.7775
 30
0.0
 10
-52.197
 20
11.9012
 30
0.0
 10
-52.197
 20
11.9012
 30
0.0
 10
-52.197
 20
11.9012
 30
0.0
 10
-55.4738
 20
13.082
 30
0.0
 10
-56.5322
 20
9.9626
 30
0.0
 10
-56.5322
 20
9.9626
 30
0.0
 10
-56.5322
 20
9.9626
 30
0.0
 10
-58.4099
 20
9.9323
 30
0.0
 10
-60.5606
 20
10.6895
 30
0.0
 10
-60.5606
 20
10.6895
 30
0.0
 10
-62.7112
 20
11.447
 30
0.0
 10
-65.1685
 20
11.5981
 30
0.0
 10
-69.2994
 20
9.3267
 30
0.0
 10
-69.2994
 20
9.3267
 30
0.0
 10
-73.4301
 20
7.0551
 30
0.0
 10
-76.9459
 20
4.4203
 30
0.0
 10
-81.1104
 20
3.5423
 30
0.0
 10
-81.1104
 20
3.5423
 30
0.0
 10
-84.3766
 20
2.8532
 30
0.0
 10
-87.1758
 20
3.4505
 30
0.0
 10
-88.9253
 20
4.2221
 30
0.0
  0
SPLINE
  5
92
330
1F
100
AcDbEntity
  8
layer 1
 62
     7
370
    18
100
AcDbSpline
210
0.0
220
0.0
230
1.0
 70
    11
 71
     3
 72
    68
 73
    64
 74
     0
 42
0.0000000001
 43
0.0000000001
 12
1.0
 22
0.0
 32
0.0
 13
1.0
 23
0.0
 33
0.0
 40
0.0
 40
0.0
 40
0.0
 40
0.0
 40
0.0588235294117647
 40
0.0588235294117647
 40
0.0588235294117647
 40
0.0588235294117647
 40
0.1176470588235294
 40
0.1176470588235294
 40
0.1176470588235294
 40
0.1176470588235294
 40
0.1764705882352941
 40
0.1764705882352941
 40
0.1764705882352941
 40
0.1764705882352941
 40
0.2352941176470588
 40
0.2352941176470588
 40
0.2352941176470588
 40
0.2352941176470588
 40
0.2941176470588235
 40
0.2941176470588235
 40
0.2941176470588235
 40
0.2941176470588235
 40
0.3529411764705883
 40
0.3529411764705883
 40
0.3529411764705883
 40
0.3529411764705883
 40
0.4117647058823529
 40
0.4117647058823529
 40
0.4117647058823529
 40
0.4117647058823529
 40
0.4705882352941176
 40
0.4705882352941176
 40
0.4705882352941176
 40
0.4705882352941176
 40
0.5294117647058824
 40
0.5294117647058824
 40
0.5294117647058824
 40
0.5294117647058824
 40
0.5882352941176471
 40
0.5882352941176471
 40
0.5882352941176471
 40
0.5882352941176471
 40
0.6470588235294118
 40
0.6470588235294118
 40
0.6470588235294118
 40
0.6470588235294118
 40
0.7058823529411765
 40
0.7058823529411765
 40
0.7058823529411765
 40
0.7058823529411765
 40
0.7647058823529411
 40
0.7647058823529411
 40
0.7647058823529411
 40
0.7647058823529411
 40
0.8235294117647058
 40
0.8235294117647058
 40
0.8235294117647058
 40
0.8235294117647058
 40
0.8823529411764706
 40
0.8823529411764706
 40
0.8823529411764706
 40
0.8823529411764706
 40
1.0
 40
1.0
 40
1.0
 40
1.0
 10
-108.887
 20
61.2264
 30
0.0
 10
-108.8563
 20
61.2092
 30
0.0
 10
-108.8263
 20
61.1959
 30
0.0
 10
-108.795
 20
61.1771
 30
0.0
 10
-108.795
 20
61.1771
 30
0.0
 10
-107.3607
 20
60.314
 30
0.0
 10
-107.2243
 20
58.0882
 30
0.0
 10
-107.2243
 20
56.2711
 30
0.0
 10
-107.2243
 20
56.2711
 30
0.0
 10
-107.225
 20
54.4539
 30
0.0
 10
-106.4736
 20
49.0929
 30
0.0
 10
-102.1038
 20
48.4266
 30
0.0
 10
-102.1038
 20
48.4266
 30
0.0
 10
-102.1038
 20
48.4266
 30
0.0
 10
-103.4351
 20
45.5198
 30
0.0
 10
-99.9193
 20
44.5805
 30
0.0
 10
-99.9193
 20
44.5805
 30
0.0
 10
-99.9193
 20
44.5805
 30
0.0
 10
-99.885
 20
42.9145
 30
0.0
 10
-100.7384
 20
41.0065
 30
0.0
 10
-100.7384
 20
41.0065
 30
0.0
 10
-101.5918
 20
39.0985
 30
0.0
 10
-101.7631
 20
36.9182
 30
0.0
 10
-99.2022
 20
33.2532
 30
0.0
 10
-99.2022
 20
33.2532
 30
0.0
 10
-96.6424
 20
29.5882
 30
0.0
 10
-93.6728
 20
26.4692
 30
0.0
 10
-92.6824
 20
22.7744
 30
0.0
 10
-92.6824
 20
22.7744
 30
0.0
 10
-91.9066
 20
19.8774
 30
0.0
 10
-92.5793
 20
17.3938
 30
0.0
 10
-93.4485
 20
15.8415
 30
0.0
 10
-93.4485
 20
15.8415
 30
0.0
 10
-93.3307
 20
16.7951
 30
0.0
 10
-93.2455
 20
17.9644
 30
0.0
 10
-93.2455
 20
19.3748
 30
0.0
 10
-93.2455
 20
19.3748
 30
0.0
 10
-93.2455
 20
24.0871
 30
0.0
 10
-95.9972
 20
28.4556
 30
0.0
 10
-100.1724
 20
33.0169
 30
0.0
 10
-100.1724
 20
33.0169
 30
0.0
 10
-104.3486
 20
37.5783
 30
0.0
 10
-106.1108
 20
38.7565
 30
0.0
 10
-110.9141
 20
45.2884
 30
0.0
 10
-110.9141
 20
45.2884
 30
0.0
 10
-115.7178
 20
51.8193
 30
0.0
 10
-116.3691
 20
53.4468
 30
0.0
 10
-116.3691
 20
55.7391
 30
0.0
 10
-116.3691
 20
55.7391
 30
0.0
 10
-116.3691
 20
58.0307
 30
0.0
 10
-113.6416
 20
59.0589
 30
0.0
 10
-112.8207
 20
58.3302
 30
0.0
 10
-112.8207
 20
58.3302
 30
0.0
 10
-112.0006
 20
57.6024
 30
0.0
 10
-112.9903
 20
55.9107
 30
0.0
 10
-112.9903
 20
55.9107
 30
0.0
 10
-112.9903
 20
55.9107
 30
0.0
 10
-111.8313
 20
55.4821
 30
0.0
 10
-108.3792
 20
57.6878
 30
0.0
 10
-108.8382
 20
60.9642
 30
0.0
 10
-108.8382
 20
60.9642
 30
0.0
 10
-108.8514
 20
61.055
 30
0.0
 10
-108.8711
 20
61.1389
 30
0.0
 10
-108.887
 20
61.2264
 30
0.0
  0
SPLINE
  5
93
330
1F
100
AcDbEntity
  8
layer 1
 62
     7
370
    18
100
AcDbSpline
210
0.0
220
0.0
230
1.0
 70
    11
 71
     3
 72
    36
 73
    32
 74
     0
 42
0.0000000001
 43
0.0000000001
 12
1.0
 22
0.0
 32
0.0
 13
1.0
 23
0.0
 33
0.0
 40
0.0
 40
0.0
 40
0.0
 40
0.0
 40
0.1111111111111111
 40
0.1111111111111111
 40
0.1111111111111111
 40
0.1111111111111111
 40
0.2222222222222222
 40
0.2222222222222222
 40
0.2222222222222222
 40
0.2222222222222222
 40
0.3333333333333333
 40
0.3333333333333333
 40
0.3333333333333333
 40
0.3333333333333333
 40
0.4444444444444444
 40
0.4444444444444444
 40
0.4444444444444444
 40
0.4444444444444444
 40
0.5555555555555556
 40
0.5555555555555556
 40
0.5555555555555556
 40
0.5555555555555556
 40
0.6666666666666666
 40
0.6666666666666666
 40
0.6666666666666666
 40
0.6666666666666666
 40
0.7777777777777778
 40
0.7777777777777778
 40
0.7777777777777778
 40
0.7777777777777778
 40
1.0
 40
1.0
 40
1.0
 40
1.0
 10
-70.6724
 20
73.3104
 30
0.0
 10
-73.8054
 20
73.5182
 30
0.0
 10
-78.4175
 20
72.7944
 30
0.0
 10
-82.271
 20
68.2945
 30
0.0
 10
-82.271
 20
68.2945
 30
0.0
 10
-83.4835
 20
66.8786
 30
0.0
 10
-84.3745
 20
65.4238
 30
0.0
 10
-85.0283
 20
63.938
 30
0.0
 10
-85.0283
 20
63.938
 30
0.0
 10
-85.8721
 20
64.6278
 30
0.0
 10
-86.9703
 20
65.2042
 30
0.0
 10
-88.0406
 20
65.4172
 30
0.0
 10
-88.0406
 20
65.4172
 30
0.0
 10
-90.0206
 20
65.8111
 30
0.0
 10
-92.2047
 20
64.2966
 30
0.0
 10
-92.2047
 20
64.2966
 30
0.0
 10
-92.2047
 20
64.2966
 30
0.0
 10
-92.5806
 20
65.8405
 30
0.0
 10
-94.0137
 20
67.5372
 30
0.0
 10
-95.482
 20
69.3238
 30
0.0
 10
-95.482
 20
69.3238
 30
0.0
 10
-96.9499
 20
71.1111
 30
0.0
 10
-95.6529
 20
72.0192
 30
0.0
 10
-95.6522
 20
74.3515
 30
0.0
 10
-95.6522
 20
74.3515
 30
0.0
 10
-95.6527
 20
75.8474
 30
0.0
 10
-96.3958
 20
76.954
 30
0.0
 10
-96.9293
 20
77.5574
 30
0.0
 10
-96.9293
 20
77.5574
 30
0.0
 10
-87.7086
 20
77.4753
 30
0.0
 10
-78.8686
 20
75.9851
 30
0.0
 10
-70.6724
 20
73.3104
 30
0.0
  0
SPLINE
  5
94
330
1F
100
AcDbEntity
  8
layer 1
 62
     7
370
    18
100
AcDbSpline
210
0.0
220
0.0
230
1.0
 70
    11
 71
     3
 72
    32
 73
    28
 74
     0
 42
0.0000000001
 43
0.0000000001
 12
1.0
 22
0.0
 32
0.0
 13
1.0
 23
0.0
 33
0.0
 40
0.0
 40
0.0
 40
0.0
 40
0.0
 40
0.125
 40
0.125
 40
0.125
 40
0.125
 40
0.25
 40
0.25
 40
0.25
 40
0.25
 40
0.375
 40
0.375
 40
0.375
 40
0.375
 40
0.5
 40
0.5
 40
0.5
 40
0.5
 40
0.625
 40
0.625
 40
0.625
 40
0.625
 40
0.75
 40
0.75
 40
0.75
 40
0.75
 40
1.0
 40
1.0
 40
1.0
 40
1.0
 10
-94.5907
 20
31.7864
 30
0.0
 10
-92.0114
 20
28.3593
 30
0.0
 10
-89.0698
 20
23.8254
 30
0.0
 10
-89.4055
 20
19.8967
 30
0.0
 10
-89.4055
 20
19.8967
 30
0.0
 10
-89.7806
 20
15.5058
 30
0.0
 10
-91.4879
 20
12.598
 30
0.0
 10
-93.2292
 20
11.0531
 30
0.0
 10
-93.2292
 20
11.0531
 30
0.0
 10
-93.2292
 20
11.0531
 30
0.0
 10
-90.4637
 20
10.9629
 30
0.0
 10
-86.9821
 20
15.6266
 30
0.0
 10
-86.9821
 20
15.6266
 30
0.0
 10
-83.5002
 20
20.2907
 30
0.0
 10
-83.4998
 20
26.6817
 30
0.0
 10
-85.4802
 20
30.6186
 30
0.0
 10
-85.4802
 20
30.6186
 30
0.0
 10
-87.4593
 20
34.5559
 30
0.0
 10
-91.0529
 20
34.5559
 30
0.0
 10
-91.9232
 20
34.1015
 30
0.0
 10
-91.9232
 20
34.1015
 30
0.0
 10
-92.7936
 20
33.6472
 30
0.0
 10
-92.6915
 20
32.7386
 30
0.0
 10
-91.8209
 20
32.398
 30
0.0
 10
-91.8209
 20
32.398
 30
0.0
 10
-91.8209
 20
32.398
 30
0.0
 10
-92.6894
 20
31.281
 30
0.0
 10
-94.5907
 20
31.7864
 30
0.0
  0
SPLINE
  5
95
330
1F
100
AcDbEntity
  8
layer 1
 62
     7
370
    18
100
AcDbSpline
210
0.0
220
0.0
230
1.0
 70
    11
 71
     3
 72
    44
 73
    40
 74
     0
 42
0.0000000001
 43
0.0000000001
 12
1.0
 22
0.0
 32
0.0
 13
1.0
 23
0.0
 33
0.0
 40
0.0
 40
0.0
 40
0.0
 40
0.0
 40
0.0909090909090909
 40
0.0909090909090909
 40
0.0909090909090909
 40
0.0909090909090909
 40
0.1818181818181818
 40
0.1818181818181818
 40
0.1818181818181818
 40
0.1818181818181818
 40
0.2727272727272727
 40
0.2727272727272727
 40
0.2727272727272727
 40
0.2727272727272727
 40
0.3636363636363636
 40
0.3636363636363636
 40
0.3636363636363636
 40
0.3636363636363636
 40
0.4545454545454545
 40
0.4545454545454545
 40
0.4545454545454545
 40
0.4545454545454545
 40
0.5454545454545454
 40
0.5454545454545454
 40
0.5454545454545454
 40
0.5454545454545454
 40
0.6363636363636364
 40
0.6363636363636364
 40
0.6363636363636364
 40
0.6363636363636364
 40
0.7272727272727273
 40
0.7272727272727273
 40
0.7272727272727273
 40
0.7272727272727273
 40
0.8181818181818182
 40
0.8181818181818182
 40
0.8181818181818182
 40
0.8181818181818182
 40
1.0
 40
1.0
 40
1.0
 40
1.0
 10
-85.9424
 20
61.3108
 30
0.0
 10
-86.4492
 20
61.4328
 30
0.0
 10
-87.1091
 20
61.4703
 30
0.0
 10
-87.6991
 20
61.1161
 30
0.0
 10
-87.6991
 20
61.1161
 30
0.0
 10
-88.8592
 20
60.4203
 30
0.0
 10
-88.8936
 20
58.4514
 30
0.0
 10
-89.3373
 20
55.9982
 30
0.0
 10
-89.3373
 20
55.9982
 30
0.0
 10
-89.781
 20
53.5451
 30
0.0
 10
-90.1565
 20
49.9712
 30
0.0
 10
-94.1848
 20
48.4267
 30
0.0
 10
-94.1848
 20
48.4267
 30
0.0
 10
-94.1848
 20
48.4267
 30
0.0
 10
-93.468
 20
45.1855
 30
0.0
 10
-96.4037
 20
44.5804
 30
0.0
 10
-96.4037
 20
44.5804
 30
0.0
 10
-96.4037
 20
44.5804
 30
0.0
 10
-96.3013
 20
42.4906
 30
0.0
 10
-97.3593
 20
41.0672
 30
0.0
 10
-97.3593
 20
41.0672
 30
0.0
 10
-98.0716
 20
40.1086
 30
0.0
 10
-98.2079
 20
38.3517
 30
0.0
 10
-97.389
 20
36.2347
 30
0.0
 10
-97.389
 20
36.2347
 30
0.0
 10
-97.304
 20
37.2569
 30
0.0
 10
-96.7671
 20
38.8502
 30
0.0
 10
-94.381
 20
39.5756
 30
0.0
 10
-94.381
 20
39.5756
 30
0.0
 10
-90.7197
 20
40.6887
 30
0.0
 10
-86.3162
 20
37.2587
 30
0.0
 10
-85.0621
 20
34.9646
 30
0.0
 10
-85.0621
 20
34.9646
 30
0.0
 10
-85.0621
 20
34.9646
 30
0.0
 10
-86.2307
 20
41.0369
 30
0.0
 10
-86.5039
 20
48.1242
 30
0.0
 10
-86.5039
 20
48.1242
 30
0.0
 10
-86.678
 20
52.6404
 30
0.0
 10
-87.0572
 20
57.0828
 30
0.0
 10
-85.9424
 20
61.3108
 30
0.0
  0
SPLINE
  5
96
330
1F
100
AcDbEntity
  8
layer 1
 62
     7
370
    18
100
AcDbSpline
210
0.0
220
0.0
230
1.0
 70
    11
 71
     3
 72
    32
 73
    28
 74
     0
 42
0.0000000001
 43
0.0000000001
 12
1.0
 22
0.0
 32
0.0
 13
1.0
 23
0.0
 33
0.0
 40
0.0
 40
0.0
 40
0.0
 40
0.0
 40
0.125
 40
0.125
 40
0.125
 40
0.125
 40
0.25
 40
0.25
 40
0.25
 40
0.25
 40
0.375
 40
0.375
 40
0.375
 40
0.375
 40
0.5
 40
0.5
 40
0.5
 40
0.5
 40
0.625
 40
0.625
 40
0.625
 40
0.625
 40
0.75
 40
0.75
 40
0.75
 40
0.75
 40
1.0
 40
1.0
 40
1.0
 40
1.0
 10
-98.5434
 20
63.9747
 30
0.0
 10
-98.5434
 20
63.9747
 30
0.0
 10
-98.5431
 20
63.2503
 30
0.0
 10
-98.9634
 20
62.1087
 30
0.0
 10
-98.9634
 20
62.1087
 30
0.0
 10
-99.3842
 20
60.967
 30
0.0
 10
-99.1864
 20
60.9452
 30
0.0
 10
-98.9634
 20
59.5184
 30
0.0
 10
-98.9634
 20
59.5184
 30
0.0
 10
-98.7412
 20
58.0916
 30
0.0
 10
-99.3597
 20
57.7841
 30
0.0
 10
-99.9782
 20
56.0716
 30
0.0
 10
-99.9782
 20
56.0716
 30
0.0
 10
-100.5964
 20
54.3592
 30
0.0
 10
-100.0029
 20
52.2516
 30
0.0
 10
-98.1969
 20
51.9005
 30
0.0
 10
-98.1969
 20
51.9005
 30
0.0
 10
-96.3901
 20
51.5492
 30
0.0
 10
-95.4001
 20
53.5693
 30
0.0
 10
-95.9699
 20
55.3694
 30
0.0
 10
-95.9699
 20
55.3694
 30
0.0
 10
-96.5393
 20
57.1694
 30
0.0
 10
-97.6771
 20
57.3669
 30
0.0
 10
-97.4297
 20
59.2549
 30
0.0
 10
-97.4297
 20
59.2549
 30
0.0
 10
-97.1826
 20
61.1429
 30
0.0
 10
-97.3308
 20
61.9331
 30
0.0
 10
-98.5434
 20
63.9747
 30
0.0
  0
SPLINE
  5
97
330
1F
100
AcDbEntity
  8
layer 1
 62
     7
370
    18
100
AcDbSpline
210
0.0
220
0.0
230
1.0
 70
    11
 71
     3
 72
    36
 73
    32
 74
     0
 42
0.0000000001
 43
0.0000000001
 12
1.0
 22
0.0
 32
0.0
 13
1.0
 23
0.0
 33
0.0
 40
0.0
 40
0.0
 40
0.0
 40
0.0
 40
0.1111111111111111
 40
0.1111111111111111
 40
0.1111111111111111
 40
0.1111111111111111
 40
0.2222222222222222
 40
0.2222222222222222
 40
0.2222222222222222
 40
0.2222222222222222
 40
0.3333333333333333
 40
0.3333333333333333
 40
0.3333333333333333
 40
0.3333333333333333
 40
0.4444444444444444
 40
0.4444444444444444
 40
0.4444444444444444
 40
0.4444444444444444
 40
0.5555555555555556
 40
0.5555555555555556
 40
0.5555555555555556
 40
0.5555555555555556
 40
0.6666666666666666
 40
0.6666666666666666
 40
0.6666666666666666
 40
0.6666666666666666
 40
0.7777777777777778
 40
0.7777777777777778
 40
0.7777777777777778
 40
0.7777777777777778
 40
1.0
 40
1.0
 40
1.0
 40
1.0
 10
-71.2887
 20
60.9396
 30
0.0
 10
-72.9571
 20
60.4632
 30
0.0
 10
-74.5807
 20
59.5159
 30
0.0
 10
-75.8192
 20
57.9368
 30
0.0
 10
-75.8192
 20
57.9368
 30
0.0
 10
-79.3354
 20
53.4538
 30
0.0
 10
-80.5817
 20
46.2308
 30
0.0
 10
-81.3496
 20
39.6893
 30
0.0
 10
-81.3496
 20
39.6893
 30
0.0
 10
-81.6975
 20
36.7261
 30
0.0
 10
-81.8979
 20
34.548
 30
0.0
 10
-82.0135
 20
33.0494
 30
0.0
 10
-82.0135
 20
33.0494
 30
0.0
 10
-82.8776
 20
38.9052
 30
0.0
 10
-82.8681
 20
45.2344
 30
0.0
 10
-82.1685
 20
51.7883
 30
0.0
 10
-82.1685
 20
51.7883
 30
0.0
 10
-81.3155
 20
59.7836
 30
0.0
 10
-78.0721
 20
64.2968
 30
0.0
 10
-75.6144
 20
65.6894
 30
0.0
 10
-75.6144
 20
65.6894
 30
0.0
 10
-73.157
 20
67.0828
 30
0.0
 10
-70.4939
 20
65.8718
 30
0.0
 10
-70.9715
 20
64.2359
 30
0.0
 10
-70.9715
 20
64.2359
 30
0.0
 10
-71.4497
 20
62.6008
 30
0.0
 10
-73.7372
 20
63.2064
 30
0.0
 10
-73.7372
 20
63.2064
 30
0.0
 10
-73.7372
 20
63.2064
 30
0.0
 10
-73.7368
 20
62.4694
 30
0.0
 10
-72.8188
 20
61.3896
 30
0.0
 10
-71.2887
 20
60.9396
 30
0.0
  0
SPLINE
  5
98
330
1F
100
AcDbEntity
  8
layer 1
 62
     7
370
    18
100
AcDbSpline
210
0.0
220
0.0
230
1.0
 70
    11
 71
     3
 72
    68
 73
    64
 74
     0
 42
0.0000000001
 43
0.0000000001
 12
1.0
 22
0.0
 32
0.0
 13
1.0
 23
0.0
 33
0.0
 40
0.0
 40
0.0
 40
0.0
 40
0.0
 40
0.0588235294117647
 40
0.0588235294117647
 40
0.0588235294117647
 40
0.0588235294117647
 40
0.1176470588235294
 40
0.1176470588235294
 40
0.1176470588235294
 40
0.1176470588235294
 40
0.1764705882352941
 40
0.1764705882352941
 40
0.1764705882352941
 40
0.1764705882352941
 40
0.2352941176470588
 40
0.2352941176470588
 40
0.2352941176470588
 40
0.2352941176470588
 40
0.2941176470588235
 40
0.2941176470588235
 40
0.2941176470588235
 40
0.2941176470588235
 40
0.3529411764705883
 40
0.3529411764705883
 40
0.3529411764705883
 40
0.3529411764705883
 40
0.4117647058823529
 40
0.4117647058823529
 40
0.4117647058823529
 40
0.4117647058823529
 40
0.4705882352941176
 40
0.4705882352941176
 40
0.4705882352941176
 40
0.4705882352941176
 40
0.5294117647058824
 40
0.5294117647058824
 40
0.5294117647058824
 40
0.5294117647058824
 40
0.5882352941176471
 40
0.5882352941176471
 40
0.5882352941176471
 40
0.5882352941176471
 40
0.6470588235294118
 40
0.6470588235294118
 40
0.6470588235294118
 40
0.6470588235294118
 40
0.7058823529411765
 40
0.7058823529411765
 40
0.7058823529411765
 40
0.7058823529411765
 40
0.7647058823529411
 40
0.7647058823529411
 40
0.7647058823529411
 40
0.7647058823529411
 40
0.8235294117647058
 40
0.8235294117647058
 40
0.8235294117647058
 40
0.8235294117647058
 40
0.8823529411764706
 40
0.8823529411764706
 40
0.8823529411764706
 40
0.8823529411764706
 40
1.0
 40
1.0
 40
1.0
 40
1.0
 10
-88.4752
 20
10.8626
 30
0.0
 10
-87.6316
 20
11.4625
 30
0.0
 10
-86.6385
 20
12.2365
 30
0.0
 10
-85.5144
 20
13.2345
 30
0.0
 10
-85.5144
 20
13.2345
 30
0.0
 10
-81.759
 20
16.5656
 30
0.0
 10
-80.2228
 20
21.3812
 30
0.0
 10
-79.5402
 20
27.2264
 30
0.0
 10
-79.5402
 20
27.2264
 30
0.0
 10
-78.8578
 20
33.0713
 30
0.0
 10
-79.1647
 20
35.01
 30
0.0
 10
-77.3555
 20
42.642
 30
0.0
 10
-77.3555
 20
42.642
 30
0.0
 10
-75.5462
 20
50.2742
 30
0.0
 10
-74.71
 20
51.8335
 30
0.0
 10
-72.8836
 20
53.4542
 30
0.0
 10
-72.8836
 20
53.4542
 30
0.0
 10
-71.0569
 20
55.0749
 30
0.0
 10
-68.3089
 20
54.0903
 30
0.0
 10
-68.3089
 20
53.0602
 30
0.0
 10
-68.3089
 20
53.0602
 30
0.0
 10
-68.3089
 20
52.0308
 30
0.0
 10
-70.3572
 20
51.4553
 30
0.0
 10
-70.3572
 20
51.4553
 30
0.0
 10
-70.3572
 20
51.4553
 30
0.0
 10
-69.8796
 20
50.4259
 30
0.0
 10
-65.6805
 20
49.8199
 30
0.0
 10
-63.394
 20
52.4242
 30
0.0
 10
-63.394
 20
52.4242
 30
0.0
 10
-63.3303
 20
52.4963
 30
0.0
 10
-63.2779
 20
52.5689
 30
0.0
 10
-63.2192
 20
52.641
 30
0.0
 10
-63.2192
 20
52.641
 30
0.0
 10
-63.2108
 20
52.6095
 30
0.0
 10
-63.2004
 20
52.581
 30
0.0
 10
-63.1929
 20
52.5479
 30
0.0
 10
-63.1929
 20
52.5479
 30
0.0
 10
-62.867
 20
51.0379
 30
0.0
 10
-64.5449
 20
49.3778
 30
0.0
 10
-65.9932
 20
48.0932
 30
0.0
 10
-65.9932
 20
48.0932
 30
0.0
 10
-67.4416
 20
46.8081
 30
0.0
 10
-71.1831
 20
42.5463
 30
0.0
 10
-68.6246
 20
39.3344
 30
0.0
 10
-68.6246
 20
39.3344
 30
0.0
 10
-68.6246
 20
39.3344
 30
0.0
 10
-71.8828
 20
38.1138
 30
0.0
 10
-70.1448
 20
35.2443
 30
0.0
 10
-70.1448
 20
35.2443
 30
0.0
 10
-70.1448
 20
35.2443
 30
0.0
 10
-71.4485
 20
34.0446
 30
0.0
 10
-73.5728
 20
33.2305
 30
0.0
 10
-73.5728
 20
33.2305
 30
0.0
 10
-75.6969
 20
32.417
 30
0.0
 10
-77.5555
 20
30.9824
 30
0.0
 10
-78.666
 20
26.7847
 30
0.0
 10
-78.666
 20
26.7847
 30
0.0
 10
-79.7765
 20
22.587
 30
0.0
 10
-80.1621
 20
18.5184
 30
0.0
 10
-82.4071
 20
15.2845
 30
0.0
 10
-82.4071
 20
15.2845
 30
0.0
 10
-84.1679
 20
12.7485
 30
0.0
 10
-86.6233
 20
11.4148
 30
0.0
 10
-88.4752
 20
10.8626
 30
0.0
  0
SPLINE
  5
99
330
1F
100
AcDbEntity
  8
layer 1
 62
     7
370
    18
100
AcDbSpline
210
0.0
220
0.0
230
1.0
 70
    11
 71
     3
 72
    40
 73
    36
 74
     0
 42
0.0000000001
 43
0.0000000001
 12
1.0
 22
0.0
 32
0.0
 13
1.0
 23
0.0
 33
0.0
 40
0.0
 40
0.0
 40
0.0
 40
0.0
 40
0.1
 40
0.1
 40
0.1
 40
0.1
 40
0.2
 40
0.2
 40
0.2
 40
0.2
 40
0.3
 40
0.3
 40
0.3
 40
0.3
 40
0.4
 40
0.4
 40
0.4
 40
0.4
 40
0.5
 40
0.5
 40
0.5
 40
0.5
 40
0.6
 40
0.6
 40
0.6
 40
0.6
 40
0.7
 40
0.7
 40
0.7
 40
0.7
 40
0.8
 40
0.8
 40
0.8
 40
0.8
 40
1.0
 40
1.0
 40
1.0
 40
1.0
 10
-65.543
 20
71.4504
 30
0.0
 10
-63.6949
 20
69.8561
 30
0.0
 10
-62.126
 20
67.1894
 30
0.0
 10
-63.2228
 20
64.4173
 30
0.0
 10
-63.2228
 20
64.4173
 30
0.0
 10
-63.9455
 20
62.5917
 30
0.0
 10
-65.2105
 20
61.6137
 30
0.0
 10
-66.5457
 20
61.1213
 30
0.0
 10
-66.5457
 20
61.1213
 30
0.0
 10
-65.3301
 20
60.8633
 30
0.0
 10
-64.322
 20
60.3757
 30
0.0
 10
-63.7349
 20
59.7537
 30
0.0
 10
-63.7349
 20
59.7537
 30
0.0
 10
-62.6119
 20
58.5628
 30
0.0
 10
-61.9111
 20
57.1563
 30
0.0
 10
-61.9687
 20
55.6749
 30
0.0
 10
-61.9687
 20
55.6749
 30
0.0
 10
-61.0996
 20
55.6365
 30
0.0
 10
-60.2288
 20
55.4429
 30
0.0
 10
-59.6447
 20
54.9248
 30
0.0
 10
-59.6447
 20
54.9248
 30
0.0
 10
-58.0519
 20
53.5113
 30
0.0
 10
-57.8707
 20
51.9373
 30
0.0
 10
-57.8707
 20
51.9373
 30
0.0
 10
-57.8707
 20
51.9373
 30
0.0
 10
-55.3003
 20
56.2737
 30
0.0
 10
-49.833
 20
54.3145
 30
0.0
 10
-46.4655
 20
55.9527
 30
0.0
 10
-46.4655
 20
55.9527
 30
0.0
 10
-45.2173
 20
56.5602
 30
0.0
 10
-44.4488
 20
57.9803
 30
0.0
 10
-44.1104
 20
58.7435
 30
0.0
 10
-44.1104
 20
58.7435
 30
0.0
 10
-50.3766
 20
63.96
 30
0.0
 10
-57.6065
 20
68.2756
 30
0.0
 10
-65.543
 20
71.4504
 30
0.0
  0
SPLINE
  5
9A
330
1F
100
AcDbEntity
  8
layer 1
 62
     7
370
    18
100
AcDbSpline
210
0.0
220
0.0
230
1.0
 70
    11
 71
     3
 72
    68
 73
    64
 74
     0
 42
0.0000000001
 43
0.0000000001
 12
1.0
 22
0.0
 32
0.0
 13
1.0
 23
0.0
 33
0.0
 40
0.0
 40
0.0
 40
0.0
 40
0.0
 40
0.0588235294117647
 40
0.0588235294117647
 40
0.0588235294117647
 40
0.0588235294117647
 40
0.1176470588235294
 40
0.1176470588235294
 40
0.1176470588235294
 40
0.1176470588235294
 40
0.1764705882352941
 40
0.1764705882352941
 40
0.1764705882352941
 40
0.1764705882352941
 40
0.2352941176470588
 40
0.2352941176470588
 40
0.2352941176470588
 40
0.2352941176470588
 40
0.2941176470588235
 40
0.2941176470588235
 40
0.2941176470588235
 40
0.2941176470588235
 40
0.3529411764705883
 40
0.3529411764705883
 40
0.3529411764705883
 40
0.3529411764705883
 40
0.4117647058823529
 40
0.4117647058823529
 40
0.4117647058823529
 40
0.4117647058823529
 40
0.4705882352941176
 40
0.4705882352941176
 40
0.4705882352941176
 40
0.4705882352941176
 40
0.5294117647058824
 40
0.5294117647058824
 40
0.5294117647058824
 40
0.5294117647058824
 40
0.5882352941176471
 40
0.5882352941176471
 40
0.5882352941176471
 40
0.5882352941176471
 40
0.6470588235294118
 40
0.6470588235294118
 40
0.6470588235294118
 40
0.6470588235294118
 40
0.7058823529411765
 40
0.7058823529411765
 40
0.7058823529411765
 40
0.7058823529411765
 40
0.7647058823529411
 40
0.7647058823529411
 40
0.7647058823529411
 40
0.7647058823529411
 40
0.8235294117647058
 40
0.8235294117647058
 40
0.8235294117647058
 40
0.8235294117647058
 40
0.8823529411764706
 40
0.8823529411764706
 40
0.8823529411764706
 40
0.8823529411764706
 40
1.0
 40
1.0
 40
1.0
 40
1.0
 10
-148.0227
 20
38.6482
 30
0.0
 10
-147.9873
 20
38.6551
 30
0.0
 10
-147.9556
 20
38.6648
 30
0.0
 10
-147.9181
 20
38.6709
 30
0.0
 10
-147.9181
 20
38.6709
 30
0.0
 10
-146.2159
 20
38.9601
 30
0.0
 10
-144.346
 20
37.4716
 30
0.0
 10
-142.8975
 20
36.1868
 30
0.0
 10
-142.8975
 20
36.1868
 30
0.0
 10
-141.4495
 20
34.9014
 30
0.0
 10
-136.6458
 20
31.582
 30
0.0
 10
-133.0245
 20
33.8526
 30
0.0
 10
-133.0245
 20
33.8526
 30
0.0
 10
-133.0245
 20
33.8526
 30
0.0
 10
-131.6492
 20
30.9619
 30
0.0
 10
-128.4145
 20
32.5034
 30
0.0
 10
-128.4145
 20
32.5034
 30
0.0
 10
-128.4145
 20
32.5034
 30
0.0
 10
-127.0622
 20
31.3471
 30
0.0
 10
-126.1453
 20
29.4624
 30
0.0
 10
-126.1453
 20
29.4624
 30
0.0
 10
-125.228
 20
27.578
 30
0.0
 10
-123.6117
 20
25.9286
 30
0.0
 10
-118.88
 20
24.9433
 30
0.0
 10
-118.88
 20
24.9433
 30
0.0
 10
-114.1491
 20
23.9582
 30
0.0
 10
-109.5624
 20
23.6157
 30
0.0
 10
-105.9175
 20
21.6244
 30
0.0
 10
-105.9175
 20
21.6244
 30
0.0
 10
-103.0592
 20
20.0621
 30
0.0
 10
-101.5557
 20
17.8839
 30
0.0
 10
-100.9339
 20
16.2412
 30
0.0
 10
-100.9339
 20
16.2412
 30
0.0
 10
-101.6097
 20
16.9893
 30
0.0
 10
-102.8475
 20
18.1834
 30
0.0
 10
-103.9723
 20
19.1807
 30
0.0
 10
-103.9723
 20
19.1807
 30
0.0
 10
-107.7273
 20
22.5128
 30
0.0
 10
-112.9373
 20
23.5755
 30
0.0
 10
-119.5253
 20
24.1812
 30
0.0
 10
-119.5253
 20
24.1812
 30
0.0
 10
-126.114
 20
24.7866
 30
0.0
 10
-128.1502
 20
24.5008
 30
0.0
 10
-136.7529
 20
26.106
 30
0.0
 10
-136.7529
 20
26.106
 30
0.0
 10
-145.3557
 20
27.7109
 30
0.0
 10
-147.1135
 20
28.4532
 30
0.0
 10
-148.9403
 20
30.0736
 30
0.0
 10
-148.9403
 20
30.0736
 30
0.0
 10
-150.7662
 20
31.6942
 30
0.0
 10
-149.6569
 20
34.1322
 30
0.0
 10
-148.4963
 20
34.1322
 30
0.0
 10
-148.4963
 20
34.1322
 30
0.0
 10
-147.336
 20
34.1322
 30
0.0
 10
-146.6867
 20
32.3147
 30
0.0
 10
-146.6867
 20
32.3147
 30
0.0
 10
-146.6867
 20
32.3147
 30
0.0
 10
-145.5264
 20
32.7387
 30
0.0
 10
-144.8432
 20
36.4642
 30
0.0
 10
-147.7787
 20
38.4931
 30
0.0
 10
-147.7787
 20
38.4931
 30
0.0
 10
-147.86
 20
38.5494
 30
0.0
 10
-147.9415
 20
38.5958
 30
0.0
 10
-148.0227
 20
38.6482
 30
0.0
  0
SPLINE
  5
9B
330
1F
100
AcDbEntity
  8
layer 1
 62
     7
370
    18
100
AcDbSpline
210
0.0
220
0.0
230
1.0
 70
    11
 71
     3
 72
    40
 73
    36
 74
     0
 42
0.0000000001
 43
0.0000000001
 12
1.0
 22
0.0
 32
0.0
 13
1.0
 23
0.0
 33
0.0
 40
0.0
 40
0.0
 40
0.0
 40
0.0
 40
0.1
 40
0.1
 40
0.1
 40
0.1
 40
0.2
 40
0.2
 40
0.2
 40
0.2
 40
0.3
 40
0.3
 40
0.3
 40
0.3
 40
0.4
 40
0.4
 40
0.4
 40
0.4
 40
0.5
 40
0.5
 40
0.5
 40
0.5
 40
0.6
 40
0.6
 40
0.6
 40
0.6
 40
0.7
 40
0.7
 40
0.7
 40
0.7
 40
0.8
 40
0.8
 40
0.8
 40
0.8
 40
1.0
 40
1.0
 40
1.0
 40
1.0
 10
-110.4212
 20
64.1571
 30
0.0
 10
-111.5616
 20
65.2404
 30
0.0
 10
-113.1783
 20
65.7955
 30
0.0
 10
-114.921
 20
65.9327
 30
0.0
 10
-114.921
 20
65.9327
 30
0.0
 10
-115.8323
 20
66.0045
 30
0.0
 10
-116.9331
 20
65.7167
 30
0.0
 10
-117.9985
 20
65.1367
 30
0.0
 10
-117.9985
 20
65.1367
 30
0.0
 10
-117.4473
 20
66.3224
 30
0.0
 10
-117.332
 20
67.8074
 30
0.0
 10
-118.2761
 20
69.5518
 30
0.0
 10
-118.2761
 20
69.5518
 30
0.0
 10
-119.7074
 20
72.1961
 30
0.0
 10
-122.9345
 20
73.099
 30
0.0
 10
-125.51
 20
73.0694
 30
0.0
 10
-125.51
 20
73.0694
 30
0.0
 10
-117.6158
 20
75.7236
 30
0.0
 10
-109.1138
 20
77.2803
 30
0.0
 10
-100.2383
 20
77.5275
 30
0.0
 10
-100.2383
 20
77.5275
 30
0.0
 10
-99.8698
 20
76.7754
 30
0.0
 10
-99.2821
 20
75.2905
 30
0.0
 10
-99.6803
 20
74.0792
 30
0.0
 10
-99.6803
 20
74.0792
 30
0.0
 10
-100.7558
 20
70.8082
 30
0.0
 10
-106.1835
 20
68.7639
 30
0.0
 10
-104.5447
 20
64.0847
 30
0.0
 10
-104.5447
 20
64.0847
 30
0.0
 10
-104.5447
 20
64.0847
 30
0.0
 10
-105.9275
 20
65.0841
 30
0.0
 10
-108.1805
 20
65.0841
 30
0.0
 10
-108.1805
 20
65.0841
 30
0.0
 10
-109.0066
 20
65.0841
 30
0.0
 10
-109.7765
 20
64.6746
 30
0.0
 10
-110.4212
 20
64.1571
 30
0.0
  0
SPLINE
  5
9C
330
1F
100
AcDbEntity
  8
layer 1
 62
     7
370
    18
100
AcDbSpline
210
0.0
220
0.0
230
1.0
 70
    11
 71
     3
 72
    44
 73
    40
 74
     0
 42
0.0000000001
 43
0.0000000001
 12
1.0
 22
0.0
 32
0.0
 13
1.0
 23
0.0
 33
0.0
 40
0.0
 40
0.0
 40
0.0
 40
0.0
 40
0.0909090909090909
 40
0.0909090909090909
 40
0.0909090909090909
 40
0.0909090909090909
 40
0.1818181818181818
 40
0.1818181818181818
 40
0.1818181818181818
 40
0.1818181818181818
 40
0.2727272727272727
 40
0.2727272727272727
 40
0.2727272727272727
 40
0.2727272727272727
 40
0.3636363636363636
 40
0.3636363636363636
 40
0.3636363636363636
 40
0.3636363636363636
 40
0.4545454545454545
 40
0.4545454545454545
 40
0.4545454545454545
 40
0.4545454545454545
 40
0.5454545454545454
 40
0.5454545454545454
 40
0.5454545454545454
 40
0.5454545454545454
 40
0.6363636363636364
 40
0.6363636363636364
 40
0.6363636363636364
 40
0.6363636363636364
 40
0.7272727272727273
 40
0.7272727272727273
 40
0.7272727272727273
 40
0.7272727272727273
 40
0.8181818181818182
 40
0.8181818181818182
 40
0.8181818181818182
 40
0.8181818181818182
 40
1.0
 40
1.0
 40
1.0
 40
1.0
 10
-131.8653
 20
53.1022
 30
0.0
 10
-129.2842
 20
49.4127
 30
0.0
 10
-125.4751
 20
46.5098
 30
0.0
 10
-121.7522
 20
43.4255
 30
0.0
 10
-121.7522
 20
43.4255
 30
0.0
 10
-115.9113
 20
38.5853
 30
0.0
 10
-110.2445
 20
35.0246
 30
0.0
 10
-110.2445
 20
35.0246
 30
0.0
 10
-110.2445
 20
35.0246
 30
0.0
 10
-112.9595
 20
35.86
 30
0.0
 10
-118.8073
 20
35.5228
 30
0.0
 10
-120.5094
 20
32.4388
 30
0.0
 10
-120.5094
 20
32.4388
 30
0.0
 10
-121.6174
 20
30.4293
 30
0.0
 10
-120.7281
 20
28.9659
 30
0.0
 10
-119.9742
 20
28.1896
 30
0.0
 10
-119.9742
 20
28.1896
 30
0.0
 10
-122.2398
 20
29.1731
 30
0.0
 10
-123.5437
 20
30.5005
 30
0.0
 10
-123.8038
 20
31.6257
 30
0.0
 10
-123.8038
 20
31.6257
 30
0.0
 10
-124.1906
 20
33.2956
 30
0.0
 10
-125.9279
 20
34.7088
 30
0.0
 10
-125.9279
 20
34.7088
 30
0.0
 10
-125.9279
 20
34.7088
 30
0.0
 10
-124.3343
 20
36.9784
 30
0.0
 10
-127.4248
 20
38.8211
 30
0.0
 10
-127.4248
 20
38.8211
 30
0.0
 10
-127.4248
 20
38.8211
 30
0.0
 10
-125.8075
 20
42.4403
 30
0.0
 10
-128.3903
 20
45.2024
 30
0.0
 10
-130.0317
 20
47.2158
 30
0.0
 10
-130.0317
 20
47.2158
 30
0.0
 10
-131.673
 20
49.2285
 30
0.0
 10
-133.218
 20
50.6424
 30
0.0
 10
-132.952
 20
51.8629
 30
0.0
 10
-132.952
 20
51.8629
 30
0.0
 10
-132.8174
 20
52.4831
 30
0.0
 10
-132.3206
 20
52.8702
 30
0.0
 10
-131.8653
 20
53.1022
 30
0.0
  0
SPLINE
  5
9D
330
1F
100
AcDbEntity
  8
layer 1
 62
     7
370
    18
100
AcDbSpline
210
0.0
220
0.0
230
1.0
 70
    11
 71
     3
 72
    32
 73
    28
 74
     0
 42
0.0000000001
 43
0.0000000001
 12
1.0
 22
0.0
 32
0.0
 13
1.0
 23
0.0
 33
0.0
 40
0.0
 40
0.0
 40
0.0
 40
0.0
 40
0.125
 40
0.125
 40
0.125
 40
0.125
 40
0.25
 40
0.25
 40
0.25
 40
0.25
 40
0.375
 40
0.375
 40
0.375
 40
0.375
 40
0.5
 40
0.5
 40
0.5
 40
0.5
 40
0.625
 40
0.625
 40
0.625
 40
0.625
 40
0.75
 40
0.75
 40
0.75
 40
0.75
 40
1.0
 40
1.0
 40
1.0
 40
1.0
 10
-114.449
 20
26.7995
 30
0.0
 10
-109.8937
 20
25.9943
 30
0.0
 10
-104.2009
 20
24.634
 30
0.0
 10
-101.3072
 20
21.6454
 30
0.0
 10
-101.3072
 20
21.6454
 30
0.0
 10
-98.073
 20
18.3049
 30
0.0
 10
-96.9621
 20
15.1778
 30
0.0
 10
-96.9621
 20
12.9934
 30
0.0
 10
-96.9621
 20
12.9934
 30
0.0
 10
-96.9621
 20
12.9934
 30
0.0
 10
-94.9355
 20
14.6645
 30
0.0
 10
-96.1899
 20
20.1463
 30
0.0
 10
-96.1899
 20
20.1463
 30
0.0
 10
-97.4453
 20
25.6287
 30
0.0
 10
-102.5384
 20
30.148
 30
0.0
 10
-107.0761
 20
31.6896
 30
0.0
 10
-107.0761
 20
31.6896
 30
0.0
 10
-111.614
 20
33.2314
 30
0.0
 10
-114.1552
 20
30.9773
 30
0.0
 10
-114.4084
 20
30.1101
 30
0.0
 10
-114.4084
 20
30.1101
 30
0.0
 10
-114.6615
 20
29.2424
 30
0.0
 10
-113.865
 20
28.6643
 30
0.0
 10
-112.9779
 20
28.9696
 30
0.0
 10
-112.9779
 20
28.9696
 30
0.0
 10
-112.9779
 20
28.9696
 30
0.0
 10
-112.7022
 20
27.6355
 30
0.0
 10
-114.449
 20
26.7995
 30
0.0
  0
SPLINE
  5
9E
330
1F
100
AcDbEntity
  8
layer 1
 62
     7
370
    18
100
AcDbSpline
210
0.0
220
0.0
230
1.0
 70
    11
 71
     3
 72
    32
 73
    28
 74
     0
 42
0.0000000001
 43
0.0000000001
 12
1.0
 22
0.0
 32
0.0
 13
1.0
 23
0.0
 33
0.0
 40
0.0
 40
0.0
 40
0.0
 40
0.0
 40
0.125
 40
0.125
 40
0.125
 40
0.125
 40
0.25
 40
0.25
 40
0.25
 40
0.25
 40
0.375
 40
0.375
 40
0.375
 40
0.375
 40
0.5
 40
0.5
 40
0.5
 40
0.5
 40
0.625
 40
0.625
 40
0.625
 40
0.625
 40
0.75
 40
0.75
 40
0.75
 40
0.75
 40
1.0
 40
1.0
 40
1.0
 40
1.0
 10
-142.8982
 20
47.0807
 30
0.0
 10
-142.8982
 20
47.0807
 30
0.0
 10
-142.3211
 20
46.5686
 30
0.0
 10
-141.7089
 20
45.4973
 30
0.0
 10
-141.7089
 20
45.4973
 30
0.0
 10
-141.0963
 20
44.4258
 30
0.0
 10
-140.9388
 20
44.5348
 30
0.0
 10
-139.6439
 20
43.6656
 30
0.0
 10
-139.6439
 20
43.6656
 30
0.0
 10
-138.3491
 20
42.7964
 30
0.0
 10
-138.5417
 20
42.1907
 30
0.0
 10
-137.6143
 20
40.5919
 30
0.0
 10
-137.6143
 20
40.5919
 30
0.0
 10
-136.6871
 20
38.9931
 30
0.0
 10
-134.5874
 20
37.8749
 30
0.0
 10
-133.0307
 20
38.7598
 30
0.0
 10
-133.0307
 20
38.7598
 30
0.0
 10
-131.4732
 20
39.6451
 30
0.0
 10
-132.3824
 20
41.6946
 30
0.0
 10
-134.2207
 20
42.6102
 30
0.0
 10
-134.2207
 20
42.6102
 30
0.0
 10
-136.0575
 20
43.526
 30
0.0
 10
-137.0197
 20
42.9515
 30
0.0
 10
-138.3491
 20
44.4419
 30
0.0
 10
-138.3491
 20
44.4419
 30
0.0
 10
-139.6791
 20
45.9322
 30
0.0
 10
-140.4141
 20
46.3977
 30
0.0
 10
-142.8982
 20
47.0807
 30
0.0
  0
SPLINE
  5
9F
330
1F
100
AcDbEntity
  8
layer 1
 62
     7
370
    18
100
AcDbSpline
210
0.0
220
0.0
230
1.0
 70
    11
 71
     3
 72
    36
 73
    32
 74
     0
 42
0.0000000001
 43
0.0000000001
 12
1.0
 22
0.0
 32
0.0
 13
1.0
 23
0.0
 33
0.0
 40
0.0
 40
0.0
 40
0.0
 40
0.0
 40
0.1111111111111111
 40
0.1111111111111111
 40
0.1111111111111111
 40
0.1111111111111111
 40
0.2222222222222222
 40
0.2222222222222222
 40
0.2222222222222222
 40
0.2222222222222222
 40
0.3333333333333333
 40
0.3333333333333333
 40
0.3333333333333333
 40
0.3333333333333333
 40
0.4444444444444444
 40
0.4444444444444444
 40
0.4444444444444444
 40
0.4444444444444444
 40
0.5555555555555556
 40
0.5555555555555556
 40
0.5555555555555556
 40
0.5555555555555556
 40
0.6666666666666666
 40
0.6666666666666666
 40
0.6666666666666666
 40
0.6666666666666666
 40
0.7777777777777778
 40
0.7777777777777778
 40
0.7777777777777778
 40
0.7777777777777778
 40
1.0
 40
1.0
 40
1.0
 40
1.0
 10
-106.5629
 20
35.5829
 30
0.0
 10
-107.6751
 20
36.7149
 30
0.0
 10
-109.2692
 20
38.3807
 30
0.0
 10
-111.3848
 20
40.6945
 30
0.0
 10
-111.3848
 20
40.6945
 30
0.0
 10
-116.0559
 20
45.802
 30
0.0
 10
-120.9316
 20
51.6915
 30
0.0
 10
-122.0175
 20
57.067
 30
0.0
 10
-122.0175
 20
57.067
 30
0.0
 10
-122.4006
 20
58.9601
 30
0.0
 10
-122.0076
 20
60.6483
 30
0.0
 10
-121.2082
 20
62.0319
 30
0.0
 10
-121.2082
 20
62.0319
 30
0.0
 10
-122.649
 20
61.391
 30
0.0
 10
-124.158
 20
61.5784
 30
0.0
 10
-124.7459
 20
62.0996
 30
0.0
 10
-124.7459
 20
62.0996
 30
0.0
 10
-124.7459
 20
62.0996
 30
0.0
 10
-122.6457
 20
63.106
 30
0.0
 10
-123.6105
 20
64.5622
 30
0.0
 10
-123.6105
 20
64.5622
 30
0.0
 10
-124.5765
 20
66.0187
 30
0.0
 10
-127.4248
 20
65.2049
 30
0.0
 10
-128.0522
 20
62.6779
 30
0.0
 10
-128.0522
 20
62.6779
 30
0.0
 10
-128.6805
 20
60.1507
 30
0.0
 10
-127.3762
 20
54.9249
 30
0.0
 10
-121.6076
 20
48.7362
 30
0.0
 10
-121.6076
 20
48.7362
 30
0.0
 10
-116.8785
 20
43.663
 30
0.0
 10
-111.8409
 20
39.1814
 30
0.0
 10
-106.5629
 20
35.5829
 30
0.0
  0
SPLINE
  5
A0
330
1F
100
AcDbEntity
  8
layer 1
 62
     7
370
    18
100
AcDbSpline
210
0.0
220
0.0
230
1.0
 70
    11
 71
     3
 72
    68
 73
    64
 74
     0
 42
0.0000000001
 43
0.0000000001
 12
1.0
 22
0.0
 32
0.0
 13
1.0
 23
0.0
 33
0.0
 40
0.0
 40
0.0
 40
0.0
 40
0.0
 40
0.0588235294117647
 40
0.0588235294117647
 40
0.0588235294117647
 40
0.0588235294117647
 40
0.1176470588235294
 40
0.1176470588235294
 40
0.1176470588235294
 40
0.1176470588235294
 40
0.1764705882352941
 40
0.1764705882352941
 40
0.1764705882352941
 40
0.1764705882352941
 40
0.2352941176470588
 40
0.2352941176470588
 40
0.2352941176470588
 40
0.2352941176470588
 40
0.2941176470588235
 40
0.2941176470588235
 40
0.2941176470588235
 40
0.2941176470588235
 40
0.3529411764705883
 40
0.3529411764705883
 40
0.3529411764705883
 40
0.3529411764705883
 40
0.4117647058823529
 40
0.4117647058823529
 40
0.4117647058823529
 40
0.4117647058823529
 40
0.4705882352941176
 40
0.4705882352941176
 40
0.4705882352941176
 40
0.4705882352941176
 40
0.5294117647058824
 40
0.5294117647058824
 40
0.5294117647058824
 40
0.5294117647058824
 40
0.5882352941176471
 40
0.5882352941176471
 40
0.5882352941176471
 40
0.5882352941176471
 40
0.6470588235294118
 40
0.6470588235294118
 40
0.6470588235294118
 40
0.6470588235294118
 40
0.7058823529411765
 40
0.7058823529411765
 40
0.7058823529411765
 40
0.7058823529411765
 40
0.7647058823529411
 40
0.7647058823529411
 40
0.7647058823529411
 40
0.7647058823529411
 40
0.8235294117647058
 40
0.8235294117647058
 40
0.8235294117647058
 40
0.8235294117647058
 40
0.8823529411764706
 40
0.8823529411764706
 40
0.8823529411764706
 40
0.8823529411764706
 40
1.0
 40
1.0
 40
1.0
 40
1.0
 10
-157.7004
 20
-1.8689
 30
0.0
 10
-157.681
 20
-1.8416
 30
0.0
 10
-157.6657
 20
-1.8157
 30
0.0
 10
-157.6449
 20
-1.7877
 30
0.0
 10
-157.6449
 20
-1.7877
 30
0.0
 10
-156.6717
 20
-0.5151
 30
0.0
 10
-154.1627
 20
-0.3943
 30
0.0
 10
-152.1144
 20
-0.3943
 30
0.0
 10
-152.1144
 20
-0.3943
 30
0.0
 10
-150.0662
 20
-0.3943
 30
0.0
 10
-144.0243
 20
0.2723
 30
0.0
 10
-143.2739
 20
4.1487
 30
0.0
 10
-143.2739
 20
4.1487
 30
0.0
 10
-143.2739
 20
4.1487
 30
0.0
 10
-139.9966
 20
2.9677
 30
0.0
 10
-138.938
 20
6.0869
 30
0.0
 10
-138.938
 20
6.0869
 30
0.0
 10
-138.938
 20
6.0869
 30
0.0
 10
-137.0598
 20
6.1179
 30
0.0
 10
-134.9096
 20
5.3604
 30
0.0
 10
-134.9096
 20
5.3604
 30
0.0
 10
-132.7595
 20
4.6032
 30
0.0
 10
-130.3018
 20
4.4509
 30
0.0
 10
-126.1707
 20
6.7234
 30
0.0
 10
-126.1707
 20
6.7234
 30
0.0
 10
-122.0405
 20
8.9948
 30
0.0
 10
-118.5242
 20
11.6297
 30
0.0
 10
-114.3596
 20
12.508
 30
0.0
 10
-114.3596
 20
12.508
 30
0.0
 10
-111.094
 20
13.1963
 30
0.0
 10
-108.2951
 20
12.5995
 30
0.0
 10
-106.5455
 20
11.8282
 30
0.0
 10
-106.5455
 20
11.8282
 30
0.0
 10
-107.6196
 20
11.9327
 30
0.0
 10
-108.9383
 20
12.0084
 30
0.0
 10
-110.5283
 20
12.0084
 30
0.0
 10
-110.5283
 20
12.0084
 30
0.0
 10
-115.839
 20
12.0084
 30
0.0
 10
-120.7637
 20
9.5669
 30
0.0
 10
-125.9045
 20
5.8623
 30
0.0
 10
-125.9045
 20
5.8623
 30
0.0
 10
-131.0459
 20
2.1574
 30
0.0
 10
-132.3734
 20
0.5941
 30
0.0
 10
-139.7352
 20
-3.6672
 30
0.0
 10
-139.7352
 20
-3.6672
 30
0.0
 10
-147.0978
 20
-7.9301
 30
0.0
 10
-148.9321
 20
-8.5079
 30
0.0
 10
-151.5151
 20
-8.5079
 30
0.0
 10
-151.5151
 20
-8.5079
 30
0.0
 10
-154.0985
 20
-8.5079
 30
0.0
 10
-155.2569
 20
-6.0877
 30
0.0
 10
-154.436
 20
-5.3593
 30
0.0
 10
-154.436
 20
-5.3593
 30
0.0
 10
-153.6152
 20
-4.6315
 30
0.0
 10
-151.7084
 20
-5.5096
 30
0.0
 10
-151.7084
 20
-5.5096
 30
0.0
 10
-151.7084
 20
-5.5096
 30
0.0
 10
-151.2256
 20
-4.4816
 30
0.0
 10
-153.7118
 20
-1.4188
 30
0.0
 10
-157.4043
 20
-1.8252
 30
0.0
 10
-157.4043
 20
-1.8252
 30
0.0
 10
-157.5065
 20
-1.8367
 30
0.0
 10
-157.6011
 20
-1.8545
 30
0.0
 10
-157.7004
 20
-1.8689
 30
0.0
  0
SPLINE
  5
A1
330
1F
100
AcDbEntity
  8
layer 1
 62
     7
370
    18
100
AcDbSpline
210
0.0
220
0.0
230
1.0
 70
    11
 71
     3
 72
    36
 73
    32
 74
     0
 42
0.0000000001
 43
0.0000000001
 12
1.0
 22
0.0
 32
0.0
 13
1.0
 23
0.0
 33
0.0
 40
0.0
 40
0.0
 40
0.0
 40
0.0
 40
0.1111111111111111
 40
0.1111111111111111
 40
0.1111111111111111
 40
0.1111111111111111
 40
0.2222222222222222
 40
0.2222222222222222
 40
0.2222222222222222
 40
0.2222222222222222
 40
0.3333333333333333
 40
0.3333333333333333
 40
0.3333333333333333
 40
0.3333333333333333
 40
0.4444444444444444
 40
0.4444444444444444
 40
0.4444444444444444
 40
0.4444444444444444
 40
0.5555555555555556
 40
0.5555555555555556
 40
0.5555555555555556
 40
0.5555555555555556
 40
0.6666666666666666
 40
0.6666666666666666
 40
0.6666666666666666
 40
0.6666666666666666
 40
0.7777777777777778
 40
0.7777777777777778
 40
0.7777777777777778
 40
0.7777777777777778
 40
1.0
 40
1.0
 40
1.0
 40
1.0
 10
-125.9426
 20
21.9732
 30
0.0
 10
-132.5426
 20
21.2067
 30
0.0
 10
-139.6758
 20
21.2152
 30
0.0
 10
-147.062
 20
21.8355
 30
0.0
 10
-147.062
 20
21.8355
 30
0.0
 10
-156.0737
 20
22.5929
 30
0.0
 10
-161.1613
 20
25.4702
 30
0.0
 10
-162.731
 20
27.6505
 30
0.0
 10
-162.731
 20
27.6505
 30
0.0
 10
-164.3016
 20
29.8314
 30
0.0
 10
-162.9361
 20
32.1936
 30
0.0
 10
-161.0921
 20
31.7699
 30
0.0
 10
-161.0921
 20
31.7699
 30
0.0
 10
-159.2491
 20
31.3457
 30
0.0
 10
-159.9318
 20
29.3161
 30
0.0
 10
-159.9318
 20
29.3161
 30
0.0
 10
-159.9318
 20
29.3161
 30
0.0
 10
-159.1011
 20
29.3168
 30
0.0
 10
-157.8848
 20
30.1306
 30
0.0
 10
-157.377
 20
31.4881
 30
0.0
 10
-157.377
 20
31.4881
 30
0.0
 10
-156.8396
 20
30.0079
 30
0.0
 10
-155.7721
 20
28.5678
 30
0.0
 10
-153.9921
 20
27.469
 30
0.0
 10
-153.9921
 20
27.469
 30
0.0
 10
-148.9395
 20
24.3499
 30
0.0
 10
-140.7982
 20
23.2436
 30
0.0
 10
-133.4246
 20
22.5627
 30
0.0
 10
-133.4246
 20
22.5627
 30
0.0
 10
-130.0866
 20
22.254
 30
0.0
 10
-127.632
 20
22.0759
 30
0.0
 10
-125.9426
 20
21.9732
 30
0.0
  0
SPLINE
  5
A2
330
1F
100
AcDbEntity
  8
layer 1
 62
     7
370
    18
100
AcDbSpline
210
0.0
220
0.0
230
1.0
 70
    11
 71
     3
 72
    40
 73
    36
 74
     0
 42
0.0000000001
 43
0.0000000001
 12
1.0
 22
0.0
 32
0.0
 13
1.0
 23
0.0
 33
0.0
 40
0.0
 40
0.0
 40
0.0
 40
0.0
 40
0.1
 40
0.1
 40
0.1
 40
0.1
 40
0.2
 40
0.2
 40
0.2
 40
0.2
 40
0.3
 40
0.3
 40
0.3
 40
0.3
 40
0.4
 40
0.4
 40
0.4
 40
0.4
 40
0.5
 40
0.5
 40
0.5
 40
0.5
 40
0.6
 40
0.6
 40
0.6
 40
0.6
 40
0.7
 40
0.7
 40
0.7
 40
0.7
 40
0.8
 40
0.8
 40
0.8
 40
0.8
 40
1.0
 40
1.0
 40
1.0
 40
1.0
 10
-157.5816
 20
35.6971
 30
0.0
 10
-158.137
 20
36.8812
 30
0.0
 10
-159.239
 20
38.0037
 30
0.0
 10
-161.2974
 20
38.6444
 30
0.0
 10
-161.2974
 20
38.6444
 30
0.0
 10
-164.4243
 20
39.6185
 30
0.0
 10
-167.4334
 20
38.2233
 30
0.0
 10
-169.2289
 20
36.5816
 30
0.0
 10
-169.2289
 20
36.5816
 30
0.0
 10
-165.649
 20
43.6243
 30
0.0
 10
-160.783
 20
50.041
 30
0.0
 10
-154.9014
 20
55.6011
 30
0.0
 10
-154.9014
 20
55.6011
 30
0.0
 10
-154.0418
 20
55.301
 30
0.0
 10
-152.4404
 20
54.6193
 30
0.0
 10
-151.7558
 20
53.5118
 30
0.0
 10
-151.7558
 20
53.5118
 30
0.0
 10
-149.9097
 20
50.5243
 30
0.0
 10
-152.1179
 20
45.6736
 30
0.0
 10
-147.2298
 20
43.3931
 30
0.0
 10
-147.2298
 20
43.3931
 30
0.0
 10
-147.2298
 20
43.3931
 30
0.0
 10
-149.004
 20
43.2323
 30
0.0
 10
-150.5968
 20
41.8192
 30
0.0
 10
-150.5968
 20
41.8192
 30
0.0
 10
-151.181
 20
41.3009
 30
0.0
 10
-151.3998
 20
40.5284
 30
0.0
 10
-151.4431
 20
39.7573
 30
0.0
 10
-151.4431
 20
39.7573
 30
0.0
 10
-153.1127
 20
39.8084
 30
0.0
 10
-154.6987
 20
39.1867
 30
0.0
 10
-156.0404
 20
38.1899
 30
0.0
 10
-156.0404
 20
38.1899
 30
0.0
 10
-156.7414
 20
37.6694
 30
0.0
 10
-157.2903
 20
36.7753
 30
0.0
 10
-157.5816
 20
35.6971
 30
0.0
  0
SPLINE
  5
A3
330
1F
100
AcDbEntity
  8
layer 1
 62
     7
370
    18
100
AcDbSpline
210
0.0
220
0.0
230
1.0
 70
    11
 71
     3
 72
    32
 73
    28
 74
     0
 42
0.0000000001
 43
0.0000000001
 12
1.0
 22
0.0
 32
0.0
 13
1.0
 23
0.0
 33
0.0
 40
0.0
 40
0.0
 40
0.0
 40
0.0
 40
0.125
 40
0.125
 40
0.125
 40
0.125
 40
0.25
 40
0.25
 40
0.25
 40
0.25
 40
0.375
 40
0.375
 40
0.375
 40
0.375
 40
0.5
 40
0.5
 40
0.5
 40
0.5
 40
0.625
 40
0.625
 40
0.625
 40
0.625
 40
0.75
 40
0.75
 40
0.75
 40
0.75
 40
1.0
 40
1.0
 40
1.0
 40
1.0
 10
-124.5179
 20
10.8146
 30
0.0
 10
-120.6543
 20
13.1031
 30
0.0
 10
-115.5444
 20
15.7132
 30
0.0
 10
-111.1165
 20
15.4151
 30
0.0
 10
-111.1165
 20
15.4151
 30
0.0
 10
-106.1668
 20
15.0821
 30
0.0
 10
-102.8899
 20
13.5677
 30
0.0
 10
-101.1485
 20
12.0228
 30
0.0
 10
-101.1485
 20
12.0228
 30
0.0
 10
-101.1485
 20
12.0228
 30
0.0
 10
-101.0471
 20
14.4763
 30
0.0
 10
-106.3029
 20
17.5659
 30
0.0
 10
-106.3029
 20
17.5659
 30
0.0
 10
-111.5606
 20
20.6544
 30
0.0
 10
-118.7635
 20
20.655
 30
0.0
 10
-123.2012
 20
18.8981
 30
0.0
 10
-123.2012
 20
18.8981
 30
0.0
 10
-127.639
 20
17.1418
 30
0.0
 10
-127.639
 20
13.9542
 30
0.0
 10
-127.1269
 20
13.1812
 30
0.0
 10
-127.1269
 20
13.1812
 30
0.0
 10
-126.6142
 20
12.4093
 30
0.0
 10
-125.5908
 20
12.4999
 30
0.0
 10
-125.2067
 20
13.2722
 30
0.0
 10
-125.2067
 20
13.2722
 30
0.0
 10
-125.2067
 20
13.2722
 30
0.0
 10
-123.9477
 20
12.5016
 30
0.0
 10
-124.5179
 20
10.8146
 30
0.0
  0
SPLINE
  5
A4
330
1F
100
AcDbEntity
  8
layer 1
 62
     7
370
    18
100
AcDbSpline
210
0.0
220
0.0
230
1.0
 70
    11
 71
     3
 72
    44
 73
    40
 74
     0
 42
0.0000000001
 43
0.0000000001
 12
1.0
 22
0.0
 32
0.0
 13
1.0
 23
0.0
 33
0.0
 40
0.0
 40
0.0
 40
0.0
 40
0.0
 40
0.0909090909090909
 40
0.0909090909090909
 40
0.0909090909090909
 40
0.0909090909090909
 40
0.1818181818181818
 40
0.1818181818181818
 40
0.1818181818181818
 40
0.1818181818181818
 40
0.2727272727272727
 40
0.2727272727272727
 40
0.2727272727272727
 40
0.2727272727272727
 40
0.3636363636363636
 40
0.3636363636363636
 40
0.3636363636363636
 40
0.3636363636363636
 40
0.4545454545454545
 40
0.4545454545454545
 40
0.4545454545454545
 40
0.4545454545454545
 40
0.5454545454545454
 40
0.5454545454545454
 40
0.5454545454545454
 40
0.5454545454545454
 40
0.6363636363636364
 40
0.6363636363636364
 40
0.6363636363636364
 40
0.6363636363636364
 40
0.7272727272727273
 40
0.7272727272727273
 40
0.7272727272727273
 40
0.7272727272727273
 40
0.8181818181818182
 40
0.8181818181818182
 40
0.8181818181818182
 40
0.8181818181818182
 40
1.0
 40
1.0
 40
1.0
 40
1.0
 10
-157.795
 20
18.4877
 30
0.0
 10
-153.0299
 20
17.4985
 30
0.0
 10
-148.0227
 20
17.835
 30
0.0
 10
-142.9324
 20
17.9897
 30
0.0
 10
-142.9324
 20
17.9897
 30
0.0
 10
-134.9444
 20
18.2317
 30
0.0
 10
-128.0996
 20
19.269
 30
0.0
 10
-128.0996
 20
19.269
 30
0.0
 10
-128.0996
 20
19.269
 30
0.0
 10
-130.6851
 20
18.156
 30
0.0
 10
-134.5514
 20
14.2491
 30
0.0
 10
-133.2965
 20
11.0008
 30
0.0
 10
-133.2965
 20
11.0008
 30
0.0
 10
-132.4793
 20
8.8845
 30
0.0
 10
-130.6844
 20
8.4075
 30
0.0
 10
-129.5324
 20
8.3321
 30
0.0
 10
-129.5324
 20
8.3321
 30
0.0
 10
-131.9179
 20
7.6061
 30
0.0
 10
-133.8973
 20
7.7265
 30
0.0
 10
-134.9782
 20
8.3583
 30
0.0
 10
-134.9782
 20
8.3583
 30
0.0
 10
-136.5821
 20
9.297
 30
0.0
 10
-138.938
 20
9.2062
 30
0.0
 10
-138.938
 20
9.2062
 30
0.0
 10
-138.938
 20
9.2062
 30
0.0
 10
-139.6201
 20
11.8108
 30
0.0
 10
-143.2737
 20
11.1753
 30
0.0
 10
-143.2737
 20
11.1753
 30
0.0
 10
-143.2737
 20
11.1753
 30
0.0
 10
-145.0147
 20
14.7492
 30
0.0
 10
-149.042
 20
15.082
 30
0.0
 10
-151.8071
 20
15.4757
 30
0.0
 10
-151.8071
 20
15.4757
 30
0.0
 10
-154.5729
 20
15.8694
 30
0.0
 10
-156.7918
 20
15.8997
 30
0.0
 10
-157.5755
 20
16.9294
 30
0.0
 10
-157.5755
 20
16.9294
 30
0.0
 10
-157.9749
 20
17.4525
 30
0.0
 10
-157.9329
 20
18.0379
 30
0.0
 10
-157.795
 20
18.4877
 30
0.0
  0
SPLINE
  5
A5
330
1F
100
AcDbEntity
  8
layer 1
 62
     7
370
    18
100
AcDbSpline
210
0.0
220
0.0
230
1.0
 70
    11
 71
     3
 72
    36
 73
    32
 74
     0
 42
0.0000000001
 43
0.0000000001
 12
1.0
 22
0.0
 32
0.0
 13
1.0
 23
0.0
 33
0.0
 40
0.0
 40
0.0
 40
0.0
 40
0.0
 40
0.1111111111111111
 40
0.1111111111111111
 40
0.1111111111111111
 40
0.1111111111111111
 40
0.2222222222222222
 40
0.2222222222222222
 40
0.2222222222222222
 40
0.2222222222222222
 40
0.3333333333333333
 40
0.3333333333333333
 40
0.3333333333333333
 40
0.3333333333333333
 40
0.4444444444444444
 40
0.4444444444444444
 40
0.4444444444444444
 40
0.4444444444444444
 40
0.5555555555555556
 40
0.5555555555555556
 40
0.5555555555555556
 40
0.5555555555555556
 40
0.6666666666666666
 40
0.6666666666666666
 40
0.6666666666666666
 40
0.6666666666666666
 40
0.7777777777777778
 40
0.7777777777777778
 40
0.7777777777777778
 40
0.7777777777777778
 40
1.0
 40
1.0
 40
1.0
 40
1.0
 10
-176.1121
 20
8.7366
 30
0.0
 10
-175.4333
 20
9.2104
 30
0.0
 10
-174.184
 20
9.8728
 30
0.0
 10
-172.4945
 20
9.873
 30
0.0
 10
-172.4945
 20
9.873
 30
0.0
 10
-169.8649
 20
9.8728
 30
0.0
 10
-168.8421
 20
8.7218
 30
0.0
 10
-166.827
 20
10.0242
 30
0.0
 10
-166.827
 20
10.0242
 30
0.0
 10
-164.8137
 20
11.327
 30
0.0
 10
-162.9014
 20
12.5984
 30
0.0
 10
-161.1608
 20
12.9316
 30
0.0
 10
-161.1608
 20
12.9316
 30
0.0
 10
-161.1608
 20
12.9316
 30
0.0
 10
-162.8676
 20
14.87
 30
0.0
 10
-162.4235
 20
16.6263
 30
0.0
 10
-162.4235
 20
16.6263
 30
0.0
 10
-162.1834
 20
17.5756
 30
0.0
 10
-161.5339
 20
18.5494
 30
0.0
 10
-160.7565
 20
19.2987
 30
0.0
 10
-160.7565
 20
19.2987
 30
0.0
 10
-162.4315
 20
19.8787
 30
0.0
 10
-164.071
 20
20.6686
 30
0.0
 10
-165.6671
 20
21.7446
 30
0.0
 10
-165.6671
 20
21.7446
 30
0.0
 10
-170.7444
 20
25.1678
 30
0.0
 10
-171.5567
 20
29.265
 30
0.0
 10
-171.3197
 20
32.0445
 30
0.0
 10
-171.3197
 20
32.0445
 30
0.0
 10
-174.3372
 20
24.7696
 30
0.0
 10
-176.0195
 20
16.9222
 30
0.0
 10
-176.1121
 20
8.7366
 30
0.0
  0
SPLINE
  5
A6
330
1F
100
AcDbEntity
  8
layer 1
 62
     7
370
    18
100
AcDbSpline
210
0.0
220
0.0
230
1.0
 70
    11
 71
     3
 72
    32
 73
    28
 74
     0
 42
0.0000000001
 43
0.0000000001
 12
1.0
 22
0.0
 32
0.0
 13
1.0
 23
0.0
 33
0.0
 40
0.0
 40
0.0
 40
0.0
 40
0.0
 40
0.125
 40
0.125
 40
0.125
 40
0.125
 40
0.25
 40
0.25
 40
0.25
 40
0.25
 40
0.375
 40
0.375
 40
0.375
 40
0.375
 40
0.5
 40
0.5
 40
0.5
 40
0.5
 40
0.625
 40
0.625
 40
0.625
 40
0.625
 40
0.75
 40
0.75
 40
0.75
 40
0.75
 40
1.0
 40
1.0
 40
1.0
 40
1.0
 10
-151.0984
 20
9.5909
 30
0.0
 10
-153.1271
 20
9.086
 30
0.0
 10
-153.3501
 20
8.0768
 30
0.0
 10
-155.4782
 20
8.2961
 30
0.0
 10
-155.4782
 20
8.2961
 30
0.0
 10
-157.6061
 20
8.5153
 30
0.0
 10
-158.4971
 20
8.3833
 30
0.0
 10
-160.7979
 20
7.3079
 30
0.0
 10
-160.7979
 20
7.3079
 30
0.0
 10
-160.7979
 20
7.3079
 30
0.0
 10
-159.9811
 20
7.3084
 30
0.0
 10
-158.6952
 20
6.9348
 30
0.0
 10
-158.6952
 20
6.9348
 30
0.0
 10
-157.4074
 20
6.5616
 30
0.0
 10
-157.3828
 20
6.7373
 30
0.0
 10
-155.7748
 20
6.9344
 30
0.0
 10
-155.7748
 20
6.9344
 30
0.0
 10
-154.1666
 20
7.1328
 30
0.0
 10
-153.8208
 20
6.5831
 30
0.0
 10
-151.8903
 20
6.0349
 30
0.0
 10
-151.8903
 20
6.0349
 30
0.0
 10
-149.9602
 20
5.4862
 30
0.0
 10
-147.584
 20
6.0126
 30
0.0
 10
-147.1886
 20
7.6155
 30
0.0
 10
-147.1886
 20
7.6155
 30
0.0
 10
-146.7926
 20
9.2183
 30
0.0
 10
-149.0697
 20
10.0966
 30
0.0
 10
-151.0984
 20
9.5909
 30
0.0
  0
SPLINE
  5
A7
330
1F
100
AcDbEntity
  8
layer 1
 62
     7
370
    18
100
AcDbSpline
210
0.0
220
0.0
230
1.0
 70
    11
 71
     3
 72
    32
 73
    28
 74
     0
 42
0.0000000001
 43
0.0000000001
 12
1.0
 22
0.0
 32
0.0
 13
1.0
 23
0.0
 33
0.0
 40
0.0
 40
0.0
 40
0.0
 40
0.0
 40
0.125
 40
0.125
 40
0.125
 40
0.125
 40
0.25
 40
0.25
 40
0.25
 40
0.25
 40
0.375
 40
0.375
 40
0.375
 40
0.375
 40
0.5
 40
0.5
 40
0.5
 40
0.5
 40
0.625
 40
0.625
 40
0.625
 40
0.625
 40
0.75
 40
0.75
 40
0.75
 40
0.75
 40
1.0
 40
1.0
 40
1.0
 40
1.0
 10
-118.8968
 20
-6.8046
 30
0.0
 10
-117.9887
 20
-2.7625
 30
0.0
 10
-116.456
 20
2.2883
 30
0.0
 10
-113.0873
 20
4.8563
 30
0.0
 10
-113.0873
 20
4.8563
 30
0.0
 10
-109.3224
 20
7.7256
 30
0.0
 10
-105.7975
 20
8.7108
 30
0.0
 10
-103.3352
 20
8.7108
 30
0.0
 10
-103.3352
 20
8.7108
 30
0.0
 10
-103.3352
 20
8.7108
 30
0.0
 10
-105.2188
 20
10.5088
 30
0.0
 10
-111.3973
 20
9.3959
 30
0.0
 10
-111.3973
 20
9.3959
 30
0.0
 10
-117.5774
 20
8.282
 30
0.0
 10
-122.6705
 20
3.7636
 30
0.0
 10
-124.4081
 20
-0.2627
 30
0.0
 10
-124.4081
 20
-0.2627
 30
0.0
 10
-126.146
 20
-4.2883
 30
0.0
 10
-123.6058
 20
-6.5429
 30
0.0
 10
-122.6277
 20
-6.7675
 30
0.0
 10
-122.6277
 20
-6.7675
 30
0.0
 10
-121.6502
 20
-6.9923
 30
0.0
 10
-120.9983
 20
-6.286
 30
0.0
 10
-121.3422
 20
-5.4985
 30
0.0
 10
-121.3422
 20
-5.4985
 30
0.0
 10
-121.3422
 20
-5.4985
 30
0.0
 10
-119.8381
 20
-5.2535
 30
0.0
 10
-118.8968
 20
-6.8046
 30
0.0
  0
SPLINE
  5
A8
330
1F
100
AcDbEntity
  8
layer 1
 62
   250
370
    18
100
AcDbSpline
210
0.0
220
0.0
230
1.0
 70
     8
 71
     3
 72
     8
 73
     4
 74
     0
 42
0.0000000001
 43
0.0000000001
 12
1.0
 22
0.0
 32
0.0
 13
1.0
 23
0.0
 33
0.0
 40
0.0
 40
0.0
 40
0.0
 40
0.0
 40
1.0
 40
1.0
 40
1.0
 40
1.0
 10
-113.4568
 20
-16.9989
 30
0.0
 10
-113.3967
 20
-17.4058
 30
0.0
 10
-113.341
 20
-17.815
 30
0.0
 10
-113.2894
 20
-18.2264
 30
0.0
  0
SPLINE
  5
A9
330
1F
100
AcDbEntity
  8
layer 1
 62
   250
370
    18
100
AcDbSpline
210
0.0
220
0.0
230
1.0
 70
     8
 71
     3
 72
     8
 73
     4
 74
     0
 42
0.0000000001
 43
0.0000000001
 12
1.0
 22
0.0
 32
0.0
 13
1.0
 23
0.0
 33
0.0
 40
0.0
 40
0.0
 40
0.0
 40
0.0
 40
1.0
 40
1.0
 40
1.0
 40
1.0
 10
-113.4568
 20
-16.9989
 30
0.0
 10
-113.4853
 20
-17.3666
 30
0.0
 10
-113.5188
 20
-17.7753
 30
0.0
 10
-113.5584
 20
-18.2264
 30
0.0
  0
SPLINE
  5
AA
330
1F
100
AcDbEntity
  8
layer 1
 62
   250
370
    18
100
AcDbSpline
210
0.0
220
0.0
230
1.0
 70
     8
 71
     3
 72
    12
 73
     8
 74
     0
 42
0.0000000001
 43
0.0000000001
 12
1.0
 22
0.0
 32
0.0
 13
1.0
 23
0.0
 33
0.0
 40
0.0
 40
0.0
 40
0.0
 40
0.0
 40
0.3333333333333333
 40
0.3333333333333333
 40
0.3333333333333333
 40
0.3333333333333333
 40
1.0
 40
1.0
 40
1.0
 40
1.0
 10
-75.4966
 20
-12.1398
 30
0.0
 10
-73.2307
 20
-13.1231
 30
0.0
 10
-71.9266
 20
-14.4506
 30
0.0
 10
-71.6659
 20
-15.5757
 30
0.0
 10
-71.6659
 20
-15.5757
 30
0.0
 10
-71.4091
 20
-16.6863
 30
0.0
 10
-70.5544
 20
-17.6831
 30
0.0
 10
-70.0107
 20
-18.2264
 30
0.0
  0
SPLINE
  5
AB
330
1F
100
AcDbEntity
  8
layer 1
 62
   250
370
    18
100
AcDbSpline
210
0.0
220
0.0
230
1.0
 70
     8
 71
     3
 72
    12
 73
     8
 74
     0
 42
0.0000000001
 43
0.0000000001
 12
1.0
 22
0.0
 32
0.0
 13
1.0
 23
0.0
 33
0.0
 40
0.0
 40
0.0
 40
0.0
 40
0.0
 40
0.3333333333333333
 40
0.3333333333333333
 40
0.3333333333333333
 40
0.3333333333333333
 40
1.0
 40
1.0
 40
1.0
 40
1.0
 10
-75.4966
 20
-12.1398
 30
0.0
 10
-74.7422
 20
-12.9157
 30
0.0
 10
-73.8527
 20
-14.3792
 30
0.0
 10
-74.9615
 20
-16.3889
 30
0.0
 10
-74.9615
 20
-16.3889
 30
0.0
 10
-75.3917
 20
-17.1686
 30
0.0
 10
-76.087
 20
-17.7724
 30
0.0
 10
-76.9295
 20
-18.2264
 30
0.0
  0
SPLINE
  5
AC
330
1F
100
AcDbEntity
  8
layer 1
 62
     7
370
    18
100
AcDbSpline
210
0.0
220
0.0
230
1.0
 70
    11
 71
     3
 72
    36
 73
    32
 74
     0
 42
0.0000000001
 43
0.0000000001
 12
1.0
 22
0.0
 32
0.0
 13
1.0
 23
0.0
 33
0.0
 40
0.0
 40
0.0
 40
0.0
 40
0.0
 40
0.1111111111111111
 40
0.1111111111111111
 40
0.1111111111111111
 40
0.1111111111111111
 40
0.2222222222222222
 40
0.2222222222222222
 40
0.2222222222222222
 40
0.2222222222222222
 40
0.3333333333333333
 40
0.3333333333333333
 40
0.3333333333333333
 40
0.3333333333333333
 40
0.4444444444444444
 40
0.4444444444444444
 40
0.4444444444444444
 40
0.4444444444444444
 40
0.5555555555555556
 40
0.5555555555555556
 40
0.5555555555555556
 40
0.5555555555555556
 40
0.6666666666666666
 40
0.6666666666666666
 40
0.6666666666666666
 40
0.6666666666666666
 40
0.7777777777777778
 40
0.7777777777777778
 40
0.7777777777777778
 40
0.7777777777777778
 40
1.0
 40
1.0
 40
1.0
 40
1.0
 10
-131.4039
 20
109.512
 30
0.0
 10
-131.411
 20
110.9658
 30
0.0
 10
-131.3838
 20
110.6477
 30
0.0
 10
-130.4392
 20
111.0151
 30
0.0
 10
-130.4392
 20
111.0151
 30
0.0
 10
-129.4928
 20
111.3818
 30
0.0
 10
-127.5006
 20
112.2759
 30
0.0
 10
-126.6634
 20
113.7332
 30
0.0
 10
-126.6634
 20
113.7332
 30
0.0
 10
-125.8259
 20
115.19
 30
0.0
 10
-125.6761
 20
115.9857
 30
0.0
 10
-125.6761
 20
115.9857
 30
0.0
 10
-125.6761
 20
115.9857
 30
0.0
 10
-125.6761
 20
115.9857
 30
0.0
 10
-126.1386
 20
116.2567
 30
0.0
 10
-127.1306
 20
115.0483
 30
0.0
 10
-127.1306
 20
115.0483
 30
0.0
 10
-128.1229
 20
113.8407
 30
0.0
 10
-128.7611
 20
113.4064
 30
0.0
 10
-130.272
 20
113.4007
 30
0.0
 10
-130.272
 20
113.4007
 30
0.0
 10
-131.7818
 20
113.3943
 30
0.0
 10
-134.3929
 20
113.2251
 30
0.0
 10
-135.5109
 20
111.5851
 30
0.0
 10
-135.5109
 20
111.5851
 30
0.0
 10
-136.9523
 20
109.4705
 30
0.0
 10
-136.6432
 20
107.5827
 30
0.0
 10
-134.9756
 20
107.0442
 30
0.0
 10
-134.9756
 20
107.0442
 30
0.0
 10
-133.3087
 20
106.5054
 30
0.0
 10
-131.3967
 20
108.0582
 30
0.0
 10
-131.4039
 20
109.512
 30
0.0
  0
SPLINE
  5
AD
330
1F
100
AcDbEntity
  8
layer 1
 62
     7
370
    18
100
AcDbSpline
210
0.0
220
0.0
230
1.0
 70
    11
 71
     3
 72
    20
 73
    16
 74
     0
 42
0.0000000001
 43
0.0000000001
 12
1.0
 22
0.0
 32
0.0
 13
1.0
 23
0.0
 33
0.0
 40
0.0
 40
0.0
 40
0.0
 40
0.0
 40
0.2
 40
0.2
 40
0.2
 40
0.2
 40
0.4
 40
0.4
 40
0.4
 40
0.4
 40
0.6
 40
0.6
 40
0.6
 40
0.6
 40
1.0
 40
1.0
 40
1.0
 40
1.0
 10
-115.7696
 20
83.9161
 30
0.0
 10
-114.351
 20
85.2198
 30
0.0
 10
-112.8084
 20
86.7415
 30
0.0
 10
-111.2672
 20
88.4498
 30
0.0
 10
-111.2672
 20
88.4498
 30
0.0
 10
-110.2537
 20
87.5047
 30
0.0
 10
-107.1082
 20
85.3045
 30
0.0
 10
-101.8658
 20
88.0708
 30
0.0
 10
-101.8658
 20
88.0708
 30
0.0
 10
-101.8658
 20
88.0708
 30
0.0
 10
-101.3554
 20
86.3684
 30
0.0
 10
-99.6194
 20
85.5508
 30
0.0
 10
-99.6194
 20
85.5508
 30
0.0
 10
-105.1448
 20
85.4473
 30
0.0
 10
-110.5425
 20
84.8887
 30
0.0
 10
-115.7696
 20
83.9161
 30
0.0
  0
SPLINE
  5
AE
330
1F
100
AcDbEntity
  8
layer 1
 62
     7
370
    18
100
AcDbSpline
210
0.0
220
0.0
230
1.0
 70
    11
 71
     3
 72
    40
 73
    36
 74
     0
 42
0.0000000001
 43
0.0000000001
 12
1.0
 22
0.0
 32
0.0
 13
1.0
 23
0.0
 33
0.0
 40
0.0
 40
0.0
 40
0.0
 40
0.0
 40
0.1
 40
0.1
 40
0.1
 40
0.1
 40
0.2
 40
0.2
 40
0.2
 40
0.2
 40
0.3
 40
0.3
 40
0.3
 40
0.3
 40
0.4
 40
0.4
 40
0.4
 40
0.4
 40
0.5
 40
0.5
 40
0.5
 40
0.5
 40
0.6
 40
0.6
 40
0.6
 40
0.6
 40
0.7
 40
0.7
 40
0.7
 40
0.7
 40
0.8
 40
0.8
 40
0.8
 40
0.8
 40
1.0
 40
1.0
 40
1.0
 40
1.0
 10
-103.4347
 20
126.6252
 30
0.0
 10
-100.1151
 20
122.5692
 30
0.0
 10
-98.3094
 20
115.9434
 30
0.0
 10
-101.7298
 20
104.335
 30
0.0
 10
-101.7298
 20
104.335
 30
0.0
 10
-103.2792
 20
99.0754
 30
0.0
 10
-106.3536
 20
94.2875
 30
0.0
 10
-109.6525
 20
90.3143
 30
0.0
 10
-109.6525
 20
90.3143
 30
0.0
 10
-108.7696
 20
90.456
 30
0.0
 10
-107.6115
 20
90.9188
 30
0.0
 10
-106.9523
 20
92.4322
 30
0.0
 10
-106.9523
 20
92.4322
 30
0.0
 10
-105.9621
 20
94.7036
 30
0.0
 10
-102.5483
 20
95.3396
 30
0.0
 10
-102.5483
 20
95.3396
 30
0.0
 10
-102.5483
 20
95.3396
 30
0.0
 10
-102.5483
 20
95.3396
 30
0.0
 10
-103.436
 20
97.2171
 30
0.0
 10
-102.5146
 20
98.4287
 30
0.0
 10
-102.5146
 20
98.4287
 30
0.0
 10
-101.5925
 20
99.6406
 30
0.0
 10
-99.4761
 20
99.8826
 30
0.0
 10
-99.4761
 20
99.8826
 30
0.0
 10
-99.4761
 20
99.8826
 30
0.0
 10
-99.4761
 20
99.8826
 30
0.0
 10
-99.4761
 20
122.6426
 30
0.0
 10
-99.4761
 20
122.6426
 30
0.0
 10
-99.4761
 20
122.6426
 30
0.0
 10
-99.4767
 20
124.2135
 30
0.0
 10
-100.3613
 20
125.6731
 30
0.0
 10
-101.4531
 20
126.6252
 30
0.0
 10
-101.4531
 20
126.6252
 30
0.0
 10
-101.4704
 20
126.6402
 30
0.0
 10
-103.4173
 20
126.6103
 30
0.0
 10
-103.4347
 20
126.6252
 30
0.0
  0
SPLINE
  5
AF
330
1F
100
AcDbEntity
  8
layer 1
 62
   250
370
    18
100
AcDbSpline
210
0.0
220
0.0
230
1.0
 70
     8
 71
     3
 72
     8
 73
     4
 74
     0
 42
0.0000000001
 43
0.0000000001
 12
1.0
 22
0.0
 32
0.0
 13
1.0
 23
0.0
 33
0.0
 40
0.0
 40
0.0
 40
0.0
 40
0.0
 40
1.0
 40
1.0
 40
1.0
 40
1.0
 10
-142.169
 20
74.7361
 30
0.0
 10
-142.0193
 20
74.8405
 30
0.0
 10
-141.866
 20
74.9472
 30
0.0
 10
-141.7108
 20
75.0546
 30
0.0
  0
SPLINE
  5
B0
330
1F
100
AcDbEntity
  8
layer 1
 62
     7
370
    18
100
AcDbSpline
210
0.0
220
0.0
230
1.0
 70
    11
 71
     3
 72
    24
 73
    20
 74
     0
 42
0.0000000001
 43
0.0000000001
 12
1.0
 22
0.0
 32
0.0
 13
1.0
 23
0.0
 33
0.0
 40
0.0
 40
0.0
 40
0.0
 40
0.0
 40
0.1666666666666667
 40
0.1666666666666667
 40
0.1666666666666667
 40
0.1666666666666667
 40
0.3333333333333333
 40
0.3333333333333333
 40
0.3333333333333333
 40
0.3333333333333333
 40
0.5
 40
0.5
 40
0.5
 40
0.5
 40
0.6666666666666666
 40
0.6666666666666666
 40
0.6666666666666666
 40
0.6666666666666666
 40
1.0
 40
1.0
 40
1.0
 40
1.0
 10
-142.1921
 20
74.802
 30
0.0
 10
-137.3844
 20
78.1239
 30
0.0
 10
-129.1482
 20
83.0062
 30
0.0
 10
-124.0886
 20
87.4952
 30
0.0
 10
-124.0886
 20
87.4952
 30
0.0
 10
-117.6879
 20
93.1739
 30
0.0
 10
-116.7492
 20
95.7027
 30
0.0
 10
-116.7492
 20
95.7027
 30
0.0
 10
-116.7492
 20
95.7027
 30
0.0
 10
-120.6581
 20
92.2353
 30
0.0
 10
-124.2251
 20
90.1301
 30
0.0
 10
-129.5845
 20
87.3438
 30
0.0
 10
-129.5845
 20
87.3438
 30
0.0
 10
-134.9436
 20
84.5573
 30
0.0
 10
-139.6975
 20
82.1415
 30
0.0
 10
-141.4639
 20
78.9616
 30
0.0
 10
-141.4639
 20
78.9616
 30
0.0
 10
-142.5669
 20
76.9753
 30
0.0
 10
-142.4417
 20
75.574
 30
0.0
 10
-142.1921
 20
74.802
 30
0.0
  0
SPLINE
  5
B1
330
1F
100
AcDbEntity
  8
layer 1
 62
   250
370
    18
100
AcDbSpline
210
0.0
220
0.0
230
1.0
 70
     8
 71
     3
 72
     8
 73
     4
 74
     0
 42
0.0000000001
 43
0.0000000001
 12
1.0
 22
0.0
 32
0.0
 13
1.0
 23
0.0
 33
0.0
 40
0.0
 40
0.0
 40
0.0
 40
0.0
 40
1.0
 40
1.0
 40
1.0
 40
1.0
 10
-142.1922
 20
74.802
 30
0.0
 10
-142.185
 20
74.7781
 30
0.0
 10
-142.1761
 20
74.7587
 30
0.0
 10
-142.1691
 20
74.736
 30
0.0
  0
SPLINE
  5
B2
330
1F
100
AcDbEntity
  8
layer 1
 62
     7
370
    18
100
AcDbSpline
210
0.0
220
0.0
230
1.0
 70
    11
 71
     3
 72
    32
 73
    28
 74
     0
 42
0.0000000001
 43
0.0000000001
 12
1.0
 22
0.0
 32
0.0
 13
1.0
 23
0.0
 33
0.0
 40
0.0
 40
0.0
 40
0.0
 40
0.0
 40
0.125
 40
0.125
 40
0.125
 40
0.125
 40
0.25
 40
0.25
 40
0.25
 40
0.25
 40
0.375
 40
0.375
 40
0.375
 40
0.375
 40
0.5
 40
0.5
 40
0.5
 40
0.5
 40
0.625
 40
0.625
 40
0.625
 40
0.625
 40
0.75
 40
0.75
 40
0.75
 40
0.75
 40
1.0
 40
1.0
 40
1.0
 40
1.0
 10
-114.5236
 20
106.3317
 30
0.0
 10
-114.6749
 20
107.1899
 30
0.0
 10
-115.0869
 20
108.2639
 30
0.0
 10
-116.169
 20
108.9679
 30
0.0
 10
-116.169
 20
108.9679
 30
0.0
 10
-118.2172
 20
110.3007
 30
0.0
 10
-120.2995
 20
110.0586
 30
0.0
 10
-120.2995
 20
110.0586
 30
0.0
 10
-120.2995
 20
110.0586
 30
0.0
 10
-120.2995
 20
110.0586
 30
0.0
 10
-119.856
 20
110.8458
 30
0.0
 10
-119.856
 20
112.7844
 30
0.0
 10
-119.856
 20
112.7844
 30
0.0
 10
-119.856
 20
114.7224
 30
0.0
 10
-118.5586
 20
116.1458
 30
0.0
 10
-116.5791
 20
117.4179
 30
0.0
 10
-116.5791
 20
117.4179
 30
0.0
 10
-114.7797
 20
118.5738
 30
0.0
 10
-112.9113
 20
122.7177
 30
0.0
 10
-114.6732
 20
125.3171
 30
0.0
 10
-114.6732
 20
125.3171
 30
0.0
 10
-112.0768
 20
124.0696
 30
0.0
 10
-109.4205
 20
121.9699
 30
0.0
 10
-108.8983
 20
118.5085
 30
0.0
 10
-108.8983
 20
118.5085
 30
0.0
 10
-108.2929
 20
114.4962
 30
0.0
 10
-110.8646
 20
110.038
 30
0.0
 10
-114.5236
 20
106.3317
 30
0.0
  0
SPLINE
  5
B3
330
1F
100
AcDbEntity
  8
layer 1
 62
   250
370
    18
100
AcDbSpline
210
0.0
220
0.0
230
1.0
 70
     8
 71
     3
 72
     8
 73
     4
 74
     0
 42
0.0000000001
 43
0.0000000001
 12
1.0
 22
0.0
 32
0.0
 13
1.0
 23
0.0
 33
0.0
 40
0.0
 40
0.0
 40
0.0
 40
0.0
 40
1.0
 40
1.0
 40
1.0
 40
1.0
 10
-118.3014
 20
126.6251
 30
0.0
 10
-118.2133
 20
126.6024
 30
0.0
 10
-118.1239
 20
126.5791
 30
0.0
 10
-118.0314
 20
126.554
 30
0.0
  0
SPLINE
  5
B4
330
1F
100
AcDbEntity
  8
layer 1
 62
     7
370
    18
100
AcDbSpline
210
0.0
220
0.0
230
1.0
 70
    11
 71
     3
 72
    44
 73
    40
 74
     0
 42
0.0000000001
 43
0.0000000001
 12
1.0
 22
0.0
 32
0.0
 13
1.0
 23
0.0
 33
0.0
 40
0.0
 40
0.0
 40
0.0
 40
0.0
 40
0.0909090909090909
 40
0.0909090909090909
 40
0.0909090909090909
 40
0.0909090909090909
 40
0.1818181818181818
 40
0.1818181818181818
 40
0.1818181818181818
 40
0.1818181818181818
 40
0.2727272727272727
 40
0.2727272727272727
 40
0.2727272727272727
 40
0.2727272727272727
 40
0.3636363636363636
 40
0.3636363636363636
 40
0.3636363636363636
 40
0.3636363636363636
 40
0.4545454545454545
 40
0.4545454545454545
 40
0.4545454545454545
 40
0.4545454545454545
 40
0.5454545454545454
 40
0.5454545454545454
 40
0.5454545454545454
 40
0.5454545454545454
 40
0.6363636363636364
 40
0.6363636363636364
 40
0.6363636363636364
 40
0.6363636363636364
 40
0.7272727272727273
 40
0.7272727272727273
 40
0.7272727272727273
 40
0.7272727272727273
 40
0.8181818181818182
 40
0.8181818181818182
 40
0.8181818181818182
 40
0.8181818181818182
 40
1.0
 40
1.0
 40
1.0
 40
1.0
 10
-147.8135
 20
115.8611
 30
0.0
 10
-147.4642
 20
115.0561
 30
0.0
 10
-147.0809
 20
113.9661
 30
0.0
 10
-146.6194
 20
112.2689
 30
0.0
 10
-146.6194
 20
112.2689
 30
0.0
 10
-145.2196
 20
107.1202
 30
0.0
 10
-148.292
 20
105.0304
 30
0.0
 10
-148.292
 20
105.0304
 30
0.0
 10
-148.292
 20
105.0304
 30
0.0
 10
-145.288
 20
103.2132
 30
0.0
 10
-147.1986
 20
100.2149
 30
0.0
 10
-147.1986
 20
100.2149
 30
0.0
 10
-147.1986
 20
100.2149
 30
0.0
 10
-143.3415
 20
97.0349
 30
0.0
 10
-140.0985
 20
97.3075
 30
0.0
 10
-140.0985
 20
97.3075
 30
0.0
 10
-140.0985
 20
97.3075
 30
0.0
 10
-140.0985
 20
97.3075
 30
0.0
 10
-141.1569
 20
98.216
 30
0.0
 10
-141.2933
 20
99.579
 30
0.0
 10
-141.2933
 20
99.579
 30
0.0
 10
-141.4308
 20
100.9418
 30
0.0
 10
-140.5089
 20
102.1533
 30
0.0
 10
-140.5089
 20
102.1533
 30
0.0
 10
-140.5089
 20
102.1533
 30
0.0
 10
-142.6594
 20
104.0613
 30
0.0
 10
-140.7475
 20
106.5751
 30
0.0
 10
-140.7475
 20
106.5751
 30
0.0
 10
-140.7475
 20
106.5751
 30
0.0
 10
-142.9323
 20
106.7868
 30
0.0
 10
-143.5122
 20
109.0585
 30
0.0
 10
-143.5122
 20
111.33
 30
0.0
 10
-143.5122
 20
111.33
 30
0.0
 10
-143.5122
 20
113.6014
 30
0.0
 10
-143.5122
 20
115.7517
 30
0.0
 10
-145.4247
 20
116.0549
 30
0.0
 10
-145.4247
 20
116.0549
 30
0.0
 10
-146.5074
 20
116.2263
 30
0.0
 10
-147.3153
 20
116.048
 30
0.0
 10
-147.8135
 20
115.8611
 30
0.0
  0
SPLINE
  5
B5
330
1F
100
AcDbEntity
  8
layer 1
 62
     7
370
    18
100
AcDbSpline
210
0.0
220
0.0
230
1.0
 70
    11
 71
     3
 72
    52
 73
    48
 74
     0
 42
0.0000000001
 43
0.0000000001
 12
1.0
 22
0.0
 32
0.0
 13
1.0
 23
0.0
 33
0.0
 40
0.0
 40
0.0
 40
0.0
 40
0.0
 40
0.0769230769230769
 40
0.0769230769230769
 40
0.0769230769230769
 40
0.0769230769230769
 40
0.1538461538461539
 40
0.1538461538461539
 40
0.1538461538461539
 40
0.1538461538461539
 40
0.2307692307692308
 40
0.2307692307692308
 40
0.2307692307692308
 40
0.2307692307692308
 40
0.3076923076923077
 40
0.3076923076923077
 40
0.3076923076923077
 40
0.3076923076923077
 40
0.3846153846153846
 40
0.3846153846153846
 40
0.3846153846153846
 40
0.3846153846153846
 40
0.4615384615384616
 40
0.4615384615384616
 40
0.4615384615384616
 40
0.4615384615384616
 40
0.5384615384615384
 40
0.5384615384615384
 40
0.5384615384615384
 40
0.5384615384615384
 40
0.6153846153846154
 40
0.6153846153846154
 40
0.6153846153846154
 40
0.6153846153846154
 40
0.6923076923076923
 40
0.6923076923076923
 40
0.6923076923076923
 40
0.6923076923076923
 40
0.7692307692307693
 40
0.7692307692307693
 40
0.7692307692307693
 40
0.7692307692307693
 40
0.8461538461538461
 40
0.8461538461538461
 40
0.8461538461538461
 40
0.8461538461538461
 40
1.0
 40
1.0
 40
1.0
 40
1.0
 10
-150.5184
 20
69.8384
 30
0.0
 10
-151.185
 20
70.3608
 30
0.0
 10
-152.0706
 20
71.3291
 30
0.0
 10
-152.2167
 20
72.8661
 30
0.0
 10
-152.2167
 20
72.8661
 30
0.0
 10
-152.4554
 20
75.3802
 30
0.0
 10
-150.7829
 20
75.9556
 30
0.0
 10
-150.7829
 20
79.1963
 30
0.0
 10
-150.7829
 20
79.1963
 30
0.0
 10
-150.7829
 20
82.4372
 30
0.0
 10
-153.4458
 20
83.5275
 30
0.0
 10
-153.4458
 20
83.5275
 30
0.0
 10
-153.4458
 20
83.5275
 30
0.0
 10
-153.4458
 20
83.5275
 30
0.0
 10
-151.7049
 20
84.1026
 30
0.0
 10
-151.3636
 20
85.8895
 30
0.0
 10
-151.3636
 20
85.8895
 30
0.0
 10
-151.0223
 20
87.6767
 30
0.0
 10
-153.0025
 20
88.8276
 30
0.0
 10
-153.0025
 20
88.8276
 30
0.0
 10
-153.0025
 20
88.8276
 30
0.0
 10
-153.0025
 20
88.8276
 30
0.0
 10
-151.8845
 20
89.6147
 30
0.0
 10
-151.2949
 20
91.6367
 30
0.0
 10
-151.2949
 20
91.6367
 30
0.0
 10
-150.7065
 20
93.6582
 30
0.0
 10
-149.0935
 20
94.1804
 30
0.0
 10
-148.0695
 20
93.8169
 30
0.0
 10
-148.0695
 20
93.8169
 30
0.0
 10
-147.0453
 20
93.4539
 30
0.0
 10
-146.38
 20
91.659
 30
0.0
 10
-148.1207
 20
89.4103
 30
0.0
 10
-148.1207
 20
89.4103
 30
0.0
 10
-149.8615
 20
87.1618
 30
0.0
 10
-148.8122
 20
83.005
 30
0.0
 10
-143.1538
 20
83.323
 30
0.0
 10
-143.1538
 20
83.323
 30
0.0
 10
-143.1538
 20
83.323
 30
0.0
 10
-144.6644
 20
81.7331
 30
0.0
 10
-145.1504
 20
78.6208
 30
0.0
 10
-145.1504
 20
78.6208
 30
0.0
 10
-145.4511
 20
76.6985
 30
0.0
 10
-144.5983
 20
74.9429
 30
0.0
 10
-143.903
 20
73.8801
 30
0.0
 10
-143.903
 20
73.8801
 30
0.0
 10
-146.1806
 20
72.6211
 30
0.0
 10
-148.3877
 20
71.2728
 30
0.0
 10
-150.5184
 20
69.8384
 30
0.0
  0
SPLINE
  5
B6
330
1F
100
AcDbEntity
  8
layer 1
 62
     7
370
    18
100
AcDbSpline
210
0.0
220
0.0
230
1.0
 70
    11
 71
     3
 72
    36
 73
    32
 74
     0
 42
0.0000000001
 43
0.0000000001
 12
1.0
 22
0.0
 32
0.0
 13
1.0
 23
0.0
 33
0.0
 40
0.0
 40
0.0
 40
0.0
 40
0.0
 40
0.1111111111111111
 40
0.1111111111111111
 40
0.1111111111111111
 40
0.1111111111111111
 40
0.2222222222222222
 40
0.2222222222222222
 40
0.2222222222222222
 40
0.2222222222222222
 40
0.3333333333333333
 40
0.3333333333333333
 40
0.3333333333333333
 40
0.3333333333333333
 40
0.4444444444444444
 40
0.4444444444444444
 40
0.4444444444444444
 40
0.4444444444444444
 40
0.5555555555555556
 40
0.5555555555555556
 40
0.5555555555555556
 40
0.5555555555555556
 40
0.6666666666666666
 40
0.6666666666666666
 40
0.6666666666666666
 40
0.6666666666666666
 40
0.7777777777777778
 40
0.7777777777777778
 40
0.7777777777777778
 40
0.7777777777777778
 40
1.0
 40
1.0
 40
1.0
 40
1.0
 10
-118.0315
 20
126.5538
 30
0.0
 10
-117.9392
 20
125.9894
 30
0.0
 10
-117.8978
 20
124.8775
 30
0.0
 10
-118.696
 20
123.8691
 30
0.0
 10
-118.696
 20
123.8691
 30
0.0
 10
-119.8221
 20
122.4452
 30
0.0
 10
-122.0061
 20
121.9007
 30
0.0
 10
-126.0008
 20
122.4153
 30
0.0
 10
-126.0008
 20
122.4153
 30
0.0
 10
-129.9946
 20
122.9299
 30
0.0
 10
-133.8861
 20
122.6273
 30
0.0
 10
-136.9583
 20
119.4164
 30
0.0
 10
-136.9583
 20
119.4164
 30
0.0
 10
-136.9583
 20
119.4164
 30
0.0
 10
-138.3579
 20
121.5973
 30
0.0
 10
-142.8644
 20
121.5973
 30
0.0
 10
-142.8644
 20
121.5973
 30
0.0
 10
-146.0319
 20
121.5973
 30
0.0
 10
-148.1189
 20
119.4726
 30
0.0
 10
-149.0796
 20
118.2101
 30
0.0
 10
-149.0796
 20
118.2101
 30
0.0
 10
-149.3329
 20
118.6584
 30
0.0
 10
-149.5987
 20
119.1762
 30
0.0
 10
-149.8964
 20
119.901
 30
0.0
 10
-149.8964
 20
119.901
 30
0.0
 10
-151.0059
 20
122.6012
 30
0.0
 10
-149.6678
 20
125.175
 30
0.0
 10
-148.0142
 20
126.5781
 30
0.0
 10
-148.0142
 20
126.5781
 30
0.0
 10
-148.0142
 20
126.5781
 30
0.0
 10
-118.0315
 20
126.5538
 30
0.0
 10
-118.0315
 20
126.5538
 30
0.0
  0
SPLINE
  5
B7
330
1F
100
AcDbEntity
  8
layer 1
 62
     7
370
    18
100
AcDbSpline
210
0.0
220
0.0
230
1.0
 70
    11
 71
     3
 72
    28
 73
    24
 74
     0
 42
0.0000000001
 43
0.0000000001
 12
1.0
 22
0.0
 32
0.0
 13
1.0
 23
0.0
 33
0.0
 40
0.0
 40
0.0
 40
0.0
 40
0.0
 40
0.1428571428571428
 40
0.1428571428571428
 40
0.1428571428571428
 40
0.1428571428571428
 40
0.2857142857142857
 40
0.2857142857142857
 40
0.2857142857142857
 40
0.2857142857142857
 40
0.4285714285714285
 40
0.4285714285714285
 40
0.4285714285714285
 40
0.4285714285714285
 40
0.5714285714285714
 40
0.5714285714285714
 40
0.5714285714285714
 40
0.5714285714285714
 40
0.7142857142857143
 40
0.7142857142857143
 40
0.7142857142857143
 40
0.7142857142857143
 40
1.0
 40
1.0
 40
1.0
 40
1.0
 10
-144.4398
 20
94.9001
 30
0.0
 10
-143.4303
 20
93.3457
 30
0.0
 10
-143.751
 20
91.4644
 30
0.0
 10
-143.9905
 20
89.4936
 30
0.0
 10
-143.9905
 20
89.4936
 30
0.0
 10
-144.3319
 20
86.6773
 30
0.0
 10
-138.8702
 20
85.6173
 30
0.0
 10
-127.1268
 20
91.9169
 30
0.0
 10
-127.1268
 20
91.9169
 30
0.0
 10
-115.3838
 20
98.216
 30
0.0
 10
-114.5648
 20
102.3047
 30
0.0
 10
-114.5648
 20
102.3047
 30
0.0
 10
-114.5648
 20
102.3047
 30
0.0
 10
-119.0708
 20
98.3072
 30
0.0
 10
-123.9179
 20
95.9453
 30
0.0
 10
-128.2528
 20
94.794
 30
0.0
 10
-128.2528
 20
94.794
 30
0.0
 10
-132.5887
 20
93.6431
 30
0.0
 10
-136.822
 20
92.886
 30
0.0
 10
-141.7376
 20
94.0366
 30
0.0
 10
-141.7376
 20
94.0366
 30
0.0
 10
-142.7162
 20
94.2659
 30
0.0
 10
-143.6191
 20
94.5663
 30
0.0
 10
-144.4398
 20
94.9001
 30
0.0
  0
SPLINE
  5
B8
330
1F
100
AcDbEntity
  8
layer 1
 62
     7
370
    18
100
AcDbSpline
210
0.0
220
0.0
230
1.0
 70
    11
 71
     3
 72
    24
 73
    20
 74
     0
 42
0.0000000001
 43
0.0000000001
 12
1.0
 22
0.0
 32
0.0
 13
1.0
 23
0.0
 33
0.0
 40
0.0
 40
0.0
 40
0.0
 40
0.0
 40
0.1666666666666667
 40
0.1666666666666667
 40
0.1666666666666667
 40
0.1666666666666667
 40
0.3333333333333333
 40
0.3333333333333333
 40
0.3333333333333333
 40
0.3333333333333333
 40
0.5
 40
0.5
 40
0.5
 40
0.5
 40
0.6666666666666666
 40
0.6666666666666666
 40
0.6666666666666666
 40
0.6666666666666666
 40
1.0
 40
1.0
 40
1.0
 40
1.0
 10
-152.6953
 20
126.6252
 30
0.0
 10
-154.3721
 20
125.6869
 30
0.0
 10
-157.0034
 20
123.581
 30
0.0
 10
-157.3715
 20
119.4769
 30
0.0
 10
-157.3715
 20
119.4769
 30
0.0
 10
-157.3715
 20
119.4769
 30
0.0
 10
-159.3517
 20
120.4159
 30
0.0
 10
-162.0147
 20
120.4156
 30
0.0
 10
-162.0147
 20
120.4156
 30
0.0
 10
-164.6778
 20
120.4156
 30
0.0
 10
-165.4284
 20
121.3545
 30
0.0
 10
-167.0672
 20
123.5956
 30
0.0
 10
-167.0672
 20
123.5956
 30
0.0
 10
-168.1432
 20
125.0672
 30
0.0
 10
-168.9549
 20
126.0013
 30
0.0
 10
-169.8096
 20
126.6252
 30
0.0
 10
-169.8096
 20
126.6252
 30
0.0
 10
-169.8096
 20
126.6252
 30
0.0
 10
-152.6953
 20
126.6252
 30
0.0
 10
-152.6953
 20
126.6252
 30
0.0
  0
SPLINE
  5
B9
330
1F
100
AcDbEntity
  8
layer 1
 62
     7
370
    18
100
AcDbSpline
210
0.0
220
0.0
230
1.0
 70
    11
 71
     3
 72
    28
 73
    24
 74
     0
 42
0.0000000001
 43
0.0000000001
 12
1.0
 22
0.0
 32
0.0
 13
1.0
 23
0.0
 33
0.0
 40
0.0
 40
0.0
 40
0.0
 40
0.0
 40
0.1428571428571428
 40
0.1428571428571428
 40
0.1428571428571428
 40
0.1428571428571428
 40
0.2857142857142857
 40
0.2857142857142857
 40
0.2857142857142857
 40
0.2857142857142857
 40
0.4285714285714285
 40
0.4285714285714285
 40
0.4285714285714285
 40
0.4285714285714285
 40
0.5714285714285714
 40
0.5714285714285714
 40
0.5714285714285714
 40
0.5714285714285714
 40
0.7142857142857143
 40
0.7142857142857143
 40
0.7142857142857143
 40
0.7142857142857143
 40
1.0
 40
1.0
 40
1.0
 40
1.0
 10
-116.6918
 20
104.3301
 30
0.0
 10
-117.269
 20
104.9271
 30
0.0
 10
-118.4755
 20
105.7385
 30
0.0
 10
-120.5049
 20
105.2124
 30
0.0
 10
-120.5049
 20
105.2124
 30
0.0
 10
-123.543
 20
104.425
 30
0.0
 10
-123.8499
 20
102.6684
 30
0.0
 10
-127.7076
 20
101.0935
 30
0.0
 10
-127.7076
 20
101.0935
 30
0.0
 10
-131.5645
 20
99.5186
 30
0.0
 10
-133.374
 20
101.6991
 30
0.0
 10
-133.374
 20
101.6991
 30
0.0
 10
-133.374
 20
101.6991
 30
0.0
 10
-134.193
 20
98.883
 30
0.0
 10
-137.5724
 20
100.2906
 30
0.0
 10
-137.5724
 20
100.2906
 30
0.0
 10
-137.5724
 20
100.2906
 30
0.0
 10
-138.2377
 20
96.4746
 30
0.0
 10
-131.3251
 20
96.3842
 30
0.0
 10
-124.0544
 20
99.6098
 30
0.0
 10
-124.0544
 20
99.6098
 30
0.0
 10
-121.643
 20
100.6795
 30
0.0
 10
-119.0465
 20
102.3361
 30
0.0
 10
-116.6918
 20
104.3301
 30
0.0
  0
SPLINE
  5
BA
330
1F
100
AcDbEntity
  8
layer 1
 62
     7
370
    18
100
AcDbSpline
210
0.0
220
0.0
230
1.0
 70
    11
 71
     3
 72
    28
 73
    24
 74
     0
 42
0.0000000001
 43
0.0000000001
 12
1.0
 22
0.0
 32
0.0
 13
1.0
 23
0.0
 33
0.0
 40
0.0
 40
0.0
 40
0.0
 40
0.0
 40
0.1428571428571428
 40
0.1428571428571428
 40
0.1428571428571428
 40
0.1428571428571428
 40
0.2857142857142857
 40
0.2857142857142857
 40
0.2857142857142857
 40
0.2857142857142857
 40
0.4285714285714285
 40
0.4285714285714285
 40
0.4285714285714285
 40
0.4285714285714285
 40
0.5714285714285714
 40
0.5714285714285714
 40
0.5714285714285714
 40
0.5714285714285714
 40
0.7142857142857143
 40
0.7142857142857143
 40
0.7142857142857143
 40
0.7142857142857143
 40
1.0
 40
1.0
 40
1.0
 40
1.0
 10
-163.1749
 20
80.7406
 30
0.0
 10
-164.3696
 20
79.1203
 30
0.0
 10
-164.2157
 20
76.9852
 30
0.0
 10
-164.0789
 20
75.5163
 30
0.0
 10
-164.0789
 20
75.5163
 30
0.0
 10
-163.9422
 20
74.0471
 30
0.0
 10
-164.369
 20
72.3362
 30
0.0
 10
-164.7957
 20
71.6548
 30
0.0
 10
-164.7957
 20
71.6548
 30
0.0
 10
-164.7957
 20
71.6548
 30
0.0
 10
-163.3623
 20
71.9728
 30
0.0
 10
-162.4915
 20
74.0171
 30
0.0
 10
-162.4915
 20
74.0171
 30
0.0
 10
-161.6212
 20
76.0615
 30
0.0
 10
-160.4439
 20
77.1511
 30
0.0
 10
-159.2491
 20
77.8635
 30
0.0
 10
-159.2491
 20
77.8635
 30
0.0
 10
-158.0543
 20
78.5758
 30
0.0
 10
-157.3211
 20
80.1804
 30
0.0
 10
-158.3789
 20
81.5889
 30
0.0
 10
-158.3789
 20
81.5889
 30
0.0
 10
-159.4374
 20
82.9969
 30
0.0
 10
-161.9801
 20
82.3609
 30
0.0
 10
-163.1749
 20
80.7406
 30
0.0
  0
SPLINE
  5
BB
330
1F
100
AcDbEntity
  8
layer 1
 62
     7
370
    18
100
AcDbSpline
210
0.0
220
0.0
230
1.0
 70
    11
 71
     3
 72
    24
 73
    20
 74
     0
 42
0.0000000001
 43
0.0000000001
 12
1.0
 22
0.0
 32
0.0
 13
1.0
 23
0.0
 33
0.0
 40
0.0
 40
0.0
 40
0.0
 40
0.0
 40
0.1666666666666667
 40
0.1666666666666667
 40
0.1666666666666667
 40
0.1666666666666667
 40
0.3333333333333333
 40
0.3333333333333333
 40
0.3333333333333333
 40
0.3333333333333333
 40
0.5
 40
0.5
 40
0.5
 40
0.5
 40
0.6666666666666666
 40
0.6666666666666666
 40
0.6666666666666666
 40
0.6666666666666666
 40
1.0
 40
1.0
 40
1.0
 40
1.0
 10
-163.8662
 20
115.1456
 30
0.0
 10
-163.8662
 20
115.1456
 30
0.0
 10
-161.5116
 20
114.0783
 30
0.0
 10
-160.6407
 20
110.9888
 30
0.0
 10
-160.6407
 20
110.9888
 30
0.0
 10
-159.7699
 20
107.9
 30
0.0
 10
-158.7971
 20
105.2654
 30
0.0
 10
-155.3921
 20
105.5834
 30
0.0
 10
-155.3921
 20
105.5834
 30
0.0
 10
-151.9871
 20
105.9014
 30
0.0
 10
-152.8832
 20
109.4449
 30
0.0
 10
-155.0846
 20
110.0579
 30
0.0
 10
-155.0846
 20
110.0579
 30
0.0
 10
-157.2872
 20
110.6714
 30
0.0
 10
-157.7729
 20
111.2393
 30
0.0
 10
-159.1558
 20
112.9199
 30
0.0
 10
-159.1558
 20
112.9199
 30
0.0
 10
-160.5379
 20
114.6005
 30
0.0
 10
-163.8662
 20
115.1456
 30
0.0
 10
-163.8662
 20
115.1456
 30
0.0
  0
SPLINE
  5
BC
330
1F
100
AcDbEntity
  8
layer 1
 62
     7
370
    18
100
AcDbSpline
210
0.0
220
0.0
230
1.0
 70
    11
 71
     3
 72
    48
 73
    44
 74
     0
 42
0.0000000001
 43
0.0000000001
 12
1.0
 22
0.0
 32
0.0
 13
1.0
 23
0.0
 33
0.0
 40
0.0
 40
0.0
 40
0.0
 40
0.0
 40
0.0833333333333333
 40
0.0833333333333333
 40
0.0833333333333333
 40
0.0833333333333333
 40
0.1666666666666667
 40
0.1666666666666667
 40
0.1666666666666667
 40
0.1666666666666667
 40
0.25
 40
0.25
 40
0.25
 40
0.25
 40
0.3333333333333333
 40
0.3333333333333333
 40
0.3333333333333333
 40
0.3333333333333333
 40
0.4166666666666667
 40
0.4166666666666667
 40
0.4166666666666667
 40
0.4166666666666667
 40
0.5
 40
0.5
 40
0.5
 40
0.5
 40
0.5833333333333334
 40
0.5833333333333334
 40
0.5833333333333334
 40
0.5833333333333334
 40
0.6666666666666666
 40
0.6666666666666666
 40
0.6666666666666666
 40
0.6666666666666666
 40
0.75
 40
0.75
 40
0.75
 40
0.75
 40
0.8333333333333334
 40
0.8333333333333334
 40
0.8333333333333334
 40
0.8333333333333334
 40
1.0
 40
1.0
 40
1.0
 40
1.0
 10
-46.69
 20
97.3649
 30
0.0
 10
-46.0973
 20
97.8174
 30
0.0
 10
-45.7791
 20
98.1239
 30
0.0
 10
-45.7791
 20
98.1239
 30
0.0
 10
-45.7791
 20
98.1239
 30
0.0
 10
-42.0589
 20
97.6999
 30
0.0
 10
-41.0342
 20
100.0013
 30
0.0
 10
-41.0342
 20
100.0013
 30
0.0
 10
-41.0342
 20
100.0013
 30
0.0
 10
-39.498
 20
98.9413
 30
0.0
 10
-36.289
 20
98.3359
 30
0.0
 10
-32.5003
 20
99.8801
 30
0.0
 10
-32.5003
 20
99.8801
 30
0.0
 10
-28.7102
 20
101.4245
 30
0.0
 10
-27.7542
 20
103.3326
 30
0.0
 10
-24.8874
 20
103.4839
 30
0.0
 10
-24.8874
 20
103.4839
 30
0.0
 10
-22.7159
 20
103.5985
 30
0.0
 10
-21.1143
 20
103.0539
 30
0.0
 10
-20.4636
 20
102.7829
 30
0.0
 10
-20.4636
 20
102.7829
 30
0.0
 10
-20.4636
 20
102.7829
 30
0.0
 10
-20.4636
 20
84.5851
 30
0.0
 10
-20.4636
 20
84.5851
 30
0.0
 10
-20.4636
 20
84.5851
 30
0.0
 10
-22.9412
 20
82.7536
 30
0.0
 10
-24.6113
 20
84.128
 30
0.0
 10
-27.5842
 20
86.7659
 30
0.0
 10
-27.5842
 20
86.7659
 30
0.0
 10
-30.7766
 20
89.5977
 30
0.0
 10
-34.8556
 20
88.462
 30
0.0
 10
-34.8556
 20
88.462
 30
0.0
 10
-34.8556
 20
88.462
 30
0.0
 10
-34.8556
 20
88.462
 30
0.0
 10
-34.3435
 20
89.7949
 30
0.0
 10
-36.0504
 20
90.9458
 30
0.0
 10
-36.0504
 20
90.9458
 30
0.0
 10
-37.7565
 20
92.0964
 30
0.0
 10
-40.0787
 20
90.8851
 30
0.0
 10
-40.0787
 20
90.8851
 30
0.0
 10
-40.0787
 20
90.8851
 30
0.0
 10
-40.7582
 20
95.807
 30
0.0
 10
-43.7556
 20
97.6896
 30
0.0
 10
-46.69
 20
97.3649
 30
0.0
  0
SPLINE
  5
BD
330
1F
100
AcDbEntity
  8
layer 1
 62
     7
370
    18
100
AcDbSpline
210
0.0
220
0.0
230
1.0
 70
    11
 71
     3
 72
    28
 73
    24
 74
     0
 42
0.0000000001
 43
0.0000000001
 12
1.0
 22
0.0
 32
0.0
 13
1.0
 23
0.0
 33
0.0
 40
0.0
 40
0.0
 40
0.0
 40
0.0
 40
0.1428571428571428
 40
0.1428571428571428
 40
0.1428571428571428
 40
0.1428571428571428
 40
0.2857142857142857
 40
0.2857142857142857
 40
0.2857142857142857
 40
0.2857142857142857
 40
0.4285714285714285
 40
0.4285714285714285
 40
0.4285714285714285
 40
0.4285714285714285
 40
0.5714285714285714
 40
0.5714285714285714
 40
0.5714285714285714
 40
0.5714285714285714
 40
0.7142857142857143
 40
0.7142857142857143
 40
0.7142857142857143
 40
0.7142857142857143
 40
1.0
 40
1.0
 40
1.0
 40
1.0
 10
-42.2595
 20
67.954
 30
0.0
 10
-33.3456
 20
61.452
 30
0.0
 10
-25.9119
 20
53.4141
 30
0.0
 10
-20.4635
 20
44.2984
 30
0.0
 10
-20.4635
 20
44.2984
 30
0.0
 10
-20.4635
 20
44.2984
 30
0.0
 10
-20.4635
 20
58.3308
 30
0.0
 10
-20.4635
 20
58.3308
 30
0.0
 10
-20.4635
 20
58.3308
 30
0.0
 10
-21.385
 20
58.2366
 30
0.0
 10
-23.6733
 20
58.1808
 30
0.0
 10
-25.7412
 20
59.5689
 30
0.0
 10
-25.7412
 20
59.5689
 30
0.0
 10
-28.4043
 20
61.356
 30
0.0
 10
-28.1308
 20
63.5973
 30
0.0
 10
-30.7939
 20
65.0813
 30
0.0
 10
-30.7939
 20
65.0813
 30
0.0
 10
-33.4561
 20
66.565
 30
0.0
 10
-36.7677
 20
66.4444
 30
0.0
 10
-38.5426
 20
70.2605
 30
0.0
 10
-38.5426
 20
70.2605
 30
0.0
 10
-38.5426
 20
70.2605
 30
0.0
 10
-39.6247
 20
68.3754
 30
0.0
 10
-42.2595
 20
67.954
 30
0.0
  0
SPLINE
  5
BE
330
1F
100
AcDbEntity
  8
layer 1
 62
     7
370
    18
100
AcDbSpline
210
0.0
220
0.0
230
1.0
 70
    11
 71
     3
 72
    24
 73
    20
 74
     0
 42
0.0000000001
 43
0.0000000001
 12
1.0
 22
0.0
 32
0.0
 13
1.0
 23
0.0
 33
0.0
 40
0.0
 40
0.0
 40
0.0
 40
0.0
 40
0.1666666666666667
 40
0.1666666666666667
 40
0.1666666666666667
 40
0.1666666666666667
 40
0.3333333333333333
 40
0.3333333333333333
 40
0.3333333333333333
 40
0.3333333333333333
 40
0.5
 40
0.5
 40
0.5
 40
0.5
 40
0.6666666666666666
 40
0.6666666666666666
 40
0.6666666666666666
 40
0.6666666666666666
 40
1.0
 40
1.0
 40
1.0
 40
1.0
 10
-20.4636
 20
60.9756
 30
0.0
 10
-20.4636
 20
60.9756
 30
0.0
 10
-20.4636
 20
79.883
 30
0.0
 10
-20.4636
 20
79.883
 30
0.0
 10
-20.4636
 20
79.883
 30
0.0
 10
-20.9261
 20
79.3301
 30
0.0
 10
-21.8583
 20
78.4526
 30
0.0
 10
-23.5574
 20
77.6803
 30
0.0
 10
-23.5574
 20
77.6803
 30
0.0
 10
-23.5574
 20
77.6803
 30
0.0
 10
-21.9872
 20
74.1063
 30
0.0
 10
-22.362
 20
70.6535
 30
0.0
 10
-22.362
 20
70.6535
 30
0.0
 10
-22.737
 20
67.2013
 30
0.0
 10
-24.376
 20
67.0189
 30
0.0
 10
-23.8296
 20
63.9603
 30
0.0
 10
-23.8296
 20
63.9603
 30
0.0
 10
-23.4413
 20
61.7846
 30
0.0
 10
-21.5331
 20
61.157
 30
0.0
 10
-20.4636
 20
60.9756
 30
0.0
  0
SPLINE
  5
BF
330
1F
100
AcDbEntity
  8
layer 1
 62
   250
370
    18
100
AcDbSpline
210
0.0
220
0.0
230
1.0
 70
    24
 71
     3
 72
     8
 73
     4
 74
     0
 42
0.0000000001
 43
0.0000000001
 12
1.0
 22
0.0
 32
0.0
 13
1.0
 23
0.0
 33
0.0
 40
0.0
 40
0.0
 40
0.0
 40
0.0
 40
1.0
 40
1.0
 40
1.0
 40
1.0
 10
-94.0171
 20
126.6237
 30
0.0
 10
-94.0171
 20
126.6237
 30
0.0
 10
-92.0354
 20
126.6237
 30
0.0
 10
-92.0354
 20
126.6237
 30
0.0
  0
SPLINE
  5
C0
330
1F
100
AcDbEntity
  8
layer 1
 62
     7
370
    18
100
AcDbSpline
210
0.0
220
0.0
230
1.0
 70
    11
 71
     3
 72
    36
 73
    32
 74
     0
 42
0.0000000001
 43
0.0000000001
 12
1.0
 22
0.0
 32
0.0
 13
1.0
 23
0.0
 33
0.0
 40
0.0
 40
0.0
 40
0.0
 40
0.0
 40
0.1111111111111111
 40
0.1111111111111111
 40
0.1111111111111111
 40
0.1111111111111111
 40
0.2222222222222222
 40
0.2222222222222222
 40
0.2222222222222222
 40
0.2222222222222222
 40
0.3333333333333333
 40
0.3333333333333333
 40
0.3333333333333333
 40
0.3333333333333333
 40
0.4444444444444444
 40
0.4444444444444444
 40
0.4444444444444444
 40
0.4444444444444444
 40
0.5555555555555556
 40
0.5555555555555556
 40
0.5555555555555556
 40
0.5555555555555556
 40
0.6666666666666666
 40
0.6666666666666666
 40
0.6666666666666666
 40
0.6666666666666666
 40
0.7777777777777778
 40
0.7777777777777778
 40
0.7777777777777778
 40
0.7777777777777778
 40
1.0
 40
1.0
 40
1.0
 40
1.0
 10
-64.0663
 20
109.5105
 30
0.0
 10
-64.0591
 20
110.9643
 30
0.0
 10
-64.0863
 20
110.6462
 30
0.0
 10
-65.0309
 20
111.0136
 30
0.0
 10
-65.0309
 20
111.0136
 30
0.0
 10
-65.9773
 20
111.3803
 30
0.0
 10
-67.9695
 20
112.2744
 30
0.0
 10
-68.8067
 20
113.7318
 30
0.0
 10
-68.8067
 20
113.7318
 30
0.0
 10
-69.6443
 20
115.1885
 30
0.0
 10
-69.7941
 20
115.9842
 30
0.0
 10
-69.7941
 20
115.9842
 30
0.0
 10
-69.7941
 20
115.9842
 30
0.0
 10
-69.7941
 20
115.9842
 30
0.0
 10
-69.3315
 20
116.2552
 30
0.0
 10
-68.3396
 20
115.0468
 30
0.0
 10
-68.3396
 20
115.0468
 30
0.0
 10
-67.3473
 20
113.8393
 30
0.0
 10
-66.7091
 20
113.4049
 30
0.0
 10
-65.1981
 20
113.3993
 30
0.0
 10
-65.1981
 20
113.3993
 30
0.0
 10
-63.6884
 20
113.3928
 30
0.0
 10
-61.0772
 20
113.2236
 30
0.0
 10
-59.9592
 20
111.5836
 30
0.0
 10
-59.9592
 20
111.5836
 30
0.0
 10
-58.5178
 20
109.469
 30
0.0
 10
-58.827
 20
107.5813
 30
0.0
 10
-60.4946
 20
107.0427
 30
0.0
 10
-60.4946
 20
107.0427
 30
0.0
 10
-62.1614
 20
106.504
 30
0.0
 10
-64.0735
 20
108.0567
 30
0.0
 10
-64.0663
 20
109.5105
 30
0.0
  0
SPLINE
  5
C1
330
1F
100
AcDbEntity
  8
layer 1
 62
     7
370
    18
100
AcDbSpline
210
0.0
220
0.0
230
1.0
 70
    11
 71
     3
 72
    20
 73
    16
 74
     0
 42
0.0000000001
 43
0.0000000001
 12
1.0
 22
0.0
 32
0.0
 13
1.0
 23
0.0
 33
0.0
 40
0.0
 40
0.0
 40
0.0
 40
0.0
 40
0.2
 40
0.2
 40
0.2
 40
0.2
 40
0.4
 40
0.4
 40
0.4
 40
0.4
 40
0.6
 40
0.6
 40
0.6
 40
0.6
 40
1.0
 40
1.0
 40
1.0
 40
1.0
 10
-79.7005
 20
83.9146
 30
0.0
 10
-81.1192
 20
85.2184
 30
0.0
 10
-82.6618
 20
86.7401
 30
0.0
 10
-84.2029
 20
88.4483
 30
0.0
 10
-84.2029
 20
88.4483
 30
0.0
 10
-85.2164
 20
87.5033
 30
0.0
 10
-88.362
 20
85.3031
 30
0.0
 10
-93.6044
 20
88.0693
 30
0.0
 10
-93.6044
 20
88.0693
 30
0.0
 10
-93.6044
 20
88.0693
 30
0.0
 10
-94.1147
 20
86.3669
 30
0.0
 10
-95.8508
 20
85.5493
 30
0.0
 10
-95.8508
 20
85.5493
 30
0.0
 10
-90.3254
 20
85.4458
 30
0.0
 10
-84.9276
 20
84.8872
 30
0.0
 10
-79.7005
 20
83.9146
 30
0.0
  0
SPLINE
  5
C2
330
1F
100
AcDbEntity
  8
layer 1
 62
     7
370
    18
100
AcDbSpline
210
0.0
220
0.0
230
1.0
 70
    11
 71
     3
 72
    40
 73
    36
 74
     0
 42
0.0000000001
 43
0.0000000001
 12
1.0
 22
0.0
 32
0.0
 13
1.0
 23
0.0
 33
0.0
 40
0.0
 40
0.0
 40
0.0
 40
0.0
 40
0.1
 40
0.1
 40
0.1
 40
0.1
 40
0.2
 40
0.2
 40
0.2
 40
0.2
 40
0.3
 40
0.3
 40
0.3
 40
0.3
 40
0.4
 40
0.4
 40
0.4
 40
0.4
 40
0.5
 40
0.5
 40
0.5
 40
0.5
 40
0.6
 40
0.6
 40
0.6
 40
0.6
 40
0.7
 40
0.7
 40
0.7
 40
0.7
 40
0.8
 40
0.8
 40
0.8
 40
0.8
 40
1.0
 40
1.0
 40
1.0
 40
1.0
 10
-92.0354
 20
126.6237
 30
0.0
 10
-95.3551
 20
122.5678
 30
0.0
 10
-97.1608
 20
115.9419
 30
0.0
 10
-93.7403
 20
104.3335
 30
0.0
 10
-93.7403
 20
104.3335
 30
0.0
 10
-92.1909
 20
99.0739
 30
0.0
 10
-89.1166
 20
94.286
 30
0.0
 10
-85.8177
 20
90.3128
 30
0.0
 10
-85.8177
 20
90.3128
 30
0.0
 10
-86.7005
 20
90.4545
 30
0.0
 10
-87.8587
 20
90.9173
 30
0.0
 10
-88.5179
 20
92.4307
 30
0.0
 10
-88.5179
 20
92.4307
 30
0.0
 10
-89.5081
 20
94.7021
 30
0.0
 10
-92.9218
 20
95.3381
 30
0.0
 10
-92.9218
 20
95.3381
 30
0.0
 10
-92.9218
 20
95.3381
 30
0.0
 10
-92.9218
 20
95.3381
 30
0.0
 10
-92.0342
 20
97.2156
 30
0.0
 10
-92.9556
 20
98.4273
 30
0.0
 10
-92.9556
 20
98.4273
 30
0.0
 10
-93.8777
 20
99.6391
 30
0.0
 10
-95.9941
 20
99.8811
 30
0.0
 10
-95.9941
 20
99.8811
 30
0.0
 10
-95.9941
 20
99.8811
 30
0.0
 10
-95.9941
 20
99.8811
 30
0.0
 10
-95.9941
 20
122.6411
 30
0.0
 10
-95.9941
 20
122.6411
 30
0.0
 10
-95.9941
 20
122.6411
 30
0.0
 10
-95.9935
 20
124.212
 30
0.0
 10
-95.1088
 20
125.6716
 30
0.0
 10
-94.0171
 20
126.6237
 30
0.0
 10
-94.0171
 20
126.6237
 30
0.0
 10
-93.9998
 20
126.6387
 30
0.0
 10
-92.0529
 20
126.6088
 30
0.0
 10
-92.0354
 20
126.6237
 30
0.0
  0
SPLINE
  5
C3
330
1F
100
AcDbEntity
  8
layer 1
 62
     7
370
    18
100
AcDbSpline
210
0.0
220
0.0
230
1.0
 70
    11
 71
     3
 72
    32
 73
    28
 74
     0
 42
0.0000000001
 43
0.0000000001
 12
1.0
 22
0.0
 32
0.0
 13
1.0
 23
0.0
 33
0.0
 40
0.0
 40
0.0
 40
0.0
 40
0.0
 40
0.125
 40
0.125
 40
0.125
 40
0.125
 40
0.25
 40
0.25
 40
0.25
 40
0.25
 40
0.375
 40
0.375
 40
0.375
 40
0.375
 40
0.5
 40
0.5
 40
0.5
 40
0.5
 40
0.625
 40
0.625
 40
0.625
 40
0.625
 40
0.75
 40
0.75
 40
0.75
 40
0.75
 40
1.0
 40
1.0
 40
1.0
 40
1.0
 10
-80.9466
 20
106.3302
 30
0.0
 10
-80.7953
 20
107.1884
 30
0.0
 10
-80.3833
 20
108.2624
 30
0.0
 10
-79.3012
 20
108.9664
 30
0.0
 10
-79.3012
 20
108.9664
 30
0.0
 10
-77.2529
 20
110.2992
 30
0.0
 10
-75.1707
 20
110.0571
 30
0.0
 10
-75.1707
 20
110.0571
 30
0.0
 10
-75.1707
 20
110.0571
 30
0.0
 10
-75.1707
 20
110.0571
 30
0.0
 10
-75.6141
 20
110.8443
 30
0.0
 10
-75.6141
 20
112.7829
 30
0.0
 10
-75.6141
 20
112.7829
 30
0.0
 10
-75.6141
 20
114.7209
 30
0.0
 10
-76.9116
 20
116.1443
 30
0.0
 10
-78.8911
 20
117.4164
 30
0.0
 10
-78.8911
 20
117.4164
 30
0.0
 10
-80.6905
 20
118.5723
 30
0.0
 10
-82.5588
 20
122.7162
 30
0.0
 10
-80.7969
 20
125.3157
 30
0.0
 10
-80.7969
 20
125.3157
 30
0.0
 10
-83.3934
 20
124.0681
 30
0.0
 10
-86.0497
 20
121.9684
 30
0.0
 10
-86.5719
 20
118.507
 30
0.0
 10
-86.5719
 20
118.507
 30
0.0
 10
-87.1772
 20
114.4947
 30
0.0
 10
-84.6056
 20
110.0365
 30
0.0
 10
-80.9466
 20
106.3302
 30
0.0
  0
SPLINE
  5
C4
330
1F
100
AcDbEntity
  8
layer 1
 62
   250
370
    18
100
AcDbSpline
210
0.0
220
0.0
230
1.0
 70
     8
 71
     3
 72
     8
 73
     4
 74
     0
 42
0.0000000001
 43
0.0000000001
 12
1.0
 22
0.0
 32
0.0
 13
1.0
 23
0.0
 33
0.0
 40
0.0
 40
0.0
 40
0.0
 40
0.0
 40
1.0
 40
1.0
 40
1.0
 40
1.0
 10
-77.1688
 20
126.6237
 30
0.0
 10
-77.2569
 20
126.6009
 30
0.0
 10
-77.3463
 20
126.5776
 30
0.0
 10
-77.4388
 20
126.5525
 30
0.0
  0
SPLINE
  5
C5
330
1F
100
AcDbEntity
  8
layer 1
 62
     7
370
    18
100
AcDbSpline
210
0.0
220
0.0
230
1.0
 70
    11
 71
     3
 72
    44
 73
    40
 74
     0
 42
0.0000000001
 43
0.0000000001
 12
1.0
 22
0.0
 32
0.0
 13
1.0
 23
0.0
 33
0.0
 40
0.0
 40
0.0
 40
0.0
 40
0.0
 40
0.0909090909090909
 40
0.0909090909090909
 40
0.0909090909090909
 40
0.0909090909090909
 40
0.1818181818181818
 40
0.1818181818181818
 40
0.1818181818181818
 40
0.1818181818181818
 40
0.2727272727272727
 40
0.2727272727272727
 40
0.2727272727272727
 40
0.2727272727272727
 40
0.3636363636363636
 40
0.3636363636363636
 40
0.3636363636363636
 40
0.3636363636363636
 40
0.4545454545454545
 40
0.4545454545454545
 40
0.4545454545454545
 40
0.4545454545454545
 40
0.5454545454545454
 40
0.5454545454545454
 40
0.5454545454545454
 40
0.5454545454545454
 40
0.6363636363636364
 40
0.6363636363636364
 40
0.6363636363636364
 40
0.6363636363636364
 40
0.7272727272727273
 40
0.7272727272727273
 40
0.7272727272727273
 40
0.7272727272727273
 40
0.8181818181818182
 40
0.8181818181818182
 40
0.8181818181818182
 40
0.8181818181818182
 40
1.0
 40
1.0
 40
1.0
 40
1.0
 10
-47.6567
 20
115.8596
 30
0.0
 10
-48.0059
 20
115.0546
 30
0.0
 10
-48.3893
 20
113.9646
 30
0.0
 10
-48.8508
 20
112.2674
 30
0.0
 10
-48.8508
 20
112.2674
 30
0.0
 10
-50.2505
 20
107.1187
 30
0.0
 10
-47.1781
 20
105.029
 30
0.0
 10
-47.1781
 20
105.029
 30
0.0
 10
-47.1781
 20
105.029
 30
0.0
 10
-50.1822
 20
103.2117
 30
0.0
 10
-48.2715
 20
100.2134
 30
0.0
 10
-48.2715
 20
100.2134
 30
0.0
 10
-48.2715
 20
100.2134
 30
0.0
 10
-52.1287
 20
97.0334
 30
0.0
 10
-55.3717
 20
97.306
 30
0.0
 10
-55.3717
 20
97.306
 30
0.0
 10
-55.3717
 20
97.306
 30
0.0
 10
-55.3717
 20
97.306
 30
0.0
 10
-54.3133
 20
98.2146
 30
0.0
 10
-54.1768
 20
99.5775
 30
0.0
 10
-54.1768
 20
99.5775
 30
0.0
 10
-54.0393
 20
100.9403
 30
0.0
 10
-54.9612
 20
102.1518
 30
0.0
 10
-54.9612
 20
102.1518
 30
0.0
 10
-54.9612
 20
102.1518
 30
0.0
 10
-52.8107
 20
104.0598
 30
0.0
 10
-54.7227
 20
106.5736
 30
0.0
 10
-54.7227
 20
106.5736
 30
0.0
 10
-54.7227
 20
106.5736
 30
0.0
 10
-52.5379
 20
106.7853
 30
0.0
 10
-51.958
 20
109.057
 30
0.0
 10
-51.958
 20
111.3285
 30
0.0
 10
-51.958
 20
111.3285
 30
0.0
 10
-51.958
 20
113.6
 30
0.0
 10
-51.958
 20
115.7502
 30
0.0
 10
-50.0455
 20
116.0535
 30
0.0
 10
-50.0455
 20
116.0535
 30
0.0
 10
-48.9628
 20
116.2248
 30
0.0
 10
-48.1548
 20
116.0465
 30
0.0
 10
-47.6567
 20
115.8596
 30
0.0
  0
SPLINE
  5
C6
330
1F
100
AcDbEntity
  8
layer 1
 62
     7
370
    18
100
AcDbSpline
210
0.0
220
0.0
230
1.0
 70
    11
 71
     3
 72
    52
 73
    48
 74
     0
 42
0.0000000001
 43
0.0000000001
 12
1.0
 22
0.0
 32
0.0
 13
1.0
 23
0.0
 33
0.0
 40
0.0
 40
0.0
 40
0.0
 40
0.0
 40
0.0769230769230769
 40
0.0769230769230769
 40
0.0769230769230769
 40
0.0769230769230769
 40
0.1538461538461539
 40
0.1538461538461539
 40
0.1538461538461539
 40
0.1538461538461539
 40
0.2307692307692308
 40
0.2307692307692308
 40
0.2307692307692308
 40
0.2307692307692308
 40
0.3076923076923077
 40
0.3076923076923077
 40
0.3076923076923077
 40
0.3076923076923077
 40
0.3846153846153846
 40
0.3846153846153846
 40
0.3846153846153846
 40
0.3846153846153846
 40
0.4615384615384616
 40
0.4615384615384616
 40
0.4615384615384616
 40
0.4615384615384616
 40
0.5384615384615384
 40
0.5384615384615384
 40
0.5384615384615384
 40
0.5384615384615384
 40
0.6153846153846154
 40
0.6153846153846154
 40
0.6153846153846154
 40
0.6153846153846154
 40
0.6923076923076923
 40
0.6923076923076923
 40
0.6923076923076923
 40
0.6923076923076923
 40
0.7692307692307693
 40
0.7692307692307693
 40
0.7692307692307693
 40
0.7692307692307693
 40
0.8461538461538461
 40
0.8461538461538461
 40
0.8461538461538461
 40
0.8461538461538461
 40
1.0
 40
1.0
 40
1.0
 40
1.0
 10
-44.9518
 20
69.8369
 30
0.0
 10
-44.2852
 20
70.3593
 30
0.0
 10
-43.3996
 20
71.3276
 30
0.0
 10
-43.2535
 20
72.8646
 30
0.0
 10
-43.2535
 20
72.8646
 30
0.0
 10
-43.0148
 20
75.3788
 30
0.0
 10
-44.6873
 20
75.9541
 30
0.0
 10
-44.6873
 20
79.1948
 30
0.0
 10
-44.6873
 20
79.1948
 30
0.0
 10
-44.6873
 20
82.4358
 30
0.0
 10
-42.0243
 20
83.526
 30
0.0
 10
-42.0243
 20
83.526
 30
0.0
 10
-42.0243
 20
83.526
 30
0.0
 10
-42.0243
 20
83.526
 30
0.0
 10
-43.7652
 20
84.1012
 30
0.0
 10
-44.1065
 20
85.888
 30
0.0
 10
-44.1065
 20
85.888
 30
0.0
 10
-44.4479
 20
87.6752
 30
0.0
 10
-42.4677
 20
88.8261
 30
0.0
 10
-42.4677
 20
88.8261
 30
0.0
 10
-42.4677
 20
88.8261
 30
0.0
 10
-42.4677
 20
88.8261
 30
0.0
 10
-43.5857
 20
89.6132
 30
0.0
 10
-44.1753
 20
91.6352
 30
0.0
 10
-44.1753
 20
91.6352
 30
0.0
 10
-44.7636
 20
93.6567
 30
0.0
 10
-46.3766
 20
94.1789
 30
0.0
 10
-47.4007
 20
93.8154
 30
0.0
 10
-47.4007
 20
93.8154
 30
0.0
 10
-48.4249
 20
93.4524
 30
0.0
 10
-49.0902
 20
91.6575
 30
0.0
 10
-47.3495
 20
89.4088
 30
0.0
 10
-47.3495
 20
89.4088
 30
0.0
 10
-45.6086
 20
87.1603
 30
0.0
 10
-46.658
 20
83.0035
 30
0.0
 10
-52.3163
 20
83.3215
 30
0.0
 10
-52.3163
 20
83.3215
 30
0.0
 10
-52.3163
 20
83.3215
 30
0.0
 10
-50.8058
 20
81.7316
 30
0.0
 10
-50.3197
 20
78.6193
 30
0.0
 10
-50.3197
 20
78.6193
 30
0.0
 10
-50.019
 20
76.697
 30
0.0
 10
-50.8718
 20
74.9415
 30
0.0
 10
-51.5672
 20
73.8786
 30
0.0
 10
-51.5672
 20
73.8786
 30
0.0
 10
-49.2896
 20
72.6196
 30
0.0
 10
-47.0825
 20
71.2713
 30
0.0
 10
-44.9518
 20
69.8369
 30
0.0
  0
SPLINE
  5
C7
330
1F
100
AcDbEntity
  8
layer 1
 62
     7
370
    18
100
AcDbSpline
210
0.0
220
0.0
230
1.0
 70
    11
 71
     3
 72
    36
 73
    32
 74
     0
 42
0.0000000001
 43
0.0000000001
 12
1.0
 22
0.0
 32
0.0
 13
1.0
 23
0.0
 33
0.0
 40
0.0
 40
0.0
 40
0.0
 40
0.0
 40
0.1111111111111111
 40
0.1111111111111111
 40
0.1111111111111111
 40
0.1111111111111111
 40
0.2222222222222222
 40
0.2222222222222222
 40
0.2222222222222222
 40
0.2222222222222222
 40
0.3333333333333333
 40
0.3333333333333333
 40
0.3333333333333333
 40
0.3333333333333333
 40
0.4444444444444444
 40
0.4444444444444444
 40
0.4444444444444444
 40
0.4444444444444444
 40
0.5555555555555556
 40
0.5555555555555556
 40
0.5555555555555556
 40
0.5555555555555556
 40
0.6666666666666666
 40
0.6666666666666666
 40
0.6666666666666666
 40
0.6666666666666666
 40
0.7777777777777778
 40
0.7777777777777778
 40
0.7777777777777778
 40
0.7777777777777778
 40
1.0
 40
1.0
 40
1.0
 40
1.0
 10
-77.4387
 20
126.5524
 30
0.0
 10
-77.531
 20
125.9879
 30
0.0
 10
-77.5724
 20
124.876
 30
0.0
 10
-76.7742
 20
123.8676
 30
0.0
 10
-76.7742
 20
123.8676
 30
0.0
 10
-75.648
 20
122.4437
 30
0.0
 10
-73.464
 20
121.8993
 30
0.0
 10
-69.4693
 20
122.4138
 30
0.0
 10
-69.4693
 20
122.4138
 30
0.0
 10
-65.4756
 20
122.9284
 30
0.0
 10
-61.5841
 20
122.6259
 30
0.0
 10
-58.5119
 20
119.4149
 30
0.0
 10
-58.5119
 20
119.4149
 30
0.0
 10
-58.5119
 20
119.4149
 30
0.0
 10
-57.1123
 20
121.5958
 30
0.0
 10
-52.6058
 20
121.5958
 30
0.0
 10
-52.6058
 20
121.5958
 30
0.0
 10
-49.4383
 20
121.5958
 30
0.0
 10
-47.3512
 20
119.4711
 30
0.0
 10
-46.3906
 20
118.2086
 30
0.0
 10
-46.3906
 20
118.2086
 30
0.0
 10
-46.1372
 20
118.6569
 30
0.0
 10
-45.8715
 20
119.1747
 30
0.0
 10
-45.5738
 20
119.8995
 30
0.0
 10
-45.5738
 20
119.8995
 30
0.0
 10
-44.4642
 20
122.5997
 30
0.0
 10
-45.8023
 20
125.1735
 30
0.0
 10
-47.456
 20
126.5766
 30
0.0
 10
-47.456
 20
126.5766
 30
0.0
 10
-47.456
 20
126.5766
 30
0.0
 10
-77.4387
 20
126.5524
 30
0.0
 10
-77.4387
 20
126.5524
 30
0.0
  0
SPLINE
  5
C8
330
1F
100
AcDbEntity
  8
layer 1
 62
     7
370
    18
100
AcDbSpline
210
0.0
220
0.0
230
1.0
 70
    11
 71
     3
 72
    28
 73
    24
 74
     0
 42
0.0000000001
 43
0.0000000001
 12
1.0
 22
0.0
 32
0.0
 13
1.0
 23
0.0
 33
0.0
 40
0.0
 40
0.0
 40
0.0
 40
0.0
 40
0.1428571428571428
 40
0.1428571428571428
 40
0.1428571428571428
 40
0.1428571428571428
 40
0.2857142857142857
 40
0.2857142857142857
 40
0.2857142857142857
 40
0.2857142857142857
 40
0.4285714285714285
 40
0.4285714285714285
 40
0.4285714285714285
 40
0.4285714285714285
 40
0.5714285714285714
 40
0.5714285714285714
 40
0.5714285714285714
 40
0.5714285714285714
 40
0.7142857142857143
 40
0.7142857142857143
 40
0.7142857142857143
 40
0.7142857142857143
 40
1.0
 40
1.0
 40
1.0
 40
1.0
 10
-51.0303
 20
94.8986
 30
0.0
 10
-52.0399
 20
93.3442
 30
0.0
 10
-51.7192
 20
91.4629
 30
0.0
 10
-51.4797
 20
89.4921
 30
0.0
 10
-51.4797
 20
89.4921
 30
0.0
 10
-51.1383
 20
86.6759
 30
0.0
 10
-56.6
 20
85.6158
 30
0.0
 10
-68.3434
 20
91.9154
 30
0.0
 10
-68.3434
 20
91.9154
 30
0.0
 10
-80.0864
 20
98.2146
 30
0.0
 10
-80.9054
 20
102.3032
 30
0.0
 10
-80.9054
 20
102.3032
 30
0.0
 10
-80.9054
 20
102.3032
 30
0.0
 10
-76.3994
 20
98.3057
 30
0.0
 10
-71.5522
 20
95.9438
 30
0.0
 10
-67.2173
 20
94.7925
 30
0.0
 10
-67.2173
 20
94.7925
 30
0.0
 10
-62.8815
 20
93.6416
 30
0.0
 10
-58.6482
 20
92.8845
 30
0.0
 10
-53.7326
 20
94.0351
 30
0.0
 10
-53.7326
 20
94.0351
 30
0.0
 10
-52.754
 20
94.2644
 30
0.0
 10
-51.8511
 20
94.5648
 30
0.0
 10
-51.0303
 20
94.8986
 30
0.0
  0
SPLINE
  5
C9
330
1F
100
AcDbEntity
  8
layer 1
 62
     7
370
    18
100
AcDbSpline
210
0.0
220
0.0
230
1.0
 70
    11
 71
     3
 72
    24
 73
    20
 74
     0
 42
0.0000000001
 43
0.0000000001
 12
1.0
 22
0.0
 32
0.0
 13
1.0
 23
0.0
 33
0.0
 40
0.0
 40
0.0
 40
0.0
 40
0.0
 40
0.1666666666666667
 40
0.1666666666666667
 40
0.1666666666666667
 40
0.1666666666666667
 40
0.3333333333333333
 40
0.3333333333333333
 40
0.3333333333333333
 40
0.3333333333333333
 40
0.5
 40
0.5
 40
0.5
 40
0.5
 40
0.6666666666666666
 40
0.6666666666666666
 40
0.6666666666666666
 40
0.6666666666666666
 40
1.0
 40
1.0
 40
1.0
 40
1.0
 10
-42.7749
 20
126.6237
 30
0.0
 10
-41.0981
 20
125.6854
 30
0.0
 10
-38.4668
 20
123.5795
 30
0.0
 10
-38.0986
 20
119.4754
 30
0.0
 10
-38.0986
 20
119.4754
 30
0.0
 10
-38.0986
 20
119.4754
 30
0.0
 10
-36.1184
 20
120.4144
 30
0.0
 10
-33.4555
 20
120.4141
 30
0.0
 10
-33.4555
 20
120.4141
 30
0.0
 10
-30.7923
 20
120.4141
 30
0.0
 10
-30.0418
 20
121.353
 30
0.0
 10
-28.4029
 20
123.5942
 30
0.0
 10
-28.4029
 20
123.5942
 30
0.0
 10
-27.3269
 20
125.0657
 30
0.0
 10
-26.5152
 20
125.9998
 30
0.0
 10
-25.6606
 20
126.6237
 30
0.0
 10
-25.6606
 20
126.6237
 30
0.0
 10
-25.6606
 20
126.6237
 30
0.0
 10
-42.7749
 20
126.6237
 30
0.0
 10
-42.7749
 20
126.6237
 30
0.0
  0
SPLINE
  5
CA
330
1F
100
AcDbEntity
  8
layer 1
 62
     7
370
    18
100
AcDbSpline
210
0.0
220
0.0
230
1.0
 70
    11
 71
     3
 72
    28
 73
    24
 74
     0
 42
0.0000000001
 43
0.0000000001
 12
1.0
 22
0.0
 32
0.0
 13
1.0
 23
0.0
 33
0.0
 40
0.0
 40
0.0
 40
0.0
 40
0.0
 40
0.1428571428571428
 40
0.1428571428571428
 40
0.1428571428571428
 40
0.1428571428571428
 40
0.2857142857142857
 40
0.2857142857142857
 40
0.2857142857142857
 40
0.2857142857142857
 40
0.4285714285714285
 40
0.4285714285714285
 40
0.4285714285714285
 40
0.4285714285714285
 40
0.5714285714285714
 40
0.5714285714285714
 40
0.5714285714285714
 40
0.5714285714285714
 40
0.7142857142857143
 40
0.7142857142857143
 40
0.7142857142857143
 40
0.7142857142857143
 40
1.0
 40
1.0
 40
1.0
 40
1.0
 10
-78.7784
 20
104.3287
 30
0.0
 10
-78.2012
 20
104.9256
 30
0.0
 10
-76.9947
 20
105.737
 30
0.0
 10
-74.9652
 20
105.2109
 30
0.0
 10
-74.9652
 20
105.2109
 30
0.0
 10
-71.9272
 20
104.4235
 30
0.0
 10
-71.6202
 20
102.6669
 30
0.0
 10
-67.7626
 20
101.092
 30
0.0
 10
-67.7626
 20
101.092
 30
0.0
 10
-63.9057
 20
99.5171
 30
0.0
 10
-62.0962
 20
101.6977
 30
0.0
 10
-62.0962
 20
101.6977
 30
0.0
 10
-62.0962
 20
101.6977
 30
0.0
 10
-61.2772
 20
98.8815
 30
0.0
 10
-57.8977
 20
100.2892
 30
0.0
 10
-57.8977
 20
100.2892
 30
0.0
 10
-57.8977
 20
100.2892
 30
0.0
 10
-57.2325
 20
96.4731
 30
0.0
 10
-64.145
 20
96.3828
 30
0.0
 10
-71.4158
 20
99.6083
 30
0.0
 10
-71.4158
 20
99.6083
 30
0.0
 10
-73.8272
 20
100.678
 30
0.0
 10
-76.4237
 20
102.3346
 30
0.0
 10
-78.7784
 20
104.3287
 30
0.0
  0
SPLINE
  5
CB
330
1F
100
AcDbEntity
  8
layer 1
 62
     7
370
    18
100
AcDbSpline
210
0.0
220
0.0
230
1.0
 70
    11
 71
     3
 72
    28
 73
    24
 74
     0
 42
0.0000000001
 43
0.0000000001
 12
1.0
 22
0.0
 32
0.0
 13
1.0
 23
0.0
 33
0.0
 40
0.0
 40
0.0
 40
0.0
 40
0.0
 40
0.1428571428571428
 40
0.1428571428571428
 40
0.1428571428571428
 40
0.1428571428571428
 40
0.2857142857142857
 40
0.2857142857142857
 40
0.2857142857142857
 40
0.2857142857142857
 40
0.4285714285714285
 40
0.4285714285714285
 40
0.4285714285714285
 40
0.4285714285714285
 40
0.5714285714285714
 40
0.5714285714285714
 40
0.5714285714285714
 40
0.5714285714285714
 40
0.7142857142857143
 40
0.7142857142857143
 40
0.7142857142857143
 40
0.7142857142857143
 40
1.0
 40
1.0
 40
1.0
 40
1.0
 10
-32.2953
 20
80.7392
 30
0.0
 10
-31.1006
 20
79.1188
 30
0.0
 10
-31.2545
 20
76.9837
 30
0.0
 10
-31.3913
 20
75.5148
 30
0.0
 10
-31.3913
 20
75.5148
 30
0.0
 10
-31.5279
 20
74.0457
 30
0.0
 10
-31.1012
 20
72.3347
 30
0.0
 10
-30.6745
 20
71.6533
 30
0.0
 10
-30.6745
 20
71.6533
 30
0.0
 10
-30.6745
 20
71.6533
 30
0.0
 10
-32.1078
 20
71.9713
 30
0.0
 10
-32.9786
 20
74.0156
 30
0.0
 10
-32.9786
 20
74.0156
 30
0.0
 10
-33.8489
 20
76.06
 30
0.0
 10
-35.0263
 20
77.1497
 30
0.0
 10
-36.2211
 20
77.862
 30
0.0
 10
-36.2211
 20
77.862
 30
0.0
 10
-37.4159
 20
78.5743
 30
0.0
 10
-38.1491
 20
80.1789
 30
0.0
 10
-37.0913
 20
81.5874
 30
0.0
 10
-37.0913
 20
81.5874
 30
0.0
 10
-36.0328
 20
82.9955
 30
0.0
 10
-33.4901
 20
82.3595
 30
0.0
 10
-32.2953
 20
80.7392
 30
0.0
  0
SPLINE
  5
CC
330
1F
100
AcDbEntity
  8
layer 1
 62
     7
370
    18
100
AcDbSpline
210
0.0
220
0.0
230
1.0
 70
    11
 71
     3
 72
    24
 73
    20
 74
     0
 42
0.0000000001
 43
0.0000000001
 12
1.0
 22
0.0
 32
0.0
 13
1.0
 23
0.0
 33
0.0
 40
0.0
 40
0.0
 40
0.0
 40
0.0
 40
0.1666666666666667
 40
0.1666666666666667
 40
0.1666666666666667
 40
0.1666666666666667
 40
0.3333333333333333
 40
0.3333333333333333
 40
0.3333333333333333
 40
0.3333333333333333
 40
0.5
 40
0.5
 40
0.5
 40
0.5
 40
0.6666666666666666
 40
0.6666666666666666
 40
0.6666666666666666
 40
0.6666666666666666
 40
1.0
 40
1.0
 40
1.0
 40
1.0
 10
-31.6039
 20
115.1441
 30
0.0
 10
-31.6039
 20
115.1441
 30
0.0
 10
-33.9586
 20
114.0768
 30
0.0
 10
-34.8294
 20
110.9873
 30
0.0
 10
-34.8294
 20
110.9873
 30
0.0
 10
-35.7002
 20
107.8985
 30
0.0
 10
-36.6731
 20
105.264
 30
0.0
 10
-40.078
 20
105.582
 30
0.0
 10
-40.078
 20
105.582
 30
0.0
 10
-43.4831
 20
105.8999
 30
0.0
 10
-42.587
 20
109.4434
 30
0.0
 10
-40.3856
 20
110.0564
 30
0.0
 10
-40.3856
 20
110.0564
 30
0.0
 10
-38.183
 20
110.6699
 30
0.0
 10
-37.6973
 20
111.2378
 30
0.0
 10
-36.3143
 20
112.9184
 30
0.0
 10
-36.3143
 20
112.9184
 30
0.0
 10
-34.9323
 20
114.599
 30
0.0
 10
-31.6039
 20
115.1441
 30
0.0
 10
-31.6039
 20
115.1441
 30
0.0
  0
SPLINE
  5
CD
330
1F
100
AcDbEntity
  8
layer 1
 62
     7
370
    18
100
AcDbSpline
210
0.0
220
0.0
230
1.0
 70
    11
 71
     3
 72
    20
 73
    16
 74
     0
 42
0.0000000001
 43
0.0000000001
 12
1.0
 22
0.0
 32
0.0
 13
1.0
 23
0.0
 33
0.0
 40
0.0
 40
0.0
 40
0.0
 40
0.0
 40
0.2
 40
0.2
 40
0.2
 40
0.2
 40
0.4
 40
0.4
 40
0.4
 40
0.4
 40
0.6
 40
0.6
 40
0.6
 40
0.6
 40
1.0
 40
1.0
 40
1.0
 40
1.0
 10
-20.4636
 20
105.4329
 30
0.0
 10
-20.4636
 20
105.4329
 30
0.0
 10
-20.4636
 20
125.1554
 30
0.0
 10
-20.4636
 20
125.1554
 30
0.0
 10
-20.4636
 20
125.1554
 30
0.0
 10
-21.4281
 20
124.7927
 30
0.0
 10
-23.1086
 20
123.7764
 30
0.0
 10
-23.9997
 20
120.9893
 30
0.0
 10
-23.9997
 20
120.9893
 30
0.0
 10
-25.2966
 20
116.931
 30
0.0
 10
-22.4629
 20
113.9937
 30
0.0
 10
-26.4233
 20
110.2379
 30
0.0
 10
-26.4233
 20
110.2379
 30
0.0
 10
-26.4233
 20
110.2379
 30
0.0
 10
-22.4909
 20
108.4929
 30
0.0
 10
-20.4636
 20
105.4329
 30
0.0
  0
ENDSEC
  0
SECTION
  2
OBJECTS
  0
DICTIONARY
  5
C
330
0
100
AcDbDictionary
281
     1
  3
ACAD_GROUP
350
D
  3
ACAD_LAYOUT
350
1A
  3
ACAD_MATERIAL
350
3B
  3
ACAD_MLEADERSTYLE
350
EF
  3
ACAD_MLINESTYLE
350
17
  3
ACAD_PLOTSETTINGS
350
19
  3
ACAD_PLOTSTYLENAME
350
E
  3
ACAD_TABLESTYLE
350
EE
  3
ACAD_VISUALSTYLE
350
2A
  0
DICTIONARY
  5
D
102
{ACAD_REACTORS
330
C
102
}
330
C
100
AcDbDictionary
281
     1
  0
DICTIONARY
  5
1A
102
{ACAD_REACTORS
330
C
102
}
330
C
100
AcDbDictionary
281
     1
  3
Layout1
350
1E
  3
Layout2
350
26
  3
Model
350
22
  0
DICTIONARY
  5
3B
102
{ACAD_REACTORS
330
C
102
}
330
C
100
AcDbDictionary
281
     1
  3
ByBlock
350
3D
  3
ByLayer
350
3C
  3
Global
350
3E
  0
DICTIONARY
  5
EF
102
{ACAD_REACTORS
330
C
102
}
330
C
100
AcDbDictionary
281
     1
  0
DICTIONARY
  5
17
102
{ACAD_REACTORS
330
C
102
}
330
C
100
AcDbDictionary
281
     1
  3
Standard
350
18
  0
DICTIONARY
  5
19
102
{ACAD_REACTORS
330
C
102
}
330
C
100
AcDbDictionary
281
     1
  0
ACDBDICTIONARYWDFLT
  5
E
102
{ACAD_REACTORS
330
C
102
}
330
C
100
AcDbDictionary
281
     1
  3
Normal
350
F
100
AcDbDictionaryWithDefault
340
F
  0
DICTIONARY
  5
EE
102
{ACAD_REACTORS
330
C
102
}
330
C
100
AcDbDictionary
281
     1
  0
DICTIONARY
  5
2A
102
{ACAD_REACTORS
330
C
102
}
330
C
100
AcDbDictionary
281
     1
  3
2dWireframe
350
2F
  3
3D Hidden
350
31
  3
3dWireframe
350
30
  3
Basic
350
32
  3
Brighten
350
36
  3
ColorChange
350
3A
  3
Conceptual
350
34
  3
Dim
350
35
  3
Facepattern
350
39
  3
Flat
350
2B
  3
FlatWithEdges
350
2C
  3
Gouraud
350
2D
  3
GouraudWithEdges
350
2E
  3
Linepattern
350
38
  3
Realistic
350
33
  3
Thicken
350
37
  0
LAYOUT
  5
1E
102
{ACAD_REACTORS
330
1A
102
}
330
1A
100
AcDbPlotSettings
  1

  2
none_device
  4

  6

 40
0.0
 41
0.0
 42
0.0
 43
0.0
 44
0.0
 45
0.0
 46
0.0
 47
0.0
 48
0.0
 49
0.0
140
0.0
141
0.0
142
1.0
143
1.0
 70
   688
 72
     0
 73
     0
 74
     5
  7

 75
    16
 76
     0
 77
     2
 78
   300
147
1.0
148
0.0
149
0.0
100
AcDbLayout
  1
Layout1
 70
     1
 71
     1
 10
0.0
 20
0.0
 11
12.0
 21
9.0
 12
0.0
 22
0.0
 32
0.0
 14
1.000000000000000E+20
 24
1.000000000000000E+20
 34
1.000000000000000E+20
 15
-1.000000000000000E+20
 25
-1.000000000000000E+20
 35
-1.000000000000000E+20
146
0.0
 13
0.0
 23
0.0
 33
0.0
 16
1.0
 26
0.0
 36
0.0
 17
0.0
 27
1.0
 37
0.0
 76
     0
330
1B
  0
LAYOUT
  5
26
102
{ACAD_REACTORS
330
1A
102
}
330
1A
100
AcDbPlotSettings
  1

  2
none_device
  4

  6

 40
0.0
 41
0.0
 42
0.0
 43
0.0
 44
0.0
 45
0.0
 46
0.0
 47
0.0
 48
0.0
 49
0.0
140
0.0
141
0.0
142
1.0
143
1.0
 70
   688
 72
     0
 73
     0
 74
     5
  7

 75
    16
 76
     0
 77
     2
 78
   300
147
1.0
148
0.0
149
0.0
100
AcDbLayout
  1
Layout2
 70
     1
 71
     2
 10
0.0
 20
0.0
 11
0.0
 21
0.0
 12
0.0
 22
0.0
 32
0.0
 14
0.0
 24
0.0
 34
0.0
 15
0.0
 25
0.0
 35
0.0
146
0.0
 13
0.0
 23
0.0
 33
0.0
 16
1.0
 26
0.0
 36
0.0
 17
0.0
 27
1.0
 37
0.0
 76
     0
330
23
  0
LAYOUT
  5
22
102
{ACAD_REACTORS
330
1A
102
}
330
1A
100
AcDbPlotSettings
  1

  2
none_device
  4

  6

 40
0.0
 41
0.0
 42
0.0
 43
0.0
 44
0.0
 45
0.0
 46
0.0
 47
0.0
 48
0.0
 49
0.0
140
0.0
141
0.0
142
1.0
143
1.0
 70
  1712
 72
     0
 73
     0
 74
     0
  7

 75
     0
 76
     0
 77
     2
 78
   300
147
1.0
148
0.0
149
0.0
100
AcDbLayout
  1
Model
 70
     1
 71
     0
 10
0.0
 20
0.0
 11
12.0
 21
9.0
 12
0.0
 22
0.0
 32
0.0
 14
-179.7554
 24
-115.288
 34
0.0
 15
-15.9618
 25
131.614
 35
0.0
146
0.0
 13
0.0
 23
0.0
 33
0.0
 16
1.0
 26
0.0
 36
0.0
 17
0.0
 27
1.0
 37
0.0
 76
     0
330
1F
331
29
  0
MATERIAL
  5
3D
102
{ACAD_REACTORS
330
3B
102
}
330
3B
100
AcDbMaterial
  1
ByBlock
 72
     1
 94
      127
  0
MATERIAL
  5
3C
102
{ACAD_REACTORS
330
3B
102
}
330
3B
100
AcDbMaterial
  1
ByLayer
 72
     1
 94
      127
  0
MATERIAL
  5
3E
102
{ACAD_REACTORS
330
3B
102
}
330
3B
100
AcDbMaterial
  1
Global
 72
     1
 94
      127
  0
MLINESTYLE
  5
18
102
{ACAD_REACTORS
330
17
102
}
330
17
100
AcDbMlineStyle
  2
Standard
 70
     0
  3

 62
   256
 51
90.0
 52
90.0
 71
     2
 49
0.5
 62
   256
  6
BYLAYER
 49
-0.5
 62
   256
  6
BYLAYER
  0
ACDBPLACEHOLDER
  5
F
102
{ACAD_REACTORS
330
E
102
}
330
E
  0
VISUALSTYLE
  5
2F
102
{ACAD_REACTORS
330
2A
102
}
102
{ACAD_XDICTIONARY
360
D6
102
}
330
2A
100
AcDbVisualStyle
  2
2dWireframe
 70
     4
 71
     0
 72
     2
 73
     0
 90
        0
 40
-0.6
 41
-30.0
 62
     5
 63
     7
421
 16777215
 74
     1
 91
        4
 64
     7
 65
   257
 75
     1
175
     1
 42
1.0
 92
        0
 66
   257
 43
1.0
 76
     1
 77
     6
 78
     2
 67
     7
 79
     5
170
     0
171
     0
290
     0
174
     0
 93
        1
 44
0.0
173
     0
291
     0
 45
0.0
  0
VISUALSTYLE
  5
31
102
{ACAD_REACTORS
330
2A
102
}
102
{ACAD_XDICTIONARY
360
DA
102
}
330
2A
100
AcDbVisualStyle
  2
3D Hidden
 70
     6
 71
     1
 72
     2
 73
     2
 90
        0
 40
-0.6
 41
-30.0
 62
     5
 63
     7
421
 16777215
 74
     2
 91
        2
 64
     7
 65
   257
 75
     2
175
     1
 42
40.0
 92
        0
 66
   257
 43
1.0
 76
     1
 77
     6
 78
     2
 67
     7
 79
     3
170
     0
171
     0
290
     0
174
     0
 93
        1
 44
0.0
173
     0
291
     0
 45
0.0
  0
VISUALSTYLE
  5
30
102
{ACAD_REACTORS
330
2A
102
}
102
{ACAD_XDICTIONARY
360
D8
102
}
330
2A
100
AcDbVisualStyle
  2
3dWireframe
 70
     5
 71
     0
 72
     2
 73
     0
 90
        0
 40
-0.6
 41
-30.0
 62
     5
 63
     7
421
 16777215
 74
     1
 91
        4
 64
     7
 65
   257
 75
     1
175
     1
 42
1.0
 92
        0
 66
   257
 43
1.0
 76
     1
 77
     6
 78
     2
 67
     7
 79
     5
170
     0
171
     0
290
     0
174
     0
 93
        1
 44
0.0
173
     0
291
     0
 45
0.0
  0
VISUALSTYLE
  5
32
102
{ACAD_REACTORS
330
2A
102
}
102
{ACAD_XDICTIONARY
360
DC
102
}
330
2A
100
AcDbVisualStyle
  2
Basic
 70
     7
 71
     1
 72
     0
 73
     1
 90
        0
 40
-0.6
 41
-30.0
 62
     5
 63
     7
421
 16777215
 74
     0
 91
        4
 64
     7
 65
   257
 75
     1
175
     1
 42
1.0
 92
        8
 66
     7
 43
1.0
 76
     1
 77
     6
 78
     2
 67
     7
 79
     5
170
     0
171
     0
290
     0
174
     0
 93
        1
 44
0.0
173
     0
291
     1
 45
0.0
  0
VISUALSTYLE
  5
36
102
{ACAD_REACTORS
330
2A
102
}
102
{ACAD_XDICTIONARY
360
E4
102
}
330
2A
100
AcDbVisualStyle
  2
Brighten
 70
    12
 71
     2
 72
     2
 73
     0
 90
        0
 40
-0.6
 41
-30.0
 62
     5
 63
     7
421
 16777215
 74
     1
 91
        4
 64
     7
 65
   257
 75
     1
175
     1
 42
1.0
 92
        8
 66
     7
 43
1.0
 76
     1
 77
     6
 78
     2
 67
     7
 79
     5
170
     0
171
     0
290
     0
174
     0
 93
        1
 44
50.0
173
     0
291
     1
 45
0.0
  0
VISUALSTYLE
  5
3A
102
{ACAD_REACTORS
330
2A
102
}
102
{ACAD_XDICTIONARY
360
EC
102
}
330
2A
100
AcDbVisualStyle
  2
ColorChange
 70
    16
 71
     2
 72
     2
 73
     3
 90
        0
 40
-0.6
 41
-30.0
 62
     5
 63
     8
421
  8421504
 74
     1
 91
        4
 64
     7
 65
   257
 75
     1
175
     1
 42
1.0
 92
        8
 66
     8
424
  8421504
 43
1.0
 76
     1
 77
     6
 78
     2
 67
     7
 79
     5
170
     0
171
     0
290
     0
174
     0
 93
        1
 44
0.0
173
     0
291
     1
 45
0.0
  0
VISUALSTYLE
  5
34
102
{ACAD_REACTORS
330
2A
102
}
102
{ACAD_XDICTIONARY
360
E0
102
}
330
2A
100
AcDbVisualStyle
  2
Conceptual
 70
     9
 71
     3
 72
     2
 73
     0
 90
        0
 40
-0.6
 41
-30.0
 62
     5
 63
     7
421
 16777215
 74
     2
 91
        2
 64
     7
 65
   257
 75
     1
175
     1
 42
40.0
 92
        8
 66
     7
 43
1.0
 76
     1
 77
     6
 78
     2
 67
     7
 79
     3
170
     0
171
     0
290
     0
174
     0
 93
        1
 44
0.0
173
     0
291
     0
 45
0.0
  0
VISUALSTYLE
  5
35
102
{ACAD_REACTORS
330
2A
102
}
102
{ACAD_XDICTIONARY
360
E2
102
}
330
2A
100
AcDbVisualStyle
  2
Dim
 70
    11
 71
     2
 72
     2
 73
     0
 90
        0
 40
-0.6
 41
-30.0
 62
     5
 63
     7
421
 16777215
 74
     1
 91
        4
 64
     7
 65
   257
 75
     1
175
     1
 42
1.0
 92
        8
 66
     7
 43
1.0
 76
     1
 77
     6
 78
     2
 67
     7
 79
     5
170
     0
171
     0
290
     0
174
     0
 93
        1
 44
-50.0
173
     0
291
     1
 45
0.0
  0
VISUALSTYLE
  5
39
102
{ACAD_REACTORS
330
2A
102
}
102
{ACAD_XDICTIONARY
360
EA
102
}
330
2A
100
AcDbVisualStyle
  2
Facepattern
 70
    15
 71
     2
 72
     2
 73
     0
 90
        0
 40
-0.6
 41
-30.0
 62
     5
 63
     7
421
 16777215
 74
     1
 91
        4
 64
     7
 65
   257
 75
     1
175
     1
 42
1.0
 92
        8
 66
     7
 43
1.0
 76
     1
 77
     6
 78
     2
 67
     7
 79
     5
170
     0
171
     0
290
     0
174
     0
 93
        1
 44
0.0
173
     0
291
     1
 45
0.0
  0
VISUALSTYLE
  5
2B
102
{ACAD_REACTORS
330
2A
102
}
102
{ACAD_XDICTIONARY
360
CE
102
}
330
2A
100
AcDbVisualStyle
  2
Flat
 70
     0
 71
     2
 72
     1
 73
     1
 90
        2
 40
-0.6
 41
30.0
 62
     5
 63
     7
421
 16777215
 74
     0
 91
        4
 64
     7
 65
   257
 75
     1
175
     1
 42
1.0
 92
        8
 66
     7
 43
1.0
 76
     1
 77
     6
 78
     2
 67
     7
 79
     5
170
     0
171
     0
290
     0
174
     0
 93
       13
 44
0.0
173
     0
291
     1
 45
0.0
  0
VISUALSTYLE
  5
2C
102
{ACAD_REACTORS
330
2A
102
}
102
{ACAD_XDICTIONARY
360
D0
102
}
330
2A
100
AcDbVisualStyle
  2
FlatWithEdges
 70
     1
 71
     2
 72
     1
 73
     1
 90
        2
 40
-0.6
 41
30.0
 62
     5
 63
     7
421
 16777215
 74
     1
 91
        4
 64
     7
 65
   257
 75
     1
175
     1
 42
1.0
 92
        0
 66
   257
 43
1.0
 76
     1
 77
     6
 78
     2
 67
     7
 79
     5
170
     0
171
     0
290
     0
174
     0
 93
       13
 44
0.0
173
     0
291
     1
 45
0.0
  0
VISUALSTYLE
  5
2D
102
{ACAD_REACTORS
330
2A
102
}
102
{ACAD_XDICTIONARY
360
D2
102
}
330
2A
100
AcDbVisualStyle
  2
Gouraud
 70
     2
 71
     2
 72
     2
 73
     1
 90
        2
 40
-0.6
 41
30.0
 62
     5
 63
     7
421
 16777215
 74
     0
 91
        4
 64
     7
 65
   257
 75
     1
175
     1
 42
1.0
 92
        0
 66
     7
 43
1.0
 76
     1
 77
     6
 78
     2
 67
     7
 79
     5
170
     0
171
     0
290
     0
174
     0
 93
       13
 44
0.0
173
     0
291
     1
 45
0.0
  0
VISUALSTYLE
  5
2E
102
{ACAD_REACTORS
330
2A
102
}
102
{ACAD_XDICTIONARY
360
D4
102
}
330
2A
100
AcDbVisualStyle
  2
GouraudWithEdges
 70
     3
 71
     2
 72
     2
 73
     1
 90
        2
 40
-0.6
 41
30.0
 62
     5
 63
     7
421
 16777215
 74
     1
 91
        4
 64
     7
 65
   257
 75
     1
175
     1
 42
1.0
 92
        0
 66
   257
 43
1.0
 76
     1
 77
     6
 78
     2
 67
     7
 79
     5
170
     0
171
     0
290
     0
174
     0
 93
       13
 44
0.0
173
     0
291
     1
 45
0.0
  0
VISUALSTYLE
  5
38
102
{ACAD_REACTORS
330
2A
102
}
102
{ACAD_XDICTIONARY
360
E8
102
}
330
2A
100
AcDbVisualStyle
  2
Linepattern
 70
    14
 71
     2
 72
     2
 73
     0
 90
        0
 40
-0.6
 41
-30.0
 62
     5
 63
     7
421
 16777215
 74
     1
 91
        4
 64
     7
 65
   257
 75
     7
175
     7
 42
1.0
 92
        8
 66
     7
 43
1.0
 76
     1
 77
     6
 78
     2
 67
     7
 79
     5
170
     0
171
     0
290
     0
174
     0
 93
        1
 44
0.0
173
     0
291
     1
 45
0.0
  0
VISUALSTYLE
  5
33
102
{ACAD_REACTORS
330
2A
102
}
102
{ACAD_XDICTIONARY
360
DE
102
}
330
2A
100
AcDbVisualStyle
  2
Realistic
 70
     8
 71
     2
 72
     2
 73
     0
 90
        0
 40
-0.6
 41
-30.0
 62
     5
 63
     7
421
 16777215
 74
     1
 91
        0
 64
     7
 65
   257
 75
     1
175
     1
 42
1.0
 92
        8
 66
     8
424
  7895160
 43
1.0
 76
     1
 77
     6
 78
     2
 67
     7
 79
     5
170
     0
171
     0
290
     0
174
     0
 93
       13
 44
0.0
173
     0
291
     0
 45
0.0
  0
VISUALSTYLE
  5
37
102
{ACAD_REACTORS
330
2A
102
}
102
{ACAD_XDICTIONARY
360
E6
102
}
330
2A
100
AcDbVisualStyle
  2
Thicken
 70
    13
 71
     2
 72
     2
 73
     0
 90
        0
 40
-0.6
 41
-30.0
 62
     5
 63
     7
421
 16777215
 74
     1
 91
        4
 64
     7
 65
   257
 75
     1
175
     1
 42
1.0
 92
       12
 66
     7
 43
1.0
 76
     1
 77
     6
 78
     2
 67
     7
 79
     5
170
     0
171
     0
290
     0
174
     0
 93
        1
 44
0.0
173
     0
291
     1
 45
0.0
  0
DICTIONARY
  5
D6
330
2F
100
AcDbDictionary
280
     1
281
     1
  3
ACAD_XREC_ROUNDTRIP
360
D7
  0
DICTIONARY
  5
DA
330
31
100
AcDbDictionary
280
     1
281
     1
  3
ACAD_XREC_ROUNDTRIP
360
DB
  0
DICTIONARY
  5
D8
330
30
100
AcDbDictionary
280
     1
281
     1
  3
ACAD_XREC_ROUNDTRIP
360
D9
  0
DICTIONARY
  5
DC
330
32
100
AcDbDictionary
280
     1
281
     1
  3
ACAD_XREC_ROUNDTRIP
360
DD
  0
DICTIONARY
  5
E4
330
36
100
AcDbDictionary
280
     1
281
     1
  3
ACAD_XREC_ROUNDTRIP
360
E5
  0
DICTIONARY
  5
EC
330
3A
100
AcDbDictionary
280
     1
281
     1
  3
ACAD_XREC_ROUNDTRIP
360
ED
  0
DICTIONARY
  5
E0
330
34
100
AcDbDictionary
280
     1
281
     1
  3
ACAD_XREC_ROUNDTRIP
360
E1
  0
DICTIONARY
  5
E2
330
35
100
AcDbDictionary
280
     1
281
     1
  3
ACAD_XREC_ROUNDTRIP
360
E3
  0
DICTIONARY
  5
EA
330
39
100
AcDbDictionary
280
     1
281
     1
  3
ACAD_XREC_ROUNDTRIP
360
EB
  0
DICTIONARY
  5
CE
330
2B
100
AcDbDictionary
280
     1
281
     1
  3
ACAD_XREC_ROUNDTRIP
360
CF
  0
DICTIONARY
  5
D0
330
2C
100
AcDbDictionary
280
     1
281
     1
  3
ACAD_XREC_ROUNDTRIP
360
D1
  0
DICTIONARY
  5
D2
330
2D
100
AcDbDictionary
280
     1
281
     1
  3
ACAD_XREC_ROUNDTRIP
360
D3
  0
DICTIONARY
  5
D4
330
2E
100
AcDbDictionary
280
     1
281
     1
  3
ACAD_XREC_ROUNDTRIP
360
D5
  0
DICTIONARY
  5
E8
330
38
100
AcDbDictionary
280
     1
281
     1
  3
ACAD_XREC_ROUNDTRIP
360
E9
  0
DICTIONARY
  5
DE
330
33
100
AcDbDictionary
280
     1
281
     1
  3
ACAD_XREC_ROUNDTRIP
360
DF
  0
DICTIONARY
  5
E6
330
37
100
AcDbDictionary
280
     1
281
     1
  3
ACAD_XREC_ROUNDTRIP
360
E7
  0
XRECORD
  5
D7
102
{ACAD_REACTORS
330
D6
102
}
330
D6
100
AcDbXrecord
280
     1
102
RTVSPropertyOp0
 70
     1
102
RTVSPropertyOp1
 70
     1
102
RTVSPropertyOp2
 70
     1
102
RTVSPropertyOp3
 70
     1
102
RTVSPropertyOp4
 70
     1
102
RTVSPropertyOp5
 70
     1
102
RTVSPropertyOp6
 70
     1
102
RTVSPropertyOp7
 70
     1
102
RTVSPropertyOp8
 70
     1
102
RTVSPropertyOp9
 70
     1
102
RTVSPropertyOp10
 70
     1
102
RTVSPropertyOp11
 70
     1
102
RTVSPropertyOp12
 70
     1
102
RTVSPropertyOp13
 70
     1
102
RTVSPropertyOp14
 70
     1
102
RTVSPropertyOp15
 70
     1
102
RTVSPropertyOp16
 70
     1
102
RTVSPropertyOp17
 70
     1
102
RTVSPropertyOp18
 70
     1
102
RTVSPropertyOp19
 70
     1
102
RTVSPropertyOp20
 70
     1
102
RTVSPropertyOp21
 70
     1
102
RTVSPropertyOp22
 70
     1
102
RTVSPropertyOp23
 70
     1
102
RTVSPropertyOp24
 70
     1
102
RTVSPropertyOp25
 70
     1
102
RTVSPropertyOp26
 70
     1
102
RTVSPropertyOp27
 70
     1
102
RTVSPropertyOp28
 70
     1
102
RTVSPropertyOp29
 70
     1
102
RTVSPropertyOp30
 70
     1
102
RTVSPropertyOp31
 70
     1
102
RTVSPropertyOp32
 70
     1
  0
XRECORD
  5
DB
102
{ACAD_REACTORS
330
DA
102
}
330
DA
100
AcDbXrecord
280
     1
102
RTVSPropertyOp0
 70
     1
102
RTVSPropertyOp1
 70
     1
102
RTVSPropertyOp2
 70
     1
102
RTVSPropertyOp3
 70
     1
102
RTVSPropertyOp4
 70
     1
102
RTVSPropertyOp5
 70
     1
102
RTVSPropertyOp6
 70
     1
102
RTVSPropertyOp7
 70
     1
102
RTVSPropertyOp8
 70
     1
102
RTVSPropertyOp9
 70
     1
102
RTVSPropertyOp10
 70
     1
102
RTVSPropertyOp11
 70
     1
102
RTVSPropertyOp12
 70
     1
102
RTVSPropertyOp13
 70
     1
102
RTVSPropertyOp14
 70
     1
102
RTVSPropertyOp15
 70
     1
102
RTVSPropertyOp16
 70
     1
102
RTVSPropertyOp17
 70
     1
102
RTVSPropertyOp18
 70
     1
102
RTVSPropertyOp19
 70
     1
102
RTVSPropertyOp20
 70
     1
102
RTVSPropertyOp21
 70
     1
102
RTVSPropertyOp22
 70
     1
102
RTVSPropertyOp23
 70
     1
102
RTVSPropertyOp24
 70
     1
102
RTVSPropertyOp25
 70
     1
102
RTVSPropertyOp26
 70
     1
102
RTVSPropertyOp27
 70
     1
102
RTVSPropertyOp28
 70
     1
102
RTVSPropertyOp29
 70
     1
102
RTVSPropertyOp30
 70
     1
102
RTVSPropertyOp31
 70
     1
102
RTVSPropertyOp32
 70
     1
  0
XRECORD
  5
D9
102
{ACAD_REACTORS
330
D8
102
}
330
D8
100
AcDbXrecord
280
     1
102
RTVSPropertyOp0
 70
     1
102
RTVSPropertyOp1
 70
     1
102
RTVSPropertyOp2
 70
     1
102
RTVSPropertyOp3
 70
     1
102
RTVSPropertyOp4
 70
     1
102
RTVSPropertyOp5
 70
     1
102
RTVSPropertyOp6
 70
     1
102
RTVSPropertyOp7
 70
     1
102
RTVSPropertyOp8
 70
     1
102
RTVSPropertyOp9
 70
     1
102
RTVSPropertyOp10
 70
     1
102
RTVSPropertyOp11
 70
     1
102
RTVSPropertyOp12
 70
     1
102
RTVSPropertyOp13
 70
     1
102
RTVSPropertyOp14
 70
     1
102
RTVSPropertyOp15
 70
     1
102
RTVSPropertyOp16
 70
     1
102
RTVSPropertyOp17
 70
     1
102
RTVSPropertyOp18
 70
     1
102
RTVSPropertyOp19
 70
     1
102
RTVSPropertyOp20
 70
     1
102
RTVSPropertyOp21
 70
     1
102
RTVSPropertyOp22
 70
     1
102
RTVSPropertyOp23
 70
     1
102
RTVSPropertyOp24
 70
     1
102
RTVSPropertyOp25
 70
     1
102
RTVSPropertyOp26
 70
     1
102
RTVSPropertyOp27
 70
     1
102
RTVSPropertyOp28
 70
     1
102
RTVSPropertyOp29
 70
     1
102
RTVSPropertyOp30
 70
     1
102
RTVSPropertyOp31
 70
     1
102
RTVSPropertyOp32
 70
     1
  0
XRECORD
  5
DD
102
{ACAD_REACTORS
330
DC
102
}
330
DC
100
AcDbXrecord
280
     1
102
RTVSPropertyOp0
 70
     1
102
RTVSPropertyOp1
 70
     1
102
RTVSPropertyOp2
 70
     1
102
RTVSPropertyOp3
 70
     1
102
RTVSPropertyOp4
 70
     1
102
RTVSPropertyOp5
 70
     1
102
RTVSPropertyOp6
 70
     1
102
RTVSPropertyOp7
 70
     1
102
RTVSPropertyOp8
 70
     1
102
RTVSPropertyOp9
 70
     1
102
RTVSPropertyOp10
 70
     1
102
RTVSPropertyOp11
 70
     1
102
RTVSPropertyOp12
 70
     1
102
RTVSPropertyOp13
 70
     1
102
RTVSPropertyOp14
 70
     1
102
RTVSPropertyOp15
 70
     1
102
RTVSPropertyOp16
 70
     1
102
RTVSPropertyOp17
 70
     1
102
RTVSPropertyOp18
 70
     1
102
RTVSPropertyOp19
 70
     1
102
RTVSPropertyOp20
 70
     1
102
RTVSPropertyOp21
 70
     1
102
RTVSPropertyOp22
 70
     1
102
RTVSPropertyOp23
 70
     1
102
RTVSPropertyOp24
 70
     1
102
RTVSPropertyOp25
 70
     1
102
RTVSPropertyOp26
 70
     1
102
RTVSPropertyOp27
 70
     1
102
RTVSPropertyOp28
 70
     1
102
RTVSPropertyOp29
 70
     1
102
RTVSPropertyOp30
 70
     1
102
RTVSPropertyOp31
 70
     1
102
RTVSPropertyOp32
 70
     1
  0
XRECORD
  5
E5
102
{ACAD_REACTORS
330
E4
102
}
330
E4
100
AcDbXrecord
280
     1
102
RTVSPropertyOp0
 70
     1
102
RTVSPropertyOp1
 70
     1
102
RTVSPropertyOp2
 70
     1
102
RTVSPropertyOp3
 70
     1
102
RTVSPropertyOp4
 70
     1
102
RTVSPropertyOp5
 70
     1
102
RTVSPropertyOp6
 70
     1
102
RTVSPropertyOp7
 70
     1
102
RTVSPropertyOp8
 70
     1
102
RTVSPropertyOp9
 70
     1
102
RTVSPropertyOp10
 70
     1
102
RTVSPropertyOp11
 70
     1
102
RTVSPropertyOp12
 70
     1
102
RTVSPropertyOp13
 70
     1
102
RTVSPropertyOp14
 70
     1
102
RTVSPropertyOp15
 70
     1
102
RTVSPropertyOp16
 70
     1
102
RTVSPropertyOp17
 70
     1
102
RTVSPropertyOp18
 70
     1
102
RTVSPropertyOp19
 70
     1
102
RTVSPropertyOp20
 70
     1
102
RTVSPropertyOp21
 70
     1
102
RTVSPropertyOp22
 70
     1
102
RTVSPropertyOp23
 70
     1
102
RTVSPropertyOp24
 70
     1
102
RTVSPropertyOp25
 70
     1
102
RTVSPropertyOp26
 70
     1
102
RTVSPropertyOp27
 70
     1
102
RTVSPropertyOp28
 70
     1
102
RTVSPropertyOp29
 70
     1
102
RTVSPropertyOp30
 70
     1
102
RTVSPropertyOp31
 70
     1
102
RTVSPropertyOp32
 70
     1
  0
XRECORD
  5
ED
102
{ACAD_REACTORS
330
EC
102
}
330
EC
100
AcDbXrecord
280
     1
102
RTVSPropertyOp0
 70
     1
102
RTVSPropertyOp1
 70
     1
102
RTVSPropertyOp2
 70
     1
102
RTVSPropertyOp3
 70
     1
102
RTVSPropertyOp4
 70
     1
102
RTVSPropertyOp5
 70
     1
102
RTVSPropertyOp6
 70
     1
102
RTVSPropertyOp7
 70
     1
102
RTVSPropertyOp8
 70
     1
102
RTVSPropertyOp9
 70
     1
102
RTVSPropertyOp10
 70
     1
102
RTVSPropertyOp11
 70
     1
102
RTVSPropertyOp12
 70
     1
102
RTVSPropertyOp13
 70
     1
102
RTVSPropertyOp14
 70
     1
102
RTVSPropertyOp15
 70
     1
102
RTVSPropertyOp16
 70
     1
102
RTVSPropertyOp17
 70
     1
102
RTVSPropertyOp18
 70
     1
102
RTVSPropertyOp19
 70
     1
102
RTVSPropertyOp20
 70
     1
102
RTVSPropertyOp21
 70
     1
102
RTVSPropertyOp22
 70
     1
102
RTVSPropertyOp23
 70
     1
102
RTVSPropertyOp24
 70
     1
102
RTVSPropertyOp25
 70
     1
102
RTVSPropertyOp26
 70
     1
102
RTVSPropertyOp27
 70
     1
102
RTVSPropertyOp28
 70
     1
102
RTVSPropertyOp29
 70
     1
102
RTVSPropertyOp30
 70
     1
102
RTVSPropertyOp31
 70
     1
102
RTVSPropertyOp32
 70
     1
  0
XRECORD
  5
E1
102
{ACAD_REACTORS
330
E0
102
}
330
E0
100
AcDbXrecord
280
     1
102
RTVSPropertyOp0
 70
     1
102
RTVSPropertyOp1
 70
     1
102
RTVSPropertyOp2
 70
     1
102
RTVSPropertyOp3
 70
     1
102
RTVSPropertyOp4
 70
     1
102
RTVSPropertyOp5
 70
     1
102
RTVSPropertyOp6
 70
     1
102
RTVSPropertyOp7
 70
     1
102
RTVSPropertyOp8
 70
     1
102
RTVSPropertyOp9
 70
     1
102
RTVSPropertyOp10
 70
     1
102
RTVSPropertyOp11
 70
     1
102
RTVSPropertyOp12
 70
     1
102
RTVSPropertyOp13
 70
     1
102
RTVSPropertyOp14
 70
     1
102
RTVSPropertyOp15
 70
     1
102
RTVSPropertyOp16
 70
     1
102
RTVSPropertyOp17
 70
     1
102
RTVSPropertyOp18
 70
     1
102
RTVSPropertyOp19
 70
     1
102
RTVSPropertyOp20
 70
     1
102
RTVSPropertyOp21
 70
     1
102
RTVSPropertyOp22
 70
     1
102
RTVSPropertyOp23
 70
     1
102
RTVSPropertyOp24
 70
     1
102
RTVSPropertyOp25
 70
     1
102
RTVSPropertyOp26
 70
     1
102
RTVSPropertyOp27
 70
     1
102
RTVSPropertyOp28
 70
     1
102
RTVSPropertyOp29
 70
     1
102
RTVSPropertyOp30
 70
     1
102
RTVSPropertyOp31
 70
     1
102
RTVSPropertyOp32
 70
     1
  0
XRECORD
  5
E3
102
{ACAD_REACTORS
330
E2
102
}
330
E2
100
AcDbXrecord
280
     1
102
RTVSPropertyOp0
 70
     1
102
RTVSPropertyOp1
 70
     1
102
RTVSPropertyOp2
 70
     1
102
RTVSPropertyOp3
 70
     1
102
RTVSPropertyOp4
 70
     1
102
RTVSPropertyOp5
 70
     1
102
RTVSPropertyOp6
 70
     1
102
RTVSPropertyOp7
 70
     1
102
RTVSPropertyOp8
 70
     1
102
RTVSPropertyOp9
 70
     1
102
RTVSPropertyOp10
 70
     1
102
RTVSPropertyOp11
 70
     1
102
RTVSPropertyOp12
 70
     1
102
RTVSPropertyOp13
 70
     1
102
RTVSPropertyOp14
 70
     1
102
RTVSPropertyOp15
 70
     1
102
RTVSPropertyOp16
 70
     1
102
RTVSPropertyOp17
 70
     1
102
RTVSPropertyOp18
 70
     1
102
RTVSPropertyOp19
 70
     1
102
RTVSPropertyOp20
 70
     1
102
RTVSPropertyOp21
 70
     1
102
RTVSPropertyOp22
 70
     1
102
RTVSPropertyOp23
 70
     1
102
RTVSPropertyOp24
 70
     1
102
RTVSPropertyOp25
 70
     1
102
RTVSPropertyOp26
 70
     1
102
RTVSPropertyOp27
 70
     1
102
RTVSPropertyOp28
 70
     1
102
RTVSPropertyOp29
 70
     1
102
RTVSPropertyOp30
 70
     1
102
RTVSPropertyOp31
 70
     1
102
RTVSPropertyOp32
 70
     1
  0
XRECORD
  5
EB
102
{ACAD_REACTORS
330
EA
102
}
330
EA
100
AcDbXrecord
280
     1
102
RTVSPropertyOp0
 70
     1
102
RTVSPropertyOp1
 70
     1
102
RTVSPropertyOp2
 70
     1
102
RTVSPropertyOp3
 70
     1
102
RTVSPropertyOp4
 70
     1
102
RTVSPropertyOp5
 70
     1
102
RTVSPropertyOp6
 70
     1
102
RTVSPropertyOp7
 70
     1
102
RTVSPropertyOp8
 70
     1
102
RTVSPropertyOp9
 70
     1
102
RTVSPropertyOp10
 70
     1
102
RTVSPropertyOp11
 70
     1
102
RTVSPropertyOp12
 70
     1
102
RTVSPropertyOp13
 70
     1
102
RTVSPropertyOp14
 70
     1
102
RTVSPropertyOp15
 70
     1
102
RTVSPropertyOp16
 70
     1
102
RTVSPropertyOp17
 70
     1
102
RTVSPropertyOp18
 70
     1
102
RTVSPropertyOp19
 70
     1
102
RTVSPropertyOp20
 70
     1
102
RTVSPropertyOp21
 70
     1
102
RTVSPropertyOp22
 70
     1
102
RTVSPropertyOp23
 70
     1
102
RTVSPropertyOp24
 70
     1
102
RTVSPropertyOp25
 70
     1
102
RTVSPropertyOp26
 70
     1
102
RTVSPropertyOp27
 70
     1
102
RTVSPropertyOp28
 70
     1
102
RTVSPropertyOp29
 70
     1
102
RTVSPropertyOp30
 70
     1
102
RTVSPropertyOp31
 70
     1
102
RTVSPropertyOp32
 70
     1
  0
XRECORD
  5
CF
102
{ACAD_REACTORS
330
CE
102
}
330
CE
100
AcDbXrecord
280
     1
102
RTVSPropertyOp0
 70
     1
102
RTVSPropertyOp1
 70
     1
102
RTVSPropertyOp2
 70
     1
102
RTVSPropertyOp3
 70
     1
102
RTVSPropertyOp4
 70
     1
102
RTVSPropertyOp5
 70
     1
102
RTVSPropertyOp6
 70
     1
102
RTVSPropertyOp7
 70
     1
102
RTVSPropertyOp8
 70
     1
102
RTVSPropertyOp9
 70
     1
102
RTVSPropertyOp10
 70
     1
102
RTVSPropertyOp11
 70
     1
102
RTVSPropertyOp12
 70
     1
102
RTVSPropertyOp13
 70
     1
102
RTVSPropertyOp14
 70
     1
102
RTVSPropertyOp15
 70
     1
102
RTVSPropertyOp16
 70
     1
102
RTVSPropertyOp17
 70
     1
102
RTVSPropertyOp18
 70
     1
102
RTVSPropertyOp19
 70
     1
102
RTVSPropertyOp20
 70
     1
102
RTVSPropertyOp21
 70
     1
102
RTVSPropertyOp22
 70
     1
102
RTVSPropertyOp23
 70
     1
102
RTVSPropertyOp24
 70
     1
102
RTVSPropertyOp25
 70
     1
102
RTVSPropertyOp26
 70
     1
102
RTVSPropertyOp27
 70
     1
102
RTVSPropertyOp28
 70
     1
102
RTVSPropertyOp29
 70
     1
102
RTVSPropertyOp30
 70
     1
102
RTVSPropertyOp31
 70
     1
102
RTVSPropertyOp32
 70
     1
  0
XRECORD
  5
D1
102
{ACAD_REACTORS
330
D0
102
}
330
D0
100
AcDbXrecord
280
     1
102
RTVSPropertyOp0
 70
     1
102
RTVSPropertyOp1
 70
     1
102
RTVSPropertyOp2
 70
     1
102
RTVSPropertyOp3
 70
     1
102
RTVSPropertyOp4
 70
     1
102
RTVSPropertyOp5
 70
     1
102
RTVSPropertyOp6
 70
     1
102
RTVSPropertyOp7
 70
     1
102
RTVSPropertyOp8
 70
     1
102
RTVSPropertyOp9
 70
     1
102
RTVSPropertyOp10
 70
     1
102
RTVSPropertyOp11
 70
     1
102
RTVSPropertyOp12
 70
     1
102
RTVSPropertyOp13
 70
     1
102
RTVSPropertyOp14
 70
     1
102
RTVSPropertyOp15
 70
     1
102
RTVSPropertyOp16
 70
     1
102
RTVSPropertyOp17
 70
     1
102
RTVSPropertyOp18
 70
     1
102
RTVSPropertyOp19
 70
     1
102
RTVSPropertyOp20
 70
     1
102
RTVSPropertyOp21
 70
     1
102
RTVSPropertyOp22
 70
     1
102
RTVSPropertyOp23
 70
     1
102
RTVSPropertyOp24
 70
     1
102
RTVSPropertyOp25
 70
     1
102
RTVSPropertyOp26
 70
     1
102
RTVSPropertyOp27
 70
     1
102
RTVSPropertyOp28
 70
     1
102
RTVSPropertyOp29
 70
     1
102
RTVSPropertyOp30
 70
     1
102
RTVSPropertyOp31
 70
     1
102
RTVSPropertyOp32
 70
     1
  0
XRECORD
  5
D3
102
{ACAD_REACTORS
330
D2
102
}
330
D2
100
AcDbXrecord
280
     1
102
RTVSPropertyOp0
 70
     1
102
RTVSPropertyOp1
 70
     1
102
RTVSPropertyOp2
 70
     1
102
RTVSPropertyOp3
 70
     1
102
RTVSPropertyOp4
 70
     1
102
RTVSPropertyOp5
 70
     1
102
RTVSPropertyOp6
 70
     1
102
RTVSPropertyOp7
 70
     1
102
RTVSPropertyOp8
 70
     1
102
RTVSPropertyOp9
 70
     1
102
RTVSPropertyOp10
 70
     1
102
RTVSPropertyOp11
 70
     1
102
RTVSPropertyOp12
 70
     1
102
RTVSPropertyOp13
 70
     1
102
RTVSPropertyOp14
 70
     1
102
RTVSPropertyOp15
 70
     1
102
RTVSPropertyOp16
 70
     1
102
RTVSPropertyOp17
 70
     1
102
RTVSPropertyOp18
 70
     1
102
RTVSPropertyOp19
 70
     1
102
RTVSPropertyOp20
 70
     1
102
RTVSPropertyOp21
 70
     1
102
RTVSPropertyOp22
 70
     1
102
RTVSPropertyOp23
 70
     1
102
RTVSPropertyOp24
 70
     1
102
RTVSPropertyOp25
 70
     1
102
RTVSPropertyOp26
 70
     1
102
RTVSPropertyOp27
 70
     1
102
RTVSPropertyOp28
 70
     1
102
RTVSPropertyOp29
 70
     1
102
RTVSPropertyOp30
 70
     1
102
RTVSPropertyOp31
 70
     1
102
RTVSPropertyOp32
 70
     1
  0
XRECORD
  5
D5
102
{ACAD_REACTORS
330
D4
102
}
330
D4
100
AcDbXrecord
280
     1
102
RTVSPropertyOp0
 70
     1
102
RTVSPropertyOp1
 70
     1
102
RTVSPropertyOp2
 70
     1
102
RTVSPropertyOp3
 70
     1
102
RTVSPropertyOp4
 70
     1
102
RTVSPropertyOp5
 70
     1
102
RTVSPropertyOp6
 70
     1
102
RTVSPropertyOp7
 70
     1
102
RTVSPropertyOp8
 70
     1
102
RTVSPropertyOp9
 70
     1
102
RTVSPropertyOp10
 70
     1
102
RTVSPropertyOp11
 70
     1
102
RTVSPropertyOp12
 70
     1
102
RTVSPropertyOp13
 70
     1
102
RTVSPropertyOp14
 70
     1
102
RTVSPropertyOp15
 70
     1
102
RTVSPropertyOp16
 70
     1
102
RTVSPropertyOp17
 70
     1
102
RTVSPropertyOp18
 70
     1
102
RTVSPropertyOp19
 70
     1
102
RTVSPropertyOp20
 70
     1
102
RTVSPropertyOp21
 70
     1
102
RTVSPropertyOp22
 70
     1
102
RTVSPropertyOp23
 70
     1
102
RTVSPropertyOp24
 70
     1
102
RTVSPropertyOp25
 70
     1
102
RTVSPropertyOp26
 70
     1
102
RTVSPropertyOp27
 70
     1
102
RTVSPropertyOp28
 70
     1
102
RTVSPropertyOp29
 70
     1
102
RTVSPropertyOp30
 70
     1
102
RTVSPropertyOp31
 70
     1
102
RTVSPropertyOp32
 70
     1
  0
XRECORD
  5
E9
102
{ACAD_REACTORS
330
E8
102
}
330
E8
100
AcDbXrecord
280
     1
102
RTVSPropertyOp0
 70
     1
102
RTVSPropertyOp1
 70
     1
102
RTVSPropertyOp2
 70
     1
102
RTVSPropertyOp3
 70
     1
102
RTVSPropertyOp4
 70
     1
102
RTVSPropertyOp5
 70
     1
102
RTVSPropertyOp6
 70
     1
102
RTVSPropertyOp7
 70
     1
102
RTVSPropertyOp8
 70
     1
102
RTVSPropertyOp9
 70
     1
102
RTVSPropertyOp10
 70
     1
102
RTVSPropertyOp11
 70
     1
102
RTVSPropertyOp12
 70
     1
102
RTVSPropertyOp13
 70
     1
102
RTVSPropertyOp14
 70
     1
102
RTVSPropertyOp15
 70
     1
102
RTVSPropertyOp16
 70
     1
102
RTVSPropertyOp17
 70
     1
102
RTVSPropertyOp18
 70
     1
102
RTVSPropertyOp19
 70
     1
102
RTVSPropertyOp20
 70
     1
102
RTVSPropertyOp21
 70
     1
102
RTVSPropertyOp22
 70
     1
102
RTVSPropertyOp23
 70
     1
102
RTVSPropertyOp24
 70
     1
102
RTVSPropertyOp25
 70
     1
102
RTVSPropertyOp26
 70
     1
102
RTVSPropertyOp27
 70
     1
102
RTVSPropertyOp28
 70
     1
102
RTVSPropertyOp29
 70
     1
102
RTVSPropertyOp30
 70
     1
102
RTVSPropertyOp31
 70
     1
102
RTVSPropertyOp32
 70
     1
  0
XRECORD
  5
DF
102
{ACAD_REACTORS
330
DE
102
}
330
DE
100
AcDbXrecord
280
     1
102
RTVSPropertyOp0
 70
     1
102
RTVSPropertyOp1
 70
     1
102
RTVSPropertyOp2
 70
     1
102
RTVSPropertyOp3
 70
     1
102
RTVSPropertyOp4
 70
     1
102
RTVSPropertyOp5
 70
     1
102
RTVSPropertyOp6
 70
     1
102
RTVSPropertyOp7
 70
     1
102
RTVSPropertyOp8
 70
     1
102
RTVSPropertyOp9
 70
     1
102
RTVSPropertyOp10
 70
     1
102
RTVSPropertyOp11
 70
     1
102
RTVSPropertyOp12
 70
     1
102
RTVSPropertyOp13
 70
     1
102
RTVSPropertyOp14
 70
     1
102
RTVSPropertyOp15
 70
     1
102
RTVSPropertyOp16
 70
     1
102
RTVSPropertyOp17
 70
     1
102
RTVSPropertyOp18
 70
     1
102
RTVSPropertyOp19
 70
     1
102
RTVSPropertyOp20
 70
     1
102
RTVSPropertyOp21
 70
     1
102
RTVSPropertyOp22
 70
     1
102
RTVSPropertyOp23
 70
     1
102
RTVSPropertyOp24
 70
     1
102
RTVSPropertyOp25
 70
     1
102
RTVSPropertyOp26
 70
     1
102
RTVSPropertyOp27
 70
     1
102
RTVSPropertyOp28
 70
     1
102
RTVSPropertyOp29
 70
     1
102
RTVSPropertyOp30
 70
     1
102
RTVSPropertyOp31
 70
     1
102
RTVSPropertyOp32
 70
     1
  0
XRECORD
  5
E7
102
{ACAD_REACTORS
330
E6
102
}
330
E6
100
AcDbXrecord
280
     1
102
RTVSPropertyOp0
 70
     1
102
RTVSPropertyOp1
 70
     1
102
RTVSPropertyOp2
 70
     1
102
RTVSPropertyOp3
 70
     1
102
RTVSPropertyOp4
 70
     1
102
RTVSPropertyOp5
 70
     1
102
RTVSPropertyOp6
 70
     1
102
RTVSPropertyOp7
 70
     1
102
RTVSPropertyOp8
 70
     1
102
RTVSPropertyOp9
 70
     1
102
RTVSPropertyOp10
 70
     1
102
RTVSPropertyOp11
 70
     1
102
RTVSPropertyOp12
 70
     1
102
RTVSPropertyOp13
 70
     1
102
RTVSPropertyOp14
 70
     1
102
RTVSPropertyOp15
 70
     1
102
RTVSPropertyOp16
 70
     1
102
RTVSPropertyOp17
 70
     1
102
RTVSPropertyOp18
 70
     1
102
RTVSPropertyOp19
 70
     1
102
RTVSPropertyOp20
 70
     1
102
RTVSPropertyOp21
 70
     1
102
RTVSPropertyOp22
 70
     1
102
RTVSPropertyOp23
 70
     1
102
RTVSPropertyOp24
 70
     1
102
RTVSPropertyOp25
 70
     1
102
RTVSPropertyOp26
 70
     1
102
RTVSPropertyOp27
 70
     1
102
RTVSPropertyOp28
 70
     1
102
RTVSPropertyOp29
 70
     1
102
RTVSPropertyOp30
 70
     1
102
RTVSPropertyOp31
 70
     1
102
RTVSPropertyOp32
 70
     1
  0
ENDSEC
  0
EOF
